  0
SECTION
  2
HEADER
  9
$ACADVER
  1
AC1021
  9
$DWGCODEPAGE
  3
ANSI_1252
  9
$EXTMAX
 10
297.0
 20
210.0
 30
0.0
  9
$EXTMIN
 10
0.0
 20
0.0
 30
0.0
  9
$LIMMIN
 10
0.0
 20
0.0
  9
$LIMMAX
 10
297.0
 20
210.0
  9
$VIEWCTR
 10
148.5
 20
105.0
  9
$VIEWSIZE
 40
210.0
  9
$CLAYER
  8
0
  9
$LTSCALE
 40
16.335
  9
$CELTYPE
  6
BYLAYER
  9
$DIMSCALE
 40
1.0
  9
$DIMASZ
 40
3.0
  9
$DIMEXO
 40
0.5
  9
$DIMDLI
 40
11.286
  9
$DIMEXE
 40
1.5
  9
$DIMCEN
 40
2.673
  9
$DIMLFAC
 40
1.0
  9
$DIMBLK
  1
_FILLED
  9
$DIMALT
 70
0
  9
$DIMALTF
 40
25.4
  9
$DIMTXT
 40
3.0
  9
$DIMTOL
 70
1
  9
$DIMLIM
 70
0
  9
$DIMTFAC
 40
1.0
  9
$DIMTP
 40
0.01
  9
$DIMTM
 40
0.01
  9
$DIMGAP
 40
0.625
  9
$DIMDSEP
 70
44
  9
$AUNITS
 70
0
  9
$PDMODE
 70
3
  9
$PDSIZE
 40
3.0
  9
$HANDSEED
  5
586
  9
$TILEMODE
 70
1
  9
$MEASUREMENT
 70
1
  9
$INSUNITS
 70
4
  0
ENDSEC
  0
SECTION
  2
CLASSES
  0
CLASS
  1
ACDBDICTIONARYWDFLT
  2
AcDbDictionaryWithDefault
  3
AutoCAD 2000
 90
0
 91
1
280
0
281
0
  0
CLASS
  1
ACDBPLACEHOLDER
  2
AcDbPlaceHolder
  3
AutoCAD 2000
 90
0
 91
1
280
0
281
0
  0
CLASS
  1
LAYOUT
  2
AcDbLayout
  3
AutoCAD 2000
 90
0
 91
0
280
0
281
0
  0
ENDSEC
  0
SECTION
  2
TABLES
  0
TABLE
  2
VPORT
  5
8
100
AcDbSymbolTable
 70
2
  0
VPORT
  5
1F4
100
AcDbSymbolTableRecord
100
AcDbViewportTableRecord
  2
*ACTIVE
 70
0
 10
0.0
 20
0.0
 11
1.0
 21
1.0
 12
148.5
 22
105.0
 13
0.0
 23
0.0
 14
1.0
 24
1.0
 15
0.0
 25
0.0
 16
0.0
 26
0.0
 36
1.0
 17
0.0
 27
0.0
 37
0.0
 40
210.0
 41
1.4142857143
 42
50.0
 43
0.0
 44
0.0
 50
0.0
 51
0.0
 71
0
 72
100
 73
1
 74
1
 75
0
 76
0
 77
0
 78
0
  0
ENDTAB
  0
TABLE
  2
LTYPE
  5
5
100
AcDbSymbolTable
 70
6
  0
LTYPE
  5
14
100
AcDbSymbolTableRecord
100
AcDbLinetypeTableRecord
  2
BYBLOCK
 70
0
  3

 72
65
 73
0
 40
0.0
  0
LTYPE
  5
15
100
AcDbSymbolTableRecord
100
AcDbLinetypeTableRecord
  2
BYLAYER
 70
0
  3

 72
65
 73
0
 40
0.0
  0
LTYPE
  5
16
100
AcDbSymbolTableRecord
100
AcDbLinetypeTableRecord
  2
CONTINUOUS
 70
64
  3
Solid line
 72
65
 73
0
 40
0.0
  0
LTYPE
  5
1F5
100
AcDbSymbolTableRecord
100
AcDbLinetypeTableRecord
  2
CENTER
 70
64
  3
____ _ ____ _ ____ _ ____ _ ____ _ ____ _ ____
 72
65
 73
4
 40
0.6
 49
0.375
 74
0
 49
-0.075
 74
0
 49
0.075
 74
0
 49
-0.075
 74
0
  0
LTYPE
  5
1F6
100
AcDbSymbolTableRecord
100
AcDbLinetypeTableRecord
  2
HIDDEN
 70
64
  3
- - - - - - - - - - - - - - - - - - - -
 72
65
 73
2
 40
0.2
 49
0.1
 74
0
 49
-0.1
 74
0
  0
LTYPE
  5
1F7
100
AcDbSymbolTableRecord
100
AcDbLinetypeTableRecord
  2
PHANTOM
 70
64
  3
_____ _ _ _____ _ _ _____ _ _ _____
 72
65
 73
6
 40
0.8
 49
0.45
 74
0
 49
-0.05
 74
0
 49
0.1
 74
0
 49
-0.05
 74
0
 49
0.1
 74
0
 49
-0.05
 74
0
  0
LTYPE
  5
1F8
100
AcDbSymbolTableRecord
100
AcDbLinetypeTableRecord
  2
DOT
 70
64
  3
. . . . . . . . . . . . . . . . . . . .
 72
65
 73
2
 40
0.2
 49
0.1
 74
0
 49
-0.1
 74
0
  0
LTYPE
  5
1F9
100
AcDbSymbolTableRecord
100
AcDbLinetypeTableRecord
  2
DASHED
 70
64
  3
- - - - - - - - - - - - - - - - - - - -
 72
65
 73
2
 40
0.2
 49
0.1
 74
0
 49
-0.1
 74
0
  0
ENDTAB
  0
TABLE
  2
LAYER
  5
2
100
AcDbSymbolTable
 70
36
  0
LAYER
  5
10
100
AcDbSymbolTableRecord
100
AcDbLayerTableRecord
  2
0
 70
0
 62
7
  6
CONTINUOUS
370
-3
390
F
  0
LAYER
  5
1FA
100
AcDbSymbolTableRecord
100
AcDbLayerTableRecord
  2
DEFAULT_1
 70
0
 62
7
  6
CENTER
370
-3
390
F
  0
LAYER
  5
1FB
100
AcDbSymbolTableRecord
100
AcDbLayerTableRecord
  2
DEFAULT_2
 70
0
 62
7
  6
HIDDEN
370
-3
390
F
  0
LAYER
  5
1FC
100
AcDbSymbolTableRecord
100
AcDbLayerTableRecord
  2
DEFAULT_3
 70
0
 62
7
  6
PHANTOM
370
-3
390
F
  0
LAYER
  5
1FD
100
AcDbSymbolTableRecord
100
AcDbLayerTableRecord
  2
ASSI
 70
0
 62
7
  6
CONTINUOUS
370
-3
390
F
  0
LAYER
  5
1FE
100
AcDbSymbolTableRecord
100
AcDbLayerTableRecord
  2
COORDINATE
 70
0
 62
7
  6
CONTINUOUS
370
-3
390
F
  0
LAYER
  5
1FF
100
AcDbSymbolTableRecord
100
AcDbLayerTableRecord
  2
COPY_PUBLISH
 70
0
 62
7
  6
CONTINUOUS
370
-3
390
F
  0
LAYER
  5
200
100
AcDbSymbolTableRecord
100
AcDbLayerTableRecord
  2
COSMETICI
 70
0
 62
7
  6
CONTINUOUS
370
-3
390
F
  0
LAYER
  5
201
100
AcDbSymbolTableRecord
100
AcDbLayerTableRecord
  2
CURVE
 70
0
 62
7
  6
CONTINUOUS
370
-3
390
F
  0
LAYER
  5
202
100
AcDbSymbolTableRecord
100
AcDbLayerTableRecord
  2
DRAFT
 70
0
 62
7
  6
CONTINUOUS
370
-3
390
F
  0
LAYER
  5
203
100
AcDbSymbolTableRecord
100
AcDbLayerTableRecord
  2
IMPORT_IGES
 70
0
 62
7
  6
CONTINUOUS
370
-3
390
F
  0
LAYER
  5
204
100
AcDbSymbolTableRecord
100
AcDbLayerTableRecord
  2
INTF_1
 70
0
 62
7
  6
CONTINUOUS
370
-3
390
F
  0
LAYER
  5
205
100
AcDbSymbolTableRecord
100
AcDbLayerTableRecord
  2
INTF_10
 70
0
 62
7
  6
CONTINUOUS
370
-3
390
F
  0
LAYER
  5
206
100
AcDbSymbolTableRecord
100
AcDbLayerTableRecord
  2
INTF_11
 70
0
 62
7
  6
CONTINUOUS
370
-3
390
F
  0
LAYER
  5
207
100
AcDbSymbolTableRecord
100
AcDbLayerTableRecord
  2
INTF_2
 70
0
 62
7
  6
CONTINUOUS
370
-3
390
F
  0
LAYER
  5
208
100
AcDbSymbolTableRecord
100
AcDbLayerTableRecord
  2
INTF_3
 70
0
 62
7
  6
CONTINUOUS
370
-3
390
F
  0
LAYER
  5
209
100
AcDbSymbolTableRecord
100
AcDbLayerTableRecord
  2
INTF_7
 70
0
 62
7
  6
CONTINUOUS
370
-3
390
F
  0
LAYER
  5
20A
100
AcDbSymbolTableRecord
100
AcDbLayerTableRecord
  2
INTF_BLANK
 70
0
 62
7
  6
CONTINUOUS
370
-3
390
F
  0
LAYER
  5
20B
100
AcDbSymbolTableRecord
100
AcDbLayerTableRecord
  2
INTF_CYAN
 70
0
 62
7
  6
CONTINUOUS
370
-3
390
F
  0
LAYER
  5
20C
100
AcDbSymbolTableRecord
100
AcDbLayerTableRecord
  2
INTF_YELLOW
 70
0
 62
7
  6
CONTINUOUS
370
-3
390
F
  0
LAYER
  5
20D
100
AcDbSymbolTableRecord
100
AcDbLayerTableRecord
  2
NOTE
 70
0
 62
7
  6
CONTINUOUS
370
-3
390
F
  0
LAYER
  5
20E
100
AcDbSymbolTableRecord
100
AcDbLayerTableRecord
  2
PIANI
 70
0
 62
7
  6
CONTINUOUS
370
-3
390
F
  0
LAYER
  5
20F
100
AcDbSymbolTableRecord
100
AcDbLayerTableRecord
  2
PUNTI
 70
0
 62
7
  6
CONTINUOUS
370
-3
390
F
  0
LAYER
  5
210
100
AcDbSymbolTableRecord
100
AcDbLayerTableRecord
  2
RACCORDO
 70
0
 62
7
  6
CONTINUOUS
370
-3
390
F
  0
LAYER
  5
211
100
AcDbSymbolTableRecord
100
AcDbLayerTableRecord
  2
RGB__255__255__255__
 70
0
 62
7
  6
CONTINUOUS
370
-3
390
F
  0
LAYER
  5
212
100
AcDbSymbolTableRecord
100
AcDbLayerTableRecord
  2
RGB____0____0____0__
 70
0
 62
7
  6
CONTINUOUS
370
-3
390
F
  0
LAYER
  5
213
100
AcDbSymbolTableRecord
100
AcDbLayerTableRecord
  2
SIMBOLI
 70
0
 62
7
  6
CONTINUOUS
370
-3
390
F
  0
LAYER
  5
214
100
AcDbSymbolTableRecord
100
AcDbLayerTableRecord
  2
SMUSSO
 70
0
 62
7
  6
CONTINUOUS
370
-3
390
F
  0
LAYER
  5
215
100
AcDbSymbolTableRecord
100
AcDbLayerTableRecord
  2
SNAPLINE
 70
0
 62
7
  6
CONTINUOUS
370
-3
390
F
  0
LAYER
  5
216
100
AcDbSymbolTableRecord
100
AcDbLayerTableRecord
  2
SUPERFICI
 70
0
 62
7
  6
CONTINUOUS
370
-3
390
F
  0
LAYER
  5
217
100
AcDbSymbolTableRecord
100
AcDbLayerTableRecord
  2
TRASH
 70
0
 62
7
  6
CONTINUOUS
370
-3
390
F
  0
LAYER
  5
218
100
AcDbSymbolTableRecord
100
AcDbLayerTableRecord
  2
_BLACK_HOLE
 70
0
 62
7
  6
CONTINUOUS
370
-3
390
F
  0
ENDTAB
  0
TABLE
  2
STYLE
  5
3
100
AcDbSymbolTable
 70
1
  0
STYLE
  5
11
100
AcDbSymbolTableRecord
100
AcDbTextStyleTableRecord
  2
STANDARD
 70
0
 40
0.0
 41
0.8
 50
0.0
 71
0
 42
0.2
  3
txt
  4

  0
STYLE
  5
219
100
AcDbSymbolTableRecord
100
AcDbTextStyleTableRecord
  2
TEXTSTYLE_1
 70
0
 40
0.0
 41
0.8
 50
0.0
 71
0
 42
0.2
  3
gdt
  4

  0
ENDTAB
  0
TABLE
  2
VIEW
  5
6
100
AcDbSymbolTable
 70
0
  0
ENDTAB
  0
TABLE
  2
UCS
  5
7
100
AcDbSymbolTable
 70
0
  0
ENDTAB
  0
TABLE
  2
APPID
  5
9
100
AcDbSymbolTable
 70
1
  0
APPID
  5
21A
100
AcDbSymbolTableRecord
100
AcDbRegAppTableRecord
  2
ACAD
 70
0
  0
ENDTAB
  0
TABLE
  2
BLOCK_RECORD
  5
1
100
AcDbSymbolTable
 70
0
  0
BLOCK_RECORD
  5
21B
100
AcDbSymbolTableRecord
100
AcDbBlockTableRecord
  2
*Model_Space
  0
BLOCK_RECORD
  5
21C
100
AcDbSymbolTableRecord
100
AcDbBlockTableRecord
  2
*Paper_Space
  0
BLOCK_RECORD
  5
21D
100
AcDbSymbolTableRecord
100
AcDbBlockTableRecord
  2
_FILLED
  0
ENDTAB
  0
TABLE
  2
DIMSTYLE
  5
A
100
AcDbSymbolTable
 70
1
100
AcDbDimStyleTable
 71
0
  0
DIMSTYLE
105
21E
100
AcDbSymbolTableRecord
100
AcDbDimStyleTableRecord
  2
STANDARD
 70
0
  3

  4

 40
1.0
 41
3.0
 42
0.5
 43
0.38
 44
1.5
 45
0.0
 46
0.0
 47
0.01
 48
0.01
140
3.0
141
0.09
142
0.0
143
25.4
144
1.0
145
0.0
146
1.0
147
0.625
 71
1.0
 72
0.0
 73
0
 74
0
 75
0
 76
0
 77
1
 78
8
 79
2
170
0
171
1
172
0
173
0
174
0
175
0
176
0
177
0
178
0
270
2
179
2
271
2
272
2
273
2
274
2
275
0
280
0
281
0
282
0
283
1
284
8
285
0
286
0
287
3
288
0
340
11
278
44
341
21D
342
21D
343
21D
344
21D
  0
ENDTAB
  0
ENDSEC
  0
SECTION
  2
BLOCKS
  0
BLOCK
  5
20
100
AcDbEntity
  8
0
100
AcDbBlockBegin
  2
*Model_Space
 70
0
 10
0.0
 20
0.0
 30
0.0
  3
*Model_Space
  1

  0
ENDBLK
  5
21
100
AcDbEntity
  8
0
100
AcDbBlockEnd
  0
BLOCK
  5
1C
100
AcDbEntity
  8
0
100
AcDbBlockBegin
  2
*Paper_Space
 70
0
 10
0.0
 20
0.0
 30
0.0
  3
*Paper_Space
  1

  0
ENDBLK
  5
1D
100
AcDbEntity
  8
0
100
AcDbBlockEnd
  0
BLOCK
  5
21F
100
AcDbEntity
  8
0
100
AcDbBlockBegin
  2
_FILLED
 70
64
 10
0.0
 20
0.0
  3
_FILLED
  1

  0
SOLID
  5
220
100
AcDbEntity
  8
0
  6
BYBLOCK
 62
0
100
AcDbTrace
 10
0.0
 20
0.0
 11
-1.0
 21
0.3166666667
 12
-1.0
 22
-0.3166666667
 13
-1.0
 23
-0.3166666667
  0
ENDBLK
  5
221
100
AcDbEntity
  8
0
  6
BYBLOCK
 62
0
100
AcDbBlockEnd
  0
ENDSEC
  0
SECTION
  2
ENTITIES
  0
LWPOLYLINE
  5
222
100
AcDbEntity
  8
0
100
AcDbPolyline
 62
7
  6
CONTINUOUS
 90
13
 70
0
 10
-21.0616207214
 20
27.7237947237
 10
-21.0776186205
 20
27.7130282434
 10
-21.0962166682
 20
27.6980899865
 10
-21.1131747495
 20
27.6817563934
 10
-21.1288508315
 20
27.663798988
 10
-21.1430997705
 20
27.644345385
 10
-21.1554758086
 20
27.6240914732
 10
-21.1661378399
 20
27.6028956359
 10
-21.1751258084
 20
27.5805405866
 10
-21.1820970488
 20
27.5577770883
 10
-21.1870020862
 20
27.5347935915
 10
-21.1898689183
 20
27.511155878
 10
-21.1905669387
 20
27.4924187304
  0
LINE
  5
223
100
AcDbEntity
  8
0
100
AcDbLine
 62
7
  6
CONTINUOUS
 10
-21.061629141
 20
27.7237901152
 11
-19.4943749485
 21
28.6930036171
  0
LINE
  5
224
100
AcDbEntity
  8
0
100
AcDbLine
 62
250
  6
CONTINUOUS
 10
-20.9589041683
 20
27.7155330541
 11
-19.3926534221
 21
28.6841260098
  0
LWPOLYLINE
  5
225
100
AcDbEntity
  8
0
100
AcDbPolyline
 62
250
  6
CONTINUOUS
 90
8
 70
0
 10
-21.0616209886
 20
27.7237951559
 10
-21.0598955211
 20
27.7248262235
 10
-21.0459606507
 20
27.7308961967
 10
-21.0304945824
 20
27.7339352788
 10
-21.0137618423
 20
27.7338914903
 10
-20.9960486214
 20
27.7307655802
 10
-20.9776578804
 20
27.7246110129
 10
-20.9589041683
 20
27.7155330541
  0
LINE
  5
226
100
AcDbEntity
  8
0
100
AcDbLine
 62
7
  6
CONTINUOUS
 10
-19.4908853159
 20
28.6950185097
 11
-19.4943743978
 21
28.6930039576
  0
LINE
  5
227
100
AcDbEntity
  8
0
100
AcDbLine
 62
7
  6
CONTINUOUS
 10
-19.490885867
 20
28.6950181689
 11
-18.9471207153
 21
28.9874374705
  0
LINE
  5
228
100
AcDbEntity
  8
0
100
AcDbLine
 62
250
  6
CONTINUOUS
 10
-19.3926534221
 20
28.6841260098
 11
-18.849887792
 21
28.9760078011
  0
LWPOLYLINE
  5
229
100
AcDbEntity
  8
0
100
AcDbPolyline
 62
250
  6
CONTINUOUS
 90
9
 70
0
 10
-18.8498883376
 20
28.9760081111
 10
-18.8315867307
 20
28.9850366422
 10
-18.8135113885
 20
28.9917689569
 10
-18.7958552622
 20
28.9961309733
 10
-18.7788050927
 20
28.9980736098
 10
-18.7625454406
 20
28.9975738796
 10
-18.7472560133
 20
28.9946371425
 10
-18.7331013777
 20
28.9892952085
 10
-18.7276895322
 20
28.986438441
  0
LWPOLYLINE
  5
22A
100
AcDbEntity
  8
0
100
AcDbPolyline
 62
250
  6
CONTINUOUS
 90
7
 70
0
 10
-18.9469797222
 20
28.987513074
 10
-18.935000372
 20
28.9924950149
 10
-18.9197123388
 20
28.9954313916
 10
-18.9032729103
 20
28.9952182934
 10
-18.885963263
 20
28.9918593531
 10
-18.8680794521
 20
28.9854120091
 10
-18.8499273588
 20
28.9759865234
  0
LWPOLYLINE
  5
22B
100
AcDbEntity
  8
0
100
AcDbPolyline
 62
7
  6
CONTINUOUS
 90
13
 70
0
 10
-18.0323409338
 20
25.8210036459
 10
-18.0509745108
 20
25.8025361368
 10
-18.0707964842
 20
25.7854068878
 10
-18.0916519367
 20
25.7698019452
 10
-18.1134531612
 20
25.7558743716
 10
-18.1359501168
 20
25.7437688032
 10
-18.1587230546
 20
25.7336032489
 10
-18.1814718764
 20
25.7254654534
 10
-18.2041172529
 20
25.7193487136
 10
-18.2265774126
 20
25.7152240444
 10
-18.2488050563
 20
25.7131181158
 10
-18.2705078949
 20
25.7130848412
 10
-18.2812995675
 20
25.713862405
  0
LWPOLYLINE
  5
22C
100
AcDbEntity
  8
ASSI
100
AcDbPolyline
 62
7
  6
CONTINUOUS
 90
21
 70
0
 10
-14.6617257169
 20
27.9323345984
 10
-14.6867750445
 20
27.9152248658
 10
-14.7092740396
 20
27.8944210132
 10
-14.729081694
 20
27.8698872546
 10
-14.7462577864
 20
27.8417064368
 10
-14.7604150751
 20
27.8105139078
 10
-14.7714849844
 20
27.776241253
 10
-14.77953609
 20
27.738956887
 10
-14.7843868763
 20
27.6995014007
 10
-14.7859646446
 20
27.6578254747
 10
-14.7843420937
 20
27.6139784284
 10
-14.7795558046
 20
27.5689488111
 10
-14.7715339096
 20
27.5227097592
 10
-14.7603482764
 20
27.4752881364
 10
-14.7462510897
 20
27.427753082
 10
-14.7291762102
 20
27.3801020193
 10
-14.7091897771
 20
27.3323375251
 10
-14.6867423927
 20
27.2855364691
 10
-14.6619842576
 20
27.2400578077
 10
-14.634765171
 20
27.1955425846
 10
-14.605085133
 20
27.1519907995
  0
LWPOLYLINE
  5
22D
100
AcDbEntity
  8
0
100
AcDbPolyline
 62
7
  6
CONTINUOUS
 90
19
 70
0
 10
-24.7144428224
 20
23.7703688412
 10
-24.7284860341
 20
23.7608115626
 10
-24.7981975092
 20
23.7090255633
 10
-24.8647072697
 20
23.6524421582
 10
-24.9280451493
 20
23.5913896098
 10
-24.9881803628
 20
23.5261875373
 10
-25.0448914227
 20
23.4572936138
 10
-25.0980903298
 20
23.3850269185
 10
-25.1476521306
 20
23.3096572407
 10
-25.193249728
 20
23.2317619288
 10
-25.2347533261
 20
23.1516360352
 10
-25.2719882276
 20
23.0695469445
 10
-25.3046587007
 20
22.986091857
 10
-25.3325981603
 20
22.901528761
 10
-25.3556082376
 20
22.8160894903
 10
-25.3734326328
 20
22.7301957429
 10
-25.3858226264
 20
22.6440512003
 10
-25.3925148631
 20
22.5578299958
 10
-25.3929175337
 20
22.5475507748
  0
LINE
  5
22E
100
AcDbEntity
  8
0
100
AcDbLine
 62
7
  6
CONTINUOUS
 10
-24.714643661
 20
23.7702468039
 11
-20.4757048489
 21
26.6127943346
  0
LINE
  5
22F
100
AcDbEntity
  8
0
100
AcDbLine
 62
250
  6
CONTINUOUS
 10
-20.4757048489
 20
26.4201816202
 11
-24.4546730646
 21
23.7519651686
  0
LINE
  5
230
100
AcDbEntity
  8
0
100
AcDbLine
 62
7
  6
CONTINUOUS
 10
-19.1097891705
 20
25.5172082837
 11
-19.6525152332
 21
25.1823181933
  0
LINE
  5
231
100
AcDbEntity
  8
RACCORDO
100
AcDbLine
 62
7
  6
CONTINUOUS
 10
-14.779252798
 20
28.9450762661
 11
-15.1328061886
 21
28.7409389695
  0
LINE
  5
232
100
AcDbEntity
  8
0
100
AcDbLine
 62
250
  6
CONTINUOUS
 10
-18.8931901269
 20
26.5228156561
 11
-16.7471835982
 21
27.7618908639
  0
LINE
  5
233
100
AcDbEntity
  8
0
100
AcDbLine
 62
250
  6
CONTINUOUS
 10
-18.7517903098
 20
26.277903989
 11
-16.6057857166
 21
27.5169780793
  0
LINE
  5
234
100
AcDbEntity
  8
RACCORDO
100
AcDbLine
 62
250
  6
CONTINUOUS
 10
-13.7744002669
 20
28.0938767028
 11
-13.4208468763
 21
28.2980139995
  0
LWPOLYLINE
  5
235
100
AcDbEntity
  8
0
100
AcDbPolyline
 62
250
  6
CONTINUOUS
 90
9
 70
0
 10
-24.7144485643
 20
23.7703774211
 10
-24.6924242487
 20
23.782679597
 10
-24.664151821
 20
23.7926736592
 10
-24.6333859225
 20
23.7978805376
 10
-24.6004630437
 20
23.7982432839
 10
-24.5657432664
 20
23.7937579304
 10
-24.5296063252
 20
23.7844735341
 10
-24.4924474543
 20
23.7704916396
 10
-24.4546730647
 20
23.7519651685
  0
LWPOLYLINE
  5
236
100
AcDbEntity
  8
0
100
AcDbPolyline
 62
250
  6
CONTINUOUS
 90
28
 70
0
 10
-16.6057857166
 20
27.5169780793
 10
-16.6041613255
 20
27.5178848734
 10
-16.6025029269
 20
27.518701701
 10
-16.6008105209
 20
27.5194285621
 10
-16.5990744334
 20
27.520076693
 10
-16.5973043385
 20
27.5206348573
 10
-16.5955292586
 20
27.5210693465
 10
-16.5937481293
 20
27.5213770655
 10
-16.591962015
 20
27.5215611092
 10
-16.5902031324
 20
27.5215970544
 10
-16.5884715699
 20
27.5214806945
 10
-16.586767239
 20
27.5212162359
 10
-16.5851220904
 20
27.5207918748
 10
-16.5835378962
 20
27.5202034463
 10
-16.5820128844
 20
27.5194551153
 10
-16.580573689
 20
27.5185475712
 10
-16.5792224465
 20
27.5174775376
 10
-16.5779570205
 20
27.516248291
 10
-16.5767976363
 20
27.5148703511
 10
-16.5757462433
 20
27.5133408316
 10
-16.5748008921
 20
27.5116626189
 10
-16.5739759592
 20
27.5098548913
 10
-16.5732736489
 20
27.5079151055
 10
-16.5726917569
 20
27.5058458047
 10
-16.5722380469
 20
27.5036737978
 10
-16.5719151068
 20
27.5014080208
 10
-16.5717203487
 20
27.4990395377
 10
-16.5716537726
 20
27.4965683483
  0
LWPOLYLINE
  5
237
100
AcDbEntity
  8
0
100
AcDbPolyline
 62
250
  6
CONTINUOUS
 90
16
 70
0
 10
-16.7471835707
 20
27.761890848
 10
-16.7389924458
 20
27.7662667934
 10
-16.7305772663
 20
27.7702994911
 10
-16.7219606449
 20
27.7739364135
 10
-16.7131518641
 20
27.7771290672
 10
-16.7041981031
 20
27.7798138781
 10
-16.6951824319
 20
27.7819239931
 10
-16.6861397363
 20
27.7834130579
 10
-16.677108099
 20
27.7842350762
 10
-16.6681745298
 20
27.7843460208
 10
-16.6593786835
 20
27.7837137581
 10
-16.6507617023
 20
27.782308155
 10
-16.6424071751
 20
27.7801141585
 10
-16.6343572769
 20
27.7771199724
 10
-16.6266468848
 20
27.77331441
 10
-16.6256903658
 20
27.7727705754
  0
LWPOLYLINE
  5
238
100
AcDbEntity
  8
RACCORDO
100
AcDbPolyline
 62
7
  6
CONTINUOUS
 90
21
 70
0
 10
-15.132779551
 20
28.7408928036
 10
-15.0785001497
 20
28.7679928901
 10
-15.0210783025
 20
28.788577465
 10
-14.9605114885
 20
28.8025266137
 10
-14.8968448802
 20
28.8099356714
 10
-14.8310017717
 20
28.8106974125
 10
-14.7629504595
 20
28.8047149451
 10
-14.6927226471
 20
28.7920851609
 10
-14.6213367382
 20
28.7729915095
 10
-14.5487758855
 20
28.7473397856
 10
-14.4750569362
 20
28.7152241943
 10
-14.401248836
 20
28.6771108006
 10
-14.3273503287
 20
28.6329122103
 10
-14.2533626705
 20
28.5827158176
 10
-14.1803585757
 20
28.5272498694
 10
-14.1083524306
 20
28.4664376076
 10
-14.037329849
 20
28.4003557905
 10
-13.9683203862
 20
28.3299629393
 10
-13.9016672275
 20
28.2555785612
 10
-13.8370271877
 20
28.176883149
 10
-13.7744002669
 20
28.0938767028
  0
LWPOLYLINE
  5
239
100
AcDbEntity
  8
0
100
AcDbPolyline
 62
7
  6
CONTINUOUS
 90
16
 70
0
 10
-29.5418005065
 20
-9.7287413344
 10
-29.3445942624
 20
-10.2878137792
 10
-29.1315653451
 20
-10.8428482616
 10
-28.9031628736
 20
-11.3931979057
 10
-28.6598541291
 20
-11.9381648722
 10
-28.4020359137
 20
-12.4771984288
 10
-28.1300307523
 20
-13.009859009
 10
-27.8442709555
 20
-13.5354571868
 10
-27.545130334
 20
-14.0534068052
 10
-27.2328065841
 20
-14.5633837972
 10
-26.9076582782
 20
-15.0647480221
 10
-26.5700591971
 20
-15.5568286082
 10
-26.2201695095
 20
-16.0392376942
 10
-25.8582484994
 20
-16.5113965023
 10
-25.4846948281
 20
-16.9725286118
 10
-25.0998481789
 20
-17.4219327892
  0
LINE
  5
23A
100
AcDbEntity
  8
RACCORDO
100
AcDbLine
 62
250
  6
CONTINUOUS
 10
-29.6199612335
 20
-9.4923171408
 11
-29.6011407002
 21
-9.5501179651
  0
LWPOLYLINE
  5
23B
100
AcDbEntity
  8
RACCORDO
100
AcDbPolyline
 62
250
  6
CONTINUOUS
 90
8
 70
0
 10
-30.4862238992
 20
-4.8361473844
 10
-30.4552249355
 20
-5.397013597
 10
-30.4010699819
 20
-5.9688234756
 10
-30.3238908659
 20
-6.5501850855
 10
-30.2238754616
 20
-7.1396832418
 10
-30.1012672322
 20
-7.7358829521
 10
-29.9563646389
 20
-8.3373329064
 10
-29.7895204136
 20
-8.9425690132
  0
LWPOLYLINE
  5
23C
100
AcDbEntity
  8
0
100
AcDbPolyline
 62
7
  6
CONTINUOUS
 90
8
 70
0
 10
-16.5754651093
 20
27.0871973183
 10
-16.566095241
 20
27.0998664922
 10
-16.5511587791
 20
27.1236877873
 10
-16.5383847183
 20
27.1493886184
 10
-16.5284268453
 20
27.1757191389
 10
-16.5212982469
 20
27.2023719931
 10
-16.5168893347
 20
27.2301240498
 10
-16.5155217363
 20
27.2563160729
  0
LINE
  5
23D
100
AcDbEntity
  8
0
100
AcDbLine
 62
250
  6
CONTINUOUS
 10
-16.5890228773
 20
27.1303375523
 11
-17.1298901832
 21
26.4399796772
  0
LINE
  5
23E
100
AcDbEntity
  8
0
100
AcDbLine
 62
7
  6
CONTINUOUS
 10
-16.5754548554
 20
27.0872102736
 11
-17.1298901832
 21
26.3795343046
  0
LWPOLYLINE
  5
23F
100
AcDbEntity
  8
0
100
AcDbPolyline
 62
250
  6
CONTINUOUS
 90
10
 70
0
 10
-10.5958968775
 20
27.5024825273
 10
-10.571963063
 20
27.5180308105
 10
-10.5506905404
 20
27.534815971
 10
-10.5322691058
 20
27.5526886205
 10
-10.5168625836
 20
27.5714894388
 10
-10.5046105138
 20
27.5910512665
 10
-10.4956247589
 20
27.6112001361
 10
-10.4899851434
 20
27.6317551155
 10
-10.4877408733
 20
27.6525338868
 10
-10.4876986154
 20
27.6558097644
  0
LWPOLYLINE
  5
240
100
AcDbEntity
  8
0
100
AcDbPolyline
 62
250
  6
CONTINUOUS
 90
34
 70
0
 10
-10.7726906886
 20
27.8085960883
 10
-10.7641608242
 20
27.8140485053
 10
-10.7566895484
 20
27.819828015
 10
-10.7502768613
 20
27.8259346176
 10
-10.7448850971
 20
27.8324280597
 10
-10.7405519216
 20
27.8392485945
 10
-10.7373903319
 20
27.8462169817
 10
-10.7354312656
 20
27.8533369485
 10
-10.7346437852
 20
27.8606047677
 10
-10.735048075
 20
27.8678300172
 10
-10.7366756867
 20
27.8750115295
 10
-10.7394950688
 20
27.8821504722
 10
-10.7434317504
 20
27.8890599265
 10
-10.7485151406
 20
27.8957337974
 10
-10.7547158304
 20
27.9021781798
 10
-10.7618711216
 20
27.9082244399
 10
-10.7700061696
 20
27.9138620497
 10
-10.779095819
 20
27.9191015371
 10
-10.788901906
 20
27.9238058522
 10
-10.7994433036
 20
27.9279608542
 10
-10.8107011387
 20
27.9315806838
 10
-10.8223806285
 20
27.9345707136
 10
-10.8344928578
 20
27.9369143857
 10
-10.8470267418
 20
27.9386282579
 10
-10.8596542426
 20
27.9396673762
 10
-10.8723778039
 20
27.9400137963
 10
-10.8851949821
 20
27.9396854625
 10
-10.8977704087
 20
27.9386912541
 10
-10.9101014502
 20
27.9370118978
 10
-10.9221907403
 20
27.9346666669
 10
-10.9337108107
 20
27.9317222602
 10
-10.9445525057
 20
27.9282009107
 10
-10.954824981
 20
27.9240803854
 10
-10.9645282369
 20
27.9193606844
  0
LINE
  5
241
100
AcDbEntity
  8
0
100
AcDbLine
 62
7
  6
CONTINUOUS
 10
-15.1357486716
 20
25.755688511
 11
-15.3137253528
 21
25.6456250616
  0
LINE
  5
242
100
AcDbEntity
  8
0
100
AcDbLine
 62
250
  6
CONTINUOUS
 10
-15.0085967635
 20
25.7445915019
 11
-15.1853191369
 21
25.6353037353
  0
LINE
  5
243
100
AcDbEntity
  8
0
100
AcDbLine
 62
7
  6
CONTINUOUS
 10
-18.0323409338
 20
25.1061884391
 11
-17.1298901832
 21
25.6630472935
  0
LINE
  5
244
100
AcDbEntity
  8
ASSI
100
AcDbLine
 62
250
  6
CONTINUOUS
 10
-14.605085133
 20
27.1519907995
 11
-14.2515317425
 21
27.3561280962
  0
LINE
  5
245
100
AcDbEntity
  8
0
100
AcDbLine
 62
7
  6
CONTINUOUS
 10
-15.1313866308
 20
25.7582071268
 11
-15.1357479832
 21
25.7556889367
  0
LINE
  5
246
100
AcDbEntity
  8
0
100
AcDbLine
 62
250
  6
CONTINUOUS
 10
-13.9832380829
 20
25.9548598954
 11
-10.7726906886
 21
27.8085960883
  0
LINE
  5
247
100
AcDbEntity
  8
0
100
AcDbLine
 62
250
  6
CONTINUOUS
 10
-13.6297559244
 20
25.7507637273
 11
-10.5958968738
 21
27.5024819346
  0
LINE
  5
248
100
AcDbEntity
  8
0
100
AcDbLine
 62
7
  6
CONTINUOUS
 10
-12.6752287375
 20
25.1996316926
 11
-10.5959409172
 21
26.4001905426
  0
LINE
  5
249
100
AcDbEntity
  8
0
100
AcDbLine
 62
7
  6
CONTINUOUS
 10
-10.1180573684
 20
29.6514813793
 11
-16.461754468
 21
26.0795717502
  0
LINE
  5
24A
100
AcDbEntity
  8
0
100
AcDbLine
 62
7
  6
CONTINUOUS
 10
-11.08601991
 20
27.9336743805
 11
-15.1313873197
 21
25.7582067008
  0
LINE
  5
24B
100
AcDbEntity
  8
0
100
AcDbLine
 62
250
  6
CONTINUOUS
 10
-10.9645282369
 20
27.9193606844
 11
-15.0085967635
 21
25.7445915019
  0
LWPOLYLINE
  5
24C
100
AcDbEntity
  8
RACCORDO
100
AcDbPolyline
 62
250
  6
CONTINUOUS
 90
44
 70
0
 10
-21.8837913737
 20
-20.3245476204
 10
-21.4138219179
 20
-20.6361402712
 10
-20.9427056399
 20
-20.9215805238
 10
-20.4715893608
 20
-21.1801735413
 10
-20.001619903
 20
-21.4112898393
 10
-19.5339412954
 20
-21.6143668201
 10
-19.0696919906
 20
-21.7889101405
 10
-18.6100020953
 20
-21.9344949151
 10
-18.1559906185
 20
-22.0507667513
 10
-17.7087627446
 20
-22.1374426127
 10
-17.2694071443
 20
-22.1943115074
 10
-16.8389933262
 20
-22.2212350017
 10
-16.4185690325
 20
-22.2181475569
 10
-16.0091576859
 20
-22.185056689
 10
-15.6117558994
 20
-22.1220429497
 10
-15.2273310528
 20
-22.0292597303
 10
-14.8568189397
 20
-21.9069328896
 10
-14.5011214872
 20
-21.7553602044
 10
-14.1611045585
 20
-21.5749106439
 10
-13.837595843
 20
-21.3660234696
 10
-13.5313828445
 20
-21.1292071671
 10
-13.2432109657
 20
-20.8650382086
 10
-12.9737816945
 20
-20.5741596519
 10
-12.7237508947
 20
-20.257279574
 10
-12.493727208
 20
-19.9151693465
 10
-12.2842705719
 20
-19.5486617552
 10
-12.0958908581
 20
-19.1586489747
 10
-11.9290466324
 20
-18.7460803977
 10
-11.7841440386
 20
-18.3119603265
 10
-11.6615358088
 20
-17.8573455265
 10
-11.5615204041
 20
-17.3833426526
 10
-11.4843412877
 20
-16.8911055516
 10
-11.4301863336
 20
-16.3818324563
 10
-11.3991873694
 20
-15.8567630703
 10
-11.3914198553
 20
-15.317175553
 10
-11.4069026995
 20
-14.7643834063
 10
-11.4455982122
 20
-14.1997322747
 10
-11.5074121982
 20
-13.6245966667
 10
-11.5921941862
 20
-13.0403766115
 10
-11.6997377949
 20
-12.4484942534
 10
-11.8297812348
 20
-11.8503903925
 10
-11.9820079449
 20
-11.2475209752
 10
-12.1560473643
 20
-10.6413535473
 10
-12.3514758354
 20
-10.0333636788
  0
LWPOLYLINE
  5
24D
100
AcDbEntity
  8
RACCORDO
100
AcDbPolyline
 62
250
  6
CONTINUOUS
 90
8
 70
0
 10
-25.0464179503
 20
-17.4823708824
 10
-24.6160041325
 20
-17.9524784768
 10
-24.1766485326
 20
-18.4029664166
 10
-23.7294206588
 20
-18.8327380943
 10
-23.2754091813
 20
-19.2407473325
 10
-22.8157192851
 20
-19.6260009277
 10
-22.35146998
 20
-19.9875610683
 10
-21.8837913737
 20
-20.3245476204
  0
LWPOLYLINE
  5
24E
100
AcDbEntity
  8
RACCORDO
100
AcDbPolyline
 62
7
  6
CONTINUOUS
 90
25
 70
0
 10
-25.1009294521
 20
-17.4207048296
 10
-24.9014101414
 20
-17.6440532443
 10
-24.4531401421
 20
-18.1229060859
 10
-23.9952246931
 20
-18.580948638
 10
-23.5287565135
 20
-19.0170085156
 10
-23.0548423895
 20
-19.4299642203
 10
-22.5745771123
 20
-19.8187643523
 10
-22.0889942458
 20
-20.1824549219
 10
-21.5993269937
 20
-20.5199856344
 10
-21.1069509186
 20
-20.8303005591
 10
-20.6127843922
 20
-21.1127022838
 10
-20.1181973235
 20
-21.3662769764
 10
-19.6251963056
 20
-21.5899484468
 10
-19.1350924562
 20
-21.7831549893
 10
-18.648792348
 20
-21.9455585309
 10
-18.16762101
 20
-22.0767262571
 10
-17.6923457991
 20
-22.1764381709
 10
-17.2243377286
 20
-22.2443817017
 10
-16.7657431712
 20
-22.2803456963
 10
-16.3177640059
 20
-22.2844591459
 10
-15.8811974955
 20
-22.2569340819
 10
-15.4575227235
 20
-22.1981157643
 10
-15.0478784099
 20
-22.1084954387
 10
-14.6530607073
 20
-21.9885947844
 10
-14.2740021479
 20
-21.8390410828
  0
LINE
  5
24F
100
AcDbEntity
  8
RACCORDO
100
AcDbLine
 62
250
  6
CONTINUOUS
 10
-25.0998481789
 20
-17.4219327892
 11
-25.0464179503
 21
-17.4823708824
  0
LWPOLYLINE
  5
250
100
AcDbEntity
  8
0
100
AcDbPolyline
 62
250
  6
CONTINUOUS
 90
6
 70
0
 10
-25.5629827254
 20
3.6014033047
 10
-25.5629828067
 20
7.0178186045
 10
-25.5325139449
 20
10.8250799229
 10
-25.4715825201
 20
14.649866116
 10
-25.3802031043
 20
18.491875919
 10
-25.2583954111
 20
22.3507609367
  0
LWPOLYLINE
  5
251
100
AcDbEntity
  8
0
100
AcDbPolyline
 62
7
  6
CONTINUOUS
 90
6
 70
0
 10
-25.3929167485
 20
22.5478022788
 10
-25.5121550534
 20
18.7351735992
 10
-25.6032279969
 20
14.8780715521
 10
-25.6639493043
 20
11.0385379373
 10
-25.6943004552
 20
7.2169688378
 10
-25.6942781588
 20
3.5055587469
  0
LWPOLYLINE
  5
252
100
AcDbEntity
  8
0
100
AcDbPolyline
 62
250
  6
CONTINUOUS
 90
22
 70
0
 10
-25.2583950747
 20
22.3507610936
 10
-25.2537395032
 20
22.4220562767
 10
-25.244917951
 20
22.4952047393
 10
-25.2319771944
 20
22.5698458371
 10
-25.2149898947
 20
22.6456098177
 10
-25.1940400142
 20
22.7221266639
 10
-25.1692198746
 20
22.7990282365
 10
-25.1406553006
 20
22.8759442839
 10
-25.108491189
 20
22.9524917541
 10
-25.0728751028
 20
23.0282839404
 10
-25.0339905434
 20
23.1029504888
 10
-24.9920338424
 20
23.1761266069
 10
-24.9471969736
 20
23.2474425997
 10
-24.8997089007
 20
23.3165530706
 10
-24.8498113909
 20
23.3831188137
 10
-24.7977362606
 20
23.4467963887
 10
-24.7437545404
 20
23.5072727623
 10
-24.6881373989
 20
23.5642593662
 10
-24.6311310532
 20
23.617471932
 10
-24.5730134705
 20
23.6666483711
 10
-24.5140938155
 20
23.7115521666
 10
-24.4546730647
 20
23.7519651685
  0
LWPOLYLINE
  5
253
100
AcDbEntity
  8
0
100
AcDbPolyline
 62
250
  6
CONTINUOUS
 90
6
 70
0
 10
-16.5754548554
 20
27.0872102736
 10
-16.5735349822
 20
27.0912735474
 10
-16.5734140498
 20
27.0983509187
 10
-16.5759916186
 20
27.1073268906
 10
-16.5812240739
 20
27.1180495813
 10
-16.5890228773
 20
27.1303375523
  0
LWPOLYLINE
  5
254
100
AcDbEntity
  8
0
100
AcDbPolyline
 62
250
  6
CONTINUOUS
 90
9
 70
0
 10
-6.5939991435
 20
27.3985495444
 10
-6.5764893485
 20
27.409777766
 10
-6.5611081969
 20
27.4220012544
 10
-6.5480242079
 20
27.4350860863
 10
-6.5373807324
 20
27.4488889017
 10
-6.5292943824
 20
27.463258474
 10
-6.5238537538
 20
27.4780373672
 10
-6.5211184551
 20
27.4930636608
 10
-6.5207758388
 20
27.5006181927
  0
LINE
  5
255
100
AcDbEntity
  8
0
100
AcDbLine
 62
7
  6
CONTINUOUS
 10
-11.4234380703
 20
23.612246896
 11
-11.6014147516
 21
23.5021834466
  0
LINE
  5
256
100
AcDbEntity
  8
0
100
AcDbLine
 62
250
  6
CONTINUOUS
 10
-11.2962861623
 20
23.6011498869
 11
-11.4730085357
 21
23.4918621204
  0
LINE
  5
257
100
AcDbEntity
  8
0
100
AcDbLine
 62
7
  6
CONTINUOUS
 10
-12.7874081583
 20
22.9371685697
 11
-12.6044067836
 21
23.0500898962
  0
LINE
  5
258
100
AcDbEntity
  8
0
100
AcDbLine
 62
7
  6
CONTINUOUS
 10
-12.6044067836
 20
23.0500898962
 11
-11.9096425971
 21
23.4640659381
  0
LINE
  5
259
100
AcDbEntity
  8
0
100
AcDbLine
 62
250
  6
CONTINUOUS
 10
-12.9641579296
 20
24.3528330919
 11
-12.0863923685
 21
24.859644953
  0
LINE
  5
25A
100
AcDbEntity
  8
0
100
AcDbLine
 62
7
  6
CONTINUOUS
 10
-8.1657063712
 20
26.8786463605
 11
-11.9451420931
 21
24.6964475421
  0
LINE
  5
25B
100
AcDbEntity
  8
0
100
AcDbLine
 62
250
  6
CONTINUOUS
 10
-12.7874081583
 20
24.0466935081
 11
-11.9096425971
 21
24.5535053691
  0
LINE
  5
25C
100
AcDbEntity
  8
0
100
AcDbLine
 62
7
  6
CONTINUOUS
 10
-11.4234387836
 20
23.6122465125
 11
-11.4190774314
 21
23.6147647024
  0
LINE
  5
25D
100
AcDbEntity
  8
0
100
AcDbLine
 62
250
  6
CONTINUOUS
 10
-7.2887652097
 20
28.0178835463
 11
-12.5137103774
 21
25.1063730158
  0
LINE
  5
25E
100
AcDbEntity
  8
0
100
AcDbLine
 62
250
  6
CONTINUOUS
 10
-7.1150736932
 20
27.7099470733
 11
-12.1570068131
 21
24.9004168483
  0
LINE
  5
25F
100
AcDbEntity
  8
0
100
AcDbLine
 62
7
  6
CONTINUOUS
 10
-10.6996273425
 20
24.0016616779
 11
-11.4190767185
 21
23.6147650858
  0
LINE
  5
260
100
AcDbEntity
  8
0
100
AcDbLine
 62
250
  6
CONTINUOUS
 10
-10.5768367863
 20
23.988046479
 11
-11.2962861623
 21
23.6011498869
  0
LWPOLYLINE
  5
261
100
AcDbEntity
  8
0
100
AcDbPolyline
 62
7
  6
CONTINUOUS
 90
4
 70
0
 10
-11.4190774314
 20
23.6147647024
 10
-11.4146754742
 20
23.616967264
 10
-11.4004546689
 20
23.6220911411
 10
-11.384863464
 20
23.624821275
  0
LINE
  5
262
100
AcDbEntity
  8
0
100
AcDbLine
 62
250
  6
CONTINUOUS
 10
11.9073804045
 20
-28.1888059457
 11
11.3665130987
 21
-28.1452196017
  0
LINE
  5
263
100
AcDbEntity
  8
0
100
AcDbLine
 62
250
  6
CONTINUOUS
 10
11.8342331773
 20
-27.926345089
 11
11.3665130987
 21
-27.888653389
  0
LWPOLYLINE
  5
264
100
AcDbEntity
  8
RACCORDO
100
AcDbPolyline
 62
250
  6
CONTINUOUS
 90
60
 70
0
 10
-21.1502641637
 20
-19.3860633677
 10
-20.7512207618
 20
-19.5806642193
 10
-20.3553619525
 20
-19.7499076853
 10
-19.9627132388
 20
-19.8935908483
 10
-19.5732491177
 20
-20.0119166258
 10
-19.190077673
 20
-20.1039407599
 10
-18.8132492683
 20
-20.1694527945
 10
-18.44271354
 20
-20.2086631857
 10
-18.0814274808
 20
-20.221259044
 10
-17.729465104
 20
-20.2070274183
 10
-17.3867523963
 20
-20.1661812598
 10
-17.0560243112
 20
-20.0990465321
 10
-16.7373767368
 20
-20.0054128903
 10
-16.430713785
 20
-19.8854906794
 10
-16.1384827448
 20
-19.7402368975
 10
-15.8607990831
 20
-19.5694488435
 10
-15.597547333
 20
-19.3733292186
 10
-15.3508283829
 20
-19.1534431241
 10
-15.12077452
 20
-18.9096003677
 10
-14.9072534572
 20
-18.6419911417
 10
-14.7119692207
 20
-18.352751125
 10
-14.5350677526
 20
-18.0417072411
 10
-14.376403111
 20
-17.7090325665
 10
-14.2372414965
 20
-17.3573820101
 10
-14.1177389681
 20
-16.9866036969
 10
-14.0177394668
 20
-16.5968495019
 10
-13.9380410159
 20
-16.1912299581
 10
-13.8788060571
 20
-15.7696183081
 10
-13.8398721486
 20
-15.3321413094
 10
-13.8215499886
 20
-14.8822897674
 10
-13.8240045371
 20
-14.4199642054
 10
-13.8470708341
 20
-13.9452641001
 10
-13.8905646977
 20
-13.4619786868
 10
-13.9546494614
 20
-12.9700400521
 10
-14.0391617918
 20
-12.4695161094
 10
-14.1434275073
 20
-11.9643998342
 10
-14.2676045048
 20
-11.4546543831
 10
-14.4115348875
 20
-10.9403165995
 10
-14.5740707828
 20
-10.4254899901
 10
-14.7553638725
 20
-9.9101652748
 10
-14.9552624747
 20
-9.3943517337
 10
-15.1721636719
 20
-8.8821807129
 10
-15.4061902132
 20
-8.3737045294
 10
-15.6572193493
 20
-7.8688708663
 10
-15.9232799157
 20
-7.3716541186
 10
-16.2045317062
 20
-6.8820550934
 10
-16.5008149269
 20
-6.4000729837
 10
-16.8096790311
 20
-5.9296797636
 10
-17.1311568715
 20
-5.4710631593
 10
-17.4652155953
 20
-5.0240354447
 10
-17.8093060977
 20
-4.5920054159
 10
-18.1635698617
 20
-4.1750101892
 10
-18.5278654042
 20
-3.7730126483
 10
-18.899219172
 20
-3.3893102405
 10
-19.2779932247
 20
-3.0238768156
 10
-19.6638255026
 20
-2.6767385237
 10
-20.0526562723
 20
-2.3512712624
 10
-20.4431322895
 20
-2.0486003309
 10
-20.8366067986
 20
-1.7676004299
 10
-21.2330797996
 20
-1.5082715594
  0
LWPOLYLINE
  5
265
100
AcDbEntity
  8
0
100
AcDbPolyline
 62
250
  6
CONTINUOUS
 90
9
 70
0
 10
-25.3929175337
 20
22.5475507748
 10
-25.3924565989
 20
22.5295691416
 10
-25.3875816457
 20
22.5018056468
 10
-25.377699375
 20
22.4743306799
 10
-25.3629098823
 20
22.4474225294
 10
-25.3433629674
 20
22.421353743
 10
-25.3192566173
 20
22.3963883665
 10
-25.2908350005
 20
22.3727792691
 10
-25.2583859939
 20
22.3507655828
  0
LWPOLYLINE
  5
266
100
AcDbEntity
  8
0
100
AcDbPolyline
 62
250
  6
CONTINUOUS
 90
10
 70
0
 10
-4.9867846016
 20
24.263799947
 10
-4.9628289534
 20
24.2793583322
 10
-4.9415423045
 20
24.2961523285
 10
-4.9231132031
 20
24.314031632
 10
-4.907704872
 20
24.3328349543
 10
-4.8954538375
 20
24.3523956845
 10
-4.8864686696
 20
24.3725433673
 10
-4.8808289369
 20
24.3930984265
 10
-4.8785845697
 20
24.4138772788
 10
-4.8785422997
 20
24.4171536161
  0
LWPOLYLINE
  5
267
100
AcDbEntity
  8
0
100
AcDbPolyline
 62
250
  6
CONTINUOUS
 90
34
 70
0
 10
-5.1635343729
 20
24.5699395308
 10
-5.1550425723
 20
24.575358711
 10
-5.1475968302
 20
24.5811113566
 10
-5.1411971466
 20
24.5871974678
 10
-5.1358023923
 20
24.5936785553
 10
-5.1314536966
 20
24.6004931083
 10
-5.1282744466
 20
24.6074565943
 10
-5.1262985686
 20
24.6145708493
 10
-5.1254921364
 20
24.6218340373
 10
-5.1258767587
 20
24.6290561181
 10
-5.1274841097
 20
24.6362360248
 10
-5.1302825152
 20
24.6433748244
 10
-5.1341985618
 20
24.6502856779
 10
-5.1392616328
 20
24.6569625929
 10
-5.1454423447
 20
24.6634115618
 10
-5.1525791337
 20
24.6694637232
 10
-5.1606972609
 20
24.6751086247
 10
-5.1697714651
 20
24.6803567187
 10
-5.1795643983
 20
24.6850705006
 10
-5.190095065
 20
24.6892358909
 10
-5.2013444607
 20
24.6928669691
 10
-5.2130182236
 20
24.6958684685
 10
-5.22512762
 20
24.6982238185
 10
-5.2376613836
 20
24.6999495897
 10
-5.2502913548
 20
24.7010002271
 10
-5.2630201522
 20
24.7013578575
 10
-5.275845157
 20
24.7010403541
 10
-5.2884303533
 20
24.7000557816
 10
-5.3007697205
 20
24.6983865281
 10
-5.312869279
 20
24.6960502054
 10
-5.3244110739
 20
24.693107714
 10
-5.33528912
 20
24.6895793538
 10
-5.3456094025
 20
24.6854448248
 10
-5.3553719212
 20
24.6807041269
  0
LINE
  5
268
100
AcDbEntity
  8
0
100
AcDbLine
 62
7
  6
CONTINUOUS
 10
-8.8920961823
 20
20.9066482812
 11
-9.075097557
 21
20.7937269547
  0
LINE
  5
269
100
AcDbEntity
  8
0
100
AcDbLine
 62
250
  6
CONTINUOUS
 10
-9.2518473284
 20
22.209391477
 11
-5.1635343729
 21
24.5699395308
  0
LINE
  5
26A
100
AcDbEntity
  8
0
100
AcDbLine
 62
250
  6
CONTINUOUS
 10
-9.075097557
 20
21.9032518931
 11
-4.9867846016
 21
24.263799947
  0
LINE
  5
26B
100
AcDbEntity
  8
0
100
AcDbLine
 62
7
  6
CONTINUOUS
 10
-8.8920961823
 20
20.9066482812
 11
-4.9867846016
 21
23.1615339852
  0
LINE
  5
26C
100
AcDbEntity
  8
0
100
AcDbLine
 62
7
  6
CONTINUOUS
 10
-2.7466361517
 20
25.3357870533
 11
-4.8785422997
 21
24.1478191416
  0
LINE
  5
26D
100
AcDbEntity
  8
0
100
AcDbLine
 62
250
  6
CONTINUOUS
 10
-2.6218604539
 20
25.3232712303
 11
-4.8785422997
 21
24.0657742141
  0
LINE
  5
26E
100
AcDbEntity
  8
RACCORDO
100
AcDbLine
 62
250
  6
CONTINUOUS
 10
5.3233031639
 20
28.9447153576
 11
5.6262456563
 21
29.1095834163
  0
LINE
  5
26F
100
AcDbEntity
  8
0
100
AcDbLine
 62
7
  6
CONTINUOUS
 10
-5.4768635958
 20
24.6950178223
 11
-8.7514143079
 21
22.9340704179
  0
LINE
  5
270
100
AcDbEntity
  8
0
100
AcDbLine
 62
250
  6
CONTINUOUS
 10
-5.3553719212
 20
24.6807041269
 11
-8.6799910719
 21
22.8928315366
  0
LWPOLYLINE
  5
271
100
AcDbEntity
  8
RACCORDO
100
AcDbPolyline
 62
7
  6
CONTINUOUS
 90
28
 70
0
 10
5.3233031639
 20
28.9447153576
 10
5.7423446312
 20
29.1699890901
 10
6.1772339552
 20
29.3707694981
 10
6.6273645349
 20
29.5463220206
 10
7.0919633716
 20
29.6959276564
 10
7.570478752
 20
29.8190134006
 10
8.0626561852
 20
29.9150855046
 10
8.568437668
 20
29.9836284022
 10
9.0865947923
 20
30.0239840438
 10
9.6151364505
 20
30.0356769932
 10
10.1526390738
 20
30.0185263849
 10
10.6991302321
 20
29.9723793565
 10
11.254831635
 20
29.8969353837
 10
11.8203340487
 20
29.7916673211
 10
12.3938017278
 20
29.6564624455
 10
12.971787937
 20
29.4919642301
 10
13.5528922096
 20
29.2986416124
 10
14.1370902708
 20
29.0765573262
 10
14.7229019455
 20
28.8263177806
 10
15.3097223056
 20
28.5482544604
 10
15.8966918047
 20
28.2428321449
 10
16.4818844418
 20
27.9111860941
 10
17.0642374128
 20
27.5541408956
 10
17.6433239042
 20
27.1721658886
 10
18.2181263543
 20
26.7661230888
 10
18.7878053203
 20
26.336809413
 10
19.351717113
 20
25.8849020249
 10
19.9091029048
 20
25.4111846711
  0
LWPOLYLINE
  5
272
100
AcDbEntity
  8
0
100
AcDbPolyline
 62
7
  6
CONTINUOUS
 90
55
 70
0
 10
-1.4873956204
 20
24.9923679187
 10
-1.4320794667
 20
25.0215621943
 10
-0.9559815074
 20
25.228771978
 10
-0.4631070802
 20
25.4010502362
 10
0.0466394981
 20
25.5381977393
 10
0.5731625443
 20
25.6404137169
 10
1.1134647715
 20
25.7071162939
 10
1.6676247682
 20
25.7381029222
 10
2.2355639459
 20
25.73357615
 10
2.8140492521
 20
25.6935617462
 10
3.403140836
 20
25.6178573099
 10
4.0027785485
 20
25.5066652422
 10
4.6095488898
 20
25.3606185153
 10
5.2234925406
 20
25.1795183382
 10
5.8445688202
 20
24.9635635021
 10
6.469242188
 20
24.7139833519
 10
7.0975331595
 20
24.4305861084
 10
7.7294212191
 20
24.113563551
 10
8.3613092786
 20
23.7647203632
 10
8.9931973382
 20
23.3838750586
 10
9.6250853978
 20
22.9712091237
 10
10.2533763693
 20
22.529071702
 10
10.878049737
 20
22.0572947051
 10
11.4991260167
 20
21.5560462213
 10
12.1130696674
 20
21.0281796595
 10
12.7198400088
 20
20.4735432054
 10
13.3194777212
 20
19.8922886733
 10
13.9085693051
 20
19.2877249146
 10
14.4870546114
 20
18.6597189869
 10
15.0549937891
 20
18.0084038327
 10
15.6091537858
 20
17.3374871307
 10
16.149456013
 20
16.6468570849
 10
16.6759790591
 20
15.9366254914
 10
17.1857256374
 20
15.2108354168
 10
17.6786000646
 20
14.4693981245
 10
18.1546980239
 20
13.7124023512
 10
18.6113092786
 20
12.9441573735
 10
19.0483226877
 20
12.1645990323
 10
19.4658493921
 20
11.3737914867
 10
19.861512578
 20
10.5762364904
 10
20.2351875483
 20
9.7718955597
 10
20.5869990001
 20
8.9608071783
 10
20.9149442104
 20
8.1475885505
 10
21.2188870597
 20
7.3322275266
 10
21.4989636675
 20
6.5147362564
 10
21.7535796686
 20
5.6997683933
 10
21.9825898505
 20
4.8873383294
 10
22.1861394257
 20
4.0774316726
 10
22.3630696674
 20
3.2746589003
 10
22.5132287541
 20
2.4790607001
 10
22.6367685072
 20
1.6905963842
 10
22.7329856639
 20
0.9137543674
 10
22.8016458033
 20
0.1500307879
 10
22.8429833463
 20
-0.6020704927
 10
22.8569982929
 20
-1.3425494743
  0
LWPOLYLINE
  5
273
100
AcDbEntity
  8
RACCORDO
100
AcDbPolyline
 62
250
  6
CONTINUOUS
 90
35
 70
0
 10
5.6262456563
 20
29.1095834163
 10
6.0425659411
 20
29.305426757
 10
6.4732223052
 20
29.4740250029
 10
6.9175669833
 20
29.6151245248
 10
7.3749316184
 20
29.728513062
 10
7.8446283288
 20
29.8140200505
 10
8.3259507171
 20
29.8715168582
 10
8.8181751277
 20
29.9009169753
 10
9.3205609414
 20
29.9021761019
 10
9.8323516979
 20
29.8752923724
 10
10.3527772017
 20
29.8203063706
 10
10.8810550176
 20
29.7373008894
 10
11.4163908351
 20
29.6264008061
 10
11.9579793615
 20
29.4877730001
 10
12.505006071
 20
29.3216260158
 10
13.0566487415
 20
29.1282095928
 10
13.6120778699
 20
28.9078145249
 10
14.170457834
 20
28.6607723428
 10
14.7309487107
 20
28.387454625
 10
15.2927075503
 20
28.0882724007
 10
15.8548893344
 20
27.7636756846
 10
16.4166481761
 20
27.4141528809
 10
16.9771390586
 20
27.0402297798
 10
17.5355190304
 20
26.6424687701
 10
18.0909481633
 20
26.2214681989
 10
18.6425908338
 20
25.7778614929
 10
19.1896175403
 20
25.3123157469
 10
19.7312060598
 20
24.825530704
 10
20.2665418646
 20
24.3182384161
 10
20.7948196644
 20
23.7912019343
 10
21.3152451542
 20
23.2452136259
 10
21.8270358993
 20
22.6810942333
 10
22.3294217037
 20
22.0996925758
 10
22.8216461106
 20
21.5018840556
 10
23.3029685027
 20
20.8885682176
  0
LWPOLYLINE
  5
274
100
AcDbEntity
  8
0
100
AcDbPolyline
 62
7
  6
CONTINUOUS
 90
16
 70
0
 10
10.150402401
 20
-28.4751084939
 10
10.1673234631
 20
-28.4799612554
 10
10.1856138452
 20
-28.4850811221
 10
10.205153808
 20
-28.4904127903
 10
10.2258957121
 20
-28.4959030199
 10
10.2475981966
 20
-28.5014500788
 10
10.2698256564
 20
-28.5068805269
 10
10.2922859691
 20
-28.5119818454
 10
10.3149316569
 20
-28.5166898758
 10
10.3376807502
 20
-28.5210286209
 10
10.3604539074
 20
-28.5248398517
 10
10.3829510381
 20
-28.5279749608
 10
10.4047522592
 20
-28.5304658637
 10
10.4256075122
 20
-28.5322129181
 10
10.4454291685
 20
-28.5329840909
 10
10.464062348
 20
-28.532614405
  0
LWPOLYLINE
  5
275
100
AcDbEntity
  8
0
100
AcDbPolyline
 62
7
  6
CONTINUOUS
 90
14
 70
0
 10
5.6350992192
 20
-29.9440267934
 10
5.6551914761
 20
-29.9545101518
 10
5.7151065281
 20
-29.9814042383
 10
5.7773348953
 20
-30.0030314566
 10
5.841894367
 20
-30.0193424698
 10
5.9084050827
 20
-30.0301576347
 10
5.9764319352
 20
-30.0353345717
 10
6.0460250646
 20
-30.0347582351
 10
6.1168850035
 20
-30.0282618365
 10
6.1886288825
 20
-30.0157373223
 10
6.2613396904
 20
-29.9969777149
 10
6.3349109013
 20
-29.9717272835
 10
6.4089090817
 20
-29.9398654794
 10
6.4199326936
 20
-29.9345538427
  0
LWPOLYLINE
  5
276
100
AcDbEntity
  8
0
100
AcDbPolyline
 62
7
  6
CONTINUOUS
 90
6
 70
0
 10
-11.2302801089
 20
-20.4918968845
 10
-8.2443608544
 20
-22.2159495654
 10
-4.7946968415
 20
-24.178896863
 10
-1.3189983497
 20
-26.1280157472
 10
2.1825163089
 20
-28.0631978373
 10
5.6352425551
 20
-29.9441125308
  0
LWPOLYLINE
  5
277
100
AcDbEntity
  8
0
100
AcDbPolyline
 62
250
  6
CONTINUOUS
 90
10
 70
0
 10
-10.883715573
 20
-20.338508238
 10
-9.5398102614
 20
-21.1149909304
 10
-7.8757950356
 20
-22.0694747469
 10
-6.1629623377
 20
-23.0447387494
 10
-4.3998384511
 20
-24.041051716
 10
-2.5869656355
 20
-25.0575414054
 10
-0.7053383949
 20
-26.1042040978
 10
1.2519531629
 20
-27.1840025076
 10
3.279483042
 20
-28.2930081979
 10
5.3779944807
 20
-29.4307262761
  0
LWPOLYLINE
  5
278
100
AcDbEntity
  8
0
100
AcDbPolyline
 62
7
  6
CONTINUOUS
 90
12
 70
0
 10
-21.1905670933
 20
27.1933087338
 10
-21.1905405217
 20
27.1897282305
 10
-21.1889410068
 20
27.1651715148
 10
-21.1848806375
 20
27.1411691189
 10
-21.1784080661
 20
27.117932806
 10
-21.169661035
 20
27.0958143168
 10
-21.1587587307
 20
27.0749822668
 10
-21.1457786887
 20
27.0555264423
 10
-21.1309334898
 20
27.0377052872
 10
-21.1144398755
 20
27.0217000568
 10
-21.0963685214
 20
27.0075444513
 10
-21.080211584
 20
26.997256803
  0
LINE
  5
279
100
AcDbEntity
  8
0
100
AcDbLine
 62
7
  6
CONTINUOUS
 10
-21.1905679566
 20
27.1933087336
 11
-21.1905679693
 21
27.492464066
  0
LINE
  5
27A
100
AcDbEntity
  8
0
100
AcDbLine
 62
250
  6
CONTINUOUS
 10
-21.1319893255
 20
27.1116949069
 11
-21.1319893255
 21
27.4108541545
  0
LINE
  5
27B
100
AcDbEntity
  8
0
100
AcDbLine
 62
7
  6
CONTINUOUS
 10
-20.4757048489
 20
26.3687944882
 11
-20.4757048489
 21
26.6482219875
  0
LINE
  5
27C
100
AcDbEntity
  8
0
100
AcDbLine
 62
250
  6
CONTINUOUS
 10
-20.4024815442
 20
26.263592659
 11
-20.4024815442
 21
26.605943769
  0
LINE
  5
27D
100
AcDbEntity
  8
0
100
AcDbLine
 62
7
  6
CONTINUOUS
 10
-20.2697441119
 20
25.3905367592
 11
-20.2697441119
 21
26.5293028396
  0
LINE
  5
27E
100
AcDbEntity
  8
0
100
AcDbLine
 62
250
  6
CONTINUOUS
 10
-20.1965208072
 20
25.2853349301
 11
-20.1965208072
 21
26.5715671086
  0
LINE
  5
27F
100
AcDbEntity
  8
0
100
AcDbLine
 62
250
  6
CONTINUOUS
 10
-20.0029565211
 20
25.1735733372
 11
-20.0029565211
 21
26.4598055157
  0
LINE
  5
280
100
AcDbEntity
  8
0
100
AcDbLine
 62
250
  6
CONTINUOUS
 10
-19.6525152332
 20
25.1823181933
 11
-19.6525152332
 21
26.1729226204
  0
LINE
  5
281
100
AcDbEntity
  8
RACCORDO
100
AcDbLine
 62
250
  6
CONTINUOUS
 10
-21.8655357719
 20
-2.5084535205
 11
-21.8655281225
 21
-1.1354453556
  0
LINE
  5
282
100
AcDbEntity
  8
RACCORDO
100
AcDbLine
 62
250
  6
CONTINUOUS
 10
-21.2330725958
 20
-1.5006172502
 11
-21.2330801226
 21
-2.8735967215
  0
LINE
  5
283
100
AcDbEntity
  8
RACCORDO
100
AcDbLine
 62
250
  6
CONTINUOUS
 10
-21.789261068
 20
-2.5252756244
 11
-21.7892493657
 21
-1.1524486088
  0
LINE
  5
284
100
AcDbEntity
  8
RACCORDO
100
AcDbLine
 62
7
  6
CONTINUOUS
 10
-21.2622391336
 20
-1.4282441984
 11
-21.2623691214
 21
-2.8327671938
  0
LINE
  5
285
100
AcDbEntity
  8
RACCORDO
100
AcDbLine
 62
7
  6
CONTINUOUS
 10
-21.2623696808
 20
-2.8327852507
 11
-21.2624114648
 21
-2.8368224858
  0
LWPOLYLINE
  5
286
100
AcDbEntity
  8
RACCORDO
100
AcDbPolyline
 62
250
  6
CONTINUOUS
 90
37
 70
0
 10
-21.7892493657
 20
-1.1524486088
 10
-21.787922078
 20
-1.0594719386
 10
-21.7845999955
 20
-0.9678918801
 10
-21.7794518339
 20
-0.8778572012
 10
-21.772650641
 20
-0.7895939191
 10
-21.7643524997
 20
-0.7031406935
 10
-21.7546789825
 20
-0.6183417549
 10
-21.7437630141
 20
-0.5352679103
 10
-21.7317410216
 20
-0.4540384664
 10
-21.7187089336
 20
-0.3745474009
 10
-21.704788584
 20
-0.296897198
 10
-21.6900881001
 20
-0.2211241399
 10
-21.6746549759
 20
-0.1470058369
 10
-21.6585871457
 20
-0.0746135062
 10
-21.641971117
 20
-0.0039729474
 10
-21.6248057796
 20
0.0652203235
 10
-21.607160162
 20
0.1329396672
 10
-21.5891055358
 20
0.1991453357
 10
-21.5706147178
 20
0.2641319607
 10
-21.5517143976
 20
0.3279645121
 10
-21.5324817351
 20
0.3905320094
 10
-21.5129491159
 20
0.4518704904
 10
-21.4931473427
 20
0.5120125866
 10
-21.4731385172
 20
0.5708921965
 10
-21.4530010614
 20
0.6284002014
 10
-21.4328496361
 20
0.6843377292
 10
-21.4126646929
 20
0.7388811256
 10
-21.3923107456
 20
0.7924859838
 10
-21.3719390819
 20
0.844833966
 10
-21.3514617494
 20
0.8962282671
 10
-21.3303328607
 20
0.9480534338
 10
-21.3084371994
 20
1.0005496859
 10
-21.2858673847
 20
1.0534535675
 10
-21.2623353973
 20
1.1073861296
 10
-21.2377204189
 20
1.1625414363
 10
-21.2120878365
 20
1.2186898503
 10
-21.1854119827
 20
1.2758116722
  0
LWPOLYLINE
  5
287
100
AcDbEntity
  8
RACCORDO
100
AcDbPolyline
 62
250
  6
CONTINUOUS
 90
34
 70
0
 10
-21.8655281225
 20
-1.1354453556
 10
-21.8640074
 20
-1.0335090826
 10
-21.8601091711
 20
-0.9332449072
 10
-21.8540568808
 20
-0.8348395856
 10
-21.8460861886
 20
-0.7385748288
 10
-21.8363974282
 20
-0.644496397
 10
-21.8251298346
 20
-0.5524054011
 10
-21.8124552236
 20
-0.4623869308
 10
-21.7985522828
 20
-0.3745829692
 10
-21.7835254978
 20
-0.2888500594
 10
-21.767532272
 20
-0.2053226875
 10
-21.7507096526
 20
-0.124025916
 10
-21.7330894884
 20
-0.0446303595
 10
-21.7147888483
 20
0.0327926262
 10
-21.6959172672
 20
0.1082082527
 10
-21.6764490142
 20
0.1820175191
 10
-21.6564565794
 20
0.2542218175
 10
-21.6360333321
 20
0.3247497847
 10
-21.6151470699
 20
0.3939035525
 10
-21.5938063725
 20
0.4618300306
 10
-21.572125214
 20
0.5283345566
 10
-21.5502197429
 20
0.5932119772
 10
-21.5282058476
 20
0.656301544
 10
-21.5060993832
 20
0.7177317809
 10
-21.4838613819
 20
0.7777347273
 10
-21.4617239722
 20
0.8358254131
 10
-21.4395645693
 20
0.8924701416
 10
-21.4167506292
 20
0.9493244457
 10
-21.393273238
 20
1.0063813383
 10
-21.3691351098
 20
1.0636214324
 10
-21.3436214834
 20
1.1226665362
 10
-21.3164367414
 20
1.1840350795
 10
-21.287759354
 20
1.2471517612
 10
-21.2575355781
 20
1.3119842269
  0
LINE
  5
288
100
AcDbEntity
  8
RACCORDO
100
AcDbLine
 62
250
  6
CONTINUOUS
 10
-21.2312865839
 20
-1.3839059569
 11
-21.2330725958
 21
-1.5006172502
  0
LINE
  5
289
100
AcDbEntity
  8
RACCORDO
100
AcDbLine
 62
250
  6
CONTINUOUS
 10
-21.2330801226
 20
-2.8735967215
 11
-21.2334086413
 21
-2.8859647429
  0
LWPOLYLINE
  5
28A
100
AcDbEntity
  8
0
100
AcDbPolyline
 62
250
  6
CONTINUOUS
 90
16
 70
0
 10
-21.1319893422
 20
27.4108541691
 10
-21.1310436612
 20
27.4324838698
 10
-21.1282230998
 20
27.4549824124
 10
-21.1235566046
 20
27.4781096757
 10
-21.117092737
 20
27.5016206471
 10
-21.1088996754
 20
27.5252617904
 10
-21.0990658753
 20
27.5487737383
 10
-21.0876982054
 20
27.5719029316
 10
-21.0749180369
 20
27.5944036908
 10
-21.060861347
 20
27.6160345871
 10
-21.0456793666
 20
27.6365643582
 10
-21.0295351895
 20
27.6557731312
 10
-21.0126006074
 20
27.6734541823
 10
-20.9950571119
 20
27.6894180389
 10
-20.9770939203
 20
27.7034944677
 10
-20.9589041683
 20
27.7155330541
  0
LINE
  5
28B
100
AcDbEntity
  8
RACCORDO
100
AcDbLine
 62
7
  6
CONTINUOUS
 10
-21.2624114648
 20
-2.8368224858
 11
-21.2628813331
 21
-2.8466573359
  0
LWPOLYLINE
  5
28C
100
AcDbEntity
  8
RACCORDO
100
AcDbPolyline
 62
250
  6
CONTINUOUS
 90
51
 70
0
 10
-21.2334086413
 20
-2.8859647429
 10
-21.2341462935
 20
-2.8976690488
 10
-21.2352930791
 20
-2.9087096391
 10
-21.2368854587
 20
-2.919067576
 10
-21.2388869717
 20
-2.9287617973
 10
-21.2411882366
 20
-2.9378491169
 10
-21.2437816925
 20
-2.9463239013
 10
-21.2466749002
 20
-2.9541917841
 10
-21.2497811607
 20
-2.9615264795
 10
-21.2530884355
 20
-2.9683231055
 10
-21.256608763
 20
-2.9745865443
 10
-21.2602915598
 20
-2.9804051561
 10
-21.264125716
 20
-2.9857836088
 10
-21.2681223415
 20
-2.9907172346
 10
-21.2722641821
 20
-2.9952803909
 10
-21.2765452859
 20
-2.9994829614
 10
-21.2809716048
 20
-3.0033150624
 10
-21.2855437406
 20
-3.0068214009
 10
-21.2902576413
 20
-3.0100101634
 10
-21.2951173588
 20
-3.0128731634
 10
-21.3001356506
 20
-3.0154305487
 10
-21.3053049737
 20
-3.0176886023
 10
-21.310632871
 20
-3.0196410411
 10
-21.3161547288
 20
-3.0212891641
 10
-21.3218563622
 20
-3.0226414187
 10
-21.3277519561
 20
-3.0236893575
 10
-21.3339194506
 20
-3.0244089361
 10
-21.340355552
 20
-3.0248102818
 10
-21.347063554
 20
-3.0248832673
 10
-21.3541312782
 20
-3.0245734669
 10
-21.3616079908
 20
-3.0238674632
 10
-21.3694444256
 20
-3.0227786735
 10
-21.3775806054
 20
-3.021292924
 10
-21.3860619905
 20
-3.0193727264
 10
-21.3948431206
 20
-3.017055569
 10
-21.4037276376
 20
-3.0144397428
 10
-21.4126728803
 20
-3.0115285923
 10
-21.4217215099
 20
-3.0083187732
 10
-21.4308051522
 20
-3.0048985426
 10
-21.4398816196
 20
-3.0012931721
 10
-21.4489930996
 20
-2.9974773903
 10
-21.4581977814
 20
-2.99346364
 10
-21.4674819926
 20
-2.989269309
 10
-21.4768594055
 20
-2.9848770096
 10
-21.4864292256
 20
-2.9802470211
 10
-21.4961792648
 20
-2.9753954735
 10
-21.5061217112
 20
-2.9703062369
 10
-21.5163923354
 20
-2.9648912016
 10
-21.5270363944
 20
-2.9591209977
 10
-21.5380086313
 20
-2.953024995
 10
-21.549309046
 20
-2.9466031937
  0
LINE
  5
28D
100
AcDbEntity
  8
RACCORDO
100
AcDbLine
 62
7
  6
CONTINUOUS
 10
-21.2628802041
 20
-2.8466476049
 11
-21.2629093769
 21
-2.8470247162
  0
LWPOLYLINE
  5
28E
100
AcDbEntity
  8
RACCORDO
100
AcDbPolyline
 62
250
  6
CONTINUOUS
 90
3
 70
0
 10
-21.2629093769
 20
-2.8470247162
 10
-21.2630475413
 20
-2.8487069455
 10
-21.2639928042
 20
-2.8575132627
  0
LWPOLYLINE
  5
28F
100
AcDbEntity
  8
RACCORDO
100
AcDbPolyline
 62
250
  6
CONTINUOUS
 90
4
 70
0
 10
-21.2086448967
 20
-1.0460343499
 10
-21.218791342
 20
-1.1563146849
 10
-21.2264307617
 20
-1.2690473554
 10
-21.2312865839
 20
-1.3839059569
  0
LWPOLYLINE
  5
290
100
AcDbEntity
  8
RACCORDO
100
AcDbPolyline
 62
7
  6
CONTINUOUS
 90
6
 70
0
 10
-21.240439237
 20
-1.0264156038
 10
-21.2426231387
 20
-1.0491345736
 10
-21.2506459451
 20
-1.1453580806
 10
-21.2565928282
 20
-1.240663955
 10
-21.2604589449
 20
-1.334984479
 10
-21.2622391336
 20
-1.4282441984
  0
LINE
  5
291
100
AcDbEntity
  8
RACCORDO
100
AcDbLine
 62
250
  6
CONTINUOUS
 10
-21.1962666799
 20
-0.9383561293
 11
-21.2086448967
 21
-1.0460343499
  0
LWPOLYLINE
  5
292
100
AcDbEntity
  8
RACCORDO
100
AcDbPolyline
 62
250
  6
CONTINUOUS
 90
4
 70
0
 10
-21.2639928042
 20
-2.8575132627
 10
-21.2652468128
 20
-2.8657973114
 10
-21.266779856
 20
-2.8735709218
 10
-21.2685650262
 20
-2.8808582776
  0
LWPOLYLINE
  5
293
100
AcDbEntity
  8
RACCORDO
100
AcDbPolyline
 62
250
  6
CONTINUOUS
 90
3
 70
0
 10
-21.1658311334
 20
-0.7308856711
 10
-21.1819148765
 20
-0.8332464685
 10
-21.1962666799
 20
-0.9383561293
  0
LWPOLYLINE
  5
294
100
AcDbEntity
  8
RACCORDO
100
AcDbPolyline
 62
7
  6
CONTINUOUS
 90
5
 70
0
 10
-21.1901305444
 20
-0.6577799592
 10
-21.2060226004
 20
-0.7547972698
 10
-21.2196548259
 20
-0.8489159806
 10
-21.2317480483
 20
-0.9452618279
 10
-21.2403764632
 20
-1.0257811438
  0
LINE
  5
295
100
AcDbEntity
  8
RACCORDO
100
AcDbLine
 62
250
  6
CONTINUOUS
 10
-21.1482437628
 20
-0.6314288399
 11
-21.1658311334
 21
-0.7308856711
  0
LINE
  5
296
100
AcDbEntity
  8
RACCORDO
100
AcDbLine
 62
250
  6
CONTINUOUS
 10
-21.2575355629
 20
1.3119842187
 11
-21.2544061148
 21
1.318541358
  0
LINE
  5
297
100
AcDbEntity
  8
RACCORDO
100
AcDbLine
 62
250
  6
CONTINUOUS
 10
-21.1854119827
 20
1.2758116722
 11
-21.1829232184
 21
1.2809785933
  0
LWPOLYLINE
  5
298
100
AcDbEntity
  8
RACCORDO
100
AcDbPolyline
 62
250
  6
CONTINUOUS
 90
19
 70
0
 10
-21.2544061148
 20
1.318541358
 10
-21.2467291803
 20
1.3338974746
 10
-21.2384717506
 20
1.3496206601
 10
-21.2296112445
 20
1.3656771066
 10
-21.2201368258
 20
1.3820072476
 10
-21.2100196924
 20
1.3985911426
 10
-21.1992087425
 20
1.4154452365
 10
-21.1876961378
 20
1.4324970919
 10
-21.1754551081
 20
1.4497048709
 10
-21.1623988035
 20
1.467112298
 10
-21.1485071774
 20
1.484641022
 10
-21.133772292
 20
1.5021989589
 10
-21.118119131
 20
1.5197806239
 10
-21.1015405467
 20
1.5372696689
 10
-21.0840411568
 20
1.5545388281
 10
-21.0655645277
 20
1.5715296652
 10
-21.0461052832
 20
1.5881053219
 10
-21.0257157577
 20
1.6040640499
 10
-21.0044396691
 20
1.6192201163
  0
LWPOLYLINE
  5
299
100
AcDbEntity
  8
0
100
AcDbPolyline
 62
7
  6
CONTINUOUS
 90
8
 70
0
 10
-19.808319488
 20
7.8022588787
 10
-19.6805195425
 20
7.9847032496
 10
-19.4389526597
 20
8.2861195074
 10
-19.1813414398
 20
8.5669612524
 10
-18.9078767144
 20
8.8268402699
 10
-18.6191562126
 20
9.0650226775
 10
-18.3157405445
 20
9.2809424356
 10
-18.057144157
 20
9.440598584
  0
LWPOLYLINE
  5
29A
100
AcDbEntity
  8
0
100
AcDbPolyline
 62
7
  6
CONTINUOUS
 90
19
 70
0
 10
-5.0708931571
 20
23.5674365329
 10
-5.051254656
 20
23.5819589693
 10
-5.0337875962
 20
23.599136411
 10
-5.0184919776
 20
23.6189688582
 10
-5.0052891795
 20
23.6416369946
 10
-4.9942578227
 20
23.6669601364
 10
-4.9856337693
 20
23.6943962324
 10
-4.979469002
 20
23.7239902211
 10
-4.9757115381
 20
23.755697164
 10
-4.9744412915
 20
23.788840195
 10
-4.9757115381
 20
23.8234500749
 10
-4.979469002
 20
23.859496043
 10
-4.9856337693
 20
23.8962089504
 10
-4.9942578227
 20
23.9336038872
 10
-5.0052891795
 20
23.9716657633
 10
-5.0184919776
 20
24.0095801599
 10
-5.0337875962
 20
24.047075604
 10
-5.051254656
 20
24.0844235687
 10
-5.0708931571
 20
24.1216240538
  0
LWPOLYLINE
  5
29B
100
AcDbEntity
  8
0
100
AcDbPolyline
 62
7
  6
CONTINUOUS
 90
13
 70
0
 10
-8.4751126243
 20
20.4565119888
 10
-8.4907141856
 20
20.4460357343
 10
-8.5093287272
 20
20.4311428276
 10
-8.5263098125
 20
20.4148561616
 10
-8.5420085728
 20
20.3969392616
 10
-8.5562867364
 20
20.3775251458
 10
-8.5686976248
 20
20.3573046857
 10
-8.579400859
 20
20.3361314473
 10
-8.5884373302
 20
20.3137931123
 10
-8.595454229
 20
20.2910333644
 10
-8.6004122125
 20
20.2680390785
 10
-8.6033285545
 20
20.2443865057
 10
-8.6040671696
 20
20.2251584913
  0
LWPOLYLINE
  5
29C
100
AcDbEntity
  8
0
100
AcDbPolyline
 62
250
  6
CONTINUOUS
 90
28
 70
0
 10
-8.3724034631
 20
20.4482452929
 10
-8.3804665459
 20
20.4431796788
 10
-8.3887673306
 20
20.4375152391
 10
-8.3972839118
 20
20.4312235384
 10
-8.4060077985
 20
20.4242641654
 10
-8.4148921015
 20
20.4166262836
 10
-8.4238534924
 20
20.4083381833
 10
-8.4328572909
 20
20.3993913841
 10
-8.4418652363
 20
20.3897817571
 10
-8.4507891754
 20
20.3795656233
 10
-8.4595890119
 20
20.3687546135
 10
-8.46822278
 20
20.3573644176
 10
-8.4766049145
 20
20.3454774086
 10
-8.4846930102
 20
20.33312793
 10
-8.4924499001
 20
20.3203453999
 10
-8.4998072102
 20
20.307219814
 10
-8.5067267193
 20
20.2938014961
 10
-8.5131784742
 20
20.280129197
 10
-8.5191165166
 20
20.2662837846
 10
-8.5245123351
 20
20.2523180292
 10
-8.5293408086
 20
20.2382815871
 10
-8.5335705959
 20
20.2242537119
 10
-8.5371830486
 20
20.2102874117
 10
-8.5401614629
 20
20.1964365497
 10
-8.5424878753
 20
20.1827809501
 10
-8.5441535334
 20
20.1693808915
 10
-8.5451547285
 20
20.1562779555
 10
-8.5454886204
 20
20.1435214027
  0
LINE
  5
29D
100
AcDbEntity
  8
0
100
AcDbLine
 62
7
  6
CONTINUOUS
 10
-6.9078742434
 20
21.4257158559
 11
-8.4751284358
 21
20.456502354
  0
LINE
  5
29E
100
AcDbEntity
  8
0
100
AcDbLine
 62
250
  6
CONTINUOUS
 10
-6.806152717
 20
21.4168382486
 11
-8.3724034631
 21
20.4482452929
  0
LINE
  5
29F
100
AcDbEntity
  8
0
100
AcDbLine
 62
7
  6
CONTINUOUS
 10
-1.5046590008
 20
25.0023355782
 11
5.3233031639
 21
28.9447153576
  0
LINE
  5
2A0
100
AcDbEntity
  8
0
100
AcDbLine
 62
7
  6
CONTINUOUS
 10
-6.907874814
 20
21.425715549
 11
-6.9043857323
 21
21.4277301009
  0
LINE
  5
2A1
100
AcDbEntity
  8
0
100
AcDbLine
 62
250
  6
CONTINUOUS
 10
-4.1606466263
 20
20.4946240427
 11
-6.3066894218
 21
19.2555278949
  0
LINE
  5
2A2
100
AcDbEntity
  8
0
100
AcDbLine
 62
7
  6
CONTINUOUS
 10
0.2074317048
 20
23.6896733972
 11
-4.7853900005
 21
20.9363295383
  0
LINE
  5
2A3
100
AcDbEntity
  8
0
100
AcDbLine
 62
7
  6
CONTINUOUS
 10
-6.3606199941
 20
21.720149718
 11
-6.9043851619
 21
21.4277304077
  0
LINE
  5
2A4
100
AcDbEntity
  8
0
100
AcDbLine
 62
250
  6
CONTINUOUS
 10
-6.2634266543
 20
21.7086987618
 11
-6.806152717
 21
21.4168382486
  0
LWPOLYLINE
  5
2A5
100
AcDbEntity
  8
0
100
AcDbPolyline
 62
7
  6
CONTINUOUS
 90
5
 70
0
 10
-6.9043857323
 20
21.4277301009
 10
-6.9008641665
 20
21.4294921502
 10
-6.8894875222
 20
21.4335912519
 10
-6.8770145583
 20
21.435775359
 10
-6.8636600464
 20
21.4359335005
  0
LWPOLYLINE
  5
2A6
100
AcDbEntity
  8
0
100
AcDbPolyline
 62
250
  6
CONTINUOUS
 90
13
 70
0
 10
-6.2006342673
 20
18.9500915749
 10
-6.2203676775
 20
18.9404317583
 10
-6.2420955952
 20
18.9323235201
 10
-6.2654544539
 20
18.9259025329
 10
-6.2900533971
 20
18.921276237
 10
-6.3154808184
 20
18.9185220429
 10
-6.3413112485
 20
18.9176860355
 10
-6.367112475
 20
18.9187822037
 10
-6.3924527738
 20
18.9217922054
 10
-6.4169081338
 20
18.9266656753
 10
-6.4400693508
 20
18.9333210671
 10
-6.4615488755
 20
18.9416470183
 10
-6.4809872977
 20
18.9515042133
  0
LWPOLYLINE
  5
2A7
100
AcDbEntity
  8
0
100
AcDbPolyline
 62
250
  6
CONTINUOUS
 90
4
 70
0
 10
11.8705028094
 20
-27.9374519894
 10
11.8593775543
 20
-27.9321274555
 10
11.8471887813
 20
-27.9283767395
 10
11.8342333231
 20
-27.9263451738
  0
LWPOLYLINE
  5
2A8
100
AcDbEntity
  8
0
100
AcDbPolyline
 62
250
  6
CONTINUOUS
 90
13
 70
0
 10
9.428915279
 20
-29.7692884378
 10
9.4483537012
 20
-29.7791456327
 10
9.4698332259
 20
-29.7874715839
 10
9.4929944429
 20
-29.7941269758
 10
9.5174498029
 20
-29.7990004457
 10
9.5427901017
 20
-29.8020104474
 10
9.5685913282
 20
-29.8031066155
 10
9.5944217583
 20
-29.8022706082
 10
9.6198491796
 20
-29.799516414
 10
9.6444481228
 20
-29.7948901181
 10
9.6678069815
 20
-29.7884691309
 10
9.6895348992
 20
-29.7803608927
 10
9.7092683094
 20
-29.7707010762
  0
LWPOLYLINE
  5
2A9
100
AcDbEntity
  8
0
100
AcDbPolyline
 62
250
  6
CONTINUOUS
 90
13
 70
0
 10
9.428915279
 20
-29.4701741807
 10
9.4483537012
 20
-29.4800313757
 10
9.4698332259
 20
-29.4883573268
 10
9.4929944429
 20
-29.4950127187
 10
9.5174498029
 20
-29.4998861886
 10
9.5427901017
 20
-29.5028961903
 10
9.5685913282
 20
-29.5039923584
 10
9.5944217583
 20
-29.5031563511
 10
9.6198491795
 20
-29.5004021569
 10
9.6444481228
 20
-29.4957758611
 10
9.6678069815
 20
-29.4893548738
 10
9.6895348992
 20
-29.4812466356
 10
9.7092683094
 20
-29.4715868191
  0
LWPOLYLINE
  5
2AA
100
AcDbEntity
  8
0
100
AcDbPolyline
 62
7
  6
CONTINUOUS
 90
11
 70
0
 10
9.4808285548
 20
-29.883804267
 10
9.5013869756
 20
-29.8942668041
 10
9.5227153138
 20
-29.9024204317
 10
9.5447885334
 20
-29.9083029949
 10
9.5675537381
 20
-29.9118780832
 10
9.5907391906
 20
-29.9130600862
 10
9.6140374016
 20
-29.9118140029
 10
9.6373925907
 20
-29.9081053359
 10
9.6606220152
 20
-29.9018931454
 10
9.6833697415
 20
-29.8932143967
 10
9.7002940349
 20
-29.8849489511
  0
LINE
  5
2AB
100
AcDbEntity
  8
0
100
AcDbLine
 62
7
  6
CONTINUOUS
 10
9.480866752
 20
-29.8838270549
 11
8.1249114959
 21
-29.1009154842
  0
LINE
  5
2AC
100
AcDbEntity
  8
0
100
AcDbLine
 62
250
  6
CONTINUOUS
 10
9.428915279
 20
-29.7692884378
 11
8.2041944674
 21
-29.0621499905
  0
LINE
  5
2AD
100
AcDbEntity
  8
0
100
AcDbLine
 62
250
  6
CONTINUOUS
 10
9.428915279
 20
-29.4701739603
 11
8.4934467607
 21
-28.9300463824
  0
LINE
  5
2AE
100
AcDbEntity
  8
0
100
AcDbLine
 62
250
  6
CONTINUOUS
 10
9.5176121916
 20
-29.2425470178
 11
8.7461929852
 21
-28.7971392362
  0
LWPOLYLINE
  5
2AF
100
AcDbEntity
  8
0
100
AcDbPolyline
 62
250
  6
CONTINUOUS
 90
13
 70
0
 10
9.5176121916
 20
-29.2425470178
 10
9.536325274
 20
-29.254295005
 10
9.555918206
 20
-29.2675462737
 10
9.5760594563
 20
-29.2820765997
 10
9.5964082153
 20
-29.2976401158
 10
9.6166201625
 20
-29.3139734724
 10
9.6363532921
 20
-29.3308002931
 10
9.6552737006
 20
-29.3478358519
 10
9.6730612364
 20
-29.3647918908
 10
9.6894149171
 20
-29.3813814972
 10
9.7040580227
 20
-29.3973239589
 10
9.7167427777
 20
-29.412349514
 10
9.7272545438
 20
-29.4262039157
  0
LWPOLYLINE
  5
2B0
100
AcDbEntity
  8
0
100
AcDbPolyline
 62
250
  6
CONTINUOUS
 90
14
 70
0
 10
9.480822738
 20
-29.8838016242
 10
9.4744714641
 20
-29.879738542
 10
9.4675559733
 20
-29.8743100873
 10
9.4611127676
 20
-29.8680950819
 10
9.4551862285
 20
-29.8611207325
 10
9.4498036966
 20
-29.853406943
 10
9.4449896712
 20
-29.8449752935
 10
9.440775022
 20
-29.8358689403
 10
9.4371775978
 20
-29.8261196868
 10
9.4342130375
 20
-29.8157621425
 10
9.431898574
 20
-29.8048547262
 10
9.4302422774
 20
-29.793447146
 10
9.4292471139
 20
-29.7815765482
 10
9.428915279
 20
-29.7692884378
  0
LWPOLYLINE
  5
2B1
100
AcDbEntity
  8
RACCORDO
100
AcDbPolyline
 62
250
  6
CONTINUOUS
 90
11
 70
0
 10
-21.2735434055
 20
-2.7337305441
 10
-21.2804288302
 20
-2.7158455376
 10
-21.2888413829
 20
-2.698477884
 10
-21.2987705259
 20
-2.6816752706
 10
-21.3101878431
 20
-2.6654360602
 10
-21.3230652542
 20
-2.6498033496
 10
-21.3373701724
 20
-2.6348322173
 10
-21.3530538889
 20
-2.6205362833
 10
-21.3700672048
 20
-2.6069496995
 10
-21.3883636202
 20
-2.5941280324
 10
-21.407888802
 20
-2.5821140025
  0
LWPOLYLINE
  5
2B2
100
AcDbEntity
  8
RACCORDO
100
AcDbPolyline
 62
250
  6
CONTINUOUS
 90
3
 70
0
 10
-21.2740091642
 20
-1.3763703179
 10
-21.2657401241
 20
-1.4029128243
 10
-21.2622142438
 20
-1.4269402804
  0
LINE
  5
2B3
100
AcDbEntity
  8
0
100
AcDbLine
 62
7
  6
CONTINUOUS
 10
-19.1097891705
 20
25.8595593937
 11
-19.1097891705
 21
25.5172082837
  0
LINE
  5
2B4
100
AcDbEntity
  8
0
100
AcDbLine
 62
250
  6
CONTINUOUS
 10
-19.0674880028
 20
25.9196777174
 11
-19.0674880028
 21
26.2187942607
  0
LINE
  5
2B5
100
AcDbEntity
  8
0
100
AcDbLine
 62
250
  6
CONTINUOUS
 10
-18.7871349725
 20
25.918265079
 11
-18.7871349725
 21
26.2173793361
  0
LINE
  5
2B6
100
AcDbEntity
  8
0
100
AcDbLine
 62
250
  6
CONTINUOUS
 10
-18.3827822217
 20
25.097443583
 11
-18.3827822217
 21
25.7237703479
  0
LINE
  5
2B7
100
AcDbEntity
  8
0
100
AcDbLine
 62
250
  6
CONTINUOUS
 10
-18.0323409338
 20
25.8210036459
 11
-18.0323409338
 21
25.1061884391
  0
LINE
  5
2B8
100
AcDbEntity
  8
0
100
AcDbLine
 62
7
  6
CONTINUOUS
 10
-17.1298901832
 20
25.6630472935
 11
-17.1298901832
 21
27.2143656898
  0
LWPOLYLINE
  5
2B9
100
AcDbEntity
  8
0
100
AcDbPolyline
 62
250
  6
CONTINUOUS
 90
22
 70
0
 10
-16.5716537726
 20
27.1760767787
 10
-16.5716751911
 20
27.1743738116
 10
-16.571768749
 20
27.1725915629
 10
-16.5719344463
 20
27.1707300326
 10
-16.5721684681
 20
27.1687839724
 10
-16.5724746294
 20
27.1667586307
 10
-16.5728643747
 20
27.1646697521
 10
-16.5733394984
 20
27.1625152027
 10
-16.5738982061
 20
27.1602971164
 10
-16.5745465598
 20
27.15803764
 10
-16.5752866796
 20
27.1557350838
 10
-16.5761164454
 20
27.1533911375
 10
-16.5770355578
 20
27.1510330162
 10
-16.5780462256
 20
27.1486597647
 10
-16.5791462401
 20
27.1462723381
 10
-16.5803286765
 20
27.143900817
 10
-16.5815955755
 20
27.1415451658
 10
-16.5829448963
 20
27.1392054201
 10
-16.5843635916
 20
27.1369117671
 10
-16.5858473123
 20
27.1346742694
 10
-16.5874004076
 20
27.1324828645
 10
-16.5890228773
 20
27.1303375523
  0
LWPOLYLINE
  5
2BA
100
AcDbEntity
  8
0
100
AcDbPolyline
 62
250
  6
CONTINUOUS
 90
28
 70
0
 10
-18.7871349725
 20
26.2173793361
 10
-18.7871075618
 20
26.2193044007
 10
-18.7869835871
 20
26.2213251925
 10
-18.7867630483
 20
26.2234417114
 10
-18.7864509238
 20
26.2256624538
 10
-18.7860422352
 20
26.2279789234
 10
-18.7855220472
 20
26.2303656308
 10
-18.784887091
 20
26.232825715
 10
-18.7841406355
 20
26.235356037
 10
-18.7832775514
 20
26.2379216909
 10
-18.7822941776
 20
26.2405246864
 10
-18.7811941753
 20
26.2431630137
 10
-18.7799833992
 20
26.2457957376
 10
-18.7786590818
 20
26.2484223728
 10
-18.7772239906
 20
26.2510434045
 10
-18.7756922837
 20
26.2536193536
 10
-18.7740621612
 20
26.2561487478
 10
-18.772335423
 20
26.2586330594
 10
-18.7705316267
 20
26.2610372253
 10
-18.7686492214
 20
26.2633598493
 10
-18.7666897581
 20
26.2656023278
 10
-18.764677447
 20
26.2677337859
 10
-18.7626111688
 20
26.2697522794
 10
-18.7604920427
 20
26.2716597525
 10
-18.7583476369
 20
26.2734311642
 10
-18.7561871409
 20
26.2750581673
 10
-18.7540013652
 20
26.2765491089
 10
-18.7517903098
 20
26.277903989
  0
LWPOLYLINE
  5
2BB
100
AcDbEntity
  8
0
100
AcDbPolyline
 62
250
  6
CONTINUOUS
 90
28
 70
0
 10
-19.0674880023
 20
26.2187942604
 10
-19.0672960072
 20
26.2284012077
 10
-19.0666964283
 20
26.2385092075
 10
-19.0656546906
 20
26.2491128055
 10
-19.0641331974
 20
26.2602240458
 10
-19.0620997449
 20
26.2718073879
 10
-19.0595367734
 20
26.2837764947
 10
-19.0564209002
 20
26.2961050082
 10
-19.0527307467
 20
26.3087617646
 10
-19.0484706488
 20
26.3216429201
 10
-19.043631854
 20
26.3347078338
 10
-19.0382081832
 20
26.3479127601
 10
-19.0322275981
 20
26.3611439154
 10
-19.0257002201
 20
26.3743464539
 10
-19.0186332084
 20
26.3874759138
 10
-19.0110669187
 20
26.4004344234
 10
-19.00302503
 20
26.4131654763
 10
-18.9945267924
 20
26.4256236076
 10
-18.9856171643
 20
26.4377315083
 10
-18.976326515
 20
26.4494394667
 10
-18.966685413
 20
26.4607009198
 10
-18.9567462865
 20
26.4714496802
 10
-18.9465452309
 20
26.4816435983
 10
-18.9361198179
 20
26.4912421361
 10
-18.9255292806
 20
26.5001907004
 10
-18.9148206664
 20
26.5084520938
 10
-18.9040274611
 20
26.5160026495
 10
-18.8931901269
 20
26.5228156561
  0
LWPOLYLINE
  5
2BC
100
AcDbEntity
  8
0
100
AcDbPolyline
 62
250
  6
CONTINUOUS
 90
7
 70
0
 10
-16.5155217327
 20
27.5767857557
 10
-16.516977262
 20
27.5628793075
 10
-16.5217473589
 20
27.5481978332
 10
-16.5297598221
 20
27.5339947117
 10
-16.5408805817
 20
27.5205075994
 10
-16.5549235575
 20
27.507962172
 10
-16.5716537726
 20
27.4965683483
  0
LWPOLYLINE
  5
2BD
100
AcDbEntity
  8
0
100
AcDbPolyline
 62
250
  6
CONTINUOUS
 90
7
 70
0
 10
-16.5155217327
 20
27.2562941861
 10
-16.516977262
 20
27.2423877379
 10
-16.5217473589
 20
27.2277062636
 10
-16.5297598221
 20
27.2135031421
 10
-16.5408805817
 20
27.2000160298
 10
-16.5549235575
 20
27.1874706024
 10
-16.5716537726
 20
27.1760767787
  0
LWPOLYLINE
  5
2BE
100
AcDbEntity
  8
ASSI
100
AcDbPolyline
 62
7
  6
CONTINUOUS
 90
14
 70
0
 10
-14.4270765741
 20
27.9341967888
 10
-14.4308334857
 20
27.9036386974
 10
-14.432411254
 20
27.8619627714
 10
-14.4307887031
 20
27.8181157251
 10
-14.426002414
 20
27.7730861077
 10
-14.417980519
 20
27.7268470559
 10
-14.4067948858
 20
27.679425433
 10
-14.3926976991
 20
27.6318903786
 10
-14.3756228196
 20
27.584239316
 10
-14.3556363866
 20
27.5364748218
 10
-14.3331890021
 20
27.4896737657
 10
-14.308430867
 20
27.4441951044
 10
-14.2812117804
 20
27.3996798812
 10
-14.2515317425
 20
27.3561280962
  0
LWPOLYLINE
  5
2BF
100
AcDbEntity
  8
RACCORDO
100
AcDbPolyline
 62
250
  6
CONTINUOUS
 90
3
 70
0
 10
-21.2685650262
 20
-2.8808582776
 10
-21.2705745685
 20
-2.8876697701
 10
-21.2727833684
 20
-2.894017832
  0
LWPOLYLINE
  5
2C0
100
AcDbEntity
  8
RACCORDO
100
AcDbPolyline
 62
250
  6
CONTINUOUS
 90
32
 70
0
 10
-21.2727833684
 20
-2.894017832
 10
-21.2751722453
 20
-2.8999303057
 10
-21.2777167261
 20
-2.9054185832
 10
-21.2803984799
 20
-2.9105009796
 10
-21.2832142681
 20
-2.9152136674
 10
-21.2861481216
 20
-2.91957421
 10
-21.2891864014
 20
-2.9235944016
 10
-21.2923383479
 20
-2.9272985933
 10
-21.2955976026
 20
-2.9307103497
 10
-21.2989532899
 20
-2.9338340482
 10
-21.3024164481
 20
-2.9366655832
 10
-21.3059864437
 20
-2.9392346192
 10
-21.3096562091
 20
-2.9415428341
 10
-21.31343497
 20
-2.9435518668
 10
-21.3173257854
 20
-2.9453042327
 10
-21.3213269358
 20
-2.9467994188
 10
-21.3254504594
 20
-2.9479533658
 10
-21.3297075035
 20
-2.9488342997
 10
-21.3341023195
 20
-2.9494367198
 10
-21.338654581
 20
-2.9496021976
 10
-21.3434057737
 20
-2.9494186115
 10
-21.3483611473
 20
-2.9488977192
 10
-21.3535161266
 20
-2.9478171288
 10
-21.3589654736
 20
-2.946194179
 10
-21.3647225766
 20
-2.9441420079
 10
-21.3706767897
 20
-2.9415922107
 10
-21.3768913891
 20
-2.9384492465
 10
-21.3834358937
 20
-2.9348495534
 10
-21.3901500348
 20
-2.9310175521
 10
-21.3969687761
 20
-2.9268969509
 10
-21.4039781469
 20
-2.9224587862
 10
-21.4184259921
 20
-2.913381798
  0
LWPOLYLINE
  5
2C1
100
AcDbEntity
  8
RACCORDO
100
AcDbPolyline
 62
250
  6
CONTINUOUS
 90
23
 70
0
 10
-20.6278756902
 20
0.9484264991
 10
-20.6512510847
 20
0.8983251147
 10
-20.6750486813
 20
0.8462575967
 10
-20.6992187902
 20
0.7922226211
 10
-20.7236641205
 20
0.7363326663
 10
-20.7483771069
 20
0.6784783051
 10
-20.7734297028
 20
0.6183267919
 10
-20.7988528691
 20
0.5556330437
 10
-20.8244672108
 20
0.4906558915
 10
-20.8500282092
 20
0.4238226901
 10
-20.8754108808
 20
0.355310441
 10
-20.9006088385
 20
0.2849775998
 10
-20.9255630802
 20
0.212779654
 10
-20.9501514359
 20
0.1388873793
 10
-20.9743449731
 20
0.0631859926
 10
-20.9981991778
 20
-0.0147897924
 10
-21.0215928759
 20
-0.0949334265
 10
-21.0444354701
 20
-0.1772631886
 10
-21.0667729189
 20
-0.2624157976
 10
-21.0884781997
 20
-0.3504070901
 10
-21.1093698458
 20
-0.4410752191
 10
-21.1293513265
 20
-0.5347648451
 10
-21.1482437628
 20
-0.6314288399
  0
LWPOLYLINE
  5
2C2
100
AcDbEntity
  8
RACCORDO
100
AcDbPolyline
 62
250
  6
CONTINUOUS
 90
26
 70
0
 10
-20.6605801514
 20
0.9793791291
 10
-20.681673858
 20
0.9342492753
 10
-20.7031163501
 20
0.8875206872
 10
-20.7248695239
 20
0.839191222
 10
-20.7468503846
 20
0.7893588222
 10
-20.7690622887
 20
0.7379250482
 10
-20.7915863559
 20
0.6845935288
 10
-20.8144464893
 20
0.629176456
 10
-20.8375059234
 20
0.5718664943
 10
-20.8606013122
 20
0.5129403065
 10
-20.8836571857
 20
0.4524676227
 10
-20.9066433136
 20
0.3903983052
 10
-20.929472108
 20
0.3268334757
 10
-20.9520499752
 20
0.2619004925
 10
-20.9743607518
 20
0.1955051123
 10
-20.9964243557
 20
0.1274199034
 10
-21.0181482038
 20
0.0577423525
 10
-21.03948454
 20
-0.0135750514
 10
-21.0604896785
 20
-0.0869704754
 10
-21.0810674345
 20
-0.1624091895
 10
-21.1011169453
 20
-0.2398476721
 10
-21.1206432076
 20
-0.3196981699
 10
-21.1395306837
 20
-0.4019655125
 10
-21.1576288997
 20
-0.4865213701
 10
-21.1748489342
 20
-0.5735600205
 10
-21.1901305444
 20
-0.6577799592
  0
LWPOLYLINE
  5
2C3
100
AcDbEntity
  8
0
100
AcDbPolyline
 62
7
  6
CONTINUOUS
 90
13
 70
0
 10
-8.8920961823
 20
21.3818789313
 10
-8.8813514298
 20
21.4040721963
 10
-8.8725475556
 20
21.427890278
 10
-8.8656845599
 20
21.4533331766
 10
-8.8607469046
 20
21.4805599797
 10
-8.8577501276
 20
21.5094115997
 10
-8.8567408433
 20
21.539410773
 10
-8.8577501276
 20
21.5705754425
 10
-8.8607469046
 20
21.6028876653
 10
-8.8656845599
 20
21.6358163491
 10
-8.8725475556
 20
21.6691844631
 10
-8.8813514298
 20
21.7031690381
 10
-8.8920961823
 20
21.737770074
  0
LWPOLYLINE
  5
2C4
100
AcDbEntity
  8
RACCORDO
100
AcDbPolyline
 62
250
  6
CONTINUOUS
 90
22
 70
0
 10
-21.1829232184
 20
1.2809785933
 10
-21.1767781404
 20
1.2932944928
 10
-21.1702338725
 20
1.3058650821
 10
-21.1632774864
 20
1.3186710988
 10
-21.155902419
 20
1.3316802419
 10
-21.1480921749
 20
1.3448802365
 10
-21.1398183666
 20
1.358277653
 10
-21.1310762301
 20
1.3718334364
 10
-21.1218502452
 20
1.3855258184
 10
-21.1120925342
 20
1.3993794647
 10
-21.1017942468
 20
1.4133516776
 10
-21.090946764
 20
1.4273997923
 10
-21.0794986089
 20
1.4415362039
 10
-21.0674421475
 20
1.45570545
 10
-21.0547759259
 20
1.4698445256
 10
-21.0414560006
 20
1.4839384782
 10
-21.0274826497
 20
1.4979114493
 10
-21.0128643392
 20
1.5116797475
 10
-20.9975713066
 20
1.5251975648
 10
-20.9816053882
 20
1.5383778563
 10
-20.9650031935
 20
1.5510987724
 10
-20.9477950656
 20
1.5632471013
  0
LWPOLYLINE
  5
2C5
100
AcDbEntity
  8
0
100
AcDbPolyline
 62
7
  6
CONTINUOUS
 90
11
 70
0
 10
-5.4458402287
 20
18.5537158847
 10
-5.4694076165
 20
18.5308491549
 10
-5.4946547204
 20
18.510176631
 10
-5.5212600772
 20
18.4920283047
 10
-5.5489220936
 20
18.4767055548
 10
-5.5772434245
 20
18.4643528647
 10
-5.6057652289
 20
18.4550206175
 10
-5.6342149767
 20
18.4488057713
 10
-5.6621876102
 20
18.445834219
 10
-5.6890395292
 20
18.4460921775
 10
-5.6948089706
 20
18.4465756305
  0
LWPOLYLINE
  5
2C6
100
AcDbEntity
  8
RACCORDO
100
AcDbPolyline
 62
7
  6
CONTINUOUS
 90
25
 70
0
 10
-27.9548518274
 20
1.8553590559
 10
-28.2740329046
 20
1.6017154599
 10
-28.575616352
 20
1.3193460806
 10
-28.8585450226
 20
1.0086848772
 10
-29.1219507973
 20
0.6700583115
 10
-29.3647459992
 20
0.3041942788
 10
-29.5857546755
 20
-0.087689425
 10
-29.7843606757
 20
-0.5050172008
 10
-29.959824251
 20
-0.9468316933
 10
-30.1111789965
 20
-1.4110181811
 10
-30.2380031281
 20
-1.8962095517
 10
-30.3401015497
 20
-2.4016253903
 10
-30.4171651875
 20
-2.9257367733
 10
-30.4690479215
 20
-3.4675114804
 10
-30.4956080091
 20
-4.0255478824
 10
-30.4967969906
 20
-4.5975275555
 10
-30.4727450066
 20
-5.1817805017
 10
-30.4236199418
 20
-5.7771358204
 10
-30.3496761342
 20
-6.3818310946
 10
-30.2512371925
 20
-6.9942319464
 10
-30.1286373927
 20
-7.6129648504
 10
-29.9822574724
 20
-8.2365758284
 10
-29.8125339419
 20
-8.8635458408
 10
-29.6199612335
 20
-9.4923171408
 10
-29.5412990592
 20
-9.730228114
  0
LWPOLYLINE
  5
2C7
100
AcDbEntity
  8
0
100
AcDbPolyline
 62
7
  6
CONTINUOUS
 90
6
 70
0
 10
-18.0964046605
 20
9.3892284359
 10
-18.4156809549
 20
9.1410469956
 10
-18.7174792733
 20
8.8663553848
 10
-19.0019074731
 20
8.5653171991
 10
-19.2672030827
 20
8.2397978347
 10
-19.3285597096
 20
8.1524794661
  0
LINE
  5
2C8
100
AcDbEntity
  8
0
100
AcDbLine
 62
7
  6
CONTINUOUS
 10
-18.1855305214
 20
8.9868811224
 11
-27.9548518274
 21
1.8553590559
  0
LWPOLYLINE
  5
2C9
100
AcDbEntity
  8
0
100
AcDbPolyline
 62
250
  6
CONTINUOUS
 90
7
 70
0
 10
-3.9851530675
 20
20.2292805871
 10
-3.9684228916
 20
20.2406744012
 10
-3.9543799351
 20
20.2532198158
 10
-3.9432591772
 20
20.2667069149
 10
-3.9352467016
 20
20.2809100251
 10
-3.9304765825
 20
20.2955914919
 10
-3.9290210276
 20
20.3094980641
  0
LWPOLYLINE
  5
2CA
100
AcDbEntity
  8
0
100
AcDbPolyline
 62
250
  6
CONTINUOUS
 90
7
 70
0
 10
-3.9851530675
 20
19.9087890175
 10
-3.9684228524
 20
19.9201828412
 10
-3.9543798766
 20
19.9327282685
 10
-3.943259117
 20
19.9462153808
 10
-3.9352466537
 20
19.9604185023
 10
-3.9304765569
 20
19.9750999767
 10
-3.9290210276
 20
19.9890064249
  0
LWPOLYLINE
  5
2CB
100
AcDbEntity
  8
0
100
AcDbPolyline
 62
7
  6
CONTINUOUS
 90
13
 70
0
 10
-5.1517181447
 20
18.5376163738
 10
-5.1677160438
 20
18.5268498935
 10
-5.1863140915
 20
18.5119116366
 10
-5.2032721728
 20
18.4955780435
 10
-5.2189482548
 20
18.4776206381
 10
-5.2331971938
 20
18.4581670351
 10
-5.2455732319
 20
18.4379131234
 10
-5.2562352632
 20
18.4167172861
 10
-5.2652232317
 20
18.3943622368
 10
-5.2721944721
 20
18.3715987385
 10
-5.2770995095
 20
18.3486152416
 10
-5.2799663416
 20
18.3249775281
 10
-5.280664362
 20
18.3062403805
  0
LINE
  5
2CC
100
AcDbEntity
  8
0
100
AcDbLine
 62
7
  6
CONTINUOUS
 10
-17.8594743179
 20
9.5453548898
 11
-18.0964046605
 21
9.3892284359
  0
LWPOLYLINE
  5
2CD
100
AcDbEntity
  8
0
100
AcDbPolyline
 62
250
  6
CONTINUOUS
 90
16
 70
0
 10
-6.3066894218
 20
19.2555278949
 10
-6.3250082552
 20
19.2435637543
 10
-6.3430964451
 20
19.2295594586
 10
-6.3607608571
 20
19.2136654361
 10
-6.3778135321
 20
19.196052702
 10
-6.3940717337
 20
19.1769099728
 10
-6.4093599085
 20
19.1564416545
 10
-6.4235145979
 20
19.1348673405
 10
-6.4363849151
 20
19.1124185476
 10
-6.4478321716
 20
19.0893351745
 10
-6.4577347788
 20
19.0658627372
 10
-6.4659860622
 20
19.0422549625
 10
-6.4724955037
 20
19.0187701895
 10
-6.4771942652
 20
18.9956616093
 10
-6.4800344958
 20
18.9731745718
 10
-6.4809872724
 20
18.9515491853
  0
LWPOLYLINE
  5
2CE
100
AcDbEntity
  8
0
100
AcDbPolyline
 62
250
  6
CONTINUOUS
 90
16
 70
0
 10
-6.1652896047
 20
19.0106162278
 10
-6.1690663374
 20
19.0081973255
 10
-6.1727200619
 20
19.0054362345
 10
-6.1762507783
 20
19.0023329549
 10
-6.1796934644
 20
18.9988473434
 10
-6.1830131423
 20
18.9950195432
 10
-6.1861048786
 20
18.9909699842
 10
-6.1889613694
 20
18.9866914695
 10
-6.1915899186
 20
18.982191196
 10
-6.1939075034
 20
18.9776111843
 10
-6.1959043183
 20
18.9729487407
 10
-6.1975901689
 20
18.9682065589
 10
-6.1989114497
 20
18.9635347412
 10
-6.1998502921
 20
18.9589833217
 10
-6.2004245646
 20
18.9545022662
 10
-6.2006342673
 20
18.9500915749
  0
LINE
  5
2CF
100
AcDbEntity
  8
0
100
AcDbLine
 62
7
  6
CONTINUOUS
 10
-5.1517265643
 20
18.5376117653
 11
-3.5844723718
 21
19.5068252672
  0
LINE
  5
2D0
100
AcDbEntity
  8
0
100
AcDbLine
 62
250
  6
CONTINUOUS
 10
-5.0490015916
 20
18.5293547043
 11
-3.4827508454
 21
19.4979476599
  0
LINE
  5
2D1
100
AcDbEntity
  8
0
100
AcDbLine
 62
7
  6
CONTINUOUS
 10
-6.5232884654
 20
18.2499205225
 11
-7.0660145281
 21
17.915030432
  0
LINE
  5
2D2
100
AcDbEntity
  8
0
100
AcDbLine
 62
7
  6
CONTINUOUS
 10
-5.2724443697
 20
17.9458949037
 11
-5.4458402287
 21
17.8389006779
  0
LINE
  5
2D3
100
AcDbEntity
  8
0
100
AcDbLine
 62
7
  6
CONTINUOUS
 10
1.2251836023
 20
22.8936456524
 11
-4.134555492
 21
19.6340783474
  0
LINE
  5
2D4
100
AcDbEntity
  8
0
100
AcDbLine
 62
7
  6
CONTINUOUS
 10
1.119502805
 20
23.4576721772
 11
-3.9463616344
 21
20.3983389805
  0
LWPOLYLINE
  5
2D5
100
AcDbEntity
  8
0
100
AcDbPolyline
 62
250
  6
CONTINUOUS
 90
8
 70
0
 10
-5.1517184119
 20
18.537616806
 10
-5.1499929444
 20
18.5386478736
 10
-5.136058074
 20
18.5447178468
 10
-5.1205920057
 20
18.5477569289
 10
-5.1038592656
 20
18.5477131404
 10
-5.0861460447
 20
18.5445872303
 10
-5.0677553037
 20
18.5384326631
 10
-5.0490015916
 20
18.5293547043
  0
LINE
  5
2D6
100
AcDbEntity
  8
0
100
AcDbLine
 62
250
  6
CONTINUOUS
 10
-4.0192850115
 20
20.2496903181
 11
-6.1652896047
 21
19.0106162278
  0
LINE
  5
2D7
100
AcDbEntity
  8
0
100
AcDbLine
 62
7
  6
CONTINUOUS
 10
-3.5809827392
 20
19.5088401599
 11
-3.5844718212
 21
19.5068256078
  0
LINE
  5
2D8
100
AcDbEntity
  8
RACCORDO
100
AcDbLine
 62
250
  6
CONTINUOUS
 10
0.1126777116
 20
20.9540140217
 11
6.4766387422
 21
24.6284853617
  0
LINE
  5
2D9
100
AcDbEntity
  8
RACCORDO
100
AcDbLine
 62
250
  6
CONTINUOUS
 10
0.5124240075
 20
20.3184697233
 11
6.8763850381
 21
23.9929410632
  0
LWPOLYLINE
  5
2DA
100
AcDbEntity
  8
0
100
AcDbPolyline
 62
7
  6
CONTINUOUS
 90
20
 70
0
 10
-18.057144157
 20
9.440598584
 10
-17.9982126374
 20
9.4741099581
 10
-17.6670048394
 20
9.6441918579
 10
-17.322481133
 20
9.7908895324
 10
-16.9648088353
 20
9.9139552371
 10
-16.5949176373
 20
10.0128967257
 10
-16.2144151952
 20
10.0872458998
 10
-15.8245284182
 20
10.1368948881
 10
-15.4254721047
 20
10.1619427617
 10
-15.0173984544
 20
10.1623653113
 10
-14.6007209179
 20
10.1380956172
 10
-14.1764358311
 20
10.0891273828
 10
-13.7455636768
 20
10.0155179533
 10
-13.3089801337
 20
9.9174212782
 10
-12.8673398235
 20
9.7949949339
 10
-12.4213552681
 20
9.6483871392
 10
-11.9712888765
 20
9.4776183291
 10
-11.5184477165
 20
9.2831337218
 10
-11.0651431071
 20
9.06599372
 10
-10.6135629689
 20
8.8275366727
  0
LINE
  5
2DB
100
AcDbEntity
  8
0
100
AcDbLine
 62
7
  6
CONTINUOUS
 10
-3.5809832903
 20
19.508839819
 11
-3.0372181386
 21
19.8012591207
  0
LINE
  5
2DC
100
AcDbEntity
  8
0
100
AcDbLine
 62
250
  6
CONTINUOUS
 10
-3.4827508454
 20
19.4979476599
 11
-2.9399852153
 21
19.7898294512
  0
LWPOLYLINE
  5
2DD
100
AcDbEntity
  8
0
100
AcDbPolyline
 62
250
  6
CONTINUOUS
 90
16
 70
0
 10
-0.837280994
 20
18.5757124981
 10
-0.8290898691
 20
18.5800884436
 10
-0.8206746896
 20
18.5841211412
 10
-0.8120580682
 20
18.5877580637
 10
-0.8032492874
 20
18.5909507173
 10
-0.7942955264
 20
18.5936355282
 10
-0.7852798552
 20
18.5957456432
 10
-0.7762371596
 20
18.597234708
 10
-0.7672055223
 20
18.5980567263
 10
-0.7582719531
 20
18.598167671
 10
-0.7494761068
 20
18.5975354083
 10
-0.7408591256
 20
18.5961298051
 10
-0.7325045984
 20
18.5939358086
 10
-0.7244547002
 20
18.5909416225
 10
-0.7167443081
 20
18.5871360601
 10
-0.7157877891
 20
18.5865922256
  0
LWPOLYLINE
  5
2DE
100
AcDbEntity
  8
0
100
AcDbPolyline
 62
250
  6
CONTINUOUS
 90
9
 70
0
 10
-2.9399857609
 20
19.7898297612
 10
-2.921684154
 20
19.7988582923
 10
-2.9036088118
 20
19.805590607
 10
-2.8859526855
 20
19.8099526234
 10
-2.868902516
 20
19.81189526
 10
-2.8526428639
 20
19.8113955297
 10
-2.8373534366
 20
19.8084587926
 10
-2.823198801
 20
19.8031168587
 10
-2.8177869555
 20
19.8002600912
  0
LWPOLYLINE
  5
2DF
100
AcDbEntity
  8
0
100
AcDbPolyline
 62
250
  6
CONTINUOUS
 90
13
 70
0
 10
-6.2006342673
 20
18.6509773178
 10
-6.2203675927
 20
18.6413175212
 10
-6.2420954275
 20
18.6332092872
 10
-6.265454213
 20
18.6267882908
 10
-6.290053099
 20
18.6221619757
 10
-6.315480484
 20
18.6194077562
 10
-6.3413109025
 20
18.618571722
 10
-6.3671121439
 20
18.6196678669
 10
-6.3924524821
 20
18.6226778539
 10
-6.4169079004
 20
18.6275513213
 10
-6.4400691896
 20
18.6342067261
 10
-6.4615487946
 20
18.6425327089
 10
-6.4809872977
 20
18.6523899563
  0
LWPOLYLINE
  5
2E0
100
AcDbEntity
  8
0
100
AcDbPolyline
 62
250
  6
CONTINUOUS
 90
7
 70
0
 10
-3.0370771455
 20
19.8013347241
 10
-3.0250977953
 20
19.806316665
 10
-3.0098097621
 20
19.8092530417
 10
-2.9933703336
 20
19.8090399435
 10
-2.9760606863
 20
19.8056810033
 10
-2.9581768754
 20
19.7992336592
 10
-2.9400247821
 20
19.7898081735
  0
LWPOLYLINE
  5
2E1
100
AcDbEntity
  8
0
100
AcDbPolyline
 62
7
  6
CONTINUOUS
 90
5
 70
0
 10
-4.5072776643
 20
-17.5163118533
 10
-4.1930165243
 20
-17.4770987053
 10
-3.7845161672
 20
-17.3959357852
 10
-3.3890093102
 20
-17.2860160045
 10
-3.00641577
 20
-17.1475168232
  0
LINE
  5
2E2
100
AcDbEntity
  8
0
100
AcDbLine
 62
7
  6
CONTINUOUS
 10
9.8030301605
 20
-28.2803975702
 11
10.1136210601
 21
-28.459728863
  0
LINE
  5
2E3
100
AcDbEntity
  8
0
100
AcDbLine
 62
250
  6
CONTINUOUS
 10
11.3665130987
 20
-27.6562922936
 11
11.8342331773
 21
-27.926345089
  0
LINE
  5
2E4
100
AcDbEntity
  8
0
100
AcDbLine
 62
7
  6
CONTINUOUS
 10
11.8707129245
 20
-27.9375728972
 11
11.3665130987
 21
-27.6464542369
  0
LWPOLYLINE
  5
2E5
100
AcDbEntity
  8
0
100
AcDbPolyline
 62
250
  6
CONTINUOUS
 90
7
 70
0
 10
-21.1905679566
 20
27.1933087336
 10
-21.1886618573
 20
27.1774448023
 10
-21.1834487173
 20
27.1628136313
 10
-21.1750081636
 20
27.148693413
 10
-21.1634814294
 20
27.1353204166
 10
-21.149061388
 20
27.1229184082
 10
-21.1319893255
 20
27.1116949069
  0
LWPOLYLINE
  5
2E6
100
AcDbEntity
  8
0
100
AcDbPolyline
 62
250
  6
CONTINUOUS
 90
7
 70
0
 10
-21.1905679538
 20
27.49241873
 10
-21.1886619089
 20
27.4765592575
 10
-21.1834488064
 20
27.4619280617
 10
-21.1750082721
 20
27.4478078076
 10
-21.163481533
 20
27.434434768
 10
-21.1490614567
 20
27.4220327125
 10
-21.1319893255
 20
27.4108091646
  0
LWPOLYLINE
  5
2E7
100
AcDbEntity
  8
0
100
AcDbPolyline
 62
7
  6
CONTINUOUS
 90
16
 70
0
 10
-17.1298901832
 20
27.2143656898
 10
-17.1306495237
 20
27.2317540352
 10
-17.1329450004
 20
27.2499087855
 10
-17.1367676087
 20
27.2686413279
 10
-17.1421129171
 20
27.2878245481
 10
-17.148926412
 20
27.3071785399
 10
-17.1570526189
 20
27.3262725843
 10
-17.1662905862
 20
27.344742665
 10
-17.1765785507
 20
27.3625619421
 10
-17.187955195
 20
27.379797416
 10
-17.2004281589
 20
27.3963821822
 10
-17.2137826708
 20
27.4119602026
 10
-17.2277234497
 20
27.4261814655
 10
-17.2420353413
 20
27.4388587984
 10
-17.2566104736
 20
27.4499248
 10
-17.2712900002
 20
27.4592773569
  0
LWPOLYLINE
  5
2E8
100
AcDbEntity
  8
0
100
AcDbPolyline
 62
7
  6
CONTINUOUS
 90
10
 70
0
 10
-16.5155222504
 20
27.5770081383
 10
-16.5160247844
 20
27.5925163226
 10
-16.5195522947
 20
27.6208703147
 10
-16.5264324151
 20
27.6483878345
 10
-16.5365876694
 20
27.6746710059
 10
-16.5497516186
 20
27.6991396937
 10
-16.5656908573
 20
27.7215255905
 10
-16.5842717336
 20
27.7416995155
 10
-16.6051387631
 20
27.7592898801
 10
-16.6256406988
 20
27.7727411533
  0
LINE
  5
2E9
100
AcDbEntity
  8
0
100
AcDbLine
 62
250
  6
CONTINUOUS
 10
-16.5716537726
 20
27.4965683483
 11
-16.5716537726
 21
27.1760767787
  0
LINE
  5
2EA
100
AcDbEntity
  8
0
100
AcDbLine
 62
7
  6
CONTINUOUS
 10
-16.5155221036
 20
27.5770081385
 11
-16.5155217327
 21
27.2562941861
  0
LINE
  5
2EB
100
AcDbEntity
  8
0
100
AcDbLine
 62
7
  6
CONTINUOUS
 10
-15.4322339581
 20
25.4329985978
 11
-15.4322339581
 21
24.3160961861
  0
LINE
  5
2EC
100
AcDbEntity
  8
0
100
AcDbLine
 62
250
  6
CONTINUOUS
 10
-15.3590106534
 20
25.3309299494
 11
-15.3590106534
 21
24.210894357
  0
LWPOLYLINE
  5
2ED
100
AcDbEntity
  8
0
100
AcDbPolyline
 62
250
  6
CONTINUOUS
 90
16
 70
0
 10
-15.3590106534
 20
25.3309299494
 10
-15.3580544291
 20
25.352683956
 10
-15.3551969198
 20
25.3753018925
 10
-15.3504702428
 20
25.3985386918
 10
-15.343931087
 20
25.4221288001
 10
-15.3356489173
 20
25.4458311042
 10
-15.3256950581
 20
25.4694316287
 10
-15.3141430321
 20
25.4927236692
 10
-15.3011316801
 20
25.5153992151
 10
-15.2868674253
 20
25.5371061932
 10
-15.2715317537
 20
25.5575997178
 10
-15.2552871783
 20
25.5766915063
 10
-15.2383498542
 20
25.5941582942
 10
-15.2209215342
 20
25.6098303332
 10
-15.2031817102
 20
25.6235830352
 10
-15.1853191369
 20
25.6353037353
  0
LWPOLYLINE
  5
2EE
100
AcDbEntity
  8
0
100
AcDbPolyline
 62
250
  6
CONTINUOUS
 90
16
 70
0
 10
-13.1378494462
 20
24.048459306
 10
-13.1368932219
 20
24.0702133121
 10
-13.1340357127
 20
24.0928312484
 10
-13.1293090357
 20
24.1160680477
 10
-13.1227698797
 20
24.1396581566
 10
-13.1144877098
 20
24.1633604616
 10
-13.1045338502
 20
24.1869609867
 10
-13.0929818242
 20
24.2102530272
 10
-13.0799704722
 20
24.2329285728
 10
-13.0657062176
 20
24.2546355504
 10
-13.0503705466
 20
24.2751290743
 10
-13.0341259718
 20
24.294220862
 10
-13.0171886481
 20
24.3116876496
 10
-12.9997603281
 20
24.3273596888
 10
-12.9820205038
 20
24.3411123912
 10
-12.9641579296
 20
24.3528330919
  0
LWPOLYLINE
  5
2EF
100
AcDbEntity
  8
0
100
AcDbPolyline
 62
250
  6
CONTINUOUS
 90
13
 70
0
 10
-4.0025221722
 20
19.8630497911
 10
-3.9999413611
 20
19.8665342646
 10
-3.9975457464
 20
19.8701265665
 10
-3.995335328
 20
19.8738266967
 10
-3.9932961018
 20
19.8776640289
 10
-3.991442072
 20
19.8816091895
 10
-3.9898152506
 20
19.8855740573
 10
-3.9884206288
 20
19.8895593274
 10
-3.9872532153
 20
19.8935643049
 10
-3.9863400486
 20
19.8974987833
 10
-3.9856901415
 20
19.9013326938
 10
-3.9852944811
 20
19.9050961052
 10
-3.9851530675
 20
19.9087890175
  0
LWPOLYLINE
  5
2F0
100
AcDbEntity
  8
0
100
AcDbPolyline
 62
7
  6
CONTINUOUS
 90
8
 70
0
 10
-3.9889632586
 20
19.8199119065
 10
-3.9819338726
 20
19.8292759074
 10
-3.9662752882
 20
19.8535580882
 10
-3.9528939829
 20
19.879813007
 10
-3.9424967128
 20
19.9066867792
 10
-3.9350685229
 20
19.9338310802
 10
-3.9304690687
 20
19.9620821222
 10
-3.9290208323
 20
19.9890378701
  0
LINE
  5
2F1
100
AcDbEntity
  8
0
100
AcDbLine
 62
250
  6
CONTINUOUS
 10
-4.543389478
 20
19.1726919159
 11
-4.0025221722
 21
19.8630497911
  0
LINE
  5
2F2
100
AcDbEntity
  8
0
100
AcDbLine
 62
7
  6
CONTINUOUS
 10
-4.543389478
 20
19.1122465434
 11
-3.9889541076
 21
19.8199225669
  0
LWPOLYLINE
  5
2F3
100
AcDbEntity
  8
RACCORDO
100
AcDbPolyline
 62
250
  6
CONTINUOUS
 90
19
 70
0
 10
-20.4265207073
 20
1.2185241119
 10
-20.4418865517
 20
1.2050234849
 10
-20.4565887274
 20
1.1912810071
 10
-20.4706892991
 20
1.1773184949
 10
-20.4841902354
 20
1.1631958977
 10
-20.4970739924
 20
1.1489909499
 10
-20.5093753808
 20
1.134733679
 10
-20.5210787912
 20
1.1204993423
 10
-20.5322024956
 20
1.1063205397
 10
-20.5428300473
 20
1.092147517
 10
-20.5529003129
 20
1.078110941
 10
-20.5624838316
 20
1.0641573117
 10
-20.5718402199
 20
1.0499311775
 10
-20.5808134421
 20
1.0356833984
 10
-20.5895414881
 20
1.0211985698
 10
-20.5986443034
 20
1.0053624064
 10
-20.6082405483
 20
0.9877737476
 10
-20.6180151362
 20
0.9687925528
 10
-20.6278597306
 20
0.9484166765
  0
LINE
  5
2F4
100
AcDbEntity
  8
0
100
AcDbLine
 62
7
  6
CONTINUOUS
 10
-3.1998865938
 20
16.3310299338
 11
-3.7426126565
 21
15.9961398434
  0
LINE
  5
2F5
100
AcDbEntity
  8
0
100
AcDbLine
 62
7
  6
CONTINUOUS
 10
-2.1224383571
 20
15.9200100892
 11
-1.2199876065
 21
16.4768689436
  0
LINE
  5
2F6
100
AcDbEntity
  8
RACCORDO
100
AcDbLine
 62
7
  6
CONTINUOUS
 10
-0.1946827737
 20
18.9064105223
 11
-0.2218214897
 21
18.890548864
  0
LINE
  5
2F7
100
AcDbEntity
  8
0
100
AcDbLine
 62
250
  6
CONTINUOUS
 10
-2.9832875502
 20
17.3366373062
 11
-0.8372810215
 21
18.5757125141
  0
LINE
  5
2F8
100
AcDbEntity
  8
RACCORDO
100
AcDbLine
 62
7
  6
CONTINUOUS
 10
-0.1946827737
 20
18.9064105223
 11
6.8763850381
 21
22.9891564556
  0
LINE
  5
2F9
100
AcDbEntity
  8
0
100
AcDbLine
 62
250
  6
CONTINUOUS
 10
-2.8418877331
 20
17.0917256391
 11
-0.6958831399
 21
18.3307997294
  0
LINE
  5
2FA
100
AcDbEntity
  8
RACCORDO
100
AcDbLine
 62
7
  6
CONTINUOUS
 10
9.9497748296
 20
22.5070562018
 11
6.3833940242
 21
20.447872622
  0
LINE
  5
2FB
100
AcDbEntity
  8
RACCORDO
100
AcDbLine
 62
250
  6
CONTINUOUS
 10
10.245979815
 20
22.4521150672
 11
6.5790738699
 21
20.3348895316
  0
LINE
  5
2FC
100
AcDbEntity
  8
0
100
AcDbLine
 62
7
  6
CONTINUOUS
 10
0.7741531919
 20
16.5695097776
 11
0.778514544
 21
16.5720279675
  0
LINE
  5
2FD
100
AcDbEntity
  8
RACCORDO
100
AcDbLine
 62
7
  6
CONTINUOUS
 10
-0.2218214897
 20
18.890548864
 11
-0.7322919077
 21
18.5961214968
  0
LINE
  5
2FE
100
AcDbEntity
  8
0
100
AcDbLine
 62
7
  6
CONTINUOUS
 10
5.7918452083
 20
20.4653030295
 11
-0.5518518913
 21
16.8933934003
  0
LWPOLYLINE
  5
2FF
100
AcDbEntity
  8
0
100
AcDbPolyline
 62
250
  6
CONTINUOUS
 90
28
 70
0
 10
-0.6958831399
 20
18.3307997294
 10
-0.6942587488
 20
18.3317065235
 10
-0.6926003502
 20
18.3325233512
 10
-0.6909079443
 20
18.3332502123
 10
-0.6891718567
 20
18.3338983431
 10
-0.6874017618
 20
18.3344565075
 10
-0.6856266819
 20
18.3348909966
 10
-0.6838455526
 20
18.3351987156
 10
-0.6820594384
 20
18.3353827593
 10
-0.6803005557
 20
18.3354187045
 10
-0.6785689932
 20
18.3353023446
 10
-0.6768646623
 20
18.3350378861
 10
-0.6752195137
 20
18.3346135249
 10
-0.6736353196
 20
18.3340250965
 10
-0.6721103077
 20
18.3332767654
 10
-0.6706711123
 20
18.3323692213
 10
-0.6693198698
 20
18.3312991877
 10
-0.6680544438
 20
18.3300699411
 10
-0.6668950596
 20
18.3286920012
 10
-0.6658436666
 20
18.3271624818
 10
-0.6648983154
 20
18.325484269
 10
-0.6640733825
 20
18.3236765415
 10
-0.6633710722
 20
18.3217367556
 10
-0.6627891802
 20
18.3196674548
 10
-0.6623354702
 20
18.3174954479
 10
-0.6620125301
 20
18.315229671
 10
-0.661817772
 20
18.3128611878
 10
-0.6617511959
 20
18.3103899984
  0
LINE
  5
300
100
AcDbEntity
  8
0
100
AcDbLine
 62
7
  6
CONTINUOUS
 10
4.8238826667
 20
18.7474960306
 11
0.778515257
 21
16.5720283509
  0
LINE
  5
301
100
AcDbEntity
  8
0
100
AcDbLine
 62
250
  6
CONTINUOUS
 10
4.9453743398
 20
18.7331823345
 11
0.9013058132
 21
16.558413152
  0
LWPOLYLINE
  5
302
100
AcDbEntity
  8
RACCORDO
100
AcDbPolyline
 62
7
  6
CONTINUOUS
 90
11
 70
0
 10
9.9497940088
 20
22.5070230565
 10
9.9666899967
 20
22.5155823879
 10
9.9927701012
 20
22.5244550128
 10
10.0209199054
 20
22.5294072146
 10
10.0503961708
 20
22.5303082406
 10
10.0812342307
 20
22.5270501777
 10
10.1133987516
 20
22.519740939
 10
10.1460404945
 20
22.50857351
 10
10.1788763795
 20
22.4936122193
 10
10.2121894863
 20
22.4747927383
 10
10.245979815
 20
22.4521150672
  0
LWPOLYLINE
  5
303
100
AcDbEntity
  8
0
100
AcDbPolyline
 62
7
  6
CONTINUOUS
 90
4
 70
0
 10
0.778514544
 20
16.5720279675
 10
0.7829165012
 20
16.5742305291
 10
0.7971373066
 20
16.5793544062
 10
0.8127285115
 20
16.5820845401
  0
LWPOLYLINE
  5
304
100
AcDbEntity
  8
RACCORDO
100
AcDbPolyline
 62
250
  6
CONTINUOUS
 90
3
 70
0
 10
-21.4184259921
 20
-2.913381798
 10
-21.4258236241
 20
-2.90866407
 10
-21.4334289436
 20
-2.9038765492
  0
LINE
  5
305
100
AcDbEntity
  8
0
100
AcDbLine
 62
250
  6
CONTINUOUS
 10
11.852220297
 20
-27.9385056223
 11
11.8342231226
 21
-27.9263442787
  0
LWPOLYLINE
  5
306
100
AcDbEntity
  8
RACCORDO
100
AcDbPolyline
 62
250
  6
CONTINUOUS
 90
3
 70
0
 10
-16.1437570378
 20
-3.1277255819
 10
-16.5569354144
 20
-2.6274593881
 10
-16.9807899168
 20
-2.1448786917
  0
LINE
  5
307
100
AcDbEntity
  8
RACCORDO
100
AcDbLine
 62
250
  6
CONTINUOUS
 10
-15.7422605733
 20
-3.6444594917
 11
-16.1437570378
 21
-3.1277255819
  0
LINE
  5
308
100
AcDbEntity
  8
RACCORDO
100
AcDbLine
 62
250
  6
CONTINUOUS
 10
-15.3534233672
 20
-4.1764032533
 11
-15.7422605733
 21
-3.6444594917
  0
LWPOLYLINE
  5
309
100
AcDbEntity
  8
RACCORDO
100
AcDbPolyline
 62
250
  6
CONTINUOUS
 90
19
 70
0
 10
-20.9477953817
 20
1.5632476121
 10
-20.9227596955
 20
1.5248945974
 10
-20.895928816
 20
1.4878203543
 10
-20.8675280715
 20
1.4523362246
 10
-20.8377959832
 20
1.4187402059
 10
-20.8069822314
 20
1.3873144147
 10
-20.7753455553
 20
1.3583227247
 10
-20.7431516237
 20
1.3320085953
 10
-20.7106708076
 20
1.3085930195
 10
-20.678175877
 20
1.2882726387
 10
-20.6459397198
 20
1.2712181007
 10
-20.6142330507
 20
1.2575726269
 10
-20.5833221384
 20
1.2474508103
 10
-20.5534665786
 20
1.240937654
 10
-20.5249170829
 20
1.23808785
 10
-20.4979133785
 20
1.238925333
 10
-20.4726822358
 20
1.2434430833
 10
-20.4494355583
 20
1.2516031726
 10
-20.4283685757
 20
1.2633370842
  0
LWPOLYLINE
  5
30A
100
AcDbEntity
  8
RACCORDO
100
AcDbPolyline
 62
250
  6
CONTINUOUS
 90
8
 70
0
 10
-13.0610850598
 20
-8.2132600524
 10
-13.3368099405
 20
-7.6127708116
 10
-13.631049583
 20
-7.0178315046
 10
-13.9430877309
 20
-6.4298903688
 10
-14.2721648026
 20
-5.8503786052
 10
-14.617479739
 20
-5.2807068965
 10
-14.978191951
 20
-4.7222619771
 10
-15.3534233672
 20
-4.1764032533
  0
LINE
  5
30B
100
AcDbEntity
  8
RACCORDO
100
AcDbLine
 62
250
  6
CONTINUOUS
 10
-12.8045461294
 20
-8.817837475
 11
-13.0610850598
 21
-8.2132600524
  0
LWPOLYLINE
  5
30C
100
AcDbEntity
  8
RACCORDO
100
AcDbPolyline
 62
250
  6
CONTINUOUS
 90
3
 70
0
 10
-12.3514758354
 20
-10.0333636788
 10
-12.5678176345
 20
-9.4250313747
 10
-12.8045461294
 20
-8.817837475
  0
LWPOLYLINE
  5
30D
100
AcDbEntity
  8
0
100
AcDbPolyline
 62
250
  6
CONTINUOUS
 90
16
 70
0
 10
-12.7874081583
 20
24.0466935081
 10
-12.7886870979
 20
24.0684079757
 10
-12.7918540006
 20
24.0910218215
 10
-12.7968741832
 20
24.1142873797
 10
-12.8036926665
 20
24.1379498498
 10
-12.8122347746
 20
24.1617500779
 10
-12.8224069506
 20
24.1854273945
 10
-12.8340977852
 20
24.2087224819
 10
-12.8471792414
 20
24.2313802182
 10
-12.8615080529
 20
24.2531524611
 10
-12.8769272911
 20
24.2738007628
 10
-12.8932680846
 20
24.2930989839
 10
-12.9103514717
 20
24.310835774
 10
-12.9279903568
 20
24.3268168812
 10
-12.9459915589
 20
24.3408672803
 10
-12.9641579296
 20
24.3528330919
  0
LWPOLYLINE
  5
30E
100
AcDbEntity
  8
0
100
AcDbPolyline
 62
7
  6
CONTINUOUS
 90
16
 70
0
 10
-12.6044067836
 20
24.1523558579
 10
-12.6053559592
 20
24.1740912896
 10
-12.6082253051
 20
24.1967847275
 10
-12.6130035655
 20
24.2202004055
 10
-12.619685201
 20
24.2441794307
 10
-12.6282020696
 20
24.2683719205
 10
-12.6383598283
 20
24.292239476
 10
-12.6499072874
 20
24.3153270768
 10
-12.662767243
 20
24.3376011733
 10
-12.6769880484
 20
24.3591455157
 10
-12.6925792533
 20
24.3798764734
 10
-12.7092723931
 20
24.3993489989
 10
-12.7266983667
 20
24.4171255775
 10
-12.7445882313
 20
24.4329722437
 10
-12.7628071466
 20
24.4468047456
 10
-12.7811565549
 20
24.4584954418
  0
LINE
  5
30F
100
AcDbEntity
  8
0
100
AcDbLine
 62
250
  6
CONTINUOUS
 10
-13.1378494462
 20
22.9284237136
 11
-13.1378494462
 21
24.048459306
  0
LINE
  5
310
100
AcDbEntity
  8
0
100
AcDbLine
 62
250
  6
CONTINUOUS
 10
-12.7874081583
 20
22.9371685697
 11
-12.7874081583
 21
24.0466935081
  0
LINE
  5
311
100
AcDbEntity
  8
0
100
AcDbLine
 62
7
  6
CONTINUOUS
 10
-12.6044067836
 20
23.0500898962
 11
-12.6044067836
 21
24.1523558579
  0
LINE
  5
312
100
AcDbEntity
  8
0
100
AcDbLine
 62
7
  6
CONTINUOUS
 10
-11.9096425971
 20
23.4640659381
 11
-11.9096425971
 21
24.5535053691
  0
LINE
  5
313
100
AcDbEntity
  8
0
100
AcDbLine
 62
7
  6
CONTINUOUS
 10
-11.7199233569
 20
23.2895569828
 11
-11.7199233569
 21
22.1726545712
  0
LINE
  5
314
100
AcDbEntity
  8
0
100
AcDbLine
 62
250
  6
CONTINUOUS
 10
-11.6467000522
 20
23.1874883345
 11
-11.6467000522
 21
22.067452742
  0
LWPOLYLINE
  5
315
100
AcDbEntity
  8
0
100
AcDbPolyline
 62
250
  6
CONTINUOUS
 90
16
 70
0
 10
-11.6467000522
 20
23.1874883345
 10
-11.6457438279
 20
23.2092423411
 10
-11.6428863186
 20
23.2318602775
 10
-11.6381596415
 20
23.2550970769
 10
-11.6316204857
 20
23.2786871852
 10
-11.6233383161
 20
23.3023894892
 10
-11.6133844568
 20
23.3259900138
 10
-11.6018324309
 20
23.3492820542
 10
-11.5888210788
 20
23.3719576001
 10
-11.574556824
 20
23.3936645783
 10
-11.5592211525
 20
23.4141581028
 10
-11.542976577
 20
23.4332498913
 10
-11.5260392529
 20
23.4507166792
 10
-11.508610933
 20
23.4663887182
 10
-11.490871109
 20
23.4801414202
 10
-11.4730085357
 20
23.4918621204
  0
LWPOLYLINE
  5
316
100
AcDbEntity
  8
0
100
AcDbPolyline
 62
250
  6
CONTINUOUS
 90
11
 70
0
 10
-6.1826480329
 20
18.6256518211
 10
-6.193159799
 20
18.6027915567
 10
-6.205844554
 20
18.5817236934
 10
-6.2204876596
 20
18.5628047198
 10
-6.2368413403
 20
18.5463547632
 10
-6.2546288761
 20
18.5326521727
 10
-6.2735492846
 20
18.5219288095
 10
-6.2932824142
 20
18.5143661231
 10
-6.3134943614
 20
18.5100920816
 10
-6.3338431204
 20
18.5091790059
 10
-6.340695256
 20
18.5096351501
  0
LWPOLYLINE
  5
317
100
AcDbEntity
  8
0
100
AcDbPolyline
 62
7
  6
CONTINUOUS
 90
8
 70
0
 10
-0.6655625326
 20
17.9010189684
 10
-0.6561926643
 20
17.9136881423
 10
-0.6412562024
 20
17.9375094374
 10
-0.6284821416
 20
17.9632102686
 10
-0.6185242686
 20
17.989540789
 10
-0.6113956702
 20
18.0161936432
 10
-0.606986758
 20
18.0439456999
 10
-0.6056191596
 20
18.070137723
  0
LINE
  5
318
100
AcDbEntity
  8
0
100
AcDbLine
 62
250
  6
CONTINUOUS
 10
-0.6791203006
 20
17.9441592024
 11
-1.2199876065
 21
17.2538013273
  0
LINE
  5
319
100
AcDbEntity
  8
0
100
AcDbLine
 62
7
  6
CONTINUOUS
 10
-0.6655522787
 20
17.9010319238
 11
-1.2199876065
 21
17.1933559548
  0
LWPOLYLINE
  5
31A
100
AcDbEntity
  8
0
100
AcDbPolyline
 62
7
  6
CONTINUOUS
 90
13
 70
0
 10
-2.1224383571
 20
16.634825296
 10
-2.1410719341
 20
16.6163577869
 10
-2.1608939075
 20
16.5992285379
 10
-2.18174936
 20
16.5836235954
 10
-2.2035505845
 20
16.5696960217
 10
-2.2260475401
 20
16.5575904533
 10
-2.2488204779
 20
16.547424899
 10
-2.2715692997
 20
16.5392871035
 10
-2.2942146762
 20
16.5331703637
 10
-2.3166748359
 20
16.5290456945
 10
-2.3389024796
 20
16.5269397659
 10
-2.3606053182
 20
16.5269064913
 10
-2.3713969908
 20
16.5276840552
  0
LWPOLYLINE
  5
31B
100
AcDbEntity
  8
RACCORDO
100
AcDbPolyline
 62
250
  6
CONTINUOUS
 90
39
 70
0
 10
-13.4979568203
 20
6.6178957073
 10
-13.4895346776
 20
6.6240626201
 10
-13.4810071586
 20
6.6298231072
 10
-13.4724123196
 20
6.6351781237
 10
-13.4637865792
 20
6.6401258326
 10
-13.4551635871
 20
6.6446806932
 10
-13.4465729623
 20
6.6488712349
 10
-13.4380481543
 20
6.6527104682
 10
-13.4296101201
 20
6.6562088965
 10
-13.4212644799
 20
6.6593911653
 10
-13.4130442283
 20
6.662270698
 10
-13.4049565171
 20
6.664862846
 10
-13.396963139
 20
6.6671934603
 10
-13.3890824548
 20
6.669283081
 10
-13.3813235683
 20
6.671138927
 10
-13.3736307978
 20
6.6727659692
 10
-13.3660111471
 20
6.674189995
 10
-13.3584770854
 20
6.6754140009
 10
-13.3509800634
 20
6.6764134096
 10
-13.3435251476
 20
6.6772224153
 10
-13.3361223277
 20
6.6778427808
 10
-13.3287308732
 20
6.6782147929
 10
-13.3213608254
 20
6.678390833
 10
-13.3140131
 20
6.678369803
 10
-13.3066327342
 20
6.6780387076
 10
-13.2992245923
 20
6.6774817452
 10
-13.291786129
 20
6.6766937891
 10
-13.2842429582
 20
6.6754751285
 10
-13.2765553735
 20
6.6739304283
 10
-13.2687368549
 20
6.6720800232
 10
-13.2607583461
 20
6.6696535561
 10
-13.2524565689
 20
6.6666127165
 10
-13.2438786252
 20
6.6631439858
 10
-13.2352719958
 20
6.6592882508
 10
-13.2265630982
 20
6.6548956012
 10
-13.2176612948
 20
6.6500896455
 10
-13.2088379399
 20
6.645237217
 10
-13.2001956604
 20
6.6403208783
 10
-13.1744810353
 20
6.6251076945
  0
LWPOLYLINE
  5
31C
100
AcDbEntity
  8
RACCORDO
100
AcDbPolyline
 62
250
  6
CONTINUOUS
 90
4
 70
0
 10
-20.3765634515
 20
1.2566922574
 10
-20.3938204146
 20
1.2444662508
 10
-20.4104826255
 20
1.2317099065
 10
-20.4265207073
 20
1.2185241119
  0
LWPOLYLINE
  5
31D
100
AcDbEntity
  8
RACCORDO
100
AcDbPolyline
 62
250
  6
CONTINUOUS
 90
25
 70
0
 10
-20.4283688382
 20
1.2633369064
 10
-20.4426008899
 20
1.2533162963
 10
-20.4563955604
 20
1.2428982909
 10
-20.4697350201
 20
1.2321499492
 10
-20.4825904001
 20
1.22114815
 10
-20.4949661639
 20
1.2099418343
 10
-20.5068980774
 20
1.1985464596
 10
-20.5183864559
 20
1.1870050272
 10
-20.5294206207
 20
1.1753710004
 10
-20.5400208712
 20
1.1636644687
 10
-20.5501842227
 20
1.1519280989
 10
-20.5599141883
 20
1.1401968515
 10
-20.5692408631
 20
1.1284712812
 10
-20.5781431784
 20
1.1168139786
 10
-20.5866497327
 20
1.1052233217
 10
-20.5948593147
 20
1.0935912049
 10
-20.6027440416
 20
1.0819781017
 10
-20.6103333036
 20
1.070361685
 10
-20.6177940573
 20
1.0584902521
 10
-20.625118687
 20
1.0463638021
 10
-20.6322909953
 20
1.0339963176
 10
-20.6394388071
 20
1.0211385988
 10
-20.6465801994
 20
1.0077055875
 10
-20.6536382417
 20
0.9937859365
 10
-20.6605826186
 20
0.9793856775
  0
LINE
  5
31E
100
AcDbEntity
  8
RACCORDO
100
AcDbLine
 62
250
  6
CONTINUOUS
 10
-21.00443935
 20
1.6192199441
 11
-13.5540653688
 21
6.6741418092
  0
LINE
  5
31F
100
AcDbEntity
  8
RACCORDO
100
AcDbLine
 62
250
  6
CONTINUOUS
 10
-20.9477953817
 20
1.5632476121
 11
-13.4979600058
 21
6.6178713592
  0
LINE
  5
320
100
AcDbEntity
  8
RACCORDO
100
AcDbLine
 62
7
  6
CONTINUOUS
 10
-12.9780679778
 20
6.3176763617
 11
-20.4283685757
 21
1.2633370842
  0
LINE
  5
321
100
AcDbEntity
  8
RACCORDO
100
AcDbLine
 62
250
  6
CONTINUOUS
 10
-12.9259284315
 20
6.3114438769
 11
-20.3765637703
 21
1.2566924535
  0
LWPOLYLINE
  5
322
100
AcDbEntity
  8
0
100
AcDbPolyline
 62
250
  6
CONTINUOUS
 90
10
 70
0
 10
5.3140056992
 20
18.3163041774
 10
5.3379395137
 20
18.3318524607
 10
5.3592120363
 20
18.3486376211
 10
5.3776334709
 20
18.3665102706
 10
5.3930399931
 20
18.3853110889
 10
5.4052920629
 20
18.4048729166
 10
5.4142778177
 20
18.4250217862
 10
5.4199174333
 20
18.4455767656
 10
5.4221617034
 20
18.4663555369
 10
5.4222039613
 20
18.4696314145
  0
LWPOLYLINE
  5
323
100
AcDbEntity
  8
RACCORDO
100
AcDbPolyline
 62
250
  6
CONTINUOUS
 90
55
 70
0
 10
-13.5540653688
 20
6.6741418092
 10
-13.5432618372
 20
6.681096568
 10
-13.5324244785
 20
6.6876067021
 10
-13.5215531982
 20
6.6936720683
 10
-13.5106135222
 20
6.699275438
 10
-13.499639747
 20
6.704433599
 10
-13.4887349672
 20
6.70919744
 10
-13.4779119532
 20
6.7135653114
 10
-13.4671578433
 20
6.7175383764
 10
-13.4565373335
 20
6.721171866
 10
-13.4460710276
 20
6.724464556
 10
-13.4357382889
 20
6.7274172489
 10
-13.4255419798
 20
6.7300883399
 10
-13.4154941088
 20
6.7324818765
 10
-13.4055826624
 20
6.7345934527
 10
-13.3957744773
 20
6.7364688556
 10
-13.386071113
 20
6.7381141546
 10
-13.3764710121
 20
6.7395229307
 10
-13.3669363331
 20
6.7407222534
 10
-13.3574651593
 20
6.7417172331
 10
-13.3480594098
 20
6.7425023763
 10
-13.338686991
 20
6.7430888223
 10
-13.3293517974
 20
6.743480737
 10
-13.3200499372
 20
6.7436735112
 10
-13.3107376285
 20
6.743665051
 10
-13.3014261362
 20
6.7434614418
 10
-13.2921041947
 20
6.7430560274
 10
-13.2826942124
 20
6.7424274273
 10
-13.2732036526
 20
6.7415835061
 10
-13.2636250392
 20
6.740515525
 10
-13.2538583504
 20
6.7391768604
 10
-13.2438566628
 20
6.7375588228
 10
-13.2336668691
 20
6.7356686192
 10
-13.22332967
 20
6.7334832382
 10
-13.2127809374
 20
6.7309672508
 10
-13.202084799
 20
6.7281543701
 10
-13.1914743791
 20
6.7251258079
 10
-13.1809817305
 20
6.7218725448
 10
-13.1705748797
 20
6.7184029927
 10
-13.1603909497
 20
6.7148255112
 10
-13.1505030353
 20
6.7111699673
 10
-13.1408381405
 20
6.7074069039
 10
-13.1313142462
 20
6.7035560693
 10
-13.1219315616
 20
6.699627545
 10
-13.1126899426
 20
6.6956113724
 10
-13.1035068188
 20
6.6914969987
 10
-13.0943921794
 20
6.687296761
 10
-13.0853360841
 20
6.6829981527
 10
-13.0762260539
 20
6.6785529195
 10
-13.0670602055
 20
6.6739673237
 10
-13.0578404629
 20
6.6692343306
 10
-13.0484600519
 20
6.6642851167
 10
-13.0388833974
 20
6.6590960851
 10
-13.0291461243
 20
6.6536892337
 10
-13.019248261
 20
6.6480637699
  0
LWPOLYLINE
  5
324
100
AcDbEntity
  8
0
100
AcDbPolyline
 62
250
  6
CONTINUOUS
 90
34
 70
0
 10
5.1372118881
 20
18.6224177384
 10
5.1457417525
 20
18.6278701554
 10
5.1532130283
 20
18.6336496652
 10
5.1596257154
 20
18.6397562677
 10
5.1650174796
 20
18.6462497098
 10
5.1693506551
 20
18.6530702447
 10
5.1725122448
 20
18.6600386319
 10
5.174471311
 20
18.6671585986
 10
5.1752587915
 20
18.6744264178
 10
5.1748545017
 20
18.6816516673
 10
5.1732268899
 20
18.6888331796
 10
5.1704075079
 20
18.6959721223
 10
5.1664708263
 20
18.7028815766
 10
5.1613874361
 20
18.7095554475
 10
5.1551867463
 20
18.7159998299
 10
5.1480314551
 20
18.72204609
 10
5.1398964071
 20
18.7276836998
 10
5.1308067577
 20
18.7329231872
 10
5.1210006707
 20
18.7376275023
 10
5.1104592731
 20
18.7417825043
 10
5.099201438
 20
18.7454023339
 10
5.0875219482
 20
18.7483923637
 10
5.0754097189
 20
18.7507360358
 10
5.0628758349
 20
18.752449908
 10
5.0502483341
 20
18.7534890264
 10
5.0375247728
 20
18.7538354464
 10
5.0247075946
 20
18.7535071126
 10
5.012132168
 20
18.7525129042
 10
4.9998011265
 20
18.7508335479
 10
4.9877118364
 20
18.748488317
 10
4.976191766
 20
18.7455439104
 10
4.965350071
 20
18.7420225608
 10
4.9550775957
 20
18.7379020356
 10
4.9453743398
 20
18.7331823345
  0
LINE
  5
325
100
AcDbEntity
  8
0
100
AcDbLine
 62
7
  6
CONTINUOUS
 10
0.7741539051
 20
16.5695101611
 11
0.5961772239
 21
16.4594467117
  0
LINE
  5
326
100
AcDbEntity
  8
0
100
AcDbLine
 62
250
  6
CONTINUOUS
 10
0.9013058132
 20
16.558413152
 11
0.7245834398
 21
16.4491253854
  0
LINE
  5
327
100
AcDbEntity
  8
0
100
AcDbLine
 62
250
  6
CONTINUOUS
 10
1.9266644938
 20
16.7686815456
 11
5.1372118881
 21
18.6224177384
  0
LINE
  5
328
100
AcDbEntity
  8
0
100
AcDbLine
 62
250
  6
CONTINUOUS
 10
2.2801466523
 20
16.5645853774
 11
5.3140057029
 21
18.3163035847
  0
LINE
  5
329
100
AcDbEntity
  8
0
100
AcDbLine
 62
7
  6
CONTINUOUS
 10
3.2346738392
 20
16.0134533427
 11
5.3139616595
 21
17.2140121927
  0
LINE
  5
32A
100
AcDbEntity
  8
0
100
AcDbLine
 62
250
  6
CONTINUOUS
 10
2.9457446471
 20
15.1666547421
 11
3.8235102082
 21
15.6734666031
  0
LINE
  5
32B
100
AcDbEntity
  8
0
100
AcDbLine
 62
7
  6
CONTINUOUS
 10
7.7441962055
 20
17.6924680106
 11
3.9647604836
 21
15.5102691922
  0
LINE
  5
32C
100
AcDbEntity
  8
0
100
AcDbLine
 62
250
  6
CONTINUOUS
 10
3.1224944184
 20
14.8605151582
 11
4.0002599795
 21
15.3673270192
  0
LINE
  5
32D
100
AcDbEntity
  8
0
100
AcDbLine
 62
250
  6
CONTINUOUS
 10
8.621137367
 20
18.8317051964
 11
3.3961921993
 21
15.9201946659
  0
LINE
  5
32E
100
AcDbEntity
  8
0
100
AcDbLine
 62
250
  6
CONTINUOUS
 10
8.7948288835
 20
18.5237687234
 11
3.7528957636
 21
15.7142384984
  0
LWPOLYLINE
  5
32F
100
AcDbEntity
  8
RACCORDO
100
AcDbPolyline
 62
250
  6
CONTINUOUS
 90
10
 70
0
 10
-21.8655357719
 20
-2.5084535205
 10
-21.8586288192
 20
-2.5120852625
 10
-21.8511650511
 20
-2.5153290139
 10
-21.8432096036
 20
-2.5181564668
 10
-21.8348319035
 20
-2.5205429462
 10
-21.8261050623
 20
-2.5224676255
 10
-21.8171052388
 20
-2.523913708
 10
-21.807910974
 20
-2.5248685737
 10
-21.7986025055
 20
-2.5253238899
 10
-21.789261068
 20
-2.5252756829
  0
LWPOLYLINE
  5
330
100
AcDbEntity
  8
RACCORDO
100
AcDbPolyline
 62
250
  6
CONTINUOUS
 90
10
 70
0
 10
-21.8655353316
 20
-1.1430996617
 10
-21.8586283426
 20
-1.146731372
 10
-21.8511645429
 20
-1.14997509
 10
-21.8432090685
 20
-1.1528025079
 10
-21.8348313463
 20
-1.1551889511
 10
-21.8261044882
 20
-1.1571135933
 10
-21.817104653
 20
-1.1585596381
 10
-21.8079103815
 20
-1.1595144661
 10
-21.7986019117
 20
-1.1599697445
 10
-21.7892604779
 20
-1.1599215001
  0
LWPOLYLINE
  5
331
100
AcDbEntity
  8
RACCORDO
100
AcDbPolyline
 62
250
  6
CONTINUOUS
 90
10
 70
0
 10
-21.8655281225
 20
-1.1354453556
 10
-21.8586211358
 20
-1.1390933153
 10
-21.8511571943
 20
-1.1423546583
 10
-21.8432014467
 20
-1.1452009187
 10
-21.8348233335
 20
-1.1476072539
 10
-21.8260959828
 20
-1.1495526605
 10
-21.8170955725
 20
-1.1510201583
 10
-21.8079006627
 20
-1.1519969393
 10
-21.7985915092
 20
-1.1524744786
 10
-21.7425434245
 20
-1.15220796
  0
LWPOLYLINE
  5
332
100
AcDbEntity
  8
RACCORDO
100
AcDbPolyline
 62
250
  6
CONTINUOUS
 90
16
 70
0
 10
-21.407888802
 20
-2.5821140025
 10
-21.4285971825
 20
-2.5709007668
 10
-21.4503556447
 20
-2.5606037666
 10
-21.4730895109
 20
-2.5512543419
 10
-21.4967187143
 20
-2.5428670678
 10
-21.5211660828
 20
-2.5354819186
 10
-21.5463585417
 20
-2.529165117
 10
-21.5722325909
 20
-2.5239278755
 10
-21.5986849845
 20
-2.5198000917
 10
-21.6255781285
 20
-2.5168677479
 10
-21.6528715561
 20
-2.5151303126
 10
-21.680427796
 20
-2.5146040577
 10
-21.7079542654
 20
-2.515371309
 10
-21.7352915554
 20
-2.5174361093
 10
-21.7624208584
 20
-2.5207461317
 10
-21.789261068
 20
-2.5252756244
  0
LWPOLYLINE
  5
333
100
AcDbEntity
  8
RACCORDO
100
AcDbPolyline
 62
250
  6
CONTINUOUS
 90
25
 70
0
 10
-21.6250419578
 20
-2.7943033598
 10
-21.6495825993
 20
-2.781028429
 10
-21.6611239589
 20
-2.7746936066
 10
-21.6720767413
 20
-2.7681654372
 10
-21.6825925579
 20
-2.7613501827
 10
-21.6928281154
 20
-2.7541964675
 10
-21.7027640534
 20
-2.7463016232
 10
-21.712406203
 20
-2.7372726022
 10
-21.7218074065
 20
-2.7271750317
 10
-21.7309469808
 20
-2.7162793408
 10
-21.7396125839
 20
-2.704259703
 10
-21.7476002212
 20
-2.6911276392
 10
-21.7549615091
 20
-2.6778020176
 10
-21.7615564443
 20
-2.6644945703
 10
-21.7672228842
 20
-2.6509323093
 10
-21.7722255776
 20
-2.637456876
 10
-21.7765927016
 20
-2.6242398029
 10
-21.7802074709
 20
-2.6111500282
 10
-21.7832421131
 20
-2.5981237497
 10
-21.7857378903
 20
-2.5850697659
 10
-21.787601511
 20
-2.5721436119
 10
-21.7888581021
 20
-2.5596547479
 10
-21.7895442739
 20
-2.5477159109
 10
-21.7896709209
 20
-2.5362515106
 10
-21.7892616174
 20
-2.5252752053
  0
LWPOLYLINE
  5
334
100
AcDbEntity
  8
RACCORDO
100
AcDbPolyline
 62
250
  6
CONTINUOUS
 90
4
 70
0
 10
-21.5703317341
 20
-2.8237223237
 10
-21.5983443548
 20
-2.8085006983
 10
-21.6118527417
 20
-2.8012563446
 10
-21.6250419578
 20
-2.7943033598
  0
LINE
  5
335
100
AcDbEntity
  8
RACCORDO
100
AcDbLine
 62
250
  6
CONTINUOUS
 10
-21.556121416
 20
-2.8315802077
 11
-21.5703317341
 21
-2.8237223237
  0
LWPOLYLINE
  5
336
100
AcDbEntity
  8
RACCORDO
100
AcDbPolyline
 62
250
  6
CONTINUOUS
 90
3
 70
0
 10
-21.5139535825
 20
-2.8554811326
 10
-21.5279697422
 20
-2.8474982223
 10
-21.556121416
 20
-2.8315802077
  0
LWPOLYLINE
  5
337
100
AcDbEntity
  8
RACCORDO
100
AcDbPolyline
 62
250
  6
CONTINUOUS
 90
34
 70
0
 10
-21.549309046
 20
-2.9466031937
 10
-21.5642756794
 20
-2.9378160169
 10
-21.5790745733
 20
-2.928833942
 10
-21.5937057275
 20
-2.9196569691
 10
-21.608255812
 20
-2.9102301767
 10
-21.6226381568
 20
-2.9006084863
 10
-21.6365927528
 20
-2.8909566617
 10
-21.6500473404
 20
-2.8813276384
 10
-21.663074179
 20
-2.871668481
 10
-21.6756300378
 20
-2.8619851477
 10
-21.687594613
 20
-2.8524096119
 10
-21.6990882082
 20
-2.8428099001
 10
-21.7104285036
 20
-2.8327960504
 10
-21.7216317201
 20
-2.8224371416
 10
-21.7326816368
 20
-2.8116640948
 10
-21.7438472703
 20
-2.799879711
 10
-21.7553362111
 20
-2.7868842663
 10
-21.7669408687
 20
-2.7728774845
 10
-21.7783074879
 20
-2.7578613386
 10
-21.7895173108
 20
-2.7415571277
 10
-21.8004890953
 20
-2.7242435526
 10
-21.8106253596
 20
-2.7067586886
 10
-21.8197379928
 20
-2.6892671212
 10
-21.8280151058
 20
-2.6716042648
 10
-21.8354235501
 20
-2.6541144384
 10
-21.8419193224
 20
-2.6369271982
 10
-21.847546426
 20
-2.619912988
 10
-21.8524037219
 20
-2.603027458
 10
-21.8565257745
 20
-2.586103023
 10
-21.8598780193
 20
-2.5693072683
 10
-21.8624556247
 20
-2.5530986
 10
-21.8642569799
 20
-2.5376298204
 10
-21.8652836957
 20
-2.5227481272
 10
-21.8655357719
 20
-2.5084535205
  0
LWPOLYLINE
  5
338
100
AcDbEntity
  8
RACCORDO
100
AcDbPolyline
 62
250
  6
CONTINUOUS
 90
3
 70
0
 10
-21.4838488471
 20
-2.8731072956
 10
-21.4934817657
 20
-2.8674146885
 10
-21.5139535829
 20
-2.8554811332
  0
LWPOLYLINE
  5
339
100
AcDbEntity
  8
RACCORDO
100
AcDbPolyline
 62
250
  6
CONTINUOUS
 90
5
 70
0
 10
-21.4334289436
 20
-2.9038765492
 10
-21.4491673031
 20
-2.8940922897
 10
-21.4574028859
 20
-2.8890338079
 10
-21.4659053255
 20
-2.8838770256
 10
-21.4838488471
 20
-2.8731072956
  0
LWPOLYLINE
  5
33A
100
AcDbEntity
  8
RACCORDO
100
AcDbPolyline
 62
250
  6
CONTINUOUS
 90
10
 70
0
 10
-21.2330725958
 20
-1.5006172502
 10
-21.239363616
 20
-1.4966448471
 10
-21.2449825939
 20
-1.492352279
 10
-21.2498804851
 20
-1.4877770129
 10
-21.2540145389
 20
-1.4829589835
 10
-21.2573486717
 20
-1.4779402443
 10
-21.2598537819
 20
-1.4727646006
 10
-21.261508004
 20
-1.4674772273
 10
-21.2622968994
 20
-1.4621242746
 10
-21.2623683769
 20
-1.4599465618
  0
LWPOLYLINE
  5
33B
100
AcDbEntity
  8
RACCORDO
100
AcDbPolyline
 62
250
  6
CONTINUOUS
 90
10
 70
0
 10
-21.2330801225
 20
-2.8735967215
 10
-21.2393715989
 20
-2.8696070987
 10
-21.2449907138
 20
-2.8652958315
 10
-21.2498884049
 20
-2.860700561
 10
-21.2540221064
 20
-2.8558610713
 10
-21.2573554443
 20
-2.8508199301
 10
-21.2598589824
 20
-2.8456222143
 10
-21.2615112014
 20
-2.8403137183
 10
-21.2622982478
 20
-2.8349404609
 10
-21.262369109
 20
-2.832795982
  0
LWPOLYLINE
  5
33C
100
AcDbEntity
  8
RACCORDO
100
AcDbPolyline
 62
250
  6
CONTINUOUS
 90
10
 70
0
 10
-21.2330797996
 20
-1.5082715594
 10
-21.2393697012
 20
-1.5042835504
 10
-21.2449876236
 20
-1.4999740459
 10
-21.2498845397
 20
-1.4953806546
 10
-21.2540177143
 20
-1.4905434627
 10
-21.2573510775
 20
-1.4855046843
 10
-21.2598555392
 20
-1.4803082922
 10
-21.2615092431
 20
-1.4749996352
 10
-21.2622977576
 20
-1.4696250415
 10
-21.2623691214
 20
-1.4674441004
  0
LWPOLYLINE
  5
33D
100
AcDbEntity
  8
RACCORDO
100
AcDbPolyline
 62
250
  6
CONTINUOUS
 90
10
 70
0
 10
-20.6278755081
 20
0.9484264474
 10
-20.6341396951
 20
0.952816252
 10
-20.639848306
 20
0.9570413395
 10
-20.6449481328
 20
0.9610688974
 10
-20.6493888004
 20
0.9648728815
 10
-20.6531310329
 20
0.9684195166
 10
-20.6561466799
 20
0.9716674736
 10
-20.6584087021
 20
0.9745878451
 10
-20.6598917824
 20
0.9771644456
 10
-20.6605801341
 20
0.9793791674
  0
LWPOLYLINE
  5
33E
100
AcDbEntity
  8
RACCORDO
100
AcDbPolyline
 62
250
  6
CONTINUOUS
 90
9
 70
0
 10
-16.9807899168
 20
-2.1448786917
 10
-17.4142887716
 20
-1.681158221
 10
-17.8563767335
 20
-1.2374267893
 10
-18.3059783985
 20
-0.814763871
 10
-18.7619985839
 20
-0.4141991004
 10
-19.2233248999
 20
-0.0367093861
 10
-19.6888335161
 20
0.3167861517
 10
-20.1573919924
 20
0.6454280395
 10
-20.6278597306
 20
0.9484166765
  0
LWPOLYLINE
  5
33F
100
AcDbEntity
  8
0
100
AcDbPolyline
 62
7
  6
CONTINUOUS
 90
22
 70
0
 10
-10.4877060339
 20
27.6558945717
 10
-10.4886897981
 20
27.6798507505
 10
-10.4932486178
 20
27.7126633767
 10
-10.5016033735
 20
27.7452332446
 10
-10.5138239211
 20
27.7772212449
 10
-10.5297921749
 20
27.8080043023
 10
-10.5495737963
 20
27.8374394029
 10
-10.5733480041
 20
27.8653672788
 10
-10.6007304276
 20
27.8910390316
 10
-10.6309566093
 20
27.9137530449
 10
-10.6638629389
 20
27.9334780911
 10
-10.6992470719
 20
27.950148482
 10
-10.7363375357
 20
27.9634949146
 10
-10.7753792941
 20
27.9736533174
 10
-10.8161659637
 20
27.9805022649
 10
-10.8572370028
 20
27.9838025972
 10
-10.8986500423
 20
27.9836203984
 10
-10.9404147578
 20
27.9798339411
 10
-10.9810016095
 20
27.9725229141
 10
-11.0199912455
 20
27.9617857325
 10
-11.0578783572
 20
27.9473700729
 10
-11.0860854169
 20
27.9336302303
  0
LWPOLYLINE
  5
340
100
AcDbEntity
  8
0
100
AcDbPolyline
 62
250
  6
CONTINUOUS
 90
16
 70
0
 10
-8.5454886204
 20
19.8444071456
 10
-8.5453426917
 20
19.83618946
 10
-8.5448881115
 20
19.8279181888
 10
-8.544098771
 20
19.8196253261
 10
-8.5429465382
 20
19.8113335843
 10
-8.5414064609
 20
19.8030932004
 10
-8.539462107
 20
19.7949778265
 10
-8.5370932231
 20
19.787025975
 10
-8.5342805294
 20
19.7792785391
 10
-8.5310199077
 20
19.7718073417
 10
-8.5272993688
 20
19.7646514274
 10
-8.5231085149
 20
19.757851135
 10
-8.518457561
 20
19.7514713858
 10
-8.5133444138
 20
19.7455477784
 10
-8.5077687817
 20
19.7401158601
 10
-8.5017557242
 20
19.7352282345
  0
LINE
  5
341
100
AcDbEntity
  8
0
100
AcDbLine
 62
250
  6
CONTINUOUS
 10
-10.5958968738
 20
27.5024819346
 11
-10.5959409172
 21
26.4001905426
  0
LINE
  5
342
100
AcDbEntity
  8
0
100
AcDbLine
 62
7
  6
CONTINUOUS
 10
-10.4876986417
 20
27.655891592
 11
-10.4876986154
 21
26.5510872846
  0
LINE
  5
343
100
AcDbEntity
  8
0
100
AcDbLine
 62
250
  6
CONTINUOUS
 10
-9.425538845
 20
20.7849820986
 11
-9.425538845
 21
21.9050176911
  0
LINE
  5
344
100
AcDbEntity
  8
0
100
AcDbLine
 62
250
  6
CONTINUOUS
 10
-9.075097557
 20
20.7937269547
 11
-9.075097557
 21
21.9032518931
  0
LINE
  5
345
100
AcDbEntity
  8
0
100
AcDbLine
 62
7
  6
CONTINUOUS
 10
-8.8920961823
 20
22.008914243
 11
-8.8920961823
 21
20.9066482812
  0
LINE
  5
346
100
AcDbEntity
  8
0
100
AcDbLine
 62
7
  6
CONTINUOUS
 10
-8.6040672641
 20
20.2251763214
 11
-8.6040672641
 21
19.9260620643
  0
LINE
  5
347
100
AcDbEntity
  8
0
100
AcDbLine
 62
250
  6
CONTINUOUS
 10
-8.5454886204
 20
20.1435214027
 11
-8.5454886204
 21
19.8444071456
  0
LWPOLYLINE
  5
348
100
AcDbEntity
  8
0
100
AcDbPolyline
 62
250
  6
CONTINUOUS
 90
16
 70
0
 10
-9.425538845
 20
21.9050176911
 10
-9.4245826207
 20
21.9267716972
 10
-9.4217251115
 20
21.9493896334
 10
-9.4169984345
 20
21.9726264328
 10
-9.4104592785
 20
21.9962165417
 10
-9.4021771086
 20
22.0199188466
 10
-9.392223249
 20
22.0435193718
 10
-9.3806712229
 20
22.0668114122
 10
-9.367659871
 20
22.0894869578
 10
-9.3533956164
 20
22.1111939354
 10
-9.3380599454
 20
22.1316874593
 10
-9.3218153706
 20
22.1507792471
 10
-9.3048780469
 20
22.1682460347
 10
-9.2874497269
 20
22.1839180738
 10
-9.2697099025
 20
22.1976707763
 10
-9.2518473284
 20
22.209391477
  0
LWPOLYLINE
  5
349
100
AcDbEntity
  8
0
100
AcDbPolyline
 62
250
  6
CONTINUOUS
 90
6
 70
0
 10
-0.6655522787
 20
17.9010319238
 10
-0.6636324055
 20
17.9050951976
 10
-0.6635114731
 20
17.9121725688
 10
-0.6660890419
 20
17.9211485408
 10
-0.6713214972
 20
17.9318712314
 10
-0.6791203006
 20
17.9441592024
  0
LWPOLYLINE
  5
34A
100
AcDbEntity
  8
0
100
AcDbPolyline
 62
250
  6
CONTINUOUS
 90
9
 70
0
 10
9.3159034332
 20
18.2123711945
 10
9.3334132282
 20
18.2235994161
 10
9.3487943798
 20
18.2358229045
 10
9.3618783688
 20
18.2489077364
 10
9.3725218443
 20
18.2627105518
 10
9.3806081943
 20
18.2770801241
 10
9.3860488229
 20
18.2918590174
 10
9.3887841216
 20
18.3068853109
 10
9.3891267379
 20
18.3144398428
  0
LINE
  5
34B
100
AcDbEntity
  8
0
100
AcDbLine
 62
7
  6
CONTINUOUS
 10
4.4864645064
 20
14.4260685462
 11
4.3084878251
 21
14.3160050967
  0
LINE
  5
34C
100
AcDbEntity
  8
0
100
AcDbLine
 62
250
  6
CONTINUOUS
 10
4.6136164144
 20
14.414971537
 11
4.436894041
 21
14.3056837705
  0
LINE
  5
34D
100
AcDbEntity
  8
0
100
AcDbLine
 62
7
  6
CONTINUOUS
 10
3.1224944184
 20
13.7509902198
 11
3.3054957931
 21
13.8639115463
  0
LINE
  5
34E
100
AcDbEntity
  8
0
100
AcDbLine
 62
7
  6
CONTINUOUS
 10
3.3054957931
 20
13.8639115463
 11
4.0002599795
 21
14.2778875882
  0
LINE
  5
34F
100
AcDbEntity
  8
0
100
AcDbLine
 62
7
  6
CONTINUOUS
 10
4.4864637931
 20
14.4260681626
 11
4.4908251453
 21
14.4285863525
  0
LINE
  5
350
100
AcDbEntity
  8
0
100
AcDbLine
 62
7
  6
CONTINUOUS
 10
5.2102752342
 20
14.815483328
 11
4.4908258582
 21
14.4285867359
  0
LINE
  5
351
100
AcDbEntity
  8
0
100
AcDbLine
 62
250
  6
CONTINUOUS
 10
5.3330657904
 20
14.8018681291
 11
4.6136164144
 21
14.414971537
  0
LINE
  5
352
100
AcDbEntity
  8
0
100
AcDbLine
 62
7
  6
CONTINUOUS
 10
10.4330389809
 20
15.5088394724
 11
7.1584882688
 21
13.747892068
  0
LINE
  5
353
100
AcDbEntity
  8
0
100
AcDbLine
 62
250
  6
CONTINUOUS
 10
10.5545306555
 20
15.4945257771
 11
7.2299115048
 21
13.7066531867
  0
LWPOLYLINE
  5
354
100
AcDbEntity
  8
0
100
AcDbPolyline
 62
7
  6
CONTINUOUS
 90
4
 70
0
 10
4.4908251453
 20
14.4285863525
 10
4.4952271025
 20
14.4307889141
 10
4.5094479078
 20
14.4359127912
 10
4.5250391127
 20
14.4386429251
  0
LWPOLYLINE
  5
355
100
AcDbEntity
  8
RACCORDO
100
AcDbPolyline
 62
250
  6
CONTINUOUS
 90
62
 70
0
 10
-21.8655353316
 20
-1.1430996617
 10
-22.2620083326
 20
-0.9445914486
 10
-22.6554828416
 20
-0.7712168493
 10
-23.0459588588
 20
-0.6229758639
 10
-23.4347896286
 20
-0.4994310986
 10
-23.8206219064
 20
-0.4010199472
 10
-24.1993959592
 20
-0.3290545903
 10
-24.5707497269
 20
-0.2839269755
 10
-24.9350452695
 20
-0.2652451552
 10
-25.2893090334
 20
-0.2731454672
 10
-25.6333995359
 20
-0.3078284088
 10
-25.9674582597
 20
-0.3690934826
 10
-26.2889361
 20
-0.4564755351
 10
-26.5978002042
 20
-0.5702002295
 10
-26.8940834249
 20
-0.7100419026
 10
-27.1753352154
 20
-0.8748584099
 10
-27.4413957818
 20
-1.0648350846
 10
-27.692424918
 20
-1.2797865935
 10
-27.9264514592
 20
-1.5180147933
 10
-28.1433526564
 20
-1.7797137484
 10
-28.3432512587
 20
-2.0646893943
 10
-28.5245443483
 20
-2.3706613939
 10
-28.6870802436
 20
-2.6977956255
 10
-28.8310106263
 20
-3.0459262109
 10
-28.9551876239
 20
-3.4122751779
 10
-29.0594533394
 20
-3.7969880182
 10
-29.1439656697
 20
-4.1999192402
 10
-29.2080504334
 20
-4.6178543962
 10
-29.2515442971
 20
-5.0509141859
 10
-29.2746105941
 20
-5.4989779097
 10
-29.2770651426
 20
-5.9584690206
 10
-29.2587429826
 20
-6.4294785337
 10
-29.2198090741
 20
-6.911915434
 10
-29.1605741152
 20
-7.4019301297
 10
-29.0808756643
 20
-7.8995834469
 10
-28.980876163
 20
-8.4048145595
 10
-28.8613736347
 20
-8.9135913969
 10
-28.7222120201
 20
-9.4259422977
 10
-28.5635473785
 20
-9.9418389233
 10
-28.3866459104
 20
-10.4571641883
 10
-28.191361674
 20
-10.9719135462
 10
-27.9778406111
 20
-11.4860915436
 10
-27.7477867482
 20
-11.9955947344
 10
-27.5010677981
 20
-12.5003856882
 10
-27.2378160481
 20
-13.0005018355
 10
-26.9601323864
 20
-13.4919520216
 10
-26.6679013461
 20
-13.9746668837
 10
-26.3612383943
 20
-14.4487157846
 10
-26.0425908199
 20
-14.9103156581
 10
-25.7118627348
 20
-15.3593668885
 10
-25.3691500272
 20
-15.7959690914
 10
-25.0171876504
 20
-16.2166380476
 10
-24.6559015912
 20
-16.6212462745
 10
-24.2853658628
 20
-17.0099212546
 10
-23.9085374581
 20
-17.3795612162
 10
-23.5253660134
 20
-17.7300138619
 10
-23.1359018923
 20
-18.0614314892
 10
-22.7432531787
 20
-18.3711692186
 10
-22.3473943694
 20
-18.659053583
 10
-21.9483509675
 20
-18.9252580495
 10
-21.5493075656
 20
-19.1676581408
 10
-21.1502641637
 20
-19.3860633677
  0
LWPOLYLINE
  5
356
100
AcDbEntity
  8
RACCORDO
100
AcDbPolyline
 62
250
  6
CONTINUOUS
 90
33
 70
0
 10
-21.2575355629
 20
1.3119842187
 10
-21.7280104226
 20
1.5522842799
 10
-22.1965742247
 20
1.7647247468
 10
-22.6620863601
 20
1.948788385
 10
-23.1234138281
 20
2.1040270906
 10
-23.5794334299
 20
2.2300627864
 10
-24.0290345261
 20
2.326588462
 10
-24.4711224881
 20
2.3933691279
 10
-24.9046213432
 20
2.4302422694
 10
-25.3284758458
 20
2.4371181286
 10
-25.7416542227
 20
2.413979968
 10
-26.1431506877
 20
2.3608841121
 10
-26.531987894
 20
2.2779598101
 10
-26.9072193104
 20
2.1654089207
 10
-27.2679315225
 20
2.0235054227
 10
-27.6132464592
 20
1.8525947476
 10
-27.9423235312
 20
1.6530929383
 10
-28.2543616796
 20
1.4254856347
 10
-28.5486013225
 20
1.1703268919
 10
-28.8243262035
 20
0.8882378326
 10
-29.0808651342
 20
0.579905137
 10
-29.3175936295
 20
0.2460793699
 10
-29.533935429
 20
-0.1124268469
 10
-29.7293639005
 20
-0.4947408152
 10
-29.9034033204
 20
-0.8999318836
 10
-30.0556300309
 20
-1.3270137114
 10
-30.1856734711
 20
-1.7749466672
 10
-30.2932170803
 20
-2.2426403612
 10
-30.3779990687
 20
-2.7289563015
 10
-30.4398130551
 20
-3.2327106676
 10
-30.4785085683
 20
-3.7526771907
 10
-30.4939914129
 20
-4.2875901368
 10
-30.4862238992
 20
-4.8361473844
  0
LWPOLYLINE
  5
357
100
AcDbEntity
  8
RACCORDO
100
AcDbPolyline
 62
250
  6
CONTINUOUS
 90
10
 70
0
 10
-20.37656345
 20
1.2566922239
 10
-20.3832360207
 20
1.2605002992
 10
-20.3898121984
 20
1.2635814091
 10
-20.3962321375
 20
1.2659077663
 10
-20.4024371587
 20
1.2674585942
 10
-20.4083710258
 20
1.2682198202
 10
-20.4139804368
 20
1.2681842105
 10
-20.4192145132
 20
1.2673520975
 10
-20.4240252814
 20
1.2657313698
 10
-20.4283688403
 20
1.2633369101
  0
LWPOLYLINE
  5
358
100
AcDbEntity
  8
RACCORDO
100
AcDbPolyline
 62
250
  6
CONTINUOUS
 90
10
 70
0
 10
-21.2575355629
 20
1.3119842187
 10
-21.2507113257
 20
1.3080758429
 10
-21.243429876
 20
1.3040502204
 10
-21.2357562664
 20
1.2999433164
 10
-21.2277590529
 20
1.2957918221
 10
-21.2195096831
 20
1.2916328272
 10
-21.2110818571
 20
1.2875034884
 10
-21.2025508697
 20
1.2834406975
 10
-21.1939929372
 20
1.2794807518
 10
-21.1854845166
 20
1.2756590299
  0
LINE
  5
359
100
AcDbEntity
  8
0
100
AcDbLine
 62
7
  6
CONTINUOUS
 10
17.135086179
 20
-20.5634948306
 11
16.7495270399
 21
-20.3408778158
  0
LINE
  5
35A
100
AcDbEntity
  8
0
100
AcDbLine
 62
7
  6
CONTINUOUS
 10
12.4456895132
 20
-17.1210727185
 11
15.2735958037
 21
-18.7538703687
  0
LWPOLYLINE
  5
35B
100
AcDbEntity
  8
RACCORDO
100
AcDbPolyline
 62
250
  6
CONTINUOUS
 90
10
 70
0
 10
-21.00443935
 20
1.6192199441
 10
-20.9976502803
 20
1.6152513238
 10
-20.9908450987
 20
1.6106026506
 10
-20.984085074
 20
1.6053163721
 10
-20.9774306112
 20
1.5994410302
 10
-20.9709420434
 20
1.5930298974
 10
-20.9646790896
 20
1.5861404874
 10
-20.9586985342
 20
1.5788352638
 10
-20.9530537156
 20
1.5711810729
 10
-20.9477953818
 20
1.563247612
  0
LWPOLYLINE
  5
35C
100
AcDbEntity
  8
RACCORDO
100
AcDbPolyline
 62
250
  6
CONTINUOUS
 90
10
 70
0
 10
-21.2544061148
 20
1.318541358
 10
-21.2476313188
 20
1.3145285361
 10
-21.2404038312
 20
1.3103874454
 10
-21.2327882784
 20
1.3061551144
 10
-21.2248527567
 20
1.3018693876
 10
-21.2166682233
 20
1.2975685868
 10
-21.2083078624
 20
1.2932911687
 10
-21.1998464302
 20
1.2890753807
 10
-21.1913595864
 20
1.2849589195
 10
-21.1829232184
 20
1.2809785933
  0
LWPOLYLINE
  5
35D
100
AcDbEntity
  8
RACCORDO
100
AcDbPolyline
 62
250
  6
CONTINUOUS
 90
13
 70
0
 10
-13.4979600058
 20
6.6178713592
 10
-13.4840586802
 20
6.5868121303
 10
-13.4685597292
 20
6.5565494807
 10
-13.4515330902
 20
6.5272228075
 10
-13.4329933256
 20
6.4989722092
 10
-13.4130865212
 20
6.4719414224
 10
-13.3920975517
 20
6.4462652622
 10
-13.3701580597
 20
6.4220782085
 10
-13.3473491078
 20
6.3994931319
 10
-13.3238943482
 20
6.3785907065
 10
-13.2999471912
 20
6.3594644009
 10
-13.2755888858
 20
6.342225196
 10
-13.2509394476
 20
6.3269649378
  0
LWPOLYLINE
  5
35E
100
AcDbEntity
  8
0
100
AcDbPolyline
 62
250
  6
CONTINUOUS
 90
16
 70
0
 10
-9.075097557
 20
21.9032518931
 10
-9.0763764967
 20
21.9249663607
 10
-9.0795433994
 20
21.9475802066
 10
-9.084563582
 20
21.9708457647
 10
-9.0913820653
 20
21.9945082349
 10
-9.0999241734
 20
22.018308463
 10
-9.1100963494
 20
22.0419857796
 10
-9.121787184
 20
22.0652808669
 10
-9.1348686401
 20
22.0879386032
 10
-9.1491974516
 20
22.1097108462
 10
-9.1646166898
 20
22.1303591478
 10
-9.1809574833
 20
22.1496573689
 10
-9.1980408705
 20
22.1673941591
 10
-9.2156797556
 20
22.1833752662
 10
-9.2336809577
 20
22.1974256653
 10
-9.2518473284
 20
22.209391477
  0
LWPOLYLINE
  5
35F
100
AcDbEntity
  8
0
100
AcDbPolyline
 62
7
  6
CONTINUOUS
 90
11
 70
0
 10
-8.6040669228
 20
19.9264427326
 10
-8.602802896
 20
19.9011956345
 10
-8.5989383122
 20
19.8764439722
 10
-8.5925133565
 20
19.8524595638
 10
-8.5836676964
 20
19.8296386881
 10
-8.5725263722
 20
19.8081480111
 10
-8.5591740237
 20
19.7880941981
 10
-8.54383281
 20
19.7697647761
 10
-8.5267354044
 20
19.7533642169
 10
-8.5079708623
 20
19.7389419844
 10
-8.4937278174
 20
19.7299792277
  0
LWPOLYLINE
  5
360
100
AcDbEntity
  8
0
100
AcDbPolyline
 62
250
  6
CONTINUOUS
 90
13
 70
0
 10
-6.2006342673
 20
18.6509773178
 10
-6.2004890096
 20
18.6474610495
 10
-6.2000810796
 20
18.6441704397
 10
-6.1994104773
 20
18.6411054884
 10
-6.1984684282
 20
18.6382463351
 10
-6.1972637067
 20
18.6356128403
 10
-6.1958226363
 20
18.6332645848
 10
-6.1941398245
 20
18.6312078147
 10
-6.1922206637
 20
18.6294362839
 10
-6.1901076542
 20
18.6279908348
 10
-6.1878149625
 20
18.6268850818
 10
-6.1853284221
 20
18.6261054105
 10
-6.1826480329
 20
18.6256518211
  0
LWPOLYLINE
  5
361
100
AcDbEntity
  8
0
100
AcDbPolyline
 62
250
  6
CONTINUOUS
 90
10
 70
0
 10
-6.4809872977
 20
18.6523899562
 10
-6.4803120778
 20
18.6349869192
 10
-6.4782921232
 20
18.6184905367
 10
-6.4749427553
 20
18.603026323
 10
-6.4702892644
 20
18.5887118866
 10
-6.4643670686
 20
18.5756561174
 10
-6.4572214033
 20
18.5639584022
 10
-6.4489059469
 20
18.5537072488
 10
-6.4394841292
 20
18.5449811636
 10
-6.429433935
 20
18.5380826607
  0
LWPOLYLINE
  5
362
100
AcDbEntity
  8
0
100
AcDbPolyline
 62
250
  6
CONTINUOUS
 90
19
 70
0
 10
-6.5939991435
 20
27.3985495444
 10
-6.5959994086
 20
27.4503588812
 10
-6.6018237394
 20
27.4989595443
 10
-6.6114721358
 20
27.5443515337
 10
-6.6250778424
 20
27.5868819963
 10
-6.6425076146
 20
27.6262037851
 10
-6.6633617187
 20
27.6612754593
 10
-6.6877103661
 20
27.6919389623
 10
-6.7154833454
 20
27.7183523507
 10
-6.7460702884
 20
27.7399483534
 10
-6.7795293157
 20
27.7566270965
 10
-6.8158023069
 20
27.7684884539
 10
-6.8541045322
 20
27.775264776
 10
-6.8945406614
 20
27.7768170163
 10
-6.9370060249
 20
27.7732842213
 10
-6.9804018837
 20
27.7648158805
 10
-7.0243619915
 20
27.7514618238
 10
-7.0692525947
 20
27.7331722214
 10
-7.1150736932
 20
27.7099470733
  0
LWPOLYLINE
  5
363
100
AcDbEntity
  8
0
100
AcDbPolyline
 62
7
  6
CONTINUOUS
 90
13
 70
0
 10
-6.5207758388
 20
27.5006181927
 10
-6.523124978
 20
27.5666320307
 10
-6.5300475264
 20
27.6295696938
 10
-6.5413602418
 20
27.6893117809
 10
-6.5569226524
 20
27.7458730471
 10
-6.576538152
 20
27.7990229756
 10
-6.5998295406
 20
27.848285144
 10
-6.6263200155
 20
27.8933164329
 10
-6.6558136554
 20
27.9343515195
 10
-6.6882993975
 20
27.9716865715
 10
-6.7236039295
 20
28.0052765738
 10
-6.7613108365
 20
28.03488217
 10
-6.8010817645
 20
28.0604237022
  0
LWPOLYLINE
  5
364
100
AcDbEntity
  8
0
100
AcDbPolyline
 62
250
  6
CONTINUOUS
 90
16
 70
0
 10
-7.1150736932
 20
27.7099470733
 10
-7.1157196054
 20
27.7320252634
 10
-7.1182952434
 20
27.7549798457
 10
-7.1227723878
 20
27.7785593249
 10
-7.1291019862
 20
27.8025053595
 10
-7.1372146902
 20
27.8265555916
 10
-7.1470216152
 20
27.8504465218
 10
-7.1584153146
 20
27.8739163961
 10
-7.1712709565
 20
27.8967080737
 10
-7.185447692
 20
27.9185718441
 10
-7.2007901976
 20
27.9392681634
 10
-7.2171303778
 20
27.9585702783
 10
-7.2342892061
 20
27.9762667108
 10
-7.2520786867
 20
27.9921635751
 10
-7.2703039144
 20
28.0060867018
 10
-7.2887652097
 20
28.0178835463
  0
LINE
  5
365
100
AcDbEntity
  8
0
100
AcDbLine
 62
7
  6
CONTINUOUS
 10
-7.8892041437
 20
19.3809342262
 11
-7.8892041437
 21
19.101506727
  0
LINE
  5
366
100
AcDbEntity
  8
0
100
AcDbLine
 62
250
  6
CONTINUOUS
 10
-7.815980839
 20
19.3386560078
 11
-7.815980839
 21
18.9963048978
  0
LINE
  5
367
100
AcDbEntity
  8
0
100
AcDbLine
 62
7
  6
CONTINUOUS
 10
-7.6832434068
 20
18.123248998
 11
-7.6832434068
 21
19.2620150783
  0
LINE
  5
368
100
AcDbEntity
  8
0
100
AcDbLine
 62
250
  6
CONTINUOUS
 10
-7.6100201021
 20
18.0180471688
 11
-7.6100201021
 21
19.3042793473
  0
LINE
  5
369
100
AcDbEntity
  8
0
100
AcDbLine
 62
250
  6
CONTINUOUS
 10
-7.416455816
 20
17.906285576
 11
-7.416455816
 21
19.1925177545
  0
LINE
  5
36A
100
AcDbEntity
  8
0
100
AcDbLine
 62
250
  6
CONTINUOUS
 10
-7.0660145281
 20
17.915030432
 11
-7.0660145281
 21
18.9056348591
  0
LINE
  5
36B
100
AcDbEntity
  8
0
100
AcDbLine
 62
250
  6
CONTINUOUS
 10
-6.5939991435
 20
27.125599886
 11
-6.5939991435
 21
27.3985495444
  0
LINE
  5
36C
100
AcDbEntity
  8
0
100
AcDbLine
 62
7
  6
CONTINUOUS
 10
-6.5232884654
 20
18.5922716325
 11
-6.5232884654
 21
18.2499205225
  0
LINE
  5
36D
100
AcDbEntity
  8
0
100
AcDbLine
 62
7
  6
CONTINUOUS
 10
-6.5207758388
 20
27.1751356486
 11
-6.5207758388
 21
27.5006181927
  0
LINE
  5
36E
100
AcDbEntity
  8
0
100
AcDbLine
 62
250
  6
CONTINUOUS
 10
-6.4809872977
 20
18.951549195
 11
-6.4809872977
 21
18.6523899562
  0
LINE
  5
36F
100
AcDbEntity
  8
0
100
AcDbLine
 62
250
  6
CONTINUOUS
 10
-6.2006342673
 20
18.9500915749
 11
-6.2006342673
 21
18.6509773178
  0
LINE
  5
370
100
AcDbEntity
  8
0
100
AcDbLine
 62
250
  6
CONTINUOUS
 10
-5.7962815166
 20
18.4564825866
 11
-5.7962815166
 21
17.8301558218
  0
LINE
  5
371
100
AcDbEntity
  8
0
100
AcDbLine
 62
250
  6
CONTINUOUS
 10
-5.4458402287
 20
18.5537158847
 11
-5.4458402287
 21
17.8389006779
  0
LWPOLYLINE
  5
372
100
AcDbEntity
  8
0
100
AcDbPolyline
 62
250
  6
CONTINUOUS
 90
16
 70
0
 10
-5.2220867655
 20
18.2246758192
 10
-5.2211410845
 20
18.2463055199
 10
-5.2183205231
 20
18.2688040625
 10
-5.2136540279
 20
18.2919313258
 10
-5.2071901603
 20
18.3154422972
 10
-5.1989970988
 20
18.3390834405
 10
-5.1891632986
 20
18.3625953884
 10
-5.1777956287
 20
18.3857245817
 10
-5.1650154602
 20
18.4082253409
 10
-5.1509587703
 20
18.4298562372
 10
-5.1357767899
 20
18.4503860084
 10
-5.1196326129
 20
18.4695947814
 10
-5.1026980307
 20
18.4872758324
 10
-5.0851545352
 20
18.5032396891
 10
-5.0671913436
 20
18.5173161178
 10
-5.0490015916
 20
18.5293547043
  0
LWPOLYLINE
  5
373
100
AcDbEntity
  8
0
100
AcDbPolyline
 62
250
  6
CONTINUOUS
 90
10
 70
0
 10
10.9231179751
 20
15.0776215971
 10
10.9470736233
 20
15.0931799824
 10
10.9683602722
 20
15.1099739786
 10
10.9867893736
 20
15.1278532822
 10
11.0021977047
 20
15.1466566044
 10
11.0144487392
 20
15.1662173347
 10
11.0234339071
 20
15.1863650174
 10
11.0290736398
 20
15.2069200766
 10
11.031318007
 20
15.227698929
 10
11.031360277
 20
15.2309752662
  0
LWPOLYLINE
  5
374
100
AcDbEntity
  8
0
100
AcDbPolyline
 62
250
  6
CONTINUOUS
 90
34
 70
0
 10
10.7463682038
 20
15.383761181
 10
10.7548600044
 20
15.3891803611
 10
10.7623057465
 20
15.3949330068
 10
10.7687054301
 20
15.4010191179
 10
10.7741001844
 20
15.4075002054
 10
10.7784488801
 20
15.4143147584
 10
10.7816281301
 20
15.4212782445
 10
10.7836040081
 20
15.4283924994
 10
10.7844104403
 20
15.4356556874
 10
10.784025818
 20
15.4428777683
 10
10.782418467
 20
15.450057675
 10
10.7796200615
 20
15.4571964745
 10
10.7757040149
 20
15.4641073281
 10
10.7706409439
 20
15.470784243
 10
10.764460232
 20
15.4772332119
 10
10.757323443
 20
15.4832853733
 10
10.7492053158
 20
15.4889302749
 10
10.7401311116
 20
15.4941783689
 10
10.7303381784
 20
15.4988921507
 10
10.7198075117
 20
15.5030575411
 10
10.708558116
 20
15.5066886193
 10
10.6968843531
 20
15.5096901187
 10
10.6847749567
 20
15.5120454687
 10
10.672241193
 20
15.5137712399
 10
10.6596112219
 20
15.5148218773
 10
10.6468824245
 20
15.5151795076
 10
10.6340574196
 20
15.5148620042
 10
10.6214722234
 20
15.5138774317
 10
10.6091328562
 20
15.5122081782
 10
10.5970332977
 20
15.5098718556
 10
10.5854915028
 20
15.5069293641
 10
10.5746134567
 20
15.5034010039
 10
10.5642931742
 20
15.4992664749
 10
10.5545306555
 20
15.4945257771
  0
LWPOLYLINE
  5
375
100
AcDbEntity
  8
0
100
AcDbPolyline
 62
250
  6
CONTINUOUS
 90
28
 70
0
 10
7.5374991135
 20
11.262066943
 10
7.5294360308
 20
11.257001329
 10
7.5211352461
 20
11.2513368893
 10
7.5126186649
 20
11.2450451886
 10
7.5038947782
 20
11.2380858155
 10
7.4950104752
 20
11.2304479337
 10
7.4860490843
 20
11.2221598334
 10
7.4770452858
 20
11.2132130343
 10
7.4680373404
 20
11.2036034072
 10
7.4591134013
 20
11.1933872734
 10
7.4503135648
 20
11.1825762636
 10
7.4416797967
 20
11.1711860677
 10
7.4332976622
 20
11.1592990587
 10
7.4252095665
 20
11.1469495801
 10
7.4174526766
 20
11.1341670501
 10
7.4100953665
 20
11.1210414641
 10
7.4031758574
 20
11.1076231462
 10
7.3967241025
 20
11.0939508471
 10
7.3907860601
 20
11.0801054347
 10
7.3853902416
 20
11.0661396794
 10
7.3805617681
 20
11.0521032373
 10
7.3763319808
 20
11.038075362
 10
7.3727195281
 20
11.0241090619
 10
7.3697411138
 20
11.0102581999
 10
7.3674147014
 20
10.9966026002
 10
7.3657490433
 20
10.9832025417
 10
7.3647478482
 20
10.9700996056
 10
7.3644139563
 20
10.9573430528
  0
LINE
  5
376
100
AcDbEntity
  8
0
100
AcDbLine
 62
7
  6
CONTINUOUS
 10
9.0020283333
 20
12.239537506
 11
7.4347741409
 21
11.2703240041
  0
LINE
  5
377
100
AcDbEntity
  8
0
100
AcDbLine
 62
250
  6
CONTINUOUS
 10
9.1037498597
 20
12.2306598987
 11
7.5374991135
 21
11.262066943
  0
LINE
  5
378
100
AcDbEntity
  8
0
100
AcDbLine
 62
7
  6
CONTINUOUS
 10
7.0178063944
 20
11.7204699313
 11
6.8348050196
 21
11.6075486048
  0
LINE
  5
379
100
AcDbEntity
  8
0
100
AcDbLine
 62
250
  6
CONTINUOUS
 10
6.6580552483
 20
13.0232131271
 11
10.7463682038
 21
15.383761181
  0
LINE
  5
37A
100
AcDbEntity
  8
0
100
AcDbLine
 62
250
  6
CONTINUOUS
 10
6.8348050196
 20
12.7170735432
 11
10.9231179751
 21
15.0776215971
  0
LINE
  5
37B
100
AcDbEntity
  8
0
100
AcDbLine
 62
7
  6
CONTINUOUS
 10
7.0178063944
 20
11.7204699313
 11
10.9231179751
 21
13.9753556353
  0
LINE
  5
37C
100
AcDbEntity
  8
0
100
AcDbLine
 62
7
  6
CONTINUOUS
 10
9.0020277627
 20
12.2395371991
 11
9.0055168444
 21
12.2415517511
  0
LINE
  5
37D
100
AcDbEntity
  8
0
100
AcDbLine
 62
7
  6
CONTINUOUS
 10
13.163266425
 20
16.1496087034
 11
11.031360277
 21
14.9616407917
  0
LINE
  5
37E
100
AcDbEntity
  8
0
100
AcDbLine
 62
250
  6
CONTINUOUS
 10
13.2880421228
 20
16.1370928804
 11
11.031360277
 21
14.8795958643
  0
LINE
  5
37F
100
AcDbEntity
  8
0
100
AcDbLine
 62
7
  6
CONTINUOUS
 10
9.5492825826
 20
12.5339713681
 11
9.0055174148
 21
12.2415520578
  0
LINE
  5
380
100
AcDbEntity
  8
0
100
AcDbLine
 62
250
  6
CONTINUOUS
 10
9.6464759224
 20
12.5225204119
 11
9.1037498597
 21
12.2306598987
  0
LWPOLYLINE
  5
381
100
AcDbEntity
  8
0
100
AcDbPolyline
 62
7
  6
CONTINUOUS
 90
5
 70
0
 10
9.0055168444
 20
12.2415517511
 10
9.0090384102
 20
12.2433138004
 10
9.0204150545
 20
12.247412902
 10
9.0328880184
 20
12.2495970092
 10
9.0462425303
 20
12.2497551507
  0
LWPOLYLINE
  5
382
100
AcDbEntity
  8
RACCORDO
100
AcDbPolyline
 62
250
  6
CONTINUOUS
 90
19
 70
0
 10
-21.1829232184
 20
1.2809785933
 10
-21.1413690081
 20
1.2623458744
 10
-21.0995680362
 20
1.2430532279
 10
-21.057876527
 20
1.2232650292
 10
-21.016649495
 20
1.2031497389
 10
-20.9762386766
 20
1.1828789327
 10
-20.9369894575
 20
1.1626258458
 10
-20.8992366666
 20
1.1425632647
 10
-20.8633017322
 20
1.1228620133
 10
-20.8294908586
 20
1.1036899693
 10
-20.7980922161
 20
1.0852105361
 10
-20.7693734158
 20
1.0675812143
 10
-20.7435791846
 20
1.0509522296
 10
-20.7209288538
 20
1.0354649422
 10
-20.70161619
 20
1.0212517973
 10
-20.6858068592
 20
1.0084348413
 10
-20.6736350766
 20
0.9971232504
 10
-20.6652033237
 20
0.9874127381
 10
-20.6605826186
 20
0.9793856775
  0
LWPOLYLINE
  5
383
100
AcDbEntity
  8
RACCORDO
100
AcDbPolyline
 62
250
  6
CONTINUOUS
 90
18
 70
0
 10
-21.00443935
 20
1.6192199441
 10
-21.481929912
 20
1.8634158441
 10
-21.9574933215
 20
2.0793385058
 10
-22.4299715085
 20
2.266462108
 10
-22.8982138425
 20
2.4243309367
 10
-23.3610801529
 20
2.5525605711
 10
-23.8174434956
 20
2.6508387731
 10
-24.2661928455
 20
2.7189261964
 10
-24.7062350934
 20
2.7566568993
 10
-25.1364979674
 20
2.7639389535
 10
-25.5559332663
 20
2.7407547546
 10
-25.9635201284
 20
2.6871608704
 10
-26.3582667591
 20
2.6032877146
 10
-26.7392123121
 20
2.4893392934
 10
-27.105428595
 20
2.3455930942
 10
-27.4560231362
 20
2.1723994316
 10
-27.7901418042
 20
1.9701804264
 10
-27.9548518274
 20
1.8553590559
  0
LINE
  5
384
100
AcDbEntity
  8
0
100
AcDbLine
 62
7
  6
CONTINUOUS
 10
16.7495270399
 20
-18.7183320083
 11
16.3072581628
 21
-18.4629715016
  0
LWPOLYLINE
  5
385
100
AcDbEntity
  8
0
100
AcDbPolyline
 62
250
  6
CONTINUOUS
 90
13
 70
0
 10
-6.1652896047
 20
19.0106162278
 10
-6.1668053484
 20
19.032450598
 10
-6.1706713814
 20
19.055332291
 10
-6.1768215876
 20
19.078869952
 10
-6.1851507817
 20
19.1026610022
 10
-6.1955165113
 20
19.1262985329
 10
-6.2077414958
 20
19.1493782644
 10
-6.2216166531
 20
19.1715054523
 10
-6.2369046704
 20
19.19230163
 10
-6.2533440655
 20
19.2114110927
 10
-6.2706536638
 20
19.2285069897
 10
-6.2885374089
 20
19.2432969139
 10
-6.3066894216
 20
19.2555278949
  0
LWPOLYLINE
  5
386
100
AcDbEntity
  8
0
100
AcDbPolyline
 62
250
  6
CONTINUOUS
 90
16
 70
0
 10
-3.9851530675
 20
20.2292805871
 10
-3.9853557866
 20
20.233450207
 10
-3.9859100669
 20
20.2372772263
 10
-3.9868159082
 20
20.2407616448
 10
-3.9880902808
 20
20.2439333648
 10
-3.9897162145
 20
20.2467624841
 10
-3.9916427987
 20
20.2491592964
 10
-3.993879745
 20
20.251109906
 10
-3.9964173418
 20
20.2526282087
 10
-3.9991755443
 20
20.2536661852
 10
-4.0021614627
 20
20.2542086011
 10
-4.0053679868
 20
20.254270691
 10
-4.0086937412
 20
20.2538501391
 10
-4.0121049343
 20
20.2529461738
 10
-4.0156353577
 20
20.2515595668
 10
-4.0192850115
 20
20.2496903181
  0
LWPOLYLINE
  5
387
100
AcDbEntity
  8
0
100
AcDbPolyline
 62
7
  6
CONTINUOUS
 90
22
 70
0
 10
-4.8785458015
 20
24.4171294288
 10
-4.8795599356
 20
24.4415046663
 10
-4.8841715171
 20
24.474379804
 10
-4.8925840144
 20
24.5070042963
 10
-4.904875606
 20
24.5390412748
 10
-4.9209368848
 20
24.5698564353
 10
-4.9408136022
 20
24.5992967183
 10
-4.9646631059
 20
24.6272064887
 10
-4.9921157171
 20
24.6528390447
 10
-5.0224055459
 20
24.6754979261
 10
-5.0553447024
 20
24.6951640127
 10
-5.0907561762
 20
24.7117651974
 10
-5.1278596784
 20
24.7250476098
 10
-5.1668993947
 20
24.7351409962
 10
-5.2076714666
 20
24.7419262172
 10
-5.2487044491
 20
24.7451696635
 10
-5.290062104
 20
24.7449366508
 10
-5.3317502251
 20
24.7411115329
 10
-5.3722475202
 20
24.7337724966
 10
-5.4111294115
 20
24.7230334454
 10
-5.4488841405
 20
24.7086423583
 10
-5.4769536382
 20
24.6949682227
  0
LWPOLYLINE
  5
388
100
AcDbEntity
  8
0
100
AcDbPolyline
 62
250
  6
CONTINUOUS
 90
13
 70
0
 10
-4.0192850115
 20
20.2496903181
 10
-4.0201989686
 20
20.271872283
 10
-4.0235579612
 20
20.2950468659
 10
-4.0293045382
 20
20.3188176968
 10
-4.0373404123
 20
20.3427782077
 10
-4.0475281405
 20
20.3665185864
 10
-4.0596934755
 20
20.3896327857
 10
-4.0736283457
 20
20.4117254683
 10
-4.0890944139
 20
20.4324187688
 10
-4.105827154
 20
20.4513587561
 10
-4.123540375
 20
20.4682214871
 10
-4.1419311161
 20
20.4827185477
 10
-4.1606848286
 20
20.4946019852
  0
LWPOLYLINE
  5
389
100
AcDbEntity
  8
0
100
AcDbPolyline
 62
7
  6
CONTINUOUS
 90
11
 70
0
 10
-3.929021706
 20
20.309639534
 10
-3.9292118119
 20
20.3191699857
 10
-3.9319963611
 20
20.3474690221
 10
-3.9380980291
 20
20.3750048609
 10
-3.9474388591
 20
20.401380763
 10
-3.9597536985
 20
20.4260205035
 10
-3.9748268648
 20
20.4486779174
 10
-3.9925450654
 20
20.4692345207
 10
-4.0125646568
 20
20.4873292878
 10
-4.0344983078
 20
20.502689072
 10
-4.0391623574
 20
20.5054625863
  0
LWPOLYLINE
  5
38A
100
AcDbEntity
  8
0
100
AcDbPolyline
 62
7
  6
CONTINUOUS
 90
12
 70
0
 10
-5.2806645166
 20
18.007130384
 10
-5.280637945
 20
18.0035498806
 10
-5.2790384301
 20
17.9789931649
 10
-5.2749780608
 20
17.954990769
 10
-5.2685054894
 20
17.9317544562
 10
-5.2597584583
 20
17.9096359669
 10
-5.248856154
 20
17.8888039169
 10
-5.235876112
 20
17.8693480925
 10
-5.2210309131
 20
17.8515269373
 10
-5.2045372988
 20
17.8355217069
 10
-5.1864659447
 20
17.8213661014
 10
-5.1703090074
 20
17.8110784531
  0
LINE
  5
38B
100
AcDbEntity
  8
0
100
AcDbLine
 62
7
  6
CONTINUOUS
 10
-5.2806653799
 20
18.0071303838
 11
-5.2806653926
 21
18.3062857162
  0
LINE
  5
38C
100
AcDbEntity
  8
0
100
AcDbLine
 62
250
  6
CONTINUOUS
 10
-5.2220867488
 20
17.925516557
 11
-5.2220867488
 21
18.2246758046
  0
LINE
  5
38D
100
AcDbEntity
  8
0
100
AcDbLine
 62
250
  6
CONTINUOUS
 10
-4.9867846016
 20
23.1615339852
 11
-4.9867846016
 21
23.6907350369
  0
LINE
  5
38E
100
AcDbEntity
  8
0
100
AcDbLine
 62
250
  6
CONTINUOUS
 10
-4.9867846016
 20
23.9011990982
 11
-4.9867846016
 21
24.263799947
  0
LINE
  5
38F
100
AcDbEntity
  8
0
100
AcDbLine
 62
7
  6
CONTINUOUS
 10
-4.8785422997
 20
23.3124307271
 11
-4.8785422997
 21
24.417154418
  0
LINE
  5
390
100
AcDbEntity
  8
0
100
AcDbLine
 62
7
  6
CONTINUOUS
 10
-4.5658022722
 20
17.1826161383
 11
-4.5658022722
 21
17.4620436376
  0
LINE
  5
391
100
AcDbEntity
  8
0
100
AcDbLine
 62
7
  6
CONTINUOUS
 10
-4.543389478
 20
18.9138165447
 11
-4.543389478
 21
19.9470779286
  0
LINE
  5
392
100
AcDbEntity
  8
0
100
AcDbLine
 62
250
  6
CONTINUOUS
 10
-4.4925789675
 20
17.0774143091
 11
-4.4925789675
 21
17.4197654192
  0
LINE
  5
393
100
AcDbEntity
  8
0
100
AcDbLine
 62
7
  6
CONTINUOUS
 10
-4.3598415352
 20
16.2043584094
 11
-4.3598415352
 21
17.3431244897
  0
LINE
  5
394
100
AcDbEntity
  8
0
100
AcDbLine
 62
250
  6
CONTINUOUS
 10
-4.2866182305
 20
16.0991565802
 11
-4.2866182305
 21
17.3853887587
  0
LINE
  5
395
100
AcDbEntity
  8
0
100
AcDbLine
 62
250
  6
CONTINUOUS
 10
-4.0930539444
 20
15.9873949873
 11
-4.0930539444
 21
17.2736271658
  0
LINE
  5
396
100
AcDbEntity
  8
0
100
AcDbLine
 62
250
  6
CONTINUOUS
 10
-3.9851530675
 20
19.9087890175
 11
-3.9851530675
 21
20.2292805871
  0
LINE
  5
397
100
AcDbEntity
  8
0
100
AcDbLine
 62
7
  6
CONTINUOUS
 10
-3.9290210276
 20
19.9890064249
 11
-3.9290210276
 21
20.3094980641
  0
LINE
  5
398
100
AcDbEntity
  8
0
100
AcDbLine
 62
250
  6
CONTINUOUS
 10
-3.7426126565
 20
15.9961398434
 11
-3.7426126565
 21
16.9867442705
  0
LINE
  5
399
100
AcDbEntity
  8
0
100
AcDbLine
 62
7
  6
CONTINUOUS
 10
-3.3659912596
 20
20.1014867043
 11
-3.3659912596
 21
19.6244555757
  0
LINE
  5
39A
100
AcDbEntity
  8
0
100
AcDbLine
 62
7
  6
CONTINUOUS
 10
-3.1998865938
 20
16.6733810438
 11
-3.1998865938
 21
16.3310299338
  0
LINE
  5
39B
100
AcDbEntity
  8
0
100
AcDbLine
 62
250
  6
CONTINUOUS
 10
-3.1575854261
 20
16.7334993675
 11
-3.1575854261
 21
17.0326159108
  0
LINE
  5
39C
100
AcDbEntity
  8
0
100
AcDbLine
 62
250
  6
CONTINUOUS
 10
-2.8772323958
 20
16.7320867292
 11
-2.8772323958
 21
17.0312009862
  0
LINE
  5
39D
100
AcDbEntity
  8
0
100
AcDbLine
 62
250
  6
CONTINUOUS
 10
-2.4728796451
 20
15.9112652332
 11
-2.4728796451
 21
16.537591998
  0
LWPOLYLINE
  5
39E
100
AcDbEntity
  8
0
100
AcDbPolyline
 62
250
  6
CONTINUOUS
 90
28
 70
0
 10
-2.8772323958
 20
17.0312009862
 10
-2.8772049851
 20
17.0331260509
 10
-2.8770810104
 20
17.0351468426
 10
-2.8768604716
 20
17.0372633615
 10
-2.8765483471
 20
17.039484104
 10
-2.8761396585
 20
17.0418005735
 10
-2.8756194705
 20
17.044187281
 10
-2.8749845143
 20
17.0466473651
 10
-2.8742380588
 20
17.0491776872
 10
-2.8733749748
 20
17.051743341
 10
-2.8723916009
 20
17.0543463365
 10
-2.8712915986
 20
17.0569846638
 10
-2.8700808225
 20
17.0596173877
 10
-2.8687565051
 20
17.0622440229
 10
-2.8673214139
 20
17.0648650547
 10
-2.865789707
 20
17.0674410037
 10
-2.8641595845
 20
17.069970398
 10
-2.8624328463
 20
17.0724547095
 10
-2.86062905
 20
17.0748588754
 10
-2.8587466447
 20
17.0771814995
 10
-2.8567871814
 20
17.0794239779
 10
-2.8547748703
 20
17.0815554361
 10
-2.8527085921
 20
17.0835739295
 10
-2.850589466
 20
17.0854814027
 10
-2.8484450602
 20
17.0872528143
 10
-2.8462845642
 20
17.0888798174
 10
-2.8440987885
 20
17.090370759
 10
-2.8418877331
 20
17.0917256391
  0
LWPOLYLINE
  5
39F
100
AcDbEntity
  8
0
100
AcDbPolyline
 62
250
  6
CONTINUOUS
 90
28
 70
0
 10
-3.1575854256
 20
17.0326159105
 10
-3.1573934305
 20
17.0422228578
 10
-3.1567938516
 20
17.0523308577
 10
-3.1557521139
 20
17.0629344556
 10
-3.1542306207
 20
17.0740456959
 10
-3.1521971682
 20
17.085629038
 10
-3.1496341967
 20
17.0975981448
 10
-3.1465183235
 20
17.1099266583
 10
-3.14282817
 20
17.1225834148
 10
-3.1385680721
 20
17.1354645703
 10
-3.1337292773
 20
17.1485294839
 10
-3.1283056065
 20
17.1617344102
 10
-3.1223250214
 20
17.1749655655
 10
-3.1157976434
 20
17.188168104
 10
-3.1087306317
 20
17.2012975639
 10
-3.101164342
 20
17.2142560736
 10
-3.0931224533
 20
17.2269871264
 10
-3.0846242157
 20
17.2394452577
 10
-3.0757145876
 20
17.2515531585
 10
-3.0664239383
 20
17.2632611168
 10
-3.0567828363
 20
17.2745225699
 10
-3.0468437098
 20
17.2852713304
 10
-3.0366426542
 20
17.2954652484
 10
-3.0262172412
 20
17.3050637862
 10
-3.0156267039
 20
17.3140123505
 10
-3.0049180897
 20
17.3222737439
 10
-2.9941248844
 20
17.3298242996
 10
-2.9832875502
 20
17.3366373062
  0
LWPOLYLINE
  5
3A0
100
AcDbEntity
  8
0
100
AcDbPolyline
 62
250
  6
CONTINUOUS
 90
7
 70
0
 10
-0.605619156
 20
18.3906074058
 10
-0.6070746853
 20
18.3767009577
 10
-0.6118447822
 20
18.3620194833
 10
-0.6198572454
 20
18.3478163618
 10
-0.630978005
 20
18.3343292495
 10
-0.6450209808
 20
18.3217838222
 10
-0.6617511959
 20
18.3103899984
  0
LWPOLYLINE
  5
3A1
100
AcDbEntity
  8
0
100
AcDbPolyline
 62
250
  6
CONTINUOUS
 90
7
 70
0
 10
-0.605619156
 20
18.0701158362
 10
-0.6070746853
 20
18.0562093881
 10
-0.6118447822
 20
18.0415279137
 10
-0.6198572454
 20
18.0273247922
 10
-0.630978005
 20
18.0138376799
 10
-0.6450209808
 20
18.0012922525
 10
-0.6617511959
 20
17.9898984288
  0
LWPOLYLINE
  5
3A2
100
AcDbEntity
  8
0
100
AcDbPolyline
 62
7
  6
CONTINUOUS
 90
13
 70
0
 10
7.4347899524
 20
11.270333639
 10
7.4191883911
 20
11.2598573844
 10
7.4005738495
 20
11.2449644777
 10
7.3835927642
 20
11.2286778118
 10
7.3678940039
 20
11.2107609117
 10
7.3536158403
 20
11.1913467959
 10
7.3412049519
 20
11.1711263358
 10
7.3305017177
 20
11.1499530975
 10
7.3214652465
 20
11.1276147624
 10
7.3144483477
 20
11.1048550146
 10
7.3094903642
 20
11.0818607286
 10
7.3065740222
 20
11.0582081558
 10
7.3058354071
 20
11.0389801414
  0
LWPOLYLINE
  5
3A3
100
AcDbEntity
  8
0
100
AcDbPolyline
 62
250
  6
CONTINUOUS
 90
16
 70
0
 10
9.6032131549
 20
10.069349545
 10
9.5848943215
 20
10.0573854045
 10
9.5668061316
 20
10.0433811087
 10
9.5491417196
 20
10.0274870862
 10
9.5320890446
 20
10.0098743521
 10
9.515830843
 20
9.9907316229
 10
9.5005426682
 20
9.9702633046
 10
9.4863879788
 20
9.9486889906
 10
9.4735176616
 20
9.9262401977
 10
9.4620704051
 20
9.9031568246
 10
9.4521677979
 20
9.8796843873
 10
9.4439165145
 20
9.8560766126
 10
9.437407073
 20
9.8325918397
 10
9.4327083115
 20
9.8094832594
 10
9.4298680809
 20
9.7869962219
 10
9.4289153043
 20
9.7653708355
  0
LWPOLYLINE
  5
3A4
100
AcDbEntity
  8
0
100
AcDbPolyline
 62
250
  6
CONTINUOUS
 90
16
 70
0
 10
9.744612972
 20
9.8244378779
 10
9.7408362393
 20
9.8220189756
 10
9.7371825148
 20
9.8192578846
 10
9.7336517984
 20
9.816154605
 10
9.7302091123
 20
9.8126689935
 10
9.7268894344
 20
9.8088411933
 10
9.7237976981
 20
9.8047916343
 10
9.7209412073
 20
9.8005131196
 10
9.7183126581
 20
9.7960128461
 10
9.7159950733
 20
9.7914328344
 10
9.7139982584
 20
9.7867703908
 10
9.7123124078
 20
9.7820282091
 10
9.710991127
 20
9.7773563914
 10
9.7100522846
 20
9.7728049718
 10
9.7094780121
 20
9.7683239164
 10
9.7092683094
 20
9.763913225
  0
LINE
  5
3A5
100
AcDbEntity
  8
0
100
AcDbLine
 62
7
  6
CONTINUOUS
 10
9.3866141113
 20
9.0637421726
 11
8.8438880486
 21
8.7288520822
  0
LINE
  5
3A6
100
AcDbEntity
  8
0
100
AcDbLine
 62
7
  6
CONTINUOUS
 10
17.135086179
 20
13.7074673026
 11
11.7753470847
 21
10.4478999975
  0
LINE
  5
3A7
100
AcDbEntity
  8
0
100
AcDbLine
 62
7
  6
CONTINUOUS
 10
17.0294053817
 20
14.2714938273
 11
11.9635409423
 21
11.2121606306
  0
LINE
  5
3A8
100
AcDbEntity
  8
0
100
AcDbLine
 62
250
  6
CONTINUOUS
 10
11.7492559504
 20
11.3084456929
 11
9.6032131549
 21
10.069349545
  0
LINE
  5
3A9
100
AcDbEntity
  8
0
100
AcDbLine
 62
250
  6
CONTINUOUS
 10
11.8906175652
 20
11.0635119682
 11
9.744612972
 21
9.8244378779
  0
LINE
  5
3AA
100
AcDbEntity
  8
0
100
AcDbLine
 62
7
  6
CONTINUOUS
 10
16.1173342815
 20
14.5034950474
 11
11.1245125762
 21
11.7501511884
  0
LWPOLYLINE
  5
3AB
100
AcDbEntity
  8
0
100
AcDbPolyline
 62
250
  6
CONTINUOUS
 90
13
 70
0
 10
9.7092683094
 20
9.763913225
 10
9.6895348992
 20
9.7542534085
 10
9.6678069815
 20
9.7461451703
 10
9.6444481228
 20
9.739724183
 10
9.6198491796
 20
9.7350978872
 10
9.5944217583
 20
9.732343693
 10
9.5685913282
 20
9.7315076857
 10
9.5427901017
 20
9.7326038538
 10
9.5174498029
 20
9.7356138555
 10
9.4929944429
 20
9.7404873254
 10
9.4698332259
 20
9.7471427173
 10
9.4483537012
 20
9.7554686684
 10
9.428915279
 20
9.7653258634
  0
LWPOLYLINE
  5
3AC
100
AcDbEntity
  8
0
100
AcDbPolyline
 62
250
  6
CONTINUOUS
 90
13
 70
0
 10
9.7092683094
 20
9.4647989679
 10
9.689534984
 20
9.4551391713
 10
9.6678071492
 20
9.4470309373
 10
9.6444483636
 20
9.4406099409
 10
9.6198494777
 20
9.4359836258
 10
9.5944220927
 20
9.4332294063
 10
9.5685916742
 20
9.4323933721
 10
9.5427904328
 20
9.4334895171
 10
9.5174500946
 20
9.436499504
 10
9.4929946763
 20
9.4413729714
 10
9.4698333871
 20
9.4480283762
 10
9.4483537821
 20
9.456354359
 10
9.428915279
 20
9.4662116064
  0
LWPOLYLINE
  5
3AD
100
AcDbEntity
  8
0
100
AcDbPolyline
 62
250
  6
CONTINUOUS
 90
7
 70
0
 10
-5.2806653799
 20
18.0071303838
 10
-5.2787592806
 20
17.9912664524
 10
-5.2735461406
 20
17.9766352815
 10
-5.2651055869
 20
17.9625150631
 10
-5.2535788527
 20
17.9491420667
 10
-5.2391588113
 20
17.9367400583
 10
-5.2220867488
 20
17.925516557
  0
LWPOLYLINE
  5
3AE
100
AcDbEntity
  8
0
100
AcDbPolyline
 62
250
  6
CONTINUOUS
 90
7
 70
0
 10
-5.2806653771
 20
18.3062403801
 10
-5.2787593322
 20
18.2903809077
 10
-5.2735462297
 20
18.2757497119
 10
-5.2651056954
 20
18.2616294578
 10
-5.2535789563
 20
18.2482564181
 10
-5.23915888
 20
18.2358543626
 10
-5.2220867488
 20
18.2246308148
  0
LWPOLYLINE
  5
3AF
100
AcDbEntity
  8
0
100
AcDbPolyline
 62
7
  6
CONTINUOUS
 90
4
 70
0
 10
0.2450628589
 20
-7.8868836265
 10
0.312726752
 20
-8.5202778975
 10
0.3563741314
 20
-9.1858470194
 10
0.3710026512
 20
-9.8346610155
  0
LWPOLYLINE
  5
3B0
100
AcDbEntity
  8
0
100
AcDbPolyline
 62
7
  6
CONTINUOUS
 90
16
 70
0
 10
-1.2199876065
 20
18.02818734
 10
-1.220746947
 20
18.0455756853
 10
-1.2230424237
 20
18.0637304356
 10
-1.226865032
 20
18.082462978
 10
-1.2322103404
 20
18.1016461982
 10
-1.2390238353
 20
18.12100019
 10
-1.2471500422
 20
18.1400942344
 10
-1.2563880095
 20
18.1585643151
 10
-1.266675974
 20
18.1763835922
 10
-1.2780526183
 20
18.1936190662
 10
-1.2905255822
 20
18.2102038324
 10
-1.3038800941
 20
18.2257818527
 10
-1.317820873
 20
18.2400031156
 10
-1.3321327646
 20
18.2526804486
 10
-1.3467078969
 20
18.2637464501
 10
-1.3613874235
 20
18.2730990071
  0
LWPOLYLINE
  5
3B1
100
AcDbEntity
  8
0
100
AcDbPolyline
 62
7
  6
CONTINUOUS
 90
10
 70
0
 10
-0.6056196737
 20
18.3908297884
 10
-0.6061222077
 20
18.4063379728
 10
-0.609649718
 20
18.4346919649
 10
-0.6165298384
 20
18.4622094846
 10
-0.6266850927
 20
18.488492656
 10
-0.6398490419
 20
18.5129613438
 10
-0.6557882806
 20
18.5353472407
 10
-0.6743691569
 20
18.5555211656
 10
-0.6952361864
 20
18.5731115302
 10
-0.7157381221
 20
18.5865628034
  0
LWPOLYLINE
  5
3B2
100
AcDbEntity
  8
RACCORDO
100
AcDbPolyline
 62
250
  6
CONTINUOUS
 90
25
 70
0
 10
-0.9017895549
 20
19.0862869474
 10
-0.9026266856
 20
19.1713071732
 10
-0.8988354562
 20
19.2577821967
 10
-0.8905512107
 20
19.3452626254
 10
-0.8779622473
 20
19.4329828503
 10
-0.8612375901
 20
19.5208542754
 10
-0.8403644333
 20
19.6094979839
 10
-0.8152921594
 20
19.6989058688
 10
-0.7861725392
 20
19.7883473418
 10
-0.7531916045
 20
19.8773855147
 10
-0.7164835695
 20
19.9656387032
 10
-0.6761798216
 20
20.0527516749
 10
-0.6325055723
 20
20.1383373397
 10
-0.5858107015
 20
20.2217453314
 10
-0.5361343199
 20
20.3029537138
 10
-0.4831616736
 20
20.3824599469
 10
-0.4268283942
 20
20.4600903317
 10
-0.3674498855
 20
20.5351703777
 10
-0.3052103353
 20
20.6073531469
 10
-0.2401983492
 20
20.6763125964
 10
-0.17272627
 20
20.7414846938
 10
-0.1033719503
 20
20.8022147276
 10
-0.0325361992
 20
20.858071077
 10
0.039586778
 20
20.9087820446
 10
0.1126777116
 20
20.9540140217
  0
LINE
  5
3B3
100
AcDbEntity
  8
0
100
AcDbLine
 62
250
  6
CONTINUOUS
 10
-2.1224383571
 20
16.634825296
 11
-2.1224383571
 21
15.9200100892
  0
LINE
  5
3B4
100
AcDbEntity
  8
0
100
AcDbLine
 62
7
  6
CONTINUOUS
 10
-1.2199876065
 20
16.4768689436
 11
-1.2199876065
 21
18.02818734
  0
LINE
  5
3B5
100
AcDbEntity
  8
RACCORDO
100
AcDbLine
 62
250
  6
CONTINUOUS
 10
-0.9017895549
 20
18.693987314
 11
-0.9017895549
 21
19.0862869547
  0
LINE
  5
3B6
100
AcDbEntity
  8
0
100
AcDbLine
 62
250
  6
CONTINUOUS
 10
-0.6617511959
 20
18.3103899984
 11
-0.6617511959
 21
17.9898984288
  0
LINE
  5
3B7
100
AcDbEntity
  8
0
100
AcDbLine
 62
7
  6
CONTINUOUS
 10
-0.6056195269
 20
18.3908297886
 11
-0.605619156
 21
18.0701158362
  0
LINE
  5
3B8
100
AcDbEntity
  8
RACCORDO
100
AcDbLine
 62
250
  6
CONTINUOUS
 10
-0.1946827737
 20
18.9064105223
 11
-0.1946827737
 21
19.0862869474
  0
LWPOLYLINE
  5
3B9
100
AcDbEntity
  8
0
100
AcDbPolyline
 62
250
  6
CONTINUOUS
 90
22
 70
0
 10
-0.6617511959
 20
17.9898984288
 10
-0.6617726144
 20
17.9881954617
 10
-0.6618661723
 20
17.986413213
 10
-0.6620318696
 20
17.9845516827
 10
-0.6622658914
 20
17.9826056226
 10
-0.6625720527
 20
17.9805802808
 10
-0.662961798
 20
17.9784914022
 10
-0.6634369217
 20
17.9763368528
 10
-0.6639956294
 20
17.9741187665
 10
-0.6646439831
 20
17.9718592901
 10
-0.6653841029
 20
17.969556734
 10
-0.6662138687
 20
17.9672127877
 10
-0.6671329811
 20
17.9648546663
 10
-0.6681436489
 20
17.9624814148
 10
-0.6692436634
 20
17.9600939882
 10
-0.6704260998
 20
17.9577224672
 10
-0.6716929988
 20
17.9553668159
 10
-0.6730423196
 20
17.9530270702
 10
-0.6744610149
 20
17.9507334173
 10
-0.6759447356
 20
17.9484959195
 10
-0.6774978309
 20
17.9463045146
 10
-0.6791203006
 20
17.9441592024
  0
LWPOLYLINE
  5
3BA
100
AcDbEntity
  8
RACCORDO
100
AcDbPolyline
 62
250
  6
CONTINUOUS
 90
25
 70
0
 10
-0.1946827737
 20
19.0862869474
 10
-0.1929076749
 20
19.1425448489
 10
-0.1883074593
 20
19.1992163499
 10
-0.180882127
 20
19.2563014504
 10
-0.1705836415
 20
19.3138399094
 10
-0.1574600393
 20
19.3717919679
 10
-0.1416554302
 20
19.4300383491
 10
-0.1231255717
 20
19.4887978898
 10
-0.1019147063
 20
19.5478517532
 10
-0.0782996717
 20
19.6064241526
 10
-0.052247808
 20
19.6644985373
 10
-0.0237917751
 20
19.722091458
 10
0.0066936102
 20
19.7784767794
 10
0.0390856187
 20
19.8334712177
 10
0.0735069795
 20
19.8872580568
 10
0.1099510642
 20
19.9396610121
 10
0.1485381677
 20
19.990885443
 10
0.189147995
 20
20.0407259902
 10
0.2314130316
 20
20.0883902916
 10
0.275455351
 20
20.1339335039
 10
0.3211528797
 20
20.1773004703
 10
0.3677718832
 20
20.2175333587
 10
0.4150677832
 20
20.2543128916
 10
0.463285158
 20
20.2879583465
 10
0.5124240075
 20
20.3184697233
  0
LWPOLYLINE
  5
3BB
100
AcDbEntity
  8
0
100
AcDbPolyline
 62
250
  6
CONTINUOUS
 90
16
 70
0
 10
0.5508919233
 20
16.1447515995
 10
0.5518481475
 20
16.1665056061
 10
0.5547056569
 20
16.1891235426
 10
0.5594323339
 20
16.212360342
 10
0.5659714897
 20
16.2359504503
 10
0.5742536593
 20
16.2596527543
 10
0.5842075186
 20
16.2832532789
 10
0.5957595446
 20
16.3065453193
 10
0.6087708966
 20
16.3292208652
 10
0.6230351514
 20
16.3509278434
 10
0.638370823
 20
16.3714213679
 10
0.6546153984
 20
16.3905131564
 10
0.6715527225
 20
16.4079799443
 10
0.6889810425
 20
16.4236519833
 10
0.7067208665
 20
16.4374046853
 10
0.7245834398
 20
16.4491253854
  0
LWPOLYLINE
  5
3BC
100
AcDbEntity
  8
0
100
AcDbPolyline
 62
250
  6
CONTINUOUS
 90
7
 70
0
 10
11.9247495092
 20
11.0431022372
 10
11.9414796851
 20
11.0544960513
 10
11.9555226416
 20
11.0670414659
 10
11.9666433995
 20
11.080528565
 10
11.9746558751
 20
11.0947316753
 10
11.9794259942
 20
11.109413142
 10
11.9808815491
 20
11.1233197142
  0
LWPOLYLINE
  5
3BD
100
AcDbEntity
  8
0
100
AcDbPolyline
 62
250
  6
CONTINUOUS
 90
7
 70
0
 10
11.9247495092
 20
10.7226106676
 10
11.9414797243
 20
10.7340044913
 10
11.9555227001
 20
10.7465499187
 10
11.9666434597
 20
10.7600370309
 10
11.974655923
 20
10.7742401525
 10
11.9794260198
 20
10.7889216268
 10
11.9808815491
 20
10.802828075
  0
LWPOLYLINE
  5
3BE
100
AcDbEntity
  8
0
100
AcDbPolyline
 62
250
  6
CONTINUOUS
 90
22
 70
0
 10
6.1820076558
 20
6.062729355
 10
6.1224521485
 20
6.0223941605
 10
6.0634454783
 20
5.9775406068
 10
6.0052683955
 20
5.9283985221
 10
5.9481906758
 20
5.8752271658
 10
5.8924900245
 20
5.8182887778
 10
5.8384515936
 20
5.7578451468
 10
5.7863293779
 20
5.6941947573
 10
5.7363746384
 20
5.6276620571
 10
5.6888551364
 20
5.5585697321
 10
5.6439989143
 20
5.4872649129
 10
5.6020161752
 20
5.414103828
 10
5.5631286075
 20
5.3394390159
 10
5.5275218365
 20
5.2636414507
 10
5.4953633601
 20
5.1870907264
 10
5.466824135
 20
5.1101600424
 10
5.4420424997
 20
5.0332362367
 10
5.421131142
 20
4.9566971468
 10
5.4041976357
 20
4.8809021071
 10
5.3913268629
 20
4.8062206043
 10
5.3825782657
 20
4.7330300225
 10
5.3779945271
 20
4.6616933689
  0
LWPOLYLINE
  5
3BF
100
AcDbEntity
  8
0
100
AcDbPolyline
 62
250
  6
CONTINUOUS
 90
22
 70
0
 10
6.5446884984
 20
5.456326374
 10
6.5089570883
 20
5.4332055199
 10
6.4738236366
 20
5.4076854092
 10
6.4392881433
 20
5.3797660417
 10
6.4051690197
 20
5.3492758463
 10
6.3716478545
 20
5.3163863942
 10
6.3392694137
 20
5.2816123988
 10
6.3080673728
 20
5.2449368333
 10
6.2780080563
 20
5.2063767245
 10
6.249535204
 20
5.1664978666
 10
6.2226714654
 20
5.1252783826
 10
6.197394191
 20
5.0827401495
 10
6.174079172
 20
5.0395145916
 10
6.1527562845
 20
4.9955904871
 10
6.1333956524
 20
4.9509790579
 10
6.1162834395
 20
4.9063453942
 10
6.1014537375
 20
4.8616731478
 10
6.0888724546
 20
4.8169786669
 10
6.07872348
 20
4.772976086
 10
6.0710681098
 20
4.7299034501
 10
6.0658450479
 20
4.6875227142
 10
6.0630542942
 20
4.6458338784
  0
LINE
  5
3C0
100
AcDbEntity
  8
0
100
AcDbLine
 62
250
  6
CONTINUOUS
 10
6.1820076627
 20
6.0627293593
 11
10.4034302593
 21
8.6246660983
  0
LINE
  5
3C1
100
AcDbEntity
  8
0
100
AcDbLine
 62
250
  6
CONTINUOUS
 10
11.7200664893
 20
8.5972085553
 11
6.5446884984
 21
5.456326374
  0
LWPOLYLINE
  5
3C2
100
AcDbEntity
  8
0
100
AcDbPolyline
 62
7
  6
CONTINUOUS
 90
7
 70
0
 10
10.464062348
 20
8.6526333015
 10
10.4548953063
 20
8.6472470616
 10
10.4453203684
 20
8.6421363545
 10
10.4353612683
 20
8.6373125723
 10
10.4250426927
 20
8.6327864112
 10
10.4143902206
 20
8.6285678445
 10
10.4034302593
 20
8.6246660983
  0
LINE
  5
3C3
100
AcDbEntity
  8
0
100
AcDbLine
 62
250
  6
CONTINUOUS
 10
12.061331133
 20
9.6106996024
 11
11.3665157604
 21
9.2095826137
  0
LINE
  5
3C4
100
AcDbEntity
  8
0
100
AcDbLine
 62
250
  6
CONTINUOUS
 10
12.4148306757
 20
8.9984204346
 11
11.7200664893
 21
8.5972709235
  0
LWPOLYLINE
  5
3C5
100
AcDbEntity
  8
0
100
AcDbPolyline
 62
250
  6
CONTINUOUS
 90
16
 70
0
 10
6.0630542942
 20
4.6458338784
 10
6.0248883715
 20
4.6286791447
 10
5.9836228551
 20
4.6138192989
 10
5.9396757239
 20
4.6014048565
 10
5.8934921191
 20
4.5915615637
 10
5.845539835
 20
4.5843891233
 10
5.7963045812
 20
4.5799601851
 10
5.7462850621
 20
4.5783196098
 10
5.6959879263
 20
4.5794840148
 10
5.645922634
 20
4.5834416059
 10
5.5965962975
 20
4.5901522965
 10
5.5485085439
 20
4.5995481141
 10
5.5021464547
 20
4.6115338881
 10
5.4579796323
 20
4.6259882146
 10
5.416455443
 20
4.6427646855
 10
5.3779944859
 20
4.6616933715
  0
LWPOLYLINE
  5
3C6
100
AcDbEntity
  8
RACCORDO
100
AcDbPolyline
 62
250
  6
CONTINUOUS
 90
15
 70
0
 10
-21.7425434245
 20
-1.15220796
 10
-21.6960023803
 20
-1.15448479
 10
-21.6500323723
 20
-1.1592592301
 10
-21.6050345567
 20
-1.1664896163
 10
-21.5614016056
 20
-1.1761128528
 10
-21.519514281
 20
-1.1880449627
 10
-21.4797381116
 20
-1.2021818207
 10
-21.4424202031
 20
-1.2184000619
 10
-21.4078862093
 20
-1.2365581581
 10
-21.3764374902
 20
-1.2564976534
 10
-21.3483484822
 20
-1.278044546
 10
-21.3238643034
 20
-1.3010108077
 10
-21.3031986143
 20
-1.325196024
 10
-21.2865317536
 20
-1.3503891431
 10
-21.2740091642
 20
-1.3763703179
  0
LWPOLYLINE
  5
3C7
100
AcDbEntity
  8
RACCORDO
100
AcDbPolyline
 62
250
  6
CONTINUOUS
 90
16
 70
0
 10
-13.2509394476
 20
6.3269649378
 10
-13.2311530115
 20
6.3162064096
 10
-13.2113777175
 20
6.3068252252
 10
-13.1916738294
 20
6.2988464806
 10
-13.172110128
 20
6.2922821833
 10
-13.152734888
 20
6.287158292
 10
-13.1335752543
 20
6.283513053
 10
-13.1146871295
 20
6.2813494339
 10
-13.0961213015
 20
6.2806742769
 10
-13.0778924906
 20
6.2815200528
 10
-13.0600216279
 20
6.2838780144
 10
-13.0425802944
 20
6.2877386732
 10
-13.0256408265
 20
6.2930977671
 10
-13.0092359044
 20
6.2999104768
 10
-12.9933731434
 20
6.3081204769
 10
-12.9780679778
 20
6.3176763617
  0
LINE
  5
3C8
100
AcDbEntity
  8
RACCORDO
100
AcDbLine
 62
250
  6
CONTINUOUS
 10
-13.0074840768
 20
6.5281997552
 11
-12.981377085
 21
6.5136983973
  0
LWPOLYLINE
  5
3C9
100
AcDbEntity
  8
RACCORDO
100
AcDbPolyline
 62
250
  6
CONTINUOUS
 90
10
 70
0
 10
-12.9259284142
 20
6.3114435472
 10
-12.9326414971
 20
6.3151978521
 10
-12.9392574709
 20
6.3182262836
 10
-12.9457164997
 20
6.3205014508
 10
-12.951960167
 20
6.3220027755
 10
-12.9579320034
 20
6.3227166781
 10
-12.9635779976
 20
6.3226367007
 10
-12.9688470857
 20
6.3217635657
 10
-12.9736916122
 20
6.320105169
 10
-12.9780677617
 20
6.3176765083
  0
LINE
  5
3CA
100
AcDbEntity
  8
RACCORDO
100
AcDbLine
 62
250
  6
CONTINUOUS
 10
-13.0341094449
 20
6.543163448
 11
-13.0074840768
 21
6.5281997552
  0
LWPOLYLINE
  5
3CB
100
AcDbEntity
  8
RACCORDO
100
AcDbPolyline
 62
250
  6
CONTINUOUS
 90
39
 70
0
 10
-12.981377085
 20
6.5136983973
 10
-12.9627587616
 20
6.5032016855
 10
-12.9569215913
 20
6.4997790759
 10
-12.9513005264
 20
6.496374945
 10
-12.9458773086
 20
6.4929943932
 10
-12.9407567443
 20
6.4895555069
 10
-12.9359261409
 20
6.4860068304
 10
-12.931360397
 20
6.4823766401
 10
-12.9271455063
 20
6.4786665895
 10
-12.9233242287
 20
6.4748053912
 10
-12.9198670962
 20
6.4707849954
 10
-12.9167625478
 20
6.4666813764
 10
-12.9140634084
 20
6.4624543539
 10
-12.9117749703
 20
6.4580581727
 10
-12.9098084642
 20
6.4535748753
 10
-12.9081852479
 20
6.4489961708
 10
-12.9069456347
 20
6.4442730185
 10
-12.9060105446
 20
6.4394545398
 10
-12.9053901844
 20
6.4345442013
 10
-12.905127681
 20
6.4295074637
 10
-12.9051794547
 20
6.4243588482
 10
-12.9055570723
 20
6.419109033
 10
-12.9062988035
 20
6.4137344188
 10
-12.9073987937
 20
6.4082133428
 10
-12.9088760345
 20
6.402556903
 10
-12.9107691734
 20
6.3967564208
 10
-12.9131107464
 20
6.3907720799
 10
-12.9159446524
 20
6.3845921602
 10
-12.919303837
 20
6.3782484956
 10
-12.9232083069
 20
6.3717738728
 10
-12.9277412927
 20
6.3651159649
 10
-12.9328954498
 20
6.3583638894
 10
-12.9385100178
 20
6.3517527251
 10
-12.9445855194
 20
6.3452817435
 10
-12.9511027167
 20
6.338968907
 10
-12.9577871705
 20
6.3330450259
 10
-12.9644967743
 20
6.3275700589
 10
-12.9712684809
 20
6.3224544145
 10
-12.9780591474
 20
6.3176834531
  0
LINE
  5
3CC
100
AcDbEntity
  8
RACCORDO
100
AcDbLine
 62
250
  6
CONTINUOUS
 10
-13.062173353
 20
6.5591581453
 11
-13.0341094449
 21
6.543163448
  0
LINE
  5
3CD
100
AcDbEntity
  8
RACCORDO
100
AcDbLine
 62
250
  6
CONTINUOUS
 10
-13.0868041651
 20
6.5733628636
 11
-13.062173353
 21
6.5591581453
  0
LWPOLYLINE
  5
3CE
100
AcDbEntity
  8
RACCORDO
100
AcDbPolyline
 62
250
  6
CONTINUOUS
 90
55
 70
0
 10
-13.0192482614
 20
6.6480637696
 10
-13.0110696176
 20
6.6432828553
 10
-13.0030928088
 20
6.6385238002
 10
-12.9953178534
 20
6.6337869726
 10
-12.9877731331
 20
6.6290894138
 10
-12.9804303
 20
6.6244148487
 10
-12.9732042789
 20
6.6197134423
 10
-12.9660836224
 20
6.6149831416
 10
-12.9590798107
 20
6.6102262425
 10
-12.9521421652
 20
6.6053990598
 10
-12.9452549288
 20
6.600495697
 10
-12.9384338987
 20
6.5955219749
 10
-12.9316757363
 20
6.5904515755
 10
-12.9249475199
 20
6.5852622787
 10
-12.9182822231
 20
6.5799760815
 10
-12.9117753546
 20
6.5746331493
 10
-12.9054390432
 20
6.5692444126
 10
-12.8992612064
 20
6.5637992247
 10
-12.8933010352
 20
6.5583056934
 10
-12.8875682839
 20
6.5527788636
 10
-12.8820532435
 20
6.5472041585
 10
-12.8767859202
 20
6.541545321
 10
-12.8717526223
 20
6.5357867774
 10
-12.8669671033
 20
6.5299444457
 10
-12.8625005454
 20
6.5240293873
 10
-12.8583625381
 20
6.5180388518
 10
-12.854543546
 20
6.5119761683
 10
-12.8510860585
 20
6.5058617048
 10
-12.848002643
 20
6.4997062123
 10
-12.8452807672
 20
6.4934996595
 10
-12.8429252668
 20
6.4872313006
 10
-12.840934828
 20
6.4809062324
 10
-12.8393107944
 20
6.4745199846
 10
-12.8380619938
 20
6.4680474099
 10
-12.8371802492
 20
6.4614907421
 10
-12.8366737688
 20
6.4548482676
 10
-12.8365759676
 20
6.4480888735
 10
-12.8368730058
 20
6.4412181069
 10
-12.8375787568
 20
6.4342308834
 10
-12.8387682177
 20
6.427080134
 10
-12.8404213513
 20
6.419765009
 10
-12.8425582348
 20
6.4122867929
 10
-12.8453140463
 20
6.4046016781
 10
-12.848691471
 20
6.3966714582
 10
-12.8526878594
 20
6.3885348294
 10
-12.8574303572
 20
6.3802635359
 10
-12.8630145588
 20
6.3717728502
 10
-12.8693448199
 20
6.3631481911
 10
-12.8762613145
 20
6.3547167759
 10
-12.8838519984
 20
6.3464921358
 10
-12.8920286736
 20
6.3384614444
 10
-12.9003671856
 20
6.3309124086
 10
-12.9087260568
 20
6.3239410037
 10
-12.9172465095
 20
6.3174514866
 10
-12.9259284315
 20
6.3114438769
  0
LINE
  5
3CF
100
AcDbEntity
  8
RACCORDO
100
AcDbLine
 62
250
  6
CONTINUOUS
 10
-13.1145188317
 20
6.5895263459
 11
-13.0868041651
 21
6.5733628636
  0
LINE
  5
3D0
100
AcDbEntity
  8
RACCORDO
100
AcDbLine
 62
250
  6
CONTINUOUS
 10
-13.1405628024
 20
6.6048780976
 11
-13.1145188317
 21
6.5895263459
  0
LWPOLYLINE
  5
3D1
100
AcDbEntity
  8
RACCORDO
100
AcDbPolyline
 62
250
  6
CONTINUOUS
 90
10
 70
0
 10
-13.5540662977
 20
6.6741506498
 10
-13.5473320017
 20
6.6701409416
 10
-13.5405836145
 20
6.665453391
 10
-13.5338821523
 20
6.6601304078
 10
-13.5272879982
 20
6.6542199496
 10
-13.5208609806
 20
6.6477756375
 10
-13.5146597726
 20
6.6408564305
 10
-13.5087405294
 20
6.6335252544
 10
-13.5031564456
 20
6.6258482737
 10
-13.4979578577
 20
6.6178949509
  0
LWPOLYLINE
  5
3D2
100
AcDbEntity
  8
RACCORDO
100
AcDbPolyline
 62
250
  6
CONTINUOUS
 90
3
 70
0
 10
-13.1744810353
 20
6.6251076945
 10
-13.1660045122
 20
6.6200150333
 10
-13.1405628024
 20
6.6048780976
  0
LWPOLYLINE
  5
3D3
100
AcDbEntity
  8
0
100
AcDbPolyline
 62
7
  6
CONTINUOUS
 90
3
 70
0
 10
-6.4350504969
 20
5.5287606252
 10
-5.9210894313
 20
4.9861900803
 10
-5.4939520519
 20
4.5044376638
  0
LWPOLYLINE
  5
3D4
100
AcDbEntity
  8
0
100
AcDbPolyline
 62
7
  6
CONTINUOUS
 90
12
 70
0
 10
-6.1943146123
 20
5.2911072713
 10
-5.7810229483
 20
4.837035373
 10
-5.3765168207
 20
4.3683782814
 10
-4.9811802324
 20
3.8856560051
 10
-4.5950093149
 20
3.3889567609
 10
-4.2182649884
 20
2.8784959144
 10
-3.8521192223
 20
2.355728357
 10
-3.4978914758
 20
1.8226416092
 10
-3.1564768639
 20
1.2807139157
 10
-2.8281137046
 20
0.7304388377
 10
-2.5130619923
 20
0.1723917891
 10
-2.2117170213
 20
-0.3927174091
  0
LWPOLYLINE
  5
3D5
100
AcDbEntity
  8
0
100
AcDbPolyline
 62
7
  6
CONTINUOUS
 90
18
 70
0
 10
-2.2117170213
 20
-0.3927174091
 10
-1.9247615769
 20
-0.9636262769
 10
-1.652849528
 20
-1.5389229209
 10
-1.3965839248
 20
-2.1171814131
 10
-1.156180342
 20
-2.6977856099
 10
-0.9317045573
 20
-3.2805356165
 10
-0.7234698464
 20
-3.8647036348
 10
-0.5319820552
 20
-4.4489867451
 10
-0.3576176532
 20
-5.0323263271
 10
-0.2007276341
 20
-5.6135954627
 10
-0.0615764696
 20
-6.1918807045
 10
0.0596124882
 20
-6.766440756
 10
0.1626926109
 20
-7.3369414617
 10
0.2472769782
 20
-7.9016661185
 10
0.3129804151
 20
-8.4578638337
 10
0.3597746104
 20
-9.0040408601
 10
0.3877907091
 20
-9.5398914802
 10
0.3971106635
 20
-10.0645513324
  0
LINE
  5
3D6
100
AcDbEntity
  8
0
100
AcDbLine
 62
7
  6
CONTINUOUS
 10
0.4776686186
 20
16.2468202479
 11
0.4776686186
 21
15.1299178363
  0
LINE
  5
3D7
100
AcDbEntity
  8
0
100
AcDbLine
 62
250
  6
CONTINUOUS
 10
0.5508919233
 20
16.1447515995
 11
0.5508919233
 21
15.0247160071
  0
LINE
  5
3D8
100
AcDbEntity
  8
0
100
AcDbLine
 62
7
  6
CONTINUOUS
 10
1.2251836023
 20
23.087988721
 11
1.2251836023
 21
22.8936456524
  0
LINE
  5
3D9
100
AcDbEntity
  8
0
100
AcDbLine
 62
250
  6
CONTINUOUS
 10
2.7720531305
 20
13.7422453637
 11
2.7720531305
 21
14.8622809562
  0
LINE
  5
3DA
100
AcDbEntity
  8
0
100
AcDbLine
 62
250
  6
CONTINUOUS
 10
3.1224944184
 20
13.7509902198
 11
3.1224944184
 21
14.8605151582
  0
LWPOLYLINE
  5
3DB
100
AcDbEntity
  8
0
100
AcDbPolyline
 62
7
  6
CONTINUOUS
 90
20
 70
0
 10
0.3971106635
 20
-10.0645513324
 10
0.3878378868
 20
-10.5770897757
 10
0.3599564931
 20
-11.0792112292
 10
0.3133738378
 20
-11.5699561275
 10
0.2479426375
 20
-12.0489068468
 10
0.1636825831
 20
-12.5145561489
 10
0.060990829
 20
-12.9644763178
 10
-0.0597391179
 20
-13.3973814811
 10
-0.1983653824
 20
-13.813134338
 10
-0.3546550333
 20
-14.2112073867
 10
-0.5283394584
 20
-14.5909933955
 10
-0.7190668546
 20
-14.9517866402
 10
-0.9264517223
 20
-15.2929469117
 10
-1.1499561389
 20
-15.6137189243
 10
-1.3892894946
 20
-15.9137990815
 10
-1.6444745112
 20
-16.1931763061
 10
-1.9153073849
 20
-16.4514559755
 10
-2.2012013538
 20
-16.6879119075
 10
-2.5016299174
 20
-16.9019985782
 10
-2.7564049019
 20
-17.0593519489
  0
LWPOLYLINE
  5
3DC
100
AcDbEntity
  8
0
100
AcDbPolyline
 62
7
  6
CONTINUOUS
 90
18
 70
0
 10
0.3710026512
 20
-9.8346610155
 10
0.3563741314
 20
-10.4665823635
 10
0.312726752
 20
-11.0817485858
 10
0.2404177834
 20
-11.675124314
 10
0.1392119778
 20
-12.2465306967
 10
0.0093445831
 20
-12.7961465853
 10
-0.1481213871
 20
-13.3194731658
 10
-0.3334124556
 20
-13.8162946617
 10
-0.5463020995
 20
-14.2868268494
 10
-0.7850477366
 20
-14.727218245
 10
-1.0498615869
 20
-15.1372214599
 10
-1.3405314303
 20
-15.5170838826
 10
-1.6546780243
 20
-15.8636961957
 10
-1.9924940606
 20
-16.1767854896
 10
-2.3537868474
 20
-16.4566246739
 10
-2.7355990666
 20
-16.7009231588
 10
-3.1380991369
 20
-16.9093892345
 10
-3.2136265172
 20
-16.9435326915
  0
LWPOLYLINE
  5
3DD
100
AcDbEntity
  8
0
100
AcDbPolyline
 62
250
  6
CONTINUOUS
 90
16
 70
0
 10
2.7720531305
 20
14.8622809562
 10
2.7730093548
 20
14.8840349622
 10
2.775866864
 20
14.9066528985
 10
2.780593541
 20
14.9298896979
 10
2.787132697
 20
14.9534798068
 10
2.7954148669
 20
14.9771821117
 10
2.8053687265
 20
15.0007826369
 10
2.8169207525
 20
15.0240746773
 10
2.8299321045
 20
15.0467502229
 10
2.8441963591
 20
15.0684572005
 10
2.8595320301
 20
15.0889507244
 10
2.8757766049
 20
15.1080425122
 10
2.8927139286
 20
15.1255092998
 10
2.9101422486
 20
15.1411813389
 10
2.9278820729
 20
15.1549340414
 10
2.9457446471
 20
15.1666547421
  0
LWPOLYLINE
  5
3DE
100
AcDbEntity
  8
0
100
AcDbPolyline
 62
7
  6
CONTINUOUS
 90
13
 70
0
 10
7.0178063944
 20
12.1957005814
 10
7.0285511468
 20
12.2178938459
 10
7.0373550209
 20
12.2417119273
 10
7.0442180166
 20
12.2671548258
 10
7.049155672
 20
12.2943816291
 10
7.052152449
 20
12.3232332494
 10
7.0531617334
 20
12.3532324231
 10
7.052152449
 20
12.3843970931
 10
7.049155672
 20
12.4167093164
 10
7.0442180166
 20
12.4496380004
 10
7.0373550209
 20
12.4830061143
 10
7.0285511468
 20
12.5169906888
 10
7.0178063944
 20
12.5515917241
  0
LWPOLYLINE
  5
3DF
100
AcDbEntity
  8
0
100
AcDbPolyline
 62
250
  6
CONTINUOUS
 90
13
 70
0
 10
11.9073804045
 20
10.6768714412
 10
11.9099612156
 20
10.6803559148
 10
11.9123568303
 20
10.6839482166
 10
11.9145672487
 20
10.6876483468
 10
11.9166064749
 20
10.6914856791
 10
11.9184605047
 20
10.6954308396
 10
11.9200873261
 20
10.6993957074
 10
11.9214819479
 20
10.7033809776
 10
11.9226493614
 20
10.707385955
 10
11.9235625281
 20
10.7113204334
 10
11.9242124352
 20
10.7151543439
 10
11.9246080956
 20
10.7189177553
 10
11.9247495092
 20
10.7226106676
  0
LWPOLYLINE
  5
3E0
100
AcDbEntity
  8
0
100
AcDbPolyline
 62
7
  6
CONTINUOUS
 90
8
 70
0
 10
11.9209393181
 20
10.6337335566
 10
11.9279687041
 20
10.6430975576
 10
11.9436272885
 20
10.6673797383
 10
11.9570085938
 20
10.6936346572
 10
11.9674058639
 20
10.7205084293
 10
11.9748340538
 20
10.7476527304
 10
11.979433508
 20
10.7759037723
 10
11.9808817444
 20
10.8028595202
  0
LINE
  5
3E1
100
AcDbEntity
  8
0
100
AcDbLine
 62
250
  6
CONTINUOUS
 10
11.3665130987
 20
9.9865135661
 11
11.9073804045
 21
10.6768714412
  0
LINE
  5
3E2
100
AcDbEntity
  8
0
100
AcDbLine
 62
7
  6
CONTINUOUS
 10
11.3665131022
 20
9.9260681981
 11
11.9209484691
 21
10.6337442171
  0
LWPOLYLINE
  5
3E3
100
AcDbEntity
  8
0
100
AcDbPolyline
 62
7
  6
CONTINUOUS
 90
11
 70
0
 10
10.464062348
 20
9.3675375348
 10
10.4404949602
 20
9.344670805
 10
10.4152478563
 20
9.3239982812
 10
10.3886424996
 20
9.3058499548
 10
10.3609804831
 20
9.2905272049
 10
10.3326591522
 20
9.2781745148
 10
10.3041373478
 20
9.2688422676
 10
10.2756876
 20
9.2626274214
 10
10.2477149664
 20
9.2596558692
 10
10.2208630475
 20
9.2599138276
 10
10.2150936061
 20
9.2603972806
  0
LINE
  5
3E4
100
AcDbEntity
  8
0
100
AcDbLine
 62
7
  6
CONTINUOUS
 10
12.4148306757
 20
8.8703649858
 11
16.7495270399
 21
12.3075385098
  0
LWPOLYLINE
  5
3E5
100
AcDbEntity
  8
0
100
AcDbPolyline
 62
7
  6
CONTINUOUS
 90
18
 70
0
 10
-10.2355990666
 20
8.5365120363
 10
-10.7932179716
 20
8.8413081699
 10
-11.3462973268
 20
9.1103887381
 10
-11.8948371322
 20
9.3437537409
 10
-12.4403133115
 20
9.541846217
 10
-12.9812499411
 20
9.7042231278
 10
-13.5132192499
 20
9.8295553567
 10
-14.0361476363
 20
9.9175388494
 10
-14.5501087019
 20
9.9684776602
 10
-15.050895481
 20
9.9819548357
 10
-15.538399842
 20
9.9576628993
 10
-16.0127299164
 20
9.8959093276
 10
-16.4700031332
 20
9.797199597
 10
-16.9100794936
 20
9.6612303797
 10
-17.3330989963
 20
9.4883050034
 10
-17.7355990666
 20
9.2798389277
 10
-18.1174112857
 20
9.0355404428
 10
-18.1854271536
 20
8.9867160572
  0
LINE
  5
3E6
100
AcDbEntity
  8
0
100
AcDbLine
 62
7
  6
CONTINUOUS
 10
-10.6135629689
 20
8.8275366727
 11
-10.1631345056
 21
8.5677638405
  0
LWPOLYLINE
  5
3E7
100
AcDbEntity
  8
0
100
AcDbPolyline
 62
7
  6
CONTINUOUS
 90
8
 70
0
 10
-10.2355990666
 20
8.5365120363
 10
-9.6779801616
 20
8.1973838357
 10
-9.1249008064
 20
7.8277822279
 10
-8.576361001
 20
7.427707213
 10
-8.0308848216
 20
6.9958974701
 10
-7.489948192
 20
6.53361432
 10
-6.9579788832
 20
6.0446417254
 10
-6.4350504969
 20
5.5287606252
  0
LWPOLYLINE
  5
3E8
100
AcDbEntity
  8
0
100
AcDbPolyline
 62
7
  6
CONTINUOUS
 90
10
 70
0
 10
-10.1631345056
 20
8.5677638405
 10
-9.7120333164
 20
8.2856300404
 10
-9.2597288875
 20
7.9805150012
 10
-8.8083631526
 20
7.6535905609
 10
-8.3601147253
 20
7.3063812967
 10
-7.9162754741
 20
6.9399348875
 10
-7.4771199546
 20
6.55454676
 10
-7.0432703237
 20
6.1508402913
 10
-6.6153762263
 20
5.7294064315
 10
-6.1943146123
 20
5.2911072713
  0
LWPOLYLINE
  5
3E9
100
AcDbEntity
  8
RACCORDO
100
AcDbPolyline
 62
7
  6
CONTINUOUS
 90
26
 70
0
 10
-15.0496001325
 20
26.874705501
 10
-15.0506840565
 20
26.8762766513
 10
-15.1064626399
 20
26.9644683783
 10
-15.1584753801
 20
27.0545420537
 10
-15.2069384159
 20
27.1469533329
 10
-15.2516356085
 20
27.2412465605
 10
-15.2919185412
 20
27.3360547705
 10
-15.3277229068
 20
27.4313855362
 10
-15.3591130124
 20
27.5272312844
 10
-15.3856333628
 20
27.6222023296
 10
-15.4072129954
 20
27.7162859782
 10
-15.4239228728
 20
27.8094949239
 10
-15.4355203882
 20
27.900477562
 10
-15.4419310293
 20
27.9892014834
 10
-15.4432293084
 20
28.0756990973
 10
-15.4393961548
 20
28.1587160261
 10
-15.4303567696
 20
28.2382015612
 10
-15.4161859518
 20
28.3142064113
 10
-15.3970890272
 20
28.3856283249
 10
-15.372994186
 20
28.4524005122
 10
-15.3439732381
 20
28.5145897631
 10
-15.3104469386
 20
28.5712941954
 10
-15.2723496121
 20
28.6224338621
 10
-15.2297469339
 20
28.6680887102
 10
-15.1832566857
 20
28.7075966987
 10
-15.132779551
 20
28.7408928036
  0
LWPOLYLINE
  5
3EA
100
AcDbEntity
  8
0
100
AcDbPolyline
 62
250
  6
CONTINUOUS
 90
6
 70
0
 10
11.9145847425
 20
-28.0367573851
 10
11.9065622837
 20
-28.0131689699
 10
11.8961192834
 20
-27.9911951459
 10
11.8834324472
 20
-27.9712077315
 10
11.8687164488
 20
-27.9535449331
 10
11.852220297
 20
-27.9385056223
  0
LWPOLYLINE
  5
3EB
100
AcDbEntity
  8
0
100
AcDbPolyline
 62
250
  6
CONTINUOUS
 90
22
 70
0
 10
6.0630544382
 20
-29.4119974967
 10
6.0658452554
 20
-29.450628074
 10
6.0710683649
 20
-29.4872851389
 10
6.0787237667
 20
-29.5219686915
 10
6.088872752
 20
-29.5548496088
 10
6.1014540295
 20
-29.5857570137
 10
6.1162837262
 20
-29.6141782753
 10
6.133395939
 20
-29.6400596833
 10
6.1527565709
 20
-29.6634549479
 10
6.1740794583
 20
-29.6840125687
 10
6.197394477
 20
-29.7016885848
 10
6.2226717512
 20
-29.716526957
 10
6.2495354895
 20
-29.7283080684
 10
6.2780083415
 20
-29.7369852218
 10
6.3080676576
 20
-29.7426051143
 10
6.339269698
 20
-29.74508822
 10
6.3716481383
 20
-29.7443806089
 10
6.4051693029
 20
-29.740536211
 10
6.4392884259
 20
-29.7336372893
 10
6.4738239186
 20
-29.723711265
 10
6.5089573698
 20
-29.7107307168
 10
6.5446887792
 20
-29.6946956449
  0
LWPOLYLINE
  5
3EC
100
AcDbEntity
  8
0
100
AcDbPolyline
 62
250
  6
CONTINUOUS
 90
12
 70
0
 10
5.3779947797
 20
-29.430726067
 10
5.3825785169
 20
-29.4966865856
 10
5.3913271136
 20
-29.5596902619
 10
5.4041978864
 20
-29.6194281044
 10
5.4211313934
 20
-29.6756066358
 10
5.4420427522
 20
-29.7279533272
 10
5.4668243887
 20
-29.7762154561
 10
5.4953636151
 20
-29.8201604848
 10
5.5275220929
 20
-29.859568898
 10
5.5631288654
 20
-29.8942378981
 10
5.6020164347
 20
-29.9239997941
 10
5.6350895144
 20
-29.9440297076
  0
LWPOLYLINE
  5
3ED
100
AcDbEntity
  8
0
100
AcDbPolyline
 62
250
  6
CONTINUOUS
 90
16
 70
0
 10
3.1224944184
 20
14.8605151582
 10
3.1212154788
 20
14.8822296258
 10
3.1180485761
 20
14.9048434717
 10
3.1130283935
 20
14.9281090298
 10
3.1062099102
 20
14.9517715
 10
3.0976678021
 20
14.9755717281
 10
3.0874956261
 20
14.9992490446
 10
3.0758047915
 20
15.022544132
 10
3.0627233353
 20
15.0452018683
 10
3.0483945238
 20
15.0669741113
 10
3.0329752856
 20
15.0876224129
 10
3.0166344921
 20
15.106920634
 10
2.999551105
 20
15.1246574241
 10
2.9819122199
 20
15.1406385313
 10
2.9639110178
 20
15.1546889304
 10
2.9457446471
 20
15.1666547421
  0
LWPOLYLINE
  5
3EE
100
AcDbEntity
  8
0
100
AcDbPolyline
 62
7
  6
CONTINUOUS
 90
16
 70
0
 10
3.3054957931
 20
14.966177508
 10
3.3045466175
 20
14.9879129398
 10
3.3016772716
 20
15.0106063776
 10
3.2968990112
 20
15.0340220556
 10
3.2902173757
 20
15.0580010808
 10
3.2817005071
 20
15.0821935707
 10
3.2715427484
 20
15.1060611261
 10
3.2599952893
 20
15.129148727
 10
3.2471353337
 20
15.1514228234
 10
3.2329145283
 20
15.1729671658
 10
3.2173233234
 20
15.1936981235
 10
3.2006301836
 20
15.213170649
 10
3.18320421
 20
15.2309472276
 10
3.1653143454
 20
15.2467938938
 10
3.1470954301
 20
15.2606263958
 10
3.1287460218
 20
15.2723170919
  0
LINE
  5
3EF
100
AcDbEntity
  8
0
100
AcDbLine
 62
7
  6
CONTINUOUS
 10
3.3054957931
 20
13.8639115463
 11
3.3054957931
 21
14.966177508
  0
LINE
  5
3F0
100
AcDbEntity
  8
0
100
AcDbLine
 62
7
  6
CONTINUOUS
 10
4.0002599795
 20
14.2778875882
 11
4.0002599795
 21
15.3673270192
  0
LINE
  5
3F1
100
AcDbEntity
  8
0
100
AcDbLine
 62
7
  6
CONTINUOUS
 10
4.1899792198
 20
14.1033786329
 11
4.1899792198
 21
12.9864762213
  0
LINE
  5
3F2
100
AcDbEntity
  8
0
100
AcDbLine
 62
250
  6
CONTINUOUS
 10
4.2632025245
 20
14.0013099846
 11
4.2632025245
 21
12.8812743921
  0
LINE
  5
3F3
100
AcDbEntity
  8
0
100
AcDbLine
 62
250
  6
CONTINUOUS
 10
5.3140057029
 20
18.3163035847
 11
5.3139616595
 21
17.2140121927
  0
LINE
  5
3F4
100
AcDbEntity
  8
0
100
AcDbLine
 62
7
  6
CONTINUOUS
 10
5.422203935
 20
18.4697132421
 11
5.4222039613
 21
17.3649089347
  0
LWPOLYLINE
  5
3F5
100
AcDbEntity
  8
0
100
AcDbPolyline
 62
250
  6
CONTINUOUS
 90
10
 70
0
 10
5.3779944836
 20
4.6616933504
 10
5.2523546887
 20
0.8050209373
 10
5.1581011971
 20
-3.0353294124
 10
5.0952537227
 20
-6.8590093038
 10
5.063826839
 20
-10.6657174728
 10
5.0638269338
 20
-14.4550678923
 10
5.0952539773
 20
-18.2265890324
 10
5.1581015247
 20
-21.9799022764
 10
5.2523549489
 20
-25.7147232225
 10
5.3779944807
 20
-29.4307262761
  0
LWPOLYLINE
  5
3F6
100
AcDbEntity
  8
0
100
AcDbPolyline
 62
250
  6
CONTINUOUS
 90
10
 70
0
 10
6.0630542942
 20
4.6458338784
 10
5.9361438335
 20
0.7932460722
 10
5.8409609929
 20
-3.0425339681
 10
5.7775057723
 20
-6.8615062426
 10
5.7457781729
 20
-10.6640551702
 10
5.7457781935
 20
-14.4497963319
 10
5.7775058306
 20
-18.2175764711
 10
5.8409610832
 20
-21.9670111689
 10
5.9361439524
 20
-25.6984848441
 10
6.0630544382
 20
-29.4119974967
  0
LWPOLYLINE
  5
3F7
100
AcDbEntity
  8
0
100
AcDbPolyline
 62
250
  6
CONTINUOUS
 90
16
 70
0
 10
4.2632025245
 20
14.0013099846
 10
4.2641587488
 20
14.0230639912
 10
4.2670162581
 20
14.0456819277
 10
4.2717429352
 20
14.068918727
 10
4.278282091
 20
14.0925088353
 10
4.2865642606
 20
14.1162111393
 10
4.2965181199
 20
14.1398116639
 10
4.3080701458
 20
14.1631037043
 10
4.3210814979
 20
14.1857792503
 10
4.3353457527
 20
14.2074862284
 10
4.3506814242
 20
14.227979753
 10
4.3669259997
 20
14.2470715415
 10
4.3838633238
 20
14.2645383294
 10
4.4012916437
 20
14.2802103683
 10
4.4190314677
 20
14.2939630703
 10
4.436894041
 20
14.3056837705
  0
LWPOLYLINE
  5
3F8
100
AcDbEntity
  8
0
100
AcDbPolyline
 62
250
  6
CONTINUOUS
 90
16
 70
0
 10
6.4843637317
 20
12.7188393412
 10
6.485319956
 20
12.7405933473
 10
6.4881774652
 20
12.7632112835
 10
6.4929041422
 20
12.7864480829
 10
6.4994432982
 20
12.8100381918
 10
6.5077254681
 20
12.8337404967
 10
6.5176793277
 20
12.8573410219
 10
6.5292313538
 20
12.8806330623
 10
6.5422427057
 20
12.9033086079
 10
6.5565069603
 20
12.9250155856
 10
6.5718426313
 20
12.9455091094
 10
6.5880872061
 20
12.9646008972
 10
6.6050245298
 20
12.9820676848
 10
6.6224528498
 20
12.9977397239
 10
6.6401926742
 20
13.0114924264
 10
6.6580552483
 20
13.0232131271
  0
LWPOLYLINE
  5
3F9
100
AcDbEntity
  8
0
100
AcDbPolyline
 62
250
  6
CONTINUOUS
 90
11
 70
0
 10
9.7272545438
 20
9.4394734712
 10
9.7167427777
 20
9.4166132068
 10
9.7040580227
 20
9.3955453436
 10
9.6894149171
 20
9.3766263699
 10
9.6730612364
 20
9.3601764133
 10
9.6552737006
 20
9.3464738229
 10
9.6363532921
 20
9.3357504596
 10
9.6166201625
 20
9.3281877733
 10
9.5964082153
 20
9.3239137317
 10
9.5760594563
 20
9.323000656
 10
9.5692073207
 20
9.3234568002
  0
LWPOLYLINE
  5
3FA
100
AcDbEntity
  8
0
100
AcDbPolyline
 62
250
  6
CONTINUOUS
 90
4
 70
0
 10
-19.5035252751
 20
18.8341446109
 10
-21.3718561487
 20
19.9654048469
 10
-23.290431474
 20
21.1374674995
 10
-25.2583954111
 20
22.3507609367
  0
LWPOLYLINE
  5
3FB
100
AcDbEntity
  8
ASSI
100
AcDbPolyline
 62
7
  6
CONTINUOUS
 90
17
 70
0
 10
-14.1183893878
 20
27.6735547316
 10
-14.1500376381
 20
27.7149972963
 10
-14.1827846431
 20
27.7535885661
 10
-14.2166304029
 20
27.7893285411
 10
-14.2518478383
 20
27.8224446655
 10
-14.2881640286
 20
27.8527094949
 10
-14.3247602104
 20
27.8794406968
 10
-14.3616427443
 20
27.9025580008
 10
-14.3988052697
 20
27.9221416772
 10
-14.4354099428
 20
27.9377502042
 10
-14.4714440913
 20
27.9492932818
 10
-14.5069203873
 20
27.95686121
 10
-14.5410390037
 20
27.9602833668
 10
-14.5737690991
 20
27.9594655763
 10
-14.6051415148
 20
27.9545020144
 10
-14.634448947
 20
27.9455045866
 10
-14.6617257169
 20
27.9323345984
  0
LINE
  5
3FC
100
AcDbEntity
  8
ASSI
100
AcDbLine
 62
7
  6
CONTINUOUS
 10
-14.605085133
 20
27.1519907995
 11
-14.5912342528
 21
27.1327949832
  0
LINE
  5
3FD
100
AcDbEntity
  8
ASSI
100
AcDbLine
 62
7
  6
CONTINUOUS
 10
-14.2515317425
 20
27.3561280962
 11
-14.2350825531
 21
27.3333313054
  0
LINE
  5
3FE
100
AcDbEntity
  8
ASSI
100
AcDbLine
 62
7
  6
CONTINUOUS
 10
-13.977535671
 20
27.4783467709
 11
-14.1183893878
 21
27.6735547316
  0
LINE
  5
3FF
100
AcDbEntity
  8
RACCORDO
100
AcDbLine
 62
7
  6
CONTINUOUS
 10
-13.7744002669
 20
28.0938767028
 11
-13.5172617346
 21
27.7375106118
  0
LINE
  5
400
100
AcDbEntity
  8
RACCORDO
100
AcDbLine
 62
7
  6
CONTINUOUS
 10
-13.4208468763
 20
28.2980139995
 11
-13.1611100348
 21
27.938046934
  0
LWPOLYLINE
  5
401
100
AcDbEntity
  8
0
100
AcDbPolyline
 62
250
  6
CONTINUOUS
 90
16
 70
0
 10
6.5446884984
 20
5.456326374
 10
6.5408247748
 20
5.4989613512
 10
6.5332391532
 20
5.5434204494
 10
6.5220145552
 20
5.5892174521
 10
6.5072737056
 20
5.6358514935
 10
6.4891777835
 20
5.68281256
 10
6.4679246552
 20
5.7295870689
 10
6.4437467192
 20
5.7756634587
 10
6.4169083838
 20
5.8205377608
 10
6.3877031688
 20
5.8637191384
 10
6.3564504643
 20
5.9047352985
 10
6.3234920804
 20
5.9431375939
 10
6.2891885316
 20
5.9785059223
 10
6.253915022
 20
6.0104534091
 10
6.2180573331
 20
6.0386306249
 10
6.1820076572
 20
6.0627293559
  0
LWPOLYLINE
  5
402
100
AcDbEntity
  8
0
100
AcDbPolyline
 62
250
  6
CONTINUOUS
 90
16
 70
0
 10
6.8348050196
 20
12.7170735432
 10
6.83352608
 20
12.7387880108
 10
6.8303591773
 20
12.7614018567
 10
6.8253389947
 20
12.7846674149
 10
6.8185205114
 20
12.808329885
 10
6.8099784033
 20
12.8321301131
 10
6.7998062273
 20
12.8558074297
 10
6.7881153927
 20
12.8791025171
 10
6.7750339366
 20
12.9017602533
 10
6.7607051251
 20
12.9235324963
 10
6.7452858869
 20
12.9441807979
 10
6.7289450934
 20
12.9634790191
 10
6.7118617062
 20
12.9812158092
 10
6.6942228211
 20
12.9971969164
 10
6.676221619
 20
13.0112473155
 10
6.6580552483
 20
13.0232131271
  0
LWPOLYLINE
  5
403
100
AcDbEntity
  8
0
100
AcDbPolyline
 62
7
  6
CONTINUOUS
 90
11
 70
0
 10
7.3058356538
 20
10.7402643828
 10
7.3070996807
 20
10.7150172846
 10
7.3109642645
 20
10.6902656223
 10
7.3173892202
 20
10.6662812139
 10
7.3262348803
 20
10.6434603382
 10
7.3373762045
 20
10.6219696612
 10
7.350728553
 20
10.6019158482
 10
7.3660697667
 20
10.5835864262
 10
7.3831671723
 20
10.567185867
 10
7.4019317144
 20
10.5527636345
 10
7.4161747593
 20
10.5438008778
  0
LWPOLYLINE
  5
404
100
AcDbEntity
  8
0
100
AcDbPolyline
 62
7
  6
CONTINUOUS
 90
16
 70
0
 10
7.0178063944
 20
12.8227358931
 10
7.0168572187
 20
12.8444713248
 10
7.0139878728
 20
12.8671647626
 10
7.0092096124
 20
12.8905804407
 10
7.0025279769
 20
12.9145594659
 10
6.9940111084
 20
12.9387519557
 10
6.9838533496
 20
12.9626195111
 10
6.9723058905
 20
12.985707112
 10
6.9594459349
 20
13.0079812084
 10
6.9452251296
 20
13.0295255508
 10
6.9296339247
 20
13.0502565086
 10
6.9129407848
 20
13.0697290341
 10
6.8955148112
 20
13.0875056127
 10
6.8776249466
 20
13.1033522788
 10
6.8594060313
 20
13.1171847808
 10
6.841056623
 20
13.128875477
  0
LWPOLYLINE
  5
405
100
AcDbEntity
  8
0
100
AcDbPolyline
 62
7
  6
CONTINUOUS
 90
22
 70
0
 10
5.4221965428
 20
18.4697162219
 10
5.4212127786
 20
18.4936724006
 10
5.4166539589
 20
18.5264850268
 10
5.4082992032
 20
18.5590548947
 10
5.3960786556
 20
18.591042895
 10
5.3801104018
 20
18.6218259524
 10
5.3603287804
 20
18.6512610531
 10
5.3365545726
 20
18.679188929
 10
5.3091721491
 20
18.7048606818
 10
5.2789459674
 20
18.727574695
 10
5.2460396378
 20
18.7472997412
 10
5.2106555048
 20
18.7639701322
 10
5.173565041
 20
18.7773165647
 10
5.1345232826
 20
18.7874749676
 10
5.093736613
 20
18.7943239151
 10
5.0526655739
 20
18.7976242473
 10
5.0112525344
 20
18.7974420485
 10
4.9694878189
 20
18.7936555913
 10
4.9289009672
 20
18.7863445642
 10
4.8899113312
 20
18.7756073826
 10
4.8520242195
 20
18.761191723
 10
4.8238171598
 20
18.7474518804
  0
LWPOLYLINE
  5
406
100
AcDbEntity
  8
0
100
AcDbPolyline
 62
250
  6
CONTINUOUS
 90
16
 70
0
 10
7.3644139563
 20
10.6582287958
 10
7.364559885
 20
10.6500111101
 10
7.3650144652
 20
10.6417398389
 10
7.3658038057
 20
10.6334469762
 10
7.3669560385
 20
10.6251552344
 10
7.3684961158
 20
10.6169148505
 10
7.3704404697
 20
10.6087994766
 10
7.3728093536
 20
10.6008476251
 10
7.3756220473
 20
10.5931001892
 10
7.378882669
 20
10.5856289918
 10
7.3826032079
 20
10.5784730775
 10
7.3867940618
 20
10.5716727851
 10
7.3914450157
 20
10.5652930359
 10
7.3965581629
 20
10.5593694285
 10
7.402133795
 20
10.5539375102
 10
7.4081468525
 20
10.5490498846
  0
LINE
  5
407
100
AcDbEntity
  8
0
100
AcDbLine
 62
250
  6
CONTINUOUS
 10
6.4843637317
 20
11.5988037488
 11
6.4843637317
 21
12.7188393412
  0
LINE
  5
408
100
AcDbEntity
  8
0
100
AcDbLine
 62
250
  6
CONTINUOUS
 10
6.8348050196
 20
11.6075486048
 11
6.8348050196
 21
12.7170735432
  0
LINE
  5
409
100
AcDbEntity
  8
RACCORDO
100
AcDbLine
 62
7
  6
CONTINUOUS
 10
6.8763850381
 20
23.9929410632
 11
6.8763850381
 21
22.9891564556
  0
LINE
  5
40A
100
AcDbEntity
  8
0
100
AcDbLine
 62
7
  6
CONTINUOUS
 10
7.0178063944
 20
11.7204699313
 11
7.0178063944
 21
12.8227358931
  0
LINE
  5
40B
100
AcDbEntity
  8
0
100
AcDbLine
 62
7
  6
CONTINUOUS
 10
7.3058353126
 20
11.0389979715
 11
7.3058353126
 21
10.7398837145
  0
LINE
  5
40C
100
AcDbEntity
  8
0
100
AcDbLine
 62
250
  6
CONTINUOUS
 10
7.3644139563
 20
10.9573430528
 11
7.3644139563
 21
10.6582287958
  0
LINE
  5
40D
100
AcDbEntity
  8
0
100
AcDbLine
 62
7
  6
CONTINUOUS
 10
8.020698433
 20
10.1947558764
 11
8.020698433
 21
9.9153283771
  0
LINE
  5
40E
100
AcDbEntity
  8
0
100
AcDbLine
 62
250
  6
CONTINUOUS
 10
8.0939217377
 20
10.1524776579
 11
8.0939217377
 21
9.8101265479
  0
LINE
  5
40F
100
AcDbEntity
  8
0
100
AcDbLine
 62
7
  6
CONTINUOUS
 10
8.2266591699
 20
8.9370706481
 11
8.2266591699
 21
10.0758367285
  0
LINE
  5
410
100
AcDbEntity
  8
0
100
AcDbLine
 62
250
  6
CONTINUOUS
 10
8.2998824746
 20
8.831868819
 11
8.2998824746
 21
10.1181009975
  0
LINE
  5
411
100
AcDbEntity
  8
0
100
AcDbLine
 62
250
  6
CONTINUOUS
 10
8.4934467607
 20
8.7201072261
 11
8.4934467607
 21
10.0063394046
  0
LINE
  5
412
100
AcDbEntity
  8
0
100
AcDbLine
 62
250
  6
CONTINUOUS
 10
8.8438880486
 20
8.7288520822
 11
8.8438880486
 21
9.7194565093
  0
LINE
  5
413
100
AcDbEntity
  8
0
100
AcDbLine
 62
7
  6
CONTINUOUS
 10
12.4148306757
 20
7.8063972169
 11
11.7200664893
 21
7.8623854982
  0
LWPOLYLINE
  5
414
100
AcDbEntity
  8
0
100
AcDbPolyline
 62
250
  6
CONTINUOUS
 90
19
 70
0
 10
6.1820076627
 20
6.0627293593
 10
4.5349735683
 20
6.9502821054
 10
2.8958003051
 20
7.8402811534
 10
1.2644878731
 20
8.7327265032
 10
-0.3565156854
 20
9.6262384892
 10
-1.9696584128
 20
10.522196777
 10
-3.5822844356
 20
11.4247403632
 10
-5.1916161635
 20
12.3321059986
 10
-6.8004311868
 20
13.2460569325
 10
-8.4244064037
 20
14.1760219095
 10
-10.0620798781
 20
15.1208129085
 10
-11.714913546
 20
16.0816179507
 10
-13.4029701139
 20
17.0714298446
 10
-15.1276202163
 20
18.0906338057
 10
-16.8874932187
 20
19.1388446184
 10
-18.6985399244
 20
20.2278994448
 10
-20.5660772679
 20
21.3617440057
 10
-22.4847883146
 20
22.5364325803
 10
-24.4546730646
 20
23.7519651686
  0
LWPOLYLINE
  5
415
100
AcDbEntity
  8
0
100
AcDbPolyline
 62
250
  6
CONTINUOUS
 90
12
 70
0
 10
5.3779944836
 20
4.6616933504
 10
3.7310598039
 20
5.5512515599
 10
2.0919551008
 20
6.4430944194
 10
0.4606778268
 20
7.3371981105
 10
-1.1602879312
 20
8.2321599646
 10
-2.7734496433
 20
9.1293246936
 10
-4.3862208595
 20
10.0328353011
 10
-5.9955926313
 20
10.9410464507
 10
-7.6044477109
 20
11.8556343902
 10
-9.2287882766
 20
12.7858701439
 10
-10.8666636606
 20
13.730883114
 10
-12.5195340888
 20
14.6917813312
  0
LINE
  5
416
100
AcDbEntity
  8
0
100
AcDbLine
 62
250
  6
CONTINUOUS
 10
-12.5195340888
 20
14.6917813312
 11
-14.4578075515
 21
15.828491554
  0
LINE
  5
417
100
AcDbEntity
  8
0
100
AcDbLine
 62
250
  6
CONTINUOUS
 10
-14.4578075515
 20
15.828491554
 11
-16.3214942081
 21
16.9308607058
  0
LINE
  5
418
100
AcDbEntity
  8
0
100
AcDbLine
 62
250
  6
CONTINUOUS
 10
-16.3214942081
 20
16.9308607058
 11
-17.6922229608
 21
17.7468460191
  0
LINE
  5
419
100
AcDbEntity
  8
0
100
AcDbLine
 62
250
  6
CONTINUOUS
 10
-17.6922229608
 20
17.7468460191
 11
-19.5035252751
 21
18.8341446109
  0
LWPOLYLINE
  5
41A
100
AcDbEntity
  8
RACCORDO
100
AcDbPolyline
 62
7
  6
CONTINUOUS
 90
21
 70
0
 10
-13.4208468763
 20
28.2980139995
 10
-13.4834737972
 20
28.3810204457
 10
-13.5481138369
 20
28.4597158578
 10
-13.6147669956
 20
28.5341002359
 10
-13.6837764584
 20
28.6044930871
 10
-13.75479904
 20
28.6705749043
 10
-13.8268051851
 20
28.731387166
 10
-13.8998092799
 20
28.7868531142
 10
-13.9737969381
 20
28.837049507
 10
-14.0476954454
 20
28.8812480973
 10
-14.1215035456
 20
28.919361491
 10
-14.1952224949
 20
28.9514770822
 10
-14.2677833476
 20
28.9771288062
 10
-14.3391692565
 20
28.9962224576
 10
-14.4093970689
 20
29.0088522417
 10
-14.4774483811
 20
29.0148347091
 10
-14.5432914896
 20
29.0140729681
 10
-14.6069580979
 20
29.0066639103
 10
-14.667524912
 20
28.9927147616
 10
-14.7249467591
 20
28.9721301867
 10
-14.7792261604
 20
28.9450301002
  0
LWPOLYLINE
  5
41B
100
AcDbEntity
  8
0
100
AcDbPolyline
 62
250
  6
CONTINUOUS
 90
6
 70
0
 10
-4.0025221722
 20
19.8630497911
 10
-3.9947234091
 20
19.8507619348
 10
-3.9894909478
 20
19.8400393137
 10
-3.986913336
 20
19.8310633697
 10
-3.9870341997
 20
19.8239859913
 10
-3.9889541076
 20
19.8199225669
  0
LWPOLYLINE
  5
41C
100
AcDbEntity
  8
0
100
AcDbPolyline
 62
250
  6
CONTINUOUS
 90
13
 70
0
 10
9.744612972
 20
9.8244378779
 10
9.7430972283
 20
9.8462722481
 10
9.7392311953
 20
9.8691539411
 10
9.7330809891
 20
9.8926916021
 10
9.724751795
 20
9.9164826523
 10
9.7143860653
 20
9.940120183
 10
9.7021610809
 20
9.9631999146
 10
9.6882859236
 20
9.9853271024
 10
9.6729979062
 20
10.0061232802
 10
9.6565585112
 20
10.0252327428
 10
9.6392489129
 20
10.0423286398
 10
9.6213651678
 20
10.057118564
 10
9.603213155
 20
10.0693495451
  0
LWPOLYLINE
  5
41D
100
AcDbEntity
  8
0
100
AcDbPolyline
 62
7
  6
CONTINUOUS
 90
11
 70
0
 10
11.980880685
 20
-28.1335659169
 10
11.9797067764
 20
-28.1095818916
 10
11.9759939776
 20
-28.0851046512
 10
11.9697838101
 20
-28.0613816952
 10
11.9612185149
 20
-28.0387883771
 10
11.9504165117
 20
-28.017488567
 10
11.9374528191
 20
-27.9975757105
 10
11.9225434472
 20
-27.9793237472
 10
11.9059122243
 20
-27.9629263989
 10
11.8876328828
 20
-27.9484226682
 10
11.8705086484
 20
-27.9374552162
  0
LWPOLYLINE
  5
41E
100
AcDbEntity
  8
0
100
AcDbPolyline
 62
7
  6
CONTINUOUS
 90
22
 70
0
 10
11.0313567752
 20
15.2309510789
 10
11.0303426411
 20
15.2553263165
 10
11.0257310596
 20
15.2882014541
 10
11.0173185623
 20
15.3208259464
 10
11.0050269707
 20
15.3528629249
 10
10.9889656919
 20
15.3836780854
 10
10.9690889745
 20
15.4131183684
 10
10.9452394708
 20
15.4410281388
 10
10.9177868596
 20
15.4666606948
 10
10.8874970308
 20
15.4893195762
 10
10.8545578743
 20
15.5089856628
 10
10.8191464005
 20
15.5255868475
 10
10.7820428983
 20
15.5388692599
 10
10.743003182
 20
15.5489626463
 10
10.7022311101
 20
15.5557478673
 10
10.6611981276
 20
15.5589913136
 10
10.6198404727
 20
15.5587583009
 10
10.5781523516
 20
15.5549331831
 10
10.5376550565
 20
15.5475941467
 10
10.4987731652
 20
15.5368550956
 10
10.4610184362
 20
15.5224640084
 10
10.4329489385
 20
15.5087898728
  0
LWPOLYLINE
  5
41F
100
AcDbEntity
  8
0
100
AcDbPolyline
 62
250
  6
CONTINUOUS
 90
13
 70
0
 10
9.7092683094
 20
9.4647989679
 10
9.7094135671
 20
9.4612826997
 10
9.7098214971
 20
9.4579920899
 10
9.7104920994
 20
9.4549271385
 10
9.7114341485
 20
9.4520679853
 10
9.71263887
 20
9.4494344905
 10
9.7140799404
 20
9.447086235
 10
9.7157627522
 20
9.4450294648
 10
9.717681913
 20
9.443257934
 10
9.7197949225
 20
9.441812485
 10
9.7220876142
 20
9.4407067319
 10
9.7245741546
 20
9.4399270607
 10
9.7272545438
 20
9.4394734712
  0
LWPOLYLINE
  5
420
100
AcDbEntity
  8
0
100
AcDbPolyline
 62
250
  6
CONTINUOUS
 90
13
 70
0
 10
11.9247495092
 20
-28.2137751194
 10
11.9246092355
 20
-28.2102617289
 10
11.924215302
 20
-28.2069792005
 10
11.9235677089
 20
-28.2039275343
 10
11.9226579826
 20
-28.2010870439
 10
11.9214945966
 20
-28.1984774157
 10
11.9201029711
 20
-28.1961577091
 10
11.9184778987
 20
-28.1941342769
 10
11.9166245866
 20
-28.1924007663
 10
11.914584077
 20
-28.1909971779
 10
11.9123700504
 20
-28.189936845
 10
11.9099688263
 20
-28.1892064343
 10
11.9073804045
 20
-28.1888059457
  0
LWPOLYLINE
  5
421
100
AcDbEntity
  8
0
100
AcDbPolyline
 62
250
  6
CONTINUOUS
 90
10
 70
0
 10
9.428915279
 20
9.4662116063
 10
9.4295904989
 20
9.4488085694
 10
9.4316104535
 20
9.4323121869
 10
9.4349598214
 20
9.4168479731
 10
9.4396133123
 20
9.4025335368
 10
9.4455355081
 20
9.3894777676
 10
9.4526811734
 20
9.3777800524
 10
9.4609966298
 20
9.3675288989
 10
9.4704184475
 20
9.3588028137
 10
9.4804686417
 20
9.3519043108
  0
LWPOLYLINE
  5
422
100
AcDbEntity
  8
0
100
AcDbPolyline
 62
250
  6
CONTINUOUS
 90
19
 70
0
 10
9.3159034332
 20
18.2123711945
 10
9.3139031681
 20
18.2641805313
 10
9.3080788373
 20
18.3127811945
 10
9.2984304409
 20
18.3581731838
 10
9.2848247343
 20
18.4007036464
 10
9.2673949621
 20
18.4400254353
 10
9.246540858
 20
18.4750971095
 10
9.2221922106
 20
18.5057606125
 10
9.1944192313
 20
18.5321740009
 10
9.1638322883
 20
18.5537700035
 10
9.130373261
 20
18.5704487466
 10
9.0941002698
 20
18.5823101041
 10
9.0557980445
 20
18.5890864261
 10
9.0153619153
 20
18.5906386664
 10
8.9728965518
 20
18.5871058714
 10
8.929500693
 20
18.5786375306
 10
8.8855405852
 20
18.565283474
 10
8.840649982
 20
18.5469938716
 10
8.7948288835
 20
18.5237687234
  0
LWPOLYLINE
  5
423
100
AcDbEntity
  8
0
100
AcDbPolyline
 62
7
  6
CONTINUOUS
 90
13
 70
0
 10
9.3891267379
 20
18.3144398428
 10
9.3867775987
 20
18.3804536809
 10
9.3798550503
 20
18.4433913439
 10
9.3685423349
 20
18.5031334311
 10
9.3529799243
 20
18.5596946973
 10
9.3333644247
 20
18.6128446257
 10
9.3100730361
 20
18.6621067942
 10
9.2835825612
 20
18.7071380831
 10
9.2540889213
 20
18.7481731696
 10
9.2216031792
 20
18.7855082216
 10
9.1862986472
 20
18.8190982239
 10
9.1485917402
 20
18.8487038201
 10
9.1088208122
 20
18.8742453523
  0
LWPOLYLINE
  5
424
100
AcDbEntity
  8
0
100
AcDbPolyline
 62
250
  6
CONTINUOUS
 90
16
 70
0
 10
8.7948288835
 20
18.5237687234
 10
8.7941829713
 20
18.5458469135
 10
8.7916073333
 20
18.5688014958
 10
8.7871301889
 20
18.5923809751
 10
8.7808005905
 20
18.6163270096
 10
8.7726878865
 20
18.6403772417
 10
8.7628809615
 20
18.6642681719
 10
8.7514872621
 20
18.6877380462
 10
8.7386316202
 20
18.7105297238
 10
8.7244548847
 20
18.7323934943
 10
8.7091123791
 20
18.7530898135
 10
8.6927721989
 20
18.7723919284
 10
8.6756133706
 20
18.7900883609
 10
8.65782389
 20
18.8059852252
 10
8.6395986623
 20
18.8199083519
 10
8.621137367
 20
18.8317051964
  0
LINE
  5
425
100
AcDbEntity
  8
0
100
AcDbLine
 62
250
  6
CONTINUOUS
 10
9.3159034332
 20
17.9394215362
 11
9.3159034332
 21
18.2123711945
  0
LINE
  5
426
100
AcDbEntity
  8
0
100
AcDbLine
 62
7
  6
CONTINUOUS
 10
9.3866141113
 20
9.4060932826
 11
9.3866141113
 21
9.0637421726
  0
LINE
  5
427
100
AcDbEntity
  8
0
100
AcDbLine
 62
7
  6
CONTINUOUS
 10
9.3891267379
 20
17.9889572987
 11
9.3891267379
 21
18.3144398428
  0
LINE
  5
428
100
AcDbEntity
  8
0
100
AcDbLine
 62
250
  6
CONTINUOUS
 10
9.428915279
 20
9.7653708451
 11
9.428915279
 21
9.4662116063
  0
LINE
  5
429
100
AcDbEntity
  8
0
100
AcDbLine
 62
250
  6
CONTINUOUS
 10
9.428915279
 20
-29.7692884378
 11
9.428915279
 21
-29.4701739603
  0
LINE
  5
42A
100
AcDbEntity
  8
0
100
AcDbLine
 62
250
  6
CONTINUOUS
 10
9.7092683094
 20
9.763913225
 11
9.7092683094
 21
9.4647989679
  0
LINE
  5
42B
100
AcDbEntity
  8
0
100
AcDbLine
 62
250
  6
CONTINUOUS
 10
9.7092683094
 20
-29.7707010762
 11
9.7092683094
 21
-29.4715868191
  0
LINE
  5
42C
100
AcDbEntity
  8
0
100
AcDbLine
 62
250
  6
CONTINUOUS
 10
10.1136210601
 20
9.2703042368
 11
10.1136210601
 21
8.6439774719
  0
LINE
  5
42D
100
AcDbEntity
  8
0
100
AcDbLine
 62
250
  6
CONTINUOUS
 10
10.1136210601
 20
-28.128533818
 11
10.1136210601
 21
-28.459728863
  0
LINE
  5
42E
100
AcDbEntity
  8
0
100
AcDbLine
 62
250
  6
CONTINUOUS
 10
10.464062348
 20
9.3675375348
 11
10.464062348
 21
8.6526333015
  0
LINE
  5
42F
100
AcDbEntity
  8
0
100
AcDbLine
 62
250
  6
CONTINUOUS
 10
10.464062348
 20
-27.9571851759
 11
10.464062348
 21
-28.532614405
  0
LINE
  5
430
100
AcDbEntity
  8
0
100
AcDbLine
 62
250
  6
CONTINUOUS
 10
10.9231179751
 20
13.9753556353
 11
10.9231179751
 21
14.504556687
  0
LINE
  5
431
100
AcDbEntity
  8
0
100
AcDbLine
 62
250
  6
CONTINUOUS
 10
10.9231179751
 20
14.7150207483
 11
10.9231179751
 21
15.0776215971
  0
LINE
  5
432
100
AcDbEntity
  8
0
100
AcDbLine
 62
7
  6
CONTINUOUS
 10
11.031360277
 20
14.1262523773
 11
11.031360277
 21
15.2309760681
  0
LINE
  5
433
100
AcDbEntity
  8
0
100
AcDbLine
 62
7
  6
CONTINUOUS
 10
11.3665130987
 20
-28.9196056144
 11
11.3665130987
 21
-27.5159309171
  0
LINE
  5
434
100
AcDbEntity
  8
0
100
AcDbLine
 62
7
  6
CONTINUOUS
 10
11.3665131443
 20
9.2095810985
 11
11.3665130987
 21
10.7608995787
  0
LINE
  5
435
100
AcDbEntity
  8
0
100
AcDbLine
 62
7
  6
CONTINUOUS
 10
11.7200664893
 20
8.5972709235
 11
11.7200664893
 21
7.8623854982
  0
LINE
  5
436
100
AcDbEntity
  8
0
100
AcDbLine
 62
7
  6
CONTINUOUS
 10
11.7200664893
 20
-27.1642515524
 11
11.7200664893
 21
-26.4293661271
  0
LWPOLYLINE
  5
437
100
AcDbEntity
  8
0
100
AcDbPolyline
 62
250
  6
CONTINUOUS
 90
22
 70
0
 10
9.7092683094
 20
-29.4715868191
 10
9.7092904889
 20
-29.4698842914
 10
9.7093873709
 20
-29.468103962
 10
9.7095589555
 20
-29.4662458309
 10
9.7098012922
 20
-29.4643045717
 10
9.7101183314
 20
-29.4622855108
 10
9.7105219245
 20
-29.4602046277
 10
9.7110139295
 20
-29.4580598253
 10
9.7115924883
 20
-29.4558532008
 10
9.7122638781
 20
-29.4536070252
 10
9.7130302947
 20
-29.4513196524
 10
9.7138895423
 20
-29.4489927286
 10
9.7148413111
 20
-29.4466534626
 10
9.7158878882
 20
-29.4443009447
 10
9.7170269866
 20
-29.4419360847
 10
9.7182514353
 20
-29.439588821
 10
9.7195633476
 20
-29.4372591599
 10
9.7209606102
 20
-29.4349470952
 10
9.7224297122
 20
-29.4326825464
 10
9.72396615
 20
-29.4304754868
 10
9.7255744272
 20
-29.4283159433
 10
9.7272545438
 20
-29.4262039157
  0
LWPOLYLINE
  5
438
100
AcDbEntity
  8
0
100
AcDbPolyline
 62
250
  6
CONTINUOUS
 90
22
 70
0
 10
9.4289152791
 20
-29.4701739604
 10
9.4290659227
 20
-29.4616733697
 10
9.4295350042
 20
-29.4527702397
 10
9.4303475246
 20
-29.4434675269
 10
9.4315302482
 20
-29.4337569228
 10
9.4331069743
 20
-29.423660493
 10
9.4350932854
 20
-29.4132326706
 10
9.4375081246
 20
-29.4024893485
 10
9.4403692861
 20
-29.391449869
 10
9.4436798724
 20
-29.3801807158
 10
9.4474505658
 20
-29.3687074206
 10
9.4516903302
 20
-29.3570584929
 10
9.4563879732
 20
-29.3453095264
 10
9.4615444606
 20
-29.3334934932
 10
9.4671589055
 20
-29.3216451745
 10
9.4732055504
 20
-29.3098443785
 10
9.4796753401
 20
-29.2981280265
 10
9.4865577402
 20
-29.2865332938
 10
9.4938139626
 20
-29.2751382138
 10
9.5014171696
 20
-29.2639917177
 10
9.5093567101
 20
-29.2531161199
 10
9.5176121916
 20
-29.2425470178
  0
LWPOLYLINE
  5
439
100
AcDbEntity
  8
0
100
AcDbPolyline
 62
250
  6
CONTINUOUS
 90
9
 70
0
 10
6.5446887792
 20
-29.6946956449
 10
6.5408249106
 20
-29.7372130092
 10
6.5332389921
 20
-29.7769750014
 10
6.5220139917
 20
-29.8135467397
 10
6.5072726788
 20
-29.8465282344
 10
6.4891762808
 20
-29.8755587628
 10
6.4679227204
 20
-29.9003208146
 10
6.4437444503
 20
-29.920543564
 10
6.4201391002
 20
-29.9344657684
  0
LINE
  5
43A
100
AcDbEntity
  8
0
100
AcDbLine
 62
7
  6
CONTINUOUS
 10
9.5688888948
 20
9.3234874661
 11
10.2150963178
 21
9.2603970159
  0
LINE
  5
43B
100
AcDbEntity
  8
0
100
AcDbLine
 62
250
  6
CONTINUOUS
 10
9.7272545438
 20
9.4394734712
 11
10.464062348
 21
9.3675375348
  0
LINE
  5
43C
100
AcDbEntity
  8
0
100
AcDbLine
 62
7
  6
CONTINUOUS
 10
12.4456895132
 20
7.7885797109
 11
11.7200664893
 21
7.8623854982
  0
LWPOLYLINE
  5
43D
100
AcDbEntity
  8
0
100
AcDbPolyline
 62
250
  6
CONTINUOUS
 90
16
 70
0
 10
-19.0156225601
 20
25.8051888408
 10
-19.0217291701
 20
25.8090852476
 10
-19.0273726986
 20
25.813400143
 10
-19.0327703645
 20
25.8182897202
 10
-19.0378930901
 20
25.8237655689
 10
-19.0427110902
 20
25.8298370386
 10
-19.047177751
 20
25.8364848789
 10
-19.0512674721
 20
25.843708028
 10
-19.0549549652
 20
25.8515031085
 10
-19.0582039567
 20
25.8598325634
 10
-19.0609952153
 20
25.8686825403
 10
-19.0633106796
 20
25.8780374411
 10
-19.0651275371
 20
25.8878437181
 10
-19.0664339727
 20
25.898064601
 10
-19.0672233508
 20
25.9086852257
 10
-19.0674880028
 20
25.9196777174
  0
LWPOLYLINE
  5
43E
100
AcDbEntity
  8
0
100
AcDbPolyline
 62
250
  6
CONTINUOUS
 90
3
 70
0
 10
-8.5017557242
 20
19.7352282345
 10
-8.4953134679
 20
19.7309129916
 10
-8.4938986601
 20
19.7300772614
  0
LWPOLYLINE
  5
43F
100
AcDbEntity
  8
0
100
AcDbPolyline
 62
250
  6
CONTINUOUS
 90
13
 70
0
 10
-18.8931901269
 20
26.5228156561
 10
-18.8750381946
 20
26.5105847583
 10
-18.8571545125
 20
26.4957949282
 10
-18.8398449566
 20
26.478699126
 10
-18.8234055838
 20
26.4595897522
 10
-18.8081175672
 20
26.4387936469
 10
-18.7942423877
 20
26.4166664996
 10
-18.7820173617
 20
26.3935867651
 10
-18.7716515817
 20
26.3699491913
 10
-18.7633223404
 20
26.346158067
 10
-18.7571720983
 20
26.3226203072
 10
-18.7533060469
 20
26.2997384937
 10
-18.7517903098
 20
26.277903989
  0
LWPOLYLINE
  5
440
100
AcDbEntity
  8
0
100
AcDbPolyline
 62
250
  6
CONTINUOUS
 90
10
 70
0
 10
-21.0803993444
 20
26.9973650106
 10
-21.0907752897
 20
27.0044531287
 10
-21.1001305979
 20
27.0131406526
 10
-21.108387991
 20
27.0233580223
 10
-21.1154843898
 20
27.0350272606
 10
-21.1213655782
 20
27.0480595741
 10
-21.1259869292
 20
27.0623556979
 10
-21.1293132918
 20
27.0778067155
 10
-21.1313191877
 20
27.0942949636
 10
-21.1319893255
 20
27.1116949069
  0
LWPOLYLINE
  5
441
100
AcDbEntity
  8
0
100
AcDbPolyline
 62
250
  6
CONTINUOUS
 90
10
 70
0
 10
-5.1704967677
 20
17.8111866607
 10
-5.180872713
 20
17.8182747788
 10
-5.1902280212
 20
17.8269623027
 10
-5.1984854143
 20
17.8371796725
 10
-5.2055818131
 20
17.8488489107
 10
-5.2114630015
 20
17.8618812242
 10
-5.2160843525
 20
17.876177348
 10
-5.2194107151
 20
17.8916283656
 10
-5.221416611
 20
17.9081166137
 10
-5.2220867488
 20
17.925516557
  0
LWPOLYLINE
  5
442
100
AcDbEntity
  8
0
100
AcDbPolyline
 62
250
  6
CONTINUOUS
 90
16
 70
0
 10
11.9247495092
 20
11.0431022372
 10
11.9245467901
 20
11.0472718571
 10
11.9239925098
 20
11.0510988764
 10
11.9230866685
 20
11.054583295
 10
11.9218122959
 20
11.0577550149
 10
11.9201863622
 20
11.0605841343
 10
11.918259778
 20
11.0629809466
 10
11.9160228317
 20
11.0649315562
 10
11.9134852349
 20
11.0664498588
 10
11.9107270324
 20
11.0674878353
 10
11.907741114
 20
11.0680302512
 10
11.9045345899
 20
11.0680923411
 10
11.9012088355
 20
11.0676717893
 10
11.8977976424
 20
11.0667678239
 10
11.894267219
 20
11.0653812169
 10
11.8906175652
 20
11.0635119682
  0
LWPOLYLINE
  5
443
100
AcDbEntity
  8
0
100
AcDbPolyline
 62
250
  6
CONTINUOUS
 90
13
 70
0
 10
11.8906175652
 20
11.0635119682
 10
11.8897036081
 20
11.0856939331
 10
11.8863446155
 20
11.108868516
 10
11.8805980385
 20
11.1326393469
 10
11.8725621644
 20
11.1565998578
 10
11.8623744362
 20
11.1803402365
 10
11.8502091012
 20
11.2034544358
 10
11.836274231
 20
11.2255471185
 10
11.8208081628
 20
11.2462404189
 10
11.8040754227
 20
11.2651804062
 10
11.7863622017
 20
11.2820431372
 10
11.7679714606
 20
11.2965401978
 10
11.7492177481
 20
11.3084236353
  0
LWPOLYLINE
  5
444
100
AcDbEntity
  8
0
100
AcDbPolyline
 62
7
  6
CONTINUOUS
 90
11
 70
0
 10
11.9808808707
 20
11.1234611841
 10
11.9806907648
 20
11.1329916358
 10
11.9779062156
 20
11.1612906722
 10
11.9718045476
 20
11.1888265111
 10
11.9624637176
 20
11.2152024131
 10
11.9501488782
 20
11.2398421536
 10
11.9350757118
 20
11.2624995676
 10
11.9173575113
 20
11.2830561708
 10
11.8973379199
 20
11.3011509379
 10
11.8754042689
 20
11.3165107221
 10
11.8707402193
 20
11.3192842365
  0
LINE
  5
445
100
AcDbEntity
  8
0
100
AcDbLine
 62
250
  6
CONTINUOUS
 10
11.9247495092
 20
-28.534266689
 11
11.9247495092
 21
-28.2137751194
  0
LINE
  5
446
100
AcDbEntity
  8
0
100
AcDbLine
 62
250
  6
CONTINUOUS
 10
11.9247495092
 20
10.7226106676
 11
11.9247495092
 21
11.0431022372
  0
LINE
  5
447
100
AcDbEntity
  8
0
100
AcDbLine
 62
7
  6
CONTINUOUS
 10
11.9808815491
 20
-28.4540492816
 11
11.9808815491
 21
-28.1335576573
  0
LINE
  5
448
100
AcDbEntity
  8
0
100
AcDbLine
 62
7
  6
CONTINUOUS
 10
11.9808815491
 20
10.802828075
 11
11.9808815491
 21
11.1233197142
  0
LINE
  5
449
100
AcDbEntity
  8
0
100
AcDbLine
 62
7
  6
CONTINUOUS
 10
12.4148306757
 20
-26.7345989579
 11
12.4148306757
 21
-25.5973483758
  0
LINE
  5
44A
100
AcDbEntity
  8
0
100
AcDbLine
 62
7
  6
CONTINUOUS
 10
12.4148306757
 20
7.8063972169
 11
12.4148306757
 21
8.9984204346
  0
LINE
  5
44B
100
AcDbEntity
  8
0
100
AcDbLine
 62
7
  6
CONTINUOUS
 10
12.4456895132
 20
-25.5603932462
 11
12.4456895132
 21
7.7885797109
  0
LWPOLYLINE
  5
44C
100
AcDbEntity
  8
0
100
AcDbPolyline
 62
250
  6
CONTINUOUS
 90
7
 70
0
 10
11.8906175652
 20
-28.5954915505
 10
11.8897036404
 20
-28.6159230606
 10
11.8863446983
 20
-28.6346331435
 10
11.8805981824
 20
-28.6513017863
 10
11.8725623734
 20
-28.6656438888
 10
11.8623747059
 20
-28.6774141455
 10
11.8519427839
 20
-28.6853752752
  0
LWPOLYLINE
  5
44D
100
AcDbEntity
  8
0
100
AcDbPolyline
 62
7
  6
CONTINUOUS
 90
9
 70
0
 10
-2.7564049019
 20
-17.0593519489
 10
-2.8159949204
 20
-17.0932210276
 10
-3.1438754903
 20
-17.2612563204
 10
-3.4849812079
 20
-17.4058513516
 10
-3.8391270216
 20
-17.5267518205
 10
-4.2053982438
 20
-17.6234769642
 10
-4.5823112365
 20
-17.6956288645
 10
-4.9686414494
 20
-17.7431001763
 10
-5.0273577986
 20
-17.7464980946
  0
LWPOLYLINE
  5
44E
100
AcDbEntity
  8
RACCORDO
100
AcDbPolyline
 62
250
  6
CONTINUOUS
 90
50
 70
0
 10
-14.2740021479
 20
-21.8390410828
 10
-14.1533229137
 20
-21.7835370034
 10
-13.8082949101
 20
-21.6003208926
 10
-13.4800264623
 20
-21.3882406016
 10
-13.1693161903
 20
-21.1478120782
 10
-12.8769203262
 20
-20.8796202412
 10
-12.6035514895
 20
-20.5843184487
 10
-12.3498760698
 20
-20.2626265632
 10
-12.1165121193
 20
-19.9153286896
 10
-11.9040273711
 20
-19.543270109
 10
-11.7129386836
 20
-19.147355829
 10
-11.5437111847
 20
-18.7285490691
 10
-11.3967574354
 20
-18.287870308
 10
-11.2724357057
 20
-17.8263939156
 10
-11.1710488121
 20
-17.3452446814
 10
-11.09284329
 20
-16.8455935
 10
-11.038009357
 20
-16.328655659
 10
-11.0066806059
 20
-15.7956888714
 10
-10.9989335566
 20
-15.2479919061
 10
-11.0147870974
 20
-14.6869000661
 10
-11.0542024247
 20
-14.1137808513
 10
-11.1170834634
 20
-13.5300288913
 10
-11.2032772637
 20
-12.9370640725
 10
-11.3125742478
 20
-12.3363292115
 10
-11.4447082181
 20
-11.729288244
 10
-11.5993570548
 20
-11.1174210428
 10
-11.7761437498
 20
-10.5022186886
 10
-11.9746379639
 20
-9.885178245
 10
-12.1943568294
 20
-9.2678007479
 10
-12.4347657757
 20
-8.6515886188
 10
-12.6952791064
 20
-8.038043431
 10
-12.9752618345
 20
-7.4286606765
 10
-13.2740316467
 20
-6.8249251572
 10
-13.5908613258
 20
-6.2283061512
 10
-13.924979993
 20
-5.6402552856
 10
-14.2755745369
 20
-5.0622038313
 10
-14.6417908244
 20
-4.4955602424
 10
-15.0227363801
 20
-3.941705443
 10
-15.4174830085
 20
-3.4019887774
 10
-15.8250698657
 20
-2.8777238088
 10
-16.2445051609
 20
-2.3701862455
 10
-16.6747680336
 20
-1.8806115197
 10
-17.1148102815
 20
-1.4101924651
 10
-17.5635596337
 20
-0.9600753858
 10
-18.0199229834
 20
-0.5313566329
 10
-18.4827893031
 20
-0.1250798472
 10
-18.9510316412
 20
0.2577658362
 10
-19.4235098241
 20
0.6162481965
 10
-19.8990732239
 20
0.9494942317
 10
-20.3765637703
 20
1.2566924535
  0
LWPOLYLINE
  5
44F
100
AcDbEntity
  8
0
100
AcDbPolyline
 62
7
  6
CONTINUOUS
 90
3
 70
0
 10
-3.00641577
 20
-17.1475168232
 10
-2.639106304
 20
-16.9812964575
 10
-2.56787699
 20
-16.9429138988
  0
LINE
  5
450
100
AcDbEntity
  8
0
100
AcDbLine
 62
7
  6
CONTINUOUS
 10
-3.2135353402
 20
-16.9437045509
 11
-14.2740021479
 21
-21.8390410828
  0
LWPOLYLINE
  5
451
100
AcDbEntity
  8
0
100
AcDbPolyline
 62
7
  6
CONTINUOUS
 90
6
 70
0
 10
4.5250391127
 20
14.4386429251
 10
4.5417322526
 20
14.438840602
 10
4.5591582262
 20
14.4364886234
 10
4.5770480908
 20
14.431667576
 10
4.5952670061
 20
14.4244587232
 10
4.6136164144
 20
14.414971537
  0
LWPOLYLINE
  5
452
100
AcDbEntity
  8
0
100
AcDbPolyline
 62
7
  6
CONTINUOUS
 90
5
 70
0
 10
9.0462425303
 20
12.2497551507
 10
9.0601833091
 20
12.2478735678
 10
9.0744952008
 20
12.2440167299
 10
9.0890703331
 20
12.2382496477
 10
9.1037498597
 20
12.2306598987
  0
LWPOLYLINE
  5
453
100
AcDbEntity
  8
0
100
AcDbPolyline
 62
7
  6
CONTINUOUS
 90
11
 70
0
 10
8.226659175
 20
10.0759467321
 10
8.2267677443
 20
10.0758990008
 10
8.2284649526
 20
10.0767636223
 10
8.2320537055
 20
10.0789636828
 10
8.2374061997
 20
10.0820372831
 10
8.2443913547
 20
10.0860009121
 10
8.2528503016
 20
10.0909750904
 10
8.2627316308
 20
10.0966552843
 10
8.2739592848
 20
10.1029793495
 10
8.2863839005
 20
10.1101146051
 10
8.2998824746
 20
10.1181009975
  0
LWPOLYLINE
  5
454
100
AcDbEntity
  8
0
100
AcDbPolyline
 62
7
  6
CONTINUOUS
 90
11
 70
0
 10
-4.3598415301
 20
17.3432344933
 10
-4.3597329608
 20
17.343186762
 10
-4.3580357525
 20
17.3440513835
 10
-4.3544469997
 20
17.3462514441
 10
-4.3490945055
 20
17.3493250443
 10
-4.3421093504
 20
17.3532886733
 10
-4.3336504035
 20
17.3582628517
 10
-4.3237690743
 20
17.3639430455
 10
-4.3125414203
 20
17.3702671107
 10
-4.3001168046
 20
17.3774023663
 10
-4.2866182305
 20
17.3853887587
  0
LWPOLYLINE
  5
455
100
AcDbEntity
  8
0
100
AcDbPolyline
 62
7
  6
CONTINUOUS
 90
11
 70
0
 10
-7.6832434017
 20
19.262125082
 10
-7.6831348324
 20
19.2620773507
 10
-7.6814376241
 20
19.2629419721
 10
-7.6778488712
 20
19.2651420327
 10
-7.672496377
 20
19.2682156329
 10
-7.665511222
 20
19.272179262
 10
-7.6570522751
 20
19.2771534403
 10
-7.6471709459
 20
19.2828336342
 10
-7.6359432919
 20
19.2891576994
 10
-7.6235186762
 20
19.2962929549
 10
-7.6100201021
 20
19.3042793473
  0
LWPOLYLINE
  5
456
100
AcDbEntity
  8
0
100
AcDbPolyline
 62
250
  6
CONTINUOUS
 90
8
 70
0
 10
7.5374991135
 20
11.262066943
 10
7.5187453816
 20
11.2711449099
 10
7.500354625
 20
11.2772994782
 10
7.4826413933
 20
11.2804253834
 10
7.4659086469
 20
11.2804691628
 10
7.4504425772
 20
11.2774300689
 10
7.4365077108
 20
11.2713600836
 10
7.4347898897
 20
11.2703337404
  0
LWPOLYLINE
  5
457
100
AcDbEntity
  8
0
100
AcDbPolyline
 62
250
  6
CONTINUOUS
 90
13
 70
0
 10
-3.1575854261
 20
16.7334993675
 10
-3.1381470039
 20
16.7236421726
 10
-3.1166674792
 20
16.7153162214
 10
-3.0935062622
 20
16.7086608296
 10
-3.0690509023
 20
16.7037873597
 10
-3.0437106034
 20
16.7007773579
 10
-3.0179093769
 20
16.6996811898
 10
-2.9920789468
 20
16.7005171972
 10
-2.9666515256
 20
16.7032713913
 10
-2.9420525823
 20
16.7078976872
 10
-2.9186937236
 20
16.7143186744
 10
-2.8969658059
 20
16.7224269126
 10
-2.8772323958
 20
16.7320867292
  0
LWPOLYLINE
  5
458
100
AcDbEntity
  8
0
100
AcDbPolyline
 62
250
  6
CONTINUOUS
 90
13
 70
0
 10
-3.1575854261
 20
17.0326136246
 10
-3.1381469993
 20
17.0227564276
 10
-3.11666747
 20
17.0144304754
 10
-3.0935062488
 20
17.0077750834
 10
-3.0690508854
 20
17.002901614
 10
-3.0437105842
 20
16.9998916134
 10
-3.0179093569
 20
16.9987954467
 10
-2.9920789274
 20
16.9996314556
 10
-2.9666515082
 20
17.0023856509
 10
-2.9420525682
 20
17.0070119475
 10
-2.9186937138
 20
17.0134329346
 10
-2.8969658009
 20
17.0215411718
 10
-2.8772323958
 20
17.0312009862
  0
LWPOLYLINE
  5
459
100
AcDbEntity
  8
0
100
AcDbPolyline
 62
250
  6
CONTINUOUS
 90
13
 70
0
 10
-19.0674880028
 20
25.9196777174
 10
-19.0480495806
 20
25.9098205225
 10
-19.0265700559
 20
25.9014945713
 10
-19.0034088389
 20
25.8948391795
 10
-18.978953479
 20
25.8899657095
 10
-18.9536131801
 20
25.8869557078
 10
-18.9278119536
 20
25.8858595397
 10
-18.9019815235
 20
25.886695547
 10
-18.8765541023
 20
25.8894497412
 10
-18.851955159
 20
25.8940760371
 10
-18.8285963003
 20
25.9004970243
 10
-18.8068683826
 20
25.9086052625
 10
-18.7871349725
 20
25.918265079
  0
LWPOLYLINE
  5
45A
100
AcDbEntity
  8
0
100
AcDbPolyline
 62
250
  6
CONTINUOUS
 90
16
 70
0
 10
6.4843637317
 20
12.7188393412
 10
6.5036819267
 20
12.7087894814
 10
6.5246988818
 20
12.699954335
 10
6.547186299
 20
12.6924286303
 10
6.570885853
 20
12.6862960584
 10
6.5955539975
 20
12.6816170233
 10
6.6209697594
 20
12.6784367487
 10
6.6469173631
 20
12.6767949179
 10
6.673060642
 20
12.6767252999
 10
6.6989914799
 20
12.6782251629
 10
6.7244070582
 20
12.681259775
 10
6.749063066
 20
12.6857825327
 10
6.772658078
 20
12.691717865
 10
6.7949442167
 20
12.6989759147
 10
6.8157238446
 20
12.7074635221
 10
6.8348050196
 20
12.7170735432
  0
LWPOLYLINE
  5
45B
100
AcDbEntity
  8
0
100
AcDbPolyline
 62
250
  6
CONTINUOUS
 90
16
 70
0
 10
2.7720531305
 20
14.8622809562
 10
2.7913713254
 20
14.8522310963
 10
2.8123882806
 20
14.8433959499
 10
2.8348756978
 20
14.8358702453
 10
2.8585752517
 20
14.8297376734
 10
2.8832433963
 20
14.8250586383
 10
2.9086591581
 20
14.8218783637
 10
2.9346067619
 20
14.8202365329
 10
2.9607500407
 20
14.8201669148
 10
2.9866808786
 20
14.8216667779
 10
3.0120964569
 20
14.82470139
 10
3.0367524648
 20
14.8292241477
 10
3.0603474768
 20
14.83515948
 10
3.0826336155
 20
14.8424175296
 10
3.1034132434
 20
14.8509051371
 10
3.1224944184
 20
14.8605151582
  0
LWPOLYLINE
  5
45C
100
AcDbEntity
  8
0
100
AcDbPolyline
 62
7
  6
CONTINUOUS
 90
6
 70
0
 10
-3.105723674
 20
16.619012811
 10
-3.0972552091
 20
16.6143660117
 10
-3.0773677877
 20
16.6052614844
 10
-3.0565829595
 20
16.5981742976
 10
-3.0350434157
 20
16.5931830335
 10
-3.0176994157
 20
16.5907838123
  0
LWPOLYLINE
  5
45D
100
AcDbEntity
  8
0
100
AcDbPolyline
 62
7
  6
CONTINUOUS
 90
6
 70
0
 10
-19.0156262507
 20
25.8051911609
 10
-19.0071577858
 20
25.8005443616
 10
-18.9872703644
 20
25.7914398343
 10
-18.9664855362
 20
25.7843526475
 10
-18.9449459924
 20
25.7793613834
 10
-18.9276019924
 20
25.7769621622
  0
LWPOLYLINE
  5
45E
100
AcDbEntity
  8
0
100
AcDbPolyline
 62
7
  6
CONTINUOUS
 90
6
 70
0
 10
9.4804648801
 20
9.3519062858
 10
9.4848068753
 20
9.3494530802
 10
9.5101194059
 20
9.3375852109
 10
9.5368154177
 20
9.3290382309
 10
9.5644420926
 20
9.3239666761
 10
9.5692072892
 20
9.3234564645
  0
LWPOLYLINE
  5
45F
100
AcDbEntity
  8
0
100
AcDbPolyline
 62
7
  6
CONTINUOUS
 90
6
 70
0
 10
-6.4294376966
 20
18.5380846356
 10
-6.4250957014
 20
18.53563143
 10
-6.3997831708
 20
18.5237635608
 10
-6.373087159
 20
18.5152165808
 10
-6.3454604841
 20
18.510145026
 10
-6.3406952875
 20
18.5096348144
  0
LINE
  5
460
100
AcDbEntity
  8
0
100
AcDbLine
 62
7
  6
CONTINUOUS
 10
8.4934467607
 20
8.7201072261
 11
8.2998824746
 21
8.831868819
  0
LINE
  5
461
100
AcDbEntity
  8
0
100
AcDbLine
 62
7
  6
CONTINUOUS
 10
-4.0930539444
 20
15.9873949873
 11
-4.2866182305
 21
16.0991565802
  0
LINE
  5
462
100
AcDbEntity
  8
0
100
AcDbLine
 62
7
  6
CONTINUOUS
 10
-7.416455816
 20
17.906285576
 11
-7.6100201021
 21
18.0180471688
  0
LINE
  5
463
100
AcDbEntity
  8
0
100
AcDbLine
 62
7
  6
CONTINUOUS
 10
-20.0029565211
 20
25.1735733372
 11
-20.1965208072
 21
25.2853349301
  0
LINE
  5
464
100
AcDbEntity
  8
0
100
AcDbLine
 62
7
  6
CONTINUOUS
 10
-20.4024815442
 20
26.263592659
 11
-20.2697441119
 21
26.1869517292
  0
LINE
  5
465
100
AcDbEntity
  8
0
100
AcDbLine
 62
7
  6
CONTINUOUS
 10
-19.1097891705
 20
25.5172082837
 11
-18.3827822217
 21
25.097443583
  0
LINE
  5
466
100
AcDbEntity
  8
0
100
AcDbLine
 62
7
  6
CONTINUOUS
 10
-7.815980839
 20
18.9963048978
 11
-7.6832434068
 21
18.919663968
  0
LINE
  5
467
100
AcDbEntity
  8
0
100
AcDbLine
 62
7
  6
CONTINUOUS
 10
-6.5232884654
 20
18.2499205225
 11
-5.7962815166
 21
17.8301558218
  0
LINE
  5
468
100
AcDbEntity
  8
0
100
AcDbLine
 62
7
  6
CONTINUOUS
 10
-4.4925789675
 20
17.0774143091
 11
-4.3598415352
 21
17.0007733793
  0
LINE
  5
469
100
AcDbEntity
  8
0
100
AcDbLine
 62
7
  6
CONTINUOUS
 10
-3.1998865938
 20
16.3310299338
 11
-2.4728796451
 21
15.9112652332
  0
LINE
  5
46A
100
AcDbEntity
  8
0
100
AcDbLine
 62
7
  6
CONTINUOUS
 10
8.0939217377
 20
9.8101265479
 11
8.2266591699
 21
9.7334856181
  0
LINE
  5
46B
100
AcDbEntity
  8
0
100
AcDbLine
 62
7
  6
CONTINUOUS
 10
9.3866141113
 20
9.0637421726
 11
10.1136210601
 21
8.6439774719
  0
LINE
  5
46C
100
AcDbEntity
  8
0
100
AcDbLine
 62
7
  6
CONTINUOUS
 10
9.4808665946
 20
9.35167308
 11
8.6702113757
 21
9.8197352435
  0
LINE
  5
46D
100
AcDbEntity
  8
0
100
AcDbLine
 62
7
  6
CONTINUOUS
 10
8.2266591702
 20
10.075836728
 11
7.4160038054
 21
10.5438989757
  0
LINE
  5
46E
100
AcDbEntity
  8
0
100
AcDbLine
 62
7
  6
CONTINUOUS
 10
-3.1056340874
 20
16.6189608279
 11
-3.9162893295
 21
17.0870230048
  0
LINE
  5
46F
100
AcDbEntity
  8
0
100
AcDbLine
 62
7
  6
CONTINUOUS
 10
-4.3598415349
 20
17.3431244892
 11
-5.1704967536
 21
17.8111866526
  0
LINE
  5
470
100
AcDbEntity
  8
0
100
AcDbLine
 62
7
  6
CONTINUOUS
 10
-6.4290359821
 20
18.5378514299
 11
-7.239691201
 21
19.0059135934
  0
LINE
  5
471
100
AcDbEntity
  8
0
100
AcDbLine
 62
7
  6
CONTINUOUS
 10
-7.6832434065
 20
19.2620150778
 11
-8.4938987713
 21
19.7300773256
  0
LINE
  5
472
100
AcDbEntity
  8
0
100
AcDbLine
 62
7
  6
CONTINUOUS
 10
-19.0155366641
 20
25.8051391778
 11
-19.8261919062
 21
26.2732013547
  0
LINE
  5
473
100
AcDbEntity
  8
0
100
AcDbLine
 62
7
  6
CONTINUOUS
 10
-20.2697441116
 20
26.5293028391
 11
-21.0803993303
 21
26.9973650025
  0
LINE
  5
474
100
AcDbEntity
  8
0
100
AcDbLine
 62
250
  6
CONTINUOUS
 10
9.428915279
 20
9.4662116063
 11
8.4934467607
 21
10.0063394046
  0
LINE
  5
475
100
AcDbEntity
  8
0
100
AcDbLine
 62
250
  6
CONTINUOUS
 10
8.2998824746
 20
10.1181009975
 11
7.3644139563
 21
10.6582287958
  0
LINE
  5
476
100
AcDbEntity
  8
0
100
AcDbLine
 62
250
  6
CONTINUOUS
 10
-3.1575854261
 20
16.7334993675
 11
-4.0930539444
 21
17.2736271658
  0
LINE
  5
477
100
AcDbEntity
  8
0
100
AcDbLine
 62
250
  6
CONTINUOUS
 10
-4.2866182305
 20
17.3853887587
 11
-5.2220867488
 21
17.925516557
  0
LINE
  5
478
100
AcDbEntity
  8
0
100
AcDbLine
 62
250
  6
CONTINUOUS
 10
-6.4809872977
 20
18.6523899562
 11
-7.416455816
 21
19.1925177545
  0
LINE
  5
479
100
AcDbEntity
  8
0
100
AcDbLine
 62
250
  6
CONTINUOUS
 10
-7.6100201021
 20
19.3042793473
 11
-8.5454886204
 21
19.8444071456
  0
LINE
  5
47A
100
AcDbEntity
  8
0
100
AcDbLine
 62
250
  6
CONTINUOUS
 10
-19.0674880028
 20
25.9196777174
 11
-20.0029565211
 21
26.4598055157
  0
LINE
  5
47B
100
AcDbEntity
  8
0
100
AcDbLine
 62
250
  6
CONTINUOUS
 10
-20.1965208072
 20
26.5715671086
 11
-21.1319893255
 21
27.1116949069
  0
LINE
  5
47C
100
AcDbEntity
  8
0
100
AcDbLine
 62
7
  6
CONTINUOUS
 10
12.4456895132
 20
7.7885797109
 11
12.4148306757
 21
7.8063972169
  0
LINE
  5
47D
100
AcDbEntity
  8
0
100
AcDbLine
 62
250
  6
CONTINUOUS
 10
-19.0674880028
 20
26.2187942607
 11
-21.1319893255
 21
27.4108541545
  0
LINE
  5
47E
100
AcDbEntity
  8
0
100
AcDbLine
 62
250
  6
CONTINUOUS
 10
-3.1575854261
 20
17.0326159108
 11
-5.2220867488
 21
18.2246758046
  0
LINE
  5
47F
100
AcDbEntity
  8
0
100
AcDbLine
 62
250
  6
CONTINUOUS
 10
9.428915279
 20
9.7653708451
 11
7.3644139563
 21
10.9573430528
  0
LINE
  5
480
100
AcDbEntity
  8
0
100
AcDbLine
 62
250
  6
CONTINUOUS
 10
-6.4809872977
 20
18.951549195
 11
-8.5454886204
 21
20.1435214027
  0
LINE
  5
481
100
AcDbEntity
  8
0
100
AcDbLine
 62
7
  6
CONTINUOUS
 10
6.4843637317
 20
11.5988037488
 11
4.2632025245
 21
12.8812743921
  0
LINE
  5
482
100
AcDbEntity
  8
0
100
AcDbLine
 62
7
  6
CONTINUOUS
 10
2.7720531305
 20
13.7422453637
 11
0.5508919233
 21
15.0247160071
  0
LINE
  5
483
100
AcDbEntity
  8
0
100
AcDbLine
 62
7
  6
CONTINUOUS
 10
-9.425538845
 20
20.7849820986
 11
-11.6467000522
 21
22.067452742
  0
LINE
  5
484
100
AcDbEntity
  8
0
100
AcDbLine
 62
7
  6
CONTINUOUS
 10
-13.1378494462
 20
22.9284237136
 11
-15.3590106534
 21
24.210894357
  0
LINE
  5
485
100
AcDbEntity
  8
0
100
AcDbLine
 62
250
  6
CONTINUOUS
 10
9.6032131549
 20
10.069349545
 11
7.5374991135
 21
11.262066943
  0
LINE
  5
486
100
AcDbEntity
  8
0
100
AcDbLine
 62
250
  6
CONTINUOUS
 10
-2.9832875502
 20
17.3366373062
 11
-5.0490015916
 21
18.5293547043
  0
LINE
  5
487
100
AcDbEntity
  8
0
100
AcDbLine
 62
250
  6
CONTINUOUS
 10
-6.3066894218
 20
19.2555278949
 11
-8.3724034631
 21
20.4482452929
  0
LINE
  5
488
100
AcDbEntity
  8
0
100
AcDbLine
 62
250
  6
CONTINUOUS
 10
-18.8931901269
 20
26.5228156561
 11
-20.9589041683
 21
27.7155330541
  0
LINE
  5
489
100
AcDbEntity
  8
0
100
AcDbLine
 62
7
  6
CONTINUOUS
 10
-17.1298901832
 20
25.6630472935
 11
-15.4322339581
 21
24.6828418658
  0
LINE
  5
48A
100
AcDbEntity
  8
0
100
AcDbLine
 62
7
  6
CONTINUOUS
 10
-12.6044067836
 20
23.0500898962
 11
-11.7199233569
 21
22.5394002508
  0
LINE
  5
48B
100
AcDbEntity
  8
0
100
AcDbLine
 62
7
  6
CONTINUOUS
 10
-8.8920961823
 20
20.9066482812
 11
-8.3000209394
 21
20.5647914564
  0
LINE
  5
48C
100
AcDbEntity
  8
0
100
AcDbLine
 62
7
  6
CONTINUOUS
 10
-1.2199876065
 20
16.4768689436
 11
0.4776686186
 21
15.4966635159
  0
LINE
  5
48D
100
AcDbEntity
  8
0
100
AcDbLine
 62
7
  6
CONTINUOUS
 10
3.3054957931
 20
13.8639115463
 11
4.1899792198
 21
13.3532219009
  0
LINE
  5
48E
100
AcDbEntity
  8
0
100
AcDbLine
 62
7
  6
CONTINUOUS
 10
7.0178063944
 20
11.7204699313
 11
7.6098816373
 21
11.3786131065
  0
LINE
  5
48F
100
AcDbEntity
  8
0
100
AcDbLine
 62
250
  6
CONTINUOUS
 10
6.4843637317
 20
12.7188393412
 11
4.2632025245
 21
14.0013099846
  0
LINE
  5
490
100
AcDbEntity
  8
0
100
AcDbLine
 62
250
  6
CONTINUOUS
 10
2.7720531305
 20
14.8622809562
 11
0.5508919233
 21
16.1447515995
  0
LINE
  5
491
100
AcDbEntity
  8
0
100
AcDbLine
 62
250
  6
CONTINUOUS
 10
-9.425538845
 20
21.9050176911
 11
-11.6467000522
 21
23.1874883345
  0
LINE
  5
492
100
AcDbEntity
  8
0
100
AcDbLine
 62
250
  6
CONTINUOUS
 10
-13.1378494462
 20
24.048459306
 11
-15.3590106534
 21
25.3309299494
  0
LINE
  5
493
100
AcDbEntity
  8
0
100
AcDbLine
 62
7
  6
CONTINUOUS
 10
-17.0836005861
 20
26.4386179052
 11
-16.461754468
 21
26.0795717502
  0
LINE
  5
494
100
AcDbEntity
  8
0
100
AcDbLine
 62
7
  6
CONTINUOUS
 10
-4.497099881
 20
19.171330144
 11
-4.3056908277
 21
19.0608129556
  0
LINE
  5
495
100
AcDbEntity
  8
0
100
AcDbLine
 62
7
  6
CONTINUOUS
 10
-1.1736980094
 20
17.2524395553
 11
-0.5518518913
 21
16.8933934003
  0
LINE
  5
496
100
AcDbEntity
  8
0
100
AcDbLine
 62
7
  6
CONTINUOUS
 10
11.4128026957
 20
9.9851517941
 11
12.061331133
 21
9.6106996024
  0
LINE
  5
497
100
AcDbEntity
  8
0
100
AcDbLine
 62
7
  6
CONTINUOUS
 10
-11.9096425971
 20
23.4640659381
 11
-11.7121482389
 21
23.3500351709
  0
LINE
  5
498
100
AcDbEntity
  8
0
100
AcDbLine
 62
7
  6
CONTINUOUS
 10
4.0002599795
 20
14.2778875882
 11
4.1977543378
 21
14.163856821
  0
LINE
  5
499
100
AcDbEntity
  8
0
100
AcDbLine
 62
250
  6
CONTINUOUS
 10
6.6580552483
 20
13.0232131271
 11
4.436894041
 21
14.3056837705
  0
LINE
  5
49A
100
AcDbEntity
  8
0
100
AcDbLine
 62
250
  6
CONTINUOUS
 10
2.9457446471
 20
15.1666547421
 11
0.7245834398
 21
16.4491253854
  0
LINE
  5
49B
100
AcDbEntity
  8
0
100
AcDbLine
 62
250
  6
CONTINUOUS
 10
-9.2518473284
 20
22.209391477
 11
-11.4730085357
 21
23.4918621204
  0
LINE
  5
49C
100
AcDbEntity
  8
0
100
AcDbLine
 62
250
  6
CONTINUOUS
 10
-12.9641579296
 20
24.3528330919
 11
-15.1853191369
 21
25.6353037353
  0
LWPOLYLINE
  5
49D
100
AcDbEntity
  8
0
100
AcDbPolyline
 62
7
  6
CONTINUOUS
 90
11
 70
0
 10
-19.8262247398
 20
26.2732203214
 10
-19.8335470089
 20
26.277573061
 10
-19.8560749644
 20
26.2925389566
 10
-19.8778474637
 20
26.3092529177
 10
-19.8986920056
 20
26.3274677586
 10
-19.9185961237
 20
26.3470249253
 10
-19.937598613
 20
26.3677633765
 10
-19.9555436847
 20
26.3895337935
 10
-19.9723747792
 20
26.4122156967
 10
-19.9881700883
 20
26.4356817685
 10
-20.0029565211
 20
26.4598055157
  0
LWPOLYLINE
  5
49E
100
AcDbEntity
  8
0
100
AcDbPolyline
 62
7
  6
CONTINUOUS
 90
11
 70
0
 10
-7.2397240347
 20
19.0059325602
 10
-7.2470463038
 20
19.0102852997
 10
-7.2695742593
 20
19.0252511954
 10
-7.2913467586
 20
19.0419651565
 10
-7.3121913005
 20
19.0601799974
 10
-7.3320954186
 20
19.079737164
 10
-7.3510979078
 20
19.1004756152
 10
-7.3690429796
 20
19.1222460322
 10
-7.3858740741
 20
19.1449279355
 10
-7.4016693832
 20
19.1683940073
 10
-7.416455816
 20
19.1925177545
  0
LWPOLYLINE
  5
49F
100
AcDbEntity
  8
0
100
AcDbPolyline
 62
7
  6
CONTINUOUS
 90
11
 70
0
 10
-3.9163221631
 20
17.0870419715
 10
-3.9236444322
 20
17.0913947111
 10
-3.9461723877
 20
17.1063606067
 10
-3.967944887
 20
17.1230745678
 10
-3.9887894289
 20
17.1412894088
 10
-4.008693547
 20
17.1608465754
 10
-4.0276960363
 20
17.1815850266
 10
-4.0456411081
 20
17.2033554436
 10
-4.0624722025
 20
17.2260373468
 10
-4.0782675116
 20
17.2495034187
 10
-4.0930539444
 20
17.2736271658
  0
LWPOLYLINE
  5
4A0
100
AcDbEntity
  8
0
100
AcDbPolyline
 62
7
  6
CONTINUOUS
 90
11
 70
0
 10
8.670178542
 20
9.8197542103
 10
8.6628562729
 20
9.8241069499
 10
8.6403283174
 20
9.8390728455
 10
8.6185558181
 20
9.8557868066
 10
8.5977112762
 20
9.8740016475
 10
8.5778071581
 20
9.8935588142
 10
8.5588046689
 20
9.9142972654
 10
8.5408595971
 20
9.9360676824
 10
8.5240285026
 20
9.9587495856
 10
8.5082331935
 20
9.9822156574
 10
8.4934467607
 20
10.0063394046
  0
LWPOLYLINE
  5
4A1
100
AcDbEntity
  8
0
100
AcDbPolyline
 62
250
  6
CONTINUOUS
 90
13
 70
0
 10
-16.7471855337
 20
27.7618897464
 10
-16.728431813
 20
27.7500063027
 10
-16.7100410653
 20
27.7355092349
 10
-16.6923278397
 20
27.7186464963
 10
-16.6755950969
 20
27.6997065019
 10
-16.660129028
 20
27.6790131955
 10
-16.6461941594
 20
27.6569205094
 10
-16.634028828
 20
27.6338063102
 10
-16.6238411045
 20
27.6100659347
 10
-16.6158052353
 20
27.5861054296
 10
-16.6100586624
 20
27.5623346066
 10
-16.6066996727
 20
27.5391600334
 10
-16.6057857166
 20
27.5169780793
  0
LWPOLYLINE
  5
4A2
100
AcDbEntity
  8
0
100
AcDbPolyline
 62
7
  6
CONTINUOUS
 90
16
 70
0
 10
-9.0688459537
 20
22.3150538268
 10
-9.0505065511
 20
22.3033573535
 10
-9.0322853774
 20
22.2895261555
 10
-9.0143877655
 20
22.2736839625
 10
-8.9969570467
 20
22.2559101237
 10
-8.9802656135
 20
22.2364366128
 10
-8.9646774471
 20
22.2157039007
 10
-8.9504578232
 20
22.1941588762
 10
-8.9375978676
 20
22.1718847797
 10
-8.9260492271
 20
22.148797861
 10
-8.9158884298
 20
22.12493206
 10
-8.9073698546
 20
22.1007405555
 10
-8.9006929643
 20
22.0767587905
 10
-8.8959224512
 20
22.0533386393
 10
-8.8930553637
 20
22.0306438975
 10
-8.8920961823
 20
22.008914243
  0
LWPOLYLINE
  5
4A3
100
AcDbEntity
  8
0
100
AcDbPolyline
 62
7
  6
CONTINUOUS
 90
16
 70
0
 10
-4.6847892951
 20
20.1919895957
 10
-4.6701177731
 20
20.182632417
 10
-4.6555408341
 20
20.1715674586
 10
-4.6412227445
 20
20.1588937043
 10
-4.6272781695
 20
20.1446746332
 10
-4.613925023
 20
20.1290958245
 10
-4.6014544899
 20
20.1125096548
 10
-4.5900787907
 20
20.0952736352
 10
-4.5797908262
 20
20.077454358
 10
-4.5705519138
 20
20.0589848231
 10
-4.562423276
 20
20.0398921822
 10
-4.5556084159
 20
20.0205389787
 10
-4.5502669036
 20
20.0013535667
 10
-4.5464504931
 20
19.9826174457
 10
-4.5441568232
 20
19.9644616522
 10
-4.543389478
 20
19.9470779286
  0
LWPOLYLINE
  5
4A4
100
AcDbEntity
  8
0
100
AcDbPolyline
 62
250
  6
CONTINUOUS
 90
16
 70
0
 10
-3.1057199834
 20
16.6190104909
 10
-3.1118265934
 20
16.6229068978
 10
-3.1174701219
 20
16.6272217931
 10
-3.1228677878
 20
16.6321113703
 10
-3.1279905134
 20
16.637587219
 10
-3.1328085135
 20
16.6436586887
 10
-3.1372751743
 20
16.6503065291
 10
-3.1413648954
 20
16.6575296781
 10
-3.1450523885
 20
16.6653247586
 10
-3.14830138
 20
16.6736542135
 10
-3.1510926386
 20
16.6825041905
 10
-3.1534081029
 20
16.6918590912
 10
-3.1552249604
 20
16.7016653682
 10
-3.156531396
 20
16.7118862512
 10
-3.1573207742
 20
16.7225068759
 10
-3.1575854261
 20
16.7334993675
  0
LWPOLYLINE
  5
4A5
100
AcDbEntity
  8
0
100
AcDbPolyline
 62
7
  6
CONTINUOUS
 90
19
 70
0
 10
11.3665157603
 20
9.209582609
 10
11.3966343573
 20
9.1902843922
 10
11.4267662227
 20
9.167994837
 10
11.4566723877
 20
9.1428287123
 10
11.4862213273
 20
9.114818888
 10
11.5150476433
 20
9.0842252315
 10
11.5425960665
 20
9.0516232074
 10
11.5685336043
 20
9.0175012814
 10
11.5928434579
 20
8.981968917
 10
11.615480086
 20
8.9450963597
 10
11.6362761755
 20
8.9071616616
 10
11.6550748846
 20
8.8684483971
 10
11.6718024032
 20
8.8290097079
 10
11.6863806338
 20
8.7889184543
 10
11.6985445578
 20
8.7487036195
 10
11.7080128726
 20
8.7091015185
 10
11.7147235507
 20
8.6705476132
 10
11.7187345748
 20
8.6331827488
 10
11.7200664893
 20
8.5972709235
  0
LWPOLYLINE
  5
4A6
100
AcDbEntity
  8
0
100
AcDbPolyline
 62
250
  6
CONTINUOUS
 90
9
 70
0
 10
-15.3590106534
 20
25.3309299494
 10
-15.3764163997
 20
25.342084033
 10
-15.3917183362
 20
25.3542189593
 10
-15.4047523991
 20
25.3672029121
 10
-15.415373641
 20
25.3808867374
 10
-15.4234774454
 20
25.3951298147
 10
-15.4289854877
 20
25.4098045569
 10
-15.431829039
 20
25.4247863779
 10
-15.4322339313
 20
25.4329317126
  0
LWPOLYLINE
  5
4A7
100
AcDbEntity
  8
0
100
AcDbPolyline
 62
250
  6
CONTINUOUS
 90
9
 70
0
 10
-11.6467000522
 20
23.1874883345
 10
-11.6641057985
 20
23.198642418
 10
-11.6794077349
 20
23.2107773444
 10
-11.6924417979
 20
23.2237612971
 10
-11.7030630398
 20
23.2374451224
 10
-11.7111668441
 20
23.2516881998
 10
-11.7166748865
 20
23.266362942
 10
-11.7195184378
 20
23.2813447629
 10
-11.7199233301
 20
23.2894900976
  0
LWPOLYLINE
  5
4A8
100
AcDbEntity
  8
0
100
AcDbPolyline
 62
250
  6
CONTINUOUS
 90
9
 70
0
 10
0.5508919233
 20
16.1447515995
 10
0.533486177
 20
16.1559056831
 10
0.5181842405
 20
16.1680406095
 10
0.5051501776
 20
16.1810245622
 10
0.4945289357
 20
16.1947083875
 10
0.4864251313
 20
16.2089514649
 10
0.480917089
 20
16.2236262071
 10
0.4780735377
 20
16.238608028
 10
0.4776686454
 20
16.2467533627
  0
LWPOLYLINE
  5
4A9
100
AcDbEntity
  8
0
100
AcDbPolyline
 62
250
  6
CONTINUOUS
 90
9
 70
0
 10
4.2632025245
 20
14.0013099846
 10
4.2457967782
 20
14.0124640681
 10
4.2304948418
 20
14.0245989945
 10
4.2174607788
 20
14.0375829472
 10
4.2068395369
 20
14.0512667725
 10
4.1987357326
 20
14.0655098499
 10
4.1932276902
 20
14.0801845921
 10
4.1903841389
 20
14.0951664131
 10
4.1899792466
 20
14.1033117477
  0
LWPOLYLINE
  5
4AA
100
AcDbEntity
  8
0
100
AcDbPolyline
 62
250
  6
CONTINUOUS
 90
7
 70
0
 10
-8.5454886204
 20
19.8444071456
 10
-8.562560686
 20
19.8556306493
 10
-8.576980729
 20
19.86803266
 10
-8.5885074634
 20
19.8814056586
 10
-8.5969480162
 20
19.8955258786
 10
-8.6021611545
 20
19.9101570508
 10
-8.6040672641
 20
19.9260620643
  0
LWPOLYLINE
  5
4AB
100
AcDbEntity
  8
0
100
AcDbPolyline
 62
250
  6
CONTINUOUS
 90
7
 70
0
 10
-8.5454886204
 20
20.1435214027
 10
-8.5625606829
 20
20.154744904
 10
-8.5769807243
 20
20.1671469124
 10
-8.5885074585
 20
20.1805199089
 10
-8.5969480122
 20
20.1946401272
 10
-8.6021611522
 20
20.2092712981
 10
-8.6040672617
 20
20.2251584913
  0
LWPOLYLINE
  5
4AC
100
AcDbEntity
  8
0
100
AcDbPolyline
 62
250
  6
CONTINUOUS
 90
7
 70
0
 10
7.3644139563
 20
10.6582287958
 10
7.3473418907
 20
10.6694522995
 10
7.3329218477
 20
10.6818543102
 10
7.3213951133
 20
10.6952273087
 10
7.3129545605
 20
10.7093475288
 10
7.3077414222
 20
10.7239787009
 10
7.3058353126
 20
10.7398837145
  0
LWPOLYLINE
  5
4AD
100
AcDbEntity
  8
0
100
AcDbPolyline
 62
250
  6
CONTINUOUS
 90
7
 70
0
 10
7.3644139563
 20
10.9573430528
 10
7.3473418938
 20
10.9685665542
 10
7.3329218524
 20
10.9809685625
 10
7.3213951182
 20
10.994341559
 10
7.3129545645
 20
11.0084617773
 10
7.3077414245
 20
11.0230929483
 10
7.3058353149
 20
11.0389801414
  0
LWPOLYLINE
  5
4AE
100
AcDbEntity
  8
0
100
AcDbPolyline
 62
250
  6
CONTINUOUS
 90
3
 70
0
 10
7.4081468525
 20
10.5490498846
 10
7.4145891088
 20
10.5447346417
 10
7.4160039166
 20
10.5438989115
  0
LWPOLYLINE
  5
4AF
100
AcDbEntity
  8
0
100
AcDbPolyline
 62
250
  6
CONTINUOUS
 90
13
 70
0
 10
-2.9832875502
 20
17.3366373062
 10
-2.9651356179
 20
17.3244064084
 10
-2.9472519358
 20
17.3096165784
 10
-2.9299423799
 20
17.2925207761
 10
-2.9135030071
 20
17.2734114023
 10
-2.8982149905
 20
17.2526152971
 10
-2.884339811
 20
17.2304881497
 10
-2.872114785
 20
17.2074084152
 10
-2.861749005
 20
17.1837708414
 10
-2.8534197637
 20
17.1599797171
 10
-2.8472695216
 20
17.1364419573
 10
-2.8434034702
 20
17.1135601438
 10
-2.8418877331
 20
17.0917256391
  0
LINE
  5
4B0
100
AcDbEntity
  8
0
100
AcDbLine
 62
7
  6
CONTINUOUS
 10
15.2735958037
 20
-18.7538703687
 11
15.2735958037
 21
-18.8408373072
  0
LINE
  5
4B1
100
AcDbEntity
  8
0
100
AcDbLine
 62
7
  6
CONTINUOUS
 10
16.7495270399
 20
13.4729864926
 11
16.7495270399
 21
12.3075385098
  0
LINE
  5
4B2
100
AcDbEntity
  8
0
100
AcDbLine
 62
7
  6
CONTINUOUS
 10
16.7495270399
 20
-18.7183320083
 11
16.7495270399
 21
-20.3408778158
  0
LINE
  5
4B3
100
AcDbEntity
  8
0
100
AcDbLine
 62
7
  6
CONTINUOUS
 10
17.135086179
 20
13.9018103711
 11
17.135086179
 21
13.7074673026
  0
LINE
  5
4B4
100
AcDbEntity
  8
0
100
AcDbLine
 62
7
  6
CONTINUOUS
 10
17.135086179
 20
-20.5634948306
 11
17.135086179
 21
-20.7578378991
  0
LWPOLYLINE
  5
4B5
100
AcDbEntity
  8
RACCORDO
100
AcDbPolyline
 62
250
  6
CONTINUOUS
 90
30
 70
0
 10
12.4456895132
 20
-11.7433219956
 10
12.562613373
 20
-11.5829915619
 10
12.8057100443
 20
-11.2053381607
 10
13.0318526099
 20
-10.8068124015
 10
13.2400597355
 20
-10.3891497238
 10
13.4302546703
 20
-9.952265529
 10
13.6025141652
 20
-9.4962444157
 10
13.7560871379
 20
-9.0230756193
 10
13.8908923061
 20
-8.5326835259
 10
14.0070109522
 20
-8.0251437494
 10
14.103935841
 20
-7.5026723663
 10
14.1815831177
 20
-6.9652055744
 10
14.2400366371
 20
-6.412807176
 10
14.2790407281
 20
-5.8478846543
 10
14.2985106334
 20
-5.2703814225
 10
14.2985311104
 20
-4.6803540675
 10
14.2791007602
 20
-4.0803798334
 10
14.2401340095
 20
-3.4704136008
 10
14.1817164316
 20
-2.8505004891
 10
14.1041033476
 20
-2.2233531005
 10
14.0072111574
 20
-1.5889429836
 10
13.8911234612
 20
-0.9472985898
 10
13.7563463809
 20
-0.3012178757
 10
13.6027994343
 20
0.3493164518
 10
13.4305631035
 20
1.0042870996
 10
13.2403849568
 20
1.6608442322
 10
13.0321875117
 20
2.3189950851
 10
12.8060482505
 20
2.9787324229
 10
12.5629471885
 20
3.6371847036
 10
12.4456895132
 20
3.9334035208
  0
LINE
  5
4B6
100
AcDbEntity
  8
0
100
AcDbLine
 62
7
  6
CONTINUOUS
 10
7.7441962055
 20
17.6924680106
 11
9.3159034332
 21
17.9394215362
  0
LWPOLYLINE
  5
4B7
100
AcDbEntity
  8
0
100
AcDbPolyline
 62
7
  6
CONTINUOUS
 90
6
 70
0
 10
0.8127285115
 20
16.5820845401
 10
0.8294216513
 20
16.582282217
 10
0.8468476249
 20
16.5799302384
 10
0.8647374895
 20
16.575109191
 10
0.8829564049
 20
16.5679003382
 10
0.9013058132
 20
16.558413152
  0
LWPOLYLINE
  5
4B8
100
AcDbEntity
  8
0
100
AcDbPolyline
 62
250
  6
CONTINUOUS
 90
11
 70
0
 10
-3.0176118104
 20
16.5907752273
 10
-3.0104412489
 20
16.5902884172
 10
-2.9900924898
 20
16.591201493
 10
-2.9698805427
 20
16.5954755345
 10
-2.950147413
 20
16.6030382208
 10
-2.9312270045
 20
16.6137615841
 10
-2.9134394688
 20
16.6274641745
 10
-2.8970857881
 20
16.6439141312
 10
-2.8824426825
 20
16.6628331048
 10
-2.8697579274
 20
16.6839009681
 10
-2.8592461614
 20
16.7067612324
  0
LINE
  5
4B9
100
AcDbEntity
  8
0
100
AcDbLine
 62
7
  6
CONTINUOUS
 10
-2.3714043873
 20
16.5276847771
 11
-3.0176118104
 21
16.5907752273
  0
LINE
  5
4BA
100
AcDbEntity
  8
0
100
AcDbLine
 62
250
  6
CONTINUOUS
 10
-2.1224383571
 20
16.634825296
 11
-2.8592461614
 21
16.7067612324
  0
LWPOLYLINE
  5
4BB
100
AcDbEntity
  8
0
100
AcDbPolyline
 62
250
  6
CONTINUOUS
 90
22
 70
0
 10
-2.8592461614
 20
16.7067612324
 10
-2.8605248639
 20
16.706915139
 10
-2.8617938012
 20
16.7071659844
 10
-2.8630529734
 20
16.7075137686
 10
-2.8643101015
 20
16.7079540686
 10
-2.8655574645
 20
16.7084913074
 10
-2.8667718992
 20
16.7091387537
 10
-2.8679532865
 20
16.7098988308
 10
-2.8691017457
 20
16.7107691155
 10
-2.8701944714
 20
16.7117556065
 10
-2.8712306876
 20
16.7128611056
 10
-2.8722111704
 20
16.7140828111
 10
-2.8731154427
 20
16.7154183168
 10
-2.873942082
 20
16.716870481
 10
-2.8746925109
 20
16.7184364455
 10
-2.8753505199
 20
16.7201052291
 10
-2.875914148
 20
16.7218794098
 10
-2.8763853563
 20
16.7237564097
 10
-2.8767538179
 20
16.7257175131
 10
-2.8770160905
 20
16.7277564815
 10
-2.8771756165
 20
16.7298795536
 10
-2.8772323958
 20
16.7320867292
  0
LWPOLYLINE
  5
4BC
100
AcDbEntity
  8
RACCORDO
100
AcDbPolyline
 62
250
  6
CONTINUOUS
 90
8
 70
0
 10
-0.9017895549
 20
19.0862869547
 10
-1.1695678373
 20
19.1944238883
 10
-1.4335426547
 20
19.2951268235
 10
-1.693714007
 20
19.3883957605
 10
-1.9497588253
 20
19.4739753663
 10
-2.2020001785
 20
19.5521209737
 10
-2.4514072739
 20
19.623598582
 10
-2.5624425593
 20
19.6528275459
  0
LWPOLYLINE
  5
4BD
100
AcDbEntity
  8
0
100
AcDbPolyline
 62
7
  6
CONTINUOUS
 90
11
 70
0
 10
-20.2697441068
 20
26.5294128432
 10
-20.2696355375
 20
26.5293651119
 10
-20.2679383292
 20
26.5302297334
 10
-20.2643495764
 20
26.5324297939
 10
-20.2589970822
 20
26.5355033942
 10
-20.2520119271
 20
26.5394670232
 10
-20.2435529802
 20
26.5444412015
 10
-20.233671651
 20
26.5501213954
 10
-20.222443997
 20
26.5564454606
 10
-20.2100193813
 20
26.5635807162
 10
-20.1965208072
 20
26.5715671086
  0
LWPOLYLINE
  5
4BE
100
AcDbEntity
  8
0
100
AcDbPolyline
 62
250
  6
CONTINUOUS
 90
13
 70
0
 10
9.7648378222
 20
12.5350691054
 10
9.7567955546
 20
12.5386382537
 10
9.7482881118
 20
12.5414081648
 10
9.7393616976
 20
12.5433506992
 10
9.7300471924
 20
12.5444501312
 10
9.7203746603
 20
12.5446942138
 10
9.71039666
 20
12.5440752552
 10
9.7001493886
 20
12.5425918574
 10
9.6896708993
 20
12.540245971
 10
9.6790213317
 20
12.5370496799
 10
9.6682484574
 20
12.5330192696
 10
9.6573862591
 20
12.528169623
 10
9.6464759224
 20
12.5225204119
  0
LWPOLYLINE
  5
4BF
100
AcDbEntity
  8
0
100
AcDbPolyline
 62
250
  6
CONTINUOUS
 90
13
 70
0
 10
-6.1450647545
 20
21.7212474552
 10
-6.1531070221
 20
21.7248166036
 10
-6.1616144649
 20
21.7275865147
 10
-6.1705408791
 20
21.7295290491
 10
-6.1798553843
 20
21.7306284811
 10
-6.1895279164
 20
21.7308725637
 10
-6.1995059167
 20
21.730253605
 10
-6.2097531881
 20
21.7287702073
 10
-6.2202316774
 20
21.7264243209
 10
-6.230881245
 20
21.7232280298
 10
-6.2416541193
 20
21.7191976194
 10
-6.2525163176
 20
21.7143479729
 10
-6.2634266543
 20
21.7086987618
  0
LWPOLYLINE
  5
4C0
100
AcDbEntity
  8
0
100
AcDbPolyline
 62
250
  6
CONTINUOUS
 90
8
 70
0
 10
-8.3724034631
 20
20.4482452929
 10
-8.3911571951
 20
20.4573232598
 10
-8.4095479517
 20
20.463477828
 10
-8.4272611834
 20
20.4666037333
 10
-8.4439939298
 20
20.4666475127
 10
-8.4594599995
 20
20.4636084188
 10
-8.4733948658
 20
20.4575384334
 10
-8.475112687
 20
20.4565120903
  0
LWPOLYLINE
  5
4C1
100
AcDbEntity
  8
0
100
AcDbPolyline
 62
250
  6
CONTINUOUS
 90
9
 70
0
 10
4.436894041
 20
14.3056837705
 10
4.4181167921
 20
14.3150487404
 10
4.3995789773
 20
14.3220955073
 10
4.3814836223
 20
14.3267468942
 10
4.3640289059
 20
14.3289519583
 10
4.3474059935
 20
14.3286865484
 10
4.3317969422
 20
14.3259535712
 10
4.3173727014
 20
14.3207829584
 10
4.3084878251
 20
14.3160050967
  0
LWPOLYLINE
  5
4C2
100
AcDbEntity
  8
0
100
AcDbPolyline
 62
250
  6
CONTINUOUS
 90
9
 70
0
 10
0.7245834398
 20
16.4491253854
 10
0.7058061909
 20
16.4584903554
 10
0.6872683761
 20
16.4655371223
 10
0.669173021
 20
16.4701885092
 10
0.6517183047
 20
16.4723935733
 10
0.6350953923
 20
16.4721281634
 10
0.619486341
 20
16.4693951862
 10
0.6050621002
 20
16.4642245734
 10
0.5961772239
 20
16.4594467117
  0
LWPOLYLINE
  5
4C3
100
AcDbEntity
  8
0
100
AcDbPolyline
 62
250
  6
CONTINUOUS
 90
9
 70
0
 10
-11.4730085357
 20
23.4918621204
 10
-11.4917857846
 20
23.5012270903
 10
-11.5103235994
 20
23.5082738572
 10
-11.5284189544
 20
23.5129252441
 10
-11.5458736708
 20
23.5151303082
 10
-11.5624965832
 20
23.5148648983
 10
-11.5781056345
 20
23.5121319211
 10
-11.5925298753
 20
23.5069613083
 10
-11.6014147516
 20
23.5021834466
  0
LWPOLYLINE
  5
4C4
100
AcDbEntity
  8
0
100
AcDbPolyline
 62
250
  6
CONTINUOUS
 90
9
 70
0
 10
-15.1853191369
 20
25.6353037353
 10
-15.2040963858
 20
25.6446687053
 10
-15.2226342006
 20
25.6517154722
 10
-15.2407295557
 20
25.656366859
 10
-15.258184272
 20
25.6585719231
 10
-15.2748071844
 20
25.6583065133
 10
-15.2904162357
 20
25.655573536
 10
-15.3048404765
 20
25.6504029233
 10
-15.3137253528
 20
25.6456250616
  0
LWPOLYLINE
  5
4C5
100
AcDbEntity
  8
0
100
AcDbPolyline
 62
250
  6
CONTINUOUS
 90
13
 70
0
 10
-19.0674880028
 20
26.2187919745
 10
-19.048049576
 20
26.2089347775
 10
-19.0265700467
 20
26.2006088252
 10
-19.0034088255
 20
26.1939534332
 10
-18.9789534621
 20
26.1890799639
 10
-18.9536131609
 20
26.1860699633
 10
-18.9278119336
 20
26.1849737966
 10
-18.9019815041
 20
26.1858098054
 10
-18.8765540849
 20
26.1885640008
 10
-18.8519551449
 20
26.1931902973
 10
-18.8285962905
 20
26.1996112845
 10
-18.8068683776
 20
26.2077195217
 10
-18.7871349725
 20
26.2173793361
  0
LWPOLYLINE
  5
4C6
100
AcDbEntity
  8
0
100
AcDbPolyline
 62
7
  6
CONTINUOUS
 90
11
 70
0
 10
9.7688754995
 20
12.532878448
 10
9.7484357967
 20
12.5432893075
 10
9.7271405988
 20
12.5514497069
 10
9.7050985179
 20
12.5573437412
 10
9.6823664906
 20
12.5609360054
 10
9.6592182738
 20
12.5621435088
 10
9.6359560793
 20
12.5609281511
 10
9.6126335121
 20
12.5572595624
 10
9.589430811
 20
12.5510925981
 10
9.5667044115
 20
12.5424665231
 10
9.5493873322
 20
12.5340274691
  0
LWPOLYLINE
  5
4C7
100
AcDbEntity
  8
0
100
AcDbPolyline
 62
7
  6
CONTINUOUS
 90
11
 70
0
 10
-6.1410270772
 20
21.7190567978
 10
-6.16146678
 20
21.7294676574
 10
-6.1827619779
 20
21.7376280568
 10
-6.2048040588
 20
21.743522091
 10
-6.2275360861
 20
21.7471143552
 10
-6.2506843029
 20
21.7483218587
 10
-6.2739464974
 20
21.7471065009
 10
-6.2972690646
 20
21.7434379123
 10
-6.3204717657
 20
21.737270948
 10
-6.3431981652
 20
21.728644873
 10
-6.3605152445
 20
21.7202058189
  0
LWPOLYLINE
  5
4C8
100
AcDbEntity
  8
0
100
AcDbPolyline
 62
7
  6
CONTINUOUS
 90
9
 70
0
 10
-3.4827508454
 20
19.4979476599
 10
-3.4974223674
 20
19.5055420306
 10
-3.5119993065
 20
19.5113080697
 10
-3.526317396
 20
19.515161329
 10
-3.540261971
 20
19.51704072
 10
-3.5536151175
 20
19.5168833669
 10
-3.5660856507
 20
19.5147006633
 10
-3.5774613498
 20
19.5106021073
 10
-3.5809827392
 20
19.5088401599
  0
LWPOLYLINE
  5
4C9
100
AcDbEntity
  8
0
100
AcDbPolyline
 62
7
  6
CONTINUOUS
 90
9
 70
0
 10
-15.0085967635
 20
25.7445915019
 10
-15.0269361661
 20
25.7540844653
 10
-15.0451573398
 20
25.7612920141
 10
-15.0630549517
 20
25.7661085883
 10
-15.0804856705
 20
25.768457827
 10
-15.0971771037
 20
25.7682611356
 10
-15.1127652701
 20
25.765532756
 10
-15.1269848941
 20
25.7604095611
 10
-15.1313866308
 20
25.7582071268
  0
LWPOLYLINE
  5
4CA
100
AcDbEntity
  8
0
100
AcDbPolyline
 62
7
  6
CONTINUOUS
 90
9
 70
0
 10
-19.3926534221
 20
28.6841260098
 10
-19.4073249441
 20
28.6917203805
 10
-19.4219018832
 20
28.6974864195
 10
-19.4362199727
 20
28.7013396789
 10
-19.4501645477
 20
28.7032190699
 10
-19.4635176942
 20
28.7030617167
 10
-19.4759882274
 20
28.7008790131
 10
-19.4873639265
 20
28.6967804572
 10
-19.4908853159
 20
28.6950185097
  0
LWPOLYLINE
  5
4CB
100
AcDbEntity
  8
0
100
AcDbPolyline
 62
250
  6
CONTINUOUS
 90
7
 70
0
 10
9.6464759224
 20
12.5225204119
 10
9.6283239902
 20
12.5319458309
 10
9.610440308
 20
12.5383931675
 10
9.5931307522
 20
12.5417521488
 10
9.5766913793
 20
12.5419653238
 10
9.5614033627
 20
12.5390290466
 10
9.5493872865
 20
12.5340275542
  0
LWPOLYLINE
  5
4CC
100
AcDbEntity
  8
0
100
AcDbPolyline
 62
250
  6
CONTINUOUS
 90
7
 70
0
 10
-6.2634266543
 20
21.7086987618
 10
-6.2815785865
 20
21.7181241808
 10
-6.2994622687
 20
21.7245715174
 10
-6.3167718245
 20
21.7279304986
 10
-6.3332111974
 20
21.7281436737
 10
-6.348499214
 20
21.7252073965
 10
-6.3605152902
 20
21.720205904
  0
LWPOLYLINE
  5
4CD
100
AcDbEntity
  8
RACCORDO
100
AcDbPolyline
 62
250
  6
CONTINUOUS
 90
16
 70
0
 10
-0.9017895549
 20
19.0862869474
 10
-0.8628960788
 20
19.0660669484
 10
-0.820555105
 20
19.0483050994
 10
-0.7752305424
 20
19.0331960002
 10
-0.7274189804
 20
19.0209051842
 10
-0.6776442686
 20
19.0115673098
 10
-0.6264517789
 20
19.0052846815
 10
-0.574402396
 20
19.0021261233
 10
-0.5220663865
 20
19.0021262307
 10
-0.4700171719
 20
19.0052849906
 10
-0.4188250136
 20
19.0115677815
 10
-0.3690507746
 20
19.0209057552
 10
-0.3212397891
 20
19.0331965884
 10
-0.2759158713
 20
19.048305607
 10
-0.2335755773
 20
19.0660672631
 10
-0.1946827737
 20
19.0862869474
  0
LWPOLYLINE
  5
4CE
100
AcDbEntity
  8
0
100
AcDbPolyline
 62
250
  6
CONTINUOUS
 90
16
 70
0
 10
-9.425538845
 20
21.9050176911
 10
-9.40622065
 20
21.8949678312
 10
-9.3852036949
 20
21.8861326849
 10
-9.3627162777
 20
21.8786069802
 10
-9.3390167237
 20
21.8724744083
 10
-9.3143485792
 20
21.8677953732
 10
-9.2889328173
 20
21.8646150986
 10
-9.2629852136
 20
21.8629732678
 10
-9.2368419347
 20
21.8629036497
 10
-9.2109110968
 20
21.8644035128
 10
-9.1854955185
 20
21.8674381249
 10
-9.1608395107
 20
21.8719608826
 10
-9.1372444987
 20
21.8778962149
 10
-9.11495836
 20
21.8851542645
 10
-9.0941787321
 20
21.893641872
 10
-9.075097557
 20
21.9032518931
  0
LWPOLYLINE
  5
4CF
100
AcDbEntity
  8
0
100
AcDbPolyline
 62
250
  6
CONTINUOUS
 90
16
 70
0
 10
-13.1378494462
 20
24.048459306
 10
-13.1185312513
 20
24.0384094462
 10
-13.0975142961
 20
24.0295742998
 10
-13.0750268789
 20
24.0220485952
 10
-13.0513273249
 20
24.0159160232
 10
-13.0266591804
 20
24.0112369882
 10
-13.0012434186
 20
24.0080567136
 10
-12.9752958148
 20
24.0064148828
 10
-12.9491525359
 20
24.0063452647
 10
-12.9232216981
 20
24.0078451278
 10
-12.8978061198
 20
24.0108797399
 10
-12.8731501119
 20
24.0154024976
 10
-12.8495550999
 20
24.0213378299
 10
-12.8272689612
 20
24.0285958795
 10
-12.8064893333
 20
24.0370834869
 10
-12.7874081583
 20
24.0466935081
  0
LWPOLYLINE
  5
4D0
100
AcDbEntity
  8
0
100
AcDbPolyline
 62
250
  6
CONTINUOUS
 90
9
 70
0
 10
11.8707126827
 20
11.319304599
 10
11.8652305617
 20
11.3222018462
 10
11.8511737856
 20
11.3274872877
 10
11.8359905152
 20
11.330362692
 10
11.819844955
 20
11.3307964476
 10
11.8029130827
 20
11.3287854118
 10
11.7853782276
 20
11.3243533493
 10
11.7674283812
 20
11.3175486331
 10
11.7492564957
 20
11.308445373
  0
LWPOLYLINE
  5
4D1
100
AcDbEntity
  8
0
100
AcDbPolyline
 62
250
  6
CONTINUOUS
 90
9
 70
0
 10
-4.039189894
 20
20.5054829489
 10
-4.044672015
 20
20.5083801961
 10
-4.0587287911
 20
20.5136656376
 10
-4.0739120615
 20
20.5165410419
 10
-4.0900576217
 20
20.5169747975
 10
-4.106989494
 20
20.5149637617
 10
-4.1245243491
 20
20.5105316991
 10
-4.1424741955
 20
20.503726983
 10
-4.160646081
 20
20.4946237229
  0
LINE
  5
4D2
100
AcDbEntity
  8
0
100
AcDbLine
 62
250
  6
CONTINUOUS
 10
9.7688223823
 20
12.5329097156
 11
9.7648378222
 21
12.5350691054
  0
LINE
  5
4D3
100
AcDbEntity
  8
0
100
AcDbLine
 62
250
  6
CONTINUOUS
 10
-6.1410801944
 20
21.7190880655
 11
-6.1450647545
 21
21.7212474552
  0
LWPOLYLINE
  5
4D4
100
AcDbEntity
  8
0
100
AcDbPolyline
 62
7
  6
CONTINUOUS
 90
10
 70
0
 10
-2.8178192252
 20
19.8002743835
 10
-2.823332735
 20
19.8033477787
 10
-2.8484008264
 20
19.8148579146
 10
-2.8749667159
 20
19.8231590347
 10
-2.9025546665
 20
19.8280439569
 10
-2.9306335816
 20
19.8294002757
 10
-2.9590883557
 20
19.827160268
 10
-2.987579484
 20
19.8212121092
 10
-3.0154566351
 20
19.8116081173
 10
-3.0370766358
 20
19.801333775
  0
LWPOLYLINE
  5
4D5
100
AcDbEntity
  8
0
100
AcDbPolyline
 62
7
  6
CONTINUOUS
 90
10
 70
0
 10
-18.7277218019
 20
28.9864527334
 10
-18.7332353117
 20
28.9895261286
 10
-18.7583034031
 20
29.0010362644
 10
-18.7848692926
 20
29.0093373846
 10
-18.8124572432
 20
29.0142223068
 10
-18.8405361583
 20
29.0155786256
 10
-18.8689909324
 20
29.0133386178
 10
-18.8974820607
 20
29.0073904591
 10
-18.9253592118
 20
28.9977864672
 10
-18.9469792125
 20
28.9875121248
  0
LINE
  5
4D6
100
AcDbEntity
  8
0
100
AcDbLine
 62
7
  6
CONTINUOUS
 10
-15.0085967635
 20
25.7445915019
 11
-12.7811565549
 21
24.4584954418
  0
LINE
  5
4D7
100
AcDbEntity
  8
0
100
AcDbLine
 62
7
  6
CONTINUOUS
 10
-11.2962861623
 20
23.6011498869
 11
-9.0688459537
 21
22.3150538268
  0
LINE
  5
4D8
100
AcDbEntity
  8
0
100
AcDbLine
 62
7
  6
CONTINUOUS
 10
0.9013058132
 20
16.558413152
 11
3.1287460218
 21
15.2723170919
  0
LINE
  5
4D9
100
AcDbEntity
  8
0
100
AcDbLine
 62
7
  6
CONTINUOUS
 10
4.6136164144
 20
14.414971537
 11
6.841056623
 21
13.128875477
  0
LINE
  5
4DA
100
AcDbEntity
  8
0
100
AcDbLine
 62
7
  6
CONTINUOUS
 10
-19.3926534221
 20
28.6841260098
 11
-17.2712900002
 21
27.4592773569
  0
LINE
  5
4DB
100
AcDbEntity
  8
0
100
AcDbLine
 62
7
  6
CONTINUOUS
 10
-6.806152717
 20
21.4168382486
 11
-4.6847892951
 21
20.1919895957
  0
LINE
  5
4DC
100
AcDbEntity
  8
0
100
AcDbLine
 62
7
  6
CONTINUOUS
 10
-3.4827508454
 20
19.4979476599
 11
-1.3613874235
 21
18.2730990071
  0
LINE
  5
4DD
100
AcDbEntity
  8
0
100
AcDbLine
 62
7
  6
CONTINUOUS
 10
9.1037498597
 20
12.2306598987
 11
11.2251132816
 21
11.0058112458
  0
LINE
  5
4DE
100
AcDbEntity
  8
0
100
AcDbLine
 62
7
  6
CONTINUOUS
 10
7.2299115048
 20
13.7066531867
 11
5.3330657904
 21
14.8018681291
  0
LINE
  5
4DF
100
AcDbEntity
  8
0
100
AcDbLine
 62
7
  6
CONTINUOUS
 10
3.8235102082
 20
15.6734666031
 11
1.9266644938
 21
16.7686815456
  0
LINE
  5
4E0
100
AcDbEntity
  8
0
100
AcDbLine
 62
7
  6
CONTINUOUS
 10
-8.6799910719
 20
22.8928315366
 11
-10.5768367863
 21
23.988046479
  0
LINE
  5
4E1
100
AcDbEntity
  8
0
100
AcDbLine
 62
7
  6
CONTINUOUS
 10
-12.0863923685
 20
24.859644953
 11
-13.9832380829
 21
25.9548598954
  0
LINE
  5
4E2
100
AcDbEntity
  8
RACCORDO
100
AcDbLine
 62
250
  6
CONTINUOUS
 10
0.6781276239
 20
17.5859510059
 11
-0.605619156
 21
18.3271703075
  0
LINE
  5
4E3
100
AcDbEntity
  8
0
100
AcDbLine
 62
250
  6
CONTINUOUS
 10
-16.7471835982
 20
27.7618908639
 11
-18.849887792
 21
28.9760078011
  0
LINE
  5
4E4
100
AcDbEntity
  8
0
100
AcDbLine
 62
250
  6
CONTINUOUS
 10
-0.8372810215
 20
18.5757125141
 11
-2.9399852153
 21
19.7898294512
  0
LINE
  5
4E5
100
AcDbEntity
  8
0
100
AcDbLine
 62
250
  6
CONTINUOUS
 10
11.7492559504
 20
11.3084456929
 11
9.6464759224
 21
12.5225204119
  0
LINE
  5
4E6
100
AcDbEntity
  8
0
100
AcDbLine
 62
250
  6
CONTINUOUS
 10
-4.1606466263
 20
20.4946240427
 11
-6.2634266543
 21
21.7086987618
  0
LINE
  5
4E7
100
AcDbEntity
  8
0
100
AcDbLine
 62
7
  6
CONTINUOUS
 10
11.8707134575
 20
11.3193041517
 11
9.7688224909
 21
12.5329096529
  0
LINE
  5
4E8
100
AcDbEntity
  8
0
100
AcDbLine
 62
7
  6
CONTINUOUS
 10
-0.7157876374
 20
18.5865921379
 11
-2.8176787694
 21
19.8001977347
  0
LINE
  5
4E9
100
AcDbEntity
  8
0
100
AcDbLine
 62
7
  6
CONTINUOUS
 10
-4.0391891192
 20
20.5054825016
 11
-6.1410800858
 21
21.7190880028
  0
LINE
  5
4EA
100
AcDbEntity
  8
0
100
AcDbLine
 62
7
  6
CONTINUOUS
 10
-16.625690214
 20
27.7727704878
 11
-18.7275813461
 21
28.9863760846
  0
LINE
  5
4EB
100
AcDbEntity
  8
RACCORDO
100
AcDbLine
 62
250
  6
CONTINUOUS
 10
1.3940804819
 20
17.9890785304
 11
-0.1946827737
 21
18.9064105223
  0
LWPOLYLINE
  5
4EC
100
AcDbEntity
  8
0
100
AcDbPolyline
 62
250
  6
CONTINUOUS
 90
13
 70
0
 10
-0.837282957
 20
18.5757113965
 10
-0.8185292363
 20
18.5638279529
 10
-0.8001384886
 20
18.549330885
 10
-0.782425263
 20
18.5324681464
 10
-0.7656925202
 20
18.513528152
 10
-0.7502264513
 20
18.4928348457
 10
-0.7362915827
 20
18.4707421596
 10
-0.7241262513
 20
18.4476279603
 10
-0.7139385278
 20
18.4238875849
 10
-0.7059026586
 20
18.3999270798
 10
-0.7001560857
 20
18.3761562567
 10
-0.696797096
 20
18.3529816835
 10
-0.6958831399
 20
18.3307997294
  0
LWPOLYLINE
  5
4ED
100
AcDbEntity
  8
0
100
AcDbPolyline
 62
7
  6
CONTINUOUS
 90
16
 70
0
 10
11.2251132816
 20
11.0058112458
 10
11.2397848036
 20
10.9964540672
 10
11.2543617426
 20
10.9853891088
 10
11.2686798322
 20
10.9727153544
 10
11.2826244072
 20
10.9584962834
 10
11.2959775537
 20
10.9429174746
 10
11.3084480868
 20
10.9263313049
 10
11.319823786
 20
10.9090952853
 10
11.3301117505
 20
10.8912760081
 10
11.3393506629
 20
10.8728064732
 10
11.3474793007
 20
10.8537138323
 10
11.3542941608
 20
10.8343606288
 10
11.3596356731
 20
10.8151752168
 10
11.3634520836
 20
10.7964390958
 10
11.3657457535
 20
10.7782833024
 10
11.3665130987
 20
10.7608995787
  0
LWPOLYLINE
  5
4EE
100
AcDbEntity
  8
0
100
AcDbPolyline
 62
250
  6
CONTINUOUS
 90
6
 70
0
 10
11.9073804045
 20
10.6768714412
 10
11.9151791676
 20
10.6645835849
 10
11.9204116289
 20
10.6538609639
 10
11.9229892407
 20
10.6448850198
 10
11.922868377
 20
10.6378076414
 10
11.9209484691
 20
10.6337442171
  0
LWPOLYLINE
  5
4EF
100
AcDbEntity
  8
RACCORDO
100
AcDbPolyline
 62
250
  6
CONTINUOUS
 90
43
 70
0
 10
12.4148306757
 20
8.855128032
 10
12.6658404198
 20
8.403297413
 10
13.016915497
 20
7.738291891
 10
13.3529741276
 20
7.0673096718
 10
13.6735583555
 20
6.3912650793
 10
13.9782312813
 20
5.7110793983
 10
14.2665776879
 20
5.0276795655
 10
14.5382046021
 20
4.3419969191
 10
14.7927418805
 20
3.6549657967
 10
15.0298426869
 20
2.9675222984
 10
15.249183985
 20
2.2806029159
 10
15.450466736
 20
1.5951440402
 10
15.6334164208
 20
0.9120805457
 10
15.7977836699
 20
0.2323436669
 10
15.9433446483
 20
-0.4431407245
 10
16.0699011124
 20
-1.1134525926
 10
16.1772806919
 20
-1.7776791217
 10
16.2653369252
 20
-2.4349145072
 10
16.3339496839
 20
-3.0842616986
 10
16.3830254917
 20
-3.7248342144
 10
16.4124978035
 20
-4.355760905
 10
16.4223265841
 20
-4.9761855279
 10
16.4124981618
 20
-5.5852647802
 10
16.3830256517
 20
-6.1821661745
 10
16.3339493468
 20
-6.7660728878
 10
16.2653364731
 20
-7.3361877281
 10
16.1772805498
 20
-7.8917355311
 10
16.0699013831
 20
-8.4319607844
 10
15.9433451467
 20
-8.9561277627
 10
15.7977843616
 20
-9.4635216482
 10
15.6334173636
 20
-9.9534509627
 10
15.4504681308
 20
-10.4252480007
 10
15.2491859317
 20
-10.8782698544
 10
15.0298449762
 20
-11.3118992577
 10
14.7927440225
 20
-11.7255454226
 10
14.5382062269
 20
-12.1186444286
 10
14.2665787082
 20
-12.4906601693
 10
13.9782316939
 20
-12.8410856434
 10
13.6735580884
 20
-13.1694434097
 10
13.3529732462
 20
-13.475285891
 10
13.0169141578
 20
-13.7581962942
 10
12.6658387371
 20
-14.0177892232
 10
12.4456895132
 20
-14.159846393
  0
LWPOLYLINE
  5
4F0
100
AcDbEntity
  8
0
100
AcDbPolyline
 62
7
  6
CONTINUOUS
 90
19
 70
0
 10
10.8390094196
 20
14.9354457039
 10
10.8586479207
 20
14.8982452188
 10
10.8761149805
 20
14.8608972542
 10
10.8914105991
 20
14.82340181
 10
10.9046133972
 20
14.7854874134
 10
10.915644754
 20
14.7474255373
 10
10.9242688074
 20
14.7100306005
 10
10.9304335747
 20
14.6733176931
 10
10.9341910386
 20
14.6372717251
 10
10.9354612852
 20
14.6026618451
 10
10.9341910386
 20
14.5695188141
 10
10.9304335747
 20
14.5378118712
 10
10.9242688074
 20
14.5082178825
 10
10.915644754
 20
14.4807817865
 10
10.9046133972
 20
14.4554586447
 10
10.8914105991
 20
14.4327905084
 10
10.8761149805
 20
14.4129580612
 10
10.8586479207
 20
14.3957806194
 10
10.8390094196
 20
14.3812581831
  0
LWPOLYLINE
  5
4F1
100
AcDbEntity
  8
0
100
AcDbPolyline
 62
7
  6
CONTINUOUS
 90
4
 70
0
 10
11.3596356731
 20
-28.9659393738
 10
11.3634582814
 20
-28.9516139265
 10
11.3657537581
 20
-28.9361078488
 10
11.3665130987
 20
-28.9196056144
  0
LWPOLYLINE
  5
4F2
100
AcDbEntity
  8
0
100
AcDbPolyline
 62
250
  6
CONTINUOUS
 90
7
 70
0
 10
11.9073804045
 20
-28.1888059457
 10
11.9151792079
 20
-28.1643792507
 10
11.9204116632
 20
-28.1390085229
 10
11.922989232
 20
-28.1131230596
 10
11.9228682996
 20
-28.0871608678
 10
11.9200509121
 20
-28.0615612529
 10
11.9145847425
 20
-28.0367573851
  0
LWPOLYLINE
  5
4F3
100
AcDbEntity
  8
RACCORDO
100
AcDbPolyline
 62
7
  6
CONTINUOUS
 90
55
 70
0
 10
18.5617730254
 20
-10.6395035575
 10
18.6954178961
 20
-10.5602490388
 10
19.106798571
 20
-10.2891828376
 10
19.4988044495
 20
-9.9885148904
 10
19.8713344365
 20
-9.6580907028
 10
20.2244896272
 20
-9.2980647693
 10
20.556429843
 20
-8.9103123587
 10
20.8670443829
 20
-8.4946887572
 10
21.1564439479
 20
-8.0513386785
 10
21.4231204635
 20
-7.5825715332
 10
21.6669553547
 20
-7.0882546539
 10
21.8880671964
 20
-6.5685207079
 10
22.0853036391
 20
-6.026077108
 10
22.2585400899
 20
-5.4608053105
 10
22.4079011416
 20
-4.8728238591
 10
22.5326082235
 20
-4.2651957972
 10
22.6325326686
 20
-3.6378184436
 10
22.7078031439
 20
-2.9907944795
 10
22.7580270797
 20
-2.3274949923
 10
22.7830736193
 20
-1.6478343679
 10
22.7830736193
 20
-0.9518982204
 10
22.7580270797
 20
-0.2433144799
 10
22.7078031439
 20
0.4779823494
 10
22.6325326686
 20
1.2119267716
 10
22.5326082235
 20
1.9546943698
 10
22.4079011416
 20
2.706331044
 10
22.2585400899
 20
3.466790894
 10
22.0853036391
 20
4.2321118025
 10
21.8880671964
 20
5.0023191026
 10
21.6669553547
 20
5.777387461
 10
21.4231204635
 20
6.5532787608
 10
21.1564439479
 20
7.3299972618
 10
20.8670443829
 20
8.1075387041
 10
20.556429843
 20
8.8818521904
 10
20.2244896272
 20
9.6529208419
 10
19.8713344365
 20
10.4207615374
 10
19.4988044495
 20
11.1813740163
 10
19.106798571
 20
11.9347205259
 10
18.6954178961
 20
12.6808388189
 10
18.2668058882
 20
13.4158418924
 10
17.8208726405
 20
14.1396717118
 10
17.3577080599
 20
14.8523863117
 10
16.8797253301
 20
15.5502727926
 10
16.3868471394
 20
16.2332537474
 10
15.8791507994
 20
16.9014065832
 10
15.3592814289
 20
17.5512506221
 10
14.8271755209
 20
18.1826902967
 10
14.2828965825
 20
18.7958211744
 10
13.729280253
 20
19.3874492796
 10
13.1662046538
 20
19.9575157565
 10
12.5937916636
 20
20.5060794609
 10
12.0152425572
 20
21.0301229849
 10
11.431624426
 20
21.528640526
 10
10.8418701787
 20
22.0026378868
 10
10.245979815
 20
22.4521150672
  0
LINE
  5
4F4
100
AcDbEntity
  8
0
100
AcDbLine
 62
7
  6
CONTINUOUS
 10
18.5618021455
 20
-10.6395539823
 11
12.4456895132
 21
-14.1709207633
  0
LINE
  5
4F5
100
AcDbEntity
  8
0
100
AcDbLine
 62
7
  6
CONTINUOUS
 10
18.6118045615
 20
-10.7261551277
 11
25.8242937296
 21
-6.5617542758
  0
LWPOLYLINE
  5
4F6
100
AcDbEntity
  8
0
100
AcDbPolyline
 62
7
  6
CONTINUOUS
 90
4
 70
0
 10
18.6118045613
 20
-10.7261551274
 10
18.1546980239
 20
-10.9674028164
 10
17.6786000646
 20
-11.1746126001
 10
17.5684010497
 20
-11.2131313247
  0
LINE
  5
4F7
100
AcDbEntity
  8
0
100
AcDbLine
 62
7
  6
CONTINUOUS
 10
-6.3410136819
 20
18.509665816
 11
-5.6948062589
 21
18.4465753657
  0
LINE
  5
4F8
100
AcDbEntity
  8
0
100
AcDbLine
 62
250
  6
CONTINUOUS
 10
-6.1826480329
 20
18.6256518211
 11
-5.4458402287
 21
18.5537158847
  0
LWPOLYLINE
  5
4F9
100
AcDbEntity
  8
0
100
AcDbPolyline
 62
7
  6
CONTINUOUS
 90
5
 70
0
 10
-6.8636600464
 20
21.4359335005
 10
-6.8497192676
 20
21.4340519177
 10
-6.8354073759
 20
21.4301950797
 10
-6.8208322436
 20
21.4244279975
 10
-6.806152717
 20
21.4168382486
  0
LWPOLYLINE
  5
4FA
100
AcDbEntity
  8
RACCORDO
100
AcDbPolyline
 62
250
  6
CONTINUOUS
 90
3
 70
0
 10
-3.0823238716
 20
19.7770027172
 10
-3.1835922202
 20
19.7987894103
 10
-3.3659912596
 20
19.8336633729
  0
LWPOLYLINE
  5
4FB
100
AcDbEntity
  8
RACCORDO
100
AcDbPolyline
 62
250
  6
CONTINUOUS
 90
6
 70
0
 10
0.1126777116
 20
20.9540140217
 10
-0.158657091
 20
21.06636016
 10
-0.4264022804
 20
21.1712437586
 10
-0.6904887459
 20
21.2688258425
 10
-0.9505081302
 20
21.3591536892
 10
-1.1768862062
 20
21.4328080866
  0
LWPOLYLINE
  5
4FC
100
AcDbEntity
  8
0
100
AcDbPolyline
 62
250
  6
CONTINUOUS
 90
11
 70
0
 10
13.7613748213
 20
16.1874564098
 10
13.7220668862
 20
16.2045808964
 10
13.6803178323
 20
16.2168328367
 10
13.6363559804
 20
16.2241452258
 10
13.5904217534
 20
16.226478073
 10
13.5427663603
 20
16.2238186205
 10
13.4936504223
 20
16.2161814127
 10
13.4433425482
 20
16.2036082164
 10
13.3921178656
 20
16.1861677931
 10
13.3402565161
 20
16.1639555224
 10
13.2880421228
 20
16.1370928804
  0
LWPOLYLINE
  5
4FD
100
AcDbEntity
  8
RACCORDO
100
AcDbPolyline
 62
250
  6
CONTINUOUS
 90
19
 70
0
 10
0.1126777116
 20
20.9540140217
 10
0.1459751161
 20
20.9380162207
 10
0.1793877064
 20
20.9183078811
 10
0.2126170329
 20
20.8950650426
 10
0.2453662828
 20
20.8684953161
 10
0.2773429318
 20
20.838836029
 10
0.3082613565
 20
20.8063521055
 10
0.3378453858
 20
20.7713337002
 10
0.3658307679
 20
20.7340936061
 10
0.3919675303
 20
20.694964461
 10
0.4160222129
 20
20.6542957763
 10
0.4377799534
 20
20.6124508148
 10
0.4570464061
 20
20.5698033461
 10
0.4736494782
 20
20.5267343081
 10
0.4874408671
 20
20.4836284041
 10
0.4982973846
 20
20.4408706669
 10
0.5061220575
 20
20.3988430191
 10
0.5108449939
 20
20.3579208623
 10
0.5124240075
 20
20.3184697233
  0
LWPOLYLINE
  5
4FE
100
AcDbEntity
  8
0
100
AcDbPolyline
 62
250
  6
CONTINUOUS
 90
7
 70
0
 10
10.5545306555
 20
15.4945257771
 10
10.5318407402
 20
15.5063075508
 10
10.5094861375
 20
15.5143667216
 10
10.4878491927
 20
15.5185654481
 10
10.4672999767
 20
15.518831917
 10
10.448189956
 20
15.5151615705
 10
10.4330389809
 20
15.5088394724
  0
LWPOLYLINE
  5
4FF
100
AcDbEntity
  8
0
100
AcDbPolyline
 62
250
  6
CONTINUOUS
 90
7
 70
0
 10
4.9453743398
 20
18.7331823345
 10
4.9226844246
 20
18.7449641082
 10
4.9003298221
 20
18.753023279
 10
4.8786928776
 20
18.7572220057
 10
4.8581436619
 20
18.7574884748
 10
4.8390336416
 20
18.7538181286
 10
4.8238826667
 20
18.7474960306
  0
LWPOLYLINE
  5
500
100
AcDbEntity
  8
0
100
AcDbPolyline
 62
250
  6
CONTINUOUS
 90
7
 70
0
 10
-5.3553719212
 20
24.6807041269
 10
-5.3780618365
 20
24.6924859007
 10
-5.4004164392
 20
24.7005450714
 10
-5.422053384
 20
24.704743798
 10
-5.4426026
 20
24.7050102669
 10
-5.4617126207
 20
24.7013399204
 10
-5.4768635958
 20
24.6950178223
  0
LWPOLYLINE
  5
501
100
AcDbEntity
  8
0
100
AcDbPolyline
 62
250
  6
CONTINUOUS
 90
7
 70
0
 10
-10.9645282369
 20
27.9193606844
 10
-10.9872181521
 20
27.9311424581
 10
-11.0095727546
 20
27.9392016289
 10
-11.0312096991
 20
27.9434003556
 10
-11.0517589148
 20
27.9436668247
 10
-11.0708689351
 20
27.9399964784
 10
-11.08601991
 20
27.9336743805
  0
LINE
  5
502
100
AcDbEntity
  8
0
100
AcDbLine
 62
7
  6
CONTINUOUS
 10
11.7654031524
 20
15.370673517
 11
7.7441962055
 21
17.6924680106
  0
LINE
  5
503
100
AcDbEntity
  8
0
100
AcDbLine
 62
7
  6
CONTINUOUS
 10
-4.1444994243
 20
24.5568518669
 11
-8.1657063712
 21
26.8786463605
  0
LINE
  5
504
100
AcDbEntity
  8
0
100
AcDbLine
 62
7
  6
CONTINUOUS
 10
-6.5207758388
 20
27.2131662448
 11
-3.0125945402
 21
25.1875863308
  0
LINE
  5
505
100
AcDbEntity
  8
0
100
AcDbLine
 62
7
  6
CONTINUOUS
 10
9.3891267379
 20
18.0269878949
 11
12.8973080365
 21
16.001407981
  0
LWPOLYLINE
  5
506
100
AcDbEntity
  8
0
100
AcDbPolyline
 62
250
  6
CONTINUOUS
 90
13
 70
0
 10
-10.7726906886
 20
27.8085960883
 10
-10.7492486898
 20
27.7937418876
 10
-10.7262603731
 20
27.775620675
 10
-10.7041189207
 20
27.7545423765
 10
-10.6832030342
 20
27.7308674983
 10
-10.6638704523
 20
27.7050009561
 10
-10.6464518337
 20
27.677385148
 10
-10.6312451046
 20
27.648492393
 10
-10.6185103689
 20
27.6188168653
 10
-10.6084654517
 20
27.5888661371
 10
-10.6012821665
 20
27.5591524824
 10
-10.5970833806
 20
27.5301841143
 10
-10.5959409168
 20
27.5024565046
  0
LWPOLYLINE
  5
507
100
AcDbEntity
  8
0
100
AcDbPolyline
 62
250
  6
CONTINUOUS
 90
13
 70
0
 10
-5.1635343729
 20
24.5699395308
 10
-5.1400933601
 20
24.5550860187
 10
-5.1171058055
 20
24.5369656123
 10
-5.0949648661
 20
24.5158881337
 10
-5.0740492473
 20
24.4922140072
 10
-5.0547166883
 20
24.4663480558
 10
-5.0372978516
 20
24.4387325685
 10
-5.0220906993
 20
24.4098397705
 10
-5.0093554361
 20
24.3801638555
 10
-4.9993099975
 20
24.3502124908
 10
-4.9921262692
 20
24.3204980111
 10
-4.987927174
 20
24.2915286506
 10
-4.986784599
 20
24.2637999484
  0
LWPOLYLINE
  5
508
100
AcDbEntity
  8
0
100
AcDbPolyline
 62
250
  6
CONTINUOUS
 90
13
 70
0
 10
5.1372118881
 20
18.6224177384
 10
5.1606538869
 20
18.6075635378
 10
5.1836422036
 20
18.5894423252
 10
5.205783656
 20
18.5683640266
 10
5.2266995425
 20
18.5446891485
 10
5.2460321244
 20
18.5188226062
 10
5.263450743
 20
18.4912067982
 10
5.2786574721
 20
18.4623140432
 10
5.2913922078
 20
18.4326385154
 10
5.301437125
 20
18.4026877872
 10
5.3086204102
 20
18.3729741325
 10
5.3128191961
 20
18.3440057644
 10
5.3139616599
 20
18.3162781547
  0
LWPOLYLINE
  5
509
100
AcDbEntity
  8
0
100
AcDbPolyline
 62
250
  6
CONTINUOUS
 90
13
 70
0
 10
10.7463682038
 20
15.383761181
 10
10.7698092166
 20
15.3689076688
 10
10.7927967712
 20
15.3507872624
 10
10.8149377106
 20
15.3297097838
 10
10.8358533294
 20
15.3060356573
 10
10.8551858884
 20
15.2801697059
 10
10.8726047251
 20
15.2525542186
 10
10.8878118774
 20
15.2236614206
 10
10.9005471406
 20
15.1939855056
 10
10.9105925792
 20
15.1640341409
 10
10.9177763075
 20
15.1343196612
 10
10.9219754027
 20
15.1053503007
 10
10.9231179777
 20
15.0776215985
  0
LWPOLYLINE
  5
50A
100
AcDbEntity
  8
0
100
AcDbPolyline
 62
7
  6
CONTINUOUS
 90
19
 70
0
 10
22.8569982929
 20
-1.3425494743
 10
22.8429833463
 20
-2.0668443468
 10
22.8016458033
 20
-2.7712100688
 10
22.7329856639
 20
-3.4556466405
 10
22.6367685072
 20
-4.1213794965
 10
22.5132287541
 20
-4.767183202
 10
22.3630696674
 20
-5.3893814528
 10
22.1861394257
 20
-5.987839617
 10
21.9825898505
 20
-6.5626923263
 10
21.7535796686
 20
-7.1106671726
 10
21.4989636675
 20
-7.6316108597
 10
21.2188870597
 20
-8.1256766837
 10
20.9149442104
 20
-8.5900521238
 10
20.5869990001
 20
-9.024567843
 10
20.2351875483
 20
-9.4293931784
 10
19.861512578
 20
-9.8022236198
 10
19.4658493921
 20
-10.1428766867
 10
19.0483226877
 20
-10.4515348597
 10
18.6118045613
 20
-10.7261551274
  0
LINE
  5
50B
100
AcDbEntity
  8
0
100
AcDbLine
 62
7
  6
CONTINUOUS
 10
16.3072581628
 20
-18.4629715016
 11
12.4456895132
 21
-19.8746072604
  0
LWPOLYLINE
  5
50C
100
AcDbEntity
  8
0
100
AcDbPolyline
 62
250
  6
CONTINUOUS
 90
11
 70
0
 10
-2.1485277554
 20
25.3736347597
 10
-2.1878356905
 20
25.3907592463
 10
-2.2295847444
 20
25.4030111866
 10
-2.2735465963
 20
25.4103235757
 10
-2.3194808233
 20
25.4126564229
 10
-2.3671362164
 20
25.4099969704
 10
-2.4162521544
 20
25.4023597625
 10
-2.4665600285
 20
25.3897865663
 10
-2.517784711
 20
25.372346143
 10
-2.5696460606
 20
25.3501338723
 10
-2.6218604539
 20
25.3232712303
  0
LWPOLYLINE
  5
50D
100
AcDbEntity
  8
0
100
AcDbPolyline
 62
250
  6
CONTINUOUS
 90
8
 70
0
 10
13.2880421228
 20
16.1370928804
 10
13.2695470256
 20
16.1466341939
 10
13.2512207626
 20
16.1538154398
 10
13.2332641204
 20
16.1585579388
 10
13.2158738355
 20
16.1608097312
 10
13.1992404396
 20
16.1605461459
 10
13.1835461717
 20
16.1577700707
 10
13.1689629814
 20
16.1525119209
  0
LWPOLYLINE
  5
50E
100
AcDbEntity
  8
0
100
AcDbPolyline
 62
250
  6
CONTINUOUS
 90
8
 70
0
 10
-2.6218604539
 20
25.3232712303
 10
-2.6403555511
 20
25.3328125438
 10
-2.6586818141
 20
25.3399937897
 10
-2.6766384563
 20
25.3447362887
 10
-2.6940287412
 20
25.3469880811
 10
-2.7106621371
 20
25.3467244958
 10
-2.726356405
 20
25.3439484206
 10
-2.7409395953
 20
25.3386902708
  0
LWPOLYLINE
  5
50F
100
AcDbEntity
  8
0
100
AcDbPolyline
 62
7
  6
CONTINUOUS
 90
13
 70
0
 10
13.775725568
 20
16.1796330363
 10
13.7348346065
 20
16.2007963156
 10
13.6914664276
 20
16.2183795246
 10
13.6458295527
 20
16.2321166358
 10
13.5982802667
 20
16.2417525443
 10
13.54895175
 20
16.2471275728
 10
13.4976771801
 20
16.2480669667
 10
13.4443634902
 20
16.2442923169
 10
13.3895164802
 20
16.2355623115
 10
13.3337712026
 20
16.2217966505
 10
13.2774333536
 20
16.2029559653
 10
13.220537474
 20
16.17892235
 10
13.163266425
 20
16.1496087034
  0
LWPOLYLINE
  5
510
100
AcDbEntity
  8
0
100
AcDbPolyline
 62
7
  6
CONTINUOUS
 90
13
 70
0
 10
-2.1341770087
 20
25.3658113862
 10
-2.1750679702
 20
25.3869746655
 10
-2.2184361491
 20
25.4045578745
 10
-2.264073024
 20
25.4182949856
 10
-2.31162231
 20
25.4279308942
 10
-2.3609508267
 20
25.4333059226
 10
-2.4122253966
 20
25.4342453166
 10
-2.4655390865
 20
25.4304706667
 10
-2.5203860965
 20
25.4217406614
 10
-2.5761313741
 20
25.4079750004
 10
-2.6324692231
 20
25.3891343152
 10
-2.6893651027
 20
25.3651006999
 10
-2.7466361517
 20
25.3357870533
  0
LINE
  5
511
100
AcDbEntity
  8
0
100
AcDbLine
 62
250
  6
CONTINUOUS
 10
13.775725568
 20
16.1796330363
 11
13.7613748213
 21
16.1874564098
  0
LWPOLYLINE
  5
512
100
AcDbEntity
  8
0
100
AcDbPolyline
 62
250
  6
CONTINUOUS
 90
12
 70
0
 10
9.1088208122
 20
18.8742453523
 10
9.0944700658
 20
18.8820687256
 10
9.0551621308
 20
18.8991932122
 10
9.0134130769
 20
18.9114451525
 10
8.9694512251
 20
18.9187575417
 10
8.9235169981
 20
18.921090389
 10
8.8758616051
 20
18.9184309366
 10
8.8267456671
 20
18.9107937287
 10
8.776437793
 20
18.8982205325
 10
8.7252131102
 20
18.8807801093
 10
8.6733517605
 20
18.8585678385
 10
8.621137367
 20
18.8317051964
  0
LINE
  5
513
100
AcDbEntity
  8
0
100
AcDbLine
 62
250
  6
CONTINUOUS
 10
-2.1341770087
 20
25.3658113862
 11
-2.1485277554
 21
25.3736347597
  0
LWPOLYLINE
  5
514
100
AcDbEntity
  8
0
100
AcDbPolyline
 62
250
  6
CONTINUOUS
 90
12
 70
0
 10
-6.8010817645
 20
28.0604237022
 10
-6.8154325109
 20
28.0682470755
 10
-6.8547404459
 20
28.0853715621
 10
-6.8964894998
 20
28.0976235024
 10
-6.9404513516
 20
28.1049358916
 10
-6.9863855786
 20
28.1072687389
 10
-7.0340409716
 20
28.1046092864
 10
-7.0831569096
 20
28.0969720786
 10
-7.1334647837
 20
28.0843988824
 10
-7.1846894665
 20
28.0669584591
 10
-7.2365508162
 20
28.0447461883
 10
-7.2887652097
 20
28.0178835463
  0
LINE
  5
515
100
AcDbEntity
  8
0
100
AcDbLine
 62
250
  6
CONTINUOUS
 10
-10.1180573684
 20
29.6514813793
 11
-7.2887652097
 21
28.0178835463
  0
LINE
  5
516
100
AcDbEntity
  8
0
100
AcDbLine
 62
250
  6
CONTINUOUS
 10
-2.6218604539
 20
25.3232712303
 11
0.2074317048
 21
23.6896733972
  0
LINE
  5
517
100
AcDbEntity
  8
0
100
AcDbLine
 62
250
  6
CONTINUOUS
 10
5.7918452083
 20
20.4653030295
 11
8.621137367
 21
18.8317051964
  0
LINE
  5
518
100
AcDbEntity
  8
0
100
AcDbLine
 62
250
  6
CONTINUOUS
 10
13.2880421228
 20
16.1370928804
 11
16.1173342815
 21
14.5034950474
  0
LINE
  5
519
100
AcDbEntity
  8
0
100
AcDbLine
 62
7
  6
CONTINUOUS
 10
-9.8313783492
 20
29.8100789716
 11
-6.8010817645
 21
28.0604237022
  0
LINE
  5
51A
100
AcDbEntity
  8
0
100
AcDbLine
 62
7
  6
CONTINUOUS
 10
-2.1341770087
 20
25.3658113862
 11
0.896119576
 21
23.6161561168
  0
LINE
  5
51B
100
AcDbEntity
  8
0
100
AcDbLine
 62
7
  6
CONTINUOUS
 10
6.0785242275
 20
20.6239006218
 11
9.1088208122
 21
18.8742453523
  0
LINE
  5
51C
100
AcDbEntity
  8
0
100
AcDbLine
 62
7
  6
CONTINUOUS
 10
13.775725568
 20
16.1796330363
 11
16.8060221527
 21
14.4299777669
  0
LINE
  5
51D
100
AcDbEntity
  8
0
100
AcDbLine
 62
250
  6
CONTINUOUS
 10
9.5176121916
 20
-29.2425470178
 11
10.150402401
 21
-28.4751084939
  0
LINE
  5
51E
100
AcDbEntity
  8
0
100
AcDbLine
 62
7
  6
CONTINUOUS
 10
11.7200664893
 20
-26.4293661271
 11
12.4456895132
 21
-25.5603932462
  0
LINE
  5
51F
100
AcDbEntity
  8
0
100
AcDbLine
 62
7
  6
CONTINUOUS
 10
14.8820052949
 20
-18.9839872069
 11
15.2735958037
 21
-18.7538703687
  0
LINE
  5
520
100
AcDbEntity
  8
0
100
AcDbLine
 62
7
  6
CONTINUOUS
 10
16.7495270399
 20
-20.3408778158
 11
12.4456895132
 21
-22.8258638923
  0
LINE
  5
521
100
AcDbEntity
  8
0
100
AcDbLine
 62
7
  6
CONTINUOUS
 10
16.7495270399
 20
-18.7183320083
 11
12.4456895132
 21
-20.3630996291
  0
LWPOLYLINE
  5
522
100
AcDbEntity
  8
0
100
AcDbPolyline
 62
7
  6
CONTINUOUS
 90
6
 70
0
 10
-11.384863464
 20
23.624821275
 10
-11.3681703241
 20
23.6250189519
 10
-11.3507443505
 20
23.6226669733
 10
-11.3328544859
 20
23.6178459259
 10
-11.3146355706
 20
23.6106370731
 10
-11.2962861623
 20
23.6011498869
  0
LWPOLYLINE
  5
523
100
AcDbEntity
  8
0
100
AcDbPolyline
 62
250
  6
CONTINUOUS
 90
11
 70
0
 10
-18.9275143871
 20
25.7769535772
 10
-18.9203438256
 20
25.7764667671
 10
-18.8999950665
 20
25.7773798428
 10
-18.8797831194
 20
25.7816538844
 10
-18.8600499897
 20
25.7892165707
 10
-18.8411295812
 20
25.799939934
 10
-18.8233420455
 20
25.8136425244
 10
-18.8069883648
 20
25.830092481
 10
-18.7923452591
 20
25.8490114546
 10
-18.7796605041
 20
25.8700793179
 10
-18.7691487381
 20
25.8929395823
  0
LINE
  5
524
100
AcDbEntity
  8
0
100
AcDbLine
 62
7
  6
CONTINUOUS
 10
-18.281306964
 20
25.713863127
 11
-18.9275143871
 21
25.7769535772
  0
LINE
  5
525
100
AcDbEntity
  8
0
100
AcDbLine
 62
250
  6
CONTINUOUS
 10
-18.0323409338
 20
25.8210036459
 11
-18.7691487381
 21
25.8929395823
  0
LWPOLYLINE
  5
526
100
AcDbEntity
  8
0
100
AcDbPolyline
 62
250
  6
CONTINUOUS
 90
22
 70
0
 10
-18.7691487381
 20
25.8929395823
 10
-18.7704274406
 20
25.8930934889
 10
-18.7716963779
 20
25.8933443343
 10
-18.7729555501
 20
25.8936921184
 10
-18.7742126782
 20
25.8941324184
 10
-18.7754600412
 20
25.8946696572
 10
-18.7766744759
 20
25.8953171035
 10
-18.7778558632
 20
25.8960771807
 10
-18.7790043224
 20
25.8969474654
 10
-18.7800970481
 20
25.8979339564
 10
-18.7811332643
 20
25.8990394555
 10
-18.7821137471
 20
25.9002611609
 10
-18.7830180194
 20
25.9015966666
 10
-18.7838446587
 20
25.9030488309
 10
-18.7845950876
 20
25.9046147954
 10
-18.7852530966
 20
25.906283579
 10
-18.7858167247
 20
25.9080577597
 10
-18.786287933
 20
25.9099347595
 10
-18.7866563946
 20
25.9118958629
 10
-18.7869186672
 20
25.9139348314
 10
-18.7870781932
 20
25.9160579034
 10
-18.7871349725
 20
25.918265079
  0
LWPOLYLINE
  5
527
100
AcDbEntity
  8
RACCORDO
100
AcDbPolyline
 62
7
  6
CONTINUOUS
 90
16
 70
0
 10
6.4766387422
 20
24.6284853617
 10
5.8807483786
 20
24.8671274367
 10
5.2909941312
 20
25.0741634981
 10
4.7073760001
 20
25.2495935459
 10
4.1288268936
 20
25.3936440281
 10
3.5564139034
 20
25.5060884968
 10
2.9933383043
 20
25.5862476078
 10
2.4397219747
 20
25.633921763
 10
1.8954430363
 20
25.6493105606
 10
1.3633371284
 20
25.6323334508
 10
0.8434677579
 20
25.58282153
 10
0.3357714179
 20
25.5009437017
 10
-0.1571067728
 20
25.3871261272
 10
-0.6350895027
 20
25.2412021216
 10
-1.0982540833
 20
25.0633383698
 10
-1.380964045
 20
24.9309156609
  0
LWPOLYLINE
  5
528
100
AcDbEntity
  8
RACCORDO
100
AcDbPolyline
 62
7
  6
CONTINUOUS
 90
19
 70
0
 10
6.4766387422
 20
24.6284853617
 10
6.5104290709
 20
24.6121428082
 10
6.5437421778
 20
24.5924931484
 10
6.5765780628
 20
24.5695363822
 10
6.6092198056
 20
24.5430099447
 10
6.6413843266
 20
24.5131764009
 10
6.6722223865
 20
24.4808234452
 10
6.7016986518
 20
24.4458839669
 10
6.7298484561
 20
24.4084250766
 10
6.7559285605
 20
24.3694358008
 10
6.7798838338
 20
24.3288753739
 10
6.8017694072
 20
24.2867845613
 10
6.8210074365
 20
24.244274686
 10
6.8375273979
 20
24.2013345853
 10
6.8513998152
 20
24.1579754219
 10
6.8622584152
 20
24.1153420068
 10
6.8699811068
 20
24.0738159439
 10
6.8746899811
 20
24.0330156294
 10
6.8763850381
 20
23.9929410632
  0
LINE
  5
529
100
AcDbEntity
  8
0
100
AcDbLine
 62
7
  6
CONTINUOUS
 10
6.8763850381
 20
22.9891564556
 11
8.8305641029
 21
21.8608379552
  0
LWPOLYLINE
  5
52A
100
AcDbEntity
  8
0
100
AcDbPolyline
 62
7
  6
CONTINUOUS
 90
8
 70
0
 10
11.6550918848
 20
-27.3622323557
 10
11.6718159809
 20
-27.3417561531
 10
11.6863855285
 20
-27.3181001701
 10
11.6985379768
 20
-27.2915121325
 10
11.7080145584
 20
-27.262508751
 10
11.7147460941
 20
-27.2314868275
 10
11.7187624982
 20
-27.1986182311
 10
11.7200664893
 20
-27.1641891843
  0
LINE
  5
52B
100
AcDbEntity
  8
0
100
AcDbLine
 62
250
  6
CONTINUOUS
 10
9.7272545438
 20
-29.4262039157
 11
10.464062348
 21
-28.532614405
  0
LINE
  5
52C
100
AcDbEntity
  8
0
100
AcDbLine
 62
7
  6
CONTINUOUS
 10
17.0294053817
 20
-21.2538949231
 11
12.4456895132
 21
-23.9669645689
  0
LINE
  5
52D
100
AcDbEntity
  8
0
100
AcDbLine
 62
7
  6
CONTINUOUS
 10
17.135086179
 20
-20.5634948306
 11
12.4456895132
 21
-23.3192029234
  0
LWPOLYLINE
  5
52E
100
AcDbEntity
  8
0
100
AcDbPolyline
 62
250
  6
CONTINUOUS
 90
16
 70
0
 10
6.0630544381
 20
-29.4119974967
 10
6.0248886585
 20
-29.4326344951
 10
5.9836234116
 20
-29.4509413441
 10
5.939676665
 20
-29.4667326174
 10
5.8934935467
 20
-29.4798483681
 10
5.8455418365
 20
-29.4901557494
 10
5.7963072277
 20
-29.4975503598
 10
5.7462884082
 20
-29.5019573008
 10
5.6959920086
 20
-29.5033319353
 10
5.6459274716
 20
-29.5016603401
 10
5.5966018908
 20
-29.4969594461
 10
5.5485148754
 20
-29.489276868
 10
5.5021534894
 20
-29.4786904213
 10
5.4579873183
 20
-29.4653073341
 10
5.4164637124
 20
-29.4492631611
 10
5.3780032564
 20
-29.4307204105
  0
LINE
  5
52F
100
AcDbEntity
  8
0
100
AcDbLine
 62
7
  6
CONTINUOUS
 10
-8.1657063712
 20
26.8786463605
 11
-6.5939991435
 21
27.125599886
  0
LINE
  5
530
100
AcDbEntity
  8
RACCORDO
100
AcDbLine
 62
7
  6
CONTINUOUS
 10
30.2816194954
 20
7.843392146
 11
30.2816194954
 21
6.496465353
  0
LWPOLYLINE
  5
531
100
AcDbEntity
  8
RACCORDO
100
AcDbPolyline
 62
250
  6
CONTINUOUS
 90
22
 70
0
 10
30.069487461
 20
2.8218513777
 10
30.0585860333
 20
2.1791380548
 10
30.0258981454
 20
1.5499801102
 10
29.9714729613
 20
0.9353238569
 10
29.8953923387
 20
0.3360937894
 10
29.7977707085
 20
-0.2468087864
 10
29.6787549051
 20
-0.8125071117
 10
29.5385239595
 20
-1.3601502528
 10
29.3772887779
 20
-1.8889145799
 10
29.1952918032
 20
-2.3980049647
 10
28.9928066507
 20
-2.8866558973
 10
28.7701379387
 20
-3.3541321262
 10
28.5276208354
 20
-3.7997300257
 10
28.2656203004
 20
-4.2227791991
 10
27.984530322
 20
-4.6226436402
 10
27.6847735575
 20
-4.9987221666
 10
27.3668009373
 20
-5.3504490749
 10
27.0310906772
 20
-5.677295421
 10
26.6781473307
 20
-5.978769928
 10
26.3085015083
 20
-6.2544192223
 10
25.9227093314
 20
-6.5038284629
 10
25.8242937296
 20
-6.5617542758
  0
LWPOLYLINE
  5
532
100
AcDbEntity
  8
RACCORDO
100
AcDbPolyline
 62
7
  6
CONTINUOUS
 90
22
 70
0
 10
30.5088272893
 20
3.4342632677
 10
30.4973262808
 20
2.7722891649
 10
30.4628094716
 20
2.1230929149
 10
30.4052660182
 20
1.4874883984
 10
30.3246356707
 20
0.8658603784
 10
30.2209705903
 20
0.2594656243
 10
30.094590082
 20
-0.3297047985
 10
29.9456350001
 20
-0.9011523601
 10
29.7743458657
 20
-1.4540343538
 10
29.5815519476
 20
-1.986143651
 10
29.3677810368
 20
-2.4968066706
 10
29.1334218018
 20
-2.9857704723
 10
28.8794493683
 20
-3.4517329469
 10
28.6066527622
 20
-3.8941149275
 10
28.3155600094
 20
-4.3128542203
 10
28.0069609529
 20
-4.7075294403
 10
27.6819279156
 20
-5.0775238531
 10
27.3409789359
 20
-5.4229633921
 10
26.9840576494
 20
-5.7443853164
 10
26.6116214186
 20
-6.0416594295
 10
26.2247547141
 20
-6.3142031933
 10
25.8242937296
 20
-6.5617542758
  0
LWPOLYLINE
  5
533
100
AcDbEntity
  8
0
100
AcDbPolyline
 62
7
  6
CONTINUOUS
 90
3
 70
0
 10
11.6198465673
 20
-27.3911456771
 10
11.6363012316
 20
-27.3795642932
 10
11.6550918848
 20
-27.3622323557
  0
LWPOLYLINE
  5
534
100
AcDbEntity
  8
0
100
AcDbPolyline
 62
250
  6
CONTINUOUS
 90
16
 70
0
 10
11.8906175652
 20
-28.5954915505
 10
11.8942647136
 20
-28.5929978278
 10
11.8977930744
 20
-28.5901643534
 10
11.9012026475
 20
-28.5869911273
 10
11.9045272108
 20
-28.5834373131
 10
11.9077329866
 20
-28.5795437472
 10
11.9107186415
 20
-28.5754329382
 10
11.9134771227
 20
-28.5710978339
 10
11.9160154831
 20
-28.5665454866
 10
11.9182535488
 20
-28.5619195616
 10
11.9201818505
 20
-28.5572175593
 10
11.9218098575
 20
-28.5524419793
 10
11.9230858036
 20
-28.5477439859
 10
11.9239924331
 20
-28.5431739671
 10
11.9245470017
 20
-28.5386815348
 10
11.9247495092
 20
-28.534266689
  0
LWPOLYLINE
  5
535
100
AcDbEntity
  8
0
100
AcDbPolyline
 62
250
  6
CONTINUOUS
 90
7
 70
0
 10
11.9247495092
 20
-28.2137751194
 10
11.9414796614
 20
-28.2023813283
 10
11.9555226065
 20
-28.1898359352
 10
11.9666433636
 20
-28.1763488546
 10
11.9746558468
 20
-28.1621457584
 10
11.9794259793
 20
-28.1474643002
 10
11.9808815486
 20
-28.1335659169
  0
LWPOLYLINE
  5
536
100
AcDbEntity
  8
0
100
AcDbPolyline
 62
250
  6
CONTINUOUS
 90
7
 70
0
 10
11.9247495092
 20
-28.534266689
 10
11.9414797243
 20
-28.5228728653
 10
11.9555227001
 20
-28.510327438
 10
11.9666434597
 20
-28.4968403257
 10
11.974655923
 20
-28.4826372042
 10
11.9794260198
 20
-28.4679557298
 10
11.9808815491
 20
-28.4540492816
  0
LWPOLYLINE
  5
537
100
AcDbEntity
  8
0
100
AcDbPolyline
 62
7
  6
CONTINUOUS
 90
13
 70
0
 10
11.8519335093
 20
-28.6853804128
 10
11.8675500531
 20
-28.6748918045
 10
11.8861732528
 20
-28.6599893114
 10
11.9031591656
 20
-28.643686844
 10
11.9188646931
 20
-28.6257579913
 10
11.9331448592
 20
-28.6063311165
 10
11.9455539846
 20
-28.5860992635
 10
11.9562525963
 20
-28.56491971
 10
11.9652794707
 20
-28.5425768511
 10
11.9722905657
 20
-28.5198232759
 10
11.9772365887
 20
-28.4968474519
 10
11.9801468275
 20
-28.47321289
 10
11.9808805197
 20
-28.4540048564
  0
LWPOLYLINE
  5
538
100
AcDbEntity
  8
0
100
AcDbPolyline
 62
7
  6
CONTINUOUS
 90
6
 70
0
 10
11.3268353786
 20
-29.0101096174
 10
11.3301126956
 20
-29.007947225
 10
11.3393506629
 20
-29.0001460088
 10
11.3474768699
 20
-28.9904387116
 10
11.3542903647
 20
-28.9789543495
 10
11.3596356731
 20
-28.9659393738
  0
LINE
  5
539
100
AcDbEntity
  8
0
100
AcDbLine
 62
250
  6
CONTINUOUS
 10
11.7200664893
 20
-27.1642515524
 11
12.4148306757
 21
-26.7345989579
  0
LINE
  5
53A
100
AcDbEntity
  8
0
100
AcDbLine
 62
7
  6
CONTINUOUS
 10
11.6198467858
 20
-27.3911455699
 11
12.315634949
 21
-26.9608597327
  0
LINE
  5
53B
100
AcDbEntity
  8
0
100
AcDbLine
 62
250
  6
CONTINUOUS
 10
11.3665130987
 20
-28.9196056144
 11
11.8906175652
 21
-28.5954915505
  0
LINE
  5
53C
100
AcDbEntity
  8
0
100
AcDbLine
 62
7
  6
CONTINUOUS
 10
11.326834808
 20
-29.0101099243
 11
11.8519427839
 21
-28.6853752752
  0
LINE
  5
53D
100
AcDbEntity
  8
0
100
AcDbLine
 62
7
  6
CONTINUOUS
 10
11.3233462969
 20
-29.0121241694
 11
11.3268353786
 21
-29.0101096174
  0
LWPOLYLINE
  5
53E
100
AcDbEntity
  8
0
100
AcDbPolyline
 62
250
  6
CONTINUOUS
 90
8
 70
0
 10
9.7004064948
 20
-29.8848886745
 10
9.7021609157
 20
-29.8839108322
 10
9.7143859382
 20
-29.8748793175
 10
9.7247517135
 20
-29.8630062747
 10
9.73308095
 20
-29.8484947766
 10
9.739231188
 20
-29.831593023
 10
9.7430972363
 20
-29.8125900962
 10
9.744612972
 20
-29.7918110157
  0
LINE
  5
53F
100
AcDbEntity
  8
0
100
AcDbLine
 62
250
  6
CONTINUOUS
 10
11.3665130987
 20
-28.9196056144
 11
9.744612972
 21
-29.7918110157
  0
LINE
  5
540
100
AcDbEntity
  8
0
100
AcDbLine
 62
7
  6
CONTINUOUS
 10
11.3233457265
 20
-29.0121244761
 11
9.7004064948
 21
-29.8848886745
  0
LWPOLYLINE
  5
541
100
AcDbEntity
  8
0
100
AcDbPolyline
 62
7
  6
CONTINUOUS
 90
3
 70
0
 10
11.6052720746
 20
-27.3991894608
 10
11.6155068936
 20
-27.3937400556
 10
11.6198465673
 20
-27.3911456771
  0
LWPOLYLINE
  5
542
100
AcDbEntity
  8
0
100
AcDbPolyline
 62
250
  6
CONTINUOUS
 90
28
 70
0
 10
9.744612972
 20
-29.7918110157
 10
9.7429308657
 20
-29.7926844858
 10
9.7412135438
 20
-29.7934672918
 10
9.7394610061
 20
-29.7941594336
 10
9.7376632348
 20
-29.7947719491
 10
9.7358302479
 20
-29.7952938004
 10
9.7339920989
 20
-29.7956918742
 10
9.7321476854
 20
-29.7959630537
 10
9.73029811
 20
-29.7961104558
 10
9.7284767337
 20
-29.7961103179
 10
9.7266836483
 20
-29.7959584354
 10
9.724918762
 20
-29.7956590129
 10
9.7232151607
 20
-29.7952009019
 10
9.7215746796
 20
-29.7945799741
 10
9.7199954836
 20
-29.7938003578
 10
9.7185051532
 20
-29.792863289
 10
9.7171059006
 20
-29.7917655349
 10
9.7157955136
 20
-29.7905103284
 10
9.7145949361
 20
-29.789108604
 10
9.7135061868
 20
-29.7875575155
 10
9.712527247
 20
-29.7858599092
 10
9.711673004
 20
-29.7840352583
 10
9.7109457404
 20
-29.7820810647
 10
9.7103431735
 20
-29.7799998266
 10
9.7098733431
 20
-29.7778185119
 10
9.7095389288
 20
-29.7755461099
 10
9.7093372509
 20
-29.7731736313
 10
9.7092683094
 20
-29.7707010762
  0
LINE
  5
543
100
AcDbEntity
  8
0
100
AcDbLine
 62
250
  6
CONTINUOUS
 10
6.5446887792
 20
-29.6946956449
 11
11.7200664893
 21
-27.1641891843
  0
LINE
  5
544
100
AcDbEntity
  8
0
100
AcDbLine
 62
7
  6
CONTINUOUS
 10
6.4201391002
 20
-29.9344657684
 11
11.6052714411
 21
-27.3991897705
  0
LWPOLYLINE
  5
545
100
AcDbEntity
  8
RACCORDO
100
AcDbPolyline
 62
250
  6
CONTINUOUS
 90
11
 70
0
 10
23.3029685027
 20
20.8885682176
 10
23.7726652218
 20
20.2606672334
 10
24.2300298658
 20
19.6191254707
 10
24.6743745511
 20
18.9649078447
 10
25.1050309227
 20
18.2989984154
 10
25.5213512167
 20
17.6223988322
 10
25.9227093242
 20
16.9361266724
 10
26.3085015153
 20
16.2412142706
 10
26.6781473481
 20
15.5387072251
 10
27.0310907001
 20
14.8296625749
 10
27.3668009628
 20
14.1151464268
  0
LWPOLYLINE
  5
546
100
AcDbEntity
  8
RACCORDO
100
AcDbPolyline
 62
250
  6
CONTINUOUS
 90
17
 70
0
 10
27.3668009628
 20
14.1151464268
 10
27.6847735817
 20
13.3962327065
 10
27.9845303396
 20
12.6740025945
 10
28.2656203093
 20
11.9495425123
 10
28.5276208381
 20
11.2239417045
 10
28.7701379389
 20
10.4982911399
 10
28.9928066502
 20
9.7736826661
 10
29.1952918028
 20
9.0512069549
 10
29.3772887782
 20
8.3319510228
 10
29.5385239608
 20
7.6169963443
 10
29.678754907
 20
6.9074180182
 10
29.7977707103
 20
6.2042832248
 10
29.8953923402
 20
5.508649637
 10
29.9714729624
 20
4.8215635746
 10
30.025898146
 20
4.1440584853
 10
30.0585860334
 20
3.4771533911
 10
30.069487461
 20
2.8218513777
  0
LWPOLYLINE
  5
547
100
AcDbEntity
  8
RACCORDO
100
AcDbPolyline
 62
7
  6
CONTINUOUS
 90
8
 70
0
 10
29.9518595961
 20
8.3398499101
 10
30.0981629767
 20
7.6199620852
 10
30.2225655271
 20
6.9054174783
 10
30.3248868405
 20
6.1968365012
 10
30.4049546849
 20
5.4945018822
 10
30.4624952467
 20
4.7991713473
 10
30.4972043099
 20
4.1120886416
 10
30.5088272893
 20
3.4342632677
  0
LINE
  5
548
100
AcDbEntity
  8
RACCORDO
100
AcDbLine
 62
7
  6
CONTINUOUS
 10
18.8691206886
 20
26.2716449384
 11
20.0285711682
 21
25.6021927628
  0
LWPOLYLINE
  5
549
100
AcDbEntity
  8
RACCORDO
100
AcDbPolyline
 62
7
  6
CONTINUOUS
 90
27
 70
0
 10
19.9091029048
 20
25.4111846711
 10
20.4592678059
 20
24.9164119068
 10
21.0014437513
 20
24.4014288365
 10
21.5347468004
 20
23.8672361057
 10
22.0583116592
 20
23.3148790055
 10
22.5716110555
 20
22.74508485
 10
23.0742531496
 20
22.1584142604
 10
23.5656761249
 20
21.5556045988
 10
24.0450731505
 20
20.9377195464
 10
24.5116808024
 20
20.3058313546
 10
24.9647682719
 20
19.661030909
 10
25.4038113294
 20
19.0041589242
 10
25.8283662718
 20
18.3359380557
 10
26.237873337
 20
17.6572752527
 10
26.6316999923
 20
16.9692358085
 10
27.0092995169
 20
16.2727853672
 10
27.3701024205
 20
15.5689746719
 10
27.713600375
 20
14.8587845082
 10
28.0393559472
 20
14.1430782849
 10
28.3468867764
 20
13.4228407592
 10
28.6356940919
 20
12.6991467329
 10
28.9053369655
 20
11.9729863255
 10
29.1553576044
 20
11.2454540907
 10
29.3853617946
 20
10.517529248
 10
29.595020653
 20
9.7900099834
 10
29.7840010516
 20
9.0636918864
 10
29.9518595961
 20
8.3398499101
  0
LINE
  5
54A
100
AcDbEntity
  8
RACCORDO
100
AcDbLine
 62
7
  6
CONTINUOUS
 10
25.1572508246
 20
20.1880267846
 11
28.1572508246
 21
14.9918743672
  0
ARC
  5
54B
100
AcDbEntity
  8
0
100
AcDbCircle
 62
7
  6
CONTINUOUS
 10
4.4399792198
 20
14.1033786329
 40
0.25
100
AcDbArc
 50
121.7332683128
 51
180.0153289556
  0
ARC
  5
54C
100
AcDbEntity
  8
0
100
AcDbCircle
 62
7
  6
CONTINUOUS
 10
0.7276686186
 20
16.2468202479
 40
0.25
100
AcDbArc
 50
121.7332683128
 51
180.0153289556
  0
ARC
  5
54D
100
AcDbEntity
  8
0
100
AcDbCircle
 62
7
  6
CONTINUOUS
 10
-11.4699233569
 20
23.2895569828
 40
0.25
100
AcDbArc
 50
121.7332683128
 51
180.0153289556
  0
ARC
  5
54E
100
AcDbEntity
  8
0
100
AcDbCircle
 62
7
  6
CONTINUOUS
 10
-15.1822339581
 20
25.4329985978
 40
0.25
100
AcDbArc
 50
121.7332683128
 51
180.0153289556
  0
ELLIPSE
  5
54F
100
AcDbEntity
  8
RACCORDO
100
AcDbEllipse
 62
7
  6
CONTINUOUS
 10
24.4190096716
 20
19.7617755951
 30
0.0
 11
-0.4999357615
 21
0.866062489
 31
0.0
 40
0.8524611862
 41
-1.5707093137
 42
-0.3525024364
  0
ELLIPSE
  5
550
100
AcDbEntity
  8
RACCORDO
100
AcDbEllipse
 62
7
  6
CONTINUOUS
 10
27.4190096716
 20
14.5656231778
 30
0.0
 11
-0.4999357615
 21
0.866062489
 31
0.0
 40
0.8524611862
 41
-2.788859948
 42
-1.5707093137
  0
ELLIPSE
  5
551
100
AcDbEntity
  8
RACCORDO
100
AcDbEllipse
 62
7
  6
CONTINUOUS
 10
29.5433783424
 20
7.4171409566
 30
0.0
 11
0.5439934163
 21
0.8660502101
 31
0.0
 40
0.5762602363
 41
5.5408289753
 42
6.5220581902
  0
ELLIPSE
  5
552
100
AcDbEntity
  8
RACCORDO
100
AcDbEllipse
 62
7
  6
CONTINUOUS
 10
19.2903300152
 20
25.1759415734
 30
0.0
 11
1.0220169846
 21
0.038066069
 31
0.0
 40
0.5763181679
 41
-0.2425188217
 42
0.7423981387
  0
ELLIPSE
  5
553
100
AcDbEntity
  8
0
100
AcDbEllipse
 62
7
  6
CONTINUOUS
 10
12.061223429
 20
-26.5303062035
 30
0.0
 11
-0.2500882309
 21
0.4331376414
 31
0.0
 40
0.5771558487
 41
-3.1241455232
 42
-2.3563950755
  0
ELLIPSE
  5
554
100
AcDbEntity
  8
0
100
AcDbEllipse
 62
7
  6
CONTINUOUS
 10
12.061223429
 20
9.2024644653
 30
0.0
 11
-0.2500120911
 21
0.4330057209
 31
0.0
 40
0.5775075436
 41
-2.3560905478
 42
-0.7855988075
  0
ELLIPSE
  5
555
100
AcDbEntity
  8
0
100
AcDbEllipse
 62
7
  6
CONTINUOUS
 10
5.3331196423
 20
14.5976883736
 30
0.0
 11
-0.1250441155
 21
0.2165688207
 31
0.0
 40
0.5771558487
 41
-0.7852941622
 42
-0.0174472724
  0
ELLIPSE
  5
556
100
AcDbEntity
  8
0
100
AcDbEllipse
 62
7
  6
CONTINUOUS
 10
-10.5767829344
 20
23.7838667235
 30
0.0
 11
-0.1250441155
 21
0.2165688207
 31
0.0
 40
0.5771558487
 41
-0.7852941622
 42
-0.0174472724
  0
ELLIPSE
  5
557
100
AcDbEntity
  8
0
100
AcDbEllipse
 62
7
  6
CONTINUOUS
 10
3.8234563562
 20
15.4693490345
 30
0.0
 11
-0.1250060456
 21
0.2165028604
 31
0.0
 40
0.5775075436
 41
-2.3560905478
 42
-0.7855988075
  0
ELLIPSE
  5
558
100
AcDbEntity
  8
0
100
AcDbEllipse
 62
7
  6
CONTINUOUS
 10
-12.0864462205
 20
24.6555273844
 30
0.0
 11
-0.1250060456
 21
0.2165028604
 31
0.0
 40
0.5775075436
 41
-2.3560905478
 42
-0.7855988075
  0
ELLIPSE
  5
559
100
AcDbEntity
  8
0
100
AcDbEllipse
 62
7
  6
CONTINUOUS
 10
-10.8375494736
 20
29.2363104308
 30
0.0
 11
1.0061852078
 21
0.5737549327
 31
0.0
 40
0.0052693892
 41
0.0030797076
 42
0.7710730318
  0
ELLIPSE
  5
55A
100
AcDbEntity
  8
0
100
AcDbEllipse
 62
7
  6
CONTINUOUS
 10
5.0723531031
 20
20.0501320809
 30
0.0
 11
1.0061852078
 21
0.5737549327
 31
0.0
 40
0.0052693892
 41
0.0030797076
 42
0.7710730318
  0
ELLIPSE
  5
55B
100
AcDbEntity
  8
0
100
AcDbEllipse
 62
7
  6
CONTINUOUS
 10
16.4403219926
 20
13.4864093182
 30
0.0
 11
0.487138911
 21
0.8734102324
 31
0.0
 40
0.5671693725
 41
-0.7937771377
 42
-0.2349729191
  0
ELLIPSE
  5
55C
100
AcDbEntity
  8
0
100
AcDbEllipse
 62
7
  6
CONTINUOUS
 10
16.4403219926
 20
-21.173238952
 30
0.0
 11
0.487138911
 21
0.8734102324
 31
0.0
 40
0.5671693725
 41
-1.3525813563
 42
-0.7937771377
  0
ELLIPSE
  5
55D
100
AcDbEntity
  8
0
100
AcDbEllipse
 62
7
  6
CONTINUOUS
 10
0.5304194159
 20
22.6725876681
 30
0.0
 11
0.487138911
 21
0.8734102324
 31
0.0
 40
0.5671693725
 41
-0.7937771377
 42
-0.2349729191
  0
ELLIPSE
  5
55E
100
AcDbEntity
  8
0
100
AcDbEllipse
 62
7
  6
CONTINUOUS
 10
-5.2642125942
 20
23.3163172662
 30
0.0
 11
0.385656597
 21
-0.0057304018
 31
0.0
 40
0.5672251703
 41
-0.759516774
 42
0.0084280293
  0
ELLIPSE
  5
55F
100
AcDbEntity
  8
0
100
AcDbEllipse
 62
7
  6
CONTINUOUS
 10
5.0365336668
 20
17.3687954738
 30
0.0
 11
0.385656597
 21
-0.0057304018
 31
0.0
 40
0.5672251703
 41
-0.759516774
 42
0.0084280293
  0
ELLIPSE
  5
560
100
AcDbEntity
  8
0
100
AcDbEllipse
 62
7
  6
CONTINUOUS
 10
9.1391267379
 20
18.0414901845
 30
0.0
 11
0.2491170405
 21
-0.0600571001
 31
0.0
 40
0.349548336
 41
-0.7013277281
 42
0.0840700352
  0
ELLIPSE
  5
561
100
AcDbEntity
  8
0
100
AcDbEllipse
 62
7
  6
CONTINUOUS
 10
16.8121449568
 20
13.2717233988
 30
0.0
 11
-0.7006352283
 21
1.22850495
 31
0.0
 40
0.5737642108
 41
5.2804167834
 42
6.2749555991
  0
ELLIPSE
  5
562
100
AcDbEntity
  8
0
100
AcDbEllipse
 62
7
  6
CONTINUOUS
 10
11.3806366752
 20
8.8095007823
 30
0.0
 11
41.2152528071
 21
25.4331976689
 31
0.0
 40
0.0071833017
 41
1.5667062789
 42
1.588604
  0
ELLIPSE
  5
563
100
AcDbEntity
  8
0
100
AcDbEllipse
 62
7
  6
CONTINUOUS
 10
-6.7707758388
 20
27.2276685344
 30
0.0
 11
0.2491170405
 21
-0.0600571001
 31
0.0
 40
0.349548336
 41
-0.7013277281
 42
0.0840700352
  0
ELLIPSE
  5
564
100
AcDbEntity
  8
0
100
AcDbEllipse
 62
7
  6
CONTINUOUS
 10
23.100001508
 20
21.9892263931
 30
0.0
 11
18.2927094962
 21
10.9406087409
 31
0.0
 40
0.0150339
 41
-2.6538069639
 42
-2.3143191004
  0
ELLIPSE
  5
565
100
AcDbEntity
  8
0
100
AcDbEllipse
 62
7
  6
CONTINUOUS
 10
23.100001508
 20
21.9892263931
 30
0.0
 11
18.2927094962
 21
10.9406087409
 31
0.0
 40
0.0150339
 41
2.2963364625
 42
2.635824326
  0
ELLIPSE
  5
566
100
AcDbEntity
  8
0
100
AcDbEllipse
 62
7
  6
CONTINUOUS
 10
0.9022423801
 20
22.4579017486
 30
0.0
 11
-0.7006352283
 21
1.22850495
 31
0.0
 40
0.5737642108
 41
5.2804167834
 42
6.2749555991
  0
ELLIPSE
  5
567
100
AcDbEntity
  8
0
100
AcDbEllipse
 62
7
  6
CONTINUOUS
 10
10.6456899825
 20
14.1301389163
 30
0.0
 11
0.385656597
 21
-0.0057304018
 31
0.0
 40
0.5672251703
 41
-0.759516774
 42
0.0084280293
  0
ELLIPSE
  5
568
100
AcDbEntity
  8
0
100
AcDbEllipse
 62
7
  6
CONTINUOUS
 10
8.4766591699
 20
8.9446348158
 30
0.0
 11
0.249894357
 21
0.0119767658
 31
0.0
 40
0.6067642562
 41
3.112520188
 42
3.8979184282
  0
ELLIPSE
  5
569
100
AcDbEntity
  8
0
100
AcDbEllipse
 62
7
  6
CONTINUOUS
 10
-4.1098415352
 20
16.2119225771
 30
0.0
 11
0.249894357
 21
0.0119767658
 31
0.0
 40
0.6067642562
 41
3.112520188
 42
3.8979184282
  0
ELLIPSE
  5
56A
100
AcDbEntity
  8
0
100
AcDbEllipse
 62
7
  6
CONTINUOUS
 10
10.2903977554
 20
8.7567434688
 30
0.0
 11
0.249894357
 21
0.0119767658
 31
0.0
 40
0.6067642562
 41
-2.385266879
 42
-1.1307167795
  0
ELLIPSE
  5
56B
100
AcDbEntity
  8
0
100
AcDbEllipse
 62
7
  6
CONTINUOUS
 10
8.270698433
 20
9.9228925448
 30
0.0
 11
0.249894357
 21
0.0119767658
 31
0.0
 40
0.6067642562
 41
3.112520188
 42
3.8979184282
  0
ELLIPSE
  5
56C
100
AcDbEntity
  8
0
100
AcDbEllipse
 62
7
  6
CONTINUOUS
 10
-4.3158022722
 20
17.190180306
 30
0.0
 11
0.249894357
 21
0.0119767658
 31
0.0
 40
0.6067642562
 41
3.112520188
 42
3.8979184282
  0
ELLIPSE
  5
56D
100
AcDbEntity
  8
0
100
AcDbEllipse
 62
7
  6
CONTINUOUS
 10
-2.2961029498
 20
16.02403123
 30
0.0
 11
0.249894357
 21
0.0119767658
 31
0.0
 40
0.6067642562
 41
-2.385266879
 42
-0.8319238447
  0
ELLIPSE
  5
56E
100
AcDbEntity
  8
0
100
AcDbEllipse
 62
7
  6
CONTINUOUS
 10
10.2903977554
 20
-28.2398128812
 30
0.0
 11
0.2107210073
 21
0.1927502658
 31
0.0
 40
0.6979176686
 41
-2.9243701816
 42
-2.7333353891
  0
ELLIPSE
  5
56F
100
AcDbEntity
  8
0
100
AcDbEllipse
 62
7
  6
CONTINUOUS
 10
8.670223456
 20
8.832873223
 30
0.0
 11
0.249894357
 21
0.0119767658
 31
0.0
 40
0.6067642562
 41
-2.385266879
 42
-0.8319238447
  0
ELLIPSE
  5
570
100
AcDbEntity
  8
0
100
AcDbEllipse
 62
7
  6
CONTINUOUS
 10
-3.9162772491
 20
16.1001609842
 30
0.0
 11
0.249894357
 21
0.0119767658
 31
0.0
 40
0.6067642562
 41
-2.385266879
 42
-0.8319238447
  0
ELLIPSE
  5
571
100
AcDbEntity
  8
0
100
AcDbEllipse
 62
7
  6
CONTINUOUS
 10
4.4399792198
 20
12.994040389
 30
0.0
 11
0.249894357
 21
0.0119767658
 31
0.0
 40
0.6067642562
 41
3.112520188
 42
3.8979184282
  0
ELLIPSE
  5
572
100
AcDbEntity
  8
0
100
AcDbEllipse
 62
7
  6
CONTINUOUS
 10
6.661140427
 20
11.7115697456
 30
0.0
 11
0.249894357
 21
0.0119767658
 31
0.0
 40
0.6067642562
 41
-2.385266879
 42
-0.8319238447
  0
ELLIPSE
  5
573
100
AcDbEntity
  8
0
100
AcDbEllipse
 62
7
  6
CONTINUOUS
 10
0.7276686186
 20
15.1374820039
 30
0.0
 11
0.249894357
 21
0.0119767658
 31
0.0
 40
0.6067642562
 41
3.112520188
 42
3.8979184282
  0
ELLIPSE
  5
574
100
AcDbEntity
  8
0
100
AcDbEllipse
 62
7
  6
CONTINUOUS
 10
-11.4699233569
 20
22.1802187389
 30
0.0
 11
0.249894357
 21
0.0119767658
 31
0.0
 40
0.6067642562
 41
3.112520188
 42
3.8979184282
  0
ELLIPSE
  5
575
100
AcDbEntity
  8
0
100
AcDbEllipse
 62
7
  6
CONTINUOUS
 10
-9.2487621497
 20
20.8977480955
 30
0.0
 11
0.249894357
 21
0.0119767658
 31
0.0
 40
0.6067642562
 41
-2.385266879
 42
-0.8319238447
  0
ELLIPSE
  5
576
100
AcDbEntity
  8
0
100
AcDbEllipse
 62
7
  6
CONTINUOUS
 10
-15.1822339581
 20
24.3236603538
 30
0.0
 11
0.249894357
 21
0.0119767658
 31
0.0
 40
0.6067642562
 41
3.112520188
 42
3.8979184282
  0
ELLIPSE
  5
577
100
AcDbEntity
  8
0
100
AcDbEllipse
 62
7
  6
CONTINUOUS
 10
-10.8733689099
 20
26.5549738236
 30
0.0
 11
0.385656597
 21
-0.0057304018
 31
0.0
 40
0.5672251703
 41
-0.759516774
 42
0.0084280293
  0
ELLIPSE
  5
578
100
AcDbEntity
  8
0
100
AcDbEllipse
 62
7
  6
CONTINUOUS
 10
2.9488298258
 20
13.8550113606
 30
0.0
 11
0.249894357
 21
0.0119767658
 31
0.0
 40
0.6067642562
 41
-2.385266879
 42
-0.8319238447
  0
ELLIPSE
  5
579
100
AcDbEntity
  8
0
100
AcDbEllipse
 62
7
  6
CONTINUOUS
 10
-12.9610727509
 20
23.0411897104
 30
0.0
 11
0.249894357
 21
0.0119767658
 31
0.0
 40
0.6067642562
 41
-2.385266879
 42
-0.8319238447
  0
ELLIPSE
  5
57A
100
AcDbEntity
  8
0
100
AcDbEllipse
 62
7
  6
CONTINUOUS
 10
-7.6392041437
 20
19.1090708946
 30
0.0
 11
0.249894357
 21
0.0119767658
 31
0.0
 40
0.6067642562
 41
3.112520188
 42
3.8979184282
  0
ELLIPSE
  5
57B
100
AcDbEntity
  8
0
100
AcDbEllipse
 62
7
  6
CONTINUOUS
 10
-7.4332434068
 20
18.1308131657
 30
0.0
 11
0.249894357
 21
0.0119767658
 31
0.0
 40
0.6067642562
 41
3.112520188
 42
3.8979184282
  0
ELLIPSE
  5
57C
100
AcDbEntity
  8
0
100
AcDbEllipse
 62
7
  6
CONTINUOUS
 10
-7.2396791207
 20
18.0190515728
 30
0.0
 11
0.249894357
 21
0.0119767658
 31
0.0
 40
0.6067642562
 41
-2.385266879
 42
-0.8319238447
  0
ELLIPSE
  5
57D
100
AcDbEntity
  8
0
100
AcDbEllipse
 62
7
  6
CONTINUOUS
 10
-5.6195048213
 20
17.9429218187
 30
0.0
 11
0.249894357
 21
0.0119767658
 31
0.0
 40
0.6067642562
 41
-2.385266879
 42
-0.8319238447
  0
ELLIPSE
  5
57E
100
AcDbEntity
  8
0
100
AcDbEllipse
 62
7
  6
CONTINUOUS
 10
-20.2257048489
 20
26.3763586559
 30
0.0
 11
0.249894357
 21
0.0119767658
 31
0.0
 40
0.6067642562
 41
3.1125202849
 42
3.8979184282
  0
ELLIPSE
  5
57F
100
AcDbEntity
  8
0
100
AcDbEllipse
 62
7
  6
CONTINUOUS
 10
-20.0197441119
 20
25.3981009269
 30
0.0
 11
0.249894357
 21
0.0119767658
 31
0.0
 40
0.6067642562
 41
3.112520188
 42
3.8979184282
  0
ELLIPSE
  5
580
100
AcDbEntity
  8
0
100
AcDbEllipse
 62
7
  6
CONTINUOUS
 10
-19.8261798258
 20
25.2863393341
 30
0.0
 11
0.249894357
 21
0.0119767658
 31
0.0
 40
0.6067642562
 41
-2.385266879
 42
-0.8319238447
  0
ELLIPSE
  5
581
100
AcDbEntity
  8
0
100
AcDbEllipse
 62
7
  6
CONTINUOUS
 10
-18.2060055265
 20
25.2102095799
 30
0.0
 11
0.249894357
 21
0.0119767658
 31
0.0
 40
0.6067642562
 41
-2.385266879
 42
-0.8319238447
  0
ELLIPSE
  5
582
100
AcDbEntity
  8
0
100
AcDbEllipse
 62
7
  6
CONTINUOUS
 10
7.1900989313
 20
31.175404743
 30
0.0
 11
18.2927094962
 21
10.9406087409
 31
0.0
 40
0.0150339
 41
-2.6538069639
 42
-2.3143191004
  0
ELLIPSE
  5
583
100
AcDbEntity
  8
0
100
AcDbEllipse
 62
7
  6
CONTINUOUS
 10
7.1900989313
 20
31.175404743
 30
0.0
 11
18.2927094962
 21
10.9406087409
 31
0.0
 40
0.0150339
 41
2.2963364625
 42
2.635824326
  0
ENDSEC
  0
SECTION
  2
OBJECTS
  0
DICTIONARY
  5
C
100
AcDbDictionary
280
0
281
1
  3
ACAD_GROUP
350
D
  3
ACAD_MLINESTYLE
350
17
  3
ACAD_LAYOUT
350
1A
  3
ACAD_PLOTSETTINGS
350
19
  3
ACAD_PLOTSTYLENAME
350
E
  0
DICTIONARY
  5
D
102
{ACAD_REACTORS
330
C
102
}
100
AcDbDictionary
280
0
281
1
  0
ACDBDICTIONARYWDFLT
  5
E
102
{ACAD_REACTORS
330
C
102
}
100
AcDbDictionary
281
1
  3
Normal
350
F
100
AcDbDictionaryWithDefault
340
F
  0
DICTIONARY
  5
17
102
{ACAD_REACTORS
330
C
102
}
100
AcDbDictionary
280
0
281
1
  3
Standard
350
18
  0
DICTIONARY
  5
19
102
{ACAD_REACTORS
330
C
102
}
100
AcDbDictionary
281
1
  0
DICTIONARY
  5
1A
102
{ACAD_REACTORS
330
C
102
}
100
AcDbDictionary
281
1
  3
Model
350
584
  3
Layout1
350
585
  0
ACDBPLACEHOLDER
  5
F
102
{ACAD_REACTORS
330
E
102
}
  0
MLINESTYLE
  5
18
102
{ACAD_REACTORS
330
17
102
}
100
AcDbMlineStyle
  2
STANDARD
 70
0
  3

 62
256
 51
90.0
 52
90.0
 71
2
 49
0.5
 62
256
  6
BYLAYER
 49
-0.5
 62
256
  6
BYLAYER
  0
LAYOUT
  5
584
102
{ACAD_REACTORS
330
1A
102
}
100
AcDbPlotSettings
  1

  2
none_device
  4
ISO_A4_(297.00_x_210.00_MM)
  6

 40
0.0
 41
0.0
 42
0.0
 43
0.0
 44
297.0
 45
210.0
 46
0.0
 47
0.0
 48
0.0
 49
0.0
140
0.0
141
0.0
142
1.0
143
1.0
 70
1024
 72
1
 73
0
 74
0
  7

 75
0
147
1.0
148
0.0
149
0.0
100
AcDbLayout
  1
Model
 70
0
 71
0
 10
0.0
 20
0.0
 11
297.0
 21
210.0
 12
0.0
 22
0.0
 32
0.0
 14
0.0
 24
0.0
 34
0.0
 15
0.0
 25
0.0
 35
0.0
146
0.0
 13
0.0
 23
0.0
 33
0.0
 16
1.0
 26
0.0
 36
0.0
 17
0.0
 27
1.0
 37
0.0
 76
0
330
21B
345
0
346
0
  0
LAYOUT
  5
585
102
{ACAD_REACTORS
330
1A
102
}
100
AcDbPlotSettings
  1

  2
none_device
  4
ISO_A4_(297.00_x_210.00_MM)
  6

 40
0.0
 41
0.0
 42
0.0
 43
0.0
 44
297.0
 45
210.0
 46
0.0
 47
0.0
 48
0.0
 49
0.0
140
0.0
141
0.0
142
1.0
143
1.0
 70
0
 72
1
 73
0
 74
0
  7

 75
0
147
1.0
148
0.0
149
0.0
100
AcDbLayout
  1
Layout1
 70
0
 71
1
 10
0.0
 20
0.0
 11
297.0
 21
210.0
 12
0.0
 22
0.0
 32
0.0
 14
0.0
 24
0.0
 34
0.0
 15
0.0
 25
0.0
 35
0.0
146
0.0
 13
0.0
 23
0.0
 33
0.0
 16
1.0
 26
0.0
 36
0.0
 17
0.0
 27
1.0
 37
0.0
 76
0
330
21C
345
0
346
0
  0
ENDSEC
  0
EOF
