  0
SECTION
  2
HEADER
  9
$ACADVER
  1
AC1024
  9
$DWGCODEPAGE
  3
ANSI_1252
  9
$EXTMAX
 10
297.0
 20
210.0
 30
0.0
  9
$EXTMIN
 10
0.0
 20
0.0
 30
0.0
  9
$LIMMIN
 10
0.0
 20
0.0
  9
$LIMMAX
 10
297.0
 20
210.0
  9
$VIEWCTR
 10
148.5
 20
105.0
  9
$VIEWSIZE
 40
210.0
  9
$CLAYER
  8
0
  9
$LTSCALE
 40
16.335
  9
$CELTYPE
  6
BYLAYER
  9
$DIMSCALE
 40
1.0
  9
$DIMASZ
 40
3.0
  9
$DIMEXO
 40
0.5
  9
$DIMDLI
 40
11.286
  9
$DIMEXE
 40
1.5
  9
$DIMCEN
 40
2.673
  9
$DIMLFAC
 40
1.0
  9
$DIMBLK
  1
_FILLED
  9
$DIMALT
 70
0
  9
$DIMALTF
 40
0.0393700787
  9
$DIMTXT
 40
3.0
  9
$DIMTOL
 70
1
  9
$DIMLIM
 70
0
  9
$DIMTFAC
 40
1.0
  9
$DIMTP
 40
0.01
  9
$DIMTM
 40
0.01
  9
$DIMGAP
 40
0.625
  9
$DIMDSEP
 70
44
  9
$AUNITS
 70
0
  9
$PDMODE
 70
3
  9
$PDSIZE
 40
3.0
  9
$HANDSEED
  5
26F
  9
$TILEMODE
 70
1
  9
$MEASUREMENT
 70
1
  9
$INSUNITS
 70
4
  0
ENDSEC
  0
SECTION
  2
CLASSES
  0
CLASS
  1
ACDBDICTIONARYWDFLT
  2
AcDbDictionaryWithDefault
  3
AutoCAD 2000
 90
0
 91
1
280
0
281
0
  0
CLASS
  1
ACDBPLACEHOLDER
  2
AcDbPlaceHolder
  3
AutoCAD 2000
 90
0
 91
1
280
0
281
0
  0
CLASS
  1
LAYOUT
  2
AcDbLayout
  3
AutoCAD 2000
 90
0
 91
0
280
0
281
0
  0
ENDSEC
  0
SECTION
  2
TABLES
  0
TABLE
  2
VPORT
  5
8
100
AcDbSymbolTable
 70
2
  0
VPORT
  5
1F4
100
AcDbSymbolTableRecord
100
AcDbViewportTableRecord
  2
*ACTIVE
 70
0
 10
0.0
 20
0.0
 11
1.0
 21
1.0
 12
148.5
 22
105.0
 13
0.0
 23
0.0
 14
1.0
 24
1.0
 15
0.0
 25
0.0
 16
0.0
 26
0.0
 36
1.0
 17
0.0
 27
0.0
 37
0.0
 40
210.0
 41
1.4142857143
 42
50.0
 43
0.0
 44
0.0
 50
0.0
 51
0.0
 71
0
 72
100
 73
1
 74
1
 75
0
 76
0
 77
0
 78
0
  0
ENDTAB
  0
TABLE
  2
LTYPE
  5
5
100
AcDbSymbolTable
 70
6
  0
LTYPE
  5
14
100
AcDbSymbolTableRecord
100
AcDbLinetypeTableRecord
  2
BYBLOCK
 70
0
  3

 72
65
 73
0
 40
0.0
  0
LTYPE
  5
15
100
AcDbSymbolTableRecord
100
AcDbLinetypeTableRecord
  2
BYLAYER
 70
0
  3

 72
65
 73
0
 40
0.0
  0
LTYPE
  5
16
100
AcDbSymbolTableRecord
100
AcDbLinetypeTableRecord
  2
CONTINUOUS
 70
64
  3
Solid line
 72
65
 73
0
 40
0.0
  0
LTYPE
  5
1F5
100
AcDbSymbolTableRecord
100
AcDbLinetypeTableRecord
  2
CENTER
 70
64
  3
____ _ ____ _ ____ _ ____ _ ____ _ ____ _ ____
 72
65
 73
4
 40
0.6
 49
0.375
 74
0
 49
-0.075
 74
0
 49
0.075
 74
0
 49
-0.075
 74
0
  0
LTYPE
  5
1F6
100
AcDbSymbolTableRecord
100
AcDbLinetypeTableRecord
  2
HIDDEN
 70
64
  3
- - - - - - - - - - - - - - - - - - - -
 72
65
 73
2
 40
0.2
 49
0.1
 74
0
 49
-0.1
 74
0
  0
LTYPE
  5
1F7
100
AcDbSymbolTableRecord
100
AcDbLinetypeTableRecord
  2
PHANTOM
 70
64
  3
_____ _ _ _____ _ _ _____ _ _ _____
 72
65
 73
6
 40
0.8
 49
0.45
 74
0
 49
-0.05
 74
0
 49
0.1
 74
0
 49
-0.05
 74
0
 49
0.1
 74
0
 49
-0.05
 74
0
  0
LTYPE
  5
1F8
100
AcDbSymbolTableRecord
100
AcDbLinetypeTableRecord
  2
DOT
 70
64
  3
. . . . . . . . . . . . . . . . . . . .
 72
65
 73
2
 40
0.2
 49
0.1
 74
0
 49
-0.1
 74
0
  0
LTYPE
  5
1F9
100
AcDbSymbolTableRecord
100
AcDbLinetypeTableRecord
  2
DASHED
 70
64
  3
- - - - - - - - - - - - - - - - - - - -
 72
65
 73
2
 40
0.2
 49
0.1
 74
0
 49
-0.1
 74
0
  0
ENDTAB
  0
TABLE
  2
LAYER
  5
2
100
AcDbSymbolTable
 70
36
  0
LAYER
  5
10
100
AcDbSymbolTableRecord
100
AcDbLayerTableRecord
  2
0
 70
0
 62
7
  6
CONTINUOUS
370
-3
390
F
  0
LAYER
  5
1FA
100
AcDbSymbolTableRecord
100
AcDbLayerTableRecord
  2
DEFAULT_1
 70
0
 62
7
  6
CENTER
370
-3
390
F
  0
LAYER
  5
1FB
100
AcDbSymbolTableRecord
100
AcDbLayerTableRecord
  2
DEFAULT_2
 70
0
 62
7
  6
HIDDEN
370
-3
390
F
  0
LAYER
  5
1FC
100
AcDbSymbolTableRecord
100
AcDbLayerTableRecord
  2
DEFAULT_3
 70
0
 62
7
  6
PHANTOM
370
-3
390
F
  0
LAYER
  5
1FD
100
AcDbSymbolTableRecord
100
AcDbLayerTableRecord
  2
ASSI
 70
0
 62
7
  6
CONTINUOUS
370
-3
390
F
  0
LAYER
  5
1FE
100
AcDbSymbolTableRecord
100
AcDbLayerTableRecord
  2
COORDINATE
 70
0
 62
7
  6
CONTINUOUS
370
-3
390
F
  0
LAYER
  5
1FF
100
AcDbSymbolTableRecord
100
AcDbLayerTableRecord
  2
COPY_PUBLISH
 70
0
 62
7
  6
CONTINUOUS
370
-3
390
F
  0
LAYER
  5
200
100
AcDbSymbolTableRecord
100
AcDbLayerTableRecord
  2
COSMETIC
 70
0
 62
7
  6
CONTINUOUS
370
-3
390
F
  0
LAYER
  5
201
100
AcDbSymbolTableRecord
100
AcDbLayerTableRecord
  2
COSMETICI
 70
0
 62
7
  6
CONTINUOUS
370
-3
390
F
  0
LAYER
  5
202
100
AcDbSymbolTableRecord
100
AcDbLayerTableRecord
  2
CURVE
 70
0
 62
7
  6
CONTINUOUS
370
-3
390
F
  0
LAYER
  5
203
100
AcDbSymbolTableRecord
100
AcDbLayerTableRecord
  2
DRAFT
 70
0
 62
7
  6
CONTINUOUS
370
-3
390
F
  0
LAYER
  5
204
100
AcDbSymbolTableRecord
100
AcDbLayerTableRecord
  2
IMPORT_IGES
 70
0
 62
7
  6
CONTINUOUS
370
-3
390
F
  0
LAYER
  5
205
100
AcDbSymbolTableRecord
100
AcDbLayerTableRecord
  2
INTFCLR_11
 70
0
 62
7
  6
CONTINUOUS
370
-3
390
F
  0
LAYER
  5
206
100
AcDbSymbolTableRecord
100
AcDbLayerTableRecord
  2
INTF_1
 70
0
 62
7
  6
CONTINUOUS
370
-3
390
F
  0
LAYER
  5
207
100
AcDbSymbolTableRecord
100
AcDbLayerTableRecord
  2
INTF_3
 70
0
 62
7
  6
CONTINUOUS
370
-3
390
F
  0
LAYER
  5
208
100
AcDbSymbolTableRecord
100
AcDbLayerTableRecord
  2
NOTE
 70
0
 62
7
  6
CONTINUOUS
370
-3
390
F
  0
LAYER
  5
209
100
AcDbSymbolTableRecord
100
AcDbLayerTableRecord
  2
PIANI
 70
0
 62
7
  6
CONTINUOUS
370
-3
390
F
  0
LAYER
  5
20A
100
AcDbSymbolTableRecord
100
AcDbLayerTableRecord
  2
PUNTI
 70
0
 62
7
  6
CONTINUOUS
370
-3
390
F
  0
LAYER
  5
20B
100
AcDbSymbolTableRecord
100
AcDbLayerTableRecord
  2
RACCORDO
 70
0
 62
7
  6
CONTINUOUS
370
-3
390
F
  0
LAYER
  5
20C
100
AcDbSymbolTableRecord
100
AcDbLayerTableRecord
  2
SIMBOLI
 70
0
 62
7
  6
CONTINUOUS
370
-3
390
F
  0
LAYER
  5
20D
100
AcDbSymbolTableRecord
100
AcDbLayerTableRecord
  2
SMUSSO
 70
0
 62
7
  6
CONTINUOUS
370
-3
390
F
  0
LAYER
  5
20E
100
AcDbSymbolTableRecord
100
AcDbLayerTableRecord
  2
SNAPLINE
 70
0
 62
7
  6
CONTINUOUS
370
-3
390
F
  0
LAYER
  5
20F
100
AcDbSymbolTableRecord
100
AcDbLayerTableRecord
  2
SUPERFICI
 70
0
 62
7
  6
CONTINUOUS
370
-3
390
F
  0
LAYER
  5
210
100
AcDbSymbolTableRecord
100
AcDbLayerTableRecord
  2
TRASH
 70
0
 62
7
  6
CONTINUOUS
370
-3
390
F
  0
LAYER
  5
211
100
AcDbSymbolTableRecord
100
AcDbLayerTableRecord
  2
___SHELL
 70
0
 62
7
  6
CONTINUOUS
370
-3
390
F
  0
ENDTAB
  0
TABLE
  2
STYLE
  5
3
100
AcDbSymbolTable
 70
1
  0
STYLE
  5
11
100
AcDbSymbolTableRecord
100
AcDbTextStyleTableRecord
  2
STANDARD
 70
0
 40
0.0
 41
0.8
 50
0.0
 71
0
 42
0.2
  3
txt
  4

  0
STYLE
  5
212
100
AcDbSymbolTableRecord
100
AcDbTextStyleTableRecord
  2
TEXTSTYLE_1
 70
0
 40
0.0
 41
0.8
 50
0.0
 71
0
 42
0.2
  3
gdt
  4

  0
ENDTAB
  0
TABLE
  2
VIEW
  5
6
100
AcDbSymbolTable
 70
0
  0
ENDTAB
  0
TABLE
  2
UCS
  5
7
100
AcDbSymbolTable
 70
0
  0
ENDTAB
  0
TABLE
  2
APPID
  5
9
100
AcDbSymbolTable
 70
1
  0
APPID
  5
213
100
AcDbSymbolTableRecord
100
AcDbRegAppTableRecord
  2
ACAD
 70
0
  0
ENDTAB
  0
TABLE
  2
BLOCK_RECORD
  5
1
100
AcDbSymbolTable
 70
0
  0
BLOCK_RECORD
  5
214
100
AcDbSymbolTableRecord
100
AcDbBlockTableRecord
  2
*Model_Space
  0
BLOCK_RECORD
  5
215
100
AcDbSymbolTableRecord
100
AcDbBlockTableRecord
  2
*Paper_Space
  0
BLOCK_RECORD
  5
216
100
AcDbSymbolTableRecord
100
AcDbBlockTableRecord
  2
_FILLED
  0
ENDTAB
  0
TABLE
  2
DIMSTYLE
  5
A
100
AcDbSymbolTable
 70
1
100
AcDbDimStyleTable
 71
0
  0
DIMSTYLE
105
217
100
AcDbSymbolTableRecord
100
AcDbDimStyleTableRecord
  2
STANDARD
 70
0
  3

  4

 40
1.0
 41
3.0
 42
0.5
 43
0.38
 44
1.5
 45
0.0
 46
0.0
 47
0.01
 48
0.01
140
3.0
141
0.09
142
0.0
143
25.4
144
1.0
145
0.0
146
1.0
147
0.625
 71
1
 72
0
 73
0
 74
0
 75
0
 76
0
 77
1
 78
8
 79
2
170
0
171
1
172
0
173
0
174
0
175
0
176
0
177
0
178
0
270
2
179
2
271
2
272
2
273
2
274
2
275
0
280
0
281
0
282
0
283
1
284
8
285
0
286
0
287
3
288
0
340
11
278
44
341
216
342
216
343
216
344
216
  0
ENDTAB
  0
ENDSEC
  0
SECTION
  2
BLOCKS
  0
BLOCK
  5
20
100
AcDbEntity
  8
0
100
AcDbBlockBegin
  2
*Model_Space
 70
0
 10
0.0
 20
0.0
 30
0.0
  3
*Model_Space
  1

  0
ENDBLK
  5
21
100
AcDbEntity
  8
0
100
AcDbBlockEnd
  0
BLOCK
  5
1C
100
AcDbEntity
  8
0
100
AcDbBlockBegin
  2
*Paper_Space
 70
0
 10
0.0
 20
0.0
 30
0.0
  3
*Paper_Space
  1

  0
ENDBLK
  5
1D
100
AcDbEntity
  8
0
100
AcDbBlockEnd
  0
BLOCK
  5
218
100
AcDbEntity
  8
0
100
AcDbBlockBegin
  2
_FILLED
 70
64
 10
0.0
 20
0.0
  3
_FILLED
  1

  0
SOLID
  5
219
100
AcDbEntity
  8
0
  6
BYBLOCK
 62
0
100
AcDbTrace
 10
0.0
 20
0.0
 11
-1.0
 21
0.3166666667
 12
-1.0
 22
-0.3166666667
 13
-1.0
 23
-0.3166666667
  0
ENDBLK
  5
21A
100
AcDbEntity
  8
0
  6
BYBLOCK
 62
0
100
AcDbBlockEnd
  0
ENDSEC
  0
SECTION
  2
ENTITIES
  0
LINE
  5
21B
100
AcDbEntity
  8
RACCORDO
100
AcDbLine
 62
7
  6
CONTINUOUS
 10
21.8876100807
 20
46.3333025742
 11
20.766813225
 21
45.5429464132
  0
LINE
  5
21C
100
AcDbEntity
  8
RACCORDO
100
AcDbLine
 62
7
  6
CONTINUOUS
 10
20.7756828631
 20
45.5492669559
 11
20.7754376774
 21
45.5490944038
  0
LWPOLYLINE
  5
21D
100
AcDbEntity
  8
RACCORDO
100
AcDbPolyline
 62
7
  6
CONTINUOUS
 90
18
 70
0
 10
20.766813225
 20
45.5429464132
 10
20.6986211058
 20
45.4903332041
 10
20.6336824686
 20
45.4330956091
 10
20.5719684007
 20
45.3715864094
 10
20.5134579125
 20
45.3061184067
 10
20.4582971038
 20
45.2370996264
 10
20.4065563931
 20
45.1648377723
 10
20.358338491
 20
45.0896048357
 10
20.3139297819
 20
45.0119227443
 10
20.2734528147
 20
44.9320849659
 10
20.2370742883
 20
44.8503566218
 10
20.2050689338
 20
44.7672823799
 10
20.177598378
 20
44.6831136871
 10
20.1548704536
 20
44.5980936637
 10
20.1371339617
 20
44.5126097682
 10
20.1246406277
 20
44.4268424888
 10
20.1176686361
 20
44.340967276
 10
20.1169739646
 20
44.324034149
  0
LINE
  5
21E
100
AcDbEntity
  8
0
100
AcDbLine
 62
250
  6
CONTINUOUS
 10
22.150043442
 20
46.3165893634
 11
21.0450660992
 21
45.5374545299
  0
LWPOLYLINE
  5
21F
100
AcDbEntity
  8
RACCORDO
100
AcDbPolyline
 62
250
  6
CONTINUOUS
 90
22
 70
0
 10
21.0450660991
 20
45.5374545298
 10
20.9854978235
 20
45.4968987131
 10
20.9264146716
 20
45.4518596254
 10
20.8681284168
 20
45.4025502032
 10
20.8109657495
 20
45.3491937006
 10
20.7552080618
 20
45.2920552
 10
20.7010902511
 20
45.2314394897
 10
20.648892794
 20
45.1676337602
 10
20.5988944839
 20
45.1009453299
 10
20.5513118485
 20
45.0317330282
 10
20.5063922003
 20
44.9603341083
 10
20.4643717453
 20
44.8870890163
 10
20.425428343
 20
44.8123785732
 10
20.3897617895
 20
44.7365660545
 10
20.3575605007
 20
44.6600162205
 10
20.3289592693
 20
44.5831207319
 10
20.3041042872
 20
44.5062606892
 10
20.2831250734
 20
44.4298010767
 10
20.2661047986
 20
44.3541100814
 10
20.2531255952
 20
44.2795556289
 10
20.2442648793
 20
44.206503238
 10
20.2395699648
 20
44.13531074
  0
LWPOLYLINE
  5
220
100
AcDbEntity
  8
RACCORDO
100
AcDbPolyline
 62
250
  6
CONTINUOUS
 90
16
 70
0
 10
35.0205162234
 20
1.5091098525
 10
35.058426058
 20
1.4921515868
 10
35.099035168
 20
1.4775414451
 10
35.1419651951
 20
1.4654155513
 10
35.1868161566
 20
1.4558868832
 10
35.2331701725
 20
1.4490442204
 10
35.2805953585
 20
1.4449513164
 10
35.3286498503
 20
1.4436463052
 10
35.3768859202
 20
1.4451413456
 10
35.4248541488
 20
1.4494225083
 10
35.4721076121
 20
1.4564499053
 10
35.5182060458
 20
1.4661580617
 10
35.5627199469
 20
1.478456526
 10
35.6052345758
 20
1.4932307122
 10
35.64535382
 20
1.5103429681
 10
35.6827038854
 20
1.5296338573
  0
LWPOLYLINE
  5
221
100
AcDbEntity
  8
RACCORDO
100
AcDbPolyline
 62
7
  6
CONTINUOUS
 90
12
 70
0
 10
35.2876629861
 20
0.9910991793
 10
35.3266180348
 20
0.9727923824
 10
35.3907470764
 20
0.9481860578
 10
35.4574831729
 20
0.9291968309
 10
35.5264073342
 20
0.9160197792
 10
35.5970503172
 20
0.908808044
 10
35.6693865429
 20
0.9076712933
 10
35.7430817834
 20
0.9127600516
 10
35.8177353783
 20
0.9241711814
 10
35.8933877171
 20
0.9420890014
 10
35.9698983025
 20
0.9667357363
 10
36.0541402768
 20
1.001557872
  0
LINE
  5
222
100
AcDbEntity
  8
RACCORDO
100
AcDbLine
 62
7
  6
CONTINUOUS
 10
35.2876253963
 20
0.9911124686
 11
35.2874106876
 21
0.9912208691
  0
LWPOLYLINE
  5
223
100
AcDbEntity
  8
RACCORDO
100
AcDbPolyline
 62
250
  6
CONTINUOUS
 90
12
 70
0
 10
35.2874106876
 20
0.9912208691
 10
35.2444197517
 20
1.0164074404
 10
35.2054948835
 20
1.0461575064
 10
35.1698687182
 20
1.0808063602
 10
35.1376979906
 20
1.1201884953
 10
35.1091636884
 20
1.1640944637
 10
35.0843993354
 20
1.2123044387
 10
35.0635087423
 20
1.2645883445
 10
35.0466051674
 20
1.3206919549
 10
35.0337727735
 20
1.3803435851
 10
35.0250632875
 20
1.4432521248
 10
35.0205162287
 20
1.5091098856
  0
LWPOLYLINE
  5
224
100
AcDbEntity
  8
RACCORDO
100
AcDbPolyline
 62
7
  6
CONTINUOUS
 90
10
 70
0
 10
20.4671836964
 20
9.5483478728
 10
21.9359858701
 20
8.5920825168
 10
23.5247625438
 20
7.5877475832
 10
25.1407587143
 20
6.5966613695
 10
26.7835784222
 20
5.6190716288
 10
28.4528213072
 20
4.6552195654
 10
30.1480717635
 20
3.7053362115
 10
31.8688959738
 20
2.7696453358
 10
33.6148498702
 20
1.8483674595
 10
35.2874065344
 20
0.9912229675
  0
LWPOLYLINE
  5
225
100
AcDbEntity
  8
RACCORDO
100
AcDbPolyline
 62
250
  6
CONTINUOUS
 90
31
 70
0
 10
20.2395699488
 20
10.0434430122
 10
20.6855891351
 20
9.7490984064
 10
21.1337273558
 20
9.4560067632
 10
21.5839735373
 20
9.164172359
 10
22.0362084626
 20
8.8736685819
 10
22.4905281157
 20
8.5844299411
 10
22.9472489743
 20
8.2962548645
 10
23.4065258665
 20
8.0090495015
 10
23.8681923125
 20
7.7229216922
 10
24.3320851629
 20
7.4379736265
 10
24.7981443169
 20
7.1542415732
 10
25.2664114086
 20
6.8716996125
 10
25.7368735364
 20
6.5903553692
 10
26.2095961758
 20
6.3101700454
 10
26.684496335
 20
6.0311932944
 10
27.1613351639
 20
5.7535635628
 10
27.6398049672
 20
5.4774539766
 10
28.1201859432
 20
5.202696435
 10
28.6031266915
 20
4.9289208148
 10
29.0876760582
 20
4.6566660035
 10
29.5747689758
 20
4.3854046208
 10
30.0679381183
 20
4.1131999924
 10
30.5663721054
 20
3.8405552156
 10
31.0709589232
 20
3.5670357714
 10
31.5879066195
 20
3.2893762294
 10
32.1175328405
 20
3.0075651741
 10
32.6597696818
 20
2.7217947789
 10
33.2204049173
 20
2.4292055536
 10
33.8015400758
 20
2.1289648948
 10
34.4015060952
 20
1.8222140885
 10
35.0205162202
 20
1.5091098852
  0
LINE
  5
226
100
AcDbEntity
  8
RACCORDO
100
AcDbLine
 62
7
  6
CONTINUOUS
 10
20.4670093928
 20
9.5484630574
 11
20.4671854073
 21
9.5483467428
  0
LWPOLYLINE
  5
227
100
AcDbEntity
  8
RACCORDO
100
AcDbPolyline
 62
250
  6
CONTINUOUS
 90
9
 70
0
 10
20.2395798061
 20
10.0434483821
 10
20.2097136674
 20
10.0656228559
 10
20.1836392639
 20
10.0895145723
 10
20.1615995284
 20
10.1149009344
 10
20.143799803
 20
10.1415454201
 10
20.1304059259
 20
10.1691997852
 10
20.1215426865
 20
10.1976063771
 10
20.1172926627
 20
10.2265005342
 10
20.117010637
 20
10.2318028786
  0
LWPOLYLINE
  5
228
100
AcDbEntity
  8
RACCORDO
100
AcDbPolyline
 62
250
  6
CONTINUOUS
 90
11
 70
0
 10
20.2395699648
 20
10.0434430266
 10
20.244265018
 20
9.9774998089
 10
20.2531259833
 20
9.9145038035
 10
20.2661054539
 20
9.8547672523
 10
20.2831258517
 20
9.7985961916
 10
20.3041050007
 20
9.7462611579
 10
20.3289599304
 20
9.6979988874
 10
20.3575613049
 20
9.6540541932
 10
20.3897628343
 20
9.6146542744
 10
20.4254295798
 20
9.5799819905
 10
20.4670093928
 20
9.5484630574
  0
LWPOLYLINE
  5
229
100
AcDbEntity
  8
RACCORDO
100
AcDbPolyline
 62
7
  6
CONTINUOUS
 90
13
 70
0
 10
20.1170186932
 20
10.2318031762
 10
20.1174774128
 20
10.2206385607
 10
20.1244471387
 20
10.1374993647
 10
20.1373953496
 20
10.058103093
 10
20.1560973586
 20
9.9826553511
 10
20.1803303849
 20
9.9111996463
 10
20.2098829767
 20
9.84385678
 10
20.2444601906
 20
9.7809299531
 10
20.2837514245
 20
9.7226159812
 10
20.3274336796
 20
9.6691002649
 10
20.3750412148
 20
9.620696044
 10
20.4261231233
 20
9.5776042139
 10
20.4669792924
 20
9.5484898916
  0
LINE
  5
22A
100
AcDbEntity
  8
RACCORDO
100
AcDbLine
 62
7
  6
CONTINUOUS
 10
20.117010637
 20
10.2318028786
 11
20.1170033144
 21
10.2320038468
  0
LWPOLYLINE
  5
22B
100
AcDbEntity
  8
RACCORDO
100
AcDbPolyline
 62
7
  6
CONTINUOUS
 90
10
 70
0
 10
20.1169756659
 20
44.3242921254
 10
20.0003203212
 20
40.514945669
 10
19.9110257692
 20
36.6560957734
 10
19.8514569208
 20
32.8154131526
 10
19.8216587856
 20
28.9933174845
 10
19.8216401427
 20
25.1901417537
 10
19.8514011287
 20
21.4061876661
 10
19.9109332546
 20
17.6417772025
 10
20.0001918014
 20
13.8972725852
 10
20.1170033144
 20
10.2320038468
  0
LWPOLYLINE
  5
22C
100
AcDbEntity
  8
RACCORDO
100
AcDbPolyline
 62
250
  6
CONTINUOUS
 90
10
 70
0
 10
20.2395699488
 20
44.135310728
 10
20.1190329933
 20
40.2753792946
 10
20.0285697809
 20
36.4324766135
 10
19.9682298997
 20
32.6069700522
 10
19.9380489152
 20
28.7990475846
 10
19.9380489401
 20
25.0092356715
 10
19.9682299671
 20
21.238393636
 10
20.0285698689
 20
17.4870223907
 10
20.1190330639
 20
13.755268822
 10
20.2395699488
 20
10.0434430122
  0
LINE
  5
22D
100
AcDbEntity
  8
0
100
AcDbLine
 62
250
  6
CONTINUOUS
 10
35.8259543324
 20
37.0031548965
 11
37.0531560114
 21
37.7117189457
  0
LINE
  5
22E
100
AcDbEntity
  8
0
100
AcDbLine
 62
250
  6
CONTINUOUS
 10
36.1790231902
 20
36.3916216965
 11
37.4062248694
 21
37.1001857457
  0
LINE
  5
22F
100
AcDbEntity
  8
DRAFT
100
AcDbLine
 62
7
  6
CONTINUOUS
 10
26.3013287143
 20
21.5556686965
 11
26.2983293086
 21
21.6275318292
  0
LWPOLYLINE
  5
230
100
AcDbEntity
  8
0
100
AcDbPolyline
 62
7
  6
CONTINUOUS
 90
35
 70
0
 10
26.298329309
 20
21.6275318028
 10
26.3002153478
 20
21.5704655588
 10
26.3054291569
 20
21.5121420685
 10
26.3139710591
 20
21.4525615132
 10
26.3259283868
 20
21.3913490082
 10
26.3412158135
 20
21.3288805814
 10
26.3595747302
 20
21.2662828132
 10
26.3810690799
 20
21.2035930459
 10
26.4056380522
 20
21.1407757217
 10
26.4328352072
 20
21.078847663
 10
26.4626060323
 20
21.0179722182
 10
26.4950087045
 20
20.9579881318
 10
26.5297651223
 20
20.8994249204
 10
26.5668901979
 20
20.8422324348
 10
26.6063735458
 20
20.7864634227
 10
26.6478984738
 20
20.7328013759
 10
26.6917612326
 20
20.681022128
 10
26.7376707259
 20
20.6313528188
 10
26.7844268918
 20
20.5851525488
 10
26.8322732283
 20
20.5425496319
 10
26.8809682758
 20
20.5034169446
 10
26.9285792665
 20
20.4687273934
 10
26.9737608934
 20
20.4392061718
 10
27.017852947
 20
20.4141249158
 10
27.0629505365
 20
20.3922763314
 10
27.1104492055
 20
20.3728675482
 10
27.1589586733
 20
20.3566945037
 10
27.2063952871
 20
20.344933099
 10
27.2523732717
 20
20.3380037145
 10
27.2972754116
 20
20.335484256
 10
27.3401658852
 20
20.3372840054
 10
27.3808108977
 20
20.3434564404
 10
27.4194393482
 20
20.3539452531
 10
27.4558077288
 20
20.3684940424
 10
27.4618121342
 20
20.3713866153
  0
LINE
  5
231
100
AcDbEntity
  8
DRAFT
100
AcDbLine
 62
7
  6
CONTINUOUS
 10
26.2983293086
 20
21.6275318292
 11
26.2963680376
 21
22.7150213633
  0
LINE
  5
232
100
AcDbEntity
  8
0
100
AcDbLine
 62
7
  6
CONTINUOUS
 10
26.2967357755
 20
23.3956237031
 11
26.298329309
 21
21.6275318028
  0
LINE
  5
233
100
AcDbEntity
  8
DRAFT
100
AcDbLine
 62
7
  6
CONTINUOUS
 10
26.2963680376
 20
22.7150213633
 11
26.2975447981
 21
23.8043232284
  0
LINE
  5
234
100
AcDbEntity
  8
0
100
AcDbLine
 62
7
  6
CONTINUOUS
 10
26.2983293035
 20
24.0769299298
 11
26.2967357755
 21
23.3956237031
  0
LINE
  5
235
100
AcDbEntity
  8
DRAFT
100
AcDbLine
 62
7
  6
CONTINUOUS
 10
26.2975447981
 20
23.8043232284
 11
26.2983293035
 21
24.0769299169
  0
LWPOLYLINE
  5
236
100
AcDbEntity
  8
DRAFT
100
AcDbPolyline
 62
7
  6
CONTINUOUS
 90
8
 70
0
 10
26.2983293035
 20
24.0769299169
 10
26.3014580897
 20
24.1464273575
 10
26.309595927
 20
24.2112597887
 10
26.3227433396
 20
24.2714275099
 10
26.3410699005
 20
24.3272633244
 10
26.3644101705
 20
24.3784367921
 10
26.3922624915
 20
24.4239535396
 10
26.4247706206
 20
24.4637428873
  0
LWPOLYLINE
  5
237
100
AcDbEntity
  8
DRAFT
100
AcDbPolyline
 62
7
  6
CONTINUOUS
 90
3
 70
0
 10
26.4247706206
 20
24.4637428873
 10
26.4617979866
 20
24.4978796281
 10
26.4839125725
 20
24.5140697805
  0
LWPOLYLINE
  5
238
100
AcDbEntity
  8
0
100
AcDbPolyline
 62
7
  6
CONTINUOUS
 90
12
 70
0
 10
26.4838699369
 20
24.5141411018
 10
26.4596171999
 20
24.4963455723
 10
26.4304716847
 20
24.4698487407
 10
26.4038313724
 20
24.4393349767
 10
26.3797386549
 20
24.4049282418
 10
26.3586435368
 20
24.367145366
 10
26.3406027942
 20
24.325921213
 10
26.3255566543
 20
24.2813192054
 10
26.3137796141
 20
24.2340486193
 10
26.3053623615
 20
24.1843454166
 10
26.3002123497
 20
24.1319725726
 10
26.2983293035
 20
24.0769299298
  0
LWPOLYLINE
  5
239
100
AcDbEntity
  8
DRAFT
100
AcDbPolyline
 62
7
  6
CONTINUOUS
 90
29
 70
0
 10
26.4839125725
 20
24.5140697805
 10
26.5024207523
 20
24.5255866339
 10
26.5466266035
 20
24.546705354
 10
26.5944355294
 20
24.5613987481
 10
26.6449694449
 20
24.5693704113
 10
26.6984031573
 20
24.5704951422
 10
26.754569488
 20
24.5649025473
 10
26.8120732915
 20
24.5526760975
 10
26.8708918908
 20
24.5336509556
 10
26.9310517872
 20
24.5079941982
 10
26.9912262228
 20
24.4762840759
 10
27.0514385024
 20
24.4383676664
 10
27.1116653401
 20
24.3943979444
 10
27.1705045879
 20
24.3454088323
 10
27.2279206718
 20
24.2912578427
 10
27.2839449358
 20
24.2320850483
 10
27.3372702992
 20
24.1693451385
 10
27.3877517396
 20
24.1030935661
 10
27.4355268225
 20
24.0332705691
 10
27.4797085076
 20
23.9611557852
 10
27.5203160468
 20
23.8865449945
 10
27.5573226933
 20
23.8096380564
 10
27.589769691
 20
23.732319149
 10
27.6175034484
 20
23.6546747168
 10
27.6406704494
 20
23.576614164
 10
27.6587603049
 20
23.4997550989
 10
27.6716010997
 20
23.4246356816
 10
27.6793606212
 20
23.3507153335
 10
27.6820383399
 20
23.2779937367
  0
LWPOLYLINE
  5
23A
100
AcDbEntity
  8
0
100
AcDbPolyline
 62
7
  6
CONTINUOUS
 90
3
 70
0
 10
26.5252428287
 20
24.5375237709
 10
26.49131373
 20
24.518951393
 10
26.4838699369
 20
24.5141411018
  0
LWPOLYLINE
  5
23B
100
AcDbEntity
  8
0
100
AcDbPolyline
 62
7
  6
CONTINUOUS
 90
33
 70
0
 10
27.6805002027
 20
23.3354103514
 10
27.6755643974
 20
23.3940713729
 10
27.6672312463
 20
23.4539769858
 10
27.6554097315
 20
23.5155107871
 10
27.6401928884
 20
23.5782903597
 10
27.6218571656
 20
23.6411669045
 10
27.6003449295
 20
23.7041041579
 10
27.575716931
 20
23.7671402079
 10
27.5484264694
 20
23.8292373642
 10
27.5185354446
 20
23.8902163447
 10
27.4859855864
 20
23.9502585504
 10
27.4510492557
 20
24.0088669195
 10
27.4137226322
 20
24.0660975942
 10
27.3740140919
 20
24.1218970778
 10
27.3322137167
 20
24.1756035151
 10
27.2879828633
 20
24.2274850011
 10
27.2416655461
 20
24.2772765448
 10
27.194573349
 20
24.323515223
 10
27.1464846939
 20
24.3660243233
 10
27.0976229843
 20
24.4049815981
 10
27.0499617586
 20
24.4394526301
 10
27.0048867356
 20
24.4686970337
 10
26.96100636
 20
24.4934518101
 10
26.9161285805
 20
24.5149988063
 10
26.8688397025
 20
24.5341600991
 10
26.8205587352
 20
24.5501166518
 10
26.7733428423
 20
24.5616887335
 10
26.7275486928
 20
24.5684484984
 10
26.6828167586
 20
24.5708221283
 10
26.6401248516
 20
24.5689080289
 10
26.5997286206
 20
24.5626507232
 10
26.5613674114
 20
24.5521028021
 10
26.5252428287
 20
24.5375237709
  0
LINE
  5
23C
100
AcDbEntity
  8
0
100
AcDbLine
 62
7
  6
CONTINUOUS
 10
27.6820383394
 20
23.2779937299
 11
27.6805002027
 21
23.3354103514
  0
LINE
  5
23D
100
AcDbEntity
  8
0
100
AcDbLine
 62
7
  6
CONTINUOUS
 10
27.6820383479
 20
20.8285945496
 11
27.6800781698
 21
21.9145689644
  0
LINE
  5
23E
100
AcDbEntity
  8
DRAFT
100
AcDbLine
 62
7
  6
CONTINUOUS
 10
27.6804452561
 20
22.5966872504
 11
27.6820383479
 21
20.8285945687
  0
LINE
  5
23F
100
AcDbEntity
  8
0
100
AcDbLine
 62
7
  6
CONTINUOUS
 10
27.6800781595
 20
21.9146253157
 11
27.681254053
 21
23.0053869297
  0
LINE
  5
240
100
AcDbEntity
  8
DRAFT
100
AcDbLine
 62
7
  6
CONTINUOUS
 10
27.6820383399
 20
23.2779937367
 11
27.6804452561
 21
22.5966872504
  0
LINE
  5
241
100
AcDbEntity
  8
0
100
AcDbLine
 62
7
  6
CONTINUOUS
 10
27.681254053
 20
23.0053869297
 11
27.6820383394
 21
23.2779937299
  0
LWPOLYLINE
  5
242
100
AcDbEntity
  8
DRAFT
100
AcDbPolyline
 62
7
  6
CONTINUOUS
 90
11
 70
0
 10
27.6820383479
 20
20.8285945687
 10
27.6794655973
 20
20.7600019583
 10
27.6718182123
 20
20.695853115
 10
27.659096784
 20
20.6361483836
 10
27.6411587874
 20
20.5805209399
 10
27.6181509693
 20
20.5293400699
 10
27.5905081746
 20
20.4837104857
 10
27.5580575633
 20
20.4436994778
 10
27.5209793464
 20
20.4092440488
 10
27.4802362082
 20
20.3812524652
 10
27.4618111184
 20
20.371388437
  0
LWPOLYLINE
  5
243
100
AcDbEntity
  8
0
100
AcDbPolyline
 62
7
  6
CONTINUOUS
 90
3
 70
0
 10
27.6756212781
 20
20.721498275
 10
27.6804860561
 20
20.7737307837
 10
27.6820383479
 20
20.8285945496
  0
LWPOLYLINE
  5
244
100
AcDbEntity
  8
0
100
AcDbPolyline
 62
7
  6
CONTINUOUS
 90
11
 70
0
 10
27.4618121342
 20
20.3713866153
 10
27.4899411459
 20
20.3870750506
 10
27.5218104035
 20
20.4097136634
 10
27.5510899761
 20
20.4362328639
 10
27.5778253343
 20
20.4667407869
 10
27.6019675618
 20
20.5011272929
 10
27.6230487863
 20
20.5388875058
 10
27.6409934233
 20
20.5800986025
 10
27.655874035
 20
20.6246816442
 10
27.6674442917
 20
20.6718971854
 10
27.6756212781
 20
20.721498275
  0
LWPOLYLINE
  5
245
100
AcDbEntity
  8
DRAFT
100
AcDbPolyline
 62
7
  6
CONTINUOUS
 90
27
 70
0
 10
27.4618111184
 20
20.371388437
 10
27.4358381331
 20
20.3599320785
 10
27.3877828526
 20
20.3450800149
 10
27.3370117889
 20
20.3369875209
 10
27.2833486685
 20
20.3358054044
 10
27.2269773116
 20
20.3413872135
 10
27.1693749717
 20
20.3535757957
 10
27.11062288
 20
20.3725110146
 10
27.0506431947
 20
20.398054931
 10
26.9906692611
 20
20.4296306122
 10
26.9306817045
 20
20.4673460076
 10
26.8706999873
 20
20.5110931774
 10
26.8120106819
 20
20.5599684482
 10
26.7545766692
 20
20.6141567941
 10
26.6984314695
 20
20.6734711351
 10
26.6449623549
 20
20.736446686
 10
26.5943071247
 20
20.8030543019
 10
26.5463206313
 20
20.8733188885
 10
26.5019615143
 20
20.9458543172
 10
26.4612239848
 20
21.0208651788
 10
26.4241060931
 20
21.0981424483
 10
26.3915692792
 20
21.175677875
 10
26.3637811475
 20
21.2533430741
 10
26.3405666721
 20
21.3312621932
 10
26.3223715754
 20
21.4078047564
 10
26.3093426009
 20
21.482426226
 10
26.3013287143
 20
21.5556686965
  0
LWPOLYLINE
  5
246
100
AcDbEntity
  8
RACCORDO
100
AcDbPolyline
 62
250
  6
CONTINUOUS
 90
3
 70
0
 10
35.6827038854
 20
1.5296338573
 10
35.551639767
 20
5.2440823648
 10
35.4533416731
 20
8.9763394718
  0
LWPOLYLINE
  5
247
100
AcDbEntity
  8
RACCORDO
100
AcDbPolyline
 62
250
  6
CONTINUOUS
 90
3
 70
0
 10
35.0205162202
 20
1.5091098852
 10
34.892263463
 20
5.2253907428
 10
34.7960133514
 20
8.9604856045
  0
LINE
  5
248
100
AcDbEntity
  8
RACCORDO
100
AcDbLine
 62
250
  6
CONTINUOUS
 10
35.4533416731
 20
8.9763394718
 11
35.3878096037
 21
12.7264051782
  0
LINE
  5
249
100
AcDbEntity
  8
RACCORDO
100
AcDbLine
 62
250
  6
CONTINUOUS
 10
34.7960133514
 20
8.9604856045
 11
34.731815499
 21
12.7140843818
  0
LINE
  5
24A
100
AcDbEntity
  8
RACCORDO
100
AcDbLine
 62
250
  6
CONTINUOUS
 10
35.3878096037
 20
12.7264051782
 11
35.355043552
 21
16.4947953969
  0
LWPOLYLINE
  5
24B
100
AcDbEntity
  8
RACCORDO
100
AcDbPolyline
 62
250
  6
CONTINUOUS
 90
3
 70
0
 10
34.731815499
 20
12.7140843818
 10
34.6997054937
 20
16.4860401849
 10
34.6997054669
 20
20.2758520987
  0
LWPOLYLINE
  5
24C
100
AcDbEntity
  8
RACCORDO
100
AcDbPolyline
 62
250
  6
CONTINUOUS
 90
3
 70
0
 10
35.355043552
 20
16.4947953969
 10
35.3550435248
 20
20.280994215
 10
35.3878095425
 20
24.0834538936
  0
LWPOLYLINE
  5
24D
100
AcDbEntity
  8
RACCORDO
100
AcDbPolyline
 62
250
  6
CONTINUOUS
 90
3
 70
0
 10
34.6997054669
 20
20.2758520987
 10
34.7318154271
 20
24.0826607994
 10
34.7960132588
 20
27.905939828
  0
LINE
  5
24E
100
AcDbEntity
  8
RACCORDO
100
AcDbLine
 62
250
  6
CONTINUOUS
 10
35.3878095425
 20
24.0834538936
 11
35.4533416119
 21
27.9016585196
  0
LINE
  5
24F
100
AcDbEntity
  8
RACCORDO
100
AcDbLine
 62
250
  6
CONTINUOUS
 10
34.7960132588
 20
27.905939828
 11
34.8922633893
 21
31.7455012147
  0
LINE
  5
250
100
AcDbEntity
  8
RACCORDO
100
AcDbLine
 62
250
  6
CONTINUOUS
 10
35.4533416119
 20
27.9016585196
 11
35.5516397263
 21
31.7361240059
  0
LINE
  5
251
100
AcDbEntity
  8
RACCORDO
100
AcDbLine
 62
250
  6
CONTINUOUS
 10
34.8922633893
 20
31.7455012147
 11
35.0205162202
 21
35.600977598
  0
LINE
  5
252
100
AcDbEntity
  8
RACCORDO
100
AcDbLine
 62
250
  6
CONTINUOUS
 10
35.5516397263
 20
31.7361240059
 11
35.6827038856
 21
35.5868503528
  0
LWPOLYLINE
  5
253
100
AcDbEntity
  8
RACCORDO
100
AcDbPolyline
 62
250
  6
CONTINUOUS
 90
22
 70
0
 10
35.0205162291
 20
35.6009775977
 10
35.0250631396
 20
35.672255559
 10
35.0337723832
 20
35.745395414
 10
35.0466045209
 20
35.8200347838
 10
35.0635079458
 20
35.8957932461
 10
35.0843985518
 20
35.9723040155
 10
35.1091629649
 20
36.049216348
 10
35.1376972674
 20
36.126150479
 10
35.1698679688
 20
36.2027179727
 10
35.2054941118
 20
36.2785538228
 10
35.2444190006
 20
36.3532749538
 10
35.2864635469
 20
36.4265061341
 10
35.3313906142
 20
36.4979007687
 10
35.3790015799
 20
36.5670967117
 10
35.4290760645
 20
36.6337411588
 10
35.481325287
 20
36.6975169982
 10
35.535510429
 20
36.7580938293
 10
35.5913853059
 20
36.8151646632
 10
35.6486365467
 20
36.8684700239
 10
35.7069836307
 20
36.9177443265
 10
35.7661797239
 20
36.9627182078
 10
35.8259543322
 20
37.0031548964
  0
LWPOLYLINE
  5
254
100
AcDbEntity
  8
RACCORDO
100
AcDbPolyline
 62
250
  6
CONTINUOUS
 90
22
 70
0
 10
35.6827038856
 20
35.5868503528
 10
35.6855782525
 20
35.628465442
 10
35.6909534776
 20
35.6707416617
 10
35.6988295611
 20
35.7136790118
 10
35.709268778
 20
35.7575125553
 10
35.7222088531
 20
35.8020072293
 10
35.7374629615
 20
35.8464578445
 10
35.7550645167
 20
35.8908470502
 10
35.774980105
 20
35.9351921972
 10
35.796922661
 20
35.9788401477
 10
35.8209246223
 20
36.0217835715
 10
35.8469535512
 20
36.0640297989
 10
35.8746250686
 20
36.1049476836
 10
35.9039634921
 20
36.1445157634
 10
35.934944504
 20
36.1827555005
 10
35.9671107727
 20
36.2191001344
 10
36.0004972956
 20
36.2535316914
 10
36.0350690753
 20
36.2860681452
 10
36.070263787
 20
36.3161966566
 10
36.1058939893
 20
36.343746279
 10
36.1421471237
 20
36.368887959
 10
36.1790231902
 20
36.3916216965
  0
LINE
  5
255
100
AcDbEntity
  8
0
100
AcDbLine
 62
7
  6
CONTINUOUS
 10
37.4062248694
 20
1.8083535726
 11
37.4062248694
 21
37.1001857457
  0
LWPOLYLINE
  5
256
100
AcDbEntity
  8
RACCORDO
100
AcDbPolyline
 62
250
  6
CONTINUOUS
 90
13
 70
0
 10
20.2395699488
 20
44.135310728
 10
20.685655507
 20
43.8394004714
 10
21.1338598848
 20
43.5448466448
 10
21.5841719908
 20
43.2516535069
 10
22.0364721719
 20
42.9598950129
 10
22.4908568085
 20
42.6695050743
 10
22.9476436285
 20
42.3802803515
 10
23.4069882532
 20
42.0921260588
 10
23.8687234211
 20
41.8051509413
 10
24.3326848733
 20
41.5194581793
 10
24.7988117699
 20
41.2350845947
 10
25.2671464477
 20
40.9520036869
 10
25.7376770577
 20
40.6702223774
  0
LWPOLYLINE
  5
257
100
AcDbEntity
  8
RACCORDO
100
AcDbPolyline
 62
250
  6
CONTINUOUS
 90
9
 70
0
 10
20.2395699524
 20
44.1353107662
 10
20.209703713
 20
44.1569133034
 10
20.1836293215
 20
44.1799156098
 10
20.1615897151
 20
44.2041033711
 10
20.1437902386
 20
44.2292512279
 10
20.1303967313
 20
44.2551248755
 10
20.1215339815
 20
44.2814832471
 10
20.1172845643
 20
44.3080807594
 10
20.1169670434
 20
44.3240343802
  0
LWPOLYLINE
  5
258
100
AcDbEntity
  8
RACCORDO
100
AcDbPolyline
 62
250
  6
CONTINUOUS
 90
16
 70
0
 10
35.0205239784
 20
35.6009823723
 10
35.0584333277
 20
35.5834519162
 10
35.0990418914
 20
35.5679520123
 10
35.1419713228
 20
35.5546270719
 10
35.1868216519
 20
35.5436012425
 10
35.2331750121
 20
35.5349772507
 10
35.2805995328
 20
35.5288354453
 10
35.3286533637
 20
35.525233049
 10
35.3768887914
 20
35.5242036251
 10
35.4248564103
 20
35.5257567645
 10
35.4721093101
 20
35.5298779968
 10
35.5182072394
 20
35.5365289248
 10
35.5627207078
 20
35.5456475824
 10
35.6052349868
 20
35.5571490118
 10
35.6453539745
 20
35.5709260551
 10
35.6827038856
 20
35.5868503528
  0
LWPOLYLINE
  5
259
100
AcDbEntity
  8
RACCORDO
100
AcDbPolyline
 62
250
  6
CONTINUOUS
 90
7
 70
0
 10
31.5891693424
 20
37.372239978
 10
32.1186579919
 20
37.0914981275
 10
32.6607132636
 20
36.8069496598
 10
33.2211434351
 20
36.5157629409
 10
33.8020567349
 20
36.2171140023
 10
34.4017767118
 20
35.9121336267
 10
35.0205162202
 20
35.600977598
  0
LINE
  5
25A
100
AcDbEntity
  8
RACCORDO
100
AcDbLine
 62
250
  6
CONTINUOUS
 10
30.2013538362
 20
38.1217036612
 11
31.5891693424
 21
37.372239978
  0
LINE
  5
25B
100
AcDbEntity
  8
RACCORDO
100
AcDbLine
 62
250
  6
CONTINUOUS
 10
29.5238288044
 20
38.4945305425
 11
30.2013538362
 21
38.1217036612
  0
LINE
  5
25C
100
AcDbEntity
  8
RACCORDO
100
AcDbLine
 62
250
  6
CONTINUOUS
 10
28.0874770404
 20
39.3012685581
 11
29.5238288044
 21
38.4945305425
  0
LINE
  5
25D
100
AcDbEntity
  8
RACCORDO
100
AcDbLine
 62
250
  6
CONTINUOUS
 10
27.1623505947
 20
39.8327299766
 11
27.5324801668
 21
39.6191490738
  0
LINE
  5
25E
100
AcDbEntity
  8
RACCORDO
100
AcDbLine
 62
250
  6
CONTINUOUS
 10
27.5324801668
 20
39.6191490738
 11
28.0874770404
 21
39.3012685581
  0
LINE
  5
25F
100
AcDbEntity
  8
RACCORDO
100
AcDbLine
 62
250
  6
CONTINUOUS
 10
26.6854395916
 20
40.110491837
 11
27.1623505947
 21
39.8327299766
  0
LINE
  5
260
100
AcDbEntity
  8
RACCORDO
100
AcDbLine
 62
250
  6
CONTINUOUS
 10
25.7376770577
 20
40.6702223774
 11
26.1037840244
 21
40.4530010721
  0
LINE
  5
261
100
AcDbEntity
  8
RACCORDO
100
AcDbLine
 62
250
  6
CONTINUOUS
 10
26.1037840244
 20
40.4530010721
 11
26.6854395916
 21
40.110491837
  0
LWPOLYLINE
  5
262
100
AcDbEntity
  8
RACCORDO
100
AcDbPolyline
 62
250
  6
CONTINUOUS
 90
31
 70
0
 10
21.0450660992
 20
45.5374545299
 10
21.4907485538
 20
45.2402065831
 10
21.9384889966
 20
44.9444525114
 10
22.3882874276
 20
44.6501923149
 10
22.8400120057
 20
44.3575107913
 10
23.293794572
 20
44.0663231428
 10
23.7500306504
 20
43.776374976
 10
24.2089300934
 20
43.4875313235
 10
24.6702830484
 20
43.1999271527
 10
25.1338554816
 20
42.9137129719
 10
25.5995702457
 20
42.6289385852
 10
26.067504488
 20
42.3455541886
 10
26.5376556166
 20
42.0635608783
 10
27.0101094822
 20
41.7829099435
 10
27.4847802341
 20
41.5036500951
 10
27.9614077286
 20
41.2259285623
 10
28.4397120777
 20
40.9499039907
 10
28.9199731694
 20
40.6754177347
 10
29.4027705229
 20
40.4021410871
 10
29.8870749442
 20
40.1306080977
 10
30.3739156274
 20
39.8602847168
 10
30.8669596736
 20
39.5892400874
 10
31.3652445016
 20
39.3178917179
 10
31.8697326926
 20
39.0458221001
 10
32.3869790914
 20
38.7698478525
 10
32.9171514319
 20
38.4897405698
 10
33.4600819803
 20
38.2057286575
 10
34.0218223802
 20
37.9153139505
 10
34.6043898461
 20
37.6176637271
 10
35.2057671635
 20
37.3136107091
 10
35.8259543324
 20
37.0031548965
  0
LWPOLYLINE
  5
263
100
AcDbEntity
  8
RACCORDO
100
AcDbPolyline
 62
250
  6
CONTINUOUS
 90
16
 70
0
 10
35.8259543322
 20
37.0031548964
 10
35.8609716024
 20
36.9784874493
 10
35.8958085745
 20
36.9497549379
 10
35.930084896
 20
36.9172710657
 10
35.9634263357
 20
36.8813904938
 10
35.9954688695
 20
36.8425049688
 10
36.0258626552
 20
36.8010390456
 10
36.0542758514
 20
36.7574454521
 10
36.0803982408
 20
36.7122001459
 10
36.1039446174
 20
36.6657971185
 10
36.1246579003
 20
36.6187430012
 10
36.1423119406
 20
36.5715515341
 10
36.15671399
 20
36.5247379568
 10
36.1677068062
 20
36.4788133831
 10
36.1751703689
 20
36.4342792207
 10
36.1790231902
 20
36.3916216965
  0
LWPOLYLINE
  5
264
100
AcDbEntity
  8
RACCORDO
100
AcDbPolyline
 62
250
  6
CONTINUOUS
 90
9
 70
0
 10
21.0450660991
 20
45.5374545298
 10
21.0063993148
 20
45.555331239
 10
20.9683567887
 20
45.5686782461
 10
20.9313538783
 20
45.5773498427
 10
20.8957945761
 20
45.5812513695
 10
20.8620671344
 20
45.5803402445
 10
20.8305398196
 20
45.5746264434
 10
20.8015568424
 20
45.5641723869
 10
20.7756828631
 20
45.5492669559
  0
LINE
  5
265
100
AcDbEntity
  8
0
100
AcDbLine
 62
7
  6
CONTINUOUS
 10
37.0531560114
 20
37.7117189457
 11
22.150043442
 21
46.3165893634
  0
LWPOLYLINE
  5
266
100
AcDbEntity
  8
RACCORDO
100
AcDbPolyline
 62
250
  6
CONTINUOUS
 90
9
 70
0
 10
36.0543025479
 20
1.0016248131
 10
36.0803996968
 20
1.0166933261
 10
36.103945884
 20
1.0365638815
 10
36.124658921
 20
1.0610078769
 10
36.1423126897
 20
1.0897584042
 10
36.1567144734
 20
1.1225015449
 10
36.1677070581
 20
1.1588797911
 10
36.1751704503
 20
1.1984959461
 10
36.1790231898
 20
1.2409174692
  0
LINE
  5
267
100
AcDbEntity
  8
0
100
AcDbLine
 62
250
  6
CONTINUOUS
 10
37.4062248694
 20
1.8083535726
 11
36.1790231898
 21
1.2409174692
  0
LINE
  5
268
100
AcDbEntity
  8
RACCORDO
100
AcDbLine
 62
7
  6
CONTINUOUS
 10
37.2894952922
 20
1.5727558419
 11
36.0543025479
 21
1.0016248131
  0
LWPOLYLINE
  5
269
100
AcDbEntity
  8
RACCORDO
100
AcDbPolyline
 62
250
  6
CONTINUOUS
 90
22
 70
0
 10
36.1790231898
 20
1.2409174692
 10
36.1421410075
 20
1.2253067761
 10
36.1058827621
 20
1.2127525666
 10
36.0702484536
 20
1.2032548406
 10
36.0350509223
 20
1.1967897298
 10
36.0004773279
 20
1.1933811026
 10
35.9670891493
 20
1.1931005638
 10
35.9349207628
 20
1.1960026554
 10
35.903937792
 20
1.2020328354
 10
35.874598587
 20
1.2110990835
 10
35.8469280095
 20
1.2232481215
 10
35.8209011979
 20
1.2384332274
 10
35.7969019169
 20
1.2564222158
 10
35.7749627515
 20
1.2772557492
 10
35.7550511168
 20
1.300893165
 10
35.737453023
 20
1.3269802889
 10
35.7222014722
 20
1.3555696074
 10
35.7092634623
 20
1.3866086341
 10
35.6988259982
 20
1.4195857357
 10
35.6909514149
 20
1.4543303679
 10
35.6855773773
 20
1.4910130751
 10
35.6827038854
 20
1.5296338573
  0
ELLIPSE
  5
26A
100
AcDbEntity
  8
0
100
AcDbEllipse
 62
7
  6
CONTINUOUS
 10
37.0521862812
 20
2.0138907282
 30
0.0
 11
-0.2506977177
 21
0.4341934385
 31
0.0
 40
0.5757524875
 41
-3.1938073406
 42
-2.3576120761
  0
ELLIPSE
  5
26B
100
AcDbEntity
  8
0
100
AcDbEllipse
 62
7
  6
CONTINUOUS
 10
22.1510131723
 20
45.907234075
 30
0.0
 11
-0.2506977177
 21
0.4341934385
 31
0.0
 40
0.5757524875
 41
-0.7840766935
 42
0.0522146871
  0
ELLIPSE
  5
26C
100
AcDbEntity
  8
0
100
AcDbEllipse
 62
7
  6
CONTINUOUS
 10
37.0521862812
 20
37.3034834775
 30
0.0
 11
-0.2500121799
 21
0.4330056696
 31
0.0
 40
0.5789151826
 41
-2.3548735497
 42
-0.7868162787
  0
ENDSEC
  0
SECTION
  2
OBJECTS
  0
DICTIONARY
  5
C
100
AcDbDictionary
280
0
281
1
  3
ACAD_GROUP
350
D
  3
ACAD_MLINESTYLE
350
17
  3
ACAD_LAYOUT
350
1A
  3
ACAD_PLOTSETTINGS
350
19
  3
ACAD_PLOTSTYLENAME
350
E
  0
DICTIONARY
  5
D
102
{ACAD_REACTORS
330
C
102
}
100
AcDbDictionary
280
0
281
1
  0
ACDBDICTIONARYWDFLT
  5
E
102
{ACAD_REACTORS
330
C
102
}
100
AcDbDictionary
281
1
  3
Normal
350
F
100
AcDbDictionaryWithDefault
340
F
  0
DICTIONARY
  5
17
102
{ACAD_REACTORS
330
C
102
}
100
AcDbDictionary
280
0
281
1
  3
Standard
350
18
  0
DICTIONARY
  5
19
102
{ACAD_REACTORS
330
C
102
}
100
AcDbDictionary
281
1
  0
DICTIONARY
  5
1A
102
{ACAD_REACTORS
330
C
102
}
100
AcDbDictionary
281
1
  3
Model
350
26D
  3
Layout1
350
26E
  0
ACDBPLACEHOLDER
  5
F
102
{ACAD_REACTORS
330
E
102
}
  0
MLINESTYLE
  5
18
102
{ACAD_REACTORS
330
17
102
}
100
AcDbMlineStyle
  2
STANDARD
 70
0
  3

 62
256
 51
90.0
 52
90.0
 71
2
 49
0.5
 62
256
  6
BYLAYER
 49
-0.5
 62
256
  6
BYLAYER
  0
LAYOUT
  5
26D
102
{ACAD_REACTORS
330
1A
102
}
100
AcDbPlotSettings
  1

  2
none_device
  4
ISO_A4_(297.00_x_210.00_MM)
  6

 40
0.0
 41
0.0
 42
0.0
 43
0.0
 44
297.0
 45
210.0
 46
0.0
 47
0.0
 48
0.0
 49
0.0
140
0.0
141
0.0
142
1.0
143
1.0
 70
1024
 72
1
 73
0
 74
0
  7

 75
0
147
1.0
148
0.0
149
0.0
100
AcDbLayout
  1
Model
 70
0
 71
0
 10
0.0
 20
0.0
 11
297.0
 21
210.0
 12
0.0
 22
0.0
 32
0.0
 14
0.0
 24
0.0
 34
0.0
 15
0.0
 25
0.0
 35
0.0
146
0.0
 13
0.0
 23
0.0
 33
0.0
 16
1.0
 26
0.0
 36
0.0
 17
0.0
 27
1.0
 37
0.0
 76
0
330
214
345
0
346
0
  0
LAYOUT
  5
26E
102
{ACAD_REACTORS
330
1A
102
}
100
AcDbPlotSettings
  1

  2
none_device
  4
ISO_A4_(297.00_x_210.00_MM)
  6

 40
0.0
 41
0.0
 42
0.0
 43
0.0
 44
297.0
 45
210.0
 46
0.0
 47
0.0
 48
0.0
 49
0.0
140
0.0
141
0.0
142
1.0
143
1.0
 70
0
 72
1
 73
0
 74
0
  7

 75
0
147
1.0
148
0.0
149
0.0
100
AcDbLayout
  1
Layout1
 70
0
 71
1
 10
0.0
 20
0.0
 11
297.0
 21
210.0
 12
0.0
 22
0.0
 32
0.0
 14
0.0
 24
0.0
 34
0.0
 15
0.0
 25
0.0
 35
0.0
146
0.0
 13
0.0
 23
0.0
 33
0.0
 16
1.0
 26
0.0
 36
0.0
 17
0.0
 27
1.0
 37
0.0
 76
0
330
215
345
0
346
0
  0
ENDSEC
  0
EOF
