  0
SECTION
  2
HEADER
  9
$ACADVER
  1
AC1024
  9
$ACADMAINTVER
 70
     6
  9
$DWGCODEPAGE
  3
ANSI_1252
  9
$INSBASE
 10
0.0
 20
0.0
 30
0.0
  9
$EXTMIN
 10
1.000000000000000E+20
 20
1.000000000000000E+20
 30
1.000000000000000E+20
  9
$EXTMAX
 10
-1.000000000000000E+20
 20
-1.000000000000000E+20
 30
-1.000000000000000E+20
  9
$LIMMIN
 10
0.0
 20
0.0
  9
$LIMMAX
 10
12.0
 20
9.0
  9
$ORTHOMODE
 70
     0
  9
$REGENMODE
 70
     1
  9
$FILLMODE
 70
     1
  9
$QTEXTMODE
 70
     0
  9
$MIRRTEXT
 70
     1
  9
$LTSCALE
 40
1.0
  9
$ATTMODE
 70
     1
  9
$TEXTSIZE
 40
0.2
  9
$TRACEWID
 40
0.05
  9
$TEXTSTYLE
  7
Standard
  9
$CLAYER
  8
0
  9
$CELTYPE
  6
ByLayer
  9
$CECOLOR
 62
   256
  9
$CELTSCALE
 40
1.0
  9
$DISPSILH
 70
     0
  9
$DIMSCALE
 40
1.0
  9
$DIMASZ
 40
0.18
  9
$DIMEXO
 40
0.0625
  9
$DIMDLI
 40
0.38
  9
$DIMRND
 40
0.0
  9
$DIMDLE
 40
0.0
  9
$DIMEXE
 40
0.18
  9
$DIMTP
 40
0.0
  9
$DIMTM
 40
0.0
  9
$DIMTXT
 40
0.18
  9
$DIMCEN
 40
0.09
  9
$DIMTSZ
 40
0.0
  9
$DIMTOL
 70
     0
  9
$DIMLIM
 70
     0
  9
$DIMTIH
 70
     1
  9
$DIMTOH
 70
     1
  9
$DIMSE1
 70
     0
  9
$DIMSE2
 70
     0
  9
$DIMTAD
 70
     0
  9
$DIMZIN
 70
     0
  9
$DIMBLK
  1

  9
$DIMASO
 70
     1
  9
$DIMSHO
 70
     1
  9
$DIMPOST
  1

  9
$DIMAPOST
  1

  9
$DIMALT
 70
     0
  9
$DIMALTD
 70
     2
  9
$DIMALTF
 40
25.4
  9
$DIMLFAC
 40
1.0
  9
$DIMTOFL
 70
     0
  9
$DIMTVP
 40
0.0
  9
$DIMTIX
 70
     0
  9
$DIMSOXD
 70
     0
  9
$DIMSAH
 70
     0
  9
$DIMBLK1
  1

  9
$DIMBLK2
  1

  9
$DIMSTYLE
  2
Standard
  9
$DIMCLRD
 70
     0
  9
$DIMCLRE
 70
     0
  9
$DIMCLRT
 70
     0
  9
$DIMTFAC
 40
1.0
  9
$DIMGAP
 40
0.09
  9
$DIMJUST
 70
     0
  9
$DIMSD1
 70
     0
  9
$DIMSD2
 70
     0
  9
$DIMTOLJ
 70
     1
  9
$DIMTZIN
 70
     0
  9
$DIMALTZ
 70
     0
  9
$DIMALTTZ
 70
     0
  9
$DIMUPT
 70
     0
  9
$DIMDEC
 70
     4
  9
$DIMTDEC
 70
     4
  9
$DIMALTU
 70
     2
  9
$DIMALTTD
 70
     2
  9
$DIMTXSTY
  7
Standard
  9
$DIMAUNIT
 70
     0
  9
$DIMADEC
 70
     0
  9
$DIMALTRND
 40
0.0
  9
$DIMAZIN
 70
     0
  9
$DIMDSEP
 70
    46
  9
$DIMATFIT
 70
     3
  9
$DIMFRAC
 70
     0
  9
$DIMLDRBLK
  1

  9
$DIMLUNIT
 70
     2
  9
$DIMLWD
 70
    -2
  9
$DIMLWE
 70
    -2
  9
$DIMTMOVE
 70
     0
  9
$DIMFXL
 40
1.0
  9
$DIMFXLON
 70
     0
  9
$DIMJOGANG
 40
0.7853981633974483
  9
$DIMTFILL
 70
     0
  9
$DIMTFILLCLR
 70
     0
  9
$DIMARCSYM
 70
     0
  9
$DIMLTYPE
  6

  9
$DIMLTEX1
  6

  9
$DIMLTEX2
  6

  9
$DIMTXTDIRECTION
 70
     0
  9
$LUNITS
 70
     2
  9
$LUPREC
 70
     4
  9
$SKETCHINC
 40
0.1
  9
$FILLETRAD
 40
0.5
  9
$AUNITS
 70
     0
  9
$AUPREC
 70
     0
  9
$MENU
  1
.
  9
$ELEVATION
 40
0.0
  9
$PELEVATION
 40
0.0
  9
$THICKNESS
 40
0.0
  9
$LIMCHECK
 70
     0
  9
$CHAMFERA
 40
0.5
  9
$CHAMFERB
 40
0.5
  9
$CHAMFERC
 40
1.0
  9
$CHAMFERD
 40
0.0
  9
$SKPOLY
 70
     0
  9
$TDCREATE
 40
2458323.491252986
  9
$TDUCREATE
 40
2458323.407919653
  9
$TDUPDATE
 40
2458323.49125316
  9
$TDUUPDATE
 40
2458323.407919826
  9
$TDINDWG
 40
0.0000000116
  9
$TDUSRTIMER
 40
0.0000000116
  9
$USRTIMER
 70
     1
  9
$ANGBASE
 50
0.0
  9
$ANGDIR
 70
     0
  9
$PDMODE
 70
     0
  9
$PDSIZE
 40
0.0
  9
$PLINEWID
 40
0.0
  9
$SPLFRAME
 70
     0
  9
$SPLINETYPE
 70
     6
  9
$SPLINESEGS
 70
     8
  9
$HANDSEED
  5
4D6
  9
$SURFTAB1
 70
     6
  9
$SURFTAB2
 70
     6
  9
$SURFTYPE
 70
     6
  9
$SURFU
 70
     6
  9
$SURFV
 70
     6
  9
$UCSBASE
  2

  9
$UCSNAME
  2

  9
$UCSORG
 10
0.0
 20
0.0
 30
0.0
  9
$UCSXDIR
 10
1.0
 20
0.0
 30
0.0
  9
$UCSYDIR
 10
0.0
 20
1.0
 30
0.0
  9
$UCSORTHOREF
  2

  9
$UCSORTHOVIEW
 70
     0
  9
$UCSORGTOP
 10
0.0
 20
0.0
 30
0.0
  9
$UCSORGBOTTOM
 10
0.0
 20
0.0
 30
0.0
  9
$UCSORGLEFT
 10
0.0
 20
0.0
 30
0.0
  9
$UCSORGRIGHT
 10
0.0
 20
0.0
 30
0.0
  9
$UCSORGFRONT
 10
0.0
 20
0.0
 30
0.0
  9
$UCSORGBACK
 10
0.0
 20
0.0
 30
0.0
  9
$PUCSBASE
  2

  9
$PUCSNAME
  2

  9
$PUCSORG
 10
0.0
 20
0.0
 30
0.0
  9
$PUCSXDIR
 10
1.0
 20
0.0
 30
0.0
  9
$PUCSYDIR
 10
0.0
 20
1.0
 30
0.0
  9
$PUCSORTHOREF
  2

  9
$PUCSORTHOVIEW
 70
     0
  9
$PUCSORGTOP
 10
0.0
 20
0.0
 30
0.0
  9
$PUCSORGBOTTOM
 10
0.0
 20
0.0
 30
0.0
  9
$PUCSORGLEFT
 10
0.0
 20
0.0
 30
0.0
  9
$PUCSORGRIGHT
 10
0.0
 20
0.0
 30
0.0
  9
$PUCSORGFRONT
 10
0.0
 20
0.0
 30
0.0
  9
$PUCSORGBACK
 10
0.0
 20
0.0
 30
0.0
  9
$USERI1
 70
     0
  9
$USERI2
 70
     0
  9
$USERI3
 70
     0
  9
$USERI4
 70
     0
  9
$USERI5
 70
     0
  9
$USERR1
 40
0.0
  9
$USERR2
 40
0.0
  9
$USERR3
 40
0.0
  9
$USERR4
 40
0.0
  9
$USERR5
 40
0.0
  9
$WORLDVIEW
 70
     1
  9
$SHADEDGE
 70
     3
  9
$SHADEDIF
 70
    70
  9
$TILEMODE
 70
     1
  9
$MAXACTVP
 70
    64
  9
$PINSBASE
 10
0.0
 20
0.0
 30
0.0
  9
$PLIMCHECK
 70
     0
  9
$PEXTMIN
 10
1.000000000000000E+20
 20
1.000000000000000E+20
 30
1.000000000000000E+20
  9
$PEXTMAX
 10
-1.000000000000000E+20
 20
-1.000000000000000E+20
 30
-1.000000000000000E+20
  9
$PLIMMIN
 10
0.0
 20
0.0
  9
$PLIMMAX
 10
12.0
 20
9.0
  9
$UNITMODE
 70
     0
  9
$VISRETAIN
 70
     1
  9
$PLINEGEN
 70
     0
  9
$PSLTSCALE
 70
     1
  9
$TREEDEPTH
 70
  3020
  9
$CMLSTYLE
  2
Standard
  9
$CMLJUST
 70
     0
  9
$CMLSCALE
 40
1.0
  9
$PROXYGRAPHICS
 70
     1
  9
$MEASUREMENT
 70
     0
  9
$CELWEIGHT
370
    -1
  9
$ENDCAPS
280
     0
  9
$JOINSTYLE
280
     0
  9
$LWDISPLAY
290
     1
  9
$INSUNITS
 70
     1
  9
$HYPERLINKBASE
  1

  9
$STYLESHEET
  1

  9
$XEDIT
290
     1
  9
$CEPSNTYPE
380
     0
  9
$PSTYLEMODE
290
     1
  9
$FINGERPRINTGUID
  2
{3F2172F6-A416-4756-83FF-15B2A671BA7B}
  9
$VERSIONGUID
  2
{FAEB1C32-E019-11D5-929B-00C0DF256EC4}
  9
$EXTNAMES
290
     1
  9
$PSVPSCALE
 40
0.0
  9
$OLESTARTUP
290
     0
  9
$SORTENTS
280
   127
  9
$INDEXCTL
280
     0
  9
$HIDETEXT
280
     1
  9
$XCLIPFRAME
280
     2
  9
$HALOGAP
280
     0
  9
$OBSCOLOR
 70
   257
  9
$OBSLTYPE
280
     0
  9
$INTERSECTIONDISPLAY
280
     0
  9
$INTERSECTIONCOLOR
 70
   257
  9
$DIMASSOC
280
     2
  9
$PROJECTNAME
  1

  9
$CAMERADISPLAY
290
     0
  9
$LENSLENGTH
 40
50.0
  9
$CAMERAHEIGHT
 40
0.0
  9
$STEPSPERSEC
 40
2.0
  9
$STEPSIZE
 40
6.0
  9
$3DDWFPREC
 40
2.0
  9
$PSOLWIDTH
 40
0.25
  9
$PSOLHEIGHT
 40
4.0
  9
$LOFTANG1
 40
1.570796326794897
  9
$LOFTANG2
 40
1.570796326794897
  9
$LOFTMAG1
 40
0.0
  9
$LOFTMAG2
 40
0.0
  9
$LOFTPARAM
 70
     7
  9
$LOFTNORMALS
280
     1
  9
$LATITUDE
 40
37.795
  9
$LONGITUDE
 40
-122.394
  9
$NORTHDIRECTION
 40
0.0
  9
$TIMEZONE
 70
 -8000
  9
$LIGHTGLYPHDISPLAY
280
     1
  9
$TILEMODELIGHTSYNCH
280
     1
  9
$CMATERIAL
347
3C
  9
$SOLIDHIST
280
     1
  9
$SHOWHIST
280
     1
  9
$DWFFRAME
280
     2
  9
$DGNFRAME
280
     2
  9
$REALWORLDSCALE
290
     1
  9
$INTERFERECOLOR
 62
   256
  9
$CSHADOW
280
     0
  9
$SHADOWPLANELOCATION
 40
0.0
  0
ENDSEC
  0
SECTION
  2
CLASSES
  0
CLASS
  1
ACDBDICTIONARYWDFLT
  2
AcDbDictionaryWithDefault
  3
ObjectDBX Classes
 90
        0
 91
        4
280
     0
281
     0
  0
CLASS
  1
VISUALSTYLE
  2
AcDbVisualStyle
  3
ObjectDBX Classes
 90
     4095
 91
        4
280
     0
281
     0
  0
CLASS
  1
MATERIAL
  2
AcDbMaterial
  3
ObjectDBX Classes
 90
     1153
 91
        4
280
     0
281
     0
  0
CLASS
  1
SUN
  2
AcDbSun
  3
SCENEOE
 90
     1024
 91
        4
280
     0
281
     0
  0
ENDSEC
  0
SECTION
  2
TABLES
  0
TABLE
  2
VPORT
  5
8
330
0
100
AcDbSymbolTable
 70
     1
  0
VPORT
  5
29
330
8
100
AcDbSymbolTableRecord
100
AcDbViewportTableRecord
  2
*Active
 70
     0
 10
0.0
 20
0.0
 11
1.0
 21
1.0
 12
0.0
 22
0.0
 13
0.0
 23
0.0
 14
0.5
 24
0.5
 15
0.5
 25
0.5
 16
0.0
 26
0.0
 36
1.0
 17
105.0007777515277
 27
148.5000416295417
 37
0.0
 40
297.0000832590835
 41
0.7070757462376325
 42
50.0
 43
0.0
 44
0.0
 50
0.0
 51
0.0
 71
     0
 72
   100
 73
     1
 74
     3
 75
     0
 76
     0
 77
     0
 78
     0
281
     0
 65
     1
110
0.0
120
0.0
130
0.0
111
1.0
121
0.0
131
0.0
112
0.0
122
1.0
132
0.0
 79
     0
146
0.0
 60
     3
 61
     5
292
     1
282
     1
141
0.0
142
0.0
 63
   250
361
3F
  0
ENDTAB
  0
TABLE
  2
LTYPE
  5
5
330
0
100
AcDbSymbolTable
 70
     1
  0
LTYPE
  5
14
330
5
100
AcDbSymbolTableRecord
100
AcDbLinetypeTableRecord
  2
ByBlock
 70
     0
  3

 72
    65
 73
     0
 40
0.0
  0
LTYPE
  5
15
330
5
100
AcDbSymbolTableRecord
100
AcDbLinetypeTableRecord
  2
ByLayer
 70
     0
  3

 72
    65
 73
     0
 40
0.0
  0
LTYPE
  5
16
330
5
100
AcDbSymbolTableRecord
100
AcDbLinetypeTableRecord
  2
Continuous
 70
     0
  3
Solid line
 72
    65
 73
     0
 40
0.0
  0
ENDTAB
  0
TABLE
  2
LAYER
  5
2
330
0
100
AcDbSymbolTable
 70
     3
  0
LAYER
  5
10
330
2
100
AcDbSymbolTableRecord
100
AcDbLayerTableRecord
  2
0
 70
     0
 62
     7
  6
Continuous
370
    -3
390
F
347
3E
  0
LAYER
  5
40
330
2
100
AcDbSymbolTableRecord
100
AcDbLayerTableRecord
  2
RACCORDO
 70
     0
 62
     7
  6
Continuous
370
    -3
390
F
347
3E
  0
LAYER
  5
41C
330
2
100
AcDbSymbolTableRecord
100
AcDbLayerTableRecord
  2
DRAFT
 70
     0
 62
     7
  6
Continuous
370
    -3
390
F
347
3E
  0
ENDTAB
  0
TABLE
  2
STYLE
  5
3
330
0
100
AcDbSymbolTable
 70
     1
  0
STYLE
  5
11
330
3
100
AcDbSymbolTableRecord
100
AcDbTextStyleTableRecord
  2
Standard
 70
     0
 40
0.0
 41
1.0
 50
0.0
 71
     0
 42
0.2
  3
txt
  4

  0
ENDTAB
  0
TABLE
  2
VIEW
  5
6
330
0
100
AcDbSymbolTable
 70
     0
  0
ENDTAB
  0
TABLE
  2
UCS
  5
7
330
0
100
AcDbSymbolTable
 70
     0
  0
ENDTAB
  0
TABLE
  2
APPID
  5
9
330
0
100
AcDbSymbolTable
 70
     1
  0
APPID
  5
12
330
9
100
AcDbSymbolTableRecord
100
AcDbRegAppTableRecord
  2
ACAD
 70
     0
  0
ENDTAB
  0
TABLE
  2
DIMSTYLE
  5
A
330
0
100
AcDbSymbolTable
 70
     1
100
AcDbDimStyleTable
  0
DIMSTYLE
105
27
330
A
100
AcDbSymbolTableRecord
100
AcDbDimStyleTableRecord
  2
Standard
 70
     0
178
     0
340
11
  0
ENDTAB
  0
TABLE
  2
BLOCK_RECORD
  5
1
330
0
100
AcDbSymbolTable
 70
    70
  0
BLOCK_RECORD
  5
1F
330
1
100
AcDbSymbolTableRecord
100
AcDbBlockTableRecord
  2
*Model_Space
340
22
 70
     0
280
     1
281
     0
  0
BLOCK_RECORD
  5
1B
330
1
100
AcDbSymbolTableRecord
100
AcDbBlockTableRecord
  2
*Paper_Space
340
1E
 70
     0
280
     1
281
     0
  0
BLOCK_RECORD
  5
23
330
1
100
AcDbSymbolTableRecord
100
AcDbBlockTableRecord
  2
*Paper_Space0
340
26
 70
     0
280
     1
281
     0
  0
BLOCK_RECORD
  5
41
330
1
100
AcDbSymbolTableRecord
100
AcDbBlockTableRecord
  2
block 2
340
0
102
{BLKREFS
331
42
102
}
 70
     0
280
     1
281
     0
  0
BLOCK_RECORD
  5
59
330
1
100
AcDbSymbolTableRecord
100
AcDbBlockTableRecord
  2
block 3
340
0
102
{BLKREFS
331
5A
102
}
 70
     0
280
     1
281
     0
  0
BLOCK_RECORD
  5
61
330
1
100
AcDbSymbolTableRecord
100
AcDbBlockTableRecord
  2
block 4
340
0
102
{BLKREFS
331
62
102
}
 70
     0
280
     1
281
     0
  0
BLOCK_RECORD
  5
69
330
1
100
AcDbSymbolTableRecord
100
AcDbBlockTableRecord
  2
block 5
340
0
102
{BLKREFS
331
6A
102
}
 70
     0
280
     1
281
     0
  0
BLOCK_RECORD
  5
85
330
1
100
AcDbSymbolTableRecord
100
AcDbBlockTableRecord
  2
block 6
340
0
102
{BLKREFS
331
86
102
}
 70
     0
280
     1
281
     0
  0
BLOCK_RECORD
  5
9B
330
1
100
AcDbSymbolTableRecord
100
AcDbBlockTableRecord
  2
block 7
340
0
102
{BLKREFS
331
9C
102
}
 70
     0
280
     1
281
     0
  0
BLOCK_RECORD
  5
AD
330
1
100
AcDbSymbolTableRecord
100
AcDbBlockTableRecord
  2
block 8
340
0
102
{BLKREFS
331
AE
102
}
 70
     0
280
     1
281
     0
  0
BLOCK_RECORD
  5
B5
330
1
100
AcDbSymbolTableRecord
100
AcDbBlockTableRecord
  2
block 9
340
0
102
{BLKREFS
331
B6
102
}
 70
     0
280
     1
281
     0
  0
BLOCK_RECORD
  5
C9
330
1
100
AcDbSymbolTableRecord
100
AcDbBlockTableRecord
  2
block 10
340
0
102
{BLKREFS
331
CA
102
}
 70
     0
280
     1
281
     0
  0
BLOCK_RECORD
  5
D9
330
1
100
AcDbSymbolTableRecord
100
AcDbBlockTableRecord
  2
block 11
340
0
102
{BLKREFS
331
DA
102
}
 70
     0
280
     1
281
     0
  0
BLOCK_RECORD
  5
FE
330
1
100
AcDbSymbolTableRecord
100
AcDbBlockTableRecord
  2
block 12
340
0
102
{BLKREFS
331
FF
102
}
 70
     0
280
     1
281
     0
  0
BLOCK_RECORD
  5
10F
330
1
100
AcDbSymbolTableRecord
100
AcDbBlockTableRecord
  2
block 13
340
0
102
{BLKREFS
331
110
102
}
 70
     0
280
     1
281
     0
  0
BLOCK_RECORD
  5
122
330
1
100
AcDbSymbolTableRecord
100
AcDbBlockTableRecord
  2
block 14
340
0
102
{BLKREFS
331
123
102
}
 70
     0
280
     1
281
     0
  0
BLOCK_RECORD
  5
136
330
1
100
AcDbSymbolTableRecord
100
AcDbBlockTableRecord
  2
block 15
340
0
102
{BLKREFS
331
137
102
}
 70
     0
280
     1
281
     0
  0
BLOCK_RECORD
  5
146
330
1
100
AcDbSymbolTableRecord
100
AcDbBlockTableRecord
  2
block 16
340
0
102
{BLKREFS
331
147
102
}
 70
     0
280
     1
281
     0
  0
BLOCK_RECORD
  5
156
330
1
100
AcDbSymbolTableRecord
100
AcDbBlockTableRecord
  2
block 17
340
0
102
{BLKREFS
331
157
102
}
 70
     0
280
     1
281
     0
  0
BLOCK_RECORD
  5
166
330
1
100
AcDbSymbolTableRecord
100
AcDbBlockTableRecord
  2
block 18
340
0
102
{BLKREFS
331
167
102
}
 70
     0
280
     1
281
     0
  0
BLOCK_RECORD
  5
176
330
1
100
AcDbSymbolTableRecord
100
AcDbBlockTableRecord
  2
block 19
340
0
102
{BLKREFS
331
177
102
}
 70
     0
280
     1
281
     0
  0
BLOCK_RECORD
  5
192
330
1
100
AcDbSymbolTableRecord
100
AcDbBlockTableRecord
  2
block 20
340
0
102
{BLKREFS
331
193
102
}
 70
     0
280
     1
281
     0
  0
BLOCK_RECORD
  5
1AE
330
1
100
AcDbSymbolTableRecord
100
AcDbBlockTableRecord
  2
block 21
340
0
102
{BLKREFS
331
1AF
102
}
 70
     0
280
     1
281
     0
  0
BLOCK_RECORD
  5
1BF
330
1
100
AcDbSymbolTableRecord
100
AcDbBlockTableRecord
  2
block 22
340
0
102
{BLKREFS
331
1C0
102
}
 70
     0
280
     1
281
     0
  0
BLOCK_RECORD
  5
1D5
330
1
100
AcDbSymbolTableRecord
100
AcDbBlockTableRecord
  2
block 23
340
0
102
{BLKREFS
331
1D6
102
}
 70
     0
280
     1
281
     0
  0
BLOCK_RECORD
  5
1FA
330
1
100
AcDbSymbolTableRecord
100
AcDbBlockTableRecord
  2
block 24
340
0
102
{BLKREFS
331
1FB
102
}
 70
     0
280
     1
281
     0
  0
BLOCK_RECORD
  5
21F
330
1
100
AcDbSymbolTableRecord
100
AcDbBlockTableRecord
  2
block 25
340
0
102
{BLKREFS
331
220
102
}
 70
     0
280
     1
281
     0
  0
BLOCK_RECORD
  5
22F
330
1
100
AcDbSymbolTableRecord
100
AcDbBlockTableRecord
  2
block 26
340
0
102
{BLKREFS
331
230
102
}
 70
     0
280
     1
281
     0
  0
BLOCK_RECORD
  5
245
330
1
100
AcDbSymbolTableRecord
100
AcDbBlockTableRecord
  2
block 27
340
0
102
{BLKREFS
331
246
102
}
 70
     0
280
     1
281
     0
  0
BLOCK_RECORD
  5
254
330
1
100
AcDbSymbolTableRecord
100
AcDbBlockTableRecord
  2
block 28
340
0
102
{BLKREFS
331
255
102
}
 70
     0
280
     1
281
     0
  0
BLOCK_RECORD
  5
25C
330
1
100
AcDbSymbolTableRecord
100
AcDbBlockTableRecord
  2
block 29
340
0
102
{BLKREFS
331
25D
102
}
 70
     0
280
     1
281
     0
  0
BLOCK_RECORD
  5
278
330
1
100
AcDbSymbolTableRecord
100
AcDbBlockTableRecord
  2
block 30
340
0
102
{BLKREFS
331
279
102
}
 70
     0
280
     1
281
     0
  0
BLOCK_RECORD
  5
280
330
1
100
AcDbSymbolTableRecord
100
AcDbBlockTableRecord
  2
block 31
340
0
102
{BLKREFS
331
281
102
}
 70
     0
280
     1
281
     0
  0
BLOCK_RECORD
  5
288
330
1
100
AcDbSymbolTableRecord
100
AcDbBlockTableRecord
  2
block 32
340
0
102
{BLKREFS
331
289
102
}
 70
     0
280
     1
281
     0
  0
BLOCK_RECORD
  5
290
330
1
100
AcDbSymbolTableRecord
100
AcDbBlockTableRecord
  2
block 33
340
0
102
{BLKREFS
331
291
102
}
 70
     0
280
     1
281
     0
  0
BLOCK_RECORD
  5
298
330
1
100
AcDbSymbolTableRecord
100
AcDbBlockTableRecord
  2
block 34
340
0
102
{BLKREFS
331
299
102
}
 70
     0
280
     1
281
     0
  0
BLOCK_RECORD
  5
2A0
330
1
100
AcDbSymbolTableRecord
100
AcDbBlockTableRecord
  2
block 35
340
0
102
{BLKREFS
331
2A1
102
}
 70
     0
280
     1
281
     0
  0
BLOCK_RECORD
  5
2D7
330
1
100
AcDbSymbolTableRecord
100
AcDbBlockTableRecord
  2
block 36
340
0
102
{BLKREFS
331
2D8
102
}
 70
     0
280
     1
281
     0
  0
BLOCK_RECORD
  5
2EC
330
1
100
AcDbSymbolTableRecord
100
AcDbBlockTableRecord
  2
block 37
340
0
102
{BLKREFS
331
2ED
102
}
 70
     0
280
     1
281
     0
  0
BLOCK_RECORD
  5
2F5
330
1
100
AcDbSymbolTableRecord
100
AcDbBlockTableRecord
  2
block 38
340
0
102
{BLKREFS
331
2F6
102
}
 70
     0
280
     1
281
     0
  0
BLOCK_RECORD
  5
32F
330
1
100
AcDbSymbolTableRecord
100
AcDbBlockTableRecord
  2
block 39
340
0
102
{BLKREFS
331
330
102
}
 70
     0
280
     1
281
     0
  0
BLOCK_RECORD
  5
339
330
1
100
AcDbSymbolTableRecord
100
AcDbBlockTableRecord
  2
block 40
340
0
102
{BLKREFS
331
33A
102
}
 70
     0
280
     1
281
     0
  0
BLOCK_RECORD
  5
341
330
1
100
AcDbSymbolTableRecord
100
AcDbBlockTableRecord
  2
block 41
340
0
102
{BLKREFS
331
342
102
}
 70
     0
280
     1
281
     0
  0
BLOCK_RECORD
  5
34A
330
1
100
AcDbSymbolTableRecord
100
AcDbBlockTableRecord
  2
block 42
340
0
102
{BLKREFS
331
34B
102
}
 70
     0
280
     1
281
     0
  0
BLOCK_RECORD
  5
352
330
1
100
AcDbSymbolTableRecord
100
AcDbBlockTableRecord
  2
block 43
340
0
102
{BLKREFS
331
353
102
}
 70
     0
280
     1
281
     0
  0
BLOCK_RECORD
  5
389
330
1
100
AcDbSymbolTableRecord
100
AcDbBlockTableRecord
  2
block 44
340
0
102
{BLKREFS
331
38A
102
}
 70
     0
280
     1
281
     0
  0
BLOCK_RECORD
  5
391
330
1
100
AcDbSymbolTableRecord
100
AcDbBlockTableRecord
  2
block 45
340
0
102
{BLKREFS
331
392
102
}
 70
     0
280
     1
281
     0
  0
BLOCK_RECORD
  5
399
330
1
100
AcDbSymbolTableRecord
100
AcDbBlockTableRecord
  2
block 46
340
0
102
{BLKREFS
331
39A
102
}
 70
     0
280
     1
281
     0
  0
BLOCK_RECORD
  5
3D0
330
1
100
AcDbSymbolTableRecord
100
AcDbBlockTableRecord
  2
block 47
340
0
102
{BLKREFS
331
3D1
102
}
 70
     0
280
     1
281
     0
  0
BLOCK_RECORD
  5
3DB
330
1
100
AcDbSymbolTableRecord
100
AcDbBlockTableRecord
  2
block 48
340
0
102
{BLKREFS
331
3DC
102
}
 70
     0
280
     1
281
     0
  0
BLOCK_RECORD
  5
3ED
330
1
100
AcDbSymbolTableRecord
100
AcDbBlockTableRecord
  2
block 49
340
0
102
{BLKREFS
331
3EE
102
}
 70
     0
280
     1
281
     0
  0
BLOCK_RECORD
  5
3F5
330
1
100
AcDbSymbolTableRecord
100
AcDbBlockTableRecord
  2
block 50
340
0
102
{BLKREFS
331
3F6
102
}
 70
     0
280
     1
281
     0
  0
BLOCK_RECORD
  5
3FD
330
1
100
AcDbSymbolTableRecord
100
AcDbBlockTableRecord
  2
block 51
340
0
102
{BLKREFS
331
3FE
102
}
 70
     0
280
     1
281
     0
  0
BLOCK_RECORD
  5
405
330
1
100
AcDbSymbolTableRecord
100
AcDbBlockTableRecord
  2
block 52
340
0
102
{BLKREFS
331
406
102
}
 70
     0
280
     1
281
     0
  0
BLOCK_RECORD
  5
40D
330
1
100
AcDbSymbolTableRecord
100
AcDbBlockTableRecord
  2
block 53
340
0
102
{BLKREFS
331
40E
102
}
 70
     0
280
     1
281
     0
  0
BLOCK_RECORD
  5
412
330
1
100
AcDbSymbolTableRecord
100
AcDbBlockTableRecord
  2
block 54
340
0
102
{BLKREFS
331
413
102
}
 70
     0
280
     1
281
     0
  0
BLOCK_RECORD
  5
417
330
1
100
AcDbSymbolTableRecord
100
AcDbBlockTableRecord
  2
block 55
340
0
102
{BLKREFS
331
418
102
}
 70
     0
280
     1
281
     0
  0
BLOCK_RECORD
  5
41D
330
1
100
AcDbSymbolTableRecord
100
AcDbBlockTableRecord
  2
block 56
340
0
102
{BLKREFS
331
41E
102
}
 70
     0
280
     1
281
     0
  0
BLOCK_RECORD
  5
425
330
1
100
AcDbSymbolTableRecord
100
AcDbBlockTableRecord
  2
block 57
340
0
102
{BLKREFS
331
426
102
}
 70
     0
280
     1
281
     0
  0
BLOCK_RECORD
  5
42D
330
1
100
AcDbSymbolTableRecord
100
AcDbBlockTableRecord
  2
block 58
340
0
102
{BLKREFS
331
42E
102
}
 70
     0
280
     1
281
     0
  0
BLOCK_RECORD
  5
435
330
1
100
AcDbSymbolTableRecord
100
AcDbBlockTableRecord
  2
block 59
340
0
102
{BLKREFS
331
436
102
}
 70
     0
280
     1
281
     0
  0
BLOCK_RECORD
  5
43D
330
1
100
AcDbSymbolTableRecord
100
AcDbBlockTableRecord
  2
block 60
340
0
102
{BLKREFS
331
43E
102
}
 70
     0
280
     1
281
     0
  0
BLOCK_RECORD
  5
445
330
1
100
AcDbSymbolTableRecord
100
AcDbBlockTableRecord
  2
block 61
340
0
102
{BLKREFS
331
446
102
}
 70
     0
280
     1
281
     0
  0
BLOCK_RECORD
  5
44D
330
1
100
AcDbSymbolTableRecord
100
AcDbBlockTableRecord
  2
block 62
340
0
102
{BLKREFS
331
44E
102
}
 70
     0
280
     1
281
     0
  0
BLOCK_RECORD
  5
471
330
1
100
AcDbSymbolTableRecord
100
AcDbBlockTableRecord
  2
block 63
340
0
102
{BLKREFS
331
472
102
}
 70
     0
280
     1
281
     0
  0
BLOCK_RECORD
  5
47A
330
1
100
AcDbSymbolTableRecord
100
AcDbBlockTableRecord
  2
block 64
340
0
102
{BLKREFS
331
47B
102
}
 70
     0
280
     1
281
     0
  0
BLOCK_RECORD
  5
482
330
1
100
AcDbSymbolTableRecord
100
AcDbBlockTableRecord
  2
block 65
340
0
102
{BLKREFS
331
483
102
}
 70
     0
280
     1
281
     0
  0
BLOCK_RECORD
  5
48A
330
1
100
AcDbSymbolTableRecord
100
AcDbBlockTableRecord
  2
block 66
340
0
102
{BLKREFS
331
48B
102
}
 70
     0
280
     1
281
     0
  0
BLOCK_RECORD
  5
493
330
1
100
AcDbSymbolTableRecord
100
AcDbBlockTableRecord
  2
block 67
340
0
102
{BLKREFS
331
494
102
}
 70
     0
280
     1
281
     0
  0
BLOCK_RECORD
  5
4A3
330
1
100
AcDbSymbolTableRecord
100
AcDbBlockTableRecord
  2
block 68
340
0
102
{BLKREFS
331
4A4
102
}
 70
     0
280
     1
281
     0
  0
BLOCK_RECORD
  5
4AB
330
1
100
AcDbSymbolTableRecord
100
AcDbBlockTableRecord
  2
block 69
340
0
102
{BLKREFS
331
4AC
102
}
 70
     0
280
     1
281
     0
  0
BLOCK_RECORD
  5
4B3
330
1
100
AcDbSymbolTableRecord
100
AcDbBlockTableRecord
  2
block 70
340
0
102
{BLKREFS
331
4B4
102
}
 70
     0
280
     1
281
     0
  0
ENDTAB
  0
ENDSEC
  0
SECTION
  2
BLOCKS
  0
BLOCK
  5
20
330
1F
100
AcDbEntity
  8
0
100
AcDbBlockBegin
  2
*Model_Space
 70
     0
 10
0.0
 20
0.0
 30
0.0
  3
*Model_Space
  1

  0
ENDBLK
  5
21
330
1F
100
AcDbEntity
  8
0
100
AcDbBlockEnd
  0
BLOCK
  5
1C
330
1B
100
AcDbEntity
 67
     1
  8
0
100
AcDbBlockBegin
  2
*Paper_Space
 70
     0
 10
0.0
 20
0.0
 30
0.0
  3
*Paper_Space
  1

  0
ENDBLK
  5
1D
330
1B
100
AcDbEntity
 67
     1
  8
0
100
AcDbBlockEnd
  0
BLOCK
  5
24
330
23
100
AcDbEntity
  8
0
100
AcDbBlockBegin
  2
*Paper_Space0
 70
     0
 10
0.0
 20
0.0
 30
0.0
  3
*Paper_Space0
  1

  0
ENDBLK
  5
25
330
23
100
AcDbEntity
  8
0
100
AcDbBlockEnd
  0
BLOCK
  5
43
330
41
100
AcDbEntity
  8
0
100
AcDbBlockBegin
  2
block 2
 70
     0
 10
0.0
 20
0.0
 30
0.0
  3
block 2
  1

  0
POLYLINE
  5
45
330
41
100
AcDbEntity
  8
RACCORDO
 62
     7
420
 16777215
370
    25
100
AcDb2dPolyline
 66
     1
 10
0.0
 20
0.0
 30
0.0
  0
VERTEX
  5
46
330
45
100
AcDbEntity
  8
RACCORDO
 62
     7
420
 16777215
370
    25
100
AcDbVertex
100
AcDb2dVertex
 10
96.01245570235116
 20
169.6526953580727
 30
0.0
  0
VERTEX
  5
47
330
45
100
AcDbEntity
  8
RACCORDO
 62
     7
420
 16777215
370
    25
100
AcDbVertex
100
AcDb2dVertex
 10
95.95933483235127
 20
169.5930503795728
 30
0.0
  0
VERTEX
  5
48
330
45
100
AcDbEntity
  8
RACCORDO
 62
     7
420
 16777215
370
    25
100
AcDbVertex
100
AcDb2dVertex
 10
95.91012331335128
 20
169.5303133094726
 30
0.0
  0
VERTEX
  5
49
330
45
100
AcDbEntity
  8
RACCORDO
 62
     7
420
 16777215
370
    25
100
AcDbVertex
100
AcDb2dVertex
 10
95.86458770785131
 20
169.4650302714727
 30
0.0
  0
VERTEX
  5
4A
330
45
100
AcDbEntity
  8
RACCORDO
 62
     7
420
 16777215
370
    25
100
AcDbVertex
100
AcDb2dVertex
 10
95.82231001855119
 20
169.3973494246728
 30
0.0
  0
VERTEX
  5
4B
330
45
100
AcDbEntity
  8
RACCORDO
 62
     7
420
 16777215
370
    25
100
AcDbVertex
100
AcDb2dVertex
 10
95.78296458095146
 20
169.3272787651726
 30
0.0
  0
VERTEX
  5
4C
330
45
100
AcDbEntity
  8
RACCORDO
 62
     7
420
 16777215
370
    25
100
AcDbVertex
100
AcDb2dVertex
 10
95.7465091691512
 20
169.2551772098726
 30
0.0
  0
VERTEX
  5
4D
330
45
100
AcDbEntity
  8
RACCORDO
 62
     7
420
 16777215
370
    25
100
AcDbVertex
100
AcDb2dVertex
 10
95.71288396595104
 20
169.1812728823727
 30
0.0
  0
VERTEX
  5
4E
330
45
100
AcDbEntity
  8
RACCORDO
 62
     7
420
 16777215
370
    25
100
AcDbVertex
100
AcDb2dVertex
 10
95.68202309565122
 20
169.1056414311726
 30
0.0
  0
VERTEX
  5
4F
330
45
100
AcDbEntity
  8
RACCORDO
 62
     7
420
 16777215
370
    25
100
AcDbVertex
100
AcDb2dVertex
 10
95.6539810437512
 20
169.0285816478726
 30
0.0
  0
VERTEX
  5
50
330
45
100
AcDbEntity
  8
RACCORDO
 62
     7
420
 16777215
370
    25
100
AcDbVertex
100
AcDb2dVertex
 10
95.62883555165101
 20
168.9503545154728
 30
0.0
  0
VERTEX
  5
51
330
45
100
AcDbEntity
  8
RACCORDO
 62
     7
420
 16777215
370
    25
100
AcDbVertex
100
AcDb2dVertex
 10
95.60663562075119
 20
168.8710779273726
 30
0.0
  0
VERTEX
  5
52
330
45
100
AcDbEntity
  8
RACCORDO
 62
     7
420
 16777215
370
    25
100
AcDbVertex
100
AcDb2dVertex
 10
95.5875044899513
 20
168.7910042645726
 30
0.0
  0
VERTEX
  5
53
330
45
100
AcDbEntity
  8
RACCORDO
 62
     7
420
 16777215
370
    25
100
AcDbVertex
100
AcDb2dVertex
 10
95.57160926245128
 20
168.7104282870728
 30
0.0
  0
VERTEX
  5
54
330
45
100
AcDbEntity
  8
RACCORDO
 62
     7
420
 16777215
370
    25
100
AcDbVertex
100
AcDb2dVertex
 10
95.55908564035133
 20
168.6293957663729
 30
0.0
  0
VERTEX
  5
55
330
45
100
AcDbEntity
  8
RACCORDO
 62
     7
420
 16777215
370
    25
100
AcDbVertex
100
AcDb2dVertex
 10
95.55015466205126
 20
168.5479863686728
 30
0.0
  0
VERTEX
  5
56
330
45
100
AcDbEntity
  8
RACCORDO
 62
     7
420
 16777215
370
    25
100
AcDbVertex
100
AcDb2dVertex
 10
95.5450997840511
 20
168.4665243678729
 30
0.0
  0
VERTEX
  5
57
330
45
100
AcDbEntity
  8
RACCORDO
 62
     7
420
 16777215
370
    25
100
AcDbVertex
100
AcDb2dVertex
 10
95.54450549485134
 20
168.4473413394726
 30
0.0
  0
SEQEND
  5
58
330
45
100
AcDbEntity
  8
RACCORDO
 62
     7
420
 16777215
370
    25
  0
ENDBLK
  5
44
330
41
100
AcDbEntity
  8
0
100
AcDbBlockEnd
  0
BLOCK
  5
5B
330
59
100
AcDbEntity
  8
0
100
AcDbBlockBegin
  2
block 3
 70
     0
 10
0.0
 20
0.0
 30
0.0
  3
block 3
  1

  0
POLYLINE
  5
5D
330
59
100
AcDbEntity
  8
RACCORDO
 62
     7
420
 16777215
370
    25
100
AcDb2dPolyline
 66
     1
 10
0.0
 20
0.0
 30
0.0
  0
VERTEX
  5
5E
330
5D
100
AcDbEntity
  8
RACCORDO
 62
     7
420
 16777215
370
    25
100
AcDbVertex
100
AcDb2dVertex
 10
96.85019456025121
 20
170.5165858154726
 30
0.0
  0
VERTEX
  5
5F
330
5D
100
AcDbEntity
  8
RACCORDO
 62
     7
420
 16777215
370
    25
100
AcDbVertex
100
AcDb2dVertex
 10
96.01245570235116
 20
169.6526953580727
 30
0.0
  0
SEQEND
  5
60
330
5D
100
AcDbEntity
  8
RACCORDO
 62
     7
420
 16777215
370
    25
  0
ENDBLK
  5
5C
330
59
100
AcDbEntity
  8
0
100
AcDbBlockEnd
  0
BLOCK
  5
63
330
61
100
AcDbEntity
  8
0
100
AcDbBlockBegin
  2
block 4
 70
     0
 10
0.0
 20
0.0
 30
0.0
  3
block 4
  1

  0
POLYLINE
  5
65
330
61
100
AcDbEntity
  8
RACCORDO
 62
     7
420
 16777215
370
    25
100
AcDb2dPolyline
 66
     1
 10
0.0
 20
0.0
 30
0.0
  0
VERTEX
  5
66
330
65
100
AcDbEntity
  8
RACCORDO
 62
     7
420
 16777215
370
    25
100
AcDbVertex
100
AcDb2dVertex
 10
96.02002054915137
 20
169.6605676721731
 30
0.0
  0
VERTEX
  5
67
330
65
100
AcDbEntity
  8
RACCORDO
 62
     7
420
 16777215
370
    25
100
AcDbVertex
100
AcDb2dVertex
 10
96.01935437465113
 20
169.6598834585728
 30
0.0
  0
SEQEND
  5
68
330
65
100
AcDbEntity
  8
RACCORDO
 62
     7
420
 16777215
370
    25
  0
ENDBLK
  5
64
330
61
100
AcDbEntity
  8
0
100
AcDbBlockEnd
  0
BLOCK
  5
6B
330
69
100
AcDbEntity
  8
0
100
AcDbBlockBegin
  2
block 5
 70
     0
 10
0.0
 20
0.0
 30
0.0
  3
block 5
  1

  0
POLYLINE
  5
6D
330
69
100
AcDbEntity
  8
RACCORDO
 62
     7
420
 16777215
370
    25
100
AcDb2dPolyline
 66
     1
 10
0.0
 20
0.0
 30
0.0
  0
VERTEX
  5
6E
330
6D
100
AcDbEntity
  8
RACCORDO
 62
     7
420
 16777215
370
    25
100
AcDbVertex
100
AcDb2dVertex
 10
96.36403185455123
 20
169.7185970639727
 30
0.0
  0
VERTEX
  5
6F
330
6D
100
AcDbEntity
  8
RACCORDO
 62
     7
420
 16777215
370
    25
100
AcDbVertex
100
AcDb2dVertex
 10
96.31819312765111
 20
169.6738005623726
 30
0.0
  0
VERTEX
  5
70
330
6D
100
AcDbEntity
  8
RACCORDO
 62
     7
420
 16777215
370
    25
100
AcDbVertex
100
AcDb2dVertex
 10
96.2727086435511
 20
169.6244189079727
 30
0.0
  0
VERTEX
  5
71
330
6D
100
AcDbEntity
  8
RACCORDO
 62
     7
420
 16777215
370
    25
100
AcDbVertex
100
AcDb2dVertex
 10
96.22782712385138
 20
169.5706898070728
 30
0.0
  0
VERTEX
  5
72
330
6D
100
AcDbEntity
  8
RACCORDO
 62
     7
420
 16777215
370
    25
100
AcDbVertex
100
AcDb2dVertex
 10
96.18381680045096
 20
169.5128646812727
 30
0.0
  0
VERTEX
  5
73
330
6D
100
AcDbEntity
  8
RACCORDO
 62
     7
420
 16777215
370
    25
100
AcDbVertex
100
AcDb2dVertex
 10
96.14089459265139
 20
169.4512307553725
 30
0.0
  0
VERTEX
  5
74
330
6D
100
AcDbEntity
  8
RACCORDO
 62
     7
420
 16777215
370
    25
100
AcDbVertex
100
AcDb2dVertex
 10
96.09922511085111
 20
169.3861087918727
 30
0.0
  0
VERTEX
  5
75
330
6D
100
AcDbEntity
  8
RACCORDO
 62
     7
420
 16777215
370
    25
100
AcDbVertex
100
AcDb2dVertex
 10
96.05903151785107
 20
169.3178106936727
 30
0.0
  0
VERTEX
  5
76
330
6D
100
AcDbEntity
  8
RACCORDO
 62
     7
420
 16777215
370
    25
100
AcDbVertex
100
AcDb2dVertex
 10
96.02053686155087
 20
169.2466692921726
 30
0.0
  0
VERTEX
  5
77
330
6D
100
AcDbEntity
  8
RACCORDO
 62
     7
420
 16777215
370
    25
100
AcDbVertex
100
AcDb2dVertex
 10
95.9838928974513
 20
169.1730602646728
 30
0.0
  0
VERTEX
  5
78
330
6D
100
AcDbEntity
  8
RACCORDO
 62
     7
420
 16777215
370
    25
100
AcDbVertex
100
AcDb2dVertex
 10
95.94929571395107
 20
169.097344739673
 30
0.0
  0
VERTEX
  5
79
330
6D
100
AcDbEntity
  8
RACCORDO
 62
     7
420
 16777215
370
    25
100
AcDbVertex
100
AcDb2dVertex
 10
95.91693505955126
 20
169.0198871805727
 30
0.0
  0
VERTEX
  5
7A
330
6D
100
AcDbEntity
  8
RACCORDO
 62
     7
420
 16777215
370
    25
100
AcDbVertex
100
AcDb2dVertex
 10
95.88693560365132
 20
168.9410845921726
 30
0.0
  0
VERTEX
  5
7B
330
6D
100
AcDbEntity
  8
RACCORDO
 62
     7
420
 16777215
370
    25
100
AcDbVertex
100
AcDb2dVertex
 10
95.85945554155128
 20
168.8613219441727
 30
0.0
  0
VERTEX
  5
7C
330
6D
100
AcDbEntity
  8
RACCORDO
 62
     7
420
 16777215
370
    25
100
AcDbVertex
100
AcDb2dVertex
 10
95.83464659305137
 20
168.7809857937726
 30
0.0
  0
VERTEX
  5
7D
330
6D
100
AcDbEntity
  8
RACCORDO
 62
     7
420
 16777215
370
    25
100
AcDbVertex
100
AcDb2dVertex
 10
95.81260298225111
 20
168.7004827941728
 30
0.0
  0
VERTEX
  5
7E
330
6D
100
AcDbEntity
  8
RACCORDO
 62
     7
420
 16777215
370
    25
100
AcDbVertex
100
AcDb2dVertex
 10
95.79343995225122
 20
168.6202129062726
 30
0.0
  0
VERTEX
  5
7F
330
6D
100
AcDbEntity
  8
RACCORDO
 62
     7
420
 16777215
370
    25
100
AcDbVertex
100
AcDb2dVertex
 10
95.77726258595128
 20
168.5405594336727
 30
0.0
  0
VERTEX
  5
80
330
6D
100
AcDbEntity
  8
RACCORDO
 62
     7
420
 16777215
370
    25
100
AcDbVertex
100
AcDb2dVertex
 10
95.76412866455122
 20
168.4619031500727
 30
0.0
  0
VERTEX
  5
81
330
6D
100
AcDbEntity
  8
RACCORDO
 62
     7
420
 16777215
370
    25
100
AcDbVertex
100
AcDb2dVertex
 10
95.75410103905108
 20
168.3846262101727
 30
0.0
  0
VERTEX
  5
82
330
6D
100
AcDbEntity
  8
RACCORDO
 62
     7
420
 16777215
370
    25
100
AcDbVertex
100
AcDb2dVertex
 10
95.74724470445109
 20
168.3091097230726
 30
0.0
  0
VERTEX
  5
83
330
6D
100
AcDbEntity
  8
RACCORDO
 62
     7
420
 16777215
370
    25
100
AcDbVertex
100
AcDb2dVertex
 10
95.74359774095137
 20
168.2357242276727
 30
0.0
  0
SEQEND
  5
84
330
6D
100
AcDbEntity
  8
RACCORDO
 62
     7
420
 16777215
370
    25
  0
ENDBLK
  5
6C
330
69
100
AcDbEntity
  8
0
100
AcDbBlockEnd
  0
BLOCK
  5
87
330
85
100
AcDbEntity
  8
0
100
AcDbBlockBegin
  2
block 6
 70
     0
 10
0.0
 20
0.0
 30
0.0
  3
block 6
  1

  0
POLYLINE
  5
89
330
85
100
AcDbEntity
  8
RACCORDO
 62
     7
420
 16777215
370
    25
100
AcDb2dPolyline
 66
     1
 10
0.0
 20
0.0
 30
0.0
  0
VERTEX
  5
8A
330
89
100
AcDbEntity
  8
RACCORDO
 62
     7
420
 16777215
370
    25
100
AcDbVertex
100
AcDb2dVertex
 10
113.2746763956513
 20
127.0162642131725
 30
0.0
  0
VERTEX
  5
8B
330
89
100
AcDbEntity
  8
RACCORDO
 62
     7
420
 16777215
370
    25
100
AcDbVertex
100
AcDb2dVertex
 10
113.3179673496513
 20
127.0049400472729
 30
0.0
  0
VERTEX
  5
8C
330
89
100
AcDbEntity
  8
RACCORDO
 62
     7
420
 16777215
370
    25
100
AcDbVertex
100
AcDb2dVertex
 10
113.3631102239515
 20
126.996104673073
 30
0.0
  0
VERTEX
  5
8D
330
89
100
AcDbEntity
  8
RACCORDO
 62
     7
420
 16777215
370
    25
100
AcDbVertex
100
AcDb2dVertex
 10
113.4096844188514
 20
126.989840410473
 30
0.0
  0
VERTEX
  5
8E
330
89
100
AcDbEntity
  8
RACCORDO
 62
     7
420
 16777215
370
    25
100
AcDbVertex
100
AcDb2dVertex
 10
113.4572559984514
 20
126.9862056240724
 30
0.0
  0
VERTEX
  5
8F
330
89
100
AcDbEntity
  8
RACCORDO
 62
     7
420
 16777215
370
    25
100
AcDbVertex
100
AcDb2dVertex
 10
113.5053817346515
 20
126.9852341795728
 30
0.0
  0
VERTEX
  5
90
330
89
100
AcDbEntity
  8
RACCORDO
 62
     7
420
 16777215
370
    25
100
AcDbVertex
100
AcDb2dVertex
 10
113.5536132359509
 20
126.9869351279728
 30
0.0
  0
VERTEX
  5
91
330
89
100
AcDbEntity
  8
RACCORDO
 62
     7
420
 16777215
370
    25
100
AcDbVertex
100
AcDb2dVertex
 10
113.601501125451
 20
126.9912926213725
 30
0.0
  0
VERTEX
  5
92
330
89
100
AcDbEntity
  8
RACCORDO
 62
     7
420
 16777215
370
    25
100
AcDbVertex
100
AcDb2dVertex
 10
113.648599227751
 20
126.9982660605728
 30
0.0
  0
VERTEX
  5
93
330
89
100
AcDbEntity
  8
RACCORDO
 62
     7
420
 16777215
370
    25
100
AcDbVertex
100
AcDb2dVertex
 10
113.6944687258511
 20
127.0077904735724
 30
0.0
  0
VERTEX
  5
94
330
89
100
AcDbEntity
  8
RACCORDO
 62
     7
420
 16777215
370
    25
100
AcDbVertex
100
AcDb2dVertex
 10
113.7386822500512
 20
127.0197771206729
 30
0.0
  0
VERTEX
  5
95
330
89
100
AcDbEntity
  8
RACCORDO
 62
     7
420
 16777215
370
    25
100
AcDbVertex
100
AcDb2dVertex
 10
113.7808278590514
 20
127.0341143211727
 30
0.0
  0
VERTEX
  5
96
330
89
100
AcDbEntity
  8
RACCORDO
 62
     7
420
 16777215
370
    25
100
AcDbVertex
100
AcDb2dVertex
 10
113.820512879051
 20
127.0506684942726
 30
0.0
  0
VERTEX
  5
97
330
89
100
AcDbEntity
  8
RACCORDO
 62
     7
420
 16777215
370
    25
100
AcDbVertex
100
AcDb2dVertex
 10
113.8573675611515
 20
127.0692854032729
 30
0.0
  0
VERTEX
  5
98
330
89
100
AcDbEntity
  8
RACCORDO
 62
     7
420
 16777215
370
    25
100
AcDbVertex
100
AcDb2dVertex
 10
113.8910485274511
 20
127.0897915930726
 30
0.0
  0
VERTEX
  5
99
330
89
100
AcDbEntity
  8
RACCORDO
 62
     7
420
 16777215
370
    25
100
AcDbVertex
100
AcDb2dVertex
 10
113.921241969451
 20
127.1119960055728
 30
0.0
  0
SEQEND
  5
9A
330
89
100
AcDbEntity
  8
RACCORDO
 62
     7
420
 16777215
370
    25
  0
ENDBLK
  5
88
330
85
100
AcDbEntity
  8
0
100
AcDbBlockEnd
  0
BLOCK
  5
9D
330
9B
100
AcDbEntity
  8
0
100
AcDbBlockBegin
  2
block 7
 70
     0
 10
0.0
 20
0.0
 30
0.0
  3
block 7
  1

  0
POLYLINE
  5
9F
330
9B
100
AcDbEntity
  8
RACCORDO
 62
     7
420
 16777215
370
    25
100
AcDb2dPolyline
 66
     1
 10
0.0
 20
0.0
 30
0.0
  0
VERTEX
  5
A0
330
9F
100
AcDbEntity
  8
RACCORDO
 62
     7
420
 16777215
370
    25
100
AcDbVertex
100
AcDb2dVertex
 10
113.5374601941511
 20
126.4726435564729
 30
0.0
  0
VERTEX
  5
A1
330
9F
100
AcDbEntity
  8
RACCORDO
 62
     7
420
 16777215
370
    25
100
AcDbVertex
100
AcDb2dVertex
 10
113.5848014436513
 20
126.4600651636726
 30
0.0
  0
VERTEX
  5
A2
330
9F
100
AcDbEntity
  8
RACCORDO
 62
     7
420
 16777215
370
    25
100
AcDbVertex
100
AcDb2dVertex
 10
113.641605304551
 20
126.4496775298727
 30
0.0
  0
VERTEX
  5
A3
330
9F
100
AcDbEntity
  8
RACCORDO
 62
     7
420
 16777215
370
    25
100
AcDbVertex
100
AcDb2dVertex
 10
113.7000131736512
 20
126.4440667377727
 30
0.0
  0
VERTEX
  5
A4
330
9F
100
AcDbEntity
  8
RACCORDO
 62
     7
420
 16777215
370
    25
100
AcDbVertex
100
AcDb2dVertex
 10
113.7597566212512
 20
126.4434408807727
 30
0.0
  0
VERTEX
  5
A5
330
9F
100
AcDbEntity
  8
RACCORDO
 62
     7
420
 16777215
370
    25
100
AcDbVertex
100
AcDb2dVertex
 10
113.8203810071512
 20
126.447976000873
 30
0.0
  0
VERTEX
  5
A6
330
9F
100
AcDbEntity
  8
RACCORDO
 62
     7
420
 16777215
370
    25
100
AcDbVertex
100
AcDb2dVertex
 10
113.8816493350515
 20
126.4578074999727
 30
0.0
  0
VERTEX
  5
A7
330
9F
100
AcDbEntity
  8
RACCORDO
 62
     7
420
 16777215
370
    25
100
AcDbVertex
100
AcDb2dVertex
 10
113.9432740717515
 20
126.4730459887728
 30
0.0
  0
VERTEX
  5
A8
330
9F
100
AcDbEntity
  8
RACCORDO
 62
     7
420
 16777215
370
    25
100
AcDbVertex
100
AcDb2dVertex
 10
114.0049303331515
 20
126.493766967373
 30
0.0
  0
VERTEX
  5
A9
330
9F
100
AcDbEntity
  8
RACCORDO
 62
     7
420
 16777215
370
    25
100
AcDbVertex
100
AcDb2dVertex
 10
114.0664981944511
 20
126.5201047215727
 30
0.0
  0
VERTEX
  5
AA
330
9F
100
AcDbEntity
  8
RACCORDO
 62
     7
420
 16777215
370
    25
100
AcDbVertex
100
AcDb2dVertex
 10
114.1278596715514
 20
126.5522046144728
 30
0.0
  0
VERTEX
  5
AB
330
9F
100
AcDbEntity
  8
RACCORDO
 62
     7
420
 16777215
370
    25
100
AcDbVertex
100
AcDb2dVertex
 10
114.1887267242514
 20
126.5901059670728
 30
0.0
  0
SEQEND
  5
AC
330
9F
100
AcDbEntity
  8
RACCORDO
 62
     7
420
 16777215
370
    25
  0
ENDBLK
  5
9E
330
9B
100
AcDbEntity
  8
0
100
AcDbBlockEnd
  0
BLOCK
  5
AF
330
AD
100
AcDbEntity
  8
0
100
AcDbBlockBegin
  2
block 8
 70
     0
 10
0.0
 20
0.0
 30
0.0
  3
block 8
  1

  0
POLYLINE
  5
B1
330
AD
100
AcDbEntity
  8
RACCORDO
 62
     7
420
 16777215
370
    25
100
AcDb2dPolyline
 66
     1
 10
0.0
 20
0.0
 30
0.0
  0
VERTEX
  5
B2
330
B1
100
AcDbEntity
  8
RACCORDO
 62
     7
420
 16777215
370
    25
100
AcDbVertex
100
AcDb2dVertex
 10
113.5375649397512
 20
126.4726075170724
 30
0.0
  0
VERTEX
  5
B3
330
B1
100
AcDbEntity
  8
RACCORDO
 62
     7
420
 16777215
370
    25
100
AcDbVertex
100
AcDb2dVertex
 10
113.5375170665509
 20
126.472622120573
 30
0.0
  0
SEQEND
  5
B4
330
B1
100
AcDbEntity
  8
RACCORDO
 62
     7
420
 16777215
370
    25
  0
ENDBLK
  5
B0
330
AD
100
AcDbEntity
  8
0
100
AcDbBlockEnd
  0
BLOCK
  5
B7
330
B5
100
AcDbEntity
  8
0
100
AcDbBlockBegin
  2
block 9
 70
     0
 10
0.0
 20
0.0
 30
0.0
  3
block 9
  1

  0
POLYLINE
  5
B9
330
B5
100
AcDbEntity
  8
RACCORDO
 62
     7
420
 16777215
370
    25
100
AcDb2dPolyline
 66
     1
 10
0.0
 20
0.0
 30
0.0
  0
VERTEX
  5
BA
330
B9
100
AcDbEntity
  8
RACCORDO
 62
     7
420
 16777215
370
    25
100
AcDbVertex
100
AcDb2dVertex
 10
113.5375170665509
 20
126.472622120573
 30
0.0
  0
VERTEX
  5
BB
330
B9
100
AcDbEntity
  8
RACCORDO
 62
     7
420
 16777215
370
    25
100
AcDbVertex
100
AcDb2dVertex
 10
113.5139430368513
 20
126.4811220516726
 30
0.0
  0
VERTEX
  5
BC
330
B9
100
AcDbEntity
  8
RACCORDO
 62
     7
420
 16777215
370
    25
100
AcDbVertex
100
AcDb2dVertex
 10
113.4793370898514
 20
126.4987987510729
 30
0.0
  0
VERTEX
  5
BD
330
B9
100
AcDbEntity
  8
RACCORDO
 62
     7
420
 16777215
370
    25
100
AcDbVertex
100
AcDb2dVertex
 10
113.4469479068512
 20
126.5219522916726
 30
0.0
  0
VERTEX
  5
BE
330
B9
100
AcDbEntity
  8
RACCORDO
 62
     7
420
 16777215
370
    25
100
AcDbVertex
100
AcDb2dVertex
 10
113.4169704423512
 20
126.5504537728726
 30
0.0
  0
VERTEX
  5
BF
330
B9
100
AcDbEntity
  8
RACCORDO
 62
     7
420
 16777215
370
    25
100
AcDbVertex
100
AcDb2dVertex
 10
113.3895383276511
 20
126.5841630287728
 30
0.0
  0
VERTEX
  5
C0
330
B9
100
AcDbEntity
  8
RACCORDO
 62
     7
420
 16777215
370
    25
100
AcDbVertex
100
AcDb2dVertex
 10
113.3647656820512
 20
126.622916424673
 30
0.0
  0
VERTEX
  5
C1
330
B9
100
AcDbEntity
  8
RACCORDO
 62
     7
420
 16777215
370
    25
100
AcDbVertex
100
AcDb2dVertex
 10
113.3428014830513
 20
126.666511169173
 30
0.0
  0
VERTEX
  5
C2
330
B9
100
AcDbEntity
  8
RACCORDO
 62
     7
420
 16777215
370
    25
100
AcDbVertex
100
AcDb2dVertex
 10
113.3237459211515
 20
126.7147277490729
 30
0.0
  0
VERTEX
  5
C3
330
B9
100
AcDbEntity
  8
RACCORDO
 62
     7
420
 16777215
370
    25
100
AcDbVertex
100
AcDb2dVertex
 10
113.3076736480513
 20
126.7673337826725
 30
0.0
  0
VERTEX
  5
C4
330
B9
100
AcDbEntity
  8
RACCORDO
 62
     7
420
 16777215
370
    25
100
AcDbVertex
100
AcDb2dVertex
 10
113.2946781963513
 20
126.8240759491725
 30
0.0
  0
VERTEX
  5
C5
330
B9
100
AcDbEntity
  8
RACCORDO
 62
     7
420
 16777215
370
    25
100
AcDbVertex
100
AcDb2dVertex
 10
113.284824804451
 20
126.884679747373
 30
0.0
  0
VERTEX
  5
C6
330
B9
100
AcDbEntity
  8
RACCORDO
 62
     7
420
 16777215
370
    25
100
AcDbVertex
100
AcDb2dVertex
 10
113.2781479397513
 20
126.9488473270724
 30
0.0
  0
VERTEX
  5
C7
330
B9
100
AcDbEntity
  8
RACCORDO
 62
     7
420
 16777215
370
    25
100
AcDbVertex
100
AcDb2dVertex
 10
113.2746764015511
 20
127.0162642479725
 30
0.0
  0
SEQEND
  5
C8
330
B9
100
AcDbEntity
  8
RACCORDO
 62
     7
420
 16777215
370
    25
  0
ENDBLK
  5
B8
330
B5
100
AcDbEntity
  8
0
100
AcDbBlockEnd
  0
BLOCK
  5
CB
330
C9
100
AcDbEntity
  8
0
100
AcDbBlockBegin
  2
block 10
 70
     0
 10
0.0
 20
0.0
 30
0.0
  3
block 10
  1

  0
POLYLINE
  5
CD
330
C9
100
AcDbEntity
  8
RACCORDO
 62
     7
420
 16777215
370
    25
100
AcDb2dPolyline
 66
     1
 10
0.0
 20
0.0
 30
0.0
  0
VERTEX
  5
CE
330
CD
100
AcDbEntity
  8
RACCORDO
 62
     7
420
 16777215
370
    25
100
AcDbVertex
100
AcDb2dVertex
 10
95.98605918505125
 20
132.6804796149727
 30
0.0
  0
VERTEX
  5
CF
330
CD
100
AcDbEntity
  8
RACCORDO
 62
     7
420
 16777215
370
    25
100
AcDbVertex
100
AcDb2dVertex
 10
97.77211612355126
 20
131.9639248418724
 30
0.0
  0
VERTEX
  5
D0
330
CD
100
AcDbEntity
  8
RACCORDO
 62
     7
420
 16777215
370
    25
100
AcDbVertex
100
AcDb2dVertex
 10
99.68488707615128
 20
131.2194904524725
 30
0.0
  0
VERTEX
  5
D1
330
CD
100
AcDbEntity
  8
RACCORDO
 62
     7
420
 16777215
370
    25
100
AcDbVertex
100
AcDb2dVertex
 10
101.6189847298512
 20
130.490122188473
 30
0.0
  0
VERTEX
  5
D2
330
CD
100
AcDbEntity
  8
RACCORDO
 62
     7
420
 16777215
370
    25
100
AcDbVertex
100
AcDb2dVertex
 10
103.5739330014514
 20
129.7760048168725
 30
0.0
  0
VERTEX
  5
D3
330
CD
100
AcDbEntity
  8
RACCORDO
 62
     7
420
 16777215
370
    25
100
AcDbVertex
100
AcDb2dVertex
 10
105.549250384851
 20
129.0773178975724
 30
0.0
  0
VERTEX
  5
D4
330
CD
100
AcDbEntity
  8
RACCORDO
 62
     7
420
 16777215
370
    25
100
AcDbVertex
100
AcDb2dVertex
 10
107.5444414661511
 20
128.3942308508729
 30
0.0
  0
VERTEX
  5
D5
330
CD
100
AcDbEntity
  8
RACCORDO
 62
     7
420
 16777215
370
    25
100
AcDbVertex
100
AcDb2dVertex
 10
109.5589988944515
 20
127.7269032106729
 30
0.0
  0
VERTEX
  5
D6
330
CD
100
AcDbEntity
  8
RACCORDO
 62
     7
420
 16777215
370
    25
100
AcDbVertex
100
AcDb2dVertex
 10
111.5924098966511
 20
127.0754892433727
 30
0.0
  0
VERTEX
  5
D7
330
CD
100
AcDbEntity
  8
RACCORDO
 62
     7
420
 16777215
370
    25
100
AcDbVertex
100
AcDb2dVertex
 10
113.5375675474512
 20
126.4726067218726
 30
0.0
  0
SEQEND
  5
D8
330
CD
100
AcDbEntity
  8
RACCORDO
 62
     7
420
 16777215
370
    25
  0
ENDBLK
  5
CC
330
C9
100
AcDbEntity
  8
0
100
AcDbBlockEnd
  0
BLOCK
  5
DB
330
D9
100
AcDbEntity
  8
0
100
AcDbBlockBegin
  2
block 11
 70
     0
 10
0.0
 20
0.0
 30
0.0
  3
block 11
  1

  0
POLYLINE
  5
DD
330
D9
100
AcDbEntity
  8
RACCORDO
 62
     7
420
 16777215
370
    25
100
AcDb2dPolyline
 66
     1
 10
0.0
 20
0.0
 30
0.0
  0
VERTEX
  5
DE
330
DD
100
AcDbEntity
  8
RACCORDO
 62
     7
420
 16777215
370
    25
100
AcDbVertex
100
AcDb2dVertex
 10
95.74359773005115
 20
133.2168792278725
 30
0.0
  0
VERTEX
  5
DF
330
DD
100
AcDbEntity
  8
RACCORDO
 62
     7
420
 16777215
370
    25
100
AcDbVertex
100
AcDb2dVertex
 10
96.28613499545118
 20
132.9958819896728
 30
0.0
  0
VERTEX
  5
E0
330
DD
100
AcDbEntity
  8
RACCORDO
 62
     7
420
 16777215
370
    25
100
AcDbVertex
100
AcDb2dVertex
 10
96.83027535215108
 20
132.7762754160725
 30
0.0
  0
VERTEX
  5
E1
330
DD
100
AcDbEntity
  8
RACCORDO
 62
     7
420
 16777215
370
    25
100
AcDbVertex
100
AcDb2dVertex
 10
97.37600643115131
 20
132.558062199773
 30
0.0
  0
VERTEX
  5
E2
330
DD
100
AcDbEntity
  8
RACCORDO
 62
     7
420
 16777215
370
    25
100
AcDbVertex
100
AcDb2dVertex
 10
97.92318513965128
 20
132.3412965376726
 30
0.0
  0
VERTEX
  5
E3
330
DD
100
AcDbEntity
  8
RACCORDO
 62
     7
420
 16777215
370
    25
100
AcDbVertex
100
AcDb2dVertex
 10
98.47192900455127
 20
132.1259288895726
 30
0.0
  0
VERTEX
  5
E4
330
DD
100
AcDbEntity
  8
RACCORDO
 62
     7
420
 16777215
370
    25
100
AcDbVertex
100
AcDb2dVertex
 10
99.02262034595122
 20
131.9118091581724
 30
0.0
  0
VERTEX
  5
E5
330
DD
100
AcDbEntity
  8
RACCORDO
 62
     7
420
 16777215
370
    25
100
AcDbVertex
100
AcDb2dVertex
 10
99.57544448335123
 20
131.6988683062726
 30
0.0
  0
VERTEX
  5
E6
330
DD
100
AcDbEntity
  8
RACCORDO
 62
     7
420
 16777215
370
    25
100
AcDbVertex
100
AcDb2dVertex
 10
100.1301996705512
 20
131.4871869619726
 30
0.0
  0
VERTEX
  5
E7
330
DD
100
AcDbEntity
  8
RACCORDO
 62
     7
420
 16777215
370
    25
100
AcDbVertex
100
AcDb2dVertex
 10
100.6866894708513
 20
131.2768409221727
 30
0.0
  0
VERTEX
  5
E8
330
DD
100
AcDbEntity
  8
RACCORDO
 62
     7
420
 16777215
370
    25
100
AcDbVertex
100
AcDb2dVertex
 10
101.2448420155512
 20
131.0678568390724
 30
0.0
  0
VERTEX
  5
E9
330
DD
100
AcDbEntity
  8
RACCORDO
 62
     7
420
 16777215
370
    25
100
AcDbVertex
100
AcDb2dVertex
 10
101.8047073864512
 20
130.8602155189728
 30
0.0
  0
VERTEX
  5
EA
330
DD
100
AcDbEntity
  8
RACCORDO
 62
     7
420
 16777215
370
    25
100
AcDbVertex
100
AcDb2dVertex
 10
102.3662702297516
 20
130.6539225391728
 30
0.0
  0
VERTEX
  5
EB
330
DD
100
AcDbEntity
  8
RACCORDO
 62
     7
420
 16777215
370
    25
100
AcDbVertex
100
AcDb2dVertex
 10
102.9296085551513
 20
130.4489495148728
 30
0.0
  0
VERTEX
  5
EC
330
DD
100
AcDbEntity
  8
RACCORDO
 62
     7
420
 16777215
370
    25
100
AcDbVertex
100
AcDb2dVertex
 10
103.4946233122511
 20
130.2453328640729
 30
0.0
  0
VERTEX
  5
ED
330
DD
100
AcDbEntity
  8
RACCORDO
 62
     7
420
 16777215
370
    25
100
AcDbVertex
100
AcDb2dVertex
 10
104.0610310464514
 20
130.0431732886728
 30
0.0
  0
VERTEX
  5
EE
330
DD
100
AcDbEntity
  8
RACCORDO
 62
     7
420
 16777215
370
    25
100
AcDbVertex
100
AcDb2dVertex
 10
104.6284684698511
 20
129.8425956916725
 30
0.0
  0
VERTEX
  5
EF
330
DD
100
AcDbEntity
  8
RACCORDO
 62
     7
420
 16777215
370
    25
100
AcDbVertex
100
AcDb2dVertex
 10
105.1972701594512
 20
129.6434766917727
 30
0.0
  0
VERTEX
  5
F0
330
DD
100
AcDbEntity
  8
RACCORDO
 62
     7
420
 16777215
370
    25
100
AcDbVertex
100
AcDb2dVertex
 10
105.7682037698509
 20
129.4455482189725
 30
0.0
  0
VERTEX
  5
F1
330
DD
100
AcDbEntity
  8
RACCORDO
 62
     7
420
 16777215
370
    25
100
AcDbVertex
100
AcDb2dVertex
 10
106.3401453121511
 20
129.249199906273
 30
0.0
  0
VERTEX
  5
F2
330
DD
100
AcDbEntity
  8
RACCORDO
 62
     7
420
 16777215
370
    25
100
AcDbVertex
100
AcDb2dVertex
 10
106.9141987647514
 20
129.0540509010724
 30
0.0
  0
VERTEX
  5
F3
330
DD
100
AcDbEntity
  8
RACCORDO
 62
     7
420
 16777215
370
    25
100
AcDbVertex
100
AcDb2dVertex
 10
107.4945156773512
 20
128.8587139445725
 30
0.0
  0
VERTEX
  5
F4
330
DD
100
AcDbEntity
  8
RACCORDO
 62
     7
420
 16777215
370
    25
100
AcDbVertex
100
AcDb2dVertex
 10
108.0801222419513
 20
128.6635616416729
 30
0.0
  0
VERTEX
  5
F5
330
DD
100
AcDbEntity
  8
RACCORDO
 62
     7
420
 16777215
370
    25
100
AcDbVertex
100
AcDb2dVertex
 10
108.6720425544512
 20
128.4682933518728
 30
0.0
  0
VERTEX
  5
F6
330
DD
100
AcDbEntity
  8
RACCORDO
 62
     7
420
 16777215
370
    25
100
AcDbVertex
100
AcDb2dVertex
 10
109.2775206858512
 20
128.2705979345729
 30
0.0
  0
VERTEX
  5
F7
330
DD
100
AcDbEntity
  8
RACCORDO
 62
     7
420
 16777215
370
    25
100
AcDbVertex
100
AcDb2dVertex
 10
109.8968725171515
 20
128.0705011360728
 30
0.0
  0
VERTEX
  5
F8
330
DD
100
AcDbEntity
  8
RACCORDO
 62
     7
420
 16777215
370
    25
100
AcDbVertex
100
AcDb2dVertex
 10
110.529961509651
 20
127.8681723125729
 30
0.0
  0
VERTEX
  5
F9
330
DD
100
AcDbEntity
  8
RACCORDO
 62
     7
420
 16777215
370
    25
100
AcDbVertex
100
AcDb2dVertex
 10
111.1834715827515
 20
127.661626443973
 30
0.0
  0
VERTEX
  5
FA
330
DD
100
AcDbEntity
  8
RACCORDO
 62
     7
420
 16777215
370
    25
100
AcDbVertex
100
AcDb2dVertex
 10
111.859755903151
 20
127.4503326299727
 30
0.0
  0
VERTEX
  5
FB
330
DD
100
AcDbEntity
  8
RACCORDO
 62
     7
420
 16777215
370
    25
100
AcDbVertex
100
AcDb2dVertex
 10
112.5567734182511
 20
127.2351556268725
 30
0.0
  0
VERTEX
  5
FC
330
DD
100
AcDbEntity
  8
RACCORDO
 62
     7
420
 16777215
370
    25
100
AcDbVertex
100
AcDb2dVertex
 10
113.2746763932513
 20
127.016264246573
 30
0.0
  0
SEQEND
  5
FD
330
DD
100
AcDbEntity
  8
RACCORDO
 62
     7
420
 16777215
370
    25
  0
ENDBLK
  5
DC
330
D9
100
AcDbEntity
  8
0
100
AcDbBlockEnd
  0
BLOCK
  5
100
330
FE
100
AcDbEntity
  8
0
100
AcDbBlockBegin
  2
block 12
 70
     0
 10
0.0
 20
0.0
 30
0.0
  3
block 12
  1

  0
POLYLINE
  5
102
330
FE
100
AcDbEntity
  8
RACCORDO
 62
     7
420
 16777215
370
    25
100
AcDb2dPolyline
 66
     1
 10
0.0
 20
0.0
 30
0.0
  0
VERTEX
  5
103
330
102
100
AcDbEntity
  8
RACCORDO
 62
     7
420
 16777215
370
    25
100
AcDbVertex
100
AcDb2dVertex
 10
95.74360558945136
 20
133.2168853424725
 30
0.0
  0
VERTEX
  5
104
330
102
100
AcDbEntity
  8
RACCORDO
 62
     7
420
 16777215
370
    25
100
AcDbVertex
100
AcDb2dVertex
 10
95.7065103103512
 20
133.2339929951728
 30
0.0
  0
VERTEX
  5
105
330
102
100
AcDbEntity
  8
RACCORDO
 62
     7
420
 16777215
370
    25
100
AcDbVertex
100
AcDb2dVertex
 10
95.6725627112512
 20
133.2531310511727
 30
0.0
  0
VERTEX
  5
106
330
102
100
AcDbEntity
  8
RACCORDO
 62
     7
420
 16777215
370
    25
100
AcDbVertex
100
AcDb2dVertex
 10
95.6420790783512
 20
133.2741212030725
 30
0.0
  0
VERTEX
  5
107
330
102
100
AcDbEntity
  8
RACCORDO
 62
     7
420
 16777215
370
    25
100
AcDbVertex
100
AcDb2dVertex
 10
95.61534342495126
 20
133.2967678876728
 30
0.0
  0
VERTEX
  5
108
330
102
100
AcDbEntity
  8
RACCORDO
 62
     7
420
 16777215
370
    25
100
AcDbVertex
100
AcDb2dVertex
 10
95.59260484435127
 20
133.3208601080729
 30
0.0
  0
VERTEX
  5
109
330
102
100
AcDbEntity
  8
RACCORDO
 62
     7
420
 16777215
370
    25
100
AcDbVertex
100
AcDb2dVertex
 10
95.57407518965108
 20
133.3461733996729
 30
0.0
  0
VERTEX
  5
10A
330
102
100
AcDbEntity
  8
RACCORDO
 62
     7
420
 16777215
370
    25
100
AcDbVertex
100
AcDb2dVertex
 10
95.55992709985125
 20
133.3724719210729
 30
0.0
  0
VERTEX
  5
10B
330
102
100
AcDbEntity
  8
RACCORDO
 62
     7
420
 16777215
370
    25
100
AcDbVertex
100
AcDb2dVertex
 10
95.55029239135125
 20
133.3995106513724
 30
0.0
  0
VERTEX
  5
10C
330
102
100
AcDbEntity
  8
RACCORDO
 62
     7
420
 16777215
370
    25
100
AcDbVertex
100
AcDb2dVertex
 10
95.54526082975136
 20
133.4270376734728
 30
0.0
  0
VERTEX
  5
10D
330
102
100
AcDbEntity
  8
RACCORDO
 62
     7
420
 16777215
370
    25
100
AcDbVertex
100
AcDb2dVertex
 10
95.54452863055108
 20
133.4388474579725
 30
0.0
  0
SEQEND
  5
10E
330
102
100
AcDbEntity
  8
RACCORDO
 62
     7
420
 16777215
370
    25
  0
ENDBLK
  5
101
330
FE
100
AcDbEntity
  8
0
100
AcDbBlockEnd
  0
BLOCK
  5
111
330
10F
100
AcDbEntity
  8
0
100
AcDbBlockBegin
  2
block 13
 70
     0
 10
0.0
 20
0.0
 30
0.0
  3
block 13
  1

  0
POLYLINE
  5
113
330
10F
100
AcDbEntity
  8
RACCORDO
 62
     7
420
 16777215
370
    25
100
AcDb2dPolyline
 66
     1
 10
0.0
 20
0.0
 30
0.0
  0
VERTEX
  5
114
330
113
100
AcDbEntity
  8
RACCORDO
 62
     7
420
 16777215
370
    25
100
AcDbVertex
100
AcDb2dVertex
 10
95.74359774085127
 20
133.2168792429729
 30
0.0
  0
VERTEX
  5
115
330
113
100
AcDbEntity
  8
RACCORDO
 62
     7
420
 16777215
370
    25
100
AcDbVertex
100
AcDb2dVertex
 10
95.74724480895114
 20
133.1494002314727
 30
0.0
  0
VERTEX
  5
116
330
113
100
AcDbEntity
  8
RACCORDO
 62
     7
420
 16777215
370
    25
100
AcDbVertex
100
AcDb2dVertex
 10
95.7541013367513
 20
133.0851691023724
 30
0.0
  0
VERTEX
  5
117
330
113
100
AcDbEntity
  8
RACCORDO
 62
     7
420
 16777215
370
    25
100
AcDbVertex
100
AcDb2dVertex
 10
95.76412916965116
 20
133.024503604473
 30
0.0
  0
VERTEX
  5
118
330
113
100
AcDbEntity
  8
RACCORDO
 62
     7
420
 16777215
370
    25
100
AcDbVertex
100
AcDb2dVertex
 10
95.77726318005134
 20
132.9677124324724
 30
0.0
  0
VERTEX
  5
119
330
113
100
AcDbEntity
  8
RACCORDO
 62
     7
420
 16777215
370
    25
100
AcDbVertex
100
AcDb2dVertex
 10
95.79344048575115
 20
132.9150692528725
 30
0.0
  0
VERTEX
  5
11A
330
113
100
AcDbEntity
  8
RACCORDO
 62
     7
420
 16777215
370
    25
100
AcDbVertex
100
AcDb2dVertex
 10
95.81260347725133
 20
132.8668146783729
 30
0.0
  0
VERTEX
  5
11B
330
113
100
AcDbEntity
  8
RACCORDO
 62
     7
420
 16777215
370
    25
100
AcDbVertex
100
AcDb2dVertex
 10
95.83464722815118
 20
132.823191798173
 30
0.0
  0
VERTEX
  5
11C
330
113
100
AcDbEntity
  8
RACCORDO
 62
     7
420
 16777215
370
    25
100
AcDbVertex
100
AcDb2dVertex
 10
95.85945640655133
 20
132.7844254815728
 30
0.0
  0
VERTEX
  5
11D
330
113
100
AcDbEntity
  8
RACCORDO
 62
     7
420
 16777215
370
    25
100
AcDbVertex
100
AcDb2dVertex
 10
95.88693665195107
 20
132.7506992029725
 30
0.0
  0
VERTEX
  5
11E
330
113
100
AcDbEntity
  8
RACCORDO
 62
     7
420
 16777215
370
    25
100
AcDbVertex
100
AcDb2dVertex
 10
95.91693617455115
 20
132.7221899205724
 30
0.0
  0
VERTEX
  5
11F
330
113
100
AcDbEntity
  8
RACCORDO
 62
     7
420
 16777215
370
    25
100
AcDbVertex
100
AcDb2dVertex
 10
95.9492968266511
 20
132.6990464714724
 30
0.0
  0
VERTEX
  5
120
330
113
100
AcDbEntity
  8
RACCORDO
 62
     7
420
 16777215
370
    25
100
AcDbVertex
100
AcDb2dVertex
 10
95.98606017515115
 20
132.6804792118728
 30
0.0
  0
SEQEND
  5
121
330
113
100
AcDbEntity
  8
RACCORDO
 62
     7
420
 16777215
370
    25
  0
ENDBLK
  5
112
330
10F
100
AcDbEntity
  8
0
100
AcDbBlockEnd
  0
BLOCK
  5
124
330
122
100
AcDbEntity
  8
0
100
AcDbBlockBegin
  2
block 14
 70
     0
 10
0.0
 20
0.0
 30
0.0
  3
block 14
  1

  0
POLYLINE
  5
126
330
122
100
AcDbEntity
  8
RACCORDO
 62
     7
420
 16777215
370
    25
100
AcDb2dPolyline
 66
     1
 10
0.0
 20
0.0
 30
0.0
  0
VERTEX
  5
127
330
126
100
AcDbEntity
  8
RACCORDO
 62
     7
420
 16777215
370
    25
100
AcDbVertex
100
AcDb2dVertex
 10
95.5445268680512
 20
133.4389152989725
 30
0.0
  0
VERTEX
  5
128
330
126
100
AcDbEntity
  8
RACCORDO
 62
     7
420
 16777215
370
    25
100
AcDbVertex
100
AcDb2dVertex
 10
95.54561890865108
 20
133.4092898132726
 30
0.0
  0
VERTEX
  5
129
330
126
100
AcDbEntity
  8
RACCORDO
 62
     7
420
 16777215
370
    25
100
AcDbVertex
100
AcDb2dVertex
 10
95.55327172735129
 20
133.3174210473724
 30
0.0
  0
VERTEX
  5
12A
330
126
100
AcDbEntity
  8
RACCORDO
 62
     7
420
 16777215
370
    25
100
AcDbVertex
100
AcDb2dVertex
 10
95.5671254729512
 20
133.2308958088729
 30
0.0
  0
VERTEX
  5
12B
330
126
100
AcDbEntity
  8
RACCORDO
 62
     7
420
 16777215
370
    25
100
AcDbVertex
100
AcDb2dVertex
 10
95.58713532625124
 20
133.1493233865728
 30
0.0
  0
VERTEX
  5
12C
330
126
100
AcDbEntity
  8
RACCORDO
 62
     7
420
 16777215
370
    25
100
AcDbVertex
100
AcDb2dVertex
 10
95.61332406765138
 20
133.0725541688724
 30
0.0
  0
VERTEX
  5
12D
330
126
100
AcDbEntity
  8
RACCORDO
 62
     7
420
 16777215
370
    25
100
AcDbVertex
100
AcDb2dVertex
 10
95.64558950505139
 20
133.0009140540725
 30
0.0
  0
VERTEX
  5
12E
330
126
100
AcDbEntity
  8
RACCORDO
 62
     7
420
 16777215
370
    25
100
AcDbVertex
100
AcDb2dVertex
 10
95.6838395201513
 20
132.9345345950724
 30
0.0
  0
VERTEX
  5
12F
330
126
100
AcDbEntity
  8
RACCORDO
 62
     7
420
 16777215
370
    25
100
AcDbVertex
100
AcDb2dVertex
 10
95.7279648049511
 20
132.8736317458724
 30
0.0
  0
VERTEX
  5
130
330
126
100
AcDbEntity
  8
RACCORDO
 62
     7
420
 16777215
370
    25
100
AcDbVertex
100
AcDb2dVertex
 10
95.77733767495121
 20
132.8189936931725
 30
0.0
  0
VERTEX
  5
131
330
126
100
AcDbEntity
  8
RACCORDO
 62
     7
420
 16777215
370
    25
100
AcDbVertex
100
AcDb2dVertex
 10
95.83134633095126
 20
132.7710297338724
 30
0.0
  0
VERTEX
  5
132
330
126
100
AcDbEntity
  8
RACCORDO
 62
     7
420
 16777215
370
    25
100
AcDbVertex
100
AcDb2dVertex
 10
95.88938373765107
 20
132.7299988458728
 30
0.0
  0
VERTEX
  5
133
330
126
100
AcDbEntity
  8
RACCORDO
 62
     7
420
 16777215
370
    25
100
AcDbVertex
100
AcDb2dVertex
 10
95.95026892875111
 20
132.6963748624729
 30
0.0
  0
VERTEX
  5
134
330
126
100
AcDbEntity
  8
RACCORDO
 62
     7
420
 16777215
370
    25
100
AcDbVertex
100
AcDb2dVertex
 10
95.98657239135115
 20
132.6802713457729
 30
0.0
  0
SEQEND
  5
135
330
126
100
AcDbEntity
  8
RACCORDO
 62
     7
420
 16777215
370
    25
  0
ENDBLK
  5
125
330
122
100
AcDbEntity
  8
0
100
AcDbBlockEnd
  0
BLOCK
  5
138
330
136
100
AcDbEntity
  8
0
100
AcDbBlockBegin
  2
block 15
 70
     0
 10
0.0
 20
0.0
 30
0.0
  3
block 15
  1

  0
POLYLINE
  5
13A
330
136
100
AcDbEntity
  8
RACCORDO
 62
     7
420
 16777215
370
    25
100
AcDb2dPolyline
 66
     1
 10
0.0
 20
0.0
 30
0.0
  0
VERTEX
  5
13B
330
13A
100
AcDbEntity
  8
RACCORDO
 62
     7
420
 16777215
370
    25
100
AcDbVertex
100
AcDb2dVertex
 10
95.54450733155122
 20
168.4476214378727
 30
0.0
  0
VERTEX
  5
13C
330
13A
100
AcDbEntity
  8
RACCORDO
 62
     7
420
 16777215
370
    25
100
AcDbVertex
100
AcDb2dVertex
 10
95.45736468025137
 20
164.5305174416728
 30
0.0
  0
VERTEX
  5
13D
330
13A
100
AcDbEntity
  8
RACCORDO
 62
     7
420
 16777215
370
    25
100
AcDbVertex
100
AcDb2dVertex
 10
95.39066009285129
 20
160.5638331864727
 30
0.0
  0
VERTEX
  5
13E
330
13A
100
AcDbEntity
  8
RACCORDO
 62
     7
420
 16777215
370
    25
100
AcDbVertex
100
AcDb2dVertex
 10
95.34616044655137
 20
156.6171689670728
 30
0.0
  0
VERTEX
  5
13F
330
13A
100
AcDbEntity
  8
RACCORDO
 62
     7
420
 16777215
370
    25
100
AcDbVertex
100
AcDb2dVertex
 10
95.32389959245117
 20
152.6909576610727
 30
0.0
  0
VERTEX
  5
140
330
13A
100
AcDbEntity
  8
RACCORDO
 62
     7
420
 16777215
370
    25
100
AcDbVertex
100
AcDb2dVertex
 10
95.32388432695112
 20
148.7855417119728
 30
0.0
  0
VERTEX
  5
141
330
13A
100
AcDbEntity
  8
RACCORDO
 62
     7
420
 16777215
370
    25
100
AcDbVertex
100
AcDb2dVertex
 10
95.34611498535115
 20
144.9012312700729
 30
0.0
  0
VERTEX
  5
142
330
13A
100
AcDbEntity
  8
RACCORDO
 62
     7
420
 16777215
370
    25
100
AcDbVertex
100
AcDb2dVertex
 10
95.39058545715109
 20
141.0383566167729
 30
0.0
  0
VERTEX
  5
143
330
13A
100
AcDbEntity
  8
RACCORDO
 62
     7
420
 16777215
370
    25
100
AcDbVertex
100
AcDb2dVertex
 10
95.45726257605106
 20
137.1972874540725
 30
0.0
  0
VERTEX
  5
144
330
13A
100
AcDbEntity
  8
RACCORDO
 62
     7
420
 16777215
370
    25
100
AcDbVertex
100
AcDb2dVertex
 10
95.54452300545131
 20
133.4388473103727
 30
0.0
  0
SEQEND
  5
145
330
13A
100
AcDbEntity
  8
RACCORDO
 62
     7
420
 16777215
370
    25
  0
ENDBLK
  5
139
330
136
100
AcDbEntity
  8
0
100
AcDbBlockEnd
  0
BLOCK
  5
148
330
146
100
AcDbEntity
  8
0
100
AcDbBlockBegin
  2
block 16
 70
     0
 10
0.0
 20
0.0
 30
0.0
  3
block 16
  1

  0
POLYLINE
  5
14A
330
146
100
AcDbEntity
  8
RACCORDO
 62
     7
420
 16777215
370
    25
100
AcDb2dPolyline
 66
     1
 10
0.0
 20
0.0
 30
0.0
  0
VERTEX
  5
14B
330
14A
100
AcDbEntity
  8
RACCORDO
 62
     7
420
 16777215
370
    25
100
AcDbVertex
100
AcDb2dVertex
 10
95.74359773005115
 20
168.2357242148728
 30
0.0
  0
VERTEX
  5
14C
330
14A
100
AcDbEntity
  8
RACCORDO
 62
     7
420
 16777215
370
    25
100
AcDbVertex
100
AcDb2dVertex
 10
95.65236005925112
 20
164.2649298352726
 30
0.0
  0
VERTEX
  5
14D
330
14A
100
AcDbEntity
  8
RACCORDO
 62
     7
420
 16777215
370
    25
100
AcDbVertex
100
AcDb2dVertex
 10
95.58388521255118
 20
160.3131013345726
 30
0.0
  0
VERTEX
  5
14E
330
14A
100
AcDbEntity
  8
RACCORDO
 62
     7
420
 16777215
370
    25
100
AcDbVertex
100
AcDb2dVertex
 10
95.53821138235121
 20
156.3806186909727
 30
0.0
  0
VERTEX
  5
14F
330
14A
100
AcDbEntity
  8
RACCORDO
 62
     7
420
 16777215
370
    25
100
AcDbVertex
100
AcDb2dVertex
 10
95.51536596095116
 20
152.4676768702727
 30
0.0
  0
VERTEX
  5
150
330
14A
100
AcDbEntity
  8
RACCORDO
 62
     7
420
 16777215
370
    25
100
AcDbVertex
100
AcDb2dVertex
 10
95.51536597965124
 20
148.5748178171727
 30
0.0
  0
VERTEX
  5
151
330
14A
100
AcDbEntity
  8
RACCORDO
 62
     7
420
 16777215
370
    25
100
AcDbVertex
100
AcDb2dVertex
 10
95.53821143335088
 20
144.7029242199728
 30
0.0
  0
VERTEX
  5
152
330
14A
100
AcDbEntity
  8
RACCORDO
 62
     7
420
 16777215
370
    25
100
AcDbVertex
100
AcDb2dVertex
 10
95.58388527935108
 20
140.8525094415724
 30
0.0
  0
VERTEX
  5
153
330
14A
100
AcDbEntity
  8
RACCORDO
 62
     7
420
 16777215
370
    25
100
AcDbVertex
100
AcDb2dVertex
 10
95.65236011305117
 20
137.0237224804726
 30
0.0
  0
VERTEX
  5
154
330
14A
100
AcDbEntity
  8
RACCORDO
 62
     7
420
 16777215
370
    25
100
AcDbVertex
100
AcDb2dVertex
 10
95.74359773005115
 20
133.2168792278725
 30
0.0
  0
SEQEND
  5
155
330
14A
100
AcDbEntity
  8
RACCORDO
 62
     7
420
 16777215
370
    25
  0
ENDBLK
  5
149
330
146
100
AcDbEntity
  8
0
100
AcDbBlockEnd
  0
BLOCK
  5
158
330
156
100
AcDbEntity
  8
0
100
AcDbBlockBegin
  2
block 17
 70
     0
 10
0.0
 20
0.0
 30
0.0
  3
block 17
  1

  0
POLYLINE
  5
15A
330
156
100
AcDbEntity
  8
RACCORDO
 62
     7
420
 16777215
370
    25
100
AcDb2dPolyline
 66
     1
 10
0.0
 20
0.0
 30
0.0
  0
VERTEX
  5
15B
330
15A
100
AcDbEntity
  8
RACCORDO
 62
     7
420
 16777215
370
    25
100
AcDbVertex
100
AcDb2dVertex
 10
113.921241969451
 20
127.1119960055728
 30
0.0
  0
VERTEX
  5
15C
330
15A
100
AcDbEntity
  8
RACCORDO
 62
     7
420
 16777215
370
    25
100
AcDbVertex
100
AcDb2dVertex
 10
113.8175777127509
 20
130.919723091873
 30
0.0
  0
VERTEX
  5
15D
330
15A
100
AcDbEntity
  8
RACCORDO
 62
     7
420
 16777215
370
    25
100
AcDbVertex
100
AcDb2dVertex
 10
113.7398295162515
 20
134.7476728503728
 30
0.0
  0
VERTEX
  5
15E
330
15A
100
AcDbEntity
  8
RACCORDO
 62
     7
420
 16777215
370
    25
100
AcDbVertex
100
AcDb2dVertex
 10
113.6879973798514
 20
138.5958452809727
 30
0.0
  0
VERTEX
  5
15F
330
15A
100
AcDbEntity
  8
RACCORDO
 62
     7
420
 16777215
370
    25
100
AcDbVertex
100
AcDb2dVertex
 10
113.6620812982513
 20
142.4647703244724
 30
0.0
  0
VERTEX
  5
160
330
15A
100
AcDbEntity
  8
RACCORDO
 62
     7
420
 16777215
370
    25
100
AcDbVertex
100
AcDb2dVertex
 10
113.6620812767512
 20
146.3539180400729
 30
0.0
  0
VERTEX
  5
161
330
15A
100
AcDbEntity
  8
RACCORDO
 62
     7
420
 16777215
370
    25
100
AcDbVertex
100
AcDb2dVertex
 10
113.6879973314512
 20
150.2616986061726
 30
0.0
  0
VERTEX
  5
162
330
15A
100
AcDbEntity
  8
RACCORDO
 62
     7
420
 16777215
370
    25
100
AcDbVertex
100
AcDb2dVertex
 10
113.7398294678514
 20
154.1875820822729
 30
0.0
  0
VERTEX
  5
163
330
15A
100
AcDbEntity
  8
RACCORDO
 62
     7
420
 16777215
370
    25
100
AcDbVertex
100
AcDb2dVertex
 10
113.8175776806512
 20
158.1320984088728
 30
0.0
  0
VERTEX
  5
164
330
15A
100
AcDbEntity
  8
RACCORDO
 62
     7
420
 16777215
370
    25
100
AcDbVertex
100
AcDb2dVertex
 10
113.9212419696512
 20
162.0952475859728
 30
0.0
  0
SEQEND
  5
165
330
15A
100
AcDbEntity
  8
RACCORDO
 62
     7
420
 16777215
370
    25
  0
ENDBLK
  5
159
330
156
100
AcDbEntity
  8
0
100
AcDbBlockEnd
  0
BLOCK
  5
168
330
166
100
AcDbEntity
  8
0
100
AcDbBlockBegin
  2
block 18
 70
     0
 10
0.0
 20
0.0
 30
0.0
  3
block 18
  1

  0
POLYLINE
  5
16A
330
166
100
AcDbEntity
  8
RACCORDO
 62
     7
420
 16777215
370
    25
100
AcDb2dPolyline
 66
     1
 10
0.0
 20
0.0
 30
0.0
  0
VERTEX
  5
16B
330
16A
100
AcDbEntity
  8
RACCORDO
 62
     7
420
 16777215
370
    25
100
AcDbVertex
100
AcDb2dVertex
 10
113.2746763932513
 20
127.016264246573
 30
0.0
  0
VERTEX
  5
16C
330
16A
100
AcDbEntity
  8
RACCORDO
 62
     7
420
 16777215
370
    25
100
AcDbVertex
100
AcDb2dVertex
 10
113.1742872941513
 20
130.826344311773
 30
0.0
  0
VERTEX
  5
16D
330
16A
100
AcDbEntity
  8
RACCORDO
 62
     7
420
 16777215
370
    25
100
AcDbVertex
100
AcDb2dVertex
 10
113.098948834251
 20
134.6575588872727
 30
0.0
  0
VERTEX
  5
16E
330
16A
100
AcDbEntity
  8
RACCORDO
 62
     7
420
 16777215
370
    25
100
AcDbVertex
100
AcDb2dVertex
 10
113.048699230051
 20
138.5095920778725
 30
0.0
  0
VERTEX
  5
16F
330
16A
100
AcDbEntity
  8
RACCORDO
 62
     7
420
 16777215
370
    25
100
AcDbVertex
100
AcDb2dVertex
 10
113.023565893751
 20
142.3822948820727
 30
0.0
  0
VERTEX
  5
170
330
16A
100
AcDbEntity
  8
RACCORDO
 62
     7
420
 16777215
370
    25
100
AcDbVertex
100
AcDb2dVertex
 10
113.0235658726513
 20
146.2751539355728
 30
0.0
  0
VERTEX
  5
171
330
16A
100
AcDbEntity
  8
RACCORDO
 62
     7
420
 16777215
370
    25
100
AcDbVertex
100
AcDb2dVertex
 10
113.0486991736515
 20
150.1872865494726
 30
0.0
  0
VERTEX
  5
172
330
16A
100
AcDbEntity
  8
RACCORDO
 62
     7
420
 16777215
370
    25
100
AcDbVertex
100
AcDb2dVertex
 10
113.0989487620509
 20
154.1181507801727
 30
0.0
  0
VERTEX
  5
173
330
16A
100
AcDbEntity
  8
RACCORDO
 62
     7
420
 16777215
370
    25
100
AcDbVertex
100
AcDb2dVertex
 10
113.1742872367513
 20
158.0675516652726
 30
0.0
  0
VERTEX
  5
174
330
16A
100
AcDbEntity
  8
RACCORDO
 62
     7
420
 16777215
370
    25
100
AcDbVertex
100
AcDb2dVertex
 10
113.2746763932513
 20
162.0351092305727
 30
0.0
  0
SEQEND
  5
175
330
16A
100
AcDbEntity
  8
RACCORDO
 62
     7
420
 16777215
370
    25
  0
ENDBLK
  5
169
330
166
100
AcDbEntity
  8
0
100
AcDbBlockEnd
  0
BLOCK
  5
178
330
176
100
AcDbEntity
  8
0
100
AcDbBlockBegin
  2
block 19
 70
     0
 10
0.0
 20
0.0
 30
0.0
  3
block 19
  1

  0
POLYLINE
  5
17A
330
176
100
AcDbEntity
  8
RACCORDO
 62
     7
420
 16777215
370
    25
100
AcDb2dPolyline
 66
     1
 10
0.0
 20
0.0
 30
0.0
  0
VERTEX
  5
17B
330
17A
100
AcDbEntity
  8
RACCORDO
 62
     7
420
 16777215
370
    25
100
AcDbVertex
100
AcDb2dVertex
 10
113.2746764018514
 20
162.0351092311727
 30
0.0
  0
VERTEX
  5
17C
330
17A
100
AcDbEntity
  8
RACCORDO
 62
     7
420
 16777215
370
    25
100
AcDbVertex
100
AcDb2dVertex
 10
113.2781478236513
 20
162.1085568222726
 30
0.0
  0
VERTEX
  5
17D
330
17A
100
AcDbEntity
  8
RACCORDO
 62
     7
420
 16777215
370
    25
100
AcDbVertex
100
AcDb2dVertex
 10
113.284824502651
 20
162.1841368578729
 30
0.0
  0
VERTEX
  5
17E
330
17A
100
AcDbEntity
  8
RACCORDO
 62
     7
420
 16777215
370
    25
100
AcDbVertex
100
AcDb2dVertex
 10
113.294677698851
 20
162.2614754953731
 30
0.0
  0
VERTEX
  5
17F
330
17A
100
AcDbEntity
  8
RACCORDO
 62
     7
420
 16777215
370
    25
100
AcDbVertex
100
AcDb2dVertex
 10
113.3076730290511
 20
162.3401807966728
 30
0.0
  0
VERTEX
  5
180
330
17A
100
AcDbEntity
  8
RACCORDO
 62
     7
420
 16777215
370
    25
100
AcDbVertex
100
AcDb2dVertex
 10
113.3237453015512
 20
162.4198714362725
 30
0.0
  0
VERTEX
  5
181
330
17A
100
AcDbEntity
  8
RACCORDO
 62
     7
420
 16777215
370
    25
100
AcDbVertex
100
AcDb2dVertex
 10
113.3428009116511
 20
162.5001793141727
 30
0.0
  0
VERTEX
  5
182
330
17A
100
AcDbEntity
  8
RACCORDO
 62
     7
420
 16777215
370
    25
100
AcDbVertex
100
AcDb2dVertex
 10
113.3647651407511
 20
162.5807103889728
 30
0.0
  0
VERTEX
  5
183
330
17A
100
AcDbEntity
  8
RACCORDO
 62
     7
420
 16777215
370
    25
100
AcDbVertex
100
AcDb2dVertex
 10
113.389537810851
 20
162.6610593696726
 30
0.0
  0
VERTEX
  5
184
330
17A
100
AcDbEntity
  8
RACCORDO
 62
     7
420
 16777215
370
    25
100
AcDbVertex
100
AcDb2dVertex
 10
113.416969943751
 20
162.7408389688726
 30
0.0
  0
VERTEX
  5
185
330
17A
100
AcDbEntity
  8
RACCORDO
 62
     7
420
 16777215
370
    25
100
AcDbVertex
100
AcDb2dVertex
 10
113.446947441751
 20
162.8196493220726
 30
0.0
  0
VERTEX
  5
186
330
17A
100
AcDbEntity
  8
RACCORDO
 62
     7
420
 16777215
370
    25
100
AcDbVertex
100
AcDb2dVertex
 10
113.4793366702515
 20
162.8970967732728
 30
0.0
  0
VERTEX
  5
187
330
17A
100
AcDbEntity
  8
RACCORDO
 62
     7
420
 16777215
370
    25
100
AcDbVertex
100
AcDb2dVertex
 10
113.5139426533514
 20
162.9728091843727
 30
0.0
  0
VERTEX
  5
188
330
17A
100
AcDbEntity
  8
RACCORDO
 62
     7
420
 16777215
370
    25
100
AcDbVertex
100
AcDb2dVertex
 10
113.5506202192511
 20
163.0464063261726
 30
0.0
  0
VERTEX
  5
189
330
17A
100
AcDbEntity
  8
RACCORDO
 62
     7
420
 16777215
370
    25
100
AcDbVertex
100
AcDb2dVertex
 10
113.5892052231511
 20
163.1175157714727
 30
0.0
  0
VERTEX
  5
18A
330
17A
100
AcDbEntity
  8
RACCORDO
 62
     7
420
 16777215
370
    25
100
AcDbVertex
100
AcDb2dVertex
 10
113.6294602133512
 20
163.1857921527728
 30
0.0
  0
VERTEX
  5
18B
330
17A
100
AcDbEntity
  8
RACCORDO
 62
     7
420
 16777215
370
    25
100
AcDbVertex
100
AcDb2dVertex
 10
113.6712095549511
 20
163.250885867873
 30
0.0
  0
VERTEX
  5
18C
330
17A
100
AcDbEntity
  8
RACCORDO
 62
     7
420
 16777215
370
    25
100
AcDbVertex
100
AcDb2dVertex
 10
113.7142707569515
 20
163.3124706299728
 30
0.0
  0
VERTEX
  5
18D
330
17A
100
AcDbEntity
  8
RACCORDO
 62
     7
420
 16777215
370
    25
100
AcDbVertex
100
AcDb2dVertex
 10
113.7583861342512
 20
163.3702585984729
 30
0.0
  0
VERTEX
  5
18E
330
17A
100
AcDbEntity
  8
RACCORDO
 62
     7
420
 16777215
370
    25
100
AcDbVertex
100
AcDb2dVertex
 10
113.803339800351
 20
163.4239621838728
 30
0.0
  0
VERTEX
  5
18F
330
17A
100
AcDbEntity
  8
RACCORDO
 62
     7
420
 16777215
370
    25
100
AcDbVertex
100
AcDb2dVertex
 10
113.8489582382515
 20
163.4732964635728
 30
0.0
  0
VERTEX
  5
190
330
17A
100
AcDbEntity
  8
RACCORDO
 62
     7
420
 16777215
370
    25
100
AcDbVertex
100
AcDb2dVertex
 10
113.8950416862511
 20
163.5180064138726
 30
0.0
  0
SEQEND
  5
191
330
17A
100
AcDbEntity
  8
RACCORDO
 62
     7
420
 16777215
370
    25
  0
ENDBLK
  5
179
330
176
100
AcDbEntity
  8
0
100
AcDbBlockEnd
  0
BLOCK
  5
194
330
192
100
AcDbEntity
  8
0
100
AcDbBlockBegin
  2
block 20
 70
     0
 10
0.0
 20
0.0
 30
0.0
  3
block 20
  1

  0
POLYLINE
  5
196
330
192
100
AcDbEntity
  8
RACCORDO
 62
     7
420
 16777215
370
    25
100
AcDb2dPolyline
 66
     1
 10
0.0
 20
0.0
 30
0.0
  0
VERTEX
  5
197
330
196
100
AcDbEntity
  8
RACCORDO
 62
     7
420
 16777215
370
    25
100
AcDbVertex
100
AcDb2dVertex
 10
113.9212419696512
 20
162.0952475859728
 30
0.0
  0
VERTEX
  5
198
330
196
100
AcDbEntity
  8
RACCORDO
 62
     7
420
 16777215
370
    25
100
AcDbVertex
100
AcDb2dVertex
 10
113.9235154301514
 20
162.1381635070726
 30
0.0
  0
VERTEX
  5
199
330
196
100
AcDbEntity
  8
RACCORDO
 62
     7
420
 16777215
370
    25
100
AcDbVertex
100
AcDb2dVertex
 10
113.9277669272513
 20
162.1819058301728
 30
0.0
  0
VERTEX
  5
19A
330
196
100
AcDbEntity
  8
RACCORDO
 62
     7
420
 16777215
370
    25
100
AcDbVertex
100
AcDb2dVertex
 10
113.9339964609511
 20
162.2264745551726
 30
0.0
  0
VERTEX
  5
19B
330
196
100
AcDbEntity
  8
RACCORDO
 62
     7
420
 16777215
370
    25
100
AcDbVertex
100
AcDb2dVertex
 10
113.9422532871513
 20
162.2721148046727
 30
0.0
  0
VERTEX
  5
19C
330
196
100
AcDbEntity
  8
RACCORDO
 62
     7
420
 16777215
370
    25
100
AcDbVertex
100
AcDb2dVertex
 10
113.9524881500509
 20
162.3185814561728
 30
0.0
  0
VERTEX
  5
19D
330
196
100
AcDbEntity
  8
RACCORDO
 62
     7
420
 16777215
370
    25
100
AcDbVertex
100
AcDb2dVertex
 10
113.9645532813511
 20
162.3651391422727
 30
0.0
  0
VERTEX
  5
19E
330
196
100
AcDbEntity
  8
RACCORDO
 62
     7
420
 16777215
370
    25
100
AcDbVertex
100
AcDb2dVertex
 10
113.9784751095513
 20
162.4117720087729
 30
0.0
  0
VERTEX
  5
19F
330
196
100
AcDbEntity
  8
RACCORDO
 62
     7
420
 16777215
370
    25
100
AcDbVertex
100
AcDb2dVertex
 10
113.9942272061515
 20
162.4584959098728
 30
0.0
  0
VERTEX
  5
1A0
330
196
100
AcDbEntity
  8
RACCORDO
 62
     7
420
 16777215
370
    25
100
AcDbVertex
100
AcDb2dVertex
 10
114.011582518751
 20
162.5046230412727
 30
0.0
  0
VERTEX
  5
1A1
330
196
100
AcDbEntity
  8
RACCORDO
 62
     7
420
 16777215
370
    25
100
AcDbVertex
100
AcDb2dVertex
 10
114.0305667038513
 20
162.5501477839726
 30
0.0
  0
VERTEX
  5
1A2
330
196
100
AcDbEntity
  8
RACCORDO
 62
     7
420
 16777215
370
    25
100
AcDbVertex
100
AcDb2dVertex
 10
114.051154104951
 20
162.5950757570727
 30
0.0
  0
VERTEX
  5
1A3
330
196
100
AcDbEntity
  8
RACCORDO
 62
     7
420
 16777215
370
    25
100
AcDbVertex
100
AcDb2dVertex
 10
114.0730406999512
 20
162.6387360138726
 30
0.0
  0
VERTEX
  5
1A4
330
196
100
AcDbEntity
  8
RACCORDO
 62
     7
420
 16777215
370
    25
100
AcDbVertex
100
AcDb2dVertex
 10
114.0962457227512
 20
162.6811079409728
 30
0.0
  0
VERTEX
  5
1A5
330
196
100
AcDbEntity
  8
RACCORDO
 62
     7
420
 16777215
370
    25
100
AcDbVertex
100
AcDb2dVertex
 10
114.1207499395512
 20
162.7222121518729
 30
0.0
  0
VERTEX
  5
1A6
330
196
100
AcDbEntity
  8
RACCORDO
 62
     7
420
 16777215
370
    25
100
AcDbVertex
100
AcDb2dVertex
 10
114.1461916269512
 20
162.7614395395725
 30
0.0
  0
VERTEX
  5
1A7
330
196
100
AcDbEntity
  8
RACCORDO
 62
     7
420
 16777215
370
    25
100
AcDbVertex
100
AcDb2dVertex
 10
114.1725984660511
 20
162.7987737030728
 30
0.0
  0
VERTEX
  5
1A8
330
196
100
AcDbEntity
  8
RACCORDO
 62
     7
420
 16777215
370
    25
100
AcDbVertex
100
AcDb2dVertex
 10
114.1999427756509
 20
162.8342310433727
 30
0.0
  0
VERTEX
  5
1A9
330
196
100
AcDbEntity
  8
RACCORDO
 62
     7
420
 16777215
370
    25
100
AcDbVertex
100
AcDb2dVertex
 10
114.2277797891515
 20
162.8672516572726
 30
0.0
  0
VERTEX
  5
1AA
330
196
100
AcDbEntity
  8
RACCORDO
 62
     7
420
 16777215
370
    25
100
AcDbVertex
100
AcDb2dVertex
 10
114.2559612508515
 20
162.8976489102727
 30
0.0
  0
VERTEX
  5
1AB
330
196
100
AcDbEntity
  8
RACCORDO
 62
     7
420
 16777215
370
    25
100
AcDbVertex
100
AcDb2dVertex
 10
114.2846354163509
 20
162.9256094367729
 30
0.0
  0
VERTEX
  5
1AC
330
196
100
AcDbEntity
  8
RACCORDO
 62
     7
420
 16777215
370
    25
100
AcDbVertex
100
AcDb2dVertex
 10
114.3138022857511
 20
162.9511332367729
 30
0.0
  0
SEQEND
  5
1AD
330
196
100
AcDbEntity
  8
RACCORDO
 62
     7
420
 16777215
370
    25
  0
ENDBLK
  5
195
330
192
100
AcDbEntity
  8
0
100
AcDbBlockEnd
  0
BLOCK
  5
1B0
330
1AE
100
AcDbEntity
  8
0
100
AcDbBlockBegin
  2
block 21
 70
     0
 10
0.0
 20
0.0
 30
0.0
  3
block 21
  1

  0
POLYLINE
  5
1B2
330
1AE
100
AcDbEntity
  8
RACCORDO
 62
     7
420
 16777215
370
    25
100
AcDb2dPolyline
 66
     1
 10
0.0
 20
0.0
 30
0.0
  0
VERTEX
  5
1B3
330
1B2
100
AcDbEntity
  8
RACCORDO
 62
     7
420
 16777215
370
    25
100
AcDbVertex
100
AcDb2dVertex
 10
95.7435977328512
 20
168.2357242543725
 30
0.0
  0
VERTEX
  5
1B4
330
1B2
100
AcDbEntity
  8
RACCORDO
 62
     7
420
 16777215
370
    25
100
AcDbVertex
100
AcDb2dVertex
 10
95.70650224455139
 20
168.2522443754729
 30
0.0
  0
VERTEX
  5
1B5
330
1B2
100
AcDbEntity
  8
RACCORDO
 62
     7
420
 16777215
370
    25
100
AcDbVertex
100
AcDb2dVertex
 10
95.67255453215107
 20
168.2704688030728
 30
0.0
  0
VERTEX
  5
1B6
330
1B2
100
AcDbEntity
  8
RACCORDO
 62
     7
420
 16777215
370
    25
100
AcDbVertex
100
AcDb2dVertex
 10
95.64207088935127
 20
168.2902277385728
 30
0.0
  0
VERTEX
  5
1B7
330
1B2
100
AcDbEntity
  8
RACCORDO
 62
     7
420
 16777215
370
    25
100
AcDbVertex
100
AcDb2dVertex
 10
95.61533533475117
 20
168.3113370862726
 30
0.0
  0
VERTEX
  5
1B8
330
1B2
100
AcDbEntity
  8
RACCORDO
 62
     7
420
 16777215
370
    25
100
AcDbVertex
100
AcDb2dVertex
 10
95.59259696575143
 20
168.3336001687728
 30
0.0
  0
VERTEX
  5
1B9
330
1B2
100
AcDbEntity
  8
RACCORDO
 62
     7
420
 16777215
370
    25
100
AcDbVertex
100
AcDb2dVertex
 10
95.57406763755124
 20
168.3568095589727
 30
0.0
  0
VERTEX
  5
1BA
330
1B2
100
AcDbEntity
  8
RACCORDO
 62
     7
420
 16777215
370
    25
100
AcDbVertex
100
AcDb2dVertex
 10
95.55991998955125
 20
168.3807490131728
 30
0.0
  0
VERTEX
  5
1BB
330
1B2
100
AcDbEntity
  8
RACCORDO
 62
     7
420
 16777215
370
    25
100
AcDbVertex
100
AcDb2dVertex
 10
95.5502858363516
 20
168.4051954853731
 30
0.0
  0
VERTEX
  5
1BC
330
1B2
100
AcDbEntity
  8
RACCORDO
 62
     7
420
 16777215
370
    25
100
AcDbVertex
100
AcDb2dVertex
 10
95.54525494035147
 20
168.4299212057726
 30
0.0
  0
VERTEX
  5
1BD
330
1B2
100
AcDbEntity
  8
RACCORDO
 62
     7
420
 16777215
370
    25
100
AcDbVertex
100
AcDb2dVertex
 10
95.54450065345122
 20
168.4473414571727
 30
0.0
  0
SEQEND
  5
1BE
330
1B2
100
AcDbEntity
  8
RACCORDO
 62
     7
420
 16777215
370
    25
  0
ENDBLK
  5
1B1
330
1AE
100
AcDbEntity
  8
0
100
AcDbBlockEnd
  0
BLOCK
  5
1C1
330
1BF
100
AcDbEntity
  8
0
100
AcDbBlockBegin
  2
block 22
 70
     0
 10
0.0
 20
0.0
 30
0.0
  3
block 22
  1

  0
POLYLINE
  5
1C3
330
1BF
100
AcDbEntity
  8
RACCORDO
 62
     7
420
 16777215
370
    25
100
AcDb2dPolyline
 66
     1
 10
0.0
 20
0.0
 30
0.0
  0
VERTEX
  5
1C4
330
1C3
100
AcDbEntity
  8
RACCORDO
 62
     7
420
 16777215
370
    25
100
AcDbVertex
100
AcDb2dVertex
 10
113.2746821274515
 20
162.0351144748728
 30
0.0
  0
VERTEX
  5
1C5
330
1C3
100
AcDbEntity
  8
RACCORDO
 62
     7
420
 16777215
370
    25
100
AcDbVertex
100
AcDb2dVertex
 10
113.3179725871513
 20
162.0232024996731
 30
0.0
  0
VERTEX
  5
1C6
330
1C3
100
AcDbEntity
  8
RACCORDO
 62
     7
420
 16777215
370
    25
100
AcDbVertex
100
AcDb2dVertex
 10
113.3631149285513
 20
162.0134531087726
 30
0.0
  0
VERTEX
  5
1C7
330
1C3
100
AcDbEntity
  8
RACCORDO
 62
     7
420
 16777215
370
    25
100
AcDbVertex
100
AcDb2dVertex
 10
113.4096885644512
 20
162.0059571362727
 30
0.0
  0
VERTEX
  5
1C8
330
1C3
100
AcDbEntity
  8
RACCORDO
 62
     7
420
 16777215
370
    25
100
AcDbVertex
100
AcDb2dVertex
 10
113.4572595719515
 20
162.0007844217731
 30
0.0
  0
VERTEX
  5
1C9
330
1C3
100
AcDbEntity
  8
RACCORDO
 62
     7
420
 16777215
370
    25
100
AcDbVertex
100
AcDb2dVertex
 10
113.505384735951
 20
161.9979831587728
 30
0.0
  0
VERTEX
  5
1CA
330
1C3
100
AcDbEntity
  8
RACCORDO
 62
     7
420
 16777215
370
    25
100
AcDbVertex
100
AcDb2dVertex
 10
113.5536156782511
 20
161.9975794462727
 30
0.0
  0
VERTEX
  5
1CB
330
1C3
100
AcDbEntity
  8
RACCORDO
 62
     7
420
 16777215
370
    25
100
AcDbVertex
100
AcDb2dVertex
 10
113.6015030353514
 20
161.9995770456726
 30
0.0
  0
VERTEX
  5
1CC
330
1C3
100
AcDbEntity
  8
RACCORDO
 62
     7
420
 16777215
370
    25
100
AcDbVertex
100
AcDb2dVertex
 10
113.6486006445513
 20
162.0039573453728
 30
0.0
  0
VERTEX
  5
1CD
330
1C3
100
AcDbEntity
  8
RACCORDO
 62
     7
420
 16777215
370
    25
100
AcDbVertex
100
AcDb2dVertex
 10
113.6944697013511
 20
162.0106795345728
 30
0.0
  0
VERTEX
  5
1CE
330
1C3
100
AcDbEntity
  8
RACCORDO
 62
     7
420
 16777215
370
    25
100
AcDbVertex
100
AcDb2dVertex
 10
113.7386828476513
 20
162.0196809831727
 30
0.0
  0
VERTEX
  5
1CF
330
1C3
100
AcDbEntity
  8
RACCORDO
 62
     7
420
 16777215
370
    25
100
AcDbVertex
100
AcDb2dVertex
 10
113.7808281531511
 20
162.0308778254726
 30
0.0
  0
VERTEX
  5
1D0
330
1C3
100
AcDbEntity
  8
RACCORDO
 62
     7
420
 16777215
370
    25
100
AcDbVertex
100
AcDb2dVertex
 10
113.820512953651
 20
162.0441657412727
 30
0.0
  0
VERTEX
  5
1D1
330
1C3
100
AcDbEntity
  8
RACCORDO
 62
     7
420
 16777215
370
    25
100
AcDbVertex
100
AcDb2dVertex
 10
113.8573675090513
 20
162.0594209283726
 30
0.0
  0
VERTEX
  5
1D2
330
1C3
100
AcDbEntity
  8
RACCORDO
 62
     7
420
 16777215
370
    25
100
AcDbVertex
100
AcDb2dVertex
 10
113.8910484484509
 20
162.0765012552729
 30
0.0
  0
VERTEX
  5
1D3
330
1C3
100
AcDbEntity
  8
RACCORDO
 62
     7
420
 16777215
370
    25
100
AcDbVertex
100
AcDb2dVertex
 10
113.9212419695511
 20
162.0952475859728
 30
0.0
  0
SEQEND
  5
1D4
330
1C3
100
AcDbEntity
  8
RACCORDO
 62
     7
420
 16777215
370
    25
  0
ENDBLK
  5
1C2
330
1BF
100
AcDbEntity
  8
0
100
AcDbBlockEnd
  0
BLOCK
  5
1D7
330
1D5
100
AcDbEntity
  8
0
100
AcDbBlockBegin
  2
block 23
 70
     0
 10
0.0
 20
0.0
 30
0.0
  3
block 23
  1

  0
POLYLINE
  5
1D9
330
1D5
100
AcDbEntity
  8
RACCORDO
 62
     7
420
 16777215
370
    25
100
AcDb2dPolyline
 66
     1
 10
0.0
 20
0.0
 30
0.0
  0
VERTEX
  5
1DA
330
1D9
100
AcDbEntity
  8
RACCORDO
 62
     7
420
 16777215
370
    25
100
AcDbVertex
100
AcDb2dVertex
 10
95.74359773005115
 20
168.2357242148728
 30
0.0
  0
VERTEX
  5
1DB
330
1D9
100
AcDbEntity
  8
RACCORDO
 62
     7
420
 16777215
370
    25
100
AcDbVertex
100
AcDb2dVertex
 10
96.28621565775133
 20
168.013130839673
 30
0.0
  0
VERTEX
  5
1DC
330
1D9
100
AcDbEntity
  8
RACCORDO
 62
     7
420
 16777215
370
    25
100
AcDbVertex
100
AcDb2dVertex
 10
96.83043612905131
 20
167.7920342876727
 30
0.0
  0
VERTEX
  5
1DD
330
1D9
100
AcDbEntity
  8
RACCORDO
 62
     7
420
 16777215
370
    25
100
AcDbVertex
100
AcDb2dVertex
 10
97.37624675925107
 20
167.5724372313727
 30
0.0
  0
VERTEX
  5
1DE
330
1D9
100
AcDbEntity
  8
RACCORDO
 62
     7
420
 16777215
370
    25
100
AcDbVertex
100
AcDb2dVertex
 10
97.9235039342511
 20
167.3543943738728
 30
0.0
  0
VERTEX
  5
1DF
330
1D9
100
AcDbEntity
  8
RACCORDO
 62
     7
420
 16777215
370
    25
100
AcDbVertex
100
AcDb2dVertex
 10
98.47232566785136
 20
167.1378556342727
 30
0.0
  0
VERTEX
  5
1E0
330
1D9
100
AcDbEntity
  8
RACCORDO
 62
     7
420
 16777215
370
    25
100
AcDbVertex
100
AcDb2dVertex
 10
99.02309579135115
 20
166.9226693253728
 30
0.0
  0
VERTEX
  5
1E1
330
1D9
100
AcDbEntity
  8
RACCORDO
 62
     7
420
 16777215
370
    25
100
AcDbVertex
100
AcDb2dVertex
 10
99.57600057585107
 20
166.7087655899726
 30
0.0
  0
VERTEX
  5
1E2
330
1D9
100
AcDbEntity
  8
RACCORDO
 62
     7
420
 16777215
370
    25
100
AcDbVertex
100
AcDb2dVertex
 10
100.1308373295513
 20
166.4962258447726
 30
0.0
  0
VERTEX
  5
1E3
330
1D9
100
AcDbEntity
  8
RACCORDO
 62
     7
420
 16777215
370
    25
100
AcDbVertex
100
AcDb2dVertex
 10
100.6874082840511
 20
166.2851267067728
 30
0.0
  0
VERTEX
  5
1E4
330
1D9
100
AcDbEntity
  8
RACCORDO
 62
     7
420
 16777215
370
    25
100
AcDbVertex
100
AcDb2dVertex
 10
101.2456406910514
 20
166.0754952673726
 30
0.0
  0
VERTEX
  5
1E5
330
1D9
100
AcDbEntity
  8
RACCORDO
 62
     7
420
 16777215
370
    25
100
AcDbVertex
100
AcDb2dVertex
 10
101.8055854804511
 20
165.8673118623727
 30
0.0
  0
VERTEX
  5
1E6
330
1D9
100
AcDbEntity
  8
RACCORDO
 62
     7
420
 16777215
370
    25
100
AcDbVertex
100
AcDb2dVertex
 10
102.3672285582512
 20
165.6605815326726
 30
0.0
  0
VERTEX
  5
1E7
330
1D9
100
AcDbEntity
  8
RACCORDO
 62
     7
420
 16777215
370
    25
100
AcDbVertex
100
AcDb2dVertex
 10
102.9306479806511
 20
165.4552759129726
 30
0.0
  0
VERTEX
  5
1E8
330
1D9
100
AcDbEntity
  8
RACCORDO
 62
     7
420
 16777215
370
    25
100
AcDbVertex
100
AcDb2dVertex
 10
103.4957446487511
 20
165.2514313997727
 30
0.0
  0
VERTEX
  5
1E9
330
1D9
100
AcDbEntity
  8
RACCORDO
 62
     7
420
 16777215
370
    25
100
AcDbVertex
100
AcDb2dVertex
 10
104.0622362468514
 20
165.0491481267728
 30
0.0
  0
VERTEX
  5
1EA
330
1D9
100
AcDbEntity
  8
RACCORDO
 62
     7
420
 16777215
370
    25
100
AcDbVertex
100
AcDb2dVertex
 10
104.6297638885511
 20
164.8485493226726
 30
0.0
  0
VERTEX
  5
1EB
330
1D9
100
AcDbEntity
  8
RACCORDO
 62
     7
420
 16777215
370
    25
100
AcDbVertex
100
AcDb2dVertex
 10
105.1986577910511
 20
164.6495133543727
 30
0.0
  0
VERTEX
  5
1EC
330
1D9
100
AcDbEntity
  8
RACCORDO
 62
     7
420
 16777215
370
    25
100
AcDbVertex
100
AcDb2dVertex
 10
105.7696735104512
 20
164.4517766221728
 30
0.0
  0
VERTEX
  5
1ED
330
1D9
100
AcDbEntity
  8
RACCORDO
 62
     7
420
 16777215
370
    25
100
AcDbVertex
100
AcDb2dVertex
 10
106.3416917713514
 20
164.2557245962726
 30
0.0
  0
VERTEX
  5
1EE
330
1D9
100
AcDbEntity
  8
RACCORDO
 62
     7
420
 16777215
370
    25
100
AcDbVertex
100
AcDb2dVertex
 10
106.915811675151
 20
164.0609804574728
 30
0.0
  0
VERTEX
  5
1EF
330
1D9
100
AcDbEntity
  8
RACCORDO
 62
     7
420
 16777215
370
    25
100
AcDbVertex
100
AcDb2dVertex
 10
107.4961579618509
 20
163.8661732575727
 30
0.0
  0
VERTEX
  5
1F0
330
1D9
100
AcDbEntity
  8
RACCORDO
 62
     7
420
 16777215
370
    25
100
AcDbVertex
100
AcDb2dVertex
 10
108.0817514928512
 20
163.6716712629727
 30
0.0
  0
VERTEX
  5
1F1
330
1D9
100
AcDbEntity
  8
RACCORDO
 62
     7
420
 16777215
370
    25
100
AcDbVertex
100
AcDb2dVertex
 10
108.6736210304512
 20
163.4771773020725
 30
0.0
  0
VERTEX
  5
1F2
330
1D9
100
AcDbEntity
  8
RACCORDO
 62
     7
420
 16777215
370
    25
100
AcDbVertex
100
AcDb2dVertex
 10
109.2789985003512
 20
163.2804075613727
 30
0.0
  0
VERTEX
  5
1F3
330
1D9
100
AcDbEntity
  8
RACCORDO
 62
     7
420
 16777215
370
    25
100
AcDbVertex
100
AcDb2dVertex
 10
109.8981872416511
 20
163.0813851819727
 30
0.0
  0
VERTEX
  5
1F4
330
1D9
100
AcDbEntity
  8
RACCORDO
 62
     7
420
 16777215
370
    25
100
AcDbVertex
100
AcDb2dVertex
 10
110.5310623064512
 20
162.8802804063729
 30
0.0
  0
VERTEX
  5
1F5
330
1D9
100
AcDbEntity
  8
RACCORDO
 62
     7
420
 16777215
370
    25
100
AcDbVertex
100
AcDb2dVertex
 10
111.184331739351
 20
162.6751403310728
 30
0.0
  0
VERTEX
  5
1F6
330
1D9
100
AcDbEntity
  8
RACCORDO
 62
     7
420
 16777215
370
    25
100
AcDbVertex
100
AcDb2dVertex
 10
111.8603566517511
 20
162.4654440879728
 30
0.0
  0
VERTEX
  5
1F7
330
1D9
100
AcDbEntity
  8
RACCORDO
 62
     7
420
 16777215
370
    25
100
AcDbVertex
100
AcDb2dVertex
 10
112.557087542351
 20
162.2520444532726
 30
0.0
  0
VERTEX
  5
1F8
330
1D9
100
AcDbEntity
  8
RACCORDO
 62
     7
420
 16777215
370
    25
100
AcDbVertex
100
AcDb2dVertex
 10
113.2746763932513
 20
162.0351092305727
 30
0.0
  0
SEQEND
  5
1F9
330
1D9
100
AcDbEntity
  8
RACCORDO
 62
     7
420
 16777215
370
    25
  0
ENDBLK
  5
1D8
330
1D5
100
AcDbEntity
  8
0
100
AcDbBlockEnd
  0
BLOCK
  5
1FC
330
1FA
100
AcDbEntity
  8
0
100
AcDbBlockBegin
  2
block 24
 70
     0
 10
0.0
 20
0.0
 30
0.0
  3
block 24
  1

  0
POLYLINE
  5
1FE
330
1FA
100
AcDbEntity
  8
RACCORDO
 62
     7
420
 16777215
370
    25
100
AcDb2dPolyline
 66
     1
 10
0.0
 20
0.0
 30
0.0
  0
VERTEX
  5
1FF
330
1FE
100
AcDbEntity
  8
RACCORDO
 62
     7
420
 16777215
370
    25
100
AcDbVertex
100
AcDb2dVertex
 10
96.36403185465102
 20
169.7185970639727
 30
0.0
  0
VERTEX
  5
200
330
1FE
100
AcDbEntity
  8
RACCORDO
 62
     7
420
 16777215
370
    25
100
AcDbVertex
100
AcDb2dVertex
 10
96.90629550625108
 20
169.4945955959728
 30
0.0
  0
VERTEX
  5
201
330
1FE
100
AcDbEntity
  8
RACCORDO
 62
     7
420
 16777215
370
    25
100
AcDbVertex
100
AcDb2dVertex
 10
97.45008233485154
 20
169.2722194790727
 30
0.0
  0
VERTEX
  5
202
330
1FE
100
AcDbEntity
  8
RACCORDO
 62
     7
420
 16777215
370
    25
100
AcDbVertex
100
AcDb2dVertex
 10
97.99539234065101
 20
169.0514687131731
 30
0.0
  0
VERTEX
  5
203
330
1FE
100
AcDbEntity
  8
RACCORDO
 62
     7
420
 16777215
370
    25
100
AcDbVertex
100
AcDb2dVertex
 10
98.54206618405114
 20
168.8324066545728
 30
0.0
  0
VERTEX
  5
204
330
1FE
100
AcDbEntity
  8
RACCORDO
 62
     7
420
 16777215
370
    25
100
AcDbVertex
100
AcDb2dVertex
 10
99.0902632045511
 20
168.6149699469728
 30
0.0
  0
VERTEX
  5
205
330
1FE
100
AcDbEntity
  8
RACCORDO
 62
     7
420
 16777215
370
    25
100
AcDbVertex
100
AcDb2dVertex
 10
99.64046142095107
 20
168.3989685219725
 30
0.0
  0
VERTEX
  5
206
330
1FE
100
AcDbEntity
  8
RACCORDO
 62
     7
420
 16777215
370
    25
100
AcDbVertex
100
AcDb2dVertex
 10
100.1929144529512
 20
168.1843015406728
 30
0.0
  0
VERTEX
  5
207
330
1FE
100
AcDbEntity
  8
RACCORDO
 62
     7
420
 16777215
370
    25
100
AcDbVertex
100
AcDb2dVertex
 10
100.7473686807513
 20
167.9710698419727
 30
0.0
  0
VERTEX
  5
208
330
1FE
100
AcDbEntity
  8
RACCORDO
 62
     7
420
 16777215
370
    25
100
AcDbVertex
100
AcDb2dVertex
 10
101.3035412638511
 20
167.7593858740727
 30
0.0
  0
VERTEX
  5
209
330
1FE
100
AcDbEntity
  8
RACCORDO
 62
     7
420
 16777215
370
    25
100
AcDbVertex
100
AcDb2dVertex
 10
101.8613389011512
 20
167.5492868810728
 30
0.0
  0
VERTEX
  5
20A
330
1FE
100
AcDbEntity
  8
RACCORDO
 62
     7
420
 16777215
370
    25
100
AcDbVertex
100
AcDb2dVertex
 10
102.4208548936514
 20
167.3407356188731
 30
0.0
  0
VERTEX
  5
20B
330
1FE
100
AcDbEntity
  8
RACCORDO
 62
     7
420
 16777215
370
    25
100
AcDbVertex
100
AcDb2dVertex
 10
102.9820863044513
 20
167.1337328033729
 30
0.0
  0
VERTEX
  5
20C
330
1FE
100
AcDbEntity
  8
RACCORDO
 62
     7
420
 16777215
370
    25
100
AcDbVertex
100
AcDb2dVertex
 10
103.5451346636514
 20
166.9282432164726
 30
0.0
  0
VERTEX
  5
20D
330
1FE
100
AcDbEntity
  8
RACCORDO
 62
     7
420
 16777215
370
    25
100
AcDbVertex
100
AcDb2dVertex
 10
104.1098984410512
 20
166.7243020763728
 30
0.0
  0
VERTEX
  5
20E
330
1FE
100
AcDbEntity
  8
RACCORDO
 62
     7
420
 16777215
370
    25
100
AcDbVertex
100
AcDb2dVertex
 10
104.6760701083513
 20
166.5220157534727
 30
0.0
  0
VERTEX
  5
20F
330
1FE
100
AcDbEntity
  8
RACCORDO
 62
     7
420
 16777215
370
    25
100
AcDbVertex
100
AcDb2dVertex
 10
105.2433187142513
 20
166.3214989160726
 30
0.0
  0
VERTEX
  5
210
330
1FE
100
AcDbEntity
  8
RACCORDO
 62
     7
420
 16777215
370
    25
100
AcDbVertex
100
AcDb2dVertex
 10
105.8119752099514
 20
166.1226368959728
 30
0.0
  0
VERTEX
  5
211
330
1FE
100
AcDbEntity
  8
RACCORDO
 62
     7
420
 16777215
370
    25
100
AcDbVertex
100
AcDb2dVertex
 10
106.3827249211514
 20
165.9251920588725
 30
0.0
  0
VERTEX
  5
212
330
1FE
100
AcDbEntity
  8
RACCORDO
 62
     7
420
 16777215
370
    25
100
AcDbVertex
100
AcDb2dVertex
 10
106.9543677587514
 20
165.729540299873
 30
0.0
  0
VERTEX
  5
213
330
1FE
100
AcDbEntity
  8
RACCORDO
 62
     7
420
 16777215
370
    25
100
AcDbVertex
100
AcDb2dVertex
 10
107.5281038117511
 20
165.5353057238727
 30
0.0
  0
VERTEX
  5
214
330
1FE
100
AcDbEntity
  8
RACCORDO
 62
     7
420
 16777215
370
    25
100
AcDbVertex
100
AcDb2dVertex
 10
108.1082186730511
 20
165.3411230110726
 30
0.0
  0
VERTEX
  5
215
330
1FE
100
AcDbEntity
  8
RACCORDO
 62
     7
420
 16777215
370
    25
100
AcDbVertex
100
AcDb2dVertex
 10
108.6936179762513
 20
165.1472676639726
 30
0.0
  0
VERTEX
  5
216
330
1FE
100
AcDbEntity
  8
RACCORDO
 62
     7
420
 16777215
370
    25
100
AcDbVertex
100
AcDb2dVertex
 10
109.2853960876511
 20
164.9534641801729
 30
0.0
  0
VERTEX
  5
217
330
1FE
100
AcDbEntity
  8
RACCORDO
 62
     7
420
 16777215
370
    25
100
AcDbVertex
100
AcDb2dVertex
 10
109.8911216997514
 20
164.7575207324729
 30
0.0
  0
VERTEX
  5
218
330
1FE
100
AcDbEntity
  8
RACCORDO
 62
     7
420
 16777215
370
    25
100
AcDbVertex
100
AcDb2dVertex
 10
110.5110387686512
 20
164.5592448872728
 30
0.0
  0
VERTEX
  5
219
330
1FE
100
AcDbEntity
  8
RACCORDO
 62
     7
420
 16777215
370
    25
100
AcDbVertex
100
AcDb2dVertex
 10
111.144903338251
 20
164.3588290781731
 30
0.0
  0
VERTEX
  5
21A
330
1FE
100
AcDbEntity
  8
RACCORDO
 62
     7
420
 16777215
370
    25
100
AcDbVertex
100
AcDb2dVertex
 10
111.7995522323509
 20
164.1546587788727
 30
0.0
  0
VERTEX
  5
21B
330
1FE
100
AcDbEntity
  8
RACCORDO
 62
     7
420
 16777215
370
    25
100
AcDbVertex
100
AcDb2dVertex
 10
112.4772643924511
 20
163.9461958140726
 30
0.0
  0
VERTEX
  5
21C
330
1FE
100
AcDbEntity
  8
RACCORDO
 62
     7
420
 16777215
370
    25
100
AcDbVertex
100
AcDb2dVertex
 10
113.1757608770509
 20
163.7339783590728
 30
0.0
  0
VERTEX
  5
21D
330
1FE
100
AcDbEntity
  8
RACCORDO
 62
     7
420
 16777215
370
    25
100
AcDbVertex
100
AcDb2dVertex
 10
113.8950416863512
 20
163.5180064139727
 30
0.0
  0
SEQEND
  5
21E
330
1FE
100
AcDbEntity
  8
RACCORDO
 62
     7
420
 16777215
370
    25
  0
ENDBLK
  5
1FD
330
1FA
100
AcDbEntity
  8
0
100
AcDbBlockEnd
  0
BLOCK
  5
221
330
21F
100
AcDbEntity
  8
0
100
AcDbBlockBegin
  2
block 25
 70
     0
 10
0.0
 20
0.0
 30
0.0
  3
block 25
  1

  0
POLYLINE
  5
223
330
21F
100
AcDbEntity
  8
RACCORDO
 62
     7
420
 16777215
370
    25
100
AcDb2dPolyline
 66
     1
 10
0.0
 20
0.0
 30
0.0
  0
VERTEX
  5
224
330
223
100
AcDbEntity
  8
RACCORDO
 62
     7
420
 16777215
370
    25
100
AcDbVertex
100
AcDb2dVertex
 10
96.36403185455123
 20
169.7185970639727
 30
0.0
  0
VERTEX
  5
225
330
223
100
AcDbEntity
  8
RACCORDO
 62
     7
420
 16777215
370
    25
100
AcDbVertex
100
AcDb2dVertex
 10
96.31892943435122
 20
169.7304680406727
 30
0.0
  0
VERTEX
  5
226
330
223
100
AcDbEntity
  8
RACCORDO
 62
     7
420
 16777215
370
    25
100
AcDbVertex
100
AcDb2dVertex
 10
96.27447512855112
 20
169.7377677233727
 30
0.0
  0
VERTEX
  5
227
330
223
100
AcDbEntity
  8
RACCORDO
 62
     7
420
 16777215
370
    25
100
AcDbVertex
100
AcDb2dVertex
 10
96.2311543005511
 20
169.7404164306728
 30
0.0
  0
VERTEX
  5
228
330
223
100
AcDbEntity
  8
RACCORDO
 62
     7
420
 16777215
370
    25
100
AcDbVertex
100
AcDb2dVertex
 10
96.18943992145134
 20
169.7383852605728
 30
0.0
  0
VERTEX
  5
229
330
223
100
AcDbEntity
  8
RACCORDO
 62
     7
420
 16777215
370
    25
100
AcDbVertex
100
AcDb2dVertex
 10
96.14978744745109
 20
169.7316964075727
 30
0.0
  0
VERTEX
  5
22A
330
223
100
AcDbEntity
  8
RACCORDO
 62
     7
420
 16777215
370
    25
100
AcDbVertex
100
AcDb2dVertex
 10
96.11262984035137
 20
169.7204229345726
 30
0.0
  0
VERTEX
  5
22B
330
223
100
AcDbEntity
  8
RACCORDO
 62
     7
420
 16777215
370
    25
100
AcDbVertex
100
AcDb2dVertex
 10
96.0783727820513
 20
169.7046879632726
 30
0.0
  0
VERTEX
  5
22C
330
223
100
AcDbEntity
  8
RACCORDO
 62
     7
420
 16777215
370
    25
100
AcDbVertex
100
AcDb2dVertex
 10
96.04739026655128
 20
169.6846633190728
 30
0.0
  0
VERTEX
  5
22D
330
223
100
AcDbEntity
  8
RACCORDO
 62
     7
420
 16777215
370
    25
100
AcDbVertex
100
AcDb2dVertex
 10
96.02002054915137
 20
169.6605676721731
 30
0.0
  0
SEQEND
  5
22E
330
223
100
AcDbEntity
  8
RACCORDO
 62
     7
420
 16777215
370
    25
  0
ENDBLK
  5
222
330
21F
100
AcDbEntity
  8
0
100
AcDbBlockEnd
  0
BLOCK
  5
231
330
22F
100
AcDbEntity
  8
0
100
AcDbBlockBegin
  2
block 26
 70
     0
 10
0.0
 20
0.0
 30
0.0
  3
block 26
  1

  0
POLYLINE
  5
233
330
22F
100
AcDbEntity
  8
RACCORDO
 62
     7
420
 16777215
370
    25
100
AcDb2dPolyline
 66
     1
 10
0.0
 20
0.0
 30
0.0
  0
VERTEX
  5
234
330
233
100
AcDbEntity
  8
RACCORDO
 62
     7
420
 16777215
370
    25
100
AcDbVertex
100
AcDb2dVertex
 10
113.8950416862511
 20
163.5180064138726
 30
0.0
  0
VERTEX
  5
235
330
233
100
AcDbEntity
  8
RACCORDO
 62
     7
420
 16777215
370
    25
100
AcDbVertex
100
AcDb2dVertex
 10
113.9373329122515
 20
163.4989669822726
 30
0.0
  0
VERTEX
  5
236
330
233
100
AcDbEntity
  8
RACCORDO
 62
     7
420
 16777215
370
    25
100
AcDbVertex
100
AcDb2dVertex
 10
113.979318004951
 20
163.4756938694728
 30
0.0
  0
VERTEX
  5
237
330
233
100
AcDbEntity
  8
RACCORDO
 62
     7
420
 16777215
370
    25
100
AcDbVertex
100
AcDb2dVertex
 10
114.0205385683509
 20
163.4484411726726
 30
0.0
  0
VERTEX
  5
238
330
233
100
AcDbEntity
  8
RACCORDO
 62
     7
420
 16777215
370
    25
100
AcDbVertex
100
AcDb2dVertex
 10
114.060544553351
 20
163.4175064387726
 30
0.0
  0
VERTEX
  5
239
330
233
100
AcDbEntity
  8
RACCORDO
 62
     7
420
 16777215
370
    25
100
AcDbVertex
100
AcDb2dVertex
 10
114.0988991721511
 20
163.3832274152726
 30
0.0
  0
VERTEX
  5
23A
330
233
100
AcDbEntity
  8
RACCORDO
 62
     7
420
 16777215
370
    25
100
AcDbVertex
100
AcDb2dVertex
 10
114.1351836663515
 20
163.345978363073
 30
0.0
  0
VERTEX
  5
23B
330
233
100
AcDbEntity
  8
RACCORDO
 62
     7
420
 16777215
370
    25
100
AcDbVertex
100
AcDb2dVertex
 10
114.1690018797511
 20
163.3061659699727
 30
0.0
  0
VERTEX
  5
23C
330
233
100
AcDbEntity
  8
RACCORDO
 62
     7
420
 16777215
370
    25
100
AcDbVertex
100
AcDb2dVertex
 10
114.1999845824512
 20
163.2642249102727
 30
0.0
  0
VERTEX
  5
23D
330
233
100
AcDbEntity
  8
RACCORDO
 62
     7
420
 16777215
370
    25
100
AcDbVertex
100
AcDb2dVertex
 10
114.2277935034509
 20
163.2206130992727
 30
0.0
  0
VERTEX
  5
23E
330
233
100
AcDbEntity
  8
RACCORDO
 62
     7
420
 16777215
370
    25
100
AcDbVertex
100
AcDb2dVertex
 10
114.2521250229514
 20
163.1758066936727
 30
0.0
  0
VERTEX
  5
23F
330
233
100
AcDbEntity
  8
RACCORDO
 62
     7
420
 16777215
370
    25
100
AcDbVertex
100
AcDb2dVertex
 10
114.2727134877513
 20
163.1302948930728
 30
0.0
  0
VERTEX
  5
240
330
233
100
AcDbEntity
  8
RACCORDO
 62
     7
420
 16777215
370
    25
100
AcDbVertex
100
AcDb2dVertex
 10
114.2893341116512
 20
163.0845745980729
 30
0.0
  0
VERTEX
  5
241
330
233
100
AcDbEntity
  8
RACCORDO
 62
     7
420
 16777215
370
    25
100
AcDbVertex
100
AcDb2dVertex
 10
114.3018054296514
 20
163.0391449861728
 30
0.0
  0
VERTEX
  5
242
330
233
100
AcDbEntity
  8
RACCORDO
 62
     7
420
 16777215
370
    25
100
AcDbVertex
100
AcDb2dVertex
 10
114.3099912788511
 20
162.9945020609728
 30
0.0
  0
VERTEX
  5
243
330
233
100
AcDbEntity
  8
RACCORDO
 62
     7
420
 16777215
370
    25
100
AcDbVertex
100
AcDb2dVertex
 10
114.3138022857511
 20
162.9511332367729
 30
0.0
  0
SEQEND
  5
244
330
233
100
AcDbEntity
  8
RACCORDO
 62
     7
420
 16777215
370
    25
  0
ENDBLK
  5
232
330
22F
100
AcDbEntity
  8
0
100
AcDbBlockEnd
  0
BLOCK
  5
247
330
245
100
AcDbEntity
  8
0
100
AcDbBlockBegin
  2
block 27
 70
     0
 10
0.0
 20
0.0
 30
0.0
  3
block 27
  1

  0
POLYLINE
  5
249
330
245
100
AcDbEntity
  8
RACCORDO
 62
     7
420
 16777215
370
    25
100
AcDb2dPolyline
 66
     1
 10
0.0
 20
0.0
 30
0.0
  0
VERTEX
  5
24A
330
249
100
AcDbEntity
  8
RACCORDO
 62
     7
420
 16777215
370
    25
100
AcDbVertex
100
AcDb2dVertex
 10
114.1890179596511
 20
126.5902941580725
 30
0.0
  0
VERTEX
  5
24B
330
249
100
AcDbEntity
  8
RACCORDO
 62
     7
420
 16777215
370
    25
100
AcDbVertex
100
AcDb2dVertex
 10
114.1999863130512
 20
126.5981372137726
 30
0.0
  0
VERTEX
  5
24C
330
249
100
AcDbEntity
  8
RACCORDO
 62
     7
420
 16777215
370
    25
100
AcDbVertex
100
AcDb2dVertex
 10
114.2277950022513
 20
126.6226009670724
 30
0.0
  0
VERTEX
  5
24D
330
249
100
AcDbEntity
  8
RACCORDO
 62
     7
420
 16777215
370
    25
100
AcDbVertex
100
AcDb2dVertex
 10
114.2521262240509
 20
126.6512367041727
 30
0.0
  0
VERTEX
  5
24E
330
249
100
AcDbEntity
  8
RACCORDO
 62
     7
420
 16777215
370
    25
100
AcDbVertex
100
AcDb2dVertex
 10
114.2727143624512
 20
126.6837317554729
 30
0.0
  0
VERTEX
  5
24F
330
249
100
AcDbEntity
  8
RACCORDO
 62
     7
420
 16777215
370
    25
100
AcDbVertex
100
AcDb2dVertex
 10
114.2893346695514
 20
126.7197313242728
 30
0.0
  0
VERTEX
  5
250
330
249
100
AcDbEntity
  8
RACCORDO
 62
     7
420
 16777215
370
    25
100
AcDbVertex
100
AcDb2dVertex
 10
114.3018057142513
 20
126.7588423529725
 30
0.0
  0
VERTEX
  5
251
330
249
100
AcDbEntity
  8
RACCORDO
 62
     7
420
 16777215
370
    25
100
AcDbVertex
100
AcDb2dVertex
 10
114.3099913664514
 20
126.8006378120726
 30
0.0
  0
VERTEX
  5
252
330
249
100
AcDbEntity
  8
RACCORDO
 62
     7
420
 16777215
370
    25
100
AcDbVertex
100
AcDb2dVertex
 10
114.3138022854514
 20
126.844661371373
 30
0.0
  0
SEQEND
  5
253
330
249
100
AcDbEntity
  8
RACCORDO
 62
     7
420
 16777215
370
    25
  0
ENDBLK
  5
248
330
245
100
AcDbEntity
  8
0
100
AcDbBlockEnd
  0
BLOCK
  5
256
330
254
100
AcDbEntity
  8
0
100
AcDbBlockBegin
  2
block 28
 70
     0
 10
0.0
 20
0.0
 30
0.0
  3
block 28
  1

  0
POLYLINE
  5
258
330
254
100
AcDbEntity
  8
RACCORDO
 62
     7
420
 16777215
370
    25
100
AcDb2dPolyline
 66
     1
 10
0.0
 20
0.0
 30
0.0
  0
VERTEX
  5
259
330
258
100
AcDbEntity
  8
RACCORDO
 62
     7
420
 16777215
370
    25
100
AcDbVertex
100
AcDb2dVertex
 10
115.1657480360513
 20
127.2495446917726
 30
0.0
  0
VERTEX
  5
25A
330
258
100
AcDbEntity
  8
RACCORDO
 62
     7
420
 16777215
370
    25
100
AcDbVertex
100
AcDb2dVertex
 10
114.1890178820511
 20
126.5902941056726
 30
0.0
  0
SEQEND
  5
25B
330
258
100
AcDbEntity
  8
RACCORDO
 62
     7
420
 16777215
370
    25
  0
ENDBLK
  5
257
330
254
100
AcDbEntity
  8
0
100
AcDbBlockEnd
  0
BLOCK
  5
25E
330
25C
100
AcDbEntity
  8
0
100
AcDbBlockBegin
  2
block 29
 70
     0
 10
0.0
 20
0.0
 30
0.0
  3
block 29
  1

  0
POLYLINE
  5
260
330
25C
100
AcDbEntity
  8
RACCORDO
 62
     7
420
 16777215
370
    25
100
AcDb2dPolyline
 66
     1
 10
0.0
 20
0.0
 30
0.0
  0
VERTEX
  5
261
330
260
100
AcDbEntity
  8
RACCORDO
 62
     7
420
 16777215
370
    25
100
AcDbVertex
100
AcDb2dVertex
 10
114.3138022854514
 20
126.8446613713724
 30
0.0
  0
VERTEX
  5
262
330
260
100
AcDbEntity
  8
RACCORDO
 62
     7
420
 16777215
370
    25
100
AcDbVertex
100
AcDb2dVertex
 10
114.2846305788514
 20
126.8264539351724
 30
0.0
  0
VERTEX
  5
263
330
260
100
AcDbEntity
  8
RACCORDO
 62
     7
420
 16777215
370
    25
100
AcDbVertex
100
AcDb2dVertex
 10
114.2559523707513
 20
126.8114228384729
 30
0.0
  0
VERTEX
  5
264
330
260
100
AcDbEntity
  8
RACCORDO
 62
     7
420
 16777215
370
    25
100
AcDbVertex
100
AcDb2dVertex
 10
114.2277676612514
 20
126.7995680814726
 30
0.0
  0
VERTEX
  5
265
330
260
100
AcDbEntity
  8
RACCORDO
 62
     7
420
 16777215
370
    25
100
AcDbVertex
100
AcDb2dVertex
 10
114.199928417651
 20
126.7908541233727
 30
0.0
  0
VERTEX
  5
266
330
260
100
AcDbEntity
  8
RACCORDO
 62
     7
420
 16777215
370
    25
100
AcDbVertex
100
AcDb2dVertex
 10
114.1725826726512
 20
126.7853165048726
 30
0.0
  0
VERTEX
  5
267
330
260
100
AcDbEntity
  8
RACCORDO
 62
     7
420
 16777215
370
    25
100
AcDbVertex
100
AcDb2dVertex
 10
114.1461745240509
 20
126.7830618477727
 30
0.0
  0
VERTEX
  5
268
330
260
100
AcDbEntity
  8
RACCORDO
 62
     7
420
 16777215
370
    25
100
AcDbVertex
100
AcDb2dVertex
 10
114.1207311615513
 20
126.7841482015728
 30
0.0
  0
VERTEX
  5
269
330
260
100
AcDbEntity
  8
RACCORDO
 62
     7
420
 16777215
370
    25
100
AcDbVertex
100
AcDb2dVertex
 10
114.0962253954512
 20
126.7885175167725
 30
0.0
  0
VERTEX
  5
26A
330
260
100
AcDbEntity
  8
RACCORDO
 62
     7
420
 16777215
370
    25
100
AcDbVertex
100
AcDb2dVertex
 10
114.0730197544511
 20
126.7961022665726
 30
0.0
  0
VERTEX
  5
26B
330
260
100
AcDbEntity
  8
RACCORDO
 62
     7
420
 16777215
370
    25
100
AcDbVertex
100
AcDb2dVertex
 10
114.0511339028509
 20
126.8069519074729
 30
0.0
  0
VERTEX
  5
26C
330
260
100
AcDbEntity
  8
RACCORDO
 62
     7
420
 16777215
370
    25
100
AcDbVertex
100
AcDb2dVertex
 10
114.030548176451
 20
126.8210169831726
 30
0.0
  0
VERTEX
  5
26D
330
260
100
AcDbEntity
  8
RACCORDO
 62
     7
420
 16777215
370
    25
100
AcDbVertex
100
AcDb2dVertex
 10
114.0115661114512
 20
126.8380815973724
 30
0.0
  0
VERTEX
  5
26E
330
260
100
AcDbEntity
  8
RACCORDO
 62
     7
420
 16777215
370
    25
100
AcDbVertex
100
AcDb2dVertex
 10
113.9942134805511
 20
126.8581894377728
 30
0.0
  0
VERTEX
  5
26F
330
260
100
AcDbEntity
  8
RACCORDO
 62
     7
420
 16777215
370
    25
100
AcDbVertex
100
AcDb2dVertex
 10
113.9784645109509
 20
126.8812968167728
 30
0.0
  0
VERTEX
  5
270
330
260
100
AcDbEntity
  8
RACCORDO
 62
     7
420
 16777215
370
    25
100
AcDbVertex
100
AcDb2dVertex
 10
113.9645454205513
 20
126.9070567753728
 30
0.0
  0
VERTEX
  5
271
330
260
100
AcDbEntity
  8
RACCORDO
 62
     7
420
 16777215
370
    25
100
AcDbVertex
100
AcDb2dVertex
 10
113.9524823120514
 20
126.9355251708726
 30
0.0
  0
VERTEX
  5
272
330
260
100
AcDbEntity
  8
RACCORDO
 62
     7
420
 16777215
370
    25
100
AcDbVertex
100
AcDb2dVertex
 10
113.9422490827514
 20
126.966646145973
 30
0.0
  0
VERTEX
  5
273
330
260
100
AcDbEntity
  8
RACCORDO
 62
     7
420
 16777215
370
    25
100
AcDbVertex
100
AcDb2dVertex
 10
113.9339936428515
 20
126.9999051700727
 30
0.0
  0
VERTEX
  5
274
330
260
100
AcDbEntity
  8
RACCORDO
 62
     7
420
 16777215
370
    25
100
AcDbVertex
100
AcDb2dVertex
 10
113.9277652957514
 20
127.0351307329726
 30
0.0
  0
VERTEX
  5
275
330
260
100
AcDbEntity
  8
RACCORDO
 62
     7
420
 16777215
370
    25
100
AcDbVertex
100
AcDb2dVertex
 10
113.9235147378511
 20
127.072494344773
 30
0.0
  0
VERTEX
  5
276
330
260
100
AcDbEntity
  8
RACCORDO
 62
     7
420
 16777215
370
    25
100
AcDbVertex
100
AcDb2dVertex
 10
113.921241969451
 20
127.1119960055728
 30
0.0
  0
SEQEND
  5
277
330
260
100
AcDbEntity
  8
RACCORDO
 62
     7
420
 16777215
370
    25
  0
ENDBLK
  5
25F
330
25C
100
AcDbEntity
  8
0
100
AcDbBlockEnd
  0
BLOCK
  5
27A
330
278
100
AcDbEntity
  8
0
100
AcDbBlockBegin
  2
block 30
 70
     0
 10
0.0
 20
0.0
 30
0.0
  3
block 30
  1

  0
POLYLINE
  5
27C
330
278
100
AcDbEntity
  8
0
 62
     7
420
 16777215
370
    25
100
AcDb2dPolyline
 66
     1
 10
0.0
 20
0.0
 30
0.0
  0
VERTEX
  5
27D
330
27C
100
AcDbEntity
  8
0
 62
     7
420
 16777215
370
    25
100
AcDbVertex
100
AcDb2dVertex
 10
97.18971321815125
 20
170.5699800162728
 30
0.0
  0
VERTEX
  5
27E
330
27C
100
AcDbEntity
  8
0
 62
     7
420
 16777215
370
    25
100
AcDbVertex
100
AcDb2dVertex
 10
96.36403185465102
 20
169.7185970639727
 30
0.0
  0
SEQEND
  5
27F
330
27C
100
AcDbEntity
  8
0
 62
     7
420
 16777215
370
    25
  0
ENDBLK
  5
27B
330
278
100
AcDbEntity
  8
0
100
AcDbBlockEnd
  0
BLOCK
  5
282
330
280
100
AcDbEntity
  8
0
100
AcDbBlockBegin
  2
block 31
 70
     0
 10
0.0
 20
0.0
 30
0.0
  3
block 31
  1

  0
POLYLINE
  5
284
330
280
100
AcDbEntity
  8
0
 62
     7
420
 16777215
370
    25
100
AcDb2dPolyline
 66
     1
 10
0.0
 20
0.0
 30
0.0
  0
VERTEX
  5
285
330
284
100
AcDbEntity
  8
0
 62
     7
420
 16777215
370
    25
100
AcDbVertex
100
AcDb2dVertex
 10
113.8950416863512
 20
163.5180064139727
 30
0.0
  0
VERTEX
  5
286
330
284
100
AcDbEntity
  8
0
 62
     7
420
 16777215
370
    25
100
AcDbVertex
100
AcDb2dVertex
 10
114.8656883541509
 20
164.318116205373
 30
0.0
  0
SEQEND
  5
287
330
284
100
AcDbEntity
  8
0
 62
     7
420
 16777215
370
    25
  0
ENDBLK
  5
283
330
280
100
AcDbEntity
  8
0
100
AcDbBlockEnd
  0
BLOCK
  5
28A
330
288
100
AcDbEntity
  8
0
100
AcDbBlockBegin
  2
block 32
 70
     0
 10
0.0
 20
0.0
 30
0.0
  3
block 32
  1

  0
POLYLINE
  5
28C
330
288
100
AcDbEntity
  8
0
 62
     7
420
 16777215
370
    25
100
AcDb2dPolyline
 66
     1
 10
0.0
 20
0.0
 30
0.0
  0
VERTEX
  5
28D
330
28C
100
AcDbEntity
  8
0
 62
     7
420
 16777215
370
    25
100
AcDbVertex
100
AcDb2dVertex
 10
114.3138022857511
 20
162.9511332367729
 30
0.0
  0
VERTEX
  5
28E
330
28C
100
AcDbEntity
  8
0
 62
     7
420
 16777215
370
    25
100
AcDbVertex
100
AcDb2dVertex
 10
115.2844489536515
 20
163.7512430282727
 30
0.0
  0
SEQEND
  5
28F
330
28C
100
AcDbEntity
  8
0
 62
     7
420
 16777215
370
    25
  0
ENDBLK
  5
28B
330
288
100
AcDbEntity
  8
0
100
AcDbBlockEnd
  0
BLOCK
  5
292
330
290
100
AcDbEntity
  8
0
100
AcDbBlockBegin
  2
block 33
 70
     0
 10
0.0
 20
0.0
 30
0.0
  3
block 33
  1

  0
POLYLINE
  5
294
330
290
100
AcDbEntity
  8
0
 62
     7
420
 16777215
370
    25
100
AcDb2dPolyline
 66
     1
 10
0.0
 20
0.0
 30
0.0
  0
VERTEX
  5
295
330
294
100
AcDbEntity
  8
0
 62
     7
420
 16777215
370
    25
100
AcDbVertex
100
AcDb2dVertex
 10
102.1387938561515
 20
146.6285961880726
 30
0.0
  0
VERTEX
  5
296
330
294
100
AcDbEntity
  8
0
 62
     7
420
 16777215
370
    25
100
AcDbVertex
100
AcDb2dVertex
 10
102.1373322699511
 20
148.0267782154726
 30
0.0
  0
SEQEND
  5
297
330
294
100
AcDbEntity
  8
0
 62
     7
420
 16777215
370
    25
  0
ENDBLK
  5
293
330
290
100
AcDbEntity
  8
0
100
AcDbBlockEnd
  0
BLOCK
  5
29A
330
298
100
AcDbEntity
  8
0
100
AcDbBlockBegin
  2
block 34
 70
     0
 10
0.0
 20
0.0
 30
0.0
  3
block 34
  1

  0
POLYLINE
  5
29C
330
298
100
AcDbEntity
  8
0
 62
     7
420
 16777215
370
    25
100
AcDb2dPolyline
 66
     1
 10
0.0
 20
0.0
 30
0.0
  0
VERTEX
  5
29D
330
29C
100
AcDbEntity
  8
0
 62
     7
420
 16777215
370
    25
100
AcDbVertex
100
AcDb2dVertex
 10
102.1373322699511
 20
148.0267782154726
 30
0.0
  0
VERTEX
  5
29E
330
29C
100
AcDbEntity
  8
0
 62
     7
420
 16777215
370
    25
100
AcDbVertex
100
AcDb2dVertex
 10
102.1387938561515
 20
149.1476207049728
 30
0.0
  0
SEQEND
  5
29F
330
29C
100
AcDbEntity
  8
0
 62
     7
420
 16777215
370
    25
  0
ENDBLK
  5
29B
330
298
100
AcDbEntity
  8
0
100
AcDbBlockEnd
  0
BLOCK
  5
2A2
330
2A0
100
AcDbEntity
  8
0
100
AcDbBlockBegin
  2
block 35
 70
     0
 10
0.0
 20
0.0
 30
0.0
  3
block 35
  1

  0
POLYLINE
  5
2A4
330
2A0
100
AcDbEntity
  8
0
 62
     7
420
 16777215
370
    25
100
AcDb2dPolyline
 66
     1
 10
0.0
 20
0.0
 30
0.0
  0
VERTEX
  5
2A5
330
2A4
100
AcDbEntity
  8
0
 62
     7
420
 16777215
370
    25
100
AcDbVertex
100
AcDb2dVertex
 10
102.1387938561515
 20
149.1476207049728
 30
0.0
  0
VERTEX
  5
2A6
330
2A4
100
AcDbEntity
  8
0
 62
     7
420
 16777215
370
    25
100
AcDbVertex
100
AcDb2dVertex
 10
102.1433415795514
 20
149.2709686057727
 30
0.0
  0
VERTEX
  5
2A7
330
2A4
100
AcDbEntity
  8
0
 62
     7
420
 16777215
370
    25
100
AcDbVertex
100
AcDb2dVertex
 10
102.1553787187511
 20
149.3894746328726
 30
0.0
  0
VERTEX
  5
2A8
330
2A4
100
AcDbEntity
  8
0
 62
     7
420
 16777215
370
    25
100
AcDbVertex
100
AcDb2dVertex
 10
102.1750072965512
 20
149.503380947173
 30
0.0
  0
VERTEX
  5
2A9
330
2A4
100
AcDbEntity
  8
0
 62
     7
420
 16777215
370
    25
100
AcDbVertex
100
AcDb2dVertex
 10
102.2026191748512
 20
149.6134613171726
 30
0.0
  0
VERTEX
  5
2AA
330
2A4
100
AcDbEntity
  8
0
 62
     7
420
 16777215
370
    25
100
AcDbVertex
100
AcDb2dVertex
 10
102.2379419051511
 20
149.7192480865727
 30
0.0
  0
VERTEX
  5
2AB
330
2A4
100
AcDbEntity
  8
0
 62
     7
420
 16777215
370
    25
100
AcDbVertex
100
AcDb2dVertex
 10
102.2801666982513
 20
149.8191161795727
 30
0.0
  0
VERTEX
  5
2AC
330
2A4
100
AcDbEntity
  8
0
 62
     7
420
 16777215
370
    25
100
AcDbVertex
100
AcDb2dVertex
 10
102.3293961435513
 20
149.9127999595727
 30
0.0
  0
VERTEX
  5
2AD
330
2A4
100
AcDbEntity
  8
0
 62
     7
420
 16777215
370
    25
100
AcDbVertex
100
AcDb2dVertex
 10
102.3857973130512
 20
150.0007069634726
 30
0.0
  0
VERTEX
  5
2AE
330
2A4
100
AcDbEntity
  8
0
 62
     7
420
 16777215
370
    25
100
AcDbVertex
100
AcDb2dVertex
 10
102.4487865020511
 20
150.0822512518727
 30
0.0
  0
VERTEX
  5
2AF
330
2A4
100
AcDbEntity
  8
0
 62
     7
420
 16777215
370
    25
100
AcDbVertex
100
AcDb2dVertex
 10
102.5187200402516
 20
150.1574964529727
 30
0.0
  0
VERTEX
  5
2B0
330
2A4
100
AcDbEntity
  8
0
 62
     7
420
 16777215
370
    25
100
AcDbVertex
100
AcDb2dVertex
 10
102.5954475354514
 20
150.2262365830726
 30
0.0
  0
VERTEX
  5
2B1
330
2A4
100
AcDbEntity
  8
0
 62
     7
420
 16777215
370
    25
100
AcDbVertex
100
AcDb2dVertex
 10
102.6777112028512
 20
150.2875225237728
 30
0.0
  0
VERTEX
  5
2B2
330
2A4
100
AcDbEntity
  8
0
 62
     7
420
 16777215
370
    25
100
AcDbVertex
100
AcDb2dVertex
 10
102.7653363733511
 20
150.3410075880726
 30
0.0
  0
VERTEX
  5
2B3
330
2A4
100
AcDbEntity
  8
0
 62
     7
420
 16777215
370
    25
100
AcDbVertex
100
AcDb2dVertex
 10
102.8587229943511
 20
150.3868146628727
 30
0.0
  0
VERTEX
  5
2B4
330
2A4
100
AcDbEntity
  8
0
 62
     7
420
 16777215
370
    25
100
AcDbVertex
100
AcDb2dVertex
 10
102.9575212629511
 20
150.4247479117726
 30
0.0
  0
VERTEX
  5
2B5
330
2A4
100
AcDbEntity
  8
0
 62
     7
420
 16777215
370
    25
100
AcDbVertex
100
AcDb2dVertex
 10
103.0621957827511
 20
150.4547262889727
 30
0.0
  0
VERTEX
  5
2B6
330
2A4
100
AcDbEntity
  8
0
 62
     7
420
 16777215
370
    25
100
AcDbVertex
100
AcDb2dVertex
 10
103.1723149904515
 20
150.4764046700731
 30
0.0
  0
VERTEX
  5
2B7
330
2A4
100
AcDbEntity
  8
0
 62
     7
420
 16777215
370
    25
100
AcDbVertex
100
AcDb2dVertex
 10
103.2862191634513
 20
150.4892925510728
 30
0.0
  0
VERTEX
  5
2B8
330
2A4
100
AcDbEntity
  8
0
 62
     7
420
 16777215
370
    25
100
AcDbVertex
100
AcDb2dVertex
 10
103.4042254501514
 20
150.4930729794728
 30
0.0
  0
VERTEX
  5
2B9
330
2A4
100
AcDbEntity
  8
0
 62
     7
420
 16777215
370
    25
100
AcDbVertex
100
AcDb2dVertex
 10
103.5259797892511
 20
150.4877547995728
 30
0.0
  0
VERTEX
  5
2BA
330
2A4
100
AcDbEntity
  8
0
 62
     7
420
 16777215
370
    25
100
AcDbVertex
100
AcDb2dVertex
 10
103.6489294655513
 20
150.4736209461726
 30
0.0
  0
VERTEX
  5
2BB
330
2A4
100
AcDbEntity
  8
0
 62
     7
420
 16777215
370
    25
100
AcDbVertex
100
AcDb2dVertex
 10
103.7725573804513
 20
150.4507155466726
 30
0.0
  0
VERTEX
  5
2BC
330
2A4
100
AcDbEntity
  8
0
 62
     7
420
 16777215
370
    25
100
AcDbVertex
100
AcDb2dVertex
 10
103.8973325634513
 20
150.4190160778726
 30
0.0
  0
VERTEX
  5
2BD
330
2A4
100
AcDbEntity
  8
0
 62
     7
420
 16777215
370
    25
100
AcDbVertex
100
AcDb2dVertex
 10
104.0222655408513
 20
150.3789395799726
 30
0.0
  0
VERTEX
  5
2BE
330
2A4
100
AcDbEntity
  8
0
 62
     7
420
 16777215
370
    25
100
AcDbVertex
100
AcDb2dVertex
 10
104.1472452688517
 20
150.3306130926728
 30
0.0
  0
VERTEX
  5
2BF
330
2A4
100
AcDbEntity
  8
0
 62
     7
420
 16777215
370
    25
100
AcDbVertex
100
AcDb2dVertex
 10
104.2721938436513
 20
150.2739730854726
 30
0.0
  0
VERTEX
  5
2C0
330
2A4
100
AcDbEntity
  8
0
 62
     7
420
 16777215
370
    25
100
AcDbVertex
100
AcDb2dVertex
 10
104.3962061657513
 20
150.2092628472728
 30
0.0
  0
VERTEX
  5
2C1
330
2A4
100
AcDbEntity
  8
0
 62
     7
420
 16777215
370
    25
100
AcDbVertex
100
AcDb2dVertex
 10
104.5196877253511
 20
150.1361975580728
 30
0.0
  0
VERTEX
  5
2C2
330
2A4
100
AcDbEntity
  8
0
 62
     7
420
 16777215
370
    25
100
AcDbVertex
100
AcDb2dVertex
 10
104.6419333958513
 20
150.0551606055727
 30
0.0
  0
VERTEX
  5
2C3
330
2A4
100
AcDbEntity
  8
0
 62
     7
420
 16777215
370
    25
100
AcDbVertex
100
AcDb2dVertex
 10
104.7605210536513
 20
149.9676082227728
 30
0.0
  0
VERTEX
  5
2C4
330
2A4
100
AcDbEntity
  8
0
 62
     7
420
 16777215
370
    25
100
AcDbVertex
100
AcDb2dVertex
 10
104.8752760928512
 20
149.8736811697727
 30
0.0
  0
VERTEX
  5
2C5
330
2A4
100
AcDbEntity
  8
0
 62
     7
420
 16777215
370
    25
100
AcDbVertex
100
AcDb2dVertex
 10
104.9862602483514
 20
149.7735894219728
 30
0.0
  0
VERTEX
  5
2C6
330
2A4
100
AcDbEntity
  8
0
 62
     7
420
 16777215
370
    25
100
AcDbVertex
100
AcDb2dVertex
 10
105.0916628933511
 20
149.6691384566726
 30
0.0
  0
VERTEX
  5
2C7
330
2A4
100
AcDbEntity
  8
0
 62
     7
420
 16777215
370
    25
100
AcDbVertex
100
AcDb2dVertex
 10
105.1910606304514
 20
149.5610200890729
 30
0.0
  0
VERTEX
  5
2C8
330
2A4
100
AcDbEntity
  8
0
 62
     7
420
 16777215
370
    25
100
AcDbVertex
100
AcDb2dVertex
 10
105.284975951051
 20
149.4489421754728
 30
0.0
  0
VERTEX
  5
2C9
330
2A4
100
AcDbEntity
  8
0
 62
     7
420
 16777215
370
    25
100
AcDbVertex
100
AcDb2dVertex
 10
105.3731572496513
 20
149.3333066136727
 30
0.0
  0
VERTEX
  5
2CA
330
2A4
100
AcDbEntity
  8
0
 62
     7
420
 16777215
370
    25
100
AcDbVertex
100
AcDb2dVertex
 10
105.4559370874512
 20
149.2137604199725
 30
0.0
  0
VERTEX
  5
2CB
330
2A4
100
AcDbEntity
  8
0
 62
     7
420
 16777215
370
    25
100
AcDbVertex
100
AcDb2dVertex
 10
105.5330007681511
 20
149.0908021445728
 30
0.0
  0
VERTEX
  5
2CC
330
2A4
100
AcDbEntity
  8
0
 62
     7
420
 16777215
370
    25
100
AcDbVertex
100
AcDb2dVertex
 10
105.6032396104512
 20
148.9661245661726
 30
0.0
  0
VERTEX
  5
2CD
330
2A4
100
AcDbEntity
  8
0
 62
     7
420
 16777215
370
    25
100
AcDbVertex
100
AcDb2dVertex
 10
105.6665955094513
 20
148.8399476196728
 30
0.0
  0
VERTEX
  5
2CE
330
2A4
100
AcDbEntity
  8
0
 62
     7
420
 16777215
370
    25
100
AcDbVertex
100
AcDb2dVertex
 10
105.7232844771514
 20
148.7120547585729
 30
0.0
  0
VERTEX
  5
2CF
330
2A4
100
AcDbEntity
  8
0
 62
     7
420
 16777215
370
    25
100
AcDbVertex
100
AcDb2dVertex
 10
105.7727561788513
 20
148.583501102073
 30
0.0
  0
VERTEX
  5
2D0
330
2A4
100
AcDbEntity
  8
0
 62
     7
420
 16777215
370
    25
100
AcDbVertex
100
AcDb2dVertex
 10
105.8151487122514
 20
148.4538218294728
 30
0.0
  0
VERTEX
  5
2D1
330
2A4
100
AcDbEntity
  8
0
 62
     7
420
 16777215
370
    25
100
AcDbVertex
100
AcDb2dVertex
 10
105.8504068017513
 20
148.323220649073
 30
0.0
  0
VERTEX
  5
2D2
330
2A4
100
AcDbEntity
  8
0
 62
     7
420
 16777215
370
    25
100
AcDbVertex
100
AcDb2dVertex
 10
105.8778302335511
 20
148.1937801436727
 30
0.0
  0
VERTEX
  5
2D3
330
2A4
100
AcDbEntity
  8
0
 62
     7
420
 16777215
370
    25
100
AcDbVertex
100
AcDb2dVertex
 10
105.897267915851
 20
148.0660881352725
 30
0.0
  0
VERTEX
  5
2D4
330
2A4
100
AcDbEntity
  8
0
 62
     7
420
 16777215
370
    25
100
AcDbVertex
100
AcDb2dVertex
 10
105.9089724394509
 20
147.939165518173
 30
0.0
  0
VERTEX
  5
2D5
330
2A4
100
AcDbEntity
  8
0
 62
     7
420
 16777215
370
    25
100
AcDbVertex
100
AcDb2dVertex
 10
105.912897458051
 20
147.8127477179728
 30
0.0
  0
SEQEND
  5
2D6
330
2A4
100
AcDbEntity
  8
0
 62
     7
420
 16777215
370
    25
  0
ENDBLK
  5
2A3
330
2A0
100
AcDbEntity
  8
0
100
AcDbBlockEnd
  0
BLOCK
  5
2D9
330
2D7
100
AcDbEntity
  8
0
100
AcDbBlockBegin
  2
block 36
 70
     0
 10
0.0
 20
0.0
 30
0.0
  3
block 36
  1

  0
POLYLINE
  5
2DB
330
2D7
100
AcDbEntity
  8
0
 62
     7
420
 16777215
370
    25
100
AcDb2dPolyline
 66
     1
 10
0.0
 20
0.0
 30
0.0
  0
VERTEX
  5
2DC
330
2DB
100
AcDbEntity
  8
0
 62
     7
420
 16777215
370
    25
100
AcDbVertex
100
AcDb2dVertex
 10
103.5718097253511
 20
149.4013266097727
 30
0.0
  0
VERTEX
  5
2DD
330
2DB
100
AcDbEntity
  8
0
 62
     7
420
 16777215
370
    25
100
AcDbVertex
100
AcDb2dVertex
 10
103.5612571003509
 20
149.3907641396729
 30
0.0
  0
VERTEX
  5
2DE
330
2DB
100
AcDbEntity
  8
0
 62
     7
420
 16777215
370
    25
100
AcDbVertex
100
AcDb2dVertex
 10
103.5399484527512
 20
149.3672464910728
 30
0.0
  0
VERTEX
  5
2DF
330
2DB
100
AcDbEntity
  8
0
 62
     7
420
 16777215
370
    25
100
AcDbVertex
100
AcDb2dVertex
 10
103.5197299941512
 20
149.3419593173728
 30
0.0
  0
VERTEX
  5
2E0
330
2DB
100
AcDbEntity
  8
0
 62
     7
420
 16777215
370
    25
100
AcDbVertex
100
AcDb2dVertex
 10
103.5006755689512
 20
149.3149152780726
 30
0.0
  0
VERTEX
  5
2E1
330
2DB
100
AcDbEntity
  8
0
 62
     7
420
 16777215
370
    25
100
AcDbVertex
100
AcDb2dVertex
 10
103.4830490641513
 20
149.2859849463728
 30
0.0
  0
VERTEX
  5
2E2
330
2DB
100
AcDbEntity
  8
0
 62
     7
420
 16777215
370
    25
100
AcDbVertex
100
AcDb2dVertex
 10
103.4667807572514
 20
149.2550006094726
 30
0.0
  0
VERTEX
  5
2E3
330
2DB
100
AcDbEntity
  8
0
 62
     7
420
 16777215
370
    25
100
AcDbVertex
100
AcDb2dVertex
 10
103.4519098538511
 20
149.2221091879728
 30
0.0
  0
VERTEX
  5
2E4
330
2DB
100
AcDbEntity
  8
0
 62
     7
420
 16777215
370
    25
100
AcDbVertex
100
AcDb2dVertex
 10
103.4388718217513
 20
149.1876583440726
 30
0.0
  0
VERTEX
  5
2E5
330
2DB
100
AcDbEntity
  8
0
 62
     7
420
 16777215
370
    25
100
AcDbVertex
100
AcDb2dVertex
 10
103.4277348131514
 20
149.1515029690727
 30
0.0
  0
VERTEX
  5
2E6
330
2DB
100
AcDbEntity
  8
0
 62
     7
420
 16777215
370
    25
100
AcDbVertex
100
AcDb2dVertex
 10
103.4184113643511
 20
149.1137702112729
 30
0.0
  0
VERTEX
  5
2E7
330
2DB
100
AcDbEntity
  8
0
 62
     7
420
 16777215
370
    25
100
AcDbVertex
100
AcDb2dVertex
 10
103.4111271252512
 20
149.0752328314726
 30
0.0
  0
VERTEX
  5
2E8
330
2DB
100
AcDbEntity
  8
0
 62
     7
420
 16777215
370
    25
100
AcDbVertex
100
AcDb2dVertex
 10
103.4059659997511
 20
149.0361521624727
 30
0.0
  0
VERTEX
  5
2E9
330
2DB
100
AcDbEntity
  8
0
 62
     7
420
 16777215
370
    25
100
AcDbVertex
100
AcDb2dVertex
 10
103.4028524557512
 20
148.9962643199725
 30
0.0
  0
VERTEX
  5
2EA
330
2DB
100
AcDbEntity
  8
0
 62
     7
420
 16777215
370
    25
100
AcDbVertex
100
AcDb2dVertex
 10
103.4017867834516
 20
148.9555635149726
 30
0.0
  0
SEQEND
  5
2EB
330
2DB
100
AcDbEntity
  8
0
 62
     7
420
 16777215
370
    25
  0
ENDBLK
  5
2DA
330
2D7
100
AcDbEntity
  8
0
100
AcDbBlockEnd
  0
BLOCK
  5
2EE
330
2EC
100
AcDbEntity
  8
0
100
AcDbBlockBegin
  2
block 37
 70
     0
 10
0.0
 20
0.0
 30
0.0
  3
block 37
  1

  0
POLYLINE
  5
2F0
330
2EC
100
AcDbEntity
  8
0
 62
     7
420
 16777215
370
    25
100
AcDb2dPolyline
 66
     1
 10
0.0
 20
0.0
 30
0.0
  0
VERTEX
  5
2F1
330
2F0
100
AcDbEntity
  8
0
 62
     7
420
 16777215
370
    25
100
AcDbVertex
100
AcDb2dVertex
 10
103.6074165151512
 20
149.4327379460728
 30
0.0
  0
VERTEX
  5
2F2
330
2F0
100
AcDbEntity
  8
0
 62
     7
420
 16777215
370
    25
100
AcDbVertex
100
AcDb2dVertex
 10
103.5837511565511
 20
149.4125350348725
 30
0.0
  0
VERTEX
  5
2F3
330
2F0
100
AcDbEntity
  8
0
 62
     7
420
 16777215
370
    25
100
AcDbVertex
100
AcDb2dVertex
 10
103.5718097253511
 20
149.4013266097727
 30
0.0
  0
SEQEND
  5
2F4
330
2F0
100
AcDbEntity
  8
0
 62
     7
420
 16777215
370
    25
  0
ENDBLK
  5
2EF
330
2EC
100
AcDbEntity
  8
0
100
AcDbBlockEnd
  0
BLOCK
  5
2F7
330
2F5
100
AcDbEntity
  8
0
100
AcDbBlockBegin
  2
block 38
 70
     0
 10
0.0
 20
0.0
 30
0.0
  3
block 38
  1

  0
POLYLINE
  5
2F9
330
2F5
100
AcDbEntity
  8
0
 62
     7
420
 16777215
370
    25
100
AcDb2dPolyline
 66
     1
 10
0.0
 20
0.0
 30
0.0
  0
VERTEX
  5
2FA
330
2F9
100
AcDbEntity
  8
0
 62
     7
420
 16777215
370
    25
100
AcDbVertex
100
AcDb2dVertex
 10
103.4017867834516
 20
146.4390206708725
 30
0.0
  0
VERTEX
  5
2FB
330
2F9
100
AcDbEntity
  8
0
 62
     7
420
 16777215
370
    25
100
AcDbVertex
100
AcDb2dVertex
 10
103.4028376606512
 20
146.3982414763729
 30
0.0
  0
VERTEX
  5
2FC
330
2F9
100
AcDbEntity
  8
0
 62
     7
420
 16777215
370
    25
100
AcDbVertex
100
AcDb2dVertex
 10
103.4058851399511
 20
146.3568552143724
 30
0.0
  0
VERTEX
  5
2FD
330
2F9
100
AcDbEntity
  8
0
 62
     7
420
 16777215
370
    25
100
AcDbVertex
100
AcDb2dVertex
 10
103.4109291164513
 20
146.3148542338727
 30
0.0
  0
VERTEX
  5
2FE
330
2F9
100
AcDbEntity
  8
0
 62
     7
420
 16777215
370
    25
100
AcDbVertex
100
AcDb2dVertex
 10
103.4180397923514
 20
146.2719377791726
 30
0.0
  0
VERTEX
  5
2FF
330
2F9
100
AcDbEntity
  8
0
 62
     7
420
 16777215
370
    25
100
AcDbVertex
100
AcDb2dVertex
 10
103.4271393995512
 20
146.2283839505725
 30
0.0
  0
VERTEX
  5
300
330
2F9
100
AcDbEntity
  8
0
 62
     7
420
 16777215
370
    25
100
AcDbVertex
100
AcDb2dVertex
 10
103.4380187434512
 20
146.1850651982728
 30
0.0
  0
VERTEX
  5
301
330
2F9
100
AcDbEntity
  8
0
 62
     7
420
 16777215
370
    25
100
AcDbVertex
100
AcDb2dVertex
 10
103.4507577669512
 20
146.1420916202725
 30
0.0
  0
VERTEX
  5
302
330
2F9
100
AcDbEntity
  8
0
 62
     7
420
 16777215
370
    25
100
AcDbVertex
100
AcDb2dVertex
 10
103.4652947547513
 20
146.0993548597728
 30
0.0
  0
VERTEX
  5
303
330
2F9
100
AcDbEntity
  8
0
 62
     7
420
 16777215
370
    25
100
AcDbVertex
100
AcDb2dVertex
 10
103.4812298666511
 20
146.0574218924724
 30
0.0
  0
VERTEX
  5
304
330
2F9
100
AcDbEntity
  8
0
 62
     7
420
 16777215
370
    25
100
AcDbVertex
100
AcDb2dVertex
 10
103.4985167619511
 20
146.0165031472726
 30
0.0
  0
VERTEX
  5
305
330
2F9
100
AcDbEntity
  8
0
 62
     7
420
 16777215
370
    25
100
AcDbVertex
100
AcDb2dVertex
 10
103.5172300339513
 20
145.9764051323728
 30
0.0
  0
VERTEX
  5
306
330
2F9
100
AcDbEntity
  8
0
 62
     7
420
 16777215
370
    25
100
AcDbVertex
100
AcDb2dVertex
 10
103.5371580471511
 20
145.9370984302727
 30
0.0
  0
VERTEX
  5
307
330
2F9
100
AcDbEntity
  8
0
 62
     7
420
 16777215
370
    25
100
AcDbVertex
100
AcDb2dVertex
 10
103.5582197184514
 20
145.8986497285728
 30
0.0
  0
VERTEX
  5
308
330
2F9
100
AcDbEntity
  8
0
 62
     7
420
 16777215
370
    25
100
AcDbVertex
100
AcDb2dVertex
 10
103.5805143695511
 20
145.8610053117728
 30
0.0
  0
VERTEX
  5
309
330
2F9
100
AcDbEntity
  8
0
 62
     7
420
 16777215
370
    25
100
AcDbVertex
100
AcDb2dVertex
 10
103.6040960583511
 20
145.823952447973
 30
0.0
  0
VERTEX
  5
30A
330
2F9
100
AcDbEntity
  8
0
 62
     7
420
 16777215
370
    25
100
AcDbVertex
100
AcDb2dVertex
 10
103.6289118907512
 20
145.7874700523726
 30
0.0
  0
VERTEX
  5
30B
330
2F9
100
AcDbEntity
  8
0
 62
     7
420
 16777215
370
    25
100
AcDbVertex
100
AcDb2dVertex
 10
103.6550189710511
 20
145.7515830116724
 30
0.0
  0
VERTEX
  5
30C
330
2F9
100
AcDbEntity
  8
0
 62
     7
420
 16777215
370
    25
100
AcDbVertex
100
AcDb2dVertex
 10
103.6826287936512
 20
145.7161413375729
 30
0.0
  0
VERTEX
  5
30D
330
2F9
100
AcDbEntity
  8
0
 62
     7
420
 16777215
370
    25
100
AcDbVertex
100
AcDb2dVertex
 10
103.7117192632512
 20
145.6810614250729
 30
0.0
  0
VERTEX
  5
30E
330
2F9
100
AcDbEntity
  8
0
 62
     7
420
 16777215
370
    25
100
AcDbVertex
100
AcDb2dVertex
 10
103.7423025571514
 20
145.6464221972726
 30
0.0
  0
VERTEX
  5
30F
330
2F9
100
AcDbEntity
  8
0
 62
     7
420
 16777215
370
    25
100
AcDbVertex
100
AcDb2dVertex
 10
103.7746355983511
 20
145.6123128826729
 30
0.0
  0
VERTEX
  5
310
330
2F9
100
AcDbEntity
  8
0
 62
     7
420
 16777215
370
    25
100
AcDbVertex
100
AcDb2dVertex
 10
103.8089463544513
 20
145.5785150108729
 30
0.0
  0
VERTEX
  5
311
330
2F9
100
AcDbEntity
  8
0
 62
     7
420
 16777215
370
    25
100
AcDbVertex
100
AcDb2dVertex
 10
103.8449820280511
 20
145.5452357962724
 30
0.0
  0
VERTEX
  5
312
330
2F9
100
AcDbEntity
  8
0
 62
     7
420
 16777215
370
    25
100
AcDbVertex
100
AcDb2dVertex
 10
103.8822853738514
 20
145.5132104743725
 30
0.0
  0
VERTEX
  5
313
330
2F9
100
AcDbEntity
  8
0
 62
     7
420
 16777215
370
    25
100
AcDbVertex
100
AcDb2dVertex
 10
103.9209752695514
 20
145.4824723627725
 30
0.0
  0
VERTEX
  5
314
330
2F9
100
AcDbEntity
  8
0
 62
     7
420
 16777215
370
    25
100
AcDbVertex
100
AcDb2dVertex
 10
103.9609186728513
 20
145.452992868173
 30
0.0
  0
VERTEX
  5
315
330
2F9
100
AcDbEntity
  8
0
 62
     7
420
 16777215
370
    25
100
AcDbVertex
100
AcDb2dVertex
 10
104.0013027779511
 20
145.4254329415728
 30
0.0
  0
VERTEX
  5
316
330
2F9
100
AcDbEntity
  8
0
 62
     7
420
 16777215
370
    25
100
AcDbVertex
100
AcDb2dVertex
 10
104.0420338922512
 20
145.3999797120727
 30
0.0
  0
VERTEX
  5
317
330
2F9
100
AcDbEntity
  8
0
 62
     7
420
 16777215
370
    25
100
AcDbVertex
100
AcDb2dVertex
 10
104.0832096431512
 20
145.3764649583727
 30
0.0
  0
VERTEX
  5
318
330
2F9
100
AcDbEntity
  8
0
 62
     7
420
 16777215
370
    25
100
AcDbVertex
100
AcDb2dVertex
 10
104.1243235235513
 20
145.3550295516729
 30
0.0
  0
VERTEX
  5
319
330
2F9
100
AcDbEntity
  8
0
 62
     7
420
 16777215
370
    25
100
AcDbVertex
100
AcDb2dVertex
 10
104.1652219554513
 20
145.3357545079727
 30
0.0
  0
VERTEX
  5
31A
330
2F9
100
AcDbEntity
  8
0
 62
     7
420
 16777215
370
    25
100
AcDbVertex
100
AcDb2dVertex
 10
104.2060663236512
 20
145.3185751734727
 30
0.0
  0
VERTEX
  5
31B
330
2F9
100
AcDbEntity
  8
0
 62
     7
420
 16777215
370
    25
100
AcDbVertex
100
AcDb2dVertex
 10
104.2468279117512
 20
145.3034158348725
 30
0.0
  0
VERTEX
  5
31C
330
2F9
100
AcDbEntity
  8
0
 62
     7
420
 16777215
370
    25
100
AcDbVertex
100
AcDb2dVertex
 10
104.2875041322512
 20
145.290244651873
 30
0.0
  0
VERTEX
  5
31D
330
2F9
100
AcDbEntity
  8
0
 62
     7
420
 16777215
370
    25
100
AcDbVertex
100
AcDb2dVertex
 10
104.3280935249512
 20
145.2790968671727
 30
0.0
  0
VERTEX
  5
31E
330
2F9
100
AcDbEntity
  8
0
 62
     7
420
 16777215
370
    25
100
AcDbVertex
100
AcDb2dVertex
 10
104.3685672053513
 20
145.2699948252724
 30
0.0
  0
VERTEX
  5
31F
330
2F9
100
AcDbEntity
  8
0
 62
     7
420
 16777215
370
    25
100
AcDbVertex
100
AcDb2dVertex
 10
104.4090683131513
 20
145.2629019044728
 30
0.0
  0
VERTEX
  5
320
330
2F9
100
AcDbEntity
  8
0
 62
     7
420
 16777215
370
    25
100
AcDbVertex
100
AcDb2dVertex
 10
104.4494385891511
 20
145.2578460280727
 30
0.0
  0
VERTEX
  5
321
330
2F9
100
AcDbEntity
  8
0
 62
     7
420
 16777215
370
    25
100
AcDbVertex
100
AcDb2dVertex
 10
104.4892037463514
 20
145.2549482965728
 30
0.0
  0
VERTEX
  5
322
330
2F9
100
AcDbEntity
  8
0
 62
     7
420
 16777215
370
    25
100
AcDbVertex
100
AcDb2dVertex
 10
104.5284333351513
 20
145.2542939099729
 30
0.0
  0
VERTEX
  5
323
330
2F9
100
AcDbEntity
  8
0
 62
     7
420
 16777215
370
    25
100
AcDbVertex
100
AcDb2dVertex
 10
104.5670512505514
 20
145.2557870373729
 30
0.0
  0
VERTEX
  5
324
330
2F9
100
AcDbEntity
  8
0
 62
     7
420
 16777215
370
    25
100
AcDbVertex
100
AcDb2dVertex
 10
104.6043855301511
 20
145.2592873661725
 30
0.0
  0
VERTEX
  5
325
330
2F9
100
AcDbEntity
  8
0
 62
     7
420
 16777215
370
    25
100
AcDbVertex
100
AcDb2dVertex
 10
104.6403287707511
 20
145.2648615772729
 30
0.0
  0
VERTEX
  5
326
330
2F9
100
AcDbEntity
  8
0
 62
     7
420
 16777215
370
    25
100
AcDbVertex
100
AcDb2dVertex
 10
104.6750045334511
 20
145.2724410290729
 30
0.0
  0
VERTEX
  5
327
330
2F9
100
AcDbEntity
  8
0
 62
     7
420
 16777215
370
    25
100
AcDbVertex
100
AcDb2dVertex
 10
104.7081081007511
 20
145.2816944897726
 30
0.0
  0
VERTEX
  5
328
330
2F9
100
AcDbEntity
  8
0
 62
     7
420
 16777215
370
    25
100
AcDbVertex
100
AcDb2dVertex
 10
104.7394786585512
 20
145.2925671241727
 30
0.0
  0
VERTEX
  5
329
330
2F9
100
AcDbEntity
  8
0
 62
     7
420
 16777215
370
    25
100
AcDbVertex
100
AcDb2dVertex
 10
104.7693038075513
 20
145.3051185793727
 30
0.0
  0
VERTEX
  5
32A
330
2F9
100
AcDbEntity
  8
0
 62
     7
420
 16777215
370
    25
100
AcDbVertex
100
AcDb2dVertex
 10
104.7978051068508
 20
145.3191924119727
 30
0.0
  0
VERTEX
  5
32B
330
2F9
100
AcDbEntity
  8
0
 62
     7
420
 16777215
370
    25
100
AcDbVertex
100
AcDb2dVertex
 10
104.8250154089512
 20
145.3347159805725
 30
0.0
  0
VERTEX
  5
32C
330
2F9
100
AcDbEntity
  8
0
 62
     7
420
 16777215
370
    25
100
AcDbVertex
100
AcDb2dVertex
 10
104.8509135032513
 20
145.3517587283726
 30
0.0
  0
VERTEX
  5
32D
330
2F9
100
AcDbEntity
  8
0
 62
     7
420
 16777215
370
    25
100
AcDbVertex
100
AcDb2dVertex
 10
104.8555073633514
 20
145.3550360447726
 30
0.0
  0
SEQEND
  5
32E
330
2F9
100
AcDbEntity
  8
0
 62
     7
420
 16777215
370
    25
  0
ENDBLK
  5
2F8
330
2F5
100
AcDbEntity
  8
0
100
AcDbBlockEnd
  0
BLOCK
  5
331
330
32F
100
AcDbEntity
  8
0
100
AcDbBlockBegin
  2
block 39
 70
     0
 10
0.0
 20
0.0
 30
0.0
  3
block 39
  1

  0
POLYLINE
  5
333
330
32F
100
AcDbEntity
  8
0
 62
     7
420
 16777215
370
    25
100
AcDb2dPolyline
 66
     1
 10
0.0
 20
0.0
 30
0.0
  0
VERTEX
  5
334
330
333
100
AcDbEntity
  8
0
 62
     7
420
 16777215
370
    25
100
AcDbVertex
100
AcDb2dVertex
 10
105.0791278352512
 20
148.3623001877727
 30
0.0
  0
VERTEX
  5
335
330
333
100
AcDbEntity
  8
0
 62
     7
420
 16777215
370
    25
100
AcDbVertex
100
AcDb2dVertex
 10
105.0782658079511
 20
148.4032377651727
 30
0.0
  0
VERTEX
  5
336
330
333
100
AcDbEntity
  8
0
 62
     7
420
 16777215
370
    25
100
AcDbVertex
100
AcDb2dVertex
 10
105.0754098214513
 20
148.4447846263726
 30
0.0
  0
VERTEX
  5
337
330
333
100
AcDbEntity
  8
0
 62
     7
420
 16777215
370
    25
100
AcDbVertex
100
AcDb2dVertex
 10
105.0705583088511
 20
148.4869470207728
 30
0.0
  0
SEQEND
  5
338
330
333
100
AcDbEntity
  8
0
 62
     7
420
 16777215
370
    25
  0
ENDBLK
  5
332
330
32F
100
AcDbEntity
  8
0
100
AcDbBlockEnd
  0
BLOCK
  5
33B
330
339
100
AcDbEntity
  8
0
100
AcDbBlockBegin
  2
block 40
 70
     0
 10
0.0
 20
0.0
 30
0.0
  3
block 40
  1

  0
POLYLINE
  5
33D
330
339
100
AcDbEntity
  8
0
 62
     7
420
 16777215
370
    25
100
AcDb2dPolyline
 66
     1
 10
0.0
 20
0.0
 30
0.0
  0
VERTEX
  5
33E
330
33D
100
AcDbEntity
  8
0
 62
     7
420
 16777215
370
    25
100
AcDbVertex
100
AcDb2dVertex
 10
105.0791278721515
 20
145.845757324473
 30
0.0
  0
VERTEX
  5
33F
330
33D
100
AcDbEntity
  8
0
 62
     7
420
 16777215
370
    25
100
AcDbVertex
100
AcDb2dVertex
 10
105.0775938266511
 20
147.1027421877729
 30
0.0
  0
SEQEND
  5
340
330
33D
100
AcDbEntity
  8
0
 62
     7
420
 16777215
370
    25
  0
ENDBLK
  5
33C
330
339
100
AcDbEntity
  8
0
100
AcDbBlockEnd
  0
BLOCK
  5
343
330
341
100
AcDbEntity
  8
0
100
AcDbBlockBegin
  2
block 41
 70
     0
 10
0.0
 20
0.0
 30
0.0
  3
block 41
  1

  0
POLYLINE
  5
345
330
341
100
AcDbEntity
  8
0
 62
     7
420
 16777215
370
    25
100
AcDb2dPolyline
 66
     1
 10
0.0
 20
0.0
 30
0.0
  0
VERTEX
  5
346
330
345
100
AcDbEntity
  8
0
 62
     7
420
 16777215
370
    25
100
AcDbVertex
100
AcDb2dVertex
 10
103.4017867362512
 20
148.9555635255728
 30
0.0
  0
VERTEX
  5
347
330
345
100
AcDbEntity
  8
0
 62
     7
420
 16777215
370
    25
100
AcDbVertex
100
AcDb2dVertex
 10
103.4014679663513
 20
148.8169597409727
 30
0.0
  0
VERTEX
  5
348
330
345
100
AcDbEntity
  8
0
 62
     7
420
 16777215
370
    25
100
AcDbVertex
100
AcDb2dVertex
 10
103.4017867362512
 20
146.4390206814728
 30
0.0
  0
SEQEND
  5
349
330
345
100
AcDbEntity
  8
0
 62
     7
420
 16777215
370
    25
  0
ENDBLK
  5
344
330
341
100
AcDbEntity
  8
0
100
AcDbBlockEnd
  0
BLOCK
  5
34C
330
34A
100
AcDbEntity
  8
0
100
AcDbBlockBegin
  2
block 42
 70
     0
 10
0.0
 20
0.0
 30
0.0
  3
block 42
  1

  0
POLYLINE
  5
34E
330
34A
100
AcDbEntity
  8
0
 62
     7
420
 16777215
370
    25
100
AcDb2dPolyline
 66
     1
 10
0.0
 20
0.0
 30
0.0
  0
VERTEX
  5
34F
330
34E
100
AcDbEntity
  8
0
 62
     7
420
 16777215
370
    25
100
AcDbVertex
100
AcDb2dVertex
 10
105.0775938266511
 20
147.1027421877729
 30
0.0
  0
VERTEX
  5
350
330
34E
100
AcDbEntity
  8
0
 62
     7
420
 16777215
370
    25
100
AcDbVertex
100
AcDb2dVertex
 10
105.0791278721515
 20
148.3623001686728
 30
0.0
  0
SEQEND
  5
351
330
34E
100
AcDbEntity
  8
0
 62
     7
420
 16777215
370
    25
  0
ENDBLK
  5
34D
330
34A
100
AcDbEntity
  8
0
100
AcDbBlockEnd
  0
BLOCK
  5
354
330
352
100
AcDbEntity
  8
0
100
AcDbBlockBegin
  2
block 43
 70
     0
 10
0.0
 20
0.0
 30
0.0
  3
block 43
  1

  0
POLYLINE
  5
356
330
352
100
AcDbEntity
  8
0
 62
     7
420
 16777215
370
    25
100
AcDb2dPolyline
 66
     1
 10
0.0
 20
0.0
 30
0.0
  0
VERTEX
  5
357
330
356
100
AcDbEntity
  8
0
 62
     7
420
 16777215
370
    25
100
AcDbVertex
100
AcDb2dVertex
 10
105.0705583088511
 20
148.4869470207728
 30
0.0
  0
VERTEX
  5
358
330
356
100
AcDbEntity
  8
0
 62
     7
420
 16777215
370
    25
100
AcDbVertex
100
AcDb2dVertex
 10
105.0636407493511
 20
148.5300254365728
 30
0.0
  0
VERTEX
  5
359
330
356
100
AcDbEntity
  8
0
 62
     7
420
 16777215
370
    25
100
AcDbVertex
100
AcDb2dVertex
 10
105.0547141959512
 20
148.5737244002727
 30
0.0
  0
VERTEX
  5
35A
330
356
100
AcDbEntity
  8
0
 62
     7
420
 16777215
370
    25
100
AcDbVertex
100
AcDb2dVertex
 10
105.0439803638511
 20
148.6171651889725
 30
0.0
  0
VERTEX
  5
35B
330
356
100
AcDbEntity
  8
0
 62
     7
420
 16777215
370
    25
100
AcDbVertex
100
AcDb2dVertex
 10
105.0313962074512
 20
148.6602686495729
 30
0.0
  0
VERTEX
  5
35C
330
356
100
AcDbEntity
  8
0
 62
     7
420
 16777215
370
    25
100
AcDbVertex
100
AcDb2dVertex
 10
105.0170132211512
 20
148.7031345665727
 30
0.0
  0
VERTEX
  5
35D
330
356
100
AcDbEntity
  8
0
 62
     7
420
 16777215
370
    25
100
AcDbVertex
100
AcDb2dVertex
 10
105.0011975945513
 20
148.7451677426725
 30
0.0
  0
VERTEX
  5
35E
330
356
100
AcDbEntity
  8
0
 62
     7
420
 16777215
370
    25
100
AcDbVertex
100
AcDb2dVertex
 10
104.9840246089513
 20
148.7861820205726
 30
0.0
  0
VERTEX
  5
35F
330
356
100
AcDbEntity
  8
0
 62
     7
420
 16777215
370
    25
100
AcDbVertex
100
AcDb2dVertex
 10
104.9654378313512
 20
148.8263861226727
 30
0.0
  0
VERTEX
  5
360
330
356
100
AcDbEntity
  8
0
 62
     7
420
 16777215
370
    25
100
AcDbVertex
100
AcDb2dVertex
 10
104.9456144405514
 20
148.8657805684727
 30
0.0
  0
VERTEX
  5
361
330
356
100
AcDbEntity
  8
0
 62
     7
420
 16777215
370
    25
100
AcDbVertex
100
AcDb2dVertex
 10
104.9246381827512
 20
148.9043009038728
 30
0.0
  0
VERTEX
  5
362
330
356
100
AcDbEntity
  8
0
 62
     7
420
 16777215
370
    25
100
AcDbVertex
100
AcDb2dVertex
 10
104.9024351908514
 20
148.9420221925726
 30
0.0
  0
VERTEX
  5
363
330
356
100
AcDbEntity
  8
0
 62
     7
420
 16777215
370
    25
100
AcDbVertex
100
AcDb2dVertex
 10
104.8789418486514
 20
148.9791491500727
 30
0.0
  0
VERTEX
  5
364
330
356
100
AcDbEntity
  8
0
 62
     7
420
 16777215
370
    25
100
AcDbVertex
100
AcDb2dVertex
 10
104.8541978511514
 20
149.0156917916728
 30
0.0
  0
VERTEX
  5
365
330
356
100
AcDbEntity
  8
0
 62
     7
420
 16777215
370
    25
100
AcDbVertex
100
AcDb2dVertex
 10
104.8281591431513
 20
149.0516361740727
 30
0.0
  0
VERTEX
  5
366
330
356
100
AcDbEntity
  8
0
 62
     7
420
 16777215
370
    25
100
AcDbVertex
100
AcDb2dVertex
 10
104.8006279518511
 20
149.0871437939728
 30
0.0
  0
VERTEX
  5
367
330
356
100
AcDbEntity
  8
0
 62
     7
420
 16777215
370
    25
100
AcDbVertex
100
AcDb2dVertex
 10
104.7715975458511
 20
149.1222740799728
 30
0.0
  0
VERTEX
  5
368
330
356
100
AcDbEntity
  8
0
 62
     7
420
 16777215
370
    25
100
AcDbVertex
100
AcDb2dVertex
 10
104.7410555665513
 20
149.1569479570728
 30
0.0
  0
VERTEX
  5
369
330
356
100
AcDbEntity
  8
0
 62
     7
420
 16777215
370
    25
100
AcDbVertex
100
AcDb2dVertex
 10
104.708788340351
 20
149.1911124688727
 30
0.0
  0
VERTEX
  5
36A
330
356
100
AcDbEntity
  8
0
 62
     7
420
 16777215
370
    25
100
AcDbVertex
100
AcDb2dVertex
 10
104.6745460968508
 20
149.2249678001725
 30
0.0
  0
VERTEX
  5
36B
330
356
100
AcDbEntity
  8
0
 62
     7
420
 16777215
370
    25
100
AcDbVertex
100
AcDb2dVertex
 10
104.6385447893513
 20
149.2582758365728
 30
0.0
  0
VERTEX
  5
36C
330
356
100
AcDbEntity
  8
0
 62
     7
420
 16777215
370
    25
100
AcDbVertex
100
AcDb2dVertex
 10
104.6012783688513
 20
149.2903321265728
 30
0.0
  0
VERTEX
  5
36D
330
356
100
AcDbEntity
  8
0
 62
     7
420
 16777215
370
    25
100
AcDbVertex
100
AcDb2dVertex
 10
104.5626406706511
 20
149.3211140147726
 30
0.0
  0
VERTEX
  5
36E
330
356
100
AcDbEntity
  8
0
 62
     7
420
 16777215
370
    25
100
AcDbVertex
100
AcDb2dVertex
 10
104.5227242005511
 20
149.3506160974728
 30
0.0
  0
VERTEX
  5
36F
330
356
100
AcDbEntity
  8
0
 62
     7
420
 16777215
370
    25
100
AcDbVertex
100
AcDb2dVertex
 10
104.4823494228512
 20
149.3781838465726
 30
0.0
  0
VERTEX
  5
370
330
356
100
AcDbEntity
  8
0
 62
     7
420
 16777215
370
    25
100
AcDbVertex
100
AcDb2dVertex
 10
104.4416435731513
 20
149.4036582648727
 30
0.0
  0
VERTEX
  5
371
330
356
100
AcDbEntity
  8
0
 62
     7
420
 16777215
370
    25
100
AcDbVertex
100
AcDb2dVertex
 10
104.4004939741512
 20
149.4271949513725
 30
0.0
  0
VERTEX
  5
372
330
356
100
AcDbEntity
  8
0
 62
     7
420
 16777215
370
    25
100
AcDbVertex
100
AcDb2dVertex
 10
104.3593849903511
 20
149.4486344646729
 30
0.0
  0
VERTEX
  5
373
330
356
100
AcDbEntity
  8
0
 62
     7
420
 16777215
370
    25
100
AcDbVertex
100
AcDb2dVertex
 10
104.3184852580512
 20
149.4679084176727
 30
0.0
  0
VERTEX
  5
374
330
356
100
AcDbEntity
  8
0
 62
     7
420
 16777215
370
    25
100
AcDbVertex
100
AcDb2dVertex
 10
104.2776475076512
 20
149.4850933024728
 30
0.0
  0
VERTEX
  5
375
330
356
100
AcDbEntity
  8
0
 62
     7
420
 16777215
370
    25
100
AcDbVertex
100
AcDb2dVertex
 10
104.2368885566512
 20
149.5002548526728
 30
0.0
  0
VERTEX
  5
376
330
356
100
AcDbEntity
  8
0
 62
     7
420
 16777215
370
    25
100
AcDbVertex
100
AcDb2dVertex
 10
104.1962077531511
 20
149.5134221919726
 30
0.0
  0
VERTEX
  5
377
330
356
100
AcDbEntity
  8
0
 62
     7
420
 16777215
370
    25
100
AcDbVertex
100
AcDb2dVertex
 10
104.1556146435513
 20
149.5245668595727
 30
0.0
  0
VERTEX
  5
378
330
356
100
AcDbEntity
  8
0
 62
     7
420
 16777215
370
    25
100
AcDbVertex
100
AcDb2dVertex
 10
104.1151393568514
 20
149.5336675543728
 30
0.0
  0
VERTEX
  5
379
330
356
100
AcDbEntity
  8
0
 62
     7
420
 16777215
370
    25
100
AcDbVertex
100
AcDb2dVertex
 10
104.0746309635512
 20
149.5407543648727
 30
0.0
  0
VERTEX
  5
37A
330
356
100
AcDbEntity
  8
0
 62
     7
420
 16777215
370
    25
100
AcDbVertex
100
AcDb2dVertex
 10
104.0342378403512
 20
149.5457910800728
 30
0.0
  0
VERTEX
  5
37B
330
356
100
AcDbEntity
  8
0
 62
     7
420
 16777215
370
    25
100
AcDbVertex
100
AcDb2dVertex
 10
103.9944445570512
 20
149.5486652230728
 30
0.0
  0
VERTEX
  5
37C
330
356
100
AcDbEntity
  8
0
 62
     7
420
 16777215
370
    25
100
AcDbVertex
100
AcDb2dVertex
 10
103.9552005074511
 20
149.5493074817726
 30
0.0
  0
VERTEX
  5
37D
330
356
100
AcDbEntity
  8
0
 62
     7
420
 16777215
370
    25
100
AcDbVertex
100
AcDb2dVertex
 10
103.9165584270512
 20
149.5477940879727
 30
0.0
  0
VERTEX
  5
37E
330
356
100
AcDbEntity
  8
0
 62
     7
420
 16777215
370
    25
100
AcDbVertex
100
AcDb2dVertex
 10
103.8791746597513
 20
149.5442522551727
 30
0.0
  0
VERTEX
  5
37F
330
356
100
AcDbEntity
  8
0
 62
     7
420
 16777215
370
    25
100
AcDbVertex
100
AcDb2dVertex
 10
103.8431908536514
 20
149.5386440229728
 30
0.0
  0
VERTEX
  5
380
330
356
100
AcDbEntity
  8
0
 62
     7
420
 16777215
370
    25
100
AcDbVertex
100
AcDb2dVertex
 10
103.8084811519512
 20
149.5310361075723
 30
0.0
  0
VERTEX
  5
381
330
356
100
AcDbEntity
  8
0
 62
     7
420
 16777215
370
    25
100
AcDbVertex
100
AcDb2dVertex
 10
103.7753167651513
 20
149.5217316393727
 30
0.0
  0
VERTEX
  5
382
330
356
100
AcDbEntity
  8
0
 62
     7
420
 16777215
370
    25
100
AcDbVertex
100
AcDb2dVertex
 10
103.7438829562512
 20
149.5108059580728
 30
0.0
  0
VERTEX
  5
383
330
356
100
AcDbEntity
  8
0
 62
     7
420
 16777215
370
    25
100
AcDbVertex
100
AcDb2dVertex
 10
103.7140138918513
 20
149.498217672373
 30
0.0
  0
VERTEX
  5
384
330
356
100
AcDbEntity
  8
0
 62
     7
420
 16777215
370
    25
100
AcDbVertex
100
AcDb2dVertex
 10
103.6854567108512
 20
149.4840969733728
 30
0.0
  0
VERTEX
  5
385
330
356
100
AcDbEntity
  8
0
 62
     7
420
 16777215
370
    25
100
AcDbVertex
100
AcDb2dVertex
 10
103.6581727034514
 20
149.4685115903727
 30
0.0
  0
VERTEX
  5
386
330
356
100
AcDbEntity
  8
0
 62
     7
420
 16777215
370
    25
100
AcDbVertex
100
AcDb2dVertex
 10
103.6322048472512
 20
149.4514103353726
 30
0.0
  0
VERTEX
  5
387
330
356
100
AcDbEntity
  8
0
 62
     7
420
 16777215
370
    25
100
AcDbVertex
100
AcDb2dVertex
 10
103.6074165151512
 20
149.4327379460728
 30
0.0
  0
SEQEND
  5
388
330
356
100
AcDbEntity
  8
0
 62
     7
420
 16777215
370
    25
  0
ENDBLK
  5
355
330
352
100
AcDbEntity
  8
0
100
AcDbBlockEnd
  0
BLOCK
  5
38B
330
389
100
AcDbEntity
  8
0
100
AcDbBlockBegin
  2
block 44
 70
     0
 10
0.0
 20
0.0
 30
0.0
  3
block 44
  1

  0
POLYLINE
  5
38D
330
389
100
AcDbEntity
  8
0
 62
     7
420
 16777215
370
    25
100
AcDb2dPolyline
 66
     1
 10
0.0
 20
0.0
 30
0.0
  0
VERTEX
  5
38E
330
38D
100
AcDbEntity
  8
0
 62
     7
420
 16777215
370
    25
100
AcDbVertex
100
AcDb2dVertex
 10
105.912278830451
 20
147.5323587486724
 30
0.0
  0
VERTEX
  5
38F
330
38D
100
AcDbEntity
  8
0
 62
     7
420
 16777215
370
    25
100
AcDbVertex
100
AcDb2dVertex
 10
105.912897458051
 20
145.293723201173
 30
0.0
  0
SEQEND
  5
390
330
38D
100
AcDbEntity
  8
0
 62
     7
420
 16777215
370
    25
  0
ENDBLK
  5
38C
330
389
100
AcDbEntity
  8
0
100
AcDbBlockEnd
  0
BLOCK
  5
393
330
391
100
AcDbEntity
  8
0
100
AcDbBlockBegin
  2
block 45
 70
     0
 10
0.0
 20
0.0
 30
0.0
  3
block 45
  1

  0
POLYLINE
  5
395
330
391
100
AcDbEntity
  8
0
 62
     7
420
 16777215
370
    25
100
AcDb2dPolyline
 66
     1
 10
0.0
 20
0.0
 30
0.0
  0
VERTEX
  5
396
330
395
100
AcDbEntity
  8
0
 62
     7
420
 16777215
370
    25
100
AcDbVertex
100
AcDb2dVertex
 10
105.912897458051
 20
147.8127477179728
 30
0.0
  0
VERTEX
  5
397
330
395
100
AcDbEntity
  8
0
 62
     7
420
 16777215
370
    25
100
AcDbVertex
100
AcDb2dVertex
 10
105.912278830451
 20
147.5323587486724
 30
0.0
  0
SEQEND
  5
398
330
395
100
AcDbEntity
  8
0
 62
     7
420
 16777215
370
    25
  0
ENDBLK
  5
394
330
391
100
AcDbEntity
  8
0
100
AcDbBlockEnd
  0
BLOCK
  5
39B
330
399
100
AcDbEntity
  8
0
100
AcDbBlockBegin
  2
block 46
 70
     0
 10
0.0
 20
0.0
 30
0.0
  3
block 46
  1

  0
POLYLINE
  5
39D
330
399
100
AcDbEntity
  8
0
 62
     7
420
 16777215
370
    25
100
AcDb2dPolyline
 66
     1
 10
0.0
 20
0.0
 30
0.0
  0
VERTEX
  5
39E
330
39D
100
AcDbEntity
  8
0
 62
     7
420
 16777215
370
    25
100
AcDbVertex
100
AcDb2dVertex
 10
105.912897458051
 20
145.293723201173
 30
0.0
  0
VERTEX
  5
39F
330
39D
100
AcDbEntity
  8
0
 62
     7
420
 16777215
370
    25
100
AcDbVertex
100
AcDb2dVertex
 10
105.9089881698513
 20
145.1709110980727
 30
0.0
  0
VERTEX
  5
3A0
330
39D
100
AcDbEntity
  8
0
 62
     7
420
 16777215
370
    25
100
AcDbVertex
100
AcDb2dVertex
 10
105.8972886027515
 20
145.0526883328727
 30
0.0
  0
VERTEX
  5
3A1
330
39D
100
AcDbEntity
  8
0
 62
     7
420
 16777215
370
    25
100
AcDbVertex
100
AcDb2dVertex
 10
105.8778421758513
 20
144.9389347179726
 30
0.0
  0
VERTEX
  5
3A2
330
39D
100
AcDbEntity
  8
0
 62
     7
420
 16777215
370
    25
100
AcDbVertex
100
AcDb2dVertex
 10
105.8503874377512
 20
144.8289857230726
 30
0.0
  0
VERTEX
  5
3A3
330
39D
100
AcDbEntity
  8
0
 62
     7
420
 16777215
370
    25
100
AcDbVertex
100
AcDb2dVertex
 10
105.8150769562513
 20
144.7232085920729
 30
0.0
  0
VERTEX
  5
3A4
330
39D
100
AcDbEntity
  8
0
 62
     7
420
 16777215
370
    25
100
AcDbVertex
100
AcDb2dVertex
 10
105.7726282939515
 20
144.6231522810728
 30
0.0
  0
VERTEX
  5
3A5
330
39D
100
AcDbEntity
  8
0
 62
     7
420
 16777215
370
    25
100
AcDbVertex
100
AcDb2dVertex
 10
105.7231191443513
 20
144.529233747873
 30
0.0
  0
VERTEX
  5
3A6
330
39D
100
AcDbEntity
  8
0
 62
     7
420
 16777215
370
    25
100
AcDbVertex
100
AcDb2dVertex
 10
105.6663941688512
 20
144.4410551759726
 30
0.0
  0
VERTEX
  5
3A7
330
39D
100
AcDbEntity
  8
0
 62
     7
420
 16777215
370
    25
100
AcDbVertex
100
AcDb2dVertex
 10
105.602961300151
 20
144.3591389831726
 30
0.0
  0
VERTEX
  5
3A8
330
39D
100
AcDbEntity
  8
0
 62
     7
420
 16777215
370
    25
100
AcDbVertex
100
AcDb2dVertex
 10
105.5325606059511
 20
144.2835024353726
 30
0.0
  0
VERTEX
  5
3A9
330
39D
100
AcDbEntity
  8
0
 62
     7
420
 16777215
370
    25
100
AcDbVertex
100
AcDb2dVertex
 10
105.4552830534515
 20
144.214301635673
 30
0.0
  0
VERTEX
  5
3AA
330
39D
100
AcDbEntity
  8
0
 62
     7
420
 16777215
370
    25
100
AcDbVertex
100
AcDb2dVertex
 10
105.3723130766512
 20
144.1524240746729
 30
0.0
  0
VERTEX
  5
3AB
330
39D
100
AcDbEntity
  8
0
 62
     7
420
 16777215
370
    25
100
AcDbVertex
100
AcDb2dVertex
 10
105.283981200451
 20
144.0983460700728
 30
0.0
  0
VERTEX
  5
3AC
330
39D
100
AcDbEntity
  8
0
 62
     7
420
 16777215
370
    25
100
AcDbVertex
100
AcDb2dVertex
 10
105.1899480799515
 20
144.0519966208728
 30
0.0
  0
VERTEX
  5
3AD
330
39D
100
AcDbEntity
  8
0
 62
     7
420
 16777215
370
    25
100
AcDbVertex
100
AcDb2dVertex
 10
105.0905185275512
 20
144.0135370587728
 30
0.0
  0
VERTEX
  5
3AE
330
39D
100
AcDbEntity
  8
0
 62
     7
420
 16777215
370
    25
100
AcDbVertex
100
AcDb2dVertex
 10
104.9852390960512
 20
143.9830572549728
 30
0.0
  0
VERTEX
  5
3AF
330
39D
100
AcDbEntity
  8
0
 62
     7
420
 16777215
370
    25
100
AcDbVertex
100
AcDb2dVertex
 10
104.8744810176516
 20
143.9608526142729
 30
0.0
  0
VERTEX
  5
3B0
330
39D
100
AcDbEntity
  8
0
 62
     7
420
 16777215
370
    25
100
AcDbVertex
100
AcDb2dVertex
 10
104.7599185620513
 20
143.9474314470729
 30
0.0
  0
VERTEX
  5
3B1
330
39D
100
AcDbEntity
  8
0
 62
     7
420
 16777215
370
    25
100
AcDbVertex
100
AcDb2dVertex
 10
104.6414290562513
 20
143.943275447873
 30
0.0
  0
VERTEX
  5
3B2
330
39D
100
AcDbEntity
  8
0
 62
     7
420
 16777215
370
    25
100
AcDbVertex
100
AcDb2dVertex
 10
104.5192378887513
 20
143.9482669039724
 30
0.0
  0
VERTEX
  5
3B3
330
39D
100
AcDbEntity
  8
0
 62
     7
420
 16777215
370
    25
100
AcDbVertex
100
AcDb2dVertex
 10
104.3957895000511
 20
143.9620337875726
 30
0.0
  0
VERTEX
  5
3B4
330
39D
100
AcDbEntity
  8
0
 62
     7
420
 16777215
370
    25
100
AcDbVertex
100
AcDb2dVertex
 10
104.2717865798514
 20
143.9847058607728
 30
0.0
  0
VERTEX
  5
3B5
330
39D
100
AcDbEntity
  8
0
 62
     7
420
 16777215
370
    25
100
AcDbVertex
100
AcDb2dVertex
 10
104.1468229268512
 20
144.0163407319725
 30
0.0
  0
VERTEX
  5
3B6
330
39D
100
AcDbEntity
  8
0
 62
     7
420
 16777215
370
    25
100
AcDbVertex
100
AcDb2dVertex
 10
104.0218316769511
 20
144.0564202962725
 30
0.0
  0
VERTEX
  5
3B7
330
39D
100
AcDbEntity
  8
0
 62
     7
420
 16777215
370
    25
100
AcDbVertex
100
AcDb2dVertex
 10
103.8969088201511
 20
144.1047701988728
 30
0.0
  0
VERTEX
  5
3B8
330
39D
100
AcDbEntity
  8
0
 62
     7
420
 16777215
370
    25
100
AcDbVertex
100
AcDb2dVertex
 10
103.7721480513514
 20
144.1614987394725
 30
0.0
  0
VERTEX
  5
3B9
330
39D
100
AcDbEntity
  8
0
 62
     7
420
 16777215
370
    25
100
AcDbVertex
100
AcDb2dVertex
 10
103.6485138892514
 20
144.2264579177729
 30
0.0
  0
VERTEX
  5
3BA
330
39D
100
AcDbEntity
  8
0
 62
     7
420
 16777215
370
    25
100
AcDbVertex
100
AcDb2dVertex
 10
103.5255315955513
 20
144.2998883151727
 30
0.0
  0
VERTEX
  5
3BB
330
39D
100
AcDbEntity
  8
0
 62
     7
420
 16777215
370
    25
100
AcDbVertex
100
AcDb2dVertex
 10
103.4037216764513
 20
144.3812387184728
 30
0.0
  0
VERTEX
  5
3BC
330
39D
100
AcDbEntity
  8
0
 62
     7
420
 16777215
370
    25
100
AcDbVertex
100
AcDb2dVertex
 10
103.2856231924514
 20
144.469157460773
 30
0.0
  0
VERTEX
  5
3BD
330
39D
100
AcDbEntity
  8
0
 62
     7
420
 16777215
370
    25
100
AcDbVertex
100
AcDb2dVertex
 10
103.1715407589515
 20
144.5636153707725
 30
0.0
  0
VERTEX
  5
3BE
330
39D
100
AcDbEntity
  8
0
 62
     7
420
 16777215
370
    25
100
AcDbVertex
100
AcDb2dVertex
 10
103.0612002206512
 20
144.6642222034729
 30
0.0
  0
VERTEX
  5
3BF
330
39D
100
AcDbEntity
  8
0
 62
     7
420
 16777215
370
    25
100
AcDbVertex
100
AcDb2dVertex
 10
102.9563916253511
 20
144.7691546588727
 30
0.0
  0
VERTEX
  5
3C0
330
39D
100
AcDbEntity
  8
0
 62
     7
420
 16777215
370
    25
100
AcDbVertex
100
AcDb2dVertex
 10
102.8576196188513
 20
144.8777913612728
 30
0.0
  0
VERTEX
  5
3C1
330
39D
100
AcDbEntity
  8
0
 62
     7
420
 16777215
370
    25
100
AcDbVertex
100
AcDb2dVertex
 10
102.7643556821512
 20
144.9904171155726
 30
0.0
  0
VERTEX
  5
3C2
330
39D
100
AcDbEntity
  8
0
 62
     7
420
 16777215
370
    25
100
AcDbVertex
100
AcDb2dVertex
 10
102.6768796703513
 20
145.1066462571728
 30
0.0
  0
VERTEX
  5
3C3
330
39D
100
AcDbEntity
  8
0
 62
     7
420
 16777215
370
    25
100
AcDbVertex
100
AcDb2dVertex
 10
102.5947944388514
 20
145.2267754431729
 30
0.0
  0
VERTEX
  5
3C4
330
39D
100
AcDbEntity
  8
0
 62
     7
420
 16777215
370
    25
100
AcDbVertex
100
AcDb2dVertex
 10
102.5182782358513
 20
145.350193851573
 30
0.0
  0
VERTEX
  5
3C5
330
39D
100
AcDbEntity
  8
0
 62
     7
420
 16777215
370
    25
100
AcDbVertex
100
AcDb2dVertex
 10
102.4485137929512
 20
145.4752699046726
 30
0.0
  0
VERTEX
  5
3C6
330
39D
100
AcDbEntity
  8
0
 62
     7
420
 16777215
370
    25
100
AcDbVertex
100
AcDb2dVertex
 10
102.3856073919511
 20
145.6018236309725
 30
0.0
  0
VERTEX
  5
3C7
330
39D
100
AcDbEntity
  8
0
 62
     7
420
 16777215
370
    25
100
AcDbVertex
100
AcDb2dVertex
 10
102.3292400408513
 20
145.7299856635724
 30
0.0
  0
VERTEX
  5
3C8
330
39D
100
AcDbEntity
  8
0
 62
     7
420
 16777215
370
    25
100
AcDbVertex
100
AcDb2dVertex
 10
102.2800409551514
 20
145.8587674822728
 30
0.0
  0
VERTEX
  5
3C9
330
39D
100
AcDbEntity
  8
0
 62
     7
420
 16777215
370
    25
100
AcDbVertex
100
AcDb2dVertex
 10
102.2378654209511
 20
145.9886283900728
 30
0.0
  0
VERTEX
  5
3CA
330
39D
100
AcDbEntity
  8
0
 62
     7
420
 16777215
370
    25
100
AcDbVertex
100
AcDb2dVertex
 10
102.2025936062512
 20
146.1192177839725
 30
0.0
  0
VERTEX
  5
3CB
330
39D
100
AcDbEntity
  8
0
 62
     7
420
 16777215
370
    25
100
AcDbVertex
100
AcDb2dVertex
 10
102.1750197289513
 20
146.2485322545725
 30
0.0
  0
VERTEX
  5
3CC
330
39D
100
AcDbEntity
  8
0
 62
     7
420
 16777215
370
    25
100
AcDbVertex
100
AcDb2dVertex
 10
102.1554074748511
 20
146.3760785202725
 30
0.0
  0
VERTEX
  5
3CD
330
39D
100
AcDbEntity
  8
0
 62
     7
420
 16777215
370
    25
100
AcDbVertex
100
AcDb2dVertex
 10
102.1433671313517
 20
146.5027205728729
 30
0.0
  0
VERTEX
  5
3CE
330
39D
100
AcDbEntity
  8
0
 62
     7
420
 16777215
370
    25
100
AcDbVertex
100
AcDb2dVertex
 10
102.1387938561515
 20
146.6285961880726
 30
0.0
  0
SEQEND
  5
3CF
330
39D
100
AcDbEntity
  8
0
 62
     7
420
 16777215
370
    25
  0
ENDBLK
  5
39C
330
399
100
AcDbEntity
  8
0
100
AcDbBlockEnd
  0
BLOCK
  5
3D2
330
3D0
100
AcDbEntity
  8
0
100
AcDbBlockBegin
  2
block 47
 70
     0
 10
0.0
 20
0.0
 30
0.0
  3
block 47
  1

  0
POLYLINE
  5
3D4
330
3D0
100
AcDbEntity
  8
0
 62
     7
420
 16777215
370
    25
100
AcDb2dPolyline
 66
     1
 10
0.0
 20
0.0
 30
0.0
  0
VERTEX
  5
3D5
330
3D4
100
AcDbEntity
  8
0
 62
     7
420
 16777215
370
    25
100
AcDbVertex
100
AcDb2dVertex
 10
105.0632780181513
 20
145.688200419073
 30
0.0
  0
VERTEX
  5
3D6
330
3D4
100
AcDbEntity
  8
0
 62
     7
420
 16777215
370
    25
100
AcDbVertex
100
AcDb2dVertex
 10
105.0703654083513
 20
145.7265727073725
 30
0.0
  0
VERTEX
  5
3D7
330
3D4
100
AcDbEntity
  8
0
 62
     7
420
 16777215
370
    25
100
AcDbVertex
100
AcDb2dVertex
 10
105.0753312049512
 20
145.7654895596729
 30
0.0
  0
VERTEX
  5
3D8
330
3D4
100
AcDbEntity
  8
0
 62
     7
420
 16777215
370
    25
100
AcDbVertex
100
AcDb2dVertex
 10
105.0782514065514
 20
145.8052152516728
 30
0.0
  0
VERTEX
  5
3D9
330
3D4
100
AcDbEntity
  8
0
 62
     7
420
 16777215
370
    25
100
AcDbVertex
100
AcDb2dVertex
 10
105.0791278352512
 20
145.8457573436726
 30
0.0
  0
SEQEND
  5
3DA
330
3D4
100
AcDbEntity
  8
0
 62
     7
420
 16777215
370
    25
  0
ENDBLK
  5
3D3
330
3D0
100
AcDbEntity
  8
0
100
AcDbBlockEnd
  0
BLOCK
  5
3DD
330
3DB
100
AcDbEntity
  8
0
100
AcDbBlockBegin
  2
block 48
 70
     0
 10
0.0
 20
0.0
 30
0.0
  3
block 48
  1

  0
POLYLINE
  5
3DF
330
3DB
100
AcDbEntity
  8
0
 62
     7
420
 16777215
370
    25
100
AcDb2dPolyline
 66
     1
 10
0.0
 20
0.0
 30
0.0
  0
VERTEX
  5
3E0
330
3DF
100
AcDbEntity
  8
0
 62
     7
420
 16777215
370
    25
100
AcDbVertex
100
AcDb2dVertex
 10
104.8756323892512
 20
145.370372875173
 30
0.0
  0
VERTEX
  5
3E1
330
3DF
100
AcDbEntity
  8
0
 62
     7
420
 16777215
370
    25
100
AcDbVertex
100
AcDb2dVertex
 10
104.8992124592511
 20
145.390504257373
 30
0.0
  0
VERTEX
  5
3E2
330
3DF
100
AcDbEntity
  8
0
 62
     7
420
 16777215
370
    25
100
AcDbVertex
100
AcDb2dVertex
 10
104.9216126029512
 20
145.4121963909728
 30
0.0
  0
VERTEX
  5
3E3
330
3DF
100
AcDbEntity
  8
0
 62
     7
420
 16777215
370
    25
100
AcDbVertex
100
AcDb2dVertex
 10
104.9428366373512
 20
145.4356430768726
 30
0.0
  0
VERTEX
  5
3E4
330
3DF
100
AcDbEntity
  8
0
 62
     7
420
 16777215
370
    25
100
AcDbVertex
100
AcDb2dVertex
 10
104.9629530157511
 20
145.4608446389726
 30
0.0
  0
VERTEX
  5
3E5
330
3DF
100
AcDbEntity
  8
0
 62
     7
420
 16777215
370
    25
100
AcDbVertex
100
AcDb2dVertex
 10
104.9818798847511
 20
145.4877817006728
 30
0.0
  0
VERTEX
  5
3E6
330
3DF
100
AcDbEntity
  8
0
 62
     7
420
 16777215
370
    25
100
AcDbVertex
100
AcDb2dVertex
 10
104.9993928505514
 20
145.5166168105729
 30
0.0
  0
VERTEX
  5
3E7
330
3DF
100
AcDbEntity
  8
0
 62
     7
420
 16777215
370
    25
100
AcDbVertex
100
AcDb2dVertex
 10
105.0155430786517
 20
145.5475021180729
 30
0.0
  0
VERTEX
  5
3E8
330
3DF
100
AcDbEntity
  8
0
 62
     7
420
 16777215
370
    25
100
AcDbVertex
100
AcDb2dVertex
 10
105.0302584340514
 20
145.5802630861727
 30
0.0
  0
VERTEX
  5
3E9
330
3DF
100
AcDbEntity
  8
0
 62
     7
420
 16777215
370
    25
100
AcDbVertex
100
AcDb2dVertex
 10
105.0431398921513
 20
145.6145826160727
 30
0.0
  0
VERTEX
  5
3EA
330
3DF
100
AcDbEntity
  8
0
 62
     7
420
 16777215
370
    25
100
AcDbVertex
100
AcDb2dVertex
 10
105.0541304638512
 20
145.6506151787727
 30
0.0
  0
VERTEX
  5
3EB
330
3DF
100
AcDbEntity
  8
0
 62
     7
420
 16777215
370
    25
100
AcDbVertex
100
AcDb2dVertex
 10
105.0632780181513
 20
145.688200419073
 30
0.0
  0
SEQEND
  5
3EC
330
3DF
100
AcDbEntity
  8
0
 62
     7
420
 16777215
370
    25
  0
ENDBLK
  5
3DE
330
3DB
100
AcDbEntity
  8
0
100
AcDbBlockEnd
  0
BLOCK
  5
3EF
330
3ED
100
AcDbEntity
  8
0
100
AcDbBlockBegin
  2
block 49
 70
     0
 10
0.0
 20
0.0
 30
0.0
  3
block 49
  1

  0
POLYLINE
  5
3F1
330
3ED
100
AcDbEntity
  8
0
 62
     7
420
 16777215
370
    25
100
AcDb2dPolyline
 66
     1
 10
0.0
 20
0.0
 30
0.0
  0
VERTEX
  5
3F2
330
3F1
100
AcDbEntity
  8
0
 62
     7
420
 16777215
370
    25
100
AcDbVertex
100
AcDb2dVertex
 10
104.8555073633514
 20
145.3550360447726
 30
0.0
  0
VERTEX
  5
3F3
330
3F1
100
AcDbEntity
  8
0
 62
     7
420
 16777215
370
    25
100
AcDbVertex
100
AcDb2dVertex
 10
104.8756323892512
 20
145.370372875173
 30
0.0
  0
SEQEND
  5
3F4
330
3F1
100
AcDbEntity
  8
0
 62
     7
420
 16777215
370
    25
  0
ENDBLK
  5
3F0
330
3ED
100
AcDbEntity
  8
0
100
AcDbBlockEnd
  0
BLOCK
  5
3F7
330
3F5
100
AcDbEntity
  8
0
100
AcDbBlockBegin
  2
block 50
 70
     0
 10
0.0
 20
0.0
 30
0.0
  3
block 50
  1

  0
POLYLINE
  5
3F9
330
3F5
100
AcDbEntity
  8
0
 62
     7
420
 16777215
370
    25
100
AcDb2dPolyline
 66
     1
 10
0.0
 20
0.0
 30
0.0
  0
VERTEX
  5
3FA
330
3F9
100
AcDbEntity
  8
0
 62
     7
420
 16777215
370
    25
100
AcDbVertex
100
AcDb2dVertex
 10
115.2844489536515
 20
127.4998058678725
 30
0.0
  0
VERTEX
  5
3FB
330
3F9
100
AcDbEntity
  8
0
 62
     7
420
 16777215
370
    25
100
AcDbVertex
100
AcDb2dVertex
 10
115.2844489536515
 20
163.7512430282727
 30
0.0
  0
SEQEND
  5
3FC
330
3F9
100
AcDbEntity
  8
0
 62
     7
420
 16777215
370
    25
  0
ENDBLK
  5
3F8
330
3F5
100
AcDbEntity
  8
0
100
AcDbBlockEnd
  0
BLOCK
  5
3FF
330
3FD
100
AcDbEntity
  8
0
100
AcDbBlockBegin
  2
block 51
 70
     0
 10
0.0
 20
0.0
 30
0.0
  3
block 51
  1

  0
POLYLINE
  5
401
330
3FD
100
AcDbEntity
  8
0
 62
     7
420
 16777215
370
    25
100
AcDb2dPolyline
 66
     1
 10
0.0
 20
0.0
 30
0.0
  0
VERTEX
  5
402
330
401
100
AcDbEntity
  8
0
 62
     7
420
 16777215
370
    25
100
AcDbVertex
100
AcDb2dVertex
 10
114.8656883541509
 20
164.318116205373
 30
0.0
  0
VERTEX
  5
403
330
401
100
AcDbEntity
  8
0
 62
     7
420
 16777215
370
    25
100
AcDbVertex
100
AcDb2dVertex
 10
97.18971321815125
 20
170.5699800162728
 30
0.0
  0
SEQEND
  5
404
330
401
100
AcDbEntity
  8
0
 62
     7
420
 16777215
370
    25
  0
ENDBLK
  5
400
330
3FD
100
AcDbEntity
  8
0
100
AcDbBlockEnd
  0
BLOCK
  5
407
330
405
100
AcDbEntity
  8
0
100
AcDbBlockBegin
  2
block 52
 70
     0
 10
0.0
 20
0.0
 30
0.0
  3
block 52
  1

  0
POLYLINE
  5
409
330
405
100
AcDbEntity
  8
0
 62
     7
420
 16777215
370
    25
100
AcDb2dPolyline
 66
     1
 10
0.0
 20
0.0
 30
0.0
  0
VERTEX
  5
40A
330
409
100
AcDbEntity
  8
0
 62
     7
420
 16777215
370
    25
100
AcDbVertex
100
AcDb2dVertex
 10
115.2844489536515
 20
127.4998058678725
 30
0.0
  0
VERTEX
  5
40B
330
409
100
AcDbEntity
  8
0
 62
     7
420
 16777215
370
    25
100
AcDbVertex
100
AcDb2dVertex
 10
114.3138022854514
 20
126.8446613713724
 30
0.0
  0
SEQEND
  5
40C
330
409
100
AcDbEntity
  8
0
 62
     7
420
 16777215
370
    25
  0
ENDBLK
  5
408
330
405
100
AcDbEntity
  8
0
100
AcDbBlockEnd
  0
BLOCK
  5
40F
330
40D
100
AcDbEntity
  8
0
100
AcDbBlockBegin
  2
block 53
 70
     0
 10
0.0
 20
0.0
 30
0.0
  3
block 53
  1

  0
SPLINE
  5
411
330
40D
100
AcDbEntity
  8
0
 62
     7
420
 16777215
370
    25
100
AcDbSpline
210
0.0
220
0.0
230
1.0
 70
     8
 71
     3
 72
     8
 73
     4
 74
     0
 42
0.0000000001
 43
0.0000000001
 12
1.0
 22
0.0
 32
0.0
 13
1.0
 23
0.0
 33
0.0
 40
0.0
 40
0.0
 40
0.0
 40
0.0
 40
1.0
 40
1.0
 40
1.0
 40
1.0
 10
115.1660459515053
 20
127.2497457757161
 30
0.0
 10
115.2419837785495
 20
127.3010184820952
 30
0.0
 10
115.2844489537196
 20
127.39070240409
 30
0.0
 10
115.2844489537221
 20
127.4998058678314
 30
0.0
  0
ENDBLK
  5
410
330
40D
100
AcDbEntity
  8
0
100
AcDbBlockEnd
  0
BLOCK
  5
414
330
412
100
AcDbEntity
  8
0
100
AcDbBlockBegin
  2
block 54
 70
     0
 10
0.0
 20
0.0
 30
0.0
  3
block 54
  1

  0
SPLINE
  5
416
330
412
100
AcDbEntity
  8
0
 62
     7
420
 16777215
370
    25
100
AcDbSpline
210
0.0
220
0.0
230
1.0
 70
     8
 71
     3
 72
     8
 73
     4
 74
     0
 42
0.0000000001
 43
0.0000000001
 12
1.0
 22
0.0
 32
0.0
 13
1.0
 23
0.0
 33
0.0
 40
0.0
 40
0.0
 40
0.0
 40
0.0
 40
1.0
 40
1.0
 40
1.0
 40
1.0
 10
97.18971321814483
 20
170.569980016302
 30
0.0
 10
97.05514144895828
 20
170.6175770720534
 30
0.0
 10
96.92889910314288
 20
170.5977298112682
 30
0.0
 10
96.85021353980744
 20
170.5166053850803
 30
0.0
  0
ENDBLK
  5
415
330
412
100
AcDbEntity
  8
0
100
AcDbBlockEnd
  0
BLOCK
  5
419
330
417
100
AcDbEntity
  8
0
100
AcDbBlockBegin
  2
block 55
 70
     0
 10
0.0
 20
0.0
 30
0.0
  3
block 55
  1

  0
SPLINE
  5
41B
330
417
100
AcDbEntity
  8
0
 62
     7
420
 16777215
370
    25
100
AcDbSpline
210
0.0
220
0.0
230
1.0
 70
     8
 71
     3
 72
     8
 73
     4
 74
     0
 42
0.0000000001
 43
0.0000000001
 12
1.0
 22
0.0
 32
0.0
 13
1.0
 23
0.0
 33
0.0
 40
0.0
 40
0.0
 40
0.0
 40
0.0
 40
1.0
 40
1.0
 40
1.0
 40
1.0
 10
115.2844489537298
 20
163.7512430283381
 30
0.0
 10
115.2844489537375
 20
163.9827034297851
 30
0.0
 10
115.0971487556265
 20
164.2362503453287
 30
0.0
 10
114.8656883541773
 20
164.3181162054022
 30
0.0
  0
ENDBLK
  5
41A
330
417
100
AcDbEntity
  8
0
100
AcDbBlockEnd
  0
BLOCK
  5
41F
330
41D
100
AcDbEntity
  8
0
100
AcDbBlockBegin
  2
block 56
 70
     0
 10
0.0
 20
0.0
 30
0.0
  3
block 56
  1

  0
POLYLINE
  5
421
330
41D
100
AcDbEntity
  8
DRAFT
 62
     7
420
 16777215
370
    25
100
AcDb2dPolyline
 66
     1
 10
0.0
 20
0.0
 30
0.0
  0
VERTEX
  5
422
330
421
100
AcDbEntity
  8
DRAFT
 62
     7
420
 16777215
370
    25
100
AcDbVertex
100
AcDb2dVertex
 10
103.4151918653512
 20
149.0978813712726
 30
0.0
  0
VERTEX
  5
423
330
421
100
AcDbEntity
  8
DRAFT
 62
     7
420
 16777215
370
    25
100
AcDbVertex
100
AcDb2dVertex
 10
103.4310395307514
 20
149.1632622870729
 30
0.0
  0
SEQEND
  5
424
330
421
100
AcDbEntity
  8
DRAFT
 62
     7
420
 16777215
370
    25
  0
ENDBLK
  5
420
330
41D
100
AcDbEntity
  8
0
100
AcDbBlockEnd
  0
BLOCK
  5
427
330
425
100
AcDbEntity
  8
0
100
AcDbBlockBegin
  2
block 57
 70
     0
 10
0.0
 20
0.0
 30
0.0
  3
block 57
  1

  0
POLYLINE
  5
429
330
425
100
AcDbEntity
  8
DRAFT
 62
     7
420
 16777215
370
    25
100
AcDb2dPolyline
 66
     1
 10
0.0
 20
0.0
 30
0.0
  0
VERTEX
  5
42A
330
429
100
AcDbEntity
  8
DRAFT
 62
     7
420
 16777215
370
    25
100
AcDbVertex
100
AcDb2dVertex
 10
103.4310395307514
 20
149.1632622870729
 30
0.0
  0
VERTEX
  5
42B
330
429
100
AcDbEntity
  8
DRAFT
 62
     7
420
 16777215
370
    25
100
AcDbVertex
100
AcDb2dVertex
 10
103.4530300195511
 20
149.2245867673728
 30
0.0
  0
SEQEND
  5
42C
330
429
100
AcDbEntity
  8
DRAFT
 62
     7
420
 16777215
370
    25
  0
ENDBLK
  5
428
330
425
100
AcDbEntity
  8
0
100
AcDbBlockEnd
  0
BLOCK
  5
42F
330
42D
100
AcDbEntity
  8
0
100
AcDbBlockBegin
  2
block 58
 70
     0
 10
0.0
 20
0.0
 30
0.0
  3
block 58
  1

  0
POLYLINE
  5
431
330
42D
100
AcDbEntity
  8
DRAFT
 62
     7
420
 16777215
370
    25
100
AcDb2dPolyline
 66
     1
 10
0.0
 20
0.0
 30
0.0
  0
VERTEX
  5
432
330
431
100
AcDbEntity
  8
DRAFT
 62
     7
420
 16777215
370
    25
100
AcDbVertex
100
AcDb2dVertex
 10
103.4532388927514
 20
149.2251692482727
 30
0.0
  0
VERTEX
  5
433
330
431
100
AcDbEntity
  8
DRAFT
 62
     7
420
 16777215
370
    25
100
AcDbVertex
100
AcDb2dVertex
 10
103.4813906194511
 20
149.2828263009726
 30
0.0
  0
SEQEND
  5
434
330
431
100
AcDbEntity
  8
DRAFT
 62
     7
420
 16777215
370
    25
  0
ENDBLK
  5
430
330
42D
100
AcDbEntity
  8
0
100
AcDbBlockEnd
  0
BLOCK
  5
437
330
435
100
AcDbEntity
  8
0
100
AcDbBlockBegin
  2
block 59
 70
     0
 10
0.0
 20
0.0
 30
0.0
  3
block 59
  1

  0
POLYLINE
  5
439
330
435
100
AcDbEntity
  8
DRAFT
 62
     7
420
 16777215
370
    25
100
AcDb2dPolyline
 66
     1
 10
0.0
 20
0.0
 30
0.0
  0
VERTEX
  5
43A
330
439
100
AcDbEntity
  8
DRAFT
 62
     7
420
 16777215
370
    25
100
AcDbVertex
100
AcDb2dVertex
 10
103.4815707390511
 20
149.2831952009728
 30
0.0
  0
VERTEX
  5
43B
330
439
100
AcDbEntity
  8
DRAFT
 62
     7
420
 16777215
370
    25
100
AcDbVertex
100
AcDb2dVertex
 10
103.5154081228512
 20
149.3361195205725
 30
0.0
  0
SEQEND
  5
43C
330
439
100
AcDbEntity
  8
DRAFT
 62
     7
420
 16777215
370
    25
  0
ENDBLK
  5
438
330
435
100
AcDbEntity
  8
0
100
AcDbBlockEnd
  0
BLOCK
  5
43F
330
43D
100
AcDbEntity
  8
0
100
AcDbBlockBegin
  2
block 60
 70
     0
 10
0.0
 20
0.0
 30
0.0
  3
block 60
  1

  0
POLYLINE
  5
441
330
43D
100
AcDbEntity
  8
DRAFT
 62
     7
420
 16777215
370
    25
100
AcDb2dPolyline
 66
     1
 10
0.0
 20
0.0
 30
0.0
  0
VERTEX
  5
442
330
441
100
AcDbEntity
  8
DRAFT
 62
     7
420
 16777215
370
    25
100
AcDbVertex
100
AcDb2dVertex
 10
103.5154081228512
 20
149.3361195205725
 30
0.0
  0
VERTEX
  5
443
330
441
100
AcDbEntity
  8
DRAFT
 62
     7
420
 16777215
370
    25
100
AcDbVertex
100
AcDb2dVertex
 10
103.5546189186512
 20
149.3834377983726
 30
0.0
  0
SEQEND
  5
444
330
441
100
AcDbEntity
  8
DRAFT
 62
     7
420
 16777215
370
    25
  0
ENDBLK
  5
440
330
43D
100
AcDbEntity
  8
0
100
AcDbBlockEnd
  0
BLOCK
  5
447
330
445
100
AcDbEntity
  8
0
100
AcDbBlockBegin
  2
block 61
 70
     0
 10
0.0
 20
0.0
 30
0.0
  3
block 61
  1

  0
POLYLINE
  5
449
330
445
100
AcDbEntity
  8
DRAFT
 62
     7
420
 16777215
370
    25
100
AcDb2dPolyline
 66
     1
 10
0.0
 20
0.0
 30
0.0
  0
VERTEX
  5
44A
330
449
100
AcDbEntity
  8
DRAFT
 62
     7
420
 16777215
370
    25
100
AcDbVertex
100
AcDb2dVertex
 10
103.5549940022511
 20
149.3838904367729
 30
0.0
  0
VERTEX
  5
44B
330
449
100
AcDbEntity
  8
DRAFT
 62
     7
420
 16777215
370
    25
100
AcDbVertex
100
AcDb2dVertex
 10
103.5719864704513
 20
149.4011756907728
 30
0.0
  0
SEQEND
  5
44C
330
449
100
AcDbEntity
  8
DRAFT
 62
     7
420
 16777215
370
    25
  0
ENDBLK
  5
448
330
445
100
AcDbEntity
  8
0
100
AcDbBlockEnd
  0
BLOCK
  5
44F
330
44D
100
AcDbEntity
  8
0
100
AcDbBlockBegin
  2
block 62
 70
     0
 10
0.0
 20
0.0
 30
0.0
  3
block 62
  1

  0
POLYLINE
  5
451
330
44D
100
AcDbEntity
  8
DRAFT
 62
     7
420
 16777215
370
    25
100
AcDb2dPolyline
 66
     1
 10
0.0
 20
0.0
 30
0.0
  0
VERTEX
  5
452
330
451
100
AcDbEntity
  8
DRAFT
 62
     7
420
 16777215
370
    25
100
AcDbVertex
100
AcDb2dVertex
 10
103.5719864704513
 20
149.4011756907728
 30
0.0
  0
VERTEX
  5
453
330
451
100
AcDbEntity
  8
DRAFT
 62
     7
420
 16777215
370
    25
100
AcDbVertex
100
AcDb2dVertex
 10
103.6001234707513
 20
149.426544898773
 30
0.0
  0
VERTEX
  5
454
330
451
100
AcDbEntity
  8
DRAFT
 62
     7
420
 16777215
370
    25
100
AcDbVertex
100
AcDb2dVertex
 10
103.6495770762511
 20
149.4630486882728
 30
0.0
  0
VERTEX
  5
455
330
451
100
AcDbEntity
  8
DRAFT
 62
     7
420
 16777215
370
    25
100
AcDbVertex
100
AcDb2dVertex
 10
103.7033748052511
 20
149.4931774441726
 30
0.0
  0
VERTEX
  5
456
330
451
100
AcDbEntity
  8
DRAFT
 62
     7
420
 16777215
370
    25
100
AcDbVertex
100
AcDb2dVertex
 10
103.7615451636514
 20
149.5171125921727
 30
0.0
  0
VERTEX
  5
457
330
451
100
AcDbEntity
  8
DRAFT
 62
     7
420
 16777215
370
    25
100
AcDbVertex
100
AcDb2dVertex
 10
103.8229459235513
 20
149.5344883720727
 30
0.0
  0
VERTEX
  5
458
330
451
100
AcDbEntity
  8
DRAFT
 62
     7
420
 16777215
370
    25
100
AcDbVertex
100
AcDb2dVertex
 10
103.8878021366511
 20
149.5451833246727
 30
0.0
  0
VERTEX
  5
459
330
451
100
AcDbEntity
  8
DRAFT
 62
     7
420
 16777215
370
    25
100
AcDbVertex
100
AcDb2dVertex
 10
103.9558891260513
 20
149.5492435545727
 30
0.0
  0
VERTEX
  5
45A
330
451
100
AcDbEntity
  8
DRAFT
 62
     7
420
 16777215
370
    25
100
AcDbVertex
100
AcDb2dVertex
 10
104.0254495047508
 20
149.5466328529727
 30
0.0
  0
VERTEX
  5
45B
330
451
100
AcDbEntity
  8
DRAFT
 62
     7
420
 16777215
370
    25
100
AcDbVertex
100
AcDb2dVertex
 10
104.0963943615515
 20
149.5372296848728
 30
0.0
  0
VERTEX
  5
45C
330
451
100
AcDbEntity
  8
DRAFT
 62
     7
420
 16777215
370
    25
100
AcDbVertex
100
AcDb2dVertex
 10
104.1688044539512
 20
149.5211328724731
 30
0.0
  0
VERTEX
  5
45D
330
451
100
AcDbEntity
  8
DRAFT
 62
     7
420
 16777215
370
    25
100
AcDbVertex
100
AcDb2dVertex
 10
104.2412417741513
 20
149.4987305850728
 30
0.0
  0
VERTEX
  5
45E
330
451
100
AcDbEntity
  8
DRAFT
 62
     7
420
 16777215
370
    25
100
AcDbVertex
100
AcDb2dVertex
 10
104.3137075299512
 20
149.4699823177729
 30
0.0
  0
VERTEX
  5
45F
330
451
100
AcDbEntity
  8
DRAFT
 62
     7
420
 16777215
370
    25
100
AcDbVertex
100
AcDb2dVertex
 10
104.3861629421511
 20
149.4349400989729
 30
0.0
  0
VERTEX
  5
460
330
451
100
AcDbEntity
  8
DRAFT
 62
     7
420
 16777215
370
    25
100
AcDbVertex
100
AcDb2dVertex
 10
104.4571711744513
 20
149.3942133096727
 30
0.0
  0
VERTEX
  5
461
330
451
100
AcDbEntity
  8
DRAFT
 62
     7
420
 16777215
370
    25
100
AcDbVertex
100
AcDb2dVertex
 10
104.5268522219511
 20
149.347623050873
 30
0.0
  0
VERTEX
  5
462
330
451
100
AcDbEntity
  8
DRAFT
 62
     7
420
 16777215
370
    25
100
AcDbVertex
100
AcDb2dVertex
 10
104.5950377034514
 20
149.2953884421727
 30
0.0
  0
VERTEX
  5
463
330
451
100
AcDbEntity
  8
DRAFT
 62
     7
420
 16777215
370
    25
100
AcDbVertex
100
AcDb2dVertex
 10
104.6599447737511
 20
149.2388044990728
 30
0.0
  0
VERTEX
  5
464
330
451
100
AcDbEntity
  8
DRAFT
 62
     7
420
 16777215
370
    25
100
AcDbVertex
100
AcDb2dVertex
 10
104.7213823294511
 20
149.177976311873
 30
0.0
  0
VERTEX
  5
465
330
451
100
AcDbEntity
  8
DRAFT
 62
     7
420
 16777215
370
    25
100
AcDbVertex
100
AcDb2dVertex
 10
104.7795425210513
 20
149.1128751546727
 30
0.0
  0
VERTEX
  5
466
330
451
100
AcDbEntity
  8
DRAFT
 62
     7
420
 16777215
370
    25
100
AcDbVertex
100
AcDb2dVertex
 10
104.8333078217511
 20
149.0446640868728
 30
0.0
  0
VERTEX
  5
467
330
451
100
AcDbEntity
  8
DRAFT
 62
     7
420
 16777215
370
    25
100
AcDbVertex
100
AcDb2dVertex
 10
104.8827417324512
 20
148.9731190109726
 30
0.0
  0
VERTEX
  5
468
330
451
100
AcDbEntity
  8
DRAFT
 62
     7
420
 16777215
370
    25
100
AcDbVertex
100
AcDb2dVertex
 10
104.9277807423511
 20
148.8984893980726
 30
0.0
  0
VERTEX
  5
469
330
451
100
AcDbEntity
  8
DRAFT
 62
     7
420
 16777215
370
    25
100
AcDbVertex
100
AcDb2dVertex
 10
104.9672079634513
 20
148.8226999433728
 30
0.0
  0
VERTEX
  5
46A
330
451
100
AcDbEntity
  8
DRAFT
 62
     7
420
 16777215
370
    25
100
AcDbVertex
100
AcDb2dVertex
 10
105.0008704514511
 20
148.7458500998728
 30
0.0
  0
VERTEX
  5
46B
330
451
100
AcDbEntity
  8
DRAFT
 62
     7
420
 16777215
370
    25
100
AcDbVertex
100
AcDb2dVertex
 10
105.0289617717511
 20
148.6678293275727
 30
0.0
  0
VERTEX
  5
46C
330
451
100
AcDbEntity
  8
DRAFT
 62
     7
420
 16777215
370
    25
100
AcDbVertex
100
AcDb2dVertex
 10
105.0508770198512
 20
148.5902972620726
 30
0.0
  0
VERTEX
  5
46D
330
451
100
AcDbEntity
  8
DRAFT
 62
     7
420
 16777215
370
    25
100
AcDbVertex
100
AcDb2dVertex
 10
105.0664452396512
 20
148.5138005288727
 30
0.0
  0
VERTEX
  5
46E
330
451
100
AcDbEntity
  8
DRAFT
 62
     7
420
 16777215
370
    25
100
AcDbVertex
100
AcDb2dVertex
 10
105.0758697948511
 20
148.4377326882728
 30
0.0
  0
VERTEX
  5
46F
330
451
100
AcDbEntity
  8
DRAFT
 62
     7
420
 16777215
370
    25
100
AcDbVertex
100
AcDb2dVertex
 10
105.0791272132514
 20
148.3620316960728
 30
0.0
  0
SEQEND
  5
470
330
451
100
AcDbEntity
  8
DRAFT
 62
     7
420
 16777215
370
    25
  0
ENDBLK
  5
450
330
44D
100
AcDbEntity
  8
0
100
AcDbBlockEnd
  0
BLOCK
  5
473
330
471
100
AcDbEntity
  8
0
100
AcDbBlockBegin
  2
block 63
 70
     0
 10
0.0
 20
0.0
 30
0.0
  3
block 63
  1

  0
POLYLINE
  5
475
330
471
100
AcDbEntity
  8
DRAFT
 62
     7
420
 16777215
370
    25
100
AcDb2dPolyline
 66
     1
 10
0.0
 20
0.0
 30
0.0
  0
VERTEX
  5
476
330
475
100
AcDbEntity
  8
DRAFT
 62
     7
420
 16777215
370
    25
100
AcDbVertex
100
AcDb2dVertex
 10
103.4151718214511
 20
146.288109447573
 30
0.0
  0
VERTEX
  5
477
330
475
100
AcDbEntity
  8
DRAFT
 62
     7
420
 16777215
370
    25
100
AcDbVertex
100
AcDb2dVertex
 10
103.4054387720513
 20
146.3639185631725
 30
0.0
  0
VERTEX
  5
478
330
475
100
AcDbEntity
  8
DRAFT
 62
     7
420
 16777215
370
    25
100
AcDbVertex
100
AcDb2dVertex
 10
103.401786078251
 20
146.4392880494729
 30
0.0
  0
SEQEND
  5
479
330
475
100
AcDbEntity
  8
DRAFT
 62
     7
420
 16777215
370
    25
  0
ENDBLK
  5
474
330
471
100
AcDbEntity
  8
0
100
AcDbBlockEnd
  0
BLOCK
  5
47C
330
47A
100
AcDbEntity
  8
0
100
AcDbBlockBegin
  2
block 64
 70
     0
 10
0.0
 20
0.0
 30
0.0
  3
block 64
  1

  0
POLYLINE
  5
47E
330
47A
100
AcDbEntity
  8
DRAFT
 62
     7
420
 16777215
370
    25
100
AcDb2dPolyline
 66
     1
 10
0.0
 20
0.0
 30
0.0
  0
VERTEX
  5
47F
330
47E
100
AcDbEntity
  8
DRAFT
 62
     7
420
 16777215
370
    25
100
AcDbVertex
100
AcDb2dVertex
 10
103.4017860818513
 20
146.4392880543729
 30
0.0
  0
VERTEX
  5
480
330
47E
100
AcDbEntity
  8
DRAFT
 62
     7
420
 16777215
370
    25
100
AcDbVertex
100
AcDb2dVertex
 10
103.4002526907515
 20
147.6960055446725
 30
0.0
  0
SEQEND
  5
481
330
47E
100
AcDbEntity
  8
DRAFT
 62
     7
420
 16777215
370
    25
  0
ENDBLK
  5
47D
330
47A
100
AcDbEntity
  8
0
100
AcDbBlockEnd
  0
BLOCK
  5
484
330
482
100
AcDbEntity
  8
0
100
AcDbBlockBegin
  2
block 65
 70
     0
 10
0.0
 20
0.0
 30
0.0
  3
block 65
  1

  0
POLYLINE
  5
486
330
482
100
AcDbEntity
  8
DRAFT
 62
     7
420
 16777215
370
    25
100
AcDb2dPolyline
 66
     1
 10
0.0
 20
0.0
 30
0.0
  0
VERTEX
  5
487
330
486
100
AcDbEntity
  8
DRAFT
 62
     7
420
 16777215
370
    25
100
AcDbVertex
100
AcDb2dVertex
 10
103.4002526907515
 20
147.6960055446725
 30
0.0
  0
VERTEX
  5
488
330
486
100
AcDbEntity
  8
DRAFT
 62
     7
420
 16777215
370
    25
100
AcDbVertex
100
AcDb2dVertex
 10
103.4017860812513
 20
148.9552947812727
 30
0.0
  0
SEQEND
  5
489
330
486
100
AcDbEntity
  8
DRAFT
 62
     7
420
 16777215
370
    25
  0
ENDBLK
  5
485
330
482
100
AcDbEntity
  8
0
100
AcDbBlockEnd
  0
BLOCK
  5
48C
330
48A
100
AcDbEntity
  8
0
100
AcDbBlockBegin
  2
block 66
 70
     0
 10
0.0
 20
0.0
 30
0.0
  3
block 66
  1

  0
POLYLINE
  5
48E
330
48A
100
AcDbEntity
  8
DRAFT
 62
     7
420
 16777215
370
    25
100
AcDb2dPolyline
 66
     1
 10
0.0
 20
0.0
 30
0.0
  0
VERTEX
  5
48F
330
48E
100
AcDbEntity
  8
DRAFT
 62
     7
420
 16777215
370
    25
100
AcDbVertex
100
AcDb2dVertex
 10
105.0791272198509
 20
148.3620316998727
 30
0.0
  0
VERTEX
  5
490
330
48E
100
AcDbEntity
  8
DRAFT
 62
     7
420
 16777215
370
    25
100
AcDbVertex
100
AcDb2dVertex
 10
105.0788085070514
 20
148.2234213415728
 30
0.0
  0
VERTEX
  5
491
330
48E
100
AcDbEntity
  8
DRAFT
 62
     7
420
 16777215
370
    25
100
AcDbVertex
100
AcDb2dVertex
 10
105.0791272192512
 20
145.8460249718727
 30
0.0
  0
SEQEND
  5
492
330
48E
100
AcDbEntity
  8
DRAFT
 62
     7
420
 16777215
370
    25
  0
ENDBLK
  5
48D
330
48A
100
AcDbEntity
  8
0
100
AcDbBlockEnd
  0
BLOCK
  5
495
330
493
100
AcDbEntity
  8
0
100
AcDbBlockBegin
  2
block 67
 70
     0
 10
0.0
 20
0.0
 30
0.0
  3
block 67
  1

  0
POLYLINE
  5
497
330
493
100
AcDbEntity
  8
DRAFT
 62
     7
420
 16777215
370
    25
100
AcDb2dPolyline
 66
     1
 10
0.0
 20
0.0
 30
0.0
  0
VERTEX
  5
498
330
497
100
AcDbEntity
  8
DRAFT
 62
     7
420
 16777215
370
    25
100
AcDbVertex
100
AcDb2dVertex
 10
105.0791272125513
 20
145.8460249679724
 30
0.0
  0
VERTEX
  5
499
330
497
100
AcDbEntity
  8
DRAFT
 62
     7
420
 16777215
370
    25
100
AcDbVertex
100
AcDb2dVertex
 10
105.0758577918514
 20
145.7730755550725
 30
0.0
  0
VERTEX
  5
49A
330
497
100
AcDbEntity
  8
DRAFT
 62
     7
420
 16777215
370
    25
100
AcDbVertex
100
AcDb2dVertex
 10
105.0664280137513
 20
145.7040309685727
 30
0.0
  0
VERTEX
  5
49B
330
497
100
AcDbEntity
  8
DRAFT
 62
     7
420
 16777215
370
    25
100
AcDbVertex
100
AcDb2dVertex
 10
105.0508619170511
 20
145.6388861960727
 30
0.0
  0
VERTEX
  5
49C
330
497
100
AcDbEntity
  8
DRAFT
 62
     7
420
 16777215
370
    25
100
AcDbVertex
100
AcDb2dVertex
 10
105.0289529565511
 20
145.5772227861724
 30
0.0
  0
VERTEX
  5
49D
330
497
100
AcDbEntity
  8
DRAFT
 62
     7
420
 16777215
370
    25
100
AcDbVertex
100
AcDb2dVertex
 10
105.0008764879512
 20
145.5194110112726
 30
0.0
  0
VERTEX
  5
49E
330
497
100
AcDbEntity
  8
DRAFT
 62
     7
420
 16777215
370
    25
100
AcDbVertex
100
AcDb2dVertex
 10
104.9672494290511
 20
145.4666630849728
 30
0.0
  0
VERTEX
  5
49F
330
497
100
AcDbEntity
  8
DRAFT
 62
     7
420
 16777215
370
    25
100
AcDbVertex
100
AcDb2dVertex
 10
104.9278877066513
 20
145.4190801625728
 30
0.0
  0
VERTEX
  5
4A0
330
497
100
AcDbEntity
  8
DRAFT
 62
     7
420
 16777215
370
    25
100
AcDbVertex
100
AcDb2dVertex
 10
104.8829366685512
 20
145.3765753448725
 30
0.0
  0
VERTEX
  5
4A1
330
497
100
AcDbEntity
  8
DRAFT
 62
     7
420
 16777215
370
    25
100
AcDbVertex
100
AcDb2dVertex
 10
104.8554482948511
 20
145.3551363447729
 30
0.0
  0
SEQEND
  5
4A2
330
497
100
AcDbEntity
  8
DRAFT
 62
     7
420
 16777215
370
    25
  0
ENDBLK
  5
496
330
493
100
AcDbEntity
  8
0
100
AcDbBlockEnd
  0
BLOCK
  5
4A5
330
4A3
100
AcDbEntity
  8
0
100
AcDbBlockBegin
  2
block 68
 70
     0
 10
0.0
 20
0.0
 30
0.0
  3
block 68
  1

  0
POLYLINE
  5
4A7
330
4A3
100
AcDbEntity
  8
DRAFT
 62
     7
420
 16777215
370
    25
100
AcDb2dPolyline
 66
     1
 10
0.0
 20
0.0
 30
0.0
  0
VERTEX
  5
4A8
330
4A7
100
AcDbEntity
  8
DRAFT
 62
     7
420
 16777215
370
    25
100
AcDbVertex
100
AcDb2dVertex
 10
103.4017860775513
 20
148.9552947764728
 30
0.0
  0
VERTEX
  5
4A9
330
4A7
100
AcDbEntity
  8
DRAFT
 62
     7
420
 16777215
370
    25
100
AcDbVertex
100
AcDb2dVertex
 10
103.4054535077511
 20
149.0285779881727
 30
0.0
  0
SEQEND
  5
4AA
330
4A7
100
AcDbEntity
  8
DRAFT
 62
     7
420
 16777215
370
    25
  0
ENDBLK
  5
4A6
330
4A3
100
AcDbEntity
  8
0
100
AcDbBlockEnd
  0
BLOCK
  5
4AD
330
4AB
100
AcDbEntity
  8
0
100
AcDbBlockBegin
  2
block 69
 70
     0
 10
0.0
 20
0.0
 30
0.0
  3
block 69
  1

  0
POLYLINE
  5
4AF
330
4AB
100
AcDbEntity
  8
DRAFT
 62
     7
420
 16777215
370
    25
100
AcDb2dPolyline
 66
     1
 10
0.0
 20
0.0
 30
0.0
  0
VERTEX
  5
4B0
330
4AF
100
AcDbEntity
  8
DRAFT
 62
     7
420
 16777215
370
    25
100
AcDbVertex
100
AcDb2dVertex
 10
103.4054535077511
 20
149.0285779881727
 30
0.0
  0
VERTEX
  5
4B1
330
4AF
100
AcDbEntity
  8
DRAFT
 62
     7
420
 16777215
370
    25
100
AcDbVertex
100
AcDb2dVertex
 10
103.4151918653512
 20
149.0978813712726
 30
0.0
  0
SEQEND
  5
4B2
330
4AF
100
AcDbEntity
  8
DRAFT
 62
     7
420
 16777215
370
    25
  0
ENDBLK
  5
4AE
330
4AB
100
AcDbEntity
  8
0
100
AcDbBlockEnd
  0
BLOCK
  5
4B5
330
4B3
100
AcDbEntity
  8
0
100
AcDbBlockBegin
  2
block 70
 70
     0
 10
0.0
 20
0.0
 30
0.0
  3
block 70
  1

  0
POLYLINE
  5
4B7
330
4B3
100
AcDbEntity
  8
DRAFT
 62
     7
420
 16777215
370
    25
100
AcDb2dPolyline
 66
     1
 10
0.0
 20
0.0
 30
0.0
  0
VERTEX
  5
4B8
330
4B7
100
AcDbEntity
  8
DRAFT
 62
     7
420
 16777215
370
    25
100
AcDbVertex
100
AcDb2dVertex
 10
104.8554482948511
 20
145.3551363447729
 30
0.0
  0
VERTEX
  5
4B9
330
4B7
100
AcDbEntity
  8
DRAFT
 62
     7
420
 16777215
370
    25
100
AcDbVertex
100
AcDb2dVertex
 10
104.8335985391512
 20
145.3401684017724
 30
0.0
  0
VERTEX
  5
4BA
330
4B7
100
AcDbEntity
  8
DRAFT
 62
     7
420
 16777215
370
    25
100
AcDbVertex
100
AcDb2dVertex
 10
104.7799293974512
 20
145.3101474883726
 30
0.0
  0
VERTEX
  5
4BB
330
4B7
100
AcDbEntity
  8
DRAFT
 62
     7
420
 16777215
370
    25
100
AcDbVertex
100
AcDb2dVertex
 10
104.7218725980513
 20
145.286307578873
 30
0.0
  0
VERTEX
  5
4BC
330
4B7
100
AcDbEntity
  8
DRAFT
 62
     7
420
 16777215
370
    25
100
AcDbVertex
100
AcDb2dVertex
 10
104.6605515169512
 20
145.2689986231729
 30
0.0
  0
VERTEX
  5
4BD
330
4B7
100
AcDbEntity
  8
DRAFT
 62
     7
420
 16777215
370
    25
100
AcDbVertex
100
AcDb2dVertex
 10
104.5957893963513
 20
145.2583825831729
 30
0.0
  0
VERTEX
  5
4BE
330
4B7
100
AcDbEntity
  8
DRAFT
 62
     7
420
 16777215
370
    25
100
AcDbVertex
100
AcDb2dVertex
 10
104.5277628251514
 20
145.2543730243724
 30
0.0
  0
VERTEX
  5
4BF
330
4B7
100
AcDbEntity
  8
DRAFT
 62
     7
420
 16777215
370
    25
100
AcDbVertex
100
AcDb2dVertex
 10
104.4582144442513
 20
145.2569937880725
 30
0.0
  0
VERTEX
  5
4C0
330
4B7
100
AcDbEntity
  8
DRAFT
 62
     7
420
 16777215
370
    25
100
AcDbVertex
100
AcDb2dVertex
 10
104.3873018569514
 20
145.2664240196729
 30
0.0
  0
VERTEX
  5
4C1
330
4B7
100
AcDbEntity
  8
DRAFT
 62
     7
420
 16777215
370
    25
100
AcDbVertex
100
AcDb2dVertex
 10
104.3149137919512
 20
145.2825393057724
 30
0.0
  0
VERTEX
  5
4C2
330
4B7
100
AcDbEntity
  8
DRAFT
 62
     7
420
 16777215
370
    25
100
AcDbVertex
100
AcDb2dVertex
 10
104.2424744607513
 20
145.3049399066724
 30
0.0
  0
VERTEX
  5
4C3
330
4B7
100
AcDbEntity
  8
DRAFT
 62
     7
420
 16777215
370
    25
100
AcDbVertex
100
AcDb2dVertex
 10
104.1700120664514
 20
145.3336909930727
 30
0.0
  0
VERTEX
  5
4C4
330
4B7
100
AcDbEntity
  8
DRAFT
 62
     7
420
 16777215
370
    25
100
AcDbVertex
100
AcDb2dVertex
 10
104.0975337933513
 20
145.3687140391727
 30
0.0
  0
VERTEX
  5
4C5
330
4B7
100
AcDbEntity
  8
DRAFT
 62
     7
420
 16777215
370
    25
100
AcDbVertex
100
AcDb2dVertex
 10
104.0264935695511
 20
145.4094139980726
 30
0.0
  0
VERTEX
  5
4C6
330
4B7
100
AcDbEntity
  8
DRAFT
 62
     7
420
 16777215
370
    25
100
AcDbVertex
100
AcDb2dVertex
 10
103.9568018019513
 20
145.4559952662727
 30
0.0
  0
VERTEX
  5
4C7
330
4B7
100
AcDbEntity
  8
DRAFT
 62
     7
420
 16777215
370
    25
100
AcDbVertex
100
AcDb2dVertex
 10
103.8885548082512
 20
145.5081782864727
 30
0.0
  0
VERTEX
  5
4C8
330
4B7
100
AcDbEntity
  8
DRAFT
 62
     7
420
 16777215
370
    25
100
AcDbVertex
100
AcDb2dVertex
 10
103.8235517715511
 20
145.5646817454726
 30
0.0
  0
VERTEX
  5
4C9
330
4B7
100
AcDbEntity
  8
DRAFT
 62
     7
420
 16777215
370
    25
100
AcDbVertex
100
AcDb2dVertex
 10
103.7620342261513
 20
145.6254428475727
 30
0.0
  0
VERTEX
  5
4CA
330
4B7
100
AcDbEntity
  8
DRAFT
 62
     7
420
 16777215
370
    25
100
AcDbVertex
100
AcDb2dVertex
 10
103.7037611358513
 20
145.6904493199727
 30
0.0
  0
VERTEX
  5
4CB
330
4B7
100
AcDbEntity
  8
DRAFT
 62
     7
420
 16777215
370
    25
100
AcDbVertex
100
AcDb2dVertex
 10
103.6498681676514
 20
145.7585533169725
 30
0.0
  0
VERTEX
  5
4CC
330
4B7
100
AcDbEntity
  8
DRAFT
 62
     7
420
 16777215
370
    25
100
AcDbVertex
100
AcDb2dVertex
 10
103.6003200775511
 20
145.8300026338724
 30
0.0
  0
VERTEX
  5
4CD
330
4B7
100
AcDbEntity
  8
DRAFT
 62
     7
420
 16777215
370
    25
100
AcDbVertex
100
AcDb2dVertex
 10
103.5551030023511
 20
145.9044829086729
 30
0.0
  0
VERTEX
  5
4CE
330
4B7
100
AcDbEntity
  8
DRAFT
 62
     7
420
 16777215
370
    25
100
AcDbVertex
100
AcDb2dVertex
 10
103.5154499069514
 20
145.9800829292726
 30
0.0
  0
VERTEX
  5
4CF
330
4B7
100
AcDbEntity
  8
DRAFT
 62
     7
420
 16777215
370
    25
100
AcDbVertex
100
AcDb2dVertex
 10
103.4815759665513
 20
146.0567554338727
 30
0.0
  0
VERTEX
  5
4D0
330
4B7
100
AcDbEntity
  8
DRAFT
 62
     7
420
 16777215
370
    25
100
AcDbVertex
100
AcDb2dVertex
 10
103.4532294025513
 20
146.1345621405727
 30
0.0
  0
VERTEX
  5
4D1
330
4B7
100
AcDbEntity
  8
DRAFT
 62
     7
420
 16777215
370
    25
100
AcDbVertex
100
AcDb2dVertex
 10
103.4310230514513
 20
146.2118500666725
 30
0.0
  0
VERTEX
  5
4D2
330
4B7
100
AcDbEntity
  8
DRAFT
 62
     7
420
 16777215
370
    25
100
AcDbVertex
100
AcDb2dVertex
 10
103.4151718214511
 20
146.288109447573
 30
0.0
  0
SEQEND
  5
4D3
330
4B7
100
AcDbEntity
  8
DRAFT
 62
     7
420
 16777215
370
    25
  0
ENDBLK
  5
4B6
330
4B3
100
AcDbEntity
  8
0
100
AcDbBlockEnd
  0
ENDSEC
  0
SECTION
  2
ENTITIES
  0
INSERT
  5
42
330
1F
100
AcDbEntity
  8
RACCORDO
100
AcDbBlockReference
  2
block 2
 10
0.0
 20
0.0
 30
0.0
  0
INSERT
  5
5A
330
1F
100
AcDbEntity
  8
RACCORDO
100
AcDbBlockReference
  2
block 3
 10
0.0
 20
0.0
 30
0.0
  0
INSERT
  5
62
330
1F
100
AcDbEntity
  8
RACCORDO
100
AcDbBlockReference
  2
block 4
 10
0.0
 20
0.0
 30
0.0
  0
INSERT
  5
6A
330
1F
100
AcDbEntity
  8
RACCORDO
100
AcDbBlockReference
  2
block 5
 10
0.0
 20
0.0
 30
0.0
  0
INSERT
  5
86
330
1F
100
AcDbEntity
  8
RACCORDO
100
AcDbBlockReference
  2
block 6
 10
0.0
 20
0.0
 30
0.0
  0
INSERT
  5
9C
330
1F
100
AcDbEntity
  8
RACCORDO
100
AcDbBlockReference
  2
block 7
 10
0.0
 20
0.0
 30
0.0
  0
INSERT
  5
AE
330
1F
100
AcDbEntity
  8
RACCORDO
100
AcDbBlockReference
  2
block 8
 10
0.0
 20
0.0
 30
0.0
  0
INSERT
  5
B6
330
1F
100
AcDbEntity
  8
RACCORDO
100
AcDbBlockReference
  2
block 9
 10
0.0
 20
0.0
 30
0.0
  0
INSERT
  5
CA
330
1F
100
AcDbEntity
  8
RACCORDO
100
AcDbBlockReference
  2
block 10
 10
0.0
 20
0.0
 30
0.0
  0
INSERT
  5
DA
330
1F
100
AcDbEntity
  8
RACCORDO
100
AcDbBlockReference
  2
block 11
 10
0.0
 20
0.0
 30
0.0
  0
INSERT
  5
FF
330
1F
100
AcDbEntity
  8
RACCORDO
100
AcDbBlockReference
  2
block 12
 10
0.0
 20
0.0
 30
0.0
  0
INSERT
  5
110
330
1F
100
AcDbEntity
  8
RACCORDO
100
AcDbBlockReference
  2
block 13
 10
0.0
 20
0.0
 30
0.0
  0
INSERT
  5
123
330
1F
100
AcDbEntity
  8
RACCORDO
100
AcDbBlockReference
  2
block 14
 10
0.0
 20
0.0
 30
0.0
  0
INSERT
  5
137
330
1F
100
AcDbEntity
  8
RACCORDO
100
AcDbBlockReference
  2
block 15
 10
0.0
 20
0.0
 30
0.0
  0
INSERT
  5
147
330
1F
100
AcDbEntity
  8
RACCORDO
100
AcDbBlockReference
  2
block 16
 10
0.0
 20
0.0
 30
0.0
  0
INSERT
  5
157
330
1F
100
AcDbEntity
  8
RACCORDO
100
AcDbBlockReference
  2
block 17
 10
0.0
 20
0.0
 30
0.0
  0
INSERT
  5
167
330
1F
100
AcDbEntity
  8
RACCORDO
100
AcDbBlockReference
  2
block 18
 10
0.0
 20
0.0
 30
0.0
  0
INSERT
  5
177
330
1F
100
AcDbEntity
  8
RACCORDO
100
AcDbBlockReference
  2
block 19
 10
0.0
 20
0.0
 30
0.0
  0
INSERT
  5
193
330
1F
100
AcDbEntity
  8
RACCORDO
100
AcDbBlockReference
  2
block 20
 10
0.0
 20
0.0
 30
0.0
  0
INSERT
  5
1AF
330
1F
100
AcDbEntity
  8
RACCORDO
100
AcDbBlockReference
  2
block 21
 10
0.0
 20
0.0
 30
0.0
  0
INSERT
  5
1C0
330
1F
100
AcDbEntity
  8
RACCORDO
100
AcDbBlockReference
  2
block 22
 10
0.0
 20
0.0
 30
0.0
  0
INSERT
  5
1D6
330
1F
100
AcDbEntity
  8
RACCORDO
100
AcDbBlockReference
  2
block 23
 10
0.0
 20
0.0
 30
0.0
  0
INSERT
  5
1FB
330
1F
100
AcDbEntity
  8
RACCORDO
100
AcDbBlockReference
  2
block 24
 10
0.0
 20
0.0
 30
0.0
  0
INSERT
  5
220
330
1F
100
AcDbEntity
  8
RACCORDO
100
AcDbBlockReference
  2
block 25
 10
0.0
 20
0.0
 30
0.0
  0
INSERT
  5
230
330
1F
100
AcDbEntity
  8
RACCORDO
100
AcDbBlockReference
  2
block 26
 10
0.0
 20
0.0
 30
0.0
  0
INSERT
  5
246
330
1F
100
AcDbEntity
  8
RACCORDO
100
AcDbBlockReference
  2
block 27
 10
0.0
 20
0.0
 30
0.0
  0
INSERT
  5
255
330
1F
100
AcDbEntity
  8
RACCORDO
100
AcDbBlockReference
  2
block 28
 10
0.0
 20
0.0
 30
0.0
  0
INSERT
  5
25D
330
1F
100
AcDbEntity
  8
RACCORDO
100
AcDbBlockReference
  2
block 29
 10
0.0
 20
0.0
 30
0.0
  0
INSERT
  5
279
330
1F
100
AcDbEntity
  8
0
100
AcDbBlockReference
  2
block 30
 10
0.0
 20
0.0
 30
0.0
  0
INSERT
  5
281
330
1F
100
AcDbEntity
  8
0
100
AcDbBlockReference
  2
block 31
 10
0.0
 20
0.0
 30
0.0
  0
INSERT
  5
289
330
1F
100
AcDbEntity
  8
0
100
AcDbBlockReference
  2
block 32
 10
0.0
 20
0.0
 30
0.0
  0
INSERT
  5
291
330
1F
100
AcDbEntity
  8
0
100
AcDbBlockReference
  2
block 33
 10
0.0
 20
0.0
 30
0.0
  0
INSERT
  5
299
330
1F
100
AcDbEntity
  8
0
100
AcDbBlockReference
  2
block 34
 10
0.0
 20
0.0
 30
0.0
  0
INSERT
  5
2A1
330
1F
100
AcDbEntity
  8
0
100
AcDbBlockReference
  2
block 35
 10
0.0
 20
0.0
 30
0.0
  0
INSERT
  5
2D8
330
1F
100
AcDbEntity
  8
0
100
AcDbBlockReference
  2
block 36
 10
0.0
 20
0.0
 30
0.0
  0
INSERT
  5
2ED
330
1F
100
AcDbEntity
  8
0
100
AcDbBlockReference
  2
block 37
 10
0.0
 20
0.0
 30
0.0
  0
INSERT
  5
2F6
330
1F
100
AcDbEntity
  8
0
100
AcDbBlockReference
  2
block 38
 10
0.0
 20
0.0
 30
0.0
  0
INSERT
  5
330
330
1F
100
AcDbEntity
  8
0
100
AcDbBlockReference
  2
block 39
 10
0.0
 20
0.0
 30
0.0
  0
INSERT
  5
33A
330
1F
100
AcDbEntity
  8
0
100
AcDbBlockReference
  2
block 40
 10
0.0
 20
0.0
 30
0.0
  0
INSERT
  5
342
330
1F
100
AcDbEntity
  8
0
100
AcDbBlockReference
  2
block 41
 10
0.0
 20
0.0
 30
0.0
  0
INSERT
  5
34B
330
1F
100
AcDbEntity
  8
0
100
AcDbBlockReference
  2
block 42
 10
0.0
 20
0.0
 30
0.0
  0
INSERT
  5
353
330
1F
100
AcDbEntity
  8
0
100
AcDbBlockReference
  2
block 43
 10
0.0
 20
0.0
 30
0.0
  0
INSERT
  5
38A
330
1F
100
AcDbEntity
  8
0
100
AcDbBlockReference
  2
block 44
 10
0.0
 20
0.0
 30
0.0
  0
INSERT
  5
392
330
1F
100
AcDbEntity
  8
0
100
AcDbBlockReference
  2
block 45
 10
0.0
 20
0.0
 30
0.0
  0
INSERT
  5
39A
330
1F
100
AcDbEntity
  8
0
100
AcDbBlockReference
  2
block 46
 10
0.0
 20
0.0
 30
0.0
  0
INSERT
  5
3D1
330
1F
100
AcDbEntity
  8
0
100
AcDbBlockReference
  2
block 47
 10
0.0
 20
0.0
 30
0.0
  0
INSERT
  5
3DC
330
1F
100
AcDbEntity
  8
0
100
AcDbBlockReference
  2
block 48
 10
0.0
 20
0.0
 30
0.0
  0
INSERT
  5
3EE
330
1F
100
AcDbEntity
  8
0
100
AcDbBlockReference
  2
block 49
 10
0.0
 20
0.0
 30
0.0
  0
INSERT
  5
3F6
330
1F
100
AcDbEntity
  8
0
100
AcDbBlockReference
  2
block 50
 10
0.0
 20
0.0
 30
0.0
  0
INSERT
  5
3FE
330
1F
100
AcDbEntity
  8
0
100
AcDbBlockReference
  2
block 51
 10
0.0
 20
0.0
 30
0.0
  0
INSERT
  5
406
330
1F
100
AcDbEntity
  8
0
100
AcDbBlockReference
  2
block 52
 10
0.0
 20
0.0
 30
0.0
  0
INSERT
  5
40E
330
1F
100
AcDbEntity
  8
0
100
AcDbBlockReference
  2
block 53
 10
0.0
 20
0.0
 30
0.0
  0
INSERT
  5
413
330
1F
100
AcDbEntity
  8
0
100
AcDbBlockReference
  2
block 54
 10
0.0
 20
0.0
 30
0.0
  0
INSERT
  5
418
330
1F
100
AcDbEntity
  8
0
100
AcDbBlockReference
  2
block 55
 10
0.0
 20
0.0
 30
0.0
  0
INSERT
  5
41E
330
1F
100
AcDbEntity
  8
DRAFT
100
AcDbBlockReference
  2
block 56
 10
0.0
 20
0.0
 30
0.0
  0
INSERT
  5
426
330
1F
100
AcDbEntity
  8
DRAFT
100
AcDbBlockReference
  2
block 57
 10
0.0
 20
0.0
 30
0.0
  0
INSERT
  5
42E
330
1F
100
AcDbEntity
  8
DRAFT
100
AcDbBlockReference
  2
block 58
 10
0.0
 20
0.0
 30
0.0
  0
INSERT
  5
436
330
1F
100
AcDbEntity
  8
DRAFT
100
AcDbBlockReference
  2
block 59
 10
0.0
 20
0.0
 30
0.0
  0
INSERT
  5
43E
330
1F
100
AcDbEntity
  8
DRAFT
100
AcDbBlockReference
  2
block 60
 10
0.0
 20
0.0
 30
0.0
  0
INSERT
  5
446
330
1F
100
AcDbEntity
  8
DRAFT
100
AcDbBlockReference
  2
block 61
 10
0.0
 20
0.0
 30
0.0
  0
INSERT
  5
44E
330
1F
100
AcDbEntity
  8
DRAFT
100
AcDbBlockReference
  2
block 62
 10
0.0
 20
0.0
 30
0.0
  0
INSERT
  5
472
330
1F
100
AcDbEntity
  8
DRAFT
100
AcDbBlockReference
  2
block 63
 10
0.0
 20
0.0
 30
0.0
  0
INSERT
  5
47B
330
1F
100
AcDbEntity
  8
DRAFT
100
AcDbBlockReference
  2
block 64
 10
0.0
 20
0.0
 30
0.0
  0
INSERT
  5
483
330
1F
100
AcDbEntity
  8
DRAFT
100
AcDbBlockReference
  2
block 65
 10
0.0
 20
0.0
 30
0.0
  0
INSERT
  5
48B
330
1F
100
AcDbEntity
  8
DRAFT
100
AcDbBlockReference
  2
block 66
 10
0.0
 20
0.0
 30
0.0
  0
INSERT
  5
494
330
1F
100
AcDbEntity
  8
DRAFT
100
AcDbBlockReference
  2
block 67
 10
0.0
 20
0.0
 30
0.0
  0
INSERT
  5
4A4
330
1F
100
AcDbEntity
  8
DRAFT
100
AcDbBlockReference
  2
block 68
 10
0.0
 20
0.0
 30
0.0
  0
INSERT
  5
4AC
330
1F
100
AcDbEntity
  8
DRAFT
100
AcDbBlockReference
  2
block 69
 10
0.0
 20
0.0
 30
0.0
  0
INSERT
  5
4B4
330
1F
100
AcDbEntity
  8
DRAFT
100
AcDbBlockReference
  2
block 70
 10
0.0
 20
0.0
 30
0.0
  0
ENDSEC
  0
SECTION
  2
OBJECTS
  0
DICTIONARY
  5
C
330
0
100
AcDbDictionary
281
     1
  3
ACAD_GROUP
350
D
  3
ACAD_LAYOUT
350
1A
  3
ACAD_MATERIAL
350
3B
  3
ACAD_MLEADERSTYLE
350
4D5
  3
ACAD_MLINESTYLE
350
17
  3
ACAD_PLOTSETTINGS
350
19
  3
ACAD_PLOTSTYLENAME
350
E
  3
ACAD_TABLESTYLE
350
4D4
  3
ACAD_VISUALSTYLE
350
2A
  0
SUN
  5
3F
330
29
100
AcDbSun
 90
        1
290
     0
 63
     7
421
 16777215
 40
1.0
291
     1
 91
  2455826
 92
 54000000
292
     0
 70
     2
 71
   256
280
     1
  0
DICTIONARY
  5
D
102
{ACAD_REACTORS
330
C
102
}
330
C
100
AcDbDictionary
281
     1
  0
DICTIONARY
  5
1A
102
{ACAD_REACTORS
330
C
102
}
330
C
100
AcDbDictionary
281
     1
  3
Layout1
350
1E
  3
Layout2
350
26
  3
Model
350
22
  0
DICTIONARY
  5
3B
102
{ACAD_REACTORS
330
C
102
}
330
C
100
AcDbDictionary
281
     1
  3
ByBlock
350
3D
  3
ByLayer
350
3C
  3
Global
350
3E
  0
DICTIONARY
  5
4D5
102
{ACAD_REACTORS
330
C
102
}
330
C
100
AcDbDictionary
281
     1
  0
DICTIONARY
  5
17
102
{ACAD_REACTORS
330
C
102
}
330
C
100
AcDbDictionary
281
     1
  3
Standard
350
18
  0
DICTIONARY
  5
19
102
{ACAD_REACTORS
330
C
102
}
330
C
100
AcDbDictionary
281
     1
  0
ACDBDICTIONARYWDFLT
  5
E
102
{ACAD_REACTORS
330
C
102
}
330
C
100
AcDbDictionary
281
     1
  3
Normal
350
F
100
AcDbDictionaryWithDefault
340
F
  0
DICTIONARY
  5
4D4
102
{ACAD_REACTORS
330
C
102
}
330
C
100
AcDbDictionary
281
     1
  0
DICTIONARY
  5
2A
102
{ACAD_REACTORS
330
C
102
}
330
C
100
AcDbDictionary
281
     1
  3
2dWireframe
350
2F
  3
3D Hidden
350
31
  3
3dWireframe
350
30
  3
Basic
350
32
  3
Brighten
350
36
  3
ColorChange
350
3A
  3
Conceptual
350
34
  3
Dim
350
35
  3
Facepattern
350
39
  3
Flat
350
2B
  3
FlatWithEdges
350
2C
  3
Gouraud
350
2D
  3
GouraudWithEdges
350
2E
  3
Linepattern
350
38
  3
Realistic
350
33
  3
Thicken
350
37
  0
LAYOUT
  5
1E
102
{ACAD_REACTORS
330
1A
102
}
330
1A
100
AcDbPlotSettings
  1

  2
none_device
  4

  6

 40
0.0
 41
0.0
 42
0.0
 43
0.0
 44
0.0
 45
0.0
 46
0.0
 47
0.0
 48
0.0
 49
0.0
140
0.0
141
0.0
142
1.0
143
1.0
 70
   688
 72
     0
 73
     0
 74
     5
  7

 75
    16
 76
     0
 77
     2
 78
   300
147
1.0
148
0.0
149
0.0
100
AcDbLayout
  1
Layout1
 70
     1
 71
     1
 10
0.0
 20
0.0
 11
12.0
 21
9.0
 12
0.0
 22
0.0
 32
0.0
 14
1.000000000000000E+20
 24
1.000000000000000E+20
 34
1.000000000000000E+20
 15
-1.000000000000000E+20
 25
-1.000000000000000E+20
 35
-1.000000000000000E+20
146
0.0
 13
0.0
 23
0.0
 33
0.0
 16
1.0
 26
0.0
 36
0.0
 17
0.0
 27
1.0
 37
0.0
 76
     0
330
1B
  0
LAYOUT
  5
26
102
{ACAD_REACTORS
330
1A
102
}
330
1A
100
AcDbPlotSettings
  1

  2
none_device
  4

  6

 40
0.0
 41
0.0
 42
0.0
 43
0.0
 44
0.0
 45
0.0
 46
0.0
 47
0.0
 48
0.0
 49
0.0
140
0.0
141
0.0
142
1.0
143
1.0
 70
   688
 72
     0
 73
     0
 74
     5
  7

 75
    16
 76
     0
 77
     2
 78
   300
147
1.0
148
0.0
149
0.0
100
AcDbLayout
  1
Layout2
 70
     1
 71
     2
 10
0.0
 20
0.0
 11
0.0
 21
0.0
 12
0.0
 22
0.0
 32
0.0
 14
0.0
 24
0.0
 34
0.0
 15
0.0
 25
0.0
 35
0.0
146
0.0
 13
0.0
 23
0.0
 33
0.0
 16
1.0
 26
0.0
 36
0.0
 17
0.0
 27
1.0
 37
0.0
 76
     0
330
23
  0
LAYOUT
  5
22
102
{ACAD_REACTORS
330
1A
102
}
330
1A
100
AcDbPlotSettings
  1

  2
none_device
  4

  6

 40
0.0
 41
0.0
 42
0.0
 43
0.0
 44
0.0
 45
0.0
 46
0.0
 47
0.0
 48
0.0
 49
0.0
140
0.0
141
0.0
142
1.0
143
1.0
 70
  1712
 72
     0
 73
     0
 74
     0
  7

 75
     0
 76
     0
 77
     2
 78
   300
147
1.0
148
0.0
149
0.0
100
AcDbLayout
  1
Model
 70
     1
 71
     0
 10
0.0
 20
0.0
 11
12.0
 21
9.0
 12
0.0
 22
0.0
 32
0.0
 14
1.000000000000000E+20
 24
1.000000000000000E+20
 34
1.000000000000000E+20
 15
-1.000000000000000E+20
 25
-1.000000000000000E+20
 35
-1.000000000000000E+20
146
0.0
 13
0.0
 23
0.0
 33
0.0
 16
1.0
 26
0.0
 36
0.0
 17
0.0
 27
1.0
 37
0.0
 76
     0
330
1F
331
29
  0
MATERIAL
  5
3D
102
{ACAD_REACTORS
330
3B
102
}
330
3B
100
AcDbMaterial
  1
ByBlock
 72
     1
 94
      127
  0
MATERIAL
  5
3C
102
{ACAD_REACTORS
330
3B
102
}
330
3B
100
AcDbMaterial
  1
ByLayer
 72
     1
 94
      127
  0
MATERIAL
  5
3E
102
{ACAD_REACTORS
330
3B
102
}
330
3B
100
AcDbMaterial
  1
Global
 72
     1
 94
      127
  0
MLINESTYLE
  5
18
102
{ACAD_REACTORS
330
17
102
}
330
17
100
AcDbMlineStyle
  2
Standard
 70
     0
  3

 62
   256
 51
90.0
 52
90.0
 71
     2
 49
0.5
 62
   256
  6
BYLAYER
 49
-0.5
 62
   256
  6
BYLAYER
  0
ACDBPLACEHOLDER
  5
F
102
{ACAD_REACTORS
330
E
102
}
330
E
  0
VISUALSTYLE
  5
2F
102
{ACAD_REACTORS
330
2A
102
}
330
2A
100
AcDbVisualStyle
  2
2dWireframe
 70
     4
177
     2
291
     0
 71
     0
176
     1
 72
     2
176
     1
 73
     0
176
     1
 90
        0
176
     1
 40
-0.6
176
     1
 41
-30.0
176
     1
 62
     5
 63
     7
421
 16777215
176
     1
 74
     1
176
     1
 91
        4
176
     1
 64
     7
176
     1
 65
   257
176
     1
 75
     1
176
     1
175
     1
176
     1
 42
1.0
176
     1
 92
        0
176
     1
 66
   257
176
     1
 43
1.0
176
     1
 76
     1
176
     1
 77
     6
176
     1
 78
     2
176
     1
 67
     7
176
     1
 79
     5
176
     1
170
     0
176
     1
171
     0
176
     1
290
     0
176
     1
 93
        1
176
     1
 44
0.0
176
     1
173
     0
176
     1
  0
VISUALSTYLE
  5
31
102
{ACAD_REACTORS
330
2A
102
}
330
2A
100
AcDbVisualStyle
  2
3D Hidden
 70
     6
177
     2
291
     0
 71
     1
176
     1
 72
     2
176
     1
 73
     2
176
     1
 90
        0
176
     1
 40
-0.6
176
     1
 41
-30.0
176
     1
 62
     5
 63
     7
421
 16777215
176
     1
 74
     2
176
     1
 91
        2
176
     1
 64
     7
176
     1
 65
   257
176
     1
 75
     2
176
     1
175
     1
176
     1
 42
40.0
176
     1
 92
        0
176
     1
 66
   257
176
     1
 43
1.0
176
     1
 76
     1
176
     1
 77
     6
176
     1
 78
     2
176
     1
 67
     7
176
     1
 79
     3
176
     1
170
     0
176
     1
171
     0
176
     1
290
     0
176
     1
 93
        1
176
     1
 44
0.0
176
     1
173
     0
176
     1
  0
VISUALSTYLE
  5
30
102
{ACAD_REACTORS
330
2A
102
}
330
2A
100
AcDbVisualStyle
  2
3dWireframe
 70
     5
177
     2
291
     0
 71
     0
176
     1
 72
     2
176
     1
 73
     0
176
     1
 90
        0
176
     1
 40
-0.6
176
     1
 41
-30.0
176
     1
 62
     5
 63
     7
421
 16777215
176
     1
 74
     1
176
     1
 91
        4
176
     1
 64
     7
176
     1
 65
   257
176
     1
 75
     1
176
     1
175
     1
176
     1
 42
1.0
176
     1
 92
        0
176
     1
 66
   257
176
     1
 43
1.0
176
     1
 76
     1
176
     1
 77
     6
176
     1
 78
     2
176
     1
 67
     7
176
     1
 79
     5
176
     1
170
     0
176
     1
171
     0
176
     1
290
     0
176
     1
 93
        1
176
     1
 44
0.0
176
     1
173
     0
176
     1
  0
VISUALSTYLE
  5
32
102
{ACAD_REACTORS
330
2A
102
}
330
2A
100
AcDbVisualStyle
  2
Basic
 70
     7
177
     2
291
     1
 71
     1
176
     1
 72
     0
176
     1
 73
     1
176
     1
 90
        0
176
     1
 40
-0.6
176
     1
 41
-30.0
176
     1
 62
     5
 63
     7
421
 16777215
176
     1
 74
     0
176
     1
 91
        4
176
     1
 64
     7
176
     1
 65
   257
176
     1
 75
     1
176
     1
175
     1
176
     1
 42
1.0
176
     1
 92
        8
176
     1
 66
     7
176
     1
 43
1.0
176
     1
 76
     1
176
     1
 77
     6
176
     1
 78
     2
176
     1
 67
     7
176
     1
 79
     5
176
     1
170
     0
176
     1
171
     0
176
     1
290
     0
176
     1
 93
        1
176
     1
 44
0.0
176
     1
173
     0
176
     1
  0
VISUALSTYLE
  5
36
102
{ACAD_REACTORS
330
2A
102
}
330
2A
100
AcDbVisualStyle
  2
Brighten
 70
    12
177
     2
291
     1
 71
     2
176
     1
 72
     2
176
     1
 73
     0
176
     1
 90
        0
176
     1
 40
-0.6
176
     1
 41
-30.0
176
     1
 62
     5
 63
     7
421
 16777215
176
     1
 74
     1
176
     1
 91
        4
176
     1
 64
     7
176
     1
 65
   257
176
     1
 75
     1
176
     1
175
     1
176
     1
 42
1.0
176
     1
 92
        8
176
     1
 66
     7
176
     1
 43
1.0
176
     1
 76
     1
176
     1
 77
     6
176
     1
 78
     2
176
     1
 67
     7
176
     1
 79
     5
176
     1
170
     0
176
     1
171
     0
176
     1
290
     0
176
     1
 93
        1
176
     1
 44
50.0
176
     1
173
     0
176
     1
  0
VISUALSTYLE
  5
3A
102
{ACAD_REACTORS
330
2A
102
}
330
2A
100
AcDbVisualStyle
  2
ColorChange
 70
    16
177
     2
291
     1
 71
     2
176
     1
 72
     2
176
     1
 73
     3
176
     1
 90
        0
176
     1
 40
-0.6
176
     1
 41
-30.0
176
     1
 62
     5
 63
     8
421
  8421504
176
     1
 74
     1
176
     1
 91
        4
176
     1
 64
     7
176
     1
 65
   257
176
     1
 75
     1
176
     1
175
     1
176
     1
 42
1.0
176
     1
 92
        8
176
     1
 66
     8
424
  8421504
176
     1
 43
1.0
176
     1
 76
     1
176
     1
 77
     6
176
     1
 78
     2
176
     1
 67
     7
176
     1
 79
     5
176
     1
170
     0
176
     1
171
     0
176
     1
290
     0
176
     1
 93
        1
176
     1
 44
0.0
176
     1
173
     0
176
     1
  0
VISUALSTYLE
  5
34
102
{ACAD_REACTORS
330
2A
102
}
330
2A
100
AcDbVisualStyle
  2
Conceptual
 70
     9
177
     2
291
     0
 71
     3
176
     1
 72
     2
176
     1
 73
     0
176
     1
 90
        0
176
     1
 40
-0.6
176
     1
 41
-30.0
176
     1
 62
     5
 63
     7
421
 16777215
176
     1
 74
     2
176
     1
 91
        2
176
     1
 64
     7
176
     1
 65
   257
176
     1
 75
     1
176
     1
175
     1
176
     1
 42
40.0
176
     1
 92
        8
176
     1
 66
     7
176
     1
 43
1.0
176
     1
 76
     1
176
     1
 77
     6
176
     1
 78
     2
176
     1
 67
     7
176
     1
 79
     3
176
     1
170
     0
176
     1
171
     0
176
     1
290
     0
176
     1
 93
        1
176
     1
 44
0.0
176
     1
173
     0
176
     1
  0
VISUALSTYLE
  5
35
102
{ACAD_REACTORS
330
2A
102
}
330
2A
100
AcDbVisualStyle
  2
Dim
 70
    11
177
     2
291
     1
 71
     2
176
     1
 72
     2
176
     1
 73
     0
176
     1
 90
        0
176
     1
 40
-0.6
176
     1
 41
-30.0
176
     1
 62
     5
 63
     7
421
 16777215
176
     1
 74
     1
176
     1
 91
        4
176
     1
 64
     7
176
     1
 65
   257
176
     1
 75
     1
176
     1
175
     1
176
     1
 42
1.0
176
     1
 92
        8
176
     1
 66
     7
176
     1
 43
1.0
176
     1
 76
     1
176
     1
 77
     6
176
     1
 78
     2
176
     1
 67
     7
176
     1
 79
     5
176
     1
170
     0
176
     1
171
     0
176
     1
290
     0
176
     1
 93
        1
176
     1
 44
-50.0
176
     1
173
     0
176
     1
  0
VISUALSTYLE
  5
39
102
{ACAD_REACTORS
330
2A
102
}
330
2A
100
AcDbVisualStyle
  2
Facepattern
 70
    15
177
     2
291
     1
 71
     2
176
     1
 72
     2
176
     1
 73
     0
176
     1
 90
        0
176
     1
 40
-0.6
176
     1
 41
-30.0
176
     1
 62
     5
 63
     7
421
 16777215
176
     1
 74
     1
176
     1
 91
        4
176
     1
 64
     7
176
     1
 65
   257
176
     1
 75
     1
176
     1
175
     1
176
     1
 42
1.0
176
     1
 92
        8
176
     1
 66
     7
176
     1
 43
1.0
176
     1
 76
     1
176
     1
 77
     6
176
     1
 78
     2
176
     1
 67
     7
176
     1
 79
     5
176
     1
170
     0
176
     1
171
     0
176
     1
290
     0
176
     1
 93
        1
176
     1
 44
0.0
176
     1
173
     0
176
     1
  0
VISUALSTYLE
  5
2B
102
{ACAD_REACTORS
330
2A
102
}
330
2A
100
AcDbVisualStyle
  2
Flat
 70
     0
177
     2
291
     1
 71
     2
176
     1
 72
     1
176
     1
 73
     1
176
     1
 90
        2
176
     1
 40
-0.6
176
     1
 41
30.0
176
     1
 62
     5
 63
     7
421
 16777215
176
     1
 74
     0
176
     1
 91
        4
176
     1
 64
     7
176
     1
 65
   257
176
     1
 75
     1
176
     1
175
     1
176
     1
 42
1.0
176
     1
 92
        8
176
     1
 66
     7
176
     1
 43
1.0
176
     1
 76
     1
176
     1
 77
     6
176
     1
 78
     2
176
     1
 67
     7
176
     1
 79
     5
176
     1
170
     0
176
     1
171
     0
176
     1
290
     0
176
     1
 93
       13
176
     1
 44
0.0
176
     1
173
     0
176
     1
  0
VISUALSTYLE
  5
2C
102
{ACAD_REACTORS
330
2A
102
}
330
2A
100
AcDbVisualStyle
  2
FlatWithEdges
 70
     1
177
     2
291
     1
 71
     2
176
     1
 72
     1
176
     1
 73
     1
176
     1
 90
        2
176
     1
 40
-0.6
176
     1
 41
30.0
176
     1
 62
     5
 63
     7
421
 16777215
176
     1
 74
     1
176
     1
 91
        4
176
     1
 64
     7
176
     1
 65
   257
176
     1
 75
     1
176
     1
175
     1
176
     1
 42
1.0
176
     1
 92
        0
176
     1
 66
   257
176
     1
 43
1.0
176
     1
 76
     1
176
     1
 77
     6
176
     1
 78
     2
176
     1
 67
     7
176
     1
 79
     5
176
     1
170
     0
176
     1
171
     0
176
     1
290
     0
176
     1
 93
       13
176
     1
 44
0.0
176
     1
173
     0
176
     1
  0
VISUALSTYLE
  5
2D
102
{ACAD_REACTORS
330
2A
102
}
330
2A
100
AcDbVisualStyle
  2
Gouraud
 70
     2
177
     2
291
     1
 71
     2
176
     1
 72
     2
176
     1
 73
     1
176
     1
 90
        2
176
     1
 40
-0.6
176
     1
 41
30.0
176
     1
 62
     5
 63
     7
421
 16777215
176
     1
 74
     0
176
     1
 91
        4
176
     1
 64
     7
176
     1
 65
   257
176
     1
 75
     1
176
     1
175
     1
176
     1
 42
1.0
176
     1
 92
        0
176
     1
 66
     7
176
     1
 43
1.0
176
     1
 76
     1
176
     1
 77
     6
176
     1
 78
     2
176
     1
 67
     7
176
     1
 79
     5
176
     1
170
     0
176
     1
171
     0
176
     1
290
     0
176
     1
 93
       13
176
     1
 44
0.0
176
     1
173
     0
176
     1
  0
VISUALSTYLE
  5
2E
102
{ACAD_REACTORS
330
2A
102
}
330
2A
100
AcDbVisualStyle
  2
GouraudWithEdges
 70
     3
177
     2
291
     1
 71
     2
176
     1
 72
     2
176
     1
 73
     1
176
     1
 90
        2
176
     1
 40
-0.6
176
     1
 41
30.0
176
     1
 62
     5
 63
     7
421
 16777215
176
     1
 74
     1
176
     1
 91
        4
176
     1
 64
     7
176
     1
 65
   257
176
     1
 75
     1
176
     1
175
     1
176
     1
 42
1.0
176
     1
 92
        0
176
     1
 66
   257
176
     1
 43
1.0
176
     1
 76
     1
176
     1
 77
     6
176
     1
 78
     2
176
     1
 67
     7
176
     1
 79
     5
176
     1
170
     0
176
     1
171
     0
176
     1
290
     0
176
     1
 93
       13
176
     1
 44
0.0
176
     1
173
     0
176
     1
  0
VISUALSTYLE
  5
38
102
{ACAD_REACTORS
330
2A
102
}
330
2A
100
AcDbVisualStyle
  2
Linepattern
 70
    14
177
     2
291
     1
 71
     2
176
     1
 72
     2
176
     1
 73
     0
176
     1
 90
        0
176
     1
 40
-0.6
176
     1
 41
-30.0
176
     1
 62
     5
 63
     7
421
 16777215
176
     1
 74
     1
176
     1
 91
        4
176
     1
 64
     7
176
     1
 65
   257
176
     1
 75
     7
176
     1
175
     7
176
     1
 42
1.0
176
     1
 92
        8
176
     1
 66
     7
176
     1
 43
1.0
176
     1
 76
     1
176
     1
 77
     6
176
     1
 78
     2
176
     1
 67
     7
176
     1
 79
     5
176
     1
170
     0
176
     1
171
     0
176
     1
290
     0
176
     1
 93
        1
176
     1
 44
0.0
176
     1
173
     0
176
     1
  0
VISUALSTYLE
  5
33
102
{ACAD_REACTORS
330
2A
102
}
330
2A
100
AcDbVisualStyle
  2
Realistic
 70
     8
177
     2
291
     0
 71
     2
176
     1
 72
     2
176
     1
 73
     0
176
     1
 90
        0
176
     1
 40
-0.6
176
     1
 41
-30.0
176
     1
 62
     5
 63
     7
421
 16777215
176
     1
 74
     1
176
     1
 91
        0
176
     1
 64
     7
176
     1
 65
   257
176
     1
 75
     1
176
     1
175
     1
176
     1
 42
1.0
176
     1
 92
        8
176
     1
 66
     8
424
  7895160
176
     1
 43
1.0
176
     1
 76
     1
176
     1
 77
     6
176
     1
 78
     2
176
     1
 67
     7
176
     1
 79
     5
176
     1
170
     0
176
     1
171
     0
176
     1
290
     0
176
     1
 93
       13
176
     1
 44
0.0
176
     1
173
     0
176
     1
  0
VISUALSTYLE
  5
37
102
{ACAD_REACTORS
330
2A
102
}
330
2A
100
AcDbVisualStyle
  2
Thicken
 70
    13
177
     2
291
     1
 71
     2
176
     1
 72
     2
176
     1
 73
     0
176
     1
 90
        0
176
     1
 40
-0.6
176
     1
 41
-30.0
176
     1
 62
     5
 63
     7
421
 16777215
176
     1
 74
     1
176
     1
 91
        4
176
     1
 64
     7
176
     1
 65
   257
176
     1
 75
     1
176
     1
175
     1
176
     1
 42
1.0
176
     1
 92
       12
176
     1
 66
     7
176
     1
 43
1.0
176
     1
 76
     1
176
     1
 77
     6
176
     1
 78
     2
176
     1
 67
     7
176
     1
 79
     5
176
     1
170
     0
176
     1
171
     0
176
     1
290
     0
176
     1
 93
        1
176
     1
 44
0.0
176
     1
173
     0
176
     1
  0
ENDSEC
  0
EOF
