  0
SECTION
  2
HEADER
  9
$ACADVER
  1
AC1024
  9
$DWGCODEPAGE
  3
ANSI_1252
  9
$EXTMAX
 10
297.0
 20
210.0
 30
0.0
  9
$EXTMIN
 10
0.0
 20
0.0
 30
0.0
  9
$LIMMIN
 10
0.0
 20
0.0
  9
$LIMMAX
 10
297.0
 20
210.0
  9
$VIEWCTR
 10
148.5
 20
105.0
  9
$VIEWSIZE
 40
210.0
  9
$CLAYER
  8
0
  9
$LTSCALE
 40
16.335
  9
$CELTYPE
  6
BYLAYER
  9
$DIMSCALE
 40
1.0
  9
$DIMASZ
 40
3.0
  9
$DIMEXO
 40
0.5
  9
$DIMDLI
 40
11.286
  9
$DIMEXE
 40
1.5
  9
$DIMCEN
 40
2.673
  9
$DIMLFAC
 40
1.0
  9
$DIMBLK
  1
_FILLED
  9
$DIMALT
 70
0
  9
$DIMALTF
 40
0.0393700787
  9
$DIMTXT
 40
3.0
  9
$DIMTOL
 70
1
  9
$DIMLIM
 70
0
  9
$DIMTFAC
 40
1.0
  9
$DIMTP
 40
0.01
  9
$DIMTM
 40
0.01
  9
$DIMGAP
 40
0.625
  9
$DIMDSEP
 70
44
  9
$AUNITS
 70
0
  9
$PDMODE
 70
3
  9
$PDSIZE
 40
3.0
  9
$HANDSEED
  5
266
  9
$TILEMODE
 70
1
  9
$MEASUREMENT
 70
1
  9
$INSUNITS
 70
4
  0
ENDSEC
  0
SECTION
  2
CLASSES
  0
CLASS
  1
ACDBDICTIONARYWDFLT
  2
AcDbDictionaryWithDefault
  3
AutoCAD 2000
 90
0
 91
1
280
0
281
0
  0
CLASS
  1
ACDBPLACEHOLDER
  2
AcDbPlaceHolder
  3
AutoCAD 2000
 90
0
 91
1
280
0
281
0
  0
CLASS
  1
LAYOUT
  2
AcDbLayout
  3
AutoCAD 2000
 90
0
 91
0
280
0
281
0
  0
ENDSEC
  0
SECTION
  2
TABLES
  0
TABLE
  2
VPORT
  5
8
100
AcDbSymbolTable
 70
2
  0
VPORT
  5
1F4
100
AcDbSymbolTableRecord
100
AcDbViewportTableRecord
  2
*ACTIVE
 70
0
 10
0.0
 20
0.0
 11
1.0
 21
1.0
 12
148.5
 22
105.0
 13
0.0
 23
0.0
 14
1.0
 24
1.0
 15
0.0
 25
0.0
 16
0.0
 26
0.0
 36
1.0
 17
0.0
 27
0.0
 37
0.0
 40
210.0
 41
1.4142857143
 42
50.0
 43
0.0
 44
0.0
 50
0.0
 51
0.0
 71
0
 72
100
 73
1
 74
1
 75
0
 76
0
 77
0
 78
0
  0
ENDTAB
  0
TABLE
  2
LTYPE
  5
5
100
AcDbSymbolTable
 70
6
  0
LTYPE
  5
14
100
AcDbSymbolTableRecord
100
AcDbLinetypeTableRecord
  2
BYBLOCK
 70
0
  3

 72
65
 73
0
 40
0.0
  0
LTYPE
  5
15
100
AcDbSymbolTableRecord
100
AcDbLinetypeTableRecord
  2
BYLAYER
 70
0
  3

 72
65
 73
0
 40
0.0
  0
LTYPE
  5
16
100
AcDbSymbolTableRecord
100
AcDbLinetypeTableRecord
  2
CONTINUOUS
 70
64
  3
Solid line
 72
65
 73
0
 40
0.0
  0
LTYPE
  5
1F5
100
AcDbSymbolTableRecord
100
AcDbLinetypeTableRecord
  2
CENTER
 70
64
  3
____ _ ____ _ ____ _ ____ _ ____ _ ____ _ ____
 72
65
 73
4
 40
0.6
 49
0.375
 74
0
 49
-0.075
 74
0
 49
0.075
 74
0
 49
-0.075
 74
0
  0
LTYPE
  5
1F6
100
AcDbSymbolTableRecord
100
AcDbLinetypeTableRecord
  2
HIDDEN
 70
64
  3
- - - - - - - - - - - - - - - - - - - -
 72
65
 73
2
 40
0.2
 49
0.1
 74
0
 49
-0.1
 74
0
  0
LTYPE
  5
1F7
100
AcDbSymbolTableRecord
100
AcDbLinetypeTableRecord
  2
PHANTOM
 70
64
  3
_____ _ _ _____ _ _ _____ _ _ _____
 72
65
 73
6
 40
0.8
 49
0.45
 74
0
 49
-0.05
 74
0
 49
0.1
 74
0
 49
-0.05
 74
0
 49
0.1
 74
0
 49
-0.05
 74
0
  0
LTYPE
  5
1F8
100
AcDbSymbolTableRecord
100
AcDbLinetypeTableRecord
  2
DOT
 70
64
  3
. . . . . . . . . . . . . . . . . . . .
 72
65
 73
2
 40
0.2
 49
0.1
 74
0
 49
-0.1
 74
0
  0
LTYPE
  5
1F9
100
AcDbSymbolTableRecord
100
AcDbLinetypeTableRecord
  2
DASHED
 70
64
  3
- - - - - - - - - - - - - - - - - - - -
 72
65
 73
2
 40
0.2
 49
0.1
 74
0
 49
-0.1
 74
0
  0
ENDTAB
  0
TABLE
  2
LAYER
  5
2
100
AcDbSymbolTable
 70
36
  0
LAYER
  5
10
100
AcDbSymbolTableRecord
100
AcDbLayerTableRecord
  2
0
 70
0
 62
7
  6
CONTINUOUS
370
-3
390
F
  0
LAYER
  5
1FA
100
AcDbSymbolTableRecord
100
AcDbLayerTableRecord
  2
DEFAULT_1
 70
0
 62
7
  6
CENTER
370
-3
390
F
  0
LAYER
  5
1FB
100
AcDbSymbolTableRecord
100
AcDbLayerTableRecord
  2
DEFAULT_2
 70
0
 62
7
  6
HIDDEN
370
-3
390
F
  0
LAYER
  5
1FC
100
AcDbSymbolTableRecord
100
AcDbLayerTableRecord
  2
DEFAULT_3
 70
0
 62
7
  6
PHANTOM
370
-3
390
F
  0
LAYER
  5
1FD
100
AcDbSymbolTableRecord
100
AcDbLayerTableRecord
  2
ASSI
 70
0
 62
7
  6
CONTINUOUS
370
-3
390
F
  0
LAYER
  5
1FE
100
AcDbSymbolTableRecord
100
AcDbLayerTableRecord
  2
COORDINATE
 70
0
 62
7
  6
CONTINUOUS
370
-3
390
F
  0
LAYER
  5
1FF
100
AcDbSymbolTableRecord
100
AcDbLayerTableRecord
  2
COPY_PUBLISH
 70
0
 62
7
  6
CONTINUOUS
370
-3
390
F
  0
LAYER
  5
200
100
AcDbSymbolTableRecord
100
AcDbLayerTableRecord
  2
COSMETIC
 70
0
 62
7
  6
CONTINUOUS
370
-3
390
F
  0
LAYER
  5
201
100
AcDbSymbolTableRecord
100
AcDbLayerTableRecord
  2
COSMETICI
 70
0
 62
7
  6
CONTINUOUS
370
-3
390
F
  0
LAYER
  5
202
100
AcDbSymbolTableRecord
100
AcDbLayerTableRecord
  2
CURVE
 70
0
 62
7
  6
CONTINUOUS
370
-3
390
F
  0
LAYER
  5
203
100
AcDbSymbolTableRecord
100
AcDbLayerTableRecord
  2
DRAFT
 70
0
 62
7
  6
CONTINUOUS
370
-3
390
F
  0
LAYER
  5
204
100
AcDbSymbolTableRecord
100
AcDbLayerTableRecord
  2
IMPORT_IGES
 70
0
 62
7
  6
CONTINUOUS
370
-3
390
F
  0
LAYER
  5
205
100
AcDbSymbolTableRecord
100
AcDbLayerTableRecord
  2
INTFCLR_11
 70
0
 62
7
  6
CONTINUOUS
370
-3
390
F
  0
LAYER
  5
206
100
AcDbSymbolTableRecord
100
AcDbLayerTableRecord
  2
INTF_1
 70
0
 62
7
  6
CONTINUOUS
370
-3
390
F
  0
LAYER
  5
207
100
AcDbSymbolTableRecord
100
AcDbLayerTableRecord
  2
INTF_3
 70
0
 62
7
  6
CONTINUOUS
370
-3
390
F
  0
LAYER
  5
208
100
AcDbSymbolTableRecord
100
AcDbLayerTableRecord
  2
NOTE
 70
0
 62
7
  6
CONTINUOUS
370
-3
390
F
  0
LAYER
  5
209
100
AcDbSymbolTableRecord
100
AcDbLayerTableRecord
  2
PIANI
 70
0
 62
7
  6
CONTINUOUS
370
-3
390
F
  0
LAYER
  5
20A
100
AcDbSymbolTableRecord
100
AcDbLayerTableRecord
  2
PUNTI
 70
0
 62
7
  6
CONTINUOUS
370
-3
390
F
  0
LAYER
  5
20B
100
AcDbSymbolTableRecord
100
AcDbLayerTableRecord
  2
RACCORDO
 70
0
 62
7
  6
CONTINUOUS
370
-3
390
F
  0
LAYER
  5
20C
100
AcDbSymbolTableRecord
100
AcDbLayerTableRecord
  2
SIMBOLI
 70
0
 62
7
  6
CONTINUOUS
370
-3
390
F
  0
LAYER
  5
20D
100
AcDbSymbolTableRecord
100
AcDbLayerTableRecord
  2
SMUSSO
 70
0
 62
7
  6
CONTINUOUS
370
-3
390
F
  0
LAYER
  5
20E
100
AcDbSymbolTableRecord
100
AcDbLayerTableRecord
  2
SNAPLINE
 70
0
 62
7
  6
CONTINUOUS
370
-3
390
F
  0
LAYER
  5
20F
100
AcDbSymbolTableRecord
100
AcDbLayerTableRecord
  2
SUPERFICI
 70
0
 62
7
  6
CONTINUOUS
370
-3
390
F
  0
LAYER
  5
210
100
AcDbSymbolTableRecord
100
AcDbLayerTableRecord
  2
TRASH
 70
0
 62
7
  6
CONTINUOUS
370
-3
390
F
  0
LAYER
  5
211
100
AcDbSymbolTableRecord
100
AcDbLayerTableRecord
  2
___SHELL
 70
0
 62
7
  6
CONTINUOUS
370
-3
390
F
  0
ENDTAB
  0
TABLE
  2
STYLE
  5
3
100
AcDbSymbolTable
 70
1
  0
STYLE
  5
11
100
AcDbSymbolTableRecord
100
AcDbTextStyleTableRecord
  2
STANDARD
 70
0
 40
0.0
 41
0.8
 50
0.0
 71
0
 42
0.2
  3
txt
  4

  0
STYLE
  5
212
100
AcDbSymbolTableRecord
100
AcDbTextStyleTableRecord
  2
TEXTSTYLE_1
 70
0
 40
0.0
 41
0.8
 50
0.0
 71
0
 42
0.2
  3
gdt
  4

  0
ENDTAB
  0
TABLE
  2
VIEW
  5
6
100
AcDbSymbolTable
 70
0
  0
ENDTAB
  0
TABLE
  2
UCS
  5
7
100
AcDbSymbolTable
 70
0
  0
ENDTAB
  0
TABLE
  2
APPID
  5
9
100
AcDbSymbolTable
 70
1
  0
APPID
  5
213
100
AcDbSymbolTableRecord
100
AcDbRegAppTableRecord
  2
ACAD
 70
0
  0
ENDTAB
  0
TABLE
  2
BLOCK_RECORD
  5
1
100
AcDbSymbolTable
 70
0
  0
BLOCK_RECORD
  5
214
100
AcDbSymbolTableRecord
100
AcDbBlockTableRecord
  2
*Model_Space
  0
BLOCK_RECORD
  5
215
100
AcDbSymbolTableRecord
100
AcDbBlockTableRecord
  2
*Paper_Space
  0
BLOCK_RECORD
  5
216
100
AcDbSymbolTableRecord
100
AcDbBlockTableRecord
  2
_FILLED
  0
ENDTAB
  0
TABLE
  2
DIMSTYLE
  5
A
100
AcDbSymbolTable
 70
1
100
AcDbDimStyleTable
 71
0
  0
DIMSTYLE
105
217
100
AcDbSymbolTableRecord
100
AcDbDimStyleTableRecord
  2
STANDARD
 70
0
  3

  4

 40
1.0
 41
3.0
 42
0.5
 43
0.38
 44
1.5
 45
0.0
 46
0.0
 47
0.01
 48
0.01
140
3.0
141
0.09
142
0.0
143
25.4
144
1.0
145
0.0
146
1.0
147
0.625
 71
1
 72
0
 73
0
 74
0
 75
0
 76
0
 77
1
 78
8
 79
2
170
0
171
1
172
0
173
0
174
0
175
0
176
0
177
0
178
0
270
2
179
2
271
2
272
2
273
2
274
2
275
0
280
0
281
0
282
0
283
1
284
8
285
0
286
0
287
3
288
0
340
11
278
44
341
216
342
216
343
216
344
216
  0
ENDTAB
  0
ENDSEC
  0
SECTION
  2
BLOCKS
  0
BLOCK
  5
20
100
AcDbEntity
  8
0
100
AcDbBlockBegin
  2
*Model_Space
 70
0
 10
0.0
 20
0.0
 30
0.0
  3
*Model_Space
  1

  0
ENDBLK
  5
21
100
AcDbEntity
  8
0
100
AcDbBlockEnd
  0
BLOCK
  5
1C
100
AcDbEntity
  8
0
100
AcDbBlockBegin
  2
*Paper_Space
 70
0
 10
0.0
 20
0.0
 30
0.0
  3
*Paper_Space
  1

  0
ENDBLK
  5
1D
100
AcDbEntity
  8
0
100
AcDbBlockEnd
  0
BLOCK
  5
218
100
AcDbEntity
  8
0
100
AcDbBlockBegin
  2
_FILLED
 70
64
 10
0.0
 20
0.0
  3
_FILLED
  1

  0
SOLID
  5
219
100
AcDbEntity
  8
0
  6
BYBLOCK
 62
0
100
AcDbTrace
 10
0.0
 20
0.0
 11
-1.0
 21
0.3166666667
 12
-1.0
 22
-0.3166666667
 13
-1.0
 23
-0.3166666667
  0
ENDBLK
  5
21A
100
AcDbEntity
  8
0
  6
BYBLOCK
 62
0
100
AcDbBlockEnd
  0
ENDSEC
  0
SECTION
  2
ENTITIES
  0
LINE
  5
21B
100
AcDbEntity
  8
RACCORDO
100
AcDbLine
 62
7
  6
CONTINUOUS
 10
23.1717275943
 20
78.2516474807
 11
22.059917691
 21
77.4676319344
  0
LINE
  5
21C
100
AcDbEntity
  8
RACCORDO
100
AcDbLine
 62
7
  6
CONTINUOUS
 10
22.0684603305
 20
77.4737181193
 11
22.0682164398
 21
77.4735464769
  0
LWPOLYLINE
  5
21D
100
AcDbEntity
  8
RACCORDO
100
AcDbPolyline
 62
7
  6
CONTINUOUS
 90
18
 70
0
 10
22.059917691
 20
77.4676319344
 10
21.9919099073
 20
77.4151853484
 10
21.9271385911
 20
77.3581065554
 10
21.8655763915
 20
77.2967450352
 10
21.8072029646
 20
77.2314117422
 10
21.7521655661
 20
77.1625130683
 10
21.7005345278
 20
77.0903543914
 10
21.6524128646
 20
77.0152067689
 10
21.6080885164
 20
76.9375924423
 10
21.5676837932
 20
76.8578033855
 10
21.5313660879
 20
76.7761047222
 10
21.4994115697
 20
76.6930421981
 10
21.4719821374
 20
76.6088666806
 10
21.4492866291
 20
76.5238212095
 10
21.4315757602
 20
76.4382948981
 10
21.4191023788
 20
76.3524689235
 10
21.4121468847
 20
76.2665172472
 10
21.4114492249
 20
76.2493865331
  0
LINE
  5
21E
100
AcDbEntity
  8
0
100
AcDbLine
 62
250
  6
CONTINUOUS
 10
23.4341609557
 20
78.2349342699
 11
22.3378448718
 21
77.4619066101
  0
LWPOLYLINE
  5
21F
100
AcDbEntity
  8
RACCORDO
100
AcDbPolyline
 62
250
  6
CONTINUOUS
 90
22
 70
0
 10
22.3378448582
 20
77.4619066005
 10
22.2792620828
 20
77.4209306424
 10
22.2211648873
 20
77.3754698501
 10
22.1638548989
 20
77.3257426199
 10
22.1076450539
 20
77.2719822823
 10
22.0528108387
 20
77.2144545974
 10
21.9995894676
 20
77.1534549762
 10
21.9482528538
 20
77.0892741017
 10
21.8990715674
 20
77.022224648
 10
21.8522661874
 20
76.9526579567
 10
21.8080776613
 20
76.8809142997
 10
21.7667354058
 20
76.8073391595
 10
21.7284218728
 20
76.732308538
 10
21.6933323555
 20
76.6561883021
 10
21.6616503895
 20
76.5793482195
 10
21.6335155963
 20
76.5021786177
 10
21.6090715176
 20
76.425063071
 10
21.5884441901
 20
76.3483710458
 10
21.5717205629
 20
76.2724721852
 10
21.5589825609
 20
76.1977367712
 10
21.550303963
 20
76.1245335612
 10
21.5457310569
 20
76.0532227349
  0
LWPOLYLINE
  5
220
100
AcDbEntity
  8
RACCORDO
100
AcDbPolyline
 62
250
  6
CONTINUOUS
 90
10
 70
0
 10
21.5457310563
 20
41.9605147354
 10
21.5503040902
 20
41.8945618703
 10
21.5589829138
 20
41.8315972296
 10
21.5717211547
 20
41.7719322622
 10
21.5884448867
 20
41.7158695998
 10
21.6090721446
 20
41.6636800644
 10
21.6335161658
 20
41.6156039858
 10
21.6616510845
 20
41.5718824338
 10
21.6933332736
 20
41.5327392027
 10
21.7284229823
 20
41.4983598102
  0
LWPOLYLINE
  5
221
100
AcDbEntity
  8
RACCORDO
100
AcDbPolyline
 62
7
  6
CONTINUOUS
 90
13
 70
0
 10
21.4114928091
 20
42.1564507163
 10
21.4119602572
 20
42.1449939172
 10
21.4189266041
 20
42.0617127278
 10
21.4318767869
 20
41.9821995369
 10
21.4505829681
 20
41.9066567684
 10
21.4748206752
 20
41.8351255758
 10
21.5043775761
 20
41.7677231503
 10
21.5389568986
 20
41.7047508927
 10
21.5782467847
 20
41.6464036235
 10
21.6219257201
 20
41.5928627369
 10
21.6695277717
 20
41.5444406762
 10
21.7206006824
 20
41.5013377196
 10
21.7801052465
 20
41.4602959508
  0
LINE
  5
222
100
AcDbEntity
  8
RACCORDO
100
AcDbLine
 62
7
  6
CONTINUOUS
 10
21.4114928091
 20
42.1564507163
 11
21.4114856554
 21
42.1566490538
  0
LWPOLYLINE
  5
223
100
AcDbEntity
  8
RACCORDO
100
AcDbPolyline
 62
7
  6
CONTINUOUS
 90
10
 70
0
 10
21.4114510576
 20
76.2496459012
 10
21.2960691912
 20
72.4410509603
 10
21.2077712863
 20
68.5827898808
 10
21.1488781553
 20
64.742497498
 10
21.1194189118
 20
60.9205748186
 10
21.1193994192
 20
57.117345243
 10
21.1488201095
 20
53.3331037546
 10
21.2076759959
 20
49.5681667982
 10
21.2959388408
 20
45.8228986383
 10
21.4114778201
 20
42.1566487712
  0
LWPOLYLINE
  5
224
100
AcDbEntity
  8
RACCORDO
100
AcDbPolyline
 62
250
  6
CONTINUOUS
 90
10
 70
0
 10
21.5457310127
 20
76.0532227088
 10
21.4276474535
 20
72.1928873077
 10
21.3390426441
 20
68.3497479737
 10
21.2799515631
 20
64.5241574376
 10
21.2503993001
 20
60.7163757984
 10
21.2503993125
 20
56.9268327489
 10
21.279951597
 20
53.1561260576
 10
21.3390426884
 20
49.4046698717
 10
21.4276474891
 20
45.6726953103
 10
21.5457310126
 20
41.9605147047
  0
LWPOLYLINE
  5
225
100
AcDbEntity
  8
RACCORDO
100
AcDbPolyline
 62
250
  6
CONTINUOUS
 90
16
 70
0
 10
52.2130588444
 20
24.2535839205
 10
52.2508288538
 20
24.235410598
 10
52.2915580865
 20
24.2196447073
 10
52.334848554
 20
24.2064403059
 10
52.3802772409
 20
24.1959264214
 10
52.4274002376
 20
24.1882057908
 10
52.4757570789
 20
24.1833538569
 10
52.5248752428
 20
24.1814180306
 10
52.574274768
 20
24.1824172279
 10
52.6234729437
 20
24.1863416851
 10
52.671989027
 20
24.1931530542
 10
52.7193489397
 20
24.2027847774
 10
52.7650899014
 20
24.2151427377
 10
52.8087649514
 20
24.2301061785
 10
52.8499473162
 20
24.2475288836
 10
52.8882345795
 20
24.2672406059
  0
LWPOLYLINE
  5
226
100
AcDbEntity
  8
RACCORDO
100
AcDbPolyline
 62
7
  6
CONTINUOUS
 90
12
 70
0
 10
52.4746550755
 20
23.7376502248
 10
52.5321214835
 20
23.7096707794
 10
52.5961628592
 20
23.6850942953
 10
52.6627965784
 20
23.6661294413
 10
52.7316032646
 20
23.6529694745
 10
52.8021126916
 20
23.6457663446
 10
52.8743028939
 20
23.6446285473
 10
52.94783868
 20
23.6497053727
 10
53.0223176722
 20
23.6610921698
 10
53.0977837096
 20
23.6789734089
 10
53.1740965934
 20
23.7035713184
 10
53.2577770049
 20
23.738171173
  0
LWPOLYLINE
  5
227
100
AcDbEntity
  8
RACCORDO
100
AcDbPolyline
 62
250
  6
CONTINUOUS
 90
12
 70
0
 10
52.4745311999
 20
23.737710162
 10
52.4403986832
 20
23.7583347771
 10
52.4009162809
 20
23.7884468612
 10
52.3647699371
 20
23.823436342
 10
52.3321255158
 20
23.8631351543
 10
52.3031605607
 20
23.9073359596
 10
52.2780136869
 20
23.9558178576
 10
52.2567958265
 20
24.008348401
 10
52.2396183958
 20
24.0646730247
 10
52.2265673547
 20
24.1245186
 10
52.2177001801
 20
24.1875919927
 10
52.2130591103
 20
24.2535841407
  0
LWPOLYLINE
  5
228
100
AcDbEntity
  8
RACCORDO
100
AcDbPolyline
 62
7
  6
CONTINUOUS
 90
10
 70
0
 10
21.7800786928
 20
41.4603045085
 10
25.0169475822
 20
39.476455987
 10
28.3647635828
 20
37.4547364951
 10
31.7400792172
 20
35.44669366
 10
35.1426983831
 20
33.4524583043
 10
38.5724173325
 20
31.4721577952
 10
42.0290220173
 20
29.5059143512
 10
45.5122919299
 20
27.5538462623
 10
49.0219984084
 20
25.6160670977
 10
52.4745290216
 20
23.7377113386
  0
LWPOLYLINE
  5
229
100
AcDbEntity
  8
RACCORDO
100
AcDbPolyline
 62
250
  6
CONTINUOUS
 90
19
 70
0
 10
21.5457310126
 20
41.9605147047
 10
23.0882648113
 20
41.0096854909
 10
24.6348540148
 20
40.0631827641
 10
26.1854584429
 20
39.1210065976
 10
27.737786007
 20
38.1845111654
 10
29.294031066
 20
37.2523321964
 10
30.8609596645
 20
36.3204346511
 10
32.4356747962
 20
35.3905900692
 10
34.0211226659
 20
34.4610992299
 10
35.6330850791
 20
33.5228639079
 10
37.269657584
 20
32.5772534905
 10
38.9331513767
 20
31.6231811313
 10
40.6461000806
 20
30.6481144589
 10
42.4099911371
 20
29.6517960263
 10
44.2242986533
 20
28.6351069982
 10
46.1090325017
 20
27.5875215188
 10
48.0714670875
 20
26.5059196262
 10
50.1058829548
 20
25.39443403
 10
52.2130588422
 20
24.253583947
  0
LWPOLYLINE
  5
22A
100
AcDbEntity
  8
RACCORDO
100
AcDbPolyline
 62
250
  6
CONTINUOUS
 90
9
 70
0
 10
21.5457403217
 20
41.9605201373
 10
21.5138620482
 20
41.9825606607
 10
21.4858660058
 20
42.0064755654
 10
21.4620257541
 20
42.0320311701
 10
21.4425742446
 20
42.0589777618
 10
21.4277015454
 20
42.0870520355
 10
21.4175529828
 20
42.1159796671
 10
21.4122277223
 20
42.1454779944
 10
21.4114928091
 20
42.1564507163
  0
LWPOLYLINE
  5
22B
100
AcDbEntity
  8
RACCORDO
100
AcDbPolyline
 62
250
  6
CONTINUOUS
 90
3
 70
0
 10
21.7284229823
 20
41.4983598102
 10
21.7667366068
 20
41.4689225641
 10
21.7800787928
 20
41.4603044468
  0
LINE
  5
22C
100
AcDbEntity
  8
DRAFT
100
AcDbLine
 62
7
  6
CONTINUOUS
 10
35.5373342587
 20
48.8855558723
 11
35.5347587793
 21
48.9517826576
  0
LWPOLYLINE
  5
22D
100
AcDbEntity
  8
0
100
AcDbPolyline
 62
7
  6
CONTINUOUS
 90
35
 70
0
 10
35.5347587799
 20
48.9517826564
 10
35.5366465281
 20
48.8946857483
 10
35.5418954691
 20
48.8363224303
 10
35.5505054562
 20
48.7766926172
 10
35.5625683904
 20
48.7154084665
 10
35.5779924894
 20
48.6528578886
 10
35.5965017686
 20
48.5902042448
 10
35.6181595115
 20
48.5274892656
 10
35.6429021283
 20
48.4646710377
 10
35.6702626182
 20
48.402787045
 10
35.7001781388
 20
48.3420172044
 10
35.7327110416
 20
48.2821813067
 10
35.7675816911
 20
48.2237763994
 10
35.8048077158
 20
48.1667404647
 10
35.8443713285
 20
48.1111354204
 10
35.8859395018
 20
48.0576440622
 10
35.9297793559
 20
48.0060644989
 10
35.9756238797
 20
47.9565986773
 10
36.0223382196
 20
47.9105347856
 10
36.0702026861
 20
47.8679595914
 10
36.1189366831
 20
47.828786157
 10
36.1665627971
 20
47.7940414192
 10
36.2117028303
 20
47.7644771351
 10
36.2557333932
 20
47.7393406288
 10
36.3008094837
 20
47.7174023037
 10
36.3483654914
 20
47.6978464305
 10
36.396968639
 20
47.6814896744
 10
36.4444732925
 20
47.6695510995
 10
36.490470191
 20
47.6624652726
 10
36.5353686788
 20
47.6597976815
 10
36.5782498349
 20
47.6614630813
 10
36.6188970883
 20
47.6675222785
 10
36.657526904
 20
47.6779144121
 10
36.6938694101
 20
47.6923714413
 10
36.7001468997
 20
47.6953870401
  0
LINE
  5
22E
100
AcDbEntity
  8
DRAFT
100
AcDbLine
 62
7
  6
CONTINUOUS
 10
35.5347587793
 20
48.9517826576
 11
35.5327952331
 21
50.0392696559
  0
LINE
  5
22F
100
AcDbEntity
  8
0
100
AcDbLine
 62
7
  6
CONTINUOUS
 10
35.533163398
 20
50.7198718585
 11
35.5347587799
 21
48.9517826564
  0
LINE
  5
230
100
AcDbEntity
  8
DRAFT
100
AcDbLine
 62
7
  6
CONTINUOUS
 10
35.5327952331
 20
50.0392696559
 11
35.53397336
 21
51.1285717767
  0
LINE
  5
231
100
AcDbEntity
  8
0
100
AcDbLine
 62
7
  6
CONTINUOUS
 10
35.5347587763
 20
51.4011789227
 11
35.533163398
 21
50.7198718585
  0
LINE
  5
232
100
AcDbEntity
  8
DRAFT
100
AcDbLine
 62
7
  6
CONTINUOUS
 10
35.53397336
 20
51.1285717767
 11
35.5347587763
 21
51.4011789081
  0
LWPOLYLINE
  5
233
100
AcDbEntity
  8
DRAFT
100
AcDbPolyline
 62
7
  6
CONTINUOUS
 90
11
 70
0
 10
35.5347587763
 20
51.4011789081
 10
35.5374160779
 20
51.4654109709
 10
35.5444167424
 20
51.5257731055
 10
35.555760338
 20
51.5822650639
 10
35.5715809764
 20
51.6351680761
 10
35.5917443526
 20
51.6842008016
 10
35.6158470962
 20
51.7285189564
 10
35.6439866829
 20
51.7680620131
 10
35.6760652494
 20
51.8028902816
 10
35.7113854649
 20
51.8323401897
 10
35.7214101622
 20
51.8393030486
  0
LWPOLYLINE
  5
234
100
AcDbEntity
  8
0
100
AcDbPolyline
 62
7
  6
CONTINUOUS
 90
12
 70
0
 10
35.721396215
 20
51.8393262676
 10
35.6972442753
 20
51.8216281319
 10
35.6679025035
 20
51.79502985
 10
35.6410733639
 20
51.7644077647
 10
35.616802794
 20
51.7298880101
 10
35.5955475166
 20
51.6919916186
 10
35.5773669232
 20
51.650654038
 10
35.5622019039
 20
51.6059399799
 10
35.5503307803
 20
51.5585640021
 10
35.5418461707
 20
51.5087642018
 10
35.5366554406
 20
51.4563024728
 10
35.5347587763
 20
51.4011789227
  0
LWPOLYLINE
  5
235
100
AcDbEntity
  8
DRAFT
100
AcDbPolyline
 62
7
  6
CONTINUOUS
 90
31
 70
0
 10
35.7214101622
 20
51.8393030486
 10
35.749915764
 20
51.8562884555
 10
35.7916871031
 20
51.8748580202
 10
35.8360951416
 20
51.8877541926
 10
35.8833173107
 20
51.8949019042
 10
35.9331759554
 20
51.8963761056
 10
35.9845333008
 20
51.8921066727
 10
36.0372997058
 20
51.881990301
 10
36.0915643765
 20
51.8661300544
 10
36.1464570117
 20
51.8447649023
 10
36.2021231531
 20
51.8177209744
 10
36.258417297
 20
51.7851721682
 10
36.3140318096
 20
51.7478786623
 10
36.3688210278
 20
51.7058334694
 10
36.4229305663
 20
51.6590435472
 10
36.4754889406
 20
51.6082895483
 10
36.5265754572
 20
51.553376975
 10
36.5761112215
 20
51.4945005542
 10
36.6229866593
 20
51.4330243199
 10
36.6670260231
 20
51.3690865769
 10
36.7084052822
 20
51.3025491363
 10
36.7465416598
 20
51.2343608446
 10
36.7814787515
 20
51.1643351084
 10
36.8131736096
 20
51.0926588813
 10
36.8409128486
 20
51.0208408755
 10
36.8645879497
 20
50.9489487587
 10
36.8843078055
 20
50.8769150691
 10
36.8996841763
 20
50.8060452686
 10
36.9105874917
 20
50.7367744204
 10
36.9171475008
 20
50.668667561
 10
36.9193646264
 20
50.6017249329
  0
LWPOLYLINE
  5
236
100
AcDbEntity
  8
0
100
AcDbPolyline
 62
7
  6
CONTINUOUS
 90
3
 70
0
 10
35.763281927
 20
51.8629875357
 10
35.7291441157
 20
51.8443284616
 10
35.721396215
 20
51.8393262676
  0
LWPOLYLINE
  5
237
100
AcDbEntity
  8
0
100
AcDbPolyline
 62
7
  6
CONTINUOUS
 90
33
 70
0
 10
36.9178382464
 20
50.6592203429
 10
36.9129253428
 20
50.7179856858
 10
36.9046257651
 20
50.7780208688
 10
36.8928460074
 20
50.8397183264
 10
36.877679692
 20
50.9026856921
 10
36.8594070449
 20
50.9657454986
 10
36.8379658893
 20
51.0288579472
 10
36.8134180913
 20
51.0920626632
 10
36.7862292235
 20
51.1543009043
 10
36.7564618218
 20
51.215382734
 10
36.7240528433
 20
51.275497805
 10
36.6892790641
 20
51.334156513
 10
36.6521412529
 20
51.3914071853
 10
36.6126384778
 20
51.447201409
 10
36.5710447247
 20
51.500904332
 10
36.5270221699
 20
51.5527874229
 10
36.4809088279
 20
51.6025793305
 10
36.4339917599
 20
51.6488305813
 10
36.3860435288
 20
51.6913724109
 10
36.3372911852
 20
51.7303733658
 10
36.2897022565
 20
51.7648892091
 10
36.2446669802
 20
51.7941786044
 10
36.2007934815
 20
51.8189819449
 10
36.155876347
 20
51.8405777176
 10
36.1084876939
 20
51.8597923305
 10
36.0600569967
 20
51.8758002896
 10
36.0126650426
 20
51.8874023231
 10
35.9666719591
 20
51.8941652623
 10
35.9217177557
 20
51.8965223483
 10
35.8788018395
 20
51.8945732311
 10
35.838190547
 20
51.8882626671
 10
35.7996173676
 20
51.8776457928
 10
35.763281927
 20
51.8629875357
  0
LINE
  5
238
100
AcDbEntity
  8
0
100
AcDbLine
 62
7
  6
CONTINUOUS
 10
36.9193646257
 20
50.6017249263
 11
36.9178382464
 21
50.6592203429
  0
LINE
  5
239
100
AcDbEntity
  8
0
100
AcDbLine
 62
7
  6
CONTINUOUS
 10
36.9193646305
 20
48.1523281594
 11
36.9174019498
 21
49.2382156278
  0
LINE
  5
23A
100
AcDbEntity
  8
DRAFT
100
AcDbLine
 62
7
  6
CONTINUOUS
 10
36.9177694805
 20
49.9204177254
 11
36.9193646304
 21
48.15232818
  0
LINE
  5
23B
100
AcDbEntity
  8
0
100
AcDbLine
 62
7
  6
CONTINUOUS
 10
36.9174019387
 20
49.2382767384
 11
36.9185793243
 21
50.3291177402
  0
LINE
  5
23C
100
AcDbEntity
  8
DRAFT
100
AcDbLine
 62
7
  6
CONTINUOUS
 10
36.9193646264
 20
50.6017249329
 11
36.9177694805
 21
49.9204177254
  0
LINE
  5
23D
100
AcDbEntity
  8
0
100
AcDbLine
 62
7
  6
CONTINUOUS
 10
36.9185793243
 20
50.3291177402
 11
36.9193646257
 21
50.6017249263
  0
LWPOLYLINE
  5
23E
100
AcDbEntity
  8
DRAFT
100
AcDbPolyline
 62
7
  6
CONTINUOUS
 90
12
 70
0
 10
36.9193646304
 20
48.15232818
 10
36.917217153
 20
48.0888845306
 10
36.9107372932
 20
48.0291709582
 10
36.8999246843
 20
47.9731872503
 10
36.8846623474
 20
47.9206269466
 10
36.8650671893
 20
47.8717964653
 10
36.8414893355
 20
47.8276147152
 10
36.8138343133
 20
47.7881501789
 10
36.7821962734
 20
47.7533341821
 10
36.7472073138
 20
47.723879337
 10
36.708832844
 20
47.6999045061
 10
36.7001188439
 20
47.6954376512
  0
LWPOLYLINE
  5
23F
100
AcDbEntity
  8
0
100
AcDbPolyline
 62
7
  6
CONTINUOUS
 90
3
 70
0
 10
36.9129953181
 20
48.045138923
 10
36.9178313418
 20
48.0974125878
 10
36.9193646305
 20
48.1523281594
  0
LINE
  5
240
100
AcDbEntity
  8
0
100
AcDbLine
 62
250
  6
CONTINUOUS
 10
53.0295939744
 20
59.7408756082
 11
54.2471761017
 21
60.4438855023
  0
LINE
  5
241
100
AcDbEntity
  8
0
100
AcDbLine
 62
250
  6
CONTINUOUS
 10
53.3826628322
 20
59.1293424083
 11
54.6002449597
 21
59.8323523024
  0
LWPOLYLINE
  5
242
100
AcDbEntity
  8
0
100
AcDbPolyline
 62
7
  6
CONTINUOUS
 90
11
 70
0
 10
36.7001468997
 20
47.6953870401
 10
36.7279359499
 20
47.7108588986
 10
36.7597153906
 20
47.73341138
 10
36.7889039045
 20
47.7598642995
 10
36.8155547611
 20
47.7903354418
 10
36.8396151849
 20
47.824707314
 10
36.8606218382
 20
47.8624621556
 10
36.8785033132
 20
47.9036744311
 10
36.8933312852
 20
47.9482698337
 10
36.9048563828
 20
47.9955070629
 10
36.9129953181
 20
48.045138923
  0
LWPOLYLINE
  5
243
100
AcDbEntity
  8
DRAFT
100
AcDbPolyline
 62
7
  6
CONTINUOUS
 90
29
 70
0
 10
36.7001188439
 20
47.6954376512
 10
36.6671069568
 20
47.6812905291
 10
36.6227638924
 20
47.66839247
 10
36.5756851535
 20
47.6613211312
 10
36.5259888889
 20
47.6599654973
 10
36.4747634441
 20
47.6643474032
 10
36.4220526747
 20
47.6745763837
 10
36.3678122985
 20
47.690542647
 10
36.3129976566
 20
47.7119385761
 10
36.2575447909
 20
47.7388867951
 10
36.2015175849
 20
47.7712646315
 10
36.1460624176
 20
47.8083961062
 10
36.0912549222
 20
47.8503152422
 10
36.037019507
 20
47.8969880421
 10
35.9842750072
 20
47.9476360891
 10
35.9329674393
 20
48.0024205698
 10
35.8831512149
 20
48.0611805536
 10
35.8359069881
 20
48.1226540013
 10
35.791349902
 20
48.1868126815
 10
35.7493651695
 20
48.2536850441
 10
35.7106877033
 20
48.3220935816
 10
35.6753425569
 20
48.3921333474
 10
35.6433052037
 20
48.463709606
 10
35.6152353052
 20
48.5353596549
 10
35.5912302565
 20
48.6070441327
 10
35.5711929953
 20
48.6788026026
 10
35.5554905201
 20
48.7492901792
 10
35.5442449615
 20
48.8180584508
 10
35.5373342587
 20
48.8855558723
  0
LWPOLYLINE
  5
244
100
AcDbEntity
  8
RACCORDO
100
AcDbPolyline
 62
250
  6
CONTINUOUS
 90
10
 70
0
 10
52.2130588422
 20
24.253583947
 10
52.0847624272
 20
27.9716613514
 10
51.9884979553
 20
31.708058515
 10
51.9243004147
 20
35.4624631053
 10
51.8921949045
 20
39.2346440029
 10
51.8921948906
 20
43.0241870597
 10
51.9243003778
 20
46.8304945052
 10
51.988497908
 20
50.6531366464
 10
52.0847623898
 20
54.4918533859
 10
52.2130588425
 20
58.3462919939
  0
LWPOLYLINE
  5
245
100
AcDbEntity
  8
RACCORDO
100
AcDbPolyline
 62
250
  6
CONTINUOUS
 90
22
 70
0
 10
52.2130591121
 20
58.3462921595
 10
52.2177000455
 20
58.4175637141
 10
52.2265669929
 20
58.4906581785
 10
52.2396177944
 20
58.5652129894
 10
52.2567950954
 20
58.6408499047
 10
52.2780129876
 20
58.7172009431
 10
52.3031599246
 20
58.7939106663
 10
52.3321248527
 20
58.8706009577
 10
52.3647691986
 20
58.9468853735
 10
52.4009154685
 20
59.0223954528
 10
52.4403978391
 20
59.096751201
 10
52.4830304175
 20
59.1695813235
 10
52.5285820796
 20
59.2405379214
 10
52.5768438828
 20
59.3092636909
 10
52.6275874674
 20
59.3754110919
 10
52.6805331322
 20
59.4386629189
 10
52.7354310907
 20
59.4986944971
 10
52.7920263325
 20
59.5552053846
 10
52.8500176717
 20
59.6079371084
 10
52.9091218499
 20
59.6566283962
 10
52.9690742617
 20
59.7010180112
 10
53.0295939742
 20
59.7408756082
  0
LWPOLYLINE
  5
246
100
AcDbEntity
  8
RACCORDO
100
AcDbPolyline
 62
250
  6
CONTINUOUS
 90
16
 70
0
 10
52.2130669324
 20
58.346296636
 10
52.2508364608
 20
58.3276576214
 10
52.2915651407
 20
58.311094355
 10
52.3348549968
 20
58.2967686827
 10
52.3802830274
 20
58.2848205861
 10
52.4274053382
 20
58.2753668144
 10
52.4757614791
 20
58.2684997439
 10
52.5248789442
 20
58.2642864753
 10
52.5742777881
 20
58.2627681779
 10
52.6234753161
 20
58.2639596878
 10
52.6719908004
 20
58.267849362
 10
52.7193501781
 20
58.2743991933
 10
52.7650906827
 20
58.2835451807
 10
52.8087653664
 20
58.2951979553
 10
52.8499474675
 20
58.3092436535
 10
52.8882345801
 20
58.3255450294
  0
LWPOLYLINE
  5
247
100
AcDbEntity
  8
RACCORDO
100
AcDbPolyline
 62
250
  6
CONTINUOUS
 90
6
 70
0
 10
42.4110789914
 20
63.732763442
 10
44.2252787166
 20
62.7174299248
 10
46.1098514741
 20
61.6716873604
 10
48.0720681007
 20
60.5924520579
 10
50.1062112359
 20
59.4838148102
 10
52.2130588425
 20
58.3462919939
  0
LINE
  5
248
100
AcDbEntity
  8
RACCORDO
100
AcDbLine
 62
250
  6
CONTINUOUS
 10
40.2499807127
 20
64.9540951808
 11
42.4110789914
 21
63.732763442
  0
LINE
  5
249
100
AcDbEntity
  8
RACCORDO
100
AcDbLine
 62
250
  6
CONTINUOUS
 10
37.2708023825
 20
66.6563603915
 11
38.7520775502
 21
65.8070327808
  0
LINE
  5
24A
100
AcDbEntity
  8
RACCORDO
100
AcDbLine
 62
250
  6
CONTINUOUS
 10
38.7520775502
 20
65.8070327808
 11
40.2499807127
 21
64.9540951808
  0
LINE
  5
24B
100
AcDbEntity
  8
RACCORDO
100
AcDbLine
 62
250
  6
CONTINUOUS
 10
34.0221283057
 20
68.5406199842
 11
35.3302581739
 21
67.7789808998
  0
LINE
  5
24C
100
AcDbEntity
  8
RACCORDO
100
AcDbLine
 62
250
  6
CONTINUOUS
 10
35.3302581739
 20
67.7789808998
 11
37.2708023825
 21
66.6563603915
  0
LWPOLYLINE
  5
24D
100
AcDbEntity
  8
RACCORDO
100
AcDbPolyline
 62
250
  6
CONTINUOUS
 90
9
 70
0
 10
21.5457310127
 20
76.0532227088
 10
23.0883761465
 20
75.0997707639
 10
24.6350832813
 20
74.150923032
 10
26.1858122976
 20
73.2066795992
 10
27.7382767661
 20
72.268392202
 10
29.2946655466
 20
71.33469914
 10
30.8617278208
 20
70.4015725875
 10
32.4365668416
 20
69.4707771054
 10
34.0221283057
 20
68.5406199842
  0
LWPOLYLINE
  5
24E
100
AcDbEntity
  8
RACCORDO
100
AcDbPolyline
 62
250
  6
CONTINUOUS
 90
9
 70
0
 10
21.5457310148
 20
76.053222733
 10
21.5138525643
 20
76.0747977581
 10
21.4858564593
 20
76.0979155877
 10
21.4620162655
 20
76.1223503248
 10
21.4425649388
 20
76.1478632037
 10
21.4276925489
 20
76.174204924
 10
21.4175444223
 20
76.2011180858
 10
21.412219722
 20
76.2283397056
 10
21.4114424833
 20
76.2493867561
  0
LWPOLYLINE
  5
24F
100
AcDbEntity
  8
RACCORDO
100
AcDbPolyline
 62
250
  6
CONTINUOUS
 90
3
 70
0
 10
52.8882345795
 20
24.2672406059
 10
52.7586203747
 20
27.9828424818
 10
52.6614097189
 20
31.7159253126
  0
LINE
  5
250
100
AcDbEntity
  8
RACCORDO
100
AcDbLine
 62
250
  6
CONTINUOUS
 10
52.6614097189
 20
31.7159253126
 11
52.5966026122
 21
35.4664890982
  0
LINE
  5
251
100
AcDbEntity
  8
RACCORDO
100
AcDbLine
 62
250
  6
CONTINUOUS
 10
52.5966026122
 20
35.4664890982
 11
52.5641990518
 21
39.2349570548
  0
LINE
  5
252
100
AcDbEntity
  8
RACCORDO
100
AcDbLine
 62
250
  6
CONTINUOUS
 10
52.5641990518
 20
39.2349570548
 11
52.5641990405
 21
43.0209059663
  0
LINE
  5
253
100
AcDbEntity
  8
RACCORDO
100
AcDbLine
 62
250
  6
CONTINUOUS
 10
52.5641990405
 20
43.0209059663
 11
52.5966025868
 21
46.8230661843
  0
LINE
  5
254
100
AcDbEntity
  8
RACCORDO
100
AcDbLine
 62
250
  6
CONTINUOUS
 10
52.5966025868
 20
46.8230661843
 11
52.6614096936
 21
50.6410144928
  0
LINE
  5
255
100
AcDbEntity
  8
RACCORDO
100
AcDbLine
 62
250
  6
CONTINUOUS
 10
52.6614096936
 20
50.6410144928
 11
52.758620358
 21
54.4751741078
  0
LINE
  5
256
100
AcDbEntity
  8
RACCORDO
100
AcDbLine
 62
250
  6
CONTINUOUS
 10
52.758620358
 20
54.4751741078
 11
52.8882345801
 21
58.3255450294
  0
LWPOLYLINE
  5
257
100
AcDbEntity
  8
RACCORDO
100
AcDbPolyline
 62
250
  6
CONTINUOUS
 90
22
 70
0
 10
52.8882345801
 20
58.3255450294
 10
52.8910921635
 20
58.3671901266
 10
52.8964448571
 20
58.409489447
 10
52.9042926608
 20
58.4524429906
 10
52.914698394
 20
58.4962865979
 10
52.9275992374
 20
58.5407844285
 10
52.942806733
 20
58.5852289609
 10
52.9603543351
 20
58.6296023455
 10
52.9802085894
 20
58.673922432
 10
53.0020806752
 20
58.7175352481
 10
53.0260025876
 20
58.7604325653
 10
53.0519423314
 20
58.8026226122
 10
53.0795151004
 20
58.843476103
 10
53.1087446075
 20
58.8829710054
 10
53.1396071398
 20
58.9211293517
 10
53.1716467517
 20
58.957387953
 10
53.2048976973
 20
58.9917285656
 10
53.2393257225
 20
59.0241694332
 10
53.2743721194
 20
59.0542020972
 10
53.309850652
 20
59.0816570712
 10
53.3459475562
 20
59.1067038416
 10
53.3826628322
 20
59.1293424083
  0
LWPOLYLINE
  5
258
100
AcDbEntity
  8
RACCORDO
100
AcDbPolyline
 62
250
  6
CONTINUOUS
 90
19
 70
0
 10
22.3378448718
 20
77.4619066101
 10
23.8814444502
 20
76.5056864812
 10
25.4290274483
 20
75.5543159936
 10
26.9805938663
 20
74.6077951473
 10
28.5338943284
 20
73.6674540416
 10
30.0911782102
 20
72.7319625772
 10
31.6591936387
 20
71.7973304558
 10
33.2348501426
 20
70.8651863033
 10
34.8212381931
 20
69.9339014938
 10
36.4343773304
 20
68.9945998508
 10
38.0717905557
 20
68.0483542713
 10
39.7359548678
 20
67.0940918583
 10
41.4503208032
 20
66.1197177436
 10
43.2155962295
 20
65.1243877852
 10
45.031073279
 20
64.1089461252
 10
46.918078885
 20
63.0638303217
 10
48.883722025
 20
61.985852894
 10
50.9208937215
 20
60.8782013229
 10
53.0295939744
 20
59.7408756082
  0
LWPOLYLINE
  5
259
100
AcDbEntity
  8
RACCORDO
100
AcDbPolyline
 62
250
  6
CONTINUOUS
 90
16
 70
0
 10
53.0295939742
 20
59.7408756082
 10
53.0646112445
 20
59.7162081611
 10
53.0994482166
 20
59.6874756497
 10
53.1337245381
 20
59.6549917776
 10
53.1670659778
 20
59.6191112057
 10
53.1991085116
 20
59.5802256807
 10
53.2295022973
 20
59.5387597575
 10
53.2579154934
 20
59.4951661639
 10
53.2840378828
 20
59.4499208577
 10
53.3075842595
 20
59.4035178303
 10
53.3282975424
 20
59.356463713
 10
53.3459515826
 20
59.3092722459
 10
53.3603536321
 20
59.2624586686
 10
53.3713464483
 20
59.2165340949
 10
53.3788100109
 20
59.1719999325
 10
53.3826628322
 20
59.1293424083
  0
LINE
  5
25A
100
AcDbEntity
  8
0
100
AcDbLine
 62
7
  6
CONTINUOUS
 10
54.6002449597
 20
24.5405201293
 11
54.6002449597
 21
59.8323523024
  0
LWPOLYLINE
  5
25B
100
AcDbEntity
  8
RACCORDO
100
AcDbPolyline
 62
250
  6
CONTINUOUS
 90
9
 70
0
 10
22.3378448582
 20
77.4619066005
 10
22.2991780534
 20
77.479783319
 10
22.2611355098
 20
77.4931303295
 10
22.2241325855
 20
77.5018019243
 10
22.1885732729
 20
77.5057034449
 10
22.1548458247
 20
77.50479231
 10
22.1233185087
 20
77.4990784968
 10
22.094335535
 20
77.4886244277
 10
22.0684603305
 20
77.4737181193
  0
LINE
  5
25C
100
AcDbEntity
  8
0
100
AcDbLine
 62
7
  6
CONTINUOUS
 10
54.2471761017
 20
60.4438855023
 11
23.4341609557
 21
78.2349342699
  0
LWPOLYLINE
  5
25D
100
AcDbEntity
  8
RACCORDO
100
AcDbPolyline
 62
250
  6
CONTINUOUS
 90
9
 70
0
 10
53.2579421931
 20
23.7382392799
 10
53.2840393985
 20
23.7533078326
 10
53.3075855775
 20
23.7731783967
 10
53.3282986042
 20
23.7976223968
 10
53.3459523616
 20
23.8263729235
 10
53.3603541346
 20
23.8591160586
 10
53.3713467102
 20
23.8954942941
 10
53.3788100953
 20
23.9351104328
 10
53.3826628309
 20
23.9775319341
  0
LINE
  5
25E
100
AcDbEntity
  8
0
100
AcDbLine
 62
250
  6
CONTINUOUS
 10
54.6002449597
 20
24.5405201293
 11
53.3826628309
 21
23.9775319341
  0
LINE
  5
25F
100
AcDbEntity
  8
RACCORDO
100
AcDbLine
 62
7
  6
CONTINUOUS
 10
54.4835153825
 20
24.3049223985
 11
53.2579421931
 21
23.7382392799
  0
LWPOLYLINE
  5
260
100
AcDbEntity
  8
RACCORDO
100
AcDbPolyline
 62
250
  6
CONTINUOUS
 90
22
 70
0
 10
53.3826628309
 20
23.9775319341
 10
53.3459415126
 20
23.9619932767
 10
53.3098395544
 20
23.949506615
 10
53.2743569562
 20
23.9400719491
 10
53.2393077603
 20
23.9336652013
 10
53.2048779244
 20
23.9303104492
 10
53.1716253221
 20
23.9300799256
 10
53.1395835992
 20
23.9330276632
 10
53.1087191099
 20
23.9390996292
 10
53.0794887901
 20
23.9482059581
 10
53.0519168654
 20
23.9603933328
 10
53.0259791101
 20
23.9756150704
 10
53.002059783
 20
23.993641256
 10
52.9801910571
 20
24.0145129775
 10
52.9603407593
 20
24.0381891469
 10
52.9427966296
 20
24.0643165862
 10
52.9275917025
 20
24.0929483442
 10
52.9146929434
 20
24.124031372
 10
52.904288988
 20
24.1570533446
 10
52.8964427148
 20
24.1918434869
 10
52.8910912453
 20
24.228572574
 10
52.8882345795
 20
24.2672406059
  0
ELLIPSE
  5
261
100
AcDbEntity
  8
0
100
AcDbEllipse
 62
7
  6
CONTINUOUS
 10
54.2462063715
 20
24.7460572848
 30
0.0
 11
-0.2506977177
 21
0.4341934385
 31
0.0
 40
0.5757524875
 41
-3.1938069972
 42
-2.3576120761
  0
ELLIPSE
  5
262
100
AcDbEntity
  8
0
100
AcDbEllipse
 62
7
  6
CONTINUOUS
 10
23.4351306859
 20
77.8255789816
 30
0.0
 11
-0.2506977177
 21
0.4341934385
 31
0.0
 40
0.5757524875
 41
-0.7840766935
 42
0.0522143435
  0
ELLIPSE
  5
263
100
AcDbEntity
  8
0
100
AcDbEllipse
 62
7
  6
CONTINUOUS
 10
54.2462063715
 20
60.0356500342
 30
0.0
 11
-0.2500121799
 21
0.4330056696
 31
0.0
 40
0.5789151826
 41
-2.3548735497
 42
-0.7868162787
  0
ENDSEC
  0
SECTION
  2
OBJECTS
  0
DICTIONARY
  5
C
100
AcDbDictionary
280
0
281
1
  3
ACAD_GROUP
350
D
  3
ACAD_MLINESTYLE
350
17
  3
ACAD_LAYOUT
350
1A
  3
ACAD_PLOTSETTINGS
350
19
  3
ACAD_PLOTSTYLENAME
350
E
  0
DICTIONARY
  5
D
102
{ACAD_REACTORS
330
C
102
}
100
AcDbDictionary
280
0
281
1
  0
ACDBDICTIONARYWDFLT
  5
E
102
{ACAD_REACTORS
330
C
102
}
100
AcDbDictionary
281
1
  3
Normal
350
F
100
AcDbDictionaryWithDefault
340
F
  0
DICTIONARY
  5
17
102
{ACAD_REACTORS
330
C
102
}
100
AcDbDictionary
280
0
281
1
  3
Standard
350
18
  0
DICTIONARY
  5
19
102
{ACAD_REACTORS
330
C
102
}
100
AcDbDictionary
281
1
  0
DICTIONARY
  5
1A
102
{ACAD_REACTORS
330
C
102
}
100
AcDbDictionary
281
1
  3
Model
350
264
  3
Layout1
350
265
  0
ACDBPLACEHOLDER
  5
F
102
{ACAD_REACTORS
330
E
102
}
  0
MLINESTYLE
  5
18
102
{ACAD_REACTORS
330
17
102
}
100
AcDbMlineStyle
  2
STANDARD
 70
0
  3

 62
256
 51
90.0
 52
90.0
 71
2
 49
0.5
 62
256
  6
BYLAYER
 49
-0.5
 62
256
  6
BYLAYER
  0
LAYOUT
  5
264
102
{ACAD_REACTORS
330
1A
102
}
100
AcDbPlotSettings
  1

  2
none_device
  4
ISO_A4_(297.00_x_210.00_MM)
  6

 40
0.0
 41
0.0
 42
0.0
 43
0.0
 44
297.0
 45
210.0
 46
0.0
 47
0.0
 48
0.0
 49
0.0
140
0.0
141
0.0
142
1.0
143
1.0
 70
1024
 72
1
 73
0
 74
0
  7

 75
0
147
1.0
148
0.0
149
0.0
100
AcDbLayout
  1
Model
 70
0
 71
0
 10
0.0
 20
0.0
 11
297.0
 21
210.0
 12
0.0
 22
0.0
 32
0.0
 14
0.0
 24
0.0
 34
0.0
 15
0.0
 25
0.0
 35
0.0
146
0.0
 13
0.0
 23
0.0
 33
0.0
 16
1.0
 26
0.0
 36
0.0
 17
0.0
 27
1.0
 37
0.0
 76
0
330
214
345
0
346
0
  0
LAYOUT
  5
265
102
{ACAD_REACTORS
330
1A
102
}
100
AcDbPlotSettings
  1

  2
none_device
  4
ISO_A4_(297.00_x_210.00_MM)
  6

 40
0.0
 41
0.0
 42
0.0
 43
0.0
 44
297.0
 45
210.0
 46
0.0
 47
0.0
 48
0.0
 49
0.0
140
0.0
141
0.0
142
1.0
143
1.0
 70
0
 72
1
 73
0
 74
0
  7

 75
0
147
1.0
148
0.0
149
0.0
100
AcDbLayout
  1
Layout1
 70
0
 71
1
 10
0.0
 20
0.0
 11
297.0
 21
210.0
 12
0.0
 22
0.0
 32
0.0
 14
0.0
 24
0.0
 34
0.0
 15
0.0
 25
0.0
 35
0.0
146
0.0
 13
0.0
 23
0.0
 33
0.0
 16
1.0
 26
0.0
 36
0.0
 17
0.0
 27
1.0
 37
0.0
 76
0
330
215
345
0
346
0
  0
ENDSEC
  0
EOF
