  0
SECTION
  2
HEADER
  9
$ACADVER
  1
AC1015
  9
$DWGCODEPAGE
  3
ANSI_1252
  9
$EXTMAX
 10
297.0
 20
210.0
 30
0.0
  9
$EXTMIN
 10
0.0
 20
0.0
 30
0.0
  9
$LIMMIN
 10
0.0
 20
0.0
  9
$LIMMAX
 10
297.0
 20
210.0
  9
$VIEWCTR
 10
148.5
 20
105.0
  9
$VIEWSIZE
 40
210.0
  9
$CLAYER
  8
0
  9
$LTSCALE
 40
16.335
  9
$CELTYPE
  6
BYLAYER
  9
$DIMSCALE
 40
1.0
  9
$DIMASZ
 40
3.0
  9
$DIMEXO
 40
1.85625
  9
$DIMDLI
 40
11.286
  9
$DIMEXE
 40
5.346
  9
$DIMCEN
 40
2.673
  9
$DIMLFAC
 40
1.0
  9
$DIMBLK
  1
_FILLED
  9
$DIMTXT
 40
3.0
  9
$DIMTOL
 70
1
  9
$DIMLIM
 70
0
  9
$DIMTFAC
 40
1.0
  9
$DIMTP
 40
0.01
  9
$DIMTM
 40
0.01
  9
$PDMODE
 70
3
  9
$PDSIZE
 40
3.0
  9
$HANDSEED
  5
6A3
  9
$TILEMODE
 70
1
  9
$MEASUREMENT
 70
1
  9
$INSUNITS
 70
4
  0
ENDSEC
  0
SECTION
  2
CLASSES
  0
CLASS
  1
ACDBDICTIONARYWDFLT
  2
AcDbDictionaryWithDefault
  3
AutoCAD 2000
 90
0
280
0
281
0
  0
CLASS
  1
ACDBPLACEHOLDER
  2
AcDbPlaceHolder
  3
AutoCAD 2000
 90
0
280
0
281
0
  0
CLASS
  1
LAYOUT
  2
AcDbLayout
  3
AutoCAD 2000
 90
0
280
0
281
0
  0
ENDSEC
  0
SECTION
  2
TABLES
  0
TABLE
  2
VPORT
  5
8
100
AcDbSymbolTable
 70
2
  0
VPORT
  5
1F4
100
AcDbSymbolTableRecord
100
AcDbViewportTableRecord
  2
*ACTIVE
 70
0
 10
0.0
 20
0.0
 11
1.0
 21
1.0
 12
148.5
 22
105.0
 13
0.0
 23
0.0
 14
1.0
 24
1.0
 15
0.0
 25
0.0
 16
0.0
 26
0.0
 36
1.0
 17
0.0
 27
0.0
 37
0.0
 40
210.0
 41
1.4142857143
 42
50.0
 43
0.0
 44
0.0
 50
0.0
 51
0.0
 71
0
 72
100
 73
1
 74
1
 75
0
 76
0
 77
0
 78
0
  0
ENDTAB
  0
TABLE
  2
LTYPE
  5
5
100
AcDbSymbolTable
 70
6
  0
LTYPE
  5
14
100
AcDbSymbolTableRecord
100
AcDbLinetypeTableRecord
  2
BYBLOCK
 70
0
  3

 72
65
 73
0
 40
0.0
  0
LTYPE
  5
15
100
AcDbSymbolTableRecord
100
AcDbLinetypeTableRecord
  2
BYLAYER
 70
0
  3

 72
65
 73
0
 40
0.0
  0
LTYPE
  5
16
100
AcDbSymbolTableRecord
100
AcDbLinetypeTableRecord
  2
CONTINUOUS
 70
64
  3
Solid line
 72
65
 73
0
 40
0.0
  0
LTYPE
  5
1F5
100
AcDbSymbolTableRecord
100
AcDbLinetypeTableRecord
  2
CENTER
 70
64
  3
____ _ ____ _ ____ _ ____ _ ____ _ ____ _ ____
 72
65
 73
4
 40
0.6
 49
0.375
 74
0
 49
-0.075
 74
0
 49
0.075
 74
0
 49
-0.075
 74
0
  0
LTYPE
  5
1F6
100
AcDbSymbolTableRecord
100
AcDbLinetypeTableRecord
  2
HIDDEN
 70
64
  3
- - - - - - - - - - - - - - - - - - - -
 72
65
 73
2
 40
0.2
 49
0.1
 74
0
 49
-0.1
 74
0
  0
LTYPE
  5
1F7
100
AcDbSymbolTableRecord
100
AcDbLinetypeTableRecord
  2
PHANTOM
 70
64
  3
_____ _ _ _____ _ _ _____ _ _ _____
 72
65
 73
6
 40
0.8
 49
0.45
 74
0
 49
-0.05
 74
0
 49
0.1
 74
0
 49
-0.05
 74
0
 49
0.1
 74
0
 49
-0.05
 74
0
  0
LTYPE
  5
1F8
100
AcDbSymbolTableRecord
100
AcDbLinetypeTableRecord
  2
DOT
 70
64
  3
. . . . . . . . . . . . . . . . . . . .
 72
65
 73
2
 40
0.2
 49
0.1
 74
0
 49
-0.1
 74
0
  0
LTYPE
  5
1F9
100
AcDbSymbolTableRecord
100
AcDbLinetypeTableRecord
  2
DASHED
 70
64
  3
- - - - - - - - - - - - - - - - - - - -
 72
65
 73
2
 40
0.2
 49
0.1
 74
0
 49
-0.1
 74
0
  0
ENDTAB
  0
TABLE
  2
LAYER
  5
2
100
AcDbSymbolTable
 70
36
  0
LAYER
  5
10
100
AcDbSymbolTableRecord
100
AcDbLayerTableRecord
  2
0
 70
0
 62
7
  6
CONTINUOUS
370
-3
390
F
  0
LAYER
  5
1FA
100
AcDbSymbolTableRecord
100
AcDbLayerTableRecord
  2
DEFAULT_1
 70
0
 62
7
  6
CENTER
370
-3
390
F
  0
LAYER
  5
1FB
100
AcDbSymbolTableRecord
100
AcDbLayerTableRecord
  2
DEFAULT_2
 70
0
 62
7
  6
HIDDEN
370
-3
390
F
  0
LAYER
  5
1FC
100
AcDbSymbolTableRecord
100
AcDbLayerTableRecord
  2
DEFAULT_3
 70
0
 62
7
  6
PHANTOM
370
-3
390
F
  0
LAYER
  5
1FD
100
AcDbSymbolTableRecord
100
AcDbLayerTableRecord
  2
ASSI
 70
0
 62
7
  6
CONTINUOUS
370
-3
390
F
  0
LAYER
  5
1FE
100
AcDbSymbolTableRecord
100
AcDbLayerTableRecord
  2
COORDINATE
 70
0
 62
7
  6
CONTINUOUS
370
-3
390
F
  0
LAYER
  5
1FF
100
AcDbSymbolTableRecord
100
AcDbLayerTableRecord
  2
COORD_ORIGINE
 70
0
 62
7
  6
CONTINUOUS
370
-3
390
F
  0
LAYER
  5
200
100
AcDbSymbolTableRecord
100
AcDbLayerTableRecord
  2
COPY
 70
0
 62
7
  6
CONTINUOUS
370
-3
390
F
  0
LAYER
  5
201
100
AcDbSymbolTableRecord
100
AcDbLayerTableRecord
  2
COPY_PUBLISH
 70
0
 62
7
  6
CONTINUOUS
370
-3
390
F
  0
LAYER
  5
202
100
AcDbSymbolTableRecord
100
AcDbLayerTableRecord
  2
COSMETIC
 70
0
 62
7
  6
CONTINUOUS
370
-3
390
F
  0
LAYER
  5
203
100
AcDbSymbolTableRecord
100
AcDbLayerTableRecord
  2
COSMETICI
 70
0
 62
7
  6
CONTINUOUS
370
-3
390
F
  0
LAYER
  5
204
100
AcDbSymbolTableRecord
100
AcDbLayerTableRecord
  2
CURVE
 70
0
 62
7
  6
CONTINUOUS
370
-3
390
F
  0
LAYER
  5
205
100
AcDbSymbolTableRecord
100
AcDbLayerTableRecord
  2
DRAFT
 70
0
 62
7
  6
CONTINUOUS
370
-3
390
F
  0
LAYER
  5
206
100
AcDbSymbolTableRecord
100
AcDbLayerTableRecord
  2
IMPORT_IGES
 70
0
 62
7
  6
CONTINUOUS
370
-3
390
F
  0
LAYER
  5
207
100
AcDbSymbolTableRecord
100
AcDbLayerTableRecord
  2
INTFCLR_1
 70
0
 62
7
  6
CONTINUOUS
370
-3
390
F
  0
LAYER
  5
208
100
AcDbSymbolTableRecord
100
AcDbLayerTableRecord
  2
INTFCLR_2
 70
0
 62
7
  6
CONTINUOUS
370
-3
390
F
  0
LAYER
  5
209
100
AcDbSymbolTableRecord
100
AcDbLayerTableRecord
  2
INTFCLR_3
 70
0
 62
7
  6
CONTINUOUS
370
-3
390
F
  0
LAYER
  5
20A
100
AcDbSymbolTableRecord
100
AcDbLayerTableRecord
  2
INTFCLR_383
 70
0
 62
7
  6
CONTINUOUS
370
-3
390
F
  0
LAYER
  5
20B
100
AcDbSymbolTableRecord
100
AcDbLayerTableRecord
  2
INTF_1
 70
0
 62
7
  6
CONTINUOUS
370
-3
390
F
  0
LAYER
  5
20C
100
AcDbSymbolTableRecord
100
AcDbLayerTableRecord
  2
INTF_2
 70
0
 62
7
  6
CONTINUOUS
370
-3
390
F
  0
LAYER
  5
20D
100
AcDbSymbolTableRecord
100
AcDbLayerTableRecord
  2
INTF_5
 70
0
 62
7
  6
CONTINUOUS
370
-3
390
F
  0
LAYER
  5
20E
100
AcDbSymbolTableRecord
100
AcDbLayerTableRecord
  2
INTF_9
 70
0
 62
7
  6
CONTINUOUS
370
-3
390
F
  0
LAYER
  5
20F
100
AcDbSymbolTableRecord
100
AcDbLayerTableRecord
  2
NOTE
 70
0
 62
7
  6
CONTINUOUS
370
-3
390
F
  0
LAYER
  5
210
100
AcDbSymbolTableRecord
100
AcDbLayerTableRecord
  2
PIANI
 70
0
 62
7
  6
CONTINUOUS
370
-3
390
F
  0
LAYER
  5
211
100
AcDbSymbolTableRecord
100
AcDbLayerTableRecord
  2
PIANI_ORIGINE
 70
0
 62
7
  6
CONTINUOUS
370
-3
390
F
  0
LAYER
  5
212
100
AcDbSymbolTableRecord
100
AcDbLayerTableRecord
  2
PIANI_RIFERIMENTO
 70
0
 62
7
  6
CONTINUOUS
370
-3
390
F
  0
LAYER
  5
213
100
AcDbSymbolTableRecord
100
AcDbLayerTableRecord
  2
PIANI_SFORMO
 70
0
 62
7
  6
CONTINUOUS
370
-3
390
F
  0
LAYER
  5
214
100
AcDbSymbolTableRecord
100
AcDbLayerTableRecord
  2
PUNTI
 70
0
 62
7
  6
CONTINUOUS
370
-3
390
F
  0
LAYER
  5
215
100
AcDbSymbolTableRecord
100
AcDbLayerTableRecord
  2
RACCORDO
 70
0
 62
7
  6
CONTINUOUS
370
-3
390
F
  0
LAYER
  5
216
100
AcDbSymbolTableRecord
100
AcDbLayerTableRecord
  2
SIMBOLI
 70
0
 62
7
  6
CONTINUOUS
370
-3
390
F
  0
LAYER
  5
217
100
AcDbSymbolTableRecord
100
AcDbLayerTableRecord
  2
SMUSSO
 70
0
 62
7
  6
CONTINUOUS
370
-3
390
F
  0
LAYER
  5
218
100
AcDbSymbolTableRecord
100
AcDbLayerTableRecord
  2
SNAPLINE
 70
0
 62
7
  6
CONTINUOUS
370
-3
390
F
  0
LAYER
  5
219
100
AcDbSymbolTableRecord
100
AcDbLayerTableRecord
  2
SUPERFICI
 70
0
 62
7
  6
CONTINUOUS
370
-3
390
F
  0
LAYER
  5
21A
100
AcDbSymbolTableRecord
100
AcDbLayerTableRecord
  2
TRASH
 70
0
 62
7
  6
CONTINUOUS
370
-3
390
F
  0
LAYER
  5
21B
100
AcDbSymbolTableRecord
100
AcDbLayerTableRecord
  2
XSEC_DATUMS
 70
0
 62
7
  6
CONTINUOUS
370
-3
390
F
  0
ENDTAB
  0
TABLE
  2
STYLE
  5
3
100
AcDbSymbolTable
 70
1
  0
STYLE
  5
11
100
AcDbSymbolTableRecord
100
AcDbTextStyleTableRecord
  2
STANDARD
 70
0
 40
0.0
 41
0.8
 50
0.0
 71
0
 42
0.2
  3
txt
  4

  0
STYLE
  5
21C
100
AcDbSymbolTableRecord
100
AcDbTextStyleTableRecord
  2
TEXTSTYLE_1
 70
0
 40
0.0
 41
0.8
 50
0.0
 71
0
 42
0.2
  3
gdt
  4

  0
ENDTAB
  0
TABLE
  2
VIEW
  5
6
100
AcDbSymbolTable
 70
0
  0
ENDTAB
  0
TABLE
  2
UCS
  5
7
100
AcDbSymbolTable
 70
0
  0
ENDTAB
  0
TABLE
  2
APPID
  5
9
100
AcDbSymbolTable
 70
1
  0
APPID
  5
21D
100
AcDbSymbolTableRecord
100
AcDbRegAppTableRecord
  2
ACAD
 70
0
  0
ENDTAB
  0
TABLE
  2
BLOCK_RECORD
  5
1
100
AcDbSymbolTable
 70
0
  0
BLOCK_RECORD
  5
21E
100
AcDbSymbolTableRecord
100
AcDbBlockTableRecord
  2
*Model_Space
  0
BLOCK_RECORD
  5
21F
100
AcDbSymbolTableRecord
100
AcDbBlockTableRecord
  2
*Paper_Space
  0
ENDTAB
  0
TABLE
  2
DIMSTYLE
  5
A
100
AcDbSymbolTable
 70
1
100
AcDbDimStyleTable
 71
0
  0
DIMSTYLE
105
220
100
AcDbSymbolTableRecord
100
AcDbDimStyleTableRecord
  2
STANDARD
 70
0
  3

  4

 40
1.0
 41
3.0
 42
0.0625
 43
0.38
 44
0.18
 45
0.0
 46
0.0
 47
0.01
 48
0.01
140
3.0
141
0.09
142
0.0
143
25.4
144
1.0
145
0.0
146
1.0
147
0.09
 71
1.0
 72
0.0
 73
0
 74
0
 75
0
 76
0
 77
1
 78
8
170
0
171
2
172
0
173
0
174
0
175
0
176
0
177
0
178
0
270
2
271
2
272
2
273
2
274
2
275
0
280
0
281
0
282
0
283
1
284
8
285
0
286
0
287
3
288
0
340
11
  0
ENDTAB
  0
ENDSEC
  0
SECTION
  2
BLOCKS
  0
BLOCK
  5
20
100
AcDbEntity
  8
0
100
AcDbBlockBegin
  2
*Model_Space
 70
0
 10
0.0
 20
0.0
 30
0.0
  3
*Model_Space
  1

  0
ENDBLK
  5
21
100
AcDbEntity
  8
0
100
AcDbBlockEnd
  0
BLOCK
  5
1C
100
AcDbEntity
  8
0
100
AcDbBlockBegin
  2
*Paper_Space
 70
0
 10
0.0
 20
0.0
 30
0.0
  3
*Paper_Space
  1

  0
ENDBLK
  5
1D
100
AcDbEntity
  8
0
100
AcDbBlockEnd
  0
ENDSEC
  0
SECTION
  2
ENTITIES
  0
LWPOLYLINE
  5
221
100
AcDbEntity
  8
0
100
AcDbPolyline
 62
253
  6
CONTINUOUS
 90
7
 70
0
 10
-24.8579417534
 20
-21.5097026808
 10
-24.8954864265
 20
-21.4812388532
 10
-24.9267688445
 20
-21.4500703229
 10
-24.9513155876
 20
-21.416668786
 10
-24.9687551722
 20
-21.3815397326
 10
-24.9788236723
 20
-21.3452147958
 10
-24.9813365224
 20
-21.3212757517
  0
LWPOLYLINE
  5
222
100
AcDbEntity
  8
RACCORDO
100
AcDbPolyline
 62
253
  6
CONTINUOUS
 90
7
 70
0
 10
-24.8579417534
 20
-21.5097026809
 10
-24.8954864266
 20
-21.4812388532
 10
-24.9267688445
 20
-21.4500703229
 10
-24.9513155876
 20
-21.4166687861
 10
-24.9687551722
 20
-21.3815397326
 10
-24.9788236724
 20
-21.3452147958
 10
-24.9813365224
 20
-21.3212757517
  0
LINE
  5
223
100
AcDbEntity
  8
0
100
AcDbLine
 62
253
  6
CONTINUOUS
 10
-24.6997895132
 20
-21.9459158231
 11
-24.65664103
 21
-21.9852720856
  0
LINE
  5
224
100
AcDbEntity
  8
RACCORDO
100
AcDbLine
 62
253
  6
CONTINUOUS
 10
-24.6997895133
 20
-21.9459158231
 11
-24.6566410301
 21
-21.9852720856
  0
LWPOLYLINE
  5
225
100
AcDbEntity
  8
ASSI
100
AcDbPolyline
 62
7
  6
CONTINUOUS
 90
16
 70
0
 10
-5.2886111635
 20
-29.0833148361
 10
-5.2709282097
 20
-29.0883552602
 10
-5.2519421699
 20
-29.093670635
 10
-5.2317980379
 20
-29.0991782464
 10
-5.2106129654
 20
-29.1047786357
 10
-5.1885939521
 20
-29.110366554
 10
-5.166036503
 20
-29.1158235326
 10
-5.1430871237
 20
-29.1209662151
 10
-5.1199598611
 20
-29.125693844
 10
-5.0970467334
 20
-29.1299927317
 10
-5.0745084116
 20
-29.1336796373
 10
-5.0525055897
 20
-29.1366342418
 10
-5.0314064336
 20
-29.1389390377
 10
-5.0114123226
 20
-29.1405305233
 10
-4.9925615201
 20
-29.1411991614
 10
-4.9749512165
 20
-29.1408207472
  0
LWPOLYLINE
  5
226
100
AcDbEntity
  8
0
100
AcDbPolyline
 62
253
  6
CONTINUOUS
 90
13
 70
0
 10
-10.0162197353
 20
-30.0791439166
 10
-9.9674984741
 20
-30.1004885052
 10
-9.9145415526
 20
-30.1179579852
 10
-9.8581504318
 20
-30.13128797
 10
-9.7991785464
 20
-30.1402767209
 10
-9.738518389
 20
-30.1447882002
 10
-9.6770880029
 20
-30.1447541302
 10
-9.6158170882
 20
-30.1401750267
 10
-9.5556329315
 20
-30.1311201906
 10
-9.4974463721
 20
-30.1177266598
 10
-9.4421380174
 20
-30.1001971346
 10
-9.3905449153
 20
-30.0787969106
 10
-9.3434478865
 20
-30.053849863
  0
LWPOLYLINE
  5
227
100
AcDbEntity
  8
RACCORDO
100
AcDbPolyline
 62
253
  6
CONTINUOUS
 90
13
 70
0
 10
-10.0162197355
 20
-30.0791439168
 10
-9.9674984743
 20
-30.1004885054
 10
-9.9145415528
 20
-30.1179579854
 10
-9.858150432
 20
-30.1312879703
 10
-9.7991785465
 20
-30.1402767211
 10
-9.7385183891
 20
-30.1447882004
 10
-9.677088003
 20
-30.1447541304
 10
-9.6158170883
 20
-30.1401750269
 10
-9.5556329315
 20
-30.1311201908
 10
-9.4974463721
 20
-30.1177266599
 10
-9.4421380174
 20
-30.1001971347
 10
-9.3905449153
 20
-30.0787969106
 10
-9.3434478865
 20
-30.053849863
  0
LWPOLYLINE
  5
228
100
AcDbEntity
  8
0
100
AcDbPolyline
 62
7
  6
CONTINUOUS
 90
12
 70
0
 10
-9.7543745954
 20
-30.5942010509
 10
-9.6975909909
 20
-30.620133892
 10
-9.6343197783
 20
-30.642688455
 10
-9.5686468963
 20
-30.6597372526
 10
-9.5009581809
 20
-30.6710842278
 10
-9.4317236993
 20
-30.6765670723
 10
-9.3609102803
 20
-30.6760902513
 10
-9.2888480704
 20
-30.6695132697
 10
-9.2159173146
 20
-30.656721835
 10
-9.1419925517
 20
-30.6374814218
 10
-9.0671995145
 20
-30.6115598472
 10
-8.9852527866
 20
-30.5755815053
  0
LWPOLYLINE
  5
229
100
AcDbEntity
  8
RACCORDO
100
AcDbPolyline
 62
7
  6
CONTINUOUS
 90
12
 70
0
 10
-9.7543745954
 20
-30.5942010509
 10
-9.6975909908
 20
-30.620133892
 10
-9.6343197782
 20
-30.642688455
 10
-9.5686468963
 20
-30.6597372526
 10
-9.5009581809
 20
-30.6710842278
 10
-9.4317236992
 20
-30.6765670723
 10
-9.3609102803
 20
-30.6760902513
 10
-9.2888480703
 20
-30.6695132697
 10
-9.2159173145
 20
-30.656721835
 10
-9.1419925516
 20
-30.6374814218
 10
-9.0671995145
 20
-30.6115598472
 10
-8.9852527866
 20
-30.5755815053
  0
LINE
  5
22A
100
AcDbEntity
  8
0
100
AcDbLine
 62
7
  6
CONTINUOUS
 10
-9.7541261956
 20
-30.5943318672
 11
-9.7542851638
 21
-30.5942510984
  0
LINE
  5
22B
100
AcDbEntity
  8
RACCORDO
100
AcDbLine
 62
7
  6
CONTINUOUS
 10
-9.7541261956
 20
-30.5943318672
 11
-9.7542851638
 21
-30.5942510983
  0
LWPOLYLINE
  5
22C
100
AcDbEntity
  8
0
100
AcDbPolyline
 62
7
  6
CONTINUOUS
 90
3
 70
0
 10
-13.1834915656
 20
-28.8031609796
 10
-11.4366984477
 20
-29.7281164274
 10
-9.7541232346
 20
-30.5943333708
  0
LWPOLYLINE
  5
22D
100
AcDbEntity
  8
RACCORDO
100
AcDbPolyline
 62
7
  6
CONTINUOUS
 90
3
 70
0
 10
-13.183491573
 20
-28.8031609755
 10
-11.4366984521
 20
-29.7281164253
 10
-9.7541232346
 20
-30.5943333708
  0
LINE
  5
22E
100
AcDbEntity
  8
0
100
AcDbLine
 62
7
  6
CONTINUOUS
 10
-14.9060347136
 20
-27.864345342
 11
-13.1834915656
 21
-28.8031609796
  0
LINE
  5
22F
100
AcDbEntity
  8
RACCORDO
100
AcDbLine
 62
7
  6
CONTINUOUS
 10
-14.9060347187
 20
-27.8643453392
 11
-13.183491573
 21
-28.8031609755
  0
LWPOLYLINE
  5
230
100
AcDbEntity
  8
0
100
AcDbPolyline
 62
253
  6
CONTINUOUS
 90
11
 70
0
 10
-9.7542851638
 20
-30.5942510984
 10
-9.7751794585
 20
-30.5828109401
 10
-9.8214117851
 20
-30.5509475658
 10
-9.8633374788
 20
-30.5122973259
 10
-9.9006424116
 20
-30.4671408481
 10
-9.9330852377
 20
-30.4157847153
 10
-9.960473142
 20
-30.3585630876
 10
-9.9826072648
 20
-30.2958569537
 10
-9.9993369402
 20
-30.2280801801
 10
-10.010564973
 20
-30.1556818703
 10
-10.016219767
 20
-30.079143917
  0
LWPOLYLINE
  5
231
100
AcDbEntity
  8
RACCORDO
100
AcDbPolyline
 62
253
  6
CONTINUOUS
 90
11
 70
0
 10
-9.7542851638
 20
-30.5942510983
 10
-9.7751794585
 20
-30.5828109401
 10
-9.821411785
 20
-30.5509475658
 10
-9.8633374787
 20
-30.5122973259
 10
-9.9006424116
 20
-30.4671408481
 10
-9.9330852377
 20
-30.4157847152
 10
-9.960473142
 20
-30.3585630875
 10
-9.9826072648
 20
-30.2958569537
 10
-9.9993369401
 20
-30.2280801803
 10
-10.0105649729
 20
-30.1556818708
 10
-10.016219767
 20
-30.079143918
  0
LWPOLYLINE
  5
232
100
AcDbEntity
  8
ASSI
100
AcDbPolyline
 62
7
  6
CONTINUOUS
 90
10
 70
0
 10
-5.9580597349
 20
-30.4920830319
 10
-5.9525670621
 20
-30.4951458311
 10
-5.9275352351
 20
-30.5066509169
 10
-5.9010169178
 20
-30.5149613341
 10
-5.8734824307
 20
-30.5198647065
 10
-5.8454579765
 20
-30.5212451234
 10
-5.8170528826
 20
-30.5190404667
 10
-5.7886061004
 20
-30.5131482301
 10
-5.7607678591
 20
-30.50360953
 10
-5.7387629841
 20
-30.4931780409
  0
LWPOLYLINE
  5
233
100
AcDbEntity
  8
0
100
AcDbPolyline
 62
7
  6
CONTINUOUS
 90
3
 70
0
 10
-18.2767456665
 20
-25.9459583299
 10
-16.6039196674
 20
-26.9118752932
 10
-14.9060347187
 20
-27.8643453392
  0
LWPOLYLINE
  5
234
100
AcDbEntity
  8
RACCORDO
100
AcDbPolyline
 62
7
  6
CONTINUOUS
 90
3
 70
0
 10
-18.2767456757
 20
-25.9459583244
 10
-16.6039196771
 20
-26.9118752878
 10
-14.9060347228
 20
-27.8643453369
  0
LINE
  5
235
100
AcDbEntity
  8
0
100
AcDbLine
 62
7
  6
CONTINUOUS
 10
-19.9241275371
 20
-24.9668088543
 11
-18.2767456665
 21
-25.9459583299
  0
LINE
  5
236
100
AcDbEntity
  8
RACCORDO
100
AcDbLine
 62
7
  6
CONTINUOUS
 10
-19.9241275454
 20
-24.9668088493
 11
-18.2767456757
 21
-25.9459583244
  0
LINE
  5
237
100
AcDbEntity
  8
0
100
AcDbLine
 62
7
  6
CONTINUOUS
 10
-21.5456935299
 20
-23.9746495425
 11
-19.9241275371
 21
-24.9668088543
  0
LINE
  5
238
100
AcDbEntity
  8
0
100
AcDbLine
 62
7
  6
CONTINUOUS
 10
-23.1410739399
 20
-22.9697080464
 11
-21.5456935299
 21
-23.9746495425
  0
LWPOLYLINE
  5
239
100
AcDbEntity
  8
RACCORDO
100
AcDbPolyline
 62
7
  6
CONTINUOUS
 90
3
 70
0
 10
-23.1410739434
 20
-22.969708044
 10
-21.5456935362
 20
-23.9746495387
 10
-19.9241275454
 20
-24.9668088493
  0
LINE
  5
23A
100
AcDbEntity
  8
0
100
AcDbLine
 62
7
  6
CONTINUOUS
 10
-24.6265450463
 20
-22.0070398999
 11
-23.1410739399
 21
-22.9697080464
  0
LINE
  5
23B
100
AcDbEntity
  8
RACCORDO
100
AcDbLine
 62
7
  6
CONTINUOUS
 10
-24.6265450464
 20
-22.0070398999
 11
-23.1410739434
 21
-22.969708044
  0
LINE
  5
23C
100
AcDbEntity
  8
0
100
AcDbLine
 62
7
  6
CONTINUOUS
 10
-24.6265483706
 20
-22.0070377156
 11
-24.6263363178
 21
-22.0071769616
  0
LINE
  5
23D
100
AcDbEntity
  8
RACCORDO
100
AcDbLine
 62
7
  6
CONTINUOUS
 10
-24.6265483706
 20
-22.0070377156
 11
-24.6263363178
 21
-22.0071769616
  0
LWPOLYLINE
  5
23E
100
AcDbEntity
  8
0
100
AcDbPolyline
 62
253
  6
CONTINUOUS
 90
31
 70
0
 10
-24.8579567786
 20
-21.5097109355
 10
-24.4086616997
 20
-21.8047450334
 10
-23.9573194116
 20
-22.0985638166
 10
-23.5039411548
 20
-22.3911628464
 10
-23.0486193998
 20
-22.682485908
 10
-22.5912849546
 20
-22.9725808279
 10
-22.1317032181
 20
-23.2615975062
 10
-21.6697773909
 20
-23.5495950446
 10
-21.2056195967
 20
-23.8365018157
 10
-20.7393062886
 20
-24.1222704021
 10
-20.2708812086
 20
-24.4068744787
 10
-19.8003193254
 20
-24.6903296412
 10
-19.327594436
 20
-24.9726516204
 10
-18.8525994575
 20
-25.2539031091
 10
-18.3754580025
 20
-25.5340094626
 10
-17.8964936392
 20
-25.812782531
 10
-17.4160119093
 20
-26.0900509492
 10
-16.9337360414
 20
-26.3659812356
 10
-16.4491130831
 20
-26.6408902785
 10
-15.9632139233
 20
-26.91417387
 10
-15.4749890421
 20
-27.1864272433
 10
-14.9806499848
 20
-27.459733575
 10
-14.4809872773
 20
-27.7336006853
 10
-13.9751348302
 20
-28.0084521292
 10
-13.4566921117
 20
-28.2876662554
 10
-12.9250545359
 20
-28.5714084618
 10
-12.3805773424
 20
-28.8593314134
 10
-11.818153858
 20
-29.1539509547
 10
-11.2359239273
 20
-29.4559933734
 10
-10.6353454362
 20
-29.7644405548
 10
-10.0162197391
 20
-30.0791438881
  0
LWPOLYLINE
  5
23F
100
AcDbEntity
  8
RACCORDO
100
AcDbPolyline
 62
253
  6
CONTINUOUS
 90
31
 70
0
 10
-24.8579567786
 20
-21.5097109365
 10
-24.4086701577
 20
-21.8047395035
 10
-23.957335576
 20
-22.0985533391
 10
-23.503964261
 20
-22.3911479986
 10
-23.0486483111
 20
-22.6824674899
 10
-22.5913188776
 20
-22.9725594028
 10
-22.1317424356
 20
-23.2615729497
 10
-21.6698226528
 20
-23.5495669463
 10
-21.2056711964
 20
-23.8364700576
 10
-20.7393642213
 20
-24.1222350519
 10
-20.2709453401
 20
-24.4068356811
 10
-19.8003896473
 20
-24.6902874626
 10
-19.3276710206
 20
-24.9726060784
 10
-18.8526823462
 20
-25.2538542398
 10
-18.3755472674
 20
-25.5339572842
 10
-17.8965895292
 20
-25.8127269587
 10
-17.4161151354
 20
-26.0899916355
 10
-16.9338468609
 20
-26.3659181015
 10
-16.4492305437
 20
-26.6408239321
 10
-15.9633374097
 20
-26.9141047135
 10
-15.4751175782
 20
-27.1863558715
 10
-14.9807802942
 20
-27.4596618408
 10
-14.481115351
 20
-27.7335307917
 10
-13.9752573023
 20
-28.0083858747
 10
-13.4568053454
 20
-28.2876055444
 10
-12.9251539788
 20
-28.5713556304
 10
-12.3806592534
 20
-28.8592882994
 10
-11.818216839
 20
-29.1539181209
 10
-11.2359673588
 20
-29.4559709552
 10
-10.6353678818
 20
-29.7644290871
 10
-10.0162197391
 20
-30.0791438891
  0
LINE
  5
240
100
AcDbEntity
  8
CURVE
100
AcDbLine
 62
253
  6
CONTINUOUS
 10
-23.3479746911
 20
-18.7692064267
 11
-23.3633634925
 21
-18.7549381455
  0
LINE
  5
241
100
AcDbEntity
  8
CURVE
100
AcDbLine
 62
253
  6
CONTINUOUS
 10
-23.3633634925
 20
-18.7549381455
 11
-23.3781235663
 21
-18.7382927378
  0
LINE
  5
242
100
AcDbEntity
  8
CURVE
100
AcDbLine
 62
253
  6
CONTINUOUS
 10
-23.3781235663
 20
-18.7382927378
 11
-23.3919030471
 21
-18.7196410092
  0
LINE
  5
243
100
AcDbEntity
  8
CURVE
100
AcDbLine
 62
253
  6
CONTINUOUS
 10
-23.3919030471
 20
-18.7196410092
 11
-23.3961051079
 21
-18.7132278945
  0
LINE
  5
244
100
AcDbEntity
  8
CURVE
100
AcDbLine
 62
253
  6
CONTINUOUS
 10
-23.3961051079
 20
-18.7132278945
 11
-23.407958753
 21
-18.692763362
  0
LINE
  5
245
100
AcDbEntity
  8
ASSI
100
AcDbLine
 62
253
  6
CONTINUOUS
 10
-3.5316331599
 20
-28.7970122878
 11
-4.0725004658
 21
-28.7534259438
  0
LINE
  5
246
100
AcDbEntity
  8
ASSI
100
AcDbLine
 62
253
  6
CONTINUOUS
 10
-3.6047904419
 20
-28.5345506209
 11
-4.0725004507
 21
-28.4968597323
  0
LWPOLYLINE
  5
247
100
AcDbEntity
  8
ASSI
100
AcDbPolyline
 62
253
  6
CONTINUOUS
 90
6
 70
0
 10
-3.5688094652
 20
-28.54548785
 10
-3.5749585408
 20
-28.5423270425
 10
-3.581712711
 20
-28.5395533524
 10
-3.588938686
 20
-28.5372975092
 10
-3.5966317219
 20
-28.5356130487
 10
-3.6047904419
 20
-28.5345506209
  0
LINE
  5
248
100
AcDbEntity
  8
CURVE
100
AcDbLine
 62
253
  6
CONTINUOUS
 10
-20.8064858585
 20
-20.3712700452
 11
-20.8225455683
 21
-20.3628501789
  0
LINE
  5
249
100
AcDbEntity
  8
ASSI
100
AcDbLine
 62
7
  6
CONTINUOUS
 10
-7.2678114618
 20
-29.7358494425
 11
-5.958145363
 21
-30.4920342339
  0
LINE
  5
24A
100
AcDbEntity
  8
ASSI
100
AcDbLine
 62
253
  6
CONTINUOUS
 10
-7.1885284902
 20
-29.6970839488
 11
-6.0100982854
 21
-30.3774947799
  0
LINE
  5
24B
100
AcDbEntity
  8
ASSI
100
AcDbLine
 62
253
  6
CONTINUOUS
 10
-6.9080225842
 20
-29.5599302864
 11
-6.0100982854
 21
-30.0783805228
  0
LINE
  5
24C
100
AcDbEntity
  8
ASSI
100
AcDbLine
 62
253
  6
CONTINUOUS
 10
-5.9213997505
 20
-29.8507513922
 11
-6.6465297722
 21
-29.4320730966
  0
LINE
  5
24D
100
AcDbEntity
  8
ASSI
100
AcDbLine
 62
7
  6
CONTINUOUS
 10
-5.3253925044
 20
-29.0679352052
 11
-5.5907368975
 21
-28.9147286781
  0
LWPOLYLINE
  5
24E
100
AcDbEntity
  8
CURVE
100
AcDbPolyline
 62
253
  6
CONTINUOUS
 90
7
 70
0
 10
-20.8225390609
 20
-20.3630378917
 10
-21.2503239295
 20
-20.0992292624
 10
-21.676061561
 20
-19.8343126018
 10
-22.0997432006
 20
-19.5682932695
 10
-22.5213600931
 20
-19.3011766249
 10
-22.9409034835
 20
-19.0329680278
 10
-23.3322709091
 20
-18.7805767507
  0
LWPOLYLINE
  5
24F
100
AcDbEntity
  8
CURVE
100
AcDbPolyline
 62
253
  6
CONTINUOUS
 90
6
 70
0
 10
-22.6160474862
 20
-19.0054650803
 10
-22.282130191
 20
-19.2177221995
 10
-21.946903458
 20
-19.4292863051
 10
-21.6103717063
 20
-19.6401546911
 10
-21.2725393549
 20
-19.8503246515
 10
-20.9334108229
 20
-20.0597934805
  0
LINE
  5
250
100
AcDbEntity
  8
CURVE
100
AcDbLine
 62
253
  6
CONTINUOUS
 10
-22.9659550963
 20
-18.7813967517
 11
-22.6160474862
 21
-19.0054650803
  0
LINE
  5
251
100
AcDbEntity
  8
CURVE
100
AcDbLine
 62
253
  6
CONTINUOUS
 10
-20.8849854399
 20
-18.4040502909
 11
-20.8687836921
 21
-18.4154960736
  0
LINE
  5
252
100
AcDbEntity
  8
CURVE
100
AcDbLine
 62
253
  6
CONTINUOUS
 10
-23.3322630251
 20
-18.7808231998
 11
-23.3479746911
 21
-18.7692064267
  0
LINE
  5
253
100
AcDbEntity
  8
CURVE
100
AcDbLine
 62
253
  6
CONTINUOUS
 10
-20.8687836921
 20
-18.4154960736
 11
-20.8640946802
 21
-18.4193630545
  0
LINE
  5
254
100
AcDbEntity
  8
CURVE
100
AcDbLine
 62
253
  6
CONTINUOUS
 10
-20.8640946802
 20
-18.4193630545
 11
-20.8482508757
 21
-18.4343500817
  0
LINE
  5
255
100
AcDbEntity
  8
CURVE
100
AcDbLine
 62
253
  6
CONTINUOUS
 10
-20.8482508757
 20
-18.4343500817
 11
-20.8330856422
 21
-18.4517237543
  0
LINE
  5
256
100
AcDbEntity
  8
CURVE
100
AcDbLine
 62
253
  6
CONTINUOUS
 10
-19.0720788862
 20
-20.6854434765
 11
-18.8864441099
 21
-20.9128765265
  0
LINE
  5
257
100
AcDbEntity
  8
CURVE
100
AcDbLine
 62
253
  6
CONTINUOUS
 10
-18.9842633232
 20
-21.0589989366
 11
-19.1697739588
 21
-20.8314942093
  0
LWPOLYLINE
  5
258
100
AcDbEntity
  8
CURVE
100
AcDbPolyline
 62
253
  6
CONTINUOUS
 90
3
 70
0
 10
-20.1890127086
 20
-19.5684466768
 10
-20.3110262142
 20
-19.415717927
 10
-20.3718820885
 20
-19.3394169216
  0
LINE
  5
259
100
AcDbEntity
  8
CURVE
100
AcDbLine
 62
253
  6
CONTINUOUS
 10
-20.2749915128
 20
-19.1938306952
 11
-20.0919995321
 21
-19.4227896622
  0
LWPOLYLINE
  5
25A
100
AcDbEntity
  8
CURVE
100
AcDbPolyline
 62
253
  6
CONTINUOUS
 90
78
 70
0
 10
-18.8864441099
 20
-20.9128765265
 10
-18.882680592
 20
-20.9175933772
 10
-18.8790077952
 20
-20.9224239583
 10
-18.875431059
 20
-20.9273593249
 10
-18.8719557227
 20
-20.9323905319
 10
-18.8685871258
 20
-20.9375086341
 10
-18.8653306078
 20
-20.9427046866
 10
-18.862191508
 20
-20.9479697443
 10
-18.8591751658
 20
-20.9532948621
 10
-18.8562869208
 20
-20.958671095
 10
-18.8535321123
 20
-20.9640894979
 10
-18.8509160798
 20
-20.9695411257
 10
-18.848443705
 20
-20.9750170766
 10
-18.8461180395
 20
-20.9805086213
 10
-18.8439416771
 20
-20.9860070734
 10
-18.8419172116
 20
-20.9915037469
 10
-18.840047237
 20
-20.9969899555
 10
-18.8383343471
 20
-21.0024570131
 10
-18.8367811358
 20
-21.0078962334
 10
-18.8353901969
 20
-21.0132989303
 10
-18.8341641242
 20
-21.0186564175
 10
-18.8331055118
 20
-21.023960009
 10
-18.8322169533
 20
-21.0292010184
 10
-18.8315006361
 20
-21.0343708974
 10
-18.8309571207
 20
-21.0394616485
 10
-18.8305865611
 20
-21.0444654119
 10
-18.8303891112
 20
-21.049374328
 10
-18.830364925
 20
-21.054180537
 10
-18.8305141565
 20
-21.0588761792
 10
-18.8308369595
 20
-21.063453395
 10
-18.8313334881
 20
-21.0679043245
 10
-18.8320038962
 20
-21.072221108
 10
-18.8328483377
 20
-21.0763958859
 10
-18.8338669666
 20
-21.0804207985
 10
-18.8350592878
 20
-21.0842883716
 10
-18.8364222101
 20
-21.0879926744
 10
-18.8379519932
 20
-21.0915281615
 10
-18.8396448968
 20
-21.0948892875
 10
-18.8414971808
 20
-21.0980705072
 10
-18.8435051048
 20
-21.1010662752
 10
-18.8456649286
 20
-21.1038710463
 10
-18.8479729119
 20
-21.106479275
 10
-18.8504253144
 20
-21.1088854162
 10
-18.853018396
 20
-21.1110839245
 10
-18.8557484163
 20
-21.1130692545
 10
-18.8586112916
 20
-21.1148366931
 10
-18.8616015642
 20
-21.1163848557
 10
-18.864713433
 20
-21.1177131899
 10
-18.8679410969
 20
-21.1188211431
 10
-18.8712787546
 20
-21.1197081628
 10
-18.8747206052
 20
-21.1203736967
 10
-18.8782608474
 20
-21.1208171922
 10
-18.88189368
 20
-21.1210380969
 10
-18.885613302
 20
-21.1210358583
 10
-18.8894139122
 20
-21.120809924
 10
-18.8932897094
 20
-21.1203597414
 10
-18.897234755
 20
-21.1196852822
 10
-18.9012425597
 20
-21.118788614
 10
-18.9053064967
 20
-21.1176723287
 10
-18.9094199393
 20
-21.116339018
 10
-18.9135762607
 20
-21.1147912737
 10
-18.9177688341
 20
-21.1130316877
 10
-18.9219910327
 20
-21.1110628516
 10
-18.9262362297
 20
-21.1088873572
 10
-18.9304977984
 20
-21.1065077964
 10
-18.934769112
 20
-21.1039267608
 10
-18.9390435436
 20
-21.1011468424
 10
-18.9433143843
 20
-21.0981712461
 10
-18.9475745958
 20
-21.0950056298
 10
-18.9518170579
 20
-21.0916562648
 10
-18.95603465
 20
-21.0881294223
 10
-18.9602202518
 20
-21.0844313735
 10
-18.9643667429
 20
-21.0805683897
 10
-18.9684670029
 20
-21.0765467419
 10
-18.9725139113
 20
-21.0723727016
 10
-18.9765003478
 20
-21.0680525397
 10
-18.9804191919
 20
-21.0635925277
 10
-18.9842633232
 20
-21.0589989366
  0
LWPOLYLINE
  5
25B
100
AcDbEntity
  8
CURVE
100
AcDbPolyline
 62
253
  6
CONTINUOUS
 90
78
 70
0
 10
-19.1697739588
 20
-20.8314942093
 10
-19.1735267837
 20
-20.8267712041
 10
-19.1771888765
 20
-20.8219344655
 10
-19.1807549307
 20
-20.8169929597
 10
-19.1842196401
 20
-20.8119556531
 10
-19.1875776982
 20
-20.8068315118
 10
-19.1908237986
 20
-20.8016295021
 10
-19.1939526349
 20
-20.7963585902
 10
-19.1969589008
 20
-20.7910277424
 10
-19.1998372898
 20
-20.7856459249
 10
-19.2025824955
 20
-20.780222104
 10
-19.2051892115
 20
-20.7747652459
 10
-19.2076525877
 20
-20.7692842717
 10
-19.2099695985
 20
-20.7637879221
 10
-19.2121376746
 20
-20.7582848926
 10
-19.2141542466
 20
-20.7527838788
 10
-19.2160167453
 20
-20.7472935763
 10
-19.2177226013
 20
-20.7418226805
 10
-19.2192692452
 20
-20.7363798871
 10
-19.2206541077
 20
-20.7309738915
 10
-19.2218746196
 20
-20.7256133893
 10
-19.2229282114
 20
-20.7203070761
 10
-19.2238123138
 20
-20.7150636474
 10
-19.2245247602
 20
-20.7098916595
 10
-19.2250649945
 20
-20.7047991121
 10
-19.2254328635
 20
-20.6997938655
 10
-19.2256282136
 20
-20.6948837802
 10
-19.2256508917
 20
-20.6900767165
 10
-19.2255007442
 20
-20.6853805349
 10
-19.225177618
 20
-20.6808030957
 10
-19.2246813596
 20
-20.6763522594
 10
-19.2240118156
 20
-20.6720358864
 10
-19.2231688328
 20
-20.667861837
 10
-19.2221522577
 20
-20.6638379717
 10
-19.2209625819
 20
-20.6599717631
 10
-19.2196028761
 20
-20.6562691324
 10
-19.2180768559
 20
-20.6527356134
 10
-19.2163882371
 20
-20.6493767393
 10
-19.2145407353
 20
-20.6461980439
 10
-19.212538066
 20
-20.6432050607
 10
-19.210383945
 20
-20.6404033231
 10
-19.2080820878
 20
-20.6377983647
 10
-19.2056362101
 20
-20.635395719
 10
-19.2030500276
 20
-20.6332009197
 10
-19.2003272558
 20
-20.6312195001
 10
-19.1974719528
 20
-20.6294561615
 10
-19.1944895462
 20
-20.6279122752
 10
-19.1913858058
 20
-20.6265883803
 10
-19.1881665016
 20
-20.6254850156
 10
-19.1848374036
 20
-20.6246027202
 10
-19.1814042817
 20
-20.6239420332
 10
-19.1778729058
 20
-20.6235034934
 10
-19.1742490458
 20
-20.6232876399
 10
-19.1705384717
 20
-20.6232950116
 10
-19.1667469535
 20
-20.6235261476
 10
-19.162880261
 20
-20.6239815868
 10
-19.1589443046
 20
-20.6246613439
 10
-19.1549455565
 20
-20.625563336
 10
-19.1508906294
 20
-20.626684956
 10
-19.1467861359
 20
-20.6280235967
 10
-19.1426386886
 20
-20.6295766509
 10
-19.1384549002
 20
-20.6313415116
 10
-19.1342413832
 20
-20.6333155713
 10
-19.1300047504
 20
-20.6354962232
 10
-19.1257516144
 20
-20.6378808598
 10
-19.1214885878
 20
-20.6404668742
 10
-19.1172222832
 20
-20.643251659
 10
-19.1129593967
 20
-20.6462319956
 10
-19.1087069583
 20
-20.6494022188
 10
-19.1044720814
 20
-20.6527560521
 10
-19.1002618793
 20
-20.6562872186
 10
-19.0960834655
 20
-20.6599894418
 10
-19.0919439533
 20
-20.6638564449
 10
-19.0878504562
 20
-20.6678819514
 10
-19.0838100876
 20
-20.6720596844
 10
-19.0798299607
 20
-20.6763833674
 10
-19.0759171892
 20
-20.6808467237
 10
-19.0720788862
 20
-20.6854434765
  0
LWPOLYLINE
  5
25C
100
AcDbEntity
  8
CURVE
100
AcDbPolyline
 62
253
  6
CONTINUOUS
 90
78
 70
0
 10
-20.0919995321
 20
-19.4227896622
 10
-20.0882899753
 20
-19.4275370095
 10
-20.0846703178
 20
-19.4323976076
 10
-20.0811458176
 20
-19.4373624607
 10
-20.0777217329
 20
-19.442422573
 10
-20.0744033218
 20
-19.4475689488
 10
-20.0711958425
 20
-19.4527925922
 10
-20.0681045531
 20
-19.4580845074
 10
-20.0651347117
 20
-19.4634356987
 10
-20.0622915766
 20
-19.4688371703
 10
-20.0595804058
 20
-19.4742799263
 10
-20.0570064575
 20
-19.479754971
 10
-20.054574537
 20
-19.4852533579
 10
-20.0522876384
 20
-19.4907663373
 10
-20.0501483031
 20
-19.4962852091
 10
-20.0481590723
 20
-19.5018012728
 10
-20.0463224873
 20
-19.5073058281
 10
-20.0446410895
 20
-19.5127901748
 10
-20.0431174201
 20
-19.5182456124
 10
-20.0417540204
 20
-19.5236634408
 10
-20.0405534317
 20
-19.5290349596
 10
-20.0395181953
 20
-19.5343514685
 10
-20.0386508526
 20
-19.5396042671
 10
-20.0379535449
 20
-19.5447847936
 10
-20.0374268142
 20
-19.5498850393
 10
-20.0370708023
 20
-19.5548971342
 10
-20.0368856515
 20
-19.5598132079
 10
-20.0368715036
 20
-19.5646253905
 10
-20.0370285007
 20
-19.5693258116
 10
-20.0373567847
 20
-19.5739066011
 10
-20.0378564978
 20
-19.5783598889
 10
-20.0385277819
 20
-19.5826778047
 10
-20.039370779
 20
-19.5868524784
 10
-20.0403856311
 20
-19.5908760398
 10
-20.0415718397
 20
-19.594741008
 10
-20.0429263436
 20
-19.5984414594
 10
-20.0444454412
 20
-19.6019718594
 10
-20.0461254308
 20
-19.6053266738
 10
-20.0479626107
 20
-19.608500368
 10
-20.0499532793
 20
-19.6114874076
 10
-20.0520937347
 20
-19.6142822582
 10
-20.0543802755
 20
-19.6168793854
 10
-20.0568091998
 20
-19.6192732548
 10
-20.059376806
 20
-19.621458332
 10
-20.0620793924
 20
-19.6234290824
 10
-20.0649129183
 20
-19.6251808064
 10
-20.0678719874
 20
-19.626712142
 10
-20.0709508643
 20
-19.6280225621
 10
-20.0741438136
 20
-19.6291115394
 10
-20.0774450999
 20
-19.6299785468
 10
-20.0808489878
 20
-19.630623057
 10
-20.084349742
 20
-19.6310445429
 10
-20.0879416271
 20
-19.6312424771
 10
-20.0916189077
 20
-19.6312163326
 10
-20.0953758485
 20
-19.6309655819
 10
-20.099206714
 20
-19.6304896981
 10
-20.1031056312
 20
-19.629788683
 10
-20.1070661765
 20
-19.6288646554
 10
-20.1110817886
 20
-19.6277202635
 10
-20.1151459062
 20
-19.6263581551
 10
-20.119251968
 20
-19.6247809783
 10
-20.1233934127
 20
-19.6229913812
 10
-20.127563679
 20
-19.6209920118
 10
-20.1317562056
 20
-19.618785518
 10
-20.1359644312
 20
-19.616374548
 10
-20.1401817946
 20
-19.6137617497
 10
-20.1444017343
 20
-19.6109497711
 10
-20.1486176127
 20
-19.6079418743
 10
-20.1528224856
 20
-19.6047437773
 10
-20.1570093326
 20
-19.6013618121
 10
-20.161171133
 20
-19.5978023108
 10
-20.1653008665
 20
-19.5940716052
 10
-20.1693915123
 20
-19.5901760275
 10
-20.17343605
 20
-19.5861219096
 10
-20.177427459
 20
-19.5819155836
 10
-20.1813587188
 20
-19.5775633814
 10
-20.1852228089
 20
-19.5730716352
 10
-20.1890127086
 20
-19.5684466768
  0
LWPOLYLINE
  5
25D
100
AcDbEntity
  8
CURVE
100
AcDbPolyline
 62
253
  6
CONTINUOUS
 90
78
 70
0
 10
-20.3718820885
 20
-19.3394169216
 10
-20.3755807615
 20
-19.3346631114
 10
-20.3791894826
 20
-19.3297960468
 10
-20.3827030293
 20
-19.3248247461
 10
-20.3861161789
 20
-19.3197582272
 10
-20.3894237088
 20
-19.3146055084
 10
-20.3926203964
 20
-19.3093756077
 10
-20.3957010192
 20
-19.3040775432
 10
-20.3986603544
 20
-19.2987203331
 10
-20.4014931796
 20
-19.2933129955
 10
-20.404194272
 20
-19.2878645485
 10
-20.4067584092
 20
-19.2823840102
 10
-20.4091808199
 20
-19.2768803473
 10
-20.4114585392
 20
-19.2713623201
 10
-20.4135890533
 20
-19.2658386378
 10
-20.4155698488
 20
-19.2603180092
 10
-20.4173984119
 20
-19.2548091435
 10
-20.4190722292
 20
-19.2493207495
 10
-20.420588787
 20
-19.2438615363
 10
-20.4219455717
 20
-19.2384402129
 10
-20.4231400697
 20
-19.2330654883
 10
-20.4241697675
 20
-19.2277460714
 10
-20.4250321514
 20
-19.2224906712
 10
-20.4257251034
 20
-19.2173078572
 10
-20.4262480883
 20
-19.2122056402
 10
-20.4266009663
 20
-19.2071918916
 10
-20.4267835976
 20
-19.2022744826
 10
-20.4267958426
 20
-19.1974612847
 10
-20.4266375615
 20
-19.192760169
 10
-20.4263086146
 20
-19.188179007
 10
-20.4258088621
 20
-19.1837256699
 10
-20.4251381645
 20
-19.1794080291
 10
-20.4242963818
 20
-19.1752339559
 10
-20.4232833745
 20
-19.1712113216
 10
-20.4220996388
 20
-19.1673476061
 10
-20.4207482149
 20
-19.1636487241
 10
-20.4192327791
 20
-19.1601201988
 10
-20.4175570076
 20
-19.1567675534
 10
-20.4157245766
 20
-19.1535963112
 10
-20.4137391625
 20
-19.1506119954
 10
-20.4116044413
 20
-19.1478201293
 10
-20.4093240894
 20
-19.145226236
 10
-20.4069017831
 20
-19.142835839
 10
-20.4043411984
 20
-19.1406544612
 10
-20.4016460117
 20
-19.1386876262
 10
-20.3988202371
 20
-19.136940022
 10
-20.39586924
 20
-19.1354129975
 10
-20.3927987235
 20
-19.1341070663
 10
-20.3896143909
 20
-19.1330227421
 10
-20.3863219455
 20
-19.1321605386
 10
-20.3829270904
 20
-19.1315209697
 10
-20.379435529
 20
-19.1311045489
 10
-20.3758529643
 20
-19.1309117901
 10
-20.3721850998
 20
-19.1309432069
 10
-20.3684376386
 20
-19.131199313
 10
-20.3646162839
 20
-19.1316806223
 10
-20.3607268792
 20
-19.1323871187
 10
-20.3567758287
 20
-19.1333166676
 10
-20.3527696769
 20
-19.1344666046
 10
-20.3487149683
 20
-19.1358342653
 10
-20.3446182474
 20
-19.1374169854
 10
-20.3404860586
 20
-19.1392121007
 10
-20.3363249465
 20
-19.1412169466
 10
-20.3321414554
 20
-19.1434288589
 10
-20.3279421299
 20
-19.1458451731
 10
-20.3237335144
 20
-19.1484632251
 10
-20.3195221534
 20
-19.1512803503
 10
-20.3153146694
 20
-19.1542932723
 10
-20.3111179969
 20
-19.1574962656
 10
-20.3069391482
 20
-19.1608829924
 10
-20.3027851358
 20
-19.1644471152
 10
-20.2986629723
 20
-19.1681822962
 10
-20.29457967
 20
-19.1720821978
 10
-20.2905422413
 20
-19.1761404822
 10
-20.2865576988
 20
-19.1803508118
 10
-20.2826330549
 20
-19.184706849
 10
-20.2787753221
 20
-19.189202256
 10
-20.2749915128
 20
-19.1938306952
  0
LINE
  5
25E
100
AcDbEntity
  8
CURVE
100
AcDbLine
 62
253
  6
CONTINUOUS
 10
-20.8330856422
 20
-18.4517237543
 11
-20.8195217578
 21
-18.4706176806
  0
LINE
  5
25F
100
AcDbEntity
  8
CURVE
100
AcDbLine
 62
253
  6
CONTINUOUS
 10
-20.8195217578
 20
-18.4706176806
 11
-20.8074535506
 21
-18.4908820157
  0
LINE
  5
260
100
AcDbEntity
  8
CURVE
100
AcDbLine
 62
253
  6
CONTINUOUS
 10
-20.8074535506
 20
-18.4908820157
 11
-20.7971682417
 21
-18.5120675598
  0
LINE
  5
261
100
AcDbEntity
  8
CURVE
100
AcDbLine
 62
253
  6
CONTINUOUS
 10
-23.407958753
 20
-18.692763362
 11
-23.4179757518
 21
-18.6716096007
  0
LINE
  5
262
100
AcDbEntity
  8
CURVE
100
AcDbLine
 62
253
  6
CONTINUOUS
 10
-23.4179757518
 20
-18.6716096007
 11
-23.4259452933
 21
-18.6502538495
  0
LINE
  5
263
100
AcDbEntity
  8
CURVE
100
AcDbLine
 62
253
  6
CONTINUOUS
 10
-23.4259452933
 20
-18.6502538495
 11
-23.4317214739
 21
-18.6291046556
  0
LWPOLYLINE
  5
264
100
AcDbEntity
  8
0
100
AcDbPolyline
 62
7
  6
CONTINUOUS
 90
12
 70
0
 10
-24.9809304132
 20
-21.3309866873
 10
-24.9740219165
 20
-21.4132782665
 10
-24.9612787526
 20
-21.4916352413
 10
-24.9430505965
 20
-21.5657006015
 10
-24.9196293358
 20
-21.6355660234
 10
-24.8911561768
 20
-21.7015484816
 10
-24.8579274238
 20
-21.7633735328
 10
-24.8202294998
 20
-21.8208431556
 10
-24.7780953402
 20
-21.8741036697
 10
-24.7319001791
 20
-21.9228058788
 10
-24.6819984126
 20
-21.9667024667
 10
-24.6262496537
 20
-22.0072310698
  0
LWPOLYLINE
  5
265
100
AcDbEntity
  8
RACCORDO
100
AcDbPolyline
 62
7
  6
CONTINUOUS
 90
12
 70
0
 10
-24.9809304132
 20
-21.3309866873
 10
-24.9740219165
 20
-21.4132782666
 10
-24.9612787526
 20
-21.4916352413
 10
-24.9430505965
 20
-21.5657006015
 10
-24.9196293358
 20
-21.6355660234
 10
-24.8911561769
 20
-21.7015484816
 10
-24.8579274238
 20
-21.7633735328
 10
-24.8202294999
 20
-21.8208431556
 10
-24.7780953402
 20
-21.8741036697
 10
-24.7319001791
 20
-21.9228058788
 10
-24.6819984126
 20
-21.9667024667
 10
-24.6262496538
 20
-22.0072310698
  0
LWPOLYLINE
  5
266
100
AcDbEntity
  8
0
100
AcDbPolyline
 62
253
  6
CONTINUOUS
 90
8
 70
0
 10
-24.8579567831
 20
-21.5097109298
 10
-24.8519749371
 20
-21.5864377263
 10
-24.8402516242
 20
-21.6591220083
 10
-24.8228718438
 20
-21.727274145
 10
-24.7999725024
 20
-21.7904221041
 10
-24.7717058221
 20
-21.8481511225
 10
-24.7382333658
 20
-21.9001017485
 10
-24.6997895132
 20
-21.9459158231
  0
LWPOLYLINE
  5
267
100
AcDbEntity
  8
RACCORDO
100
AcDbPolyline
 62
253
  6
CONTINUOUS
 90
8
 70
0
 10
-24.8579567831
 20
-21.5097109308
 10
-24.8519749371
 20
-21.5864377269
 10
-24.8402516242
 20
-21.6591220086
 10
-24.8228718439
 20
-21.727274145
 10
-24.7999725025
 20
-21.790422104
 10
-24.7717058221
 20
-21.8481511225
 10
-24.7382333658
 20
-21.9001017485
 10
-24.6997895133
 20
-21.9459158231
  0
LINE
  5
268
100
AcDbEntity
  8
CURVE
100
AcDbLine
 62
253
  6
CONTINUOUS
 10
-23.4351560986
 20
-18.6087308476
 11
-23.436151619
 21
-18.5896779308
  0
LINE
  5
269
100
AcDbEntity
  8
0
100
AcDbLine
 62
7
  6
CONTINUOUS
 10
-24.9809304132
 20
-21.3309866873
 11
-24.9813452231
 21
-21.3210453187
  0
LINE
  5
26A
100
AcDbEntity
  8
RACCORDO
100
AcDbLine
 62
7
  6
CONTINUOUS
 10
-24.9809304132
 20
-21.3309866873
 11
-24.9813452231
 21
-21.3210453192
  0
LINE
  5
26B
100
AcDbEntity
  8
0
100
AcDbLine
 62
7
  6
CONTINUOUS
 10
-25.0742152483
 20
-18.5875223425
 11
-24.9813579917
 21
-21.3210457933
  0
LINE
  5
26C
100
AcDbEntity
  8
RACCORDO
100
AcDbLine
 62
7
  6
CONTINUOUS
 10
-25.0742152483
 20
-18.5875223425
 11
-24.9813579919
 21
-21.3210457938
  0
LWPOLYLINE
  5
26D
100
AcDbEntity
  8
0
100
AcDbPolyline
 62
7
  6
CONTINUOUS
 90
11
 70
0
 10
-25.0740707875
 20
9.9310355388
 10
-25.1518817684
 20
7.0328179454
 10
-25.2124187197
 20
4.1444970544
 10
-25.2556701496
 20
1.2662444476
 10
-25.2816303471
 20
-1.6017912927
 10
-25.2902949726
 20
-4.4594703233
 10
-25.2816609742
 20
-7.3066472563
 10
-25.2557309659
 20
-10.143180114
 10
-25.2125088662
 20
-12.968934028
 10
-25.1519999496
 20
-15.7837671185
 10
-25.0742152538
 20
-18.5875221807
  0
LWPOLYLINE
  5
26E
100
AcDbEntity
  8
RACCORDO
100
AcDbPolyline
 62
7
  6
CONTINUOUS
 90
11
 70
0
 10
-25.0740707929
 20
9.9310353709
 10
-25.1518818044
 20
7.0328164871
 10
-25.2124187558
 20
4.1444951214
 10
-25.2556701776
 20
1.2662421791
 10
-25.2816303641
 20
-1.6017937745
 10
-25.2902949727
 20
-4.4594728731
 10
-25.2816609573
 20
-7.3066497177
 10
-25.2557309379
 20
-10.1431823486
 10
-25.2125088302
 20
-12.9689359173
 10
-25.1519999136
 20
-15.7837685333
 10
-25.0742152483
 20
-18.5875223425
  0
LWPOLYLINE
  5
26F
100
AcDbEntity
  8
0
100
AcDbPolyline
 62
253
  6
CONTINUOUS
 90
13
 70
0
 10
-24.8579567771
 20
12.581776939
 10
-24.9541630113
 20
9.6865394092
 10
-25.0328983068
 20
6.8005542849
 10
-25.0941508993
 20
3.9239736856
 10
-25.1379122484
 20
1.0568752716
 10
-25.1641729058
 20
-1.8005168793
 10
-25.1729267973
 20
-4.647834711
 10
-25.1641729489
 20
-7.4849305936
 10
-25.1379123263
 20
-10.3116600006
 10
-25.0941509974
 20
-13.1276647889
 10
-25.0328984038
 20
-15.9327325801
 10
-24.9541630783
 20
-18.726794267
 10
-24.8579567786
 20
-21.5097109355
  0
LWPOLYLINE
  5
270
100
AcDbEntity
  8
RACCORDO
100
AcDbPolyline
 62
253
  6
CONTINUOUS
 90
13
 70
0
 10
-24.8579567771
 20
12.581776938
 10
-24.9541630776
 20
9.6865372182
 10
-25.0328984035
 20
6.8005503024
 10
-25.0941509975
 20
3.9239683066
 10
-25.1379123265
 20
1.0568688721
 10
-25.164172949
 20
-1.8005239117
 10
-25.1729267973
 20
-4.6478419463
 10
-25.1641729057
 20
-7.4849375756
 10
-25.1379122482
 20
-10.3116663086
 10
-25.0941508992
 20
-13.1276700529
 10
-25.0328983071
 20
-15.9327364496
 10
-24.954163012
 20
-18.7267963806
 10
-24.8579567786
 20
-21.5097109365
  0
LINE
  5
271
100
AcDbEntity
  8
0
100
AcDbLine
 62
7
  6
CONTINUOUS
 10
-25.0740707875
 20
9.9310355388
 11
-24.9813809015
 21
12.7719340519
  0
LINE
  5
272
100
AcDbEntity
  8
RACCORDO
100
AcDbLine
 62
7
  6
CONTINUOUS
 10
-25.0740707875
 20
9.9310355388
 11
-24.9813809012
 21
12.7719340519
  0
LWPOLYLINE
  5
273
100
AcDbEntity
  8
0
100
AcDbPolyline
 62
7
  6
CONTINUOUS
 90
16
 70
0
 10
-24.3017298632
 20
13.9947417328
 10
-24.3542673406
 20
13.9574916179
 10
-24.4339490862
 20
13.8929264962
 10
-24.5090519534
 20
13.8222581308
 10
-24.5796131906
 20
13.7459913372
 10
-24.6455442779
 20
13.6646280589
 10
-24.7064625786
 20
13.5789285888
 10
-24.7621938943
 20
13.489410909
 10
-24.8124952556
 20
13.396505674
 10
-24.8568999069
 20
13.3011074316
 10
-24.8951740946
 20
13.2036591148
 10
-24.9270018866
 20
13.1045674479
 10
-24.9519827865
 20
13.004530752
 10
-24.9697425271
 20
12.9038820771
 10
-24.9798704679
 20
12.8028894288
 10
-24.9813861949
 20
12.7714367125
  0
LWPOLYLINE
  5
274
100
AcDbEntity
  8
RACCORDO
100
AcDbPolyline
 62
7
  6
CONTINUOUS
 90
16
 70
0
 10
-24.3017298632
 20
13.9947417328
 10
-24.3542673406
 20
13.9574916179
 10
-24.4339490862
 20
13.8929264962
 10
-24.5090519535
 20
13.8222581308
 10
-24.5796131906
 20
13.7459913372
 10
-24.645544278
 20
13.6646280588
 10
-24.7064625786
 20
13.5789285888
 10
-24.7621938943
 20
13.489410909
 10
-24.8124952556
 20
13.3965056739
 10
-24.8568999069
 20
13.3011074316
 10
-24.8951740947
 20
13.2036591148
 10
-24.9270018866
 20
13.1045674479
 10
-24.9519827866
 20
13.004530752
 10
-24.9697425271
 20
12.9038820771
 10
-24.9798704679
 20
12.8028894288
 10
-24.9813861949
 20
12.7714367124
  0
LWPOLYLINE
  5
275
100
AcDbEntity
  8
ASSI
100
AcDbPolyline
 62
7
  6
CONTINUOUS
 90
10
 70
0
 10
-20.5906855877
 20
17.9294389478
 10
-20.6132652658
 20
17.9137119028
 10
-20.6370194277
 20
17.8927582779
 10
-20.6576541763
 20
17.8698000444
 10
-20.6760309219
 20
17.8441016544
 10
-20.6918074808
 20
17.8158445819
 10
-20.7040392901
 20
17.7867235695
 10
-20.712754498
 20
17.7571254074
 10
-20.7181304139
 20
17.7259283997
 10
-20.7196788295
 20
17.6980207022
  0
LINE
  5
276
100
AcDbEntity
  8
0
100
AcDbLine
 62
7
  6
CONTINUOUS
 10
-21.0906601679
 20
16.1480333364
 11
-24.3019023561
 21
13.9946385938
  0
LINE
  5
277
100
AcDbEntity
  8
RACCORDO
100
AcDbLine
 62
7
  6
CONTINUOUS
 10
-21.0906601679
 20
16.1480333364
 11
-24.3019023561
 21
13.9946385938
  0
LINE
  5
278
100
AcDbEntity
  8
ASSI
100
AcDbLine
 62
7
  6
CONTINUOUS
 10
-20.9636077827
 20
16.1754629524
 11
-20.0048158366
 21
16.8184096426
  0
LINE
  5
279
100
AcDbEntity
  8
RACCORDO
100
AcDbLine
 62
253
  6
CONTINUOUS
 10
-20.7850039103
 20
16.1026184204
 11
-20.0964133718
 21
16.5643734543
  0
LWPOLYLINE
  5
27A
100
AcDbEntity
  8
0
100
AcDbPolyline
 62
253
  6
CONTINUOUS
 90
19
 70
0
 10
-20.8312945171
 20
16.1293460366
 10
-24.1122392692
 20
13.9292597897
 10
-24.1818077328
 20
13.8761070756
 10
-24.2501458847
 20
13.8172448799
 10
-24.3167475276
 20
13.7530459279
 10
-24.381167864
 20
13.6839425343
 10
-24.4430257641
 20
13.6104218792
 10
-24.5018913114
 20
13.5329626416
 10
-24.5573435583
 20
13.4520756327
 10
-24.6090465757
 20
13.3683352578
 10
-24.6566410715
 20
13.2822974522
 10
-24.6997895552
 20
13.1945264485
 10
-24.7382334084
 20
13.105633571
 10
-24.7717058657
 20
13.0162187796
 10
-24.7999725466
 20
12.9268628918
 10
-24.8228718875
 20
12.8381550006
 10
-24.8402516666
 20
12.7506838557
 10
-24.8519749784
 20
12.6650337274
 10
-24.8579568243
 20
12.5817769245
  0
LWPOLYLINE
  5
27B
100
AcDbEntity
  8
RACCORDO
100
AcDbPolyline
 62
253
  6
CONTINUOUS
 90
19
 70
0
 10
-20.8312945171
 20
16.1293460366
 10
-24.1122392693
 20
13.9292597897
 10
-24.1818077328
 20
13.8761070756
 10
-24.2501458847
 20
13.8172448799
 10
-24.3167475276
 20
13.7530459279
 10
-24.381167864
 20
13.6839425343
 10
-24.4430257642
 20
13.6104218792
 10
-24.5018913114
 20
13.5329626416
 10
-24.5573435584
 20
13.4520756327
 10
-24.6090465758
 20
13.3683352578
 10
-24.6566410715
 20
13.2822974522
 10
-24.6997895552
 20
13.1945264485
 10
-24.7382334084
 20
13.105633571
 10
-24.7717058657
 20
13.0162187796
 10
-24.7999725466
 20
12.9268628919
 10
-24.8228718875
 20
12.8381550005
 10
-24.8402516666
 20
12.7506838554
 10
-24.8519749785
 20
12.6650337268
 10
-24.8579568243
 20
12.5817769235
  0
LWPOLYLINE
  5
27C
100
AcDbEntity
  8
ASSI
100
AcDbPolyline
 62
253
  6
CONTINUOUS
 90
28
 70
0
 10
-20.488015156
 20
17.9211483621
 10
-20.4966116383
 20
17.9157324841
 10
-20.5054126328
 20
17.9096807518
 10
-20.514392668
 20
17.9029696716
 10
-20.5235437061
 20
17.8955607401
 10
-20.5328113945
 20
17.8874521732
 10
-20.5420978542
 20
17.878690915
 10
-20.5513665605
 20
17.8692772778
 10
-20.5605778484
 20
17.859216155
 10
-20.5696324622
 20
17.8485870181
 10
-20.5784911872
 20
17.8374126475
 10
-20.5871155235
 20
17.8257172971
 10
-20.5954166489
 20
17.8136043829
 10
-20.603354154
 20
17.8011236659
 10
-20.6109031511
 20
17.7883044672
 10
-20.618009611
 20
17.775232508
 10
-20.6246416003
 20
17.7619662234
 10
-20.6307816103
 20
17.7485401827
 10
-20.6364046537
 20
17.7350084297
 10
-20.6414900099
 20
17.7214208307
 10
-20.6460203352
 20
17.7078236195
 10
-20.6499793994
 20
17.6942659015
 10
-20.6533532596
 20
17.6807954172
 10
-20.6561298342
 20
17.6674602031
 10
-20.6582991451
 20
17.6543092757
 10
-20.6598537448
 20
17.6413897148
 10
-20.6607884763
 20
17.6287465685
 10
-20.6611003132
 20
17.6164244719
  0
LINE
  5
27D
100
AcDbEntity
  8
ASSI
100
AcDbLine
 62
7
  6
CONTINUOUS
 10
-19.0234970386
 20
18.8986120592
 11
-20.5907401286
 21
17.9294054232
  0
LINE
  5
27E
100
AcDbEntity
  8
ASSI
100
AcDbLine
 62
253
  6
CONTINUOUS
 10
-18.9217644099
 20
18.8897413178
 11
-20.488015156
 21
17.9211483621
  0
LWPOLYLINE
  5
27F
100
AcDbEntity
  8
ASSI
100
AcDbPolyline
 62
7
  6
CONTINUOUS
 90
3
 70
0
 10
-19.0199968826
 20
18.9006334595
 10
-19.0217517916
 20
18.8996553579
 10
-19.0234859701
 20
18.8986189041
  0
LINE
  5
280
100
AcDbEntity
  8
ASSI
100
AcDbLine
 62
253
  6
CONTINUOUS
 10
-18.9217644099
 20
18.8897413178
 11
-18.3790383472
 21
19.181601831
  0
LINE
  5
281
100
AcDbEntity
  8
ASSI
100
AcDbLine
 62
7
  6
CONTINUOUS
 10
-19.0199854185
 20
18.900639627
 11
-18.4760643931
 21
19.1931424455
  0
LWPOLYLINE
  5
282
100
AcDbEntity
  8
ASSI
100
AcDbPolyline
 62
253
  6
CONTINUOUS
 90
15
 70
0
 10
-18.3790383472
 20
19.181601831
 10
-18.3699105829
 20
19.186381146
 10
-18.3606314532
 20
19.1906816308
 10
-18.3512292713
 20
19.1944563174
 10
-18.3417148159
 20
19.197664029
 10
-18.3321435485
 20
19.200248347
 10
-18.322612656
 20
19.2021526734
 10
-18.313158545
 20
19.2033445183
 10
-18.3038199029
 20
19.2037929678
 10
-18.2946925986
 20
19.2034737478
 10
-18.2858154624
 20
19.2023752805
 10
-18.2772206188
 20
19.2004880874
 10
-18.2689841681
 20
19.1978209531
 10
-18.2611435063
 20
19.1943857676
 10
-18.2567902911
 20
19.1920478631
  0
LWPOLYLINE
  5
283
100
AcDbEntity
  8
ASSI
100
AcDbPolyline
 62
253
  6
CONTINUOUS
 90
7
 70
0
 10
-18.4760643931
 20
19.1931424455
 10
-18.4641109944
 20
19.1981104388
 10
-18.448822975
 20
19.2010467357
 10
-18.4323835915
 20
19.2008335758
 10
-18.415074018
 20
19.1974746024
 10
-18.3971903108
 20
19.1910272639
 10
-18.3790383472
 20
19.181601831
  0
LINE
  5
284
100
AcDbEntity
  8
CURVE
100
AcDbLine
 62
253
  6
CONTINUOUS
 10
-20.7910251503
 20
-20.3764863789
 11
-20.8064858585
 21
-20.3712700452
  0
LINE
  5
285
100
AcDbEntity
  8
CURVE
100
AcDbLine
 62
253
  6
CONTINUOUS
 10
-20.9060133259
 20
-18.3936466357
 11
-20.8900526235
 21
-18.4010772286
  0
LINE
  5
286
100
AcDbEntity
  8
ASSI
100
AcDbLine
 62
253
  6
CONTINUOUS
 10
-4.072500437
 20
-28.2645007314
 11
-3.6047904419
 21
-28.5345506209
  0
LINE
  5
287
100
AcDbEntity
  8
ASSI
100
AcDbLine
 62
7
  6
CONTINUOUS
 10
-4.0725004365
 20
-28.254660596
 11
-3.568161472
 21
-28.5458597733
  0
LINE
  5
288
100
AcDbEntity
  8
CURVE
100
AcDbLine
 62
253
  6
CONTINUOUS
 10
-20.8900526235
 20
-18.4010772286
 11
-20.8849854399
 21
-18.4040502909
  0
LINE
  5
289
100
AcDbEntity
  8
ASSI
100
AcDbLine
 62
253
  6
CONTINUOUS
 10
-3.5867932675
 20
-28.5467119644
 11
-3.6047904419
 21
-28.5345506209
  0
LINE
  5
28A
100
AcDbEntity
  8
CURVE
100
AcDbLine
 62
253
  6
CONTINUOUS
 10
-20.7971682417
 20
-18.5120675598
 11
-20.7916531901
 21
-18.525866603
  0
LINE
  5
28B
100
AcDbEntity
  8
CURVE
100
AcDbLine
 62
253
  6
CONTINUOUS
 10
-20.7916531901
 20
-18.525866603
 11
-20.784921103
 21
-18.5472582832
  0
LINE
  5
28C
100
AcDbEntity
  8
CURVE
100
AcDbLine
 62
253
  6
CONTINUOUS
 10
-20.784921103
 20
-18.5472582832
 11
-20.7806058592
 21
-18.5679874716
  0
LINE
  5
28D
100
AcDbEntity
  8
CURVE
100
AcDbLine
 62
253
  6
CONTINUOUS
 10
-23.4317214739
 20
-18.6291046556
 11
-23.4351560986
 21
-18.6087308476
  0
LINE
  5
28E
100
AcDbEntity
  8
CURVE
100
AcDbLine
 62
253
  6
CONTINUOUS
 10
-20.7806058592
 20
-18.5679874716
 11
-20.7787853135
 21
-18.5875994686
  0
LWPOLYLINE
  5
28F
100
AcDbEntity
  8
CURVE
100
AcDbPolyline
 62
253
  6
CONTINUOUS
 90
5
 70
0
 10
-20.933334852
 20
-20.0596898937
 10
-20.9450188126
 20
-19.7104662709
 10
-20.9563760666
 20
-19.3610413206
 10
-20.9672790752
 20
-19.0155186375
 10
-20.977862975
 20
-18.669800085
  0
LWPOLYLINE
  5
290
100
AcDbEntity
  8
CURVE
100
AcDbPolyline
 62
253
  6
CONTINUOUS
 90
5
 70
0
 10
-20.7788755742
 20
-18.5875440464
 10
-20.7652326957
 20
-19.0375676135
 10
-20.7510470691
 20
-19.4872580438
 10
-20.7376477716
 20
-19.8967484768
 10
-20.7237978273
 20
-20.3059609443
  0
LINE
  5
291
100
AcDbEntity
  8
CURVE
100
AcDbLine
 62
253
  6
CONTINUOUS
 10
-23.436151619
 20
-18.5896779308
 11
-23.4346827902
 21
-18.5723106171
  0
LWPOLYLINE
  5
292
100
AcDbEntity
  8
ASSI
100
AcDbPolyline
 62
253
  6
CONTINUOUS
 90
6
 70
0
 10
-16.1045658432
 20
17.2928255816
 10
-16.10264597
 20
17.2968888554
 10
-16.1025250375
 20
17.3039662267
 10
-16.1051026064
 20
17.3129421986
 10
-16.1103350616
 20
17.3236648893
 10
-16.118133865
 20
17.3359528603
  0
LWPOLYLINE
  5
293
100
AcDbEntity
  8
ASSI
100
AcDbPolyline
 62
7
  6
CONTINUOUS
 90
5
 70
0
 10
-16.1045762841
 20
17.2928123822
 10
-16.0951173494
 20
17.3056094645
 10
-16.0801881457
 20
17.3294487372
 10
-16.0674300021
 20
17.3551546204
 10
-16.0574921276
 20
17.3814764523
  0
LINE
  5
294
100
AcDbEntity
  8
ASSI
100
AcDbLine
 62
253
  6
CONTINUOUS
 10
-16.118133865
 20
17.3359528603
 11
-16.6590011709
 21
16.6455949852
  0
LINE
  5
295
100
AcDbEntity
  8
ASSI
100
AcDbLine
 62
7
  6
CONTINUOUS
 10
-16.1045658432
 20
17.2928255816
 11
-16.6590011709
 21
16.5851496126
  0
LWPOLYLINE
  5
296
100
AcDbEntity
  8
ASSI
100
AcDbPolyline
 62
7
  6
CONTINUOUS
 90
11
 70
0
 10
-17.5614519216
 20
16.0266189539
 10
-17.5834846578
 20
16.0051439894
 10
-17.6073724494
 20
15.985268931
 10
-17.6329396877
 20
15.9673781068
 10
-17.660139938
 20
15.9518143153
 10
-17.68855457
 20
15.9389350282
 10
-17.7173696162
 20
15.9290465459
 10
-17.7461992937
 20
15.9223220002
 10
-17.7747478563
 20
15.9189067827
 10
-17.8022849337
 20
15.9188425388
 10
-17.8105192502
 20
15.9194883486
  0
LWPOLYLINE
  5
297
100
AcDbEntity
  8
RACCORDO
100
AcDbPolyline
 62
7
  6
CONTINUOUS
 90
9
 70
0
 10
-14.8428363406
 20
15.8512403696
 10
-14.8683847319
 20
15.8331341839
 10
-14.8917688007
 20
15.8116659031
 10
-14.9124403407
 20
15.7871421596
 10
-14.9299318993
 20
15.759938782
 10
-14.9438056333
 20
15.7306031384
 10
-14.9537511287
 20
15.6997632518
 10
-14.9596467344
 20
15.6677030278
 10
-14.9613449299
 20
15.6385622766
  0
LINE
  5
298
100
AcDbEntity
  8
RACCORDO
100
AcDbLine
 62
7
  6
CONTINUOUS
 10
-14.6648735372
 20
15.9612952367
 11
-14.8428363406
 21
15.8512403696
  0
LINE
  5
299
100
AcDbEntity
  8
0
100
AcDbLine
 62
7
  6
CONTINUOUS
 10
-19.1816262209
 20
15.3879335013
 11
-18.6389001582
 21
15.7228235917
  0
LINE
  5
29A
100
AcDbEntity
  8
ASSI
100
AcDbLine
 62
7
  6
CONTINUOUS
 10
-16.6590011709
 20
15.8686626014
 11
-17.5614519216
 21
15.3118037471
  0
LINE
  5
29B
100
AcDbEntity
  8
RACCORDO
100
AcDbLine
 62
7
  6
CONTINUOUS
 10
3.4653830938
 20
27.243574651
 11
10.1936558997
 21
31.2251267189
  0
LINE
  5
29C
100
AcDbEntity
  8
ASSI
100
AcDbLine
 62
7
  6
CONTINUOUS
 10
3.4653830938
 20
27.243574651
 11
10.1936558997
 21
31.2251267189
  0
LINE
  5
29D
100
AcDbEntity
  8
RACCORDO
100
AcDbLine
 62
253
  6
CONTINUOUS
 10
10.1936558997
 20
31.2251267189
 11
10.1967671339
 21
31.2269452541
  0
LINE
  5
29E
100
AcDbEntity
  8
ASSI
100
AcDbLine
 62
253
  6
CONTINUOUS
 10
10.1936558997
 20
31.2251267189
 11
10.1967671339
 21
31.2269452541
  0
LINE
  5
29F
100
AcDbEntity
  8
RACCORDO
100
AcDbLine
 62
253
  6
CONTINUOUS
 10
3.47300968
 20
27.2422263599
 11
10.6365196615
 21
31.4808037777
  0
LINE
  5
2A0
100
AcDbEntity
  8
ASSI
100
AcDbLine
 62
253
  6
CONTINUOUS
 10
3.47300968
 20
27.2422263599
 11
10.6365196615
 21
31.4808037777
  0
LINE
  5
2A1
100
AcDbEntity
  8
RACCORDO
100
AcDbLine
 62
253
  6
CONTINUOUS
 10
3.8091729188
 20
27.0957438079
 11
11.136500623
 21
31.4312505385
  0
LINE
  5
2A2
100
AcDbEntity
  8
ASSI
100
AcDbLine
 62
253
  6
CONTINUOUS
 10
3.8091729188
 20
27.0957438079
 11
11.136500623
 21
31.4312505385
  0
LINE
  5
2A3
100
AcDbEntity
  8
RACCORDO
100
AcDbLine
 62
7
  6
CONTINUOUS
 10
10.1936347875
 20
31.2251130286
 11
10.1967671339
 21
31.2269452541
  0
LINE
  5
2A4
100
AcDbEntity
  8
ASSI
100
AcDbLine
 62
7
  6
CONTINUOUS
 10
10.1936347875
 20
31.2251130286
 11
10.1967671339
 21
31.2269452541
  0
LINE
  5
2A5
100
AcDbEntity
  8
ASSI
100
AcDbLine
 62
253
  6
CONTINUOUS
 10
-18.4223011146
 20
16.7284309641
 11
-16.2762965214
 21
17.9675050544
  0
LINE
  5
2A6
100
AcDbEntity
  8
ASSI
100
AcDbLine
 62
253
  6
CONTINUOUS
 10
-18.2809012976
 20
16.483519297
 11
-16.1348967044
 21
17.7225933873
  0
LINE
  5
2A7
100
AcDbEntity
  8
ASSI
100
AcDbLine
 62
7
  6
CONTINUOUS
 10
3.2757856002
 20
27.2156861614
 11
-9.2773260344
 21
19.967676831
  0
LINE
  5
2A8
100
AcDbEntity
  8
ASSI
100
AcDbLine
 62
253
  6
CONTINUOUS
 10
3.6307856002
 20
27.1805020219
 11
-9.0693576388
 21
19.8475984859
  0
LINE
  5
2A9
100
AcDbEntity
  8
RACCORDO
100
AcDbLine
 62
7
  6
CONTINUOUS
 10
10.6365196615
 20
31.4808037777
 11
10.1967671339
 21
31.2269452541
  0
LINE
  5
2AA
100
AcDbEntity
  8
ASSI
100
AcDbLine
 62
7
  6
CONTINUOUS
 10
10.6365196615
 20
31.4808037777
 11
10.1967671339
 21
31.2269452541
  0
LINE
  5
2AB
100
AcDbEntity
  8
ASSI
100
AcDbLine
 62
7
  6
CONTINUOUS
 10
-9.6471683562
 20
19.8570966873
 11
-15.9908654558
 21
16.2851870582
  0
LWPOLYLINE
  5
2AC
100
AcDbEntity
  8
ASSI
100
AcDbPolyline
 62
253
  6
CONTINUOUS
 90
28
 70
0
 10
-16.1348967044
 20
17.7225933873
 10
-16.1332174277
 20
17.7235290229
 10
-16.1315058866
 20
17.7243672966
 10
-16.1297620811
 20
17.7251082084
 10
-16.1279750643
 20
17.7257632019
 10
-16.126155783
 20
17.7263208335
 10
-16.124337078
 20
17.7267467721
 10
-16.1225182167
 20
17.727036854
 10
-16.1206999315
 20
17.7271952429
 10
-16.1189172606
 20
17.7272000982
 10
-16.1171710322
 20
17.7270461758
 10
-16.1154604181
 20
17.7267387197
 10
-16.1138179717
 20
17.7262716217
 10
-16.1122465443
 20
17.7256402848
 10
-16.1107432846
 20
17.724849306
 10
-16.1093321931
 20
17.7239063684
 10
-16.1080165428
 20
17.7228094878
 10
-16.1067930605
 20
17.7215606482
 10
-16.1056759276
 20
17.7201734852
 10
-16.1046666396
 20
17.7186466129
 10
-16.1037637009
 20
17.716981417
 10
-16.1029768062
 20
17.7151956904
 10
-16.1023072237
 20
17.7132880345
 10
-16.1017536852
 20
17.7112598479
 10
-16.1013220806
 20
17.7091331179
 10
-16.1010143733
 20
17.706915174
 10
-16.1008285999
 20
17.7045986868
 10
-16.1007647604
 20
17.7021836563
  0
LWPOLYLINE
  5
2AD
100
AcDbEntity
  8
ASSI
100
AcDbPolyline
 62
253
  6
CONTINUOUS
 90
15
 70
0
 10
-16.2762965214
 20
17.9675050544
 10
-16.2678281744
 20
17.972021433
 10
-16.2591403417
 20
17.976160936
 10
-16.2502577558
 20
17.979869104
 10
-16.2411876263
 20
17.9830969183
 10
-16.2319841123
 20
17.985777149
 10
-16.2227455846
 20
17.9878396193
 10
-16.2135086151
 20
17.9892399414
 10
-16.2043131151
 20
17.9899344352
 10
-16.1952595217
 20
17.9898833151
 10
-16.1863875525
 20
17.9890610512
 10
-16.1777370647
 20
17.9874444585
 10
-16.1693996032
 20
17.985030179
 10
-16.161415177
 20
17.9818176708
 10
-16.1548191038
 20
17.9783961292
  0
LINE
  5
2AE
100
AcDbEntity
  8
CURVE
100
AcDbLine
 62
253
  6
CONTINUOUS
 10
-20.7764181972
 20
-20.3784199953
 11
-20.7910251503
 21
-20.3764863789
  0
LINE
  5
2AF
100
AcDbEntity
  8
CURVE
100
AcDbLine
 62
253
  6
CONTINUOUS
 10
-20.9213993028
 20
-18.3894530038
 11
-20.9060133259
 21
-18.3936466357
  0
LWPOLYLINE
  5
2B0
100
AcDbEntity
  8
ASSI
100
AcDbPolyline
 62
7
  6
CONTINUOUS
 90
4
 70
0
 10
-3.5162324094
 20
-28.5877827105
 10
-3.5374864213
 20
-28.5673494729
 10
-3.5612295905
 20
-28.5500452557
 10
-3.5688069332
 20
-28.5454893701
  0
LWPOLYLINE
  5
2B1
100
AcDbEntity
  8
ASSI
100
AcDbPolyline
 62
253
  6
CONTINUOUS
 90
13
 70
0
 10
-5.7117590207
 20
-30.0344102578
 10
-5.7222707854
 20
-30.0205558578
 10
-5.7349555388
 20
-30.0055303043
 10
-5.7495986427
 20
-29.989587844
 10
-5.7659523219
 20
-29.9729982388
 10
-5.7837398565
 20
-29.9560422007
 10
-5.8026602643
 20
-29.939006642
 10
-5.822393394
 20
-29.9221798209
 10
-5.842605342
 20
-29.9058464634
 10
-5.8629541023
 20
-29.8902829461
 10
-5.8830953542
 20
-29.8757526187
 10
-5.9026882882
 20
-29.8625013485
 10
-5.9214013729
 20
-29.8507533599
  0
LWPOLYLINE
  5
2B2
100
AcDbEntity
  8
ASSI
100
AcDbPolyline
 62
7
  6
CONTINUOUS
 90
6
 70
0
 10
-20.7196786624
 20
17.3992011122
 10
-20.718397832
 20
17.3739363848
 10
-20.7145152245
 20
17.3491818627
 10
-20.7080729261
 20
17.3252046872
 10
-20.6992156433
 20
17.302399857
 10
-20.6880691168
 20
17.2809353305
  0
LINE
  5
2B3
100
AcDbEntity
  8
0
100
AcDbLine
 62
7
  6
CONTINUOUS
 10
-20.0043133384
 20
16.5608848882
 11
-20.0048158365
 21
16.5716171873
  0
LINE
  5
2B4
100
AcDbEntity
  8
CURVE
100
AcDbLine
 62
253
  6
CONTINUOUS
 10
-19.7029344436
 20
-20.9722913127
 11
-19.711283804
 21
-20.7320768422
  0
LINE
  5
2B5
100
AcDbEntity
  8
CURVE
100
AcDbLine
 62
253
  6
CONTINUOUS
 10
-19.5030263146
 20
-20.8567281163
 11
-19.4946584735
 21
-21.0969295463
  0
LINE
  5
2B6
100
AcDbEntity
  8
CURVE
100
AcDbLine
 62
253
  6
CONTINUOUS
 10
-19.7544901437
 20
-19.4017893939
 11
-19.761806967
 21
-19.1609816326
  0
LINE
  5
2B7
100
AcDbEntity
  8
CURVE
100
AcDbLine
 62
253
  6
CONTINUOUS
 10
-19.5536735883
 20
-19.2857057731
 11
-19.5463405776
 21
-19.5265021111
  0
LWPOLYLINE
  5
2B8
100
AcDbEntity
  8
ASSI
100
AcDbPolyline
 62
253
  6
CONTINUOUS
 90
14
 70
0
 10
-20.6611003132
 20
17.3173102149
 10
-20.6608822263
 20
17.307287754
 10
-20.660204594
 20
17.2972748451
 10
-20.6590315474
 20
17.2873227156
 10
-20.6573236866
 20
17.2774665571
 10
-20.6550488597
 20
17.2677878809
 10
-20.6521933058
 20
17.2584052604
 10
-20.6487358609
 20
17.2493763332
 10
-20.6446577959
 20
17.2407614493
 10
-20.6399719861
 20
17.2326676671
 10
-20.6346750256
 20
17.2251465859
 10
-20.6287664475
 20
17.2182497478
 10
-20.6222870857
 20
17.2120610092
 10
-20.6152520557
 20
17.2066174224
  0
LWPOLYLINE
  5
2B9
100
AcDbEntity
  8
CURVE
100
AcDbPolyline
 62
253
  6
CONTINUOUS
 90
85
 70
0
 10
-19.4946671316
 20
-21.0969243756
 10
-19.4945835122
 20
-21.1017825192
 10
-19.4946764185
 20
-21.106521977
 10
-19.4949438781
 20
-21.1111362776
 10
-19.4953839187
 20
-21.1156189494
 10
-19.4959945678
 20
-21.1199635211
 10
-19.496773853
 20
-21.1241635212
 10
-19.497719802
 20
-21.1282124782
 10
-19.4988304424
 20
-21.1321039206
 10
-19.5001038019
 20
-21.135831377
 10
-19.501537908
 20
-21.1393883759
 10
-19.5031307884
 20
-21.1427684459
 10
-19.5047284894
 20
-21.1457062875
 10
-19.5064550269
 20
-21.1484874276
 10
-19.50830748
 20
-21.1511092718
 10
-19.5102829282
 20
-21.153569226
 10
-19.5123784507
 20
-21.1558646958
 10
-19.5145911268
 20
-21.1579930869
 10
-19.5169178337
 20
-21.1599519151
 10
-19.5193546399
 20
-21.1617391364
 10
-19.5218974122
 20
-21.1633528165
 10
-19.5245420169
 20
-21.1647910215
 10
-19.5272843208
 20
-21.1660518171
 10
-19.5301201902
 20
-21.1671332694
 10
-19.5330455517
 20
-21.1680337751
 10
-19.5360565713
 20
-21.1687530545
 10
-19.5391494752
 20
-21.1692911591
 10
-19.5423204893
 20
-21.1696481399
 10
-19.5455658396
 20
-21.1698240483
 10
-19.5488817522
 20
-21.1698189356
 10
-19.552264546
 20
-21.1696328241
 10
-19.5557109118
 20
-21.1692656215
 10
-19.5592176331
 20
-21.1687172063
 10
-19.5627814937
 20
-21.1679874573
 10
-19.5663992772
 20
-21.1670762531
 10
-19.5700677672
 20
-21.1659834724
 10
-19.5737832512
 20
-21.164709337
 10
-19.5775400324
 20
-21.1632554417
 10
-19.5813319176
 20
-21.161623724
 10
-19.5851527137
 20
-21.1598161218
 10
-19.5889962277
 20
-21.157834573
 10
-19.5928562664
 20
-21.1556810151
 10
-19.5967265449
 20
-21.1533579241
 10
-19.6006004101
 20
-21.1508699274
 10
-19.604471117
 20
-21.1482221905
 10
-19.6083319208
 20
-21.1454198788
 10
-19.6121760763
 20
-21.1424681579
 10
-19.6159968388
 20
-21.1393721932
 10
-19.6197880436
 20
-21.136136896
 10
-19.6235458485
 20
-21.1327661599
 10
-19.6272669916
 20
-21.1292636248
 10
-19.6309482112
 20
-21.1256329301
 10
-19.6345862455
 20
-21.1218777155
 10
-19.6381778327
 20
-21.1180016205
 10
-19.6417198605
 20
-21.1140077884
 10
-19.6452098153
 20
-21.1098973778
 10
-19.6486453329
 20
-21.1056710507
 10
-19.6520240493
 20
-21.1013294693
 10
-19.6553436004
 20
-21.0968732959
 10
-19.6586016219
 20
-21.0923031926
 10
-19.6617949258
 20
-21.0876209797
 10
-19.6649170269
 20
-21.0828331104
 10
-19.6679606163
 20
-21.077947196
 10
-19.6709183848
 20
-21.0729708479
 10
-19.6737830233
 20
-21.0679116773
 10
-19.6765472227
 20
-21.0627772956
 10
-19.6792024608
 20
-21.057579475
 10
-19.6817353636
 20
-21.0523466306
 10
-19.6841313441
 20
-21.0471113384
 10
-19.6863786796
 20
-21.0419014331
 10
-19.6884771062
 20
-21.0367257832
 10
-19.6904292245
 20
-21.0315885158
 10
-19.6922378642
 20
-21.0264911796
 10
-19.6939067731
 20
-21.0214250097
 10
-19.6954399279
 20
-21.0163786627
 10
-19.6968400903
 20
-21.0113447731
 10
-19.6981051609
 20
-21.0063318855
 10
-19.6992318247
 20
-21.0013525225
 10
-19.7002170635
 20
-20.9964144101
 10
-19.7010590455
 20
-20.9915060881
 10
-19.7017562354
 20
-20.9866113001
 10
-19.7021828782
 20
-20.9829461857
 10
-19.702524726
 20
-20.979313927
 10
-19.7027792931
 20
-20.975748911
 10
-19.7029440936
 20
-20.9722855247
  0
LWPOLYLINE
  5
2BA
100
AcDbEntity
  8
CURVE
100
AcDbPolyline
 62
253
  6
CONTINUOUS
 90
85
 70
0
 10
-19.7112742383
 20
-20.7320825808
 10
-19.7113543518
 20
-20.7272226653
 10
-19.7112582462
 20
-20.7224815728
 10
-19.710987889
 20
-20.7178657738
 10
-19.7105452478
 20
-20.7133817391
 10
-19.7099322901
 20
-20.7090359391
 10
-19.7091509834
 20
-20.7048348447
 10
-19.7082032951
 20
-20.7007849263
 10
-19.7070911929
 20
-20.6968926548
 10
-19.7058166443
 20
-20.6931645006
 10
-19.7043816166
 20
-20.6896069345
 10
-19.7027880776
 20
-20.6862264271
 10
-19.7011899982
 20
-20.6832882971
 10
-19.6994632872
 20
-20.680506973
 10
-19.6976108532
 20
-20.6778850446
 10
-19.6956356049
 20
-20.6754251023
 10
-19.6935404511
 20
-20.673129736
 10
-19.6913283005
 20
-20.671001536
 10
-19.6890022635
 20
-20.6690429819
 10
-19.6865662572
 20
-20.667256112
 10
-19.6840244007
 20
-20.6656428541
 10
-19.6813808129
 20
-20.664205136
 10
-19.6786396126
 20
-20.6629448857
 10
-19.6758049189
 20
-20.6618640308
 10
-19.6728807913
 20
-20.6609641685
 10
-19.669871052
 20
-20.6602455731
 10
-19.6667794637
 20
-20.6597081881
 10
-19.6636097893
 20
-20.659351957
 10
-19.6603657915
 20
-20.6591768232
 10
-19.6570512332
 20
-20.6591827303
 10
-19.6536697847
 20
-20.6593696504
 10
-19.6502247467
 20
-20.65973767
 10
-19.6467193274
 20
-20.6602869041
 10
-19.6431567351
 20
-20.6610174679
 10
-19.639540178
 20
-20.6619294765
 10
-19.6358728643
 20
-20.6630230449
 10
-19.6321584987
 20
-20.6642979454
 10
-19.6284027712
 20
-20.6657525791
 10
-19.6246118683
 20
-20.6673850044
 10
-19.6207919763
 20
-20.6691932795
 10
-19.6169492817
 20
-20.6711754629
 10
-19.6130899709
 20
-20.6733296127
 10
-19.6092203239
 20
-20.6756532495
 10
-19.6053469954
 20
-20.678141742
 10
-19.6014767333
 20
-20.6807899213
 10
-19.5976162858
 20
-20.6835926183
 10
-19.593772401
 20
-20.6865446639
 10
-19.5899518272
 20
-20.6896408892
 10
-19.5861607318
 20
-20.6928763806
 10
-19.5824029604
 20
-20.6962472473
 10
-19.5786817782
 20
-20.6997498538
 10
-19.5750004501
 20
-20.7033805648
 10
-19.5713622412
 20
-20.7071357448
 10
-19.5677704167
 20
-20.7110117585
 10
-19.564228093
 20
-20.7150054667
 10
-19.5607377928
 20
-20.7191157143
 10
-19.5573018904
 20
-20.7233418423
 10
-19.5539227599
 20
-20.727683192
 10
-19.5506027757
 20
-20.7321391043
 10
-19.5473443118
 20
-20.7367089203
 10
-19.544150567
 20
-20.7413908241
 10
-19.5410280383
 20
-20.7461783708
 10
-19.5379840471
 20
-20.7510639586
 10
-19.5350259148
 20
-20.7560399858
 10
-19.5321609629
 20
-20.7610988503
 10
-19.5293965129
 20
-20.7662329503
 10
-19.5267410992
 20
-20.7714305239
 10
-19.5242081077
 20
-20.7766631685
 10
-19.5218121375
 20
-20.7818983213
 10
-19.5195649221
 20
-20.7871081595
 10
-19.5174667344
 20
-20.7922838201
 10
-19.5155149816
 20
-20.7974211797
 10
-19.5137068424
 20
-20.8025186937
 10
-19.5120385803
 20
-20.8075851312
 10
-19.5105062298
 20
-20.8126318399
 10
-19.5091070399
 20
-20.8176661898
 10
-19.5078431161
 20
-20.8226796403
 10
-19.5067177779
 20
-20.8276596733
 10
-19.5057340509
 20
-20.8325985677
 10
-19.5048937832
 20
-20.8375077921
 10
-19.5041985286
 20
-20.8424036123
 10
-19.5037734896
 20
-20.8460695897
 10
-19.5034333642
 20
-20.849702783
 10
-19.5031806219
 20
-20.8532687986
 10
-19.5030177323
 20
-20.8567332427
  0
LWPOLYLINE
  5
2BB
100
AcDbEntity
  8
CURVE
100
AcDbPolyline
 62
253
  6
CONTINUOUS
 90
82
 70
0
 10
-19.4064102733
 20
-20.2629105198
 10
-19.4062509209
 20
-20.2728412649
 10
-19.4064271698
 20
-20.2825647966
 10
-19.4069390986
 20
-20.2920671931
 10
-19.4077867858
 20
-20.3013345325
 10
-19.4089703101
 20
-20.310352893
 10
-19.41048975
 20
-20.3191083528
 10
-19.4123451839
 20
-20.32758699
 10
-19.4145366906
 20
-20.3357748827
 10
-19.4170643485
 20
-20.3436581092
 10
-19.4199268734
 20
-20.3512231299
 10
-19.4231175298
 20
-20.358457934
 10
-19.4266282193
 20
-20.3653508931
 10
-19.4304508436
 20
-20.3718903788
 10
-19.4345773044
 20
-20.3780647627
 10
-19.4389995034
 20
-20.3838624162
 10
-19.4437093421
 20
-20.389271711
 10
-19.4486987224
 20
-20.3942810186
 10
-19.4539595458
 20
-20.3988787105
 10
-19.4594836159
 20
-20.4030547797
 10
-19.4652623432
 20
-20.4068057041
 10
-19.4712870401
 20
-20.410129583
 10
-19.4775490189
 20
-20.4130245159
 10
-19.4840395922
 20
-20.4154886018
 10
-19.4907500722
 20
-20.4175199403
 10
-19.4976717714
 20
-20.4191166306
 10
-19.5047960022
 20
-20.4202767721
 10
-19.5121140768
 20
-20.4209984639
 10
-19.5196167399
 20
-20.4212802674
 10
-19.5272924644
 20
-20.4211225915
 10
-19.5351291552
 20
-20.4205263068
 10
-19.5431147173
 20
-20.4194922842
 10
-19.5512370559
 20
-20.4180213944
 10
-19.5594840759
 20
-20.4161145081
 10
-19.5678436823
 20
-20.4137724962
 10
-19.5763037801
 20
-20.4109962293
 10
-19.5848522745
 20
-20.4077865783
 10
-19.5934765987
 20
-20.4041458961
 10
-19.6021622994
 20
-20.4000824641
 10
-19.6108944518
 20
-20.3956060461
 10
-19.6196581308
 20
-20.3907264058
 10
-19.6284384117
 20
-20.3854533067
 10
-19.6372203694
 20
-20.3797965126
 10
-19.6459890789
 20
-20.3737657871
 10
-19.6547296155
 20
-20.367370894
 10
-19.6634270541
 20
-20.3606215968
 10
-19.6720672312
 20
-20.3535277478
 10
-19.6806390291
 20
-20.3460995534
 10
-19.6891320913
 20
-20.3383473086
 10
-19.6975360614
 20
-20.3302813083
 10
-19.705840583
 20
-20.3219118475
 10
-19.7140352999
 20
-20.3132492212
 10
-19.7221098555
 20
-20.3043037243
 10
-19.7300538934
 20
-20.2950856517
 10
-19.7378570574
 20
-20.2856052985
 10
-19.7455086586
 20
-20.2758743239
 10
-19.7529966793
 20
-20.2659098444
 10
-19.7603087694
 20
-20.2557303408
 10
-19.7674325788
 20
-20.245354294
 10
-19.7743557573
 20
-20.2348001848
 10
-19.7810659549
 20
-20.224086494
 10
-19.7875508214
 20
-20.2132317024
 10
-19.7937980067
 20
-20.2022542908
 10
-19.7997951608
 20
-20.1911727402
 10
-19.8055310216
 20
-20.1800051329
 10
-19.8109986802
 20
-20.1687679586
 10
-19.8161923158
 20
-20.1574773083
 10
-19.8211061074
 20
-20.1461492733
 10
-19.8257342343
 20
-20.1347999447
 10
-19.8300708756
 20
-20.1234454139
 10
-19.8341102104
 20
-20.1121017719
 10
-19.837846418
 20
-20.10078511
 10
-19.8412736775
 20
-20.0895115193
 10
-19.8443866776
 20
-20.0782971435
 10
-19.8471821454
 20
-20.0671583357
 10
-19.8496573175
 20
-20.0561115016
 10
-19.8518094307
 20
-20.0451730469
 10
-19.8536357216
 20
-20.0343593771
 10
-19.8551334268
 20
-20.0236868978
 10
-19.856299783
 20
-20.0131720147
 10
-19.8571320268
 20
-20.0028311334
 10
-19.857627395
 20
-19.9926806594
  0
LWPOLYLINE
  5
2BC
100
AcDbEntity
  8
CURVE
100
AcDbPolyline
 62
253
  6
CONTINUOUS
 90
82
 70
0
 10
-19.857627395
 20
-19.9926806594
 10
-19.8577855609
 20
-19.9827496414
 10
-19.8576092437
 20
-19.9730264407
 10
-19.8570983502
 20
-19.9635249697
 10
-19.856252787
 20
-19.9542591407
 10
-19.8550724608
 20
-19.945242866
 10
-19.8535572784
 20
-19.9364900581
 10
-19.8517071464
 20
-19.9280146293
 10
-19.8495219715
 20
-19.919830492
 10
-19.8470016603
 20
-19.9119515586
 10
-19.8441474718
 20
-19.9043913536
 10
-19.8409660735
 20
-19.8971618507
 10
-19.837465485
 20
-19.8902746357
 10
-19.8336537259
 20
-19.8837412947
 10
-19.829538816
 20
-19.8775734135
 10
-19.8251287749
 20
-19.8717825779
 10
-19.8204316223
 20
-19.8663803738
 10
-19.8154553778
 20
-19.8613783873
 10
-19.8102080611
 20
-19.856788204
 10
-19.8046977889
 20
-19.8526197891
 10
-19.7989330659
 20
-19.8488766233
 10
-19.792922494
 20
-19.8455605666
 10
-19.7866746749
 20
-19.842673479
 10
-19.7801982105
 20
-19.8402172203
 10
-19.7735017024
 20
-19.8381936507
 10
-19.7665937524
 20
-19.8366046299
 10
-19.7594829624
 20
-19.8354520179
 10
-19.7521779342
 20
-19.8347376747
 10
-19.7446878422
 20
-19.8344629985
 10
-19.7370241518
 20
-19.8346275412
 10
-19.7291989014
 20
-19.8352303928
 10
-19.7212241289
 20
-19.8362706434
 10
-19.7131118727
 20
-19.8377473832
 10
-19.7048741708
 20
-19.8396597023
 10
-19.6965230615
 20
-19.8420066907
 10
-19.6880705829
 20
-19.8447874386
 10
-19.6795287732
 20
-19.8480010362
 10
-19.67091015
 20
-19.8516450961
 10
-19.6622291492
 20
-19.8557113221
 10
-19.6535006857
 20
-19.8601899405
 10
-19.644739675
 20
-19.8650711777
 10
-19.6359610321
 20
-19.8703452601
 10
-19.6271796723
 20
-19.8760024139
 10
-19.6184105107
 20
-19.8820328656
 10
-19.6096684625
 20
-19.8884268415
 10
-19.6009684431
 20
-19.8951745679
 10
-19.5923246144
 20
-19.9022661894
 10
-19.5837481263
 20
-19.9096915234
 10
-19.5752493758
 20
-19.9174403053
 10
-19.5668387595
 20
-19.9255022707
 10
-19.5585266743
 20
-19.9338671551
 10
-19.550323517
 20
-19.942524694
 10
-19.5422396845
 20
-19.9514646229
 10
-19.5342855735
 20
-19.9606766774
 10
-19.5264715808
 20
-19.970150593
 10
-19.5188084433
 20
-19.9798747439
 10
-19.5113082583
 20
-19.9898320592
 10
-19.5039834628
 20
-20.0000041067
 10
-19.4968464941
 20
-20.0103724542
 10
-19.4899097893
 20
-20.0209186696
 10
-19.4831857858
 20
-20.0316243206
 10
-19.4766869208
 20
-20.0424709751
 10
-19.4704256313
 20
-20.0534402008
 10
-19.4644143547
 20
-20.0645135656
 10
-19.4586644383
 20
-20.0756730356
 10
-19.4531828701
 20
-20.0869021701
 10
-19.4479755481
 20
-20.0981849267
 10
-19.4430483704
 20
-20.109505263
 10
-19.4384072352
 20
-20.1208471365
 10
-19.4340580405
 20
-20.132194505
 10
-19.4300066845
 20
-20.1435313259
 10
-19.4262590653
 20
-20.154841557
 10
-19.4228210808
 20
-20.1661091557
 10
-19.419698114
 20
-20.1773180228
 10
-19.4168934859
 20
-20.1884518305
 10
-19.4144100027
 20
-20.1994941944
 10
-19.41225047
 20
-20.2104287298
 10
-19.410417694
 20
-20.2212390522
 10
-19.4089144803
 20
-20.231908777
 10
-19.4077436351
 20
-20.2424215195
 10
-19.4069079641
 20
-20.2527608953
 10
-19.4064102733
 20
-20.2629105198
  0
LWPOLYLINE
  5
2BD
100
AcDbEntity
  8
CURVE
100
AcDbPolyline
 62
253
  6
CONTINUOUS
 90
85
 70
0
 10
-19.5463487047
 20
-19.526497252
 10
-19.5462861771
 20
-19.531366933
 10
-19.5463999785
 20
-19.5361179205
 10
-19.5466881073
 20
-19.5407437189
 10
-19.5471485621
 20
-19.5452378325
 10
-19.5477793413
 20
-19.5495937653
 10
-19.5485784436
 20
-19.5538050218
 10
-19.5495438672
 20
-19.5578651061
 10
-19.5506736108
 20
-19.5617675224
 10
-19.5519656729
 20
-19.5655057751
 10
-19.5534180519
 20
-19.5690733683
 10
-19.5550287463
 20
-19.5724638062
 10
-19.5566423499
 20
-19.5754109337
 10
-19.5583843633
 20
-19.5782011386
 10
-19.5602518492
 20
-19.5808318165
 10
-19.5622418704
 20
-19.5833003625
 10
-19.5643514895
 20
-19.5856041722
 10
-19.5665777693
 20
-19.5877406407
 10
-19.5689175712
 20
-19.5897072733
 10
-19.571366952
 20
-19.5915020134
 10
-19.5739217672
 20
-19.5931229144
 10
-19.5765778723
 20
-19.5945680296
 10
-19.5793311228
 20
-19.5958354124
 10
-19.5821773742
 20
-19.5969231159
 10
-19.585112542
 20
-19.597829525
 10
-19.5881327812
 20
-19.5985543506
 10
-19.5912343069
 20
-19.5990976347
 10
-19.5944133339
 20
-19.5994594198
 10
-19.5976660773
 20
-19.599639748
 10
-19.6009887521
 20
-19.5996386616
 10
-19.6043776669
 20
-19.5994561748
 10
-19.6078295047
 20
-19.5990921892
 10
-19.611341042
 20
-19.5985465783
 10
-19.6149090557
 20
-19.5978192155
 10
-19.6185303222
 20
-19.5969099744
 10
-19.6222016182
 20
-19.5958187286
 10
-19.6259192244
 20
-19.594545695
 10
-19.629677437
 20
-19.5930924656
 10
-19.6334700564
 20
-19.5914609759
 10
-19.637290883
 20
-19.5896531612
 10
-19.6411337171
 20
-19.587670957
 10
-19.6449923589
 20
-19.5855162989
 10
-19.6488605191
 20
-19.5831916618
 10
-19.6527315491
 20
-19.5807016796
 10
-19.6565987106
 20
-19.5780515254
 10
-19.6604552651
 20
-19.5752463725
 10
-19.6642944744
 20
-19.5722913944
 10
-19.6681096002
 20
-19.5691917642
 10
-19.6718944849
 20
-19.5659524009
 10
-19.6756452951
 20
-19.5625772056
 10
-19.6793587782
 20
-19.5590698249
 10
-19.6830316815
 20
-19.5554339056
 10
-19.6866607524
 20
-19.5516730943
 10
-19.6902427382
 20
-19.5477910378
 10
-19.6937745343
 20
-19.5437908852
 10
-19.6972536267
 20
-19.5396737964
 10
-19.7006776496
 20
-19.5354404335
 10
-19.7040442371
 20
-19.5310914589
 10
-19.7073510233
 20
-19.5266275349
 10
-19.710595642
 20
-19.5220493237
 10
-19.7137749067
 20
-19.5173586481
 10
-19.7168823473
 20
-19.5125619724
 10
-19.7199106728
 20
-19.5076669213
 10
-19.7228525925
 20
-19.5026811197
 10
-19.7257008155
 20
-19.4976121922
 10
-19.7284480508
 20
-19.4924677637
 10
-19.7310858096
 20
-19.4872596318
 10
-19.7336008108
 20
-19.4820162857
 10
-19.7359785751
 20
-19.4767703877
 10
-19.7382074747
 20
-19.4715498469
 10
-19.740287287
 20
-19.4663635608
 10
-19.7422206408
 20
-19.461215674
 10
-19.7440103838
 20
-19.4561077441
 10
-19.7456602401
 20
-19.4510309807
 10
-19.7471741532
 20
-19.4459740063
 10
-19.7485548651
 20
-19.440929432
 10
-19.7498003151
 20
-19.4359058219
 10
-19.7509072413
 20
-19.4309157286
 10
-19.7518726583
 20
-19.4259668936
 10
-19.7526946871
 20
-19.4210478137
 10
-19.7533717254
 20
-19.4161421747
 10
-19.7537831129
 20
-19.4124688461
 10
-19.7541097032
 20
-19.4088283842
 10
-19.7543491579
 20
-19.4052552719
 10
-19.7544991382
 20
-19.4017839922
  0
LWPOLYLINE
  5
2BE
100
AcDbEntity
  8
CURVE
100
AcDbPolyline
 62
253
  6
CONTINUOUS
 90
85
 70
0
 10
-19.7617980564
 20
-19.1609869849
 10
-19.761857139
 20
-19.1561155573
 10
-19.7617402087
 20
-19.1513629677
 10
-19.7614492617
 20
-19.1467357104
 10
-19.7609862938
 20
-19.14224028
 10
-19.760353301
 20
-19.1378831707
 10
-19.7595522794
 20
-19.133670877
 10
-19.7585852247
 20
-19.1296098933
 10
-19.7574541332
 20
-19.1257067139
 10
-19.7561610006
 20
-19.1219678332
 10
-19.754707823
 20
-19.1183997457
 10
-19.7530965963
 20
-19.1150089457
 10
-19.7514827327
 20
-19.1120616008
 10
-19.7497406657
 20
-19.1092712838
 10
-19.7478733197
 20
-19.1066405947
 10
-19.7458836192
 20
-19.1041721334
 10
-19.7437744889
 20
-19.1018685
 10
-19.7415488531
 20
-19.0997322945
 10
-19.7392098372
 20
-19.0977660069
 10
-19.7367613699
 20
-19.0959716871
 10
-19.7342075808
 20
-19.0943512751
 10
-19.7315525993
 20
-19.0929067108
 10
-19.7288005552
 20
-19.0916399342
 10
-19.7259555778
 20
-19.0905528851
 10
-19.7230217373
 20
-19.0896471723
 10
-19.7200028663
 20
-19.0889230791
 10
-19.7169027378
 20
-19.0883805574
 10
-19.7137251251
 20
-19.0880195593
 10
-19.7104738012
 20
-19.0878400369
 10
-19.7071525393
 20
-19.0878419421
 10
-19.7037650194
 20
-19.088025255
 10
-19.7003145496
 20
-19.0883900676
 10
-19.6968043447
 20
-19.0889365003
 10
-19.6932376196
 20
-19.089664673
 10
-19.6896175892
 20
-19.0905747059
 10
-19.6859474685
 20
-19.0916667191
 10
-19.6822309688
 20
-19.0929404896
 10
-19.6784737866
 20
-19.0943944213
 10
-19.6746821148
 20
-19.096026575
 10
-19.6708621466
 20
-19.0978350114
 10
-19.6670200747
 20
-19.0998177911
 10
-19.6631620922
 20
-19.101972975
 10
-19.6592944836
 20
-19.1042980843
 10
-19.655423899
 20
-19.1067884822
 10
-19.6515570803
 20
-19.1094389925
 10
-19.6477007693
 20
-19.1122444391
 10
-19.6438617076
 20
-19.1151996457
 10
-19.6400466372
 20
-19.1182994361
 10
-19.6362617188
 20
-19.1215388897
 10
-19.6325107901
 20
-19.1249141088
 10
-19.6287971078
 20
-19.1284214513
 10
-19.6251239285
 20
-19.1320572751
 10
-19.6214945091
 20
-19.1358179381
 10
-19.6179121062
 20
-19.1396997981
 10
-19.6143798298
 20
-19.1436997104
 10
-19.6109002033
 20
-19.1478165191
 10
-19.6074756035
 20
-19.1520495659
 10
-19.604108407
 20
-19.1563981922
 10
-19.6008009905
 20
-19.1608617394
 10
-19.5975557307
 20
-19.1654395493
 10
-19.5943758256
 20
-19.1701298038
 10
-19.5912677584
 20
-19.1749260476
 10
-19.5882388334
 20
-19.1798206661
 10
-19.5852963552
 20
-19.1848060444
 10
-19.5824476281
 20
-19.189874568
 10
-19.5796999566
 20
-19.195018622
 10
-19.5770618433
 20
-19.2002264195
 10
-19.5745465826
 20
-19.2054694849
 10
-19.5721686672
 20
-19.2107151702
 10
-19.5699397377
 20
-19.2159355787
 10
-19.5678600257
 20
-19.2211218185
 10
-19.5659269106
 20
-19.2262697492
 10
-19.5641375534
 20
-19.2313778171
 10
-19.5624882413
 20
-19.2364548169
 10
-19.5609750427
 20
-19.2415121304
 10
-19.5595952259
 20
-19.2465571507
 10
-19.5583508585
 20
-19.251581318
 10
-19.5572452073
 20
-19.2565720839
 10
-19.5562812654
 20
-19.2615217121
 10
-19.5554609286
 20
-19.2664417143
 10
-19.5547858186
 20
-19.2713484144
 10
-19.5543760396
 20
-19.2750226336
 10
-19.5540511848
 20
-19.2786640623
 10
-19.5538135765
 20
-19.2822382104
 10
-19.5536655366
 20
-19.2857105879
  0
LINE
  5
2BF
100
AcDbEntity
  8
ASSI
100
AcDbLine
 62
7
  6
CONTINUOUS
 10
-20.719678957
 20
17.6980793906
 11
-20.719678957
 21
17.3989651338
  0
LINE
  5
2C0
100
AcDbEntity
  8
ASSI
100
AcDbLine
 62
253
  6
CONTINUOUS
 10
-20.6611003132
 20
17.6164244719
 11
-20.6611003132
 21
17.3173102149
  0
LINE
  5
2C1
100
AcDbEntity
  8
ASSI
100
AcDbLine
 62
7
  6
CONTINUOUS
 10
-20.0048158366
 20
16.5709084131
 11
-20.0048158366
 21
16.8538372955
  0
LINE
  5
2C2
100
AcDbEntity
  8
0
100
AcDbLine
 62
253
  6
CONTINUOUS
 10
-19.9315925319
 20
16.469207967
 11
-19.9315925319
 21
16.811559077
  0
LINE
  5
2C3
100
AcDbEntity
  8
ASSI
100
AcDbLine
 62
7
  6
CONTINUOUS
 10
-19.7988550996
 20
16.7372828204
 11
-19.7988550996
 21
15.596163378
  0
LINE
  5
2C4
100
AcDbEntity
  8
0
100
AcDbLine
 62
253
  6
CONTINUOUS
 10
-19.7256317949
 20
16.7771824166
 11
-19.7256317949
 21
15.4909502381
  0
LINE
  5
2C5
100
AcDbEntity
  8
0
100
AcDbLine
 62
253
  6
CONTINUOUS
 10
-19.5320675088
 20
15.3791886452
 11
-19.5320675088
 21
16.6654208237
  0
LINE
  5
2C6
100
AcDbEntity
  8
0
100
AcDbLine
 62
253
  6
CONTINUOUS
 10
-19.1816262209
 20
15.3879335013
 11
-19.1816262209
 21
16.3785379284
  0
LINE
  5
2C7
100
AcDbEntity
  8
DRAFT
100
AcDbLine
 62
7
  6
CONTINUOUS
 10
-18.7096108363
 20
14.9043124703
 11
-18.7096108363
 21
14.3027754638
  0
LINE
  5
2C8
100
AcDbEntity
  8
0
100
AcDbLine
 62
7
  6
CONTINUOUS
 10
-18.7096108363
 20
14.3027754638
 11
-18.7096108363
 21
14.9043124703
  0
LINE
  5
2C9
100
AcDbEntity
  8
0
100
AcDbLine
 62
7
  6
CONTINUOUS
 10
-18.6389001582
 20
16.0651747017
 11
-18.6389001582
 21
15.7228235917
  0
LINE
  5
2CA
100
AcDbEntity
  8
SMUSSO
100
AcDbLine
 62
7
  6
CONTINUOUS
 10
-18.6389001582
 20
14.863485011
 11
-18.6389001582
 21
14.2619480045
  0
LINE
  5
2CB
100
AcDbEntity
  8
ASSI
100
AcDbLine
 62
253
  6
CONTINUOUS
 10
-18.5965989905
 20
16.1252930254
 11
-18.5965989905
 21
16.4244072825
  0
LWPOLYLINE
  5
2CC
100
AcDbEntity
  8
ASSI
100
AcDbPolyline
 62
253
  6
CONTINUOUS
 90
28
 70
0
 10
-18.5965989905
 20
16.4244072825
 10
-18.5963938557
 20
16.4343432868
 10
-18.5957541518
 20
16.4447910475
 10
-18.5946446541
 20
16.4557430509
 10
-18.5930262798
 20
16.4672146414
 10
-18.5908670588
 20
16.4791620595
 10
-18.5881540305
 20
16.4914784944
 10
-18.5848663224
 20
16.5041341169
 10
-18.5809854507
 20
16.5170939459
 10
-18.5765260165
 20
16.5302325133
 10
-18.5714850208
 20
16.5435056416
 10
-18.5658616769
 20
16.556867874
 10
-18.5596980129
 20
16.57018793
 10
-18.5530128712
 20
16.5834082355
 10
-18.5458188142
 20
16.5964885548
 10
-18.5381673349
 20
16.6093267256
 10
-18.530094241
 20
16.6218619824
 10
-18.5216188915
 20
16.6340637417
 10
-18.5127770267
 20
16.6458799408
 10
-18.5036020653
 20
16.6572658523
 10
-18.4941248602
 20
16.6681831817
 10
-18.4843798933
 20
16.678592576
 10
-18.4744015412
 20
16.6884570769
 10
-18.4642256976
 20
16.6977409692
 10
-18.4538904723
 20
16.7064099933
 10
-18.4434333678
 20
16.7144330571
 10
-18.4328910613
 20
16.7217820587
 10
-18.4223011146
 20
16.7284309641
  0
LINE
  5
2CD
100
AcDbEntity
  8
CURVE
100
AcDbLine
 62
253
  6
CONTINUOUS
 10
-20.7238941629
 20
-20.3059019194
 11
-20.7245055964
 21
-20.3239549205
  0
LWPOLYLINE
  5
2CE
100
AcDbEntity
  8
ASSI
100
AcDbPolyline
 62
7
  6
CONTINUOUS
 90
3
 70
0
 10
-16.0574921276
 20
17.3814764523
 10
-16.0503846642
 20
17.4081025648
 10
-16.045993425
 20
17.4358065983
  0
LWPOLYLINE
  5
2CF
100
AcDbEntity
  8
RACCORDO
100
AcDbPolyline
 62
253
  6
CONTINUOUS
 90
9
 70
0
 10
-10.1015213366
 20
17.6564075745
 10
-10.0718183517
 20
17.6751778272
 10
-10.0457032887
 20
17.6956361104
 10
-10.0234591517
 20
17.7175579933
 10
-10.0053269795
 20
17.7407008207
 10
-9.9915033389
 20
17.7648136722
 10
-9.9821381113
 20
17.7896400912
 10
-9.9773327568
 20
17.8149092012
 10
-9.9766541964
 20
17.8286882798
  0
LWPOLYLINE
  5
2D0
100
AcDbEntity
  8
RACCORDO
100
AcDbPolyline
 62
253
  6
CONTINUOUS
 90
31
 70
0
 10
-10.2752128531
 20
17.9643440475
 10
-10.2628311849
 20
17.9720515345
 10
-10.2521135995
 20
17.9802828397
 10
-10.2430600968
 20
17.9890379633
 10
-10.2356008393
 20
17.9984273368
 10
-10.2298056646
 20
18.0083405286
 10
-10.2258840857
 20
18.0184462436
 10
-10.2239044517
 20
18.0287458201
 10
-10.2237984135
 20
18.0392379198
 10
-10.2255704368
 20
18.0495872331
 10
-10.2292816757
 20
18.0597891607
 10
-10.2348709761
 20
18.0698483019
 10
-10.2421593417
 20
18.0794431443
 10
-10.2512014905
 20
18.0885587381
 10
-10.2619427044
 20
18.097210033
 10
-10.2740398326
 20
18.105120366
 10
-10.2875367506
 20
18.1122657779
 10
-10.3023895829
 20
18.1186702278
 10
-10.3181235527
 20
18.1241289301
 10
-10.334767136
 20
18.1286114146
 10
-10.3522918569
 20
18.1321481515
 10
-10.3701375104
 20
18.1346257649
 10
-10.3883144697
 20
18.1360098664
 10
-10.4068123616
 20
18.1363348445
 10
-10.4250398615
 20
18.1355904884
 10
-10.4429912526
 20
18.1337410184
 10
-10.4606722517
 20
18.1308222141
 10
-10.4775086841
 20
18.1269312039
 10
-10.4933091583
 20
18.1221003638
 10
-10.5082650658
 20
18.1162973178
 10
-10.5223764067
 20
18.1095220658
  0
LINE
  5
2D1
100
AcDbEntity
  8
RACCORDO
100
AcDbLine
 62
253
  6
CONTINUOUS
 10
-14.5377077513
 20
15.9502068099
 11
-14.7144301246
 21
15.8409190433
  0
LWPOLYLINE
  5
2D2
100
AcDbEntity
  8
RACCORDO
100
AcDbPolyline
 62
7
  6
CONTINUOUS
 90
3
 70
0
 10
-14.6648596227
 20
15.9613038384
 10
-14.6626919784
 20
15.9625993601
 10
-14.6604982641
 20
15.9638220321
  0
LINE
  5
2D3
100
AcDbEntity
  8
ASSI
100
AcDbLine
 62
253
  6
CONTINUOUS
 10
6.3148981498
 20
25.6307290755
 11
-6.3852450891
 21
18.2978255395
  0
LINE
  5
2D4
100
AcDbEntity
  8
RACCORDO
100
AcDbLine
 62
253
  6
CONTINUOUS
 10
-12.4932689174
 20
14.5584483999
 11
-11.6155033562
 21
15.065260261
  0
LINE
  5
2D5
100
AcDbEntity
  8
RACCORDO
100
AcDbLine
 62
7
  6
CONTINUOUS
 10
-7.7059256942
 20
17.0906754821
 11
-8.8391815164
 21
16.4363477734
  0
LINE
  5
2D6
100
AcDbEntity
  8
RACCORDO
100
AcDbLine
 62
253
  6
CONTINUOUS
 10
-13.5123759946
 20
16.160490749
 11
-10.2752128531
 21
17.9643440475
  0
LINE
  5
2D7
100
AcDbEntity
  8
RACCORDO
100
AcDbLine
 62
253
  6
CONTINUOUS
 10
-13.1556724303
 20
15.9545345815
 11
-10.1015213366
 21
17.6564075745
  0
LINE
  5
2D8
100
AcDbEntity
  8
RACCORDO
100
AcDbLine
 62
7
  6
CONTINUOUS
 10
-9.7293547153
 20
16.7615872211
 11
-10.1015213366
 21
16.5542037937
  0
LINE
  5
2D9
100
AcDbEntity
  8
RACCORDO
100
AcDbLine
 62
7
  6
CONTINUOUS
 10
-8.8513008324
 20
16.9105493506
 11
-6.6586894859
 21
18.1315864421
  0
LINE
  5
2DA
100
AcDbEntity
  8
RACCORDO
100
AcDbLine
 62
7
  6
CONTINUOUS
 10
-10.6438680784
 20
18.1238357627
 11
-14.660484012
 21
15.9638296964
  0
LINE
  5
2DB
100
AcDbEntity
  8
RACCORDO
100
AcDbLine
 62
253
  6
CONTINUOUS
 10
-10.5223764067
 20
18.1095220658
 11
-14.5377077513
 21
15.9502068099
  0
LINE
  5
2DC
100
AcDbEntity
  8
RACCORDO
100
AcDbLine
 62
7
  6
CONTINUOUS
 10
-10.6116502421
 20
18.1394618316
 11
-10.6439639594
 21
18.123775204
  0
LWPOLYLINE
  5
2DD
100
AcDbEntity
  8
RACCORDO
100
AcDbPolyline
 62
253
  6
CONTINUOUS
 90
7
 70
0
 10
6.3132704643
 20
23.9347515048
 10
6.3354640829
 20
23.9446137008
 10
6.3586011098
 20
23.9491319114
 10
6.3835958931
 20
23.9489985096
 10
6.4100208066
 20
23.9442157777
 10
6.4374237564
 20
23.9348655418
 10
6.4653359157
 20
23.9211077713
  0
LWPOLYLINE
  5
2DE
100
AcDbEntity
  8
ASSI
100
AcDbPolyline
 62
253
  6
CONTINUOUS
 90
7
 70
0
 10
6.3132704643
 20
23.9347515048
 10
6.3354640829
 20
23.9446137008
 10
6.3586011098
 20
23.9491319114
 10
6.3835958931
 20
23.9489985096
 10
6.4100208066
 20
23.9442157777
 10
6.4374237564
 20
23.9348655418
 10
6.4653359157
 20
23.9211077713
  0
LWPOLYLINE
  5
2DF
100
AcDbEntity
  8
RACCORDO
100
AcDbPolyline
 62
7
  6
CONTINUOUS
 90
3
 70
0
 10
-14.6604982641
 20
15.9638220321
 10
-14.6453077031
 20
15.9701652193
 10
-14.6260821708
 20
15.9738970332
  0
LINE
  5
2E0
100
AcDbEntity
  8
CURVE
100
AcDbLine
 62
253
  6
CONTINUOUS
 10
-18.9092869725
 20
-20.2155794966
 11
-19.0870266725
 21
-20.2285290115
  0
LINE
  5
2E1
100
AcDbEntity
  8
CURVE
100
AcDbLine
 62
253
  6
CONTINUOUS
 10
-20.0637543275
 20
-20.2962767651
 11
-20.2390719346
 21
-20.3078277941
  0
LINE
  5
2E2
100
AcDbEntity
  8
CURVE
100
AcDbLine
 62
253
  6
CONTINUOUS
 10
-20.3494307548
 20
-20.0369400153
 11
-20.1742582028
 21
-20.0254727395
  0
LWPOLYLINE
  5
2E3
100
AcDbEntity
  8
CURVE
100
AcDbPolyline
 62
253
  6
CONTINUOUS
 90
85
 70
0
 10
-19.0207191887
 20
-19.9453114833
 10
-19.0181513326
 20
-19.9451834287
 10
-19.0155000494
 20
-19.9451669172
 10
-19.0127909381
 20
-19.9452620753
 10
-19.010049598
 20
-19.9454690294
 10
-19.006376497
 20
-19.9459184213
 10
-19.0026797328
 20
-19.946563065
 10
-18.9989474281
 20
-19.9473992396
 10
-18.9951712753
 20
-19.9484233077
 10
-18.9913572452
 20
-19.9496319677
 10
-18.9875148782
 20
-19.9510220019
 10
-18.9836506638
 20
-19.9525914411
 10
-18.9797588871
 20
-19.9543433093
 10
-18.9758307823
 20
-19.9562818787
 10
-18.9718595114
 20
-19.9584113703
 10
-18.9678459484
 20
-19.9607357989
 10
-18.9637928952
 20
-19.9632591278
 10
-18.9597069255
 20
-19.9659819052
 10
-18.9556096999
 20
-19.968891017
 10
-18.9515266506
 20
-19.9719699339
 10
-18.947480023
 20
-19.9752033535
 10
-18.9434793158
 20
-19.9785808802
 10
-18.9395308407
 20
-19.9820933454
 10
-18.9356409095
 20
-19.9857315804
 10
-18.9318158339
 20
-19.9894864165
 10
-18.9280619257
 20
-19.993348685
 10
-18.9243845629
 20
-19.997310222
 10
-18.9207853885
 20
-20.0013668825
 10
-18.9172651117
 20
-20.0055155263
 10
-18.9138244417
 20
-20.0097530132
 10
-18.9104640877
 20
-20.014076203
 10
-18.9071847589
 20
-20.0184819554
 10
-18.9039875453
 20
-20.0229669801
 10
-18.9008750596
 20
-20.0275273857
 10
-18.8978502954
 20
-20.0321591305
 10
-18.8949162461
 20
-20.0368581731
 10
-18.8920759055
 20
-20.0416204717
 10
-18.8893322668
 20
-20.0464419848
 10
-18.8866885699
 20
-20.0513179012
 10
-18.8841490384
 20
-20.056240331
 10
-18.8817181423
 20
-20.0612006147
 10
-18.8794003515
 20
-20.0661900928
 10
-18.8772001358
 20
-20.0712001057
 10
-18.8751219651
 20
-20.076221994
 10
-18.8731699008
 20
-20.0812471737
 10
-18.8713463697
 20
-20.0862673636
 10
-18.8696533902
 20
-20.0912743581
 10
-18.8680929807
 20
-20.0962599515
 10
-18.8666671595
 20
-20.1012159381
 10
-18.8653779451
 20
-20.1061341124
 10
-18.8642270564
 20
-20.1110069032
 10
-18.8632150161
 20
-20.1158292778
 10
-18.8623420474
 20
-20.1205968381
 10
-18.8616083737
 20
-20.1253051859
 10
-18.8610142182
 20
-20.1299499231
 10
-18.8605598043
 20
-20.1345266515
 10
-18.8602453818
 20
-20.1390308508
 10
-18.8600713073
 20
-20.1434575121
 10
-18.8600379637
 20
-20.1478015043
 10
-18.8601457342
 20
-20.1520576964
 10
-18.8603950019
 20
-20.1562209573
 10
-18.8607861499
 20
-20.160286156
 10
-18.8613193221
 20
-20.1642480515
 10
-18.8619937066
 20
-20.1681009637
 10
-18.8628082523
 20
-20.1718391021
 10
-18.8637619081
 20
-20.1754566768
 10
-18.8648536229
 20
-20.1789478975
 10
-18.8660823458
 20
-20.182306974
 10
-18.8674469229
 20
-20.1855283773
 10
-18.8689457898
 20
-20.1886076226
 10
-18.8705772791
 20
-20.1915404865
 10
-18.8723397237
 20
-20.1943227453
 10
-18.8742314564
 20
-20.1969501755
 10
-18.87625081
 20
-20.1994185535
 10
-18.8785969247
 20
-20.2019253317
 10
-18.8810883195
 20
-20.204234496
 10
-18.8837203792
 20
-20.2063427444
 10
-18.8864884886
 20
-20.2082467746
 10
-18.8893880326
 20
-20.2099432845
 10
-18.8924143959
 20
-20.2114289719
 10
-18.8955629635
 20
-20.2127005347
 10
-18.8988291201
 20
-20.2137546707
 10
-18.9022082506
 20
-20.2145880778
 10
-18.9056957398
 20
-20.2151974538
 10
-18.9092869725
 20
-20.2155794966
  0
LWPOLYLINE
  5
2E4
100
AcDbEntity
  8
CURVE
100
AcDbPolyline
 62
253
  6
CONTINUOUS
 90
85
 70
0
 10
-19.0870266725
 20
-20.2285290115
 10
-19.0895911144
 20
-20.2286550513
 10
-19.0922388082
 20
-20.2286694431
 10
-19.0949441866
 20
-20.2285720791
 10
-19.0976816821
 20
-20.2283628513
 10
-19.1013495216
 20
-20.2279103449
 10
-19.105040857
 20
-20.2272624872
 10
-19.10876754
 20
-20.2264229875
 10
-19.1125378587
 20
-20.2253954743
 10
-19.1163458459
 20
-20.2241832531
 10
-19.1201819705
 20
-20.2227895479
 10
-19.1240397475
 20
-20.2212163324
 10
-19.1279248751
 20
-20.2194605764
 10
-19.1318460972
 20
-20.2175179991
 10
-19.1358102333
 20
-20.2153843725
 10
-19.1398164053
 20
-20.2130556812
 10
-19.1438618106
 20
-20.2105279628
 10
-19.1479398839
 20
-20.2078006747
 10
-19.1520290105
 20
-20.2048869528
 10
-19.1561038131
 20
-20.201803353
 10
-19.1601420958
 20
-20.1985652016
 10
-19.1641343896
 20
-20.1951829073
 10
-19.1680744068
 20
-20.1916656492
 10
-19.17195586
 20
-20.1880226066
 10
-19.1757724614
 20
-20.1842629586
 10
-19.1795179235
 20
-20.1803958846
 10
-19.1831868904
 20
-20.1764295586
 10
-19.1867777323
 20
-20.1723681346
 10
-19.190289751
 20
-20.1682147614
 10
-19.1937222484
 20
-20.163972588
 10
-19.1970745264
 20
-20.1596447633
 10
-19.2003458868
 20
-20.1552344361
 10
-19.203535252
 20
-20.150744906
 10
-19.2066400266
 20
-20.1461800756
 10
-19.2096572359
 20
-20.141543998
 10
-19.2125839049
 20
-20.1368407264
 10
-19.2154170591
 20
-20.1320743141
 10
-19.2181537234
 20
-20.1272488143
 10
-19.2207906779
 20
-20.1223690499
 10
-19.2233237216
 20
-20.1174429232
 10
-19.2257484084
 20
-20.112479106
 10
-19.2280602919
 20
-20.1074862705
 10
-19.230254926
 20
-20.1024730885
 10
-19.2323278646
 20
-20.0974482321
 10
-19.2342750682
 20
-20.0924202968
 10
-19.236094125
 20
-20.0873975733
 10
-19.2377830301
 20
-20.0823882755
 10
-19.2393397783
 20
-20.0774006178
 10
-19.2407623648
 20
-20.0724428141
 10
-19.2420487844
 20
-20.0675230787
 10
-19.24319733
 20
-20.0626489898
 10
-19.2442074853
 20
-20.0578255824
 10
-19.2450790316
 20
-20.0530572556
 10
-19.2458117506
 20
-20.0483484083
 10
-19.2464054236
 20
-20.0437034397
 10
-19.2468598321
 20
-20.0391267489
 10
-19.2471747299
 20
-20.0346228563
 10
-19.2473497597
 20
-20.0301967685
 10
-19.2473845368
 20
-20.0258536136
 10
-19.2472786762
 20
-20.0215985194
 10
-19.2470317931
 20
-20.0174366142
 10
-19.2466435026
 20
-20.0133730257
 10
-19.2461136573
 20
-20.009412992
 10
-19.2454430592
 20
-20.005562191
 10
-19.2446327477
 20
-20.0018264103
 10
-19.2436837622
 20
-19.9982114376
 10
-19.2425971422
 20
-19.9947230609
 10
-19.2413739271
 20
-19.9913670677
 10
-19.2400152583
 20
-19.9881489836
 10
-19.2385226851
 20
-19.9850732848
 10
-19.236897859
 20
-19.9821441852
 10
-19.2351424312
 20
-19.9793658988
 10
-19.2332580532
 20
-19.9767426396
 10
-19.2312463761
 20
-19.9742786214
 10
-19.2289089821
 20
-19.9717768026
 10
-19.2264266386
 20
-19.9694727935
 10
-19.2238039271
 20
-19.9673698784
 10
-19.2210454291
 20
-19.9654713421
 10
-19.2181557262
 20
-19.9637804691
 10
-19.2151393998
 20
-19.9623005439
 10
-19.2120010315
 20
-19.9610348511
 10
-19.2087452029
 20
-19.9599866753
 10
-19.2053764954
 20
-19.959159301
 10
-19.2018994906
 20
-19.9585560129
 10
-19.19831877
 20
-19.9581800955
  0
LWPOLYLINE
  5
2E5
100
AcDbEntity
  8
CURVE
100
AcDbPolyline
 62
253
  6
CONTINUOUS
 90
85
 70
0
 10
-20.1742582028
 20
-20.0254727395
 10
-20.171724628
 20
-20.0253649098
 10
-20.1691085978
 20
-20.0253692066
 10
-20.1664353422
 20
-20.0254855478
 10
-20.1637300914
 20
-20.0257138515
 10
-20.1601050126
 20
-20.0261917043
 10
-20.1564562225
 20
-20.0268648173
 10
-20.1527720367
 20
-20.027729552
 10
-20.1490442871
 20
-20.0287823266
 10
-20.1452788701
 20
-20.0300197842
 10
-20.1414851984
 20
-20.0314386245
 10
-20.1376696763
 20
-20.0330368161
 10
-20.1338266745
 20
-20.0348174048
 10
-20.1299475552
 20
-20.0367847055
 10
-20.1260255785
 20
-20.0389429676
 10
-20.1220615964
 20
-20.0412961784
 10
-20.1180583584
 20
-20.0438482595
 10
-20.1140223365
 20
-20.0465996974
 10
-20.1099748925
 20
-20.049537237
 10
-20.1059411103
 20
-20.052644188
 10
-20.1019429331
 20
-20.0559051085
 10
-20.0979897413
 20
-20.0593095507
 10
-20.0940877743
 20
-20.0628483156
 10
-20.0902432716
 20
-20.0665122037
 10
-20.0864624729
 20
-20.0702920159
 10
-20.0827516175
 20
-20.074178553
 10
-20.0791160233
 20
-20.0781636249
 10
-20.0755573213
 20
-20.0822430783
 10
-20.0720762208
 20
-20.086413769
 10
-20.0686734309
 20
-20.0906725529
 10
-20.0653496609
 20
-20.0950162859
 10
-20.0621056201
 20
-20.0994418238
 10
-20.0589423928
 20
-20.1039458703
 10
-20.0558625633
 20
-20.1085245208
 10
-20.0528690909
 20
-20.1131737186
 10
-20.0499649349
 20
-20.1178894069
 10
-20.0471530547
 20
-20.1226675289
 10
-20.0444364096
 20
-20.1275040279
 10
-20.0418182037
 20
-20.1323940765
 10
-20.0393026199
 20
-20.1373297639
 10
-20.0368940858
 20
-20.1423024089
 10
-20.034597029
 20
-20.1473033302
 10
-20.0324158771
 20
-20.1523238465
 10
-20.0303550579
 20
-20.1573552764
 10
-20.0284185958
 20
-20.1623890179
 10
-20.0266089034
 20
-20.1674167864
 10
-20.02492799
 20
-20.1724303765
 10
-20.0233778653
 20
-20.177421583
 10
-20.0219605386
 20
-20.1823822005
 10
-20.0206780193
 20
-20.1873040236
 10
-20.0195320209
 20
-20.1921794816
 10
-20.0185230718
 20
-20.1970035427
 10
-20.0176514045
 20
-20.2017718092
 10
-20.0169172513
 20
-20.2064798838
 10
-20.0163208448
 20
-20.2111233691
 10
-20.0158624174
 20
-20.2156978677
 10
-20.0155422284
 20
-20.2201988618
 10
-20.0153606448
 20
-20.2246213524
 10
-20.0153180609
 20
-20.2289602202
 10
-20.0154148704
 20
-20.2332103458
 10
-20.0156514677
 20
-20.2373666099
 10
-20.0160282465
 20
-20.2414238932
 10
-20.0165453653
 20
-20.2453769645
 10
-20.0172020393
 20
-20.2492201465
 10
-20.0179972481
 20
-20.2529476499
 10
-20.0189299713
 20
-20.2565536856
 10
-20.0199991883
 20
-20.2600324644
 10
-20.0212038788
 20
-20.2633781971
 10
-20.022542919
 20
-20.2665853583
 10
-20.0240147723
 20
-20.2696494776
 10
-20.0256177987
 20
-20.2725663483
 10
-20.0273503584
 20
-20.2753317637
 10
-20.0292108113
 20
-20.2779415172
 10
-20.0311975176
 20
-20.2803914019
 10
-20.0335064964
 20
-20.2828770973
 10
-20.035959237
 20
-20.2851642667
 10
-20.0385512009
 20
-20.2872496473
 10
-20.0412778495
 20
-20.2891299764
 10
-20.0441346443
 20
-20.2908019912
 10
-20.0471170469
 20
-20.2922624289
 10
-20.0502205186
 20
-20.2935080269
 10
-20.0534405211
 20
-20.2945355222
 10
-20.0567725157
 20
-20.2953416522
 10
-20.060211964
 20
-20.2959231541
 10
-20.0637543275
 20
-20.2962767651
  0
LWPOLYLINE
  5
2E6
100
AcDbEntity
  8
CURVE
100
AcDbPolyline
 62
253
  6
CONTINUOUS
 90
85
 70
0
 10
-20.2390719346
 20
-20.3078277941
 10
-20.2416024366
 20
-20.3079338032
 10
-20.2442152349
 20
-20.3079275887
 10
-20.2468851271
 20
-20.307809249
 10
-20.2495869108
 20
-20.3075788822
 10
-20.2532072385
 20
-20.3070981977
 10
-20.2568511181
 20
-20.3064221555
 10
-20.2605302099
 20
-20.3055543823
 10
-20.2642526628
 20
-20.3044984514
 10
-20.2680125822
 20
-20.303257722
 10
-20.2718005623
 20
-20.3018354999
 10
-20.2756102012
 20
-20.3002338192
 10
-20.2794471122
 20
-20.2984496272
 10
-20.2833199126
 20
-20.2964785995
 10
-20.2872353246
 20
-20.2943164788
 10
-20.291192491
 20
-20.2919592755
 10
-20.2951886594
 20
-20.2894030671
 10
-20.2992173638
 20
-20.2866473706
 10
-20.3032572814
 20
-20.2837054625
 10
-20.3072833757
 20
-20.2805940587
 10
-20.3112737466
 20
-20.2773286241
 10
-20.3152190409
 20
-20.2739196188
 10
-20.3191130418
 20
-20.2703762516
 10
-20.3229495328
 20
-20.2667077313
 10
-20.3267222971
 20
-20.2629232669
 10
-20.3304251182
 20
-20.259032067
 10
-20.334052699
 20
-20.2550423312
 10
-20.3376034207
 20
-20.250958222
 10
-20.3410765842
 20
-20.2467828924
 10
-20.3444714904
 20
-20.2425194954
 10
-20.34778744
 20
-20.2381711843
 10
-20.3510237339
 20
-20.233741112
 10
-20.3541792992
 20
-20.2292325845
 10
-20.3572515681
 20
-20.2246495187
 10
-20.360237599
 20
-20.2199959843
 10
-20.3631344505
 20
-20.2152760512
 10
-20.3659391808
 20
-20.210493789
 10
-20.3686488484
 20
-20.2056532676
 10
-20.3712602683
 20
-20.2007593271
 10
-20.3737692813
 20
-20.1958198899
 10
-20.3761714847
 20
-20.1908436488
 10
-20.3784624759
 20
-20.1858392965
 10
-20.3806378521
 20
-20.1808155258
 10
-20.3826932107
 20
-20.1757810295
 10
-20.3846245503
 20
-20.170744421
 10
-20.3864294749
 20
-20.1657139959
 10
-20.3881059897
 20
-20.1606979704
 10
-20.3896521
 20
-20.1557045608
 10
-20.3910658111
 20
-20.1507419834
 10
-20.3923451283
 20
-20.1458184544
 10
-20.3934883518
 20
-20.1409415534
 10
-20.3944949615
 20
-20.1361163136
 10
-20.3953647323
 20
-20.1313471314
 10
-20.3960974391
 20
-20.1266384033
 10
-20.3966928567
 20
-20.1219945258
 10
-20.39715076
 20
-20.1174198955
 10
-20.3974708958
 20
-20.1129190288
 10
-20.397652898
 20
-20.1084969228
 10
-20.3976963726
 20
-20.1041586944
 10
-20.3976009253
 20
-20.0999094607
 10
-20.397366162
 20
-20.0957543386
 10
-20.3969916887
 20
-20.091698445
 10
-20.3964773452
 20
-20.0877470088
 10
-20.3958239079
 20
-20.083905705
 10
-20.3950323873
 20
-20.0801803206
 10
-20.394103794
 20
-20.0765766424
 10
-20.3930391383
 20
-20.0731004571
 10
-20.3918394308
 20
-20.0697575518
 10
-20.3905057843
 20
-20.0665534483
 10
-20.3890397204
 20
-20.0634926093
 10
-20.3874428633
 20
-20.0605792323
 10
-20.3857168369
 20
-20.0578175151
 10
-20.3838632654
 20
-20.0552116553
 10
-20.3818837727
 20
-20.0527658505
 10
-20.3795830214
 20
-20.0502848076
 10
-20.377138851
 20
-20.048002487
 10
-20.3745557664
 20
-20.0459221367
 10
-20.3718382724
 20
-20.0440470045
 10
-20.3689908739
 20
-20.0423803384
 10
-20.3660180755
 20
-20.0409253864
 10
-20.3629243821
 20
-20.0396853964
 10
-20.3597142986
 20
-20.0386636164
 10
-20.3563923296
 20
-20.0378632942
 10
-20.3529629801
 20
-20.0372876779
 10
-20.3494307548
 20
-20.0369400153
  0
LINE
  5
2E7
100
AcDbEntity
  8
CURVE
100
AcDbLine
 62
253
  6
CONTINUOUS
 10
-20.9359134261
 20
-18.3885850678
 11
-20.9213993028
 21
-18.3894530038
  0
LINE
  5
2E8
100
AcDbEntity
  8
DRAFT
100
AcDbLine
 62
7
  6
CONTINUOUS
 10
-4.5538159554
 20
-21.0036106689
 11
-4.4445700991
 21
-21.0666878571
  0
LINE
  5
2E9
100
AcDbEntity
  8
DRAFT
100
AcDbLine
 62
7
  6
CONTINUOUS
 10
-3.9649024297
 20
-19.7390466679
 11
-2.9933240513
 21
-20.3000238468
  0
LINE
  5
2EA
100
AcDbEntity
  8
ASSI
100
AcDbLine
 62
253
  6
CONTINUOUS
 10
-18.3162459602
 20
16.123880387
 11
-18.3162459602
 21
16.4229946441
  0
LINE
  5
2EB
100
AcDbEntity
  8
0
100
AcDbLine
 62
253
  6
CONTINUOUS
 10
-17.9118932095
 20
15.303058891
 11
-17.9118932095
 21
15.9293856559
  0
LINE
  5
2EC
100
AcDbEntity
  8
ASSI
100
AcDbLine
 62
253
  6
CONTINUOUS
 10
-17.5614519216
 20
16.0266189539
 11
-17.5614519216
 21
15.3118037471
  0
LINE
  5
2ED
100
AcDbEntity
  8
SMUSSO
100
AcDbLine
 62
7
  6
CONTINUOUS
 10
-16.8004225271
 20
13.2434009909
 11
-16.8004225271
 21
13.3120415563
  0
LINE
  5
2EE
100
AcDbEntity
  8
ASSI
100
AcDbLine
 62
7
  6
CONTINUOUS
 10
-16.6590011709
 20
15.8686626014
 11
-16.6590011709
 21
17.4199809978
  0
LINE
  5
2EF
100
AcDbEntity
  8
ASSI
100
AcDbLine
 62
253
  6
CONTINUOUS
 10
-16.1007647604
 20
17.7021836563
 11
-16.1007647604
 21
17.3816920867
  0
LINE
  5
2F0
100
AcDbEntity
  8
ASSI
100
AcDbLine
 62
7
  6
CONTINUOUS
 10
-16.0446331549
 20
17.7826417532
 11
-16.0446327205
 21
17.4619094944
  0
LINE
  5
2F1
100
AcDbEntity
  8
SMUSSO
100
AcDbLine
 62
7
  6
CONTINUOUS
 10
-15.9518943897
 20
13.2690746273
 11
-15.9518943897
 21
13.3120415563
  0
LWPOLYLINE
  5
2F2
100
AcDbEntity
  8
ASSI
100
AcDbPolyline
 62
253
  6
CONTINUOUS
 90
19
 70
0
 10
-16.1007647604
 20
17.3816920867
 10
-16.1007945913
 20
17.3796576852
 10
-16.100927801
 20
17.3775200377
 10
-16.1011643892
 20
17.3752791441
 10
-16.1014994658
 20
17.3729248788
 10
-16.1019379211
 20
17.3704673675
 10
-16.1024944262
 20
17.3679369868
 10
-16.1031728898
 20
17.3653301113
 10
-16.1039694032
 20
17.3626503664
 10
-16.1048869116
 20
17.3599390048
 10
-16.1059297065
 20
17.357193903
 10
-16.1070934963
 20
17.3544171843
 10
-16.1083683516
 20
17.3516564716
 10
-16.1097582268
 20
17.348911739
 10
-16.1112591675
 20
17.3461830123
 10
-16.1128493809
 20
17.3435179912
 10
-16.1145216028
 20
17.3409325754
 10
-16.1162830976
 20
17.3384108651
 10
-16.118133865
 20
17.3359528603
  0
LWPOLYLINE
  5
2F3
100
AcDbEntity
  8
ASSI
100
AcDbPolyline
 62
253
  6
CONTINUOUS
 90
28
 70
0
 10
-18.3162459602
 20
16.4229946441
 10
-18.3162160396
 20
16.4249856689
 10
-18.3160839259
 20
16.4270736221
 10
-18.315849619
 20
16.4292585037
 10
-18.3155176328
 20
16.4315505744
 10
-18.3150834534
 20
16.4339395735
 10
-18.3145335396
 20
16.436394719
 10
-18.3138638503
 20
16.4389192054
 10
-18.3130784267
 20
16.4415098381
 10
-18.3121758507
 20
16.4441262521
 10
-18.3111519232
 20
16.4467698984
 10
-18.3100108435
 20
16.4494393259
 10
-18.308763791
 20
16.4520898169
 10
-18.3074081661
 20
16.4547195211
 10
-18.3059465686
 20
16.4573302888
 10
-18.3043979773
 20
16.4598829534
 10
-18.3027623095
 20
16.4623737155
 10
-18.3010396479
 20
16.4648063745
 10
-18.2992492203
 20
16.4671531618
 10
-18.2973905666
 20
16.4694125852
 10
-18.2954641468
 20
16.4715861369
 10
-18.2934905686
 20
16.4736505247
 10
-18.2914692452
 20
16.4756045969
 10
-18.2894007634
 20
16.4774495052
 10
-18.287307491
 20
16.4791654131
 10
-18.2851968838
 20
16.4807457082
 10
-18.283061486
 20
16.4821970028
 10
-18.2809012976
 20
16.483519297
  0
LINE
  5
2F4
100
AcDbEntity
  8
ASSI
100
AcDbLine
 62
7
  6
CONTINUOUS
 10
-16.045993425
 20
17.4358065983
 11
-16.0446328978
 21
17.461927975
  0
LWPOLYLINE
  5
2F5
100
AcDbEntity
  8
ASSI
100
AcDbPolyline
 62
253
  6
CONTINUOUS
 90
7
 70
0
 10
-16.0446327205
 20
17.7824010637
 10
-16.0460882497
 20
17.7684946155
 10
-16.0508583466
 20
17.7538131412
 10
-16.0588708099
 20
17.7396100197
 10
-16.0699915695
 20
17.7261229074
 10
-16.0840345452
 20
17.71357748
 10
-16.1007647604
 20
17.7021836563
  0
LWPOLYLINE
  5
2F6
100
AcDbEntity
  8
ASSI
100
AcDbPolyline
 62
253
  6
CONTINUOUS
 90
7
 70
0
 10
-16.0446327205
 20
17.4619094942
 10
-16.0460882577
 20
17.4480030081
 10
-16.0508583617
 20
17.4333215378
 10
-16.0588708289
 20
17.4191184227
 10
-16.0699915881
 20
17.4056313187
 10
-16.0840345578
 20
17.3930859007
 10
-16.1007647604
 20
17.3816920867
  0
LINE
  5
2F7
100
AcDbEntity
  8
CURVE
100
AcDbLine
 62
253
  6
CONTINUOUS
 10
-20.7245055964
 20
-20.3239549205
 11
-20.7276160504
 21
-20.3398912828
  0
LINE
  5
2F8
100
AcDbEntity
  8
CURVE
100
AcDbLine
 62
253
  6
CONTINUOUS
 10
-23.4346827902
 20
-18.5723106171
 11
-23.4307607831
 21
-18.5570399882
  0
LWPOLYLINE
  5
2F9
100
AcDbEntity
  8
RACCORDO
100
AcDbPolyline
 62
253
  6
CONTINUOUS
 90
41
 70
0
 10
-8.756353588
 20
15.6461157271
 10
-8.7466135915
 20
15.6573631324
 10
-8.7359245374
 20
15.6684871639
 10
-8.7242864255
 20
15.6794878214
 10
-8.7117075229
 20
15.6903966284
 10
-8.6981795626
 20
15.7011820614
 10
-8.6836777436
 20
15.7117495509
 10
-8.6681712843
 20
15.7221096485
 10
-8.6516909663
 20
15.7322518026
 10
-8.6343043331
 20
15.7420497884
 10
-8.615966064
 20
15.7515067335
 10
-8.5967214797
 20
15.7606195103
 10
-8.5767740848
 20
15.7692525118
 10
-8.5561424896
 20
15.7773808327
 10
-8.5348080838
 20
15.7850293783
 10
-8.5129185412
 20
15.7921372568
 10
-8.4904794499
 20
15.7986963876
 10
-8.4674852219
 20
15.8047148514
 10
-8.4440667666
 20
15.8101559986
 10
-8.4202188856
 20
15.8150166379
 10
-8.3959467774
 20
15.8192999606
 10
-8.371396947
 20
15.8229788904
 10
-8.3465669269
 20
15.8260492306
 10
-8.3214591846
 20
15.8285151779
 10
-8.2962276271
 20
15.8303622457
 10
-8.270870955
 20
15.8315860018
 10
-8.2453904677
 20
15.8321908783
 10
-8.2199439706
 20
15.8321756852
 10
-8.1945312994
 20
15.8315358356
 10
-8.1691526184
 20
15.8302759163
 10
-8.1439662257
 20
15.8284084976
 10
-8.1189741611
 20
15.8259291393
 10
-8.0941743848
 20
15.8228422814
 10
-8.0697190749
 20
15.8191738148
 10
-8.0456091625
 20
15.8149189035
 10
-8.0218437165
 20
15.8100823835
 10
-7.9985721226
 20
15.8047046529
 10
-7.9758036468
 20
15.7987834024
 10
-7.953529023
 20
15.7923209413
 10
-7.9318698387
 20
15.7853645963
 10
-7.9108194222
 20
15.7779057059
  0
LWPOLYLINE
  5
2FA
100
AcDbEntity
  8
RACCORDO
100
AcDbPolyline
 62
253
  6
CONTINUOUS
 90
7
 70
0
 10
-8.8109814321
 20
15.5834569808
 10
-8.8017435128
 20
15.5937288071
 10
-8.792558905
 20
15.6040691526
 10
-8.7834276086
 20
15.6144780174
 10
-8.7743496236
 20
15.6249554014
 10
-8.7653249501
 20
15.6355013046
 10
-8.756353588
 20
15.6461157271
  0
LINE
  5
2FB
100
AcDbEntity
  8
RACCORDO
100
AcDbLine
 62
7
  6
CONTINUOUS
 10
-10.7458786939
 20
13.9291756336
 11
-9.3251746013
 21
15.4391099752
  0
LINE
  5
2FC
100
AcDbEntity
  8
RACCORDO
100
AcDbLine
 62
253
  6
CONTINUOUS
 10
-10.2068143515
 20
14.2151896127
 11
-9.0667241215
 21
15.4268855597
  0
LWPOLYLINE
  5
2FD
100
AcDbEntity
  8
RACCORDO
100
AcDbPolyline
 62
7
  6
CONTINUOUS
 90
3
 70
0
 10
-9.3241187991
 20
15.4401654214
 10
-9.316228884
 20
15.4477725447
 10
-9.3021505924
 20
15.458167556
  0
LWPOLYLINE
  5
2FE
100
AcDbEntity
  8
RACCORDO
100
AcDbPolyline
 62
7
  6
CONTINUOUS
 90
4
 70
0
 10
-9.0485973257
 20
15.6255597534
 10
-9.0512293345
 20
15.6234397497
 10
-9.0769551195
 20
15.6029193771
 10
-9.1040296946
 20
15.5816005672
  0
LINE
  5
2FF
100
AcDbEntity
  8
RACCORDO
100
AcDbLine
 62
7
  6
CONTINUOUS
 10
-8.9960719955
 20
15.6651311455
 11
-9.0484924029
 21
15.6256442776
  0
LWPOLYLINE
  5
300
100
AcDbEntity
  8
RACCORDO
100
AcDbPolyline
 62
7
  6
CONTINUOUS
 90
9
 70
0
 10
-11.1305257394
 20
13.7077987546
 10
-11.1560741307
 20
13.6896925689
 10
-11.1794581995
 20
13.6682242881
 10
-11.2001297395
 20
13.6437005446
 10
-11.217621298
 20
13.616497167
 10
-11.2314950321
 20
13.5871615235
 10
-11.2414405275
 20
13.5563216368
 10
-11.2473361332
 20
13.5242614129
 10
-11.2490343287
 20
13.4951206616
  0
LINE
  5
301
100
AcDbEntity
  8
RACCORDO
100
AcDbLine
 62
253
  6
CONTINUOUS
 10
-9.0484924029
 20
15.6256442776
 11
-9.0297202428
 21
15.6384445861
  0
LINE
  5
302
100
AcDbEntity
  8
RACCORDO
100
AcDbLine
 62
7
  6
CONTINUOUS
 10
6.3131937497
 20
23.9346958268
 11
6.2740264658
 21
23.908571488
  0
LINE
  5
303
100
AcDbEntity
  8
ASSI
100
AcDbLine
 62
7
  6
CONTINUOUS
 10
6.3131927762
 20
23.9346952436
 11
6.2740264658
 21
23.908571488
  0
LINE
  5
304
100
AcDbEntity
  8
RACCORDO
100
AcDbLine
 62
7
  6
CONTINUOUS
 10
-9.3005940313
 20
15.4591302933
 11
-9.101761854
 21
15.5820910943
  0
LINE
  5
305
100
AcDbEntity
  8
RACCORDO
100
AcDbLine
 62
253
  6
CONTINUOUS
 10
-9.0645616249
 20
15.4256369613
 11
-8.8101423909
 21
15.5829736319
  0
LINE
  5
306
100
AcDbEntity
  8
DRAFT
100
AcDbLine
 62
7
  6
CONTINUOUS
 10
-10.1712986888
 20
14.5398433203
 11
-11.4387535849
 21
13.7560302004
  0
LINE
  5
307
100
AcDbEntity
  8
RACCORDO
100
AcDbLine
 62
7
  6
CONTINUOUS
 10
-10.952562936
 20
13.8178536217
 11
-11.1305257394
 21
13.7077987546
  0
LINE
  5
308
100
AcDbEntity
  8
RACCORDO
100
AcDbLine
 62
253
  6
CONTINUOUS
 10
-10.8253971501
 20
13.8067651949
 11
-11.0021195234
 21
13.6974774283
  0
LINE
  5
309
100
AcDbEntity
  8
RACCORDO
100
AcDbLine
 62
7
  6
CONTINUOUS
 10
-12.1335177713
 20
13.2557052042
 11
-12.316519146
 21
13.1427838776
  0
LINE
  5
30A
100
AcDbEntity
  8
RACCORDO
100
AcDbLine
 62
7
  6
CONTINUOUS
 10
6.3131894443
 20
23.9347030257
 11
7.7104684777
 21
24.769883389
  0
LINE
  5
30B
100
AcDbEntity
  8
ASSI
100
AcDbLine
 62
7
  6
CONTINUOUS
 10
6.3131884708
 20
23.9347024426
 11
7.7104684777
 21
24.769883389
  0
LINE
  5
30C
100
AcDbEntity
  8
RACCORDO
100
AcDbLine
 62
253
  6
CONTINUOUS
 10
6.4653359157
 20
23.9211077713
 11
7.8618057446
 21
24.7558044057
  0
LINE
  5
30D
100
AcDbEntity
  8
ASSI
100
AcDbLine
 62
253
  6
CONTINUOUS
 10
6.4653359157
 20
23.9211077713
 11
7.8618057446
 21
24.7558044057
  0
LWPOLYLINE
  5
30E
100
AcDbEntity
  8
RACCORDO
100
AcDbPolyline
 62
7
  6
CONTINUOUS
 90
3
 70
0
 10
-10.9525490214
 20
13.8178622234
 10
-10.9503813772
 20
13.8191577451
 10
-10.9481876628
 20
13.8203804171
  0
LINE
  5
30F
100
AcDbEntity
  8
ASSI
100
AcDbLine
 62
7
  6
CONTINUOUS
 10
-11.4387535849
 20
13.6696812461
 11
-12.1335177713
 21
13.2557052042
  0
LINE
  5
310
100
AcDbEntity
  8
RACCORDO
100
AcDbLine
 62
7
  6
CONTINUOUS
 10
-9.921682678
 20
14.8123458586
 11
-11.4387535849
 21
13.9211212223
  0
LINE
  5
311
100
AcDbEntity
  8
RACCORDO
100
AcDbLine
 62
253
  6
CONTINUOUS
 10
-12.316519146
 20
14.2523088161
 11
-11.4387535849
 21
14.7591206771
  0
LINE
  5
312
100
AcDbEntity
  8
ASSI
100
AcDbLine
 62
253
  6
CONTINUOUS
 10
6.8169439645
 20
24.7611602177
 11
-5.9468209553
 21
17.3915223206
  0
LINE
  5
313
100
AcDbEntity
  8
0
100
AcDbLine
 62
7
  6
CONTINUOUS
 10
6.1098371833
 20
22.7606454853
 11
-4.595916651
 21
16.579277396
  0
LINE
  5
314
100
AcDbEntity
  8
0
100
AcDbLine
 62
7
  6
CONTINUOUS
 10
-4.461579346
 20
16.5017127197
 11
6.1098371833
 21
22.6055161327
  0
LINE
  5
315
100
AcDbEntity
  8
RACCORDO
100
AcDbLine
 62
7
  6
CONTINUOUS
 10
-10.2286843836
 20
14.2073059966
 11
-10.9481734108
 21
13.8203880814
  0
LINE
  5
316
100
AcDbEntity
  8
RACCORDO
100
AcDbLine
 62
253
  6
CONTINUOUS
 10
-10.1059477741
 20
14.193661787
 11
-10.8253971501
 21
13.8067651949
  0
LWPOLYLINE
  5
317
100
AcDbEntity
  8
RACCORDO
100
AcDbPolyline
 62
7
  6
CONTINUOUS
 90
3
 70
0
 10
-9.3021505924
 20
15.458167556
 10
-9.2809154157
 20
15.4684411091
 10
-9.2365828476
 20
15.4768251019
  0
LWPOLYLINE
  5
318
100
AcDbEntity
  8
RACCORDO
100
AcDbPolyline
 62
253
  6
CONTINUOUS
 90
3
 70
0
 10
-9.0297202428
 20
15.6384445861
 10
-8.9960920477
 20
15.6534341613
 10
-8.9565399356
 20
15.6630856407
  0
LWPOLYLINE
  5
319
100
AcDbEntity
  8
RACCORDO
100
AcDbPolyline
 62
7
  6
CONTINUOUS
 90
3
 70
0
 10
-10.9481876628
 20
13.8203804171
 10
-10.9329971019
 20
13.8267236043
 10
-10.9137715696
 20
13.8304554182
  0
LWPOLYLINE
  5
31A
100
AcDbEntity
  8
RACCORDO
100
AcDbPolyline
 62
7
  6
CONTINUOUS
 90
4
 70
0
 10
-8.6861664259
 20
15.8164622639
 10
-8.7947981023
 20
15.7763987431
 10
-8.8984471418
 20
15.7260508573
 10
-8.9960719955
 20
15.6651311455
  0
LINE
  5
31B
100
AcDbEntity
  8
CURVE
100
AcDbLine
 62
253
  6
CONTINUOUS
 10
-20.7629738804
 20
-20.3770096924
 11
-20.7764181972
 21
-20.3784199953
  0
LINE
  5
31C
100
AcDbEntity
  8
CURVE
100
AcDbLine
 62
253
  6
CONTINUOUS
 10
-19.19831877
 20
-19.9581800955
 11
-19.0207191887
 21
-19.9453114833
  0
LWPOLYLINE
  5
31D
100
AcDbEntity
  8
CURVE
100
AcDbPolyline
 62
253
  6
CONTINUOUS
 90
10
 70
0
 10
-20.97778595
 20
-18.6698475797
 10
-21.1959798007
 20
-18.6832944701
 10
-21.4148203704
 20
-18.6964859715
 10
-21.6342699402
 20
-18.7094181796
 10
-21.854313567
 20
-18.7220884681
 10
-22.075027412
 20
-18.7344993244
 10
-22.2965104121
 20
-18.746654514
 10
-22.5188387351
 20
-18.7585565338
 10
-22.7419974735
 20
-18.7702028057
 10
-22.9659489502
 20
-18.7815894829
  0
LWPOLYLINE
  5
31E
100
AcDbEntity
  8
CURVE
100
AcDbPolyline
 62
253
  6
CONTINUOUS
 90
13
 70
0
 10
-23.389388584
 20
-18.5240804034
 10
-23.1813724684
 20
-18.5140149193
 10
-22.9740236701
 20
-18.5037232524
 10
-22.76736908
 20
-18.4932081601
 10
-22.561435589
 20
-18.4824724001
 10
-22.3562339194
 20
-18.4715178592
 10
-22.1517101202
 20
-18.4603429426
 10
-21.9477940721
 20
-18.448945185
 10
-21.7444156557
 20
-18.437322121
 10
-21.5415209628
 20
-18.4254721849
 10
-21.339120929
 20
-18.4133974092
 10
-21.1372427011
 20
-18.4011007261
 10
-20.9359134261
 20
-18.3885850678
  0
LINE
  5
31F
100
AcDbEntity
  8
ASSI
100
AcDbLine
 62
7
  6
CONTINUOUS
 10
1.9082046489
 20
-21.2941835507
 11
1.8624350524
 21
-21.2677567593
  0
LWPOLYLINE
  5
320
100
AcDbEntity
  8
ASSI
100
AcDbPolyline
 62
7
  6
CONTINUOUS
 90
13
 70
0
 10
-16.6590011709
 20
17.4199809978
 10
-16.6602047878
 20
17.4419941701
 10
-16.6638140178
 20
17.4650231144
 10
-16.6697629272
 20
17.4886765803
 10
-16.6779450595
 20
17.5125531233
 10
-16.6882195941
 20
17.5362447248
 10
-16.7004136063
 20
17.559343783
 10
-16.7143210265
 20
17.5814537318
 10
-16.7297014524
 20
17.6021978253
 10
-16.74628835
 20
17.6212225005
 10
-16.7637987706
 20
17.6382017859
 10
-16.7819382745
 20
17.652842754
 10
-16.800400988
 20
17.6648926649
  0
LWPOLYLINE
  5
321
100
AcDbEntity
  8
ASSI
100
AcDbPolyline
 62
7
  6
CONTINUOUS
 90
10
 70
0
 10
-16.0446331959
 20
17.7826417531
 10
-16.0451639097
 20
17.7985599496
 10
-16.0487532675
 20
17.8269688925
 10
-16.0556994472
 20
17.8544930613
 10
-16.0659135041
 20
17.880753054
 10
-16.0791199004
 20
17.905166893
 10
-16.0950734268
 20
17.9274761265
 10
-16.1136503831
 20
17.9475699278
 10
-16.1344953132
 20
17.9650868877
 10
-16.1547405473
 20
17.9783507305
  0
LINE
  5
322
100
AcDbEntity
  8
RACCORDO
100
AcDbLine
 62
7
  6
CONTINUOUS
 10
-14.9613449459
 20
15.6386139057
 11
-14.9613449459
 21
14.5217228269
  0
LINE
  5
323
100
AcDbEntity
  8
RACCORDO
100
AcDbLine
 62
253
  6
CONTINUOUS
 10
-14.8881216412
 20
15.5365452574
 11
-14.8881216412
 21
14.416509665
  0
LWPOLYLINE
  5
324
100
AcDbEntity
  8
RACCORDO
100
AcDbPolyline
 62
253
  6
CONTINUOUS
 90
16
 70
0
 10
-14.8881216412
 20
15.5365452574
 10
-14.8871654167
 20
15.5582992668
 10
-14.8843079069
 20
15.5809172046
 10
-14.8795812296
 20
15.6041540036
 10
-14.8730420745
 20
15.6277441088
 10
-14.8647599067
 20
15.651446408
 10
-14.8548060491
 20
15.6750469295
 10
-14.8432540237
 20
15.6983389701
 10
-14.8302426711
 20
15.7210145177
 10
-14.8159784151
 20
15.7427214983
 10
-14.8006427409
 20
15.7632150266
 10
-14.7843981617
 20
15.782306819
 10
-14.7674608354
 20
15.7997736085
 10
-14.7500325157
 20
15.8154456464
 10
-14.7322926939
 20
15.8291983461
 10
-14.7144301246
 20
15.8409190433
  0
LWPOLYLINE
  5
325
100
AcDbEntity
  8
RACCORDO
100
AcDbPolyline
 62
253
  6
CONTINUOUS
 90
16
 70
0
 10
-12.6669604339
 20
14.254074614
 10
-12.6660042097
 20
14.2758286201
 10
-12.6631467005
 20
14.2984465563
 10
-12.6584200234
 20
14.3216833557
 10
-12.6518808675
 20
14.3452734646
 10
-12.6435986975
 20
14.3689757696
 10
-12.6336448379
 20
14.3925762947
 10
-12.6220928119
 20
14.4158683352
 10
-12.6090814599
 20
14.4385438807
 10
-12.5948172054
 20
14.4602508584
 10
-12.5794815343
 20
14.4807443823
 10
-12.5632369596
 20
14.49983617
 10
-12.5462996359
 20
14.5173029576
 10
-12.5288713159
 20
14.5329749968
 10
-12.5111314915
 20
14.5467276992
 10
-12.4932689174
 20
14.5584483999
  0
LINE
  5
326
100
AcDbEntity
  8
CURVE
100
AcDbLine
 62
253
  6
CONTINUOUS
 10
-23.4307607831
 20
-18.5570399882
 11
-23.4290281609
 21
-18.5527344002
  0
LWPOLYLINE
  5
327
100
AcDbEntity
  8
RACCORDO
100
AcDbPolyline
 62
7
  6
CONTINUOUS
 90
9
 70
0
 10
6.2740075591
 20
23.9085588774
 10
6.2354927379
 20
23.8764675571
 10
6.202046276
 20
23.8414210172
 10
6.1739821145
 20
23.8042494698
 10
6.1511047925
 20
23.7652793258
 10
6.1330827808
 20
23.7242801562
 10
6.120071667
 20
23.6815609896
 10
6.112330772
 20
23.638021161
 10
6.1098505922
 20
23.5953536917
  0
LWPOLYLINE
  5
328
100
AcDbEntity
  8
ASSI
100
AcDbPolyline
 62
7
  6
CONTINUOUS
 90
9
 70
0
 10
6.2740264658
 20
23.908571488
 10
6.2355173919
 20
23.8764906029
 10
6.2020622836
 20
23.8414398642
 10
6.1739905691
 20
23.8042621376
 10
6.1511074107
 20
23.7652844458
 10
6.1330821542
 20
23.7242784669
 10
6.1200700944
 20
23.681554439
 10
6.1123296505
 20
23.6380115218
 10
6.1098505923
 20
23.5953532681
  0
LWPOLYLINE
  5
329
100
AcDbEntity
  8
ASSI
100
AcDbPolyline
 62
7
  6
CONTINUOUS
 90
16
 70
0
 10
-4.6000041448
 20
13.7730518409
 10
-4.5765657978
 20
13.7910515517
 10
-4.5563441103
 20
13.8126898075
 10
-4.5393390823
 20
13.8379666084
 10
-4.5254482992
 20
13.8671801864
 10
-4.5147741755
 20
13.9000323096
 10
-4.5076239549
 20
13.9356282815
 10
-4.5041000519
 20
13.9741426643
 10
-4.5041000519
 20
14.0154008958
 10
-4.5076239549
 20
14.0579845935
 10
-4.5147741755
 20
14.1018374609
 10
-4.5254482992
 20
14.1470157945
 10
-4.5393390823
 20
14.1922701007
 10
-4.5563441103
 20
14.2371838818
 10
-4.5765657978
 20
14.2821736354
 10
-4.6000041448
 20
14.3272393618
  0
LWPOLYLINE
  5
32A
100
AcDbEntity
  8
ASSI
100
AcDbPolyline
 62
7
  6
CONTINUOUS
 90
10
 70
0
 10
-8.0041848826
 20
10.6621511866
 10
-8.0267645607
 20
10.6464241415
 10
-8.0505187226
 20
10.6254705166
 10
-8.0711534712
 20
10.6025122832
 10
-8.0895302167
 20
10.5768138932
 10
-8.1053067757
 20
10.5485568206
 10
-8.1175385849
 20
10.5194358083
 10
-8.1262537929
 20
10.4898376462
 10
-8.1316297088
 20
10.4586406385
 10
-8.1331781244
 20
10.430732941
  0
LWPOLYLINE
  5
32B
100
AcDbEntity
  8
RACCORDO
100
AcDbPolyline
 62
253
  6
CONTINUOUS
 90
9
 70
0
 10
-4.5436467635
 20
14.4533920198
 10
-4.5145237543
 20
14.4724589398
 10
-4.4890388651
 20
14.4931779307
 10
-4.4674682768
 20
14.5153217475
 10
-4.4500457357
 20
14.5386453708
 10
-4.4369601269
 20
14.5628959149
 10
-4.4283533391
 20
14.5878153776
 10
-4.424318616
 20
14.6131319132
 10
-4.4239948418
 20
14.6226525991
  0
LWPOLYLINE
  5
32C
100
AcDbEntity
  8
RACCORDO
100
AcDbPolyline
 62
253
  6
CONTINUOUS
 90
31
 70
0
 10
-4.7203965348
 20
14.7595316037
 10
-4.7082577204
 20
14.767362916
 10
-4.6977983267
 20
14.7757016514
 10
-4.6890183538
 20
14.7845478098
 10
-4.6818513913
 20
14.7940125325
 10
-4.6763638496
 20
14.8039846781
 10
-4.6727549589
 20
14.8141308231
 10
-4.67109308
 20
14.8244516297
 10
-4.6713098521
 20
14.8349464356
 10
-4.6733994234
 20
14.8452798308
 10
-4.6774227772
 20
14.8554466074
 10
-4.6833189302
 20
14.8654519732
 10
-4.6908990806
 20
14.8749761422
 10
-4.7002174622
 20
14.8840036224
 10
-4.7112198412
 20
14.8925499058
 10
-4.723554715
 20
14.9003416822
 10
-4.7372652012
 20
14.9073545537
 10
-4.7523081821
 20
14.9136129181
 10
-4.7682028025
 20
14.9189166593
 10
-4.7849765893
 20
14.9232350206
 10
-4.8026020155
 20
14.9265987586
 10
-4.8205156455
 20
14.9289000266
 10
-4.8387267907
 20
14.9301043275
 10
-4.8572261397
 20
14.9302461583
 10
-4.8754223218
 20
14.9293211642
 10
-4.8933085161
 20
14.9272936181
 10
-4.9108915436
 20
14.9241992471
 10
-4.9276004959
 20
14.9201408769
 10
-4.9432450704
 20
14.9151527829
 10
-4.9580155699
 20
14.9092006898
 10
-4.9719119942
 20
14.9022845975
  0
LWPOLYLINE
  5
32D
100
AcDbEntity
  8
ASSI
100
AcDbPolyline
 62
253
  6
CONTINUOUS
 90
28
 70
0
 10
-7.9015144509
 20
10.6538606009
 10
-7.9101109332
 20
10.6484447229
 10
-7.9189119277
 20
10.6423929906
 10
-7.9278919629
 20
10.6356819104
 10
-7.937043001
 20
10.6282729789
 10
-7.9463106894
 20
10.620164412
 10
-7.955597149
 20
10.6114031538
 10
-7.9648658554
 20
10.6019895165
 10
-7.9740771433
 20
10.5919283937
 10
-7.983131757
 20
10.5812992568
 10
-7.9919904821
 20
10.5701248862
 10
-8.0006148183
 20
10.5584295359
 10
-8.0089159437
 20
10.5463166217
 10
-8.0168534488
 20
10.5338359047
 10
-8.024402446
 20
10.521016706
 10
-8.0315089059
 20
10.5079447468
 10
-8.0381408952
 20
10.4946784622
 10
-8.0442809051
 20
10.4812524214
 10
-8.0499039486
 20
10.4677206685
 10
-8.0549893048
 20
10.4541330695
 10
-8.05951963
 20
10.4405358583
 10
-8.0634786943
 20
10.4269781402
 10
-8.0668525545
 20
10.413507656
 10
-8.0696291291
 20
10.4001724419
 10
-8.07179844
 20
10.3870215145
 10
-8.0733530397
 20
10.3741019536
 10
-8.0742877712
 20
10.3614588073
 10
-8.0745996081
 20
10.3491367107
  0
LINE
  5
32E
100
AcDbEntity
  8
ASSI
100
AcDbLine
 62
7
  6
CONTINUOUS
 10
-6.4369963335
 20
11.631324298
 11
-8.0042394235
 21
10.662117662
  0
LINE
  5
32F
100
AcDbEntity
  8
ASSI
100
AcDbLine
 62
253
  6
CONTINUOUS
 10
-6.3352637047
 20
11.6224535566
 11
-7.9015144509
 21
10.6538606009
  0
LINE
  5
330
100
AcDbEntity
  8
RACCORDO
100
AcDbLine
 62
7
  6
CONTINUOUS
 10
-8.4212071701
 20
11.1122635892
 11
-8.6042085448
 21
10.9993422627
  0
LWPOLYLINE
  5
331
100
AcDbEntity
  8
ASSI
100
AcDbPolyline
 62
7
  6
CONTINUOUS
 90
3
 70
0
 10
-6.4369852018
 20
11.6313311794
 10
-6.4352510864
 20
11.6323675967
 10
-6.433496115
 20
11.6333457343
  0
LINE
  5
332
100
AcDbEntity
  8
ASSI
100
AcDbLine
 62
7
  6
CONTINUOUS
 10
5.6855731146
 20
21.1765637361
 11
6.1417657559
 21
21.4399636498
  0
LINE
  5
333
100
AcDbEntity
  8
RACCORDO
100
AcDbLine
 62
253
  6
CONTINUOUS
 10
-8.7809583162
 20
12.415006785
 11
-4.7203965348
 21
14.7595316037
  0
LINE
  5
334
100
AcDbEntity
  8
ASSI
100
AcDbLine
 62
7
  6
CONTINUOUS
 10
6.1805000279
 20
20.8907991393
 11
6.6047572633
 21
21.1357599498
  0
LINE
  5
335
100
AcDbEntity
  8
RACCORDO
100
AcDbLine
 62
253
  6
CONTINUOUS
 10
-8.6042085448
 20
12.1088672011
 11
-4.5436467635
 21
14.4533920198
  0
LINE
  5
336
100
AcDbEntity
  8
RACCORDO
100
AcDbLine
 62
7
  6
CONTINUOUS
 10
-8.4212071701
 20
11.1122635892
 11
-4.5436467635
 21
13.351126058
  0
LINE
  5
337
100
AcDbEntity
  8
RACCORDO
100
AcDbLine
 62
7
  6
CONTINUOUS
 10
-4.4239948418
 20
14.4421689671
 11
-2.3101581532
 21
15.6207989505
  0
LINE
  5
338
100
AcDbEntity
  8
RACCORDO
100
AcDbLine
 62
7
  6
CONTINUOUS
 10
-5.0966876889
 20
14.9148004223
 11
-8.2813856117
 21
13.1401824616
  0
LINE
  5
339
100
AcDbEntity
  8
RACCORDO
100
AcDbLine
 62
253
  6
CONTINUOUS
 10
-4.9719119942
 20
14.9022845975
 11
-8.2090751357
 21
13.098431299
  0
LINE
  5
33A
100
AcDbEntity
  8
ASSI
100
AcDbLine
 62
253
  6
CONTINUOUS
 10
-5.792537642
 20
11.9143140698
 11
-6.3352637047
 21
11.6224535566
  0
LINE
  5
33B
100
AcDbEntity
  8
ASSI
100
AcDbLine
 62
7
  6
CONTINUOUS
 10
-5.8895687395
 20
11.9258519859
 11
-6.4334847133
 21
11.6333518657
  0
LINE
  5
33C
100
AcDbEntity
  8
RACCORDO
100
AcDbLine
 62
7
  6
CONTINUOUS
 10
-5.0605525822
 20
14.9327424496
 11
-5.0967506479
 21
14.9147562037
  0
LWPOLYLINE
  5
33D
100
AcDbEntity
  8
ASSI
100
AcDbPolyline
 62
7
  6
CONTINUOUS
 90
4
 70
0
 10
-6.433496115
 20
11.6333457343
 10
-6.4213436662
 20
11.6384202841
 10
-6.4059632404
 20
11.6414057352
 10
-6.3893763427
 20
11.64127131
  0
LINE
  5
33E
100
AcDbEntity
  8
CURVE
100
AcDbLine
 62
253
  6
CONTINUOUS
 10
-23.4019827141
 20
-18.5264194121
 11
-23.389388584
 21
-18.5240804034
  0
LINE
  5
33F
100
AcDbEntity
  8
0
100
AcDbLine
 62
253
  6
CONTINUOUS
 10
3.8315255319
 20
-19.0675278619
 11
3.8117401444
 21
-19.0561040272
  0
LWPOLYLINE
  5
340
100
AcDbEntity
  8
RACCORDO
100
AcDbPolyline
 62
253
  6
CONTINUOUS
 90
16
 70
0
 10
-12.316519146
 20
14.2523088161
 10
-12.3177980876
 20
14.2740233033
 10
-12.3209649959
 20
14.2966371721
 10
-12.3259851881
 20
14.3199027559
 10
-12.3328036869
 20
14.3435652589
 10
-12.3413458156
 20
14.367365521
 10
-12.3515180098
 20
14.3910428561
 10
-12.3632088523
 20
14.414337937
 10
-12.3762903069
 20
14.4369956524
 10
-12.3906191131
 20
14.4587678725
 10
-12.4060383444
 20
14.4794161532
 10
-12.4223791275
 20
14.498714353
 10
-12.4394625023
 20
14.5164511236
 10
-12.457101374
 20
14.532432214
 10
-12.4751025616
 20
14.5464825991
 10
-12.4932689174
 20
14.5584483999
  0
LWPOLYLINE
  5
341
100
AcDbEntity
  8
RACCORDO
100
AcDbPolyline
 62
7
  6
CONTINUOUS
 90
13
 70
0
 10
-12.1335177713
 20
14.3579711659
 10
-12.1350222924
 20
14.3854876313
 10
-12.13953383
 20
14.4142738116
 10
-12.1469699667
 20
14.443840644
 10
-12.157197632
 20
14.4736863227
 10
-12.1700408003
 20
14.5033008246
 10
-12.1852833155
 20
14.5321746473
 10
-12.2026675908
 20
14.5598120834
 10
-12.2218931231
 20
14.5857422002
 10
-12.2426267452
 20
14.6095230442
 10
-12.2645147709
 20
14.630747151
 10
-12.2871891509
 20
14.6490483611
 10
-12.3102675427
 20
14.6641107498
  0
LWPOLYLINE
  5
342
100
AcDbEntity
  8
0
100
AcDbPolyline
 62
253
  6
CONTINUOUS
 90
10
 70
0
 10
-10.0162197391
 20
-30.0791438881
 10
-10.1134880873
 20
-27.2956140057
 10
-10.1930925413
 20
-24.5010504943
 10
-10.2550216688
 20
-21.6955920807
 10
-10.2992680796
 20
-18.8793072121
 10
-10.3258216321
 20
-16.052408671
 10
-10.3346737051
 20
-13.2152560748
 10
-10.3258215884
 20
-10.367994957
 10
-10.2992680004
 20
-7.5107719404
 10
-10.2550215691
 20
-4.6439536069
  0
LWPOLYLINE
  5
343
100
AcDbEntity
  8
RACCORDO
100
AcDbPolyline
 62
253
  6
CONTINUOUS
 90
10
 70
0
 10
-10.0162197391
 20
-30.0791438891
 10
-10.1134880203
 20
-27.2956161197
 10
-10.1930924435
 20
-24.5010543645
 10
-10.2550215692
 20
-21.6955973455
 10
-10.2992680003
 20
-18.8793135208
 10
-10.3258215884
 20
-16.0524156533
 10
-10.3346737051
 20
-13.2152633101
 10
-10.3258216321
 20
-10.3680019891
 10
-10.2992680797
 20
-7.5107783394
 10
-10.2550216687
 20
-4.6439589851
  0
LINE
  5
344
100
AcDbEntity
  8
RACCORDO
100
AcDbLine
 62
253
  6
CONTINUOUS
 10
-12.6669604339
 20
13.1340390216
 11
-12.6669604339
 21
14.254074614
  0
LINE
  5
345
100
AcDbEntity
  8
RACCORDO
100
AcDbLine
 62
253
  6
CONTINUOUS
 10
-12.316519146
 20
13.1427838776
 11
-12.316519146
 21
14.2523088161
  0
LINE
  5
346
100
AcDbEntity
  8
RACCORDO
100
AcDbLine
 62
7
  6
CONTINUOUS
 10
-12.1335177713
 20
14.3579711659
 11
-12.1335177713
 21
13.2557052042
  0
LINE
  5
347
100
AcDbEntity
  8
RACCORDO
100
AcDbLine
 62
7
  6
CONTINUOUS
 10
-11.4387535849
 20
14.7591206771
 11
-11.4387535849
 21
13.6696812461
  0
LINE
  5
348
100
AcDbEntity
  8
RACCORDO
100
AcDbLine
 62
7
  6
CONTINUOUS
 10
-11.2490343447
 20
13.4951722908
 11
-11.2490343447
 21
12.3782812119
  0
LINE
  5
349
100
AcDbEntity
  8
RACCORDO
100
AcDbLine
 62
253
  6
CONTINUOUS
 10
-11.17581104
 20
13.3931036424
 11
-11.17581104
 21
12.27306805
  0
LINE
  5
34A
100
AcDbEntity
  8
DRAFT
100
AcDbLine
 62
7
  6
CONTINUOUS
 10
-10.7900148871
 20
10.331637025
 11
-10.7900148871
 21
9.7301000185
  0
LINE
  5
34B
100
AcDbEntity
  8
0
100
AcDbLine
 62
7
  6
CONTINUOUS
 10
-10.7900148871
 20
9.7301000185
 11
-10.7900148871
 21
10.331637025
  0
LINE
  5
34C
100
AcDbEntity
  8
SMUSSO
100
AcDbLine
 62
7
  6
CONTINUOUS
 10
-10.7193042089
 20
10.2908095657
 11
-10.7193042089
 21
9.6892725592
  0
LWPOLYLINE
  5
34D
100
AcDbEntity
  8
RACCORDO
100
AcDbPolyline
 62
253
  6
CONTINUOUS
 90
16
 70
0
 10
-11.17581104
 20
13.3931036424
 10
-11.1748548154
 20
13.4148576518
 10
-11.1719973057
 20
13.4374755896
 10
-11.1672706284
 20
13.4607123886
 10
-11.1607314733
 20
13.4843024938
 10
-11.1524493055
 20
13.508004793
 10
-11.1424954479
 20
13.5316053146
 10
-11.1309434225
 20
13.5548973551
 10
-11.1179320699
 20
13.5775729027
 10
-11.1036678138
 20
13.5992798833
 10
-11.0883321396
 20
13.6197734116
 10
-11.0720875605
 20
13.638865204
 10
-11.0551502342
 20
13.6563319935
 10
-11.0377219145
 20
13.6720040314
 10
-11.0199820927
 20
13.6857567311
 10
-11.0021195234
 20
13.6974774283
  0
LINE
  5
34E
100
AcDbEntity
  8
CURVE
100
AcDbLine
 62
253
  6
CONTINUOUS
 10
-20.7276160504
 20
-20.3398912828
 11
-20.7331678122
 21
-20.3534576475
  0
LWPOLYLINE
  5
34F
100
AcDbEntity
  8
ASSI
100
AcDbPolyline
 62
7
  6
CONTINUOUS
 90
10
 70
0
 10
-8.4212071701
 20
11.5874942393
 10
-8.4072661877
 20
11.6177691049
 10
-8.3968104509
 20
11.6506659308
 10
-8.3898399597
 20
11.6861847169
 10
-8.3863547141
 20
11.7247318785
 10
-8.3863547141
 20
11.7659010003
 10
-8.3898399597
 20
11.8084728361
 10
-8.3968104509
 20
11.8520409707
 10
-8.4072661877
 20
11.8970118193
 10
-8.4212071701
 20
11.943385382
  0
LINE
  5
350
100
AcDbEntity
  8
CURVE
100
AcDbLine
 62
253
  6
CONTINUOUS
 10
-23.4290281609
 20
-18.5527344002
 11
-23.4220315541
 21
-18.5408875342
  0
LWPOLYLINE
  5
351
100
AcDbEntity
  8
ASSI
100
AcDbPolyline
 62
253
  6
CONTINUOUS
 90
7
 70
0
 10
-3.5142640553
 20
10.4348958951
 10
-3.4975338498
 20
10.4462897112
 10
-3.4834908787
 20
10.4588351312
 10
-3.4723701195
 20
10.472322237
 10
-3.4643576531
 20
10.4865253535
 10
-3.4595875508
 20
10.5012068248
 10
-3.4581320153
 20
10.5151133022
  0
LINE
  5
352
100
AcDbEntity
  8
ASSI
100
AcDbLine
 62
7
  6
CONTINUOUS
 10
9.2210933538
 20
19.7884222278
 11
8.6554215956
 21
19.4618104442
  0
LINE
  5
353
100
AcDbEntity
  8
RACCORDO
100
AcDbLine
 62
253
  6
CONTINUOUS
 10
20.4026584817
 20
26.0810871231
 11
11.5635133305
 21
20.9774840272
  0
LINE
  5
354
100
AcDbEntity
  8
ASSI
100
AcDbLine
 62
253
  6
CONTINUOUS
 10
20.4026584817
 20
26.0810871231
 11
11.5635133305
 21
20.9774840272
  0
LINE
  5
355
100
AcDbEntity
  8
RACCORDO
100
AcDbLine
 62
253
  6
CONTINUOUS
 10
20.6147824387
 20
25.7136776525
 11
11.7756372876
 21
20.6100745565
  0
LINE
  5
356
100
AcDbEntity
  8
ASSI
100
AcDbLine
 62
253
  6
CONTINUOUS
 10
20.6147824387
 20
25.7136776525
 11
11.7756372876
 21
20.6100745565
  0
LINE
  5
357
100
AcDbEntity
  8
RACCORDO
100
AcDbLine
 62
253
  6
CONTINUOUS
 10
20.6147824387
 20
25.0604827778
 11
13.1966953095
 21
20.7773794017
  0
LINE
  5
358
100
AcDbEntity
  8
ASSI
100
AcDbLine
 62
253
  6
CONTINUOUS
 10
20.6147824387
 20
25.0604827778
 11
13.1966953095
 21
20.7773794017
  0
LINE
  5
359
100
AcDbEntity
  8
ASSI
100
AcDbLine
 62
253
  6
CONTINUOUS
 10
-3.6897958163
 20
10.7002172932
 11
-5.8358004095
 21
9.4611432029
  0
LINE
  5
35A
100
AcDbEntity
  8
RACCORDO
100
AcDbLine
 62
253
  6
CONTINUOUS
 10
20.8269063957
 20
24.6930733071
 11
13.4088192665
 21
20.409969931
  0
LINE
  5
35B
100
AcDbEntity
  8
ASSI
100
AcDbLine
 62
253
  6
CONTINUOUS
 10
20.8269063957
 20
24.6930733071
 11
13.4088192665
 21
20.409969931
  0
LINE
  5
35C
100
AcDbEntity
  8
ASSI
100
AcDbLine
 62
253
  6
CONTINUOUS
 10
-3.5483959992
 20
10.4553056261
 11
-5.6944005924
 21
9.2162315358
  0
LINE
  5
35D
100
AcDbEntity
  8
RACCORDO
100
AcDbLine
 62
7
  6
CONTINUOUS
 10
11.7756372876
 20
19.8712050263
 11
13.1966953095
 21
20.6775092036
  0
LINE
  5
35E
100
AcDbEntity
  8
ASSI
100
AcDbLine
 62
7
  6
CONTINUOUS
 10
11.7756372876
 20
19.8712050263
 11
13.1966953095
 21
20.6775092036
  0
LINE
  5
35F
100
AcDbEntity
  8
ASSI
100
AcDbLine
 62
7
  6
CONTINUOUS
 10
0.678320717
 20
13.8952887052
 11
-4.3145009882
 21
11.1419448463
  0
LWPOLYLINE
  5
360
100
AcDbEntity
  8
RACCORDO
100
AcDbPolyline
 62
253
  6
CONTINUOUS
 90
10
 70
0
 10
11.5635133305
 20
20.9774840272
 10
11.5505628453
 20
20.9706397158
 10
11.5368569067
 20
20.9645347129
 10
11.5223955147
 20
20.9591690184
 10
11.5070464904
 20
20.9545102118
 10
11.4909420128
 20
20.9505907136
 10
11.474478619
 20
20.9475077856
 10
11.4577884881
 20
20.9452938482
 10
11.440739441
 20
20.9439164811
 10
11.4233314777
 20
20.9433756841
  0
LWPOLYLINE
  5
361
100
AcDbEntity
  8
ASSI
100
AcDbPolyline
 62
253
  6
CONTINUOUS
 90
10
 70
0
 10
11.5635133305
 20
20.9774840272
 10
11.5505628453
 20
20.9706397158
 10
11.5368569067
 20
20.9645347129
 10
11.5223955147
 20
20.9591690184
 10
11.5070464904
 20
20.9545102118
 10
11.4909420128
 20
20.9505907136
 10
11.474478619
 20
20.9475077856
 10
11.4577884881
 20
20.9452938482
 10
11.440739441
 20
20.9439164811
 10
11.4233314777
 20
20.9433756841
  0
LWPOLYLINE
  5
362
100
AcDbEntity
  8
RACCORDO
100
AcDbPolyline
 62
253
  6
CONTINUOUS
 90
10
 70
0
 10
11.7756372876
 20
20.6100745565
 10
11.7435956726
 20
20.5932762258
 10
11.7091842622
 20
20.5781372753
 10
11.6726591656
 20
20.5647694722
 10
11.6342922175
 20
20.5532705791
 10
11.5943689713
 20
20.5437261515
 10
11.5531865759
 20
20.5362089043
 10
11.5110515406
 20
20.5307748153
 10
11.4682774514
 20
20.5274627176
 10
11.4251826554
 20
20.5262965343
  0
LWPOLYLINE
  5
363
100
AcDbEntity
  8
ASSI
100
AcDbPolyline
 62
253
  6
CONTINUOUS
 90
10
 70
0
 10
11.7756372876
 20
20.6100745565
 10
11.7435956726
 20
20.5932762258
 10
11.7091842622
 20
20.5781372753
 10
11.6726591656
 20
20.5647694722
 10
11.6342922175
 20
20.5532705791
 10
11.5943689713
 20
20.5437261515
 10
11.5531865759
 20
20.5362089043
 10
11.5110515406
 20
20.5307748153
 10
11.4682774514
 20
20.5274627176
 10
11.4251826554
 20
20.5262965343
  0
LWPOLYLINE
  5
364
100
AcDbEntity
  8
RACCORDO
100
AcDbPolyline
 62
7
  6
CONTINUOUS
 90
10
 70
0
 10
11.7756372876
 20
19.8712050263
 10
11.7433151548
 20
19.8544186604
 10
11.7090757153
 20
19.8394669134
 10
11.6729189691
 20
19.826349785
 10
11.6344942641
 20
19.814984008
 10
11.5941522524
 20
19.8054528498
 10
11.55294489
 20
19.7980061124
 10
11.5112228291
 20
19.7927270633
 10
11.4686354176
 20
19.7895324351
 10
11.4251826554
 20
19.7884222278
  0
LWPOLYLINE
  5
365
100
AcDbEntity
  8
ASSI
100
AcDbPolyline
 62
7
  6
CONTINUOUS
 90
10
 70
0
 10
11.7756372876
 20
19.8712050263
 10
11.7433151548
 20
19.8544186604
 10
11.7090757153
 20
19.8394669134
 10
11.6729189691
 20
19.826349785
 10
11.6344942641
 20
19.814984008
 10
11.5941522524
 20
19.8054528498
 10
11.55294489
 20
19.7980061124
 10
11.5112228291
 20
19.7927270633
 10
11.4686354176
 20
19.7895324351
 10
11.4251826554
 20
19.7884222278
  0
LINE
  5
366
100
AcDbEntity
  8
0
100
AcDbLine
 62
253
  6
CONTINUOUS
 10
3.9178061616
 20
-17.3802839704
 11
3.8117401444
 21
-17.3190427814
  0
LINE
  5
367
100
AcDbEntity
  8
0
100
AcDbLine
 62
253
  6
CONTINUOUS
 10
7.700827441
 20
-16.8562846872
 11
7.2087811431
 21
-16.5721833216
  0
LWPOLYLINE
  5
368
100
AcDbEntity
  8
ASSI
100
AcDbPolyline
 62
253
  6
CONTINUOUS
 90
6
 70
0
 10
-3.5244288219
 20
-28.6449637273
 10
-3.5324512807
 20
-28.621375312
 10
-3.542894281
 20
-28.599401488
 10
-3.5555811172
 20
-28.5794140736
 10
-3.5702971156
 20
-28.5617512752
 10
-3.5867932675
 20
-28.5467119644
  0
LWPOLYLINE
  5
369
100
AcDbEntity
  8
RACCORDO
100
AcDbPolyline
 62
253
  6
CONTINUOUS
 90
16
 70
0
 10
-8.6042085448
 20
12.1088672011
 10
-8.6054874864
 20
12.1305816883
 10
-8.6086543947
 20
12.1531955571
 10
-8.6136745869
 20
12.1764611409
 10
-8.6204930857
 20
12.2001236439
 10
-8.6290352144
 20
12.2239239061
 10
-8.6392074086
 20
12.2476012411
 10
-8.6508982511
 20
12.2708963221
 10
-8.6639797057
 20
12.2935540374
 10
-8.6783085119
 20
12.3153262575
 10
-8.6937277432
 20
12.3359745383
 10
-8.7100685263
 20
12.3552727381
 10
-8.7271519011
 20
12.3730095086
 10
-8.7447907727
 20
12.388990599
 10
-8.7627919604
 20
12.4030409841
 10
-8.7809583162
 20
12.415006785
  0
LWPOLYLINE
  5
36A
100
AcDbEntity
  8
RACCORDO
100
AcDbPolyline
 62
7
  6
CONTINUOUS
 90
17
 70
0
 10
-9.9766544273
 20
17.8288647558
 10
-9.9780958123
 20
17.8583720444
 10
-9.9836527993
 20
17.8938562016
 10
-9.9934463144
 20
17.9289707074
 10
-10.0075535899
 20
17.9633839108
 10
-10.0258316826
 20
17.9963725486
 10
-10.0482375948
 20
18.0276430917
 10
-10.0748465887
 20
18.0570423045
 10
-10.1052704016
 20
18.083926368
 10
-10.1387539288
 20
18.107641828
 10
-10.1750952587
 20
18.128191915
 10
-10.2141451921
 20
18.145548704
 10
-10.2551875978
 20
18.1594438159
 10
-10.298359398
 20
18.169976487
 10
-10.3434387016
 20
18.1769871851
 10
-10.3889899937
 20
18.1802458914
 10
-10.4349486839
 20
18.1797643179
  0
LWPOLYLINE
  5
36B
100
AcDbEntity
  8
0
100
AcDbPolyline
 62
253
  6
CONTINUOUS
 90
8
 70
0
 10
-9.3434478865
 20
-30.053849863
 10
-9.4427844253
 20
-27.2718748199
 10
-9.5240656842
 20
-24.4793491999
 10
-9.5872916632
 20
-21.6762730032
 10
-9.6324695871
 20
-18.8624308755
 10
-9.6595922311
 20
-16.038038171
 10
-9.6686379204
 20
-13.2037409521
 10
-9.6595922003
 20
-10.3595313659
  0
LWPOLYLINE
  5
36C
100
AcDbEntity
  8
RACCORDO
100
AcDbPolyline
 62
253
  6
CONTINUOUS
 90
8
 70
0
 10
-9.3434478865
 20
-30.053849863
 10
-9.4427843823
 20
-27.2718763522
 10
-9.5240656154
 20
-24.4793520463
 10
-9.5872915857
 20
-21.6762769452
 10
-9.632469524
 20
-18.8624357655
 10
-9.6595921995
 20
-16.0380437907
 10
-9.6686379204
 20
-13.2037468714
 10
-9.6595922318
 20
-10.3595370201
  0
LWPOLYLINE
  5
36D
100
AcDbEntity
  8
ASSI
100
AcDbPolyline
 62
253
  6
CONTINUOUS
 90
14
 70
0
 10
-8.0745996081
 20
10.0500224536
 10
-8.0743815211
 20
10.0399999927
 10
-8.0737038888
 20
10.0299870839
 10
-8.0725308423
 20
10.0200349543
 10
-8.0708229815
 20
10.0101787959
 10
-8.0685481545
 20
10.0005001197
 10
-8.0656926007
 20
9.9911174992
 10
-8.0622351558
 20
9.9820885719
 10
-8.0581570908
 20
9.9734736881
 10
-8.053471281
 20
9.9653799059
 10
-8.0481743205
 20
9.9578588246
 10
-8.0422657423
 20
9.9509619866
 10
-8.0357863806
 20
9.944773248
 10
-8.0287513506
 20
9.9393296612
  0
LINE
  5
36E
100
AcDbEntity
  8
RACCORDO
100
AcDbLine
 62
253
  6
CONTINUOUS
 10
-10.1015213366
 20
16.5542037937
 11
-10.1015213366
 21
17.6564075745
  0
LINE
  5
36F
100
AcDbEntity
  8
RACCORDO
100
AcDbLine
 62
7
  6
CONTINUOUS
 10
-9.9766541964
 20
16.7240165832
 11
-9.9766541964
 21
17.8287093938
  0
LINE
  5
370
100
AcDbEntity
  8
RACCORDO
100
AcDbLine
 62
253
  6
CONTINUOUS
 10
-9.7293547153
 20
16.7615872211
 11
-9.7293547153
 21
15.0095444961
  0
LINE
  5
371
100
AcDbEntity
  8
RACCORDO
100
AcDbLine
 62
253
  6
CONTINUOUS
 10
-8.9546498327
 20
10.9905974066
 11
-8.9546498327
 21
12.1106329991
  0
LINE
  5
372
100
AcDbEntity
  8
SMUSSO
100
AcDbLine
 62
7
  6
CONTINUOUS
 10
-8.8808265779
 20
8.6707255456
 11
-8.8808265779
 21
8.7393661111
  0
LINE
  5
373
100
AcDbEntity
  8
RACCORDO
100
AcDbLine
 62
253
  6
CONTINUOUS
 10
-8.6042085448
 20
10.9993422627
 11
-8.6042085448
 21
12.1088672011
  0
LINE
  5
374
100
AcDbEntity
  8
ASSI
100
AcDbLine
 62
7
  6
CONTINUOUS
 10
-8.4212071701
 20
11.1122635892
 11
-8.4212071701
 21
11.943385382
  0
LINE
  5
375
100
AcDbEntity
  8
RACCORDO
100
AcDbLine
 62
7
  6
CONTINUOUS
 10
-8.4212071701
 20
11.943385382
 11
-8.4212071701
 21
12.2145295509
  0
LINE
  5
376
100
AcDbEntity
  8
RACCORDO
100
AcDbLine
 62
253
  6
CONTINUOUS
 10
-8.3151411529
 20
16.2769924317
 11
-8.3151411529
 21
15.876619818
  0
LINE
  5
377
100
AcDbEntity
  8
ASSI
100
AcDbLine
 62
7
  6
CONTINUOUS
 10
-8.1331782519
 20
10.4307916294
 11
-8.1331782519
 21
10.1316773725
  0
LINE
  5
378
100
AcDbEntity
  8
ASSI
100
AcDbLine
 62
253
  6
CONTINUOUS
 10
-8.0745996081
 20
10.3491367107
 11
-8.0745996081
 21
10.0500224536
  0
LINE
  5
379
100
AcDbEntity
  8
SMUSSO
100
AcDbLine
 62
7
  6
CONTINUOUS
 10
-8.0322984404
 20
8.696399182
 11
-8.0322984404
 21
8.7393661111
  0
LINE
  5
37A
100
AcDbEntity
  8
0
100
AcDbLine
 62
253
  6
CONTINUOUS
 10
-9.6595922003
 20
-10.3595313659
 11
-9.6324695255
 21
-7.5054172652
  0
LINE
  5
37B
100
AcDbEntity
  8
RACCORDO
100
AcDbLine
 62
253
  6
CONTINUOUS
 10
-9.6595922318
 20
-10.3595370201
 11
-9.6324695886
 21
-7.5054222244
  0
LWPOLYLINE
  5
37C
100
AcDbEntity
  8
0
100
AcDbPolyline
 62
253
  6
CONTINUOUS
 90
5
 70
0
 10
-9.6324695255
 20
-7.5054172652
 10
-9.5872915856
 20
-4.6420682705
 10
-9.5240656107
 20
-1.7697075885
 10
-9.4427843707
 20
1.1118879876
 10
-9.3434478657
 20
4.0027184577
  0
LWPOLYLINE
  5
37D
100
AcDbEntity
  8
RACCORDO
100
AcDbPolyline
 62
253
  6
CONTINUOUS
 90
5
 70
0
 10
-9.6324695886
 20
-7.5054222244
 10
-9.5872916631
 20
-4.6420722974
 10
-9.5240656795
 20
-1.7697105103
 10
-9.4427844137
 20
1.1118864081
 10
-9.3434478657
 20
4.0027184577
  0
LINE
  5
37E
100
AcDbEntity
  8
0
100
AcDbLine
 62
253
  6
CONTINUOUS
 10
-10.2550215691
 20
-4.6439536069
 11
-10.1930924429
 21
-1.7677636299
  0
LINE
  5
37F
100
AcDbEntity
  8
RACCORDO
100
AcDbLine
 62
253
  6
CONTINUOUS
 10
-10.2550216687
 20
-4.6439589851
 11
-10.1930925408
 21
-1.7677676117
  0
LWPOLYLINE
  5
380
100
AcDbEntity
  8
0
100
AcDbPolyline
 62
253
  6
CONTINUOUS
 90
3
 70
0
 10
-10.1930924429
 20
-1.7677636299
 10
-10.1134880191
 20
1.1177196704
 10
-10.0162197371
 20
4.0123439866
  0
LWPOLYLINE
  5
381
100
AcDbEntity
  8
RACCORDO
100
AcDbPolyline
 62
253
  6
CONTINUOUS
 90
3
 70
0
 10
-10.1930925408
 20
-1.7677676117
 10
-10.1134880862
 20
1.1177174798
 10
-10.0162197371
 20
4.0123439856
  0
LWPOLYLINE
  5
382
100
AcDbEntity
  8
RACCORDO
100
AcDbPolyline
 62
253
  6
CONTINUOUS
 90
16
 70
0
 10
-8.9546498327
 20
12.1106329991
 10
-8.9536936085
 20
12.1323870051
 10
-8.9508360992
 20
12.1550049414
 10
-8.9461094222
 20
12.1782417408
 10
-8.9395702663
 20
12.2018318497
 10
-8.9312880963
 20
12.2255341546
 10
-8.9213342367
 20
12.2491346798
 10
-8.9097822107
 20
12.2724267202
 10
-8.8967708587
 20
12.2951022658
 10
-8.8825066041
 20
12.3168092434
 10
-8.8671709331
 20
12.3373027673
 10
-8.8509263583
 20
12.356394555
 10
-8.8339890347
 20
12.3738613427
 10
-8.8165607146
 20
12.3895333818
 10
-8.7988208903
 20
12.4032860843
 10
-8.7809583162
 20
12.415006785
  0
LWPOLYLINE
  5
383
100
AcDbEntity
  8
0
100
AcDbPolyline
 62
253
  6
CONTINUOUS
 90
19
 70
0
 10
-10.0162197279
 20
4.0123439837
 10
-10.0105649322
 20
4.0957896309
 10
-9.9993368972
 20
4.1817257331
 10
-9.9826072199
 20
4.2695722429
 10
-9.9604730963
 20
4.3587219602
 10
-9.9330851928
 20
4.448585238
 10
-9.9006423676
 20
4.5385945214
 10
-9.8633374352
 20
4.628144995
 10
-9.8214117419
 20
4.7166220208
 10
-9.775179416
 20
4.8034463243
 10
-9.7249251554
 20
4.888023191
 10
-9.6709702314
 20
4.9697747333
 10
-9.613722575
 20
5.0481681181
 10
-9.553543773
 20
5.1226582593
 10
-9.4908134248
 20
5.1927374264
 10
-9.425994014
 20
5.2579654153
 10
-9.3595165802
 20
5.3179019683
 10
-9.2917790077
 20
5.3721118202
 10
-9.2232097336
 20
5.4202126582
  0
LWPOLYLINE
  5
384
100
AcDbEntity
  8
RACCORDO
100
AcDbPolyline
 62
253
  6
CONTINUOUS
 90
19
 70
0
 10
-10.016219728
 20
4.0123439827
 10
-10.0105649322
 20
4.0957896303
 10
-9.9993368972
 20
4.1817257329
 10
-9.9826072199
 20
4.2695722429
 10
-9.9604730963
 20
4.3587219603
 10
-9.9330851927
 20
4.448585238
 10
-9.9006423676
 20
4.5385945214
 10
-9.8633374352
 20
4.628144995
 10
-9.8214117419
 20
4.7166220208
 10
-9.7751794159
 20
4.8034463243
 10
-9.7249251553
 20
4.8880231911
 10
-9.6709702313
 20
4.9697747333
 10
-9.6137225749
 20
5.0481681181
 10
-9.553543773
 20
5.1226582593
 10
-9.4908134247
 20
5.1927374264
 10
-9.425994014
 20
5.2579654153
 10
-9.3595165801
 20
5.3179019684
 10
-9.2917790077
 20
5.3721118202
 10
-9.2232097335
 20
5.4202126583
  0
LWPOLYLINE
  5
385
100
AcDbEntity
  8
0
100
AcDbPolyline
 62
253
  6
CONTINUOUS
 90
19
 70
0
 10
-9.3434478657
 20
4.0027184577
 10
-9.3399063701
 20
4.0515326735
 10
-9.3330829201
 20
4.1011533282
 10
-9.3229775157
 20
4.1515804217
 10
-9.3094796137
 20
4.203190169
 10
-9.2926997573
 20
4.2556063551
 10
-9.2729695765
 20
4.3077003358
 10
-9.2502297505
 20
4.3594405599
 10
-9.2245396
 20
4.4108585786
 10
-9.1964087176
 20
4.4609204011
 10
-9.1657846123
 20
4.5096006052
 10
-9.132719775
 20
4.556924613
 10
-9.0978812715
 20
4.6019347007
 10
-9.0612102902
 20
4.644595989
 10
-9.0227656427
 20
4.6849433571
 10
-8.983390829
 20
4.7221237186
 10
-8.9433670158
 20
4.7558527114
 10
-8.9024130365
 20
4.7864146976
 10
-8.8605288909
 20
4.8138096772
  0
LWPOLYLINE
  5
386
100
AcDbEntity
  8
RACCORDO
100
AcDbPolyline
 62
253
  6
CONTINUOUS
 90
19
 70
0
 10
-9.3434478657
 20
4.0027184577
 10
-9.3399063701
 20
4.0515326735
 10
-9.3330829201
 20
4.1011533282
 10
-9.3229775157
 20
4.1515804218
 10
-9.3094796137
 20
4.203190169
 10
-9.2926997573
 20
4.2556063551
 10
-9.2729695765
 20
4.3077003358
 10
-9.2502297504
 20
4.3594405599
 10
-9.2245396
 20
4.4108585786
 10
-9.1964087176
 20
4.4609204011
 10
-9.1657846122
 20
4.5096006052
 10
-9.132719775
 20
4.556924613
 10
-9.0978812715
 20
4.6019347007
 10
-9.0612102902
 20
4.644595989
 10
-9.0227656427
 20
4.6849433571
 10
-8.983390829
 20
4.7221237187
 10
-8.9433670158
 20
4.7558527114
 10
-8.9024130364
 20
4.7864146976
 10
-8.8605288909
 20
4.8138096772
  0
LWPOLYLINE
  5
387
100
AcDbEntity
  8
ASSI
100
AcDbPolyline
 62
253
  6
CONTINUOUS
 90
21
 70
0
 10
-3.527085181
 20
10.0750620414
 10
-3.5260752007
 20
10.0766700975
 10
-3.525096725
 20
10.0783076856
 10
-3.5241449054
 20
10.0799781512
 10
-3.5232245905
 20
10.081678149
 10
-3.5223327798
 20
10.0834212822
 10
-3.521465956
 20
10.0852117126
 10
-3.5206276364
 20
10.0870452786
 10
-3.5198253731
 20
10.0889230988
 10
-3.5190578158
 20
10.090846517
 10
-3.5183263147
 20
10.0928141895
 10
-3.5176424721
 20
10.094823204
 10
-3.5170049632
 20
10.0968752524
 10
-3.5164151127
 20
10.0989686428
 10
-3.5158884975
 20
10.1010953868
 10
-3.5154237855
 20
10.1032578579
 10
-3.5150223087
 20
10.1054536827
 10
-3.51470364
 20
10.1076677527
 10
-3.5144743037
 20
10.1098950317
 10
-3.5143277754
 20
10.112140556
 10
-3.5142640553
 20
10.1144043255
  0
LWPOLYLINE
  5
388
100
AcDbEntity
  8
ASSI
100
AcDbPolyline
 62
7
  6
CONTINUOUS
 90
5
 70
0
 10
-3.5180710325
 20
10.02553032
 10
-3.5117364494
 20
10.0339327873
 10
-3.4960256304
 20
10.0580654193
 10
-3.4825290579
 20
10.0842609892
 10
-3.4719758042
 20
10.1111842682
  0
LWPOLYLINE
  5
389
100
AcDbEntity
  8
ASSI
100
AcDbPolyline
 62
253
  6
CONTINUOUS
 90
5
 70
0
 10
-3.5316331599
 20
10.0686650991
 10
-3.5304211263
 20
10.0702574664
 10
-3.5292581438
 20
10.0718557259
 10
-3.5281442124
 20
10.0734598776
 10
-3.527085181
 20
10.0750620414
  0
LINE
  5
38A
100
AcDbEntity
  8
ASSI
100
AcDbLine
 62
253
  6
CONTINUOUS
 10
-4.0725004658
 20
9.3783072239
 11
-3.5316331599
 21
10.0686650991
  0
LINE
  5
38B
100
AcDbEntity
  8
ASSI
100
AcDbLine
 62
7
  6
CONTINUOUS
 10
-4.0725004658
 20
9.3178618514
 11
-3.5180651381
 21
10.0255378203
  0
LWPOLYLINE
  5
38C
100
AcDbEntity
  8
ASSI
100
AcDbPolyline
 62
7
  6
CONTINUOUS
 90
11
 70
0
 10
-4.9749512165
 20
8.7593311927
 10
-4.9969905643
 20
8.7378502054
 10
-5.0208842075
 20
8.7179716496
 10
-5.0464559383
 20
8.7000796419
 10
-5.0736583726
 20
8.6845167576
 10
-5.1020728445
 20
8.6716396797
 10
-5.1308864541
 20
8.6617537354
 10
-5.1597133017
 20
8.6550316711
 10
-5.1882577118
 20
8.6516183823
 10
-5.2157909804
 20
8.6515551761
 10
-5.2240183302
 20
8.6522005662
  0
LWPOLYLINE
  5
38D
100
AcDbEntity
  8
ASSI
100
AcDbPolyline
 62
253
  6
CONTINUOUS
 90
7
 70
0
 10
-3.5142640553
 20
10.1144043255
 10
-3.4975338401
 20
10.1257981492
 10
-3.4834908644
 20
10.1383435765
 10
-3.4723701048
 20
10.1518306888
 10
-3.4643576415
 20
10.1660338103
 10
-3.4595875446
 20
10.1807152847
 10
-3.4581320153
 20
10.1946217329
  0
LINE
  5
38E
100
AcDbEntity
  8
ASSI
100
AcDbLine
 62
7
  6
CONTINUOUS
 10
-4.9749512165
 20
8.0444269594
 11
-4.0725004658
 21
8.6013748402
  0
LINE
  5
38F
100
AcDbEntity
  8
0
100
AcDbLine
 62
7
  6
CONTINUOUS
 10
-6.5951255158
 20
8.12064574
 11
-6.0523994531
 21
8.4555358305
  0
LINE
  5
390
100
AcDbEntity
  8
ASSI
100
AcDbLine
 62
7
  6
CONTINUOUS
 10
1.9082046489
 20
12.9767785824
 11
-4.0184269889
 21
9.3724511373
  0
LINE
  5
391
100
AcDbEntity
  8
RACCORDO
100
AcDbLine
 62
253
  6
CONTINUOUS
 10
-5.1605716644
 20
7.9406056425
 11
-5.8861946883
 21
7.5002327016
  0
LINE
  5
392
100
AcDbEntity
  8
0
100
AcDbLine
 62
253
  6
CONTINUOUS
 10
-9.2232097004
 20
5.4202126784
 11
-5.8399040816
 21
7.4735050854
  0
LINE
  5
393
100
AcDbEntity
  8
RACCORDO
100
AcDbLine
 62
253
  6
CONTINUOUS
 10
-9.2232097004
 20
5.4202126784
 11
-5.8399040816
 21
7.4735050854
  0
LINE
  5
394
100
AcDbEntity
  8
RACCORDO
100
AcDbLine
 62
253
  6
CONTINUOUS
 10
-3.7189470752
 20
7.9890022132
 11
-5.4898711843
 21
6.914247096
  0
LINE
  5
395
100
AcDbEntity
  8
0
100
AcDbLine
 62
253
  6
CONTINUOUS
 10
-8.8605288909
 20
4.8138096772
 11
-5.4867140282
 21
6.8613422447
  0
LINE
  5
396
100
AcDbEntity
  8
RACCORDO
100
AcDbLine
 62
253
  6
CONTINUOUS
 10
-8.8605288909
 20
4.8138096772
 11
-5.4867140282
 21
6.8613422447
  0
LINE
  5
397
100
AcDbEntity
  8
DRAFT
100
AcDbLine
 62
7
  6
CONTINUOUS
 10
-3.5813657851
 20
9.1200974759
 11
0.1893761231
 21
11.4074852759
  0
LINE
  5
398
100
AcDbEntity
  8
ASSI
100
AcDbLine
 62
7
  6
CONTINUOUS
 10
1.8894448119
 20
13.3483565815
 11
-3.4723099244
 21
10.1103318666
  0
LINE
  5
399
100
AcDbEntity
  8
0
100
AcDbLine
 62
7
  6
CONTINUOUS
 10
1.3105134754
 20
12.342113643
 11
0.6591599015
 21
11.9527871967
  0
LINE
  5
39A
100
AcDbEntity
  8
0
100
AcDbLine
 62
7
  6
CONTINUOUS
 10
0.1701402213
 20
11.4185918445
 11
0.8772470025
 21
11.8268664378
  0
LINE
  5
39B
100
AcDbEntity
  8
ASSI
100
AcDbLine
 62
253
  6
CONTINUOUS
 10
-3.3776824315
 20
9.0024932603
 11
-4.0725004658
 21
8.6013748402
  0
LINE
  5
39C
100
AcDbEntity
  8
ASSI
100
AcDbLine
 62
253
  6
CONTINUOUS
 10
-3.0241828888
 20
8.3902140925
 11
-3.7189470752
 21
7.9890645813
  0
LWPOLYLINE
  5
39D
100
AcDbEntity
  8
0
100
AcDbPolyline
 62
7
  6
CONTINUOUS
 90
12
 70
0
 10
-4.9749512165
 20
8.0444269594
 10
-4.9946726117
 20
8.033546132
 10
-5.0160340341
 20
8.0238383175
 10
-5.0387940785
 20
8.0153902704
 10
-5.0626920055
 20
8.0083905045
 10
-5.0874695514
 20
8.0027764053
 10
-5.1128760132
 20
7.9982377621
 10
-5.1386284153
 20
7.9948333058
 10
-5.1644586815
 20
7.9925387963
 10
-5.1901367687
 20
7.9909066839
 10
-5.2154374996
 20
7.9898956792
 10
-5.2400360465
 20
7.9895060024
  0
LWPOLYLINE
  5
39E
100
AcDbEntity
  8
ASSI
100
AcDbPolyline
 62
7
  6
CONTINUOUS
 90
4
 70
0
 10
19.4569899299
 20
15.318059166
 10
19.4938282931
 20
15.3306531651
 10
19.6066427791
 20
15.3799740739
 10
19.7216427211
 20
15.440794941
  0
LWPOLYLINE
  5
39F
100
AcDbEntity
  8
0
100
AcDbPolyline
 62
7
  6
CONTINUOUS
 90
5
 70
0
 10
-19.9851604538
 20
16.5001374138
 10
-19.9875009031
 20
16.5045073815
 10
-19.9957200949
 20
16.5238456093
 10
-20.0013437456
 20
16.5427119643
 10
-20.0043133384
 20
16.5608848882
  0
LWPOLYLINE
  5
3A0
100
AcDbEntity
  8
RACCORDO
100
AcDbPolyline
 62
7
  6
CONTINUOUS
 90
13
 70
0
 10
-8.4212071701
 20
12.2145295509
 10
-8.4227116912
 20
12.2420460163
 10
-8.4272232287
 20
12.2708321966
 10
-8.4346593655
 20
12.300399029
 10
-8.4448870308
 20
12.3302447078
 10
-8.457730199
 20
12.3598592096
 10
-8.4729727143
 20
12.3887330324
 10
-8.4903569896
 20
12.4163704685
 10
-8.5095825219
 20
12.4423005853
 10
-8.5303161439
 20
12.4660814292
 10
-8.5522041697
 20
12.4873055361
 10
-8.5748785496
 20
12.5056067461
 10
-8.5979569414
 20
12.5206691348
  0
LWPOLYLINE
  5
3A1
100
AcDbEntity
  8
ASSI
100
AcDbPolyline
 62
7
  6
CONTINUOUS
 90
6
 70
0
 10
-8.1331779573
 20
10.131913351
 10
-8.1318971269
 20
10.1066486236
 10
-8.1280145194
 20
10.0818941015
 10
-8.1215722209
 20
10.057916926
 10
-8.1127149382
 20
10.0351120958
 10
-8.1015684117
 20
10.0136475692
  0
LWPOLYLINE
  5
3A2
100
AcDbEntity
  8
ASSI
100
AcDbPolyline
 62
253
  6
CONTINUOUS
 90
16
 70
0
 10
-6.0100982854
 20
-30.3774947799
 10
-6.0098911677
 20
-30.3872411698
 10
-6.0092455954
 20
-30.3969968427
 10
-6.0081264834
 20
-30.406713352
 10
-6.0064949512
 20
-30.4163602547
 10
-6.0043192337
 20
-30.425857095
 10
-6.0015864998
 20
-30.4350831483
 10
-5.9982761094
 20
-30.4439844016
 10
-5.9943698108
 20
-30.4525042543
 10
-5.9898822041
 20
-30.4605347692
 10
-5.9848099544
 20
-30.4680289935
 10
-5.979152928
 20
-30.474939375
 10
-5.9729549223
 20
-30.4811814703
 10
-5.9662347549
 20
-30.4867204798
 10
-5.9590061209
 20
-30.4915304216
 10
-5.9581561563
 20
-30.4920280013
  0
LWPOLYLINE
  5
3A3
100
AcDbEntity
  8
ASSI
100
AcDbPolyline
 62
253
  6
CONTINUOUS
 90
28
 70
0
 10
-5.7297452551
 20
-30.3789074183
 10
-5.7297148747
 20
-30.3808744808
 10
-5.7295815695
 20
-30.3828234805
 10
-5.7293453393
 20
-30.3847544173
 10
-5.7290106597
 20
-30.3866825836
 10
-5.7285730551
 20
-30.3885926871
 10
-5.7280190994
 20
-30.3904388511
 10
-5.7273447559
 20
-30.392219752
 10
-5.7265540613
 20
-30.3939367133
 10
-5.7256456993
 20
-30.3955478291
 10
-5.7246153258
 20
-30.3970499447
 10
-5.723467285
 20
-30.3984462148
 10
-5.722213293
 20
-30.3997041967
 10
-5.7208505142
 20
-30.4008189939
 10
-5.7193817843
 20
-30.401795503
 10
-5.7178273265
 20
-30.4026159708
 10
-5.716187061
 20
-30.4032761858
 10
-5.7144610677
 20
-30.4037803595
 10
-5.712669809
 20
-30.4041233729
 10
-5.7108134711
 20
-30.4043031903
 10
-5.7088918678
 20
-30.4043218474
 10
-5.7069249024
 20
-30.4041803319
 10
-5.7049121619
 20
-30.403877204
 10
-5.7028540592
 20
-30.4034139035
 10
-5.7007717368
 20
-30.402795738
 10
-5.6986722418
 20
-30.4020244764
 10
-5.6965485271
 20
-30.4010983497
 10
-5.6944005924
 20
-30.4000173579
  0
LINE
  5
3A4
100
AcDbEntity
  8
ASSI
100
AcDbLine
 62
7
  6
CONTINUOUS
 10
-5.9515827047
 20
17.7092643627
 11
-5.9463334359
 21
17.3589911229
  0
LINE
  5
3A5
100
AcDbEntity
  8
ASSI
100
AcDbLine
 62
7
  6
CONTINUOUS
 10
-7.4183151315
 20
9.5865495342
 11
-7.4183151315
 21
9.3071333457
  0
LINE
  5
3A6
100
AcDbEntity
  8
0
100
AcDbLine
 62
253
  6
CONTINUOUS
 10
-7.3450918268
 20
9.5442713158
 11
-7.3450918268
 21
9.2019202058
  0
LINE
  5
3A7
100
AcDbEntity
  8
ASSI
100
AcDbLine
 62
7
  6
CONTINUOUS
 10
-7.2123543945
 20
9.4699950592
 11
-7.2123543945
 21
8.3288756168
  0
LINE
  5
3A8
100
AcDbEntity
  8
0
100
AcDbLine
 62
253
  6
CONTINUOUS
 10
-7.1391310898
 20
8.2236624768
 11
-7.1391310898
 21
9.5098946553
  0
LINE
  5
3A9
100
AcDbEntity
  8
0
100
AcDbLine
 62
253
  6
CONTINUOUS
 10
-6.9455668037
 20
8.111900884
 11
-6.9455668037
 21
9.3981330625
  0
LINE
  5
3AA
100
AcDbEntity
  8
0
100
AcDbLine
 62
253
  6
CONTINUOUS
 10
-6.5951255158
 20
8.12064574
 11
-6.5951255158
 21
9.1112501671
  0
LINE
  5
3AB
100
AcDbEntity
  8
0
100
AcDbLine
 62
7
  6
CONTINUOUS
 10
-6.0523994531
 20
8.7978869405
 11
-6.0523994531
 21
8.4555358305
  0
LINE
  5
3AC
100
AcDbEntity
  8
ASSI
100
AcDbLine
 62
253
  6
CONTINUOUS
 10
-6.0100982854
 20
-30.0783805228
 11
-6.0100982854
 21
-30.3774947799
  0
LINE
  5
3AD
100
AcDbEntity
  8
ASSI
100
AcDbLine
 62
253
  6
CONTINUOUS
 10
-6.0100982854
 20
8.8580052642
 11
-6.0100982854
 21
9.1571195213
  0
LINE
  5
3AE
100
AcDbEntity
  8
ASSI
100
AcDbLine
 62
253
  6
CONTINUOUS
 10
-5.7297452551
 20
-30.0797931612
 11
-5.7297452551
 21
-30.3789074183
  0
LINE
  5
3AF
100
AcDbEntity
  8
ASSI
100
AcDbLine
 62
253
  6
CONTINUOUS
 10
-5.7297452551
 20
8.8565926258
 11
-5.7297452551
 21
9.1557068829
  0
LINE
  5
3B0
100
AcDbEntity
  8
RACCORDO
100
AcDbLine
 62
7
  6
CONTINUOUS
 10
-5.4867140282
 20
6.8613422447
 11
-5.4867140282
 21
-0.1349754863
  0
LINE
  5
3B1
100
AcDbEntity
  8
DRAFT
100
AcDbLine
 62
7
  6
CONTINUOUS
 10
-5.4867140282
 20
-0.1349754863
 11
-5.4867140282
 21
-21.6897907936
  0
LINE
  5
3B2
100
AcDbEntity
  8
RACCORDO
100
AcDbLine
 62
7
  6
CONTINUOUS
 10
-5.4867140282
 20
-21.6897907936
 11
-5.4867140282
 21
-28.6861085246
  0
LINE
  5
3B3
100
AcDbEntity
  8
0
100
AcDbLine
 62
7
  6
CONTINUOUS
 10
-5.4867140282
 20
-28.6861085246
 11
-5.4867140282
 21
6.8613422447
  0
LINE
  5
3B4
100
AcDbEntity
  8
0
100
AcDbLine
 62
253
  6
CONTINUOUS
 10
-5.3253925044
 20
8.6620978946
 11
-5.3253925044
 21
8.0357711298
  0
LINE
  5
3B5
100
AcDbEntity
  8
0
100
AcDbLine
 62
253
  6
CONTINUOUS
 10
-5.3253925044
 20
-28.7367401601
 11
-5.3253925044
 21
-29.0679352052
  0
LWPOLYLINE
  5
3B6
100
AcDbEntity
  8
ASSI
100
AcDbPolyline
 62
253
  6
CONTINUOUS
 90
28
 70
0
 10
-5.7297452551
 20
9.1557068829
 10
-5.7297153345
 20
9.1576979076
 10
-5.7295832207
 20
9.1597858608
 10
-5.7293489139
 20
9.1619707424
 10
-5.7290169276
 20
9.1642628131
 10
-5.7285827483
 20
9.1666518123
 10
-5.7280328345
 20
9.1691069578
 10
-5.7273631452
 20
9.1716314441
 10
-5.7265777215
 20
9.1742220769
 10
-5.7256751456
 20
9.1768384909
 10
-5.7246512181
 20
9.1794821371
 10
-5.7235101384
 20
9.1821515646
 10
-5.7222630859
 20
9.1848020557
 10
-5.720907461
 20
9.1874317599
 10
-5.7194458634
 20
9.1900425276
 10
-5.7178972722
 20
9.1925951922
 10
-5.7162616043
 20
9.1950859543
 10
-5.7145389428
 20
9.1975186133
 10
-5.7127485152
 20
9.1998654006
 10
-5.7108898615
 20
9.202124824
 10
-5.7089634417
 20
9.2042983756
 10
-5.7069898635
 20
9.2063627635
 10
-5.7049685401
 20
9.2083168356
 10
-5.7029000583
 20
9.210161744
 10
-5.7008067859
 20
9.2118776518
 10
-5.6986961787
 20
9.213457947
 10
-5.6965607809
 20
9.2149092416
 10
-5.6944005924
 20
9.2162315358
  0
LWPOLYLINE
  5
3B7
100
AcDbEntity
  8
ASSI
100
AcDbPolyline
 62
253
  6
CONTINUOUS
 90
28
 70
0
 10
-6.0100982854
 20
9.1571195213
 10
-6.0098931506
 20
9.1670555256
 10
-6.0092534467
 20
9.1775032863
 10
-6.0081439489
 20
9.1884552897
 10
-6.0065255747
 20
9.1999268802
 10
-6.0043663537
 20
9.2118742983
 10
-6.0016533254
 20
9.2241907331
 10
-5.9983656173
 20
9.2368463557
 10
-5.9944847455
 20
9.2498061846
 10
-5.9900253114
 20
9.2629447521
 10
-5.9849843157
 20
9.2762178804
 10
-5.9793609718
 20
9.2895801128
 10
-5.9731973078
 20
9.3029001687
 10
-5.9665121661
 20
9.3161204742
 10
-5.959318109
 20
9.3292007936
 10
-5.9516666298
 20
9.3420389644
 10
-5.9435935359
 20
9.3545742212
 10
-5.9351181864
 20
9.3667759804
 10
-5.9262763216
 20
9.3785921795
 10
-5.9171013602
 20
9.3899780911
 10
-5.9076241551
 20
9.4008954204
 10
-5.8978791882
 20
9.4113048148
 10
-5.8879008361
 20
9.4211693157
 10
-5.8777249925
 20
9.4304532079
 10
-5.8673897672
 20
9.4391222321
 10
-5.8569326627
 20
9.4471452959
 10
-5.8463903562
 20
9.4544942975
 10
-5.8358004095
 20
9.4611432029
  0
LWPOLYLINE
  5
3B8
100
AcDbEntity
  8
ASSI
100
AcDbPolyline
 62
7
  6
CONTINUOUS
 90
3
 70
0
 10
-3.4719758042
 20
10.1111842682
 10
-3.4643822162
 20
10.138527861
 10
-3.459638629
 20
10.1671491924
  0
LINE
  5
3B9
100
AcDbEntity
  8
RACCORDO
100
AcDbLine
 62
253
  6
CONTINUOUS
 10
1.4727138743
 20
9.1846790898
 11
-3.0241828888
 21
6.5341831566
  0
LINE
  5
3BA
100
AcDbEntity
  8
RACCORDO
100
AcDbLine
 62
253
  6
CONTINUOUS
 10
1.8868643499
 20
7.7910663178
 11
-2.9764849549
 21
4.9245812208
  0
LINE
  5
3BB
100
AcDbEntity
  8
RACCORDO
100
AcDbLine
 62
253
  6
CONTINUOUS
 10
17.0372041783
 20
18.3149859573
 11
24.4176975228
 21
22.6197955136
  0
LINE
  5
3BC
100
AcDbEntity
  8
ASSI
100
AcDbLine
 62
253
  6
CONTINUOUS
 10
17.0372041783
 20
18.3149859573
 11
24.4176975228
 21
22.6197955136
  0
LINE
  5
3BD
100
AcDbEntity
  8
RACCORDO
100
AcDbLine
 62
253
  6
CONTINUOUS
 10
17.5371851398
 20
17.7871737146
 11
24.9176784843
 21
22.0919832709
  0
LINE
  5
3BE
100
AcDbEntity
  8
ASSI
100
AcDbLine
 62
253
  6
CONTINUOUS
 10
17.5371851398
 20
17.7871737146
 11
24.9176784843
 21
22.0919832709
  0
LINE
  5
3BF
100
AcDbEntity
  8
ASSI
100
AcDbLine
 62
253
  6
CONTINUOUS
 10
17.0741701407
 20
18.2754018859
 11
1.4369296432
 21
9.2466552032
  0
LINE
  5
3C0
100
AcDbEntity
  8
ASSI
100
AcDbLine
 62
253
  6
CONTINUOUS
 10
17.4291701407
 20
17.9006409238
 11
1.663532973
 21
8.797759613
  0
LINE
  5
3C1
100
AcDbEntity
  8
ASSI
100
AcDbLine
 62
253
  6
CONTINUOUS
 10
17.9836066488
 20
16.9403287231
 11
1.8868643499
 21
7.6462714593
  0
LINE
  5
3C2
100
AcDbEntity
  8
ASSI
100
AcDbLine
 62
253
  6
CONTINUOUS
 10
18.1306524635
 20
16.4455208274
 11
1.8868643499
 21
7.0665611531
  0
LINE
  5
3C3
100
AcDbEntity
  8
RACCORDO
100
AcDbLine
 62
253
  6
CONTINUOUS
 10
17.9393438826
 20
17.0906143401
 11
25.3574310118
 21
21.3303095512
  0
LINE
  5
3C4
100
AcDbEntity
  8
ASSI
100
AcDbLine
 62
253
  6
CONTINUOUS
 10
17.9393438826
 20
17.0906143401
 11
25.3574310118
 21
21.3303095512
  0
LINE
  5
3C5
100
AcDbEntity
  8
RACCORDO
100
AcDbLine
 62
253
  6
CONTINUOUS
 10
18.1464427778
 20
16.3937283472
 11
25.564529907
 21
20.6334235583
  0
LINE
  5
3C6
100
AcDbEntity
  8
ASSI
100
AcDbLine
 62
253
  6
CONTINUOUS
 10
18.1464427778
 20
16.3937283472
 11
25.564529907
 21
20.6334235583
  0
LINE
  5
3C7
100
AcDbEntity
  8
RACCORDO
100
AcDbLine
 62
253
  6
CONTINUOUS
 10
21.1046775207
 20
17.987610804
 11
25.564529907
 21
20.5181180415
  0
LINE
  5
3C8
100
AcDbEntity
  8
ASSI
100
AcDbLine
 62
253
  6
CONTINUOUS
 10
21.1046775207
 20
17.987610804
 11
25.564529907
 21
20.5181180415
  0
LINE
  5
3C9
100
AcDbEntity
  8
RACCORDO
100
AcDbLine
 62
7
  6
CONTINUOUS
 10
21.042452751
 20
17.8502324969
 11
25.5017363987
 21
20.3804170337
  0
LINE
  5
3CA
100
AcDbEntity
  8
ASSI
100
AcDbLine
 62
7
  6
CONTINUOUS
 10
21.042452751
 20
17.8502324969
 11
25.5017363987
 21
20.3804170337
  0
LINE
  5
3CB
100
AcDbEntity
  8
0
100
AcDbLine
 62
253
  6
CONTINUOUS
 10
11.2561467344
 20
-14.780644632
 11
11.2363613469
 21
-14.7692207972
  0
LINE
  5
3CC
100
AcDbEntity
  8
0
100
AcDbLine
 62
253
  6
CONTINUOUS
 10
11.3424273641
 20
-13.0934007405
 11
11.2363613469
 21
-13.0321595515
  0
LWPOLYLINE
  5
3CD
100
AcDbEntity
  8
ASSI
100
AcDbPolyline
 62
7
  6
CONTINUOUS
 90
4
 70
0
 10
-20.6880691168
 20
17.2809353305
 10
-20.6747187713
 20
17.2609076917
 10
-20.6593859929
 20
17.2426050655
 10
-20.6423030646
 20
17.2262302976
  0
LWPOLYLINE
  5
3CE
100
AcDbEntity
  8
RACCORDO
100
AcDbPolyline
 62
7
  6
CONTINUOUS
 90
17
 70
0
 10
-4.4239963028
 20
14.6229050643
 10
-4.4254692979
 20
14.6526872964
 10
-4.4310752794
 20
14.6882036395
 10
-4.4409303605
 20
14.7233507353
 10
-4.4551139555
 20
14.7578009202
 10
-4.4734793393
 20
14.7908221217
 10
-4.495993135
 20
14.8221229031
 10
-4.5227433766
 20
14.8515534713
 10
-4.5533324859
 20
14.8784584149
 10
-4.5869835375
 20
14.90216875
 10
-4.6234965944
 20
14.9226868647
 10
-4.6627202431
 20
14.9399917899
 10
-4.7039234767
 20
14.9538111744
 10
-4.7472465209
 20
14.9642456097
 10
-4.7924617597
 20
14.9711392955
 10
-4.8381108239
 20
14.9742610005
 10
-4.8841229522
 20
14.9736313323
  0
LWPOLYLINE
  5
3CF
100
AcDbEntity
  8
ASSI
100
AcDbPolyline
 62
7
  6
CONTINUOUS
 90
16
 70
0
 10
-3.7189470752
 20
7.9890022132
 10
-3.7208634347
 20
8.032480372
 10
-3.7266847898
 20
8.0778292854
 10
-3.7363752202
 20
8.1245870212
 10
-3.7499236404
 20
8.172435715
 10
-3.767167401
 20
8.2206940745
 10
-3.78766975
 20
8.268320137
 10
-3.8109129581
 20
8.3144169144
 10
-3.8367487371
 20
8.3589113953
 10
-3.8652584367
 20
8.4019767937
 10
-3.896452806
 20
8.4434509475
 10
-3.9297851284
 20
8.4824477558
 10
-3.9644998239
 20
8.5180961893
 10
-4.0000552871
 20
8.5499282665
 10
-4.0361870105
 20
8.5777735286
 10
-4.0725004558
 20
8.6013746306
  0
LWPOLYLINE
  5
3D0
100
AcDbEntity
  8
ASSI
100
AcDbPolyline
 62
253
  6
CONTINUOUS
 90
13
 70
0
 10
-3.5483959992
 20
10.4553056261
 10
-3.5493099564
 20
10.477487591
 10
-3.552668949
 20
10.5006621739
 10
-3.558415526
 20
10.5244330048
 10
-3.5664514001
 20
10.5483935157
 10
-3.5766391284
 20
10.5721338943
 10
-3.5888044635
 20
10.5952480935
 10
-3.6027393338
 20
10.6173407761
 10
-3.6182054021
 20
10.6380340766
 10
-3.6349381422
 20
10.6569740638
 10
-3.6526513632
 20
10.6738367949
 10
-3.6710421041
 20
10.6883338556
 10
-3.6897958163
 20
10.7002172932
  0
LWPOLYLINE
  5
3D1
100
AcDbEntity
  8
ASSI
100
AcDbPolyline
 62
7
  6
CONTINUOUS
 90
7
 70
0
 10
-3.4581326027
 20
-28.7414873121
 10
-3.4587126484
 20
-28.724871929
 10
-3.4628134995
 20
-28.6943153194
 10
-3.470818586
 20
-28.6647849595
 10
-3.4826193059
 20
-28.6367742655
 10
-3.4978671427
 20
-28.6109900468
 10
-3.5162324094
 20
-28.5877827105
  0
LWPOLYLINE
  5
3D2
100
AcDbEntity
  8
ASSI
100
AcDbPolyline
 62
253
  6
CONTINUOUS
 90
25
 70
0
 10
-3.5142640553
 20
-28.8219814616
 10
-3.51429747
 20
-28.8203340175
 10
-3.5143813669
 20
-28.8187490734
 10
-3.5145157462
 20
-28.8172266293
 10
-3.5147003026
 20
-28.8157746469
 10
-3.5149353414
 20
-28.8143851645
 10
-3.5152217775
 20
-28.8130342972
 10
-3.5155575158
 20
-28.8117156341
 10
-3.5159446514
 20
-28.810435586
 10
-3.5163903855
 20
-28.8091895005
 10
-3.5168944761
 20
-28.8079726246
 10
-3.517457165
 20
-28.8067897114
 10
-3.5180863793
 20
-28.8056503671
 10
-3.518781839
 20
-28.8045527823
 10
-3.519543824
 20
-28.8034987665
 10
-3.5203811008
 20
-28.8025033552
 10
-3.52129367
 20
-28.8015647504
 10
-3.522281531
 20
-28.80068475
 10
-3.5233534485
 20
-28.7998837831
 10
-3.5245099183
 20
-28.7991600019
 10
-3.5257504446
 20
-28.798515254
 10
-3.5270823043
 20
-28.7979755116
 10
-3.5285079228
 20
-28.7975494317
 10
-3.5300248747
 20
-28.7972283571
 10
-3.5316331599
 20
-28.7970122878
  0
LWPOLYLINE
  5
3D3
100
AcDbEntity
  8
ASSI
100
AcDbPolyline
 62
7
  6
CONTINUOUS
 90
11
 70
0
 10
-3.4581322873
 20
10.5152483574
 10
-3.4583210445
 20
10.524771993
 10
-3.4611062024
 20
10.5530764446
 10
-3.4672083707
 20
10.5806277689
 10
-3.476551927
 20
10.6070210071
 10
-3.4888817106
 20
10.6316733521
 10
-3.5039758559
 20
10.6543432605
 10
-3.5217122421
 20
10.6749106484
 10
-3.5417496938
 20
10.6930110891
 10
-3.5637016773
 20
10.7083658966
 10
-3.568209129
 20
10.7110446637
  0
LWPOLYLINE
  5
3D4
100
AcDbEntity
  8
ASSI
100
AcDbPolyline
 62
253
  6
CONTINUOUS
 90
28
 70
0
 10
-3.5142640553
 20
10.4348958951
 10
-3.5142933932
 20
10.4368623557
 10
-3.5144221246
 20
10.4388087145
 10
-3.5146502494
 20
10.4407349714
 10
-3.5149734458
 20
10.4426565074
 10
-3.5153960356
 20
10.4445579416
 10
-3.5159309844
 20
10.4463931312
 10
-3.5165821904
 20
10.4481606728
 10
-3.5173457553
 20
10.4498619698
 10
-3.5182229502
 20
10.4514550901
 10
-3.5192179704
 20
10.4529367931
 10
-3.5203266205
 20
10.4543103195
 10
-3.5215375865
 20
10.4555434587
 10
-3.5228536067
 20
10.4566312581
 10
-3.5242719427
 20
10.4575786704
 10
-3.5257730652
 20
10.458368343
 10
-3.5273570511
 20
10.4589960629
 10
-3.5290238234
 20
10.4594660432
 10
-3.5307536219
 20
10.4597735702
 10
-3.5325462665
 20
10.459916612
 10
-3.5344019373
 20
10.4598972004
 10
-3.5363014137
 20
10.4597167176
 10
-3.5382450946
 20
10.4593737155
 10
-3.5402325812
 20
10.4588696423
 10
-3.5422434567
 20
10.4582102241
 10
-3.5442709153
 20
10.4573973697
 10
-3.5463217629
 20
10.4564291703
 10
-3.5483959992
 20
10.4553056261
  0
LINE
  5
3D5
100
AcDbEntity
  8
ASSI
100
AcDbLine
 62
253
  6
CONTINUOUS
 10
-4.9749512165
 20
8.7593311927
 11
-4.9749512165
 21
8.0444269594
  0
LINE
  5
3D6
100
AcDbEntity
  8
ASSI
100
AcDbLine
 62
253
  6
CONTINUOUS
 10
-4.9749512165
 20
-28.565391518
 11
-4.9749512165
 21
-29.1408207472
  0
LINE
  5
3D7
100
AcDbEntity
  8
RACCORDO
100
AcDbLine
 62
253
  6
CONTINUOUS
 10
-4.5436467635
 20
13.351126058
 11
-4.5436467635
 21
13.8315635375
  0
LINE
  5
3D8
100
AcDbEntity
  8
RACCORDO
100
AcDbLine
 62
253
  6
CONTINUOUS
 10
-4.5436467635
 20
14.2036475739
 11
-4.5436467635
 21
14.4533920198
  0
LINE
  5
3D9
100
AcDbEntity
  8
RACCORDO
100
AcDbLine
 62
7
  6
CONTINUOUS
 10
-4.4239948418
 20
13.5179809361
 11
-4.423994984
 21
14.6228521047
  0
LINE
  5
3DA
100
AcDbEntity
  8
0
100
AcDbLine
 62
253
  6
CONTINUOUS
 10
-4.1877564682
 20
0.6338847662
 11
-4.1877564682
 21
-2.60872059
  0
LINE
  5
3DB
100
AcDbEntity
  8
RACCORDO
100
AcDbLine
 62
253
  6
CONTINUOUS
 10
-4.1877564682
 20
0.6338847662
 11
-4.1877564682
 21
-2.60872059
  0
LINE
  5
3DC
100
AcDbEntity
  8
0
100
AcDbLine
 62
253
  6
CONTINUOUS
 10
-4.1877564682
 20
-17.4917553786
 11
-4.1877564682
 21
-20.7343607348
  0
LINE
  5
3DD
100
AcDbEntity
  8
RACCORDO
100
AcDbLine
 62
253
  6
CONTINUOUS
 10
-4.1877564682
 20
-17.4917553786
 11
-4.1877564682
 21
-20.7343607348
  0
LINE
  5
3DE
100
AcDbEntity
  8
ASSI
100
AcDbLine
 62
7
  6
CONTINUOUS
 10
-4.0725004658
 20
8.6013748402
 11
-4.0725004658
 21
10.1526932366
  0
LINE
  5
3DF
100
AcDbEntity
  8
ASSI
100
AcDbLine
 62
7
  6
CONTINUOUS
 10
-4.0725004658
 20
-29.5278119565
 11
-4.0725004288
 21
-28.1241372412
  0
LINE
  5
3E0
100
AcDbEntity
  8
0
100
AcDbLine
 62
7
  6
CONTINUOUS
 10
-3.9649024297
 20
0.7603679533
 11
-3.9649024297
 21
-2.2368695588
  0
LINE
  5
3E1
100
AcDbEntity
  8
RACCORDO
100
AcDbLine
 62
7
  6
CONTINUOUS
 10
-3.9649024297
 20
0.7603679533
 11
-3.9649024297
 21
-2.2368695588
  0
LINE
  5
3E2
100
AcDbEntity
  8
0
100
AcDbLine
 62
7
  6
CONTINUOUS
 10
-3.9649024297
 20
-17.3652721915
 11
-3.9649024297
 21
-20.3625097036
  0
LINE
  5
3E3
100
AcDbEntity
  8
RACCORDO
100
AcDbLine
 62
7
  6
CONTINUOUS
 10
-3.9649024297
 20
-17.3652721915
 11
-3.9649024297
 21
-20.3625097036
  0
LINE
  5
3E4
100
AcDbEntity
  8
RACCORDO
100
AcDbLine
 62
7
  6
CONTINUOUS
 10
-3.9118051167
 20
0.7905038998
 11
-3.9118051167
 21
-1.6440642461
  0
LINE
  5
3E5
100
AcDbEntity
  8
RACCORDO
100
AcDbLine
 62
7
  6
CONTINUOUS
 10
-3.9118051167
 20
-17.335136245
 11
-3.9118051167
 21
-19.7697043909
  0
LINE
  5
3E6
100
AcDbEntity
  8
ASSI
100
AcDbLine
 62
7
  6
CONTINUOUS
 10
-3.7189470752
 20
7.9890022132
 11
-3.7189470752
 21
5.6212386025
  0
LINE
  5
3E7
100
AcDbEntity
  8
ASSI
100
AcDbLine
 62
7
  6
CONTINUOUS
 10
-3.7189470752
 20
-27.7723955264
 11
-3.7189470752
 21
-25.4046319157
  0
LINE
  5
3E8
100
AcDbEntity
  8
ASSI
100
AcDbLine
 62
253
  6
CONTINUOUS
 10
-3.5142640553
 20
-29.1424730312
 11
-3.5142640553
 21
-28.8219814616
  0
LINE
  5
3E9
100
AcDbEntity
  8
ASSI
100
AcDbLine
 62
253
  6
CONTINUOUS
 10
-3.5142640553
 20
10.1144043255
 11
-3.5142640553
 21
10.4348958951
  0
LINE
  5
3EA
100
AcDbEntity
  8
ASSI
100
AcDbLine
 62
7
  6
CONTINUOUS
 10
-3.4581320153
 20
-29.0622556238
 11
-3.4581325897
 21
-28.7414873121
  0
LINE
  5
3EB
100
AcDbEntity
  8
ASSI
100
AcDbLine
 62
7
  6
CONTINUOUS
 10
-3.4581320153
 20
10.1946217329
 11
-3.4581320153
 21
10.5151133023
  0
LINE
  5
3EC
100
AcDbEntity
  8
ASSI
100
AcDbLine
 62
7
  6
CONTINUOUS
 10
-3.0241828888
 20
-27.3428053
 11
-3.0241828888
 21
-24.5726141644
  0
LINE
  5
3ED
100
AcDbEntity
  8
ASSI
100
AcDbLine
 62
7
  6
CONTINUOUS
 10
-3.0241828888
 20
5.5652503212
 11
-3.0241828888
 21
8.3902140925
  0
LINE
  5
3EE
100
AcDbEntity
  8
DRAFT
100
AcDbLine
 62
7
  6
CONTINUOUS
 10
-2.9933240513
 20
-24.5356590347
 11
-2.9933240513
 21
-20.3000238468
  0
LINE
  5
3EF
100
AcDbEntity
  8
DRAFT
100
AcDbLine
 62
7
  6
CONTINUOUS
 10
-2.9933240513
 20
-16.8138425175
 11
-2.9933240513
 21
-2.174383702
  0
LINE
  5
3F0
100
AcDbEntity
  8
DRAFT
100
AcDbLine
 62
7
  6
CONTINUOUS
 10
-2.9933240513
 20
1.3117976273
 11
-2.9933240513
 21
5.5474328152
  0
LINE
  5
3F1
100
AcDbEntity
  8
RACCORDO
100
AcDbLine
 62
7
  6
CONTINUOUS
 10
-2.9764849549
 20
4.9245812208
 11
-2.9764849549
 21
-23.9322528067
  0
LWPOLYLINE
  5
3F2
100
AcDbEntity
  8
ASSI
100
AcDbPolyline
 62
7
  6
CONTINUOUS
 90
9
 70
0
 10
-3.7189470752
 20
-27.7724578946
 10
-3.7209063667
 20
-27.8137429076
 10
-3.7267194186
 20
-27.8525519646
 10
-3.7363783859
 20
-27.8884310302
 10
-3.7499137277
 20
-27.9210796114
 10
-3.767173862
 20
-27.9499347092
 10
-3.7876896455
 20
-27.9743281319
 10
-3.8109378947
 20
-27.9939247578
 10
-3.8191880486
 20
-27.9993650631
  0
LINE
  5
3F3
100
AcDbEntity
  8
ASSI
100
AcDbLine
 62
7
  6
CONTINUOUS
 10
-3.459638629
 20
10.1671491924
 11
-3.4581323595
 21
10.1946437925
  0
LWPOLYLINE
  5
3F4
100
AcDbEntity
  8
ASSI
100
AcDbPolyline
 62
253
  6
CONTINUOUS
 90
8
 70
0
 10
-5.6944005924
 20
-30.4000173579
 10
-5.6959163295
 20
-30.4207964478
 10
-5.6997823809
 20
-30.4397993808
 10
-5.7059326231
 20
-30.4567011374
 10
-5.7142618644
 20
-30.4712126358
 10
-5.7246276444
 20
-30.4830856764
 10
-5.7368526704
 20
-30.4921171868
 10
-5.7386070697
 20
-30.4930950167
  0
LINE
  5
3F5
100
AcDbEntity
  8
CURVE
100
AcDbLine
 62
253
  6
CONTINUOUS
 10
-20.7331678122
 20
-20.3534576475
 11
-20.7410619433
 21
-20.3643617346
  0
LINE
  5
3F6
100
AcDbEntity
  8
CURVE
100
AcDbLine
 62
253
  6
CONTINUOUS
 10
-23.4220315541
 20
-18.5408875342
 11
-23.4129390505
 21
-18.5320553759
  0
LINE
  5
3F7
100
AcDbEntity
  8
0
100
AcDbLine
 62
7
  6
CONTINUOUS
 10
-5.4867140282
 20
-0.1349754863
 11
-5.0394035812
 21
0.1738889215
  0
LINE
  5
3F8
100
AcDbEntity
  8
RACCORDO
100
AcDbLine
 62
7
  6
CONTINUOUS
 10
-5.4867140282
 20
-0.1349754863
 11
-5.0394035812
 21
0.1738889215
  0
LWPOLYLINE
  5
3F9
100
AcDbEntity
  8
ASSI
100
AcDbPolyline
 62
7
  6
CONTINUOUS
 90
20
 70
0
 10
19.7216427211
 20
15.440794941
 10
19.8366426631
 20
15.5127731243
 10
19.9494571492
 20
15.5937275563
 10
20.0600861793
 20
15.6836582368
 10
20.1692159018
 20
15.783261808
 10
20.2761601684
 20
15.8918416277
 10
20.3788605338
 20
16.0073077701
 10
20.4772347847
 20
16.1297936376
 10
20.5713651344
 20
16.2591658278
 10
20.6594397779
 20
16.3929342064
 10
20.7413414033
 20
16.5311839369
 10
20.8171873225
 20
16.673829856
 10
20.8855176659
 20
16.8181263389
 10
20.946186841
 20
16.9641053607
 10
20.9993404404
 20
17.1117349463
 10
21.0439553726
 20
17.2581735465
 10
21.0798662255
 20
17.4033980893
 10
21.1072384111
 20
17.5474316467
 10
21.1255450744
 20
17.687501885
 10
21.1346105968
 20
17.8235320263
  0
LINE
  5
3FA
100
AcDbEntity
  8
RACCORDO
100
AcDbLine
 62
253
  6
CONTINUOUS
 10
20.9808366718
 20
17.9121588525
 11
21.1046775207
 21
17.987610804
  0
LINE
  5
3FB
100
AcDbEntity
  8
ASSI
100
AcDbLine
 62
253
  6
CONTINUOUS
 10
20.9808366718
 20
17.9121588525
 11
21.1046775207
 21
17.987610804
  0
LINE
  5
3FC
100
AcDbEntity
  8
RACCORDO
100
AcDbLine
 62
7
  6
CONTINUOUS
 10
20.988521851
 20
17.8185245091
 11
21.0424017489
 21
17.850196078
  0
LINE
  5
3FD
100
AcDbEntity
  8
ASSI
100
AcDbLine
 62
7
  6
CONTINUOUS
 10
20.9888265363
 20
17.8187036086
 11
21.0424010724
 21
17.8501956947
  0
LINE
  5
3FE
100
AcDbEntity
  8
DRAFT
100
AcDbLine
 62
7
  6
CONTINUOUS
 10
23.6460853567
 20
16.6452168278
 11
20.3166395762
 21
14.6889884571
  0
LINE
  5
3FF
100
AcDbEntity
  8
ASSI
100
AcDbLine
 62
7
  6
CONTINUOUS
 10
23.6460853567
 20
16.6452168278
 11
20.3166395762
 21
14.6889884571
  0
LINE
  5
400
100
AcDbEntity
  8
DRAFT
100
AcDbLine
 62
7
  6
CONTINUOUS
 10
23.6460853567
 20
16.6452168278
 11
24.7067455285
 21
17.2576287178
  0
LINE
  5
401
100
AcDbEntity
  8
ASSI
100
AcDbLine
 62
7
  6
CONTINUOUS
 10
23.6460853567
 20
16.6452168278
 11
24.7067455285
 21
17.2576287178
  0
LINE
  5
402
100
AcDbEntity
  8
DRAFT
100
AcDbLine
 62
7
  6
CONTINUOUS
 10
-2.9933240513
 20
1.3117976273
 11
-4.4445700991
 21
0.4881274502
  0
LINE
  5
403
100
AcDbEntity
  8
DRAFT
100
AcDbLine
 62
7
  6
CONTINUOUS
 10
-4.4445700991
 20
0.4881274502
 11
-5.4867140282
 21
-0.0624161638
  0
LWPOLYLINE
  5
404
100
AcDbEntity
  8
RACCORDO
100
AcDbPolyline
 62
253
  6
CONTINUOUS
 90
45
 70
0
 10
21.1046775207
 20
13.9869064477
 10
20.980977569
 20
13.921883418
 10
20.8591370664
 20
13.8674996969
 10
20.7391560127
 20
13.8237552846
 10
20.6204383905
 20
13.7905673329
 10
20.5035802173
 20
13.76801869
 10
20.3903695459
 20
13.7563578999
 10
20.2809245345
 20
13.7557544718
 10
20.1751270249
 20
13.7660388966
 10
20.0744105951
 20
13.7869511915
 10
19.9788477242
 20
13.8186192558
 10
19.888365933
 20
13.8609151902
 10
19.8041813622
 20
13.9131953143
 10
19.726371357
 20
13.9755760657
 10
19.6548585723
 20
14.0479410067
 10
19.5906271138
 20
14.1292971443
 10
19.5337592154
 20
14.2197772368
 10
19.4841726433
 20
14.3192485258
 10
19.4426048014
 20
14.4263197432
 10
19.4091677031
 20
14.54111265
 10
19.383749335
 20
14.6635054853
 10
19.3667510614
 20
14.7917416984
 10
19.3583066693
 20
14.9259454875
 10
19.3582823716
 20
15.0659926544
 10
19.3666781716
 20
15.2097540549
 10
19.3836275212
 20
15.3572564034
 10
19.4089969685
 20
15.5084729855
 10
19.4423861607
 20
15.661194513
 10
19.4839066468
 20
15.8154264025
 10
19.5334468777
 20
15.9711632375
 10
19.5902718536
 20
16.1261794793
 10
19.6544632007
 20
16.2804357023
 10
19.7259392928
 20
16.4339713321
 10
19.8037202508
 20
16.5846791076
 10
19.8878844664
 20
16.732532514
 10
19.978353548
 20
16.877558066
 10
20.0739124419
 20
17.0177280459
 10
20.1746343036
 20
17.1529974731
 10
20.2804459777
 20
17.2834113281
 10
20.3899129441
 20
17.4070768357
 10
20.5031470043
 20
17.523954116
 10
20.620036357
 20
17.6340830487
 10
20.7388110774
 20
17.7356904976
 10
20.8588811907
 20
17.828185417
 10
20.9808366718
 20
17.9121588525
  0
LWPOLYLINE
  5
405
100
AcDbEntity
  8
ASSI
100
AcDbPolyline
 62
253
  6
CONTINUOUS
 90
45
 70
0
 10
21.1046775207
 20
13.9869064477
 10
20.980977569
 20
13.921883418
 10
20.8591370664
 20
13.8674996969
 10
20.7391560127
 20
13.8237552846
 10
20.6204383905
 20
13.7905673329
 10
20.5035802173
 20
13.76801869
 10
20.3903695459
 20
13.7563578999
 10
20.2809245345
 20
13.7557544718
 10
20.1751270249
 20
13.7660388966
 10
20.0744105951
 20
13.7869511915
 10
19.9788477242
 20
13.8186192558
 10
19.888365933
 20
13.8609151902
 10
19.8041813622
 20
13.9131953143
 10
19.726371357
 20
13.9755760657
 10
19.6548585723
 20
14.0479410067
 10
19.5906271138
 20
14.1292971443
 10
19.5337592154
 20
14.2197772368
 10
19.4841726433
 20
14.3192485258
 10
19.4426048014
 20
14.4263197432
 10
19.4091677031
 20
14.54111265
 10
19.383749335
 20
14.6635054853
 10
19.3667510614
 20
14.7917416984
 10
19.3583066693
 20
14.9259454875
 10
19.3582823716
 20
15.0659926544
 10
19.3666781716
 20
15.2097540549
 10
19.3836275212
 20
15.3572564034
 10
19.4089969685
 20
15.5084729855
 10
19.4423861607
 20
15.661194513
 10
19.4839066468
 20
15.8154264025
 10
19.5334468777
 20
15.9711632375
 10
19.5902718536
 20
16.1261794793
 10
19.6544632007
 20
16.2804357023
 10
19.7259392928
 20
16.4339713321
 10
19.8037202508
 20
16.5846791076
 10
19.8878844664
 20
16.732532514
 10
19.978353548
 20
16.877558066
 10
20.0739124419
 20
17.0177280459
 10
20.1746343036
 20
17.1529974731
 10
20.2804459777
 20
17.2834113281
 10
20.3899129441
 20
17.4070768357
 10
20.5031470043
 20
17.523954116
 10
20.620036357
 20
17.6340830487
 10
20.7388110774
 20
17.7356904976
 10
20.8588811907
 20
17.828185417
 10
20.9808366718
 20
17.9121588525
  0
LWPOLYLINE
  5
406
100
AcDbEntity
  8
RACCORDO
100
AcDbPolyline
 62
253
  6
CONTINUOUS
 90
13
 70
0
 10
20.8944047414
 20
14.3553940918
 10
20.7861428723
 20
14.2984942589
 10
20.6786065443
 20
14.2506799425
 10
20.5723200494
 20
14.2121463434
 10
20.4677976498
 20
14.1830449394
 10
20.3655397379
 20
14.1634703269
 10
20.2660316624
 20
14.1534650719
 10
20.1697560174
 20
14.15303679
 10
20.0771496683
 20
14.1621452722
 10
19.9886078799
 20
14.1807107901
 10
19.9045477739
 20
14.2086166656
 10
19.8253557908
 20
14.2457036392
 10
19.8119955903
 20
14.2531401961
  0
LWPOLYLINE
  5
407
100
AcDbEntity
  8
ASSI
100
AcDbPolyline
 62
253
  6
CONTINUOUS
 90
13
 70
0
 10
20.8944047414
 20
14.3553940918
 10
20.7861428723
 20
14.2984942589
 10
20.6786065443
 20
14.2506799425
 10
20.5723200494
 20
14.2121463434
 10
20.4677976498
 20
14.1830449394
 10
20.3655397379
 20
14.1634703269
 10
20.2660316624
 20
14.1534650719
 10
20.1697560174
 20
14.15303679
 10
20.0771496683
 20
14.1621452722
 10
19.9886078799
 20
14.1807107901
 10
19.9045477739
 20
14.2086166656
 10
19.8253557908
 20
14.2457036392
 10
19.8119316705
 20
14.2531766599
  0
LWPOLYLINE
  5
408
100
AcDbEntity
  8
ASSI
100
AcDbPolyline
 62
7
  6
CONTINUOUS
 90
4
 70
0
 10
19.4569899299
 20
11.2357077821
 10
19.4938282931
 20
11.2483017812
 10
19.6066427791
 20
11.2976226899
 10
19.7216427211
 20
11.3584435571
  0
LINE
  5
409
100
AcDbEntity
  8
DRAFT
100
AcDbLine
 62
7
  6
CONTINUOUS
 10
-4.5538159554
 20
-2.8779705241
 11
-4.4445700991
 21
-2.9410477123
  0
LINE
  5
40A
100
AcDbEntity
  8
RACCORDO
100
AcDbLine
 62
7
  6
CONTINUOUS
 10
-3.9649024297
 20
-1.6134065231
 11
-2.9933240513
 21
-2.174383702
  0
LINE
  5
40B
100
AcDbEntity
  8
0
100
AcDbLine
 62
253
  6
CONTINUOUS
 10
15.1254486434
 20
-12.5694014573
 11
14.6334023456
 21
-12.2853000917
  0
LWPOLYLINE
  5
40C
100
AcDbEntity
  8
0
100
AcDbPolyline
 62
253
  6
CONTINUOUS
 90
7
 70
0
 10
-24.8579567732
 20
12.581776971
 10
-24.8955017231
 20
12.6095746216
 10
-24.9267841301
 20
12.6395586947
 10
-24.9513305598
 20
12.6712754051
 10
-24.9687695214
 20
12.7042447457
 10
-24.9788370902
 20
12.7379677515
 10
-24.9813982619
 20
12.7714371345
  0
LWPOLYLINE
  5
40D
100
AcDbEntity
  8
RACCORDO
100
AcDbPolyline
 62
253
  6
CONTINUOUS
 90
7
 70
0
 10
-24.8579567729
 20
12.5817769711
 10
-24.8955017228
 20
12.6095746217
 10
-24.9267841298
 20
12.6395586948
 10
-24.9513305595
 20
12.6712754052
 10
-24.9687695211
 20
12.7042447457
 10
-24.9788370899
 20
12.7379677516
 10
-24.9813982616
 20
12.7714371345
  0
LWPOLYLINE
  5
40E
100
AcDbEntity
  8
0
100
AcDbPolyline
 62
7
  6
CONTINUOUS
 90
6
 70
0
 10
7.0190168162
 20
-14.142542536
 10
7.0545501781
 20
-14.1917879181
 10
7.099623785
 20
-14.2589550105
 10
7.1426242318
 20
-14.3280046577
 10
7.1835183043
 20
-14.3988350652
 10
7.2058526941
 20
-14.4406860141
  0
LWPOLYLINE
  5
40F
100
AcDbEntity
  8
ASSI
100
AcDbPolyline
 62
253
  6
CONTINUOUS
 90
7
 70
0
 10
-3.5483959992
 20
-29.2036978926
 10
-3.5493099538
 20
-29.224129498
 10
-3.5526689387
 20
-29.2428396457
 10
-3.5584155048
 20
-29.2595083234
 10
-3.5664513662
 20
-29.2738504345
 10
-3.576639082
 20
-29.2856206758
 10
-3.587070843
 20
-29.293581656
  0
LINE
  5
410
100
AcDbEntity
  8
ASSI
100
AcDbLine
 62
7
  6
CONTINUOUS
 10
-3.4596811981
 20
-29.0901132282
 11
-3.4581325011
 21
-29.0621991354
  0
LINE
  5
411
100
AcDbEntity
  8
0
100
AcDbLine
 62
7
  6
CONTINUOUS
 10
-5.4867140282
 20
-3.5641506488
 11
-4.1877564682
 21
-2.60872059
  0
LINE
  5
412
100
AcDbEntity
  8
RACCORDO
100
AcDbLine
 62
7
  6
CONTINUOUS
 10
-5.4867140282
 20
-3.5641506488
 11
-4.1877564682
 21
-2.60872059
  0
LWPOLYLINE
  5
413
100
AcDbEntity
  8
ASSI
100
AcDbPolyline
 62
7
  6
CONTINUOUS
 90
3
 70
0
 10
19.7216427211
 20
14.6243246642
 10
19.6066427791
 20
14.5523464809
 10
19.5676005188
 20
14.5243301851
  0
LINE
  5
414
100
AcDbEntity
  8
RACCORDO
100
AcDbLine
 62
253
  6
CONTINUOUS
 10
20.9808366718
 20
13.8298074685
 11
21.1046775207
 21
13.9052594201
  0
LINE
  5
415
100
AcDbEntity
  8
ASSI
100
AcDbLine
 62
253
  6
CONTINUOUS
 10
20.9808366718
 20
13.8298074685
 11
21.1046775207
 21
13.9052594201
  0
LINE
  5
416
100
AcDbEntity
  8
RACCORDO
100
AcDbLine
 62
7
  6
CONTINUOUS
 10
20.988521851
 20
13.7361731252
 11
21.0424017489
 21
13.767844694
  0
LINE
  5
417
100
AcDbEntity
  8
ASSI
100
AcDbLine
 62
7
  6
CONTINUOUS
 10
20.9888265363
 20
13.7363522247
 11
21.0424010724
 21
13.7678443107
  0
LINE
  5
418
100
AcDbEntity
  8
RACCORDO
100
AcDbLine
 62
253
  6
CONTINUOUS
 10
25.352389795
 20
16.8848418102
 11
20.8944047414
 21
14.3553940918
  0
LINE
  5
419
100
AcDbEntity
  8
ASSI
100
AcDbLine
 62
253
  6
CONTINUOUS
 10
25.352389795
 20
16.8848418102
 11
20.8944047414
 21
14.3553940918
  0
LINE
  5
41A
100
AcDbEntity
  8
RACCORDO
100
AcDbLine
 62
253
  6
CONTINUOUS
 10
25.564529907
 20
16.5174136852
 11
21.1046775207
 21
13.9869064477
  0
LINE
  5
41B
100
AcDbEntity
  8
ASSI
100
AcDbLine
 62
253
  6
CONTINUOUS
 10
25.564529907
 20
16.5174136852
 11
21.1046775207
 21
13.9869064477
  0
LINE
  5
41C
100
AcDbEntity
  8
RACCORDO
100
AcDbLine
 62
253
  6
CONTINUOUS
 10
21.1046775207
 20
13.9052594201
 11
25.564529907
 21
16.4357666575
  0
LINE
  5
41D
100
AcDbEntity
  8
ASSI
100
AcDbLine
 62
253
  6
CONTINUOUS
 10
21.1046775207
 20
13.9052594201
 11
25.564529907
 21
16.4357666575
  0
LINE
  5
41E
100
AcDbEntity
  8
RACCORDO
100
AcDbLine
 62
7
  6
CONTINUOUS
 10
21.042452751
 20
13.7678811129
 11
25.5017363987
 21
16.2980656497
  0
LINE
  5
41F
100
AcDbEntity
  8
ASSI
100
AcDbLine
 62
7
  6
CONTINUOUS
 10
21.042452751
 20
13.7678811129
 11
25.5017363987
 21
16.2980656497
  0
LWPOLYLINE
  5
420
100
AcDbEntity
  8
ASSI
100
AcDbPolyline
 62
7
  6
CONTINUOUS
 90
4
 70
0
 10
19.4569899299
 20
7.1533563981
 10
19.4938282931
 20
7.1659503972
 10
19.6066427791
 20
7.215271306
 10
19.7216427211
 20
7.2760921731
  0
LWPOLYLINE
  5
421
100
AcDbEntity
  8
0
100
AcDbPolyline
 62
253
  6
CONTINUOUS
 90
13
 70
0
 10
-10.0162066017
 20
4.0123519906
 10
-9.967486374
 20
3.9903407881
 10
-9.9145306542
 20
3.9716861507
 10
-9.8581408596
 20
3.9566703927
 10
-9.7991703781
 20
3.9455207586
 10
-9.7385116529
 20
3.9384059836
 10
-9.6770826768
 20
3.9354337404
 10
-9.6158130993
 20
3.9366490097
 10
-9.5556301573
 20
3.9420334002
 10
-9.4974446433
 20
3.951505426
 10
-9.442137121
 20
3.9649217399
 10
-9.3905445995
 20
3.9820793031
 10
-9.3434478659
 20
4.0027184578
  0
LWPOLYLINE
  5
422
100
AcDbEntity
  8
RACCORDO
100
AcDbPolyline
 62
253
  6
CONTINUOUS
 90
13
 70
0
 10
-10.0162066016
 20
4.0123519906
 10
-9.967486374
 20
3.9903407881
 10
-9.9145306542
 20
3.9716861507
 10
-9.8581408595
 20
3.9566703927
 10
-9.799170378
 20
3.9455207586
 10
-9.7385116529
 20
3.9384059837
 10
-9.6770826768
 20
3.9354337404
 10
-9.6158130992
 20
3.9366490097
 10
-9.5556301573
 20
3.9420334002
 10
-9.4974446433
 20
3.951505426
 10
-9.442137121
 20
3.9649217399
 10
-9.3905445995
 20
3.9820793031
 10
-9.3434478658
 20
4.0027184578
  0
LWPOLYLINE
  5
423
100
AcDbEntity
  8
RACCORDO
100
AcDbPolyline
 62
253
  6
CONTINUOUS
 90
31
 70
0
 10
-10.0162197371
 20
4.0123439856
 10
-10.5284746241
 20
4.2710258795
 10
-11.0385394348
 20
4.5309390141
 10
-11.546406492
 20
4.7920768935
 10
-12.0519783688
 20
5.0543861644
 10
-12.5553379791
 20
5.3179067309
 10
-13.0567451778
 20
5.5827739115
 10
-13.5563025712
 20
5.8490434553
 10
-14.0538858884
 20
6.1166507483
 10
-14.5494125541
 20
6.3855519081
 10
-15.0428368777
 20
6.6557217348
 10
-15.534185981
 20
6.9271746169
 10
-16.0234869658
 20
7.1999257664
 10
-16.5108483288
 20
7.4740370596
 10
-16.9961408859
 20
7.749437069
 10
-17.4790388879
 20
8.0259389036
 10
-17.9592455961
 20
8.3033661159
 10
-18.4370493291
 20
8.581878557
 10
-18.9129988362
 20
8.8617955419
 10
-19.3860497103
 20
9.1424975726
 10
-19.8572308024
 20
9.424591816
 10
-20.3301439591
 20
9.7102691942
 10
-20.8039414776
 20
9.9990705405
 10
-21.2793524482
 20
10.2914985114
 10
-21.7622084102
 20
10.5912599848
 10
-22.2528000546
 20
10.8987015976
 10
-22.750522298
 20
11.2136202714
 10
-23.259701641
 20
11.5389823126
 10
-23.7815861501
 20
11.8758674215
 10
-24.3144234686
 20
12.2234275069
 10
-24.8579567771
 20
12.581776938
  0
LWPOLYLINE
  5
424
100
AcDbEntity
  8
0
100
AcDbPolyline
 62
253
  6
CONTINUOUS
 90
31
 70
0
 10
-10.0162197371
 20
4.0123439866
 10
-10.5284650234
 20
4.2710210094
 10
-11.0385212477
 20
4.5309297045
 10
-11.5463807225
 20
4.7920635834
 10
-12.0519464077
 20
5.0543695073
 10
-12.5553008059
 20
5.3178871824
 10
-13.0567025788
 20
5.5827513075
 10
-13.5562538363
 20
5.8490173622
 10
-14.053830815
 20
6.1166209959
 10
-14.5493512615
 20
6.3855184979
 10
-15.0427696191
 20
6.6556847427
 10
-15.5341128736
 20
6.9271340466
 10
-16.0234080422
 20
7.1998815748
 10
-16.5107636538
 20
7.4739892217
 10
-16.9960504929
 20
7.7493855419
 10
-17.4789426327
 20
8.0258835422
 10
-17.9591428792
 20
8.3033065082
 10
-18.4369400159
 20
8.5818145532
 10
-18.9128839811
 20
8.8617276911
 10
-19.3859300128
 20
9.1424262284
 10
-19.8571072943
 20
9.4245175412
 10
-20.3300198457
 20
9.7101938826
 10
-20.8038205712
 20
9.9989965086
 10
-21.2792378603
 20
10.2914277047
 10
-21.7621034298
 20
10.5911945085
 10
-22.2527087168
 20
10.8986440864
 10
-22.7504477767
 20
11.2135728906
 10
-23.2596449013
 20
11.5389458751
 10
-23.7815474164
 20
11.8758422908
 10
-24.3144036579
 20
12.2234145179
 10
-24.8579567771
 20
12.581776939
  0
LINE
  5
425
100
AcDbEntity
  8
0
100
AcDbLine
 62
253
  6
CONTINUOUS
 10
18.7670485665
 20
-10.5435787563
 11
18.6609825494
 21
-10.4823375673
  0
LWPOLYLINE
  5
426
100
AcDbEntity
  8
0
100
AcDbPolyline
 62
253
  6
CONTINUOUS
 90
16
 70
0
 10
-9.2232097336
 20
5.4202126582
 10
-9.1871608019
 20
5.3961144705
 10
-9.1513037669
 20
5.3679378971
 10
-9.1160308013
 20
5.3359911088
 10
-9.0817276902
 20
5.3006235115
 10
-9.0487696106
 20
5.2622219251
 10
-9.0175170286
 20
5.2212063528
 10
-8.9883117573
 20
5.1780253873
 10
-8.9614732186
 20
5.1331513039
 10
-8.9372949488
 20
5.0870748961
 10
-8.9160413886
 20
5.0403001072
 10
-8.8979449909
 20
4.9933385189
 10
-8.8832036782
 20
4.946703756
 10
-8.871978678
 20
4.9009058685
 10
-8.8643927595
 20
4.8564457536
 10
-8.8605288909
 20
4.8138096772
  0
LWPOLYLINE
  5
427
100
AcDbEntity
  8
RACCORDO
100
AcDbPolyline
 62
253
  6
CONTINUOUS
 90
16
 70
0
 10
-9.2232097335
 20
5.4202126583
 10
-9.1871608019
 20
5.3961144705
 10
-9.1513037669
 20
5.3679378971
 10
-9.1160308013
 20
5.3359911088
 10
-9.0817276901
 20
5.3006235115
 10
-9.0487696106
 20
5.2622219251
 10
-9.0175170286
 20
5.2212063529
 10
-8.9883117573
 20
5.1780253873
 10
-8.9614732186
 20
5.1331513039
 10
-8.9372949488
 20
5.0870748961
 10
-8.9160413886
 20
5.0403001072
 10
-8.8979449909
 20
4.993338519
 10
-8.8832036782
 20
4.946703756
 10
-8.8719786779
 20
4.9009058685
 10
-8.8643927595
 20
4.8564457536
 10
-8.8605288909
 20
4.8138096772
  0
LWPOLYLINE
  5
428
100
AcDbEntity
  8
ASSI
100
AcDbPolyline
 62
7
  6
CONTINUOUS
 90
4
 70
0
 10
-8.1015684117
 20
10.0136475692
 10
-8.0882180662
 20
9.9936199305
 10
-8.0728852878
 20
9.9753173042
 10
-8.0558023595
 20
9.9589425364
  0
LINE
  5
429
100
AcDbEntity
  8
DRAFT
100
AcDbLine
 62
7
  6
CONTINUOUS
 10
0.8772470025
 20
11.8268664378
 11
0.8772470025
 21
10.2160579649
  0
LINE
  5
42A
100
AcDbEntity
  8
ASSI
100
AcDbLine
 62
7
  6
CONTINUOUS
 10
1.3105134754
 20
12.6132880144
 11
1.3105134754
 21
12.342113643
  0
LINE
  5
42B
100
AcDbEntity
  8
RACCORDO
100
AcDbLine
 62
7
  6
CONTINUOUS
 10
1.8868643499
 20
7.7910663178
 11
1.8868643499
 21
-20.9831231636
  0
LINE
  5
42C
100
AcDbEntity
  8
ASSI
100
AcDbLine
 62
7
  6
CONTINUOUS
 10
1.9082046489
 20
-21.4885266192
 11
1.9082046489
 21
-21.2941835507
  0
LINE
  5
42D
100
AcDbEntity
  8
ASSI
100
AcDbLine
 62
7
  6
CONTINUOUS
 10
1.9082046489
 20
12.9767785824
 11
1.9082046489
 21
13.171121651
  0
LWPOLYLINE
  5
42E
100
AcDbEntity
  8
ASSI
100
AcDbPolyline
 62
7
  6
CONTINUOUS
 90
20
 70
0
 10
19.7216427211
 20
11.3584435571
 10
19.8366426631
 20
11.4304217404
 10
19.9494571492
 20
11.5113761723
 10
20.0600861793
 20
11.6013068528
 10
20.1692159018
 20
11.700910424
 10
20.2761601684
 20
11.8094902438
 10
20.3788605338
 20
11.9249563861
 10
20.4772347847
 20
12.0474422537
 10
20.5713651344
 20
12.1768144438
 10
20.6594397779
 20
12.3105828224
 10
20.7413414033
 20
12.448832553
 10
20.8171873225
 20
12.591478472
 10
20.8855176659
 20
12.735774955
 10
20.946186841
 20
12.8817539767
 10
20.9993404404
 20
13.0293835624
 10
21.0439553726
 20
13.1758221626
 10
21.0798662255
 20
13.3210467054
 10
21.1072384111
 20
13.4650802627
 10
21.1255450744
 20
13.605150501
 10
21.1346105968
 20
13.7411806423
  0
LWPOLYLINE
  5
42F
100
AcDbEntity
  8
ASSI
100
AcDbPolyline
 62
7
  6
CONTINUOUS
 90
3
 70
0
 10
19.7216427211
 20
10.5419732803
 10
19.6066427791
 20
10.469995097
 10
19.5676005188
 20
10.4419788012
  0
LINE
  5
430
100
AcDbEntity
  8
RACCORDO
100
AcDbLine
 62
253
  6
CONTINUOUS
 10
20.9808366718
 20
9.7474560845
 11
21.1046775207
 21
9.8229080361
  0
LINE
  5
431
100
AcDbEntity
  8
ASSI
100
AcDbLine
 62
253
  6
CONTINUOUS
 10
20.9808366718
 20
9.7474560845
 11
21.1046775207
 21
9.8229080361
  0
LINE
  5
432
100
AcDbEntity
  8
RACCORDO
100
AcDbLine
 62
7
  6
CONTINUOUS
 10
20.988521851
 20
9.6538217412
 11
21.0424017489
 21
9.6854933101
  0
LINE
  5
433
100
AcDbEntity
  8
ASSI
100
AcDbLine
 62
7
  6
CONTINUOUS
 10
20.9888265363
 20
9.6540008407
 11
21.0424010724
 21
9.6854929267
  0
LINE
  5
434
100
AcDbEntity
  8
DRAFT
100
AcDbLine
 62
7
  6
CONTINUOUS
 10
23.6460853567
 20
12.5628654439
 11
20.3166395762
 21
10.6066370732
  0
LINE
  5
435
100
AcDbEntity
  8
ASSI
100
AcDbLine
 62
7
  6
CONTINUOUS
 10
23.6460853567
 20
12.5628654439
 11
20.3166395762
 21
10.6066370732
  0
LINE
  5
436
100
AcDbEntity
  8
DRAFT
100
AcDbLine
 62
7
  6
CONTINUOUS
 10
23.6460853567
 20
12.5628654439
 11
24.7067455285
 21
13.1752773338
  0
LINE
  5
437
100
AcDbEntity
  8
ASSI
100
AcDbLine
 62
7
  6
CONTINUOUS
 10
23.6460853567
 20
12.5628654439
 11
24.7067455285
 21
13.1752773338
  0
LINE
  5
438
100
AcDbEntity
  8
DRAFT
100
AcDbLine
 62
7
  6
CONTINUOUS
 10
-4.4445700991
 20
-2.9410477123
 11
-5.2984540645
 21
-3.4256786666
  0
LINE
  5
439
100
AcDbEntity
  8
RACCORDO
100
AcDbLine
 62
253
  6
CONTINUOUS
 10
25.352389795
 20
12.8024904262
 11
20.8944047414
 21
10.2730427079
  0
LINE
  5
43A
100
AcDbEntity
  8
ASSI
100
AcDbLine
 62
253
  6
CONTINUOUS
 10
25.352389795
 20
12.8024904262
 11
20.8944047414
 21
10.2730427079
  0
LINE
  5
43B
100
AcDbEntity
  8
RACCORDO
100
AcDbLine
 62
253
  6
CONTINUOUS
 10
25.564529907
 20
12.4350623012
 11
21.1046775207
 21
9.9045550638
  0
LINE
  5
43C
100
AcDbEntity
  8
ASSI
100
AcDbLine
 62
253
  6
CONTINUOUS
 10
25.564529907
 20
12.4350623012
 11
21.1046775207
 21
9.9045550638
  0
LINE
  5
43D
100
AcDbEntity
  8
RACCORDO
100
AcDbLine
 62
253
  6
CONTINUOUS
 10
21.1046775207
 20
9.8229080361
 11
25.564529907
 21
12.3534152735
  0
LINE
  5
43E
100
AcDbEntity
  8
ASSI
100
AcDbLine
 62
253
  6
CONTINUOUS
 10
21.1046775207
 20
9.8229080361
 11
25.564529907
 21
12.3534152735
  0
LINE
  5
43F
100
AcDbEntity
  8
RACCORDO
100
AcDbLine
 62
7
  6
CONTINUOUS
 10
21.042452751
 20
9.6855297289
 11
25.5017363987
 21
12.2157142658
  0
LINE
  5
440
100
AcDbEntity
  8
ASSI
100
AcDbLine
 62
7
  6
CONTINUOUS
 10
21.042452751
 20
9.6855297289
 11
25.5017363987
 21
12.2157142658
  0
LINE
  5
441
100
AcDbEntity
  8
DRAFT
100
AcDbLine
 62
7
  6
CONTINUOUS
 10
-2.9933240513
 20
-2.174383702
 11
-4.4445700991
 21
-2.9410477123
  0
LWPOLYLINE
  5
442
100
AcDbEntity
  8
RACCORDO
100
AcDbPolyline
 62
253
  6
CONTINUOUS
 90
45
 70
0
 10
21.1046775207
 20
9.9045550638
 10
20.980977569
 20
9.839532034
 10
20.8591370664
 20
9.7851483129
 10
20.7391560127
 20
9.7414039006
 10
20.6204383905
 20
9.7082159489
 10
20.5035802173
 20
9.685667306
 10
20.3903695459
 20
9.674006516
 10
20.2809245345
 20
9.6734030878
 10
20.1751270249
 20
9.6836875126
 10
20.0744105951
 20
9.7045998075
 10
19.9788477242
 20
9.7362678718
 10
19.888365933
 20
9.7785638062
 10
19.8041813622
 20
9.8308439303
 10
19.726371357
 20
9.8932246817
 10
19.6548585723
 20
9.9655896228
 10
19.5906271138
 20
10.0469457604
 10
19.5337592154
 20
10.1374258528
 10
19.4841726433
 20
10.2368971418
 10
19.4426048014
 20
10.3439683593
 10
19.4091677031
 20
10.458761266
 10
19.383749335
 20
10.5811541013
 10
19.3667510614
 20
10.7093903145
 10
19.3583066693
 20
10.8435941035
 10
19.3582823716
 20
10.9836412704
 10
19.3666781716
 20
11.1274026709
 10
19.3836275212
 20
11.2749050195
 10
19.4089969685
 20
11.4261216016
 10
19.4423861607
 20
11.578843129
 10
19.4839066468
 20
11.7330750186
 10
19.5334468777
 20
11.8888118535
 10
19.5902718536
 20
12.0438280953
 10
19.6544632007
 20
12.1980843183
 10
19.7259392928
 20
12.3516199482
 10
19.8037202508
 20
12.5023277236
 10
19.8878844664
 20
12.65018113
 10
19.978353548
 20
12.795206682
 10
20.0739124419
 20
12.935376662
 10
20.1746343036
 20
13.0706460891
 10
20.2804459777
 20
13.2010599442
 10
20.3899129441
 20
13.3247254517
 10
20.5031470043
 20
13.441602732
 10
20.620036357
 20
13.5517316648
 10
20.7388110774
 20
13.6533391136
 10
20.8588811907
 20
13.745834033
 10
20.9808366718
 20
13.8298074685
  0
LWPOLYLINE
  5
443
100
AcDbEntity
  8
ASSI
100
AcDbPolyline
 62
253
  6
CONTINUOUS
 90
45
 70
0
 10
21.1046775207
 20
9.9045550638
 10
20.980977569
 20
9.839532034
 10
20.8591370664
 20
9.7851483129
 10
20.7391560127
 20
9.7414039006
 10
20.6204383905
 20
9.7082159489
 10
20.5035802173
 20
9.685667306
 10
20.3903695459
 20
9.674006516
 10
20.2809245345
 20
9.6734030878
 10
20.1751270249
 20
9.6836875126
 10
20.0744105951
 20
9.7045998075
 10
19.9788477242
 20
9.7362678718
 10
19.888365933
 20
9.7785638062
 10
19.8041813622
 20
9.8308439303
 10
19.726371357
 20
9.8932246817
 10
19.6548585723
 20
9.9655896228
 10
19.5906271138
 20
10.0469457604
 10
19.5337592154
 20
10.1374258528
 10
19.4841726433
 20
10.2368971418
 10
19.4426048014
 20
10.3439683593
 10
19.4091677031
 20
10.458761266
 10
19.383749335
 20
10.5811541013
 10
19.3667510614
 20
10.7093903145
 10
19.3583066693
 20
10.8435941035
 10
19.3582823716
 20
10.9836412704
 10
19.3666781716
 20
11.1274026709
 10
19.3836275212
 20
11.2749050195
 10
19.4089969685
 20
11.4261216016
 10
19.4423861607
 20
11.578843129
 10
19.4839066468
 20
11.7330750186
 10
19.5334468777
 20
11.8888118535
 10
19.5902718536
 20
12.0438280953
 10
19.6544632007
 20
12.1980843183
 10
19.7259392928
 20
12.3516199482
 10
19.8037202508
 20
12.5023277236
 10
19.8878844664
 20
12.65018113
 10
19.978353548
 20
12.795206682
 10
20.0739124419
 20
12.935376662
 10
20.1746343036
 20
13.0706460891
 10
20.2804459777
 20
13.2010599442
 10
20.3899129441
 20
13.3247254517
 10
20.5031470043
 20
13.441602732
 10
20.620036357
 20
13.5517316648
 10
20.7388110774
 20
13.6533391136
 10
20.8588811907
 20
13.745834033
 10
20.9808366718
 20
13.8298074685
  0
LWPOLYLINE
  5
444
100
AcDbEntity
  8
RACCORDO
100
AcDbPolyline
 62
253
  6
CONTINUOUS
 90
13
 70
0
 10
20.8944047414
 20
10.2730427079
 10
20.7861428723
 20
10.2161428749
 10
20.6786065443
 20
10.1683285585
 10
20.5723200494
 20
10.1297949594
 10
20.4677976498
 20
10.1006935554
 10
20.3655397379
 20
10.0811189429
 10
20.2660316624
 20
10.0711136879
 10
20.1697560174
 20
10.070685406
 10
20.0771496683
 20
10.0797938883
 10
19.9886078799
 20
10.0983594061
 10
19.9045477739
 20
10.1262652817
 10
19.8253557908
 20
10.1633522552
 10
19.8119955903
 20
10.1707888122
  0
LWPOLYLINE
  5
445
100
AcDbEntity
  8
ASSI
100
AcDbPolyline
 62
253
  6
CONTINUOUS
 90
13
 70
0
 10
20.8944047414
 20
10.2730427079
 10
20.7861428723
 20
10.2161428749
 10
20.6786065443
 20
10.1683285585
 10
20.5723200494
 20
10.1297949594
 10
20.4677976498
 20
10.1006935554
 10
20.3655397379
 20
10.0811189429
 10
20.2660316624
 20
10.0711136879
 10
20.1697560174
 20
10.070685406
 10
20.0771496683
 20
10.0797938883
 10
19.9886078799
 20
10.0983594061
 10
19.9045477739
 20
10.1262652817
 10
19.8253557908
 20
10.1633522552
 10
19.8119316705
 20
10.1708252759
  0
LWPOLYLINE
  5
446
100
AcDbEntity
  8
0
100
AcDbPolyline
 62
253
  6
CONTINUOUS
 90
9
 70
0
 10
-24.0419317371
 20
13.9763569736
 10
-24.0797068532
 20
13.9948837544
 10
-24.1168663481
 20
14.0088657586
 10
-24.1530037946
 20
14.0181500846
 10
-24.1877239638
 20
14.0226352135
 10
-24.2206470984
 20
14.022272112
 10
-24.2514130747
 20
14.0170647904
 10
-24.2796854108
 20
14.0070702544
 10
-24.3017355823
 20
13.9947502749
  0
LWPOLYLINE
  5
447
100
AcDbEntity
  8
RACCORDO
100
AcDbPolyline
 62
253
  6
CONTINUOUS
 90
9
 70
0
 10
-24.0419317372
 20
13.9763569736
 10
-24.0797068532
 20
13.9948837544
 10
-24.1168663482
 20
14.0088657586
 10
-24.1530037946
 20
14.0181500846
 10
-24.1877239638
 20
14.0226352135
 10
-24.2206470984
 20
14.022272112
 10
-24.2514130747
 20
14.0170647904
 10
-24.2796854108
 20
14.0070702544
 10
-24.3017355823
 20
13.9947502749
  0
LWPOLYLINE
  5
448
100
AcDbEntity
  8
RACCORDO
100
AcDbPolyline
 62
253
  6
CONTINUOUS
 90
31
 70
0
 10
-9.2232097004
 20
5.4202126784
 10
-9.7348946856
 20
5.677170789
 10
-10.2442921958
 20
5.9353958387
 10
-10.7514022309
 20
6.1948878273
 10
-11.2561077987
 20
6.4555867531
 10
-11.7585258914
 20
6.717552618
 10
-12.2590074857
 20
6.980965427
 10
-12.7577181079
 20
7.2459104635
 10
-13.2544922316
 20
7.5123024441
 10
-13.7491842543
 20
7.780065524
 10
-14.2417419637
 20
8.0491721986
 10
-14.7322175721
 20
8.3196499725
 10
-15.2206221139
 20
8.5915055138
 10
-15.7070661841
 20
8.8648036026
 10
-16.1914391878
 20
9.1394794587
 10
-16.6734203748
 20
9.4153454103
 10
-17.1527325025
 20
9.6922398563
 10
-17.6296528135
 20
9.9703243977
 10
-18.1046922858
 20
10.249896165
 10
-18.5768387743
 20
10.53031052
 10
-19.047104424
 20
10.8122121009
 10
-19.5190366484
 20
11.0978319522
 10
-19.9919079109
 20
11.3866135652
 10
-20.4664457479
 20
11.6791134486
 10
-20.9483801822
 20
11.9792321734
 10
-21.4383191351
 20
12.2872100903
 10
-21.9356546851
 20
12.6028068486
 10
-22.4442930908
 20
12.9292019667
 10
-22.9655364383
 20
13.2674552841
 10
-23.4980826413
 20
13.6165069614
 10
-24.0419317
 20
13.9763569985
  0
LWPOLYLINE
  5
449
100
AcDbEntity
  8
0
100
AcDbPolyline
 62
253
  6
CONTINUOUS
 90
31
 70
0
 10
-9.2232097004
 20
5.4202126784
 10
-9.7348849381
 20
5.6771658473
 10
-10.2442737443
 20
5.935386422
 10
-10.7513761188
 20
6.1948744024
 10
-11.2560754904
 20
6.4555700011
 10
-11.7584884304
 20
6.7175330054
 10
-12.258964653
 20
6.980942778
 10
-12.7576691531
 20
7.24588433
 10
-13.2544369358
 20
7.5122726502
 10
-13.7491227309
 20
7.7800320672
 10
-14.2416744611
 20
8.0491351475
 10
-14.7321442036
 20
8.3196093246
 10
-15.2205429195
 20
8.5914612272
 10
-15.7069812403
 20
8.8647556584
 10
-16.1913485346
 20
9.1394278151
 10
-16.6733238688
 20
9.4152899164
 10
-17.1526295412
 20
9.692180087
 10
-17.6295432534
 20
9.9702602022
 10
-18.1045771768
 20
10.2498281076
 10
-18.576718851
 20
10.5302389424
 10
-19.0469807363
 20
10.8121375672
 10
-19.5189123846
 20
11.0977564097
 10
-19.9917869653
 20
11.3865393609
 10
-20.4663313091
 20
11.6790425298
 10
-20.9482754599
 20
11.97916667
 10
-21.438228125
 20
12.2871526409
 10
-21.935580597
 20
12.6027595832
 10
-22.4442367983
 20
12.9291656725
 10
-22.9654980363
 20
13.2674303008
 10
-23.4980630035
 20
13.6164940761
 10
-24.0419317
 20
13.9763569985
  0
LINE
  5
44A
100
AcDbEntity
  8
0
100
AcDbLine
 62
253
  6
CONTINUOUS
 10
18.7670485665
 20
-9.378216153
 11
18.6609825494
 21
-9.316974964
  0
LINE
  5
44B
100
AcDbEntity
  8
DRAFT
100
AcDbLine
 62
7
  6
CONTINUOUS
 10
-18.7096108363
 20
14.3027754638
 11
-16.8711332053
 21
13.2412615212
  0
LINE
  5
44C
100
AcDbEntity
  8
DRAFT
100
AcDbLine
 62
7
  6
CONTINUOUS
 10
-10.7900148871
 20
9.7301000185
 11
-8.951537256
 21
8.6685860759
  0
LINE
  5
44D
100
AcDbEntity
  8
0
100
AcDbLine
 62
7
  6
CONTINUOUS
 10
-8.951537256
 20
8.6685860759
 11
-10.7900148871
 21
9.7301000185
  0
LINE
  5
44E
100
AcDbEntity
  8
0
100
AcDbLine
 62
7
  6
CONTINUOUS
 10
-16.8711332053
 20
13.2412615212
 11
-18.7096108363
 21
14.3027754638
  0
LWPOLYLINE
  5
44F
100
AcDbEntity
  8
ASSI
100
AcDbPolyline
 62
7
  6
CONTINUOUS
 90
3
 70
0
 10
-20.6423030646
 20
17.2262302976
 10
-20.6235538674
 20
17.2118250452
 10
-20.6093489241
 20
17.2028874315
  0
LWPOLYLINE
  5
450
100
AcDbEntity
  8
ASSI
100
AcDbPolyline
 62
7
  6
CONTINUOUS
 90
3
 70
0
 10
-8.0558023595
 20
9.9589425364
 10
-8.0370531622
 20
9.9445372839
 10
-8.0228482189
 20
9.9355996703
  0
LINE
  5
451
100
AcDbEntity
  8
0
100
AcDbLine
 62
253
  6
CONTINUOUS
 10
15.0803547484
 20
-12.7834818814
 11
14.6302751322
 21
-12.2871057055
  0
LWPOLYLINE
  5
452
100
AcDbEntity
  8
ASSI
100
AcDbPolyline
 62
253
  6
CONTINUOUS
 90
6
 70
0
 10
-3.5316331599
 20
10.0686650991
 10
-3.5238343573
 20
10.0563771294
 10
-3.5186019022
 20
10.0456544395
 10
-3.5160243328
 20
10.0366784677
 10
-3.5161452644
 20
10.0296010962
 10
-3.5180651381
 20
10.0255378204
  0
LINE
  5
453
100
AcDbEntity
  8
0
100
AcDbLine
 62
7
  6
CONTINUOUS
 10
3.8117401444
 20
-19.1017949505
 11
3.8117401444
 21
-15.9943838896
  0
LWPOLYLINE
  5
454
100
AcDbEntity
  8
0
100
AcDbPolyline
 62
7
  6
CONTINUOUS
 90
18
 70
0
 10
3.9178061616
 20
-19.1173452162
 10
3.9166608888
 20
-19.1712934608
 10
3.9133013393
 20
-19.2235848203
 10
3.9077275129
 20
-19.2742192947
 10
3.8999193309
 20
-19.3232953128
 10
3.8898968721
 20
-19.3707144457
 10
3.8777203735
 20
-19.4161814073
 10
3.863367463
 20
-19.4597033666
 10
3.8468605127
 20
-19.5012731544
 10
3.8283268754
 20
-19.5405739778
 10
3.8077665089
 20
-19.5775663269
 10
3.7851794555
 20
-19.6122897115
 10
3.7606931948
 20
-19.6445458673
 10
3.7342746952
 20
-19.674341338
 10
3.7059569883
 20
-19.7016695799
 10
3.675966649
 20
-19.7263126987
 10
3.6443180123
 20
-19.7482333865
 10
3.6278888492
 20
-19.7581738808
  0
LWPOLYLINE
  5
455
100
AcDbEntity
  8
RACCORDO
100
AcDbPolyline
 62
253
  6
CONTINUOUS
 90
13
 70
0
 10
6.2562837927
 20
22.0629347165
 10
6.2580786212
 20
22.0957662939
 10
6.2634326807
 20
22.1301147977
 10
6.2722553375
 20
22.1653989856
 10
6.284397271
 20
22.2010218043
 10
6.2996529886
 20
22.2363804548
 10
6.3177642938
 20
22.2708765939
 10
6.3384246828
 20
22.3039265177
 10
6.3612845354
 20
22.3349710215
 10
6.3859570077
 20
22.3634848263
 10
6.4120245995
 20
22.388985498
 10
6.4390462214
 20
22.4110416049
 10
6.4665646493
 20
22.4292800041
  0
LWPOLYLINE
  5
456
100
AcDbEntity
  8
ASSI
100
AcDbPolyline
 62
253
  6
CONTINUOUS
 90
13
 70
0
 10
6.2562837927
 20
22.0629347165
 10
6.2580786212
 20
22.0957662939
 10
6.2634326807
 20
22.1301147977
 10
6.2722553375
 20
22.1653989856
 10
6.284397271
 20
22.2010218043
 10
6.2996529886
 20
22.2363804548
 10
6.3177642938
 20
22.2708765939
 10
6.3384246828
 20
22.3039265177
 10
6.3612845354
 20
22.3349710215
 10
6.3859570077
 20
22.3634848263
 10
6.4120245995
 20
22.388985498
 10
6.4390462214
 20
22.4110416049
 10
6.4665646493
 20
22.4292800041
  0
LWPOLYLINE
  5
457
100
AcDbEntity
  8
RACCORDO
100
AcDbPolyline
 62
253
  6
CONTINUOUS
 90
10
 70
0
 10
6.4079860056
 20
23.8391733026
 10
6.4087639425
 20
23.8493160684
 10
6.4109813393
 20
23.8592570446
 10
6.4146381958
 20
23.8689962312
 10
6.4197890335
 20
23.8786108874
 10
6.426379331
 20
23.8880237539
 10
6.4342455243
 20
23.8970030534
 10
6.4433330922
 20
23.9054715265
 10
6.453696556
 20
23.9135064325
 10
6.4653359157
 20
23.9211077713
  0
LWPOLYLINE
  5
458
100
AcDbEntity
  8
ASSI
100
AcDbPolyline
 62
253
  6
CONTINUOUS
 90
10
 70
0
 10
6.4079860056
 20
23.8391733026
 10
6.4087639425
 20
23.8493160684
 10
6.4109813393
 20
23.8592570446
 10
6.4146381958
 20
23.8689962312
 10
6.4197890335
 20
23.8786108874
 10
6.426379331
 20
23.8880237539
 10
6.4342455243
 20
23.8970030534
 10
6.4433330922
 20
23.9054715265
 10
6.453696556
 20
23.9135064325
 10
6.4653359157
 20
23.9211077713
  0
LWPOLYLINE
  5
459
100
AcDbEntity
  8
RACCORDO
100
AcDbPolyline
 62
253
  6
CONTINUOUS
 90
13
 70
0
 10
6.1098371833
 20
23.595310393
 10
6.1123837275
 20
23.6270177647
 10
6.1199800964
 20
23.6581867491
 10
6.1324972818
 20
23.6882882021
 10
6.1497227448
 20
23.7168111198
 10
6.1713640094
 20
23.7432712849
 10
6.1970536146
 20
23.7672194932
 10
6.2263553898
 20
23.7882492194
 10
6.258771864
 20
23.8060035
 10
6.2937526818
 20
23.8201809727
 10
6.3307039743
 20
23.8305410096
 10
6.3689984449
 20
23.8369077949
 10
6.4079860056
 20
23.8391733026
  0
LWPOLYLINE
  5
45A
100
AcDbEntity
  8
ASSI
100
AcDbPolyline
 62
253
  6
CONTINUOUS
 90
13
 70
0
 10
6.1098371833
 20
23.595310393
 10
6.1123837275
 20
23.6270177647
 10
6.1199800964
 20
23.6581867491
 10
6.1324972818
 20
23.6882882021
 10
6.1497227448
 20
23.7168111198
 10
6.1713640094
 20
23.7432712849
 10
6.1970536146
 20
23.7672194932
 10
6.2263553898
 20
23.7882492194
 10
6.258771864
 20
23.8060035
 10
6.2937526818
 20
23.8201809727
 10
6.3307039743
 20
23.8305410096
 10
6.3689984449
 20
23.8369077949
 10
6.4079860056
 20
23.8391733026
  0
LWPOLYLINE
  5
45B
100
AcDbEntity
  8
RACCORDO
100
AcDbPolyline
 62
253
  6
CONTINUOUS
 90
13
 70
0
 10
6.1098371833
 20
22.2674893993
 10
6.1123836285
 20
22.2991961695
 10
6.1199797349
 20
22.330364676
 10
6.1324965486
 20
22.3604657928
 10
6.1497215805
 20
22.3889885145
 10
6.1713624132
 20
22.4154486307
 10
6.1970516654
 20
22.4393969463
 10
6.2263532287
 20
22.4604269076
 10
6.2587696709
 20
22.4781815036
 10
6.2937506806
 20
22.492359327
 10
6.3307024098
 20
22.5027196908
 10
6.3689975548
 20
22.5090867143
 10
6.4079860056
 20
22.5113523089
  0
LWPOLYLINE
  5
45C
100
AcDbEntity
  8
ASSI
100
AcDbPolyline
 62
253
  6
CONTINUOUS
 90
13
 70
0
 10
6.1098371833
 20
22.2674893993
 10
6.1123836285
 20
22.2991961695
 10
6.1199797349
 20
22.330364676
 10
6.1324965486
 20
22.3604657928
 10
6.1497215805
 20
22.3889885145
 10
6.1713624132
 20
22.4154486307
 10
6.1970516654
 20
22.4393969463
 10
6.2263532287
 20
22.4604269076
 10
6.2587696709
 20
22.4781815036
 10
6.2937506806
 20
22.492359327
 10
6.3307024098
 20
22.5027196908
 10
6.3689975548
 20
22.5090867143
 10
6.4079860056
 20
22.5113523089
  0
LWPOLYLINE
  5
45D
100
AcDbEntity
  8
ASSI
100
AcDbPolyline
 62
253
  6
CONTINUOUS
 90
7
 70
0
 10
-3.5316331599
 20
-28.7970122878
 10
-3.5238343565
 20
-28.7725855928
 10
-3.5186019013
 20
-28.747214865
 10
-3.5160243324
 20
-28.7213294017
 10
-3.5161452648
 20
-28.69536721
 10
-3.5189626523
 20
-28.6697675951
 10
-3.5244288219
 20
-28.6449637273
  0
LINE
  5
45E
100
AcDbEntity
  8
CURVE
100
AcDbLine
 62
253
  6
CONTINUOUS
 10
-20.7410619433
 20
-20.3643617346
 11
-20.7511318552
 21
-20.3723086253
  0
LWPOLYLINE
  5
45F
100
AcDbEntity
  8
ASSI
100
AcDbPolyline
 62
7
  6
CONTINUOUS
 90
20
 70
0
 10
19.7216427211
 20
7.2760921731
 10
19.8366426631
 20
7.3480703564
 10
19.9494571492
 20
7.4290247883
 10
20.0600861793
 20
7.5189554689
 10
20.1692159018
 20
7.61855904
 10
20.2761601684
 20
7.7271388598
 10
20.3788605338
 20
7.8426050021
 10
20.4772347847
 20
7.9650908697
 10
20.5713651344
 20
8.0944630598
 10
20.6594397779
 20
8.2282314384
 10
20.7413414033
 20
8.366481169
 10
20.8171873225
 20
8.5091270881
 10
20.8855176659
 20
8.653423571
 10
20.946186841
 20
8.7994025928
 10
20.9993404404
 20
8.9470321784
 10
21.0439553726
 20
9.0934707786
 10
21.0798662255
 20
9.2386953214
 10
21.1072384111
 20
9.3827288788
 10
21.1255450744
 20
9.522799117
 10
21.1346105968
 20
9.6588292583
  0
LWPOLYLINE
  5
460
100
AcDbEntity
  8
ASSI
100
AcDbPolyline
 62
7
  6
CONTINUOUS
 90
3
 70
0
 10
19.7216427211
 20
6.4596218963
 10
19.6066427791
 20
6.387643713
 10
19.5676005188
 20
6.3596274172
  0
LINE
  5
461
100
AcDbEntity
  8
DRAFT
100
AcDbLine
 62
7
  6
CONTINUOUS
 10
23.6460853567
 20
8.4805140599
 11
20.3166395762
 21
6.5242856892
  0
LINE
  5
462
100
AcDbEntity
  8
ASSI
100
AcDbLine
 62
7
  6
CONTINUOUS
 10
23.6460853567
 20
8.4805140599
 11
20.3166395762
 21
6.5242856892
  0
LINE
  5
463
100
AcDbEntity
  8
DRAFT
100
AcDbLine
 62
7
  6
CONTINUOUS
 10
23.6460853567
 20
8.4805140599
 11
24.7067455285
 21
9.0929259499
  0
LINE
  5
464
100
AcDbEntity
  8
ASSI
100
AcDbLine
 62
7
  6
CONTINUOUS
 10
23.6460853567
 20
8.4805140599
 11
24.7067455285
 21
9.0929259499
  0
LINE
  5
465
100
AcDbEntity
  8
RACCORDO
100
AcDbLine
 62
253
  6
CONTINUOUS
 10
25.352389795
 20
8.7201390422
 11
20.8944047414
 21
6.1906913239
  0
LINE
  5
466
100
AcDbEntity
  8
ASSI
100
AcDbLine
 62
253
  6
CONTINUOUS
 10
25.352389795
 20
8.7201390422
 11
20.8944047414
 21
6.1906913239
  0
LINE
  5
467
100
AcDbEntity
  8
RACCORDO
100
AcDbLine
 62
253
  6
CONTINUOUS
 10
25.564529907
 20
8.3527109173
 11
21.1046775207
 21
5.8222036798
  0
LINE
  5
468
100
AcDbEntity
  8
ASSI
100
AcDbLine
 62
253
  6
CONTINUOUS
 10
25.564529907
 20
8.3527109173
 11
21.1046775207
 21
5.8222036798
  0
LINE
  5
469
100
AcDbEntity
  8
RACCORDO
100
AcDbLine
 62
253
  6
CONTINUOUS
 10
21.1046775207
 20
5.7405566521
 11
25.564529907
 21
8.2710638896
  0
LINE
  5
46A
100
AcDbEntity
  8
ASSI
100
AcDbLine
 62
253
  6
CONTINUOUS
 10
21.1046775207
 20
5.7405566521
 11
25.564529907
 21
8.2710638896
  0
LINE
  5
46B
100
AcDbEntity
  8
RACCORDO
100
AcDbLine
 62
7
  6
CONTINUOUS
 10
21.042452751
 20
5.603178345
 11
25.5017363987
 21
8.1333628818
  0
LINE
  5
46C
100
AcDbEntity
  8
ASSI
100
AcDbLine
 62
7
  6
CONTINUOUS
 10
21.042452751
 20
5.603178345
 11
25.5017363987
 21
8.1333628818
  0
LWPOLYLINE
  5
46D
100
AcDbEntity
  8
RACCORDO
100
AcDbPolyline
 62
253
  6
CONTINUOUS
 90
45
 70
0
 10
21.1046775207
 20
5.8222036798
 10
20.980977569
 20
5.75718065
 10
20.8591370664
 20
5.702796929
 10
20.7391560127
 20
5.6590525166
 10
20.6204383905
 20
5.625864565
 10
20.5035802173
 20
5.603315922
 10
20.3903695459
 20
5.591655132
 10
20.2809245345
 20
5.5910517039
 10
20.1751270249
 20
5.6013361287
 10
20.0744105951
 20
5.6222484236
 10
19.9788477242
 20
5.6539164878
 10
19.888365933
 20
5.6962124223
 10
19.8041813622
 20
5.7484925464
 10
19.726371357
 20
5.8108732977
 10
19.6548585723
 20
5.8832382388
 10
19.5906271138
 20
5.9645943764
 10
19.5337592154
 20
6.0550744689
 10
19.4841726433
 20
6.1545457578
 10
19.4426048014
 20
6.2616169753
 10
19.4091677031
 20
6.3764098821
 10
19.383749335
 20
6.4988027173
 10
19.3667510614
 20
6.6270389305
 10
19.3583066693
 20
6.7612427195
 10
19.3582823716
 20
6.9012898865
 10
19.3666781716
 20
7.0450512869
 10
19.3836275212
 20
7.1925536355
 10
19.4089969685
 20
7.3437702176
 10
19.4423861607
 20
7.496491745
 10
19.4839066468
 20
7.6507236346
 10
19.5334468777
 20
7.8064604695
 10
19.5902718536
 20
7.9614767113
 10
19.6544632007
 20
8.1157329343
 10
19.7259392928
 20
8.2692685642
 10
19.8037202508
 20
8.4199763396
 10
19.8878844664
 20
8.5678297461
 10
19.978353548
 20
8.7128552981
 10
20.0739124419
 20
8.853025278
 10
20.1746343036
 20
8.9882947052
 10
20.2804459777
 20
9.1187085602
 10
20.3899129441
 20
9.2423740677
 10
20.5031470043
 20
9.359251348
 10
20.620036357
 20
9.4693802808
 10
20.7388110774
 20
9.5709877296
 10
20.8588811907
 20
9.6634826491
 10
20.9808366718
 20
9.7474560845
  0
LWPOLYLINE
  5
46E
100
AcDbEntity
  8
ASSI
100
AcDbPolyline
 62
253
  6
CONTINUOUS
 90
45
 70
0
 10
21.1046775207
 20
5.8222036798
 10
20.980977569
 20
5.75718065
 10
20.8591370664
 20
5.702796929
 10
20.7391560127
 20
5.6590525166
 10
20.6204383905
 20
5.625864565
 10
20.5035802173
 20
5.603315922
 10
20.3903695459
 20
5.591655132
 10
20.2809245345
 20
5.5910517039
 10
20.1751270249
 20
5.6013361287
 10
20.0744105951
 20
5.6222484236
 10
19.9788477242
 20
5.6539164878
 10
19.888365933
 20
5.6962124223
 10
19.8041813622
 20
5.7484925464
 10
19.726371357
 20
5.8108732977
 10
19.6548585723
 20
5.8832382388
 10
19.5906271138
 20
5.9645943764
 10
19.5337592154
 20
6.0550744689
 10
19.4841726433
 20
6.1545457578
 10
19.4426048014
 20
6.2616169753
 10
19.4091677031
 20
6.3764098821
 10
19.383749335
 20
6.4988027173
 10
19.3667510614
 20
6.6270389305
 10
19.3583066693
 20
6.7612427195
 10
19.3582823716
 20
6.9012898865
 10
19.3666781716
 20
7.0450512869
 10
19.3836275212
 20
7.1925536355
 10
19.4089969685
 20
7.3437702176
 10
19.4423861607
 20
7.496491745
 10
19.4839066468
 20
7.6507236346
 10
19.5334468777
 20
7.8064604695
 10
19.5902718536
 20
7.9614767113
 10
19.6544632007
 20
8.1157329343
 10
19.7259392928
 20
8.2692685642
 10
19.8037202508
 20
8.4199763396
 10
19.8878844664
 20
8.5678297461
 10
19.978353548
 20
8.7128552981
 10
20.0739124419
 20
8.853025278
 10
20.1746343036
 20
8.9882947052
 10
20.2804459777
 20
9.1187085602
 10
20.3899129441
 20
9.2423740677
 10
20.5031470043
 20
9.359251348
 10
20.620036357
 20
9.4693802808
 10
20.7388110774
 20
9.5709877296
 10
20.8588811907
 20
9.6634826491
 10
20.9808366718
 20
9.7474560845
  0
LWPOLYLINE
  5
46F
100
AcDbEntity
  8
RACCORDO
100
AcDbPolyline
 62
253
  6
CONTINUOUS
 90
13
 70
0
 10
20.8944047414
 20
6.1906913239
 10
20.7861428723
 20
6.133791491
 10
20.6786065443
 20
6.0859771746
 10
20.5723200494
 20
6.0474435755
 10
20.4677976498
 20
6.0183421714
 10
20.3655397379
 20
5.998767559
 10
20.2660316624
 20
5.988762304
 10
20.1697560174
 20
5.9883340221
 10
20.0771496683
 20
5.9974425043
 10
19.9886078798
 20
6.0160080222
 10
19.9045477739
 20
6.0439138977
 10
19.8253557908
 20
6.0810008712
 10
19.8119955903
 20
6.0884374282
  0
LWPOLYLINE
  5
470
100
AcDbEntity
  8
ASSI
100
AcDbPolyline
 62
253
  6
CONTINUOUS
 90
13
 70
0
 10
20.8944047414
 20
6.1906913239
 10
20.7861428723
 20
6.133791491
 10
20.6786065443
 20
6.0859771746
 10
20.5723200494
 20
6.0474435755
 10
20.4677976498
 20
6.0183421714
 10
20.3655397379
 20
5.998767559
 10
20.2660316624
 20
5.988762304
 10
20.1697560174
 20
5.9883340221
 10
20.0771496683
 20
5.9974425043
 10
19.9886078798
 20
6.0160080222
 10
19.9045477739
 20
6.0439138977
 10
19.8253557908
 20
6.0810008712
 10
19.8119316705
 20
6.0884738919
  0
LINE
  5
471
100
AcDbEntity
  8
CURVE
100
AcDbLine
 62
253
  6
CONTINUOUS
 10
-23.4129390505
 20
-18.5320553759
 11
-23.4019827141
 21
-18.5264194121
  0
LWPOLYLINE
  5
472
100
AcDbEntity
  8
ASSI
100
AcDbPolyline
 62
7
  6
CONTINUOUS
 90
4
 70
0
 10
19.4569899299
 20
3.0710050141
 10
19.4938282931
 20
3.0835990132
 10
19.6066427791
 20
3.132919922
 10
19.7216427211
 20
3.1937407891
  0
LWPOLYLINE
  5
473
100
AcDbEntity
  8
ASSI
100
AcDbPolyline
 62
7
  6
CONTINUOUS
 90
6
 70
0
 10
20.2761601684
 20
6.6489180582
 10
20.1692159018
 20
6.6340013196
 10
20.0600861793
 20
6.6075846226
 10
19.9494571492
 20
6.5697636722
 10
19.8366426631
 20
6.5204427634
 10
19.7216427211
 20
6.4596218963
  0
LINE
  5
474
100
AcDbEntity
  8
ASSI
100
AcDbLine
 62
7
  6
CONTINUOUS
 10
-3.0241828888
 20
5.5652503212
 11
-3.7189470752
 21
5.6212386025
  0
LINE
  5
475
100
AcDbEntity
  8
ASSI
100
AcDbLine
 62
7
  6
CONTINUOUS
 10
-2.9933240513
 20
5.5474328152
 11
-3.7189470752
 21
5.6212386025
  0
LWPOLYLINE
  5
476
100
AcDbEntity
  8
ASSI
100
AcDbPolyline
 62
7
  6
CONTINUOUS
 90
4
 70
0
 10
-5.9585860451
 20
8.7437220924
 10
-5.9297221344
 20
8.7297046168
 10
-5.9017481285
 20
8.72071869
 10
-5.8698218111
 20
8.7152522343
  0
LWPOLYLINE
  5
477
100
AcDbEntity
  8
ASSI
100
AcDbPolyline
 62
253
  6
CONTINUOUS
 90
13
 70
0
 10
-6.0100982854
 20
8.8580052642
 10
-5.9906598632
 20
8.8481480692
 10
-5.9691803385
 20
8.8398221181
 10
-5.9460191215
 20
8.8331667262
 10
-5.9215637616
 20
8.8282932563
 10
-5.8962234627
 20
8.8252832546
 10
-5.8704222363
 20
8.8241870865
 10
-5.8445918061
 20
8.8250230938
 10
-5.8191643849
 20
8.8277772879
 10
-5.7945654417
 20
8.8324035838
 10
-5.7712065829
 20
8.8388245711
 10
-5.7494786653
 20
8.8469328093
 10
-5.7297452551
 20
8.8565926258
  0
LWPOLYLINE
  5
478
100
AcDbEntity
  8
ASSI
100
AcDbPolyline
 62
253
  6
CONTINUOUS
 90
13
 70
0
 10
-6.0100982854
 20
9.1571195213
 10
-5.9906598481
 20
9.1472623195
 10
-5.9691803082
 20
9.1389363648
 10
-5.9460190775
 20
9.1322809725
 10
-5.9215637064
 20
9.1274075044
 10
-5.8962233999
 20
9.1243975064
 10
-5.8704221704
 20
9.123301343
 10
-5.8445917423
 20
9.1241373551
 10
-5.8191643278
 20
9.1268915532
 10
-5.7945653954
 20
9.1315178514
 10
-5.7712065507
 20
9.1379388384
 10
-5.7494786489
 20
9.1460470733
 10
-5.7297452551
 20
9.1557068829
  0
LINE
  5
479
100
AcDbEntity
  8
SMUSSO
100
AcDbLine
 62
7
  6
CONTINUOUS
 10
-8.8808265779
 20
8.7393661111
 11
-10.7193042089
 21
9.8008800537
  0
LINE
  5
47A
100
AcDbEntity
  8
SMUSSO
100
AcDbLine
 62
7
  6
CONTINUOUS
 10
-16.8004225271
 20
13.3120415563
 11
-18.6389001582
 21
14.373555499
  0
LINE
  5
47B
100
AcDbEntity
  8
ASSI
100
AcDbLine
 62
7
  6
CONTINUOUS
 10
-2.9933240513
 20
5.5474328152
 11
-3.0241828888
 21
5.5652503212
  0
LINE
  5
47C
100
AcDbEntity
  8
0
100
AcDbLine
 62
7
  6
CONTINUOUS
 10
-20.8312945171
 20
16.1293460366
 11
-18.7096108363
 21
14.9043124703
  0
LINE
  5
47D
100
AcDbEntity
  8
0
100
AcDbLine
 62
7
  6
CONTINUOUS
 10
-15.8811837116
 20
13.271214097
 11
-10.7900148871
 21
10.331637025
  0
LINE
  5
47E
100
AcDbEntity
  8
0
100
AcDbLine
 62
7
  6
CONTINUOUS
 10
-7.9615877623
 20
8.6985386517
 11
-5.8399040816
 21
7.4735050854
  0
LINE
  5
47F
100
AcDbEntity
  8
RACCORDO
100
AcDbLine
 62
7
  6
CONTINUOUS
 10
-5.8399040816
 20
7.4735050854
 11
-7.9615877623
 21
8.6985386517
  0
LINE
  5
480
100
AcDbEntity
  8
DRAFT
100
AcDbLine
 62
7
  6
CONTINUOUS
 10
-10.7900148871
 20
10.331637025
 11
-15.8811837116
 21
13.271214097
  0
LINE
  5
481
100
AcDbEntity
  8
SMUSSO
100
AcDbLine
 62
7
  6
CONTINUOUS
 10
-7.1391310898
 20
8.2236624768
 11
-19.5320675088
 21
15.3791886452
  0
LINE
  5
482
100
AcDbEntity
  8
RACCORDO
100
AcDbLine
 62
7
  6
CONTINUOUS
 10
-18.7096108363
 20
14.9043124703
 11
-20.8312945171
 21
16.1293460366
  0
LINE
  5
483
100
AcDbEntity
  8
0
100
AcDbLine
 62
253
  6
CONTINUOUS
 10
22.5500698459
 20
-8.2825182273
 11
22.0580235481
 21
-7.9984168618
  0
LINE
  5
484
100
AcDbEntity
  8
0
100
AcDbLine
 62
7
  6
CONTINUOUS
 10
-19.9315925319
 20
16.469207967
 11
-19.7988550996
 21
16.3925670372
  0
LINE
  5
485
100
AcDbEntity
  8
0
100
AcDbLine
 62
7
  6
CONTINUOUS
 10
-18.6389001582
 20
15.7228235917
 11
-17.9118932095
 21
15.303058891
  0
LINE
  5
486
100
AcDbEntity
  8
0
100
AcDbLine
 62
7
  6
CONTINUOUS
 10
-7.3450918268
 20
9.2019202058
 11
-7.2123543945
 21
9.125279276
  0
LINE
  5
487
100
AcDbEntity
  8
0
100
AcDbLine
 62
7
  6
CONTINUOUS
 10
-6.0523994531
 20
8.4555358305
 11
-5.3253925044
 21
8.0357711298
  0
LINE
  5
488
100
AcDbEntity
  8
RACCORDO
100
AcDbLine
 62
7
  6
CONTINUOUS
 10
-5.1605716644
 20
7.9406056425
 11
-5.3253925044
 21
8.0357711298
  0
LINE
  5
489
100
AcDbEntity
  8
RACCORDO
100
AcDbLine
 62
7
  6
CONTINUOUS
 10
-19.9315925319
 20
16.469207967
 11
-20.0964133718
 21
16.5643734543
  0
LINE
  5
48A
100
AcDbEntity
  8
ASSI
100
AcDbLine
 62
7
  6
CONTINUOUS
 10
-20.6095331289
 20
17.2029934859
 11
-19.7968076437
 21
16.7337359718
  0
LINE
  5
48B
100
AcDbEntity
  8
ASSI
100
AcDbLine
 62
7
  6
CONTINUOUS
 10
-8.0230324238
 20
9.9357057247
 11
-7.2103069386
 21
9.4664482106
  0
LINE
  5
48C
100
AcDbEntity
  8
ASSI
100
AcDbLine
 62
253
  6
CONTINUOUS
 10
-20.6611003132
 20
17.3173102149
 11
-19.7256317949
 21
16.7771824166
  0
LINE
  5
48D
100
AcDbEntity
  8
ASSI
100
AcDbLine
 62
253
  6
CONTINUOUS
 10
-19.5320675088
 20
16.6654208237
 11
-18.5965989905
 21
16.1252930254
  0
LINE
  5
48E
100
AcDbEntity
  8
ASSI
100
AcDbLine
 62
253
  6
CONTINUOUS
 10
-8.0745996081
 20
10.0500224536
 11
-7.1391310898
 21
9.5098946553
  0
LINE
  5
48F
100
AcDbEntity
  8
ASSI
100
AcDbLine
 62
253
  6
CONTINUOUS
 10
-6.9455668037
 20
9.3981330625
 11
-6.0100982854
 21
8.8580052642
  0
LINE
  5
490
100
AcDbEntity
  8
ASSI
100
AcDbLine
 62
253
  6
CONTINUOUS
 10
-20.6611003132
 20
17.6164244719
 11
-18.5965989905
 21
16.4244072825
  0
LINE
  5
491
100
AcDbEntity
  8
ASSI
100
AcDbLine
 62
253
  6
CONTINUOUS
 10
-8.0745996081
 20
10.3491367107
 11
-6.0100982854
 21
9.1571195213
  0
LINE
  5
492
100
AcDbEntity
  8
RACCORDO
100
AcDbLine
 62
7
  6
CONTINUOUS
 10
-14.8881216412
 20
14.416509665
 11
-12.6669604339
 21
13.1340390216
  0
LINE
  5
493
100
AcDbEntity
  8
RACCORDO
100
AcDbLine
 62
7
  6
CONTINUOUS
 10
-11.17581104
 20
12.27306805
 11
-8.9546498327
 21
10.9905974066
  0
LINE
  5
494
100
AcDbEntity
  8
ASSI
100
AcDbLine
 62
253
  6
CONTINUOUS
 10
-20.488015156
 20
17.9211483621
 11
-18.4223011146
 21
16.7284309641
  0
LINE
  5
495
100
AcDbEntity
  8
ASSI
100
AcDbLine
 62
253
  6
CONTINUOUS
 10
-7.9015144509
 20
10.6538606009
 11
-5.8358004095
 21
9.4611432029
  0
LINE
  5
496
100
AcDbEntity
  8
ASSI
100
AcDbLine
 62
7
  6
CONTINUOUS
 10
-7.8291319272
 20
10.7704067644
 11
-8.4212071701
 21
11.1122635892
  0
LINE
  5
497
100
AcDbEntity
  8
ASSI
100
AcDbLine
 62
7
  6
CONTINUOUS
 10
-11.2490343447
 20
12.7450155588
 11
-12.1335177713
 21
13.2557052042
  0
LINE
  5
498
100
AcDbEntity
  8
ASSI
100
AcDbLine
 62
7
  6
CONTINUOUS
 10
-14.9613449459
 20
14.8884571738
 11
-16.6590011709
 21
15.8686626014
  0
LINE
  5
499
100
AcDbEntity
  8
ASSI
100
AcDbLine
 62
7
  6
CONTINUOUS
 10
-18.5444915506
 20
16.010664578
 11
-19.3573503496
 21
16.4799988379
  0
LINE
  5
49A
100
AcDbEntity
  8
ASSI
100
AcDbLine
 62
7
  6
CONTINUOUS
 10
-5.9579908455
 20
8.7433768168
 11
-6.7708496445
 21
9.2127110767
  0
LWPOLYLINE
  5
49B
100
AcDbEntity
  8
RACCORDO
100
AcDbPolyline
 62
253
  6
CONTINUOUS
 90
9
 70
0
 10
-14.8881216412
 20
15.5365452574
 10
-14.9055273875
 20
15.547699341
 10
-14.9208293239
 20
15.5598342673
 10
-14.9338633869
 20
15.5728182201
 10
-14.9444846287
 20
15.5865020454
 10
-14.9525884331
 20
15.6007451227
 10
-14.9580964755
 20
15.6154198649
 10
-14.9609400268
 20
15.6304016859
 10
-14.9613449299
 20
15.6385622766
  0
LWPOLYLINE
  5
49C
100
AcDbEntity
  8
RACCORDO
100
AcDbPolyline
 62
253
  6
CONTINUOUS
 90
9
 70
0
 10
-11.17581104
 20
13.3931036424
 10
-11.1932167862
 20
13.404257726
 10
-11.2085187227
 20
13.4163926524
 10
-11.2215527857
 20
13.4293766051
 10
-11.2321740275
 20
13.4430604304
 10
-11.2402778319
 20
13.4573035078
 10
-11.2457858743
 20
13.47197825
 10
-11.2486294256
 20
13.4869600709
 10
-11.2490343287
 20
13.4951206616
  0
LWPOLYLINE
  5
49D
100
AcDbEntity
  8
ASSI
100
AcDbPolyline
 62
253
  6
CONTINUOUS
 90
14
 70
0
 10
-18.5450898245
 20
16.0110115912
 10
-18.5513580709
 20
16.015066188
 10
-18.5579289858
 20
16.0202458789
 10
-18.5641586795
 20
16.0262285745
 10
-18.5699647156
 20
16.0329919847
 10
-18.5753063831
 20
16.0405398155
 10
-18.5801429805
 20
16.0488715083
 10
-18.5844110648
 20
16.057927987
 10
-18.5880817877
 20
16.0676885768
 10
-18.5911282945
 20
16.0781293819
 10
-18.5935137368
 20
16.0891590886
 10
-18.5952237625
 20
16.1007150869
 10
-18.5962543652
 20
16.1127747179
 10
-18.5965989905
 20
16.1252930254
  0
LWPOLYLINE
  5
49E
100
AcDbEntity
  8
ASSI
100
AcDbPolyline
 62
253
  6
CONTINUOUS
 90
14
 70
0
 10
-5.9585891194
 20
8.7437238299
 10
-5.9648573658
 20
8.7477784268
 10
-5.9714282807
 20
8.7529581176
 10
-5.9776579744
 20
8.7589408133
 10
-5.9834640105
 20
8.7657042235
 10
-5.988805678
 20
8.7732520543
 10
-5.9936422754
 20
8.781583747
 10
-5.9979103597
 20
8.7906402258
 10
-6.0015810825
 20
8.8004008155
 10
-6.0046275894
 20
8.8108416206
 10
-6.0070130316
 20
8.8218713273
 10
-6.0087230574
 20
8.8334273256
 10
-6.0097536601
 20
8.8454869566
 10
-6.0100982854
 20
8.8580052642
  0
LWPOLYLINE
  5
49F
100
AcDbEntity
  8
ASSI
100
AcDbPolyline
 62
7
  6
CONTINUOUS
 90
8
 70
0
 10
-19.3569209917
 20
16.4797536116
 10
-19.3852253163
 20
16.4981687241
 10
-19.4139263657
 20
16.5207728671
 10
-19.4412110814
 20
16.5459906848
 10
-19.4666947257
 20
16.5733732973
 10
-19.4902173566
 20
16.6026185423
 10
-19.5119819261
 20
16.6334075364
 10
-19.5320675088
 20
16.6654208237
  0
LWPOLYLINE
  5
4A0
100
AcDbEntity
  8
ASSI
100
AcDbPolyline
 62
7
  6
CONTINUOUS
 90
8
 70
0
 10
-6.7704202866
 20
9.2124658503
 10
-6.7987246112
 20
9.2308809629
 10
-6.8274256605
 20
9.2534851059
 10
-6.8547103762
 20
9.2787029236
 10
-6.8801940206
 20
9.3060855361
 10
-6.9037166515
 20
9.3353307811
 10
-6.925481221
 20
9.3661197752
 10
-6.9455668037
 20
9.3981330625
  0
LWPOLYLINE
  5
4A1
100
AcDbEntity
  8
ASSI
100
AcDbPolyline
 62
253
  6
CONTINUOUS
 90
7
 70
0
 10
-20.6611003132
 20
17.3173102149
 10
-20.6781723883
 20
17.3285337257
 10
-20.692592436
 20
17.3409357434
 10
-20.7041191711
 20
17.3543087483
 10
-20.7125597212
 20
17.3684289736
 10
-20.7177728544
 20
17.3830601493
 10
-20.719678957
 20
17.398965134
  0
LWPOLYLINE
  5
4A2
100
AcDbEntity
  8
ASSI
100
AcDbPolyline
 62
253
  6
CONTINUOUS
 90
7
 70
0
 10
-20.6611003132
 20
17.6164244719
 10
-20.6781723758
 20
17.6276479733
 10
-20.6925924172
 20
17.6400499816
 10
-20.7041191513
 20
17.6534229781
 10
-20.712559705
 20
17.6675431964
 10
-20.7177728451
 20
17.6821743674
 10
-20.7196789312
 20
17.6980207022
  0
LWPOLYLINE
  5
4A3
100
AcDbEntity
  8
ASSI
100
AcDbPolyline
 62
253
  6
CONTINUOUS
 90
7
 70
0
 10
-8.0745996081
 20
10.0500224536
 10
-8.0916716832
 20
10.0612459644
 10
-8.1060917309
 20
10.0736479822
 10
-8.1176184659
 20
10.0870209871
 10
-8.1260590161
 20
10.1011412124
 10
-8.1312721493
 20
10.1157723881
 10
-8.1331782519
 20
10.1316773728
  0
LWPOLYLINE
  5
4A4
100
AcDbEntity
  8
ASSI
100
AcDbPolyline
 62
253
  6
CONTINUOUS
 90
7
 70
0
 10
-8.0745996081
 20
10.3491367107
 10
-8.0916716707
 20
10.360360212
 10
-8.106091712
 20
10.3727622204
 10
-8.1176184462
 20
10.3861352168
 10
-8.1260589999
 20
10.4002554352
 10
-8.13127214
 20
10.4148866061
 10
-8.1331782261
 20
10.430732941
  0
LWPOLYLINE
  5
4A5
100
AcDbEntity
  8
ASSI
100
AcDbPolyline
 62
253
  6
CONTINUOUS
 90
13
 70
0
 10
-18.4223011146
 20
16.7284309641
 10
-18.4041491824
 20
16.7162000663
 10
-18.3862655002
 20
16.7014102362
 10
-18.3689559444
 20
16.684314434
 10
-18.3525165715
 20
16.6652050602
 10
-18.3372285549
 20
16.6444089549
 10
-18.3233533755
 20
16.6222818076
 10
-18.3111283495
 20
16.5992020731
 10
-18.3007625695
 20
16.5755644993
 10
-18.2924333282
 20
16.5517733749
 10
-18.286283086
 20
16.5282356152
 10
-18.2824170346
 20
16.5053538017
 10
-18.2809012976
 20
16.483519297
  0
LWPOLYLINE
  5
4A6
100
AcDbEntity
  8
ASSI
100
AcDbPolyline
 62
253
  6
CONTINUOUS
 90
13
 70
0
 10
-5.8358004095
 20
9.4611432029
 10
-5.8176484773
 20
9.4489123051
 10
-5.7997647951
 20
9.434122475
 10
-5.7824552393
 20
9.4170266727
 10
-5.7660158664
 20
9.3979172989
 10
-5.7507278498
 20
9.3771211937
 10
-5.7368526704
 20
9.3549940463
 10
-5.7246276444
 20
9.3319143119
 10
-5.7142618644
 20
9.308276738
 10
-5.7059326231
 20
9.2844856137
 10
-5.6997823809
 20
9.260947854
 10
-5.6959163295
 20
9.2380660405
 10
-5.6944005924
 20
9.2162315358
  0
LWPOLYLINE
  5
4A7
100
AcDbEntity
  8
RACCORDO
100
AcDbPolyline
 62
7
  6
CONTINUOUS
 90
10
 70
0
 10
6.1098371833
 20
21.5411014609
 10
6.1118581023
 20
21.515625747
 10
6.1175394968
 20
21.4907141715
 10
6.1268813667
 20
21.4663667342
 10
6.1400140374
 20
21.4424043557
 10
6.1568071835
 20
21.4190061156
 10
6.1768698297
 20
21.3967092525
 10
6.2000716507
 20
21.375692846
 10
6.2265429717
 20
21.3557778166
 10
6.2562837927
 20
21.3369641643
  0
LWPOLYLINE
  5
4A8
100
AcDbEntity
  8
ASSI
100
AcDbPolyline
 62
7
  6
CONTINUOUS
 90
10
 70
0
 10
6.1098371833
 20
21.5411014609
 10
6.1118581023
 20
21.515625747
 10
6.1175394968
 20
21.4907141715
 10
6.1268813667
 20
21.4663667342
 10
6.1400140374
 20
21.4424043557
 10
6.1568071835
 20
21.4190061156
 10
6.1768698297
 20
21.3967092525
 10
6.2000716507
 20
21.375692846
 10
6.2265429717
 20
21.3557778166
 10
6.2562837927
 20
21.3369641643
  0
LWPOLYLINE
  5
4A9
100
AcDbEntity
  8
ASSI
100
AcDbPolyline
 62
7
  6
CONTINUOUS
 90
55
 70
0
 10
6.8169439645
 20
24.7611602177
 10
6.8167300783
 20
24.7781676543
 10
6.8160932664
 20
24.7953765589
 10
6.8150335286
 20
24.8127869316
 10
6.8135492536
 20
24.8304138358
 10
6.8116420528
 20
24.8482422081
 10
6.8093167605
 20
24.8662268585
 10
6.8065723159
 20
24.8843681834
 10
6.8034097798
 20
24.9026657865
 10
6.7998371682
 20
24.9210732883
 10
6.7958534409
 20
24.9395909676
 10
6.7914596382
 20
24.9582185456
 10
6.7866668972
 20
24.9769088065
 10
6.7814742057
 20
24.9956619094
 10
6.775882576
 20
25.0144776953
 10
6.7699061811
 20
25.0333084712
 10
6.7635440451
 20
25.0521542753
 10
6.7567971439
 20
25.0710150695
 10
6.7496825792
 20
25.0898430469
 10
6.7421994182
 20
25.1086381242
 10
6.7343485937
 20
25.1274003847
 10
6.7261500052
 20
25.1460822712
 10
6.7176027707
 20
25.1646835799
 10
6.7087077723
 20
25.1832045146
 10
6.6994875563
 20
25.2015981298
 10
6.6899412979
 20
25.2198641026
 10
6.6800698219
 20
25.238002756
 10
6.6698981498
 20
25.2559681134
 10
6.6594255202
 20
25.2737597353
 10
6.6486526946
 20
25.2913780613
 10
6.637606979
 20
25.3087784337
 10
6.6262876813
 20
25.3259602997
 10
6.6146954936
 20
25.3429242121
 10
6.6028597991
 20
25.3596271721
 10
6.5907799799
 20
25.3760685178
 10
6.5784566539
 20
25.3922489111
 10
6.5659210572
 20
25.4081273392
 10
6.5531726513
 20
25.423703036
 10
6.5402119748
 20
25.4389767676
 10
6.5270718793
 20
25.4539098193
 10
6.5137519098
 20
25.4685013268
 10
6.5002525214
 20
25.4827521543
 10
6.4866079313
 20
25.4966261801
 10
6.4728177712
 20
25.5101224481
 10
6.4588824094
 20
25.5232419142
 10
6.4448371682
 20
25.5359513243
 10
6.4306817689
 20
25.5482496381
 10
6.4164164902
 20
25.5601378958
 10
6.4020774907
 20
25.5715859639
 10
6.3876645833
 20
25.5825927258
 10
6.3731779551
 20
25.5931592982
 10
6.3586543257
 20
25.6032588977
 10
6.344105935
 20
25.6128825965
 10
6.329520543
 20
25.6220393225
 10
6.3148981498
 20
25.6307290755
  0
LINE
  5
4AA
100
AcDbEntity
  8
RACCORDO
100
AcDbLine
 62
7
  6
CONTINUOUS
 10
6.1098371833
 20
21.5411014609
 11
6.1098371833
 21
23.595310393
  0
LINE
  5
4AB
100
AcDbEntity
  8
ASSI
100
AcDbLine
 62
7
  6
CONTINUOUS
 10
6.1098371833
 20
21.5411014609
 11
6.1098371833
 21
23.595310393
  0
LINE
  5
4AC
100
AcDbEntity
  8
RACCORDO
100
AcDbLine
 62
253
  6
CONTINUOUS
 10
6.2562837927
 20
21.3369641643
 11
6.2562837927
 21
22.0629347165
  0
LINE
  5
4AD
100
AcDbEntity
  8
ASSI
100
AcDbLine
 62
253
  6
CONTINUOUS
 10
6.2562837927
 20
21.3369641643
 11
6.2562837927
 21
22.0629347165
  0
LINE
  5
4AE
100
AcDbEntity
  8
RACCORDO
100
AcDbLine
 62
253
  6
CONTINUOUS
 10
6.4079860056
 20
22.5113523089
 11
6.4079860056
 21
23.8391733026
  0
LINE
  5
4AF
100
AcDbEntity
  8
ASSI
100
AcDbLine
 62
253
  6
CONTINUOUS
 10
6.4079860056
 20
22.5113523089
 11
6.4079860056
 21
23.8391733026
  0
LINE
  5
4B0
100
AcDbEntity
  8
0
100
AcDbLine
 62
7
  6
CONTINUOUS
 10
7.2058526941
 20
-14.4406860141
 11
7.2058526941
 21
-14.0346658417
  0
LINE
  5
4B1
100
AcDbEntity
  8
0
100
AcDbLine
 62
7
  6
CONTINUOUS
 10
7.700827441
 20
-16.8562846872
 11
7.700827441
 21
-13.7488736263
  0
LWPOLYLINE
  5
4B2
100
AcDbEntity
  8
RACCORDO
100
AcDbPolyline
 62
253
  6
CONTINUOUS
 90
13
 70
0
 10
8.7918176986
 20
20.5989492169
 10
8.7936124374
 20
20.6317800927
 10
8.798966285
 20
20.6661279579
 10
8.807788649
 20
20.7014116137
 10
8.8199302466
 20
20.7370340268
 10
8.8351856304
 20
20.7723924317
 10
8.8532966647
 20
20.8068885305
 10
8.8739568933
 20
20.8399386159
 10
8.8968167254
 20
20.8709834488
 10
8.9214893507
 20
20.899497721
 10
8.9475572848
 20
20.9249989436
 10
8.9745794332
 20
20.9470556114
 10
9.0020985553
 20
20.9652945045
  0
LWPOLYLINE
  5
4B3
100
AcDbEntity
  8
ASSI
100
AcDbPolyline
 62
253
  6
CONTINUOUS
 90
13
 70
0
 10
8.7918176986
 20
20.5989492169
 10
8.7936124374
 20
20.6317800927
 10
8.798966285
 20
20.6661279579
 10
8.807788649
 20
20.7014116137
 10
8.8199302466
 20
20.7370340268
 10
8.8351856304
 20
20.7723924317
 10
8.8532966647
 20
20.8068885305
 10
8.8739568933
 20
20.8399386159
 10
8.8968167254
 20
20.8709834488
 10
8.9214893507
 20
20.899497721
 10
8.9475572848
 20
20.9249989436
 10
8.9745794332
 20
20.9470556114
 10
9.0020985553
 20
20.9652945045
  0
LWPOLYLINE
  5
4B4
100
AcDbEntity
  8
ASSI
100
AcDbPolyline
 62
7
  6
CONTINUOUS
 90
4
 70
0
 10
-4.0832622221
 20
-29.5840801325
 10
-4.0773133127
 20
-29.5672864424
 10
-4.0737040826
 20
-29.5484220057
 10
-4.0725004658
 20
-29.5278119565
  0
LWPOLYLINE
  5
4B5
100
AcDbEntity
  8
ASSI
100
AcDbPolyline
 62
7
  6
CONTINUOUS
 90
20
 70
0
 10
19.7216427211
 20
3.1937407891
 10
19.8366426631
 20
3.2657189724
 10
19.9494571492
 20
3.3466734044
 10
20.0600861793
 20
3.4366040849
 10
20.1692159018
 20
3.5362076561
 10
20.2761601684
 20
3.6447874758
 10
20.3788605338
 20
3.7602536182
 10
20.4772347847
 20
3.8827394857
 10
20.5713651344
 20
4.0121116759
 10
20.6594397779
 20
4.1458800545
 10
20.7413414033
 20
4.2841297851
 10
20.8171873225
 20
4.4267757041
 10
20.8855176659
 20
4.571072187
 10
20.946186841
 20
4.7170512088
 10
20.9993404404
 20
4.8646807945
 10
21.0439553726
 20
5.0111193946
 10
21.0798662255
 20
5.1563439374
 10
21.1072384111
 20
5.3003774948
 10
21.1255450744
 20
5.4404477331
 10
21.1346105968
 20
5.5764778744
  0
LINE
  5
4B6
100
AcDbEntity
  8
RACCORDO
100
AcDbLine
 62
253
  6
CONTINUOUS
 10
20.9808366718
 20
5.6651047006
 11
21.1046775207
 21
5.7405566521
  0
LINE
  5
4B7
100
AcDbEntity
  8
ASSI
100
AcDbLine
 62
253
  6
CONTINUOUS
 10
20.9808366718
 20
5.6651047006
 11
21.1046775207
 21
5.7405566521
  0
LINE
  5
4B8
100
AcDbEntity
  8
RACCORDO
100
AcDbLine
 62
7
  6
CONTINUOUS
 10
20.988521851
 20
5.5714703573
 11
21.0424017489
 21
5.6031419261
  0
LINE
  5
4B9
100
AcDbEntity
  8
ASSI
100
AcDbLine
 62
7
  6
CONTINUOUS
 10
20.9888265363
 20
5.5716494567
 11
21.0424010724
 21
5.6031415428
  0
LINE
  5
4BA
100
AcDbEntity
  8
DRAFT
100
AcDbLine
 62
7
  6
CONTINUOUS
 10
23.6460853567
 20
4.3981626759
 11
20.3166395762
 21
2.4419343052
  0
LINE
  5
4BB
100
AcDbEntity
  8
ASSI
100
AcDbLine
 62
7
  6
CONTINUOUS
 10
23.6460853567
 20
4.3981626759
 11
20.3166395762
 21
2.4419343052
  0
LINE
  5
4BC
100
AcDbEntity
  8
0
100
AcDbLine
 62
7
  6
CONTINUOUS
 10
19.4630904516
 20
2.6362208107
 11
22.5500698459
 21
4.418604024
  0
LINE
  5
4BD
100
AcDbEntity
  8
DRAFT
100
AcDbLine
 62
7
  6
CONTINUOUS
 10
23.6460853567
 20
4.3981626759
 11
24.7067455285
 21
5.0105745659
  0
LINE
  5
4BE
100
AcDbEntity
  8
ASSI
100
AcDbLine
 62
7
  6
CONTINUOUS
 10
23.6460853567
 20
4.3981626759
 11
24.7067455285
 21
5.0105745659
  0
LINE
  5
4BF
100
AcDbEntity
  8
RACCORDO
100
AcDbLine
 62
253
  6
CONTINUOUS
 10
25.352389795
 20
4.6377876583
 11
20.8944047414
 21
2.10833994
  0
LINE
  5
4C0
100
AcDbEntity
  8
ASSI
100
AcDbLine
 62
253
  6
CONTINUOUS
 10
25.352389795
 20
4.6377876583
 11
20.8944047414
 21
2.10833994
  0
LWPOLYLINE
  5
4C1
100
AcDbEntity
  8
RACCORDO
100
AcDbPolyline
 62
253
  6
CONTINUOUS
 90
45
 70
0
 10
21.1046775207
 20
1.7398522958
 10
20.980977569
 20
1.6748292661
 10
20.8591370664
 20
1.620445545
 10
20.7391560127
 20
1.5767011327
 10
20.6204383905
 20
1.543513181
 10
20.5035802173
 20
1.5209645381
 10
20.3903695459
 20
1.5093037481
 10
20.2809245345
 20
1.5087003199
 10
20.1751270249
 20
1.5189847447
 10
20.0744105951
 20
1.5398970396
 10
19.9788477242
 20
1.5715651039
 10
19.888365933
 20
1.6138610383
 10
19.8041813622
 20
1.6661411624
 10
19.726371357
 20
1.7285219138
 10
19.6548585723
 20
1.8008868548
 10
19.5906271138
 20
1.8822429924
 10
19.5337592154
 20
1.9727230849
 10
19.4841726433
 20
2.0721943739
 10
19.4426048014
 20
2.1792655913
 10
19.4091677031
 20
2.2940584981
 10
19.383749335
 20
2.4164513334
 10
19.3667510614
 20
2.5446875466
 10
19.3583066693
 20
2.6788913356
 10
19.3582823716
 20
2.8189385025
 10
19.3666781716
 20
2.962699903
 10
19.3836275212
 20
3.1102022515
 10
19.4089969685
 20
3.2614188336
 10
19.4423861607
 20
3.4141403611
 10
19.4839066468
 20
3.5683722507
 10
19.5334468777
 20
3.7241090856
 10
19.5902718536
 20
3.8791253274
 10
19.6544632007
 20
4.0333815504
 10
19.7259392928
 20
4.1869171802
 10
19.8037202508
 20
4.3376249557
 10
19.8878844664
 20
4.4854783621
 10
19.978353548
 20
4.6305039141
 10
20.0739124419
 20
4.7706738941
 10
20.1746343036
 20
4.9059433212
 10
20.2804459777
 20
5.0363571763
 10
20.3899129441
 20
5.1600226838
 10
20.5031470043
 20
5.2768999641
 10
20.620036357
 20
5.3870288968
 10
20.7388110774
 20
5.4886363457
 10
20.8588811907
 20
5.5811312651
 10
20.9808366718
 20
5.6651047006
  0
LWPOLYLINE
  5
4C2
100
AcDbEntity
  8
ASSI
100
AcDbPolyline
 62
253
  6
CONTINUOUS
 90
45
 70
0
 10
21.1046775207
 20
1.7398522958
 10
20.980977569
 20
1.6748292661
 10
20.8591370664
 20
1.620445545
 10
20.7391560127
 20
1.5767011327
 10
20.6204383905
 20
1.543513181
 10
20.5035802173
 20
1.5209645381
 10
20.3903695459
 20
1.5093037481
 10
20.2809245345
 20
1.5087003199
 10
20.1751270249
 20
1.5189847447
 10
20.0744105951
 20
1.5398970396
 10
19.9788477242
 20
1.5715651039
 10
19.888365933
 20
1.6138610383
 10
19.8041813622
 20
1.6661411624
 10
19.726371357
 20
1.7285219138
 10
19.6548585723
 20
1.8008868548
 10
19.5906271138
 20
1.8822429924
 10
19.5337592154
 20
1.9727230849
 10
19.4841726433
 20
2.0721943739
 10
19.4426048014
 20
2.1792655913
 10
19.4091677031
 20
2.2940584981
 10
19.383749335
 20
2.4164513334
 10
19.3667510614
 20
2.5446875466
 10
19.3583066693
 20
2.6788913356
 10
19.3582823716
 20
2.8189385025
 10
19.3666781716
 20
2.962699903
 10
19.3836275212
 20
3.1102022515
 10
19.4089969685
 20
3.2614188336
 10
19.4423861607
 20
3.4141403611
 10
19.4839066468
 20
3.5683722507
 10
19.5334468777
 20
3.7241090856
 10
19.5902718536
 20
3.8791253274
 10
19.6544632007
 20
4.0333815504
 10
19.7259392928
 20
4.1869171802
 10
19.8037202508
 20
4.3376249557
 10
19.8878844664
 20
4.4854783621
 10
19.978353548
 20
4.6305039141
 10
20.0739124419
 20
4.7706738941
 10
20.1746343036
 20
4.9059433212
 10
20.2804459777
 20
5.0363571763
 10
20.3899129441
 20
5.1600226838
 10
20.5031470043
 20
5.2768999641
 10
20.620036357
 20
5.3870288968
 10
20.7388110774
 20
5.4886363457
 10
20.8588811907
 20
5.5811312651
 10
20.9808366718
 20
5.6651047006
  0
LWPOLYLINE
  5
4C3
100
AcDbEntity
  8
RACCORDO
100
AcDbPolyline
 62
253
  6
CONTINUOUS
 90
13
 70
0
 10
20.8944047414
 20
2.10833994
 10
20.7861428723
 20
2.051440107
 10
20.6786065443
 20
2.0036257906
 10
20.5723200494
 20
1.9650921915
 10
20.4677976498
 20
1.9359907875
 10
20.3655397379
 20
1.916416175
 10
20.2660316624
 20
1.90641092
 10
20.1697560174
 20
1.9059826381
 10
20.0771496683
 20
1.9150911203
 10
19.9886078798
 20
1.9336566382
 10
19.9045477739
 20
1.9615625137
 10
19.8253557908
 20
1.9986494873
 10
19.8119955903
 20
2.0060860442
  0
LWPOLYLINE
  5
4C4
100
AcDbEntity
  8
ASSI
100
AcDbPolyline
 62
253
  6
CONTINUOUS
 90
13
 70
0
 10
20.8944047414
 20
2.10833994
 10
20.7861428723
 20
2.051440107
 10
20.6786065443
 20
2.0036257906
 10
20.5723200494
 20
1.9650921915
 10
20.4677976498
 20
1.9359907875
 10
20.3655397379
 20
1.916416175
 10
20.2660316624
 20
1.90641092
 10
20.1697560174
 20
1.9059826381
 10
20.0771496683
 20
1.9150911203
 10
19.9886078798
 20
1.9336566382
 10
19.9045477739
 20
1.9615625137
 10
19.8253557908
 20
1.9986494873
 10
19.8119316705
 20
2.006122508
  0
LWPOLYLINE
  5
4C5
100
AcDbEntity
  8
ASSI
100
AcDbPolyline
 62
7
  6
CONTINUOUS
 90
6
 70
0
 10
20.2761601684
 20
10.7312694422
 10
20.1692159018
 20
10.7163527035
 10
20.0600861793
 20
10.6899360066
 10
19.9494571492
 20
10.6521150562
 10
19.8366426631
 20
10.6027941474
 10
19.7216427211
 20
10.5419732803
  0
LINE
  5
4C6
100
AcDbEntity
  8
ASSI
100
AcDbLine
 62
7
  6
CONTINUOUS
 10
20.3788605338
 20
6.6520477236
 11
20.2761601684
 21
6.6489180582
  0
LWPOLYLINE
  5
4C7
100
AcDbEntity
  8
ASSI
100
AcDbPolyline
 62
253
  6
CONTINUOUS
 90
11
 70
0
 10
-5.8698218386
 20
8.7152519403
 10
-5.8629540287
 20
8.7147943108
 10
-5.8426052525
 20
8.715707402
 10
-5.8223932951
 20
8.7199814628
 10
-5.8026601645
 20
8.7275441685
 10
-5.783739765
 20
8.7382675465
 10
-5.7659522456
 20
8.751970144
 10
-5.7495985852
 20
8.7684200987
 10
-5.7349555015
 20
8.7873390602
 10
-5.7222707681
 20
8.8084069
 10
-5.7117590207
 20
8.8312671291
  0
LINE
  5
4C8
100
AcDbEntity
  8
ASSI
100
AcDbLine
 62
7
  6
CONTINUOUS
 10
-5.2235456318
 20
8.6521543923
 11
-5.8701246697
 21
8.7152811239
  0
LINE
  5
4C9
100
AcDbEntity
  8
ASSI
100
AcDbLine
 62
253
  6
CONTINUOUS
 10
-4.9749512165
 20
8.7593311927
 11
-5.7117590207
 21
8.8312671291
  0
LWPOLYLINE
  5
4CA
100
AcDbEntity
  8
ASSI
100
AcDbPolyline
 62
253
  6
CONTINUOUS
 90
19
 70
0
 10
-5.7117590207
 20
8.8312671291
 10
-5.7132824501
 20
8.8314563441
 10
-5.7147839741
 20
8.8317837036
 10
-5.7162635927
 20
8.8322492074
 10
-5.7177337965
 20
8.8328474388
 10
-5.719182095
 20
8.8335838146
 10
-5.7205710165
 20
8.834474585
 10
-5.7218995204
 20
8.8355249526
 10
-5.7231686472
 20
8.8367297148
 10
-5.7243440474
 20
8.8380895138
 10
-5.7254231609
 20
8.8396099238
 10
-5.7264085478
 20
8.8412853706
 10
-5.7272735379
 20
8.8430997745
 10
-5.7280142987
 20
8.8450581278
 10
-5.7286346628
 20
8.8471554383
 10
-5.7291194578
 20
8.849360649
 10
-5.729463626
 20
8.8516634077
 10
-5.7296722251
 20
8.8540740666
 10
-5.7297452551
 20
8.8565926258
  0
LWPOLYLINE
  5
4CB
100
AcDbEntity
  8
ASSI
100
AcDbPolyline
 62
253
  6
CONTINUOUS
 90
8
 70
0
 10
-7.9015144509
 20
10.6538606009
 10
-7.9202681868
 20
10.6629385694
 10
-7.9386589464
 20
10.6690931378
 10
-7.9563721803
 20
10.6722190422
 10
-7.9731049279
 20
10.6722628197
 10
-7.9885709979
 20
10.6692237235
 10
-8.0025058635
 20
10.6631537357
 10
-8.0041849578
 20
10.6621513083
  0
LWPOLYLINE
  5
4CC
100
AcDbEntity
  8
ASSI
100
AcDbPolyline
 62
253
  6
CONTINUOUS
 90
8
 70
0
 10
-20.488015156
 20
17.9211483621
 10
-20.5067688919
 20
17.9302263307
 10
-20.5251596515
 20
17.9363808991
 10
-20.5428728854
 20
17.9395068034
 10
-20.559605633
 20
17.9395505809
 10
-20.575071703
 20
17.9365114847
 10
-20.5890065686
 20
17.930441497
 10
-20.5906856629
 20
17.9294390695
  0
LWPOLYLINE
  5
4CD
100
AcDbEntity
  8
ASSI
100
AcDbPolyline
 62
7
  6
CONTINUOUS
 90
4
 70
0
 10
-18.5450867502
 20
16.0110098536
 10
-18.5162228396
 20
15.996992378
 10
-18.4882488337
 20
15.9880064513
 10
-18.4563225162
 20
15.9825399955
  0
LWPOLYLINE
  5
4CE
100
AcDbEntity
  8
ASSI
100
AcDbPolyline
 62
7
  6
CONTINUOUS
 90
9
 70
0
 10
-5.6702656749
 20
11.9247459485
 10
-5.6957298802
 20
11.9372943569
 10
-5.7227726872
 20
11.9464665397
 10
-5.7509520314
 20
11.9520576762
 10
-5.7796983264
 20
11.9539369417
 10
-5.8088952926
 20
11.9520357166
 10
-5.8381745034
 20
11.9462388655
 10
-5.8668266911
 20
11.9365850132
 10
-5.8895686891
 20
11.925851892
  0
LWPOLYLINE
  5
4CF
100
AcDbEntity
  8
RACCORDO
100
AcDbPolyline
 62
253
  6
CONTINUOUS
 90
9
 70
0
 10
-11.0021195234
 20
13.6974774283
 10
-11.020896788
 20
13.7068424052
 10
-11.0394346178
 20
13.713889175
 10
-11.0575299867
 20
13.7185405606
 10
-11.074984716
 20
13.7207456194
 10
-11.0916076392
 20
13.7204802
 10
-11.1072166973
 20
13.7177472093
 10
-11.1216409424
 20
13.7125765796
 10
-11.1305257394
 20
13.7077987546
  0
LWPOLYLINE
  5
4D0
100
AcDbEntity
  8
RACCORDO
100
AcDbPolyline
 62
253
  6
CONTINUOUS
 90
9
 70
0
 10
-14.7144301246
 20
15.8409190433
 10
-14.7332073892
 20
15.8502840201
 10
-14.751745219
 20
15.8573307899
 10
-14.769840588
 20
15.8619821756
 10
-14.7872953172
 20
15.8641872344
 10
-14.8039182405
 20
15.8639218149
 10
-14.8195272986
 20
15.8611888243
 10
-14.8339515437
 20
15.8560181945
 10
-14.8428363406
 20
15.8512403696
  0
LWPOLYLINE
  5
4D1
100
AcDbEntity
  8
ASSI
100
AcDbPolyline
 62
7
  6
CONTINUOUS
 90
7
 70
0
 10
-18.9217644099
 20
18.8897413178
 10
-18.9402156782
 20
18.8990050773
 10
-18.9583580753
 20
18.9053128242
 10
-18.9758770478
 20
18.9085590713
 10
-18.9924682465
 20
18.9086910131
 10
-19.0078466911
 20
18.9057067059
 10
-19.0199968826
 20
18.9006334595
  0
LWPOLYLINE
  5
4D2
100
AcDbEntity
  8
ASSI
100
AcDbPolyline
 62
253
  6
CONTINUOUS
 90
13
 70
0
 10
-18.5965989905
 20
16.1252930254
 10
-18.5771605684
 20
16.1154358305
 10
-18.5556810437
 20
16.1071098793
 10
-18.5325198266
 20
16.1004544874
 10
-18.5080644667
 20
16.0955810175
 10
-18.4827241678
 20
16.0925710158
 10
-18.4569229414
 20
16.0914748477
 10
-18.4310925113
 20
16.092310855
 10
-18.40566509
 20
16.0950650492
 10
-18.3810661468
 20
16.0996913451
 10
-18.3577072881
 20
16.1061123323
 10
-18.3359793704
 20
16.1142205705
 10
-18.3162459602
 20
16.123880387
  0
LWPOLYLINE
  5
4D3
100
AcDbEntity
  8
ASSI
100
AcDbPolyline
 62
253
  6
CONTINUOUS
 90
13
 70
0
 10
-18.5965989905
 20
16.4244072825
 10
-18.5771605532
 20
16.4145500807
 10
-18.5556810133
 20
16.4062241261
 10
-18.5325197826
 20
16.3995687337
 10
-18.5080644115
 20
16.3946952657
 10
-18.482724105
 20
16.3916852676
 10
-18.4569228755
 20
16.3905891042
 10
-18.4310924474
 20
16.3914251164
 10
-18.4056650329
 20
16.3941793145
 10
-18.3810661005
 20
16.3988056126
 10
-18.3577072558
 20
16.4052265996
 10
-18.335979354
 20
16.4133348345
 10
-18.3162459602
 20
16.4229946441
  0
LWPOLYLINE
  5
4D4
100
AcDbEntity
  8
ASSI
100
AcDbPolyline
 62
253
  6
CONTINUOUS
 90
14
 70
0
 10
-5.6702717469
 20
11.9247498311
 10
-5.6770709467
 20
11.9282634458
 10
-5.6851313901
 20
11.9314893114
 10
-5.6935878526
 20
11.9339261178
 10
-5.7024063898
 20
11.9355632836
 10
-5.7115545765
 20
11.9363949355
 10
-5.7210013169
 20
11.9364183886
 10
-5.7307123102
 20
11.9356334173
 10
-5.740653461
 20
11.9340428973
 10
-5.7507893953
 20
11.9316526131
 10
-5.7610825653
 20
11.9284714384
 10
-5.7714959689
 20
11.924511217
 10
-5.7819933558
 20
11.9197863704
 10
-5.792537642
 20
11.9143140698
  0
LWPOLYLINE
  5
4D5
100
AcDbEntity
  8
ASSI
100
AcDbPolyline
 62
253
  6
CONTINUOUS
 90
14
 70
0
 10
-3.5682912007
 20
10.7110926664
 10
-3.5750749035
 20
10.7146040217
 10
-3.5831148268
 20
10.7178164953
 10
-3.5915468893
 20
10.7202297014
 10
-3.6003319136
 20
10.7218339732
 10
-3.6094326881
 20
10.7226258842
 10
-3.6188200513
 20
10.7226061368
 10
-3.6284646744
 20
10.7217769277
 10
-3.6383321978
 20
10.7201424598
 10
-3.6483868116
 20
10.7177098808
 10
-3.6585965673
 20
10.7144880458
 10
-3.6689265058
 20
10.7104883617
 10
-3.6793385772
 20
10.7057256867
 10
-3.6897958163
 20
10.7002172932
  0
LWPOLYLINE
  5
4D6
100
AcDbEntity
  8
ASSI
100
AcDbPolyline
 62
253
  6
CONTINUOUS
 90
7
 70
0
 10
-5.792537642
 20
11.9143140698
 10
-5.8106895743
 20
11.9237394888
 10
-5.8285732565
 20
11.9301868254
 10
-5.8458828123
 20
11.9335458066
 10
-5.8623221852
 20
11.9337589817
 10
-5.8776102018
 20
11.9308227045
 10
-5.8895687395
 20
11.9258519859
  0
LWPOLYLINE
  5
4D7
100
AcDbEntity
  8
RACCORDO
100
AcDbPolyline
 62
253
  6
CONTINUOUS
 90
16
 70
0
 10
-8.9546498327
 20
12.1106329991
 10
-8.9353316376
 20
12.1005831392
 10
-8.9143146822
 20
12.0917479927
 10
-8.8918272648
 20
12.084222288
 10
-8.8681277105
 20
12.0780897161
 10
-8.8434595657
 20
12.073410681
 10
-8.8180438035
 20
12.0702304065
 10
-8.7920961993
 20
12.0685885757
 10
-8.76595292
 20
12.0685189578
 10
-8.7400220819
 20
12.070018821
 10
-8.7146065038
 20
12.0730534333
 10
-8.6899504965
 20
12.077576191
 10
-8.666355485
 20
12.0835115233
 10
-8.6440693468
 20
12.0907695729
 10
-8.6232897194
 20
12.0992571802
 10
-8.6042085448
 20
12.1088672011
  0
LWPOLYLINE
  5
4D8
100
AcDbEntity
  8
RACCORDO
100
AcDbPolyline
 62
253
  6
CONTINUOUS
 90
16
 70
0
 10
-12.6669604339
 20
14.254074614
 10
-12.6476422388
 20
14.2440247541
 10
-12.6266252835
 20
14.2351896077
 10
-12.604137866
 20
14.227663903
 10
-12.5804383118
 20
14.221531331
 10
-12.555770167
 20
14.216852296
 10
-12.5303544048
 20
14.2136720214
 10
-12.5044068005
 20
14.2120301907
 10
-12.4782635212
 20
14.2119605728
 10
-12.4523326831
 20
14.213460436
 10
-12.426917105
 20
14.2164950483
 10
-12.4022610977
 20
14.221017806
 10
-12.3786660862
 20
14.2269531383
 10
-12.356379948
 20
14.2342111879
 10
-12.3356003206
 20
14.2426987951
 10
-12.316519146
 20
14.252308816
  0
LWPOLYLINE
  5
4D9
100
AcDbEntity
  8
ASSI
100
AcDbPolyline
 62
7
  6
CONTINUOUS
 90
10
 70
0
 10
-18.2567859432
 20
19.1920452587
 10
-18.262390991
 20
19.1951682514
 10
-18.287455635
 20
19.2066668027
 10
-18.3140111936
 20
19.2149656854
 10
-18.3415906138
 20
19.2198486681
 10
-18.3696610628
 20
19.2211989815
 10
-18.3981083195
 20
19.2189522649
 10
-18.4265905509
 20
19.2130079136
 10
-18.4544564034
 20
19.20340733
 10
-18.476064295
 20
19.1931422627
  0
LINE
  5
4DA
100
AcDbEntity
  8
RACCORDO
100
AcDbLine
 62
253
  6
CONTINUOUS
 10
-8.9546498327
 20
12.1106329991
 11
-11.17581104
 21
13.3931036424
  0
LINE
  5
4DB
100
AcDbEntity
  8
RACCORDO
100
AcDbLine
 62
253
  6
CONTINUOUS
 10
-12.6669604339
 20
14.254074614
 11
-14.8881216412
 21
15.5365452574
  0
LINE
  5
4DC
100
AcDbEntity
  8
ASSI
100
AcDbLine
 62
7
  6
CONTINUOUS
 10
-16.6127115738
 20
16.6442332132
 11
-15.9908654558
 21
16.2851870582
  0
LINE
  5
4DD
100
AcDbEntity
  8
ASSI
100
AcDbLine
 62
7
  6
CONTINUOUS
 10
-4.0262108687
 20
9.376945452
 11
-3.3776824315
 21
9.0024932603
  0
LINE
  5
4DE
100
AcDbEntity
  8
ASSI
100
AcDbLine
 62
7
  6
CONTINUOUS
 10
-11.2415346991
 20
13.5558095332
 11
-11.4387535849
 21
13.6696812461
  0
LINE
  5
4DF
100
AcDbEntity
  8
RACCORDO
100
AcDbLine
 62
253
  6
CONTINUOUS
 10
-8.7809583162
 20
12.415006785
 11
-11.0021195234
 21
13.6974774283
  0
LINE
  5
4E0
100
AcDbEntity
  8
RACCORDO
100
AcDbLine
 62
253
  6
CONTINUOUS
 10
-12.4932689174
 20
14.5584483999
 11
-14.7144301246
 21
15.8409190433
  0
LINE
  5
4E1
100
AcDbEntity
  8
RACCORDO
100
AcDbLine
 62
7
  6
CONTINUOUS
 10
-8.5979569414
 20
12.5206691348
 11
-10.8253971501
 21
13.8067651949
  0
LINE
  5
4E2
100
AcDbEntity
  8
RACCORDO
100
AcDbLine
 62
7
  6
CONTINUOUS
 10
-12.3102675427
 20
14.6641107498
 11
-14.5377077513
 21
15.9502068099
  0
LINE
  5
4E3
100
AcDbEntity
  8
ASSI
100
AcDbLine
 62
7
  6
CONTINUOUS
 10
-4.2139002829
 20
10.3976049037
 11
-6.3352637047
 21
11.6224535566
  0
LINE
  5
4E4
100
AcDbEntity
  8
ASSI
100
AcDbLine
 62
7
  6
CONTINUOUS
 10
-16.800400988
 20
17.6648926649
 11
-18.9217644099
 21
18.8897413178
  0
LINE
  5
4E5
100
AcDbEntity
  8
RACCORDO
100
AcDbLine
 62
7
  6
CONTINUOUS
 10
-8.2090751357
 20
13.098431299
 11
-10.1059477741
 21
14.193661787
  0
LINE
  5
4E6
100
AcDbEntity
  8
RACCORDO
100
AcDbLine
 62
7
  6
CONTINUOUS
 10
-11.6155033562
 20
15.065260261
 11
-13.5123759946
 21
16.160490749
  0
LINE
  5
4E7
100
AcDbEntity
  8
ASSI
100
AcDbLine
 62
253
  6
CONTINUOUS
 10
-18.3790383472
 20
19.181601831
 11
-16.2762965214
 21
17.9675050544
  0
LINE
  5
4E8
100
AcDbEntity
  8
ASSI
100
AcDbLine
 62
253
  6
CONTINUOUS
 10
-5.792537642
 20
11.9143140698
 11
-3.6897958163
 21
10.7002172932
  0
LINE
  5
4E9
100
AcDbEntity
  8
ASSI
100
AcDbLine
 62
7
  6
CONTINUOUS
 10
-18.2567902911
 20
19.1920478631
 11
-16.1547996082
 21
17.9783848757
  0
LINE
  5
4EA
100
AcDbEntity
  8
ASSI
100
AcDbLine
 62
7
  6
CONTINUOUS
 10
-5.6702717469
 20
11.9247498311
 11
-3.5682990472
 21
10.7110971977
  0
LINE
  5
4EB
100
AcDbEntity
  8
DRAFT
100
AcDbLine
 62
7
  6
CONTINUOUS
 10
-10.1110253172
 20
14.7011138629
 11
-10.0517569951
 21
14.6668930765
  0
LINE
  5
4EC
100
AcDbEntity
  8
RACCORDO
100
AcDbLine
 62
7
  6
CONTINUOUS
 10
18.1281482577
 20
-0.9544572095
 11
18.2508877677
 21
-1.0253254643
  0
LINE
  5
4ED
100
AcDbEntity
  8
ASSI
100
AcDbLine
 62
7
  6
CONTINUOUS
 10
18.1281482577
 20
-0.9544572095
 11
18.2508877677
 21
-1.0253254643
  0
LINE
  5
4EE
100
AcDbEntity
  8
ASSI
100
AcDbLine
 62
253
  6
CONTINUOUS
 10
18.4842058541
 20
-1.1542179191
 11
18.2873804106
 21
-1.0405733748
  0
LINE
  5
4EF
100
AcDbEntity
  8
RACCORDO
100
AcDbLine
 62
253
  6
CONTINUOUS
 10
18.1306524635
 20
-0.786818131
 11
18.1464427778
 21
-0.7959352606
  0
LINE
  5
4F0
100
AcDbEntity
  8
ASSI
100
AcDbLine
 62
253
  6
CONTINUOUS
 10
18.1306524635
 20
-0.786818131
 11
18.1464427778
 21
-0.7959352606
  0
LINE
  5
4F1
100
AcDbEntity
  8
ASSI
100
AcDbLine
 62
7
  6
CONTINUOUS
 10
-16.1548191038
 20
17.9783961292
 11
-16.1547422201
 21
17.9783517081
  0
LINE
  5
4F2
100
AcDbEntity
  8
ASSI
100
AcDbLine
 62
7
  6
CONTINUOUS
 10
-3.5682141032
 20
10.7110480826
 11
-3.5682912007
 21
10.7110926664
  0
LWPOLYLINE
  5
4F3
100
AcDbEntity
  8
ASSI
100
AcDbPolyline
 62
253
  6
CONTINUOUS
 90
13
 70
0
 10
-16.2762965214
 20
17.9675050544
 10
-16.2575427813
 20
17.9556215969
 10
-16.2391520184
 20
17.9411245127
 10
-16.2214387822
 20
17.9242617571
 10
-16.2047060332
 20
17.9053217464
 10
-16.1892399629
 20
17.8846284264
 10
-16.1753050982
 20
17.8625357324
 10
-16.1631397753
 20
17.8394215331
 10
-16.1529520627
 20
17.8156811649
 10
-16.1449162045
 20
17.791720673
 10
-16.1391696412
 20
17.7679498679
 10
-16.1358106582
 20
17.7447753167
 10
-16.1348967044
 20
17.7225933873
  0
LWPOLYLINE
  5
4F4
100
AcDbEntity
  8
ASSI
100
AcDbPolyline
 62
7
  6
CONTINUOUS
 90
13
 70
0
 10
-4.2139002829
 20
10.3976049037
 10
-4.1954490145
 20
10.3855483845
 10
-4.1773066174
 20
10.3709090869
 10
-4.1597876449
 20
10.3539347392
 10
-4.1431964462
 20
10.3349125474
 10
-4.1278180016
 20
10.31416731
 10
-4.1139129012
 20
10.2920560217
 10
-4.1017165692
 20
10.2689583029
 10
-4.0914400533
 20
10.2452678454
 10
-4.0832622221
 20
10.2213888191
 10
-4.0773218647
 20
10.1977304153
 10
-4.0737155277
 20
10.1746998006
 10
-4.0725004658
 20
10.1526932366
  0
LWPOLYLINE
  5
4F5
100
AcDbEntity
  8
0
100
AcDbPolyline
 62
7
  6
CONTINUOUS
 90
6
 70
0
 10
14.4436380187
 20
-9.855659306
 10
14.4791713806
 20
-9.9049046881
 10
14.5242449875
 20
-9.9720717806
 10
14.5672454342
 20
-10.0411214277
 10
14.6081395067
 20
-10.1119518352
 10
14.6304738966
 20
-10.1538027842
  0
LINE
  5
4F6
100
AcDbEntity
  8
RACCORDO
100
AcDbLine
 62
7
  6
CONTINUOUS
 10
0.1893761231
 20
11.4074852759
 11
1.4727138743
 21
9.1846790898
  0
LINE
  5
4F7
100
AcDbEntity
  8
RACCORDO
100
AcDbLine
 62
253
  6
CONTINUOUS
 10
9.1453710892
 20
20.5148101662
 11
9.144448832
 21
20.6598729743
  0
LINE
  5
4F8
100
AcDbEntity
  8
ASSI
100
AcDbLine
 62
253
  6
CONTINUOUS
 10
9.1453710892
 20
20.5148101662
 11
9.144448832
 21
20.6598729743
  0
LINE
  5
4F9
100
AcDbEntity
  8
RACCORDO
100
AcDbLine
 62
253
  6
CONTINUOUS
 10
9.144448832
 20
20.6598729743
 11
9.1437717686
 21
20.812419878
  0
LINE
  5
4FA
100
AcDbEntity
  8
ASSI
100
AcDbLine
 62
253
  6
CONTINUOUS
 10
9.144448832
 20
20.6598729743
 11
9.1437717686
 21
20.812419878
  0
LINE
  5
4FB
100
AcDbEntity
  8
RACCORDO
100
AcDbLine
 62
253
  6
CONTINUOUS
 10
9.1437717686
 20
20.812419878
 11
9.1435199115
 21
20.931889316
  0
LINE
  5
4FC
100
AcDbEntity
  8
ASSI
100
AcDbLine
 62
253
  6
CONTINUOUS
 10
9.1437717686
 20
20.812419878
 11
9.1435199115
 21
20.931889316
  0
LINE
  5
4FD
100
AcDbEntity
  8
RACCORDO
100
AcDbLine
 62
253
  6
CONTINUOUS
 10
8.7918176986
 20
20.5989492169
 11
8.7918176986
 21
19.8729786647
  0
LINE
  5
4FE
100
AcDbEntity
  8
ASSI
100
AcDbLine
 62
253
  6
CONTINUOUS
 10
8.7918176986
 20
20.5989492169
 11
8.7918176986
 21
19.8729786647
  0
LINE
  5
4FF
100
AcDbEntity
  8
RACCORDO
100
AcDbLine
 62
253
  6
CONTINUOUS
 10
9.1453710892
 20
20.5148101662
 11
9.1453710892
 21
19.7884222278
  0
LINE
  5
500
100
AcDbEntity
  8
ASSI
100
AcDbLine
 62
253
  6
CONTINUOUS
 10
9.1453710892
 20
20.5148101662
 11
9.1453710892
 21
19.7884222278
  0
LWPOLYLINE
  5
501
100
AcDbEntity
  8
0
100
AcDbPolyline
 62
7
  6
CONTINUOUS
 90
15
 70
0
 10
7.4411166682
 20
-17.2463265239
 10
7.4354532368
 20
-17.2819223461
 10
7.425430778
 20
-17.3293414791
 10
7.4132542794
 20
-17.3748084407
 10
7.3989013689
 20
-17.4183303999
 10
7.3823944186
 20
-17.4599001878
 10
7.3638607813
 20
-17.4992010111
 10
7.3433004148
 20
-17.5361933603
 10
7.3207133614
 20
-17.5709167448
 10
7.2962271007
 20
-17.6031729007
 10
7.2698086011
 20
-17.6329683713
 10
7.2414908942
 20
-17.6602966133
 10
7.2115005549
 20
-17.6849397321
 10
7.1798519182
 20
-17.7068604199
 10
7.1634227551
 20
-17.7168009141
  0
LWPOLYLINE
  5
502
100
AcDbEntity
  8
ASSI
100
AcDbPolyline
 62
7
  6
CONTINUOUS
 90
5
 70
0
 10
-3.5017875275
 20
-29.2082897858
 10
-3.4860096427
 20
-29.1800336261
 10
-3.4737761039
 20
-29.150912581
 10
-3.4650590055
 20
-29.1213128518
 10
-3.4596811981
 20
-29.0901132282
  0
LINE
  5
503
100
AcDbEntity
  8
ASSI
100
AcDbLine
 62
7
  6
CONTINUOUS
 10
24.4946134942
 20
2.3161161242
 11
18.4842058541
 21
-1.1542179191
  0
LINE
  5
504
100
AcDbEntity
  8
RACCORDO
100
AcDbLine
 62
253
  6
CONTINUOUS
 10
25.564529907
 20
4.2703595333
 11
21.1046775207
 21
1.7398522958
  0
LINE
  5
505
100
AcDbEntity
  8
ASSI
100
AcDbLine
 62
253
  6
CONTINUOUS
 10
25.564529907
 20
4.2703595333
 11
21.1046775207
 21
1.7398522958
  0
LINE
  5
506
100
AcDbEntity
  8
RACCORDO
100
AcDbLine
 62
7
  6
CONTINUOUS
 10
24.4946134942
 20
2.3977631519
 11
18.5030815821
 21
-1.0018145815
  0
LINE
  5
507
100
AcDbEntity
  8
ASSI
100
AcDbLine
 62
7
  6
CONTINUOUS
 10
24.4946134942
 20
2.3977631519
 11
18.5030815821
 21
-1.0018145815
  0
LWPOLYLINE
  5
508
100
AcDbEntity
  8
ASSI
100
AcDbPolyline
 62
7
  6
CONTINUOUS
 90
25
 70
0
 10
18.4842058541
 20
-1.1542179191
 10
18.4726747254
 20
-1.1606614139
 10
18.4611599385
 20
-1.1666588136
 10
18.4496614933
 20
-1.1722101182
 10
18.4381598793
 20
-1.1773243965
 10
18.426674607
 20
-1.1819925796
 10
18.4152642079
 20
-1.1861874609
 10
18.4039309471
 20
-1.1899038651
 10
18.3926725594
 20
-1.1931469674
 10
18.3815407809
 20
-1.1959050871
 10
18.3705476838
 20
-1.1981742479
 10
18.3596811959
 20
-1.1999584261
 10
18.3489568366
 20
-1.2012578694
 10
18.3383733483
 20
-1.2020742018
 10
18.3279319885
 20
-1.2024057994
 10
18.3176520498
 20
-1.2022480384
 10
18.307523098
 20
-1.2015986719
 10
18.2975555673
 20
-1.2004599468
 10
18.2878000526
 20
-1.1988339799
 10
18.278259044
 20
-1.196716042
 10
18.2689300514
 20
-1.1941108622
 10
18.2598561997
 20
-1.1910347453
 10
18.2510481674
 20
-1.187489919
 10
18.242495276
 20
-1.1834741556
 10
18.2341937979
 20
-1.1789885217
  0
LWPOLYLINE
  5
509
100
AcDbEntity
  8
ASSI
100
AcDbPolyline
 62
7
  6
CONTINUOUS
 90
8
 70
0
 10
-7.2123520217
 20
9.468256313
 10
-7.2105557755
 20
9.4686671157
 10
-7.2053301499
 20
9.4714401063
 10
-7.1971329405
 20
9.4764353155
 10
-7.18616049
 20
9.4827467409
 10
-7.1725945031
 20
9.4901761092
 10
-7.1568126366
 20
9.4991949954
 10
-7.1391310898
 20
9.5098946553
  0
LINE
  5
50A
100
AcDbEntity
  8
ASSI
100
AcDbLine
 62
7
  6
CONTINUOUS
 10
20.3788605338
 20
10.7343991075
 11
20.2761601684
 21
10.7312694422
  0
LINE
  5
50B
100
AcDbEntity
  8
DRAFT
100
AcDbLine
 62
7
  6
CONTINUOUS
 10
-8.951537256
 20
8.6685860759
 11
-7.9615877623
 21
8.6985386517
  0
LINE
  5
50C
100
AcDbEntity
  8
0
100
AcDbLine
 62
7
  6
CONTINUOUS
 10
-7.9615877623
 20
8.6985386517
 11
-8.951537256
 21
8.6685860759
  0
LINE
  5
50D
100
AcDbEntity
  8
SMUSSO
100
AcDbLine
 62
7
  6
CONTINUOUS
 10
-8.8808265779
 20
8.7393661111
 11
-8.0322984404
 21
8.7393661111
  0
LWPOLYLINE
  5
50E
100
AcDbEntity
  8
ASSI
100
AcDbPolyline
 62
7
  6
CONTINUOUS
 90
4
 70
0
 10
-6.3893763427
 20
11.64127131
 10
-6.3718659222
 20
11.6380201251
 10
-6.3537264182
 20
11.6317107078
 10
-6.3352637047
 20
11.6224535566
  0
LWPOLYLINE
  5
50F
100
AcDbEntity
  8
ASSI
100
AcDbPolyline
 62
7
  6
CONTINUOUS
 90
3
 70
0
 10
20.5076098999
 20
6.63649102
 10
20.4772347847
 20
6.6431619751
 10
20.3788605338
 20
6.6520477236
  0
LWPOLYLINE
  5
510
100
AcDbEntity
  8
RACCORDO
100
AcDbPolyline
 62
253
  6
CONTINUOUS
 90
6
 70
0
 10
-7.7198153273
 20
15.7431036143
 10
-7.7271994131
 20
15.7466755446
 10
-7.7469865481
 20
15.7516003601
 10
-7.768882735
 20
15.7510939092
 10
-7.7922374038
 20
15.7451715235
 10
-7.8163565574
 20
15.7340094189
  0
LWPOLYLINE
  5
511
100
AcDbEntity
  8
RACCORDO
100
AcDbPolyline
 62
253
  6
CONTINUOUS
 90
7
 70
0
 10
-4.9719119942
 20
14.9022845975
 10
-4.9950123772
 20
14.9138460018
 10
-5.0177702942
 20
14.9216871318
 10
-5.0397963511
 20
14.9256738236
 10
-5.0607136758
 20
14.9257378638
 10
-5.0801643672
 20
14.9218781568
 10
-5.0966876889
 20
14.9148004223
  0
LWPOLYLINE
  5
512
100
AcDbEntity
  8
RACCORDO
100
AcDbPolyline
 62
7
  6
CONTINUOUS
 90
3
 70
0
 10
-7.7189016422
 20
15.7425638678
 10
-7.7411697138
 20
15.7549553116
 10
-7.8259896708
 20
15.7947437654
  0
LINE
  5
513
100
AcDbEntity
  8
RACCORDO
100
AcDbLine
 62
7
  6
CONTINUOUS
 10
-9.0667241215
 20
15.4268855597
 11
-6.6656392429
 21
14.0405292434
  0
LINE
  5
514
100
AcDbEntity
  8
RACCORDO
100
AcDbLine
 62
7
  6
CONTINUOUS
 10
-8.8101423909
 20
15.5829736319
 11
-6.3975009348
 21
14.1899446885
  0
LINE
  5
515
100
AcDbEntity
  8
RACCORDO
100
AcDbLine
 62
7
  6
CONTINUOUS
 10
-5.5339288727
 20
14.6711553179
 11
-8.3151411529
 21
16.2769924317
  0
LINE
  5
516
100
AcDbEntity
  8
DRAFT
100
AcDbLine
 62
7
  6
CONTINUOUS
 10
0.1701402213
 20
11.4185918445
 11
0.1893761231
 21
11.4074852759
  0
LINE
  5
517
100
AcDbEntity
  8
DRAFT
100
AcDbLine
 62
7
  6
CONTINUOUS
 10
0.4361612181
 20
12.0815438416
 11
0.8772470025
 21
11.8268664378
  0
LINE
  5
518
100
AcDbEntity
  8
ASSI
100
AcDbLine
 62
7
  6
CONTINUOUS
 10
-3.7600447626
 20
14.8123732856
 11
-7.7059256942
 21
17.0906754821
  0
LWPOLYLINE
  5
519
100
AcDbEntity
  8
RACCORDO
100
AcDbPolyline
 62
253
  6
CONTINUOUS
 90
3
 70
0
 10
-7.4256007681
 20
15.5083849632
 10
-7.16732064
 20
15.3592690315
 10
-6.7933191749
 20
15.1433244298
  0
LINE
  5
51A
100
AcDbEntity
  8
RACCORDO
100
AcDbLine
 62
7
  6
CONTINUOUS
 10
-5.7015504524
 20
14.5777510852
 11
-6.3803033592
 21
14.9696696628
  0
LINE
  5
51B
100
AcDbEntity
  8
RACCORDO
100
AcDbLine
 62
7
  6
CONTINUOUS
 10
-6.3803033592
 20
14.9696696628
 11
-7.7198153273
 21
15.7431036143
  0
LINE
  5
51C
100
AcDbEntity
  8
RACCORDO
100
AcDbLine
 62
253
  6
CONTINUOUS
 10
-7.8163565574
 20
15.7340094171
 11
-7.4256007681
 21
15.5083849632
  0
LWPOLYLINE
  5
51D
100
AcDbEntity
  8
RACCORDO
100
AcDbPolyline
 62
253
  6
CONTINUOUS
 90
4
 70
0
 10
-6.7933191749
 20
15.1433244298
 10
-6.1025691617
 20
14.7444847879
 10
-6.0151773645
 20
14.6939837755
 10
-5.7586961071
 20
14.5459076552
  0
LWPOLYLINE
  5
51E
100
AcDbEntity
  8
ASSI
100
AcDbPolyline
 62
7
  6
CONTINUOUS
 90
25
 70
0
 10
18.2341937979
 20
-1.1789885217
 10
18.2261872006
 20
-1.1740602737
 10
18.2184320165
 20
-1.1686621552
 10
18.210957102
 20
-1.1628075591
 10
18.2037551961
 20
-1.1564883044
 10
18.1968335597
 20
-1.1497125722
 10
18.1902280154
 20
-1.1425097449
 10
18.1839415028
 20
-1.134875392
 10
18.1779710822
 20
-1.126813944
 10
18.1723437568
 20
-1.118368075
 10
18.1670666859
 20
-1.1095457746
 10
18.1621327101
 20
-1.1003390531
 10
18.1575473544
 20
-1.0907666156
 10
18.1533097687
 20
-1.0808302537
 10
18.149420803
 20
-1.0705281758
 10
18.1458885319
 20
-1.0598737127
 10
18.1427103641
 20
-1.0488543157
 10
18.139888891
 20
-1.0374825336
 10
18.1374399607
 20
-1.0258093437
 10
18.1353669677
 20
-1.0138303504
 10
18.1336665177
 20
-1.0015499494
 10
18.1323442757
 20
-0.9890323052
 10
18.1314021302
 20
-0.9762988058
 10
18.1308381928
 20
-0.9633280632
 10
18.1306524635
 20
-0.9501200774
  0
LWPOLYLINE
  5
51F
100
AcDbEntity
  8
RACCORDO
100
AcDbPolyline
 62
253
  6
CONTINUOUS
 90
13
 70
0
 10
-4.7203965348
 20
14.7595316037
 10
-4.6969563105
 20
14.7446786486
 10
-4.6739693604
 20
14.7265588888
 10
-4.6518288211
 20
14.7054820607
 10
-4.6309133993
 20
14.6818085166
 10
-4.6115808402
 20
14.6559430081
 10
-4.594161821
 20
14.6283277522
 10
-4.5789543335
 20
14.5994349066
 10
-4.5662186582
 20
14.5697586776
 10
-4.5561728165
 20
14.5398068105
 10
-4.5489887487
 20
14.5100916892
 10
-4.5447894187
 20
14.4811215624
 10
-4.543646762
 20
14.4533920206
  0
LWPOLYLINE
  5
520
100
AcDbEntity
  8
RACCORDO
100
AcDbPolyline
 62
253
  6
CONTINUOUS
 90
13
 70
0
 10
-10.2752128531
 20
17.9643440475
 10
-10.2521671429
 20
17.9492615487
 10
-10.2295681389
 20
17.9309149034
 10
-10.2078024926
 20
17.90961785
 10
-10.1872426424
 20
17.8857346483
 10
-10.1682403882
 20
17.8596737943
 10
-10.1511208833
 20
17.8318810189
 10
-10.1361771092
 20
17.8028317007
 10
-10.1236649321
 20
17.7730229165
 10
-10.1137986305
 20
17.7429648784
 10
-10.1067471372
 20
17.7131719865
 10
-10.1026311938
 20
17.6841540181
 10
-10.101521335
 20
17.6564075754
  0
LWPOLYLINE
  5
521
100
AcDbEntity
  8
RACCORDO
100
AcDbPolyline
 62
253
  6
CONTINUOUS
 90
13
 70
0
 10
11.7756372876
 20
20.6100745565
 10
11.7735947807
 20
20.6429622889
 10
11.7679896191
 20
20.6774010193
 10
11.758917736
 20
20.712801517
 10
11.7465343704
 20
20.7485581182
 10
11.731051422
 20
20.7840590504
 10
11.7127338357
 20
20.8186969008
 10
11.6918950409
 20
20.8518790669
 10
11.6688915861
 20
20.8830378782
 10
11.6441170608
 20
20.9116402731
 10
11.6179953401
 20
20.9371969492
 10
11.5909733298
 20
20.9592707294
 10
11.5635133305
 20
20.9774840272
  0
LWPOLYLINE
  5
522
100
AcDbEntity
  8
ASSI
100
AcDbPolyline
 62
253
  6
CONTINUOUS
 90
13
 70
0
 10
11.7756372876
 20
20.6100745565
 10
11.7735947807
 20
20.6429622889
 10
11.7679896191
 20
20.6774010193
 10
11.758917736
 20
20.712801517
 10
11.7465343704
 20
20.7485581182
 10
11.731051422
 20
20.7840590504
 10
11.7127338357
 20
20.8186969008
 10
11.6918950409
 20
20.8518790669
 10
11.6688915861
 20
20.8830378782
 10
11.6441170608
 20
20.9116402731
 10
11.6179953401
 20
20.9371969492
 10
11.5909733298
 20
20.9592707294
 10
11.5635133305
 20
20.9774840272
  0
LINE
  5
523
100
AcDbEntity
  8
RACCORDO
100
AcDbLine
 62
253
  6
CONTINUOUS
 10
11.4251826554
 20
20.5262965343
 11
11.424260349
 21
20.6713569294
  0
LINE
  5
524
100
AcDbEntity
  8
ASSI
100
AcDbLine
 62
253
  6
CONTINUOUS
 10
11.4251826554
 20
20.5262965343
 11
11.424260349
 21
20.6713569294
  0
LINE
  5
525
100
AcDbEntity
  8
RACCORDO
100
AcDbLine
 62
253
  6
CONTINUOUS
 10
11.424260349
 20
20.6713569294
 11
11.4235832794
 21
20.8239038503
  0
LINE
  5
526
100
AcDbEntity
  8
ASSI
100
AcDbLine
 62
253
  6
CONTINUOUS
 10
11.424260349
 20
20.6713569294
 11
11.4235832794
 21
20.8239038503
  0
LINE
  5
527
100
AcDbEntity
  8
RACCORDO
100
AcDbLine
 62
253
  6
CONTINUOUS
 10
11.4235832794
 20
20.8239038503
 11
11.4233314777
 21
20.9433756841
  0
LINE
  5
528
100
AcDbEntity
  8
ASSI
100
AcDbLine
 62
253
  6
CONTINUOUS
 10
11.4235832794
 20
20.8239038503
 11
11.4233314777
 21
20.9433756841
  0
LINE
  5
529
100
AcDbEntity
  8
0
100
AcDbLine
 62
7
  6
CONTINUOUS
 10
11.2363613469
 20
-14.8149117206
 11
11.2363613469
 21
-11.7075006597
  0
LINE
  5
52A
100
AcDbEntity
  8
RACCORDO
100
AcDbLine
 62
253
  6
CONTINUOUS
 10
11.4251826554
 20
19.7884222278
 11
11.4251826554
 21
20.5262965343
  0
LINE
  5
52B
100
AcDbEntity
  8
ASSI
100
AcDbLine
 62
253
  6
CONTINUOUS
 10
11.4251826554
 20
19.7884222278
 11
11.4251826554
 21
20.5262965343
  0
LINE
  5
52C
100
AcDbEntity
  8
RACCORDO
100
AcDbLine
 62
253
  6
CONTINUOUS
 10
11.7756372876
 20
19.8712050263
 11
11.7756372876
 21
20.6100745565
  0
LINE
  5
52D
100
AcDbEntity
  8
ASSI
100
AcDbLine
 62
253
  6
CONTINUOUS
 10
11.7756372876
 20
19.8712050263
 11
11.7756372876
 21
20.6100745565
  0
LINE
  5
52E
100
AcDbEntity
  8
RACCORDO
100
AcDbLine
 62
7
  6
CONTINUOUS
 10
13.1966953095
 20
20.7773794017
 11
13.1966953095
 21
20.6775092036
  0
LINE
  5
52F
100
AcDbEntity
  8
ASSI
100
AcDbLine
 62
7
  6
CONTINUOUS
 10
13.1966953095
 20
20.7773794017
 11
13.1966953095
 21
20.6775092036
  0
LWPOLYLINE
  5
530
100
AcDbEntity
  8
0
100
AcDbPolyline
 62
7
  6
CONTINUOUS
 90
18
 70
0
 10
11.3424273641
 20
-14.8304619862
 10
11.3412820913
 20
-14.8844102309
 10
11.3379225417
 20
-14.9367015904
 10
11.3323487154
 20
-14.9873360648
 10
11.3245405334
 20
-15.0364120828
 10
11.3145180746
 20
-15.0838312158
 10
11.3023415759
 20
-15.1292981774
 10
11.2879886655
 20
-15.1728201366
 10
11.2714817151
 20
-15.2143899245
 10
11.2529480779
 20
-15.2536907478
 10
11.2323877114
 20
-15.2906830969
 10
11.2098006579
 20
-15.3254064815
 10
11.1853143973
 20
-15.3576626374
 10
11.1588958976
 20
-15.387458108
 10
11.1305781907
 20
-15.41478635
 10
11.1005878514
 20
-15.4394294688
 10
11.0689392148
 20
-15.4613501566
 10
11.0525100516
 20
-15.4712906508
  0
LWPOLYLINE
  5
531
100
AcDbEntity
  8
0
100
AcDbPolyline
 62
7
  6
CONTINUOUS
 90
16
 70
0
 10
3.7666462494
 20
-19.3158753746
 10
3.7723872405
 20
-19.304053269
 10
3.7777451912
 20
-19.2918521369
 10
3.7827201014
 20
-19.2792719784
 10
3.7873154458
 20
-19.2663018635
 10
3.7915277498
 20
-19.2529527221
 10
3.7953465891
 20
-19.2392573441
 10
3.7987709441
 20
-19.2252150099
 10
3.8018018343
 20
-19.2108264392
 10
3.8044318949
 20
-19.1961265812
 10
3.8066601506
 20
-19.1811146911
 10
3.8084875766
 20
-19.1657915136
 10
3.809909733
 20
-19.1501942325
 10
3.8109251398
 20
-19.1343352422
 10
3.8115352769
 20
-19.1182021482
 10
3.8117401444
 20
-19.1017949505
  0
LWPOLYLINE
  5
532
100
AcDbEntity
  8
ASSI
100
AcDbPolyline
 62
253
  6
CONTINUOUS
 90
25
 70
0
 10
-5.9213997729
 20
-29.8507513793
 10
-5.9275874598
 20
-29.8586055653
 10
-5.9335275384
 20
-29.866532878
 10
-5.9392176986
 20
-29.8745120644
 10
-5.9446211045
 20
-29.8824692489
 10
-5.949775141
 20
-29.8904371047
 10
-5.9547801057
 20
-29.8985637289
 10
-5.9596399387
 20
-29.9068620792
 10
-5.9643308199
 20
-29.9152985065
 10
-5.9688946443
 20
-29.9239619093
 10
-5.9733244079
 20
-29.9328627606
 10
-5.9775924595
 20
-29.9419709665
 10
-5.9816990363
 20
-29.951316863
 10
-5.9856233253
 20
-29.9608889738
 10
-5.9893424861
 20
-29.9706707476
 10
-5.99284625
 20
-29.98068314
 10
-5.9961080267
 20
-29.9909073104
 10
-5.9991002133
 20
-30.0013210233
 10
-6.0018030899
 20
-30.0119360462
 10
-6.00418442
 20
-30.022724691
 10
-6.0062110693
 20
-30.0336548072
 10
-6.0078536113
 20
-30.044724801
 10
-6.0090751792
 20
-30.0559052602
 10
-6.0098360366
 20
-30.0671401616
 10
-6.0100982854
 20
-30.0783805228
  0
LINE
  5
533
100
AcDbEntity
  8
ASSI
100
AcDbLine
 62
7
  6
CONTINUOUS
 10
-3.7189470752
 20
-25.4046319157
 11
-2.9933240513
 21
-24.5356590347
  0
LINE
  5
534
100
AcDbEntity
  8
0
100
AcDbLine
 62
7
  6
CONTINUOUS
 10
-5.4867140282
 20
-18.2606156311
 11
-5.0394035812
 21
-17.9517512233
  0
LINE
  5
535
100
AcDbEntity
  8
RACCORDO
100
AcDbLine
 62
7
  6
CONTINUOUS
 10
-5.4867140282
 20
-18.2606156311
 11
-5.0394035812
 21
-17.9517512233
  0
LINE
  5
536
100
AcDbEntity
  8
DRAFT
100
AcDbLine
 62
7
  6
CONTINUOUS
 10
-2.9933240513
 20
-16.8138425175
 11
-4.4445700991
 21
-17.6375126946
  0
LINE
  5
537
100
AcDbEntity
  8
DRAFT
100
AcDbLine
 62
7
  6
CONTINUOUS
 10
-4.4445700991
 20
-17.6375126946
 11
-5.4867140282
 21
-18.1880563086
  0
LINE
  5
538
100
AcDbEntity
  8
CURVE
100
AcDbLine
 62
253
  6
CONTINUOUS
 10
-20.7511318552
 20
-20.3723086253
 11
-20.7629738804
 21
-20.3770096924
  0
LWPOLYLINE
  5
539
100
AcDbEntity
  8
ASSI
100
AcDbPolyline
 62
7
  6
CONTINUOUS
 90
6
 70
0
 10
20.2761601684
 20
14.8136208261
 10
20.1692159018
 20
14.7987040875
 10
20.0600861793
 20
14.7722873905
 10
19.9494571492
 20
14.7344664401
 10
19.8366426631
 20
14.6851455314
 10
19.7216427211
 20
14.6243246642
  0
LINE
  5
53A
100
AcDbEntity
  8
DRAFT
100
AcDbLine
 62
7
  6
CONTINUOUS
 10
-16.8711332053
 20
13.2412615212
 11
-15.8811837116
 21
13.271214097
  0
LINE
  5
53B
100
AcDbEntity
  8
0
100
AcDbLine
 62
7
  6
CONTINUOUS
 10
-15.8811837116
 20
13.271214097
 11
-16.8711332053
 21
13.2412615212
  0
LINE
  5
53C
100
AcDbEntity
  8
SMUSSO
100
AcDbLine
 62
7
  6
CONTINUOUS
 10
-16.8004225271
 20
13.3120415563
 11
-15.9518943897
 21
13.3120415563
  0
LWPOLYLINE
  5
53D
100
AcDbEntity
  8
RACCORDO
100
AcDbPolyline
 62
7
  6
CONTINUOUS
 90
5
 70
0
 10
-10.9137715696
 20
13.8304554182
 10
-10.8930379475
 20
13.8302873868
 10
-10.8711499218
 20
13.8262234056
 10
-10.8484755419
 20
13.8183366339
 10
-10.8253971501
 20
13.8067651949
  0
LWPOLYLINE
  5
53E
100
AcDbEntity
  8
ASSI
100
AcDbPolyline
 62
253
  6
CONTINUOUS
 90
19
 70
0
 10
-18.2982597258
 20
16.0985548903
 10
-18.2997831552
 20
16.0987441054
 10
-18.3012846792
 20
16.0990714648
 10
-18.3027642978
 20
16.0995369686
 10
-18.3042345017
 20
16.1001352
 10
-18.3056828001
 20
16.1008715758
 10
-18.3070717216
 20
16.1017623462
 10
-18.3084002255
 20
16.1028127138
 10
-18.3096693524
 20
16.104017476
 10
-18.3108447525
 20
16.1053772751
 10
-18.3119238661
 20
16.106897685
 10
-18.3129092529
 20
16.1085731318
 10
-18.313774243
 20
16.1103875357
 10
-18.3145150039
 20
16.1123458891
 10
-18.315135368
 20
16.1144431995
 10
-18.3156201629
 20
16.1166484102
 10
-18.3159643312
 20
16.1189511689
 10
-18.3161729303
 20
16.1213618278
 10
-18.3162459602
 20
16.123880387
  0
LINE
  5
53F
100
AcDbEntity
  8
RACCORDO
100
AcDbLine
 62
7
  6
CONTINUOUS
 10
-8.8101697476
 20
15.5829567141
 11
-8.8704955546
 21
15.5972358625
  0
LWPOLYLINE
  5
540
100
AcDbEntity
  8
RACCORDO
100
AcDbPolyline
 62
7
  6
CONTINUOUS
 90
8
 70
0
 10
-7.9185130539
 20
15.8272711907
 10
-8.0183183854
 20
15.8522399826
 10
-8.1242652143
 20
15.869089305
 10
-8.2342345125
 20
15.8772470964
 10
-8.3471113158
 20
15.8763719497
 10
-8.4615112796
 20
15.8660674443
 10
-8.5747886074
 20
15.8461927117
 10
-8.6861664259
 20
15.8164622639
  0
LWPOLYLINE
  5
541
100
AcDbEntity
  8
RACCORDO
100
AcDbPolyline
 62
7
  6
CONTINUOUS
 90
3
 70
0
 10
-9.1844693135
 20
15.4725546264
 10
-9.1265107226
 20
15.4553803543
 10
-9.0645616249
 20
15.4256369613
  0
LINE
  5
542
100
AcDbEntity
  8
RACCORDO
100
AcDbLine
 62
7
  6
CONTINUOUS
 10
-7.8259896708
 20
15.7947437654
 11
-7.9185130539
 21
15.8272711907
  0
LWPOLYLINE
  5
543
100
AcDbEntity
  8
RACCORDO
100
AcDbPolyline
 62
253
  6
CONTINUOUS
 90
6
 70
0
 10
-7.9108194222
 20
15.7779057059
 10
-7.8903844452
 20
15.7699529315
 10
-7.87070651
 20
15.7615795843
 10
-7.8518328173
 20
15.7528101014
 10
-7.8337161665
 20
15.7436200456
 10
-7.8163565574
 20
15.7340094171
  0
LWPOLYLINE
  5
544
100
AcDbEntity
  8
RACCORDO
100
AcDbPolyline
 62
253
  6
CONTINUOUS
 90
7
 70
0
 10
-10.5223764067
 20
18.1095220658
 10
-10.5450663219
 20
18.1213038395
 10
-10.5674209243
 20
18.1293630104
 10
-10.5890578686
 20
18.1335617373
 10
-10.6096070839
 20
18.1338282065
 10
-10.6287171038
 20
18.1301578605
 10
-10.6438680784
 20
18.1238357627
  0
LINE
  5
545
100
AcDbEntity
  8
RACCORDO
100
AcDbLine
 62
7
  6
CONTINUOUS
 10
19.8119955903
 20
2.0060860442
 11
19.8086283485
 21
2.0080185712
  0
LINE
  5
546
100
AcDbEntity
  8
ASSI
100
AcDbLine
 62
7
  6
CONTINUOUS
 10
19.8119316705
 20
2.006122508
 11
19.8086283485
 21
2.0080185712
  0
LINE
  5
547
100
AcDbEntity
  8
ASSI
100
AcDbLine
 62
7
  6
CONTINUOUS
 10
-2.6284847465
 20
15.443306872
 11
-5.9463334359
 21
17.3589911229
  0
LINE
  5
548
100
AcDbEntity
  8
RACCORDO
100
AcDbLine
 62
253
  6
CONTINUOUS
 10
20.8944047414
 20
2.10833994
 11
20.3166395762
 21
2.4419343052
  0
LINE
  5
549
100
AcDbEntity
  8
ASSI
100
AcDbLine
 62
253
  6
CONTINUOUS
 10
20.8944047414
 20
2.10833994
 11
20.3166395762
 21
2.4419343052
  0
LINE
  5
54A
100
AcDbEntity
  8
ASSI
100
AcDbLine
 62
253
  6
CONTINUOUS
 10
-9.6471683562
 20
19.8570966873
 11
-6.6586894859
 21
18.1315864421
  0
LINE
  5
54B
100
AcDbEntity
  8
ASSI
100
AcDbLine
 62
253
  6
CONTINUOUS
 10
-2.3101581532
 20
15.6207989505
 11
0.678320717
 21
13.8952887052
  0
LINE
  5
54C
100
AcDbEntity
  8
ASSI
100
AcDbLine
 62
7
  6
CONTINUOUS
 10
-9.3625295055
 20
20.0168722474
 11
-6.1673822992
 21
18.1720342951
  0
LINE
  5
54D
100
AcDbEntity
  8
ASSI
100
AcDbLine
 62
7
  6
CONTINUOUS
 10
-1.8260984495
 20
15.6654314093
 11
1.3690487568
 21
13.820593457
  0
LINE
  5
54E
100
AcDbEntity
  8
ASSI
100
AcDbLine
 62
7
  6
CONTINUOUS
 10
19.8118616392
 20
2.0061656768
 11
19.7574819043
 21
2.0416228956
  0
LWPOLYLINE
  5
54F
100
AcDbEntity
  8
RACCORDO
100
AcDbPolyline
 62
7
  6
CONTINUOUS
 90
34
 70
0
 10
19.8119255458
 20
2.00612923
 10
19.7559255461
 20
2.0427826023
 10
19.698945164
 20
2.0917770756
 10
19.6475785157
 20
2.1491250123
 10
19.6011086789
 20
2.2157339559
 10
19.5597813709
 20
2.2918222821
 10
19.524328904
 20
2.376650847
 10
19.4951819038
 20
2.4697214698
 10
19.4726874667
 20
2.5702901713
 10
19.4571017744
 20
2.6775625823
 10
19.4485849907
 20
2.7909832818
 10
19.4472258405
 20
2.9094863594
 10
19.4530248274
 20
3.0324756194
 10
19.4661144118
 20
3.1604055845
 10
19.4866735702
 20
3.293067085
 10
19.5146987882
 20
3.4292362136
 10
19.5501488983
 20
3.5680266375
 10
19.5929250496
 20
3.7086712365
 10
19.6428630738
 20
3.8503577281
 10
19.6997179141
 20
3.9921610108
 10
19.7632025512
 20
4.1332592712
 10
19.8330015373
 20
4.2728949787
 10
19.9087541196
 20
4.4102715789
 10
19.9900582859
 20
4.5446325256
 10
20.0764632726
 20
4.6752439488
 10
20.1674851703
 20
4.8013689891
 10
20.2626546467
 20
4.9223746123
 10
20.3613719942
 20
5.0375570835
 10
20.4628884176
 20
5.1461168524
 10
20.5666267809
 20
5.2475410984
 10
20.671930501
 20
5.3413285843
 10
20.7778479691
 20
5.4268042986
 10
20.8835846236
 20
5.503567045
 10
20.988521851
 20
5.5714703573
  0
LINE
  5
550
100
AcDbEntity
  8
0
100
AcDbLine
 62
7
  6
CONTINUOUS
 10
14.6304738966
 20
-10.1538027842
 11
14.6304738966
 21
-9.7477826117
  0
LINE
  5
551
100
AcDbEntity
  8
0
100
AcDbLine
 62
7
  6
CONTINUOUS
 10
15.1254486434
 20
-12.5694014573
 11
15.1254486434
 21
-9.4619903964
  0
LWPOLYLINE
  5
552
100
AcDbEntity
  8
0
100
AcDbPolyline
 62
7
  6
CONTINUOUS
 90
16
 70
0
 10
7.6557335459
 20
-17.0703651113
 10
7.661474537
 20
-17.0585430057
 10
7.6668324877
 20
-17.0463418736
 10
7.6718073979
 20
-17.0337617151
 10
7.6764027424
 20
-17.0207916002
 10
7.6806150463
 20
-17.0074424588
 10
7.6844338857
 20
-16.9937470808
 10
7.6878582406
 20
-16.9797047466
 10
7.6908891309
 20
-16.9653161759
 10
7.6935191914
 20
-16.9506163179
 10
7.6957474471
 20
-16.9356044278
 10
7.6975748731
 20
-16.9202812503
 10
7.6989970295
 20
-16.9046839692
 10
7.7000124363
 20
-16.8888249789
 10
7.7006225734
 20
-16.8726918849
 10
7.700827441
 20
-16.8562846872
  0
LWPOLYLINE
  5
553
100
AcDbEntity
  8
ASSI
100
AcDbPolyline
 62
253
  6
CONTINUOUS
 90
25
 70
0
 10
-5.7117590207
 20
-30.0344102578
 10
-5.7130141182
 20
-30.0359777606
 10
-5.7142184219
 20
-30.0375521618
 10
-5.7153719316
 20
-30.0391334614
 10
-5.7164685908
 20
-30.0407138995
 10
-5.717514456
 20
-30.042301236
 10
-5.7185276972
 20
-30.043918751
 10
-5.7195133352
 20
-30.0455696903
 10
-5.7204663493
 20
-30.0472508079
 10
-5.7213898462
 20
-30.0489756459
 10
-5.7222874686
 20
-30.0507482936
 10
-5.7231555739
 20
-30.0525646617
 10
-5.7239863419
 20
-30.0544260237
 10
-5.7247811708
 20
-30.0563336956
 10
-5.7255386623
 20
-30.0582863616
 10
-5.7262468021
 20
-30.0602813472
 10
-5.7269069619
 20
-30.0623203172
 10
-5.7275177699
 20
-30.064401607
 10
-5.7280630959
 20
-30.0665175476
 10
-5.7285443193
 20
-30.0686704853
 10
-5.7289600607
 20
-30.0708580739
 10
-5.7292900518
 20
-30.0730656064
 10
-5.7295275365
 20
-30.0752881807
 10
-5.7296792709
 20
-30.077530699
 10
-5.7297452551
 20
-30.0797931612
  0
LINE
  5
554
100
AcDbEntity
  8
ASSI
100
AcDbLine
 62
253
  6
CONTINUOUS
 10
-5.2886111635
 20
-29.0833148361
 11
-5.9213997505
 21
-29.8507513922
  0
LINE
  5
555
100
AcDbEntity
  8
ASSI
100
AcDbLine
 62
253
  6
CONTINUOUS
 10
-4.9749512165
 20
-29.1408207472
 11
-5.7117590207
 21
-30.0344102578
  0
LINE
  5
556
100
AcDbEntity
  8
0
100
AcDbLine
 62
7
  6
CONTINUOUS
 10
-5.4867140282
 20
-21.6897907936
 11
-4.1877564682
 21
-20.7343607348
  0
LINE
  5
557
100
AcDbEntity
  8
RACCORDO
100
AcDbLine
 62
7
  6
CONTINUOUS
 10
-5.4867140282
 20
-21.6897907936
 11
-4.1877564682
 21
-20.7343607348
  0
LINE
  5
558
100
AcDbEntity
  8
0
100
AcDbLine
 62
7
  6
CONTINUOUS
 10
3.8117401444
 20
-15.9943838896
 11
7.700827441
 21
-13.7488736263
  0
LINE
  5
559
100
AcDbEntity
  8
0
100
AcDbLine
 62
7
  6
CONTINUOUS
 10
11.2363613469
 20
-11.7075006597
 11
15.1254486434
 21
-9.4619903964
  0
LINE
  5
55A
100
AcDbEntity
  8
0
100
AcDbLine
 62
7
  6
CONTINUOUS
 10
18.6609825494
 20
-8.0737936512
 11
22.5500698459
 21
-5.8282833879
  0
LINE
  5
55B
100
AcDbEntity
  8
0
100
AcDbLine
 62
7
  6
CONTINUOUS
 10
22.0550950991
 20
-6.2772236753
 11
21.937738987
 21
-6.3449836236
  0
LINE
  5
55C
100
AcDbEntity
  8
DRAFT
100
AcDbLine
 62
7
  6
CONTINUOUS
 10
-4.4445700991
 20
-21.0666878571
 11
-5.2984540645
 21
-21.5513188114
  0
LINE
  5
55D
100
AcDbEntity
  8
DRAFT
100
AcDbLine
 62
7
  6
CONTINUOUS
 10
-2.9933240513
 20
-20.3000238468
 11
-4.4445700991
 21
-21.0666878571
  0
LWPOLYLINE
  5
55E
100
AcDbEntity
  8
RACCORDO
100
AcDbPolyline
 62
7
  6
CONTINUOUS
 90
5
 70
0
 10
-4.8841229522
 20
14.9736313323
 10
-4.9303808294
 20
14.9691216687
 10
-4.9753753926
 20
14.9608108301
 10
-5.0186427205
 20
14.9487654496
 10
-5.0605525822
 20
14.9327424496
  0
LWPOLYLINE
  5
55F
100
AcDbEntity
  8
RACCORDO
100
AcDbPolyline
 62
253
  6
CONTINUOUS
 90
5
 70
0
 10
-8.9565399356
 20
15.6630856407
 10
-8.9118553975
 20
15.66720588
 10
-8.8629326235
 20
15.6657124261
 10
-8.8107506128
 20
15.6586351671
 10
-8.756353588
 20
15.6461157271
  0
LINE
  5
560
100
AcDbEntity
  8
ASSI
100
AcDbLine
 62
7
  6
CONTINUOUS
 10
20.3788605338
 20
14.8167504915
 11
20.2761601684
 21
14.8136208261
  0
LWPOLYLINE
  5
561
100
AcDbEntity
  8
RACCORDO
100
AcDbPolyline
 62
7
  6
CONTINUOUS
 90
5
 70
0
 10
-14.6260821708
 20
15.9738970332
 10
-14.6053485488
 20
15.9737290017
 10
-14.5834605231
 20
15.9696650206
 10
-14.5607861431
 20
15.9617782489
 10
-14.5377077513
 20
15.9502068099
  0
LWPOLYLINE
  5
562
100
AcDbEntity
  8
ASSI
100
AcDbPolyline
 62
253
  6
CONTINUOUS
 90
11
 70
0
 10
-18.4563225437
 20
15.9825397015
 10
-18.4494547339
 20
15.982082072
 10
-18.4291059577
 20
15.9829951632
 10
-18.4088940002
 20
15.987269224
 10
-18.3891608696
 20
15.9948319297
 10
-18.3702404701
 20
16.0055553077
 10
-18.3524529507
 20
16.0192579053
 10
-18.3360992903
 20
16.0357078599
 10
-18.3214562066
 20
16.0546268215
 10
-18.3087714732
 20
16.0756946612
 10
-18.2982597258
 20
16.0985548903
  0
LINE
  5
563
100
AcDbEntity
  8
RACCORDO
100
AcDbLine
 62
7
  6
CONTINUOUS
 10
-9.2365828476
 20
15.4768251019
 11
-9.1844693135
 21
15.4725546264
  0
LINE
  5
564
100
AcDbEntity
  8
ASSI
100
AcDbLine
 62
7
  6
CONTINUOUS
 10
-17.8100460302
 20
15.9194421236
 11
-18.4566253748
 21
15.9825688852
  0
LINE
  5
565
100
AcDbEntity
  8
ASSI
100
AcDbLine
 62
253
  6
CONTINUOUS
 10
-17.5614519216
 20
16.0266189539
 11
-18.2982597258
 21
16.0985548903
  0
LWPOLYLINE
  5
566
100
AcDbEntity
  8
RACCORDO
100
AcDbPolyline
 62
7
  6
CONTINUOUS
 90
10
 70
0
 10
-8.8391815164
 20
16.4363477734
 10
-8.7735348065
 20
16.4279261104
 10
-8.7095810817
 20
16.4171392712
 10
-8.647320342
 20
16.4039872559
 10
-8.5865365668
 20
16.3884113249
 10
-8.5274457767
 20
16.3704702178
 10
-8.4706960341
 20
16.3503401531
 10
-8.4165033596
 20
16.3280798702
 10
-8.3646517325
 20
16.3036306298
 10
-8.3151411529
 20
16.2769924317
  0
LWPOLYLINE
  5
567
100
AcDbEntity
  8
RACCORDO
100
AcDbPolyline
 62
7
  6
CONTINUOUS
 90
7
 70
0
 10
-8.8704955546
 20
15.5972358625
 10
-8.92687216
 20
15.6061582997
 10
-8.9785126922
 20
15.6094418532
 10
-9.0239050657
 20
15.6074027459
 10
-9.0630729123
 20
15.5995430516
 10
-9.0975992022
 20
15.5845758061
 10
-9.1019343862
 20
15.5819843977
  0
LWPOLYLINE
  5
568
100
AcDbEntity
  8
ASSI
100
AcDbPolyline
 62
7
  6
CONTINUOUS
 90
3
 70
0
 10
20.5076098999
 20
10.7188424039
 10
20.4772347847
 20
10.7255133591
 10
20.3788605338
 20
10.7343991075
  0
LINE
  5
569
100
AcDbEntity
  8
RACCORDO
100
AcDbLine
 62
7
  6
CONTINUOUS
 10
19.8119955903
 20
6.0884374282
 11
19.8086283485
 21
6.0903699552
  0
LINE
  5
56A
100
AcDbEntity
  8
ASSI
100
AcDbLine
 62
7
  6
CONTINUOUS
 10
19.8119316705
 20
6.0884738919
 11
19.8086283485
 21
6.0903699552
  0
LINE
  5
56B
100
AcDbEntity
  8
ASSI
100
AcDbLine
 62
7
  6
CONTINUOUS
 10
24.4946134942
 20
2.3161161242
 11
24.4232926263
 21
2.3572958994
  0
LINE
  5
56C
100
AcDbEntity
  8
DRAFT
100
AcDbLine
 62
7
  6
CONTINUOUS
 10
22.5500698459
 20
4.5002826157
 11
23.1905210159
 21
4.1304941368
  0
LINE
  5
56D
100
AcDbEntity
  8
ASSI
100
AcDbLine
 62
7
  6
CONTINUOUS
 10
22.5500698459
 20
4.5002826157
 11
23.1905210159
 21
4.1304941368
  0
LINE
  5
56E
100
AcDbEntity
  8
RACCORDO
100
AcDbLine
 62
253
  6
CONTINUOUS
 10
20.8944047414
 20
6.1906913239
 11
20.3166395762
 21
6.5242856892
  0
LINE
  5
56F
100
AcDbEntity
  8
ASSI
100
AcDbLine
 62
253
  6
CONTINUOUS
 10
20.8944047414
 20
6.1906913239
 11
20.3166395762
 21
6.5242856892
  0
LINE
  5
570
100
AcDbEntity
  8
ASSI
100
AcDbLine
 62
7
  6
CONTINUOUS
 10
19.8118616392
 20
6.0885170607
 11
19.7574819043
 21
6.1239742796
  0
LWPOLYLINE
  5
571
100
AcDbEntity
  8
RACCORDO
100
AcDbPolyline
 62
7
  6
CONTINUOUS
 90
34
 70
0
 10
19.8119255458
 20
6.088480614
 10
19.7559255461
 20
6.1251339863
 10
19.698945164
 20
6.1741284596
 10
19.6475785157
 20
6.2314763962
 10
19.6011086789
 20
6.2980853398
 10
19.5597813709
 20
6.3741736661
 10
19.524328904
 20
6.459002231
 10
19.4951819038
 20
6.5520728538
 10
19.4726874667
 20
6.6526415552
 10
19.4571017744
 20
6.7599139663
 10
19.4485849907
 20
6.8733346658
 10
19.4472258405
 20
6.9918377434
 10
19.4530248274
 20
7.1148270034
 10
19.4661144118
 20
7.2427569685
 10
19.4866735702
 20
7.3754184689
 10
19.5146987882
 20
7.5115875975
 10
19.5501488983
 20
7.6503780215
 10
19.5929250496
 20
7.7910226205
 10
19.6428630738
 20
7.9327091121
 10
19.6997179141
 20
8.0745123947
 10
19.7632025512
 20
8.2156106552
 10
19.8330015373
 20
8.3552463627
 10
19.9087541196
 20
8.4926229628
 10
19.9900582859
 20
8.6269839096
 10
20.0764632726
 20
8.7575953327
 10
20.1674851703
 20
8.8837203731
 10
20.2626546467
 20
9.0047259963
 10
20.3613719942
 20
9.1199084674
 10
20.4628884176
 20
9.2284682364
 10
20.5666267809
 20
9.3298924824
 10
20.671930501
 20
9.4236799682
 10
20.7778479691
 20
9.5091556826
 10
20.8835846236
 20
9.5859184289
 10
20.988521851
 20
9.6538217412
  0
LWPOLYLINE
  5
572
100
AcDbEntity
  8
ASSI
100
AcDbPolyline
 62
7
  6
CONTINUOUS
 90
33
 70
0
 10
19.7574819043
 20
2.0416228956
 10
19.7003556789
 20
2.0903960754
 10
19.6488419225
 20
2.1475317505
 10
19.6022129939
 20
2.2139476007
 10
19.5607140517
 20
2.2898758015
 10
19.5250831251
 20
2.374582643
 10
19.4957580154
 20
2.4675703796
 10
19.4730905485
 20
2.5681014071
 10
19.4573421811
 20
2.6753773076
 10
19.4486782642
 20
2.7888206939
 10
19.4471877249
 20
2.9073504978
 10
19.4528682774
 20
3.0303758761
 10
19.4658517928
 20
3.158360717
 10
19.4863187683
 20
3.2910977702
 10
19.5142660208
 20
3.4273575652
 10
19.549653793
 20
3.5662555063
 10
19.592384875
 20
3.7070243824
 10
19.6422947648
 20
3.8488477341
 10
19.6991379712
 20
3.9907968196
 10
19.7626273985
 20
4.1320471822
 10
19.8324469756
 20
4.2718390513
 10
19.9082349254
 20
4.4093730199
 10
19.9895883893
 20
4.5438899285
 10
20.0760554698
 20
4.6746537323
 10
20.1671509503
 20
4.8009253446
 10
20.2624042432
 20
4.9220695688
 10
20.3612139762
 20
5.0373805245
 10
20.462829346
 20
5.146056431
 10
20.5666716277
 20
5.2475829672
 10
20.6720821369
 20
5.3414572199
 10
20.7781061621
 20
5.4270020632
 10
20.8839465197
 20
5.5038153357
 10
20.9888265363
 20
5.5716494567
  0
LWPOLYLINE
  5
573
100
AcDbEntity
  8
0
100
AcDbPolyline
 62
7
  6
CONTINUOUS
 90
8
 70
0
 10
22.0550950991
 20
-6.5215071804
 10
22.0484290593
 20
-6.5099612941
 10
22.013256374
 20
-6.4534813807
 10
21.9763879247
 20
-6.3985413235
 10
21.9377965436
 20
-6.3450578587
 10
21.8977994387
 20
-6.2934706023
 10
21.8563323221
 20
-6.2437360701
 10
21.847534026
 20
-6.2339187655
  0
LWPOLYLINE
  5
574
100
AcDbEntity
  8
0
100
AcDbPolyline
 62
7
  6
CONTINUOUS
 90
10
 70
0
 10
18.7670485665
 20
-9.378216153
 10
18.765634897
 20
-9.3227078391
 10
18.7615328503
 20
-9.266210808
 10
18.7547424265
 20
-9.2087250597
 10
18.7452271512
 20
-9.1500671968
 10
18.7330234987
 20
-9.0904206168
 10
18.7182408922
 20
-9.0303355113
 10
18.7008392523
 20
-8.9697634917
 10
18.6808586585
 20
-8.9087529467
 10
18.6609825494
 20
-8.8546753142
  0
LWPOLYLINE
  5
575
100
AcDbEntity
  8
ASSI
100
AcDbPolyline
 62
7
  6
CONTINUOUS
 90
28
 70
0
 10
18.1306524635
 20
16.4455208274
 10
18.1304385773
 20
16.4625282639
 10
18.1298017653
 20
16.4797371685
 10
18.1287420276
 20
16.4971475413
 10
18.1272577526
 20
16.5147744454
 10
18.1253505518
 20
16.5326028177
 10
18.1230252595
 20
16.5505874681
 10
18.1202808149
 20
16.5687287931
 10
18.1171182787
 20
16.5870263962
 10
18.1135456672
 20
16.6054338979
 10
18.1095619399
 20
16.6239515772
 10
18.1051681372
 20
16.6425791552
 10
18.1003753961
 20
16.6612694162
 10
18.0951827047
 20
16.6800225191
 10
18.089591075
 20
16.6988383049
 10
18.0836146801
 20
16.7176690809
 10
18.077252544
 20
16.736514885
 10
18.0705056429
 20
16.7553756792
 10
18.0633910782
 20
16.7742036565
 10
18.0559079172
 20
16.7929987339
 10
18.0480570926
 20
16.8117609944
 10
18.0398585042
 20
16.8304428809
 10
18.0313112697
 20
16.8490441896
 10
18.0224162713
 20
16.8675651242
 10
18.0131960553
 20
16.8859587395
 10
18.0036581373
 20
16.9042093868
 10
17.9937950018
 20
16.9223327147
 10
17.9836066488
 20
16.9403287231
  0
LINE
  5
576
100
AcDbEntity
  8
ASSI
100
AcDbLine
 62
7
  6
CONTINUOUS
 10
18.1306524635
 20
16.4455208274
 11
18.1306524635
 21
-0.9501200774
  0
LINE
  5
577
100
AcDbEntity
  8
RACCORDO
100
AcDbLine
 62
7
  6
CONTINUOUS
 10
18.1464427778
 20
-0.7959352606
 11
18.1464427778
 21
16.3937283472
  0
LINE
  5
578
100
AcDbEntity
  8
ASSI
100
AcDbLine
 62
7
  6
CONTINUOUS
 10
18.1464427778
 20
-0.7959352606
 11
18.1464427778
 21
16.3937283472
  0
LINE
  5
579
100
AcDbEntity
  8
0
100
AcDbLine
 62
7
  6
CONTINUOUS
 10
18.6609825494
 20
-10.5280284906
 11
18.6609825494
 21
-8.0737936512
  0
LINE
  5
57A
100
AcDbEntity
  8
ASSI
100
AcDbLine
 62
7
  6
CONTINUOUS
 10
18.7670485665
 20
-9.378216153
 11
18.7670485665
 21
-10.5435787563
  0
LWPOLYLINE
  5
57B
100
AcDbEntity
  8
0
100
AcDbPolyline
 62
7
  6
CONTINUOUS
 90
18
 70
0
 10
18.7670485665
 20
-10.5435787563
 10
18.7659032937
 20
-10.5975270009
 10
18.7625437442
 20
-10.6498183604
 10
18.7569699179
 20
-10.7004528348
 10
18.7491617358
 20
-10.7495288529
 10
18.739139277
 20
-10.7969479859
 10
18.7269627784
 20
-10.8424149475
 10
18.7126098679
 20
-10.8859369067
 10
18.6961029176
 20
-10.9275066946
 10
18.6775692803
 20
-10.9668075179
 10
18.6570089138
 20
-11.003799867
 10
18.6344218604
 20
-11.0385232516
 10
18.6099355997
 20
-11.0707794075
 10
18.5835171001
 20
-11.1005748781
 10
18.5551993932
 20
-11.12790312
 10
18.5252090539
 20
-11.1525462389
 10
18.4935604172
 20
-11.1744669266
 10
18.4771312541
 20
-11.1844074209
  0
LWPOLYLINE
  5
57C
100
AcDbEntity
  8
0
100
AcDbPolyline
 62
7
  6
CONTINUOUS
 90
15
 70
0
 10
14.8657378707
 20
-12.959443294
 10
14.8600744393
 20
-12.9950391162
 10
14.8500519805
 20
-13.0424582492
 10
14.8378754819
 20
-13.0879252108
 10
14.8235225714
 20
-13.13144717
 10
14.8070156211
 20
-13.1730169579
 10
14.7884819838
 20
-13.2123177812
 10
14.7679216173
 20
-13.2493101303
 10
14.7453345639
 20
-13.2840335149
 10
14.7208483032
 20
-13.3162896708
 10
14.6944298036
 20
-13.3460851414
 10
14.6661120967
 20
-13.3734133833
 10
14.6361217574
 20
-13.3980565022
 10
14.6044731207
 20
-13.4199771899
 10
14.5880439576
 20
-13.4299176842
  0
LWPOLYLINE
  5
57D
100
AcDbEntity
  8
0
100
AcDbPolyline
 62
7
  6
CONTINUOUS
 90
16
 70
0
 10
11.1912674518
 20
-15.0289921447
 10
11.197008443
 20
-15.0171700391
 10
11.2023663937
 20
-15.004968907
 10
11.2073413039
 20
-14.9923887485
 10
11.2119366483
 20
-14.9794186335
 10
11.2161489523
 20
-14.9660694921
 10
11.2199677916
 20
-14.9523741142
 10
11.2233921465
 20
-14.93833178
 10
11.2264230368
 20
-14.9239432093
 10
11.2290530973
 20
-14.9092433513
 10
11.2312813531
 20
-14.8942314611
 10
11.2331087791
 20
-14.8789082837
 10
11.2345309354
 20
-14.8633110026
 10
11.2355463422
 20
-14.8474520123
 10
11.2361564794
 20
-14.8313189183
 10
11.2363613469
 20
-14.8149117206
  0
LWPOLYLINE
  5
57E
100
AcDbEntity
  8
0
100
AcDbPolyline
 62
7
  6
CONTINUOUS
 90
16
 70
0
 10
15.0803547484
 20
-12.7834818814
 10
15.0860957395
 20
-12.7716597758
 10
15.0914536902
 20
-12.7594586437
 10
15.0964286004
 20
-12.7468784852
 10
15.1010239448
 20
-12.7339083702
 10
15.1052362488
 20
-12.7205592288
 10
15.1090550881
 20
-12.7068638509
 10
15.112479443
 20
-12.6928215167
 10
15.1155103333
 20
-12.678432946
 10
15.1181403938
 20
-12.663733088
 10
15.1203686496
 20
-12.6487211978
 10
15.1221960756
 20
-12.6333980204
 10
15.123618232
 20
-12.6178007393
 10
15.1246336387
 20
-12.601941749
 10
15.1252437759
 20
-12.585808655
 10
15.1254486434
 20
-12.5694014573
  0
LINE
  5
57F
100
AcDbEntity
  8
RACCORDO
100
AcDbLine
 62
253
  6
CONTINUOUS
 10
-2.9764849549
 20
-23.9322528067
 11
1.8868643499
 21
-20.9831231636
  0
LWPOLYLINE
  5
580
100
AcDbEntity
  8
0
100
AcDbPolyline
 62
7
  6
CONTINUOUS
 90
16
 70
0
 10
3.6647115149
 20
-19.4267880988
 10
3.6730838173
 20
-19.4217193564
 10
3.6812555005
 20
-19.4163001852
 10
3.6892093793
 20
-19.4105405117
 10
3.6969492275
 20
-19.4044369868
 10
3.7044712713
 20
-19.3979929596
 10
3.7117641897
 20
-19.391218478
 10
3.7188281228
 20
-19.384112664
 10
3.7256629305
 20
-19.3766763957
 10
3.7322568707
 20
-19.3689223548
 10
3.7386094575
 20
-19.3608501346
 10
3.7447211767
 20
-19.352460142
 10
3.750581744
 20
-19.3437662794
 10
3.7561877311
 20
-19.3347731811
 10
3.7615425662
 20
-19.3254762128
 10
3.7666462494
 20
-19.3158753746
  0
LWPOLYLINE
  5
581
100
AcDbEntity
  8
0
100
AcDbPolyline
 62
7
  6
CONTINUOUS
 90
16
 70
0
 10
7.5537988114
 20
-17.1812778355
 10
7.5621711139
 20
-17.1762090931
 10
7.570342797
 20
-17.1707899219
 10
7.5782966759
 20
-17.1650302484
 10
7.586036524
 20
-17.1589267235
 10
7.5935585678
 20
-17.1524826963
 10
7.6008514862
 20
-17.1457082147
 10
7.6079154194
 20
-17.1386024007
 10
7.6147502271
 20
-17.1311661324
 10
7.6213441672
 20
-17.1234120915
 10
7.627696754
 20
-17.1153398713
 10
7.6338084732
 20
-17.1069498787
 10
7.6396690405
 20
-17.0982560161
 10
7.6452750276
 20
-17.0892629178
 10
7.6506298627
 20
-17.0799659495
 10
7.6557335459
 20
-17.0703651113
  0
LWPOLYLINE
  5
582
100
AcDbEntity
  8
0
100
AcDbPolyline
 62
7
  6
CONTINUOUS
 90
16
 70
0
 10
11.0893327173
 20
-15.1399048688
 10
11.0977050198
 20
-15.1348361264
 10
11.105876703
 20
-15.1294169552
 10
11.1138305818
 20
-15.1236572818
 10
11.12157043
 20
-15.1175537568
 10
11.1290924738
 20
-15.1111097296
 10
11.1363853921
 20
-15.1043352481
 10
11.1434493253
 20
-15.0972294341
 10
11.150284133
 20
-15.0897931657
 10
11.1568780732
 20
-15.0820391249
 10
11.1632306599
 20
-15.0739669047
 10
11.1693423792
 20
-15.065576912
 10
11.1752029464
 20
-15.0568830495
 10
11.1808089335
 20
-15.0478899511
 10
11.1861637687
 20
-15.0385929829
 10
11.1912674518
 20
-15.0289921447
  0
LWPOLYLINE
  5
583
100
AcDbEntity
  8
0
100
AcDbPolyline
 62
7
  6
CONTINUOUS
 90
16
 70
0
 10
14.9784200138
 20
-12.8943946055
 10
14.9867923163
 20
-12.8893258631
 10
14.9949639995
 20
-12.8839066919
 10
15.0029178783
 20
-12.8781470185
 10
15.0106577265
 20
-12.8720434935
 10
15.0181797703
 20
-12.8655994663
 10
15.0254726886
 20
-12.8588249848
 10
15.0325366218
 20
-12.8517191708
 10
15.0393714295
 20
-12.8442829024
 10
15.0459653697
 20
-12.8365288616
 10
15.0523179564
 20
-12.8284566414
 10
15.0584296757
 20
-12.8200666487
 10
15.0642902429
 20
-12.8113727862
 10
15.0698962301
 20
-12.8023796878
 10
15.0752510652
 20
-12.7930827196
 10
15.0803547484
 20
-12.7834818814
  0
LWPOLYLINE
  5
584
100
AcDbEntity
  8
0
100
AcDbPolyline
 62
7
  6
CONTINUOUS
 90
16
 70
0
 10
18.5139539198
 20
-10.8530216389
 10
18.5223262223
 20
-10.8479528965
 10
18.5304979054
 20
-10.8425337253
 10
18.5384517843
 20
-10.8367740519
 10
18.5461916324
 20
-10.8306705269
 10
18.5537136762
 20
-10.8242264997
 10
18.5610065946
 20
-10.8174520181
 10
18.5680705277
 20
-10.8103462041
 10
18.5749053354
 20
-10.8029099358
 10
18.5814992756
 20
-10.7951558949
 10
18.5878518624
 20
-10.7870836748
 10
18.5939635816
 20
-10.7786936821
 10
18.5998241489
 20
-10.7699998195
 10
18.605430136
 20
-10.7610067212
 10
18.6107849711
 20
-10.7517097529
 10
18.6158886543
 20
-10.7421089147
  0
LWPOLYLINE
  5
585
100
AcDbEntity
  8
0
100
AcDbPolyline
 62
7
  6
CONTINUOUS
 90
16
 70
0
 10
22.4030412163
 20
-8.6075113756
 10
22.4114135188
 20
-8.6024426332
 10
22.419585202
 20
-8.597023462
 10
22.4275390808
 20
-8.5912637886
 10
22.435278929
 20
-8.5851602636
 10
22.4428009728
 20
-8.5787162364
 10
22.4500938911
 20
-8.5719417548
 10
22.4571578243
 20
-8.5648359408
 10
22.463992632
 20
-8.5573996725
 10
22.4705865721
 20
-8.5496456316
 10
22.4769391589
 20
-8.5415734115
 10
22.4830508781
 20
-8.5331834188
 10
22.4889114454
 20
-8.5244895562
 10
22.4945174325
 20
-8.5154964579
 10
22.4998722677
 20
-8.5061994896
 10
22.5049759508
 20
-8.4965986514
  0
LINE
  5
586
100
AcDbEntity
  8
0
100
AcDbLine
 62
253
  6
CONTINUOUS
 10
22.3025824725
 20
-7.3368431864
 11
18.7670485665
 21
-9.378216153
  0
LINE
  5
587
100
AcDbEntity
  8
0
100
AcDbLine
 62
253
  6
CONTINUOUS
 10
24.4946134942
 20
-7.1597630957
 11
22.5500698459
 21
-8.2825182273
  0
LINE
  5
588
100
AcDbEntity
  8
0
100
AcDbLine
 62
253
  6
CONTINUOUS
 10
18.6609825494
 20
-10.5280284906
 11
15.1254486434
 21
-12.5694014573
  0
LINE
  5
589
100
AcDbEntity
  8
0
100
AcDbLine
 62
253
  6
CONTINUOUS
 10
11.2363613469
 20
-14.8149117206
 11
7.700827441
 21
-16.8562846872
  0
LINE
  5
58A
100
AcDbEntity
  8
0
100
AcDbLine
 62
253
  6
CONTINUOUS
 10
3.8117401444
 20
-19.1017949505
 11
1.8868643499
 21
-20.2131941099
  0
LINE
  5
58B
100
AcDbEntity
  8
0
100
AcDbLine
 62
253
  6
CONTINUOUS
 10
3.9178061616
 20
-19.1173452162
 11
6.713126171
 21
-17.5033624763
  0
LINE
  5
58C
100
AcDbEntity
  8
0
100
AcDbLine
 62
253
  6
CONTINUOUS
 10
11.3424273641
 20
-14.8304619862
 11
14.1377473735
 21
-13.2164792464
  0
LINE
  5
58D
100
AcDbEntity
  8
0
100
AcDbLine
 62
253
  6
CONTINUOUS
 10
18.7670485665
 20
-10.5435787563
 11
21.5623685759
 21
-8.9295960165
  0
LINE
  5
58E
100
AcDbEntity
  8
ASSI
100
AcDbLine
 62
7
  6
CONTINUOUS
 10
24.3475848332
 20
-7.4847562671
 11
22.4030411849
 21
-8.6075113987
  0
LINE
  5
58F
100
AcDbEntity
  8
ASSI
100
AcDbLine
 62
7
  6
CONTINUOUS
 10
18.5139538884
 20
-10.853021662
 11
14.9784199825
 21
-12.8943946287
  0
LINE
  5
590
100
AcDbEntity
  8
ASSI
100
AcDbLine
 62
7
  6
CONTINUOUS
 10
11.089332686
 20
-15.139904892
 11
7.55379878
 21
-17.1812778586
  0
LINE
  5
591
100
AcDbEntity
  8
ASSI
100
AcDbLine
 62
7
  6
CONTINUOUS
 10
3.6647114835
 20
-19.4267881219
 11
1.8868643499
 21
-20.4532947752
  0
LINE
  5
592
100
AcDbEntity
  8
0
100
AcDbLine
 62
7
  6
CONTINUOUS
 10
3.6646943298
 20
-19.4267980253
 11
1.8868643499
 21
-20.4532947742
  0
LINE
  5
593
100
AcDbEntity
  8
0
100
AcDbLine
 62
7
  6
CONTINUOUS
 10
3.6278904922
 20
-19.7581768218
 11
7.1634243981
 21
-17.7168038551
  0
LINE
  5
594
100
AcDbEntity
  8
0
100
AcDbLine
 62
7
  6
CONTINUOUS
 10
11.0525116946
 20
-15.4712935918
 11
14.5880456006
 21
-13.4299206252
  0
LINE
  5
595
100
AcDbEntity
  8
0
100
AcDbLine
 62
7
  6
CONTINUOUS
 10
18.4771328971
 20
-11.1844103619
 11
22.012666803
 21
-9.1430373953
  0
LINE
  5
596
100
AcDbEntity
  8
0
100
AcDbLine
 62
7
  6
CONTINUOUS
 10
24.3475676795
 20
-7.4847661705
 11
22.2903590731
 21
-8.672560064
  0
LINE
  5
597
100
AcDbEntity
  8
0
100
AcDbLine
 62
7
  6
CONTINUOUS
 10
18.5139367347
 20
-10.8530315654
 11
14.8657378707
 21
-12.959443294
  0
LINE
  5
598
100
AcDbEntity
  8
0
100
AcDbLine
 62
7
  6
CONTINUOUS
 10
11.0893155323
 20
-15.1399147954
 11
7.4411166682
 21
-17.2463265239
  0
LINE
  5
599
100
AcDbEntity
  8
RACCORDO
100
AcDbLine
 62
7
  6
CONTINUOUS
 10
25.3574310118
 20
-6.9167929617
 11
24.9176784843
 21
-7.1706514853
  0
LINE
  5
59A
100
AcDbEntity
  8
ASSI
100
AcDbLine
 62
7
  6
CONTINUOUS
 10
25.3574310118
 20
-6.9167929617
 11
24.9176784843
 21
-7.1706514853
  0
LINE
  5
59B
100
AcDbEntity
  8
RACCORDO
100
AcDbLine
 62
7
  6
CONTINUOUS
 10
24.9176784843
 20
-7.1706514853
 11
24.9145744752
 21
-7.1724200572
  0
LINE
  5
59C
100
AcDbEntity
  8
ASSI
100
AcDbLine
 62
7
  6
CONTINUOUS
 10
24.9176784843
 20
-7.1706514853
 11
24.9145744752
 21
-7.1724200572
  0
LINE
  5
59D
100
AcDbEntity
  8
RACCORDO
100
AcDbLine
 62
253
  6
CONTINUOUS
 10
25.564529907
 20
-6.4590595819
 11
24.4946134942
 21
-7.0616999851
  0
LINE
  5
59E
100
AcDbEntity
  8
ASSI
100
AcDbLine
 62
253
  6
CONTINUOUS
 10
25.564529907
 20
-6.4590595819
 11
24.4946134942
 21
-7.0616999851
  0
LINE
  5
59F
100
AcDbEntity
  8
RACCORDO
100
AcDbLine
 62
253
  6
CONTINUOUS
 10
25.3574310118
 20
-6.9167929617
 11
24.347944862
 21
-7.4853954554
  0
LINE
  5
5A0
100
AcDbEntity
  8
ASSI
100
AcDbLine
 62
253
  6
CONTINUOUS
 10
25.3574310118
 20
-6.9167929617
 11
24.347944862
 21
-7.4853954554
  0
LINE
  5
5A1
100
AcDbEntity
  8
RACCORDO
100
AcDbLine
 62
253
  6
CONTINUOUS
 10
24.9145965675
 20
-7.1724088005
 11
24.9176784843
 21
-7.1706514853
  0
LINE
  5
5A2
100
AcDbEntity
  8
ASSI
100
AcDbLine
 62
253
  6
CONTINUOUS
 10
24.9145965675
 20
-7.1724088005
 11
24.9176784843
 21
-7.1706514853
  0
LINE
  5
5A3
100
AcDbEntity
  8
RACCORDO
100
AcDbLine
 62
7
  6
CONTINUOUS
 10
24.3505721425
 20
-7.4900605521
 11
24.9145965675
 21
-7.1724088005
  0
LINE
  5
5A4
100
AcDbEntity
  8
ASSI
100
AcDbLine
 62
7
  6
CONTINUOUS
 10
24.2901400694
 20
-7.5240951666
 11
24.9145965675
 21
-7.1724088005
  0
LWPOLYLINE
  5
5A5
100
AcDbEntity
  8
0
100
AcDbPolyline
 62
7
  6
CONTINUOUS
 90
15
 70
0
 10
18.4771312541
 20
-11.1844074209
 10
18.4602391481
 20
-11.1937024913
 10
18.4254288164
 20
-11.2101469625
 10
18.389089943
 20
-11.2237940977
 10
18.3512620069
 20
-11.2346501395
 10
18.3122470146
 20
-11.2426278449
 10
18.2720671506
 20
-11.2477018825
 10
18.2307002305
 20
-11.2498975838
 10
18.1883817075
 20
-11.2492037004
 10
18.1450773853
 20
-11.245600439
 10
18.1008214603
 20
-11.2391075929
 10
18.0559519749
 20
-11.2297732939
 10
18.0104863248
 20
-11.217581754
 10
17.9644071143
 20
-11.2025487611
 10
17.9307916638
 20
-11.1896703483
  0
LWPOLYLINE
  5
5A6
100
AcDbEntity
  8
0
100
AcDbPolyline
 62
7
  6
CONTINUOUS
 90
15
 70
0
 10
11.0525100516
 20
-15.4712906508
 10
11.0356179457
 20
-15.4805857212
 10
11.0008076139
 20
-15.4970301924
 10
10.9644687405
 20
-15.5106773276
 10
10.9266408044
 20
-15.5215333694
 10
10.8876258122
 20
-15.5295110749
 10
10.8474459482
 20
-15.5345851125
 10
10.806079028
 20
-15.5367808137
 10
10.763760505
 20
-15.5360869303
 10
10.7204561829
 20
-15.5324836689
 10
10.6762002579
 20
-15.5259908229
 10
10.6313307724
 20
-15.5166565239
 10
10.5858651224
 20
-15.5044649839
 10
10.5397859119
 20
-15.489431991
 10
10.5061704613
 20
-15.4765535783
  0
LWPOLYLINE
  5
5A7
100
AcDbEntity
  8
0
100
AcDbPolyline
 62
7
  6
CONTINUOUS
 90
15
 70
0
 10
3.6278888492
 20
-19.7581738808
 10
3.6109967432
 20
-19.7674689511
 10
3.5761864115
 20
-19.7839134223
 10
3.5398475381
 20
-19.7975605576
 10
3.502019602
 20
-19.8084165994
 10
3.4630046097
 20
-19.8163943048
 10
3.4228247457
 20
-19.8214683424
 10
3.3814578256
 20
-19.8236640437
 10
3.3391393026
 20
-19.8229701603
 10
3.2958349804
 20
-19.8193668989
 10
3.2515790554
 20
-19.8128740528
 10
3.20670957
 20
-19.8035397538
 10
3.1612439199
 20
-19.7913482139
 10
3.1151647094
 20
-19.7763152209
 10
3.0815492588
 20
-19.7634368082
  0
LINE
  5
5A8
100
AcDbEntity
  8
ASSI
100
AcDbLine
 62
7
  6
CONTINUOUS
 10
-5.9463334359
 20
17.3589911229
 11
-7.7059256942
 21
17.0906754821
  0
LWPOLYLINE
  5
5A9
100
AcDbEntity
  8
RACCORDO
100
AcDbPolyline
 62
7
  6
CONTINUOUS
 90
5
 70
0
 10
-10.4349486839
 20
18.1797643179
 10
-10.481194477
 20
18.1754141534
 10
-10.5262282863
 20
18.1672600779
 10
-10.5695926368
 20
18.1553591314
 10
-10.6116502421
 20
18.1394618316
  0
LWPOLYLINE
  5
5AA
100
AcDbEntity
  8
ASSI
100
AcDbPolyline
 62
7
  6
CONTINUOUS
 90
3
 70
0
 10
20.5076098999
 20
14.8011937879
 10
20.4772347847
 20
14.807864743
 10
20.3788605338
 20
14.8167504915
  0
LINE
  5
5AB
100
AcDbEntity
  8
RACCORDO
100
AcDbLine
 62
7
  6
CONTINUOUS
 10
19.8119955903
 20
10.1707888122
 11
19.8086283485
 21
10.1727213392
  0
LINE
  5
5AC
100
AcDbEntity
  8
ASSI
100
AcDbLine
 62
7
  6
CONTINUOUS
 10
19.8119316705
 20
10.1708252759
 11
19.8086283485
 21
10.1727213392
  0
LINE
  5
5AD
100
AcDbEntity
  8
RACCORDO
100
AcDbLine
 62
7
  6
CONTINUOUS
 10
25.352389795
 20
4.6377876583
 11
24.7067455285
 21
5.0105745659
  0
LINE
  5
5AE
100
AcDbEntity
  8
ASSI
100
AcDbLine
 62
7
  6
CONTINUOUS
 10
25.352389795
 20
4.6377876583
 11
24.7067455285
 21
5.0105745659
  0
LWPOLYLINE
  5
5AF
100
AcDbEntity
  8
ASSI
100
AcDbPolyline
 62
7
  6
CONTINUOUS
 90
33
 70
0
 10
19.7574819043
 20
6.1239742796
 10
19.7003556789
 20
6.1727474594
 10
19.6488419225
 20
6.2298831345
 10
19.6022129939
 20
6.2962989847
 10
19.5607140517
 20
6.3722271854
 10
19.5250831251
 20
6.4569340269
 10
19.4957580154
 20
6.5499217636
 10
19.4730905485
 20
6.650452791
 10
19.4573421811
 20
6.7577286916
 10
19.4486782642
 20
6.8711720778
 10
19.4471877249
 20
6.9897018818
 10
19.4528682774
 20
7.11272726
 10
19.4658517928
 20
7.240712101
 10
19.4863187683
 20
7.3734491542
 10
19.5142660208
 20
7.5097089492
 10
19.549653793
 20
7.6486068902
 10
19.592384875
 20
7.7893757664
 10
19.6422947648
 20
7.9311991181
 10
19.6991379712
 20
8.0731482036
 10
19.7626273985
 20
8.2143985661
 10
19.8324469756
 20
8.3541904352
 10
19.9082349254
 20
8.4917244038
 10
19.9895883893
 20
8.6262413124
 10
20.0760554698
 20
8.7570051162
 10
20.1671509503
 20
8.8832767285
 10
20.2624042432
 20
9.0044209528
 10
20.3612139762
 20
9.1197319085
 10
20.462829346
 20
9.228407815
 10
20.5666716277
 20
9.3299343511
 10
20.6720821369
 20
9.4238086039
 10
20.7781061621
 20
9.5093534472
 10
20.8839465197
 20
9.5861667196
 10
20.9888265363
 20
9.6540008407
  0
LWPOLYLINE
  5
5B0
100
AcDbEntity
  8
RACCORDO
100
AcDbPolyline
 62
253
  6
CONTINUOUS
 90
13
 70
0
 10
21.1046775207
 20
1.7398522958
 10
21.1028784781
 20
1.772881707
 10
21.0975121887
 20
1.8074597362
 10
21.0886705564
 20
1.8429946813
 10
21.0765049554
 20
1.8788784696
 10
21.0612236172
 20
1.9144971222
 10
21.0430880479
 20
1.9492412576
 10
21.0224086063
 20
1.982516406
 10
20.9995391554
 20
2.0137532701
 10
20.9748709578
 20
2.0424175031
 10
20.9488260726
 20
2.0680187169
 10
20.9218501505
 20
2.0901188916
 10
20.8944047434
 20
2.1083399411
  0
LWPOLYLINE
  5
5B1
100
AcDbEntity
  8
ASSI
100
AcDbPolyline
 62
253
  6
CONTINUOUS
 90
13
 70
0
 10
21.1046775207
 20
1.7398522958
 10
21.1028784781
 20
1.772881707
 10
21.0975121887
 20
1.8074597362
 10
21.0886705564
 20
1.8429946813
 10
21.0765049554
 20
1.8788784696
 10
21.0612236172
 20
1.9144971222
 10
21.0430880479
 20
1.9492412576
 10
21.0224086063
 20
1.982516406
 10
20.9995391554
 20
2.0137532701
 10
20.9748709578
 20
2.0424175031
 10
20.9488260726
 20
2.0680187169
 10
20.9218501505
 20
2.0901188916
 10
20.8944047434
 20
2.1083399411
  0
LWPOLYLINE
  5
5B2
100
AcDbEntity
  8
RACCORDO
100
AcDbPolyline
 62
253
  6
CONTINUOUS
 90
13
 70
0
 10
21.1046775207
 20
5.8222036798
 10
21.1028784781
 20
5.855233091
 10
21.0975121887
 20
5.8898111201
 10
21.0886705564
 20
5.9253460653
 10
21.0765049554
 20
5.9612298536
 10
21.0612236172
 20
5.9968485062
 10
21.0430880479
 20
6.0315926416
 10
21.0224086063
 20
6.0648677899
 10
20.9995391554
 20
6.096104654
 10
20.9748709578
 20
6.124768887
 10
20.9488260726
 20
6.1503701008
 10
20.9218501505
 20
6.1724702755
 10
20.8944047434
 20
6.190691325
  0
LWPOLYLINE
  5
5B3
100
AcDbEntity
  8
ASSI
100
AcDbPolyline
 62
253
  6
CONTINUOUS
 90
13
 70
0
 10
21.1046775207
 20
5.8222036798
 10
21.1028784781
 20
5.855233091
 10
21.0975121887
 20
5.8898111201
 10
21.0886705564
 20
5.9253460653
 10
21.0765049554
 20
5.9612298536
 10
21.0612236172
 20
5.9968485062
 10
21.0430880479
 20
6.0315926416
 10
21.0224086063
 20
6.0648677899
 10
20.9995391554
 20
6.096104654
 10
20.9748709578
 20
6.124768887
 10
20.9488260726
 20
6.1503701008
 10
20.9218501505
 20
6.1724702755
 10
20.8944047434
 20
6.190691325
  0
LWPOLYLINE
  5
5B4
100
AcDbEntity
  8
RACCORDO
100
AcDbPolyline
 62
253
  6
CONTINUOUS
 90
13
 70
0
 10
21.1046775207
 20
9.9045550638
 10
21.1028784781
 20
9.9375844749
 10
21.0975121887
 20
9.9721625041
 10
21.0886705564
 20
10.0076974493
 10
21.0765049554
 20
10.0435812375
 10
21.0612236172
 20
10.0791998902
 10
21.0430880479
 20
10.1139440255
 10
21.0224086063
 20
10.1472191739
 10
20.9995391554
 20
10.178456038
 10
20.9748709578
 20
10.207120271
 10
20.9488260726
 20
10.2327214848
 10
20.9218501505
 20
10.2548216595
 10
20.8944047434
 20
10.273042709
  0
LWPOLYLINE
  5
5B5
100
AcDbEntity
  8
ASSI
100
AcDbPolyline
 62
253
  6
CONTINUOUS
 90
13
 70
0
 10
21.1046775207
 20
9.9045550638
 10
21.1028784781
 20
9.9375844749
 10
21.0975121887
 20
9.9721625041
 10
21.0886705564
 20
10.0076974493
 10
21.0765049554
 20
10.0435812375
 10
21.0612236172
 20
10.0791998902
 10
21.0430880479
 20
10.1139440255
 10
21.0224086063
 20
10.1472191739
 10
20.9995391554
 20
10.178456038
 10
20.9748709578
 20
10.207120271
 10
20.9488260726
 20
10.2327214848
 10
20.9218501505
 20
10.2548216595
 10
20.8944047434
 20
10.273042709
  0
LWPOLYLINE
  5
5B6
100
AcDbEntity
  8
RACCORDO
100
AcDbPolyline
 62
253
  6
CONTINUOUS
 90
13
 70
0
 10
21.1046775207
 20
13.9869064477
 10
21.1028784781
 20
14.0199358589
 10
21.0975121887
 20
14.0545138881
 10
21.0886705564
 20
14.0900488332
 10
21.0765049554
 20
14.1259326215
 10
21.0612236172
 20
14.1615512741
 10
21.0430880479
 20
14.1962954095
 10
21.0224086063
 20
14.2295705579
 10
20.9995391554
 20
14.260807422
 10
20.9748709578
 20
14.289471655
 10
20.9488260726
 20
14.3150728688
 10
20.9218501505
 20
14.3371730435
 10
20.8944047434
 20
14.355394093
  0
LWPOLYLINE
  5
5B7
100
AcDbEntity
  8
ASSI
100
AcDbPolyline
 62
253
  6
CONTINUOUS
 90
13
 70
0
 10
21.1046775207
 20
13.9869064477
 10
21.1028784781
 20
14.0199358589
 10
21.0975121887
 20
14.0545138881
 10
21.0886705564
 20
14.0900488332
 10
21.0765049554
 20
14.1259326215
 10
21.0612236172
 20
14.1615512741
 10
21.0430880479
 20
14.1962954095
 10
21.0224086063
 20
14.2295705579
 10
20.9995391554
 20
14.260807422
 10
20.9748709578
 20
14.289471655
 10
20.9488260726
 20
14.3150728688
 10
20.9218501505
 20
14.3371730435
 10
20.8944047434
 20
14.355394093
  0
LINE
  5
5B8
100
AcDbEntity
  8
RACCORDO
100
AcDbLine
 62
7
  6
CONTINUOUS
 10
20.6147824387
 20
25.7136776525
 11
20.6147824387
 21
25.0604827778
  0
LINE
  5
5B9
100
AcDbEntity
  8
ASSI
100
AcDbLine
 62
7
  6
CONTINUOUS
 10
20.6147824387
 20
25.7136776525
 11
20.6147824387
 21
25.0604827778
  0
LINE
  5
5BA
100
AcDbEntity
  8
ASSI
100
AcDbLine
 62
7
  6
CONTINUOUS
 10
21.1346105968
 20
5.5764778744
 11
21.1346105968
 21
5.6554684379
  0
LINE
  5
5BB
100
AcDbEntity
  8
ASSI
100
AcDbLine
 62
7
  6
CONTINUOUS
 10
21.1346105968
 20
9.6588292583
 11
21.1346105968
 21
9.7378198219
  0
LINE
  5
5BC
100
AcDbEntity
  8
ASSI
100
AcDbLine
 62
7
  6
CONTINUOUS
 10
21.1346105968
 20
13.7411806423
 11
21.1346105968
 21
13.8201712059
  0
LINE
  5
5BD
100
AcDbEntity
  8
ASSI
100
AcDbLine
 62
7
  6
CONTINUOUS
 10
21.1346105968
 20
17.8235320263
 11
21.1346105968
 21
17.9025225898
  0
LWPOLYLINE
  5
5BE
100
AcDbEntity
  8
RACCORDO
100
AcDbPolyline
 62
253
  6
CONTINUOUS
 90
7
 70
0
 10
21.1046775207
 20
17.987610804
 10
21.1028786079
 20
17.9566965351
 10
21.0975126495
 20
17.9284251338
 10
21.0886714585
 20
17.9032803317
 10
21.0765063101
 20
17.8816923632
 10
21.0612253534
 20
17.8640306046
 10
21.042452751
 20
17.8502324969
  0
LWPOLYLINE
  5
5BF
100
AcDbEntity
  8
ASSI
100
AcDbPolyline
 62
253
  6
CONTINUOUS
 90
7
 70
0
 10
21.1046775207
 20
17.987610804
 10
21.1028786079
 20
17.9566965351
 10
21.0975126495
 20
17.9284251338
 10
21.0886714585
 20
17.9032803317
 10
21.0765063101
 20
17.8816923632
 10
21.0612253534
 20
17.8640306046
 10
21.042452751
 20
17.8502324969
  0
LWPOLYLINE
  5
5C0
100
AcDbEntity
  8
RACCORDO
100
AcDbPolyline
 62
253
  6
CONTINUOUS
 90
7
 70
0
 10
21.1046775207
 20
13.9052594201
 10
21.1028786079
 20
13.8743451511
 10
21.0975126495
 20
13.8460737498
 10
21.0886714585
 20
13.8209289477
 10
21.0765063101
 20
13.7993409793
 10
21.0612253534
 20
13.7816792206
 10
21.042452751
 20
13.7678811129
  0
LWPOLYLINE
  5
5C1
100
AcDbEntity
  8
ASSI
100
AcDbPolyline
 62
253
  6
CONTINUOUS
 90
7
 70
0
 10
21.1046775207
 20
13.9052594201
 10
21.1028786079
 20
13.8743451511
 10
21.0975126495
 20
13.8460737498
 10
21.0886714585
 20
13.8209289477
 10
21.0765063101
 20
13.7993409793
 10
21.0612253534
 20
13.7816792206
 10
21.042452751
 20
13.7678811129
  0
LWPOLYLINE
  5
5C2
100
AcDbEntity
  8
RACCORDO
100
AcDbPolyline
 62
253
  6
CONTINUOUS
 90
7
 70
0
 10
21.1046775207
 20
9.8229080361
 10
21.1028786079
 20
9.7919937672
 10
21.0975126495
 20
9.7637223659
 10
21.0886714585
 20
9.7385775637
 10
21.0765063101
 20
9.7169895953
 10
21.0612253534
 20
9.6993278366
 10
21.042452751
 20
9.6855297289
  0
LWPOLYLINE
  5
5C3
100
AcDbEntity
  8
ASSI
100
AcDbPolyline
 62
253
  6
CONTINUOUS
 90
7
 70
0
 10
21.1046775207
 20
9.8229080361
 10
21.1028786079
 20
9.7919937672
 10
21.0975126495
 20
9.7637223659
 10
21.0886714585
 20
9.7385775637
 10
21.0765063101
 20
9.7169895953
 10
21.0612253534
 20
9.6993278366
 10
21.042452751
 20
9.6855297289
  0
LWPOLYLINE
  5
5C4
100
AcDbEntity
  8
RACCORDO
100
AcDbPolyline
 62
253
  6
CONTINUOUS
 90
7
 70
0
 10
21.1046775207
 20
5.7405566521
 10
21.1028786079
 20
5.7096423832
 10
21.0975126495
 20
5.6813709819
 10
21.0886714585
 20
5.6562261798
 10
21.0765063101
 20
5.6346382113
 10
21.0612253534
 20
5.6169764527
 10
21.042452751
 20
5.603178345
  0
LWPOLYLINE
  5
5C5
100
AcDbEntity
  8
ASSI
100
AcDbPolyline
 62
253
  6
CONTINUOUS
 90
7
 70
0
 10
21.1046775207
 20
5.7405566521
 10
21.1028786079
 20
5.7096423832
 10
21.0975126495
 20
5.6813709819
 10
21.0886714585
 20
5.6562261798
 10
21.0765063101
 20
5.6346382113
 10
21.0612253534
 20
5.6169764527
 10
21.042452751
 20
5.603178345
  0
LWPOLYLINE
  5
5C6
100
AcDbEntity
  8
0
100
AcDbPolyline
 62
7
  6
CONTINUOUS
 90
16
 70
0
 10
18.6158886543
 20
-10.7421089147
 10
18.6216296454
 20
-10.7302868091
 10
18.6269875961
 20
-10.7180856771
 10
18.6319625063
 20
-10.7055055185
 10
18.6365578508
 20
-10.6925354036
 10
18.6407701547
 20
-10.6791862622
 10
18.644588994
 20
-10.6654908843
 10
18.648013349
 20
-10.6514485501
 10
18.6510442392
 20
-10.6370599793
 10
18.6536742998
 20
-10.6223601213
 10
18.6559025555
 20
-10.6073482312
 10
18.6577299815
 20
-10.5920250538
 10
18.6591521379
 20
-10.5764277726
 10
18.6601675447
 20
-10.5605687823
 10
18.6607776818
 20
-10.5444356883
 10
18.6609825494
 20
-10.5280284906
  0
LWPOLYLINE
  5
5C7
100
AcDbEntity
  8
ASSI
100
AcDbPolyline
 62
7
  6
CONTINUOUS
 90
4
 70
0
 10
-4.1121787858
 20
-29.618316282
 10
-4.101718889
 20
-29.6103376595
 10
-4.0914443543
 20
-29.5985131209
 10
-4.0832622221
 20
-29.5840801325
  0
LWPOLYLINE
  5
5C8
100
AcDbEntity
  8
ASSI
100
AcDbPolyline
 62
7
  6
CONTINUOUS
 90
5
 70
0
 10
-3.5871250871
 20
-29.2936150075
 10
-3.5645502247
 20
-29.2778916898
 10
-3.540798682
 20
-29.256941649
 10
-3.5201647712
 20
-29.2339862744
 10
-3.5017875275
 20
-29.2082897858
  0
LWPOLYLINE
  5
5C9
100
AcDbEntity
  8
ASSI
100
AcDbPolyline
 62
253
  6
CONTINUOUS
 90
7
 70
0
 10
-3.5142640553
 20
-28.8219814616
 10
-3.4975338411
 20
-28.8105876386
 10
-3.4834908657
 20
-28.798042212
 10
-3.4723701062
 20
-28.7845551004
 10
-3.4643576426
 20
-28.7703519793
 10
-3.4595875452
 20
-28.7556705053
 10
-3.4581320153
 20
-28.7417640543
  0
LINE
  5
5CA
100
AcDbEntity
  8
ASSI
100
AcDbLine
 62
253
  6
CONTINUOUS
 10
-3.7189470752
 20
-27.7724578946
 11
-3.0241828888
 21
-27.3428053
  0
LINE
  5
5CB
100
AcDbEntity
  8
ASSI
100
AcDbLine
 62
7
  6
CONTINUOUS
 10
-3.8190141681
 20
-27.9992575354
 11
-3.1232744385
 21
-27.5690016503
  0
LINE
  5
5CC
100
AcDbEntity
  8
RACCORDO
100
AcDbLine
 62
7
  6
CONTINUOUS
 10
-3.0241828888
 20
-24.6255798975
 11
1.4851269225
 21
-21.8911394121
  0
LINE
  5
5CD
100
AcDbEntity
  8
ASSI
100
AcDbLine
 62
7
  6
CONTINUOUS
 10
1.8894448119
 20
-21.6881946463
 11
-1.0220165471
 21
-23.4114684409
  0
LWPOLYLINE
  5
5CE
100
AcDbEntity
  8
0
100
AcDbPolyline
 62
253
  6
CONTINUOUS
 90
9
 70
0
 10
-8.9850785319
 20
-30.5755090111
 10
-8.9614708982
 20
-30.5615851877
 10
-8.9372929361
 20
-30.5413620499
 10
-8.9160397751
 20
-30.5165997628
 10
-8.897943818
 20
-30.4875691967
 10
-8.8832029362
 20
-30.4545878907
 10
-8.8719783112
 20
-30.4180165904
 10
-8.8643926684
 20
-30.3782553064
 10
-8.8605289309
 20
-30.3357389259
  0
LWPOLYLINE
  5
5CF
100
AcDbEntity
  8
RACCORDO
100
AcDbPolyline
 62
253
  6
CONTINUOUS
 90
9
 70
0
 10
-8.9850785318
 20
-30.5755090111
 10
-8.9614708982
 20
-30.5615851877
 10
-8.9372929361
 20
-30.5413620499
 10
-8.9160397751
 20
-30.5165997628
 10
-8.897943818
 20
-30.4875691967
 10
-8.8832029362
 20
-30.4545878907
 10
-8.8719783112
 20
-30.4180165904
 10
-8.8643926683
 20
-30.3782553064
 10
-8.8605289309
 20
-30.3357389258
  0
LINE
  5
5D0
100
AcDbEntity
  8
ASSI
100
AcDbLine
 62
7
  6
CONTINUOUS
 10
1.9082046489
 20
-21.2941835507
 11
1.8492652054
 21
-21.3288191154
  0
LWPOLYLINE
  5
5D1
100
AcDbEntity
  8
ASSI
100
AcDbPolyline
 62
7
  6
CONTINUOUS
 90
8
 70
0
 10
-19.7988527268
 20
16.7355440742
 10
-19.7970564807
 20
16.735954877
 10
-19.791830855
 20
16.7387278675
 10
-19.7836336457
 20
16.7437230767
 10
-19.7726611951
 20
16.7500345021
 10
-19.7590952082
 20
16.7574638705
 10
-19.7433133417
 20
16.7664827566
 10
-19.7256317949
 20
16.7771824166
  0
LINE
  5
5D2
100
AcDbEntity
  8
RACCORDO
100
AcDbLine
 62
253
  6
CONTINUOUS
 10
11.4251826554
 20
20.5262965343
 11
9.1453710892
 21
20.5148101662
  0
LINE
  5
5D3
100
AcDbEntity
  8
ASSI
100
AcDbLine
 62
253
  6
CONTINUOUS
 10
11.4251826554
 20
20.5262965343
 11
9.1453710892
 21
20.5148101662
  0
LINE
  5
5D4
100
AcDbEntity
  8
RACCORDO
100
AcDbLine
 62
253
  6
CONTINUOUS
 10
11.4233314777
 20
20.9433756841
 11
9.1435199115
 21
20.931889316
  0
LINE
  5
5D5
100
AcDbEntity
  8
ASSI
100
AcDbLine
 62
253
  6
CONTINUOUS
 10
11.4233314777
 20
20.9433756841
 11
9.1435199115
 21
20.931889316
  0
LINE
  5
5D6
100
AcDbEntity
  8
RACCORDO
100
AcDbLine
 62
7
  6
CONTINUOUS
 10
11.4251826554
 20
19.7884222278
 11
9.1453710892
 21
19.7884222278
  0
LINE
  5
5D7
100
AcDbEntity
  8
ASSI
100
AcDbLine
 62
7
  6
CONTINUOUS
 10
11.4251826554
 20
19.7884222278
 11
9.1453710892
 21
19.7884222278
  0
LWPOLYLINE
  5
5D8
100
AcDbEntity
  8
RACCORDO
100
AcDbPolyline
 62
253
  6
CONTINUOUS
 90
10
 70
0
 10
9.1435199115
 20
20.931889316
 10
9.1258988398
 20
20.9322666232
 10
9.1086547822
 20
20.9335014573
 10
9.0917877389
 20
20.9355938183
 10
9.0751645329
 20
20.938575615
 10
9.058918341
 20
20.9424149386
 10
9.0434486942
 20
20.9470160621
 10
9.0288887695
 20
20.9523470764
 10
9.0151053898
 20
20.9584398905
 10
9.0020985553
 20
20.9652945045
  0
LWPOLYLINE
  5
5D9
100
AcDbEntity
  8
ASSI
100
AcDbPolyline
 62
253
  6
CONTINUOUS
 90
10
 70
0
 10
9.1435199115
 20
20.931889316
 10
9.1258988398
 20
20.9322666232
 10
9.1086547822
 20
20.9335014573
 10
9.0917877389
 20
20.9355938183
 10
9.0751645329
 20
20.938575615
 10
9.058918341
 20
20.9424149386
 10
9.0434486942
 20
20.9470160621
 10
9.0288887695
 20
20.9523470764
 10
9.0151053898
 20
20.9584398905
 10
9.0020985553
 20
20.9652945045
  0
LWPOLYLINE
  5
5DA
100
AcDbEntity
  8
RACCORDO
100
AcDbPolyline
 62
253
  6
CONTINUOUS
 90
10
 70
0
 10
9.1453710892
 20
20.5148101662
 10
9.1017548478
 20
20.5158258085
 10
9.0584871465
 20
20.5190418008
 10
9.0158970599
 20
20.524430637
 10
8.9743161965
 20
20.5319463026
 10
8.9340507584
 20
20.5415301149
 10
8.8953821163
 20
20.5531153288
 10
8.8585982209
 20
20.5666182362
 10
8.8239883877
 20
20.5819346948
 10
8.7918176986
 20
20.5989492169
  0
LWPOLYLINE
  5
5DB
100
AcDbEntity
  8
ASSI
100
AcDbPolyline
 62
253
  6
CONTINUOUS
 90
10
 70
0
 10
9.1453710892
 20
20.5148101662
 10
9.1017548478
 20
20.5158258085
 10
9.0584871465
 20
20.5190418008
 10
9.0158970599
 20
20.524430637
 10
8.9743161965
 20
20.5319463026
 10
8.9340507584
 20
20.5415301149
 10
8.8953821163
 20
20.5531153288
 10
8.8585982209
 20
20.5666182362
 10
8.8239883877
 20
20.5819346948
 10
8.7918176986
 20
20.5989492169
  0
LWPOLYLINE
  5
5DC
100
AcDbEntity
  8
RACCORDO
100
AcDbPolyline
 62
7
  6
CONTINUOUS
 90
10
 70
0
 10
8.7918176986
 20
19.8729786647
 10
8.824401801
 20
19.8558066874
 10
8.8588934215
 20
19.8405224784
 10
8.8952925601
 20
19.8271260377
 10
8.9339093718
 20
19.8155421173
 10
8.9744337017
 20
19.8058459652
 10
9.0159350848
 20
19.7982633257
 10
9.0581033663
 20
19.7928694471
 10
9.1012487011
 20
19.7895890811
 10
9.1453710892
 20
19.7884222278
  0
LWPOLYLINE
  5
5DD
100
AcDbEntity
  8
ASSI
100
AcDbPolyline
 62
7
  6
CONTINUOUS
 90
10
 70
0
 10
8.7918176986
 20
19.8729786647
 10
8.824401801
 20
19.8558066874
 10
8.8588934215
 20
19.8405224784
 10
8.8952925601
 20
19.8271260377
 10
8.9339093718
 20
19.8155421173
 10
8.9744337017
 20
19.8058459652
 10
9.0159350848
 20
19.7982633257
 10
9.0581033663
 20
19.7928694471
 10
9.1012487011
 20
19.7895890811
 10
9.1453710892
 20
19.7884222278
  0
LINE
  5
5DE
100
AcDbEntity
  8
RACCORDO
100
AcDbLine
 62
7
  6
CONTINUOUS
 10
8.6500096385
 20
19.9548878774
 11
8.6469305435
 21
19.9566346922
  0
LINE
  5
5DF
100
AcDbEntity
  8
ASSI
100
AcDbLine
 62
7
  6
CONTINUOUS
 10
8.6500096385
 20
19.9548878774
 11
8.6469305435
 21
19.9566346922
  0
LINE
  5
5E0
100
AcDbEntity
  8
RACCORDO
100
AcDbLine
 62
253
  6
CONTINUOUS
 10
20.8944047414
 20
10.2730427079
 11
20.3166395762
 21
10.6066370732
  0
LINE
  5
5E1
100
AcDbEntity
  8
ASSI
100
AcDbLine
 62
253
  6
CONTINUOUS
 10
20.8944047414
 20
10.2730427079
 11
20.3166395762
 21
10.6066370732
  0
LINE
  5
5E2
100
AcDbEntity
  8
RACCORDO
100
AcDbLine
 62
7
  6
CONTINUOUS
 10
25.352389795
 20
8.7201390422
 11
24.7067455285
 21
9.0929259499
  0
LINE
  5
5E3
100
AcDbEntity
  8
ASSI
100
AcDbLine
 62
7
  6
CONTINUOUS
 10
25.352389795
 20
8.7201390422
 11
24.7067455285
 21
9.0929259499
  0
LINE
  5
5E4
100
AcDbEntity
  8
ASSI
100
AcDbLine
 62
7
  6
CONTINUOUS
 10
8.6554215956
 20
19.4618104442
 11
5.6855731146
 21
21.1765637361
  0
LINE
  5
5E5
100
AcDbEntity
  8
RACCORDO
100
AcDbLine
 62
7
  6
CONTINUOUS
 10
6.2562837927
 20
21.3369641643
 11
8.6469305435
 21
19.9566346922
  0
LINE
  5
5E6
100
AcDbEntity
  8
ASSI
100
AcDbLine
 62
7
  6
CONTINUOUS
 10
6.2562837927
 20
21.3369641643
 11
8.6469305435
 21
19.9566346922
  0
LINE
  5
5E7
100
AcDbEntity
  8
RACCORDO
100
AcDbLine
 62
7
  6
CONTINUOUS
 10
8.649239729
 20
19.95533629
 11
8.7918176986
 21
19.8729786647
  0
LINE
  5
5E8
100
AcDbEntity
  8
ASSI
100
AcDbLine
 62
7
  6
CONTINUOUS
 10
8.649239729
 20
19.95533629
 11
8.7918176986
 21
19.8729786647
  0
LWPOLYLINE
  5
5E9
100
AcDbEntity
  8
RACCORDO
100
AcDbPolyline
 62
253
  6
CONTINUOUS
 90
10
 70
0
 10
6.2562837927
 20
22.0629347165
 10
6.2268056452
 20
22.08151546
 10
6.2002504135
 20
22.1015149433
 10
6.1768181151
 20
22.1227801115
 10
6.1566885126
 20
22.1451442672
 10
6.1400071889
 20
22.1684408013
 10
6.1268915593
 20
22.1925062053
 10
6.1174438644
 20
22.217163332
 10
6.1117431927
 20
22.2422210645
 10
6.1098371833
 20
22.2674893993
  0
LWPOLYLINE
  5
5EA
100
AcDbEntity
  8
ASSI
100
AcDbPolyline
 62
253
  6
CONTINUOUS
 90
10
 70
0
 10
6.2562837927
 20
22.0629347165
 10
6.2268056452
 20
22.08151546
 10
6.2002504135
 20
22.1015149433
 10
6.1768181151
 20
22.1227801115
 10
6.1566885126
 20
22.1451442672
 10
6.1400071889
 20
22.1684408013
 10
6.1268915593
 20
22.1925062053
 10
6.1174438644
 20
22.217163332
 10
6.1117431927
 20
22.2422210645
 10
6.1098371833
 20
22.2674893993
  0
LINE
  5
5EB
100
AcDbEntity
  8
ASSI
100
AcDbLine
 62
7
  6
CONTINUOUS
 10
19.8118616392
 20
10.1708684447
 11
19.7574819043
 21
10.2063256635
  0
LWPOLYLINE
  5
5EC
100
AcDbEntity
  8
RACCORDO
100
AcDbPolyline
 62
7
  6
CONTINUOUS
 90
34
 70
0
 10
19.8119255458
 20
10.170831998
 10
19.7559255461
 20
10.2074853703
 10
19.698945164
 20
10.2564798436
 10
19.6475785157
 20
10.3138277802
 10
19.6011086789
 20
10.3804367238
 10
19.5597813709
 20
10.45652505
 10
19.524328904
 20
10.541353615
 10
19.4951819038
 20
10.6344242378
 10
19.4726874667
 20
10.7349929392
 10
19.4571017744
 20
10.8422653502
 10
19.4485849907
 20
10.9556860498
 10
19.4472258405
 20
11.0741891273
 10
19.4530248274
 20
11.1971783873
 10
19.4661144118
 20
11.3251083524
 10
19.4866735702
 20
11.4577698529
 10
19.5146987882
 20
11.5939389815
 10
19.5501488983
 20
11.7327294055
 10
19.5929250496
 20
11.8733740044
 10
19.6428630738
 20
12.015060496
 10
19.6997179141
 20
12.1568637787
 10
19.7632025512
 20
12.2979620391
 10
19.8330015373
 20
12.4375977466
 10
19.9087541196
 20
12.5749743468
 10
19.9900582859
 20
12.7093352936
 10
20.0764632726
 20
12.8399467167
 10
20.1674851703
 20
12.966071757
 10
20.2626546467
 20
13.0870773803
 10
20.3613719942
 20
13.2022598514
 10
20.4628884176
 20
13.3108196203
 10
20.5666267809
 20
13.4122438664
 10
20.671930501
 20
13.5060313522
 10
20.7778479691
 20
13.5915070665
 10
20.8835846236
 20
13.6682698129
 10
20.988521851
 20
13.7361731252
  0
LWPOLYLINE
  5
5ED
100
AcDbEntity
  8
ASSI
100
AcDbPolyline
 62
7
  6
CONTINUOUS
 90
33
 70
0
 10
19.7574819043
 20
10.2063256635
 10
19.7003556789
 20
10.2550988434
 10
19.6488419225
 20
10.3122345184
 10
19.6022129939
 20
10.3786503687
 10
19.5607140517
 20
10.4545785694
 10
19.5250831251
 20
10.5392854109
 10
19.4957580154
 20
10.6322731475
 10
19.4730905485
 20
10.732804175
 10
19.4573421811
 20
10.8400800755
 10
19.4486782642
 20
10.9535234618
 10
19.4471877249
 20
11.0720532658
 10
19.4528682774
 20
11.195078644
 10
19.4658517928
 20
11.323063485
 10
19.4863187683
 20
11.4558005382
 10
19.5142660208
 20
11.5920603331
 10
19.549653793
 20
11.7309582742
 10
19.592384875
 20
11.8717271503
 10
19.6422947648
 20
12.0135505021
 10
19.6991379712
 20
12.1554995876
 10
19.7626273985
 20
12.2967499501
 10
19.8324469756
 20
12.4365418192
 10
19.9082349254
 20
12.5740757878
 10
19.9895883893
 20
12.7085926964
 10
20.0760554698
 20
12.8393565002
 10
20.1671509503
 20
12.9656281125
 10
20.2624042432
 20
13.0867723367
 10
20.3612139762
 20
13.2020832925
 10
20.462829346
 20
13.3107591989
 10
20.5666716277
 20
13.4122857351
 10
20.6720821369
 20
13.5061599878
 10
20.7781061621
 20
13.5917048312
 10
20.8839465197
 20
13.6685181036
 10
20.9888265363
 20
13.7363522247
  0
LINE
  5
5EE
100
AcDbEntity
  8
0
100
AcDbLine
 62
7
  6
CONTINUOUS
 10
22.0550950991
 20
-6.5215071804
 11
22.0550950991
 21
-6.1140756032
  0
LINE
  5
5EF
100
AcDbEntity
  8
0
100
AcDbLine
 62
7
  6
CONTINUOUS
 10
22.5500698459
 20
-8.2825182273
 11
22.5500698459
 21
-5.8282833879
  0
LINE
  5
5F0
100
AcDbEntity
  8
0
100
AcDbLine
 62
7
  6
CONTINUOUS
 10
22.5500698459
 20
4.418604024
 11
22.5500698459
 21
6.4585958879
  0
LINE
  5
5F1
100
AcDbEntity
  8
0
100
AcDbLine
 62
7
  6
CONTINUOUS
 10
22.5500698459
 20
7.8365460309
 11
22.5500698459
 21
10.5409472718
  0
LINE
  5
5F2
100
AcDbEntity
  8
0
100
AcDbLine
 62
7
  6
CONTINUOUS
 10
22.5500698459
 20
11.9188974148
 11
22.5500698459
 21
14.6232986558
  0
LINE
  5
5F3
100
AcDbEntity
  8
0
100
AcDbLine
 62
7
  6
CONTINUOUS
 10
22.5500698459
 20
16.0012487988
 11
22.5500698459
 21
18.7056500398
  0
LINE
  5
5F4
100
AcDbEntity
  8
DRAFT
100
AcDbLine
 62
7
  6
CONTINUOUS
 10
23.6460853567
 20
4.3981626759
 11
23.6460853567
 21
7.0804718923
  0
LINE
  5
5F5
100
AcDbEntity
  8
ASSI
100
AcDbLine
 62
7
  6
CONTINUOUS
 10
23.6460853567
 20
4.3981626759
 11
23.6460853567
 21
7.0804718923
  0
LINE
  5
5F6
100
AcDbEntity
  8
DRAFT
100
AcDbLine
 62
7
  6
CONTINUOUS
 10
23.6460853567
 20
8.4805140599
 11
23.6460853567
 21
11.1628232763
  0
LINE
  5
5F7
100
AcDbEntity
  8
ASSI
100
AcDbLine
 62
7
  6
CONTINUOUS
 10
23.6460853567
 20
8.4805140599
 11
23.6460853567
 21
11.1628232763
  0
LINE
  5
5F8
100
AcDbEntity
  8
DRAFT
100
AcDbLine
 62
7
  6
CONTINUOUS
 10
23.6460853567
 20
12.5628654439
 11
23.6460853567
 21
15.2451746603
  0
LINE
  5
5F9
100
AcDbEntity
  8
ASSI
100
AcDbLine
 62
7
  6
CONTINUOUS
 10
23.6460853567
 20
12.5628654439
 11
23.6460853567
 21
15.2451746603
  0
LINE
  5
5FA
100
AcDbEntity
  8
DRAFT
100
AcDbLine
 62
7
  6
CONTINUOUS
 10
23.6460853567
 20
16.6452168278
 11
23.6460853567
 21
19.3275260442
  0
LINE
  5
5FB
100
AcDbEntity
  8
ASSI
100
AcDbLine
 62
7
  6
CONTINUOUS
 10
23.6460853567
 20
16.6452168278
 11
23.6460853567
 21
19.3275260442
  0
LINE
  5
5FC
100
AcDbEntity
  8
RACCORDO
100
AcDbLine
 62
7
  6
CONTINUOUS
 10
24.4946134942
 20
2.3977631519
 11
24.4946134942
 21
-7.0616999851
  0
LINE
  5
5FD
100
AcDbEntity
  8
ASSI
100
AcDbLine
 62
7
  6
CONTINUOUS
 10
24.4946134942
 20
2.3977631519
 11
24.4946134942
 21
2.3161161242
  0
LINE
  5
5FE
100
AcDbEntity
  8
ASSI
100
AcDbLine
 62
7
  6
CONTINUOUS
 10
24.4946134942
 20
2.3161161242
 11
24.4946134942
 21
-7.1597630957
  0
LINE
  5
5FF
100
AcDbEntity
  8
ASSI
100
AcDbLine
 62
7
  6
CONTINUOUS
 10
24.7067455285
 20
5.0105745659
 11
24.7067455285
 21
7.6822873805
  0
LINE
  5
600
100
AcDbEntity
  8
ASSI
100
AcDbLine
 62
7
  6
CONTINUOUS
 10
24.7067455285
 20
9.0929259499
 11
24.7067455285
 21
11.7646387645
  0
LINE
  5
601
100
AcDbEntity
  8
ASSI
100
AcDbLine
 62
7
  6
CONTINUOUS
 10
24.7067455285
 20
13.1752773338
 11
24.7067455285
 21
15.8469901484
  0
LINE
  5
602
100
AcDbEntity
  8
ASSI
100
AcDbLine
 62
7
  6
CONTINUOUS
 10
24.7067455285
 20
17.2576287178
 11
24.7067455285
 21
19.9293415324
  0
LWPOLYLINE
  5
603
100
AcDbEntity
  8
ASSI
100
AcDbPolyline
 62
7
  6
CONTINUOUS
 90
28
 70
0
 10
24.4946134942
 20
-7.1597630957
 10
24.4944020444
 20
-7.1764939745
 10
24.4937665863
 20
-7.1929504094
 10
24.4927071197
 20
-7.2091324003
 10
24.4912212501
 20
-7.2250604899
 10
24.4893113722
 20
-7.2407141354
 10
24.4869846694
 20
-7.2560317093
 10
24.4842412227
 20
-7.2710014783
 10
24.4810809512
 20
-7.2856351755
 10
24.4775107957
 20
-7.2999063728
 10
24.4735307097
 20
-7.3138153312
 10
24.4691407396
 20
-7.3273617897
 10
24.4643479664
 20
-7.3405185368
 10
24.4591475081
 20
-7.3532925145
 10
24.4535442466
 20
-7.3656767809
 10
24.4475599078
 20
-7.3776232987
 10
24.4411969827
 20
-7.3891226759
 10
24.4344529802
 20
-7.4001843047
 10
24.4273421532
 20
-7.4107883245
 10
24.4198646764
 20
-7.4209345145
 10
24.4120203751
 20
-7.4306230956
 10
24.4038229789
 20
-7.4398348701
 10
24.3952653377
 20
-7.4485741057
 10
24.3863546015
 20
-7.4568365347
 10
24.3771259497
 20
-7.4645901558
 10
24.3675911086
 20
-7.4718243019
 10
24.3577383519
 20
-7.4785496401
 10
24.3475848573
 20
-7.4847562547
  0
LWPOLYLINE
  5
604
100
AcDbEntity
  8
0
100
AcDbPolyline
 62
7
  6
CONTINUOUS
 90
15
 70
0
 10
22.2903590731
 20
-8.672560064
 10
22.2846956418
 20
-8.7081558863
 10
22.274673183
 20
-8.7555750192
 10
22.2624966843
 20
-8.8010419808
 10
22.2481437738
 20
-8.84456394
 10
22.2316368235
 20
-8.8861337279
 10
22.2131031862
 20
-8.9254345513
 10
22.1925428198
 20
-8.9624269004
 10
22.1699557663
 20
-8.9971502849
 10
22.1454695057
 20
-9.0294064408
 10
22.119051006
 20
-9.0592019114
 10
22.0907332991
 20
-9.0865301534
 10
22.0607429598
 20
-9.1111732722
 10
22.0290943232
 20
-9.13309396
 10
22.01266516
 20
-9.1430344542
  0
LWPOLYLINE
  5
605
100
AcDbEntity
  8
0
100
AcDbPolyline
 62
7
  6
CONTINUOUS
 90
16
 70
0
 10
22.5049759508
 20
-8.4965986514
 10
22.510716942
 20
-8.4847765458
 10
22.5160748926
 20
-8.4725754138
 10
22.5210498028
 20
-8.4599952552
 10
22.5256451473
 20
-8.4470251403
 10
22.5298574513
 20
-8.4336759989
 10
22.5336762906
 20
-8.419980621
 10
22.5371006455
 20
-8.4059382868
 10
22.5401315358
 20
-8.391549716
 10
22.5427615963
 20
-8.376849858
 10
22.544989852
 20
-8.3618379679
 10
22.546817278
 20
-8.3465147905
 10
22.5482394344
 20
-8.3309175093
 10
22.5492548412
 20
-8.315058519
 10
22.5498649784
 20
-8.298925425
 10
22.5500698459
 20
-8.2825182273
  0
LWPOLYLINE
  5
606
100
AcDbEntity
  8
ASSI
100
AcDbPolyline
 62
253
  6
CONTINUOUS
 90
7
 70
0
 10
-3.5142640553
 20
-29.1424730312
 10
-3.4975338401
 20
-29.1310792075
 10
-3.4834908644
 20
-29.1185337801
 10
-3.4723701048
 20
-29.1050466678
 10
-3.4643576415
 20
-29.0908435463
 10
-3.4595875446
 20
-29.076162072
 10
-3.4581320153
 20
-29.0622556238
  0
LWPOLYLINE
  5
607
100
AcDbEntity
  8
ASSI
100
AcDbPolyline
 62
253
  6
CONTINUOUS
 90
28
 70
0
 10
-3.5483959992
 20
-29.2036978926
 10
-3.5467085121
 20
-29.2026198425
 10
-3.5449893022
 20
-29.2014053529
 10
-3.5432383695
 20
-29.2000544239
 10
-3.5414447512
 20
-29.1985653555
 10
-3.5396194102
 20
-29.1969398476
 10
-3.5377952345
 20
-29.1951830001
 10
-3.5359715036
 20
-29.1932897858
 10
-3.5341489381
 20
-29.1912652317
 10
-3.5323625884
 20
-29.1891295191
 10
-3.5306131506
 20
-29.1868781479
 10
-3.5288999287
 20
-29.1845156181
 10
-3.5272558847
 20
-29.1820756108
 10
-3.525683887
 20
-29.179556681
 10
-3.5241810673
 20
-29.1769602738
 10
-3.5227717835
 20
-29.1743244051
 10
-3.521459582
 20
-29.1716511772
 10
-3.5202409164
 20
-29.168938488
 10
-3.5191295055
 20
-29.1662180464
 10
-3.5181271664
 20
-29.1634911876
 10
-3.5172320819
 20
-29.1607565764
 10
-3.516452519
 20
-29.1580419165
 10
-3.515789514
 20
-29.1553473799
 10
-3.5152420306
 20
-29.1526727946
 10
-3.5148152271
 20
-29.1500453483
 10
-3.5145108232
 20
-29.1474741036
 10
-3.5143270992
 20
-29.1449499979
 10
-3.5142640553
 20
-29.1424730312
  0
LINE
  5
608
100
AcDbEntity
  8
ASSI
100
AcDbLine
 62
253
  6
CONTINUOUS
 10
-4.0725004658
 20
-29.5278119565
 11
-3.5483959992
 21
-29.2036978926
  0
LINE
  5
609
100
AcDbEntity
  8
ASSI
100
AcDbLine
 62
7
  6
CONTINUOUS
 10
-4.1121676541
 20
-29.6183094006
 11
-3.5870708437
 21
-29.2935816564
  0
LWPOLYLINE
  5
60A
100
AcDbEntity
  8
ASSI
100
AcDbPolyline
 62
7
  6
CONTINUOUS
 90
3
 70
0
 10
-4.1156678726
 20
-29.6203308369
 10
-4.1139129012
 20
-29.6193526993
 10
-4.1121787858
 20
-29.618316282
  0
LINE
  5
60B
100
AcDbEntity
  8
ASSI
100
AcDbLine
 62
7
  6
CONTINUOUS
 10
-3.8191880486
 20
-27.9993650631
 11
-3.8336902383
 21
-28.0073710482
  0
LINE
  5
60C
100
AcDbEntity
  8
ASSI
100
AcDbLine
 62
253
  6
CONTINUOUS
 10
-5.6944005924
 20
-30.4000173579
 11
-4.0725004658
 21
-29.5278119565
  0
LINE
  5
60D
100
AcDbEntity
  8
ASSI
100
AcDbLine
 62
7
  6
CONTINUOUS
 10
-4.1156792743
 20
-29.6203369683
 11
-5.7387627527
 21
-30.4931784721
  0
LWPOLYLINE
  5
60E
100
AcDbEntity
  8
ASSI
100
AcDbPolyline
 62
253
  6
CONTINUOUS
 90
13
 70
0
 10
-5.7297452551
 20
-30.0797931612
 10
-5.7494786653
 20
-30.0894529778
 10
-5.7712065829
 20
-30.097561216
 10
-5.7945654417
 20
-30.1039822032
 10
-5.8191643849
 20
-30.1086084991
 10
-5.8445918061
 20
-30.1113626932
 10
-5.8704222363
 20
-30.1121987006
 10
-5.8962234627
 20
-30.1111025325
 10
-5.9215637616
 20
-30.1080925307
 10
-5.9460191215
 20
-30.1032190608
 10
-5.9691803385
 20
-30.096563669
 10
-5.9906598632
 20
-30.0882377178
 10
-6.0100982854
 20
-30.0783805228
  0
LINE
  5
60F
100
AcDbEntity
  8
RACCORDO
100
AcDbLine
 62
253
  6
CONTINUOUS
 10
-5.4867140282
 20
-28.6367470667
 11
-3.7189470752
 21
-27.7723955264
  0
LINE
  5
610
100
AcDbEntity
  8
0
100
AcDbLine
 62
253
  6
CONTINUOUS
 10
-5.4867140282
 20
-28.6861085246
 11
-8.8605289309
 21
-30.3357389259
  0
LINE
  5
611
100
AcDbEntity
  8
RACCORDO
100
AcDbLine
 62
253
  6
CONTINUOUS
 10
-5.4867140282
 20
-28.6861085246
 11
-8.8605289309
 21
-30.3357389258
  0
LINE
  5
612
100
AcDbEntity
  8
ASSI
100
AcDbLine
 62
7
  6
CONTINUOUS
 10
-5.5152520584
 20
-28.8295721919
 11
-3.833916707
 21
-28.0074814755
  0
LINE
  5
613
100
AcDbEntity
  8
0
100
AcDbLine
 62
7
  6
CONTINUOUS
 10
-8.9852478277
 20
-30.5755916757
 11
-5.6006111782
 21
-28.9206700826
  0
LINE
  5
614
100
AcDbEntity
  8
RACCORDO
100
AcDbLine
 62
7
  6
CONTINUOUS
 10
-8.9852478277
 20
-30.5755916757
 11
-5.6006111782
 21
-28.9206700826
  0
LWPOLYLINE
  5
615
100
AcDbEntity
  8
0
100
AcDbPolyline
 62
253
  6
CONTINUOUS
 90
19
 70
0
 10
-8.8605289309
 20
-30.3357389259
 10
-8.9024130766
 20
-30.354242289
 10
-8.9433670561
 20
-30.3685593318
 10
-8.9833908695
 20
-30.3786900543
 10
-9.0227656834
 20
-30.3846582082
 10
-9.0612103311
 20
-30.3864400418
 10
-9.0978813125
 20
-30.3839642999
 10
-9.1327198162
 20
-30.3771316552
 10
-9.1657846535
 20
-30.3660414349
 10
-9.1964087589
 20
-30.3509203655
 10
-9.2245396414
 20
-30.3316855032
 10
-9.2502297919
 20
-30.3084197918
 10
-9.272969618
 20
-30.2815987899
 10
-9.2926997995
 20
-30.2511259406
 10
-9.3094796564
 20
-30.2170978009
 10
-9.3229775568
 20
-30.1802796004
 10
-9.3330829566
 20
-30.1409264154
 10
-9.3399063998
 20
-30.0987831697
 10
-9.3434478865
 20
-30.053849863
  0
LWPOLYLINE
  5
616
100
AcDbEntity
  8
RACCORDO
100
AcDbPolyline
 62
253
  6
CONTINUOUS
 90
19
 70
0
 10
-8.8605289309
 20
-30.3357389258
 10
-8.9024130766
 20
-30.354242289
 10
-8.9433670561
 20
-30.3685593318
 10
-8.9833908695
 20
-30.3786900543
 10
-9.0227656834
 20
-30.3846582082
 10
-9.0612103311
 20
-30.3864400418
 10
-9.0978813125
 20
-30.3839642999
 10
-9.1327198161
 20
-30.3771316552
 10
-9.1657846534
 20
-30.3660414349
 10
-9.1964087588
 20
-30.3509203655
 10
-9.2245396413
 20
-30.3316855032
 10
-9.2502297919
 20
-30.3084197918
 10
-9.272969618
 20
-30.2815987899
 10
-9.2926997994
 20
-30.2511259406
 10
-9.3094796564
 20
-30.2170978009
 10
-9.3229775568
 20
-30.1802796003
 10
-9.3330829566
 20
-30.1409264154
 10
-9.3399063998
 20
-30.0987831697
 10
-9.3434478865
 20
-30.053849863
  0
LINE
  5
617
100
AcDbEntity
  8
RACCORDO
100
AcDbLine
 62
7
  6
CONTINUOUS
 10
19.8119955903
 20
14.2531401961
 11
19.8086283485
 21
14.2550727231
  0
LINE
  5
618
100
AcDbEntity
  8
ASSI
100
AcDbLine
 62
7
  6
CONTINUOUS
 10
19.8119316705
 20
14.2531766599
 11
19.8086283485
 21
14.2550727231
  0
LINE
  5
619
100
AcDbEntity
  8
RACCORDO
100
AcDbLine
 62
253
  6
CONTINUOUS
 10
8.7918176986
 20
20.5989492169
 11
6.2562837927
 21
22.0629347165
  0
LINE
  5
61A
100
AcDbEntity
  8
ASSI
100
AcDbLine
 62
253
  6
CONTINUOUS
 10
8.7918176986
 20
20.5989492169
 11
6.2562837927
 21
22.0629347165
  0
LINE
  5
61B
100
AcDbEntity
  8
RACCORDO
100
AcDbLine
 62
253
  6
CONTINUOUS
 10
9.0020985553
 20
20.9652945045
 11
6.4665646493
 21
22.4292800041
  0
LINE
  5
61C
100
AcDbEntity
  8
ASSI
100
AcDbLine
 62
253
  6
CONTINUOUS
 10
9.0020985553
 20
20.9652945045
 11
6.4665646493
 21
22.4292800041
  0
LINE
  5
61D
100
AcDbEntity
  8
RACCORDO
100
AcDbLine
 62
253
  6
CONTINUOUS
 10
20.8944047414
 20
14.3553940918
 11
20.3166395762
 21
14.6889884571
  0
LINE
  5
61E
100
AcDbEntity
  8
ASSI
100
AcDbLine
 62
253
  6
CONTINUOUS
 10
20.8944047414
 20
14.3553940918
 11
20.3166395762
 21
14.6889884571
  0
LINE
  5
61F
100
AcDbEntity
  8
RACCORDO
100
AcDbLine
 62
7
  6
CONTINUOUS
 10
25.352389795
 20
12.8024904262
 11
24.7067455285
 21
13.1752773338
  0
LINE
  5
620
100
AcDbEntity
  8
ASSI
100
AcDbLine
 62
7
  6
CONTINUOUS
 10
25.352389795
 20
12.8024904262
 11
24.7067455285
 21
13.1752773338
  0
LINE
  5
621
100
AcDbEntity
  8
ASSI
100
AcDbLine
 62
7
  6
CONTINUOUS
 10
13.0540466808
 20
20.5965707876
 11
17.0741701407
 21
18.2754018859
  0
LINE
  5
622
100
AcDbEntity
  8
RACCORDO
100
AcDbLine
 62
7
  6
CONTINUOUS
 10
17.0372041783
 20
18.3149859573
 11
13.4088192665
 21
20.409969931
  0
LINE
  5
623
100
AcDbEntity
  8
ASSI
100
AcDbLine
 62
7
  6
CONTINUOUS
 10
17.0372041783
 20
18.3149859573
 11
13.4088192665
 21
20.409969931
  0
LWPOLYLINE
  5
624
100
AcDbEntity
  8
RACCORDO
100
AcDbPolyline
 62
253
  6
CONTINUOUS
 90
10
 70
0
 10
6.4665646493
 20
22.4292800041
 10
6.4546830563
 20
22.4367956568
 10
6.444102723
 20
22.4447701455
 10
6.4348236494
 20
22.4532034701
 10
6.4267898969
 20
22.4621729144
 10
6.4200574041
 20
22.4716011946
 10
6.414793987
 20
22.4812564593
 10
6.4110555842
 20
22.4910614247
 10
6.4087862571
 20
22.5010933746
 10
6.4079860056
 20
22.5113523089
  0
LWPOLYLINE
  5
625
100
AcDbEntity
  8
ASSI
100
AcDbPolyline
 62
253
  6
CONTINUOUS
 90
10
 70
0
 10
6.4665646493
 20
22.4292800041
 10
6.4546830563
 20
22.4367956568
 10
6.444102723
 20
22.4447701455
 10
6.4348236494
 20
22.4532034701
 10
6.4267898969
 20
22.4621729144
 10
6.4200574041
 20
22.4716011946
 10
6.414793987
 20
22.4812564593
 10
6.4110555842
 20
22.4910614247
 10
6.4087862571
 20
22.5010933746
 10
6.4079860056
 20
22.5113523089
  0
LINE
  5
626
100
AcDbEntity
  8
ASSI
100
AcDbLine
 62
7
  6
CONTINUOUS
 10
19.8118616392
 20
14.2532198287
 11
19.7574819043
 21
14.2886770475
  0
LWPOLYLINE
  5
627
100
AcDbEntity
  8
RACCORDO
100
AcDbPolyline
 62
7
  6
CONTINUOUS
 90
34
 70
0
 10
19.8119255458
 20
14.2531833819
 10
19.7559255461
 20
14.2898367542
 10
19.698945164
 20
14.3388312275
 10
19.6475785157
 20
14.3961791641
 10
19.6011086789
 20
14.4627881077
 10
19.5597813709
 20
14.538876434
 10
19.524328904
 20
14.6237049989
 10
19.4951819038
 20
14.7167756217
 10
19.4726874667
 20
14.8173443232
 10
19.4571017744
 20
14.9246167342
 10
19.4485849907
 20
15.0380374337
 10
19.4472258405
 20
15.1565405113
 10
19.4530248274
 20
15.2795297713
 10
19.4661144118
 20
15.4074597364
 10
19.4866735702
 20
15.5401212369
 10
19.5146987882
 20
15.6762903654
 10
19.5501488983
 20
15.8150807894
 10
19.5929250496
 20
15.9557253884
 10
19.6428630738
 20
16.09741188
 10
19.6997179141
 20
16.2392151627
 10
19.7632025512
 20
16.3803134231
 10
19.8330015373
 20
16.5199491306
 10
19.9087541196
 20
16.6573257308
 10
19.9900582859
 20
16.7916866775
 10
20.0764632726
 20
16.9222981007
 10
20.1674851703
 20
17.048423141
 10
20.2626546467
 20
17.1694287642
 10
20.3613719942
 20
17.2846112353
 10
20.4628884176
 20
17.3931710043
 10
20.5666267809
 20
17.4945952503
 10
20.671930501
 20
17.5883827362
 10
20.7778479691
 20
17.6738584505
 10
20.8835846236
 20
17.7506211968
 10
20.988521851
 20
17.8185245091
  0
LWPOLYLINE
  5
628
100
AcDbEntity
  8
ASSI
100
AcDbPolyline
 62
7
  6
CONTINUOUS
 90
33
 70
0
 10
19.7574819043
 20
14.2886770475
 10
19.7003556789
 20
14.3374502273
 10
19.6488419225
 20
14.3945859024
 10
19.6022129939
 20
14.4610017526
 10
19.5607140517
 20
14.5369299533
 10
19.5250831251
 20
14.6216367949
 10
19.4957580154
 20
14.7146245315
 10
19.4730905485
 20
14.8151555589
 10
19.4573421811
 20
14.9224314595
 10
19.4486782642
 20
15.0358748457
 10
19.4471877249
 20
15.1544046497
 10
19.4528682774
 20
15.277430028
 10
19.4658517928
 20
15.4054148689
 10
19.4863187683
 20
15.5381519221
 10
19.5142660208
 20
15.6744117171
 10
19.549653793
 20
15.8133096581
 10
19.592384875
 20
15.9540785343
 10
19.6422947648
 20
16.095901886
 10
19.6991379712
 20
16.2378509715
 10
19.7626273985
 20
16.379101334
 10
19.8324469756
 20
16.5188932032
 10
19.9082349254
 20
16.6564271717
 10
19.9895883893
 20
16.7909440804
 10
20.0760554698
 20
16.9217078841
 10
20.1671509503
 20
17.0479794965
 10
20.2624042432
 20
17.1691237207
 10
20.3612139762
 20
17.2844346764
 10
20.462829346
 20
17.3931105829
 10
20.5666716277
 20
17.4946371191
 10
20.6720821369
 20
17.5885113718
 10
20.7781061621
 20
17.6740562151
 10
20.8839465197
 20
17.7508694876
 10
20.9888265363
 20
17.8187036086
  0
LWPOLYLINE
  5
629
100
AcDbEntity
  8
ASSI
100
AcDbPolyline
 62
7
  6
CONTINUOUS
 90
28
 70
0
 10
17.4291701407
 20
17.9006409238
 10
17.418679307
 20
17.9184623174
 10
17.4079155834
 20
17.9360657575
 10
17.3968789698
 20
17.953451244
 10
17.3855596721
 20
17.97063311
 10
17.3739674845
 20
17.9875970224
 10
17.3621317899
 20
18.0042999825
 10
17.3500519708
 20
18.0207413281
 10
17.3377286447
 20
18.0369217214
 10
17.325193048
 20
18.0528001495
 10
17.3124446421
 20
18.0683758463
 10
17.2994839656
 20
18.0836495779
 10
17.2863438702
 20
18.0985826296
 10
17.2730239007
 20
18.1131741371
 10
17.2595245123
 20
18.1274249647
 10
17.2458799222
 20
18.1412989904
 10
17.232089762
 20
18.1547952584
 10
17.2181544002
 20
18.1679147246
 10
17.204109159
 20
18.1806241347
 10
17.1899537597
 20
18.1929224484
 10
17.175688481
 20
18.2048107061
 10
17.1613494815
 20
18.2162587742
 10
17.1469365741
 20
18.2272655361
 10
17.132449946
 20
18.2378321085
 10
17.1179263166
 20
18.247931708
 10
17.1033779258
 20
18.2575554068
 10
17.0887925339
 20
18.2667121328
 10
17.0741701407
 20
18.2754018859
  0
LINE
  5
62A
100
AcDbEntity
  8
ASSI
100
AcDbLine
 62
7
  6
CONTINUOUS
 10
17.4291701407
 20
17.9006409238
 11
17.9836066488
 21
16.9403287231
  0
LINE
  5
62B
100
AcDbEntity
  8
RACCORDO
100
AcDbLine
 62
7
  6
CONTINUOUS
 10
17.9393438826
 20
17.0906143401
 11
17.5371851398
 21
17.7871737146
  0
LINE
  5
62C
100
AcDbEntity
  8
ASSI
100
AcDbLine
 62
7
  6
CONTINUOUS
 10
17.9393438826
 20
17.0906143401
 11
17.5371851398
 21
17.7871737146
  0
LINE
  5
62D
100
AcDbEntity
  8
RACCORDO
100
AcDbLine
 62
7
  6
CONTINUOUS
 10
25.564529907
 20
20.6334235583
 11
25.564529907
 21
20.5181180415
  0
LINE
  5
62E
100
AcDbEntity
  8
ASSI
100
AcDbLine
 62
7
  6
CONTINUOUS
 10
25.564529907
 20
20.6334235583
 11
25.564529907
 21
20.5181180415
  0
LINE
  5
62F
100
AcDbEntity
  8
RACCORDO
100
AcDbLine
 62
7
  6
CONTINUOUS
 10
25.564529907
 20
16.5174136852
 11
25.564529907
 21
16.4357666575
  0
LINE
  5
630
100
AcDbEntity
  8
ASSI
100
AcDbLine
 62
7
  6
CONTINUOUS
 10
25.564529907
 20
16.5174136852
 11
25.564529907
 21
16.4357666575
  0
LINE
  5
631
100
AcDbEntity
  8
RACCORDO
100
AcDbLine
 62
7
  6
CONTINUOUS
 10
25.564529907
 20
12.4350623012
 11
25.564529907
 21
12.3534152735
  0
LINE
  5
632
100
AcDbEntity
  8
ASSI
100
AcDbLine
 62
7
  6
CONTINUOUS
 10
25.564529907
 20
12.4350623012
 11
25.564529907
 21
12.3534152735
  0
LINE
  5
633
100
AcDbEntity
  8
RACCORDO
100
AcDbLine
 62
7
  6
CONTINUOUS
 10
25.564529907
 20
8.3527109173
 11
25.564529907
 21
8.2710638896
  0
LINE
  5
634
100
AcDbEntity
  8
ASSI
100
AcDbLine
 62
7
  6
CONTINUOUS
 10
25.564529907
 20
8.3527109173
 11
25.564529907
 21
8.2710638896
  0
LINE
  5
635
100
AcDbEntity
  8
RACCORDO
100
AcDbLine
 62
7
  6
CONTINUOUS
 10
25.564529907
 20
4.2703595333
 11
25.564529907
 21
-6.4590595819
  0
LINE
  5
636
100
AcDbEntity
  8
ASSI
100
AcDbLine
 62
7
  6
CONTINUOUS
 10
25.564529907
 20
4.2703595333
 11
25.564529907
 21
-6.4590595819
  0
LWPOLYLINE
  5
637
100
AcDbEntity
  8
ASSI
100
AcDbPolyline
 62
253
  6
CONTINUOUS
 90
13
 70
0
 10
-5.7297452551
 20
-30.3789074183
 10
-5.7494786522
 20
-30.3885672292
 10
-5.7712065572
 20
-30.3966754647
 10
-5.7945654048
 20
-30.4030964517
 10
-5.8191643394
 20
-30.4077227493
 10
-5.8445917552
 20
-30.4104769466
 10
-5.8704221838
 20
-30.4113129578
 10
-5.8962234126
 20
-30.4102167934
 10
-5.9215637176
 20
-30.4072067946
 10
-5.9460190864
 20
-30.4023333263
 10
-5.9691803144
 20
-30.3956779341
 10
-5.9906598511
 20
-30.3873519802
 10
-6.0100982854
 20
-30.3774947799
  0
LWPOLYLINE
  5
638
100
AcDbEntity
  8
ASSI
100
AcDbPolyline
 62
7
  6
CONTINUOUS
 90
28
 70
0
 10
3.6307856002
 20
27.1805020219
 10
3.616163207
 20
27.1886978419
 10
3.601577815
 20
27.196383961
 10
3.5870294243
 20
27.2035603792
 10
3.5725057949
 20
27.2102323028
 10
3.5580191667
 20
27.2163945256
 10
3.5436062593
 20
27.2220314278
 10
3.5292672598
 20
27.2271416769
 10
3.5150019811
 20
27.2317266055
 10
3.5008465818
 20
27.235774592
 10
3.4868013406
 20
27.2392842744
 10
3.4728659788
 20
27.2422570148
 10
3.4590758187
 20
27.244685278
 10
3.4454312286
 20
27.2465676829
 10
3.4319318402
 20
27.2479056107
 10
3.4186118707
 20
27.2486956701
 10
3.4054717752
 20
27.2489364713
 10
3.3925110987
 20
27.2486294041
 10
3.3797626928
 20
27.2477752468
 10
3.3672270961
 20
27.2463726116
 10
3.3549037701
 20
27.2444228863
 10
3.3428239509
 20
27.241931013
 10
3.3309882564
 20
27.2388956163
 10
3.3193960687
 20
27.2353180716
 10
3.308076771
 20
27.231207447
 10
3.2970401575
 20
27.2265667651
 10
3.2862764339
 20
27.2213930032
 10
3.2757856002
 20
27.2156861614
  0
LINE
  5
639
100
AcDbEntity
  8
ASSI
100
AcDbLine
 62
7
  6
CONTINUOUS
 10
3.6307856002
 20
27.1805020219
 11
6.3148981498
 21
25.6307290755
  0
LINE
  5
63A
100
AcDbEntity
  8
RACCORDO
100
AcDbLine
 62
7
  6
CONTINUOUS
 10
3.8091729188
 20
27.0957438079
 11
7.8618057446
 21
24.7558044057
  0
LINE
  5
63B
100
AcDbEntity
  8
ASSI
100
AcDbLine
 62
7
  6
CONTINUOUS
 10
3.8091729188
 20
27.0957438079
 11
7.8618057446
 21
24.7558044057
  0
LINE
  5
63C
100
AcDbEntity
  8
RACCORDO
100
AcDbLine
 62
7
  6
CONTINUOUS
 10
25.352389795
 20
16.8848418102
 11
24.7067455285
 21
17.2576287178
  0
LINE
  5
63D
100
AcDbEntity
  8
ASSI
100
AcDbLine
 62
7
  6
CONTINUOUS
 10
25.352389795
 20
16.8848418102
 11
24.7067455285
 21
17.2576287178
  0
LINE
  5
63E
100
AcDbEntity
  8
RACCORDO
100
AcDbLine
 62
7
  6
CONTINUOUS
 10
24.4176975228
 20
22.6197955136
 11
20.8269063957
 21
24.6930733071
  0
LINE
  5
63F
100
AcDbEntity
  8
ASSI
100
AcDbLine
 62
7
  6
CONTINUOUS
 10
24.4176975228
 20
22.6197955136
 11
20.8269063957
 21
24.6930733071
  0
LINE
  5
640
100
AcDbEntity
  8
RACCORDO
100
AcDbLine
 62
7
  6
CONTINUOUS
 10
11.136500623
 20
31.4312505385
 11
20.4026584817
 21
26.0810871231
  0
LINE
  5
641
100
AcDbEntity
  8
ASSI
100
AcDbLine
 62
7
  6
CONTINUOUS
 10
11.136500623
 20
31.4312505385
 11
20.4026584817
 21
26.0810871231
  0
LINE
  5
642
100
AcDbEntity
  8
RACCORDO
100
AcDbLine
 62
7
  6
CONTINUOUS
 10
25.3574310118
 20
21.3303095512
 11
24.9176784843
 21
22.0919832709
  0
LINE
  5
643
100
AcDbEntity
  8
ASSI
100
AcDbLine
 62
7
  6
CONTINUOUS
 10
25.3574310118
 20
21.3303095512
 11
24.9176784843
 21
22.0919832709
  0
ELLIPSE
  5
644
100
AcDbEntity
  8
RACCORDO
100
AcDbEllipse
 62
7
  6
CONTINUOUS
 10
20.4026423267
 20
25.8361460408
 30
0.0
 11
-0.1500072497
 21
0.2598034354
 31
0.0
 40
0.5773756362
 41
-2.3562047428
 42
-0.7854845684
  0
ELLIPSE
  5
645
100
AcDbEntity
  8
RACCORDO
100
AcDbEllipse
 62
7
  6
CONTINUOUS
 10
11.1365229284
 20
30.614736293
 30
0.0
 11
-0.5000195414
 21
0.8660580892
 31
0.0
 40
0.5773134593
 41
-0.7853991688
 42
-0.0000325492
  0
ELLIPSE
  5
646
100
AcDbEntity
  8
RACCORDO
100
AcDbEllipse
 62
7
  6
CONTINUOUS
 10
24.8573962004
 20
-6.0507436869
 30
0.0
 11
-0.5000668544
 21
0.8660307748
 31
0.0
 40
0.5773134558
 41
-3.1416567412
 42
-2.3562901216
  0
ELLIPSE
  5
647
100
AcDbEntity
  8
RACCORDO
100
AcDbEllipse
 62
7
  6
CONTINUOUS
 10
25.352389795
 20
4.3928465752
 30
0.0
 11
-0.1500186713
 21
0.2598034368
 31
0.0
 40
0.5773316664
 41
-2.3562808875
 42
-0.7854845607
  0
ELLIPSE
  5
648
100
AcDbEntity
  8
RACCORDO
100
AcDbEllipse
 62
7
  6
CONTINUOUS
 10
25.352389795
 20
8.3935509315
 30
0.0
 11
-0.1500186713
 21
0.2598034368
 31
0.0
 40
0.5773316664
 41
-3.1459423927
 42
-2.3562808875
  0
ELLIPSE
  5
649
100
AcDbEntity
  8
RACCORDO
100
AcDbEllipse
 62
7
  6
CONTINUOUS
 10
25.352389795
 20
8.4751979592
 30
0.0
 11
-0.1500186713
 21
0.2598034368
 31
0.0
 40
0.5773316664
 41
-2.3562808875
 42
-0.7854845607
  0
ELLIPSE
  5
64A
100
AcDbEntity
  8
RACCORDO
100
AcDbEllipse
 62
7
  6
CONTINUOUS
 10
25.352389795
 20
12.4759023155
 30
0.0
 11
-0.1500186713
 21
0.2598034368
 31
0.0
 40
0.5773316664
 41
-3.1459423927
 42
-2.3562808875
  0
ELLIPSE
  5
64B
100
AcDbEntity
  8
RACCORDO
100
AcDbEllipse
 62
7
  6
CONTINUOUS
 10
25.352389795
 20
12.5575493431
 30
0.0
 11
-0.1500186713
 21
0.2598034368
 31
0.0
 40
0.5773316664
 41
-2.3562808875
 42
-0.7854845607
  0
ELLIPSE
  5
64C
100
AcDbEntity
  8
RACCORDO
100
AcDbEllipse
 62
7
  6
CONTINUOUS
 10
25.352389795
 20
16.5582536994
 30
0.0
 11
-0.1500186713
 21
0.2598034368
 31
0.0
 40
0.5773316664
 41
-3.1459423927
 42
-2.3562808875
  0
ELLIPSE
  5
64D
100
AcDbEntity
  8
RACCORDO
100
AcDbEllipse
 62
7
  6
CONTINUOUS
 10
25.352389795
 20
16.6399007271
 30
0.0
 11
-0.1500186713
 21
0.2598034368
 31
0.0
 40
0.5773316664
 41
-2.3562808875
 42
-0.7854845607
  0
ELLIPSE
  5
64E
100
AcDbEntity
  8
RACCORDO
100
AcDbEllipse
 62
7
  6
CONTINUOUS
 10
25.352389795
 20
20.6406050834
 30
0.0
 11
-0.1500186713
 21
0.2598034368
 31
0.0
 40
0.5773316664
 41
-3.1459423927
 42
-2.3562808875
  0
ELLIPSE
  5
64F
100
AcDbEntity
  8
RACCORDO
100
AcDbEllipse
 62
7
  6
CONTINUOUS
 10
24.8573962004
 20
21.0416879429
 30
0.0
 11
-0.500051088
 21
0.8660034525
 31
0.0
 40
0.5773498789
 41
-2.3562585873
 42
-1.5708919678
  0
ELLIPSE
  5
650
100
AcDbEntity
  8
RACCORDO
100
AcDbEllipse
 62
7
  6
CONTINUOUS
 10
24.4176752174
 20
21.8033070258
 30
0.0
 11
-0.5000037704
 21
0.8660307695
 31
0.0
 40
0.5773498824
 41
-1.5707973348
 42
-0.7854307152
  0
ELLIPSE
  5
651
100
AcDbEntity
  8
DRAFT
100
AcDbEllipse
 62
7
  6
CONTINUOUS
 10
20.3166395762
 20
4.1973454003
 30
0.0
 11
1.0610913518
 21
1.8699624759
 31
0.0
 40
0.5722717666
 41
-2.8628032189
 42
-2.3604340017
  0
ELLIPSE
  5
652
100
AcDbEntity
  8
DRAFT
100
AcDbEllipse
 62
7
  6
CONTINUOUS
 10
20.3166395762
 20
16.4443995522
 30
0.0
 11
1.0610913518
 21
1.8699624759
 31
0.0
 40
0.5722717666
 41
-2.8628032189
 42
-2.3604340017
  0
ELLIPSE
  5
653
100
AcDbEntity
  8
DRAFT
100
AcDbEllipse
 62
7
  6
CONTINUOUS
 10
20.3166395762
 20
12.3620481683
 30
0.0
 11
1.0610913518
 21
1.8699624759
 31
0.0
 40
0.5722717666
 41
-2.8628032189
 42
-2.3604340017
  0
ELLIPSE
  5
654
100
AcDbEntity
  8
DRAFT
100
AcDbEllipse
 62
7
  6
CONTINUOUS
 10
20.3166395762
 20
8.2796967843
 30
0.0
 11
1.0610913518
 21
1.8699624759
 31
0.0
 40
0.5722717666
 41
-2.8628032189
 42
-2.3604340017
  0
ELLIPSE
  5
655
100
AcDbEntity
  8
RACCORDO
100
AcDbEllipse
 62
7
  6
CONTINUOUS
 10
20.8269225507
 20
24.9380143895
 30
0.0
 11
-0.1500072497
 21
0.2598034354
 31
0.0
 40
0.5773756362
 41
0.7853879108
 42
2.3561080852
  0
ELLIPSE
  5
656
100
AcDbEntity
  8
RACCORDO
100
AcDbEllipse
 62
7
  6
CONTINUOUS
 10
7.8618218996
 20
24.510844668
 30
0.0
 11
-0.1500186702
 21
0.2598232227
 31
0.0
 40
0.5772877058
 41
-0.7854084013
 42
0.0088311374
  0
ELLIPSE
  5
657
100
AcDbEntity
  8
RACCORDO
100
AcDbEllipse
 62
7
  6
CONTINUOUS
 10
23.7874797875
 20
-6.6533840901
 30
0.0
 11
-0.5000668544
 21
0.8660307748
 31
0.0
 40
0.5773134558
 41
-2.4217560886
 42
-2.3562901216
  0
ELLIPSE
  5
658
100
AcDbEntity
  8
RACCORDO
100
AcDbEllipse
 62
7
  6
CONTINUOUS
 10
3.8091952242
 20
26.2792295624
 30
0.0
 11
-0.5000195414
 21
0.8660580892
 31
0.0
 40
0.5773134593
 41
5.4977861384
 42
5.707770874
  0
ELLIPSE
  5
659
100
AcDbEntity
  8
RACCORDO
100
AcDbEllipse
 62
7
  6
CONTINUOUS
 10
17.0371818729
 20
17.4984974695
 30
0.0
 11
-0.5000037704
 21
0.8660307695
 31
0.0
 40
0.5773498824
 41
4.7123879724
 42
5.4977545919
  0
ELLIPSE
  5
65A
100
AcDbEntity
  8
RACCORDO
100
AcDbEllipse
 62
7
  6
CONTINUOUS
 10
17.4393090711
 20
16.8019927318
 30
0.0
 11
-0.500051088
 21
0.8660034525
 31
0.0
 40
0.5773498789
 41
3.9269267198
 42
4.7122933394
  0
ELLIPSE
  5
65B
100
AcDbEntity
  8
RACCORDO
100
AcDbEllipse
 62
7
  6
CONTINUOUS
 10
13.4088354215
 20
20.6549110133
 30
0.0
 11
-0.1500072497
 21
0.2598034354
 31
0.0
 40
0.5773756362
 41
0.7853879108
 42
2.3561080852
  0
ELLIPSE
  5
65C
100
AcDbEntity
  8
RACCORDO
100
AcDbEllipse
 62
7
  6
CONTINUOUS
 10
18.5030815821
 20
-0.5935794431
 30
0.0
 11
0.2533110813
 21
0.431095234
 31
0.0
 40
0.5823475934
 41
2.3606829537
 42
3.9314792805
  0
ELLIPSE
  5
65D
100
AcDbEntity
  8
ASSI
100
AcDbEllipse
 62
7
  6
CONTINUOUS
 10
20.4026423267
 20
25.8361460408
 30
0.0
 11
-0.1500072497
 21
0.2598034354
 31
0.0
 40
0.5773756362
 41
-2.3562047428
 42
-0.7854845684
  0
ELLIPSE
  5
65E
100
AcDbEntity
  8
ASSI
100
AcDbEllipse
 62
7
  6
CONTINUOUS
 10
11.1365229284
 20
30.614736293
 30
0.0
 11
-0.5000195414
 21
0.8660580892
 31
0.0
 40
0.5773134593
 41
-0.7853991688
 42
-0.0000325492
  0
ELLIPSE
  5
65F
100
AcDbEntity
  8
ASSI
100
AcDbEllipse
 62
7
  6
CONTINUOUS
 10
24.8573962004
 20
-6.0507436869
 30
0.0
 11
-0.5000668544
 21
0.8660307748
 31
0.0
 40
0.5773134558
 41
-3.1416567412
 42
-2.3562901216
  0
ELLIPSE
  5
660
100
AcDbEntity
  8
ASSI
100
AcDbEllipse
 62
7
  6
CONTINUOUS
 10
25.352389795
 20
4.3928465752
 30
0.0
 11
-0.1500186713
 21
0.2598034368
 31
0.0
 40
0.5773316664
 41
-2.3562808875
 42
-0.7854845607
  0
ELLIPSE
  5
661
100
AcDbEntity
  8
ASSI
100
AcDbEllipse
 62
7
  6
CONTINUOUS
 10
25.352389795
 20
8.3935509315
 30
0.0
 11
-0.1500186713
 21
0.2598034368
 31
0.0
 40
0.5773316664
 41
-3.1459423927
 42
-2.3562808875
  0
ELLIPSE
  5
662
100
AcDbEntity
  8
ASSI
100
AcDbEllipse
 62
7
  6
CONTINUOUS
 10
25.352389795
 20
8.4751979592
 30
0.0
 11
-0.1500186713
 21
0.2598034368
 31
0.0
 40
0.5773316664
 41
-2.3562808875
 42
-0.7854845607
  0
ELLIPSE
  5
663
100
AcDbEntity
  8
ASSI
100
AcDbEllipse
 62
7
  6
CONTINUOUS
 10
25.352389795
 20
12.4759023155
 30
0.0
 11
-0.1500186713
 21
0.2598034368
 31
0.0
 40
0.5773316664
 41
-3.1459423927
 42
-2.3562808875
  0
ELLIPSE
  5
664
100
AcDbEntity
  8
ASSI
100
AcDbEllipse
 62
7
  6
CONTINUOUS
 10
25.352389795
 20
12.5575493431
 30
0.0
 11
-0.1500186713
 21
0.2598034368
 31
0.0
 40
0.5773316664
 41
-2.3562808875
 42
-0.7854845607
  0
ELLIPSE
  5
665
100
AcDbEntity
  8
ASSI
100
AcDbEllipse
 62
7
  6
CONTINUOUS
 10
25.352389795
 20
16.5582536994
 30
0.0
 11
-0.1500186713
 21
0.2598034368
 31
0.0
 40
0.5773316664
 41
-3.1459423927
 42
-2.3562808875
  0
ELLIPSE
  5
666
100
AcDbEntity
  8
ASSI
100
AcDbEllipse
 62
7
  6
CONTINUOUS
 10
25.352389795
 20
16.6399007271
 30
0.0
 11
-0.1500186713
 21
0.2598034368
 31
0.0
 40
0.5773316664
 41
-2.3562808875
 42
-0.7854845607
  0
ELLIPSE
  5
667
100
AcDbEntity
  8
ASSI
100
AcDbEllipse
 62
7
  6
CONTINUOUS
 10
25.352389795
 20
20.6406050834
 30
0.0
 11
-0.1500186713
 21
0.2598034368
 31
0.0
 40
0.5773316664
 41
-3.1459423927
 42
-2.3562808875
  0
ELLIPSE
  5
668
100
AcDbEntity
  8
ASSI
100
AcDbEllipse
 62
7
  6
CONTINUOUS
 10
24.8573962004
 20
21.0416879429
 30
0.0
 11
-0.500051088
 21
0.8660034525
 31
0.0
 40
0.5773498789
 41
-2.3562585873
 42
-1.5708919678
  0
ELLIPSE
  5
669
100
AcDbEntity
  8
ASSI
100
AcDbEllipse
 62
7
  6
CONTINUOUS
 10
24.4176752174
 20
21.8033070258
 30
0.0
 11
-0.5000037704
 21
0.8660307695
 31
0.0
 40
0.5773498824
 41
-1.5707973348
 42
-0.7854307152
  0
ELLIPSE
  5
66A
100
AcDbEntity
  8
ASSI
100
AcDbEllipse
 62
7
  6
CONTINUOUS
 10
20.8269225507
 20
24.9380143895
 30
0.0
 11
-0.1500072497
 21
0.2598034354
 31
0.0
 40
0.5773756362
 41
0.7853879108
 42
2.3561080852
  0
ELLIPSE
  5
66B
100
AcDbEntity
  8
ASSI
100
AcDbEllipse
 62
7
  6
CONTINUOUS
 10
20.3166395762
 20
8.2796967843
 30
0.0
 11
1.0610913518
 21
1.8699624759
 31
0.0
 40
0.5722717666
 41
-2.8628032189
 42
-2.3604340017
  0
ELLIPSE
  5
66C
100
AcDbEntity
  8
ASSI
100
AcDbEllipse
 62
7
  6
CONTINUOUS
 10
20.3166395762
 20
12.3620481683
 30
0.0
 11
1.0610913518
 21
1.8699624759
 31
0.0
 40
0.5722717666
 41
-2.8628032189
 42
-2.3604340017
  0
ELLIPSE
  5
66D
100
AcDbEntity
  8
ASSI
100
AcDbEllipse
 62
7
  6
CONTINUOUS
 10
20.3166395762
 20
16.4443995522
 30
0.0
 11
1.0610913518
 21
1.8699624759
 31
0.0
 40
0.5722717666
 41
-2.8628032189
 42
-2.3604340017
  0
ELLIPSE
  5
66E
100
AcDbEntity
  8
ASSI
100
AcDbEllipse
 62
7
  6
CONTINUOUS
 10
20.3166395762
 20
4.1973454003
 30
0.0
 11
1.0610913518
 21
1.8699624759
 31
0.0
 40
0.5722717666
 41
-2.8628032189
 42
-2.3604340017
  0
ELLIPSE
  5
66F
100
AcDbEntity
  8
ASSI
100
AcDbEllipse
 62
7
  6
CONTINUOUS
 10
13.4088354215
 20
20.6549110133
 30
0.0
 11
-0.1500072497
 21
0.2598034354
 31
0.0
 40
0.5773756362
 41
0.7853879108
 42
2.3561080852
  0
ELLIPSE
  5
670
100
AcDbEntity
  8
ASSI
100
AcDbEllipse
 62
7
  6
CONTINUOUS
 10
3.8091952242
 20
26.2792295624
 30
0.0
 11
-0.5000195414
 21
0.8660580892
 31
0.0
 40
0.5773134593
 41
5.4977861384
 42
5.707770874
  0
ELLIPSE
  5
671
100
AcDbEntity
  8
ASSI
100
AcDbEllipse
 62
7
  6
CONTINUOUS
 10
17.0371818729
 20
17.4984974695
 30
0.0
 11
-0.5000037704
 21
0.8660307695
 31
0.0
 40
0.5773498824
 41
4.7123879724
 42
5.4977545919
  0
ELLIPSE
  5
672
100
AcDbEntity
  8
ASSI
100
AcDbEllipse
 62
7
  6
CONTINUOUS
 10
17.4393090711
 20
16.8019927318
 30
0.0
 11
-0.500051088
 21
0.8660034525
 31
0.0
 40
0.5773498789
 41
3.9269267198
 42
4.7122933394
  0
ELLIPSE
  5
673
100
AcDbEntity
  8
ASSI
100
AcDbEllipse
 62
7
  6
CONTINUOUS
 10
7.8618218996
 20
24.510844668
 30
0.0
 11
-0.1500186702
 21
0.2598232227
 31
0.0
 40
0.5772877058
 41
-0.7854084013
 42
0.0088311374
  0
ELLIPSE
  5
674
100
AcDbEntity
  8
ASSI
100
AcDbEllipse
 62
7
  6
CONTINUOUS
 10
18.5030815821
 20
-0.5935794431
 30
0.0
 11
0.2533110813
 21
0.431095234
 31
0.0
 40
0.5823475934
 41
2.3606829537
 42
3.9314792805
  0
ELLIPSE
  5
675
100
AcDbEntity
  8
ASSI
100
AcDbEllipse
 62
7
  6
CONTINUOUS
 10
23.7874797875
 20
-6.6533840901
 30
0.0
 11
-0.5000668544
 21
0.8660307748
 31
0.0
 40
0.5773134558
 41
-2.4217560886
 42
-2.3562901216
  0
ELLIPSE
  5
676
100
AcDbEntity
  8
RACCORDO
100
AcDbEllipse
 62
7
  6
CONTINUOUS
 10
0.4724353632
 20
-20.1662435442
 30
0.0
 11
-1.000389877
 21
1.7321775001
 31
0.0
 40
0.5772588101
 41
-3.1289935798
 42
-2.3564320312
  0
ELLIPSE
  5
677
100
AcDbEntity
  8
RACCORDO
100
AcDbEllipse
 62
7
  6
CONTINUOUS
 10
0.4724353632
 20
8.6075338384
 30
0.0
 11
-1.0002637881
 21
1.7319588718
 31
0.0
 40
0.5774045053
 41
-2.3563059395
 42
-1.5710339479
  0
ELLIPSE
  5
678
100
AcDbEntity
  8
RACCORDO
100
AcDbEllipse
 62
7
  6
CONTINUOUS
 10
-4.3909139417
 20
-23.1153731872
 30
0.0
 11
-1.000389877
 21
1.7321775001
 31
0.0
 40
0.5772588101
 41
-2.5050593839
 42
-2.3564320312
  0
ELLIPSE
  5
679
100
AcDbEntity
  8
RACCORDO
100
AcDbEllipse
 62
7
  6
CONTINUOUS
 10
-4.3909139417
 20
5.7410487413
 30
0.0
 11
-1.0002637881
 21
1.7319588718
 31
0.0
 40
0.5774045053
 41
-2.3563059395
 42
-2.2076785868
  0
ELLIPSE
  5
67A
100
AcDbEntity
  8
0
100
AcDbEllipse
 62
7
  6
CONTINUOUS
 10
-5.8403886142
 20
-28.4813412033
 30
0.0
 11
-0.2500125069
 21
0.433896272
 31
0.0
 40
0.5765407173
 41
-3.1811386594
 42
-2.3559018685
  0
ELLIPSE
  5
67B
100
AcDbEntity
  8
0
100
AcDbEllipse
 62
7
  6
CONTINUOUS
 10
-5.8403886142
 20
7.0649894702
 30
0.0
 11
-0.2496682101
 21
0.4333034053
 31
0.0
 40
0.578122598
 41
-2.3545265006
 42
-0.7851001699
  0
ELLIPSE
  5
67C
100
AcDbEntity
  8
0
100
AcDbEllipse
 62
7
  6
CONTINUOUS
 10
-4.9649024297
 20
-20.37248872
 30
0.0
 11
0.9999591619
 21
0.0153860996
 31
0.0
 40
0.5873737521
 41
-0.6897159224
 42
-0.0091799745
  0
ELLIPSE
  5
67D
100
AcDbEntity
  8
0
100
AcDbEllipse
 62
7
  6
CONTINUOUS
 10
-4.9649024297
 20
-2.2468485752
 30
0.0
 11
0.9999591619
 21
0.0153860996
 31
0.0
 40
0.5873737521
 41
-0.6897159224
 42
-0.0091799745
  0
ELLIPSE
  5
67E
100
AcDbEntity
  8
0
100
AcDbEllipse
 62
7
  6
CONTINUOUS
 10
-20.8308099845
 20
15.7202708953
 30
0.0
 11
-0.2500125069
 21
0.433896272
 31
0.0
 40
0.5765407173
 41
-0.7837355456
 42
0.0395143883
  0
ELLIPSE
  5
67F
100
AcDbEntity
  8
RACCORDO
100
AcDbEllipse
 62
7
  6
CONTINUOUS
 10
-4.9649024297
 20
-2.2468485752
 30
0.0
 11
0.9999591619
 21
0.0153860996
 31
0.0
 40
0.5873737521
 41
-0.6897159224
 42
-0.0091799745
  0
ELLIPSE
  5
680
100
AcDbEntity
  8
RACCORDO
100
AcDbEllipse
 62
7
  6
CONTINUOUS
 10
-4.9649024297
 20
-20.37248872
 30
0.0
 11
0.9999591619
 21
0.0153860996
 31
0.0
 40
0.5873737521
 41
-0.6897159224
 42
-0.0091799745
  0
ELLIPSE
  5
681
100
AcDbEntity
  8
RACCORDO
100
AcDbEllipse
 62
7
  6
CONTINUOUS
 10
-20.8308099845
 20
15.7202708953
 30
0.0
 11
-0.2500125069
 21
0.433896272
 31
0.0
 40
0.5765407173
 41
-0.7837355456
 42
0.0395143883
  0
ELLIPSE
  5
682
100
AcDbEntity
  8
RACCORDO
100
AcDbEllipse
 62
7
  6
CONTINUOUS
 10
-5.8403886142
 20
7.0649894702
 30
0.0
 11
-0.2496682101
 21
0.4333034053
 31
0.0
 40
0.578122598
 41
-2.3545265006
 42
-0.7851001699
  0
ELLIPSE
  5
683
100
AcDbEntity
  8
RACCORDO
100
AcDbEllipse
 62
7
  6
CONTINUOUS
 10
-5.8403886142
 20
-28.4813412033
 30
0.0
 11
-0.2500125069
 21
0.433896272
 31
0.0
 40
0.5765407173
 41
-3.1811386594
 42
-2.3559018685
  0
ELLIPSE
  5
684
100
AcDbEntity
  8
RACCORDO
100
AcDbEllipse
 62
7
  6
CONTINUOUS
 10
-11.6155572082
 20
14.8611426924
 30
0.0
 11
-0.1250060456
 21
0.2165028604
 31
0.0
 40
0.5775075436
 41
-2.3560905478
 42
-0.7855988075
  0
ELLIPSE
  5
685
100
AcDbEntity
  8
ASSI
100
AcDbEllipse
 62
7
  6
CONTINUOUS
 10
-3.3777901355
 20
8.5942581232
 30
0.0
 11
-0.2500120911
 21
0.4330057209
 31
0.0
 40
0.5775075436
 41
-2.3560905478
 42
-0.7855988075
  0
ELLIPSE
  5
686
100
AcDbEntity
  8
ASSI
100
AcDbEllipse
 62
7
  6
CONTINUOUS
 10
-3.3777901355
 20
-27.1385125457
 30
0.0
 11
-0.2500882309
 21
0.4331376414
 31
0.0
 40
0.5771558487
 41
-3.1240022405
 42
-2.3563950755
  0
ELLIPSE
  5
687
100
AcDbEntity
  8
ASSI
100
AcDbEllipse
 62
7
  6
CONTINUOUS
 10
-2.3348395831
 20
14.804453026
 30
0.0
 11
0.5128726375
 21
0.8585519094
 31
0.0
 40
0.5671684152
 41
0.008339811
 42
0.7764196459
  0
ELLIPSE
  5
688
100
AcDbEntity
  8
RACCORDO
100
AcDbEllipse
 62
7
  6
CONTINUOUS
 10
-10.1058939221
 20
13.9894820315
 30
0.0
 11
-0.1250441155
 21
0.2165688207
 31
0.0
 40
0.5771558487
 41
-0.7852941622
 42
-0.0175896421
  0
ELLIPSE
  5
689
100
AcDbEntity
  8
ASSI
100
AcDbEllipse
 62
7
  6
CONTINUOUS
 10
1.2134404625
 20
-21.9039276721
 30
0.0
 11
0.487138911
 21
0.8734102324
 31
0.0
 40
0.5671693725
 41
-1.0266897014
 42
-0.7937771377
  0
ELLIPSE
  5
68A
100
AcDbEntity
  8
ASSI
100
AcDbEllipse
 62
7
  6
CONTINUOUS
 10
1.2134404625
 20
12.7557205981
 30
0.0
 11
0.487138911
 21
0.8734102324
 31
0.0
 40
0.5671693725
 41
-0.7937771377
 42
-0.560864574
  0
ELLIPSE
  5
68B
100
AcDbEntity
  8
ASSI
100
AcDbEllipse
 62
7
  6
CONTINUOUS
 10
-10.3666604613
 20
19.4419257388
 30
0.0
 11
1.0061852078
 21
0.5737549327
 31
0.0
 40
0.0052693892
 41
0.0039615138
 42
0.7710730318
  0
ELLIPSE
  5
68C
100
AcDbEntity
  8
ASSI
100
AcDbEllipse
 62
7
  6
CONTINUOUS
 10
1.3731313923
 20
12.6635170566
 30
0.0
 11
-0.7006352283
 21
1.22850495
 31
0.0
 40
0.5737642108
 41
4.9545251285
 42
6.2749555991
  0
ELLIPSE
  5
68D
100
AcDbEntity
  8
ASSI
100
AcDbEllipse
 62
7
  6
CONTINUOUS
 10
-6.6586894859
 20
17.3009897694
 30
0.0
 11
0.4866805192
 21
0.8736687671
 31
0.0
 40
0.5873189458
 41
5.4887996827
 42
7.042142717
  0
ELLIPSE
  5
68E
100
AcDbEntity
  8
ASSI
100
AcDbEllipse
 62
7
  6
CONTINUOUS
 10
7.6609879436
 20
21.381020051
 30
0.0
 11
18.2927094962
 21
10.9406087409
 31
0.0
 40
0.0150339
 41
-2.6538069639
 42
-2.3143191004
  0
ELLIPSE
  5
68F
100
AcDbEntity
  8
ASSI
100
AcDbEllipse
 62
7
  6
CONTINUOUS
 10
7.6609879436
 20
21.381020051
 30
0.0
 11
18.2927094962
 21
10.9406087409
 31
0.0
 40
0.0150339
 41
2.2963364625
 42
2.635824326
  0
ELLIPSE
  5
690
100
AcDbEntity
  8
RACCORDO
100
AcDbEllipse
 62
7
  6
CONTINUOUS
 10
-20.7845193777
 20
15.6935432791
 30
0.0
 11
-0.2500125069
 21
0.433896272
 31
0.0
 40
0.5765407173
 41
-0.7837355456
 42
-0.5730220933
  0
ELLIPSE
  5
691
100
AcDbEntity
  8
RACCORDO
100
AcDbEllipse
 62
7
  6
CONTINUOUS
 10
-5.886679221
 20
7.0917170864
 30
0.0
 11
-0.2496682101
 21
0.4333034053
 31
0.0
 40
0.578122598
 41
-0.8915759934
 42
-0.7851001699
  0
ELLIPSE
  5
692
100
AcDbEntity
  8
ASSI
100
AcDbEllipse
 62
7
  6
CONTINUOUS
 10
-5.1486158091
 20
-28.8480192233
 30
0.0
 11
0.2107210073
 21
0.1927502658
 31
0.0
 40
0.6979176686
 41
-2.9243701816
 42
-2.7333353891
  0
ELLIPSE
  5
693
100
AcDbEntity
  8
0
100
AcDbEllipse
 62
7
  6
CONTINUOUS
 10
-7.1683151315
 20
9.3146862026
 30
0.0
 11
0.249894357
 21
0.0119767658
 31
0.0
 40
0.6067642562
 41
3.1127345387
 42
3.8979184282
  0
ELLIPSE
  5
694
100
AcDbEntity
  8
0
100
AcDbEllipse
 62
7
  6
CONTINUOUS
 10
-17.7351165142
 20
15.4158248879
 30
0.0
 11
0.249894357
 21
0.0119767658
 31
0.0
 40
0.6067642562
 41
-2.385266879
 42
-0.8319238447
  0
ELLIPSE
  5
695
100
AcDbEntity
  8
0
100
AcDbEllipse
 62
7
  6
CONTINUOUS
 10
-19.5488550996
 20
15.6037162349
 30
0.0
 11
0.249894357
 21
0.0119767658
 31
0.0
 40
0.6067642562
 41
3.1127345387
 42
3.8979184282
  0
ELLIPSE
  5
696
100
AcDbEntity
  8
0
100
AcDbEllipse
 62
7
  6
CONTINUOUS
 10
-19.3552908135
 20
15.4919546421
 30
0.0
 11
0.249894357
 21
0.0119767658
 31
0.0
 40
0.6067642562
 41
-2.385266879
 42
-0.8319238447
  0
ELLIPSE
  5
697
100
AcDbEntity
  8
0
100
AcDbEllipse
 62
7
  6
CONTINUOUS
 10
-6.9623543945
 20
8.3364284737
 30
0.0
 11
0.249894357
 21
0.0119767658
 31
0.0
 40
0.6067642562
 41
3.1127345387
 42
3.8979184282
  0
ELLIPSE
  5
698
100
AcDbEntity
  8
0
100
AcDbEllipse
 62
7
  6
CONTINUOUS
 10
-6.7687901084
 20
8.2246668808
 30
0.0
 11
0.249894357
 21
0.0119767658
 31
0.0
 40
0.6067642562
 41
-2.385266879
 42
-0.8319238447
  0
ELLIPSE
  5
699
100
AcDbEntity
  8
RACCORDO
100
AcDbEllipse
 62
7
  6
CONTINUOUS
 10
-12.4901837386
 20
13.2468050184
 30
0.0
 11
0.249894357
 21
0.0119767658
 31
0.0
 40
0.6067642562
 41
-2.385266879
 42
-0.8319238447
  0
ELLIPSE
  5
69A
100
AcDbEntity
  8
RACCORDO
100
AcDbEllipse
 62
7
  6
CONTINUOUS
 10
-14.7113449459
 20
14.5292756618
 30
0.0
 11
0.249894357
 21
0.0119767658
 31
0.0
 40
0.6067642562
 41
3.112735078
 42
3.8979184282
  0
ELLIPSE
  5
69B
100
AcDbEntity
  8
RACCORDO
100
AcDbEllipse
 62
7
  6
CONTINUOUS
 10
-8.7778731374
 20
11.1033634035
 30
0.0
 11
0.249894357
 21
0.0119767658
 31
0.0
 40
0.6067642562
 41
-2.385266879
 42
-0.8319238447
  0
ELLIPSE
  5
69C
100
AcDbEntity
  8
RACCORDO
100
AcDbEllipse
 62
7
  6
CONTINUOUS
 10
-10.9990343447
 20
12.3858340468
 30
0.0
 11
0.249894357
 21
0.0119767658
 31
0.0
 40
0.6067642562
 41
3.112735078
 42
3.8979184282
  0
ELLIPSE
  5
69D
100
AcDbEntity
  8
RACCORDO
100
AcDbEllipse
 62
7
  6
CONTINUOUS
 10
-9.0222479341
 20
-10.5926583673
 30
0.0
 11
-0.7011221736
 21
47.1855905704
 31
0.0
 40
0.0151114175
 41
-0.9610747468
 42
-0.9487609068
  0
ELLIPSE
  5
69E
100
AcDbEntity
  8
RACCORDO
100
AcDbEllipse
 62
7
  6
CONTINUOUS
 10
-9.0222479341
 20
16.3533126278
 30
0.0
 11
0.9999644838
 21
-0.0148582918
 31
0.0
 40
0.5672251703
 41
1.4074335834
 42
2.3646225871
  0
ELLIPSE
  5
69F
100
AcDbEntity
  8
RACCORDO
100
AcDbEllipse
 62
7
  6
CONTINUOUS
 10
-4.8503179251
 20
13.5222247569
 30
0.0
 11
0.4263079419
 21
-0.0063344328
 31
0.0
 40
0.5672251703
 41
-0.759516774
 42
0.0083227552
  0
ELLIPSE
  5
6A0
100
AcDbEntity
  8
RACCORDO
100
AcDbEllipse
 62
7
  6
CONTINUOUS
 10
-10.4029772797
 20
16.7282606771
 30
0.0
 11
0.4263079419
 21
-0.0063344328
 31
0.0
 40
0.5672251703
 41
-0.7769700665
 42
0.0084653071
  0
ENDSEC
  0
SECTION
  2
OBJECTS
  0
DICTIONARY
  5
C
100
AcDbDictionary
280
0
281
1
  3
ACAD_GROUP
350
D
  3
ACAD_MLINESTYLE
350
17
  3
ACAD_LAYOUT
350
1A
  3
ACAD_PLOTSETTINGS
350
19
  3
ACAD_PLOTSTYLENAME
350
E
  0
DICTIONARY
  5
D
102
{ACAD_REACTORS
330
C
102
}
100
AcDbDictionary
280
0
281
1
  0
ACDBDICTIONARYWDFLT
  5
E
102
{ACAD_REACTORS
330
C
102
}
100
AcDbDictionary
281
1
  3
Normal
350
F
100
AcDbDictionaryWithDefault
340
F
  0
DICTIONARY
  5
17
102
{ACAD_REACTORS
330
C
102
}
100
AcDbDictionary
280
0
281
1
  3
Standard
350
18
  0
DICTIONARY
  5
19
102
{ACAD_REACTORS
330
C
102
}
100
AcDbDictionary
281
1
  0
DICTIONARY
  5
1A
102
{ACAD_REACTORS
330
C
102
}
100
AcDbDictionary
281
1
  3
Model
350
6A1
  3
Layout1
350
6A2
  0
ACDBPLACEHOLDER
  5
F
102
{ACAD_REACTORS
330
E
102
}
  0
MLINESTYLE
  5
18
102
{ACAD_REACTORS
330
17
102
}
100
AcDbMlineStyle
  2
STANDARD
 70
0
  3

 62
256
 51
90.0
 52
90.0
 71
2
 49
0.5
 62
256
  6
BYLAYER
 49
-0.5
 62
256
  6
BYLAYER
  0
LAYOUT
  5
6A1
102
{ACAD_REACTORS
330
1A
102
}
100
AcDbPlotSettings
  1

  2
none_device
  4
ISO_A4_(297.00_x_210.00_MM)
  6

 40
0.0
 41
0.0
 42
0.0
 43
0.0
 44
297.0
 45
210.0
 46
0.0
 47
0.0
 48
0.0
 49
0.0
140
0.0
141
0.0
142
1.0
143
1.0
 70
1024
 72
1
 73
0
 74
0
  7

 75
0
147
1.0
148
0.0
149
0.0
100
AcDbLayout
  1
Model
 70
0
 71
0
 10
0.0
 20
0.0
 11
297.0
 21
210.0
 12
0.0
 22
0.0
 32
0.0
 14
0.0
 24
0.0
 34
0.0
 15
0.0
 25
0.0
 35
0.0
146
0.0
 13
0.0
 23
0.0
 33
0.0
 16
1.0
 26
0.0
 36
0.0
 17
0.0
 27
1.0
 37
0.0
 76
0
330
21E
345
0
346
0
  0
LAYOUT
  5
6A2
102
{ACAD_REACTORS
330
1A
102
}
100
AcDbPlotSettings
  1

  2
none_device
  4
ISO_A4_(297.00_x_210.00_MM)
  6

 40
0.0
 41
0.0
 42
0.0
 43
0.0
 44
297.0
 45
210.0
 46
0.0
 47
0.0
 48
0.0
 49
0.0
140
0.0
141
0.0
142
1.0
143
1.0
 70
0
 72
1
 73
0
 74
0
  7

 75
0
147
1.0
148
0.0
149
0.0
100
AcDbLayout
  1
Layout1
 70
0
 71
1
 10
0.0
 20
0.0
 11
297.0
 21
210.0
 12
0.0
 22
0.0
 32
0.0
 14
0.0
 24
0.0
 34
0.0
 15
0.0
 25
0.0
 35
0.0
146
0.0
 13
0.0
 23
0.0
 33
0.0
 16
1.0
 26
0.0
 36
0.0
 17
0.0
 27
1.0
 37
0.0
 76
0
330
21F
345
0
346
0
  0
ENDSEC
  0
EOF
