  0
SECTION
  2
HEADER
  9
$ACADVER
  1
AC1021
  9
$DWGCODEPAGE
  3
ANSI_1252
  9
$EXTMAX
 10
297.0
 20
210.0
 30
0.0
  9
$EXTMIN
 10
0.0
 20
0.0
 30
0.0
  9
$LIMMIN
 10
0.0
 20
0.0
  9
$LIMMAX
 10
297.0
 20
210.0
  9
$VIEWCTR
 10
148.5
 20
105.0
  9
$VIEWSIZE
 40
210.0
  9
$CLAYER
  8
0
  9
$LTSCALE
 40
16.335
  9
$CELTYPE
  6
BYLAYER
  9
$DIMSCALE
 40
1.0
  9
$DIMASZ
 40
3.0
  9
$DIMEXO
 40
1.85625
  9
$DIMDLI
 40
11.286
  9
$DIMEXE
 40
5.346
  9
$DIMCEN
 40
2.673
  9
$DIMLFAC
 40
1.0
  9
$DIMBLK
  1
_FILLED
  9
$DIMTXT
 40
3.0
  9
$DIMTOL
 70
1
  9
$DIMLIM
 70
0
  9
$DIMTFAC
 40
1.0
  9
$DIMTP
 40
0.01
  9
$DIMTM
 40
0.01
  9
$PDMODE
 70
3
  9
$PDSIZE
 40
3.0
  9
$HANDSEED
  5
65D
  9
$TILEMODE
 70
1
  9
$MEASUREMENT
 70
1
  9
$INSUNITS
 70
4
  0
ENDSEC
  0
SECTION
  2
CLASSES
  0
CLASS
  1
ACDBDICTIONARYWDFLT
  2
AcDbDictionaryWithDefault
  3
AutoCAD 2000
 90
0
 91
1
280
0
281
0
  0
CLASS
  1
ACDBPLACEHOLDER
  2
AcDbPlaceHolder
  3
AutoCAD 2000
 90
0
 91
1
280
0
281
0
  0
CLASS
  1
LAYOUT
  2
AcDbLayout
  3
AutoCAD 2000
 90
0
 91
0
280
0
281
0
  0
ENDSEC
  0
SECTION
  2
TABLES
  0
TABLE
  2
VPORT
  5
8
100
AcDbSymbolTable
 70
2
  0
VPORT
  5
1F4
100
AcDbSymbolTableRecord
100
AcDbViewportTableRecord
  2
*ACTIVE
 70
0
 10
0.0
 20
0.0
 11
1.0
 21
1.0
 12
148.5
 22
105.0
 13
0.0
 23
0.0
 14
1.0
 24
1.0
 15
0.0
 25
0.0
 16
0.0
 26
0.0
 36
1.0
 17
0.0
 27
0.0
 37
0.0
 40
210.0
 41
1.4142857143
 42
50.0
 43
0.0
 44
0.0
 50
0.0
 51
0.0
 71
0
 72
100
 73
1
 74
1
 75
0
 76
0
 77
0
 78
0
  0
ENDTAB
  0
TABLE
  2
LTYPE
  5
5
100
AcDbSymbolTable
 70
6
  0
LTYPE
  5
14
100
AcDbSymbolTableRecord
100
AcDbLinetypeTableRecord
  2
BYBLOCK
 70
0
  3

 72
65
 73
0
 40
0.0
  0
LTYPE
  5
15
100
AcDbSymbolTableRecord
100
AcDbLinetypeTableRecord
  2
BYLAYER
 70
0
  3

 72
65
 73
0
 40
0.0
  0
LTYPE
  5
16
100
AcDbSymbolTableRecord
100
AcDbLinetypeTableRecord
  2
CONTINUOUS
 70
64
  3
Solid line
 72
65
 73
0
 40
0.0
  0
LTYPE
  5
1F5
100
AcDbSymbolTableRecord
100
AcDbLinetypeTableRecord
  2
CENTER
 70
64
  3
____ _ ____ _ ____ _ ____ _ ____ _ ____ _ ____
 72
65
 73
4
 40
0.6
 49
0.375
 74
0
 49
-0.075
 74
0
 49
0.075
 74
0
 49
-0.075
 74
0
  0
LTYPE
  5
1F6
100
AcDbSymbolTableRecord
100
AcDbLinetypeTableRecord
  2
HIDDEN
 70
64
  3
- - - - - - - - - - - - - - - - - - - -
 72
65
 73
2
 40
0.2
 49
0.1
 74
0
 49
-0.1
 74
0
  0
LTYPE
  5
1F7
100
AcDbSymbolTableRecord
100
AcDbLinetypeTableRecord
  2
PHANTOM
 70
64
  3
_____ _ _ _____ _ _ _____ _ _ _____
 72
65
 73
6
 40
0.8
 49
0.45
 74
0
 49
-0.05
 74
0
 49
0.1
 74
0
 49
-0.05
 74
0
 49
0.1
 74
0
 49
-0.05
 74
0
  0
LTYPE
  5
1F8
100
AcDbSymbolTableRecord
100
AcDbLinetypeTableRecord
  2
DOT
 70
64
  3
. . . . . . . . . . . . . . . . . . . .
 72
65
 73
2
 40
0.2
 49
0.1
 74
0
 49
-0.1
 74
0
  0
LTYPE
  5
1F9
100
AcDbSymbolTableRecord
100
AcDbLinetypeTableRecord
  2
DASHED
 70
64
  3
- - - - - - - - - - - - - - - - - - - -
 72
65
 73
2
 40
0.2
 49
0.1
 74
0
 49
-0.1
 74
0
  0
ENDTAB
  0
TABLE
  2
LAYER
  5
2
100
AcDbSymbolTable
 70
36
  0
LAYER
  5
10
100
AcDbSymbolTableRecord
100
AcDbLayerTableRecord
  2
0
 70
0
 62
7
  6
CONTINUOUS
370
-3
390
F
  0
LAYER
  5
1FA
100
AcDbSymbolTableRecord
100
AcDbLayerTableRecord
  2
DEFAULT_1
 70
0
 62
7
  6
CENTER
370
-3
390
F
  0
LAYER
  5
1FB
100
AcDbSymbolTableRecord
100
AcDbLayerTableRecord
  2
DEFAULT_2
 70
0
 62
7
  6
HIDDEN
370
-3
390
F
  0
LAYER
  5
1FC
100
AcDbSymbolTableRecord
100
AcDbLayerTableRecord
  2
DEFAULT_3
 70
0
 62
7
  6
PHANTOM
370
-3
390
F
  0
LAYER
  5
1FD
100
AcDbSymbolTableRecord
100
AcDbLayerTableRecord
  2
ASSI
 70
0
 62
7
  6
CONTINUOUS
370
-3
390
F
  0
LAYER
  5
1FE
100
AcDbSymbolTableRecord
100
AcDbLayerTableRecord
  2
COORDINATE
 70
0
 62
7
  6
CONTINUOUS
370
-3
390
F
  0
LAYER
  5
1FF
100
AcDbSymbolTableRecord
100
AcDbLayerTableRecord
  2
COORD_ORIGINE
 70
0
 62
7
  6
CONTINUOUS
370
-3
390
F
  0
LAYER
  5
200
100
AcDbSymbolTableRecord
100
AcDbLayerTableRecord
  2
COPY_PUBLISH
 70
0
 62
7
  6
CONTINUOUS
370
-3
390
F
  0
LAYER
  5
201
100
AcDbSymbolTableRecord
100
AcDbLayerTableRecord
  2
COSMETIC
 70
0
 62
7
  6
CONTINUOUS
370
-3
390
F
  0
LAYER
  5
202
100
AcDbSymbolTableRecord
100
AcDbLayerTableRecord
  2
COSMETICHE
 70
0
 62
7
  6
CONTINUOUS
370
-3
390
F
  0
LAYER
  5
203
100
AcDbSymbolTableRecord
100
AcDbLayerTableRecord
  2
COSMETICI
 70
0
 62
7
  6
CONTINUOUS
370
-3
390
F
  0
LAYER
  5
204
100
AcDbSymbolTableRecord
100
AcDbLayerTableRecord
  2
CURVE
 70
0
 62
7
  6
CONTINUOUS
370
-3
390
F
  0
LAYER
  5
205
100
AcDbSymbolTableRecord
100
AcDbLayerTableRecord
  2
DRAFT
 70
0
 62
7
  6
CONTINUOUS
370
-3
390
F
  0
LAYER
  5
206
100
AcDbSymbolTableRecord
100
AcDbLayerTableRecord
  2
IMPORT
 70
0
 62
7
  6
CONTINUOUS
370
-3
390
F
  0
LAYER
  5
207
100
AcDbSymbolTableRecord
100
AcDbLayerTableRecord
  2
IMPORT_IGES
 70
0
 62
7
  6
CONTINUOUS
370
-3
390
F
  0
LAYER
  5
208
100
AcDbSymbolTableRecord
100
AcDbLayerTableRecord
  2
INTFCLR_1
 70
0
 62
7
  6
CONTINUOUS
370
-3
390
F
  0
LAYER
  5
209
100
AcDbSymbolTableRecord
100
AcDbLayerTableRecord
  2
INTF_1
 70
0
 62
7
  6
CONTINUOUS
370
-3
390
F
  0
LAYER
  5
20A
100
AcDbSymbolTableRecord
100
AcDbLayerTableRecord
  2
INTF_15
 70
0
 62
7
  6
CONTINUOUS
370
-3
390
F
  0
LAYER
  5
20B
100
AcDbSymbolTableRecord
100
AcDbLayerTableRecord
  2
INTF_16
 70
0
 62
7
  6
CONTINUOUS
370
-3
390
F
  0
LAYER
  5
20C
100
AcDbSymbolTableRecord
100
AcDbLayerTableRecord
  2
INTF_CYAN
 70
0
 62
7
  6
CONTINUOUS
370
-3
390
F
  0
LAYER
  5
20D
100
AcDbSymbolTableRecord
100
AcDbLayerTableRecord
  2
NOTE
 70
0
 62
7
  6
CONTINUOUS
370
-3
390
F
  0
LAYER
  5
20E
100
AcDbSymbolTableRecord
100
AcDbLayerTableRecord
  2
PIANI
 70
0
 62
7
  6
CONTINUOUS
370
-3
390
F
  0
LAYER
  5
20F
100
AcDbSymbolTableRecord
100
AcDbLayerTableRecord
  2
PIANI_DI_RIFERIMENTO
 70
0
 62
7
  6
CONTINUOUS
370
-3
390
F
  0
LAYER
  5
210
100
AcDbSymbolTableRecord
100
AcDbLayerTableRecord
  2
PIANI_ORIGINE
 70
0
 62
7
  6
CONTINUOUS
370
-3
390
F
  0
LAYER
  5
211
100
AcDbSymbolTableRecord
100
AcDbLayerTableRecord
  2
PUNTI
 70
0
 62
7
  6
CONTINUOUS
370
-3
390
F
  0
LAYER
  5
212
100
AcDbSymbolTableRecord
100
AcDbLayerTableRecord
  2
RACCORDO
 70
0
 62
7
  6
CONTINUOUS
370
-3
390
F
  0
LAYER
  5
213
100
AcDbSymbolTableRecord
100
AcDbLayerTableRecord
  2
RGB____0____0____0__
 70
0
 62
7
  6
CONTINUOUS
370
-3
390
F
  0
LAYER
  5
214
100
AcDbSymbolTableRecord
100
AcDbLayerTableRecord
  2
SIMBOLI
 70
0
 62
7
  6
CONTINUOUS
370
-3
390
F
  0
LAYER
  5
215
100
AcDbSymbolTableRecord
100
AcDbLayerTableRecord
  2
SMUSSO
 70
0
 62
7
  6
CONTINUOUS
370
-3
390
F
  0
LAYER
  5
216
100
AcDbSymbolTableRecord
100
AcDbLayerTableRecord
  2
SNAPLINE
 70
0
 62
7
  6
CONTINUOUS
370
-3
390
F
  0
LAYER
  5
217
100
AcDbSymbolTableRecord
100
AcDbLayerTableRecord
  2
SUPERFICI
 70
0
 62
7
  6
CONTINUOUS
370
-3
390
F
  0
LAYER
  5
218
100
AcDbSymbolTableRecord
100
AcDbLayerTableRecord
  2
SUPERFICI_SKEL
 70
0
 62
7
  6
CONTINUOUS
370
-3
390
F
  0
LAYER
  5
219
100
AcDbSymbolTableRecord
100
AcDbLayerTableRecord
  2
TRASH
 70
0
 62
7
  6
CONTINUOUS
370
-3
390
F
  0
LAYER
  5
21A
100
AcDbSymbolTableRecord
100
AcDbLayerTableRecord
  2
XSEC_DATUMS
 70
0
 62
7
  6
CONTINUOUS
370
-3
390
F
  0
ENDTAB
  0
TABLE
  2
STYLE
  5
3
100
AcDbSymbolTable
 70
1
  0
STYLE
  5
11
100
AcDbSymbolTableRecord
100
AcDbTextStyleTableRecord
  2
STANDARD
 70
0
 40
0.0
 41
0.8
 50
0.0
 71
0
 42
0.2
  3
txt
  4

  0
STYLE
  5
21B
100
AcDbSymbolTableRecord
100
AcDbTextStyleTableRecord
  2
TEXTSTYLE_1
 70
0
 40
0.0
 41
0.8
 50
0.0
 71
0
 42
0.2
  3
gdt
  4

  0
ENDTAB
  0
TABLE
  2
VIEW
  5
6
100
AcDbSymbolTable
 70
0
  0
ENDTAB
  0
TABLE
  2
UCS
  5
7
100
AcDbSymbolTable
 70
0
  0
ENDTAB
  0
TABLE
  2
APPID
  5
9
100
AcDbSymbolTable
 70
1
  0
APPID
  5
21C
100
AcDbSymbolTableRecord
100
AcDbRegAppTableRecord
  2
ACAD
 70
0
  0
ENDTAB
  0
TABLE
  2
BLOCK_RECORD
  5
1
100
AcDbSymbolTable
 70
0
  0
BLOCK_RECORD
  5
21D
100
AcDbSymbolTableRecord
100
AcDbBlockTableRecord
  2
*Model_Space
  0
BLOCK_RECORD
  5
21E
100
AcDbSymbolTableRecord
100
AcDbBlockTableRecord
  2
*Paper_Space
  0
ENDTAB
  0
TABLE
  2
DIMSTYLE
  5
A
100
AcDbSymbolTable
 70
1
100
AcDbDimStyleTable
 71
0
  0
DIMSTYLE
105
21F
100
AcDbSymbolTableRecord
100
AcDbDimStyleTableRecord
  2
STANDARD
 70
0
  3

  4

 40
1.0
 41
3.0
 42
0.0625
 43
0.38
 44
0.18
 45
0.0
 46
0.0
 47
0.01
 48
0.01
140
3.0
141
0.09
142
0.0
143
25.4
144
1.0
145
0.0
146
1.0
147
0.09
 71
1.0
 72
0.0
 73
0
 74
0
 75
0
 76
0
 77
1
 78
8
170
0
171
2
172
0
173
0
174
0
175
0
176
0
177
0
178
0
270
2
271
2
272
2
273
2
274
2
275
0
280
0
281
0
282
0
283
1
284
8
285
0
286
0
287
3
288
0
340
11
  0
ENDTAB
  0
ENDSEC
  0
SECTION
  2
BLOCKS
  0
BLOCK
  5
20
100
AcDbEntity
  8
0
100
AcDbBlockBegin
  2
*Model_Space
 70
0
 10
0.0
 20
0.0
 30
0.0
  3
*Model_Space
  1

  0
ENDBLK
  5
21
100
AcDbEntity
  8
0
100
AcDbBlockEnd
  0
BLOCK
  5
1C
100
AcDbEntity
  8
0
100
AcDbBlockBegin
  2
*Paper_Space
 70
0
 10
0.0
 20
0.0
 30
0.0
  3
*Paper_Space
  1

  0
ENDBLK
  5
1D
100
AcDbEntity
  8
0
100
AcDbBlockEnd
  0
ENDSEC
  0
SECTION
  2
ENTITIES
  0
LWPOLYLINE
  5
220
100
AcDbEntity
  8
ASSI
100
AcDbPolyline
 62
7
  6
CONTINUOUS
 90
13
 70
0
 10
121.0494584402
 20
138.0858175075
 10
121.0350597209
 20
138.0721474936
 10
121.0217578515
 20
138.0573890957
 10
121.0094959826
 20
138.0415427174
 10
120.9983120885
 20
138.0247201568
 10
120.9884296928
 20
138.0073703126
 10
120.979656877
 20
137.9892595428
 10
120.9719643585
 20
137.9702833751
 10
120.9656369777
 20
137.9511293065
 10
120.9606013945
 20
137.9316664835
 10
120.9568542261
 20
137.9116143585
 10
120.9545613917
 20
137.8914879672
 10
120.9537708016
 20
137.8710366606
  0
LINE
  5
221
100
AcDbEntity
  8
ASSI
100
AcDbLine
 62
7
  6
CONTINUOUS
 10
121.0494659992
 20
138.0858246652
 11
122.3110569129
 21
139.1908871761
  0
LINE
  5
222
100
AcDbEntity
  8
ASSI
100
AcDbLine
 62
253
  6
CONTINUOUS
 10
121.1792438983
 20
138.0975439857
 11
122.440059775
 21
139.2019276203
  0
LINE
  5
223
100
AcDbEntity
  8
ASSI
100
AcDbLine
 62
7
  6
CONTINUOUS
 10
122.3157171838
 20
139.1947030103
 11
122.3110957269
 21
139.1909211657
  0
LINE
  5
224
100
AcDbEntity
  8
ASSI
100
AcDbLine
 62
7
  6
CONTINUOUS
 10
122.3157097109
 20
139.194697273
 11
122.7599954128
 21
139.5346372051
  0
LINE
  5
225
100
AcDbEntity
  8
ASSI
100
AcDbLine
 62
253
  6
CONTINUOUS
 10
122.440059775
 20
139.2019276203
 11
122.8835631549
 21
139.5412689681
  0
LWPOLYLINE
  5
226
100
AcDbEntity
  8
ASSI
100
AcDbPolyline
 62
253
  6
CONTINUOUS
 90
8
 70
0
 10
121.0494659992
 20
138.0858246652
 10
121.0626047365
 20
138.0953819224
 10
121.0787373045
 20
138.1030598529
 10
121.0966231447
 20
138.1078698203
 10
121.115956344
 20
138.1097295565
 10
121.1364062341
 20
138.1086072532
 10
121.1576230472
 20
138.104522106
 10
121.1792438983
 20
138.0975439857
  0
LWPOLYLINE
  5
227
100
AcDbEntity
  8
ASSI
100
AcDbPolyline
 62
253
  6
CONTINUOUS
 90
8
 70
0
 10
122.883562523
 20
139.5412692169
 10
122.8984305433
 20
139.5518881854
 10
122.9131143068
 20
139.5601840625
 10
122.9274572992
 20
139.5660660876
 10
122.9413082655
 20
139.56946913
 10
122.9545172759
 20
139.570354388
 10
122.9669378945
 20
139.5687118768
 10
122.9746526515
 20
139.5662449056
  0
LWPOLYLINE
  5
228
100
AcDbEntity
  8
ASSI
100
AcDbPolyline
 62
253
  6
CONTINUOUS
 90
8
 70
0
 10
122.7599953932
 20
139.5346371902
 10
122.7685488715
 20
139.5404397789
 10
122.7846329877
 20
139.5480781463
 10
122.8023744177
 20
139.5527699064
 10
122.8214697127
 20
139.5544347943
 10
122.8415922709
 20
139.553044322
 10
122.8623979267
 20
139.5486222601
 10
122.8835308242
 20
139.5412442307
  0
LWPOLYLINE
  5
229
100
AcDbEntity
  8
ASSI
100
AcDbPolyline
 62
7
  6
CONTINUOUS
 90
3
 70
0
 10
122.7864432078
 20
139.5522062022
 10
122.7675626537
 20
139.5401972882
 10
122.7599859122
 20
139.5346287919
  0
LWPOLYLINE
  5
22A
100
AcDbEntity
  8
ASSI
100
AcDbPolyline
 62
7
  6
CONTINUOUS
 90
19
 70
0
 10
118.0028078189
 20
133.7893054652
 10
117.99031455
 20
133.7773442869
 10
117.9335002355
 20
133.7184180091
 10
117.8804705216
 20
133.6561758376
 10
117.831057325
 20
133.5911491118
 10
117.7849356844
 20
133.5235367139
 10
117.7418612804
 20
133.4534263218
 10
117.7018289365
 20
133.3811862026
 10
117.6648188625
 20
133.3070543229
 10
117.6307969516
 20
133.2311447655
 10
117.5998401095
 20
133.1537433389
 10
117.572054519
 20
133.0751068751
 10
117.5475084297
 20
132.9953523529
 10
117.526353886
 20
132.9147035173
 10
117.5087905654
 20
132.8334341525
 10
117.4949882164
 20
132.7515547445
 10
117.4852188288
 20
132.6691036553
 10
117.4798288426
 20
132.5863859503
 10
117.4793948522
 20
132.5730273827
  0
LINE
  5
22B
100
AcDbEntity
  8
ASSI
100
AcDbLine
 62
7
  6
CONTINUOUS
 10
118.0023885611
 20
133.7889226894
 11
121.531975919
 21
137.1220296431
  0
LINE
  5
22C
100
AcDbEntity
  8
ASSI
100
AcDbLine
 62
253
  6
CONTINUOUS
 10
121.531975919
 20
136.8452159251
 11
118.2824933292
 21
133.7765105294
  0
LINE
  5
22D
100
AcDbEntity
  8
ASSI
100
AcDbLine
 62
7
  6
CONTINUOUS
 10
123.1361089567
 20
136.0874530672
 11
122.692637908
 21
135.7049655456
  0
LINE
  5
22E
100
AcDbEntity
  8
ASSI
100
AcDbLine
 62
253
  6
CONTINUOUS
 10
124.8975658122
 20
138.2149377926
 11
125.3194661184
 21
138.5629196074
  0
LINE
  5
22F
100
AcDbEntity
  8
ASSI
100
AcDbLine
 62
253
  6
CONTINUOUS
 10
125.0613712688
 20
137.9853443716
 11
125.4832700191
 21
138.333324903
  0
LWPOLYLINE
  5
230
100
AcDbEntity
  8
ASSI
100
AcDbPolyline
 62
253
  6
CONTINUOUS
 90
10
 70
0
 10
118.0028017855
 20
133.7893118689
 10
118.0259975663
 20
133.8082193648
 10
118.055740825
 20
133.8258633444
 10
118.0886551731
 20
133.8391273625
 10
118.1243806225
 20
133.8478663491
 10
118.1625264393
 20
133.8519847246
 10
118.2026754179
 20
133.8514374457
 10
118.2443884439
 20
133.8462304979
 10
118.2872092967
 20
133.8364208304
 10
118.3306696395
 20
133.8221157326
  0
LINE
  5
231
100
AcDbEntity
  8
ASSI
100
AcDbLine
 62
253
  6
CONTINUOUS
 10
123.5722825807
 20
137.1364457011
 11
124.8975658122
 21
138.2149377926
  0
LINE
  5
232
100
AcDbEntity
  8
ASSI
100
AcDbLine
 62
253
  6
CONTINUOUS
 10
123.7360880373
 20
136.9068522801
 11
125.0613712688
 21
137.9853443716
  0
LWPOLYLINE
  5
233
100
AcDbEntity
  8
ASSI
100
AcDbPolyline
 62
253
  6
CONTINUOUS
 90
21
 70
0
 10
125.4832700191
 20
138.333324903
 10
125.4845773626
 20
138.3343720009
 10
125.4859120973
 20
138.335331764
 10
125.4872742231
 20
138.3362041922
 10
125.4886715232
 20
138.3370013779
 10
125.4900962144
 20
138.3377112288
 10
125.4915249476
 20
138.3382974675
 10
125.4929585814
 20
138.3387570843
 10
125.4943962572
 20
138.339093089
 10
125.4958120501
 20
138.339278234
 10
125.4972058917
 20
138.3393082965
 10
125.4985778504
 20
138.3391874993
 10
125.4999022064
 20
138.3389012629
 10
125.5011775383
 20
138.3384452597
 10
125.5024052675
 20
138.3378238173
 10
125.5035639382
 20
138.3370353384
 10
125.5046518332
 20
138.336076349
 10
125.5056706697
 20
138.3349503232
 10
125.5066041434
 20
138.3336660851
 10
125.5074506831
 20
138.3322205668
 10
125.50821186
 20
138.3306168363
  0
LINE
  5
234
100
AcDbEntity
  8
ASSI
100
AcDbLine
 62
7
  6
CONTINUOUS
 10
131.1139494176
 20
141.413054864
 11
125.498006522
 21
136.93947716
  0
LINE
  5
235
100
AcDbEntity
  8
RACCORDO
100
AcDbLine
 62
7
  6
CONTINUOUS
 10
125.7514718957
 20
137.792547456
 11
129.3494225696
 21
140.6061516881
  0
LINE
  5
236
100
AcDbEntity
  8
RACCORDO
100
AcDbLine
 62
7
  6
CONTINUOUS
 10
125.3016529062
 20
137.5675138615
 11
128.6641298278
 21
140.1881802619
  0
LINE
  5
237
100
AcDbEntity
  8
RACCORDO
100
AcDbLine
 62
253
  6
CONTINUOUS
 10
125.2921768935
 20
137.5514426987
 11
128.7558035458
 21
140.2509434471
  0
LINE
  5
238
100
AcDbEntity
  8
DRAFT
100
AcDbLine
 62
7
  6
CONTINUOUS
 10
125.1685083771
 20
137.3417029129
 11
125.7514718957
 21
137.792547456
  0
LWPOLYLINE
  5
239
100
AcDbEntity
  8
ASSI
100
AcDbPolyline
 62
253
  6
CONTINUOUS
 90
14
 70
0
 10
125.3194661503
 20
138.5629195946
 10
125.3260990454
 20
138.5680057758
 10
125.3329135353
 20
138.5727668812
 10
125.3398912871
 20
138.5771482892
 10
125.3470247062
 20
138.5811005475
 10
125.3542756081
 20
138.5845558713
 10
125.3615768425
 20
138.5874401396
 10
125.3689001111
 20
138.5897038571
 10
125.3762145353
 20
138.5912976143
 10
125.3834497802
 20
138.5921698209
 10
125.3905736779
 20
138.5922848206
 10
125.3975528486
 20
138.5916088351
 10
125.4043197104
 20
138.5901195988
 10
125.4096363981
 20
138.5883005136
  0
LWPOLYLINE
  5
23A
100
AcDbEntity
  8
RACCORDO
100
AcDbPolyline
 62
253
  6
CONTINUOUS
 90
5
 70
0
 10
128.6744007256
 20
140.1960945426
 10
128.67626188
 20
140.1974708507
 10
128.7020972404
 20
140.216200529
 10
128.7286161108
 20
140.234028064
 10
128.7558035396
 20
140.2509434422
  0
LWPOLYLINE
  5
23B
100
AcDbEntity
  8
RACCORDO
100
AcDbPolyline
 62
7
  6
CONTINUOUS
 90
5
 70
0
 10
129.3494225696
 20
140.6061516881
 10
129.3574172955
 20
140.6121748247
 10
129.3655137866
 20
140.6178213848
 10
129.3737045593
 20
140.6230890523
 10
129.3765677474
 20
140.6248282041
  0
LWPOLYLINE
  5
23C
100
AcDbEntity
  8
RACCORDO
100
AcDbPolyline
 62
7
  6
CONTINUOUS
 90
7
 70
0
 10
128.7561761054
 20
140.2530882876
 10
128.7394149153
 20
140.2422289255
 10
128.7228525451
 20
140.2310966498
 10
128.706493087
 20
140.219694507
 10
128.690341168
 20
140.2080260563
 10
128.6744007256
 20
140.1960945426
 10
128.6641175356
 20
140.188170705
  0
LWPOLYLINE
  5
23D
100
AcDbEntity
  8
RACCORDO
100
AcDbPolyline
 62
253
  6
CONTINUOUS
 90
4
 70
0
 10
128.7836271643
 20
140.2700259269
 10
128.7766077669
 20
140.2656796685
 10
128.7660408791
 20
140.2585595055
 10
128.7558008285
 20
140.2509418211
  0
LWPOLYLINE
  5
23E
100
AcDbEntity
  8
RACCORDO
100
AcDbPolyline
 62
7
  6
CONTINUOUS
 90
3
 70
0
 10
128.7836271848
 20
140.2700258926
 10
128.7731325813
 20
140.2636721433
 10
128.7561761054
 20
140.2530882876
  0
LINE
  5
23F
100
AcDbEntity
  8
RACCORDO
100
AcDbLine
 62
7
  6
CONTINUOUS
 10
128.7836297435
 20
140.2700274702
 11
129.3765190305
 21
140.6247990532
  0
LINE
  5
240
100
AcDbEntity
  8
RACCORDO
100
AcDbLine
 62
253
  6
CONTINUOUS
 10
128.7558035458
 20
140.2509434471
 11
129.3494225696
 21
140.6061516881
  0
LWPOLYLINE
  5
241
100
AcDbEntity
  8
RACCORDO
100
AcDbPolyline
 62
7
  6
CONTINUOUS
 90
24
 70
0
 10
129.3765677474
 20
140.6248282041
 10
129.3819809729
 20
140.627975149
 10
129.3903364985
 20
140.6324785844
 10
129.3987667713
 20
140.6365997733
 10
129.4072640325
 20
140.640337381
 10
129.4158206636
 20
140.6436904691
 10
129.4244325161
 20
140.6466603294
 10
129.4330917432
 20
140.6492463717
 10
129.4417906743
 20
140.6514484105
 10
129.4505254342
 20
140.6532686439
 10
129.4592881364
 20
140.6547072163
 10
129.4680711001
 20
140.6557646708
 10
129.4768707783
 20
140.6564441102
 10
129.4856792936
 20
140.6567463941
 10
129.4944890008
 20
140.6566727642
 10
129.5032967392
 20
140.6562271955
 10
129.5120947063
 20
140.6554112339
 10
129.5208753229
 20
140.6542267811
 10
129.5296358195
 20
140.6526786328
 10
129.5383684975
 20
140.6507689907
 10
129.5470659053
 20
140.6485003764
 10
129.5557257204
 20
140.6458783338
 10
129.564340408
 20
140.6429056759
 10
129.5714458835
 20
140.6401761842
  0
LWPOLYLINE
  5
242
100
AcDbEntity
  8
ASSI
100
AcDbPolyline
 62
7
  6
CONTINUOUS
 90
4
 70
0
 10
130.7388392956
 20
139.315869627
 10
130.7074709965
 20
139.2992147404
 10
130.6784966443
 20
139.2800386938
 10
130.6733241357
 20
139.2761592183
  0
LINE
  5
243
100
AcDbEntity
  8
RACCORDO
100
AcDbLine
 62
7
  6
CONTINUOUS
 10
134.8743043511
 20
139.4343127876
 11
134.2561686002
 21
139.2531706935
  0
LWPOLYLINE
  5
244
100
AcDbEntity
  8
ASSI
100
AcDbPolyline
 62
7
  6
CONTINUOUS
 90
13
 70
0
 10
124.3239628258
 20
136.5100892383
 10
124.3084449583
 20
136.4899404059
 10
124.2913839498
 20
136.4709849035
 10
124.2729291992
 20
136.4534245556
 10
124.2531789588
 20
136.4374226494
 10
124.2323727066
 20
136.4231486388
 10
124.2109012693
 20
136.4107608552
 10
124.1890693403
 20
136.4003779814
 10
124.1669798414
 20
136.3920032534
 10
124.1447140424
 20
136.3856157964
 10
124.1223241548
 20
136.3812475471
 10
124.1001218871
 20
136.3789836894
 10
124.0841614076
 20
136.3786666987
  0
LWPOLYLINE
  5
245
100
AcDbEntity
  8
ASSI
100
AcDbPolyline
 62
7
  6
CONTINUOUS
 90
9
 70
0
 10
127.1873639628
 20
136.5897437095
 10
127.1730247612
 20
136.5760671695
 10
127.1567294917
 20
136.5570381275
 10
127.1425833329
 20
136.5361545818
 10
127.130795603
 20
136.5136761357
 10
127.1215069393
 20
136.4897776377
 10
127.1148824163
 20
136.4646787098
 10
127.1110840426
 20
136.4388151132
 10
127.1101119956
 20
136.4172474686
  0
LINE
  5
246
100
AcDbEntity
  8
ASSI
100
AcDbLine
 62
7
  6
CONTINUOUS
 10
127.3575426339
 20
136.7388159926
 11
127.1870316818
 21
136.5894607152
  0
LINE
  5
247
100
AcDbEntity
  8
ASSI
100
AcDbLine
 62
253
  6
CONTINUOUS
 10
127.5187962115
 20
136.7526165478
 11
127.349013291
 21
136.6039594598
  0
LINE
  5
248
100
AcDbEntity
  8
ASSI
100
AcDbLine
 62
7
  6
CONTINUOUS
 10
124.3239628258
 20
135.7929261589
 11
125.0613712688
 21
136.4289305352
  0
LWPOLYLINE
  5
249
100
AcDbEntity
  8
ASSI
100
AcDbPolyline
 62
253
  6
CONTINUOUS
 90
18
 70
0
 10
131.2383658887
 20
138.9154267165
 10
131.245836041
 20
138.9216147644
 10
131.2529946766
 20
138.9280258432
 10
131.2598177178
 20
138.9346568934
 10
131.2662831923
 20
138.9415067045
 10
131.2723637408
 20
138.9485682391
 10
131.2780284596
 20
138.9558281316
 10
131.2832598443
 20
138.9632884716
 10
131.2880278826
 20
138.9709335593
 10
131.2922916647
 20
138.9787203995
 10
131.2960347943
 20
138.9866369122
 10
131.2992435668
 20
138.9946745965
 10
131.3018950911
 20
139.002792952
 10
131.3039817624
 20
139.0109791477
 10
131.3054972905
 20
139.0192217463
 10
131.3064337836
 20
139.0274809443
 10
131.3067920285
 20
139.0357364033
 10
131.3067735637
 20
139.0390641102
  0
LWPOLYLINE
  5
24A
100
AcDbEntity
  8
ASSI
100
AcDbPolyline
 62
253
  6
CONTINUOUS
 90
82
 70
0
 10
131.0361512451
 20
139.1990925915
 10
131.0386956381
 20
139.2011807826
 10
131.0411180432
 20
139.203343225
 10
131.0434184604
 20
139.2055799186
 10
131.045605765
 20
139.2078935796
 10
131.0476710818
 20
139.2102814918
 10
131.0495877847
 20
139.2127355071
 10
131.0513559369
 20
139.2152596593
 10
131.0529754754
 20
139.2178499146
 10
131.0544195846
 20
139.2204860242
 10
131.0556844071
 20
139.2231683193
 10
131.0567738005
 20
139.2258964687
 10
131.0576725223
 20
139.2286492308
 10
131.0583770226
 20
139.2314268223
 10
131.0588908514
 20
139.2342290265
 10
131.0592094163
 20
139.2370339519
 10
131.0593301379
 20
139.2398390421
 10
131.0592555956
 20
139.2426468534
 10
131.0589889346
 20
139.2454431633
 10
131.0585296068
 20
139.2482265261
 10
131.0578781604
 20
139.2509983873
 10
131.0570393847
 20
139.2537488608
 10
131.0560131745
 20
139.2564777948
 10
131.0547996351
 20
139.2591853411
 10
131.0534038723
 20
139.2618620679
 10
131.0518254148
 20
139.2645082896
 10
131.0500647339
 20
139.2671236918
 10
131.0481283497
 20
139.2696978997
 10
131.0460151291
 20
139.2722313691
 10
131.0437262052
 20
139.2747236443
 10
131.0412714968
 20
139.2771629829
 10
131.0386499996
 20
139.2795492165
 10
131.035862718
 20
139.2818825136
 10
131.0329225843
 20
139.2841516371
 10
131.0298288135
 20
139.2863561987
 10
131.0265821905
 20
139.2884965867
 10
131.0231980029
 20
139.2905627282
 10
131.0196758108
 20
139.2925541157
 10
131.016016054
 20
139.2944712567
 10
131.0122353389
 20
139.2963056019
 10
131.0083332073
 20
139.2980567493
 10
131.0043101174
 20
139.2997251009
 10
131.00018405
 20
139.3013033127
 10
130.9959545869
 20
139.3027909896
 10
130.9916221463
 20
139.3041885268
 10
130.9872059629
 20
139.305489766
 10
130.9827056639
 20
139.3066942988
 10
130.978121622
 20
139.3078025336
 10
130.9734741906
 20
139.3088095379
 10
130.9687630011
 20
139.3097148828
 10
130.9639884222
 20
139.3105189971
 10
130.9591719132
 20
139.3112182351
 10
130.954313247
 20
139.3118121222
 10
130.9494126508
 20
139.312301133
 10
130.9444922665
 20
139.312683045
 10
130.9395520438
 20
139.3129573669
 10
130.9345920329
 20
139.3131245899
 10
130.9296345261
 20
139.3131839655
 10
130.9246795441
 20
139.313135008
 10
130.9197270662
 20
139.312978203
 10
130.9147993222
 20
139.312714258
 10
130.9098964004
 20
139.3123426874
 10
130.9050182124
 20
139.3118639768
 10
130.9001867232
 20
139.311280291
 10
130.8954021751
 20
139.3105911609
 10
130.8906643258
 20
139.3097970557
 10
130.8859944126
 20
139.3089015479
 10
130.8813927728
 20
139.3079041963
 10
130.8768590691
 20
139.3068054422
 10
130.8724135269
 20
139.3056101819
 10
130.8680564837
 20
139.3043179706
 10
130.863787602
 20
139.302929253
 10
130.8596260944
 20
139.3014502601
 10
130.8555723981
 20
139.2998805537
 10
130.851626076
 20
139.2982205719
 10
130.8478050293
 20
139.2964778608
 10
130.8441098496
 20
139.2946520332
 10
130.8405399452
 20
139.2927434761
 10
130.8371114435
 20
139.2907608965
 10
130.8338297199
 20
139.2887071966
 10
130.8306893989
 20
139.286579474
 10
130.8276904805
 20
139.2843777289
  0
LINE
  5
24B
100
AcDbEntity
  8
ASSI
100
AcDbLine
 62
7
  6
CONTINUOUS
 10
127.3633679726
 20
136.7435857853
 11
127.3575911514
 21
136.7388584796
  0
LINE
  5
24C
100
AcDbEntity
  8
ASSI
100
AcDbLine
 62
7
  6
CONTINUOUS
 10
131.0089225013
 20
141.2542770957
 11
125.5898014426
 21
136.9026102504
  0
LINE
  5
24D
100
AcDbEntity
  8
ASSI
100
AcDbLine
 62
253
  6
CONTINUOUS
 10
128.3465661738
 20
137.0650587437
 11
131.0361512451
 21
139.1990925915
  0
LINE
  5
24E
100
AcDbEntity
  8
ASSI
100
AcDbLine
 62
253
  6
CONTINUOUS
 10
128.7181872783
 20
136.9158073301
 11
131.2383658887
 21
138.9154267192
  0
LINE
  5
24F
100
AcDbEntity
  8
ASSI
100
AcDbLine
 62
7
  6
CONTINUOUS
 10
130.6732712326
 20
139.2761189596
 11
127.3633586314
 21
136.7435786136
  0
LINE
  5
250
100
AcDbEntity
  8
ASSI
100
AcDbLine
 62
253
  6
CONTINUOUS
 10
130.8276904805
 20
139.2843777289
 11
127.5187962115
 21
136.7526165478
  0
LWPOLYLINE
  5
251
100
AcDbEntity
  8
RACCORDO
100
AcDbPolyline
 62
7
  6
CONTINUOUS
 90
22
 70
0
 10
130.9767784337
 20
137.2867516611
 10
130.9780625092
 20
137.2877087603
 10
130.981731353
 20
137.2901571602
 10
130.9856809981
 20
137.2923785249
 10
130.9899056164
 20
137.2943548624
 10
130.9944225098
 20
137.2960881383
 10
130.9991598507
 20
137.2975423569
 10
131.0040844878
 20
137.2987103013
 10
131.0092112222
 20
137.2996023535
 10
131.0145264885
 20
137.3002182078
 10
131.0200182691
 20
137.3005595848
 10
131.0256791085
 20
137.3006291365
 10
131.0315015017
 20
137.3004285978
 10
131.0374753925
 20
137.2999604716
 10
131.0435903925
 20
137.2992277036
 10
131.0498386663
 20
137.2982326169
 10
131.0562092366
 20
137.2969782771
 10
131.0626915048
 20
137.2954682829
 10
131.0692783684
 20
137.2937056467
 10
131.0759600757
 20
137.2916938199
 10
131.0827239323
 20
137.2894369962
 10
131.0895583454
 20
137.2869394174
  0
LWPOLYLINE
  5
252
100
AcDbEntity
  8
RACCORDO
100
AcDbPolyline
 62
253
  6
CONTINUOUS
 90
11
 70
0
 10
134.2316684968
 20
139.9599496488
 10
134.2753978719
 20
139.9922416435
 10
134.3184551996
 20
140.0192754142
 10
134.3606076403
 20
140.0410403118
 10
134.4014948963
 20
140.0575094169
 10
134.4410706231
 20
140.068827422
 10
134.479563899
 20
140.0751261302
 10
134.5169110429
 20
140.0763510111
 10
134.5527519826
 20
140.0724442628
 10
134.5868505867
 20
140.0634249284
 10
134.5967450764
 20
140.0597156863
  0
LWPOLYLINE
  5
253
100
AcDbEntity
  8
RACCORDO
100
AcDbPolyline
 62
7
  6
CONTINUOUS
 90
3
 70
0
 10
138.4768788433
 20
138.18727977
 10
138.4793818689
 20
138.1880108789
 10
138.4818679668
 20
138.188164618
  0
LWPOLYLINE
  5
254
100
AcDbEntity
  8
ASSI
100
AcDbPolyline
 62
7
  6
CONTINUOUS
 90
6
 70
0
 10
125.5032338234
 20
137.909391907
 10
125.5049378742
 20
137.9123199568
 10
125.5151132267
 20
137.9316337263
 10
125.5239992011
 20
137.9519245909
 10
125.5312581661
 20
137.9723301936
 10
125.5370039342
 20
137.9929760697
  0
LINE
  5
255
100
AcDbEntity
  8
ASSI
100
AcDbLine
 62
253
  6
CONTINUOUS
 10
125.4967639338
 20
137.9468336756
 11
125.0613712688
 21
137.2084148208
  0
LINE
  5
256
100
AcDbEntity
  8
ASSI
100
AcDbLine
 62
7
  6
CONTINUOUS
 10
125.5032382892
 20
137.9093993816
 11
125.0613712688
 21
137.1600001257
  0
LINE
  5
257
100
AcDbEntity
  8
ASSI
100
AcDbLine
 62
7
  6
CONTINUOUS
 10
130.1255299498
 20
134.1695150894
 11
130.3039443523
 21
134.3233949939
  0
LINE
  5
258
100
AcDbEntity
  8
ASSI
100
AcDbLine
 62
7
  6
CONTINUOUS
 10
130.3039443523
 20
134.3233949939
 11
130.8529958814
 21
134.7888840215
  0
LINE
  5
259
100
AcDbEntity
  8
ASSI
100
AcDbLine
 62
253
  6
CONTINUOUS
 10
130.0991875314
 20
135.7162732201
 11
130.6250219748
 21
136.1499795274
  0
LINE
  5
25A
100
AcDbEntity
  8
ASSI
100
AcDbLine
 62
253
  6
CONTINUOUS
 10
130.3039443523
 20
135.4292814439
 11
130.833441215
 21
135.8660085012
  0
LINE
  5
25B
100
AcDbEntity
  8
DRAFT
100
AcDbLine
 62
7
  6
CONTINUOUS
 10
132.4704789534
 20
137.7904193689
 11
134.2561686002
 21
139.2531706935
  0
LINE
  5
25C
100
AcDbEntity
  8
ASSI
100
AcDbLine
 62
7
  6
CONTINUOUS
 10
131.6581391098
 20
135.0116611313
 11
131.6639154669
 21
135.0163880568
  0
LINE
  5
25D
100
AcDbEntity
  8
ASSI
100
AcDbLine
 62
253
  6
CONTINUOUS
 10
129.9208204656
 20
135.5710637184
 11
130.0991875314
 21
135.7162732201
  0
LINE
  5
25E
100
AcDbEntity
  8
ASSI
100
AcDbLine
 62
253
  6
CONTINUOUS
 10
130.1255299498
 20
135.2840909536
 11
130.3039443523
 21
135.4292814439
  0
LINE
  5
25F
100
AcDbEntity
  8
RACCORDO
100
AcDbLine
 62
253
  6
CONTINUOUS
 10
131.7442831185
 20
137.985703145
 11
134.2316684968
 21
139.9599496488
  0
LINE
  5
260
100
AcDbEntity
  8
RACCORDO
100
AcDbLine
 62
253
  6
CONTINUOUS
 10
132.2126295232
 20
137.8222341779
 11
134.4743735952
 21
139.617388385
  0
LINE
  5
261
100
AcDbEntity
  8
DRAFT
100
AcDbLine
 62
7
  6
CONTINUOUS
 10
131.2571829544
 20
137.7843274375
 11
131.2473650205
 21
137.7765405453
  0
LINE
  5
262
100
AcDbEntity
  8
RACCORDO
100
AcDbLine
 62
7
  6
CONTINUOUS
 10
131.3893581717
 20
137.6024348926
 11
130.9768823075
 21
137.2868338802
  0
LINE
  5
263
100
AcDbEntity
  8
RACCORDO
100
AcDbLine
 62
253
  6
CONTINUOUS
 10
131.51289357
 20
137.6090419081
 11
131.0911213883
 21
137.2863279287
  0
LINE
  5
264
100
AcDbEntity
  8
ASSI
100
AcDbLine
 62
7
  6
CONTINUOUS
 10
132.2179981361
 20
135.440337851
 11
131.6639068639
 21
135.0163814899
  0
LINE
  5
265
100
AcDbEntity
  8
ASSI
100
AcDbLine
 62
253
  6
CONTINUOUS
 10
132.3720655694
 20
135.4483274336
 11
131.819344444
 21
135.025419424
  0
LWPOLYLINE
  5
266
100
AcDbEntity
  8
RACCORDO
100
AcDbPolyline
 62
253
  6
CONTINUOUS
 90
17
 70
0
 10
132.6189683146
 20
137.7039680909
 10
132.6239139441
 20
137.7077435186
 10
132.6288466405
 20
137.7112039423
 10
132.6337572217
 20
137.7143429204
 10
132.6386365466
 20
137.7171546096
 10
132.6434755324
 20
137.7196337761
 10
132.6482651714
 20
137.7217758049
 10
132.6529965476
 20
137.7235767085
 10
132.6576608535
 20
137.7250331346
 10
132.6622494067
 20
137.726142372
 10
132.6667536654
 20
137.7269023559
 10
132.6711652451
 20
137.7273116715
 10
132.6754759336
 20
137.727369557
 10
132.6796777065
 20
137.7270759045
 10
132.6837627424
 20
137.7264312607
 10
132.6877234367
 20
137.7254368256
 10
132.6915039143
 20
137.7241139633
  0
LWPOLYLINE
  5
267
100
AcDbEntity
  8
RACCORDO
100
AcDbPolyline
 62
253
  6
CONTINUOUS
 90
17
 70
0
 10
134.4743735952
 20
139.617388385
 10
134.5026254026
 20
139.6382137327
 10
134.5302776338
 20
139.6559599943
 10
134.5573302887
 20
139.6706271697
 10
134.5838211617
 20
139.6821917199
 10
134.6097124583
 20
139.690677184
 10
134.6348907954
 20
139.6961541788
 10
134.6594256882
 20
139.6986459359
 10
134.6832476214
 20
139.6981292237
 10
134.7060346663
 20
139.6946049648
 10
134.7277767065
 20
139.6880289284
 10
134.7484838584
 20
139.6784453451
 10
134.767864542
 20
139.6659878292
 10
134.7858957834
 20
139.6506184146
 10
134.8026005564
 20
139.6323750672
 10
134.8177562027
 20
139.6115052996
 10
134.8313406785
 20
139.5879921382
  0
LWPOLYLINE
  5
268
100
AcDbEntity
  8
ASSI
100
AcDbPolyline
 62
7
  6
CONTINUOUS
 90
4
 70
0
 10
131.6639154669
 20
135.0163880568
 10
131.6672981568
 20
135.0188753512
 10
131.6821958486
 20
135.0277897941
 10
131.6986698198
 20
135.0345519676
  0
LWPOLYLINE
  5
269
100
AcDbEntity
  8
ASSI
100
AcDbPolyline
 62
7
  6
CONTINUOUS
 90
4
 70
0
 10
137.2669495553
 20
136.7091163283
 10
137.2340145531
 20
136.693699228
 10
137.2030288461
 20
136.675360844
 10
137.1784691583
 20
136.657528072
  0
LWPOLYLINE
  5
26A
100
AcDbEntity
  8
RACCORDO
100
AcDbPolyline
 62
7
  6
CONTINUOUS
 90
5
 70
0
 10
139.7443020278
 20
137.8375959258
 10
139.6982837502
 20
137.8169671229
 10
139.6523098572
 20
137.7919133585
 10
139.6063497102
 20
137.7623068096
 10
139.562340931
 20
137.7295541516
  0
LWPOLYLINE
  5
26B
100
AcDbEntity
  8
ASSI
100
AcDbPolyline
 62
7
  6
CONTINUOUS
 90
14
 70
0
 10
117.4794309957
 20
98.3748535096
 10
117.4806978528
 20
98.3444145385
 10
117.4887980454
 20
98.2556562264
 10
117.5030058145
 20
98.172613992
 10
117.5229549244
 20
98.0951967055
 10
117.5483851855
 20
98.0230287446
 10
117.5791364298
 20
97.9558463244
 10
117.6148682665
 20
97.8938516956
 10
117.6552917002
 20
97.8370808594
 10
117.7002441396
 20
97.78549024
 10
117.7492282466
 20
97.73945233
 10
117.8017923081
 20
97.6991615312
 10
117.8577860658
 20
97.664597808
 10
117.9141836753
 20
97.6370963553
  0
LWPOLYLINE
  5
26C
100
AcDbEntity
  8
ASSI
100
AcDbPolyline
 62
7
  6
CONTINUOUS
 90
10
 70
0
 10
117.4793984254
 20
132.573384363
 10
117.3838120782
 20
128.7390359556
 10
117.3108035513
 20
124.8624415955
 10
117.2621257425
 20
121.0060185488
 10
117.2377937606
 20
117.1701657371
 10
117.2378109517
 20
113.3552079444
 10
117.2621780991
 20
109.5614427783
 10
117.3108933204
 20
105.7891909039
 10
117.3839429694
 20
102.0388268053
 10
117.4794248998
 20
98.3748533275
  0
LWPOLYLINE
  5
26D
100
AcDbEntity
  8
ASSI
100
AcDbPolyline
 62
253
  6
CONTINUOUS
 90
21
 70
0
 10
117.678773392
 20
132.3478531804
 10
117.6825622773
 20
132.419780132
 10
117.6897306323
 20
132.4939213209
 10
117.7002398034
 20
132.5699108749
 10
117.7140285552
 20
132.6473714472
 10
117.7310289406
 20
132.7259246666
 10
117.7511687205
 20
132.805193541
 10
117.7743435499
 20
132.8847956955
 10
117.8004347553
 20
132.9643343831
 10
117.829326702
 20
133.043409395
 10
117.860867762
 20
133.1216332997
 10
117.89489682
 20
133.1986232287
 10
117.9312633147
 20
133.273992349
 10
117.9697782618
 20
133.3473743563
 10
118.0102431665
 20
133.4184081389
 10
118.0524762306
 20
133.4867299008
 10
118.0962541719
 20
133.5520022096
 10
118.1413540472
 20
133.6139122034
 10
118.1875828961
 20
133.6721542691
 10
118.2347151974
 20
133.7264417765
 10
118.2824933292
 20
133.7765105294
  0
LWPOLYLINE
  5
26E
100
AcDbEntity
  8
ASSI
100
AcDbPolyline
 62
253
  6
CONTINUOUS
 90
5
 70
0
 10
125.5032382892
 20
137.9093993816
 10
125.505564846
 20
137.9157509248
 10
125.5055691847
 20
137.9247108265
 10
125.5026189068
 20
137.9351305138
 10
125.4967639338
 20
137.9468336756
  0
LWPOLYLINE
  5
26F
100
AcDbEntity
  8
ASSI
100
AcDbPolyline
 62
7
  6
CONTINUOUS
 90
9
 70
0
 10
131.4879121953
 20
134.8625465857
 10
131.4735729937
 20
134.8488700457
 10
131.4572777242
 20
134.8298410038
 10
131.4431315654
 20
134.808957458
 10
131.4313438355
 20
134.7864790119
 10
131.4220551718
 20
134.7625805139
 10
131.4154306488
 20
134.737481586
 10
131.4116322751
 20
134.7116179894
 10
131.4106602281
 20
134.6900503448
  0
LINE
  5
270
100
AcDbEntity
  8
ASSI
100
AcDbLine
 62
7
  6
CONTINUOUS
 10
131.6580908664
 20
135.0116188688
 11
131.4875799143
 21
134.8622635915
  0
LINE
  5
271
100
AcDbEntity
  8
ASSI
100
AcDbLine
 62
253
  6
CONTINUOUS
 10
131.819344444
 20
135.025419424
 11
131.6495615235
 21
134.876762336
  0
LINE
  5
272
100
AcDbEntity
  8
RACCORDO
100
AcDbLine
 62
253
  6
CONTINUOUS
 10
135.1267335414
 20
136.6967930396
 11
134.2858642654
 21
136.0032471655
  0
LINE
  5
273
100
AcDbEntity
  8
RACCORDO
100
AcDbLine
 62
253
  6
CONTINUOUS
 10
135.2905389981
 20
136.4671996186
 11
134.4633682025
 21
135.7849522006
  0
LINE
  5
274
100
AcDbEntity
  8
ASSI
100
AcDbLine
 62
253
  6
CONTINUOUS
 10
137.5476714876
 20
136.585481858
 11
134.3997357639
 21
133.9890760964
  0
LINE
  5
275
100
AcDbEntity
  8
ASSI
100
AcDbLine
 62
253
  6
CONTINUOUS
 10
134.2213686981
 20
133.8438665947
 11
134.3997357639
 21
133.9890760964
  0
LINE
  5
276
100
AcDbEntity
  8
ASSI
100
AcDbLine
 62
253
  6
CONTINUOUS
 10
134.4260781823
 20
133.5568938299
 11
134.6044925848
 21
133.7020843201
  0
LINE
  5
277
100
AcDbEntity
  8
ASSI
100
AcDbLine
 62
7
  6
CONTINUOUS
 10
134.5547853603
 20
134.5716979574
 11
137.1785177811
 21
136.6575777071
  0
LINE
  5
278
100
AcDbEntity
  8
ASSI
100
AcDbLine
 62
253
  6
CONTINUOUS
 10
134.6505213704
 20
134.5332482174
 11
137.3365973523
 21
136.6686913946
  0
LINE
  5
279
100
AcDbEntity
  8
RACCORDO
100
AcDbLine
 62
7
  6
CONTINUOUS
 10
139.5623312595
 20
137.729557796
 11
137.8165914573
 21
136.342141214
  0
LINE
  5
27A
100
AcDbEntity
  8
RACCORDO
100
AcDbLine
 62
253
  6
CONTINUOUS
 10
139.7519892202
 20
137.7428643936
 11
137.8157507975
 21
136.2040501379
  0
LWPOLYLINE
  5
27B
100
AcDbEntity
  8
RACCORDO
100
AcDbPolyline
 62
253
  6
CONTINUOUS
 90
17
 70
0
 10
135.1267335414
 20
136.6967930396
 10
135.1316730715
 20
136.7005639993
 10
135.1366012877
 20
136.7040217972
 10
135.141509016
 20
136.7071597031
 10
135.1463876248
 20
136.7099718542
 10
135.1512274759
 20
136.7124523483
 10
135.1560179894
 20
136.7145956136
 10
135.1607497223
 20
136.7163974778
 10
135.1654144014
 20
136.7178548438
 10
135.170003405
 20
136.7189650114
 10
135.1745082304
 20
136.7197259053
 10
135.1789204413
 20
136.720136082
 10
135.1832317514
 20
136.7201947654
 10
135.1874341063
 20
136.7199018518
 10
135.1915197125
 20
136.7192578906
 10
135.1954809826
 20
136.7182640776
 10
135.1992691337
 20
136.7169389149
  0
LWPOLYLINE
  5
27C
100
AcDbEntity
  8
ASSI
100
AcDbPolyline
 62
253
  6
CONTINUOUS
 90
34
 70
0
 10
137.3365973523
 20
136.6686913946
 10
137.3441007602
 20
136.6740645784
 10
137.3523274332
 20
136.6789386127
 10
137.3612773714
 20
136.6833134974
 10
137.3710453844
 20
136.6872213419
 10
137.3815366625
 20
136.6906300369
 10
137.3924667768
 20
136.6934432549
 10
137.4038458786
 20
136.6956433739
 10
137.4156638165
 20
136.6972480159
 10
137.4276057072
 20
136.6982137196
 10
137.4396743799
 20
136.6985230225
 10
137.4518670053
 20
136.6981933872
 10
137.4638602131
 20
136.6972337398
 10
137.4756486293
 20
136.6956272769
 10
137.4872376278
 20
136.6933908019
 10
137.4983199608
 20
136.6905836513
 10
137.5088820561
 20
136.6871905639
 10
137.5189374859
 20
136.6832268008
 10
137.5282197184
 20
136.6787974823
 10
137.5367080673
 20
136.6738901613
 10
137.5444232189
 20
136.6685172848
 10
137.5511607018
 20
136.6628213136
 10
137.5568944489
 20
136.656793614
 10
137.5616505272
 20
136.6504428196
 10
137.5653026656
 20
136.6439372915
 10
137.5678209593
 20
136.6372725848
 10
137.5692353131
 20
136.6304531445
 10
137.5695091704
 20
136.6236606665
 10
137.5686102454
 20
136.6168947362
 10
137.5665708238
 20
136.6101557682
 10
137.5634512072
 20
136.6036267025
 10
137.5592714958
 20
136.5973685188
 10
137.5540115893
 20
136.5913202373
 10
137.5476714876
 20
136.585481858
  0
LWPOLYLINE
  5
27D
100
AcDbEntity
  8
ASSI
100
AcDbPolyline
 62
253
  6
CONTINUOUS
 90
8
 70
0
 10
137.1785179136
 20
136.6575778124
 10
137.1929451457
 20
136.6673773821
 10
137.2131728523
 20
136.6766430925
 10
137.2354010387
 20
136.6823555005
 10
137.2592619301
 20
136.6844201985
 10
137.2843607343
 20
136.6828031102
 10
137.310282164
 20
136.6775310732
 10
137.3365973523
 20
136.6686913946
  0
LINE
  5
27E
100
AcDbEntity
  8
ASSI
100
AcDbLine
 62
253
  6
CONTINUOUS
 10
158.5085913187
 20
85.6952044857
 11
158.0731986537
 21
85.6931405535
  0
LINE
  5
27F
100
AcDbEntity
  8
ASSI
100
AcDbLine
 62
253
  6
CONTINUOUS
 10
158.4001495418
 20
85.9482184256
 11
158.0731986537
 21
85.9466685501
  0
LWPOLYLINE
  5
280
100
AcDbEntity
  8
ASSI
100
AcDbPolyline
 62
253
  6
CONTINUOUS
 90
10
 70
0
 10
117.4794248998
 20
98.3748533275
 10
117.4829670934
 20
98.3442411455
 10
117.491521447
 20
98.3145381042
 10
117.5050155395
 20
98.2855966603
 10
117.5233126891
 20
98.2577099622
 10
117.5462275637
 20
98.2311604748
 10
117.5735280581
 20
98.206217118
 10
117.6049376453
 20
98.1831325435
 10
117.6401381771
 20
98.1621405754
 10
117.6787731068
 20
98.1434538416
  0
LWPOLYLINE
  5
281
100
AcDbEntity
  8
ASSI
100
AcDbPolyline
 62
253
  6
CONTINUOUS
 90
10
 70
0
 10
117.678773106
 20
98.1434538527
 10
117.5806332745
 20
101.8591223916
 10
117.5070091165
 20
105.5968036188
 10
117.4579166676
 20
109.3561725541
 10
117.4333677936
 20
113.1369451071
 10
117.4333677212
 20
116.9387419672
 10
117.4579164714
 20
120.7610900595
 10
117.5070088616
 20
124.6036015453
 10
117.5806330719
 20
128.4659729291
 10
117.6787731112
 20
132.3478529924
  0
LWPOLYLINE
  5
282
100
AcDbEntity
  8
ASSI
100
AcDbPolyline
 62
253
  6
CONTINUOUS
 90
11
 70
0
 10
117.4793948522
 20
132.5730273827
 10
117.4794453908
 20
132.5638521375
 10
117.4829740274
 20
132.5364647533
 10
117.4915289248
 20
132.5093099702
 10
117.5050234321
 20
132.4826628336
 10
117.5233208662
 20
132.4567932471
 10
117.5462358958
 20
132.4319632387
 10
117.5735364192
 20
132.408424307
 10
117.6049459146
 20
132.3864148733
 10
117.6401462416
 20
132.3661578667
 10
117.6787808629
 20
132.3478584666
  0
LINE
  5
283
100
AcDbEntity
  8
RACCORDO
100
AcDbLine
 62
7
  6
CONTINUOUS
 10
130.4031777532
 20
136.2390771682
 11
130.9613592596
 21
137.2684968412
  0
LINE
  5
284
100
AcDbEntity
  8
RACCORDO
100
AcDbLine
 62
253
  6
CONTINUOUS
 10
130.5002394596
 20
136.2000949987
 11
131.0895583454
 21
137.2869394174
  0
LWPOLYLINE
  5
285
100
AcDbEntity
  8
RACCORDO
100
AcDbPolyline
 62
7
  6
CONTINUOUS
 90
8
 70
0
 10
130.9613517179
 20
137.2684829185
 10
130.9627880069
 20
137.2709968204
 10
130.9646505252
 20
137.2738999662
 10
130.9667503231
 20
137.2767796014
 10
130.9691229502
 20
137.2796318602
 10
130.9717858982
 20
137.2824261803
 10
130.9747492721
 20
137.2851191855
 10
130.9767784337
 20
137.2867516611
  0
LWPOLYLINE
  5
286
100
AcDbEntity
  8
ASSI
100
AcDbPolyline
 62
7
  6
CONTINUOUS
 90
18
 70
0
 10
137.701917017
 20
135.6049363565
 10
137.7235072052
 20
135.6252891335
 10
137.7412265052
 20
135.646930758
 10
137.756521365
 20
135.6711787583
 10
137.7693007057
 20
135.6978428927
 10
137.7792912916
 20
135.7263524362
 10
137.7864329028
 20
135.7567465476
 10
137.7907857591
 20
135.788986068
 10
137.7922572838
 20
135.8223827961
 10
137.7907857591
 20
135.8569615192
 10
137.7864329028
 20
135.8926974501
 10
137.7792912916
 20
135.9288280256
 10
137.7693007057
 20
135.9653624581
 10
137.756521365
 20
136.0022915352
 10
137.7412265052
 20
136.0388250564
 10
137.7235072052
 20
136.0746996217
 10
137.7032723861
 20
136.1101786311
 10
137.6805220481
 20
136.1452620847
  0
LWPOLYLINE
  5
287
100
AcDbEntity
  8
ASSI
100
AcDbPolyline
 62
7
  6
CONTINUOUS
 90
14
 70
0
 10
135.6303591823
 20
132.2297922429
 10
135.6173344731
 20
132.2175228347
 10
135.603939549
 20
132.2028842467
 10
135.5915984031
 20
132.1871810025
 10
135.5803444169
 20
132.1705172344
 10
135.5703837876
 20
132.1533243068
 10
135.5615222087
 20
132.1353779555
 10
135.5537312754
 20
132.1165773793
 10
135.5472853883
 20
132.0975986691
 10
135.5421133861
 20
132.0783047424
 10
135.5382006387
 20
132.0584224971
 10
135.5357170086
 20
132.0384843792
 10
135.5347004698
 20
132.0185768546
 10
135.5346765556
 20
132.01499699
  0
LINE
  5
288
100
AcDbEntity
  8
ASSI
100
AcDbLine
 62
7
  6
CONTINUOUS
 10
136.8919633012
 20
133.3348664517
 11
135.6303723877
 21
132.2298039408
  0
LINE
  5
289
100
AcDbEntity
  8
ASSI
100
AcDbLine
 62
253
  6
CONTINUOUS
 10
137.0209661633
 20
133.3459068959
 11
135.7536210936
 21
132.2357562939
  0
LINE
  5
28A
100
AcDbEntity
  8
ASSI
100
AcDbLine
 62
7
  6
CONTINUOUS
 10
134.6044925848
 20
132.5961978701
 11
134.4260781823
 21
132.4423179656
  0
LINE
  5
28B
100
AcDbEntity
  8
ASSI
100
AcDbLine
 62
253
  6
CONTINUOUS
 10
137.7524283085
 20
136.2984900818
 11
134.6044925848
 21
133.7020843201
  0
LINE
  5
28C
100
AcDbEntity
  8
ASSI
100
AcDbLine
 62
7
  6
CONTINUOUS
 10
134.6044925848
 20
132.5961978701
 11
137.7426341879
 21
135.1845254773
  0
LINE
  5
28D
100
AcDbEntity
  8
ASSI
100
AcDbLine
 62
7
  6
CONTINUOUS
 10
137.7017069307
 20
135.6046807926
 11
136.7889930573
 21
134.8534322826
  0
LINE
  5
28E
100
AcDbEntity
  8
ASSI
100
AcDbLine
 62
7
  6
CONTINUOUS
 10
136.8920018959
 20
133.3349002617
 11
136.8966229816
 21
133.3386818021
  0
LINE
  5
28F
100
AcDbEntity
  8
ASSI
100
AcDbLine
 62
7
  6
CONTINUOUS
 10
137.3409018138
 20
133.6786164905
 11
136.8966160992
 21
133.3386765486
  0
LINE
  5
290
100
AcDbEntity
  8
ASSI
100
AcDbLine
 62
253
  6
CONTINUOUS
 10
137.4644372121
 20
133.6852235059
 11
137.0209661633
 21
133.3459068959
  0
LWPOLYLINE
  5
291
100
AcDbEntity
  8
ASSI
100
AcDbPolyline
 62
7
  6
CONTINUOUS
 90
5
 70
0
 10
136.8966229816
 20
133.3386818021
 10
136.8993291335
 20
133.3406716376
 10
136.911247287
 20
133.3478031919
 10
136.9244264639
 20
133.3532129308
 10
136.9388754209
 20
133.3568263681
  0
LWPOLYLINE
  5
292
100
AcDbEntity
  8
ASSI
100
AcDbPolyline
 62
7
  6
CONTINUOUS
 90
3
 70
0
 10
137.3705322122
 20
133.6979686299
 10
137.3517919132
 20
133.6864763423
 10
137.3409011215
 20
133.6786158592
  0
LWPOLYLINE
  5
293
100
AcDbEntity
  8
ASSI
100
AcDbPolyline
 62
7
  6
CONTINUOUS
 90
12
 70
0
 10
157.111949611
 20
85.2411565729
 10
157.1341515137
 20
85.2378217314
 10
157.1565412145
 20
85.2346288314
 10
157.1788071655
 20
85.2317600124
 10
157.2008969671
 20
85.2292744461
 10
157.2227291517
 20
85.227139825
 10
157.2442007849
 20
85.2255049357
 10
157.2650071835
 20
85.2244882248
 10
157.2847574026
 20
85.2240177247
 10
157.3032119587
 20
85.2241690617
 10
157.3202726801
 20
85.2251653174
 10
157.3357902107
 20
85.2271568476
  0
LINE
  5
294
100
AcDbEntity
  8
ASSI
100
AcDbLine
 62
7
  6
CONTINUOUS
 10
157.0697670286
 20
85.2477932441
 11
157.111949611
 21
85.2411565729
  0
LINE
  5
295
100
AcDbEntity
  8
ASSI
100
AcDbLine
 62
7
  6
CONTINUOUS
 10
157.0316345548
 20
85.2540045334
 11
157.0697670286
 21
85.2477932441
  0
LWPOLYLINE
  5
296
100
AcDbEntity
  8
ASSI
100
AcDbPolyline
 62
7
  6
CONTINUOUS
 90
14
 70
0
 10
153.4153485318
 20
83.3790296824
 10
153.4384821557
 20
83.3708282995
 10
153.4910474258
 20
83.3556388407
 10
153.5450405751
 20
83.3447237228
 10
153.6002317025
 20
83.3381850157
 10
153.6566029832
 20
83.3361187267
 10
153.7139332075
 20
83.3386655011
 10
153.7718304475
 20
83.3459336668
 10
153.8301117678
 20
83.3580159677
 10
153.8885521446
 20
83.3749790661
 10
153.9469197814
 20
83.3968698294
 10
154.0051812797
 20
83.4238154353
 10
154.0632865523
 20
83.4559720067
 10
154.1242515848
 20
83.4956479884
  0
LINE
  5
297
100
AcDbEntity
  8
ASSI
100
AcDbLine
 62
253
  6
CONTINUOUS
 10
117.9135031963
 20
97.637384063
 11
117.8948965731
 21
97.6462550999
  0
LWPOLYLINE
  5
298
100
AcDbEntity
  8
ASSI
100
AcDbPolyline
 62
253
  6
CONTINUOUS
 90
12
 70
0
 10
117.8948965731
 20
97.6462550999
 10
117.8608675125
 20
97.6674582595
 10
117.8293264501
 20
97.694004061
 10
117.8004345013
 20
97.725758451
 10
117.774343294
 20
97.7625597784
 10
117.751168463
 20
97.8042303631
 10
117.7310286812
 20
97.850558607
 10
117.7140282942
 20
97.9013145052
 10
117.7002395421
 20
97.9562609829
 10
117.6897303719
 20
98.015132287
 10
117.6825620184
 20
98.0776326986
 10
117.6787731348
 20
98.1434538837
  0
LWPOLYLINE
  5
299
100
AcDbEntity
  8
ASSI
100
AcDbPolyline
 62
253
  6
CONTINUOUS
 90
9
 70
0
 10
120.9537700945
 20
137.8710366573
 10
120.9540595971
 20
137.8648925766
 10
120.9571190369
 20
137.8501577228
 10
120.9634689827
 20
137.8357726536
 10
120.9730031912
 20
137.8219780719
 10
120.985562135
 20
137.8090048021
 10
121.0009356741
 20
137.7970699255
 10
121.0188665728
 20
137.7863731478
 10
121.0390548021
 20
137.7770934592
  0
LWPOLYLINE
  5
29A
100
AcDbEntity
  8
ASSI
100
AcDbPolyline
 62
253
  6
CONTINUOUS
 90
9
 70
0
 10
120.9537700894
 20
137.5709659967
 10
120.9540596176
 20
137.5647956509
 10
120.9571191078
 20
137.5500607961
 10
120.9634690979
 20
137.5356757415
 10
120.9730033354
 20
137.5218811877
 10
120.9855622868
 20
137.5089079549
 10
121.0009358071
 20
137.4969731199
 10
121.018866656
 20
137.4862763848
 10
121.0390548021
 20
137.4769967347
  0
LWPOLYLINE
  5
29B
100
AcDbEntity
  8
RACCORDO
100
AcDbPolyline
 62
253
  6
CONTINUOUS
 90
13
 70
0
 10
122.7467342062
 20
101.9450665802
 10
122.7391020029
 20
102.2929301693
 10
122.7316212223
 20
102.6458241752
 10
122.7243021157
 20
103.0037570625
 10
122.7171662956
 20
103.3661338911
 10
122.7102121863
 20
103.7335660425
 10
122.703419464
 20
104.1078750224
 10
122.6968015393
 20
104.4891500826
 10
122.6903752157
 20
104.8773269024
 10
122.6841333321
 20
105.2740034543
 10
122.6780883106
 20
105.6797246317
 10
122.6722680706
 20
106.0939787644
 10
122.6666929855
 20
106.5167825353
  0
LWPOLYLINE
  5
29C
100
AcDbEntity
  8
ASSI
100
AcDbPolyline
 62
7
  6
CONTINUOUS
 90
7
 70
0
 10
120.9537706839
 20
137.5710054538
 10
120.9538375167
 20
137.5650870634
 10
120.9555313693
 20
137.54108791
 10
120.9598265078
 20
137.5162861099
 10
120.9668595823
 20
137.4917887777
 10
120.9766492679
 20
137.4681328182
 10
120.9893133102
 20
137.4454567542
  0
LINE
  5
29D
100
AcDbEntity
  8
ASSI
100
AcDbLine
 62
7
  6
CONTINUOUS
 10
120.9537700894
 20
137.5709659967
 11
120.9537700894
 21
137.8710627059
  0
LINE
  5
29E
100
AcDbEntity
  8
ASSI
100
AcDbLine
 62
253
  6
CONTINUOUS
 10
121.0390548021
 20
137.4769967347
 11
121.0390548021
 21
137.7771385968
  0
LINE
  5
29F
100
AcDbEntity
  8
ASSI
100
AcDbLine
 62
7
  6
CONTINUOUS
 10
121.531975919
 20
136.8109615667
 11
121.531975919
 21
137.1846712329
  0
LINE
  5
2A0
100
AcDbEntity
  8
ASSI
100
AcDbLine
 62
253
  6
CONTINUOUS
 10
121.6385818099
 20
136.6888937303
 11
121.6385818099
 21
137.1418559038
  0
LINE
  5
2A1
100
AcDbEntity
  8
ASSI
100
AcDbLine
 62
7
  6
CONTINUOUS
 10
122.0161479642
 20
135.8733615002
 11
122.0161479642
 21
136.9818687212
  0
LINE
  5
2A2
100
AcDbEntity
  8
ASSI
100
AcDbLine
 62
253
  6
CONTINUOUS
 10
122.1227538551
 20
135.7513018438
 11
122.1227538551
 21
137.0417587636
  0
LINE
  5
2A3
100
AcDbEntity
  8
ASSI
100
AcDbLine
 62
253
  6
CONTINUOUS
 10
122.3469895503
 20
135.6612437334
 11
122.3469895503
 21
136.9517006531
  0
LWPOLYLINE
  5
2A4
100
AcDbEntity
  8
ASSI
100
AcDbPolyline
 62
253
  6
CONTINUOUS
 90
16
 70
0
 10
121.0390547813
 20
137.7771386095
 10
121.0398206441
 20
137.7989198044
 10
121.0421051473
 20
137.821732214
 10
121.0458848108
 20
137.8453324628
 10
121.0511201263
 20
137.8694705872
 10
121.0577559074
 20
137.8938864205
 10
121.0657207535
 20
137.9183122383
 10
121.0749279384
 20
137.9424845422
 10
121.0852790491
 20
137.9661465107
 10
121.0966642533
 20
137.9890443784
 10
121.1089608116
 20
138.0109332362
 10
121.1220364958
 20
138.0315786022
 10
121.1357526231
 20
138.050758496
 10
121.1499621972
 20
138.068267382
 10
121.1645115103
 20
138.0839183318
 10
121.1792438983
 20
138.0975439857
  0
LWPOLYLINE
  5
2A5
100
AcDbEntity
  8
ASSI
100
AcDbPolyline
 62
7
  6
CONTINUOUS
 90
3
 70
0
 10
125.5370039342
 20
137.9929760697
 10
125.5412956333
 20
138.0142300441
 10
125.5439460288
 20
138.0354483835
  0
LINE
  5
2A6
100
AcDbEntity
  8
RACCORDO
100
AcDbLine
 62
253
  6
CONTINUOUS
 10
134.2874124539
 20
136.0026091135
 11
133.6679608338
 21
134.9278666802
  0
LINE
  5
2A7
100
AcDbEntity
  8
RACCORDO
100
AcDbLine
 62
253
  6
CONTINUOUS
 10
134.4496697221
 20
135.7414112328
 11
133.9219669286
 21
134.8258521061
  0
LWPOLYLINE
  5
2A8
100
AcDbEntity
  8
ASSI
100
AcDbPolyline
 62
253
  6
CONTINUOUS
 90
27
 70
0
 10
135.7536210936
 20
132.2357562939
 10
135.7468992583
 20
132.2293684412
 10
135.7400025404
 20
132.2223330307
 10
135.7329378922
 20
132.2146102533
 10
135.7257432628
 20
132.2061931966
 10
135.7184860122
 20
132.1971172505
 10
135.7111942723
 20
132.1873768355
 10
135.7038990645
 20
132.1769710399
 10
135.6966716489
 20
132.1659637648
 10
135.6895445513
 20
132.1543700588
 10
135.6825518176
 20
132.1422092069
 10
135.6757626267
 20
132.1295710226
 10
135.6692113736
 20
132.116493523
 10
135.6629282463
 20
132.1030093831
 10
135.6569685543
 20
132.089214671
 10
135.6513633016
 20
132.0751630816
 10
135.6461368469
 20
132.060896076
 10
135.6413264059
 20
132.0464987908
 10
135.6369551191
 20
132.0320265992
 10
135.6330434077
 20
132.0175314861
 10
135.6296166581
 20
132.0030957702
 10
135.6266899998
 20
131.9887742452
 10
135.6242770135
 20
131.9746223992
 10
135.6223922504
 20
131.9607219845
 10
135.6210427987
 20
131.9471342798
 10
135.6202316776
 20
131.9339013019
 10
135.6199611904
 20
131.9210727341
  0
LWPOLYLINE
  5
2A9
100
AcDbEntity
  8
ASSI
100
AcDbPolyline
 62
253
  6
CONTINUOUS
 90
16
 70
0
 10
138.153188969
 20
131.2804249767
 10
138.1383070683
 20
131.266859297
 10
138.123612958
 20
131.2512664652
 10
138.1092633008
 20
131.233813855
 10
138.0954103391
 20
131.214689035
 10
138.0822025237
 20
131.1940969252
 10
138.069782924
 20
131.1722576119
 10
138.0582841977
 20
131.1494053388
 10
138.0478286713
 20
131.1257852298
 10
138.0385293101
 20
131.1016498237
 10
138.0304847803
 20
131.0772558031
 10
138.0237815734
 20
131.0528668111
 10
138.0184934651
 20
131.028749775
 10
138.0146764108
 20
131.0051645906
 10
138.0123691086
 20
130.9823614801
 10
138.0115950194
 20
130.9605838039
  0
LWPOLYLINE
  5
2AA
100
AcDbEntity
  8
ASSI
100
AcDbPolyline
 62
253
  6
CONTINUOUS
 90
16
 70
0
 10
138.3169944257
 20
131.0508315557
 10
138.3139083907
 20
131.0480811409
 10
138.3109228679
 20
131.0449979521
 10
138.3080378572
 20
131.0415819893
 10
138.3052247776
 20
131.0377899806
 10
138.3025122101
 20
131.0336651979
 10
138.2999858979
 20
131.0293374567
 10
138.2976518088
 20
131.0248001622
 10
138.2955039748
 20
131.0200599091
 10
138.2936102353
 20
131.0152662975
 10
138.2919786026
 20
131.0104174647
 10
138.2906010643
 20
131.0055152735
 10
138.2895214225
 20
131.0007149115
 10
138.2887542778
 20
130.9960681082
 10
138.2882850295
 20
130.9915231341
 10
138.2881136778
 20
130.9870799894
  0
LINE
  5
2AB
100
AcDbEntity
  8
ASSI
100
AcDbLine
 62
7
  6
CONTINUOUS
 10
143.9032227085
 20
135.7567631564
 11
140.1258447597
 21
132.4963423156
  0
LINE
  5
2AC
100
AcDbEntity
  8
ASSI
100
AcDbLine
 62
7
  6
CONTINUOUS
 10
137.7170153451
 20
130.2314323428
 11
137.2735442963
 21
129.8489448212
  0
LINE
  5
2AD
100
AcDbEntity
  8
ASSI
100
AcDbLine
 62
7
  6
CONTINUOUS
 10
143.814158791
 20
136.3123644601
 11
139.7523559363
 21
132.8279410219
  0
LINE
  5
2AE
100
AcDbEntity
  8
ASSI
100
AcDbLine
 62
253
  6
CONTINUOUS
 10
139.9004017032
 20
132.7069229641
 11
139.4784722005
 21
132.3589170682
  0
LINE
  5
2AF
100
AcDbEntity
  8
ASSI
100
AcDbLine
 62
253
  6
CONTINUOUS
 10
140.0641764075
 20
132.4773041786
 11
139.6422776572
 21
132.1293236472
  0
LINE
  5
2B0
100
AcDbEntity
  8
ASSI
100
AcDbLine
 62
7
  6
CONTINUOUS
 10
140.7466381803
 20
131.7924296227
 11
140.7420167234
 21
131.7886477782
  0
LINE
  5
2B1
100
AcDbEntity
  8
ASSI
100
AcDbLine
 62
253
  6
CONTINUOUS
 10
139.4784722005
 20
132.3589170682
 11
138.153188969
 21
131.2804249767
  0
LINE
  5
2B2
100
AcDbEntity
  8
ASSI
100
AcDbLine
 62
253
  6
CONTINUOUS
 10
139.6422776572
 20
132.1293236472
 11
138.3169944257
 21
131.0508315557
  0
LINE
  5
2B3
100
AcDbEntity
  8
RACCORDO
100
AcDbLine
 62
7
  6
CONTINUOUS
 10
143.8793234366
 20
136.1597206968
 11
144.5959396819
 21
136.7288742511
  0
LINE
  5
2B4
100
AcDbEntity
  8
RACCORDO
100
AcDbLine
 62
253
  6
CONTINUOUS
 10
143.9032227085
 20
135.9040510974
 11
144.9747491621
 21
136.7550816174
  0
LINE
  5
2B5
100
AcDbEntity
  8
ASSI
100
AcDbLine
 62
7
  6
CONTINUOUS
 10
142.9747352157
 20
136.4485369467
 11
138.8348488565
 21
133.1964325499
  0
LINE
  5
2B6
100
AcDbEntity
  8
RACCORDO
100
AcDbLine
 62
253
  6
CONTINUOUS
 10
144.595939005
 20
136.7288737135
 11
144.5997568482
 21
136.7318518661
  0
LINE
  5
2B7
100
AcDbEntity
  8
ASSI
100
AcDbLine
 62
7
  6
CONTINUOUS
 10
140.7466307074
 20
131.7924238854
 11
141.1909164093
 21
132.1323638175
  0
LINE
  5
2B8
100
AcDbEntity
  8
ASSI
100
AcDbLine
 62
253
  6
CONTINUOUS
 10
140.8709807715
 20
131.7996542327
 11
141.3144841514
 21
132.1389955806
  0
LINE
  5
2B9
100
AcDbEntity
  8
ASSI
100
AcDbLine
 62
253
  6
CONTINUOUS
 10
140.0671143416
 20
132.4794885711
 11
140.0641764075
 21
132.4773041786
  0
LWPOLYLINE
  5
2BA
100
AcDbEntity
  8
RACCORDO
100
AcDbPolyline
 62
253
  6
CONTINUOUS
 90
29
 70
0
 10
144.5997568482
 20
136.7318518661
 10
144.6098969766
 20
136.7392616972
 10
144.6203784427
 20
136.7462164671
 10
144.6311912832
 20
136.7527095632
 10
144.642325289
 20
136.7587348632
 10
144.6537698842
 20
136.7642866386
 10
144.665514188
 20
136.7693596041
 10
144.6775470939
 20
136.7739489756
 10
144.6898571703
 20
136.7780503867
 10
144.7024327219
 20
136.7816599325
 10
144.7152618539
 20
136.7847742155
 10
144.7283323866
 20
136.7873902715
 10
144.7416319009
 20
136.7895056045
 10
144.755147801
 20
136.7911182294
 10
144.7688672477
 20
136.7922266083
 10
144.7827772181
 20
136.7928296797
 10
144.7968645521
 20
136.7929268915
 10
144.8111158818
 20
136.7925181444
 10
144.8255176726
 20
136.7916038157
 10
144.8400562821
 20
136.7901847866
 10
144.8547179198
 20
136.7882623969
 10
144.8694886615
 20
136.7858384627
 10
144.88435449
 20
136.7829152983
 10
144.899301391
 20
136.7794956542
 10
144.9143150884
 20
136.7755827857
 10
144.9293810547
 20
136.7711805018
 10
144.944484899
 20
136.7662930422
 10
144.9596123848
 20
136.7609250407
 10
144.9747491619
 20
136.7550816172
  0
LWPOLYLINE
  5
2BB
100
AcDbEntity
  8
ASSI
100
AcDbPolyline
 62
253
  6
CONTINUOUS
 90
8
 70
0
 10
139.4803869957
 20
130.6835512776
 10
139.493525733
 20
130.6931085348
 10
139.509658301
 20
130.7007864653
 10
139.5275441412
 20
130.7055964327
 10
139.5468773405
 20
130.7074561689
 10
139.5673272306
 20
130.7063338656
 10
139.5885440437
 20
130.7022487184
 10
139.6101648948
 20
130.6952705981
  0
LWPOLYLINE
  5
2BC
100
AcDbEntity
  8
ASSI
100
AcDbPolyline
 62
253
  6
CONTINUOUS
 90
8
 70
0
 10
141.3144835195
 20
132.1389958294
 10
141.3293515398
 20
132.1496147978
 10
141.3440353033
 20
132.1579106749
 10
141.3583782957
 20
132.1637927001
 10
141.372229262
 20
132.1671957424
 10
141.3854382724
 20
132.1680810004
 10
141.397858891
 20
132.1664384892
 10
141.405573648
 20
132.163971518
  0
LWPOLYLINE
  5
2BD
100
AcDbEntity
  8
ASSI
100
AcDbPolyline
 62
253
  6
CONTINUOUS
 90
13
 70
0
 10
138.2881136778
 20
130.9870799894
 10
138.2715852338
 20
130.9756642603
 10
138.2526259491
 20
130.9655677981
 10
138.2315530636
 20
130.9569595437
 10
138.2087191833
 20
130.9499835364
 10
138.1845063803
 20
130.9447565035
 10
138.1593198001
 20
130.9413659074
 10
138.1335808817
 20
130.9398684818
 10
138.1077203067
 20
130.9402892827
 10
138.0821707919
 20
130.942621269
 10
138.0573598494
 20
130.9468254203
 10
138.033702633
 20
130.9528313897
 10
138.0115949916
 20
130.9605386814
  0
LWPOLYLINE
  5
2BE
100
AcDbEntity
  8
ASSI
100
AcDbPolyline
 62
253
  6
CONTINUOUS
 90
13
 70
0
 10
138.2881136778
 20
130.6869832656
 10
138.2715853064
 20
130.675567564
 10
138.2526260981
 20
130.6654711138
 10
138.2315532841
 20
130.6568628575
 10
138.2087194636
 20
130.6498868369
 10
138.1845067026
 20
130.6446597827
 10
138.1593201413
 20
130.6412691614
 10
138.1335812158
 20
130.6397717117
 10
138.1077206079
 20
130.6401924944
 10
138.0821710387
 20
130.6425244726
 10
138.0573600244
 20
130.6467286296
 10
138.0337027235
 20
130.6527346224
 10
138.0115949916
 20
130.6604419577
  0
LWPOLYLINE
  5
2BF
100
AcDbEntity
  8
ASSI
100
AcDbPolyline
 62
253
  6
CONTINUOUS
 90
8
 70
0
 10
141.1909163897
 20
132.1323638026
 10
141.199469868
 20
132.1381663914
 10
141.2155539842
 20
132.1458047587
 10
141.2332954142
 20
132.1504965188
 10
141.2523907092
 20
132.1521614067
 10
141.2725132674
 20
132.1507709344
 10
141.2933189232
 20
132.1463488725
 10
141.3144518207
 20
132.1389708431
  0
LWPOLYLINE
  5
2C0
100
AcDbEntity
  8
ASSI
100
AcDbPolyline
 62
7
  6
CONTINUOUS
 90
3
 70
0
 10
141.2173642043
 20
132.1499328146
 10
141.1984836502
 20
132.1379239006
 10
141.1909069087
 20
132.1323554044
  0
LINE
  5
2C1
100
AcDbEntity
  8
RACCORDO
100
AcDbLine
 62
7
  6
CONTINUOUS
 10
153.3052253477
 20
132.0320394
 11
152.6870895967
 21
131.8508973059
  0
LWPOLYLINE
  5
2C2
100
AcDbEntity
  8
ASSI
100
AcDbPolyline
 62
253
  6
CONTINUOUS
 90
3
 70
0
 10
158.4212536731
 20
85.9442700878
 10
158.4106427127
 20
85.9472823287
 10
158.4001497107
 20
85.9482183572
  0
LWPOLYLINE
  5
2C3
100
AcDbEntity
  8
ASSI
100
AcDbPolyline
 62
253
  6
CONTINUOUS
 90
13
 70
0
 10
156.4425159881
 20
83.8937961203
 10
156.4646236295
 20
83.8860888286
 10
156.4882808459
 20
83.8800828591
 10
156.5130917884
 20
83.8758787078
 10
156.5386413032
 20
83.8735467216
 10
156.5645018782
 20
83.8731259206
 10
156.5902407966
 20
83.8746233462
 10
156.6154273768
 20
83.8780139424
 10
156.6396401798
 20
83.8832409752
 10
156.6624740601
 20
83.8902169826
 10
156.6835469456
 20
83.898825237
 10
156.7025062303
 20
83.9089216992
 10
156.7190346743
 20
83.9203374283
  0
LWPOLYLINE
  5
2C4
100
AcDbEntity
  8
ASSI
100
AcDbPolyline
 62
253
  6
CONTINUOUS
 90
13
 70
0
 10
156.4425159881
 20
84.1938928441
 10
156.4646236295
 20
84.1861855524
 10
156.4882808459
 20
84.1801795829
 10
156.5130917884
 20
84.1759754317
 10
156.5386413032
 20
84.1736434454
 10
156.5645018782
 20
84.1732226444
 10
156.5902407965
 20
84.17472007
 10
156.6154273768
 20
84.1781106662
 10
156.6396401797
 20
84.183337699
 10
156.6624740601
 20
84.1903137064
 10
156.6835469456
 20
84.1989219608
 10
156.7025062303
 20
84.209018423
 10
156.7190346743
 20
84.2204341521
  0
LWPOLYLINE
  5
2C5
100
AcDbEntity
  8
ASSI
100
AcDbPolyline
 62
7
  6
CONTINUOUS
 90
12
 70
0
 10
156.4927868972
 20
83.7792494447
 10
156.5070734655
 20
83.7740828228
 10
156.5280388408
 20
83.7685080833
 10
156.5499677232
 20
83.7650503359
 10
156.5725358346
 20
83.7638966655
 10
156.5952582952
 20
83.7651471585
 10
156.6178705669
 20
83.7688168755
 10
156.6400476853
 20
83.774864919
 10
156.6613014956
 20
83.7831031425
 10
156.6815467904
 20
83.7934058857
 10
156.7005323064
 20
83.8055373257
 10
156.7076072674
 20
83.8107467137
  0
LINE
  5
2C6
100
AcDbEntity
  8
ASSI
100
AcDbLine
 62
7
  6
CONTINUOUS
 10
156.4929898854
 20
83.7791673967
 11
155.2421674269
 21
84.2815258951
  0
LINE
  5
2C7
100
AcDbEntity
  8
ASSI
100
AcDbLine
 62
253
  6
CONTINUOUS
 10
156.4425159881
 20
83.8937961203
 11
155.327588097
 21
84.3415762968
  0
LINE
  5
2C8
100
AcDbEntity
  8
ASSI
100
AcDbLine
 62
253
  6
CONTINUOUS
 10
156.4425159881
 20
84.1938930531
 11
155.5992626337
 21
84.5325624483
  0
LINE
  5
2C9
100
AcDbEntity
  8
ASSI
100
AcDbLine
 62
253
  6
CONTINUOUS
 10
156.5145705015
 20
84.4298316893
 11
155.8390535397
 21
84.7011345304
  0
LWPOLYLINE
  5
2CA
100
AcDbEntity
  8
ASSI
100
AcDbPolyline
 62
253
  6
CONTINUOUS
 90
16
 70
0
 10
156.4927907803
 20
83.779247801
 10
156.4918188045
 20
83.7796532287
 10
156.4855105412
 20
83.782839408
 10
156.4795321489
 20
83.7868622746
 10
156.4739134148
 20
83.7917180189
 10
156.4686782201
 20
83.7974034046
 10
156.4638627563
 20
83.8038949302
 10
156.4594892362
 20
83.8111749902
 10
156.4555775492
 20
83.8192240436
 10
156.4521528796
 20
83.8280013784
 10
156.4492297348
 20
83.8374766096
 10
156.4468207997
 20
83.8476163453
 10
156.4449401263
 20
83.8583633555
 10
156.4435942786
 20
83.869668407
 10
156.4427856398
 20
83.8814944911
 10
156.4425159881
 20
83.8937961203
  0
LWPOLYLINE
  5
2CB
100
AcDbEntity
  8
ASSI
100
AcDbPolyline
 62
7
  6
CONTINUOUS
 90
10
 70
0
 10
117.9135059389
 20
97.6373828837
 10
121.7051680218
 20
96.0189922315
 10
125.6042479647
 20
94.3795050032
 10
129.5252603825
 20
92.755700501
 10
133.467983018
 20
91.1476822128
 10
137.432187543
 20
89.5555498315
 10
141.4176374772
 20
87.9793972702
 10
145.42409177
 20
86.4193142648
 10
149.4513029838
 20
84.8753852022
 10
153.4157414219
 20
83.3788803985
  0
LWPOLYLINE
  5
2CC
100
AcDbEntity
  8
ASSI
100
AcDbPolyline
 62
253
  6
CONTINUOUS
 90
19
 70
0
 10
117.678773106
 20
98.1434538527
 10
119.4841138526
 20
97.3680949949
 10
121.2917720702
 20
96.5973851102
 10
123.1017077087
 20
95.8313187518
 10
124.9110955368
 20
95.0710569167
 10
126.7226661782
 20
94.3154155517
 10
128.5447783482
 20
93.5609227871
 10
130.3741065219
 20
92.8089996612
 10
132.2140075754
 20
92.0583021572
 10
134.0830697486
 20
91.3013770746
 10
135.9795048822
 20
90.5391759968
 10
137.9054226719
 20
89.7710666046
 10
139.885591154
 20
88.9874958875
 10
141.9215423179
 20
88.1883488217
 10
144.0124800701
 20
87.3744233275
 10
146.1800523625
 20
86.5378541878
 10
148.4319296557
 20
85.6764377035
 10
150.7616115362
 20
84.7934688728
 10
153.1696806766
 20
83.8895052249
  0
LWPOLYLINE
  5
2CD
100
AcDbEntity
  8
RACCORDO
100
AcDbPolyline
 62
253
  6
CONTINUOUS
 90
10
 70
0
 10
122.9304482309
 20
102.0632198751
 10
122.9210642141
 20
102.4995652388
 10
122.9119015208
 20
102.9448408803
 10
122.9029839331
 20
103.3990656346
 10
122.8943580598
 20
103.8610284648
 10
122.8860238505
 20
104.3319768809
 10
122.8779465482
 20
104.8156268275
 10
122.8701442465
 20
105.3132405043
 10
122.8626759389
 20
105.8236164602
 10
122.8555803855
 20
106.3467849192
  0
LWPOLYLINE
  5
2CE
100
AcDbEntity
  8
SMUSSO
100
AcDbPolyline
 62
7
  6
CONTINUOUS
 90
7
 70
0
 10
123.3836246397
 20
102.3745250791
 10
123.3707436062
 20
102.9985919422
 10
123.3586638028
 20
103.6233711173
 10
123.3473852295
 20
104.2488626043
 10
123.3369078862
 20
104.8750664034
 10
123.3272317731
 20
105.5019825145
 10
123.3185450564
 20
106.1163038853
  0
LINE
  5
2CF
100
AcDbEntity
  8
ASSI
100
AcDbLine
 62
253
  6
CONTINUOUS
 10
122.692637908
 20
135.7049655456
 11
122.692637908
 21
136.7185232117
  0
LINE
  5
2D0
100
AcDbEntity
  8
ASSI
100
AcDbLine
 62
7
  6
CONTINUOUS
 10
123.1361089567
 20
136.5404152407
 11
123.1361089567
 21
136.0874530672
  0
LINE
  5
2D1
100
AcDbEntity
  8
ASSI
100
AcDbLine
 62
253
  6
CONTINUOUS
 10
123.4306886033
 20
136.516462682
 11
123.4306886033
 21
136.8165616965
  0
LINE
  5
2D2
100
AcDbEntity
  8
ASSI
100
AcDbLine
 62
253
  6
CONTINUOUS
 10
123.7072072894
 20
136.54300399
 11
123.7072072894
 21
136.8431007138
  0
LINE
  5
2D3
100
AcDbEntity
  8
ASSI
100
AcDbLine
 62
253
  6
CONTINUOUS
 10
123.9783144681
 20
135.7492043467
 11
123.9783144681
 21
136.3802572167
  0
LINE
  5
2D4
100
AcDbEntity
  8
DRAFT
100
AcDbLine
 62
7
  6
CONTINUOUS
 10
124.1427139413
 20
105.7658716617
 11
124.1427139413
 21
102.9922585484
  0
LINE
  5
2D5
100
AcDbEntity
  8
ASSI
100
AcDbLine
 62
253
  6
CONTINUOUS
 10
124.3239628258
 20
136.5100892383
 11
124.3239628258
 21
135.7929261589
  0
LINE
  5
2D6
100
AcDbEntity
  8
RACCORDO
100
AcDbLine
 62
253
  6
CONTINUOUS
 10
124.4127755473
 20
105.6513092349
 11
124.4127755473
 21
103.2242779372
  0
LINE
  5
2D7
100
AcDbEntity
  8
RACCORDO
100
AcDbLine
 62
7
  6
CONTINUOUS
 10
124.4726123969
 20
105.6259259351
 11
124.4726123969
 21
103.2835233243
  0
LINE
  5
2D8
100
AcDbEntity
  8
ASSI
100
AcDbLine
 62
7
  6
CONTINUOUS
 10
125.0613712688
 20
136.4289305352
 11
125.0613712688
 21
137.9853443716
  0
LWPOLYLINE
  5
2D9
100
AcDbEntity
  8
ASSI
100
AcDbPolyline
 62
253
  6
CONTINUOUS
 90
22
 70
0
 10
125.5107458859
 20
137.9941937209
 10
125.5107286522
 20
137.9924835738
 10
125.5106533566
 20
137.9906877667
 10
125.5105199993
 20
137.9888062994
 10
125.5103316529
 20
137.9868342331
 10
125.5100852448
 20
137.9847765066
 10
125.5097715569
 20
137.9826479371
 10
125.5093891457
 20
137.9804462313
 10
125.5089394547
 20
137.9781736824
 10
125.5084175968
 20
137.9758519872
 10
125.5078218655
 20
137.9734792698
 10
125.5071539672
 20
137.9710574061
 10
125.5064141336
 20
137.9686137193
 10
125.5056005868
 20
137.9661470626
 10
125.5047151046
 20
137.9636585828
 10
125.5037632519
 20
137.9611790443
 10
125.5027433855
 20
137.9587082364
 10
125.5016571486
 20
137.9562463698
 10
125.5005150355
 20
137.9538248408
 10
125.4993205444
 20
137.9514541148
 10
125.4980701772
 20
137.9491237264
 10
125.4967639338
 20
137.9468336756
  0
LWPOLYLINE
  5
2DA
100
AcDbEntity
  8
ASSI
100
AcDbPolyline
 62
253
  6
CONTINUOUS
 90
28
 70
0
 10
123.7072072894
 20
136.8431007138
 10
123.7072296726
 20
136.8450340355
 10
123.7073309349
 20
136.8470716741
 10
123.7075110763
 20
136.8492136296
 10
123.7077660261
 20
136.8514679908
 10
123.7080998549
 20
136.8538266689
 10
123.7085247752
 20
136.8562653975
 10
123.7090434552
 20
136.8587876057
 10
123.7096532267
 20
136.8613898643
 10
123.7103582979
 20
136.8640376192
 10
123.7111616585
 20
136.8667332033
 10
123.7120603188
 20
136.8694742838
 10
123.7130495174
 20
136.8722193079
 10
123.7141315183
 20
136.8749680356
 10
123.7153040575
 20
136.8777207069
 10
123.7165555818
 20
136.8804364899
 10
123.7178875672
 20
136.8831140701
 10
123.7192985377
 20
136.8857547619
 10
123.720772511
 20
136.8883216765
 10
123.7223107585
 20
136.8908135471
 10
123.7239120089
 20
136.8932316405
 10
123.725556466
 20
136.8955428688
 10
123.7272450465
 20
136.8977453739
 10
123.7289768337
 20
136.8998410139
 10
123.730729281
 20
136.9018022758
 10
123.732494873
 20
136.9036199886
 10
123.7342811251
 20
136.9053033234
 10
123.7360880373
 20
136.9068522801
  0
LWPOLYLINE
  5
2DB
100
AcDbEntity
  8
ASSI
100
AcDbPolyline
 62
253
  6
CONTINUOUS
 90
28
 70
0
 10
123.4306886039
 20
136.8165616962
 10
123.4308444413
 20
136.8262145197
 10
123.43133134
 20
136.8364047834
 10
123.4321773477
 20
136.8471299754
 10
123.4334129313
 20
136.858405371
 10
123.4350642492
 20
136.8701981009
 10
123.437145656
 20
136.8824231449
 10
123.4396761534
 20
136.8950560738
 10
123.44267308
 20
136.9080674628
 10
123.4461329914
 20
136.9213528603
 10
123.4500630357
 20
136.9348722591
 10
123.4544682287
 20
136.9485823066
 10
123.4593259103
 20
136.962366543
 10
123.4646279295
 20
136.9761691115
 10
123.4703684825
 20
136.9899447588
 10
123.4765147736
 20
137.0035918219
 10
123.4830476437
 20
137.0170516004
 10
123.489951475
 20
137.0302767853
 10
123.4971896486
 20
137.0431858518
 10
123.5047375505
 20
137.055726314
 10
123.5125703763
 20
137.067848812
 10
123.5206453877
 20
137.0794823308
 10
123.5289333041
 20
137.0905814807
 10
123.5374036356
 20
137.101102364
 10
123.5460080941
 20
137.1109850445
 10
123.554708426
 20
137.1201881563
 10
123.5634775328
 20
137.128685126
 10
123.5722825807
 20
137.1364457011
  0
LINE
  5
2DC
100
AcDbEntity
  8
ASSI
100
AcDbLine
 62
7
  6
CONTINUOUS
 10
125.5439460288
 20
138.0354483835
 11
125.5449383692
 21
138.0583588387
  0
LWPOLYLINE
  5
2DD
100
AcDbEntity
  8
ASSI
100
AcDbPolyline
 62
253
  6
CONTINUOUS
 90
6
 70
0
 10
125.5449383714
 20
138.3798859474
 10
125.5443666402
 20
138.3712181919
 10
125.5407474659
 20
138.3565251255
 10
125.5338518789
 20
138.3422229484
 10
125.5237952608
 20
138.3285509745
 10
125.5107458859
 20
138.3157379729
  0
LWPOLYLINE
  5
2DE
100
AcDbEntity
  8
ASSI
100
AcDbPolyline
 62
253
  6
CONTINUOUS
 90
6
 70
0
 10
125.5449383714
 20
138.0583416955
 10
125.5443666402
 20
138.0496739399
 10
125.5407474659
 20
138.0349808735
 10
125.5338518789
 20
138.0206786964
 10
125.5237952608
 20
138.0070067226
 10
125.5107458859
 20
137.9941937209
  0
LWPOLYLINE
  5
2DF
100
AcDbEntity
  8
ASSI
100
AcDbPolyline
 62
7
  6
CONTINUOUS
 90
13
 70
0
 10
134.6044925848
 20
133.0729894565
 10
134.6169399071
 20
133.0964807546
 10
134.6271388074
 20
133.1213809036
 10
134.6350892854
 20
133.1476899036
 10
134.6408093416
 20
133.1755691366
 10
134.6442809756
 20
133.2048572204
 10
134.645450187
 20
133.2350700091
 10
134.6442809756
 20
133.2662219612
 10
134.6408093416
 20
133.298298618
 10
134.6350892854
 20
133.330772458
 10
134.6271388074
 20
133.3634676404
 10
134.6169399071
 20
133.396560006
 10
134.6044925848
 20
133.4300495546
  0
LWPOLYLINE
  5
2E0
100
AcDbEntity
  8
ASSI
100
AcDbPolyline
 62
253
  6
CONTINUOUS
 90
6
 70
0
 10
140.0916522743
 20
132.4597172485
 10
140.1047016196
 20
132.4725302373
 10
140.1147582278
 20
132.4862021972
 10
140.1216538212
 20
132.5005043616
 10
140.1252730139
 20
132.5151974185
 10
140.1258447597
 20
132.5238652808
  0
LWPOLYLINE
  5
2E1
100
AcDbEntity
  8
ASSI
100
AcDbPolyline
 62
253
  6
CONTINUOUS
 90
6
 70
0
 10
140.0916522743
 20
132.1381729965
 10
140.1047016491
 20
132.1509859982
 10
140.1147582672
 20
132.164657972
 10
140.1216538542
 20
132.1789601491
 10
140.1252730285
 20
132.1936532155
 10
140.1258447597
 20
132.202320971
  0
LWPOLYLINE
  5
2E2
100
AcDbEntity
  8
ASSI
100
AcDbPolyline
 62
7
  6
CONTINUOUS
 90
13
 70
0
 10
139.4803794367
 20
130.6835441199
 10
139.4659807174
 20
130.669874106
 10
139.452678848
 20
130.6551157081
 10
139.4404169791
 20
130.6392693298
 10
139.429233085
 20
130.6224467692
 10
139.4193506893
 20
130.6050969251
 10
139.4105778735
 20
130.5869861552
 10
139.402885355
 20
130.5680099875
 10
139.3965579742
 20
130.5488559189
 10
139.391522391
 20
130.5293930959
 10
139.3877752226
 20
130.5093409709
 10
139.3854823883
 20
130.4892145796
 10
139.3846917981
 20
130.468763273
  0
LINE
  5
2E3
100
AcDbEntity
  8
ASSI
100
AcDbLine
 62
7
  6
CONTINUOUS
 10
139.4803869957
 20
130.6835512776
 11
140.7419779094
 21
131.7886137886
  0
LINE
  5
2E4
100
AcDbEntity
  8
ASSI
100
AcDbLine
 62
253
  6
CONTINUOUS
 10
139.6101648948
 20
130.6952705981
 11
140.8709807715
 21
131.7996542327
  0
LINE
  5
2E5
100
AcDbEntity
  8
ASSI
100
AcDbLine
 62
7
  6
CONTINUOUS
 10
139.3846910859
 20
130.350745028
 11
138.9048692142
 21
129.9369054345
  0
LINE
  5
2E6
100
AcDbEntity
  8
ASSI
100
AcDbLine
 62
253
  6
CONTINUOUS
 10
143.3284868087
 20
130.812664405
 11
143.7503871149
 21
131.1606462198
  0
LINE
  5
2E7
100
AcDbEntity
  8
ASSI
100
AcDbLine
 62
253
  6
CONTINUOUS
 10
143.4922922653
 20
130.583070984
 11
143.9141910156
 21
130.9310515154
  0
LINE
  5
2E8
100
AcDbEntity
  8
ASSI
100
AcDbLine
 62
253
  6
CONTINUOUS
 10
142.0032035772
 20
129.7341723135
 11
143.3284868087
 21
130.812664405
  0
LINE
  5
2E9
100
AcDbEntity
  8
ASSI
100
AcDbLine
 62
253
  6
CONTINUOUS
 10
142.1670090339
 20
129.5045788925
 11
143.4922922653
 21
130.583070984
  0
LWPOLYLINE
  5
2EA
100
AcDbEntity
  8
ASSI
100
AcDbPolyline
 62
253
  6
CONTINUOUS
 90
21
 70
0
 10
143.9141910156
 20
130.9310515154
 10
143.9154983591
 20
130.9320986133
 10
143.9168330938
 20
130.9330583764
 10
143.9181952196
 20
130.9339308046
 10
143.9195925197
 20
130.9347279903
 10
143.9210172109
 20
130.9354378412
 10
143.9224459441
 20
130.93602408
 10
143.9238795779
 20
130.9364836968
 10
143.9253172537
 20
130.9368197014
 10
143.9267330466
 20
130.9370048464
 10
143.9281268882
 20
130.9370349089
 10
143.9294988469
 20
130.9369141117
 10
143.9308232029
 20
130.9366278753
 10
143.9320985348
 20
130.9361718721
 10
143.933326264
 20
130.9355504297
 10
143.9344849347
 20
130.9347619508
 10
143.9355728297
 20
130.9338029615
 10
143.9365916662
 20
130.9326769356
 10
143.9375251399
 20
130.9313926975
 10
143.9383716797
 20
130.9299471792
 10
143.9391328565
 20
130.9283434487
  0
LWPOLYLINE
  5
2EB
100
AcDbEntity
  8
ASSI
100
AcDbPolyline
 62
253
  6
CONTINUOUS
 90
14
 70
0
 10
143.7503871468
 20
131.160646207
 10
143.7570200419
 20
131.1657323882
 10
143.7638345318
 20
131.1704934936
 10
143.7708122836
 20
131.1748749016
 10
143.7779457027
 20
131.1788271599
 10
143.7851966046
 20
131.1822824838
 10
143.792497839
 20
131.185166752
 10
143.7998211076
 20
131.1874304695
 10
143.8071355318
 20
131.1890242267
 10
143.8143707767
 20
131.1898964333
 10
143.8214946744
 20
131.190011433
 10
143.8284738451
 20
131.1893354475
 10
143.8352407069
 20
131.1878462112
 10
143.8405573946
 20
131.1860271261
  0
LWPOLYLINE
  5
2EC
100
AcDbEntity
  8
ASSI
100
AcDbPolyline
 62
7
  6
CONTINUOUS
 90
4
 70
0
 10
149.1697602921
 20
131.9135962394
 10
149.138391993
 20
131.8969413528
 10
149.1094176408
 20
131.8777653062
 10
149.1042451322
 20
131.8738858307
  0
LWPOLYLINE
  5
2ED
100
AcDbEntity
  8
RACCORDO
100
AcDbPolyline
 62
7
  6
CONTINUOUS
 90
10
 70
0
 10
147.367020073
 20
96.5030257732
 10
147.3729003513
 20
96.5043428898
 10
147.3805933508
 20
96.5067171552
 10
147.3899212313
 20
96.5102212948
 10
147.4006576331
 20
96.5150333956
 10
147.4126540504
 20
96.521072886
 10
147.42589746
 20
96.5280247689
 10
147.4403144456
 20
96.5358196658
 10
147.4557175705
 20
96.5446105544
 10
147.4719686912
 20
96.5544246095
  0
LINE
  5
2EE
100
AcDbEntity
  8
RACCORDO
100
AcDbLine
 62
7
  6
CONTINUOUS
 10
147.2829230395
 20
96.4923032029
 11
147.3658333381
 21
96.5029147681
  0
LINE
  5
2EF
100
AcDbEntity
  8
ASSI
100
AcDbLine
 62
7
  6
CONTINUOUS
 10
156.7683353399
 20
85.3544160518
 11
156.990141853
 21
85.2653335556
  0
LINE
  5
2F0
100
AcDbEntity
  8
ASSI
100
AcDbLine
 62
253
  6
CONTINUOUS
 10
158.0731986537
 20
86.0795281146
 11
158.4001495418
 21
85.9482184256
  0
LINE
  5
2F1
100
AcDbEntity
  8
ASSI
100
AcDbLine
 62
7
  6
CONTINUOUS
 10
158.4215080618
 20
85.9441686642
 11
158.0731986537
 21
86.084057575
  0
LWPOLYLINE
  5
2F2
100
AcDbEntity
  8
ASSI
100
AcDbPolyline
 62
253
  6
CONTINUOUS
 90
13
 70
0
 10
156.5145705015
 20
84.4298316893
 10
156.5361244667
 20
84.4201684922
 10
156.5582842647
 20
84.4090630624
 10
156.5806749304
 20
84.3967033146
 10
156.6029175921
 20
84.3832983876
 10
156.6246358823
 20
84.3690751058
 10
156.6454623068
 20
84.3542741409
 10
156.6650444621
 20
84.3391459394
 10
156.6830509994
 20
84.3239464851
 10
156.6991772307
 20
84.3089329676
 10
156.7131502845
 20
84.29435943
 10
156.7247337232
 20
84.2804724706
 10
156.733731544
 20
84.2675070703
  0
LWPOLYLINE
  5
2F3
100
AcDbEntity
  8
ASSI
100
AcDbPolyline
 62
7
  6
CONTINUOUS
 90
12
 70
0
 10
125.5448389426
 20
138.3870550294
 10
125.5431161542
 20
138.4102665047
 10
125.5390759668
 20
138.433722506
 10
125.5326535516
 20
138.4567188581
 10
125.5239014013
 20
138.4788084164
 10
125.5127815812
 20
138.4999254391
 10
125.4993817209
 20
138.5197504596
 10
125.4838849926
 20
138.5379438863
 10
125.4664664806
 20
138.554274487
 10
125.4473181306
 20
138.5685452556
 10
125.4267089826
 20
138.5805485056
 10
125.4097065262
 20
138.5882722678
  0
LWPOLYLINE
  5
2F4
100
AcDbEntity
  8
ASSI
100
AcDbPolyline
 62
7
  6
CONTINUOUS
 90
16
 70
0
 10
125.0613712688
 20
137.9853443716
 10
125.0604902163
 20
138.0027031336
 10
125.0578313215
 20
138.0206558061
 10
125.0534040744
 20
138.0390141053
 10
125.0472124294
 20
138.0576509068
 10
125.0393190588
 20
138.0762915611
 10
125.029904784
 20
138.0945217206
 10
125.0192028419
 20
138.1119991234
 10
125.0072846885
 20
138.128703876
 10
124.9941055115
 20
138.144698788
 10
124.9796565546
 20
138.159915872
 10
124.9641861782
 20
138.1740223723
 10
124.948035741
 20
138.1867007369
 10
124.931454969
 20
138.1977877508
 10
124.9145700068
 20
138.2072281888
 10
124.8975658122
 20
138.2149377926
  0
LINE
  5
2F5
100
AcDbEntity
  8
ASSI
100
AcDbLine
 62
7
  6
CONTINUOUS
 10
125.5449382719
 20
138.3798913655
 11
125.5448389426
 21
138.3870550294
  0
LINE
  5
2F6
100
AcDbEntity
  8
ASSI
100
AcDbLine
 62
253
  6
CONTINUOUS
 10
125.5107458859
 20
138.3157379729
 11
125.5107458859
 21
137.9941937209
  0
LINE
  5
2F7
100
AcDbEntity
  8
ASSI
100
AcDbLine
 62
7
  6
CONTINUOUS
 10
125.5449383714
 20
138.3798859474
 11
125.5449383714
 21
138.0583416955
  0
LINE
  5
2F8
100
AcDbEntity
  8
ASSI
100
AcDbLine
 62
7
  6
CONTINUOUS
 10
127.1101113302
 20
136.4172706046
 11
127.1101113302
 21
135.2979370618
  0
LINE
  5
2F9
100
AcDbEntity
  8
ASSI
100
AcDbLine
 62
253
  6
CONTINUOUS
 10
127.1953960429
 20
136.3233013426
 11
127.1953960429
 21
135.2002893366
  0
LWPOLYLINE
  5
2FA
100
AcDbEntity
  8
ASSI
100
AcDbPolyline
 62
253
  6
CONTINUOUS
 90
13
 70
0
 10
127.2363474071
 20
136.3478057157
 10
127.2373071502
 20
136.3697396633
 10
127.2401703116
 20
136.3928789665
 10
127.2448889892
 20
136.4168364491
 10
127.2513842329
 20
136.4412112427
 10
127.2595473655
 20
136.4655954938
 10
127.2692418012
 20
136.489581189
 10
127.2803053309
 20
136.5127669827
 10
127.2925528352
 20
136.5347649095
 10
127.305779381
 20
136.5552068765
 10
127.3197636532
 20
136.5737508275
 10
127.3342716578
 20
136.5900864662
 10
127.3490606357
 20
136.6039404451
  0
LWPOLYLINE
  5
2FB
100
AcDbEntity
  8
ASSI
100
AcDbPolyline
 62
7
  6
CONTINUOUS
 90
11
 70
0
 10
138.9048692142
 20
130.6540685139
 10
138.8851569609
 20
130.6290697852
 10
138.863190667
 20
130.606055352
 10
138.8392865863
 20
130.5853882808
 10
138.8137645591
 20
130.5674028752
 10
138.7870225928
 20
130.5522842252
 10
138.7594922562
 20
130.5401268941
 10
138.7314539795
 20
130.5310563027
 10
138.7033465614
 20
130.5252424146
 10
138.6758356897
 20
130.5227381505
 10
138.6649670798
 20
130.5226475426
  0
LWPOLYLINE
  5
2FC
100
AcDbEntity
  8
RACCORDO
100
AcDbPolyline
 62
253
  6
CONTINUOUS
 90
12
 70
0
 10
134.6770541085
 20
120.5299806014
 10
134.7077114697
 20
120.558007202
 10
134.7358126478
 20
120.5888807351
 10
134.7612504396
 20
120.6224796901
 10
134.783930597
 20
120.6586755224
 10
134.8037706899
 20
120.6973345281
 10
134.8206944754
 20
120.7383072905
 10
134.8346381444
 20
120.7814379437
 10
134.8455510295
 20
120.8265725637
 10
134.8533898528
 20
120.8735434119
 10
134.8581213307
 20
120.9221678927
 10
134.8597250906
 20
120.9722604693
  0
LINE
  5
2FD
100
AcDbEntity
  8
ASSI
100
AcDbLine
 62
7
  6
CONTINUOUS
 10
141.5670299532
 20
128.6851796796
 11
141.1235589045
 21
128.302692158
  0
LINE
  5
2FE
100
AcDbEntity
  8
ASSI
100
AcDbLine
 62
7
  6
CONTINUOUS
 10
142.7548838223
 20
128.3906527714
 11
143.4922922653
 21
129.0266571477
  0
LWPOLYLINE
  5
2FF
100
AcDbEntity
  8
ASSI
100
AcDbPolyline
 62
253
  6
CONTINUOUS
 90
82
 70
0
 10
149.4670722416
 20
131.796819204
 10
149.4696166346
 20
131.7989073951
 10
149.4720390397
 20
131.8010698374
 10
149.4743394569
 20
131.8033065311
 10
149.4765267615
 20
131.805620192
 10
149.4785920783
 20
131.8080081042
 10
149.4805087812
 20
131.8104621195
 10
149.4822769334
 20
131.8129862717
 10
149.4838964719
 20
131.815576527
 10
149.4853405812
 20
131.8182126367
 10
149.4866054036
 20
131.8208949317
 10
149.487694797
 20
131.8236230811
 10
149.4885935188
 20
131.8263758433
 10
149.4892980191
 20
131.8291534348
 10
149.4898118479
 20
131.831955639
 10
149.4901304128
 20
131.8347605643
 10
149.4902511344
 20
131.8375656545
 10
149.4901765921
 20
131.8403734659
 10
149.4899099311
 20
131.8431697757
 10
149.4894506033
 20
131.8459531385
 10
149.4887991569
 20
131.8487249997
 10
149.4879603812
 20
131.8514754732
 10
149.486934171
 20
131.8542044073
 10
149.4857206316
 20
131.8569119535
 10
149.4843248688
 20
131.8595886803
 10
149.4827464113
 20
131.862234902
 10
149.4809857304
 20
131.8648503042
 10
149.4790493462
 20
131.8674245121
 10
149.4769361256
 20
131.8699579816
 10
149.4746472017
 20
131.8724502567
 10
149.4721924933
 20
131.8748895953
 10
149.4695709961
 20
131.877275829
 10
149.4667837145
 20
131.8796091261
 10
149.4638435808
 20
131.8818782495
 10
149.46074981
 20
131.8840828111
 10
149.457503187
 20
131.8862231991
 10
149.4541189994
 20
131.8882893407
 10
149.4505968073
 20
131.8902807281
 10
149.4469370505
 20
131.8921978691
 10
149.4431563354
 20
131.8940322143
 10
149.4392542038
 20
131.8957833617
 10
149.4352311139
 20
131.8974517133
 10
149.4311050465
 20
131.8990299251
 10
149.4268755834
 20
131.900517602
 10
149.4225431428
 20
131.9019151392
 10
149.4181269594
 20
131.9032163785
 10
149.4136266604
 20
131.9044209112
 10
149.4090426185
 20
131.9055291461
 10
149.4043951871
 20
131.9065361504
 10
149.3996839976
 20
131.9074414952
 10
149.3949094187
 20
131.9082456095
 10
149.3900929098
 20
131.9089448475
 10
149.3852342435
 20
131.9095387346
 10
149.3803336473
 20
131.9100277454
 10
149.375413263
 20
131.9104096574
 10
149.3704730403
 20
131.9106839793
 10
149.3655130294
 20
131.9108512023
 10
149.3605555226
 20
131.9109105779
 10
149.3556005406
 20
131.9108616204
 10
149.3506480627
 20
131.9107048154
 10
149.3457203187
 20
131.9104408704
 10
149.3408173969
 20
131.9100692998
 10
149.3359392089
 20
131.9095905892
 10
149.3311077197
 20
131.9090069034
 10
149.3263231717
 20
131.9083177733
 10
149.3215853223
 20
131.9075236681
 10
149.3169154091
 20
131.9066281603
 10
149.3123137693
 20
131.9056308087
 10
149.3077800656
 20
131.9045320546
 10
149.3033345234
 20
131.9033367944
 10
149.2989774802
 20
131.902044583
 10
149.2947085985
 20
131.9006558654
 10
149.2905470909
 20
131.8991768725
 10
149.2864933947
 20
131.8976071661
 10
149.2825470725
 20
131.8959471844
 10
149.2787260259
 20
131.8942044732
 10
149.2750308461
 20
131.8923786456
 10
149.2714609417
 20
131.8904700885
 10
149.26803244
 20
131.8884875089
 10
149.2647507164
 20
131.886433809
 10
149.2616103954
 20
131.8843060865
 10
149.258611477
 20
131.8821043413
  0
LWPOLYLINE
  5
300
100
AcDbEntity
  8
ASSI
100
AcDbPolyline
 62
253
  6
CONTINUOUS
 90
16
 70
0
 10
145.618332033
 20
129.1875181395
 10
145.623206778
 20
129.191515097
 10
145.6315119396
 20
129.1973643916
 10
145.6404198335
 20
129.2025118151
 10
145.6499010742
 20
129.2069235046
 10
145.659933658
 20
129.2105732371
 10
145.6704627173
 20
129.2134283098
 10
145.6814505142
 20
129.2154697063
 10
145.6928605784
 20
129.2166822405
 10
145.7046309825
 20
129.2170533711
 10
145.7167177767
 20
129.216578056
 10
145.7290748913
 20
129.2152545976
 10
145.7416316033
 20
129.213089629
 10
145.7543308297
 20
129.210094933
 10
145.7671307741
 20
129.2062821128
 10
145.779981633
 20
129.2016670572
  0
LINE
  5
301
100
AcDbEntity
  8
ASSI
100
AcDbLine
 62
7
  6
CONTINUOUS
 10
145.7885118738
 20
129.3365848674
 11
145.7942882309
 21
129.341311793
  0
LINE
  5
302
100
AcDbEntity
  8
RACCORDO
100
AcDbLine
 62
253
  6
CONTINUOUS
 10
134.6701237942
 20
120.5243245588
 11
134.6770541085
 21
120.5299806014
  0
LINE
  5
303
100
AcDbEntity
  8
ASSI
100
AcDbLine
 62
7
  6
CONTINUOUS
 10
149.4398434978
 20
133.8520037081
 11
144.3054163271
 21
129.7289519721
  0
LINE
  5
304
100
AcDbEntity
  8
RACCORDO
100
AcDbLine
 62
253
  6
CONTINUOUS
 10
135.1875048415
 20
121.2342641552
 11
134.8597250906
 21
120.9722604693
  0
LINE
  5
305
100
AcDbEntity
  8
RACCORDO
100
AcDbLine
 62
7
  6
CONTINUOUS
 10
134.6700485713
 20
120.5242644176
 11
135.4342890203
 21
121.1351422261
  0
LINE
  5
306
100
AcDbEntity
  8
ASSI
100
AcDbLine
 62
7
  6
CONTINUOUS
 10
149.5448704141
 20
134.0107814764
 11
144.2151504698
 21
129.7652047754
  0
LINE
  5
307
100
AcDbEntity
  8
ASSI
100
AcDbLine
 62
253
  6
CONTINUOUS
 10
146.7774871703
 20
129.6627853561
 11
149.4670722416
 21
131.796819204
  0
LINE
  5
308
100
AcDbEntity
  8
ASSI
100
AcDbLine
 62
253
  6
CONTINUOUS
 10
147.1491082748
 20
129.5135339425
 11
149.6692868852
 21
131.5131533316
  0
LINE
  5
309
100
AcDbEntity
  8
ASSI
100
AcDbLine
 62
7
  6
CONTINUOUS
 10
149.1041922291
 20
131.873845572
 11
145.7942796279
 21
129.3413052261
  0
LINE
  5
30A
100
AcDbEntity
  8
ASSI
100
AcDbLine
 62
253
  6
CONTINUOUS
 10
149.258611477
 20
131.8821043413
 11
145.949717208
 21
129.3503431602
  0
LWPOLYLINE
  5
30B
100
AcDbEntity
  8
RACCORDO
100
AcDbPolyline
 62
7
  6
CONTINUOUS
 90
5
 70
0
 10
134.5846124263
 20
120.4621020608
 10
134.5748319609
 20
120.4547226435
 10
134.5651120956
 20
120.4472655292
 10
134.555452738
 20
120.4397306058
 10
134.5458540978
 20
120.4321179886
  0
LWPOLYLINE
  5
30C
100
AcDbEntity
  8
ASSI
100
AcDbPolyline
 62
7
  6
CONTINUOUS
 90
4
 70
0
 10
145.7942882309
 20
129.341311793
 10
145.7976709208
 20
129.3437990874
 10
145.8125686126
 20
129.3527135303
 10
145.8290425838
 20
129.3594757038
  0
LWPOLYLINE
  5
30D
100
AcDbEntity
  8
RACCORDO
100
AcDbPolyline
 62
7
  6
CONTINUOUS
 90
3
 70
0
 10
134.6344540049
 20
120.4978713252
 10
134.6584194405
 20
120.5152158892
 10
134.6701287222
 20
120.5243497198
  0
LWPOLYLINE
  5
30E
100
AcDbEntity
  8
RACCORDO
100
AcDbPolyline
 62
7
  6
CONTINUOUS
 90
5
 70
0
 10
134.6243269469
 20
120.4908339029
 10
134.6143104762
 20
120.4837694473
 10
134.6043525137
 20
120.4766260037
 10
134.5944529855
 20
120.4694034387
 10
134.5846124263
 20
120.4621020608
  0
LINE
  5
30F
100
AcDbEntity
  8
RACCORDO
100
AcDbLine
 62
7
  6
CONTINUOUS
 10
134.634401695
 20
120.4978192806
 11
134.6243269469
 21
120.4908339029
  0
LWPOLYLINE
  5
310
100
AcDbEntity
  8
ASSI
100
AcDbPolyline
 62
7
  6
CONTINUOUS
 90
4
 70
0
 10
155.6978705518
 20
129.3068429408
 10
155.6649355496
 20
129.2914258404
 10
155.6339498426
 20
129.2730874564
 10
155.6093901548
 20
129.2552546844
  0
LWPOLYLINE
  5
311
100
AcDbEntity
  8
RACCORDO
100
AcDbPolyline
 62
7
  6
CONTINUOUS
 90
5
 70
0
 10
158.1752230241
 20
130.4353225381
 10
158.1292047466
 20
130.4146937353
 10
158.0832308536
 20
130.3896399709
 10
158.0372707067
 20
130.3600334219
 10
157.9932619275
 20
130.327280764
  0
LWPOLYLINE
  5
312
100
AcDbEntity
  8
RACCORDO
100
AcDbPolyline
 62
253
  6
CONTINUOUS
 90
3
 70
0
 10
134.5932075104
 20
120.4772560618
 10
134.619897105
 20
120.4889159189
 10
134.634401695
 20
120.4978192806
  0
LINE
  5
313
100
AcDbEntity
  8
RACCORDO
100
AcDbLine
 62
7
  6
CONTINUOUS
 10
156.5198994802
 20
130.8638246082
 11
156.5530535137
 21
130.8782957119
  0
LWPOLYLINE
  5
314
100
AcDbEntity
  8
RACCORDO
100
AcDbPolyline
 62
7
  6
CONTINUOUS
 90
7
 70
0
 10
137.3082302482
 20
120.4411952422
 10
137.313999774
 20
120.4435374622
 10
137.3216937357
 20
120.4468636406
 10
137.3311289288
 20
120.4512528132
 10
137.3420762566
 20
120.4568974209
 10
137.3543757585
 20
120.4637162246
 10
137.3828662119
 20
120.4798017756
  0
LINE
  5
315
100
AcDbEntity
  8
RACCORDO
100
AcDbLine
 62
7
  6
CONTINUOUS
 10
147.3658333438
 20
96.5029147691
 11
147.3670200726
 21
96.5030257707
  0
LWPOLYLINE
  5
316
100
AcDbEntity
  8
RACCORDO
100
AcDbPolyline
 62
253
  6
CONTINUOUS
 90
13
 70
0
 10
147.5467524239
 20
91.9848198976
 10
147.0350248721
 20
92.1782621512
 10
146.5164230246
 20
92.3748047335
 10
145.9909640934
 20
92.5744618084
 10
145.4596966488
 20
92.7768537718
 10
144.921605708
 20
92.9823876973
 10
144.373621038
 20
93.1922644066
 10
143.8155789811
 20
93.4065779522
 10
143.2476960754
 20
93.6252778074
 10
142.6674871352
 20
93.8493603445
 10
142.0741498834
 20
94.079179202
 10
141.4685577701
 20
94.3144391946
 10
140.8507469208
 20
94.5551698315
  0
LWPOLYLINE
  5
317
100
AcDbEntity
  8
RACCORDO
100
AcDbPolyline
 62
253
  6
CONTINUOUS
 90
10
 70
0
 10
147.4361595487
 20
92.2214813783
 10
146.7821439102
 20
92.4690019467
 10
146.1155263175
 20
92.722116735
 10
145.4363472103
 20
92.9808600881
 10
144.7470031347
 20
93.244365249
 10
144.045176424
 20
93.5135651359
 10
143.323859807
 20
93.7912142585
 10
142.5807732473
 20
94.0782783571
 10
141.8183393594
 20
94.3739124754
 10
141.0366301426
 20
94.6781770645
  0
LWPOLYLINE
  5
318
100
AcDbEntity
  8
SMUSSO
100
AcDbPolyline
 62
7
  6
CONTINUOUS
 90
7
 70
0
 10
147.3402864375
 20
92.7536243051
 10
146.3608389225
 20
93.1252115567
 10
145.3827703773
 20
93.4980671251
 10
144.406080802
 20
93.8721910101
 10
143.4307701965
 20
94.2475832117
 10
142.4568385608
 20
94.6242437301
 10
141.484285895
 20
95.002172565
  0
LINE
  5
319
100
AcDbEntity
  8
DRAFT
100
AcDbLine
 62
7
  6
CONTINUOUS
 10
124.1427139413
 20
102.9922585484
 11
129.0423413704
 21
101.0244577133
  0
LINE
  5
31A
100
AcDbEntity
  8
DRAFT
100
AcDbLine
 62
7
  6
CONTINUOUS
 10
142.3278893245
 20
95.6886821393
 11
147.3219043848
 21
93.6829731036
  0
LINE
  5
31B
100
AcDbEntity
  8
RACCORDO
100
AcDbLine
 62
253
  6
CONTINUOUS
 10
124.4127755473
 20
103.2242779372
 11
129.035732376
 21
101.3675942527
  0
LINE
  5
31C
100
AcDbEntity
  8
RACCORDO
100
AcDbLine
 62
253
  6
CONTINUOUS
 10
142.5979509305
 20
95.9207015281
 11
147.3156225269
 21
94.0259782576
  0
LINE
  5
31D
100
AcDbEntity
  8
RACCORDO
100
AcDbLine
 62
7
  6
CONTINUOUS
 10
124.469764946
 20
103.2876258677
 11
129.0341024263
 21
101.454485035
  0
LINE
  5
31E
100
AcDbEntity
  8
RACCORDO
100
AcDbLine
 62
7
  6
CONTINUOUS
 10
142.6549403293
 20
95.9840494586
 11
147.314132384
 21
94.1128128904
  0
LWPOLYLINE
  5
31F
100
AcDbEntity
  8
RACCORDO
100
AcDbPolyline
 62
253
  6
CONTINUOUS
 90
10
 70
0
 10
129.2533005972
 20
99.2129657487
 10
128.5897803519
 20
99.4875829287
 10
127.9132634219
 20
99.768507302
 10
127.2237964893
 20
100.0557751711
 10
126.5240756288
 20
100.3483125517
 10
125.8114950739
 20
100.6472630966
 10
125.0781785004
 20
100.9560131368
 10
124.3215676139
 20
101.2757438627
 10
123.5443908926
 20
101.6054062725
 10
122.7467342062
 20
101.9450665802
  0
LWPOLYLINE
  5
320
100
AcDbEntity
  8
RACCORDO
100
AcDbPolyline
 62
253
  6
CONTINUOUS
 90
10
 70
0
 10
129.1489649184
 20
99.4525314134
 10
128.5136661308
 20
99.7156290191
 10
127.8660503475
 20
99.9846751405
 10
127.2061607356
 20
100.2597034258
 10
126.5363102654
 20
100.5397978842
 10
125.8542701881
 20
100.8259394015
 10
125.1532959662
 20
101.1210268533
 10
124.4311984842
 20
101.4260727686
 10
123.6903181504
 20
101.7401822028
 10
122.9307314954
 20
102.0634139978
  0
LWPOLYLINE
  5
321
100
AcDbEntity
  8
SMUSSO
100
AcDbPolyline
 62
7
  6
CONTINUOUS
 90
7
 70
0
 10
129.0637396137
 20
99.9906832937
 10
128.1221968712
 20
100.3813555299
 10
127.1716506213
 20
100.777606635
 10
126.2225724941
 20
101.1750916388
 10
125.2749624894
 20
101.5738105414
 10
124.3288206073
 20
101.9737633427
 10
123.3841468479
 20
102.3749500428
  0
LINE
  5
322
100
AcDbEntity
  8
ASSI
100
AcDbLine
 62
253
  6
CONTINUOUS
 10
158.4211146973
 20
85.9380794957
 11
158.4001414478
 21
85.9482183873
  0
LWPOLYLINE
  5
323
100
AcDbEntity
  8
RACCORDO
100
AcDbPolyline
 62
7
  6
CONTINUOUS
 90
10
 70
0
 10
129.1500550352
 20
99.4459023132
 10
129.155725935
 20
99.4186971144
 10
129.1629469193
 20
99.3914929444
 10
129.1717187927
 20
99.3644713141
 10
129.1821284577
 20
99.3378355219
 10
129.1940445592
 20
99.3116826837
 10
129.2071567144
 20
99.2860152678
 10
129.2213678257
 20
99.2609153787
 10
129.2367569999
 20
99.2365329685
 10
129.2533005972
 20
99.2129657487
  0
LINE
  5
324
100
AcDbEntity
  8
RACCORDO
100
AcDbLine
 62
7
  6
CONTINUOUS
 10
129.0643389888
 20
99.9627504439
 11
129.1500550377
 21
99.4459023117
  0
LINE
  5
325
100
AcDbEntity
  8
SMUSSO
100
AcDbLine
 62
7
  6
CONTINUOUS
 10
129.055380735
 20
100.3802344794
 11
129.0643389888
 21
99.9627504439
  0
LWPOLYLINE
  5
326
100
AcDbEntity
  8
SMUSSO
100
AcDbPolyline
 62
7
  6
CONTINUOUS
 90
9
 70
0
 10
128.9970160565
 20
103.7318038439
 10
129.0030186893
 20
103.3117183024
 10
129.009390716
 20
102.8919584878
 10
129.0161321366
 20
102.4725244002
 10
129.0232429118
 20
102.0534163987
 10
129.030723081
 20
101.6346341241
 10
129.0385727615
 20
101.2161764991
 10
129.0467919926
 20
100.7980431645
 10
129.055380735
 20
100.3802344794
  0
LWPOLYLINE
  5
327
100
AcDbEntity
  8
RACCORDO
100
AcDbPolyline
 62
253
  6
CONTINUOUS
 90
10
 70
0
 10
129.0733004131
 20
103.7343066311
 10
129.0793706596
 20
103.2939899705
 10
129.0859747367
 20
102.8456400545
 10
129.0931363349
 20
102.3892782826
 10
129.1008551688
 20
101.9263484703
 10
129.109177405
 20
101.4554485263
 10
129.1182098052
 20
100.9723428818
 10
129.1280197893
 20
100.4756484786
 10
129.1386212821
 20
99.9668224452
 10
129.1500550377
 20
99.4459023117
  0
LWPOLYLINE
  5
328
100
AcDbEntity
  8
RACCORDO
100
AcDbPolyline
 62
253
  6
CONTINUOUS
 90
10
 70
0
 10
129.1713521625
 20
103.7830288248
 10
129.1776883252
 20
103.3151911163
 10
129.1846220299
 20
102.8384868492
 10
129.1921817111
 20
102.3529411801
 10
129.2003700076
 20
101.8601622242
 10
129.2092393689
 20
101.3585910135
 10
129.2189092029
 20
100.8435161745
 10
129.2294577935
 20
100.3134011785
 10
129.2409051509
 20
99.7698696831
 10
129.2533005972
 20
99.2129657487
  0
LINE
  5
329
100
AcDbEntity
  8
ASSI
100
AcDbLine
 62
253
  6
CONTINUOUS
 10
129.8490112637
 20
134.1345376396
 11
129.8490112637
 21
135.2575496456
  0
LINE
  5
32A
100
AcDbEntity
  8
ASSI
100
AcDbLine
 62
253
  6
CONTINUOUS
 10
130.1255299498
 20
134.1695150894
 11
130.1255299498
 21
135.2840909536
  0
LINE
  5
32B
100
AcDbEntity
  8
ASSI
100
AcDbLine
 62
7
  6
CONTINUOUS
 10
130.3039443523
 20
134.3233949939
 11
130.3039443523
 21
135.4292814439
  0
LWPOLYLINE
  5
32C
100
AcDbEntity
  8
ASSI
100
AcDbPolyline
 62
7
  6
CONTINUOUS
 90
8
 70
0
 10
131.3288518442
 20
137.9138827334
 10
131.3284283359
 20
137.9011198184
 10
131.3248585955
 20
137.8803233961
 10
131.3177822345
 20
137.8595688803
 10
131.3073345444
 20
137.8392818317
 10
131.2935606222
 20
137.819604104
 10
131.2764153709
 20
137.8003938436
 10
131.2558987904
 20
137.7816510504
  0
LWPOLYLINE
  5
32D
100
AcDbEntity
  8
ASSI
100
AcDbPolyline
 62
253
  6
CONTINUOUS
 90
13
 70
0
 10
129.8080598995
 20
135.3149480009
 10
129.8090196471
 20
135.3368820739
 10
129.8118828309
 20
135.3600214893
 10
129.816601542
 20
135.3839790626
 10
129.8230968237
 20
135.408353919
 10
129.8312599925
 20
135.4327382016
 10
129.8409544566
 20
135.4567238959
 10
129.8520180016
 20
135.4799096567
 10
129.8642655045
 20
135.5019075238
 10
129.8774920319
 20
135.5223494137
 10
129.8914762682
 20
135.5408932787
 10
129.9059842195
 20
135.55722883
 10
129.9207731289
 20
135.5710827299
  0
LWPOLYLINE
  5
32E
100
AcDbEntity
  8
ASSI
100
AcDbPolyline
 62
253
  6
CONTINUOUS
 90
13
 70
0
 10
131.5368956396
 20
134.620608592
 10
131.5378553827
 20
134.6425425395
 10
131.5407185441
 20
134.6656818427
 10
131.5454372217
 20
134.6896393254
 10
131.5519324654
 20
134.7140141189
 10
131.560095598
 20
134.7383983701
 10
131.5697900337
 20
134.7623840653
 10
131.5808535634
 20
134.785569859
 10
131.5931010677
 20
134.8075677858
 10
131.6063276136
 20
134.8280097527
 10
131.6203118857
 20
134.8465537037
 10
131.6348198903
 20
134.8628893424
 10
131.6496088682
 20
134.8767433213
  0
LWPOLYLINE
  5
32F
100
AcDbEntity
  8
ASSI
100
AcDbPolyline
 62
253
  6
CONTINUOUS
 90
11
 70
0
 10
138.3028105475
 20
130.6631155358
 10
138.2938127267
 20
130.6392456776
 10
138.282229288
 20
130.6169206666
 10
138.2682562342
 20
130.5965182635
 10
138.2521300029
 20
130.5783836967
 10
138.2341234656
 20
130.5628238207
 10
138.2145413103
 20
130.5501019235
 10
138.1937148859
 20
130.5404332719
 10
138.1719965956
 20
130.5339814689
 10
138.149753934
 20
130.5308556851
 10
138.1380021256
 20
130.5305660666
  0
LWPOLYLINE
  5
330
100
AcDbEntity
  8
ASSI
100
AcDbPolyline
 62
7
  6
CONTINUOUS
 90
5
 70
0
 10
140.0841474138
 20
132.053384167
 10
140.0934562363
 20
132.0704169823
 10
140.1027889027
 20
132.0906982877
 10
140.1104801663
 20
132.1111478867
 10
140.1166523317
 20
132.1319217936
  0
LWPOLYLINE
  5
331
100
AcDbEntity
  8
ASSI
100
AcDbPolyline
 62
253
  6
CONTINUOUS
 90
4
 70
0
 10
140.0776703222
 20
132.0908129512
 10
140.0797478487
 20
132.0945273785
 10
140.0816762942
 20
132.0983343084
 10
140.0834556584
 20
132.1022337408
  0
LINE
  5
332
100
AcDbEntity
  8
ASSI
100
AcDbLine
 62
253
  6
CONTINUOUS
 10
139.6422776572
 20
131.3523940964
 11
140.0776703222
 21
132.0908129512
  0
LINE
  5
333
100
AcDbEntity
  8
ASSI
100
AcDbLine
 62
7
  6
CONTINUOUS
 10
139.6422776572
 20
131.3039794012
 11
140.0841447074
 21
132.0533787077
  0
LWPOLYLINE
  5
334
100
AcDbEntity
  8
ASSI
100
AcDbPolyline
 62
7
  6
CONTINUOUS
 90
13
 70
0
 10
142.7548838223
 20
129.1078158508
 10
142.7393659548
 20
129.0876670183
 10
142.7223049463
 20
129.068711516
 10
142.7038501957
 20
129.051151168
 10
142.6840999554
 20
129.0351492618
 10
142.6632937031
 20
129.0208752512
 10
142.6418222659
 20
129.0084874676
 10
142.6199903368
 20
128.9981045938
 10
142.5979008379
 20
128.9897298658
 10
142.5756350389
 20
128.9833424089
 10
142.5532451513
 20
128.9789741595
 10
142.5310428836
 20
128.9767103018
 10
142.5150824041
 20
128.9763933111
  0
LWPOLYLINE
  5
335
100
AcDbEntity
  8
ASSI
100
AcDbPolyline
 62
7
  6
CONTINUOUS
 90
9
 70
0
 10
145.6183355222
 20
129.1875202068
 10
145.6042333681
 20
129.174094607
 10
145.5873838755
 20
129.1544163036
 10
145.5729203864
 20
129.132913661
 10
145.5610130823
 20
129.1098629599
 10
145.5517423485
 20
129.0853699577
 10
145.5452662462
 20
129.0596964311
 10
145.5417312825
 20
129.0332898955
 10
145.5410325221
 20
129.0149387859
  0
LWPOLYLINE
  5
336
100
AcDbEntity
  8
ASSI
100
AcDbPolyline
 62
253
  6
CONTINUOUS
 90
13
 70
0
 10
145.779981633
 20
129.2016670572
 10
145.7651927236
 20
129.1878131572
 10
145.7506847723
 20
129.1714776059
 10
145.736700536
 20
129.1529337409
 10
145.7234740087
 20
129.132491851
 10
145.7112265057
 20
129.1104939839
 10
145.7001629607
 20
129.0873082232
 10
145.6904684966
 20
129.0633225289
 10
145.6823053278
 20
129.0389382462
 10
145.6758100461
 20
129.0145633898
 10
145.671091335
 20
128.9906058166
 10
145.6682281512
 20
128.9674664011
 10
145.6672684036
 20
128.9455323281
  0
LINE
  5
337
100
AcDbEntity
  8
ASSI
100
AcDbLine
 62
7
  6
CONTINUOUS
 10
145.7884636304
 20
129.336542605
 11
145.6179551432
 21
129.1871894867
  0
LINE
  5
338
100
AcDbEntity
  8
ASSI
100
AcDbLine
 62
253
  6
CONTINUOUS
 10
145.949717208
 20
129.3503431602
 11
145.779981633
 21
129.2016670572
  0
LINE
  5
339
100
AcDbEntity
  8
DRAFT
100
AcDbLine
 62
7
  6
CONTINUOUS
 10
149.7146008806
 20
128.972873599
 11
149.2356232866
 21
128.5743556593
  0
LWPOLYLINE
  5
33A
100
AcDbEntity
  8
ASSI
100
AcDbPolyline
 62
253
  6
CONTINUOUS
 90
18
 70
0
 10
149.6692868852
 20
131.5131533289
 10
149.6767570375
 20
131.5193413768
 10
149.6839156731
 20
131.5257524556
 10
149.6907387143
 20
131.5323835058
 10
149.6972041888
 20
131.5392333169
 10
149.7032847373
 20
131.5462948516
 10
149.7089494561
 20
131.553554744
 10
149.7141808409
 20
131.561015084
 10
149.7189488791
 20
131.5686601717
 10
149.7232126612
 20
131.5764470119
 10
149.7269557908
 20
131.5843635246
 10
149.7301645633
 20
131.5924012089
 10
149.7328160876
 20
131.6005195644
 10
149.7349027589
 20
131.6087057601
 10
149.736418287
 20
131.6169483587
 10
149.7373547801
 20
131.6252075567
 10
149.737713025
 20
131.6334630157
 10
149.7376945602
 20
131.6367907226
  0
LINE
  5
33B
100
AcDbEntity
  8
ASSI
100
AcDbLine
 62
253
  6
CONTINUOUS
 10
148.5301085279
 20
128.3139998326
 11
149.0559429713
 21
128.7477061399
  0
LINE
  5
33C
100
AcDbEntity
  8
ASSI
100
AcDbLine
 62
253
  6
CONTINUOUS
 10
148.7348653488
 20
128.0270080563
 11
149.2643622115
 21
128.4637351136
  0
LINE
  5
33D
100
AcDbEntity
  8
DRAFT
100
AcDbLine
 62
7
  6
CONTINUOUS
 10
150.5818145184
 20
130.1263569217
 11
152.6870895967
 21
131.8508973059
  0
LINE
  5
33E
100
AcDbEntity
  8
ASSI
100
AcDbLine
 62
253
  6
CONTINUOUS
 10
148.3516964869
 20
128.1688083939
 11
148.5301085279
 21
128.3139998326
  0
LINE
  5
33F
100
AcDbEntity
  8
ASSI
100
AcDbLine
 62
253
  6
CONTINUOUS
 10
148.5564509463
 20
127.8818175661
 11
148.7348653488
 21
128.0270080563
  0
LINE
  5
340
100
AcDbEntity
  8
RACCORDO
100
AcDbLine
 62
253
  6
CONTINUOUS
 10
155.4598893712
 20
132.5440129275
 11
154.4108724957
 21
131.7108578545
  0
LINE
  5
341
100
AcDbEntity
  8
RACCORDO
100
AcDbLine
 62
253
  6
CONTINUOUS
 10
150.175204115
 20
130.5834297574
 11
152.6625894933
 21
132.5576762612
  0
LINE
  5
342
100
AcDbEntity
  8
RACCORDO
100
AcDbLine
 62
253
  6
CONTINUOUS
 10
150.5809740815
 20
130.3702936517
 11
152.9052945917
 21
132.2151149974
  0
LINE
  5
343
100
AcDbEntity
  8
DRAFT
100
AcDbLine
 62
7
  6
CONTINUOUS
 10
149.6881039509
 20
130.3820540499
 11
149.678286017
 21
130.3742671577
  0
LINE
  5
344
100
AcDbEntity
  8
RACCORDO
100
AcDbLine
 62
253
  6
CONTINUOUS
 10
137.1611327826
 20
118.1833718942
 11
134.7007287277
 21
116.2718033173
  0
LINE
  5
345
100
AcDbEntity
  8
RACCORDO
100
AcDbLine
 62
7
  6
CONTINUOUS
 10
149.4811097348
 20
128.344105132
 11
150.6271280641
 21
129.2209674562
  0
LINE
  5
346
100
AcDbEntity
  8
RACCORDO
100
AcDbLine
 62
7
  6
CONTINUOUS
 10
152.3302512459
 20
129.7312508688
 11
151.4556834148
 21
129.0620856718
  0
LWPOLYLINE
  5
347
100
AcDbEntity
  8
RACCORDO
100
AcDbPolyline
 62
7
  6
CONTINUOUS
 90
22
 70
0
 10
151.4555795409
 20
129.0620034526
 10
151.4568636164
 20
129.0629605519
 10
151.4605324602
 20
129.0654089518
 10
151.4644821053
 20
129.0676303165
 10
151.4687067237
 20
129.069606654
 10
151.473223617
 20
129.0713399299
 10
151.477960958
 20
129.0727941485
 10
151.482885595
 20
129.0739620928
 10
151.4880123294
 20
129.074854145
 10
151.4933275957
 20
129.0754699993
 10
151.4988193763
 20
129.0758113763
 10
151.5044802157
 20
129.0758809281
 10
151.5103026089
 20
129.0756803893
 10
151.5162764998
 20
129.0752122632
 10
151.5223914997
 20
129.0744794952
 10
151.5286397735
 20
129.0734844085
 10
151.5350103438
 20
129.0722300687
 10
151.5414926121
 20
129.0707200744
 10
151.5480794757
 20
129.0689574383
 10
151.5547611829
 20
129.0669456115
 10
151.5615250395
 20
129.0646887877
 10
151.5683594527
 20
129.062191209
  0
LWPOLYLINE
  5
348
100
AcDbEntity
  8
RACCORDO
100
AcDbPolyline
 62
253
  6
CONTINUOUS
 90
11
 70
0
 10
152.6625894933
 20
132.5576762612
 10
152.7063188684
 20
132.5899682559
 10
152.7493761961
 20
132.6170020266
 10
152.7915286368
 20
132.6387669242
 10
152.8324158928
 20
132.6552360294
 10
152.8719916196
 20
132.6665540344
 10
152.9104848955
 20
132.6728527426
 10
152.9478320394
 20
132.6740776235
 10
152.9836729791
 20
132.6701708752
 10
153.0177715832
 20
132.6611515408
 10
153.0276660729
 20
132.6574422987
  0
LWPOLYLINE
  5
349
100
AcDbEntity
  8
RACCORDO
100
AcDbPolyline
 62
253
  6
CONTINUOUS
 90
17
 70
0
 10
152.9052945917
 20
132.2151149974
 10
152.9335463991
 20
132.2359403451
 10
152.9611986303
 20
132.2536866067
 10
152.9882512852
 20
132.2683537821
 10
153.0147421582
 20
132.2799183323
 10
153.0406334548
 20
132.2884037964
 10
153.0658117919
 20
132.2938807912
 10
153.0903466847
 20
132.2963725483
 10
153.1141686179
 20
132.2958558361
 10
153.1369556628
 20
132.2923315772
 10
153.1586977031
 20
132.2857555408
 10
153.1794048549
 20
132.2761719575
 10
153.1987855385
 20
132.2637144416
 10
153.2168167799
 20
132.248345027
 10
153.2335215529
 20
132.2301016797
 10
153.2486771992
 20
132.209231912
 10
153.262261675
 20
132.1857187507
  0
LWPOLYLINE
  5
34A
100
AcDbEntity
  8
ASSI
100
AcDbPolyline
 62
7
  6
CONTINUOUS
 90
4
 70
0
 10
150.0948364634
 20
127.6141146692
 10
150.0982191533
 20
127.6166019636
 10
150.1131168451
 20
127.6255164065
 10
150.1295908163
 20
127.63227858
  0
LWPOLYLINE
  5
34B
100
AcDbEntity
  8
RACCORDO
100
AcDbPolyline
 62
7
  6
CONTINUOUS
 90
25
 70
0
 10
152.3302512459
 20
129.7312508688
 10
152.3372095981
 20
129.7363409944
 10
152.3443936449
 20
129.7411346516
 10
152.3517876114
 20
129.745619265
 10
152.3593527713
 20
129.7497718457
 10
152.3670929013
 20
129.7535955453
 10
152.3750590169
 20
129.7571099933
 10
152.3832901217
 20
129.7603180212
 10
152.3917164689
 20
129.7631788427
 10
152.4002245994
 20
129.7656521018
 10
152.4087007513
 20
129.7677167725
 10
152.4172139852
 20
129.769401964
 10
152.4259252256
 20
129.7707336254
 10
152.4349249347
 20
129.771700551
 10
152.4440797449
 20
129.7722639712
 10
152.4532169294
 20
129.7724073087
 10
152.462245788
 20
129.7721386585
 10
152.4712135137
 20
129.7714664926
 10
152.4801568192
 20
129.7703897506
 10
152.4890568809
 20
129.7689086872
 10
152.4978888183
 20
129.7670259001
 10
152.5066793416
 20
129.7647313548
 10
152.5154553233
 20
129.7620068394
 10
152.5241418903
 20
129.7588646316
 10
152.5263215732
 20
129.7580040259
  0
LWPOLYLINE
  5
34C
100
AcDbEntity
  8
RACCORDO
100
AcDbPolyline
 62
253
  6
CONTINUOUS
 90
7
 70
0
 10
134.5481825417
 20
116.1575434275
 10
134.5597775673
 20
116.1656533272
 10
134.5911773829
 20
116.1881400238
 10
134.6214704729
 20
116.210368513
 10
134.6501442503
 20
116.231962668
 10
134.6767135274
 20
116.2525570951
 10
134.7007287276
 20
116.2718033175
  0
LWPOLYLINE
  5
34D
100
AcDbEntity
  8
ASSI
100
AcDbPolyline
 62
253
  6
CONTINUOUS
 90
13
 70
0
 10
148.5564509463
 20
127.8818175661
 10
148.5399225023
 20
127.870401837
 10
148.5209632177
 20
127.8603053748
 10
148.4998903322
 20
127.8516971204
 10
148.4770564518
 20
127.844721113
 10
148.4528436488
 20
127.8394940801
 10
148.4276570686
 20
127.836103484
 10
148.4019181503
 20
127.8346060584
 10
148.3760575752
 20
127.8350268594
 10
148.3505080604
 20
127.8373588456
 10
148.3256971179
 20
127.8415629969
 10
148.3020399016
 20
127.8475689664
 10
148.2799322602
 20
127.855276258
  0
LWPOLYLINE
  5
34E
100
AcDbEntity
  8
RACCORDO
100
AcDbPolyline
 62
7
  6
CONTINUOUS
 90
3
 70
0
 10
137.3828662119
 20
120.4798017756
 10
137.3987888602
 20
120.4891603483
 10
137.4156240141
 20
120.4994831435
  0
LINE
  5
34F
100
AcDbEntity
  8
RACCORDO
100
AcDbLine
 62
253
  6
CONTINUOUS
 10
146.5767330572
 20
96.801892009
 11
147.3670200726
 21
96.5030257707
  0
LINE
  5
350
100
AcDbEntity
  8
SMUSSO
100
AcDbLine
 62
7
  6
CONTINUOUS
 10
146.6267145027
 20
96.7407521955
 11
147.2829230395
 21
96.4923032029
  0
LWPOLYLINE
  5
351
100
AcDbEntity
  8
SMUSSO
100
AcDbPolyline
 62
7
  6
CONTINUOUS
 90
9
 70
0
 10
141.4019540994
 20
98.7483131942
 10
142.0526243409
 20
98.4954278464
 10
142.7039876714
 20
98.2430967397
 10
143.3560440909
 20
97.9913198741
 10
144.0087941341
 20
97.7400970473
 10
144.6622372664
 20
97.4894284617
 10
145.3163718835
 20
97.2393147238
 10
145.9711974507
 20
96.9897560358
 10
146.6267145027
 20
96.7407521955
  0
LWPOLYLINE
  5
352
100
AcDbEntity
  8
RACCORDO
100
AcDbPolyline
 62
253
  6
CONTINUOUS
 90
12
 70
0
 10
141.2748414904
 20
98.9281539112
 10
141.7914530732
 20
98.7274334867
 10
142.3151417538
 20
98.5244944156
 10
142.8446883074
 20
98.3198285206
 10
143.381342767
 20
98.1129711148
 10
143.9288350983
 20
97.9025100091
 10
144.4876351721
 20
97.6882991592
 10
145.0573278794
 20
97.4705323181
 10
145.6403325123
 20
97.2483213094
 10
146.2374819051
 20
97.0213930762
 10
146.8480151985
 20
96.7900835514
 10
147.4719686866
 20
96.5544246054
  0
LWPOLYLINE
  5
353
100
AcDbEntity
  8
RACCORDO
100
AcDbPolyline
 62
253
  6
CONTINUOUS
 90
9
 70
0
 10
140.9501446393
 20
98.9643453431
 10
141.6007662599
 20
98.711160092
 10
142.265068784
 20
98.4535023273
 10
142.943094025
 20
98.1914061951
 10
143.6324856195
 20
97.925829085
 10
144.3356804224
 20
97.6558795358
 10
145.0599358527
 20
97.3788393169
 10
145.8077297589
 20
97.0938502247
 10
146.5767330572
 20
96.801892009
  0
LINE
  5
354
100
AcDbEntity
  8
RACCORDO
100
AcDbLine
 62
253
  6
CONTINUOUS
 10
140.7652907993
 20
99.1266415112
 11
141.2748414904
 21
98.9281539112
  0
LINE
  5
355
100
AcDbEntity
  8
RACCORDO
100
AcDbLine
 62
253
  6
CONTINUOUS
 10
128.3055414306
 20
104.0525934481
 11
129.0734039541
 21
103.7343123363
  0
LWPOLYLINE
  5
356
100
AcDbEntity
  8
SMUSSO
100
AcDbPolyline
 62
7
  6
CONTINUOUS
 90
10
 70
0
 10
123.2920605294
 20
106.1275744582
 10
123.9230146593
 20
105.859069963
 10
124.554670239
 20
105.5911163016
 10
125.1870272686
 20
105.3237134741
 10
125.8200863212
 20
105.0568612417
 10
126.4538468236
 20
104.7905598432
 10
127.088307056
 20
104.524809995
 10
127.7234664451
 20
104.2596119359
 10
128.3593255641
 20
103.9949654271
 10
128.9958844131
 20
103.7308704686
  0
LWPOLYLINE
  5
357
100
AcDbEntity
  8
RACCORDO
100
AcDbPolyline
 62
253
  6
CONTINUOUS
 90
12
 70
0
 10
123.1586818308
 20
106.3068691551
 10
123.6580832009
 20
106.0943234319
 10
124.1649153502
 20
105.8791604099
 10
124.6781627356
 20
105.6618331727
 10
125.1988761618
 20
105.4419178691
 10
125.7301823466
 20
105.2181213492
 10
126.2722974412
 20
104.9903879562
 10
126.8250620739
 20
104.7588201139
 10
127.391056442
 20
104.5223753178
 10
127.9711689544
 20
104.2807293913
 10
128.5645879659
 20
104.0342698633
 10
129.1713521625
 20
103.7830288248
  0
LWPOLYLINE
  5
358
100
AcDbEntity
  8
RACCORDO
100
AcDbPolyline
 62
253
  6
CONTINUOUS
 90
9
 70
0
 10
122.8496918277
 20
106.3497375173
 10
123.4796491175
 20
106.0812728067
 10
124.1231070104
 20
105.807930559
 10
124.7801084846
 20
105.5297451926
 10
125.4483286389
 20
105.2477497616
 10
126.1301752986
 20
104.9609776276
 10
126.8328172856
 20
104.6664847597
 10
127.5587048631
 20
104.3633381345
 10
128.3055414306
 20
104.0525934481
  0
LINE
  5
359
100
AcDbEntity
  8
RACCORDO
100
AcDbLine
 62
253
  6
CONTINUOUS
 10
122.6666929855
 20
106.5167825353
 11
123.1586818308
 21
106.3068691551
  0
LWPOLYLINE
  5
35A
100
AcDbEntity
  8
RACCORDO
100
AcDbPolyline
 62
7
  6
CONTINUOUS
 90
3
 70
0
 10
141.4031433129
 20
98.7492243105
 10
141.3029627744
 20
98.7958796605
 10
141.2528277357
 20
98.8195026572
  0
LINE
  5
35B
100
AcDbEntity
  8
RACCORDO
100
AcDbLine
 62
7
  6
CONTINUOUS
 10
141.2528277357
 20
98.8195026572
 11
140.950758068
 21
98.9640516867
  0
LINE
  5
35C
100
AcDbEntity
  8
RACCORDO
100
AcDbLine
 62
7
  6
CONTINUOUS
 10
123.2920605294
 20
106.1275744582
 11
122.8496918277
 21
106.3497375173
  0
LWPOLYLINE
  5
35D
100
AcDbEntity
  8
RACCORDO
100
AcDbPolyline
 62
7
  6
CONTINUOUS
 90
10
 70
0
 10
140.9507580673
 20
98.9640517431
 10
140.9277162286
 20
98.9764167239
 10
140.9049727571
 20
98.9904324324
 10
140.88271585
 20
99.0060291998
 10
140.8611902209
 20
99.0232035716
 10
140.8404561591
 20
99.0417901442
 10
140.8204053688
 20
99.0615028889
 10
140.8010848986
 20
99.0822223467
 10
140.7826814018
 20
99.103956972
 10
140.7652908045
 20
99.1266415158
  0
LWPOLYLINE
  5
35E
100
AcDbEntity
  8
RACCORDO
100
AcDbPolyline
 62
7
  6
CONTINUOUS
 90
10
 70
0
 10
122.8496918273
 20
106.3497375173
 10
122.8264084715
 20
106.3624965199
 10
122.8038288383
 20
106.3770860965
 10
122.7819604535
 20
106.393333102
 10
122.7607370526
 20
106.4110518887
 10
122.7401926457
 20
106.4300677804
 10
122.720500419
 20
106.4502691665
 10
122.7017275017
 20
106.4715509421
 10
122.6837981396
 20
106.4937660938
 10
122.6666929871
 20
106.5167825366
  0
LWPOLYLINE
  5
35F
100
AcDbEntity
  8
ASSI
100
AcDbPolyline
 62
253
  6
CONTINUOUS
 90
16
 70
0
 10
130.1255299498
 20
135.2840909536
 10
130.1242056374
 20
135.3057813991
 10
130.1206743748
 20
135.3281522021
 10
130.1149753192
 20
135.3509587533
 10
130.107171578
 20
135.3739518643
 10
130.0973486641
 20
135.3968797329
 10
130.085613571
 20
135.4194906991
 10
130.0720947583
 20
135.4415369718
 10
130.0569406381
 20
135.4627774822
 10
130.040317072
 20
135.4829797407
 10
130.0224041462
 20
135.5019237916
 10
130.0033995361
 20
135.5194003634
 10
129.9835170835
 20
135.5352146007
 10
129.9629767381
 20
135.5491934936
 10
129.9420013225
 20
135.5611864009
 10
129.9208199713
 20
135.5710633106
  0
LWPOLYLINE
  5
360
100
AcDbEntity
  8
ASSI
100
AcDbPolyline
 62
253
  6
CONTINUOUS
 90
16
 70
0
 10
129.8490112637
 20
135.2575496456
 10
129.8487664507
 20
135.2620026513
 10
129.8480983808
 20
135.2664882404
 10
129.8470070538
 20
135.2710064128
 10
129.8454715656
 20
135.2756069732
 10
129.8435128204
 20
135.2802401169
 10
129.8411935309
 20
135.2847564302
 10
129.838501799
 20
135.2891521207
 10
129.8354495227
 20
135.2934309809
 10
129.8321351085
 20
135.297454974
 10
129.8285499012
 20
135.3012159637
 10
129.824702556
 20
135.3047220864
 10
129.820717446
 20
135.3078597143
 10
129.8166360287
 20
135.3105909713
 10
129.8124168465
 20
135.3129537335
 10
129.8080598995
 20
135.3149480009
  0
LWPOLYLINE
  5
361
100
AcDbEntity
  8
ASSI
100
AcDbPolyline
 62
7
  6
CONTINUOUS
 90
16
 70
0
 10
130.3039443523
 20
135.4292814439
 10
130.3028430366
 20
135.4509798964
 10
130.2995194181
 20
135.473420737
 10
130.2939853592
 20
135.4963686111
 10
130.286245803
 20
135.519664613
 10
130.2763790897
 20
135.5429654308
 10
130.2646112463
 20
135.5657531302
 10
130.2512338186
 20
135.5875998837
 10
130.2363361268
 20
135.6084808244
 10
130.2198621556
 20
135.6284744645
 10
130.2018009595
 20
135.6474958194
 10
130.182462989
 20
135.6651289448
 10
130.1622749425
 20
135.6809769005
 10
130.1415489775
 20
135.6948356679
 10
130.1204427748
 20
135.7066362155
 10
130.0991875314
 20
135.7162732201
  0
LWPOLYLINE
  5
362
100
AcDbEntity
  8
ASSI
100
AcDbPolyline
 62
7
  6
CONTINUOUS
 90
18
 70
0
 10
131.3067716547
 20
139.0391506462
 10
131.3064972534
 20
139.0472529933
 10
131.3033584982
 20
139.0781536849
 10
131.2968696019
 20
139.1088503598
 10
131.2870348413
 20
139.1389620336
 10
131.2739316291
 20
139.1680828441
 10
131.257602327
 20
139.1959936046
 10
131.2381243404
 20
139.2224229799
 10
131.2157206683
 20
139.2469868016
 10
131.1905917769
 20
139.2694427221
 10
131.1627225769
 20
139.2897475648
 10
131.1324140914
 20
139.3076203174
 10
131.1002504242
 20
139.3227549158
 10
131.066039946
 20
139.3352643436
 10
131.0299879691
 20
139.3450143491
 10
130.993281043
 20
139.3517276973
 10
130.9558183133
 20
139.3555008153
 10
130.9175931753
 20
139.3562867781
  0
LINE
  5
363
100
AcDbEntity
  8
DRAFT
100
AcDbLine
 62
253
  6
CONTINUOUS
 10
131.2545495827
 20
137.4992877006
 11
131.2473650205
 21
137.7765405453
  0
LINE
  5
364
100
AcDbEntity
  8
ASSI
100
AcDbLine
 62
7
  6
CONTINUOUS
 10
131.328830462
 20
137.9138827837
 11
131.3067735639
 21
139.0390640999
  0
LINE
  5
365
100
AcDbEntity
  8
ASSI
100
AcDbLine
 62
7
  6
CONTINUOUS
 10
130.8529958814
 20
134.7888840215
 11
130.833441215
 21
135.8660085012
  0
LINE
  5
366
100
AcDbEntity
  8
ASSI
100
AcDbLine
 62
253
  6
CONTINUOUS
 10
131.2571829544
 20
137.7843274375
 11
131.2383658887
 21
138.9154267192
  0
LINE
  5
367
100
AcDbEntity
  8
ASSI
100
AcDbLine
 62
7
  6
CONTINUOUS
 10
131.4106595627
 20
134.6900734809
 11
131.4106595627
 21
133.5707399381
  0
LINE
  5
368
100
AcDbEntity
  8
ASSI
100
AcDbLine
 62
253
  6
CONTINUOUS
 10
131.4959442754
 20
134.5961042189
 11
131.4959442754
 21
133.4730922129
  0
LWPOLYLINE
  5
369
100
AcDbEntity
  8
RACCORDO
100
AcDbPolyline
 62
253
  6
CONTINUOUS
 90
13
 70
0
 10
132.6155604962
 20
114.3096177741
 10
132.6235431051
 20
114.928098238
 10
132.6324365058
 20
115.5532377192
 10
132.642264213
 20
116.1850526182
 10
132.6530189778
 20
116.8218495107
 10
132.6647511766
 20
117.4653511876
 10
132.6775916364
 20
118.1207145104
 10
132.6915852997
 20
118.7879869767
 10
132.7067788431
 20
119.467187268
 10
132.7233488213
 20
120.1634621833
 10
132.7414109217
 20
120.8785690421
 10
132.7609961549
 20
121.6108572341
 10
132.782177938
 20
122.3603794874
  0
LWPOLYLINE
  5
36A
100
AcDbEntity
  8
RACCORDO
100
AcDbPolyline
 62
253
  6
CONTINUOUS
 90
10
 70
0
 10
132.8024925669
 20
114.4294784723
 10
132.8131477773
 20
115.2246557527
 10
132.8253519875
 20
116.0331136313
 10
132.8391684256
 20
116.8548941483
 10
132.8545765714
 20
117.6856762345
 10
132.8717105892
 20
118.5298537735
 10
132.8909375716
 20
119.40059412
 10
132.9125063546
 20
120.3023750568
 10
132.9364692692
 20
121.230926152
 10
132.9629751623
 20
122.1863475859
  0
LWPOLYLINE
  5
36B
100
AcDbEntity
  8
SMUSSO
100
AcDbPolyline
 62
7
  6
CONTINUOUS
 90
9
 70
0
 10
133.25939612
 20
114.7368021914
 10
133.2705362523
 20
115.5346211837
 10
133.283037269
 20
116.3334748276
 10
133.2968991702
 20
117.1333631229
 10
133.3121220928
 20
117.93429418
 10
133.3287058998
 20
118.7362598886
 10
133.3466501805
 20
119.5392359179
 10
133.3659547978
 20
120.3432141576
 10
133.3866198887
 20
121.1482027181
  0
LINE
  5
36C
100
AcDbEntity
  8
SMUSSO
100
AcDbLine
 62
7
  6
CONTINUOUS
 10
133.3866198887
 20
121.1482027181
 11
133.4086454533
 21
121.9542015992
  0
LWPOLYLINE
  5
36D
100
AcDbEntity
  8
ASSI
100
AcDbPolyline
 62
253
  6
CONTINUOUS
 90
13
 70
0
 10
134.108608132
 20
133.5877508771
 10
134.1095678796
 20
133.6096849501
 10
134.1124310634
 20
133.6328243656
 10
134.1171497745
 20
133.6567819388
 10
134.1236450562
 20
133.6811567952
 10
134.131808225
 20
133.7055410779
 10
134.1415026891
 20
133.7295267722
 10
134.1525662341
 20
133.7527125329
 10
134.1648137371
 20
133.7747104
 10
134.1780402644
 20
133.7951522899
 10
134.1920245007
 20
133.8136961549
 10
134.206532452
 20
133.8300317062
 10
134.2213213615
 20
133.8438856061
  0
LWPOLYLINE
  5
36E
100
AcDbEntity
  8
RACCORDO
100
AcDbPolyline
 62
7
  6
CONTINUOUS
 90
11
 70
0
 10
134.932527015
 20
139.4843104533
 10
134.9320431167
 20
139.477496939
 10
134.9302573564
 20
139.471432466
 10
134.9271977152
 20
139.4656358461
 10
134.9229668531
 20
139.4601578496
 10
134.9175577682
 20
139.4550068706
 10
134.9109774623
 20
139.450174515
 10
134.9033496011
 20
139.4456863701
 10
134.8947154065
 20
139.4415509652
 10
134.8850336565
 20
139.437759771
 10
134.8743043511
 20
139.4343127876
  0
LWPOLYLINE
  5
36F
100
AcDbEntity
  8
ASSI
100
AcDbPolyline
 62
253
  6
CONTINUOUS
 90
10
 70
0
 10
140.0834556584
 20
132.1022337408
 10
140.0850972147
 20
132.1062563315
 10
140.0865896898
 20
132.1103714248
 10
140.0878992644
 20
132.1144870532
 10
140.0890219208
 20
132.1186034913
 10
140.0899616767
 20
132.1227204645
 10
140.0906967666
 20
132.1267451808
 10
140.0912199352
 20
132.1306467096
 10
140.0915384378
 20
132.1344559815
 10
140.0916522743
 20
132.1381729965
  0
LWPOLYLINE
  5
370
100
AcDbEntity
  8
ASSI
100
AcDbPolyline
 62
7
  6
CONTINUOUS
 90
6
 70
0
 10
143.9341548199
 20
130.5071185194
 10
143.9358588707
 20
130.5100465692
 10
143.9460342232
 20
130.5293603388
 10
143.9549201976
 20
130.5496512034
 10
143.9621791626
 20
130.5700568061
 10
143.9679249307
 20
130.5907026822
  0
LINE
  5
371
100
AcDbEntity
  8
ASSI
100
AcDbLine
 62
253
  6
CONTINUOUS
 10
143.9276849303
 20
130.544560288
 11
143.4922922653
 21
129.8061414332
  0
LINE
  5
372
100
AcDbEntity
  8
ASSI
100
AcDbLine
 62
7
  6
CONTINUOUS
 10
143.9341592857
 20
130.507125994
 11
143.4922922653
 21
129.7577267381
  0
LWPOLYLINE
  5
373
100
AcDbEntity
  8
ASSI
100
AcDbPolyline
 62
7
  6
CONTINUOUS
 90
9
 70
0
 10
149.9188331918
 20
127.4602731981
 10
149.9044939903
 20
127.4465966581
 10
149.8881987207
 20
127.4275676162
 10
149.8740525619
 20
127.4066840705
 10
149.862264832
 20
127.3842056244
 10
149.8529761683
 20
127.3603071263
 10
149.8463516453
 20
127.3352081984
 10
149.8425532716
 20
127.3093446018
 10
149.8415812246
 20
127.2877769572
  0
LWPOLYLINE
  5
374
100
AcDbEntity
  8
ASSI
100
AcDbPolyline
 62
253
  6
CONTINUOUS
 90
13
 70
0
 10
148.3516941254
 20
128.1688093423
 10
148.3369052122
 20
128.1549554384
 10
148.3223972578
 20
128.1386198826
 10
148.3084130195
 20
128.1200760132
 10
148.295186491
 20
128.0996341194
 10
148.2829389879
 20
128.0776362493
 10
148.2718754437
 20
128.0544504869
 10
148.2621809811
 20
128.0304647925
 10
148.2540178142
 20
128.0060805115
 10
148.2475225346
 20
127.9817056583
 10
148.2428038255
 20
127.9577480897
 10
148.2399406431
 20
127.93460868
 10
148.238980896
 20
127.9126746133
  0
LWPOLYLINE
  5
375
100
AcDbEntity
  8
RACCORDO
100
AcDbPolyline
 62
253
  6
CONTINUOUS
 90
16
 70
0
 10
134.7402428202
 20
115.7342162669
 10
134.7433782689
 20
115.7371323556
 10
134.7640788446
 20
115.7628522369
 10
134.7813978298
 20
115.7918332917
 10
134.7951701407
 20
115.8237998543
 10
134.8052654598
 20
115.8584486391
 10
134.8115885967
 20
115.8954513724
 10
134.8140781122
 20
115.9344563071
 10
134.8127099553
 20
115.9750922054
 10
134.8074993417
 20
116.0169728022
 10
134.7984951152
 20
116.0596955328
 10
134.7857820545
 20
116.1028569356
 10
134.769481221
 20
116.1460572427
 10
134.7497444846
 20
116.1888883648
 10
134.7267552872
 20
116.2309376566
 10
134.7007287276
 20
116.2718033173
  0
LINE
  5
376
100
AcDbEntity
  8
SMUSSO
100
AcDbLine
 62
7
  6
CONTINUOUS
 10
149.2698928148
 20
128.1590943671
 11
149.4811097348
 21
128.344105132
  0
LINE
  5
377
100
AcDbEntity
  8
ASSI
100
AcDbLine
 62
7
  6
CONTINUOUS
 10
150.0890118629
 20
127.6093454813
 11
149.9185009108
 21
127.4599902039
  0
LINE
  5
378
100
AcDbEntity
  8
ASSI
100
AcDbLine
 62
253
  6
CONTINUOUS
 10
150.2502654405
 20
127.6231460364
 11
150.08048252
 21
127.4744889484
  0
LINE
  5
379
100
AcDbEntity
  8
ASSI
100
AcDbLine
 62
7
  6
CONTINUOUS
 10
148.5564509463
 20
126.7672417018
 11
148.7348653488
 21
126.9211216063
  0
LINE
  5
37A
100
AcDbEntity
  8
ASSI
100
AcDbLine
 62
7
  6
CONTINUOUS
 10
148.7348653488
 20
126.9211216063
 11
149.283916878
 21
127.3866106339
  0
LINE
  5
37B
100
AcDbEntity
  8
RACCORDO
100
AcDbLine
 62
7
  6
CONTINUOUS
 10
134.4883456921
 20
115.7491476746
 11
134.218284086
 21
115.5264018591
  0
LINE
  5
37C
100
AcDbEntity
  8
ASSI
100
AcDbLine
 62
7
  6
CONTINUOUS
 10
150.0890601063
 20
127.6093877437
 11
150.0948364634
 21
127.6141146692
  0
LWPOLYLINE
  5
37D
100
AcDbEntity
  8
RACCORDO
100
AcDbPolyline
 62
7
  6
CONTINUOUS
 90
8
 70
0
 10
134.4883456921
 20
115.7491476746
 10
134.5057740521
 20
115.7633513178
 10
134.5199398713
 20
115.7759854577
 10
134.5309939551
 20
115.7868292446
 10
134.539103627
 20
115.795419422
 10
134.5445118738
 20
115.8018529504
 10
134.5474641919
 20
115.8067937144
 10
134.5481818229
 20
115.8097841495
  0
LINE
  5
37E
100
AcDbEntity
  8
SMUSSO
100
AcDbLine
 62
7
  6
CONTINUOUS
 10
133.25939612
 20
114.7368021914
 11
134.218284086
 21
115.5171282858
  0
LINE
  5
37F
100
AcDbEntity
  8
ASSI
100
AcDbLine
 62
7
  6
CONTINUOUS
 10
152.9857063568
 20
127.1694245698
 11
155.6094387776
 21
129.2553043195
  0
LINE
  5
380
100
AcDbEntity
  8
ASSI
100
AcDbLine
 62
253
  6
CONTINUOUS
 10
153.0814423669
 20
127.1309748298
 11
155.7675183488
 21
129.2664180071
  0
LINE
  5
381
100
AcDbEntity
  8
RACCORDO
100
AcDbLine
 62
253
  6
CONTINUOUS
 10
155.9463784321
 20
131.8510738153
 11
155.3134285273
 21
131.3483708067
  0
LINE
  5
382
100
AcDbEntity
  8
RACCORDO
100
AcDbLine
 62
7
  6
CONTINUOUS
 10
134.743077907
 20
115.7330776321
 11
136.453091518
 21
117.0528541272
  0
LINE
  5
383
100
AcDbEntity
  8
RACCORDO
100
AcDbLine
 62
7
  6
CONTINUOUS
 10
136.453091518
 20
117.0528541272
 11
137.148225994
 21
117.5890162456
  0
LINE
  5
384
100
AcDbEntity
  8
ASSI
100
AcDbLine
 62
7
  6
CONTINUOUS
 10
150.6489191326
 20
128.0380644634
 11
150.0948278605
 21
127.6141081023
  0
LINE
  5
385
100
AcDbEntity
  8
ASSI
100
AcDbLine
 62
253
  6
CONTINUOUS
 10
150.8029865659
 20
128.0460540461
 11
150.2502654405
 21
127.6231460364
  0
LWPOLYLINE
  5
386
100
AcDbEntity
  8
ASSI
100
AcDbPolyline
 62
253
  6
CONTINUOUS
 90
34
 70
0
 10
155.7675183488
 20
129.2664180071
 10
155.7750217567
 20
129.2717911908
 10
155.7832484297
 20
129.2766652251
 10
155.7921983679
 20
129.2810401098
 10
155.8019663809
 20
129.2849479543
 10
155.812457659
 20
129.2883566493
 10
155.8233877733
 20
129.2911698673
 10
155.8347668751
 20
129.2933699863
 10
155.846584813
 20
129.2949746283
 10
155.8585267038
 20
129.295940332
 10
155.8705953764
 20
129.296249635
 10
155.8827880018
 20
129.2959199996
 10
155.8947812096
 20
129.2949603522
 10
155.9065696258
 20
129.2933538893
 10
155.9181586244
 20
129.2911174144
 10
155.9292409573
 20
129.2883102638
 10
155.9398030526
 20
129.2849171763
 10
155.9498584824
 20
129.2809534133
 10
155.9591407149
 20
129.2765240947
 10
155.9676290638
 20
129.2716167737
 10
155.9753442154
 20
129.2662438973
 10
155.9820816983
 20
129.260547926
 10
155.9878154454
 20
129.2545202264
 10
155.9925715237
 20
129.248169432
 10
155.9962236621
 20
129.2416639039
 10
155.9987419558
 20
129.2349991972
 10
156.0001563096
 20
129.2281797569
 10
156.0004301669
 20
129.2213872789
 10
155.9995312419
 20
129.2146213486
 10
155.9974918203
 20
129.2078823806
 10
155.9943722037
 20
129.2013533149
 10
155.9901924923
 20
129.1950951312
 10
155.9849325858
 20
129.1890468497
 10
155.9785924841
 20
129.1832084704
  0
LINE
  5
387
100
AcDbEntity
  8
RACCORDO
100
AcDbLine
 62
7
  6
CONTINUOUS
 10
133.2464872752
 20
114.7354514427
 11
132.8024925669
 21
114.4294784723
  0
LWPOLYLINE
  5
388
100
AcDbEntity
  8
ASSI
100
AcDbPolyline
 62
253
  6
CONTINUOUS
 90
8
 70
0
 10
155.6094389101
 20
129.2553044248
 10
155.6238661422
 20
129.2651039946
 10
155.6440938488
 20
129.2743697049
 10
155.6663220352
 20
129.2800821129
 10
155.6901829266
 20
129.2821468109
 10
155.7152817308
 20
129.2805297226
 10
155.7412031605
 20
129.2752576857
 10
155.7675183488
 20
129.2664180071
  0
LWPOLYLINE
  5
389
100
AcDbEntity
  8
RACCORDO
100
AcDbPolyline
 62
7
  6
CONTINUOUS
 90
3
 70
0
 10
132.7767421711
 20
114.412453375
 10
132.732590664
 20
114.3830977841
 10
132.7113247384
 20
114.3692633562
  0
LINE
  5
38A
100
AcDbEntity
  8
RACCORDO
100
AcDbLine
 62
7
  6
CONTINUOUS
 10
132.7996684793
 20
114.4275322704
 11
132.7767421711
 21
114.412453375
  0
LWPOLYLINE
  5
38B
100
AcDbEntity
  8
RACCORDO
100
AcDbPolyline
 62
7
  6
CONTINUOUS
 90
4
 70
0
 10
132.7113247384
 20
114.3692633562
 10
132.6515469145
 20
114.3313986647
 10
132.6331788371
 20
114.3200712015
 10
132.6155604963
 20
114.3096177742
  0
LWPOLYLINE
  5
38C
100
AcDbEntity
  8
ASSI
100
AcDbPolyline
 62
7
  6
CONTINUOUS
 90
3
 70
0
 10
155.8014532087
 20
126.2956952423
 10
155.7827129097
 20
126.2842029548
 10
155.771822118
 20
126.2763424716
  0
LINE
  5
38D
100
AcDbEntity
  8
RACCORDO
100
AcDbLine
 62
253
  6
CONTINUOUS
 10
161.5499544558
 20
127.6776215799
 11
162.0523203648
 21
127.9076587807
  0
LINE
  5
38E
100
AcDbEntity
  8
RACCORDO
100
AcDbLine
 62
253
  6
CONTINUOUS
 10
162.1955536508
 20
127.0461082318
 11
162.2813469148
 21
127.0853936251
  0
LWPOLYLINE
  5
38F
100
AcDbEntity
  8
RACCORDO
100
AcDbPolyline
 62
7
  6
CONTINUOUS
 90
5
 70
0
 10
128.9958842005
 20
103.7308700019
 10
129.0048888847
 20
103.7310143766
 10
129.0137530472
 20
103.7312373476
 10
129.0224767019
 20
103.7315389016
 10
129.0310030254
 20
103.7319444146
  0
LWPOLYLINE
  5
390
100
AcDbEntity
  8
ASSI
100
AcDbPolyline
 62
253
  6
CONTINUOUS
 90
16
 70
0
 10
134.4260781823
 20
133.5568938299
 10
134.4247538699
 20
133.5785842753
 10
134.4212226074
 20
133.6009550784
 10
134.4155235517
 20
133.6237616296
 10
134.4077198105
 20
133.6467547406
 10
134.3978968966
 20
133.6696826091
 10
134.3861618035
 20
133.6922935753
 10
134.3726429908
 20
133.714339848
 10
134.3574888706
 20
133.7355803584
 10
134.3408653046
 20
133.755782617
 10
134.3229523787
 20
133.7747266678
 10
134.3039477686
 20
133.7922032396
 10
134.284065316
 20
133.8080174769
 10
134.2635249706
 20
133.8219963698
 10
134.242549555
 20
133.8339892772
 10
134.2213682039
 20
133.8438661868
  0
LWPOLYLINE
  5
391
100
AcDbEntity
  8
ASSI
100
AcDbPolyline
 62
253
  6
CONTINUOUS
 90
16
 70
0
 10
134.1495594962
 20
133.5303525219
 10
134.1493146832
 20
133.5348055276
 10
134.1486466133
 20
133.5392911166
 10
134.1475552863
 20
133.5438092891
 10
134.1460197981
 20
133.5484098494
 10
134.144061053
 20
133.5530429931
 10
134.1417417634
 20
133.5575593064
 10
134.1390500315
 20
133.5619549969
 10
134.1359977552
 20
133.5662338571
 10
134.1326833411
 20
133.5702578502
 10
134.1290981337
 20
133.57401884
 10
134.1252507885
 20
133.5775249627
 10
134.1212656785
 20
133.5806625905
 10
134.1171842612
 20
133.5833938476
 10
134.1129650791
 20
133.5857566098
 10
134.108608132
 20
133.5877508771
  0
LWPOLYLINE
  5
392
100
AcDbEntity
  8
RACCORDO
100
AcDbPolyline
 62
7
  6
CONTINUOUS
 90
31
 70
0
 10
135.3247314836
 20
136.5313495026
 10
135.3246415403
 20
136.5373450266
 10
135.3242466054
 20
136.545265789
 10
135.3235368394
 20
136.5531748807
 10
135.3225126254
 20
136.5610565133
 10
135.321174648
 20
136.5688986671
 10
135.3195244191
 20
136.5766875566
 10
135.317563552
 20
136.5844116429
 10
135.3152931143
 20
136.5920622117
 10
135.3127150696
 20
136.5996276883
 10
135.30983261
 20
136.607094362
 10
135.3066488978
 20
136.6144502669
 10
135.3031679772
 20
136.6216826238
 10
135.2993940997
 20
136.6287794696
 10
135.2953312722
 20
136.6357301211
 10
135.2909845034
 20
136.6425228305
 10
135.2863597938
 20
136.6491452558
 10
135.2814631959
 20
136.6555859542
 10
135.2763011171
 20
136.6618337848
 10
135.2708811792
 20
136.6678769543
 10
135.2652120987
 20
136.6737034739
 10
135.2593031508
 20
136.6793018644
 10
135.2531623974
 20
136.6846626295
 10
135.2467973871
 20
136.6897771207
 10
135.2402153553
 20
136.6946371377
 10
135.2334286665
 20
136.6992312506
 10
135.226453528
 20
136.7035469709
 10
135.2193040665
 20
136.7075747947
 10
135.2119894521
 20
136.7113088304
 10
135.2045193151
 20
136.7147430727
 10
135.199269895
 20
136.7169386092
  0
LWPOLYLINE
  5
393
100
AcDbEntity
  8
ASSI
100
AcDbPolyline
 62
253
  6
CONTINUOUS
 90
17
 70
0
 10
135.6199611904
 20
131.6209760103
 10
135.6200794048
 20
131.6127448299
 10
135.6204474861
 20
131.6044860096
 10
135.6210866171
 20
131.596233871
 10
135.6220196468
 20
131.5880136049
 10
135.6232667963
 20
131.57987773
 10
135.6248413305
 20
131.571901518
 10
135.6267596764
 20
131.5641253374
 10
135.6290374935
 20
131.5565918658
 10
135.6316780969
 20
131.549373504
 10
135.6346912114
 20
131.5425104585
 10
135.6380852966
 20
131.5360441031
 10
135.6418520855
 20
131.5300387092
 10
135.6459932756
 20
131.5245301925
 10
135.6505091318
 20
131.5195542677
 10
135.6553793903
 20
131.5151616001
 10
135.6605973806
 20
131.511379702
  0
LWPOLYLINE
  5
394
100
AcDbEntity
  8
RACCORDO
100
AcDbPolyline
 62
253
  6
CONTINUOUS
 90
37
 70
0
 10
135.2905389981
 20
136.4671996186
 10
135.2904663564
 20
136.4744767326
 10
135.2900783513
 20
136.4818620615
 10
135.2893757211
 20
136.4893415524
 10
135.2883598027
 20
136.4969009732
 10
135.2870325292
 20
136.5045259397
 10
135.2853964263
 20
136.5122019429
 10
135.2834546071
 20
136.5199143768
 10
135.2812107666
 20
136.5276485661
 10
135.2786691743
 20
136.5353897939
 10
135.2758346665
 20
136.5431233302
 10
135.2727126368
 20
136.5508344594
 10
135.2693090257
 20
136.5585085086
 10
135.2656303097
 20
136.5661308755
 10
135.2616834888
 20
136.5736870561
 10
135.2574760731
 20
136.5811626724
 10
135.2530160684
 20
136.5885434996
 10
135.2483119615
 20
136.5958154934
 10
135.2433727033
 20
136.6029648164
 10
135.2382076923
 20
136.6099778649
 10
135.2328267567
 20
136.6168412942
 10
135.2272401353
 20
136.6235420444
 10
135.2214584586
 20
136.6300673654
 10
135.2154927279
 20
136.6364048404
 10
135.2093542951
 20
136.6425424106
 10
135.2030548404
 20
136.6484683972
 10
135.1966063505
 20
136.6541715241
 10
135.1900210958
 20
136.6596409394
 10
135.1833116067
 20
136.6648662356
 10
135.1764906503
 20
136.6698374701
 10
135.1695712056
 20
136.6745451834
 10
135.1625664391
 20
136.6789804177
 10
135.1554896794
 20
136.6831347334
 10
135.1483543925
 20
136.6870002257
 10
135.1411741555
 20
136.6905695393
 10
135.1339626311
 20
136.6938358823
 10
135.1267335414
 20
136.6967930396
  0
LINE
  5
395
100
AcDbEntity
  8
ASSI
100
AcDbLine
 62
253
  6
CONTINUOUS
 10
134.1495594962
 20
132.4073405159
 11
134.1495594962
 21
133.5303525219
  0
LINE
  5
396
100
AcDbEntity
  8
DRAFT
100
AcDbLine
 62
7
  6
CONTINUOUS
 10
134.218284086
 20
121.6246055288
 11
134.218284086
 21
115.5171282858
  0
LINE
  5
397
100
AcDbEntity
  8
ASSI
100
AcDbLine
 62
253
  6
CONTINUOUS
 10
134.4260781823
 20
132.4423179656
 11
134.4260781823
 21
133.5568938299
  0
LINE
  5
398
100
AcDbEntity
  8
RACCORDO
100
AcDbLine
 62
7
  6
CONTINUOUS
 10
134.4496697221
 20
135.7414112328
 11
134.4496697221
 21
134.6139147675
  0
LINE
  5
399
100
AcDbEntity
  8
RACCORDO
100
AcDbLine
 62
253
  6
CONTINUOUS
 10
134.4883456921
 20
121.5156817852
 11
134.4883456921
 21
115.7491476746
  0
LINE
  5
39A
100
AcDbEntity
  8
RACCORDO
100
AcDbLine
 62
7
  6
CONTINUOUS
 10
134.5481825417
 20
121.4915478339
 11
134.5481825417
 21
115.8083930617
  0
LINE
  5
39B
100
AcDbEntity
  8
ASSI
100
AcDbLine
 62
7
  6
CONTINUOUS
 10
134.6044925848
 20
133.7020843201
 11
134.6044925848
 21
132.5961978701
  0
LINE
  5
39C
100
AcDbEntity
  8
RACCORDO
100
AcDbLine
 62
253
  6
CONTINUOUS
 10
134.8597250906
 20
120.9722604693
 11
134.8597250906
 21
121.3660941966
  0
LINE
  5
39D
100
AcDbEntity
  8
RACCORDO
100
AcDbLine
 62
253
  6
CONTINUOUS
 10
135.2905389981
 20
136.4671996186
 11
135.2905389981
 21
135.1566255977
  0
LINE
  5
39E
100
AcDbEntity
  8
RACCORDO
100
AcDbLine
 62
7
  6
CONTINUOUS
 10
135.3247314836
 20
136.5313475931
 11
135.3247314836
 21
135.1838087863
  0
LINE
  5
39F
100
AcDbEntity
  8
ASSI
100
AcDbLine
 62
7
  6
CONTINUOUS
 10
135.5346764777
 20
132.0150419962
 11
135.5346764777
 21
131.7149452724
  0
LINE
  5
3A0
100
AcDbEntity
  8
ASSI
100
AcDbLine
 62
253
  6
CONTINUOUS
 10
135.6199611904
 20
131.9210727341
 11
135.6199611904
 21
131.6209760103
  0
LINE
  5
3A1
100
AcDbEntity
  8
ASSI
100
AcDbLine
 62
7
  6
CONTINUOUS
 10
136.1128823073
 20
131.3286505085
 11
136.1128823073
 21
130.9549326624
  0
LINE
  5
3A2
100
AcDbEntity
  8
ASSI
100
AcDbLine
 62
253
  6
CONTINUOUS
 10
136.2194881983
 20
131.2858351794
 11
136.2194881983
 21
130.8328730059
  0
LWPOLYLINE
  5
3A3
100
AcDbEntity
  8
RACCORDO
100
AcDbPolyline
 62
253
  6
CONTINUOUS
 90
15
 70
0
 10
135.3247314836
 20
136.5313475907
 10
135.3246253834
 20
136.5276114649
 10
135.3241583097
 20
136.5226689242
 10
135.3233199347
 20
136.5177424966
 10
135.3221118186
 20
136.5128413883
 10
135.3205362363
 20
136.5079748014
 10
135.3185961568
 20
136.5031518421
 10
135.3162951931
 20
136.4983814392
 10
135.3136376047
 20
136.4936724075
 10
135.3106279848
 20
136.4890330015
 10
135.3072722135
 20
136.4844723877
 10
135.303577776
 20
136.4800004754
 10
135.2995523174
 20
136.4756259602
 10
135.2952032617
 20
136.471356398
 10
135.2905389981
 20
136.4671996186
  0
LWPOLYLINE
  5
3A4
100
AcDbEntity
  8
ASSI
100
AcDbPolyline
 62
7
  6
CONTINUOUS
 90
3
 70
0
 10
140.1166523317
 20
132.1319217936
 10
140.1213692591
 20
132.1533746824
 10
140.1244148952
 20
132.1748081109
  0
LWPOLYLINE
  5
3A5
100
AcDbEntity
  8
ASSI
100
AcDbPolyline
 62
253
  6
CONTINUOUS
 90
5
 70
0
 10
143.9341592857
 20
130.507125994
 10
143.9364858425
 20
130.5134775372
 10
143.9364901812
 20
130.5224374389
 10
143.9335399033
 20
130.5328571262
 10
143.9276849303
 20
130.544560288
  0
LWPOLYLINE
  5
3A6
100
AcDbEntity
  8
RACCORDO
100
AcDbPolyline
 62
7
  6
CONTINUOUS
 90
9
 70
0
 10
156.0066487204
 20
131.0977441953
 10
156.0110414074
 20
131.1019724511
 10
156.0151402573
 20
131.1060597973
 10
156.0189369399
 20
131.1099882662
 10
156.0224351574
 20
131.1137409361
 10
156.0256127723
 20
131.1172973469
 10
156.0284228725
 20
131.1206381979
 10
156.0308501939
 20
131.1237505664
 10
156.0328910082
 20
131.1266193818
  0
LINE
  5
3A7
100
AcDbEntity
  8
ASSI
100
AcDbLine
 62
7
  6
CONTINUOUS
 10
153.0354135813
 20
125.1939244825
 11
152.8569991788
 21
125.040044578
  0
LINE
  5
3A8
100
AcDbEntity
  8
RACCORDO
100
AcDbLine
 62
7
  6
CONTINUOUS
 10
124.4127755473
 20
103.2242779372
 11
124.1427139413
 21
103.0015321217
  0
LINE
  5
3A9
100
AcDbEntity
  8
ASSI
100
AcDbLine
 62
253
  6
CONTINUOUS
 10
155.9785924841
 20
129.1832084704
 11
152.8306567604
 21
126.5868027088
  0
LINE
  5
3AA
100
AcDbEntity
  8
ASSI
100
AcDbLine
 62
253
  6
CONTINUOUS
 10
156.183349305
 20
128.8962166942
 11
153.0354135813
 21
126.2998109325
  0
LINE
  5
3AB
100
AcDbEntity
  8
ASSI
100
AcDbLine
 62
7
  6
CONTINUOUS
 10
153.0354135813
 20
125.1939244825
 11
156.1735551844
 21
127.7822520897
  0
LINE
  5
3AC
100
AcDbEntity
  8
ASSI
100
AcDbLine
 62
7
  6
CONTINUOUS
 10
156.1326279272
 20
128.202407405
 11
155.2199140538
 21
127.451158895
  0
LINE
  5
3AD
100
AcDbEntity
  8
ASSI
100
AcDbLine
 62
7
  6
CONTINUOUS
 10
155.3229228924
 20
125.9326268741
 11
155.3275439781
 21
125.9364084145
  0
LINE
  5
3AE
100
AcDbEntity
  8
RACCORDO
100
AcDbLine
 62
7
  6
CONTINUOUS
 10
124.4726123969
 20
103.344115216
 11
126.3154839803
 21
104.8486988698
  0
LWPOLYLINE
  5
3AF
100
AcDbEntity
  8
RACCORDO
100
AcDbPolyline
 62
7
  6
CONTINUOUS
 90
8
 70
0
 10
124.4127755473
 20
103.2242779372
 10
124.4302039073
 20
103.2384815804
 10
124.4443697265
 20
103.2511157203
 10
124.4554238104
 20
103.2619595071
 10
124.4635334823
 20
103.2705496846
 10
124.4689417291
 20
103.276983213
 10
124.4718940471
 20
103.281923977
 10
124.4726116781
 20
103.2849144121
  0
LINE
  5
3B0
100
AcDbEntity
  8
ASSI
100
AcDbLine
 62
253
  6
CONTINUOUS
 10
152.6522896946
 20
126.4415932071
 11
152.8306567604
 21
126.5868027088
  0
LINE
  5
3B1
100
AcDbEntity
  8
SMUSSO
100
AcDbLine
 62
7
  6
CONTINUOUS
 10
123.3841468479
 20
102.3749500428
 11
124.1427139413
 21
102.9922585484
  0
LINE
  5
3B2
100
AcDbEntity
  8
ASSI
100
AcDbLine
 62
253
  6
CONTINUOUS
 10
152.8569991788
 20
126.1546204423
 11
153.0354135813
 21
126.2998109325
  0
LINE
  5
3B3
100
AcDbEntity
  8
RACCORDO
100
AcDbLine
 62
7
  6
CONTINUOUS
 10
157.993252256
 20
130.3272844084
 11
156.2475124538
 21
128.9398678264
  0
LINE
  5
3B4
100
AcDbEntity
  8
RACCORDO
100
AcDbLine
 62
253
  6
CONTINUOUS
 10
158.1829102167
 20
130.340591006
 11
156.246671794
 21
128.8017767503
  0
LINE
  5
3B5
100
AcDbEntity
  8
ASSI
100
AcDbLine
 62
7
  6
CONTINUOUS
 10
155.7718228103
 20
126.2763431029
 11
155.3275370957
 21
125.936403161
  0
LINE
  5
3B6
100
AcDbEntity
  8
ASSI
100
AcDbLine
 62
253
  6
CONTINUOUS
 10
155.8953582086
 20
126.2829501183
 11
155.4518871598
 21
125.9436335083
  0
LWPOLYLINE
  5
3B7
100
AcDbEntity
  8
ASSI
100
AcDbPolyline
 62
7
  6
CONTINUOUS
 90
5
 70
0
 10
155.3275439781
 20
125.9364084145
 10
155.33025013
 20
125.93839825
 10
155.3421682835
 20
125.9455298044
 10
155.3553474604
 20
125.9509395432
 10
155.3697964174
 20
125.9545529805
  0
LINE
  5
3B8
100
AcDbEntity
  8
RACCORDO
100
AcDbLine
 62
7
  6
CONTINUOUS
 10
123.3841472589
 20
102.3749498218
 11
123.2841322895
 21
102.3057851491
  0
LINE
  5
3B9
100
AcDbEntity
  8
RACCORDO
100
AcDbLine
 62
7
  6
CONTINUOUS
 10
123.2841322895
 20
102.3057851491
 11
123.1836196367
 21
102.2366632638
  0
LINE
  5
3BA
100
AcDbEntity
  8
RACCORDO
100
AcDbLine
 62
7
  6
CONTINUOUS
 10
123.1836196367
 20
102.2366632638
 11
122.9307314954
 21
102.0634139978
  0
LWPOLYLINE
  5
3BB
100
AcDbEntity
  8
RACCORDO
100
AcDbPolyline
 62
7
  6
CONTINUOUS
 90
3
 70
0
 10
122.9071247279
 20
102.0476674278
 10
122.8622137014
 20
102.0173992879
 10
122.840828194
 20
102.003378992
  0
LINE
  5
3BC
100
AcDbEntity
  8
RACCORDO
100
AcDbLine
 62
7
  6
CONTINUOUS
 10
122.9307314772
 20
102.0634140056
 11
122.9071247279
 21
102.0476674278
  0
LWPOLYLINE
  5
3BD
100
AcDbEntity
  8
RACCORDO
100
AcDbPolyline
 62
7
  6
CONTINUOUS
 90
4
 70
0
 10
122.840828194
 20
102.003378992
 10
122.7816335189
 20
101.9659117865
 10
122.7637520606
 20
101.9549858351
 10
122.7467342061
 20
101.9450665801
  0
LWPOLYLINE
  5
3BE
100
AcDbEntity
  8
RACCORDO
100
AcDbPolyline
 62
7
  6
CONTINUOUS
 90
9
 70
0
 10
129.0734039178
 20
103.7343123519
 10
129.0785723798
 20
103.7350832191
 10
129.0852509265
 20
103.7373346529
 10
129.0934485214
 20
103.7408987643
 10
129.1032605332
 20
103.7455280486
 10
129.1145640314
 20
103.7511185649
 10
129.1270553558
 20
103.757761809
 10
129.1406435849
 20
103.7654220018
 10
129.1713521636
 20
103.7830288257
  0
LWPOLYLINE
  5
3BF
100
AcDbEntity
  8
RACCORDO
100
AcDbPolyline
 62
7
  6
CONTINUOUS
 90
3
 70
0
 10
129.0310030254
 20
103.7319444146
 10
129.0563076173
 20
103.733378366
 10
129.0734039541
 20
103.7343123363
  0
LWPOLYLINE
  5
3C0
100
AcDbEntity
  8
ASSI
100
AcDbPolyline
 62
7
  6
CONTINUOUS
 90
5
 70
0
 10
158.4895341691
 20
85.9000443505
 10
158.4695859312
 20
85.917068984
 10
158.4480594991
 20
85.9312756589
 10
158.4254991425
 20
85.9425160592
 10
158.4212603575
 20
85.9442656869
  0
LWPOLYLINE
  5
3C1
100
AcDbEntity
  8
RACCORDO
100
AcDbPolyline
 62
7
  6
CONTINUOUS
 90
14
 70
0
 10
134.9306205109
 20
139.5199847349
 10
134.92416773
 20
139.582515491
 10
134.9139945775
 20
139.6418268269
 10
134.9001685093
 20
139.697946438
 10
134.8827309461
 20
139.7509437752
 10
134.8616907255
 20
139.8008413677
 10
134.8370771195
 20
139.8475163094
 10
134.8090103319
 20
139.8907340493
 10
134.7775936598
 20
139.9303534977
 10
134.7430040893
 20
139.9661482488
 10
134.70569458
 20
139.9977103669
 10
134.6660093649
 20
140.0248878456
 10
134.6243463545
 20
140.0475621102
 10
134.5967606913
 20
140.0597053254
  0
LINE
  5
3C2
100
AcDbEntity
  8
RACCORDO
100
AcDbLine
 62
7
  6
CONTINUOUS
 10
134.9325413689
 20
139.48430778
 11
134.9306205109
 21
139.5199847349
  0
LWPOLYLINE
  5
3C3
100
AcDbEntity
  8
ASSI
100
AcDbPolyline
 62
7
  6
CONTINUOUS
 90
6
 70
0
 10
135.5346765114
 20
131.7149643484
 10
135.5361008586
 20
131.6880406647
 10
135.5402281493
 20
131.6625155477
 10
135.5472343537
 20
131.6373046472
 10
135.5571319589
 20
131.6129942282
 10
135.5700453795
 20
131.5897042347
  0
LWPOLYLINE
  5
3C4
100
AcDbEntity
  8
ASSI
100
AcDbPolyline
 62
253
  6
CONTINUOUS
 90
13
 70
0
 10
137.7524283085
 20
136.2984900818
 10
137.7509742134
 20
136.3261675002
 10
137.7460000957
 20
136.3547429891
 10
137.737591031
 20
136.3837278033
 10
137.725890845
 20
136.4126261965
 10
137.7110996537
 20
136.4409439008
 10
137.6934704409
 20
136.4681965804
 10
137.6733047307
 20
136.493918115
 10
137.6509474301
 20
136.5176685724
 10
137.6267809307
 20
136.5390417331
 10
137.601218568
 20
136.5576720379
 10
137.5746975515
 20
136.5732408407
 10
137.5476714876
 20
136.585481858
  0
LWPOLYLINE
  5
3C5
100
AcDbEntity
  8
ASSI
100
AcDbPolyline
 62
253
  6
CONTINUOUS
 90
13
 70
0
 10
138.2881136778
 20
130.6869832656
 10
138.2882323704
 20
130.6834678927
 10
138.2885656972
 20
130.6802014235
 10
138.2891136582
 20
130.6771838581
 10
138.2898834232
 20
130.6743960228
 10
138.2908678223
 20
130.6718570912
 10
138.2920453464
 20
130.6696245848
 10
138.2934204017
 20
130.6677052321
 10
138.2949885818
 20
130.6660923045
 10
138.2967151592
 20
130.6648231375
 10
138.2985885581
 20
130.6639101763
 10
138.3006203541
 20
130.6633409758
 10
138.3028105475
 20
130.6631155358
  0
LWPOLYLINE
  5
3C6
100
AcDbEntity
  8
ASSI
100
AcDbPolyline
 62
253
  6
CONTINUOUS
 90
11
 70
0
 10
138.0115949916
 20
130.6604419576
 10
138.0121435829
 20
130.6430393466
 10
138.0137845263
 20
130.6266610406
 10
138.0165053937
 20
130.6114316612
 10
138.0202857166
 20
130.5974670529
 10
138.0250967193
 20
130.5848734425
 10
138.0309015706
 20
130.5737466786
 10
138.037656775
 20
130.5641709912
 10
138.0453108346
 20
130.5562197381
 10
138.0538039251
 20
130.5499543253
 10
138.0620678537
 20
130.5458136498
  0
LWPOLYLINE
  5
3C7
100
AcDbEntity
  8
ASSI
100
AcDbPolyline
 62
7
  6
CONTINUOUS
 90
18
 70
0
 10
137.8170417731
 20
136.4171594029
 10
137.8168956033
 20
136.4281205007
 10
137.8140770207
 20
136.4601917714
 10
137.8076614732
 20
136.4920276674
 10
137.7976716302
 20
136.5232131969
 10
137.7842140602
 20
136.5533022537
 10
137.7673395338
 20
136.5820734033
 10
137.7471341874
 20
136.6092315217
 10
137.7238577445
 20
136.6343702149
 10
137.6977230232
 20
136.6572544347
 10
137.6686628076
 20
136.6778598871
 10
137.6370338388
 20
136.6958620667
 10
137.6035698007
 20
136.710905458
 10
137.5680911702
 20
136.7231113518
 10
137.5307829605
 20
136.7323840281
 10
137.4928932174
 20
136.7384497649
 10
137.454300829
 20
136.7414167267
 10
137.415012155
 20
136.7412113912
  0
LINE
  5
3C8
100
AcDbEntity
  8
ASSI
100
AcDbLine
 62
7
  6
CONTINUOUS
 10
136.5970543525
 20
130.0173407758
 11
136.5970543525
 21
131.1258479968
  0
LINE
  5
3C9
100
AcDbEntity
  8
ASSI
100
AcDbLine
 62
253
  6
CONTINUOUS
 10
136.7036602434
 20
129.8952811194
 11
136.7036602434
 21
131.1857380392
  0
LINE
  5
3CA
100
AcDbEntity
  8
ASSI
100
AcDbLine
 62
253
  6
CONTINUOUS
 10
136.9278959386
 20
129.805223009
 11
136.9278959386
 21
131.0956799287
  0
LINE
  5
3CB
100
AcDbEntity
  8
ASSI
100
AcDbLine
 62
253
  6
CONTINUOUS
 10
137.2735442963
 20
129.8489448212
 11
137.2735442963
 21
130.8625024873
  0
LINE
  5
3CC
100
AcDbEntity
  8
ASSI
100
AcDbLine
 62
7
  6
CONTINUOUS
 10
137.7170153451
 20
130.6843945162
 11
137.7170153451
 21
130.2314323428
  0
LINE
  5
3CD
100
AcDbEntity
  8
ASSI
100
AcDbLine
 62
253
  6
CONTINUOUS
 10
138.0115949916
 20
130.9605838109
 11
138.0115949916
 21
130.6604419576
  0
LINE
  5
3CE
100
AcDbEntity
  8
ASSI
100
AcDbLine
 62
253
  6
CONTINUOUS
 10
138.2881136778
 20
130.9870799894
 11
138.2881136778
 21
130.6869832656
  0
LINE
  5
3CF
100
AcDbEntity
  8
ASSI
100
AcDbLine
 62
253
  6
CONTINUOUS
 10
138.5592208565
 20
130.5242364923
 11
138.5592208565
 21
129.8931836223
  0
LINE
  5
3D0
100
AcDbEntity
  8
ASSI
100
AcDbLine
 62
253
  6
CONTINUOUS
 10
138.9048692142
 20
130.6540685139
 11
138.9048692142
 21
129.9369054345
  0
LINE
  5
3D1
100
AcDbEntity
  8
ASSI
100
AcDbLine
 62
7
  6
CONTINUOUS
 10
137.8102932339
 20
135.3075629352
 11
137.8170468476
 21
136.4169459429
  0
LINE
  5
3D2
100
AcDbEntity
  8
ASSI
100
AcDbLine
 62
253
  6
CONTINUOUS
 10
137.7426341879
 20
135.1845254773
 11
137.746777083
 21
135.6557304734
  0
LINE
  5
3D3
100
AcDbEntity
  8
ASSI
100
AcDbLine
 62
253
  6
CONTINUOUS
 10
137.7499618491
 20
136.017959689
 11
137.7524283085
 21
136.2984900818
  0
LWPOLYLINE
  5
3D4
100
AcDbEntity
  8
ASSI
100
AcDbPolyline
 62
253
  6
CONTINUOUS
 90
8
 70
0
 10
137.8170468508
 20
136.4169464704
 10
137.8169265436
 20
136.4122243042
 10
137.8143253388
 20
136.3920023353
 10
137.8083657723
 20
136.3720578332
 10
137.7991002164
 20
136.3525626135
 10
137.786609717
 20
136.3336896643
 10
137.7710060598
 20
136.3156112702
 10
137.7524283085
 20
136.2984900818
  0
LWPOLYLINE
  5
3D5
100
AcDbEntity
  8
SMUSSO
100
AcDbPolyline
 62
7
  6
CONTINUOUS
 90
10
 70
0
 10
137.2161287824
 20
120.4250306041
 10
137.1951735545
 20
119.6185780018
 10
137.1755130155
 20
118.8131732957
 10
137.1571471652
 20
118.0088164858
 10
137.1400760281
 20
117.2055063258
 10
137.1242995797
 20
116.4032440619
 10
137.1098177471
 20
115.6020334335
 10
137.0966305059
 20
114.8018756868
 10
137.0847378804
 20
114.0027695756
 10
137.0741398706
 20
113.2047150998
  0
LWPOLYLINE
  5
3D6
100
AcDbEntity
  8
RACCORDO
100
AcDbPolyline
 62
253
  6
CONTINUOUS
 90
10
 70
0
 10
137.3082302557
 20
120.441195242
 10
137.287677641
 20
119.6656821911
 10
137.2677981563
 20
118.8696272986
 10
137.2486941629
 20
118.0531182532
 10
137.2305089098
 20
117.2180637727
 10
137.213305986
 20
116.3627349468
 10
137.1971004052
 20
115.4817887635
 10
137.1820064239
 20
114.5735367672
 10
137.1682063802
 20
113.6399204857
 10
137.1558519831
 20
112.6810708489
  0
LWPOLYLINE
  5
3D7
100
AcDbEntity
  8
RACCORDO
100
AcDbPolyline
 62
253
  6
CONTINUOUS
 90
13
 70
0
 10
137.415624014
 20
120.4994831435
 10
137.3994491611
 20
119.898949168
 10
137.3836757094
 20
119.2866455784
 10
137.3683499468
 20
118.6626097318
 10
137.3535379433
 20
118.0276461855
 10
137.3392669884
 20
117.3810264327
 10
137.3255357656
 20
116.7204967687
 10
137.3124026583
 20
116.046020171
 10
137.2999298938
 20
115.3577325278
 10
137.2881417481
 20
114.6536554063
 10
137.2770991781
 20
113.9331729549
 10
137.2668901716
 20
113.1970243962
 10
137.2575908121
 20
112.4452733846
  0
LWPOLYLINE
  5
3D8
100
AcDbEntity
  8
ASSI
100
AcDbPolyline
 62
7
  6
CONTINUOUS
 90
8
 70
0
 10
137.8103062091
 20
135.3075627955
 10
137.810137126
 20
135.3020330754
 10
137.8071913476
 20
135.2810841377
 10
137.8007362715
 20
135.2601396935
 10
137.7910274611
 20
135.2399377997
 10
137.7781501043
 20
135.2207244752
 10
137.7620190132
 20
135.202253701
 10
137.7426341879
 20
135.1845254773
  0
LWPOLYLINE
  5
3D9
100
AcDbEntity
  8
ASSI
100
AcDbPolyline
 62
253
  6
CONTINUOUS
 90
16
 70
0
 10
139.4699757778
 20
130.3748652219
 10
139.4707416406
 20
130.3966464168
 10
139.4730261438
 20
130.4194588264
 10
139.4768058073
 20
130.4430590752
 10
139.4820411228
 20
130.4671971996
 10
139.4886769039
 20
130.4916130329
 10
139.49664175
 20
130.5160388507
 10
139.5058489349
 20
130.5402111546
 10
139.5162000456
 20
130.5638731231
 10
139.5275852498
 20
130.5867709909
 10
139.5398818081
 20
130.6086598486
 10
139.5529574924
 20
130.6293052146
 10
139.5666736196
 20
130.6484851084
 10
139.5808831937
 20
130.6659939944
 10
139.5954325068
 20
130.6816449442
 10
139.6101648948
 20
130.6952705981
  0
LINE
  5
3DA
100
AcDbEntity
  8
ASSI
100
AcDbLine
 62
7
  6
CONTINUOUS
 10
140.1244148952
 20
132.1748081109
 11
140.1257710534
 21
132.196106427
  0
LWPOLYLINE
  5
3DB
100
AcDbEntity
  8
ASSI
100
AcDbPolyline
 62
253
  6
CONTINUOUS
 90
27
 70
0
 10
154.1845420901
 20
124.8334829063
 10
154.1778202548
 20
124.8270950536
 10
154.1709235369
 20
124.8200596431
 10
154.1638588887
 20
124.8123368657
 10
154.1566642593
 20
124.803919809
 10
154.1494070088
 20
124.794843863
 10
154.1421152688
 20
124.7851034479
 10
154.134820061
 20
124.7746976523
 10
154.1275926454
 20
124.7636903772
 10
154.1204655478
 20
124.7520966712
 10
154.1134728141
 20
124.7399358193
 10
154.1066836232
 20
124.727297635
 10
154.1001323701
 20
124.7142201354
 10
154.0938492428
 20
124.7007359955
 10
154.0878895508
 20
124.6869412834
 10
154.0822842981
 20
124.672889694
 10
154.0770578434
 20
124.6586226884
 10
154.0722474024
 20
124.6442254032
 10
154.0678761156
 20
124.6297532116
 10
154.0639644042
 20
124.6152580985
 10
154.0605376546
 20
124.6008223826
 10
154.0576109963
 20
124.5865008576
 10
154.05519801
 20
124.5723490116
 10
154.0533132469
 20
124.5584485969
 10
154.0519637952
 20
124.5448608922
 10
154.0511526741
 20
124.5316279143
 10
154.0508821869
 20
124.5187993465
  0
LWPOLYLINE
  5
3DC
100
AcDbEntity
  8
ASSI
100
AcDbPolyline
 62
7
  6
CONTINUOUS
 90
14
 70
0
 10
154.0612801788
 20
124.8275188553
 10
154.0482554696
 20
124.8152494471
 10
154.0348605455
 20
124.8006108591
 10
154.0225193996
 20
124.7849076149
 10
154.0112654134
 20
124.7682438468
 10
154.0013047841
 20
124.7510509192
 10
153.9924432052
 20
124.7331045679
 10
153.9846522719
 20
124.7143039917
 10
153.9782063848
 20
124.6953252815
 10
153.9730343826
 20
124.6760313549
 10
153.9691216352
 20
124.6561491095
 10
153.9666380051
 20
124.6362109916
 10
153.9656214663
 20
124.616303467
 10
153.9655975521
 20
124.6127236025
  0
LINE
  5
3DD
100
AcDbEntity
  8
ASSI
100
AcDbLine
 62
7
  6
CONTINUOUS
 10
155.3228842977
 20
125.9325930642
 11
154.0612933842
 21
124.8275305532
  0
LINE
  5
3DE
100
AcDbEntity
  8
ASSI
100
AcDbLine
 62
253
  6
CONTINUOUS
 10
155.4518871598
 20
125.9436335083
 11
154.1845420901
 21
124.8334829063
  0
LINE
  5
3DF
100
AcDbEntity
  8
ASSI
100
AcDbLine
 62
7
  6
CONTINUOUS
 10
162.2450797875
 20
128.9100910725
 11
158.1832769328
 21
125.4256676343
  0
LINE
  5
3E0
100
AcDbEntity
  8
ASSI
100
AcDbLine
 62
253
  6
CONTINUOUS
 10
158.3313226997
 20
125.3046495765
 11
157.909393197
 21
124.9566436806
  0
LINE
  5
3E1
100
AcDbEntity
  8
ASSI
100
AcDbLine
 62
253
  6
CONTINUOUS
 10
158.495097404
 20
125.075030791
 11
158.0731986537
 21
124.7270502596
  0
LINE
  5
3E2
100
AcDbEntity
  8
ASSI
100
AcDbLine
 62
253
  6
CONTINUOUS
 10
157.909393197
 20
124.9566436806
 11
156.5841099655
 21
123.8781515891
  0
LINE
  5
3E3
100
AcDbEntity
  8
ASSI
100
AcDbLine
 62
253
  6
CONTINUOUS
 10
158.0731986537
 20
124.7270502596
 11
156.7479154222
 21
123.6485581681
  0
LINE
  5
3E4
100
AcDbEntity
  8
ASSI
100
AcDbLine
 62
7
  6
CONTINUOUS
 10
161.4056562122
 20
129.0462635591
 11
157.265769853
 21
125.7941591623
  0
LINE
  5
3E5
100
AcDbEntity
  8
ASSI
100
AcDbLine
 62
253
  6
CONTINUOUS
 10
158.4980353381
 20
125.0772151835
 11
158.495097404
 21
125.075030791
  0
LWPOLYLINE
  5
3E6
100
AcDbEntity
  8
ASSI
100
AcDbPolyline
 62
253
  6
CONTINUOUS
 90
13
 70
0
 10
156.7190346743
 20
123.5848066018
 10
156.7025062303
 20
123.5733908727
 10
156.6835469456
 20
123.5632944105
 10
156.6624740601
 20
123.5546861561
 10
156.6396401798
 20
123.5477101488
 10
156.6154273768
 20
123.5424831159
 10
156.5902407966
 20
123.5390925198
 10
156.5645018782
 20
123.5375950942
 10
156.5386413032
 20
123.5380158951
 10
156.5130917884
 20
123.5403478814
 10
156.4882808459
 20
123.5445520327
 10
156.4646236295
 20
123.5505580022
 10
156.4425159881
 20
123.5582652938
  0
LWPOLYLINE
  5
3E7
100
AcDbEntity
  8
ASSI
100
AcDbPolyline
 62
253
  6
CONTINUOUS
 90
13
 70
0
 10
156.7190346743
 20
123.284709878
 10
156.7025063029
 20
123.2732941764
 10
156.6835470946
 20
123.2631977262
 10
156.6624742806
 20
123.2545894699
 10
156.6396404601
 20
123.2476134493
 10
156.6154276991
 20
123.2423863951
 10
156.5902411378
 20
123.2389957738
 10
156.5645022123
 20
123.2374983241
 10
156.5386416044
 20
123.2379191068
 10
156.5130920352
 20
123.240251085
 10
156.4882810209
 20
123.244455242
 10
156.46462372
 20
123.2504612348
 10
156.4425159881
 20
123.2581685701
  0
LWPOLYLINE
  5
3E8
100
AcDbEntity
  8
ASSI
100
AcDbPolyline
 62
253
  6
CONTINUOUS
 90
8
 70
0
 10
125.50821186
 20
138.3306168363
 10
125.5088760828
 20
138.3288729216
 10
125.5094415737
 20
138.3269860786
 10
125.5099101106
 20
138.3249590514
 10
125.510275436
 20
138.3228181011
 10
125.5105354641
 20
138.3205719814
 10
125.5106922807
 20
138.3182119387
 10
125.5107458859
 20
138.3157379729
  0
LINE
  5
3E9
100
AcDbEntity
  8
SMUSSO
100
AcDbLine
 62
7
  6
CONTINUOUS
 10
137.0765567646
 20
113.1972094586
 11
137.0741398706
 21
113.2047150998
  0
LWPOLYLINE
  5
3EA
100
AcDbEntity
  8
RACCORDO
100
AcDbPolyline
 62
7
  6
CONTINUOUS
 90
10
 70
0
 10
137.1558519813
 20
112.6810705933
 10
137.1611263051
 20
112.6532913396
 10
137.1683337559
 20
112.6257339113
 10
137.1772677514
 20
112.5984769962
 10
137.1876722606
 20
112.5715351501
 10
137.199373199
 20
112.5449964313
 10
137.2123433531
 20
112.5190464041
 10
137.2264969517
 20
112.4937805671
 10
137.2416295927
 20
112.4691817953
 10
137.2575908075
 20
112.4452733809
  0
LWPOLYLINE
  5
3EB
100
AcDbEntity
  8
RACCORDO
100
AcDbPolyline
 62
7
  6
CONTINUOUS
 90
7
 70
0
 10
136.9219647796
 20
120.5399805615
 10
136.9332322634
 20
120.4786436341
 10
136.9764955398
 20
120.293564016
 10
137.0291872135
 20
120.1079660766
 10
137.0912943119
 20
119.9215464492
 10
137.162360637
 20
119.7356588108
 10
137.1961821204
 20
119.6573922085
  0
LWPOLYLINE
  5
3EC
100
AcDbEntity
  8
RACCORDO
100
AcDbPolyline
 62
7
  6
CONTINUOUS
 90
7
 70
0
 10
136.962729196
 20
120.5237241854
 10
136.9629706075
 20
120.522295413
 10
137.0056470213
 20
120.3298255084
 10
137.0583857812
 20
120.1370655718
 10
137.1211744428
 20
119.9444267382
 10
137.1940254505
 20
119.7514978726
 10
137.1983648538
 20
119.7413937318
  0
LINE
  5
3ED
100
AcDbEntity
  8
RACCORDO
100
AcDbLine
 62
7
  6
CONTINUOUS
 10
137.0765567646
 20
113.1972094586
 11
137.1563570767
 21
112.6777875651
  0
LWPOLYLINE
  5
3EE
100
AcDbEntity
  8
ASSI
100
AcDbPolyline
 62
253
  6
CONTINUOUS
 90
13
 70
0
 10
138.3169944257
 20
131.0508315557
 10
138.3153430082
 20
131.0725734939
 10
138.3109524347
 20
131.0950968442
 10
138.3038977919
 20
131.1180163801
 10
138.2942997335
 20
131.1409400944
 10
138.2823224126
 20
131.163475912
 10
138.2681706727
 20
131.1852383955
 10
138.2520865483
 20
131.205855329
 10
138.2343451334
 20
131.2249740764
 10
138.2152498727
 20
131.2422676232
 10
138.1951273661
 20
131.2574401776
 10
138.1743217803
 20
131.2702322285
 10
138.1531889691
 20
131.2804249768
  0
LWPOLYLINE
  5
3EF
100
AcDbEntity
  8
ASSI
100
AcDbPolyline
 62
253
  6
CONTINUOUS
 90
13
 70
0
 10
140.0641764075
 20
132.4773041786
 10
140.0630131304
 20
132.4994461124
 10
140.0590338357
 20
132.5223065029
 10
140.0523065837
 20
132.545494354
 10
140.0429464351
 20
132.5686130687
 10
140.0311134826
 20
132.5912672325
 10
140.0170101128
 20
132.6130693766
 10
140.000877545
 20
132.6336466047
 10
139.9829917048
 20
132.6526469709
 10
139.9636585055
 20
132.6697454997
 10
139.9432086153
 20
132.6846497437
 10
139.9219918021
 20
132.6971047859
 10
139.9003709508
 20
132.7068975996
  0
LWPOLYLINE
  5
3F0
100
AcDbEntity
  8
ASSI
100
AcDbPolyline
 62
253
  6
CONTINUOUS
 90
9
 70
0
 10
139.384691091
 20
130.4687632697
 10
139.3849805936
 20
130.462619189
 10
139.3880400334
 20
130.4478843353
 10
139.3943899792
 20
130.433499266
 10
139.4039241877
 20
130.4197046843
 10
139.4164831315
 20
130.4067314146
 10
139.4318566706
 20
130.3947965379
 10
139.4497875693
 20
130.3840997602
 10
139.4699757986
 20
130.3748200716
  0
LWPOLYLINE
  5
3F1
100
AcDbEntity
  8
ASSI
100
AcDbPolyline
 62
253
  6
CONTINUOUS
 90
9
 70
0
 10
139.3846910859
 20
130.1686926092
 10
139.3849806141
 20
130.1625222634
 10
139.3880401043
 20
130.1477874085
 10
139.3943900944
 20
130.1334023539
 10
139.4039243319
 20
130.1196078001
 10
139.4164832833
 20
130.1066345673
 10
139.4318568036
 20
130.0946997323
 10
139.4497876525
 20
130.0840029972
 10
139.4699757986
 20
130.0747233471
  0
LWPOLYLINE
  5
3F2
100
AcDbEntity
  8
ASSI
100
AcDbPolyline
 62
7
  6
CONTINUOUS
 90
13
 70
0
 10
140.1258444132
 20
132.5238706769
 10
140.1247847306
 20
132.5471093128
 10
140.1214961633
 20
132.5704171986
 10
140.1158725015
 20
132.593404881
 10
140.1079273304
 20
132.6156542254
 10
140.0975844387
 20
132.6371161144
 10
140.0849187833
 20
132.6574004885
 10
140.0700928352
 20
132.6761483596
 10
140.0532588801
 20
132.6931330208
 10
140.0346252437
 20
132.7081179948
 10
140.0144571446
 20
132.7208831891
 10
139.9930511736
 20
132.7312541797
 10
139.9906450222
 20
132.7322387436
  0
LWPOLYLINE
  5
3F3
100
AcDbEntity
  8
ASSI
100
AcDbPolyline
 62
253
  6
CONTINUOUS
 90
11
 70
0
 10
140.0916522743
 20
132.4597172485
 10
140.0914890874
 20
132.4638834003
 10
140.0910428975
 20
132.4676760607
 10
140.0903137045
 20
132.4710952296
 10
140.0892878475
 20
132.4741694704
 10
140.0879789875
 20
132.4768702198
 10
140.0864281068
 20
132.4791117872
 10
140.0846273879
 20
132.4808794089
 10
140.0825846483
 20
132.4821878486
 10
140.0803643234
 20
132.4829957066
 10
140.0779606896
 20
132.4832870964
  0
LWPOLYLINE
  5
3F4
100
AcDbEntity
  8
RACCORDO
100
AcDbPolyline
 62
253
  6
CONTINUOUS
 90
10
 70
0
 10
140.8507469208
 20
94.5551698315
 10
140.8399385198
 20
95.0189286149
 10
140.8294077778
 20
95.4923344224
 10
140.8191832106
 20
95.9754108561
 10
140.809327794
 20
96.466400788
 10
140.7998334036
 20
96.9671063258
 10
140.7906401108
 20
97.482905336
 10
140.7817687755
 20
98.0156244093
 10
140.7733017508
 20
98.5635223171
 10
140.7652907993
 20
99.1266415112
  0
LWPOLYLINE
  5
3F5
100
AcDbEntity
  8
RACCORDO
100
AcDbPolyline
 62
253
  6
CONTINUOUS
 90
10
 70
0
 10
141.0310136997
 20
94.674241469
 10
141.0209600695
 20
95.1106584097
 10
141.0111433911
 20
95.556059669
 10
141.0015892368
 20
96.0104657074
 10
140.9923501111
 20
96.4725380691
 10
140.9834233141
 20
96.9436547653
 10
140.9747650923
 20
97.4279219276
 10
140.9663941406
 20
97.9267349529
 10
140.958377452
 20
98.4387668349
 10
140.950758068
 20
98.9640516867
  0
LWPOLYLINE
  5
3F6
100
AcDbEntity
  8
SMUSSO
100
AcDbPolyline
 62
7
  6
CONTINUOUS
 90
10
 70
0
 10
141.4739096024
 20
94.9787891363
 10
141.4644935668
 20
95.3964508431
 10
141.4554658483
 20
95.8144320247
 10
141.4468264471
 20
96.2327326812
 10
141.4385754036
 20
96.651353637
 10
141.4307126773
 20
97.0702940676
 10
141.4232381466
 20
97.4895514997
 10
141.4161517707
 20
97.9091251086
 10
141.4094535903
 20
98.3290157189
 10
141.4031436054
 20
98.7492233306
  0
LWPOLYLINE
  5
3F7
100
AcDbEntity
  8
ASSI
100
AcDbPolyline
 62
7
  6
CONTINUOUS
 90
7
 70
0
 10
139.3846916804
 20
130.1687320662
 10
139.3847585132
 20
130.1628136759
 10
139.3864523658
 20
130.1388145224
 10
139.3907475043
 20
130.1140127223
 10
139.3977805788
 20
130.0895153901
 10
139.4075702645
 20
130.0658594307
 10
139.4202343067
 20
130.0431833666
  0
LINE
  5
3F8
100
AcDbEntity
  8
ASSI
100
AcDbLine
 62
7
  6
CONTINUOUS
 10
139.3846910859
 20
130.1686926092
 11
139.3846910859
 21
130.4687893183
  0
LINE
  5
3F9
100
AcDbEntity
  8
ASSI
100
AcDbLine
 62
253
  6
CONTINUOUS
 10
139.4699757986
 20
130.0747233471
 11
139.4699757986
 21
130.3748652093
  0
LINE
  5
3FA
100
AcDbEntity
  8
ASSI
100
AcDbLine
 62
7
  6
CONTINUOUS
 10
139.6422776572
 20
130.825355803
 11
139.6422776572
 21
132.1293236472
  0
LINE
  5
3FB
100
AcDbEntity
  8
ASSI
100
AcDbLine
 62
7
  6
CONTINUOUS
 10
139.9628969155
 20
129.4086799991
 11
139.9628969155
 21
129.7823978454
  0
LINE
  5
3FC
100
AcDbEntity
  8
ASSI
100
AcDbLine
 62
253
  6
CONTINUOUS
 10
140.0695028064
 20
129.2866203427
 11
140.0695028064
 21
129.7395825162
  0
LINE
  5
3FD
100
AcDbEntity
  8
ASSI
100
AcDbLine
 62
253
  6
CONTINUOUS
 10
140.0916522743
 20
132.1381729965
 11
140.0916522743
 21
132.4597172485
  0
LINE
  5
3FE
100
AcDbEntity
  8
ASSI
100
AcDbLine
 62
7
  6
CONTINUOUS
 10
140.1258447597
 20
132.202320971
 11
140.1258447597
 21
132.5238652843
  0
LINE
  5
3FF
100
AcDbEntity
  8
ASSI
100
AcDbLine
 62
7
  6
CONTINUOUS
 10
140.4470689607
 20
128.4710881126
 11
140.4470689607
 21
129.5795953336
  0
LINE
  5
400
100
AcDbEntity
  8
ASSI
100
AcDbLine
 62
253
  6
CONTINUOUS
 10
140.5536748516
 20
128.3490284562
 11
140.5536748516
 21
129.639485376
  0
LINE
  5
401
100
AcDbEntity
  8
ASSI
100
AcDbLine
 62
253
  6
CONTINUOUS
 10
140.7779105468
 20
128.2589703458
 11
140.7779105468
 21
129.5494272655
  0
LINE
  5
402
100
AcDbEntity
  8
ASSI
100
AcDbLine
 62
253
  6
CONTINUOUS
 10
141.1235589045
 20
128.302692158
 11
141.1235589045
 21
129.3162498241
  0
LINE
  5
403
100
AcDbEntity
  8
ASSI
100
AcDbLine
 62
7
  6
CONTINUOUS
 10
141.5670299532
 20
129.1381418531
 11
141.5670299532
 21
128.6851796796
  0
LINE
  5
404
100
AcDbEntity
  8
ASSI
100
AcDbLine
 62
253
  6
CONTINUOUS
 10
141.8616095998
 20
129.1141892944
 11
141.8616095998
 21
129.4142883089
  0
LWPOLYLINE
  5
405
100
AcDbEntity
  8
ASSI
100
AcDbPolyline
 62
253
  6
CONTINUOUS
 90
28
 70
0
 10
142.1381282859
 20
129.4408273262
 10
142.1381506691
 20
129.4427606479
 10
142.1382519314
 20
129.4447982865
 10
142.1384320728
 20
129.446940242
 10
142.1386870226
 20
129.4491946032
 10
142.1390208514
 20
129.4515532814
 10
142.1394457717
 20
129.4539920099
 10
142.1399644517
 20
129.4565142181
 10
142.1405742232
 20
129.4591164767
 10
142.1412792944
 20
129.4617642316
 10
142.142082655
 20
129.4644598157
 10
142.1429813153
 20
129.4672008962
 10
142.1439705139
 20
129.4699459203
 10
142.1450525148
 20
129.472694648
 10
142.1462250541
 20
129.4754473193
 10
142.1474765783
 20
129.4781631023
 10
142.1488085637
 20
129.4808406825
 10
142.1502195342
 20
129.4834813743
 10
142.1516935075
 20
129.486048289
 10
142.153231755
 20
129.4885401595
 10
142.1548330054
 20
129.4909582529
 10
142.1564774625
 20
129.4932694812
 10
142.158166043
 20
129.4954719863
 10
142.1598978302
 20
129.4975676263
 10
142.1616502775
 20
129.4995288882
 10
142.1634158695
 20
129.5013466011
 10
142.1652021216
 20
129.5030299358
 10
142.1670090339
 20
129.5045788925
  0
LINE
  5
406
100
AcDbEntity
  8
ASSI
100
AcDbLine
 62
7
  6
CONTINUOUS
 10
140.1257710534
 20
132.196106427
 11
140.1258448901
 21
132.2023598814
  0
LWPOLYLINE
  5
407
100
AcDbEntity
  8
ASSI
100
AcDbPolyline
 62
253
  6
CONTINUOUS
 90
28
 70
0
 10
141.8616096004
 20
129.4142883087
 10
141.8617654378
 20
129.4239411321
 10
141.8622523365
 20
129.4341313958
 10
141.8630983442
 20
129.4448565878
 10
141.8643339278
 20
129.4561319834
 10
141.8659852457
 20
129.4679247133
 10
141.8680666525
 20
129.4801497573
 10
141.8705971499
 20
129.4927826862
 10
141.8735940765
 20
129.5057940752
 10
141.8770539879
 20
129.5190794727
 10
141.8809840322
 20
129.5325988716
 10
141.8853892252
 20
129.5463089191
 10
141.8902469068
 20
129.5600931554
 10
141.895548926
 20
129.5738957239
 10
141.901289479
 20
129.5876713712
 10
141.9074357701
 20
129.6013184343
 10
141.9139686402
 20
129.6147782128
 10
141.9208724715
 20
129.6280033977
 10
141.9281106451
 20
129.6409124642
 10
141.935658547
 20
129.6534529265
 10
141.9434913728
 20
129.6655754245
 10
141.9515663842
 20
129.6772089432
 10
141.9598543006
 20
129.6883080931
 10
141.9683246321
 20
129.6988289764
 10
141.9769290906
 20
129.7087116569
 10
141.9856294225
 20
129.7179147687
 10
141.9943985293
 20
129.7264117385
 10
142.0032035772
 20
129.7341723135
  0
LWPOLYLINE
  5
408
100
AcDbEntity
  8
ASSI
100
AcDbPolyline
 62
7
  6
CONTINUOUS
 90
3
 70
0
 10
143.9679249307
 20
130.5907026822
 10
143.9722166298
 20
130.6119566565
 10
143.9748670253
 20
130.633174996
  0
LINE
  5
409
100
AcDbEntity
  8
RACCORDO
100
AcDbLine
 62
7
  6
CONTINUOUS
 10
150.8819788604
 20
128.0143289598
 11
151.4401603668
 21
129.0437486328
  0
LINE
  5
40A
100
AcDbEntity
  8
RACCORDO
100
AcDbLine
 62
253
  6
CONTINUOUS
 10
150.9790405668
 20
127.9753467903
 11
151.5683594527
 21
129.062191209
  0
LWPOLYLINE
  5
40B
100
AcDbEntity
  8
RACCORDO
100
AcDbPolyline
 62
7
  6
CONTINUOUS
 90
8
 70
0
 10
151.4401528252
 20
129.0437347101
 10
151.4415891141
 20
129.046248612
 10
151.4434516324
 20
129.0491517577
 10
151.4455514303
 20
129.052031393
 10
151.4479240574
 20
129.0548836518
 10
151.4505870055
 20
129.0576779718
 10
151.4535503794
 20
129.060370977
 10
151.4555795409
 20
129.0620034526
  0
LWPOLYLINE
  5
40C
100
AcDbEntity
  8
RACCORDO
100
AcDbPolyline
 62
7
  6
CONTINUOUS
 90
6
 70
0
 10
156.0328910082
 20
131.1266193818
 10
156.0345170307
 20
131.129229793
 10
156.0357150616
 20
131.1315682737
 10
156.0364797543
 20
131.1336294605
 10
156.0367940512
 20
131.1354110124
 10
156.0368016793
 20
131.1357123186
  0
LWPOLYLINE
  5
40D
100
AcDbEntity
  8
ASSI
100
AcDbPolyline
 62
253
  6
CONTINUOUS
 90
6
 70
0
 10
158.5225732708
 20
125.0574438609
 10
158.5356226161
 20
125.0702568498
 10
158.5456792243
 20
125.0839288096
 10
158.5525748177
 20
125.098230974
 10
158.5561940104
 20
125.1129240309
 10
158.5567657563
 20
125.1215918933
  0
LWPOLYLINE
  5
40E
100
AcDbEntity
  8
ASSI
100
AcDbPolyline
 62
253
  6
CONTINUOUS
 90
6
 70
0
 10
158.5225732708
 20
124.7358996089
 10
158.5356226456
 20
124.7487126106
 10
158.5456792637
 20
124.7623845844
 10
158.5525748507
 20
124.7766867615
 10
158.556194025
 20
124.7913798279
 10
158.5567657563
 20
124.8000475835
  0
LWPOLYLINE
  5
40F
100
AcDbEntity
  8
ASSI
100
AcDbPolyline
 62
253
  6
CONTINUOUS
 90
22
 70
0
 10
153.8219142098
 20
119.5680314911
 10
153.77358179
 20
119.5224889855
 10
153.7257028549
 20
119.4724607178
 10
153.6785016256
 20
119.4182008933
 10
153.6321900933
 20
119.3599920343
 10
153.586993476
 20
119.2981208928
 10
153.5431498383
 20
119.2328749679
 10
153.5008622282
 20
119.1645751119
 10
153.4603310255
 20
119.0935679553
 10
153.4217796693
 20
119.02020057
 10
153.3853907551
 20
118.9448404532
 10
153.3513315333
 20
118.8678626379
 10
153.3197869883
 20
118.7896401322
 10
153.290905833
 20
118.7105607857
 10
153.2648211558
 20
118.6310194759
 10
153.2416756921
 20
118.551405527
 10
153.2215805179
 20
118.4721187369
 10
153.2046247595
 20
118.3935475931
 10
153.1908983249
 20
118.3160619934
 10
153.1804702267
 20
118.2400398814
 10
153.1733863866
 20
118.1658647534
 10
153.1696807165
 20
118.0939043857
  0
LWPOLYLINE
  5
410
100
AcDbEntity
  8
RACCORDO
100
AcDbPolyline
 62
253
  6
CONTINUOUS
 90
10
 70
0
 10
162.3357899008
 20
127.1198214
 10
162.3311939239
 20
127.1155468913
 10
162.3262242763
 20
127.1113771671
 10
162.3208849572
 20
127.107315583
 10
162.3151802631
 20
127.103365407
 10
162.3091147846
 20
127.099529818
 10
162.3026934026
 20
127.0958119023
 10
162.2959212843
 20
127.0922146517
 10
162.2888038792
 20
127.0887409609
 10
162.2813469148
 20
127.0853936251
  0
LWPOLYLINE
  5
411
100
AcDbEntity
  8
ASSI
100
AcDbPolyline
 62
253
  6
CONTINUOUS
 90
16
 70
0
 10
156.5841099655
 20
123.8781515891
 10
156.5692280648
 20
123.8645859094
 10
156.5545339545
 20
123.8489930776
 10
156.5401842973
 20
123.8315404674
 10
156.5263313356
 20
123.8124156474
 10
156.5131235202
 20
123.7918235376
 10
156.5007039205
 20
123.7699842244
 10
156.4892051942
 20
123.7471319512
 10
156.4787496678
 20
123.7235118423
 10
156.4694503066
 20
123.6993764362
 10
156.4614057768
 20
123.6749824155
 10
156.4547025699
 20
123.6505934235
 10
156.4494144616
 20
123.6264763874
 10
156.4455974073
 20
123.602891203
 10
156.4432901051
 20
123.5800880925
 10
156.4425160159
 20
123.5583104164
  0
LWPOLYLINE
  5
412
100
AcDbEntity
  8
ASSI
100
AcDbPolyline
 62
253
  6
CONTINUOUS
 90
22
 70
0
 10
154.2388519757
 20
119.0007235395
 10
154.209551441
 20
118.974456876
 10
154.1807412452
 20
118.9458344488
 10
154.1524213883
 20
118.914856258
 10
154.1244429637
 20
118.8813345676
 10
154.096954878
 20
118.8454571136
 10
154.0704038512
 20
118.8077871036
 10
154.0448174979
 20
118.7683103481
 10
154.0201682035
 20
118.7270410367
 10
153.9968198443
 20
118.6845849458
 10
153.9747909934
 20
118.6409220725
 10
153.9540630777
 20
118.5960724197
 10
153.9349442543
 20
118.550701772
 10
153.9174590219
 20
118.5048014374
 10
153.9015828818
 20
118.4583801078
 10
153.8875504945
 20
118.4121296437
 10
153.8753898157
 20
118.3660365724
 10
153.8650728897
 20
118.3201143667
 10
153.8567505094
 20
118.2750953055
 10
153.8504729391
 20
118.2312234821
 10
153.8461899146
 20
118.1882548032
 10
153.8439014358
 20
118.146189269
  0
LWPOLYLINE
  5
413
100
AcDbEntity
  8
ASSI
100
AcDbPolyline
 62
253
  6
CONTINUOUS
 90
16
 70
0
 10
156.7479154222
 20
123.6485581681
 10
156.7448293872
 20
123.6458077533
 10
156.7418438644
 20
123.6427245645
 10
156.7389588537
 20
123.6393086017
 10
156.7361457741
 20
123.635516593
 10
156.7334332066
 20
123.6313918104
 10
156.7309068944
 20
123.6270640692
 10
156.7285728053
 20
123.6225267746
 10
156.7264249713
 20
123.6177865215
 10
156.7245312318
 20
123.6129929099
 10
156.7228995991
 20
123.6081440771
 10
156.7215220608
 20
123.6032418859
 10
156.720442419
 20
123.5984415239
 10
156.7196752743
 20
123.5937947206
 10
156.719206026
 20
123.5892497466
 10
156.7190346743
 20
123.5848066018
  0
LINE
  5
414
100
AcDbEntity
  8
DRAFT
100
AcDbLine
 62
7
  6
CONTINUOUS
 10
158.6449821744
 20
123.6263340644
 11
159.3928494707
 21
124.2814117947
  0
LINE
  5
415
100
AcDbEntity
  8
ASSI
100
AcDbLine
 62
7
  6
CONTINUOUS
 10
162.334143705
 20
128.3544897688
 11
158.5567657563
 21
125.0940689281
  0
LINE
  5
416
100
AcDbEntity
  8
ASSI
100
AcDbLine
 62
7
  6
CONTINUOUS
 10
156.1479363416
 20
122.8291589552
 11
155.7044652928
 21
122.4466714336
  0
LINE
  5
417
100
AcDbEntity
  8
ASSI
100
AcDbLine
 62
253
  6
CONTINUOUS
 10
153.8219142155
 20
119.5680314959
 11
157.28357271
 21
122.5010670063
  0
LINE
  5
418
100
AcDbEntity
  8
ASSI
100
AcDbLine
 62
253
  6
CONTINUOUS
 10
158.4827746758
 20
122.5965652443
 11
154.2388519757
 21
119.0007235395
  0
LINE
  5
419
100
AcDbEntity
  8
ASSI
100
AcDbLine
 62
253
  6
CONTINUOUS
 10
158.6325391183
 20
123.6319018687
 11
158.0732008286
 21
123.1706380874
  0
LINE
  5
41A
100
AcDbEntity
  8
ASSI
100
AcDbLine
 62
253
  6
CONTINUOUS
 10
159.0420527601
 20
123.0579183162
 11
158.4827746758
 21
122.5966278174
  0
LWPOLYLINE
  5
41B
100
AcDbEntity
  8
ASSI
100
AcDbPolyline
 62
7
  6
CONTINUOUS
 90
7
 70
0
 10
157.3357902107
 20
122.5345427281
 10
157.3282248459
 20
122.5283472079
 10
157.3201767375
 20
122.5223807678
 10
157.3116658323
 20
122.5166569168
 10
157.3027132255
 20
122.5111885778
 10
157.2933411076
 20
122.5059880556
 10
157.28357271
 20
122.5010670063
  0
LINE
  5
41C
100
AcDbEntity
  8
RACCORDO
100
AcDbLine
 62
7
  6
CONTINUOUS
 10
160.1043148652
 20
123.9956712527
 11
163.6287222911
 21
126.8388121112
  0
LWPOLYLINE
  5
41D
100
AcDbEntity
  8
RACCORDO
100
AcDbPolyline
 62
7
  6
CONTINUOUS
 90
27
 70
0
 10
163.6287222911
 20
126.8388121112
 10
163.636427049
 20
126.8449529952
 10
163.6439813285
 20
126.8508170826
 10
163.6513793637
 20
126.8564020788
 10
163.6586140463
 20
126.8617063481
 10
163.6656812132
 20
126.8667278066
 10
163.6725796422
 20
126.8714638393
 10
163.6793037569
 20
126.8759133177
 10
163.6858484048
 20
126.8800751557
 10
163.69221313
 20
126.8839470858
 10
163.6983926399
 20
126.8875287202
 10
163.7043820841
 20
126.8908197389
 10
163.7101818111
 20
126.8938182771
 10
163.7157868394
 20
126.8965246734
 10
163.7211926349
 20
126.898939353
 10
163.7264003678
 20
126.9010608895
 10
163.7314053914
 20
126.9028903244
 10
163.7362035018
 20
126.9044288015
 10
163.7407966913
 20
126.9056753483
 10
163.7451806765
 20
126.9066316811
 10
163.7493515851
 20
126.9072996222
 10
163.753312192
 20
126.9076786469
 10
163.7570585833
 20
126.90777111
 10
163.7605872378
 20
126.9075794773
 10
163.7639016876
 20
126.9071036601
 10
163.7669984059
 20
126.9063466086
 10
163.7693991007
 20
126.9055076434
  0
LINE
  5
41E
100
AcDbEntity
  8
RACCORDO
100
AcDbLine
 62
7
  6
CONTINUOUS
 10
159.3928494707
 20
124.2814117947
 11
163.0428030741
 21
127.074130478
  0
LWPOLYLINE
  5
41F
100
AcDbEntity
  8
ASSI
100
AcDbPolyline
 62
253
  6
CONTINUOUS
 90
16
 70
0
 10
153.8439014358
 20
118.146189269
 10
153.8119983494
 20
118.1256488162
 10
153.7763472707
 20
118.1070443078
 10
153.73730931
 20
118.0905641892
 10
153.6952798834
 20
118.0763753878
 10
153.6506847077
 20
118.0646216221
 10
153.6039754879
 20
118.0554219462
 10
153.5556253424
 20
118.0488695438
 10
153.5061240107
 20
118.0450307842
 10
153.4559728923
 20
118.0439445503
 10
153.4056799686
 20
118.0456218445
 10
153.3557546576
 20
118.0500456776
 10
153.3067026533
 20
118.0571712404
 10
153.2590208042
 20
118.0669263581
 10
153.2131920804
 20
118.0792122208
 10
153.1696806819
 20
118.0939043849
  0
LWPOLYLINE
  5
420
100
AcDbEntity
  8
RACCORDO
100
AcDbPolyline
 62
253
  6
CONTINUOUS
 90
10
 70
0
 10
137.2575908121
 20
112.4452733846
 10
136.782723267
 20
112.633921666
 10
136.298868602
 20
112.8266231977
 10
135.8060499806
 20
113.0233964944
 10
135.3060282865
 20
113.2235632948
 10
134.7970874379
 20
113.4278374792
 10
134.274049333
 20
113.6383372634
 10
133.7352204671
 20
113.8557947927
 10
133.1823769965
 20
114.0795439465
 10
132.6155604962
 20
114.3096177741
  0
LWPOLYLINE
  5
421
100
AcDbEntity
  8
RACCORDO
100
AcDbPolyline
 62
253
  6
CONTINUOUS
 90
10
 70
0
 10
137.1563570767
 20
112.6777875651
 10
136.7085261785
 20
112.8558149672
 10
136.2527571018
 20
113.0374264831
 10
135.7890690215
 20
113.2226380353
 10
135.3190470662
 20
113.410838173
 10
134.8411430157
 20
113.6026689142
 10
134.3506879429
 20
113.800036382
 10
133.846152565
 20
114.0035984921
 10
133.3291346046
 20
114.2127543131
 10
132.7996683326
 20
114.42753233
  0
LWPOLYLINE
  5
422
100
AcDbEntity
  8
SMUSSO
100
AcDbPolyline
 62
7
  6
CONTINUOUS
 90
10
 70
0
 10
137.0765567646
 20
113.1972094586
 10
136.6497691912
 20
113.3670918931
 10
136.2232873424
 20
113.5372328035
 10
135.7971112183
 20
113.7076321899
 10
135.3712403529
 20
113.8782902395
 10
134.9456752122
 20
114.0492067651
 10
134.5204171943
 20
114.2203812045
 10
134.0954667652
 20
114.3918133701
 10
133.6708234588
 20
114.5635034496
 10
133.2464872752
 20
114.7354514427
  0
LWPOLYLINE
  5
423
100
AcDbEntity
  8
ASSI
100
AcDbPolyline
 62
7
  6
CONTINUOUS
 90
4
 70
0
 10
120.9893133102
 20
137.4454567542
 10
121.004606773
 20
137.4244386516
 10
121.0222677265
 20
137.4054800597
 10
121.0420283222
 20
137.3888637049
  0
LWPOLYLINE
  5
424
100
AcDbEntity
  8
RACCORDO
100
AcDbPolyline
 62
253
  6
CONTINUOUS
 90
3
 70
0
 10
134.7007287277
 20
116.2718033173
 10
134.5706225429
 20
116.4670503326
 10
134.5481825417
 20
116.5040851293
  0
LWPOLYLINE
  5
425
100
AcDbEntity
  8
RACCORDO
100
AcDbPolyline
 62
7
  6
CONTINUOUS
 90
17
 70
0
 10
132.1421496682
 20
137.8235678986
 10
132.1375787493
 20
137.8376804296
 10
132.1276439429
 20
137.8592208504
 10
132.1147767406
 20
137.8803016483
 10
132.0991044184
 20
137.9002653637
 10
132.0807694591
 20
137.9188315398
 10
132.0598781149
 20
137.9359075863
 10
132.0366441182
 20
137.9511484308
 10
132.0113313645
 20
137.9643649015
 10
131.984020404
 20
137.9754914068
 10
131.9546694396
 20
137.984395496
 10
131.9233441497
 20
137.9910031952
 10
131.8902802513
 20
137.995192943
 10
131.8556864159
 20
137.996791039
 10
131.8197362862
 20
137.9957326321
 10
131.7825566322
 20
137.9920372501
 10
131.7442831185
 20
137.985703145
  0
LWPOLYLINE
  5
426
100
AcDbEntity
  8
RACCORDO
100
AcDbPolyline
 62
253
  6
CONTINUOUS
 90
3
 70
0
 10
134.8622775862
 20
139.5026889083
 10
134.8691437959
 20
139.4696648417
 10
134.8743043511
 20
139.4343127876
  0
LWPOLYLINE
  5
427
100
AcDbEntity
  8
ASSI
100
AcDbPolyline
 62
253
  6
CONTINUOUS
 90
3
 70
0
 10
135.538025493
 20
131.6940400816
 10
135.534966005
 20
131.7087749363
 10
135.5346764777
 20
131.714945273
  0
LWPOLYLINE
  5
428
100
AcDbEntity
  8
ASSI
100
AcDbPolyline
 62
7
  6
CONTINUOUS
 90
16
 70
0
 10
143.4922922653
 20
130.583070984
 10
143.4914112128
 20
130.600429746
 10
143.488752318
 20
130.6183824185
 10
143.4843250709
 20
130.6367407178
 10
143.4781334259
 20
130.6553775193
 10
143.4702400553
 20
130.6740181735
 10
143.4608257805
 20
130.692248333
 10
143.4501238384
 20
130.7097257358
 10
143.438205685
 20
130.7264304884
 10
143.425026508
 20
130.7424254004
 10
143.4105775511
 20
130.7576424844
 10
143.3951071747
 20
130.7717489847
 10
143.3789567375
 20
130.7844273493
 10
143.3623759655
 20
130.7955143632
 10
143.3454910033
 20
130.8049548013
 10
143.3284868087
 20
130.812664405
  0
LINE
  5
429
100
AcDbEntity
  8
ASSI
100
AcDbLine
 62
7
  6
CONTINUOUS
 10
143.9758592684
 20
130.9776179779
 11
143.9757599391
 21
130.9847816418
  0
LINE
  5
42A
100
AcDbEntity
  8
ASSI
100
AcDbLine
 62
253
  6
CONTINUOUS
 10
142.1381282859
 20
129.1407306024
 11
142.1381282859
 21
129.4408273262
  0
LINE
  5
42B
100
AcDbEntity
  8
DRAFT
100
AcDbLine
 62
7
  6
CONTINUOUS
 10
142.3278893245
 20
98.38879317
 11
142.3278893245
 21
95.6886821393
  0
LINE
  5
42C
100
AcDbEntity
  8
ASSI
100
AcDbLine
 62
253
  6
CONTINUOUS
 10
142.4092354646
 20
128.3469309591
 11
142.4092354646
 21
128.9779838291
  0
LINE
  5
42D
100
AcDbEntity
  8
RACCORDO
100
AcDbLine
 62
253
  6
CONTINUOUS
 10
142.5979509305
 20
98.2841742258
 11
142.5979509305
 21
95.9207015281
  0
LINE
  5
42E
100
AcDbEntity
  8
RACCORDO
100
AcDbLine
 62
7
  6
CONTINUOUS
 10
142.6577877802
 20
98.2609940777
 11
142.6577877802
 21
95.9799469152
  0
LINE
  5
42F
100
AcDbEntity
  8
ASSI
100
AcDbLine
 62
253
  6
CONTINUOUS
 10
142.7548838223
 20
129.1078158508
 11
142.7548838223
 21
128.3906527714
  0
LINE
  5
430
100
AcDbEntity
  8
ASSI
100
AcDbLine
 62
7
  6
CONTINUOUS
 10
143.4922922653
 20
129.0266571477
 11
143.4922922653
 21
130.583070984
  0
LINE
  5
431
100
AcDbEntity
  8
ASSI
100
AcDbLine
 62
7
  6
CONTINUOUS
 10
143.9032227085
 20
135.9445953855
 11
143.9032227085
 21
135.7567631564
  0
LINE
  5
432
100
AcDbEntity
  8
ASSI
100
AcDbLine
 62
253
  6
CONTINUOUS
 10
143.9416668824
 20
130.9134645853
 11
143.9416668824
 21
130.5919203333
  0
LINE
  5
433
100
AcDbEntity
  8
ASSI
100
AcDbLine
 62
7
  6
CONTINUOUS
 10
143.9758593679
 20
130.9776125599
 11
143.9758593679
 21
130.6560683079
  0
LWPOLYLINE
  5
434
100
AcDbEntity
  8
ASSI
100
AcDbPolyline
 62
253
  6
CONTINUOUS
 90
22
 70
0
 10
143.9416668824
 20
130.5919203333
 10
143.9416496487
 20
130.5902101862
 10
143.9415743531
 20
130.5884143791
 10
143.9414409959
 20
130.5865329118
 10
143.9412526494
 20
130.5845608455
 10
143.9410062413
 20
130.582503119
 10
143.9406925534
 20
130.5803745495
 10
143.9403101422
 20
130.5781728437
 10
143.9398604512
 20
130.5759002949
 10
143.9393385933
 20
130.5735785996
 10
143.938742862
 20
130.5712058823
 10
143.9380749637
 20
130.5687840185
 10
143.9373351301
 20
130.5663403317
 10
143.9365215833
 20
130.563873675
 10
143.9356361011
 20
130.5613851952
 10
143.9346842484
 20
130.5589056567
 10
143.933664382
 20
130.5564348488
 10
143.9325781451
 20
130.5539729823
 10
143.931436032
 20
130.5515514533
 10
143.9302415409
 20
130.5491807273
 10
143.9289911737
 20
130.5468503389
 10
143.9276849303
 20
130.544560288
  0
LINE
  5
435
100
AcDbEntity
  8
ASSI
100
AcDbLine
 62
7
  6
CONTINUOUS
 10
143.9748670253
 20
130.633174996
 11
143.9758593657
 21
130.6560854511
  0
LWPOLYLINE
  5
436
100
AcDbEntity
  8
ASSI
100
AcDbPolyline
 62
253
  6
CONTINUOUS
 90
6
 70
0
 10
143.9758593679
 20
130.9776125599
 10
143.9752876367
 20
130.9689448043
 10
143.9716684624
 20
130.9542517379
 10
143.9647728754
 20
130.9399495608
 10
143.9547162573
 20
130.926277587
 10
143.9416668824
 20
130.9134645853
  0
LWPOLYLINE
  5
437
100
AcDbEntity
  8
ASSI
100
AcDbPolyline
 62
253
  6
CONTINUOUS
 90
6
 70
0
 10
143.9758593679
 20
130.6560683079
 10
143.9752876367
 20
130.6474005524
 10
143.9716684624
 20
130.6327074859
 10
143.9647728754
 20
130.6184053088
 10
143.9547162573
 20
130.604733335
 10
143.9416668824
 20
130.5919203333
  0
LWPOLYLINE
  5
438
100
AcDbEntity
  8
ASSI
100
AcDbPolyline
 62
7
  6
CONTINUOUS
 90
13
 70
0
 10
153.0354135813
 20
125.6707160689
 10
153.0478609035
 20
125.6942073665
 10
153.0580598036
 20
125.7191075152
 10
153.0660102817
 20
125.7454165151
 10
153.0717303379
 20
125.7732957482
 10
153.075201972
 20
125.8025838324
 10
153.0763711835
 20
125.8327966215
 10
153.075201972
 20
125.863948574
 10
153.0717303379
 20
125.8960252314
 10
153.0660102817
 20
125.9284990715
 10
153.0580598036
 20
125.9611942538
 10
153.0478609035
 20
125.994286619
 10
153.0354135813
 20
126.027776167
  0
LWPOLYLINE
  5
439
100
AcDbEntity
  8
ASSI
100
AcDbPolyline
 62
7
  6
CONTINUOUS
 90
11
 70
0
 10
157.3357902107
 20
123.2517951264
 10
157.3160779574
 20
123.2267963976
 10
157.2941116636
 20
123.2037819644
 10
157.2702075828
 20
123.1831148932
 10
157.2446855556
 20
123.1651294876
 10
157.2179435893
 20
123.1500108376
 10
157.1904132527
 20
123.1378535066
 10
157.162374976
 20
123.1287829151
 10
157.1342675579
 20
123.122969027
 10
157.1067566862
 20
123.1204647629
 10
157.0958880763
 20
123.120374155
  0
LINE
  5
43A
100
AcDbEntity
  8
DRAFT
100
AcDbLine
 62
7
  6
CONTINUOUS
 10
159.0420527601
 20
123.0142995715
 11
160.1043148652
 21
123.9956712527
  0
LINE
  5
43B
100
AcDbEntity
  8
RACCORDO
100
AcDbLine
 62
253
  6
CONTINUOUS
 10
164.2223413149
 20
126.0067823046
 11
159.0420527601
 21
121.6565131997
  0
LINE
  5
43C
100
AcDbEntity
  8
ASSI
100
AcDbLine
 62
7
  6
CONTINUOUS
 10
159.3216918022
 20
120.5771264314
 11
159.0420527601
 21
120.3422932916
  0
LINE
  5
43D
100
AcDbEntity
  8
RACCORDO
100
AcDbLine
 62
253
  6
CONTINUOUS
 10
164.702119107
 20
124.6558072475
 11
159.3840969326
 21
120.1898824579
  0
LINE
  5
43E
100
AcDbEntity
  8
DRAFT
100
AcDbLine
 62
7
  6
CONTINUOUS
 10
134.218284086
 20
115.5171282858
 11
137.0901099648
 21
114.3637382691
  0
LINE
  5
43F
100
AcDbEntity
  8
RACCORDO
100
AcDbLine
 62
253
  6
CONTINUOUS
 10
134.4883456921
 20
115.7491476746
 11
137.0951470538
 21
114.7021974788
  0
LINE
  5
440
100
AcDbEntity
  8
RACCORDO
100
AcDbLine
 62
7
  6
CONTINUOUS
 10
134.5453350908
 20
115.8124956051
 11
137.0964228303
 21
114.787921256
  0
LWPOLYLINE
  5
441
100
AcDbEntity
  8
RACCORDO
100
AcDbPolyline
 62
7
  6
CONTINUOUS
 90
10
 70
0
 10
147.4362198631
 20
92.2211492684
 10
147.4422422281
 20
92.193299176
 10
147.4502321717
 20
92.1656650332
 10
147.4599964269
 20
92.1383291727
 10
147.4712923046
 20
92.1113118324
 10
147.4839532293
 20
92.0847024394
 10
147.4979538491
 20
92.0586870389
 10
147.51321196
 20
92.0333674716
 10
147.5295280595
 20
92.008735082
 10
147.5467524236
 20
91.9848198973
  0
LINE
  5
442
100
AcDbEntity
  8
RACCORDO
100
AcDbLine
 62
7
  6
CONTINUOUS
 10
147.3397896098
 20
92.7531891363
 11
147.4362198665
 21
92.2211492427
  0
LWPOLYLINE
  5
443
100
AcDbEntity
  8
ASSI
100
AcDbPolyline
 62
7
  6
CONTINUOUS
 90
12
 70
0
 10
143.9757599391
 20
130.9847816418
 10
143.9740371507
 20
131.0079931172
 10
143.9699969633
 20
131.0314491184
 10
143.9635745481
 20
131.0544454705
 10
143.9548223978
 20
131.0765350289
 10
143.9437025777
 20
131.0976520515
 10
143.9303027174
 20
131.117477072
 10
143.9148059891
 20
131.1356704987
 10
143.8973874772
 20
131.1520010994
 10
143.8782391271
 20
131.166271868
 10
143.8576299791
 20
131.178275118
 10
143.8406275227
 20
131.1859988802
  0
LWPOLYLINE
  5
444
100
AcDbEntity
  8
ASSI
100
AcDbPolyline
 62
253
  6
CONTINUOUS
 90
9
 70
0
 10
145.5410323526
 20
129.0149387862
 10
145.5413218603
 20
129.0088268139
 10
145.5443813643
 20
128.9940919575
 10
145.5507313664
 20
128.9797069068
 10
145.5602656115
 20
128.9659123613
 10
145.5728245648
 20
128.9529391391
 10
145.58819808
 20
128.9410043162
 10
145.6061289155
 20
128.9303075936
 10
145.6263170394
 20
128.9210279551
  0
LWPOLYLINE
  5
445
100
AcDbEntity
  8
SMUSSO
100
AcDbPolyline
 62
7
  6
CONTINUOUS
 90
7
 70
0
 10
147.2778954178
 20
96.4922355619
 10
147.2861359548
 20
95.8797333249
 10
147.295338983
 20
95.2531193378
 10
147.3053058648
 20
94.6271579256
 10
147.3160366002
 20
94.0018490885
 10
147.3275311892
 20
93.3771928263
 10
147.3397896318
 20
92.7531891392
  0
LWPOLYLINE
  5
446
100
AcDbEntity
  8
RACCORDO
100
AcDbPolyline
 62
253
  6
CONTINUOUS
 90
10
 70
0
 10
147.3658333381
 20
96.5029147681
 10
147.3713961973
 20
96.0639729814
 10
147.3774518182
 20
95.6166216661
 10
147.3840228037
 20
95.1608820967
 10
147.3911143517
 20
94.6979069281
 10
147.398765728
 20
94.2265857304
 10
147.4070605912
 20
93.7435543471
 10
147.4160539452
 20
93.247717022
 10
147.4257617965
 20
92.7402371535
 10
147.4362198665
 20
92.2211492427
  0
LWPOLYLINE
  5
447
100
AcDbEntity
  8
RACCORDO
100
AcDbPolyline
 62
253
  6
CONTINUOUS
 90
10
 70
0
 10
147.4719686866
 20
96.5544246054
 10
147.4777513679
 20
96.08689659
 10
147.4840783232
 20
95.6104493425
 10
147.4909759332
 20
95.125106084
 10
147.4984474096
 20
94.6324821651
 10
147.5065406515
 20
94.1310075791
 10
147.5153642024
 20
93.615940582
 10
147.5249900104
 20
93.085731976
 10
147.5354374695
 20
92.5420115072
 10
147.5467524239
 20
91.9848198976
  0
LINE
  5
448
100
AcDbEntity
  8
ASSI
100
AcDbLine
 62
7
  6
CONTINUOUS
 10
145.5410323267
 20
127.8956636741
 11
145.5410323267
 21
129.0149972173
  0
LINE
  5
449
100
AcDbEntity
  8
ASSI
100
AcDbLine
 62
253
  6
CONTINUOUS
 10
145.6263170394
 20
127.7980159491
 11
145.6263170394
 21
128.9210279551
  0
LWPOLYLINE
  5
44A
100
AcDbEntity
  8
ASSI
100
AcDbPolyline
 62
253
  6
CONTINUOUS
 90
28
 70
0
 10
145.6263170394
 20
128.9210279551
 10
145.6263467446
 20
128.922921839
 10
145.6264870169
 20
128.9248175159
 10
145.6267378562
 20
128.926714986
 10
145.6270930281
 20
128.9286284487
 10
145.627558767
 20
128.9305437044
 10
145.6281537765
 20
128.9324181546
 10
145.6288819332
 20
128.9342517441
 10
145.6297393605
 20
128.936044528
 10
145.6307331329
 20
128.9377540732
 10
145.63186768
 20
128.9393786863
 10
145.6331385723
 20
128.9409200607
 10
145.6345395948
 20
128.942340843
 10
145.6360743757
 20
128.9436376434
 10
145.6377392869
 20
128.9448138516
 10
145.639517229
 20
128.9458422837
 10
145.641410309
 20
128.9467192314
 10
145.6434164198
 20
128.947448403
 10
145.6455121414
 20
128.9480137393
 10
145.6476992087
 20
128.9484120668
 10
145.6499758868
 20
128.9486465589
 10
145.6523135508
 20
128.9487106766
 10
145.6547135699
 20
128.9486012071
 10
145.657174575
 20
128.9483213632
 10
145.6596638341
 20
128.9478742435
 10
145.6621704366
 20
128.9472608808
 10
145.6647052931
 20
128.9464802424
 10
145.6672684036
 20
128.9455323281
  0
LINE
  5
44B
100
AcDbEntity
  8
SMUSSO
100
AcDbLine
 62
7
  6
CONTINUOUS
 10
141.4739096024
 20
94.9787891363
 11
141.484285895
 21
95.002172565
  0
LINE
  5
44C
100
AcDbEntity
  8
SMUSSO
100
AcDbLine
 62
7
  6
CONTINUOUS
 10
133.25939612
 20
114.7368021914
 11
133.2464872752
 21
114.7354514427
  0
LINE
  5
44D
100
AcDbEntity
  8
RACCORDO
100
AcDbLine
 62
7
  6
CONTINUOUS
 10
136.8625872052
 20
117.3687217382
 11
137.1411668741
 21
117.2568378627
  0
LWPOLYLINE
  5
44E
100
AcDbEntity
  8
RACCORDO
100
AcDbPolyline
 62
7
  6
CONTINUOUS
 90
10
 70
0
 10
132.9629751678
 20
122.1863475848
 10
132.9399802647
 20
122.1999366759
 10
132.9176884563
 20
122.2153703316
 10
132.8961000743
 20
122.2324603252
 10
132.8751337395
 20
122.2510025544
 10
132.8548236794
 20
122.2708138408
 10
132.8353604436
 20
122.2917853439
 10
132.8168138695
 20
122.3138071156
 10
132.7990946445
 20
122.3367185937
 10
132.7821779377
 20
122.3603794873
  0
LINE
  5
44F
100
AcDbEntity
  8
SMUSSO
100
AcDbLine
 62
7
  6
CONTINUOUS
 10
133.4167996752
 20
121.9485895815
 11
133.4086454533
 21
121.9542015992
  0
LWPOLYLINE
  5
450
100
AcDbEntity
  8
ASSI
100
AcDbPolyline
 62
253
  6
CONTINUOUS
 90
6
 70
0
 10
158.4999013699
 20
85.8471590931
 10
158.4885741682
 20
85.8697413658
 10
158.4747800528
 20
85.8904557515
 10
158.4587524332
 20
85.9089517429
 10
158.4407625125
 20
85.92491637
 10
158.4211146973
 20
85.9380794957
  0
LWPOLYLINE
  5
451
100
AcDbEntity
  8
ASSI
100
AcDbPolyline
 62
7
  6
CONTINUOUS
 90
16
 70
0
 10
148.7348653488
 20
128.0270080563
 10
148.7337640331
 20
128.0487065088
 10
148.7304404146
 20
128.0711473494
 10
148.7249063558
 20
128.0940952235
 10
148.7171667995
 20
128.1173912254
 10
148.7073000862
 20
128.1406920432
 10
148.6955322428
 20
128.1634797426
 10
148.6821548151
 20
128.1853264961
 10
148.6672571233
 20
128.2062074368
 10
148.6507831521
 20
128.2262010769
 10
148.632721956
 20
128.2452224318
 10
148.6133839855
 20
128.2628555572
 10
148.593195939
 20
128.2787035129
 10
148.572469974
 20
128.2925622803
 10
148.5513637713
 20
128.3043628279
 10
148.5301085279
 20
128.3139998326
  0
LINE
  5
452
100
AcDbEntity
  8
DRAFT
100
AcDbLine
 62
253
  6
CONTINUOUS
 10
149.7146008806
 20
128.972873599
 11
149.678286017
 21
130.3742671577
  0
LINE
  5
453
100
AcDbEntity
  8
ASSI
100
AcDbLine
 62
7
  6
CONTINUOUS
 10
149.7597514585
 20
130.5116093961
 11
149.7376945604
 21
131.6367907123
  0
LINE
  5
454
100
AcDbEntity
  8
ASSI
100
AcDbLine
 62
7
  6
CONTINUOUS
 10
149.283916878
 20
127.3866106339
 11
149.2643622115
 21
128.4637351136
  0
LINE
  5
455
100
AcDbEntity
  8
ASSI
100
AcDbLine
 62
253
  6
CONTINUOUS
 10
149.6881039509
 20
130.3820540499
 11
149.6692868852
 21
131.5131533316
  0
LINE
  5
456
100
AcDbEntity
  8
ASSI
100
AcDbLine
 62
253
  6
CONTINUOUS
 10
148.2799322602
 20
127.855276258
 11
148.2799322602
 21
126.7322642521
  0
LINE
  5
457
100
AcDbEntity
  8
ASSI
100
AcDbLine
 62
253
  6
CONTINUOUS
 10
148.5564509463
 20
127.8818175661
 11
148.5564509463
 21
126.7672417018
  0
LINE
  5
458
100
AcDbEntity
  8
ASSI
100
AcDbLine
 62
7
  6
CONTINUOUS
 10
148.7348653488
 20
126.9211216063
 11
148.7348653488
 21
128.0270080563
  0
LINE
  5
459
100
AcDbEntity
  8
ASSI
100
AcDbLine
 62
7
  6
CONTINUOUS
 10
149.8415805592
 20
127.2878000933
 11
149.8415805592
 21
126.1684665505
  0
LINE
  5
45A
100
AcDbEntity
  8
ASSI
100
AcDbLine
 62
253
  6
CONTINUOUS
 10
149.9268652719
 20
127.1938308313
 11
149.9268652719
 21
126.0708188253
  0
LWPOLYLINE
  5
45B
100
AcDbEntity
  8
ASSI
100
AcDbPolyline
 62
7
  6
CONTINUOUS
 90
8
 70
0
 10
149.7597751357
 20
130.5116093396
 10
149.7593536624
 20
130.4988989148
 10
149.7557840212
 20
130.4780874279
 10
149.7487047884
 20
130.4573106088
 10
149.7382548586
 20
130.4370073352
 10
149.7244805299
 20
130.4173238996
 10
149.7073355042
 20
130.3981140095
 10
149.6868197815
 20
130.3793776649
  0
LWPOLYLINE
  5
45C
100
AcDbEntity
  8
ASSI
100
AcDbPolyline
 62
253
  6
CONTINUOUS
 90
13
 70
0
 10
149.9678166361
 20
127.2183352044
 10
149.9687763792
 20
127.2402691519
 10
149.9716395406
 20
127.2634084551
 10
149.9763582182
 20
127.2873659378
 10
149.9828534619
 20
127.3117407313
 10
149.9910165945
 20
127.3361249825
 10
150.0007110302
 20
127.3601106777
 10
150.0117745599
 20
127.3832964714
 10
150.0240220642
 20
127.4052943982
 10
150.0372486101
 20
127.4257363651
 10
150.0512328822
 20
127.4442803162
 10
150.0657408868
 20
127.4606159548
 10
150.0805298647
 20
127.4744699337
  0
LWPOLYLINE
  5
45D
100
AcDbEntity
  8
ASSI
100
AcDbPolyline
 62
7
  6
CONTINUOUS
 90
5
 70
0
 10
158.5150684103
 20
124.6511107794
 10
158.5243772328
 20
124.6681435947
 10
158.5337098992
 20
124.6884249001
 10
158.5414011628
 20
124.7088744991
 10
158.5475733282
 20
124.729648406
  0
LWPOLYLINE
  5
45E
100
AcDbEntity
  8
ASSI
100
AcDbPolyline
 62
253
  6
CONTINUOUS
 90
4
 70
0
 10
158.5085913187
 20
124.6885395636
 10
158.5106688452
 20
124.6922539909
 10
158.5125972907
 20
124.6960609208
 10
158.514376655
 20
124.6999603532
  0
LINE
  5
45F
100
AcDbEntity
  8
ASSI
100
AcDbLine
 62
253
  6
CONTINUOUS
 10
158.0731986537
 20
123.9501207088
 11
158.5085913187
 21
124.6885395636
  0
LINE
  5
460
100
AcDbEntity
  8
ASSI
100
AcDbLine
 62
7
  6
CONTINUOUS
 10
158.073198657
 20
123.9017060192
 11
158.5150657039
 21
124.6511053201
  0
LWPOLYLINE
  5
461
100
AcDbEntity
  8
RACCORDO
100
AcDbPolyline
 62
253
  6
CONTINUOUS
 90
35
 70
0
 10
162.3870988758
 20
127.2300906686
 10
162.3841468983
 20
127.2251420354
 10
162.3812433923
 20
127.220220655
 10
162.378392483
 20
127.2153319772
 10
162.375615603
 20
127.2105126868
 10
162.3729144116
 20
127.2057607575
 10
162.370290089
 20
127.2010774928
 10
162.3677637606
 20
127.1965044618
 10
162.3653420175
 20
127.1920486696
 10
162.3630211815
 20
127.1877023582
 10
162.3608070987
 20
127.1834849173
 10
162.3587039043
 20
127.1794005815
 10
162.3567099236
 20
127.1754444736
 10
162.3548221298
 20
127.1716223557
 10
162.3530426957
 20
127.1679359608
 10
162.3513713335
 20
127.1643830598
 10
162.3498010904
 20
127.1609635331
 10
162.3483334475
 20
127.1576786663
 10
162.346968279
 20
127.1545268149
 10
162.3456959961
 20
127.1515035236
 10
162.3445174962
 20
127.1486096688
 10
162.3434327916
 20
127.145844132
 10
162.3424307776
 20
127.1431995157
 10
162.3415117846
 20
127.1406759475
 10
162.3406760469
 20
127.1382731489
 10
162.339912174
 20
127.1359831504
 10
162.3392207758
 20
127.1338080562
 10
162.3386015611
 20
127.1317456767
 10
162.33804169
 20
127.1297816277
 10
162.3375412417
 20
127.1279189245
 10
162.3371002898
 20
127.1261545108
 10
162.336705927
 20
127.1244649107
 10
162.3363538652
 20
127.1228422952
 10
162.3360484483
 20
127.1212944784
 10
162.335789691
 20
127.1198214563
  0
LINE
  5
462
100
AcDbEntity
  8
RACCORDO
100
AcDbLine
 62
253
  6
CONTINUOUS
 10
162.3931405407
 20
127.2400684522
 11
162.3870988758
 21
127.2300906686
  0
LINE
  5
463
100
AcDbEntity
  8
RACCORDO
100
AcDbLine
 62
253
  6
CONTINUOUS
 10
162.3993272255
 20
127.2501015419
 11
162.3931405407
 21
127.2400684522
  0
LINE
  5
464
100
AcDbEntity
  8
RACCORDO
100
AcDbLine
 62
253
  6
CONTINUOUS
 10
162.4056210746
 20
127.2601419522
 11
162.3993272255
 21
127.2501015419
  0
LINE
  5
465
100
AcDbEntity
  8
RACCORDO
100
AcDbLine
 62
253
  6
CONTINUOUS
 10
162.4119879848
 20
127.270148659
 11
162.4056210746
 21
127.2601419522
  0
LINE
  5
466
100
AcDbEntity
  8
RACCORDO
100
AcDbLine
 62
253
  6
CONTINUOUS
 10
162.4183741327
 20
127.280045317
 11
162.4119879848
 21
127.270148659
  0
LINE
  5
467
100
AcDbEntity
  8
RACCORDO
100
AcDbLine
 62
253
  6
CONTINUOUS
 10
162.4247256604
 20
127.2897575036
 11
162.4183741327
 21
127.280045317
  0
LINE
  5
468
100
AcDbEntity
  8
RACCORDO
100
AcDbLine
 62
253
  6
CONTINUOUS
 10
162.4310089359
 20
127.2992402711
 11
162.4247256604
 21
127.2897575036
  0
LINE
  5
469
100
AcDbEntity
  8
RACCORDO
100
AcDbLine
 62
253
  6
CONTINUOUS
 10
162.4371802623
 20
127.3084306757
 11
162.4310089359
 21
127.2992402711
  0
LINE
  5
46A
100
AcDbEntity
  8
RACCORDO
100
AcDbLine
 62
253
  6
CONTINUOUS
 10
162.4432015971
 20
127.3172746199
 11
162.4371802623
 21
127.3084306757
  0
LINE
  5
46B
100
AcDbEntity
  8
RACCORDO
100
AcDbLine
 62
253
  6
CONTINUOUS
 10
162.449049885
 20
127.3257379634
 11
162.4432015971
 21
127.3172746199
  0
LWPOLYLINE
  5
46C
100
AcDbEntity
  8
RACCORDO
100
AcDbPolyline
 62
253
  6
CONTINUOUS
 90
3
 70
0
 10
162.4574307056
 20
127.3376166527
 10
162.4546875052
 20
127.3337639724
 10
162.449049885
 20
127.3257379634
  0
LINE
  5
46D
100
AcDbEntity
  8
RACCORDO
100
AcDbLine
 62
7
  6
CONTINUOUS
 10
137.3082302557
 20
120.441195242
 11
137.3073101656
 21
120.4409860276
  0
LINE
  5
46E
100
AcDbEntity
  8
RACCORDO
100
AcDbLine
 62
7
  6
CONTINUOUS
 10
137.2161287824
 20
120.4250306041
 11
137.3073101656
 21
120.4409860276
  0
LINE
  5
46F
100
AcDbEntity
  8
ASSI
100
AcDbLine
 62
7
  6
CONTINUOUS
 10
159.3216918022
 20
119.8154252829
 11
158.4827746758
 21
119.8114484864
  0
LINE
  5
470
100
AcDbEntity
  8
ASSI
100
AcDbLine
 62
7
  6
CONTINUOUS
 10
159.3753147071
 20
119.7938891153
 11
158.4827746758
 21
119.8114484864
  0
LWPOLYLINE
  5
471
100
AcDbEntity
  8
RACCORDO
100
AcDbPolyline
 62
253
  6
CONTINUOUS
 90
11
 70
0
 10
134.5481825417
 20
120.9045636579
 10
134.5499197217
 20
120.9042712657
 10
134.5884744803
 20
120.9008099375
 10
134.6274863747
 20
120.9002484182
 10
134.6662952863
 20
120.9025962092
 10
134.7042445311
 20
120.9078135837
 10
134.7406919715
 20
120.9158122586
 10
134.7750208818
 20
120.9264568888
 10
134.806650384
 20
120.9395673569
 10
134.8350452765
 20
120.9549218211
 10
134.8597250906
 20
120.9722604693
  0
LINE
  5
472
100
AcDbEntity
  8
RACCORDO
100
AcDbLine
 62
253
  6
CONTINUOUS
 10
136.77793584
 20
120.6518071967
 11
137.3073101653
 21
120.4409860276
  0
LWPOLYLINE
  5
473
100
AcDbEntity
  8
SMUSSO
100
AcDbPolyline
 62
7
  6
CONTINUOUS
 90
7
 70
0
 10
133.4167996752
 20
121.9485895815
 10
134.0498679232
 20
121.6925326925
 10
134.6835146706
 20
121.4369644285
 10
135.3177399174
 20
121.1818847894
 10
135.9525436637
 20
120.9272937753
 10
136.5879259093
 20
120.6731913861
 10
137.2153170407
 20
120.4229950844
  0
LWPOLYLINE
  5
474
100
AcDbEntity
  8
RACCORDO
100
AcDbPolyline
 62
253
  6
CONTINUOUS
 90
8
 70
0
 10
133.4353415871
 20
121.9944520645
 10
133.8611060638
 20
121.8223181786
 10
134.3215340267
 20
121.636545129
 10
134.7898628131
 20
121.4479720482
 10
135.2672864803
 20
121.2561386047
 10
135.7573618189
 20
121.0596425209
 10
136.2612955409
 20
120.858033618
 10
136.77793584
 20
120.6518071967
  0
LINE
  5
475
100
AcDbEntity
  8
RACCORDO
100
AcDbLine
 62
253
  6
CONTINUOUS
 10
132.9674160208
 20
122.183985301
 11
133.4353415871
 21
121.9944520645
  0
LWPOLYLINE
  5
476
100
AcDbEntity
  8
RACCORDO
100
AcDbPolyline
 62
253
  6
CONTINUOUS
 90
10
 70
0
 10
132.782177938
 20
122.3603794874
 10
133.2530765852
 20
122.1695210233
 10
133.7336831116
 20
121.9751337265
 10
134.2240174991
 20
121.7772342507
 10
134.7224712958
 20
121.5764957788
 10
135.230691489
 20
121.3722774386
 10
135.7535929061
 20
121.1626344022
 10
136.2928410906
 20
120.9469410626
 10
136.8468398945
 20
120.7258809376
 10
137.415624014
 20
120.4994831435
  0
LINE
  5
477
100
AcDbEntity
  8
RACCORDO
100
AcDbLine
 62
7
  6
CONTINUOUS
 10
133.4086454533
 20
121.9542015992
 11
132.9674160208
 21
122.183985301
  0
LINE
  5
478
100
AcDbEntity
  8
RACCORDO
100
AcDbLine
 62
7
  6
CONTINUOUS
 10
132.9674160286
 20
122.1839852969
 11
132.9629751623
 21
122.1863475859
  0
LWPOLYLINE
  5
479
100
AcDbEntity
  8
ASSI
100
AcDbPolyline
 62
7
  6
CONTINUOUS
 90
4
 70
0
 10
135.5700453795
 20
131.5897042347
 10
135.5857254209
 20
131.5681529831
 10
135.6038944895
 20
131.5487732713
 10
135.6242592917
 20
131.5318688257
  0
LWPOLYLINE
  5
47A
100
AcDbEntity
  8
ASSI
100
AcDbPolyline
 62
253
  6
CONTINUOUS
 90
5
 70
0
 10
140.0776703222
 20
132.0908129512
 10
140.0835252698
 20
132.0791099016
 10
140.0864755712
 20
132.0686902862
 10
140.0864712931
 20
132.0597304184
 10
140.0841477922
 20
132.0533839416
  0
LWPOLYLINE
  5
47B
100
AcDbEntity
  8
RACCORDO
100
AcDbPolyline
 62
253
  6
CONTINUOUS
 90
4
 70
0
 10
134.8313406785
 20
139.5879921382
 10
134.8433760275
 20
139.5618525566
 10
134.853705722
 20
139.5333849874
 10
134.8622775862
 20
139.5026889083
  0
LINE
  5
47C
100
AcDbEntity
  8
ASSI
100
AcDbLine
 62
253
  6
CONTINUOUS
 10
158.5085699905
 20
85.8230910473
 11
158.4999013699
 21
85.8471590931
  0
LWPOLYLINE
  5
47D
100
AcDbEntity
  8
RACCORDO
100
AcDbPolyline
 62
7
  6
CONTINUOUS
 90
19
 70
0
 10
150.5809740815
 20
130.3702936517
 10
150.5796580375
 20
130.3919915405
 10
150.5755147707
 20
130.4137484306
 10
150.5684997458
 20
130.435407042
 10
150.5585649394
 20
130.4569474628
 10
150.5456977371
 20
130.4780282607
 10
150.5300254149
 20
130.4979919761
 10
150.5116904556
 20
130.5165581522
 10
150.4907991114
 20
130.5336341987
 10
150.4675651147
 20
130.5488750432
 10
150.442252361
 20
130.5620915139
 10
150.4149414005
 20
130.5732180192
 10
150.3855904361
 20
130.5821221084
 10
150.3542651462
 20
130.5887298077
 10
150.3212012478
 20
130.5929195554
 10
150.2866074124
 20
130.5945176515
 10
150.2506572827
 20
130.5934592445
 10
150.2134776287
 20
130.5897638626
 10
150.175204115
 20
130.5834297574
  0
LWPOLYLINE
  5
47E
100
AcDbEntity
  8
ASSI
100
AcDbPolyline
 62
253
  6
CONTINUOUS
 90
22
 70
0
 10
153.8439015549
 20
83.9764920034
 10
153.8461900861
 20
83.9379743142
 10
153.85047315
 20
83.9016455901
 10
153.8567507465
 20
83.867505831
 10
153.8650731355
 20
83.8353888644
 10
153.8753900572
 20
83.8054608629
 10
153.8875507315
 20
83.7782203439
 10
153.9015831188
 20
83.7537241233
 10
153.9174592588
 20
83.7319153852
 10
153.934944491
 20
83.7131221986
 10
153.9540633142
 20
83.6973912359
 10
153.9747912297
 20
83.6846758248
 10
153.9968200804
 20
83.6751640176
 10
154.0201684393
 20
83.6689046108
 10
154.0448177333
 20
83.6658488078
 10
154.0704040863
 20
83.6660382721
 10
154.0969551126
 20
83.6695300037
 10
154.1244431979
 20
83.6762670025
 10
154.1524216221
 20
83.6861199315
 10
154.1807414785
 20
83.6990456784
 10
154.2095516738
 20
83.7150873556
 10
154.238852208
 20
83.7342449631
  0
LWPOLYLINE
  5
47F
100
AcDbEntity
  8
ASSI
100
AcDbPolyline
 62
253
  6
CONTINUOUS
 90
13
 70
0
 10
153.1696809146
 20
83.8895054609
 10
153.1733865832
 20
83.8237176918
 10
153.1804704228
 20
83.7612512197
 10
153.1908985209
 20
83.7024124743
 10
153.2046249563
 20
83.6474910244
 10
153.2215807159
 20
83.5967530505
 10
153.2416758916
 20
83.5504427221
 10
153.2648213568
 20
83.5087839316
 10
153.2909060356
 20
83.4719852263
 10
153.3197871927
 20
83.4402351706
 10
153.3513317395
 20
83.4136879698
 10
153.3853909632
 20
83.3924726961
 10
153.4153089339
 20
83.3790428356
  0
LWPOLYLINE
  5
480
100
AcDbEntity
  8
ASSI
100
AcDbPolyline
 62
7
  6
CONTINUOUS
 90
18
 70
0
 10
149.7376926512
 20
131.6368772586
 10
149.7374182499
 20
131.6449796058
 10
149.7342794947
 20
131.6758802973
 10
149.7277905984
 20
131.7065769722
 10
149.7179558378
 20
131.736688646
 10
149.7048526256
 20
131.7658094565
 10
149.6885233235
 20
131.7937202171
 10
149.6690453369
 20
131.8201495924
 10
149.6466416648
 20
131.844713414
 10
149.6215127734
 20
131.8671693345
 10
149.5936435734
 20
131.8874741772
 10
149.5633350879
 20
131.9053469298
 10
149.5311714207
 20
131.9204815282
 10
149.4969609425
 20
131.932990956
 10
149.4609089656
 20
131.9427409616
 10
149.4242020395
 20
131.9494543097
 10
149.3867393098
 20
131.9532274277
 10
149.3485141718
 20
131.9540133905
  0
LINE
  5
481
100
AcDbEntity
  8
RACCORDO
100
AcDbLine
 62
7
  6
CONTINUOUS
 10
150.5809740815
 20
130.3702936517
 11
150.5818145184
 21
130.1263569217
  0
LINE
  5
482
100
AcDbEntity
  8
ASSI
100
AcDbLine
 62
253
  6
CONTINUOUS
 10
152.5804804927
 20
125.0050671283
 11
152.5804804927
 21
126.1280791343
  0
LINE
  5
483
100
AcDbEntity
  8
ASSI
100
AcDbLine
 62
253
  6
CONTINUOUS
 10
152.8569991788
 20
125.040044578
 11
152.8569991788
 21
126.1546204423
  0
LWPOLYLINE
  5
484
100
AcDbEntity
  8
ASSI
100
AcDbPolyline
 62
253
  6
CONTINUOUS
 90
8
 70
0
 10
152.9901476188
 20
110.3527730413
 10
152.9388355695
 20
106.5111530192
 10
152.913176993
 20
102.6892506578
 10
152.9131770707
 20
98.887453796
 10
152.9388357777
 20
95.10623551
 10
152.9901478861
 20
91.3459751111
 10
153.067101531
 20
87.6069566893
 10
153.1696806766
 20
83.8895052249
  0
LINE
  5
485
100
AcDbEntity
  8
DRAFT
100
AcDbLine
 62
253
  6
CONTINUOUS
 10
151.1139849232
 20
129.1203944677
 11
151.1302335723
 21
130.0198859524
  0
LINE
  5
486
100
AcDbEntity
  8
DRAFT
100
AcDbLine
 62
7
  6
CONTINUOUS
 10
151.1802208621
 20
129.5810661179
 11
151.1704592288
 21
129.0977131134
  0
LWPOLYLINE
  5
487
100
AcDbEntity
  8
ASSI
100
AcDbPolyline
 62
253
  6
CONTINUOUS
 90
3
 70
0
 10
153.16968068
 20
118.0939043635
 10
153.0671013194
 20
114.2138072289
 10
152.9901476188
 20
110.3527730413
  0
LWPOLYLINE
  5
488
100
AcDbEntity
  8
ASSI
100
AcDbPolyline
 62
253
  6
CONTINUOUS
 90
13
 70
0
 10
152.5395291285
 20
126.1854774895
 10
152.5404888761
 20
126.2074115625
 10
152.5433520599
 20
126.230550978
 10
152.548070771
 20
126.2545085512
 10
152.5545660527
 20
126.2788834076
 10
152.5627292215
 20
126.3032676903
 10
152.5724236856
 20
126.3272533846
 10
152.5834872306
 20
126.3504391453
 10
152.5957347336
 20
126.3724370124
 10
152.6089612609
 20
126.3928789023
 10
152.6229454972
 20
126.4114227673
 10
152.6374534485
 20
126.4277583186
 10
152.652242358
 20
126.4416122185
  0
LWPOLYLINE
  5
489
100
AcDbEntity
  8
RACCORDO
100
AcDbPolyline
 62
7
  6
CONTINUOUS
 90
11
 70
0
 10
153.3634480115
 20
132.0820370657
 10
153.3629641132
 20
132.0752235514
 10
153.3611783529
 20
132.0691590784
 10
153.3581187117
 20
132.0633624585
 10
153.3538878496
 20
132.057884462
 10
153.3484787647
 20
132.052733483
 10
153.3418984588
 20
132.0479011274
 10
153.3342705976
 20
132.0434129826
 10
153.325636403
 20
132.0392775776
 10
153.315954653
 20
132.0354863834
 10
153.3052253477
 20
132.0320394
  0
LWPOLYLINE
  5
48A
100
AcDbEntity
  8
ASSI
100
AcDbPolyline
 62
253
  6
CONTINUOUS
 90
11
 70
0
 10
156.733731544
 20
123.2608421483
 10
156.7247337232
 20
123.23697229
 10
156.7131502845
 20
123.214647279
 10
156.6991772307
 20
123.1942448759
 10
156.6830509994
 20
123.1761103092
 10
156.6650444621
 20
123.1605504331
 10
156.6454623068
 20
123.1478285359
 10
156.6246358824
 20
123.1381598843
 10
156.6029175921
 20
123.1317080813
 10
156.5806749305
 20
123.1285822975
 10
156.5689231221
 20
123.128292679
  0
LWPOLYLINE
  5
48B
100
AcDbEntity
  8
ASSI
100
AcDbPolyline
 62
253
  6
CONTINUOUS
 90
10
 70
0
 10
158.514376655
 20
124.6999603532
 10
158.5160182112
 20
124.703982944
 10
158.5175106863
 20
124.7080980372
 10
158.5188202609
 20
124.7122136656
 10
158.5199429173
 20
124.7163301037
 10
158.5208826732
 20
124.7204470769
 10
158.5216177631
 20
124.7244717932
 10
158.5221409317
 20
124.728373322
 10
158.5224594343
 20
124.7321825939
 10
158.5225732708
 20
124.7358996089
  0
LINE
  5
48C
100
AcDbEntity
  8
RACCORDO
100
AcDbLine
 62
7
  6
CONTINUOUS
 10
142.5979509305
 20
95.9207015281
 11
142.3278893245
 21
95.6979557126
  0
LWPOLYLINE
  5
48D
100
AcDbEntity
  8
RACCORDO
100
AcDbPolyline
 62
7
  6
CONTINUOUS
 90
8
 70
0
 10
142.5979509305
 20
95.9207015281
 10
142.6153792905
 20
95.9349051713
 10
142.6295451097
 20
95.9475393112
 10
142.6405991936
 20
95.9583830981
 10
142.6487088655
 20
95.9669732755
 10
142.6541171123
 20
95.9734068039
 10
142.6570694303
 20
95.9783475679
 10
142.6577870613
 20
95.981338003
  0
LINE
  5
48E
100
AcDbEntity
  8
SMUSSO
100
AcDbLine
 62
7
  6
CONTINUOUS
 10
141.484285895
 20
95.002172565
 11
142.3278893245
 21
95.6886821393
  0
LWPOLYLINE
  5
48F
100
AcDbEntity
  8
RACCORDO
100
AcDbPolyline
 62
7
  6
CONTINUOUS
 90
3
 70
0
 10
141.0310136996
 20
94.6742414694
 10
141.008556546
 20
94.6580595373
 10
140.9863976395
 20
94.6427127166
  0
LINE
  5
490
100
AcDbEntity
  8
RACCORDO
100
AcDbLine
 62
7
  6
CONTINUOUS
 10
141.0310136997
 20
94.674241469
 11
141.036630256
 21
94.6781771419
  0
LINE
  5
491
100
AcDbEntity
  8
RACCORDO
100
AcDbLine
 62
7
  6
CONTINUOUS
 10
141.4739096024
 20
94.9787891363
 11
141.036630256
 21
94.6781771419
  0
LWPOLYLINE
  5
492
100
AcDbEntity
  8
RACCORDO
100
AcDbPolyline
 62
7
  6
CONTINUOUS
 90
5
 70
0
 10
140.9863976395
 20
94.6427127166
 10
140.9437828279
 20
94.6141616518
 10
140.9236323056
 20
94.6007939045
 10
140.9041584942
 20
94.5882356454
 10
140.8854077209
 20
94.5765323805
  0
LINE
  5
493
100
AcDbEntity
  8
RACCORDO
100
AcDbLine
 62
7
  6
CONTINUOUS
 10
140.8854077209
 20
94.5765323805
 11
140.8507469207
 21
94.5551698314
  0
LWPOLYLINE
  5
494
100
AcDbEntity
  8
ASSI
100
AcDbPolyline
 62
7
  6
CONTINUOUS
 90
4
 70
0
 10
155.8638340657
 20
126.3187747258
 10
155.8421801926
 20
126.3131437284
 10
155.8213538365
 20
126.3054124833
 10
155.8014532087
 20
126.2956952423
  0
LWPOLYLINE
  5
495
100
AcDbEntity
  8
RACCORDO
100
AcDbPolyline
 62
253
  6
CONTINUOUS
 90
3
 70
0
 10
134.5481825417
 20
120.4688180187
 10
134.5643392642
 20
120.4701274891
 10
134.5932075104
 20
120.4772560618
  0
LINE
  5
496
100
AcDbEntity
  8
ASSI
100
AcDbLine
 62
253
  6
CONTINUOUS
 10
153.16968068
 20
118.0939043635
 11
151.2798454434
 21
118.8001038906
  0
LWPOLYLINE
  5
497
100
AcDbEntity
  8
ASSI
100
AcDbPolyline
 62
253
  6
CONTINUOUS
 90
15
 70
0
 10
151.2798454434
 20
118.8001038906
 10
149.3970886978
 20
119.5093168662
 10
147.521415002
 20
120.2215196536
 10
145.6557026908
 20
120.9355834867
 10
143.7970676026
 20
121.652577903
 10
141.9369321468
 20
122.3758292647
 10
140.0787521123
 20
123.1040281694
 10
138.2191868938
 20
123.8385270391
 10
136.3396659478
 20
124.5868125848
 10
134.4423396835
 20
125.3482397754
 10
132.525469898
 20
126.1237354295
 10
130.5649905103
 20
126.9234171436
 10
128.560191631
 20
127.7480519914
 10
126.5126478567
 20
128.5975011432
 10
124.40211336
 20
129.4808320671
  0
LINE
  5
498
100
AcDbEntity
  8
ASSI
100
AcDbLine
 62
253
  6
CONTINUOUS
 10
124.40211336
 20
129.4808320671
 11
122.1933742081
 21
130.4138146884
  0
LWPOLYLINE
  5
499
100
AcDbEntity
  8
ASSI
100
AcDbPolyline
 62
253
  6
CONTINUOUS
 90
3
 70
0
 10
122.1933742081
 20
130.4138146884
 10
119.9810170018
 20
131.3569601576
 10
117.6787731112
 20
132.3478529924
  0
LWPOLYLINE
  5
49A
100
AcDbEntity
  8
ASSI
100
AcDbPolyline
 62
7
  6
CONTINUOUS
 90
4
 70
0
 10
121.0420283222
 20
137.3888637049
 10
121.0633114088
 20
137.3749842485
 10
121.0856001277
 20
137.3639829256
 10
121.0892592558
 20
137.3624785952
  0
LWPOLYLINE
  5
49B
100
AcDbEntity
  8
ASSI
100
AcDbPolyline
 62
7
  6
CONTINUOUS
 90
4
 70
0
 10
139.4202343067
 20
130.0431833666
 10
139.4355277695
 20
130.022165264
 10
139.453188723
 20
130.0032066721
 10
139.4729493187
 20
129.9865903174
  0
LWPOLYLINE
  5
49C
100
AcDbEntity
  8
ASSI
100
AcDbPolyline
 62
253
  6
CONTINUOUS
 90
8
 70
0
 10
143.9391328565
 20
130.9283434487
 10
143.9397970793
 20
130.926599534
 10
143.9403625702
 20
130.924712691
 10
143.9408311071
 20
130.9226856638
 10
143.9411964325
 20
130.9205447135
 10
143.9414564606
 20
130.9182985939
 10
143.9416132773
 20
130.9159385511
 10
143.9416668824
 20
130.9134645853
  0
LWPOLYLINE
  5
49D
100
AcDbEntity
  8
ASSI
100
AcDbPolyline
 62
7
  6
CONTINUOUS
 90
6
 70
0
 10
158.5515211522
 20
85.7867605733
 10
158.5447671599
 20
85.8117411182
 10
158.5351730696
 20
85.8358951557
 10
158.5226010581
 20
85.8590966789
 10
158.5072976932
 20
85.8806217311
 10
158.4895341691
 20
85.9000443505
  0
LWPOLYLINE
  5
49E
100
AcDbEntity
  8
RACCORDO
100
AcDbPolyline
 62
7
  6
CONTINUOUS
 90
14
 70
0
 10
153.3615415074
 20
132.1177113473
 10
153.3550887265
 20
132.1802421034
 10
153.344915574
 20
132.2395534393
 10
153.3310895058
 20
132.2956730504
 10
153.3136519426
 20
132.3486703876
 10
153.292611722
 20
132.3985679801
 10
153.267998116
 20
132.4452429219
 10
153.2399313284
 20
132.4884606617
 10
153.2085146563
 20
132.5280801101
 10
153.1739250858
 20
132.5638748612
 10
153.1366155765
 20
132.5954369793
 10
153.0969303614
 20
132.622614458
 10
153.055267351
 20
132.6452887227
 10
153.0276816878
 20
132.6574319378
  0
LWPOLYLINE
  5
49F
100
AcDbEntity
  8
ASSI
100
AcDbPolyline
 62
253
  6
CONTINUOUS
 90
16
 70
0
 10
154.2388519757
 20
119.0007235395
 10
154.2350291086
 20
119.0431122443
 10
154.2268522938
 20
119.0869031714
 10
154.2144109119
 20
119.131617407
 10
154.1978409889
 20
119.1767659232
 10
154.1773237016
 20
119.2218549491
 10
154.1530833905
 20
119.2663913707
 10
154.1253851168
 20
119.3098880994
 10
154.0945317856
 20
119.3518693771
 10
154.060860826
 20
119.3918760063
 10
154.0247404647
 20
119.4294704132
 10
153.9865657482
 20
119.464241374
 10
153.9467542493
 20
119.4958085074
 10
153.9057414161
 20
119.5238265153
 10
153.8639758002
 20
119.5479889443
 10
153.8219142109
 20
119.5680314921
  0
LWPOLYLINE
  5
4A0
100
AcDbEntity
  8
ASSI
100
AcDbPolyline
 62
253
  6
CONTINUOUS
 90
16
 70
0
 10
152.8569991788
 20
126.1546204423
 10
152.8556748664
 20
126.1763108878
 10
152.8521436039
 20
126.1986816908
 10
152.8464445482
 20
126.221488242
 10
152.838640807
 20
126.244481353
 10
152.8288178931
 20
126.2674092215
 10
152.8170828
 20
126.2900201877
 10
152.8035639873
 20
126.3120664605
 10
152.7884098671
 20
126.3333069708
 10
152.7717863011
 20
126.3535092294
 10
152.7538733753
 20
126.3724532802
 10
152.7348687651
 20
126.389929852
 10
152.7149863125
 20
126.4057440893
 10
152.6944459671
 20
126.4197229822
 10
152.6734705515
 20
126.4317158896
 10
152.6522892004
 20
126.4415927993
  0
LWPOLYLINE
  5
4A1
100
AcDbEntity
  8
ASSI
100
AcDbPolyline
 62
253
  6
CONTINUOUS
 90
16
 70
0
 10
152.5804804927
 20
126.1280791343
 10
152.5802356797
 20
126.13253214
 10
152.5795676098
 20
126.1370177291
 10
152.5784762828
 20
126.1415359015
 10
152.5769407946
 20
126.1461364618
 10
152.5749820495
 20
126.1507696055
 10
152.5726627599
 20
126.1552859188
 10
152.569971028
 20
126.1596816094
 10
152.5669187517
 20
126.1639604695
 10
152.5636043376
 20
126.1679844626
 10
152.5600191302
 20
126.1717454524
 10
152.556171785
 20
126.1752515751
 10
152.552186675
 20
126.1783892029
 10
152.5481052577
 20
126.18112046
 10
152.5438860756
 20
126.1834832222
 10
152.5395291285
 20
126.1854774895
  0
LINE
  5
4A2
100
AcDbEntity
  8
RACCORDO
100
AcDbLine
 62
7
  6
CONTINUOUS
 10
153.3634623654
 20
132.0820343924
 11
153.3615415074
 21
132.1177113473
  0
LWPOLYLINE
  5
4A3
100
AcDbEntity
  8
ASSI
100
AcDbPolyline
 62
7
  6
CONTINUOUS
 90
6
 70
0
 10
153.9655975079
 20
124.3126909608
 10
153.9670218551
 20
124.2857672771
 10
153.9711491458
 20
124.2602421602
 10
153.9781553502
 20
124.2350312596
 10
153.9880529554
 20
124.2107208406
 10
154.000966376
 20
124.1874308471
  0
LWPOLYLINE
  5
4A4
100
AcDbEntity
  8
ASSI
100
AcDbPolyline
 62
7
  6
CONTINUOUS
 90
16
 70
0
 10
153.0354135813
 20
126.2998109325
 10
153.0343122657
 20
126.321509385
 10
153.0309886471
 20
126.3439502256
 10
153.0254545883
 20
126.3668980998
 10
153.017715032
 20
126.3901941016
 10
153.0078483187
 20
126.4134949194
 10
152.9960804753
 20
126.4362826189
 10
152.9827030476
 20
126.4581293723
 10
152.9678053558
 20
126.479010313
 10
152.9513313847
 20
126.4990039531
 10
152.9332701885
 20
126.5180253081
 10
152.913932218
 20
126.5356584334
 10
152.8937441716
 20
126.5515063892
 10
152.8730182065
 20
126.5653651565
 10
152.8519120038
 20
126.5771657041
 10
152.8306567604
 20
126.5868027088
  0
LWPOLYLINE
  5
4A5
100
AcDbEntity
  8
ASSI
100
AcDbPolyline
 62
253
  6
CONTINUOUS
 90
17
 70
0
 10
154.0508821869
 20
124.2187026227
 10
154.0510004013
 20
124.2104714423
 10
154.0513684826
 20
124.202212622
 10
154.0520076136
 20
124.1939604834
 10
154.0529406433
 20
124.1857402173
 10
154.0541877928
 20
124.1776043424
 10
154.055762327
 20
124.1696281304
 10
154.0576806729
 20
124.1618519498
 10
154.05995849
 20
124.1543184782
 10
154.0625990934
 20
124.1471001164
 10
154.0656122079
 20
124.1402370709
 10
154.0690062932
 20
124.1337707155
 10
154.072773082
 20
124.1277653216
 10
154.0769142721
 20
124.1222568049
 10
154.0814301283
 20
124.1172808801
 10
154.0863003868
 20
124.1128882125
 10
154.0915183771
 20
124.1091063144
  0
LWPOLYLINE
  5
4A6
100
AcDbEntity
  8
ASSI
100
AcDbPolyline
 62
253
  6
CONTINUOUS
 90
5
 70
0
 10
153.5837281214
 20
98.9605790015
 10
153.6097454751
 20
95.183149144
 10
153.6617801648
 20
91.4268508659
 10
153.7398321914
 20
87.6912984857
 10
153.8439015549
 20
83.9764920034
  0
LINE
  5
4A7
100
AcDbEntity
  8
ASSI
100
AcDbLine
 62
7
  6
CONTINUOUS
 10
153.0354135813
 20
125.1939244825
 11
153.0354135813
 21
126.2998109325
  0
LINE
  5
4A8
100
AcDbEntity
  8
ASSI
100
AcDbLine
 62
7
  6
CONTINUOUS
 10
153.9655974742
 20
124.6127686086
 11
153.9655974742
 21
124.3126718848
  0
LINE
  5
4A9
100
AcDbEntity
  8
ASSI
100
AcDbLine
 62
253
  6
CONTINUOUS
 10
154.0508821869
 20
124.5187993465
 11
154.0508821869
 21
124.2187026227
  0
LINE
  5
4AA
100
AcDbEntity
  8
ASSI
100
AcDbLine
 62
7
  6
CONTINUOUS
 10
154.5438033038
 20
123.926377121
 11
154.5438033038
 21
123.5526592748
  0
LINE
  5
4AB
100
AcDbEntity
  8
ASSI
100
AcDbLine
 62
253
  6
CONTINUOUS
 10
154.6504091948
 20
123.8835617918
 11
154.6504091948
 21
123.4305996183
  0
LINE
  5
4AC
100
AcDbEntity
  8
ASSI
100
AcDbLine
 62
7
  6
CONTINUOUS
 10
155.027975349
 20
122.6150673882
 11
155.027975349
 21
123.7235746092
  0
LINE
  5
4AD
100
AcDbEntity
  8
ASSI
100
AcDbLine
 62
253
  6
CONTINUOUS
 10
155.1345812399
 20
122.4930077318
 11
155.1345812399
 21
123.7834646516
  0
LINE
  5
4AE
100
AcDbEntity
  8
ASSI
100
AcDbLine
 62
253
  6
CONTINUOUS
 10
155.3588169351
 20
122.4029496214
 11
155.3588169351
 21
123.6934065411
  0
LINE
  5
4AF
100
AcDbEntity
  8
ASSI
100
AcDbLine
 62
253
  6
CONTINUOUS
 10
155.7044652928
 20
122.4466714336
 11
155.7044652928
 21
123.4602290997
  0
LWPOLYLINE
  5
4B0
100
AcDbEntity
  8
ASSI
100
AcDbPolyline
 62
253
  6
CONTINUOUS
 90
4
 70
0
 10
153.6617800905
 20
110.4134871468
 10
153.6097454273
 20
106.5765193659
 10
153.5837281045
 20
102.758754757
 10
153.5837281214
 20
98.9605790015
  0
LWPOLYLINE
  5
4B1
100
AcDbEntity
  8
RACCORDO
100
AcDbPolyline
 62
253
  6
CONTINUOUS
 90
19
 70
0
 10
156.03680241
 20
132.0155714398
 10
156.0367262576
 20
132.0105662952
 10
156.0361171774
 20
132.0005621041
 10
156.034899759
 20
131.9905761996
 10
156.0330754858
 20
131.9806207479
 10
156.0306465803
 20
131.9707078783
 10
156.0276160017
 20
131.960849668
 10
156.0239874424
 20
131.9510581277
 10
156.0197653231
 20
131.941345187
 10
156.014954788
 20
131.9317226795
 10
156.0095616978
 20
131.9222023289
 10
156.0035926232
 20
131.9127957341
 10
155.9970548367
 20
131.9035143556
 10
155.9899563035
 20
131.8943695015
 10
155.9823056721
 20
131.8853723133
 10
155.9741122636
 20
131.8765337526
 10
155.9653860603
 20
131.867864588
 10
155.956137694
 20
131.8593753814
 10
155.9463784321
 20
131.8510764756
  0
LWPOLYLINE
  5
4B2
100
AcDbEntity
  8
ASSI
100
AcDbPolyline
 62
253
  6
CONTINUOUS
 90
8
 70
0
 10
156.2479678473
 20
129.0146730828
 10
156.2478475401
 20
129.0099509166
 10
156.2452463353
 20
128.9897289477
 10
156.2392867688
 20
128.9697844456
 10
156.2300212129
 20
128.9502892259
 10
156.2175307135
 20
128.9314162767
 10
156.2019270564
 20
128.9133378826
 10
156.183349305
 20
128.8962166942
  0
LWPOLYLINE
  5
4B3
100
AcDbEntity
  8
ASSI
100
AcDbPolyline
 62
253
  6
CONTINUOUS
 90
3
 70
0
 10
153.8439014358
 20
118.146189269
 10
153.7398320934
 20
114.2700437812
 10
153.6617800905
 20
110.4134871468
  0
LWPOLYLINE
  5
4B4
100
AcDbEntity
  8
ASSI
100
AcDbPolyline
 62
7
  6
CONTINUOUS
 90
8
 70
0
 10
156.2412285517
 20
127.9052893924
 10
156.2410613453
 20
127.8998239745
 10
156.2381167033
 20
127.8788572326
 10
156.231659511
 20
127.8578863941
 10
156.2219488543
 20
127.8376650968
 10
156.2090710953
 20
127.8184445533
 10
156.192939872
 20
127.7999735509
 10
156.1735551844
 20
127.7822520897
  0
LWPOLYLINE
  5
4B5
100
AcDbEntity
  8
ASSI
100
AcDbPolyline
 62
7
  6
CONTINUOUS
 90
3
 70
0
 10
158.5475733282
 20
124.729648406
 10
158.5522902556
 20
124.7511012948
 10
158.5553358917
 20
124.7725347234
  0
LWPOLYLINE
  5
4B6
100
AcDbEntity
  8
ASSI
100
AcDbPolyline
 62
7
  6
CONTINUOUS
 90
7
 70
0
 10
150.1295908163
 20
127.63227858
 10
150.1476520125
 20
127.6367953767
 10
150.1669899829
 20
127.6388970623
 10
150.1871780294
 20
127.63852437
 10
150.2079039945
 20
127.635727436
 10
150.2290101972
 20
127.6305722935
 10
150.2502654405
 20
127.6231460364
  0
LWPOLYLINE
  5
4B7
100
AcDbEntity
  8
ASSI
100
AcDbPolyline
 62
7
  6
CONTINUOUS
 90
6
 70
0
 10
155.3697964174
 20
125.9545529805
 10
155.3852667937
 20
125.956234329
 10
155.4014172309
 20
125.9559361751
 10
155.4179980029
 20
125.9536986279
 10
155.4348829651
 20
125.949574514
 10
155.4518871598
 20
125.9436335083
  0
LWPOLYLINE
  5
4B8
100
AcDbEntity
  8
ASSI
100
AcDbPolyline
 62
253
  6
CONTINUOUS
 90
5
 70
0
 10
158.5088816861
 20
125.0810137088
 10
158.5063004669
 20
125.0808045168
 10
158.5036232685
 20
125.0801010031
 10
158.5008772929
 20
125.0789052542
 10
158.4980353381
 20
125.0772151835
  0
LINE
  5
4B9
100
AcDbEntity
  8
ASSI
100
AcDbLine
 62
7
  6
CONTINUOUS
 10
156.5689231221
 20
123.128292679
 11
157.0964455396
 21
123.1203656993
  0
LINE
  5
4BA
100
AcDbEntity
  8
ASSI
100
AcDbLine
 62
253
  6
CONTINUOUS
 10
156.733731544
 20
123.2608421483
 11
157.3357902107
 21
123.2517951264
  0
LWPOLYLINE
  5
4BB
100
AcDbEntity
  8
ASSI
100
AcDbPolyline
 62
253
  6
CONTINUOUS
 90
19
 70
0
 10
153.8219142155
 20
119.5680314959
 10
151.9320099611
 20
120.2722117187
 10
150.0492292056
 20
120.9795716533
 10
148.1735719491
 20
121.6901112998
 10
146.3078745682
 20
122.4027208859
 10
144.4493006863
 20
123.1185101839
 10
142.5893411729
 20
123.8408085098
 10
140.731257861
 20
124.5681675151
 10
138.8717889176
 20
125.3020355484
 10
136.9926397132
 20
126.050086971
 10
135.0955711367
 20
126.8113173492
 10
133.1788222992
 20
127.5867311168
 10
131.2188159038
 20
128.3870159369
 10
129.2140833916
 20
129.2124112734
 10
127.1660933214
 20
130.0626776624
 10
125.0556740731
 20
130.9477843756
 10
122.8764351067
 20
131.8710545037
 10
120.6347669622
 20
132.8291649561
 10
118.3306696396
 20
133.8221157327
  0
LWPOLYLINE
  5
4BC
100
AcDbEntity
  8
ASSI
100
AcDbPolyline
 62
253
  6
CONTINUOUS
 90
3
 70
0
 10
158.5173922308
 20
85.7721449045
 10
158.5144333487
 20
85.7979444831
 10
158.5085699905
 20
85.8230910473
  0
LWPOLYLINE
  5
4BD
100
AcDbEntity
  8
ASSI
100
AcDbPolyline
 62
253
  6
CONTINUOUS
 90
13
 70
0
 10
156.7479154222
 20
123.6485581681
 10
156.7462640047
 20
123.6703001063
 10
156.7418734312
 20
123.6928234567
 10
156.7348187885
 20
123.7157429925
 10
156.72522073
 20
123.7386667068
 10
156.7132434091
 20
123.7612025244
 10
156.6990916692
 20
123.782965008
 10
156.6830075448
 20
123.8035819414
 10
156.6652661299
 20
123.8227006888
 10
156.6461708692
 20
123.8399942356
 10
156.6260483626
 20
123.85516679
 10
156.6052427768
 20
123.867958841
 10
156.5841099656
 20
123.8781515892
  0
LWPOLYLINE
  5
4BE
100
AcDbEntity
  8
ASSI
100
AcDbPolyline
 62
253
  6
CONTINUOUS
 90
13
 70
0
 10
156.183349305
 20
128.8962166942
 10
156.1818952099
 20
128.9238941126
 10
156.1769210922
 20
128.9524696015
 10
156.1685120275
 20
128.9814544157
 10
156.1568118415
 20
129.010352809
 10
156.1420206502
 20
129.0386705133
 10
156.1243914374
 20
129.0659231928
 10
156.1042257272
 20
129.0916447275
 10
156.0818684266
 20
129.1153951848
 10
156.0577019272
 20
129.1367683455
 10
156.0321395645
 20
129.1553986504
 10
156.005618548
 20
129.1709674531
 10
155.9785924841
 20
129.1832084704
  0
LWPOLYLINE
  5
4BF
100
AcDbEntity
  8
ASSI
100
AcDbPolyline
 62
7
  6
CONTINUOUS
 90
3
 70
0
 10
158.5567651716
 20
85.7357613614
 10
158.5554636396
 20
85.7615108403
 10
158.5515211522
 20
85.7867605733
  0
LWPOLYLINE
  5
4C0
100
AcDbEntity
  8
ASSI
100
AcDbPolyline
 62
253
  6
CONTINUOUS
 90
13
 70
0
 10
156.7190346743
 20
123.284709878
 10
156.7191533669
 20
123.2811945051
 10
156.7194866937
 20
123.2779280359
 10
156.7200346547
 20
123.2749104705
 10
156.7208044197
 20
123.2721226352
 10
156.7217888188
 20
123.2695837037
 10
156.7229663429
 20
123.2673511972
 10
156.7243413982
 20
123.2654318445
 10
156.7259095783
 20
123.2638189169
 10
156.7276361558
 20
123.2625497499
 10
156.7295095546
 20
123.2616367887
 10
156.7315413506
 20
123.2610675882
 10
156.733731544
 20
123.2608421483
  0
LWPOLYLINE
  5
4C1
100
AcDbEntity
  8
ASSI
100
AcDbPolyline
 62
253
  6
CONTINUOUS
 90
13
 70
0
 10
158.5225732708
 20
85.671623883
 10
158.5224603518
 20
85.6751369371
 10
158.5221432394
 20
85.6783968941
 10
158.5216219336
 20
85.6814037542
 10
158.5208896132
 20
85.6841765509
 10
158.5199530994
 20
85.6866962507
 10
158.518832855
 20
85.6889057523
 10
158.5175246883
 20
85.6907982411
 10
158.516032791
 20
85.6923805318
 10
158.5143902015
 20
85.6936159673
 10
158.5126079327
 20
85.6944923286
 10
158.5106749718
 20
85.6950218347
 10
158.5085913187
 20
85.6952044857
  0
LWPOLYLINE
  5
4C2
100
AcDbEntity
  8
ASSI
100
AcDbPolyline
 62
253
  6
CONTINUOUS
 90
11
 70
0
 10
156.4425159881
 20
123.25816857
 10
156.4430645794
 20
123.240765959
 10
156.4447055228
 20
123.224387653
 10
156.4474263902
 20
123.2091582736
 10
156.4512067131
 20
123.1951936653
 10
156.4560177158
 20
123.1826000549
 10
156.4618225671
 20
123.171473291
 10
156.4685777715
 20
123.1618976036
 10
156.4762318311
 20
123.1539463505
 10
156.4847249216
 20
123.1476809377
 10
156.4929888502
 20
123.1435402622
  0
LWPOLYLINE
  5
4C3
100
AcDbEntity
  8
ASSI
100
AcDbPolyline
 62
7
  6
CONTINUOUS
 90
18
 70
0
 10
156.2479627696
 20
129.0148860153
 10
156.2478165998
 20
129.0258471131
 10
156.2449980172
 20
129.0579183838
 10
156.2385824697
 20
129.0897542799
 10
156.2285926267
 20
129.1209398093
 10
156.2151350568
 20
129.1510288662
 10
156.1982605303
 20
129.1798000157
 10
156.1780551839
 20
129.2069581341
 10
156.154778741
 20
129.2320968273
 10
156.1286440197
 20
129.2549810471
 10
156.0995838041
 20
129.2755864995
 10
156.0679548353
 20
129.2935886792
 10
156.0344907972
 20
129.3086320704
 10
155.9990121667
 20
129.3208379642
 10
155.961703957
 20
129.3301106405
 10
155.9238142139
 20
129.3361763773
 10
155.8852218255
 20
129.3391433391
 10
155.8459331515
 20
129.3389380037
  0
LWPOLYLINE
  5
4C4
100
AcDbEntity
  8
RACCORDO
100
AcDbPolyline
 62
7
  6
CONTINUOUS
 90
40
 70
0
 10
156.0368023718
 20
132.0155869148
 10
156.0367440818
 20
132.023806312
 10
156.0361726125
 20
132.0426713645
 10
156.0349886573
 20
132.0615865985
 10
156.0331880902
 20
132.0805415868
 10
156.0307687889
 20
132.0995124564
 10
156.0277315571
 20
132.1184646483
 10
156.024073445
 20
132.1373944195
 10
156.0197942857
 20
132.1562815837
 10
156.0149026829
 20
132.1750751314
 10
156.0093972075
 20
132.1937736924
 10
156.0032779808
 20
132.212365199
 10
155.9965621514
 20
132.2307920788
 10
155.9892452614
 20
132.2490631478
 10
155.9813283238
 20
132.2671668201
 10
155.9728447792
 20
132.2850254541
 10
155.963791397
 20
132.3026471541
 10
155.954166371
 20
132.3200321833
 10
155.9440133081
 20
132.3371018831
 10
155.9333289103
 20
132.3538658568
 10
155.9221077755
 20
132.3703300968
 10
155.9104009215
 20
132.3864208663
 10
155.8982033257
 20
132.4021480111
 10
155.8855072182
 20
132.4175195948
 10
155.8723687938
 20
132.4324674194
 10
155.8587814013
 20
132.4470012166
 10
155.8447367067
 20
132.4611270543
 10
155.8302993243
 20
132.474779587
 10
155.8154659281
 20
132.4879640021
 10
155.8002271142
 20
132.5006866844
 10
155.7846502409
 20
132.5128914438
 10
155.7687366566
 20
132.5245795587
 10
155.7524788045
 20
132.5357561202
 10
155.7359426961
 20
132.5463764129
 10
155.7191383794
 20
132.5564378558
 10
155.7020601032
 20
132.5659449202
 10
155.6847616228
 20
132.5748697942
 10
155.6672674495
 20
132.5832040953
 10
155.6495689641
 20
132.5909551399
 10
155.6412388563
 20
132.5943733333
  0
LINE
  5
4C5
100
AcDbEntity
  8
RACCORDO
100
AcDbLine
 62
253
  6
CONTINUOUS
 10
155.9463784321
 20
131.8510738153
 11
155.9463784321
 21
131.0941637166
  0
LINE
  5
4C6
100
AcDbEntity
  8
RACCORDO
100
AcDbLine
 62
7
  6
CONTINUOUS
 10
156.03680241
 20
132.0155714398
 11
156.03680241
 21
131.1356337832
  0
LINE
  5
4C7
100
AcDbEntity
  8
ASSI
100
AcDbLine
 62
7
  6
CONTINUOUS
 10
156.1479363416
 20
123.2821211287
 11
156.1479363416
 21
122.8291589552
  0
LINE
  5
4C8
100
AcDbEntity
  8
ASSI
100
AcDbLine
 62
253
  6
CONTINUOUS
 10
156.4425159881
 20
123.5583104233
 11
156.4425159881
 21
123.25816857
  0
LINE
  5
4C9
100
AcDbEntity
  8
ASSI
100
AcDbLine
 62
253
  6
CONTINUOUS
 10
156.4425159881
 20
83.8937961203
 11
156.4425159881
 21
84.1938930531
  0
LINE
  5
4CA
100
AcDbEntity
  8
ASSI
100
AcDbLine
 62
253
  6
CONTINUOUS
 10
156.7190346743
 20
123.5848066018
 11
156.7190346743
 21
123.284709878
  0
LINE
  5
4CB
100
AcDbEntity
  8
ASSI
100
AcDbLine
 62
253
  6
CONTINUOUS
 10
156.7190346743
 20
83.9203374283
 11
156.7190346743
 21
84.2204341521
  0
LINE
  5
4CC
100
AcDbEntity
  8
ASSI
100
AcDbLine
 62
253
  6
CONTINUOUS
 10
156.990141853
 20
123.1219631047
 11
156.990141853
 21
122.4909102347
  0
LINE
  5
4CD
100
AcDbEntity
  8
ASSI
100
AcDbLine
 62
253
  6
CONTINUOUS
 10
156.990141853
 20
85.510345175
 11
156.990141853
 21
85.2653335556
  0
LINE
  5
4CE
100
AcDbEntity
  8
ASSI
100
AcDbLine
 62
253
  6
CONTINUOUS
 10
157.3357902107
 20
123.2517951264
 11
157.3357902107
 21
122.5345427281
  0
LINE
  5
4CF
100
AcDbEntity
  8
ASSI
100
AcDbLine
 62
253
  6
CONTINUOUS
 10
157.3357902107
 20
85.7533346373
 11
157.3357902107
 21
85.2271568476
  0
LINE
  5
4D0
100
AcDbEntity
  8
ASSI
100
AcDbLine
 62
7
  6
CONTINUOUS
 10
158.0731986537
 20
84.9162110028
 11
158.0731986537
 21
86.2717299287
  0
LINE
  5
4D1
100
AcDbEntity
  8
ASSI
100
AcDbLine
 62
7
  6
CONTINUOUS
 10
158.0731987066
 20
123.1706363444
 11
158.0731986537
 21
124.7270502596
  0
LINE
  5
4D2
100
AcDbEntity
  8
ASSI
100
AcDbLine
 62
7
  6
CONTINUOUS
 10
158.4827746758
 20
122.5966278174
 11
158.4827746758
 21
119.8114484864
  0
LINE
  5
4D3
100
AcDbEntity
  8
ASSI
100
AcDbLine
 62
7
  6
CONTINUOUS
 10
158.4827746758
 20
86.7176435167
 11
158.4827746758
 21
89.5028228477
  0
LINE
  5
4D4
100
AcDbEntity
  8
ASSI
100
AcDbLine
 62
253
  6
CONTINUOUS
 10
158.5225732708
 20
85.350079631
 11
158.5225732708
 21
85.671623883
  0
LINE
  5
4D5
100
AcDbEntity
  8
ASSI
100
AcDbLine
 62
253
  6
CONTINUOUS
 10
158.5225732708
 20
124.7358996089
 11
158.5225732708
 21
125.0574438609
  0
LINE
  5
4D6
100
AcDbEntity
  8
ASSI
100
AcDbLine
 62
7
  6
CONTINUOUS
 10
156.2412142304
 20
127.9052895476
 11
156.2479678441
 21
129.0146725553
  0
LINE
  5
4D7
100
AcDbEntity
  8
ASSI
100
AcDbLine
 62
253
  6
CONTINUOUS
 10
156.1735551844
 20
127.7822520897
 11
156.1776980795
 21
128.2534570858
  0
LINE
  5
4D8
100
AcDbEntity
  8
ASSI
100
AcDbLine
 62
253
  6
CONTINUOUS
 10
156.1808828456
 20
128.6156863014
 11
156.183349305
 21
128.8962166942
  0
LWPOLYLINE
  5
4D9
100
AcDbEntity
  8
ASSI
100
AcDbPolyline
 62
253
  6
CONTINUOUS
 90
22
 70
0
 10
156.7190346743
 20
84.2204341521
 10
156.7190527892
 20
84.2221439452
 10
156.7191319347
 20
84.2239382062
 10
156.7192721107
 20
84.2258169348
 10
156.7194700876
 20
84.2277851334
 10
156.719729095
 20
84.2298377997
 10
156.7200588222
 20
84.2319599275
 10
156.7204607866
 20
84.2341537803
 10
156.7209334709
 20
84.2364170945
 10
156.7214820122
 20
84.2387280731
 10
156.7221082041
 20
84.2410885568
 10
156.722810253
 20
84.2434967049
 10
156.7235879154
 20
84.2459251987
 10
156.72444306
 20
84.2483751489
 10
156.7253738182
 20
84.2508454448
 10
156.7263743405
 20
84.2533054365
 10
156.7274463542
 20
84.2557553008
 10
156.728588132
 20
84.2581948609
 10
156.729788643
 20
84.260592936
 10
156.7310442101
 20
84.2629391325
 10
156.7323585105
 20
84.2652438439
 10
156.733731544
 20
84.2675070703
  0
LINE
  5
4DA
100
AcDbEntity
  8
ASSI
100
AcDbLine
 62
7
  6
CONTINUOUS
 10
158.5566920499
 20
124.7938330394
 11
158.5567658866
 21
124.8000864939
  0
LWPOLYLINE
  5
4DB
100
AcDbEntity
  8
ASSI
100
AcDbPolyline
 62
253
  6
CONTINUOUS
 90
22
 70
0
 10
156.4425159882
 20
84.1938930531
 10
156.4426382844
 20
84.2024332937
 10
156.4430192694
 20
84.2114045882
 10
156.4436792274
 20
84.2208061087
 10
156.444639849
 20
84.2306484693
 10
156.4459204691
 20
84.2409115788
 10
156.4475338093
 20
84.2515421942
 10
156.4494952558
 20
84.2625259951
 10
156.4518192413
 20
84.2738450991
 10
156.454508337
 20
84.2854331048
 10
156.4575712337
 20
84.2972653147
 10
156.4610152021
 20
84.3093138932
 10
156.4648311829
 20
84.3215020729
 10
156.4690199877
 20
84.3337968572
 10
156.4735808966
 20
84.3461632714
 10
156.4784929972
 20
84.3585190664
 10
156.4837489693
 20
84.3708264198
 10
156.4893402682
 20
84.3830471233
 10
156.4952353761
 20
84.3950995835
 10
156.501412512
 20
84.4069324074
 10
156.5078630657
 20
84.4185222691
 10
156.5145705015
 20
84.4298316893
  0
LINE
  5
4DC
100
AcDbEntity
  8
ASSI
100
AcDbLine
 62
7
  6
CONTINUOUS
 10
158.5553358917
 20
124.7725347234
 11
158.5566920499
 21
124.7938330394
  0
LWPOLYLINE
  5
4DD
100
AcDbEntity
  8
ASSI
100
AcDbPolyline
 62
253
  6
CONTINUOUS
 90
8
 70
0
 10
154.238852208
 20
83.7342449631
 10
154.235029189
 20
83.691201621
 10
154.2268520419
 20
83.6504947932
 10
154.2144102011
 20
83.6125696953
 10
154.1978397447
 20
83.5778411188
 10
154.1773219057
 20
83.5466888944
 10
154.1530810903
 20
83.5194537378
 10
154.1244768829
 20
83.4957937535
  0
LWPOLYLINE
  5
4DE
100
AcDbEntity
  8
ASSI
100
AcDbPolyline
 62
7
  6
CONTINUOUS
 90
7
 70
0
 10
145.8290425838
 20
129.3594757038
 10
145.84710378
 20
129.3639925005
 10
145.8664417504
 20
129.366094186
 10
145.8866297969
 20
129.3657214937
 10
145.9073557619
 20
129.3629245597
 10
145.9284619646
 20
129.3577694173
 10
145.949717208
 20
129.3503431602
  0
LWPOLYLINE
  5
4DF
100
AcDbEntity
  8
RACCORDO
100
AcDbPolyline
 62
7
  6
CONTINUOUS
 90
16
 70
0
 10
150.175204115
 20
130.5834297574
 10
150.1367936046
 20
130.575273801
 10
150.0991240296
 20
130.5663058239
 10
150.0621953902
 20
130.5565258263
 10
150.0259540814
 20
130.5459160547
 10
149.9904537081
 20
130.5344942625
 10
149.9558550854
 20
130.5223137095
 10
149.9221662719
 20
130.5093734764
 10
149.889379209
 20
130.4956744826
 10
149.8576305366
 20
130.4812727456
 10
149.8270546232
 20
130.4662180152
 10
149.7975171003
 20
130.4504605417
 10
149.7687515013
 20
130.433907093
 10
149.7406690041
 20
130.4165265921
 10
149.7133584308
 20
130.398350116
 10
149.6868197815
 20
130.3793776649
  0
LWPOLYLINE
  5
4E0
100
AcDbEntity
  8
ASSI
100
AcDbPolyline
 62
7
  6
CONTINUOUS
 90
5
 70
0
 10
155.8459331515
 20
129.3389380037
 10
155.8074588017
 20
129.3355741825
 10
155.7698252461
 20
129.329104606
 10
155.7328872426
 20
129.3194384489
 10
155.6978705518
 20
129.3068429408
  0
LWPOLYLINE
  5
4E1
100
AcDbEntity
  8
ASSI
100
AcDbPolyline
 62
253
  6
CONTINUOUS
 90
8
 70
0
 10
154.1910712832
 20
124.8392498737
 10
154.1694504093
 20
124.8462279999
 10
154.1482335782
 20
124.8503131463
 10
154.1277836756
 20
124.8514354435
 10
154.108450469
 20
124.8495756974
 10
154.0905646271
 20
124.8447657181
 10
154.0744320636
 20
124.8370877759
 10
154.0612933813
 20
124.8275305507
  0
LWPOLYLINE
  5
4E2
100
AcDbEntity
  8
ASSI
100
AcDbPolyline
 62
7
  6
CONTINUOUS
 90
5
 70
0
 10
156.4930223266
 20
123.143528518
 10
156.4976549948
 20
123.1417318711
 10
156.5204861385
 20
123.134625574
 10
156.5441067547
 20
123.1301172698
 10
156.5688843983
 20
123.1282929236
  0
LWPOLYLINE
  5
4E3
100
AcDbEntity
  8
ASSI
100
AcDbPolyline
 62
7
  6
CONTINUOUS
 90
5
 70
0
 10
138.0621013301
 20
130.5458019056
 10
138.0667339983
 20
130.5440052587
 10
138.089565142
 20
130.5368989616
 10
138.1131857582
 20
130.5323906574
 10
138.1379634018
 20
130.5305663112
  0
LWPOLYLINE
  5
4E4
100
AcDbEntity
  8
ASSI
100
AcDbPolyline
 62
7
  6
CONTINUOUS
 90
6
 70
0
 10
141.9120638837
 20
128.9995687044
 10
141.9165327711
 20
128.9978318765
 10
141.9364707904
 20
128.9914480327
 10
141.9569811601
 20
128.9870570024
 10
141.9778371198
 20
128.9847095218
 10
141.9881750347
 20
128.9843111091
  0
LINE
  5
4E5
100
AcDbEntity
  8
ASSI
100
AcDbLine
 62
7
  6
CONTINUOUS
 10
159.3753147071
 20
119.7938891153
 11
159.3216918022
 21
119.8154252829
  0
LINE
  5
4E6
100
AcDbEntity
  8
ASSI
100
AcDbLine
 62
7
  6
CONTINUOUS
 10
155.3588169351
 20
122.4029496214
 11
155.1345812399
 21
122.4930077318
  0
LINE
  5
4E7
100
AcDbEntity
  8
ASSI
100
AcDbLine
 62
7
  6
CONTINUOUS
 10
140.7779105468
 20
128.2589703458
 11
140.5536748516
 21
128.3490284562
  0
LINE
  5
4E8
100
AcDbEntity
  8
ASSI
100
AcDbLine
 62
7
  6
CONTINUOUS
 10
136.9278959386
 20
129.805223009
 11
136.7036602434
 21
129.8952811194
  0
LINE
  5
4E9
100
AcDbEntity
  8
ASSI
100
AcDbLine
 62
7
  6
CONTINUOUS
 10
122.3469895503
 20
135.6612437334
 11
122.1227538551
 21
135.7513018438
  0
LINE
  5
4EA
100
AcDbEntity
  8
ASSI
100
AcDbLine
 62
7
  6
CONTINUOUS
 10
121.6385818099
 20
136.6888937303
 11
122.0161479642
 21
136.5372546507
  0
LINE
  5
4EB
100
AcDbEntity
  8
ASSI
100
AcDbLine
 62
7
  6
CONTINUOUS
 10
123.1361089567
 20
136.0874530672
 11
123.9783144681
 21
135.7492043467
  0
LINE
  5
4EC
100
AcDbEntity
  8
ASSI
100
AcDbLine
 62
7
  6
CONTINUOUS
 10
136.2194881983
 20
130.8328730059
 11
136.5970543525
 21
130.6812339263
  0
LINE
  5
4ED
100
AcDbEntity
  8
ASSI
100
AcDbLine
 62
7
  6
CONTINUOUS
 10
137.7170153451
 20
130.2314323428
 11
138.5592208565
 21
129.8931836223
  0
LINE
  5
4EE
100
AcDbEntity
  8
ASSI
100
AcDbLine
 62
7
  6
CONTINUOUS
 10
140.0695028064
 20
129.2866203427
 11
140.4470689607
 21
129.1349812632
  0
LINE
  5
4EF
100
AcDbEntity
  8
ASSI
100
AcDbLine
 62
7
  6
CONTINUOUS
 10
141.5670299532
 20
128.6851796796
 11
142.4092354646
 21
128.3469309591
  0
LINE
  5
4F0
100
AcDbEntity
  8
ASSI
100
AcDbLine
 62
7
  6
CONTINUOUS
 10
154.6504091948
 20
123.4305996183
 11
155.027975349
 21
123.2789605388
  0
LINE
  5
4F1
100
AcDbEntity
  8
ASSI
100
AcDbLine
 62
7
  6
CONTINUOUS
 10
156.1479363416
 20
122.8291589552
 11
156.990141853
 21
122.4909102347
  0
LINE
  5
4F2
100
AcDbEntity
  8
ASSI
100
AcDbLine
 62
7
  6
CONTINUOUS
 10
156.4930285685
 20
123.1435243289
 11
155.5631377991
 21
123.5169894073
  0
LINE
  5
4F3
100
AcDbEntity
  8
ASSI
100
AcDbLine
 62
7
  6
CONTINUOUS
 10
155.0307044499
 20
123.7308266438
 11
154.1008532444
 21
124.1042758509
  0
LINE
  5
4F4
100
AcDbEntity
  8
ASSI
100
AcDbLine
 62
7
  6
CONTINUOUS
 10
141.9122103281
 20
128.9995098173
 11
140.9822314108
 21
129.3730101317
  0
LINE
  5
4F5
100
AcDbEntity
  8
ASSI
100
AcDbLine
 62
7
  6
CONTINUOUS
 10
140.4497980616
 20
129.5868473682
 11
139.5199443026
 21
129.9602976008
  0
LINE
  5
4F6
100
AcDbEntity
  8
ASSI
100
AcDbLine
 62
7
  6
CONTINUOUS
 10
138.062107572
 20
130.5457977165
 11
137.1322168026
 21
130.9192627949
  0
LINE
  5
4F7
100
AcDbEntity
  8
ASSI
100
AcDbLine
 62
7
  6
CONTINUOUS
 10
136.5997834534
 20
131.1331000313
 11
135.6699322479
 21
131.5065492385
  0
LINE
  5
4F8
100
AcDbEntity
  8
ASSI
100
AcDbLine
 62
7
  6
CONTINUOUS
 10
123.4812893316
 20
136.4017832048
 11
122.5513104143
 21
136.7752835193
  0
LINE
  5
4F9
100
AcDbEntity
  8
ASSI
100
AcDbLine
 62
7
  6
CONTINUOUS
 10
122.0188770651
 20
136.9891207557
 11
121.0890233061
 21
137.3625709884
  0
LINE
  5
4FA
100
AcDbEntity
  8
ASSI
100
AcDbLine
 62
253
  6
CONTINUOUS
 10
156.4425159881
 20
123.25816857
 11
155.3588169351
 21
123.6934065411
  0
LINE
  5
4FB
100
AcDbEntity
  8
ASSI
100
AcDbLine
 62
253
  6
CONTINUOUS
 10
155.1345812399
 20
123.7834646516
 11
154.0508821869
 21
124.2187026227
  0
LINE
  5
4FC
100
AcDbEntity
  8
ASSI
100
AcDbLine
 62
253
  6
CONTINUOUS
 10
141.8616095998
 20
129.1141892944
 11
140.7779105468
 21
129.5494272655
  0
LINE
  5
4FD
100
AcDbEntity
  8
ASSI
100
AcDbLine
 62
253
  6
CONTINUOUS
 10
140.5536748516
 20
129.639485376
 11
139.4699757986
 21
130.0747233471
  0
LINE
  5
4FE
100
AcDbEntity
  8
ASSI
100
AcDbLine
 62
253
  6
CONTINUOUS
 10
138.0115949916
 20
130.6604419576
 11
136.9278959386
 21
131.0956799287
  0
LINE
  5
4FF
100
AcDbEntity
  8
ASSI
100
AcDbLine
 62
253
  6
CONTINUOUS
 10
136.7036602434
 20
131.1857380392
 11
135.6199611904
 21
131.6209760103
  0
LINE
  5
500
100
AcDbEntity
  8
ASSI
100
AcDbLine
 62
253
  6
CONTINUOUS
 10
123.4306886033
 20
136.516462682
 11
122.3469895503
 21
136.9517006531
  0
LINE
  5
501
100
AcDbEntity
  8
ASSI
100
AcDbLine
 62
253
  6
CONTINUOUS
 10
122.1227538551
 20
137.0417587636
 11
121.0390548021
 21
137.4769967347
  0
LWPOLYLINE
  5
502
100
AcDbEntity
  8
ASSI
100
AcDbPolyline
 62
7
  6
CONTINUOUS
 90
12
 70
0
 10
122.017384204
 20
136.9900611151
 10
122.0176549896
 20
136.9899507624
 10
122.0213322487
 20
136.9896927603
 10
122.0269327506
 20
136.9910555732
 10
122.0342282814
 20
136.9939326763
 10
122.043121392
 20
136.9978502835
 10
122.0534669683
 20
137.0028105515
 10
122.0650833745
 20
137.008916482
 10
122.0779342634
 20
137.0158586067
 10
122.0919376543
 20
137.0235664139
 10
122.106921901
 20
137.0321908566
 10
122.1227538551
 20
137.0417587636
  0
LWPOLYLINE
  5
503
100
AcDbEntity
  8
ASSI
100
AcDbPolyline
 62
7
  6
CONTINUOUS
 90
12
 70
0
 10
136.5982905924
 20
131.1340403907
 10
136.598561378
 20
131.133930038
 10
136.602238637
 20
131.1336720359
 10
136.6078391389
 20
131.1350348487
 10
136.6151346698
 20
131.1379119519
 10
136.6240277803
 20
131.1418295591
 10
136.6343733567
 20
131.1467898271
 10
136.6459897628
 20
131.1528957576
 10
136.6588406518
 20
131.1598378823
 10
136.6728440427
 20
131.1675456895
 10
136.6878282893
 20
131.1761701322
 10
136.7036602434
 20
131.1857380392
  0
LWPOLYLINE
  5
504
100
AcDbEntity
  8
ASSI
100
AcDbPolyline
 62
7
  6
CONTINUOUS
 90
12
 70
0
 10
140.4483052005
 20
129.5877877275
 10
140.4485759861
 20
129.5876773748
 10
140.4522532452
 20
129.5874193727
 10
140.4578537471
 20
129.5887821856
 10
140.4651492779
 20
129.5916592887
 10
140.4740423885
 20
129.5955768959
 10
140.4843879648
 20
129.6005371639
 10
140.496004371
 20
129.6066430944
 10
140.5088552599
 20
129.6135852191
 10
140.5228586508
 20
129.6212930263
 10
140.5378428975
 20
129.629917469
 10
140.5536748516
 20
129.639485376
  0
LWPOLYLINE
  5
505
100
AcDbEntity
  8
ASSI
100
AcDbPolyline
 62
7
  6
CONTINUOUS
 90
12
 70
0
 10
155.0292115889
 20
123.7317670031
 10
155.0294823745
 20
123.7316566504
 10
155.0331596335
 20
123.7313986483
 10
155.0387601354
 20
123.7327614612
 10
155.0460556663
 20
123.7356385643
 10
155.0549487768
 20
123.7395561715
 10
155.0652943532
 20
123.7445164395
 10
155.0769107593
 20
123.75062237
 10
155.0897616483
 20
123.7575644947
 10
155.1037650392
 20
123.7652723019
 10
155.1187492858
 20
123.7738967446
 10
155.1345812399
 20
123.7834646516
  0
LWPOLYLINE
  5
506
100
AcDbEntity
  8
ASSI
100
AcDbPolyline
 62
7
  6
CONTINUOUS
 90
12
 70
0
 10
122.5517926086
 20
136.7750911393
 10
122.5493026004
 20
136.7761142694
 10
122.526521591
 20
136.7867973312
 10
122.5040583081
 20
136.7995455352
 10
122.4819739461
 20
136.8140924722
 10
122.4605189448
 20
136.8302140163
 10
122.4397144832
 20
136.8477530734
 10
122.4195180257
 20
136.8665438501
 10
122.4001332554
 20
136.8864562277
 10
122.3816318227
 20
136.9073762892
 10
122.3639245302
 20
136.9291674979
 10
122.3469895503
 20
136.9517006531
  0
LWPOLYLINE
  5
507
100
AcDbEntity
  8
ASSI
100
AcDbPolyline
 62
7
  6
CONTINUOUS
 90
12
 70
0
 10
137.1326989969
 20
130.9190704149
 10
137.1302089887
 20
130.920093545
 10
137.1074279793
 20
130.9307766068
 10
137.0849646964
 20
130.9435248108
 10
137.0628803344
 20
130.9580717478
 10
137.0414253332
 20
130.9741932919
 10
137.0206208716
 20
130.991732349
 10
137.000424414
 20
131.0105231257
 10
136.9810396438
 20
131.0304355033
 10
136.962538211
 20
131.0513555648
 10
136.9448309185
 20
131.0731467735
 10
136.9278959386
 20
131.0956799287
  0
LWPOLYLINE
  5
508
100
AcDbEntity
  8
ASSI
100
AcDbPolyline
 62
7
  6
CONTINUOUS
 90
12
 70
0
 10
140.9827136051
 20
129.3728177518
 10
140.9802235969
 20
129.3738408818
 10
140.9574425875
 20
129.3845239436
 10
140.9349793046
 20
129.3972721476
 10
140.9128949426
 20
129.4118190846
 10
140.8914399413
 20
129.4279406287
 10
140.8706354797
 20
129.4454796859
 10
140.8504390222
 20
129.4642704625
 10
140.8310542519
 20
129.4841828401
 10
140.8125528192
 20
129.5051029016
 10
140.7948455267
 20
129.5268941103
 10
140.7779105468
 20
129.5494272655
  0
LWPOLYLINE
  5
509
100
AcDbEntity
  8
ASSI
100
AcDbPolyline
 62
7
  6
CONTINUOUS
 90
12
 70
0
 10
155.5636199934
 20
123.5167970274
 10
155.5611299852
 20
123.5178201574
 10
155.5383489758
 20
123.5285032192
 10
155.515885693
 20
123.5412514232
 10
155.4938013309
 20
123.5557983602
 10
155.4723463297
 20
123.5719199043
 10
155.4515418681
 20
123.5894589615
 10
155.4313454105
 20
123.6082497381
 10
155.4119606403
 20
123.6281621157
 10
155.3934592075
 20
123.6490821772
 10
155.375751915
 20
123.6708733859
 10
155.3588169351
 20
123.6934065411
  0
LWPOLYLINE
  5
50A
100
AcDbEntity
  8
ASSI
100
AcDbPolyline
 62
253
  6
CONTINUOUS
 90
18
 70
0
 10
123.4811397585
 20
136.4018430972
 10
123.4774779798
 20
136.403470601
 10
123.4726055738
 20
136.406153747
 10
123.4678644462
 20
136.4094070888
 10
123.4632798695
 20
136.4132543522
 10
123.4588949717
 20
136.417699159
 10
123.4547333522
 20
136.4227556347
 10
123.4508191766
 20
136.4284357168
 10
123.4471903823
 20
136.434724108
 10
123.4438677575
 20
136.4416219474
 10
123.4408718218
 20
136.4491280221
 10
123.438232108
 20
136.4572077884
 10
123.435964247
 20
136.4658490094
 10
123.4340828971
 20
136.4750375928
 10
123.4326066418
 20
136.4847218009
 10
123.4315451074
 20
136.4948657739
 10
123.4309036802
 20
136.5054551689
 10
123.4306886033
 20
136.516462682
  0
LWPOLYLINE
  5
50B
100
AcDbEntity
  8
ASSI
100
AcDbPolyline
 62
253
  6
CONTINUOUS
 90
18
 70
0
 10
141.912060755
 20
128.9995697096
 10
141.9083989763
 20
129.0011972134
 10
141.9035265703
 20
129.0038803594
 10
141.8987854427
 20
129.0071337012
 10
141.894200866
 20
129.0109809646
 10
141.8898159682
 20
129.0154257714
 10
141.8856543487
 20
129.0204822471
 10
141.8817401731
 20
129.0261623292
 10
141.8781113788
 20
129.0324507204
 10
141.874788754
 20
129.0393485598
 10
141.8717928183
 20
129.0468546345
 10
141.8691531045
 20
129.0549344008
 10
141.8668852435
 20
129.0635756218
 10
141.8650038936
 20
129.0727642053
 10
141.8635276383
 20
129.0824484133
 10
141.8624661039
 20
129.0925923863
 10
141.8618246767
 20
129.1031817813
 10
141.8616095998
 20
129.1141892944
  0
LWPOLYLINE
  5
50C
100
AcDbEntity
  8
ASSI
100
AcDbPolyline
 62
253
  6
CONTINUOUS
 90
7
 70
0
 10
135.6199611904
 20
131.6209760103
 10
135.5997730405
 20
131.6302556624
 10
135.5818421894
 20
131.6409523996
 10
135.5664686683
 20
131.6528872366
 10
135.5539097172
 20
131.6658604712
 10
135.5443754811
 20
131.6796550263
 10
135.538025493
 20
131.6940400816
  0
LWPOLYLINE
  5
50D
100
AcDbEntity
  8
ASSI
100
AcDbPolyline
 62
253
  6
CONTINUOUS
 90
9
 70
0
 10
135.6199611904
 20
131.9210727341
 10
135.5997730443
 20
131.9303523842
 10
135.5818421954
 20
131.9410491193
 10
135.5664686751
 20
131.9529839543
 10
135.5539097237
 20
131.9659571871
 10
135.5443754863
 20
131.9797517409
 10
135.5380254962
 20
131.9941367955
 10
135.5349660059
 20
132.0088716504
 10
135.5346764931
 20
132.0149969899
  0
LWPOLYLINE
  5
50E
100
AcDbEntity
  8
ASSI
100
AcDbPolyline
 62
253
  6
CONTINUOUS
 90
13
 70
0
 10
123.5722825807
 20
137.1364457011
 10
123.5934152922
 20
137.1262530267
 10
123.6142207997
 20
137.1134610626
 10
123.634343253
 20
137.098288598
 10
123.6534384847
 20
137.0809951376
 10
123.6711798966
 20
137.0618764626
 10
123.6872640457
 20
137.0412595722
 10
123.7014158343
 20
137.0194970906
 10
123.7133932153
 20
136.9969612356
 10
123.7229913316
 20
136.9740374526
 10
123.7300460204
 20
136.9511178221
 10
123.7344366207
 20
136.9285943534
 10
123.7360880373
 20
136.9068522801
  0
LWPOLYLINE
  5
50F
100
AcDbEntity
  8
ASSI
100
AcDbPolyline
 62
253
  6
CONTINUOUS
 90
11
 70
0
 10
121.089027601
 20
137.3625692635
 10
121.0808444978
 20
137.3666775984
 10
121.072435812
 20
137.3729091202
 10
121.0648586254
 20
137.3808292544
 10
121.0581706038
 20
137.3903776608
 10
121.0524228685
 20
137.4014814752
 10
121.0476594434
 20
137.4140562347
 10
121.0439163897
 20
137.4280061379
 10
121.0412221744
 20
137.4432249011
 10
121.0395975106
 20
137.4595966483
 10
121.0390548021
 20
137.4769967347
  0
LWPOLYLINE
  5
510
100
AcDbEntity
  8
ASSI
100
AcDbPolyline
 62
253
  6
CONTINUOUS
 90
11
 70
0
 10
139.5199485975
 20
129.9602958759
 10
139.5117654943
 20
129.9644042108
 10
139.5033568085
 20
129.9706357326
 10
139.4957796219
 20
129.9785558668
 10
139.4890916003
 20
129.9881042732
 10
139.483343865
 20
129.9992080876
 10
139.4785804399
 20
130.0117828471
 10
139.4748373862
 20
130.0257327504
 10
139.4721431709
 20
130.0409515135
 10
139.4705185071
 20
130.0573232608
 10
139.4699757986
 20
130.0747233471
  0
LWPOLYLINE
  5
511
100
AcDbEntity
  8
ASSI
100
AcDbPolyline
 62
253
  6
CONTINUOUS
 90
3
 70
0
 10
135.6605973806
 20
131.511379702
 10
135.6661551566
 20
131.5082347441
 10
135.6699204771
 20
131.5065539677
  0
LWPOLYLINE
  5
512
100
AcDbEntity
  8
ASSI
100
AcDbPolyline
 62
7
  6
CONTINUOUS
 90
3
 70
0
 10
135.6242592917
 20
131.5318688257
 10
135.6461983452
 20
131.5178499469
 10
135.6701739104
 20
131.5064532473
  0
LWPOLYLINE
  5
513
100
AcDbEntity
  8
ASSI
100
AcDbPolyline
 62
7
  6
CONTINUOUS
 90
4
 70
0
 10
139.4729493187
 20
129.9865903174
 10
139.4942324054
 20
129.9727108609
 10
139.5165211243
 20
129.961709538
 10
139.5201802523
 20
129.9602052077
  0
LWPOLYLINE
  5
514
100
AcDbEntity
  8
RACCORDO
100
AcDbPolyline
 62
253
  6
CONTINUOUS
 90
3
 70
0
 10
153.2931985827
 20
132.1004155207
 10
153.3000647924
 20
132.0673914541
 10
153.3052253477
 20
132.0320394
  0
LWPOLYLINE
  5
515
100
AcDbEntity
  8
ASSI
100
AcDbPolyline
 62
253
  6
CONTINUOUS
 90
3
 70
0
 10
153.9689464895
 20
124.291766694
 10
153.9658870015
 20
124.3065015488
 10
153.9655974742
 20
124.3126718854
  0
LWPOLYLINE
  5
516
100
AcDbEntity
  8
ASSI
100
AcDbPolyline
 62
253
  6
CONTINUOUS
 90
13
 70
0
 10
158.495097404
 20
125.075030791
 10
158.4939341269
 20
125.0971727248
 10
158.4899548322
 20
125.1200331153
 10
158.4832275802
 20
125.1432209664
 10
158.4738674316
 20
125.1663396811
 10
158.4620344791
 20
125.1889938449
 10
158.4479311093
 20
125.210795989
 10
158.4317985415
 20
125.2313732171
 10
158.4139127013
 20
125.2503735833
 10
158.394579502
 20
125.2674721121
 10
158.3741296118
 20
125.2823763561
 10
158.3529127986
 20
125.2948313983
 10
158.3312919473
 20
125.304624212
  0
LWPOLYLINE
  5
517
100
AcDbEntity
  8
ASSI
100
AcDbPolyline
 62
7
  6
CONTINUOUS
 90
13
 70
0
 10
158.5567654097
 20
125.1215972893
 10
158.5557057271
 20
125.1448359252
 10
158.5524171598
 20
125.168143811
 10
158.546793498
 20
125.1911314934
 10
158.5388483269
 20
125.2133808379
 10
158.5285054352
 20
125.2348427268
 10
158.5158397798
 20
125.2551271009
 10
158.5010138317
 20
125.273874972
 10
158.4841798766
 20
125.2908596332
 10
158.4655462402
 20
125.3058446072
 10
158.4453781411
 20
125.3186098015
 10
158.4239721701
 20
125.3289807921
 10
158.4215660187
 20
125.329965356
  0
LWPOLYLINE
  5
518
100
AcDbEntity
  8
ASSI
100
AcDbPolyline
 62
253
  6
CONTINUOUS
 90
11
 70
0
 10
158.5225732708
 20
125.0574438609
 10
158.5224100839
 20
125.0616100128
 10
158.521963894
 20
125.0654026731
 10
158.521234701
 20
125.068821842
 10
158.520208844
 20
125.0718960829
 10
158.518899984
 20
125.0745968322
 10
158.5173491033
 20
125.0768383996
 10
158.5155483844
 20
125.0786060213
 10
158.5135056448
 20
125.079914461
 10
158.5112853199
 20
125.080722319
 10
158.5088816861
 20
125.0810137088
  0
LINE
  5
519
100
AcDbEntity
  8
ASSI
100
AcDbLine
 62
7
  6
CONTINUOUS
 10
158.5567657563
 20
85.4142276055
 11
158.5567657563
 21
85.7357719057
  0
LINE
  5
51A
100
AcDbEntity
  8
ASSI
100
AcDbLine
 62
7
  6
CONTINUOUS
 10
158.5567657563
 20
124.8000475835
 11
158.5567657563
 21
125.1215918967
  0
LINE
  5
51B
100
AcDbEntity
  8
ASSI
100
AcDbLine
 62
7
  6
CONTINUOUS
 10
159.0420527601
 20
87.2075307197
 11
159.0420527601
 21
89.9231557443
  0
LINE
  5
51C
100
AcDbEntity
  8
ASSI
100
AcDbLine
 62
7
  6
CONTINUOUS
 10
159.0420527601
 20
120.3422932916
 11
159.0420527601
 21
123.0579183162
  0
LINE
  5
51D
100
AcDbEntity
  8
ASSI
100
AcDbLine
 62
7
  6
CONTINUOUS
 10
159.3216918022
 20
90.1639114554
 11
159.3216918022
 21
90.819890534
  0
LINE
  5
51E
100
AcDbEntity
  8
ASSI
100
AcDbLine
 62
7
  6
CONTINUOUS
 10
159.3216918022
 20
119.8154252829
 11
159.3216918022
 21
120.5771264314
  0
LINE
  5
51F
100
AcDbEntity
  8
ASSI
100
AcDbLine
 62
7
  6
CONTINUOUS
 10
159.3753147071
 20
90.9040764365
 11
159.3753147071
 21
119.7938891153
  0
LINE
  5
520
100
AcDbEntity
  8
RACCORDO
100
AcDbLine
 62
7
  6
CONTINUOUS
 10
159.3840969326
 20
90.5010288144
 11
159.3840969326
 21
120.1898824579
  0
LWPOLYLINE
  5
521
100
AcDbEntity
  8
ASSI
100
AcDbPolyline
 62
253
  6
CONTINUOUS
 90
6
 70
0
 10
158.495097404
 20
85.2857638327
 10
158.4939341576
 20
85.2651523271
 10
158.4899549158
 20
85.2459904832
 10
158.4832277303
 20
85.2286060402
 10
158.4738676539
 20
85.2132963404
 10
158.4610855476
 20
85.1994794173
  0
LWPOLYLINE
  5
522
100
AcDbEntity
  8
RACCORDO
100
AcDbPolyline
 62
253
  6
CONTINUOUS
 90
46
 70
0
 10
162.4574307056
 20
127.3376166527
 10
162.4597291655
 20
127.3536147876
 10
162.4614408274
 20
127.369731859
 10
162.4625636056
 20
127.3859482308
 10
162.4630961324
 20
127.4022441459
 10
162.463037759
 20
127.4185997502
 10
162.4623885563
 20
127.4349951168
 10
162.4611493155
 20
127.4514102707
 10
162.4593215462
 20
127.4678252123
 10
162.4569074755
 20
127.4842199427
 10
162.4539100444
 20
127.5005744874
 10
162.4503329049
 20
127.5168689209
 10
162.4461804151
 20
127.533083391
 10
162.4414576343
 20
127.5491981427
 10
162.4361703164
 20
127.5651935428
 10
162.4303249032
 20
127.5810501034
 10
162.4239285164
 20
127.5967485056
 10
162.4169889491
 20
127.6122696234
 10
162.409514656
 20
127.6275945466
 10
162.4015147435
 20
127.6427046043
 10
162.3929989581
 20
127.6575813871
 10
162.3839776751
 20
127.67220677
 10
162.3744618856
 20
127.6865629342
 10
162.3644631829
 20
127.700632389
 10
162.3539937491
 20
127.7143979928
 10
162.3430663395
 20
127.7278429743
 10
162.3316942674
 20
127.7409509531
 10
162.3198913881
 20
127.7537059589
 10
162.3076720815
 20
127.7660924519
 10
162.2950512349
 20
127.7780953409
 10
162.2820442249
 20
127.7897000024
 10
162.2686668985
 20
127.8008922977
 10
162.254935554
 20
127.8116585909
 10
162.2408669208
 20
127.8219857648
 10
162.2264781395
 20
127.8318612374
 10
162.2117867406
 20
127.8412729769
 10
162.1968106232
 20
127.8502095167
 10
162.1815680334
 20
127.8586599688
 10
162.1660775421
 20
127.8666140378
 10
162.150358022
 20
127.8740620328
 10
162.1344286248
 20
127.8809948796
 10
162.1183087582
 20
127.8874041316
 10
162.1020180616
 20
127.89328198
 10
162.0855763828
 20
127.8986212638
 10
162.0690037535
 20
127.9034154777
 10
162.0523203648
 20
127.9076587807
  0
LINE
  5
523
100
AcDbEntity
  8
0
100
AcDbLine
 62
7
  6
CONTINUOUS
 10
162.6034838231
 20
127.6812328834
 11
162.481518361
 21
126.9312583573
  0
LWPOLYLINE
  5
524
100
AcDbEntity
  8
RACCORDO
100
AcDbPolyline
 62
253
  6
CONTINUOUS
 90
13
 70
0
 10
162.1853715698
 20
128.2260780036
 10
162.1816845766
 20
128.2034824838
 10
162.1758784112
 20
128.1754486131
 10
162.168876031
 20
128.1476277364
 10
162.1606764936
 20
128.1200198824
 10
162.1512807415
 20
128.0926250225
 10
162.1406959364
 20
128.0654646896
 10
162.1289211673
 20
128.0385391
 10
162.1159573453
 20
128.0118480373
 10
162.1018143646
 20
127.9854123856
 10
162.0864955234
 20
127.9592391063
 10
162.0699975234
 20
127.933321238
 10
162.0523203648
 20
127.9076587807
  0
LINE
  5
525
100
AcDbEntity
  8
RACCORDO
100
AcDbLine
 62
253
  6
CONTINUOUS
 10
162.2813469148
 20
127.0853936251
 11
162.2697550786
 21
127.0163072656
  0
LINE
  5
526
100
AcDbEntity
  8
RACCORDO
100
AcDbLine
 62
253
  6
CONTINUOUS
 10
162.335789691
 20
127.1198214563
 11
162.3152848172
 21
126.9980214961
  0
LWPOLYLINE
  5
527
100
AcDbEntity
  8
RACCORDO
100
AcDbPolyline
 62
253
  6
CONTINUOUS
 90
12
 70
0
 10
162.6034838231
 20
127.6812328834
 10
162.598707429
 20
127.6548639446
 10
162.5913297153
 20
127.6218397748
 10
162.5824430408
 20
127.5890786786
 10
162.5720500017
 20
127.5565905018
 10
162.560153552
 20
127.5243847375
 10
162.5467570313
 20
127.4924707409
 10
162.5318644215
 20
127.4608582769
 10
162.5154803622
 20
127.429557314
 10
162.4976098246
 20
127.3985773486
 10
162.4782580235
 20
127.3679274202
 10
162.4574307056
 20
127.3376166527
  0
LWPOLYLINE
  5
528
100
AcDbEntity
  8
ASSI
100
AcDbPolyline
 62
7
  6
CONTINUOUS
 90
4
 70
0
 10
141.2803636681
 20
132.1742505405
 10
141.2584732331
 20
132.168261475
 10
141.237441056
 20
132.1601159638
 10
141.2173642043
 20
132.1499328146
  0
LWPOLYLINE
  5
529
100
AcDbEntity
  8
ASSI
100
AcDbPolyline
 62
7
  6
CONTINUOUS
 90
6
 70
0
 10
149.3485141718
 20
131.9540133905
 10
149.3109199904
 20
131.9517887242
 10
149.2739793306
 20
131.9466155321
 10
149.2375602143
 20
131.9384114945
 10
149.2027784161
 20
131.9273827377
 10
149.1697602921
 20
131.9135962394
  0
LWPOLYLINE
  5
52A
100
AcDbEntity
  8
ASSI
100
AcDbPolyline
 62
253
  6
CONTINUOUS
 90
11
 70
0
 10
141.9881750347
 20
128.9843111093
 10
141.9997685421
 20
128.9846030219
 10
142.0220112037
 20
128.9877288057
 10
142.043729494
 20
128.9941806087
 10
142.0645559184
 20
129.0038492603
 10
142.0841380737
 20
129.0165711575
 10
142.1021446111
 20
129.0321310335
 10
142.1182708423
 20
129.0502656003
 10
142.1322438961
 20
129.0706680034
 10
142.1438273349
 20
129.0929930144
 10
142.1528251556
 20
129.1168628727
  0
LINE
  5
52B
100
AcDbEntity
  8
ASSI
100
AcDbLine
 62
7
  6
CONTINUOUS
 10
142.5153459604
 20
128.9763893267
 11
141.9880167338
 21
128.9843134034
  0
LINE
  5
52C
100
AcDbEntity
  8
ASSI
100
AcDbLine
 62
253
  6
CONTINUOUS
 10
142.7548838223
 20
129.1078158508
 11
142.1528251556
 21
129.1168628727
  0
LINE
  5
52D
100
AcDbEntity
  8
ASSI
100
AcDbLine
 62
7
  6
CONTINUOUS
 10
138.1380021256
 20
130.5305660666
 11
138.6655245431
 21
130.5226390868
  0
LINE
  5
52E
100
AcDbEntity
  8
ASSI
100
AcDbLine
 62
253
  6
CONTINUOUS
 10
138.3028105475
 20
130.6631155358
 11
138.9048692142
 21
130.6540685139
  0
LWPOLYLINE
  5
52F
100
AcDbEntity
  8
DRAFT
100
AcDbPolyline
 62
7
  6
CONTINUOUS
 90
10
 70
0
 10
150.5818145184
 20
130.1263569217
 10
150.6472594797
 20
130.1235619622
 10
150.7117613445
 20
130.1184724537
 10
150.7753201128
 20
130.1110883961
 10
150.8381814929
 20
130.1013621071
 10
150.9000997765
 20
130.089341269
 10
150.9603378387
 20
130.0751689297
 10
151.0186499713
 20
130.0588927718
 10
151.0752818825
 20
130.0404651127
 10
151.1302335723
 20
130.0198859524
  0
LWPOLYLINE
  5
530
100
AcDbEntity
  8
ASSI
100
AcDbPolyline
 62
253
  6
CONTINUOUS
 90
22
 70
0
 10
142.1528251556
 20
129.1168628727
 10
142.151780438
 20
129.116907718
 10
142.150743683
 20
129.1170506409
 10
142.1497148906
 20
129.1172916415
 10
142.1486877522
 20
129.1176256178
 10
142.1476685765
 20
129.1180576717
 10
142.1466762893
 20
129.1186031088
 10
142.1457109869
 20
129.119264369
 10
142.144772573
 20
129.1200390123
 10
142.1438796841
 20
129.1209350239
 10
142.1430329533
 20
129.1219552802
 10
142.1422317476
 20
129.1230969047
 10
142.1414928048
 20
129.1243592532
 10
142.1408172861
 20
129.1257453151
 10
142.1402040303
 20
129.1272521011
 10
142.1396662918
 20
129.1288699987
 10
142.1392056719
 20
129.1306017631
 10
142.1388205692
 20
129.1324446391
 10
142.1385194342
 20
129.1343807488
 10
142.1383050838
 20
129.136404133
 10
142.138174701
 20
129.1385207508
 10
142.1381282859
 20
129.1407306024
  0
LWPOLYLINE
  5
531
100
AcDbEntity
  8
DRAFT
100
AcDbPolyline
 62
7
  6
CONTINUOUS
 90
16
 70
0
 10
150.6904245377
 20
129.2170640959
 10
150.6138973538
 20
129.2217833663
 10
150.5365740256
 20
129.2230940902
 10
150.4597005219
 20
129.2209923829
 10
150.3830192047
 20
129.2153472497
 10
150.3067877121
 20
129.2062896853
 10
150.2330249268
 20
129.1942087899
 10
150.1621136756
 20
129.1790547597
 10
150.0936711318
 20
129.1608773985
 10
150.0285676971
 20
129.140215218
 10
149.9669160356
 20
129.1169612165
 10
149.9086034832
 20
129.0912223957
 10
149.8541624505
 20
129.0638582719
 10
149.8037704076
 20
129.0351553506
 10
149.7572498843
 20
129.0048271263
 10
149.7146008806
 20
128.972873599
  0
LWPOLYLINE
  5
532
100
AcDbEntity
  8
ASSI
100
AcDbPolyline
 62
253
  6
CONTINUOUS
 90
8
 70
0
 10
158.4215091621
 20
125.3299882002
 10
158.413870338
 20
125.3324246851
 10
158.4015727361
 20
125.3340177694
 10
158.3884959486
 20
125.3330793334
 10
158.3747820563
 20
125.3296211582
 10
158.3605795472
 20
125.3236826841
 10
158.3460411339
 20
125.3153284745
 10
158.3313233314
 20
125.3046493178
  0
LWPOLYLINE
  5
533
100
AcDbEntity
  8
ASSI
100
AcDbPolyline
 62
253
  6
CONTINUOUS
 90
8
 70
0
 10
135.7601502867
 20
132.2415232613
 10
135.7385294128
 20
132.2485013875
 10
135.7173125817
 20
132.2525865339
 10
135.6968626791
 20
132.2537088311
 10
135.6775294725
 20
132.251849085
 10
135.6596436306
 20
132.2470391057
 10
135.6435110671
 20
132.2393611635
 10
135.6303723848
 20
132.2298039383
  0
LWPOLYLINE
  5
534
100
AcDbEntity
  8
ASSI
100
AcDbPolyline
 62
253
  6
CONTINUOUS
 90
10
 70
0
 10
150.0804820495
 20
127.474488531
 10
150.0589060151
 20
127.4817839262
 10
150.0375823227
 20
127.4867792466
 10
150.0167449087
 20
127.4894185534
 10
149.9966212084
 20
127.4896716987
 10
149.9774339959
 20
127.4875339005
 10
149.9593980696
 20
127.4830278109
 10
149.9427122649
 20
127.4762034198
 10
149.927558037
 20
127.4671354863
 10
149.9188551917
 20
127.4602992419
  0
LWPOLYLINE
  5
535
100
AcDbEntity
  8
ASSI
100
AcDbPolyline
 62
253
  6
CONTINUOUS
 90
10
 70
0
 10
131.649561053
 20
134.8767619186
 10
131.6279850186
 20
134.8840573138
 10
131.6066613262
 20
134.8890526342
 10
131.5858239122
 20
134.891691941
 10
131.5657002119
 20
134.8919450862
 10
131.5465129994
 20
134.889807288
 10
131.5284770731
 20
134.8853011985
 10
131.5117912683
 20
134.8784768074
 10
131.4966370405
 20
134.8694088739
 10
131.4879341952
 20
134.8625726295
  0
LWPOLYLINE
  5
536
100
AcDbEntity
  8
ASSI
100
AcDbPolyline
 62
253
  6
CONTINUOUS
 90
10
 70
0
 10
127.3490128204
 20
136.6039590423
 10
127.3274367861
 20
136.6112544375
 10
127.3061130937
 20
136.616249758
 10
127.2852756796
 20
136.6188890648
 10
127.2651519794
 20
136.61914221
 10
127.2459647669
 20
136.6170044118
 10
127.2279288406
 20
136.6124983223
 10
127.2112430358
 20
136.6056739311
 10
127.196088808
 20
136.5966059977
 10
127.1873859627
 20
136.5897697533
  0
LWPOLYLINE
  5
537
100
AcDbEntity
  8
ASSI
100
AcDbPolyline
 62
253
  6
CONTINUOUS
 90
16
 70
0
 10
149.9678166361
 20
127.2183352044
 10
149.9634596501
 20
127.2198406355
 10
149.9592404458
 20
127.2208669124
 10
149.9551590232
 20
127.2214140349
 10
149.9511739329
 20
127.2214774268
 10
149.9473266243
 20
127.2210616645
 10
149.9437414455
 20
127.2201804768
 10
149.9404270429
 20
127.2188187796
 10
149.93737477
 20
127.2169916571
 10
149.934683036
 20
127.2147580907
 10
149.9323637361
 20
127.2121047226
 10
149.930404975
 20
127.2090449107
 10
149.9288694758
 20
127.20567771
 10
149.927778146
 20
127.2020361391
 10
149.9271100781
 20
127.1980871795
 10
149.9268652719
 20
127.1938308313
  0
LWPOLYLINE
  5
538
100
AcDbEntity
  8
ASSI
100
AcDbPolyline
 62
253
  6
CONTINUOUS
 90
16
 70
0
 10
131.5368956396
 20
134.620608592
 10
131.5325386536
 20
134.6221140231
 10
131.5283194493
 20
134.6231403
 10
131.5242380267
 20
134.6236874225
 10
131.5202529364
 20
134.6237508144
 10
131.5164056278
 20
134.6233350521
 10
131.512820449
 20
134.6224538644
 10
131.5095060463
 20
134.6210921672
 10
131.5064537735
 20
134.6192650447
 10
131.5037620395
 20
134.6170314783
 10
131.5014427396
 20
134.6143781102
 10
131.4994839785
 20
134.6113182982
 10
131.4979484792
 20
134.6079510976
 10
131.4968571495
 20
134.6043095267
 10
131.4961890816
 20
134.6003605671
 10
131.4959442754
 20
134.5961042189
  0
LWPOLYLINE
  5
539
100
AcDbEntity
  8
ASSI
100
AcDbPolyline
 62
253
  6
CONTINUOUS
 90
16
 70
0
 10
127.2363474071
 20
136.3478057157
 10
127.2319904211
 20
136.3493111469
 10
127.2277712168
 20
136.3503374237
 10
127.2236897942
 20
136.3508845463
 10
127.2197047039
 20
136.3509479382
 10
127.2158573953
 20
136.3505321758
 10
127.2122722165
 20
136.3496509881
 10
127.2089578138
 20
136.348289291
 10
127.205905541
 20
136.3464621684
 10
127.2032138069
 20
136.3442286021
 10
127.2008945071
 20
136.341575234
 10
127.198935746
 20
136.338515422
 10
127.1974002467
 20
136.3351482214
 10
127.196308917
 20
136.3315066505
 10
127.195640849
 20
136.3275576909
 10
127.1953960429
 20
136.3233013426
  0
LWPOLYLINE
  5
53A
100
AcDbEntity
  8
ASSI
100
AcDbPolyline
 62
253
  6
CONTINUOUS
 90
13
 70
0
 10
141.8616095998
 20
129.1141892944
 10
141.8837172412
 20
129.1064820027
 10
141.9073744575
 20
129.1004760333
 10
141.9321854
 20
129.096271882
 10
141.9577349149
 20
129.0939398957
 10
141.9835954899
 20
129.0935190948
 10
142.0093344082
 20
129.0950165204
 10
142.0345209885
 20
129.0984071165
 10
142.0587337914
 20
129.1036341494
 10
142.0815676718
 20
129.1106101567
 10
142.1026405573
 20
129.1192184111
 10
142.121599842
 20
129.1293148733
 10
142.1381282859
 20
129.1407306024
  0
LWPOLYLINE
  5
53B
100
AcDbEntity
  8
ASSI
100
AcDbPolyline
 62
253
  6
CONTINUOUS
 90
13
 70
0
 10
141.8616095998
 20
129.4142860182
 10
141.8837172463
 20
129.406578725
 10
141.9073744675
 20
129.4005727549
 10
141.9321854141
 20
129.3963686039
 10
141.9577349321
 20
129.3940366186
 10
141.9835955091
 20
129.393615819
 10
142.0093344279
 20
129.395113246
 10
142.0345210071
 20
129.3985038435
 10
142.0587338077
 20
129.4037308774
 10
142.0815676846
 20
129.410706885
 10
142.102640566
 20
129.419315139
 10
142.1215998462
 20
129.4294115997
 10
142.1381282859
 20
129.4408273262
  0
LWPOLYLINE
  5
53C
100
AcDbEntity
  8
ASSI
100
AcDbPolyline
 62
253
  6
CONTINUOUS
 90
13
 70
0
 10
152.5804804927
 20
126.1280791343
 10
152.6025880158
 20
126.1203719052
 10
152.6262451202
 20
126.1143659706
 10
152.6510559659
 20
126.1101618298
 10
152.6766054029
 20
126.1078298337
 10
152.7024659269
 20
126.1074090073
 10
152.7282048326
 20
126.1089063982
 10
152.7533914439
 20
126.1122969584
 10
152.777604312
 20
126.1175239616
 10
152.8004382775
 20
126.1244999508
 10
152.8215112584
 20
126.133108202
 10
152.8404706422
 20
126.1432046789
 10
152.8569991788
 20
126.1546204422
  0
LWPOLYLINE
  5
53D
100
AcDbEntity
  8
ASSI
100
AcDbPolyline
 62
253
  6
CONTINUOUS
 90
13
 70
0
 10
123.4306886033
 20
136.516462682
 10
123.4527962447
 20
136.5087553903
 10
123.476453461
 20
136.5027494208
 10
123.5012644035
 20
136.4985452696
 10
123.5268139184
 20
136.4962132833
 10
123.5526744934
 20
136.4957924824
 10
123.5784134117
 20
136.497289908
 10
123.603599992
 20
136.5006805041
 10
123.6278127949
 20
136.505907537
 10
123.6506466753
 20
136.5128835443
 10
123.6717195608
 20
136.5214917987
 10
123.6906788455
 20
136.5315882609
 10
123.7072072894
 20
136.54300399
  0
LWPOLYLINE
  5
53E
100
AcDbEntity
  8
ASSI
100
AcDbPolyline
 62
253
  6
CONTINUOUS
 90
13
 70
0
 10
123.4306886033
 20
136.8165594058
 10
123.4527962498
 20
136.8088521126
 10
123.476453471
 20
136.8028461425
 10
123.5012644176
 20
136.7986419915
 10
123.5268139356
 20
136.7963100061
 10
123.5526745126
 20
136.7958892065
 10
123.5784134314
 20
136.7973866336
 10
123.6036000106
 20
136.8007772311
 10
123.6278128112
 20
136.806004265
 10
123.6506466881
 20
136.8129802726
 10
123.6717195695
 20
136.8215885265
 10
123.6906788497
 20
136.8316849873
 10
123.7072072894
 20
136.8431007138
  0
LWPOLYLINE
  5
53F
100
AcDbEntity
  8
ASSI
100
AcDbPolyline
 62
253
  6
CONTINUOUS
 90
13
 70
0
 10
134.1495594962
 20
133.5303525219
 10
134.1716670192
 20
133.5226452928
 10
134.1953241237
 20
133.5166393582
 10
134.2201349694
 20
133.5124352173
 10
134.2456844064
 20
133.5101032213
 10
134.2715449304
 20
133.5096823949
 10
134.2972838361
 20
133.5111797858
 10
134.3224704474
 20
133.514570346
 10
134.3466833155
 20
133.5197973492
 10
134.369517281
 20
133.5267733384
 10
134.3905902618
 20
133.5353815896
 10
134.4095496457
 20
133.5454780665
 10
134.4260781823
 20
133.5568938297
  0
LWPOLYLINE
  5
540
100
AcDbEntity
  8
ASSI
100
AcDbPolyline
 62
253
  6
CONTINUOUS
 90
13
 70
0
 10
129.8490112637
 20
135.2575496456
 10
129.8711187867
 20
135.2498424166
 10
129.8947758912
 20
135.2438364819
 10
129.9195867369
 20
135.2396323411
 10
129.9451361739
 20
135.2373003451
 10
129.9709966979
 20
135.2368795186
 10
129.9967356036
 20
135.2383769095
 10
130.0219222149
 20
135.2417674698
 10
130.046135083
 20
135.2469944729
 10
130.0689690484
 20
135.2539704622
 10
130.0900420293
 20
135.2625787134
 10
130.1090014131
 20
135.2726751903
 10
130.1255299498
 20
135.2840909535
  0
LWPOLYLINE
  5
541
100
AcDbEntity
  8
ASSI
100
AcDbPolyline
 62
253
  6
CONTINUOUS
 90
8
 70
0
 10
155.8953582086
 20
126.2829501183
 10
155.874225497
 20
126.2903280991
 10
155.8534199895
 20
126.2947501681
 10
155.8332975362
 20
126.2961406919
 10
155.8142023045
 20
126.2944758874
 10
155.7964608927
 20
126.2897842288
 10
155.7803767436
 20
126.2821459607
 10
155.7718228103
 20
126.2763431029
  0
LWPOLYLINE
  5
542
100
AcDbEntity
  8
ASSI
100
AcDbPolyline
 62
7
  6
CONTINUOUS
 90
10
 70
0
 10
140.8709807715
 20
131.7996542327
 10
140.8539830698
 20
131.8056005571
 10
140.837096642
 20
131.8097234706
 10
140.8205108426
 20
131.8119568995
 10
140.8043573261
 20
131.812252531
 10
140.7888880572
 20
131.8105720898
 10
140.7744410721
 20
131.8069602676
 10
140.7612626618
 20
131.8015511568
 10
140.7493445084
 20
131.7944196024
 10
140.7466381803
 20
131.7924296227
  0
LWPOLYLINE
  5
543
100
AcDbEntity
  8
ASSI
100
AcDbPolyline
 62
7
  6
CONTINUOUS
 90
10
 70
0
 10
127.5187962115
 20
136.7526165478
 10
127.4975490844
 20
136.7600494533
 10
127.4764410497
 20
136.7652030951
 10
127.4557088004
 20
136.7679948813
 10
127.4355169048
 20
136.7683644206
 10
127.4161803187
 20
136.7662638691
 10
127.3981215873
 20
136.7617490914
 10
127.3816485744
 20
136.7549877029
 10
127.3667508826
 20
136.7460732599
 10
127.3633679726
 20
136.7435857853
  0
LWPOLYLINE
  5
544
100
AcDbEntity
  8
ASSI
100
AcDbPolyline
 62
7
  6
CONTINUOUS
 90
7
 70
0
 10
155.9866674314
 20
126.3078744472
 10
155.9724993228
 20
126.313002723
 10
155.9517598128
 20
126.3185411101
 10
155.9302005837
 20
126.3219936506
 10
155.9081167732
 20
126.3232207083
 10
155.885912176
 20
126.3221498613
 10
155.8638340657
 20
126.3187747258
  0
LWPOLYLINE
  5
545
100
AcDbEntity
  8
ASSI
100
AcDbPolyline
 62
253
  6
CONTINUOUS
 90
13
 70
0
 10
155.9865092634
 20
126.3079390456
 10
155.9849872871
 20
126.3085255951
 10
155.978076019
 20
126.3105803594
 10
155.9708242377
 20
126.3117691992
 10
155.9632569687
 20
126.31207892
 10
155.9553986073
 20
126.3114997496
 10
155.9472919995
 20
126.3100284304
 10
155.938966509
 20
126.3076666231
 10
155.930453015
 20
126.3044195087
 10
155.9218005402
 20
126.3003043674
 10
155.9130479261
 20
126.2953416348
 10
155.904222675
 20
126.2895491331
 10
155.8953582086
 20
126.2829501183
  0
LWPOLYLINE
  5
546
100
AcDbEntity
  8
ASSI
100
AcDbPolyline
 62
253
  6
CONTINUOUS
 90
13
 70
0
 10
137.5555882669
 20
133.7102124332
 10
137.5540662906
 20
133.7107989827
 10
137.5471550225
 20
133.712853747
 10
137.5399032412
 20
133.7140425868
 10
137.5323359722
 20
133.7143523076
 10
137.5244776108
 20
133.7137731372
 10
137.516371003
 20
133.712301818
 10
137.5080455125
 20
133.7099400107
 10
137.4995320185
 20
133.7066928963
 10
137.4908795437
 20
133.702577755
 10
137.4821269296
 20
133.6976150224
 10
137.4733016785
 20
133.6918225207
 10
137.4644372121
 20
133.6852235059
  0
LWPOLYLINE
  5
547
100
AcDbEntity
  8
ASSI
100
AcDbPolyline
 62
7
  6
CONTINUOUS
 90
6
 70
0
 10
123.4811428872
 20
136.401842092
 10
123.4856117746
 20
136.400105264
 10
123.5055497939
 20
136.3937214203
 10
123.5260601636
 20
136.38933039
 10
123.5469161233
 20
136.3869829094
 10
123.5572540382
 20
136.3865844967
  0
LINE
  5
548
100
AcDbEntity
  8
ASSI
100
AcDbLine
 62
7
  6
CONTINUOUS
 10
152.5804804927
 20
125.0050671283
 11
149.9268652719
 21
126.0708188253
  0
LINE
  5
549
100
AcDbEntity
  8
ASSI
100
AcDbLine
 62
7
  6
CONTINUOUS
 10
148.2799322602
 20
126.7322642521
 11
145.6263170394
 21
127.7980159491
  0
LINE
  5
54A
100
AcDbEntity
  8
ASSI
100
AcDbLine
 62
7
  6
CONTINUOUS
 10
134.1495594962
 20
132.4073405159
 11
131.4959442754
 21
133.4730922129
  0
LINE
  5
54B
100
AcDbEntity
  8
ASSI
100
AcDbLine
 62
7
  6
CONTINUOUS
 10
129.8490112637
 20
134.1345376396
 11
127.1953960429
 21
135.2002893366
  0
LINE
  5
54C
100
AcDbEntity
  8
ASSI
100
AcDbLine
 62
253
  6
CONTINUOUS
 10
123.4306886033
 20
136.8165616965
 11
121.0390548021
 21
137.7771385968
  0
LINE
  5
54D
100
AcDbEntity
  8
ASSI
100
AcDbLine
 62
253
  6
CONTINUOUS
 10
156.4425159881
 20
123.5583104233
 11
154.0508821869
 21
124.5187993465
  0
LINE
  5
54E
100
AcDbEntity
  8
ASSI
100
AcDbLine
 62
253
  6
CONTINUOUS
 10
141.8616095998
 20
129.4142883089
 11
139.4699757986
 21
130.3748652093
  0
LINE
  5
54F
100
AcDbEntity
  8
ASSI
100
AcDbLine
 62
253
  6
CONTINUOUS
 10
138.0115949916
 20
130.9605838109
 11
135.6199611904
 21
131.9210727341
  0
LINE
  5
550
100
AcDbEntity
  8
ASSI
100
AcDbLine
 62
7
  6
CONTINUOUS
 10
125.0613712688
 20
136.4289305352
 11
127.1101113302
 21
135.6061103388
  0
LINE
  5
551
100
AcDbEntity
  8
ASSI
100
AcDbLine
 62
7
  6
CONTINUOUS
 10
130.3039443523
 20
134.3233949939
 11
131.4106595627
 21
133.8789132151
  0
LINE
  5
552
100
AcDbEntity
  8
ASSI
100
AcDbLine
 62
7
  6
CONTINUOUS
 10
134.6044925848
 20
132.5961978701
 11
135.5991088706
 21
132.1967375466
  0
LINE
  5
553
100
AcDbEntity
  8
ASSI
100
AcDbLine
 62
7
  6
CONTINUOUS
 10
143.4922922653
 20
129.0266571477
 11
145.5410323267
 21
128.2038369513
  0
LINE
  5
554
100
AcDbEntity
  8
ASSI
100
AcDbLine
 62
7
  6
CONTINUOUS
 10
148.7348653488
 20
126.9211216063
 11
149.8415805592
 21
126.4766398275
  0
LINE
  5
555
100
AcDbEntity
  8
ASSI
100
AcDbLine
 62
7
  6
CONTINUOUS
 10
153.0354135813
 20
125.1939244825
 11
154.0300298671
 21
124.794464159
  0
LINE
  5
556
100
AcDbEntity
  8
ASSI
100
AcDbLine
 62
253
  6
CONTINUOUS
 10
156.5841099655
 20
123.8781515891
 11
154.1910712832
 21
124.8392498737
  0
LINE
  5
557
100
AcDbEntity
  8
ASSI
100
AcDbLine
 62
253
  6
CONTINUOUS
 10
142.0032035772
 20
129.7341723135
 11
139.6101648948
 21
130.6952705981
  0
LINE
  5
558
100
AcDbEntity
  8
ASSI
100
AcDbLine
 62
253
  6
CONTINUOUS
 10
138.153188969
 20
131.2804249767
 11
135.7601502867
 21
132.2415232613
  0
LINE
  5
559
100
AcDbEntity
  8
ASSI
100
AcDbLine
 62
253
  6
CONTINUOUS
 10
123.5722825807
 20
137.1364457011
 11
121.1792438983
 21
138.0975439857
  0
LINE
  5
55A
100
AcDbEntity
  8
ASSI
100
AcDbLine
 62
7
  6
CONTINUOUS
 10
125.0613712688
 20
137.1148397213
 11
125.5898014426
 21
136.9026102504
  0
LINE
  5
55B
100
AcDbEntity
  8
ASSI
100
AcDbLine
 62
7
  6
CONTINUOUS
 10
158.07319866
 20
123.8565456068
 11
158.6325391183
 21
123.6319018687
  0
LINE
  5
55C
100
AcDbEntity
  8
ASSI
100
AcDbLine
 62
7
  6
CONTINUOUS
 10
149.8415805592
 20
127.1626403272
 11
149.283916878
 21
127.3866106339
  0
LINE
  5
55D
100
AcDbEntity
  8
ASSI
100
AcDbLine
 62
7
  6
CONTINUOUS
 10
131.4106595627
 20
134.5649137148
 11
130.8529958814
 21
134.7888840215
  0
LINE
  5
55E
100
AcDbEntity
  8
ASSI
100
AcDbLine
 62
253
  6
CONTINUOUS
 10
152.5395291285
 20
126.1854774895
 11
149.9678166361
 21
127.2183352044
  0
LINE
  5
55F
100
AcDbEntity
  8
ASSI
100
AcDbLine
 62
253
  6
CONTINUOUS
 10
134.108608132
 20
133.5877508771
 11
131.5368956396
 21
134.620608592
  0
LINE
  5
560
100
AcDbEntity
  8
ASSI
100
AcDbLine
 62
253
  6
CONTINUOUS
 10
129.8080598995
 20
135.3149480009
 11
127.2363474071
 21
136.3478057157
  0
LINE
  5
561
100
AcDbEntity
  8
ASSI
100
AcDbLine
 62
253
  6
CONTINUOUS
 10
145.6672684036
 20
128.9455323281
 11
148.238980896
 21
127.9126746133
  0
LINE
  5
562
100
AcDbEntity
  8
ASSI
100
AcDbLine
 62
7
  6
CONTINUOUS
 10
144.3054163271
 20
129.7289519721
 11
143.6342608508
 21
129.9985031423
  0
LINE
  5
563
100
AcDbEntity
  8
ASSI
100
AcDbLine
 62
7
  6
CONTINUOUS
 10
140.2500171571
 20
131.3576917057
 11
139.7842462426
 21
131.5447558055
  0
LINE
  5
564
100
AcDbEntity
  8
ASSI
100
AcDbLine
 62
253
  6
CONTINUOUS
 10
152.6522896946
 20
126.4415932071
 11
150.08048252
 21
127.4744889484
  0
LINE
  5
565
100
AcDbEntity
  8
ASSI
100
AcDbLine
 62
253
  6
CONTINUOUS
 10
134.2213686981
 20
133.8438665947
 11
131.6495615235
 21
134.876762336
  0
LINE
  5
566
100
AcDbEntity
  8
ASSI
100
AcDbLine
 62
253
  6
CONTINUOUS
 10
129.9208204656
 20
135.5710637184
 11
127.349013291
 21
136.6039594598
  0
LINE
  5
567
100
AcDbEntity
  8
ASSI
100
AcDbLine
 62
253
  6
CONTINUOUS
 10
145.779981633
 20
129.2016670572
 11
148.3516964869
 21
128.1688083939
  0
LINE
  5
568
100
AcDbEntity
  8
DRAFT
100
AcDbLine
 62
7
  6
CONTINUOUS
 10
158.2725764341
 20
124.2398474756
 11
159.0081356771
 21
123.9444303008
  0
LINE
  5
569
100
AcDbEntity
  8
ASSI
100
AcDbLine
 62
7
  6
CONTINUOUS
 10
127.5187962115
 20
136.7526165478
 11
130.0991875314
 21
135.7162732201
  0
LINE
  5
56A
100
AcDbEntity
  8
ASSI
100
AcDbLine
 62
7
  6
CONTINUOUS
 10
131.819344444
 20
135.025419424
 11
134.3997357639
 21
133.9890760964
  0
LINE
  5
56B
100
AcDbEntity
  8
ASSI
100
AcDbLine
 62
7
  6
CONTINUOUS
 10
145.949717208
 20
129.3503431602
 11
148.5301085279
 21
128.3139998326
  0
LINE
  5
56C
100
AcDbEntity
  8
ASSI
100
AcDbLine
 62
7
  6
CONTINUOUS
 10
150.2502654405
 20
127.6231460364
 11
152.8306567604
 21
126.5868027088
  0
LINE
  5
56D
100
AcDbEntity
  8
DRAFT
100
AcDbLine
 62
7
  6
CONTINUOUS
 10
125.7514718957
 20
137.792547456
 11
126.2949197518
 21
137.5742865452
  0
LINE
  5
56E
100
AcDbEntity
  8
DRAFT
100
AcDbLine
 62
7
  6
CONTINUOUS
 10
159.3928494707
 20
124.2814117947
 11
160.1043148652
 21
123.9956712527
  0
LINE
  5
56F
100
AcDbEntity
  8
ASSI
100
AcDbLine
 62
7
  6
CONTINUOUS
 10
122.440059775
 20
139.2019276203
 11
124.8975658122
 21
138.2149377926
  0
LINE
  5
570
100
AcDbEntity
  8
ASSI
100
AcDbLine
 62
7
  6
CONTINUOUS
 10
137.0209661633
 20
133.3459068959
 11
139.4784722005
 21
132.3589170682
  0
LINE
  5
571
100
AcDbEntity
  8
ASSI
100
AcDbLine
 62
7
  6
CONTINUOUS
 10
140.8709807715
 20
131.7996542327
 11
143.3284868087
 21
130.812664405
  0
LINE
  5
572
100
AcDbEntity
  8
ASSI
100
AcDbLine
 62
7
  6
CONTINUOUS
 10
155.4518871598
 20
125.9436335083
 11
157.909393197
 21
124.9566436806
  0
LINE
  5
573
100
AcDbEntity
  8
DRAFT
100
AcDbLine
 62
7
  6
CONTINUOUS
 10
149.4811097348
 20
128.344105132
 11
150.5092350342
 21
127.9311868332
  0
LINE
  5
574
100
AcDbEntity
  8
ASSI
100
AcDbLine
 62
7
  6
CONTINUOUS
 10
153.0814423669
 20
127.1309748298
 11
150.8029865659
 21
128.0460540461
  0
LINE
  5
575
100
AcDbEntity
  8
ASSI
100
AcDbLine
 62
7
  6
CONTINUOUS
 10
149.0559429713
 20
128.7477061399
 11
146.7774871703
 21
129.6627853561
  0
LINE
  5
576
100
AcDbEntity
  8
ASSI
100
AcDbLine
 62
7
  6
CONTINUOUS
 10
134.6505213704
 20
134.5332482174
 11
132.3720655694
 21
135.4483274336
  0
LINE
  5
577
100
AcDbEntity
  8
ASSI
100
AcDbLine
 62
7
  6
CONTINUOUS
 10
130.6250219748
 20
136.1499795274
 11
128.3465661738
 21
137.0650587437
  0
LINE
  5
578
100
AcDbEntity
  8
DRAFT
100
AcDbLine
 62
7
  6
CONTINUOUS
 10
140.1374074967
 20
132.5063226218
 11
141.1487876962
 21
132.1001295327
  0
LINE
  5
579
100
AcDbEntity
  8
DRAFT
100
AcDbLine
 62
7
  6
CONTINUOUS
 10
143.9758593679
 20
130.9647138145
 11
145.1360293629
 21
130.498763389
  0
LINE
  5
57A
100
AcDbEntity
  8
ASSI
100
AcDbLine
 62
253
  6
CONTINUOUS
 10
125.3194661184
 20
138.5629196074
 11
122.8835631549
 21
139.5412689681
  0
LINE
  5
57B
100
AcDbEntity
  8
ASSI
100
AcDbLine
 62
253
  6
CONTINUOUS
 10
158.3313226997
 20
125.3046495765
 11
155.8953582086
 21
126.2829501183
  0
LINE
  5
57C
100
AcDbEntity
  8
ASSI
100
AcDbLine
 62
253
  6
CONTINUOUS
 10
143.7503871149
 20
131.1606462198
 11
141.3144841514
 21
132.1389955806
  0
LINE
  5
57D
100
AcDbEntity
  8
ASSI
100
AcDbLine
 62
253
  6
CONTINUOUS
 10
139.9004017032
 20
132.7069229641
 11
137.4644372121
 21
133.6852235059
  0
LINE
  5
57E
100
AcDbEntity
  8
ASSI
100
AcDbLine
 62
7
  6
CONTINUOUS
 10
158.4215129696
 20
125.329986671
 11
155.9864783542
 21
126.3079514692
  0
LINE
  5
57F
100
AcDbEntity
  8
ASSI
100
AcDbLine
 62
7
  6
CONTINUOUS
 10
143.8406236927
 20
131.1860005182
 11
141.4055697975
 21
132.1639730644
  0
LINE
  5
580
100
AcDbEntity
  8
ASSI
100
AcDbLine
 62
7
  6
CONTINUOUS
 10
139.9905919731
 20
132.7322600586
 11
137.5555573577
 21
133.7102248567
  0
LINE
  5
581
100
AcDbEntity
  8
ASSI
100
AcDbLine
 62
7
  6
CONTINUOUS
 10
125.4097026962
 20
138.5882739058
 11
122.974648801
 21
139.566246452
  0
LINE
  5
582
100
AcDbEntity
  8
ASSI
100
AcDbLine
 62
7
  6
CONTINUOUS
 10
122.9746526515
 20
139.5662449056
 11
122.9748591572
 21
139.5661614887
  0
LINE
  5
583
100
AcDbEntity
  8
ASSI
100
AcDbLine
 62
7
  6
CONTINUOUS
 10
141.405573648
 20
132.163971518
 11
141.4057801537
 21
132.1638881011
  0
LWPOLYLINE
  5
584
100
AcDbEntity
  8
ASSI
100
AcDbPolyline
 62
253
  6
CONTINUOUS
 90
28
 70
0
 10
148.238980896
 20
127.9126746133
 10
148.2409176305
 20
127.9118650278
 10
148.2428970091
 20
127.9109258197
 10
148.2449190318
 20
127.9098569888
 10
148.2469954145
 20
127.9086596325
 10
148.2491144413
 20
127.9073326535
 10
148.2512409641
 20
127.9058727601
 10
148.2533763351
 20
127.9042755035
 10
148.255519202
 20
127.9025453326
 10
148.2576303604
 20
127.9006923018
 10
148.2597097238
 20
127.898712084
 10
148.2617573785
 20
127.8966090064
 10
148.2637343794
 20
127.8944061054
 10
148.2656385255
 20
127.8921010235
 10
148.2674720177
 20
127.8896961181
 10
148.2692025133
 20
127.8872214977
 10
148.2708273757
 20
127.8846761815
 10
148.2723492416
 20
127.8820611504
 10
148.2737436777
 20
127.8794094556
 10
148.2750083291
 20
127.876720285
 10
148.2761455506
 20
127.8739944507
 10
148.2771379738
 20
127.8712674405
 10
148.2779829476
 20
127.8685390613
 10
148.278683123
 20
127.8658095061
 10
148.2792290836
 20
127.8631148415
 10
148.2796176906
 20
127.8604670898
 10
148.2798520828
 20
127.8578542286
 10
148.2799322602
 20
127.855276258
  0
LWPOLYLINE
  5
585
100
AcDbEntity
  8
ASSI
100
AcDbPolyline
 62
253
  6
CONTINUOUS
 90
28
 70
0
 10
148.3516964628
 20
128.1688083743
 10
148.3612321331
 20
128.1646379535
 10
148.3710432094
 20
128.1598784542
 10
148.3811041553
 20
128.1544998545
 10
148.3914057266
 20
128.1484619026
 10
148.4018926988
 20
128.1417496384
 10
148.4124659671
 20
128.1343835729
 10
148.4230849919
 20
128.1263533806
 10
148.4337053655
 20
128.1176527089
 10
148.444222657
 20
128.1083304139
 10
148.454590206
 20
128.0983962227
 10
148.4647596638
 20
128.0878636265
 10
148.4746303405
 20
128.076808099
 10
148.4841520382
 20
128.0652634317
 10
148.4932838706
 20
128.053255793
 10
148.5019494737
 20
128.0408648259
 10
148.5101050724
 20
128.028137642
 10
148.5177160343
 20
128.0151119377
 10
148.5247303739
 20
128.00186183
 10
148.5311153902
 20
127.9884372931
 10
148.5368418483
 20
127.9748870367
 10
148.5418735022
 20
127.9612870016
 10
148.5461887298
 20
127.9476889833
 10
148.549768523
 20
127.9341454685
 10
148.5525923528
 20
127.9207336097
 10
148.5546500726
 20
127.9075126431
 10
148.5559373552
 20
127.8945242951
 10
148.5564509463
 20
127.8818175661
  0
LWPOLYLINE
  5
586
100
AcDbEntity
  8
ASSI
100
AcDbPolyline
 62
253
  6
CONTINUOUS
 90
13
 70
0
 10
125.3194645624
 20
138.562918324
 10
125.3410854233
 20
138.553125505
 10
125.3623022441
 20
138.5406704563
 10
125.3827521396
 20
138.5257662054
 10
125.402085342
 20
138.5086676698
 10
125.419971183
 20
138.4896672977
 10
125.436103749
 20
138.4690900661
 10
125.4502071146
 20
138.4472879216
 10
125.4620400617
 20
138.4246337604
 10
125.4714002048
 20
138.401515051
 10
125.4781274519
 20
138.3783272074
 10
125.4821067433
 20
138.3554668262
 10
125.4832700191
 20
138.333324903
  0
LWPOLYLINE
  5
587
100
AcDbEntity
  8
ASSI
100
AcDbPolyline
 62
253
  6
CONTINUOUS
 90
13
 70
0
 10
143.7503855589
 20
131.1606449364
 10
143.7720064198
 20
131.1508521175
 10
143.7932232406
 20
131.1383970687
 10
143.8136731361
 20
131.1234928178
 10
143.8330063385
 20
131.1063942822
 10
143.8508921795
 20
131.0873939101
 10
143.8670247455
 20
131.0668166785
 10
143.8811281111
 20
131.045014534
 10
143.8929610582
 20
131.0223603729
 10
143.9023212013
 20
130.9992416634
 10
143.9090484484
 20
130.9760538198
 10
143.9130277398
 20
130.9531934386
 10
143.9141910156
 20
130.9310515154
  0
LWPOLYLINE
  5
588
100
AcDbEntity
  8
ASSI
100
AcDbPolyline
 62
7
  6
CONTINUOUS
 90
16
 70
0
 10
134.3997357639
 20
133.9890760964
 10
134.4209828911
 20
133.9794324433
 10
134.4420909257
 20
133.9676333963
 10
134.462823175
 20
133.9537797768
 10
134.4830150706
 20
133.937934974
 10
134.5023516567
 20
133.9203007146
 10
134.5204103882
 20
133.9012773407
 10
134.536883401
 20
133.8812829156
 10
134.5517810928
 20
133.8604019749
 10
134.5651594788
 20
133.8385560065
 10
134.576929787
 20
133.815770326
 10
134.5867978846
 20
133.7924706422
 10
134.5945335918
 20
133.7691714873
 10
134.6000613663
 20
133.7462184654
 10
134.6033831529
 20
133.7237761242
 10
134.6044925848
 20
133.7020843201
  0
LWPOLYLINE
  5
589
100
AcDbEntity
  8
ASSI
100
AcDbPolyline
 62
7
  6
CONTINUOUS
 90
16
 70
0
 10
139.4784722005
 20
132.3589170682
 10
139.4954699022
 20
132.3512021457
 10
139.5123563299
 20
132.3417629081
 10
139.5289421294
 20
132.3306800125
 10
139.5450956458
 20
132.3180041703
 10
139.5605649147
 20
132.3038967628
 10
139.5750118999
 20
132.2886780636
 10
139.5881903102
 20
132.2726825236
 10
139.6001084636
 20
132.255977771
 10
139.6108111724
 20
132.2385009962
 10
139.6202274189
 20
132.2202724518
 10
139.628121897
 20
132.2016327048
 10
139.6343104628
 20
132.1829933809
 10
139.6387326824
 20
132.1646309634
 10
139.6413901117
 20
132.1466770904
 10
139.6422776572
 20
132.1293236472
  0
LWPOLYLINE
  5
58A
100
AcDbEntity
  8
ASSI
100
AcDbPolyline
 62
7
  6
CONTINUOUS
 90
16
 70
0
 10
157.909393197
 20
124.9566436806
 10
157.9263908987
 20
124.9489287581
 10
157.9432773264
 20
124.9394895205
 10
157.9598631259
 20
124.9284066249
 10
157.9760166423
 20
124.9157307827
 10
157.9914859112
 20
124.9016233752
 10
158.0059328964
 20
124.886404676
 10
158.0191113067
 20
124.870409136
 10
158.0310294601
 20
124.8537043834
 10
158.0417321689
 20
124.8362276086
 10
158.0511484154
 20
124.8179990643
 10
158.0590428935
 20
124.7993593173
 10
158.0652314593
 20
124.7807199934
 10
158.0696536789
 20
124.7623575758
 10
158.0723111082
 20
124.7444037028
 10
158.0731986537
 20
124.7270502596
  0
LWPOLYLINE
  5
58B
100
AcDbEntity
  8
ASSI
100
AcDbPolyline
 62
7
  6
CONTINUOUS
 90
19
 70
0
 10
158.0732008286
 20
123.1706380826
 10
158.1082130064
 20
123.1547207178
 10
158.1432173547
 20
123.1358017754
 10
158.177938556
 20
123.1139692796
 10
158.2122251541
 20
123.0892412871
 10
158.2456558228
 20
123.0618370191
 10
158.2775895053
 20
123.0322707002
 10
158.3076392843
 20
123.0009943356
 10
158.3357868995
 20
122.9681159326
 10
158.3619846996
 20
122.9337011987
 10
158.3860381864
 20
122.8980099663
 10
158.4077663382
 20
122.8613089133
 10
158.4270912903
 20
122.8236435749
 10
158.4439185472
 20
122.7850778117
 10
158.4579450812
 20
122.7461124572
 10
158.4688640331
 20
122.7074557498
 10
158.4766086432
 20
122.6695379325
 10
158.4812380974
 20
122.632506261
 10
158.4827746758
 20
122.5966278174
  0
LWPOLYLINE
  5
58C
100
AcDbEntity
  8
ASSI
100
AcDbPolyline
 62
253
  6
CONTINUOUS
 90
9
 70
0
 10
127.1953960429
 20
136.3233013426
 10
127.1752078968
 20
136.3325809928
 10
127.1572770479
 20
136.3432777279
 10
127.1419035276
 20
136.3552125628
 10
127.1293445762
 20
136.3681857957
 10
127.1198103388
 20
136.3819803494
 10
127.1134603487
 20
136.396365404
 10
127.1104008584
 20
136.4111002588
 10
127.1101113343
 20
136.417247471
  0
LWPOLYLINE
  5
58D
100
AcDbEntity
  8
ASSI
100
AcDbPolyline
 62
253
  6
CONTINUOUS
 90
7
 70
0
 10
154.0508821869
 20
124.2187026227
 10
154.030694037
 20
124.2279822748
 10
154.0127631859
 20
124.238679012
 10
153.9973896648
 20
124.250613849
 10
153.9848307137
 20
124.2635870836
 10
153.9752964776
 20
124.2773816387
 10
153.9689464895
 20
124.291766694
  0
LWPOLYLINE
  5
58E
100
AcDbEntity
  8
ASSI
100
AcDbPolyline
 62
253
  6
CONTINUOUS
 90
9
 70
0
 10
131.4959442754
 20
134.5961042189
 10
131.4757561293
 20
134.605383869
 10
131.4578252804
 20
134.6160806041
 10
131.4424517601
 20
134.6280154391
 10
131.4298928087
 20
134.6409886719
 10
131.4203585713
 20
134.6547832256
 10
131.4140085812
 20
134.6691682802
 10
131.4109490909
 20
134.6839031351
 10
131.4106595668
 20
134.6900503473
  0
LWPOLYLINE
  5
58F
100
AcDbEntity
  8
ASSI
100
AcDbPolyline
 62
253
  6
CONTINUOUS
 90
9
 70
0
 10
154.0508821869
 20
124.5187993465
 10
154.0306940408
 20
124.5280789966
 10
154.0127631919
 20
124.5387757318
 10
153.9973896716
 20
124.5507105667
 10
153.9848307202
 20
124.5636837996
 10
153.9752964828
 20
124.5774783533
 10
153.9689464927
 20
124.5918634079
 10
153.9658870024
 20
124.6065982628
 10
153.9655974896
 20
124.6127236023
  0
LWPOLYLINE
  5
590
100
AcDbEntity
  8
ASSI
100
AcDbPolyline
 62
253
  6
CONTINUOUS
 90
9
 70
0
 10
149.9268652719
 20
127.1938308313
 10
149.9066771258
 20
127.2031104814
 10
149.8887462769
 20
127.2138072165
 10
149.8733727566
 20
127.2257420515
 10
149.8608138052
 20
127.2387152843
 10
149.8512795678
 20
127.2525098381
 10
149.8449295777
 20
127.2668948927
 10
149.8418700874
 20
127.2816297475
 10
149.8415805633
 20
127.2877769597
  0
LWPOLYLINE
  5
591
100
AcDbEntity
  8
ASSI
100
AcDbPolyline
 62
253
  6
CONTINUOUS
 90
13
 70
0
 10
142.0032035772
 20
129.7341723135
 10
142.0243362887
 20
129.7239796391
 10
142.0451417962
 20
129.711187675
 10
142.0652642495
 20
129.6960152104
 10
142.0843594812
 20
129.67872175
 10
142.1021008931
 20
129.659603075
 10
142.1181850422
 20
129.6389861846
 10
142.1323368309
 20
129.617223703
 10
142.1443142118
 20
129.594687848
 10
142.1539123281
 20
129.571764065
 10
142.1609670169
 20
129.5488444345
 10
142.1653576172
 20
129.5263209658
 10
142.1670090339
 20
129.5045788925
  0
LWPOLYLINE
  5
592
100
AcDbEntity
  8
ASSI
100
AcDbPolyline
 62
253
  6
CONTINUOUS
 90
3
 70
0
 10
154.0915183771
 20
124.1091063144
 10
154.0970761531
 20
124.1059613565
 10
154.1008414736
 20
124.1042805801
  0
LWPOLYLINE
  5
593
100
AcDbEntity
  8
ASSI
100
AcDbPolyline
 62
7
  6
CONTINUOUS
 90
3
 70
0
 10
154.0551802882
 20
124.1295954381
 10
154.0771193417
 20
124.1155765593
 10
154.1010949069
 20
124.1041798597
  0
LWPOLYLINE
  5
594
100
AcDbEntity
  8
RACCORDO
100
AcDbPolyline
 62
7
  6
CONTINUOUS
 90
19
 70
0
 10
138.7544511245
 20
137.9988290346
 10
138.7456436025
 20
138.0081144826
 10
138.7305374772
 20
138.0234362429
 10
138.7155599245
 20
138.0380217252
 10
138.7007748983
 20
138.0518733171
 10
138.6861889374
 20
138.0649832971
 10
138.671795503
 20
138.0773593866
 10
138.6576389328
 20
138.0890271368
 10
138.643725354
 20
138.0999813395
 10
138.6300486393
 20
138.1102272029
 10
138.6166347449
 20
138.1198059026
 10
138.6034883642
 20
138.1287149899
 10
138.5906048038
 20
138.1369569135
 10
138.5779959384
 20
138.1445801954
 10
138.5656654828
 20
138.15158424
 10
138.5536097222
 20
138.1579696429
 10
138.5418293875
 20
138.1637867128
 10
138.5303264529
 20
138.1690367317
 10
138.5198359204
 20
138.1734242802
  0
LWPOLYLINE
  5
595
100
AcDbEntity
  8
ASSI
100
AcDbPolyline
 62
7
  6
CONTINUOUS
 90
4
 70
0
 10
154.000966376
 20
124.1874308471
 10
154.0166464174
 20
124.1658795955
 10
154.034815486
 20
124.1464998837
 10
154.0551802882
 20
124.1295954381
  0
LINE
  5
596
100
AcDbEntity
  8
ASSI
100
AcDbLine
 62
7
  6
CONTINUOUS
 10
162.334143705
 20
128.5423219979
 11
162.334143705
 21
128.3544897688
  0
LWPOLYLINE
  5
597
100
AcDbEntity
  8
ASSI
100
AcDbPolyline
 62
7
  6
CONTINUOUS
 90
4
 70
0
 10
158.5531466527
 20
85.3702621949
 10
158.5556805289
 20
85.390284105
 10
158.5567364347
 20
85.41031501
 10
158.5567650349
 20
85.4142711383
  0
LWPOLYLINE
  5
598
100
AcDbEntity
  8
ASSI
100
AcDbPolyline
 62
253
  6
CONTINUOUS
 90
4
 70
0
 10
158.5085913187
 20
85.6952044857
 10
158.5144462917
 20
85.7203365824
 10
158.5173965696
 20
85.7461288655
 10
158.5173922308
 20
85.7721449045
  0
LWPOLYLINE
  5
599
100
AcDbEntity
  8
ASSI
100
AcDbPolyline
 62
7
  6
CONTINUOUS
 90
4
 70
0
 10
137.4329130692
 20
133.7210481134
 10
137.4112591961
 20
133.715417116
 10
137.39043284
 20
133.7076858708
 10
137.3705322122
 20
133.6979686299
  0
LWPOLYLINE
  5
59A
100
AcDbEntity
  8
ASSI
100
AcDbPolyline
 62
7
  6
CONTINUOUS
 90
6
 70
0
 10
136.9388754209
 20
133.3568263681
 10
136.9543457972
 20
133.3585077165
 10
136.9704962344
 20
133.3582095627
 10
136.9870770064
 20
133.3559720155
 10
137.0039619686
 20
133.3518479015
 10
137.0209661633
 20
133.3459068959
  0
LWPOLYLINE
  5
59B
100
AcDbEntity
  8
ASSI
100
AcDbPolyline
 62
253
  6
CONTINUOUS
 90
5
 70
0
 10
140.0779606896
 20
132.4832870964
 10
140.0753794704
 20
132.4830779044
 10
140.072702272
 20
132.4823743907
 10
140.0699562964
 20
132.4811786418
 10
140.0671143416
 20
132.4794885711
  0
LWPOLYLINE
  5
59C
100
AcDbEntity
  8
DRAFT
100
AcDbPolyline
 62
7
  6
CONTINUOUS
 90
3
 70
0
 10
135.8912577225
 20
135.6341998399
 10
135.7815527623
 20
135.6687235799
 10
135.3247314836
 20
135.8251277862
  0
LWPOLYLINE
  5
59D
100
AcDbEntity
  8
ASSI
100
AcDbPolyline
 62
253
  6
CONTINUOUS
 90
8
 70
0
 10
139.9905881656
 20
132.7322615878
 10
139.9829493414
 20
132.7346980726
 10
139.9706517396
 20
132.736291157
 10
139.9575749521
 20
132.735352721
 10
139.9438610598
 20
132.7318945458
 10
139.9296585507
 20
132.7259560717
 10
139.9151201374
 20
132.7176018621
 10
139.9004023349
 20
132.7069227054
  0
LWPOLYLINE
  5
59E
100
AcDbEntity
  8
ASSI
100
AcDbPolyline
 62
253
  6
CONTINUOUS
 90
8
 70
0
 10
137.4644372121
 20
133.6852235059
 10
137.4433045005
 20
133.6926014867
 10
137.422498993
 20
133.6970235557
 10
137.4023765397
 20
133.6984140795
 10
137.383281308
 20
133.696749275
 10
137.3655398962
 20
133.6920576164
 10
137.3494557471
 20
133.6844193483
 10
137.3409018138
 20
133.6786164905
  0
LWPOLYLINE
  5
59F
100
AcDbEntity
  8
ASSI
100
AcDbPolyline
 62
253
  6
CONTINUOUS
 90
8
 70
0
 10
149.258611477
 20
131.8821043413
 10
149.2321955875
 20
131.8913268173
 10
149.2061887031
 20
131.8968544036
 10
149.1810356365
 20
131.8985925583
 10
149.1571665969
 20
131.8965115526
 10
149.1349898321
 20
131.8906469794
 10
149.1148846457
 20
131.8810991443
 10
149.1042450381
 20
131.8738859536
  0
LWPOLYLINE
  5
5A0
100
AcDbEntity
  8
ASSI
100
AcDbPolyline
 62
7
  6
CONTINUOUS
 90
10
 70
0
 10
122.440059775
 20
139.2019276203
 10
122.4230620733
 20
139.2078739447
 10
122.4061756455
 20
139.2119968581
 10
122.3895898461
 20
139.2142302871
 10
122.3734363296
 20
139.2145259185
 10
122.3579670607
 20
139.2128454773
 10
122.3435200756
 20
139.2092336552
 10
122.3303416653
 20
139.2038245443
 10
122.3184235118
 20
139.19669299
 10
122.3157171838
 20
139.1947030103
  0
LWPOLYLINE
  5
5A1
100
AcDbEntity
  8
RACCORDO
100
AcDbPolyline
 62
253
  6
CONTINUOUS
 90
17
 70
0
 10
152.5263215732
 20
129.7580040259
 10
152.5225340854
 20
129.7593289223
 10
152.5185728153
 20
129.7603227353
 10
152.5144872091
 20
129.7609666965
 10
152.5102848542
 20
129.76125961
 10
152.505973544
 20
129.7612009266
 10
152.5015613332
 20
129.7607907499
 10
152.4970565078
 20
129.760029856
 10
152.4924675042
 20
129.7589196884
 10
152.487802825
 20
129.7574623224
 10
152.4830710922
 20
129.7556604582
 10
152.4782805787
 20
129.753517193
 10
152.4734407276
 20
129.7510366988
 10
152.4685621188
 20
129.7482245477
 10
152.4636543905
 20
129.7450866418
 10
152.4587261743
 20
129.7416288439
 10
151.5699224955
 20
129.0615797203
  0
LWPOLYLINE
  5
5A2
100
AcDbEntity
  8
ASSI
100
AcDbPolyline
 62
7
  6
CONTINUOUS
 90
7
 70
0
 10
141.4057740148
 20
132.1638905829
 10
141.3898395334
 20
132.1695789598
 10
141.3690403527
 20
132.174935553
 10
141.3473551877
 20
132.1782066852
 10
141.3250885503
 20
132.179230327
 10
141.3026731292
 20
132.1779180495
 10
141.2803636681
 20
132.1742505405
  0
LWPOLYLINE
  5
5A3
100
AcDbEntity
  8
ASSI
100
AcDbPolyline
 62
7
  6
CONTINUOUS
 90
7
 70
0
 10
122.9748530182
 20
139.5661639705
 10
122.9589185369
 20
139.5718523474
 10
122.9381193562
 20
139.5772089406
 10
122.9164341912
 20
139.5804800728
 10
122.8941675538
 20
139.5815037146
 10
122.8717521327
 20
139.5801914371
 10
122.8494426716
 20
139.5765239281
  0
LWPOLYLINE
  5
5A4
100
AcDbEntity
  8
ASSI
100
AcDbPolyline
 62
7
  6
CONTINUOUS
 90
7
 70
0
 10
137.5557464349
 20
133.7101478348
 10
137.5415783263
 20
133.7152761106
 10
137.5208388163
 20
133.7208144977
 10
137.4992795872
 20
133.7242670382
 10
137.4771957767
 20
133.7254940959
 10
137.4549911795
 20
133.7244232489
 10
137.4329130692
 20
133.7210481134
  0
LWPOLYLINE
  5
5A5
100
AcDbEntity
  8
DRAFT
100
AcDbPolyline
 62
7
  6
CONTINUOUS
 90
7
 70
0
 10
151.1139849232
 20
129.1203944677
 10
151.0499351507
 20
129.1441336326
 10
150.9832679283
 20
129.1648217735
 10
150.9139832557
 20
129.1824588902
 10
150.8414740312
 20
129.197164157
 10
150.7663473566
 20
129.2088183997
 10
150.6904245377
 20
129.2170640959
  0
LWPOLYLINE
  5
5A6
100
AcDbEntity
  8
RACCORDO
100
AcDbPolyline
 62
253
  6
CONTINUOUS
 90
55
 70
0
 10
132.6189683146
 20
137.7039680909
 10
132.5999112375
 20
137.7113936827
 10
132.5805210512
 20
137.7185010037
 10
132.5607977557
 20
137.725290054
 10
132.5407239551
 20
137.7317661438
 10
132.5203170453
 20
137.7379239629
 10
132.4996292138
 20
137.7437475804
 10
132.4786602402
 20
137.7492359655
 10
132.4574103448
 20
137.754390149
 10
132.435932376
 20
137.7591972926
 10
132.4142258526
 20
137.7636565102
 10
132.3922912556
 20
137.7677686878
 10
132.3701828767
 20
137.7715236456
 10
132.3479002763
 20
137.7749205041
 10
132.325443894
 20
137.7779601426
 10
132.3028693401
 20
137.78063502
 10
132.2801762865
 20
137.7829442347
 10
132.2573650612
 20
137.7848886881
 10
132.2344922586
 20
137.7864635432
 10
132.2115577418
 20
137.7876678803
 10
132.1885616477
 20
137.7885026189
 10
132.1655609811
 20
137.7889656808
 10
132.1425557357
 20
137.7890561443
 10
132.1195459178
 20
137.7887749309
 10
132.0965885519
 20
137.7881227275
 10
132.0736837585
 20
137.7870986134
 10
132.050831417
 20
137.7857035092
 10
132.0280881895
 20
137.7839408633
 10
132.0054543458
 20
137.781809763
 10
131.9829296161
 20
137.779311121
 10
131.9605698531
 20
137.7764511234
 10
131.9383754765
 20
137.7732288756
 10
131.9163460667
 20
137.7696452723
 10
131.8945362178
 20
137.7657091836
 10
131.8729464637
 20
137.7614197334
 10
131.8515762705
 20
137.756777798
 10
131.8304786315
 20
137.7517948757
 10
131.8096542046
 20
137.7464701133
 10
131.7891023319
 20
137.7408043641
 10
131.7688740322
 20
137.7348116859
 10
131.7489701377
 20
137.7284912743
 10
131.7293898162
 20
137.7218439336
 10
131.7101815904
 20
137.7148861347
 10
131.6913463895
 20
137.7076171148
 10
131.6728832841
 20
137.7000376366
 10
131.6548380091
 20
137.6921664594
 10
131.6372115366
 20
137.6840028187
 10
131.6200028944
 20
137.6755474789
 10
131.6032549002
 20
137.6668214923
 10
131.5869682197
 20
137.6578238095
 10
131.5711421872
 20
137.64855548
 10
131.5558176239
 20
137.639040705
 10
131.5410081368
 20
137.6292875515
 10
131.5267001188
 20
137.6192879526
 10
131.51289357
 20
137.6090419081
  0
LWPOLYLINE
  5
5A7
100
AcDbEntity
  8
RACCORDO
100
AcDbPolyline
 62
7
  6
CONTINUOUS
 90
52
 70
0
 10
132.6915058752
 20
137.7241131388
 10
132.6743793693
 20
137.7308378889
 10
132.6494390367
 20
137.7400990227
 10
132.6241698448
 20
137.7488696466
 10
132.5985966668
 20
137.7571486834
 10
132.5727365062
 20
137.7649382586
 10
132.5466008598
 20
137.772241336
 10
132.52020885
 20
137.7790582564
 10
132.493581049
 20
137.7853891988
 10
132.4667319503
 20
137.7912352283
 10
132.439681546
 20
137.7965961746
 10
132.4124497286
 20
137.8014721314
 10
132.3850515249
 20
137.8058635918
 10
132.3575069661
 20
137.8097703929
 10
132.3298358747
 20
137.8131924929
 10
132.3020536414
 20
137.816130022
 10
132.2741808194
 20
137.8185828653
 10
132.2462366893
 20
137.8205510095
 10
132.2182351714
 20
137.8220344924
 10
132.190196953
 20
137.8230332755
 10
132.1621411065
 20
137.8235472627
 10
132.1340793104
 20
137.8235762292
 10
132.1060314187
 20
137.8231200843
 10
132.0780172889
 20
137.8221785278
 10
132.0500485009
 20
137.820750878
 10
132.0221439288
 20
137.8188368514
 10
131.9943244867
 20
137.8164360191
 10
131.9666043801
 20
137.8135475049
 10
131.9390024473
 20
137.8101709174
 10
131.9115397418
 20
137.806305814
 10
131.8842329297
 20
137.8019514453
 10
131.8571014618
 20
137.7971074619
 10
131.8301657824
 20
137.791773373
 10
131.8034427592
 20
137.7859483459
 10
131.7769479294
 20
137.7796308983
 10
131.750705717
 20
137.7728212908
 10
131.7247443016
 20
137.765521715
 10
131.6990804614
 20
137.7577312454
 10
131.6737363926
 20
137.7494503333
 10
131.6487454009
 20
137.740684118
 10
131.6241261339
 20
137.7314329878
 10
131.5998969751
 20
137.721697127
 10
131.5760874123
 20
137.711481861
 10
131.5527150826
 20
137.7007875743
 10
131.5297976136
 20
137.6896146883
 10
131.5073613602
 20
137.6779683293
 10
131.4854233126
 20
137.6658486758
 10
131.4640004007
 20
137.6532558574
 10
131.4431161888
 20
137.640193991
 10
131.4227892107
 20
137.6266639942
 10
131.4030356574
 20
137.6126656721
 10
131.3893556199
 20
137.6024328558
  0
LWPOLYLINE
  5
5A8
100
AcDbEntity
  8
RACCORDO
100
AcDbPolyline
 62
253
  6
CONTINUOUS
 90
21
 70
0
 10
131.51289357
 20
137.6090419081
 10
131.5058352408
 20
137.6118229003
 10
131.4987865328
 20
137.6142837881
 10
131.4917608584
 20
137.6164198888
 10
131.4847715862
 20
137.6182271379
 10
131.4778320154
 20
137.6197020964
 10
131.4709553509
 20
137.6208419579
 10
131.4641546777
 20
137.6216445532
 10
131.4574429362
 20
137.6221083553
 10
131.4508328976
 20
137.6222324816
 10
131.4443371397
 20
137.622016696
 10
131.4379680227
 20
137.6214614089
 10
131.4317376659
 20
137.6205676771
 10
131.4256579246
 20
137.6193372012
 10
131.4197403673
 20
137.6177723224
 10
131.4139962541
 20
137.6158760186
 10
131.408436515
 20
137.6136518979
 10
131.4030717292
 20
137.6111041926
 10
131.397912105
 20
137.6082377504
 10
131.39296746
 20
137.6050580257
 10
131.3893581717
 20
137.6024348926
  0
LWPOLYLINE
  5
5A9
100
AcDbEntity
  8
RACCORDO
100
AcDbPolyline
 62
253
  6
CONTINUOUS
 90
20
 70
0
 10
152.4537866442
 20
129.7378578842
 10
152.446728315
 20
129.7406388765
 10
152.4396796071
 20
129.7430997643
 10
152.4326539326
 20
129.745235865
 10
152.4256646604
 20
129.7470431141
 10
152.4187250897
 20
129.7485180726
 10
152.4118484251
 20
129.749657934
 10
152.4050477519
 20
129.7504605294
 10
152.3983360104
 20
129.7509243315
 10
152.3917259718
 20
129.7510484578
 10
152.3852302139
 20
129.7508326721
 10
152.3788610969
 20
129.7502773851
 10
152.3726307401
 20
129.7493836533
 10
152.3665509988
 20
129.7481531773
 10
152.3606334415
 20
129.7465882986
 10
152.3548893283
 20
129.7446919947
 10
152.3493295892
 20
129.7424678741
 10
152.3439648034
 20
129.7399201688
 10
152.3388051792
 20
129.7370537266
 10
152.3338605342
 20
129.7338740019
  0
LINE
  5
5AA
100
AcDbEntity
  8
DRAFT
100
AcDbLine
 62
7
  6
CONTINUOUS
 10
151.1704592288
 20
129.0977131134
 11
151.1139849232
 21
129.1203944677
  0
LINE
  5
5AB
100
AcDbEntity
  8
RACCORDO
100
AcDbLine
 62
7
  6
CONTINUOUS
 10
154.0917687328
 20
128.0487494177
 11
151.5699224955
 21
129.0615797203
  0
LINE
  5
5AC
100
AcDbEntity
  8
RACCORDO
100
AcDbLine
 62
7
  6
CONTINUOUS
 10
134.2858642654
 20
136.0032471655
 11
131.0911213883
 21
137.2863279287
  0
LINE
  5
5AD
100
AcDbEntity
  8
DRAFT
100
AcDbLine
 62
7
  6
CONTINUOUS
 10
135.9641781352
 20
135.6921719147
 11
135.3247314836
 21
135.9489881059
  0
LINE
  5
5AE
100
AcDbEntity
  8
DRAFT
100
AcDbLine
 62
7
  6
CONTINUOUS
 10
151.1802208621
 20
129.5810661179
 11
151.8056681913
 21
129.3298723701
  0
LINE
  5
5AF
100
AcDbEntity
  8
DRAFT
100
AcDbLine
 62
7
  6
CONTINUOUS
 10
152.164562539
 20
129.604476121
 11
151.1302335723
 21
130.0198859524
  0
LINE
  5
5B0
100
AcDbEntity
  8
DRAFT
100
AcDbLine
 62
7
  6
CONTINUOUS
 10
136.3141148383
 20
135.9703732575
 11
135.3247314836
 21
136.3677319179
  0
LINE
  5
5B1
100
AcDbEntity
  8
RACCORDO
100
AcDbLine
 62
253
  6
CONTINUOUS
 10
135.1267335414
 20
136.6967930396
 11
132.6189683146
 21
137.7039680909
  0
LINE
  5
5B2
100
AcDbEntity
  8
RACCORDO
100
AcDbLine
 62
253
  6
CONTINUOUS
 10
152.4537866442
 20
129.7378578842
 11
154.9535725149
 21
128.7338875222
  0
LINE
  5
5B3
100
AcDbEntity
  8
RACCORDO
100
AcDbLine
 62
7
  6
CONTINUOUS
 10
135.1992691413
 20
136.7169389119
 11
132.6915039144
 21
137.7241139632
  0
LINE
  5
5B4
100
AcDbEntity
  8
RACCORDO
100
AcDbLine
 62
7
  6
CONTINUOUS
 10
152.526322244
 20
129.7580037565
 11
154.9947530935
 21
128.7666262779
  0
LINE
  5
5B5
100
AcDbEntity
  8
RACCORDO
100
AcDbLine
 62
253
  6
CONTINUOUS
 10
161.1582452521
 20
127.3395201591
 11
162.6215588238
 21
126.7518204391
  0
LWPOLYLINE
  5
5B6
100
AcDbEntity
  8
RACCORDO
100
AcDbPolyline
 62
7
  6
CONTINUOUS
 90
52
 70
0
 10
134.2874124539
 20
136.0026091135
 10
134.294176901
 20
135.9996450834
 10
134.3009883777
 20
135.9964497473
 10
134.3078350368
 20
135.9930282772
 10
134.3147036009
 20
135.9893869102
 10
134.3215831589
 20
135.9855304937
 10
134.3284652977
 20
135.9814622468
 10
134.3353378521
 20
135.9771877131
 10
134.3421882317
 20
135.9727132924
 10
134.349007327
 20
135.9680434669
 10
134.3557823937
 20
135.9631845818
 10
134.3625008139
 20
135.9581432403
 10
134.3691535257
 20
135.9529243613
 10
134.3757304534
 20
135.9475323338
 10
134.3822157192
 20
135.9419766405
 10
134.3885915718
 20
135.9362701648
 10
134.3948732735
 20
135.9303904503
 10
134.4010190045
 20
135.924374824
 10
134.4069299245
 20
135.9183278258
 10
134.4126083167
 20
135.9122396242
 10
134.4180376162
 20
135.9061372049
 10
134.4231048226
 20
135.900181855
 10
134.4277786948
 20
135.8944215596
 10
134.432103619
 20
135.8888207525
 10
134.4360913182
 20
135.8834140433
 10
134.4397397246
 20
135.8782257996
 10
134.4430720869
 20
135.8732362727
 10
134.4461372624
 20
135.8684126903
 10
134.4489499178
 20
135.8637525749
 10
134.4515135239
 20
135.8592590978
 10
134.453856199
 20
135.8549078359
 10
134.4559899657
 20
135.8506965425
 10
134.457919236
 20
135.8466260553
 10
134.4596583774
 20
135.8426766254
 10
134.4612176206
 20
135.8388476249
 10
134.4626018578
 20
135.8351370541
 10
134.4638160855
 20
135.8315231596
 10
134.4648704624
 20
135.8280037479
 10
134.4657685347
 20
135.8245777619
 10
134.4665048069
 20
135.8212251063
 10
134.4670884808
 20
135.8179460473
 10
134.4675232265
 20
135.8147366157
 10
134.4677952433
 20
135.8115702117
 10
134.4679109684
 20
135.8084384135
 10
134.4678755787
 20
135.8053458685
 10
134.4676738193
 20
135.802285319
 10
134.4672984721
 20
135.7992356193
 10
134.4667673577
 20
135.7962141659
 10
134.4661030564
 20
135.7932713475
 10
134.4653158396
 20
135.7904229362
 10
134.4644032605
 20
135.7876502505
 10
134.4633682025
 20
135.7849522006
  0
LWPOLYLINE
  5
5B7
100
AcDbEntity
  8
ASSI
100
AcDbPolyline
 62
253
  6
CONTINUOUS
 90
13
 70
0
 10
131.0361512451
 20
139.1990925915
 10
131.0624093759
 20
139.1868174949
 10
131.088191645
 20
139.1713237634
 10
131.1130714704
 20
139.1528677494
 10
131.1366372017
 20
139.1317548177
 10
131.1584989308
 20
139.1083342937
 10
131.1782949433
 20
139.0829936826
 10
131.1956977031
 20
139.0561522591
 10
131.210419272
 20
139.0282541293
 10
131.2222160733
 20
138.9997608832
 10
131.2308929226
 20
138.9711439575
 10
131.2363062564
 20
138.9428768349
 10
131.2383665081
 20
138.9154272107
  0
LWPOLYLINE
  5
5B8
100
AcDbEntity
  8
ASSI
100
AcDbPolyline
 62
253
  6
CONTINUOUS
 90
13
 70
0
 10
149.4670722416
 20
131.796819204
 10
149.4933303724
 20
131.7845441074
 10
149.5191126415
 20
131.7690503759
 10
149.5439924669
 20
131.7505943618
 10
149.5675581982
 20
131.7294814302
 10
149.5894199273
 20
131.7060609061
 10
149.6092159398
 20
131.680720295
 10
149.6266186996
 20
131.6538788715
 10
149.6413402685
 20
131.6259807417
 10
149.6531370698
 20
131.5974874956
 10
149.6618139191
 20
131.5688705699
 10
149.6672272529
 20
131.5406034473
 10
149.6692875046
 20
131.5131538231
  0
LWPOLYLINE
  5
5B9
100
AcDbEntity
  8
DRAFT
100
AcDbPolyline
 62
7
  6
CONTINUOUS
 90
3
 70
0
 10
151.7437958893
 20
129.2825315125
 10
151.57727426
 20
129.3662892067
 10
151.1802208621
 20
129.5810661179
  0
LINE
  5
5BA
100
AcDbEntity
  8
ASSI
100
AcDbLine
 62
7
  6
CONTINUOUS
 10
159.0420527601
 20
120.9690748172
 11
159.3216918022
 21
120.5771264314
  0
LWPOLYLINE
  5
5BB
100
AcDbEntity
  8
ASSI
100
AcDbPolyline
 62
7
  6
CONTINUOUS
 90
18
 70
0
 10
156.1114430446
 20
128.7429886971
 10
156.1341933826
 20
128.7079052435
 10
156.1544282017
 20
128.6724262341
 10
156.1721475018
 20
128.6365516688
 10
156.1874423615
 20
128.6000181476
 10
156.2002217022
 20
128.5630890705
 10
156.2102122881
 20
128.526554638
 10
156.2173538993
 20
128.4904240625
 10
156.2217067556
 20
128.4546881317
 10
156.2231782803
 20
128.4201094085
 10
156.2217067556
 20
128.3867126804
 10
156.2173538993
 20
128.35447316
 10
156.2102122881
 20
128.3240790486
 10
156.2002217022
 20
128.2955695052
 10
156.1874423615
 20
128.2689053708
 10
156.1721475018
 20
128.2446573705
 10
156.1544282017
 20
128.223015746
 10
156.1328380135
 20
128.202662969
  0
LWPOLYLINE
  5
5BC
100
AcDbEntity
  8
ASSI
100
AcDbPolyline
 62
253
  6
CONTINUOUS
 90
5
 70
0
 10
158.5085913187
 20
124.6885395636
 10
158.5144462663
 20
124.6768365141
 10
158.5173965677
 20
124.6664168986
 10
158.5173922896
 20
124.6574570308
 10
158.5150687887
 20
124.651110554
  0
LWPOLYLINE
  5
5BD
100
AcDbEntity
  8
RACCORDO
100
AcDbPolyline
 62
253
  6
CONTINUOUS
 90
4
 70
0
 10
153.262261675
 20
132.1857187507
 10
153.274297024
 20
132.159579169
 10
153.2846267185
 20
132.1311115998
 10
153.2931985827
 20
132.1004155207
  0
LWPOLYLINE
  5
5BE
100
AcDbEntity
  8
RACCORDO
100
AcDbPolyline
 62
7
  6
CONTINUOUS
 90
31
 70
0
 10
164.7876003008
 20
124.8161801736
 10
164.7872217402
 20
124.8524549251
 10
164.7857507259
 20
124.8966508113
 10
164.7831726709
 20
124.9410980282
 10
164.7794887312
 20
124.9857859116
 10
164.7747022985
 20
125.0306839214
 10
164.7688207492
 20
125.0757387314
 10
164.7618489959
 20
125.1209316022
 10
164.7537925279
 20
125.1662416283
 10
164.7446642041
 20
125.2116110102
 10
164.7344718566
 20
125.2570196105
 10
164.7232234497
 20
125.3024471294
 10
164.7109374027
 20
125.3478344913
 10
164.6976247965
 20
125.3931600293
 10
164.6832956664
 20
125.4384047584
 10
164.6679726791
 20
125.4835126396
 10
164.6516710836
 20
125.5284576118
 10
164.6344014654
 20
125.573225394
 10
164.6161844045
 20
125.6177769293
 10
164.5970348821
 20
125.662090335
 10
164.5769657773
 20
125.7061474122
 10
164.5559979912
 20
125.7499141946
 10
164.534146545
 20
125.7933705338
 10
164.5114257563
 20
125.8364970478
 10
164.4878583194
 20
125.8792605668
 10
164.4634599549
 20
125.921641308
 10
164.4382459865
 20
125.9636201388
 10
164.4122401401
 20
126.0051653528
 10
164.3854610735
 20
126.0462541851
 10
164.3579238765
 20
126.0868705706
 10
164.3347948111
 20
126.1198026752
  0
LINE
  5
5BF
100
AcDbEntity
  8
RACCORDO
100
AcDbLine
 62
253
  6
CONTINUOUS
 10
164.702119107
 20
124.6558072475
 11
164.702119107
 21
95.079592363
  0
LINE
  5
5C0
100
AcDbEntity
  8
RACCORDO
100
AcDbLine
 62
7
  6
CONTINUOUS
 10
164.7876003207
 20
124.8161804538
 11
164.7876003207
 21
95.2399590294
  0
LWPOLYLINE
  5
5C1
100
AcDbEntity
  8
RACCORDO
100
AcDbPolyline
 62
253
  6
CONTINUOUS
 90
19
 70
0
 10
164.7876003207
 20
124.8161801736
 10
164.7875894523
 20
124.8142895391
 10
164.787177827
 20
124.8043932803
 10
164.7861709927
 20
124.794511065
 10
164.784570149
 20
124.7846546672
 10
164.7823772031
 20
124.7748358299
 10
164.7795947679
 20
124.7650662517
 10
164.7762261583
 20
124.7553575722
 10
164.7722753879
 20
124.7457213585
 10
164.7677471636
 20
124.7361690916
 10
164.7626468805
 20
124.7267121522
 10
164.7569806151
 20
124.7173618075
 10
164.7507551186
 20
124.7081291978
 10
164.7439778079
 20
124.6990253231
 10
164.7366567579
 20
124.6900610298
 10
164.7288006909
 20
124.6812469984
 10
164.7204189669
 20
124.67259373
 10
164.7115215721
 20
124.6641115344
 10
164.702119107
 20
124.6558105174
  0
LWPOLYLINE
  5
5C2
100
AcDbEntity
  8
RACCORDO
100
AcDbPolyline
 62
253
  6
CONTINUOUS
 90
28
 70
0
 10
164.7021191019
 20
95.0795923586
 10
164.7017018841
 20
95.0408366044
 10
164.7003544947
 20
95.0024730578
 10
164.6980776067
 20
94.9645233834
 10
164.6948723577
 20
94.9270089007
 10
164.6907405451
 20
94.88995092
 10
164.6856846416
 20
94.8533707232
 10
164.6797074734
 20
94.8172890179
 10
164.6728123555
 20
94.7817261502
 10
164.6650033049
 20
94.7467024317
 10
164.6562847414
 20
94.7122377301
 10
164.6466615444
 20
94.6783514497
 10
164.6361392011
 20
94.6450627392
 10
164.624723648
 20
94.6123904106
 10
164.6124213219
 20
94.5803529641
 10
164.5992392196
 20
94.5489685689
 10
164.5851848083
 20
94.5182549976
 10
164.5702660266
 20
94.4882296276
 10
164.5544913274
 20
94.458909471
 10
164.5378696652
 20
94.4303111497
 10
164.5204104458
 20
94.4024508497
 10
164.5021235268
 20
94.3753443222
 10
164.4830193167
 20
94.3490069693
 10
164.4631086276
 20
94.3234536875
 10
164.442402618
 20
94.2986988286
 10
164.4209130179
 20
94.274756417
 10
164.3986520518
 20
94.2516400822
 10
164.375632292
 20
94.2293629011
  0
LWPOLYLINE
  5
5C3
100
AcDbEntity
  8
RACCORDO
100
AcDbPolyline
 62
253
  6
CONTINUOUS
 90
18
 70
0
 10
164.7875894523
 20
95.2380681172
 10
164.7871778272
 20
95.2281718583
 10
164.786170993
 20
95.2182896429
 10
164.7845701494
 20
95.208433245
 10
164.7823772037
 20
95.1986144076
 10
164.7795947685
 20
95.1888448292
 10
164.776226159
 20
95.1791361496
 10
164.7722753886
 20
95.1694999358
 10
164.7677471643
 20
95.1599476687
 10
164.7626468812
 20
95.1504907291
 10
164.7569806159
 20
95.1411403843
 10
164.7507551193
 20
95.1319077744
 10
164.7439778085
 20
95.1228038995
 10
164.7366567584
 20
95.1138396061
 10
164.7288006913
 20
95.1050255745
 10
164.7204189672
 20
95.0963723059
 10
164.7115215722
 20
95.0878901101
 10
164.702119107
 20
95.079589093
  0
LWPOLYLINE
  5
5C4
100
AcDbEntity
  8
ASSI
100
AcDbPolyline
 62
7
  6
CONTINUOUS
 90
3
 70
0
 10
158.5439477636
 20
85.3309929099
 10
158.5491774479
 20
85.3503224547
 10
158.5531466527
 20
85.3702621949
  0
LWPOLYLINE
  5
5C5
100
AcDbEntity
  8
ASSI
100
AcDbPolyline
 62
7
  6
CONTINUOUS
 90
4
 70
0
 10
158.0652314593
 20
84.8689408788
 10
158.0696587063
 20
84.883749151
 10
158.0723176012
 20
84.8995678684
 10
158.0731986537
 20
84.9162110028
  0
LINE
  5
5C6
100
AcDbEntity
  8
ASSI
100
AcDbLine
 62
7
  6
CONTINUOUS
 10
158.4827746758
 20
89.5028228477
 11
159.3753147071
 21
90.9040764365
  0
LINE
  5
5C7
100
AcDbEntity
  8
RACCORDO
100
AcDbLine
 62
253
  6
CONTINUOUS
 10
159.3840969326
 20
90.5010288144
 11
164.702119107
 21
95.079592363
  0
LINE
  5
5C8
100
AcDbEntity
  8
ASSI
100
AcDbLine
 62
7
  6
CONTINUOUS
 10
159.3216918022
 20
90.1639114554
 11
159.0420527601
 21
89.9231557443
  0
LWPOLYLINE
  5
5C9
100
AcDbEntity
  8
ASSI
100
AcDbPolyline
 62
7
  6
CONTINUOUS
 90
7
 70
0
 10
131.6986698198
 20
135.0345519676
 10
131.716731016
 20
135.0390687643
 10
131.7360689864
 20
135.0411704498
 10
131.7562570329
 20
135.0407977575
 10
131.776982998
 20
135.0380008235
 10
131.7980892007
 20
135.0328456811
 10
131.819344444
 20
135.025419424
  0
LWPOLYLINE
  5
5CA
100
AcDbEntity
  8
ASSI
100
AcDbPolyline
 62
7
  6
CONTINUOUS
 90
5
 70
0
 10
137.415012155
 20
136.7412113912
 10
137.3765378052
 20
136.7378475701
 10
137.3389042496
 20
136.7313779936
 10
137.301966246
 20
136.7217118365
 10
137.2669495553
 20
136.7091163283
  0
LWPOLYLINE
  5
5CB
100
AcDbEntity
  8
ASSI
100
AcDbPolyline
 62
253
  6
CONTINUOUS
 90
11
 70
0
 10
123.5572540382
 20
136.3865844968
 10
123.5688475456
 20
136.3868764095
 10
123.5910902072
 20
136.3900021932
 10
123.6128084975
 20
136.3964539963
 10
123.6336349219
 20
136.4061226478
 10
123.6532170772
 20
136.4188445451
 10
123.6712236146
 20
136.4344044211
 10
123.6873498458
 20
136.4525389879
 10
123.7013228996
 20
136.472941391
 10
123.7129063384
 20
136.495266402
 10
123.7219041591
 20
136.5191362603
  0
LINE
  5
5CC
100
AcDbEntity
  8
ASSI
100
AcDbLine
 62
7
  6
CONTINUOUS
 10
124.0844249639
 20
136.3786627143
 11
123.5570957373
 21
136.386586791
  0
LINE
  5
5CD
100
AcDbEntity
  8
ASSI
100
AcDbLine
 62
253
  6
CONTINUOUS
 10
124.3239628258
 20
136.5100892383
 11
123.7219041591
 21
136.5191362603
  0
LWPOLYLINE
  5
5CE
100
AcDbEntity
  8
ASSI
100
AcDbPolyline
 62
253
  6
CONTINUOUS
 90
22
 70
0
 10
123.7219041591
 20
136.5191362603
 10
123.7208594415
 20
136.5191811056
 10
123.7198226865
 20
136.5193240285
 10
123.7187938941
 20
136.519565029
 10
123.7177667557
 20
136.5198990054
 10
123.71674758
 20
136.5203310593
 10
123.7157552928
 20
136.5208764964
 10
123.7147899904
 20
136.5215377566
 10
123.7138515765
 20
136.5223123999
 10
123.7129586876
 20
136.5232084115
 10
123.7121119568
 20
136.5242286678
 10
123.7113107511
 20
136.5253702923
 10
123.7105718083
 20
136.5266326408
 10
123.7098962896
 20
136.5280187027
 10
123.7092830338
 20
136.5295254887
 10
123.7087452953
 20
136.5311433862
 10
123.7082846754
 20
136.5328751506
 10
123.7078995727
 20
136.5347180267
 10
123.7075984377
 20
136.5366541364
 10
123.7073840873
 20
136.5386775206
 10
123.7072537045
 20
136.5407941384
 10
123.7072072894
 20
136.54300399
  0
LWPOLYLINE
  5
5CF
100
AcDbEntity
  8
RACCORDO
100
AcDbPolyline
 62
253
  6
CONTINUOUS
 90
9
 70
0
 10
158.1829102167
 20
130.340591006
 10
158.1574856449
 20
130.349459666
 10
158.132301305
 20
130.3555743453
 10
158.1076270306
 20
130.3588695292
 10
158.0837271906
 20
130.359309912
 10
158.0608578559
 20
130.3568907753
 10
158.039264056
 20
130.3516380381
 10
158.0191771543
 20
130.3436079802
 10
158.0008123687
 20
130.3328866383
  0
LWPOLYLINE
  5
5D0
100
AcDbEntity
  8
RACCORDO
100
AcDbPolyline
 62
253
  6
CONTINUOUS
 90
9
 70
0
 10
139.7519892202
 20
137.7428643936
 10
139.7265646484
 20
137.7517330536
 10
139.7013803085
 20
137.7578477329
 10
139.6767060341
 20
137.7611429168
 10
139.6528061941
 20
137.7615832996
 10
139.6299368594
 20
137.7591641629
 10
139.6083430595
 20
137.7539114257
 10
139.5882561578
 20
137.7458813678
 10
139.5698913722
 20
137.7351600259
  0
LWPOLYLINE
  5
5D1
100
AcDbEntity
  8
ASSI
100
AcDbPolyline
 62
253
  6
CONTINUOUS
 90
8
 70
0
 10
130.8276904805
 20
139.2843777289
 10
130.801274591
 20
139.2936002049
 10
130.7752677066
 20
139.2991277912
 10
130.75011464
 20
139.3008659459
 10
130.7262456004
 20
139.2987849402
 10
130.7040688356
 20
139.292920367
 10
130.6839636492
 20
139.2833725319
 10
130.6733240416
 20
139.2761593412
  0
LINE
  5
5D2
100
AcDbEntity
  8
RACCORDO
100
AcDbLine
 62
7
  6
CONTINUOUS
 10
138.484059093
 20
138.1877621363
 11
138.4847938991
 21
138.1875008376
  0
LWPOLYLINE
  5
5D3
100
AcDbEntity
  8
RACCORDO
100
AcDbPolyline
 62
253
  6
CONTINUOUS
 90
21
 70
0
 10
155.6412313499
 20
132.5943764118
 10
155.6337215892
 20
132.5970817845
 10
155.6258774837
 20
132.5992799297
 10
155.6178296561
 20
132.6009194376
 10
155.6095876948
 20
132.6019983547
 10
155.6011614195
 20
132.6025153956
 10
155.5925608694
 20
132.6024699443
 10
155.5837962915
 20
132.6018620549
 10
155.574878128
 20
132.6006924517
 10
155.5658170044
 20
132.5989625281
 10
155.5566237162
 20
132.5966743453
 10
155.5473092166
 20
132.5938306293
 10
155.537884603
 20
132.5904347684
 10
155.5283611042
 20
132.5864908083
 10
155.5187500668
 20
132.5820034481
 10
155.5090629416
 20
132.576978034
 10
155.49931127
 20
132.5714205534
 10
155.4895066704
 20
132.5653376278
 10
155.4796608243
 20
132.5587365043
 10
155.4697854623
 20
132.5516250479
 10
155.4598923501
 20
132.5440117311
  0
LWPOLYLINE
  5
5D4
100
AcDbEntity
  8
RACCORDO
100
AcDbPolyline
 62
253
  6
CONTINUOUS
 90
11
 70
0
 10
158.5431895132
 20
130.4422837405
 10
158.5353601173
 20
130.4452519889
 10
158.5024051074
 20
130.4541666634
 10
158.4676291519
 20
130.4580488093
 10
158.4310278144
 20
130.456861121
 10
158.3927341934
 20
130.4505226131
 10
158.3529824056
 20
130.4389892353
 10
158.3119097863
 20
130.4222223731
 10
158.2697080368
 20
130.400206306
 10
158.2266278999
 20
130.3729751999
 10
158.1829102167
 20
130.340591006
  0
LWPOLYLINE
  5
5D5
100
AcDbEntity
  8
RACCORDO
100
AcDbPolyline
 62
253
  6
CONTINUOUS
 90
11
 70
0
 10
140.1122685167
 20
137.8445571281
 10
140.1044391208
 20
137.8475253765
 10
140.0714841109
 20
137.856440051
 10
140.0367081554
 20
137.8603221969
 10
140.0001068179
 20
137.8591345086
 10
139.9618131969
 20
137.8527960007
 10
139.9220614091
 20
137.8412626229
 10
139.8809887898
 20
137.8244957607
 10
139.8387870403
 20
137.8024796936
 10
139.7957069034
 20
137.7752485875
 10
139.7519892202
 20
137.7428643936
  0
LWPOLYLINE
  5
5D6
100
AcDbEntity
  8
RACCORDO
100
AcDbPolyline
 62
7
  6
CONTINUOUS
 90
4
 70
0
 10
138.5198359204
 20
138.1734242802
 10
138.5081416688
 20
138.1778782331
 10
138.4974528964
 20
138.1815316653
 10
138.4870343575
 20
138.184663227
  0
LWPOLYLINE
  5
5D7
100
AcDbEntity
  8
RACCORDO
100
AcDbPolyline
 62
7
  6
CONTINUOUS
 90
10
 70
0
 10
158.5436753709
 20
130.4420864292
 10
158.5331195687
 20
130.4461869845
 10
158.4917710171
 20
130.4594053767
 10
158.4488406807
 20
130.4686708356
 10
158.4046562437
 20
130.4738238099
 10
158.3595555861
 20
130.474752993
 10
158.313779605
 20
130.4713858501
 10
158.2676225237
 20
130.4636789314
 10
158.2213752437
 20
130.4516459076
 10
158.1752230241
 20
130.4353225381
  0
LWPOLYLINE
  5
5D8
100
AcDbEntity
  8
RACCORDO
100
AcDbPolyline
 62
7
  6
CONTINUOUS
 90
10
 70
0
 10
140.1127543744
 20
137.8443598168
 10
140.1021985725
 20
137.848460372
 10
140.0608500209
 20
137.8616787642
 10
140.0179196845
 20
137.8709442231
 10
139.9737352474
 20
137.8760971975
 10
139.9286345898
 20
137.8770263806
 10
139.8828586087
 20
137.8736592378
 10
139.8367015273
 20
137.865952319
 10
139.7904542474
 20
137.8539192952
 10
139.7443020278
 20
137.8375959258
  0
LINE
  5
5D9
100
AcDbEntity
  8
RACCORDO
100
AcDbLine
 62
7
  6
CONTINUOUS
 10
161.2556501991
 20
127.4235946476
 11
162.7271456109
 21
126.8326089162
  0
LINE
  5
5DA
100
AcDbEntity
  8
RACCORDO
100
AcDbLine
 62
253
  6
CONTINUOUS
 10
129.3494225696
 20
140.6061516881
 11
129.8490796272
 21
140.4054781493
  0
LINE
  5
5DB
100
AcDbEntity
  8
RACCORDO
100
AcDbLine
 62
253
  6
CONTINUOUS
 10
163.0428030741
 20
127.074130478
 11
163.6287222911
 21
126.8388121112
  0
LINE
  5
5DC
100
AcDbEntity
  8
RACCORDO
100
AcDbLine
 62
7
  6
CONTINUOUS
 10
129.5715230289
 20
140.6401456477
 11
129.9518952689
 21
140.4873795808
  0
LINE
  5
5DD
100
AcDbEntity
  8
RACCORDO
100
AcDbLine
 62
7
  6
CONTINUOUS
 10
163.2286570592
 20
127.1226818388
 11
163.7692998311
 21
126.9055475131
  0
LINE
  5
5DE
100
AcDbEntity
  8
RACCORDO
100
AcDbLine
 62
253
  6
CONTINUOUS
 10
143.5045289606
 20
135.4126330687
 11
148.6901892383
 21
133.3299549931
  0
LINE
  5
5DF
100
AcDbEntity
  8
RACCORDO
100
AcDbLine
 62
7
  6
CONTINUOUS
 10
143.6019339075
 20
135.4967075572
 11
148.7930048801
 21
133.4118564247
  0
LINE
  5
5E0
100
AcDbEntity
  8
0
100
AcDbLine
 62
7
  6
CONTINUOUS
 10
139.0545758792
 20
137.3260221526
 11
134.2561686002
 21
139.2531706935
  0
LINE
  5
5E1
100
AcDbEntity
  8
0
100
AcDbLine
 62
7
  6
CONTINUOUS
 10
152.6870895967
 20
131.8508973059
 11
157.4854968757
 21
129.9237487651
  0
LINE
  5
5E2
100
AcDbEntity
  8
RACCORDO
100
AcDbLine
 62
7
  6
CONTINUOUS
 10
134.9290507089
 20
139.5351969219
 11
139.5161984126
 21
137.6928939835
  0
LINE
  5
5E3
100
AcDbEntity
  8
RACCORDO
100
AcDbLine
 62
7
  6
CONTINUOUS
 10
153.3599717054
 20
132.1329235343
 11
157.9471194091
 21
130.2906205959
  0
LINE
  5
5E4
100
AcDbEntity
  8
RACCORDO
100
AcDbLine
 62
253
  6
CONTINUOUS
 10
156.5530535137
 20
130.8782957119
 11
156.0066487204
 21
131.0977441953
  0
LINE
  5
5E5
100
AcDbEntity
  8
RACCORDO
100
AcDbLine
 62
7
  6
CONTINUOUS
 10
156.7054851609
 20
130.8696604513
 11
156.0376963113
 21
131.1378595082
  0
LINE
  5
5E6
100
AcDbEntity
  8
RACCORDO
100
AcDbLine
 62
7
  6
CONTINUOUS
 10
138.4848327868
 20
138.1874852197
 11
138.5025056526
 21
138.1803873983
  0
LINE
  5
5E7
100
AcDbEntity
  8
RACCORDO
100
AcDbLine
 62
253
  6
CONTINUOUS
 10
131.0089225013
 20
141.2542770957
 11
134.2316684968
 21
139.9599496488
  0
LINE
  5
5E8
100
AcDbEntity
  8
RACCORDO
100
AcDbLine
 62
253
  6
CONTINUOUS
 10
139.7519892202
 20
137.7428643936
 11
142.9747352157
 21
136.4485369467
  0
LINE
  5
5E9
100
AcDbEntity
  8
RACCORDO
100
AcDbLine
 62
253
  6
CONTINUOUS
 10
149.4398434978
 20
133.8520037081
 11
152.6625894933
 21
132.5576762612
  0
LINE
  5
5EA
100
AcDbEntity
  8
RACCORDO
100
AcDbLine
 62
253
  6
CONTINUOUS
 10
158.1829102167
 20
130.340591006
 11
161.4056562122
 21
129.0462635591
  0
LINE
  5
5EB
100
AcDbEntity
  8
ASSI
100
AcDbLine
 62
7
  6
CONTINUOUS
 10
131.1785089218
 20
141.4325563884
 11
134.5967615291
 21
140.0597090785
  0
LINE
  5
5EC
100
AcDbEntity
  8
ASSI
100
AcDbLine
 62
7
  6
CONTINUOUS
 10
140.1122548799
 20
137.844562605
 11
143.5305047937
 21
136.471716377
  0
LINE
  5
5ED
100
AcDbEntity
  8
ASSI
100
AcDbLine
 62
7
  6
CONTINUOUS
 10
149.6094299183
 20
134.0302830008
 11
153.0276825256
 21
132.657435691
  0
LINE
  5
5EE
100
AcDbEntity
  8
ASSI
100
AcDbLine
 62
7
  6
CONTINUOUS
 10
158.5431758764
 20
130.4422892174
 11
161.9614257902
 21
129.0694429894
  0
LINE
  5
5EF
100
AcDbEntity
  8
RACCORDO
100
AcDbLine
 62
253
  6
CONTINUOUS
 10
144.9747491621
 20
136.7550816174
 11
155.4598893712
 21
132.5440129275
  0
LINE
  5
5F0
100
AcDbEntity
  8
RACCORDO
100
AcDbLine
 62
7
  6
CONTINUOUS
 10
134.5967450764
 20
140.0597156863
 11
134.5967985947
 21
140.0596941842
  0
LINE
  5
5F1
100
AcDbEntity
  8
RACCORDO
100
AcDbLine
 62
7
  6
CONTINUOUS
 10
153.0276660729
 20
132.6574422987
 11
153.0277195912
 21
132.6574207966
  0
LINE
  5
5F2
100
AcDbEntity
  8
RACCORDO
100
AcDbLine
 62
7
  6
CONTINUOUS
 10
140.1127923646
 20
137.8443459373
 11
140.1122685167
 21
137.8445571281
  0
LINE
  5
5F3
100
AcDbEntity
  8
RACCORDO
100
AcDbLine
 62
7
  6
CONTINUOUS
 10
158.5437133611
 20
130.4420725497
 11
158.5431895132
 21
130.4422837405
  0
LWPOLYLINE
  5
5F4
100
AcDbEntity
  8
RACCORDO
100
AcDbPolyline
 62
7
  6
CONTINUOUS
 90
7
 70
0
 10
163.7693991007
 20
126.9055076434
 10
163.7698742201
 20
126.905311385
 10
163.7725333614
 20
126.9039983091
 10
163.7749726947
 20
126.9024108806
 10
163.7771893988
 20
126.9005527101
 10
163.7791883402
 20
126.8984244947
 10
163.7804073831
 20
126.8968457324
  0
LWPOLYLINE
  5
5F5
100
AcDbEntity
  8
RACCORDO
100
AcDbPolyline
 62
253
  6
CONTINUOUS
 90
52
 70
0
 10
155.4598893709
 20
132.5440129273
 10
155.4750214103
 20
132.5376997117
 10
155.4901346596
 20
132.5309223522
 10
155.5052147842
 20
132.5236872494
 10
155.5202475809
 20
132.5160011915
 10
155.5352186888
 20
132.5078714863
 10
155.5501136066
 20
132.4993059832
 10
155.5649181243
 20
132.4903128676
 10
155.5796182906
 20
132.4809006208
 10
155.5942001272
 20
132.4710781719
 10
155.6086498051
 20
132.4608548513
 10
155.6229536306
 20
132.4502403573
 10
155.6370980184
 20
132.439244744
 10
155.6510695611
 20
132.4278784549
 10
155.6648550172
 20
132.4161522758
 10
155.6784412967
 20
132.4040773017
 10
155.6918155326
 20
132.3916649919
 10
155.7049650427
 20
132.3789271344
 10
155.7178773169
 20
132.3658757974
 10
155.7305401212
 20
132.352523378
 10
155.7429414602
 20
132.33888255
 10
155.7550695384
 20
132.324966225
 10
155.7669128719
 20
132.3107876174
 10
155.7784602406
 20
132.2963601912
 10
155.7897006503
 20
132.2816976064
 10
155.8006234568
 20
132.2668137933
 10
155.8112183205
 20
132.2517228806
 10
155.8214751561
 20
132.2364391412
 10
155.83138426
 20
132.2209770864
 10
155.8409362487
 20
132.2053514038
 10
155.8501220132
 20
132.1895768845
 10
155.8589328636
 20
132.1736685137
 10
155.8673604648
 20
132.1576413973
 10
155.8753967745
 20
132.1415106987
 10
155.8830341969
 20
132.1252917359
 10
155.8902655089
 20
132.1089999167
 10
155.8970837955
 20
132.0926506662
 10
155.9034826144
 20
132.0762595229
 10
155.9094559243
 20
132.0598420472
 10
155.9149980089
 20
132.0434137559
 10
155.9201036386
 20
132.0269902493
 10
155.9247679962
 20
132.0105871333
 10
155.9289866042
 20
131.9942199272
 10
155.9327554945
 20
131.9779041753
 10
155.9360711134
 20
131.9616553809
 10
155.9389302471
 20
131.9454889283
 10
155.9413302199
 20
131.9294200886
 10
155.9432687744
 20
131.913464215
 10
155.9447440025
 20
131.89763667
 10
155.9457545283
 20
131.88195255
 10
155.9462994834
 20
131.8664266777
 10
155.946378405
 20
131.8510737938
  0
LWPOLYLINE
  5
5F6
100
AcDbEntity
  8
RACCORDO
100
AcDbPolyline
 62
253
  6
CONTINUOUS
 90
16
 70
0
 10
134.2316684968
 20
139.9599496488
 10
134.257050608
 20
139.9484131422
 10
134.2821285232
 20
139.9343412054
 10
134.3066335411
 20
139.9178846318
 10
134.330303114
 20
139.8992197541
 10
134.3528836234
 20
139.8785465819
 10
134.3741331036
 20
139.8560866689
 10
134.3938238865
 20
139.8320806883
 10
134.4117450206
 20
139.8067858614
 10
134.4277045026
 20
139.7804732377
 10
134.4415313607
 20
139.7534247584
 10
134.4530774856
 20
139.7259302261
 10
134.4622192036
 20
139.6982842174
 10
134.4688586011
 20
139.6707829301
 10
134.4729245749
 20
139.6437210094
 10
134.4743735952
 20
139.617388385
  0
LWPOLYLINE
  5
5F7
100
AcDbEntity
  8
RACCORDO
100
AcDbPolyline
 62
253
  6
CONTINUOUS
 90
16
 70
0
 10
152.6625894933
 20
132.5576762612
 10
152.6879716045
 20
132.5461397546
 10
152.7130495197
 20
132.5320678178
 10
152.7375545376
 20
132.5156112442
 10
152.7612241105
 20
132.4969463665
 10
152.7838046199
 20
132.4762731944
 10
152.8050541001
 20
132.4538132813
 10
152.824744883
 20
132.4298073007
 10
152.8426660171
 20
132.4045124738
 10
152.8586254991
 20
132.3781998501
 10
152.8724523572
 20
132.3511513708
 10
152.8839984821
 20
132.3236568385
 10
152.8931402001
 20
132.2960108298
 10
152.8997795976
 20
132.2685095425
 10
152.9038455714
 20
132.2414476218
 10
152.9052945917
 20
132.2151149974
  0
LWPOLYLINE
  5
5F8
100
AcDbEntity
  8
RACCORDO
100
AcDbPolyline
 62
7
  6
CONTINUOUS
 90
4
 70
0
 10
162.3319005787
 20
128.6091790363
 10
162.3328708852
 20
128.6087325699
 10
162.3446065235
 20
128.6027110105
 10
162.3559729077
 20
128.5962442684
  0
LWPOLYLINE
  5
5F9
100
AcDbEntity
  8
ASSI
100
AcDbPolyline
 62
7
  6
CONTINUOUS
 90
5
 70
0
 10
158.5107347886
 20
85.2581769145
 10
158.5207169447
 20
85.2753096325
 10
158.5296134708
 20
85.2932219518
 10
158.5374521998
 20
85.3120066545
 10
158.5439477636
 20
85.3309929099
  0
LINE
  5
5FA
100
AcDbEntity
  8
ASSI
100
AcDbLine
 62
253
  6
CONTINUOUS
 10
156.5145705015
 20
84.4298316893
 11
157.0316345548
 21
85.2540045334
  0
LINE
  5
5FB
100
AcDbEntity
  8
ASSI
100
AcDbLine
 62
253
  6
CONTINUOUS
 10
156.733731544
 20
84.2675070703
 11
157.3357902107
 21
85.2271568476
  0
LWPOLYLINE
  5
5FC
100
AcDbEntity
  8
ASSI
100
AcDbPolyline
 62
7
  6
CONTINUOUS
 90
8
 70
0
 10
158.4077866575
 20
86.511627335
 10
158.4271069694
 20
86.5340732378
 10
158.4439252478
 20
86.5594631941
 10
158.4579410168
 20
86.5875190334
 10
158.4688659756
 20
86.6176937953
 10
158.4766272555
 20
86.6495820905
 10
158.4812609737
 20
86.6830150178
 10
158.4827746758
 20
86.7177060897
  0
LWPOLYLINE
  5
5FD
100
AcDbEntity
  8
ASSI
100
AcDbPolyline
 62
253
  6
CONTINUOUS
 90
6
 70
0
 10
158.5225732708
 20
85.671623883
 10
158.5356225984
 20
85.6844368469
 10
158.5456792006
 20
85.6981087844
 10
158.5525747979
 20
85.7124109306
 10
158.5561940018
 20
85.7271039745
 10
158.5567657554
 20
85.7357613645
  0
LINE
  5
5FE
100
AcDbEntity
  8
ASSI
100
AcDbLine
 62
7
  6
CONTINUOUS
 10
158.3949619765
 20
86.499494417
 11
158.4077866575
 21
86.511627335
  0
LINE
  5
5FF
100
AcDbEntity
  8
RACCORDO
100
AcDbLine
 62
253
  6
CONTINUOUS
 10
164.3531163107
 20
94.2090197988
 11
164.3518868706
 21
94.207955603
  0
LWPOLYLINE
  5
600
100
AcDbEntity
  8
RACCORDO
100
AcDbPolyline
 62
7
  6
CONTINUOUS
 90
33
 70
0
 10
164.3531163107
 20
94.2090197988
 10
164.3780265536
 20
94.2313301576
 10
164.4023260825
 20
94.2543714371
 10
164.4259906188
 20
94.2781229145
 10
164.4490115273
 20
94.3025781002
 10
164.4713937941
 20
94.3277472282
 10
164.4931202243
 20
94.3536177167
 10
164.5141744276
 20
94.3801760572
 10
164.5345595734
 20
94.407434598
 10
164.554258439
 20
94.4353813497
 10
164.5732541639
 20
94.4640031489
 10
164.591547474
 20
94.4933139268
 10
164.6091219055
 20
94.5233035711
 10
164.6259591543
 20
94.5539579149
 10
164.6420547641
 20
94.5852876326
 10
164.6573957143
 20
94.6172902072
 10
164.671960053
 20
94.6499443865
 10
164.6857298544
 20
94.6832340676
 10
164.6986905766
 20
94.7171483065
 10
164.7108264156
 20
94.7516721844
 10
164.72211995
 20
94.7867836661
 10
164.7325580556
 20
94.8224688587
 10
164.7421282503
 20
94.8587145414
 10
164.7508164344
 20
94.8954999431
 10
164.7586114033
 20
94.9328114727
 10
164.7655024452
 20
94.9706348593
 10
164.7714778406
 20
95.0089488125
 10
164.776527758
 20
95.0477390466
 10
164.7806431743
 20
95.0869925632
 10
164.7838145447
 20
95.126690744
 10
164.7860331102
 20
95.1668179183
 10
164.7872910405
 20
95.2073591708
 10
164.7876003008
 20
95.2399580674
  0
LINE
  5
601
100
AcDbEntity
  8
ASSI
100
AcDbLine
 62
253
  6
CONTINUOUS
 10
158.4827746758
 20
86.7176435167
 11
159.0420527601
 21
87.2075307197
  0
LINE
  5
602
100
AcDbEntity
  8
ASSI
100
AcDbLine
 62
7
  6
CONTINUOUS
 10
158.395102628
 20
86.4996179124
 11
158.955072257
 21
86.9901108588
  0
LINE
  5
603
100
AcDbEntity
  8
RACCORDO
100
AcDbLine
 62
7
  6
CONTINUOUS
 10
159.0420527601
 20
89.6364282421
 11
164.3531163107
 21
94.2090197988
  0
LWPOLYLINE
  5
604
100
AcDbEntity
  8
ASSI
100
AcDbPolyline
 62
253
  6
CONTINUOUS
 90
16
 70
0
 10
153.8439015548
 20
83.9764920034
 10
153.8119983901
 20
83.9524578443
 10
153.776347364
 20
83.9303950199
 10
153.7373095786
 20
83.9105270004
 10
153.6952804401
 20
83.8930550251
 10
153.6506856534
 20
83.8781560641
 10
153.6039769102
 20
83.8659810262
 10
153.5556273144
 20
83.8566532299
 10
153.5061265895
 20
83.8502671545
 10
153.4559761187
 20
83.8468874835
 10
153.4056838661
 20
83.8465484489
 10
153.3557592323
 20
83.8492534846
 10
153.3067078939
 20
83.8549751917
 10
153.2590266826
 20
83.8636556159
 10
153.2131985518
 20
83.8752068352
 10
153.1696876857
 20
83.8895118493
  0
LWPOLYLINE
  5
605
100
AcDbEntity
  8
ASSI
100
AcDbPolyline
 62
7
  6
CONTINUOUS
 90
3
 70
0
 10
158.3759674607
 20
86.4845752333
 10
158.386066662
 20
86.4920999214
 10
158.3949619765
 20
86.499494417
  0
LINE
  5
606
100
AcDbEntity
  8
ASSI
100
AcDbLine
 62
253
  6
CONTINUOUS
 10
154.238852208
 20
83.7342449631
 11
158.4827746758
 21
86.7177060897
  0
LINE
  5
607
100
AcDbEntity
  8
ASSI
100
AcDbLine
 62
7
  6
CONTINUOUS
 10
158.3759157134
 20
86.4845388541
 11
154.1242574249
 21
83.4956396613
  0
LWPOLYLINE
  5
608
100
AcDbEntity
  8
RACCORDO
100
AcDbPolyline
 62
7
  6
CONTINUOUS
 90
16
 70
0
 10
131.7442831185
 20
137.985703145
 10
131.7058726081
 20
137.9775471886
 10
131.6682030331
 20
137.9685792115
 10
131.6312743937
 20
137.9587992138
 10
131.5950330849
 20
137.9481894423
 10
131.5595327116
 20
137.9367676501
 10
131.5249340889
 20
137.9245870971
 10
131.4912452754
 20
137.911646864
 10
131.4584582125
 20
137.8979478702
 10
131.42670954
 20
137.8835461332
 10
131.3961336265
 20
137.8684914029
 10
131.3665961034
 20
137.8527339294
 10
131.3378305048
 20
137.8361804806
 10
131.3097480088
 20
137.8187999792
 10
131.2824374373
 20
137.8006235025
 10
131.2558987904
 20
137.7816510504
  0
LWPOLYLINE
  5
609
100
AcDbEntity
  8
ASSI
100
AcDbPolyline
 62
7
  6
CONTINUOUS
 90
6
 70
0
 10
130.9175931753
 20
139.3562867781
 10
130.8799989939
 20
139.3540621118
 10
130.8430583341
 20
139.3488889197
 10
130.8066392178
 20
139.3406848821
 10
130.7718574196
 20
139.3296561253
 10
130.7388392956
 20
139.315869627
  0
LWPOLYLINE
  5
60A
100
AcDbEntity
  8
RACCORDO
100
AcDbPolyline
 62
7
  6
CONTINUOUS
 90
11
 70
0
 10
138.4768860522
 20
138.1872729181
 10
138.4599724939
 20
138.1870058673
 10
138.4436309449
 20
138.186297079
 10
138.4278614052
 20
138.1851465531
 10
138.4126740171
 20
138.1835351637
 10
138.3980586383
 20
138.1814820367
 10
138.3839848421
 20
138.1790445498
 10
138.3704540636
 20
138.1762276397
 10
138.3574648677
 20
138.1730263696
 10
138.344982522
 20
138.1694833068
 10
138.3364219471
 20
138.1667190682
  0
LWPOLYLINE
  5
60B
100
AcDbEntity
  8
RACCORDO
100
AcDbPolyline
 62
7
  6
CONTINUOUS
 90
4
 70
0
 10
138.2532347604
 20
138.200128936
 10
138.2607231244
 20
138.199835808
 10
138.3508725097
 20
138.1955908066
 10
138.4413143077
 20
138.1906203955
  0
LINE
  5
60C
100
AcDbEntity
  8
RACCORDO
100
AcDbLine
 62
7
  6
CONTINUOUS
 10
138.4413143077
 20
138.1906203955
 11
138.4818746351
 21
138.1881620605
  0
LINE
  5
60D
100
AcDbEntity
  8
RACCORDO
100
AcDbLine
 62
7
  6
CONTINUOUS
 10
138.4818679668
 20
138.188164618
 11
138.484059093
 21
138.1877621363
  0
LINE
  5
60E
100
AcDbEntity
  8
RACCORDO
100
AcDbLine
 62
7
  6
CONTINUOUS
 10
138.4870343575
 20
138.184663227
 11
138.4768860522
 21
138.1872729181
  0
LWPOLYLINE
  5
60F
100
AcDbEntity
  8
RACCORDO
100
AcDbPolyline
 62
253
  6
CONTINUOUS
 90
21
 70
0
 10
145.1560746767
 20
136.8054517134
 10
145.1485754137
 20
136.8081528699
 10
145.1407313082
 20
136.8103510146
 10
145.1326834806
 20
136.8119905218
 10
145.1244415194
 20
136.8130694383
 10
145.1160152442
 20
136.8135864786
 10
145.1074146943
 20
136.8135410268
 10
145.0986501166
 20
136.8129331369
 10
145.0897319534
 20
136.8117635333
 10
145.0806708301
 20
136.8100336093
 10
145.0714775424
 20
136.8077454262
 10
145.0621630432
 20
136.80490171
 10
145.0527384302
 20
136.8015058489
 10
145.043214932
 20
136.7975618887
 10
145.0336038952
 20
136.7930745285
 10
145.0239167706
 20
136.7880491145
 10
145.0141650998
 20
136.7824916342
 10
145.004360501
 20
136.7764087089
 10
144.9945146557
 20
136.7698075859
 10
144.9846392945
 20
136.76269613
 10
144.9747461832
 20
136.7550828138
  0
LWPOLYLINE
  5
610
100
AcDbEntity
  8
RACCORDO
100
AcDbPolyline
 62
7
  6
CONTINUOUS
 90
33
 70
0
 10
145.1560746548
 20
136.8054516588
 10
145.1463475822
 20
136.8092602722
 10
145.1278406284
 20
136.8159757293
 10
145.1092066623
 20
136.8220506964
 10
145.0904630523
 20
136.8274839828
 10
145.071625211
 20
136.8322754457
 10
145.0527114572
 20
136.8364240344
 10
145.033744602
 20
136.8399287875
 10
145.0147418933
 20
136.842790372
 10
144.9957189025
 20
136.8450096548
 10
144.976702083
 20
136.846587343
 10
144.9577094728
 20
136.8475258223
 10
144.938747665
 20
136.8478276595
 10
144.9198404453
 20
136.847495304
 10
144.9010108573
 20
136.8465323197
 10
144.8822670844
 20
136.8449416229
 10
144.8636345275
 20
136.8427278183
 10
144.8451355341
 20
136.8398966678
 10
144.8267757639
 20
136.8364513862
 10
144.8085801597
 20
136.8323985139
 10
144.7905712471
 20
136.8277457984
 10
144.7727527568
 20
136.8224962895
 10
144.7551480766
 20
136.8166582144
 10
144.7377803062
 20
136.8102411196
 10
144.7206539992
 20
136.8032484028
 10
144.7037922414
 20
136.7956906124
 10
144.6872167019
 20
136.7875789508
 10
144.6709310263
 20
136.7789161085
 10
144.6549568097
 20
136.7697141878
 10
144.639315163
 20
136.7599864195
 10
144.6240101505
 20
136.7497356233
 10
144.6090572854
 20
136.738971426
 10
144.5959163319
 20
136.7288555462
  0
LINE
  5
611
100
AcDbEntity
  8
RACCORDO
100
AcDbLine
 62
7
  6
CONTINUOUS
 10
145.1560851828
 20
136.8054474946
 11
155.6412313499
 21
132.5943764118
  0
LWPOLYLINE
  5
612
100
AcDbEntity
  8
RACCORDO
100
AcDbPolyline
 62
7
  6
CONTINUOUS
 90
3
 70
0
 10
162.3559729077
 20
128.5962442684
 10
162.3669673097
 20
128.5893406609
 10
162.3775682951
 20
128.5820186275
  0
LWPOLYLINE
  5
613
100
AcDbEntity
  8
RACCORDO
100
AcDbPolyline
 62
7
  6
CONTINUOUS
 90
13
 70
0
 10
162.3775682951
 20
128.5820186275
 10
162.3877670474
 20
128.5742928024
 10
162.3975648063
 20
128.566171592
 10
162.4069557121
 20
128.5576645599
 10
162.4159366364
 20
128.5487825019
 10
162.4245041826
 20
128.5395374973
 10
162.4326517739
 20
128.5299400236
 10
162.4403790406
 20
128.5199980623
 10
162.4476810513
 20
128.5097269913
 10
162.4545451192
 20
128.4991490946
 10
162.4609657744
 20
128.4882848133
 10
162.4669469783
 20
128.4771410885
 10
162.4680110423
 20
128.4750379362
  0
LWPOLYLINE
  5
614
100
AcDbEntity
  8
RACCORDO
100
AcDbPolyline
 62
253
  6
CONTINUOUS
 90
58
 70
0
 10
162.0523203648
 20
127.9076587807
 10
162.0633252109
 20
127.89862735
 10
162.074203174
 20
127.8890031395
 10
162.0849368569
 20
127.8787928702
 10
162.0955058099
 20
127.8679993131
 10
162.1058958734
 20
127.8566348287
 10
162.1160995399
 20
127.844722454
 10
162.126099854
 20
127.832271622
 10
162.1358807437
 20
127.8192938204
 10
162.1454371207
 20
127.8058181024
 10
162.1547538449
 20
127.7918566872
 10
162.1638155826
 20
127.7774236342
 10
162.1726185875
 20
127.7625537747
 10
162.1811504679
 20
127.7472602189
 10
162.1893967363
 20
127.7315609929
 10
162.1973530362
 20
127.7155017294
 10
162.2050084009
 20
127.6991013597
 10
162.2123524696
 20
127.6823772395
 10
162.2193850479
 20
127.6653759272
 10
162.2260954415
 20
127.6481255473
 10
162.2324794022
 20
127.63063768
 10
162.2385483003
 20
127.6129351378
 10
162.2442970736
 20
127.5950344753
 10
162.2497186016
 20
127.5769576065
 10
162.254822093
 20
127.5587352278
 10
162.2596106536
 20
127.5403634776
 10
162.2640722496
 20
127.5218838877
 10
162.2681996409
 20
127.5033979313
 10
162.2720013326
 20
127.4849158835
 10
162.2754743749
 20
127.4664686247
 10
162.2786081468
 20
127.448193375
 10
162.281415391
 20
127.4301353589
 10
162.2839097203
 20
127.4122913137
 10
162.2860937006
 20
127.3947277776
 10
162.2879856138
 20
127.3774757181
 10
162.2896024131
 20
127.3605393224
 10
162.2909494382
 20
127.3439438419
 10
162.292046859
 20
127.3277064373
 10
162.2929125763
 20
127.3118367565
 10
162.2935501334
 20
127.2963469123
 10
162.2939798166
 20
127.281249193
 10
162.2942203733
 20
127.2665503403
 10
162.2942735256
 20
127.2522523365
 10
162.2941587515
 20
127.2383630366
 10
162.2938948649
 20
127.2248867773
 10
162.2934823167
 20
127.2118186972
 10
162.2929392058
 20
127.199160556
 10
162.2922837496
 20
127.186917108
 10
162.2915162394
 20
127.1750866652
 10
162.2906548922
 20
127.1636812993
 10
162.2897163707
 20
127.1526906596
 10
162.2886968329
 20
127.1420786878
 10
162.2876125719
 20
127.1318652804
 10
162.2864771232
 20
127.1220293142
 10
162.2852764351
 20
127.1124740288
 10
162.2840104181
 20
127.1031674216
 10
162.282697478
 20
127.0941409043
 10
162.2813469148
 20
127.0853936251
  0
LINE
  5
615
100
AcDbEntity
  8
RACCORDO
100
AcDbLine
 62
253
  6
CONTINUOUS
 10
163.6287222911
 20
126.8388121112
 11
164.2223413149
 21
126.0067823046
  0
LINE
  5
616
100
AcDbEntity
  8
RACCORDO
100
AcDbLine
 62
7
  6
CONTINUOUS
 10
163.780444958
 20
126.8967919721
 11
164.334794872
 21
126.1198026352
  0
LWPOLYLINE
  5
617
100
AcDbEntity
  8
RACCORDO
100
AcDbPolyline
 62
253
  6
CONTINUOUS
 90
34
 70
0
 10
164.2223413089
 20
126.0067822996
 10
164.2496243045
 20
125.967990371
 10
164.2762333109
 20
125.928825483
 10
164.3021531721
 20
125.8893097409
 10
164.3273691234
 20
125.8494653116
 10
164.351866806
 20
125.809314835
 10
164.375632292
 20
125.7688814187
 10
164.3986520518
 20
125.7281879795
 10
164.4209130179
 20
125.6872574496
 10
164.4424026179
 20
125.6461131947
 10
164.4631086276
 20
125.6047785671
 10
164.4830193166
 20
125.5632768571
 10
164.5021235267
 20
125.521631506
 10
164.5204104457
 20
125.4798660479
 10
164.5378696652
 20
125.43800414
 10
164.5544913274
 20
125.3960695154
 10
164.5702660266
 20
125.3540859194
 10
164.5851848083
 20
125.3120771113
 10
164.5992392196
 20
125.2700668932
 10
164.6124213219
 20
125.2280790739
 10
164.624723648
 20
125.1861374201
 10
164.6361392011
 20
125.1442656573
 10
164.6466615444
 20
125.1024875618
 10
164.6562847414
 20
125.0608267608
 10
164.6650033049
 20
125.0193066843
 10
164.6728123555
 20
124.977950812
 10
164.6797074734
 20
124.9367826581
 10
164.6856846416
 20
124.8958255711
 10
164.6907405451
 20
124.8551027643
 10
164.6948723577
 20
124.8146373635
 10
164.6980776067
 20
124.7744523874
 10
164.7003544947
 20
124.7345706577
 10
164.7017018841
 20
124.6950147915
 10
164.7021191019
 20
124.6558072432
  0
LWPOLYLINE
  5
618
100
AcDbEntity
  8
RACCORDO
100
AcDbPolyline
 62
253
  6
CONTINUOUS
 90
25
 70
0
 10
164.334794872
 20
126.1198026352
 10
164.3351573967
 20
126.119097487
 10
164.3353491316
 20
126.1176804048
 10
164.3350552654
 20
126.1159198658
 10
164.3342761484
 20
126.1138179676
 10
164.3330127086
 20
126.1113772146
 10
164.3312664516
 20
126.1086005145
 10
164.3290394577
 20
126.1054911757
 10
164.3263343802
 20
126.1020529028
 10
164.3231544421
 20
126.0982897921
 10
164.3195034321
 20
126.094206327
 10
164.3153856999
 20
126.0898073729
 10
164.3108061516
 20
126.0850981706
 10
164.3057702434
 20
126.0800843309
 10
164.3002839752
 20
126.0747718273
 10
164.2943538834
 20
126.0691669893
 10
164.2879870333
 20
126.0632764946
 10
164.2811910106
 20
126.0571073613
 10
164.2739739121
 20
126.0506669396
 10
164.2663443365
 20
126.0439629025
 10
164.2583113739
 20
126.0370032376
 10
164.2498845949
 20
126.0297962367
 10
164.2410740395
 20
126.0223504865
 10
164.2318902046
 20
126.0146748579
 10
164.2223440323
 20
126.0067784959
  0
LWPOLYLINE
  5
619
100
AcDbEntity
  8
RACCORDO
100
AcDbPolyline
 62
7
  6
CONTINUOUS
 90
22
 70
0
 10
162.4680104333
 20
128.4750380839
 10
162.4737873902
 20
128.4633974455
 10
162.493562508
 20
128.421632705
 10
162.5117359761
 20
128.3801589452
 10
162.5283407691
 20
128.338998428
 10
162.543419456
 20
128.2981496947
 10
162.5570193837
 20
128.2575898812
 10
162.569169774
 20
128.2173426123
 10
162.5799063966
 20
128.1774109085
 10
162.5892752288
 20
128.1377449979
 10
162.5973009047
 20
128.0983651281
 10
162.6040104421
 20
128.059282055
 10
162.6094393652
 20
128.0204351207
 10
162.6136064074
 20
127.9818439901
 10
162.6165314323
 20
127.9435235887
 10
162.6182368436
 20
127.9054090531
 10
162.6187354231
 20
127.8675186254
 10
162.6180406416
 20
127.8298716228
 10
162.6161614757
 20
127.7924073963
 10
162.6131028168
 20
127.755119604
 10
162.6088738885
 20
127.7180548087
 10
162.6034838231
 20
127.6812328834
  0
LWPOLYLINE
  5
61A
100
AcDbEntity
  8
ASSI
100
AcDbPolyline
 62
253
  6
CONTINUOUS
 90
6
 70
0
 10
158.5225732708
 20
85.350079631
 10
158.5356226456
 20
85.3628926326
 10
158.5456792637
 20
85.3765646065
 10
158.5525748507
 20
85.3908667835
 10
158.556194025
 20
85.40555985
 10
158.5567657563
 20
85.4142276055
  0
LWPOLYLINE
  5
61B
100
AcDbEntity
  8
ASSI
100
AcDbPolyline
 62
253
  6
CONTINUOUS
 90
16
 70
0
 10
158.495097404
 20
85.2857638327
 10
158.4980333212
 20
85.2885745382
 10
158.5008736157
 20
85.291716054
 10
158.5036182873
 20
85.2951883802
 10
158.5062945268
 20
85.2990353469
 10
158.5088751436
 20
85.3032131239
 10
158.5112785654
 20
85.3075902207
 10
158.5134991146
 20
85.3121731154
 10
158.5155424688
 20
85.3169553299
 10
158.5173440889
 20
85.3217859388
 10
158.5188963521
 20
85.3266666481
 10
158.5202068812
 20
85.3315957518
 10
158.5212340047
 20
85.3364172063
 10
158.5219638322
 20
85.3410789971
 10
158.5224102543
 20
85.3456331386
 10
158.5225732708
 20
85.350079631
  0
LWPOLYLINE
  5
61C
100
AcDbEntity
  8
ASSI
100
AcDbPolyline
 62
7
  6
CONTINUOUS
 90
5
 70
0
 10
158.4610852836
 20
85.1994797213
 10
158.473823573
 20
85.211460805
 10
158.4871603259
 20
85.2259820735
 10
158.4994774814
 20
85.2415909752
 10
158.5107347886
 20
85.2581769145
  0
LWPOLYLINE
  5
61D
100
AcDbEntity
  8
ASSI
100
AcDbPolyline
 62
7
  6
CONTINUOUS
 90
5
 70
0
 10
158.0383574644
 20
84.8292001446
 10
158.0417321689
 20
84.8323089531
 10
158.0511464436
 20
84.8429747356
 10
158.0590398142
 20
84.8552737267
 10
158.0652314593
 20
84.8689408788
  0
LINE
  5
61E
100
AcDbEntity
  8
ASSI
100
AcDbLine
 62
253
  6
CONTINUOUS
 10
158.0731986537
 20
84.9162110028
 11
158.495097404
 21
85.2857638327
  0
LINE
  5
61F
100
AcDbEntity
  8
ASSI
100
AcDbLine
 62
7
  6
CONTINUOUS
 10
158.0383960591
 20
84.8292339546
 11
158.4610698937
 21
85.1994657024
  0
LWPOLYLINE
  5
620
100
AcDbEntity
  8
ASSI
100
AcDbPolyline
 62
253
  6
CONTINUOUS
 90
7
 70
0
 10
156.7076453648
 20
83.8107757901
 10
156.7132432399
 20
83.8154271855
 10
156.7252206155
 20
83.8285185843
 10
156.7348187263
 20
83.8440232315
 10
156.7418734102
 20
83.861675941
 10
156.746264007
 20
83.8811747864
 10
156.7479154222
 20
83.9021862662
  0
LINE
  5
621
100
AcDbEntity
  8
ASSI
100
AcDbLine
 62
7
  6
CONTINUOUS
 10
158.0337363787
 20
84.8254186042
 11
158.0383574644
 21
84.8292001446
  0
LINE
  5
622
100
AcDbEntity
  8
ASSI
100
AcDbLine
 62
253
  6
CONTINUOUS
 10
158.0731986537
 20
84.9162110028
 11
156.7479154222
 21
83.9021862662
  0
LINE
  5
623
100
AcDbEntity
  8
ASSI
100
AcDbLine
 62
7
  6
CONTINUOUS
 10
158.0337432611
 20
84.8254238577
 11
156.7076453638
 21
83.8107757893
  0
LWPOLYLINE
  5
624
100
AcDbEntity
  8
ASSI
100
AcDbPolyline
 62
253
  6
CONTINUOUS
 90
28
 70
0
 10
156.7479154222
 20
83.9021862662
 10
156.7465412323
 20
83.9011660153
 10
156.7451382507
 20
83.9002336617
 10
156.7437064774
 20
83.8993892055
 10
156.7422377313
 20
83.8986207141
 10
156.7407401936
 20
83.8979401201
 10
156.7392384072
 20
83.8973832211
 10
156.7377314696
 20
83.8969530448
 10
156.7362202834
 20
83.8966465635
 10
156.7347320989
 20
83.8964904927
 10
156.7332669881
 20
83.8964890534
 10
156.7318248792
 20
83.8966380246
 10
156.7304328069
 20
83.8969514574
 10
156.7290922654
 20
83.8974336502
 10
156.7278017607
 20
83.8980803047
 10
156.7265838455
 20
83.8988925776
 10
156.7254403248
 20
83.8998739074
 10
156.7243693936
 20
83.9010208556
 10
156.7233881901
 20
83.9023242631
 10
156.7224983656
 20
83.9037871655
 10
156.7216982686
 20
83.9054065273
 10
156.7210000831
 20
83.9071640821
 10
156.7204056778
 20
83.9090625378
 10
156.719913184
 20
83.9110991867
 10
156.719529179
 20
83.9132476391
 10
156.7192558552
 20
83.9154990986
 10
156.7190910203
 20
83.9178623616
 10
156.7190346743
 20
83.9203374283
  0
LWPOLYLINE
  5
625
100
AcDbEntity
  8
ASSI
100
AcDbPolyline
 62
7
  6
CONTINUOUS
 90
4
 70
0
 10
122.8494426716
 20
139.5765239281
 10
122.8275522366
 20
139.5705348626
 10
122.8065200595
 20
139.5623893514
 10
122.7864432078
 20
139.5522062022
  0
ELLIPSE
  5
626
100
AcDbEntity
  8
RACCORDO
100
AcDbEllipse
 62
7
  6
CONTINUOUS
 10
163.0376731592
 20
126.6605669725
 30
0.0
 11
0.1923878426
 21
0.4615404007
 31
0.0
 40
0.4814960025
 41
0.0062621523
 42
0.6960939971
  0
ELLIPSE
  5
627
100
AcDbEntity
  8
RACCORDO
100
AcDbEllipse
 62
7
  6
CONTINUOUS
 10
157.7455432843
 20
91.1593156261
 30
0.0
 11
-1.2677684437
 21
1.5472787173
 31
0.0
 40
0.6709103902
 41
3.1698529365
 42
3.8277096159
  0
ELLIPSE
  5
628
100
AcDbEntity
  8
RACCORDO
100
AcDbEllipse
 62
7
  6
CONTINUOUS
 10
156.8884032831
 20
130.2573781034
 30
0.0
 11
-0.3471346746
 21
0.6150407711
 31
0.0
 40
0.426146023
 41
5.2409673845
 42
6.2394726849
  0
ELLIPSE
  5
629
100
AcDbEntity
  8
RACCORDO
100
AcDbEllipse
 62
7
  6
CONTINUOUS
 10
155.53680241
 20
131.224235785
 30
0.0
 11
0.4991782615
 21
-0.0741274638
 31
0.0
 40
0.3865531145
 41
-0.4098127146
 42
-0.2917260307
  0
ELLIPSE
  5
62A
100
AcDbEntity
  8
RACCORDO
100
AcDbEllipse
 62
7
  6
CONTINUOUS
 10
134.1250839014
 20
135.7068419584
 30
0.0
 11
0.1736795103
 21
0.2900080834
 31
0.0
 40
0.5176214128
 41
0.0726290381
 42
0.0821218995
  0
ELLIPSE
  5
62B
100
AcDbEntity
  8
RACCORDO
100
AcDbEllipse
 62
7
  6
CONTINUOUS
 10
137.6542597953
 20
141.6494985607
 30
0.0
 11
3.2035160057
 21
5.9112325272
 31
0.0
 40
0.014034683
 41
-3.2599794469
 42
-3.1674841226
  0
ELLIPSE
  5
62C
100
AcDbEntity
  8
RACCORDO
100
AcDbEllipse
 62
7
  6
CONTINUOUS
 10
157.7455432843
 20
120.8477558171
 30
0.0
 11
1.2677055941
 21
-1.5470103314
 31
0.0
 40
0.6710763966
 41
6.9693628111
 42
7.6272194904
  0
ELLIPSE
  5
62D
100
AcDbEntity
  8
RACCORDO
100
AcDbEllipse
 62
7
  6
CONTINUOUS
 10
130.9222224579
 20
136.9931833209
 30
0.0
 11
0.1843167964
 21
0.2851727808
 31
0.0
 40
0.5130109929
 41
0.0993395399
 42
0.1088324013
  0
ELLIPSE
  5
62E
100
AcDbEntity
  8
RACCORDO
100
AcDbEllipse
 62
7
  6
CONTINUOUS
 10
151.4010235652
 20
128.7684351125
 30
0.0
 11
0.1843167964
 21
0.2851727808
 31
0.0
 40
0.5130109929
 41
0.0993395399
 42
0.1088324013
  0
ELLIPSE
  5
62F
100
AcDbEntity
  8
ASSI
100
AcDbEllipse
 62
7
  6
CONTINUOUS
 10
150.8068998083
 20
127.8441562224
 30
0.0
 11
-0.1625608641
 21
0.1902058938
 31
0.0
 40
0.6553964474
 41
-0.8974928192
 42
-0.0349831269
  0
ELLIPSE
  5
630
100
AcDbEntity
  8
ASSI
100
AcDbEllipse
 62
7
  6
CONTINUOUS
 10
132.3759788118
 20
135.24642961
 30
0.0
 11
-0.1625608641
 21
0.1902058938
 31
0.0
 40
0.6553964474
 41
-0.8974928192
 42
-0.0349831269
  0
ELLIPSE
  5
631
100
AcDbEntity
  8
ASSI
100
AcDbEllipse
 62
7
  6
CONTINUOUS
 10
158.632414348
 20
87.3721755114
 30
0.0
 11
-0.3169109156
 21
0.3869345179
 31
0.0
 40
0.670809718
 41
-3.1194280822
 42
-2.4553554967
  0
ELLIPSE
  5
632
100
AcDbEntity
  8
ASSI
100
AcDbEllipse
 62
7
  6
CONTINUOUS
 10
158.632414348
 20
123.2223135672
 30
0.0
 11
-0.3168729153
 21
0.3867726039
 31
0.0
 40
0.6712104788
 41
-2.4552091068
 42
-0.8847173665
  0
ELLIPSE
  5
633
100
AcDbEntity
  8
DRAFT
100
AcDbEllipse
 62
7
  6
CONTINUOUS
 10
143.224326646
 20
142.7533178941
 30
0.0
 11
14.9934287692
 21
0.0925495189
 31
0.0
 40
0.5794175928
 41
-2.1292986994
 42
-2.1188267583
  0
ELLIPSE
  5
634
100
AcDbEntity
  8
DRAFT
100
AcDbEllipse
 62
7
  6
CONTINUOUS
 10
161.6552476425
 20
135.3510445065
 30
0.0
 11
14.9934287692
 21
0.0925495189
 31
0.0
 40
0.5794175928
 41
-2.348773527
 42
-2.3275930484
  0
ELLIPSE
  5
635
100
AcDbEntity
  8
ASSI
100
AcDbEllipse
 62
7
  6
CONTINUOUS
 10
161.7748656208
 20
128.066733147
 30
0.0
 11
0.3609241303
 21
0.9326631928
 31
0.0
 40
0.458075675
 41
-0.8693289497
 42
-0.2972032866
  0
ELLIPSE
  5
636
100
AcDbEntity
  8
ASSI
100
AcDbEllipse
 62
7
  6
CONTINUOUS
 10
143.3439446243
 20
135.4690065346
 30
0.0
 11
0.3609241303
 21
0.9326631928
 31
0.0
 40
0.458075675
 41
-0.8693289497
 42
-0.2972032866
  0
ELLIPSE
  5
637
100
AcDbEntity
  8
ASSI
100
AcDbEllipse
 62
7
  6
CONTINUOUS
 10
130.6286231248
 20
135.9482070471
 30
0.0
 11
-0.1625146743
 21
0.1900010152
 31
0.0
 40
0.6563705712
 41
-2.4691737663
 42
-0.898682026
  0
ELLIPSE
  5
638
100
AcDbEntity
  8
ASSI
100
AcDbEllipse
 62
7
  6
CONTINUOUS
 10
149.0595441213
 20
128.5459336595
 30
0.0
 11
-0.1625146743
 21
0.1900010152
 31
0.0
 40
0.6563705712
 41
-2.4691737663
 42
-0.898682026
  0
ELLIPSE
  5
639
100
AcDbEntity
  8
ASSI
100
AcDbEllipse
 62
7
  6
CONTINUOUS
 10
147.5504956307
 20
144.2603090265
 30
0.0
 11
14.7248791155
 21
12.5261813432
 31
0.0
 40
0.014760238
 41
-2.6573712457
 42
-2.4030044782
  0
ELLIPSE
  5
63A
100
AcDbEntity
  8
ASSI
100
AcDbEllipse
 62
7
  6
CONTINUOUS
 10
165.9814166272
 20
136.858035639
 30
0.0
 11
14.7248791155
 21
12.5261813432
 31
0.0
 40
0.014760238
 41
-2.6573712457
 42
-2.4030044782
  0
ELLIPSE
  5
63B
100
AcDbEntity
  8
ASSI
100
AcDbEllipse
 62
7
  6
CONTINUOUS
 10
143.7839286485
 20
135.2922990312
 30
0.0
 11
-0.7858461616
 21
1.1731918886
 31
0.0
 40
0.5191454105
 41
5.3413099521
 42
6.3225273233
  0
ELLIPSE
  5
63C
100
AcDbEntity
  8
ASSI
100
AcDbEllipse
 62
7
  6
CONTINUOUS
 10
162.214849645
 20
127.8900256436
 30
0.0
 11
-0.7858461616
 21
1.1731918886
 31
0.0
 40
0.5191454105
 41
5.3413099521
 42
6.3225273233
  0
ELLIPSE
  5
63D
100
AcDbEntity
  8
ASSI
100
AcDbEllipse
 62
7
  6
CONTINUOUS
 10
165.9814166272
 20
136.858035639
 30
0.0
 11
14.7248791155
 21
12.5261813432
 31
0.0
 40
0.014760238
 41
2.2927721807
 42
2.6322600442
  0
ELLIPSE
  5
63E
100
AcDbEntity
  8
ASSI
100
AcDbEllipse
 62
7
  6
CONTINUOUS
 10
147.5504956307
 20
144.2603090265
 30
0.0
 11
14.7248791155
 21
12.5261813432
 31
0.0
 40
0.014760238
 41
2.2927721807
 42
2.6322600442
  0
ELLIPSE
  5
63F
100
AcDbEntity
  8
ASSI
100
AcDbEllipse
 62
7
  6
CONTINUOUS
 10
158.0847392774
 20
122.7704519462
 30
0.0
 11
33.6774307551
 21
29.0482172724
 31
0.0
 40
0.006983244
 41
1.5651156649
 42
1.587013386
  0
ELLIPSE
  5
640
100
AcDbEntity
  8
ASSI
100
AcDbEllipse
 62
7
  6
CONTINUOUS
 10
148.6106294868
 20
133.3537871591
 30
0.0
 11
1.0048735789
 21
0.6729900454
 31
0.0
 40
0.0652557815
 41
-0.6453210963
 42
0.3358962749
  0
ELLIPSE
  5
641
100
AcDbEntity
  8
ASSI
100
AcDbEllipse
 62
7
  6
CONTINUOUS
 10
130.1797084903
 20
140.7560605467
 30
0.0
 11
1.0048735789
 21
0.6729900454
 31
0.0
 40
0.0652557815
 41
-0.6453210963
 42
0.3358962749
  0
ELLIPSE
  5
642
100
AcDbEntity
  8
ASSI
100
AcDbEllipse
 62
7
  6
CONTINUOUS
 10
136.8470543525
 20
130.0234751819
 30
0.0
 11
0.2499293568
 21
0.009771784
 31
0.0
 40
0.6081570881
 41
3.1181633627
 42
4.077750384
  0
ELLIPSE
  5
643
100
AcDbEntity
  8
ASSI
100
AcDbEllipse
 62
7
  6
CONTINUOUS
 10
137.0712900477
 20
129.9334170714
 30
0.0
 11
0.2499293568
 21
0.009771784
 31
0.0
 40
0.6081570881
 41
-2.2054349231
 42
-0.6520918889
  0
ELLIPSE
  5
644
100
AcDbEntity
  8
ASSI
100
AcDbEllipse
 62
7
  6
CONTINUOUS
 10
138.7026149656
 20
130.0213776848
 30
0.0
 11
0.2499293568
 21
0.009771784
 31
0.0
 40
0.6081570881
 41
-2.2054349231
 42
-0.6520918889
  0
ELLIPSE
  5
645
100
AcDbEntity
  8
ASSI
100
AcDbEllipse
 62
7
  6
CONTINUOUS
 10
121.781975919
 20
136.8170877928
 30
0.0
 11
0.2499293568
 21
0.009771784
 31
0.0
 40
0.6081570881
 41
3.1176137453
 42
4.077750384
  0
ELLIPSE
  5
646
100
AcDbEntity
  8
ASSI
100
AcDbEllipse
 62
7
  6
CONTINUOUS
 10
122.2661479642
 20
135.8794959063
 30
0.0
 11
0.2499293568
 21
0.009771784
 31
0.0
 40
0.6081570881
 41
3.1181633627
 42
4.077750384
  0
ELLIPSE
  5
647
100
AcDbEntity
  8
ASSI
100
AcDbEllipse
 62
7
  6
CONTINUOUS
 10
122.4903836594
 20
135.7894377958
 30
0.0
 11
0.2499293568
 21
0.009771784
 31
0.0
 40
0.6081570881
 41
-2.2054349231
 42
-0.6520918889
  0
ELLIPSE
  5
648
100
AcDbEntity
  8
ASSI
100
AcDbEllipse
 62
7
  6
CONTINUOUS
 10
124.1217085772
 20
135.8773984092
 30
0.0
 11
0.2499293568
 21
0.009771784
 31
0.0
 40
0.6081570881
 41
-2.2054349231
 42
-0.6520918889
  0
ELLIPSE
  5
649
100
AcDbEntity
  8
ASSI
100
AcDbEllipse
 62
7
  6
CONTINUOUS
 10
129.9637265509
 20
134.2370928896
 30
0.0
 11
0.1999434854
 21
0.0078174272
 31
0.0
 40
0.6081570881
 41
-2.2054349231
 42
-0.6520918889
  0
ELLIPSE
  5
64A
100
AcDbEntity
  8
ASSI
100
AcDbEllipse
 62
7
  6
CONTINUOUS
 10
127.3101113302
 20
135.3028445866
 30
0.0
 11
0.1999434854
 21
0.0078174272
 31
0.0
 40
0.6081570881
 41
3.1181633757
 42
4.077750384
  0
ELLIPSE
  5
64B
100
AcDbEntity
  8
ASSI
100
AcDbEllipse
 62
7
  6
CONTINUOUS
 10
134.2642747834
 20
132.5098957659
 30
0.0
 11
0.1999434854
 21
0.0078174272
 31
0.0
 40
0.6081570881
 41
-2.2054349231
 42
-0.6520918889
  0
ELLIPSE
  5
64C
100
AcDbEntity
  8
ASSI
100
AcDbEllipse
 62
7
  6
CONTINUOUS
 10
131.6106595627
 20
133.5756474629
 30
0.0
 11
0.1999434854
 21
0.0078174272
 31
0.0
 40
0.6081570881
 41
3.1181633757
 42
4.077750384
  0
ELLIPSE
  5
64D
100
AcDbEntity
  8
ASSI
100
AcDbEllipse
 62
7
  6
CONTINUOUS
 10
152.6951957799
 20
125.1076223783
 30
0.0
 11
0.1999434854
 21
0.0078174272
 31
0.0
 40
0.6081570881
 41
-2.2054349231
 42
-0.6520918889
  0
ELLIPSE
  5
64E
100
AcDbEntity
  8
ASSI
100
AcDbEllipse
 62
7
  6
CONTINUOUS
 10
150.0415805592
 20
126.1733740753
 30
0.0
 11
0.1999434854
 21
0.0078174272
 31
0.0
 40
0.6081570881
 41
3.1181633757
 42
4.077750384
  0
ELLIPSE
  5
64F
100
AcDbEntity
  8
ASSI
100
AcDbEllipse
 62
7
  6
CONTINUOUS
 10
145.7410323267
 20
127.900571199
 30
0.0
 11
0.1999434854
 21
0.0078174272
 31
0.0
 40
0.6081570881
 41
3.1181633627
 42
4.077750384
  0
ELLIPSE
  5
650
100
AcDbEntity
  8
ASSI
100
AcDbEllipse
 62
7
  6
CONTINUOUS
 10
148.3946475474
 20
126.834819502
 30
0.0
 11
0.1999434854
 21
0.0078174272
 31
0.0
 40
0.6081570881
 41
-2.2054349231
 42
-0.6520918889
  0
ELLIPSE
  5
651
100
AcDbEntity
  8
ASSI
100
AcDbEllipse
 62
7
  6
CONTINUOUS
 10
136.3628823073
 20
130.9610670684
 30
0.0
 11
0.2499293568
 21
0.009771784
 31
0.0
 40
0.6081570881
 41
3.1181633757
 42
4.077750384
  0
ELLIPSE
  5
652
100
AcDbEntity
  8
ASSI
100
AcDbEllipse
 62
7
  6
CONTINUOUS
 10
140.9213046559
 20
128.3871644083
 30
0.0
 11
0.2499293568
 21
0.009771784
 31
0.0
 40
0.6081570881
 41
-2.2054349231
 42
-0.6520918889
  0
ELLIPSE
  5
653
100
AcDbEntity
  8
ASSI
100
AcDbEllipse
 62
7
  6
CONTINUOUS
 10
155.5022110442
 20
122.5311436839
 30
0.0
 11
0.2499293568
 21
0.009771784
 31
0.0
 40
0.6081570881
 41
-2.2054349231
 42
-0.6520918889
  0
ELLIPSE
  5
654
100
AcDbEntity
  8
ASSI
100
AcDbEllipse
 62
7
  6
CONTINUOUS
 10
157.1335359621
 20
85.5010295465
 30
0.0
 11
0.1997382246
 21
0.198664618
 31
0.0
 40
0.7567950566
 41
-2.8269058184
 42
-2.6358710258
  0
ELLIPSE
  5
655
100
AcDbEntity
  8
ASSI
100
AcDbEllipse
 62
7
  6
CONTINUOUS
 10
142.5526295737
 20
128.4751250216
 30
0.0
 11
0.2499293568
 21
0.009771784
 31
0.0
 40
0.6081570881
 41
-2.2054349231
 42
-0.6520918889
  0
ELLIPSE
  5
656
100
AcDbEntity
  8
ASSI
100
AcDbEllipse
 62
7
  6
CONTINUOUS
 10
140.2128969155
 20
129.4148144052
 30
0.0
 11
0.2499293568
 21
0.009771784
 31
0.0
 40
0.6081570881
 41
3.1181633627
 42
4.077750384
  0
ELLIPSE
  5
657
100
AcDbEntity
  8
ASSI
100
AcDbEllipse
 62
7
  6
CONTINUOUS
 10
154.7938033038
 20
123.5587936808
 30
0.0
 11
0.2499293568
 21
0.009771784
 31
0.0
 40
0.6081570881
 41
3.1181633757
 42
4.077750384
  0
ELLIPSE
  5
658
100
AcDbEntity
  8
ASSI
100
AcDbEllipse
 62
7
  6
CONTINUOUS
 10
157.1335359621
 20
122.6191042972
 30
0.0
 11
0.2499293568
 21
0.009771784
 31
0.0
 40
0.6081570881
 41
-2.2054349231
 42
-0.9508848237
  0
ELLIPSE
  5
659
100
AcDbEntity
  8
ASSI
100
AcDbEllipse
 62
7
  6
CONTINUOUS
 10
155.277975349
 20
122.6212017943
 30
0.0
 11
0.2499293568
 21
0.009771784
 31
0.0
 40
0.6081570881
 41
3.1181633627
 42
4.077750384
  0
ELLIPSE
  5
65A
100
AcDbEntity
  8
ASSI
100
AcDbEllipse
 62
7
  6
CONTINUOUS
 10
140.6970689607
 20
128.4772225187
 30
0.0
 11
0.2499293568
 21
0.009771784
 31
0.0
 40
0.6081570881
 41
3.1181633627
 42
4.077750384
  0
ENDSEC
  0
SECTION
  2
OBJECTS
  0
DICTIONARY
  5
C
100
AcDbDictionary
280
0
281
1
  3
ACAD_GROUP
350
D
  3
ACAD_MLINESTYLE
350
17
  3
ACAD_LAYOUT
350
1A
  3
ACAD_PLOTSETTINGS
350
19
  3
ACAD_PLOTSTYLENAME
350
E
  0
DICTIONARY
  5
D
102
{ACAD_REACTORS
330
C
102
}
100
AcDbDictionary
280
0
281
1
  0
ACDBDICTIONARYWDFLT
  5
E
102
{ACAD_REACTORS
330
C
102
}
100
AcDbDictionary
281
1
  3
Normal
350
F
100
AcDbDictionaryWithDefault
340
F
  0
DICTIONARY
  5
17
102
{ACAD_REACTORS
330
C
102
}
100
AcDbDictionary
280
0
281
1
  3
Standard
350
18
  0
DICTIONARY
  5
19
102
{ACAD_REACTORS
330
C
102
}
100
AcDbDictionary
281
1
  0
DICTIONARY
  5
1A
102
{ACAD_REACTORS
330
C
102
}
100
AcDbDictionary
281
1
  3
Model
350
65B
  3
Layout1
350
65C
  0
ACDBPLACEHOLDER
  5
F
102
{ACAD_REACTORS
330
E
102
}
  0
MLINESTYLE
  5
18
102
{ACAD_REACTORS
330
17
102
}
100
AcDbMlineStyle
  2
STANDARD
 70
0
  3

 62
256
 51
90.0
 52
90.0
 71
2
 49
0.5
 62
256
  6
BYLAYER
 49
-0.5
 62
256
  6
BYLAYER
  0
LAYOUT
  5
65B
102
{ACAD_REACTORS
330
1A
102
}
100
AcDbPlotSettings
  1

  2
none_device
  4
ISO_A4_(297.00_x_210.00_MM)
  6

 40
0.0
 41
0.0
 42
0.0
 43
0.0
 44
297.0
 45
210.0
 46
0.0
 47
0.0
 48
0.0
 49
0.0
140
0.0
141
0.0
142
1.0
143
1.0
 70
1024
 72
1
 73
0
 74
0
  7

 75
0
147
1.0
148
0.0
149
0.0
100
AcDbLayout
  1
Model
 70
0
 71
0
 10
0.0
 20
0.0
 11
297.0
 21
210.0
 12
0.0
 22
0.0
 32
0.0
 14
0.0
 24
0.0
 34
0.0
 15
0.0
 25
0.0
 35
0.0
146
0.0
 13
0.0
 23
0.0
 33
0.0
 16
1.0
 26
0.0
 36
0.0
 17
0.0
 27
1.0
 37
0.0
 76
0
330
21D
345
0
346
0
  0
LAYOUT
  5
65C
102
{ACAD_REACTORS
330
1A
102
}
100
AcDbPlotSettings
  1

  2
none_device
  4
ISO_A4_(297.00_x_210.00_MM)
  6

 40
0.0
 41
0.0
 42
0.0
 43
0.0
 44
297.0
 45
210.0
 46
0.0
 47
0.0
 48
0.0
 49
0.0
140
0.0
141
0.0
142
1.0
143
1.0
 70
0
 72
1
 73
0
 74
0
  7

 75
0
147
1.0
148
0.0
149
0.0
100
AcDbLayout
  1
Layout1
 70
0
 71
1
 10
0.0
 20
0.0
 11
297.0
 21
210.0
 12
0.0
 22
0.0
 32
0.0
 14
0.0
 24
0.0
 34
0.0
 15
0.0
 25
0.0
 35
0.0
146
0.0
 13
0.0
 23
0.0
 33
0.0
 16
1.0
 26
0.0
 36
0.0
 17
0.0
 27
1.0
 37
0.0
 76
0
330
21E
345
0
346
0
  0
ENDSEC
  0
EOF
