  0
SECTION
  2
HEADER
  9
$ACADVER
  1
AC1024
  9
$DWGCODEPAGE
  3
ANSI_1252
  9
$EXTMAX
 10
210.0
 20
297.0
 30
0.0
  9
$EXTMIN
 10
0.0
 20
0.0
 30
0.0
  9
$LIMMIN
 10
0.0
 20
0.0
  9
$LIMMAX
 10
210.0
 20
297.0
  9
$VIEWCTR
 10
105.0
 20
148.5
  9
$VIEWSIZE
 40
297.0
  9
$CLAYER
  8
0
  9
$LTSCALE
 40
19.36
  9
$CELTYPE
  6
BYLAYER
  9
$DIMSCALE
 40
1.0
  9
$DIMASZ
 40
3.0
  9
$DIMEXO
 40
0.5
  9
$DIMDLI
 40
13.376
  9
$DIMEXE
 40
1.5
  9
$DIMCEN
 40
3.168
  9
$DIMLFAC
 40
1.0
  9
$DIMBLK
  1
_FILLED
  9
$DIMALT
 70
0
  9
$DIMALTF
 40
0.0393700787
  9
$DIMTXT
 40
3.0
  9
$DIMTOL
 70
1
  9
$DIMLIM
 70
0
  9
$DIMTFAC
 40
1.0
  9
$DIMTP
 40
0.01
  9
$DIMTM
 40
0.01
  9
$DIMGAP
 40
0.625
  9
$DIMDSEP
 70
44
  9
$AUNITS
 70
0
  9
$PDMODE
 70
3
  9
$PDSIZE
 40
3.0
  9
$HANDSEED
  5
739
  9
$TILEMODE
 70
1
  9
$MEASUREMENT
 70
1
  9
$INSUNITS
 70
4
  0
ENDSEC
  0
SECTION
  2
CLASSES
  0
CLASS
  1
ACDBDICTIONARYWDFLT
  2
AcDbDictionaryWithDefault
  3
AutoCAD 2000
 90
0
 91
1
280
0
281
0
  0
CLASS
  1
ACDBPLACEHOLDER
  2
AcDbPlaceHolder
  3
AutoCAD 2000
 90
0
 91
1
280
0
281
0
  0
CLASS
  1
LAYOUT
  2
AcDbLayout
  3
AutoCAD 2000
 90
0
 91
0
280
0
281
0
  0
ENDSEC
  0
SECTION
  2
TABLES
  0
TABLE
  2
VPORT
  5
8
100
AcDbSymbolTable
 70
2
  0
VPORT
  5
1F4
100
AcDbSymbolTableRecord
100
AcDbViewportTableRecord
  2
*ACTIVE
 70
0
 10
0.0
 20
0.0
 11
1.0
 21
1.0
 12
105.0
 22
148.5
 13
0.0
 23
0.0
 14
1.0
 24
1.0
 15
0.0
 25
0.0
 16
0.0
 26
0.0
 36
1.0
 17
0.0
 27
0.0
 37
0.0
 40
297.0
 41
0.7070707071
 42
50.0
 43
0.0
 44
0.0
 50
0.0
 51
0.0
 71
0
 72
100
 73
1
 74
1
 75
0
 76
0
 77
0
 78
0
  0
ENDTAB
  0
TABLE
  2
LTYPE
  5
5
100
AcDbSymbolTable
 70
6
  0
LTYPE
  5
14
100
AcDbSymbolTableRecord
100
AcDbLinetypeTableRecord
  2
BYBLOCK
 70
0
  3

 72
65
 73
0
 40
0.0
  0
LTYPE
  5
15
100
AcDbSymbolTableRecord
100
AcDbLinetypeTableRecord
  2
BYLAYER
 70
0
  3

 72
65
 73
0
 40
0.0
  0
LTYPE
  5
16
100
AcDbSymbolTableRecord
100
AcDbLinetypeTableRecord
  2
CONTINUOUS
 70
64
  3
Solid line
 72
65
 73
0
 40
0.0
  0
LTYPE
  5
1F5
100
AcDbSymbolTableRecord
100
AcDbLinetypeTableRecord
  2
CENTER
 70
64
  3
____ _ ____ _ ____ _ ____ _ ____ _ ____ _ ____
 72
65
 73
4
 40
0.6
 49
0.375
 74
0
 49
-0.075
 74
0
 49
0.075
 74
0
 49
-0.075
 74
0
  0
LTYPE
  5
1F6
100
AcDbSymbolTableRecord
100
AcDbLinetypeTableRecord
  2
HIDDEN
 70
64
  3
- - - - - - - - - - - - - - - - - - - -
 72
65
 73
2
 40
0.2
 49
0.1
 74
0
 49
-0.1
 74
0
  0
LTYPE
  5
1F7
100
AcDbSymbolTableRecord
100
AcDbLinetypeTableRecord
  2
PHANTOM
 70
64
  3
_____ _ _ _____ _ _ _____ _ _ _____
 72
65
 73
6
 40
0.8
 49
0.45
 74
0
 49
-0.05
 74
0
 49
0.1
 74
0
 49
-0.05
 74
0
 49
0.1
 74
0
 49
-0.05
 74
0
  0
LTYPE
  5
1F8
100
AcDbSymbolTableRecord
100
AcDbLinetypeTableRecord
  2
DOT
 70
64
  3
. . . . . . . . . . . . . . . . . . . .
 72
65
 73
2
 40
0.2
 49
0.1
 74
0
 49
-0.1
 74
0
  0
LTYPE
  5
1F9
100
AcDbSymbolTableRecord
100
AcDbLinetypeTableRecord
  2
DASHED
 70
64
  3
- - - - - - - - - - - - - - - - - - - -
 72
65
 73
2
 40
0.2
 49
0.1
 74
0
 49
-0.1
 74
0
  0
ENDTAB
  0
TABLE
  2
LAYER
  5
2
100
AcDbSymbolTable
 70
36
  0
LAYER
  5
10
100
AcDbSymbolTableRecord
100
AcDbLayerTableRecord
  2
0
 70
0
 62
7
  6
CONTINUOUS
370
-3
390
F
  0
LAYER
  5
1FA
100
AcDbSymbolTableRecord
100
AcDbLayerTableRecord
  2
DEFAULT_1
 70
0
 62
7
  6
CENTER
370
-3
390
F
  0
LAYER
  5
1FB
100
AcDbSymbolTableRecord
100
AcDbLayerTableRecord
  2
DEFAULT_2
 70
0
 62
7
  6
HIDDEN
370
-3
390
F
  0
LAYER
  5
1FC
100
AcDbSymbolTableRecord
100
AcDbLayerTableRecord
  2
DEFAULT_3
 70
0
 62
7
  6
PHANTOM
370
-3
390
F
  0
LAYER
  5
1FD
100
AcDbSymbolTableRecord
100
AcDbLayerTableRecord
  2
0603_C_REF_90000
 70
0
 62
7
  6
CONTINUOUS
370
-3
390
F
  0
LAYER
  5
1FE
100
AcDbSymbolTableRecord
100
AcDbLayerTableRecord
  2
0603_C_REF_90000_1
 70
0
 62
7
  6
CONTINUOUS
370
-3
390
F
  0
LAYER
  5
1FF
100
AcDbSymbolTableRecord
100
AcDbLayerTableRecord
  2
0603_C_REF_90000_1_1
 70
0
 62
7
  6
CONTINUOUS
370
-3
390
F
  0
LAYER
  5
200
100
AcDbSymbolTableRecord
100
AcDbLayerTableRecord
  2
0603_C_REF_90000_1_2
 70
0
 62
7
  6
CONTINUOUS
370
-3
390
F
  0
LAYER
  5
201
100
AcDbSymbolTableRecord
100
AcDbLayerTableRecord
  2
0603_C_REF_90000_2
 70
0
 62
7
  6
CONTINUOUS
370
-3
390
F
  0
LAYER
  5
202
100
AcDbSymbolTableRecord
100
AcDbLayerTableRecord
  2
0603_C_REF_90000_2_1
 70
0
 62
7
  6
CONTINUOUS
370
-3
390
F
  0
LAYER
  5
203
100
AcDbSymbolTableRecord
100
AcDbLayerTableRecord
  2
0603_C_REF_90000_3
 70
0
 62
7
  6
CONTINUOUS
370
-3
390
F
  0
LAYER
  5
204
100
AcDbSymbolTableRecord
100
AcDbLayerTableRecord
  2
0603_C_REF_90000_3_1
 70
0
 62
7
  6
CONTINUOUS
370
-3
390
F
  0
LAYER
  5
205
100
AcDbSymbolTableRecord
100
AcDbLayerTableRecord
  2
0603_C_REF_90000_4
 70
0
 62
7
  6
CONTINUOUS
370
-3
390
F
  0
LAYER
  5
206
100
AcDbSymbolTableRecord
100
AcDbLayerTableRecord
  2
0603_C_REF_90000_4_1
 70
0
 62
7
  6
CONTINUOUS
370
-3
390
F
  0
LAYER
  5
207
100
AcDbSymbolTableRecord
100
AcDbLayerTableRecord
  2
0603_C_REF_90000_5
 70
0
 62
7
  6
CONTINUOUS
370
-3
390
F
  0
LAYER
  5
208
100
AcDbSymbolTableRecord
100
AcDbLayerTableRecord
  2
0603_C_REF_90000_5_1
 70
0
 62
7
  6
CONTINUOUS
370
-3
390
F
  0
LAYER
  5
209
100
AcDbSymbolTableRecord
100
AcDbLayerTableRecord
  2
0603_R_REF_55000
 70
0
 62
7
  6
CONTINUOUS
370
-3
390
F
  0
LAYER
  5
20A
100
AcDbSymbolTableRecord
100
AcDbLayerTableRecord
  2
0603_R_REF_55000_1
 70
0
 62
7
  6
CONTINUOUS
370
-3
390
F
  0
LAYER
  5
20B
100
AcDbSymbolTableRecord
100
AcDbLayerTableRecord
  2
0603_R_REF_55000_1_1
 70
0
 62
7
  6
CONTINUOUS
370
-3
390
F
  0
LAYER
  5
20C
100
AcDbSymbolTableRecord
100
AcDbLayerTableRecord
  2
0603_R_REF_55000_1_2
 70
0
 62
7
  6
CONTINUOUS
370
-3
390
F
  0
LAYER
  5
20D
100
AcDbSymbolTableRecord
100
AcDbLayerTableRecord
  2
0603_R_REF_55000_2
 70
0
 62
7
  6
CONTINUOUS
370
-3
390
F
  0
LAYER
  5
20E
100
AcDbSymbolTableRecord
100
AcDbLayerTableRecord
  2
0603_R_REF_55000_2_1
 70
0
 62
7
  6
CONTINUOUS
370
-3
390
F
  0
LAYER
  5
20F
100
AcDbSymbolTableRecord
100
AcDbLayerTableRecord
  2
0603_R_REF_55000_3
 70
0
 62
7
  6
CONTINUOUS
370
-3
390
F
  0
LAYER
  5
210
100
AcDbSymbolTableRecord
100
AcDbLayerTableRecord
  2
0603_R_REF_55000_3_1
 70
0
 62
7
  6
CONTINUOUS
370
-3
390
F
  0
LAYER
  5
211
100
AcDbSymbolTableRecord
100
AcDbLayerTableRecord
  2
06___PRT_ALL_SURFS
 70
0
 62
7
  6
CONTINUOUS
370
-3
390
F
  0
LAYER
  5
212
100
AcDbSymbolTableRecord
100
AcDbLayerTableRecord
  2
06___PRT_ALL_SURFS_1
 70
0
 62
7
  6
CONTINUOUS
370
-3
390
F
  0
LAYER
  5
213
100
AcDbSymbolTableRecord
100
AcDbLayerTableRecord
  2
06___PRT_ALL_SURFS_17
 70
0
 62
7
  6
CONTINUOUS
370
-3
390
F
  0
LAYER
  5
214
100
AcDbSymbolTableRecord
100
AcDbLayerTableRecord
  2
06___PRT_ALL_SURFS_19
 70
0
 62
7
  6
CONTINUOUS
370
-3
390
F
  0
LAYER
  5
215
100
AcDbSymbolTableRecord
100
AcDbLayerTableRecord
  2
06___PRT_ALL_SURFS_2
 70
0
 62
7
  6
CONTINUOUS
370
-3
390
F
  0
LAYER
  5
216
100
AcDbSymbolTableRecord
100
AcDbLayerTableRecord
  2
06___PRT_ALL_SURFS_21
 70
0
 62
7
  6
CONTINUOUS
370
-3
390
F
  0
LAYER
  5
217
100
AcDbSymbolTableRecord
100
AcDbLayerTableRecord
  2
06___PRT_ALL_SURFS_22
 70
0
 62
7
  6
CONTINUOUS
370
-3
390
F
  0
LAYER
  5
218
100
AcDbSymbolTableRecord
100
AcDbLayerTableRecord
  2
06___PRT_ALL_SURFS_23
 70
0
 62
7
  6
CONTINUOUS
370
-3
390
F
  0
LAYER
  5
219
100
AcDbSymbolTableRecord
100
AcDbLayerTableRecord
  2
06___PRT_ALL_SURFS_24
 70
0
 62
7
  6
CONTINUOUS
370
-3
390
F
  0
LAYER
  5
21A
100
AcDbSymbolTableRecord
100
AcDbLayerTableRecord
  2
06___PRT_ALL_SURFS_4
 70
0
 62
7
  6
CONTINUOUS
370
-3
390
F
  0
LAYER
  5
21B
100
AcDbSymbolTableRecord
100
AcDbLayerTableRecord
  2
06___PRT_ALL_SURFS_5
 70
0
 62
7
  6
CONTINUOUS
370
-3
390
F
  0
LAYER
  5
21C
100
AcDbSymbolTableRecord
100
AcDbLayerTableRecord
  2
06___PRT_ALL_SURFS_6
 70
0
 62
7
  6
CONTINUOUS
370
-3
390
F
  0
LAYER
  5
21D
100
AcDbSymbolTableRecord
100
AcDbLayerTableRecord
  2
06___PRT_ALL_SURFS_7
 70
0
 62
7
  6
CONTINUOUS
370
-3
390
F
  0
LAYER
  5
21E
100
AcDbSymbolTableRecord
100
AcDbLayerTableRecord
  2
0805_C_REF_145000
 70
0
 62
7
  6
CONTINUOUS
370
-3
390
F
  0
LAYER
  5
21F
100
AcDbSymbolTableRecord
100
AcDbLayerTableRecord
  2
0805_C_REF_145000_1
 70
0
 62
7
  6
CONTINUOUS
370
-3
390
F
  0
LAYER
  5
220
100
AcDbSymbolTableRecord
100
AcDbLayerTableRecord
  2
0805_R_REF_60000
 70
0
 62
7
  6
CONTINUOUS
370
-3
390
F
  0
LAYER
  5
221
100
AcDbSymbolTableRecord
100
AcDbLayerTableRecord
  2
0805_R_REF_60000_1
 70
0
 62
7
  6
CONTINUOUS
370
-3
390
F
  0
LAYER
  5
222
100
AcDbSymbolTableRecord
100
AcDbLayerTableRecord
  2
0805_R_REF_60000_2
 70
0
 62
7
  6
CONTINUOUS
370
-3
390
F
  0
LAYER
  5
223
100
AcDbSymbolTableRecord
100
AcDbLayerTableRecord
  2
1206_C_REF_180000
 70
0
 62
7
  6
CONTINUOUS
370
-3
390
F
  0
LAYER
  5
224
100
AcDbSymbolTableRecord
100
AcDbLayerTableRecord
  2
1206_C_REF_180000_1
 70
0
 62
7
  6
CONTINUOUS
370
-3
390
F
  0
LAYER
  5
225
100
AcDbSymbolTableRecord
100
AcDbLayerTableRecord
  2
1206_C_REF_180000_1_2
 70
0
 62
7
  6
CONTINUOUS
370
-3
390
F
  0
LAYER
  5
226
100
AcDbSymbolTableRecord
100
AcDbLayerTableRecord
  2
1206_C_REF_180000_1_3
 70
0
 62
7
  6
CONTINUOUS
370
-3
390
F
  0
LAYER
  5
227
100
AcDbSymbolTableRecord
100
AcDbLayerTableRecord
  2
1206_C_REF_180000_2_2
 70
0
 62
7
  6
CONTINUOUS
370
-3
390
F
  0
LAYER
  5
228
100
AcDbSymbolTableRecord
100
AcDbLayerTableRecord
  2
1206_C_REF_180000_2_3
 70
0
 62
7
  6
CONTINUOUS
370
-3
390
F
  0
LAYER
  5
229
100
AcDbSymbolTableRecord
100
AcDbLayerTableRecord
  2
1206_R_REF_65000
 70
0
 62
7
  6
CONTINUOUS
370
-3
390
F
  0
LAYER
  5
22A
100
AcDbSymbolTableRecord
100
AcDbLayerTableRecord
  2
1206_R_REF_65000_1
 70
0
 62
7
  6
CONTINUOUS
370
-3
390
F
  0
LAYER
  5
22B
100
AcDbSymbolTableRecord
100
AcDbLayerTableRecord
  2
1206_R_REF_65000_1_1
 70
0
 62
7
  6
CONTINUOUS
370
-3
390
F
  0
LAYER
  5
22C
100
AcDbSymbolTableRecord
100
AcDbLayerTableRecord
  2
1206_R_REF_65000_1_2
 70
0
 62
7
  6
CONTINUOUS
370
-3
390
F
  0
LAYER
  5
22D
100
AcDbSymbolTableRecord
100
AcDbLayerTableRecord
  2
1206_R_REF_65000_2
 70
0
 62
7
  6
CONTINUOUS
370
-3
390
F
  0
LAYER
  5
22E
100
AcDbSymbolTableRecord
100
AcDbLayerTableRecord
  2
1206_R_REF_65000_2_1
 70
0
 62
7
  6
CONTINUOUS
370
-3
390
F
  0
LAYER
  5
22F
100
AcDbSymbolTableRecord
100
AcDbLayerTableRecord
  2
1210_R_H1_REF_100000
 70
0
 62
7
  6
CONTINUOUS
370
-3
390
F
  0
LAYER
  5
230
100
AcDbSymbolTableRecord
100
AcDbLayerTableRecord
  2
1210_R_H1_REF_100000_1
 70
0
 62
7
  6
CONTINUOUS
370
-3
390
F
  0
LAYER
  5
231
100
AcDbSymbolTableRecord
100
AcDbLayerTableRecord
  2
2125-R1-RF-VIMAR_60000
 70
0
 62
7
  6
CONTINUOUS
370
-3
390
F
  0
LAYER
  5
232
100
AcDbSymbolTableRecord
100
AcDbLayerTableRecord
  2
43000943A0
 70
0
 62
7
  6
CONTINUOUS
370
-3
390
F
  0
LAYER
  5
233
100
AcDbSymbolTableRecord
100
AcDbLayerTableRecord
  2
43000943B0
 70
0
 62
7
  6
CONTINUOUS
370
-3
390
F
  0
LAYER
  5
234
100
AcDbSymbolTableRecord
100
AcDbLayerTableRecord
  2
43000943D0
 70
0
 62
7
  6
CONTINUOUS
370
-3
390
F
  0
LAYER
  5
235
100
AcDbSymbolTableRecord
100
AcDbLayerTableRecord
  2
43001021B0
 70
0
 62
7
  6
CONTINUOUS
370
-3
390
F
  0
LAYER
  5
236
100
AcDbSymbolTableRecord
100
AcDbLayerTableRecord
  2
ASSI
 70
0
 62
7
  6
CONTINUOUS
370
-3
390
F
  0
LAYER
  5
237
100
AcDbSymbolTableRecord
100
AcDbLayerTableRecord
  2
CAP-E-5_0-9_0-2_5_950000
 70
0
 62
7
  6
CONTINUOUS
370
-3
390
F
  0
LAYER
  5
238
100
AcDbSymbolTableRecord
100
AcDbLayerTableRecord
  2
CAP-E-6_3-11-2_5_1120000
 70
0
 62
7
  6
CONTINUOUS
370
-3
390
F
  0
LAYER
  5
239
100
AcDbSymbolTableRecord
100
AcDbLayerTableRecord
  2
CAP-E-6_3-11-2_5_1120000_1
 70
0
 62
7
  6
CONTINUOUS
370
-3
390
F
  0
LAYER
  5
23A
100
AcDbSymbolTableRecord
100
AcDbLayerTableRecord
  2
CAP-RND-8_0-12_5-7_0-10_0-0_0_1
 70
0
 62
7
  6
CONTINUOUS
370
-3
390
F
  0
LAYER
  5
23B
100
AcDbSymbolTableRecord
100
AcDbLayerTableRecord
  2
CAP-RND-8_0-12_5-7_0-10_0-0_0_2
 70
0
 62
7
  6
CONTINUOUS
370
-3
390
F
  0
LAYER
  5
23C
100
AcDbSymbolTableRecord
100
AcDbLayerTableRecord
  2
CN_STH_USB_TYPE-C_24P_90_SHORT
 70
0
 62
7
  6
CONTINUOUS
370
-3
390
F
  0
LAYER
  5
23D
100
AcDbSymbolTableRecord
100
AcDbLayerTableRecord
  2
COLOR1
 70
0
 62
7
  6
CONTINUOUS
370
-3
390
F
  0
LAYER
  5
23E
100
AcDbSymbolTableRecord
100
AcDbLayerTableRecord
  2
COLOR15
 70
0
 62
7
  6
CONTINUOUS
370
-3
390
F
  0
LAYER
  5
23F
100
AcDbSymbolTableRecord
100
AcDbLayerTableRecord
  2
COLOR16
 70
0
 62
7
  6
CONTINUOUS
370
-3
390
F
  0
LAYER
  5
240
100
AcDbSymbolTableRecord
100
AcDbLayerTableRecord
  2
COLOR17
 70
0
 62
7
  6
CONTINUOUS
370
-3
390
F
  0
LAYER
  5
241
100
AcDbSymbolTableRecord
100
AcDbLayerTableRecord
  2
COLOR26
 70
0
 62
7
  6
CONTINUOUS
370
-3
390
F
  0
LAYER
  5
242
100
AcDbSymbolTableRecord
100
AcDbLayerTableRecord
  2
COLOR27
 70
0
 62
7
  6
CONTINUOUS
370
-3
390
F
  0
LAYER
  5
243
100
AcDbSymbolTableRecord
100
AcDbLayerTableRecord
  2
COLOR28
 70
0
 62
7
  6
CONTINUOUS
370
-3
390
F
  0
LAYER
  5
244
100
AcDbSymbolTableRecord
100
AcDbLayerTableRecord
  2
COLOR32
 70
0
 62
7
  6
CONTINUOUS
370
-3
390
F
  0
LAYER
  5
245
100
AcDbSymbolTableRecord
100
AcDbLayerTableRecord
  2
COLOR34
 70
0
 62
7
  6
CONTINUOUS
370
-3
390
F
  0
LAYER
  5
246
100
AcDbSymbolTableRecord
100
AcDbLayerTableRecord
  2
COLOR36
 70
0
 62
7
  6
CONTINUOUS
370
-3
390
F
  0
LAYER
  5
247
100
AcDbSymbolTableRecord
100
AcDbLayerTableRecord
  2
COLOR37
 70
0
 62
7
  6
CONTINUOUS
370
-3
390
F
  0
LAYER
  5
248
100
AcDbSymbolTableRecord
100
AcDbLayerTableRecord
  2
COLOR40
 70
0
 62
7
  6
CONTINUOUS
370
-3
390
F
  0
LAYER
  5
249
100
AcDbSymbolTableRecord
100
AcDbLayerTableRecord
  2
COLOR42
 70
0
 62
7
  6
CONTINUOUS
370
-3
390
F
  0
LAYER
  5
24A
100
AcDbSymbolTableRecord
100
AcDbLayerTableRecord
  2
COLOR44
 70
0
 62
7
  6
CONTINUOUS
370
-3
390
F
  0
LAYER
  5
24B
100
AcDbSymbolTableRecord
100
AcDbLayerTableRecord
  2
COLOR45
 70
0
 62
7
  6
CONTINUOUS
370
-3
390
F
  0
LAYER
  5
24C
100
AcDbSymbolTableRecord
100
AcDbLayerTableRecord
  2
COLOR46
 70
0
 62
7
  6
CONTINUOUS
370
-3
390
F
  0
LAYER
  5
24D
100
AcDbSymbolTableRecord
100
AcDbLayerTableRecord
  2
COLOR47
 70
0
 62
7
  6
CONTINUOUS
370
-3
390
F
  0
LAYER
  5
24E
100
AcDbSymbolTableRecord
100
AcDbLayerTableRecord
  2
COLOR53
 70
0
 62
7
  6
CONTINUOUS
370
-3
390
F
  0
LAYER
  5
24F
100
AcDbSymbolTableRecord
100
AcDbLayerTableRecord
  2
COLOR56
 70
0
 62
7
  6
CONTINUOUS
370
-3
390
F
  0
LAYER
  5
250
100
AcDbSymbolTableRecord
100
AcDbLayerTableRecord
  2
COLOR57
 70
0
 62
7
  6
CONTINUOUS
370
-3
390
F
  0
LAYER
  5
251
100
AcDbSymbolTableRecord
100
AcDbLayerTableRecord
  2
COLOR6
 70
0
 62
7
  6
CONTINUOUS
370
-3
390
F
  0
LAYER
  5
252
100
AcDbSymbolTableRecord
100
AcDbLayerTableRecord
  2
COLOR7
 70
0
 62
7
  6
CONTINUOUS
370
-3
390
F
  0
LAYER
  5
253
100
AcDbSymbolTableRecord
100
AcDbLayerTableRecord
  2
COLORE_MATERIALE
 70
0
 62
7
  6
CONTINUOUS
370
-3
390
F
  0
LAYER
  5
254
100
AcDbSymbolTableRecord
100
AcDbLayerTableRecord
  2
COORDINATE
 70
0
 62
7
  6
CONTINUOUS
370
-3
390
F
  0
LAYER
  5
255
100
AcDbSymbolTableRecord
100
AcDbLayerTableRecord
  2
COORD_ORIGINE
 70
0
 62
7
  6
CONTINUOUS
370
-3
390
F
  0
LAYER
  5
256
100
AcDbSymbolTableRecord
100
AcDbLayerTableRecord
  2
COPY_PUBLISH
 70
0
 62
7
  6
CONTINUOUS
370
-3
390
F
  0
LAYER
  5
257
100
AcDbSymbolTableRecord
100
AcDbLayerTableRecord
  2
COSMETIC
 70
0
 62
7
  6
CONTINUOUS
370
-3
390
F
  0
LAYER
  5
258
100
AcDbSymbolTableRecord
100
AcDbLayerTableRecord
  2
COSMETICI
 70
0
 62
7
  6
CONTINUOUS
370
-3
390
F
  0
LAYER
  5
259
100
AcDbSymbolTableRecord
100
AcDbLayerTableRecord
  2
CR_MR2P5_MSB_SW_PTH_1000000
 70
0
 62
7
  6
CONTINUOUS
370
-3
390
F
  0
LAYER
  5
25A
100
AcDbSymbolTableRecord
100
AcDbLayerTableRecord
  2
CURVE
 70
0
 62
7
  6
CONTINUOUS
370
-3
390
F
  0
LAYER
  5
25B
100
AcDbSymbolTableRecord
100
AcDbLayerTableRecord
  2
DRAFT
 70
0
 62
7
  6
CONTINUOUS
370
-3
390
F
  0
LAYER
  5
25C
100
AcDbSymbolTableRecord
100
AcDbLayerTableRecord
  2
E2_MARK_10000
 70
0
 62
7
  6
CONTINUOUS
370
-3
390
F
  0
LAYER
  5
25D
100
AcDbSymbolTableRecord
100
AcDbLayerTableRecord
  2
E2_MARK_10000_1
 70
0
 62
7
  6
CONTINUOUS
370
-3
390
F
  0
LAYER
  5
25E
100
AcDbSymbolTableRecord
100
AcDbLayerTableRecord
  2
E2_MARK_10000_2
 70
0
 62
7
  6
CONTINUOUS
370
-3
390
F
  0
LAYER
  5
25F
100
AcDbSymbolTableRecord
100
AcDbLayerTableRecord
  2
FIDUCIAL_1_2_MM_RUOTATO_45_1000
 70
0
 62
7
  6
CONTINUOUS
370
-3
390
F
  0
LAYER
  5
260
100
AcDbSymbolTableRecord
100
AcDbLayerTableRecord
  2
FIDUCIAL_1_2_MM_RUOTATO_45_100_
 70
0
 62
7
  6
CONTINUOUS
370
-3
390
F
  0
LAYER
  5
261
100
AcDbSymbolTableRecord
100
AcDbLayerTableRecord
  2
FIDUCIAL_1_2_MM_RUOTATO_45_10_1
 70
0
 62
7
  6
CONTINUOUS
370
-3
390
F
  0
LAYER
  5
262
100
AcDbSymbolTableRecord
100
AcDbLayerTableRecord
  2
FIDUCIAL_1_2_MM_RUOTATO_45_10_2
 70
0
 62
7
  6
CONTINUOUS
370
-3
390
F
  0
LAYER
  5
263
100
AcDbSymbolTableRecord
100
AcDbLayerTableRecord
  2
FIDUCIAL_1_2_MM_RUOTATO_45_10_3
 70
0
 62
7
  6
CONTINUOUS
370
-3
390
F
  0
LAYER
  5
264
100
AcDbSymbolTableRecord
100
AcDbLayerTableRecord
  2
FIDUCIAL_1_2_MM_RUOTATO_45_10__
 70
0
 62
7
  6
CONTINUOUS
370
-3
390
F
  0
LAYER
  5
265
100
AcDbSymbolTableRecord
100
AcDbLayerTableRecord
  2
GEOMETRIA_SOLIDA
 70
0
 62
7
  6
CONTINUOUS
370
-3
390
F
  0
LAYER
  5
266
100
AcDbSymbolTableRecord
100
AcDbLayerTableRecord
  2
GEOMETRIA_SOLIDA_1
 70
0
 62
7
  6
CONTINUOUS
370
-3
390
F
  0
LAYER
  5
267
100
AcDbSymbolTableRecord
100
AcDbLayerTableRecord
  2
GEOMETRIA_SOLIDA_1_1
 70
0
 62
7
  6
CONTINUOUS
370
-3
390
F
  0
LAYER
  5
268
100
AcDbSymbolTableRecord
100
AcDbLayerTableRecord
  2
GEOMETRIA_SOLIDA_1_2
 70
0
 62
7
  6
CONTINUOUS
370
-3
390
F
  0
LAYER
  5
269
100
AcDbSymbolTableRecord
100
AcDbLayerTableRecord
  2
GEOMETRIA_SOLIDA_2
 70
0
 62
7
  6
CONTINUOUS
370
-3
390
F
  0
LAYER
  5
26A
100
AcDbSymbolTableRecord
100
AcDbLayerTableRecord
  2
GEOMETRIA_SOLIDA_3
 70
0
 62
7
  6
CONTINUOUS
370
-3
390
F
  0
LAYER
  5
26B
100
AcDbSymbolTableRecord
100
AcDbLayerTableRecord
  2
IMPORT_IGES
 70
0
 62
7
  6
CONTINUOUS
370
-3
390
F
  0
LAYER
  5
26C
100
AcDbSymbolTableRecord
100
AcDbLayerTableRecord
  2
IND-RAD-7_8-9_5-5_0-0_7_950000
 70
0
 62
7
  6
CONTINUOUS
370
-3
390
F
  0
LAYER
  5
26D
100
AcDbSymbolTableRecord
100
AcDbLayerTableRecord
  2
INTFCLR_1
 70
0
 62
7
  6
CONTINUOUS
370
-3
390
F
  0
LAYER
  5
26E
100
AcDbSymbolTableRecord
100
AcDbLayerTableRecord
  2
INTFCLR_17071
 70
0
 62
7
  6
CONTINUOUS
370
-3
390
F
  0
LAYER
  5
26F
100
AcDbSymbolTableRecord
100
AcDbLayerTableRecord
  2
INTFCLR_22671
 70
0
 62
7
  6
CONTINUOUS
370
-3
390
F
  0
LAYER
  5
270
100
AcDbSymbolTableRecord
100
AcDbLayerTableRecord
  2
INTFCLR_22853
 70
0
 62
7
  6
CONTINUOUS
370
-3
390
F
  0
LAYER
  5
271
100
AcDbSymbolTableRecord
100
AcDbLayerTableRecord
  2
INTFCLR_23215
 70
0
 62
7
  6
CONTINUOUS
370
-3
390
F
  0
LAYER
  5
272
100
AcDbSymbolTableRecord
100
AcDbLayerTableRecord
  2
INTFCLR_23397
 70
0
 62
7
  6
CONTINUOUS
370
-3
390
F
  0
LAYER
  5
273
100
AcDbSymbolTableRecord
100
AcDbLayerTableRecord
  2
INTFCLR_3
 70
0
 62
7
  6
CONTINUOUS
370
-3
390
F
  0
LAYER
  5
274
100
AcDbSymbolTableRecord
100
AcDbLayerTableRecord
  2
INTFCLR_30785
 70
0
 62
7
  6
CONTINUOUS
370
-3
390
F
  0
LAYER
  5
275
100
AcDbSymbolTableRecord
100
AcDbLayerTableRecord
  2
INTFCLR_31339
 70
0
 62
7
  6
CONTINUOUS
370
-3
390
F
  0
LAYER
  5
276
100
AcDbSymbolTableRecord
100
AcDbLayerTableRecord
  2
INTFCLR_31521
 70
0
 62
7
  6
CONTINUOUS
370
-3
390
F
  0
LAYER
  5
277
100
AcDbSymbolTableRecord
100
AcDbLayerTableRecord
  2
INTFCLR_33
 70
0
 62
7
  6
CONTINUOUS
370
-3
390
F
  0
LAYER
  5
278
100
AcDbSymbolTableRecord
100
AcDbLayerTableRecord
  2
INTFCLR_8687
 70
0
 62
7
  6
CONTINUOUS
370
-3
390
F
  0
LAYER
  5
279
100
AcDbSymbolTableRecord
100
AcDbLayerTableRecord
  2
INTFCLR_8913
 70
0
 62
7
  6
CONTINUOUS
370
-3
390
F
  0
LAYER
  5
27A
100
AcDbSymbolTableRecord
100
AcDbLayerTableRecord
  2
INTFCLR_9095
 70
0
 62
7
  6
CONTINUOUS
370
-3
390
F
  0
LAYER
  5
27B
100
AcDbSymbolTableRecord
100
AcDbLayerTableRecord
  2
INTF_1
 70
0
 62
7
  6
CONTINUOUS
370
-3
390
F
  0
LAYER
  5
27C
100
AcDbSymbolTableRecord
100
AcDbLayerTableRecord
  2
INTF_11
 70
0
 62
7
  6
CONTINUOUS
370
-3
390
F
  0
LAYER
  5
27D
100
AcDbSymbolTableRecord
100
AcDbLayerTableRecord
  2
INTF_15
 70
0
 62
7
  6
CONTINUOUS
370
-3
390
F
  0
LAYER
  5
27E
100
AcDbSymbolTableRecord
100
AcDbLayerTableRecord
  2
INTF_16
 70
0
 62
7
  6
CONTINUOUS
370
-3
390
F
  0
LAYER
  5
27F
100
AcDbSymbolTableRecord
100
AcDbLayerTableRecord
  2
INTF_17
 70
0
 62
7
  6
CONTINUOUS
370
-3
390
F
  0
LAYER
  5
280
100
AcDbSymbolTableRecord
100
AcDbLayerTableRecord
  2
INTF_2
 70
0
 62
7
  6
CONTINUOUS
370
-3
390
F
  0
LAYER
  5
281
100
AcDbSymbolTableRecord
100
AcDbLayerTableRecord
  2
INTF_8
 70
0
 62
7
  6
CONTINUOUS
370
-3
390
F
  0
LAYER
  5
282
100
AcDbSymbolTableRecord
100
AcDbLayerTableRecord
  2
INTF_BLANK
 70
0
 62
7
  6
CONTINUOUS
370
-3
390
F
  0
LAYER
  5
283
100
AcDbSymbolTableRecord
100
AcDbLayerTableRecord
  2
INTF_GREEN
 70
0
 62
7
  6
CONTINUOUS
370
-3
390
F
  0
LAYER
  5
284
100
AcDbSymbolTableRecord
100
AcDbLayerTableRecord
  2
INTF_YELLOW
 70
0
 62
7
  6
CONTINUOUS
370
-3
390
F
  0
LAYER
  5
285
100
AcDbSymbolTableRecord
100
AcDbLayerTableRecord
  2
LIVELLO_1
 70
0
 62
7
  6
CONTINUOUS
370
-3
390
F
  0
LAYER
  5
286
100
AcDbSymbolTableRecord
100
AcDbLayerTableRecord
  2
LOGO_RESIST-RESTYLING_10000
 70
0
 62
7
  6
CONTINUOUS
370
-3
390
F
  0
LAYER
  5
287
100
AcDbSymbolTableRecord
100
AcDbLayerTableRecord
  2
MSBR-1
 70
0
 62
7
  6
CONTINUOUS
370
-3
390
F
  0
LAYER
  5
288
100
AcDbSymbolTableRecord
100
AcDbLayerTableRecord
  2
MSBR-10
 70
0
 62
7
  6
CONTINUOUS
370
-3
390
F
  0
LAYER
  5
289
100
AcDbSymbolTableRecord
100
AcDbLayerTableRecord
  2
MSBR-10_1
 70
0
 62
7
  6
CONTINUOUS
370
-3
390
F
  0
LAYER
  5
28A
100
AcDbSymbolTableRecord
100
AcDbLayerTableRecord
  2
MSBR-10_1_1
 70
0
 62
7
  6
CONTINUOUS
370
-3
390
F
  0
LAYER
  5
28B
100
AcDbSymbolTableRecord
100
AcDbLayerTableRecord
  2
MSBR-11
 70
0
 62
7
  6
CONTINUOUS
370
-3
390
F
  0
LAYER
  5
28C
100
AcDbSymbolTableRecord
100
AcDbLayerTableRecord
  2
MSBR-11_1
 70
0
 62
7
  6
CONTINUOUS
370
-3
390
F
  0
LAYER
  5
28D
100
AcDbSymbolTableRecord
100
AcDbLayerTableRecord
  2
MSBR-11_1_1
 70
0
 62
7
  6
CONTINUOUS
370
-3
390
F
  0
LAYER
  5
28E
100
AcDbSymbolTableRecord
100
AcDbLayerTableRecord
  2
MSBR-12
 70
0
 62
7
  6
CONTINUOUS
370
-3
390
F
  0
LAYER
  5
28F
100
AcDbSymbolTableRecord
100
AcDbLayerTableRecord
  2
MSBR-12_1_1
 70
0
 62
7
  6
CONTINUOUS
370
-3
390
F
  0
LAYER
  5
290
100
AcDbSymbolTableRecord
100
AcDbLayerTableRecord
  2
MSBR-13
 70
0
 62
7
  6
CONTINUOUS
370
-3
390
F
  0
LAYER
  5
291
100
AcDbSymbolTableRecord
100
AcDbLayerTableRecord
  2
MSBR-13_1
 70
0
 62
7
  6
CONTINUOUS
370
-3
390
F
  0
LAYER
  5
292
100
AcDbSymbolTableRecord
100
AcDbLayerTableRecord
  2
MSBR-13_1_1
 70
0
 62
7
  6
CONTINUOUS
370
-3
390
F
  0
LAYER
  5
293
100
AcDbSymbolTableRecord
100
AcDbLayerTableRecord
  2
MSBR-14
 70
0
 62
7
  6
CONTINUOUS
370
-3
390
F
  0
LAYER
  5
294
100
AcDbSymbolTableRecord
100
AcDbLayerTableRecord
  2
MSBR-14_1
 70
0
 62
7
  6
CONTINUOUS
370
-3
390
F
  0
LAYER
  5
295
100
AcDbSymbolTableRecord
100
AcDbLayerTableRecord
  2
MSBR-14_1_1
 70
0
 62
7
  6
CONTINUOUS
370
-3
390
F
  0
LAYER
  5
296
100
AcDbSymbolTableRecord
100
AcDbLayerTableRecord
  2
MSBR-15
 70
0
 62
7
  6
CONTINUOUS
370
-3
390
F
  0
LAYER
  5
297
100
AcDbSymbolTableRecord
100
AcDbLayerTableRecord
  2
MSBR-15_1_1
 70
0
 62
7
  6
CONTINUOUS
370
-3
390
F
  0
LAYER
  5
298
100
AcDbSymbolTableRecord
100
AcDbLayerTableRecord
  2
MSBR-16
 70
0
 62
7
  6
CONTINUOUS
370
-3
390
F
  0
LAYER
  5
299
100
AcDbSymbolTableRecord
100
AcDbLayerTableRecord
  2
MSBR-16_1_1
 70
0
 62
7
  6
CONTINUOUS
370
-3
390
F
  0
LAYER
  5
29A
100
AcDbSymbolTableRecord
100
AcDbLayerTableRecord
  2
MSBR-17
 70
0
 62
7
  6
CONTINUOUS
370
-3
390
F
  0
LAYER
  5
29B
100
AcDbSymbolTableRecord
100
AcDbLayerTableRecord
  2
MSBR-17_1_1
 70
0
 62
7
  6
CONTINUOUS
370
-3
390
F
  0
LAYER
  5
29C
100
AcDbSymbolTableRecord
100
AcDbLayerTableRecord
  2
MSBR-18
 70
0
 62
7
  6
CONTINUOUS
370
-3
390
F
  0
LAYER
  5
29D
100
AcDbSymbolTableRecord
100
AcDbLayerTableRecord
  2
MSBR-18_1
 70
0
 62
7
  6
CONTINUOUS
370
-3
390
F
  0
LAYER
  5
29E
100
AcDbSymbolTableRecord
100
AcDbLayerTableRecord
  2
MSBR-18_1_1
 70
0
 62
7
  6
CONTINUOUS
370
-3
390
F
  0
LAYER
  5
29F
100
AcDbSymbolTableRecord
100
AcDbLayerTableRecord
  2
MSBR-19
 70
0
 62
7
  6
CONTINUOUS
370
-3
390
F
  0
LAYER
  5
2A0
100
AcDbSymbolTableRecord
100
AcDbLayerTableRecord
  2
MSBR-19_1
 70
0
 62
7
  6
CONTINUOUS
370
-3
390
F
  0
LAYER
  5
2A1
100
AcDbSymbolTableRecord
100
AcDbLayerTableRecord
  2
MSBR-19_1_1
 70
0
 62
7
  6
CONTINUOUS
370
-3
390
F
  0
LAYER
  5
2A2
100
AcDbSymbolTableRecord
100
AcDbLayerTableRecord
  2
MSBR-1_1
 70
0
 62
7
  6
CONTINUOUS
370
-3
390
F
  0
LAYER
  5
2A3
100
AcDbSymbolTableRecord
100
AcDbLayerTableRecord
  2
MSBR-1_1_1
 70
0
 62
7
  6
CONTINUOUS
370
-3
390
F
  0
LAYER
  5
2A4
100
AcDbSymbolTableRecord
100
AcDbLayerTableRecord
  2
MSBR-2
 70
0
 62
7
  6
CONTINUOUS
370
-3
390
F
  0
LAYER
  5
2A5
100
AcDbSymbolTableRecord
100
AcDbLayerTableRecord
  2
MSBR-20
 70
0
 62
7
  6
CONTINUOUS
370
-3
390
F
  0
LAYER
  5
2A6
100
AcDbSymbolTableRecord
100
AcDbLayerTableRecord
  2
MSBR-20_1
 70
0
 62
7
  6
CONTINUOUS
370
-3
390
F
  0
LAYER
  5
2A7
100
AcDbSymbolTableRecord
100
AcDbLayerTableRecord
  2
MSBR-20_1_1
 70
0
 62
7
  6
CONTINUOUS
370
-3
390
F
  0
LAYER
  5
2A8
100
AcDbSymbolTableRecord
100
AcDbLayerTableRecord
  2
MSBR-21
 70
0
 62
7
  6
CONTINUOUS
370
-3
390
F
  0
LAYER
  5
2A9
100
AcDbSymbolTableRecord
100
AcDbLayerTableRecord
  2
MSBR-21_1
 70
0
 62
7
  6
CONTINUOUS
370
-3
390
F
  0
LAYER
  5
2AA
100
AcDbSymbolTableRecord
100
AcDbLayerTableRecord
  2
MSBR-21_1_1
 70
0
 62
7
  6
CONTINUOUS
370
-3
390
F
  0
LAYER
  5
2AB
100
AcDbSymbolTableRecord
100
AcDbLayerTableRecord
  2
MSBR-22
 70
0
 62
7
  6
CONTINUOUS
370
-3
390
F
  0
LAYER
  5
2AC
100
AcDbSymbolTableRecord
100
AcDbLayerTableRecord
  2
MSBR-22_1_1
 70
0
 62
7
  6
CONTINUOUS
370
-3
390
F
  0
LAYER
  5
2AD
100
AcDbSymbolTableRecord
100
AcDbLayerTableRecord
  2
MSBR-23
 70
0
 62
7
  6
CONTINUOUS
370
-3
390
F
  0
LAYER
  5
2AE
100
AcDbSymbolTableRecord
100
AcDbLayerTableRecord
  2
MSBR-23_1
 70
0
 62
7
  6
CONTINUOUS
370
-3
390
F
  0
LAYER
  5
2AF
100
AcDbSymbolTableRecord
100
AcDbLayerTableRecord
  2
MSBR-23_1_1
 70
0
 62
7
  6
CONTINUOUS
370
-3
390
F
  0
LAYER
  5
2B0
100
AcDbSymbolTableRecord
100
AcDbLayerTableRecord
  2
MSBR-24
 70
0
 62
7
  6
CONTINUOUS
370
-3
390
F
  0
LAYER
  5
2B1
100
AcDbSymbolTableRecord
100
AcDbLayerTableRecord
  2
MSBR-24_1_1
 70
0
 62
7
  6
CONTINUOUS
370
-3
390
F
  0
LAYER
  5
2B2
100
AcDbSymbolTableRecord
100
AcDbLayerTableRecord
  2
MSBR-25
 70
0
 62
7
  6
CONTINUOUS
370
-3
390
F
  0
LAYER
  5
2B3
100
AcDbSymbolTableRecord
100
AcDbLayerTableRecord
  2
MSBR-25_1
 70
0
 62
7
  6
CONTINUOUS
370
-3
390
F
  0
LAYER
  5
2B4
100
AcDbSymbolTableRecord
100
AcDbLayerTableRecord
  2
MSBR-25_1_1
 70
0
 62
7
  6
CONTINUOUS
370
-3
390
F
  0
LAYER
  5
2B5
100
AcDbSymbolTableRecord
100
AcDbLayerTableRecord
  2
MSBR-26
 70
0
 62
7
  6
CONTINUOUS
370
-3
390
F
  0
LAYER
  5
2B6
100
AcDbSymbolTableRecord
100
AcDbLayerTableRecord
  2
MSBR-26_1
 70
0
 62
7
  6
CONTINUOUS
370
-3
390
F
  0
LAYER
  5
2B7
100
AcDbSymbolTableRecord
100
AcDbLayerTableRecord
  2
MSBR-26_1_1
 70
0
 62
7
  6
CONTINUOUS
370
-3
390
F
  0
LAYER
  5
2B8
100
AcDbSymbolTableRecord
100
AcDbLayerTableRecord
  2
MSBR-27
 70
0
 62
7
  6
CONTINUOUS
370
-3
390
F
  0
LAYER
  5
2B9
100
AcDbSymbolTableRecord
100
AcDbLayerTableRecord
  2
MSBR-27_1
 70
0
 62
7
  6
CONTINUOUS
370
-3
390
F
  0
LAYER
  5
2BA
100
AcDbSymbolTableRecord
100
AcDbLayerTableRecord
  2
MSBR-27_1_1
 70
0
 62
7
  6
CONTINUOUS
370
-3
390
F
  0
LAYER
  5
2BB
100
AcDbSymbolTableRecord
100
AcDbLayerTableRecord
  2
MSBR-28
 70
0
 62
7
  6
CONTINUOUS
370
-3
390
F
  0
LAYER
  5
2BC
100
AcDbSymbolTableRecord
100
AcDbLayerTableRecord
  2
MSBR-28_1
 70
0
 62
7
  6
CONTINUOUS
370
-3
390
F
  0
LAYER
  5
2BD
100
AcDbSymbolTableRecord
100
AcDbLayerTableRecord
  2
MSBR-28_1_1
 70
0
 62
7
  6
CONTINUOUS
370
-3
390
F
  0
LAYER
  5
2BE
100
AcDbSymbolTableRecord
100
AcDbLayerTableRecord
  2
MSBR-29
 70
0
 62
7
  6
CONTINUOUS
370
-3
390
F
  0
LAYER
  5
2BF
100
AcDbSymbolTableRecord
100
AcDbLayerTableRecord
  2
MSBR-29_1
 70
0
 62
7
  6
CONTINUOUS
370
-3
390
F
  0
LAYER
  5
2C0
100
AcDbSymbolTableRecord
100
AcDbLayerTableRecord
  2
MSBR-29_1_1
 70
0
 62
7
  6
CONTINUOUS
370
-3
390
F
  0
LAYER
  5
2C1
100
AcDbSymbolTableRecord
100
AcDbLayerTableRecord
  2
MSBR-2_1
 70
0
 62
7
  6
CONTINUOUS
370
-3
390
F
  0
LAYER
  5
2C2
100
AcDbSymbolTableRecord
100
AcDbLayerTableRecord
  2
MSBR-2_1_1
 70
0
 62
7
  6
CONTINUOUS
370
-3
390
F
  0
LAYER
  5
2C3
100
AcDbSymbolTableRecord
100
AcDbLayerTableRecord
  2
MSBR-3
 70
0
 62
7
  6
CONTINUOUS
370
-3
390
F
  0
LAYER
  5
2C4
100
AcDbSymbolTableRecord
100
AcDbLayerTableRecord
  2
MSBR-30
 70
0
 62
7
  6
CONTINUOUS
370
-3
390
F
  0
LAYER
  5
2C5
100
AcDbSymbolTableRecord
100
AcDbLayerTableRecord
  2
MSBR-30_1
 70
0
 62
7
  6
CONTINUOUS
370
-3
390
F
  0
LAYER
  5
2C6
100
AcDbSymbolTableRecord
100
AcDbLayerTableRecord
  2
MSBR-30_1_1
 70
0
 62
7
  6
CONTINUOUS
370
-3
390
F
  0
LAYER
  5
2C7
100
AcDbSymbolTableRecord
100
AcDbLayerTableRecord
  2
MSBR-31
 70
0
 62
7
  6
CONTINUOUS
370
-3
390
F
  0
LAYER
  5
2C8
100
AcDbSymbolTableRecord
100
AcDbLayerTableRecord
  2
MSBR-31_1_1
 70
0
 62
7
  6
CONTINUOUS
370
-3
390
F
  0
LAYER
  5
2C9
100
AcDbSymbolTableRecord
100
AcDbLayerTableRecord
  2
MSBR-32
 70
0
 62
7
  6
CONTINUOUS
370
-3
390
F
  0
LAYER
  5
2CA
100
AcDbSymbolTableRecord
100
AcDbLayerTableRecord
  2
MSBR-32_1_1
 70
0
 62
7
  6
CONTINUOUS
370
-3
390
F
  0
LAYER
  5
2CB
100
AcDbSymbolTableRecord
100
AcDbLayerTableRecord
  2
MSBR-33
 70
0
 62
7
  6
CONTINUOUS
370
-3
390
F
  0
LAYER
  5
2CC
100
AcDbSymbolTableRecord
100
AcDbLayerTableRecord
  2
MSBR-33_1
 70
0
 62
7
  6
CONTINUOUS
370
-3
390
F
  0
LAYER
  5
2CD
100
AcDbSymbolTableRecord
100
AcDbLayerTableRecord
  2
MSBR-33_1_1
 70
0
 62
7
  6
CONTINUOUS
370
-3
390
F
  0
LAYER
  5
2CE
100
AcDbSymbolTableRecord
100
AcDbLayerTableRecord
  2
MSBR-34
 70
0
 62
7
  6
CONTINUOUS
370
-3
390
F
  0
LAYER
  5
2CF
100
AcDbSymbolTableRecord
100
AcDbLayerTableRecord
  2
MSBR-34_1
 70
0
 62
7
  6
CONTINUOUS
370
-3
390
F
  0
LAYER
  5
2D0
100
AcDbSymbolTableRecord
100
AcDbLayerTableRecord
  2
MSBR-34_1_1
 70
0
 62
7
  6
CONTINUOUS
370
-3
390
F
  0
LAYER
  5
2D1
100
AcDbSymbolTableRecord
100
AcDbLayerTableRecord
  2
MSBR-35
 70
0
 62
7
  6
CONTINUOUS
370
-3
390
F
  0
LAYER
  5
2D2
100
AcDbSymbolTableRecord
100
AcDbLayerTableRecord
  2
MSBR-35_1_1
 70
0
 62
7
  6
CONTINUOUS
370
-3
390
F
  0
LAYER
  5
2D3
100
AcDbSymbolTableRecord
100
AcDbLayerTableRecord
  2
MSBR-36
 70
0
 62
7
  6
CONTINUOUS
370
-3
390
F
  0
LAYER
  5
2D4
100
AcDbSymbolTableRecord
100
AcDbLayerTableRecord
  2
MSBR-36_1
 70
0
 62
7
  6
CONTINUOUS
370
-3
390
F
  0
LAYER
  5
2D5
100
AcDbSymbolTableRecord
100
AcDbLayerTableRecord
  2
MSBR-36_1_1
 70
0
 62
7
  6
CONTINUOUS
370
-3
390
F
  0
LAYER
  5
2D6
100
AcDbSymbolTableRecord
100
AcDbLayerTableRecord
  2
MSBR-37
 70
0
 62
7
  6
CONTINUOUS
370
-3
390
F
  0
LAYER
  5
2D7
100
AcDbSymbolTableRecord
100
AcDbLayerTableRecord
  2
MSBR-37_1_1
 70
0
 62
7
  6
CONTINUOUS
370
-3
390
F
  0
LAYER
  5
2D8
100
AcDbSymbolTableRecord
100
AcDbLayerTableRecord
  2
MSBR-38
 70
0
 62
7
  6
CONTINUOUS
370
-3
390
F
  0
LAYER
  5
2D9
100
AcDbSymbolTableRecord
100
AcDbLayerTableRecord
  2
MSBR-38_1
 70
0
 62
7
  6
CONTINUOUS
370
-3
390
F
  0
LAYER
  5
2DA
100
AcDbSymbolTableRecord
100
AcDbLayerTableRecord
  2
MSBR-38_1_1
 70
0
 62
7
  6
CONTINUOUS
370
-3
390
F
  0
LAYER
  5
2DB
100
AcDbSymbolTableRecord
100
AcDbLayerTableRecord
  2
MSBR-39
 70
0
 62
7
  6
CONTINUOUS
370
-3
390
F
  0
LAYER
  5
2DC
100
AcDbSymbolTableRecord
100
AcDbLayerTableRecord
  2
MSBR-39_1
 70
0
 62
7
  6
CONTINUOUS
370
-3
390
F
  0
LAYER
  5
2DD
100
AcDbSymbolTableRecord
100
AcDbLayerTableRecord
  2
MSBR-39_1_1
 70
0
 62
7
  6
CONTINUOUS
370
-3
390
F
  0
LAYER
  5
2DE
100
AcDbSymbolTableRecord
100
AcDbLayerTableRecord
  2
MSBR-3_1
 70
0
 62
7
  6
CONTINUOUS
370
-3
390
F
  0
LAYER
  5
2DF
100
AcDbSymbolTableRecord
100
AcDbLayerTableRecord
  2
MSBR-3_1_1
 70
0
 62
7
  6
CONTINUOUS
370
-3
390
F
  0
LAYER
  5
2E0
100
AcDbSymbolTableRecord
100
AcDbLayerTableRecord
  2
MSBR-4
 70
0
 62
7
  6
CONTINUOUS
370
-3
390
F
  0
LAYER
  5
2E1
100
AcDbSymbolTableRecord
100
AcDbLayerTableRecord
  2
MSBR-40
 70
0
 62
7
  6
CONTINUOUS
370
-3
390
F
  0
LAYER
  5
2E2
100
AcDbSymbolTableRecord
100
AcDbLayerTableRecord
  2
MSBR-40_1
 70
0
 62
7
  6
CONTINUOUS
370
-3
390
F
  0
LAYER
  5
2E3
100
AcDbSymbolTableRecord
100
AcDbLayerTableRecord
  2
MSBR-40_1_1
 70
0
 62
7
  6
CONTINUOUS
370
-3
390
F
  0
LAYER
  5
2E4
100
AcDbSymbolTableRecord
100
AcDbLayerTableRecord
  2
MSBR-41
 70
0
 62
7
  6
CONTINUOUS
370
-3
390
F
  0
LAYER
  5
2E5
100
AcDbSymbolTableRecord
100
AcDbLayerTableRecord
  2
MSBR-41_1
 70
0
 62
7
  6
CONTINUOUS
370
-3
390
F
  0
LAYER
  5
2E6
100
AcDbSymbolTableRecord
100
AcDbLayerTableRecord
  2
MSBR-41_1_1
 70
0
 62
7
  6
CONTINUOUS
370
-3
390
F
  0
LAYER
  5
2E7
100
AcDbSymbolTableRecord
100
AcDbLayerTableRecord
  2
MSBR-42
 70
0
 62
7
  6
CONTINUOUS
370
-3
390
F
  0
LAYER
  5
2E8
100
AcDbSymbolTableRecord
100
AcDbLayerTableRecord
  2
MSBR-42_1_1
 70
0
 62
7
  6
CONTINUOUS
370
-3
390
F
  0
LAYER
  5
2E9
100
AcDbSymbolTableRecord
100
AcDbLayerTableRecord
  2
MSBR-43
 70
0
 62
7
  6
CONTINUOUS
370
-3
390
F
  0
LAYER
  5
2EA
100
AcDbSymbolTableRecord
100
AcDbLayerTableRecord
  2
MSBR-43_1
 70
0
 62
7
  6
CONTINUOUS
370
-3
390
F
  0
LAYER
  5
2EB
100
AcDbSymbolTableRecord
100
AcDbLayerTableRecord
  2
MSBR-43_1_1
 70
0
 62
7
  6
CONTINUOUS
370
-3
390
F
  0
LAYER
  5
2EC
100
AcDbSymbolTableRecord
100
AcDbLayerTableRecord
  2
MSBR-44
 70
0
 62
7
  6
CONTINUOUS
370
-3
390
F
  0
LAYER
  5
2ED
100
AcDbSymbolTableRecord
100
AcDbLayerTableRecord
  2
MSBR-44_1
 70
0
 62
7
  6
CONTINUOUS
370
-3
390
F
  0
LAYER
  5
2EE
100
AcDbSymbolTableRecord
100
AcDbLayerTableRecord
  2
MSBR-44_1_1
 70
0
 62
7
  6
CONTINUOUS
370
-3
390
F
  0
LAYER
  5
2EF
100
AcDbSymbolTableRecord
100
AcDbLayerTableRecord
  2
MSBR-45
 70
0
 62
7
  6
CONTINUOUS
370
-3
390
F
  0
LAYER
  5
2F0
100
AcDbSymbolTableRecord
100
AcDbLayerTableRecord
  2
MSBR-45_1
 70
0
 62
7
  6
CONTINUOUS
370
-3
390
F
  0
LAYER
  5
2F1
100
AcDbSymbolTableRecord
100
AcDbLayerTableRecord
  2
MSBR-45_1_1
 70
0
 62
7
  6
CONTINUOUS
370
-3
390
F
  0
LAYER
  5
2F2
100
AcDbSymbolTableRecord
100
AcDbLayerTableRecord
  2
MSBR-46
 70
0
 62
7
  6
CONTINUOUS
370
-3
390
F
  0
LAYER
  5
2F3
100
AcDbSymbolTableRecord
100
AcDbLayerTableRecord
  2
MSBR-46_1_1
 70
0
 62
7
  6
CONTINUOUS
370
-3
390
F
  0
LAYER
  5
2F4
100
AcDbSymbolTableRecord
100
AcDbLayerTableRecord
  2
MSBR-47
 70
0
 62
7
  6
CONTINUOUS
370
-3
390
F
  0
LAYER
  5
2F5
100
AcDbSymbolTableRecord
100
AcDbLayerTableRecord
  2
MSBR-47_1
 70
0
 62
7
  6
CONTINUOUS
370
-3
390
F
  0
LAYER
  5
2F6
100
AcDbSymbolTableRecord
100
AcDbLayerTableRecord
  2
MSBR-47_1_1
 70
0
 62
7
  6
CONTINUOUS
370
-3
390
F
  0
LAYER
  5
2F7
100
AcDbSymbolTableRecord
100
AcDbLayerTableRecord
  2
MSBR-48
 70
0
 62
7
  6
CONTINUOUS
370
-3
390
F
  0
LAYER
  5
2F8
100
AcDbSymbolTableRecord
100
AcDbLayerTableRecord
  2
MSBR-48_1_1
 70
0
 62
7
  6
CONTINUOUS
370
-3
390
F
  0
LAYER
  5
2F9
100
AcDbSymbolTableRecord
100
AcDbLayerTableRecord
  2
MSBR-49
 70
0
 62
7
  6
CONTINUOUS
370
-3
390
F
  0
LAYER
  5
2FA
100
AcDbSymbolTableRecord
100
AcDbLayerTableRecord
  2
MSBR-49_1_1
 70
0
 62
7
  6
CONTINUOUS
370
-3
390
F
  0
LAYER
  5
2FB
100
AcDbSymbolTableRecord
100
AcDbLayerTableRecord
  2
MSBR-4_1
 70
0
 62
7
  6
CONTINUOUS
370
-3
390
F
  0
LAYER
  5
2FC
100
AcDbSymbolTableRecord
100
AcDbLayerTableRecord
  2
MSBR-4_1_1
 70
0
 62
7
  6
CONTINUOUS
370
-3
390
F
  0
LAYER
  5
2FD
100
AcDbSymbolTableRecord
100
AcDbLayerTableRecord
  2
MSBR-5
 70
0
 62
7
  6
CONTINUOUS
370
-3
390
F
  0
LAYER
  5
2FE
100
AcDbSymbolTableRecord
100
AcDbLayerTableRecord
  2
MSBR-50
 70
0
 62
7
  6
CONTINUOUS
370
-3
390
F
  0
LAYER
  5
2FF
100
AcDbSymbolTableRecord
100
AcDbLayerTableRecord
  2
MSBR-50_1
 70
0
 62
7
  6
CONTINUOUS
370
-3
390
F
  0
LAYER
  5
300
100
AcDbSymbolTableRecord
100
AcDbLayerTableRecord
  2
MSBR-50_1_1
 70
0
 62
7
  6
CONTINUOUS
370
-3
390
F
  0
LAYER
  5
301
100
AcDbSymbolTableRecord
100
AcDbLayerTableRecord
  2
MSBR-51
 70
0
 62
7
  6
CONTINUOUS
370
-3
390
F
  0
LAYER
  5
302
100
AcDbSymbolTableRecord
100
AcDbLayerTableRecord
  2
MSBR-51_1
 70
0
 62
7
  6
CONTINUOUS
370
-3
390
F
  0
LAYER
  5
303
100
AcDbSymbolTableRecord
100
AcDbLayerTableRecord
  2
MSBR-51_1_1
 70
0
 62
7
  6
CONTINUOUS
370
-3
390
F
  0
LAYER
  5
304
100
AcDbSymbolTableRecord
100
AcDbLayerTableRecord
  2
MSBR-52
 70
0
 62
7
  6
CONTINUOUS
370
-3
390
F
  0
LAYER
  5
305
100
AcDbSymbolTableRecord
100
AcDbLayerTableRecord
  2
MSBR-52_1
 70
0
 62
7
  6
CONTINUOUS
370
-3
390
F
  0
LAYER
  5
306
100
AcDbSymbolTableRecord
100
AcDbLayerTableRecord
  2
MSBR-52_1_1
 70
0
 62
7
  6
CONTINUOUS
370
-3
390
F
  0
LAYER
  5
307
100
AcDbSymbolTableRecord
100
AcDbLayerTableRecord
  2
MSBR-5_1
 70
0
 62
7
  6
CONTINUOUS
370
-3
390
F
  0
LAYER
  5
308
100
AcDbSymbolTableRecord
100
AcDbLayerTableRecord
  2
MSBR-5_1_1
 70
0
 62
7
  6
CONTINUOUS
370
-3
390
F
  0
LAYER
  5
309
100
AcDbSymbolTableRecord
100
AcDbLayerTableRecord
  2
MSBR-6
 70
0
 62
7
  6
CONTINUOUS
370
-3
390
F
  0
LAYER
  5
30A
100
AcDbSymbolTableRecord
100
AcDbLayerTableRecord
  2
MSBR-6_1_1
 70
0
 62
7
  6
CONTINUOUS
370
-3
390
F
  0
LAYER
  5
30B
100
AcDbSymbolTableRecord
100
AcDbLayerTableRecord
  2
MSBR-7
 70
0
 62
7
  6
CONTINUOUS
370
-3
390
F
  0
LAYER
  5
30C
100
AcDbSymbolTableRecord
100
AcDbLayerTableRecord
  2
MSBR-7_1_1
 70
0
 62
7
  6
CONTINUOUS
370
-3
390
F
  0
LAYER
  5
30D
100
AcDbSymbolTableRecord
100
AcDbLayerTableRecord
  2
MSBR-8
 70
0
 62
7
  6
CONTINUOUS
370
-3
390
F
  0
LAYER
  5
30E
100
AcDbSymbolTableRecord
100
AcDbLayerTableRecord
  2
MSBR-8_1
 70
0
 62
7
  6
CONTINUOUS
370
-3
390
F
  0
LAYER
  5
30F
100
AcDbSymbolTableRecord
100
AcDbLayerTableRecord
  2
MSBR-8_1_1
 70
0
 62
7
  6
CONTINUOUS
370
-3
390
F
  0
LAYER
  5
310
100
AcDbSymbolTableRecord
100
AcDbLayerTableRecord
  2
MSBR-9
 70
0
 62
7
  6
CONTINUOUS
370
-3
390
F
  0
LAYER
  5
311
100
AcDbSymbolTableRecord
100
AcDbLayerTableRecord
  2
MSBR-9_1_1
 70
0
 62
7
  6
CONTINUOUS
370
-3
390
F
  0
LAYER
  5
312
100
AcDbSymbolTableRecord
100
AcDbLayerTableRecord
  2
NO-PB_MARK_10000
 70
0
 62
7
  6
CONTINUOUS
370
-3
390
F
  0
LAYER
  5
313
100
AcDbSymbolTableRecord
100
AcDbLayerTableRecord
  2
NONE
 70
0
 62
7
  6
CONTINUOUS
370
-3
390
F
  0
LAYER
  5
314
100
AcDbSymbolTableRecord
100
AcDbLayerTableRecord
  2
NOTE
 70
0
 62
7
  6
CONTINUOUS
370
-3
390
F
  0
LAYER
  5
315
100
AcDbSymbolTableRecord
100
AcDbLayerTableRecord
  2
PIANI
 70
0
 62
7
  6
CONTINUOUS
370
-3
390
F
  0
LAYER
  5
316
100
AcDbSymbolTableRecord
100
AcDbLayerTableRecord
  2
PIANI_ORIGINE
 70
0
 62
7
  6
CONTINUOUS
370
-3
390
F
  0
LAYER
  5
317
100
AcDbSymbolTableRecord
100
AcDbLayerTableRecord
  2
PIANI_RIFERIMENTO
 70
0
 62
7
  6
CONTINUOUS
370
-3
390
F
  0
LAYER
  5
318
100
AcDbSymbolTableRecord
100
AcDbLayerTableRecord
  2
PRT0003
 70
0
 62
7
  6
CONTINUOUS
370
-3
390
F
  0
LAYER
  5
319
100
AcDbSymbolTableRecord
100
AcDbLayerTableRecord
  2
PTC_EPCOS_B57153S0100M051_13000
 70
0
 62
7
  6
CONTINUOUS
370
-3
390
F
  0
LAYER
  5
31A
100
AcDbSymbolTableRecord
100
AcDbLayerTableRecord
  2
PUNTI
 70
0
 62
7
  6
CONTINUOUS
370
-3
390
F
  0
LAYER
  5
31B
100
AcDbSymbolTableRecord
100
AcDbLayerTableRecord
  2
RACCORDO
 70
0
 62
7
  6
CONTINUOUS
370
-3
390
F
  0
LAYER
  5
31C
100
AcDbSymbolTableRecord
100
AcDbLayerTableRecord
  2
SIMBOLI
 70
0
 62
7
  6
CONTINUOUS
370
-3
390
F
  0
LAYER
  5
31D
100
AcDbSymbolTableRecord
100
AcDbLayerTableRecord
  2
SMUSSO
 70
0
 62
7
  6
CONTINUOUS
370
-3
390
F
  0
LAYER
  5
31E
100
AcDbSymbolTableRecord
100
AcDbLayerTableRecord
  2
SNAPLINE
 70
0
 62
7
  6
CONTINUOUS
370
-3
390
F
  0
LAYER
  5
31F
100
AcDbSymbolTableRecord
100
AcDbLayerTableRecord
  2
SUB_SMA_143000
 70
0
 62
7
  6
CONTINUOUS
370
-3
390
F
  0
LAYER
  5
320
100
AcDbSymbolTableRecord
100
AcDbLayerTableRecord
  2
SUB_SMA_143000_1
 70
0
 62
7
  6
CONTINUOUS
370
-3
390
F
  0
LAYER
  5
321
100
AcDbSymbolTableRecord
100
AcDbLayerTableRecord
  2
SUPERFICI
 70
0
 62
7
  6
CONTINUOUS
370
-3
390
F
  0
LAYER
  5
322
100
AcDbSymbolTableRecord
100
AcDbLayerTableRecord
  2
SUPERFICI_SKEL
 70
0
 62
7
  6
CONTINUOUS
370
-3
390
F
  0
LAYER
  5
323
100
AcDbSymbolTableRecord
100
AcDbLayerTableRecord
  2
TRASH
 70
0
 62
7
  6
CONTINUOUS
370
-3
390
F
  0
LAYER
  5
324
100
AcDbSymbolTableRecord
100
AcDbLayerTableRecord
  2
UMT-250_REF_300000
 70
0
 62
7
  6
CONTINUOUS
370
-3
390
F
  0
LAYER
  5
325
100
AcDbSymbolTableRecord
100
AcDbLayerTableRecord
  2
VG_CAP-E-8_0-12_0-3_5-0_6_14000
 70
0
 62
7
  6
CONTINUOUS
370
-3
390
F
  0
LAYER
  5
326
100
AcDbSymbolTableRecord
100
AcDbLayerTableRecord
  2
VG_CAP-E-8_0-12_0-3_5-0_6_1400_
 70
0
 62
7
  6
CONTINUOUS
370
-3
390
F
  0
LAYER
  5
327
100
AcDbSymbolTableRecord
100
AcDbLayerTableRecord
  2
VG_CAP-E-8_0-12_0-3_5-0_6_140_1
 70
0
 62
7
  6
CONTINUOUS
370
-3
390
F
  0
LAYER
  5
328
100
AcDbSymbolTableRecord
100
AcDbLayerTableRecord
  2
VG_CAP-E-8_0-12_0-3_5-0_6_140__
 70
0
 62
7
  6
CONTINUOUS
370
-3
390
F
  0
LAYER
  5
329
100
AcDbSymbolTableRecord
100
AcDbLayerTableRecord
  2
VG_CN_STH_USB_TYPE-C_24P_RIGHT_
 70
0
 62
7
  6
CONTINUOUS
370
-3
390
F
  0
LAYER
  5
32A
100
AcDbSymbolTableRecord
100
AcDbLayerTableRecord
  2
VG_CN_STH_USB_TYPE-C_24P_RIGH_1
 70
0
 62
7
  6
CONTINUOUS
370
-3
390
F
  0
LAYER
  5
32B
100
AcDbSymbolTableRecord
100
AcDbLayerTableRecord
  2
VG_DB_SOPA-4_150000
 70
0
 62
7
  6
CONTINUOUS
370
-3
390
F
  0
LAYER
  5
32C
100
AcDbSymbolTableRecord
100
AcDbLayerTableRecord
  2
VG_INSOP24D-9_4-13_43-1_6-0_75-
 70
0
 62
7
  6
CONTINUOUS
370
-3
390
F
  0
LAYER
  5
32D
100
AcDbSymbolTableRecord
100
AcDbLayerTableRecord
  2
VG_POWER56_110000
 70
0
 62
7
  6
CONTINUOUS
370
-3
390
F
  0
LAYER
  5
32E
100
AcDbSymbolTableRecord
100
AcDbLayerTableRecord
  2
VG_TRA_RM7_85-265_1X5_3_15W_2_1
 70
0
 62
7
  6
CONTINUOUS
370
-3
390
F
  0
LAYER
  5
32F
100
AcDbSymbolTableRecord
100
AcDbLayerTableRecord
  2
_43001021B0_ASM
 70
0
 62
7
  6
CONTINUOUS
370
-3
390
F
  0
LAYER
  5
330
100
AcDbSymbolTableRecord
100
AcDbLayerTableRecord
  2
___SHELL
 70
0
 62
7
  6
CONTINUOUS
370
-3
390
F
  0
LAYER
  5
331
100
AcDbSymbolTableRecord
100
AcDbLayerTableRecord
  2
___SHELL_1
 70
0
 62
7
  6
CONTINUOUS
370
-3
390
F
  0
LAYER
  5
332
100
AcDbSymbolTableRecord
100
AcDbLayerTableRecord
  2
___SHELL_10
 70
0
 62
7
  6
CONTINUOUS
370
-3
390
F
  0
LAYER
  5
333
100
AcDbSymbolTableRecord
100
AcDbLayerTableRecord
  2
___SHELL_10_1
 70
0
 62
7
  6
CONTINUOUS
370
-3
390
F
  0
LAYER
  5
334
100
AcDbSymbolTableRecord
100
AcDbLayerTableRecord
  2
___SHELL_11
 70
0
 62
7
  6
CONTINUOUS
370
-3
390
F
  0
LAYER
  5
335
100
AcDbSymbolTableRecord
100
AcDbLayerTableRecord
  2
___SHELL_11_1
 70
0
 62
7
  6
CONTINUOUS
370
-3
390
F
  0
LAYER
  5
336
100
AcDbSymbolTableRecord
100
AcDbLayerTableRecord
  2
___SHELL_12
 70
0
 62
7
  6
CONTINUOUS
370
-3
390
F
  0
LAYER
  5
337
100
AcDbSymbolTableRecord
100
AcDbLayerTableRecord
  2
___SHELL_12_1
 70
0
 62
7
  6
CONTINUOUS
370
-3
390
F
  0
LAYER
  5
338
100
AcDbSymbolTableRecord
100
AcDbLayerTableRecord
  2
___SHELL_13
 70
0
 62
7
  6
CONTINUOUS
370
-3
390
F
  0
LAYER
  5
339
100
AcDbSymbolTableRecord
100
AcDbLayerTableRecord
  2
___SHELL_13_1
 70
0
 62
7
  6
CONTINUOUS
370
-3
390
F
  0
LAYER
  5
33A
100
AcDbSymbolTableRecord
100
AcDbLayerTableRecord
  2
___SHELL_14
 70
0
 62
7
  6
CONTINUOUS
370
-3
390
F
  0
LAYER
  5
33B
100
AcDbSymbolTableRecord
100
AcDbLayerTableRecord
  2
___SHELL_14_1
 70
0
 62
7
  6
CONTINUOUS
370
-3
390
F
  0
LAYER
  5
33C
100
AcDbSymbolTableRecord
100
AcDbLayerTableRecord
  2
___SHELL_15
 70
0
 62
7
  6
CONTINUOUS
370
-3
390
F
  0
LAYER
  5
33D
100
AcDbSymbolTableRecord
100
AcDbLayerTableRecord
  2
___SHELL_15_1
 70
0
 62
7
  6
CONTINUOUS
370
-3
390
F
  0
LAYER
  5
33E
100
AcDbSymbolTableRecord
100
AcDbLayerTableRecord
  2
___SHELL_16
 70
0
 62
7
  6
CONTINUOUS
370
-3
390
F
  0
LAYER
  5
33F
100
AcDbSymbolTableRecord
100
AcDbLayerTableRecord
  2
___SHELL_16_1
 70
0
 62
7
  6
CONTINUOUS
370
-3
390
F
  0
LAYER
  5
340
100
AcDbSymbolTableRecord
100
AcDbLayerTableRecord
  2
___SHELL_17
 70
0
 62
7
  6
CONTINUOUS
370
-3
390
F
  0
LAYER
  5
341
100
AcDbSymbolTableRecord
100
AcDbLayerTableRecord
  2
___SHELL_17_1
 70
0
 62
7
  6
CONTINUOUS
370
-3
390
F
  0
LAYER
  5
342
100
AcDbSymbolTableRecord
100
AcDbLayerTableRecord
  2
___SHELL_18
 70
0
 62
7
  6
CONTINUOUS
370
-3
390
F
  0
LAYER
  5
343
100
AcDbSymbolTableRecord
100
AcDbLayerTableRecord
  2
___SHELL_18_1
 70
0
 62
7
  6
CONTINUOUS
370
-3
390
F
  0
LAYER
  5
344
100
AcDbSymbolTableRecord
100
AcDbLayerTableRecord
  2
___SHELL_19
 70
0
 62
7
  6
CONTINUOUS
370
-3
390
F
  0
LAYER
  5
345
100
AcDbSymbolTableRecord
100
AcDbLayerTableRecord
  2
___SHELL_19_1
 70
0
 62
7
  6
CONTINUOUS
370
-3
390
F
  0
LAYER
  5
346
100
AcDbSymbolTableRecord
100
AcDbLayerTableRecord
  2
___SHELL_1_1
 70
0
 62
7
  6
CONTINUOUS
370
-3
390
F
  0
LAYER
  5
347
100
AcDbSymbolTableRecord
100
AcDbLayerTableRecord
  2
___SHELL_2
 70
0
 62
7
  6
CONTINUOUS
370
-3
390
F
  0
LAYER
  5
348
100
AcDbSymbolTableRecord
100
AcDbLayerTableRecord
  2
___SHELL_20
 70
0
 62
7
  6
CONTINUOUS
370
-3
390
F
  0
LAYER
  5
349
100
AcDbSymbolTableRecord
100
AcDbLayerTableRecord
  2
___SHELL_20_1
 70
0
 62
7
  6
CONTINUOUS
370
-3
390
F
  0
LAYER
  5
34A
100
AcDbSymbolTableRecord
100
AcDbLayerTableRecord
  2
___SHELL_21
 70
0
 62
7
  6
CONTINUOUS
370
-3
390
F
  0
LAYER
  5
34B
100
AcDbSymbolTableRecord
100
AcDbLayerTableRecord
  2
___SHELL_21_1
 70
0
 62
7
  6
CONTINUOUS
370
-3
390
F
  0
LAYER
  5
34C
100
AcDbSymbolTableRecord
100
AcDbLayerTableRecord
  2
___SHELL_22
 70
0
 62
7
  6
CONTINUOUS
370
-3
390
F
  0
LAYER
  5
34D
100
AcDbSymbolTableRecord
100
AcDbLayerTableRecord
  2
___SHELL_22_1
 70
0
 62
7
  6
CONTINUOUS
370
-3
390
F
  0
LAYER
  5
34E
100
AcDbSymbolTableRecord
100
AcDbLayerTableRecord
  2
___SHELL_23
 70
0
 62
7
  6
CONTINUOUS
370
-3
390
F
  0
LAYER
  5
34F
100
AcDbSymbolTableRecord
100
AcDbLayerTableRecord
  2
___SHELL_23_1
 70
0
 62
7
  6
CONTINUOUS
370
-3
390
F
  0
LAYER
  5
350
100
AcDbSymbolTableRecord
100
AcDbLayerTableRecord
  2
___SHELL_24
 70
0
 62
7
  6
CONTINUOUS
370
-3
390
F
  0
LAYER
  5
351
100
AcDbSymbolTableRecord
100
AcDbLayerTableRecord
  2
___SHELL_24_1
 70
0
 62
7
  6
CONTINUOUS
370
-3
390
F
  0
LAYER
  5
352
100
AcDbSymbolTableRecord
100
AcDbLayerTableRecord
  2
___SHELL_25
 70
0
 62
7
  6
CONTINUOUS
370
-3
390
F
  0
LAYER
  5
353
100
AcDbSymbolTableRecord
100
AcDbLayerTableRecord
  2
___SHELL_25_1
 70
0
 62
7
  6
CONTINUOUS
370
-3
390
F
  0
LAYER
  5
354
100
AcDbSymbolTableRecord
100
AcDbLayerTableRecord
  2
___SHELL_26
 70
0
 62
7
  6
CONTINUOUS
370
-3
390
F
  0
LAYER
  5
355
100
AcDbSymbolTableRecord
100
AcDbLayerTableRecord
  2
___SHELL_26_1
 70
0
 62
7
  6
CONTINUOUS
370
-3
390
F
  0
LAYER
  5
356
100
AcDbSymbolTableRecord
100
AcDbLayerTableRecord
  2
___SHELL_27
 70
0
 62
7
  6
CONTINUOUS
370
-3
390
F
  0
LAYER
  5
357
100
AcDbSymbolTableRecord
100
AcDbLayerTableRecord
  2
___SHELL_27_1
 70
0
 62
7
  6
CONTINUOUS
370
-3
390
F
  0
LAYER
  5
358
100
AcDbSymbolTableRecord
100
AcDbLayerTableRecord
  2
___SHELL_28
 70
0
 62
7
  6
CONTINUOUS
370
-3
390
F
  0
LAYER
  5
359
100
AcDbSymbolTableRecord
100
AcDbLayerTableRecord
  2
___SHELL_28_1
 70
0
 62
7
  6
CONTINUOUS
370
-3
390
F
  0
LAYER
  5
35A
100
AcDbSymbolTableRecord
100
AcDbLayerTableRecord
  2
___SHELL_29
 70
0
 62
7
  6
CONTINUOUS
370
-3
390
F
  0
LAYER
  5
35B
100
AcDbSymbolTableRecord
100
AcDbLayerTableRecord
  2
___SHELL_29_1
 70
0
 62
7
  6
CONTINUOUS
370
-3
390
F
  0
LAYER
  5
35C
100
AcDbSymbolTableRecord
100
AcDbLayerTableRecord
  2
___SHELL_2_1
 70
0
 62
7
  6
CONTINUOUS
370
-3
390
F
  0
LAYER
  5
35D
100
AcDbSymbolTableRecord
100
AcDbLayerTableRecord
  2
___SHELL_3
 70
0
 62
7
  6
CONTINUOUS
370
-3
390
F
  0
LAYER
  5
35E
100
AcDbSymbolTableRecord
100
AcDbLayerTableRecord
  2
___SHELL_30
 70
0
 62
7
  6
CONTINUOUS
370
-3
390
F
  0
LAYER
  5
35F
100
AcDbSymbolTableRecord
100
AcDbLayerTableRecord
  2
___SHELL_30_1
 70
0
 62
7
  6
CONTINUOUS
370
-3
390
F
  0
LAYER
  5
360
100
AcDbSymbolTableRecord
100
AcDbLayerTableRecord
  2
___SHELL_31
 70
0
 62
7
  6
CONTINUOUS
370
-3
390
F
  0
LAYER
  5
361
100
AcDbSymbolTableRecord
100
AcDbLayerTableRecord
  2
___SHELL_31_1
 70
0
 62
7
  6
CONTINUOUS
370
-3
390
F
  0
LAYER
  5
362
100
AcDbSymbolTableRecord
100
AcDbLayerTableRecord
  2
___SHELL_32
 70
0
 62
7
  6
CONTINUOUS
370
-3
390
F
  0
LAYER
  5
363
100
AcDbSymbolTableRecord
100
AcDbLayerTableRecord
  2
___SHELL_32_1
 70
0
 62
7
  6
CONTINUOUS
370
-3
390
F
  0
LAYER
  5
364
100
AcDbSymbolTableRecord
100
AcDbLayerTableRecord
  2
___SHELL_33
 70
0
 62
7
  6
CONTINUOUS
370
-3
390
F
  0
LAYER
  5
365
100
AcDbSymbolTableRecord
100
AcDbLayerTableRecord
  2
___SHELL_33_1
 70
0
 62
7
  6
CONTINUOUS
370
-3
390
F
  0
LAYER
  5
366
100
AcDbSymbolTableRecord
100
AcDbLayerTableRecord
  2
___SHELL_34
 70
0
 62
7
  6
CONTINUOUS
370
-3
390
F
  0
LAYER
  5
367
100
AcDbSymbolTableRecord
100
AcDbLayerTableRecord
  2
___SHELL_34_1
 70
0
 62
7
  6
CONTINUOUS
370
-3
390
F
  0
LAYER
  5
368
100
AcDbSymbolTableRecord
100
AcDbLayerTableRecord
  2
___SHELL_35
 70
0
 62
7
  6
CONTINUOUS
370
-3
390
F
  0
LAYER
  5
369
100
AcDbSymbolTableRecord
100
AcDbLayerTableRecord
  2
___SHELL_35_1
 70
0
 62
7
  6
CONTINUOUS
370
-3
390
F
  0
LAYER
  5
36A
100
AcDbSymbolTableRecord
100
AcDbLayerTableRecord
  2
___SHELL_36
 70
0
 62
7
  6
CONTINUOUS
370
-3
390
F
  0
LAYER
  5
36B
100
AcDbSymbolTableRecord
100
AcDbLayerTableRecord
  2
___SHELL_36_1
 70
0
 62
7
  6
CONTINUOUS
370
-3
390
F
  0
LAYER
  5
36C
100
AcDbSymbolTableRecord
100
AcDbLayerTableRecord
  2
___SHELL_37
 70
0
 62
7
  6
CONTINUOUS
370
-3
390
F
  0
LAYER
  5
36D
100
AcDbSymbolTableRecord
100
AcDbLayerTableRecord
  2
___SHELL_37_1
 70
0
 62
7
  6
CONTINUOUS
370
-3
390
F
  0
LAYER
  5
36E
100
AcDbSymbolTableRecord
100
AcDbLayerTableRecord
  2
___SHELL_38
 70
0
 62
7
  6
CONTINUOUS
370
-3
390
F
  0
LAYER
  5
36F
100
AcDbSymbolTableRecord
100
AcDbLayerTableRecord
  2
___SHELL_38_1
 70
0
 62
7
  6
CONTINUOUS
370
-3
390
F
  0
LAYER
  5
370
100
AcDbSymbolTableRecord
100
AcDbLayerTableRecord
  2
___SHELL_39
 70
0
 62
7
  6
CONTINUOUS
370
-3
390
F
  0
LAYER
  5
371
100
AcDbSymbolTableRecord
100
AcDbLayerTableRecord
  2
___SHELL_39_1
 70
0
 62
7
  6
CONTINUOUS
370
-3
390
F
  0
LAYER
  5
372
100
AcDbSymbolTableRecord
100
AcDbLayerTableRecord
  2
___SHELL_3_1
 70
0
 62
7
  6
CONTINUOUS
370
-3
390
F
  0
LAYER
  5
373
100
AcDbSymbolTableRecord
100
AcDbLayerTableRecord
  2
___SHELL_4
 70
0
 62
7
  6
CONTINUOUS
370
-3
390
F
  0
LAYER
  5
374
100
AcDbSymbolTableRecord
100
AcDbLayerTableRecord
  2
___SHELL_40
 70
0
 62
7
  6
CONTINUOUS
370
-3
390
F
  0
LAYER
  5
375
100
AcDbSymbolTableRecord
100
AcDbLayerTableRecord
  2
___SHELL_40_1
 70
0
 62
7
  6
CONTINUOUS
370
-3
390
F
  0
LAYER
  5
376
100
AcDbSymbolTableRecord
100
AcDbLayerTableRecord
  2
___SHELL_41
 70
0
 62
7
  6
CONTINUOUS
370
-3
390
F
  0
LAYER
  5
377
100
AcDbSymbolTableRecord
100
AcDbLayerTableRecord
  2
___SHELL_41_1
 70
0
 62
7
  6
CONTINUOUS
370
-3
390
F
  0
LAYER
  5
378
100
AcDbSymbolTableRecord
100
AcDbLayerTableRecord
  2
___SHELL_42
 70
0
 62
7
  6
CONTINUOUS
370
-3
390
F
  0
LAYER
  5
379
100
AcDbSymbolTableRecord
100
AcDbLayerTableRecord
  2
___SHELL_42_1
 70
0
 62
7
  6
CONTINUOUS
370
-3
390
F
  0
LAYER
  5
37A
100
AcDbSymbolTableRecord
100
AcDbLayerTableRecord
  2
___SHELL_43
 70
0
 62
7
  6
CONTINUOUS
370
-3
390
F
  0
LAYER
  5
37B
100
AcDbSymbolTableRecord
100
AcDbLayerTableRecord
  2
___SHELL_43_1
 70
0
 62
7
  6
CONTINUOUS
370
-3
390
F
  0
LAYER
  5
37C
100
AcDbSymbolTableRecord
100
AcDbLayerTableRecord
  2
___SHELL_44
 70
0
 62
7
  6
CONTINUOUS
370
-3
390
F
  0
LAYER
  5
37D
100
AcDbSymbolTableRecord
100
AcDbLayerTableRecord
  2
___SHELL_44_1
 70
0
 62
7
  6
CONTINUOUS
370
-3
390
F
  0
LAYER
  5
37E
100
AcDbSymbolTableRecord
100
AcDbLayerTableRecord
  2
___SHELL_45
 70
0
 62
7
  6
CONTINUOUS
370
-3
390
F
  0
LAYER
  5
37F
100
AcDbSymbolTableRecord
100
AcDbLayerTableRecord
  2
___SHELL_45_1
 70
0
 62
7
  6
CONTINUOUS
370
-3
390
F
  0
LAYER
  5
380
100
AcDbSymbolTableRecord
100
AcDbLayerTableRecord
  2
___SHELL_46
 70
0
 62
7
  6
CONTINUOUS
370
-3
390
F
  0
LAYER
  5
381
100
AcDbSymbolTableRecord
100
AcDbLayerTableRecord
  2
___SHELL_46_1
 70
0
 62
7
  6
CONTINUOUS
370
-3
390
F
  0
LAYER
  5
382
100
AcDbSymbolTableRecord
100
AcDbLayerTableRecord
  2
___SHELL_47
 70
0
 62
7
  6
CONTINUOUS
370
-3
390
F
  0
LAYER
  5
383
100
AcDbSymbolTableRecord
100
AcDbLayerTableRecord
  2
___SHELL_47_1
 70
0
 62
7
  6
CONTINUOUS
370
-3
390
F
  0
LAYER
  5
384
100
AcDbSymbolTableRecord
100
AcDbLayerTableRecord
  2
___SHELL_48
 70
0
 62
7
  6
CONTINUOUS
370
-3
390
F
  0
LAYER
  5
385
100
AcDbSymbolTableRecord
100
AcDbLayerTableRecord
  2
___SHELL_48_1
 70
0
 62
7
  6
CONTINUOUS
370
-3
390
F
  0
LAYER
  5
386
100
AcDbSymbolTableRecord
100
AcDbLayerTableRecord
  2
___SHELL_49
 70
0
 62
7
  6
CONTINUOUS
370
-3
390
F
  0
LAYER
  5
387
100
AcDbSymbolTableRecord
100
AcDbLayerTableRecord
  2
___SHELL_49_1
 70
0
 62
7
  6
CONTINUOUS
370
-3
390
F
  0
LAYER
  5
388
100
AcDbSymbolTableRecord
100
AcDbLayerTableRecord
  2
___SHELL_4_1
 70
0
 62
7
  6
CONTINUOUS
370
-3
390
F
  0
LAYER
  5
389
100
AcDbSymbolTableRecord
100
AcDbLayerTableRecord
  2
___SHELL_5
 70
0
 62
7
  6
CONTINUOUS
370
-3
390
F
  0
LAYER
  5
38A
100
AcDbSymbolTableRecord
100
AcDbLayerTableRecord
  2
___SHELL_50
 70
0
 62
7
  6
CONTINUOUS
370
-3
390
F
  0
LAYER
  5
38B
100
AcDbSymbolTableRecord
100
AcDbLayerTableRecord
  2
___SHELL_50_1
 70
0
 62
7
  6
CONTINUOUS
370
-3
390
F
  0
LAYER
  5
38C
100
AcDbSymbolTableRecord
100
AcDbLayerTableRecord
  2
___SHELL_51
 70
0
 62
7
  6
CONTINUOUS
370
-3
390
F
  0
LAYER
  5
38D
100
AcDbSymbolTableRecord
100
AcDbLayerTableRecord
  2
___SHELL_51_1
 70
0
 62
7
  6
CONTINUOUS
370
-3
390
F
  0
LAYER
  5
38E
100
AcDbSymbolTableRecord
100
AcDbLayerTableRecord
  2
___SHELL_52
 70
0
 62
7
  6
CONTINUOUS
370
-3
390
F
  0
LAYER
  5
38F
100
AcDbSymbolTableRecord
100
AcDbLayerTableRecord
  2
___SHELL_52_1
 70
0
 62
7
  6
CONTINUOUS
370
-3
390
F
  0
LAYER
  5
390
100
AcDbSymbolTableRecord
100
AcDbLayerTableRecord
  2
___SHELL_5_1
 70
0
 62
7
  6
CONTINUOUS
370
-3
390
F
  0
LAYER
  5
391
100
AcDbSymbolTableRecord
100
AcDbLayerTableRecord
  2
___SHELL_6
 70
0
 62
7
  6
CONTINUOUS
370
-3
390
F
  0
LAYER
  5
392
100
AcDbSymbolTableRecord
100
AcDbLayerTableRecord
  2
___SHELL_6_1
 70
0
 62
7
  6
CONTINUOUS
370
-3
390
F
  0
LAYER
  5
393
100
AcDbSymbolTableRecord
100
AcDbLayerTableRecord
  2
___SHELL_7
 70
0
 62
7
  6
CONTINUOUS
370
-3
390
F
  0
LAYER
  5
394
100
AcDbSymbolTableRecord
100
AcDbLayerTableRecord
  2
___SHELL_7_1
 70
0
 62
7
  6
CONTINUOUS
370
-3
390
F
  0
LAYER
  5
395
100
AcDbSymbolTableRecord
100
AcDbLayerTableRecord
  2
___SHELL_8
 70
0
 62
7
  6
CONTINUOUS
370
-3
390
F
  0
LAYER
  5
396
100
AcDbSymbolTableRecord
100
AcDbLayerTableRecord
  2
___SHELL_8_1
 70
0
 62
7
  6
CONTINUOUS
370
-3
390
F
  0
LAYER
  5
397
100
AcDbSymbolTableRecord
100
AcDbLayerTableRecord
  2
___SHELL_9
 70
0
 62
7
  6
CONTINUOUS
370
-3
390
F
  0
LAYER
  5
398
100
AcDbSymbolTableRecord
100
AcDbLayerTableRecord
  2
___SHELL_9_1
 70
0
 62
7
  6
CONTINUOUS
370
-3
390
F
  0
ENDTAB
  0
TABLE
  2
STYLE
  5
3
100
AcDbSymbolTable
 70
1
  0
STYLE
  5
11
100
AcDbSymbolTableRecord
100
AcDbTextStyleTableRecord
  2
STANDARD
 70
0
 40
0.0
 41
0.8
 50
0.0
 71
0
 42
0.2
  3
txt
  4

  0
STYLE
  5
399
100
AcDbSymbolTableRecord
100
AcDbTextStyleTableRecord
  2
TEXTSTYLE_1
 70
0
 40
0.0
 41
0.8
 50
0.0
 71
0
 42
0.2
  3
gdt
  4

  0
ENDTAB
  0
TABLE
  2
VIEW
  5
6
100
AcDbSymbolTable
 70
0
  0
ENDTAB
  0
TABLE
  2
UCS
  5
7
100
AcDbSymbolTable
 70
0
  0
ENDTAB
  0
TABLE
  2
APPID
  5
9
100
AcDbSymbolTable
 70
1
  0
APPID
  5
39A
100
AcDbSymbolTableRecord
100
AcDbRegAppTableRecord
  2
ACAD
 70
0
  0
ENDTAB
  0
TABLE
  2
BLOCK_RECORD
  5
1
100
AcDbSymbolTable
 70
0
  0
BLOCK_RECORD
  5
39B
100
AcDbSymbolTableRecord
100
AcDbBlockTableRecord
  2
*Model_Space
  0
BLOCK_RECORD
  5
39C
100
AcDbSymbolTableRecord
100
AcDbBlockTableRecord
  2
*Paper_Space
  0
BLOCK_RECORD
  5
39D
100
AcDbSymbolTableRecord
100
AcDbBlockTableRecord
  2
_FILLED
  0
ENDTAB
  0
TABLE
  2
DIMSTYLE
  5
A
100
AcDbSymbolTable
 70
1
100
AcDbDimStyleTable
 71
0
  0
DIMSTYLE
105
39E
100
AcDbSymbolTableRecord
100
AcDbDimStyleTableRecord
  2
STANDARD
 70
0
  3

  4

 40
1.0
 41
3.0
 42
0.5
 43
0.38
 44
1.5
 45
0.0
 46
0.0
 47
0.01
 48
0.01
140
3.0
141
0.09
142
0.0
143
25.4
144
1.0
145
0.0
146
1.0
147
0.625
 71
1
 72
0
 73
0
 74
0
 75
0
 76
0
 77
1
 78
8
 79
2
170
0
171
1
172
0
173
0
174
0
175
0
176
0
177
0
178
0
270
2
179
2
271
2
272
2
273
2
274
2
275
0
280
0
281
0
282
0
283
1
284
8
285
0
286
0
287
3
288
0
340
11
278
44
341
39D
342
39D
343
39D
344
39D
  0
ENDTAB
  0
ENDSEC
  0
SECTION
  2
BLOCKS
  0
BLOCK
  5
20
100
AcDbEntity
  8
0
100
AcDbBlockBegin
  2
*Model_Space
 70
0
 10
0.0
 20
0.0
 30
0.0
  3
*Model_Space
  1

  0
ENDBLK
  5
21
100
AcDbEntity
  8
0
100
AcDbBlockEnd
  0
BLOCK
  5
1C
100
AcDbEntity
  8
0
100
AcDbBlockBegin
  2
*Paper_Space
 70
0
 10
0.0
 20
0.0
 30
0.0
  3
*Paper_Space
  1

  0
ENDBLK
  5
1D
100
AcDbEntity
  8
0
100
AcDbBlockEnd
  0
BLOCK
  5
39F
100
AcDbEntity
  8
0
100
AcDbBlockBegin
  2
_FILLED
 70
64
 10
0.0
 20
0.0
  3
_FILLED
  1

  0
SOLID
  5
3A0
100
AcDbEntity
  8
0
  6
BYBLOCK
 62
0
100
AcDbTrace
 10
0.0
 20
0.0
 11
-1.0
 21
0.3166666667
 12
-1.0
 22
-0.3166666667
 13
-1.0
 23
-0.3166666667
  0
ENDBLK
  5
3A1
100
AcDbEntity
  8
0
  6
BYBLOCK
 62
0
100
AcDbBlockEnd
  0
ENDSEC
  0
SECTION
  2
ENTITIES
  0
LWPOLYLINE
  5
3A2
100
AcDbEntity
  8
ASSI
100
AcDbPolyline
 62
7
  6
CONTINUOUS
 90
13
 70
0
 10
-17.4423991129
 20
21.9060467177
 10
-17.4583711209
 20
21.8953007569
 10
-17.4769551499
 20
21.8803777766
 10
-17.4939049123
 20
21.8640661068
 10
-17.5095728796
 20
21.8461261388
 10
-17.5238201492
 20
21.8266896921
 10
-17.5361994022
 20
21.8064493513
 10
-17.5468692242
 20
21.7852596737
 10
-17.5558706868
 20
21.7629070409
 10
-17.5628515415
 20
21.7401336697
 10
-17.5677712976
 20
21.7171271875
 10
-17.570646442
 20
21.6934655728
 10
-17.5713502172
 20
21.6746948331
  0
LINE
  5
3A3
100
AcDbEntity
  8
ASSI
100
AcDbLine
 62
7
  6
CONTINUOUS
 10
-17.4424114847
 20
21.9060396284
 11
-15.8751572922
 21
22.8752531304
  0
LINE
  5
3A4
100
AcDbEntity
  8
ASSI
100
AcDbLine
 62
250
  6
CONTINUOUS
 10
-17.3396865119
 20
21.8977825674
 11
-15.7734357658
 21
22.8663755231
  0
LINE
  5
3A5
100
AcDbEntity
  8
ASSI
100
AcDbLine
 62
7
  6
CONTINUOUS
 10
-15.8716682107
 20
22.8772676822
 11
-15.3277380102
 21
23.169775443
  0
LWPOLYLINE
  5
3A6
100
AcDbEntity
  8
ASSI
100
AcDbPolyline
 62
7
  6
CONTINUOUS
 90
19
 70
0
 10
-21.1101486898
 20
17.9426111228
 10
-21.1243950761
 20
17.9329139406
 10
-21.1942216232
 20
17.8810307762
 10
-21.2608365897
 20
17.8243570603
 10
-21.3242708857
 20
17.7632226301
 10
-21.3844942688
 20
17.69794801
 10
-21.4412859346
 20
17.6289920632
 10
-21.4945576748
 20
17.5566750513
 10
-21.5441851836
 20
17.4812668718
 10
-21.5898421792
 20
17.4033447345
 10
-21.6313987381
 20
17.3232043355
 10
-21.6686808365
 20
17.2411128003
 10
-21.7013935158
 20
17.1576667371
 10
-21.7293704869
 20
17.0731242751
 10
-21.75241421
 20
16.9877174046
 10
-21.7702697464
 20
16.9018668045
 10
-21.7826893488
 20
16.8157757441
 10
-21.7894115723
 20
16.7296193332
 10
-21.7898128587
 20
16.7194928988
  0
LINE
  5
3A7
100
AcDbEntity
  8
ASSI
100
AcDbLine
 62
7
  6
CONTINUOUS
 10
-21.1103505177
 20
17.9424882375
 11
-16.8564871925
 21
20.7950438479
  0
LINE
  5
3A8
100
AcDbEntity
  8
ASSI
100
AcDbLine
 62
250
  6
CONTINUOUS
 10
-16.8564871925
 20
20.6024311335
 11
-20.8503799212
 21
17.9242066022
  0
LINE
  5
3A9
100
AcDbEntity
  8
ASSI
100
AcDbLine
 62
7
  6
CONTINUOUS
 10
-15.4905715141
 20
19.699457797
 11
-16.0332975768
 21
19.3645677066
  0
LINE
  5
3AA
100
AcDbEntity
  8
ASSI
100
AcDbLine
 62
250
  6
CONTINUOUS
 10
-15.2739724705
 20
20.7050651694
 11
-13.1279678773
 21
21.9441392597
  0
LINE
  5
3AB
100
AcDbEntity
  8
ASSI
100
AcDbLine
 62
250
  6
CONTINUOUS
 10
-15.1325726535
 20
20.4601535023
 11
-12.9865680603
 21
21.6992275926
  0
LINE
  5
3AC
100
AcDbEntity
  8
ASSI
100
AcDbLine
 62
7
  6
CONTINUOUS
 10
-16.6505071166
 20
20.7115635171
 11
-16.5773031508
 21
20.7538166219
  0
LWPOLYLINE
  5
3AD
100
AcDbEntity
  8
ASSI
100
AcDbPolyline
 62
7
  6
CONTINUOUS
 90
4
 70
0
 10
-16.624332551
 20
20.7266687074
 10
-16.6107665641
 20
20.7340980758
 10
-16.5949846976
 20
20.7431169619
 10
-16.5773031508
 20
20.7538166219
  0
LINE
  5
3AE
100
AcDbEntity
  8
ASSI
100
AcDbLine
 62
250
  6
CONTINUOUS
 10
-15.7734357658
 20
22.8663755231
 11
-15.2307097031
 21
23.1582360363
  0
LWPOLYLINE
  5
3AF
100
AcDbEntity
  8
ASSI
100
AcDbPolyline
 62
7
  6
CONTINUOUS
 90
13
 70
0
 10
-6.6554560024
 20
-26.5924609842
 10
-6.5925231123
 20
-26.6208741003
 10
-6.530232891
 20
-26.6425191521
 10
-6.4656028902
 20
-26.6588436332
 10
-6.3990127868
 20
-26.66966686
 10
-6.330897101
 20
-26.6748458176
 10
-6.2612077597
 20
-26.6742649314
 10
-6.190243811
 20
-26.6677568939
 10
-6.1183870086
 20
-26.6552126542
 10
-6.0455560901
 20
-26.6364252473
 10
-5.9718576806
 20
-26.611139223
 10
-5.8977226645
 20
-26.5792322106
 10
-5.886476647
 20
-26.5738146537
  0
LWPOLYLINE
  5
3B0
100
AcDbEntity
  8
ASSI
100
AcDbPolyline
 62
7
  6
CONTINUOUS
 90
11
 70
0
 10
-2.8098591053
 20
-26.5153751086
 10
-2.7892946854
 20
-26.5258402458
 10
-2.7679646857
 20
-26.5339940468
 10
-2.7458901512
 20
-26.5398766765
 10
-2.7231237492
 20
-26.5434508204
 10
-2.6999375688
 20
-26.5446322299
 10
-2.6766390252
 20
-26.5433852895
 10
-2.6532844438
 20
-26.5396757514
 10
-2.6300568908
 20
-26.5334633174
 10
-2.6073118476
 20
-26.5247850954
 10
-2.5903913935
 20
-26.5165213076
  0
LWPOLYLINE
  5
3B1
100
AcDbEntity
  8
ASSI
100
AcDbPolyline
 62
7
  6
CONTINUOUS
 90
10
 70
0
 10
-21.4347395819
 20
-18.0589593765
 10
-19.9582959713
 20
-19.015078028
 10
-18.3723807913
 20
-20.0135163943
 10
-16.7606040544
 20
-20.9993342192
 10
-15.1233259326
 20
-21.9723063112
 10
-13.460910585
 20
-22.9322131412
 10
-11.7737358664
 20
-23.8788442931
 10
-10.0621958212
 20
-24.8119958883
 10
-8.3266933857
 20
-25.7314669914
 10
-6.6555108922
 20
-26.592440575
  0
LINE
  5
3B2
100
AcDbEntity
  8
ASSI
100
AcDbLine
 62
7
  6
CONTINUOUS
 10
-21.4347394346
 20
-18.0589594732
 11
-21.4347959096
 21
-18.0589223877
  0
LWPOLYLINE
  5
3B3
100
AcDbEntity
  8
ASSI
100
AcDbPolyline
 62
7
  6
CONTINUOUS
 90
13
 70
0
 10
-21.7897679162
 20
-17.3730956847
 10
-21.7891831649
 20
-17.3865521785
 10
-21.7822316233
 20
-17.4669000584
 10
-21.769609606
 20
-17.5439104991
 10
-21.7515083901
 20
-17.6173557635
 10
-21.7281261716
 20
-17.6871541543
 10
-21.6996565668
 20
-17.7531737306
 10
-21.6663608678
 20
-17.8151230808
 10
-21.6285155129
 20
-17.8727929031
 10
-21.586418447
 20
-17.9259967096
 10
-21.540491041
 20
-17.9744371384
 10
-21.4911392631
 20
-18.0179130171
 10
-21.4348385359
 20
-18.0588882603
  0
LWPOLYLINE
  5
3B4
100
AcDbEntity
  8
ASSI
100
AcDbPolyline
 62
7
  6
CONTINUOUS
 90
13
 70
0
 10
-21.7898118388
 20
16.7197430833
 10
-21.8829071066
 20
13.8733408999
 10
-21.9608920302
 20
10.9750309499
 10
-22.0215567618
 20
8.0866437596
 10
-22.0648893904
 20
5.208351176
 10
-22.0908846341
 20
2.3403022107
 10
-22.0995387425
 20
-0.5173627701
 10
-22.0908490885
 20
-3.3644977833
 10
-22.0648178944
 20
-6.2009599093
 10
-22.0214484437
 20
-9.0266132349
 10
-21.9607456298
 20
-11.8413148157
 10
-21.8827209842
 20
-14.644906805
 10
-21.7897760338
 20
-17.3730959948
  0
LWPOLYLINE
  5
3B5
100
AcDbEntity
  8
ASSI
100
AcDbPolyline
 62
7
  6
CONTINUOUS
 90
8
 70
0
 10
-12.9562474142
 20
21.2694468567
 10
-12.9468740303
 20
21.2821211721
 10
-12.931938245
 20
21.3059425197
 10
-12.9191649761
 20
21.3316430442
 10
-12.9092078268
 20
21.3579730378
 10
-12.9020798689
 20
21.384625071
 10
-12.8976714741
 20
21.4123757945
 10
-12.896304091
 20
21.4385657957
  0
LINE
  5
3B6
100
AcDbEntity
  8
ASSI
100
AcDbLine
 62
250
  6
CONTINUOUS
 10
-12.9698052209
 20
21.3125870656
 11
-13.5106725268
 21
20.6222291905
  0
LINE
  5
3B7
100
AcDbEntity
  8
ASSI
100
AcDbLine
 62
7
  6
CONTINUOUS
 10
-12.9562371991
 20
21.2694597869
 11
-13.5106725268
 21
20.5617838179
  0
LWPOLYLINE
  5
3B8
100
AcDbEntity
  8
ASSI
100
AcDbPolyline
 62
7
  6
CONTINUOUS
 90
10
 70
0
 10
-11.7282642938
 20
19.8069988206
 10
-11.7447576371
 20
19.7957312814
 10
-11.7641812949
 20
19.7792351756
 10
-11.7817738038
 20
19.7603058571
 10
-11.7971604491
 20
19.739204534
 10
-11.8100512466
 20
19.7162294831
 10
-11.8202478796
 20
19.6916229551
 10
-11.8275725847
 20
19.6656687085
 10
-11.8318746412
 20
19.6387804427
 10
-11.8331150215
 20
19.6142796482
  0
LINE
  5
3B9
100
AcDbEntity
  8
ASSI
100
AcDbLine
 62
7
  6
CONTINUOUS
 10
-11.5165310152
 20
19.9379380243
 11
-11.7283887799
 21
19.8069220047
  0
LINE
  5
3BA
100
AcDbEntity
  8
ASSI
100
AcDbLine
 62
250
  6
CONTINUOUS
 10
-11.3893791072
 20
19.9268410152
 11
-11.6002354696
 21
19.7964467233
  0
LINE
  5
3BB
100
AcDbEntity
  8
ASSI
100
AcDbLine
 62
7
  6
CONTINUOUS
 10
-14.4131232775
 20
19.2884379524
 11
-13.5106725268
 21
19.8452968067
  0
LINE
  5
3BC
100
AcDbEntity
  8
ASSI
100
AcDbLine
 62
7
  6
CONTINUOUS
 10
-11.5165317284
 20
19.9379376407
 11
-11.5121703763
 21
19.9404558306
  0
LINE
  5
3BD
100
AcDbEntity
  8
ASSI
100
AcDbLine
 62
7
  6
CONTINUOUS
 10
-6.147094185
 20
24.0317862562
 11
-12.8425368117
 21
20.2618212635
  0
LINE
  5
3BE
100
AcDbEntity
  8
ASSI
100
AcDbLine
 62
250
  6
CONTINUOUS
 10
-10.4755241709
 20
20.153514579
 11
-7.1604439404
 21
21.9990673866
  0
LINE
  5
3BF
100
AcDbEntity
  8
ASSI
100
AcDbLine
 62
250
  6
CONTINUOUS
 10
-10.1235089044
 20
19.9502653759
 11
-6.9868130008
 21
21.6965090651
  0
LINE
  5
3C0
100
AcDbEntity
  8
RACCORDO
100
AcDbLine
 62
7
  6
CONTINUOUS
 10
11.1049560059
 20
33.3734296758
 11
-5.7428458043
 21
24.1225007727
  0
LINE
  5
3C1
100
AcDbEntity
  8
RACCORDO
100
AcDbLine
 62
250
  6
CONTINUOUS
 10
11.598664369
 20
33.3203821826
 11
-5.4551015273
 21
23.9563608334
  0
LINE
  5
3C2
100
AcDbEntity
  8
ASSI
100
AcDbLine
 62
7
  6
CONTINUOUS
 10
-7.4613997642
 20
22.1188291777
 11
-11.5121696633
 21
19.940456214
  0
LINE
  5
3C3
100
AcDbEntity
  8
ASSI
100
AcDbLine
 62
250
  6
CONTINUOUS
 10
-7.3399080912
 20
22.1045154816
 11
-11.3893791072
 21
19.9268410152
  0
LINE
  5
3C4
100
AcDbEntity
  8
ASSI
100
AcDbLine
 62
250
  6
CONTINUOUS
 10
-0.3833045158
 20
-24.8203780825
 11
-0.9241718217
 21
-24.7767917385
  0
LINE
  5
3C5
100
AcDbEntity
  8
ASSI
100
AcDbLine
 62
250
  6
CONTINUOUS
 10
-0.456410943
 20
-24.5579205138
 11
-0.9241718217
 21
-24.5202255258
  0
LINE
  5
3C6
100
AcDbEntity
  8
ASSI
100
AcDbLine
 62
7
  6
CONTINUOUS
 10
-2.8098181583
 20
-26.5153991976
 11
-4.1657734245
 21
-25.732487621
  0
LINE
  5
3C7
100
AcDbEntity
  8
ASSI
100
AcDbLine
 62
250
  6
CONTINUOUS
 10
-2.8617696413
 20
-26.4008605746
 11
-4.0864904529
 21
-25.6937221274
  0
LINE
  5
3C8
100
AcDbEntity
  8
ASSI
100
AcDbLine
 62
250
  6
CONTINUOUS
 10
-2.8617696413
 20
-26.1017449816
 11
-3.7972381596
 21
-25.5616185193
  0
LINE
  5
3C9
100
AcDbEntity
  8
ASSI
100
AcDbLine
 62
250
  6
CONTINUOUS
 10
-2.7730727288
 20
-25.8741191546
 11
-3.5444919351
 21
-25.428711373
  0
LINE
  5
3CA
100
AcDbEntity
  8
ASSI
100
AcDbLine
 62
7
  6
CONTINUOUS
 10
-2.4876547599
 20
-24.911969707
 11
-2.1770638603
 21
-25.0913009999
  0
LINE
  5
3CB
100
AcDbEntity
  8
RACCORDO
100
AcDbLine
 62
7
  6
CONTINUOUS
 10
-5.9080481532
 20
19.5722866759
 11
-5.562591529
 21
19.7859222343
  0
LINE
  5
3CC
100
AcDbEntity
  8
RACCORDO
100
AcDbLine
 62
250
  6
CONTINUOUS
 10
-5.6711524977
 20
19.5393271901
 11
-5.3082877129
 21
19.7637282161
  0
LINE
  5
3CD
100
AcDbEntity
  8
DRAFT
100
AcDbLine
 62
7
  6
CONTINUOUS
 10
-6.7478922317
 20
18.6720843479
 11
-8.3047226383
 21
17.7093170716
  0
LINE
  5
3CE
100
AcDbEntity
  8
ASSI
100
AcDbLine
 62
7
  6
CONTINUOUS
 10
-9.2035351646
 20
17.0976085955
 11
-8.9851891272
 21
17.2323394094
  0
LINE
  5
3CF
100
AcDbEntity
  8
ASSI
100
AcDbLine
 62
7
  6
CONTINUOUS
 10
-8.9851891272
 20
17.2323394094
 11
-8.3031288969
 21
17.6387457845
  0
LINE
  5
3D0
100
AcDbEntity
  8
ASSI
100
AcDbLine
 62
7
  6
CONTINUOUS
 10
-6.4848940036
 20
18.9557689883
 11
-8.3086649465
 21
17.883883517
  0
LINE
  5
3D1
100
AcDbEntity
  8
ASSI
100
AcDbLine
 62
250
  6
CONTINUOUS
 10
-9.3802849359
 20
18.5146751077
 11
-8.508720134
 21
19.017906578
  0
LINE
  5
3D2
100
AcDbEntity
  8
ASSI
100
AcDbLine
 62
7
  6
CONTINUOUS
 10
-4.2040436595
 20
21.271446984
 11
-5.2852870292
 21
20.6471506136
  0
LINE
  5
3D3
100
AcDbEntity
  8
ASSI
100
AcDbLine
 62
250
  6
CONTINUOUS
 10
-9.2035351646
 20
18.2085355238
 11
-8.3274207158
 21
18.7143939122
  0
LINE
  5
3D4
100
AcDbEntity
  8
ASSI
100
AcDbLine
 62
7
  6
CONTINUOUS
 10
-7.8042211272
 20
17.7944960257
 11
-7.7998597751
 21
17.7970142157
  0
LINE
  5
3D5
100
AcDbEntity
  8
ASSI
100
AcDbLine
 62
250
  6
CONTINUOUS
 10
-3.3304181754
 20
22.4054728295
 11
-5.60085998
 21
21.1410929558
  0
LINE
  5
3D6
100
AcDbEntity
  8
ASSI
100
AcDbLine
 62
250
  6
CONTINUOUS
 10
-3.1567535828
 20
22.1011142449
 11
-5.282077868
 21
20.9175484534
  0
LINE
  5
3D7
100
AcDbEntity
  8
ASSI
100
AcDbLine
 62
7
  6
CONTINUOUS
 10
-6.2272303727
 20
20.9833469883
 11
-6.9743689594
 21
20.5674041995
  0
LINE
  5
3D8
100
AcDbEntity
  8
RACCORDO
100
AcDbLine
 62
250
  6
CONTINUOUS
 10
-5.3082877129
 20
19.7637282161
 11
-5.2250422647
 21
19.8084949242
  0
LINE
  5
3D9
100
AcDbEntity
  8
ASSI
100
AcDbLine
 62
7
  6
CONTINUOUS
 10
-7.1221088737
 20
18.1614867176
 11
-7.7998590621
 21
17.7970145991
  0
LINE
  5
3DA
100
AcDbEntity
  8
ASSI
100
AcDbLine
 62
250
  6
CONTINUOUS
 10
-7.0006406738
 20
18.1471603983
 11
-7.677068506
 21
17.7833994002
  0
LINE
  5
3DB
100
AcDbEntity
  8
RACCORDO
100
AcDbLine
 62
7
  6
CONTINUOUS
 10
-5.436407492
 20
19.8540882913
 11
-5.5538688252
 21
19.7909586138
  0
LINE
  5
3DC
100
AcDbEntity
  8
RACCORDO
100
AcDbLine
 62
7
  6
CONTINUOUS
 10
-5.4252303213
 20
19.859989558
 11
-5.436407492
 21
19.8540882913
  0
LINE
  5
3DD
100
AcDbEntity
  8
RACCORDO
100
AcDbLine
 62
7
  6
CONTINUOUS
 10
-5.4134524083
 20
19.8661193471
 11
-5.4252303213
 21
19.859989558
  0
LINE
  5
3DE
100
AcDbEntity
  8
RACCORDO
100
AcDbLine
 62
7
  6
CONTINUOUS
 10
-5.4010734649
 20
19.8724504456
 11
-5.4134524083
 21
19.8661193471
  0
LINE
  5
3DF
100
AcDbEntity
  8
ASSI
100
AcDbLine
 62
250
  6
CONTINUOUS
 10
-0.9241718217
 20
-24.2878559941
 11
-0.456410943
 21
-24.5579205138
  0
LINE
  5
3E0
100
AcDbEntity
  8
ASSI
100
AcDbLine
 62
7
  6
CONTINUOUS
 10
-0.4199727474
 20
-24.5691446001
 11
-0.9241718217
 21
-24.2780263737
  0
LINE
  5
3E1
100
AcDbEntity
  8
0
100
AcDbLine
 62
250
  6
CONTINUOUS
 10
-17.0277607238
 20
-8.075375326
 11
-17.035214524
 21
-7.3442216464
  0
LINE
  5
3E2
100
AcDbEntity
  8
ASSI
100
AcDbLine
 62
250
  6
CONTINUOUS
 10
-17.0277607238
 20
-8.075375326
 11
-17.035214524
 21
-7.3442216464
  0
LWPOLYLINE
  5
3E3
100
AcDbEntity
  8
0
100
AcDbPolyline
 62
250
  6
CONTINUOUS
 90
3
 70
0
 10
-17.0312827886
 20
-7.7505017792
 10
-17.0345202527
 20
-7.4254639036
 10
-17.0352851493
 20
-7.3441787777
  0
LWPOLYLINE
  5
3E4
100
AcDbEntity
  8
ASSI
100
AcDbPolyline
 62
250
  6
CONTINUOUS
 90
3
 70
0
 10
-17.0312827886
 20
-7.7505017792
 10
-17.0345202527
 20
-7.4254639036
 10
-17.0352851493
 20
-7.3441787777
  0
LWPOLYLINE
  5
3E5
100
AcDbEntity
  8
ASSI
100
AcDbPolyline
 62
7
  6
CONTINUOUS
 90
12
 70
0
 10
-17.5713507294
 20
21.3755452169
 10
-17.5713209293
 20
21.371783421
 10
-17.569695225
 20
21.3471946486
 10
-17.5656114483
 20
21.3231759757
 10
-17.5591102666
 20
21.2999388251
 10
-17.5503284707
 20
21.277835711
 10
-17.5394031223
 20
21.2570269528
 10
-17.5264190303
 20
21.2375963267
 10
-17.511586141
 20
21.2198094949
 10
-17.4951140015
 20
21.2038483015
 10
-17.4770647691
 20
21.1897339754
 10
-17.4610465153
 20
21.1795397066
  0
LINE
  5
3E6
100
AcDbEntity
  8
ASSI
100
AcDbLine
 62
7
  6
CONTINUOUS
 10
-17.5713502909
 20
21.3755452171
 11
-17.5713503129
 21
21.6747135958
  0
LINE
  5
3E7
100
AcDbEntity
  8
ASSI
100
AcDbLine
 62
250
  6
CONTINUOUS
 10
-17.5127716691
 20
21.2939607779
 11
-17.5127716691
 21
21.5930586772
  0
LINE
  5
3E8
100
AcDbEntity
  8
ASSI
100
AcDbLine
 62
7
  6
CONTINUOUS
 10
-16.8564871925
 20
20.5510440015
 11
-16.8564871925
 21
20.8304715008
  0
LINE
  5
3E9
100
AcDbEntity
  8
ASSI
100
AcDbLine
 62
250
  6
CONTINUOUS
 10
-16.7832638878
 20
20.4458421723
 11
-16.7832638878
 21
20.7881932823
  0
LINE
  5
3EA
100
AcDbEntity
  8
ASSI
100
AcDbLine
 62
7
  6
CONTINUOUS
 10
-16.6505264555
 20
19.5727862725
 11
-16.6505264555
 21
20.7115523529
  0
LINE
  5
3EB
100
AcDbEntity
  8
ASSI
100
AcDbLine
 62
250
  6
CONTINUOUS
 10
-16.5773031508
 20
19.4675844434
 11
-16.5773031508
 21
20.7538166219
  0
LWPOLYLINE
  5
3EC
100
AcDbEntity
  8
0
100
AcDbPolyline
 62
250
  6
CONTINUOUS
 90
3
 70
0
 10
-17.0352851493
 20
-0.3990523033
 10
-17.0321188364
 20
-0.0704640389
 10
-17.031282789
 20
0.0117066535
  0
LWPOLYLINE
  5
3ED
100
AcDbEntity
  8
ASSI
100
AcDbPolyline
 62
250
  6
CONTINUOUS
 90
3
 70
0
 10
-17.0352851493
 20
-0.3990523033
 10
-17.0321188364
 20
-0.0704640389
 10
-17.031282789
 20
0.0117066535
  0
LINE
  5
3EE
100
AcDbEntity
  8
0
100
AcDbLine
 62
250
  6
CONTINUOUS
 10
-17.035214524
 20
-0.3990951287
 11
-17.0278376345
 21
0.3405305191
  0
LINE
  5
3EF
100
AcDbEntity
  8
ASSI
100
AcDbLine
 62
250
  6
CONTINUOUS
 10
-17.035214524
 20
-0.3990951287
 11
-17.0278376345
 21
0.3405305191
  0
LINE
  5
3F0
100
AcDbEntity
  8
RACCORDO
100
AcDbLine
 62
7
  6
CONTINUOUS
 10
-7.3198327674
 20
18.0551572061
 11
-5.9303352879
 21
19.5539471242
  0
LINE
  5
3F1
100
AcDbEntity
  8
RACCORDO
100
AcDbLine
 62
250
  6
CONTINUOUS
 10
-6.9775721476
 20
18.1338409204
 11
-5.6733990745
 21
19.5405951478
  0
LWPOLYLINE
  5
3F2
100
AcDbEntity
  8
ASSI
100
AcDbPolyline
 62
7
  6
CONTINUOUS
 90
10
 70
0
 10
-8.0159472823
 20
17.6635603053
 10
-8.032630822
 20
17.6521511082
 10
-8.0520072986
 20
17.6356636779
 10
-8.0695533034
 20
17.6167538379
 10
-8.0849004134
 20
17.5956851499
 10
-8.0977577148
 20
17.5727515674
 10
-8.1079311366
 20
17.5481999246
 10
-8.1152430723
 20
17.522310918
 10
-8.119548156
 20
17.4954958778
 10
-8.1208040932
 20
17.4708330193
  0
LINE
  5
3F3
100
AcDbEntity
  8
ASSI
100
AcDbLine
 62
7
  6
CONTINUOUS
 10
-7.804220414
 20
17.7944964093
 11
-8.0160781999
 21
17.6634803766
  0
LINE
  5
3F4
100
AcDbEntity
  8
ASSI
100
AcDbLine
 62
250
  6
CONTINUOUS
 10
-7.677068506
 20
17.7833994002
 11
-7.8879228233
 21
17.6530039275
  0
LINE
  5
3F5
100
AcDbEntity
  8
DRAFT
100
AcDbLine
 62
7
  6
CONTINUOUS
 10
14.9436969148
 20
28.933637413
 11
15.9951008454
 21
29.5513937406
  0
LINE
  5
3F6
100
AcDbEntity
  8
0
100
AcDbLine
 62
7
  6
CONTINUOUS
 10
14.9436969148
 20
28.9735816384
 11
4.4595656918
 21
22.9201653671
  0
LINE
  5
3F7
100
AcDbEntity
  8
IMPORT_IGES
100
AcDbLine
 62
250
  6
CONTINUOUS
 10
7.7542259622
 20
24.7791297254
 11
7.2592512154
 21
24.4933375101
  0
LINE
  5
3F8
100
AcDbEntity
  8
ASSI
100
AcDbLine
 62
250
  6
CONTINUOUS
 10
-1.5390995933
 20
18.7552013561
 11
-5.6679743347
 21
16.3712334927
  0
LINE
  5
3F9
100
AcDbEntity
  8
ASSI
100
AcDbLine
 62
250
  6
CONTINUOUS
 10
-1.3623498219
 20
18.4490617722
 11
-5.4912245634
 21
16.0650939088
  0
LINE
  5
3FA
100
AcDbEntity
  8
0
100
AcDbLine
 62
7
  6
CONTINUOUS
 10
15.9951008454
 20
30.7819348614
 11
-1.3530840281
 21
20.9416697589
  0
LINE
  5
3FB
100
AcDbEntity
  8
ASSI
100
AcDbLine
 62
7
  6
CONTINUOUS
 10
-5.1061711133
 20
17.0533174174
 11
-1.8466476913
 21
18.8713217867
  0
LINE
  5
3FC
100
AcDbEntity
  8
ASSI
100
AcDbLine
 62
250
  6
CONTINUOUS
 10
-5.0338366369
 20
17.0115523973
 11
-1.7217855155
 21
18.8588541745
  0
LINE
  5
3FD
100
AcDbEntity
  8
ASSI
100
AcDbLine
 62
7
  6
CONTINUOUS
 10
-0.9154365149
 20
18.5045830692
 11
1.2405012915
 21
19.7066877326
  0
LINE
  5
3FE
100
AcDbEntity
  8
ASSI
100
AcDbLine
 62
250
  6
CONTINUOUS
 10
-0.903724107
 20
18.4290255716
 11
1.3653346057
 21
19.6942040253
  0
LINE
  5
3FF
100
AcDbEntity
  8
0
100
AcDbLine
 62
7
  6
CONTINUOUS
 10
17.3704732143
 20
29.9878120931
 11
-0.2831679676
 21
20.3239136348
  0
LINE
  5
400
100
AcDbEntity
  8
0
100
AcDbLine
 62
250
  6
CONTINUOUS
 10
-15.2288417784
 20
-10.6223575445
 11
-15.246214811
 21
-10.612299426
  0
LINE
  5
401
100
AcDbEntity
  8
ASSI
100
AcDbLine
 62
250
  6
CONTINUOUS
 10
-15.2288417784
 20
-10.6223575445
 11
-15.246214811
 21
-10.612299426
  0
LINE
  5
402
100
AcDbEntity
  8
0
100
AcDbLine
 62
250
  6
CONTINUOUS
 10
-13.4635312865
 20
-21.0757998056
 11
-13.4804664116
 21
-20.6656789382
  0
LINE
  5
403
100
AcDbEntity
  8
0
100
AcDbLine
 62
250
  6
CONTINUOUS
 10
-14.0388189522
 20
-20.1482058313
 11
-14.0630701716
 21
-19.5323597197
  0
LINE
  5
404
100
AcDbEntity
  8
ASSI
100
AcDbLine
 62
250
  6
CONTINUOUS
 10
-16.3837388647
 20
19.3558228505
 11
-16.3837388647
 21
20.642055029
  0
LINE
  5
405
100
AcDbEntity
  8
ASSI
100
AcDbLine
 62
250
  6
CONTINUOUS
 10
-16.0332975768
 20
19.3645677066
 11
-16.0332975768
 21
20.3551721336
  0
LINE
  5
406
100
AcDbEntity
  8
ASSI
100
AcDbLine
 62
7
  6
CONTINUOUS
 10
-15.4905715141
 20
20.041808907
 11
-15.4905715141
 21
19.699457797
  0
LINE
  5
407
100
AcDbEntity
  8
ASSI
100
AcDbLine
 62
250
  6
CONTINUOUS
 10
-15.4482703464
 20
20.1019272307
 11
-15.4482703464
 21
20.4010414878
  0
LINE
  5
408
100
AcDbEntity
  8
ASSI
100
AcDbLine
 62
250
  6
CONTINUOUS
 10
-15.1679173161
 20
20.1005145923
 11
-15.1679173161
 21
20.3996288494
  0
LINE
  5
409
100
AcDbEntity
  8
0
100
AcDbLine
 62
7
  6
CONTINUOUS
 10
-15.0663074454
 20
0.5964301697
 11
-15.0663074454
 21
0.4536858377
  0
LINE
  5
40A
100
AcDbEntity
  8
ASSI
100
AcDbLine
 62
7
  6
CONTINUOUS
 10
-15.0663074454
 20
0.5964301697
 11
-15.0663074454
 21
0.4536858377
  0
LINE
  5
40B
100
AcDbEntity
  8
0
100
AcDbLine
 62
7
  6
CONTINUOUS
 10
-15.0663074454
 20
-7.121591392
 11
-15.0663074454
 21
-7.2211347642
  0
LINE
  5
40C
100
AcDbEntity
  8
ASSI
100
AcDbLine
 62
7
  6
CONTINUOUS
 10
-15.0663074454
 20
-7.121591392
 11
-15.0663074454
 21
-7.2211347642
  0
LINE
  5
40D
100
AcDbEntity
  8
ASSI
100
AcDbLine
 62
250
  6
CONTINUOUS
 10
-14.7635645654
 20
19.2796930963
 11
-14.7635645654
 21
19.9060198612
  0
LINE
  5
40E
100
AcDbEntity
  8
IMPORT_IGES
100
AcDbLine
 62
7
  6
CONTINUOUS
 10
-14.5331489324
 20
-0.9165315273
 11
-14.5331489324
 21
-0.364281418
  0
LINE
  5
40F
100
AcDbEntity
  8
ASSI
100
AcDbLine
 62
250
  6
CONTINUOUS
 10
-14.4131232775
 20
20.0032531592
 11
-14.4131232775
 21
19.2884379524
  0
LWPOLYLINE
  5
410
100
AcDbEntity
  8
ASSI
100
AcDbPolyline
 62
7
  6
CONTINUOUS
 90
13
 70
0
 10
-4.8558953635
 20
14.6387612235
 10
-4.8714964187
 20
14.628285377
 10
-4.89011091
 20
14.6133924942
 10
-4.9070920311
 20
14.5971056966
 10
-4.9227909014
 20
14.5791887274
 10
-4.9370691921
 20
14.5597745876
 10
-4.9494801413
 20
14.5395540772
 10
-4.96018326
 20
14.5183807394
 10
-4.9692197033
 20
14.496042376
 10
-4.9762366782
 20
14.4732826509
 10
-4.9811946436
 20
14.4502885116
 10
-4.98411086
 20
14.4266360546
 10
-4.9848495404
 20
14.4074077724
  0
LINE
  5
411
100
AcDbEntity
  8
ASSI
100
AcDbLine
 62
7
  6
CONTINUOUS
 10
-3.2886565871
 20
15.6079653692
 11
-4.8559107794
 21
14.6387518673
  0
LINE
  5
412
100
AcDbEntity
  8
ASSI
100
AcDbLine
 62
250
  6
CONTINUOUS
 10
-3.1869350606
 20
15.5990877619
 11
-4.7531858068
 21
14.6304948062
  0
LINE
  5
413
100
AcDbEntity
  8
ASSI
100
AcDbLine
 62
7
  6
CONTINUOUS
 10
-5.272878526
 20
15.0888977945
 11
-5.4912245634
 21
14.9541669805
  0
LINE
  5
414
100
AcDbEntity
  8
DRAFT
100
AcDbLine
 62
7
  6
CONTINUOUS
 10
18.4792308207
 20
26.8922644464
 11
19.5306347514
 21
27.510020774
  0
LINE
  5
415
100
AcDbEntity
  8
ASSI
100
AcDbLine
 62
7
  6
CONTINUOUS
 10
-5.272878526
 20
15.0888977945
 11
-1.3745165855
 21
17.3397708495
  0
LINE
  5
416
100
AcDbEntity
  8
0
100
AcDbLine
 62
7
  6
CONTINUOUS
 10
18.4792308207
 20
26.9322086717
 11
7.9950995977
 21
20.8787924004
  0
LINE
  5
417
100
AcDbEntity
  8
SMUSSO
100
AcDbLine
 62
7
  6
CONTINUOUS
 10
13.8897152442
 20
24.2351600939
 11
14.2383188873
 21
24.4364952577
  0
LINE
  5
418
100
AcDbEntity
  8
ASSI
100
AcDbLine
 62
7
  6
CONTINUOUS
 10
-4.0640064115
 20
13.4442757559
 11
-3.9908024457
 21
13.4865288606
  0
LINE
  5
419
100
AcDbEntity
  8
0
100
AcDbLine
 62
7
  6
CONTINUOUS
 10
19.5306347514
 20
28.7405618947
 11
2.7470422806
 21
19.2205457957
  0
LINE
  5
41A
100
AcDbEntity
  8
ASSI
100
AcDbLine
 62
7
  6
CONTINUOUS
 10
-1.2598940426
 20
18.0392331419
 11
-1.1929100865
 21
18.0765935499
  0
LINE
  5
41B
100
AcDbEntity
  8
ASSI
100
AcDbLine
 62
7
  6
CONTINUOUS
 10
4.1820106152
 20
18.0678905986
 11
-1.1661723441
 21
15.1185790516
  0
LWPOLYLINE
  5
41C
100
AcDbEntity
  8
ASSI
100
AcDbPolyline
 62
7
  6
CONTINUOUS
 90
4
 70
0
 10
-4.0378318459
 20
13.4593809462
 10
-4.024265859
 20
13.4668103145
 10
-4.0084839925
 20
13.4758292007
 10
-3.9908024457
 20
13.4865288606
  0
LINE
  5
41D
100
AcDbEntity
  8
0
100
AcDbLine
 62
7
  6
CONTINUOUS
 10
20.9060071202
 20
27.9464391264
 11
3.8268993413
 21
18.5970498627
  0
LINE
  5
41E
100
AcDbEntity
  8
ASSI
100
AcDbLine
 62
7
  6
CONTINUOUS
 10
-2.7414023378
 20
15.9023992313
 11
-3.2851675056
 21
15.609979921
  0
LINE
  5
41F
100
AcDbEntity
  8
ASSI
100
AcDbLine
 62
250
  6
CONTINUOUS
 10
-2.6442089979
 20
15.8909482751
 11
-3.1869350606
 21
15.5990877619
  0
LINE
  5
420
100
AcDbEntity
  8
0
100
AcDbLine
 62
7
  6
CONTINUOUS
 10
-14.0056472736
 20
-9.0582520693
 11
-9.6541317341
 21
-11.5707626046
  0
LINE
  5
421
100
AcDbEntity
  8
ASSI
100
AcDbLine
 62
7
  6
CONTINUOUS
 10
-14.0056472736
 20
-9.0582520693
 11
-9.6541317341
 21
-11.5707626046
  0
LINE
  5
422
100
AcDbEntity
  8
IMPORT_IGES
100
AcDbLine
 62
7
  6
CONTINUOUS
 10
-10.9269043483
 20
-10.6310795092
 11
-10.2905082453
 21
-10.9985266432
  0
LINE
  5
423
100
AcDbEntity
  8
IMPORT_IGES
100
AcDbLine
 62
7
  6
CONTINUOUS
 10
-9.9013335792
 20
-10.4883369499
 11
-10.2905082453
 21
-10.2636323752
  0
LINE
  5
424
100
AcDbEntity
  8
0
100
AcDbLine
 62
250
  6
CONTINUOUS
 10
-15.7661813893
 20
-6.6134495069
 11
-15.6607955751
 21
-6.6750879104
  0
LINE
  5
425
100
AcDbEntity
  8
ASSI
100
AcDbLine
 62
250
  6
CONTINUOUS
 10
-15.7661813893
 20
-6.6134495069
 11
-15.6607955751
 21
-6.6750879104
  0
LWPOLYLINE
  5
426
100
AcDbEntity
  8
0
100
AcDbPolyline
 62
7
  6
CONTINUOUS
 90
10
 70
0
 10
-15.7041646049
 20
-6.7492377952
 10
-15.2247238269
 20
-7.0299200702
 10
-14.6854109633
 20
-7.342005996
 10
-14.1427039037
 20
-7.6522274447
 10
-13.5966265247
 20
-7.9605700572
 10
-13.0471992354
 20
-8.2670221698
 10
-12.4944403441
 20
-8.5715736124
 10
-11.9383696094
 20
-8.8742134592
 10
-11.3790111465
 20
-9.1749288209
 10
-10.871016888
 20
-9.4448575871
  0
LWPOLYLINE
  5
427
100
AcDbEntity
  8
ASSI
100
AcDbPolyline
 62
7
  6
CONTINUOUS
 90
10
 70
0
 10
-15.7041646049
 20
-6.7492377952
 10
-15.2247238269
 20
-7.0299200702
 10
-14.6854109633
 20
-7.342005996
 10
-14.1427039037
 20
-7.6522274447
 10
-13.5966265247
 20
-7.9605700572
 10
-13.0471992354
 20
-8.2670221698
 10
-12.4944403441
 20
-8.5715736124
 10
-11.9383696094
 20
-8.8742134592
 10
-11.3790111465
 20
-9.1749288209
 10
-10.871016888
 20
-9.4448575871
  0
LINE
  5
428
100
AcDbEntity
  8
0
100
AcDbLine
 62
250
  6
CONTINUOUS
 10
-15.7661813893
 20
-6.6134495069
 11
-15.6610817
 21
-6.6752435975
  0
LINE
  5
429
100
AcDbEntity
  8
ASSI
100
AcDbLine
 62
250
  6
CONTINUOUS
 10
-15.7661813893
 20
-6.6134495069
 11
-15.6610817
 21
-6.6752435975
  0
LWPOLYLINE
  5
42A
100
AcDbEntity
  8
ASSI
100
AcDbPolyline
 62
7
  6
CONTINUOUS
 90
10
 70
0
 10
-12.8963045752
 20
21.7592587897
 10
-12.8968077332
 20
21.774775112
 10
-12.9003363434
 20
21.8031295366
 10
-12.9072174966
 20
21.8306457442
 10
-12.9173727368
 20
21.8569267881
 10
-12.9305355384
 20
21.881391461
 10
-12.9464717354
 20
21.9037735161
 10
-12.9650499053
 20
21.9239450692
 10
-12.9859157406
 20
21.9415353031
 10
-13.0064209343
 20
21.9549897357
  0
LINE
  5
42B
100
AcDbEntity
  8
ASSI
100
AcDbLine
 62
7
  6
CONTINUOUS
 10
-13.5106725268
 20
19.8452968067
 11
-13.5106725268
 21
21.3966152031
  0
LINE
  5
42C
100
AcDbEntity
  8
IMPORT_IGES
100
AcDbLine
 62
7
  6
CONTINUOUS
 10
-12.9775140138
 20
-0.5888980038
 11
-12.9775140138
 21
-0.649959214
  0
LINE
  5
42D
100
AcDbEntity
  8
ASSI
100
AcDbLine
 62
250
  6
CONTINUOUS
 10
-12.9524361163
 20
21.6788178616
 11
-12.9524361163
 21
21.358326292
  0
LINE
  5
42E
100
AcDbEntity
  8
ASSI
100
AcDbLine
 62
7
  6
CONTINUOUS
 10
-12.896304451
 20
21.7592587898
 11
-12.8963040764
 21
21.4385436994
  0
LINE
  5
42F
100
AcDbEntity
  8
ASSI
100
AcDbLine
 62
7
  6
CONTINUOUS
 10
-11.8331152358
 20
18.4973658499
 11
-11.8331152358
 21
19.6141947569
  0
LINE
  5
430
100
AcDbEntity
  8
ASSI
100
AcDbLine
 62
250
  6
CONTINUOUS
 10
-11.774536592
 20
18.4132043865
 11
-11.774536592
 21
19.5325398381
  0
LINE
  5
431
100
AcDbEntity
  8
IMPORT_IGES
100
AcDbLine
 62
7
  6
CONTINUOUS
 10
-10.9269043483
 20
-10.6310795092
 11
-10.9269043483
 21
-10.8358796487
  0
LINE
  5
432
100
AcDbEntity
  8
ASSI
100
AcDbLine
 62
7
  6
CONTINUOUS
 10
-2.904070809
 20
12.4321700358
 11
-3.4467968717
 21
12.0972799453
  0
LINE
  5
433
100
AcDbEntity
  8
ASSI
100
AcDbLine
 62
7
  6
CONTINUOUS
 10
5.4039153862
 20
17.1611133142
 11
-0.8670933023
 21
13.3473502687
  0
LINE
  5
434
100
AcDbEntity
  8
ASSI
100
AcDbLine
 62
250
  6
CONTINUOUS
 10
-6.1244041085
 20
9.4216127629
 11
-1.8872546611
 21
11.9930939615
  0
LINE
  5
435
100
AcDbEntity
  8
DRAFT
100
AcDbLine
 62
7
  6
CONTINUOUS
 10
-0.4243096085
 20
13.0916925133
 11
5.7602133065
 21
16.843315565
  0
LINE
  5
436
100
AcDbEntity
  8
ASSI
100
AcDbLine
 62
7
  6
CONTINUOUS
 10
5.3832500675
 20
17.5336280448
 11
-0.3240315619
 21
14.0869357063
  0
LINE
  5
437
100
AcDbEntity
  8
ASSI
100
AcDbLine
 62
250
  6
CONTINUOUS
 10
-0.5414671722
 20
14.6768514985
 11
-2.6874717654
 21
13.4377774082
  0
LINE
  5
438
100
AcDbEntity
  8
ASSI
100
AcDbLine
 62
250
  6
CONTINUOUS
 10
-0.4000673551
 20
14.4319398313
 11
-2.5460719483
 21
13.1928657411
  0
LINE
  5
439
100
AcDbEntity
  8
ASSI
100
AcDbLine
 62
250
  6
CONTINUOUS
 10
-0.2293537874
 20
12.9791274656
 11
-0.9241691599
 21
12.5780104769
  0
LINE
  5
43A
100
AcDbEntity
  8
0
100
AcDbLine
 62
7
  6
CONTINUOUS
 10
23.0661686573
 20
26.6991889281
 11
5.7256497519
 21
16.8632721283
  0
LINE
  5
43B
100
AcDbEntity
  8
0
100
AcDbLine
 62
7
  6
CONTINUOUS
 10
24.4415410261
 20
25.9050661598
 11
6.7878998442
 21
16.2411677016
  0
LWPOLYLINE
  5
43C
100
AcDbEntity
  8
0
100
AcDbPolyline
 62
7
  6
CONTINUOUS
 90
25
 70
0
 10
-10.8709432687
 20
-9.444896446
 10
-10.8499761955
 20
-9.456188881
 10
-10.7717006205
 20
-9.5020305958
 10
-10.6921999486
 20
-9.5544985384
 10
-10.6119813449
 20
-9.6135335479
 10
-10.5317204563
 20
-9.6788911153
 10
-10.4522112467
 20
-9.7501054625
 10
-10.3739944303
 20
-9.8268431528
 10
-10.2975717512
 20
-9.9087445888
 10
-10.2236118944
 20
-9.9951959904
 10
-10.1526249287
 20
-10.0856781504
 10
-10.0850219206
 20
-10.1797116032
 10
-10.0212649529
 20
-10.2766885967
 10
-9.9617388322
 20
-10.3760448223
 10
-9.906785716
 20
-10.4771924075
 10
-9.8567583071
 20
-10.5794518703
 10
-9.8119062014
 20
-10.6822441452
 10
-9.77246382
 20
-10.7849034688
 10
-9.7386836301
 20
-10.8865782521
 10
-9.710654338
 20
-10.9866730222
 10
-9.6884201501
 20
-11.0845718682
 10
-9.6720285482
 20
-11.1793748938
 10
-9.661369649
 20
-11.2703899166
 10
-9.6562358303
 20
-11.3571673517
 10
-9.6557158871
 20
-11.3849244359
  0
LWPOLYLINE
  5
43D
100
AcDbEntity
  8
ASSI
100
AcDbPolyline
 62
7
  6
CONTINUOUS
 90
25
 70
0
 10
-10.8709432687
 20
-9.444896446
 10
-10.8499761955
 20
-9.456188881
 10
-10.7717006205
 20
-9.5020305958
 10
-10.6921999486
 20
-9.5544985384
 10
-10.6119813449
 20
-9.6135335479
 10
-10.5317204563
 20
-9.6788911153
 10
-10.4522112467
 20
-9.7501054625
 10
-10.3739944303
 20
-9.8268431528
 10
-10.2975717512
 20
-9.9087445888
 10
-10.2236118944
 20
-9.9951959904
 10
-10.1526249287
 20
-10.0856781504
 10
-10.0850219206
 20
-10.1797116032
 10
-10.0212649529
 20
-10.2766885967
 10
-9.9617388322
 20
-10.3760448223
 10
-9.906785716
 20
-10.4771924075
 10
-9.8567583071
 20
-10.5794518703
 10
-9.8119062014
 20
-10.6822441452
 10
-9.77246382
 20
-10.7849034688
 10
-9.7386836301
 20
-10.8865782521
 10
-9.710654338
 20
-10.9866730222
 10
-9.6884201501
 20
-11.0845718682
 10
-9.6720285482
 20
-11.1793748938
 10
-9.661369649
 20
-11.2703899166
 10
-9.6562358303
 20
-11.3571673517
 10
-9.6557158871
 20
-11.3849244359
  0
LINE
  5
43E
100
AcDbEntity
  8
0
100
AcDbLine
 62
250
  6
CONTINUOUS
 10
-9.5548945728
 20
-11.5144292105
 11
-9.5480624296
 21
-12.2458098899
  0
LINE
  5
43F
100
AcDbEntity
  8
ASSI
100
AcDbLine
 62
250
  6
CONTINUOUS
 10
-9.5548945728
 20
-11.5144292105
 11
-9.5480624296
 21
-12.2458098899
  0
LINE
  5
440
100
AcDbEntity
  8
0
100
AcDbLine
 62
7
  6
CONTINUOUS
 10
-9.6529808413
 20
-11.7004823312
 11
-9.6490065739
 21
-12.1165806311
  0
LINE
  5
441
100
AcDbEntity
  8
ASSI
100
AcDbLine
 62
7
  6
CONTINUOUS
 10
-9.6529808413
 20
-11.7004823312
 11
-9.6490065739
 21
-12.1165806311
  0
LINE
  5
442
100
AcDbEntity
  8
0
100
AcDbLine
 62
250
  6
CONTINUOUS
 10
-9.552008939
 20
-11.8395907676
 11
-9.5481580212
 21
-12.2457609723
  0
LINE
  5
443
100
AcDbEntity
  8
ASSI
100
AcDbLine
 62
250
  6
CONTINUOUS
 10
-9.552008939
 20
-11.8395907676
 11
-9.5481580212
 21
-12.2457609723
  0
LINE
  5
444
100
AcDbEntity
  8
0
100
AcDbLine
 62
7
  6
CONTINUOUS
 10
-9.6557151473
 20
-11.3850189892
 11
-9.6529808413
 21
-11.7004823312
  0
LINE
  5
445
100
AcDbEntity
  8
ASSI
100
AcDbLine
 62
7
  6
CONTINUOUS
 10
-9.6557151473
 20
-11.3850189892
 11
-9.6529808413
 21
-11.7004823312
  0
LWPOLYLINE
  5
446
100
AcDbEntity
  8
0
100
AcDbPolyline
 62
7
  6
CONTINUOUS
 90
13
 70
0
 10
-9.6490065739
 20
-12.1165806311
 10
-9.6489435534
 20
-12.1280646012
 10
-9.6509002444
 20
-12.1995859941
 10
-9.6570012561
 20
-12.2688827768
 10
-9.6673424012
 20
-12.3354261534
 10
-9.6819388587
 20
-12.3984542975
 10
-9.7005929533
 20
-12.4570234184
 10
-9.7230204816
 20
-12.5105013572
 10
-9.7490123876
 20
-12.5586871454
 10
-9.7783466253
 20
-12.601440321
 10
-9.810847975
 20
-12.6386780879
 10
-9.8463755617
 20
-12.6704168479
 10
-9.8821927734
 20
-12.6951822084
  0
LWPOLYLINE
  5
447
100
AcDbEntity
  8
ASSI
100
AcDbPolyline
 62
7
  6
CONTINUOUS
 90
13
 70
0
 10
-9.6490065739
 20
-12.1165806311
 10
-9.6489435534
 20
-12.1280646012
 10
-9.6509002444
 20
-12.1995859941
 10
-9.6570012561
 20
-12.2688827768
 10
-9.6673424012
 20
-12.3354261534
 10
-9.6819388587
 20
-12.3984542975
 10
-9.7005929533
 20
-12.4570234184
 10
-9.7230204816
 20
-12.5105013572
 10
-9.7490123876
 20
-12.5586871454
 10
-9.7783466253
 20
-12.601440321
 10
-9.810847975
 20
-12.6386780879
 10
-9.8463755617
 20
-12.6704168479
 10
-9.8821927734
 20
-12.6951822084
  0
LINE
  5
448
100
AcDbEntity
  8
IMPORT_IGES
100
AcDbLine
 62
7
  6
CONTINUOUS
 10
-10.2905082453
 20
-11.2033267827
 11
-10.2905082453
 21
-10.9985266432
  0
LINE
  5
449
100
AcDbEntity
  8
IMPORT_IGES
100
AcDbLine
 62
7
  6
CONTINUOUS
 10
-10.0076655328
 20
-10.2993876578
 11
-10.0076655328
 21
-10.4269422125
  0
LINE
  5
44A
100
AcDbEntity
  8
ASSI
100
AcDbLine
 62
250
  6
CONTINUOUS
 10
-9.4838881949
 20
18.2099481622
 11
-9.4838881949
 21
17.0906127106
  0
LINE
  5
44B
100
AcDbEntity
  8
ASSI
100
AcDbLine
 62
250
  6
CONTINUOUS
 10
-9.2035351646
 20
18.2085355238
 11
-9.2035351646
 21
17.0976085955
  0
LINE
  5
44C
100
AcDbEntity
  8
ASSI
100
AcDbLine
 62
7
  6
CONTINUOUS
 10
-8.9851891272
 20
17.2323394094
 11
-8.9851891272
 21
18.3346053712
  0
LINE
  5
44D
100
AcDbEntity
  8
ASSI
100
AcDbLine
 62
7
  6
CONTINUOUS
 10
-8.1208046346
 20
17.4707531418
 11
-8.1208046346
 21
16.3539242349
  0
LINE
  5
44E
100
AcDbEntity
  8
ASSI
100
AcDbLine
 62
250
  6
CONTINUOUS
 10
-8.0622259908
 20
17.3890982231
 11
-8.0622259908
 21
16.2697627716
  0
LINE
  5
44F
100
AcDbEntity
  8
0
100
AcDbLine
 62
7
  6
CONTINUOUS
 10
-9.65205849
 20
-4.0196286292
 11
-9.6557167557
 21
-4.4402690549
  0
LINE
  5
450
100
AcDbEntity
  8
ASSI
100
AcDbLine
 62
7
  6
CONTINUOUS
 10
-9.65205849
 20
-4.0196286292
 11
-9.6557167557
 21
-4.4402690549
  0
LINE
  5
451
100
AcDbEntity
  8
0
100
AcDbLine
 62
250
  6
CONTINUOUS
 10
-9.5480624296
 20
-3.8304178354
 11
-9.5548945728
 21
-4.5696881026
  0
LINE
  5
452
100
AcDbEntity
  8
ASSI
100
AcDbLine
 62
250
  6
CONTINUOUS
 10
-9.5480624296
 20
-3.8304178354
 11
-9.5548945728
 21
-4.5696881026
  0
LINE
  5
453
100
AcDbEntity
  8
0
100
AcDbLine
 62
7
  6
CONTINUOUS
 10
-9.6490093243
 20
-3.7007256363
 11
-9.65205849
 21
-4.0196286292
  0
LINE
  5
454
100
AcDbEntity
  8
ASSI
100
AcDbLine
 62
7
  6
CONTINUOUS
 10
-9.6490093243
 20
-3.7007256363
 11
-9.65205849
 21
-4.0196286292
  0
LWPOLYLINE
  5
455
100
AcDbEntity
  8
0
100
AcDbPolyline
 62
7
  6
CONTINUOUS
 90
13
 70
0
 10
-9.6557167557
 20
-4.4402690549
 10
-9.6558679652
 20
-4.4520739096
 10
-9.6591856802
 20
-4.5246861893
 10
-9.6666797824
 20
-4.5951840026
 10
-9.6784528262
 20
-4.6630238189
 10
-9.694529239
 20
-4.7274583419
 10
-9.7147371155
 20
-4.7875882844
 10
-9.738830481
 20
-4.842787215
 10
-9.7666287528
 20
-4.8928018405
 10
-9.7979288685
 20
-4.9374310522
 10
-9.8325663756
 20
-4.976528371
 10
-9.8704041932
 20
-5.0100440426
 10
-9.9084440435
 20
-5.0362764596
  0
LWPOLYLINE
  5
456
100
AcDbEntity
  8
ASSI
100
AcDbPolyline
 62
7
  6
CONTINUOUS
 90
13
 70
0
 10
-9.6557167557
 20
-4.4402690549
 10
-9.6558679652
 20
-4.4520739096
 10
-9.6591856802
 20
-4.5246861893
 10
-9.6666797824
 20
-4.5951840026
 10
-9.6784528262
 20
-4.6630238189
 10
-9.694529239
 20
-4.7274583419
 10
-9.7147371155
 20
-4.7875882844
 10
-9.738830481
 20
-4.842787215
 10
-9.7666287528
 20
-4.8928018405
 10
-9.7979288685
 20
-4.9374310522
 10
-9.8325663756
 20
-4.976528371
 10
-9.8704041932
 20
-5.0100440426
 10
-9.9084440435
 20
-5.0362764596
  0
LWPOLYLINE
  5
457
100
AcDbEntity
  8
ASSI
100
AcDbPolyline
 62
7
  6
CONTINUOUS
 90
8
 70
0
 10
-0.3697428258
 20
14.0021633909
 10
-0.3629750261
 20
14.0111664614
 10
-0.3472964181
 20
14.0353896654
 10
-0.3338801566
 20
14.061621012
 10
-0.3234184782
 20
14.0885115683
 10
-0.3159294346
 20
14.1157264338
 10
-0.3112722604
 20
14.1441279762
 10
-0.3098073102
 20
14.1713117755
  0
LINE
  5
458
100
AcDbEntity
  8
ASSI
100
AcDbLine
 62
250
  6
CONTINUOUS
 10
-0.9241718217
 20
13.3549414292
 11
-0.3833045158
 21
14.0452993044
  0
LINE
  5
459
100
AcDbEntity
  8
ASSI
100
AcDbLine
 62
7
  6
CONTINUOUS
 10
-0.9241718181
 20
13.2944960612
 11
-0.3697364406
 21
14.0021720937
  0
LINE
  5
45A
100
AcDbEntity
  8
ASSI
100
AcDbLine
 62
250
  6
CONTINUOUS
 10
-0.5706184311
 20
11.9656364185
 11
-5.7617232788
 21
8.815209774
  0
LINE
  5
45B
100
AcDbEntity
  8
RACCORDO
100
AcDbLine
 62
250
  6
CONTINUOUS
 10
25.1227573149
 20
25.240888851
 11
0.1241457553
 21
10.5065683261
  0
LINE
  5
45C
100
AcDbEntity
  8
ASSI
100
AcDbLine
 62
7
  6
CONTINUOUS
 10
0.4715278485
 20
9.8648627133
 11
0.1241457553
 21
9.6601137778
  0
LINE
  5
45D
100
AcDbEntity
  8
DRAFT
100
AcDbLine
 62
7
  6
CONTINUOUS
 10
22.0147647266
 20
24.8508914798
 11
23.0661686573
 21
25.4686478073
  0
LINE
  5
45E
100
AcDbEntity
  8
ASSI
100
AcDbLine
 62
250
  6
CONTINUOUS
 10
0.1241457553
 20
12.3668482978
 11
-0.5706184311
 21
11.9656987866
  0
LINE
  5
45F
100
AcDbEntity
  8
0
100
AcDbLine
 62
7
  6
CONTINUOUS
 10
22.0147647266
 20
24.8908357051
 11
11.5306335036
 21
18.8374194338
  0
LINE
  5
460
100
AcDbEntity
  8
RACCORDO
100
AcDbLine
 62
250
  6
CONTINUOUS
 10
6.4906597774
 20
15.5781451667
 11
24.5953368154
 21
25.8162663986
  0
LINE
  5
461
100
AcDbEntity
  8
RACCORDO
100
AcDbLine
 62
250
  6
CONTINUOUS
 10
6.8434085761
 20
14.9671663256
 11
25.095260663
 21
25.288514449
  0
LINE
  5
462
100
AcDbEntity
  8
0
100
AcDbLine
 62
250
  6
CONTINUOUS
 10
-16.6020881524
 20
0.3321937085
 11
-15.5850824152
 21
0.8992523052
  0
LINE
  5
463
100
AcDbEntity
  8
ASSI
100
AcDbLine
 62
250
  6
CONTINUOUS
 10
-16.6020881524
 20
0.3321937085
 11
-15.5850824152
 21
0.8992523052
  0
LINE
  5
464
100
AcDbEntity
  8
0
100
AcDbLine
 62
7
  6
CONTINUOUS
 10
-16.2696627051
 20
1.0437242637
 11
-16.2695444772
 21
1.0437892182
  0
LINE
  5
465
100
AcDbEntity
  8
ASSI
100
AcDbLine
 62
7
  6
CONTINUOUS
 10
-16.2696627051
 20
1.0437242637
 11
-16.2695444772
 21
1.0437892182
  0
LINE
  5
466
100
AcDbEntity
  8
0
100
AcDbLine
 62
7
  6
CONTINUOUS
 10
-14.0056472736
 20
-1.3834314675
 11
-9.6509195243
 21
-3.8977966924
  0
LINE
  5
467
100
AcDbEntity
  8
ASSI
100
AcDbLine
 62
7
  6
CONTINUOUS
 10
-14.0056472736
 20
-1.3834314675
 11
-9.6509195243
 21
-3.8977966924
  0
LWPOLYLINE
  5
468
100
AcDbEntity
  8
ASSI
100
AcDbPolyline
 62
7
  6
CONTINUOUS
 90
22
 70
0
 10
-6.876037567
 20
21.8489259912
 10
-6.8769410466
 20
21.8675728372
 10
-6.8814139465
 20
21.900079316
 10
-6.8896245502
 20
21.9323176448
 10
-6.9016234934
 20
21.9639430799
 10
-6.9173007503
 20
21.9943481435
 10
-6.936709126
 20
22.0233767572
 10
-6.9599653965
 20
22.050866718
 10
-6.9866843924
 20
22.0761131598
 10
-7.0161743035
 20
22.098458324
 10
-7.0482666167
 20
22.1178801506
 10
-7.0827375411
 20
22.1343093805
 10
-7.1188754683
 20
22.1474819333
 10
-7.1569251216
 20
22.1575494721
 10
-7.1966888178
 20
22.1643791589
 10
-7.2367596903
 20
22.1677372644
 10
-7.2772331282
 20
22.1676837479
 10
-7.3181308858
 20
22.1640815721
 10
-7.3579579388
 20
22.1569958779
 10
-7.3963137359
 20
22.1464952525
 10
-7.4337023954
 20
22.1323036867
 10
-7.4615004737
 20
22.1187701004
  0
LINE
  5
469
100
AcDbEntity
  8
ASSI
100
AcDbLine
 62
7
  6
CONTINUOUS
 10
-8.3274207158
 20
18.7143939122
 11
-8.3031288969
 21
17.6387457845
  0
LINE
  5
46A
100
AcDbEntity
  8
ASSI
100
AcDbLine
 62
7
  6
CONTINUOUS
 10
-6.8583449841
 20
20.7270787732
 11
-6.87603525
 21
21.848784347
  0
LINE
  5
46B
100
AcDbEntity
  8
ASSI
100
AcDbLine
 62
250
  6
CONTINUOUS
 10
-6.9743689594
 20
20.5674041995
 11
-6.9868130008
 21
21.6965090651
  0
LINE
  5
46C
100
AcDbEntity
  8
ASSI
100
AcDbLine
 62
250
  6
CONTINUOUS
 10
-6.2272303727
 20
19.2336994328
 11
-6.2272303727
 21
20.9833469883
  0
LINE
  5
46D
100
AcDbEntity
  8
ASSI
100
AcDbLine
 62
250
  6
CONTINUOUS
 10
-5.7715775937
 20
14.9471710956
 11
-5.7715775937
 21
16.0665065472
  0
LINE
  5
46E
100
AcDbEntity
  8
ASSI
100
AcDbLine
 62
250
  6
CONTINUOUS
 10
-5.4912245634
 20
14.9541669805
 11
-5.4912245634
 21
16.0650939088
  0
LINE
  5
46F
100
AcDbEntity
  8
ASSI
100
AcDbLine
 62
7
  6
CONTINUOUS
 10
-5.272878526
 20
15.0888977945
 11
-5.272878526
 21
16.1911637562
  0
LINE
  5
470
100
AcDbEntity
  8
ASSI
100
AcDbLine
 62
250
  6
CONTINUOUS
 10
-6.5537832795
 20
-5.3178133403
 11
-6.5580614753
 21
-5.8468646792
  0
LINE
  5
471
100
AcDbEntity
  8
ASSI
100
AcDbLine
 62
250
  6
CONTINUOUS
 10
-7.2078100046
 20
-4.1945072672
 11
-7.2159823063
 21
-5.071340111
  0
LINE
  5
472
100
AcDbEntity
  8
ASSI
100
AcDbLine
 62
250
  6
CONTINUOUS
 10
-6.5506379248
 20
-4.9705673808
 11
-6.5537832795
 21
-5.3178133403
  0
LINE
  5
473
100
AcDbEntity
  8
ASSI
100
AcDbLine
 62
250
  6
CONTINUOUS
 10
-6.5483666203
 20
-4.9693502003
 11
-6.5567205372
 21
-5.8461427453
  0
LINE
  5
474
100
AcDbEntity
  8
ASSI
100
AcDbLine
 62
250
  6
CONTINUOUS
 10
-7.2094277219
 20
-4.1954064979
 11
-7.2181819838
 21
-5.07256874
  0
LINE
  5
475
100
AcDbEntity
  8
ASSI
100
AcDbLine
 62
250
  6
CONTINUOUS
 10
-7.0949383047
 20
2.2336241262
 11
-7.0966238969
 21
2.1555669287
  0
LINE
  5
476
100
AcDbEntity
  8
ASSI
100
AcDbLine
 62
250
  6
CONTINUOUS
 10
-7.0836770379
 20
2.6820523187
 11
-7.0968564181
 21
2.1554402003
  0
LINE
  5
477
100
AcDbEntity
  8
ASSI
100
AcDbLine
 62
250
  6
CONTINUOUS
 10
-7.0746182644
 20
3.0311594736
 11
-7.0836770379
 21
2.6820523187
  0
LINE
  5
478
100
AcDbEntity
  8
ASSI
100
AcDbLine
 62
250
  6
CONTINUOUS
 10
-7.0728462605
 20
3.0321105628
 11
-7.0949383047
 21
2.2336241262
  0
LINE
  5
479
100
AcDbEntity
  8
DRAFT
100
AcDbLine
 62
7
  6
CONTINUOUS
 10
25.5369077905
 20
21.5518396532
 11
20.8125113229
 21
18.7271124938
  0
LINE
  5
47A
100
AcDbEntity
  8
0
100
AcDbLine
 62
250
  6
CONTINUOUS
 10
-15.5556795438
 20
-2.3096411457
 11
-14.0056472736
 21
-1.3834314675
  0
LINE
  5
47B
100
AcDbEntity
  8
ASSI
100
AcDbLine
 62
250
  6
CONTINUOUS
 10
-15.5556795438
 20
-2.3096411457
 11
-14.0056472736
 21
-1.3834314675
  0
LINE
  5
47C
100
AcDbEntity
  8
RACCORDO
100
AcDbLine
 62
250
  6
CONTINUOUS
 10
25.5369077905
 20
23.847276079
 11
0.5253970797
 21
9.1053527227
  0
LINE
  5
47D
100
AcDbEntity
  8
IMPORT_IGES
100
AcDbLine
 62
7
  6
CONTINUOUS
 10
-15.0460880474
 20
0.5847303201
 11
-15.0663074454
 21
0.5730558932
  0
LINE
  5
47E
100
AcDbEntity
  8
IMPORT_IGES
100
AcDbLine
 62
7
  6
CONTINUOUS
 10
-14.9931656201
 20
0.5541070325
 11
-15.0663074454
 21
0.5118758593
  0
LINE
  5
47F
100
AcDbEntity
  8
IMPORT_IGES
100
AcDbLine
 62
7
  6
CONTINUOUS
 10
-14.5331489324
 20
-0.364281418
 11
-13.96406709
 21
-0.0357006944
  0
LINE
  5
480
100
AcDbEntity
  8
IMPORT_IGES
100
AcDbLine
 62
7
  6
CONTINUOUS
 10
-12.9775140138
 20
-0.649959214
 11
-14.1198290276
 21
-1.3095175864
  0
LINE
  5
481
100
AcDbEntity
  8
IMPORT_IGES
100
AcDbLine
 62
7
  6
CONTINUOUS
 10
-13.8970569029
 20
-1.4461301866
 11
-12.6884759179
 21
-0.7483106729
  0
LINE
  5
482
100
AcDbEntity
  8
0
100
AcDbLine
 62
250
  6
CONTINUOUS
 10
-16.6095850324
 20
-0.4068096254
 11
-15.0663074454
 21
0.4536858377
  0
LINE
  5
483
100
AcDbEntity
  8
ASSI
100
AcDbLine
 62
250
  6
CONTINUOUS
 10
-16.6095850324
 20
-0.4068096254
 11
-15.0663074454
 21
0.4536858377
  0
LWPOLYLINE
  5
484
100
AcDbEntity
  8
0
100
AcDbPolyline
 62
7
  6
CONTINUOUS
 90
13
 70
0
 10
-16.2696951822
 20
1.0437055519
 10
-16.2356532183
 20
1.0598040561
 10
-16.1958202875
 20
1.072870972
 10
-16.1523507711
 20
1.0813710463
 10
-16.1051955979
 20
1.0850724902
 10
-16.0545161058
 20
1.0837438537
 10
-16.0006459913
 20
1.0771897375
 10
-15.9438666812
 20
1.0652852193
 10
-15.8848566076
 20
1.0480550961
 10
-15.8246041101
 20
1.0257793134
 10
-15.7637692295
 20
0.9988182441
 10
-15.7027302509
 20
0.9674794644
 10
-15.6662765293
 20
0.9467724351
  0
LWPOLYLINE
  5
485
100
AcDbEntity
  8
ASSI
100
AcDbPolyline
 62
7
  6
CONTINUOUS
 90
13
 70
0
 10
-16.2696951822
 20
1.0437055519
 10
-16.2356532183
 20
1.0598040561
 10
-16.1958202875
 20
1.072870972
 10
-16.1523507711
 20
1.0813710463
 10
-16.1051955979
 20
1.0850724902
 10
-16.0545161058
 20
1.0837438537
 10
-16.0006459913
 20
1.0771897375
 10
-15.9438666812
 20
1.0652852193
 10
-15.8848566076
 20
1.0480550961
 10
-15.8246041101
 20
1.0257793134
 10
-15.7637692295
 20
0.9988182441
 10
-15.7027302509
 20
0.9674794644
 10
-15.6662765293
 20
0.9467724351
  0
LWPOLYLINE
  5
486
100
AcDbEntity
  8
0
100
AcDbPolyline
 62
7
  6
CONTINUOUS
 90
25
 70
0
 10
-10.8350186357
 20
-1.7498275692
 10
-10.8141145768
 20
-1.7611129599
 10
-10.7362216772
 20
-1.806927636
 10
-10.6572597616
 20
-1.8594052998
 10
-10.5777445832
 20
-1.9184745271
 10
-10.4983392273
 20
-1.9838902739
 10
-10.4198049497
 20
-2.0552036643
 10
-10.3426744467
 20
-2.1320823125
 10
-10.2674466537
 20
-2.2141609093
 10
-10.1947648199
 20
-2.3008415432
 10
-10.1251276096
 20
-2.3916099458
 10
-10.0589440809
 20
-2.485979466
 10
-9.9966647795
 20
-2.5833448026
 10
-9.9386670017
 20
-2.6831391803
 10
-9.8852842641
 20
-2.7847728257
 10
-9.8368553004
 20
-2.8875727039
 10
-9.7936255872
 20
-2.9909495949
 10
-9.7558163441
 20
-3.0942441804
 10
-9.7236570377
 20
-3.196639894
 10
-9.6972358883
 20
-3.2975332076
 10
-9.6765926011
 20
-3.3963125158
 10
-9.661760462
 20
-3.4921317602
 10
-9.6526350757
 20
-3.5843111244
 10
-9.6490235721
 20
-3.6723715552
 10
-9.6490084216
 20
-3.7006386664
  0
LWPOLYLINE
  5
487
100
AcDbEntity
  8
ASSI
100
AcDbPolyline
 62
7
  6
CONTINUOUS
 90
25
 70
0
 10
-10.8350186357
 20
-1.7498275692
 10
-10.8141145768
 20
-1.7611129599
 10
-10.7362216772
 20
-1.806927636
 10
-10.6572597616
 20
-1.8594052998
 10
-10.5777445832
 20
-1.9184745271
 10
-10.4983392273
 20
-1.9838902739
 10
-10.4198049497
 20
-2.0552036643
 10
-10.3426744467
 20
-2.1320823125
 10
-10.2674466537
 20
-2.2141609093
 10
-10.1947648199
 20
-2.3008415432
 10
-10.1251276096
 20
-2.3916099458
 10
-10.0589440809
 20
-2.485979466
 10
-9.9966647795
 20
-2.5833448026
 10
-9.9386670017
 20
-2.6831391803
 10
-9.8852842641
 20
-2.7847728257
 10
-9.8368553004
 20
-2.8875727039
 10
-9.7936255872
 20
-2.9909495949
 10
-9.7558163441
 20
-3.0942441804
 10
-9.7236570377
 20
-3.196639894
 10
-9.6972358883
 20
-3.2975332076
 10
-9.6765926011
 20
-3.3963125158
 10
-9.661760462
 20
-3.4921317602
 10
-9.6526350757
 20
-3.5843111244
 10
-9.6490235721
 20
-3.6723715552
 10
-9.6490084216
 20
-3.7006386664
  0
LINE
  5
488
100
AcDbEntity
  8
IMPORT_IGES
100
AcDbLine
 62
7
  6
CONTINUOUS
 10
-14.5331489324
 20
-0.364281418
 11
-14.9692578551
 21
-0.1124775917
  0
LINE
  5
489
100
AcDbEntity
  8
0
100
AcDbLine
 62
250
  6
CONTINUOUS
 10
8.341474336
 20
-11.4733891943
 11
7.82049146
 21
-11.1725802112
  0
LINE
  5
48A
100
AcDbEntity
  8
0
100
AcDbLine
 62
250
  6
CONTINUOUS
 10
-15.7281531621
 20
1.088257586
 11
-15.6202760844
 21
1.025182068
  0
LINE
  5
48B
100
AcDbEntity
  8
ASSI
100
AcDbLine
 62
250
  6
CONTINUOUS
 10
-15.7281531621
 20
1.088257586
 11
-15.6202760844
 21
1.025182068
  0
LWPOLYLINE
  5
48C
100
AcDbEntity
  8
0
100
AcDbPolyline
 62
7
  6
CONTINUOUS
 90
10
 70
0
 10
-15.666161633
 20
0.9467047277
 10
-15.1866517221
 20
0.6660667602
 10
-14.6473400157
 20
0.3539968433
 10
-14.1047140299
 20
0.0437541416
 10
-13.558796716
 20
-0.2646476672
 10
-13.0096076553
 20
-0.5711974546
 10
-12.4571643982
 20
-0.8758855057
 10
-11.9014858723
 20
-1.1787013774
 10
-11.3425951166
 20
-1.4796327103
 10
-10.8350920482
 20
-1.7497887444
  0
LWPOLYLINE
  5
48D
100
AcDbEntity
  8
ASSI
100
AcDbPolyline
 62
7
  6
CONTINUOUS
 90
10
 70
0
 10
-15.666161633
 20
0.9467047277
 10
-15.1866517221
 20
0.6660667602
 10
-14.6473400157
 20
0.3539968433
 10
-14.1047140299
 20
0.0437541416
 10
-13.558796716
 20
-0.2646476672
 10
-13.0096076553
 20
-0.5711974546
 10
-12.4571643982
 20
-0.8758855057
 10
-11.9014858723
 20
-1.1787013774
 10
-11.3425951166
 20
-1.4796327103
 10
-10.8350920482
 20
-1.7497887444
  0
LINE
  5
48E
100
AcDbEntity
  8
0
100
AcDbLine
 62
250
  6
CONTINUOUS
 10
-15.7281574586
 20
1.0879730531
 11
-15.6205654039
 21
1.0247238858
  0
LINE
  5
48F
100
AcDbEntity
  8
ASSI
100
AcDbLine
 62
250
  6
CONTINUOUS
 10
-15.7281574586
 20
1.0879730531
 11
-15.6205654039
 21
1.0247238858
  0
LWPOLYLINE
  5
490
100
AcDbEntity
  8
ASSI
100
AcDbPolyline
 62
7
  6
CONTINUOUS
 90
11
 70
0
 10
-4.9848492344
 20
14.1086955266
 10
-4.9835856148
 20
14.0834490193
 10
-4.9797217007
 20
14.0586981818
 10
-4.9732973915
 20
14.0347144467
 10
-4.9644524743
 20
14.0118935085
 10
-4.9533115568
 20
13.9904025083
 10
-4.9399596418
 20
13.9703478999
 10
-4.9246182925
 20
13.9520178169
 10
-4.9075206936
 20
13.9356161462
 10
-4.8887558113
 20
13.9211932274
 10
-4.8745136567
 20
13.9122308768
  0
LINE
  5
491
100
AcDbEntity
  8
ASSI
100
AcDbLine
 62
7
  6
CONTINUOUS
 10
-4.9848496078
 20
14.4074258347
 11
-4.9848496078
 21
14.1083115777
  0
LINE
  5
492
100
AcDbEntity
  8
ASSI
100
AcDbLine
 62
250
  6
CONTINUOUS
 10
-4.926270964
 20
14.325770916
 11
-4.926270964
 21
14.0266566589
  0
LINE
  5
493
100
AcDbEntity
  8
ASSI
100
AcDbLine
 62
250
  6
CONTINUOUS
 10
-4.813501426
 20
20.0217418329
 11
-4.813501426
 21
20.4942533972
  0
LINE
  5
494
100
AcDbEntity
  8
ASSI
100
AcDbLine
 62
7
  6
CONTINUOUS
 10
-4.2699864874
 20
13.5631837395
 11
-4.2699864874
 21
13.2837562403
  0
LINE
  5
495
100
AcDbEntity
  8
ASSI
100
AcDbLine
 62
250
  6
CONTINUOUS
 10
-4.1967631827
 20
13.5209055211
 11
-4.1967631827
 21
13.1785544111
  0
LINE
  5
496
100
AcDbEntity
  8
ASSI
100
AcDbLine
 62
7
  6
CONTINUOUS
 10
-4.0640257504
 20
12.3054985113
 11
-4.0640257504
 21
13.4442645916
  0
LINE
  5
497
100
AcDbEntity
  8
ASSI
100
AcDbLine
 62
250
  6
CONTINUOUS
 10
-3.9908024457
 20
12.2002966821
 11
-3.9908024457
 21
13.4865288606
  0
LINE
  5
498
100
AcDbEntity
  8
ASSI
100
AcDbLine
 62
250
  6
CONTINUOUS
 10
-3.7972381596
 20
12.0885350893
 11
-3.7972381596
 21
13.3747672678
  0
LINE
  5
499
100
AcDbEntity
  8
ASSI
100
AcDbLine
 62
250
  6
CONTINUOUS
 10
-3.4467968717
 20
12.0972799453
 11
-3.4467968717
 21
13.0878843724
  0
LINE
  5
49A
100
AcDbEntity
  8
ASSI
100
AcDbLine
 62
7
  6
CONTINUOUS
 10
-2.904070809
 20
12.7745211458
 11
-2.904070809
 21
12.4321700358
  0
LINE
  5
49B
100
AcDbEntity
  8
ASSI
100
AcDbLine
 62
250
  6
CONTINUOUS
 10
-2.8617696413
 20
-26.4008605746
 11
-2.8617696413
 21
-26.1017449816
  0
LINE
  5
49C
100
AcDbEntity
  8
ASSI
100
AcDbLine
 62
250
  6
CONTINUOUS
 10
-2.8617696413
 20
13.1337537265
 11
-2.8617696413
 21
12.834655821
  0
LINE
  5
49D
100
AcDbEntity
  8
ASSI
100
AcDbLine
 62
250
  6
CONTINUOUS
 10
-2.581416611
 20
-26.402273213
 11
-2.581416611
 21
-26.1031589559
  0
LINE
  5
49E
100
AcDbEntity
  8
ASSI
100
AcDbLine
 62
250
  6
CONTINUOUS
 10
-2.581416611
 20
13.1323410882
 11
-2.581416611
 21
12.8332268311
  0
LINE
  5
49F
100
AcDbEntity
  8
0
100
AcDbLine
 62
7
  6
CONTINUOUS
 10
19.4931777577
 20
16.9557563467
 11
8.341474336
 21
10.173760576
  0
LINE
  5
4A0
100
AcDbEntity
  8
DRAFT
100
AcDbLine
 62
7
  6
CONTINUOUS
 10
25.5369077905
 20
18.1226644907
 11
20.8125113229
 21
15.2979373313
  0
LINE
  5
4A1
100
AcDbEntity
  8
0
100
AcDbLine
 62
7
  6
CONTINUOUS
 10
19.4931777577
 20
15.4916285302
 11
8.341474336
 21
8.9383677255
  0
LINE
  5
4A2
100
AcDbEntity
  8
0
100
AcDbLine
 62
7
  6
CONTINUOUS
 10
23.7884486701
 20
17.9073790935
 11
20.073488115
 21
15.7246400694
  0
LINE
  5
4A3
100
AcDbEntity
  8
0
100
AcDbLine
 62
7
  6
CONTINUOUS
 10
18.7424345734
 20
15.9250982359
 11
7.9265528914
 21
9.6801330814
  0
LINE
  5
4A4
100
AcDbEntity
  8
ASSI
100
AcDbLine
 62
7
  6
CONTINUOUS
 10
23.6477888245
 20
17.9885943255
 11
24.7084489963
 21
18.6010062154
  0
LWPOLYLINE
  5
4A5
100
AcDbEntity
  8
ASSI
100
AcDbPolyline
 62
7
  6
CONTINUOUS
 90
11
 70
0
 10
-0.3098029324
 20
-24.7651336229
 10
-0.3109604618
 20
-24.7413485623
 10
-0.3146574221
 20
-24.716831768
 10
-0.3208638218
 20
-24.69306098
 10
-0.329449335
 20
-24.6704186033
 10
-0.3402846461
 20
-24.6490611133
 10
-0.3532768652
 20
-24.6290989637
 10
-0.3682094055
 20
-24.6108166889
 10
-0.3848645631
 20
-24.5944100025
 10
-0.4031583917
 20
-24.5799194378
 10
-0.4201233965
 20
-24.5690608957
  0
LWPOLYLINE
  5
4A6
100
AcDbEntity
  8
ASSI
100
AcDbPolyline
 62
7
  6
CONTINUOUS
 90
13
 70
0
 10
-2.5532121251
 20
21.886613109
 10
-2.5558628319
 20
21.9443928454
 10
-2.5632919011
 20
22.0089111734
 10
-2.5754016759
 20
22.0708555953
 10
-2.5921846659
 20
22.1300580492
 10
-2.6136056634
 20
22.1862635555
 10
-2.6395636371
 20
22.2390714674
 10
-2.6699718325
 20
22.2882219244
 10
-2.7046504642
 20
22.3333843119
 10
-2.7431650804
 20
22.3740194734
 10
-2.7851866669
 20
22.4098620367
 10
-2.8302863218
 20
22.4406714579
 10
-2.8398479587
 20
22.4463371457
  0
LWPOLYLINE
  5
4A7
100
AcDbEntity
  8
ASSI
100
AcDbPolyline
 62
7
  6
CONTINUOUS
 90
11
 70
0
 10
-0.3098037231
 20
14.4919029152
 10
-0.3100221687
 20
14.5021366171
 10
-0.3129086512
 20
14.530525485
 10
-0.3191145445
 20
14.5580766218
 10
-0.3285489236
 20
14.5844168263
 10
-0.3409361508
 20
14.6089652402
 10
-0.3560391216
 20
14.6314917348
 10
-0.373749946
 20
14.6519191016
 10
-0.3937316782
 20
14.6698916624
 10
-0.4155968907
 20
14.6851370097
 10
-0.419877005
 20
14.6876772693
  0
LWPOLYLINE
  5
4A8
100
AcDbEntity
  8
ASSI
100
AcDbPolyline
 62
7
  6
CONTINUOUS
 90
22
 70
0
 10
-1.2562641452
 20
18.5976823778
 10
-1.2565467925
 20
18.6123334784
 10
-1.2599801447
 20
18.6458009877
 10
-1.2673495968
 20
18.6790817943
 10
-1.2786866216
 20
18.7117378063
 10
-1.2938967116
 20
18.7431865304
 10
-1.3129137694
 20
18.7730967247
 10
-1.3356097644
 20
18.8011215872
 10
-1.3616909145
 20
18.8268102849
 10
-1.3909420359
 20
18.8498910359
 10
-1.4235661846
 20
18.8703944818
 10
-1.4590947403
 20
18.8878856502
 10
-1.4964267462
 20
18.9018551978
 10
-1.5357933751
 20
18.9124795211
 10
-1.5770139966
 20
18.919618884
 10
-1.6182564195
 20
18.9230214179
 10
-1.6595618043
 20
18.9228172328
 10
-1.7010279364
 20
18.9189578857
 10
-1.7408204642
 20
18.911631477
 10
-1.7784230512
 20
18.9011192891
 10
-1.8145007281
 20
18.8872923125
 10
-1.8466478744
 20
18.8713086342
  0
LINE
  5
4A9
100
AcDbEntity
  8
ASSI
100
AcDbLine
 62
250
  6
CONTINUOUS
 10
-2.6223511808
 20
21.5126351508
 11
-2.6264234969
 21
21.7843726853
  0
LINE
  5
4AA
100
AcDbEntity
  8
ASSI
100
AcDbLine
 62
7
  6
CONTINUOUS
 10
-2.5483441995
 20
21.5625024834
 11
-2.5532013369
 21
21.8866095797
  0
LINE
  5
4AB
100
AcDbEntity
  8
ASSI
100
AcDbLine
 62
250
  6
CONTINUOUS
 10
-2.1770638603
 20
12.6387320999
 11
-2.1770638603
 21
12.0124053351
  0
LINE
  5
4AC
100
AcDbEntity
  8
ASSI
100
AcDbLine
 62
250
  6
CONTINUOUS
 10
-2.1770638603
 20
-24.7601059548
 11
-2.1770638603
 21
-25.0913009999
  0
LINE
  5
4AD
100
AcDbEntity
  8
ASSI
100
AcDbLine
 62
250
  6
CONTINUOUS
 10
-1.8266225724
 20
12.735965398
 11
-1.8266225724
 21
12.0210611647
  0
LINE
  5
4AE
100
AcDbEntity
  8
ASSI
100
AcDbLine
 62
250
  6
CONTINUOUS
 10
-1.8266225724
 20
-24.5887573127
 11
-1.8266225724
 21
-25.1641865419
  0
LINE
  5
4AF
100
AcDbEntity
  8
0
100
AcDbLine
 62
250
  6
CONTINUOUS
 10
-1.3530840281
 20
20.9416697589
 11
-1.3530840281
 21
20.9096207816
  0
LINE
  5
4B0
100
AcDbEntity
  8
ASSI
100
AcDbLine
 62
7
  6
CONTINUOUS
 10
-0.9241718217
 20
-25.5511777512
 11
-0.9241718217
 21
-24.147503054
  0
LINE
  5
4B1
100
AcDbEntity
  8
ASSI
100
AcDbLine
 62
7
  6
CONTINUOUS
 10
-0.924171776
 20
12.5780089617
 11
-0.9241718217
 21
14.1293274419
  0
LINE
  5
4B2
100
AcDbEntity
  8
ASSI
100
AcDbLine
 62
7
  6
CONTINUOUS
 10
-0.5706184311
 20
-23.7958236893
 11
-0.5706184311
 21
-21.019762572
  0
LINE
  5
4B3
100
AcDbEntity
  8
ASSI
100
AcDbLine
 62
7
  6
CONTINUOUS
 10
-0.5706184311
 20
11.9656987866
 11
-0.5706184311
 21
9.1896376694
  0
LINE
  5
4B4
100
AcDbEntity
  8
ASSI
100
AcDbLine
 62
250
  6
CONTINUOUS
 10
-0.3659354112
 20
-25.1658388259
 11
-0.3659354112
 21
-24.8453472563
  0
LINE
  5
4B5
100
AcDbEntity
  8
ASSI
100
AcDbLine
 62
250
  6
CONTINUOUS
 10
-0.3659354112
 20
14.0910385308
 11
-0.3659354112
 21
14.4115301004
  0
LINE
  5
4B6
100
AcDbEntity
  8
ASSI
100
AcDbLine
 62
7
  6
CONTINUOUS
 10
-0.3098033712
 20
-25.0856214185
 11
-0.3098033712
 21
-24.7651297835
  0
LINE
  5
4B7
100
AcDbEntity
  8
ASSI
100
AcDbLine
 62
7
  6
CONTINUOUS
 10
-0.3098033712
 20
14.1712559382
 11
-0.3098033712
 21
14.4917475079
  0
LINE
  5
4B8
100
AcDbEntity
  8
ASSI
100
AcDbLine
 62
7
  6
CONTINUOUS
 10
0.1241457553
 20
-23.3661710947
 11
0.1241457553
 21
-20.6594365746
  0
LINE
  5
4B9
100
AcDbEntity
  8
ASSI
100
AcDbLine
 62
7
  6
CONTINUOUS
 10
0.1241457553
 20
9.6601137778
 11
0.1241457553
 21
12.3668482978
  0
LINE
  5
4BA
100
AcDbEntity
  8
ASSI
100
AcDbLine
 62
7
  6
CONTINUOUS
 10
-1.2634394145
 20
17.4938079028
 11
-1.256265016
 21
18.5975279359
  0
LINE
  5
4BB
100
AcDbEntity
  8
ASSI
100
AcDbLine
 62
250
  6
CONTINUOUS
 10
-1.3745165855
 20
17.3397708495
 11
-1.3687041274
 21
17.8697151552
  0
LINE
  5
4BC
100
AcDbEntity
  8
ASSI
100
AcDbLine
 62
250
  6
CONTINUOUS
 10
-1.366416432
 20
18.0782931972
 11
-1.3623498219
 21
18.4490617722
  0
LINE
  5
4BD
100
AcDbEntity
  8
ASSI
100
AcDbLine
 62
250
  6
CONTINUOUS
 10
-1.23089438
 20
18.0554077499
 11
-1.2145276792
 21
18.4162510615
  0
LINE
  5
4BE
100
AcDbEntity
  8
0
100
AcDbLine
 62
7
  6
CONTINUOUS
 10
19.5280597412
 20
12.8946187141
 11
8.341474336
 21
6.091409192
  0
LINE
  5
4BF
100
AcDbEntity
  8
0
100
AcDbLine
 62
7
  6
CONTINUOUS
 10
-9.9082796868
 20
-5.0361768583
 11
-9.9084399956
 21
-5.0362740108
  0
LINE
  5
4C0
100
AcDbEntity
  8
ASSI
100
AcDbLine
 62
7
  6
CONTINUOUS
 10
-9.9082796868
 20
-5.0361768583
 11
-9.9084399956
 21
-5.0362740108
  0
LINE
  5
4C1
100
AcDbEntity
  8
DRAFT
100
AcDbLine
 62
7
  6
CONTINUOUS
 10
25.5369077905
 20
17.4694882693
 11
20.8472495322
 21
14.6655311625
  0
LINE
  5
4C2
100
AcDbEntity
  8
0
100
AcDbLine
 62
250
  6
CONTINUOUS
 10
-10.7345579079
 20
-4.9951824422
 11
-9.6549647353
 21
-4.3500799728
  0
LINE
  5
4C3
100
AcDbEntity
  8
ASSI
100
AcDbLine
 62
250
  6
CONTINUOUS
 10
-10.7345579079
 20
-4.9951824422
 11
-9.6549647353
 21
-4.3500799728
  0
LINE
  5
4C4
100
AcDbEntity
  8
0
100
AcDbLine
 62
7
  6
CONTINUOUS
 10
19.5280597412
 20
11.4297754259
 11
8.341474336
 21
4.8560163415
  0
LINE
  5
4C5
100
AcDbEntity
  8
0
100
AcDbLine
 62
7
  6
CONTINUOUS
 10
23.7884486701
 20
13.8250277096
 11
20.1085349127
 21
11.662880563
  0
LINE
  5
4C6
100
AcDbEntity
  8
0
100
AcDbLine
 62
7
  6
CONTINUOUS
 10
18.7776264224
 20
11.863066219
 11
7.9265528914
 21
5.5977816975
  0
LINE
  5
4C7
100
AcDbEntity
  8
ASSI
100
AcDbLine
 62
7
  6
CONTINUOUS
 10
23.6477888245
 20
13.9062429415
 11
24.7084489963
 21
14.5186548315
  0
LINE
  5
4C8
100
AcDbEntity
  8
0
100
AcDbLine
 62
250
  6
CONTINUOUS
 10
-15.6230387461
 20
-6.7967318584
 11
-16.6095850324
 21
-7.3468069782
  0
LINE
  5
4C9
100
AcDbEntity
  8
ASSI
100
AcDbLine
 62
250
  6
CONTINUOUS
 10
-15.6230387461
 20
-6.7967318584
 11
-16.6095850324
 21
-7.3468069782
  0
LINE
  5
4CA
100
AcDbEntity
  8
0
100
AcDbLine
 62
250
  6
CONTINUOUS
 10
-16.6020881524
 20
-8.0774501425
 11
-15.0663074454
 21
-7.2211347642
  0
LINE
  5
4CB
100
AcDbEntity
  8
ASSI
100
AcDbLine
 62
250
  6
CONTINUOUS
 10
-16.6020881524
 20
-8.0774501425
 11
-15.0663074454
 21
-7.2211347642
  0
LINE
  5
4CC
100
AcDbEntity
  8
0
100
AcDbLine
 62
7
  6
CONTINUOUS
 10
-16.2990592308
 20
-6.6472417441
 11
-16.2989496269
 21
-6.6471815279
  0
LINE
  5
4CD
100
AcDbEntity
  8
ASSI
100
AcDbLine
 62
7
  6
CONTINUOUS
 10
-16.2990592308
 20
-6.6472417441
 11
-16.2989496269
 21
-6.6471815279
  0
LWPOLYLINE
  5
4CE
100
AcDbEntity
  8
0
100
AcDbPolyline
 62
7
  6
CONTINUOUS
 90
13
 70
0
 10
-16.2990936817
 20
-6.6472615756
 10
-16.2672052803
 20
-6.6322413835
 10
-16.2294324884
 20
-6.6200226993
 10
-16.1876512165
 20
-6.6121087075
 10
-16.1417593133
 20
-6.6088206021
 10
-16.0919544199
 20
-6.6104767003
 10
-16.0386826525
 20
-6.6173203154
 10
-15.9822619684
 20
-6.6295007807
 10
-15.9233921064
 20
-6.6470088339
 10
-15.8631409714
 20
-6.6695495795
 10
-15.8022027371
 20
-6.6967519548
 10
-15.7409560015
 20
-6.728310975
 10
-15.7042843762
 20
-6.7491671809
  0
LWPOLYLINE
  5
4CF
100
AcDbEntity
  8
ASSI
100
AcDbPolyline
 62
7
  6
CONTINUOUS
 90
13
 70
0
 10
-16.2990936817
 20
-6.6472615756
 10
-16.2672052803
 20
-6.6322413835
 10
-16.2294324884
 20
-6.6200226993
 10
-16.1876512165
 20
-6.6121087075
 10
-16.1417593133
 20
-6.6088206021
 10
-16.0919544199
 20
-6.6104767003
 10
-16.0386826525
 20
-6.6173203154
 10
-15.9822619684
 20
-6.6295007807
 10
-15.9233921064
 20
-6.6470088339
 10
-15.8631409714
 20
-6.6695495795
 10
-15.8022027371
 20
-6.6967519548
 10
-15.7409560015
 20
-6.728310975
 10
-15.7042843762
 20
-6.7491671809
  0
LINE
  5
4D0
100
AcDbEntity
  8
0
100
AcDbLine
 62
250
  6
CONTINUOUS
 10
8.341474336
 20
-7.3910378104
 11
7.82049146
 21
-7.0902288272
  0
LINE
  5
4D1
100
AcDbEntity
  8
ASSI
100
AcDbLine
 62
7
  6
CONTINUOUS
 10
0.4715278485
 20
-20.4487844573
 11
0.4715278485
 21
-19.771735945
  0
LINE
  5
4D2
100
AcDbEntity
  8
ASSI
100
AcDbLine
 62
7
  6
CONTINUOUS
 10
0.4715278485
 20
9.1056552475
 11
0.4715278485
 21
9.8648627133
  0
LINE
  5
4D3
100
AcDbEntity
  8
ASSI
100
AcDbLine
 62
7
  6
CONTINUOUS
 10
0.5178161048
 20
-19.7163032506
 11
0.5178161048
 21
9.0789289885
  0
LINE
  5
4D4
100
AcDbEntity
  8
RACCORDO
100
AcDbLine
 62
7
  6
CONTINUOUS
 10
0.5253970797
 20
9.1053527227
 11
0.5253970797
 21
-19.7514813047
  0
LINE
  5
4D5
100
AcDbEntity
  8
0
100
AcDbLine
 62
7
  6
CONTINUOUS
 10
25.5369077905
 20
12.4665953297
 11
8.341474336
 21
2.009057808
  0
LINE
  5
4D6
100
AcDbEntity
  8
DRAFT
100
AcDbLine
 62
7
  6
CONTINUOUS
 10
25.5369077905
 20
14.0403131068
 11
20.8472495322
 21
11.2363559999
  0
LINE
  5
4D7
100
AcDbEntity
  8
0
100
AcDbLine
 62
250
  6
CONTINUOUS
 10
-14.0056472736
 20
-9.0582520693
 11
-15.5177242074
 21
-9.9617818327
  0
LINE
  5
4D8
100
AcDbEntity
  8
ASSI
100
AcDbLine
 62
250
  6
CONTINUOUS
 10
-14.0056472736
 20
-9.0582520693
 11
-15.5177242074
 21
-9.9617818327
  0
LINE
  5
4D9
100
AcDbEntity
  8
0
100
AcDbLine
 62
7
  6
CONTINUOUS
 10
21.4340188965
 20
9.971391317
 11
21.9889163159
 21
10.2917821325
  0
LINE
  5
4DA
100
AcDbEntity
  8
0
100
AcDbLine
 62
7
  6
CONTINUOUS
 10
23.7884486701
 20
10.6739057234
 11
7.9265528914
 21
1.5154303135
  0
LINE
  5
4DB
100
AcDbEntity
  8
DRAFT
100
AcDbLine
 62
7
  6
CONTINUOUS
 10
23.7538548417
 20
10.6938797663
 11
24.8145150135
 21
11.2956038141
  0
LINE
  5
4DC
100
AcDbEntity
  8
0
100
AcDbLine
 62
250
  6
CONTINUOUS
 10
8.341474336
 20
-3.3086864264
 11
7.82049146
 21
-3.0078774433
  0
LINE
  5
4DD
100
AcDbEntity
  8
ASSI
100
AcDbLine
 62
7
  6
CONTINUOUS
 10
5.4039153862
 20
17.1611133142
 11
5.4039153862
 21
17.3483306119
  0
LINE
  5
4DE
100
AcDbEntity
  8
0
100
AcDbLine
 62
7
  6
CONTINUOUS
 10
-9.8820207423
 20
-12.6950779649
 11
-9.8821877587
 21
-12.6951791789
  0
LINE
  5
4DF
100
AcDbEntity
  8
ASSI
100
AcDbLine
 62
7
  6
CONTINUOUS
 10
-9.8820207423
 20
-12.6950779649
 11
-9.8821877587
 21
-12.6951791789
  0
LINE
  5
4E0
100
AcDbEntity
  8
0
100
AcDbLine
 62
250
  6
CONTINUOUS
 10
-10.6984215497
 20
-12.6484100454
 11
-9.6499452593
 21
-12.021901226
  0
LINE
  5
4E1
100
AcDbEntity
  8
ASSI
100
AcDbLine
 62
250
  6
CONTINUOUS
 10
-10.6984215497
 20
-12.6484100454
 11
-9.6499452593
 21
-12.021901226
  0
LINE
  5
4E2
100
AcDbEntity
  8
0
100
AcDbLine
 62
7
  6
CONTINUOUS
 10
25.5369077905
 20
10.8785032784
 11
8.341474336
 21
0.7736649576
  0
LINE
  5
4E3
100
AcDbEntity
  8
IMPORT_IGES
100
AcDbLine
 62
7
  6
CONTINUOUS
 10
-10.2905082453
 20
-10.2636323752
 11
-10.9269043483
 21
-10.6310795092
  0
LINE
  5
4E4
100
AcDbEntity
  8
IMPORT_IGES
100
AcDbLine
 62
7
  6
CONTINUOUS
 10
-10.2905082453
 20
-10.9985266432
 11
-9.7993459066
 21
-10.7149356645
  0
LINE
  5
4E5
100
AcDbEntity
  8
DRAFT
100
AcDbLine
 62
7
  6
CONTINUOUS
 10
23.7538548417
 20
6.6115283824
 11
24.8145150135
 21
7.2132524301
  0
LINE
  5
4E6
100
AcDbEntity
  8
0
100
AcDbLine
 62
250
  6
CONTINUOUS
 10
8.341474336
 20
0.7736649576
 11
7.82049146
 21
1.0744739407
  0
LINE
  5
4E7
100
AcDbEntity
  8
ASSI
100
AcDbLine
 62
7
  6
CONTINUOUS
 10
0.1241457553
 20
10.4665461477
 11
0.4715278485
 21
9.8648627133
  0
LINE
  5
4E8
100
AcDbEntity
  8
IMPORT_IGES
100
AcDbLine
 62
7
  6
CONTINUOUS
 10
7.0824745201
 20
24.4346026287
 11
7.0824745201
 21
24.4090508198
  0
LINE
  5
4E9
100
AcDbEntity
  8
IMPORT_IGES
100
AcDbLine
 62
7
  6
CONTINUOUS
 10
7.2592512154
 20
24.4527600503
 11
7.2592512154
 21
24.4933375101
  0
LINE
  5
4EA
100
AcDbEntity
  8
IMPORT_IGES
100
AcDbLine
 62
7
  6
CONTINUOUS
 10
7.7542259622
 20
24.7237175057
 11
7.7542259622
 21
24.7791297254
  0
LINE
  5
4EB
100
AcDbEntity
  8
IMPORT_IGES
100
AcDbLine
 62
7
  6
CONTINUOUS
 10
8.3064000999
 20
21.0492035022
 11
8.3064000999
 21
21.0585337148
  0
LINE
  5
4EC
100
AcDbEntity
  8
0
100
AcDbLine
 62
7
  6
CONTINUOUS
 10
25.5369077905
 20
8.3842439458
 11
8.341474336
 21
-2.0732935759
  0
LINE
  5
4ED
100
AcDbEntity
  8
0
100
AcDbLine
 62
7
  6
CONTINUOUS
 10
25.5369077905
 20
6.7961518944
 11
8.341474336
 21
-3.3086864264
  0
LINE
  5
4EE
100
AcDbEntity
  8
0
100
AcDbLine
 62
7
  6
CONTINUOUS
 10
23.7884486701
 20
6.5915543395
 11
7.9265528914
 21
-2.5669210705
  0
LINE
  5
4EF
100
AcDbEntity
  8
0
100
AcDbLine
 62
7
  6
CONTINUOUS
 10
20.7909771107
 20
-3.3038538846
 11
20.2535702714
 21
-2.9935619109
  0
LINE
  5
4F0
100
AcDbEntity
  8
0
100
AcDbLine
 62
7
  6
CONTINUOUS
 10
17.2557878801
 20
-1.2626799292
 11
16.8101325649
 21
-1.0053641355
  0
LINE
  5
4F1
100
AcDbEntity
  8
0
100
AcDbLine
 62
7
  6
CONTINUOUS
 10
13.7205986495
 20
0.7784940262
 11
13.3666948583
 21
0.9828336398
  0
LINE
  5
4F2
100
AcDbEntity
  8
ASSI
100
AcDbLine
 62
7
  6
CONTINUOUS
 10
0.5178161048
 20
9.0789289885
 11
0.4715278485
 21
9.1056552475
  0
LINE
  5
4F3
100
AcDbEntity
  8
0
100
AcDbLine
 62
250
  6
CONTINUOUS
 10
8.341474336
 20
4.8560163415
 11
7.82049146
 21
5.1568253247
  0
LINE
  5
4F4
100
AcDbEntity
  8
ASSI
100
AcDbLine
 62
7
  6
CONTINUOUS
 10
-3.7972381596
 20
12.0885350893
 11
-3.9908024457
 21
12.2002966821
  0
LINE
  5
4F5
100
AcDbEntity
  8
ASSI
100
AcDbLine
 62
7
  6
CONTINUOUS
 10
-16.3837388647
 20
19.3558228505
 11
-16.5773031508
 21
19.4675844434
  0
LINE
  5
4F6
100
AcDbEntity
  8
0
100
AcDbLine
 62
7
  6
CONTINUOUS
 10
10.8678361686
 20
26.6202267217
 11
10.8678361686
 21
26.4385519069
  0
LINE
  5
4F7
100
AcDbEntity
  8
0
100
AcDbLine
 62
7
  6
CONTINUOUS
 10
11.31160392
 20
7.5522710624
 11
11.31160392
 21
7.8977167591
  0
LINE
  5
4F8
100
AcDbEntity
  8
0
100
AcDbLine
 62
7
  6
CONTINUOUS
 10
11.31160392
 20
11.6346224463
 11
11.31160392
 21
11.9800681431
  0
LINE
  5
4F9
100
AcDbEntity
  8
0
100
AcDbLine
 62
7
  6
CONTINUOUS
 10
11.4530252762
 20
7.63392612
 11
11.4530252762
 21
7.9837232645
  0
LINE
  5
4FA
100
AcDbEntity
  8
0
100
AcDbLine
 62
7
  6
CONTINUOUS
 10
11.4530252762
 20
11.7162775039
 11
11.4530252762
 21
12.0660746484
  0
LINE
  5
4FB
100
AcDbEntity
  8
0
100
AcDbLine
 62
7
  6
CONTINUOUS
 10
25.5369077905
 20
4.3018925618
 11
8.341474336
 21
-6.1556449599
  0
LINE
  5
4FC
100
AcDbEntity
  8
0
100
AcDbLine
 62
7
  6
CONTINUOUS
 10
25.5369077905
 20
2.7138005104
 11
8.341474336
 21
-7.3910378104
  0
LINE
  5
4FD
100
AcDbEntity
  8
0
100
AcDbLine
 62
7
  6
CONTINUOUS
 10
23.7884486701
 20
2.5092029555
 11
7.9265528914
 21
-6.6492724544
  0
LINE
  5
4FE
100
AcDbEntity
  8
0
100
AcDbLine
 62
250
  6
CONTINUOUS
 10
-14.7759521427
 20
-19.5239886089
 11
-14.4281969003
 21
-19.3232397163
  0
LINE
  5
4FF
100
AcDbEntity
  8
0
100
AcDbLine
 62
250
  6
CONTINUOUS
 10
-13.6385206037
 20
-21.176816175
 11
-13.4635312865
 21
-21.0757998056
  0
LINE
  5
500
100
AcDbEntity
  8
DRAFT
100
AcDbLine
 62
7
  6
CONTINUOUS
 10
23.7538548417
 20
2.5291769984
 11
24.8145150135
 21
3.1309010462
  0
LINE
  5
501
100
AcDbEntity
  8
ASSI
100
AcDbLine
 62
7
  6
CONTINUOUS
 10
0.4715278485
 20
9.1056552475
 11
-0.5706184311
 21
9.1896376694
  0
LINE
  5
502
100
AcDbEntity
  8
ASSI
100
AcDbLine
 62
7
  6
CONTINUOUS
 10
0.5178161048
 20
9.0789289885
 11
-0.5706184311
 21
9.1896376694
  0
LWPOLYLINE
  5
503
100
AcDbEntity
  8
ASSI
100
AcDbPolyline
 62
7
  6
CONTINUOUS
 90
6
 70
0
 10
-15.3964065445
 20
19.9874396072
 10
-15.3879288881
 20
19.9827880833
 10
-15.3680385405
 20
19.9736836147
 10
-15.3472512089
 20
19.9665974714
 10
-15.3257103056
 20
19.9616076328
 10
-15.3083853975
 20
19.9592117986
  0
LWPOLYLINE
  5
504
100
AcDbEntity
  8
ASSI
100
AcDbPolyline
 62
7
  6
CONTINUOUS
 90
6
 70
0
 10
-2.8102069524
 20
12.7203296269
 10
-2.805713611
 20
12.717793649
 10
-2.7803417339
 20
12.7059247841
 10
-2.7536113066
 20
12.6973990109
 10
-2.7259737639
 20
12.6923681074
 10
-2.7214909312
 20
12.6918925096
  0
LINE
  5
505
100
AcDbEntity
  8
ASSI
100
AcDbLine
 62
7
  6
CONTINUOUS
 10
-16.7832638878
 20
20.4458421723
 11
-16.6505264555
 21
20.3692012425
  0
LINE
  5
506
100
AcDbEntity
  8
ASSI
100
AcDbLine
 62
7
  6
CONTINUOUS
 10
-15.4905715141
 20
19.699457797
 11
-14.7635645654
 21
19.2796930963
  0
LINE
  5
507
100
AcDbEntity
  8
ASSI
100
AcDbLine
 62
7
  6
CONTINUOUS
 10
-4.1967631827
 20
13.1785544111
 11
-4.0640257504
 21
13.1019134813
  0
LINE
  5
508
100
AcDbEntity
  8
ASSI
100
AcDbLine
 62
7
  6
CONTINUOUS
 10
-2.904070809
 20
12.4321700358
 11
-2.1770638603
 21
12.0124053351
  0
LINE
  5
509
100
AcDbEntity
  8
ASSI
100
AcDbLine
 62
7
  6
CONTINUOUS
 10
-2.8098183245
 20
12.7201009425
 11
-3.6204735447
 21
13.1881631067
  0
LINE
  5
50A
100
AcDbEntity
  8
ASSI
100
AcDbLine
 62
7
  6
CONTINUOUS
 10
-4.0640257501
 20
13.4442645911
 11
-4.8746811025
 21
13.9123268317
  0
LINE
  5
50B
100
AcDbEntity
  8
ASSI
100
AcDbLine
 62
7
  6
CONTINUOUS
 10
-15.3963190005
 20
19.9873886869
 11
-16.2069742498
 21
20.4554508679
  0
LINE
  5
50C
100
AcDbEntity
  8
ASSI
100
AcDbLine
 62
7
  6
CONTINUOUS
 10
-16.6505264552
 20
20.7115523524
 11
-17.4611816755
 21
21.1796145166
  0
LINE
  5
50D
100
AcDbEntity
  8
ASSI
100
AcDbLine
 62
250
  6
CONTINUOUS
 10
-16.5773031508
 20
20.7538166219
 11
-17.5127716691
 21
21.2939607779
  0
LINE
  5
50E
100
AcDbEntity
  8
ASSI
100
AcDbLine
 62
250
  6
CONTINUOUS
 10
-3.9908024457
 20
13.4865288606
 11
-4.926270964
 21
14.0266566589
  0
LINE
  5
50F
100
AcDbEntity
  8
ASSI
100
AcDbLine
 62
250
  6
CONTINUOUS
 10
-15.4482703464
 20
20.1019272307
 11
-16.3837388647
 21
20.642055029
  0
LINE
  5
510
100
AcDbEntity
  8
ASSI
100
AcDbLine
 62
250
  6
CONTINUOUS
 10
-2.8617696413
 20
12.834655821
 11
-3.7972381596
 21
13.3747672678
  0
LINE
  5
511
100
AcDbEntity
  8
ASSI
100
AcDbLine
 62
250
  6
CONTINUOUS
 10
-2.8617696413
 20
13.1337537265
 11
-4.926270964
 21
14.325770916
  0
LINE
  5
512
100
AcDbEntity
  8
ASSI
100
AcDbLine
 62
250
  6
CONTINUOUS
 10
-15.4482703464
 20
20.4010414878
 11
-17.5127716691
 21
21.5930586772
  0
LINE
  5
513
100
AcDbEntity
  8
ASSI
100
AcDbLine
 62
7
  6
CONTINUOUS
 10
-5.7715775937
 20
14.9471710956
 11
-8.0622259908
 21
16.2697627716
  0
LINE
  5
514
100
AcDbEntity
  8
ASSI
100
AcDbLine
 62
7
  6
CONTINUOUS
 10
-9.4838881949
 20
17.0906127106
 11
-11.774536592
 21
18.4132043865
  0
LINE
  5
515
100
AcDbEntity
  8
ASSI
100
AcDbLine
 62
250
  6
CONTINUOUS
 10
-2.6874717654
 20
13.4377774082
 11
-4.7531858068
 21
14.6304948062
  0
LINE
  5
516
100
AcDbEntity
  8
ASSI
100
AcDbLine
 62
250
  6
CONTINUOUS
 10
-15.2739724705
 20
20.7050651694
 11
-17.3396865119
 21
21.8977825674
  0
LINE
  5
517
100
AcDbEntity
  8
ASSI
100
AcDbLine
 62
7
  6
CONTINUOUS
 10
-13.5106725268
 20
19.8452968067
 11
-11.8331152358
 21
18.8766962516
  0
LINE
  5
518
100
AcDbEntity
  8
ASSI
100
AcDbLine
 62
7
  6
CONTINUOUS
 10
-8.9851891272
 20
17.2323394094
 11
-8.1208046346
 21
16.7332546367
  0
LINE
  5
519
100
AcDbEntity
  8
ASSI
100
AcDbLine
 62
7
  6
CONTINUOUS
 10
-5.272878526
 20
15.0888977945
 11
-4.6808032831
 21
14.7470409697
  0
LINE
  5
51A
100
AcDbEntity
  8
RACCORDO
100
AcDbLine
 62
7
  6
CONTINUOUS
 10
20.189233505
 20
0.4310576919
 11
19.667444187
 21
0.7323323045
  0
LINE
  5
51B
100
AcDbEntity
  8
RACCORDO
100
AcDbLine
 62
7
  6
CONTINUOUS
 10
16.6540442744
 20
2.4722316473
 11
16.2240064804
 21
2.7205300799
  0
LINE
  5
51C
100
AcDbEntity
  8
0
100
AcDbLine
 62
7
  6
CONTINUOUS
 10
23.7884486701
 20
-1.5731484285
 11
23.7538548417
 21
-1.5531743856
  0
LINE
  5
51D
100
AcDbEntity
  8
SMUSSO
100
AcDbLine
 62
7
  6
CONTINUOUS
 10
20.5427865948
 20
0.6351951622
 11
20.0118212377
 21
0.9417679049
  0
LINE
  5
51E
100
AcDbEntity
  8
SMUSSO
100
AcDbLine
 62
7
  6
CONTINUOUS
 10
17.0075973642
 20
2.6763691176
 11
16.5683835311
 21
2.9299656803
  0
LINE
  5
51F
100
AcDbEntity
  8
SMUSSO
100
AcDbLine
 62
7
  6
CONTINUOUS
 10
13.4724081337
 20
4.717543073
 11
13.1500815511
 21
4.9036504021
  0
LINE
  5
520
100
AcDbEntity
  8
ASSI
100
AcDbLine
 62
250
  6
CONTINUOUS
 10
-5.806927548
 20
16.127734464
 11
-8.0268760365
 21
17.4095048988
  0
LINE
  5
521
100
AcDbEntity
  8
ASSI
100
AcDbLine
 62
250
  6
CONTINUOUS
 10
-11.7391866378
 20
19.5529465138
 11
-9.5192381492
 21
18.2711760789
  0
LINE
  5
522
100
AcDbEntity
  8
ASSI
100
AcDbLine
 62
7
  6
CONTINUOUS
 10
-8.3031288969
 20
17.6387457845
 11
-8.1133120686
 21
17.5291479268
  0
LINE
  5
523
100
AcDbEntity
  8
ASSI
100
AcDbLine
 62
7
  6
CONTINUOUS
 10
-13.4643829298
 20
20.6208674185
 11
-12.8425368117
 21
20.2618212635
  0
LINE
  5
524
100
AcDbEntity
  8
ASSI
100
AcDbLine
 62
7
  6
CONTINUOUS
 10
-0.8778822246
 20
13.3535796573
 11
-0.2293537874
 21
12.9791274656
  0
LINE
  5
525
100
AcDbEntity
  8
SMUSSO
100
AcDbLine
 62
7
  6
CONTINUOUS
 10
21.0604066317
 20
0.9340629927
 11
20.5160070779
 21
1.2483924722
  0
LINE
  5
526
100
AcDbEntity
  8
SMUSSO
100
AcDbLine
 62
7
  6
CONTINUOUS
 10
17.5252174011
 20
2.9752369481
 11
17.0725693713
 21
3.2365902475
  0
LINE
  5
527
100
AcDbEntity
  8
SMUSSO
100
AcDbLine
 62
7
  6
CONTINUOUS
 10
13.9900281705
 20
5.0164109035
 11
13.6291316647
 21
5.2247880229
  0
LINE
  5
528
100
AcDbEntity
  8
ASSI
100
AcDbLine
 62
250
  6
CONTINUOUS
 10
-5.6679743347
 20
16.3712334927
 11
-7.8879228233
 21
17.6530039275
  0
LINE
  5
529
100
AcDbEntity
  8
ASSI
100
AcDbLine
 62
250
  6
CONTINUOUS
 10
-11.6002354696
 20
19.7964467233
 11
-9.3802849359
 21
18.5146751077
  0
LINE
  5
52A
100
AcDbEntity
  8
RACCORDO
100
AcDbLine
 62
7
  6
CONTINUOUS
 10
13.8136000858
 20
5.3369739379
 11
14.179411813
 21
5.1257588313
  0
LINE
  5
52B
100
AcDbEntity
  8
RACCORDO
100
AcDbLine
 62
7
  6
CONTINUOUS
 10
17.2570377924
 20
3.3487761625
 11
17.7146010436
 21
3.0845848759
  0
LINE
  5
52C
100
AcDbEntity
  8
RACCORDO
100
AcDbLine
 62
7
  6
CONTINUOUS
 10
20.700475499
 20
1.3605783871
 11
21.2497902742
 21
1.0434109205
  0
LINE
  5
52D
100
AcDbEntity
  8
ASSI
100
AcDbLine
 62
7
  6
CONTINUOUS
 10
-11.3893791072
 20
19.9268410152
 11
-9.1619388986
 21
18.6407449551
  0
LINE
  5
52E
100
AcDbEntity
  8
ASSI
100
AcDbLine
 62
7
  6
CONTINUOUS
 10
-7.677068506
 20
17.7833994002
 11
-5.4496282973
 21
16.4973033401
  0
LINE
  5
52F
100
AcDbEntity
  8
DRAFT
100
AcDbLine
 62
7
  6
CONTINUOUS
 10
25.5369077905
 20
-1.3685508735
 11
24.8145150135
 21
-0.9514503378
  0
LINE
  5
530
100
AcDbEntity
  8
0
100
AcDbLine
 62
250
  6
CONTINUOUS
 10
11.6033758287
 20
27.0449188256
 11
11.6033758287
 21
26.8308065236
  0
LINE
  5
531
100
AcDbEntity
  8
IMPORT_IGES
100
AcDbLine
 62
7
  6
CONTINUOUS
 10
13.1500815511
 20
4.5314354273
 11
13.1500815511
 21
4.9334499446
  0
LINE
  5
532
100
AcDbEntity
  8
0
100
AcDbLine
 62
7
  6
CONTINUOUS
 10
13.2915029073
 20
23.7781321599
 11
13.2915029073
 21
23.9368744953
  0
LINE
  5
533
100
AcDbEntity
  8
0
100
AcDbLine
 62
7
  6
CONTINUOUS
 10
13.8897152442
 20
24.282275389
 11
13.8897152442
 21
24.2351600939
  0
LINE
  5
534
100
AcDbEntity
  8
SMUSSO
100
AcDbLine
 62
7
  6
CONTINUOUS
 10
14.0311366004
 20
24.3639304466
 11
14.0311366004
 21
24.3168150126
  0
LINE
  5
535
100
AcDbEntity
  8
SMUSSO
100
AcDbLine
 62
7
  6
CONTINUOUS
 10
14.2383188873
 20
24.483555106
 11
14.2383188873
 21
24.4364952577
  0
LINE
  5
536
100
AcDbEntity
  8
ASSI
100
AcDbLine
 62
250
  6
CONTINUOUS
 10
-2.7730727288
 20
-25.8741191546
 11
-2.1402825194
 21
-25.1066806308
  0
LINE
  5
537
100
AcDbEntity
  8
ASSI
100
AcDbLine
 62
7
  6
CONTINUOUS
 10
-0.5706184311
 20
-21.019762572
 11
0.5178161048
 21
-19.7163032506
  0
LINE
  5
538
100
AcDbEntity
  8
0
100
AcDbLine
 62
7
  6
CONTINUOUS
 10
25.5369077905
 20
0.2195411779
 11
8.341474336
 21
-10.2379963439
  0
LINE
  5
539
100
AcDbEntity
  8
0
100
AcDbLine
 62
7
  6
CONTINUOUS
 10
25.5369077905
 20
-1.3685508735
 11
8.341474336
 21
-11.4733891943
  0
LINE
  5
53A
100
AcDbEntity
  8
0
100
AcDbLine
 62
7
  6
CONTINUOUS
 10
23.7884486701
 20
-1.5731484285
 11
7.9265528914
 21
-10.7316238384
  0
LINE
  5
53B
100
AcDbEntity
  8
DRAFT
100
AcDbLine
 62
7
  6
CONTINUOUS
 10
23.7538548417
 20
-1.5531743856
 11
24.8145150135
 21
-0.9514503378
  0
LWPOLYLINE
  5
53C
100
AcDbEntity
  8
ASSI
100
AcDbPolyline
 62
7
  6
CONTINUOUS
 90
4
 70
0
 10
-4.0640254983
 20
13.4449133947
 10
-4.0622271314
 20
13.445301321
 10
-4.0570015058
 20
13.4480743116
 10
-4.0488042964
 20
13.4530695208
  0
LINE
  5
53D
100
AcDbEntity
  8
ASSI
100
AcDbLine
 62
7
  6
CONTINUOUS
 10
-2.7217960293
 20
12.6919153296
 11
-2.0755886026
 21
12.628824879
  0
LINE
  5
53E
100
AcDbEntity
  8
ASSI
100
AcDbLine
 62
250
  6
CONTINUOUS
 10
-2.5634303766
 20
12.8079013344
 11
-1.8266225724
 21
12.735965398
  0
LWPOLYLINE
  5
53F
100
AcDbEntity
  8
ASSI
100
AcDbPolyline
 62
7
  6
CONTINUOUS
 90
11
 70
0
 10
-2.5218060922
 20
15.901304688
 10
-2.5422393658
 20
15.9117128014
 10
-2.5635367076
 20
15.9198749267
 10
-2.585581587
 20
15.9257708266
 10
-2.6083175138
 20
15.9293637394
 10
-2.6314716518
 20
15.9305713198
 10
-2.6547402011
 20
15.9293549511
 10
-2.6780655698
 20
15.9256843591
 10
-2.701266161
 20
15.9195167174
 10
-2.7239876453
 20
15.9108912008
 10
-2.7412978535
 20
15.9024552227
  0
LWPOLYLINE
  5
540
100
AcDbEntity
  8
ASSI
100
AcDbPolyline
 62
7
  6
CONTINUOUS
 90
10
 70
0
 10
-15.1084671559
 20
23.1686846368
 10
-15.1141106389
 20
23.1718283634
 10
-15.1392014799
 20
23.1833299977
 10
-15.1657762529
 20
23.1916221483
 10
-15.1933596635
 20
23.1964943544
 10
-15.2214242684
 20
23.1978313162
 10
-15.2498566581
 20
23.1955758206
 10
-15.2783178048
 20
23.1896267107
 10
-15.3061570001
 20
23.1800292821
 10
-15.3277379635
 20
23.169775356
  0
LINE
  5
541
100
AcDbEntity
  8
0
100
AcDbLine
 62
250
  6
CONTINUOUS
 10
8.341474336
 20
8.9383677255
 11
7.82049146
 21
9.2391767086
  0
LINE
  5
542
100
AcDbEntity
  8
ASSI
100
AcDbLine
 62
7
  6
CONTINUOUS
 10
-15.7734357658
 20
22.8663755231
 11
-13.6520723439
 21
21.6415268702
  0
LINE
  5
543
100
AcDbEntity
  8
ASSI
100
AcDbLine
 62
7
  6
CONTINUOUS
 10
-3.1869350606
 20
15.5990877619
 11
-1.0655716388
 21
14.374239109
  0
LINE
  5
544
100
AcDbEntity
  8
ASSI
100
AcDbLine
 62
7
  6
CONTINUOUS
 10
-5.0338366369
 20
17.0115523973
 11
-7.0006406738
 21
18.1471603983
  0
LINE
  5
545
100
AcDbEntity
  8
ASSI
100
AcDbLine
 62
7
  6
CONTINUOUS
 10
-8.508720134
 20
19.017906578
 11
-10.4755241709
 21
20.153514579
  0
LINE
  5
546
100
AcDbEntity
  8
ASSI
100
AcDbLine
 62
250
  6
CONTINUOUS
 10
-0.5414671722
 20
14.6768514985
 11
-2.6442089979
 21
15.8909482751
  0
LINE
  5
547
100
AcDbEntity
  8
ASSI
100
AcDbLine
 62
250
  6
CONTINUOUS
 10
-13.1279678773
 20
21.9441392597
 11
-15.2307097031
 21
23.1582360363
  0
LINE
  5
548
100
AcDbEntity
  8
ASSI
100
AcDbLine
 62
7
  6
CONTINUOUS
 10
-0.4199720057
 20
14.6877323283
 11
-2.5218624263
 21
15.9013375142
  0
LINE
  5
549
100
AcDbEntity
  8
ASSI
100
AcDbLine
 62
7
  6
CONTINUOUS
 10
-13.0064725477
 20
21.9550199953
 11
-15.1083632952
 21
23.1686253701
  0
LINE
  5
54A
100
AcDbEntity
  8
IMPORT_IGES
100
AcDbLine
 62
7
  6
CONTINUOUS
 10
8.118499709
 20
9.9795070434
 11
8.2817747512
 21
9.8852340803
  0
LINE
  5
54B
100
AcDbEntity
  8
DRAFT
100
AcDbLine
 62
7
  6
CONTINUOUS
 10
-6.6098801656
 20
18.8823108319
 11
-6.5728286472
 21
18.8609177495
  0
LINE
  5
54C
100
AcDbEntity
  8
RACCORDO
100
AcDbLine
 62
7
  6
CONTINUOUS
 10
20.189233505
 20
4.5134090759
 11
19.667444187
 21
4.8146836885
  0
LINE
  5
54D
100
AcDbEntity
  8
RACCORDO
100
AcDbLine
 62
7
  6
CONTINUOUS
 10
16.6540442744
 20
6.5545830313
 11
16.2240064804
 21
6.8028814639
  0
LINE
  5
54E
100
AcDbEntity
  8
0
100
AcDbLine
 62
7
  6
CONTINUOUS
 10
23.7884486701
 20
2.5092029555
 11
23.7538548417
 21
2.5291769984
  0
LINE
  5
54F
100
AcDbEntity
  8
RACCORDO
100
AcDbLine
 62
7
  6
CONTINUOUS
 10
-5.6711524977
 20
19.5393271901
 11
-3.203499727
 21
18.1145354072
  0
LINE
  5
550
100
AcDbEntity
  8
SMUSSO
100
AcDbLine
 62
7
  6
CONTINUOUS
 10
20.5427865948
 20
4.7175465462
 11
20.0118212377
 21
5.0241192889
  0
LINE
  5
551
100
AcDbEntity
  8
SMUSSO
100
AcDbLine
 62
7
  6
CONTINUOUS
 10
17.0075973642
 20
6.7587205016
 11
16.5683835311
 21
7.0123170642
  0
LINE
  5
552
100
AcDbEntity
  8
RACCORDO
100
AcDbLine
 62
7
  6
CONTINUOUS
 10
6.8434085761
 20
14.9671663256
 11
5.7602133065
 21
16.843315565
  0
LINE
  5
553
100
AcDbEntity
  8
IMPORT_IGES
100
AcDbLine
 62
7
  6
CONTINUOUS
 10
10.9252045346
 20
7.6535339645
 11
10.9228265735
 21
7.6612787712
  0
LINE
  5
554
100
AcDbEntity
  8
IMPORT_IGES
100
AcDbLine
 62
7
  6
CONTINUOUS
 10
10.9252319885
 20
7.6535112736
 11
10.9230186155
 21
7.6613651999
  0
LINE
  5
555
100
AcDbEntity
  8
0
100
AcDbLine
 62
7
  6
CONTINUOUS
 10
14.8938068735
 20
28.6320435133
 11
14.8938068735
 21
28.9447757048
  0
LINE
  5
556
100
AcDbEntity
  8
0
100
AcDbLine
 62
7
  6
CONTINUOUS
 10
14.9436969148
 20
28.9735816384
 11
14.9436969148
 21
28.933637413
  0
LINE
  5
557
100
AcDbEntity
  8
DRAFT
100
AcDbLine
 62
7
  6
CONTINUOUS
 10
15.9951008454
 20
30.7819348614
 11
15.9951008454
 21
29.5513937406
  0
LINE
  5
558
100
AcDbEntity
  8
0
100
AcDbLine
 62
250
  6
CONTINUOUS
 10
17.1805902038
 20
10.940955953
 11
17.1805902038
 21
11.4669867307
  0
LINE
  5
559
100
AcDbEntity
  8
0
100
AcDbLine
 62
250
  6
CONTINUOUS
 10
17.1805902038
 20
15.0233073369
 11
17.1805902038
 21
15.5493381147
  0
LINE
  5
55A
100
AcDbEntity
  8
ASSI
100
AcDbLine
 62
250
  6
CONTINUOUS
 10
-2.5634303766
 20
-26.0577760525
 11
-1.8266225724
 21
-25.1641865419
  0
LINE
  5
55B
100
AcDbEntity
  8
RACCORDO
100
AcDbLine
 62
250
  6
CONTINUOUS
 10
0.5253970797
 20
-19.7514813047
 11
25.5369077905
 21
-4.5845288549
  0
LWPOLYLINE
  5
55C
100
AcDbEntity
  8
RACCORDO
100
AcDbPolyline
 62
7
  6
CONTINUOUS
 90
83
 70
0
 10
-4.3583474552
 20
19.924707621
 10
-4.3692639752
 20
19.9308487749
 10
-4.3866680003
 20
19.9399990778
 10
-4.4040647083
 20
19.9484174337
 10
-4.4213487573
 20
19.956119665
 10
-4.4385002239
 20
19.9631625637
 10
-4.4555843067
 20
19.969628503
 10
-4.4725709483
 20
19.975553455
 10
-4.4894142587
 20
19.980966342
 10
-4.50616295
 20
19.9859223812
 10
-4.5227981922
 20
19.9904498429
 10
-4.5392971875
 20
19.9945738685
 10
-4.5557055081
 20
19.9983329553
 10
-4.5720177248
 20
20.0017487528
 10
-4.588216839
 20
20.0048387281
 10
-4.6043317582
 20
20.0076268827
 10
-4.6203640021
 20
20.0101292668
 10
-4.6362987072
 20
20.0123580569
 10
-4.6521398619
 20
20.0143271275
 10
-4.6678825796
 20
20.0160479274
 10
-4.6835223844
 20
20.0175311033
 10
-4.6990633104
 20
20.0187871823
 10
-4.7145011231
 20
20.0198250863
 10
-4.7298327863
 20
20.0206532395
 10
-4.7450636943
 20
20.0212798199
 10
-4.7601902676
 20
20.0217119158
 10
-4.7752100292
 20
20.0219562579
 10
-4.7901297057
 20
20.0220191876
 10
-4.8049467013
 20
20.0219064139
 10
-4.8196583584
 20
20.0216233821
 10
-4.8342710518
 20
20.021174981
 10
-4.8487856451
 20
20.020565755
 10
-4.8631965821
 20
20.0198003048
 10
-4.8775003925
 20
20.01888308
 10
-4.8916963656
 20
20.017818224
 10
-4.9057810001
 20
20.016609948
 10
-4.9197464798
 20
20.0152628626
 10
-4.9335908992
 20
20.0137810659
 10
-4.9473124399
 20
20.0121685555
 10
-4.9609032899
 20
20.0104300601
 10
-4.974361775
 20
20.0085696091
 10
-4.9876863316
 20
20.0065911562
 10
-5.0008691932
 20
20.0044996272
 10
-5.0139089285
 20
20.0022990482
 10
-5.0268042166
 20
19.9999933926
 10
-5.0395473318
 20
19.9975878431
 10
-5.0521367869
 20
19.9950865341
 10
-5.0645717877
 20
19.9924934494
 10
-5.076845503
 20
19.9898138819
 10
-5.0889551235
 20
19.9870523978
 10
-5.1009016273
 20
19.9842127097
 10
-5.112683626
 20
19.9812990325
 10
-5.1242999526
 20
19.9783155484
 10
-5.1357502016
 20
19.9752662379
 10
-5.1470337764
 20
19.9721551189
 10
-5.1581503782
 20
19.9689861322
 10
-5.1690989031
 20
19.9657634328
 10
-5.1798771825
 20
19.9624915442
 10
-5.1904839797
 20
19.959174749
 10
-5.2009192957
 20
19.9558169593
 10
-5.2111824173
 20
19.9524223282
 10
-5.2212697668
 20
19.9489959913
 10
-5.2311837599
 20
19.945541116
 10
-5.2409319972
 20
19.9420588786
 10
-5.2505140574
 20
19.9385531783
 10
-5.259928747
 20
19.9350282182
 10
-5.2691816615
 20
19.931485604
 10
-5.2782725666
 20
19.927929092
 10
-5.2871994801
 20
19.9243631155
 10
-5.2959646687
 20
19.9207904792
 10
-5.3045664458
 20
19.9172155318
 10
-5.3130035939
 20
19.9136425179
 10
-5.3212781265
 20
19.9100743028
 10
-5.3293888452
 20
19.9065151074
 10
-5.3373330356
 20
19.9029699119
 10
-5.345109387
 20
19.8994430726
 10
-5.3527153537
 20
19.8959396361
 10
-5.3601482524
 20
19.8924646879
 10
-5.3674062439
 20
19.8890230531
 10
-5.3744754144
 20
19.885625367
 10
-5.3813629286
 20
19.8822722834
 10
-5.3880963607
 20
19.8789541337
 10
-5.4010734649
 20
19.8724504456
  0
LINE
  5
55D
100
AcDbEntity
  8
RACCORDO
100
AcDbLine
 62
7
  6
CONTINUOUS
 10
-5.3082877129
 20
19.7637282161
 11
-2.8212429431
 21
18.327739736
  0
LINE
  5
55E
100
AcDbEntity
  8
SMUSSO
100
AcDbLine
 62
7
  6
CONTINUOUS
 10
21.0604066317
 20
5.0164143767
 11
20.5160070779
 21
5.3307438561
  0
LINE
  5
55F
100
AcDbEntity
  8
SMUSSO
100
AcDbLine
 62
7
  6
CONTINUOUS
 10
17.5252174011
 20
7.0575883321
 11
17.0725693713
 21
7.3189416315
  0
LINE
  5
560
100
AcDbEntity
  8
RACCORDO
100
AcDbLine
 62
250
  6
CONTINUOUS
 10
-2.2533490651
 20
18.6444834491
 11
-4.4559063842
 21
19.9162124406
  0
LINE
  5
561
100
AcDbEntity
  8
RACCORDO
100
AcDbLine
 62
7
  6
CONTINUOUS
 10
17.2570377924
 20
7.4311275465
 11
17.7146010436
 21
7.1669362598
  0
LINE
  5
562
100
AcDbEntity
  8
RACCORDO
100
AcDbLine
 62
7
  6
CONTINUOUS
 10
20.700475499
 20
5.4429297711
 11
21.2497902742
 21
5.1257623044
  0
LINE
  5
563
100
AcDbEntity
  8
RACCORDO
100
AcDbLine
 62
7
  6
CONTINUOUS
 10
-2.1962419709
 20
18.6763350216
 11
-4.3583696947
 21
19.9247204715
  0
LINE
  5
564
100
AcDbEntity
  8
DRAFT
100
AcDbLine
 62
7
  6
CONTINUOUS
 10
25.5369077905
 20
2.7138005104
 11
24.8145150135
 21
3.1309010462
  0
LINE
  5
565
100
AcDbEntity
  8
ASSI
100
AcDbLine
 62
7
  6
CONTINUOUS
 10
-1.2145276792
 20
18.4162510615
 11
-1.2572828855
 21
18.4409373818
  0
LINE
  5
566
100
AcDbEntity
  8
ASSI
100
AcDbLine
 62
7
  6
CONTINUOUS
 10
-1.9260146658
 20
18.8270547305
 11
-4.813501426
 21
20.4942533972
  0
LINE
  5
567
100
AcDbEntity
  8
ASSI
100
AcDbLine
 62
7
  6
CONTINUOUS
 10
-0.1506000732
 20
18.9310394589
 11
-4.2040436595
 21
21.271446984
  0
LINE
  5
568
100
AcDbEntity
  8
0
100
AcDbLine
 62
7
  6
CONTINUOUS
 10
17.2977474913
 20
11.0086012176
 11
17.2977474913
 21
11.5382368526
  0
LINE
  5
569
100
AcDbEntity
  8
0
100
AcDbLine
 62
7
  6
CONTINUOUS
 10
17.2977474913
 20
15.0909526015
 11
17.2977474913
 21
15.6205882366
  0
LINE
  5
56A
100
AcDbEntity
  8
0
100
AcDbLine
 62
7
  6
CONTINUOUS
 10
17.3191831329
 20
22.1796611292
 11
17.3191831329
 21
22.0061683203
  0
LINE
  5
56B
100
AcDbEntity
  8
0
100
AcDbLine
 62
7
  6
CONTINUOUS
 10
18.4792308207
 20
26.9322086717
 11
18.4792308207
 21
26.8922644464
  0
LINE
  5
56C
100
AcDbEntity
  8
DRAFT
100
AcDbLine
 62
7
  6
CONTINUOUS
 10
19.5306347514
 20
28.7405618947
 11
19.5306347514
 21
27.510020774
  0
LINE
  5
56D
100
AcDbEntity
  8
ASSI
100
AcDbLine
 62
250
  6
CONTINUOUS
 10
-0.5706184311
 20
-23.7958236893
 11
0.1241457553
 21
-23.3661710947
  0
LINE
  5
56E
100
AcDbEntity
  8
RACCORDO
100
AcDbLine
 62
7
  6
CONTINUOUS
 10
0.4714241926
 20
-20.4486135204
 11
25.1351315276
 21
-5.4925686532
  0
LINE
  5
56F
100
AcDbEntity
  8
ASSI
100
AcDbLine
 62
7
  6
CONTINUOUS
 10
0.4715278485
 20
-20.4487844573
 11
0.1241457553
 21
-20.6594365746
  0
LWPOLYLINE
  5
570
100
AcDbEntity
  8
ASSI
100
AcDbPolyline
 62
7
  6
CONTINUOUS
 90
4
 70
0
 10
-3.7972381596
 20
-25.5616185193
 10
-3.7775792293
 20
-25.5497771428
 10
-3.7557356183
 20
-25.5372582814
 10
-3.7318653765
 20
-25.5238793654
  0
LINE
  5
571
100
AcDbEntity
  8
ASSI
100
AcDbLine
 62
7
  6
CONTINUOUS
 10
5.3832500675
 20
-17.5070752297
 11
2.8334133504
 21
-19.0163059057
  0
LINE
  5
572
100
AcDbEntity
  8
ASSI
100
AcDbLine
 62
7
  6
CONTINUOUS
 10
-14.6620893077
 20
19.8961126403
 11
-15.3082967307
 21
19.9592030905
  0
LINE
  5
573
100
AcDbEntity
  8
ASSI
100
AcDbLine
 62
250
  6
CONTINUOUS
 10
-14.4131232775
 20
20.0032531592
 11
-15.1499310817
 21
20.0751890956
  0
LWPOLYLINE
  5
574
100
AcDbEntity
  8
ASSI
100
AcDbPolyline
 62
7
  6
CONTINUOUS
 90
12
 70
0
 10
1.850112865
 20
19.7384125026
 10
1.8257385711
 20
19.7515712257
 10
1.7747169704
 20
19.7737858377
 10
1.7209397559
 20
19.7903387741
 10
1.6648999597
 20
19.8010140958
 10
1.6070216538
 20
19.8057058021
 10
1.5478008982
 20
19.80435223
 10
1.4876060874
 20
19.7969473129
 10
1.4266835057
 20
19.7835249247
 10
1.3651720075
 20
19.764081577
 10
1.3032177725
 20
19.7385657484
 10
1.2404914199
 20
19.7066664342
  0
LINE
  5
575
100
AcDbEntity
  8
ASSI
100
AcDbLine
 62
7
  6
CONTINUOUS
 10
-2.548907256
 20
21.6000741263
 11
0.9809599428
 21
19.5619730453
  0
LINE
  5
576
100
AcDbEntity
  8
DRAFT
100
AcDbLine
 62
7
  6
CONTINUOUS
 10
5.309380158
 20
17.1036209747
 11
5.7602133065
 21
16.843315565
  0
LINE
  5
577
100
AcDbEntity
  8
RACCORDO
100
AcDbLine
 62
7
  6
CONTINUOUS
 10
20.189233505
 20
8.5957604598
 11
19.667444187
 21
8.8970350725
  0
LINE
  5
578
100
AcDbEntity
  8
0
100
AcDbLine
 62
7
  6
CONTINUOUS
 10
23.7884486701
 20
6.5915543395
 11
23.7538548417
 21
6.6115283824
  0
LINE
  5
579
100
AcDbEntity
  8
ASSI
100
AcDbLine
 62
250
  6
CONTINUOUS
 10
-6.147094185
 20
24.0317862562
 11
-3.3304181754
 21
22.4054728295
  0
LINE
  5
57A
100
AcDbEntity
  8
ASSI
100
AcDbLine
 62
250
  6
CONTINUOUS
 10
1.3653346057
 20
19.6942040253
 11
4.1820106152
 21
18.0678905986
  0
LINE
  5
57B
100
AcDbEntity
  8
SMUSSO
100
AcDbLine
 62
7
  6
CONTINUOUS
 10
20.5427865948
 20
8.7998979302
 11
20.0118212377
 21
9.1064706728
  0
LINE
  5
57C
100
AcDbEntity
  8
ASSI
100
AcDbLine
 62
7
  6
CONTINUOUS
 10
1.8501086592
 20
19.7384239335
 11
4.8706984864
 21
17.9943733182
  0
LINE
  5
57D
100
AcDbEntity
  8
SMUSSO
100
AcDbLine
 62
7
  6
CONTINUOUS
 10
21.0604066317
 20
9.0987657607
 11
20.5160070779
 21
9.4130952401
  0
LINE
  5
57E
100
AcDbEntity
  8
RACCORDO
100
AcDbLine
 62
7
  6
CONTINUOUS
 10
20.700475499
 20
9.5252811551
 11
21.2497902742
 21
9.2081136884
  0
LINE
  5
57F
100
AcDbEntity
  8
DRAFT
100
AcDbLine
 62
7
  6
CONTINUOUS
 10
25.5369077905
 20
6.7961518944
 11
24.8145150135
 21
7.2132524301
  0
LINE
  5
580
100
AcDbEntity
  8
0
100
AcDbLine
 62
7
  6
CONTINUOUS
 10
18.7776264224
 20
11.863066219
 11
19.5280597412
 21
11.4297754259
  0
LINE
  5
581
100
AcDbEntity
  8
ASSI
100
AcDbLine
 62
7
  6
CONTINUOUS
 10
-2.8398531031
 20
22.446349104
 11
-5.8604151657
 21
24.1903838485
  0
LINE
  5
582
100
AcDbEntity
  8
IMPORT_IGES
100
AcDbLine
 62
7
  6
CONTINUOUS
 10
20.4052853711
 20
13.7413710247
 11
20.4052853711
 21
11.8372374092
  0
LINE
  5
583
100
AcDbEntity
  8
0
100
AcDbLine
 62
250
  6
CONTINUOUS
 10
21.9889163159
 20
10.2917821325
 11
21.9889163159
 21
10.3088565283
  0
LINE
  5
584
100
AcDbEntity
  8
0
100
AcDbLine
 62
7
  6
CONTINUOUS
 10
22.0147647266
 20
24.8908357051
 11
22.0147647266
 21
24.8508914798
  0
LWPOLYLINE
  5
585
100
AcDbEntity
  8
ASSI
100
AcDbPolyline
 62
7
  6
CONTINUOUS
 90
13
 70
0
 10
-0.4387577708
 20
-25.3169568784
 10
-0.4231563769
 20
-25.3064808048
 10
-0.4045409664
 20
-25.2915870925
 10
-0.3875593518
 20
-25.2752995387
 10
-0.3718602877
 20
-25.2573820686
 10
-0.3575820346
 20
-25.2379676623
 10
-0.3451713701
 20
-25.2177471021
 10
-0.3344685839
 20
-25.1965737677
 10
-0.3254323533
 20
-25.1742353884
 10
-0.3184156601
 20
-25.151475904
 10
-0.3134580647
 20
-25.1284824581
 10
-0.3105419973
 20
-25.1048309676
 10
-0.3098034494
 20
-25.0856037705
  0
LINE
  5
586
100
AcDbEntity
  8
ASSI
100
AcDbLine
 62
7
  6
CONTINUOUS
 10
-0.6708381346
 20
-24.0227177067
 11
0.0249500287
 21
-23.5924318696
  0
LINE
  5
587
100
AcDbEntity
  8
ASSI
100
AcDbLine
 62
250
  6
CONTINUOUS
 10
-0.9241718217
 20
-25.5511777512
 11
-0.4000673551
 21
-25.2270636873
  0
LINE
  5
588
100
AcDbEntity
  8
ASSI
100
AcDbLine
 62
7
  6
CONTINUOUS
 10
-0.9638501124
 20
-25.6416820611
 11
-0.4387421994
 21
-25.316947451
  0
LINE
  5
589
100
AcDbEntity
  8
ASSI
100
AcDbLine
 62
7
  6
CONTINUOUS
 10
-3.7063627701
 20
-25.5091784101
 11
-3.692909879
 21
-25.5012804852
  0
LINE
  5
58A
100
AcDbEntity
  8
ASSI
100
AcDbLine
 62
7
  6
CONTINUOUS
 10
-3.7972381596
 20
-25.5616185193
 11
-3.6930739302
 21
-25.5014846976
  0
LINE
  5
58B
100
AcDbEntity
  8
ASSI
100
AcDbLine
 62
7
  6
CONTINUOUS
 10
-0.6854096251
 20
-24.0307600229
 11
-0.6708325141
 21
-24.0227149507
  0
LINE
  5
58C
100
AcDbEntity
  8
ASSI
100
AcDbLine
 62
250
  6
CONTINUOUS
 10
-0.9241718217
 20
-25.5511777512
 11
-2.5460719483
 21
-26.4233831526
  0
LINE
  5
58D
100
AcDbEntity
  8
ASSI
100
AcDbLine
 62
7
  6
CONTINUOUS
 10
-0.9673391938
 20
-25.6436966129
 11
-2.5902784255
 21
-26.5164608113
  0
LINE
  5
58E
100
AcDbEntity
  8
ASSI
100
AcDbLine
 62
250
  6
CONTINUOUS
 10
-5.7617232958
 20
-26.3339575909
 11
-0.5706184311
 21
-23.7957613211
  0
LINE
  5
58F
100
AcDbEntity
  8
ASSI
100
AcDbLine
 62
7
  6
CONTINUOUS
 10
-0.6854134792
 20
-24.0307619074
 11
-5.8864717298
 21
-26.5738247401
  0
LINE
  5
590
100
AcDbEntity
  8
ASSI
100
AcDbLine
 62
7
  6
CONTINUOUS
 10
-4.2040436595
 20
21.271446984
 11
-2.6223511808
 21
21.5126351508
  0
LINE
  5
591
100
AcDbEntity
  8
0
100
AcDbLine
 62
250
  6
CONTINUOUS
 10
20.8472495322
 20
11.2363559999
 11
20.1085349127
 21
11.662880563
  0
LINE
  5
592
100
AcDbEntity
  8
0
100
AcDbLine
 62
7
  6
CONTINUOUS
 10
23.7884486701
 20
10.6739057234
 11
23.7538548417
 21
10.6938797663
  0
LINE
  5
593
100
AcDbEntity
  8
0
100
AcDbLine
 62
250
  6
CONTINUOUS
 10
21.7558969734
 20
12.6307943278
 11
20.4052853711
 21
13.4106205398
  0
LINE
  5
594
100
AcDbEntity
  8
0
100
AcDbLine
 62
7
  6
CONTINUOUS
 10
21.8720397811
 20
12.6990344706
 11
20.4052853711
 21
13.5459200842
  0
LINE
  5
595
100
AcDbEntity
  8
SMUSSO
100
AcDbLine
 62
7
  6
CONTINUOUS
 10
21.8835904632
 20
12.7058211172
 11
20.4052853711
 21
13.5593759499
  0
LINE
  5
596
100
AcDbEntity
  8
RACCORDO
100
AcDbLine
 62
7
  6
CONTINUOUS
 10
20.4049574913
 20
13.778260933
 11
21.8093111935
 21
12.967404706
  0
LINE
  5
597
100
AcDbEntity
  8
DRAFT
100
AcDbLine
 62
7
  6
CONTINUOUS
 10
25.5369077905
 20
10.8785032784
 11
24.8145150135
 21
11.2956038141
  0
LINE
  5
598
100
AcDbEntity
  8
DRAFT
100
AcDbLine
 62
7
  6
CONTINUOUS
 10
23.0661686573
 20
26.6991889281
 11
23.0661686573
 21
25.4686478073
  0
LINE
  5
599
100
AcDbEntity
  8
ASSI
100
AcDbLine
 62
7
  6
CONTINUOUS
 10
23.6477888245
 20
13.9062429415
 11
23.6477888245
 21
16.3399798364
  0
LINE
  5
59A
100
AcDbEntity
  8
ASSI
100
AcDbLine
 62
7
  6
CONTINUOUS
 10
23.6477888245
 20
17.9885943255
 11
23.6477888245
 21
20.4223312203
  0
LINE
  5
59B
100
AcDbEntity
  8
DRAFT
100
AcDbLine
 62
7
  6
CONTINUOUS
 10
23.7538548417
 20
11.3822177149
 11
23.7538548417
 21
10.6938797663
  0
LINE
  5
59C
100
AcDbEntity
  8
DRAFT
100
AcDbLine
 62
7
  6
CONTINUOUS
 10
23.7538548417
 20
7.299866331
 11
23.7538548417
 21
6.6115283824
  0
LINE
  5
59D
100
AcDbEntity
  8
DRAFT
100
AcDbLine
 62
7
  6
CONTINUOUS
 10
23.7538548417
 20
3.217514947
 11
23.7538548417
 21
2.5291769984
  0
LINE
  5
59E
100
AcDbEntity
  8
DRAFT
100
AcDbLine
 62
7
  6
CONTINUOUS
 10
23.7538548417
 20
-0.864836437
 11
23.7538548417
 21
-1.5531743856
  0
LINE
  5
59F
100
AcDbEntity
  8
ASSI
100
AcDbLine
 62
7
  6
CONTINUOUS
 10
24.7084489963
 20
14.5186548315
 11
24.7084489963
 21
16.974150913
  0
LINE
  5
5A0
100
AcDbEntity
  8
ASSI
100
AcDbLine
 62
7
  6
CONTINUOUS
 10
24.7084489963
 20
18.6010062154
 11
24.7084489963
 21
21.0565022969
  0
LINE
  5
5A1
100
AcDbEntity
  8
DRAFT
100
AcDbLine
 62
7
  6
CONTINUOUS
 10
24.8145150135
 20
12.027266505
 11
24.8145150135
 21
11.2956038141
  0
LINE
  5
5A2
100
AcDbEntity
  8
DRAFT
100
AcDbLine
 62
7
  6
CONTINUOUS
 10
24.8145150135
 20
7.944915121
 11
24.8145150135
 21
7.2132524301
  0
LINE
  5
5A3
100
AcDbEntity
  8
DRAFT
100
AcDbLine
 62
7
  6
CONTINUOUS
 10
24.8145150135
 20
3.8625637371
 11
24.8145150135
 21
3.1309010462
  0
LINE
  5
5A4
100
AcDbEntity
  8
DRAFT
100
AcDbLine
 62
7
  6
CONTINUOUS
 10
24.8145150135
 20
-0.2197876469
 11
24.8145150135
 21
-0.9514503378
  0
LINE
  5
5A5
100
AcDbEntity
  8
RACCORDO
100
AcDbLine
 62
7
  6
CONTINUOUS
 10
25.5369077905
 20
23.847276079
 11
25.5369077905
 21
21.5518396532
  0
LINE
  5
5A6
100
AcDbEntity
  8
DRAFT
100
AcDbLine
 62
7
  6
CONTINUOUS
 10
25.5369077905
 20
18.1226644907
 11
25.5369077905
 21
17.4694882693
  0
LINE
  5
5A7
100
AcDbEntity
  8
DRAFT
100
AcDbLine
 62
7
  6
CONTINUOUS
 10
25.5369077905
 20
14.0403131068
 11
25.5369077905
 21
12.4665953297
  0
LINE
  5
5A8
100
AcDbEntity
  8
DRAFT
100
AcDbLine
 62
7
  6
CONTINUOUS
 10
25.5369077905
 20
10.8785032784
 11
25.5369077905
 21
8.3842439458
  0
LINE
  5
5A9
100
AcDbEntity
  8
DRAFT
100
AcDbLine
 62
7
  6
CONTINUOUS
 10
25.5369077905
 20
6.7961518944
 11
25.5369077905
 21
4.3018925618
  0
LINE
  5
5AA
100
AcDbEntity
  8
DRAFT
100
AcDbLine
 62
7
  6
CONTINUOUS
 10
25.5369077905
 20
2.7138005104
 11
25.5369077905
 21
0.2195411779
  0
LINE
  5
5AB
100
AcDbEntity
  8
RACCORDO
100
AcDbLine
 62
7
  6
CONTINUOUS
 10
25.5369077905
 20
-1.3685508735
 11
25.5369077905
 21
-4.5845288549
  0
LWPOLYLINE
  5
5AC
100
AcDbEntity
  8
ASSI
100
AcDbPolyline
 62
7
  6
CONTINUOUS
 90
4
 70
0
 10
-16.6505262034
 20
20.712201156
 10
-16.6487278366
 20
20.7125890823
 10
-16.6435022109
 20
20.7153620728
 10
-16.6353050016
 20
20.720357282
  0
LINE
  5
5AD
100
AcDbEntity
  8
0
100
AcDbLine
 62
7
  6
CONTINUOUS
 10
18.7424345734
 20
15.9250982359
 11
19.4931777577
 21
15.4916285302
  0
LINE
  5
5AE
100
AcDbEntity
  8
0
100
AcDbLine
 62
250
  6
CONTINUOUS
 10
20.8125113229
 20
15.2979373313
 11
20.073488115
 21
15.7246400694
  0
LINE
  5
5AF
100
AcDbEntity
  8
0
100
AcDbLine
 62
7
  6
CONTINUOUS
 10
23.7884486701
 20
13.8250277096
 11
23.6477888245
 21
13.9062429415
  0
LINE
  5
5B0
100
AcDbEntity
  8
IMPORT_IGES
100
AcDbLine
 62
7
  6
CONTINUOUS
 10
7.1296483212
 20
24.3818132583
 11
7.0824745201
 21
24.4090508198
  0
LINE
  5
5B1
100
AcDbEntity
  8
DRAFT
100
AcDbLine
 62
7
  6
CONTINUOUS
 10
25.5369077905
 20
14.0403131068
 11
24.7084489963
 21
14.5186548315
  0
LINE
  5
5B2
100
AcDbEntity
  8
0
100
AcDbLine
 62
7
  6
CONTINUOUS
 10
8.4391293324
 20
25.2179194472
 11
8.5451694607
 21
25.1566932061
  0
LINE
  5
5B3
100
AcDbEntity
  8
0
100
AcDbLine
 62
7
  6
CONTINUOUS
 10
11.9746632383
 20
23.1765464806
 11
12.0807033666
 21
23.1153202395
  0
LINE
  5
5B4
100
AcDbEntity
  8
0
100
AcDbLine
 62
7
  6
CONTINUOUS
 10
15.5101971442
 20
21.135173514
 11
15.6162372726
 21
21.0739472728
  0
LINE
  5
5B5
100
AcDbEntity
  8
0
100
AcDbLine
 62
7
  6
CONTINUOUS
 10
8.5805505683
 20
25.2995744354
 11
8.6903590309
 21
25.2361724053
  0
LINE
  5
5B6
100
AcDbEntity
  8
0
100
AcDbLine
 62
7
  6
CONTINUOUS
 10
12.1160844742
 20
23.2582014687
 11
12.2258929368
 21
23.1947994386
  0
LINE
  5
5B7
100
AcDbEntity
  8
0
100
AcDbLine
 62
7
  6
CONTINUOUS
 10
15.6516183801
 20
21.2168285021
 11
15.7614268428
 21
21.153426472
  0
LINE
  5
5B8
100
AcDbEntity
  8
0
100
AcDbLine
 62
7
  6
CONTINUOUS
 10
16.3064384423
 20
21.4517749375
 11
16.1824844327
 21
21.5233444291
  0
LINE
  5
5B9
100
AcDbEntity
  8
0
100
AcDbLine
 62
7
  6
CONTINUOUS
 10
23.7884486701
 20
17.9073790935
 11
23.6477888245
 21
17.9885943255
  0
LINE
  5
5BA
100
AcDbEntity
  8
0
100
AcDbLine
 62
7
  6
CONTINUOUS
 10
13.8897152442
 20
24.2351600939
 11
14.0048966206
 21
24.1686558108
  0
LINE
  5
5BB
100
AcDbEntity
  8
SMUSSO
100
AcDbLine
 62
7
  6
CONTINUOUS
 10
14.0311366004
 20
24.3168150126
 11
14.1500861907
 21
24.2481350099
  0
LINE
  5
5BC
100
AcDbEntity
  8
SMUSSO
100
AcDbLine
 62
7
  6
CONTINUOUS
 10
14.2383188873
 20
24.4364952577
 11
14.3628385101
 21
24.3645991881
  0
LINE
  5
5BD
100
AcDbEntity
  8
DRAFT
100
AcDbLine
 62
7
  6
CONTINUOUS
 10
25.5369077905
 20
18.1226644907
 11
24.7084489963
 21
18.6010062154
  0
LINE
  5
5BE
100
AcDbEntity
  8
0
100
AcDbLine
 62
7
  6
CONTINUOUS
 10
16.4002930193
 20
25.4799358649
 11
16.1821397573
 21
25.6058948243
  0
LINE
  5
5BF
100
AcDbEntity
  8
0
100
AcDbLine
 62
7
  6
CONTINUOUS
 10
17.1624435544
 20
25.8971498156
 11
16.9245089957
 21
26.0345302478
  0
LINE
  5
5C0
100
AcDbEntity
  8
DRAFT
100
AcDbLine
 62
7
  6
CONTINUOUS
 10
14.9436969148
 20
28.933637413
 11
15.1875466962
 21
28.7928416054
  0
LINE
  5
5C1
100
AcDbEntity
  8
DRAFT
100
AcDbLine
 62
7
  6
CONTINUOUS
 10
18.4792308207
 20
26.8922644464
 11
18.7230806021
 21
26.7514686387
  0
LINE
  5
5C2
100
AcDbEntity
  8
DRAFT
100
AcDbLine
 62
7
  6
CONTINUOUS
 10
22.0147647266
 20
24.8508914798
 11
22.2586145081
 21
24.7100956721
  0
LINE
  5
5C3
100
AcDbEntity
  8
DRAFT
100
AcDbLine
 62
7
  6
CONTINUOUS
 10
15.9951008454
 20
29.5513937406
 11
16.2764684725
 21
29.3889355991
  0
LINE
  5
5C4
100
AcDbEntity
  8
DRAFT
100
AcDbLine
 62
7
  6
CONTINUOUS
 10
19.5306347514
 20
27.510020774
 11
19.8120023785
 21
27.3475626325
  0
LINE
  5
5C5
100
AcDbEntity
  8
DRAFT
100
AcDbLine
 62
7
  6
CONTINUOUS
 10
23.0661686573
 20
25.4686478073
 11
23.3475362844
 21
25.3061896658
  0
LINE
  5
5C6
100
AcDbEntity
  8
RACCORDO
100
AcDbLine
 62
7
  6
CONTINUOUS
 10
11.598664369
 20
33.3203821826
 11
15.9951008454
 21
30.7819348614
  0
LINE
  5
5C7
100
AcDbEntity
  8
DRAFT
100
AcDbLine
 62
7
  6
CONTINUOUS
 10
17.3704732143
 20
29.9878120931
 11
19.5306347514
 21
28.7405618947
  0
LINE
  5
5C8
100
AcDbEntity
  8
DRAFT
100
AcDbLine
 62
7
  6
CONTINUOUS
 10
20.9060071202
 20
27.9464391264
 11
23.0661686573
 21
26.6991889281
  0
LINE
  5
5C9
100
AcDbEntity
  8
RACCORDO
100
AcDbLine
 62
7
  6
CONTINUOUS
 10
24.4415410261
 20
25.9050661598
 11
24.5953368154
 21
25.8162663986
  0
LINE
  5
5CA
100
AcDbEntity
  8
RACCORDO
100
AcDbLine
 62
7
  6
CONTINUOUS
 10
25.095260663
 20
25.288514449
 11
25.1227573149
 21
25.240888851
  0
ARC
  5
5CB
100
AcDbEntity
  8
IMPORT_IGES
100
AcDbCircle
 62
250
  6
CONTINUOUS
 10
6.2978456132
 20
5.1755078445
 40
3.8031364041
100
AcDbArc
 50
299.3821125409
 51
302.8033738658
  0
ARC
  5
5CC
100
AcDbEntity
  8
0
100
AcDbCircle
 62
250
  6
CONTINUOUS
 10
-11.822928131
 20
-10.9912392541
 40
1.9031259596
100
AcDbArc
 50
58.3564702569
 51
62.1277017764
  0
ARC
  5
5CD
100
AcDbEntity
  8
ASSI
100
AcDbCircle
 62
250
  6
CONTINUOUS
 10
-11.822928131
 20
-10.9912392541
 40
1.9031259596
100
AcDbArc
 50
58.3564702569
 51
62.1277017764
  0
ARC
  5
5CE
100
AcDbEntity
  8
0
100
AcDbCircle
 62
250
  6
CONTINUOUS
 10
-11.7688944364
 20
-3.2527898537
 40
1.8611738695
100
AcDbArc
 50
58.1219754477
 51
62.0745156247
  0
ARC
  5
5CF
100
AcDbEntity
  8
ASSI
100
AcDbCircle
 62
250
  6
CONTINUOUS
 10
-11.7688944364
 20
-3.2527898537
 40
1.8611738695
100
AcDbArc
 50
58.1219754477
 51
62.0745156247
  0
ARC
  5
5D0
100
AcDbEntity
  8
ASSI
100
AcDbCircle
 62
7
  6
CONTINUOUS
 10
-0.9986703111
 20
-25.585404388
 40
0.0661784741
100
AcDbArc
 50
298.2572980775
 51
301.7459682526
  0
ARC
  5
5D1
100
AcDbEntity
  8
0
100
AcDbCircle
 62
250
  6
CONTINUOUS
 10
60.1609794382
 20
109.2048758174
 40
149.8202254128
100
AcDbArc
 50
241.5345330254
 51
242.5341070528
  0
ARC
  5
5D2
100
AcDbEntity
  8
0
100
AcDbCircle
 62
250
  6
CONTINUOUS
 10
58.8787782856
 20
107.4833113062
 40
147.2708288647
100
AcDbArc
 50
241.7517826728
 51
242.3770706556
  0
ARC
  5
5D3
100
AcDbEntity
  8
0
100
AcDbCircle
 62
250
  6
CONTINUOUS
 10
57.5088912026
 20
105.8846007289
 40
144.5949633521
100
AcDbArc
 50
241.786584921
 51
242.423717823
  0
ARC
  5
5D4
100
AcDbEntity
  8
0
100
AcDbCircle
 62
250
  6
CONTINUOUS
 10
56.3465065006
 20
102.2554879246
 40
141.8923422327
100
AcDbArc
 50
240.2769586447
 51
240.447145156
  0
ARC
  5
5D5
100
AcDbEntity
  8
0
100
AcDbCircle
 62
250
  6
CONTINUOUS
 10
54.6843996204
 20
100.2561076311
 40
138.6365044663
100
AcDbArc
 50
240.2835553258
 51
240.4577532905
  0
ARC
  5
5D6
100
AcDbEntity
  8
0
100
AcDbCircle
 62
250
  6
CONTINUOUS
 10
53.6374800385
 20
99.1032705905
 40
136.5934803157
100
AcDbArc
 50
240.2883488469
 51
240.5536895852
  0
ARC
  5
5D7
100
AcDbEntity
  8
0
100
AcDbCircle
 62
250
  6
CONTINUOUS
 10
53.0974529716
 20
101.6137779993
 40
136.0472525605
100
AcDbArc
 50
241.7047279203
 51
242.8081097009
  0
ARC
  5
5D8
100
AcDbEntity
  8
0
100
AcDbCircle
 62
250
  6
CONTINUOUS
 10
52.3455874133
 20
100.7109838681
 40
134.5379981333
100
AcDbArc
 50
242.0927996726
 51
242.4541634947
  0
ARC
  5
5D9
100
AcDbEntity
  8
0
100
AcDbCircle
 62
250
  6
CONTINUOUS
 10
42.3411254218
 20
88.2895021572
 40
114.4459126379
100
AcDbArc
 50
239.5095357993
 51
239.7891306098
  0
ARC
  5
5DA
100
AcDbEntity
  8
ASSI
100
AcDbCircle
 62
250
  6
CONTINUOUS
 10
42.3411254218
 20
88.2895021572
 40
114.4459126379
100
AcDbArc
 50
239.5095357993
 51
239.7891306098
  0
ARC
  5
5DB
100
AcDbEntity
  8
IMPORT_IGES
100
AcDbCircle
 62
7
  6
CONTINUOUS
 10
17.4048390796
 20
13.1026071749
 40
3.2219723038
100
AcDbArc
 50
48.7921471881
 51
49.1857791482
  0
ARC
  5
5DC
100
AcDbEntity
  8
IMPORT_IGES
100
AcDbCircle
 62
250
  6
CONTINUOUS
 10
17.1332431067
 20
13.5389949021
 40
2.6916791613
100
AcDbArc
 50
57.9511754213
 51
60.6302643148
  0
ARC
  5
5DD
100
AcDbEntity
  8
IMPORT_IGES
100
AcDbCircle
 62
7
  6
CONTINUOUS
 10
18.2909378573
 20
13.7389607093
 40
2.1143223763
100
AcDbArc
 50
0.0865769824
 51
14.1467363487
  0
ARC
  5
5DE
100
AcDbEntity
  8
ASSI
100
AcDbCircle
 62
7
  6
CONTINUOUS
 10
-0.4606856498
 20
18.3898663381
 40
0.4782531717
100
AcDbArc
 50
175.1581852327
 51
177.6305982694
  0
ARC
  5
5DF
100
AcDbEntity
  8
IMPORT_IGES
100
AcDbCircle
 62
7
  6
CONTINUOUS
 10
4.4398687466
 20
23.0593664775
 40
0.3447111727
100
AcDbArc
 50
6.138551196
 51
7.7162364025
  0
ARC
  5
5E0
100
AcDbEntity
  8
ASSI
100
AcDbCircle
 62
250
  6
CONTINUOUS
 10
1.6874720129
 20
19.4562918257
 40
0.3256476506
100
AcDbArc
 50
60.0384371777
 51
62.9665738948
  0
ARC
  5
5E1
100
AcDbEntity
  8
ASSI
100
AcDbCircle
 62
7
  6
CONTINUOUS
 10
-1.1131462961
 20
18.4674513949
 40
0.2124213819
100
AcDbArc
 50
357.3541935574
 51
359.7425713165
  0
ARC
  5
5E2
100
AcDbEntity
  8
RACCORDO
100
AcDbCircle
 62
7
  6
CONTINUOUS
 10
-5.4749528904
 20
19.6442092285
 40
0.1666226066
100
AcDbArc
 50
118.2695814279
 51
121.733616633
  0
ARC
  5
5E3
100
AcDbEntity
  8
RACCORDO
100
AcDbCircle
 62
7
  6
CONTINUOUS
 10
-5.851697066
 20
19.4810945366
 40
0.1071981734
100
AcDbArc
 50
121.7134932466
 51
137.1871438201
  0
ARC
  5
5E4
100
AcDbEntity
  8
ASSI
100
AcDbCircle
 62
250
  6
CONTINUOUS
 10
-2.5639063828
 20
15.8285241304
 40
0.0840798415
100
AcDbArc
 50
59.9970183231
 51
65.0594981009
  0
ARC
  5
5E5
100
AcDbEntity
  8
ASSI
100
AcDbCircle
 62
250
  6
CONTINUOUS
 10
-0.4492505243
 20
14.0969062045
 40
0.0837385704
100
AcDbArc
 50
321.9545845171
 51
325.9624480024
  0
ARC
  5
5E6
100
AcDbEntity
  8
ASSI
100
AcDbCircle
 62
250
  6
CONTINUOUS
 10
-4.8332670039
 20
13.9840532712
 40
0.0828239466
100
AcDbArc
 50
237.8208468049
 51
239.9984146436
  0
ARC
  5
5E7
100
AcDbEntity
  8
RACCORDO
100
AcDbCircle
 62
250
  6
CONTINUOUS
 10
-4.3917246992
 20
19.8669527223
 40
0.0667057374
100
AcDbArc
 50
59.9979328136
 51
61.1564650335
  0
ARC
  5
5E8
100
AcDbEntity
  8
ASSI
100
AcDbCircle
 62
7
  6
CONTINUOUS
 10
-15.8403370935
 20
22.8189754572
 40
0.066178474
100
AcDbArc
 50
118.2572980773
 51
121.7459682527
  0
ARC
  5
5E9
100
AcDbEntity
  8
ASSI
100
AcDbCircle
 62
7
  6
CONTINUOUS
 10
-3.2538363884
 20
15.551687696
 40
0.066178474
100
AcDbArc
 50
118.257298077
 51
121.7459682531
  0
ARC
  5
5EA
100
AcDbEntity
  8
ASSI
100
AcDbCircle
 62
250
  6
CONTINUOUS
 10
474.0953519
 20
-9.6423862319
 40
481.3368456172
100
AcDbArc
 50
177.8978115018
 51
178.4912341237
  0
ARC
  5
5EB
100
AcDbEntity
  8
ASSI
100
AcDbCircle
 62
250
  6
CONTINUOUS
 10
463.745266125
 20
-9.6305555536
 40
470.3206109459
100
AcDbArc
 50
177.8511809018
 51
178.4521833167
  0
ARC
  5
5EC
100
AcDbEntity
  8
ASSI
100
AcDbCircle
 62
250
  6
CONTINUOUS
 10
462.7966303925
 20
-9.3500312688
 40
470.0343230241
100
AcDbArc
 50
178.5973773144
 51
179.3716540475
  0
ARC
  5
5ED
100
AcDbEntity
  8
ASSI
100
AcDbCircle
 62
250
  6
CONTINUOUS
 10
457.7351079551
 20
-9.4576327874
 40
464.3079749642
100
AcDbArc
 50
178.453481244
 51
178.6074181571
  0
ARC
  5
5EE
100
AcDbEntity
  8
ASSI
100
AcDbCircle
 62
250
  6
CONTINUOUS
 10
451.7833673124
 20
-9.3196416197
 40
458.3546386844
100
AcDbArc
 50
178.6065814827
 51
179.4563438071
  0
ARC
  5
5EF
100
AcDbEntity
  8
0
100
AcDbCircle
 62
250
  6
CONTINUOUS
 10
384.4352081071
 20
-9.4665395111
 40
393.6328380681
100
AcDbArc
 50
181.445727341
 51
182.0763857389
  0
ARC
  5
5F0
100
AcDbEntity
  8
0
100
AcDbCircle
 62
250
  6
CONTINUOUS
 10
355.8731974444
 20
-8.1672434958
 40
367.4006710753
100
AcDbArc
 50
181.5613432348
 51
182.2361615937
  0
ARC
  5
5F1
100
AcDbEntity
  8
0
100
AcDbCircle
 62
250
  6
CONTINUOUS
 10
336.949381044
 20
-5.7811778534
 40
351.6384360697
100
AcDbArc
 50
182.2070821398
 51
182.4412552093
  0
ARC
  5
5F2
100
AcDbEntity
  8
0
100
AcDbCircle
 62
250
  6
CONTINUOUS
 10
262.6147727223
 20
-68.8710397836
 40
278.8441193182
100
AcDbArc
 50
170.0456477872
 51
170.3131761911
  0
ARC
  5
5F3
100
AcDbEntity
  8
0
100
AcDbCircle
 62
250
  6
CONTINUOUS
 10
235.0573651128
 20
-88.3393973037
 40
256.683613623
100
AcDbArc
 50
164.7380762967
 51
164.9395255794
  0
ARC
  5
5F4
100
AcDbEntity
  8
0
100
AcDbCircle
 62
250
  6
CONTINUOUS
 10
382.7567052147
 20
85.8224064439
 40
409.4490084265
100
AcDbArc
 50
195.0900216838
 51
195.261097882
  0
ARC
  5
5F5
100
AcDbEntity
  8
0
100
AcDbCircle
 62
250
  6
CONTINUOUS
 10
375.4513099496
 20
60.8874157023
 40
396.9356495908
100
AcDbArc
 50
191.7657186676
 51
192.0004409307
  0
SPLINE
  5
5F6
100
AcDbEntity
  8
IMPORT_IGES
100
AcDbSpline
 62
7
  6
CONTINUOUS
 70
0
 71
3
 72
9
 73
5
 74
0
 42
0.0000001
 43
0.0000001
 44
0.0000000001
 40
0.0
 40
0.0
 40
0.0
 40
0.0
 40
0.464737347
 40
1.0
 40
1.0
 40
1.0
 40
1.0
 10
-9.7123257691
 20
-3.3368588936
 30
0.0
 10
-9.7123053682
 20
-3.3488133386
 30
0.0
 10
-9.7046621078
 20
-3.3746948459
 30
0.0
 10
-9.6868742664
 20
-3.3941948617
 30
0.0
 10
-9.6762606922
 20
-3.4029656125
 30
0.0
  0
SPLINE
  5
5F7
100
AcDbEntity
  8
IMPORT_IGES
100
AcDbSpline
 62
7
  6
CONTINUOUS
 70
0
 71
3
 72
9
 73
5
 74
0
 42
0.0000001
 43
0.0000001
 44
0.0000000001
 40
0.0
 40
0.0
 40
0.0
 40
0.0
 40
0.265131181
 40
1.0
 40
1.0
 40
1.0
 40
1.0
 10
-9.6985020794
 20
-3.2950844264
 30
0.0
 10
-9.7007002321
 20
-3.2983308293
 30
0.0
 10
-9.7082768245
 20
-3.311017661
 30
0.0
 10
-9.7123443137
 20
-3.3259921469
 30
0.0
 10
-9.7123257691
 20
-3.3368588936
 30
0.0
  0
SPLINE
  5
5F8
100
AcDbEntity
  8
0
100
AcDbSpline
 62
7
  6
CONTINUOUS
 70
0
 71
3
 72
13
 73
9
 74
0
 42
0.0000001
 43
0.0000001
 44
0.0000000001
 40
0.0
 40
0.0
 40
0.0
 40
0.0
 40
0.1142431367
 40
0.2375406254
 40
0.4999939349
 40
0.7624505639
 40
0.88575193
 40
1.0
 40
1.0
 40
1.0
 40
1.0
 10
-15.0663074454
 20
-7.2211347642
 30
0.0
 10
-15.0663074454
 20
-7.3049680445
 30
0.0
 10
-15.0509538998
 20
-7.4794551647
 30
0.0
 10
-14.9675579991
 20
-7.8376580607
 30
0.0
 10
-14.7738476801
 20
-8.2770144897
 30
0.0
 10
-14.4902069132
 20
-8.6644523572
 30
0.0
 10
-14.2216877795
 20
-8.915785093
 30
0.0
 10
-14.0782509898
 20
-9.0163315936
 30
0.0
 10
-14.0056472736
 20
-9.0582520693
 30
0.0
  0
SPLINE
  5
5F9
100
AcDbEntity
  8
0
100
AcDbSpline
 62
7
  6
CONTINUOUS
 70
0
 71
3
 72
13
 73
9
 74
0
 42
0.0000001
 43
0.0000001
 44
0.0000000001
 40
0.0
 40
0.0
 40
0.0
 40
0.0
 40
0.1142431367
 40
0.2375406254
 40
0.4999939349
 40
0.7624505639
 40
0.88575193
 40
1.0
 40
1.0
 40
1.0
 40
1.0
 10
-15.0663074454
 20
0.4536858377
 30
0.0
 10
-15.0663074454
 20
0.3698525573
 30
0.0
 10
-15.0509538998
 20
0.1953654372
 30
0.0
 10
-14.9675579991
 20
-0.1628374589
 30
0.0
 10
-14.7738476801
 20
-0.6021938879
 30
0.0
 10
-14.4902069132
 20
-0.9896317553
 30
0.0
 10
-14.2216877795
 20
-1.2409644911
 30
0.0
 10
-14.0782509898
 20
-1.3415109917
 30
0.0
 10
-14.0056472736
 20
-1.3834314675
 30
0.0
  0
SPLINE
  5
5FA
100
AcDbEntity
  8
0
100
AcDbSpline
 62
250
  6
CONTINUOUS
 70
0
 71
3
 72
11
 73
7
 74
0
 42
0.0000001
 43
0.0000001
 44
0.0000000001
 40
0.0
 40
0.0
 40
0.0
 40
0.0
 40
0.2220303681
 40
0.4575910171
 40
0.7156250575
 40
1.0
 40
1.0
 40
1.0
 40
1.0
 10
-9.9084397199
 20
-5.0362738381
 30
0.0
 10
-9.9630115791
 20
-5.0693350593
 30
0.0
 10
-10.0875857299
 20
-5.1190539995
 30
0.0
 10
-10.2952979736
 20
-5.1342410313
 30
0.0
 10
-10.5170516945
 20
-5.0930340367
 30
0.0
 10
-10.661972197
 20
-5.0327286022
 30
0.0
 10
-10.7345580149
 20
-4.9951825061
 30
0.0
  0
SPLINE
  5
5FB
100
AcDbEntity
  8
0
100
AcDbSpline
 62
250
  6
CONTINUOUS
 70
0
 71
3
 72
11
 73
7
 74
0
 42
0.0000001
 43
0.0000001
 44
0.0000000001
 40
0.0
 40
0.0
 40
0.0
 40
0.0
 40
0.2195107851
 40
0.4542061971
 40
0.713171617
 40
1.0
 40
1.0
 40
1.0
 40
1.0
 10
-9.8821874153
 20
-12.6951789597
 30
0.0
 10
-9.9355064923
 20
-12.7274791496
 30
0.0
 10
-10.0580488824
 20
-12.7756749224
 30
0.0
 10
-10.2627502145
 20
-12.7888020382
 30
0.0
 10
-10.4822473078
 20
-12.746338296
 30
0.0
 10
-10.6261070812
 20
-12.6859054835
 30
0.0
 10
-10.6984216537
 20
-12.6484101075
 30
0.0
  0
SPLINE
  5
5FC
100
AcDbEntity
  8
0
100
AcDbSpline
 62
250
  6
CONTINUOUS
 70
0
 71
3
 72
15
 73
11
 74
0
 42
0.0000001
 43
0.0000001
 44
0.0000000001
 40
0.0
 40
0.0
 40
0.0
 40
0.0
 40
0.1460279489
 40
0.2765102762
 40
0.3935370722
 40
0.5023659821
 40
0.6107845331
 40
0.7267074669
 40
0.8556661394
 40
1.0
 40
1.0
 40
1.0
 40
1.0
 10
-17.0277607238
 20
0.3404838972
 30
0.0
 10
-17.0267111941
 20
0.43431871
 30
0.0
 10
-17.0108135406
 20
0.6124432768
 30
0.0
 10
-16.9371721336
 20
0.8566095032
 30
0.0
 10
-16.8154737892
 20
1.0543862261
 30
0.0
 10
-16.6477159384
 20
1.1952073921
 30
0.0
 10
-16.4422343161
 20
1.2691110478
 30
0.0
 10
-16.2119140015
 20
1.2736655299
 30
0.0
 10
-15.9670909723
 20
1.212602843
 30
0.0
 10
-15.8080961524
 20
1.1352900893
 30
0.0
 10
-15.7281531621
 20
1.088257586
 30
0.0
  0
SPLINE
  5
5FD
100
AcDbEntity
  8
0
100
AcDbSpline
 62
250
  6
CONTINUOUS
 70
0
 71
3
 72
13
 73
9
 74
0
 42
0.0000001
 43
0.0000001
 44
0.0000000001
 40
0.0
 40
0.0
 40
0.0
 40
0.0
 40
0.113701298
 40
0.2364590266
 40
0.4983986658
 40
0.7613403051
 40
0.8851585042
 40
1.0
 40
1.0
 40
1.0
 40
1.0
 10
-15.7661813893
 20
-2.6722026034
 30
0.0
 10
-15.8544110775
 20
-2.6202257993
 30
0.0
 10
-16.0284015156
 20
-2.4955703
 30
0.0
 10
-16.3529188472
 20
-2.1838437661
 30
0.0
 10
-16.6933576885
 20
-1.7033085487
 30
0.0
 10
-16.9227340931
 20
-1.1601013732
 30
0.0
 10
-17.0196337967
 20
-0.7177921128
 30
0.0
 10
-17.036232147
 20
-0.5024763454
 30
0.0
 10
-17.0352851493
 20
-0.3990523033
 30
0.0
  0
SPLINE
  5
5FE
100
AcDbEntity
  8
0
100
AcDbSpline
 62
250
  6
CONTINUOUS
 70
0
 71
3
 72
9
 73
5
 74
0
 42
0.0000001
 43
0.0000001
 44
0.0000000001
 40
0.0
 40
0.0
 40
0.0
 40
0.0
 40
0.252489744
 40
1.0
 40
1.0
 40
1.0
 40
1.0
 10
-10.9332120438
 20
-5.3644177167
 30
0.0
 10
-11.3451924337
 20
-5.1474191653
 30
0.0
 10
-12.9718942695
 20
-4.2785898854
 30
0.0
 10
-14.5783938586
 20
-3.3718686676
 30
0.0
 10
-15.7661813893
 20
-2.6722026034
 30
0.0
  0
SPLINE
  5
5FF
100
AcDbEntity
  8
0
100
AcDbSpline
 62
250
  6
CONTINUOUS
 70
0
 71
3
 72
15
 73
11
 74
0
 42
0.0000001
 43
0.0000001
 44
0.0000000001
 40
0.0
 40
0.0
 40
0.0
 40
0.0
 40
0.1409115534
 40
0.2685051976
 40
0.3852331274
 40
0.4960574793
 40
0.6076098741
 40
0.7262736909
 40
0.8564502661
 40
1.0
 40
1.0
 40
1.0
 40
1.0
 10
-9.5548067627
 20
-4.5697331374
 30
0.0
 10
-9.5555759306
 20
-4.6638008279
 30
0.0
 10
-9.5722801802
 20
-4.8436021832
 30
0.0
 10
-9.6511727968
 20
-5.0908752819
 30
0.0
 10
-9.7816173796
 20
-5.292839378
 30
0.0
 10
-9.9599202791
 20
-5.438717099
 30
0.0
 10
-10.1768669759
 20
-5.5196664225
 30
0.0
 10
-10.4202024734
 20
-5.5331084181
 30
0.0
 10
-10.6792231057
 20
-5.4813091225
 30
0.0
 10
-10.8484204408
 20
-5.4090738059
 30
0.0
 10
-10.9332120438
 20
-5.3644177167
 30
0.0
  0
SPLINE
  5
600
100
AcDbEntity
  8
0
100
AcDbSpline
 62
250
  6
CONTINUOUS
 70
0
 71
3
 72
11
 73
7
 74
0
 42
0.0000001
 43
0.0000001
 44
0.0000000001
 40
0.0
 40
0.0
 40
0.0
 40
0.0
 40
0.2441915132
 40
0.5067344279
 40
0.7656050192
 40
1.0
 40
1.0
 40
1.0
 40
1.0
 10
-10.7859849201
 20
-1.6723288275
 30
0.0
 10
-10.6077128706
 20
-1.7829581028
 30
0.0
 10
-10.27270866
 20
-2.0702022704
 30
0.0
 10
-9.881079162
 20
-2.6048595474
 30
0.0
 10
-9.6176934343
 20
-3.2039579177
 30
0.0
 10
-9.5461842692
 20
-3.6289867398
 30
0.0
 10
-9.5481580212
 20
-3.8303687721
 30
0.0
  0
SPLINE
  5
601
100
AcDbEntity
  8
0
100
AcDbSpline
 62
250
  6
CONTINUOUS
 70
0
 71
3
 72
9
 73
5
 74
0
 42
0.0000001
 43
0.0000001
 44
0.0000000001
 40
0.0
 40
0.0
 40
0.0
 40
0.0
 40
0.2475534055
 40
1.0
 40
1.0
 40
1.0
 40
1.0
 10
-15.6205654039
 20
1.0247238858
 30
0.0
 10
-15.2357912135
 20
0.7988072228
 30
0.0
 10
-13.6762568709
 20
-0.1048659245
 30
0.0
 10
-12.0962126221
 20
-0.9730910173
 30
0.0
 10
-10.8972456158
 20
-1.6069820264
 30
0.0
  0
SPLINE
  5
602
100
AcDbEntity
  8
0
100
AcDbSpline
 62
250
  6
CONTINUOUS
 70
0
 71
3
 72
15
 73
11
 74
0
 42
0.0000001
 43
0.0000001
 44
0.0000000001
 40
0.0
 40
0.0
 40
0.0
 40
0.0
 40
0.1462040906
 40
0.2761423449
 40
0.39210753
 40
0.4997835318
 40
0.6075182579
 40
0.7236258037
 40
0.8537181984
 40
1.0
 40
1.0
 40
1.0
 40
1.0
 10
-17.0352851493
 20
-7.3441787777
 30
0.0
 10
-17.0361424362
 20
-7.2515811704
 30
0.0
 10
-17.0241416643
 20
-7.0759613835
 30
0.0
 10
-16.956425645
 20
-6.8347880484
 30
0.0
 10
-16.8400776576
 20
-6.639559546
 30
0.0
 10
-16.6766263488
 20
-6.5010389545
 30
0.0
 10
-16.4745992765
 20
-6.4294852232
 30
0.0
 10
-16.2471548467
 20
-6.4268654842
 30
0.0
 10
-16.0042768234
 20
-6.4890514782
 30
0.0
 10
-15.846027264
 20
-6.5664515684
 30
0.0
 10
-15.7661813893
 20
-6.6134495069
 30
0.0
  0
SPLINE
  5
603
100
AcDbEntity
  8
0
100
AcDbSpline
 62
250
  6
CONTINUOUS
 70
0
 71
3
 72
11
 73
7
 74
0
 42
0.0000001
 43
0.0000001
 44
0.0000000001
 40
0.0
 40
0.0
 40
0.0
 40
0.0
 40
0.2347868513
 40
0.4965518109
 40
0.7601973746
 40
1.0
 40
1.0
 40
1.0
 40
1.0
 10
-17.0277607238
 20
-8.075375326
 30
0.0
 10
-16.998200375
 20
-8.0933085153
 30
0.0
 10
-16.9285969764
 20
-8.1196253273
 30
0.0
 10
-16.8165267907
 20
-8.1325066355
 30
0.0
 10
-16.7036095495
 20
-8.1205384228
 30
0.0
 10
-16.6327414814
 20
-8.0949831957
 30
0.0
 10
-16.6020881524
 20
-8.0774501425
 30
0.0
  0
SPLINE
  5
604
100
AcDbEntity
  8
0
100
AcDbSpline
 62
250
  6
CONTINUOUS
 70
0
 71
3
 72
11
 73
7
 74
0
 42
0.0000001
 43
0.0000001
 44
0.0000000001
 40
0.0
 40
0.0
 40
0.0
 40
0.0
 40
0.2353205458
 40
0.497195959
 40
0.7605988728
 40
1.0
 40
1.0
 40
1.0
 40
1.0
 10
-15.728153162
 20
-10.3300993644
 30
0.0
 10
-15.7286790626
 20
-10.2955917668
 30
0.0
 10
-15.7164369106
 20
-10.2224383934
 30
0.0
 10
-15.6716131703
 20
-10.1193701963
 30
0.0
 10
-15.6051670682
 20
-10.0279777565
 30
0.0
 10
-15.5480118112
 20
-9.9795407331
 30
0.0
 10
-15.5177242266
 20
-9.9617818448
 30
0.0
  0
SPLINE
  5
605
100
AcDbEntity
  8
0
100
AcDbSpline
 62
250
  6
CONTINUOUS
 70
0
 71
3
 72
11
 73
7
 74
0
 42
0.0000001
 43
0.0000001
 44
0.0000000001
 40
0.0
 40
0.0
 40
0.0
 40
0.0
 40
0.2370248223
 40
0.5005835141
 40
0.763825796
 40
1.0
 40
1.0
 40
1.0
 40
1.0
 10
-10.8972641766
 20
-13.0229880196
 30
0.0
 10
-10.8977677736
 20
-12.988366501
 30
0.0
 10
-10.8862022907
 20
-12.9150379414
 30
0.0
 10
-10.8440436296
 20
-12.8109224336
 30
0.0
 10
-10.7815115227
 20
-12.717761308
 30
0.0
 10
-10.7273249527
 20
-12.6672490158
 30
0.0
 10
-10.6984215497
 20
-12.6484100454
 30
0.0
  0
SPLINE
  5
606
100
AcDbEntity
  8
0
100
AcDbSpline
 62
250
  6
CONTINUOUS
 70
0
 71
3
 72
11
 73
7
 74
0
 42
0.0000001
 43
0.0000001
 44
0.0000000001
 40
0.0
 40
0.0
 40
0.0
 40
0.0
 40
0.2914014072
 40
0.5518243314
 40
0.7842349978
 40
1.0
 40
1.0
 40
1.0
 40
1.0
 10
-9.5481580212
 20
-12.2457609722
 30
0.0
 10
-9.56299856
 20
-12.2381632588
 30
0.0
 10
-9.5900210372
 20
-12.2214239253
 30
0.0
 10
-9.6226954881
 20
-12.1900711212
 30
0.0
 10
-9.6437102757
 20
-12.1546947638
 30
0.0
 10
-9.6488378719
 20
-12.1289243613
 30
0.0
 10
-9.6489920478
 20
-12.116580473
 30
0.0
  0
SPLINE
  5
607
100
AcDbEntity
  8
0
100
AcDbSpline
 62
250
  6
CONTINUOUS
 70
0
 71
3
 72
11
 73
7
 74
0
 42
0.0000001
 43
0.0000001
 44
0.0000000001
 40
0.0
 40
0.0
 40
0.0
 40
0.0
 40
0.2916962351
 40
0.5521878843
 40
0.7844610512
 40
1.0
 40
1.0
 40
1.0
 40
1.0
 10
-9.5548067627
 20
-11.5144741343
 30
0.0
 10
-9.5696912949
 20
-11.5068564627
 30
0.0
 10
-9.5967849337
 20
-11.4900778646
 30
0.0
 10
-9.6295248615
 20
-11.4586487271
 30
0.0
 10
-9.6505342132
 20
-11.4231927718
 30
0.0
 10
-9.655593955
 20
-11.3973735163
 30
0.0
 10
-9.6557007566
 20
-11.3850188682
 30
0.0
  0
SPLINE
  5
608
100
AcDbEntity
  8
0
100
AcDbSpline
 62
250
  6
CONTINUOUS
 70
0
 71
3
 72
11
 73
7
 74
0
 42
0.0000001
 43
0.0000001
 44
0.0000000001
 40
0.0
 40
0.0
 40
0.0
 40
0.0
 40
0.2943212971
 40
0.555729958
 40
0.7868803902
 40
1.0
 40
1.0
 40
1.0
 40
1.0
 10
-10.9332120439
 20
-9.3088915782
 30
0.0
 10
-10.9331500006
 20
-9.324244994
 30
0.0
 10
-10.930737563
 20
-9.353314426
 30
0.0
 10
-10.9190877891
 20
-9.3930606
 30
0.0
 10
-10.8993920984
 20
-9.4248056858
 30
0.0
 10
-10.8808478037
 20
-9.4396658936
 30
0.0
 10
-10.8710165194
 20
-9.4448568902
 30
0.0
  0
SPLINE
  5
609
100
AcDbEntity
  8
0
100
AcDbSpline
 62
250
  6
CONTINUOUS
 70
0
 71
3
 72
11
 73
7
 74
0
 42
0.0000001
 43
0.0000001
 44
0.0000000001
 40
0.0
 40
0.0
 40
0.0
 40
0.0
 40
0.287676192
 40
0.5470844595
 40
0.7809995128
 40
1.0
 40
1.0
 40
1.0
 40
1.0
 10
-15.7661813893
 20
-6.6134495069
 30
0.0
 10
-15.766100421
 20
-6.6283682139
 30
0.0
 10
-15.7636263809
 20
-6.6568147638
 30
0.0
 10
-15.7519519732
 20
-6.6959707059
 30
0.0
 10
-15.7323378478
 20
-6.7278544513
 30
0.0
 10
-15.7140640298
 20
-6.7433923383
 30
0.0
 10
-15.7042843764
 20
-6.7491671808
 30
0.0
  0
SPLINE
  5
60A
100
AcDbEntity
  8
0
100
AcDbSpline
 62
250
  6
CONTINUOUS
 70
0
 71
3
 72
11
 73
7
 74
0
 42
0.0000001
 43
0.0000001
 44
0.0000000001
 40
0.0
 40
0.0
 40
0.0
 40
0.0
 40
0.2348463004
 40
0.4966808373
 40
0.7603252549
 40
1.0
 40
1.0
 40
1.0
 40
1.0
 10
-17.0352851493
 20
-7.3441787778
 30
0.0
 10
-17.0057210144
 20
-7.3621175736
 30
0.0
 10
-16.9361219637
 20
-7.3884681566
 30
0.0
 10
-16.8240595729
 20
-7.4014713132
 30
0.0
 10
-16.7111451277
 20
-7.3896808597
 30
0.0
 10
-16.6402528959
 20
-7.3642711483
 30
0.0
 10
-16.6095850099
 20
-7.3468069662
 30
0.0
  0
SPLINE
  5
60B
100
AcDbEntity
  8
0
100
AcDbSpline
 62
250
  6
CONTINUOUS
 70
0
 71
3
 72
11
 73
7
 74
0
 42
0.0000001
 43
0.0000001
 44
0.0000000001
 40
0.0
 40
0.0
 40
0.0
 40
0.0
 40
0.2354743829
 40
0.4979678712
 40
0.76156748
 40
1.0
 40
1.0
 40
1.0
 40
1.0
 10
-17.0352851493
 20
-0.3990523033
 30
0.0
 10
-17.005677953
 20
-0.4170118777
 30
0.0
 10
-16.9361403527
 20
-0.4436303241
 30
0.0
 10
-16.8242145547
 20
-0.4577428929
 30
0.0
 10
-16.7114181924
 20
-0.447620092
 30
0.0
 10
-16.6403640627
 20
-0.4236054888
 30
0.0
 10
-16.6095850324
 20
-0.4068096254
 30
0.0
  0
SPLINE
  5
60C
100
AcDbEntity
  8
0
100
AcDbSpline
 62
250
  6
CONTINUOUS
 70
0
 71
3
 72
11
 73
7
 74
0
 42
0.0000001
 43
0.0000001
 44
0.0000000001
 40
0.0
 40
0.0
 40
0.0
 40
0.0
 40
0.2367586096
 40
0.4986667167
 40
0.7612990796
 40
1.0
 40
1.0
 40
1.0
 40
1.0
 10
-15.7661813892
 20
-2.6722026035
 30
0.0
 10
-15.76599644
 20
-2.6379272716
 30
0.0
 10
-15.7529034698
 20
-2.5657482637
 30
0.0
 10
-15.7077873844
 20
-2.4642996329
 30
0.0
 10
-15.6418549815
 20
-2.3746172663
 30
0.0
 10
-15.5854932913
 20
-2.3271148365
 30
0.0
 10
-15.5556795643
 20
-2.3096411586
 30
0.0
  0
SPLINE
  5
60D
100
AcDbEntity
  8
0
100
AcDbSpline
 62
250
  6
CONTINUOUS
 70
0
 71
3
 72
11
 73
7
 74
0
 42
0.0000001
 43
0.0000001
 44
0.0000000001
 40
0.0
 40
0.0
 40
0.0
 40
0.0
 40
0.2384976562
 40
0.5021006484
 40
0.7645675089
 40
1.0
 40
1.0
 40
1.0
 40
1.0
 10
-10.9332120438
 20
-5.3644177167
 30
0.0
 10
-10.933073933
 20
-5.3300094889
 30
0.0
 10
-10.9207679109
 20
-5.2575786268
 30
0.0
 10
-10.878398127
 20
-5.1549569839
 30
0.0
 10
-10.8164050263
 20
-5.06338981
 30
0.0
 10
-10.7629969618
 20
-5.0137547044
 30
0.0
 10
-10.7345579079
 20
-4.9951824422
 30
0.0
  0
SPLINE
  5
60E
100
AcDbEntity
  8
0
100
AcDbSpline
 62
250
  6
CONTINUOUS
 70
0
 71
3
 72
11
 73
7
 74
0
 42
0.0000001
 43
0.0000001
 44
0.0000000001
 40
0.0
 40
0.0
 40
0.0
 40
0.0
 40
0.2939499547
 40
0.5551736637
 40
0.7865443012
 40
1.0
 40
1.0
 40
1.0
 40
1.0
 10
-9.5548067627
 20
-4.5697331372
 30
0.0
 10
-9.5698158275
 20
-4.5620383114
 30
0.0
 10
-9.5970865962
 20
-4.5451648949
 30
0.0
 10
-9.6299895004
 20
-4.5136671054
 30
0.0
 10
-9.6509503337
 20
-4.4782658281
 30
0.0
 10
-9.6557736038
 20
-4.4525168648
 30
0.0
 10
-9.6557029475
 20
-4.4402691572
 30
0.0
  0
SPLINE
  5
60F
100
AcDbEntity
  8
0
100
AcDbSpline
 62
250
  6
CONTINUOUS
 70
0
 71
3
 72
11
 73
7
 74
0
 42
0.0000001
 43
0.0000001
 44
0.0000000001
 40
0.0
 40
0.0
 40
0.0
 40
0.0
 40
0.2942265964
 40
0.5555132785
 40
0.7867544972
 40
1.0
 40
1.0
 40
1.0
 40
1.0
 10
-9.5481580212
 20
-3.8303687721
 30
0.0
 10
-9.5631929854
 20
-3.8226553253
 30
0.0
 10
-9.5905015681
 20
-3.8057487055
 30
0.0
 10
-9.6234289585
 20
-3.7741956857
 30
0.0
 10
-9.6443595044
 20
-3.7387452726
 30
0.0
 10
-9.649111632
 20
-3.7129724281
 30
0.0
 10
-9.6489956823
 20
-3.7007257698
 30
0.0
  0
SPLINE
  5
610
100
AcDbEntity
  8
0
100
AcDbSpline
 62
250
  6
CONTINUOUS
 70
0
 71
3
 72
11
 73
7
 74
0
 42
0.0000001
 43
0.0000001
 44
0.0000000001
 40
0.0
 40
0.0
 40
0.0
 40
0.0
 40
0.2955000405
 40
0.5574152393
 40
0.788087233
 40
1.0
 40
1.0
 40
1.0
 40
1.0
 10
-10.8972641767
 20
-1.6083358826
 30
0.0
 10
-10.8974923635
 20
-1.6242857287
 30
0.0
 10
-10.8955324345
 20
-1.6544998172
 30
0.0
 10
-10.8841555497
 20
-1.6958963096
 30
0.0
 10
-10.8642497594
 20
-1.7289833891
 30
0.0
 10
-10.8452033996
 20
-1.744439092
 30
0.0
 10
-10.8350913527
 20
-1.7497874316
 30
0.0
  0
SPLINE
  5
611
100
AcDbEntity
  8
0
100
AcDbSpline
 62
250
  6
CONTINUOUS
 70
0
 71
3
 72
11
 73
7
 74
0
 42
0.0000001
 43
0.0000001
 44
0.0000000001
 40
0.0
 40
0.0
 40
0.0
 40
0.0
 40
0.2890219208
 40
0.5489471985
 40
0.7823018912
 40
1.0
 40
1.0
 40
1.0
 40
1.0
 10
-15.7281531621
 20
1.088257586
 30
0.0
 10
-15.7283858962
 20
1.0727176964
 30
0.0
 10
-15.7264024352
 20
1.0430736008
 30
0.0
 10
-15.7150176256
 20
1.0021824024
 30
0.0
 10
-15.6951648504
 20
0.9688889823
 30
0.0
 10
-15.6763589344
 20
0.9527208057
 30
0.0
 10
-15.6662764414
 20
0.9467725847
 30
0.0
  0
SPLINE
  5
612
100
AcDbEntity
  8
0
100
AcDbSpline
 62
250
  6
CONTINUOUS
 70
0
 71
3
 72
11
 73
7
 74
0
 42
0.0000001
 43
0.0000001
 44
0.0000000001
 40
0.0
 40
0.0
 40
0.0
 40
0.0
 40
0.2355482781
 40
0.4981117764
 40
0.7617028233
 40
1.0
 40
1.0
 40
1.0
 40
1.0
 10
-17.0277607238
 20
0.3404838971
 30
0.0
 10
-16.9981481971
 20
0.3225254415
 30
0.0
 10
-16.9286192227
 20
0.2958839001
 30
0.0
 10
-16.8167144895
 20
0.2816582006
 30
0.0
 10
-16.7039403325
 20
0.2916056811
 30
0.0
 10
-16.632876151
 20
0.3154704585
 30
0.0
 10
-16.6020881776
 20
0.332193694
 30
0.0
  0
SPLINE
  5
613
100
AcDbEntity
  8
0
100
AcDbSpline
 62
250
  6
CONTINUOUS
 70
0
 71
3
 72
9
 73
5
 74
0
 42
0.0000001
 43
0.0000001
 44
0.0000000001
 40
0.0
 40
0.0
 40
0.0
 40
0.0
 40
0.2524347769
 40
1.0
 40
1.0
 40
1.0
 40
1.0
 10
-10.6984215497
 20
-12.6484100454
 30
0.0
 10
-11.1090474263
 20
-12.431706582
 30
0.0
 10
-12.7308433906
 20
-11.5640735974
 30
0.0
 10
-14.3328706647
 20
-10.659425733
 30
0.0
 10
-15.5177242074
 20
-9.9617818327
 30
0.0
  0
SPLINE
  5
614
100
AcDbEntity
  8
0
100
AcDbSpline
 62
250
  6
CONTINUOUS
 70
0
 71
3
 72
13
 73
9
 74
0
 42
0.0000001
 43
0.0000001
 44
0.0000000001
 40
0.0
 40
0.0
 40
0.0
 40
0.0
 40
0.113993794
 40
0.2371671021
 40
0.4998448378
 40
0.7627301223
 40
0.8860392379
 40
1.0
 40
1.0
 40
1.0
 40
1.0
 10
-15.7281531621
 20
-10.3300993644
 30
0.0
 10
-15.8164437127
 20
-10.2781066341
 30
0.0
 10
-15.9908493943
 20
-10.1537524196
 30
0.0
 10
-16.3175331046
 20
-9.8437855476
 30
0.0
 10
-16.6631081007
 20
-9.3675080978
 30
0.0
 10
-16.9009305252
 20
-8.8292578056
 30
0.0
 10
-17.0057620239
 20
-8.3910471665
 30
0.0
 10
-17.026600147
 20
-8.1778010796
 30
0.0
 10
-17.0277607238
 20
-8.075375326
 30
0.0
  0
SPLINE
  5
615
100
AcDbEntity
  8
0
100
AcDbSpline
 62
250
  6
CONTINUOUS
 70
0
 71
3
 72
13
 73
9
 74
0
 42
0.0000001
 43
0.0000001
 44
0.0000000001
 40
0.0
 40
0.0
 40
0.0
 40
0.0
 40
0.1139563285
 40
0.2371429303
 40
0.4999118654
 40
0.7628381995
 40
0.8861151562
 40
1.0
 40
1.0
 40
1.0
 40
1.0
 10
-15.5177242271
 20
-9.9617818445
 30
0.0
 10
-15.5913642484
 20
-9.9182546529
 30
0.0
 10
-15.7368131509
 20
-9.8141425537
 30
0.0
 10
-16.0091934955
 20
-9.5547340657
 30
0.0
 10
-16.2971931563
 20
-9.1564245434
 30
0.0
 10
-16.4955134528
 20
-8.7067573137
 30
0.0
 10
-16.5832544264
 20
-8.340900676
 30
0.0
 10
-16.6009357424
 20
-8.1629309372
 30
0.0
 10
-16.6020881822
 20
-8.077450159
 30
0.0
  0
SPLINE
  5
616
100
AcDbEntity
  8
0
100
AcDbSpline
 62
250
  6
CONTINUOUS
 70
0
 71
3
 72
9
 73
5
 74
0
 42
0.0000001
 43
0.0000001
 44
0.0000000001
 40
0.0
 40
0.0
 40
0.0
 40
0.0
 40
0.2521656346
 40
1.0
 40
1.0
 40
1.0
 40
1.0
 10
-10.8972641766
 20
-13.0229880196
 30
0.0
 10
-11.2654449214
 20
-12.8287222682
 30
0.0
 10
-12.7216076133
 20
-12.0509457729
 30
0.0
 10
-14.1618968404
 20
-11.2434105508
 30
0.0
 10
-15.228889034
 20
-10.6223796974
 30
0.0
  0
SPLINE
  5
617
100
AcDbEntity
  8
0
100
AcDbSpline
 62
250
  6
CONTINUOUS
 70
0
 71
3
 72
8
 73
4
 74
0
 42
0.0000001
 43
0.0000001
 44
0.0000000001
 40
0.0
 40
0.0
 40
0.0
 40
0.0
 40
1.0
 40
1.0
 40
1.0
 40
1.0
 10
-16.6020881524
 20
-8.0774501425
 30
0.0
 10
-16.6048278991
 20
-7.8339050107
 30
0.0
 10
-16.6073265935
 20
-7.5903570487
 30
0.0
 10
-16.6095850324
 20
-7.3468069782
 30
0.0
  0
SPLINE
  5
618
100
AcDbEntity
  8
0
100
AcDbSpline
 62
250
  6
CONTINUOUS
 70
0
 71
3
 72
11
 73
7
 74
0
 42
0.0000001
 43
0.0000001
 44
0.0000000001
 40
0.0
 40
0.0
 40
0.0
 40
0.0
 40
0.2934449664
 40
0.5534923346
 40
0.7849927671
 40
1.0
 40
1.0
 40
1.0
 40
1.0
 10
-16.6095850099
 20
-7.3468069656
 30
0.0
 10
-16.6104527846
 20
-7.2684290333
 30
0.0
 10
-16.6005085154
 20
-7.1199511564
 30
0.0
 10
-16.5429970508
 20
-6.916326238
 30
0.0
 10
-16.4438970325
 20
-6.7524274193
 30
0.0
 10
-16.3493964469
 20
-6.67490165
 30
0.0
 10
-16.299063274
 20
-6.6472448562
 30
0.0
  0
SPLINE
  5
619
100
AcDbEntity
  8
0
100
AcDbSpline
 62
250
  6
CONTINUOUS
 70
0
 71
3
 72
15
 73
11
 74
0
 42
0.0000001
 43
0.0000001
 44
0.0000000001
 40
0.0
 40
0.0
 40
0.0
 40
0.0
 40
0.1409801133
 40
0.2680480954
 40
0.3838480116
 40
0.4937126097
 40
0.6047232716
 40
0.7235777965
 40
0.8547508736
 40
1.0
 40
1.0
 40
1.0
 40
1.0
 10
-9.5481580212
 20
-12.2457609723
 30
0.0
 10
-9.5472370555
 20
-12.3385393872
 30
0.0
 10
-9.5604335541
 20
-12.5157719479
 30
0.0
 10
-9.6339465778
 20
-12.7599663321
 30
0.0
 10
-9.7594872385
 20
-12.9592911593
 30
0.0
 10
-9.9337032359
 20
-13.102761609
 30
0.0
 10
-10.1472246084
 20
-13.1813657008
 30
0.0
 10
-10.3876400652
 20
-13.1928893933
 30
0.0
 10
-10.6445092772
 20
-13.1399332217
 30
0.0
 10
-10.8127164911
 20
-13.0675932126
 30
0.0
 10
-10.8972641766
 20
-13.0229880196
 30
0.0
  0
SPLINE
  5
61A
100
AcDbEntity
  8
0
100
AcDbSpline
 62
250
  6
CONTINUOUS
 70
0
 71
3
 72
11
 73
7
 74
0
 42
0.0000001
 43
0.0000001
 44
0.0000000001
 40
0.0
 40
0.0
 40
0.0
 40
0.0
 40
0.244924277
 40
0.5081147596
 40
0.7668945201
 40
1.0
 40
1.0
 40
1.0
 40
1.0
 10
-10.8244857474
 20
-9.3710537015
 30
0.0
 10
-10.6451898458
 20
-9.4813167858
 30
0.0
 10
-10.3073463056
 20
-9.7668483815
 30
0.0
 10
-9.9085346433
 20
-10.2975204259
 30
0.0
 10
-9.6357946643
 20
-10.89167598
 30
0.0
 10
-9.5564622942
 20
-11.3141505731
 30
0.0
 10
-9.5548067627
 20
-11.5144741343
 30
0.0
  0
SPLINE
  5
61B
100
AcDbEntity
  8
0
100
AcDbSpline
 62
250
  6
CONTINUOUS
 70
0
 71
3
 72
9
 73
5
 74
0
 42
0.0000001
 43
0.0000001
 44
0.0000000001
 40
0.0
 40
0.0
 40
0.0
 40
0.0
 40
0.2524879662
 40
1.0
 40
1.0
 40
1.0
 40
1.0
 10
-10.7345579079
 20
-4.9951824422
 30
0.0
 10
-11.1455292845
 20
-4.7787310577
 30
0.0
 10
-12.7682549255
 20
-3.9120784294
 30
0.0
 10
-14.3708131905
 20
-3.0075969479
 30
0.0
 10
-15.5556795438
 20
-2.3096411457
 30
0.0
  0
SPLINE
  5
61C
100
AcDbEntity
  8
0
100
AcDbSpline
 62
250
  6
CONTINUOUS
 70
0
 71
3
 72
9
 73
5
 74
0
 42
0.0000001
 43
0.0000001
 44
0.0000000001
 40
0.0
 40
0.0
 40
0.0
 40
0.0
 40
0.2474928996
 40
1.0
 40
1.0
 40
1.0
 40
1.0
 10
-15.6610817
 20
-6.6752435975
 30
0.0
 10
-15.2760692435
 20
-6.901341333
 30
0.0
 10
-13.7151422148
 20
-7.8058855557
 30
0.0
 10
-12.1335227613
 20
-8.6746664011
 30
0.0
 10
-10.9332120438
 20
-9.3088915783
 30
0.0
  0
SPLINE
  5
61D
100
AcDbEntity
  8
0
100
AcDbSpline
 62
250
  6
CONTINUOUS
 70
0
 71
3
 72
12
 73
8
 74
0
 42
0.0000001
 43
0.0000001
 44
0.0000000001
 40
0.0
 40
0.0
 40
0.0
 40
0.0
 40
0.2358145664
 40
0.4978646872
 40
0.7610218036
 40
0.8849868246
 40
1.0
 40
1.0
 40
1.0
 40
1.0
 10
-15.5556795648
 20
-2.3096411583
 30
0.0
 10
-15.7083182185
 20
-2.2193723125
 30
0.0
 10
-15.9959634548
 20
-1.9696978308
 30
0.0
 10
-16.3271195558
 20
-1.4982149839
 30
0.0
 10
-16.5172574107
 20
-1.0432619763
 30
0.0
 10
-16.5970647807
 20
-0.673347576
 30
0.0
 10
-16.6105305485
 20
-0.4932946095
 30
0.0
 10
-16.6095850067
 20
-0.4068096111
 30
0.0
  0
SPLINE
  5
61E
100
AcDbEntity
  8
0
100
AcDbSpline
 62
250
  6
CONTINUOUS
 70
0
 71
3
 72
8
 73
4
 74
0
 42
0.0000001
 43
0.0000001
 44
0.0000000001
 40
0.0
 40
0.0
 40
0.0
 40
0.0
 40
1.0
 40
1.0
 40
1.0
 40
1.0
 10
-16.6095850324
 20
-0.4068096254
 30
0.0
 10
-16.6073241322
 20
-0.1604728808
 30
0.0
 10
-16.6048249166
 20
0.0858617911
 30
0.0
 10
-16.6020881524
 20
0.3321937085
 30
0.0
  0
SPLINE
  5
61F
100
AcDbEntity
  8
0
100
AcDbSpline
 62
250
  6
CONTINUOUS
 70
0
 71
3
 72
11
 73
7
 74
0
 42
0.0000001
 43
0.0000001
 44
0.0000000001
 40
0.0
 40
0.0
 40
0.0
 40
0.0
 40
0.2912143781
 40
0.550973978
 40
0.7835948496
 40
1.0
 40
1.0
 40
1.0
 40
1.0
 10
-16.6020881776
 20
0.3321936945
 30
0.0
 10
-16.6010305383
 20
0.4118361564
 30
0.0
 10
-16.5871470537
 20
0.562874892
 30
0.0
 10
-16.5236330198
 20
0.7695495482
 30
0.0
 10
-16.4191177449
 20
0.9360242484
 30
0.0
 10
-16.3215380592
 20
1.0152187041
 30
0.0
 10
-16.2696648164
 20
1.0437222457
 30
0.0
  0
SPLINE
  5
620
100
AcDbEntity
  8
ASSI
100
AcDbSpline
 62
7
  6
CONTINUOUS
 70
0
 71
3
 72
11
 73
7
 74
0
 42
0.0000001
 43
0.0000001
 44
0.0000000001
 40
0.0
 40
0.0
 40
0.0
 40
0.0
 40
0.1225675082
 40
0.3282057078
 40
0.6221278344
 40
1.0
 40
1.0
 40
1.0
 40
1.0
 10
-0.9154429316
 20
18.5045651701
 30
0.0
 10
-0.9182611256
 20
18.5030001342
 30
0.0
 10
-0.9235090603
 20
18.4955209489
 30
0.0
 10
-0.9292591095
 20
18.4803490184
 30
0.0
 10
-0.9343310727
 20
18.4576802957
 30
0.0
 10
-0.9363863468
 20
18.4401355164
 30
0.0
 10
-0.9372321872
 20
18.430233329
 30
0.0
  0
SPLINE
  5
621
100
AcDbEntity
  8
ASSI
100
AcDbSpline
 62
7
  6
CONTINUOUS
 70
0
 71
3
 72
13
 73
9
 74
0
 42
0.0000001
 43
0.0000001
 44
0.0000000001
 40
0.0
 40
0.0
 40
0.0
 40
0.0
 40
0.305586821
 40
0.5813870028
 40
0.7024102562
 40
0.8109868925
 40
0.9089111809
 40
1.0
 40
1.0
 40
1.0
 40
1.0
 10
-1.4516755007
 20
18.3038735671
 30
0.0
 10
-1.4217360191
 20
18.2505279384
 30
0.0
 10
-1.3753651168
 20
18.1427041731
 30
0.0
 10
-1.3510098613
 20
18.0021703664
 30
0.0
 10
-1.3587854435
 20
17.9007759152
 30
0.0
 10
-1.3769472406
 20
17.83718601
 30
0.0
 10
-1.407487566
 20
17.7851779519
 30
0.0
 10
-1.4362267713
 20
17.7593725083
 30
0.0
 10
-1.4516755007
 20
17.7496860462
 30
0.0
  0
SPLINE
  5
622
100
AcDbEntity
  8
ASSI
100
AcDbSpline
 62
7
  6
CONTINUOUS
 70
0
 71
3
 72
13
 73
9
 74
0
 42
0.0000001
 43
0.0000001
 44
0.0000000001
 40
0.0
 40
0.0
 40
0.0
 40
0.0
 40
0.1142431367
 40
0.2375406254
 40
0.4999939349
 40
0.7624505639
 40
0.88575193
 40
1.0
 40
1.0
 40
1.0
 40
1.0
 10
-15.0663074454
 20
-7.2211347642
 30
0.0
 10
-15.0663074454
 20
-7.3049680445
 30
0.0
 10
-15.0509538998
 20
-7.4794551647
 30
0.0
 10
-14.9675579991
 20
-7.8376580607
 30
0.0
 10
-14.7738476801
 20
-8.2770144897
 30
0.0
 10
-14.4902069132
 20
-8.6644523572
 30
0.0
 10
-14.2216877795
 20
-8.915785093
 30
0.0
 10
-14.0782509898
 20
-9.0163315936
 30
0.0
 10
-14.0056472736
 20
-9.0582520693
 30
0.0
  0
SPLINE
  5
623
100
AcDbEntity
  8
ASSI
100
AcDbSpline
 62
7
  6
CONTINUOUS
 70
0
 71
3
 72
13
 73
9
 74
0
 42
0.0000001
 43
0.0000001
 44
0.0000000001
 40
0.0
 40
0.0
 40
0.0
 40
0.0
 40
0.1142431367
 40
0.2375406254
 40
0.4999939349
 40
0.7624505639
 40
0.88575193
 40
1.0
 40
1.0
 40
1.0
 40
1.0
 10
-15.0663074454
 20
0.4536858377
 30
0.0
 10
-15.0663074454
 20
0.3698525573
 30
0.0
 10
-15.0509538998
 20
0.1953654372
 30
0.0
 10
-14.9675579991
 20
-0.1628374589
 30
0.0
 10
-14.7738476801
 20
-0.6021938879
 30
0.0
 10
-14.4902069132
 20
-0.9896317553
 30
0.0
 10
-14.2216877795
 20
-1.2409644911
 30
0.0
 10
-14.0782509898
 20
-1.3415109917
 30
0.0
 10
-14.0056472736
 20
-1.3834314675
 30
0.0
  0
SPLINE
  5
624
100
AcDbEntity
  8
ASSI
100
AcDbSpline
 62
7
  6
CONTINUOUS
 70
0
 71
3
 72
9
 73
5
 74
0
 42
0.0000001
 43
0.0000001
 44
0.0000000001
 40
0.0
 40
0.0
 40
0.0
 40
0.0
 40
0.2652417699
 40
1.0
 40
1.0
 40
1.0
 40
1.0
 10
-0.903724107
 20
18.4290255716
 30
0.0
 10
-0.9033671646
 20
18.4315431752
 30
0.0
 10
-0.9021210024
 20
18.4410482518
 30
0.0
 10
-0.9012709992
 20
18.4506090623
 30
0.0
 10
-0.9009513588
 20
18.457645679
 30
0.0
  0
SPLINE
  5
625
100
AcDbEntity
  8
ASSI
100
AcDbSpline
 62
250
  6
CONTINUOUS
 70
0
 71
3
 72
9
 73
5
 74
0
 42
0.0000001
 43
0.0000001
 44
0.0000000001
 40
0.0
 40
0.0
 40
0.0
 40
0.0
 40
0.4507440142
 40
1.0
 40
1.0
 40
1.0
 40
1.0
 10
-12.8963041386
 20
21.4385436994
 30
0.0
 10
-12.896305968
 20
21.4233285389
 30
0.0
 10
-12.9092144429
 20
21.3894579608
 30
0.0
 10
-12.9365230628
 20
21.3678407421
 30
0.0
 10
-12.9524361163
 20
21.358326292
 30
0.0
  0
SPLINE
  5
626
100
AcDbEntity
  8
ASSI
100
AcDbSpline
 62
250
  6
CONTINUOUS
 70
0
 71
3
 72
9
 73
5
 74
0
 42
0.0000001
 43
0.0000001
 44
0.0000000001
 40
0.0
 40
0.0
 40
0.0
 40
0.0
 40
0.4507440142
 40
1.0
 40
1.0
 40
1.0
 40
1.0
 10
-12.8963041386
 20
21.759035269
 30
0.0
 10
-12.896305968
 20
21.7438201084
 30
0.0
 10
-12.9092144429
 20
21.7099495304
 30
0.0
 10
-12.9365230628
 20
21.6883323117
 30
0.0
 10
-12.9524361163
 20
21.6788178616
 30
0.0
  0
SPLINE
  5
627
100
AcDbEntity
  8
ASSI
100
AcDbSpline
 62
250
  6
CONTINUOUS
 70
0
 71
3
 72
11
 73
7
 74
0
 42
0.0000001
 43
0.0000001
 44
0.0000000001
 40
0.0
 40
0.0
 40
0.0
 40
0.0
 40
0.2378561547
 40
0.4986486729
 40
0.7601421739
 40
1.0
 40
1.0
 40
1.0
 40
1.0
 10
-21.6662406546
 20
16.5296625979
 30
0.0
 10
-21.6611982259
 20
16.6618188205
 30
0.0
 10
-21.6056845788
 20
16.9374647268
 30
0.0
 10
-21.4297146422
 20
17.3249197269
 30
0.0
 10
-21.1773168471
 20
17.6689157412
 30
0.0
 10
-20.9635973726
 20
17.8537216711
 30
0.0
 10
-20.8503799213
 20
17.9242066021
 30
0.0
  0
SPLINE
  5
628
100
AcDbEntity
  8
ASSI
100
AcDbSpline
 62
250
  6
CONTINUOUS
 70
0
 71
3
 72
11
 73
7
 74
0
 42
0.0000001
 43
0.0000001
 44
0.0000000001
 40
0.0
 40
0.0
 40
0.0
 40
0.0
 40
0.238344293
 40
0.4996778427
 40
0.7612069597
 40
1.0
 40
1.0
 40
1.0
 40
1.0
 10
-6.1244041214
 20
9.4216127551
 30
0.0
 10
-6.2351790301
 20
9.3491912834
 30
0.0
 10
-6.4436691883
 20
9.1605382997
 30
0.0
 10
-6.6888748603
 20
8.8128874418
 30
0.0
 10
-6.8594726472
 20
8.4228841223
 30
0.0
 10
-6.9129479893
 20
8.146471059
 30
0.0
 10
-6.9175508215
 20
8.0139539546
 30
0.0
  0
SPLINE
  5
629
100
AcDbEntity
  8
ASSI
100
AcDbSpline
 62
250
  6
CONTINUOUS
 70
0
 71
3
 72
10
 73
6
 74
0
 42
0.0000001
 43
0.0000001
 44
0.0000000001
 40
0.0
 40
0.0
 40
0.0
 40
0.0
 40
0.3523278092
 40
0.637333759
 40
1.0
 40
1.0
 40
1.0
 40
1.0
 10
-12.9562419953
 20
21.2694635445
 30
0.0
 10
-12.9528511164
 20
21.273792516
 30
0.0
 10
-12.9545418239
 20
21.2856811031
 30
0.0
 10
-12.9611193192
 20
21.2992313388
 30
0.0
 10
-12.9665738762
 20
21.3079398015
 30
0.0
 10
-12.9698052209
 20
21.3125870656
 30
0.0
  0
SPLINE
  5
62A
100
AcDbEntity
  8
ASSI
100
AcDbSpline
 62
250
  6
CONTINUOUS
 70
0
 71
3
 72
9
 73
5
 74
0
 42
0.0000001
 43
0.0000001
 44
0.0000000001
 40
0.0
 40
0.0
 40
0.0
 40
0.0
 40
0.4477394656
 40
1.0
 40
1.0
 40
1.0
 40
1.0
 10
-17.4423992372
 20
21.9060469189
 30
0.0
 10
-17.4288457973
 20
21.9144288012
 30
0.0
 10
-17.3909861487
 20
21.9209618443
 30
0.0
 10
-17.3568566397
 20
21.9073503956
 30
0.0
 10
-17.3396865119
 20
21.8977825674
 30
0.0
  0
SPLINE
  5
62B
100
AcDbEntity
  8
ASSI
100
AcDbSpline
 62
250
  6
CONTINUOUS
 70
0
 71
3
 72
10
 73
6
 74
0
 42
0.0000001
 43
0.0000001
 44
0.0000000001
 40
0.0
 40
0.0
 40
0.0
 40
0.0
 40
0.2187742174
 40
0.4528008736
 40
1.0
 40
1.0
 40
1.0
 40
1.0
 10
-15.3964032806
 20
19.9874373974
 30
0.0
 10
-15.4046611372
 20
19.9922183128
 30
0.0
 10
-15.4201180104
 20
20.0052152648
 30
0.0
 10
-15.4431648554
 20
20.0428941087
 30
0.0
 10
-15.4482705568
 20
20.0780607889
 30
0.0
 10
-15.4482703464
 20
20.1019272307
 30
0.0
  0
SPLINE
  5
62C
100
AcDbEntity
  8
ASSI
100
AcDbSpline
 62
250
  6
CONTINUOUS
 70
0
 71
3
 72
9
 73
5
 74
0
 42
0.0000001
 43
0.0000001
 44
0.0000000001
 40
0.0
 40
0.0
 40
0.0
 40
0.0
 40
0.5471541518
 40
1.0
 40
1.0
 40
1.0
 40
1.0
 10
-2.581416611
 20
12.8332268311
 30
0.0
 10
-2.5814158925
 20
12.8271038859
 30
0.0
 10
-2.5795098865
 20
12.8149979528
 30
0.0
 10
-2.5684745681
 20
12.8083877013
 30
0.0
 10
-2.5634303766
 20
12.8079013344
 30
0.0
  0
SPLINE
  5
62D
100
AcDbEntity
  8
ASSI
100
AcDbSpline
 62
250
  6
CONTINUOUS
 70
0
 71
3
 72
9
 73
5
 74
0
 42
0.0000001
 43
0.0000001
 44
0.0000000001
 40
0.0
 40
0.0
 40
0.0
 40
0.0
 40
0.5021961742
 40
1.0
 40
1.0
 40
1.0
 40
1.0
 10
-2.5460719483
 20
13.1928657411
 30
0.0
 10
-2.5565220797
 20
13.1868321188
 30
0.0
 10
-2.5731195885
 20
13.1680393621
 30
0.0
 10
-2.5814167652
 20
13.1443024381
 30
0.0
 10
-2.581416611
 20
13.1323410882
 30
0.0
  0
SPLINE
  5
62E
100
AcDbEntity
  8
ASSI
100
AcDbSpline
 62
250
  6
CONTINUOUS
 70
0
 71
3
 72
11
 73
7
 74
0
 42
0.0000001
 43
0.0000001
 44
0.0000000001
 40
0.0
 40
0.0
 40
0.0
 40
0.0
 40
0.27401421
 40
0.5000160877
 40
0.7259770862
 40
1.0
 40
1.0
 40
1.0
 40
1.0
 10
-2.5460719483
 20
-26.4233831526
 30
0.0
 10
-2.5502466903
 20
-26.4256283037
 30
0.0
 10
-2.558607166
 20
-26.4287714913
 30
0.0
 10
-2.5718580191
 20
-26.4264111277
 30
0.0
 10
-2.5802241669
 20
-26.4158661561
 30
0.0
 10
-2.5814166309
 20
-26.4070135297
 30
0.0
 10
-2.581416611
 20
-26.402273213
 30
0.0
  0
SPLINE
  5
62F
100
AcDbEntity
  8
ASSI
100
AcDbSpline
 62
250
  6
CONTINUOUS
 70
0
 71
3
 72
9
 73
5
 74
0
 42
0.0000001
 43
0.0000001
 44
0.0000000001
 40
0.0
 40
0.0
 40
0.0
 40
0.0
 40
0.229296809
 40
1.0
 40
1.0
 40
1.0
 40
1.0
 10
-2.581416611
 20
-26.1031589559
 30
0.0
 10
-2.5814166549
 20
-26.0993876073
 30
0.0
 10
-2.5794255059
 20
-26.0829702583
 30
0.0
 10
-2.5714947007
 20
-26.0675561503
 30
0.0
 10
-2.5634303766
 20
-26.0577760525
 30
0.0
  0
SPLINE
  5
630
100
AcDbEntity
  8
ASSI
100
AcDbSpline
 62
250
  6
CONTINUOUS
 70
0
 71
3
 72
11
 73
7
 74
0
 42
0.0000001
 43
0.0000001
 44
0.0000000001
 40
0.0
 40
0.0
 40
0.0
 40
0.0
 40
0.2273484666
 40
0.4664819564
 40
0.724525081
 40
1.0
 40
1.0
 40
1.0
 40
1.0
 10
-15.3082960021
 20
19.9592104945
 30
0.0
 10
-15.2924845594
 20
19.957646568
 30
0.0
 10
-15.2590870768
 20
19.9611000594
 30
0.0
 10
-15.2132516879
 20
19.9848455621
 30
0.0
 10
-15.1750489003
 20
20.0240992704
 30
0.0
 10
-15.15702285
 20
20.0572908842
 30
0.0
 10
-15.1499310817
 20
20.0751890956
 30
0.0
  0
SPLINE
  5
631
100
AcDbEntity
  8
ASSI
100
AcDbSpline
 62
7
  6
CONTINUOUS
 70
0
 71
3
 72
9
 73
5
 74
0
 42
0.0000001
 43
0.0000001
 44
0.0000000001
 40
0.0
 40
0.0
 40
0.0
 40
0.0
 40
0.2403032027
 40
1.0
 40
1.0
 40
1.0
 40
1.0
 10
-3.2851673869
 20
15.6099797105
 30
0.0
 10
-3.281977167
 20
15.6116943717
 30
0.0
 10
-3.26811798
 20
15.6177541381
 30
0.0
 10
-3.252441036
 20
15.6190437132
 30
0.0
 10
-3.2410476986
 20
15.6179055153
 30
0.0
  0
SPLINE
  5
632
100
AcDbEntity
  8
ASSI
100
AcDbSpline
 62
7
  6
CONTINUOUS
 70
0
 71
3
 72
9
 73
5
 74
0
 42
0.0000001
 43
0.0000001
 44
0.0000000001
 40
0.0
 40
0.0
 40
0.0
 40
0.0
 40
0.2306850825
 40
1.0
 40
1.0
 40
1.0
 40
1.0
 10
-3.2410476986
 20
15.6179055153
 30
0.0
 10
-3.2366449868
 20
15.6174656831
 30
0.0
 10
-3.2176911813
 20
15.6142432093
 30
0.0
 10
-3.1997137098
 20
15.6064659937
 30
0.0
 10
-3.1869350606
 20
15.5990877619
 30
0.0
  0
SPLINE
  5
633
100
AcDbEntity
  8
ASSI
100
AcDbSpline
 62
250
  6
CONTINUOUS
 70
0
 71
3
 72
9
 73
5
 74
0
 42
0.0000001
 43
0.0000001
 44
0.0000000001
 40
0.0
 40
0.0
 40
0.0
 40
0.0
 40
0.4492442466
 40
1.0
 40
1.0
 40
1.0
 40
1.0
 10
-11.8331151736
 20
19.6141947569
 30
0.0
 10
-11.8331170469
 20
19.5986151065
 30
0.0
 10
-11.8194960073
 20
19.563851066
 30
0.0
 10
-11.7910774437
 20
19.5420903186
 30
0.0
 10
-11.774536592
 20
19.5325398381
 30
0.0
  0
SPLINE
  5
634
100
AcDbEntity
  8
ASSI
100
AcDbSpline
 62
250
  6
CONTINUOUS
 70
0
 71
3
 72
10
 73
6
 74
0
 42
0.0000001
 43
0.0000001
 44
0.0000000001
 40
0.0
 40
0.0
 40
0.0
 40
0.0
 40
0.2176696753
 40
0.4511835286
 40
1.0
 40
1.0
 40
1.0
 40
1.0
 10
-11.7282622422
 20
19.806999305
 30
0.0
 10
-11.7199901296
 20
19.8120952063
 30
0.0
 10
-11.7007911534
 20
19.8196077492
 30
0.0
 10
-11.6556083842
 20
19.821537257
 30
0.0
 10
-11.6215977928
 20
19.8084357291
 30
0.0
 10
-11.6002354984
 20
19.7964467055
 30
0.0
  0
SPLINE
  5
635
100
AcDbEntity
  8
ASSI
100
AcDbSpline
 62
7
  6
CONTINUOUS
 70
0
 71
3
 72
9
 73
5
 74
0
 42
0.0000001
 43
0.0000001
 44
0.0000000001
 40
0.0
 40
0.0
 40
0.0
 40
0.0
 40
0.7425939197
 40
1.0
 40
1.0
 40
1.0
 40
1.0
 10
-7.799854325
 20
17.7970062015
 30
0.0
 10
-7.7920519827
 20
17.8012036822
 30
0.0
 10
-7.7805299
 20
17.8051744302
 30
0.0
 10
-7.7687055177
 20
17.8067906787
 30
0.0
 10
-7.7656471219
 20
17.807069384
 30
0.0
  0
SPLINE
  5
636
100
AcDbEntity
  8
ASSI
100
AcDbSpline
 62
7
  6
CONTINUOUS
 70
0
 71
3
 72
9
 73
5
 74
0
 42
0.0000001
 43
0.0000001
 44
0.0000000001
 40
0.0
 40
0.0
 40
0.0
 40
0.0
 40
0.224477675
 40
1.0
 40
1.0
 40
1.0
 40
1.0
 10
-7.7656471219
 20
17.807069384
 30
0.0
 10
-7.7587506531
 20
17.8076978449
 30
0.0
 10
-7.7277136568
 20
17.8073021235
 30
0.0
 10
-7.6977874384
 20
17.7953622521
 30
0.0
 10
-7.677068506
 20
17.7833994002
 30
0.0
  0
SPLINE
  5
637
100
AcDbEntity
  8
ASSI
100
AcDbSpline
 62
250
  6
CONTINUOUS
 70
0
 71
3
 72
11
 73
7
 74
0
 42
0.0000001
 43
0.0000001
 44
0.0000000001
 40
0.0
 40
0.0
 40
0.0
 40
0.0
 40
0.2195107851
 40
0.4542061971
 40
0.713171617
 40
1.0
 40
1.0
 40
1.0
 40
1.0
 10
-9.8821874153
 20
-12.6951789597
 30
0.0
 10
-9.9355064923
 20
-12.7274791496
 30
0.0
 10
-10.0580488824
 20
-12.7756749224
 30
0.0
 10
-10.2627502145
 20
-12.7888020382
 30
0.0
 10
-10.4822473078
 20
-12.746338296
 30
0.0
 10
-10.6261070812
 20
-12.6859054835
 30
0.0
 10
-10.6984216537
 20
-12.6484101075
 30
0.0
  0
SPLINE
  5
638
100
AcDbEntity
  8
ASSI
100
AcDbSpline
 62
250
  6
CONTINUOUS
 70
0
 71
3
 72
15
 73
11
 74
0
 42
0.0000001
 43
0.0000001
 44
0.0000000001
 40
0.0
 40
0.0
 40
0.0
 40
0.0
 40
0.1417118078
 40
0.2698479241
 40
0.3868726405
 40
0.4977623271
 40
0.6090890537
 40
0.7272531126
 40
0.856853585
 40
1.0
 40
1.0
 40
1.0
 40
1.0
 10
-6.244619426
 20
-26.0521239826
 30
0.0
 10
-6.2433312301
 20
-26.0848975974
 30
0.0
 10
-6.2358138227
 20
-26.1473253353
 30
0.0
 10
-6.2067531783
 20
-26.2328316413
 30
0.0
 10
-6.1607841459
 20
-26.3025240455
 30
0.0
 10
-6.0990366036
 20
-26.3531063671
 30
0.0
 10
-6.0242895066
 20
-26.381782334
 30
0.0
 10
-5.9403662772
 20
-26.3877895901
 30
0.0
 10
-5.8505701181
 20
-26.3718548114
 30
0.0
 10
-5.7914884245
 20
-26.3485074207
 30
0.0
 10
-5.7617232958
 20
-26.3339575909
 30
0.0
  0
SPLINE
  5
639
100
AcDbEntity
  8
ASSI
100
AcDbSpline
 62
250
  6
CONTINUOUS
 70
0
 71
3
 72
9
 73
5
 74
0
 42
0.0000001
 43
0.0000001
 44
0.0000000001
 40
0.0
 40
0.0
 40
0.0
 40
0.0
 40
0.4492593044
 40
1.0
 40
1.0
 40
1.0
 40
1.0
 10
-17.5713502351
 20
21.3755452171
 30
0.0
 10
-17.5713393741
 20
21.3599727782
 30
0.0
 10
-17.5577072936
 20
21.3252375824
 30
0.0
 10
-17.5293038621
 20
21.3034899012
 30
0.0
 10
-17.5127716691
 20
21.2939444202
 30
0.0
  0
SPLINE
  5
63A
100
AcDbEntity
  8
ASSI
100
AcDbSpline
 62
7
  6
CONTINUOUS
 70
0
 71
3
 72
11
 73
7
 74
0
 42
0.0000001
 43
0.0000001
 44
0.0000000001
 40
0.0
 40
0.0
 40
0.0
 40
0.0
 40
0.2368443967
 40
0.4998578944
 40
0.7627461017
 40
1.0
 40
1.0
 40
1.0
 40
1.0
 10
-0.92416916
 20
12.5780104722
 30
0.0
 10
-0.874418395
 20
12.5485764071
 30
0.0
 10
-0.7801024519
 20
12.4682482036
 30
0.0
 10
-0.6693600286
 20
12.3169872484
 30
0.0
 10
-0.5927101062
 20
12.1457535656
 30
0.0
 10
-0.5706184311
 20
12.0236044654
 30
0.0
 10
-0.5706184311
 20
11.9656987866
 30
0.0
  0
SPLINE
  5
63B
100
AcDbEntity
  8
ASSI
100
AcDbSpline
 62
250
  6
CONTINUOUS
 70
0
 71
3
 72
9
 73
5
 74
0
 42
0.0000001
 43
0.0000001
 44
0.0000000001
 40
0.0
 40
0.0
 40
0.0
 40
0.0
 40
0.4527782052
 40
1.0
 40
1.0
 40
1.0
 40
1.0
 10
-2.5284518568
 20
15.9047632038
 30
0.0
 10
-2.544853572
 20
15.9123910933
 30
0.0
 10
-2.5870150428
 20
15.9166804347
 30
0.0
 10
-2.6250800594
 20
15.9015322412
 30
0.0
 10
-2.6442089979
 20
15.8909482751
 30
0.0
  0
SPLINE
  5
63C
100
AcDbEntity
  8
ASSI
100
AcDbSpline
 62
250
  6
CONTINUOUS
 70
0
 71
3
 72
10
 73
6
 74
0
 42
0.0000001
 43
0.0000001
 44
0.0000000001
 40
0.0
 40
0.0
 40
0.0
 40
0.0
 40
0.2192393782
 40
0.4534034037
 40
1.0
 40
1.0
 40
1.0
 40
1.0
 10
-0.4199722206
 20
14.6877318193
 30
0.0
 10
-0.4280021649
 20
14.6923689159
 30
0.0
 10
-0.4463993932
 20
14.6991229628
 30
0.0
 10
-0.4891947141
 20
14.7005487346
 30
0.0
 10
-0.5213069395
 20
14.6881659019
 30
0.0
 10
-0.5414671722
 20
14.6768514985
 30
0.0
  0
SPLINE
  5
63D
100
AcDbEntity
  8
ASSI
100
AcDbSpline
 62
250
  6
CONTINUOUS
 70
0
 71
3
 72
10
 73
6
 74
0
 42
0.0000001
 43
0.0000001
 44
0.0000000001
 40
0.0
 40
0.0
 40
0.0
 40
0.0
 40
0.2181815612
 40
0.4518622171
 40
1.0
 40
1.0
 40
1.0
 40
1.0
 10
-17.4611745408
 20
21.1796269051
 30
0.0
 10
-17.4694043486
 20
21.1843684282
 30
0.0
 10
-17.4848100732
 20
21.197314531
 30
0.0
 10
-17.5077304352
 20
21.2349763383
 30
0.0
 10
-17.5127709233
 20
21.2700989671
 30
0.0
 10
-17.5127716601
 20
21.2939607733
 30
0.0
  0
SPLINE
  5
63E
100
AcDbEntity
  8
ASSI
100
AcDbSpline
 62
250
  6
CONTINUOUS
 70
0
 71
3
 72
9
 73
5
 74
0
 42
0.0000001
 43
0.0000001
 44
0.0000000001
 40
0.0
 40
0.0
 40
0.0
 40
0.0
 40
0.4519639931
 40
1.0
 40
1.0
 40
1.0
 40
1.0
 10
-1.846647681
 20
18.8713217683
 30
0.0
 10
-1.8295704753
 20
18.8808480124
 30
0.0
 10
-1.7836364185
 20
18.8876756206
 30
0.0
 10
-1.7423242757
 20
18.870702337
 30
0.0
 10
-1.7217855155
 20
18.8588541745
 30
0.0
  0
SPLINE
  5
63F
100
AcDbEntity
  8
ASSI
100
AcDbSpline
 62
7
  6
CONTINUOUS
 70
0
 71
3
 72
9
 73
5
 74
0
 42
0.0000001
 43
0.0000001
 44
0.0000000001
 40
0.0
 40
0.0
 40
0.0
 40
0.0
 40
0.7425939197
 40
1.0
 40
1.0
 40
1.0
 40
1.0
 10
-11.5121649263
 20
19.9404478165
 30
0.0
 10
-11.5043625839
 20
19.9446452972
 30
0.0
 10
-11.4928405013
 20
19.9486160452
 30
0.0
 10
-11.4810161189
 20
19.9502322937
 30
0.0
 10
-11.4779577232
 20
19.950510999
 30
0.0
  0
SPLINE
  5
640
100
AcDbEntity
  8
ASSI
100
AcDbSpline
 62
7
  6
CONTINUOUS
 70
0
 71
3
 72
9
 73
5
 74
0
 42
0.0000001
 43
0.0000001
 44
0.0000000001
 40
0.0
 40
0.0
 40
0.0
 40
0.0
 40
0.224477675
 40
1.0
 40
1.0
 40
1.0
 40
1.0
 10
-11.4779577232
 20
19.950510999
 30
0.0
 10
-11.4710612543
 20
19.9511394599
 30
0.0
 10
-11.440024258
 20
19.9507437385
 30
0.0
 10
-11.4100980397
 20
19.9388038671
 30
0.0
 10
-11.3893791072
 20
19.9268410152
 30
0.0
  0
SPLINE
  5
641
100
AcDbEntity
  8
ASSI
100
AcDbSpline
 62
250
  6
CONTINUOUS
 70
0
 71
3
 72
11
 73
7
 74
0
 42
0.0000001
 43
0.0000001
 44
0.0000000001
 40
0.0
 40
0.0
 40
0.0
 40
0.0
 40
0.2731365311
 40
0.4957268814
 40
0.7211640293
 40
1.0
 40
1.0
 40
1.0
 40
1.0
 10
-12.9865680603
 20
21.6992275926
 30
0.0
 10
-12.9825664286
 20
21.7015382017
 30
0.0
 10
-12.974558646
 20
21.7048718938
 30
0.0
 10
-12.9615837588
 20
21.7027375572
 30
0.0
 10
-12.9535368186
 20
21.6922468131
 30
0.0
 10
-12.9524360971
 20
21.6835351018
 30
0.0
 10
-12.9524361163
 20
21.6788178616
 30
0.0
  0
SPLINE
  5
642
100
AcDbEntity
  8
ASSI
100
AcDbSpline
 62
250
  6
CONTINUOUS
 70
0
 71
3
 72
11
 73
7
 74
0
 42
0.0000001
 43
0.0000001
 44
0.0000000001
 40
0.0
 40
0.0
 40
0.0
 40
0.0
 40
0.2189365959
 40
0.4523511015
 40
0.7113854481
 40
1.0
 40
1.0
 40
1.0
 40
1.0
 10
-1.2562781786
 20
18.5975278635
 30
0.0
 10
-1.2563670539
 20
18.5836301111
 30
0.0
 10
-1.2615346879
 20
18.5547533456
 30
0.0
 10
-1.2833472557
 20
18.5145118682
 30
0.0
 10
-1.317749521
 20
18.4782006438
 30
0.0
 10
-1.346506092
 20
18.4582618624
 30
0.0
 10
-1.3623498219
 20
18.4490617722
 30
0.0
  0
SPLINE
  5
643
100
AcDbEntity
  8
ASSI
100
AcDbSpline
 62
7
  6
CONTINUOUS
 70
0
 71
3
 72
11
 73
7
 74
0
 42
0.0000001
 43
0.0000001
 44
0.0000000001
 40
0.0
 40
0.0
 40
0.0
 40
0.0
 40
0.2179241455
 40
0.4509581176
 40
0.7103289275
 40
1.0
 40
1.0
 40
1.0
 40
1.0
 10
-1.2634509385
 20
17.49380803
 30
0.0
 10
-1.263543856
 20
17.479409137
 30
0.0
 10
-1.2689779338
 20
17.449444679
 30
0.0
 10
-1.2918412674
 20
17.4077215407
 30
0.0
 10
-1.327863869
 20
17.3700404708
 30
0.0
 10
-1.3579412936
 20
17.3493412482
 30
0.0
 10
-1.3745165855
 20
17.3397708495
 30
0.0
  0
SPLINE
  5
644
100
AcDbEntity
  8
ASSI
100
AcDbSpline
 62
7
  6
CONTINUOUS
 70
0
 71
3
 72
9
 73
5
 74
0
 42
0.0000001
 43
0.0000001
 44
0.0000000001
 40
0.0
 40
0.0
 40
0.0
 40
0.0
 40
0.4932895024
 40
1.0
 40
1.0
 40
1.0
 40
1.0
 10
-16.2069752833
 20
20.4554737953
 30
0.0
 10
-16.2438693929
 20
20.4767757645
 30
0.0
 10
-16.3107688093
 20
20.5337314352
 30
0.0
 10
-16.3618582121
 20
20.604156627
 30
0.0
 10
-16.3837388647
 20
20.642055029
 30
0.0
  0
SPLINE
  5
645
100
AcDbEntity
  8
ASSI
100
AcDbSpline
 62
250
  6
CONTINUOUS
 70
0
 71
3
 72
9
 73
5
 74
0
 42
0.0000001
 43
0.0000001
 44
0.0000000001
 40
0.0
 40
0.0
 40
0.0
 40
0.0
 40
0.2293698887
 40
1.0
 40
1.0
 40
1.0
 40
1.0
 10
-12.9524361163
 20
21.358326292
 30
0.0
 10
-12.9524360738
 20
21.3545483879
 30
0.0
 10
-12.9543635881
 20
21.3381081955
 30
0.0
 10
-12.9619771239
 20
21.3225785789
 30
0.0
 10
-12.9698052209
 20
21.3125870656
 30
0.0
  0
SPLINE
  5
646
100
AcDbEntity
  8
ASSI
100
AcDbSpline
 62
7
  6
CONTINUOUS
 70
0
 71
3
 72
9
 73
5
 74
0
 42
0.0000001
 43
0.0000001
 44
0.0000000001
 40
0.0
 40
0.0
 40
0.0
 40
0.0
 40
0.4932895024
 40
1.0
 40
1.0
 40
1.0
 40
1.0
 10
-3.6204745782
 20
13.1881860341
 30
0.0
 10
-3.6573686878
 20
13.2094880032
 30
0.0
 10
-3.7242681042
 20
13.266443674
 30
0.0
 10
-3.775357507
 20
13.3368688658
 30
0.0
 10
-3.7972381596
 20
13.3747672678
 30
0.0
  0
SPLINE
  5
647
100
AcDbEntity
  8
ASSI
100
AcDbSpline
 62
7
  6
CONTINUOUS
 70
0
 71
3
 72
11
 73
7
 74
0
 42
0.0000001
 43
0.0000001
 44
0.0000000001
 40
0.0
 40
0.0
 40
0.0
 40
0.0
 40
0.2169746605
 40
0.4492039101
 40
0.7088136806
 40
1.0
 40
1.0
 40
1.0
 40
1.0
 10
-6.8583560049
 20
20.7270788186
 30
0.0
 10
-6.8581231787
 20
20.7121321376
 30
0.0
 10
-6.8632937072
 20
20.6808665563
 30
0.0
 10
-6.8870916483
 20
20.6373922879
 30
0.0
 10
-6.9250627809
 20
20.5983676305
 30
0.0
 10
-6.9568408446
 20
20.5771623529
 30
0.0
 10
-6.9743689594
 20
20.5674041995
 30
0.0
  0
SPLINE
  5
648
100
AcDbEntity
  8
ASSI
100
AcDbSpline
 62
250
  6
CONTINUOUS
 70
0
 71
3
 72
9
 73
5
 74
0
 42
0.0000001
 43
0.0000001
 44
0.0000000001
 40
0.0
 40
0.0
 40
0.0
 40
0.0
 40
0.4528011699
 40
1.0
 40
1.0
 40
1.0
 40
1.0
 10
-15.1499310817
 20
20.0751890956
 30
0.0
 10
-15.1549741613
 20
20.0756813602
 30
0.0
 10
-15.1660096746
 20
20.0822818054
 30
0.0
 10
-15.167917402
 20
20.0943911921
 30
0.0
 10
-15.1679173161
 20
20.1005145923
 30
0.0
  0
SPLINE
  5
649
100
AcDbEntity
  8
ASSI
100
AcDbSpline
 62
250
  6
CONTINUOUS
 70
0
 71
3
 72
9
 73
5
 74
0
 42
0.0000001
 43
0.0000001
 44
0.0000000001
 40
0.0
 40
0.0
 40
0.0
 40
0.0
 40
0.4977132618
 40
1.0
 40
1.0
 40
1.0
 40
1.0
 10
-15.1679173161
 20
20.3996288494
 30
0.0
 10
-15.1679175609
 20
20.4115880244
 30
0.0
 10
-15.1596216118
 20
20.4353249069
 30
0.0
 10
-15.1430246374
 20
20.4541187343
 30
0.0
 10
-15.1325726535
 20
20.4601535023
 30
0.0
  0
SPLINE
  5
64A
100
AcDbEntity
  8
ASSI
100
AcDbSpline
 62
250
  6
CONTINUOUS
 70
0
 71
3
 72
9
 73
5
 74
0
 42
0.0000001
 43
0.0000001
 44
0.0000000001
 40
0.0
 40
0.0
 40
0.0
 40
0.0
 40
0.4519607717
 40
1.0
 40
1.0
 40
1.0
 40
1.0
 10
1.2405047804
 20
19.7066896778
 30
0.0
 10
1.2575799409
 20
19.7162093858
 30
0.0
 10
1.3035030286
 20
19.7230276028
 30
0.0
 10
1.3448023387
 20
19.7060520023
 30
0.0
 10
1.3653346044
 20
19.6942040245
 30
0.0
  0
SPLINE
  5
64B
100
AcDbEntity
  8
ASSI
100
AcDbSpline
 62
7
  6
CONTINUOUS
 70
0
 71
3
 72
13
 73
9
 74
0
 42
0.0000001
 43
0.0000001
 44
0.0000000001
 40
0.0
 40
0.0
 40
0.0
 40
0.0
 40
0.2062264838
 40
0.3893310577
 40
0.6169558206
 40
0.7848582219
 40
0.8989900549
 40
1.0
 40
1.0
 40
1.0
 40
1.0
 10
-0.9007270582
 20
18.4664969935
 30
0.0
 10
-0.9007153511
 20
18.4696572305
 30
0.0
 10
-0.9008414698
 20
18.4756285371
 30
0.0
 10
-0.9016425216
 20
18.4850449925
 30
0.0
 10
-0.9033007462
 20
18.4938283062
 30
0.0
 10
-0.9059994759
 20
18.5010979805
 30
0.0
 10
-0.9103004721
 20
18.5058896945
 30
0.0
 10
-0.9140896975
 20
18.5053166655
 30
0.0
 10
-0.9154429316
 20
18.5045651701
 30
0.0
  0
SPLINE
  5
64C
100
AcDbEntity
  8
ASSI
100
AcDbSpline
 62
7
  6
CONTINUOUS
 70
0
 71
3
 72
8
 73
4
 74
0
 42
0.0000001
 43
0.0000001
 44
0.0000000001
 40
0.0
 40
0.0
 40
0.0
 40
0.0
 40
1.0
 40
1.0
 40
1.0
 40
1.0
 10
-0.6708518769
 20
-24.0227031175
 30
0.0
 10
-0.6594421784
 20
-24.0156497063
 30
0.0
 10
-0.6488166253
 20
-24.0071685228
 30
0.0
 10
-0.6393411059
 20
-23.9976739791
 30
0.0
  0
SPLINE
  5
64D
100
AcDbEntity
  8
ASSI
100
AcDbSpline
 62
7
  6
CONTINUOUS
 70
0
 71
3
 72
9
 73
5
 74
0
 42
0.0000001
 43
0.0000001
 44
0.0000000001
 40
0.0
 40
0.0
 40
0.0
 40
0.0
 40
0.4573366963
 40
1.0
 40
1.0
 40
1.0
 40
1.0
 10
-0.6393411059
 20
-23.9976739791
 30
0.0
 10
-0.6159331321
 20
-23.9742190084
 30
0.0
 10
-0.5792605215
 20
-23.9082936215
 30
0.0
 10
-0.5706184311
 20
-23.8350809307
 30
0.0
 10
-0.5706184311
 20
-23.7957613211
 30
0.0
  0
SPLINE
  5
64E
100
AcDbEntity
  8
ASSI
100
AcDbSpline
 62
250
  6
CONTINUOUS
 70
0
 71
3
 72
11
 73
7
 74
0
 42
0.0000001
 43
0.0000001
 44
0.0000000001
 40
0.0
 40
0.0
 40
0.0
 40
0.0
 40
0.2214131958
 40
0.4568855168
 40
0.7150922671
 40
1.0
 40
1.0
 40
1.0
 40
1.0
 10
-21.4347959276
 20
-18.0589182355
 30
0.0
 10
-21.4698605119
 20
-18.0358917852
 30
0.0
 10
-21.5351147187
 20
-17.9767417486
 30
0.0
 10
-21.6066451792
 20
-17.859942588
 30
0.0
 10
-21.6521119467
 20
-17.7184262008
 30
0.0
 10
-21.6640965211
 20
-17.6156104607
 30
0.0
 10
-21.6662406363
 20
-17.5616740035
 30
0.0
  0
SPLINE
  5
64F
100
AcDbEntity
  8
ASSI
100
AcDbSpline
 62
250
  6
CONTINUOUS
 70
0
 71
3
 72
14
 73
10
 74
0
 42
0.0000001
 43
0.0000001
 44
0.0000000001
 40
0.0
 40
0.0
 40
0.0
 40
0.0
 40
0.1138636443
 40
0.2061672721
 40
0.2987591057
 40
0.4131438943
 40
0.5525719107
 40
0.7073532018
 40
1.0
 40
1.0
 40
1.0
 40
1.0
 10
-7.1604439404
 20
21.9990673866
 30
0.0
 10
-7.149938971
 20
22.00491237
 30
0.0
 10
-7.1318559502
 20
22.0182528739
 30
0.0
 10
-7.1190237561
 20
22.0497326686
 30
0.0
 10
-7.1314219344
 20
22.0814451907
 30
0.0
 10
-7.1610147232
 20
22.1045004034
 30
0.0
 10
-7.2018708413
 20
22.1198543894
 30
0.0
 10
-7.2634897523
 20
22.1274356634
 30
0.0
 10
-7.3127036713
 20
22.119163359
 30
0.0
 10
-7.3399080912
 20
22.1045154816
 30
0.0
  0
SPLINE
  5
650
100
AcDbEntity
  8
ASSI
100
AcDbSpline
 62
250
  6
CONTINUOUS
 70
0
 71
3
 72
14
 73
10
 74
0
 42
0.0000001
 43
0.0000001
 44
0.0000000001
 40
0.0
 40
0.0
 40
0.0
 40
0.0
 40
0.2912471982
 40
0.4463852834
 40
0.5867862753
 40
0.7023713385
 40
0.7956102029
 40
0.8873367346
 40
1.0
 40
1.0
 40
1.0
 40
1.0
 10
-1.7217855155
 20
18.8588541745
 30
0.0
 10
-1.6949337838
 20
18.8738378842
 30
0.0
 10
-1.6458564201
 20
18.8825421273
 30
0.0
 10
-1.5841970962
 20
18.8755704514
 30
0.0
 10
-1.5429033632
 20
18.8606054272
 30
0.0
 10
-1.512743483
 20
18.8379124055
 30
0.0
 10
-1.4993026243
 20
18.8065239496
 30
0.0
 10
-1.5110584048
 20
18.7747227738
 30
0.0
 10
-1.528796682
 20
18.761145812
 30
0.0
 10
-1.5390995933
 20
18.7552013561
 30
0.0
  0
SPLINE
  5
651
100
AcDbEntity
  8
ASSI
100
AcDbSpline
 62
250
  6
CONTINUOUS
 70
0
 71
3
 72
10
 73
6
 74
0
 42
0.0000001
 43
0.0000001
 44
0.0000000001
 40
0.0
 40
0.0
 40
0.0
 40
0.0
 40
0.2260573135
 40
0.4634522581
 40
1.0
 40
1.0
 40
1.0
 40
1.0
 10
-21.7897601677
 20
-17.3730954015
 30
0.0
 10
-21.7890973039
 20
-17.3906401973
 30
0.0
 10
-21.7823580089
 20
-17.4266077954
 30
0.0
 10
-21.7472096244
 20
-17.4967237039
 30
0.0
 10
-21.7009359041
 20
-17.5385911505
 30
0.0
 10
-21.6662406343
 20
-17.5616740881
 30
0.0
  0
SPLINE
  5
652
100
AcDbEntity
  8
ASSI
100
AcDbSpline
 62
250
  6
CONTINUOUS
 70
0
 71
3
 72
11
 73
7
 74
0
 42
0.0000001
 43
0.0000001
 44
0.0000000001
 40
0.0
 40
0.0
 40
0.0
 40
0.0
 40
0.2170857547
 40
0.449782033
 40
0.7093737623
 40
1.0
 40
1.0
 40
1.0
 40
1.0
 10
-21.7897945997
 20
16.7194922588
 30
0.0
 10
-21.7903731857
 20
16.7024181483
 30
0.0
 10
-21.7854064607
 20
16.66659955
 30
0.0
 10
-21.7604948888
 20
16.6158137137
 30
0.0
 10
-21.719855009
 20
16.5688152485
 30
0.0
 10
-21.685360406
 20
16.5422036287
 30
0.0
 10
-21.6662310911
 20
16.5296670609
 30
0.0
  0
SPLINE
  5
653
100
AcDbEntity
  8
ASSI
100
AcDbSpline
 62
250
  6
CONTINUOUS
 70
0
 71
3
 72
11
 73
7
 74
0
 42
0.0000001
 43
0.0000001
 44
0.0000000001
 40
0.0
 40
0.0
 40
0.0
 40
0.0
 40
0.2134783944
 40
0.4447426299
 40
0.7058288874
 40
1.0
 40
1.0
 40
1.0
 40
1.0
 10
-21.1101426159
 20
17.9426020594
 30
0.0
 10
-21.0939998727
 20
17.9533830084
 30
0.0
 10
-21.0558002452
 20
17.9695507205
 30
0.0
 10
-20.9907462347
 20
17.9731551155
 30
0.0
 10
-20.920229794
 20
17.9578114254
 30
0.0
 10
-20.8738530378
 20
17.9370336955
 30
0.0
 10
-20.8503799213
 20
17.9242066021
 30
0.0
  0
SPLINE
  5
654
100
AcDbEntity
  8
ASSI
100
AcDbSpline
 62
250
  6
CONTINUOUS
 70
0
 71
3
 72
9
 73
5
 74
0
 42
0.0000001
 43
0.0000001
 44
0.0000000001
 40
0.0
 40
0.0
 40
0.0
 40
0.0
 40
0.4999587901
 40
1.0
 40
1.0
 40
1.0
 40
1.0
 10
-5.7715775937
 20
16.0665065472
 30
0.0
 10
-5.7715775057
 20
16.0786211569
 30
0.0
 10
-5.7798551884
 20
16.1025447843
 30
0.0
 10
-5.7964343547
 20
16.1216759942
 30
0.0
 10
-5.806927548
 20
16.127734464
 30
0.0
  0
SPLINE
  5
655
100
AcDbEntity
  8
ASSI
100
AcDbSpline
 62
250
  6
CONTINUOUS
 70
0
 71
3
 72
11
 73
7
 74
0
 42
0.0000001
 43
0.0000001
 44
0.0000000001
 40
0.0
 40
0.0
 40
0.0
 40
0.0
 40
0.2753244069
 40
0.4999659
 40
0.7246034633
 40
1.0
 40
1.0
 40
1.0
 40
1.0
 10
-8.0268760365
 20
17.4095048988
 30
0.0
 10
-8.0310096052
 20
17.4118916603
 30
0.0
 10
-8.0392732346
 20
17.4153226495
 30
0.0
 10
-8.0526352666
 20
17.4133097022
 30
0.0
 10
-8.0610648842
 20
17.4027463083
 30
0.0
 10
-8.0622258551
 20
17.3938726298
 30
0.0
 10
-8.0622259908
 20
17.3890982231
 30
0.0
  0
SPLINE
  5
656
100
AcDbEntity
  8
ASSI
100
AcDbSpline
 62
250
  6
CONTINUOUS
 70
0
 71
3
 72
11
 73
7
 74
0
 42
0.0000001
 43
0.0000001
 44
0.0000000001
 40
0.0
 40
0.0
 40
0.0
 40
0.0
 40
0.2753065209
 40
0.4999392267
 40
0.7245850093
 40
1.0
 40
1.0
 40
1.0
 40
1.0
 10
-11.774536592
 20
19.5325398381
 30
0.0
 10
-11.7745366064
 20
19.5373126833
 30
0.0
 10
-11.7733758834
 20
19.5461842655
 30
0.0
 10
-11.7649506228
 20
19.5567485543
 30
0.0
 10
-11.7515872377
 20
19.5587657056
 30
0.0
 10
-11.7433215659
 20
19.5553340594
 30
0.0
 10
-11.7391866378
 20
19.5529465138
 30
0.0
  0
SPLINE
  5
657
100
AcDbEntity
  8
ASSI
100
AcDbSpline
 62
250
  6
CONTINUOUS
 70
0
 71
3
 72
9
 73
5
 74
0
 42
0.0000001
 43
0.0000001
 44
0.0000000001
 40
0.0
 40
0.0
 40
0.0
 40
0.0
 40
0.4999499451
 40
1.0
 40
1.0
 40
1.0
 40
1.0
 10
-9.5192381492
 20
18.2711760789
 30
0.0
 10
-9.5087468237
 20
18.265118796
 30
0.0
 10
-9.4921671017
 20
18.2459886624
 30
0.0
 10
-9.4838881621
 20
18.2220649838
 30
0.0
 10
-9.4838881949
 20
18.2099481622
 30
0.0
  0
SPLINE
  5
658
100
AcDbEntity
  8
ASSI
100
AcDbSpline
 62
7
  6
CONTINUOUS
 70
0
 71
3
 72
10
 73
6
 74
0
 42
0.0000001
 43
0.0000001
 44
0.0000000001
 40
0.0
 40
0.0
 40
0.0
 40
0.0
 40
0.4440401131
 40
0.7105887611
 40
1.0
 40
1.0
 40
1.0
 40
1.0
 10
-5.272878526
 20
15.5641284446
 30
0.0
 10
-5.2468172166
 20
15.6112132551
 30
0.0
 10
-5.2319850085
 20
15.7008898913
 30
0.0
 10
-5.2443987635
 20
15.8212053414
 30
0.0
 10
-5.2616570135
 20
15.8867874269
 30
0.0
 10
-5.272878526
 20
15.9200195873
 30
0.0
  0
SPLINE
  5
659
100
AcDbEntity
  8
ASSI
100
AcDbSpline
 62
250
  6
CONTINUOUS
 70
0
 71
3
 72
11
 73
7
 74
0
 42
0.0000001
 43
0.0000001
 44
0.0000000001
 40
0.0
 40
0.0
 40
0.0
 40
0.0
 40
0.2347868513
 40
0.4965518109
 40
0.7601973746
 40
1.0
 40
1.0
 40
1.0
 40
1.0
 10
-17.0277607238
 20
-8.075375326
 30
0.0
 10
-16.998200375
 20
-8.0933085153
 30
0.0
 10
-16.9285969764
 20
-8.1196253273
 30
0.0
 10
-16.8165267907
 20
-8.1325066355
 30
0.0
 10
-16.7036095495
 20
-8.1205384228
 30
0.0
 10
-16.6327414814
 20
-8.0949831957
 30
0.0
 10
-16.6020881524
 20
-8.0774501425
 30
0.0
  0
SPLINE
  5
65A
100
AcDbEntity
  8
ASSI
100
AcDbSpline
 62
250
  6
CONTINUOUS
 70
0
 71
3
 72
11
 73
7
 74
0
 42
0.0000001
 43
0.0000001
 44
0.0000000001
 40
0.0
 40
0.0
 40
0.0
 40
0.0
 40
0.2353205458
 40
0.497195959
 40
0.7605988728
 40
1.0
 40
1.0
 40
1.0
 40
1.0
 10
-15.728153162
 20
-10.3300993644
 30
0.0
 10
-15.7286790626
 20
-10.2955917668
 30
0.0
 10
-15.7164369106
 20
-10.2224383934
 30
0.0
 10
-15.6716131703
 20
-10.1193701963
 30
0.0
 10
-15.6051670682
 20
-10.0279777565
 30
0.0
 10
-15.5480118112
 20
-9.9795407331
 30
0.0
 10
-15.5177242266
 20
-9.9617818448
 30
0.0
  0
SPLINE
  5
65B
100
AcDbEntity
  8
ASSI
100
AcDbSpline
 62
250
  6
CONTINUOUS
 70
0
 71
3
 72
11
 73
7
 74
0
 42
0.0000001
 43
0.0000001
 44
0.0000000001
 40
0.0
 40
0.0
 40
0.0
 40
0.0
 40
0.2370248223
 40
0.5005835141
 40
0.763825796
 40
1.0
 40
1.0
 40
1.0
 40
1.0
 10
-10.8972641766
 20
-13.0229880196
 30
0.0
 10
-10.8977677736
 20
-12.988366501
 30
0.0
 10
-10.8862022907
 20
-12.9150379414
 30
0.0
 10
-10.8440436296
 20
-12.8109224336
 30
0.0
 10
-10.7815115227
 20
-12.717761308
 30
0.0
 10
-10.7273249527
 20
-12.6672490158
 30
0.0
 10
-10.6984215497
 20
-12.6484100454
 30
0.0
  0
SPLINE
  5
65C
100
AcDbEntity
  8
ASSI
100
AcDbSpline
 62
250
  6
CONTINUOUS
 70
0
 71
3
 72
11
 73
7
 74
0
 42
0.0000001
 43
0.0000001
 44
0.0000000001
 40
0.0
 40
0.0
 40
0.0
 40
0.0
 40
0.2914014072
 40
0.5518243314
 40
0.7842349978
 40
1.0
 40
1.0
 40
1.0
 40
1.0
 10
-9.5481580212
 20
-12.2457609722
 30
0.0
 10
-9.56299856
 20
-12.2381632588
 30
0.0
 10
-9.5900210372
 20
-12.2214239253
 30
0.0
 10
-9.6226954881
 20
-12.1900711212
 30
0.0
 10
-9.6437102757
 20
-12.1546947638
 30
0.0
 10
-9.6488378719
 20
-12.1289243613
 30
0.0
 10
-9.6489920478
 20
-12.116580473
 30
0.0
  0
SPLINE
  5
65D
100
AcDbEntity
  8
ASSI
100
AcDbSpline
 62
250
  6
CONTINUOUS
 70
0
 71
3
 72
11
 73
7
 74
0
 42
0.0000001
 43
0.0000001
 44
0.0000000001
 40
0.0
 40
0.0
 40
0.0
 40
0.0
 40
0.2916962351
 40
0.5521878843
 40
0.7844610512
 40
1.0
 40
1.0
 40
1.0
 40
1.0
 10
-9.5548067627
 20
-11.5144741343
 30
0.0
 10
-9.5696912949
 20
-11.5068564627
 30
0.0
 10
-9.5967849337
 20
-11.4900778646
 30
0.0
 10
-9.6295248615
 20
-11.4586487271
 30
0.0
 10
-9.6505342132
 20
-11.4231927718
 30
0.0
 10
-9.655593955
 20
-11.3973735163
 30
0.0
 10
-9.6557007566
 20
-11.3850188682
 30
0.0
  0
SPLINE
  5
65E
100
AcDbEntity
  8
ASSI
100
AcDbSpline
 62
250
  6
CONTINUOUS
 70
0
 71
3
 72
11
 73
7
 74
0
 42
0.0000001
 43
0.0000001
 44
0.0000000001
 40
0.0
 40
0.0
 40
0.0
 40
0.0
 40
0.2943212971
 40
0.555729958
 40
0.7868803902
 40
1.0
 40
1.0
 40
1.0
 40
1.0
 10
-10.9332120439
 20
-9.3088915782
 30
0.0
 10
-10.9331500006
 20
-9.324244994
 30
0.0
 10
-10.930737563
 20
-9.353314426
 30
0.0
 10
-10.9190877891
 20
-9.3930606
 30
0.0
 10
-10.8993920984
 20
-9.4248056858
 30
0.0
 10
-10.8808478037
 20
-9.4396658936
 30
0.0
 10
-10.8710165194
 20
-9.4448568902
 30
0.0
  0
SPLINE
  5
65F
100
AcDbEntity
  8
ASSI
100
AcDbSpline
 62
250
  6
CONTINUOUS
 70
0
 71
3
 72
11
 73
7
 74
0
 42
0.0000001
 43
0.0000001
 44
0.0000000001
 40
0.0
 40
0.0
 40
0.0
 40
0.0
 40
0.287676192
 40
0.5470844595
 40
0.7809995128
 40
1.0
 40
1.0
 40
1.0
 40
1.0
 10
-15.7661813893
 20
-6.6134495069
 30
0.0
 10
-15.766100421
 20
-6.6283682139
 30
0.0
 10
-15.7636263809
 20
-6.6568147638
 30
0.0
 10
-15.7519519732
 20
-6.6959707059
 30
0.0
 10
-15.7323378478
 20
-6.7278544513
 30
0.0
 10
-15.7140640298
 20
-6.7433923383
 30
0.0
 10
-15.7042843764
 20
-6.7491671808
 30
0.0
  0
SPLINE
  5
660
100
AcDbEntity
  8
ASSI
100
AcDbSpline
 62
250
  6
CONTINUOUS
 70
0
 71
3
 72
11
 73
7
 74
0
 42
0.0000001
 43
0.0000001
 44
0.0000000001
 40
0.0
 40
0.0
 40
0.0
 40
0.0
 40
0.2348463004
 40
0.4966808373
 40
0.7603252549
 40
1.0
 40
1.0
 40
1.0
 40
1.0
 10
-17.0352851493
 20
-7.3441787778
 30
0.0
 10
-17.0057210144
 20
-7.3621175736
 30
0.0
 10
-16.9361219637
 20
-7.3884681566
 30
0.0
 10
-16.8240595729
 20
-7.4014713132
 30
0.0
 10
-16.7111451277
 20
-7.3896808597
 30
0.0
 10
-16.6402528959
 20
-7.3642711483
 30
0.0
 10
-16.6095850099
 20
-7.3468069662
 30
0.0
  0
SPLINE
  5
661
100
AcDbEntity
  8
ASSI
100
AcDbSpline
 62
250
  6
CONTINUOUS
 70
0
 71
3
 72
11
 73
7
 74
0
 42
0.0000001
 43
0.0000001
 44
0.0000000001
 40
0.0
 40
0.0
 40
0.0
 40
0.0
 40
0.2354743829
 40
0.4979678712
 40
0.76156748
 40
1.0
 40
1.0
 40
1.0
 40
1.0
 10
-17.0352851493
 20
-0.3990523033
 30
0.0
 10
-17.005677953
 20
-0.4170118777
 30
0.0
 10
-16.9361403527
 20
-0.4436303241
 30
0.0
 10
-16.8242145547
 20
-0.4577428929
 30
0.0
 10
-16.7114181924
 20
-0.447620092
 30
0.0
 10
-16.6403640627
 20
-0.4236054888
 30
0.0
 10
-16.6095850324
 20
-0.4068096254
 30
0.0
  0
SPLINE
  5
662
100
AcDbEntity
  8
ASSI
100
AcDbSpline
 62
250
  6
CONTINUOUS
 70
0
 71
3
 72
11
 73
7
 74
0
 42
0.0000001
 43
0.0000001
 44
0.0000000001
 40
0.0
 40
0.0
 40
0.0
 40
0.0
 40
0.2367586096
 40
0.4986667167
 40
0.7612990796
 40
1.0
 40
1.0
 40
1.0
 40
1.0
 10
-15.7661813892
 20
-2.6722026035
 30
0.0
 10
-15.76599644
 20
-2.6379272716
 30
0.0
 10
-15.7529034698
 20
-2.5657482637
 30
0.0
 10
-15.7077873844
 20
-2.4642996329
 30
0.0
 10
-15.6418549815
 20
-2.3746172663
 30
0.0
 10
-15.5854932913
 20
-2.3271148365
 30
0.0
 10
-15.5556795643
 20
-2.3096411586
 30
0.0
  0
SPLINE
  5
663
100
AcDbEntity
  8
ASSI
100
AcDbSpline
 62
250
  6
CONTINUOUS
 70
0
 71
3
 72
11
 73
7
 74
0
 42
0.0000001
 43
0.0000001
 44
0.0000000001
 40
0.0
 40
0.0
 40
0.0
 40
0.0
 40
0.2384976562
 40
0.5021006484
 40
0.7645675089
 40
1.0
 40
1.0
 40
1.0
 40
1.0
 10
-10.9332120438
 20
-5.3644177167
 30
0.0
 10
-10.933073933
 20
-5.3300094889
 30
0.0
 10
-10.9207679109
 20
-5.2575786268
 30
0.0
 10
-10.878398127
 20
-5.1549569839
 30
0.0
 10
-10.8164050263
 20
-5.06338981
 30
0.0
 10
-10.7629969618
 20
-5.0137547044
 30
0.0
 10
-10.7345579079
 20
-4.9951824422
 30
0.0
  0
SPLINE
  5
664
100
AcDbEntity
  8
ASSI
100
AcDbSpline
 62
250
  6
CONTINUOUS
 70
0
 71
3
 72
11
 73
7
 74
0
 42
0.0000001
 43
0.0000001
 44
0.0000000001
 40
0.0
 40
0.0
 40
0.0
 40
0.0
 40
0.2939499547
 40
0.5551736637
 40
0.7865443012
 40
1.0
 40
1.0
 40
1.0
 40
1.0
 10
-9.5548067627
 20
-4.5697331372
 30
0.0
 10
-9.5698158275
 20
-4.5620383114
 30
0.0
 10
-9.5970865962
 20
-4.5451648949
 30
0.0
 10
-9.6299895004
 20
-4.5136671054
 30
0.0
 10
-9.6509503337
 20
-4.4782658281
 30
0.0
 10
-9.6557736038
 20
-4.4525168648
 30
0.0
 10
-9.6557029475
 20
-4.4402691572
 30
0.0
  0
SPLINE
  5
665
100
AcDbEntity
  8
ASSI
100
AcDbSpline
 62
250
  6
CONTINUOUS
 70
0
 71
3
 72
11
 73
7
 74
0
 42
0.0000001
 43
0.0000001
 44
0.0000000001
 40
0.0
 40
0.0
 40
0.0
 40
0.0
 40
0.2942265964
 40
0.5555132785
 40
0.7867544972
 40
1.0
 40
1.0
 40
1.0
 40
1.0
 10
-9.5481580212
 20
-3.8303687721
 30
0.0
 10
-9.5631929854
 20
-3.8226553253
 30
0.0
 10
-9.5905015681
 20
-3.8057487055
 30
0.0
 10
-9.6234289585
 20
-3.7741956857
 30
0.0
 10
-9.6443595044
 20
-3.7387452726
 30
0.0
 10
-9.649111632
 20
-3.7129724281
 30
0.0
 10
-9.6489956823
 20
-3.7007257698
 30
0.0
  0
SPLINE
  5
666
100
AcDbEntity
  8
ASSI
100
AcDbSpline
 62
250
  6
CONTINUOUS
 70
0
 71
3
 72
11
 73
7
 74
0
 42
0.0000001
 43
0.0000001
 44
0.0000000001
 40
0.0
 40
0.0
 40
0.0
 40
0.0
 40
0.2955000405
 40
0.5574152393
 40
0.788087233
 40
1.0
 40
1.0
 40
1.0
 40
1.0
 10
-10.8972641767
 20
-1.6083358826
 30
0.0
 10
-10.8974923635
 20
-1.6242857287
 30
0.0
 10
-10.8955324345
 20
-1.6544998172
 30
0.0
 10
-10.8841555497
 20
-1.6958963096
 30
0.0
 10
-10.8642497594
 20
-1.7289833891
 30
0.0
 10
-10.8452033996
 20
-1.744439092
 30
0.0
 10
-10.8350913527
 20
-1.7497874316
 30
0.0
  0
SPLINE
  5
667
100
AcDbEntity
  8
ASSI
100
AcDbSpline
 62
250
  6
CONTINUOUS
 70
0
 71
3
 72
11
 73
7
 74
0
 42
0.0000001
 43
0.0000001
 44
0.0000000001
 40
0.0
 40
0.0
 40
0.0
 40
0.0
 40
0.2890219208
 40
0.5489471985
 40
0.7823018912
 40
1.0
 40
1.0
 40
1.0
 40
1.0
 10
-15.7281531621
 20
1.088257586
 30
0.0
 10
-15.7283858962
 20
1.0727176964
 30
0.0
 10
-15.7264024352
 20
1.0430736008
 30
0.0
 10
-15.7150176256
 20
1.0021824024
 30
0.0
 10
-15.6951648504
 20
0.9688889823
 30
0.0
 10
-15.6763589344
 20
0.9527208057
 30
0.0
 10
-15.6662764414
 20
0.9467725847
 30
0.0
  0
SPLINE
  5
668
100
AcDbEntity
  8
ASSI
100
AcDbSpline
 62
250
  6
CONTINUOUS
 70
0
 71
3
 72
11
 73
7
 74
0
 42
0.0000001
 43
0.0000001
 44
0.0000000001
 40
0.0
 40
0.0
 40
0.0
 40
0.0
 40
0.2355482781
 40
0.4981117764
 40
0.7617028233
 40
1.0
 40
1.0
 40
1.0
 40
1.0
 10
-17.0277607238
 20
0.3404838971
 30
0.0
 10
-16.9981481971
 20
0.3225254415
 30
0.0
 10
-16.9286192227
 20
0.2958839001
 30
0.0
 10
-16.8167144895
 20
0.2816582006
 30
0.0
 10
-16.7039403325
 20
0.2916056811
 30
0.0
 10
-16.632876151
 20
0.3154704585
 30
0.0
 10
-16.6020881776
 20
0.332193694
 30
0.0
  0
SPLINE
  5
669
100
AcDbEntity
  8
ASSI
100
AcDbSpline
 62
250
  6
CONTINUOUS
 70
0
 71
3
 72
9
 73
5
 74
0
 42
0.0000001
 43
0.0000001
 44
0.0000000001
 40
0.0
 40
0.0
 40
0.0
 40
0.0
 40
0.2560411494
 40
1.0
 40
1.0
 40
1.0
 40
1.0
 10
-6.1244041085
 20
9.4216127629
 30
0.0
 10
-7.422779812
 20
10.0711453491
 30
0.0
 10
-12.4569148794
 20
12.6804986728
 30
0.0
 10
-17.3389838597
 20
15.5865977923
 30
0.0
 10
-20.8503799212
 20
17.9242066022
 30
0.0
  0
SPLINE
  5
66A
100
AcDbEntity
  8
ASSI
100
AcDbSpline
 62
250
  6
CONTINUOUS
 70
0
 71
3
 72
9
 73
5
 74
0
 42
0.0000001
 43
0.0000001
 44
0.0000000001
 40
0.0
 40
0.0
 40
0.0
 40
0.0
 40
0.2524347769
 40
1.0
 40
1.0
 40
1.0
 40
1.0
 10
-10.6984215497
 20
-12.6484100454
 30
0.0
 10
-11.1090474263
 20
-12.431706582
 30
0.0
 10
-12.7308433906
 20
-11.5640735974
 30
0.0
 10
-14.3328706647
 20
-10.659425733
 30
0.0
 10
-15.5177242074
 20
-9.9617818327
 30
0.0
  0
SPLINE
  5
66B
100
AcDbEntity
  8
ASSI
100
AcDbSpline
 62
250
  6
CONTINUOUS
 70
0
 71
3
 72
13
 73
9
 74
0
 42
0.0000001
 43
0.0000001
 44
0.0000000001
 40
0.0
 40
0.0
 40
0.0
 40
0.0
 40
0.1139563285
 40
0.2371429303
 40
0.4999118654
 40
0.7628381995
 40
0.8861151562
 40
1.0
 40
1.0
 40
1.0
 40
1.0
 10
-15.5177242271
 20
-9.9617818445
 30
0.0
 10
-15.5913642484
 20
-9.9182546529
 30
0.0
 10
-15.7368131509
 20
-9.8141425537
 30
0.0
 10
-16.0091934955
 20
-9.5547340657
 30
0.0
 10
-16.2971931563
 20
-9.1564245434
 30
0.0
 10
-16.4955134528
 20
-8.7067573137
 30
0.0
 10
-16.5832544264
 20
-8.340900676
 30
0.0
 10
-16.6009357424
 20
-8.1629309372
 30
0.0
 10
-16.6020881822
 20
-8.077450159
 30
0.0
  0
SPLINE
  5
66C
100
AcDbEntity
  8
ASSI
100
AcDbSpline
 62
250
  6
CONTINUOUS
 70
0
 71
3
 72
11
 73
7
 74
0
 42
0.0000001
 43
0.0000001
 44
0.0000000001
 40
0.0
 40
0.0
 40
0.0
 40
0.0
 40
0.2896268304
 40
0.5494057933
 40
0.7825311188
 40
1.0
 40
1.0
 40
1.0
 40
1.0
 10
-5.7617232958
 20
-26.3339575909
 30
0.0
 10
-5.7629606484
 20
-26.3612198303
 30
0.0
 10
-5.7695761359
 20
-26.4129214434
 30
0.0
 10
-5.7942258494
 20
-26.4831316565
 30
0.0
 10
-5.8328583851
 20
-26.5389743377
 30
0.0
 10
-5.8678771234
 20
-26.564701017
 30
0.0
 10
-5.8862820991
 20
-26.57370906
 30
0.0
  0
SPLINE
  5
66D
100
AcDbEntity
  8
ASSI
100
AcDbSpline
 62
250
  6
CONTINUOUS
 70
0
 71
3
 72
8
 73
4
 74
0
 42
0.0000001
 43
0.0000001
 44
0.0000000001
 40
0.0
 40
0.0
 40
0.0
 40
0.0
 40
1.0
 40
1.0
 40
1.0
 40
1.0
 10
-16.6020881524
 20
-8.0774501425
 30
0.0
 10
-16.6048278991
 20
-7.8339050107
 30
0.0
 10
-16.6073265935
 20
-7.5903570487
 30
0.0
 10
-16.6095850324
 20
-7.3468069782
 30
0.0
  0
SPLINE
  5
66E
100
AcDbEntity
  8
ASSI
100
AcDbSpline
 62
250
  6
CONTINUOUS
 70
0
 71
3
 72
11
 73
7
 74
0
 42
0.0000001
 43
0.0000001
 44
0.0000000001
 40
0.0
 40
0.0
 40
0.0
 40
0.0
 40
0.2934449664
 40
0.5534923346
 40
0.7849927671
 40
1.0
 40
1.0
 40
1.0
 40
1.0
 10
-16.6095850099
 20
-7.3468069656
 30
0.0
 10
-16.6104527846
 20
-7.2684290333
 30
0.0
 10
-16.6005085154
 20
-7.1199511564
 30
0.0
 10
-16.5429970508
 20
-6.916326238
 30
0.0
 10
-16.4438970325
 20
-6.7524274193
 30
0.0
 10
-16.3493964469
 20
-6.67490165
 30
0.0
 10
-16.299063274
 20
-6.6472448562
 30
0.0
  0
SPLINE
  5
66F
100
AcDbEntity
  8
ASSI
100
AcDbSpline
 62
250
  6
CONTINUOUS
 70
0
 71
3
 72
9
 73
5
 74
0
 42
0.0000001
 43
0.0000001
 44
0.0000000001
 40
0.0
 40
0.0
 40
0.0
 40
0.0
 40
0.4492494607
 40
1.0
 40
1.0
 40
1.0
 40
1.0
 10
-17.5713502503
 20
21.6746948331
 30
0.0
 10
-17.5713477076
 20
21.6591176817
 30
0.0
 10
-17.5577228363
 20
21.6243636419
 30
0.0
 10
-17.5293095193
 20
21.6026074246
 30
0.0
 10
-17.5127716691
 20
21.5930586772
 30
0.0
  0
SPLINE
  5
670
100
AcDbEntity
  8
ASSI
100
AcDbSpline
 62
250
  6
CONTINUOUS
 70
0
 71
3
 72
11
 73
7
 74
0
 42
0.0000001
 43
0.0000001
 44
0.0000000001
 40
0.0
 40
0.0
 40
0.0
 40
0.0
 40
0.2394509093
 40
0.5003013625
 40
0.7609889928
 40
1.0
 40
1.0
 40
1.0
 40
1.0
 10
-6.2446194261
 20
-26.0521239826
 30
0.0
 10
-6.2923693088
 20
-26.080603255
 30
0.0
 10
-6.4019435183
 20
-26.1239794433
 30
0.0
 10
-6.5780820818
 20
-26.149522319
 30
0.0
 10
-6.7555387567
 20
-26.1372725629
 30
0.0
 10
-6.8679158764
 20
-26.1022157283
 30
0.0
 10
-6.9175424796
 20
-26.0773767795
 30
0.0
  0
SPLINE
  5
671
100
AcDbEntity
  8
ASSI
100
AcDbSpline
 62
250
  6
CONTINUOUS
 70
0
 71
3
 72
9
 73
5
 74
0
 42
0.0000001
 43
0.0000001
 44
0.0000000001
 40
0.0
 40
0.0
 40
0.0
 40
0.0
 40
0.245951686
 40
1.0
 40
1.0
 40
1.0
 40
1.0
 10
-21.6662406454
 20
-17.5616740137
 30
0.0
 10
-21.7720517114
 20
-14.7683732635
 30
0.0
 10
-22.0917644175
 20
-3.4072523221
 30
0.0
 10
-21.9769144029
 20
7.9653428055
 30
0.0
 10
-21.6662406446
 20
16.5296625982
 30
0.0
  0
SPLINE
  5
672
100
AcDbEntity
  8
ASSI
100
AcDbSpline
 62
250
  6
CONTINUOUS
 70
0
 71
3
 72
9
 73
5
 74
0
 42
0.0000001
 43
0.0000001
 44
0.0000000001
 40
0.0
 40
0.0
 40
0.0
 40
0.0
 40
0.2524879662
 40
1.0
 40
1.0
 40
1.0
 40
1.0
 10
-10.7345579079
 20
-4.9951824422
 30
0.0
 10
-11.1455292845
 20
-4.7787310577
 30
0.0
 10
-12.7682549255
 20
-3.9120784294
 30
0.0
 10
-14.3708131905
 20
-3.0075969479
 30
0.0
 10
-15.5556795438
 20
-2.3096411457
 30
0.0
  0
SPLINE
  5
673
100
AcDbEntity
  8
ASSI
100
AcDbSpline
 62
250
  6
CONTINUOUS
 70
0
 71
3
 72
12
 73
8
 74
0
 42
0.0000001
 43
0.0000001
 44
0.0000000001
 40
0.0
 40
0.0
 40
0.0
 40
0.0
 40
0.2358145664
 40
0.4978646872
 40
0.7610218036
 40
0.8849868246
 40
1.0
 40
1.0
 40
1.0
 40
1.0
 10
-15.5556795648
 20
-2.3096411583
 30
0.0
 10
-15.7083182185
 20
-2.2193723125
 30
0.0
 10
-15.9959634548
 20
-1.9696978308
 30
0.0
 10
-16.3271195558
 20
-1.4982149839
 30
0.0
 10
-16.5172574107
 20
-1.0432619763
 30
0.0
 10
-16.5970647807
 20
-0.673347576
 30
0.0
 10
-16.6105305485
 20
-0.4932946095
 30
0.0
 10
-16.6095850067
 20
-0.4068096111
 30
0.0
  0
SPLINE
  5
674
100
AcDbEntity
  8
ASSI
100
AcDbSpline
 62
250
  6
CONTINUOUS
 70
0
 71
3
 72
9
 73
5
 74
0
 42
0.0000001
 43
0.0000001
 44
0.0000000001
 40
0.0
 40
0.0
 40
0.0
 40
0.0
 40
0.256187065
 40
1.0
 40
1.0
 40
1.0
 40
1.0
 10
-6.9175508377
 20
8.0139539501
 30
0.0
 10
-8.2171329178
 20
8.6678381334
 30
0.0
 10
-13.2542979866
 20
11.2899780294
 30
0.0
 10
-18.1447121037
 20
14.1972495218
 30
0.0
 10
-21.6662406446
 20
16.5296625982
 30
0.0
  0
SPLINE
  5
675
100
AcDbEntity
  8
ASSI
100
AcDbSpline
 62
250
  6
CONTINUOUS
 70
0
 71
3
 72
8
 73
4
 74
0
 42
0.0000001
 43
0.0000001
 44
0.0000000001
 40
0.0
 40
0.0
 40
0.0
 40
0.0
 40
1.0
 40
1.0
 40
1.0
 40
1.0
 10
-16.6095850324
 20
-0.4068096254
 30
0.0
 10
-16.6073241322
 20
-0.1604728808
 30
0.0
 10
-16.6048249166
 20
0.0858617911
 30
0.0
 10
-16.6020881524
 20
0.3321937085
 30
0.0
  0
SPLINE
  5
676
100
AcDbEntity
  8
ASSI
100
AcDbSpline
 62
250
  6
CONTINUOUS
 70
0
 71
3
 72
11
 73
7
 74
0
 42
0.0000001
 43
0.0000001
 44
0.0000000001
 40
0.0
 40
0.0
 40
0.0
 40
0.0
 40
0.2912143781
 40
0.550973978
 40
0.7835948496
 40
1.0
 40
1.0
 40
1.0
 40
1.0
 10
-16.6020881776
 20
0.3321936945
 30
0.0
 10
-16.6010305383
 20
0.4118361564
 30
0.0
 10
-16.5871470537
 20
0.562874892
 30
0.0
 10
-16.5236330198
 20
0.7695495482
 30
0.0
 10
-16.4191177449
 20
0.9360242484
 30
0.0
 10
-16.3215380592
 20
1.0152187041
 30
0.0
 10
-16.2696648164
 20
1.0437222457
 30
0.0
  0
SPLINE
  5
677
100
AcDbEntity
  8
ASSI
100
AcDbSpline
 62
250
  6
CONTINUOUS
 70
0
 71
3
 72
9
 73
5
 74
0
 42
0.0000001
 43
0.0000001
 44
0.0000000001
 40
0.0
 40
0.0
 40
0.0
 40
0.0
 40
0.2525330954
 40
1.0
 40
1.0
 40
1.0
 40
1.0
 10
-7.2181819838
 20
-5.07256874
 30
0.0
 10
-7.2341537432
 20
-6.8409067581
 30
0.0
 10
-7.2572069955
 20
-13.843598372
 30
0.0
 10
-7.1178962097
 20
-20.8469416979
 30
0.0
 10
-6.9175508387
 20
-26.0773826619
 30
0.0
  0
SPLINE
  5
678
100
AcDbEntity
  8
ASSI
100
AcDbSpline
 62
250
  6
CONTINUOUS
 70
0
 71
3
 72
9
 73
5
 74
0
 42
0.0000001
 43
0.0000001
 44
0.0000000001
 40
0.0
 40
0.0
 40
0.0
 40
0.0
 40
0.2435928197
 40
1.0
 40
1.0
 40
1.0
 40
1.0
 10
-21.6662406454
 20
-17.5616740137
 30
0.0
 10
-20.5111928241
 20
-18.3227958326
 30
0.0
 10
-15.721463951
 20
-21.3741970372
 30
0.0
 10
-10.7500323353
 20
-24.1377595698
 30
0.0
 10
-6.9175508387
 20
-26.0773826619
 30
0.0
  0
SPLINE
  5
679
100
AcDbEntity
  8
ASSI
100
AcDbSpline
 62
250
  6
CONTINUOUS
 70
0
 71
3
 72
15
 73
11
 74
0
 42
0.0000001
 43
0.0000001
 44
0.0000000001
 40
0.0
 40
0.0
 40
0.0
 40
0.0
 40
0.1460279489
 40
0.2765102762
 40
0.3935370722
 40
0.5023659821
 40
0.6107845331
 40
0.7267074669
 40
0.8556661394
 40
1.0
 40
1.0
 40
1.0
 40
1.0
 10
-17.0277607238
 20
0.3404838972
 30
0.0
 10
-17.0267111941
 20
0.43431871
 30
0.0
 10
-17.0108135406
 20
0.6124432768
 30
0.0
 10
-16.9371721336
 20
0.8566095032
 30
0.0
 10
-16.8154737892
 20
1.0543862261
 30
0.0
 10
-16.6477159384
 20
1.1952073921
 30
0.0
 10
-16.4422343161
 20
1.2691110478
 30
0.0
 10
-16.2119140015
 20
1.2736655299
 30
0.0
 10
-15.9670909723
 20
1.212602843
 30
0.0
 10
-15.8080961524
 20
1.1352900893
 30
0.0
 10
-15.7281531621
 20
1.088257586
 30
0.0
  0
SPLINE
  5
67A
100
AcDbEntity
  8
ASSI
100
AcDbSpline
 62
250
  6
CONTINUOUS
 70
0
 71
3
 72
13
 73
9
 74
0
 42
0.0000001
 43
0.0000001
 44
0.0000000001
 40
0.0
 40
0.0
 40
0.0
 40
0.0
 40
0.113701298
 40
0.2364590266
 40
0.4983986658
 40
0.7613403051
 40
0.8851585042
 40
1.0
 40
1.0
 40
1.0
 40
1.0
 10
-15.7661813893
 20
-2.6722026034
 30
0.0
 10
-15.8544110775
 20
-2.6202257993
 30
0.0
 10
-16.0284015156
 20
-2.4955703
 30
0.0
 10
-16.3529188472
 20
-2.1838437661
 30
0.0
 10
-16.6933576885
 20
-1.7033085487
 30
0.0
 10
-16.9227340931
 20
-1.1601013732
 30
0.0
 10
-17.0196337967
 20
-0.7177921128
 30
0.0
 10
-17.036232147
 20
-0.5024763454
 30
0.0
 10
-17.0352851493
 20
-0.3990523033
 30
0.0
  0
SPLINE
  5
67B
100
AcDbEntity
  8
ASSI
100
AcDbSpline
 62
250
  6
CONTINUOUS
 70
0
 71
3
 72
9
 73
5
 74
0
 42
0.0000001
 43
0.0000001
 44
0.0000000001
 40
0.0
 40
0.0
 40
0.0
 40
0.0
 40
0.252489744
 40
1.0
 40
1.0
 40
1.0
 40
1.0
 10
-10.9332120438
 20
-5.3644177167
 30
0.0
 10
-11.3451924337
 20
-5.1474191653
 30
0.0
 10
-12.9718942695
 20
-4.2785898854
 30
0.0
 10
-14.5783938586
 20
-3.3718686676
 30
0.0
 10
-15.7661813893
 20
-2.6722026034
 30
0.0
  0
SPLINE
  5
67C
100
AcDbEntity
  8
ASSI
100
AcDbSpline
 62
250
  6
CONTINUOUS
 70
0
 71
3
 72
15
 73
11
 74
0
 42
0.0000001
 43
0.0000001
 44
0.0000000001
 40
0.0
 40
0.0
 40
0.0
 40
0.0
 40
0.1409115534
 40
0.2685051976
 40
0.3852331274
 40
0.4960574793
 40
0.6076098741
 40
0.7262736909
 40
0.8564502661
 40
1.0
 40
1.0
 40
1.0
 40
1.0
 10
-9.5548067627
 20
-4.5697331374
 30
0.0
 10
-9.5555759306
 20
-4.6638008279
 30
0.0
 10
-9.5722801802
 20
-4.8436021832
 30
0.0
 10
-9.6511727968
 20
-5.0908752819
 30
0.0
 10
-9.7816173796
 20
-5.292839378
 30
0.0
 10
-9.9599202791
 20
-5.438717099
 30
0.0
 10
-10.1768669759
 20
-5.5196664225
 30
0.0
 10
-10.4202024734
 20
-5.5331084181
 30
0.0
 10
-10.6792231057
 20
-5.4813091225
 30
0.0
 10
-10.8484204408
 20
-5.4090738059
 30
0.0
 10
-10.9332120438
 20
-5.3644177167
 30
0.0
  0
SPLINE
  5
67D
100
AcDbEntity
  8
ASSI
100
AcDbSpline
 62
250
  6
CONTINUOUS
 70
0
 71
3
 72
11
 73
7
 74
0
 42
0.0000001
 43
0.0000001
 44
0.0000000001
 40
0.0
 40
0.0
 40
0.0
 40
0.0
 40
0.2441915132
 40
0.5067344279
 40
0.7656050192
 40
1.0
 40
1.0
 40
1.0
 40
1.0
 10
-10.7859849201
 20
-1.6723288275
 30
0.0
 10
-10.6077128706
 20
-1.7829581028
 30
0.0
 10
-10.27270866
 20
-2.0702022704
 30
0.0
 10
-9.881079162
 20
-2.6048595474
 30
0.0
 10
-9.6176934343
 20
-3.2039579177
 30
0.0
 10
-9.5461842692
 20
-3.6289867398
 30
0.0
 10
-9.5481580212
 20
-3.8303687721
 30
0.0
  0
SPLINE
  5
67E
100
AcDbEntity
  8
ASSI
100
AcDbSpline
 62
250
  6
CONTINUOUS
 70
0
 71
3
 72
15
 73
11
 74
0
 42
0.0000001
 43
0.0000001
 44
0.0000000001
 40
0.0
 40
0.0
 40
0.0
 40
0.0
 40
0.145224407
 40
0.2758357195
 40
0.3937626986
 40
0.5038869617
 40
0.613313169
 40
0.7293764347
 40
0.8574589737
 40
1.0
 40
1.0
 40
1.0
 40
1.0
 10
-2.6264234969
 20
21.7843726853
 30
0.0
 10
-2.627000088
 20
21.8223740963
 30
0.0
 10
-2.6337929303
 20
21.8947082741
 30
0.0
 10
-2.6641976169
 20
21.9940665799
 30
0.0
 10
-2.7140244654
 20
22.0750895927
 30
0.0
 10
-2.7822591734
 20
22.1336696461
 30
0.0
 10
-2.8657348405
 20
22.1659002015
 30
0.0
 10
-2.9594807644
 20
22.1705677534
 30
0.0
 10
-3.059240967
 20
22.1487793343
 30
0.0
 10
-3.1241614691
 20
22.1192610838
 30
0.0
 10
-3.1567535828
 20
22.1011142449
 30
0.0
  0
SPLINE
  5
67F
100
AcDbEntity
  8
ASSI
100
AcDbSpline
 62
250
  6
CONTINUOUS
 70
0
 71
3
 72
9
 73
5
 74
0
 42
0.0000001
 43
0.0000001
 44
0.0000000001
 40
0.0
 40
0.0
 40
0.0
 40
0.0
 40
0.2475534055
 40
1.0
 40
1.0
 40
1.0
 40
1.0
 10
-15.6205654039
 20
1.0247238858
 30
0.0
 10
-15.2357912135
 20
0.7988072228
 30
0.0
 10
-13.6762568709
 20
-0.1048659245
 30
0.0
 10
-12.0962126221
 20
-0.9730910173
 30
0.0
 10
-10.8972456158
 20
-1.6069820264
 30
0.0
  0
SPLINE
  5
680
100
AcDbEntity
  8
ASSI
100
AcDbSpline
 62
250
  6
CONTINUOUS
 70
0
 71
3
 72
15
 73
11
 74
0
 42
0.0000001
 43
0.0000001
 44
0.0000000001
 40
0.0
 40
0.0
 40
0.0
 40
0.0
 40
0.1462040906
 40
0.2761423449
 40
0.39210753
 40
0.4997835318
 40
0.6075182579
 40
0.7236258037
 40
0.8537181984
 40
1.0
 40
1.0
 40
1.0
 40
1.0
 10
-17.0352851493
 20
-7.3441787777
 30
0.0
 10
-17.0361424362
 20
-7.2515811704
 30
0.0
 10
-17.0241416643
 20
-7.0759613835
 30
0.0
 10
-16.956425645
 20
-6.8347880484
 30
0.0
 10
-16.8400776576
 20
-6.639559546
 30
0.0
 10
-16.6766263488
 20
-6.5010389545
 30
0.0
 10
-16.4745992765
 20
-6.4294852232
 30
0.0
 10
-16.2471548467
 20
-6.4268654842
 30
0.0
 10
-16.0042768234
 20
-6.4890514782
 30
0.0
 10
-15.846027264
 20
-6.5664515684
 30
0.0
 10
-15.7661813893
 20
-6.6134495069
 30
0.0
  0
SPLINE
  5
681
100
AcDbEntity
  8
ASSI
100
AcDbSpline
 62
250
  6
CONTINUOUS
 70
0
 71
3
 72
13
 73
9
 74
0
 42
0.0000001
 43
0.0000001
 44
0.0000000001
 40
0.0
 40
0.0
 40
0.0
 40
0.0
 40
0.113993794
 40
0.2371671021
 40
0.4998448378
 40
0.7627301223
 40
0.8860392379
 40
1.0
 40
1.0
 40
1.0
 40
1.0
 10
-15.7281531621
 20
-10.3300993644
 30
0.0
 10
-15.8164437127
 20
-10.2781066341
 30
0.0
 10
-15.9908493943
 20
-10.1537524196
 30
0.0
 10
-16.3175331046
 20
-9.8437855476
 30
0.0
 10
-16.6631081007
 20
-9.3675080978
 30
0.0
 10
-16.9009305252
 20
-8.8292578056
 30
0.0
 10
-17.0057620239
 20
-8.3910471665
 30
0.0
 10
-17.026600147
 20
-8.1778010796
 30
0.0
 10
-17.0277607238
 20
-8.075375326
 30
0.0
  0
SPLINE
  5
682
100
AcDbEntity
  8
ASSI
100
AcDbSpline
 62
250
  6
CONTINUOUS
 70
0
 71
3
 72
9
 73
5
 74
0
 42
0.0000001
 43
0.0000001
 44
0.0000000001
 40
0.0
 40
0.0
 40
0.0
 40
0.0
 40
0.2521656346
 40
1.0
 40
1.0
 40
1.0
 40
1.0
 10
-10.8972641766
 20
-13.0229880196
 30
0.0
 10
-11.2654449214
 20
-12.8287222682
 30
0.0
 10
-12.7216076133
 20
-12.0509457729
 30
0.0
 10
-14.1618968404
 20
-11.2434105508
 30
0.0
 10
-15.228889034
 20
-10.6223796974
 30
0.0
  0
SPLINE
  5
683
100
AcDbEntity
  8
ASSI
100
AcDbSpline
 62
250
  6
CONTINUOUS
 70
0
 71
3
 72
15
 73
11
 74
0
 42
0.0000001
 43
0.0000001
 44
0.0000000001
 40
0.0
 40
0.0
 40
0.0
 40
0.0
 40
0.1409801133
 40
0.2680480954
 40
0.3838480116
 40
0.4937126097
 40
0.6047232716
 40
0.7235777965
 40
0.8547508736
 40
1.0
 40
1.0
 40
1.0
 40
1.0
 10
-9.5481580212
 20
-12.2457609723
 30
0.0
 10
-9.5472370555
 20
-12.3385393872
 30
0.0
 10
-9.5604335541
 20
-12.5157719479
 30
0.0
 10
-9.6339465778
 20
-12.7599663321
 30
0.0
 10
-9.7594872385
 20
-12.9592911593
 30
0.0
 10
-9.9337032359
 20
-13.102761609
 30
0.0
 10
-10.1472246084
 20
-13.1813657008
 30
0.0
 10
-10.3876400652
 20
-13.1928893933
 30
0.0
 10
-10.6445092772
 20
-13.1399332217
 30
0.0
 10
-10.8127164911
 20
-13.0675932126
 30
0.0
 10
-10.8972641766
 20
-13.0229880196
 30
0.0
  0
SPLINE
  5
684
100
AcDbEntity
  8
ASSI
100
AcDbSpline
 62
250
  6
CONTINUOUS
 70
0
 71
3
 72
11
 73
7
 74
0
 42
0.0000001
 43
0.0000001
 44
0.0000000001
 40
0.0
 40
0.0
 40
0.0
 40
0.0
 40
0.244924277
 40
0.5081147596
 40
0.7668945201
 40
1.0
 40
1.0
 40
1.0
 40
1.0
 10
-10.8244857474
 20
-9.3710537015
 30
0.0
 10
-10.6451898458
 20
-9.4813167858
 30
0.0
 10
-10.3073463056
 20
-9.7668483815
 30
0.0
 10
-9.9085346433
 20
-10.2975204259
 30
0.0
 10
-9.6357946643
 20
-10.89167598
 30
0.0
 10
-9.5564622942
 20
-11.3141505731
 30
0.0
 10
-9.5548067627
 20
-11.5144741343
 30
0.0
  0
SPLINE
  5
685
100
AcDbEntity
  8
ASSI
100
AcDbSpline
 62
250
  6
CONTINUOUS
 70
0
 71
3
 72
9
 73
5
 74
0
 42
0.0000001
 43
0.0000001
 44
0.0000000001
 40
0.0
 40
0.0
 40
0.0
 40
0.0
 40
0.2474928996
 40
1.0
 40
1.0
 40
1.0
 40
1.0
 10
-15.6610817
 20
-6.6752435975
 30
0.0
 10
-15.2760692435
 20
-6.901341333
 30
0.0
 10
-13.7151422148
 20
-7.8058855557
 30
0.0
 10
-12.1335227613
 20
-8.6746664011
 30
0.0
 10
-10.9332120438
 20
-9.3088915783
 30
0.0
  0
SPLINE
  5
686
100
AcDbEntity
  8
ASSI
100
AcDbSpline
 62
250
  6
CONTINUOUS
 70
0
 71
3
 72
11
 73
7
 74
0
 42
0.0000001
 43
0.0000001
 44
0.0000000001
 40
0.0
 40
0.0
 40
0.0
 40
0.0
 40
0.2911984021
 40
0.551702509
 40
0.784141942
 40
1.0
 40
1.0
 40
1.0
 40
1.0
 10
-2.6264234969
 20
21.7843726853
 30
0.0
 10
-2.6153733157
 20
21.790752922
 30
0.0
 10
-2.5953497709
 20
21.8045698204
 30
0.0
 10
-2.5713793909
 20
21.8296169588
 30
0.0
 10
-2.5563909231
 20
21.8573240361
 30
0.0
 10
-2.5530585127
 20
21.8771520975
 30
0.0
 10
-2.5532014142
 20
21.8866095786
 30
0.0
  0
SPLINE
  5
687
100
AcDbEntity
  8
ASSI
100
AcDbSpline
 62
250
  6
CONTINUOUS
 70
0
 71
3
 72
11
 73
7
 74
0
 42
0.0000001
 43
0.0000001
 44
0.0000000001
 40
0.0
 40
0.0
 40
0.0
 40
0.0
 40
0.2393239433
 40
0.5021716001
 40
0.7638379806
 40
1.0
 40
1.0
 40
1.0
 40
1.0
 10
-3.1567535828
 20
22.1011142449
 30
0.0
 10
-3.1567534516
 20
22.1300974934
 30
0.0
 10
-3.1672518776
 20
22.1909728058
 30
0.0
 10
-3.2043422944
 20
22.276476946
 30
0.0
 10
-3.2588139747
 20
22.3516305086
 30
0.0
 10
-3.3056536751
 20
22.3911655552
 30
0.0
 10
-3.3304181754
 20
22.4054728295
 30
0.0
  0
SPLINE
  5
688
100
AcDbEntity
  8
ASSI
100
AcDbSpline
 62
250
  6
CONTINUOUS
 70
0
 71
3
 72
11
 73
7
 74
0
 42
0.0000001
 43
0.0000001
 44
0.0000000001
 40
0.0
 40
0.0
 40
0.0
 40
0.0
 40
0.2889810518
 40
0.5486335766
 40
0.782559681
 40
1.0
 40
1.0
 40
1.0
 40
1.0
 10
1.3653346057
 20
19.6942040253
 30
0.0
 10
1.4066602416
 20
19.7172406972
 30
0.0
 10
1.4886571554
 20
19.7551816752
 30
0.0
 10
1.6141143334
 20
19.7857162472
 30
0.0
 10
1.7318837676
 20
19.7851411151
 30
0.0
 10
1.8037720357
 20
19.7625405304
 30
0.0
 10
1.835482202
 20
19.7463597079
 30
0.0
  0
SPLINE
  5
689
100
AcDbEntity
  8
ASSI
100
AcDbSpline
 62
250
  6
CONTINUOUS
 70
0
 71
3
 72
11
 73
7
 74
0
 42
0.0000001
 43
0.0000001
 44
0.0000000001
 40
0.0
 40
0.0
 40
0.0
 40
0.0
 40
0.2787683047
 40
0.5042006903
 40
0.7267907294
 40
1.0
 40
1.0
 40
1.0
 40
1.0
 10
-0.3659354112
 20
14.4115301004
 30
0.0
 10
-0.3659353663
 20
14.4162461944
 30
0.0
 10
-0.3670358547
 20
14.4249563583
 30
0.0
 10
-0.3750795435
 20
14.4354476009
 30
0.0
 10
-0.3880553154
 20
14.4375852514
 30
0.0
 10
-0.3960646414
 20
14.4342510248
 30
0.0
 10
-0.4000673551
 20
14.4319398313
 30
0.0
  0
SPLINE
  5
68A
100
AcDbEntity
  8
ASSI
100
AcDbSpline
 62
250
  6
CONTINUOUS
 70
0
 71
3
 72
9
 73
5
 74
0
 42
0.0000001
 43
0.0000001
 44
0.0000000001
 40
0.0
 40
0.0
 40
0.0
 40
0.0
 40
0.4477439048
 40
1.0
 40
1.0
 40
1.0
 40
1.0
 10
-2.5902785393
 20
-26.5164605996
 30
0.0
 10
-2.5762417895
 20
-26.5089161895
 30
0.0
 10
-2.5516499506
 20
-26.4793988349
 30
0.0
 10
-2.546371571
 20
-26.4430363478
 30
0.0
 10
-2.5460719483
 20
-26.4233831526
 30
0.0
  0
SPLINE
  5
68B
100
AcDbEntity
  8
ASSI
100
AcDbSpline
 62
250
  6
CONTINUOUS
 70
0
 71
3
 72
11
 73
7
 74
0
 42
0.0000001
 43
0.0000001
 44
0.0000000001
 40
0.0
 40
0.0
 40
0.0
 40
0.0
 40
0.2367043717
 40
0.4989084161
 40
0.7617054032
 40
1.0
 40
1.0
 40
1.0
 40
1.0
 10
-5.7715775937
 20
16.0665065472
 30
0.0
 10
-5.7517387851
 20
16.0550518679
 30
0.0
 10
-5.7056465811
 20
16.0382507396
 30
0.0
 10
-5.6318573981
 20
16.0299532975
 30
0.0
 10
-5.557836688
 20
16.0375428921
 30
0.0
 10
-5.5113672069
 20
16.0538628424
 30
0.0
 10
-5.4912245634
 20
16.0650939088
 30
0.0
  0
SPLINE
  5
68C
100
AcDbEntity
  8
ASSI
100
AcDbSpline
 62
250
  6
CONTINUOUS
 70
0
 71
3
 72
11
 73
7
 74
0
 42
0.0000001
 43
0.0000001
 44
0.0000000001
 40
0.0
 40
0.0
 40
0.0
 40
0.0
 40
0.2366985207
 40
0.4989022554
 40
0.7617022725
 40
1.0
 40
1.0
 40
1.0
 40
1.0
 10
-5.806927548
 20
16.127734464
 30
0.0
 10
-5.806927548
 20
16.1506419964
 30
0.0
 10
-5.7984304347
 20
16.1989583711
 30
0.0
 10
-5.7687212034
 20
16.2670092082
 30
0.0
 10
-5.7251386525
 20
16.3273185951
 30
0.0
 10
-5.6877715303
 20
16.359403833
 30
0.0
 10
-5.6679743347
 20
16.3712334927
 30
0.0
  0
SPLINE
  5
68D
100
AcDbEntity
  8
ASSI
100
AcDbSpline
 62
250
  6
CONTINUOUS
 70
0
 71
3
 72
11
 73
7
 74
0
 42
0.0000001
 43
0.0000001
 44
0.0000000001
 40
0.0
 40
0.0
 40
0.0
 40
0.0
 40
0.2366985196
 40
0.4989022536
 40
0.7617022714
 40
1.0
 40
1.0
 40
1.0
 40
1.0
 10
-8.0268760365
 20
17.4095048988
 30
0.0
 10
-8.0268760366
 20
17.4324124311
 30
0.0
 10
-8.0183789235
 20
17.4807288057
 30
0.0
 10
-7.9886696923
 20
17.5487796427
 30
0.0
 10
-7.9450871414
 20
17.6090890298
 30
0.0
 10
-7.907720019
 20
17.6411742678
 30
0.0
 10
-7.8879228233
 20
17.6530039275
 30
0.0
  0
SPLINE
  5
68E
100
AcDbEntity
  8
ASSI
100
AcDbSpline
 62
250
  6
CONTINUOUS
 70
0
 71
3
 72
9
 73
5
 74
0
 42
0.0000001
 43
0.0000001
 44
0.0000000001
 40
0.0
 40
0.0
 40
0.0
 40
0.0
 40
0.5507557542
 40
1.0
 40
1.0
 40
1.0
 40
1.0
 10
-8.0622259908
 20
17.3890982231
 30
0.0
 10
-8.0787668425
 20
17.3986487036
 30
0.0
 10
-8.1071854061
 20
17.420409451
 30
0.0
 10
-8.1208064456
 20
17.4551734914
 30
0.0
 10
-8.1208045723
 20
17.4707531418
 30
0.0
  0
SPLINE
  5
68F
100
AcDbEntity
  8
ASSI
100
AcDbSpline
 62
250
  6
CONTINUOUS
 70
0
 71
3
 72
11
 73
7
 74
0
 42
0.0000001
 43
0.0000001
 44
0.0000000001
 40
0.0
 40
0.0
 40
0.0
 40
0.0
 40
0.220068573
 40
0.4540776005
 40
0.7125126084
 40
1.0
 40
1.0
 40
1.0
 40
1.0
 10
-2.8400267133
 20
22.4464444168
 30
0.0
 10
-2.8726385407
 20
22.465275173
 30
0.0
 10
-2.9470294694
 20
22.4928459845
 30
0.0
 10
-3.0704713417
 20
22.4977988528
 30
0.0
 10
-3.2018793915
 20
22.4684423038
 30
0.0
 10
-3.2874391593
 20
22.4294086974
 30
0.0
 10
-3.3304181754
 20
22.4054728295
 30
0.0
  0
SPLINE
  5
690
100
AcDbEntity
  8
ASSI
100
AcDbSpline
 62
250
  6
CONTINUOUS
 70
0
 71
3
 72
11
 73
7
 74
0
 42
0.0000001
 43
0.0000001
 44
0.0000000001
 40
0.0
 40
0.0
 40
0.0
 40
0.0
 40
0.2382977275
 40
0.5010977446
 40
0.7633014793
 40
1.0
 40
1.0
 40
1.0
 40
1.0
 10
-11.6002334245
 20
19.7964455425
 30
0.0
 10
-11.6200306201
 20
19.7846158828
 30
0.0
 10
-11.6573977423
 20
19.7525306449
 30
0.0
 10
-11.7009802932
 20
19.6922212579
 30
0.0
 10
-11.7306895245
 20
19.6241704209
 30
0.0
 10
-11.7391866378
 20
19.5758540461
 30
0.0
 10
-11.7391866378
 20
19.5529465138
 30
0.0
  0
SPLINE
  5
691
100
AcDbEntity
  8
ASSI
100
AcDbSpline
 62
250
  6
CONTINUOUS
 70
0
 71
3
 72
11
 73
7
 74
0
 42
0.0000001
 43
0.0000001
 44
0.0000000001
 40
0.0
 40
0.0
 40
0.0
 40
0.0
 40
0.2382977286
 40
0.5010977465
 40
0.7633014805
 40
1.0
 40
1.0
 40
1.0
 40
1.0
 10
-9.3802849359
 20
18.5146751077
 30
0.0
 10
-9.4000821316
 20
18.5028454479
 30
0.0
 10
-9.4374492539
 20
18.4707602098
 30
0.0
 10
-9.4810318048
 20
18.4104508227
 30
0.0
 10
-9.5107410359
 20
18.3423999858
 30
0.0
 10
-9.5192381491
 20
18.2940836112
 30
0.0
 10
-9.5192381492
 20
18.2711760789
 30
0.0
  0
SPLINE
  5
692
100
AcDbEntity
  8
ASSI
100
AcDbSpline
 62
250
  6
CONTINUOUS
 70
0
 71
3
 72
11
 73
7
 74
0
 42
0.0000001
 43
0.0000001
 44
0.0000000001
 40
0.0
 40
0.0
 40
0.0
 40
0.0
 40
0.2382945932
 40
0.5010915771
 40
0.7632956241
 40
1.0
 40
1.0
 40
1.0
 40
1.0
 10
-9.2035351646
 20
18.2085355238
 30
0.0
 10
-9.2236778078
 20
18.1973044574
 30
0.0
 10
-9.2701472882
 20
18.1809845069
 30
0.0
 10
-9.3441679979
 20
18.1733949118
 30
0.0
 10
-9.4179571813
 20
18.1816923538
 30
0.0
 10
-9.464049386
 20
18.1984934825
 30
0.0
 10
-9.4838881949
 20
18.2099481622
 30
0.0
  0
SPLINE
  5
693
100
AcDbEntity
  8
ASSI
100
AcDbSpline
 62
250
  6
CONTINUOUS
 70
0
 71
3
 72
10
 73
6
 74
0
 42
0.0000001
 43
0.0000001
 44
0.0000000001
 40
0.0
 40
0.0
 40
0.0
 40
0.0
 40
0.5487451059
 40
0.7822869444
 40
1.0
 40
1.0
 40
1.0
 40
1.0
 10
-7.8879228233
 20
17.6530039275
 30
0.0
 10
-7.909282176
 20
17.6649914352
 30
0.0
 10
-7.9432894142
 20
17.6780924239
 30
0.0
 10
-7.9884726654
 20
17.6761686184
 30
0.0
 10
-8.0076744119
 20
17.6686550244
 30
0.0
 10
-8.0159490757
 20
17.6635596653
 30
0.0
  0
SPLINE
  5
694
100
AcDbEntity
  8
ASSI
100
AcDbSpline
 62
250
  6
CONTINUOUS
 70
0
 71
3
 72
11
 73
7
 74
0
 42
0.0000001
 43
0.0000001
 44
0.0000000001
 40
0.0
 40
0.0
 40
0.0
 40
0.0
 40
0.2367619238
 40
0.4999492541
 40
0.7631585736
 40
1.0
 40
1.0
 40
1.0
 40
1.0
 10
-9.3802849359
 20
18.5146751077
 30
0.0
 10
-9.3554707523
 20
18.499935458
 30
0.0
 10
-9.3085051288
 20
18.459614439
 30
0.0
 10
-9.2534166767
 20
18.3838479893
 30
0.0
 10
-9.2153336715
 20
18.2982512838
 30
0.0
 10
-9.2038923894
 20
18.2374047617
 30
0.0
 10
-9.2035351646
 20
18.2085355238
 30
0.0
  0
SPLINE
  5
695
100
AcDbEntity
  8
ASSI
100
AcDbSpline
 62
250
  6
CONTINUOUS
 70
0
 71
3
 72
9
 73
5
 74
0
 42
0.0000001
 43
0.0000001
 44
0.0000000001
 40
0.0
 40
0.0
 40
0.0
 40
0.0
 40
0.265528781
 40
1.0
 40
1.0
 40
1.0
 40
1.0
 10
-0.3798588081
 20
14.0500347003
 30
0.0
 10
-0.3776962549
 20
14.0532331507
 30
0.0
 10
-0.3703859795
 20
14.0657692496
 30
0.0
 10
-0.3659281326
 20
14.0803589514
 30
0.0
 10
-0.3659354112
 20
14.0910385308
 30
0.0
  0
SPLINE
  5
696
100
AcDbEntity
  8
ASSI
100
AcDbSpline
 62
7
  6
CONTINUOUS
 70
0
 71
3
 72
11
 73
7
 74
0
 42
0.0000001
 43
0.0000001
 44
0.0000000001
 40
0.0
 40
0.0
 40
0.0
 40
0.0
 40
0.2372403086
 40
0.4999938936
 40
0.7627508004
 40
1.0
 40
1.0
 40
1.0
 40
1.0
 10
-8.9851891272
 20
18.3346053712
 30
0.0
 10
-8.9851891272
 20
18.3635808825
 30
0.0
 10
-8.9960514161
 20
18.4246890293
 30
0.0
 10
-9.0339419502
 20
18.5105487214
 30
0.0
 10
-9.089354121
 20
18.586293526
 30
0.0
 10
-9.1368448335
 20
18.6262559564
 30
0.0
 10
-9.1619388986
 20
18.6407449551
 30
0.0
  0
SPLINE
  5
697
100
AcDbEntity
  8
ASSI
100
AcDbSpline
 62
250
  6
CONTINUOUS
 70
0
 71
3
 72
10
 73
6
 74
0
 42
0.0000001
 43
0.0000001
 44
0.0000000001
 40
0.0
 40
0.0
 40
0.0
 40
0.0
 40
0.2187946055
 40
0.452819005
 40
1.0
 40
1.0
 40
1.0
 40
1.0
 10
-2.8098654813
 20
-26.5153711632
 30
0.0
 10
-2.8181295093
 20
-26.5105930965
 30
0.0
 10
-2.833597697
 20
-26.4975973872
 30
0.0
 10
-2.8566616476
 20
-26.4599119684
 30
0.0
 10
-2.8617697298
 20
-26.4247337933
 30
0.0
 10
-2.8617696413
 20
-26.4008605746
 30
0.0
  0
SPLINE
  5
698
100
AcDbEntity
  8
ASSI
100
AcDbSpline
 62
250
  6
CONTINUOUS
 70
0
 71
3
 72
11
 73
7
 74
0
 42
0.0000001
 43
0.0000001
 44
0.0000000001
 40
0.0
 40
0.0
 40
0.0
 40
0.0
 40
0.2377270609
 40
0.4999940391
 40
0.7622642738
 40
1.0
 40
1.0
 40
1.0
 40
1.0
 10
-1.3623498219
 20
18.4490617722
 30
0.0
 10
-1.3619215132
 20
18.4781626771
 30
0.0
 10
-1.3720914645
 20
18.539588572
 30
0.0
 10
-1.4097289852
 20
18.6257982471
 30
0.0
 10
-1.4655707509
 20
18.701498895
 30
0.0
 10
-1.5136827858
 20
18.7410206027
 30
0.0
 10
-1.5390995933
 20
18.7552013561
 30
0.0
  0
SPLINE
  5
699
100
AcDbEntity
  8
ASSI
100
AcDbSpline
 62
7
  6
CONTINUOUS
 70
0
 71
3
 72
11
 73
7
 74
0
 42
0.0000001
 43
0.0000001
 44
0.0000000001
 40
0.0
 40
0.0
 40
0.0
 40
0.0
 40
0.2372403086
 40
0.4999938936
 40
0.7627508004
 40
1.0
 40
1.0
 40
1.0
 40
1.0
 10
-5.272878526
 20
16.1911637562
 30
0.0
 10
-5.272878526
 20
16.2201392675
 30
0.0
 10
-5.2837408149
 20
16.2812474143
 30
0.0
 10
-5.3216313489
 20
16.3671071064
 30
0.0
 10
-5.3770435198
 20
16.442851911
 30
0.0
 10
-5.4245342322
 20
16.4828143414
 30
0.0
 10
-5.4496282973
 20
16.4973033401
 30
0.0
  0
SPLINE
  5
69A
100
AcDbEntity
  8
ASSI
100
AcDbSpline
 62
250
  6
CONTINUOUS
 70
0
 71
3
 72
11
 73
7
 74
0
 42
0.0000001
 43
0.0000001
 44
0.0000000001
 40
0.0
 40
0.0
 40
0.0
 40
0.0
 40
0.2367717068
 40
0.4999584111
 40
0.7631610113
 40
1.0
 40
1.0
 40
1.0
 40
1.0
 10
-5.4912245634
 20
16.0650939088
 30
0.0
 10
-5.49158163
 20
16.0939546462
 30
0.0
 10
-5.503018314
 20
16.1547899202
 30
0.0
 10
-5.5410914219
 20
16.2403806831
 30
0.0
 10
-5.5961792663
 20
16.3161580356
 30
0.0
 10
-5.6431520978
 20
16.3564890111
 30
0.0
 10
-5.6679743347
 20
16.3712334927
 30
0.0
  0
SPLINE
  5
69B
100
AcDbEntity
  8
ASSI
100
AcDbSpline
 62
250
  6
CONTINUOUS
 70
0
 71
3
 72
10
 73
6
 74
0
 42
0.0000001
 43
0.0000001
 44
0.0000000001
 40
0.0
 40
0.0
 40
0.0
 40
0.0
 40
0.5463241563
 40
0.7807255687
 40
1.0
 40
1.0
 40
1.0
 40
1.0
 10
-7.3399080912
 20
22.1045154816
 30
0.0
 10
-7.3597951734
 20
22.1163987674
 30
0.0
 10
-7.3916373992
 20
22.1296822141
 30
0.0
 10
-7.4345630446
 20
22.1294499369
 30
0.0
 10
-7.4532093072
 20
22.1232310072
 30
0.0
 10
-7.461399622
 20
22.1188289131
 30
0.0
  0
SPLINE
  5
69C
100
AcDbEntity
  8
ASSI
100
AcDbSpline
 62
250
  6
CONTINUOUS
 70
0
 71
3
 72
11
 73
7
 74
0
 42
0.0000001
 43
0.0000001
 44
0.0000000001
 40
0.0
 40
0.0
 40
0.0
 40
0.0
 40
0.2359097262
 40
0.4972970988
 40
0.760153317
 40
1.0
 40
1.0
 40
1.0
 40
1.0
 10
-7.1604439404
 20
21.9990673866
 30
0.0
 10
-7.1358303146
 20
21.9848429977
 30
0.0
 10
-7.0892465855
 20
21.9455913611
 30
0.0
 10
-7.034947516
 20
21.8709671207
 30
0.0
 10
-6.9977793228
 20
21.785974711
 30
0.0
 10
-6.987026591
 20
21.7254109215
 30
0.0
 10
-6.9868129975
 20
21.696509067
 30
0.0
  0
SPLINE
  5
69D
100
AcDbEntity
  8
ASSI
100
AcDbSpline
 62
250
  6
CONTINUOUS
 70
0
 71
3
 72
11
 73
7
 74
0
 42
0.0000001
 43
0.0000001
 44
0.0000000001
 40
0.0
 40
0.0
 40
0.0
 40
0.0
 40
0.2918547607
 40
0.551807549
 40
0.7838218165
 40
1.0
 40
1.0
 40
1.0
 40
1.0
 10
-6.9868130008
 20
21.6965090651
 30
0.0
 10
-6.9700806042
 20
21.7058775258
 30
0.0
 10
-6.9397602155
 20
21.7261941442
 30
0.0
 10
-6.9035159433
 20
21.7634456297
 30
0.0
 10
-6.8807846545
 20
21.8048328004
 30
0.0
 10
-6.8758266261
 20
21.8345823639
 30
0.0
 10
-6.8760482764
 20
21.8487848153
 30
0.0
  0
SPLINE
  5
69E
100
AcDbEntity
  8
ASSI
100
AcDbSpline
 62
250
  6
CONTINUOUS
 70
0
 71
3
 72
10
 73
6
 74
0
 42
0.0000001
 43
0.0000001
 44
0.0000000001
 40
0.0
 40
0.0
 40
0.0
 40
0.0
 40
0.5474953197
 40
0.7743608138
 40
1.0
 40
1.0
 40
1.0
 40
1.0
 10
-0.3659354112
 20
-24.8453472563
 30
0.0
 10
-0.3659360999
 20
-24.8392693202
 30
0.0
 10
-0.3675372981
 20
-24.8300118591
 30
0.0
 10
-0.3757775778
 20
-24.8220319178
 30
0.0
 10
-0.3808074621
 20
-24.8205761796
 30
0.0
 10
-0.3833045158
 20
-24.8203780825
 30
0.0
  0
SPLINE
  5
69F
100
AcDbEntity
  8
ASSI
100
AcDbSpline
 62
7
  6
CONTINUOUS
 70
0
 71
3
 72
9
 73
5
 74
0
 42
0.0000001
 43
0.0000001
 44
0.0000000001
 40
0.0
 40
0.0
 40
0.0
 40
0.0
 40
0.2403073922
 40
1.0
 40
1.0
 40
1.0
 40
1.0
 10
-0.9638502366
 20
-25.641681851
 30
0.0
 10
-0.9607710916
 20
-25.6397766882
 30
0.0
 10
-0.9485972916
 20
-25.6308062422
 30
0.0
 10
-0.9396439793
 20
-25.6178786596
 30
0.0
 10
-0.934933578
 20
-25.6074459272
 30
0.0
  0
SPLINE
  5
6A0
100
AcDbEntity
  8
ASSI
100
AcDbSpline
 62
7
  6
CONTINUOUS
 70
0
 71
3
 72
9
 73
5
 74
0
 42
0.0000001
 43
0.0000001
 44
0.0000000001
 40
0.0
 40
0.0
 40
0.0
 40
0.0
 40
0.2306849691
 40
1.0
 40
1.0
 40
1.0
 40
1.0
 10
-0.934933578
 20
-25.6074459272
 30
0.0
 10
-0.9331129309
 20
-25.6034135055
 30
0.0
 10
-0.9264259337
 20
-25.5853892034
 30
0.0
 10
-0.9241718217
 20
-25.5659327036
 30
0.0
 10
-0.9241718217
 20
-25.5511777512
 30
0.0
  0
SPLINE
  5
6A1
100
AcDbEntity
  8
ASSI
100
AcDbSpline
 62
250
  6
CONTINUOUS
 70
0
 71
3
 72
9
 73
5
 74
0
 42
0.0000001
 43
0.0000001
 44
0.0000000001
 40
0.0
 40
0.0
 40
0.0
 40
0.0
 40
0.4999854208
 40
1.0
 40
1.0
 40
1.0
 40
1.0
 10
-0.4000673551
 20
-25.2270636873
 30
0.0
 10
-0.389867424
 20
-25.220756031
 30
0.0
 10
-0.3738957163
 20
-25.201528674
 30
0.0
 10
-0.3659352618
 20
-25.1778322366
 30
0.0
 10
-0.3659354112
 20
-25.1658388259
 30
0.0
  0
SPLINE
  5
6A2
100
AcDbEntity
  8
ASSI
100
AcDbSpline
 62
250
  6
CONTINUOUS
 70
0
 71
3
 72
11
 73
7
 74
0
 42
0.0000001
 43
0.0000001
 44
0.0000000001
 40
0.0
 40
0.0
 40
0.0
 40
0.0
 40
0.2367043759
 40
0.4989084229
 40
0.7617054068
 40
1.0
 40
1.0
 40
1.0
 40
1.0
 10
-2.8617696413
 20
-26.4008605746
 30
0.0
 10
-2.8419308324
 20
-26.4123152542
 30
0.0
 10
-2.7958386277
 20
-26.429116383
 30
0.0
 10
-2.7220494443
 20
-26.437413825
 30
0.0
 10
-2.6480287346
 20
-26.4298242299
 30
0.0
 10
-2.6015592542
 20
-26.4135042794
 30
0.0
 10
-2.581416611
 20
-26.402273213
 30
0.0
  0
SPLINE
  5
6A3
100
AcDbEntity
  8
ASSI
100
AcDbSpline
 62
250
  6
CONTINUOUS
 70
0
 71
3
 72
11
 73
7
 74
0
 42
0.0000001
 43
0.0000001
 44
0.0000000001
 40
0.0
 40
0.0
 40
0.0
 40
0.0
 40
0.236704376
 40
0.4989084231
 40
0.7617054069
 40
1.0
 40
1.0
 40
1.0
 40
1.0
 10
-2.8617696413
 20
-26.1017463176
 30
0.0
 10
-2.8419308324
 20
-26.1132009972
 30
0.0
 10
-2.7958386277
 20
-26.1300021259
 30
0.0
 10
-2.7220494443
 20
-26.1382995679
 30
0.0
 10
-2.6480287345
 20
-26.1307099728
 30
0.0
 10
-2.6015592541
 20
-26.1143900223
 30
0.0
 10
-2.581416611
 20
-26.1031589559
 30
0.0
  0
SPLINE
  5
6A4
100
AcDbEntity
  8
ASSI
100
AcDbSpline
 62
250
  6
CONTINUOUS
 70
0
 71
3
 72
11
 73
7
 74
0
 42
0.0000001
 43
0.0000001
 44
0.0000000001
 40
0.0
 40
0.0
 40
0.0
 40
0.0
 40
0.2220303681
 40
0.4575910171
 40
0.7156250575
 40
1.0
 40
1.0
 40
1.0
 40
1.0
 10
-9.9084397199
 20
-5.0362738381
 30
0.0
 10
-9.9630115791
 20
-5.0693350593
 30
0.0
 10
-10.0875857299
 20
-5.1190539995
 30
0.0
 10
-10.2952979736
 20
-5.1342410313
 30
0.0
 10
-10.5170516945
 20
-5.0930340367
 30
0.0
 10
-10.661972197
 20
-5.0327286022
 30
0.0
 10
-10.7345580149
 20
-4.9951825061
 30
0.0
  0
SPLINE
  5
6A5
100
AcDbEntity
  8
ASSI
100
AcDbSpline
 62
250
  6
CONTINUOUS
 70
0
 71
3
 72
11
 73
7
 74
0
 42
0.0000001
 43
0.0000001
 44
0.0000000001
 40
0.0
 40
0.0
 40
0.0
 40
0.0
 40
0.2519572826
 40
0.5287685638
 40
0.7905379278
 40
1.0
 40
1.0
 40
1.0
 40
1.0
 10
-2.7730727288
 20
-25.8741191546
 30
0.0
 10
-2.7529183642
 20
-25.8862429828
 30
0.0
 10
-2.7121860799
 20
-25.9142790865
 30
0.0
 10
-2.6547448723
 20
-25.9607212082
 30
0.0
 10
-2.6039652582
 20
-26.0087025014
 30
0.0
 10
-2.5747489977
 20
-26.0418321025
 30
0.0
 10
-2.5634303766
 20
-26.0577760525
 30
0.0
  0
SPLINE
  5
6A6
100
AcDbEntity
  8
ASSI
100
AcDbSpline
 62
7
  6
CONTINUOUS
 70
0
 71
3
 72
11
 73
7
 74
0
 42
0.0000001
 43
0.0000001
 44
0.0000000001
 40
0.0
 40
0.0
 40
0.0
 40
0.0
 40
0.262510221
 40
0.5387292833
 40
0.7915239459
 40
1.0
 40
1.0
 40
1.0
 40
1.0
 10
-2.1402825194
 20
-25.1066806308
 30
0.0
 10
-2.1133376549
 20
-25.1142850264
 30
0.0
 10
-2.0580535237
 20
-25.1299442586
 30
0.0
 10
-1.9758116246
 20
-25.1492578169
 30
0.0
 10
-1.8981528139
 20
-25.1619899368
 30
0.0
 10
-1.8488387778
 20
-25.1650880445
 30
0.0
 10
-1.8266225724
 20
-25.1641865419
 30
0.0
  0
SPLINE
  5
6A7
100
AcDbEntity
  8
ASSI
100
AcDbSpline
 62
250
  6
CONTINUOUS
 70
0
 71
3
 72
9
 73
5
 74
0
 42
0.0000001
 43
0.0000001
 44
0.0000000001
 40
0.0
 40
0.0
 40
0.0
 40
0.0
 40
0.7430311712
 40
1.0
 40
1.0
 40
1.0
 40
1.0
 10
-0.4201371126
 20
-24.569066633
 30
0.0
 10
-0.4283269661
 20
-24.5643719537
 30
0.0
 10
-0.4405662799
 20
-24.5599357824
 30
0.0
 10
-0.4531578486
 20
-24.5582048053
 30
0.0
 10
-0.4564102038
 20
-24.5579209565
 30
0.0
  0
SPLINE
  5
6A8
100
AcDbEntity
  8
ASSI
100
AcDbSpline
 62
250
  6
CONTINUOUS
 70
0
 71
3
 72
9
 73
5
 74
0
 42
0.0000001
 43
0.0000001
 44
0.0000000001
 40
0.0
 40
0.0
 40
0.0
 40
0.0
 40
0.5492707656
 40
1.0
 40
1.0
 40
1.0
 40
1.0
 10
-0.4000673551
 20
-25.2270636873
 30
0.0
 10
-0.3997897696
 20
-25.2455920781
 30
0.0
 10
-0.4038074342
 20
-25.280168845
 30
0.0
 10
-0.4258113354
 20
-25.3089464556
 30
0.0
 10
-0.4387423272
 20
-25.3169472444
 30
0.0
  0
SPLINE
  5
6A9
100
AcDbEntity
  8
ASSI
100
AcDbSpline
 62
250
  6
CONTINUOUS
 70
0
 71
3
 72
11
 73
7
 74
0
 42
0.0000001
 43
0.0000001
 44
0.0000000001
 40
0.0
 40
0.0
 40
0.0
 40
0.0
 40
0.2343717474
 40
0.4947903219
 40
0.7580041414
 40
1.0
 40
1.0
 40
1.0
 40
1.0
 10
-6.2446194166
 20
8.004199028
 30
0.0
 10
-6.2930355402
 20
7.9800202606
 30
0.0
 10
-6.4036124263
 20
7.9455730783
 30
0.0
 10
-6.579102119
 20
7.9310224797
 30
0.0
 10
-6.755829547
 20
7.951057293
 30
0.0
 10
-6.8677565367
 20
7.9885984606
 30
0.0
 10
-6.917550822
 20
8.0139540427
 30
0.0
  0
SPLINE
  5
6AA
100
AcDbEntity
  8
ASSI
100
AcDbSpline
 62
250
  6
CONTINUOUS
 70
0
 71
3
 72
9
 73
5
 74
0
 42
0.0000001
 43
0.0000001
 44
0.0000000001
 40
0.0
 40
0.0
 40
0.0
 40
0.0
 40
0.2523940874
 40
1.0
 40
1.0
 40
1.0
 40
1.0
 10
-6.5580614753
 20
-5.8468646792
 30
0.0
 10
-6.5708115182
 20
-7.5470033954
 30
0.0
 10
-6.5831782805
 20
-14.2832707747
 30
0.0
 10
-6.441489237
 20
-21.0199224743
 30
0.0
 10
-6.244619426
 20
-26.0521239826
 30
0.0
  0
SPLINE
  5
6AB
100
AcDbEntity
  8
ASSI
100
AcDbSpline
 62
250
  6
CONTINUOUS
 70
0
 71
3
 72
11
 73
7
 74
0
 42
0.0000001
 43
0.0000001
 44
0.0000000001
 40
0.0
 40
0.0
 40
0.0
 40
0.0
 40
0.2349192692
 40
0.4983246791
 40
0.7626351727
 40
1.0
 40
1.0
 40
1.0
 40
1.0
 10
-5.7617232788
 20
8.815209774
 30
0.0
 10
-5.764444761
 20
8.8721891314
 30
0.0
 10
-5.7910398595
 20
8.9920647793
 30
0.0
 10
-5.8704247679
 20
9.1606253862
 30
0.0
 10
-5.9817908414
 20
9.3107460738
 30
0.0
 10
-6.0751976649
 20
9.3915980629
 30
0.0
 10
-6.12440412
 20
9.4216127559
 30
0.0
  0
SPLINE
  5
6AC
100
AcDbEntity
  8
ASSI
100
AcDbSpline
 62
250
  6
CONTINUOUS
 70
0
 71
3
 72
11
 73
7
 74
0
 42
0.0000001
 43
0.0000001
 44
0.0000000001
 40
0.0
 40
0.0
 40
0.0
 40
0.0
 40
0.2404940022
 40
0.5019359634
 40
0.7624042222
 40
1.0
 40
1.0
 40
1.0
 40
1.0
 10
-5.7617232788
 20
8.815209774
 30
0.0
 10
-5.8285616322
 20
8.7746376131
 30
0.0
 10
-5.9549383841
 20
8.6679139144
 30
0.0
 10
-6.1045525044
 20
8.4681099675
 30
0.0
 10
-6.208902129
 20
8.242387809
 30
0.0
 10
-6.2417106231
 20
8.0813906349
 30
0.0
 10
-6.2446194166
 20
8.004199028
 30
0.0
  0
SPLINE
  5
6AD
100
AcDbEntity
  8
ASSI
100
AcDbSpline
 62
250
  6
CONTINUOUS
 70
0
 71
3
 72
9
 73
5
 74
0
 42
0.0000001
 43
0.0000001
 44
0.0000000001
 40
0.0
 40
0.0
 40
0.0
 40
0.0
 40
0.5492559858
 40
1.0
 40
1.0
 40
1.0
 40
1.0
 10
-0.3659354112
 20
-25.1658388259
 30
0.0
 10
-0.3500223577
 20
-25.1563243758
 30
0.0
 10
-0.3227137377
 20
-25.134707157
 30
0.0
 10
-0.3098052629
 20
-25.100836579
 30
0.0
 10
-0.3098034335
 20
-25.0856214185
 30
0.0
  0
SPLINE
  5
6AE
100
AcDbEntity
  8
ASSI
100
AcDbSpline
 62
250
  6
CONTINUOUS
 70
0
 71
3
 72
9
 73
5
 74
0
 42
0.0000001
 43
0.0000001
 44
0.0000000001
 40
0.0
 40
0.0
 40
0.0
 40
0.0
 40
0.4507718835
 40
1.0
 40
1.0
 40
1.0
 40
1.0
 10
-15.3277378757
 20
23.1697751923
 30
0.0
 10
-15.3143439972
 20
23.1769253325
 30
0.0
 10
-15.2784824793
 20
23.1815138457
 30
0.0
 10
-15.2465897773
 20
23.1677249829
 30
0.0
 10
-15.2307097031
 20
23.1582360363
 30
0.0
  0
SPLINE
  5
6AF
100
AcDbEntity
  8
ASSI
100
AcDbSpline
 62
7
  6
CONTINUOUS
 70
0
 71
3
 72
11
 73
7
 74
0
 42
0.0000001
 43
0.0000001
 44
0.0000000001
 40
0.0
 40
0.0
 40
0.0
 40
0.0
 40
0.2290385918
 40
0.4787959448
 40
0.7381184067
 40
1.0
 40
1.0
 40
1.0
 40
1.0
 10
-5.282077868
 20
20.9175484534
 30
0.0
 10
-5.2816884501
 20
20.9504059514
 30
0.0
 10
-5.3040021068
 20
21.0199224895
 30
0.0
 10
-5.3829180102
 20
21.0952971264
 30
0.0
 10
-5.4877948478
 20
21.1367705001
 30
0.0
 10
-5.5633118769
 20
21.1424254507
 30
0.0
 10
-5.60085998
 20
21.1410929558
 30
0.0
  0
SPLINE
  5
6B0
100
AcDbEntity
  8
ASSI
100
AcDbSpline
 62
250
  6
CONTINUOUS
 70
0
 71
3
 72
11
 73
7
 74
0
 42
0.0000001
 43
0.0000001
 44
0.0000000001
 40
0.0
 40
0.0
 40
0.0
 40
0.0
 40
0.2895683059
 40
0.5480869231
 40
0.7809765954
 40
1.0
 40
1.0
 40
1.0
 40
1.0
 10
-6.9175508397
 20
-26.0773826679
 30
0.0
 10
-6.9154320402
 20
-26.1357010754
 30
0.0
 10
-6.9024918952
 20
-26.2461608972
 30
0.0
 10
-6.851120861
 20
-26.3964913861
 30
0.0
 10
-6.7693418164
 20
-26.5165148223
 30
0.0
 10
-6.6948586283
 20
-26.5724360633
 30
0.0
 10
-6.655510375
 20
-26.5924372636
 30
0.0
  0
SPLINE
  5
6B1
100
AcDbEntity
  8
ASSI
100
AcDbSpline
 62
250
  6
CONTINUOUS
 70
0
 71
3
 72
9
 73
5
 74
0
 42
0.0000001
 43
0.0000001
 44
0.0000000001
 40
0.0
 40
0.0
 40
0.0
 40
0.0
 40
0.5492550122
 40
1.0
 40
1.0
 40
1.0
 40
1.0
 10
-0.3659354112
 20
-24.8453472563
 30
0.0
 10
-0.3500229632
 20
-24.8358331493
 30
0.0
 10
-0.3227153997
 20
-24.8142168519
 30
0.0
 10
-0.3098061461
 20
-24.7803482723
 30
0.0
 10
-0.309803434
 20
-24.765133623
 30
0.0
  0
SPLINE
  5
6B2
100
AcDbEntity
  8
ASSI
100
AcDbSpline
 62
250
  6
CONTINUOUS
 70
0
 71
3
 72
9
 73
5
 74
0
 42
0.0000001
 43
0.0000001
 44
0.0000000001
 40
0.0
 40
0.0
 40
0.0
 40
0.0
 40
0.7513773286
 40
1.0
 40
1.0
 40
1.0
 40
1.0
 10
-0.3833045158
 20
-24.8203780825
 30
0.0
 10
-0.369646776
 20
-24.7844037714
 30
0.0
 10
-0.3630539056
 20
-24.7309945644
 30
0.0
 10
-0.3726814994
 20
-24.6805944894
 30
0.0
 10
-0.376100176
 20
-24.6683295223
 30
0.0
  0
SPLINE
  5
6B3
100
AcDbEntity
  8
ASSI
100
AcDbSpline
 62
250
  6
CONTINUOUS
 70
0
 71
3
 72
9
 73
5
 74
0
 42
0.0000001
 43
0.0000001
 44
0.0000000001
 40
0.0
 40
0.0
 40
0.0
 40
0.0
 40
0.5172015692
 40
1.0
 40
1.0
 40
1.0
 40
1.0
 10
-0.376100176
 20
-24.6683295223
 30
0.0
 10
-0.3815537108
 20
-24.6487642244
 30
0.0
 10
-0.3971992011
 20
-24.6120807754
 30
0.0
 10
-0.4235962743
 20
-24.5818485659
 30
0.0
 10
-0.4384734673
 20
-24.5700946905
 30
0.0
  0
SPLINE
  5
6B4
100
AcDbEntity
  8
ASSI
100
AcDbSpline
 62
250
  6
CONTINUOUS
 70
0
 71
3
 72
8
 73
4
 74
0
 42
0.0000001
 43
0.0000001
 44
0.0000000001
 40
0.0
 40
0.0
 40
0.0
 40
0.0
 40
1.0
 40
1.0
 40
1.0
 40
1.0
 10
-0.4384734673
 20
-24.5700946905
 30
0.0
 10
-0.444155193
 20
-24.5656057862
 30
0.0
 10
-0.4501738933
 20
-24.5615073104
 30
0.0
 10
-0.4564617978
 20
-24.5579164156
 30
0.0
  0
SPLINE
  5
6B5
100
AcDbEntity
  8
ASSI
100
AcDbSpline
 62
250
  6
CONTINUOUS
 70
0
 71
3
 72
9
 73
5
 74
0
 42
0.0000001
 43
0.0000001
 44
0.0000000001
 40
0.0
 40
0.0
 40
0.0
 40
0.0
 40
0.4771010722
 40
1.0
 40
1.0
 40
1.0
 40
1.0
 10
-2.861769641
 20
-26.1017449818
 30
0.0
 10
-2.8617697652
 20
-26.0623825313
 30
0.0
 10
-2.8422417225
 20
-25.9800211027
 30
0.0
 10
-2.8001853632
 20
-25.9076757449
 30
0.0
 10
-2.7730727288
 20
-25.8741191546
 30
0.0
  0
SPLINE
  5
6B6
100
AcDbEntity
  8
ASSI
100
AcDbSpline
 62
7
  6
CONTINUOUS
 70
0
 71
3
 72
9
 73
5
 74
0
 42
0.0000001
 43
0.0000001
 44
0.0000000001
 40
0.0
 40
0.0
 40
0.0
 40
0.0
 40
0.5501664283
 40
1.0
 40
1.0
 40
1.0
 40
1.0
 10
-15.7734357658
 20
22.8663755231
 30
0.0
 10
-15.7896514671
 20
22.8757382658
 30
0.0
 10
-15.8220010344
 20
22.8892288628
 30
0.0
 10
-15.858182691
 20
22.8845155284
 30
0.0
 10
-15.871668092
 20
22.8772674718
 30
0.0
  0
SPLINE
  5
6B7
100
AcDbEntity
  8
ASSI
100
AcDbSpline
 62
250
  6
CONTINUOUS
 70
0
 71
3
 72
11
 73
7
 74
0
 42
0.0000001
 43
0.0000001
 44
0.0000000001
 40
0.0
 40
0.0
 40
0.0
 40
0.0
 40
0.2377357289
 40
0.5000059662
 40
0.7622729454
 40
1.0
 40
1.0
 40
1.0
 40
1.0
 10
-13.1279678773
 20
21.9441392597
 30
0.0
 10
-13.1076344313
 20
21.9327946569
 30
0.0
 10
-13.0691448035
 20
21.9011772901
 30
0.0
 10
-13.024471392
 20
21.8406167706
 30
0.0
 10
-12.9943613796
 20
21.7716490297
 30
0.0
 10
-12.9862254156
 20
21.7225083158
 30
0.0
 10
-12.9865680603
 20
21.6992275926
 30
0.0
  0
SPLINE
  5
6B8
100
AcDbEntity
  8
ASSI
100
AcDbSpline
 62
7
  6
CONTINUOUS
 70
0
 71
3
 72
11
 73
7
 74
0
 42
0.0000001
 43
0.0000001
 44
0.0000000001
 40
0.0
 40
0.0
 40
0.0
 40
0.0
 40
0.2372122876
 40
0.4999938927
 40
0.7627788223
 40
1.0
 40
1.0
 40
1.0
 40
1.0
 10
-13.5106725268
 20
21.3966152031
 30
0.0
 10
-13.5106725268
 20
21.41979294
 30
0.0
 10
-13.5193641624
 20
21.4686784749
 30
0.0
 10
-13.5496669757
 20
21.5373743921
 30
0.0
 10
-13.5940085891
 20
21.5979659915
 30
0.0
 10
-13.631999406
 20
21.6299370075
 30
0.0
 10
-13.6520723439
 20
21.6415268702
 30
0.0
  0
SPLINE
  5
6B9
100
AcDbEntity
  8
ASSI
100
AcDbSpline
 62
250
  6
CONTINUOUS
 70
0
 71
3
 72
11
 73
7
 74
0
 42
0.0000001
 43
0.0000001
 44
0.0000000001
 40
0.0
 40
0.0
 40
0.0
 40
0.0
 40
0.2367227449
 40
0.5000062463
 40
0.7632863579
 40
1.0
 40
1.0
 40
1.0
 40
1.0
 10
-15.2739724705
 20
20.7050651694
 30
0.0
 10
-15.2541708413
 20
20.6932187694
 30
0.0
 10
-15.2166981882
 20
20.6608852243
 30
0.0
 10
-15.1726966719
 20
20.6002605029
 30
0.0
 10
-15.1421951406
 20
20.5318425746
 30
0.0
 10
-15.132930466
 20
20.483224539
 30
0.0
 10
-15.1325726535
 20
20.4601535023
 30
0.0
  0
SPLINE
  5
6BA
100
AcDbEntity
  8
ASSI
100
AcDbSpline
 62
250
  6
CONTINUOUS
 70
0
 71
3
 72
11
 73
7
 74
0
 42
0.0000001
 43
0.0000001
 44
0.0000000001
 40
0.0
 40
0.0
 40
0.0
 40
0.0
 40
0.2367043769
 40
0.4989084246
 40
0.7617054078
 40
1.0
 40
1.0
 40
1.0
 40
1.0
 10
-15.4482703464
 20
20.4010414878
 30
0.0
 10
-15.4284315375
 20
20.3895868081
 30
0.0
 10
-15.3823393326
 20
20.3727856793
 30
0.0
 10
-15.3085501491
 20
20.3644882373
 30
0.0
 10
-15.2345294394
 20
20.3720778325
 30
0.0
 10
-15.1880599592
 20
20.388397783
 30
0.0
 10
-15.1679173161
 20
20.3996288494
 30
0.0
  0
SPLINE
  5
6BB
100
AcDbEntity
  8
ASSI
100
AcDbSpline
 62
250
  6
CONTINUOUS
 70
0
 71
3
 72
11
 73
7
 74
0
 42
0.0000001
 43
0.0000001
 44
0.0000000001
 40
0.0
 40
0.0
 40
0.0
 40
0.0
 40
0.2367043759
 40
0.4989084229
 40
0.7617054068
 40
1.0
 40
1.0
 40
1.0
 40
1.0
 10
-15.4482703464
 20
20.1019272307
 30
0.0
 10
-15.4284315375
 20
20.0904725511
 30
0.0
 10
-15.3823393328
 20
20.0736714224
 30
0.0
 10
-15.3085501494
 20
20.0653739804
 30
0.0
 10
-15.2345294397
 20
20.0729635755
 30
0.0
 10
-15.1880599593
 20
20.0892835259
 30
0.0
 10
-15.1679173161
 20
20.1005145923
 30
0.0
  0
SPLINE
  5
6BC
100
AcDbEntity
  8
ASSI
100
AcDbSpline
 62
7
  6
CONTINUOUS
 70
0
 71
3
 72
9
 73
5
 74
0
 42
0.0000001
 43
0.0000001
 44
0.0000000001
 40
0.0
 40
0.0
 40
0.0
 40
0.0
 40
0.5020746665
 40
1.0
 40
1.0
 40
1.0
 40
1.0
 10
-14.4131232775
 20
20.0032531592
 30
0.0
 10
-14.4447908588
 20
19.9692239811
 30
0.0
 10
-14.5210765442
 20
19.9130460718
 30
0.0
 10
-14.61621132
 20
19.8915723738
 30
0.0
 10
-14.6620865308
 20
19.8961240354
 30
0.0
  0
SPLINE
  5
6BD
100
AcDbEntity
  8
ASSI
100
AcDbSpline
 62
250
  6
CONTINUOUS
 70
0
 71
3
 72
10
 73
6
 74
0
 42
0.0000001
 43
0.0000001
 44
0.0000000001
 40
0.0
 40
0.0
 40
0.0
 40
0.0
 40
0.5471038927
 40
0.7811044832
 40
1.0
 40
1.0
 40
1.0
 40
1.0
 10
-2.8617696492
 20
12.8346558263
 30
0.0
 10
-2.8617687254
 20
12.810851363
 30
0.0
 10
-2.8566976297
 20
12.775786703
 30
0.0
 10
-2.8338035275
 20
12.7381445584
 30
0.0
 10
-2.8184194147
 20
12.7251315284
 30
0.0
 10
-2.8101918622
 20
12.7203339779
 30
0.0
  0
SPLINE
  5
6BE
100
AcDbEntity
  8
ASSI
100
AcDbSpline
 62
250
  6
CONTINUOUS
 70
0
 71
3
 72
9
 73
5
 74
0
 42
0.0000001
 43
0.0000001
 44
0.0000000001
 40
0.0
 40
0.0
 40
0.0
 40
0.0
 40
0.5492467587
 40
1.0
 40
1.0
 40
1.0
 40
1.0
 10
-2.6442089979
 20
15.8909482751
 30
0.0
 10
-2.6600999317
 20
15.9004437106
 30
0.0
 10
-2.6920164756
 20
15.9142411141
 30
0.0
 10
-2.72790316
 20
15.9096234377
 30
0.0
 10
-2.7412977589
 20
15.9024550465
 30
0.0
  0
SPLINE
  5
6BF
100
AcDbEntity
  8
ASSI
100
AcDbSpline
 62
250
  6
CONTINUOUS
 70
0
 71
3
 72
9
 73
5
 74
0
 42
0.0000001
 43
0.0000001
 44
0.0000000001
 40
0.0
 40
0.0
 40
0.0
 40
0.0
 40
0.5522594412
 40
1.0
 40
1.0
 40
1.0
 40
1.0
 10
-4.7531858068
 20
14.6304948062
 30
0.0
 10
-4.7703553218
 20
14.6400622929
 30
0.0
 10
-4.8044835051
 20
14.6536732917
 30
0.0
 10
-4.8423418211
 20
14.6471419926
 30
0.0
 10
-4.8558953159
 20
14.6387611465
 30
0.0
  0
SPLINE
  5
6C0
100
AcDbEntity
  8
ASSI
100
AcDbSpline
 62
250
  6
CONTINUOUS
 70
0
 71
3
 72
9
 73
5
 74
0
 42
0.0000001
 43
0.0000001
 44
0.0000000001
 40
0.0
 40
0.0
 40
0.0
 40
0.0
 40
0.5507507339
 40
1.0
 40
1.0
 40
1.0
 40
1.0
 10
-4.926270964
 20
14.325770916
 30
0.0
 10
-4.9428089262
 20
14.3353197281
 30
0.0
 10
-4.9712224391
 20
14.3570761145
 30
0.0
 10
-4.9848471675
 20
14.3918305276
 30
0.0
 10
-4.9848495453
 20
14.4074077724
 30
0.0
  0
SPLINE
  5
6C1
100
AcDbEntity
  8
ASSI
100
AcDbSpline
 62
250
  6
CONTINUOUS
 70
0
 71
3
 72
9
 73
5
 74
0
 42
0.0000001
 43
0.0000001
 44
0.0000000001
 40
0.0
 40
0.0
 40
0.0
 40
0.0
 40
0.5507557545
 40
1.0
 40
1.0
 40
1.0
 40
1.0
 10
-4.926270964
 20
14.0266566589
 30
0.0
 10
-4.9428118157
 20
14.0362071394
 30
0.0
 10
-4.9712303793
 20
14.0579678869
 30
0.0
 10
-4.9848514188
 20
14.0927319273
 30
0.0
 10
-4.9848495456
 20
14.1083115777
 30
0.0
  0
SPLINE
  5
6C2
100
AcDbEntity
  8
ASSI
100
AcDbSpline
 62
7
  6
CONTINUOUS
 70
0
 71
3
 72
11
 73
7
 74
0
 42
0.0000001
 43
0.0000001
 44
0.0000000001
 40
0.0
 40
0.0
 40
0.0
 40
0.0
 40
0.2372211777
 40
0.5000061073
 40
0.7627877124
 40
1.0
 40
1.0
 40
1.0
 40
1.0
 10
-1.0655716388
 20
14.374239109
 30
0.0
 10
-1.0454987009
 20
14.3626492463
 30
0.0
 10
-1.007507884
 20
14.3306782302
 30
0.0
 10
-0.9631662705
 20
14.2700866308
 30
0.0
 10
-0.9328634573
 20
14.2013907137
 30
0.0
 10
-0.9241718217
 20
14.1525051788
 30
0.0
 10
-0.9241718217
 20
14.1293274419
 30
0.0
  0
SPLINE
  5
6C3
100
AcDbEntity
  8
ASSI
100
AcDbSpline
 62
250
  6
CONTINUOUS
 70
0
 71
3
 72
11
 73
7
 74
0
 42
0.0000001
 43
0.0000001
 44
0.0000000001
 40
0.0
 40
0.0
 40
0.0
 40
0.0
 40
0.2377270568
 40
0.4999940375
 40
0.7622642731
 40
1.0
 40
1.0
 40
1.0
 40
1.0
 10
-0.4000673551
 20
14.4319398313
 30
0.0
 10
-0.3997247104
 20
14.4552205548
 30
0.0
 10
-0.4078606745
 20
14.5043612691
 30
0.0
 10
-0.4379706871
 20
14.5733290101
 30
0.0
 10
-0.4826440987
 20
14.6338895294
 30
0.0
 10
-0.5211337263
 20
14.6655068958
 30
0.0
 10
-0.5414671722
 20
14.6768514985
 30
0.0
  0
SPLINE
  5
6C4
100
AcDbEntity
  8
ASSI
100
AcDbSpline
 62
250
  6
CONTINUOUS
 70
0
 71
3
 72
9
 73
5
 74
0
 42
0.0000001
 43
0.0000001
 44
0.0000000001
 40
0.0
 40
0.0
 40
0.0
 40
0.0
 40
0.5492559853
 40
1.0
 40
1.0
 40
1.0
 40
1.0
 10
-0.3659354112
 20
14.4115301004
 30
0.0
 10
-0.3500223577
 20
14.4210445505
 30
0.0
 10
-0.3227137377
 20
14.4426617692
 30
0.0
 10
-0.3098052628
 20
14.4765323473
 30
0.0
 10
-0.3098034335
 20
14.4917475079
 30
0.0
  0
SPLINE
  5
6C5
100
AcDbEntity
  8
ASSI
100
AcDbSpline
 62
250
  6
CONTINUOUS
 70
0
 71
3
 72
9
 73
5
 74
0
 42
0.0000001
 43
0.0000001
 44
0.0000000001
 40
0.0
 40
0.0
 40
0.0
 40
0.0
 40
0.5492559858
 40
1.0
 40
1.0
 40
1.0
 40
1.0
 10
-0.3659354112
 20
14.0910385308
 30
0.0
 10
-0.3500223577
 20
14.1005529808
 30
0.0
 10
-0.3227137377
 20
14.1221701996
 30
0.0
 10
-0.3098052629
 20
14.1560407776
 30
0.0
 10
-0.3098034335
 20
14.1712559382
 30
0.0
  0
SPLINE
  5
6C6
100
AcDbEntity
  8
ASSI
100
AcDbSpline
 62
250
  6
CONTINUOUS
 70
0
 71
3
 72
10
 73
6
 74
0
 42
0.0000001
 43
0.0000001
 44
0.0000000001
 40
0.0
 40
0.0
 40
0.0
 40
0.0
 40
0.362666343
 40
0.647672314
 40
1.0
 40
1.0
 40
1.0
 40
1.0
 10
-0.3833045158
 20
14.0452993044
 30
0.0
 10
-0.3800731644
 20
14.0406520497
 30
0.0
 10
-0.3746185958
 20
14.0319436035
 30
0.0
 10
-0.3680410823
 20
14.0183933948
 30
0.0
 10
-0.3663503622
 20
14.0065048171
 30
0.0
 10
-0.3697412366
 20
14.0021758515
 30
0.0
  0
SPLINE
  5
6C7
100
AcDbEntity
  8
ASSI
100
AcDbSpline
 62
7
  6
CONTINUOUS
 70
0
 71
3
 72
9
 73
5
 74
0
 42
0.0000001
 43
0.0000001
 44
0.0000000001
 40
0.0
 40
0.0
 40
0.0
 40
0.0
 40
0.2397206306
 40
1.0
 40
1.0
 40
1.0
 40
1.0
 10
-1.8266225724
 20
12.0210611647
 30
0.0
 10
-1.8311684455
 20
12.0182551844
 30
0.0
 10
-1.8505168141
 20
12.0071757225
 30
0.0
 10
-1.8712053133
 20
11.998522993
 30
0.0
 10
-1.8872546611
 20
11.9930939615
 30
0.0
  0
SPLINE
  5
6C8
100
AcDbEntity
  8
ASSI
100
AcDbSpline
 62
250
  6
CONTINUOUS
 70
0
 71
3
 72
11
 73
7
 74
0
 42
0.0000001
 43
0.0000001
 44
0.0000000001
 40
0.0
 40
0.0
 40
0.0
 40
0.0
 40
0.2367136382
 40
0.4999937471
 40
0.7632772514
 40
1.0
 40
1.0
 40
1.0
 40
1.0
 10
-2.5460719483
 20
13.1928657411
 30
0.0
 10
-2.5464297609
 20
13.2159367774
 30
0.0
 10
-2.5556944352
 20
13.2645548124
 30
0.0
 10
-2.5861959661
 20
13.3329727404
 30
0.0
 10
-2.6301974824
 20
13.3935974623
 30
0.0
 10
-2.6676701359
 20
13.4259310079
 30
0.0
 10
-2.6874717654
 20
13.4377774082
 30
0.0
  0
SPLINE
  5
6C9
100
AcDbEntity
  8
ASSI
100
AcDbSpline
 62
250
  6
CONTINUOUS
 70
0
 71
3
 72
11
 73
7
 74
0
 42
0.0000001
 43
0.0000001
 44
0.0000000001
 40
0.0
 40
0.0
 40
0.0
 40
0.0
 40
0.2382945932
 40
0.5010915771
 40
0.7632956241
 40
1.0
 40
1.0
 40
1.0
 40
1.0
 10
-2.581416611
 20
13.1323410882
 30
0.0
 10
-2.6015592542
 20
13.1211100218
 30
0.0
 10
-2.6480287346
 20
13.1047900713
 30
0.0
 10
-2.7220494443
 20
13.0972004762
 30
0.0
 10
-2.7958386277
 20
13.1054979182
 30
0.0
 10
-2.8419308324
 20
13.1222990469
 30
0.0
 10
-2.8617696413
 20
13.1337537265
 30
0.0
  0
SPLINE
  5
6CA
100
AcDbEntity
  8
ASSI
100
AcDbSpline
 62
250
  6
CONTINUOUS
 70
0
 71
3
 72
11
 73
7
 74
0
 42
0.0000001
 43
0.0000001
 44
0.0000000001
 40
0.0
 40
0.0
 40
0.0
 40
0.0
 40
0.2382946245
 40
0.5010915827
 40
0.763295599
 40
1.0
 40
1.0
 40
1.0
 40
1.0
 10
-2.581416611
 20
12.8332268311
 30
0.0
 10
-2.6015592496
 20
12.8219957441
 30
0.0
 10
-2.6480287283
 20
12.8056757603
 30
0.0
 10
-2.7220494459
 20
12.798086148
 30
0.0
 10
-2.7958386364
 20
12.8063836076
 30
0.0
 10
-2.8419308377
 20
12.8231847697
 30
0.0
 10
-2.8617696413
 20
12.8346394694
 30
0.0
  0
SPLINE
  5
6CB
100
AcDbEntity
  8
ASSI
100
AcDbSpline
 62
7
  6
CONTINUOUS
 70
0
 71
3
 72
9
 73
5
 74
0
 42
0.0000001
 43
0.0000001
 44
0.0000000001
 40
0.0
 40
0.0
 40
0.0
 40
0.0
 40
0.5021317101
 40
1.0
 40
1.0
 40
1.0
 40
1.0
 10
-1.8266225724
 20
12.735965398
 30
0.0
 10
-1.8582943273
 20
12.7019317351
 30
0.0
 10
-1.9345901088
 20
12.645731857
 30
0.0
 10
-2.0297119325
 20
12.6243349105
 30
0.0
 10
-2.0755890306
 20
12.6288220897
 30
0.0
  0
SPLINE
  5
6CC
100
AcDbEntity
  8
ASSI
100
AcDbSpline
 62
250
  6
CONTINUOUS
 70
0
 71
3
 72
11
 73
7
 74
0
 42
0.0000001
 43
0.0000001
 44
0.0000000001
 40
0.0
 40
0.0
 40
0.0
 40
0.0
 40
0.275441773
 40
0.5334917681
 40
0.7726534133
 40
1.0
 40
1.0
 40
1.0
 40
1.0
 10
-2.5634303766
 20
12.8079013344
 30
0.0
 10
-2.5705111137
 20
12.7900309633
 30
0.0
 10
-2.5885037601
 20
12.7568868772
 30
0.0
 10
-2.6266230368
 20
12.7176656611
 30
0.0
 10
-2.6723585034
 20
12.6938932968
 30
0.0
 10
-2.7056983506
 20
12.6903712171
 30
0.0
 10
-2.7214908615
 20
12.6918930093
 30
0.0
  0
SPLINE
  5
6CD
100
AcDbEntity
  8
ASSI
100
AcDbSpline
 62
250
  6
CONTINUOUS
 70
0
 71
3
 72
10
 73
6
 74
0
 42
0.0000001
 43
0.0000001
 44
0.0000000001
 40
0.0
 40
0.0
 40
0.0
 40
0.0
 40
0.5459654424
 40
0.7804263741
 40
1.0
 40
1.0
 40
1.0
 40
1.0
 10
-15.2307097031
 20
23.1582360363
 30
0.0
 10
-15.2103989768
 20
23.1694737846
 30
0.0
 10
-15.1780685839
 20
23.1817045873
 30
0.0
 10
-15.1350644398
 20
23.1801352244
 30
0.0
 10
-15.1165530381
 20
23.1733379613
 30
0.0
 10
-15.1084618545
 20
23.1686814792
 30
0.0
  0
SPLINE
  5
6CE
100
AcDbEntity
  8
ASSI
100
AcDbSpline
 62
250
  6
CONTINUOUS
 70
0
 71
3
 72
10
 73
6
 74
0
 42
0.0000001
 43
0.0000001
 44
0.0000000001
 40
0.0
 40
0.0
 40
0.0
 40
0.0
 40
0.5465330018
 40
0.7807223149
 40
1.0
 40
1.0
 40
1.0
 40
1.0
 10
-13.1279678773
 20
21.9441392597
 30
0.0
 10
-13.1078100112
 20
21.9554523626
 30
0.0
 10
-13.0757001188
 20
21.9678342638
 30
0.0
 10
-13.0329042742
 20
21.9664121085
 30
0.0
 10
-13.0145048933
 20
21.9596564106
 30
0.0
 10
-13.0064729546
 20
21.9550195363
 30
0.0
  0
SPLINE
  5
6CF
100
AcDbEntity
  8
ASSI
100
AcDbSpline
 62
250
  6
CONTINUOUS
 70
0
 71
3
 72
11
 73
7
 74
0
 42
0.0000001
 43
0.0000001
 44
0.0000000001
 40
0.0
 40
0.0
 40
0.0
 40
0.0
 40
0.2367424244
 40
0.4990592793
 40
0.7618806109
 40
1.0
 40
1.0
 40
1.0
 40
1.0
 10
-17.5127716691
 20
21.5930586772
 30
0.0
 10
-17.512771899
 20
21.6216920286
 30
0.0
 10
-17.5021899038
 20
21.6820920659
 30
0.0
 10
-17.4651993204
 20
21.7672145186
 30
0.0
 10
-17.4109240078
 20
21.8427093446
 30
0.0
 10
-17.3643637526
 20
21.882934418
 30
0.0
 10
-17.3396865119
 20
21.8977825674
 30
0.0
  0
SPLINE
  5
6D0
100
AcDbEntity
  8
ASSI
100
AcDbSpline
 62
250
  6
CONTINUOUS
 70
0
 71
3
 72
11
 73
7
 74
0
 42
0.0000001
 43
0.0000001
 44
0.0000000001
 40
0.0
 40
0.0
 40
0.0
 40
0.0
 40
0.2365329028
 40
0.4986323796
 40
0.7614695373
 40
1.0
 40
1.0
 40
1.0
 40
1.0
 10
-15.4482703464
 20
20.4010414878
 30
0.0
 10
-15.4482706468
 20
20.4296623277
 30
0.0
 10
-15.437615177
 20
20.4900395367
 30
0.0
 10
-15.4003445579
 20
20.5750422968
 30
0.0
 10
-15.3456599845
 20
20.6503368375
 30
0.0
 10
-15.2987934501
 20
20.6903354161
 30
0.0
 10
-15.2739724705
 20
20.7050651694
 30
0.0
  0
SPLINE
  5
6D1
100
AcDbEntity
  8
ASSI
100
AcDbSpline
 62
250
  6
CONTINUOUS
 70
0
 71
3
 72
11
 73
7
 74
0
 42
0.0000001
 43
0.0000001
 44
0.0000000001
 40
0.0
 40
0.0
 40
0.0
 40
0.0
 40
0.2380269513
 40
0.500821774
 40
0.7631650638
 40
1.0
 40
1.0
 40
1.0
 40
1.0
 10
-4.7531858068
 20
14.6304948062
 30
0.0
 10
-4.7778537663
 20
14.6156529175
 30
0.0
 10
-4.8244042085
 20
14.5754395854
 30
0.0
 10
-4.8786802421
 20
14.4999592788
 30
0.0
 10
-4.9156831531
 20
14.4148299168
 30
0.0
 10
-4.9262712404
 20
14.3544154561
 30
0.0
 10
-4.926270964
 20
14.325770916
 30
0.0
  0
SPLINE
  5
6D2
100
AcDbEntity
  8
ASSI
100
AcDbSpline
 62
250
  6
CONTINUOUS
 70
0
 71
3
 72
11
 73
7
 74
0
 42
0.0000001
 43
0.0000001
 44
0.0000000001
 40
0.0
 40
0.0
 40
0.0
 40
0.0
 40
0.238461237
 40
0.5012760408
 40
0.7633911928
 40
1.0
 40
1.0
 40
1.0
 40
1.0
 10
-2.6874717654
 20
13.4377774082
 30
0.0
 10
-2.7122855696
 20
13.4230519829
 30
0.0
 10
-2.7591447221
 20
13.3830628105
 30
0.0
 10
-2.8138292418
 20
13.3077796853
 30
0.0
 10
-2.851109615
 20
13.2227720774
 30
0.0
 10
-2.8617698829
 20
13.1623837481
 30
0.0
 10
-2.8617696413
 20
13.1337537265
 30
0.0
  0
SPLINE
  5
6D3
100
AcDbEntity
  8
ASSI
100
AcDbSpline
 62
250
  6
CONTINUOUS
 70
0
 71
3
 72
9
 73
5
 74
0
 42
0.0000001
 43
0.0000001
 44
0.0000000001
 40
0.0
 40
0.0
 40
0.0
 40
0.0
 40
0.5504536583
 40
1.0
 40
1.0
 40
1.0
 40
1.0
 10
-4.926270964
 20
14.0266566589
 30
0.0
 10
-4.9262711265
 20
14.0033828161
 30
0.0
 10
-4.9207408828
 20
13.9602296399
 30
0.0
 10
-4.8934640223
 20
13.9240748422
 30
0.0
 10
-4.8773764171
 20
13.91395216
 30
0.0
  0
SPLINE
  5
6D4
100
AcDbEntity
  8
0
100
AcDbSpline
 62
250
  6
CONTINUOUS
 70
0
 71
3
 72
10
 73
6
 74
0
 42
0.0000001
 43
0.0000001
 44
0.0000000001
 40
0.0
 40
0.0
 40
0.0
 40
0.0
 40
0.3333333333
 40
0.6666666667
 40
1.0
 40
1.0
 40
1.0
 40
1.0
 10
-10.8494074564
 20
-21.5313466574
 30
0.0
 10
-10.8465900205
 20
-21.6110566284
 30
0.0
 10
-10.8409046015
 20
-21.7704433084
 30
0.0
 10
-10.8322248306
 20
-22.0094236544
 30
0.0
 10
-10.8263372318
 20
-22.1686772163
 30
0.0
 10
-10.8233681609
 20
-22.2482873488
 30
0.0
  0
SPLINE
  5
6D5
100
AcDbEntity
  8
0
100
AcDbSpline
 62
250
  6
CONTINUOUS
 70
0
 71
3
 72
10
 73
6
 74
0
 42
0.0000001
 43
0.0000001
 44
0.0000000001
 40
0.0
 40
0.0
 40
0.0
 40
0.0
 40
0.3333333333
 40
0.6666666667
 40
1.0
 40
1.0
 40
1.0
 40
1.0
 10
-9.4034338265
 20
-23.0013997741
 30
0.0
 10
-9.406272598
 20
-22.9217150376
 30
0.0
 10
-9.4119016565
 20
-22.7623130367
 30
0.0
 10
-9.4201997898
 20
-22.5231123474
 30
0.0
 10
-9.4256348994
 20
-22.3635802976
 30
0.0
 10
-9.4283282093
 20
-22.2837980244
 30
0.0
  0
LINE
  5
6D6
100
AcDbEntity
  8
0
100
AcDbLine
 62
250
  6
CONTINUOUS
 10
-10.6236964578
 20
-18.1810977549
 11
-10.6145064508
 21
-18.5335116219
  0
LINE
  5
6D7
100
AcDbEntity
  8
0
100
AcDbLine
 62
250
  6
CONTINUOUS
 10
-9.8636250313
 20
-18.9285527879
 11
-9.8725939643
 21
-18.5760112755
  0
LINE
  5
6D8
100
AcDbEntity
  8
0
100
AcDbLine
 62
250
  6
CONTINUOUS
 10
-13.4804664116
 20
-20.6656789382
 11
-13.6724329271
 21
-20.356598689
  0
SPLINE
  5
6D9
100
AcDbEntity
  8
IMPORT_IGES
100
AcDbSpline
 62
7
  6
CONTINUOUS
 70
0
 71
3
 72
9
 73
5
 74
0
 42
0.0000001
 43
0.0000001
 44
0.0000000001
 40
0.0
 40
0.0
 40
0.0
 40
0.0
 40
0.2544371633
 40
1.0
 40
1.0
 40
1.0
 40
1.0
 10
18.9534339805
 20
15.9342590809
 30
0.0
 10
19.003568838
 20
15.9053113219
 30
0.0
 10
19.1981446046
 20
15.7873660404
 30
0.0
 10
19.3823607474
 20
15.6519787316
 30
0.0
 10
19.5107474693
 20
15.5411016655
 30
0.0
  0
SPLINE
  5
6DA
100
AcDbEntity
  8
IMPORT_IGES
100
AcDbSpline
 62
7
  6
CONTINUOUS
 70
0
 71
3
 72
9
 73
5
 74
0
 42
0.0000001
 43
0.0000001
 44
0.0000000001
 40
0.0
 40
0.0
 40
0.0
 40
0.0
 40
0.2549959034
 40
1.0
 40
1.0
 40
1.0
 40
1.0
 10
18.3124631513
 20
16.2378241432
 30
0.0
 10
18.368768935
 20
16.2162103524
 30
0.0
 10
18.588010305
 20
16.1274593231
 30
0.0
 10
18.8007817875
 20
16.0223970646
 30
0.0
 10
18.9533809861
 20
15.9342896792
 30
0.0
  0
SPLINE
  5
6DB
100
AcDbEntity
  8
IMPORT_IGES
100
AcDbSpline
 62
7
  6
CONTINUOUS
 70
0
 71
3
 72
9
 73
5
 74
0
 42
0.0000001
 43
0.0000001
 44
0.0000000001
 40
0.0
 40
0.0
 40
0.0
 40
0.0
 40
0.4833002106
 40
1.0
 40
1.0
 40
1.0
 40
1.0
 10
7.9845188718
 20
1.6247855536
 30
0.0
 10
8.1896867516
 20
1.7328464743
 30
0.0
 10
8.5942309429
 20
1.9952957626
 30
0.0
 10
8.9554908434
 20
2.3134239504
 30
0.0
 10
9.1310034761
 20
2.4885098711
 30
0.0
  0
SPLINE
  5
6DC
100
AcDbEntity
  8
IMPORT_IGES
100
AcDbSpline
 62
7
  6
CONTINUOUS
 70
0
 71
3
 72
11
 73
7
 74
0
 42
0.0000001
 43
0.0000001
 44
0.0000000001
 40
0.0
 40
0.0
 40
0.0
 40
0.0
 40
0.3024103964
 40
0.5680331049
 40
0.7954383311
 40
1.0
 40
1.0
 40
1.0
 40
1.0
 10
-13.404123787
 20
-8.0737754921
 30
0.0
 10
-13.4157002852
 20
-8.1263976994
 30
0.0
 10
-13.4288690518
 20
-8.2275338392
 30
0.0
 10
-13.4164999124
 20
-8.3699961373
 30
0.0
 10
-13.3684691553
 20
-8.4879812414
 30
0.0
 10
-13.3081707461
 20
-8.5409351668
 30
0.0
 10
-13.2760665638
 20
-8.5581888886
 30
0.0
  0
SPLINE
  5
6DD
100
AcDbEntity
  8
IMPORT_IGES
100
AcDbSpline
 62
7
  6
CONTINUOUS
 70
0
 71
3
 72
11
 73
7
 74
0
 42
0.0000001
 43
0.0000001
 44
0.0000000001
 40
0.0
 40
0.0
 40
0.0
 40
0.0
 40
0.3083119569
 40
0.5864506328
 40
0.8137664603
 40
1.0
 40
1.0
 40
1.0
 40
1.0
 10
8.835615243
 20
2.2156377051
 30
0.0
 10
8.8254179051
 20
2.1987603587
 30
0.0
 10
8.8096740635
 20
2.1643054968
 30
0.0
 10
8.7992591117
 20
2.1127240119
 30
0.0
 10
8.8050706188
 20
2.0676442612
 30
0.0
 10
8.8226508276
 20
2.0451739805
 30
0.0
 10
8.8329671808
 20
2.0392204574
 30
0.0
  0
SPLINE
  5
6DE
100
AcDbEntity
  8
IMPORT_IGES
100
AcDbSpline
 62
7
  6
CONTINUOUS
 70
0
 71
3
 72
15
 73
11
 74
0
 42
0.0000001
 43
0.0000001
 44
0.0000000001
 40
0.0
 40
0.0
 40
0.0
 40
0.0
 40
0.1276154039
 40
0.270397173
 40
0.4187501887
 40
0.5636799109
 40
0.6974344005
 40
0.8138862316
 40
0.9128307553
 40
1.0
 40
1.0
 40
1.0
 40
1.0
 10
10.392365106
 20
3.1480459861
 30
0.0
 10
10.3814180022
 20
3.1417251989
 30
0.0
 10
10.3602069087
 20
3.1249067703
 30
0.0
 10
10.3328358883
 20
3.0935347583
 30
0.0
 10
10.310032908
 20
3.0565930199
 30
0.0
 10
10.2941871699
 20
3.0171614289
 30
0.0
 10
10.2860168062
 20
2.9786270073
 30
0.0
 10
10.2868445806
 20
2.9436297495
 30
0.0
 10
10.2969544593
 20
2.9147413594
 30
0.0
 10
10.3104128989
 20
2.9009129192
 30
0.0
 10
10.3178914149
 20
2.8965970997
 30
0.0
  0
SPLINE
  5
6DF
100
AcDbEntity
  8
IMPORT_IGES
100
AcDbSpline
 62
7
  6
CONTINUOUS
 70
0
 71
3
 72
11
 73
7
 74
0
 42
0.0000001
 43
0.0000001
 44
0.0000000001
 40
0.0
 40
0.0
 40
0.0
 40
0.0
 40
0.2362412286
 40
0.5011533265
 40
0.7638445137
 40
1.0
 40
1.0
 40
1.0
 40
1.0
 10
-12.2350518976
 20
-9.8350939733
 30
0.0
 10
-12.2501053999
 20
-9.8437857686
 30
0.0
 10
-12.2784478777
 20
-9.8682945286
 30
0.0
 10
-12.3122347843
 20
-9.9136890758
 30
0.0
 10
-12.334782484
 20
-9.9656653477
 30
0.0
 10
-12.341208526
 20
-10.00240933
 30
0.0
 10
-12.3410860359
 20
-10.0197852023
 30
0.0
  0
SPLINE
  5
6E0
100
AcDbEntity
  8
IMPORT_IGES
100
AcDbSpline
 62
7
  6
CONTINUOUS
 70
0
 71
3
 72
15
 73
11
 74
0
 42
0.0000001
 43
0.0000001
 44
0.0000000001
 40
0.0
 40
0.0
 40
0.0
 40
0.0
 40
0.1277952391
 40
0.2707030512
 40
0.4188670113
 40
0.5633576579
 40
0.6970040674
 40
0.8138609454
 40
0.9130790662
 40
1.0
 40
1.0
 40
1.0
 40
1.0
 10
-12.2350518976
 20
-8.8553296513
 30
0.0
 10
-12.2460563762
 20
-8.8616835664
 30
0.0
 10
-12.2674201336
 20
-8.878508057
 30
0.0
 10
-12.295079662
 20
-8.9098519829
 30
0.0
 10
-12.3181388422
 20
-8.9467842781
 30
0.0
 10
-12.3339201632
 20
-8.9863590647
 30
0.0
 10
-12.3418566703
 20
-9.0250797612
 30
0.0
 10
-12.3409604155
 20
-9.0602442311
 30
0.0
 10
-12.3309521318
 20
-9.0893190453
 30
0.0
 10
-12.3174788079
 20
-9.1032762712
 30
0.0
 10
-12.3099782084
 20
-9.1075704258
 30
0.0
  0
SPLINE
  5
6E1
100
AcDbEntity
  8
IMPORT_IGES
100
AcDbSpline
 62
7
  6
CONTINUOUS
 70
0
 71
3
 72
15
 73
11
 74
0
 42
0.0000001
 43
0.0000001
 44
0.0000000001
 40
0.0
 40
0.0
 40
0.0
 40
0.0
 40
0.1277952391
 40
0.2707030512
 40
0.4188670113
 40
0.5633576579
 40
0.6970040674
 40
0.8138609454
 40
0.9130790662
 40
1.0
 40
1.0
 40
1.0
 40
1.0
 10
-12.2350518976
 20
-9.3452118123
 30
0.0
 10
-12.2460563762
 20
-9.3515657274
 30
0.0
 10
-12.2674201336
 20
-9.368390218
 30
0.0
 10
-12.295079662
 20
-9.3997341439
 30
0.0
 10
-12.3181388422
 20
-9.4366664391
 30
0.0
 10
-12.3339201632
 20
-9.4762412257
 30
0.0
 10
-12.3418566703
 20
-9.5149619222
 30
0.0
 10
-12.3409604155
 20
-9.5501263922
 30
0.0
 10
-12.3309521318
 20
-9.5792012064
 30
0.0
 10
-12.3174788079
 20
-9.5931584322
 30
0.0
 10
-12.3099782084
 20
-9.5974525868
 30
0.0
  0
SPLINE
  5
6E2
100
AcDbEntity
  8
IMPORT_IGES
100
AcDbSpline
 62
7
  6
CONTINUOUS
 70
0
 71
3
 72
9
 73
5
 74
0
 42
0.0000001
 43
0.0000001
 44
0.0000000001
 40
0.0
 40
0.0
 40
0.0
 40
0.0
 40
0.4534225203
 40
1.0
 40
1.0
 40
1.0
 40
1.0
 10
-12.1600462492
 20
-9.3377766707
 30
0.0
 10
-12.1702674594
 20
-9.3319363113
 30
0.0
 10
-12.197952296
 20
-9.3282926826
 30
0.0
 10
-12.2227625648
 20
-9.3381161805
 30
0.0
 10
-12.2350518976
 20
-9.3452118123
 30
0.0
  0
SPLINE
  5
6E3
100
AcDbEntity
  8
IMPORT_IGES
100
AcDbSpline
 62
7
  6
CONTINUOUS
 70
0
 71
3
 72
9
 73
5
 74
0
 42
0.0000001
 43
0.0000001
 44
0.0000000001
 40
0.0
 40
0.0
 40
0.0
 40
0.0
 40
0.4534225203
 40
1.0
 40
1.0
 40
1.0
 40
1.0
 10
-12.1600462492
 20
-8.8478945097
 30
0.0
 10
-12.1702674594
 20
-8.8420541503
 30
0.0
 10
-12.197952296
 20
-8.8384105216
 30
0.0
 10
-12.2227625648
 20
-8.8482340195
 30
0.0
 10
-12.2350518976
 20
-8.8553296513
 30
0.0
  0
SPLINE
  5
6E4
100
AcDbEntity
  8
IMPORT_IGES
100
AcDbSpline
 62
7
  6
CONTINUOUS
 70
0
 71
3
 72
9
 73
5
 74
0
 42
0.0000001
 43
0.0000001
 44
0.0000000001
 40
0.0
 40
0.0
 40
0.0
 40
0.0
 40
0.4534225203
 40
1.0
 40
1.0
 40
1.0
 40
1.0
 10
-12.1600462492
 20
-9.8276588318
 30
0.0
 10
-12.1702674594
 20
-9.8218184723
 30
0.0
 10
-12.197952296
 20
-9.8181748437
 30
0.0
 10
-12.2227625648
 20
-9.8279983415
 30
0.0
 10
-12.2350518976
 20
-9.8350939733
 30
0.0
  0
SPLINE
  5
6E5
100
AcDbEntity
  8
IMPORT_IGES
100
AcDbSpline
 62
7
  6
CONTINUOUS
 70
0
 71
3
 72
9
 73
5
 74
0
 42
0.0000001
 43
0.0000001
 44
0.0000000001
 40
0.0
 40
0.0
 40
0.0
 40
0.0
 40
0.4567408104
 40
1.0
 40
1.0
 40
1.0
 40
1.0
 10
10.4661160486
 20
3.153491353
 30
0.0
 10
10.4560624413
 20
3.1593986263
 30
0.0
 10
10.4291647077
 20
3.1643208099
 30
0.0
 10
10.4043762682
 20
3.1549810074
 30
0.0
 10
10.392365106
 20
3.1480459861
 30
0.0
  0
SPLINE
  5
6E6
100
AcDbEntity
  8
IMPORT_IGES
100
AcDbSpline
 62
7
  6
CONTINUOUS
 70
0
 71
3
 72
9
 73
5
 74
0
 42
0.0000001
 43
0.0000001
 44
0.0000000001
 40
0.0
 40
0.0
 40
0.0
 40
0.0
 40
0.475814303
 40
1.0
 40
1.0
 40
1.0
 40
1.0
 10
8.9811918145
 20
2.2961147107
 30
0.0
 10
8.9743056258
 20
2.3001608801
 30
0.0
 10
8.9576521502
 20
2.3052169147
 30
0.0
 10
8.9405760433
 20
2.3032808241
 30
0.0
 10
8.9320715745
 20
2.3010237477
 30
0.0
  0
SPLINE
  5
6E7
100
AcDbEntity
  8
IMPORT_IGES
100
AcDbSpline
 62
7
  6
CONTINUOUS
 70
0
 71
3
 72
9
 73
5
 74
0
 42
0.0000001
 43
0.0000001
 44
0.0000000001
 40
0.0
 40
0.0
 40
0.0
 40
0.0
 40
0.2418792998
 40
1.0
 40
1.0
 40
1.0
 40
1.0
 10
7.7542259622
 20
24.7791297254
 30
0.0
 10
7.7542259622
 20
24.7824674408
 30
0.0
 10
7.753963574
 20
24.796266106
 30
0.0
 10
7.7527100701
 20
24.8100391371
 30
0.0
 10
7.7513067198
 20
24.8204059625
 30
0.0
  0
SPLINE
  5
6E8
100
AcDbEntity
  8
IMPORT_IGES
100
AcDbSpline
 62
7
  6
CONTINUOUS
 70
0
 71
3
 72
9
 73
5
 74
0
 42
0.0000001
 43
0.0000001
 44
0.0000000001
 40
0.0
 40
0.0
 40
0.0
 40
0.0
 40
0.453590289
 40
1.0
 40
1.0
 40
1.0
 40
1.0
 10
-12.3099782084
 20
-9.5974525868
 30
0.0
 10
-12.2997692163
 20
-9.6032973182
 30
0.0
 10
-12.2721351207
 20
-9.6070262901
 30
0.0
 10
-12.2473241144
 20
-9.5972386525
 30
0.0
 10
-12.2350518976
 20
-9.5901529032
 30
0.0
  0
SPLINE
  5
6E9
100
AcDbEntity
  8
IMPORT_IGES
100
AcDbSpline
 62
7
  6
CONTINUOUS
 70
0
 71
3
 72
9
 73
5
 74
0
 42
0.0000001
 43
0.0000001
 44
0.0000000001
 40
0.0
 40
0.0
 40
0.0
 40
0.0
 40
0.453590289
 40
1.0
 40
1.0
 40
1.0
 40
1.0
 10
-12.3099782084
 20
-9.1075704258
 30
0.0
 10
-12.2997692163
 20
-9.1134151572
 30
0.0
 10
-12.2721351207
 20
-9.1171441291
 30
0.0
 10
-12.2473241144
 20
-9.1073564915
 30
0.0
 10
-12.2350518976
 20
-9.1002707422
 30
0.0
  0
SPLINE
  5
6EA
100
AcDbEntity
  8
IMPORT_IGES
100
AcDbSpline
 62
7
  6
CONTINUOUS
 70
0
 71
3
 72
9
 73
5
 74
0
 42
0.0000001
 43
0.0000001
 44
0.0000000001
 40
0.0
 40
0.0
 40
0.0
 40
0.0
 40
0.2429158746
 40
1.0
 40
1.0
 40
1.0
 40
1.0
 10
10.9895886505
 20
7.3663317634
 30
0.0
 10
10.9854802901
 20
7.3898126422
 30
0.0
 10
10.9675087056
 20
7.4862815815
 30
0.0
 10
10.9452545912
 20
7.581997156
 30
0.0
 10
10.9252045892
 20
7.6535339424
 30
0.0
  0
SPLINE
  5
6EB
100
AcDbEntity
  8
IMPORT_IGES
100
AcDbSpline
 62
7
  6
CONTINUOUS
 70
0
 71
3
 72
9
 73
5
 74
0
 42
0.0000001
 43
0.0000001
 44
0.0000000001
 40
0.0
 40
0.0
 40
0.0
 40
0.0
 40
0.2344758105
 40
1.0
 40
1.0
 40
1.0
 40
1.0
 10
-12.9280165402
 20
-8.5287802064
 30
0.0
 10
-12.9164006675
 20
-8.5220731808
 30
0.0
 10
-12.867934272
 20
-8.4916122802
 30
0.0
 10
-12.8235780805
 20
-8.4549184752
 30
0.0
 10
-12.7916984956
 20
-8.4248950716
 30
0.0
  0
SPLINE
  5
6EC
100
AcDbEntity
  8
IMPORT_IGES
100
AcDbSpline
 62
250
  6
CONTINUOUS
 70
0
 71
3
 72
9
 73
5
 74
0
 42
0.0000001
 43
0.0000001
 44
0.0000000001
 40
0.0
 40
0.0
 40
0.0
 40
0.0
 40
0.2446708815
 40
1.0
 40
1.0
 40
1.0
 40
1.0
 10
11.2922259336
 20
7.5408504346
 30
0.0
 10
11.2896028508
 20
7.5681633148
 30
0.0
 10
11.2803617808
 20
7.6799336579
 30
0.0
 10
11.2769121182
 20
7.7921658898
 30
0.0
 10
11.2772391326
 20
7.8768714368
 30
0.0
  0
SPLINE
  5
6ED
100
AcDbEntity
  8
IMPORT_IGES
100
AcDbSpline
 62
250
  6
CONTINUOUS
 70
0
 71
3
 72
9
 73
5
 74
0
 42
0.0000001
 43
0.0000001
 44
0.0000000001
 40
0.0
 40
0.0
 40
0.0
 40
0.0
 40
0.25504006
 40
1.0
 40
1.0
 40
1.0
 40
1.0
 10
8.6966182574
 20
2.221297663
 30
0.0
 10
8.6688415838
 20
2.1993556196
 30
0.0
 10
8.5589576753
 20
2.1145648215
 30
0.0
 10
8.4451460893
 20
2.0348315606
 30
0.0
 10
8.3582240678
 20
1.9788397146
 30
0.0
  0
SPLINE
  5
6EE
100
AcDbEntity
  8
IMPORT_IGES
100
AcDbSpline
 62
250
  6
CONTINUOUS
 70
0
 71
3
 72
9
 73
5
 74
0
 42
0.0000001
 43
0.0000001
 44
0.0000000001
 40
0.0
 40
0.0
 40
0.0
 40
0.0
 40
0.2442629482
 40
1.0
 40
1.0
 40
1.0
 40
1.0
 10
10.7632598347
 20
7.5658049522
 30
0.0
 10
10.7718091598
 20
7.5435230359
 30
0.0
 10
10.8052115093
 20
7.4516933967
 30
0.0
 10
10.8323055611
 20
7.3575971703
 30
0.0
 10
10.8494770294
 20
7.2857820894
 30
0.0
  0
SPLINE
  5
6EF
100
AcDbEntity
  8
IMPORT_IGES
100
AcDbSpline
 62
7
  6
CONTINUOUS
 70
0
 71
3
 72
11
 73
7
 74
0
 42
0.0000001
 43
0.0000001
 44
0.0000000001
 40
0.0
 40
0.0
 40
0.0
 40
0.0
 40
0.3099868686
 40
0.5866672309
 40
0.8118760436
 40
1.0
 40
1.0
 40
1.0
 40
1.0
 10
8.9805181247
 20
2.1232811043
 30
0.0
 10
8.990400888
 20
2.1400684965
 30
0.0
 10
9.0058241079
 20
2.173880915
 30
0.0
 10
9.0162031695
 20
2.2245396623
 30
0.0
 10
9.009062005
 20
2.2686612159
 30
0.0
 10
8.9913847051
 20
2.2901255977
 30
0.0
 10
8.9811918145
 20
2.2961147107
 30
0.0
  0
SPLINE
  5
6F0
100
AcDbEntity
  8
IMPORT_IGES
100
AcDbSpline
 62
7
  6
CONTINUOUS
 70
0
 71
3
 72
11
 73
7
 74
0
 42
0.0000001
 43
0.0000001
 44
0.0000000001
 40
0.0
 40
0.0
 40
0.0
 40
0.0
 40
0.3099871048
 40
0.5866669964
 40
0.8118756748
 40
1.0
 40
1.0
 40
1.0
 40
1.0
 10
10.4654435377
 20
2.9806597491
 30
0.0
 10
10.4753260438
 20
2.9974470346
 30
0.0
 10
10.4907488347
 20
3.0312591302
 30
0.0
 10
10.5011273906
 20
3.0819173204
 30
0.0
 10
10.4939859878
 20
3.126038257
 30
0.0
 10
10.4763088351
 20
3.1475023012
 30
0.0
 10
10.4661160486
 20
3.153491353
 30
0.0
  0
SPLINE
  5
6F1
100
AcDbEntity
  8
IMPORT_IGES
100
AcDbSpline
 62
7
  6
CONTINUOUS
 70
0
 71
3
 72
15
 73
11
 74
0
 42
0.0000001
 43
0.0000001
 44
0.0000000001
 40
0.0
 40
0.0
 40
0.0
 40
0.0
 40
0.1276385888
 40
0.2701567515
 40
0.4180103376
 40
0.5626153848
 40
0.6965889887
 40
0.8137304688
 40
0.9130916616
 40
1.0
 40
1.0
 40
1.0
 40
1.0
 10
-12.2350518976
 20
-10.0800350642
 30
0.0
 10
-12.2240561627
 20
-10.0736861976
 30
0.0
 10
-12.202695034
 20
-10.0569373746
 30
0.0
 10
-12.1750132738
 20
-10.0256932258
 30
0.0
 10
-12.152025031
 20
-9.9887585525
 30
0.0
 10
-12.136265491
 20
-9.9491465372
 30
0.0
 10
-12.1282683261
 20
-9.9103495806
 30
0.0
 10
-12.1291069729
 20
-9.8750947299
 30
0.0
 10
-12.1390623276
 20
-9.8459440119
 30
0.0
 10
-12.1525399017
 20
-9.8319479293
 30
0.0
 10
-12.1600462492
 20
-9.8276588318
 30
0.0
  0
SPLINE
  5
6F2
100
AcDbEntity
  8
IMPORT_IGES
100
AcDbSpline
 62
7
  6
CONTINUOUS
 70
0
 71
3
 72
15
 73
11
 74
0
 42
0.0000001
 43
0.0000001
 44
0.0000000001
 40
0.0
 40
0.0
 40
0.0
 40
0.0
 40
0.1276385888
 40
0.2701567515
 40
0.4180103376
 40
0.5626153848
 40
0.6965889887
 40
0.8137304688
 40
0.9130916616
 40
1.0
 40
1.0
 40
1.0
 40
1.0
 10
-12.2350518976
 20
-9.1002707422
 30
0.0
 10
-12.2240561627
 20
-9.0939218756
 30
0.0
 10
-12.202695034
 20
-9.0771730526
 30
0.0
 10
-12.1750132738
 20
-9.0459289038
 30
0.0
 10
-12.152025031
 20
-9.0089942304
 30
0.0
 10
-12.136265491
 20
-8.9693822152
 30
0.0
 10
-12.1282683261
 20
-8.9305852586
 30
0.0
 10
-12.1291069729
 20
-8.8953304079
 30
0.0
 10
-12.1390623276
 20
-8.8661796898
 30
0.0
 10
-12.1525399017
 20
-8.8521836073
 30
0.0
 10
-12.1600462492
 20
-8.8478945097
 30
0.0
  0
SPLINE
  5
6F3
100
AcDbEntity
  8
IMPORT_IGES
100
AcDbSpline
 62
7
  6
CONTINUOUS
 70
0
 71
3
 72
15
 73
11
 74
0
 42
0.0000001
 43
0.0000001
 44
0.0000000001
 40
0.0
 40
0.0
 40
0.0
 40
0.0
 40
0.1276385888
 40
0.2701567515
 40
0.4180103376
 40
0.5626153848
 40
0.6965889887
 40
0.8137304688
 40
0.9130916616
 40
1.0
 40
1.0
 40
1.0
 40
1.0
 10
-12.2350518976
 20
-9.5901529032
 30
0.0
 10
-12.2240561627
 20
-9.5838040366
 30
0.0
 10
-12.202695034
 20
-9.5670552136
 30
0.0
 10
-12.1750132738
 20
-9.5358110648
 30
0.0
 10
-12.152025031
 20
-9.4988763915
 30
0.0
 10
-12.136265491
 20
-9.4592643762
 30
0.0
 10
-12.1282683261
 20
-9.4204674196
 30
0.0
 10
-12.1291069729
 20
-9.3852125689
 30
0.0
 10
-12.1390623276
 20
-9.3560618508
 30
0.0
 10
-12.1525399017
 20
-9.3420657683
 30
0.0
 10
-12.1600462492
 20
-9.3377766707
 30
0.0
  0
SPLINE
  5
6F4
100
AcDbEntity
  8
IMPORT_IGES
100
AcDbSpline
 62
7
  6
CONTINUOUS
 70
0
 71
3
 72
9
 73
5
 74
0
 42
0.0000001
 43
0.0000001
 44
0.0000000001
 40
0.0
 40
0.0
 40
0.0
 40
0.0
 40
0.2580062314
 40
1.0
 40
1.0
 40
1.0
 40
1.0
 10
7.2563313018
 20
24.5346195088
 30
0.0
 10
7.2568089947
 20
24.5310910304
 30
0.0
 10
7.2584539086
 20
24.5173888752
 30
0.0
 10
7.2592512154
 20
24.5035775451
 30
0.0
 10
7.2592512154
 20
24.4933375101
 30
0.0
  0
SPLINE
  5
6F5
100
AcDbEntity
  8
IMPORT_IGES
100
AcDbSpline
 62
250
  6
CONTINUOUS
 70
0
 71
3
 72
9
 73
5
 74
0
 42
0.0000001
 43
0.0000001
 44
0.0000000001
 40
0.0
 40
0.0
 40
0.0
 40
0.0
 40
0.2581506662
 40
1.0
 40
1.0
 40
1.0
 40
1.0
 10
18.0556079637
 20
16.0818400472
 30
0.0
 10
18.0909118186
 20
16.0672064153
 30
0.0
 10
18.2267601107
 20
16.0083856721
 30
0.0
 10
18.3588901587
 20
15.9407263629
 30
0.0
 10
18.4533596544
 20
15.884720591
 30
0.0
  0
SPLINE
  5
6F6
100
AcDbEntity
  8
IMPORT_IGES
100
AcDbSpline
 62
250
  6
CONTINUOUS
 70
0
 71
3
 72
9
 73
5
 74
0
 42
0.0000001
 43
0.0000001
 44
0.0000000001
 40
0.0
 40
0.0
 40
0.0
 40
0.0
 40
0.2581898996
 40
1.0
 40
1.0
 40
1.0
 40
1.0
 10
17.3063044404
 20
11.379213458
 30
0.0
 10
17.412987597
 20
11.3967021579
 30
0.0
 10
17.8244293148
 20
11.474435141
 30
0.0
 10
18.228815069
 20
11.591721006
 30
0.0
 10
18.5185891288
 20
11.7035520408
 30
0.0
  0
SPLINE
  5
6F7
100
AcDbEntity
  8
IMPORT_IGES
100
AcDbSpline
 62
250
  6
CONTINUOUS
 70
0
 71
3
 72
13
 73
9
 74
0
 42
0.0000001
 43
0.0000001
 44
0.0000000001
 40
0.0
 40
0.0
 40
0.0
 40
0.0
 40
0.294922637
 40
0.5556424679
 40
0.6745695455
 40
0.7870650724
 40
0.8947814941
 40
1.0
 40
1.0
 40
1.0
 40
1.0
 10
18.8254425801
 20
11.8336027172
 30
0.0
 10
19.0580571004
 20
11.941622405
 30
0.0
 10
19.4816257382
 20
12.1807958706
 30
0.0
 10
19.9219336821
 20
12.5785297106
 30
0.0
 10
20.1728216907
 20
12.9270510609
 30
0.0
 10
20.3063223197
 20
13.1915864216
 30
0.0
 10
20.388120027
 20
13.464106145
 30
0.0
 10
20.4062160246
 20
13.6498727922
 30
0.0
 10
20.4056889378
 20
13.7413717997
 30
0.0
  0
SPLINE
  5
6F8
100
AcDbEntity
  8
IMPORT_IGES
100
AcDbSpline
 62
7
  6
CONTINUOUS
 70
0
 71
3
 72
10
 73
6
 74
0
 42
0.0000001
 43
0.0000001
 44
0.0000000001
 40
0.0
 40
0.0
 40
0.0
 40
0.0
 40
0.2246625052
 40
0.4627466486
 40
1.0
 40
1.0
 40
1.0
 40
1.0
 10
-13.2760665638
 20
-8.5581888886
 30
0.0
 10
-13.2521614397
 20
-8.571036198
 30
0.0
 10
-13.1982432233
 20
-8.5894240167
 30
0.0
 10
-13.0763635786
 20
-8.5942904352
 30
0.0
 10
-12.9842200829
 20
-8.5612306231
 30
0.0
 10
-12.9280165402
 20
-8.5287802064
 30
0.0
  0
SPLINE
  5
6F9
100
AcDbEntity
  8
RACCORDO
100
AcDbSpline
 62
7
  6
CONTINUOUS
 70
0
 71
3
 72
9
 73
5
 74
0
 42
0.0000001
 43
0.0000001
 44
0.0000000001
 40
0.0
 40
0.0
 40
0.0
 40
0.0
 40
0.4801283006
 40
1.0
 40
1.0
 40
1.0
 40
1.0
 10
21.8093111935
 20
12.967404706
 30
0.0
 10
21.848259415
 20
12.944916491
 30
0.0
 10
21.9250306329
 20
12.8903873892
 30
0.0
 10
21.9927405823
 20
12.8252015277
 30
0.0
 10
22.0256094197
 20
12.7892704196
 30
0.0
  0
SPLINE
  5
6FA
100
AcDbEntity
  8
RACCORDO
100
AcDbSpline
 62
7
  6
CONTINUOUS
 70
0
 71
3
 72
13
 73
9
 74
0
 42
0.0000001
 43
0.0000001
 44
0.0000000001
 40
0.0
 40
0.0
 40
0.0
 40
0.0
 40
0.3110134535
 40
0.5784396895
 40
0.6962367794
 40
0.804479152
 40
0.904908265
 40
1.0
 40
1.0
 40
1.0
 40
1.0
 10
-5.6733990745
 20
19.5405951478
 30
0.0
 10
-5.6958162032
 20
19.5529605584
 30
0.0
 10
-5.7390437996
 20
19.5733575698
 30
0.0
 10
-5.7948176298
 20
19.5885095643
 30
0.0
 10
-5.8354460835
 20
19.591522324
 30
0.0
 10
-5.862363532
 20
19.5895345661
 30
0.0
 10
-5.886742458
 20
19.5833944897
 30
0.0
 10
-5.9013907949
 20
19.5764037741
 30
0.0
 10
-5.9080481446
 20
19.5722866652
 30
0.0
  0
SPLINE
  5
6FB
100
AcDbEntity
  8
RACCORDO
100
AcDbSpline
 62
250
  6
CONTINUOUS
 70
0
 71
3
 72
19
 73
15
 74
0
 42
0.0000001
 43
0.0000001
 44
0.0000000001
 40
0.0
 40
0.0
 40
0.0
 40
0.0
 40
0.0550445025
 40
0.1093108484
 40
0.1645020744
 40
0.2215090573
 40
0.342083683
 40
0.4710313251
 40
0.6060336173
 40
0.7434243577
 40
0.8114569931
 40
0.8777885207
 40
0.9411341313
 40
1.0
 40
1.0
 40
1.0
 40
1.0
 10
-5.2250422647
 20
19.8084949242
 30
0.0
 10
-5.2119205695
 20
19.8155515103
 30
0.0
 10
-5.1865427168
 20
19.8308039623
 30
0.0
 10
-5.1488728985
 20
19.8545293739
 30
0.0
 10
-5.1099359984
 20
19.877240532
 30
0.0
 10
-5.0537665755
 20
19.9058565292
 30
0.0
 10
-4.9761935626
 20
19.9360256591
 30
0.0
 10
-4.8748363409
 20
19.9608613985
 30
0.0
 10
-4.7666922833
 20
19.9735730023
 30
0.0
 10
-4.6742443485
 20
19.9728526006
 30
0.0
 10
-4.6011272598
 20
19.9642563307
 30
0.0
 10
-4.5486204203
 20
19.9535100272
 30
0.0
 10
-4.4998420189
 20
19.9381813718
 30
0.0
 10
-4.4697046526
 20
19.9241793874
 30
0.0
 10
-4.4559063842
 20
19.9162124406
 30
0.0
  0
SPLINE
  5
6FC
100
AcDbEntity
  8
RACCORDO
100
AcDbSpline
 62
250
  6
CONTINUOUS
 70
0
 71
3
 72
11
 73
7
 74
0
 42
0.0000001
 43
0.0000001
 44
0.0000000001
 40
0.0
 40
0.0
 40
0.0
 40
0.0
 40
0.2884152017
 40
0.5473945719
 40
0.7812903632
 40
1.0
 40
1.0
 40
1.0
 40
1.0
 10
-4.4559063842
 20
19.9162124406
 30
0.0
 10
-4.4474421765
 20
19.9209289749
 30
0.0
 10
-4.4306239376
 20
19.9286523149
 30
0.0
 10
-4.4048398937
 20
19.9346325167
 30
0.0
 10
-4.3806387392
 20
19.9340268635
 30
0.0
 10
-4.3659807732
 20
19.9289276822
 30
0.0
 10
-4.3595445589
 20
19.9253829711
 30
0.0
  0
SPLINE
  5
6FD
100
AcDbEntity
  8
RACCORDO
100
AcDbSpline
 62
250
  6
CONTINUOUS
 70
0
 71
3
 72
12
 73
8
 74
0
 42
0.0000001
 43
0.0000001
 44
0.0000000001
 40
0.0
 40
0.0
 40
0.0
 40
0.0
 40
0.1086643264
 40
0.2192906035
 40
0.4527004439
 40
0.7113981866
 40
1.0
 40
1.0
 40
1.0
 40
1.0
 10
-5.4680257187
 20
19.8371222118
 30
0.0
 10
-5.4598786261
 20
19.8415033193
 30
0.0
 10
-5.4426602785
 20
19.8489780842
 30
0.0
 10
-5.4051351044
 20
19.8583770423
 30
0.0
 10
-5.3530284311
 20
19.8587239275
 30
0.0
 10
-5.2881711115
 20
19.8418943828
 30
0.0
 10
-5.2461320833
 20
19.8210968723
 30
0.0
 10
-5.2250422647
 20
19.8084949242
 30
0.0
  0
SPLINE
  5
6FE
100
AcDbEntity
  8
RACCORDO
100
AcDbSpline
 62
7
  6
CONTINUOUS
 70
0
 71
3
 72
12
 73
8
 74
0
 42
0.0000001
 43
0.0000001
 44
0.0000000001
 40
0.0
 40
0.0
 40
0.0
 40
0.0
 40
0.1080091419
 40
0.2183041807
 40
0.4517851705
 40
0.7109940076
 40
1.0
 40
1.0
 40
1.0
 40
1.0
 10
-5.5538688049
 20
19.7909585777
 30
0.0
 10
-5.5457027734
 20
19.7953498689
 30
0.0
 10
-5.5284180127
 20
19.8028520061
 30
0.0
 10
-5.490666895
 20
19.8123508236
 30
0.0
 10
-5.4381281703
 20
19.8129180736
 30
0.0
 10
-5.3725088516
 20
19.7965538844
 30
0.0
 10
-5.329772801
 20
19.7761334367
 30
0.0
 10
-5.3082877129
 20
19.7637282161
 30
0.0
  0
SPLINE
  5
6FF
100
AcDbEntity
  8
0
100
AcDbSpline
 62
7
  6
CONTINUOUS
 70
0
 71
3
 72
9
 73
5
 74
0
 42
0.0000001
 43
0.0000001
 44
0.0000000001
 40
0.0
 40
0.0
 40
0.0
 40
0.0
 40
0.2352674568
 40
1.0
 40
1.0
 40
1.0
 40
1.0
 10
21.9889163159
 20
10.2917821325
 30
0.0
 10
21.9972300115
 20
10.2965823561
 30
0.0
 10
22.0317453277
 20
10.3184020853
 30
0.0
 10
22.0630759298
 20
10.3450512639
 30
0.0
 10
22.0852114275
 20
10.3670454659
 30
0.0
  0
ELLIPSE
  5
700
100
AcDbEntity
  8
ASSI
100
AcDbEllipse
 62
7
  6
CONTINUOUS
 10
-8.5042229529
 20
18.8164167279
 30
0.0
 11
-0.1297033662
 21
0.2137690983
 31
0.0
 40
0.5624589828
 41
-2.3683184642
 42
-0.7978267239
  0
ELLIPSE
  5
701
100
AcDbEntity
  8
ASSI
100
AcDbEllipse
 62
7
  6
CONTINUOUS
 10
-6.995874089
 20
17.945514998
 30
0.0
 11
-0.1297957499
 21
0.2139358869
 31
0.0
 40
0.5616028391
 41
-0.7970295968
 42
-0.0291827002
  0
ELLIPSE
  5
702
100
AcDbEntity
  8
ASSI
100
AcDbEllipse
 62
7
  6
CONTINUOUS
 10
-0.2294614914
 20
12.5708923285
 30
0.0
 11
-0.2500120911
 21
0.4330057209
 31
0.0
 40
0.5775075436
 41
-2.3560905478
 42
-0.7855988075
  0
ELLIPSE
  5
703
100
AcDbEntity
  8
ASSI
100
AcDbEllipse
 62
7
  6
CONTINUOUS
 10
-0.2294614914
 20
-23.1618783404
 30
0.0
 11
-0.2500882309
 21
0.4331376414
 31
0.0
 40
0.5771558487
 41
-3.1241455232
 42
-2.3563950755
  0
ELLIPSE
  5
704
100
AcDbEntity
  8
ASSI
100
AcDbEllipse
 62
7
  6
CONTINUOUS
 10
4.7091511998
 20
16.932929559
 30
0.0
 11
0.487138911
 21
0.8734102324
 31
0.0
 40
0.5671693725
 41
-0.7937771377
 42
-0.5492653826
  0
ELLIPSE
  5
705
100
AcDbEntity
  8
ASSI
100
AcDbEllipse
 62
7
  6
CONTINUOUS
 10
4.7091511998
 20
-17.7124671695
 30
0.0
 11
0.487138911
 21
0.8734102324
 31
0.0
 40
0.5671693725
 41
-1.0382888928
 42
-0.9917896107
  0
ELLIPSE
  5
706
100
AcDbEntity
  8
ASSI
100
AcDbEllipse
 62
7
  6
CONTINUOUS
 10
-6.8665862901
 20
23.6166153076
 30
0.0
 11
1.0061852078
 21
0.5737549327
 31
0.0
 40
0.0052693892
 41
0.0030797579
 42
0.7710730318
  0
ELLIPSE
  5
707
100
AcDbEntity
  8
ASSI
100
AcDbEllipse
 62
7
  6
CONTINUOUS
 10
0.289767871
 20
66.7798339584
 30
0.0
 11
3.5384167561
 21
93.956558266
 31
0.0
 40
0.007354414
 41
-2.1118620253
 42
-2.1113105578
  0
ELLIPSE
  5
708
100
AcDbEntity
  8
ASSI
100
AcDbEllipse
 62
7
  6
CONTINUOUS
 10
-1.9007435144
 20
18.4847380022
 30
0.0
 11
1.0001910505
 21
-0.0152403604
 31
0.0
 40
0.5670911901
 41
-0.775957975
 42
-0.0714836871
  0
ELLIPSE
  5
709
100
AcDbEntity
  8
ASSI
100
AcDbEllipse
 62
7
  6
CONTINUOUS
 10
-2.7991548042
 20
21.614719347
 30
0.0
 11
0.2499422552
 21
-0.0601627623
 31
0.0
 40
0.347355915
 41
-0.7050716436
 42
0.0889026403
  0
ELLIPSE
  5
70A
100
AcDbEntity
  8
ASSI
100
AcDbEllipse
 62
7
  6
CONTINUOUS
 10
10.8093165877
 20
25.3576542563
 30
0.0
 11
18.2927094962
 21
10.9406087409
 31
0.0
 40
0.0150339
 41
-2.6538069639
 42
-2.3143191004
  0
ELLIPSE
  5
70B
100
AcDbEntity
  8
ASSI
100
AcDbEllipse
 62
7
  6
CONTINUOUS
 10
10.8093165877
 20
25.3576542563
 30
0.0
 11
18.2927094962
 21
10.9406087409
 31
0.0
 40
0.0150339
 41
2.2963364625
 42
2.635824326
  0
ELLIPSE
  5
70C
100
AcDbEntity
  8
ASSI
100
AcDbEllipse
 62
7
  6
CONTINUOUS
 10
4.8768212905
 20
16.83611895
 30
0.0
 11
-0.7006352283
 21
1.22850495
 31
0.0
 40
0.5737642108
 41
4.9661243199
 42
6.2749555991
  0
ELLIPSE
  5
70D
100
AcDbEntity
  8
ASSI
100
AcDbEllipse
 62
7
  6
CONTINUOUS
 10
-5.6301562374
 20
15.0373838931
 30
0.0
 11
0.1999154856
 21
0.0095814127
 31
0.0
 40
0.6067642562
 41
-2.385266879
 42
-0.8319238447
  0
ELLIPSE
  5
70E
100
AcDbEntity
  8
ASSI
100
AcDbEllipse
 62
7
  6
CONTINUOUS
 10
-7.9208046346
 20
16.359975569
 30
0.0
 11
0.1999154856
 21
0.0095814127
 31
0.0
 40
0.6067642562
 41
3.1125202707
 42
3.8979184282
  0
ELLIPSE
  5
70F
100
AcDbEntity
  8
ASSI
100
AcDbEllipse
 62
7
  6
CONTINUOUS
 10
-11.6331152358
 20
18.503417184
 30
0.0
 11
0.1999154856
 21
0.0095814127
 31
0.0
 40
0.6067642562
 41
3.1125202707
 42
3.8979184282
  0
ELLIPSE
  5
710
100
AcDbEntity
  8
ASSI
100
AcDbEllipse
 62
7
  6
CONTINUOUS
 10
-9.3424668387
 20
17.1808255081
 30
0.0
 11
0.1999154856
 21
0.0095814127
 31
0.0
 40
0.6067642562
 41
-2.385266879
 42
-0.8319238447
  0
ELLIPSE
  5
711
100
AcDbEntity
  8
ASSI
100
AcDbEllipse
 62
7
  6
CONTINUOUS
 10
-5.5203658994
 20
70.1345323793
 30
0.0
 11
0.7099187674
 21
95.5895827519
 31
0.0
 40
0.0073677858
 41
-2.1149100802
 42
-2.1116070682
  0
ELLIPSE
  5
712
100
AcDbEntity
  8
ASSI
100
AcDbEllipse
 62
7
  6
CONTINUOUS
 10
-5.5203658994
 20
20.0855589914
 30
0.0
 11
1.0
 21
0.0
 31
0.0
 40
0.5777832474
 41
0.7857407797
 42
1.3334966153
  0
ELLIPSE
  5
713
100
AcDbEntity
  8
ASSI
100
AcDbEllipse
 62
7
  6
CONTINUOUS
 10
-5.5203658994
 20
20.5746626028
 30
0.0
 11
0.9999626011
 21
-0.0152436587
 31
0.0
 40
0.5673502155
 41
1.6600261868
 42
2.3645004747
  0
ELLIPSE
  5
714
100
AcDbEntity
  8
ASSI
100
AcDbEllipse
 62
7
  6
CONTINUOUS
 10
-0.9100482452
 20
12.1779286455
 30
0.0
 11
41.2152528071
 21
25.4331976689
 31
0.0
 40
0.0071833017
 41
1.5667062789
 42
1.588604
  0
ELLIPSE
  5
715
100
AcDbEntity
  8
ASSI
100
AcDbEllipse
 62
7
  6
CONTINUOUS
 10
-1.92236155
 20
18.0081163737
 30
0.0
 11
1.0006854676
 21
0.0
 31
0.0
 40
0.5769919578
 41
0.3955131789
 42
0.7850555471
  0
ELLIPSE
  5
716
100
AcDbEntity
  8
ASSI
100
AcDbEllipse
 62
7
  6
CONTINUOUS
 10
-3.6204614643
 20
12.2013010861
 30
0.0
 11
0.249894357
 21
0.0119767658
 31
0.0
 40
0.6067642562
 41
-2.385266879
 42
-0.8319238447
  0
ELLIPSE
  5
717
100
AcDbEntity
  8
ASSI
100
AcDbEllipse
 62
7
  6
CONTINUOUS
 10
-16.2069621694
 20
19.4685888474
 30
0.0
 11
0.249894357
 21
0.0119767658
 31
0.0
 40
0.6067642562
 41
-2.385266879
 42
-0.8319238447
  0
ELLIPSE
  5
718
100
AcDbEntity
  8
ASSI
100
AcDbEllipse
 62
7
  6
CONTINUOUS
 10
-2.000287165
 20
12.1251713319
 30
0.0
 11
0.249894357
 21
0.0119767658
 31
0.0
 40
0.6067642562
 41
-2.385266879
 42
-1.1307167795
  0
ELLIPSE
  5
719
100
AcDbEntity
  8
ASSI
100
AcDbEllipse
 62
7
  6
CONTINUOUS
 10
-4.0199864874
 20
13.2913204079
 30
0.0
 11
0.249894357
 21
0.0119767658
 31
0.0
 40
0.6067642562
 41
3.112520188
 42
3.8979184282
  0
ELLIPSE
  5
71A
100
AcDbEntity
  8
ASSI
100
AcDbEllipse
 62
7
  6
CONTINUOUS
 10
-16.6064871925
 20
20.5586081692
 30
0.0
 11
0.249894357
 21
0.0119767658
 31
0.0
 40
0.6067642562
 41
3.1125202849
 42
3.8979184282
  0
ELLIPSE
  5
71B
100
AcDbEntity
  8
ASSI
100
AcDbEllipse
 62
7
  6
CONTINUOUS
 10
-14.5867878701
 20
19.3924590932
 30
0.0
 11
0.249894357
 21
0.0119767658
 31
0.0
 40
0.6067642562
 41
-2.385266879
 42
-0.8319238447
  0
ELLIPSE
  5
71C
100
AcDbEntity
  8
ASSI
100
AcDbEllipse
 62
7
  6
CONTINUOUS
 10
-2.000287165
 20
-24.871385018
 30
0.0
 11
0.2107210073
 21
0.1927502658
 31
0.0
 40
0.6979176686
 41
-2.9243701816
 42
-2.7333353891
  0
ELLIPSE
  5
71D
100
AcDbEntity
  8
ASSI
100
AcDbEllipse
 62
7
  6
CONTINUOUS
 10
-16.4005264555
 20
19.5803504402
 30
0.0
 11
0.249894357
 21
0.0119767658
 31
0.0
 40
0.6067642562
 41
3.112520188
 42
3.8979184282
  0
ELLIPSE
  5
71E
100
AcDbEntity
  8
ASSI
100
AcDbEllipse
 62
7
  6
CONTINUOUS
 10
-3.8140257504
 20
12.313062679
 30
0.0
 11
0.249894357
 21
0.0119767658
 31
0.0
 40
0.6067642562
 41
3.112520188
 42
3.8979184282
  0
ELLIPSE
  5
71F
100
AcDbEntity
  8
RACCORDO
100
AcDbEllipse
 62
7
  6
CONTINUOUS
 10
24.5952475905
 20
24.9997232678
 30
0.0
 11
-0.4999425808
 21
0.8660887289
 31
0.0
 40
0.5774045194
 41
-1.570655373
 42
-0.7853833814
  0
ELLIPSE
  5
720
100
AcDbEntity
  8
RACCORDO
100
AcDbEllipse
 62
7
  6
CONTINUOUS
 10
11.5987535939
 20
32.5037360171
 30
0.0
 11
-0.5000056969
 21
0.8661980017
 31
0.0
 40
0.5772588242
 41
-0.7852572409
 42
-0.0123398901
  0
ELLIPSE
  5
721
100
AcDbEntity
  8
0
100
AcDbEllipse
 62
7
  6
CONTINUOUS
 10
20.1085349127
 20
13.3774681443
 30
0.0
 11
1.0364148088
 21
1.8264749765
 31
0.0
 40
0.5722717666
 41
-2.8020308872
 42
-2.3604340017
  0
ELLIPSE
  5
722
100
AcDbEntity
  8
0
100
AcDbEllipse
 62
7
  6
CONTINUOUS
 10
20.073488115
 20
17.4392276506
 30
0.0
 11
1.0364148088
 21
1.8264749765
 31
0.0
 40
0.5722717666
 41
-2.801805486
 42
-2.3604340017
  0
ELLIPSE
  5
723
100
AcDbEntity
  8
0
100
AcDbEllipse
 62
7
  6
CONTINUOUS
 10
11.3018703509
 20
26.4341779874
 30
0.0
 11
0.4340187671
 21
-0.0064490065
 31
0.0
 40
0.5672251703
 41
-3.1331645566
 42
-3.0918387158
  0
ELLIPSE
  5
724
100
AcDbEntity
  8
0
100
AcDbEllipse
 62
7
  6
CONTINUOUS
 10
-0.8134574898
 20
20.6353931424
 30
0.0
 11
0.756546839
 21
-0.0112413929
 31
0.0
 40
0.5672251703
 41
-0.8385405468
 42
-0.7856967128
  0
ELLIPSE
  5
725
100
AcDbEntity
  8
0
100
AcDbEllipse
 62
7
  6
CONTINUOUS
 10
6.257610322
 20
16.5526472091
 30
0.0
 11
0.756546839
 21
-0.0112413929
 31
0.0
 40
0.5672251703
 41
-1.6733444306
 42
-0.7856967128
  0
ELLIPSE
  5
726
100
AcDbEntity
  8
RACCORDO
100
AcDbEllipse
 62
7
  6
CONTINUOUS
 10
24.1224788037
 20
-3.7676492354
 30
0.0
 11
-1.000389877
 21
1.7321775001
 31
0.0
 40
0.5772588101
 41
-3.12925227
 42
-2.3564320312
  0
ELLIPSE
  5
727
100
AcDbEntity
  8
RACCORDO
100
AcDbEllipse
 62
7
  6
CONTINUOUS
 10
24.1224788037
 20
24.6637435996
 30
0.0
 11
-1.0002637881
 21
1.7319588718
 31
0.0
 40
0.5774045053
 41
-2.3563059395
 42
-1.5710339479
  0
ELLIPSE
  5
728
100
AcDbEntity
  8
DRAFT
100
AcDbEllipse
 62
7
  6
CONTINUOUS
 10
20.8125113229
 20
17.0125249125
 30
0.0
 11
1.0229917131
 21
1.834161488
 31
0.0
 40
0.5671693725
 41
0.7770191891
 42
1.9066849252
  0
ELLIPSE
  5
729
100
AcDbEntity
  8
DRAFT
100
AcDbEllipse
 62
7
  6
CONTINUOUS
 10
20.8472495322
 20
12.9509435812
 30
0.0
 11
1.0229917131
 21
1.834161488
 31
0.0
 40
0.5671693725
 41
0.7770191891
 42
1.9064541822
  0
ELLIPSE
  5
72A
100
AcDbEntity
  8
RACCORDO
100
AcDbEllipse
 62
7
  6
CONTINUOUS
 10
-6.5581827164
 20
18.5823482804
 30
0.0
 11
0.9114338659
 21
0.9386022539
 31
0.0
 40
0.303500889
 41
0.0764064927
 42
0.0827100087
  0
ELLIPSE
  5
72B
100
AcDbEntity
  8
DRAFT
100
AcDbEllipse
 62
7
  6
CONTINUOUS
 10
20.8472495322
 20
12.9509435812
 30
0.0
 11
1.0229917131
 21
1.834161488
 31
0.0
 40
0.5671693725
 41
2.7891768496
 42
3.9186118427
  0
ELLIPSE
  5
72C
100
AcDbEntity
  8
DRAFT
100
AcDbEllipse
 62
7
  6
CONTINUOUS
 10
20.8125113229
 20
17.0125249125
 30
0.0
 11
1.0229917131
 21
1.834161488
 31
0.0
 40
0.5671693725
 41
2.7889461066
 42
3.9186118427
  0
ELLIPSE
  5
72D
100
AcDbEntity
  8
0
100
AcDbEllipse
 62
7
  6
CONTINUOUS
 10
8.3460613549
 20
-10.8529501803
 30
0.0
 11
0.368556493
 21
0.6607992196
 31
0.0
 40
0.5671693725
 41
0.7857458354
 42
3.9098851964
  0
ELLIPSE
  5
72E
100
AcDbEntity
  8
0
100
AcDbEllipse
 62
7
  6
CONTINUOUS
 10
8.3460613549
 20
-6.7705987963
 30
0.0
 11
0.368556493
 21
0.6607992196
 31
0.0
 40
0.5671693725
 41
0.7857458354
 42
3.9098851964
  0
ELLIPSE
  5
72F
100
AcDbEntity
  8
0
100
AcDbEllipse
 62
7
  6
CONTINUOUS
 10
8.3460613549
 20
-2.6882474124
 30
0.0
 11
0.368556493
 21
0.6607992196
 31
0.0
 40
0.5671693725
 41
0.7857458354
 42
3.9098851964
  0
ELLIPSE
  5
730
100
AcDbEntity
  8
0
100
AcDbEllipse
 62
7
  6
CONTINUOUS
 10
8.3460613549
 20
1.3941039716
 30
0.0
 11
0.368556493
 21
0.6607992196
 31
0.0
 40
0.5671693725
 41
0.7857458354
 42
3.9098851964
  0
ELLIPSE
  5
731
100
AcDbEntity
  8
0
100
AcDbEllipse
 62
7
  6
CONTINUOUS
 10
8.3460613549
 20
5.4764553556
 30
0.0
 11
0.368556493
 21
0.6607992196
 31
0.0
 40
0.5671693725
 41
0.7857458354
 42
3.9098851964
  0
ELLIPSE
  5
732
100
AcDbEntity
  8
0
100
AcDbEllipse
 62
7
  6
CONTINUOUS
 10
8.3460613549
 20
9.5588067395
 30
0.0
 11
0.368556493
 21
0.6607992196
 31
0.0
 40
0.5671693725
 41
0.7857458354
 42
3.9098851964
  0
ELLIPSE
  5
733
100
AcDbEntity
  8
RACCORDO
100
AcDbEllipse
 62
7
  6
CONTINUOUS
 10
-0.889031907
 20
-18.9346016852
 30
0.0
 11
-1.000389877
 21
1.7321775001
 31
0.0
 40
0.5772588101
 41
-2.6330713498
 42
-2.3564320312
  0
ELLIPSE
  5
734
100
AcDbEntity
  8
RACCORDO
100
AcDbEllipse
 62
7
  6
CONTINUOUS
 10
-0.889031907
 20
9.9218202433
 30
0.0
 11
-1.0002637881
 21
1.7319588718
 31
0.0
 40
0.5774045053
 41
3.9268793677
 42
4.2035186863
  0
ELLIPSE
  5
735
100
AcDbEntity
  8
RACCORDO
100
AcDbEllipse
 62
7
  6
CONTINUOUS
 10
-0.889031907
 20
9.9218202433
 30
0.0
 11
-1.0002637881
 21
1.7319588718
 31
0.0
 40
0.5774045053
 41
-1.6642447257
 42
-1.5840898576
  0
ELLIPSE
  5
736
100
AcDbEntity
  8
0
100
AcDbEllipse
 62
7
  6
CONTINUOUS
 10
-0.8134574898
 20
20.6353931424
 30
0.0
 11
0.756546839
 21
-0.0112413929
 31
0.0
 40
0.5672251703
 41
2.3733492333
 42
2.4261930673
  0
ENDSEC
  0
SECTION
  2
OBJECTS
  0
DICTIONARY
  5
C
100
AcDbDictionary
280
0
281
1
  3
ACAD_GROUP
350
D
  3
ACAD_MLINESTYLE
350
17
  3
ACAD_LAYOUT
350
1A
  3
ACAD_PLOTSETTINGS
350
19
  3
ACAD_PLOTSTYLENAME
350
E
  0
DICTIONARY
  5
D
102
{ACAD_REACTORS
330
C
102
}
100
AcDbDictionary
280
0
281
1
  0
ACDBDICTIONARYWDFLT
  5
E
102
{ACAD_REACTORS
330
C
102
}
100
AcDbDictionary
281
1
  3
Normal
350
F
100
AcDbDictionaryWithDefault
340
F
  0
DICTIONARY
  5
17
102
{ACAD_REACTORS
330
C
102
}
100
AcDbDictionary
280
0
281
1
  3
Standard
350
18
  0
DICTIONARY
  5
19
102
{ACAD_REACTORS
330
C
102
}
100
AcDbDictionary
281
1
  0
DICTIONARY
  5
1A
102
{ACAD_REACTORS
330
C
102
}
100
AcDbDictionary
281
1
  3
Model
350
737
  3
Layout1
350
738
  0
ACDBPLACEHOLDER
  5
F
102
{ACAD_REACTORS
330
E
102
}
  0
MLINESTYLE
  5
18
102
{ACAD_REACTORS
330
17
102
}
100
AcDbMlineStyle
  2
STANDARD
 70
0
  3

 62
256
 51
90.0
 52
90.0
 71
2
 49
0.5
 62
256
  6
BYLAYER
 49
-0.5
 62
256
  6
BYLAYER
  0
LAYOUT
  5
737
102
{ACAD_REACTORS
330
1A
102
}
100
AcDbPlotSettings
  1

  2
none_device
  4

  6

 40
0.0
 41
0.0
 42
0.0
 43
0.0
 44
210.0
 45
297.0
 46
0.0
 47
0.0
 48
0.0
 49
0.0
140
0.0
141
0.0
142
1.0
143
1.0
 70
1024
 72
1
 73
0
 74
0
  7

 75
0
147
1.0
148
0.0
149
0.0
100
AcDbLayout
  1
Model
 70
0
 71
0
 10
0.0
 20
0.0
 11
210.0
 21
297.0
 12
0.0
 22
0.0
 32
0.0
 14
0.0
 24
0.0
 34
0.0
 15
0.0
 25
0.0
 35
0.0
146
0.0
 13
0.0
 23
0.0
 33
0.0
 16
1.0
 26
0.0
 36
0.0
 17
0.0
 27
1.0
 37
0.0
 76
0
330
39B
345
0
346
0
  0
LAYOUT
  5
738
102
{ACAD_REACTORS
330
1A
102
}
100
AcDbPlotSettings
  1

  2
none_device
  4

  6

 40
0.0
 41
0.0
 42
0.0
 43
0.0
 44
210.0
 45
297.0
 46
0.0
 47
0.0
 48
0.0
 49
0.0
140
0.0
141
0.0
142
1.0
143
1.0
 70
0
 72
1
 73
0
 74
0
  7

 75
0
147
1.0
148
0.0
149
0.0
100
AcDbLayout
  1
Layout1
 70
0
 71
1
 10
0.0
 20
0.0
 11
210.0
 21
297.0
 12
0.0
 22
0.0
 32
0.0
 14
0.0
 24
0.0
 34
0.0
 15
0.0
 25
0.0
 35
0.0
146
0.0
 13
0.0
 23
0.0
 33
0.0
 16
1.0
 26
0.0
 36
0.0
 17
0.0
 27
1.0
 37
0.0
 76
0
330
39C
345
0
346
0
  0
ENDSEC
  0
EOF
