  0
SECTION
  2
HEADER
  9
$ACADVER
  1
AC1021
  9
$DWGCODEPAGE
  3
ANSI_1252
  9
$EXTMAX
 10
297.0
 20
210.0
 30
0.0
  9
$EXTMIN
 10
0.0
 20
0.0
 30
0.0
  9
$LIMMIN
 10
0.0
 20
0.0
  9
$LIMMAX
 10
297.0
 20
210.0
  9
$VIEWCTR
 10
148.5
 20
105.0
  9
$VIEWSIZE
 40
210.0
  9
$CLAYER
  8
0
  9
$LTSCALE
 40
16.335
  9
$CELTYPE
  6
BYLAYER
  9
$DIMSCALE
 40
1.0
  9
$DIMASZ
 40
3.0
  9
$DIMEXO
 40
0.5
  9
$DIMDLI
 40
11.286
  9
$DIMEXE
 40
1.5
  9
$DIMCEN
 40
2.673
  9
$DIMLFAC
 40
1.0
  9
$DIMBLK
  1
_FILLED
  9
$DIMALT
 70
0
  9
$DIMALTF
 40
25.4
  9
$DIMTXT
 40
3.0
  9
$DIMTOL
 70
1
  9
$DIMLIM
 70
0
  9
$DIMTFAC
 40
1.0
  9
$DIMTP
 40
0.01
  9
$DIMTM
 40
0.01
  9
$DIMGAP
 40
0.625
  9
$DIMDSEP
 70
44
  9
$AUNITS
 70
0
  9
$PDMODE
 70
3
  9
$PDSIZE
 40
3.0
  9
$HANDSEED
  5
644
  9
$TILEMODE
 70
1
  9
$MEASUREMENT
 70
1
  9
$INSUNITS
 70
4
  0
ENDSEC
  0
SECTION
  2
CLASSES
  0
CLASS
  1
ACDBDICTIONARYWDFLT
  2
AcDbDictionaryWithDefault
  3
AutoCAD 2000
 90
0
 91
1
280
0
281
0
  0
CLASS
  1
ACDBPLACEHOLDER
  2
AcDbPlaceHolder
  3
AutoCAD 2000
 90
0
 91
1
280
0
281
0
  0
CLASS
  1
LAYOUT
  2
AcDbLayout
  3
AutoCAD 2000
 90
0
 91
0
280
0
281
0
  0
ENDSEC
  0
SECTION
  2
TABLES
  0
TABLE
  2
VPORT
  5
8
100
AcDbSymbolTable
 70
2
  0
VPORT
  5
1F4
100
AcDbSymbolTableRecord
100
AcDbViewportTableRecord
  2
*ACTIVE
 70
0
 10
0.0
 20
0.0
 11
1.0
 21
1.0
 12
148.5
 22
105.0
 13
0.0
 23
0.0
 14
1.0
 24
1.0
 15
0.0
 25
0.0
 16
0.0
 26
0.0
 36
1.0
 17
0.0
 27
0.0
 37
0.0
 40
210.0
 41
1.4142857143
 42
50.0
 43
0.0
 44
0.0
 50
0.0
 51
0.0
 71
0
 72
100
 73
1
 74
1
 75
0
 76
0
 77
0
 78
0
  0
ENDTAB
  0
TABLE
  2
LTYPE
  5
5
100
AcDbSymbolTable
 70
6
  0
LTYPE
  5
14
100
AcDbSymbolTableRecord
100
AcDbLinetypeTableRecord
  2
BYBLOCK
 70
0
  3

 72
65
 73
0
 40
0.0
  0
LTYPE
  5
15
100
AcDbSymbolTableRecord
100
AcDbLinetypeTableRecord
  2
BYLAYER
 70
0
  3

 72
65
 73
0
 40
0.0
  0
LTYPE
  5
16
100
AcDbSymbolTableRecord
100
AcDbLinetypeTableRecord
  2
CONTINUOUS
 70
64
  3
Solid line
 72
65
 73
0
 40
0.0
  0
LTYPE
  5
1F5
100
AcDbSymbolTableRecord
100
AcDbLinetypeTableRecord
  2
CENTER
 70
64
  3
____ _ ____ _ ____ _ ____ _ ____ _ ____ _ ____
 72
65
 73
4
 40
0.6
 49
0.375
 74
0
 49
-0.075
 74
0
 49
0.075
 74
0
 49
-0.075
 74
0
  0
LTYPE
  5
1F6
100
AcDbSymbolTableRecord
100
AcDbLinetypeTableRecord
  2
HIDDEN
 70
64
  3
- - - - - - - - - - - - - - - - - - - -
 72
65
 73
2
 40
0.2
 49
0.1
 74
0
 49
-0.1
 74
0
  0
LTYPE
  5
1F7
100
AcDbSymbolTableRecord
100
AcDbLinetypeTableRecord
  2
PHANTOM
 70
64
  3
_____ _ _ _____ _ _ _____ _ _ _____
 72
65
 73
6
 40
0.8
 49
0.45
 74
0
 49
-0.05
 74
0
 49
0.1
 74
0
 49
-0.05
 74
0
 49
0.1
 74
0
 49
-0.05
 74
0
  0
LTYPE
  5
1F8
100
AcDbSymbolTableRecord
100
AcDbLinetypeTableRecord
  2
DOT
 70
64
  3
. . . . . . . . . . . . . . . . . . . .
 72
65
 73
2
 40
0.2
 49
0.1
 74
0
 49
-0.1
 74
0
  0
LTYPE
  5
1F9
100
AcDbSymbolTableRecord
100
AcDbLinetypeTableRecord
  2
DASHED
 70
64
  3
- - - - - - - - - - - - - - - - - - - -
 72
65
 73
2
 40
0.2
 49
0.1
 74
0
 49
-0.1
 74
0
  0
ENDTAB
  0
TABLE
  2
LAYER
  5
2
100
AcDbSymbolTable
 70
36
  0
LAYER
  5
10
100
AcDbSymbolTableRecord
100
AcDbLayerTableRecord
  2
0
 70
0
 62
7
  6
CONTINUOUS
370
-3
390
F
  0
LAYER
  5
1FA
100
AcDbSymbolTableRecord
100
AcDbLayerTableRecord
  2
DEFAULT_1
 70
0
 62
7
  6
CENTER
370
-3
390
F
  0
LAYER
  5
1FB
100
AcDbSymbolTableRecord
100
AcDbLayerTableRecord
  2
DEFAULT_2
 70
0
 62
7
  6
HIDDEN
370
-3
390
F
  0
LAYER
  5
1FC
100
AcDbSymbolTableRecord
100
AcDbLayerTableRecord
  2
DEFAULT_3
 70
0
 62
7
  6
PHANTOM
370
-3
390
F
  0
LAYER
  5
1FD
100
AcDbSymbolTableRecord
100
AcDbLayerTableRecord
  2
ASSI
 70
0
 62
7
  6
CONTINUOUS
370
-3
390
F
  0
LAYER
  5
1FE
100
AcDbSymbolTableRecord
100
AcDbLayerTableRecord
  2
COLOR1
 70
0
 62
7
  6
CONTINUOUS
370
-3
390
F
  0
LAYER
  5
1FF
100
AcDbSymbolTableRecord
100
AcDbLayerTableRecord
  2
COORDINATE
 70
0
 62
7
  6
CONTINUOUS
370
-3
390
F
  0
LAYER
  5
200
100
AcDbSymbolTableRecord
100
AcDbLayerTableRecord
  2
COORD_ORIGINE
 70
0
 62
7
  6
CONTINUOUS
370
-3
390
F
  0
LAYER
  5
201
100
AcDbSymbolTableRecord
100
AcDbLayerTableRecord
  2
COPY_PUBLISH
 70
0
 62
7
  6
CONTINUOUS
370
-3
390
F
  0
LAYER
  5
202
100
AcDbSymbolTableRecord
100
AcDbLayerTableRecord
  2
COSMETIC
 70
0
 62
7
  6
CONTINUOUS
370
-3
390
F
  0
LAYER
  5
203
100
AcDbSymbolTableRecord
100
AcDbLayerTableRecord
  2
COSMETICI
 70
0
 62
7
  6
CONTINUOUS
370
-3
390
F
  0
LAYER
  5
204
100
AcDbSymbolTableRecord
100
AcDbLayerTableRecord
  2
CURVE
 70
0
 62
7
  6
CONTINUOUS
370
-3
390
F
  0
LAYER
  5
205
100
AcDbSymbolTableRecord
100
AcDbLayerTableRecord
  2
DRAFT
 70
0
 62
7
  6
CONTINUOUS
370
-3
390
F
  0
LAYER
  5
206
100
AcDbSymbolTableRecord
100
AcDbLayerTableRecord
  2
IMPORT_IGES
 70
0
 62
7
  6
CONTINUOUS
370
-3
390
F
  0
LAYER
  5
207
100
AcDbSymbolTableRecord
100
AcDbLayerTableRecord
  2
INTFCLR_1
 70
0
 62
7
  6
CONTINUOUS
370
-3
390
F
  0
LAYER
  5
208
100
AcDbSymbolTableRecord
100
AcDbLayerTableRecord
  2
INTFCLR_2
 70
0
 62
7
  6
CONTINUOUS
370
-3
390
F
  0
LAYER
  5
209
100
AcDbSymbolTableRecord
100
AcDbLayerTableRecord
  2
INTF_1
 70
0
 62
7
  6
CONTINUOUS
370
-3
390
F
  0
LAYER
  5
20A
100
AcDbSymbolTableRecord
100
AcDbLayerTableRecord
  2
INTF_15
 70
0
 62
7
  6
CONTINUOUS
370
-3
390
F
  0
LAYER
  5
20B
100
AcDbSymbolTableRecord
100
AcDbLayerTableRecord
  2
INTF_16
 70
0
 62
7
  6
CONTINUOUS
370
-3
390
F
  0
LAYER
  5
20C
100
AcDbSymbolTableRecord
100
AcDbLayerTableRecord
  2
INTF_5
 70
0
 62
7
  6
CONTINUOUS
370
-3
390
F
  0
LAYER
  5
20D
100
AcDbSymbolTableRecord
100
AcDbLayerTableRecord
  2
INTF_CYAN
 70
0
 62
7
  6
CONTINUOUS
370
-3
390
F
  0
LAYER
  5
20E
100
AcDbSymbolTableRecord
100
AcDbLayerTableRecord
  2
INTF_YELLOW
 70
0
 62
7
  6
CONTINUOUS
370
-3
390
F
  0
LAYER
  5
20F
100
AcDbSymbolTableRecord
100
AcDbLayerTableRecord
  2
NOTE
 70
0
 62
7
  6
CONTINUOUS
370
-3
390
F
  0
LAYER
  5
210
100
AcDbSymbolTableRecord
100
AcDbLayerTableRecord
  2
PIANI
 70
0
 62
7
  6
CONTINUOUS
370
-3
390
F
  0
LAYER
  5
211
100
AcDbSymbolTableRecord
100
AcDbLayerTableRecord
  2
PIANI_COSTRUZIONE_PROFILO
 70
0
 62
7
  6
CONTINUOUS
370
-3
390
F
  0
LAYER
  5
212
100
AcDbSymbolTableRecord
100
AcDbLayerTableRecord
  2
PIANI_ORIGINE
 70
0
 62
7
  6
CONTINUOUS
370
-3
390
F
  0
LAYER
  5
213
100
AcDbSymbolTableRecord
100
AcDbLayerTableRecord
  2
PUNTI
 70
0
 62
7
  6
CONTINUOUS
370
-3
390
F
  0
LAYER
  5
214
100
AcDbSymbolTableRecord
100
AcDbLayerTableRecord
  2
RACCORDO
 70
0
 62
7
  6
CONTINUOUS
370
-3
390
F
  0
LAYER
  5
215
100
AcDbSymbolTableRecord
100
AcDbLayerTableRecord
  2
SCRITTE
 70
0
 62
7
  6
CONTINUOUS
370
-3
390
F
  0
LAYER
  5
216
100
AcDbSymbolTableRecord
100
AcDbLayerTableRecord
  2
SIMBOLI
 70
0
 62
7
  6
CONTINUOUS
370
-3
390
F
  0
LAYER
  5
217
100
AcDbSymbolTableRecord
100
AcDbLayerTableRecord
  2
SKEL
 70
0
 62
7
  6
CONTINUOUS
370
-3
390
F
  0
LAYER
  5
218
100
AcDbSymbolTableRecord
100
AcDbLayerTableRecord
  2
SMUSSO
 70
0
 62
7
  6
CONTINUOUS
370
-3
390
F
  0
LAYER
  5
219
100
AcDbSymbolTableRecord
100
AcDbLayerTableRecord
  2
SNAPLINE
 70
0
 62
7
  6
CONTINUOUS
370
-3
390
F
  0
LAYER
  5
21A
100
AcDbSymbolTableRecord
100
AcDbLayerTableRecord
  2
SUPERFICI
 70
0
 62
7
  6
CONTINUOUS
370
-3
390
F
  0
LAYER
  5
21B
100
AcDbSymbolTableRecord
100
AcDbLayerTableRecord
  2
SUPERFICI_ESTETICHE
 70
0
 62
7
  6
CONTINUOUS
370
-3
390
F
  0
LAYER
  5
21C
100
AcDbSymbolTableRecord
100
AcDbLayerTableRecord
  2
SUPERFICI_SKEL
 70
0
 62
7
  6
CONTINUOUS
370
-3
390
F
  0
LAYER
  5
21D
100
AcDbSymbolTableRecord
100
AcDbLayerTableRecord
  2
TRASH
 70
0
 62
7
  6
CONTINUOUS
370
-3
390
F
  0
LAYER
  5
21E
100
AcDbSymbolTableRecord
100
AcDbLayerTableRecord
  2
XSEC_DATUMS
 70
0
 62
7
  6
CONTINUOUS
370
-3
390
F
  0
ENDTAB
  0
TABLE
  2
STYLE
  5
3
100
AcDbSymbolTable
 70
1
  0
STYLE
  5
11
100
AcDbSymbolTableRecord
100
AcDbTextStyleTableRecord
  2
STANDARD
 70
0
 40
0.0
 41
0.8
 50
0.0
 71
0
 42
0.2
  3
txt
  4

  0
STYLE
  5
21F
100
AcDbSymbolTableRecord
100
AcDbTextStyleTableRecord
  2
TEXTSTYLE_1
 70
0
 40
0.0
 41
0.8
 50
0.0
 71
0
 42
0.2
  3
gdt
  4

  0
ENDTAB
  0
TABLE
  2
VIEW
  5
6
100
AcDbSymbolTable
 70
0
  0
ENDTAB
  0
TABLE
  2
UCS
  5
7
100
AcDbSymbolTable
 70
0
  0
ENDTAB
  0
TABLE
  2
APPID
  5
9
100
AcDbSymbolTable
 70
1
  0
APPID
  5
220
100
AcDbSymbolTableRecord
100
AcDbRegAppTableRecord
  2
ACAD
 70
0
  0
ENDTAB
  0
TABLE
  2
BLOCK_RECORD
  5
1
100
AcDbSymbolTable
 70
0
  0
BLOCK_RECORD
  5
221
100
AcDbSymbolTableRecord
100
AcDbBlockTableRecord
  2
*Model_Space
  0
BLOCK_RECORD
  5
222
100
AcDbSymbolTableRecord
100
AcDbBlockTableRecord
  2
*Paper_Space
  0
ENDTAB
  0
TABLE
  2
DIMSTYLE
  5
A
100
AcDbSymbolTable
 70
1
100
AcDbDimStyleTable
 71
0
  0
DIMSTYLE
105
223
100
AcDbSymbolTableRecord
100
AcDbDimStyleTableRecord
  2
STANDARD
 70
0
  3

  4

 40
1.0
 41
3.0
 42
0.5
 43
0.38
 44
1.5
 45
0.0
 46
0.0
 47
0.01
 48
0.01
140
3.0
141
0.09
142
0.0
143
25.4
144
1.0
145
0.0
146
1.0
147
0.625
 71
1.0
 72
0.0
 73
0
 74
0
 75
0
 76
0
 77
1
 78
8
170
0
171
1
172
0
173
0
174
0
175
0
176
0
177
0
178
0
270
2
271
2
272
2
273
2
274
2
275
0
280
0
281
0
282
0
283
1
284
8
285
0
286
0
287
3
288
0
340
11
278
44
  0
ENDTAB
  0
ENDSEC
  0
SECTION
  2
BLOCKS
  0
BLOCK
  5
20
100
AcDbEntity
  8
0
100
AcDbBlockBegin
  2
*Model_Space
 70
0
 10
0.0
 20
0.0
 30
0.0
  3
*Model_Space
  1

  0
ENDBLK
  5
21
100
AcDbEntity
  8
0
100
AcDbBlockEnd
  0
BLOCK
  5
1C
100
AcDbEntity
  8
0
100
AcDbBlockBegin
  2
*Paper_Space
 70
0
 10
0.0
 20
0.0
 30
0.0
  3
*Paper_Space
  1

  0
ENDBLK
  5
1D
100
AcDbEntity
  8
0
100
AcDbBlockEnd
  0
ENDSEC
  0
SECTION
  2
ENTITIES
  0
LWPOLYLINE
  5
224
100
AcDbEntity
  8
ASSI
100
AcDbPolyline
 62
253
  6
CONTINUOUS
 90
11
 70
0
 10
-16.3031810067
 20
25.5000530052
 10
-16.2943623418
 20
25.5117711889
 10
-16.2851993492
 20
25.5229986004
 10
-16.2757212807
 20
25.5336979992
 10
-16.2659654742
 20
25.5438253099
 10
-16.2559671389
 20
25.5533431504
 10
-16.2457628223
 20
25.5622158788
 10
-16.2353938711
 20
25.5704067507
 10
-16.224899713
 20
25.5778849034
 10
-16.2143174502
 20
25.5846244964
 10
-16.2036858638
 20
25.5906010868
  0
LWPOLYLINE
  5
225
100
AcDbEntity
  8
RACCORDO
100
AcDbPolyline
 62
253
  6
CONTINUOUS
 90
20
 70
0
 10
-18.999646359
 20
21.2083319556
 10
-19.057958932
 20
21.1628561572
 10
-19.1151536605
 20
21.112979755
 10
-19.1709509783
 20
21.0589491232
 10
-19.2251114513
 20
21.0010428078
 10
-19.2773588441
 20
20.9395361489
 10
-19.3274180539
 20
20.8747274273
 10
-19.3750664085
 20
20.8069557225
 10
-19.4200589525
 20
20.7365516712
 10
-19.4621626676
 20
20.6638534019
 10
-19.5011940408
 20
20.5892314399
 10
-19.5369547625
 20
20.513048579
 10
-19.5692580271
 20
20.4356738123
 10
-19.5979631852
 20
20.3574988087
 10
-19.622924013
 20
20.2789111895
 10
-19.6440123817
 20
20.2002860112
 10
-19.6611414068
 20
20.1219996428
 10
-19.6742278276
 20
20.0444318844
 10
-19.6831953452
 20
19.9679640582
 10
-19.6879961173
 20
19.8929705853
  0
LINE
  5
226
100
AcDbEntity
  8
ASSI
100
AcDbLine
 62
7
  6
CONTINUOUS
 10
-15.474765916
 20
24.4763941651
 11
-15.4413025027
 21
24.5019757134
  0
LWPOLYLINE
  5
227
100
AcDbEntity
  8
ASSI
100
AcDbPolyline
 62
7
  6
CONTINUOUS
 90
19
 70
0
 10
-19.9506896555
 20
21.7692880223
 10
-19.9626463543
 20
21.7620994983
 10
-20.0348449766
 20
21.7142426243
 10
-20.1039320248
 20
21.6608337896
 10
-20.1699122592
 20
21.6021551285
 10
-20.2326794
 20
21.5385414987
 10
-20.2919122669
 20
21.470507271
 10
-20.3475310443
 20
21.3983391244
 10
-20.3993895956
 20
21.3223118908
 10
-20.4470487309
 20
21.2431415944
 10
-20.4903828719
 20
21.1611435663
 10
-20.529213223
 20
21.0766038282
 10
-20.5631576961
 20
20.9903538792
 10
-20.5920717418
 20
20.902719323
 10
-20.6157824187
 20
20.8139757382
 10
-20.6340228769
 20
20.7248355482
 10
-20.6466093451
 20
20.6356624729
 10
-20.6533873434
 20
20.5466130113
 10
-20.6538411587
 20
20.5347423667
  0
LWPOLYLINE
  5
228
100
AcDbEntity
  8
ASSI
100
AcDbPolyline
 62
7
  6
CONTINUOUS
 90
12
 70
0
 10
-16.2960412956
 20
25.5947479768
 10
-16.3145511183
 20
25.5836906369
 10
-16.3357667458
 20
25.5680463858
 10
-16.3555845751
 20
25.5499679013
 10
-16.3737509025
 20
25.5296241062
 10
-16.3896057007
 20
25.5078563673
 10
-16.4034185727
 20
25.4844175631
 10
-16.4151388314
 20
25.4592045773
 10
-16.4241836575
 20
25.433414605
 10
-16.4305522997
 20
25.4073556927
 10
-16.4343464754
 20
25.3803499351
 10
-16.4353495631
 20
25.3576610538
  0
LINE
  5
229
100
AcDbEntity
  8
ASSI
100
AcDbLine
 62
7
  6
CONTINUOUS
 10
-19.9508436295
 20
21.7692101425
 11
-15.7204865444
 21
24.2769750928
  0
LINE
  5
22A
100
AcDbEntity
  8
ASSI
100
AcDbLine
 62
253
  6
CONTINUOUS
 10
-15.7204865444
 20
24.1298597754
 11
-19.7746708319
 21
21.7264725222
  0
LINE
  5
22B
100
AcDbEntity
  8
ASSI
100
AcDbLine
 62
7
  6
CONTINUOUS
 10
-16.2961824849
 20
25.5946726317
 11
-14.7289819945
 21
26.4402132506
  0
LINE
  5
22C
100
AcDbEntity
  8
ASSI
100
AcDbLine
 62
253
  6
CONTINUOUS
 10
-16.2036858638
 20
25.5906010868
 11
-14.6374351177
 21
26.4356292968
  0
LINE
  5
22D
100
AcDbEntity
  8
ASSI
100
AcDbLine
 62
7
  6
CONTINUOUS
 10
-14.7247741576
 20
26.4423191282
 11
-14.7289396611
 21
26.4402360904
  0
LWPOLYLINE
  5
22E
100
AcDbEntity
  8
ASSI
100
AcDbPolyline
 62
253
  6
CONTINUOUS
 90
7
 70
0
 10
-16.296041561
 20
25.5947484706
 10
-16.2907423463
 20
25.5973318395
 10
-16.275276278
 20
25.6022742331
 10
-16.2585435379
 20
25.6040760922
 10
-16.240830317
 20
25.6027065985
 10
-16.222439576
 20
25.5981891752
 10
-16.2036858638
 20
25.5906010868
  0
LINE
  5
22F
100
AcDbEntity
  8
ASSI
100
AcDbLine
 62
7
  6
CONTINUOUS
 10
-14.7247163178
 20
26.4423459182
 11
-14.1810329401
 21
26.6934369191
  0
LINE
  5
230
100
AcDbEntity
  8
ASSI
100
AcDbLine
 62
253
  6
CONTINUOUS
 10
-14.6374351177
 20
26.4356292968
 11
-14.094709055
 21
26.6862781779
  0
LWPOLYLINE
  5
231
100
AcDbEntity
  8
ASSI
100
AcDbPolyline
 62
253
  6
CONTINUOUS
 90
12
 70
0
 10
-14.094709055
 20
26.6862781779
 10
-14.0863398261
 20
26.6900138206
 10
-14.0777425831
 20
26.6933461473
 10
-14.0689409354
 20
26.6962202914
 10
-14.0599425691
 20
26.6985844282
 10
-14.0507987995
 20
26.7003740669
 10
-14.0416021944
 20
26.7015262574
 10
-14.0323886655
 20
26.7019958887
 10
-14.0231975978
 20
26.701738779
 10
-14.0141249535
 20
26.7007207294
 10
-14.0052102675
 20
26.6989145719
 10
-13.9964952424
 20
26.6962957382
  0
LINE
  5
232
100
AcDbEntity
  8
ASSI
100
AcDbLine
 62
7
  6
CONTINUOUS
 10
-14.1576845577
 20
26.702757168
 11
-14.1808159217
 21
26.6935365959
  0
LWPOLYLINE
  5
233
100
AcDbEntity
  8
ASSI
100
AcDbPolyline
 62
253
  6
CONTINUOUS
 90
6
 70
0
 10
-14.18081597
 20
26.6935367013
 10
-14.1644936386
 20
26.6988542514
 10
-14.1480542607
 20
26.7005094351
 10
-14.1307446964
 20
26.6989381137
 10
-14.1128610022
 20
26.6941671615
 10
-14.094709055
 20
26.6862781779
  0
LWPOLYLINE
  5
234
100
AcDbEntity
  8
ASSI
100
AcDbPolyline
 62
7
  6
CONTINUOUS
 90
12
 70
0
 10
-13.2771226294
 20
23.7511203846
 10
-13.2991553656
 20
23.7304756255
 10
-13.3230431572
 20
23.7112105315
 10
-13.3486103954
 20
23.6937179341
 10
-13.3758106457
 20
23.6783656749
 10
-13.4042252777
 20
23.6655123162
 10
-13.4330403239
 20
23.655443743
 10
-13.4618700014
 20
23.6483464574
 10
-13.490418564
 20
23.6443988329
 10
-13.5179556415
 20
23.6436578287
 10
-13.5440102196
 20
23.6460501579
 10
-13.5548176328
 20
23.6480401558
  0
LWPOLYLINE
  5
235
100
AcDbEntity
  8
RACCORDO
100
AcDbPolyline
 62
253
  6
CONTINUOUS
 90
3
 70
0
 10
-18.8809305021
 20
21.285251581
 10
-18.9405346633
 20
21.2491955417
 10
-18.999646359
 20
21.2083319556
  0
LWPOLYLINE
  5
236
100
AcDbEntity
  8
RACCORDO
100
AcDbPolyline
 62
7
  6
CONTINUOUS
 90
19
 70
0
 10
-18.9729336321
 20
21.2895218449
 10
-18.9867377506
 20
21.2814669431
 10
-19.0602609102
 20
21.2338920553
 10
-19.1317668552
 20
21.1797578355
 10
-19.2009580182
 20
21.1194279364
 10
-19.2674698619
 20
21.0533761131
 10
-19.3307802294
 20
20.9822560492
 10
-19.3905170877
 20
20.9066732594
 10
-19.4464609581
 20
20.8270603708
 10
-19.4983016714
 20
20.7439385607
 10
-19.5457566195
 20
20.6578791125
 10
-19.5885698094
 20
20.569391956
 10
-19.6265112292
 20
20.4789654103
 10
-19.6593440995
 20
20.3871644792
 10
-19.6868258714
 20
20.2945325143
 10
-19.7087757727
 20
20.2014989896
 10
-19.7249808452
 20
20.1085368091
 10
-19.7352108064
 20
20.0162359533
 10
-19.7385095557
 20
19.9586742146
  0
LINE
  5
237
100
AcDbEntity
  8
RACCORDO
100
AcDbLine
 62
7
  6
CONTINUOUS
 10
-17.0485040377
 20
22.3932982057
 11
-18.9730348374
 21
21.289474076
  0
LINE
  5
238
100
AcDbEntity
  8
RACCORDO
100
AcDbLine
 62
253
  6
CONTINUOUS
 10
-16.9553164712
 20
22.3896970033
 11
-18.8809304939
 21
21.2852515857
  0
LWPOLYLINE
  5
239
100
AcDbEntity
  8
ASSI
100
AcDbPolyline
 62
7
  6
CONTINUOUS
 90
12
 70
0
 10
-10.5795941171
 20
23.7020568385
 10
-10.5877529814
 20
23.6974270811
 10
-10.6069386143
 20
23.6845708731
 10
-10.6247263065
 20
23.6697142735
 10
-10.6408768703
 20
23.6530449456
 10
-10.655327232
 20
23.6345898736
 10
-10.6678697768
 20
23.6145393773
 10
-10.678306966
 20
23.5931535926
 10
-10.6865742088
 20
23.5704848609
 10
-10.6925454385
 20
23.5466645094
 10
-10.6960804669
 20
23.5220027035
 10
-10.6971140723
 20
23.4993103286
  0
LWPOLYLINE
  5
23A
100
AcDbEntity
  8
0
100
AcDbPolyline
 62
253
  6
CONTINUOUS
 90
6
 70
0
 10
-13.7387181377
 20
21.8749408968
 10
-13.7283409606
 20
21.8808256364
 10
-13.7188583518
 20
21.8876500958
 10
-13.7103424797
 20
21.8953623369
 10
-13.7028581551
 20
21.9039036647
 10
-13.6969360377
 20
21.9124328194
  0
LINE
  5
23B
100
AcDbEntity
  8
RACCORDO
100
AcDbLine
 62
253
  6
CONTINUOUS
 10
-19.2421776805
 20
21.4909901542
 11
-17.3064647414
 21
22.5652711385
  0
LINE
  5
23C
100
AcDbEntity
  8
RACCORDO
100
AcDbLine
 62
253
  6
CONTINUOUS
 10
-19.0945944051
 20
21.2503981114
 11
-17.4448285145
 21
22.1659843479
  0
LINE
  5
23D
100
AcDbEntity
  8
ASSI
100
AcDbLine
 62
7
  6
CONTINUOUS
 10
-14.354570866
 20
23.346803949
 11
-14.8972969287
 21
23.0505138387
  0
LINE
  5
23E
100
AcDbEntity
  8
ASSI
100
AcDbLine
 62
7
  6
CONTINUOUS
 10
-13.2771226294
 20
22.9929199385
 11
-12.3746718787
 21
23.4855943294
  0
LINE
  5
23F
100
AcDbEntity
  8
ASSI
100
AcDbLine
 62
7
  6
CONTINUOUS
 10
-10.3677957466
 20
23.8163270067
 11
-10.5796081101
 21
23.7020493772
  0
LINE
  5
240
100
AcDbEntity
  8
ASSI
100
AcDbLine
 62
253
  6
CONTINUOUS
 10
-10.2533784591
 20
23.8105882656
 11
-10.4642327764
 21
23.6968275241
  0
LINE
  5
241
100
AcDbEntity
  8
ASSI
100
AcDbLine
 62
253
  6
CONTINUOUS
 10
-14.1379718224
 20
24.5577440661
 11
-12.5160716958
 21
25.3749475859
  0
LINE
  5
242
100
AcDbEntity
  8
ASSI
100
AcDbLine
 62
253
  6
CONTINUOUS
 10
-13.9965720054
 20
24.3138654568
 11
-12.3746718787
 21
25.1310689766
  0
LINE
  5
243
100
AcDbEntity
  8
ASSI
100
AcDbLine
 62
7
  6
CONTINUOUS
 10
-10.3678020392
 20
23.8163236308
 11
-10.3625878358
 21
23.818934212
  0
LINE
  5
244
100
AcDbEntity
  8
ASSI
100
AcDbLine
 62
253
  6
CONTINUOUS
 10
-12.5160716958
 20
25.3749475859
 11
-11.9919652346
 21
25.6349082544
  0
LINE
  5
245
100
AcDbEntity
  8
ASSI
100
AcDbLine
 62
253
  6
CONTINUOUS
 10
-12.3746718787
 20
25.1310689766
 11
-11.8505674122
 21
25.3910286557
  0
LWPOLYLINE
  5
246
100
AcDbEntity
  8
ASSI
100
AcDbPolyline
 62
253
  6
CONTINUOUS
 90
8
 70
0
 10
-19.9506954802
 20
21.7692978703
 10
-19.9238580296
 20
21.7823243156
 10
-19.8930921311
 20
21.7913610005
 10
-19.8601692523
 20
21.7954512937
 10
-19.825449475
 20
21.7945504591
 10
-19.7893125338
 20
21.788668349
 10
-19.7521536628
 20
21.777869297
 10
-19.7143792732
 20
21.7622714136
  0
LINE
  5
247
100
AcDbEntity
  8
ASSI
100
AcDbLine
 62
7
  6
CONTINUOUS
 10
-5.362839064
 20
26.9116573325
 11
-11.7065361636
 21
23.8435167234
  0
LWPOLYLINE
  5
248
100
AcDbEntity
  8
0
100
AcDbPolyline
 62
7
  6
CONTINUOUS
 90
12
 70
0
 10
-14.0194226278
 20
23.7050817831
 10
-14.0088055377
 20
23.710202014
 10
-13.9989756405
 20
23.7145880638
 10
-13.9899329362
 20
23.7182399325
 10
-13.9816208745
 20
23.7211741537
 10
-13.9740960057
 20
23.7233741937
 10
-13.9675279811
 20
23.7247904518
 10
-13.9619385363
 20
23.7254051235
 10
-13.9573059356
 20
23.7252360133
 10
-13.9537346229
 20
23.7242869339
 10
-13.9512487065
 20
23.7225401673
 10
-13.9507304399
 20
23.7218931517
  0
LWPOLYLINE
  5
249
100
AcDbEntity
  8
RACCORDO
100
AcDbPolyline
 62
7
  6
CONTINUOUS
 90
15
 70
0
 10
-5.362839064
 20
26.9116573325
 10
-5.3304237725
 20
26.9271603967
 10
-5.2996294045
 20
26.9414810237
 10
-5.2704559598
 20
26.9546192135
 10
-5.2428165228
 20
26.9666287264
 10
-5.2167980092
 20
26.9774558022
 10
-5.1926611666
 20
26.9869391594
 10
-5.1703521095
 20
26.9951025893
 10
-5.1499247235
 20
27.0019223007
 10
-5.1318014123
 20
27.0071656389
 10
-5.11597792
 20
27.0108285486
 10
-5.1024585026
 20
27.012915085
 10
-5.0916783321
 20
27.0132047594
 10
-5.0836531917
 20
27.0116849982
 10
-5.0819893182
 20
27.0109979715
  0
LWPOLYLINE
  5
24A
100
AcDbEntity
  8
ASSI
100
AcDbPolyline
 62
253
  6
CONTINUOUS
 90
28
 70
0
 10
-11.8505674122
 20
25.3910286557
 10
-11.8489036388
 20
25.3918183677
 10
-11.8472081789
 20
25.3925032767
 10
-11.8454810326
 20
25.3930833828
 10
-11.8437118882
 20
25.39356929
 10
-11.8419110573
 20
25.3939503942
 10
-11.8401094751
 20
25.3941948836
 10
-11.8383063035
 20
25.3942987634
 10
-11.8365023807
 20
25.3942660284
 10
-11.8347311562
 20
25.394076851
 10
-11.832993159
 20
25.3937262749
 10
-11.8312878602
 20
25.3932192564
 10
-11.829647122
 20
25.3925508367
 10
-11.8280734313
 20
25.3917168826
 10
-11.8265643013
 20
25.3907215274
 10
-11.8251441329
 20
25.3895722125
 10
-11.8238154103
 20
25.3882664808
 10
-11.8225756493
 20
25.3868067894
 10
-11.8214417992
 20
25.385207951
 10
-11.8204155464
 20
25.3834679116
 10
-11.8194952044
 20
25.3815887251
 10
-11.8186926629
 20
25.379591366
 10
-11.8180096459
 20
25.3774739823
 10
-11.8174444294
 20
25.3752384262
 10
-11.8170037316
 20
25.372911228
 10
-11.8166897918
 20
25.3705012313
 10
-11.8165003707
 20
25.3679995926
 10
-11.8164354682
 20
25.3654063118
  0
LINE
  5
24B
100
AcDbEntity
  8
ASSI
100
AcDbLine
 62
7
  6
CONTINUOUS
 10
-6.317214787
 20
25.6872215544
 11
-10.3625295646
 21
23.818961133
  0
LINE
  5
24C
100
AcDbEntity
  8
ASSI
100
AcDbLine
 62
253
  6
CONTINUOUS
 10
-6.2093099324
 20
25.6782731271
 11
-10.2533784591
 21
23.8105882656
  0
LWPOLYLINE
  5
24D
100
AcDbEntity
  8
ASSI
100
AcDbPolyline
 62
253
  6
CONTINUOUS
 90
14
 70
0
 10
-11.9919652062
 20
25.6349082402
 10
-11.9835763268
 20
25.6387062046
 10
-11.9749723311
 20
25.6420877312
 10
-11.9661772103
 20
25.6449994723
 10
-11.9571995262
 20
25.6473914126
 10
-11.9480900813
 20
25.6492009161
 10
-11.9389395283
 20
25.6503668039
 10
-11.9297836358
 20
25.6508461305
 10
-11.9206612638
 20
25.6505969837
 10
-11.9116656528
 20
25.6495869572
 10
-11.9028362218
 20
25.6477912644
 10
-11.8942129974
 20
25.6451875368
 10
-11.8858826335
 20
25.6417772771
 10
-11.8836758876
 20
25.6407115199
  0
LWPOLYLINE
  5
24E
100
AcDbEntity
  8
ASSI
100
AcDbPolyline
 62
7
  6
CONTINUOUS
 90
4
 70
0
 10
-10.3625878358
 20
23.818934212
 10
-10.3575469657
 20
23.8210887015
 10
-10.3419557607
 20
23.8257371419
 10
-10.3252626209
 20
23.8278234615
  0
LINE
  5
24F
100
AcDbEntity
  8
ASSI
100
AcDbLine
 62
7
  6
CONTINUOUS
 10
-6.2805470491
 20
25.7019992444
 11
-6.3173150762
 21
25.6871638586
  0
LWPOLYLINE
  5
250
100
AcDbEntity
  8
ASSI
100
AcDbPolyline
 62
7
  6
CONTINUOUS
 90
6
 70
0
 10
-15.5145234859
 20
24.4380561832
 10
-15.5127271885
 20
24.4417361898
 10
-15.5075015628
 20
24.4479279853
 10
-15.4993043535
 20
24.4562683136
 10
-15.4883319029
 20
24.4658301062
 10
-15.474765916
 20
24.4763941651
  0
LWPOLYLINE
  5
251
100
AcDbEntity
  8
ASSI
100
AcDbPolyline
 62
253
  6
CONTINUOUS
 90
7
 70
0
 10
-11.8221171296
 20
24.9227273762
 10
-11.8211340652
 20
24.92407564
 10
-11.8183166778
 20
24.9314415895
 10
-11.8181957453
 20
24.9407871879
 10
-11.8207733142
 20
24.9519542987
 10
-11.8260057694
 20
24.9647539635
 10
-11.8338045729
 20
24.9789695998
  0
LWPOLYLINE
  5
252
100
AcDbEntity
  8
ASSI
100
AcDbPolyline
 62
7
  6
CONTINUOUS
 90
6
 70
0
 10
-11.8221422913
 20
24.9226964119
 10
-11.8126683028
 20
24.9351245436
 10
-11.7990553866
 20
24.9559790781
 10
-11.7872020536
 20
24.9782457163
 10
-11.7772589557
 20
25.0018066886
 10
-11.7696052446
 20
25.0257836669
  0
LINE
  5
253
100
AcDbEntity
  8
ASSI
100
AcDbLine
 62
253
  6
CONTINUOUS
 10
-11.8338045729
 20
24.9789695998
 11
-12.3746718787
 21
24.3096821137
  0
LINE
  5
254
100
AcDbEntity
  8
ASSI
100
AcDbLine
 62
7
  6
CONTINUOUS
 10
-11.8221171296
 20
24.9227273762
 11
-12.3746718787
 21
24.2389774528
  0
LWPOLYLINE
  5
255
100
AcDbEntity
  8
RACCORDO
100
AcDbPolyline
 62
253
  6
CONTINUOUS
 90
4
 70
0
 10
-19.2129195183
 20
14.8487218892
 10
-19.1957982883
 20
14.8659796664
 10
-19.177754529
 20
14.8810532187
 10
-19.1650715742
 20
14.8896415202
  0
LWPOLYLINE
  5
256
100
AcDbEntity
  8
ASSI
100
AcDbPolyline
 62
253
  6
CONTINUOUS
 90
9
 70
0
 10
-5.8406514934
 20
25.2775423898
 10
-5.8144796936
 20
25.2923693354
 10
-5.7915479844
 20
25.308478892
 10
-5.7721045581
 20
25.325697546
 10
-5.7563592619
 20
25.3438395225
 10
-5.7444860832
 20
25.3627094985
 10
-5.736617374
 20
25.3821040802
 10
-5.7328375743
 20
25.4018120498
 10
-5.7324803288
 20
25.4099880149
  0
LWPOLYLINE
  5
257
100
AcDbEntity
  8
ASSI
100
AcDbPolyline
 62
253
  6
CONTINUOUS
 90
31
 70
0
 10
-6.0174723841
 20
25.5823543529
 10
-6.008129861
 20
25.5875439931
 10
-6.0000826237
 20
25.5930609739
 10
-5.9933306722
 20
25.5989052952
 10
-5.9878291227
 20
25.6051467388
 10
-5.983622859
 20
25.6117155231
 10
-5.9808465323
 20
25.6184023028
 10
-5.9795464428
 20
25.6252102693
 10
-5.9796762903
 20
25.6321362313
 10
-5.9812318258
 20
25.6389612699
 10
-5.9842587492
 20
25.6456821385
 10
-5.9887113605
 20
25.6523020838
 10
-5.9944483108
 20
25.6586119266
 10
-6.0015104739
 20
25.6646017461
 10
-6.0098569759
 20
25.6702814632
 10
-6.0192238459
 20
25.675471661
 10
-6.0296436588
 20
25.68015668
 10
-6.0410838398
 20
25.6843521799
 10
-6.0531826937
 20
25.6879257219
 10
-6.0659611613
 20
25.6908575185
 10
-6.0793983018
 20
25.6931673573
 10
-6.0930695979
 20
25.6947821631
 10
-6.1069824952
 20
25.6956795727
 10
-6.121129548
 20
25.6958819493
 10
-6.1350639019
 20
25.6953833071
 10
-6.1487847429
 20
25.6941588716
 10
-6.1622928849
 20
25.6922334173
 10
-6.175143916
 20
25.6896752819
 10
-6.187189699
 20
25.6865072447
 10
-6.1985783711
 20
25.6827065264
 10
-6.2093099324
 20
25.6782731271
  0
LINE
  5
258
100
AcDbEntity
  8
DRAFT
100
AcDbLine
 62
7
  6
CONTINUOUS
 10
-12.5991465078
 20
20.2116120217
 11
-11.8796971319
 21
20.6043805831
  0
LINE
  5
259
100
AcDbEntity
  8
ASSI
100
AcDbLine
 62
253
  6
CONTINUOUS
 10
-8.2442842878
 20
22.5868532798
 11
-8.0259382505
 21
22.6968681613
  0
LINE
  5
25A
100
AcDbEntity
  8
ASSI
100
AcDbLine
 62
253
  6
CONTINUOUS
 10
-8.0675345165
 20
22.2820050182
 11
-7.8491884791
 21
22.3920198997
  0
LINE
  5
25B
100
AcDbEntity
  8
RACCORDO
100
AcDbLine
 62
253
  6
CONTINUOUS
 10
-19.8529878387
 20
16.4351932816
 11
-19.8893583748
 21
16.4169372964
  0
LINE
  5
25C
100
AcDbEntity
  8
ASSI
100
AcDbLine
 62
7
  6
CONTINUOUS
 10
-3.3273246401
 20
24.4578612901
 11
-7.1544242927
 21
22.5518837082
  0
LINE
  5
25D
100
AcDbEntity
  8
ASSI
100
AcDbLine
 62
253
  6
CONTINUOUS
 10
-9.2280197785
 20
23.9898991769
 11
-6.0174723841
 21
25.5823543529
  0
LINE
  5
25E
100
AcDbEntity
  8
ASSI
100
AcDbLine
 62
253
  6
CONTINUOUS
 10
-8.8339288689
 20
23.7928537221
 11
-5.8406514837
 21
25.2775413719
  0
LINE
  5
25F
100
AcDbEntity
  8
ASSI
100
AcDbLine
 62
7
  6
CONTINUOUS
 10
-7.6600748364
 20
23.2059267058
 11
-5.8407226128
 21
24.1083388212
  0
LINE
  5
260
100
AcDbEntity
  8
ASSI
100
AcDbLine
 62
253
  6
CONTINUOUS
 10
-8.0259382505
 20
22.6968681613
 11
-7.3311740641
 21
23.0414763197
  0
LINE
  5
261
100
AcDbEntity
  8
ASSI
100
AcDbLine
 62
253
  6
CONTINUOUS
 10
-7.8491884791
 20
22.3920198997
 11
-7.1544242927
 21
22.736628058
  0
LINE
  5
262
100
AcDbEntity
  8
ASSI
100
AcDbLine
 62
253
  6
CONTINUOUS
 10
-7.5062749463
 20
23.1290267608
 11
-2.589171855
 21
25.524823728
  0
LINE
  5
263
100
AcDbEntity
  8
ASSI
100
AcDbLine
 62
253
  6
CONTINUOUS
 10
-7.1930913679
 20
22.8906145431
 11
-2.4139444215
 21
25.2191941046
  0
LINE
  5
264
100
AcDbEntity
  8
DRAFT
100
AcDbLine
 62
7
  6
CONTINUOUS
 10
9.1153478699
 20
30.5542129099
 11
-1.8930329646
 21
25.2619017626
  0
LINE
  5
265
100
AcDbEntity
  8
ASSI
100
AcDbLine
 62
7
  6
CONTINUOUS
 10
9.1153478699
 20
30.5542129099
 11
-1.8930329646
 21
25.2619017626
  0
LWPOLYLINE
  5
266
100
AcDbEntity
  8
ASSI
100
AcDbPolyline
 62
253
  6
CONTINUOUS
 90
22
 70
0
 10
-2.4139444215
 20
25.2191941046
 10
-2.3749875803
 20
25.2363687948
 10
-2.3366437135
 20
25.2497818947
 10
-2.2989128212
 20
25.2594334045
 10
-2.2615750253
 20
25.2653459232
 10
-2.2248502039
 20
25.2674968517
 10
-2.1893979909
 20
25.2658183924
 10
-2.155258442
 20
25.260238143
 10
-2.1223915016
 20
25.2508285057
 10
-2.0913366373
 20
25.2377388892
 10
-2.0621228622
 20
25.2209058701
 10
-2.0347211631
 20
25.2003928718
 10
-2.0095839679
 20
25.1765395722
 10
-1.9867514726
 20
25.1492915086
 10
-1.9661834812
 20
25.1187031438
 10
-1.9482118325
 20
25.0852775443
 10
-1.9328786801
 20
25.0489440001
 10
-1.9201418705
 20
25.0097732214
 10
-1.9102067819
 20
24.9684804049
 10
-1.9031418738
 20
24.9253039496
 10
-1.8988786866
 20
24.8800054566
 10
-1.8974172205
 20
24.8325849259
  0
LWPOLYLINE
  5
267
100
AcDbEntity
  8
ASSI
100
AcDbPolyline
 62
253
  6
CONTINUOUS
 90
10
 70
0
 10
-2.589171855
 20
25.524823728
 10
-2.5373016365
 20
25.5476188769
 10
-2.4857785515
 20
25.5655179677
 10
-2.4348862309
 20
25.5784240544
 10
-2.3849066062
 20
25.5862683487
 10
-2.336113021
 20
25.5890080084
 10
-2.2887687377
 20
25.5866263233
 10
-2.2431340863
 20
25.579137034
 10
-2.199460605
 20
25.5665819852
 10
-2.1571452319
 20
25.5486101863
  0
LWPOLYLINE
  5
268
100
AcDbEntity
  8
ASSI
100
AcDbPolyline
 62
7
  6
CONTINUOUS
 90
12
 70
0
 10
-5.4568580824
 20
-23.7734096442
 10
-5.4466664637
 20
-23.7778293872
 10
-5.3809278679
 20
-23.8023531306
 10
-5.3120344788
 20
-23.8211963274
 10
-5.2405070968
 20
-23.833961713
 10
-5.1670183922
 20
-23.8403256687
 10
-5.092005367
 20
-23.8400930631
 10
-5.0159804462
 20
-23.8331439807
 10
-4.9396218905
 20
-23.8194550892
 10
-4.8633553947
 20
-23.7990461949
 10
-4.7874834514
 20
-23.7719707682
 10
-4.7796768075
 20
-23.768794803
  0
LWPOLYLINE
  5
269
100
AcDbEntity
  8
ASSI
100
AcDbPolyline
 62
7
  6
CONTINUOUS
 90
10
 70
0
 10
-20.2358617312
 20
-16.3837149113
 10
-18.756411434
 20
-17.2122761486
 10
-17.1709111126
 20
-18.0757717747
 10
-15.5596552676
 20
-18.9285832535
 10
-13.9230060468
 20
-19.7705185821
 10
-12.2613276524
 20
-20.6013914775
 10
-10.5749960372
 20
-21.4210241453
 10
-8.8644053964
 20
-22.2292430728
 10
-7.1299603925
 20
-23.0258763674
 10
-5.4560160775
 20
-23.7737819604
  0
LINE
  5
26A
100
AcDbEntity
  8
ASSI
100
AcDbLine
 62
7
  6
CONTINUOUS
 10
-20.2355113322
 20
-16.3839136412
 11
-20.2358652924
 21
-16.3837128895
  0
LWPOLYLINE
  5
26B
100
AcDbEntity
  8
ASSI
100
AcDbPolyline
 62
253
  6
CONTINUOUS
 90
31
 70
0
 10
-20.5302399973
 20
-15.788226642
 10
-20.0836211338
 20
-16.0418442962
 10
-19.6350000606
 20
-16.2944231333
 10
-19.184387149
 20
-16.5459598831
 10
-18.7318989625
 20
-16.7963927926
 10
-18.2774406998
 20
-17.0457776115
 10
-17.8207012842
 20
-17.2942853355
 10
-17.3615379043
 20
-17.5419907868
 10
-16.9001043523
 20
-17.7888082137
 10
-16.4365318292
 20
-18.0346665448
 10
-15.9708598624
 20
-18.2795449887
 10
-15.5030652186
 20
-18.5234558672
 10
-15.0331871384
 20
-18.7663788138
 10
-14.5611691016
 20
-19.0083429786
 10
-14.0870840136
 20
-19.2493108004
 10
-13.6111687068
 20
-19.4891635533
 10
-13.1337434315
 20
-19.7277450186
 10
-12.6545138401
 20
-19.965207829
 10
-12.1727889349
 20
-20.2018935403
 10
-11.6894893088
 20
-20.4373493083
 10
-11.2037080091
 20
-20.6720182621
 10
-10.7119601233
 20
-20.9075587093
 10
-10.2150371154
 20
-21.1435453256
 10
-9.712073397
 20
-21.3803470603
 10
-9.1969793039
 20
-21.620750301
 10
-8.6694621339
 20
-21.8647606195
 10
-8.1295774229
 20
-22.1122249389
 10
-7.5716083196
 20
-22.3656095623
 10
-6.993485435
 20
-22.625638045
 10
-6.3968669964
 20
-22.89133468
 10
-5.7815501906
 20
-23.1625715436
  0
LINE
  5
26C
100
AcDbEntity
  8
ASSI
100
AcDbLine
 62
253
  6
CONTINUOUS
 10
-20.2358652924
 20
-16.3837128895
 11
-20.2596881338
 21
-16.369226051
  0
LWPOLYLINE
  5
26D
100
AcDbEntity
  8
ASSI
100
AcDbPolyline
 62
253
  6
CONTINUOUS
 90
12
 70
0
 10
-20.2596881338
 20
-16.369226051
 10
-20.302262332
 20
-16.3380360844
 10
-20.3417235678
 20
-16.3018449067
 10
-20.377871006
 20
-16.2608369146
 10
-20.4105161048
 20
-16.2152227
 10
-20.4395157459
 20
-16.1652197984
 10
-20.4647222338
 20
-16.1110830495
 10
-20.4860059837
 20
-16.0530825379
 10
-20.5032780024
 20
-15.9914859716
 10
-20.5164539024
 20
-15.9265909564
 10
-20.5254572449
 20
-15.858726029
 10
-20.5302399882
 20
-15.7882266331
  0
LWPOLYLINE
  5
26E
100
AcDbEntity
  8
DRAFT
100
AcDbPolyline
 62
7
  6
CONTINUOUS
 90
16
 70
0
 10
-19.8937878971
 20
-10.5575178293
 10
-19.8906878209
 20
-10.6038737414
 10
-19.8842350037
 20
-10.6507382217
 10
-19.8744285879
 20
-10.6981108794
 10
-19.8611129063
 20
-10.74647661
 10
-19.8444405356
 20
-10.7953491007
 10
-19.8248730757
 20
-10.8432712226
 10
-19.8022492833
 20
-10.8903273712
 10
-19.7767265985
 20
-10.9364314751
 10
-19.7492462009
 20
-10.9798714802
 10
-19.7198056899
 20
-11.0204441729
 10
-19.6884049531
 20
-11.0583517318
 10
-19.6559909265
 20
-11.0924912953
 10
-19.622879528
 20
-11.1224954087
 10
-19.5887542261
 20
-11.1487313504
 10
-19.5536143711
 20
-11.1711988606
  0
LWPOLYLINE
  5
26F
100
AcDbEntity
  8
ASSI
100
AcDbPolyline
 62
7
  6
CONTINUOUS
 90
14
 70
0
 10
-20.6538124558
 20
-15.6227839303
 10
-20.6529310807
 20
-15.6430602813
 10
-20.6450566709
 20
-15.7309303331
 10
-20.6307974391
 20
-15.8154857783
 10
-20.6102617236
 20
-15.8965012563
 10
-20.583593264
 20
-15.9737251753
 10
-20.5510134221
 20
-16.0466973839
 10
-20.5127782443
 20
-16.1150400939
 10
-20.4691668691
 20
-16.1784682455
 10
-20.4206323871
 20
-16.2365126884
 10
-20.3676548385
 20
-16.2888091501
 10
-20.3107618247
 20
-16.3350932155
 10
-20.2506872911
 20
-16.3750666489
 10
-20.2354480765
 20
-16.3839454147
  0
LWPOLYLINE
  5
270
100
AcDbEntity
  8
ASSI
100
AcDbPolyline
 62
253
  6
CONTINUOUS
 90
13
 70
0
 10
-20.5302399973
 20
-15.788226642
 10
-20.6266810749
 20
-12.82564152
 10
-20.7056089927
 20
-9.8531885727
 10
-20.7670124207
 20
-6.871017406
 10
-20.8108810652
 20
-3.8792017568
 10
-20.8372046166
 20
-0.8779685886
 10
-20.8459790309
 20
2.1322986657
 10
-20.8372049264
 20
5.1514449634
 10
-20.8108816267
 20
8.1793135613
 10
-20.767013126
 20
11.2155134855
 10
-20.7056096864
 20
14.259806311
 10
-20.6266815501
 20
17.3121092027
 10
-20.5302399965
 20
20.3722612461
  0
LINE
  5
271
100
AcDbEntity
  8
RACCORDO
100
AcDbLine
 62
253
  6
CONTINUOUS
 10
-20.1802452128
 20
16.4287227662
 11
-20.1560167513
 21
17.2445819343
  0
LWPOLYLINE
  5
272
100
AcDbEntity
  8
ASSI
100
AcDbPolyline
 62
7
  6
CONTINUOUS
 90
13
 70
0
 10
-20.6538440295
 20
20.5348888768
 10
-20.7469294353
 20
17.5270760397
 10
-20.8249060274
 20
14.4624267987
 10
-20.8855642352
 20
11.4062561873
 10
-20.9288922079
 20
8.3587451186
 10
-20.9548847236
 20
5.3200511182
 10
-20.9635380947
 20
2.2903227737
 10
-20.9548497594
 20
-0.7302853115
 10
-20.9288220071
 20
-3.7416212143
 10
-20.885458191
 20
-6.7435402441
 10
-20.8247632765
 20
-9.7358901108
 10
-20.7467488677
 20
-12.7185019823
 10
-20.6538228588
 20
-15.6227179188
  0
LINE
  5
273
100
AcDbEntity
  8
RACCORDO
100
AcDbLine
 62
253
  6
CONTINUOUS
 10
-20.1560167513
 20
17.2445819343
 11
-20.1304783555
 21
18.0609621725
  0
LINE
  5
274
100
AcDbEntity
  8
RACCORDO
100
AcDbLine
 62
253
  6
CONTINUOUS
 10
-20.1304783555
 20
18.0609621725
 11
-20.1036301803
 21
18.8778610999
  0
LWPOLYLINE
  5
275
100
AcDbEntity
  8
RACCORDO
100
AcDbPolyline
 62
253
  6
CONTINUOUS
 90
3
 70
0
 10
-20.1036301803
 20
18.8778610999
 10
-20.0754722774
 20
19.6952788916
 10
-20.0609022317
 20
20.1041811446
  0
LWPOLYLINE
  5
276
100
AcDbEntity
  8
DRAFT
100
AcDbPolyline
 62
7
  6
CONTINUOUS
 90
12
 70
0
 10
-20.1702685897
 20
10.4766633243
 10
-20.1671182595
 20
10.5369895555
 10
-20.1601446675
 20
10.5937860275
 10
-20.1493467107
 20
10.6470532698
 10
-20.1345892785
 20
10.6971548674
 10
-20.1160033523
 20
10.7437291631
 10
-20.0939869353
 20
10.7856888179
 10
-20.068451706
 20
10.8229308907
 10
-20.0394804928
 20
10.8555608184
 10
-20.007729395
 20
10.882803171
 10
-19.9731288354
 20
10.904522231
 10
-19.964666841
 20
10.9088073446
  0
LWPOLYLINE
  5
277
100
AcDbEntity
  8
DRAFT
100
AcDbPolyline
 62
7
  6
CONTINUOUS
 90
10
 70
0
 10
-20.0272806946
 20
10.5469205113
 10
-20.0241376664
 20
10.6071140596
 10
-20.0171801394
 20
10.6637856631
 10
-20.0064069961
 20
10.7169358282
 10
-19.9916833832
 20
10.7669274238
 10
-19.973140003
 20
10.8133994674
 10
-19.9511740406
 20
10.8552666895
 10
-19.9256974062
 20
10.8924262232
 10
-19.8967926825
 20
10.9249834108
 10
-19.8881746638
 20
10.9323780253
  0
LWPOLYLINE
  5
278
100
AcDbEntity
  8
ASSI
100
AcDbPolyline
 62
253
  6
CONTINUOUS
 90
21
 70
0
 10
-20.5302400065
 20
20.3722612458
 10
-20.5254572624
 20
20.4472675409
 10
-20.5164539187
 20
20.5237421481
 10
-20.5032780176
 20
20.6013093045
 10
-20.4860059984
 20
20.6795862982
 10
-20.4647222488
 20
20.7581921362
 10
-20.4395157614
 20
20.8367494588
 10
-20.4105161204
 20
20.9148819347
 10
-20.3778710217
 20
20.9922009927
 10
-20.3417235836
 20
21.0683145605
 10
-20.3022623481
 20
21.1428527939
 10
-20.2596881502
 20
21.2154520284
 10
-20.2141884511
 20
21.2857414474
 10
-20.1659988783
 20
21.3533825639
 10
-20.1153672809
 20
21.4180440615
 10
-20.0625210445
 20
21.4793863664
 10
-20.007739022
 20
21.5371102335
 10
-19.9513002464
 20
21.5909413909
 10
-19.8934474918
 20
21.6406037541
 10
-19.8344636326
 20
21.6858515806
 10
-19.7746708319
 20
21.7264725222
  0
LWPOLYLINE
  5
279
100
AcDbEntity
  8
RACCORDO
100
AcDbPolyline
 62
253
  6
CONTINUOUS
 90
22
 70
0
 10
-19.7708856394
 20
20.0913070647
 10
-19.7668861291
 20
20.1540357205
 10
-19.7594833914
 20
20.2174588035
 10
-19.7486774263
 20
20.2815763136
 10
-19.734381953
 20
20.3467379005
 10
-19.7166832523
 20
20.4125939146
 10
-19.6958401668
 20
20.4780954073
 10
-19.6718077637
 20
20.5432100149
 10
-19.6446309759
 20
20.6079701011
 10
-19.6147034441
 20
20.6714238091
 10
-19.5819814799
 20
20.7335555892
 10
-19.5465087717
 20
20.794380991
 10
-19.5088100256
 20
20.8529948074
 10
-19.4688523587
 20
20.9093616925
 10
-19.4266686539
 20
20.9635169921
 10
-19.3828822667
 20
21.0146615361
 10
-19.3374476459
 20
21.0627625078
 10
-19.2904103428
 20
21.1078527238
 10
-19.2425303662
 20
21.1492314642
 10
-19.1940610526
 20
21.1866651556
 10
-19.1447490655
 20
21.2203873713
 10
-19.0945944051
 20
21.2503981114
  0
LWPOLYLINE
  5
27A
100
AcDbEntity
  8
RACCORDO
100
AcDbPolyline
 62
253
  6
CONTINUOUS
 90
22
 70
0
 10
-20.060902243
 20
20.1041811385
 10
-20.0560779344
 20
20.1791885152
 10
-20.0470197761
 20
20.2556431473
 10
-20.0337760563
 20
20.3331696395
 10
-20.016422568
 20
20.4113855727
 10
-19.9950443851
 20
20.4899104899
 10
-19.9697326949
 20
20.5683678077
 10
-19.9406162357
 20
20.6463813869
 10
-19.9078430577
 20
20.7235634963
 10
-19.8715603652
 20
20.7995239213
 10
-19.831956118
 20
20.8738928794
 10
-19.7892306146
 20
20.9463080871
 10
-19.7435753449
 20
21.0164026743
 10
-19.6952246037
 20
21.0838382875
 10
-19.6444253308
 20
21.1482851225
 10
-19.5914091525
 20
21.2094094536
 10
-19.5364526039
 20
21.2669131613
 10
-19.479833538
 20
21.3205219453
 10
-19.4218004004
 20
21.3699637486
 10
-19.3626366132
 20
21.4149946354
 10
-19.3026597155
 20
21.4554016614
 10
-19.2421776799
 20
21.4909901545
  0
LWPOLYLINE
  5
27B
100
AcDbEntity
  8
0
100
AcDbPolyline
 62
253
  6
CONTINUOUS
 90
32
 70
0
 10
-13.9948305902
 20
22.096168596
 10
-14.0005629223
 20
22.0853936686
 10
-14.00464435
 20
22.0747778299
 10
-14.0075175103
 20
22.0636256178
 10
-14.0091605368
 20
22.0520219073
 10
-14.009560925
 20
22.0400550096
 10
-14.0087156278
 20
22.0278160001
 10
-14.0066310783
 20
22.0153980251
 10
-14.0033231413
 20
22.0028955927
 10
-13.9988169921
 20
21.9904038542
 10
-13.9931469253
 20
21.9780178791
 10
-13.9863560935
 20
21.9658319321
 10
-13.9784961791
 20
21.9539387558
 10
-13.9696270006
 20
21.9424288644
 10
-13.959816058
 20
21.931389855
 10
-13.9491380184
 20
21.9209057413
 10
-13.9376741482
 20
21.9110563136
 10
-13.9255116943
 20
21.901916532
 10
-13.9127432203
 20
21.8935559558
 10
-13.8994659021
 20
21.8860382141
 10
-13.885780788
 20
21.8794205214
 10
-13.87179203
 20
21.8737532423
 10
-13.8576060911
 20
21.8690795082
 10
-13.8433309348
 20
21.8654348891
 10
-13.8290752036
 20
21.8628471227
 10
-13.8149473923
 20
21.8613359035
 10
-13.801055022
 20
21.8609127328
 10
-13.7875038221
 20
21.8615808312
 10
-13.7743969253
 20
21.863335114
 10
-13.7618340832
 20
21.8661622301
 10
-13.7499109065
 20
21.8700406634
 10
-13.7387181377
 20
21.8749408968
  0
LWPOLYLINE
  5
27C
100
AcDbEntity
  8
0
100
AcDbPolyline
 62
7
  6
CONTINUOUS
 90
31
 70
0
 10
-13.9948305902
 20
22.096168596
 10
-13.9777577758
 20
22.1260962512
 10
-13.9621509499
 20
22.158149139
 10
-13.9480736692
 20
22.1922169218
 10
-13.9356111632
 20
22.2280832921
 10
-13.9247756648
 20
22.2656854389
 10
-13.9155401228
 20
22.3051755738
 10
-13.907953901
 20
22.3465131744
 10
-13.902085974
 20
22.3895121915
 10
-13.8979703746
 20
22.4341661395
 10
-13.8956538948
 20
22.4803877158
 10
-13.8951794061
 20
22.5280216672
 10
-13.8965800912
 20
22.5769804954
 10
-13.8998854148
 20
22.6271506311
 10
-13.9051154471
 20
22.6783803732
 10
-13.9122829498
 20
22.730532328
 10
-13.9213946704
 20
22.7834730586
 10
-13.9324475352
 20
22.8370505328
 10
-13.9454280585
 20
22.8911022995
 10
-13.96031914
 20
22.945483532
 10
-13.9770949985
 20
23.0000413759
 10
-13.995715999
 20
23.0546037752
 10
-14.0161420785
 20
23.1090218197
 10
-14.038325907
 20
23.163144552
 10
-14.0622038324
 20
23.2168004039
 10
-14.0877147269
 20
23.2698428766
 10
-14.1147915231
 20
23.3221270353
 10
-14.1433491815
 20
23.373488843
 10
-14.1733035693
 20
23.4237829842
 10
-14.204574031
 20
23.4728824203
 10
-14.2370714804
 20
23.5206571284
  0
LWPOLYLINE
  5
27D
100
AcDbEntity
  8
0
100
AcDbPolyline
 62
7
  6
CONTINUOUS
 90
31
 70
0
 10
-13.6969360377
 20
21.9124328194
 10
-13.6714677031
 20
21.9566376096
 10
-13.6481210561
 20
22.003275862
 10
-13.6269714648
 20
22.0522922751
 10
-13.608056612
 20
22.103731872
 10
-13.5914908033
 20
22.1574386604
 10
-13.5774170167
 20
22.2130181347
 10
-13.5658654054
 20
22.2703252472
 10
-13.5568428974
 20
22.3293079541
 10
-13.5503854132
 20
22.3896567481
 10
-13.5464848614
 20
22.4512171509
 10
-13.545125198
 20
22.5139072037
 10
-13.5462889574
 20
22.577493684
 10
-13.5499455607
 20
22.6418217581
 10
-13.5560644414
 20
22.7067906302
 10
-13.564606645
 20
22.7722297497
 10
-13.5755295428
 20
22.8379926302
 10
-13.5887926245
 20
22.9039632066
 10
-13.6043502896
 20
22.9700066641
 10
-13.6221527897
 20
23.0359843574
 10
-13.6421511582
 20
23.1017715018
 10
-13.664296486
 20
23.1672488144
 10
-13.6885330931
 20
23.232282922
 10
-13.7148043894
 20
23.2967462412
 10
-13.7430577748
 20
23.3605257996
 10
-13.773231883
 20
23.4234926274
 10
-13.8052631217
 20
23.4855197623
 10
-13.8390943423
 20
23.5464971257
 10
-13.8746616121
 20
23.6063049274
 10
-13.9118926006
 20
23.6648144352
 10
-13.9507153945
 20
23.7219037234
  0
LWPOLYLINE
  5
27E
100
AcDbEntity
  8
ASSI
100
AcDbPolyline
 62
7
  6
CONTINUOUS
 90
12
 70
0
 10
-6.8672835158
 20
21.8459015379
 10
-6.8754423802
 20
21.8412717805
 10
-6.8946280131
 20
21.8284155725
 10
-6.9124157053
 20
21.8135589729
 10
-6.928566269
 20
21.796889645
 10
-6.9430166308
 20
21.778434573
 10
-6.9555591756
 20
21.7583840766
 10
-6.9659963648
 20
21.736998292
 10
-6.9742636075
 20
21.7143295603
 10
-6.9802348372
 20
21.6905092088
 10
-6.9837698656
 20
21.6658474029
 10
-6.984803471
 20
21.643155028
  0
LINE
  5
27F
100
AcDbEntity
  8
ASSI
100
AcDbLine
 62
7
  6
CONTINUOUS
 10
-8.0675345165
 20
21.1036511099
 11
-7.8491884791
 21
21.2228526296
  0
LINE
  5
280
100
AcDbEntity
  8
ASSI
100
AcDbLine
 62
7
  6
CONTINUOUS
 10
-6.6554851454
 20
21.960171706
 11
-6.8672975089
 21
21.8458940766
  0
LINE
  5
281
100
AcDbEntity
  8
ASSI
100
AcDbLine
 62
253
  6
CONTINUOUS
 10
-6.5410678579
 20
21.954432965
 11
-6.7519221752
 21
21.8406722235
  0
LINE
  5
282
100
AcDbEntity
  8
ASSI
100
AcDbLine
 62
7
  6
CONTINUOUS
 10
-7.8491884791
 20
21.2228526296
 11
-7.1544242927
 21
21.5810658166
  0
LINE
  5
283
100
AcDbEntity
  8
ASSI
100
AcDbLine
 62
253
  6
CONTINUOUS
 10
-4.5319736866
 20
20.7306979792
 11
-4.3136276492
 21
20.8407128607
  0
LINE
  5
284
100
AcDbEntity
  8
ASSI
100
AcDbLine
 62
7
  6
CONTINUOUS
 10
-6.6554914379
 20
21.9601683302
 11
-6.6502772345
 21
21.9627789114
  0
LINE
  5
285
100
AcDbEntity
  8
ASSI
100
AcDbLine
 62
253
  6
CONTINUOUS
 10
-4.3136276492
 20
20.8407128607
 11
-0.4083160685
 21
22.7777761951
  0
LINE
  5
286
100
AcDbEntity
  8
ASSI
100
AcDbLine
 62
7
  6
CONTINUOUS
 10
-5.930768273
 20
22.295072003
 11
-6.6502189634
 21
21.9628058324
  0
LINE
  5
287
100
AcDbEntity
  8
ASSI
100
AcDbLine
 62
253
  6
CONTINUOUS
 10
-5.8216184819
 20
22.2866985286
 11
-6.5410678579
 21
21.954432965
  0
LINE
  5
288
100
AcDbEntity
  8
ASSI
100
AcDbLine
 62
7
  6
CONTINUOUS
 10
-0.7080584714
 20
22.8826433966
 11
-3.9858878015
 21
21.3688331884
  0
LINE
  5
289
100
AcDbEntity
  8
ASSI
100
AcDbLine
 62
253
  6
CONTINUOUS
 10
-0.6001536168
 20
22.8736949693
 11
-3.9247727675
 21
21.3382756714
  0
LWPOLYLINE
  5
28A
100
AcDbEntity
  8
ASSI
100
AcDbPolyline
 62
7
  6
CONTINUOUS
 90
4
 70
0
 10
-6.6502772345
 20
21.9627789114
 10
-6.6452363644
 20
21.9649334009
 10
-6.6296451595
 20
21.9695818413
 10
-6.6129520197
 20
21.9716681609
  0
LINE
  5
28B
100
AcDbEntity
  8
ASSI
100
AcDbLine
 62
7
  6
CONTINUOUS
 10
-0.6713907335
 20
22.8974210866
 11
-0.7081587605
 21
22.8825857008
  0
LINE
  5
28C
100
AcDbEntity
  8
ASSI
100
AcDbLine
 62
253
  6
CONTINUOUS
 10
0.7526961323
 20
-22.5388848922
 11
0.2118288264
 21
-22.429681897
  0
LINE
  5
28D
100
AcDbEntity
  8
ASSI
100
AcDbLine
 62
253
  6
CONTINUOUS
 10
0.6795897051
 20
-22.2840739838
 11
0.2118288264
 21
-22.1896314312
  0
LWPOLYLINE
  5
28E
100
AcDbEntity
  8
ASSI
100
AcDbPolyline
 62
7
  6
CONTINUOUS
 90
7
 70
0
 10
-0.846557162
 20
-22.716460468
 10
-0.8177435524
 20
-22.7227925721
 10
-0.7893290805
 20
-22.7284630312
 10
-0.7621266462
 20
-22.7335327977
 10
-0.7365549154
 20
-22.7378264297
 10
-0.7126612721
 20
-22.7409381901
 10
-0.6906219243
 20
-22.7426067277
  0
LINE
  5
28F
100
AcDbEntity
  8
ASSI
100
AcDbLine
 62
7
  6
CONTINUOUS
 10
-1.0042818713
 20
-22.6785421233
 11
-0.9818855175
 21
-22.6837794877
  0
LINE
  5
290
100
AcDbEntity
  8
ASSI
100
AcDbLine
 62
7
  6
CONTINUOUS
 10
-0.9039284196
 20
-22.7028402017
 11
-0.846557162
 21
-22.716460468
  0
LINE
  5
291
100
AcDbEntity
  8
ASSI
100
AcDbLine
 62
7
  6
CONTINUOUS
 10
-0.9818855175
 20
-22.6837794877
 11
-0.9039284196
 21
-22.7028402017
  0
LWPOLYLINE
  5
292
100
AcDbEntity
  8
ASSI
100
AcDbPolyline
 62
253
  6
CONTINUOUS
 90
13
 70
0
 10
-1.7257689932
 20
-23.9726639812
 10
-1.7063305711
 20
-23.9812000124
 10
-1.6848510463
 20
-23.9884100331
 10
-1.6616898293
 20
-23.9941734002
 10
-1.6372344694
 20
-23.998393677
 10
-1.6118941705
 20
-24.0010002471
 10
-1.5860929441
 20
-24.0019494953
 10
-1.560262514
 20
-24.0012255384
 10
-1.5348350927
 20
-23.99884049
 10
-1.5102361495
 20
-23.9948342583
 10
-1.4868772908
 20
-23.9892738785
 10
-1.4651493731
 20
-23.9822523906
 10
-1.4454159629
 20
-23.9738872831
  0
LWPOLYLINE
  5
293
100
AcDbEntity
  8
ASSI
100
AcDbPolyline
 62
253
  6
CONTINUOUS
 90
13
 70
0
 10
-1.7257689932
 20
-23.6553951808
 10
-1.7063305701
 20
-23.6639312124
 10
-1.6848510443
 20
-23.6711412333
 10
-1.6616898264
 20
-23.6769046005
 10
-1.6372344657
 20
-23.6811248772
 10
-1.6118941664
 20
-23.683731447
 10
-1.5860929397
 20
-23.684680695
 10
-1.5602625097
 20
-23.6839567378
 10
-1.5348350889
 20
-23.6815716891
 10
-1.5102361464
 20
-23.6775654574
 10
-1.4868772886
 20
-23.6720050776
 10
-1.465149372
 20
-23.6649835899
 10
-1.4454159629
 20
-23.6566184827
  0
LWPOLYLINE
  5
294
100
AcDbEntity
  8
ASSI
100
AcDbPolyline
 62
7
  6
CONTINUOUS
 90
10
 70
0
 10
-1.6608481052
 20
-24.1078550352
 10
-1.6483895758
 20
-24.1136258215
 10
-1.6270547444
 20
-24.1214327208
 10
-1.6048756858
 20
-24.1270271865
 10
-1.5820886018
 20
-24.1303120603
 10
-1.5588556859
 20
-24.1312202129
 10
-1.5354262925
 20
-24.1296898778
 10
-1.5121358544
 20
-24.1257138243
 10
-1.4892132934
 20
-24.1193155025
 10
-1.4653786267
 20
-24.1098597754
  0
LINE
  5
295
100
AcDbEntity
  8
ASSI
100
AcDbLine
 62
7
  6
CONTINUOUS
 10
-1.6605683463
 20
-24.1079961065
 11
-3.4414586529
 21
-23.2175509532
  0
LINE
  5
296
100
AcDbEntity
  8
ASSI
100
AcDbLine
 62
253
  6
CONTINUOUS
 10
-1.7257689932
 20
-23.9726639812
 11
-3.3288059819
 21
-23.1711454868
  0
LINE
  5
297
100
AcDbEntity
  8
ASSI
100
AcDbLine
 62
253
  6
CONTINUOUS
 10
-1.7257689932
 20
-23.6553937519
 11
-2.6612375115
 21
-23.1876609216
  0
LINE
  5
298
100
AcDbEntity
  8
ASSI
100
AcDbLine
 62
253
  6
CONTINUOUS
 10
-2.8548017976
 20
-23.0908787786
 11
-2.9808980862
 21
-23.0278303927
  0
LINE
  5
299
100
AcDbEntity
  8
ASSI
100
AcDbLine
 62
253
  6
CONTINUOUS
 10
-1.6370720807
 20
-23.4238552894
 11
-2.419756055
 21
-23.0325133023
  0
LINE
  5
29A
100
AcDbEntity
  8
ASSI
100
AcDbLine
 62
7
  6
CONTINUOUS
 10
-1.5201492525
 20
-22.42609827
 11
-1.0410632122
 21
-22.6656412901
  0
LWPOLYLINE
  5
29B
100
AcDbEntity
  8
ASSI
100
AcDbPolyline
 62
253
  6
CONTINUOUS
 90
16
 70
0
 10
-1.6608424954
 20
-24.1078584768
 10
-1.6663510139
 20
-24.1048482963
 10
-1.6740364988
 20
-24.0997957749
 10
-1.6812955961
 20
-24.0939602122
 10
-1.6880939333
 20
-24.0873605732
 10
-1.6944080799
 20
-24.0800103391
 10
-1.7002029963
 20
-24.0719414647
 10
-1.7054546238
 20
-24.0631812321
 10
-1.7101422552
 20
-24.0537573675
 10
-1.7142423782
 20
-24.0437113975
 10
-1.7177391469
 20
-24.0330787685
 10
-1.720618787
 20
-24.0218975537
 10
-1.7228677081
 20
-24.0102200251
 10
-1.7244781578
 20
-23.9980937553
 10
-1.7254461152
 20
-23.9855596655
 10
-1.7257689932
 20
-23.9726639812
  0
LWPOLYLINE
  5
29C
100
AcDbEntity
  8
ASSI
100
AcDbPolyline
 62
253
  6
CONTINUOUS
 90
13
 70
0
 10
-1.6370720807
 20
-23.4238552894
 10
-1.6183589982
 20
-23.4342928615
 10
-1.5987660662
 20
-23.4464937182
 10
-1.578624816
 20
-23.4602514093
 10
-1.558276057
 20
-23.4753331412
 10
-1.5380641098
 20
-23.4914837166
 10
-1.5183309801
 20
-23.5084298522
 10
-1.4994105716
 20
-23.5258848028
 10
-1.4816230359
 20
-23.5435532139
 10
-1.4652693552
 20
-23.5611361189
 10
-1.4506262496
 20
-23.578335998
 10
-1.4379414946
 20
-23.5948618128
 10
-1.4274297285
 20
-23.6104339304
  0
LWPOLYLINE
  5
29D
100
AcDbEntity
  8
DRAFT
100
AcDbPolyline
 62
7
  6
CONTINUOUS
 90
3
 70
0
 10
-19.5424035804
 20
-11.2570761591
 10
-19.5867653218
 20
-11.2141290421
 10
-19.6302220915
 20
-11.1667357482
  0
LWPOLYLINE
  5
29E
100
AcDbEntity
  8
DRAFT
100
AcDbPolyline
 62
7
  6
CONTINUOUS
 90
10
 70
0
 10
-19.6302220915
 20
-11.1667357482
 10
-19.671785239
 20
-11.1159603333
 10
-19.7114205522
 20
-11.0617136745
 10
-19.7491654191
 20
-11.0040861419
 10
-19.7841417404
 20
-10.9444124978
 10
-19.8162793303
 20
-10.8826510692
 10
-19.8456534114
 20
-10.8188456461
 10
-19.8716064521
 20
-10.7544603693
 10
-19.8940600773
 20
-10.6894814968
 10
-19.9130981019
 20
-10.6239251461
  0
LWPOLYLINE
  5
29F
100
AcDbEntity
  8
DRAFT
100
AcDbPolyline
 62
7
  6
CONTINUOUS
 90
3
 70
0
 10
-19.9130981019
 20
-10.6239251461
 10
-19.9283077957
 20
-10.5593010285
 10
-19.9395534047
 20
-10.4961132337
  0
LWPOLYLINE
  5
2A0
100
AcDbEntity
  8
ASSI
100
AcDbPolyline
 62
253
  6
CONTINUOUS
 90
8
 70
0
 10
-20.6536926122
 20
-15.6255935372
 10
-20.6498304478
 20
-15.6513538072
 10
-20.6411619851
 20
-15.6766673515
 10
-20.6277712727
 20
-15.701288732
 10
-20.6097881458
 20
-15.724979222
 10
-20.5873869672
 20
-15.7475091205
 10
-20.560784937
 20
-15.7686599795
 10
-20.5302399862
 20
-15.788226722
  0
LWPOLYLINE
  5
2A1
100
AcDbEntity
  8
DRAFT
100
AcDbPolyline
 62
7
  6
CONTINUOUS
 90
3
 70
0
 10
-19.9395534047
 20
-10.4961132337
 10
-19.9469751687
 20
-10.4338597285
 10
-19.950574433
 20
-10.3725411295
  0
LINE
  5
2A2
100
AcDbEntity
  8
RACCORDO
100
AcDbLine
 62
253
  6
CONTINUOUS
 10
-19.8814670448
 20
16.2021887766
 11
-19.8874592888
 21
16.2752530974
  0
LWPOLYLINE
  5
2A3
100
AcDbEntity
  8
RACCORDO
100
AcDbPolyline
 62
7
  6
CONTINUOUS
 90
17
 70
0
 10
-19.8567219991
 20
16.1934308018
 10
-19.8509358098
 20
16.1077058357
 10
-19.8402695995
 20
16.0211946852
 10
-19.8248664384
 20
15.9342867724
 10
-19.8048463755
 20
15.8473069145
 10
-19.7803223401
 20
15.7606669009
 10
-19.7514520237
 20
15.6748260049
 10
-19.7183853858
 20
15.5902183926
 10
-19.6812694127
 20
15.5073046997
 10
-19.640283522
 20
15.4265248162
 10
-19.5955979321
 20
15.3482947661
 10
-19.5473380895
 20
15.27299596
 10
-19.4957473999
 20
15.2011333899
 10
-19.4411493457
 20
15.1332740824
 10
-19.3836684245
 20
15.0697427827
 10
-19.3235907888
 20
15.0110120407
 10
-19.2614713105
 20
14.9577356634
  0
LINE
  5
2A4
100
AcDbEntity
  8
RACCORDO
100
AcDbLine
 62
253
  6
CONTINUOUS
 10
-19.8874592888
 20
16.2752530974
 11
-19.8900958976
 21
16.3469347775
  0
LWPOLYLINE
  5
2A5
100
AcDbEntity
  8
RACCORDO
100
AcDbPolyline
 62
253
  6
CONTINUOUS
 90
8
 70
0
 10
-19.1721696834
 20
14.9762725365
 10
-19.1715334081
 20
14.9535229603
 10
-19.1682661917
 20
14.9322429168
 10
-19.1624258204
 20
14.9128087785
 10
-19.1541155908
 20
14.8955642701
 10
-19.1434824829
 20
14.8808143891
 10
-19.1307145606
 20
14.8688200113
 10
-19.1207402996
 20
14.8622430609
  0
LINE
  5
2A6
100
AcDbEntity
  8
DRAFT
100
AcDbLine
 62
7
  6
CONTINUOUS
 10
-19.9465181451
 20
-8.2558224563
 11
-19.8937878971
 21
-10.5575178293
  0
LWPOLYLINE
  5
2A7
100
AcDbEntity
  8
DRAFT
100
AcDbPolyline
 62
7
  6
CONTINUOUS
 90
10
 70
0
 10
-20.0935599854
 20
-10.4427964863
 10
-20.1457265366
 20
-8.140806488
 10
-20.1869843541
 20
-5.8330442672
 10
-20.2173313617
 20
-3.5195862483
 10
-20.2367665411
 20
-1.2005176489
 10
-20.245290165
 20
1.1240920825
 10
-20.2429023434
 20
3.4541900338
 10
-20.2296028584
 20
5.7897070033
 10
-20.2053915498
 20
8.1305573055
 10
-20.1702685897
 20
10.4766633243
  0
LWPOLYLINE
  5
2A8
100
AcDbEntity
  8
DRAFT
100
AcDbPolyline
 62
7
  6
CONTINUOUS
 90
9
 70
0
 10
-19.950574433
 20
-10.3725411295
 10
-20.0027377631
 20
-8.0706370941
 10
-20.0439934284
 20
-5.7629292989
 10
-20.0743390911
 20
-3.4494942132
 10
-20.0937736807
 20
-1.1304040316
 10
-20.1022972955
 20
1.1942586588
 10
-20.0999099665
 20
3.5244014939
 10
-20.0866116399
 20
5.8599419534
 10
-20.0624019477
 20
8.2008074713
  0
LWPOLYLINE
  5
2A9
100
AcDbEntity
  8
RACCORDO
100
AcDbPolyline
 62
253
  6
CONTINUOUS
 90
10
 70
0
 10
-19.5299910277
 20
-8.991364208
 10
-19.5569031736
 20
-7.767180735
 10
-19.5804420164
 20
-6.5412344721
 10
-19.6006069401
 20
-5.3135373557
 10
-19.6173976886
 20
-4.0840688222
 10
-19.6308128189
 20
-2.8528722122
 10
-19.6408506693
 20
-1.6200556131
 10
-19.6475108362
 20
-0.3856634363
 10
-19.6507931289
 20
0.8503232039
 10
-19.6506969365
 20
2.0878907224
  0
LWPOLYLINE
  5
2AA
100
AcDbEntity
  8
ASSI
100
AcDbPolyline
 62
253
  6
CONTINUOUS
 90
9
 70
0
 10
-20.6538411587
 20
20.5347423667
 10
-20.6536845522
 20
20.5242029253
 10
-20.6498218052
 20
20.5009018554
 10
-20.6411528823
 20
20.4777672597
 10
-20.6277618349
 20
20.4550234447
 10
-20.609778499
 20
20.4328909286
 10
-20.5873772359
 20
20.4115843021
 10
-20.560775242
 20
20.3913101483
 10
-20.530230443
 20
20.3722650398
  0
LWPOLYLINE
  5
2AB
100
AcDbEntity
  8
RACCORDO
100
AcDbPolyline
 62
253
  6
CONTINUOUS
 90
22
 70
0
 10
-19.807523165
 20
16.223012792
 10
-19.807506105
 20
16.1560602802
 10
-19.8038784407
 20
16.0881640536
 10
-19.7966408883
 20
16.019323756
 10
-19.7857154031
 20
15.9491520556
 10
-19.7711798281
 20
15.878036309
 10
-19.7532683173
 20
15.8071383738
 10
-19.7319204263
 20
15.736448845
 10
-19.7071941654
 20
15.6659781738
 10
-19.679501524
 20
15.5969179454
 10
-19.6487938992
 20
15.5293012691
 10
-19.6151156799
 20
15.4630969161
 10
-19.5790189272
 20
15.39939972
 10
-19.5404547852
 20
15.3382449418
 10
-19.499466964
 20
15.2795996616
 10
-19.4567475747
 20
15.2244559202
 10
-19.4122730045
 20
15.1728816968
 10
-19.3660619439
 20
15.124811291
 10
-19.3188718002
 20
15.0810354061
 10
-19.2709543432
 20
15.0418179533
 10
-19.2220543541
 20
15.0068966592
 10
-19.1721697122
 20
14.9762725249
  0
LWPOLYLINE
  5
2AC
100
AcDbEntity
  8
RACCORDO
100
AcDbPolyline
 62
253
  6
CONTINUOUS
 90
10
 70
0
 10
-18.9385781051
 20
2.0652865701
 10
-18.9384895731
 20
0.8153436266
 10
-18.9352473966
 20
-0.4206993814
 10
-18.9288515756
 20
-1.6428424539
 10
-18.9194707203
 20
-2.8393438223
 10
-18.9069362206
 20
-4.0219452553
 10
-18.8907422461
 20
-5.2258720584
 10
-18.8707201868
 20
-6.4628660004
 10
-18.8470386527
 20
-7.7211853126
 10
-18.8196976439
 20
-9.000829995
  0
LINE
  5
2AD
100
AcDbEntity
  8
RACCORDO
100
AcDbLine
 62
7
  6
CONTINUOUS
 10
-18.1022368063
 20
1.8885913834
 11
-18.1022368063
 21
-8.0474562118
  0
LINE
  5
2AE
100
AcDbEntity
  8
RACCORDO
100
AcDbLine
 62
253
  6
CONTINUOUS
 10
-19.8900958976
 20
16.3469347775
 11
-19.8893583748
 21
16.4169372964
  0
LINE
  5
2AF
100
AcDbEntity
  8
DRAFT
100
AcDbLine
 62
7
  6
CONTINUOUS
 10
-20.0624019477
 20
8.2008074713
 11
-20.0272806946
 21
10.5469205113
  0
LWPOLYLINE
  5
2B0
100
AcDbEntity
  8
DRAFT
100
AcDbPolyline
 62
7
  6
CONTINUOUS
 90
9
 70
0
 10
-19.971325723
 20
10.3615272658
 10
-20.0068281881
 20
8.0152337535
 10
-20.0313010895
 20
5.6742504349
 10
-20.0447442491
 20
3.3386566776
 10
-20.0471578348
 20
1.00854013
 10
-20.0385420699
 20
-1.3160284776
 10
-20.0188968334
 20
-3.6349951317
 10
-19.9882218401
 20
-5.9482888458
 10
-19.9465181451
 20
-8.2558224563
  0
LWPOLYLINE
  5
2B1
100
AcDbEntity
  8
RACCORDO
100
AcDbPolyline
 62
7
  6
CONTINUOUS
 90
3
 70
0
 10
-19.8572539914
 20
16.2885433841
 10
-19.8575183251
 20
16.2778506012
 10
-19.8567219991
 20
16.1934308018
  0
LINE
  5
2B2
100
AcDbEntity
  8
RACCORDO
100
AcDbLine
 62
253
  6
CONTINUOUS
 10
-19.8893583748
 20
16.4169372964
 11
-19.8653060729
 21
17.2325467801
  0
LINE
  5
2B3
100
AcDbEntity
  8
RACCORDO
100
AcDbLine
 62
253
  6
CONTINUOUS
 10
-19.7832527997
 20
17.0375191204
 11
-19.807523165
 21
16.223012792
  0
LINE
  5
2B4
100
AcDbEntity
  8
RACCORDO
100
AcDbLine
 62
253
  6
CONTINUOUS
 10
-19.8653060729
 20
17.2325467801
 11
-19.8399537064
 21
18.0486809894
  0
LINE
  5
2B5
100
AcDbEntity
  8
RACCORDO
100
AcDbLine
 62
253
  6
CONTINUOUS
 10
-19.7576731397
 20
17.8526210944
 11
-19.7832527997
 21
17.0375191204
  0
LINE
  5
2B6
100
AcDbEntity
  8
RACCORDO
100
AcDbLine
 62
253
  6
CONTINUOUS
 10
-19.8399537064
 20
18.0486809894
 11
-19.8133013297
 21
18.8653394835
  0
LINE
  5
2B7
100
AcDbEntity
  8
RACCORDO
100
AcDbLine
 62
253
  6
CONTINUOUS
 10
-19.7307842657
 20
18.6683162906
 11
-19.7576731397
 21
17.8526210944
  0
LWPOLYLINE
  5
2B8
100
AcDbEntity
  8
RACCORDO
100
AcDbPolyline
 62
7
  6
CONTINUOUS
 90
7
 70
0
 10
-19.7657828954
 20
19.1827714648
 10
-19.7801678079
 20
18.7595340651
 10
-19.7942030109
 20
18.3364596091
 10
-19.8078884928
 20
17.9135485277
 10
-19.8212242431
 20
17.4908012181
 10
-19.8342102506
 20
17.0682181072
 10
-19.8572659602
 20
16.2884825735
  0
LINE
  5
2B9
100
AcDbEntity
  8
RACCORDO
100
AcDbLine
 62
253
  6
CONTINUOUS
 10
-19.8133013297
 20
18.8653394835
 11
-19.7853491601
 21
19.6825205003
  0
LINE
  5
2BA
100
AcDbEntity
  8
RACCORDO
100
AcDbLine
 62
253
  6
CONTINUOUS
 10
-19.7853491601
 20
19.6825205003
 11
-19.7708856394
 21
20.0913070647
  0
LINE
  5
2BB
100
AcDbEntity
  8
RACCORDO
100
AcDbLine
 62
7
  6
CONTINUOUS
 10
-19.7385175414
 20
19.9587043119
 11
-19.7657828954
 21
19.1827714648
  0
LWPOLYLINE
  5
2BC
100
AcDbEntity
  8
RACCORDO
100
AcDbPolyline
 62
253
  6
CONTINUOUS
 90
3
 70
0
 10
-19.6879961644
 20
19.8929705751
 10
-19.7025861498
 20
19.4846049501
 10
-19.7307842657
 20
18.6683162906
  0
LWPOLYLINE
  5
2BD
100
AcDbEntity
  8
RACCORDO
100
AcDbPolyline
 62
253
  6
CONTINUOUS
 90
9
 70
0
 10
-19.2884460504
 20
14.6707066831
 10
-19.2865829467
 20
14.6934620407
 10
-19.2823268152
 20
14.7168275544
 10
-19.2757465953
 20
14.7404247577
 10
-19.266948871
 20
14.7638714311
 10
-19.2560761449
 20
14.7867877935
 10
-19.2433045296
 20
14.8088026538
 10
-19.228840895
 20
14.8295594227
 10
-19.2129195183
 20
14.8487218892
  0
LINE
  5
2BE
100
AcDbEntity
  8
DRAFT
100
AcDbLine
 62
7
  6
CONTINUOUS
 10
-8.3318206312
 20
18.0779490833
 11
-7.6370564448
 21
18.4830602395
  0
LWPOLYLINE
  5
2BF
100
AcDbEntity
  8
ASSI
100
AcDbPolyline
 62
7
  6
CONTINUOUS
 90
12
 70
0
 10
-3.7095882196
 20
19.3014724734
 10
-3.7209082426
 20
19.2949718231
 10
-3.7431930428
 20
19.2796308961
 10
-3.7640836258
 20
19.2616400158
 10
-3.7832693339
 20
19.2411977258
 10
-3.800039373
 20
19.2191759796
 10
-3.8146992194
 20
19.1953008818
 10
-3.8271739517
 20
19.1694889218
 10
-3.8368129843
 20
19.1430402096
 10
-3.8436220145
 20
19.116284688
 10
-3.8477204186
 20
19.0884746913
 10
-3.8488488858
 20
19.0644087814
  0
LWPOLYLINE
  5
2C0
100
AcDbEntity
  8
DRAFT
100
AcDbPolyline
 62
7
  6
CONTINUOUS
 90
10
 70
0
 10
-19.8466502187
 20
10.6284938177
 10
-19.8571569041
 20
10.6225368225
 10
-19.8823331203
 20
10.6039657599
 10
-19.9046004133
 20
10.581009428
 10
-19.9238001712
 20
10.5535639371
 10
-19.940094941
 20
10.5217313946
 10
-19.9530382103
 20
10.4865120473
 10
-19.9624823693
 20
10.4482387387
 10
-19.9685779633
 20
10.4065772612
 10
-19.971325723
 20
10.3615272658
  0
LWPOLYLINE
  5
2C1
100
AcDbEntity
  8
ASSI
100
AcDbPolyline
 62
253
  6
CONTINUOUS
 90
9
 70
0
 10
-0.2314951777
 20
22.4729642319
 10
-0.205323378
 20
22.4877911776
 10
-0.1823916688
 20
22.5039007342
 10
-0.1629482424
 20
22.5211193882
 10
-0.1472029462
 20
22.5392613647
 10
-0.1353297676
 20
22.5581313406
 10
-0.1274610584
 20
22.5775259224
 10
-0.1236812586
 20
22.5972338919
 10
-0.1233240131
 20
22.6054098571
  0
LWPOLYLINE
  5
2C2
100
AcDbEntity
  8
ASSI
100
AcDbPolyline
 62
253
  6
CONTINUOUS
 90
31
 70
0
 10
-0.4083160685
 20
22.7777761951
 10
-0.3989735454
 20
22.7829658353
 10
-0.3909263081
 20
22.788482816
 10
-0.3841743565
 20
22.7943271374
 10
-0.378672807
 20
22.800568581
 10
-0.3744665433
 20
22.8071373652
 10
-0.3716902166
 20
22.813824145
 10
-0.3703901271
 20
22.8206321114
 10
-0.3705199746
 20
22.8275580734
 10
-0.3720755101
 20
22.834383112
 10
-0.3751024335
 20
22.8411039807
 10
-0.3795550449
 20
22.847723926
 10
-0.3852919952
 20
22.8540337688
 10
-0.3923541582
 20
22.8600235883
 10
-0.4007006602
 20
22.8657033054
 10
-0.4100675303
 20
22.8708935031
 10
-0.4204873432
 20
22.8755785222
 10
-0.4319275241
 20
22.879774022
 10
-0.444026378
 20
22.8833475641
 10
-0.4568048456
 20
22.8862793607
 10
-0.4702419862
 20
22.8885891995
 10
-0.4839132822
 20
22.8902040053
 10
-0.4978261795
 20
22.8911014149
 10
-0.5119732324
 20
22.8913037915
 10
-0.5259075863
 20
22.8908051493
 10
-0.5396284272
 20
22.8895807138
 10
-0.5531365692
 20
22.8876552595
 10
-0.5659876004
 20
22.8850971241
 10
-0.5780333834
 20
22.8819290869
 10
-0.5894220555
 20
22.8781283686
 10
-0.6001536168
 20
22.8736949693
  0
LWPOLYLINE
  5
2C3
100
AcDbEntity
  8
ASSI
100
AcDbPolyline
 62
253
  6
CONTINUOUS
 90
12
 70
0
 10
-3.6171851587
 20
19.2973507343
 10
-3.625446206
 20
19.2927753725
 10
-3.6339365945
 20
19.2875736154
 10
-3.6426330561
 20
19.2817138601
 10
-3.6515278076
 20
19.2751518358
 10
-3.6605703265
 20
19.2678736606
 10
-3.6696696879
 20
19.2599075869
 10
-3.6787902492
 20
19.2512437888
 10
-3.6878928944
 20
19.241876811
 10
-3.6968831863
 20
19.2318668356
 10
-3.7057211955
 20
19.2212261604
 10
-3.7143658553
 20
19.2099705885
  0
LINE
  5
2C4
100
AcDbEntity
  8
DRAFT
100
AcDbLine
 62
7
  6
CONTINUOUS
 10
2.6985849084
 20
23.1207451162
 11
12.0191632895
 21
28.2215181928
  0
LINE
  5
2C5
100
AcDbEntity
  8
ASSI
100
AcDbLine
 62
7
  6
CONTINUOUS
 10
2.6985849084
 20
23.1207451162
 11
12.0191632895
 21
28.2215181928
  0
LINE
  5
2C6
100
AcDbEntity
  8
ASSI
100
AcDbLine
 62
7
  6
CONTINUOUS
 10
-4.1368778779
 20
19.366697329
 11
-4.3552239153
 21
19.2474958092
  0
LINE
  5
2C7
100
AcDbEntity
  8
ASSI
100
AcDbLine
 62
7
  6
CONTINUOUS
 10
-2.1424812894
 20
20.146962898
 11
-3.7096817797
 21
19.3014222793
  0
LINE
  5
2C8
100
AcDbEntity
  8
ASSI
100
AcDbLine
 62
253
  6
CONTINUOUS
 10
-2.0509344125
 20
20.1423789443
 11
-3.6171851587
 21
19.2973507343
  0
LINE
  5
2C9
100
AcDbEntity
  8
DRAFT
100
AcDbLine
 62
7
  6
CONTINUOUS
 10
0.8778214501
 20
23.251881612
 11
12.0191632895
 21
29.1023052001
  0
LINE
  5
2CA
100
AcDbEntity
  8
ASSI
100
AcDbLine
 62
7
  6
CONTINUOUS
 10
0.8778214501
 20
23.251881612
 11
12.0191632895
 21
29.1023052001
  0
LINE
  5
2CB
100
AcDbEntity
  8
DRAFT
100
AcDbLine
 62
7
  6
CONTINUOUS
 10
10.0406130849
 20
26.287468452
 11
3.3342267991
 21
22.8029241708
  0
LINE
  5
2CC
100
AcDbEntity
  8
ASSI
100
AcDbLine
 62
7
  6
CONTINUOUS
 10
10.0406130849
 20
26.287468452
 11
3.3342267991
 21
22.8029241708
  0
LINE
  5
2CD
100
AcDbEntity
  8
DRAFT
100
AcDbLine
 62
7
  6
CONTINUOUS
 10
-19.7055965606
 20
10.7010840179
 11
-19.8466887233
 21
10.6285802356
  0
LINE
  5
2CE
100
AcDbEntity
  8
DRAFT
100
AcDbLine
 62
253
  6
CONTINUOUS
 10
-19.4939114105
 20
10.6809562804
 11
-19.6357207327
 21
10.6085351178
  0
LINE
  5
2CF
100
AcDbEntity
  8
ASSI
100
AcDbLine
 62
253
  6
CONTINUOUS
 10
-4.3552239153
 20
20.4258497175
 11
-4.1368778779
 21
20.5358645991
  0
LINE
  5
2D0
100
AcDbEntity
  8
ASSI
100
AcDbLine
 62
7
  6
CONTINUOUS
 10
-2.142437855
 20
20.1469862883
 11
-2.1382714184
 21
20.1490697927
  0
LINE
  5
2D1
100
AcDbEntity
  8
ASSI
100
AcDbLine
 62
253
  6
CONTINUOUS
 10
-4.1368778779
 20
20.5358645991
 11
-0.231495168
 21
22.472963214
  0
LINE
  5
2D2
100
AcDbEntity
  8
ASSI
100
AcDbLine
 62
7
  6
CONTINUOUS
 10
-4.1368778779
 20
19.366697329
 11
-0.2315662971
 21
21.3037606634
  0
LINE
  5
2D3
100
AcDbEntity
  8
DRAFT
100
AcDbLine
 62
253
  6
CONTINUOUS
 10
-20.0272806946
 20
10.5469205113
 11
-20.1702685897
 21
10.4766633243
  0
LINE
  5
2D4
100
AcDbEntity
  8
ASSI
100
AcDbLine
 62
7
  6
CONTINUOUS
 10
2.0795285056
 20
23.1439728076
 11
-0.1233239953
 21
22.108289414
  0
LINE
  5
2D5
100
AcDbEntity
  8
ASSI
100
AcDbLine
 62
253
  6
CONTINUOUS
 10
2.1889828003
 20
23.1357464003
 11
-0.1233239953
 21
22.0486024594
  0
LINE
  5
2D6
100
AcDbEntity
  8
ASSI
100
AcDbLine
 62
7
  6
CONTINUOUS
 10
-1.5945322349
 20
20.4001865666
 11
-2.1382156127
 21
20.1490955657
  0
LINE
  5
2D7
100
AcDbEntity
  8
ASSI
100
AcDbLine
 62
253
  6
CONTINUOUS
 10
-1.5082083498
 20
20.3930278253
 11
-2.0509344125
 21
20.1423789443
  0
LWPOLYLINE
  5
2D8
100
AcDbEntity
  8
ASSI
100
AcDbPolyline
 62
7
  6
CONTINUOUS
 90
3
 70
0
 10
-2.1382714184
 20
20.1490697927
 10
-2.1216339482
 20
20.154532066
 10
-2.1050470505
 20
20.1562548574
  0
LWPOLYLINE
  5
2D9
100
AcDbEntity
  8
DRAFT
100
AcDbPolyline
 62
7
  6
CONTINUOUS
 90
8
 70
0
 10
-7.2499479137
 20
-17.3230718584
 10
-7.2101286881
 20
-17.3380648558
 10
-7.1716875694
 20
-17.3480958644
 10
-7.1346250976
 20
-17.353165205
 10
-7.0985941832
 20
-17.3532377035
 10
-7.0639423408
 20
-17.3483488184
 10
-7.0317130084
 20
-17.3386053628
 10
-7.0171631084
 20
-17.3321459669
  0
LWPOLYLINE
  5
2DA
100
AcDbEntity
  8
DRAFT
100
AcDbPolyline
 62
7
  6
CONTINUOUS
 90
10
 70
0
 10
-7.101212989
 20
-17.5100273534
 10
-8.5446176703
 20
-16.8655044975
 10
-9.9693843742
 20
-16.2110110971
 10
-11.3753144599
 20
-15.5466426145
 10
-12.762189648
 20
-14.8725052261
 10
-14.1298325291
 20
-14.1886844275
 10
-15.4781082414
 20
-13.4952457166
 10
-16.8068448291
 20
-12.7922769884
 10
-18.1158315629
 20
-12.0798878524
 10
-19.4048778778
 20
-11.358177437
  0
LWPOLYLINE
  5
2DB
100
AcDbEntity
  8
DRAFT
100
AcDbPolyline
 62
7
  6
CONTINUOUS
 90
10
 70
0
 10
-7.2429561083
 20
-17.5824132061
 10
-8.6862669194
 20
-16.9378302345
 10
-10.110959774
 20
-16.2832937301
 10
-11.5168362671
 20
-15.6188987358
 10
-12.9036751087
 20
-14.94475278
 10
-14.2713029936
 20
-14.2609394795
 10
-15.619595637
 20
-13.5675190438
 10
-16.9483845286
 20
-12.8645774714
 10
-18.257455897
 20
-12.1522260466
 10
-19.5466196457
 20
-11.4305639653
  0
LWPOLYLINE
  5
2DC
100
AcDbEntity
  8
ASSI
100
AcDbPolyline
 62
253
  6
CONTINUOUS
 90
3
 70
0
 10
0.7026256933
 20
-22.2919874388
 10
0.6966794475
 20
-22.2892915466
 10
0.6795904443
 20
-22.2840743692
  0
LINE
  5
2DD
100
AcDbEntity
  8
ASSI
100
AcDbLine
 62
253
  6
CONTINUOUS
 10
0.2118288264
 20
-22.0502023945
 11
0.6795897051
 21
-22.2840739838
  0
LINE
  5
2DE
100
AcDbEntity
  8
ASSI
100
AcDbLine
 62
7
  6
CONTINUOUS
 10
0.7028651114
 20
-22.2921066973
 11
0.2118288264
 21
-22.0465885546
  0
LWPOLYLINE
  5
2DF
100
AcDbEntity
  8
RACCORDO
100
AcDbPolyline
 62
253
  6
CONTINUOUS
 90
22
 70
0
 10
-18.9430289364
 20
-10.1637986897
 10
-18.5006298683
 20
-10.4054312488
 10
-18.0425991114
 20
-10.6537094558
 10
-17.5687635963
 20
-10.9085446936
 10
-17.0766268423
 20
-11.1710994371
 10
-16.5682977438
 20
-11.4400102223
 10
-16.0506136534
 20
-11.7114467231
 10
-15.5228464898
 20
-11.9856970594
 10
-14.985548003
 20
-12.26236684
 10
-14.4477267851
 20
-12.5367233536
 10
-13.9118927756
 20
-12.807535278
 10
-13.3756633975
 20
-13.0760758086
 10
-12.8408763338
 20
-13.3414523143
 10
-12.3110469307
 20
-13.6019723743
 10
-11.7828305714
 20
-13.8593950432
 10
-11.2476706659
 20
-14.1179515879
 10
-10.7021349152
 20
-14.3791597158
 10
-10.149486429
 20
-14.6413930597
 10
-9.5910954889
 20
-14.9041063527
 10
-9.0273819835
 20
-15.1670909261
 10
-8.4577978755
 20
-15.4304653117
 10
-7.882269673
 20
-15.6941787075
  0
LWPOLYLINE
  5
2E0
100
AcDbEntity
  8
DRAFT
100
AcDbPolyline
 62
7
  6
CONTINUOUS
 90
10
 70
0
 10
-19.5536143711
 20
-11.1711988606
 10
-18.2648354494
 20
-11.8930679428
 10
-16.9560530318
 20
-12.6055743451
 10
-15.6274572906
 20
-13.308618909
 10
-14.2792627546
 20
-14.0020892102
 10
-12.9116373234
 20
-14.6859004641
 10
-11.5247031919
 20
-15.3599959739
 10
-10.1186328872
 20
-16.0242932517
 10
-8.6936483454
 20
-16.6786835714
 10
-7.2499479137
 20
-17.3230718584
  0
LWPOLYLINE
  5
2E1
100
AcDbEntity
  8
RACCORDO
100
AcDbPolyline
 62
253
  6
CONTINUOUS
 90
22
 70
0
 10
-19.0021814465
 20
-10.4332642277
 10
-18.5624175444
 20
-10.6835604725
 10
-18.1069665326
 20
-10.9397151154
 10
-17.6356171767
 20
-11.2016206053
 10
-17.1459823661
 20
-11.4703622422
 10
-16.6399864813
 20
-11.7446158592
 10
-16.1239931835
 20
-12.0207091608
 10
-15.597037729
 20
-12.2990021183
 10
-15.0598490383
 20
-12.5789970265
 10
-14.5216089166
 20
-12.8558690257
 10
-13.9846584926
 20
-13.1284608489
 10
-13.4467815884
 20
-13.3979677523
 10
-12.9105297877
 20
-13.6631958158
 10
-12.3799681944
 20
-13.9222660643
 10
-11.8512525158
 20
-14.1771472164
 10
-11.3149589191
 20
-14.432359946
 10
-10.767211899
 20
-14.6896622245
 10
-10.2117146547
 20
-14.9471832909
 10
-9.6502893142
 20
-15.2039372566
 10
-9.0835324748
 20
-15.459581361
 10
-8.5107817391
 20
-15.7143983241
 10
-7.9320007935
 20
-15.9683557396
  0
LWPOLYLINE
  5
2E2
100
AcDbEntity
  8
RACCORDO
100
AcDbPolyline
 62
253
  6
CONTINUOUS
 90
64
 70
0
 10
-19.002172359
 20
-10.4332698469
 10
-19.0095265697
 20
-10.428936453
 10
-19.0169155467
 20
-10.4243370901
 10
-19.0243321962
 20
-10.419471651
 10
-19.031755308
 20
-10.4143512061
 10
-19.0391931563
 20
-10.4089715761
 10
-19.0466808739
 20
-10.4033037427
 10
-19.0541973056
 20
-10.3973556923
 10
-19.0617496377
 20
-10.3911217064
 10
-19.0694111527
 20
-10.3845357019
 10
-19.077163731
 20
-10.377594416
 10
-19.0850067957
 20
-10.3702903106
 10
-19.0930321697
 20
-10.3625289004
 10
-19.1012276692
 20
-10.3542914992
 10
-19.1095773494
 20
-10.3455725681
 10
-19.118157133
 20
-10.3362778379
 10
-19.1269589203
 20
-10.3263790576
 10
-19.1359515574
 20
-10.3158764413
 10
-19.1451669084
 20
-10.3047093807
 10
-19.1546061776
 20
-10.2928420595
 10
-19.1642219732
 20
-10.2802920441
 10
-19.1739706424
 20
-10.2670858069
 10
-19.1838243515
 20
-10.2532445731
 10
-19.1937733933
 20
-10.2387536348
 10
-19.2038030951
 20
-10.2235987713
 10
-19.2138787684
 20
-10.2078218603
 10
-19.2240033819
 20
-10.1913982863
 10
-19.2342155103
 20
-10.1742217995
 10
-19.2444966397
 20
-10.1563058439
 10
-19.2548284356
 20
-10.1376543455
 10
-19.2652437128
 20
-10.1181524292
 10
-19.2757285804
 20
-10.0978033619
 10
-19.2862554444
 20
-10.0766234322
 10
-19.2968340613
 20
-10.0545247299
 10
-19.3074476518
 20
-10.0315172645
 10
-19.3180703416
 20
-10.0076144686
 10
-19.328699552
 20
-9.9827418392
 10
-19.3393162988
 20
-9.9569149586
 10
-19.3498961675
 20
-9.9301452187
 10
-19.3604312583
 20
-9.9023597021
 10
-19.3709060321
 20
-9.8735618018
 10
-19.3812899339
 20
-9.8437783931
 10
-19.391557191
 20
-9.8129788592
 10
-19.401688996
 20
-9.7811737551
 10
-19.4116574244
 20
-9.7483861376
 10
-19.4214296208
 20
-9.7146100734
 10
-19.4309892506
 20
-9.6798417805
 10
-19.4403038797
 20
-9.6441221519
 10
-19.4493255185
 20
-9.6075164508
 10
-19.4580356033
 20
-9.5700272007
 10
-19.4664052057
 20
-9.5316918722
 10
-19.4743830951
 20
-9.4926299121
 10
-19.4819506849
 20
-9.4528449678
 10
-19.4890815057
 20
-9.4123755897
 10
-19.4957273222
 20
-9.3713925943
 10
-19.5018715195
 20
-9.3298942694
 10
-19.5074896299
 20
-9.2879258302
 10
-19.5125399645
 20
-9.2457240332
 10
-19.5170080507
 20
-9.2032984577
 10
-19.5208758689
 20
-9.1606818011
 10
-19.524118044
 20
-9.1181373646
 10
-19.5267260762
 20
-9.0757631839
 10
-19.5286894917
 20
-9.0334983608
 10
-19.5299912354
 20
-8.991364305
  0
LINE
  5
2E3
100
AcDbEntity
  8
ASSI
100
AcDbLine
 62
253
  6
CONTINUOUS
 10
0.6975360266
 20
-22.2948592426
 11
0.6795388503
 21
-22.284063716
  0
LWPOLYLINE
  5
2E4
100
AcDbEntity
  8
DRAFT
100
AcDbPolyline
 62
7
  6
CONTINUOUS
 90
19
 70
0
 10
-19.5466196457
 20
-11.4305639653
 10
-19.5934743007
 20
-11.4012475098
 10
-19.6394209248
 20
-11.3674751522
 10
-19.6844600791
 20
-11.3292470939
 10
-19.7289227901
 20
-11.2862082695
 10
-19.772478256
 20
-11.2387136948
 10
-19.8141358605
 20
-11.1878294094
 10
-19.8538614409
 20
-11.1334659944
 10
-19.8916923526
 20
-11.0757141546
 10
-19.9267484048
 20
-11.0159115915
 10
-19.9589592082
 20
-10.9540165521
 10
-19.9884001866
 20
-10.8900729468
 10
-20.0144123197
 20
-10.8255481594
 10
-20.0369170022
 20
-10.7604285987
 10
-20.0559982588
 20
-10.6947302606
 10
-20.0712425288
 20
-10.6299656879
 10
-20.0825137715
 20
-10.566639917
 10
-20.0899524817
 20
-10.5042499776
 10
-20.0935599854
 20
-10.4427964863
  0
LWPOLYLINE
  5
2E5
100
AcDbEntity
  8
DRAFT
100
AcDbPolyline
 62
7
  6
CONTINUOUS
 90
4
 70
0
 10
-19.4048778778
 20
-11.358177437
 10
-19.4516253034
 20
-11.3289232389
 10
-19.497467024
 20
-11.2952227502
 10
-19.5424035804
 20
-11.2570761591
  0
LWPOLYLINE
  5
2E6
100
AcDbEntity
  8
RACCORDO
100
AcDbPolyline
 62
253
  6
CONTINUOUS
 90
64
 70
0
 10
-18.9430284607
 20
-10.1637975723
 10
-18.9454107534
 20
-10.1622224473
 10
-18.9477399676
 20
-10.1604105227
 10
-18.9500131908
 20
-10.1583606645
 10
-18.95222355
 20
-10.1560770622
 10
-18.9543731399
 20
-10.1535567784
 10
-18.9564712698
 20
-10.1507845249
 10
-18.9585110146
 20
-10.1477636757
 10
-18.9604931709
 20
-10.1444885164
 10
-18.9624347719
 20
-10.1409196975
 10
-18.9643285715
 20
-10.1370541656
 10
-18.9661714686
 20
-10.1328828861
 10
-18.967980513
 20
-10.1283426517
 10
-18.9697478432
 20
-10.1234190575
 10
-18.9714646516
 20
-10.1181027868
 10
-18.9731395224
 20
-10.1123236833
 10
-18.9747632582
 20
-10.1060572739
 10
-18.9763225701
 20
-10.0992974943
 10
-18.9778144467
 20
-10.0919929516
 10
-18.9792298507
 20
-10.0841096775
 10
-18.9805530021
 20
-10.075653618
 10
-18.9817701748
 20
-10.0666351837
 10
-18.9828707202
 20
-10.0570585213
 10
-18.9838470097
 20
-10.0469088119
 10
-18.9846914358
 20
-10.0361739115
 10
-18.9853948774
 20
-10.024874558
 10
-18.9859516367
 20
-10.0129878087
 10
-18.9863569714
 20
-10.0004356067
 10
-18.9866018601
 20
-9.9872181619
 10
-18.9866775584
 20
-9.973331407
 10
-18.9865750238
 20
-9.9586875579
 10
-18.9862840776
 20
-9.9432786855
 10
-18.9857947199
 20
-9.927109165
 10
-18.9850946294
 20
-9.9101086051
 10
-18.9841735266
 20
-9.8922745854
 10
-18.9830212131
 20
-9.8736092649
 10
-18.9816234409
 20
-9.8540501618
 10
-18.9799703116
 20
-9.8336000606
 10
-18.9780515115
 20
-9.812259714
 10
-18.9758506855
 20
-9.7899653579
 10
-18.9733567669
 20
-9.7667106308
 10
-18.9705603539
 20
-9.7425088259
 10
-18.9674470832
 20
-9.7173281674
 10
-18.9640069122
 20
-9.6911689915
 10
-18.9602307063
 20
-9.664042311
 10
-18.9561061754
 20
-9.6359354431
 10
-18.9516217191
 20
-9.6068372774
 10
-18.9467708581
 20
-9.576774328
 10
-18.9415511967
 20
-9.5457936421
 10
-18.9359529192
 20
-9.5138900511
 10
-18.929970753
 20
-9.4810884731
 10
-18.9236131438
 20
-9.4474842034
 10
-18.9168717281
 20
-9.4130735608
 10
-18.9097433258
 20
-9.3778835395
 10
-18.9022494383
 20
-9.3420577045
 10
-18.8943822324
 20
-9.3055881186
 10
-18.8861419398
 20
-9.2685086064
 10
-18.8775688252
 20
-9.2310263028
 10
-18.868659689
 20
-9.1931442075
 10
-18.8594153047
 20
-9.154886338
 10
-18.8498895545
 20
-9.116490548
 10
-18.8401033852
 20
-9.0780443213
 10
-18.8300394088
 20
-9.0394861837
 10
-18.8196976663
 20
-9.000829914
  0
LWPOLYLINE
  5
2E7
100
AcDbEntity
  8
RACCORDO
100
AcDbPolyline
 62
7
  6
CONTINUOUS
 90
4
 70
0
 10
-18.6487416041
 20
-9.0595669897
 10
-18.5961901359
 20
-9.1095846511
 10
-18.5372674517
 20
-9.1479907967
 10
-18.5309591131
 20
-9.1512262236
  0
LWPOLYLINE
  5
2E8
100
AcDbEntity
  8
RACCORDO
100
AcDbPolyline
 62
7
  6
CONTINUOUS
 90
5
 70
0
 10
-18.754245622
 20
-8.7987307853
 10
-18.744928141
 20
-8.8698511543
 10
-18.7224071451
 20
-8.9410309847
 10
-18.6900872605
 20
-9.0038412174
 10
-18.6487416041
 20
-9.0595669897
  0
LWPOLYLINE
  5
2E9
100
AcDbEntity
  8
ASSI
100
AcDbPolyline
 62
7
  6
CONTINUOUS
 90
9
 70
0
 10
-16.4353500568
 20
25.0403523416
 10
-16.4352164372
 20
25.0322255969
 10
-16.4330336642
 20
25.0064577776
 10
-16.4281860327
 20
24.9812803293
 10
-16.4207232822
 20
24.9570114359
 10
-16.4108189596
 20
24.9340447731
 10
-16.3986081778
 20
24.9125303947
 10
-16.3841910726
 20
24.8925959976
 10
-16.3678087316
 20
24.8745416497
  0
LINE
  5
2EA
100
AcDbEntity
  8
ASSI
100
AcDbLine
 62
7
  6
CONTINUOUS
 10
-16.4353496182
 20
25.0403523418
 11
-16.4353496648
 21
25.3576894509
  0
LINE
  5
2EB
100
AcDbEntity
  8
ASSI
100
AcDbLine
 62
253
  6
CONTINUOUS
 10
-16.376771021
 20
24.969727323
 11
-16.376771021
 21
25.2869787729
  0
LINE
  5
2EC
100
AcDbEntity
  8
ASSI
100
AcDbLine
 62
7
  6
CONTINUOUS
 10
-15.7204865444
 20
24.0848887804
 11
-15.7204865444
 21
24.5388359323
  0
LINE
  5
2ED
100
AcDbEntity
  8
ASSI
100
AcDbLine
 62
253
  6
CONTINUOUS
 10
-15.6472632397
 20
23.9931501358
 11
-15.6472632397
 21
24.50222428
  0
LINE
  5
2EE
100
AcDbEntity
  8
ASSI
100
AcDbLine
 62
7
  6
CONTINUOUS
 10
-15.5145258074
 20
23.2294850634
 11
-15.5145258074
 21
24.4397791472
  0
LINE
  5
2EF
100
AcDbEntity
  8
ASSI
100
AcDbLine
 62
253
  6
CONTINUOUS
 10
-15.4413025027
 20
23.1376765179
 11
-15.4413025027
 21
24.5019757134
  0
LWPOLYLINE
  5
2F0
100
AcDbEntity
  8
ASSI
100
AcDbPolyline
 62
253
  6
CONTINUOUS
 90
18
 70
0
 10
-16.376771021
 20
25.2869787729
 10
-16.3765744463
 20
25.297297619
 10
-16.3759617079
 20
25.3081137553
 10
-16.3748972381
 20
25.3194168059
 10
-16.3733417935
 20
25.3312175067
 10
-16.3712627124
 20
25.3434703379
 10
-16.3686445854
 20
25.3560708721
 10
-16.3654646936
 20
25.3689870081
 10
-16.3617022793
 20
25.38218128
 10
-16.3573665008
 20
25.3955321621
 10
-16.3524506924
 20
25.4089947809
 10
-16.3469510267
 20
25.4225199694
 10
-16.3409034752
 20
25.4359772899
 10
-16.3343216277
 20
25.4493103338
 10
-16.3272162088
 20
25.4624727166
 10
-16.3196382819
 20
25.4753535801
 10
-16.3116202644
 20
25.4878920457
 10
-16.3031810067
 20
25.5000530052
  0
LWPOLYLINE
  5
2F1
100
AcDbEntity
  8
ASSI
100
AcDbPolyline
 62
7
  6
CONTINUOUS
 90
3
 70
0
 10
-11.7696052446
 20
25.0257836669
 10
-11.7642409544
 20
25.0499407196
 10
-11.7610977582
 20
25.0747708042
  0
LWPOLYLINE
  5
2F2
100
AcDbEntity
  8
RACCORDO
100
AcDbPolyline
 62
253
  6
CONTINUOUS
 90
8
 70
0
 10
-18.9006137845
 20
2.2598442704
 10
-18.9112796494
 20
2.2389580803
 10
-18.9204909545
 20
2.2154133174
 10
-18.9280003964
 20
2.1893846921
 10
-18.93365549
 20
2.1611821233
 10
-18.9373630451
 20
2.1310306383
 10
-18.9390314488
 20
2.0990071804
 10
-18.9385781051
 20
2.0652865701
  0
LINE
  5
2F3
100
AcDbEntity
  8
ASSI
100
AcDbLine
 62
7
  6
CONTINUOUS
 10
-2.8882652109
 20
18.1831438125
 11
-2.8548017976
 21
18.2087253608
  0
LWPOLYLINE
  5
2F4
100
AcDbEntity
  8
RACCORDO
100
AcDbPolyline
 62
253
  6
CONTINUOUS
 90
3
 70
0
 10
-5.5267221925
 20
14.6332624236
 10
-5.5851304735
 20
14.5966370545
 10
-5.6429965187
 20
14.5551746033
  0
LWPOLYLINE
  5
2F5
100
AcDbEntity
  8
ASSI
100
AcDbPolyline
 62
253
  6
CONTINUOUS
 90
7
 70
0
 10
0.7700652369
 20
19.0721559593
 10
0.7867954398
 20
19.0820226561
 10
0.8008384096
 20
19.092886607
 10
0.8119591688
 20
19.1045660293
 10
0.819971636
 20
19.1168654954
 10
0.8247417397
 20
19.1295792027
 10
0.8261972769
 20
19.1416217962
  0
LWPOLYLINE
  5
2F6
100
AcDbEntity
  8
ASSI
100
AcDbPolyline
 62
253
  6
CONTINUOUS
 90
7
 70
0
 10
0.7700652369
 20
18.7322123644
 10
0.7867954521
 20
18.7420790695
 10
0.8008384278
 20
18.7529430284
 10
0.8119591874
 20
18.7646224577
 10
0.8199716507
 20
18.7769219293
 10
0.8247417476
 20
18.78963564
 10
0.8261972769
 20
18.8016782015
  0
LWPOLYLINE
  5
2F7
100
AcDbEntity
  8
RACCORDO
100
AcDbPolyline
 62
7
  6
CONTINUOUS
 90
19
 70
0
 10
-5.6187179884
 20
14.6375368073
 10
-5.6344139615
 20
14.628356549
 10
-5.7094873251
 20
14.5794754421
 10
-5.7823724152
 20
14.5238027714
 10
-5.8527316481
 20
14.4617722203
 10
-5.9202157932
 20
14.3938801363
 10
-5.9843570394
 20
14.3207423357
 10
-6.0447862976
 20
14.2429655037
 10
-6.1012312979
 20
14.1610367964
 10
-6.1533533806
 20
14.075529368
 10
-6.2008575519
 20
13.9870415491
 10
-6.2434613018
 20
13.8961249641
 10
-6.2809091022
 20
13.8033555701
 10
-6.3129499708
 20
13.7093412013
 10
-6.3393418253
 20
13.6146512826
 10
-6.3598998504
 20
13.519767815
 10
-6.3744009585
 20
13.4252018458
 10
-6.3826347335
 20
13.3315874275
 10
-6.3837799488
 20
13.3060148824
  0
LINE
  5
2F8
100
AcDbEntity
  8
RACCORDO
100
AcDbLine
 62
7
  6
CONTINUOUS
 10
-3.7176899641
 20
15.7278911689
 11
-5.6188265275
 21
14.6374849188
  0
LINE
  5
2F9
100
AcDbEntity
  8
RACCORDO
100
AcDbLine
 62
253
  6
CONTINUOUS
 10
-3.6245023976
 20
15.7242899665
 11
-5.526722193
 21
14.6332624233
  0
LINE
  5
2FA
100
AcDbEntity
  8
RACCORDO
100
AcDbLine
 62
253
  6
CONTINUOUS
 10
-5.9351697666
 20
14.812371187
 11
-3.9756506679
 21
15.8998641017
  0
LINE
  5
2FB
100
AcDbEntity
  8
RACCORDO
100
AcDbLine
 62
253
  6
CONTINUOUS
 10
-5.7875864918
 20
14.5717791438
 11
-4.1140144409
 21
15.5005773111
  0
LWPOLYLINE
  5
2FC
100
AcDbEntity
  8
ASSI
100
AcDbPolyline
 62
253
  6
CONTINUOUS
 90
28
 70
0
 10
-1.5514711173
 20
18.2644937136
 10
-1.5604005026
 20
18.2595952245
 10
-1.5694931141
 20
18.254038944
 10
-1.5787221131
 20
18.2478044271
 10
-1.58807624
 20
18.240859693
 10
-1.5975033247
 20
18.2332023857
 10
-1.6069128543
 20
18.2248711863
 10
-1.616269067
 20
18.2158683453
 10
-1.6255336262
 20
18.206200332
 10
-1.6346156044
 20
18.1959366013
 10
-1.64347602
 20
18.1851026254
 10
-1.6520805529
 20
18.1737210876
 10
-1.6603534082
 20
18.1618773986
 10
-1.6682563066
 20
18.1496192556
 10
-1.6757654946
 20
18.1369761267
 10
-1.6828358294
 20
18.1240176252
 10
-1.6894376477
 20
18.1107966207
 10
-1.6955513509
 20
18.097350862
 10
-1.7011524625
 20
18.0837312784
 10
-1.7062207994
 20
18.0699850011
 10
-1.7107377255
 20
18.0561605301
 10
-1.7146849751
 20
18.0423119164
 10
-1.7180485809
 20
18.0284878503
 10
-1.7208167014
 20
18.0147368454
 10
-1.7229787015
 20
18.0011125178
 10
-1.7245274193
 20
17.9876642845
 10
-1.7254583989
 20
17.9744373279
 10
-1.7257689932
 20
17.961477759
  0
LINE
  5
2FD
100
AcDbEntity
  8
ASSI
100
AcDbLine
 62
7
  6
CONTINUOUS
 10
-1.7680701609
 20
17.0535535964
 11
-2.3107962236
 21
16.7572634862
  0
LINE
  5
2FE
100
AcDbEntity
  8
RACCORDO
100
AcDbLine
 62
253
  6
CONTINUOUS
 10
6.0560061652
 20
20.8577156119
 11
0.324699203
 21
17.8278990401
  0
LINE
  5
2FF
100
AcDbEntity
  8
RACCORDO
100
AcDbLine
 62
7
  6
CONTINUOUS
 10
6.005609592
 20
20.7503677055
 11
0.4031579902
 21
17.7886696465
  0
LWPOLYLINE
  5
300
100
AcDbEntity
  8
ASSI
100
AcDbPolyline
 62
253
  6
CONTINUOUS
 90
28
 70
0
 10
-1.4100713002
 20
18.0206151042
 10
-1.4118921958
 20
18.0196536586
 10
-1.4137342395
 20
18.0185536298
 10
-1.4155974315
 20
18.017315018
 10
-1.4174924916
 20
18.0159360995
 10
-1.4194086999
 20
18.014418598
 10
-1.4213138967
 20
18.012767684
 10
-1.4232084472
 20
18.0109786684
 10
-1.4250919862
 20
18.0090562404
 10
-1.4269312594
 20
18.0070196378
 10
-1.4287248676
 20
18.0048655438
 10
-1.43047421
 20
18.0025972753
 10
-1.4321502301
 20
18.0002440217
 10
-1.4337500843
 20
17.997805383
 10
-1.4352766162
 20
17.9952817593
 10
-1.4367093007
 20
17.9927035404
 10
-1.438045944
 20
17.9900713009
 10
-1.4392887399
 20
17.9873844663
 10
-1.4404237448
 20
17.9846717028
 10
-1.4414497292
 20
17.981932567
 10
-1.4423679225
 20
17.9791675024
 10
-1.44316807
 20
17.9764065057
 10
-1.4438487357
 20
17.9736496314
 10
-1.4444113557
 20
17.9708968251
 10
-1.444849983
 20
17.968177921
 10
-1.4451626355
 20
17.9655028641
 10
-1.4453512955
 20
17.9628617094
 10
-1.4454159629
 20
17.9602544571
  0
LINE
  5
301
100
AcDbEntity
  8
RACCORDO
100
AcDbLine
 62
7
  6
CONTINUOUS
 10
6.0325874184
 20
21.0790181664
 11
0.3273550741
 21
18.088683184
  0
LINE
  5
302
100
AcDbEntity
  8
ASSI
100
AcDbLine
 62
253
  6
CONTINUOUS
 10
0.0704290093
 20
19.0816972333
 11
-1.5514711173
 21
18.2644937136
  0
LINE
  5
303
100
AcDbEntity
  8
ASSI
100
AcDbLine
 62
253
  6
CONTINUOUS
 10
0.2118288264
 20
18.837818624
 11
-1.4100713002
 21
18.0206151042
  0
LINE
  5
304
100
AcDbEntity
  8
DRAFT
100
AcDbLine
 62
7
  6
CONTINUOUS
 10
9.7991521109
 20
23.8903253418
 11
5.4707241186
 21
21.7346755111
  0
LINE
  5
305
100
AcDbEntity
  8
ASSI
100
AcDbLine
 62
7
  6
CONTINUOUS
 10
9.7991521109
 20
23.8903253418
 11
5.4707241186
 21
21.7346755111
  0
LINE
  5
306
100
AcDbEntity
  8
DRAFT
100
AcDbLine
 62
7
  6
CONTINUOUS
 10
9.978904811
 20
23.8004489918
 11
5.6454337038
 21
21.6422875819
  0
LINE
  5
307
100
AcDbEntity
  8
ASSI
100
AcDbLine
 62
7
  6
CONTINUOUS
 10
9.978904811
 20
23.8004489918
 11
5.6454337038
 21
21.6422875819
  0
LINE
  5
308
100
AcDbEntity
  8
ASSI
100
AcDbLine
 62
253
  6
CONTINUOUS
 10
0.5945334759
 20
19.3416569125
 11
0.0704290093
 21
19.0816972333
  0
LINE
  5
309
100
AcDbEntity
  8
ASSI
100
AcDbLine
 62
253
  6
CONTINUOUS
 10
0.735933293
 20
19.0977783032
 11
0.2118288264
 21
18.837818624
  0
LINE
  5
30A
100
AcDbEntity
  8
ASSI
100
AcDbLine
 62
253
  6
CONTINUOUS
 10
0.9066468607
 20
17.5369252112
 11
0.2118314881
 21
17.1923452061
  0
LINE
  5
30B
100
AcDbEntity
  8
ASSI
100
AcDbLine
 62
7
  6
CONTINUOUS
 10
4.9626500092
 20
21.7489127959
 11
0.3086212452
 21
19.5445629703
  0
LWPOLYLINE
  5
30C
100
AcDbEntity
  8
ASSI
100
AcDbPolyline
 62
253
  6
CONTINUOUS
 90
13
 70
0
 10
-1.4454159629
 20
17.9602544571
 10
-1.4651493731
 20
17.9518893495
 10
-1.4868772908
 20
17.9448678616
 10
-1.5102361495
 20
17.9393074818
 10
-1.5348350927
 20
17.9353012502
 10
-1.560262514
 20
17.9329162017
 10
-1.5860929441
 20
17.9321922448
 10
-1.6118941705
 20
17.9331414931
 10
-1.6372344694
 20
17.9357480631
 10
-1.6616898293
 20
17.9399683399
 10
-1.6848510463
 20
17.945731707
 10
-1.7063305711
 20
17.9529417277
 10
-1.7257689932
 20
17.961477759
  0
LWPOLYLINE
  5
30D
100
AcDbEntity
  8
ASSI
100
AcDbPolyline
 62
253
  6
CONTINUOUS
 90
13
 70
0
 10
-1.4454159629
 20
17.6429856567
 10
-1.4651494132
 20
17.6346205134
 10
-1.4868773696
 20
17.6275990014
 10
-1.5102362617
 20
17.6220386078
 10
-1.5348352297
 20
17.6180323712
 10
-1.5602626651
 20
17.615647325
 10
-1.5860930983
 20
17.6149233758
 10
-1.6118943159
 20
17.6158726356
 10
-1.6372345953
 20
17.6184792188
 10
-1.6616899284
 20
17.622699509
 10
-1.6848511141
 20
17.6284628884
 10
-1.7063306048
 20
17.6356729194
 10
-1.7257689932
 20
17.6442089585
  0
LWPOLYLINE
  5
30E
100
AcDbEntity
  8
DRAFT
100
AcDbPolyline
 62
7
  6
CONTINUOUS
 90
9
 70
0
 10
-19.964666841
 20
10.9088073446
 10
-19.9357429723
 20
10.9208561341
 10
-19.8964308484
 20
10.931439136
 10
-19.8551460604
 20
10.9361340217
 10
-19.8119311427
 20
10.9350796941
 10
-19.7677816848
 20
10.9283231408
 10
-19.7230299575
 20
10.9158798109
 10
-19.6773428292
 20
10.8977345704
 10
-19.6307193995
 20
10.8738877951
  0
LINE
  5
30F
100
AcDbEntity
  8
CURVE
100
AcDbLine
 62
253
  6
CONTINUOUS
 10
1.7606758349
 20
-15.8828090869
 11
2.3114110269
 21
-15.7881701051
  0
LWPOLYLINE
  5
310
100
AcDbEntity
  8
DRAFT
100
AcDbPolyline
 62
7
  6
CONTINUOUS
 90
7
 70
0
 10
-6.8024613213
 20
-17.5506567264
 10
-6.8483681799
 20
-17.5576894339
 10
-6.896646773
 20
-17.5592102829
 10
-6.9461819225
 20
-17.555205768
 10
-6.9966025278
 20
-17.5456717315
 10
-7.0482796939
 20
-17.5306123365
 10
-7.101212989
 20
-17.5100273534
  0
LWPOLYLINE
  5
311
100
AcDbEntity
  8
RACCORDO
100
AcDbPolyline
 62
7
  6
CONTINUOUS
 90
6
 70
0
 10
-8.7471590802
 20
-14.0430883365
 10
-8.6886818487
 20
-14.0657006078
 10
-8.6246646804
 20
-14.0777950777
 10
-8.5615749259
 20
-14.0776918858
 10
-8.5010093701
 20
-14.0661695561
 10
-8.4896328082
 20
-14.0626661752
  0
LWPOLYLINE
  5
312
100
AcDbEntity
  8
RACCORDO
100
AcDbPolyline
 62
253
  6
CONTINUOUS
 90
6
 70
0
 10
-18.6925131299
 20
-9.046506054
 10
-18.7210855188
 20
-9.0351184442
 10
-18.7485279966
 20
-9.0246951219
 10
-18.7743890204
 20
-9.0154075944
 10
-18.798243069
 20
-9.0074086801
 10
-18.8196976438
 20
-9.0008299948
  0
LWPOLYLINE
  5
313
100
AcDbEntity
  8
RACCORDO
100
AcDbPolyline
 62
253
  6
CONTINUOUS
 90
3
 70
0
 10
-18.6383239608
 20
-9.0694823388
 10
-18.6632809654
 20
-9.0586705773
 10
-18.6925131299
 20
-9.046506054
  0
LINE
  5
314
100
AcDbEntity
  8
RACCORDO
100
AcDbLine
 62
253
  6
CONTINUOUS
 10
-7.5803425089
 20
-13.9785303114
 11
-7.8412927774
 21
-13.8493501295
  0
LINE
  5
315
100
AcDbEntity
  8
RACCORDO
100
AcDbLine
 62
7
  6
CONTINUOUS
 10
-8.7496659655
 20
-14.0418736156
 11
-18.5307476478
 21
-9.1513327744
  0
LINE
  5
316
100
AcDbEntity
  8
RACCORDO
100
AcDbLine
 62
253
  6
CONTINUOUS
 10
-8.8276339212
 20
-13.8796114754
 11
-18.6087156047
 21
-8.9890706337
  0
LINE
  5
317
100
AcDbEntity
  8
DRAFT
100
AcDbLine
 62
7
  6
CONTINUOUS
 10
1.2910052409
 20
-18.9266018678
 11
1.0007560313
 21
-18.781477263
  0
LINE
  5
318
100
AcDbEntity
  8
RACCORDO
100
AcDbLine
 62
253
  6
CONTINUOUS
 10
-18.6089257995
 20
-8.8470565998
 11
-8.8274237264
 21
-13.7378076364
  0
LINE
  5
319
100
AcDbEntity
  8
RACCORDO
100
AcDbLine
 62
253
  6
CONTINUOUS
 10
-18.4381058729
 20
-8.5068261476
 11
-8.6566140319
 21
-13.3975720681
  0
LINE
  5
31A
100
AcDbEntity
  8
RACCORDO
100
AcDbLine
 62
253
  6
CONTINUOUS
 10
-7.5756486298
 20
-14.2180711024
 11
-8.1227955574
 21
-13.9419709501
  0
LWPOLYLINE
  5
31B
100
AcDbEntity
  8
RACCORDO
100
AcDbPolyline
 62
253
  6
CONTINUOUS
 90
43
 70
0
 10
-18.6087156047
 20
-8.9890706337
 10
-18.6126793228
 20
-8.9869495221
 10
-18.6166548029
 20
-8.9844542273
 10
-18.6206420452
 20
-8.9815847494
 10
-18.6246774866
 20
-8.978323522
 10
-18.6287246901
 20
-8.9746881115
 10
-18.6326743445
 20
-8.9707312163
 10
-18.6365201534
 20
-8.9664408683
 10
-18.6402684133
 20
-8.9618290357
 10
-18.6438287023
 20
-8.9569843217
 10
-18.6471919643
 20
-8.9519038971
 10
-18.6503672554
 20
-8.9465905911
 10
-18.6532913224
 20
-8.9411414943
 10
-18.6559576543
 20
-8.9355554959
 10
-18.6583727621
 20
-8.9298337066
 10
-18.6604929254
 20
-8.9240765495
 10
-18.6623124121
 20
-8.9182832892
 10
-18.6638369543
 20
-8.9124546609
 10
-18.6650400285
 20
-8.9066932942
 10
-18.665915518
 20
-8.9010015573
 10
-18.6664695394
 20
-8.8953770818
 10
-18.6666939189
 20
-8.8899153926
 10
-18.6665832561
 20
-8.8846201492
 10
-18.6661429514
 20
-8.879487692
 10
-18.6653810314
 20
-8.8746025671
 10
-18.6642921695
 20
-8.869968191
 10
-18.6628816923
 20
-8.8655811472
 10
-18.6611736068
 20
-8.8615157329
 10
-18.659162326
 20
-8.8577771805
 10
-18.6568534369
 20
-8.8543602576
 10
-18.6542877073
 20
-8.8513235642
 10
-18.6514605143
 20
-8.8486743697
 10
-18.6483764807
 20
-8.8464054047
 10
-18.645090244
 20
-8.8445534613
 10
-18.6415945918
 20
-8.8431271508
 10
-18.6378967363
 20
-8.8421178618
 10
-18.6340729511
 20
-8.8415365529
 10
-18.630138011
 20
-8.8413869359
 10
-18.6260771411
 20
-8.8416652988
 10
-18.6219222902
 20
-8.8423714644
 10
-18.6176841077
 20
-8.8435053736
 10
-18.6133519441
 20
-8.8450670854
 10
-18.6089257995
 20
-8.8470565998
  0
LWPOLYLINE
  5
31C
100
AcDbEntity
  8
RACCORDO
100
AcDbPolyline
 62
253
  6
CONTINUOUS
 90
43
 70
0
 10
-8.8274237264
 20
-13.7378076364
 10
-8.8234103706
 20
-13.739957733
 10
-8.8193887512
 20
-13.7424884887
 10
-8.8153588684
 20
-13.7453999036
 10
-8.8112832001
 20
-13.7487107541
 10
-8.8071992682
 20
-13.7524022638
 10
-8.8032196388
 20
-13.7564181029
 10
-8.7993511027
 20
-13.760770631
 10
-8.795586869
 20
-13.7654474884
 10
-8.7920191315
 20
-13.770355267
 10
-8.7886575825
 20
-13.7754966592
 10
-8.7854925297
 20
-13.7808689725
 10
-8.7825870896
 20
-13.7863707209
 10
-8.7799483494
 20
-13.7920025241
 10
-8.7775692219
 20
-13.7977637625
 10
-8.7754915617
 20
-13.803551091
 10
-8.7737215131
 20
-13.8093646168
 10
-8.7722529318
 20
-13.8152042327
 10
-8.7711092402
 20
-13.8209662731
 10
-8.7702967528
 20
-13.8266476629
 10
-8.7698091552
 20
-13.8322514772
 10
-8.7696509259
 20
-13.8376832746
 10
-8.7698274178
 20
-13.8429387802
 10
-8.7703332782
 20
-13.848022269
 10
-8.7711569272
 20
-13.8528521242
 10
-8.7723034165
 20
-13.8574244873
 10
-8.7737676945
 20
-13.8617432169
 10
-8.7755230265
 20
-13.8657382728
 10
-8.777574523
 20
-13.8694043067
 10
-8.7799170734
 20
-13.8727466669
 10
-8.7825086116
 20
-13.8757113577
 10
-8.7853532693
 20
-13.878291376
 10
-8.7884469146
 20
-13.8804937249
 10
-8.7917350859
 20
-13.8822854183
 10
-8.7952243456
 20
-13.8836583267
 10
-8.7989081314
 20
-13.8846205796
 10
-8.802712294
 20
-13.8851635793
 10
-8.8066225973
 20
-13.8852840371
 10
-8.8106532774
 20
-13.8849852418
 10
-8.8147728939
 20
-13.8842684611
 10
-8.8189709666
 20
-13.8831341179
 10
-8.8232579757
 20
-13.8815817893
 10
-8.8276339212
 20
-13.8796114754
  0
LWPOLYLINE
  5
31D
100
AcDbEntity
  8
RACCORDO
100
AcDbPolyline
 62
253
  6
CONTINUOUS
 90
7
 70
0
 10
-8.7496659655
 20
-14.0418736156
 10
-8.759572774
 20
-14.0362779632
 10
-8.7831694918
 20
-14.0165375511
 10
-8.8022207986
 20
-13.9902097072
 10
-8.8162102202
 20
-13.9580081703
 10
-8.8247585081
 20
-13.9208059129
 10
-8.8276339212
 20
-13.8796114754
  0
LWPOLYLINE
  5
31E
100
AcDbEntity
  8
RACCORDO
100
AcDbPolyline
 62
253
  6
CONTINUOUS
 90
7
 70
0
 10
-18.5309593271
 20
-9.1512266562
 10
-18.5406545316
 20
-9.1457370743
 10
-18.5642512369
 20
-9.125996642
 10
-18.5833025248
 20
-9.0996687883
 10
-18.597291926
 20
-9.0674672573
 10
-18.6058401978
 20
-9.0302650252
 10
-18.6087156047
 20
-8.9890706337
  0
LWPOLYLINE
  5
31F
100
AcDbEntity
  8
RACCORDO
100
AcDbPolyline
 62
253
  6
CONTINUOUS
 90
35
 70
0
 10
-8.6566140319
 20
-13.3975720681
 10
-8.6387771458
 20
-13.4078013653
 10
-8.6206468913
 20
-13.4197156569
 10
-8.6023141219
 20
-13.4333372643
 10
-8.5838211666
 20
-13.4487249074
 10
-8.5653372058
 20
-13.4658337362
 10
-8.5471469467
 20
-13.4844713089
 10
-8.5293816894
 20
-13.5045454043
 10
-8.512133886
 20
-13.525992273
 10
-8.4956111172
 20
-13.5485861263
 10
-8.4799328083
 20
-13.5721754477
 10
-8.4651730153
 20
-13.5966583676
 10
-8.451448371
 20
-13.6218487071
 10
-8.4388451157
 20
-13.6475905642
 10
-8.4274298875
 20
-13.6737479761
 10
-8.4172727459
 20
-13.7001547514
 10
-8.4084319358
 20
-13.7266594742
 10
-8.4009571636
 20
-13.7531106206
 10
-8.3948900001
 20
-13.7793413503
 10
-8.3902634085
 20
-13.8051982882
 10
-8.3870994268
 20
-13.8305405937
 10
-8.3854086555
 20
-13.8552249056
 10
-8.3851980992
 20
-13.8791098401
 10
-8.3864657284
 20
-13.9020671619
 10
-8.3891984553
 20
-13.9239796829
 10
-8.3933812925
 20
-13.9447284188
 10
-8.3989900452
 20
-13.9641955447
 10
-8.4059885624
 20
-13.9822740747
 10
-8.4143389761
 20
-13.9988662007
 10
-8.4239938997
 20
-14.013878227
 10
-8.4348913357
 20
-14.0272229794
 10
-8.4469691478
 20
-14.038828583
 10
-8.4601597085
 20
-14.0486340601
 10
-8.4743818585
 20
-14.0565855168
 10
-8.4892722902
 20
-14.0625501349
  0
LINE
  5
320
100
AcDbEntity
  8
ASSI
100
AcDbLine
 62
253
  6
CONTINUOUS
 10
-15.2477382166
 20
23.0408943749
 11
-15.2477382166
 21
24.4051935703
  0
LINE
  5
321
100
AcDbEntity
  8
ASSI
100
AcDbLine
 62
253
  6
CONTINUOUS
 10
-14.8972969287
 20
23.0505138387
 11
-14.8972969287
 21
24.1272411245
  0
LINE
  5
322
100
AcDbEntity
  8
ASSI
100
AcDbLine
 62
7
  6
CONTINUOUS
 10
-14.354570866
 20
23.8558780931
 11
-14.354570866
 21
23.346803949
  0
LINE
  5
323
100
AcDbEntity
  8
ASSI
100
AcDbLine
 62
253
  6
CONTINUOUS
 10
-14.3122696983
 20
23.9374593112
 11
-14.3122696983
 21
24.2547306112
  0
LINE
  5
324
100
AcDbEntity
  8
ASSI
100
AcDbLine
 62
253
  6
CONTINUOUS
 10
-14.031916668
 20
23.9362360092
 11
-14.031916668
 21
24.2535048096
  0
LINE
  5
325
100
AcDbEntity
  8
ASSI
100
AcDbLine
 62
253
  6
CONTINUOUS
 10
-13.6275639173
 20
23.0537849412
 11
-13.6275639173
 21
23.6634717629
  0
LINE
  5
326
100
AcDbEntity
  8
ASSI
100
AcDbLine
 62
253
  6
CONTINUOUS
 10
-13.2771226294
 20
23.7511203846
 11
-13.2771226294
 21
22.9929199385
  0
LWPOLYLINE
  5
327
100
AcDbEntity
  8
ASSI
100
AcDbPolyline
 62
253
  6
CONTINUOUS
 90
28
 70
0
 10
-14.031916668
 20
24.2535048096
 10
-14.0318871547
 20
24.2555938978
 10
-14.0317575342
 20
24.2577729305
 10
-14.0315278064
 20
24.2600419076
 10
-14.0312025311
 20
24.2624113879
 10
-14.0307771485
 20
24.2648708128
 10
-14.0302379797
 20
24.2673885063
 10
-14.0295813611
 20
24.2699673597
 10
-14.0288109562
 20
24.2726044818
 10
-14.0279240776
 20
24.2752595236
 10
-14.026916826
 20
24.2779337898
 10
-14.0257931006
 20
24.2806259758
 10
-14.024561911
 20
24.2832918182
 10
-14.0232208487
 20
24.2859294296
 10
-14.0217723222
 20
24.2885406975
 10
-14.0202325671
 20
24.2910870213
 10
-14.0186005659
 20
24.2935658164
 10
-14.016877336
 20
24.2959796673
 10
-14.0150821647
 20
24.2982977271
 10
-14.013214041
 20
24.3005184027
 10
-14.0112739757
 20
24.3026432872
 10
-14.0092842894
 20
24.3046463131
 10
-14.0072441539
 20
24.3065257485
 10
-14.0051543974
 20
24.3082833254
 10
-14.0030398238
 20
24.3098981718
 10
-14.0009087013
 20
24.3113633306
 10
-13.9987527618
 20
24.3126857589
 10
-13.9965720054
 20
24.3138654568
  0
LWPOLYLINE
  5
328
100
AcDbEntity
  8
ASSI
100
AcDbPolyline
 62
253
  6
CONTINUOUS
 90
28
 70
0
 10
-14.3122696978
 20
24.254730611
 10
-14.3120682961
 20
24.2651471345
 10
-14.3114407074
 20
24.2760483066
 10
-14.3103527528
 20
24.2874225596
 10
-14.3087668776
 20
24.2992792903
 10
-14.306651864
 20
24.3115722398
 10
-14.3039933898
 20
24.3241969168
 10
-14.3007702953
 20
24.3371204949
 10
-14.2969636236
 20
24.3503052998
 10
-14.2925837821
 20
24.3636309096
 10
-14.2876258791
 20
24.3770515088
 10
-14.2820873535
 20
24.3905194824
 10
-14.2760039025
 20
24.4039095322
 10
-14.2693916424
 20
24.417162404
 10
-14.2622604503
 20
24.4302364219
 10
-14.2546537896
 20
24.4430363676
 10
-14.2466005233
 20
24.4555051261
 10
-14.2381208653
 20
24.4676034238
 10
-14.229254685
 20
24.4792682601
 10
-14.2200336151
 20
24.4904536907
 10
-14.2104884235
 20
24.5011182951
 10
-14.2006624117
 20
24.5112113536
 10
-14.1905906728
 20
24.5206951918
 10
-14.1803097068
 20
24.5295338787
 10
-14.1698678193
 20
24.5376861482
 10
-14.1593069832
 20
24.5451208104
 10
-14.1486620685
 20
24.5518145728
 10
-14.1379718224
 20
24.5577440661
  0
LINE
  5
329
100
AcDbEntity
  8
ASSI
100
AcDbLine
 62
7
  6
CONTINUOUS
 10
-11.7610977582
 20
25.0747708042
 11
-11.7603034425
 21
25.0949460388
  0
LWPOLYLINE
  5
32A
100
AcDbEntity
  8
ASSI
100
AcDbPolyline
 62
253
  6
CONTINUOUS
 90
7
 70
0
 10
-11.7603034283
 20
25.4348721489
 10
-11.7617589576
 20
25.4228295874
 10
-11.7665290544
 20
25.4101158768
 10
-11.7745415177
 20
25.3978164051
 10
-11.7856622773
 20
25.3861369758
 10
-11.7997052531
 20
25.3752730169
 10
-11.8164354682
 20
25.3654063118
  0
LWPOLYLINE
  5
32B
100
AcDbEntity
  8
ASSI
100
AcDbPolyline
 62
253
  6
CONTINUOUS
 90
7
 70
0
 10
-11.7603034283
 20
25.094928554
 10
-11.7617589581
 20
25.0828859904
 10
-11.7665290554
 20
25.07017228
 10
-11.7745415189
 20
25.0578728088
 10
-11.7856622785
 20
25.0461933799
 10
-11.7997052539
 20
25.0353294215
 10
-11.8164354682
 20
25.025462717
  0
LWPOLYLINE
  5
32C
100
AcDbEntity
  8
RACCORDO
100
AcDbPolyline
 62
253
  6
CONTINUOUS
 90
10
 70
0
 10
-18.9430307141
 20
-10.1637981753
 10
-18.9556672139
 20
-10.1939262955
 10
-18.9668784935
 20
-10.2243168796
 10
-18.9766156574
 20
-10.2548374368
 10
-18.9848362508
 20
-10.2853549675
 10
-18.9915043942
 20
-10.3157363608
 10
-18.9965909706
 20
-10.3458489782
 10
-19.0000738073
 20
-10.3755614783
 10
-19.0019377407
 20
-10.4047443845
 10
-19.0021746537
 20
-10.4332704704
  0
LINE
  5
32D
100
AcDbEntity
  8
RACCORDO
100
AcDbLine
 62
253
  6
CONTINUOUS
 10
-18.9026438483
 20
-10.0698750858
 11
-18.9430289364
 21
-10.1637986897
  0
LINE
  5
32E
100
AcDbEntity
  8
RACCORDO
100
AcDbLine
 62
253
  6
CONTINUOUS
 10
-18.8238346714
 20
-9.8866488415
 11
-18.9026438483
 21
-10.0698750858
  0
LINE
  5
32F
100
AcDbEntity
  8
RACCORDO
100
AcDbLine
 62
253
  6
CONTINUOUS
 10
-18.7476612419
 20
-9.7096268597
 11
-18.8238346714
 21
-9.8866488415
  0
LWPOLYLINE
  5
330
100
AcDbEntity
  8
RACCORDO
100
AcDbPolyline
 62
253
  6
CONTINUOUS
 90
3
 70
0
 10
-18.6381552088
 20
-9.4552736669
 10
-18.6740281674
 20
-9.5385797905
 10
-18.7476612419
 20
-9.7096268597
  0
LINE
  5
331
100
AcDbEntity
  8
RACCORDO
100
AcDbLine
 62
253
  6
CONTINUOUS
 10
-18.5682282761
 20
-9.2929334017
 11
-18.6381552088
 21
-9.4552736669
  0
LINE
  5
332
100
AcDbEntity
  8
RACCORDO
100
AcDbLine
 62
253
  6
CONTINUOUS
 10
-18.5113842186
 20
-9.161014489
 11
-18.5682282761
 21
-9.2929334017
  0
LINE
  5
333
100
AcDbEntity
  8
RACCORDO
100
AcDbLine
 62
253
  6
CONTINUOUS
 10
-18.7489510876
 20
-8.839143987
 11
-18.8196976439
 21
-9.000829995
  0
LWPOLYLINE
  5
334
100
AcDbEntity
  8
ASSI
100
AcDbPolyline
 62
253
  6
CONTINUOUS
 90
17
 70
0
 10
-3.7143658553
 20
19.2099705885
 10
-3.7227282504
 20
19.1981889319
 10
-3.7307670629
 20
19.1859190524
 10
-3.7384494134
 20
19.1731895645
 10
-3.745709992
 20
19.1600923193
 10
-3.7525126582
 20
19.1466826711
 10
-3.7588341204
 20
19.132995837
 10
-3.7646378736
 20
19.1191015976
 10
-3.7698989381
 20
19.1050527865
 10
-3.7745963786
 20
19.0908974511
 10
-3.7787065609
 20
19.0767008445
 10
-3.782213153
 20
19.0625147368
 10
-3.7851016791
 20
19.0483919743
 10
-3.7873581775
 20
19.0343995036
 10
-3.7889745126
 20
19.0205935932
 10
-3.7899462075
 20
19.0070199885
 10
-3.7902703159
 20
18.9937284203
  0
LWPOLYLINE
  5
335
100
AcDbEntity
  8
ASSI
100
AcDbPolyline
 62
7
  6
CONTINUOUS
 90
14
 70
0
 10
-0.6906219243
 20
17.457870032
 10
-0.7082322279
 20
17.4410314107
 10
-0.7270830305
 20
17.4251009137
 10
-0.7470771414
 20
17.4102798139
 10
-0.7681762976
 20
17.3967661085
 10
-0.7901791194
 20
17.3847316483
 10
-0.8127174413
 20
17.3743120456
 10
-0.835630569
 20
17.3656337119
 10
-0.8587578315
 20
17.3588279544
 10
-0.8817072108
 20
17.3539778322
 10
-0.90426466
 20
17.3511243537
 10
-0.9262836732
 20
17.3503007267
 10
-0.9474687457
 20
17.3514921351
 10
-0.9682169367
 20
17.354768483
  0
LWPOLYLINE
  5
336
100
AcDbEntity
  8
RACCORDO
100
AcDbPolyline
 62
253
  6
CONTINUOUS
 90
20
 70
0
 10
-5.6429965187
 20
14.5551746033
 10
-5.7000490054
 20
14.5090880668
 10
-5.7560314975
 20
14.4586209405
 10
-5.8106712423
 20
14.404022495
 10
-5.8636797991
 20
14.3455447906
 10
-5.9148106089
 20
14.2834777747
 10
-5.9638223
 20
14.2181371484
 10
-6.0104472166
 20
14.1498386225
 10
-6.0544648668
 20
14.0789252249
 10
-6.0956726531
 20
14.0057511581
 10
-6.133848409
 20
13.9306679538
 10
-6.1688124157
 20
13.8540481856
 10
-6.2004037258
 20
13.776275142
 10
-6.2284511034
 20
13.6977270214
 10
-6.2528206174
 20
13.6187986142
 10
-6.273404366
 20
13.5398764783
 10
-6.2900941027
 20
13.461328669
 10
-6.3028064611
 20
13.3835364974
 10
-6.3114857711
 20
13.3068924433
 10
-6.3160910126
 20
13.2317755359
  0
LWPOLYLINE
  5
337
100
AcDbEntity
  8
RACCORDO
100
AcDbPolyline
 62
253
  6
CONTINUOUS
 90
5
 70
0
 10
-18.8595026596
 20
2.3088859842
 10
-18.8604654097
 20
2.3081910885
 10
-18.8751860514
 20
2.2943670182
 10
-18.8886014542
 20
2.2782405051
 10
-18.9006137845
 20
2.2598442704
  0
LWPOLYLINE
  5
338
100
AcDbEntity
  8
RACCORDO
100
AcDbPolyline
 62
253
  6
CONTINUOUS
 90
8
 70
0
 10
5.4182351417
 20
20.0042021707
 10
5.4227713381
 20
20.0072696628
 10
5.4338623518
 20
20.0175847045
 10
5.442891299
 20
20.0305806678
 10
5.4497038135
 20
20.0460353845
 10
5.4541834392
 20
20.0636846619
 10
5.4562536061
 20
20.0832268169
 10
5.4558789253
 20
20.1043277995
  0
LWPOLYLINE
  5
339
100
AcDbEntity
  8
RACCORDO
100
AcDbPolyline
 62
253
  6
CONTINUOUS
 90
8
 70
0
 10
6.005609592
 20
20.7503677055
 10
6.014732763
 20
20.756041007
 10
6.0270195415
 20
20.7670217699
 10
6.0373410635
 20
20.7807424229
 10
6.0455207288
 20
20.7969682273
 10
6.0514186021
 20
20.8154215943
 10
6.054933793
 20
20.8357868523
 10
6.0560061652
 20
20.8577156119
  0
LWPOLYLINE
  5
33A
100
AcDbEntity
  8
ASSI
100
AcDbPolyline
 62
253
  6
CONTINUOUS
 90
22
 70
0
 10
-4.9884034733
 20
14.3992835312
 10
-5.0472073604
 20
14.3627408069
 10
-5.1054534461
 20
14.32134651
 10
-5.1628709737
 20
14.2753155189
 10
-5.2192066196
 20
14.2248946011
 10
-5.2741858327
 20
14.1703336607
 10
-5.327513389
 20
14.111882559
 10
-5.378943836
 20
14.0498323587
 10
-5.4282360889
 20
13.9845011883
 10
-5.4751145621
 20
13.9162045214
 10
-5.519358812
 20
13.845287377
 10
-5.5607680807
 20
13.7721056769
 10
-5.5991151371
 20
13.6970103531
 10
-5.6342207136
 20
13.6203758537
 10
-5.6659255575
 20
13.5425866678
 10
-5.6940551327
 20
13.464019158
 10
-5.7184757086
 20
13.3850688773
 10
-5.7390810374
 20
13.3061238265
 10
-5.7557614654
 20
13.2275510366
 10
-5.7684336045
 20
13.1497320013
 10
-5.7770432801
 20
13.0730605638
 10
-5.7815501734
 20
12.9979163484
  0
LINE
  5
33B
100
AcDbEntity
  8
RACCORDO
100
AcDbLine
 62
253
  6
CONTINUOUS
 10
5.4558789253
 20
20.1043277995
 11
1.0740444218
 21
17.4011814737
  0
LINE
  5
33C
100
AcDbEntity
  8
RACCORDO
100
AcDbLine
 62
7
  6
CONTINUOUS
 10
5.4182351417
 20
20.0042021707
 11
1.1148110178
 21
17.3494270761
  0
LWPOLYLINE
  5
33D
100
AcDbEntity
  8
RACCORDO
100
AcDbPolyline
 62
7
  6
CONTINUOUS
 90
13
 70
0
 10
6.0325874184
 20
21.0790181664
 10
6.0438090958
 20
21.0858097468
 10
6.053663133
 20
21.0941414606
 10
6.0621495299
 20
21.104013308
 10
6.0693897409
 20
21.1155124784
 10
6.0752623116
 20
21.1285517822
 10
6.0794028792
 20
21.1428696509
 10
6.0817217034
 20
21.1585876019
 10
6.0823085245
 20
21.1755841177
 10
6.0810682003
 20
21.1932330768
 10
6.0779996478
 20
21.2113840449
 10
6.07310395
 20
21.2301874563
 10
6.0718708057
 20
21.2340930637
  0
LWPOLYLINE
  5
33E
100
AcDbEntity
  8
RACCORDO
100
AcDbPolyline
 62
253
  6
CONTINUOUS
 90
6
 70
0
 10
6.0560061652
 20
20.892154067
 10
6.0727362338
 20
20.9020206737
 10
6.0867791412
 20
20.912884539
 10
6.0978998988
 20
20.9245638893
 10
6.1059124117
 20
20.9368633055
 10
6.1106825897
 20
20.9495769884
  0
LWPOLYLINE
  5
33F
100
AcDbEntity
  8
RACCORDO
100
AcDbPolyline
 62
253
  6
CONTINUOUS
 90
7
 70
0
 10
6.0560061652
 20
20.8577156119
 10
6.0723956814
 20
20.8673534844
 10
6.0863072854
 20
20.8780257486
 10
6.0974589581
 20
20.889577531
 10
6.1056210454
 20
20.901861543
 10
6.11056349
 20
20.9146574088
 10
6.1121382052
 20
20.9271813239
  0
LWPOLYLINE
  5
340
100
AcDbEntity
  8
ASSI
100
AcDbPolyline
 62
253
  6
CONTINUOUS
 90
22
 70
0
 10
-4.6257226307
 20
13.7947724428
 10
-4.6615533081
 20
13.7740062907
 10
-4.6967834942
 20
13.7506322517
 10
-4.7314131888
 20
13.7246503259
 10
-4.7656246932
 20
13.6958970315
 10
-4.7992357062
 20
13.6645358502
 10
-4.8316993242
 20
13.6310572278
 10
-4.8629813943
 20
13.5954396878
 10
-4.8931160694
 20
13.5577047068
 10
-4.9216589049
 20
13.5184071597
 10
-4.9485869097
 20
13.477521736
 10
-4.973923075
 20
13.4350737464
 10
-4.9972919297
 20
13.3916939973
 10
-5.0186632814
 20
13.3473680961
 10
-5.0380673225
 20
13.3021104355
 10
-5.0552191596
 20
13.2565950009
 10
-5.0700847668
 20
13.2108011666
 10
-5.08269817
 20
13.1647495584
 10
-5.0928765534
 20
13.1191760385
 10
-5.1005589783
 20
13.0743258944
 10
-5.1058063833
 20
13.0299538386
 10
-5.1086187685
 20
12.9860598712
  0
LWPOLYLINE
  5
341
100
AcDbEntity
  8
RACCORDO
100
AcDbPolyline
 62
253
  6
CONTINUOUS
 90
7
 70
0
 10
5.4558789253
 20
20.1043277995
 10
5.4725632056
 20
20.1139775179
 10
5.4867328366
 20
20.1246784967
 10
5.4981044855
 20
20.1362710063
 10
5.5064477778
 20
20.1485999327
 10
5.511538199
 20
20.1614437849
 10
5.5132288355
 20
20.1744187145
  0
LINE
  5
342
100
AcDbEntity
  8
ASSI
100
AcDbLine
 62
253
  6
CONTINUOUS
 10
-4.9884034604
 20
14.3992835381
 11
-0.751254013
 21
16.6747622704
  0
LINE
  5
343
100
AcDbEntity
  8
ASSI
100
AcDbLine
 62
253
  6
CONTINUOUS
 10
0.565382217
 20
16.582554376
 11
-4.6257226307
 21
13.7947724428
  0
LINE
  5
344
100
AcDbEntity
  8
DRAFT
100
AcDbLine
 62
7
  6
CONTINUOUS
 10
9.978904811
 20
20.1777563348
 11
5.9839718926
 21
18.0589641497
  0
LINE
  5
345
100
AcDbEntity
  8
ASSI
100
AcDbLine
 62
7
  6
CONTINUOUS
 10
9.978904811
 20
20.1777563348
 11
5.9839718926
 21
18.0589641497
  0
LWPOLYLINE
  5
346
100
AcDbEntity
  8
ASSI
100
AcDbPolyline
 62
7
  6
CONTINUOUS
 90
7
 70
0
 10
-0.6906219243
 20
16.6995751561
 10
-0.6997851643
 20
16.6948107412
 10
-0.7093575641
 20
16.6902852034
 10
-0.7193156003
 20
16.686008517
 10
-0.7296347735
 20
16.6819900632
 10
-0.7402896678
 20
16.6782386061
 10
-0.751254013
 20
16.6747622704
  0
LINE
  5
347
100
AcDbEntity
  8
ASSI
100
AcDbLine
 62
253
  6
CONTINUOUS
 10
1.2601464034
 20
16.9272286879
 11
0.565382217
 21
16.5826205296
  0
LINE
  5
348
100
AcDbEntity
  8
DRAFT
100
AcDbLine
 62
7
  6
CONTINUOUS
 10
6.7879218914
 20
17.6569891503
 11
21.4970917228
 21
24.3633409835
  0
LINE
  5
349
100
AcDbEntity
  8
ASSI
100
AcDbLine
 62
7
  6
CONTINUOUS
 10
6.7879218914
 20
17.6569891503
 11
21.4970917228
 21
24.3633409835
  0
LWPOLYLINE
  5
34A
100
AcDbEntity
  8
ASSI
100
AcDbPolyline
 62
253
  6
CONTINUOUS
 90
16
 70
0
 10
-5.1086187685
 20
12.9860598712
 10
-5.1459239376
 20
12.9718643107
 10
-5.1862045127
 20
12.9595646812
 10
-5.2290699366
 20
12.949280239
 10
-5.27410459
 20
12.9411107011
 10
-5.3208718205
 20
12.9351352786
 10
-5.3689181772
 20
12.9314119087
 10
-5.4177778065
 20
12.9299766929
 10
-5.4669769698
 20
12.930843547
 10
-5.5160386361
 20
12.9340040659
 10
-5.5644871076
 20
12.9394276056
 10
-5.6118526321
 20
12.9470615799
 10
-5.6576759575
 20
12.9568319704
 10
-5.7015127847
 20
12.9686440442
 10
-5.7429380755
 20
12.9823832725
 10
-5.7815501739
 20
12.9979164409
  0
LINE
  5
34B
100
AcDbEntity
  8
CURVE
100
AcDbLine
 62
253
  6
CONTINUOUS
 10
3.9335772916
 20
-14.9628059133
 11
3.7333100765
 21
-14.9409848215
  0
LINE
  5
34C
100
AcDbEntity
  8
RACCORDO
100
AcDbLine
 62
7
  6
CONTINUOUS
 10
-17.3732483117
 20
-7.6692327413
 11
-7.6054725933
 21
-12.5531206005
  0
LWPOLYLINE
  5
34D
100
AcDbEntity
  8
ASSI
100
AcDbPolyline
 62
7
  6
CONTINUOUS
 90
5
 70
0
 10
0.7765587706
 20
-22.3519963448
 10
0.7600458246
 20
-22.3334296115
 10
0.7417308116
 20
-22.3169949874
 10
0.7217527345
 20
-22.3027574544
 10
0.7026014969
 20
-22.2919759779
  0
LWPOLYLINE
  5
34E
100
AcDbEntity
  8
ASSI
100
AcDbPolyline
 62
7
  6
CONTINUOUS
 90
4
 70
0
 10
-2.8548017976
 20
-23.0908787786
 10
-2.8729099969
 20
-23.0579697083
 10
-2.8886128219
 20
-23.0240466182
 10
-2.8998879783
 20
-22.9944595742
  0
LINE
  5
34F
100
AcDbEntity
  8
RACCORDO
100
AcDbLine
 62
253
  6
CONTINUOUS
 10
-19.7771202038
 20
15.7511459019
 11
-19.7777853453
 21
15.7529008882
  0
LWPOLYLINE
  5
350
100
AcDbEntity
  8
RACCORDO
100
AcDbPolyline
 62
253
  6
CONTINUOUS
 90
7
 70
0
 10
-19.7803223401
 20
15.7606669009
 10
-19.8028004853
 20
15.8273807384
 10
-19.8248099073
 20
15.9024334214
 10
-19.8437705556
 20
15.9777532192
 10
-19.8595900905
 20
16.0530623843
 10
-19.8721661044
 20
16.1280116008
 10
-19.8814670448
 20
16.2021887766
  0
LWPOLYLINE
  5
351
100
AcDbEntity
  8
ASSI
100
AcDbPolyline
 62
253
  6
CONTINUOUS
 90
7
 70
0
 10
-16.4353496182
 20
25.0403523418
 10
-16.4334435529
 20
25.0266473839
 10
-16.4282304128
 20
25.0139772344
 10
-16.4197898591
 20
25.0017495545
 10
-16.408263125
 20
24.990168946
 10
-16.3938430836
 20
24.9794291836
 10
-16.376771021
 20
24.9697099725
  0
LWPOLYLINE
  5
352
100
AcDbEntity
  8
ASSI
100
AcDbPolyline
 62
253
  6
CONTINUOUS
 90
7
 70
0
 10
-16.4353496567
 20
25.3576610538
 10
-16.4334435577
 20
25.3439162015
 10
-16.4282304212
 20
25.33124605
 10
-16.4197898694
 20
25.3190183669
 10
-16.4082631347
 20
25.3074377547
 10
-16.3938430901
 20
25.2966979882
 10
-16.376771021
 20
25.2869787729
  0
LWPOLYLINE
  5
353
100
AcDbEntity
  8
ASSI
100
AcDbPolyline
 62
7
  6
CONTINUOUS
 90
13
 70
0
 10
-12.3746718787
 20
25.1310689766
 10
-12.3758754956
 20
25.1542816125
 10
-12.3794847256
 20
25.1783028171
 10
-12.385433635
 20
25.2027240306
 10
-12.3936157673
 20
25.2271302978
 10
-12.4038903019
 20
25.2511044402
 10
-12.4160843141
 20
25.2742342272
 10
-12.4299917343
 20
25.2961227519
 10
-12.4453721602
 20
25.316396871
 10
-12.4619590578
 20
25.334710861
 10
-12.4794694784
 20
25.3507510066
 10
-12.4976089823
 20
25.3642408195
 10
-12.5160716958
 20
25.3749475859
  0
LWPOLYLINE
  5
354
100
AcDbEntity
  8
ASSI
100
AcDbPolyline
 62
7
  6
CONTINUOUS
 90
13
 70
0
 10
-11.7603035635
 20
25.4349063537
 10
-11.7603692186
 20
25.4406427081
 10
-11.7622215028
 20
25.4658153069
 10
-11.7666331644
 20
25.4905499481
 10
-11.7735564766
 20
25.5144656061
 10
-11.7828350204
 20
25.5371575883
 10
-11.7943716139
 20
25.5585172556
 10
-11.8080950655
 20
25.5784450908
 10
-11.8238043231
 20
25.5966596603
 10
-11.8412743723
 20
25.6129452322
 10
-11.8603950177
 20
25.6272233393
 10
-11.8808923718
 20
25.63929504
 10
-11.8836708567
 20
25.6407083409
  0
LINE
  5
355
100
AcDbEntity
  8
ASSI
100
AcDbLine
 62
7
  6
CONTINUOUS
 10
-12.3746718787
 20
23.4855943294
 11
-12.3746718787
 21
25.1310689766
  0
LINE
  5
356
100
AcDbEntity
  8
DRAFT
100
AcDbLine
 62
7
  6
CONTINUOUS
 10
-11.8796971319
 20
20.6043805831
 11
-11.8796971319
 21
19.8518873337
  0
LINE
  5
357
100
AcDbEntity
  8
ASSI
100
AcDbLine
 62
253
  6
CONTINUOUS
 10
-11.8164354682
 20
25.3654063118
 11
-11.8164354682
 21
25.025462717
  0
LINE
  5
358
100
AcDbEntity
  8
ASSI
100
AcDbLine
 62
7
  6
CONTINUOUS
 10
-11.76030344
 20
25.4349063537
 11
-11.7603034283
 21
25.0949285541
  0
LINE
  5
359
100
AcDbEntity
  8
ASSI
100
AcDbLine
 62
7
  6
CONTINUOUS
 10
-10.6971145877
 20
23.4992631967
 11
-10.6971145877
 21
22.314658691
  0
LINE
  5
35A
100
AcDbEntity
  8
ASSI
100
AcDbLine
 62
253
  6
CONTINUOUS
 10
-10.6385359439
 20
23.4285525186
 11
-10.6385359439
 21
22.2412797373
  0
LWPOLYLINE
  5
35B
100
AcDbEntity
  8
ASSI
100
AcDbPolyline
 62
253
  6
CONTINUOUS
 90
22
 70
0
 10
-11.8164354682
 20
25.025462717
 10
-11.8164580426
 20
25.0236314485
 10
-11.8165541352
 20
25.0217260961
 10
-11.8167237458
 20
25.0197466597
 10
-11.8169633092
 20
25.0176867691
 10
-11.8172763907
 20
25.0155527946
 10
-11.8176736866
 20
25.013363847
 10
-11.8181571008
 20
25.0111179359
 10
-11.8187247293
 20
25.0088170517
 10
-11.8193815564
 20
25.0064862764
 10
-11.8201297724
 20
25.0041242063
 10
-11.8209671869
 20
25.0017322452
 10
-11.8218922137
 20
24.9993396854
 10
-11.8229070742
 20
24.9969459771
 10
-11.8240095469
 20
24.9945516703
 10
-11.8251913813
 20
24.992187707
 10
-11.8264545646
 20
24.9898545284
 10
-11.8277971096
 20
24.9875516934
 10
-11.8292048042
 20
24.9853088212
 10
-11.8306729108
 20
24.9831357847
 10
-11.8322061671
 20
24.9810227109
 10
-11.8338045729
 20
24.9789695998
  0
LWPOLYLINE
  5
35C
100
AcDbEntity
  8
ASSI
100
AcDbPolyline
 62
253
  6
CONTINUOUS
 90
13
 70
0
 10
-10.6031859897
 20
23.4541722167
 10
-10.602002811
 20
23.4771218099
 10
-10.5984730723
 20
23.5008705759
 10
-10.5926558349
 20
23.5250211344
 10
-10.5846484362
 20
23.5491693818
 10
-10.5745848609
 20
23.5729112533
 10
-10.5626334991
 20
23.5958494833
 10
-10.5489943287
 20
23.6176002534
 10
-10.5338955693
 20
23.6377996143
 10
-10.5175898637
 20
23.6561095756
 10
-10.5003500502
 20
23.6722237618
 10
-10.4824645972
 20
23.6858725384
 10
-10.4642327764
 20
23.6968275241
  0
LWPOLYLINE
  5
35D
100
AcDbEntity
  8
ASSI
100
AcDbPolyline
 62
7
  6
CONTINUOUS
 90
10
 70
0
 10
-4.1368778779
 20
19.8707717911
 10
-4.1229368951
 20
19.9044515816
 10
-4.1124811581
 20
19.9405206163
 10
-4.1055106667
 20
19.9789788952
 10
-4.102025421
 20
20.0202574994
 10
-4.102025421
 20
20.0639253478
 10
-4.1055106667
 20
20.1086891976
 10
-4.1124811581
 20
20.1541179679
 10
-4.1229368951
 20
20.2006427397
 10
-4.1368778779
 20
20.2482635129
  0
LWPOLYLINE
  5
35E
100
AcDbEntity
  8
ASSI
100
AcDbPolyline
 62
7
  6
CONTINUOUS
 90
6
 70
0
 10
-2.9280227808
 20
18.1448058306
 10
-2.9262264834
 20
18.1484858372
 10
-2.9210008577
 20
18.1546776327
 10
-2.9128036483
 20
18.163017961
 10
-2.9018311978
 20
18.1725797536
 10
-2.8882652109
 20
18.1831438125
  0
LWPOLYLINE
  5
35F
100
AcDbEntity
  8
ASSI
100
AcDbPolyline
 62
253
  6
CONTINUOUS
 90
10
 70
0
 10
0.7526961323
 20
18.6857192472
 10
0.7561339883
 20
18.6903498759
 10
0.7592151829
 20
18.6951689404
 10
0.761939716
 20
18.7001764409
 10
0.7643346909
 20
18.7054452006
 10
0.7663730043
 20
18.7109023963
 10
0.7679733466
 20
18.7163295576
 10
0.7691086145
 20
18.7216538609
 10
0.7698059113
 20
18.7269481299
 10
0.7700652369
 20
18.7322123644
  0
LWPOLYLINE
  5
360
100
AcDbEntity
  8
ASSI
100
AcDbPolyline
 62
7
  6
CONTINUOUS
 90
6
 70
0
 10
0.764357022
 20
18.6294436353
 10
0.7722416781
 20
18.6396839646
 10
0.786214207
 20
18.660665936
 10
0.7983929504
 20
18.6831218124
 10
0.8086291043
 20
18.7069304745
 10
0.8165231779
 20
18.7311662944
  0
LINE
  5
361
100
AcDbEntity
  8
ASSI
100
AcDbLine
 62
253
  6
CONTINUOUS
 10
0.2118288264
 20
18.0164317611
 11
0.7526961323
 21
18.6857192472
  0
LINE
  5
362
100
AcDbEntity
  8
ASSI
100
AcDbLine
 62
7
  6
CONTINUOUS
 10
0.2118288303
 20
17.9457271051
 11
0.7643836269
 21
18.6294770873
  0
LWPOLYLINE
  5
363
100
AcDbEntity
  8
RACCORDO
100
AcDbPolyline
 62
253
  6
CONTINUOUS
 90
13
 70
0
 10
-6.9353175273
 20
9.0801209677
 10
-6.8879572035
 20
9.1064409092
 10
-6.8396273153
 20
9.1406297782
 10
-6.7948588379
 20
9.1804353573
 10
-6.7538798871
 20
9.225648928
 10
-6.7169031615
 20
9.2760235895
 10
-6.6841839847
 20
9.3312444666
 10
-6.6558907761
 20
9.3910002108
 10
-6.6321544401
 20
9.4549690014
 10
-6.6131367751
 20
9.522779771
 10
-6.5989431898
 20
9.5940531149
 10
-6.5896209728
 20
9.6684023724
 10
-6.5852073478
 20
9.7454171293
  0
LINE
  5
364
100
AcDbEntity
  8
RACCORDO
100
AcDbLine
 62
7
  6
CONTINUOUS
 10
-6.7984565207
 20
9.0219956406
 11
-6.7990606964
 21
9.0216812344
  0
LINE
  5
365
100
AcDbEntity
  8
RACCORDO
100
AcDbLine
 62
253
  6
CONTINUOUS
 10
-6.5852073478
 20
9.7454171293
 11
-6.4956845074
 21
9.7894040545
  0
LINE
  5
366
100
AcDbEntity
  8
RACCORDO
100
AcDbLine
 62
7
  6
CONTINUOUS
 10
-6.9364246881
 20
9.0795809499
 11
-6.9353175273
 21
9.0801209677
  0
LINE
  5
367
100
AcDbEntity
  8
DRAFT
100
AcDbLine
 62
7
  6
CONTINUOUS
 10
-6.5861054777
 20
9.2499331381
 11
-6.9364283206
 21
9.0795791835
  0
LWPOLYLINE
  5
368
100
AcDbEntity
  8
RACCORDO
100
AcDbPolyline
 62
253
  6
CONTINUOUS
 90
12
 70
0
 10
-6.7990606964
 20
9.0216812344
 10
-6.8278117995
 20
9.0077788324
 10
-6.8776028437
 20
8.9882626269
 10
-6.9294187185
 20
8.9734537008
 10
-6.9830640661
 20
8.9634050399
 10
-7.0382831283
 20
8.9581859307
 10
-7.0948831556
 20
8.9578187178
 10
-7.1526199804
 20
8.962305536
 10
-7.2111493617
 20
8.9716467434
 10
-7.2701971999
 20
8.9857935673
 10
-7.3295639262
 20
9.0046630552
 10
-7.3890100428
 20
9.0281610277
  0
LINE
  5
369
100
AcDbEntity
  8
0
100
AcDbLine
 62
7
  6
CONTINUOUS
 10
1.2910052409
 20
11.8172999666
 11
1.0007560313
 21
11.6795818589
  0
LINE
  5
36A
100
AcDbEntity
  8
CURVE
100
AcDbLine
 62
253
  6
CONTINUOUS
 10
3.2726949211
 20
-14.9279119331
 11
3.3728285286
 21
-15.0006813745
  0
LWPOLYLINE
  5
36B
100
AcDbEntity
  8
RACCORDO
100
AcDbPolyline
 62
253
  6
CONTINUOUS
 90
11
 70
0
 10
-7.5628506168
 20
-14.8711792408
 10
-7.5620119511
 20
-14.8835339268
 10
-7.5574918247
 20
-14.906081561
 10
-7.5491459523
 20
-14.9282780785
 10
-7.5370389009
 20
-14.9499517618
 10
-7.5212643345
 20
-14.9709349409
 10
-7.5019442885
 20
-14.9910652889
 10
-7.4792282272
 20
-15.0101870755
 10
-7.4532918868
 20
-15.0281523733
 10
-7.4243359148
 20
-15.0448222022
 10
-7.392584319
 20
-15.0600676037
  0
LWPOLYLINE
  5
36C
100
AcDbEntity
  8
RACCORDO
100
AcDbPolyline
 62
253
  6
CONTINUOUS
 90
22
 70
0
 10
-7.4978006876
 20
-3.9885576423
 10
-7.4999749704
 20
-3.9229249081
 10
-7.5060026009
 20
-3.8569254202
 10
-7.5158833535
 20
-3.7905590137
 10
-7.5296880104
 20
-3.7236232109
 10
-7.5473439195
 20
-3.6563193986
 10
-7.5686353355
 20
-3.5892530062
 10
-7.5936744123
 20
-3.5221955408
 10
-7.6223451134
 20
-3.4553733181
 10
-7.6540899407
 20
-3.3900742565
 10
-7.6888056764
 20
-3.3265500134
 10
-7.7265913448
 20
-3.2645465882
 10
-7.7671935724
 20
-3.2045938172
 10
-7.8104935236
 20
-3.1466919281
 10
-7.8566047956
 20
-3.0908378162
 10
-7.9056226329
 20
-3.0375563066
 10
-7.9579967643
 20
-2.986424662
 10
-8.0132697419
 20
-2.937861443
 10
-8.0701778261
 20
-2.8936543884
 10
-8.1282993217
 20
-2.8543991792
 10
-8.1880520395
 20
-2.8194980748
 10
-8.2494334231
 20
-2.7889497303
  0
LWPOLYLINE
  5
36D
100
AcDbEntity
  8
ASSI
100
AcDbPolyline
 62
253
  6
CONTINUOUS
 90
28
 70
0
 10
-8.3478875468
 20
22.2832283201
 10
-8.3479241672
 20
22.2854642426
 10
-8.3480676765
 20
22.2877815767
 10
-8.3483180748
 20
22.2901803223
 10
-8.3486723058
 20
22.2926722458
 10
-8.3491334257
 20
22.2952455808
 10
-8.3497106036
 20
22.2978650282
 10
-8.35040769
 20
22.3005330232
 10
-8.3512208344
 20
22.3032471306
 10
-8.3521476547
 20
22.3059647459
 10
-8.3531915757
 20
22.3086858513
 10
-8.3543491726
 20
22.3114104646
 10
-8.3556077887
 20
22.3140960346
 10
-8.3569689396
 20
22.3167397323
 10
-8.3584311098
 20
22.3193443866
 10
-8.359977096
 20
22.3218759329
 10
-8.3616072859
 20
22.3243318108
 10
-8.3633212918
 20
22.3267145806
 10
-8.3651007472
 20
22.3289978587
 10
-8.3669465127
 20
22.331180568
 10
-8.3688577276
 20
22.3332637856
 10
-8.3708134434
 20
22.335224359
 10
-8.3728141904
 20
22.337060793
 10
-8.3748594381
 20
22.3387745829
 10
-8.376926647
 20
22.3403470625
 10
-8.3790083039
 20
22.3417720095
 10
-8.3811119219
 20
22.3430556461
 10
-8.3832375011
 20
22.3441979724
  0
LWPOLYLINE
  5
36E
100
AcDbEntity
  8
RACCORDO
100
AcDbPolyline
 62
253
  6
CONTINUOUS
 90
64
 70
0
 10
-7.3925848053
 20
-15.0600678994
 10
-7.392092234
 20
-15.1018035362
 10
-7.3923559754
 20
-15.1429615737
 10
-7.3933597496
 20
-15.183535967
 10
-7.3950877108
 20
-15.223599404
 10
-7.397532144
 20
-15.263064826
 10
-7.4006789226
 20
-15.3016876159
 10
-7.404508281
 20
-15.3394523268
 10
-7.4090010289
 20
-15.3763695593
 10
-7.4141232355
 20
-15.4122392779
 10
-7.4198489195
 20
-15.4470406486
 10
-7.4261552676
 20
-15.4807977578
 10
-7.43299719
 20
-15.5133816007
 10
-7.440345602
 20
-15.544775973
 10
-7.4481756392
 20
-15.5750063659
 10
-7.4564383124
 20
-15.6040070991
 10
-7.4651038281
 20
-15.6317690206
 10
-7.4741459357
 20
-15.6583148606
 10
-7.4835153026
 20
-15.6836249473
 10
-7.4931787567
 20
-15.7076883665
 10
-7.503111919
 20
-15.7305337513
 10
-7.5132777551
 20
-15.7521956438
 10
-7.5236458685
 20
-15.77267163
 10
-7.5341909571
 20
-15.7919834359
 10
-7.5448872777
 20
-15.810193011
 10
-7.5557059132
 20
-15.8273011011
 10
-7.5666223975
 20
-15.8433273419
 10
-7.5776242907
 20
-15.85835017
 10
-7.5886862311
 20
-15.8723747322
 10
-7.5997831449
 20
-15.8854165578
 10
-7.6109113547
 20
-15.8975554581
 10
-7.6220456872
 20
-15.9087970767
 10
-7.6331628169
 20
-15.9191577068
 10
-7.6442710018
 20
-15.9287170636
 10
-7.6553442125
 20
-15.9374805245
 10
-7.6663620154
 20
-15.9454659375
 10
-7.6773516038
 20
-15.952752735
 10
-7.6882921311
 20
-15.9593480473
 10
-7.6991622882
 20
-15.965266146
 10
-7.709999891
 20
-15.970575533
 10
-7.7208021525
 20
-15.9752894459
 10
-7.7315352338
 20
-15.9794111987
 10
-7.7421966276
 20
-15.9829788522
 10
-7.752779952
 20
-15.9860119131
 10
-7.763250887
 20
-15.9885184957
 10
-7.773561677
 20
-15.9905200384
 10
-7.7836653142
 20
-15.9920464952
 10
-7.7935562867
 20
-15.9931296607
 10
-7.8032453401
 20
-15.9937958154
 10
-7.8126815229
 20
-15.9940805709
 10
-7.8218661385
 20
-15.9940236737
 10
-7.8308931622
 20
-15.993640171
 10
-7.8397435112
 20
-15.9929541388
 10
-7.8484014452
 20
-15.9919976196
 10
-7.8569745908
 20
-15.9907673278
 10
-7.8654612023
 20
-15.9892730592
 10
-7.8738402423
 20
-15.9875364031
 10
-7.8821968645
 20
-15.9855443958
 10
-7.8905402993
 20
-15.9832964338
 10
-7.8988448009
 20
-15.9808055414
 10
-7.9071460337
 20
-15.9780632661
 10
-7.9154510963
 20
-15.9750685761
 10
-7.923737651
 20
-15.9718311739
 10
-7.9319979597
 20
-15.968356702
  0
LWPOLYLINE
  5
36F
100
AcDbEntity
  8
RACCORDO
100
AcDbPolyline
 62
7
  6
CONTINUOUS
 90
10
 70
0
 10
-7.5628507224
 20
-14.871179243
 10
-7.5624675832
 20
-14.917020082
 10
-7.5640239647
 20
-14.9837444073
 10
-7.5679020581
 20
-15.0457332412
 10
-7.57382167
 20
-15.1030605892
 10
-7.5814822852
 20
-15.155449734
 10
-7.5904700698
 20
-15.2022381164
 10
-7.6003491122
 20
-15.2431364743
 10
-7.6107407034
 20
-15.2782567769
 10
-7.6200810767
 20
-15.304655853
  0
LINE
  5
370
100
AcDbEntity
  8
ASSI
100
AcDbLine
 62
253
  6
CONTINUOUS
 10
-8.3478875468
 20
21.0959555387
 11
-8.3478875468
 21
22.2832283201
  0
LINE
  5
371
100
AcDbEntity
  8
ASSI
100
AcDbLine
 62
253
  6
CONTINUOUS
 10
-8.0675345165
 20
21.1036511099
 11
-8.0675345165
 21
22.2820050182
  0
LINE
  5
372
100
AcDbEntity
  8
ASSI
100
AcDbLine
 62
7
  6
CONTINUOUS
 10
-7.8491884791
 20
21.2228526296
 11
-7.8491884791
 21
22.3920198997
  0
LWPOLYLINE
  5
373
100
AcDbEntity
  8
RACCORDO
100
AcDbPolyline
 62
7
  6
CONTINUOUS
 90
10
 70
0
 10
-7.6700005728
 20
-3.7998583973
 10
-7.6701398161
 20
-4.9881680258
 10
-7.6672935488
 20
-6.2387232414
 10
-7.6613764198
 20
-7.487428124
 10
-7.652389121
 20
-8.7342681362
 10
-7.6403322105
 20
-9.9792301507
 10
-7.6252059997
 20
-11.2223031393
 10
-7.6070107755
 20
-12.4634756942
 10
-7.5857467935
 20
-13.702735696
 10
-7.5628526422
 20
-14.871083432
  0
LWPOLYLINE
  5
374
100
AcDbEntity
  8
RACCORDO
100
AcDbPolyline
 62
253
  6
CONTINUOUS
 90
10
 70
0
 10
-7.4978006872
 20
-3.9885574023
 10
-7.4978846541
 20
-5.2261084143
 10
-7.4950237919
 20
-6.4618697757
 10
-7.4892185361
 20
-7.695827587
 10
-7.4804690705
 20
-8.9280019768
 10
-7.468775724
 20
-10.1583457486
 10
-7.4541397007
 20
-11.3867454971
 10
-7.4365621995
 20
-12.6131563008
 10
-7.4160435738
 20
-13.8376009491
 10
-7.392584319
 20
-15.0600676037
  0
LWPOLYLINE
  5
375
100
AcDbEntity
  8
ASSI
100
AcDbPolyline
 62
253
  6
CONTINUOUS
 90
13
 70
0
 10
-8.3832375011
 20
22.3441979724
 10
-8.3820543213
 20
22.3671475767
 10
-8.3785245796
 20
22.3908963523
 10
-8.3727073382
 20
22.4150469182
 10
-8.3646999351
 20
22.4391951705
 10
-8.3546363557
 20
22.462937044
 10
-8.3426849907
 20
22.4858752733
 10
-8.3290458187
 20
22.5076260402
 10
-8.3139470596
 20
22.5278253958
 10
-8.2976413564
 20
22.5461353505
 10
-8.2804015472
 20
22.5622495296
 10
-8.2625161005
 20
22.5758982996
 10
-8.2442842878
 20
22.5868532798
  0
LWPOLYLINE
  5
376
100
AcDbEntity
  8
ASSI
100
AcDbPolyline
 62
253
  6
CONTINUOUS
 90
13
 70
0
 10
-6.8908753884
 20
21.5980169161
 10
-6.8896922098
 20
21.6209665093
 10
-6.8861624711
 20
21.6447152753
 10
-6.8803452337
 20
21.6688658338
 10
-6.8723378349
 20
21.6930140812
 10
-6.8622742596
 20
21.7167559526
 10
-6.8503228979
 20
21.7396941826
 10
-6.8366837274
 20
21.7614449528
 10
-6.8215849681
 20
21.7816443137
 10
-6.8052792625
 20
21.799954275
 10
-6.788039449
 20
21.8160684611
 10
-6.770153996
 20
21.8297172378
 10
-6.7519221752
 20
21.8406722235
  0
LWPOLYLINE
  5
377
100
AcDbEntity
  8
RACCORDO
100
AcDbPolyline
 62
253
  6
CONTINUOUS
 90
22
 70
0
 10
-6.7373123918
 20
13.417628688
 10
-6.7325818322
 20
13.4926572713
 10
-6.7237206883
 20
13.5691782875
 10
-6.7107700487
 20
13.6468139381
 10
-6.6937846631
 20
13.7251721255
 10
-6.6728490529
 20
13.8038736806
 10
-6.6480745163
 20
13.8825544433
 10
-6.6195682738
 20
13.960828904
 10
-6.5874649868
 20
14.0383036591
 10
-6.5519408564
 20
14.1146048153
 10
-6.5131561534
 20
14.1893501119
 10
-6.4712914275
 20
14.2621678754
 10
-6.4265760645
 20
14.332710517
 10
-6.3792122684
 20
14.4006245011
 10
-6.3294215263
 20
14.4655674566
 10
-6.2774809601
 20
14.5272275288
 10
-6.22363196
 20
14.5852895802
 10
-6.1681222176
 20
14.6394639991
 10
-6.1112515327
 20
14.6895024236
 10
-6.0532970135
 20
14.7351572508
 10
-5.9945123663
 20
14.7761843638
 10
-5.9351697666
 20
14.812371187
  0
LWPOLYLINE
  5
378
100
AcDbEntity
  8
RACCORDO
100
AcDbPolyline
 62
253
  6
CONTINUOUS
 90
13
 70
0
 10
-7.5203051478
 20
8.7866331058
 10
-7.518670821
 20
8.8095032117
 10
-7.5149160186
 20
8.8331193471
 10
-7.5091015533
 20
8.8570990273
 10
-7.5013215954
 20
8.8810538793
 10
-7.4917021486
 20
8.9045959324
 10
-7.4803990087
 20
8.9273439013
 10
-7.4675952403
 20
8.948929362
 10
-7.4534982122
 20
8.969002718
 10
-7.4383362387
 20
8.987238863
 10
-7.4223548818
 20
9.003342446
 10
-7.4058129744
 20
9.0170526546
 10
-7.3889784276
 20
9.0281474394
  0
LWPOLYLINE
  5
379
100
AcDbEntity
  8
ASSI
100
AcDbPolyline
 62
253
  6
CONTINUOUS
 90
12
 70
0
 10
-1.4274297285
 20
17.614170209
 10
-1.4379414946
 20
17.590799288
 10
-1.4506262497
 20
17.5690410181
 10
-1.4652693555
 20
17.5492635701
 10
-1.4816230366
 20
17.5318015977
 10
-1.4994105728
 20
17.5169505742
 10
-1.5183309818
 20
17.5049617933
 10
-1.5380641123
 20
17.4960381167
 10
-1.5582760603
 20
17.4903305418
 10
-1.5786248196
 20
17.487935646
 10
-1.5987660693
 20
17.4888939532
 10
-1.6078641812
 20
17.4904577749
  0
LWPOLYLINE
  5
37A
100
AcDbEntity
  8
RACCORDO
100
AcDbPolyline
 62
7
  6
CONTINUOUS
 90
5
 70
0
 10
5.4781145751
 20
20.0612255676
 10
5.4655973986
 20
20.0448663389
 10
5.4513150582
 20
20.0297392101
 10
5.4354627527
 20
20.0161189557
 10
5.4182351417
 20
20.0042021707
  0
LINE
  5
37B
100
AcDbEntity
  8
CURVE
100
AcDbLine
 62
253
  6
CONTINUOUS
 10
1.9609432425
 20
11.0163875842
 11
2.0911170547
 21
11.0826205011
  0
LINE
  5
37C
100
AcDbEntity
  8
CURVE
100
AcDbLine
 62
253
  6
CONTINUOUS
 10
2.6552036219
 20
10.4314360021
 11
2.6335079865
 21
10.4203971826
  0
LINE
  5
37D
100
AcDbEntity
  8
CURVE
100
AcDbLine
 62
253
  6
CONTINUOUS
 10
2.6335079865
 20
10.3131748619
 11
2.6552036219
 21
10.3242136814
  0
LINE
  5
37E
100
AcDbEntity
  8
CURVE
100
AcDbLine
 62
253
  6
CONTINUOUS
 10
1.9609432425
 20
9.4884717963
 11
2.0911170547
 21
9.5547047131
  0
LINE
  5
37F
100
AcDbEntity
  8
DRAFT
100
AcDbLine
 62
7
  6
CONTINUOUS
 10
24.4009071424
 20
22.9114332737
 11
1.0007560313
 21
11.257656921
  0
LINE
  5
380
100
AcDbEntity
  8
ASSI
100
AcDbLine
 62
7
  6
CONTINUOUS
 10
24.4009071424
 20
22.9114332737
 11
1.0007560313
 21
11.257656921
  0
LWPOLYLINE
  5
381
100
AcDbEntity
  8
RACCORDO
100
AcDbPolyline
 62
253
  6
CONTINUOUS
 90
16
 70
0
 10
-18.9385781051
 20
2.0652865709
 10
-18.979737994
 20
2.0487176693
 10
-19.0241867722
 20
2.0344170406
 10
-19.0714261971
 20
2.0225449859
 10
-19.1209267444
 20
2.0132345833
 10
-19.1721335444
 20
2.0065901965
 10
-19.2244726012
 20
2.0026863052
 10
-19.2773572269
 20
2.0015666693
 10
-19.3301946185
 20
2.0032438393
 10
-19.3823925019
 20
2.0076990152
 10
-19.4333657721
 20
2.0148822573
 10
-19.4825430507
 20
2.024713046
 10
-19.5293730918
 20
2.0370811844
 10
-19.5733309599
 20
2.0518480333
 10
-19.6139239153
 20
2.0688480659
 10
-19.6506969365
 20
2.0878907224
  0
LINE
  5
382
100
AcDbEntity
  8
RACCORDO
100
AcDbLine
 62
253
  6
CONTINUOUS
 10
-18.6341048149
 20
2.1837912905
 11
-18.9385781051
 21
2.0652865701
  0
LWPOLYLINE
  5
383
100
AcDbEntity
  8
RACCORDO
100
AcDbPolyline
 62
253
  6
CONTINUOUS
 90
10
 70
0
 10
-18.8591997431
 20
2.3087254685
 10
-18.8722775211
 20
2.3167240131
 10
-18.8984810239
 20
2.3371626808
 10
-18.9217571087
 20
2.3617945923
 10
-18.9418661532
 20
2.3903662381
 10
-18.9586011269
 20
2.4225835435
 10
-18.9717897342
 20
2.4581149142
 10
-18.9812961774
 20
2.496594632
 10
-18.9870225581
 20
2.5376266154
 10
-18.9889098899
 20
2.5807885063
  0
LINE
  5
384
100
AcDbEntity
  8
CURVE
100
AcDbLine
 62
253
  6
CONTINUOUS
 10
3.7333100765
 20
-14.9409848215
 11
3.5831093147
 21
-14.8318304047
  0
LINE
  5
385
100
AcDbEntity
  8
CURVE
100
AcDbLine
 62
253
  6
CONTINUOUS
 10
4.183911661
 20
-14.4024221589
 11
4.2840452685
 21
-14.4751916004
  0
LWPOLYLINE
  5
386
100
AcDbEntity
  8
RACCORDO
100
AcDbPolyline
 62
253
  6
CONTINUOUS
 90
9
 70
0
 10
-7.6700005728
 20
-3.7998583974
 10
-7.6667356155
 20
-3.8284836505
 10
-7.6579201852
 20
-3.8545354344
 10
-7.6436354142
 20
-3.8799815879
 10
-7.6240413711
 20
-3.9045368614
 10
-7.5993576328
 20
-3.9279259976
 10
-7.5698608347
 20
-3.9498868001
 10
-7.5358815766
 20
-3.9701730735
 10
-7.4978007105
 20
-3.9885573919
  0
LWPOLYLINE
  5
387
100
AcDbEntity
  8
ASSI
100
AcDbPolyline
 62
253
  6
CONTINUOUS
 90
22
 70
0
 10
-5.1086187779
 20
-23.137289287
 10
-5.105806397
 20
-23.1785144027
 10
-5.1005589952
 20
-23.2179068586
 10
-5.0928765724
 20
-23.2554666548
 10
-5.0826981897
 20
-23.2913812498
 10
-5.0700847861
 20
-23.325463185
 10
-5.0552191784
 20
-23.3571500844
 10
-5.0380673413
 20
-23.3863890334
 10
-5.0186633002
 20
-23.4132329465
 10
-4.9972919485
 20
-23.4372781923
 10
-4.9739230938
 20
-23.4584817263
 10
-4.9485869285
 20
-23.476886593
 10
-4.9216589236
 20
-23.4922182942
 10
-4.8931160879
 20
-23.5044297017
 10
-4.8629814127
 20
-23.5135679439
 10
-4.8316993425
 20
-23.5194999077
 10
-4.7992357243
 20
-23.522171707
 10
-4.7656247112
 20
-23.5216372281
 10
-4.7314132066
 20
-23.5179250171
 10
-4.6967835117
 20
-23.5110445897
 10
-4.6615533254
 20
-23.5009864302
 10
-4.6257226477
 20
-23.4877505388
  0
LWPOLYLINE
  5
388
100
AcDbEntity
  8
ASSI
100
AcDbPolyline
 62
253
  6
CONTINUOUS
 90
14
 70
0
 10
-5.7815501916
 20
-23.1625715487
 10
-5.7770432983
 20
-23.2329330238
 10
-5.7684336223
 20
-23.3006011203
 10
-5.7557614828
 20
-23.3652442558
 10
-5.7390810546
 20
-23.4265450256
 10
-5.7184757258
 20
-23.4842063245
 10
-5.6940551501
 20
-23.5379501157
 10
-5.665925575
 20
-23.5875179835
 10
-5.6342207309
 20
-23.6326620701
 10
-5.5991151546
 20
-23.6731491307
 10
-5.5607680984
 20
-23.7087832182
 10
-5.51935883
 20
-23.7393907196
 10
-5.4751145803
 20
-23.7648081643
 10
-5.4568340857
 20
-23.7734203845
  0
LWPOLYLINE
  5
389
100
AcDbEntity
  8
ASSI
100
AcDbPolyline
 62
7
  6
CONTINUOUS
 90
16
 70
0
 10
-7.8491884791
 20
22.3920198997
 10
-7.8501376548
 20
22.4149667068
 10
-7.8530070006
 20
22.4387151567
 10
-7.8577852611
 20
22.4630156774
 10
-7.8644668966
 20
22.4876994002
 10
-7.8729837651
 20
22.51240248
 10
-7.8831415239
 20
22.5365762662
 10
-7.894688983
 20
22.5597667214
 10
-7.9075489385
 20
22.5819468639
 10
-7.9217697439
 20
22.6032000906
 10
-7.9373609488
 20
22.6234366974
 10
-7.9540540886
 20
22.6422144502
 10
-7.9714800623
 20
22.6591102026
 10
-7.9893699268
 20
22.6739064143
 10
-8.0075888422
 20
22.6865298348
 10
-8.0259382505
 20
22.6968681613
  0
LWPOLYLINE
  5
38A
100
AcDbEntity
  8
ASSI
100
AcDbPolyline
 62
253
  6
CONTINUOUS
 90
28
 70
0
 10
-8.0675345165
 20
22.2820050182
 10
-8.0678880785
 20
22.2930826545
 10
-8.0687161456
 20
22.3046148697
 10
-8.0700467248
 20
22.3165832581
 10
-8.0719108724
 20
22.3289904741
 10
-8.0743321138
 20
22.34178399
 10
-8.0773157931
 20
22.3548536306
 10
-8.0808746485
 20
22.3681615049
 10
-8.0850188112
 20
22.3816652454
 10
-8.0897277631
 20
22.395240611
 10
-8.0949960966
 20
22.4088360926
 10
-8.1008186686
 20
22.422406304
 10
-8.1071551065
 20
22.4358357406
 10
-8.1139810243
 20
22.4490638112
 10
-8.1212813644
 20
22.4620533626
 10
-8.1290165125
 20
22.4747282147
 10
-8.1371543193
 20
22.48703464
 10
-8.1456712714
 20
22.4989362606
 10
-8.1545352643
 20
22.5103869084
 10
-8.1637153166
 20
22.521345382
 10
-8.1731786343
 20
22.5317715047
 10
-8.1828880907
 20
22.5416240651
 10
-8.1928089628
 20
22.5508676124
 10
-8.2029058226
 20
22.5594690034
 10
-8.2131389391
 20
22.5673949586
 10
-8.2234704333
 20
22.5746169552
 10
-8.2338645795
 20
22.5811106007
 10
-8.2442842878
 20
22.5868532798
  0
LWPOLYLINE
  5
38B
100
AcDbEntity
  8
DRAFT
100
AcDbPolyline
 62
7
  6
CONTINUOUS
 90
16
 70
0
 10
-6.9630377737
 20
3.8573832921
 10
-6.9644685674
 20
3.9045434396
 10
-6.9698106551
 20
3.9519378193
 10
-6.9790633689
 20
3.9995668104
 10
-6.9923831477
 20
4.047915428
 10
-7.009610864
 20
4.0965001425
 10
-7.0302725454
 20
4.1438685142
 10
-7.0545500984
 20
4.1900941513
 10
-7.0822580907
 20
4.2351054299
 10
-7.1123729334
 20
4.2772313492
 10
-7.1449045036
 20
4.3162716865
 10
-7.1798404065
 20
4.3524281217
 10
-7.2161257753
 20
4.3846313734
 10
-7.2534091528
 20
4.4125249502
 10
-7.2920411421
 20
4.436465872
 10
-7.3320209657
 20
4.4564545794
  0
LWPOLYLINE
  5
38C
100
AcDbEntity
  8
DRAFT
100
AcDbPolyline
 62
7
  6
CONTINUOUS
 90
16
 70
0
 10
-6.8198913636
 20
3.9277183686
 10
-6.8213274596
 20
3.9750434577
 10
-6.8266889953
 20
4.0226035318
 10
-6.835975308
 20
4.070398971
 10
-6.8493434057
 20
4.1189165179
 10
-6.8666335881
 20
4.1676709286
 10
-6.8873701736
 20
4.215204607
 10
-6.9117357441
 20
4.2615914256
 10
-6.9395441754
 20
4.3067595268
 10
-6.9697681258
 20
4.3490320038
 10
-7.0024175076
 20
4.3882078998
 10
-7.0374798701
 20
4.4244896625
 10
-7.0738964699
 20
4.456804348
 10
-7.1113145544
 20
4.4847942494
 10
-7.1500860029
 20
4.5088176259
 10
-7.1902100237
 20
4.5288749314
  0
LWPOLYLINE
  5
38D
100
AcDbEntity
  8
RACCORDO
100
AcDbPolyline
 62
253
  6
CONTINUOUS
 90
9
 70
0
 10
-7.6297325143
 20
9.2050540525
 10
-7.6291839809
 20
9.1823508518
 10
-7.6262966961
 20
9.1612632014
 10
-7.6211217215
 20
9.1421640375
 10
-7.6137505768
 20
9.1253911299
 10
-7.6043136212
 20
9.1112411085
 10
-7.5929777476
 20
9.099964217
 10
-7.5799434315
 20
9.091759888
 10
-7.5782566539
 20
9.0909807822
  0
LWPOLYLINE
  5
38E
100
AcDbEntity
  8
DRAFT
100
AcDbPolyline
 62
7
  6
CONTINUOUS
 90
10
 70
0
 10
-6.8854997959
 20
-17.0616618787
 10
-6.9382301533
 20
-14.7599664509
 10
-6.9799339363
 20
-12.4524327963
 10
-7.0106089962
 20
-10.1391390488
 10
-7.0302542801
 20
-7.8201723711
 10
-7.038870071
 20
-5.4956037504
 10
-7.0364564831
 20
-3.1654872041
 10
-7.0230132907
 20
-0.8298934632
 10
-6.9985403282
 20
1.5110898247
 10
-6.9630377737
 20
3.8573832921
  0
LWPOLYLINE
  5
38F
100
AcDbEntity
  8
DRAFT
100
AcDbPolyline
 62
7
  6
CONTINUOUS
 90
7
 70
0
 10
-6.7423621663
 20
-16.9913318044
 10
-6.7950851695
 20
-14.6897139157
 10
-6.8367833331
 20
-12.3822290962
 10
-6.867454441
 20
-10.0689554208
 10
-6.8870974824
 20
-7.7499678863
 10
-6.8957125474
 20
-5.4253496962
 10
-6.8932996349
 20
-3.0951915553
  0
LINE
  5
390
100
AcDbEntity
  8
DRAFT
100
AcDbLine
 62
7
  6
CONTINUOUS
 10
-6.7082236187
 20
-14.8595579475
 11
-6.6560571016
 21
-17.1615479288
  0
LWPOLYLINE
  5
391
100
AcDbEntity
  8
ASSI
100
AcDbPolyline
 62
253
  6
CONTINUOUS
 90
4
 70
0
 10
-6.0210480281
 20
-14.2439996001
 10
-5.9589369572
 20
-17.2265245883
 10
-5.8791005681
 20
-20.1994317715
 10
-5.7815501906
 20
-23.1625715436
  0
LINE
  5
392
100
AcDbEntity
  8
ASSI
100
AcDbLine
 62
7
  6
CONTINUOUS
 10
-7.1544242927
 20
22.736628058
 11
-7.1544242927
 21
21.5810658166
  0
LINE
  5
393
100
AcDbEntity
  8
ASSI
100
AcDbLine
 62
7
  6
CONTINUOUS
 10
-6.9848039865
 20
21.6431078961
 11
-6.9848039865
 21
20.4585033904
  0
LINE
  5
394
100
AcDbEntity
  8
ASSI
100
AcDbLine
 62
253
  6
CONTINUOUS
 10
-6.9262253427
 20
21.572397218
 11
-6.9262253427
 21
20.3851244367
  0
LINE
  5
395
100
AcDbEntity
  8
ASSI
100
AcDbLine
 62
7
  6
CONTINUOUS
 10
-5.7324803109
 20
25.4100633554
 11
-5.7324803109
 21
24.2383224523
  0
LINE
  5
396
100
AcDbEntity
  8
ASSI
100
AcDbLine
 62
253
  6
CONTINUOUS
 10
-5.8406514837
 20
25.2775413719
 11
-5.8407226128
 21
24.1083388212
  0
LWPOLYLINE
  5
397
100
AcDbEntity
  8
DRAFT
100
AcDbPolyline
 62
7
  6
CONTINUOUS
 90
3
 70
0
 10
-6.8932996349
 20
-3.0951915553
 10
-6.8798586649
 20
-0.7595765707
 10
-6.8553892996
 20
1.5814198323
  0
LWPOLYLINE
  5
398
100
AcDbEntity
  8
ASSI
100
AcDbPolyline
 62
253
  6
CONTINUOUS
 90
7
 70
0
 10
-6.0210487398
 20
3.8425312947
 10
-6.0654251072
 20
0.8065853038
 10
-6.0920554432
 20
-2.221129776
 10
-6.1009325945
 20
-5.2402245502
 10
-6.0920551308
 20
-8.2505433293
 10
-6.0654245404
 20
-11.251930017
 10
-6.0210480281
 20
-14.2439996001
  0
LWPOLYLINE
  5
399
100
AcDbEntity
  8
DRAFT
100
AcDbPolyline
 62
7
  6
CONTINUOUS
 90
9
 70
0
 10
-6.7327656653
 20
3.7579118617
 10
-6.7678885858
 20
1.4118058232
 10
-6.7920998675
 20
-0.9290444922
 10
-6.8053993386
 20
-3.2645614687
 10
-6.8077871616
 20
-5.5946594193
 10
-6.799263552
 20
-7.9192691437
 10
-6.7798283924
 20
-10.2383377333
 10
-6.7494814078
 20
-12.5517957408
 10
-6.7082236187
 20
-14.8595579475
  0
LINE
  5
39A
100
AcDbEntity
  8
DRAFT
100
AcDbLine
 62
7
  6
CONTINUOUS
 10
-6.8553892996
 20
1.5814198323
 11
-6.8198913636
 21
3.9277183686
  0
LWPOLYLINE
  5
39B
100
AcDbEntity
  8
DRAFT
100
AcDbPolyline
 62
7
  6
CONTINUOUS
 90
11
 70
0
 10
-6.6560571016
 20
-17.1615479288
 10
-6.6569557538
 20
-17.220777193
 10
-6.6623157269
 20
-17.2767876103
 10
-6.6721357794
 20
-17.329578525
 10
-6.6865491011
 20
-17.3795107647
 10
-6.7054183807
 20
-17.4262212774
 10
-6.7283367534
 20
-17.4686236406
 10
-6.7554031619
 20
-17.5066210343
 10
-6.7865137835
 20
-17.5403075849
 10
-6.8209591028
 20
-17.5688840844
 10
-6.8619169236
 20
-17.5938271443
  0
LINE
  5
39C
100
AcDbEntity
  8
ASSI
100
AcDbLine
 62
253
  6
CONTINUOUS
 10
-5.9589376566
 20
6.8864702983
 11
-6.0210487398
 21
3.8425312947
  0
LINE
  5
39D
100
AcDbEntity
  8
ASSI
100
AcDbLine
 62
253
  6
CONTINUOUS
 10
-5.8791010466
 20
9.9383189531
 11
-5.9589376566
 21
6.8864702983
  0
LINE
  5
39E
100
AcDbEntity
  8
RACCORDO
100
AcDbLine
 62
253
  6
CONTINUOUS
 10
-6.4081719553
 20
10.3706595366
 11
-6.431627747
 21
9.5544140333
  0
LINE
  5
39F
100
AcDbEntity
  8
RACCORDO
100
AcDbLine
 62
253
  6
CONTINUOUS
 10
-6.8572824457
 20
9.7478924323
 11
-6.8329219504
 21
10.5623537571
  0
LINE
  5
3A0
100
AcDbEntity
  8
RACCORDO
100
AcDbLine
 62
253
  6
CONTINUOUS
 10
-6.5852073478
 20
9.7454171293
 11
-6.5606794573
 21
10.559449122
  0
LINE
  5
3A1
100
AcDbEntity
  8
RACCORDO
100
AcDbLine
 62
253
  6
CONTINUOUS
 10
-6.3834480357
 20
11.1874470133
 11
-6.4081719553
 21
10.3706595366
  0
LINE
  5
3A2
100
AcDbEntity
  8
RACCORDO
100
AcDbLine
 62
253
  6
CONTINUOUS
 10
-6.8329219504
 20
10.5623537571
 11
-6.8072473934
 21
11.3774083237
  0
LINE
  5
3A3
100
AcDbEntity
  8
ASSI
100
AcDbLine
 62
253
  6
CONTINUOUS
 10
-5.7815501896
 20
12.9979163447
 11
-5.8791010466
 21
9.9383189531
  0
LINE
  5
3A4
100
AcDbEntity
  8
RACCORDO
100
AcDbLine
 62
253
  6
CONTINUOUS
 10
-6.5606794573
 20
10.559449122
 11
-6.5348286956
 21
11.3740686044
  0
LINE
  5
3A5
100
AcDbEntity
  8
RACCORDO
100
AcDbLine
 62
253
  6
CONTINUOUS
 10
-6.3574561438
 20
12.0047740826
 11
-6.3834480357
 21
11.1874470133
  0
LWPOLYLINE
  5
3A6
100
AcDbEntity
  8
ASSI
100
AcDbPolyline
 62
253
  6
CONTINUOUS
 90
13
 70
0
 10
-5.1086187685
 20
12.9860598712
 10
-5.2082192458
 20
9.9302710437
 10
-5.2897162818
 20
6.8823709171
 10
-5.3531098764
 20
3.8423594912
 10
-5.3984070605
 20
0.8099991987
 10
-5.4256008031
 20
-2.2144723929
 10
-5.4346700119
 20
-5.2303425814
 10
-5.4256005853
 20
-8.237604153
 10
-5.3984066249
 20
-11.2362643214
 10
-5.3531093427
 20
-14.2256320251
 10
-5.2897158095
 20
-17.2054769104
 10
-5.2082189546
 20
-20.176029331
 10
-5.1086187779
 20
-23.137289287
  0
LWPOLYLINE
  5
3A7
100
AcDbEntity
  8
RACCORDO
100
AcDbPolyline
 62
7
  6
CONTINUOUS
 90
7
 70
0
 10
-6.4105348506
 20
12.5287981
 10
-6.4246435437
 20
12.1048730433
 10
-6.4384086819
 20
11.6810928887
 10
-6.4518302421
 20
11.2574580567
 10
-6.4649082014
 20
10.8339689358
 10
-6.4776425362
 20
10.4106259461
 10
-6.5002536921
 20
9.6292962682
  0
LINE
  5
3A8
100
AcDbEntity
  8
RACCORDO
100
AcDbLine
 62
253
  6
CONTINUOUS
 10
-6.8072473934
 20
11.3774083237
 11
-6.7802588621
 21
12.1930537014
  0
LWPOLYLINE
  5
3A9
100
AcDbEntity
  8
RACCORDO
100
AcDbPolyline
 62
7
  6
CONTINUOUS
 90
13
 70
0
 10
-6.5002639924
 20
9.6291977583
 10
-6.5006769004
 20
9.6168612601
 10
-6.506433255
 20
9.5376854462
 10
-6.5175864909
 20
9.4611155405
 10
-6.5342233647
 20
9.3878189243
 10
-6.5562732035
 20
9.3186748441
 10
-6.5834319263
 20
9.2547907707
 10
-6.615341438
 20
9.1968136989
 10
-6.6516935019
 20
9.1450754063
 10
-6.6921189138
 20
9.0999374106
 10
-6.7361289815
 20
9.0616538165
 10
-6.783619939
 20
9.0301152655
 10
-6.7984285244
 20
9.0220161171
  0
LINE
  5
3AA
100
AcDbEntity
  8
RACCORDO
100
AcDbLine
 62
253
  6
CONTINUOUS
 10
-6.5348286956
 20
11.3740686044
 11
-6.5076550891
 21
12.189275134
  0
LWPOLYLINE
  5
3AB
100
AcDbEntity
  8
RACCORDO
100
AcDbPolyline
 62
253
  6
CONTINUOUS
 90
3
 70
0
 10
-6.316091012
 20
13.231775536
 10
-6.3301963332
 20
12.8226409207
 10
-6.3574561438
 20
12.0047740826
  0
LINE
  5
3AC
100
AcDbEntity
  8
RACCORDO
100
AcDbLine
 62
7
  6
CONTINUOUS
 10
-6.3837869296
 20
13.30607788
 11
-6.4105348506
 21
12.5287981
  0
LWPOLYLINE
  5
3AD
100
AcDbEntity
  8
RACCORDO
100
AcDbPolyline
 62
253
  6
CONTINUOUS
 90
3
 70
0
 10
-6.7802588621
 20
12.1930537014
 10
-6.7519563535
 20
13.0092901034
 10
-6.7373123946
 20
13.4176286865
  0
LWPOLYLINE
  5
3AE
100
AcDbEntity
  8
RACCORDO
100
AcDbPolyline
 62
253
  6
CONTINUOUS
 90
3
 70
0
 10
-6.5076550891
 20
12.189275134
 10
-6.479158744
 20
13.0050669411
 10
-6.4644145378
 20
13.4131824343
  0
LWPOLYLINE
  5
3AF
100
AcDbEntity
  8
ASSI
100
AcDbPolyline
 62
253
  6
CONTINUOUS
 90
13
 70
0
 10
-4.6709268999
 20
20.4880426718
 10
-4.66974372
 20
20.5109922761
 10
-4.6662139784
 20
20.5347410517
 10
-4.660396737
 20
20.5588916176
 10
-4.6523893338
 20
20.5830398699
 10
-4.6423257544
 20
20.6067817434
 10
-4.6303743895
 20
20.6297199727
 10
-4.6167352175
 20
20.6514707396
 10
-4.6016364584
 20
20.6716700951
 10
-4.5853307552
 20
20.6899800499
 10
-4.568090946
 20
20.706094229
 10
-4.5502054993
 20
20.719742999
 10
-4.5319736866
 20
20.7306979792
  0
LWPOLYLINE
  5
3B0
100
AcDbEntity
  8
RACCORDO
100
AcDbPolyline
 62
253
  6
CONTINUOUS
 90
25
 70
0
 10
-6.431627747
 20
9.5544140333
 10
-6.4362133736
 20
9.474490373
 10
-6.445196617
 20
9.3974893488
 10
-6.4585786307
 20
9.3234104694
 10
-6.4764603556
 20
9.2519436091
 10
-6.4987413868
 20
9.1833988607
 10
-6.5251204562
 20
9.1187063057
 10
-6.5556401578
 20
9.0579445195
 10
-6.590256045
 20
9.0010362323
 10
-6.6285363623
 20
8.9486777528
 10
-6.6705280703
 20
8.9009177094
 10
-6.7161800545
 20
8.8577100063
 10
-6.7649137905
 20
8.8196086843
 10
-6.8167666271
 20
8.7866787842
 10
-6.8716954756
 20
8.7588585967
 10
-6.9290020047
 20
8.7365115609
 10
-6.9887074739
 20
8.719707673
 10
-7.0507842482
 20
8.7083805204
 10
-7.1144620803
 20
8.7026881249
 10
-7.1797849705
 20
8.7027071198
 10
-7.2467028451
 20
8.7083641843
 10
-7.3143064754
 20
8.7195912175
 10
-7.3822919371
 20
8.7363659474
 10
-7.4509590117
 20
8.7587128046
 10
-7.5203051896
 20
8.7866330841
  0
LWPOLYLINE
  5
3B1
100
AcDbEntity
  8
RACCORDO
100
AcDbPolyline
 62
253
  6
CONTINUOUS
 90
22
 70
0
 10
-6.4644145378
 20
13.4131824343
 10
-6.4603722329
 20
13.4758691308
 10
-6.4529303462
 20
13.5392485682
 10
-6.4420888776
 20
13.6033207465
 10
-6.4277619412
 20
13.6684340452
 10
-6.410035423
 20
13.7342400848
 10
-6.3891669805
 20
13.7996937272
 10
-6.3651118273
 20
13.8647631303
 10
-6.3379147498
 20
13.9294801363
 10
-6.3079677654
 20
13.9928951327
 10
-6.2752271138
 20
14.0549930518
 10
-6.2397365552
 20
14.1157889613
 10
-6.2020193878
 20
14.1743784533
 10
-6.1620425475
 20
14.2307265438
 10
-6.1198390984
 20
14.2848682167
 10
-6.0760315316
 20
14.3360040154
 10
-6.0305739422
 20
14.384101432
 10
-5.9835122352
 20
14.4291929743
 10
-5.935606616
 20
14.47057671
 10
-5.8871104867
 20
14.5080186613
 10
-5.8377704453
 20
14.541752806
 10
-5.7875864918
 20
14.5717791438
  0
LWPOLYLINE
  5
3B2
100
AcDbEntity
  8
ASSI
100
AcDbPolyline
 62
253
  6
CONTINUOUS
 90
7
 70
0
 10
-1.8257298549
 20
24.920145967
 10
-1.8277057174
 20
24.9045138911
 10
-1.8338760281
 20
24.8885491868
 10
-1.844138737
 20
24.8731200205
 10
-1.8583201893
 20
24.8584874686
 10
-1.8761804212
 20
24.8448991278
 10
-1.8974172205
 20
24.8325849259
  0
LWPOLYLINE
  5
3B3
100
AcDbEntity
  8
RACCORDO
100
AcDbPolyline
 62
7
  6
CONTINUOUS
 90
6
 70
0
 10
6.0836226071
 20
20.8242586795
 10
6.0716837328
 20
20.8065778762
 10
6.0577633706
 20
20.7900927507
 10
6.041951965
 20
20.7750356769
 10
6.0244874088
 20
20.7617197496
 10
6.005609592
 20
20.7503677055
  0
LINE
  5
3B4
100
AcDbEntity
  8
CURVE
100
AcDbLine
 62
253
  6
CONTINUOUS
 10
2.6335079865
 20
10.4203971826
 11
2.590116709
 21
10.3715140942
  0
LINE
  5
3B5
100
AcDbEntity
  8
CURVE
100
AcDbLine
 62
253
  6
CONTINUOUS
 10
2.6552036219
 20
10.3242136814
 11
2.6985948961
 21
10.373096768
  0
LWPOLYLINE
  5
3B6
100
AcDbEntity
  8
RACCORDO
100
AcDbPolyline
 62
7
  6
CONTINUOUS
 90
6
 70
0
 10
-18.6378031346
 20
-8.5176289156
 10
-18.6700805829
 20
-8.5501349811
 10
-18.7076601714
 20
-8.6031197348
 10
-18.7353774392
 20
-8.6646487692
 10
-18.7510253366
 20
-8.7310871359
 10
-18.754245622
 20
-8.7987307853
  0
LINE
  5
3B7
100
AcDbEntity
  8
RACCORDO
100
AcDbLine
 62
7
  6
CONTINUOUS
 10
-17.6893691509
 20
-7.6850027041
 11
-18.6378820264
 21
-8.5176952492
  0
LWPOLYLINE
  5
3B8
100
AcDbEntity
  8
RACCORDO
100
AcDbPolyline
 62
253
  6
CONTINUOUS
 90
13
 70
0
 10
-18.6377843917
 20
-8.5176096133
 10
-18.6349705303
 20
-8.5152071162
 10
-18.621058588
 20
-8.5050049592
 10
-18.6060641157
 20
-8.4966279401
 10
-18.5900587716
 20
-8.4901134536
 10
-18.5731476715
 20
-8.4855014281
 10
-18.5554799687
 20
-8.4828176081
 10
-18.537237892
 20
-8.4820548986
 10
-18.5184599985
 20
-8.4831814948
 10
-18.4990745359
 20
-8.4862052532
 10
-18.4791193985
 20
-8.4911572031
 10
-18.4587593158
 20
-8.4980337702
 10
-18.4381056086
 20
-8.50682594
  0
LWPOLYLINE
  5
3B9
100
AcDbEntity
  8
RACCORDO
100
AcDbPolyline
 62
253
  6
CONTINUOUS
 90
10
 70
0
 10
-18.438116105
 20
-8.5068210316
 10
-18.4692939079
 20
-8.5330776061
 10
-18.4987833895
 20
-8.5641758805
 10
-18.5258978238
 20
-8.5993916646
 10
-18.550005793
 20
-8.6379048834
 10
-18.5705458914
 20
-8.6788186739
 10
-18.5870397988
 20
-8.7211802707
 10
-18.5991034189
 20
-8.7640031931
 10
-18.6064558247
 20
-8.8062902175
 10
-18.6089257995
 20
-8.8470565998
  0
LINE
  5
3BA
100
AcDbEntity
  8
DRAFT
100
AcDbLine
 62
253
  6
CONTINUOUS
 10
-7.1902100237
 20
4.5288749314
 11
-7.3320209657
 21
4.4564545794
  0
LINE
  5
3BB
100
AcDbEntity
  8
CURVE
100
AcDbLine
 62
253
  6
CONTINUOUS
 10
2.2863778002
 20
8.6890542899
 11
2.3514647063
 21
8.7221707483
  0
LINE
  5
3BC
100
AcDbEntity
  8
CURVE
100
AcDbLine
 62
253
  6
CONTINUOUS
 10
2.6768992573
 20
8.8877530508
 11
2.7419861702
 21
8.9208695127
  0
LINE
  5
3BD
100
AcDbEntity
  8
CURVE
100
AcDbLine
 62
253
  6
CONTINUOUS
 10
1.9609432425
 20
8.2018050219
 11
2.0911170547
 21
8.2680379388
  0
LINE
  5
3BE
100
AcDbEntity
  8
CURVE
100
AcDbLine
 62
253
  6
CONTINUOUS
 10
2.7419861702
 20
7.714619613
 11
1.8307694303
 21
7.2509891675
  0
LINE
  5
3BF
100
AcDbEntity
  8
CURVE
100
AcDbLine
 62
253
  6
CONTINUOUS
 10
2.3514647063
 20
6.8725877299
 11
2.6768992573
 21
7.0381700324
  0
LINE
  5
3C0
100
AcDbEntity
  8
CURVE
100
AcDbLine
 62
253
  6
CONTINUOUS
 10
1.9609432425
 20
6.6470835196
 11
2.156203988
 21
6.7464329087
  0
LINE
  5
3C1
100
AcDbEntity
  8
DRAFT
100
AcDbLine
 62
253
  6
CONTINUOUS
 10
-6.8198913636
 20
3.9277183686
 11
-6.9630377737
 21
3.8573832921
  0
LINE
  5
3C2
100
AcDbEntity
  8
DRAFT
100
AcDbLine
 62
7
  6
CONTINUOUS
 10
9.6111585174
 20
-3.1539699396
 11
3.3027349332
 21
-4.6316683706
  0
LINE
  5
3C3
100
AcDbEntity
  8
ASSI
100
AcDbLine
 62
7
  6
CONTINUOUS
 10
9.6111585174
 20
-3.1539699396
 11
3.3027349332
 21
-4.6316683706
  0
LINE
  5
3C4
100
AcDbEntity
  8
CURVE
100
AcDbLine
 62
253
  6
CONTINUOUS
 10
2.8220933366
 20
-8.2537196664
 11
2.6718925748
 21
-8.2064245781
  0
LINE
  5
3C5
100
AcDbEntity
  8
CURVE
100
AcDbLine
 62
253
  6
CONTINUOUS
 10
2.8721597899
 20
-7.795232968
 11
3.3728285286
 21
-7.9735035649
  0
LINE
  5
3C6
100
AcDbEntity
  8
RACCORDO
100
AcDbLine
 62
7
  6
CONTINUOUS
 10
-8.1218015457
 20
-3.0600716156
 11
-8.1218764066
 21
-3.0600383114
  0
LWPOLYLINE
  5
3C7
100
AcDbEntity
  8
RACCORDO
100
AcDbPolyline
 62
253
  6
CONTINUOUS
 90
22
 70
0
 10
-8.2494334231
 20
-2.7889497303
 10
-8.7905477422
 20
-2.546705874
 10
-9.3211982021
 20
-2.3065120628
 10
-9.8414967357
 20
-2.0684377083
 10
-10.3490902607
 20
-1.8336999677
 10
-10.8465788682
 20
-1.6012300149
 10
-11.3413863154
 20
-1.3676057074
 10
-11.8360660763
 20
-1.131597687
 10
-12.3280219283
 20
-0.894430502
 10
-12.8168431627
 20
-0.656305614
 10
-13.3003861459
 20
-0.4182879255
 10
-13.7808160832
 20
-0.1793404173
 10
-14.2640924776
 20
0.0635349402
 10
-14.7495993783
 20
0.3101276819
 10
-15.2377535954
 20
0.5607295769
 10
-15.7358304853
 20
0.8192066773
 10
-16.2438731923
 20
1.0858313782
 10
-16.7613406443
 20
1.3605530087
 10
-17.2943629337
 20
1.6468814909
 10
-17.8446531872
 20
1.946135433
 10
-18.4096476538
 20
2.257374441
 10
-18.9889097442
 20
2.5807884455
  0
LWPOLYLINE
  5
3C8
100
AcDbEntity
  8
RACCORDO
100
AcDbPolyline
 62
7
  6
CONTINUOUS
 90
23
 70
0
 10
-8.1218015457
 20
-3.0600716156
 10
-8.1133043516
 20
-3.0639899424
 10
-8.0888790907
 20
-3.0766496969
 10
-8.0615583921
 20
-3.09310357
 10
-8.0319136191
 20
-3.1135587415
 10
-8.000800325
 20
-3.1378861966
 10
-7.9687682568
 20
-3.1660324339
 10
-7.9362715277
 20
-3.1979480672
 10
-7.9039869625
 20
-3.2332673264
 10
-7.8724044633
 20
-3.2716945769
 10
-7.8419548966
 20
-3.3129120338
 10
-7.8131455126
 20
-3.3563844452
 10
-7.786328833
 20
-3.4016792939
 10
-7.7618339561
 20
-3.4482910381
 10
-7.7400236237
 20
-3.495485911
 10
-7.7210728866
 20
-3.5427397323
 10
-7.7051152589
 20
-3.589470792
 10
-7.6922877134
 20
-3.6348193541
 10
-7.68251774
 20
-3.6783138058
 10
-7.6756917879
 20
-3.7194183289
 10
-7.6716533638
 20
-3.7572257883
 10
-7.6700636695
 20
-3.7912202119
 10
-7.6700004931
 20
-3.7998050369
  0
LWPOLYLINE
  5
3C9
100
AcDbEntity
  8
RACCORDO
100
AcDbPolyline
 62
253
  6
CONTINUOUS
 90
22
 70
0
 10
-18.9889097442
 20
2.5807884455
 10
-19.0382335427
 20
2.6059657256
 10
-19.086571366
 20
2.6261721803
 10
-19.1339248342
 20
2.6414070776
 10
-19.1804481305
 20
2.6516681039
 10
-19.2259896384
 20
2.6569564361
 10
-19.2700929424
 20
2.6572762729
 10
-19.3128718286
 20
2.6525586503
 10
-19.3542159183
 20
2.6428710228
 10
-19.3933346798
 20
2.6284212201
 10
-19.4300600903
 20
2.6092551581
 10
-19.4645655965
 20
2.5853244706
 10
-19.4965744419
 20
2.5566948245
 10
-19.5261539775
 20
2.5234927775
 10
-19.5532412185
 20
2.485589814
 10
-19.5773644256
 20
2.4426687456
 10
-19.5986752535
 20
2.3942972873
 10
-19.6170250734
 20
2.3409063939
 10
-19.6314929218
 20
2.2834731491
 10
-19.6417732564
 20
2.2223225649
 10
-19.6481744918
 20
2.1571282933
 10
-19.6506969371
 20
2.087890189
  0
LWPOLYLINE
  5
3CA
100
AcDbEntity
  8
RACCORDO
100
AcDbPolyline
 62
7
  6
CONTINUOUS
 90
10
 70
0
 10
-18.859076871
 20
2.3086563491
 10
-17.7707396862
 20
1.704602278
 10
-16.615923155
 20
1.0799771798
 10
-15.4438398385
 20
0.4624602139
 10
-14.254704981
 20
-0.147831735
 10
-13.0487444046
 20
-0.7507811237
 10
-11.8261884274
 20
-1.3462762534
 10
-10.5872802521
 20
-1.9342063899
 10
-9.3322662803
 20
-2.5144644247
 10
-8.1218764066
 20
-3.0600383114
  0
LWPOLYLINE
  5
3CB
100
AcDbEntity
  8
RACCORDO
100
AcDbPolyline
 62
253
  6
CONTINUOUS
 90
10
 70
0
 10
-8.1218764066
 20
-3.0600383114
 10
-8.1480443651
 20
-3.0453922213
 10
-8.171017824
 20
-3.0265681165
 10
-8.1913922295
 20
-3.0033866213
 10
-8.2089578553
 20
-2.976086357
 10
-8.2235338879
 20
-2.9449483415
 10
-8.2349702872
 20
-2.9102930974
 10
-8.2431493316
 20
-2.8724773521
 10
-8.247986829
 20
-2.8318903659
 10
-8.2494329844
 20
-2.7889499253
  0
LINE
  5
3CC
100
AcDbEntity
  8
RACCORDO
100
AcDbLine
 62
7
  6
CONTINUOUS
 10
-18.859076871
 20
2.3086563491
 11
-18.8591997431
 21
2.3087254685
  0
LINE
  5
3CD
100
AcDbEntity
  8
CURVE
100
AcDbLine
 62
253
  6
CONTINUOUS
 10
2.4115446344
 20
-8.0914549904
 11
2.4616117887
 21
-8.1278390997
  0
LWPOLYLINE
  5
3CE
100
AcDbEntity
  8
ASSI
100
AcDbPolyline
 62
253
  6
CONTINUOUS
 90
6
 70
0
 10
0.7599004721
 20
-22.3878280196
 10
0.7518780141
 20
-22.3650265489
 10
0.7414350147
 20
-22.3439915002
 10
0.7287481788
 20
-22.3250788068
 10
0.7140321797
 20
-22.3086084897
 10
0.6975360266
 20
-22.2948592426
  0
LWPOLYLINE
  5
3CF
100
AcDbEntity
  8
ASSI
100
AcDbPolyline
 62
7
  6
CONTINUOUS
 90
5
 70
0
 10
0.8200368993
 20
-22.4429777916
 10
0.812869773
 20
-22.4181356747
 10
0.8031522295
 20
-22.3945922679
 10
0.7910108702
 20
-22.3724910107
 10
0.7765587706
 20
-22.3519963448
  0
LWPOLYLINE
  5
3D0
100
AcDbEntity
  8
ASSI
100
AcDbPolyline
 62
253
  6
CONTINUOUS
 90
16
 70
0
 10
-4.6257226307
 20
13.7947724428
 10
-4.6295863575
 20
13.8399835965
 10
-4.637171986
 20
13.886683741
 10
-4.6483965935
 20
13.9343621455
 10
-4.6631374547
 20
13.9824973635
 10
-4.6812333891
 20
14.0305629589
 10
-4.702486529
 20
14.0780332625
 10
-4.7266644742
 20
14.1243890978
 10
-4.7535028157
 20
14.1691234351
 10
-4.7827080329
 20
14.2117469643
 10
-4.8139607348
 20
14.2517934895
 10
-4.8469191113
 20
14.2888249657
 10
-4.8812226489
 20
14.3224362852
 10
-4.9164961444
 20
14.3522597904
 10
-4.9523538159
 20
14.3779692807
 10
-4.9884034719
 20
14.399283532
  0
LWPOLYLINE
  5
3D1
100
AcDbEntity
  8
ASSI
100
AcDbPolyline
 62
7
  6
CONTINUOUS
 90
16
 70
0
 10
-5.7324848798
 20
25.4099361098
 10
-5.7342544043
 20
25.4415788385
 10
-5.7399504523
 20
25.4745841745
 10
-5.7496389724
 20
25.5071439549
 10
-5.7633373115
 20
25.5388159784
 10
-5.7809112911
 20
25.5690045193
 10
-5.8022469529
 20
25.5973721695
 10
-5.827298605
 20
25.6236871795
 10
-5.855700255
 20
25.6474384688
 10
-5.8869650417
 20
25.6682393045
 10
-5.921318183
 20
25.6862582409
 10
-5.9584241938
 20
25.7012448717
 10
-5.99697785
 20
25.7127915639
 10
-6.0372533501
 20
25.7211356428
 10
-6.0792413077
 20
25.7262269219
 10
-6.1209607623
 20
25.7278964763
  0
LWPOLYLINE
  5
3D2
100
AcDbEntity
  8
ASSI
100
AcDbPolyline
 62
7
  6
CONTINUOUS
 90
16
 70
0
 10
-4.1368778779
 20
20.5358645991
 10
-4.1378270536
 20
20.5588114062
 10
-4.1406963994
 20
20.582559856
 10
-4.1454746598
 20
20.6068603767
 10
-4.1521562954
 20
20.6315440995
 10
-4.1606731639
 20
20.6562471794
 10
-4.1708309226
 20
20.6804209656
 10
-4.1823783817
 20
20.7036114208
 10
-4.1952383373
 20
20.7257915633
 10
-4.2094591427
 20
20.74704479
 10
-4.2250503476
 20
20.7672813968
 10
-4.2417434874
 20
20.7860591496
 10
-4.259169461
 20
20.802954902
 10
-4.2770593256
 20
20.8177511137
 10
-4.295278241
 20
20.8303745342
 10
-4.3136276492
 20
20.8407128607
  0
LWPOLYLINE
  5
3D3
100
AcDbEntity
  8
ASSI
100
AcDbPolyline
 62
253
  6
CONTINUOUS
 90
28
 70
0
 10
-4.3552239153
 20
20.4258497175
 10
-4.3555774773
 20
20.4369273539
 10
-4.3564055444
 20
20.4484595691
 10
-4.3577361236
 20
20.4604279575
 10
-4.3596002712
 20
20.4728351735
 10
-4.3620215126
 20
20.4856286894
 10
-4.3650051918
 20
20.49869833
 10
-4.3685640472
 20
20.5120062043
 10
-4.37270821
 20
20.5255099448
 10
-4.3774171619
 20
20.5390853104
 10
-4.3826854954
 20
20.552680792
 10
-4.3885080674
 20
20.5662510034
 10
-4.3948445053
 20
20.5796804399
 10
-4.4016704231
 20
20.5929085105
 10
-4.4089707632
 20
20.605898062
 10
-4.4167059113
 20
20.6185729141
 10
-4.424843718
 20
20.6308793394
 10
-4.4333606702
 20
20.64278096
 10
-4.442224663
 20
20.6542316078
 10
-4.4514047154
 20
20.6651900813
 10
-4.4608680331
 20
20.6756162041
 10
-4.4705774895
 20
20.6854687645
 10
-4.4804983616
 20
20.6947123118
 10
-4.4905952213
 20
20.7033137027
 10
-4.5008283379
 20
20.711239658
 10
-4.511159832
 20
20.7184616546
 10
-4.5215539783
 20
20.7249553001
 10
-4.5319736866
 20
20.7306979792
  0
LWPOLYLINE
  5
3D4
100
AcDbEntity
  8
ASSI
100
AcDbPolyline
 62
253
  6
CONTINUOUS
 90
18
 70
0
 10
-3.7902703159
 20
18.67645962
 10
-3.790119894
 20
18.6675941675
 10
-3.7896522382
 20
18.658651728
 10
-3.7888419392
 20
18.6496635966
 10
-3.7876615183
 20
18.6406502052
 10
-3.7860869622
 20
18.6316628962
 10
-3.7841034052
 20
18.6227798771
 10
-3.7816919366
 20
18.6140392924
 10
-3.7788346826
 20
18.6054817612
 10
-3.7755298876
 20
18.5971838838
 10
-3.771767344
 20
18.5891844045
 10
-3.7675384385
 20
18.5815233992
 10
-3.7628563213
 20
18.5742704492
 10
-3.7577208819
 20
18.567460714
 10
-3.7521337213
 20
18.561129275
 10
-3.7461230606
 20
18.5553329472
 10
-3.7396989851
 20
18.5500990812
 10
-3.7328729714
 20
18.5454537495
  0
LWPOLYLINE
  5
3D5
100
AcDbEntity
  8
ASSI
100
AcDbPolyline
 62
253
  6
CONTINUOUS
 90
28
 70
0
 10
-4.6355769456
 20
20.4270730195
 10
-4.6356135659
 20
20.429308942
 10
-4.6357570753
 20
20.4316262761
 10
-4.6360074736
 20
20.4340250217
 10
-4.6363617045
 20
20.4365169451
 10
-4.6368228244
 20
20.4390902801
 10
-4.6374000024
 20
20.4417097276
 10
-4.6380970888
 20
20.4443777225
 10
-4.6389102331
 20
20.4470918299
 10
-4.6398370534
 20
20.4498094452
 10
-4.6408809744
 20
20.4525305507
 10
-4.6420385714
 20
20.455255164
 10
-4.6432971875
 20
20.4579407339
 10
-4.6446583384
 20
20.4605844316
 10
-4.6461205086
 20
20.463189086
 10
-4.6476664947
 20
20.4657206322
 10
-4.6492966846
 20
20.4681765101
 10
-4.6510106906
 20
20.47055928
 10
-4.6527901459
 20
20.4728425581
 10
-4.6546359114
 20
20.4750252674
 10
-4.6565471264
 20
20.4771084849
 10
-4.6585028422
 20
20.4790690584
 10
-4.6605035891
 20
20.4809054924
 10
-4.6625488369
 20
20.4826192823
 10
-4.6646160458
 20
20.4841917618
 10
-4.6666977027
 20
20.4856167089
 10
-4.6688013207
 20
20.4869003455
 10
-4.6709268999
 20
20.4880426718
  0
LWPOLYLINE
  5
3D6
100
AcDbEntity
  8
ASSI
100
AcDbPolyline
 62
7
  6
CONTINUOUS
 90
9
 70
0
 10
-3.8488488796
 20
18.7471432349
 10
-3.848818194
 20
18.7432223504
 10
-3.8469985405
 20
18.7167684984
 10
-3.8423617181
 20
18.6908219134
 10
-3.8349589561
 20
18.6657699568
 10
-3.8249560947
 20
18.6420567864
 10
-3.8124766686
 20
18.6198386012
 10
-3.797632668
 20
18.5992729427
 10
-3.7806906157
 20
18.5806854261
  0
LINE
  5
3D7
100
AcDbEntity
  8
ASSI
100
AcDbLine
 62
253
  6
CONTINUOUS
 10
-4.6355769456
 20
19.2398002381
 11
-4.6355769456
 21
20.4270730195
  0
LINE
  5
3D8
100
AcDbEntity
  8
ASSI
100
AcDbLine
 62
253
  6
CONTINUOUS
 10
-4.3552239153
 20
19.2474958092
 11
-4.3552239153
 21
20.4258497175
  0
LINE
  5
3D9
100
AcDbEntity
  8
ASSI
100
AcDbLine
 62
7
  6
CONTINUOUS
 10
-4.1368778779
 20
19.366697329
 11
-4.1368778779
 21
20.5358645991
  0
LINE
  5
3DA
100
AcDbEntity
  8
ASSI
100
AcDbLine
 62
7
  6
CONTINUOUS
 10
-3.8488489597
 20
19.0644390984
 11
-3.8488489597
 21
18.7471702982
  0
LINE
  5
3DB
100
AcDbEntity
  8
ASSI
100
AcDbLine
 62
253
  6
CONTINUOUS
 10
-3.7902703159
 20
18.9937284203
 11
-3.7902703159
 21
18.67645962
  0
LINE
  5
3DC
100
AcDbEntity
  8
ASSI
100
AcDbLine
 62
7
  6
CONTINUOUS
 10
-3.1339858393
 20
18.2455855797
 11
-3.1339858393
 21
17.7917083284
  0
LINE
  5
3DD
100
AcDbEntity
  8
ASSI
100
AcDbLine
 62
253
  6
CONTINUOUS
 10
-3.0607625346
 20
18.2089739274
 11
-3.0607625346
 21
17.6998997832
  0
LINE
  5
3DE
100
AcDbEntity
  8
ASSI
100
AcDbLine
 62
7
  6
CONTINUOUS
 10
-2.9280251023
 20
16.9362347109
 11
-2.9280251023
 21
18.1465287946
  0
LINE
  5
3DF
100
AcDbEntity
  8
ASSI
100
AcDbLine
 62
253
  6
CONTINUOUS
 10
-2.8548017976
 20
-23.0908787786
 11
-2.8548017976
 21
-22.9758870431
  0
LINE
  5
3E0
100
AcDbEntity
  8
ASSI
100
AcDbLine
 62
253
  6
CONTINUOUS
 10
-2.8548017976
 20
16.8444261653
 11
-2.8548017976
 21
18.2087253608
  0
LINE
  5
3E1
100
AcDbEntity
  8
ASSI
100
AcDbLine
 62
253
  6
CONTINUOUS
 10
-2.6612375115
 20
-23.1876609216
 11
-2.6612375115
 21
-22.8961513308
  0
LINE
  5
3E2
100
AcDbEntity
  8
ASSI
100
AcDbLine
 62
253
  6
CONTINUOUS
 10
-2.6612375115
 20
16.7476440223
 11
-2.6612375115
 21
18.1119432178
  0
LINE
  5
3E3
100
AcDbEntity
  8
ASSI
100
AcDbLine
 62
253
  6
CONTINUOUS
 10
-2.3107962236
 20
-22.9413715998
 11
-2.3107962236
 21
-22.7517926463
  0
LINE
  5
3E4
100
AcDbEntity
  8
ASSI
100
AcDbLine
 62
253
  6
CONTINUOUS
 10
-2.3107962236
 20
16.7572634862
 11
-2.3107962236
 21
17.8339907719
  0
LWPOLYLINE
  5
3E5
100
AcDbEntity
  8
ASSI
100
AcDbPolyline
 62
253
  6
CONTINUOUS
 90
10
 70
0
 10
-4.6257226477
 20
-23.4877505388
 10
-4.6295865163
 20
-23.5328600247
 10
-4.6371724349
 20
-23.5754927652
 10
-4.6483974352
 20
-23.6151824808
 10
-4.6631387482
 20
-23.6514950802
 10
-4.6812351461
 20
-23.6840334079
 10
-4.7024887066
 20
-23.7124415883
 10
-4.7266669767
 20
-23.7364089175
 10
-4.7535055158
 20
-23.755673262
 10
-4.77945811
 20
-23.7687184332
  0
LWPOLYLINE
  5
3E6
100
AcDbEntity
  8
ASSI
100
AcDbPolyline
 62
7
  6
CONTINUOUS
 90
3
 70
0
 10
0.8165231779
 20
18.7311662944
 10
0.8220640835
 20
18.7555898605
 10
0.8253406607
 20
18.7807320669
  0
LINE
  5
3E7
100
AcDbEntity
  8
RACCORDO
100
AcDbLine
 62
7
  6
CONTINUOUS
 10
6.0935801888
 20
20.843045805
 11
6.0836226071
 21
20.8242586795
  0
LINE
  5
3E8
100
AcDbEntity
  8
CURVE
100
AcDbLine
 62
253
  6
CONTINUOUS
 10
1.8307694303
 20
10.7893214548
 11
1.9609432425
 21
11.0163875842
  0
LINE
  5
3E9
100
AcDbEntity
  8
CURVE
100
AcDbLine
 62
253
  6
CONTINUOUS
 10
1.8307694303
 20
9.26140513
 11
1.9609432425
 21
9.4884717963
  0
LINE
  5
3EA
100
AcDbEntity
  8
CURVE
100
AcDbLine
 62
253
  6
CONTINUOUS
 10
1.8307694303
 20
7.9747388925
 11
1.9609432425
 21
8.2018050219
  0
LINE
  5
3EB
100
AcDbEntity
  8
RACCORDO
100
AcDbLine
 62
253
  6
CONTINUOUS
 10
-18.4381058729
 20
-8.5068261476
 11
-17.3732483117
 21
-7.6692327413
  0
LWPOLYLINE
  5
3EC
100
AcDbEntity
  8
RACCORDO
100
AcDbPolyline
 62
7
  6
CONTINUOUS
 90
7
 70
0
 10
-17.6893278026
 20
-7.6850689132
 10
-17.6578902644
 20
-7.6623848386
 10
-17.6072872236
 20
-7.6393873634
 10
-17.553155455
 20
-7.6284510346
 10
-17.496715135
 20
-7.6299837904
 10
-17.4367460873
 20
-7.6435776926
 10
-17.3732483117
 20
-7.6692327413
  0
LINE
  5
3ED
100
AcDbEntity
  8
CURVE
100
AcDbLine
 62
253
  6
CONTINUOUS
 10
2.3514647063
 20
6.0684213986
 11
2.6118123444
 21
6.2008872392
  0
LINE
  5
3EE
100
AcDbEntity
  8
CURVE
100
AcDbLine
 62
253
  6
CONTINUOUS
 10
2.6118123444
 20
5.6379707267
 11
2.2863778002
 21
5.4723884277
  0
LINE
  5
3EF
100
AcDbEntity
  8
CURVE
100
AcDbLine
 62
253
  6
CONTINUOUS
 10
18.232670749
 20
12.6642226831
 11
17.3565008068
 21
12.2184241778
  0
LINE
  5
3F0
100
AcDbEntity
  8
CURVE
100
AcDbLine
 62
253
  6
CONTINUOUS
 10
14.1021552921
 20
10.5626011503
 11
14.7279909801
 21
10.8810286617
  0
LINE
  5
3F1
100
AcDbEntity
  8
CURVE
100
AcDbLine
 62
253
  6
CONTINUOUS
 10
2.4816385186
 20
4.3654880375
 11
2.6118123444
 21
4.4317209613
  0
LINE
  5
3F2
100
AcDbEntity
  8
CURVE
100
AcDbLine
 62
253
  6
CONTINUOUS
 10
1.9609432425
 20
3.5376398439
 11
2.0911170547
 21
3.6038727607
  0
LINE
  5
3F3
100
AcDbEntity
  8
DRAFT
100
AcDbLine
 62
7
  6
CONTINUOUS
 10
8.64658163
 20
-2.6716814959
 11
3.3027349332
 21
-3.8555450495
  0
LINE
  5
3F4
100
AcDbEntity
  8
ASSI
100
AcDbLine
 62
7
  6
CONTINUOUS
 10
8.64658163
 20
-2.6716814959
 11
3.3027349332
 21
-3.8555450495
  0
LINE
  5
3F5
100
AcDbEntity
  8
CURVE
100
AcDbLine
 62
253
  6
CONTINUOUS
 10
3.5831093147
 20
-7.6190763414
 11
3.7833765299
 21
-7.7646152243
  0
LINE
  5
3F6
100
AcDbEntity
  8
CURVE
100
AcDbLine
 62
253
  6
CONTINUOUS
 10
2.0110102042
 20
-8.3158675878
 11
2.0610766575
 21
-8.3934921836
  0
LWPOLYLINE
  5
3F7
100
AcDbEntity
  8
0
100
AcDbPolyline
 62
7
  6
CONTINUOUS
 90
27
 70
0
 10
-14.237056435
 20
23.5206677001
 10
-14.2379627969
 20
23.5225474204
 10
-14.2382940185
 20
23.5257971592
 10
-14.2375069955
 20
23.5297863248
 10
-14.2356265657
 20
23.5344984934
 10
-14.2326951241
 20
23.5398274273
 10
-14.228688796
 20
23.5457871369
 10
-14.223631456
 20
23.5523636117
 10
-14.2176371242
 20
23.5594085826
 10
-14.2106845155
 20
23.5669326918
 10
-14.2027949148
 20
23.574925297
 10
-14.1941461964
 20
23.5832062018
 10
-14.1847211161
 20
23.591781955
 10
-14.1745369179
 20
23.6006460078
 10
-14.1638232089
 20
23.6095985164
 10
-14.1525679604
 20
23.6186414903
 10
-14.1407832011
 20
23.62777292
 10
-14.1287346229
 20
23.6367869339
 10
-14.116416233
 20
23.6456808646
 10
-14.1038340243
 20
23.6544573795
 10
-14.0912716678
 20
23.6629186084
 10
-14.0787296143
 20
23.6710573894
 10
-14.066207413
 20
23.6788808844
 10
-14.0539873819
 20
23.6862127097
 10
-14.042163627
 20
23.6929940706
 10
-14.0306420423
 20
23.6992837617
 10
-14.0194226278
 20
23.7050817831
  0
LWPOLYLINE
  5
3F8
100
AcDbEntity
  8
ASSI
100
AcDbPolyline
 62
253
  6
CONTINUOUS
 90
13
 70
0
 10
-1.4100713002
 20
18.0206151042
 10
-1.4115870331
 20
18.0436720451
 10
-1.4154530743
 20
18.0675649656
 10
-1.4216033024
 20
18.0918852112
 10
-1.4299325279
 20
18.1162168171
 10
-1.4402982925
 20
18.1401436254
 10
-1.4525233068
 20
18.1632564019
 10
-1.4663984812
 20
18.1851598344
 10
-1.4816865003
 20
18.205479291
 10
-1.4981258824
 20
18.2238672306
 10
-1.5154354536
 20
18.2400091497
 10
-1.5333191577
 20
18.2536289611
 10
-1.5514711173
 20
18.2644937136
  0
LWPOLYLINE
  5
3F9
100
AcDbEntity
  8
ASSI
100
AcDbPolyline
 62
253
  6
CONTINUOUS
 90
10
 70
0
 10
-1.4454159629
 20
17.6429856567
 10
-1.4451450881
 20
17.6379799785
 10
-1.4444211177
 20
17.6333915349
 10
-1.4432440516
 20
17.6292203258
 10
-1.4415856277
 20
17.6254213435
 10
-1.4394741081
 20
17.6220395957
 10
-1.4369942797
 20
17.619210106
 10
-1.4341744047
 20
17.6169778822
 10
-1.430986221
 20
17.6152979166
 10
-1.4274297285
 20
17.614170209
  0
LWPOLYLINE
  5
3FA
100
AcDbEntity
  8
ASSI
100
AcDbPolyline
 62
253
  6
CONTINUOUS
 90
10
 70
0
 10
0.7700652369
 20
-22.567391775
 10
0.7698036562
 20
-22.5623907438
 10
0.7691045261
 20
-22.5578147203
 10
0.7679678466
 20
-22.5536637045
 10
0.7663663252
 20
-22.5498931735
 10
0.7643272544
 20
-22.5465476501
 10
0.761932512
 20
-22.5437607034
 10
0.7592093904
 20
-22.5415768563
 10
0.7561305972
 20
-22.5399515859
 10
0.7526961323
 20
-22.5388848922
  0
LWPOLYLINE
  5
3FB
100
AcDbEntity
  8
ASSI
100
AcDbPolyline
 62
253
  6
CONTINUOUS
 90
9
 70
0
 10
-1.7257690011
 20
17.6442263071
 10
-1.7245700981
 20
17.6196788547
 10
-1.7209878822
 20
17.5966569765
 10
-1.7150711519
 20
17.5754717017
 10
-1.7068988787
 20
17.5564072748
 10
-1.6965825935
 20
17.539723068
 10
-1.6842666533
 20
17.5256479726
 10
-1.6701206121
 20
17.5143703841
 10
-1.6605882079
 20
17.5088867665
  0
LWPOLYLINE
  5
3FC
100
AcDbEntity
  8
ASSI
100
AcDbPolyline
 62
7
  6
CONTINUOUS
 90
14
 70
0
 10
-1.8257402784
 20
24.920145968
 10
-1.8280571819
 20
24.9890688177
 10
-1.8347998175
 20
25.0544975114
 10
-1.8459780482
 20
25.1176236892
 10
-1.8615471449
 20
25.1781417416
 10
-1.8813668048
 20
25.2355656304
 10
-1.9053209095
 20
25.289641563
 10
-1.9333121949
 20
25.3402338155
 10
-1.9651145663
 20
25.3870148545
 10
-2.0004755502
 20
25.4296985836
 10
-2.0391847244
 20
25.4681101313
 10
-2.0809533117
 20
25.5020633722
 10
-2.1254394559
 20
25.5313717776
 10
-2.1570802655
 20
25.5485777905
  0
LINE
  5
3FD
100
AcDbEntity
  8
ASSI
100
AcDbLine
 62
253
  6
CONTINUOUS
 10
-1.8974172205
 20
24.8325849259
 11
-1.8974172205
 21
24.5423811001
  0
LINE
  5
3FE
100
AcDbEntity
  8
ASSI
100
AcDbLine
 62
7
  6
CONTINUOUS
 10
-1.8257298328
 20
24.9201985822
 11
-1.8257298328
 21
24.5756352012
  0
LINE
  5
3FF
100
AcDbEntity
  8
ASSI
100
AcDbLine
 62
7
  6
CONTINUOUS
 10
-1.7680701609
 20
17.5626277406
 11
-1.7680701609
 21
17.0535535964
  0
LINE
  5
400
100
AcDbEntity
  8
ASSI
100
AcDbLine
 62
253
  6
CONTINUOUS
 10
-1.7257689932
 20
17.961477759
 11
-1.7257689932
 21
17.6442263026
  0
LINE
  5
401
100
AcDbEntity
  8
ASSI
100
AcDbLine
 62
253
  6
CONTINUOUS
 10
-1.7257689932
 20
-23.9726639812
 11
-1.7257689932
 21
-23.6553937519
  0
LINE
  5
402
100
AcDbEntity
  8
ASSI
100
AcDbLine
 62
253
  6
CONTINUOUS
 10
-1.4454159629
 20
17.9602544571
 11
-1.4454159629
 21
17.6429856567
  0
LINE
  5
403
100
AcDbEntity
  8
ASSI
100
AcDbLine
 62
253
  6
CONTINUOUS
 10
-1.4454159629
 20
-23.9738872831
 11
-1.4454159629
 21
-23.6566184827
  0
LINE
  5
404
100
AcDbEntity
  8
ASSI
100
AcDbLine
 62
253
  6
CONTINUOUS
 10
-1.0410632122
 20
17.3702214103
 11
-1.0410632122
 21
16.690050122
  0
LINE
  5
405
100
AcDbEntity
  8
ASSI
100
AcDbLine
 62
253
  6
CONTINUOUS
 10
-1.0410632122
 20
-22.2287464369
 11
-1.0410632122
 21
-22.6656412901
  0
LINE
  5
406
100
AcDbEntity
  8
ASSI
100
AcDbLine
 62
253
  6
CONTINUOUS
 10
-0.6906219243
 20
17.457870032
 11
-0.6906219243
 21
16.6995751561
  0
LINE
  5
407
100
AcDbEntity
  8
ASSI
100
AcDbLine
 62
253
  6
CONTINUOUS
 10
-0.6906219243
 20
-22.0843877524
 11
-0.6906219243
 21
-22.7426067277
  0
LINE
  5
408
100
AcDbEntity
  8
ASSI
100
AcDbLine
 62
7
  6
CONTINUOUS
 10
-0.1233239953
 20
22.6054851976
 11
-0.1233239953
 21
21.4337442945
  0
LINE
  5
409
100
AcDbEntity
  8
ASSI
100
AcDbLine
 62
7
  6
CONTINUOUS
 10
0.2118288264
 20
-23.2510687599
 11
0.2118288264
 21
-21.712637597
  0
LINE
  5
40A
100
AcDbEntity
  8
ASSI
100
AcDbLine
 62
7
  6
CONTINUOUS
 10
0.2118288721
 20
17.1923438931
 11
0.2118288264
 21
18.837818624
  0
LINE
  5
40B
100
AcDbEntity
  8
ASSI
100
AcDbLine
 62
253
  6
CONTINUOUS
 10
-0.231495168
 20
22.472963214
 11
-0.2315174249
 21
22.1071097223
  0
LINE
  5
40C
100
AcDbEntity
  8
ASSI
100
AcDbLine
 62
253
  6
CONTINUOUS
 10
-0.2315309557
 20
21.8846940287
 11
-0.2315662971
 21
21.3037606634
  0
LWPOLYLINE
  5
40D
100
AcDbEntity
  8
ASSI
100
AcDbPolyline
 62
253
  6
CONTINUOUS
 90
22
 70
0
 10
-1.4454159629
 20
-23.6566184827
 10
-1.4453925864
 20
-23.6547876153
 10
-1.4452930796
 20
-23.6528839699
 10
-1.4451174427
 20
-23.6509075467
 10
-1.4448693675
 20
-23.648851912
 10
-1.4445451621
 20
-23.6467234994
 10
-1.4441337502
 20
-23.6445416098
 10
-1.4436331602
 20
-23.6423042867
 10
-1.4430453636
 20
-23.6400134865
 10
-1.4423651992
 20
-23.6376943798
 10
-1.4415903989
 20
-23.6353456019
 10
-1.4407232308
 20
-23.6329685176
 10
-1.4397653375
 20
-23.630592391
 10
-1.4387144187
 20
-23.6282167119
 10
-1.4375727748
 20
-23.6258419907
 10
-1.4363489494
 20
-23.6234990229
 10
-1.4350408848
 20
-23.621188285
 10
-1.4336506388
 20
-23.6189093005
 10
-1.4321929284
 20
-23.6166914361
 10
-1.4306726594
 20
-23.6145444808
 10
-1.4290849261
 20
-23.6124586455
 10
-1.4274297285
 20
-23.6104339304
  0
LWPOLYLINE
  5
40E
100
AcDbEntity
  8
ASSI
100
AcDbPolyline
 62
253
  6
CONTINUOUS
 90
22
 70
0
 10
-1.725768993
 20
-23.6553937521
 10
-1.7256137789
 20
-23.646258983
 10
-1.7251315077
 20
-23.6367386287
 10
-1.724297874
 20
-23.6268396334
 10
-1.7230867396
 20
-23.6165562707
 10
-1.7214752449
 20
-23.6059164959
 10
-1.7194494291
 20
-23.594983533
 10
-1.7169917015
 20
-23.5837773298
 10
-1.7140856657
 20
-23.5723211635
 10
-1.7107306341
 20
-23.5606892268
 10
-1.7069176994
 20
-23.5489102539
 10
-1.702639672
 20
-23.5370157192
 10
-1.6979107328
 20
-23.525087121
 10
-1.6927318836
 20
-23.5131591501
 10
-1.6871058875
 20
-23.5012678946
 10
-1.6810617185
 20
-23.4894965482
 10
-1.6746102623
 20
-23.4778817229
 10
-1.6677636973
 20
-23.4664598031
 10
-1.6605638757
 20
-23.4553093055
 10
-1.6530395461
 20
-23.4444771059
 10
-1.6452018965
 20
-23.4339817594
 10
-1.6370720807
 20
-23.4238552894
  0
LINE
  5
40F
100
AcDbEntity
  8
ASSI
100
AcDbLine
 62
7
  6
CONTINUOUS
 10
0.8253406607
 20
18.7807320669
 11
0.826193346
 21
18.8017180396
  0
LINE
  5
410
100
AcDbEntity
  8
RACCORDO
100
AcDbLine
 62
7
  6
CONTINUOUS
 10
6.1071772059
 20
20.8829120068
 11
6.1014560952
 21
20.8626931987
  0
LWPOLYLINE
  5
411
100
AcDbEntity
  8
RACCORDO
100
AcDbPolyline
 62
253
  6
CONTINUOUS
 90
10
 70
0
 10
-7.8822705856
 20
-15.6941784702
 10
-7.8932230328
 20
-15.7251484329
 10
-7.9028965176
 20
-15.7563077455
 10
-7.9112488498
 20
-15.7875205659
 10
-7.9182436062
 20
-15.8186508563
 10
-7.9238502616
 20
-15.8495628536
 10
-7.92804434
 20
-15.8801216659
 10
-7.9308075514
 20
-15.9101940235
 10
-7.932127853
 20
-15.9396488572
 10
-7.9319994865
 20
-15.9683577492
  0
LINE
  5
412
100
AcDbEntity
  8
RACCORDO
100
AcDbLine
 62
7
  6
CONTINUOUS
 10
-7.6200810479
 20
-15.3046557782
 11
-7.6201260184
 21
-15.3047726221
  0
LWPOLYLINE
  5
413
100
AcDbEntity
  8
RACCORDO
100
AcDbPolyline
 62
253
  6
CONTINUOUS
 90
46
 70
0
 10
-7.6201260184
 20
-15.3047726221
 10
-7.6297123694
 20
-15.3293676912
 10
-7.639385189
 20
-15.3535545807
 10
-7.6488841291
 20
-15.3766892083
 10
-7.6581947394
 20
-15.3987663251
 10
-7.6673096409
 20
-15.4198011163
 10
-7.6762340884
 20
-15.4398365385
 10
-7.684955078
 20
-15.4588715975
 10
-7.6934650605
 20
-15.4769209153
 10
-7.7017787893
 20
-15.4940448212
 10
-7.7098860186
 20
-15.5102480717
 10
-7.7177780962
 20
-15.5255421267
 10
-7.7254735252
 20
-15.5399898507
 10
-7.7329625085
 20
-15.5535968513
 10
-7.7402375667
 20
-15.566376294
 10
-7.7473218623
 20
-15.578393794
 10
-7.7542054343
 20
-15.5896544879
 10
-7.7608827234
 20
-15.6001738209
 10
-7.7673845448
 20
-15.6100225157
 10
-7.7737038462
 20
-15.6192086877
 10
-7.779834141
 20
-15.6277438612
 10
-7.7858078436
 20
-15.6356918871
 10
-7.7916274119
 20
-15.6430707222
 10
-7.7972785648
 20
-15.6498787142
 10
-7.8027686411
 20
-15.6561421196
 10
-7.8081000195
 20
-15.6618797895
 10
-7.8132595741
 20
-15.6670952601
 10
-7.8182310683
 20
-15.6717931649
 10
-7.8230011936
 20
-15.6759851198
 10
-7.827574865
 20
-15.6797008501
 10
-7.8319631861
 20
-15.6829738061
 10
-7.8361521281
 20
-15.6858188933
 10
-7.8401508509
 20
-15.6882684276
 10
-7.844004784
 20
-15.6903714295
 10
-7.8477112899
 20
-15.6921441808
 10
-7.8512698899
 20
-15.6936046115
 10
-7.8547276777
 20
-15.6947858822
 10
-7.8580865001
 20
-15.6956982251
 10
-7.8613412655
 20
-15.6963501317
 10
-7.8645265498
 20
-15.6967554441
 10
-7.867646568
 20
-15.6969180366
 10
-7.8706927651
 20
-15.6968409142
 10
-7.8736788967
 20
-15.696526494
 10
-7.8766077608
 20
-15.6959758718
 10
-7.8794718796
 20
-15.6951918708
 10
-7.8822692143
 20
-15.6941774851
  0
LINE
  5
414
100
AcDbEntity
  8
RACCORDO
100
AcDbLine
 62
253
  6
CONTINUOUS
 10
-7.5627950219
 20
-14.8778435522
 11
-7.882269673
 21
-15.6941787075
  0
LINE
  5
415
100
AcDbEntity
  8
RACCORDO
100
AcDbLine
 62
7
  6
CONTINUOUS
 10
6.1014560952
 20
20.8626931987
 11
6.0935801888
 21
20.843045805
  0
LINE
  5
416
100
AcDbEntity
  8
CURVE
100
AcDbLine
 62
253
  6
CONTINUOUS
 10
1.9609432425
 20
3.1355566447
 11
1.8524650928
 21
2.9195292814
  0
LINE
  5
417
100
AcDbEntity
  8
CURVE
100
AcDbLine
 62
253
  6
CONTINUOUS
 10
2.0911170547
 20
3.6038727607
 11
2.4816385186
 21
4.3654880375
  0
LINE
  5
418
100
AcDbEntity
  8
CURVE
100
AcDbLine
 62
253
  6
CONTINUOUS
 10
2.221290867
 20
6.6455215867
 11
2.3514647063
 21
6.8725877299
  0
LINE
  5
419
100
AcDbEntity
  8
CURVE
100
AcDbLine
 62
253
  6
CONTINUOUS
 10
2.221290867
 20
5.8413549869
 11
2.3514647063
 21
6.0684213986
  0
LINE
  5
41A
100
AcDbEntity
  8
CURVE
100
AcDbLine
 62
253
  6
CONTINUOUS
 10
2.7419861702
 20
5.8650368631
 11
2.6118123444
 21
5.6379707267
  0
LINE
  5
41B
100
AcDbEntity
  8
CURVE
100
AcDbLine
 62
253
  6
CONTINUOUS
 10
1.8958563635
 20
4.0674399117
 11
1.8307694303
 21
3.9539068332
  0
LINE
  5
41C
100
AcDbEntity
  8
CURVE
100
AcDbLine
 62
253
  6
CONTINUOUS
 10
1.8307694303
 20
6.4468228361
 11
1.9609432425
 21
6.6470835196
  0
LINE
  5
41D
100
AcDbEntity
  8
DRAFT
100
AcDbLine
 62
7
  6
CONTINUOUS
 10
3.3027349332
 20
1.7769196174
 11
24.4009071424
 21
12.9667551691
  0
LINE
  5
41E
100
AcDbEntity
  8
ASSI
100
AcDbLine
 62
7
  6
CONTINUOUS
 10
3.3027349332
 20
1.7769196174
 11
24.4009071424
 21
12.9667551691
  0
LINE
  5
41F
100
AcDbEntity
  8
CURVE
100
AcDbLine
 62
253
  6
CONTINUOUS
 10
2.6118123444
 20
3.5471378895
 11
2.4165516125
 21
3.4477885073
  0
LINE
  5
420
100
AcDbEntity
  8
CURVE
100
AcDbLine
 62
253
  6
CONTINUOUS
 10
14.4776566997
 20
9.5164784509
 11
14.2273224193
 21
9.3891074437
  0
LINE
  5
421
100
AcDbEntity
  8
CURVE
100
AcDbLine
 62
253
  6
CONTINUOUS
 10
2.156203988
 20
3.2349060337
 11
1.9609432425
 21
3.1355566447
  0
LINE
  5
422
100
AcDbEntity
  8
CURVE
100
AcDbLine
 62
253
  6
CONTINUOUS
 10
1.8307694303
 20
2.5868238552
 11
2.7419861702
 21
3.0504543008
  0
LINE
  5
423
100
AcDbEntity
  8
CURVE
100
AcDbLine
 62
253
  6
CONTINUOUS
 10
17.9823364686
 20
10.3717881665
 11
17.6068350611
 21
10.1807316623
  0
LINE
  5
424
100
AcDbEntity
  8
CURVE
100
AcDbLine
 62
253
  6
CONTINUOUS
 10
14.7279909801
 20
8.7159651522
 11
14.2273224193
 21
8.4612231378
  0
LINE
  5
425
100
AcDbEntity
  8
DRAFT
100
AcDbLine
 62
7
  6
CONTINUOUS
 10
7.6159130007
 20
4.0644994514
 11
11.5772156277
 21
6.0293347575
  0
LINE
  5
426
100
AcDbEntity
  8
ASSI
100
AcDbLine
 62
7
  6
CONTINUOUS
 10
7.6159130007
 20
4.0644994514
 11
11.5772156277
 21
6.0293347575
  0
LWPOLYLINE
  5
427
100
AcDbEntity
  8
0
100
AcDbPolyline
 62
7
  6
CONTINUOUS
 90
18
 70
0
 10
14.9720422202
 20
6.8538617041
 10
14.856692053
 20
6.8166687064
 10
14.7374345134
 20
6.7843568102
 10
14.6142696015
 20
6.7569260157
 10
14.4864094279
 20
6.7342694029
 10
14.354641882
 20
6.7164938916
 10
14.2213306315
 20
6.7039202419
 10
14.0864473555
 20
6.6966427502
 10
13.9500203749
 20
6.69456712
 10
13.8144983203
 20
6.6977312213
 10
13.6798975956
 20
6.7062300746
 10
13.5462017969
 20
6.7199686593
 10
13.4158103428
 20
6.738699784
 10
13.2887835154
 20
6.7625139008
 10
13.1650610327
 20
6.7913205575
 10
13.0468614678
 20
6.824601206
 10
12.9342872468
 20
6.8624352922
 10
12.9096867595
 20
6.8721577272
  0
LWPOLYLINE
  5
428
100
AcDbEntity
  8
RACCORDO
100
AcDbPolyline
 62
7
  6
CONTINUOUS
 90
7
 70
0
 10
-18.8859529278
 20
2.3216346599
 10
-18.8878130297
 20
2.3219198552
 10
-18.8887123314
 20
2.3220886239
 10
-18.8857139765
 20
2.3211590704
 10
-18.8791556037
 20
2.3186363946
 10
-18.8695945532
 20
2.3142336872
 10
-18.8591997431
 20
2.3087254685
  0
LWPOLYLINE
  5
429
100
AcDbEntity
  8
DRAFT
100
AcDbPolyline
 62
7
  6
CONTINUOUS
 90
10
 70
0
 10
-19.6307193995
 20
10.8738877951
 10
-18.3461757115
 20
10.1498851132
 10
-17.0405731221
 20
9.4357813931
 10
-15.7141026167
 20
8.7316754282
 10
-14.3669878163
 20
8.0376904119
 10
-12.9993893015
 20
7.3538995288
 10
-11.6114040596
 20
6.6803262119
 10
-10.2031951061
 20
6.0170423979
 10
-8.7749920366
 20
5.3641682707
 10
-7.3269923049
 20
4.7217993625
  0
LWPOLYLINE
  5
42A
100
AcDbEntity
  8
RACCORDO
100
AcDbPolyline
 62
7
  6
CONTINUOUS
 90
9
 70
0
 10
6.0823591899
 20
-16.0635210145
 10
6.081861581
 20
-16.0622403353
 10
6.0796709639
 20
-16.0620114144
 10
6.0757643903
 20
-16.0628559491
 10
6.070163387
 20
-16.0647590569
 10
6.063029076
 20
-16.0676567818
 10
6.0544151646
 20
-16.0715278053
 10
6.0442679454
 20
-16.0763934459
 10
6.0325874184
 20
-16.0822537038
  0
LWPOLYLINE
  5
42B
100
AcDbEntity
  8
ASSI
100
AcDbPolyline
 62
7
  6
CONTINUOUS
 90
16
 70
0
 10
-0.1233285642
 20
22.605357952
 10
-0.1250980886
 20
22.6370006807
 10
-0.1307941366
 20
22.6700060166
 10
-0.1404826567
 20
22.7025657971
 10
-0.1541809958
 20
22.7342378205
 10
-0.1717549754
 20
22.7644263614
 10
-0.1930906372
 20
22.7927940117
 10
-0.2181422893
 20
22.8191090217
 10
-0.2465439394
 20
22.842860311
 10
-0.277808726
 20
22.8636611467
 10
-0.3121618674
 20
22.8816800831
 10
-0.3492678781
 20
22.8966667139
 10
-0.3878215344
 20
22.9082134061
 10
-0.4280970345
 20
22.916557485
 10
-0.4700849921
 20
22.921648764
 10
-0.5118044467
 20
22.9233183185
  0
LWPOLYLINE
  5
42C
100
AcDbEntity
  8
ASSI
100
AcDbPolyline
 62
253
  6
CONTINUOUS
 90
13
 70
0
 10
0.735933293
 20
19.0977783032
 10
0.7350193358
 20
19.1211361711
 10
0.7316603432
 20
19.1452826536
 10
0.7259137662
 20
19.1698047578
 10
0.7178778921
 20
19.1942830661
 10
0.7076901638
 20
19.21829891
 10
0.6955248287
 20
19.2414415309
 10
0.6815899584
 20
19.2633151054
 10
0.6661238901
 20
19.2835455156
 10
0.64939115
 20
19.3017867476
 10
0.631677929
 20
19.3177268097
 10
0.6132871881
 20
19.3310930686
 10
0.5945334759
 20
19.3416569125
  0
LWPOLYLINE
  5
42D
100
AcDbEntity
  8
ASSI
100
AcDbPolyline
 62
7
  6
CONTINUOUS
 90
11
 70
0
 10
0.8261968482
 20
19.1417822096
 10
0.8257232219
 20
19.1570802607
 10
0.8220754249
 20
19.1867523964
 10
0.814852778
 20
19.2154952283
 10
0.8041675726
 20
19.2428382083
 10
0.7903431704
 20
19.2681378683
 10
0.7736298045
 20
19.2911662391
 10
0.7541605983
 20
19.3118103542
 10
0.7323422695
 20
19.3296682138
 10
0.7086131539
 20
19.3444590047
 10
0.7029735796
 20
19.3473860788
  0
LWPOLYLINE
  5
42E
100
AcDbEntity
  8
ASSI
100
AcDbPolyline
 62
253
  6
CONTINUOUS
 90
28
 70
0
 10
0.7700652369
 20
19.0721559593
 10
0.7700299615
 20
19.07433069
 10
0.7698920702
 20
19.0764799845
 10
0.7696515631
 20
19.0786038426
 10
0.7693113901
 20
19.0807166345
 10
0.7688686013
 20
19.0828039901
 10
0.7683143468
 20
19.0848227993
 10
0.7676450124
 20
19.0867717087
 10
0.7668642123
 20
19.0886520717
 10
0.7659739398
 20
19.0904248386
 10
0.7649709682
 20
19.0920867236
 10
0.7638585241
 20
19.0936410125
 10
0.7626482803
 20
19.0950585128
 10
0.7613387668
 20
19.0963350708
 10
0.7599314536
 20
19.0974748402
 10
0.7584424234
 20
19.0984610895
 10
0.7568712508
 20
19.0992909663
 10
0.7552183612
 20
19.099967323
 10
0.7535011132
 20
19.1004819856
 10
0.7517186545
 20
19.100833051
 10
0.7498718374
 20
19.1010224223
 10
0.7479805777
 20
19.1010476343
 10
0.7460443389
 20
19.1009066923
 10
0.7440636575
 20
19.1006015909
 10
0.7420600597
 20
19.1001358494
 10
0.7400407206
 20
19.0995106408
 10
0.737998465
 20
19.0987247921
 10
0.735933293
 20
19.0977783032
  0
LWPOLYLINE
  5
42F
100
AcDbEntity
  8
ASSI
100
AcDbPolyline
 62
7
  6
CONTINUOUS
 90
4
 70
0
 10
0.8261977081
 20
-22.4978976512
 10
0.8261791985
 20
-22.494888725
 10
0.824486374
 20
-22.468693144
 10
0.8200368993
 20
-22.4429777916
  0
LINE
  5
430
100
AcDbEntity
  8
ASSI
100
AcDbLine
 62
7
  6
CONTINUOUS
 10
0.565382217
 20
16.5826205296
 11
0.565382217
 21
15.8031317162
  0
LINE
  5
431
100
AcDbEntity
  8
ASSI
100
AcDbLine
 62
7
  6
CONTINUOUS
 10
0.565382217
 20
-21.349424056
 11
0.565382217
 21
-20.5699352427
  0
LINE
  5
432
100
AcDbEntity
  8
ASSI
100
AcDbLine
 62
253
  6
CONTINUOUS
 10
0.7700652369
 20
-22.9073353698
 11
0.7700652369
 21
-22.567391775
  0
LINE
  5
433
100
AcDbEntity
  8
ASSI
100
AcDbLine
 62
253
  6
CONTINUOUS
 10
0.7700652369
 20
18.7322123644
 11
0.7700652369
 21
19.0721559593
  0
LINE
  5
434
100
AcDbEntity
  8
ASSI
100
AcDbLine
 62
7
  6
CONTINUOUS
 10
0.8261972769
 20
-22.8378695328
 11
0.8261972769
 21
-22.497925869
  0
LINE
  5
435
100
AcDbEntity
  8
ASSI
100
AcDbLine
 62
7
  6
CONTINUOUS
 10
0.8261972769
 20
18.8016782015
 11
0.8261972769
 21
19.1416217964
  0
LINE
  5
436
100
AcDbEntity
  8
0
100
AcDbLine
 62
7
  6
CONTINUOUS
 10
1.0007560313
 20
-19.0643199755
 11
1.0007560313
 21
11.6795818589
  0
LINE
  5
437
100
AcDbEntity
  8
ASSI
100
AcDbLine
 62
7
  6
CONTINUOUS
 10
1.2601464034
 20
-20.9745828384
 11
1.2601464034
 21
-19.7615456292
  0
LINE
  5
438
100
AcDbEntity
  8
ASSI
100
AcDbLine
 62
7
  6
CONTINUOUS
 10
1.2601464034
 20
15.6628564042
 11
1.2601464034
 21
16.9272286879
  0
LINE
  5
439
100
AcDbEntity
  8
0
100
AcDbLine
 62
7
  6
CONTINUOUS
 10
1.2910052409
 20
-19.7256399735
 11
1.2910052409
 21
-18.9266018678
  0
LINE
  5
43A
100
AcDbEntity
  8
0
100
AcDbLine
 62
7
  6
CONTINUOUS
 10
1.2910052409
 20
11.8172999666
 11
1.2910052409
 21
15.6474269855
  0
LINE
  5
43B
100
AcDbEntity
  8
CURVE
100
AcDbLine
 62
253
  6
CONTINUOUS
 10
1.7606758349
 20
-8.7937728148
 11
1.7606758349
 21
-8.5463372326
  0
LINE
  5
43C
100
AcDbEntity
  8
CURVE
100
AcDbLine
 62
253
  6
CONTINUOUS
 10
1.8307694303
 20
3.9539068332
 11
1.8307694303
 21
3.6322402067
  0
LINE
  5
43D
100
AcDbEntity
  8
CURVE
100
AcDbLine
 62
253
  6
CONTINUOUS
 10
1.8307694303
 20
2.8280737915
 11
1.8307694303
 21
2.5868238552
  0
LINE
  5
43E
100
AcDbEntity
  8
CURVE
100
AcDbLine
 62
253
  6
CONTINUOUS
 10
1.8307694303
 20
6.1251561425
 11
1.8307694303
 21
6.4468228361
  0
LINE
  5
43F
100
AcDbEntity
  8
CURVE
100
AcDbLine
 62
253
  6
CONTINUOUS
 10
1.8307694303
 20
7.733489342
 11
1.8307694303
 21
7.9747388925
  0
LINE
  5
440
100
AcDbEntity
  8
CURVE
100
AcDbLine
 62
253
  6
CONTINUOUS
 10
1.8307694303
 20
9.0201555795
 11
1.8307694303
 21
9.26140513
  0
LINE
  5
441
100
AcDbEntity
  8
CURVE
100
AcDbLine
 62
253
  6
CONTINUOUS
 10
1.8307694303
 20
10.5480719043
 11
1.8307694303
 21
10.7893214548
  0
LINE
  5
442
100
AcDbEntity
  8
CURVE
100
AcDbLine
 62
253
  6
CONTINUOUS
 10
2.0610766575
 20
-8.5172099747
 11
2.0610766575
 21
-8.3934921836
  0
LINE
  5
443
100
AcDbEntity
  8
CURVE
100
AcDbLine
 62
253
  6
CONTINUOUS
 10
2.1111438118
 20
-8.8752610338
 11
2.1111438118
 21
-11.7764461365
  0
LINE
  5
444
100
AcDbEntity
  8
CURVE
100
AcDbLine
 62
253
  6
CONTINUOUS
 10
2.1111438118
 20
-15.2838490218
 11
2.1111438118
 21
-12.3826639191
  0
LINE
  5
445
100
AcDbEntity
  8
CURVE
100
AcDbLine
 62
253
  6
CONTINUOUS
 10
2.221290867
 20
5.4928828474
 11
2.221290867
 21
5.8413549869
  0
LINE
  5
446
100
AcDbEntity
  8
CURVE
100
AcDbLine
 62
253
  6
CONTINUOUS
 10
2.221290867
 20
6.4846883741
 11
2.221290867
 21
6.6455215867
  0
LINE
  5
447
100
AcDbEntity
  8
CURVE
100
AcDbLine
 62
253
  6
CONTINUOUS
 10
2.2863778002
 20
8.7426651818
 11
2.2863778002
 21
8.6890542899
  0
LINE
  5
448
100
AcDbEntity
  8
CURVE
100
AcDbLine
 62
253
  6
CONTINUOUS
 10
2.2863778002
 20
2.818639078
 11
2.2863778002
 21
3.2207223108
  0
LINE
  5
449
100
AcDbEntity
  8
CURVE
100
AcDbLine
 62
253
  6
CONTINUOUS
 10
2.3114110269
 20
-15.7881701051
 11
2.3114110269
 21
-15.3551574032
  0
LINE
  5
44A
100
AcDbEntity
  8
CURVE
100
AcDbLine
 62
253
  6
CONTINUOUS
 10
2.4616117887
 20
-8.1278390997
 11
2.4616117887
 21
-8.4371340105
  0
LINE
  5
44B
100
AcDbEntity
  8
CURVE
100
AcDbLine
 62
253
  6
CONTINUOUS
 10
2.590116709
 20
10.3715140942
 11
2.590116709
 21
10.3179026655
  0
LINE
  5
44C
100
AcDbEntity
  8
CURVE
100
AcDbLine
 62
253
  6
CONTINUOUS
 10
2.6718925748
 20
-15.2336023877
 11
2.6718925748
 21
-15.604755761
  0
LINE
  5
44D
100
AcDbEntity
  8
CURVE
100
AcDbLine
 62
253
  6
CONTINUOUS
 10
2.6718925748
 20
-8.2064245781
 11
2.6718925748
 21
-8.0208474585
  0
LINE
  5
44E
100
AcDbEntity
  8
CURVE
100
AcDbLine
 62
253
  6
CONTINUOUS
 10
2.6768992573
 20
8.9413639427
 11
2.6768992573
 21
8.8877530508
  0
LINE
  5
44F
100
AcDbEntity
  8
CURVE
100
AcDbLine
 62
253
  6
CONTINUOUS
 10
2.6985948961
 20
10.373096768
 11
2.6985948961
 21
10.4267081968
  0
LINE
  5
450
100
AcDbEntity
  8
CURVE
100
AcDbLine
 62
253
  6
CONTINUOUS
 10
2.7419861702
 20
6.990869888
 11
2.7419861702
 21
6.5887865881
  0
LINE
  5
451
100
AcDbEntity
  8
CURVE
100
AcDbLine
 62
253
  6
CONTINUOUS
 10
2.7419861702
 20
6.1062866819
 11
2.7419861702
 21
5.8650368631
  0
LINE
  5
452
100
AcDbEntity
  8
CURVE
100
AcDbLine
 62
253
  6
CONTINUOUS
 10
2.7419861702
 20
4.3371206725
 11
2.7419861702
 21
4.015454046
  0
LINE
  5
453
100
AcDbEntity
  8
CURVE
100
AcDbLine
 62
253
  6
CONTINUOUS
 10
2.7419861702
 20
3.0504543008
 11
2.7419861702
 21
3.4525375335
  0
LINE
  5
454
100
AcDbEntity
  8
CURVE
100
AcDbLine
 62
253
  6
CONTINUOUS
 10
2.7419861702
 20
8.0362860382
 11
2.7419861702
 21
8.5992025507
  0
LINE
  5
455
100
AcDbEntity
  8
CURVE
100
AcDbLine
 62
253
  6
CONTINUOUS
 10
2.7419861702
 20
9.3229528125
 11
2.7419861702
 21
9.885869325
  0
LINE
  5
456
100
AcDbEntity
  8
CURVE
100
AcDbLine
 62
253
  6
CONTINUOUS
 10
2.7419861702
 20
10.8508686005
 11
2.7419861702
 21
11.413785113
  0
LWPOLYLINE
  5
457
100
AcDbEntity
  8
ASSI
100
AcDbPolyline
 62
253
  6
CONTINUOUS
 90
8
 70
0
 10
0.735933293
 20
-22.9683023763
 10
0.7350193392
 20
-22.9901444739
 10
0.7316603564
 20
-23.0104248824
 10
0.7259137933
 20
-23.0287967324
 10
0.7178779354
 20
-23.0449457966
 10
0.7076902229
 20
-23.0585958663
 10
0.6955249002
 20
-23.0695134743
 10
0.6870301005
 20
-23.0748527116
  0
LINE
  5
458
100
AcDbEntity
  8
ASSI
100
AcDbLine
 62
7
  6
CONTINUOUS
 10
0.8250689692
 20
-22.8619032606
 11
0.8261971915
 21
-22.8378383114
  0
LINE
  5
459
100
AcDbEntity
  8
CURVE
100
AcDbLine
 62
253
  6
CONTINUOUS
 10
1.8524650928
 20
2.9195292814
 11
1.8307694303
 21
2.8280737915
  0
LINE
  5
45A
100
AcDbEntity
  8
CURVE
100
AcDbLine
 62
253
  6
CONTINUOUS
 10
2.4165516125
 20
3.4477885073
 11
2.2863778002
 21
3.2207223108
  0
LINE
  5
45B
100
AcDbEntity
  8
CURVE
100
AcDbLine
 62
253
  6
CONTINUOUS
 10
2.7419861702
 20
4.015454046
 11
2.6768992573
 21
3.9019209107
  0
LINE
  5
45C
100
AcDbEntity
  8
DRAFT
100
AcDbLine
 62
7
  6
CONTINUOUS
 10
11.5772156277
 20
4.2972839499
 11
3.3027349332
 21
-0.5613489728
  0
LINE
  5
45D
100
AcDbEntity
  8
ASSI
100
AcDbLine
 62
7
  6
CONTINUOUS
 10
11.5772156277
 20
4.2972839499
 11
3.3027349332
 21
-0.5613489728
  0
LINE
  5
45E
100
AcDbEntity
  8
DRAFT
100
AcDbLine
 62
253
  6
CONTINUOUS
 10
-19.4048778778
 20
-11.358177437
 11
-19.5466196457
 21
-11.4305639653
  0
LINE
  5
45F
100
AcDbEntity
  8
0
100
AcDbLine
 62
7
  6
CONTINUOUS
 10
15.4146246219
 20
7.0568345719
 11
14.9903605532
 21
6.8447025376
  0
LINE
  5
460
100
AcDbEntity
  8
0
100
AcDbLine
 62
7
  6
CONTINUOUS
 10
20.7179254808
 20
9.496352967
 11
11.5772156277
 21
4.9259980405
  0
LINE
  5
461
100
AcDbEntity
  8
DRAFT
100
AcDbLine
 62
7
  6
CONTINUOUS
 10
3.3027349332
 20
0.1930805252
 11
11.5772156277
 21
4.2972839499
  0
LINE
  5
462
100
AcDbEntity
  8
ASSI
100
AcDbLine
 62
7
  6
CONTINUOUS
 10
3.3027349332
 20
0.1930805252
 11
11.5772156277
 21
4.2972839499
  0
LINE
  5
463
100
AcDbEntity
  8
DRAFT
100
AcDbLine
 62
253
  6
CONTINUOUS
 10
-19.950574433
 20
-10.3725411295
 11
-20.0935599854
 21
-10.4427964863
  0
LWPOLYLINE
  5
464
100
AcDbEntity
  8
RACCORDO
100
AcDbPolyline
 62
253
  6
CONTINUOUS
 90
19
 70
0
 10
-18.8196976448
 20
-9.0008299519
 10
-18.8536302904
 20
-9.0158165982
 10
-18.8898886629
 20
-9.0292500471
 10
-18.9281922644
 20
-9.0410263758
 10
-18.9682447761
 20
-9.0510544811
 10
-19.009736347
 20
-9.0592567838
 10
-19.0523459907
 20
-9.0655698292
 10
-19.0957440735
 20
-9.0699447787
 10
-19.1395948644
 20
-9.0723477874
 10
-19.1835591281
 20
-9.0727602656
 10
-19.227296753
 20
-9.0711790222
 10
-19.2704693799
 20
-9.0676162901
 10
-19.312743019
 20
-9.0620996314
 10
-19.3537906368
 20
-9.054671724
 10
-19.3932946857
 20
-9.0453900314
 10
-19.4309495585
 20
-9.034326358
 10
-19.4664639538
 20
-9.021566294
 10
-19.4995631295
 20
-9.0072085529
 10
-19.5299910277
 20
-8.991364208
  0
LWPOLYLINE
  5
465
100
AcDbEntity
  8
DRAFT
100
AcDbPolyline
 62
7
  6
CONTINUOUS
 90
10
 70
0
 10
-7.1902100237
 20
4.5288749314
 10
-8.6386016352
 20
5.1710452439
 10
-10.0670989753
 20
5.8237705203
 10
-11.4755045457
 20
6.486955212
 10
-12.8635896155
 20
7.1604794216
 10
-14.2311899127
 20
7.8442709834
 10
-15.5782052632
 20
8.5383055104
 10
-16.9044739569
 20
9.2425092805
 10
-18.2097731074
 20
9.956759189
 10
-19.4939114105
 20
10.6809562804
  0
LWPOLYLINE
  5
466
100
AcDbEntity
  8
DRAFT
100
AcDbPolyline
 62
7
  6
CONTINUOUS
 90
10
 70
0
 10
-7.3320209657
 20
4.4564545794
 10
-8.7802965454
 20
5.0986894379
 10
-10.2087052164
 20
5.7514624798
 10
-11.6170495893
 20
6.414678141
 10
-13.0050995497
 20
7.0882157117
 10
-14.372692734
 20
7.7720037167
 10
-15.7197338741
 20
8.4660202234
 10
-17.0460628855
 20
9.1701925859
 10
-18.3514555218
 20
9.884397138
 10
-19.6357207327
 20
10.6085351178
  0
LWPOLYLINE
  5
467
100
AcDbEntity
  8
DRAFT
100
AcDbPolyline
 62
7
  6
CONTINUOUS
 90
19
 70
0
 10
-7.3269923049
 20
4.7217993625
 10
-7.2736816817
 20
4.6957739837
 10
-7.2216084093
 20
4.6651077373
 10
-7.1707732718
 20
4.6298001727
 10
-7.1208074268
 20
4.5895071838
 10
-7.0720803771
 20
4.5445724303
 10
-7.0257018785
 20
4.496026314
 10
-6.9817203416
 20
4.4437800614
 10
-6.9400906868
 20
4.3879205098
 10
-6.9017853433
 20
4.3297399142
 10
-6.8668952664
 20
4.2691865538
 10
-6.8353343204
 20
4.206309401
 10
-6.8078115055
 20
4.1425505915
 10
-6.7844266528
 20
4.0778853375
 10
-6.7650848468
 20
4.0123356616
 10
-6.7502043049
 20
3.9474132477
 10
-6.7399260077
 20
3.8836211406
 10
-6.7341127864
 20
3.8204542024
 10
-6.7327656653
 20
3.7579118617
  0
LWPOLYLINE
  5
468
100
AcDbEntity
  8
DRAFT
100
AcDbPolyline
 62
7
  6
CONTINUOUS
 90
8
 70
0
 10
-19.6357207327
 20
10.6085351178
 10
-19.6707230538
 20
10.6259387526
 10
-19.7046754444
 20
10.6382144158
 10
-19.7375788018
 20
10.6453617231
 10
-19.7697457017
 20
10.6473625465
 10
-19.8008646375
 20
10.6442345808
 10
-19.830001465
 20
10.6360306779
 10
-19.8466502187
 20
10.6284938177
  0
LWPOLYLINE
  5
469
100
AcDbEntity
  8
DRAFT
100
AcDbPolyline
 62
7
  6
CONTINUOUS
 90
8
 70
0
 10
-19.4939114105
 20
10.6809562804
 10
-19.5290329291
 20
10.6984230029
 10
-19.5631009063
 20
10.7107437165
 10
-19.5961162393
 20
10.7179180162
 10
-19.628392572
 20
10.719927699
 10
-19.6596173275
 20
10.7167905003
 10
-19.6888531674
 20
10.7085594232
 10
-19.7055579287
 20
10.7009972995
  0
LINE
  5
46A
100
AcDbEntity
  8
0
100
AcDbLine
 62
7
  6
CONTINUOUS
 10
4.9494442604
 20
-1.8862621784
 11
7.1731321425
 21
-2.9981061194
  0
LINE
  5
46B
100
AcDbEntity
  8
0
100
AcDbLine
 62
7
  6
CONTINUOUS
 10
9.6111585174
 20
-4.2171193069
 11
10.0091986881
 21
-4.4161393923
  0
LINE
  5
46C
100
AcDbEntity
  8
DRAFT
100
AcDbLine
 62
7
  6
CONTINUOUS
 10
9.6111585174
 20
-3.1539699396
 11
8.64658163
 21
-2.6716814959
  0
LINE
  5
46D
100
AcDbEntity
  8
ASSI
100
AcDbLine
 62
7
  6
CONTINUOUS
 10
9.6111585174
 20
-3.1539699396
 11
8.64658163
 21
-2.6716814959
  0
LINE
  5
46E
100
AcDbEntity
  8
0
100
AcDbLine
 62
7
  6
CONTINUOUS
 10
11.8083800379
 20
-3.2086961817
 11
12.1810502245
 21
-3.3950312751
  0
LINE
  5
46F
100
AcDbEntity
  8
0
100
AcDbLine
 62
7
  6
CONTINUOUS
 10
12.19577617
 20
-3.3881077896
 11
11.822666496
 21
-3.2015529527
  0
LWPOLYLINE
  5
470
100
AcDbEntity
  8
RACCORDO
100
AcDbPolyline
 62
253
  6
CONTINUOUS
 90
25
 70
0
 10
-19.2884495559
 20
14.6707052672
 10
-19.3497124683
 20
14.7080895424
 10
-19.4100282217
 20
14.7502341072
 10
-19.4693994276
 20
14.7971377178
 10
-19.5280892616
 20
14.8490574213
 10
-19.5858388659
 20
14.9057340995
 10
-19.6418691132
 20
14.9663916768
 10
-19.69613945
 20
15.0310581615
 10
-19.7486970097
 20
15.0997024861
 10
-19.7988965862
 20
15.1714589016
 10
-19.8467177267
 20
15.2463697763
 10
-19.8921879615
 20
15.3243895093
 10
-19.9347356816
 20
15.4045196913
 10
-19.9743271069
 20
15.4867835973
 10
-20.0110025558
 20
15.5711550201
 10
-20.0443025438
 20
15.6565609138
 10
-20.0741859197
 20
15.7430012404
 10
-20.1006987509
 20
15.8304738865
 10
-20.1235127734
 20
15.9179025369
 10
-20.1425888074
 20
16.0053226547
 10
-20.1579684809
 20
16.0926977688
 10
-20.1694447981
 20
16.17884365
 10
-20.1769488576
 20
16.2633655472
 10
-20.1805493531
 20
16.3466584085
 10
-20.1802452128
 20
16.4287227662
  0
LWPOLYLINE
  5
471
100
AcDbEntity
  8
RACCORDO
100
AcDbPolyline
 62
7
  6
CONTINUOUS
 90
3
 70
0
 10
-19.197637001
 20
14.9102833535
 10
-19.132244741
 20
14.8688339925
 10
-19.1206620335
 20
14.862218437
  0
LINE
  5
472
100
AcDbEntity
  8
DRAFT
100
AcDbLine
 62
7
  6
CONTINUOUS
 10
4.9494442604
 20
-2.3294667388
 11
5.302997651
 21
-2.5825952564
  0
LINE
  5
473
100
AcDbEntity
  8
RACCORDO
100
AcDbLine
 62
7
  6
CONTINUOUS
 10
-19.2614713105
 20
14.9577356634
 11
-19.197637001
 21
14.9102833535
  0
LINE
  5
474
100
AcDbEntity
  8
CURVE
100
AcDbLine
 62
253
  6
CONTINUOUS
 10
2.9722933975
 20
-15.451910712
 11
2.9722933975
 21
-15.2044751298
  0
LINE
  5
475
100
AcDbEntity
  8
CURVE
100
AcDbLine
 62
253
  6
CONTINUOUS
 10
3.0223605517
 20
-8.4116305882
 11
3.0223605517
 21
-10.7065979083
  0
LINE
  5
476
100
AcDbEntity
  8
CURVE
100
AcDbLine
 62
253
  6
CONTINUOUS
 10
3.0223605517
 20
-14.8202185762
 11
3.0223605517
 21
-12.5252512562
  0
LINE
  5
477
100
AcDbEntity
  8
DRAFT
100
AcDbLine
 62
7
  6
CONTINUOUS
 10
3.3027349332
 20
1.7769196174
 11
3.3027349332
 21
-4.6316683706
  0
LINE
  5
478
100
AcDbEntity
  8
ASSI
100
AcDbLine
 62
7
  6
CONTINUOUS
 10
3.3027349332
 20
1.7769196174
 11
3.3027349332
 21
-4.6316683706
  0
LINE
  5
479
100
AcDbEntity
  8
CURVE
100
AcDbLine
 62
253
  6
CONTINUOUS
 10
3.3728285286
 20
-15.0006813745
 11
3.3728285286
 21
-15.2481169567
  0
LINE
  5
47A
100
AcDbEntity
  8
CURVE
100
AcDbLine
 62
253
  6
CONTINUOUS
 10
3.3728285286
 20
-7.9735035649
 11
3.3728285286
 21
-7.5404908631
  0
LINE
  5
47B
100
AcDbEntity
  8
CURVE
100
AcDbLine
 62
253
  6
CONTINUOUS
 10
3.8835101374
 20
-14.9470410028
 11
3.8835101374
 21
-14.6789853557
  0
LINE
  5
47C
100
AcDbEntity
  8
CURVE
100
AcDbLine
 62
253
  6
CONTINUOUS
 10
3.9335772916
 20
-7.9480001427
 11
3.9335772916
 21
-9.63674968
  0
LINE
  5
47D
100
AcDbEntity
  8
CURVE
100
AcDbLine
 62
253
  6
CONTINUOUS
 10
3.9335772916
 20
-14.3565881307
 11
3.9335772916
 21
-12.6678385933
  0
LINE
  5
47E
100
AcDbEntity
  8
CURVE
100
AcDbLine
 62
253
  6
CONTINUOUS
 10
4.2840452685
 20
-14.4751916004
 11
4.2840452685
 21
-14.6607687201
  0
LINE
  5
47F
100
AcDbEntity
  8
CURVE
100
AcDbLine
 62
253
  6
CONTINUOUS
 10
4.8447940316
 20
-7.7441773182
 11
4.8447940316
 21
-13.6331500639
  0
LINE
  5
480
100
AcDbEntity
  8
DRAFT
100
AcDbLine
 62
7
  6
CONTINUOUS
 10
4.9494442604
 20
-2.3294667388
 11
4.9494442604
 21
-1.4835971954
  0
LINE
  5
481
100
AcDbEntity
  8
CURVE
100
AcDbLine
 62
253
  6
CONTINUOUS
 10
5.1251684131
 20
-6.8220989331
 11
5.1251684131
 21
-7.6015217965
  0
LINE
  5
482
100
AcDbEntity
  8
DRAFT
100
AcDbLine
 62
7
  6
CONTINUOUS
 10
5.302997651
 20
-2.5825952564
 11
5.302997651
 21
-3.4124114299
  0
LINE
  5
483
100
AcDbEntity
  8
CURVE
100
AcDbLine
 62
253
  6
CONTINUOUS
 10
5.3354491992
 20
-6.4552996707
 11
5.3354491992
 21
-6.7151072918
  0
LINE
  5
484
100
AcDbEntity
  8
RACCORDO
100
AcDbLine
 62
253
  6
CONTINUOUS
 10
5.4558789253
 20
20.1043277995
 11
5.4558789253
 21
20.4597563154
  0
LINE
  5
485
100
AcDbEntity
  8
RACCORDO
100
AcDbLine
 62
7
  6
CONTINUOUS
 10
5.5132288355
 20
20.1744187259
 11
5.5132288355
 21
20.4900739566
  0
LWPOLYLINE
  5
486
100
AcDbEntity
  8
RACCORDO
100
AcDbPolyline
 62
7
  6
CONTINUOUS
 90
7
 70
0
 10
5.5132288277
 20
20.1744467014
 10
5.5123726738
 20
20.1559327401
 10
5.5094779212
 20
20.1358662327
 10
5.504558435
 20
20.1161694145
 10
5.497635204
 20
20.0969959175
 10
5.4887940627
 20
20.0786228556
 10
5.4781145751
 20
20.0612255676
  0
LINE
  5
487
100
AcDbEntity
  8
RACCORDO
100
AcDbLine
 62
253
  6
CONTINUOUS
 10
6.1106825897
 20
20.9495769884
 11
6.1121381814
 21
20.9615711354
  0
LINE
  5
488
100
AcDbEntity
  8
CURVE
100
AcDbLine
 62
253
  6
CONTINUOUS
 10
14.0187105407
 20
9.1283176289
 11
14.2273224193
 21
9.3891074437
  0
LWPOLYLINE
  5
489
100
AcDbEntity
  8
RACCORDO
100
AcDbPolyline
 62
253
  6
CONTINUOUS
 90
10
 70
0
 10
-8.6566140319
 20
-13.3975720681
 10
-8.6877918666
 20
-13.4238286814
 10
-8.7172813674
 20
-13.4549269944
 10
-8.7443958085
 20
-13.4901428105
 10
-8.7685037733
 20
-13.5286560491
 10
-8.7890438594
 20
-13.5695698438
 10
-8.8055377507
 20
-13.6119314287
 10
-8.8176013556
 20
-13.6547543236
 10
-8.8249537515
 20
-13.6970413064
 10
-8.8274237264
 20
-13.7378076364
  0
LINE
  5
48A
100
AcDbEntity
  8
DRAFT
100
AcDbLine
 62
7
  6
CONTINUOUS
 10
11.5772156277
 20
3.8242883171
 11
3.3027349332
 21
-1.4273743766
  0
LINE
  5
48B
100
AcDbEntity
  8
ASSI
100
AcDbLine
 62
7
  6
CONTINUOUS
 10
11.5772156277
 20
3.8242883171
 11
3.3027349332
 21
-1.4273743766
  0
LINE
  5
48C
100
AcDbEntity
  8
DRAFT
100
AcDbLine
 62
7
  6
CONTINUOUS
 10
3.3027349332
 20
-2.3720346557
 11
11.5772156277
 21
2.0922375095
  0
LINE
  5
48D
100
AcDbEntity
  8
ASSI
100
AcDbLine
 62
7
  6
CONTINUOUS
 10
3.3027349332
 20
-2.3720346557
 11
11.5772156277
 21
2.0922375095
  0
LINE
  5
48E
100
AcDbEntity
  8
0
100
AcDbLine
 62
7
  6
CONTINUOUS
 10
21.7078749745
 20
6.4033020089
 11
11.1012732567
 21
1.10000115
  0
LINE
  5
48F
100
AcDbEntity
  8
DRAFT
100
AcDbLine
 62
7
  6
CONTINUOUS
 10
4.9494442604
 20
-2.3294667388
 11
3.3027349332
 21
-3.1528214024
  0
LINE
  5
490
100
AcDbEntity
  8
DRAFT
100
AcDbLine
 62
7
  6
CONTINUOUS
 10
3.3027349332
 20
-3.5827266153
 11
5.302997651
 21
-2.5825952564
  0
LINE
  5
491
100
AcDbEntity
  8
0
100
AcDbLine
 62
7
  6
CONTINUOUS
 10
11.4194713082
 20
0.3930747719
 11
14.3186091111
 21
1.8426436734
  0
LINE
  5
492
100
AcDbEntity
  8
0
100
AcDbLine
 62
7
  6
CONTINUOUS
 10
14.9550052141
 20
2.1608417249
 11
17.854143017
 21
3.6104106263
  0
LINE
  5
493
100
AcDbEntity
  8
0
100
AcDbLine
 62
7
  6
CONTINUOUS
 10
18.4905391201
 20
3.9286086779
 11
21.3896769229
 21
5.3781775793
  0
LINE
  5
494
100
AcDbEntity
  8
RACCORDO
100
AcDbLine
 62
253
  6
CONTINUOUS
 10
-7.3890090399
 20
9.0281615481
 11
-7.3977669075
 21
9.0320894644
  0
LWPOLYLINE
  5
495
100
AcDbEntity
  8
RACCORDO
100
AcDbPolyline
 62
253
  6
CONTINUOUS
 90
10
 70
0
 10
-7.5203051896
 20
8.7866330841
 10
-8.8973991385
 20
9.4045579224
 10
-10.2574764663
 20
10.0316269654
 10
-11.6003646199
 20
10.6677564709
 10
-12.925843815
 20
11.3128388793
 10
-14.2337917681
 20
11.9668129218
 10
-15.5241811027
 20
12.6296648899
 10
-16.796889293
 20
13.3013336083
 10
-18.0517012571
 20
13.9817091652
 10
-19.2884495559
 20
14.6707052672
  0
LINE
  5
496
100
AcDbEntity
  8
RACCORDO
100
AcDbLine
 62
7
  6
CONTINUOUS
 10
-8.8845635168
 20
9.6797056216
 11
-7.5782617165
 21
9.0909693984
  0
LWPOLYLINE
  5
497
100
AcDbEntity
  8
RACCORDO
100
AcDbPolyline
 62
253
  6
CONTINUOUS
 90
3
 70
0
 10
-10.3110539672
 20
10.4302838529
 10
-8.9784941366
 20
9.8134760365
 10
-7.6297326388
 20
9.2050539882
  0
LINE
  5
498
100
AcDbEntity
  8
0
100
AcDbLine
 62
7
  6
CONTINUOUS
 10
12.5154868191
 20
-2.8551427911
 11
12.9099093851
 21
-3.0523540742
  0
LINE
  5
499
100
AcDbEntity
  8
0
100
AcDbLine
 62
7
  6
CONTINUOUS
 10
13.6115023299
 20
-2.3071350357
 11
14.0396410841
 21
-2.5212044128
  0
LINE
  5
49A
100
AcDbEntity
  8
ASSI
100
AcDbLine
 62
7
  6
CONTINUOUS
 10
11.4194713082
 20
-0.6000855299
 11
11.4901819863
 21
-0.635440869
  0
LINE
  5
49B
100
AcDbEntity
  8
DRAFT
100
AcDbLine
 62
7
  6
CONTINUOUS
 10
15.3115346095
 20
-1.9232165756
 11
16.4045741156
 21
-2.4697363287
  0
LINE
  5
49C
100
AcDbEntity
  8
ASSI
100
AcDbLine
 62
7
  6
CONTINUOUS
 10
15.3115346095
 20
-1.9232165756
 11
16.4045741156
 21
-2.4697363287
  0
LWPOLYLINE
  5
49D
100
AcDbEntity
  8
RACCORDO
100
AcDbPolyline
 62
253
  6
CONTINUOUS
 90
5
 70
0
 10
-15.4760313474
 20
12.9797890814
 10
-14.2098686526
 20
12.3302149365
 10
-12.9269036557
 20
11.6887323968
 10
-11.6272498814
 20
11.0553982367
 10
-10.3110539672
 20
10.4302838529
  0
LWPOLYLINE
  5
49E
100
AcDbEntity
  8
RACCORDO
100
AcDbPolyline
 62
7
  6
CONTINUOUS
 90
6
 70
0
 10
-15.4446853741
 20
12.8755086989
 10
-14.1664915908
 20
12.2194925282
 10
-12.8711742445
 20
11.5718031044
 10
-11.5589289056
 20
10.9325369944
 10
-10.2299696847
 20
10.3017979512
 10
-8.8845635168
 20
9.6797056216
  0
LWPOLYLINE
  5
49F
100
AcDbEntity
  8
RACCORDO
100
AcDbPolyline
 62
253
  6
CONTINUOUS
 90
4
 70
0
 10
-19.1721697122
 20
14.9762725249
 10
-17.9573478759
 20
14.3029030226
 10
-16.7252489496
 20
13.6373814894
 10
-15.4760313474
 20
12.9797890814
  0
LWPOLYLINE
  5
4A0
100
AcDbEntity
  8
RACCORDO
100
AcDbPolyline
 62
7
  6
CONTINUOUS
 90
4
 70
0
 10
-19.1207402996
 20
14.8622430609
 10
-17.948829887
 20
14.2120704396
 10
-16.7055454157
 20
13.5397454955
 10
-15.4446853741
 20
12.8755086989
  0
LINE
  5
4A1
100
AcDbEntity
  8
RACCORDO
100
AcDbLine
 62
7
  6
CONTINUOUS
 10
-19.1207402996
 20
14.8622430609
 11
-19.1206702754
 21
14.8622037652
  0
LWPOLYLINE
  5
4A2
100
AcDbEntity
  8
RACCORDO
100
AcDbPolyline
 62
253
  6
CONTINUOUS
 90
7
 70
0
 10
-19.8075232101
 20
16.223012774
 10
-19.8227811825
 20
16.2327704669
 10
-19.8354666556
 20
16.2433047906
 10
-19.845382379
 20
16.2544519436
 10
-19.8523741701
 20
16.2660385954
 10
-19.8563333115
 20
16.2778845815
 10
-19.857255801
 20
16.2884822801
  0
LINE
  5
4A3
100
AcDbEntity
  8
CURVE
100
AcDbLine
 62
253
  6
CONTINUOUS
 10
2.2863778002
 20
3.1403056709
 11
2.156203988
 21
3.2349060337
  0
LINE
  5
4A4
100
AcDbEntity
  8
CURVE
100
AcDbLine
 62
253
  6
CONTINUOUS
 10
1.8307694303
 20
3.6322402067
 11
1.9609432425
 21
3.5376398439
  0
LINE
  5
4A5
100
AcDbEntity
  8
CURVE
100
AcDbLine
 62
253
  6
CONTINUOUS
 10
2.7419861702
 20
3.4525375335
 11
2.6118123444
 21
3.5471378895
  0
LINE
  5
4A6
100
AcDbEntity
  8
CURVE
100
AcDbLine
 62
253
  6
CONTINUOUS
 10
2.6118123444
 20
4.4317209613
 11
2.7419861702
 21
4.3371206725
  0
LINE
  5
4A7
100
AcDbEntity
  8
CURVE
100
AcDbLine
 62
253
  6
CONTINUOUS
 10
2.156203988
 20
6.7464329087
 11
2.221290867
 21
6.6455215867
  0
LWPOLYLINE
  5
4A8
100
AcDbEntity
  8
RACCORDO
100
AcDbPolyline
 62
7
  6
CONTINUOUS
 90
3
 70
0
 10
6.1110550192
 20
21.0091259762
 10
6.1066109346
 20
21.0675537835
 10
6.0986706
 20
21.1245426427
  0
LINE
  5
4A9
100
AcDbEntity
  8
RACCORDO
100
AcDbLine
 62
7
  6
CONTINUOUS
 10
6.1121356399
 20
20.9615711358
 11
6.1110550192
 21
21.0091259762
  0
LWPOLYLINE
  5
4AA
100
AcDbEntity
  8
RACCORDO
100
AcDbPolyline
 62
253
  6
CONTINUOUS
 90
7
 70
0
 10
6.0560061652
 20
20.892154067
 10
6.0553038932
 20
20.9258399301
 10
6.0533212801
 20
20.9585090546
 10
6.0500583261
 20
20.9901614404
 10
6.0455150312
 20
21.0207970877
 10
6.0396913952
 20
21.0504159963
 10
6.0325874184
 20
21.0790181664
  0
LINE
  5
4AB
100
AcDbEntity
  8
CURVE
100
AcDbLine
 62
253
  6
CONTINUOUS
 10
5.6859171761
 20
-9.8709856942
 11
5.6859171761
 21
-10.044190775
  0
LINE
  5
4AC
100
AcDbEntity
  8
CURVE
100
AcDbLine
 62
253
  6
CONTINUOUS
 10
5.6859171761
 20
-11.8628441229
 11
5.6859171761
 21
-11.6896390422
  0
LINE
  5
4AD
100
AcDbEntity
  8
CURVE
100
AcDbLine
 62
253
  6
CONTINUOUS
 10
5.6859171761
 20
-11.2566263403
 11
5.6859171761
 21
-11.0834212595
  0
LINE
  5
4AE
100
AcDbEntity
  8
CURVE
100
AcDbLine
 62
253
  6
CONTINUOUS
 10
5.6859171761
 20
-10.6504085576
 11
5.6859171761
 21
-10.4772034769
  0
LINE
  5
4AF
100
AcDbEntity
  8
CURVE
100
AcDbLine
 62
253
  6
CONTINUOUS
 10
5.6859171761
 20
-9.4379729923
 11
5.6859171761
 21
-9.2647679116
  0
LINE
  5
4B0
100
AcDbEntity
  8
CURVE
100
AcDbLine
 62
253
  6
CONTINUOUS
 10
5.6859171761
 20
-8.8317552097
 11
5.6859171761
 21
-8.6585501289
  0
LINE
  5
4B1
100
AcDbEntity
  8
RACCORDO
100
AcDbLine
 62
253
  6
CONTINUOUS
 10
6.0560061652
 20
20.8577156119
 11
6.0560061652
 21
20.892154067
  0
LINE
  5
4B2
100
AcDbEntity
  8
RACCORDO
100
AcDbLine
 62
7
  6
CONTINUOUS
 10
6.1121382052
 20
20.9271814489
 11
6.1121382052
 21
20.9616199052
  0
LINE
  5
4B3
100
AcDbEntity
  8
CURVE
100
AcDbLine
 62
253
  6
CONTINUOUS
 10
6.5270403207
 20
-12.7772169336
 11
6.5270403207
 21
-12.3442042318
  0
LINE
  5
4B4
100
AcDbEntity
  8
CURVE
100
AcDbLine
 62
253
  6
CONTINUOUS
 10
6.7373211068
 20
-6.0018296832
 11
6.7373211068
 21
-5.7420220621
  0
LINE
  5
4B5
100
AcDbEntity
  8
CURVE
100
AcDbLine
 62
253
  6
CONTINUOUS
 10
6.947601893
 20
-6.6742609053
 11
6.947601893
 21
-5.8948380419
  0
LINE
  5
4B6
100
AcDbEntity
  8
CURVE
100
AcDbLine
 62
253
  6
CONTINUOUS
 10
7.2279762745
 20
-11.9875654275
 11
7.2279762745
 21
-6.5316053836
  0
LWPOLYLINE
  5
4B7
100
AcDbEntity
  8
RACCORDO
100
AcDbPolyline
 62
7
  6
CONTINUOUS
 90
4
 70
0
 10
6.1121381969
 20
20.9272102723
 10
6.1121228201
 20
20.924701521
 10
6.1107466561
 20
20.9036297355
 10
6.1071772059
 20
20.8829120068
  0
LWPOLYLINE
  5
4B8
100
AcDbEntity
  8
ASSI
100
AcDbPolyline
 62
253
  6
CONTINUOUS
 90
7
 70
0
 10
0.7526961323
 20
-22.5388848922
 10
0.7604949357
 20
-22.5141574898
 10
0.765727391
 20
-22.48867307
 10
0.7683049602
 20
-22.4628628537
 10
0.7681840281
 20
-22.4371635747
 10
0.7653666411
 20
-22.4120100896
 10
0.7599004721
 20
-22.3878280196
  0
LWPOLYLINE
  5
4B9
100
AcDbEntity
  8
ASSI
100
AcDbPolyline
 62
7
  6
CONTINUOUS
 90
4
 70
0
 10
0.2010670701
 20
-23.3119620576
 10
0.2070159795
 20
-23.2934812015
 10
0.2106252095
 20
-23.2730663338
 10
0.2118288264
 20
-23.2510687599
  0
LINE
  5
4BA
100
AcDbEntity
  8
CURVE
100
AcDbLine
 62
253
  6
CONTINUOUS
 10
2.0610766575
 20
-8.3934921836
 11
2.161210966
 21
-8.2188256862
  0
LINE
  5
4BB
100
AcDbEntity
  8
CURVE
100
AcDbLine
 62
253
  6
CONTINUOUS
 10
2.6718925748
 20
-8.0208474585
 11
2.7720261824
 21
-7.8461813177
  0
LINE
  5
4BC
100
AcDbEntity
  8
CURVE
100
AcDbLine
 62
253
  6
CONTINUOUS
 10
13.976988165
 20
10.3442682529
 11
14.1021552921
 21
10.5626011503
  0
LINE
  5
4BD
100
AcDbEntity
  8
CURVE
100
AcDbLine
 62
253
  6
CONTINUOUS
 10
1.7606758349
 20
-8.5463372326
 11
1.8608094424
 21
-8.3922902907
  0
LINE
  5
4BE
100
AcDbEntity
  8
RACCORDO
100
AcDbLine
 62
253
  6
CONTINUOUS
 10
-8.6566140319
 20
-13.3975720681
 11
-7.6036790656
 21
-12.6576469842
  0
LINE
  5
4BF
100
AcDbEntity
  8
ASSI
100
AcDbLine
 62
253
  6
CONTINUOUS
 10
11.4901819863
 20
-0.635440869
 11
13.2579489393
 21
0.2484426075
  0
LINE
  5
4C0
100
AcDbEntity
  8
ASSI
100
AcDbLine
 62
253
  6
CONTINUOUS
 10
15.0257158923
 20
1.132326084
 11
16.7934828452
 21
2.0162095605
  0
LINE
  5
4C1
100
AcDbEntity
  8
ASSI
100
AcDbLine
 62
253
  6
CONTINUOUS
 10
18.5612497982
 20
2.9000930369
 11
20.3290167512
 21
3.7839765134
  0
LINE
  5
4C2
100
AcDbEntity
  8
ASSI
100
AcDbLine
 62
7
  6
CONTINUOUS
 10
11.4194713082
 20
-0.8351670911
 11
13.153991665
 21
0.0320930873
  0
LINE
  5
4C3
100
AcDbEntity
  8
ASSI
100
AcDbLine
 62
7
  6
CONTINUOUS
 10
14.9550052141
 20
0.9325998619
 11
16.689525571
 21
1.7998600403
  0
LINE
  5
4C4
100
AcDbEntity
  8
ASSI
100
AcDbLine
 62
7
  6
CONTINUOUS
 10
18.4905391201
 20
2.7003668149
 11
20.2250594769
 21
3.5676269933
  0
LINE
  5
4C5
100
AcDbEntity
  8
0
100
AcDbLine
 62
7
  6
CONTINUOUS
 10
11.4194713082
 20
-3.4031505466
 11
13.6115023299
 21
-2.3071350357
  0
LINE
  5
4C6
100
AcDbEntity
  8
0
100
AcDbLine
 62
7
  6
CONTINUOUS
 10
14.9550052141
 20
-1.6353835936
 11
17.1470362358
 21
-0.5393680828
  0
LINE
  5
4C7
100
AcDbEntity
  8
0
100
AcDbLine
 62
7
  6
CONTINUOUS
 10
18.4905391201
 20
0.1323833594
 11
20.6825701418
 21
1.2283988702
  0
LINE
  5
4C8
100
AcDbEntity
  8
CURVE
100
AcDbLine
 62
253
  6
CONTINUOUS
 10
2.2863778002
 20
5.4723884277
 11
2.0260301758
 21
5.5007558066
  0
LINE
  5
4C9
100
AcDbEntity
  8
CURVE
100
AcDbLine
 62
253
  6
CONTINUOUS
 10
2.0260301758
 20
7.6720049817
 11
1.8307694303
 21
7.733489342
  0
LWPOLYLINE
  5
4CA
100
AcDbEntity
  8
RACCORDO
100
AcDbPolyline
 62
253
  6
CONTINUOUS
 90
13
 70
0
 10
-6.8572824457
 20
9.7478924323
 10
-6.8375558228
 20
9.7401568024
 10
-6.8160849384
 20
9.7336121232
 10
-6.7932036782
 20
9.7283601686
 10
-6.7692678601
 20
9.7244826098
 10
-6.7446497013
 20
9.7220397453
 10
-6.7197320296
 20
9.7210695632
 10
-6.6949023304
 20
9.7215871504
 10
-6.6705467213
 20
9.7235844581
 10
-6.6470439472
 20
9.7270304269
 10
-6.6247594912
 20
9.7318714698
 10
-6.6040398904
 20
9.7380323056
 10
-6.5852073478
 20
9.7454171293
  0
LWPOLYLINE
  5
4CB
100
AcDbEntity
  8
RACCORDO
100
AcDbPolyline
 62
7
  6
CONTINUOUS
 90
11
 70
0
 10
-7.5782530089
 20
9.0909791604
 10
-7.5047191389
 20
9.0617194839
 10
-7.4352562307
 20
9.0403443023
 10
-7.3660461902
 20
9.0251048257
 10
-7.2974279437
 20
9.016040167
 10
-7.2297805085
 20
9.0131381573
 10
-7.1634169673
 20
9.0163713247
 10
-7.0987288461
 20
9.0256857543
 10
-7.0362589533
 20
9.0409033898
 10
-6.9764301286
 20
9.0617865336
 10
-6.9353045245
 20
9.0801271778
  0
LWPOLYLINE
  5
4CC
100
AcDbEntity
  8
RACCORDO
100
AcDbPolyline
 62
253
  6
CONTINUOUS
 90
22
 70
0
 10
-7.6297326388
 20
9.2050539882
 10
-7.5734349413
 20
9.1825861335
 10
-7.5179020513
 20
9.165290126
 10
-7.463135988
 20
9.1531649153
 10
-7.4088451219
 20
9.1461990919
 10
-7.3553243532
 20
9.1444023409
 10
-7.3034563409
 20
9.147804771
 10
-7.2532631744
 20
9.1564931399
 10
-7.2047272728
 20
9.1703782037
 10
-7.1586734327
 20
9.1892251512
 10
-7.1151532496
 20
9.2131140336
 10
-7.0741197204
 20
9.2419621815
 10
-7.0362508029
 20
9.2752901093
 10
-7.0015985047
 20
9.3131773042
 10
-6.970114461
 20
9.3555421124
 10
-6.9423265861
 20
9.4016630577
 10
-6.9183017834
 20
9.4515918985
 10
-6.8979751128
 20
9.5052755955
 10
-6.8816768764
 20
9.5618354201
 10
-6.8695172892
 20
9.6209783455
 10
-6.8613860733
 20
9.6829972418
 10
-6.8572824457
 20
9.7478924323
  0
LWPOLYLINE
  5
4CD
100
AcDbEntity
  8
RACCORDO
100
AcDbPolyline
 62
253
  6
CONTINUOUS
 90
8
 70
0
 10
-6.4316257213
 20
9.5544151019
 10
-6.4508456699
 20
9.5640030293
 10
-6.467290206
 20
9.5746911469
 10
-6.4806560763
 20
9.5862823554
 10
-6.4906968011
 20
9.5985629016
 10
-6.4972272198
 20
9.6113063205
 10
-6.500126905
 20
9.624277611
 10
-6.5002639924
 20
9.6291977583
  0
LINE
  5
4CE
100
AcDbEntity
  8
0
100
AcDbLine
 62
7
  6
CONTINUOUS
 10
15.3439139438
 20
-1.4409292288
 11
16.051020725
 21
-1.7944826194
  0
LINE
  5
4CF
100
AcDbEntity
  8
0
100
AcDbLine
 62
7
  6
CONTINUOUS
 10
16.7581275062
 20
-2.1337495518
 11
15.358200402
 21
-1.4337859997
  0
LINE
  5
4D0
100
AcDbEntity
  8
0
100
AcDbLine
 62
7
  6
CONTINUOUS
 10
16.051020725
 20
-1.0873758382
 11
16.7581275062
 21
-1.4409292288
  0
LINE
  5
4D1
100
AcDbEntity
  8
0
100
AcDbLine
 62
7
  6
CONTINUOUS
 10
17.1470362358
 20
-0.5393680828
 11
17.854143017
 21
-0.8929214733
  0
LINE
  5
4D2
100
AcDbEntity
  8
ASSI
100
AcDbLine
 62
7
  6
CONTINUOUS
 10
14.9550052141
 20
1.167681423
 11
15.0257158923
 21
1.132326084
  0
LWPOLYLINE
  5
4D3
100
AcDbEntity
  8
RACCORDO
100
AcDbPolyline
 62
253
  6
CONTINUOUS
 90
13
 70
0
 10
-20.1802452128
 20
16.4287227662
 10
-20.1610556263
 20
16.419107078
 10
-20.1394409758
 20
16.4107665708
 10
-20.1157998224
 20
16.4038550385
 10
-20.0905680945
 20
16.3984999255
 10
-20.0642110498
 20
16.3947999769
 10
-20.0372146963
 20
16.3928234175
 10
-20.0100768302
 20
16.3926066937
 10
-19.9832978573
 20
16.394153802
 10
-19.9573715657
 20
16.3974362144
 10
-19.9327760202
 20
16.4023934055
 10
-19.9099647479
 20
16.4089339675
 10
-19.8893583748
 20
16.4169372964
  0
LINE
  5
4D4
100
AcDbEntity
  8
RACCORDO
100
AcDbLine
 62
253
  6
CONTINUOUS
 10
-20.0609022317
 20
20.1041811446
 11
-20.320635194
 21
20.2522253139
  0
LINE
  5
4D5
100
AcDbEntity
  8
RACCORDO
100
AcDbLine
 62
253
  6
CONTINUOUS
 10
-20.320635194
 20
20.2522253139
 11
-20.5302399965
 21
20.3722612461
  0
LWPOLYLINE
  5
4D6
100
AcDbEntity
  8
RACCORDO
100
AcDbPolyline
 62
253
  6
CONTINUOUS
 90
7
 70
0
 10
-19.6879961644
 20
19.8929705757
 10
-19.7034269994
 20
19.9027018948
 10
-19.7162753971
 20
19.9131984828
 10
-19.726339998
 20
19.9242958378
 10
-19.7334630702
 20
19.9358200426
 10
-19.7375329812
 20
19.9475904902
 10
-19.7385185997
 20
19.9586745392
  0
LINE
  5
4D7
100
AcDbEntity
  8
CURVE
100
AcDbLine
 62
253
  6
CONTINUOUS
 10
2.0260301758
 20
5.5007558066
 11
1.8307694303
 21
5.6426562364
  0
LINE
  5
4D8
100
AcDbEntity
  8
CURVE
100
AcDbLine
 62
253
  6
CONTINUOUS
 10
2.6118123444
 20
6.2008872392
 11
2.7419861702
 21
6.1062866819
  0
LINE
  5
4D9
100
AcDbEntity
  8
CURVE
100
AcDbLine
 62
253
  6
CONTINUOUS
 10
1.8307694303
 20
7.2509891675
 11
2.0911170547
 21
7.061788576
  0
LINE
  5
4DA
100
AcDbEntity
  8
CURVE
100
AcDbLine
 62
253
  6
CONTINUOUS
 10
2.6768992573
 20
7.0381700324
 11
2.7419861702
 21
6.990869888
  0
LWPOLYLINE
  5
4DB
100
AcDbEntity
  8
ASSI
100
AcDbPolyline
 62
7
  6
CONTINUOUS
 90
4
 70
0
 10
-16.3678087316
 20
24.8745416497
 10
-16.3497101675
 20
24.8585569223
 10
-16.3300013843
 20
24.844684767
 10
-16.311770288
 20
24.834478838
  0
LINE
  5
4DC
100
AcDbEntity
  8
DRAFT
100
AcDbLine
 62
7
  6
CONTINUOUS
 10
9.6111585174
 20
-6.7541203216
 11
9.6111585174
 21
-3.1539699396
  0
LINE
  5
4DD
100
AcDbEntity
  8
ASSI
100
AcDbLine
 62
7
  6
CONTINUOUS
 10
9.6111585174
 20
-6.7541203216
 11
9.6111585174
 21
-3.1539699396
  0
LINE
  5
4DE
100
AcDbEntity
  8
DRAFT
100
AcDbLine
 62
7
  6
CONTINUOUS
 10
9.7991521109
 20
26.1620087155
 11
9.7991521109
 21
23.8903253418
  0
LINE
  5
4DF
100
AcDbEntity
  8
ASSI
100
AcDbLine
 62
7
  6
CONTINUOUS
 10
9.7991521109
 20
26.1620087155
 11
9.7991521109
 21
23.8903253418
  0
LINE
  5
4E0
100
AcDbEntity
  8
DRAFT
100
AcDbLine
 62
7
  6
CONTINUOUS
 10
9.978904811
 20
20.1777563348
 11
9.978904811
 21
23.8004489918
  0
LINE
  5
4E1
100
AcDbEntity
  8
ASSI
100
AcDbLine
 62
7
  6
CONTINUOUS
 10
9.978904811
 20
20.1777563348
 11
9.978904811
 21
23.8004489918
  0
LINE
  5
4E2
100
AcDbEntity
  8
DRAFT
100
AcDbLine
 62
7
  6
CONTINUOUS
 10
10.0406130849
 20
26.287468452
 11
10.0406130849
 21
27.1387382191
  0
LINE
  5
4E3
100
AcDbEntity
  8
ASSI
100
AcDbLine
 62
7
  6
CONTINUOUS
 10
10.0406130849
 20
26.287468452
 11
10.0406130849
 21
27.1387382191
  0
LINE
  5
4E4
100
AcDbEntity
  8
RACCORDO
100
AcDbLine
 62
7
  6
CONTINUOUS
 10
6.0947975302
 20
-15.9999895587
 11
6.0991350812
 21
-15.9709336648
  0
LWPOLYLINE
  5
4E5
100
AcDbEntity
  8
RACCORDO
100
AcDbPolyline
 62
253
  6
CONTINUOUS
 90
4
 70
0
 10
6.0325874184
 20
-16.0822537038
 10
6.0394323326
 20
-16.0485786342
 10
6.045100531
 20
-16.0142992643
 10
6.0472103581
 20
-15.9979130228
  0
LWPOLYLINE
  5
4E6
100
AcDbEntity
  8
RACCORDO
100
AcDbPolyline
 62
7
  6
CONTINUOUS
 90
3
 70
0
 10
6.0823596909
 20
-16.0635207228
 10
6.0847879045
 20
-16.0523067459
 10
6.0947975302
 20
-15.9999895587
  0
LINE
  5
4E7
100
AcDbEntity
  8
CURVE
100
AcDbLine
 62
253
  6
CONTINUOUS
 10
2.9722933975
 20
-15.2044751298
 11
3.072427706
 21
-15.0298086324
  0
LINE
  5
4E8
100
AcDbEntity
  8
CURVE
100
AcDbLine
 62
253
  6
CONTINUOUS
 10
3.8835101374
 20
-14.6789853557
 11
3.9836444459
 21
-14.5043188583
  0
LINE
  5
4E9
100
AcDbEntity
  8
CURVE
100
AcDbLine
 62
253
  6
CONTINUOUS
 10
6.7373211068
 20
-5.7420220621
 11
5.3354491992
 21
-6.4552996707
  0
LINE
  5
4EA
100
AcDbEntity
  8
CURVE
100
AcDbLine
 62
253
  6
CONTINUOUS
 10
2.7720261824
 20
-7.8461813177
 11
2.8721597899
 21
-7.795232968
  0
LINE
  5
4EB
100
AcDbEntity
  8
CURVE
100
AcDbLine
 62
253
  6
CONTINUOUS
 10
2.161210966
 20
-8.2188256862
 11
2.4115446344
 21
-8.0914549904
  0
LINE
  5
4EC
100
AcDbEntity
  8
CURVE
100
AcDbLine
 62
253
  6
CONTINUOUS
 10
1.8608094424
 20
-8.3922902907
 11
2.0110102042
 21
-8.3158675878
  0
LINE
  5
4ED
100
AcDbEntity
  8
CURVE
100
AcDbLine
 62
253
  6
CONTINUOUS
 10
6.947601893
 20
-5.8948380419
 11
6.7373211068
 21
-6.0018296832
  0
LINE
  5
4EE
100
AcDbEntity
  8
CURVE
100
AcDbLine
 62
253
  6
CONTINUOUS
 10
5.3354491992
 20
-6.7151072918
 11
5.1251684131
 21
-6.8220989331
  0
LINE
  5
4EF
100
AcDbEntity
  8
CURVE
100
AcDbLine
 62
253
  6
CONTINUOUS
 10
4.2840452685
 20
-7.2624375372
 11
3.5831093147
 21
-7.6190763414
  0
LINE
  5
4F0
100
AcDbEntity
  8
CURVE
100
AcDbLine
 62
253
  6
CONTINUOUS
 10
7.2279762745
 20
-6.5316053836
 11
6.947601893
 21
-6.6742609053
  0
LINE
  5
4F1
100
AcDbEntity
  8
CURVE
100
AcDbLine
 62
253
  6
CONTINUOUS
 10
5.1251684131
 20
-7.6015217965
 11
4.8447940316
 21
-7.7441773182
  0
LINE
  5
4F2
100
AcDbEntity
  8
CURVE
100
AcDbLine
 62
253
  6
CONTINUOUS
 10
5.6859171761
 20
-8.6585501289
 11
4.8447940316
 21
-9.0865166941
  0
LINE
  5
4F3
100
AcDbEntity
  8
CURVE
100
AcDbLine
 62
253
  6
CONTINUOUS
 10
3.9335772916
 20
-9.63674968
 11
4.8447940316
 21
-9.1731192345
  0
LINE
  5
4F4
100
AcDbEntity
  8
CURVE
100
AcDbLine
 62
253
  6
CONTINUOUS
 10
4.8447940316
 20
-9.2597217748
 11
5.6859171761
 21
-8.8317552097
  0
LINE
  5
4F5
100
AcDbEntity
  8
0
100
AcDbLine
 62
7
  6
CONTINUOUS
 10
15.552543711
 20
-2.0437211264
 11
16.051020725
 21
-1.7944826194
  0
LINE
  5
4F6
100
AcDbEntity
  8
0
100
AcDbLine
 62
7
  6
CONTINUOUS
 10
16.7581275062
 20
-1.4409292288
 11
17.854143017
 21
-0.8929214733
  0
LINE
  5
4F7
100
AcDbEntity
  8
0
100
AcDbLine
 62
7
  6
CONTINUOUS
 10
18.4905391201
 20
-0.5747234218
 11
19.5865546309
 21
-0.0267156664
  0
LINE
  5
4F8
100
AcDbEntity
  8
0
100
AcDbLine
 62
7
  6
CONTINUOUS
 10
20.2936614121
 20
0.3268377242
 11
21.3896769229
 21
0.8748454796
  0
LINE
  5
4F9
100
AcDbEntity
  8
0
100
AcDbLine
 62
7
  6
CONTINUOUS
 10
21.7078749745
 20
0.3411241824
 11
20.2936614121
 21
-0.3659825988
  0
LINE
  5
4FA
100
AcDbEntity
  8
0
100
AcDbLine
 62
7
  6
CONTINUOUS
 10
19.5865546309
 20
-0.7195359894
 11
16.7581275062
 21
-2.1337495518
  0
LINE
  5
4FB
100
AcDbEntity
  8
DRAFT
100
AcDbLine
 62
7
  6
CONTINUOUS
 10
9.6111585174
 20
-6.7541203216
 11
24.4009071424
 21
0.4519996733
  0
LINE
  5
4FC
100
AcDbEntity
  8
ASSI
100
AcDbLine
 62
7
  6
CONTINUOUS
 10
9.6111585174
 20
-6.7541203216
 11
24.4009071424
 21
0.4519996733
  0
LINE
  5
4FD
100
AcDbEntity
  8
DRAFT
100
AcDbLine
 62
7
  6
CONTINUOUS
 10
9.6111585174
 20
-4.6032801993
 11
15.3115346095
 21
-1.9232165756
  0
LINE
  5
4FE
100
AcDbEntity
  8
ASSI
100
AcDbLine
 62
7
  6
CONTINUOUS
 10
9.6111585174
 20
-4.6032801993
 11
15.3115346095
 21
-1.9232165756
  0
LINE
  5
4FF
100
AcDbEntity
  8
DRAFT
100
AcDbLine
 62
7
  6
CONTINUOUS
 10
23.5373502014
 20
0.8837781438
 11
16.4045741156
 21
-2.4697363287
  0
LINE
  5
500
100
AcDbEntity
  8
ASSI
100
AcDbLine
 62
7
  6
CONTINUOUS
 10
23.5373502014
 20
0.8837781438
 11
16.4045741156
 21
-2.4697363287
  0
LINE
  5
501
100
AcDbEntity
  8
RACCORDO
100
AcDbLine
 62
7
  6
CONTINUOUS
 10
-7.5845292696
 20
-13.7648690924
 11
-8.4896536039
 21
-14.0626749372
  0
LINE
  5
502
100
AcDbEntity
  8
CURVE
100
AcDbLine
 62
253
  6
CONTINUOUS
 10
2.590116709
 20
10.3179026655
 11
2.6335079865
 21
10.3131748619
  0
LINE
  5
503
100
AcDbEntity
  8
CURVE
100
AcDbLine
 62
253
  6
CONTINUOUS
 10
2.6985948961
 20
10.4267081968
 11
2.6552036219
 21
10.4314360021
  0
LINE
  5
504
100
AcDbEntity
  8
CURVE
100
AcDbLine
 62
253
  6
CONTINUOUS
 10
2.3514647063
 20
8.7221707483
 11
2.2863778002
 21
8.7426651818
  0
LINE
  5
505
100
AcDbEntity
  8
CURVE
100
AcDbLine
 62
253
  6
CONTINUOUS
 10
2.0260301758
 20
8.9586717561
 11
1.8307694303
 21
9.0201555795
  0
LINE
  5
506
100
AcDbEntity
  8
CURVE
100
AcDbLine
 62
253
  6
CONTINUOUS
 10
2.7419861702
 20
8.9208695127
 11
2.6768992573
 21
8.9413639427
  0
LINE
  5
507
100
AcDbEntity
  8
CURVE
100
AcDbLine
 62
253
  6
CONTINUOUS
 10
2.0260301758
 20
10.486587544
 11
1.8307694303
 21
10.5480719043
  0
LINE
  5
508
100
AcDbEntity
  8
CURVE
100
AcDbLine
 62
253
  6
CONTINUOUS
 10
2.0911170547
 20
8.2680379388
 11
2.7419861702
 21
8.0362860382
  0
LINE
  5
509
100
AcDbEntity
  8
CURVE
100
AcDbLine
 62
253
  6
CONTINUOUS
 10
2.0911170547
 20
9.5547047131
 11
2.7419861702
 21
9.3229528125
  0
LWPOLYLINE
  5
50A
100
AcDbEntity
  8
RACCORDO
100
AcDbPolyline
 62
253
  6
CONTINUOUS
 90
13
 70
0
 10
-6.7373033852
 20
13.4176332249
 10
-6.7175875935
 20
13.4097910245
 10
-6.6961010058
 20
13.4031197492
 10
-6.6731803342
 20
13.3977239432
 10
-6.6491847638
 20
13.3936881633
 10
-6.6244903246
 20
13.3910756532
 10
-6.5994839982
 20
13.3899273529
 10
-6.5745576536
 20
13.3902612569
 10
-6.5501019068
 20
13.3920721328
 10
-6.5264999987
 20
13.3953316028
 10
-6.5041217903
 20
13.3999885882
 10
-6.4833179658
 20
13.4059701105
 10
-6.464414538
 20
13.4131824344
  0
LINE
  5
50B
100
AcDbEntity
  8
RACCORDO
100
AcDbLine
 62
253
  6
CONTINUOUS
 10
-5.7815501896
 20
12.9979163447
 11
-6.0788146487
 21
13.1276944306
  0
LINE
  5
50C
100
AcDbEntity
  8
RACCORDO
100
AcDbLine
 62
253
  6
CONTINUOUS
 10
-6.0788146487
 20
13.1276944306
 11
-6.316091012
 21
13.231775536
  0
LINE
  5
50D
100
AcDbEntity
  8
RACCORDO
100
AcDbLine
 62
253
  6
CONTINUOUS
 10
-6.7373123946
 20
13.4176286865
 11
-7.3747482234
 21
13.7015465182
  0
LWPOLYLINE
  5
50E
100
AcDbEntity
  8
RACCORDO
100
AcDbPolyline
 62
253
  6
CONTINUOUS
 90
21
 70
0
 10
-7.3747482234
 20
13.7015465182
 10
-8.0091083438
 20
13.9873238724
 10
-8.6403733691
 20
14.2749537452
 10
-9.2685394795
 20
14.5644358811
 10
-9.8935726245
 20
14.8557560055
 10
-10.5154091783
 20
15.1488854788
 10
-11.1341283652
 20
15.4438632034
 10
-11.7496139934
 20
15.740635212
 10
-12.3615154324
 20
16.0390303938
 10
-12.9695482446
 20
16.3389032534
 10
-13.5739750371
 20
16.6403766074
 10
-14.1752635695
 20
16.9436828949
 10
-14.7716558947
 20
17.2479215419
 10
-15.3648908254
 20
17.5539694994
 10
-15.9605775807
 20
17.8647758037
 10
-16.5567299862
 20
18.179382602
 10
-17.1551203896
 20
18.4988160295
 10
-17.766695784
 20
18.8291420309
 10
-18.3947889664
 20
19.172516254
 10
-19.0353416453
 20
19.5270789756
 10
-19.6879961644
 20
19.8929705751
  0
LWPOLYLINE
  5
50F
100
AcDbEntity
  8
RACCORDO
100
AcDbPolyline
 62
253
  6
CONTINUOUS
 90
13
 70
0
 10
-20.0608919274
 20
20.1041851602
 10
-20.0416625515
 20
20.0946557141
 10
-20.0200434196
 20
20.0863701537
 10
-19.9964301136
 20
20.0794800862
 10
-19.9712547041
 20
20.0741115845
 10
-19.9449778452
 20
20.0703628802
 10
-19.9180803447
 20
20.0683025659
 10
-19.8910543667
 20
20.0679683407
 10
-19.8643944265
 20
20.0693663202
 10
-19.8385883415
 20
20.0724709245
 10
-19.8141083052
 20
20.0772253463
 10
-19.7914022479
 20
20.0835425902
 10
-19.7708856397
 20
20.0913070649
  0
LINE
  5
510
100
AcDbEntity
  8
0
100
AcDbLine
 62
7
  6
CONTINUOUS
 10
18.8794478497
 20
0.3268377242
 11
19.5865546309
 21
-0.0267156664
  0
LINE
  5
511
100
AcDbEntity
  8
0
100
AcDbLine
 62
7
  6
CONTINUOUS
 10
20.2936614121
 20
-0.3659825988
 11
18.8937343079
 21
0.3339809533
  0
LINE
  5
512
100
AcDbEntity
  8
0
100
AcDbLine
 62
7
  6
CONTINUOUS
 10
19.5865546309
 20
0.6803911148
 11
20.2936614121
 21
0.3268377242
  0
LINE
  5
513
100
AcDbEntity
  8
0
100
AcDbLine
 62
7
  6
CONTINUOUS
 10
20.6825701418
 20
1.2283988702
 11
21.3896769229
 21
0.8748454796
  0
LINE
  5
514
100
AcDbEntity
  8
ASSI
100
AcDbLine
 62
7
  6
CONTINUOUS
 10
21.7078749745
 20
0.7653882511
 11
22.4724411
 21
0.3831051883
  0
LINE
  5
515
100
AcDbEntity
  8
RACCORDO
100
AcDbLine
 62
7
  6
CONTINUOUS
 10
11.5772156277
 20
6.0293347575
 11
11.4451073584
 21
6.0953888921
  0
LINE
  5
516
100
AcDbEntity
  8
ASSI
100
AcDbLine
 62
7
  6
CONTINUOUS
 10
11.5772156277
 20
6.0293347575
 11
11.4451073584
 21
6.0953888921
  0
LWPOLYLINE
  5
517
100
AcDbEntity
  8
RACCORDO
100
AcDbPolyline
 62
253
  6
CONTINUOUS
 90
8
 70
0
 10
-6.316091012
 20
13.231775536
 10
-6.3351217992
 20
13.2413761583
 10
-6.3513855351
 20
13.2520322313
 10
-6.3645846063
 20
13.263548757
 10
-6.37447748
 20
13.2757149923
 10
-6.3808831245
 20
13.2883083045
 10
-6.3836843216
 20
13.3010982459
 10
-6.3837890884
 20
13.3060151967
  0
LINE
  5
518
100
AcDbEntity
  8
RACCORDO
100
AcDbLine
 62
253
  6
CONTINUOUS
 10
-19.2421776805
 20
21.4909901542
 11
-19.5034989095
 21
21.6407883988
  0
LINE
  5
519
100
AcDbEntity
  8
RACCORDO
100
AcDbLine
 62
253
  6
CONTINUOUS
 10
-19.5034989095
 20
21.6407883988
 11
-19.7143792731
 21
21.7622714137
  0
LWPOLYLINE
  5
51A
100
AcDbEntity
  8
RACCORDO
100
AcDbPolyline
 62
253
  6
CONTINUOUS
 90
13
 70
0
 10
-19.2421776799
 20
21.4909901545
 10
-19.2238218385
 20
21.4802257094
 10
-19.2056533217
 20
21.4667508161
 10
-19.1879828175
 20
21.4507958998
 10
-19.1711124976
 20
21.4326337951
 10
-19.1553308501
 20
21.4125750802
 10
-19.1409077464
 20
21.3909627664
 10
-19.1280898263
 20
21.3681664315
 10
-19.1170962809
 20
21.3445759007
 10
-19.1081151033
 20
21.3205945802
 10
-19.1012998749
 20
21.2966325588
 10
-19.0967671384
 20
21.2730995953
 10
-19.0945944051
 20
21.2503981114
  0
LWPOLYLINE
  5
51B
100
AcDbEntity
  8
RACCORDO
100
AcDbPolyline
 62
253
  6
CONTINUOUS
 90
13
 70
0
 10
-5.9351697666
 20
14.812371187
 10
-5.9168139252
 20
14.8016067419
 10
-5.8986454084
 20
14.7881318485
 10
-5.8809749042
 20
14.7721769323
 10
-5.8641045843
 20
14.7540148276
 10
-5.8483229368
 20
14.7339561127
 10
-5.8338998331
 20
14.7123437988
 10
-5.821081913
 20
14.689547464
 10
-5.8100883675
 20
14.6659569332
 10
-5.80110719
 20
14.6419756127
 10
-5.7942919616
 20
14.6180135913
 10
-5.7897592251
 20
14.5944806278
 10
-5.7875864918
 20
14.5717791438
  0
LWPOLYLINE
  5
51C
100
AcDbEntity
  8
ASSI
100
AcDbPolyline
 62
253
  6
CONTINUOUS
 90
7
 70
0
 10
0.7526961323
 20
18.6857192472
 10
0.7604949745
 20
18.6715035894
 10
0.765727446
 20
18.6587039154
 10
0.7683050125
 20
18.6475368068
 10
0.7681840635
 20
18.6381912196
 10
0.7653666504
 20
18.630825288
 10
0.7643836271
 20
18.6294770875
  0
LWPOLYLINE
  5
51D
100
AcDbEntity
  8
ASSI
100
AcDbPolyline
 62
7
  6
CONTINUOUS
 90
16
 70
0
 10
-0.3156748526
 20
22.3319152201
 10
-0.2922365057
 20
22.2867494704
 10
-0.2720148181
 20
22.2413026502
 10
-0.2550097901
 20
22.1955747596
 10
-0.241119007
 20
22.1491355363
 10
-0.2304448833
 20
22.1024152425
 10
-0.2232946627
 20
22.0567046649
 10
-0.2197707597
 20
22.0119325758
 10
-0.2197707597
 20
21.968170203
 10
-0.2232946627
 20
21.9269220169
 10
-0.2304448833
 20
21.88836166
 10
-0.241119007
 20
21.8523154899
 10
-0.2550097901
 20
21.8197670496
 10
-0.2720148181
 20
21.7910441871
 10
-0.2922365057
 20
21.7658190544
 10
-0.3156748526
 20
21.7440916518
  0
LINE
  5
51E
100
AcDbEntity
  8
ASSI
100
AcDbLine
 62
7
  6
CONTINUOUS
 10
11.4901819863
 20
-0.635440869
 11
11.4194713082
 21
-0.4975911273
  0
LWPOLYLINE
  5
51F
100
AcDbEntity
  8
RACCORDO
100
AcDbPolyline
 62
7
  6
CONTINUOUS
 90
3
 70
0
 10
6.0986706
 20
21.1245426427
 10
6.0872256567
 20
21.1796600117
 10
6.0718145712
 20
21.2340850965
  0
LINE
  5
520
100
AcDbEntity
  8
0
100
AcDbLine
 62
7
  6
CONTINUOUS
 10
11.1012732567
 20
-3.9026944409
 11
11.1012732567
 21
1.10000115
  0
LINE
  5
521
100
AcDbEntity
  8
0
100
AcDbLine
 62
7
  6
CONTINUOUS
 10
11.4194713082
 20
-3.7530918516
 11
11.4194713082
 21
0.3930747719
  0
LINE
  5
522
100
AcDbEntity
  8
DRAFT
100
AcDbLine
 62
7
  6
CONTINUOUS
 10
11.5772156277
 20
6.0293347575
 11
11.5772156277
 21
2.0922375095
  0
LINE
  5
523
100
AcDbEntity
  8
ASSI
100
AcDbLine
 62
7
  6
CONTINUOUS
 10
11.5772156277
 20
6.0293347575
 11
11.5772156277
 21
2.0922375095
  0
LINE
  5
524
100
AcDbEntity
  8
DRAFT
100
AcDbLine
 62
7
  6
CONTINUOUS
 10
12.0191632895
 20
29.1023052001
 11
12.0191632895
 21
28.2215181928
  0
LINE
  5
525
100
AcDbEntity
  8
ASSI
100
AcDbLine
 62
7
  6
CONTINUOUS
 10
12.0191632895
 20
29.1023052001
 11
12.0191632895
 21
28.2215181928
  0
LINE
  5
526
100
AcDbEntity
  8
0
100
AcDbLine
 62
7
  6
CONTINUOUS
 10
12.9397508878
 20
6.8881028361
 11
12.9397508878
 21
6.8605990649
  0
LINE
  5
527
100
AcDbEntity
  8
0
100
AcDbLine
 62
7
  6
CONTINUOUS
 10
12.9580692208
 20
6.8978183286
 11
12.9580692208
 21
6.8544426164
  0
LWPOLYLINE
  5
528
100
AcDbEntity
  8
ASSI
100
AcDbPolyline
 62
7
  6
CONTINUOUS
 90
13
 70
0
 10
11.4901819863
 20
-0.635440869
 10
11.4895549199
 20
-0.6579429936
 10
11.4877433388
 20
-0.679564293
 10
11.4847472429
 20
-0.7003047672
 10
11.4805437236
 20
-0.7202454547
 10
11.4751556894
 20
-0.739305317
 10
11.4686518668
 20
-0.7572412389
 10
11.4610179627
 20
-0.7740388229
 10
11.4522682701
 20
-0.7897124666
 10
11.4425143943
 20
-0.8040622471
 10
11.4317434721
 20
-0.8170712061
 10
11.4199683667
 20
-0.8287563019
 10
11.4194713082
 20
-0.8291582352
  0
LWPOLYLINE
  5
529
100
AcDbEntity
  8
ASSI
100
AcDbPolyline
 62
7
  6
CONTINUOUS
 90
13
 70
0
 10
12.1794182493
 20
5.8017200353
 10
12.1782071307
 20
5.7688817827
 10
12.1685181819
 20
5.7037511187
 10
12.1489783361
 20
5.6391754195
 10
12.1197495416
 20
5.5751455614
 10
12.0813176426
 20
5.5127258561
 10
12.0335288118
 20
5.4519432168
 10
11.9765368765
 20
5.3927707303
 10
11.9112891632
 20
5.3361919684
 10
11.8376476788
 20
5.2822502844
 10
11.7557504164
 20
5.230902325
 10
11.6669586816
 20
5.1830016018
 10
11.5772156277
 20
5.1414132869
  0
LWPOLYLINE
  5
52A
100
AcDbEntity
  8
ASSI
100
AcDbPolyline
 62
7
  6
CONTINUOUS
 90
10
 70
0
 10
13.2579489393
 20
0.2484426075
 10
13.2562351505
 20
0.2123809044
 10
13.2516121181
 20
0.1789778243
 10
13.244079842
 20
0.1482333672
 10
13.2335112235
 20
0.1198943003
 10
13.2200333614
 20
0.0942138564
 10
13.204027552
 20
0.0719517337
 10
13.185364584
 20
0.0531754054
 10
13.1641736687
 20
0.0378173982
 10
13.153837692
 20
0.0320787877
  0
LINE
  5
52B
100
AcDbEntity
  8
ASSI
100
AcDbLine
 62
7
  6
CONTINUOUS
 10
13.6922724482
 20
1.5294753419
 11
13.2579489393
 21
0.2484426075
  0
LINE
  5
52C
100
AcDbEntity
  8
CURVE
100
AcDbLine
 62
253
  6
CONTINUOUS
 10
18.232670749
 20
10.9631013912
 11
17.9823364686
 21
10.3717881665
  0
LINE
  5
52D
100
AcDbEntity
  8
CURVE
100
AcDbLine
 62
253
  6
CONTINUOUS
 10
17.3565008068
 20
10.6719502056
 11
18.232670749
 21
12.6642226831
  0
LINE
  5
52E
100
AcDbEntity
  8
CURVE
100
AcDbLine
 62
253
  6
CONTINUOUS
 10
4.2840452685
 20
-14.6607687201
 11
4.183911661
 21
-14.8354348608
  0
LINE
  5
52F
100
AcDbEntity
  8
CURVE
100
AcDbLine
 62
253
  6
CONTINUOUS
 10
21.2366819572
 20
12.0276111807
 11
21.737350518
 21
12.9009427324
  0
LINE
  5
530
100
AcDbEntity
  8
ASSI
100
AcDbLine
 62
7
  6
CONTINUOUS
 10
-2.0632673788
 20
-22.6498270969
 11
-2.3107962236
 21
-22.9413715998
  0
LWPOLYLINE
  5
531
100
AcDbEntity
  8
DRAFT
100
AcDbPolyline
 62
7
  6
CONTINUOUS
 90
10
 70
0
 10
-7.0171631084
 20
-17.3321459669
 10
-7.0019177006
 20
-17.3237999528
 10
-6.9745470435
 20
-17.304141192
 10
-6.9506153107
 20
-17.2803610526
 10
-6.9303090214
 20
-17.2523705025
 10
-6.9134450546
 20
-17.220260454
 10
-6.9004847234
 20
-17.1850335991
 10
-6.8915829991
 20
-17.1470248172
 10
-6.8865877575
 20
-17.1059007697
 10
-6.8854997959
 20
-17.0616618787
  0
LWPOLYLINE
  5
532
100
AcDbEntity
  8
DRAFT
100
AcDbPolyline
 62
7
  6
CONTINUOUS
 90
10
 70
0
 10
-6.8745018181
 20
-17.2627727787
 10
-6.8592012673
 20
-17.2543966491
 10
-6.8317317233
 20
-17.2346674133
 10
-6.8077135022
 20
-17.2108024498
 10
-6.7873338136
 20
-17.1827124112
 10
-6.7704088582
 20
-17.1504885411
 10
-6.757401624
 20
-17.1151371941
 10
-6.7484676418
 20
-17.0769944842
 10
-6.7434542259
 20
-17.0357258739
 10
-6.7423621663
 20
-16.9913318044
  0
LINE
  5
533
100
AcDbEntity
  8
DRAFT
100
AcDbLine
 62
253
  6
CONTINUOUS
 10
-7.101212989
 20
-17.5100273534
 11
-7.2429561083
 21
-17.5824132061
  0
LINE
  5
534
100
AcDbEntity
  8
CURVE
100
AcDbLine
 62
253
  6
CONTINUOUS
 10
5.6859171761
 20
-9.2647679116
 11
4.8447940316
 21
-9.6927344767
  0
LINE
  5
535
100
AcDbEntity
  8
CURVE
100
AcDbLine
 62
253
  6
CONTINUOUS
 10
3.0223605517
 20
-10.7065979083
 11
4.8447940316
 21
-9.7793370171
  0
LINE
  5
536
100
AcDbEntity
  8
CURVE
100
AcDbLine
 62
253
  6
CONTINUOUS
 10
4.8447940316
 20
-9.8659395575
 11
5.6859171761
 21
-9.4379729923
  0
LINE
  5
537
100
AcDbEntity
  8
CURVE
100
AcDbLine
 62
253
  6
CONTINUOUS
 10
4.8447940316
 20
-10.2989522594
 11
5.6859171761
 21
-9.8709856942
  0
LINE
  5
538
100
AcDbEntity
  8
CURVE
100
AcDbLine
 62
253
  6
CONTINUOUS
 10
2.1111438118
 20
-11.7764461365
 11
4.8447940316
 21
-10.3855547998
  0
LINE
  5
539
100
AcDbEntity
  8
CURVE
100
AcDbLine
 62
253
  6
CONTINUOUS
 10
5.6859171761
 20
-10.044190775
 11
4.8447940316
 21
-10.4721573401
  0
LINE
  5
53A
100
AcDbEntity
  8
CURVE
100
AcDbLine
 62
253
  6
CONTINUOUS
 10
5.6859171761
 20
-10.4772034769
 11
4.8447940316
 21
-10.905170042
  0
LINE
  5
53B
100
AcDbEntity
  8
CURVE
100
AcDbLine
 62
253
  6
CONTINUOUS
 10
2.1111438118
 20
-12.3826639191
 11
4.8447940316
 21
-10.9917725824
  0
LINE
  5
53C
100
AcDbEntity
  8
CURVE
100
AcDbLine
 62
253
  6
CONTINUOUS
 10
4.8447940316
 20
-11.0783751228
 11
5.6859171761
 21
-10.6504085576
  0
LINE
  5
53D
100
AcDbEntity
  8
CURVE
100
AcDbLine
 62
253
  6
CONTINUOUS
 10
5.6859171761
 20
-11.0834212595
 11
4.8447940316
 21
-11.5113878247
  0
LINE
  5
53E
100
AcDbEntity
  8
CURVE
100
AcDbLine
 62
253
  6
CONTINUOUS
 10
3.0223605517
 20
-12.5252512562
 11
4.8447940316
 21
-11.597990365
  0
LINE
  5
53F
100
AcDbEntity
  8
CURVE
100
AcDbLine
 62
253
  6
CONTINUOUS
 10
4.8447940316
 20
-11.6845929054
 11
5.6859171761
 21
-11.2566263403
  0
LINE
  5
540
100
AcDbEntity
  8
CURVE
100
AcDbLine
 62
253
  6
CONTINUOUS
 10
5.6859171761
 20
-11.6896390422
 11
4.8447940316
 21
-12.1176056073
  0
LINE
  5
541
100
AcDbEntity
  8
CURVE
100
AcDbLine
 62
253
  6
CONTINUOUS
 10
3.9335772916
 20
-12.6678385933
 11
4.8447940316
 21
-12.2042081477
  0
LINE
  5
542
100
AcDbEntity
  8
CURVE
100
AcDbLine
 62
253
  6
CONTINUOUS
 10
4.8447940316
 20
-12.2908106881
 11
5.6859171761
 21
-11.8628441229
  0
LINE
  5
543
100
AcDbEntity
  8
DRAFT
100
AcDbLine
 62
253
  6
CONTINUOUS
 10
-6.7423621663
 20
-16.9913318044
 11
-6.8854997959
 21
-17.0616618787
  0
LINE
  5
544
100
AcDbEntity
  8
DRAFT
100
AcDbLine
 62
7
  6
CONTINUOUS
 10
-7.0171281046
 20
-17.3322081713
 11
-6.8744666874
 21
-17.2628352019
  0
LWPOLYLINE
  5
545
100
AcDbEntity
  8
DRAFT
100
AcDbPolyline
 62
7
  6
CONTINUOUS
 90
9
 70
0
 10
-6.8619169236
 20
-17.5938271443
 10
-6.9000076346
 20
-17.6104433383
 10
-6.9435763726
 20
-17.6231442713
 10
-6.9895794418
 20
-17.6301903628
 10
-7.037959119
 20
-17.6317124565
 10
-7.0875981852
 20
-17.6276970784
 10
-7.1381248731
 20
-17.6181400642
 10
-7.1899109858
 20
-17.6030455271
 10
-7.2429561083
 20
-17.5824132061
  0
LINE
  5
546
100
AcDbEntity
  8
CURVE
100
AcDbLine
 62
253
  6
CONTINUOUS
 10
2.0911170547
 20
11.0826205011
 11
2.7419861702
 21
10.8508686005
  0
LWPOLYLINE
  5
547
100
AcDbEntity
  8
RACCORDO
100
AcDbPolyline
 62
253
  6
CONTINUOUS
 90
7
 70
0
 10
-5.5267221925
 20
14.6332624236
 10
-5.54527318
 20
14.640951307
 10
-5.5633802785
 20
14.6456140012
 10
-5.5807338423
 20
14.647170804
 10
-5.5970371323
 20
14.6455951258
 10
-5.6120113441
 20
14.6409139455
 10
-5.6187224086
 20
14.6375445178
  0
LWPOLYLINE
  5
548
100
AcDbEntity
  8
RACCORDO
100
AcDbPolyline
 62
253
  6
CONTINUOUS
 90
7
 70
0
 10
-18.8809305021
 20
21.285251581
 10
-18.8994814851
 20
21.2929404628
 10
-18.91758858
 20
21.2976031569
 10
-18.9349421412
 20
21.2991599612
 10
-18.9512454297
 20
21.2975842855
 10
-18.9662196411
 20
21.2929031084
 10
-18.9729380222
 20
21.289529502
  0
LINE
  5
549
100
AcDbEntity
  8
RACCORDO
100
AcDbLine
 62
253
  6
CONTINUOUS
 10
-4.9884034604
 20
14.3992835381
 11
-5.2877822862
 21
14.5291173534
  0
LINE
  5
54A
100
AcDbEntity
  8
RACCORDO
100
AcDbLine
 62
253
  6
CONTINUOUS
 10
-5.2877822862
 20
14.5291173534
 11
-5.526722193
 21
14.6332624233
  0
LWPOLYLINE
  5
54B
100
AcDbEntity
  8
RACCORDO
100
AcDbPolyline
 62
253
  6
CONTINUOUS
 90
22
 70
0
 10
-5.9351697666
 20
14.812371187
 10
-6.5724173298
 20
15.0945612349
 10
-7.2065420967
 20
15.3787487009
 10
-7.8375440673
 20
15.6649335851
 10
-8.4654629091
 20
15.9531328097
 10
-9.0902589545
 20
16.2433294525
 10
-9.7118132009
 20
16.5354727466
 10
-10.330209846
 20
16.8296072046
 10
-10.945364692
 20
17.1256883138
 10
-11.5569061439
 20
17.4235317697
 10
-12.1645704215
 20
17.7230073021
 10
-12.7686213049
 20
18.0242451812
 10
-13.3694785392
 20
18.3274519128
 10
-13.9654200478
 20
18.631678
 10
-14.5581679072
 20
18.9378729398
 10
-15.1533080919
 20
19.249091729
 10
-15.7491703523
 20
19.5642328377
 10
-16.3474249379
 20
19.8843977958
 10
-16.9586685725
 20
20.2159461909
 10
-17.5864334973
 20
20.5609978855
 10
-18.2271874711
 20
20.9174330171
 10
-18.8809304939
 20
21.2852515857
  0
LINE
  5
54C
100
AcDbEntity
  8
ASSI
100
AcDbLine
 62
7
  6
CONTINUOUS
 10
18.4905391201
 20
2.935448376
 11
18.5612497982
 21
2.9000930369
  0
LINE
  5
54D
100
AcDbEntity
  8
DRAFT
100
AcDbLine
 62
7
  6
CONTINUOUS
 10
23.5373502014
 20
0.8837781438
 11
24.4009071424
 21
0.4519996733
  0
LINE
  5
54E
100
AcDbEntity
  8
ASSI
100
AcDbLine
 62
7
  6
CONTINUOUS
 10
23.5373502014
 20
0.8837781438
 11
24.4009071424
 21
0.4519996733
  0
LINE
  5
54F
100
AcDbEntity
  8
RACCORDO
100
AcDbLine
 62
7
  6
CONTINUOUS
 10
-3.6245023976
 20
15.7242899665
 11
-17.3064647414
 21
22.5652711385
  0
LINE
  5
550
100
AcDbEntity
  8
0
100
AcDbLine
 62
7
  6
CONTINUOUS
 10
14.9903605532
 20
6.8447025376
 11
14.9720422202
 21
6.8538617041
  0
LINE
  5
551
100
AcDbEntity
  8
DRAFT
100
AcDbLine
 62
7
  6
CONTINUOUS
 10
-11.8796971319
 20
20.6043805831
 11
-7.6370564448
 21
18.4830602395
  0
LINE
  5
552
100
AcDbEntity
  8
0
100
AcDbLine
 62
7
  6
CONTINUOUS
 10
15.3963062889
 20
7.0659937385
 11
15.4146246219
 21
7.0568345719
  0
LWPOLYLINE
  5
553
100
AcDbEntity
  8
ASSI
100
AcDbPolyline
 62
7
  6
CONTINUOUS
 90
10
 70
0
 10
11.8516225847
 20
6.3109923333
 10
11.9112891632
 20
6.2672481023
 10
11.9765368765
 20
6.2106693403
 10
12.0335288118
 20
6.1514968538
 10
12.0813176426
 20
6.0907142145
 10
12.1197495416
 20
6.0282945092
 10
12.1489783361
 20
5.9642646512
 10
12.1685181819
 20
5.8996889519
 10
12.1782071307
 20
5.8345582879
 10
12.1794182493
 20
5.8017200353
  0
LWPOLYLINE
  5
554
100
AcDbEntity
  8
ASSI
100
AcDbPolyline
 62
7
  6
CONTINUOUS
 90
4
 70
0
 10
-3.7806906157
 20
18.5806854261
 10
-3.7619175173
 20
18.5642922343
 10
-3.7414415184
 20
18.5501615165
 10
-3.7253203087
 20
18.5412536515
  0
LINE
  5
555
100
AcDbEntity
  8
0
100
AcDbLine
 62
7
  6
CONTINUOUS
 10
13.3016310324
 20
0.377282493
 11
13.3175617208
 21
0.339284492
  0
LWPOLYLINE
  5
556
100
AcDbEntity
  8
RACCORDO
100
AcDbPolyline
 62
7
  6
CONTINUOUS
 90
8
 70
0
 10
6.0718708057
 20
21.2340930637
 10
6.0662892138
 20
21.2494684918
 10
6.0574590253
 20
21.2694209943
 10
6.0467097984
 20
21.2898511209
 10
6.0342388818
 20
21.310002524
 10
6.0201120584
 20
21.3296230875
 10
6.0042635453
 20
21.3489649275
 10
5.9866933425
 20
21.3680280439
  0
LWPOLYLINE
  5
557
100
AcDbEntity
  8
0
100
AcDbPolyline
 62
7
  6
CONTINUOUS
 90
6
 70
0
 10
13.3175617208
 20
0.339284492
 10
13.3468663143
 20
0.2487692898
 10
13.3697460075
 20
0.1532862264
 10
13.3860456705
 20
0.0533136777
 10
13.3959204332
 20
-0.0516267321
 10
13.3993702955
 20
-0.1615350031
  0
LINE
  5
558
100
AcDbEntity
  8
0
100
AcDbLine
 62
7
  6
CONTINUOUS
 10
11.1012732567
 20
1.10000115
 11
10.9005474649
 21
1.7271595118
  0
LINE
  5
559
100
AcDbEntity
  8
0
100
AcDbLine
 62
7
  6
CONTINUOUS
 10
13.6115023299
 20
1.2912447066
 11
13.6115023299
 21
-2.3071350357
  0
LINE
  5
55A
100
AcDbEntity
  8
CURVE
100
AcDbLine
 62
253
  6
CONTINUOUS
 10
13.976988165
 20
9.5710312829
 11
13.976988165
 21
10.3442682529
  0
LINE
  5
55B
100
AcDbEntity
  8
CURVE
100
AcDbLine
 62
253
  6
CONTINUOUS
 10
14.0187105407
 20
8.6643754115
 11
14.0187105407
 21
9.1283176289
  0
LINE
  5
55C
100
AcDbEntity
  8
0
100
AcDbLine
 62
7
  6
CONTINUOUS
 10
14.3186091111
 20
-2.3900460385
 11
14.3186091111
 21
1.8426436734
  0
LINE
  5
55D
100
AcDbEntity
  8
0
100
AcDbLine
 62
7
  6
CONTINUOUS
 10
14.9550052141
 20
-2.09084086
 11
14.9550052141
 21
2.1608417249
  0
LINE
  5
55E
100
AcDbEntity
  8
0
100
AcDbLine
 62
7
  6
CONTINUOUS
 10
15.3963062889
 20
7.0659937385
 11
15.3963062889
 21
7.0476754054
  0
LWPOLYLINE
  5
55F
100
AcDbEntity
  8
ASSI
100
AcDbPolyline
 62
7
  6
CONTINUOUS
 90
13
 70
0
 10
15.0257158923
 20
1.132326084
 10
15.0250888259
 20
1.1098239594
 10
15.0232772447
 20
1.08820266
 10
15.0202811489
 20
1.0674621857
 10
15.0160776295
 20
1.0475214983
 10
15.0106895954
 20
1.028461636
 10
15.0041857728
 20
1.0105257141
 10
14.9965518686
 20
0.9937281301
 10
14.987802176
 20
0.9780544864
 10
14.9780483003
 20
0.9637047058
 10
14.967277378
 20
0.9506957469
 10
14.9555022727
 20
0.9390106511
 10
14.9550052141
 20
0.9386087177
  0
LWPOLYLINE
  5
560
100
AcDbEntity
  8
ASSI
100
AcDbPolyline
 62
7
  6
CONTINUOUS
 90
31
 70
0
 10
13.3993702955
 20
-0.1615350031
 10
13.3957502005
 20
-0.2776374666
 10
13.3854084919
 20
-0.3952217769
 10
13.3683451697
 20
-0.5142879339
 10
13.3443902644
 20
-0.6355158362
 10
13.3137137456
 20
-0.7582255852
 10
13.2768255217
 20
-0.8803774856
 10
13.2336217659
 20
-1.0019622131
 10
13.1842063051
 20
-1.1229890919
 10
13.1294005287
 20
-1.2414463994
 10
13.0691143391
 20
-1.3572911861
 10
13.0034378339
 20
-1.4705664016
 10
12.9334626955
 20
-1.5793891723
 10
12.8591170734
 20
-1.6836850769
 10
12.7804728181
 20
-1.7835285368
 10
12.6988371633
 20
-1.8772599425
 10
12.6141601086
 20
-1.9647771329
 10
12.5264916544
 20
-2.0461822691
 10
12.4372890358
 20
-2.1201222258
 10
12.3465266097
 20
-2.1864722246
 10
12.2542300191
 20
-2.2453570437
 10
12.1619334285
 20
-2.2957978932
 10
12.0696368379
 20
-2.3376536343
 10
11.9773402473
 20
-2.3710654058
 10
11.8865778211
 20
-2.3954778332
 10
11.7973752025
 20
-2.4107404951
 10
11.7097067483
 20
-2.417003813
 10
11.6250296937
 20
-2.4141636773
 10
11.5433940388
 20
-2.4020679264
 10
11.4647497835
 20
-2.3808687219
 10
11.4194713082
 20
-2.3626281976
  0
LWPOLYLINE
  5
561
100
AcDbEntity
  8
0
100
AcDbPolyline
 62
7
  6
CONTINUOUS
 90
9
 70
0
 10
15.7149505154
 20
7.5695991919
 10
15.7107441967
 20
7.5087911708
 10
15.6961892133
 20
7.4413495328
 10
15.6710419138
 20
7.3746939075
 10
15.6354908914
 20
7.3088101346
 10
15.5901776657
 20
7.2448800478
 10
15.5353160766
 20
7.1832975919
 10
15.4706922844
 20
7.1236688221
 10
15.3963062889
 20
7.0659937385
  0
LINE
  5
562
100
AcDbEntity
  8
ASSI
100
AcDbLine
 62
7
  6
CONTINUOUS
 10
17.2278063541
 20
3.2972422949
 11
16.7934828452
 21
2.0162095605
  0
LINE
  5
563
100
AcDbEntity
  8
ASSI
100
AcDbLine
 62
253
  6
CONTINUOUS
 10
-1.6370720807
 20
-23.4238552894
 11
-1.0042818713
 21
-22.6785421233
  0
LINE
  5
564
100
AcDbEntity
  8
ASSI
100
AcDbLine
 62
253
  6
CONTINUOUS
 10
-1.4274297285
 20
-23.6104339304
 11
-0.6906219243
 21
-22.7426067277
  0
LINE
  5
565
100
AcDbEntity
  8
ASSI
100
AcDbLine
 62
7
  6
CONTINUOUS
 10
0.565382217
 20
-20.5699352427
 11
1.2910052409
 21
-19.7256399735
  0
LINE
  5
566
100
AcDbEntity
  8
CURVE
100
AcDbLine
 62
253
  6
CONTINUOUS
 10
6.5270403207
 20
-12.3442042318
 11
7.2279762745
 21
-11.9875654275
  0
LINE
  5
567
100
AcDbEntity
  8
CURVE
100
AcDbLine
 62
253
  6
CONTINUOUS
 10
4.8447940316
 20
-13.6331500639
 11
6.5270403207
 21
-12.7772169336
  0
LINE
  5
568
100
AcDbEntity
  8
CURVE
100
AcDbLine
 62
253
  6
CONTINUOUS
 10
3.9836444459
 20
-14.5043188583
 11
4.183911661
 21
-14.4024221589
  0
LINE
  5
569
100
AcDbEntity
  8
CURVE
100
AcDbLine
 62
253
  6
CONTINUOUS
 10
3.072427706
 20
-15.0298086324
 11
3.2726949211
 21
-14.9279119331
  0
LINE
  5
56A
100
AcDbEntity
  8
CURVE
100
AcDbLine
 62
253
  6
CONTINUOUS
 10
2.1111438118
 20
-15.6013919585
 11
2.4616117887
 21
-15.4230725564
  0
LINE
  5
56B
100
AcDbEntity
  8
CURVE
100
AcDbLine
 62
253
  6
CONTINUOUS
 10
4.183911661
 20
-14.8354348608
 11
3.9335772916
 21
-14.9628059133
  0
LINE
  5
56C
100
AcDbEntity
  8
CURVE
100
AcDbLine
 62
253
  6
CONTINUOUS
 10
2.6718925748
 20
-15.604755761
 11
2.9722933975
 21
-15.451910712
  0
LINE
  5
56D
100
AcDbEntity
  8
ASSI
100
AcDbLine
 62
7
  6
CONTINUOUS
 10
1.2601464034
 20
15.6628564042
 11
0.565382217
 21
15.8031317162
  0
LINE
  5
56E
100
AcDbEntity
  8
ASSI
100
AcDbLine
 62
7
  6
CONTINUOUS
 10
1.2910052409
 20
15.6474269855
 11
0.565382217
 21
15.8031317162
  0
LWPOLYLINE
  5
56F
100
AcDbEntity
  8
ASSI
100
AcDbPolyline
 62
7
  6
CONTINUOUS
 90
4
 70
0
 10
-1.6605617314
 20
17.5088742635
 10
-1.651573462
 20
17.5046308313
 10
-1.6298196036
 20
17.4963113544
 10
-1.60792097
 20
17.4904770516
  0
LWPOLYLINE
  5
570
100
AcDbEntity
  8
ASSI
100
AcDbPolyline
 62
7
  6
CONTINUOUS
 90
4
 70
0
 10
-14.2471064336
 20
23.802145901
 10
-14.2410561032
 20
23.7992342148
 10
-14.2179554667
 20
23.790097977
 10
-14.1944466228
 20
23.7837255173
  0
LINE
  5
571
100
AcDbEntity
  8
ASSI
100
AcDbLine
 62
7
  6
CONTINUOUS
 10
-2.6612375115
 20
16.7476440223
 11
-2.8548017976
 21
16.8444261653
  0
LINE
  5
572
100
AcDbEntity
  8
ASSI
100
AcDbLine
 62
7
  6
CONTINUOUS
 10
-15.2477382166
 20
23.0408943749
 11
-15.4413025027
 21
23.1376765179
  0
LINE
  5
573
100
AcDbEntity
  8
ASSI
100
AcDbLine
 62
7
  6
CONTINUOUS
 10
-15.6472632397
 20
23.9931501358
 11
-15.5145258074
 21
23.9267814197
  0
LINE
  5
574
100
AcDbEntity
  8
ASSI
100
AcDbLine
 62
7
  6
CONTINUOUS
 10
-14.354570866
 20
23.346803949
 11
-14.0529427354
 21
23.1959898836
  0
LINE
  5
575
100
AcDbEntity
  8
ASSI
100
AcDbLine
 62
7
  6
CONTINUOUS
 10
-3.0607625346
 20
17.6998997832
 11
-2.9280251023
 21
17.6335310671
  0
LINE
  5
576
100
AcDbEntity
  8
ASSI
100
AcDbLine
 62
7
  6
CONTINUOUS
 10
-1.7680701609
 20
17.0535535964
 11
-1.0410632122
 21
16.690050122
  0
LINE
  5
577
100
AcDbEntity
  8
ASSI
100
AcDbLine
 62
7
  6
CONTINUOUS
 10
1.2910052409
 20
15.6474269855
 11
1.2601464034
 21
15.6628564042
  0
LINE
  5
578
100
AcDbEntity
  8
ASSI
100
AcDbLine
 62
7
  6
CONTINUOUS
 10
-1.6605629909
 20
17.5088741556
 11
-2.4617209491
 21
17.9094531346
  0
LINE
  5
579
100
AcDbEntity
  8
ASSI
100
AcDbLine
 62
7
  6
CONTINUOUS
 10
-2.9295945357
 20
18.1433899279
 11
-3.7255238006
 21
18.5413545604
  0
LINE
  5
57A
100
AcDbEntity
  8
ASSI
100
AcDbLine
 62
7
  6
CONTINUOUS
 10
-14.2469524704
 20
23.8020689967
 11
-15.0482216542
 21
24.2027034872
  0
LINE
  5
57B
100
AcDbEntity
  8
ASSI
100
AcDbLine
 62
7
  6
CONTINUOUS
 10
-15.5160952408
 20
24.4366402805
 11
-16.3120304305
 21
24.8346078754
  0
LINE
  5
57C
100
AcDbEntity
  8
ASSI
100
AcDbLine
 62
253
  6
CONTINUOUS
 10
-15.4413025027
 20
24.5019757134
 11
-16.376771021
 21
24.969727323
  0
LINE
  5
57D
100
AcDbEntity
  8
ASSI
100
AcDbLine
 62
253
  6
CONTINUOUS
 10
-2.8548017976
 20
18.2087253608
 11
-3.7902703159
 21
18.67645962
  0
LINE
  5
57E
100
AcDbEntity
  8
ASSI
100
AcDbLine
 62
253
  6
CONTINUOUS
 10
-14.3122696983
 20
23.9374593112
 11
-15.2477382166
 21
24.4051935703
  0
LINE
  5
57F
100
AcDbEntity
  8
ASSI
100
AcDbLine
 62
253
  6
CONTINUOUS
 10
-1.7257689932
 20
17.6442263026
 11
-2.6612375115
 21
18.1119432178
  0
LINE
  5
580
100
AcDbEntity
  8
ASSI
100
AcDbLine
 62
7
  6
CONTINUOUS
 10
-4.6355769456
 20
19.2398002381
 11
-6.9262253427
 21
20.3851244367
  0
LINE
  5
581
100
AcDbEntity
  8
ASSI
100
AcDbLine
 62
7
  6
CONTINUOUS
 10
-8.3478875468
 20
21.0959555387
 11
-10.6385359439
 21
22.2412797373
  0
LINE
  5
582
100
AcDbEntity
  8
ASSI
100
AcDbLine
 62
253
  6
CONTINUOUS
 10
-1.7257689932
 20
17.961477759
 11
-3.7902703159
 21
18.9937284203
  0
LINE
  5
583
100
AcDbEntity
  8
ASSI
100
AcDbLine
 62
253
  6
CONTINUOUS
 10
-14.3122696983
 20
24.2547306112
 11
-16.376771021
 21
25.2869787729
  0
LINE
  5
584
100
AcDbEntity
  8
ASSI
100
AcDbLine
 62
7
  6
CONTINUOUS
 10
-12.3746718787
 20
23.4855943294
 11
-10.6971145877
 21
22.6468156839
  0
LINE
  5
585
100
AcDbEntity
  8
ASSI
100
AcDbLine
 62
7
  6
CONTINUOUS
 10
-7.8491884791
 20
21.2228526296
 11
-6.9848039865
 21
20.7906603833
  0
LINE
  5
586
100
AcDbEntity
  8
ASSI
100
AcDbLine
 62
7
  6
CONTINUOUS
 10
-4.1368778779
 20
19.366697329
 11
-3.8098570254
 21
19.2031869027
  0
LINE
  5
587
100
AcDbEntity
  8
ASSI
100
AcDbLine
 62
253
  6
CONTINUOUS
 10
-1.5514711173
 20
18.2644937136
 11
-3.6171851587
 21
19.2973507343
  0
LINE
  5
588
100
AcDbEntity
  8
ASSI
100
AcDbLine
 62
253
  6
CONTINUOUS
 10
-14.1379718224
 20
24.5577440661
 11
-16.2036858638
 21
25.5906010868
  0
LWPOLYLINE
  5
589
100
AcDbEntity
  8
ASSI
100
AcDbPolyline
 62
253
  6
CONTINUOUS
 90
19
 70
0
 10
-14.2471082201
 20
23.8021467812
 10
-14.2488459063
 20
23.8030392191
 10
-14.2550221511
 20
23.8065958165
 10
-14.261053262
 20
23.8107060045
 10
-14.2669101556
 20
23.8153885885
 10
-14.2725623401
 20
23.8206604901
 10
-14.2779564865
 20
23.826511398
 10
-14.2830647048
 20
23.8329480726
 10
-14.2878585715
 20
23.8399748544
 10
-14.2922921907
 20
23.8475621212
 10
-14.29634191
 20
23.855703493
 10
-14.2999845483
 20
23.864390324
 10
-14.3031855736
 20
23.8735746146
 10
-14.305928391
 20
23.8832374768
 10
-14.3081976686
 20
23.8933585655
 10
-14.3099731739
 20
23.9038747934
 10
-14.3112461559
 20
23.9147437866
 10
-14.3120131925
 20
23.9259489148
 10
-14.3122696983
 20
23.9374593112
  0
LWPOLYLINE
  5
58A
100
AcDbEntity
  8
ASSI
100
AcDbPolyline
 62
7
  6
CONTINUOUS
 90
9
 70
0
 10
-15.0477938557
 20
24.202492912
 10
-15.0708266713
 20
24.2153436536
 10
-15.1008960241
 20
24.2358206076
 10
-15.1295970735
 20
24.2592327633
 10
-15.1568817892
 20
24.2850338077
 10
-15.1823654335
 20
24.3128468715
 10
-15.2058880644
 20
24.342380974
 10
-15.2276526339
 20
24.3732731918
 10
-15.2477382166
 20
24.4051935703
  0
LWPOLYLINE
  5
58B
100
AcDbEntity
  8
ASSI
100
AcDbPolyline
 62
7
  6
CONTINUOUS
 90
9
 70
0
 10
-2.4612931506
 20
17.9092425594
 10
-2.4843259662
 20
17.922093301
 10
-2.514395319
 20
17.942570255
 10
-2.5430963684
 20
17.9659824107
 10
-2.570381084
 20
17.9917834552
 10
-2.5958647284
 20
18.0195965189
 10
-2.6193873593
 20
18.0491306214
 10
-2.6411519288
 20
18.0800228392
 10
-2.6612375115
 20
18.1119432178
  0
LWPOLYLINE
  5
58C
100
AcDbEntity
  8
ASSI
100
AcDbPolyline
 62
253
  6
CONTINUOUS
 90
7
 70
0
 10
-3.7902703159
 20
18.67645962
 10
-3.8073423835
 20
18.6861788343
 10
-3.8217624274
 20
18.6969185999
 10
-3.833289162
 20
18.7084992114
 10
-3.8417297142
 20
18.7207268938
 10
-3.8469428515
 20
18.7333970449
 10
-3.8488489524
 20
18.7471432349
  0
LWPOLYLINE
  5
58D
100
AcDbEntity
  8
ASSI
100
AcDbPolyline
 62
253
  6
CONTINUOUS
 90
7
 70
0
 10
-3.7902703159
 20
18.9937284203
 10
-3.8073423785
 20
19.0034476314
 10
-3.8217624199
 20
19.0141873938
 10
-3.833289154
 20
19.0257680023
 10
-3.8417297077
 20
19.0379956822
 10
-3.8469428478
 20
19.0506658317
 10
-3.8488489505
 20
19.0644087814
  0
LWPOLYLINE
  5
58E
100
AcDbEntity
  8
ASSI
100
AcDbPolyline
 62
253
  6
CONTINUOUS
 90
7
 70
0
 10
-10.6385359439
 20
23.4285525186
 10
-10.6556080065
 20
23.4382717297
 10
-10.6700280479
 20
23.4490114921
 10
-10.681554782
 20
23.4605921006
 10
-10.6899953357
 20
23.4728197805
 10
-10.6952084758
 20
23.48548993
 10
-10.6971145877
 20
23.4992631967
  0
LWPOLYLINE
  5
58F
100
AcDbEntity
  8
ASSI
100
AcDbPolyline
 62
253
  6
CONTINUOUS
 90
7
 70
0
 10
-6.9262253427
 20
21.572397218
 10
-6.9432974052
 20
21.5821164291
 10
-6.9577174466
 20
21.5928561914
 10
-6.9692441808
 20
21.6044368
 10
-6.9776847345
 20
21.6166644799
 10
-6.9828978745
 20
21.6293346293
 10
-6.9848039865
 20
21.6431078961
  0
LWPOLYLINE
  5
590
100
AcDbEntity
  8
ASSI
100
AcDbPolyline
 62
7
  6
CONTINUOUS
 90
16
 70
0
 10
0.2118314881
 20
17.1923452011
 10
0.2481175769
 20
17.1714702669
 10
0.2842499114
 20
17.1460755678
 10
0.3198176616
 20
17.1163782516
 10
0.3545415448
 20
17.0825184921
 10
0.3878686263
 20
17.0449245667
 10
0.4190476578
 20
17.0044397833
 10
0.4475499989
 20
16.9619547422
 10
0.4733913975
 20
16.9176460911
 10
0.4966396467
 20
16.8713318987
 10
0.5171554302
 20
16.8230716184
 10
0.5344155645
 20
16.7737657157
 10
0.5479509063
 20
16.72447745
 10
0.5576098735
 20
16.675928361
 10
0.5634229255
 20
16.6284742414
 10
0.565382217
 20
16.5826205296
  0
LWPOLYLINE
  5
591
100
AcDbEntity
  8
ASSI
100
AcDbPolyline
 62
253
  6
CONTINUOUS
 90
9
 70
0
 10
-16.3120175123
 20
24.8346014165
 10
-16.3215079008
 20
24.840064033
 10
-16.3355571384
 20
24.8512932249
 10
-16.3477879451
 20
24.8653257435
 10
-16.3580317591
 20
24.8819736833
 10
-16.3661471759
 20
24.9010096519
 10
-16.3720236391
 20
24.9221747873
 10
-16.3755811865
 20
24.9451843514
 10
-16.376771012
 20
24.9697273191
  0
LWPOLYLINE
  5
592
100
AcDbEntity
  8
ASSI
100
AcDbPolyline
 62
253
  6
CONTINUOUS
 90
13
 70
0
 10
-14.1379718224
 20
24.5577440661
 10
-14.1198198902
 20
24.5468793323
 10
-14.101936208
 20
24.533259544
 10
-14.0846266522
 20
24.5171176494
 10
-14.0681872793
 20
24.4987297338
 10
-14.0528992627
 20
24.4784102977
 10
-14.0390240833
 20
24.4565068777
 10
-14.0267990573
 20
24.4333941022
 10
-14.0164332773
 20
24.4094672842
 10
-14.008104036
 20
24.3851356595
 10
-14.0019537938
 20
24.3608153879
 10
-13.9980877424
 20
24.3369224347
 10
-13.9965720054
 20
24.3138654568
  0
LWPOLYLINE
  5
593
100
AcDbEntity
  8
0
100
AcDbPolyline
 62
7
  6
CONTINUOUS
 90
11
 70
0
 10
15.2957323551
 20
8.1376444988
 10
15.3791591127
 20
8.0848712251
 10
15.454827285
 20
8.0285841146
 10
15.5213885821
 20
7.9694843322
 10
15.5790018955
 20
7.9076230908
 10
15.626630129
 20
7.8441096771
 10
15.6640923784
 20
7.7789139501
 10
15.6915695479
 20
7.7120660507
 10
15.7085672545
 20
7.6447656884
 10
15.7148954571
 20
7.5770046611
 10
15.7149505154
 20
7.5695991919
  0
LINE
  5
594
100
AcDbEntity
  8
CURVE
100
AcDbLine
 62
253
  6
CONTINUOUS
 10
14.2273224193
 20
9.3891074437
 11
13.976988165
 21
9.5710312829
  0
LINE
  5
595
100
AcDbEntity
  8
CURVE
100
AcDbLine
 62
253
  6
CONTINUOUS
 10
14.2273224193
 20
8.4612231378
 11
14.0187105407
 21
8.6643754115
  0
LINE
  5
596
100
AcDbEntity
  8
ASSI
100
AcDbLine
 62
7
  6
CONTINUOUS
 10
15.0257158923
 20
1.132326084
 11
14.9550052141
 21
1.2701758257
  0
LINE
  5
597
100
AcDbEntity
  8
0
100
AcDbLine
 62
7
  6
CONTINUOUS
 10
16.051020725
 20
-2.2929596334
 11
16.051020725
 21
-1.7944826194
  0
LINE
  5
598
100
AcDbEntity
  8
0
100
AcDbLine
 62
7
  6
CONTINUOUS
 10
16.7581275062
 20
-2.1337495518
 11
16.7581275062
 21
-1.4409292288
  0
LINE
  5
599
100
AcDbEntity
  8
0
100
AcDbLine
 62
7
  6
CONTINUOUS
 10
17.1470362358
 20
3.0590116595
 11
17.1470362358
 21
-0.5393680828
  0
LINE
  5
59A
100
AcDbEntity
  8
CURVE
100
AcDbLine
 62
253
  6
CONTINUOUS
 10
17.3565008068
 20
10.362655437
 11
17.3565008068
 21
10.6719502056
  0
LINE
  5
59B
100
AcDbEntity
  8
0
100
AcDbLine
 62
7
  6
CONTINUOUS
 10
17.854143017
 20
-0.8929214733
 11
17.854143017
 21
3.6104106263
  0
LINE
  5
59C
100
AcDbEntity
  8
0
100
AcDbLine
 62
7
  6
CONTINUOUS
 10
18.4905391201
 20
-0.5747234218
 11
18.4905391201
 21
3.9286086779
  0
LWPOLYLINE
  5
59D
100
AcDbEntity
  8
ASSI
100
AcDbPolyline
 62
7
  6
CONTINUOUS
 90
13
 70
0
 10
18.5612497982
 20
2.9000930369
 10
18.5606227318
 20
2.8775909123
 10
18.5588111507
 20
2.8559696129
 10
18.5558150548
 20
2.8352291387
 10
18.5516115354
 20
2.8152884512
 10
18.5462235013
 20
2.796228589
 10
18.5397196787
 20
2.7782926671
 10
18.5320857746
 20
2.761495083
 10
18.5233360819
 20
2.7458214393
 10
18.5135822062
 20
2.7314716588
 10
18.502811284
 20
2.7184626998
 10
18.4910361786
 20
2.7067776041
 10
18.4905391201
 20
2.7063756707
  0
LWPOLYLINE
  5
59E
100
AcDbEntity
  8
ASSI
100
AcDbPolyline
 62
7
  6
CONTINUOUS
 90
31
 70
0
 10
16.9349042015
 20
1.6062319499
 10
16.9312841065
 20
1.4901294864
 10
16.9209423979
 20
1.3725451761
 10
16.9038790757
 20
1.2534790191
 10
16.8799241704
 20
1.1322511168
 10
16.8492476515
 20
1.0095413677
 10
16.8123594276
 20
0.8873894673
 10
16.7691556718
 20
0.7658047399
 10
16.719740211
 20
0.6447778611
 10
16.6649344346
 20
0.5263205535
 10
16.604648245
 20
0.4104757668
 10
16.5389717399
 20
0.2972005514
 10
16.4689966015
 20
0.1883777806
 10
16.3946509793
 20
0.084081876
 10
16.316006724
 20
-0.0157615838
 10
16.2343710692
 20
-0.1094929896
 10
16.1496940145
 20
-0.1970101799
 10
16.0620255604
 20
-0.2784153162
 10
15.9728229418
 20
-0.3523552729
 10
15.8820605156
 20
-0.4187052716
 10
15.789763925
 20
-0.4775900908
 10
15.6974673344
 20
-0.5280309402
 10
15.6051707438
 20
-0.5698866814
 10
15.5128741532
 20
-0.6032984528
 10
15.422111727
 20
-0.6277108802
 10
15.3329091084
 20
-0.6429735421
 10
15.2452406543
 20
-0.64923686
 10
15.1605635996
 20
-0.6463967244
 10
15.0789279448
 20
-0.6343009734
 10
15.0002836894
 20
-0.6131017689
 10
14.9550052141
 20
-0.5948612446
  0
LWPOLYLINE
  5
59F
100
AcDbEntity
  8
ASSI
100
AcDbPolyline
 62
7
  6
CONTINUOUS
 90
10
 70
0
 10
16.7934828452
 20
2.0162095605
 10
16.7917690564
 20
1.9801478574
 10
16.787146024
 20
1.9467447773
 10
16.7796137479
 20
1.9160003201
 10
16.7690451295
 20
1.8876612533
 10
16.7555672674
 20
1.8619808094
 10
16.7395614579
 20
1.8397186866
 10
16.72089849
 20
1.8209423583
 10
16.6997075746
 20
1.8055843511
 10
16.6893715979
 20
1.7998457407
  0
LINE
  5
5A0
100
AcDbEntity
  8
ASSI
100
AcDbLine
 62
7
  6
CONTINUOUS
 10
20.76334026
 20
5.0650092478
 11
20.3290167512
 21
3.7839765134
  0
LWPOLYLINE
  5
5A1
100
AcDbEntity
  8
ASSI
100
AcDbPolyline
 62
7
  6
CONTINUOUS
 90
3
 70
0
 10
-2.6612375115
 20
-23.1876609216
 10
-2.6415785812
 20
-23.1731128757
 10
-2.6197349702
 20
-23.1580598094
  0
LWPOLYLINE
  5
5A2
100
AcDbEntity
  8
ASSI
100
AcDbPolyline
 62
7
  6
CONTINUOUS
 90
9
 70
0
 10
0.4475805551
 20
-21.613137526
 10
0.4734163341
 20
-21.5944311863
 10
0.4966595422
 20
-21.5710618764
 10
0.5171618912
 20
-21.5429314663
 10
0.5344056518
 20
-21.5104481108
 10
0.547954072
 20
-21.4743304741
 10
0.5576445024
 20
-21.4351878115
 10
0.5634658575
 20
-21.3933649236
 10
0.565382217
 20
-21.3493579025
  0
LWPOLYLINE
  5
5A3
100
AcDbEntity
  8
RACCORDO
100
AcDbPolyline
 62
7
  6
CONTINUOUS
 90
11
 70
0
 10
5.9866925577
 20
-16.1354247935
 10
6.0043059162
 20
-16.1237274495
 10
6.0201835119
 20
-16.1129791191
 10
6.0343253449
 20
-16.1031798022
 10
6.0467929834
 20
-16.0942709796
 10
6.0575248593
 20
-16.0863111705
 10
6.0663362678
 20
-16.0794759327
 10
6.0731224754
 20
-16.0738393486
 10
6.0779882157
 20
-16.069327336
 10
6.0810629851
 20
-16.0658932051
 10
6.0823591899
 20
-16.0635210145
  0
LWPOLYLINE
  5
5A4
100
AcDbEntity
  8
ASSI
100
AcDbPolyline
 62
7
  6
CONTINUOUS
 90
4
 70
0
 10
-2.6197349702
 20
-23.1580598094
 10
-2.5433062265
 20
-23.1077470811
 10
-2.514395319
 20
-23.0897126446
 10
-2.4520322062
 20
-23.0524419313
  0
LWPOLYLINE
  5
5A5
100
AcDbEntity
  8
RACCORDO
100
AcDbPolyline
 62
7
  6
CONTINUOUS
 90
5
 70
0
 10
5.7582341168
 20
-16.2824712571
 10
5.8150434352
 20
-16.2464574136
 10
5.8719801376
 20
-16.2099858907
 10
5.9291965118
 20
-16.1729750173
 10
5.9866925577
 20
-16.1354247935
  0
LINE
  5
5A6
100
AcDbEntity
  8
ASSI
100
AcDbLine
 62
7
  6
CONTINUOUS
 10
-2.4520322062
 20
-23.0524419313
 11
-2.419756055
 21
-23.0325133023
  0
LWPOLYLINE
  5
5A7
100
AcDbEntity
  8
RACCORDO
100
AcDbPolyline
 62
7
  6
CONTINUOUS
 90
3
 70
0
 10
5.5908631175
 20
-16.3865356663
 10
5.6459113585
 20
-16.3526358801
 10
5.7582341168
 20
-16.2824712571
  0
LWPOLYLINE
  5
5A8
100
AcDbEntity
  8
RACCORDO
100
AcDbPolyline
 62
7
  6
CONTINUOUS
 90
3
 70
0
 10
5.4314584148
 20
-16.4828303301
 10
5.4834080956
 20
-16.4517550788
 10
5.5908631175
 20
-16.3865356663
  0
LWPOLYLINE
  5
5A9
100
AcDbEntity
  8
RACCORDO
100
AcDbPolyline
 62
7
  6
CONTINUOUS
 90
11
 70
0
 10
4.9626500092
 20
-16.746167061
 10
4.9968547768
 20
-16.7283600957
 10
5.0327445159
 20
-16.7093386691
 10
5.0703192265
 20
-16.6891027813
 10
5.109568966
 20
-16.667667706
 10
5.150503677
 20
-16.6450181694
 10
5.1931531875
 20
-16.6211083501
 10
5.2375908698
 20
-16.5958984103
 10
5.2837433517
 20
-16.5694281877
 10
5.3314203441
 20
-16.5417713741
 10
5.4314584148
 20
-16.4828303301
  0
LINE
  5
5AA
100
AcDbEntity
  8
DRAFT
100
AcDbLine
 62
7
  6
CONTINUOUS
 10
24.4009071424
 20
-6.4615895181
 11
1.0007560313
 21
-18.6199799327
  0
LINE
  5
5AB
100
AcDbEntity
  8
ASSI
100
AcDbLine
 62
7
  6
CONTINUOUS
 10
24.4009071424
 20
-6.4615895181
 11
1.0007560313
 21
-18.6199799327
  0
LINE
  5
5AC
100
AcDbEntity
  8
ASSI
100
AcDbLine
 62
7
  6
CONTINUOUS
 10
4.9626500092
 20
-16.746167061
 11
1.0103483576
 21
-18.7862734262
  0
LINE
  5
5AD
100
AcDbEntity
  8
RACCORDO
100
AcDbLine
 62
7
  6
CONTINUOUS
 10
6.0325874184
 20
-16.0822537038
 11
1.0040036803
 21
-18.6538275659
  0
LINE
  5
5AE
100
AcDbEntity
  8
0
100
AcDbLine
 62
7
  6
CONTINUOUS
 10
1.2910052409
 20
-18.9266018678
 11
1.0007560313
 21
-19.0643199755
  0
LINE
  5
5AF
100
AcDbEntity
  8
ASSI
100
AcDbLine
 62
7
  6
CONTINUOUS
 10
-1.6078641805
 20
17.4904577748
 11
-0.9674768921
 21
17.3546114307
  0
LINE
  5
5B0
100
AcDbEntity
  8
ASSI
100
AcDbLine
 62
253
  6
CONTINUOUS
 10
-1.4274297285
 20
17.614170209
 11
-0.6906219243
 21
17.457870032
  0
LWPOLYLINE
  5
5B1
100
AcDbEntity
  8
ASSI
100
AcDbPolyline
 62
253
  6
CONTINUOUS
 90
7
 70
0
 10
-3.6171851587
 20
19.2973507343
 10
-3.6359388955
 20
19.3049388307
 10
-3.6543296559
 20
19.3094562531
 10
-3.6720428903
 20
19.310825739
 10
-3.6887756382
 20
19.3090238669
 10
-3.7042417083
 20
19.3040814574
 10
-3.7095883025
 20
19.3014726274
  0
LWPOLYLINE
  5
5B2
100
AcDbEntity
  8
ASSI
100
AcDbPolyline
 62
253
  6
CONTINUOUS
 90
6
 70
0
 10
-1.5082083498
 20
20.3930278253
 10
-1.5263602821
 20
20.4009168037
 10
-1.5442439643
 20
20.4056877564
 10
-1.5615535201
 20
20.4072590827
 10
-1.577992893
 20
20.4056039072
 10
-1.5942917554
 20
20.4002971099
  0
LWPOLYLINE
  5
5B3
100
AcDbEntity
  8
ASSI
100
AcDbPolyline
 62
253
  6
CONTINUOUS
 90
13
 70
0
 10
-14.3122696983
 20
23.9374593112
 10
-14.2928312762
 20
23.9289232799
 10
-14.2713517515
 20
23.9217132592
 10
-14.2481905344
 20
23.9159498921
 10
-14.2237351745
 20
23.9117296153
 10
-14.1983948757
 20
23.9091230452
 10
-14.1725936492
 20
23.908173797
 10
-14.1467632191
 20
23.9088977539
 10
-14.1213357978
 20
23.9112828024
 10
-14.0967368546
 20
23.915289034
 10
-14.0733779959
 20
23.9208494138
 10
-14.0516500782
 20
23.9278709017
 10
-14.031916668
 20
23.9362360092
  0
LWPOLYLINE
  5
5B4
100
AcDbEntity
  8
ASSI
100
AcDbPolyline
 62
253
  6
CONTINUOUS
 90
13
 70
0
 10
-14.3122696983
 20
24.2547281115
 10
-14.2928312676
 20
24.2461920769
 10
-14.2713517343
 20
24.2389820545
 10
-14.2481905096
 20
24.2332186872
 10
-14.2237351433
 20
24.2289984113
 10
-14.1983948401
 20
24.2263918431
 10
-14.172593612
 20
24.2254425971
 10
-14.146763183
 20
24.2261665564
 10
-14.1213357655
 20
24.2285516068
 10
-14.0967368284
 20
24.2325578395
 10
-14.0733779776
 20
24.2381182192
 10
-14.0516500689
 20
24.2451397055
 10
-14.031916668
 20
24.2535048096
  0
LWPOLYLINE
  5
5B5
100
AcDbEntity
  8
ASSI
100
AcDbPolyline
 62
253
  6
CONTINUOUS
 90
13
 70
0
 10
-4.6355769456
 20
20.4270730195
 10
-4.6161385574
 20
20.4185370015
 10
-4.5946590667
 20
20.4113269876
 10
-4.5714978805
 20
20.4055636216
 10
-4.5470425464
 20
20.4013433412
 10
-4.5217022657
 20
20.3987367641
 10
-4.4959010459
 20
20.3977875065
 10
-4.4700706087
 20
20.3985114542
 10
-4.4446431689
 20
20.4008964953
 10
-4.4200441998
 20
20.4049027232
 10
-4.3966853104
 20
20.4104631036
 10
-4.3749573591
 20
20.4174845976
 10
-4.3552239153
 20
20.4258497175
  0
LWPOLYLINE
  5
5B6
100
AcDbEntity
  8
ASSI
100
AcDbPolyline
 62
253
  6
CONTINUOUS
 90
13
 70
0
 10
-8.3478875468
 20
22.2832283201
 10
-8.3284491587
 20
22.2746923021
 10
-8.3069696679
 20
22.2674822882
 10
-8.2838084817
 20
22.2617189222
 10
-8.2593531476
 20
22.2574986418
 10
-8.2340128669
 20
22.2548920647
 10
-8.2082116471
 20
22.2539428071
 10
-8.1823812099
 20
22.2546667548
 10
-8.1569537702
 20
22.2570517959
 10
-8.132354801
 20
22.2610580238
 10
-8.1089959117
 20
22.2666184042
 10
-8.0872679604
 20
22.2736398982
 10
-8.0675345165
 20
22.2820050182
  0
LWPOLYLINE
  5
5B7
100
AcDbEntity
  8
ASSI
100
AcDbPolyline
 62
253
  6
CONTINUOUS
 90
12
 70
0
 10
-1.3990880695
 20
20.3984176239
 10
-1.4076371135
 20
20.402179231
 10
-1.4165236106
 20
20.4050902096
 10
-1.4257701501
 20
20.4071629969
 10
-1.4353463737
 20
20.4083865003
 10
-1.4452088644
 20
20.4087519014
 10
-1.4553223444
 20
20.408256047
 10
-1.4656497983
 20
20.4068989575
 10
-1.4761422065
 20
20.4046864458
 10
-1.4867569933
 20
20.4016287428
 10
-1.4974588225
 20
20.3977374614
 10
-1.5082083498
 20
20.3930278253
  0
LWPOLYLINE
  5
5B8
100
AcDbEntity
  8
ASSI
100
AcDbPolyline
 62
253
  6
CONTINUOUS
 90
14
 70
0
 10
-6.7519221752
 20
21.8406722235
 10
-6.7604689076
 20
21.8445821039
 10
-6.7692528291
 20
21.8480897391
 10
-6.7782491102
 20
21.8511388535
 10
-6.7874491436
 20
21.8536767545
 10
-6.7967993618
 20
21.8556366041
 10
-6.8062037862
 20
21.8569521096
 10
-6.8156245954
 20
21.8575768596
 10
-6.8250202283
 20
21.8574653965
 10
-6.8342911282
 20
21.8565811374
 10
-6.8433958055
 20
21.854896166
 10
-6.8522903474
 20
21.8523853301
 10
-6.8608798047
 20
21.8490485953
 10
-6.8672557388
 20
21.8459166006
  0
LWPOLYLINE
  5
5B9
100
AcDbEntity
  8
ASSI
100
AcDbPolyline
 62
253
  6
CONTINUOUS
 90
14
 70
0
 10
-10.4642327764
 20
23.6968275241
 10
-10.4727795089
 20
23.7007374045
 10
-10.4815634303
 20
23.7042450397
 10
-10.4905597114
 20
23.7072941542
 10
-10.4997597448
 20
23.7098320552
 10
-10.509109963
 20
23.7117919048
 10
-10.5185143875
 20
23.7131074102
 10
-10.5279351966
 20
23.7137321602
 10
-10.5373308295
 20
23.7136206971
 10
-10.5466017295
 20
23.712736438
 10
-10.5557064068
 20
23.7110514666
 10
-10.5646009486
 20
23.7085406307
 10
-10.5731904059
 20
23.7052038959
 10
-10.57956634
 20
23.7020719012
  0
LINE
  5
5BA
100
AcDbEntity
  8
ASSI
100
AcDbLine
 62
7
  6
CONTINUOUS
 10
-13.9853350515
 20
26.6915401831
 11
-13.9996232708
 21
26.6980797589
  0
LINE
  5
5BB
100
AcDbEntity
  8
ASSI
100
AcDbLine
 62
7
  6
CONTINUOUS
 10
18.7306134624
 20
9.9594020591
 11
18.7380264935
 21
9.9559723748
  0
LINE
  5
5BC
100
AcDbEntity
  8
ASSI
100
AcDbLine
 62
7
  6
CONTINUOUS
 10
-1.3988496794
 20
20.3982972918
 11
-1.4107758233
 21
20.4038399434
  0
LWPOLYLINE
  5
5BD
100
AcDbEntity
  8
ASSI
100
AcDbPolyline
 62
253
  6
CONTINUOUS
 90
28
 70
0
 10
-6.8908753884
 20
21.5980169161
 10
-6.8925715784
 20
21.5988304596
 10
-6.8943047875
 20
21.5995401189
 10
-6.8960750155
 20
21.6001458941
 10
-6.8978931221
 20
21.6006592398
 10
-6.8997482476
 20
21.6010687014
 10
-6.9016078138
 20
21.6013399148
 10
-6.9034728655
 20
21.6014687573
 10
-6.9053423578
 20
21.6014593517
 10
-6.9071805784
 20
21.6012897022
 10
-6.9089872022
 20
21.6009544921
 10
-6.9107625543
 20
21.600459038
 10
-6.9124718969
 20
21.5997972938
 10
-6.9141128457
 20
21.5989642364
 10
-6.9156877851
 20
21.5979648889
 10
-6.9171691308
 20
21.5968082742
 10
-6.9185534971
 20
21.5954918571
 10
-6.9198442699
 20
21.5940181727
 10
-6.9210240226
 20
21.5924038491
 10
-6.9220907315
 20
21.5906474014
 10
-6.9230464204
 20
21.5887503146
 10
-6.9238797338
 20
21.5867336712
 10
-6.9245891712
 20
21.5845959085
 10
-6.9251762332
 20
21.5823385893
 10
-6.9256340666
 20
21.5799874836
 10
-6.9259603872
 20
21.5775511815
 10
-6.9261574792
 20
21.575021093
 10
-6.9262253427
 20
21.572397218
  0
LWPOLYLINE
  5
5BE
100
AcDbEntity
  8
ASSI
100
AcDbPolyline
 62
253
  6
CONTINUOUS
 90
28
 70
0
 10
-10.6031859897
 20
23.4541722167
 10
-10.6048821797
 20
23.4549857602
 10
-10.6066153887
 20
23.4556954196
 10
-10.6083856168
 20
23.4563011948
 10
-10.6102037233
 20
23.4568145405
 10
-10.6120588488
 20
23.457224002
 10
-10.6139184151
 20
23.4574952154
 10
-10.6157834667
 20
23.457624058
 10
-10.6176529591
 20
23.4576146523
 10
-10.6194911796
 20
23.4574450028
 10
-10.6212978035
 20
23.4571097927
 10
-10.6230731555
 20
23.4566143386
 10
-10.6247824982
 20
23.4559525944
 10
-10.6264234469
 20
23.455119537
 10
-10.6279983863
 20
23.4541201896
 10
-10.6294797321
 20
23.4529635748
 10
-10.6308640984
 20
23.4516471577
 10
-10.6321548711
 20
23.4501734733
 10
-10.6333346238
 20
23.4485591497
 10
-10.6344013327
 20
23.4468027021
 10
-10.6353570216
 20
23.4449056152
 10
-10.6361903351
 20
23.4428889718
 10
-10.6368997724
 20
23.4407512091
 10
-10.6374868344
 20
23.4384938899
 10
-10.6379446678
 20
23.4361427842
 10
-10.6382709884
 20
23.4337064821
 10
-10.6384680804
 20
23.4311763936
 10
-10.6385359439
 20
23.4285525186
  0
LWPOLYLINE
  5
5BF
100
AcDbEntity
  8
ASSI
100
AcDbPolyline
 62
253
  6
CONTINUOUS
 90
13
 70
0
 10
0.7028769239
 20
19.3474351308
 10
0.7007017865
 20
19.3484877943
 10
0.6923388518
 20
19.3519190319
 10
0.6836185366
 20
19.3545524679
 10
0.674570761
 20
19.3563777106
 10
0.6652271541
 20
19.3573870664
 10
0.6556238534
 20
19.3575760318
 10
0.6457946878
 20
19.3569437225
 10
0.6357741968
 20
19.3554921367
 10
0.6256013352
 20
19.3532273719
 10
0.6153132999
 20
19.3501586191
 10
0.6049451749
 20
19.3462970539
 10
0.5945334759
 20
19.3416569125
  0
LINE
  5
5C0
100
AcDbEntity
  8
ASSI
100
AcDbLine
 62
7
  6
CONTINUOUS
 10
-12.3746718787
 20
24.1775845809
 11
-11.7065361636
 21
23.8435167234
  0
LINE
  5
5C1
100
AcDbEntity
  8
ASSI
100
AcDbLine
 62
7
  6
CONTINUOUS
 10
0.2118288337
 20
17.8843342247
 11
0.9066468607
 21
17.5369252112
  0
LINE
  5
5C2
100
AcDbEntity
  8
ASSI
100
AcDbLine
 62
7
  6
CONTINUOUS
 10
-7.1544242927
 20
21.5810658166
 11
-6.9848039865
 21
21.4962556635
  0
LINE
  5
5C3
100
AcDbEntity
  8
ASSI
100
AcDbLine
 62
253
  6
CONTINUOUS
 10
-4.6709268999
 20
20.4880426718
 11
-6.8908753884
 21
21.5980169161
  0
LINE
  5
5C4
100
AcDbEntity
  8
ASSI
100
AcDbLine
 62
253
  6
CONTINUOUS
 10
-8.3832375011
 20
22.3441979724
 11
-10.6031859897
 21
23.4541722167
  0
LINE
  5
5C5
100
AcDbEntity
  8
ASSI
100
AcDbLine
 62
253
  6
CONTINUOUS
 10
-4.5319736866
 20
20.7306979792
 11
-6.7519221752
 21
21.8406722235
  0
LINE
  5
5C6
100
AcDbEntity
  8
ASSI
100
AcDbLine
 62
253
  6
CONTINUOUS
 10
-8.2442842878
 20
22.5868532798
 11
-10.4642327764
 21
23.6968275241
  0
LINE
  5
5C7
100
AcDbEntity
  8
ASSI
100
AcDbLine
 62
7
  6
CONTINUOUS
 10
-10.2533784591
 20
23.8105882656
 11
-8.0259382505
 21
22.6968681613
  0
LINE
  5
5C8
100
AcDbEntity
  8
ASSI
100
AcDbLine
 62
7
  6
CONTINUOUS
 10
-6.5410678579
 20
21.954432965
 11
-4.3136276492
 21
20.8407128607
  0
LINE
  5
5C9
100
AcDbEntity
  8
ASSI
100
AcDbLine
 62
7
  6
CONTINUOUS
 10
-14.6374351177
 20
26.4356292968
 11
-12.5160716958
 21
25.3749475859
  0
LINE
  5
5CA
100
AcDbEntity
  8
ASSI
100
AcDbLine
 62
7
  6
CONTINUOUS
 10
-2.0509344125
 20
20.1423789443
 11
0.0704290093
 21
19.0816972333
  0
LINE
  5
5CB
100
AcDbEntity
  8
ASSI
100
AcDbLine
 62
7
  6
CONTINUOUS
 10
-3.9247727675
 20
21.3382756714
 11
-5.8216184819
 21
22.2866985286
  0
LINE
  5
5CC
100
AcDbEntity
  8
ASSI
100
AcDbLine
 62
7
  6
CONTINUOUS
 10
-7.3311740641
 20
23.0414763197
 11
-9.2280197785
 21
23.9898991769
  0
LINE
  5
5CD
100
AcDbEntity
  8
ASSI
100
AcDbLine
 62
253
  6
CONTINUOUS
 10
0.5945334759
 20
19.3416569125
 11
-1.5082083498
 21
20.3930278253
  0
LINE
  5
5CE
100
AcDbEntity
  8
ASSI
100
AcDbLine
 62
253
  6
CONTINUOUS
 10
-11.9919652346
 20
25.6349082544
 11
-14.094709055
 21
26.6862781779
  0
LINE
  5
5CF
100
AcDbEntity
  8
ASSI
100
AcDbLine
 62
7
  6
CONTINUOUS
 10
0.70287323
 20
19.3474369779
 11
-1.3991119334
 21
20.3984295596
  0
LINE
  5
5D0
100
AcDbEntity
  8
ASSI
100
AcDbLine
 62
7
  6
CONTINUOUS
 10
-11.8836469697
 20
25.6406970752
 11
-13.985611846
 21
26.6916795159
  0
LINE
  5
5D1
100
AcDbEntity
  8
0
100
AcDbLine
 62
7
  6
CONTINUOUS
 10
20.7179254808
 20
9.496352967
 11
19.2455808693
 21
10.2325252728
  0
LINE
  5
5D2
100
AcDbEntity
  8
ASSI
100
AcDbLine
 62
7
  6
CONTINUOUS
 10
-13.9856326211
 20
26.6916899001
 11
-13.9853413786
 21
26.691543742
  0
LWPOLYLINE
  5
5D3
100
AcDbEntity
  8
ASSI
100
AcDbPolyline
 62
7
  6
CONTINUOUS
 90
12
 70
0
 10
18.7380264935
 20
9.9559723748
 10
18.8277257654
 20
9.9075026439
 10
18.9091692592
 20
9.8564391883
 10
18.9823569751
 20
9.8027820082
 10
19.0476046884
 20
9.7462032463
 10
19.1045966236
 20
9.6870307598
 10
19.1523854545
 20
9.6262481205
 10
19.1908173535
 20
9.5638284152
 10
19.220046148
 20
9.4997985571
 10
19.2395859937
 20
9.4352228579
 10
19.2492749425
 20
9.3700921939
 10
19.2504860611
 20
9.3372539413
  0
LWPOLYLINE
  5
5D4
100
AcDbEntity
  8
ASSI
100
AcDbPolyline
 62
253
  6
CONTINUOUS
 90
13
 70
0
 10
-11.9919672292
 20
25.634907265
 10
-11.9732135013
 20
25.624343411
 10
-11.9548227479
 20
25.6109771393
 10
-11.9371095183
 20
25.5950370635
 10
-11.9203767732
 20
25.576795818
 10
-11.9049107038
 20
25.5565653962
 10
-11.8909758366
 20
25.5346918145
 10
-11.8788105084
 20
25.5115491928
 10
-11.868622789
 20
25.4875333543
 10
-11.8605869239
 20
25.4630550564
 10
-11.8548403546
 20
25.4385329668
 10
-11.8514813674
 20
25.4143865026
 10
-11.8505674122
 20
25.3910286557
  0
LWPOLYLINE
  5
5D5
100
AcDbEntity
  8
ASSI
100
AcDbPolyline
 62
7
  6
CONTINUOUS
 90
13
 70
0
 10
0.0704290093
 20
19.0816972333
 10
0.0888802777
 20
19.0709847444
 10
0.1070226748
 20
19.057496378
 10
0.1245416473
 20
19.0414605085
 10
0.1411328459
 20
19.023148669
 10
0.1565112905
 20
19.0028735592
 10
0.170416391
 20
18.9809838746
 10
0.182612723
 20
18.9578552475
 10
0.1928892388
 20
18.9338820958
 10
0.2010670701
 20
18.909473678
 10
0.2070074275
 20
18.8850481885
 10
0.2106137645
 20
18.8610255374
 10
0.2118288264
 20
18.837818624
  0
LINE
  5
5D6
100
AcDbEntity
  8
CURVE
100
AcDbLine
 62
253
  6
CONTINUOUS
 10
17.6068350611
 20
10.1807316623
 11
17.3565008068
 21
10.362655437
  0
LINE
  5
5D7
100
AcDbEntity
  8
ASSI
100
AcDbLine
 62
7
  6
CONTINUOUS
 10
18.5612497982
 20
2.9000930369
 11
18.4905391201
 21
3.0379427786
  0
LINE
  5
5D8
100
AcDbEntity
  8
0
100
AcDbLine
 62
7
  6
CONTINUOUS
 10
16.8371649383
 20
2.145049446
 11
16.8530956268
 21
2.1070514449
  0
LWPOLYLINE
  5
5D9
100
AcDbEntity
  8
0
100
AcDbPolyline
 62
7
  6
CONTINUOUS
 90
6
 70
0
 10
16.8530956268
 20
2.1070514449
 10
16.8824002202
 20
2.0165362427
 10
16.9052799134
 20
1.9210531794
 10
16.9215795764
 20
1.8210806307
 10
16.9314543391
 20
1.7161402209
 10
16.9349042015
 20
1.6062319499
  0
LINE
  5
5DA
100
AcDbEntity
  8
0
100
AcDbLine
 62
7
  6
CONTINUOUS
 10
19.5865546309
 20
-0.7195359894
 11
19.5865546309
 21
-0.0267156664
  0
LINE
  5
5DB
100
AcDbEntity
  8
0
100
AcDbLine
 62
7
  6
CONTINUOUS
 10
20.2936614121
 20
-0.3659825988
 11
20.2936614121
 21
0.3268377242
  0
LINE
  5
5DC
100
AcDbEntity
  8
0
100
AcDbLine
 62
7
  6
CONTINUOUS
 10
20.6825701418
 20
4.8267786125
 11
20.6825701418
 21
1.2283988702
  0
LWPOLYLINE
  5
5DD
100
AcDbEntity
  8
ASSI
100
AcDbPolyline
 62
7
  6
CONTINUOUS
 90
31
 70
0
 10
20.4704381074
 20
3.3739989029
 10
20.4668180124
 20
3.2578964394
 10
20.4564763038
 20
3.1403121291
 10
20.4394129816
 20
3.021245972
 10
20.4154580763
 20
2.9000180698
 10
20.3847815574
 20
2.7773083207
 10
20.3478933336
 20
2.6551564203
 10
20.3046895778
 20
2.5335716929
 10
20.255274117
 20
2.4125448141
 10
20.2004683406
 20
2.2940875065
 10
20.140182151
 20
2.1782427198
 10
20.0745056458
 20
2.0649675043
 10
20.0045305074
 20
1.9561447336
 10
19.9301848853
 20
1.851848829
 10
19.8515406299
 20
1.7520053692
 10
19.7699049751
 20
1.6582739634
 10
19.6852279204
 20
1.5707567731
 10
19.5975594663
 20
1.4893516368
 10
19.5083568477
 20
1.4154116801
 10
19.4175944215
 20
1.3490616814
 10
19.3252978309
 20
1.2901768622
 10
19.2330012403
 20
1.2397360127
 10
19.1407046497
 20
1.1978802716
 10
19.0484080591
 20
1.1644685002
 10
18.957645633
 20
1.1400560727
 10
18.8684430144
 20
1.1247934108
 10
18.7807745602
 20
1.1185300929
 10
18.6960975055
 20
1.1213702286
 10
18.6144618507
 20
1.1334659795
 10
18.5358175954
 20
1.1546651841
 10
18.4905391201
 20
1.1729057083
  0
LWPOLYLINE
  5
5DE
100
AcDbEntity
  8
ASSI
100
AcDbPolyline
 62
7
  6
CONTINUOUS
 90
33
 70
0
 10
19.2504860611
 20
9.3372539413
 10
19.2492749425
 20
9.3044156887
 10
19.2395859937
 20
9.2392850247
 10
19.220046148
 20
9.1747093254
 10
19.1908173535
 20
9.1106794674
 10
19.1523854545
 20
9.0482597621
 10
19.1045966236
 20
8.9874771228
 10
19.0476046884
 20
8.9283046363
 10
18.9823569751
 20
8.8717258743
 10
18.9087154907
 20
8.8177841903
 10
18.8268182283
 20
8.7664362309
 10
18.7380264935
 20
8.7185355077
 10
18.6422250471
 20
8.6741396403
 10
18.5395291283
 20
8.6331910091
 10
18.4316457603
 20
8.5963702669
 10
18.3184882364
 20
8.5637464103
 10
18.2001432634
 20
8.5352504427
 10
18.0785779848
 20
8.5113560273
 10
17.9537385742
 20
8.4921400778
 10
17.8256788581
 20
8.4775256805
 10
17.6965274596
 20
8.4677557576
 10
17.5662661316
 20
8.4629112832
 10
17.4349131212
 20
8.4629112832
 10
17.3046517932
 20
8.4677557576
 10
17.1755003948
 20
8.4775256805
 10
17.0474406786
 20
8.4921400778
 10
16.922601268
 20
8.5113560273
 10
16.8010359894
 20
8.5352504427
 10
16.6826910164
 20
8.5637464103
 10
16.5695334925
 20
8.5963702669
 10
16.4622191323
 20
8.6329641249
 10
16.3600922213
 20
8.6736858718
 10
16.3314292605
 20
8.6869469662
  0
LWPOLYLINE
  5
5DF
100
AcDbEntity
  8
ASSI
100
AcDbPolyline
 62
7
  6
CONTINUOUS
 90
10
 70
0
 10
20.3290167512
 20
3.7839765134
 10
20.3273029624
 20
3.7479148103
 10
20.3226799299
 20
3.7145117302
 10
20.3151476539
 20
3.6837672731
 10
20.3045790354
 20
3.6554282062
 10
20.2911011733
 20
3.6297477624
 10
20.2750953639
 20
3.6074856396
 10
20.2564323959
 20
3.5887093113
 10
20.2352414806
 20
3.5733513041
 10
20.2249055039
 20
3.5676126937
  0
LWPOLYLINE
  5
5E0
100
AcDbEntity
  8
ASSI
100
AcDbPolyline
 62
7
  6
CONTINUOUS
 90
10
 70
0
 10
0.69863865
 20
-23.0681685026
 10
0.72086503
 20
-23.0528111862
 10
0.7416969921
 20
-23.0348159998
 10
0.7608220865
 20
-23.0143858621
 10
0.7775359815
 20
-22.9923898603
 10
0.792139656
 20
-22.9685630176
 10
0.8045655821
 20
-22.9428167836
 10
0.814176153
 20
-22.9164224707
 10
0.8209739176
 20
-22.889697387
 10
0.8250689692
 20
-22.8619032606
  0
LWPOLYLINE
  5
5E1
100
AcDbEntity
  8
ASSI
100
AcDbPolyline
 62
7
  6
CONTINUOUS
 90
5
 70
0
 10
0.1619324518
 20
-23.3581548962
 10
0.170416391
 20
-23.3528215751
 10
0.1826104032
 20
-23.34188812
 10
0.1928849379
 20
-23.3281904936
 10
0.2010670701
 20
-23.3119620576
  0
LWPOLYLINE
  5
5E2
100
AcDbEntity
  8
ASSI
100
AcDbPolyline
 62
253
  6
CONTINUOUS
 90
7
 70
0
 10
0.7700652369
 20
-22.567391775
 10
0.7867954819
 20
-22.557525029
 10
0.8008384718
 20
-22.5466610337
 10
0.8119592322
 20
-22.5349815743
 10
0.8199716857
 20
-22.5226820805
 10
0.8247417659
 20
-22.5099683567
 10
0.8261972769
 20
-22.4979258682
  0
LWPOLYLINE
  5
5E3
100
AcDbEntity
  8
ASSI
100
AcDbPolyline
 62
253
  6
CONTINUOUS
 90
7
 70
0
 10
0.7700652369
 20
-22.9073353698
 10
0.7867954521
 20
-22.8974686647
 10
0.8008384278
 20
-22.8866047059
 10
0.8119591874
 20
-22.8749252765
 10
0.8199716507
 20
-22.8626258049
 10
0.8247417476
 20
-22.8499120943
 10
0.8261972769
 20
-22.8378695328
  0
LWPOLYLINE
  5
5E4
100
AcDbEntity
  8
ASSI
100
AcDbPolyline
 62
253
  6
CONTINUOUS
 90
8
 70
0
 10
-1.4651472297
 20
-24.1097535186
 10
-1.4525233381
 20
-24.1023489139
 10
-1.4402983187
 20
-24.091401466
 10
-1.4299325473
 20
-24.0776623729
 10
-1.4216033148
 20
-24.0613666238
 10
-1.4154530805
 20
-24.042792936
 10
-1.4115870349
 20
-24.0222589882
 10
-1.4100713002
 20
-24.0001159863
  0
LINE
  5
5E5
100
AcDbEntity
  8
ASSI
100
AcDbLine
 62
7
  6
CONTINUOUS
 10
0.6869298593
 20
-23.0749064692
 11
0.69863865
 21
-23.0681685026
  0
LINE
  5
5E6
100
AcDbEntity
  8
ASSI
100
AcDbLine
 62
7
  6
CONTINUOUS
 10
0.4396177932
 20
-21.6176919169
 11
0.4475805551
 21
-21.613137526
  0
LWPOLYLINE
  5
5E7
100
AcDbEntity
  8
ASSI
100
AcDbPolyline
 62
253
  6
CONTINUOUS
 90
28
 70
0
 10
0.735933293
 20
-22.9683023763
 10
0.7376917113
 20
-22.9673096921
 10
0.7394705523
 20
-22.9661780619
 10
0.7412698159
 20
-22.9649074859
 10
0.7430998541
 20
-22.9634960565
 10
0.744950315
 20
-22.9619456813
 10
0.7467901422
 20
-22.9602620825
 10
0.7486196883
 20
-22.9584405647
 10
0.7504386008
 20
-22.9564858234
 10
0.7522147663
 20
-22.954417667
 10
0.7539468336
 20
-22.9522328025
 10
0.7556361539
 20
-22.9499345229
 10
0.7572546677
 20
-22.9475525163
 10
0.7587996289
 20
-22.9450864311
 10
0.7602737836
 20
-22.9425366187
 10
0.761657311
 20
-22.9399338213
 10
0.7629480924
 20
-22.9372786509
 10
0.7641482465
 20
-22.9345704953
 10
0.765244308
 20
-22.9318382601
 10
0.7662350895
 20
-22.9290815229
 10
0.7671217785
 20
-22.9263007061
 10
0.767894472
 20
-22.9235259825
 10
0.7685517833
 20
-22.9207574309
 10
0.769095099
 20
-22.9179949724
 10
0.7695186765
 20
-22.9152685435
 10
0.7698206015
 20
-22.9125881228
 10
0.7700027884
 20
-22.9099437316
 10
0.7700652369
 20
-22.9073353698
  0
LINE
  5
5E8
100
AcDbEntity
  8
ASSI
100
AcDbLine
 62
253
  6
CONTINUOUS
 10
0.565382217
 20
-21.349424056
 11
1.2601464034
 21
-20.9745828384
  0
LINE
  5
5E9
100
AcDbEntity
  8
ASSI
100
AcDbLine
 62
7
  6
CONTINUOUS
 10
0.4396422346
 20
-21.6176785137
 11
1.1354695036
 21
-21.2422637387
  0
LINE
  5
5EA
100
AcDbEntity
  8
ASSI
100
AcDbLine
 62
253
  6
CONTINUOUS
 10
0.2118288264
 20
-23.2510687599
 11
0.735933293
 21
-22.9683023763
  0
LINE
  5
5EB
100
AcDbEntity
  8
ASSI
100
AcDbLine
 62
7
  6
CONTINUOUS
 10
0.1619758862
 20
-23.3581315059
 11
0.687030097
 21
-23.0748527135
  0
LINE
  5
5EC
100
AcDbEntity
  8
ASSI
100
AcDbLine
 62
7
  6
CONTINUOUS
 10
0.1577660152
 20
-23.3602384006
 11
0.1619324518
 21
-23.3581548962
  0
LWPOLYLINE
  5
5ED
100
AcDbEntity
  8
ASSI
100
AcDbPolyline
 62
253
  6
CONTINUOUS
 90
16
 70
0
 10
-5.108618778
 20
-23.137289287
 10
-5.145923804
 20
-23.1551526679
 10
-5.1862041185
 20
-23.1710845617
 10
-5.2290691749
 20
-23.1849304973
 10
-5.2741033653
 20
-23.1965562281
 10
-5.3208700509
 20
-23.2058490345
 10
-5.3689157947
 20
-23.2127188158
 10
-5.4177747585
 20
-23.2170989646
 10
-5.4669732194
 20
-23.2189470122
 10
-5.5160341627
 20
-23.2182450405
 10
-5.5644819071
 20
-23.2149998555
 10
-5.6118467166
 20
-23.2092429217
 10
-5.6576693553
 20
-23.2010300569
 10
-5.7015055395
 20
-23.1904408909
 10
-5.7429302457
 20
-23.1775780933
 10
-5.7815418315
 20
-23.1625663782
  0
LINE
  5
5EE
100
AcDbEntity
  8
ASSI
100
AcDbLine
 62
7
  6
CONTINUOUS
 10
0.4218684568
 20
-21.6261151275
 11
0.4396177932
 21
-21.6176919169
  0
LINE
  5
5EF
100
AcDbEntity
  8
ASSI
100
AcDbLine
 62
253
  6
CONTINUOUS
 10
0.2118288264
 20
-23.2510687599
 11
-1.4100713002
 21
-24.0001159863
  0
LINE
  5
5F0
100
AcDbEntity
  8
ASSI
100
AcDbLine
 62
253
  6
CONTINUOUS
 10
-4.6257226477
 20
-23.4877505388
 11
0.565382217
 21
-21.3493579025
  0
LINE
  5
5F1
100
AcDbEntity
  8
ASSI
100
AcDbLine
 62
7
  6
CONTINUOUS
 10
-4.77945811
 20
-23.7687184332
 11
0.4218183252
 21
-21.626135781
  0
LWPOLYLINE
  5
5F2
100
AcDbEntity
  8
ASSI
100
AcDbPolyline
 62
7
  6
CONTINUOUS
 90
4
 70
0
 10
-2.1050470505
 20
20.1562548574
 10
-2.08753663
 20
20.1547760304
 10
-2.069397126
 20
20.1501234462
 10
-2.0509344125
 20
20.1423789443
  0
LWPOLYLINE
  5
5F3
100
AcDbEntity
  8
ASSI
100
AcDbPolyline
 62
253
  6
CONTINUOUS
 90
12
 70
0
 10
-14.1943648833
 20
23.7837081268
 10
-14.1852667677
 20
23.7821443046
 10
-14.165125516
 20
23.7811859979
 10
-14.1447767559
 20
23.7835808948
 10
-14.124564808
 20
23.7892884712
 10
-14.1048316783
 20
23.7982121491
 10
-14.0859112704
 20
23.810200931
 10
-14.0681237357
 20
23.825051955
 10
-14.0517700563
 20
23.8425139273
 10
-14.0371269521
 20
23.8622913745
 10
-14.0244421985
 20
23.8840496429
 10
-14.0139304336
 20
23.9074205616
  0
LINE
  5
5F4
100
AcDbEntity
  8
ASSI
100
AcDbLine
 62
7
  6
CONTINUOUS
 10
-13.5535485735
 20
23.6477707738
 11
-14.1943648837
 21
23.7837081269
  0
LINE
  5
5F5
100
AcDbEntity
  8
ASSI
100
AcDbLine
 62
253
  6
CONTINUOUS
 10
-13.2771226294
 20
23.7511203846
 11
-14.0139304336
 21
23.9074205616
  0
LWPOLYLINE
  5
5F6
100
AcDbEntity
  8
ASSI
100
AcDbPolyline
 62
253
  6
CONTINUOUS
 90
22
 70
0
 10
-14.0139304336
 20
23.9074205616
 10
-14.0152278441
 20
23.9077282755
 10
-14.0165131032
 20
23.9081392298
 10
-14.017786211
 20
23.9086534243
 10
-14.0190549248
 20
23.9092673729
 10
-14.0203114873
 20
23.9099845618
 10
-14.0215326262
 20
23.9108154497
 10
-14.0227180785
 20
23.9117627216
 10
-14.0238681072
 20
23.9128236926
 10
-14.0249602296
 20
23.9140007671
 10
-14.0259935053
 20
23.9152968982
 10
-14.0269688747
 20
23.9167091329
 10
-14.0278666752
 20
23.9182310159
 10
-14.0286853248
 20
23.9198654092
 10
-14.0294264056
 20
23.9216094508
 10
-14.0300750018
 20
23.9234480996
 10
-14.0306290267
 20
23.9253837735
 10
-14.0310905669
 20
23.9274140545
 10
-14.0314509668
 20
23.9295166481
 10
-14.0317073409
 20
23.9316841226
 10
-14.0318625747
 20
23.9339239097
 10
-14.031916668
 20
23.9362360092
  0
LWPOLYLINE
  5
5F7
100
AcDbEntity
  8
ASSI
100
AcDbPolyline
 62
7
  6
CONTINUOUS
 90
8
 70
0
 10
-13.9996232708
 20
26.6980797589
 10
-14.0208527561
 20
26.7056408346
 10
-14.0428948987
 20
26.7110191075
 10
-14.0655208538
 20
26.7141216065
 10
-14.0885790355
 20
26.7148838081
 10
-14.1118405685
 20
26.7132427025
 10
-14.1349621799
 20
26.7091892881
 10
-14.1576845577
 20
26.702757168
  0
LWPOLYLINE
  5
5F8
100
AcDbEntity
  8
ASSI
100
AcDbPolyline
 62
7
  6
CONTINUOUS
 90
10
 70
0
 10
-1.4107758233
 20
20.4038399434
 10
-1.4318224564
 20
20.4116163934
 10
-1.4537015398
 20
20.4172389983
 10
-1.4761857754
 20
20.4206125401
 10
-1.4991191761
 20
20.4216684222
 10
-1.5222592875
 20
20.4203489276
 10
-1.5452850803
 20
20.416641438
 10
-1.5679760769
 20
20.4105670554
 10
-1.5901290867
 20
20.4021662046
 10
-1.5942917222
 20
20.4002970374
  0
LWPOLYLINE
  5
5F9
100
AcDbEntity
  8
ASSI
100
AcDbPolyline
 62
253
  6
CONTINUOUS
 90
3
 70
0
 10
-13.9964952424
 20
26.6962957382
 10
-13.9880715105
 20
26.6928651859
 10
-13.9856326211
 20
26.6916899001
  0
LWPOLYLINE
  5
5FA
100
AcDbEntity
  8
ASSI
100
AcDbPolyline
 62
7
  6
CONTINUOUS
 90
6
 70
0
 10
-14.6374351177
 20
26.4356292968
 10
-14.655886386
 20
26.4433795213
 10
-14.6740287831
 20
26.4480306589
 10
-14.6915477557
 20
26.4495052099
 10
-14.7081389543
 20
26.4477802681
 10
-14.7247741576
 20
26.4423191282
  0
LWPOLYLINE
  5
5FB
100
AcDbEntity
  8
ASSI
100
AcDbPolyline
 62
253
  6
CONTINUOUS
 90
6
 70
0
 10
-0.6001536168
 20
22.8736949693
 10
-0.6228435319
 20
22.8835561922
 10
-0.6451981344
 20
22.8895198831
 10
-0.6668350787
 20
22.8914840411
 10
-0.6873842942
 20
22.8894150721
 10
-0.7080584714
 20
22.8826433966
  0
LWPOLYLINE
  5
5FC
100
AcDbEntity
  8
ASSI
100
AcDbPolyline
 62
253
  6
CONTINUOUS
 90
6
 70
0
 10
-6.2093099324
 20
25.6782731271
 10
-6.2319998476
 20
25.68813435
 10
-6.25435445
 20
25.6940980409
 10
-6.2759913944
 20
25.696062199
 10
-6.2965406098
 20
25.6939932299
 10
-6.317214787
 20
25.6872215544
  0
LINE
  5
5FD
100
AcDbEntity
  8
DRAFT
100
AcDbLine
 62
7
  6
CONTINUOUS
 10
3.9298546671
 20
19.0860227625
 11
6.7879218914
 21
17.6569891503
  0
LINE
  5
5FE
100
AcDbEntity
  8
ASSI
100
AcDbLine
 62
7
  6
CONTINUOUS
 10
3.9298546671
 20
19.0860227625
 11
6.7879218914
 21
17.6569891503
  0
LINE
  5
5FF
100
AcDbEntity
  8
ASSI
100
AcDbLine
 62
7
  6
CONTINUOUS
 10
0.6472447358
 20
22.4705766022
 11
-3.3273246401
 21
24.4578612901
  0
LINE
  5
600
100
AcDbEntity
  8
ASSI
100
AcDbLine
 62
7
  6
CONTINUOUS
 10
-1.8257298328
 20
24.6036572534
 11
1.5714195652
 21
22.9050825544
  0
LWPOLYLINE
  5
601
100
AcDbEntity
  8
ASSI
100
AcDbPolyline
 62
253
  6
CONTINUOUS
 90
13
 70
0
 10
-6.0174723841
 20
25.5823543529
 10
-5.9940308464
 20
25.5691499231
 10
-5.9710428862
 20
25.5524425647
 10
-5.9489016741
 20
25.5325179776
 10
-5.9279859134
 20
25.5097169006
 10
-5.9086533432
 20
25.4844292642
 10
-5.8912346235
 20
25.4570875154
 10
-5.8760276974
 20
25.4281592395
 10
-5.8632927155
 20
25.3981392216
 10
-5.8532475544
 20
25.3675409635
 10
-5.8460640612
 20
25.336887835
 10
-5.8418651289
 20
25.306704118
 10
-5.8407226101
 20
25.2775060926
  0
LWPOLYLINE
  5
602
100
AcDbEntity
  8
ASSI
100
AcDbPolyline
 62
253
  6
CONTINUOUS
 90
13
 70
0
 10
-0.4083160685
 20
22.7777761951
 10
-0.3848745307
 20
22.7645717653
 10
-0.3618865706
 20
22.7478644069
 10
-0.3397453584
 20
22.7279398198
 10
-0.3188295978
 20
22.7051387428
 10
-0.2994970275
 20
22.6798511064
 10
-0.2820783079
 20
22.6525093575
 10
-0.2668713817
 20
22.6235810816
 10
-0.2541363998
 20
22.5935610638
 10
-0.2440912387
 20
22.5629628057
 10
-0.2369077456
 20
22.5323096772
 10
-0.2327088132
 20
22.5021259602
 10
-0.2315662944
 20
22.4729279348
  0
LWPOLYLINE
  5
603
100
AcDbEntity
  8
ASSI
100
AcDbPolyline
 62
253
  6
CONTINUOUS
 90
13
 70
0
 10
-2.589171855
 20
25.524823728
 10
-2.5659253945
 20
25.511519374
 10
-2.5431295096
 20
25.4947128952
 10
-2.5211741807
 20
25.4746918567
 10
-2.5004349812
 20
25.4517987883
 10
-2.4812667118
 20
25.4264253859
 10
-2.4639973158
 20
25.3990058297
 10
-2.4489221917
 20
25.3700092512
 10
-2.4362991667
 20
25.3399317011
 10
-2.4263441302
 20
25.3092877407
 10
-2.4192273165
 20
25.2786015916
 10
-2.4150704001
 20
25.248398166
 10
-2.4139444215
 20
25.2191941046
  0
LWPOLYLINE
  5
604
100
AcDbEntity
  8
RACCORDO
100
AcDbPolyline
 62
7
  6
CONTINUOUS
 90
9
 70
0
 10
5.9866933425
 20
21.3680280439
 10
5.9291977246
 20
21.4237691174
 10
5.8719816452
 20
21.4754793174
 10
5.8150451046
 20
21.5231586438
 10
5.758235771
 20
21.5667672875
 10
5.7017059761
 20
21.6063450576
 10
5.6459127146
 20
21.6420113823
 10
5.5908643657
 20
21.6737524871
 10
5.5506709814
 20
21.6946678198
  0
LINE
  5
605
100
AcDbEntity
  8
0
100
AcDbLine
 62
7
  6
CONTINUOUS
 10
20.3726988443
 20
3.9128163989
 11
20.3886295327
 21
3.8748183979
  0
LWPOLYLINE
  5
606
100
AcDbEntity
  8
0
100
AcDbPolyline
 62
7
  6
CONTINUOUS
 90
6
 70
0
 10
20.3886295327
 20
3.8748183979
 10
20.4179341262
 20
3.7843031957
 10
20.4408138194
 20
3.6888201323
 10
20.4571134823
 20
3.5888475837
 10
20.466988245
 20
3.4839071739
 10
20.4704381074
 20
3.3739989029
  0
LINE
  5
607
100
AcDbEntity
  8
CURVE
100
AcDbLine
 62
253
  6
CONTINUOUS
 10
21.2366819572
 20
14.1926746901
 11
21.2366819572
 21
12.0276111807
  0
LINE
  5
608
100
AcDbEntity
  8
0
100
AcDbLine
 62
7
  6
CONTINUOUS
 10
21.3896769229
 20
0.8748454796
 11
21.3896769229
 21
5.3781775793
  0
LINE
  5
609
100
AcDbEntity
  8
0
100
AcDbLine
 62
7
  6
CONTINUOUS
 10
21.7078749745
 20
0.3411241824
 11
21.7078749745
 21
6.4033020089
  0
LINE
  5
60A
100
AcDbEntity
  8
ASSI
100
AcDbLine
 62
7
  6
CONTINUOUS
 10
0.1577102095
 20
-23.3602641735
 11
-1.4651472322
 21
-24.1097535197
  0
LWPOLYLINE
  5
60B
100
AcDbEntity
  8
ASSI
100
AcDbPolyline
 62
253
  6
CONTINUOUS
 90
28
 70
0
 10
-1.4100713002
 20
-24.0001159863
 10
-1.411794188
 20
-24.0008761411
 10
-1.4135498881
 20
-24.00153093
 10
-1.4153384004
 20
-24.0020803531
 10
-1.4171704031
 20
-24.0025348311
 10
-1.4190352182
 20
-24.0028839433
 10
-1.4209008111
 20
-24.0030964273
 10
-1.4227680499
 20
-24.0031682735
 10
-1.4246360667
 20
-24.0031034915
 10
-1.4264702234
 20
-24.002882848
 10
-1.4282699721
 20
-24.0025013961
 10
-1.4300358607
 20
-24.0019640827
 10
-1.4317348949
 20
-24.0012665151
 10
-1.4333644993
 20
-24.0004046041
 10
-1.4349272492
 20
-23.9993824389
 10
-1.4363978766
 20
-23.9982078945
 10
-1.4377738092
 20
-23.9968785579
 10
-1.4390576192
 20
-23.995396842
 10
-1.4402317554
 20
-23.9937778605
 10
-1.4412944713
 20
-23.9920195895
 10
-1.4422475133
 20
-23.990124053
 10
-1.4430785693
 20
-23.9881124366
 10
-1.4437858542
 20
-23.9859829191
 10
-1.444371153
 20
-23.9837373217
 10
-1.4448275089
 20
-23.9814022945
 10
-1.4451526031
 20
-23.9789867206
 10
-1.4453487544
 20
-23.9764817168
 10
-1.4454159629
 20
-23.9738872831
  0
LWPOLYLINE
  5
60C
100
AcDbEntity
  8
ASSI
100
AcDbPolyline
 62
7
  6
CONTINUOUS
 90
4
 70
0
 10
2.2547337545
 20
23.202262555
 10
2.1959924528
 20
23.1880428983
 10
2.1371304076
 20
23.1684093913
 10
2.0795627773
 20
23.143976883
  0
LWPOLYLINE
  5
60D
100
AcDbEntity
  8
ASSI
100
AcDbPolyline
 62
7
  6
CONTINUOUS
 90
5
 70
0
 10
-0.5118044467
 20
22.9233183185
 10
-0.5532893916
 20
22.9216839561
 10
-0.5946922585
 20
22.916692266
 10
-0.6341927617
 20
22.908529526
 10
-0.6713907335
 20
22.8974210866
  0
LWPOLYLINE
  5
60E
100
AcDbEntity
  8
ASSI
100
AcDbPolyline
 62
7
  6
CONTINUOUS
 90
5
 70
0
 10
-6.6129520197
 20
21.9716681609
 10
-6.5955260461
 20
21.9711331945
 10
-6.5776361815
 20
21.9680317943
 10
-6.5594172662
 20
21.962434041
 10
-6.5410678579
 20
21.954432965
  0
LWPOLYLINE
  5
60F
100
AcDbEntity
  8
ASSI
100
AcDbPolyline
 62
7
  6
CONTINUOUS
 90
5
 70
0
 10
-10.3252626209
 20
23.8278234615
 10
-10.3078366473
 20
23.8272884951
 10
-10.2899467827
 20
23.8241870949
 10
-10.2717278674
 20
23.8185893416
 10
-10.2533784591
 20
23.8105882656
  0
LWPOLYLINE
  5
610
100
AcDbEntity
  8
ASSI
100
AcDbPolyline
 62
253
  6
CONTINUOUS
 90
10
 70
0
 10
2.6267019506
 20
23.1566865951
 10
2.5838298507
 20
23.1749367574
 10
2.5395787559
 20
23.1877806129
 10
2.493344067
 20
23.1955699209
 10
2.4453769791
 20
23.1982630084
 10
2.3959381653
 20
23.195845963
 10
2.345301346
 20
23.1883302659
 10
2.2937433509
 20
23.1757570165
 10
2.2415426254
 20
23.158196746
 10
2.1889828003
 20
23.1357464003
  0
LWPOLYLINE
  5
611
100
AcDbEntity
  8
ASSI
100
AcDbPolyline
 62
253
  6
CONTINUOUS
 90
7
 70
0
 10
2.1889828003
 20
23.1357464003
 10
2.1660867988
 20
23.145513382
 10
2.1435297007
 20
23.1513836891
 10
2.1216973896
 20
23.1532568985
 10
2.1009633501
 20
23.1511009653
 10
2.0816822786
 20
23.1449527709
 10
2.0795581467
 20
23.1439867373
  0
LWPOLYLINE
  5
612
100
AcDbEntity
  8
ASSI
100
AcDbPolyline
 62
7
  6
CONTINUOUS
 90
8
 70
0
 10
2.6275758029
 20
23.1562483042
 10
2.5852214442
 20
23.175269226
 10
2.5348230472
 20
23.1925063189
 10
2.4819391375
 20
23.204956813
 10
2.4269923842
 20
23.2123205892
 10
2.3705845247
 20
23.214375119
 10
2.3130699527
 20
23.2110384941
 10
2.2547337545
 20
23.202262555
  0
LWPOLYLINE
  5
613
100
AcDbEntity
  8
RACCORDO
100
AcDbPolyline
 62
7
  6
CONTINUOUS
 90
15
 70
0
 10
5.5506709814
 20
21.6946678198
 10
5.5365525502
 20
21.7015821465
 10
5.4834091257
 20
21.7256611119
 10
5.431459337
 20
21.7459562955
 10
5.3806779393
 20
21.7625007851
 10
5.3314210557
 20
21.7755545959
 10
5.2837439634
 20
21.7850881616
 10
5.237591385
 20
21.7911310484
 10
5.1931536118
 20
21.79403197
 10
5.1505040167
 20
21.7938049741
 10
5.1095692267
 20
21.790436013
 10
5.0703194137
 20
21.7842316575
 10
5.0327446351
 20
21.775294098
 10
4.9968548337
 20
21.7635211441
 10
4.9626500092
 20
21.7489127959
  0
LINE
  5
614
100
AcDbEntity
  8
ASSI
100
AcDbLine
 62
253
  6
CONTINUOUS
 10
-5.362839064
 20
26.9116573325
 11
-2.589171855
 21
25.524823728
  0
LINE
  5
615
100
AcDbEntity
  8
ASSI
100
AcDbLine
 62
253
  6
CONTINUOUS
 10
2.1889828003
 20
23.1357464003
 11
4.9626500092
 21
21.7489127959
  0
LINE
  5
616
100
AcDbEntity
  8
ASSI
100
AcDbLine
 62
7
  6
CONTINUOUS
 10
-2.1571452319
 20
25.5486101863
 11
-2.1570739699
 21
25.5485745458
  0
LINE
  5
617
100
AcDbEntity
  8
ASSI
100
AcDbLine
 62
7
  6
CONTINUOUS
 10
-5.0836842262
 20
27.0118796835
 11
-2.157144743
 21
25.5486099419
  0
LINE
  5
618
100
AcDbEntity
  8
ASSI
100
AcDbLine
 62
7
  6
CONTINUOUS
 10
2.6267014493
 20
23.1566868457
 11
5.5532409298
 21
21.6934171055
  0
LINE
  5
619
100
AcDbEntity
  8
0
100
AcDbLine
 62
7
  6
CONTINUOUS
 10
21.7078749745
 20
6.4033020089
 11
20.7179254808
 21
9.496352967
  0
LINE
  5
61A
100
AcDbEntity
  8
DRAFT
100
AcDbLine
 62
7
  6
CONTINUOUS
 10
24.4009071424
 20
22.9114332737
 11
24.4009071424
 21
12.9667551691
  0
LINE
  5
61B
100
AcDbEntity
  8
ASSI
100
AcDbLine
 62
7
  6
CONTINUOUS
 10
24.4009071424
 20
22.9114332737
 11
24.4009071424
 21
12.9667551691
  0
LINE
  5
61C
100
AcDbEntity
  8
DRAFT
100
AcDbLine
 62
7
  6
CONTINUOUS
 10
24.4009071424
 20
0.4519996733
 11
24.4009071424
 21
-6.4615895181
  0
LINE
  5
61D
100
AcDbEntity
  8
ASSI
100
AcDbLine
 62
7
  6
CONTINUOUS
 10
24.4009071424
 20
0.4519996733
 11
24.4009071424
 21
-6.4615895181
  0
LINE
  5
61E
100
AcDbEntity
  8
ASSI
100
AcDbLine
 62
7
  6
CONTINUOUS
 10
-3.3273246401
 20
24.4578612901
 11
-1.8974172205
 21
24.5423811001
  0
LWPOLYLINE
  5
61F
100
AcDbEntity
  8
ASSI
100
AcDbPolyline
 62
7
  6
CONTINUOUS
 90
5
 70
0
 10
-6.1209607623
 20
25.7278964763
 10
-6.1624457073
 20
25.726262114
 10
-6.2038485742
 20
25.7212704239
 10
-6.2433490773
 20
25.7131076838
 10
-6.2805470491
 20
25.7019992444
  0
LINE
  5
620
100
AcDbEntity
  8
DRAFT
100
AcDbLine
 62
7
  6
CONTINUOUS
 10
9.7991521109
 20
23.8903253418
 11
9.978904811
 21
23.8004489918
  0
LINE
  5
621
100
AcDbEntity
  8
ASSI
100
AcDbLine
 62
7
  6
CONTINUOUS
 10
9.7991521109
 20
23.8903253418
 11
9.978904811
 21
23.8004489918
  0
LINE
  5
622
100
AcDbEntity
  8
DRAFT
100
AcDbLine
 62
7
  6
CONTINUOUS
 10
9.1153478699
 20
30.5542129099
 11
12.0191632895
 21
29.1023052001
  0
LINE
  5
623
100
AcDbEntity
  8
ASSI
100
AcDbLine
 62
7
  6
CONTINUOUS
 10
9.1153478699
 20
30.5542129099
 11
12.0191632895
 21
29.1023052001
  0
LINE
  5
624
100
AcDbEntity
  8
DRAFT
100
AcDbLine
 62
7
  6
CONTINUOUS
 10
21.4970917228
 20
24.3633409835
 11
24.4009071424
 21
22.9114332737
  0
LINE
  5
625
100
AcDbEntity
  8
ASSI
100
AcDbLine
 62
7
  6
CONTINUOUS
 10
21.4970917228
 20
24.3633409835
 11
24.4009071424
 21
22.9114332737
  0
ELLIPSE
  5
626
100
AcDbEntity
  8
RACCORDO
100
AcDbEllipse
 62
7
  6
CONTINUOUS
 10
-3.9757152591
 20
15.7264536192
 30
0.0
 11
-0.0892524615
 21
0.1791179969
 31
0.0
 40
0.6124818573
 41
-2.2255365712
 42
-0.6834093579
  0
ELLIPSE
  5
627
100
AcDbEntity
  8
RACCORDO
100
AcDbEllipse
 62
7
  6
CONTINUOUS
 10
-16.9552518799
 20
22.2162219296
 30
0.0
 11
-0.0893248918
 21
0.1791819189
 31
0.0
 40
0.611934274
 41
-0.6831563312
 42
0.0366218912
  0
ELLIPSE
  5
628
100
AcDbEntity
  8
ASSI
100
AcDbEllipse
 62
7
  6
CONTINUOUS
 10
0.9065391567
 20
-20.7976473052
 30
0.0
 11
-0.2237009107
 21
0.4473351135
 31
0.0
 40
0.6121897086
 41
-3.1223332426
 42
-2.2557347926
  0
ELLIPSE
  5
629
100
AcDbEntity
  8
ASSI
100
AcDbEllipse
 62
7
  6
CONTINUOUS
 10
0.9065391567
 20
17.1039004013
 30
0.0
 11
-0.2235807756
 21
0.4472283268
 31
0.0
 40
0.6125552124
 41
-2.255296188
 42
-0.6848044477
  0
ELLIPSE
  5
62A
100
AcDbEntity
  8
ASSI
100
AcDbEllipse
 62
7
  6
CONTINUOUS
 10
-5.8215646299
 20
22.0701322716
 30
0.0
 11
-0.1118504554
 21
0.2236675568
 31
0.0
 40
0.6121897086
 41
-0.6846338794
 42
-0.0194291938
  0
ELLIPSE
  5
62B
100
AcDbEntity
  8
ASSI
100
AcDbEllipse
 62
7
  6
CONTINUOUS
 10
-7.3312279161
 20
22.8249639147
 30
0.0
 11
-0.1117903878
 21
0.2236141634
 31
0.0
 40
0.6125552124
 41
-2.255296188
 42
-0.6848044477
  0
ELLIPSE
  5
62C
100
AcDbEntity
  8
ASSI
100
AcDbEllipse
 62
7
  6
CONTINUOUS
 10
-2.0757298328
 20
24.6306824254
 30
0.0
 11
0.2495017023
 21
-0.0599821937
 31
0.0
 40
0.2630210944
 41
-0.7135232271
 42
0.0636829494
  0
ELLIPSE
  5
62D
100
AcDbEntity
  8
ASSI
100
AcDbEllipse
 62
7
  6
CONTINUOUS
 10
-6.1181506054
 20
24.2423951178
 30
0.0
 11
0.3856611795
 21
-0.0054197667
 31
0.0
 40
0.4892375088
 41
-0.7610696355
 42
0.0068059907
  0
ELLIPSE
  5
62E
100
AcDbEntity
  8
ASSI
100
AcDbEllipse
 62
7
  6
CONTINUOUS
 10
-0.5089942898
 20
21.43781696
 30
0.0
 11
0.3856611795
 21
-0.0054197667
 31
0.0
 40
0.4892375088
 41
-0.7610696355
 42
0.0068059907
  0
ELLIPSE
  5
62F
100
AcDbEntity
  8
ASSI
100
AcDbEllipse
 62
7
  6
CONTINUOUS
 10
11.9453172358
 20
28.3863179283
 30
0.0
 11
18.2927339069
 21
9.4748417608
 31
0.0
 40
0.0170707209
 41
-2.6536573066
 42
-2.3141694431
  0
ELLIPSE
  5
630
100
AcDbEntity
  8
ASSI
100
AcDbEllipse
 62
7
  6
CONTINUOUS
 10
11.9453172358
 20
28.3863179283
 30
0.0
 11
18.2927339069
 21
9.4748417608
 31
0.0
 40
0.0170707209
 41
2.2964861198
 42
2.6359739833
  0
ELLIPSE
  5
631
100
AcDbEntity
  8
RACCORDO
100
AcDbEllipse
 62
7
  6
CONTINUOUS
 10
-17.3065293327
 20
22.391860656
 30
0.0
 11
-0.0892524615
 21
0.1791179969
 31
0.0
 40
0.6124818573
 41
-2.2255365712
 42
-0.6834093579
  0
ELLIPSE
  5
632
100
AcDbEntity
  8
ASSI
100
AcDbEllipse
 62
7
  6
CONTINUOUS
 10
0.2259524029
 20
16.7664475073
 30
0.0
 11
41.2152542262
 21
22.501943358
 31
0.0
 40
0.0081048063
 41
1.5667140536
 42
1.5886117747
  0
ELLIPSE
  5
633
100
AcDbEntity
  8
ASSI
100
AcDbEllipse
 62
7
  6
CONTINUOUS
 10
-2.4844608162
 20
16.847378987
 30
0.0
 11
0.249929385
 21
0.0111824824
 31
0.0
 40
0.5313301283
 41
-2.3799630874
 42
-0.8266200532
  0
ELLIPSE
  5
634
100
AcDbEntity
  8
ASSI
100
AcDbEllipse
 62
7
  6
CONTINUOUS
 10
-15.0709615214
 20
23.1406293396
 30
0.0
 11
0.249929385
 21
0.0111824824
 31
0.0
 40
0.5313301283
 41
-2.3799630874
 42
-0.8266200532
  0
ELLIPSE
  5
635
100
AcDbEntity
  8
ASSI
100
AcDbEllipse
 62
7
  6
CONTINUOUS
 10
-0.8642865169
 20
16.7897850867
 30
0.0
 11
0.249929385
 21
0.0111824824
 31
0.0
 40
0.5313301283
 41
-2.3799630874
 42
-1.125412988
  0
ELLIPSE
  5
636
100
AcDbEntity
  8
ASSI
100
AcDbEllipse
 62
7
  6
CONTINUOUS
 10
-2.8839858393
 20
17.7996347479
 30
0.0
 11
0.249929385
 21
0.0111824824
 31
0.0
 40
0.5313301283
 41
3.117765999
 42
3.9032222197
  0
ELLIPSE
  5
637
100
AcDbEntity
  8
ASSI
100
AcDbEllipse
 62
7
  6
CONTINUOUS
 10
-15.4704865444
 20
24.0928851005
 30
0.0
 11
0.249929385
 21
0.0111824824
 31
0.0
 40
0.5313301283
 41
3.118062645
 42
3.9032222197
  0
ELLIPSE
  5
638
100
AcDbEntity
  8
ASSI
100
AcDbEllipse
 62
7
  6
CONTINUOUS
 10
-2.4844608162
 20
-22.849272574
 30
0.0
 11
0.220014872
 21
0.1791173313
 31
0.0
 40
0.6627826692
 41
-1.8038058062
 42
-1.2976603231
  0
ELLIPSE
  5
639
100
AcDbEntity
  8
ASSI
100
AcDbEllipse
 62
7
  6
CONTINUOUS
 10
-13.450787222
 20
23.0830354393
 30
0.0
 11
0.249929385
 21
0.0111824824
 31
0.0
 40
0.5313301283
 41
-2.2616702455
 42
-0.8266200532
  0
ELLIPSE
  5
63A
100
AcDbEntity
  8
ASSI
100
AcDbEllipse
 62
7
  6
CONTINUOUS
 10
-0.8642865169
 20
-22.4522529425
 30
0.0
 11
0.220014872
 21
0.1791173313
 31
0.0
 40
0.6627826692
 41
-2.8510033574
 42
-2.6599685648
  0
ELLIPSE
  5
63B
100
AcDbEntity
  8
ASSI
100
AcDbEllipse
 62
7
  6
CONTINUOUS
 10
-2.6780251023
 20
16.94416113
 30
0.0
 11
0.249929385
 21
0.0111824824
 31
0.0
 40
0.5313301283
 41
3.1177659981
 42
3.9032222197
  0
ELLIPSE
  5
63C
100
AcDbEntity
  8
ASSI
100
AcDbEllipse
 62
7
  6
CONTINUOUS
 10
-15.2645258074
 20
23.2374114826
 30
0.0
 11
0.249929385
 21
0.0111824824
 31
0.0
 40
0.5313301283
 41
3.1177659981
 42
3.9032222197
  0
ELLIPSE
  5
63D
100
AcDbEntity
  8
ASSI
100
AcDbEllipse
 62
7
  6
CONTINUOUS
 10
-6.7848039865
 20
20.4649124085
 30
0.0
 11
0.199943508
 21
0.008945986
 31
0.0
 40
0.5313301283
 41
3.1180383302
 42
3.9032222197
  0
ELLIPSE
  5
63E
100
AcDbEntity
  8
ASSI
100
AcDbEllipse
 62
7
  6
CONTINUOUS
 10
-4.4941555894
 20
19.3195882099
 30
0.0
 11
0.199943508
 21
0.008945986
 31
0.0
 40
0.5313301283
 41
-2.3799630874
 42
-0.8266200532
  0
ELLIPSE
  5
63F
100
AcDbEntity
  8
ASSI
100
AcDbEllipse
 62
7
  6
CONTINUOUS
 10
-10.4971145877
 20
22.3210677091
 30
0.0
 11
0.199943508
 21
0.008945986
 31
0.0
 40
0.5313301283
 41
3.1180383302
 42
3.9032222197
  0
ELLIPSE
  5
640
100
AcDbEntity
  8
ASSI
100
AcDbEllipse
 62
7
  6
CONTINUOUS
 10
-8.2064661906
 20
21.1757435105
 30
0.0
 11
0.199943508
 21
0.008945986
 31
0.0
 40
0.5313301283
 41
-2.3799630874
 42
-0.8266200532
  0
ELLIPSE
  5
641
100
AcDbEntity
  8
RACCORDO
100
AcDbEllipse
 62
7
  6
CONTINUOUS
 10
-3.6244378063
 20
15.5508148928
 30
0.0
 11
-0.0893248918
 21
0.1791819189
 31
0.0
 40
0.611934274
 41
-0.6831563312
 42
0.0366218912
  0
ENDSEC
  0
SECTION
  2
OBJECTS
  0
DICTIONARY
  5
C
100
AcDbDictionary
280
0
281
1
  3
ACAD_GROUP
350
D
  3
ACAD_MLINESTYLE
350
17
  3
ACAD_LAYOUT
350
1A
  3
ACAD_PLOTSETTINGS
350
19
  3
ACAD_PLOTSTYLENAME
350
E
  0
DICTIONARY
  5
D
102
{ACAD_REACTORS
330
C
102
}
100
AcDbDictionary
280
0
281
1
  0
ACDBDICTIONARYWDFLT
  5
E
102
{ACAD_REACTORS
330
C
102
}
100
AcDbDictionary
281
1
  3
Normal
350
F
100
AcDbDictionaryWithDefault
340
F
  0
DICTIONARY
  5
17
102
{ACAD_REACTORS
330
C
102
}
100
AcDbDictionary
280
0
281
1
  3
Standard
350
18
  0
DICTIONARY
  5
19
102
{ACAD_REACTORS
330
C
102
}
100
AcDbDictionary
281
1
  0
DICTIONARY
  5
1A
102
{ACAD_REACTORS
330
C
102
}
100
AcDbDictionary
281
1
  3
Model
350
642
  3
Layout1
350
643
  0
ACDBPLACEHOLDER
  5
F
102
{ACAD_REACTORS
330
E
102
}
  0
MLINESTYLE
  5
18
102
{ACAD_REACTORS
330
17
102
}
100
AcDbMlineStyle
  2
STANDARD
 70
0
  3

 62
256
 51
90.0
 52
90.0
 71
2
 49
0.5
 62
256
  6
BYLAYER
 49
-0.5
 62
256
  6
BYLAYER
  0
LAYOUT
  5
642
102
{ACAD_REACTORS
330
1A
102
}
100
AcDbPlotSettings
  1

  2
none_device
  4
ISO_A4_(297.00_x_210.00_MM)
  6

 40
0.0
 41
0.0
 42
0.0
 43
0.0
 44
297.0
 45
210.0
 46
0.0
 47
0.0
 48
0.0
 49
0.0
140
0.0
141
0.0
142
1.0
143
1.0
 70
1024
 72
1
 73
0
 74
0
  7

 75
0
147
1.0
148
0.0
149
0.0
100
AcDbLayout
  1
Model
 70
0
 71
0
 10
0.0
 20
0.0
 11
297.0
 21
210.0
 12
0.0
 22
0.0
 32
0.0
 14
0.0
 24
0.0
 34
0.0
 15
0.0
 25
0.0
 35
0.0
146
0.0
 13
0.0
 23
0.0
 33
0.0
 16
1.0
 26
0.0
 36
0.0
 17
0.0
 27
1.0
 37
0.0
 76
0
330
221
345
0
346
0
  0
LAYOUT
  5
643
102
{ACAD_REACTORS
330
1A
102
}
100
AcDbPlotSettings
  1

  2
none_device
  4
ISO_A4_(297.00_x_210.00_MM)
  6

 40
0.0
 41
0.0
 42
0.0
 43
0.0
 44
297.0
 45
210.0
 46
0.0
 47
0.0
 48
0.0
 49
0.0
140
0.0
141
0.0
142
1.0
143
1.0
 70
0
 72
1
 73
0
 74
0
  7

 75
0
147
1.0
148
0.0
149
0.0
100
AcDbLayout
  1
Layout1
 70
0
 71
1
 10
0.0
 20
0.0
 11
297.0
 21
210.0
 12
0.0
 22
0.0
 32
0.0
 14
0.0
 24
0.0
 34
0.0
 15
0.0
 25
0.0
 35
0.0
146
0.0
 13
0.0
 23
0.0
 33
0.0
 16
1.0
 26
0.0
 36
0.0
 17
0.0
 27
1.0
 37
0.0
 76
0
330
222
345
0
346
0
  0
ENDSEC
  0
EOF
