  0
SECTION
  2
HEADER
  9
$ACADVER
  1
AC1015
  9
$DWGCODEPAGE
  3
ANSI_1252
  9
$EXTMAX
 10
297.0
 20
210.0
 30
0.0
  9
$EXTMIN
 10
0.0
 20
0.0
 30
0.0
  9
$LIMMIN
 10
0.0
 20
0.0
  9
$LIMMAX
 10
297.0
 20
210.0
  9
$VIEWCTR
 10
148.5
 20
105.0
  9
$VIEWSIZE
 40
210.0
  9
$CLAYER
  8
0
  9
$LTSCALE
 40
16.335
  9
$CELTYPE
  6
BYLAYER
  9
$DIMSCALE
 40
1.0
  9
$DIMASZ
 40
3.0
  9
$DIMEXO
 40
1.85625
  9
$DIMDLI
 40
11.286
  9
$DIMEXE
 40
5.346
  9
$DIMCEN
 40
2.673
  9
$DIMLFAC
 40
1.0
  9
$DIMBLK
  1
_FILLED
  9
$DIMTXT
 40
3.0
  9
$DIMTOL
 70
1
  9
$DIMLIM
 70
0
  9
$DIMTFAC
 40
1.0
  9
$DIMTP
 40
0.01
  9
$DIMTM
 40
0.01
  9
$PDMODE
 70
3
  9
$PDSIZE
 40
3.0
  9
$HANDSEED
  5
549
  9
$TILEMODE
 70
1
  9
$MEASUREMENT
 70
1
  9
$INSUNITS
 70
4
  0
ENDSEC
  0
SECTION
  2
CLASSES
  0
CLASS
  1
ACDBDICTIONARYWDFLT
  2
AcDbDictionaryWithDefault
  3
AutoCAD 2000
 90
0
280
0
281
0
  0
CLASS
  1
ACDBPLACEHOLDER
  2
AcDbPlaceHolder
  3
AutoCAD 2000
 90
0
280
0
281
0
  0
CLASS
  1
LAYOUT
  2
AcDbLayout
  3
AutoCAD 2000
 90
0
280
0
281
0
  0
ENDSEC
  0
SECTION
  2
TABLES
  0
TABLE
  2
VPORT
  5
8
100
AcDbSymbolTable
 70
2
  0
VPORT
  5
1F4
100
AcDbSymbolTableRecord
100
AcDbViewportTableRecord
  2
*ACTIVE
 70
0
 10
0.0
 20
0.0
 11
1.0
 21
1.0
 12
148.5
 22
105.0
 13
0.0
 23
0.0
 14
1.0
 24
1.0
 15
0.0
 25
0.0
 16
0.0
 26
0.0
 36
1.0
 17
0.0
 27
0.0
 37
0.0
 40
210.0
 41
1.4142857143
 42
50.0
 43
0.0
 44
0.0
 50
0.0
 51
0.0
 71
0
 72
100
 73
1
 74
1
 75
0
 76
0
 77
0
 78
0
  0
ENDTAB
  0
TABLE
  2
LTYPE
  5
5
100
AcDbSymbolTable
 70
6
  0
LTYPE
  5
14
100
AcDbSymbolTableRecord
100
AcDbLinetypeTableRecord
  2
BYBLOCK
 70
0
  3

 72
65
 73
0
 40
0.0
  0
LTYPE
  5
15
100
AcDbSymbolTableRecord
100
AcDbLinetypeTableRecord
  2
BYLAYER
 70
0
  3

 72
65
 73
0
 40
0.0
  0
LTYPE
  5
16
100
AcDbSymbolTableRecord
100
AcDbLinetypeTableRecord
  2
CONTINUOUS
 70
64
  3
Solid line
 72
65
 73
0
 40
0.0
  0
LTYPE
  5
1F5
100
AcDbSymbolTableRecord
100
AcDbLinetypeTableRecord
  2
CENTER
 70
64
  3
____ _ ____ _ ____ _ ____ _ ____ _ ____ _ ____
 72
65
 73
4
 40
0.6
 49
0.375
 74
0
 49
-0.075
 74
0
 49
0.075
 74
0
 49
-0.075
 74
0
  0
LTYPE
  5
1F6
100
AcDbSymbolTableRecord
100
AcDbLinetypeTableRecord
  2
HIDDEN
 70
64
  3
- - - - - - - - - - - - - - - - - - - -
 72
65
 73
2
 40
0.2
 49
0.1
 74
0
 49
-0.1
 74
0
  0
LTYPE
  5
1F7
100
AcDbSymbolTableRecord
100
AcDbLinetypeTableRecord
  2
PHANTOM
 70
64
  3
_____ _ _ _____ _ _ _____ _ _ _____
 72
65
 73
6
 40
0.8
 49
0.45
 74
0
 49
-0.05
 74
0
 49
0.1
 74
0
 49
-0.05
 74
0
 49
0.1
 74
0
 49
-0.05
 74
0
  0
LTYPE
  5
1F8
100
AcDbSymbolTableRecord
100
AcDbLinetypeTableRecord
  2
DOT
 70
64
  3
. . . . . . . . . . . . . . . . . . . .
 72
65
 73
2
 40
0.2
 49
0.1
 74
0
 49
-0.1
 74
0
  0
LTYPE
  5
1F9
100
AcDbSymbolTableRecord
100
AcDbLinetypeTableRecord
  2
DASHED
 70
64
  3
- - - - - - - - - - - - - - - - - - - -
 72
65
 73
2
 40
0.2
 49
0.1
 74
0
 49
-0.1
 74
0
  0
ENDTAB
  0
TABLE
  2
LAYER
  5
2
100
AcDbSymbolTable
 70
36
  0
LAYER
  5
10
100
AcDbSymbolTableRecord
100
AcDbLayerTableRecord
  2
0
 70
0
 62
7
  6
CONTINUOUS
370
-3
390
F
  0
LAYER
  5
1FA
100
AcDbSymbolTableRecord
100
AcDbLayerTableRecord
  2
DEFAULT_1
 70
0
 62
7
  6
CENTER
370
-3
390
F
  0
LAYER
  5
1FB
100
AcDbSymbolTableRecord
100
AcDbLayerTableRecord
  2
DEFAULT_2
 70
0
 62
7
  6
HIDDEN
370
-3
390
F
  0
LAYER
  5
1FC
100
AcDbSymbolTableRecord
100
AcDbLayerTableRecord
  2
DEFAULT_3
 70
0
 62
7
  6
PHANTOM
370
-3
390
F
  0
LAYER
  5
1FD
100
AcDbSymbolTableRecord
100
AcDbLayerTableRecord
  2
ASSI
 70
0
 62
7
  6
CONTINUOUS
370
-3
390
F
  0
LAYER
  5
1FE
100
AcDbSymbolTableRecord
100
AcDbLayerTableRecord
  2
COORDINATE
 70
0
 62
7
  6
CONTINUOUS
370
-3
390
F
  0
LAYER
  5
1FF
100
AcDbSymbolTableRecord
100
AcDbLayerTableRecord
  2
COORD_ORIGINE
 70
0
 62
7
  6
CONTINUOUS
370
-3
390
F
  0
LAYER
  5
200
100
AcDbSymbolTableRecord
100
AcDbLayerTableRecord
  2
COPY_PUBLISH
 70
0
 62
7
  6
CONTINUOUS
370
-3
390
F
  0
LAYER
  5
201
100
AcDbSymbolTableRecord
100
AcDbLayerTableRecord
  2
COSMETIC
 70
0
 62
7
  6
CONTINUOUS
370
-3
390
F
  0
LAYER
  5
202
100
AcDbSymbolTableRecord
100
AcDbLayerTableRecord
  2
CURVE
 70
0
 62
7
  6
CONTINUOUS
370
-3
390
F
  0
LAYER
  5
203
100
AcDbSymbolTableRecord
100
AcDbLayerTableRecord
  2
DRAFT
 70
0
 62
7
  6
CONTINUOUS
370
-3
390
F
  0
LAYER
  5
204
100
AcDbSymbolTableRecord
100
AcDbLayerTableRecord
  2
IMPORT_IGES
 70
0
 62
7
  6
CONTINUOUS
370
-3
390
F
  0
LAYER
  5
205
100
AcDbSymbolTableRecord
100
AcDbLayerTableRecord
  2
INCISIONI
 70
0
 62
7
  6
CONTINUOUS
370
-3
390
F
  0
LAYER
  5
206
100
AcDbSymbolTableRecord
100
AcDbLayerTableRecord
  2
INTFCLR_1
 70
0
 62
7
  6
CONTINUOUS
370
-3
390
F
  0
LAYER
  5
207
100
AcDbSymbolTableRecord
100
AcDbLayerTableRecord
  2
INTF_1
 70
0
 62
7
  6
CONTINUOUS
370
-3
390
F
  0
LAYER
  5
208
100
AcDbSymbolTableRecord
100
AcDbLayerTableRecord
  2
INTF_15
 70
0
 62
7
  6
CONTINUOUS
370
-3
390
F
  0
LAYER
  5
209
100
AcDbSymbolTableRecord
100
AcDbLayerTableRecord
  2
INTF_16
 70
0
 62
7
  6
CONTINUOUS
370
-3
390
F
  0
LAYER
  5
20A
100
AcDbSymbolTableRecord
100
AcDbLayerTableRecord
  2
NOTE
 70
0
 62
7
  6
CONTINUOUS
370
-3
390
F
  0
LAYER
  5
20B
100
AcDbSymbolTableRecord
100
AcDbLayerTableRecord
  2
PIANI
 70
0
 62
7
  6
CONTINUOUS
370
-3
390
F
  0
LAYER
  5
20C
100
AcDbSymbolTableRecord
100
AcDbLayerTableRecord
  2
PIANI_COSTRUZIONE_PROFILO
 70
0
 62
7
  6
CONTINUOUS
370
-3
390
F
  0
LAYER
  5
20D
100
AcDbSymbolTableRecord
100
AcDbLayerTableRecord
  2
PIANI_ORIGINE
 70
0
 62
7
  6
CONTINUOUS
370
-3
390
F
  0
LAYER
  5
20E
100
AcDbSymbolTableRecord
100
AcDbLayerTableRecord
  2
PIANI_RIFERIMENTO
 70
0
 62
7
  6
CONTINUOUS
370
-3
390
F
  0
LAYER
  5
20F
100
AcDbSymbolTableRecord
100
AcDbLayerTableRecord
  2
PUNTI
 70
0
 62
7
  6
CONTINUOUS
370
-3
390
F
  0
LAYER
  5
210
100
AcDbSymbolTableRecord
100
AcDbLayerTableRecord
  2
RACCORDO
 70
0
 62
7
  6
CONTINUOUS
370
-3
390
F
  0
LAYER
  5
211
100
AcDbSymbolTableRecord
100
AcDbLayerTableRecord
  2
SKEL
 70
0
 62
7
  6
CONTINUOUS
370
-3
390
F
  0
LAYER
  5
212
100
AcDbSymbolTableRecord
100
AcDbLayerTableRecord
  2
SMUSSO
 70
0
 62
7
  6
CONTINUOUS
370
-3
390
F
  0
LAYER
  5
213
100
AcDbSymbolTableRecord
100
AcDbLayerTableRecord
  2
SNAPLINE
 70
0
 62
7
  6
CONTINUOUS
370
-3
390
F
  0
LAYER
  5
214
100
AcDbSymbolTableRecord
100
AcDbLayerTableRecord
  2
SUPERFICI
 70
0
 62
7
  6
CONTINUOUS
370
-3
390
F
  0
LAYER
  5
215
100
AcDbSymbolTableRecord
100
AcDbLayerTableRecord
  2
SUPERFICI_ESTETICHE
 70
0
 62
7
  6
CONTINUOUS
370
-3
390
F
  0
LAYER
  5
216
100
AcDbSymbolTableRecord
100
AcDbLayerTableRecord
  2
SUPERFICI_SKEL
 70
0
 62
7
  6
CONTINUOUS
370
-3
390
F
  0
LAYER
  5
217
100
AcDbSymbolTableRecord
100
AcDbLayerTableRecord
  2
TRASH
 70
0
 62
7
  6
CONTINUOUS
370
-3
390
F
  0
LAYER
  5
218
100
AcDbSymbolTableRecord
100
AcDbLayerTableRecord
  2
XSEC_DATUMS
 70
0
 62
7
  6
CONTINUOUS
370
-3
390
F
  0
ENDTAB
  0
TABLE
  2
STYLE
  5
3
100
AcDbSymbolTable
 70
1
  0
STYLE
  5
11
100
AcDbSymbolTableRecord
100
AcDbTextStyleTableRecord
  2
STANDARD
 70
0
 40
0.0
 41
0.8
 50
0.0
 71
0
 42
0.2
  3
txt
  4

  0
STYLE
  5
219
100
AcDbSymbolTableRecord
100
AcDbTextStyleTableRecord
  2
TEXTSTYLE_1
 70
0
 40
0.0
 41
0.8
 50
0.0
 71
0
 42
0.2
  3
gdt
  4

  0
ENDTAB
  0
TABLE
  2
VIEW
  5
6
100
AcDbSymbolTable
 70
0
  0
ENDTAB
  0
TABLE
  2
UCS
  5
7
100
AcDbSymbolTable
 70
0
  0
ENDTAB
  0
TABLE
  2
APPID
  5
9
100
AcDbSymbolTable
 70
1
  0
APPID
  5
21A
100
AcDbSymbolTableRecord
100
AcDbRegAppTableRecord
  2
ACAD
 70
0
  0
ENDTAB
  0
TABLE
  2
BLOCK_RECORD
  5
1
100
AcDbSymbolTable
 70
0
  0
BLOCK_RECORD
  5
21B
100
AcDbSymbolTableRecord
100
AcDbBlockTableRecord
  2
*Model_Space
  0
BLOCK_RECORD
  5
21C
100
AcDbSymbolTableRecord
100
AcDbBlockTableRecord
  2
*Paper_Space
  0
ENDTAB
  0
TABLE
  2
DIMSTYLE
  5
A
100
AcDbSymbolTable
 70
1
100
AcDbDimStyleTable
 71
0
  0
DIMSTYLE
105
21D
100
AcDbSymbolTableRecord
100
AcDbDimStyleTableRecord
  2
STANDARD
 70
0
  3

  4

 40
1.0
 41
3.0
 42
0.0625
 43
0.38
 44
0.18
 45
0.0
 46
0.0
 47
0.01
 48
0.01
140
3.0
141
0.09
142
0.0
143
25.4
144
1.0
145
0.0
146
1.0
147
0.09
 71
1.0
 72
0.0
 73
0
 74
0
 75
0
 76
0
 77
1
 78
8
170
0
171
2
172
0
173
0
174
0
175
0
176
0
177
0
178
0
270
2
271
2
272
2
273
2
274
2
275
0
280
0
281
0
282
0
283
1
284
8
285
0
286
0
287
3
288
0
340
11
  0
ENDTAB
  0
ENDSEC
  0
SECTION
  2
BLOCKS
  0
BLOCK
  5
20
100
AcDbEntity
  8
0
100
AcDbBlockBegin
  2
*Model_Space
 70
0
 10
0.0
 20
0.0
 30
0.0
  3
*Model_Space
  1

  0
ENDBLK
  5
21
100
AcDbEntity
  8
0
100
AcDbBlockEnd
  0
BLOCK
  5
1C
100
AcDbEntity
  8
0
100
AcDbBlockBegin
  2
*Paper_Space
 70
0
 10
0.0
 20
0.0
 30
0.0
  3
*Paper_Space
  1

  0
ENDBLK
  5
1D
100
AcDbEntity
  8
0
100
AcDbBlockEnd
  0
ENDSEC
  0
SECTION
  2
ENTITIES
  0
LWPOLYLINE
  5
21E
100
AcDbEntity
  8
ASSI
100
AcDbPolyline
 62
7
  6
CONTINUOUS
 90
12
 70
0
 10
-12.6021328887
 20
26.5255248093
 10
-12.6206427115
 20
26.5144674694
 10
-12.6418583389
 20
26.4988232183
 10
-12.6616761682
 20
26.4807447339
 10
-12.6798424957
 20
26.4604009388
 10
-12.6956972939
 20
26.4386331998
 10
-12.7095101658
 20
26.4151943957
 10
-12.7212304246
 20
26.3899814099
 10
-12.7302752507
 20
26.3641914375
 10
-12.7366438929
 20
26.3381325252
 10
-12.7404380685
 20
26.3111267677
 10
-12.7414411562
 20
26.2884378864
  0
LINE
  5
21F
100
AcDbEntity
  8
ASSI
100
AcDbLine
 62
7
  6
CONTINUOUS
 10
-12.6022740781
 20
26.5254494643
 11
-11.0350735876
 21
27.3709900831
  0
LINE
  5
220
100
AcDbEntity
  8
ASSI
100
AcDbLine
 62
253
  6
CONTINUOUS
 10
-12.509777457
 20
26.5213779194
 11
-10.9435267108
 21
27.3664061294
  0
LINE
  5
221
100
AcDbEntity
  8
ASSI
100
AcDbLine
 62
7
  6
CONTINUOUS
 10
-11.0308657508
 20
27.3730959608
 11
-11.0350312543
 21
27.3710129229
  0
LINE
  5
222
100
AcDbEntity
  8
ASSI
100
AcDbLine
 62
7
  6
CONTINUOUS
 10
-11.030807911
 20
27.3731227508
 11
-10.4871245332
 21
27.6242137517
  0
LINE
  5
223
100
AcDbEntity
  8
ASSI
100
AcDbLine
 62
253
  6
CONTINUOUS
 10
-10.9435267108
 20
27.3664061294
 11
-10.4008006481
 21
27.6170550105
  0
LINE
  5
224
100
AcDbEntity
  8
ASSI
100
AcDbLine
 62
7
  6
CONTINUOUS
 10
-10.4637761508
 20
27.6335340005
 11
-10.4869075148
 21
27.6243134284
  0
LWPOLYLINE
  5
225
100
AcDbEntity
  8
ASSI
100
AcDbPolyline
 62
7
  6
CONTINUOUS
 90
19
 70
0
 10
-16.2567812487
 20
22.7000648549
 10
-16.2687379475
 20
22.6928763309
 10
-16.3409365698
 20
22.6450194569
 10
-16.410023618
 20
22.5916106221
 10
-16.4760038524
 20
22.5329319611
 10
-16.5387709931
 20
22.4693183313
 10
-16.5980038601
 20
22.4012841035
 10
-16.6536226375
 20
22.3291159569
 10
-16.7054811888
 20
22.2530887233
 10
-16.753140324
 20
22.173918427
 10
-16.796474465
 20
22.0919203989
 10
-16.8353048162
 20
22.0073806607
 10
-16.8692492892
 20
21.9211307118
 10
-16.8981633349
 20
21.8334961556
 10
-16.9218740119
 20
21.7447525708
 10
-16.9401144701
 20
21.6556123808
 10
-16.9527009383
 20
21.5664393055
 10
-16.9594789366
 20
21.4773898438
 10
-16.9599327518
 20
21.4655191993
  0
LINE
  5
226
100
AcDbEntity
  8
ASSI
100
AcDbLine
 62
7
  6
CONTINUOUS
 10
-16.2569352226
 20
22.699986975
 11
-12.0265781376
 21
25.2077519253
  0
LINE
  5
227
100
AcDbEntity
  8
ASSI
100
AcDbLine
 62
253
  6
CONTINUOUS
 10
-12.0265781376
 20
25.0606366079
 11
-16.0204708663
 21
22.6930482462
  0
LWPOLYLINE
  5
228
100
AcDbEntity
  8
RACCORDO
100
AcDbPolyline
 62
7
  6
CONTINUOUS
 90
19
 70
0
 10
-15.2790252253
 20
22.2202986774
 10
-15.2928293438
 20
22.2122437757
 10
-15.3663525034
 20
22.1646688879
 10
-15.4378584483
 20
22.110534668
 10
-15.5070496114
 20
22.050204769
 10
-15.5735614551
 20
21.9841529457
 10
-15.6368718226
 20
21.9130328818
 10
-15.6966086808
 20
21.837450092
 10
-15.7525525513
 20
21.7578372034
 10
-15.8043932646
 20
21.6747153932
 10
-15.8518482126
 20
21.588655945
 10
-15.8946614026
 20
21.5001687886
 10
-15.9326028224
 20
21.4097422428
 10
-15.9654356926
 20
21.3179413117
 10
-15.9929174645
 20
21.2253093468
 10
-16.0148673658
 20
21.1322758222
 10
-16.0310724383
 20
21.0393136417
 10
-16.0413023996
 20
20.9470127859
 10
-16.0446011489
 20
20.8894510472
  0
LINE
  5
229
100
AcDbEntity
  8
RACCORDO
100
AcDbLine
 62
7
  6
CONTINUOUS
 10
-13.3545450479
 20
23.3241040504
 11
-15.2791264306
 21
22.2202509085
  0
LINE
  5
22A
100
AcDbEntity
  8
RACCORDO
100
AcDbLine
 62
253
  6
CONTINUOUS
 10
-13.2614080643
 20
23.3204738359
 11
-15.187022087
 21
22.2160284182
  0
LINE
  5
22B
100
AcDbEntity
  8
RACCORDO
100
AcDbLine
 62
253
  6
CONTINUOUS
 10
-15.5482692736
 20
22.4217669868
 11
-13.6125563346
 21
23.496047971
  0
LINE
  5
22C
100
AcDbEntity
  8
RACCORDO
100
AcDbLine
 62
253
  6
CONTINUOUS
 10
-15.4006859983
 20
22.1811749439
 11
-13.7509201076
 21
23.0967611804
  0
LINE
  5
22D
100
AcDbEntity
  8
ASSI
100
AcDbLine
 62
7
  6
CONTINUOUS
 10
-10.6606624592
 20
24.2775807815
 11
-11.2033885219
 21
23.9812906713
  0
LINE
  5
22E
100
AcDbEntity
  8
ASSI
100
AcDbLine
 62
253
  6
CONTINUOUS
 10
-10.4440634156
 20
25.4885208987
 11
-8.8221632889
 21
26.3057244184
  0
LINE
  5
22F
100
AcDbEntity
  8
ASSI
100
AcDbLine
 62
253
  6
CONTINUOUS
 10
-10.3026635985
 20
25.2446422894
 11
-8.6807634719
 21
26.0618458091
  0
LINE
  5
230
100
AcDbEntity
  8
ASSI
100
AcDbLine
 62
253
  6
CONTINUOUS
 10
-8.8221632889
 20
26.3057244184
 11
-8.2980568278
 21
26.5656850869
  0
LINE
  5
231
100
AcDbEntity
  8
ASSI
100
AcDbLine
 62
253
  6
CONTINUOUS
 10
-8.6807634719
 20
26.0618458091
 11
-8.1566590053
 21
26.3218054883
  0
LWPOLYLINE
  5
232
100
AcDbEntity
  8
ASSI
100
AcDbPolyline
 62
7
  6
CONTINUOUS
 90
12
 70
0
 10
-6.8856857102
 20
24.632833671
 10
-6.8938445746
 20
24.6282039137
 10
-6.9130302074
 20
24.6153477056
 10
-6.9308178996
 20
24.6004911061
 10
-6.9469684634
 20
24.5838217781
 10
-6.9614188252
 20
24.5653667061
 10
-6.97396137
 20
24.5453162098
 10
-6.9843985592
 20
24.5239304252
 10
-6.9926658019
 20
24.5012616935
 10
-6.9986370316
 20
24.477441342
 10
-7.00217206
 20
24.4527795361
 10
-7.0032056654
 20
24.4300871612
  0
LINE
  5
233
100
AcDbEntity
  8
ASSI
100
AcDbLine
 62
7
  6
CONTINUOUS
 10
-9.5832142225
 20
23.923696771
 11
-8.6807634719
 21
24.416371162
  0
LINE
  5
234
100
AcDbEntity
  8
ASSI
100
AcDbLine
 62
7
  6
CONTINUOUS
 10
-6.6738873397
 20
24.7471038392
 11
-6.8856997033
 21
24.6328262097
  0
LINE
  5
235
100
AcDbEntity
  8
ASSI
100
AcDbLine
 62
253
  6
CONTINUOUS
 10
-6.5594700523
 20
24.7413650982
 11
-6.7703243696
 21
24.6276043567
  0
LINE
  5
236
100
AcDbEntity
  8
ASSI
100
AcDbLine
 62
7
  6
CONTINUOUS
 10
-6.6738936323
 20
24.7471004633
 11
-6.6686794289
 21
24.7497110445
  0
LINE
  5
237
100
AcDbEntity
  8
ASSI
100
AcDbLine
 62
253
  6
CONTINUOUS
 10
-5.5341113716
 20
24.9206760094
 11
-2.3235639773
 21
26.5131311855
  0
LINE
  5
238
100
AcDbEntity
  8
ASSI
100
AcDbLine
 62
253
  6
CONTINUOUS
 10
-5.140020462
 20
24.7236305546
 11
-2.1467430768
 21
26.2083182044
  0
LINE
  5
239
100
AcDbEntity
  8
ASSI
100
AcDbLine
 62
7
  6
CONTINUOUS
 10
-1.6689306571
 20
27.842434165
 11
-8.0126277567
 21
24.7742935559
  0
LINE
  5
23A
100
AcDbEntity
  8
ASSI
100
AcDbLine
 62
7
  6
CONTINUOUS
 10
-2.6233063802
 20
26.617998387
 11
-6.6686211577
 21
24.7497379656
  0
LINE
  5
23B
100
AcDbEntity
  8
ASSI
100
AcDbLine
 62
253
  6
CONTINUOUS
 10
-2.5154015256
 20
26.6090499596
 11
-6.5594700523
 21
24.7413650982
  0
LINE
  5
23C
100
AcDbEntity
  8
ASSI
100
AcDbLine
 62
7
  6
CONTINUOUS
 10
-2.5866386423
 20
26.6327760769
 11
-2.6234066693
 21
26.6179406911
  0
LWPOLYLINE
  5
23D
100
AcDbEntity
  8
ASSI
100
AcDbPolyline
 62
7
  6
CONTINUOUS
 90
6
 70
0
 10
-8.1282338845
 20
25.8534732444
 10
-8.1187598959
 20
25.8659013762
 10
-8.1051469797
 20
25.8867559107
 10
-8.0932936467
 20
25.9090225488
 10
-8.0833505488
 20
25.9325835211
 10
-8.0756968378
 20
25.9565604994
  0
LINE
  5
23E
100
AcDbEntity
  8
ASSI
100
AcDbLine
 62
253
  6
CONTINUOUS
 10
-8.139896166
 20
25.9097464324
 11
-8.6807634719
 21
25.2404589462
  0
LINE
  5
23F
100
AcDbEntity
  8
ASSI
100
AcDbLine
 62
7
  6
CONTINUOUS
 10
-8.1282087228
 20
25.8535042088
 11
-8.6807634719
 21
25.1697542854
  0
LINE
  5
240
100
AcDbEntity
  8
DRAFT
100
AcDbLine
 62
7
  6
CONTINUOUS
 10
-8.905238101
 20
21.1423888542
 11
-8.185788725
 21
21.5351574156
  0
LINE
  5
241
100
AcDbEntity
  8
ASSI
100
AcDbLine
 62
7
  6
CONTINUOUS
 10
-4.3736261096
 20
22.0344279424
 11
-4.1552800723
 21
22.1536294622
  0
LINE
  5
242
100
AcDbEntity
  8
ASSI
100
AcDbLine
 62
7
  6
CONTINUOUS
 10
-2.9615767385
 20
22.8909485386
 11
-3.1733891021
 21
22.7766709091
  0
LINE
  5
243
100
AcDbEntity
  8
ASSI
100
AcDbLine
 62
253
  6
CONTINUOUS
 10
-2.847159451
 20
22.8852097976
 11
-3.0580137683
 21
22.771449056
  0
LINE
  5
244
100
AcDbEntity
  8
ASSI
100
AcDbLine
 62
7
  6
CONTINUOUS
 10
-4.1552800723
 20
22.1536294622
 11
-3.4605158859
 21
22.5118426491
  0
LINE
  5
245
100
AcDbEntity
  8
ASSI
100
AcDbLine
 62
253
  6
CONTINUOUS
 10
-4.550375881
 20
23.5176301124
 11
-4.3320298436
 21
23.6276449939
  0
LINE
  5
246
100
AcDbEntity
  8
ASSI
100
AcDbLine
 62
253
  6
CONTINUOUS
 10
-4.3736261096
 20
23.2127818507
 11
-4.1552800723
 21
23.3227967322
  0
LINE
  5
247
100
AcDbEntity
  8
RACCORDO
100
AcDbLine
 62
253
  6
CONTINUOUS
 10
-16.1590794319
 20
17.3659701141
 11
-16.1954499679
 21
17.347714129
  0
LINE
  5
248
100
AcDbEntity
  8
ASSI
100
AcDbLine
 62
7
  6
CONTINUOUS
 10
-2.9615830311
 20
22.8909451627
 11
-2.9563688277
 21
22.8935557439
  0
LINE
  5
249
100
AcDbEntity
  8
ASSI
100
AcDbLine
 62
7
  6
CONTINUOUS
 10
0.3665837667
 20
25.3886381227
 11
-3.4605158859
 21
23.4826605408
  0
LINE
  5
24A
100
AcDbEntity
  8
ASSI
100
AcDbLine
 62
7
  6
CONTINUOUS
 10
-3.9661664296
 20
24.1367035384
 11
-2.1468142059
 21
25.0391156538
  0
LINE
  5
24B
100
AcDbEntity
  8
ASSI
100
AcDbLine
 62
253
  6
CONTINUOUS
 10
-4.3320298436
 20
23.6276449939
 11
-3.6372656572
 21
23.9722531522
  0
LINE
  5
24C
100
AcDbEntity
  8
ASSI
100
AcDbLine
 62
253
  6
CONTINUOUS
 10
-4.1552800723
 20
23.3227967322
 11
-3.4605158859
 21
23.6674048906
  0
LINE
  5
24D
100
AcDbEntity
  8
ASSI
100
AcDbLine
 62
253
  6
CONTINUOUS
 10
-3.8123665394
 20
24.0598035933
 11
1.1047365518
 21
26.4556005606
  0
LINE
  5
24E
100
AcDbEntity
  8
ASSI
100
AcDbLine
 62
253
  6
CONTINUOUS
 10
-3.499182961
 20
23.8213913756
 11
1.2799639854
 21
26.1499709372
  0
LINE
  5
24F
100
AcDbEntity
  8
ASSI
100
AcDbLine
 62
7
  6
CONTINUOUS
 10
-2.2368598661
 20
23.2258488356
 11
-2.9563105565
 21
22.893582665
  0
LINE
  5
250
100
AcDbEntity
  8
ASSI
100
AcDbLine
 62
253
  6
CONTINUOUS
 10
-2.1277100751
 20
23.2174753611
 11
-2.847159451
 21
22.8852097976
  0
LWPOLYLINE
  5
251
100
AcDbEntity
  8
ASSI
100
AcDbPolyline
 62
7
  6
CONTINUOUS
 90
12
 70
0
 10
-1.7629496755
 20
-22.8426328116
 10
-1.7527580568
 20
-22.8470525546
 10
-1.687019461
 20
-22.871576298
 10
-1.618126072
 20
-22.8904194948
 10
-1.5465986899
 20
-22.9031848805
 10
-1.4731099854
 20
-22.9095488362
 10
-1.3980969601
 20
-22.9093162305
 10
-1.3220720393
 20
-22.9023671481
 10
-1.2457134836
 20
-22.8886782566
 10
-1.1694469879
 20
-22.8682693624
 10
-1.0935750445
 20
-22.8411939357
 10
-1.0857684007
 20
-22.8380179704
  0
LWPOLYLINE
  5
252
100
AcDbEntity
  8
ASSI
100
AcDbPolyline
 62
7
  6
CONTINUOUS
 90
10
 70
0
 10
-16.5419533244
 20
-15.4529380788
 10
-15.0625030272
 20
-16.281499316
 10
-13.4770027057
 20
-17.1449949421
 10
-11.8657468607
 20
-17.9978064209
 10
-10.2290976399
 20
-18.8397417495
 10
-8.5674192456
 20
-19.670614645
 10
-6.8810876303
 20
-20.4902473128
 10
-5.1704969895
 20
-21.2984662402
 10
-3.4360519857
 20
-22.0950995348
 10
-1.7621076707
 20
-22.8430051279
  0
LINE
  5
253
100
AcDbEntity
  8
ASSI
100
AcDbLine
 62
7
  6
CONTINUOUS
 10
-16.5416029254
 20
-15.4531368086
 11
-16.5419568855
 21
-15.452936057
  0
LWPOLYLINE
  5
254
100
AcDbEntity
  8
ASSI
100
AcDbPolyline
 62
7
  6
CONTINUOUS
 90
12
 70
0
 10
-3.173375109
 20
22.7766783704
 10
-3.1815339733
 20
22.772048613
 10
-3.2007196062
 20
22.759192405
 10
-3.2185072984
 20
22.7443358055
 10
-3.2346578622
 20
22.7276664775
 10
-3.249108224
 20
22.7092114055
 10
-3.2616507687
 20
22.6891609092
 10
-3.2720879579
 20
22.6677751245
 10
-3.2803552007
 20
22.6451063929
 10
-3.2863264304
 20
22.6212860414
 10
-3.2898614588
 20
22.5966242355
 10
-3.2908950642
 20
22.5739318606
  0
LINE
  5
255
100
AcDbEntity
  8
ASSI
100
AcDbLine
 62
253
  6
CONTINUOUS
 10
-0.8380652798
 20
21.6614748118
 11
-0.6197192424
 21
21.7714896933
  0
LINE
  5
256
100
AcDbEntity
  8
ASSI
100
AcDbLine
 62
253
  6
CONTINUOUS
 10
-0.6613155084
 20
21.3566265501
 11
-0.442969471
 21
21.4666414316
  0
LINE
  5
257
100
AcDbEntity
  8
ASSI
100
AcDbLine
 62
253
  6
CONTINUOUS
 10
-0.6197192424
 20
21.7714896933
 11
3.2855923384
 21
23.7085530277
  0
LINE
  5
258
100
AcDbEntity
  8
ASSI
100
AcDbLine
 62
253
  6
CONTINUOUS
 10
-0.442969471
 20
21.4666414316
 11
3.4624132389
 21
23.4037400466
  0
LINE
  5
259
100
AcDbEntity
  8
ASSI
100
AcDbLine
 62
7
  6
CONTINUOUS
 10
5.7734369124
 20
24.0747496402
 11
3.5705844116
 21
23.0390662466
  0
LINE
  5
25A
100
AcDbEntity
  8
ASSI
100
AcDbLine
 62
253
  6
CONTINUOUS
 10
5.8828912072
 20
24.0665232329
 11
3.5705844116
 21
22.979379292
  0
LINE
  5
25B
100
AcDbEntity
  8
ASSI
100
AcDbLine
 62
7
  6
CONTINUOUS
 10
2.9858499355
 20
23.8134202292
 11
-0.2919793947
 21
22.299610021
  0
LINE
  5
25C
100
AcDbEntity
  8
ASSI
100
AcDbLine
 62
253
  6
CONTINUOUS
 10
3.0937547901
 20
23.8044718018
 11
-0.2308643606
 21
22.2690525039
  0
LINE
  5
25D
100
AcDbEntity
  8
ASSI
100
AcDbLine
 62
7
  6
CONTINUOUS
 10
3.0225176734
 20
23.8281979191
 11
2.9857496463
 21
23.8133625333
  0
LINE
  5
25E
100
AcDbEntity
  8
ASSI
100
AcDbLine
 62
253
  6
CONTINUOUS
 10
4.4466045391
 20
-21.6081080596
 11
3.9057372333
 21
-21.4989050644
  0
LINE
  5
25F
100
AcDbEntity
  8
ASSI
100
AcDbLine
 62
253
  6
CONTINUOUS
 10
4.3734981119
 20
-21.3532971512
 11
3.9057372333
 21
-21.2588545987
  0
LWPOLYLINE
  5
260
100
AcDbEntity
  8
ASSI
100
AcDbPolyline
 62
7
  6
CONTINUOUS
 90
10
 70
0
 10
2.0330603016
 20
-23.1770782027
 10
2.0455188311
 20
-23.1828489889
 10
2.0668536625
 20
-23.1906558882
 10
2.089032721
 20
-23.1962503539
 10
2.111819805
 20
-23.1995352277
 10
2.135052721
 20
-23.2004433804
 10
2.1584821144
 20
-23.1989130453
 10
2.1817725524
 20
-23.1949369918
 10
2.2046951135
 20
-23.1885386699
 10
2.2285297801
 20
-23.1790829428
  0
LINE
  5
261
100
AcDbEntity
  8
ASSI
100
AcDbLine
 62
7
  6
CONTINUOUS
 10
2.0333400605
 20
-23.1772192739
 11
0.2524497539
 21
-22.2867741206
  0
LINE
  5
262
100
AcDbEntity
  8
ASSI
100
AcDbLine
 62
253
  6
CONTINUOUS
 10
1.9681394136
 20
-23.0418871486
 11
0.365102425
 21
-22.2403686543
  0
LINE
  5
263
100
AcDbEntity
  8
ASSI
100
AcDbLine
 62
253
  6
CONTINUOUS
 10
1.9681394136
 20
-22.7246169194
 11
1.0326708953
 21
-22.2568840891
  0
LINE
  5
264
100
AcDbEntity
  8
ASSI
100
AcDbLine
 62
253
  6
CONTINUOUS
 10
0.8391066092
 20
-22.160101946
 11
0.7130103206
 21
-22.0970535602
  0
LINE
  5
265
100
AcDbEntity
  8
ASSI
100
AcDbLine
 62
253
  6
CONTINUOUS
 10
2.0568363261
 20
-22.4930784568
 11
1.2741523519
 21
-22.1017364697
  0
LWPOLYLINE
  5
266
100
AcDbEntity
  8
ASSI
100
AcDbPolyline
 62
7
  6
CONTINUOUS
 90
14
 70
0
 10
-16.9599040489
 20
-14.6920070978
 10
-16.9590226738
 20
-14.7122834488
 10
-16.9511482641
 20
-14.8001535005
 10
-16.9368890322
 20
-14.8847089458
 10
-16.9163533167
 20
-14.9657244237
 10
-16.8896848571
 20
-15.0429483428
 10
-16.8571050153
 20
-15.1159205513
 10
-16.8188698375
 20
-15.1842632613
 10
-16.7752584623
 20
-15.2476914129
 10
-16.7267239802
 20
-15.3057358558
 10
-16.6737464317
 20
-15.3580323175
 10
-16.6168534179
 20
-15.404316383
 10
-16.5567788842
 20
-15.4442898164
 10
-16.5415396697
 20
-15.4531685822
  0
LINE
  5
267
100
AcDbEntity
  8
RACCORDO
100
AcDbLine
 62
7
  6
CONTINUOUS
 10
-16.1273158362
 20
18.4215780506
 11
-16.1633575534
 21
17.2192594062
  0
LWPOLYLINE
  5
268
100
AcDbEntity
  8
ASSI
100
AcDbPolyline
 62
7
  6
CONTINUOUS
 90
13
 70
0
 10
-16.9599356227
 20
21.4656657093
 10
-17.0530210285
 20
18.4578528723
 10
-17.1309976205
 20
15.3932036313
 10
-17.1916558284
 20
12.3370330199
 10
-17.234983801
 20
9.2895219512
 10
-17.2609763167
 20
6.2508279508
 10
-17.2696296879
 20
3.2210996062
 10
-17.2609413526
 20
0.2004915211
 10
-17.2349136003
 20
-2.8108443818
 10
-17.1915497842
 20
-5.8127634116
 10
-17.1308548696
 20
-8.8051132782
 10
-17.0528404608
 20
-11.7877251497
 10
-16.9599144519
 20
-14.6919410863
  0
LINE
  5
269
100
AcDbEntity
  8
RACCORDO
100
AcDbLine
 62
7
  6
CONTINUOUS
 10
-16.1002946041
 20
19.2672364416
 11
-16.1273158362
 21
18.4215780506
  0
LINE
  5
26A
100
AcDbEntity
  8
RACCORDO
100
AcDbLine
 62
7
  6
CONTINUOUS
 10
-16.0718744885
 20
20.1135482974
 11
-16.1002946041
 21
19.2672364416
  0
LINE
  5
26B
100
AcDbEntity
  8
RACCORDO
100
AcDbLine
 62
7
  6
CONTINUOUS
 10
-16.0446091345
 20
20.8894811445
 11
-16.0718744885
 21
20.1135482974
  0
LINE
  5
26C
100
AcDbEntity
  8
DRAFT
100
AcDbLine
 62
7
  6
CONTINUOUS
 10
-4.6379122243
 20
19.0087259159
 11
-3.9431480379
 21
19.4138370721
  0
LWPOLYLINE
  5
26D
100
AcDbEntity
  8
ASSI
100
AcDbPolyline
 62
7
  6
CONTINUOUS
 90
12
 70
0
 10
-0.0156798128
 20
20.2322493059
 10
-0.0269998358
 20
20.2257486557
 10
-0.049284636
 20
20.2104077286
 10
-0.0701752189
 20
20.1924168483
 10
-0.0893609271
 20
20.1719745584
 10
-0.1061309661
 20
20.1499528121
 10
-0.1207908125
 20
20.1260777144
 10
-0.1332655449
 20
20.1002657543
 10
-0.1429045775
 20
20.0738170422
 10
-0.1497136077
 20
20.0470615206
 10
-0.1538120118
 20
20.0192515239
 10
-0.154940479
 20
19.995185614
  0
LINE
  5
26E
100
AcDbEntity
  8
ASSI
100
AcDbLine
 62
7
  6
CONTINUOUS
 10
-0.442969471
 20
20.2974741615
 11
-0.6613155084
 21
20.1782726418
  0
LINE
  5
26F
100
AcDbEntity
  8
ASSI
100
AcDbLine
 62
7
  6
CONTINUOUS
 10
1.5514271175
 20
21.0777397306
 11
-0.0157733728
 21
20.2321991118
  0
LINE
  5
270
100
AcDbEntity
  8
ASSI
100
AcDbLine
 62
253
  6
CONTINUOUS
 10
1.6429739943
 20
21.0731557768
 11
0.0767232481
 21
20.2281275668
  0
LINE
  5
271
100
AcDbEntity
  8
ASSI
100
AcDbLine
 62
7
  6
CONTINUOUS
 10
1.5514705518
 20
21.0777631209
 11
1.5556369884
 21
21.0798466253
  0
LINE
  5
272
100
AcDbEntity
  8
ASSI
100
AcDbLine
 62
7
  6
CONTINUOUS
 10
-0.442969471
 20
20.2974741615
 11
3.4623421097
 21
22.2345374959
  0
LINE
  5
273
100
AcDbEntity
  8
ASSI
100
AcDbLine
 62
7
  6
CONTINUOUS
 10
8.6565584161
 20
22.6796896284
 11
4.002529652
 21
20.4753398029
  0
LINE
  5
274
100
AcDbEntity
  8
ASSI
100
AcDbLine
 62
7
  6
CONTINUOUS
 10
2.099376172
 20
21.3309633992
 11
1.5556927941
 21
21.0798723982
  0
LINE
  5
275
100
AcDbEntity
  8
ASSI
100
AcDbLine
 62
253
  6
CONTINUOUS
 10
2.185700057
 20
21.3238046579
 11
1.6429739943
 21
21.0731557768
  0
LINE
  5
276
100
AcDbEntity
  8
ASSI
100
AcDbLine
 62
7
  6
CONTINUOUS
 10
2.1737591544
 20
-21.4953214374
 11
2.6528451947
 21
-21.7348644576
  0
LINE
  5
277
100
AcDbEntity
  8
ASSI
100
AcDbLine
 62
253
  6
CONTINUOUS
 10
3.9057372333
 20
-21.1194255619
 11
4.3734981119
 21
-21.3532971512
  0
LINE
  5
278
100
AcDbEntity
  8
ASSI
100
AcDbLine
 62
7
  6
CONTINUOUS
 10
4.3967735183
 20
-21.3613298648
 11
3.9057372333
 21
-21.115811722
  0
LWPOLYLINE
  5
279
100
AcDbEntity
  8
RACCORDO
100
AcDbPolyline
 62
7
  6
CONTINUOUS
 90
17
 70
0
 10
-16.1628135313
 20
17.1242060802
 10
-16.1570272245
 20
17.0384806493
 10
-16.1463608477
 20
16.9519692489
 10
-16.1309575517
 20
16.8650612513
 10
-16.1109373833
 20
16.7780814683
 10
-16.0864132994
 20
16.6914417169
 10
-16.057543032
 20
16.6056012465
 10
-16.0244765211
 20
16.5209941341
 10
-15.987360753
 20
16.4380810056
 10
-15.9463751551
 20
16.3573017352
 10
-15.9016899204
 20
16.2790722542
 10
-15.8534305037
 20
16.2037739982
 10
-15.8018402736
 20
16.1319119296
 10
-15.7472426177
 20
16.0640529026
 10
-15.689762032
 20
16.0005217056
 10
-15.6296846419
 20
15.9417909545
 10
-15.5675651715
 20
15.8885142988
  0
LINE
  5
27A
100
AcDbEntity
  8
0
100
AcDbLine
 62
7
  6
CONTINUOUS
 10
-15.1861458588
 20
9.9832036265
 11
-15.1861458588
 21
-4.3062155359
  0
LINE
  5
27B
100
AcDbEntity
  8
0
100
AcDbLine
 62
7
  6
CONTINUOUS
 10
-14.4083283995
 20
4.516528739
 11
-14.4083283995
 21
4.0835160371
  0
LINE
  5
27C
100
AcDbEntity
  8
RACCORDO
100
AcDbLine
 62
253
  6
CONTINUOUS
 10
-14.2669070432
 20
-2.773976515
 11
-14.2669070432
 21
4.012805359
  0
LWPOLYLINE
  5
27D
100
AcDbEntity
  8
RACCORDO
100
AcDbPolyline
 62
7
  6
CONTINUOUS
 90
3
 70
0
 10
-16.1633455482
 20
17.2193201613
 10
-16.1636098992
 20
17.2086266007
 10
-16.1628135313
 20
17.1242060802
  0
LWPOLYLINE
  5
27E
100
AcDbEntity
  8
RACCORDO
100
AcDbPolyline
 62
7
  6
CONTINUOUS
 90
19
 70
0
 10
-1.9248095816
 20
15.5683136399
 10
-1.9405055546
 20
15.5591333815
 10
-2.0155789183
 20
15.5102522746
 10
-2.0884640084
 20
15.454579604
 10
-2.1588232412
 20
15.3925490528
 10
-2.2263073864
 20
15.3246569688
 10
-2.2904486326
 20
15.2515191682
 10
-2.3508778907
 20
15.1737423363
 10
-2.407322891
 20
15.0918136289
 10
-2.4594449738
 20
15.0063062005
 10
-2.5069491451
 20
14.9178183817
 10
-2.5495528949
 20
14.8269017967
 10
-2.5870006953
 20
14.7341324027
 10
-2.619041564
 20
14.6401180339
 10
-2.6454334184
 20
14.5454281151
 10
-2.6659914436
 20
14.4505446476
 10
-2.6804925517
 20
14.3559786784
 10
-2.6887263267
 20
14.2623642601
 10
-2.6898715419
 20
14.2367917149
  0
LINE
  5
27F
100
AcDbEntity
  8
RACCORDO
100
AcDbLine
 62
7
  6
CONTINUOUS
 10
-0.0237815572
 20
16.6586680015
 11
-1.9249181206
 21
15.5682617514
  0
LINE
  5
280
100
AcDbEntity
  8
RACCORDO
100
AcDbLine
 62
253
  6
CONTINUOUS
 10
0.0694060093
 20
16.6550667991
 11
-1.8328137862
 21
15.5640392558
  0
LINE
  5
281
100
AcDbEntity
  8
RACCORDO
100
AcDbLine
 62
253
  6
CONTINUOUS
 10
-2.2412613597
 20
15.7431480196
 11
-0.281742261
 21
16.8306409342
  0
LINE
  5
282
100
AcDbEntity
  8
RACCORDO
100
AcDbLine
 62
253
  6
CONTINUOUS
 10
-2.093678085
 20
15.5025559764
 11
-0.420106034
 21
16.4313541436
  0
LINE
  5
283
100
AcDbEntity
  8
ASSI
100
AcDbLine
 62
7
  6
CONTINUOUS
 10
1.9258382459
 20
17.984330429
 11
1.3831121832
 21
17.6880403187
  0
LINE
  5
284
100
AcDbEntity
  8
ASSI
100
AcDbLine
 62
7
  6
CONTINUOUS
 10
9.886442348
 20
21.6874816314
 11
4.1869704519
 21
18.6744944516
  0
LINE
  5
285
100
AcDbEntity
  8
ASSI
100
AcDbLine
 62
7
  6
CONTINUOUS
 10
9.867682511
 20
22.0837964523
 11
4.021263481
 21
19.0194600166
  0
LINE
  5
286
100
AcDbEntity
  8
ASSI
100
AcDbLine
 62
253
  6
CONTINUOUS
 10
3.7643374162
 20
20.0124740659
 11
2.1424372895
 21
19.1952705461
  0
LINE
  5
287
100
AcDbEntity
  8
ASSI
100
AcDbLine
 62
253
  6
CONTINUOUS
 10
3.9057372333
 20
19.7685954566
 11
2.2838371066
 21
18.9513919368
  0
LINE
  5
288
100
AcDbEntity
  8
0
100
AcDbLine
 62
7
  6
CONTINUOUS
 10
-15.1861458588
 20
9.9832036265
 11
-15.0503114817
 21
10.051120815
  0
LINE
  5
289
100
AcDbEntity
  8
ASSI
100
AcDbLine
 62
253
  6
CONTINUOUS
 10
4.2884418827
 20
20.272433745
 11
3.7643374162
 21
20.0124740659
  0
LINE
  5
28A
100
AcDbEntity
  8
ASSI
100
AcDbLine
 62
253
  6
CONTINUOUS
 10
4.4298416998
 20
20.0285551357
 11
3.9057372333
 21
19.7685954566
  0
LINE
  5
28B
100
AcDbEntity
  8
ASSI
100
AcDbLine
 62
253
  6
CONTINUOUS
 10
4.6005552676
 20
18.4677020438
 11
3.905739895
 21
18.1231220387
  0
LINE
  5
28C
100
AcDbEntity
  8
RACCORDO
100
AcDbLine
 62
253
  6
CONTINUOUS
 10
9.0583009435
 20
-13.210232844
 11
4.9849136477
 21
-14.3396258164
  0
LINE
  5
28D
100
AcDbEntity
  8
RACCORDO
100
AcDbLine
 62
7
  6
CONTINUOUS
 10
8.9462604031
 20
-13.1940451935
 11
4.9849136477
 21
-14.2923736513
  0
LWPOLYLINE
  5
28E
100
AcDbEntity
  8
ASSI
100
AcDbPolyline
 62
7
  6
CONTINUOUS
 90
9
 70
0
 10
-12.7414416499
 20
25.9711291741
 10
-12.7413080304
 20
25.9630024294
 10
-12.7391252573
 20
25.9372346101
 10
-12.7342776259
 20
25.9120571619
 10
-12.7268148754
 20
25.8877882685
 10
-12.7169105528
 20
25.8648216056
 10
-12.7046997709
 20
25.8433072272
 10
-12.6902826658
 20
25.8233728302
 10
-12.6739003247
 20
25.8053184823
  0
LINE
  5
28F
100
AcDbEntity
  8
0
100
AcDbLine
 62
7
  6
CONTINUOUS
 10
-13.9487089917
 20
-6.3971771559
 11
-13.9487089917
 21
-4.9249339695
  0
LINE
  5
290
100
AcDbEntity
  8
RACCORDO
100
AcDbLine
 62
253
  6
CONTINUOUS
 10
-13.5598002621
 20
-2.3409638131
 11
-13.5598002621
 21
3.5952097209
  0
LINE
  5
291
100
AcDbEntity
  8
ASSI
100
AcDbLine
 62
7
  6
CONTINUOUS
 10
-12.7414412113
 20
25.9711291744
 11
-12.741441258
 21
26.2884662835
  0
LINE
  5
292
100
AcDbEntity
  8
ASSI
100
AcDbLine
 62
253
  6
CONTINUOUS
 10
-12.6828626142
 20
25.9005041556
 11
-12.6828626142
 21
26.2177556054
  0
LINE
  5
293
100
AcDbEntity
  8
RACCORDO
100
AcDbLine
 62
253
  6
CONTINUOUS
 10
-12.2870080559
 20
-5.0629641144
 11
-12.2870080559
 21
-3.7639260087
  0
LINE
  5
294
100
AcDbEntity
  8
ASSI
100
AcDbLine
 62
7
  6
CONTINUOUS
 10
-12.0265781376
 20
25.015665613
 11
-12.0265781376
 21
25.4696127649
  0
LINE
  5
295
100
AcDbEntity
  8
ASSI
100
AcDbLine
 62
253
  6
CONTINUOUS
 10
-11.9533548329
 20
24.9239269683
 11
-11.9533548329
 21
25.4330011125
  0
LINE
  5
296
100
AcDbEntity
  8
ASSI
100
AcDbLine
 62
7
  6
CONTINUOUS
 10
-11.8206174006
 20
24.160261896
 11
-11.8206174006
 21
25.3705559798
  0
LWPOLYLINE
  5
297
100
AcDbEntity
  8
ASSI
100
AcDbPolyline
 62
7
  6
CONTINUOUS
 90
3
 70
0
 10
-8.0756968378
 20
25.9565604994
 10
-8.0703325475
 20
25.9807175521
 10
-8.0671893513
 20
26.0055476367
  0
LINE
  5
298
100
AcDbEntity
  8
ASSI
100
AcDbLine
 62
253
  6
CONTINUOUS
 10
-1.2944950535
 20
15.3300603707
 11
2.9426543939
 21
17.605539103
  0
LINE
  5
299
100
AcDbEntity
  8
ASSI
100
AcDbLine
 62
253
  6
CONTINUOUS
 10
4.2592906238
 20
17.5133312086
 11
-0.9318142238
 21
14.7255492754
  0
LINE
  5
29A
100
AcDbEntity
  8
0
100
AcDbLine
 62
7
  6
CONTINUOUS
 10
9.8807895343
 20
19.8880559849
 11
8.8201293625
 21
19.357725899
  0
LINE
  5
29B
100
AcDbEntity
  8
0
100
AcDbLine
 62
7
  6
CONTINUOUS
 10
9.8807895343
 20
19.0220305811
 11
9.6861547663
 21
18.9247131971
  0
LINE
  5
29C
100
AcDbEntity
  8
0
100
AcDbLine
 62
7
  6
CONTINUOUS
 10
11.1535817404
 20
19.2516598818
 11
10.0929215686
 21
18.721329796
  0
LINE
  5
29D
100
AcDbEntity
  8
ASSI
100
AcDbLine
 62
253
  6
CONTINUOUS
 10
4.9540548103
 20
17.8580055205
 11
4.2592906238
 21
17.5133973621
  0
LINE
  5
29E
100
AcDbEntity
  8
0
100
AcDbLine
 62
7
  6
CONTINUOUS
 10
-13.9487089917
 20
-6.3971771559
 11
-5.3927169393
 21
-10.6751731821
  0
LINE
  5
29F
100
AcDbEntity
  8
ASSI
100
AcDbLine
 62
253
  6
CONTINUOUS
 10
-11.7473940959
 20
24.0684533505
 11
-11.7473940959
 21
25.4327525459
  0
LINE
  5
2A0
100
AcDbEntity
  8
0
100
AcDbLine
 62
7
  6
CONTINUOUS
 10
-11.6506119528
 20
6.6998922169
 11
-11.6506119528
 21
5.3142515709
  0
LINE
  5
2A1
100
AcDbEntity
  8
RACCORDO
100
AcDbLine
 62
253
  6
CONTINUOUS
 10
-11.5799012747
 20
-4.6299514125
 11
-11.5799012747
 21
-3.3309133068
  0
LINE
  5
2A2
100
AcDbEntity
  8
ASSI
100
AcDbLine
 62
253
  6
CONTINUOUS
 10
-11.5538298098
 20
23.9716712074
 11
-11.5538298098
 21
25.3359704029
  0
LINE
  5
2A3
100
AcDbEntity
  8
SMUSSO
100
AcDbLine
 62
253
  6
CONTINUOUS
 10
-11.4384799185
 20
-6.7862662887
 11
-11.4384799185
 21
-5.4872281831
  0
LINE
  5
2A4
100
AcDbEntity
  8
ASSI
100
AcDbLine
 62
253
  6
CONTINUOUS
 10
-11.2033885219
 20
23.9812906713
 11
-11.2033885219
 21
25.058017957
  0
LINE
  5
2A5
100
AcDbEntity
  8
0
100
AcDbLine
 62
7
  6
CONTINUOUS
 10
-10.9435051717
 20
6.3463388263
 11
-10.9435051717
 21
5.6678049614
  0
LINE
  5
2A6
100
AcDbEntity
  8
SMUSSO
100
AcDbLine
 62
253
  6
CONTINUOUS
 10
-10.7313731373
 20
-6.7060787514
 11
-10.7313731373
 21
-5.0542154812
  0
LINE
  5
2A7
100
AcDbEntity
  8
ASSI
100
AcDbLine
 62
7
  6
CONTINUOUS
 10
-10.6606624592
 20
24.7866549257
 11
-10.6606624592
 21
24.2775807815
  0
LINE
  5
2A8
100
AcDbEntity
  8
ASSI
100
AcDbLine
 62
253
  6
CONTINUOUS
 10
-10.6183612915
 20
24.8682361437
 11
-10.6183612915
 21
25.1855074438
  0
LINE
  5
2A9
100
AcDbEntity
  8
ASSI
100
AcDbLine
 62
253
  6
CONTINUOUS
 10
-10.3380082612
 20
24.8670128418
 11
-10.3380082612
 21
25.1842816422
  0
LINE
  5
2AA
100
AcDbEntity
  8
ASSI
100
AcDbLine
 62
253
  6
CONTINUOUS
 10
-9.9336555105
 20
23.9140773071
 11
-9.9336555105
 21
24.5942485955
  0
LINE
  5
2AB
100
AcDbEntity
  8
ASSI
100
AcDbLine
 62
253
  6
CONTINUOUS
 10
-9.5832142225
 20
24.6818972172
 11
-9.5832142225
 21
23.923696771
  0
LINE
  5
2AC
100
AcDbEntity
  8
RACCORDO
100
AcDbLine
 62
253
  6
CONTINUOUS
 10
9.2887511745
 20
21.210512534
 11
4.9259189696
 21
18.0402148376
  0
LINE
  5
2AD
100
AcDbEntity
  8
RACCORDO
100
AcDbLine
 62
7
  6
CONTINUOUS
 10
9.2260352908
 20
21.0547218504
 11
4.9471010473
 21
17.945389486
  0
LINE
  5
2AE
100
AcDbEntity
  8
RACCORDO
100
AcDbLine
 62
7
  6
CONTINUOUS
 10
-3.1045481139
 20
9.9527724732
 11
-3.1051522895
 21
9.952458067
  0
LINE
  5
2AF
100
AcDbEntity
  8
0
100
AcDbLine
 62
7
  6
CONTINUOUS
 10
-14.2669070432
 20
4.5872394172
 11
-14.4083283995
 21
4.516528739
  0
LINE
  5
2B0
100
AcDbEntity
  8
0
100
AcDbLine
 62
7
  6
CONTINUOUS
 10
-11.6506119528
 20
5.3142515709
 11
-10.9435051717
 21
5.6678049614
  0
LINE
  5
2B1
100
AcDbEntity
  8
RACCORDO
100
AcDbLine
 62
253
  6
CONTINUOUS
 10
-2.8017761006
 20
10.720180887
 11
-2.8912989409
 21
10.6761939619
  0
LINE
  5
2B2
100
AcDbEntity
  8
RACCORDO
100
AcDbLine
 62
7
  6
CONTINUOUS
 10
-3.2425162809
 20
10.0103577826
 11
-3.2414089896
 21
10.0108978643
  0
LINE
  5
2B3
100
AcDbEntity
  8
DRAFT
100
AcDbLine
 62
7
  6
CONTINUOUS
 10
-2.8921970709
 20
10.1807099707
 11
-3.2425199136
 21
10.0103560161
  0
LINE
  5
2B4
100
AcDbEntity
  8
SMUSSO
100
AcDbLine
 62
7
  6
CONTINUOUS
 10
-11.4384799185
 20
-6.7862662887
 11
-7.9029460126
 21
-8.5540332417
  0
LINE
  5
2B5
100
AcDbEntity
  8
0
100
AcDbLine
 62
7
  6
CONTINUOUS
 10
-15.1861458588
 20
-4.3062155359
 11
-13.9487089917
 21
-4.9249339695
  0
LINE
  5
2B6
100
AcDbEntity
  8
0
100
AcDbLine
 62
7
  6
CONTINUOUS
 10
-4.1552800723
 20
-9.8216484292
 11
-5.3927169393
 21
-9.2029299957
  0
LINE
  5
2B7
100
AcDbEntity
  8
RACCORDO
100
AcDbLine
 62
253
  6
CONTINUOUS
 10
-7.0544178751
 20
-7.6792592047
 11
-7.9029460126
 21
-7.254995136
  0
LINE
  5
2B8
100
AcDbEntity
  8
RACCORDO
100
AcDbLine
 62
253
  6
CONTINUOUS
 10
-11.4384799185
 20
-5.4872281831
 11
-12.2870080559
 21
-5.0629641144
  0
LWPOLYLINE
  5
2B9
100
AcDbEntity
  8
ASSI
100
AcDbPolyline
 62
7
  6
CONTINUOUS
 90
5
 70
0
 10
4.4704671774
 20
-21.4212195122
 10
4.4539542314
 20
-21.402652779
 10
4.4356392185
 20
-21.3862181549
 10
4.4156611413
 20
-21.3719806218
 10
4.3965099038
 20
-21.3611991453
  0
LWPOLYLINE
  5
2BA
100
AcDbEntity
  8
ASSI
100
AcDbPolyline
 62
7
  6
CONTINUOUS
 90
13
 70
0
 10
-8.0663951566
 20
26.3656831863
 10
-8.0664608117
 20
26.3714195407
 10
-8.068313096
 20
26.3965921395
 10
-8.0727247575
 20
26.4213267807
 10
-8.0796480698
 20
26.4452424387
 10
-8.0889266136
 20
26.4679344209
 10
-8.1004632071
 20
26.4892940882
 10
-8.1141866586
 20
26.5092219233
 10
-8.1298959162
 20
26.5274364929
 10
-8.1473659654
 20
26.5437220648
 10
-8.1664866109
 20
26.5580001719
 10
-8.186983965
 20
26.5700718726
 10
-8.1897624498
 20
26.5714851735
  0
LINE
  5
2BB
100
AcDbEntity
  8
0
100
AcDbLine
 62
7
  6
CONTINUOUS
 10
-8.9636061843
 20
-4.1703320047
 11
-8.9636061843
 21
-5.4693701104
  0
LINE
  5
2BC
100
AcDbEntity
  8
ASSI
100
AcDbLine
 62
7
  6
CONTINUOUS
 10
-8.6807634719
 20
24.416371162
 11
-8.6807634719
 21
26.0618458091
  0
LINE
  5
2BD
100
AcDbEntity
  8
DRAFT
100
AcDbLine
 62
7
  6
CONTINUOUS
 10
-8.185788725
 20
21.5351574156
 11
-8.185788725
 21
20.7826641662
  0
LINE
  5
2BE
100
AcDbEntity
  8
ASSI
100
AcDbLine
 62
253
  6
CONTINUOUS
 10
-8.1225270613
 20
26.2961831444
 11
-8.1225270613
 21
25.9562395495
  0
LINE
  5
2BF
100
AcDbEntity
  8
ASSI
100
AcDbLine
 62
7
  6
CONTINUOUS
 10
-8.0663950331
 20
26.3656831863
 11
-8.0663950214
 21
26.0257053866
  0
LINE
  5
2C0
100
AcDbEntity
  8
RACCORDO
100
AcDbLine
 62
7
  6
CONTINUOUS
 10
-8.049392622
 20
-6.7725313907
 11
-8.049392622
 21
-8.3537381496
  0
LINE
  5
2C1
100
AcDbEntity
  8
SMUSSO
100
AcDbLine
 62
253
  6
CONTINUOUS
 10
-7.9029460126
 20
-7.254995136
 11
-7.9029460126
 21
-8.5540332417
  0
LINE
  5
2C2
100
AcDbEntity
  8
0
100
AcDbLine
 62
7
  6
CONTINUOUS
 10
-7.6908139782
 20
3.3343525835
 11
-7.6908139782
 21
4.7199932296
  0
LINE
  5
2C3
100
AcDbEntity
  8
RACCORDO
100
AcDbLine
 62
7
  6
CONTINUOUS
 10
-7.2008644845
 20
-5.8977573537
 11
-7.2008644845
 21
-7.1967954594
  0
LINE
  5
2C4
100
AcDbEntity
  8
RACCORDO
100
AcDbLine
 62
253
  6
CONTINUOUS
 10
-7.0544178751
 20
-6.3802210991
 11
-7.0544178751
 21
-7.6792592047
  0
LINE
  5
2C5
100
AcDbEntity
  8
ASSI
100
AcDbLine
 62
7
  6
CONTINUOUS
 10
-7.0032061808
 20
24.4300400293
 11
-7.0032061808
 21
23.2454355236
  0
LINE
  5
2C6
100
AcDbEntity
  8
ASSI
100
AcDbLine
 62
253
  6
CONTINUOUS
 10
-6.9446275371
 20
24.3593293512
 11
-6.9446275371
 21
23.1720565699
  0
LINE
  5
2C7
100
AcDbEntity
  8
ASSI
100
AcDbLine
 62
7
  6
CONTINUOUS
 10
-8.0671893513
 20
26.0055476367
 11
-8.0663950357
 21
26.0257228713
  0
LWPOLYLINE
  5
2C8
100
AcDbEntity
  8
ASSI
100
AcDbPolyline
 62
7
  6
CONTINUOUS
 90
6
 70
0
 10
4.4582654289
 20
19.5602204678
 10
4.4661500849
 20
19.5704607972
 10
4.4801226138
 20
19.5914427686
 10
4.4923013572
 20
19.6138986449
 10
4.5025375112
 20
19.6377073071
 10
4.5104315847
 20
19.6619431269
  0
LINE
  5
2C9
100
AcDbEntity
  8
ASSI
100
AcDbLine
 62
253
  6
CONTINUOUS
 10
3.9057372333
 20
18.9472085937
 11
4.4466045391
 21
19.6164960798
  0
LINE
  5
2CA
100
AcDbEntity
  8
ASSI
100
AcDbLine
 62
7
  6
CONTINUOUS
 10
3.9057372372
 20
18.8765039376
 11
4.4582920337
 21
19.5602539198
  0
LINE
  5
2CB
100
AcDbEntity
  8
0
100
AcDbLine
 62
7
  6
CONTINUOUS
 10
14.9012476807
 20
17.3778269117
 11
13.8405875089
 21
16.8474968258
  0
LINE
  5
2CC
100
AcDbEntity
  8
0
100
AcDbLine
 62
7
  6
CONTINUOUS
 10
14.9012476807
 20
16.5118015079
 11
14.7066129127
 21
16.4144841239
  0
LINE
  5
2CD
100
AcDbEntity
  8
0
100
AcDbLine
 62
7
  6
CONTINUOUS
 10
16.1740398868
 20
16.7414308086
 11
15.1133797151
 21
16.2111007227
  0
LINE
  5
2CE
100
AcDbEntity
  8
RACCORDO
100
AcDbLine
 62
253
  6
CONTINUOUS
 10
-7.2008644845
 20
-6.8194698076
 11
-7.9029460126
 21
-6.4684290435
  0
LINE
  5
2CF
100
AcDbEntity
  8
RACCORDO
100
AcDbLine
 62
253
  6
CONTINUOUS
 10
-10.7313731373
 20
-5.0542154812
 11
-11.5799012747
 21
-4.6299514125
  0
LINE
  5
2D0
100
AcDbEntity
  8
SMUSSO
100
AcDbLine
 62
7
  6
CONTINUOUS
 10
-9.1757382187
 20
-5.5754361275
 11
-7.6463491996
 21
-6.3401306371
  0
LINE
  5
2D1
100
AcDbEntity
  8
0
100
AcDbLine
 62
7
  6
CONTINUOUS
 10
-7.4342171653
 20
-6.2340646199
 11
-8.9636061843
 21
-5.4693701104
  0
LINE
  5
2D2
100
AcDbEntity
  8
RACCORDO
100
AcDbLine
 62
253
  6
CONTINUOUS
 10
-5.0745188878
 20
-7.3701705927
 11
-7.0544178751
 21
-6.3802210991
  0
LINE
  5
2D3
100
AcDbEntity
  8
RACCORDO
100
AcDbLine
 62
253
  6
CONTINUOUS
 10
-12.2870080559
 20
-3.7639260087
 11
-14.2669070432
 21
-2.773976515
  0
LINE
  5
2D4
100
AcDbEntity
  8
ASSI
100
AcDbLine
 62
7
  6
CONTINUOUS
 10
9.886442348
 20
-14.6635340308
 11
9.2887511745
 21
-14.364688444
  0
LINE
  5
2D5
100
AcDbEntity
  8
RACCORDO
100
AcDbLine
 62
253
  6
CONTINUOUS
 10
-5.2209654972
 20
-6.5103811955
 11
-7.0544178751
 21
-5.5936550066
  0
LINE
  5
2D6
100
AcDbEntity
  8
RACCORDO
100
AcDbLine
 62
253
  6
CONTINUOUS
 10
-11.5799012747
 20
-3.3309133068
 11
-13.5598002621
 21
-2.3409638131
  0
LINE
  5
2D7
100
AcDbEntity
  8
ASSI
100
AcDbLine
 62
7
  6
CONTINUOUS
 10
7.8128199383
 20
-12.8472999625
 11
4.9849136477
 21
-11.4333468173
  0
LINE
  5
2D8
100
AcDbEntity
  8
RACCORDO
100
AcDbLine
 62
7
  6
CONTINUOUS
 10
9.0583009435
 20
-13.210232844
 11
9.0769325283
 21
-13.2195486364
  0
LINE
  5
2D9
100
AcDbEntity
  8
0
100
AcDbLine
 62
7
  6
CONTINUOUS
 10
-9.8121343218
 20
-3.746067936
 11
-8.9636061843
 21
-4.1703320047
  0
LINE
  5
2DA
100
AcDbEntity
  8
RACCORDO
100
AcDbLine
 62
7
  6
CONTINUOUS
 10
-5.3644765115
 20
-9.5797457214
 11
-5.34153913
 21
-10.9981221192
  0
LINE
  5
2DB
100
AcDbEntity
  8
0
100
AcDbLine
 62
7
  6
CONTINUOUS
 10
-5.3927169393
 20
-10.6751731821
 11
-5.3927169393
 21
-9.2029299957
  0
LINE
  5
2DC
100
AcDbEntity
  8
RACCORDO
100
AcDbLine
 62
7
  6
CONTINUOUS
 10
-5.2209654972
 20
-0.5708777172
 11
-5.2209654972
 21
-6.8877068474
  0
LINE
  5
2DD
100
AcDbEntity
  8
0
100
AcDbLine
 62
7
  6
CONTINUOUS
 10
-5.2159402441
 20
-0.5126780406
 11
-5.2159402441
 21
-0.0796653387
  0
LINE
  5
2DE
100
AcDbEntity
  8
RACCORDO
100
AcDbLine
 62
253
  6
CONTINUOUS
 10
-5.0745188878
 20
-0.4419673625
 11
-5.0745188878
 21
-7.3701705927
  0
LINE
  5
2DF
100
AcDbEntity
  8
RACCORDO
100
AcDbLine
 62
7
  6
CONTINUOUS
 10
-5.0745188878
 20
-0.4419673625
 11
-5.0745188878
 21
-0.0089546606
  0
LINE
  5
2E0
100
AcDbEntity
  8
ASSI
100
AcDbLine
 62
253
  6
CONTINUOUS
 10
-4.65397914
 20
22.0267323713
 11
-4.65397914
 21
23.2140051526
  0
LINE
  5
2E1
100
AcDbEntity
  8
0
100
AcDbLine
 62
7
  6
CONTINUOUS
 10
5.4847162932
 20
9.7704234151
 11
5.567438169
 21
9.811784353
  0
LINE
  5
2E2
100
AcDbEntity
  8
0
100
AcDbLine
 62
7
  6
CONTINUOUS
 10
-4.1552800723
 20
4.4677707332
 11
-4.0719160427
 21
4.509452748
  0
LINE
  5
2E3
100
AcDbEntity
  8
0
100
AcDbLine
 62
7
  6
CONTINUOUS
 10
4.9849136477
 20
9.0378675932
 11
5.3906614737
 21
9.2407415062
  0
LINE
  5
2E4
100
AcDbEntity
  8
RACCORDO
100
AcDbLine
 62
253
  6
CONTINUOUS
 10
19.4620864194
 20
16.1580677142
 11
18.4014262476
 21
15.6277376283
  0
LINE
  5
2E5
100
AcDbEntity
  8
0
100
AcDbLine
 62
7
  6
CONTINUOUS
 10
9.2797487703
 20
10.9961882115
 11
18.4721369257
 21
15.5923822892
  0
LINE
  5
2E6
100
AcDbEntity
  8
RACCORDO
100
AcDbLine
 62
253
  6
CONTINUOUS
 10
19.5863504881
 20
15.748260093
 11
18.6135582819
 21
15.26186399
  0
LINE
  5
2E7
100
AcDbEntity
  8
0
100
AcDbLine
 62
7
  6
CONTINUOUS
 10
9.2797487703
 20
11.0189526503
 11
5.3906614737
 21
9.2407415062
  0
LINE
  5
2E8
100
AcDbEntity
  8
0
100
AcDbLine
 62
7
  6
CONTINUOUS
 10
8.8908400406
 20
11.2134070151
 11
4.9849136477
 21
9.5586850655
  0
LINE
  5
2E9
100
AcDbEntity
  8
ASSI
100
AcDbLine
 62
253
  6
CONTINUOUS
 10
-4.3736261096
 20
22.0344279424
 11
-4.3736261096
 21
23.2127818507
  0
LINE
  5
2EA
100
AcDbEntity
  8
0
100
AcDbLine
 62
7
  6
CONTINUOUS
 10
-4.1552800723
 20
-9.8216484292
 11
-4.1552800723
 21
4.4677707332
  0
LINE
  5
2EB
100
AcDbEntity
  8
ASSI
100
AcDbLine
 62
7
  6
CONTINUOUS
 10
-4.1552800723
 20
22.1536294622
 11
-4.1552800723
 21
23.3227967322
  0
LINE
  5
2EC
100
AcDbEntity
  8
ASSI
100
AcDbLine
 62
7
  6
CONTINUOUS
 10
-3.4605158859
 20
23.6674048906
 11
-3.4605158859
 21
22.5118426491
  0
LINE
  5
2ED
100
AcDbEntity
  8
ASSI
100
AcDbLine
 62
7
  6
CONTINUOUS
 10
-3.2908955796
 20
22.5738847287
 11
-3.2908955796
 21
21.3892802229
  0
LINE
  5
2EE
100
AcDbEntity
  8
ASSI
100
AcDbLine
 62
253
  6
CONTINUOUS
 10
-3.2323169359
 20
22.5031740506
 11
-3.2323169359
 21
21.3159012692
  0
LINE
  5
2EF
100
AcDbEntity
  8
ASSI
100
AcDbLine
 62
253
  6
CONTINUOUS
 10
-2.1467430768
 20
26.2083182044
 11
-2.1468142059
 21
25.0391156538
  0
LWPOLYLINE
  5
2F0
100
AcDbEntity
  8
RACCORDO
100
AcDbPolyline
 62
7
  6
CONTINUOUS
 90
10
 70
0
 10
-4.0707605094
 20
4.5859201167
 10
-4.0924887539
 20
3.1480543728
 10
-4.1127905973
 20
1.4443629675
 10
-4.1271406289
 20
-0.2564054909
 10
-4.1355390157
 20
-1.9542194834
 10
-4.1379857488
 20
-3.6490471574
 10
-4.1344806784
 20
-5.3408563515
 10
-4.125023648
 20
-7.0296151025
 10
-4.1096144384
 20
-8.715291556
 10
-4.0918942895
 20
-10.1415242645
  0
LINE
  5
2F1
100
AcDbEntity
  8
RACCORDO
100
AcDbLine
 62
7
  6
CONTINUOUS
 10
-2.7709997946
 20
11.7647457683
 11
-2.8063452852
 21
10.5600731008
  0
LINE
  5
2F2
100
AcDbEntity
  8
RACCORDO
100
AcDbLine
 62
7
  6
CONTINUOUS
 10
-2.7445002751
 20
12.6118697212
 11
-2.7709997946
 21
11.7647457683
  0
LINE
  5
2F3
100
AcDbEntity
  8
RACCORDO
100
AcDbLine
 62
7
  6
CONTINUOUS
 10
-2.7166264438
 20
13.4595749326
 11
-2.7445002751
 21
12.6118697212
  0
LWPOLYLINE
  5
2F4
100
AcDbEntity
  8
RACCORDO
100
AcDbPolyline
 62
7
  6
CONTINUOUS
 90
13
 70
0
 10
-2.8063555856
 20
10.5599745909
 10
-2.8067684936
 20
10.5476380927
 10
-2.8125248481
 20
10.4684622788
 10
-2.8236780841
 20
10.3918923731
 10
-2.8403149578
 20
10.3185957569
 10
-2.8623647966
 20
10.2494516767
 10
-2.8895235195
 20
10.1855676033
 10
-2.9214330312
 20
10.1275905315
 10
-2.9577850951
 20
10.0758522389
 10
-2.9982105069
 20
10.0307142431
 10
-3.0422205746
 20
9.9924306491
 10
-3.0897115321
 20
9.960892098
 10
-3.1045201176
 20
9.9527929497
  0
LINE
  5
2F5
100
AcDbEntity
  8
RACCORDO
100
AcDbLine
 62
7
  6
CONTINUOUS
 10
-2.6898785228
 20
14.2368547126
 11
-2.7166264438
 21
13.4595749326
  0
LINE
  5
2F6
100
AcDbEntity
  8
RACCORDO
100
AcDbLine
 62
7
  6
CONTINUOUS
 10
-15.1861458588
 20
-4.2892955567
 11
-15.2739553052
 21
-4.3333710123
  0
LINE
  5
2F7
100
AcDbEntity
  8
0
100
AcDbLine
 62
7
  6
CONTINUOUS
 10
18.6135582819
 20
13.7896208035
 11
17.9064515007
 21
13.4360674129
  0
LINE
  5
2F8
100
AcDbEntity
  8
RACCORDO
100
AcDbLine
 62
7
  6
CONTINUOUS
 10
-13.5598002621
 20
-2.3409638131
 11
-7.623626728
 21
0.6271229539
  0
LINE
  5
2F9
100
AcDbEntity
  8
ASSI
100
AcDbLine
 62
7
  6
CONTINUOUS
 10
6.3806109674
 20
7.3108451225
 11
7.6534031735
 21
7.9472412256
  0
LINE
  5
2FA
100
AcDbEntity
  8
0
100
AcDbLine
 62
7
  6
CONTINUOUS
 10
-5.0745188878
 20
-0.0089546606
 11
-5.2159402441
 21
-0.0796653387
  0
LINE
  5
2FB
100
AcDbEntity
  8
RACCORDO
100
AcDbLine
 62
7
  6
CONTINUOUS
 10
-11.5799012747
 20
-3.3309133068
 11
-5.6437277407
 21
-0.3628265398
  0
LINE
  5
2FC
100
AcDbEntity
  8
0
100
AcDbLine
 62
7
  6
CONTINUOUS
 10
6.3806109674
 20
4.6408857439
 11
7.7749613233
 21
5.0890697869
  0
LINE
  5
2FD
100
AcDbEntity
  8
RACCORDO
100
AcDbLine
 62
7
  6
CONTINUOUS
 10
-13.8648148602
 20
3.7477170199
 11
-5.222297475
 21
-0.5735416727
  0
LINE
  5
2FE
100
AcDbEntity
  8
0
100
AcDbLine
 62
7
  6
CONTINUOUS
 10
-14.4083283995
 20
4.0835160371
 11
-5.2159402441
 21
-0.5126780406
  0
LINE
  5
2FF
100
AcDbEntity
  8
0
100
AcDbLine
 62
7
  6
CONTINUOUS
 10
-5.2159402441
 20
-0.0796653387
 11
-14.4083283995
 21
4.516528739
  0
LINE
  5
300
100
AcDbEntity
  8
0
100
AcDbLine
 62
7
  6
CONTINUOUS
 10
-5.0745188878
 20
-0.0089546606
 11
-14.2669070432
 21
4.5872394172
  0
LWPOLYLINE
  5
301
100
AcDbEntity
  8
ASSI
100
AcDbPolyline
 62
7
  6
CONTINUOUS
 90
16
 70
0
 10
-2.038576473
 20
26.3407129424
 10
-2.0403459975
 20
26.3723556711
 10
-2.0460420454
 20
26.405361007
 10
-2.0557305655
 20
26.4379207874
 10
-2.0694289046
 20
26.4695928109
 10
-2.0870028843
 20
26.4997813518
 10
-2.108338546
 20
26.5281490021
 10
-2.1333901981
 20
26.5544640121
 10
-2.1617918482
 20
26.5782153014
 10
-2.1930566348
 20
26.5990161371
 10
-2.2274097762
 20
26.6170350735
 10
-2.2645157869
 20
26.6320217042
 10
-2.3030694432
 20
26.6435683965
 10
-2.3433449433
 20
26.6519124754
 10
-2.3853329009
 20
26.6570037544
 10
-2.4270523555
 20
26.6586733088
  0
LWPOLYLINE
  5
302
100
AcDbEntity
  8
ASSI
100
AcDbPolyline
 62
7
  6
CONTINUOUS
 90
9
 70
0
 10
-0.1549404728
 20
19.6779200675
 10
-0.1549097872
 20
19.673999183
 10
-0.1530901336
 20
19.6475453309
 10
-0.1484533112
 20
19.6215987459
 10
-0.1410505493
 20
19.5965467894
 10
-0.1310476878
 20
19.572833619
 10
-0.1185682618
 20
19.5506154337
 10
-0.1037242611
 20
19.5300497753
 10
-0.0867822088
 20
19.5114622586
  0
LINE
  5
303
100
AcDbEntity
  8
ASSI
100
AcDbLine
 62
7
  6
CONTINUOUS
 10
-2.0385719041
 20
26.340840188
 11
-2.0385719041
 21
25.1690992849
  0
LINE
  5
304
100
AcDbEntity
  8
ASSI
100
AcDbLine
 62
253
  6
CONTINUOUS
 10
-0.9416685387
 20
20.1705770707
 11
-0.9416685387
 21
21.357849852
  0
LINE
  5
305
100
AcDbEntity
  8
ASSI
100
AcDbLine
 62
253
  6
CONTINUOUS
 10
-0.6613155084
 20
20.1782726418
 11
-0.6613155084
 21
21.3566265501
  0
LINE
  5
306
100
AcDbEntity
  8
ASSI
100
AcDbLine
 62
7
  6
CONTINUOUS
 10
-0.442969471
 20
20.2974741615
 11
-0.442969471
 21
21.4666414316
  0
LINE
  5
307
100
AcDbEntity
  8
DRAFT
100
AcDbLine
 62
7
  6
CONTINUOUS
 10
-0.1601267586
 20
16.580466539
 11
-0.1601267586
 21
16.6061778136
  0
LINE
  5
308
100
AcDbEntity
  8
ASSI
100
AcDbLine
 62
7
  6
CONTINUOUS
 10
-0.1549405528
 20
19.995215931
 11
-0.1549405528
 21
19.6779471307
  0
LINE
  5
309
100
AcDbEntity
  8
ASSI
100
AcDbLine
 62
253
  6
CONTINUOUS
 10
-0.0963619091
 20
19.9245052529
 11
-0.0963619091
 21
19.6072364525
  0
LWPOLYLINE
  5
30A
100
AcDbEntity
  8
ASSI
100
AcDbPolyline
 62
7
  6
CONTINUOUS
 90
3
 70
0
 10
4.5104315847
 20
19.6619431269
 10
4.5159724903
 20
19.6863666931
 10
4.5192490675
 20
19.7115088995
  0
LINE
  5
30B
100
AcDbEntity
  8
SMUSSO
100
AcDbLine
 62
7
  6
CONTINUOUS
 10
-10.7313731373
 20
-6.7060787514
 11
-9.1757382187
 21
-5.5754361275
  0
LINE
  5
30C
100
AcDbEntity
  8
RACCORDO
100
AcDbLine
 62
7
  6
CONTINUOUS
 10
-14.1436971694
 20
-4.9704631223
 11
-14.0009514755
 21
-4.8988127276
  0
LINE
  5
30D
100
AcDbEntity
  8
RACCORDO
100
AcDbLine
 62
7
  6
CONTINUOUS
 10
-13.9487089917
 20
-6.3015318243
 11
-14.1205940389
 21
-6.3878085527
  0
LINE
  5
30E
100
AcDbEntity
  8
RACCORDO
100
AcDbLine
 62
7
  6
CONTINUOUS
 10
-5.0745188878
 20
-0.4419673625
 11
-5.2159402441
 21
-0.5126780406
  0
LINE
  5
30F
100
AcDbEntity
  8
0
100
AcDbLine
 62
7
  6
CONTINUOUS
 10
-5.2209654972
 20
-1.4504835237
 11
-9.8121343218
 21
-3.746067936
  0
LINE
  5
310
100
AcDbEntity
  8
RACCORDO
100
AcDbLine
 62
7
  6
CONTINUOUS
 10
-11.5799012747
 20
-4.6299514125
 11
-9.8121343218
 21
-3.746067936
  0
LINE
  5
311
100
AcDbEntity
  8
ASSI
100
AcDbLine
 62
7
  6
CONTINUOUS
 10
7.6534031735
 20
4.9161523123
 11
6.3806109674
 21
4.2797562092
  0
LINE
  5
312
100
AcDbEntity
  8
RACCORDO
100
AcDbLine
 62
7
  6
CONTINUOUS
 10
-10.7313731373
 20
-5.0542154812
 11
-8.9636061843
 21
-4.1703320047
  0
LINE
  5
313
100
AcDbEntity
  8
0
100
AcDbLine
 62
7
  6
CONTINUOUS
 10
-11.6506119528
 20
5.3142515709
 11
-7.6908139782
 21
3.3343525835
  0
LINE
  5
314
100
AcDbEntity
  8
0
100
AcDbLine
 62
7
  6
CONTINUOUS
 10
-10.9435051717
 20
5.6678049614
 11
-7.6908139782
 21
4.0414593647
  0
LWPOLYLINE
  5
315
100
AcDbEntity
  8
ASSI
100
AcDbPolyline
 62
7
  6
CONTINUOUS
 90
5
 70
0
 10
4.5139453062
 20
-21.512200959
 10
4.5067781798
 20
-21.4873588421
 10
4.4970606364
 20
-21.4638154354
 10
4.4849192771
 20
-21.4417141782
 10
4.4704671774
 20
-21.4212195122
  0
LWPOLYLINE
  5
316
100
AcDbEntity
  8
ASSI
100
AcDbPolyline
 62
7
  6
CONTINUOUS
 90
14
 70
0
 10
1.8681681284
 20
25.8509228005
 10
1.865851225
 20
25.9198456503
 10
1.8591085894
 20
25.985274344
 10
1.8479303586
 20
26.0484005218
 10
1.8323612619
 20
26.1089185741
 10
1.8125416021
 20
26.166342463
 10
1.7885874974
 20
26.2204183955
 10
1.760596212
 20
26.2710106481
 10
1.7287938405
 20
26.317791687
 10
1.6934328566
 20
26.3604754162
 10
1.6547236824
 20
26.3988869638
 10
1.6129550952
 20
26.4328402048
 10
1.5684689509
 20
26.4621486102
 10
1.5368281414
 20
26.4793546231
  0
LINE
  5
317
100
AcDbEntity
  8
ASSI
100
AcDbLine
 62
7
  6
CONTINUOUS
 10
0.5599225676
 20
19.1763624123
 11
0.5599225676
 21
18.722485161
  0
LINE
  5
318
100
AcDbEntity
  8
ASSI
100
AcDbLine
 62
253
  6
CONTINUOUS
 10
0.6331458723
 20
19.13975076
 11
0.6331458723
 21
18.6306766158
  0
LINE
  5
319
100
AcDbEntity
  8
ASSI
100
AcDbLine
 62
7
  6
CONTINUOUS
 10
0.7658833045
 20
17.8670115434
 11
0.7658833045
 21
19.0773056272
  0
LINE
  5
31A
100
AcDbEntity
  8
ASSI
100
AcDbLine
 62
253
  6
CONTINUOUS
 10
0.8391066092
 20
-22.160101946
 11
0.8391066092
 21
-22.0451102105
  0
LINE
  5
31B
100
AcDbEntity
  8
ASSI
100
AcDbLine
 62
253
  6
CONTINUOUS
 10
0.8391066092
 20
17.7752029979
 11
0.8391066092
 21
19.1395021934
  0
LINE
  5
31C
100
AcDbEntity
  8
ASSI
100
AcDbLine
 62
253
  6
CONTINUOUS
 10
1.0326708953
 20
-22.2568840891
 11
1.0326708953
 21
-21.9653744982
  0
LINE
  5
31D
100
AcDbEntity
  8
ASSI
100
AcDbLine
 62
253
  6
CONTINUOUS
 10
1.0326708953
 20
17.6784208549
 11
1.0326708953
 21
19.0427200503
  0
LINE
  5
31E
100
AcDbEntity
  8
ASSI
100
AcDbLine
 62
253
  6
CONTINUOUS
 10
1.3831121832
 20
-22.0105947673
 11
1.3831121832
 21
-21.8210158137
  0
LINE
  5
31F
100
AcDbEntity
  8
ASSI
100
AcDbLine
 62
253
  6
CONTINUOUS
 10
1.3831121832
 20
17.6880403187
 11
1.3831121832
 21
18.7647676045
  0
LINE
  5
320
100
AcDbEntity
  8
ASSI
100
AcDbLine
 62
253
  6
CONTINUOUS
 10
1.7964911863
 20
25.7633617584
 11
1.7964911863
 21
25.4731579326
  0
LINE
  5
321
100
AcDbEntity
  8
ASSI
100
AcDbLine
 62
7
  6
CONTINUOUS
 10
1.8681785741
 20
25.8509754147
 11
1.8681785741
 21
25.5064120337
  0
LINE
  5
322
100
AcDbEntity
  8
ASSI
100
AcDbLine
 62
7
  6
CONTINUOUS
 10
1.9258382459
 20
18.4934045731
 11
1.9258382459
 21
17.984330429
  0
LINE
  5
323
100
AcDbEntity
  8
ASSI
100
AcDbLine
 62
253
  6
CONTINUOUS
 10
1.9681394136
 20
18.8922545915
 11
1.9681394136
 21
18.5750031352
  0
LINE
  5
324
100
AcDbEntity
  8
ASSI
100
AcDbLine
 62
253
  6
CONTINUOUS
 10
1.9681394136
 20
-23.0418871486
 11
1.9681394136
 21
-22.7246169194
  0
LINE
  5
325
100
AcDbEntity
  8
ASSI
100
AcDbLine
 62
253
  6
CONTINUOUS
 10
2.248492444
 20
18.8910312896
 11
2.248492444
 21
18.5737624892
  0
LINE
  5
326
100
AcDbEntity
  8
ASSI
100
AcDbLine
 62
253
  6
CONTINUOUS
 10
2.248492444
 20
-23.0431104505
 11
2.248492444
 21
-22.7258416501
  0
LINE
  5
327
100
AcDbEntity
  8
ASSI
100
AcDbLine
 62
253
  6
CONTINUOUS
 10
2.6528451947
 20
18.3009982429
 11
2.6528451947
 21
17.6208269546
  0
LINE
  5
328
100
AcDbEntity
  8
ASSI
100
AcDbLine
 62
253
  6
CONTINUOUS
 10
2.6528451947
 20
-21.2979696043
 11
2.6528451947
 21
-21.7348644576
  0
LINE
  5
329
100
AcDbEntity
  8
0
100
AcDbLine
 62
7
  6
CONTINUOUS
 10
-5.2209654972
 20
-3.5980497668
 11
-8.9636061843
 21
-5.4693701104
  0
LINE
  5
32A
100
AcDbEntity
  8
SMUSSO
100
AcDbLine
 62
7
  6
CONTINUOUS
 10
-9.1757382187
 20
-5.5754361275
 11
-8.9636061843
 21
-5.4693701104
  0
LINE
  5
32B
100
AcDbEntity
  8
0
100
AcDbLine
 62
7
  6
CONTINUOUS
 10
-5.2209654972
 20
-3.7712548476
 11
-8.7904011036
 21
-5.5559726507
  0
LINE
  5
32C
100
AcDbEntity
  8
RACCORDO
100
AcDbLine
 62
7
  6
CONTINUOUS
 10
-7.0544178751
 20
-5.5936550066
 11
-5.2209654972
 21
-4.6769288176
  0
LINE
  5
32D
100
AcDbEntity
  8
RACCORDO
100
AcDbLine
 62
7
  6
CONTINUOUS
 10
-7.9029460126
 20
-6.4684290435
 11
-7.2008644845
 21
-6.1173882795
  0
LINE
  5
32E
100
AcDbEntity
  8
0
100
AcDbLine
 62
253
  6
CONTINUOUS
 10
7.6534031735
 20
-2.9646788621
 11
7.5826924954
 21
-2.9293235231
  0
LINE
  5
32F
100
AcDbEntity
  8
0
100
AcDbLine
 62
7
  6
CONTINUOUS
 10
-7.6908139782
 20
4.7199932296
 11
-11.6506119528
 21
6.6998922169
  0
LINE
  5
330
100
AcDbEntity
  8
0
100
AcDbLine
 62
253
  6
CONTINUOUS
 10
8.2190885985
 20
-1.9890158266
 11
8.1483779204
 21
-1.9536604876
  0
LINE
  5
331
100
AcDbEntity
  8
0
100
AcDbLine
 62
7
  6
CONTINUOUS
 10
-4.1552800723
 20
4.4677707332
 11
-8.1866256659
 21
6.4834435301
  0
LINE
  5
332
100
AcDbEntity
  8
0
100
AcDbLine
 62
7
  6
CONTINUOUS
 10
-11.6495519968
 20
8.2149066955
 11
-15.1861458588
 21
9.9832036265
  0
LWPOLYLINE
  5
333
100
AcDbEntity
  8
RACCORDO
100
AcDbPolyline
 62
7
  6
CONTINUOUS
 90
10
 70
0
 10
-15.4543904057
 20
10.2773601995
 10
-14.4232258544
 20
9.7000224086
 10
-13.1665307953
 20
9.0148324735
 10
-11.8901089013
 20
8.3387077446
 10
-10.5942264898
 20
7.6717902751
 10
-9.2791535894
 20
7.014219867
 10
-7.9451620369
 20
6.3661346927
 10
-6.5925437269
 20
5.7276659794
 10
-5.221598934
 20
5.0989424845
 10
-4.0698728188
 20
4.5845338506
  0
LWPOLYLINE
  5
334
100
AcDbEntity
  8
ASSI
100
AcDbPolyline
 62
7
  6
CONTINUOUS
 90
16
 70
0
 10
3.5705798427
 20
23.5361347846
 10
3.5688103182
 20
23.5677775132
 10
3.5631142703
 20
23.6007828492
 10
3.5534257501
 20
23.6333426296
 10
3.539727411
 20
23.6650146531
 10
3.5221534314
 20
23.695203194
 10
3.5008177696
 20
23.7235708443
 10
3.4757661175
 20
23.7498858543
 10
3.4473644675
 20
23.7736371435
 10
3.4160996808
 20
23.7944379792
 10
3.3817465395
 20
23.8124569157
 10
3.3446405287
 20
23.8274435464
 10
3.3060868725
 20
23.8389902387
 10
3.2658113724
 20
23.8473343176
 10
3.2238234148
 20
23.8524255966
 10
3.1821039602
 20
23.854095151
  0
LWPOLYLINE
  5
335
100
AcDbEntity
  8
ASSI
100
AcDbPolyline
 62
7
  6
CONTINUOUS
 90
11
 70
0
 10
4.5201052551
 20
20.0725590422
 10
4.5196316287
 20
20.0878570932
 10
4.5159838317
 20
20.117529229
 10
4.5087611849
 20
20.1462720608
 10
4.4980759795
 20
20.1736150409
 10
4.4842515772
 20
20.1989147009
 10
4.4675382113
 20
20.2219430716
 10
4.4480690051
 20
20.2425871868
 10
4.4262506763
 20
20.2604450463
 10
4.4025215607
 20
20.2752358372
 10
4.3968819865
 20
20.2781629114
  0
LWPOLYLINE
  5
336
100
AcDbEntity
  8
ASSI
100
AcDbPolyline
 62
7
  6
CONTINUOUS
 90
4
 70
0
 10
4.5201061149
 20
-21.5671208186
 10
4.5200876053
 20
-21.5641118924
 10
4.5183947808
 20
-21.5379163114
 10
4.5139453062
 20
-21.512200959
  0
LINE
  5
337
100
AcDbEntity
  8
ASSI
100
AcDbLine
 62
253
  6
CONTINUOUS
 10
3.0032864826
 20
18.3886468646
 11
3.0032864826
 21
17.6303519886
  0
LINE
  5
338
100
AcDbEntity
  8
ASSI
100
AcDbLine
 62
253
  6
CONTINUOUS
 10
3.0032864826
 20
-21.1536109198
 11
3.0032864826
 21
-21.8118298951
  0
LINE
  5
339
100
AcDbEntity
  8
ASSI
100
AcDbLine
 62
7
  6
CONTINUOUS
 10
3.5705844116
 20
23.5362620301
 11
3.5705844116
 21
22.3645211271
  0
LINE
  5
33A
100
AcDbEntity
  8
ASSI
100
AcDbLine
 62
7
  6
CONTINUOUS
 10
3.9057372333
 20
-22.3202919273
 11
3.9057372333
 21
-20.7818607645
  0
LINE
  5
33B
100
AcDbEntity
  8
ASSI
100
AcDbLine
 62
7
  6
CONTINUOUS
 10
3.9057372789
 20
18.1231207256
 11
3.9057372333
 21
19.7685954566
  0
LINE
  5
33C
100
AcDbEntity
  8
ASSI
100
AcDbLine
 62
7
  6
CONTINUOUS
 10
4.2592906238
 20
17.5133973621
 11
4.2592906238
 21
16.7339085488
  0
LINE
  5
33D
100
AcDbEntity
  8
ASSI
100
AcDbLine
 62
7
  6
CONTINUOUS
 10
4.2592906238
 20
-20.4186472235
 11
4.2592906238
 21
-19.6391584101
  0
LINE
  5
33E
100
AcDbEntity
  8
ASSI
100
AcDbLine
 62
253
  6
CONTINUOUS
 10
4.4639736438
 20
-21.9765585372
 11
4.4639736438
 21
-21.6366149424
  0
LINE
  5
33F
100
AcDbEntity
  8
ASSI
100
AcDbLine
 62
253
  6
CONTINUOUS
 10
4.4639736438
 20
19.662989197
 11
4.4639736438
 21
20.0029327918
  0
LINE
  5
340
100
AcDbEntity
  8
ASSI
100
AcDbLine
 62
7
  6
CONTINUOUS
 10
4.5201056837
 20
-21.9070927002
 11
4.5201056837
 21
-21.5671490365
  0
LINE
  5
341
100
AcDbEntity
  8
ASSI
100
AcDbLine
 62
7
  6
CONTINUOUS
 10
4.5201056837
 20
19.732455034
 11
4.5201056837
 21
20.072398629
  0
LINE
  5
342
100
AcDbEntity
  8
ASSI
100
AcDbLine
 62
7
  6
CONTINUOUS
 10
4.9540548103
 20
-20.0438060059
 11
4.9540548103
 21
-18.8307687967
  0
LINE
  5
343
100
AcDbEntity
  8
ASSI
100
AcDbLine
 62
7
  6
CONTINUOUS
 10
4.9540548103
 20
16.5936332368
 11
4.9540548103
 21
17.8580055205
  0
LINE
  5
344
100
AcDbEntity
  8
ASSI
100
AcDbLine
 62
7
  6
CONTINUOUS
 10
4.9849136477
 20
-18.7948631409
 11
4.9849136477
 21
16.578203818
  0
LINE
  5
345
100
AcDbEntity
  8
ASSI
100
AcDbLine
 62
253
  6
CONTINUOUS
 10
3.4624132389
 20
23.4037400466
 11
3.4623909819
 21
23.0378865549
  0
LINE
  5
346
100
AcDbEntity
  8
ASSI
100
AcDbLine
 62
253
  6
CONTINUOUS
 10
3.4623774511
 20
22.8154708613
 11
3.4623421097
 21
22.2345374959
  0
LINE
  5
347
100
AcDbEntity
  8
ASSI
100
AcDbLine
 62
7
  6
CONTINUOUS
 10
4.5192490675
 20
19.7115088995
 11
4.5201017528
 21
19.7324948722
  0
LINE
  5
348
100
AcDbEntity
  8
ASSI
100
AcDbLine
 62
7
  6
CONTINUOUS
 10
6.3806109674
 20
-0.569986052
 11
7.6534031735
 21
0.0664100511
  0
LINE
  5
349
100
AcDbEntity
  8
SMUSSO
100
AcDbLine
 62
7
  6
CONTINUOUS
 10
17.3054107367
 20
3.5174880303
 11
16.280105904
 21
3.0048356139
  0
LINE
  5
34A
100
AcDbEntity
  8
0
100
AcDbLine
 62
7
  6
CONTINUOUS
 10
13.8052321699
 20
1.7094677178
 11
9.9161448733
 21
-0.2350759304
  0
LINE
  5
34B
100
AcDbEntity
  8
SMUSSO
100
AcDbLine
 62
7
  6
CONTINUOUS
 10
16.9518573461
 20
3.2612520237
 11
16.280105904
 21
2.9253763026
  0
LINE
  5
34C
100
AcDbEntity
  8
0
100
AcDbLine
 62
7
  6
CONTINUOUS
 10
6.3806109674
 20
-3.2399454305
 11
7.7749613233
 21
-2.7917613876
  0
LINE
  5
34D
100
AcDbEntity
  8
0
100
AcDbLine
 62
7
  6
CONTINUOUS
 10
16.9872126852
 20
2.5523594352
 11
17.7650301445
 21
2.508255463
  0
LINE
  5
34E
100
AcDbEntity
  8
0
100
AcDbLine
 62
253
  6
CONTINUOUS
 10
8.2190885985
 20
-0.3435675594
 11
8.1483779204
 21
-0.3082122204
  0
LWPOLYLINE
  5
34F
100
AcDbEntity
  8
RACCORDO
100
AcDbPolyline
 62
7
  6
CONTINUOUS
 90
3
 70
0
 10
-15.5037305099
 20
15.841061471
 10
-15.4383374469
 20
15.7996115145
 10
-15.4267536634
 20
15.7929953453
  0
LINE
  5
350
100
AcDbEntity
  8
RACCORDO
100
AcDbLine
 62
7
  6
CONTINUOUS
 10
-15.5675651715
 20
15.8885142988
 11
-15.5037305099
 21
15.841061471
  0
LINE
  5
351
100
AcDbEntity
  8
0
100
AcDbLine
 62
7
  6
CONTINUOUS
 10
5.567438169
 20
9.811784353
 11
5.567438169
 21
9.8054680344
  0
LINE
  5
352
100
AcDbEntity
  8
ASSI
100
AcDbLine
 62
7
  6
CONTINUOUS
 10
6.3806109674
 20
-3.6010749652
 11
6.3806109674
 21
-0.569986052
  0
LINE
  5
353
100
AcDbEntity
  8
ASSI
100
AcDbLine
 62
7
  6
CONTINUOUS
 10
6.3806109674
 20
4.2797562092
 11
6.3806109674
 21
7.3108451225
  0
LINE
  5
354
100
AcDbEntity
  8
ASSI
100
AcDbLine
 62
7
  6
CONTINUOUS
 10
4.518977376
 20
-21.931126428
 11
4.5201055984
 21
-21.9070614788
  0
LINE
  5
355
100
AcDbEntity
  8
SMUSSO
100
AcDbLine
 62
7
  6
CONTINUOUS
 10
17.3054107367
 20
3.5174880303
 11
16.9518573461
 21
3.2612520237
  0
LINE
  5
356
100
AcDbEntity
  8
0
100
AcDbLine
 62
7
  6
CONTINUOUS
 10
9.9161448733
 20
-2.2690821242
 11
13.5931001355
 21
-0.3347889165
  0
LINE
  5
357
100
AcDbEntity
  8
0
100
AcDbLine
 62
7
  6
CONTINUOUS
 10
17.7650301445
 20
1.6422300592
 11
13.8052321699
 21
-0.4408549337
  0
LINE
  5
358
100
AcDbEntity
  8
0
100
AcDbLine
 62
7
  6
CONTINUOUS
 10
9.9161448733
 20
-2.4867419803
 11
9.2797487703
 21
-2.821523497
  0
LINE
  5
359
100
AcDbEntity
  8
RACCORDO
100
AcDbLine
 62
7
  6
CONTINUOUS
 10
-5.2794657868
 20
-9.4025788136
 11
-5.139189984
 21
-9.3296934733
  0
LINE
  5
35A
100
AcDbEntity
  8
0
100
AcDbLine
 62
7
  6
CONTINUOUS
 10
16.280105904
 20
2.1988060446
 11
16.9872126852
 21
2.5523594352
  0
LINE
  5
35B
100
AcDbEntity
  8
RACCORDO
100
AcDbLine
 62
7
  6
CONTINUOUS
 10
17.9064515007
 20
2.7839549464
 11
20.3789520246
 21
4.0202052083
  0
LINE
  5
35C
100
AcDbEntity
  8
ASSI
100
AcDbLine
 62
7
  6
CONTINUOUS
 10
7.6534031735
 20
-2.9646788621
 11
6.3806109674
 21
-3.6010749652
  0
LINE
  5
35D
100
AcDbEntity
  8
0
100
AcDbLine
 62
7
  6
CONTINUOUS
 10
-4.1552800723
 20
-9.8216484292
 11
-4.0962353678
 21
-9.792126077
  0
LINE
  5
35E
100
AcDbEntity
  8
0
100
AcDbLine
 62
7
  6
CONTINUOUS
 10
-5.3927169393
 20
-10.6751731821
 11
-5.3475395861
 21
-10.6525845055
  0
LINE
  5
35F
100
AcDbEntity
  8
RACCORDO
100
AcDbLine
 62
7
  6
CONTINUOUS
 10
-5.19065511
 20
10.6104824542
 11
-3.8843533097
 21
10.021746231
  0
LINE
  5
360
100
AcDbEntity
  8
0
100
AcDbLine
 62
7
  6
CONTINUOUS
 10
13.8052321699
 20
-0.4408549337
 11
13.5931001355
 21
-0.3347889165
  0
LWPOLYLINE
  5
361
100
AcDbEntity
  8
RACCORDO
100
AcDbPolyline
 62
7
  6
CONTINUOUS
 90
6
 70
0
 10
-11.7507769672
 20
13.8062855314
 10
-10.4725831839
 20
13.1502693608
 10
-9.1772658377
 20
12.502579937
 10
-7.8650204988
 20
11.8633138269
 10
-6.5360612778
 20
11.2325747837
 10
-5.19065511
 20
10.6104824542
  0
LWPOLYLINE
  5
362
100
AcDbEntity
  8
RACCORDO
100
AcDbPolyline
 62
7
  6
CONTINUOUS
 90
4
 70
0
 10
-15.4268318928
 20
15.7930198935
 10
-14.2549214801
 20
15.1428472722
 10
-13.0116370088
 20
14.4705223281
 10
-11.7507769672
 20
13.8062855314
  0
LINE
  5
363
100
AcDbEntity
  8
RACCORDO
100
AcDbLine
 62
7
  6
CONTINUOUS
 10
-15.4268318928
 20
15.7930198935
 11
-15.4267619289
 21
15.7929806316
  0
LINE
  5
364
100
AcDbEntity
  8
ASSI
100
AcDbLine
 62
7
  6
CONTINUOUS
 10
7.8128199383
 20
-12.8472999625
 11
7.8128199383
 21
-13.508304458
  0
LINE
  5
365
100
AcDbEntity
  8
0
100
AcDbLine
 62
7
  6
CONTINUOUS
 10
8.0069565641
 20
0.079334671
 11
8.0069565641
 21
-2.4826287352
  0
LINE
  5
366
100
AcDbEntity
  8
0
100
AcDbLine
 62
7
  6
CONTINUOUS
 10
8.0069565641
 20
5.3982024393
 11
8.0069565641
 21
7.9601658454
  0
LINE
  5
367
100
AcDbEntity
  8
0
100
AcDbLine
 62
7
  6
CONTINUOUS
 10
8.1483779204
 20
7.5726189541
 11
8.1483779204
 21
5.9271706869
  0
LINE
  5
368
100
AcDbEntity
  8
0
100
AcDbLine
 62
7
  6
CONTINUOUS
 10
8.1483779204
 20
-0.3082122204
 11
8.1483779204
 21
-1.9536604876
  0
LINE
  5
369
100
AcDbEntity
  8
ASSI
100
AcDbLine
 62
7
  6
CONTINUOUS
 10
8.2190885985
 20
7.537263615
 11
8.2190885985
 21
5.8918153478
  0
LINE
  5
36A
100
AcDbEntity
  8
ASSI
100
AcDbLine
 62
7
  6
CONTINUOUS
 10
8.2190885985
 20
-0.3435675594
 11
8.2190885985
 21
-1.9890158266
  0
LINE
  5
36B
100
AcDbEntity
  8
0
100
AcDbLine
 62
7
  6
CONTINUOUS
 10
9.2797487703
 20
-3.7365071487
 11
9.2797487703
 21
11.0189526503
  0
LINE
  5
36C
100
AcDbEntity
  8
RACCORDO
100
AcDbLine
 62
7
  6
CONTINUOUS
 10
9.2887511745
 20
-14.364688444
 11
9.2887511745
 21
-13.5888737598
  0
LINE
  5
36D
100
AcDbEntity
  8
RACCORDO
100
AcDbLine
 62
7
  6
CONTINUOUS
 10
9.2887511745
 20
21.210512534
 11
9.2887511745
 21
21.3715162444
  0
LINE
  5
36E
100
AcDbEntity
  8
0
100
AcDbLine
 62
7
  6
CONTINUOUS
 10
9.8807895343
 20
19.8880559849
 11
9.8807895343
 21
19.0220305811
  0
LINE
  5
36F
100
AcDbEntity
  8
ASSI
100
AcDbLine
 62
7
  6
CONTINUOUS
 10
9.886442348
 20
-14.8696726242
 11
9.886442348
 21
-14.6635340308
  0
LINE
  5
370
100
AcDbEntity
  8
ASSI
100
AcDbLine
 62
7
  6
CONTINUOUS
 10
9.886442348
 20
21.6874816314
 11
9.886442348
 21
21.8936202248
  0
LINE
  5
371
100
AcDbEntity
  8
0
100
AcDbLine
 62
7
  6
CONTINUOUS
 10
9.9161448733
 20
-0.2350759304
 11
9.9161448733
 21
-2.4867419803
  0
LINE
  5
372
100
AcDbEntity
  8
0
100
AcDbLine
 62
7
  6
CONTINUOUS
 10
18.4721369257
 20
14.7263568854
 11
14.2294962386
 21
7.841896821
  0
LINE
  5
373
100
AcDbEntity
  8
0
100
AcDbLine
 62
7
  6
CONTINUOUS
 10
5.3906614737
 20
-6.5209208426
 11
9.2797487703
 21
-3.7365071487
  0
LINE
  5
374
100
AcDbEntity
  8
0
100
AcDbLine
 62
7
  6
CONTINUOUS
 10
4.9849136477
 20
-6.7237947556
 11
5.3906614737
 21
-6.5209208426
  0
LWPOLYLINE
  5
375
100
AcDbEntity
  8
RACCORDO
100
AcDbPolyline
 62
7
  6
CONTINUOUS
 90
11
 70
0
 10
-3.8843445474
 20
10.0217560201
 10
-3.8108092508
 20
9.9924958062
 10
-3.7413458173
 20
9.9711205801
 10
-3.6721354068
 20
9.95588124
 10
-3.6035168957
 20
9.9468167728
 10
-3.5358693671
 20
9.9439149945
 10
-3.4695059292
 20
9.9471484148
 10
-3.4048180796
 20
9.9564630592
 10
-3.3423486142
 20
9.971680807
 10
-3.2825203558
 20
9.992563924
 10
-3.241395957
 20
10.010904089
  0
LINE
  5
376
100
AcDbEntity
  8
0
100
AcDbLine
 62
253
  6
CONTINUOUS
 10
7.6534031735
 20
4.9161523123
 11
7.5826924954
 21
4.9515076514
  0
LINE
  5
377
100
AcDbEntity
  8
0
100
AcDbLine
 62
253
  6
CONTINUOUS
 10
8.2190885985
 20
5.8918153478
 11
8.1483779204
 21
5.9271706869
  0
LINE
  5
378
100
AcDbEntity
  8
DRAFT
100
AcDbLine
 62
7
  6
CONTINUOUS
 10
16.9872126852
 20
2.5523594352
 11
16.280105904
 21
2.9059128258
  0
LINE
  5
379
100
AcDbEntity
  8
DRAFT
100
AcDbLine
 62
7
  6
CONTINUOUS
 10
17.7650301445
 20
2.508255463
 11
16.6054471846
 21
3.0880469429
  0
LINE
  5
37A
100
AcDbEntity
  8
0
100
AcDbLine
 62
253
  6
CONTINUOUS
 10
8.2190885985
 20
7.537263615
 11
8.1483779204
 21
7.5726189541
  0
LINE
  5
37B
100
AcDbEntity
  8
SMUSSO
100
AcDbLine
 62
7
  6
CONTINUOUS
 10
17.9064515007
 20
2.7839549464
 11
16.9518573461
 21
3.2612520237
  0
LINE
  5
37C
100
AcDbEntity
  8
0
100
AcDbLine
 62
7
  6
CONTINUOUS
 10
5.3906614737
 20
9.2407415062
 11
4.9849136477
 21
9.4436154192
  0
LINE
  5
37D
100
AcDbEntity
  8
0
100
AcDbLine
 62
7
  6
CONTINUOUS
 10
5.567438169
 20
9.811784353
 11
4.9849136477
 21
10.1030466137
  0
LINE
  5
37E
100
AcDbEntity
  8
0
100
AcDbLine
 62
7
  6
CONTINUOUS
 10
5.7273890683
 20
9.8732302596
 11
4.9849136477
 21
10.2444679699
  0
LWPOLYLINE
  5
37F
100
AcDbEntity
  8
ASSI
100
AcDbPolyline
 62
7
  6
CONTINUOUS
 90
4
 70
0
 10
-12.6739003247
 20
25.8053184823
 10
-12.6558017607
 20
25.7893337548
 10
-12.6360929775
 20
25.7754615995
 10
-12.6178618811
 20
25.7652556706
  0
LINE
  5
380
100
AcDbEntity
  8
0
100
AcDbLine
 62
7
  6
CONTINUOUS
 10
13.5931001355
 20
-0.3347889165
 11
13.5931001355
 21
1.6034017007
  0
LINE
  5
381
100
AcDbEntity
  8
0
100
AcDbLine
 62
7
  6
CONTINUOUS
 10
13.8052321699
 20
-0.4408549337
 11
13.8052321699
 21
1.7094677178
  0
LINE
  5
382
100
AcDbEntity
  8
0
100
AcDbLine
 62
7
  6
CONTINUOUS
 10
14.2294962386
 20
7.841896821
 11
14.2294962386
 21
5.6768333116
  0
LINE
  5
383
100
AcDbEntity
  8
0
100
AcDbLine
 62
7
  6
CONTINUOUS
 10
8.8908400406
 20
11.2134070151
 11
9.2797487703
 21
11.0189526503
  0
LWPOLYLINE
  5
384
100
AcDbEntity
  8
ASSI
100
AcDbPolyline
 62
7
  6
CONTINUOUS
 90
4
 70
0
 10
-0.0867822088
 20
19.5114622586
 10
-0.0680091105
 20
19.4950690668
 10
-0.0475331116
 20
19.4809383491
 10
-0.0314119018
 20
19.472030484
  0
LINE
  5
385
100
AcDbEntity
  8
0
100
AcDbLine
 62
7
  6
CONTINUOUS
 10
14.2294962386
 20
5.6768333116
 11
16.280105904
 21
3.7576517714
  0
LINE
  5
386
100
AcDbEntity
  8
0
100
AcDbLine
 62
7
  6
CONTINUOUS
 10
14.9012476807
 20
17.3778269117
 11
14.9012476807
 21
16.5118015079
  0
LINE
  5
387
100
AcDbEntity
  8
0
100
AcDbLine
 62
7
  6
CONTINUOUS
 10
16.280105904
 20
3.7576517714
 11
16.280105904
 21
2.1988060446
  0
LINE
  5
388
100
AcDbEntity
  8
ASSI
100
AcDbLine
 62
7
  6
CONTINUOUS
 10
1.6306410281
 20
-21.7190502644
 11
1.3831121832
 21
-22.0105947673
  0
LINE
  5
389
100
AcDbEntity
  8
ASSI
100
AcDbLine
 62
253
  6
CONTINUOUS
 10
2.0568363261
 20
-22.4930784568
 11
2.6896265356
 21
-21.7477652908
  0
LINE
  5
38A
100
AcDbEntity
  8
ASSI
100
AcDbLine
 62
253
  6
CONTINUOUS
 10
2.2664786784
 20
-22.6796570978
 11
3.0032864826
 21
-21.8118298951
  0
LINE
  5
38B
100
AcDbEntity
  8
ASSI
100
AcDbLine
 62
7
  6
CONTINUOUS
 10
4.2592906238
 20
-19.6391584101
 11
4.9849136477
 21
-18.7948631409
  0
LINE
  5
38C
100
AcDbEntity
  8
ASSI
100
AcDbLine
 62
7
  6
CONTINUOUS
 10
4.9849136477
 20
-14.2807291614
 11
7.8128199383
 21
-12.8472999625
  0
LINE
  5
38D
100
AcDbEntity
  8
RACCORDO
100
AcDbLine
 62
7
  6
CONTINUOUS
 10
9.2887511745
 20
-14.364688444
 11
4.9849136477
 21
-16.5080916963
  0
LINE
  5
38E
100
AcDbEntity
  8
RACCORDO
100
AcDbLine
 62
253
  6
CONTINUOUS
 10
4.9849136477
 20
-14.4101089424
 11
9.0769325283
 21
-13.2195486364
  0
LINE
  5
38F
100
AcDbEntity
  8
RACCORDO
100
AcDbLine
 62
253
  6
CONTINUOUS
 10
4.9849136477
 20
-14.8410620493
 11
9.2887511745
 21
-13.5888737598
  0
LINE
  5
390
100
AcDbEntity
  8
RACCORDO
100
AcDbLine
 62
7
  6
CONTINUOUS
 10
0.0694060093
 20
16.6550667991
 11
-13.6125563346
 21
23.496047971
  0
LINE
  5
391
100
AcDbEntity
  8
DRAFT
100
AcDbLine
 62
7
  6
CONTINUOUS
 10
-3.9431480379
 20
19.4138370721
 11
-8.185788725
 21
21.5351574156
  0
LINE
  5
392
100
AcDbEntity
  8
ASSI
100
AcDbLine
 62
7
  6
CONTINUOUS
 10
1.0326708953
 20
17.6784208549
 11
0.8391066092
 21
17.7752029979
  0
LINE
  5
393
100
AcDbEntity
  8
ASSI
100
AcDbLine
 62
7
  6
CONTINUOUS
 10
-11.5538298098
 20
23.9716712074
 11
-11.7473940959
 21
24.0684533505
  0
LINE
  5
394
100
AcDbEntity
  8
ASSI
100
AcDbLine
 62
7
  6
CONTINUOUS
 10
-11.9533548329
 20
24.9239269683
 11
-11.8206174006
 21
24.8575582522
  0
LINE
  5
395
100
AcDbEntity
  8
ASSI
100
AcDbLine
 62
7
  6
CONTINUOUS
 10
-10.6606624592
 20
24.2775807815
 11
-9.9336555105
 21
23.9140773071
  0
LINE
  5
396
100
AcDbEntity
  8
ASSI
100
AcDbLine
 62
7
  6
CONTINUOUS
 10
0.6331458723
 20
18.6306766158
 11
0.7658833045
 21
18.5643078997
  0
LINE
  5
397
100
AcDbEntity
  8
ASSI
100
AcDbLine
 62
7
  6
CONTINUOUS
 10
1.9258382459
 20
17.984330429
 11
2.6528451947
 21
17.6208269546
  0
LINE
  5
398
100
AcDbEntity
  8
ASSI
100
AcDbLine
 62
7
  6
CONTINUOUS
 10
4.9849136477
 20
16.578203818
 11
4.9540548103
 21
16.5936332368
  0
LINE
  5
399
100
AcDbEntity
  8
SMUSSO
100
AcDbLine
 62
7
  6
CONTINUOUS
 10
17.3054107367
 20
3.5174880303
 11
17.3054107367
 21
12.8331303677
  0
LINE
  5
39A
100
AcDbEntity
  8
0
100
AcDbLine
 62
7
  6
CONTINUOUS
 10
17.7650301445
 20
2.508255463
 11
17.7650301445
 21
1.6422300592
  0
LINE
  5
39B
100
AcDbEntity
  8
0
100
AcDbLine
 62
7
  6
CONTINUOUS
 10
17.9064515007
 20
13.4360674129
 11
17.9064515007
 21
2.7839549464
  0
LINE
  5
39C
100
AcDbEntity
  8
0
100
AcDbLine
 62
7
  6
CONTINUOUS
 10
18.4721369257
 20
15.5923822892
 11
18.4721369257
 21
14.7263568854
  0
LINE
  5
39D
100
AcDbEntity
  8
RACCORDO
100
AcDbLine
 62
7
  6
CONTINUOUS
 10
18.6135582819
 20
15.26186399
 11
18.6135582819
 21
13.7896208035
  0
LINE
  5
39E
100
AcDbEntity
  8
ASSI
100
AcDbLine
 62
7
  6
CONTINUOUS
 10
8.6565584161
 20
-15.8153902284
 11
4.9849136477
 21
-17.7106266053
  0
LINE
  5
39F
100
AcDbEntity
  8
ASSI
100
AcDbLine
 62
7
  6
CONTINUOUS
 10
9.867682511
 20
-15.0792752316
 11
4.9849136477
 21
-17.5762806386
  0
LINE
  5
3A0
100
AcDbEntity
  8
ASSI
100
AcDbLine
 62
7
  6
CONTINUOUS
 10
9.886442348
 20
-14.6635340308
 11
4.9849136477
 21
-17.148055665
  0
LINE
  5
3A1
100
AcDbEntity
  8
ASSI
100
AcDbLine
 62
7
  6
CONTINUOUS
 10
4.9540548103
 20
16.5936332368
 11
4.2592906238
 21
16.7339085488
  0
LINE
  5
3A2
100
AcDbEntity
  8
ASSI
100
AcDbLine
 62
7
  6
CONTINUOUS
 10
2.0860442263
 20
18.4212346073
 11
2.7264315148
 21
18.2853882632
  0
LINE
  5
3A3
100
AcDbEntity
  8
ASSI
100
AcDbLine
 62
253
  6
CONTINUOUS
 10
2.2664786784
 20
18.5449470416
 11
3.0032864826
 21
18.3886468646
  0
LINE
  5
3A4
100
AcDbEntity
  8
ASSI
100
AcDbLine
 62
7
  6
CONTINUOUS
 10
4.9849136477
 20
16.578203818
 11
4.2592906238
 21
16.7339085488
  0
LWPOLYLINE
  5
3A5
100
AcDbEntity
  8
ASSI
100
AcDbPolyline
 62
7
  6
CONTINUOUS
 90
4
 70
0
 10
2.0333466755
 20
18.4396510961
 10
2.0423349449
 20
18.4354076639
 10
2.0640888032
 20
18.427088187
 10
2.0859874368
 20
18.4212538842
  0
LWPOLYLINE
  5
3A6
100
AcDbEntity
  8
ASSI
100
AcDbPolyline
 62
7
  6
CONTINUOUS
 90
4
 70
0
 10
-10.5531980267
 20
24.7329227335
 10
-10.5471476964
 20
24.7300110473
 10
-10.5240470599
 20
24.7208748095
 10
-10.500538216
 20
24.7145023498
  0
LINE
  5
3A7
100
AcDbEntity
  8
ASSI
100
AcDbLine
 62
7
  6
CONTINUOUS
 10
2.0333454159
 20
18.4396509881
 11
1.2321874578
 21
18.8402299672
  0
LINE
  5
3A8
100
AcDbEntity
  8
ASSI
100
AcDbLine
 62
7
  6
CONTINUOUS
 10
0.7643138712
 20
19.0741667605
 11
-0.0316153937
 21
19.472131393
  0
LINE
  5
3A9
100
AcDbEntity
  8
ASSI
100
AcDbLine
 62
7
  6
CONTINUOUS
 10
-10.5530440635
 20
24.7328458293
 11
-11.3543132474
 21
25.1334803198
  0
LINE
  5
3AA
100
AcDbEntity
  8
ASSI
100
AcDbLine
 62
7
  6
CONTINUOUS
 10
-11.8221868339
 20
25.3674171131
 11
-12.6181220237
 21
25.7653847079
  0
LINE
  5
3AB
100
AcDbEntity
  8
ASSI
100
AcDbLine
 62
253
  6
CONTINUOUS
 10
-11.7473940959
 20
25.4327525459
 11
-12.6828626142
 21
25.9005041556
  0
LINE
  5
3AC
100
AcDbEntity
  8
ASSI
100
AcDbLine
 62
253
  6
CONTINUOUS
 10
0.8391066092
 20
19.1395021934
 11
-0.0963619091
 21
19.6072364525
  0
LINE
  5
3AD
100
AcDbEntity
  8
ASSI
100
AcDbLine
 62
253
  6
CONTINUOUS
 10
-10.6183612915
 20
24.8682361437
 11
-11.5538298098
 21
25.3359704029
  0
LINE
  5
3AE
100
AcDbEntity
  8
ASSI
100
AcDbLine
 62
253
  6
CONTINUOUS
 10
1.9681394136
 20
18.5750031352
 11
1.0326708953
 21
19.0427200503
  0
LINE
  5
3AF
100
AcDbEntity
  8
ASSI
100
AcDbLine
 62
7
  6
CONTINUOUS
 10
-0.9416685387
 20
20.1705770707
 11
-3.2323169359
 21
21.3159012692
  0
LINE
  5
3B0
100
AcDbEntity
  8
ASSI
100
AcDbLine
 62
7
  6
CONTINUOUS
 10
-4.65397914
 20
22.0267323713
 11
-6.9446275371
 21
23.1720565699
  0
LINE
  5
3B1
100
AcDbEntity
  8
ASSI
100
AcDbLine
 62
253
  6
CONTINUOUS
 10
1.9681394136
 20
18.8922545915
 11
-0.0963619091
 21
19.9245052529
  0
LINE
  5
3B2
100
AcDbEntity
  8
ASSI
100
AcDbLine
 62
253
  6
CONTINUOUS
 10
-10.6183612915
 20
25.1855074438
 11
-12.6828626142
 21
26.2177556054
  0
LINE
  5
3B3
100
AcDbEntity
  8
ASSI
100
AcDbLine
 62
7
  6
CONTINUOUS
 10
-8.6807634719
 20
24.416371162
 11
-7.0032061808
 21
23.5775925164
  0
LINE
  5
3B4
100
AcDbEntity
  8
ASSI
100
AcDbLine
 62
7
  6
CONTINUOUS
 10
-4.1552800723
 20
22.1536294622
 11
-3.2908955796
 21
21.7214372158
  0
LINE
  5
3B5
100
AcDbEntity
  8
ASSI
100
AcDbLine
 62
7
  6
CONTINUOUS
 10
-0.442969471
 20
20.2974741615
 11
-0.1159486185
 21
20.1339637353
  0
LINE
  5
3B6
100
AcDbEntity
  8
ASSI
100
AcDbLine
 62
253
  6
CONTINUOUS
 10
2.1424372895
 20
19.1952705461
 11
0.0767232481
 21
20.2281275668
  0
LINE
  5
3B7
100
AcDbEntity
  8
ASSI
100
AcDbLine
 62
253
  6
CONTINUOUS
 10
-10.4440634156
 20
25.4885208987
 11
-12.509777457
 21
26.5213779194
  0
LINE
  5
3B8
100
AcDbEntity
  8
ASSI
100
AcDbLine
 62
7
  6
CONTINUOUS
 10
-8.6807634719
 20
25.1083614135
 11
-8.0126277567
 21
24.7742935559
  0
LINE
  5
3B9
100
AcDbEntity
  8
ASSI
100
AcDbLine
 62
7
  6
CONTINUOUS
 10
3.9057372406
 20
18.8151110573
 11
4.6005552676
 21
18.4677020438
  0
LINE
  5
3BA
100
AcDbEntity
  8
ASSI
100
AcDbLine
 62
7
  6
CONTINUOUS
 10
-3.4605158859
 20
22.5118426491
 11
-3.2908955796
 21
22.427032496
  0
LINE
  5
3BB
100
AcDbEntity
  8
ASSI
100
AcDbLine
 62
253
  6
CONTINUOUS
 10
-0.977018493
 20
21.4188195043
 11
-3.1969669816
 21
22.5287937486
  0
LINE
  5
3BC
100
AcDbEntity
  8
ASSI
100
AcDbLine
 62
253
  6
CONTINUOUS
 10
-4.6893290942
 20
23.274974805
 11
-6.9092775828
 21
24.3849490492
  0
LINE
  5
3BD
100
AcDbEntity
  8
ASSI
100
AcDbLine
 62
253
  6
CONTINUOUS
 10
-0.8380652798
 20
21.6614748118
 11
-3.0580137683
 21
22.771449056
  0
LINE
  5
3BE
100
AcDbEntity
  8
ASSI
100
AcDbLine
 62
253
  6
CONTINUOUS
 10
-4.550375881
 20
23.5176301124
 11
-6.7703243696
 21
24.6276043567
  0
LINE
  5
3BF
100
AcDbEntity
  8
ASSI
100
AcDbLine
 62
7
  6
CONTINUOUS
 10
-6.5594700523
 20
24.7413650982
 11
-4.3320298436
 21
23.6276449939
  0
LINE
  5
3C0
100
AcDbEntity
  8
ASSI
100
AcDbLine
 62
7
  6
CONTINUOUS
 10
-2.847159451
 20
22.8852097976
 11
-0.6197192424
 21
21.7714896933
  0
LINE
  5
3C1
100
AcDbEntity
  8
ASSI
100
AcDbLine
 62
7
  6
CONTINUOUS
 10
-10.9435267108
 20
27.3664061294
 11
-8.8221632889
 21
26.3057244184
  0
LINE
  5
3C2
100
AcDbEntity
  8
ASSI
100
AcDbLine
 62
7
  6
CONTINUOUS
 10
1.6429739943
 20
21.0731557768
 11
3.7643374162
 21
20.0124740659
  0
LINE
  5
3C3
100
AcDbEntity
  8
RACCORDO
100
AcDbLine
 62
253
  6
CONTINUOUS
 10
20.8055893036
 20
7.7170026442
 11
20.8055893036
 21
12.0008547353
  0
LINE
  5
3C4
100
AcDbEntity
  8
RACCORDO
100
AcDbLine
 62
7
  6
CONTINUOUS
 10
20.8934572693
 20
7.8098335945
 11
20.8934572693
 21
12.1252928182
  0
LINE
  5
3C5
100
AcDbEntity
  8
RACCORDO
100
AcDbLine
 62
7
  6
CONTINUOUS
 10
20.8934544775
 20
7.809331212
 11
20.8930442694
 21
7.8022362112
  0
LINE
  5
3C6
100
AcDbEntity
  8
RACCORDO
100
AcDbLine
 62
253
  6
CONTINUOUS
 10
20.3789520246
 20
4.0202052083
 11
20.8055893036
 21
7.7170026442
  0
LINE
  5
3C7
100
AcDbEntity
  8
RACCORDO
100
AcDbLine
 62
7
  6
CONTINUOUS
 10
20.467894135
 20
4.1183248238
 11
20.8929966524
 21
7.8018236026
  0
LWPOLYLINE
  5
3C8
100
AcDbEntity
  8
ASSI
100
AcDbPolyline
 62
7
  6
CONTINUOUS
 90
10
 70
0
 10
4.3925470569
 20
-22.13739167
 10
4.4147734368
 20
-22.1220343536
 10
4.4356053989
 20
-22.1040391672
 10
4.4547304934
 20
-22.0836090295
 10
4.4714443884
 20
-22.0616130277
 10
4.4860480629
 20
-22.037786185
 10
4.4984739889
 20
-22.0120399511
 10
4.5080845599
 20
-21.9856456381
 10
4.5148823244
 20
-21.9589205544
 10
4.518977376
 20
-21.931126428
  0
LINE
  5
3C9
100
AcDbEntity
  8
ASSI
100
AcDbLine
 62
7
  6
CONTINUOUS
 10
4.3808382661
 20
-22.1441296367
 11
4.3925470569
 21
-22.13739167
  0
LINE
  5
3CA
100
AcDbEntity
  8
ASSI
100
AcDbLine
 62
253
  6
CONTINUOUS
 10
4.2592906238
 20
-20.4186472235
 11
4.9540548103
 21
-20.0438060059
  0
LINE
  5
3CB
100
AcDbEntity
  8
ASSI
100
AcDbLine
 62
7
  6
CONTINUOUS
 10
4.1335506415
 20
-20.6869016812
 11
4.8293779104
 21
-20.3114869061
  0
LINE
  5
3CC
100
AcDbEntity
  8
ASSI
100
AcDbLine
 62
253
  6
CONTINUOUS
 10
3.9057372333
 20
-22.3202919273
 11
4.4298416998
 21
-22.0375255438
  0
LINE
  5
3CD
100
AcDbEntity
  8
ASSI
100
AcDbLine
 62
7
  6
CONTINUOUS
 10
3.855884293
 20
-22.4273546733
 11
4.3809385039
 21
-22.1440758809
  0
LINE
  5
3CE
100
AcDbEntity
  8
ASSI
100
AcDbLine
 62
7
  6
CONTINUOUS
 10
3.8516744221
 20
-22.429461568
 11
3.8558408587
 21
-22.4273780636
  0
LINE
  5
3CF
100
AcDbEntity
  8
ASSI
100
AcDbLine
 62
7
  6
CONTINUOUS
 10
4.1157768637
 20
-20.695338295
 11
4.1335262001
 21
-20.6869150843
  0
LINE
  5
3D0
100
AcDbEntity
  8
ASSI
100
AcDbLine
 62
253
  6
CONTINUOUS
 10
3.9057372333
 20
-22.3202919273
 11
2.2838371066
 21
-23.0693391537
  0
LINE
  5
3D1
100
AcDbEntity
  8
ASSI
100
AcDbLine
 62
7
  6
CONTINUOUS
 10
3.8516186163
 20
-22.429487341
 11
2.2287611747
 21
-23.1789766872
  0
LINE
  5
3D2
100
AcDbEntity
  8
ASSI
100
AcDbLine
 62
253
  6
CONTINUOUS
 10
-0.9318142409
 20
-22.5569737063
 11
4.2592906238
 21
-20.4185810699
  0
LINE
  5
3D3
100
AcDbEntity
  8
ASSI
100
AcDbLine
 62
7
  6
CONTINUOUS
 10
-1.0855497031
 20
-22.8379416006
 11
4.115726732
 21
-20.6953589484
  0
LWPOLYLINE
  5
3D4
100
AcDbEntity
  8
ASSI
100
AcDbPolyline
 62
7
  6
CONTINUOUS
 90
4
 70
0
 10
5.9486421613
 20
24.1330393876
 10
5.8899008596
 20
24.1188197309
 10
5.8310388144
 20
24.0991862238
 10
5.7734711841
 20
24.0747537156
  0
LINE
  5
3D5
100
AcDbEntity
  8
ASSI
100
AcDbLine
 62
7
  6
CONTINUOUS
 10
-9.8596401667
 20
24.5785476063
 11
-10.5004564768
 21
24.7144849595
  0
LWPOLYLINE
  5
3D6
100
AcDbEntity
  8
ASSI
100
AcDbPolyline
 62
7
  6
CONTINUOUS
 90
10
 70
0
 10
2.2831325835
 20
21.334616776
 10
2.2620859505
 20
21.3423932259
 10
2.240206867
 20
21.3480158309
 10
2.2177226314
 20
21.3513893727
 10
2.1947892307
 20
21.3524452548
 10
2.1716491194
 20
21.3511257602
 10
2.1486233265
 20
21.3474182705
 10
2.12593233
 20
21.3413438879
 10
2.1037793201
 20
21.3329430372
 10
2.0996166846
 20
21.3310738699
  0
LINE
  5
3D7
100
AcDbEntity
  8
ASSI
100
AcDbLine
 62
7
  6
CONTINUOUS
 10
-10.2914266447
 20
27.6223170156
 11
-10.305714864
 21
27.6288565915
  0
LINE
  5
3D8
100
AcDbEntity
  8
ASSI
100
AcDbLine
 62
7
  6
CONTINUOUS
 10
2.2950587275
 20
21.3290741243
 11
2.2831325835
 21
21.334616776
  0
LINE
  5
3D9
100
AcDbEntity
  8
ASSI
100
AcDbLine
 62
7
  6
CONTINUOUS
 10
-0.2308643606
 20
22.2690525039
 11
-2.1277100751
 21
23.2174753611
  0
LINE
  5
3DA
100
AcDbEntity
  8
ASSI
100
AcDbLine
 62
7
  6
CONTINUOUS
 10
-3.6372656572
 20
23.9722531522
 11
-5.5341113716
 21
24.9206760094
  0
LINE
  5
3DB
100
AcDbEntity
  8
0
100
AcDbLine
 62
7
  6
CONTINUOUS
 10
17.73103129
 20
13.5237775183
 11
17.9064515007
 21
13.4360674129
  0
LINE
  5
3DC
100
AcDbEntity
  8
ASSI
100
AcDbLine
 62
253
  6
CONTINUOUS
 10
4.2884418827
 20
20.272433745
 11
2.185700057
 21
21.3238046579
  0
LINE
  5
3DD
100
AcDbEntity
  8
ASSI
100
AcDbLine
 62
253
  6
CONTINUOUS
 10
-8.2980568278
 20
26.5656850869
 11
-10.4008006481
 21
27.6170550105
  0
LINE
  5
3DE
100
AcDbEntity
  8
ASSI
100
AcDbLine
 62
7
  6
CONTINUOUS
 10
4.3967816368
 20
20.2782138105
 11
2.2947964735
 21
21.3292063921
  0
LINE
  5
3DF
100
AcDbEntity
  8
ASSI
100
AcDbLine
 62
7
  6
CONTINUOUS
 10
-8.1897385629
 20
26.5714739078
 11
-10.2917034392
 21
27.6224563485
  0
LINE
  5
3E0
100
AcDbEntity
  8
0
100
AcDbLine
 62
7
  6
CONTINUOUS
 10
18.0641506716
 20
14.0643246087
 11
18.6135582819
 21
13.7896208035
  0
LINE
  5
3E1
100
AcDbEntity
  8
0
100
AcDbLine
 62
7
  6
CONTINUOUS
 10
8.8201293625
 20
19.357725899
 11
10.0929215686
 21
18.721329796
  0
LINE
  5
3E2
100
AcDbEntity
  8
0
100
AcDbLine
 62
7
  6
CONTINUOUS
 10
13.8405875089
 20
16.8474968258
 11
15.1133797151
 21
16.2111007227
  0
LINE
  5
3E3
100
AcDbEntity
  8
ASSI
100
AcDbLine
 62
7
  6
CONTINUOUS
 10
-10.2917242142
 20
27.6224667326
 11
-10.2914329717
 21
27.6223205746
  0
LWPOLYLINE
  5
3E4
100
AcDbEntity
  8
ASSI
100
AcDbPolyline
 62
7
  6
CONTINUOUS
 90
5
 70
0
 10
3.1821039602
 20
23.854095151
 10
3.1406190152
 20
23.8524607887
 10
3.0992161483
 20
23.8474690986
 10
3.0597156452
 20
23.8393063586
 10
3.0225176734
 20
23.8281979191
  0
LINE
  5
3E5
100
AcDbEntity
  8
ASSI
100
AcDbLine
 62
253
  6
CONTINUOUS
 10
-9.5832142225
 20
24.6818972172
 11
-10.3200220268
 21
24.8381973941
  0
LWPOLYLINE
  5
3E6
100
AcDbEntity
  8
ASSI
100
AcDbPolyline
 62
7
  6
CONTINUOUS
 90
8
 70
0
 10
-10.305714864
 20
27.6288565915
 10
-10.3269443492
 20
27.6364176672
 10
-10.3489864919
 20
27.64179594
 10
-10.371612447
 20
27.644898439
 10
-10.3946706286
 20
27.6456606407
 10
-10.4179321617
 20
27.6440195351
 10
-10.4410537731
 20
27.6399661207
 10
-10.4637761508
 20
27.6335340005
  0
LINE
  5
3E7
100
AcDbEntity
  8
RACCORDO
100
AcDbLine
 62
7
  6
CONTINUOUS
 10
8.5418290537
 20
20.5575362252
 11
18.4014262476
 21
15.6277376283
  0
LINE
  5
3E8
100
AcDbEntity
  8
0
100
AcDbLine
 62
7
  6
CONTINUOUS
 10
18.4721369257
 20
15.5923822892
 11
16.1740398868
 21
16.7414308086
  0
LINE
  5
3E9
100
AcDbEntity
  8
0
100
AcDbLine
 62
7
  6
CONTINUOUS
 10
14.9012476807
 20
17.3778269117
 11
11.1535817404
 21
19.2516598818
  0
LINE
  5
3EA
100
AcDbEntity
  8
0
100
AcDbLine
 62
7
  6
CONTINUOUS
 10
9.8807895343
 20
19.8880559849
 11
8.5418290537
 21
20.5575362252
  0
LINE
  5
3EB
100
AcDbEntity
  8
ASSI
100
AcDbLine
 62
7
  6
CONTINUOUS
 10
4.3411531427
 20
23.4013534347
 11
0.3665837667
 21
25.3886381227
  0
LINE
  5
3EC
100
AcDbEntity
  8
RACCORDO
100
AcDbLine
 62
7
  6
CONTINUOUS
 10
9.2887511745
 20
21.2447353366
 11
19.4620864194
 21
16.1580677142
  0
LINE
  5
3ED
100
AcDbEntity
  8
ASSI
100
AcDbLine
 62
7
  6
CONTINUOUS
 10
1.8681785741
 20
25.534434086
 11
5.2653279721
 21
23.835859387
  0
LINE
  5
3EE
100
AcDbEntity
  8
ASSI
100
AcDbLine
 62
253
  6
CONTINUOUS
 10
-1.6689306571
 20
27.842434165
 11
1.1047365518
 21
26.4556005606
  0
LINE
  5
3EF
100
AcDbEntity
  8
ASSI
100
AcDbLine
 62
253
  6
CONTINUOUS
 10
5.8828912072
 20
24.0665232329
 11
8.6565584161
 21
22.6796896284
  0
LINE
  5
3F0
100
AcDbEntity
  8
ASSI
100
AcDbLine
 62
7
  6
CONTINUOUS
 10
-1.3894491395
 20
27.9424931761
 11
1.5367636639
 21
26.4793867744
  0
LINE
  5
3F1
100
AcDbEntity
  8
ASSI
100
AcDbLine
 62
7
  6
CONTINUOUS
 10
6.3206098562
 20
24.0874636783
 11
9.2468226596
 21
22.6243572766
  0
LINE
  5
3F2
100
AcDbEntity
  8
RACCORDO
100
AcDbLine
 62
7
  6
CONTINUOUS
 10
19.4620864194
 20
16.1580677142
 11
19.4893356889
 21
16.1413984895
  0
LINE
  5
3F3
100
AcDbEntity
  8
RACCORDO
100
AcDbLine
 62
253
  6
CONTINUOUS
 10
20.186638919
 20
15.3132041313
 11
19.5863504881
 21
15.748260093
  0
LINE
  5
3F4
100
AcDbEntity
  8
RACCORDO
100
AcDbLine
 62
253
  6
CONTINUOUS
 10
20.8055893036
 20
12.0008547353
 11
20.186638919
 21
15.3132041313
  0
LINE
  5
3F5
100
AcDbEntity
  8
RACCORDO
100
AcDbLine
 62
7
  6
CONTINUOUS
 10
20.8917525659
 20
12.1438322943
 11
20.2596090497
 21
15.5267855102
  0
LINE
  5
3F6
100
AcDbEntity
  8
ASSI
100
AcDbLine
 62
7
  6
CONTINUOUS
 10
0.3665837667
 20
25.3886381227
 11
1.7964911863
 21
25.4731579326
  0
LWPOLYLINE
  5
3F7
100
AcDbEntity
  8
ASSI
100
AcDbPolyline
 62
7
  6
CONTINUOUS
 90
5
 70
0
 10
-2.4270523555
 20
26.6586733088
 10
-2.4685373004
 20
26.6570389465
 10
-2.5099401673
 20
26.6520472564
 10
-2.5494406705
 20
26.6438845164
 10
-2.5866386423
 20
26.6327760769
  0
LWPOLYLINE
  5
3F8
100
AcDbEntity
  8
ASSI
100
AcDbPolyline
 62
7
  6
CONTINUOUS
 90
8
 70
0
 10
6.3214842097
 20
24.0870251367
 10
6.2791298511
 20
24.1060460585
 10
6.228731454
 20
24.1232831515
 10
6.1758475443
 20
24.1357336456
 10
6.120900791
 20
24.1430974218
 10
6.0644929316
 20
24.1451519516
 10
6.0069783595
 20
24.1418153267
 10
5.9486421613
 20
24.1330393876
  0
LINE
  5
3F9
100
AcDbEntity
  8
RACCORDO
100
AcDbLine
 62
7
  6
CONTINUOUS
 10
20.1937392578
 20
15.6308862698
 11
19.5502681007
 21
16.0972386908
  0
ARC
  5
3FA
100
AcDbEntity
  8
RACCORDO
100
AcDbCircle
 62
253
  6
CONTINUOUS
 10
-14.526847733
 20
17.3052625502
 40
1.6696247919
100
AcDbArc
 50
182.9878888457
 51
185.9231830951
  0
ARC
  5
3FB
100
AcDbEntity
  8
RACCORDO
100
AcDbCircle
 62
253
  6
CONTINUOUS
 10
-14.6348879247
 20
17.2992543402
 40
1.5614183391
100
AcDbArc
 50
180.7902938668
 51
182.9743682469
  0
ARC
  5
3FC
100
AcDbEntity
  8
RACCORDO
100
AcDbCircle
 62
253
  6
CONTINUOUS
 10
-14.7304619924
 20
17.2978992675
 40
1.4658346731
100
AcDbArc
 50
178.0524877437
 51
180.7888589484
  0
ARC
  5
3FD
100
AcDbEntity
  8
0
100
AcDbCircle
 62
7
  6
CONTINUOUS
 10
7.2379673157
 20
-2.2532985645
 40
0.7590134814
100
AcDbArc
 50
300.4240073943
 51
304.048221088
  0
ARC
  5
3FE
100
AcDbEntity
  8
0
100
AcDbCircle
 62
7
  6
CONTINUOUS
 10
7.2379673157
 20
5.62753261
 40
0.7590134814
100
AcDbArc
 50
300.4240073943
 51
304.048221088
  0
ARC
  5
3FF
100
AcDbEntity
  8
0
100
AcDbCircle
 62
7
  6
CONTINUOUS
 10
7.2760744906
 20
-2.3175108831
 40
0.6843458974
100
AcDbArc
 50
296.6183453477
 51
300.3952842612
  0
ARC
  5
400
100
AcDbEntity
  8
0
100
AcDbCircle
 62
7
  6
CONTINUOUS
 10
7.2760744906
 20
5.5633202913
 40
0.6843458974
100
AcDbArc
 50
296.6183453478
 51
300.3952842612
  0
ARC
  5
401
100
AcDbEntity
  8
ASSI
100
AcDbCircle
 62
253
  6
CONTINUOUS
 10
-16.3107550768
 20
-15.0460934781
 40
0.4679501358
100
AcDbArc
 50
236.6435688027
 51
237.3495177374
  0
ARC
  5
402
100
AcDbEntity
  8
ASSI
100
AcDbCircle
 62
253
  6
CONTINUOUS
 10
-16.3121947306
 20
-15.048366945
 40
0.4652592166
100
AcDbArc
 50
237.347743328
 51
240.4077048459
  0
ARC
  5
403
100
AcDbEntity
  8
0
100
AcDbCircle
 62
7
  6
CONTINUOUS
 10
7.7868198814
 20
-0.1678745394
 40
0.3310174509
100
AcDbArc
 50
41.201938729
 51
48.3153388926
  0
ARC
  5
404
100
AcDbEntity
  8
0
100
AcDbCircle
 62
7
  6
CONTINUOUS
 10
7.7868198814
 20
7.712956635
 40
0.3310174509
100
AcDbArc
 50
41.201938729
 51
48.3153388926
  0
ARC
  5
405
100
AcDbEntity
  8
RACCORDO
100
AcDbCircle
 62
7
  6
CONTINUOUS
 10
-15.4148815086
 20
-4.0524365889
 40
0.3142997694
100
AcDbArc
 50
294.543797906
 51
296.6398902832
  0
ARC
  5
406
100
AcDbEntity
  8
ASSI
100
AcDbCircle
 62
7
  6
CONTINUOUS
 10
7.8731419209
 20
-0.19001722
 40
0.3114873623
100
AcDbArc
 50
71.0070241888
 51
78.3115925644
  0
ARC
  5
407
100
AcDbEntity
  8
ASSI
100
AcDbCircle
 62
7
  6
CONTINUOUS
 10
7.8731419209
 20
7.6908139544
 40
0.3114873623
100
AcDbArc
 50
71.0070241888
 51
78.3115925644
  0
ARC
  5
408
100
AcDbEntity
  8
RACCORDO
100
AcDbCircle
 62
7
  6
CONTINUOUS
 10
-14.2829504732
 20
-4.6929507885
 40
0.3104908663
100
AcDbArc
 50
295.1734562345
 51
296.6471042603
  0
ARC
  5
409
100
AcDbEntity
  8
RACCORDO
100
AcDbCircle
 62
7
  6
CONTINUOUS
 10
-14.2593373625
 20
-6.111333469
 40
0.3093350639
100
AcDbArc
 50
295.37682191
 51
296.648843035
  0
ARC
  5
40A
100
AcDbEntity
  8
ASSI
100
AcDbCircle
 62
7
  6
CONTINUOUS
 10
7.8750235036
 20
-0.1840953496
 40
0.3052755582
100
AcDbArc
 50
70.3341051975
 51
70.9792205623
  0
ARC
  5
40B
100
AcDbEntity
  8
ASSI
100
AcDbCircle
 62
7
  6
CONTINUOUS
 10
7.8750235036
 20
7.6967358249
 40
0.305275558
100
AcDbArc
 50
70.3341051972
 51
70.9792205624
  0
ARC
  5
40C
100
AcDbEntity
  8
ASSI
100
AcDbCircle
 62
7
  6
CONTINUOUS
 10
7.8759530013
 20
-0.1815667051
 40
0.3025815995
100
AcDbArc
 50
63.441381466
 51
70.3387073575
  0
ARC
  5
40D
100
AcDbEntity
  8
ASSI
100
AcDbCircle
 62
7
  6
CONTINUOUS
 10
7.8759530013
 20
7.6992644694
 40
0.3025815995
100
AcDbArc
 50
63.441381466
 51
70.3387073576
  0
ARC
  5
40E
100
AcDbEntity
  8
ASSI
100
AcDbCircle
 62
7
  6
CONTINUOUS
 10
7.8767212498
 20
7.7009304203
 40
0.3007479555
100
AcDbArc
 50
62.173096933
 51
63.4303913323
  0
ARC
  5
40F
100
AcDbEntity
  8
ASSI
100
AcDbCircle
 62
7
  6
CONTINUOUS
 10
7.8767212498
 20
-0.1799007541
 40
0.3007479555
100
AcDbArc
 50
62.173096933
 51
63.4303913324
  0
ARC
  5
410
100
AcDbEntity
  8
RACCORDO
100
AcDbCircle
 62
7
  6
CONTINUOUS
 10
-5.1485933315
 20
-9.6545412204
 40
0.2839236764
100
AcDbArc
 50
117.4479343285
 51
119.0121363251
  0
ARC
  5
411
100
AcDbEntity
  8
ASSI
100
AcDbCircle
 62
7
  6
CONTINUOUS
 10
4.0432496432
 20
-20.5200515775
 40
0.1897068997
100
AcDbArc
 50
298.4131232313
 51
301.183179147
  0
ARC
  5
412
100
AcDbEntity
  8
ASSI
100
AcDbCircle
 62
253
  6
CONTINUOUS
 10
4.3143919207
 20
-21.4719003772
 40
0.1325016742
100
AcDbArc
 50
54.4471051637
 51
63.5321853897
  0
ARC
  5
413
100
AcDbEntity
  8
ASSI
100
AcDbCircle
 62
253
  6
CONTINUOUS
 10
4.3543729875
 20
-21.4462616656
 40
0.0949111581
100
AcDbArc
 50
63.6308652201
 51
78.3745314914
  0
ARC
  5
414
100
AcDbEntity
  8
RACCORDO
100
AcDbCircle
 62
7
  6
CONTINUOUS
 10
20.7987182158
 20
12.1259402741
 40
0.0947777719
100
AcDbArc
 50
359.9839334625
 51
10.5613773463
  0
ARC
  5
415
100
AcDbEntity
  8
ASSI
100
AcDbCircle
 62
253
  6
CONTINUOUS
 10
-10.3338793341
 20
27.5381150696
 40
0.0942986567
100
AcDbArc
 50
63.446175446
 51
66.0333017026
  0
ARC
  5
416
100
AcDbEntity
  8
RACCORDO
100
AcDbCircle
 62
253
  6
CONTINUOUS
 10
66.9301964808
 20
171.8124068752
 40
172.3103937552
100
AcDbArc
 50
246.1937069194
 51
246.3878242146
  0
ARC
  5
417
100
AcDbEntity
  8
RACCORDO
100
AcDbCircle
 62
253
  6
CONTINUOUS
 10
62.089606482
 20
161.8950625035
 40
159.6835751656
100
AcDbArc
 50
246.4026408547
 51
246.61325045
  0
ARC
  5
418
100
AcDbEntity
  8
RACCORDO
100
AcDbCircle
 62
253
  6
CONTINUOUS
 10
57.5925168596
 20
148.3348907157
 40
151.2769543365
100
AcDbArc
 50
245.0353385742
 51
246.0006382569
  0
ARC
  5
419
100
AcDbEntity
  8
RACCORDO
100
AcDbCircle
 62
253
  6
CONTINUOUS
 10
56.082467002
 20
145.0663076339
 40
148.0148508537
100
AcDbArc
 50
245.1071111435
 51
246.1246004644
  0
ARC
  5
41A
100
AcDbEntity
  8
RACCORDO
100
AcDbCircle
 62
253
  6
CONTINUOUS
 10
52.3364294911
 20
137.0160822401
 40
139.1357275793
100
AcDbArc
 50
242.7596952831
 51
245.1110189883
  0
ARC
  5
41B
100
AcDbEntity
  8
RACCORDO
100
AcDbCircle
 62
253
  6
CONTINUOUS
 10
51.3198523292
 20
115.839116511
 40
137.8666105548
100
AcDbArc
 50
245.7692090714
 51
246.3492089604
  0
ARC
  5
41C
100
AcDbEntity
  8
RACCORDO
100
AcDbCircle
 62
253
  6
CONTINUOUS
 10
50.9041196144
 20
139.7495633873
 40
136.4494638676
100
AcDbArc
 50
240.2345260062
 51
240.4613160986
  0
ARC
  5
41D
100
AcDbEntity
  8
RACCORDO
100
AcDbCircle
 62
253
  6
CONTINUOUS
 10
50.5952978116
 20
114.2539964374
 40
135.700433847
100
AcDbArc
 50
245.6819703949
 51
246.1896704651
  0
ARC
  5
41E
100
AcDbEntity
  8
RACCORDO
100
AcDbCircle
 62
253
  6
CONTINUOUS
 10
48.1404794734
 20
107.2546347611
 40
129.5923677986
100
AcDbArc
 50
242.8251879896
 51
245.5846605324
  0
ARC
  5
41F
100
AcDbEntity
  8
RACCORDO
100
AcDbCircle
 62
253
  6
CONTINUOUS
 10
47.7420770508
 20
133.1337502949
 40
127.525727545
100
AcDbArc
 50
240.0001638635
 51
240.2448375122
  0
ARC
  5
420
100
AcDbEntity
  8
RACCORDO
100
AcDbCircle
 62
253
  6
CONTINUOUS
 10
46.9735326622
 20
126.5012181091
 40
127.3323026862
100
AcDbArc
 50
240.5689190254
 51
242.7395467355
  0
ARC
  5
421
100
AcDbEntity
  8
RACCORDO
100
AcDbCircle
 62
253
  6
CONTINUOUS
 10
43.1513495415
 20
97.3830192151
 40
118.5318579661
100
AcDbArc
 50
241.1802516343
 51
242.7832007528
  0
ARC
  5
422
100
AcDbEntity
  8
RACCORDO
100
AcDbCircle
 62
253
  6
CONTINUOUS
 10
40.5840766174
 20
109.5119085639
 40
113.8563280844
100
AcDbArc
 50
240.3829307048
 51
240.5456203679
  0
ARC
  5
423
100
AcDbEntity
  8
RACCORDO
100
AcDbCircle
 62
253
  6
CONTINUOUS
 10
39.5861818026
 20
92.2882910878
 40
111.5449733094
100
AcDbArc
 50
240.2844001035
 51
240.9523542737
  0
ARC
  5
424
100
AcDbEntity
  8
RACCORDO
100
AcDbCircle
 62
253
  6
CONTINUOUS
 10
39.6210396545
 20
92.2423605888
 40
111.0964935895
100
AcDbArc
 50
240.4179601529
 51
241.0523069684
  0
ARC
  5
425
100
AcDbEntity
  8
RACCORDO
100
AcDbCircle
 62
253
  6
CONTINUOUS
 10
522.9903676817
 20
-4.4858065668
 40
525.9421844548
100
AcDbArc
 50
177.9680860932
 51
178.368803324
  0
ARC
  5
426
100
AcDbEntity
  8
ASSI
100
AcDbCircle
 62
253
  6
CONTINUOUS
 10
523.6898305654
 20
-4.7256940534
 40
525.4353650595
100
AcDbArc
 50
177.9667098319
 51
178.2417372964
  0
ARC
  5
427
100
AcDbEntity
  8
RACCORDO
100
AcDbCircle
 62
253
  6
CONTINUOUS
 10
508.3458859256
 20
2.4163030445
 40
525.0440577624
100
AcDbArc
 50
177.9677433637
 51
178.3691460536
  0
ARC
  5
428
100
AcDbEntity
  8
ASSI
100
AcDbCircle
 62
253
  6
CONTINUOUS
 10
522.3934372107
 20
-4.3499681133
 40
524.7994966467
100
AcDbArc
 50
178.0039957799
 51
180.5010046321
  0
ARC
  5
429
100
AcDbEntity
  8
RACCORDO
100
AcDbCircle
 62
253
  6
CONTINUOUS
 10
503.5380909268
 20
2.4288750302
 40
519.9476178337
100
AcDbArc
 50
177.9651610759
 51
178.3557885088
  0
ARC
  5
42A
100
AcDbEntity
  8
RACCORDO
100
AcDbCircle
 62
253
  6
CONTINUOUS
 10
499.6359299663
 20
2.1634165257
 40
515.9674487381
100
AcDbArc
 50
177.9274120678
 51
178.3280452144
  0
ARC
  5
42B
100
AcDbEntity
  8
RACCORDO
100
AcDbCircle
 62
253
  6
CONTINUOUS
 10
511.6517965077
 20
-4.281232684
 40
515.0323693162
100
AcDbArc
 50
177.9270512653
 51
178.3355279674
  0
ARC
  5
42C
100
AcDbEntity
  8
ASSI
100
AcDbCircle
 62
253
  6
CONTINUOUS
 10
496.057458937
 20
3.2227941233
 40
513.2123688906
100
AcDbArc
 50
177.9810773514
 51
182.0189226461
  0
ARC
  5
42D
100
AcDbEntity
  8
ASSI
100
AcDbCircle
 62
253
  6
CONTINUOUS
 10
508.689697863
 20
-4.3145598619
 40
510.4296824647
100
AcDbArc
 50
178.2362029956
 51
180.5660002909
  0
ARC
  5
42E
100
AcDbEntity
  8
RACCORDO
100
AcDbCircle
 62
253
  6
CONTINUOUS
 10
506.9179319207
 20
-4.2778007415
 40
510.0285029577
100
AcDbArc
 50
177.9075964495
 51
178.3198515668
  0
ARC
  5
42F
100
AcDbEntity
  8
ASSI
100
AcDbCircle
 62
253
  6
CONTINUOUS
 10
501.8204613787
 20
-4.3483327772
 40
504.2273542969
100
AcDbArc
 50
180.5216316752
 51
180.6787124189
  0
ARC
  5
430
100
AcDbEntity
  8
ASSI
100
AcDbCircle
 62
253
  6
CONTINUOUS
 10
493.243493109
 20
-4.467660443
 40
495.6495714317
100
AcDbArc
 50
180.6869214717
 51
182.0539268132
  0
ARC
  5
431
100
AcDbEntity
  8
ASSI
100
AcDbCircle
 62
253
  6
CONTINUOUS
 10
483.6770042823
 20
-4.4395474546
 40
485.416971964
100
AcDbArc
 50
180.6287282345
 51
182.0975771257
  0
ARC
  5
432
100
AcDbEntity
  8
RACCORDO
100
AcDbCircle
 62
253
  6
CONTINUOUS
 10
476.2987097368
 20
-3.5850454916
 40
480.3338972678
100
AcDbArc
 50
179.0150917504
 51
180.8186240916
  0
ARC
  5
433
100
AcDbEntity
  8
RACCORDO
100
AcDbCircle
 62
253
  6
CONTINUOUS
 10
460.8060768049
 20
2.2807413316
 40
476.5623537202
100
AcDbArc
 50
179.0079546013
 51
180.8257613912
  0
ARC
  5
434
100
AcDbEntity
  8
RACCORDO
100
AcDbCircle
 62
253
  6
CONTINUOUS
 10
457.0924800229
 20
2.2696100649
 40
472.4125830073
100
AcDbArc
 50
179.0423670005
 51
180.8008577266
  0
ARC
  5
435
100
AcDbEntity
  8
RACCORDO
100
AcDbCircle
 62
253
  6
CONTINUOUS
 10
430.4731884195
 20
1.517642515
 40
445.0971219514
100
AcDbArc
 50
180.8681908618
 51
181.0507264145
  0
ARC
  5
436
100
AcDbEntity
  8
RACCORDO
100
AcDbCircle
 62
253
  6
CONTINUOUS
 10
439.4315567682
 20
-3.1433626058
 40
444.7452118235
100
AcDbArc
 50
180.8681190424
 51
181.0507990285
  0
ARC
  5
437
100
AcDbEntity
  8
RACCORDO
100
AcDbCircle
 62
253
  6
CONTINUOUS
 10
427.38921981
 20
1.5177870321
 40
441.5805862653
100
AcDbArc
 50
180.8418910146
 51
181.0258183348
  0
LINE
  5
438
100
AcDbEntity
  8
RACCORDO
100
AcDbLine
 62
253
  6
CONTINUOUS
 10
-16.1118515374
 20
17.217785703
 11
-16.1137133499
 21
17.1538454418
  0
SPLINE
  5
439
100
AcDbEntity
  8
RACCORDO
100
AcDbSpline
 62
253
  6
CONTINUOUS
 70
0
 71
3
 72
9
 73
5
 74
3
 42
0.0000001
 43
0.0000001
 44
0.0000000001
 12
-13.2502928466
 22
5.8326488848
 32
0.0
 13
-12.5916315929
 23
7.1442891433
 33
0.0
 40
0.0
 40
0.0
 40
0.0
 40
0.0
 40
0.256412245
 40
1.0
 40
1.0
 40
1.0
 40
1.0
 10
-2.2412613597
 20
15.7431480196
 30
0.0
 10
-3.3737738051
 20
16.2416688846
 30
0.0
 10
-7.7674482871
 20
18.2376206351
 30
0.0
 10
-12.0660277312
 20
20.4452264433
 30
0.0
 10
-15.187022087
 20
22.2160284182
 30
0.0
 11
-2.2412613597
 21
15.7431480196
 31
0.0
 11
-5.6207054447
 21
17.2791574933
 31
0.0
 11
-15.187022087
 21
22.2160284182
 31
0.0
  0
SPLINE
  5
43A
100
AcDbEntity
  8
RACCORDO
100
AcDbSpline
 62
253
  6
CONTINUOUS
 70
0
 71
3
 72
9
 73
5
 74
3
 42
0.0000001
 43
0.0000001
 44
0.0000000001
 12
-13.2429022163
 22
5.8650165525
 32
0.0
 13
-12.6138596558
 23
7.1178243064
 33
0.0
 40
0.0
 40
0.0
 40
0.0
 40
0.0
 40
0.5086963776
 40
1.0
 40
1.0
 40
1.0
 40
1.0
 10
-3.0434039878
 20
14.3484055191
 30
0.0
 10
-5.2889427832
 20
15.342909744
 30
0.0
 10
-9.6605563998
 20
17.3961157428
 30
0.0
 10
-13.9283427771
 20
19.6580764525
 30
0.0
 10
-15.9940877576
 20
20.8237474076
 30
0.0
 11
-3.0434039878
 21
14.3484055191
 31
0.0
 11
-9.7097232224
 21
17.4858465271
 31
0.0
 11
-15.9940877576
 21
20.8237474076
 31
0.0
  0
SPLINE
  5
43B
100
AcDbEntity
  8
RACCORDO
100
AcDbSpline
 62
253
  6
CONTINUOUS
 70
0
 71
3
 72
11
 73
7
 74
5
 42
0.0000001
 43
0.0000001
 44
0.0000000001
 12
0.0594981364
 22
1.6654337517
 32
0.0
 13
1.4496107271
 23
0.8220938812
 33
0.0
 40
0.0
 40
0.0
 40
0.0
 40
0.0
 40
0.2476010117
 40
0.5109867455
 40
0.7684064558
 40
1.0
 40
1.0
 40
1.0
 40
1.0
 10
-3.043403985
 20
14.3484055206
 30
0.0
 10
-3.0384933854
 20
14.4858598812
 30
0.0
 10
-2.9858093354
 20
14.7685431822
 30
0.0
 10
-2.8135897838
 20
15.1626076602
 30
0.0
 10
-2.5656238869
 20
15.5030611059
 30
0.0
 10
-2.3531681884
 20
15.679684141
 30
0.0
 10
-2.2412613597
 20
15.7431480196
 30
0.0
 11
-3.043403985
 21
14.3484055206
 31
0.0
 11
-2.9729168963
 21
14.7549665953
 31
0.0
 11
-2.7982076924
 21
15.1576294859
 31
0.0
 11
-2.5428989386
 21
15.5023742865
 31
0.0
 11
-2.2412613597
 21
15.7431480196
 31
0.0
  0
SPLINE
  5
43C
100
AcDbEntity
  8
RACCORDO
100
AcDbSpline
 62
253
  6
CONTINUOUS
 70
0
 71
3
 72
9
 73
5
 74
3
 42
0.0000001
 43
0.0000001
 44
0.0000000001
 12
-0.1234018754
 22
-0.0692898796
 32
0.0
 13
-0.1140132
 23
-0.0838456944
 33
0.0
 40
0.0
 40
0.0
 40
0.0
 40
0.0
 40
0.2439562331
 40
1.0
 40
1.0
 40
1.0
 40
1.0
 10
-15.1870220952
 20
22.2160284135
 30
0.0
 10
-15.1970569808
 20
22.2103938475
 30
0.0
 10
-15.2378074071
 20
22.1866176404
 30
0.0
 10
-15.2770243623
 20
22.1602380972
 30
0.0
 10
-15.305757352
 20
22.139107759
 30
0.0
 11
-15.1870220952
 21
22.2160284135
 31
0.0
 11
-15.2168483578
 21
22.1986382031
 31
0.0
 11
-15.305757352
 21
22.139107759
 31
0.0
  0
SPLINE
  5
43D
100
AcDbEntity
  8
RACCORDO
100
AcDbSpline
 62
253
  6
CONTINUOUS
 70
0
 71
3
 72
11
 73
7
 74
5
 42
0.0000001
 43
0.0000001
 44
0.0000000001
 12
-1.2301804565
 22
-0.9046788842
 32
0.0
 13
-0.0560478154
 23
-1.5259903281
 33
0.0
 40
0.0
 40
0.0
 40
0.0
 40
0.0
 40
0.2395533861
 40
0.4974193745
 40
0.7566739133
 40
1.0
 40
1.0
 40
1.0
 40
1.0
 10
-15.305757352
 20
22.139107759
 30
0.0
 10
-15.40398865
 20
22.066868129
 30
0.0
 10
-15.5869807064
 20
21.8876320072
 30
0.0
 10
-15.7997603426
 20
21.5636545227
 30
0.0
 10
-15.9452825034
 20
21.2023358777
 30
0.0
 10
-15.9895417452
 20
20.9475185028
 30
0.0
 10
-15.9940877104
 20
20.8237474179
 30
0.0
 11
-15.305757352
 21
22.139107759
 31
0.0
 11
-15.5702439133
 21
21.8864055087
 31
0.0
 11
-15.7878176651
 21
21.5582080271
 31
0.0
 11
-15.934515736
 21
21.1905044291
 31
0.0
 11
-15.9940877104
 21
20.8237474179
 31
0.0
  0
SPLINE
  5
43E
100
AcDbEntity
  8
RACCORDO
100
AcDbSpline
 62
253
  6
CONTINUOUS
 70
0
 71
3
 72
9
 73
5
 74
3
 42
0.0000001
 43
0.0000001
 44
0.0000000001
 12
-0.0852341322
 22
0.0418344734
 32
0.0
 13
-0.0824600753
 23
-0.0470671481
 33
0.0
 40
0.0
 40
0.0
 40
0.0
 40
0.0
 40
0.5425186038
 40
1.0
 40
1.0
 40
1.0
 40
1.0
 10
-15.1870220952
 20
22.2160284135
 30
0.0
 10
-15.202435796
 20
22.2235937402
 30
0.0
 10
-15.2334022852
 20
22.2338526228
 30
0.0
 10
-15.2664536883
 20
22.2274815528
 30
0.0
 10
-15.2790283385
 20
22.2203041046
 30
0.0
 11
-15.1870220952
 21
22.2160284135
 31
0.0
 11
-15.2366492343
 21
22.2298303748
 31
0.0
 11
-15.2790283385
 21
22.2203041046
 31
0.0
  0
SPLINE
  5
43F
100
AcDbEntity
  8
RACCORDO
100
AcDbSpline
 62
253
  6
CONTINUOUS
 70
0
 71
3
 72
11
 73
7
 74
5
 42
0.0000001
 43
0.0000001
 44
0.0000000001
 12
-0.0757701489
 22
0.0423207988
 32
0.0
 13
0.0030432222
 23
0.0867346775
 33
0.0
 40
0.0
 40
0.0
 40
0.0
 40
0.0
 40
0.3042533211
 40
0.5682105755
 40
0.7952834351
 40
1.0
 40
1.0
 40
1.0
 40
1.0
 10
-15.9940877576
 20
20.8237474082
 30
0.0
 10
-16.0017721974
 20
20.8280394894
 30
0.0
 10
-16.0155940492
 20
20.8370951328
 30
0.0
 10
-16.032236483
 20
20.8532552173
 30
0.0
 10
-16.0426172094
 20
20.8708648528
 30
0.0
 10
-16.0448178107
 20
20.8835326949
 30
0.0
 10
-16.0446101447
 20
20.88945137
 30
0.0
 11
-15.9940877576
 21
20.8237474082
 31
0.0
 11
-16.0160205428
 21
20.8384513573
 31
0.0
 11
-16.0321561142
 21
20.8547128196
 31
0.0
 11
-16.0417776635
 21
20.8719116548
 31
0.0
 11
-16.0446101447
 21
20.88945137
 31
0.0
  0
SPLINE
  5
440
100
AcDbEntity
  8
RACCORDO
100
AcDbSpline
 62
253
  6
CONTINUOUS
 70
0
 71
3
 72
11
 73
7
 74
5
 42
0.0000001
 43
0.0000001
 44
0.0000000001
 12
-0.0748732207
 22
0.0423628897
 32
0.0
 13
0.0024714398
 23
0.0859913112
 33
0.0
 40
0.0
 40
0.0
 40
0.0
 40
0.0
 40
0.3025054532
 40
0.5658575735
 40
0.7936321692
 40
1.0
 40
1.0
 40
1.0
 40
1.0
 10
-16.1136148035
 20
17.1537896065
 30
0.0
 10
-16.121164656
 20
17.1580612749
 30
0.0
 10
-16.1347541297
 20
17.1670849078
 30
0.0
 10
-16.1511055325
 20
17.1831840218
 30
0.0
 10
-16.161317472
 20
17.20073594
 30
0.0
 10
-16.1635172242
 20
17.2133438274
 30
0.0
 10
-16.1633472156
 20
17.2192591075
 30
0.0
 11
-16.1136148035
 21
17.1537896065
 31
0.0
 11
-16.1351425671
 21
17.1684108995
 31
0.0
 11
-16.1509965715
 21
17.1845946942
 31
0.0
 11
-16.1604867659
 21
17.2017378974
 31
0.0
 11
-16.1633472156
 21
17.2192591075
 31
0.0
  0
SPLINE
  5
441
100
AcDbEntity
  8
RACCORDO
100
AcDbSpline
 62
253
  6
CONTINUOUS
 70
0
 71
3
 72
11
 73
7
 74
5
 42
0.0000001
 43
0.0000001
 44
0.0000000001
 12
-0.0038541339
 22
-0.1310361297
 32
0.0
 13
0.114319721
 23
-0.0641585771
 33
0.0
 40
0.0
 40
0.0
 40
0.0
 40
0.0
 40
0.2843580008
 40
0.5434420101
 40
0.7787543084
 40
1.0
 40
1.0
 40
1.0
 40
1.0
 10
-15.4782612766
 20
15.9070493691
 30
0.0
 10
-15.4786265945
 20
15.8946289785
 30
0.0
 10
-15.4771806878
 20
15.8707440778
 30
0.0
 10
-15.4677176367
 20
15.8377041467
 30
0.0
 10
-15.4510133659
 20
15.8107287051
 30
0.0
 10
-15.4352607635
 20
15.7977551372
 30
0.0
 10
-15.4268298482
 20
15.7930235343
 30
0.0
 11
-15.4782612766
 21
15.9070493691
 31
0.0
 11
-15.4757012821
 21
15.8698600901
 31
0.0
 11
-15.465909482
 21
15.8373381409
 31
0.0
 11
-15.4493313723
 21
15.8113237254
 31
0.0
 11
-15.4268298482
 21
15.7930235343
 31
0.0
  0
SPLINE
  5
442
100
AcDbEntity
  8
RACCORDO
100
AcDbSpline
 62
253
  6
CONTINUOUS
 70
0
 71
3
 72
11
 73
7
 74
5
 42
0.0000001
 43
0.0000001
 44
0.0000000001
 12
-0.0035424232
 22
-0.1319741089
 32
0.0
 13
0.1206285719
 23
-0.0536512982
 33
0.0
 40
0.0
 40
0.0
 40
0.0
 40
0.0
 40
0.2979777591
 40
0.5615343757
 40
0.7912971712
 40
1.0
 40
1.0
 40
1.0
 40
1.0
 10
-3.9358241069
 20
10.1358308854
 30
0.0
 10
-3.9361759614
 20
10.1227224356
 30
0.0
 10
-3.9347756196
 20
10.0978785791
 30
0.0
 10
-3.9254023897
 20
10.0639831324
 30
0.0
 10
-3.908785336
 20
10.0372916865
 30
0.0
 10
-3.8927374251
 20
10.0254959934
 30
0.0
 10
-3.8843455837
 20
10.0217636008
 30
0.0
 11
-3.9358241069
 21
10.1358308854
 31
0.0
 11
-3.9332110872
 21
10.0965782494
 31
0.0
 11
-3.9233370818
 21
10.0632134716
 31
0.0
 11
-3.9067300915
 21
10.03782964
 31
0.0
 11
-3.8843455837
 21
10.0217636008
 31
0.0
  0
SPLINE
  5
443
100
AcDbEntity
  8
RACCORDO
100
AcDbSpline
 62
253
  6
CONTINUOUS
 70
0
 71
3
 72
11
 73
7
 74
5
 42
0.0000001
 43
0.0000001
 44
0.0000000001
 12
0.0509610404
 22
1.389795148
 32
0.0
 13
1.2158957353
 23
0.6750741751
 33
0.0
 40
0.0
 40
0.0
 40
0.0
 40
0.0
 40
0.2471700934
 40
0.5102109901
 40
0.7676896243
 40
1.0
 40
1.0
 40
1.0
 40
1.0
 10
-2.7705061309
 20
14.3439592669
 30
0.0
 10
-2.7663074492
 20
14.4584645324
 30
0.0
 10
-2.7217490471
 20
14.6939704767
 30
0.0
 10
-2.5762317721
 20
15.0217374099
 30
0.0
 10
-2.3668496116
 20
15.3043835235
 30
0.0
 10
-2.18783315
 20
15.450280398
 30
0.0
 10
-2.093678085
 20
15.5025559764
 30
0.0
 11
-2.7705061309
 21
14.3439592669
 31
0.0
 11
-2.7108953226
 21
14.6824977645
 31
0.0
 11
-2.5634035821
 21
15.0172655446
 31
0.0
 11
-2.3480236617
 21
15.303333641
 31
0.0
 11
-2.093678085
 21
15.5025559764
 31
0.0
  0
SPLINE
  5
444
100
AcDbEntity
  8
RACCORDO
100
AcDbSpline
 62
253
  6
CONTINUOUS
 70
0
 71
3
 72
11
 73
7
 74
5
 42
0.0000001
 43
0.0000001
 44
0.0000000001
 12
0.2544879149
 22
-0.1125526123
 32
0.0
 13
0.2539963679
 23
0.1136575314
 33
0.0
 40
0.0
 40
0.0
 40
0.0
 40
0.0
 40
0.2407388562
 40
0.5060690813
 40
0.7681635572
 40
1.0
 40
1.0
 40
1.0
 40
1.0
 10
-3.1633740389
 20
10.6786692649
 30
0.0
 10
-3.142952329
 20
10.6696373359
 30
0.0
 10
-3.0973942637
 20
10.6565557963
 30
0.0
 10
-3.0261434613
 20
10.6497492823
 30
0.0
 10
-2.9556062986
 20
10.6551136317
 30
0.0
 10
-2.9109274791
 20
10.6674106426
 30
0.0
 10
-2.8912989409
 20
10.6761939619
 30
0.0
 11
-3.1633740389
 21
10.6786692649
 31
0.0
 11
-3.0992952713
 21
10.6591370012
 31
0.0
 11
-3.0258236227
 21
10.6518463958
 31
0.0
 11
-2.9531355404
 21
10.6578072594
 31
0.0
 11
-2.8912989409
 21
10.6761939619
 31
0.0
  0
SPLINE
  5
445
100
AcDbEntity
  8
RACCORDO
100
AcDbSpline
 62
253
  6
CONTINUOUS
 70
0
 71
3
 72
11
 73
7
 74
5
 42
0.0000001
 43
0.0000001
 44
0.0000000001
 12
0.2546511618
 22
-0.1140756403
 32
0.0
 13
0.2557374585
 23
0.1116190764
 33
0.0
 40
0.0
 40
0.0
 40
0.0
 40
0.0
 40
0.2406238519
 40
0.506208863
 40
0.7684841259
 40
1.0
 40
1.0
 40
1.0
 40
1.0
 10
-3.0433949783
 20
14.3484100574
 30
0.0
 10
-3.0229699305
 20
14.3392602841
 30
0.0
 10
-2.9773438159
 20
14.3259117963
 30
0.0
 10
-2.9059183652
 20
14.3186198949
 30
0.0
 10
-2.8351419082
 20
14.3234377063
 30
0.0
 10
-2.7902418916
 20
14.3353454043
 30
0.0
 10
-2.7705061312
 20
14.343959267
 30
0.0
 11
-3.0433949783
 21
14.3484100574
 31
0.0
 11
-2.9792721973
 21
14.3285008301
 31
0.0
 11
-2.9055759872
 21
14.3207041919
 31
0.0
 11
-2.8325918467
 21
14.3261083914
 31
0.0
 11
-2.7705061312
 21
14.343959267
 31
0.0
  0
SPLINE
  5
446
100
AcDbEntity
  8
RACCORDO
100
AcDbSpline
 62
253
  6
CONTINUOUS
 70
0
 71
3
 72
11
 73
7
 74
5
 42
0.0000001
 43
0.0000001
 44
0.0000000001
 12
0.2608400917
 22
-0.1328570276
 32
0.0
 13
0.0128955347
 23
-0.2924418718
 33
0.0
 40
0.0
 40
0.0
 40
0.0
 40
0.0
 40
0.2305001886
 40
0.4905791889
 40
0.755789634
 40
1.0
 40
1.0
 40
1.0
 40
1.0
 10
-2.2412613597
 20
15.7431480196
 30
0.0
 10
-2.2212201296
 20
15.7329401629
 30
0.0
 10
-2.1827711872
 20
15.7029491765
 30
0.0
 10
-2.1373337317
 20
15.6441577385
 30
0.0
 10
-2.1051103784
 20
15.5757169267
 30
0.0
 10
-2.094727826
 20
15.5263617553
 30
0.0
 10
-2.093678085
 20
15.5025559764
 30
0.0
 11
-2.2412613597
 21
15.7431480196
 31
0.0
 11
-2.1870664976
 21
15.7029537651
 31
0.0
 11
-2.1399914265
 21
15.6431206319
 31
0.0
 11
-2.1071987833
 21
15.5727524456
 31
0.0
 11
-2.093678085
 21
15.5025559764
 31
0.0
  0
SPLINE
  5
447
100
AcDbEntity
  8
RACCORDO
100
AcDbSpline
 62
253
  6
CONTINUOUS
 70
0
 71
3
 72
11
 73
7
 74
5
 42
0.0000001
 43
0.0000001
 44
0.0000000001
 12
0.7081302927
 22
0.3464172899
 32
0.0
 13
0.0193516803
 23
0.7880856316
 33
0.0
 40
0.0
 40
0.0
 40
0.0
 40
0.0
 40
0.2232516738
 40
0.459094281
 40
0.7168332375
 40
1.0
 40
1.0
 40
1.0
 40
1.0
 10
-3.2414064607
 20
10.0108989108
 30
0.0
 10
-3.1887093697
 20
10.0366783241
 30
0.0
 10
-3.0888957287
 20
10.1091385702
 30
0.0
 10
-2.9784858282
 20
10.2651341087
 30
0.0
 10
-2.9095193561
 20
10.4594496986
 30
0.0
 10
-2.8931255252
 20
10.6018074096
 30
0.0
 10
-2.8912989409
 20
10.6761939619
 30
0.0
 11
-3.2414064607
 21
10.0108989108
 31
0.0
 11
-3.0985150469
 21
10.1136417831
 31
0.0
 11
-2.9892098325
 21
10.2640368943
 31
0.0
 11
-2.9189591384
 21
10.4546873624
 31
0.0
 11
-2.8912989409
 21
10.6761939619
 31
0.0
  0
SPLINE
  5
448
100
AcDbEntity
  8
RACCORDO
100
AcDbSpline
 62
253
  6
CONTINUOUS
 70
0
 71
3
 72
15
 73
11
 74
9
 42
0.0000001
 43
0.0000001
 44
0.0000000001
 12
1.0522568665
 22
-0.4682820869
 32
0.0
 13
0.033677223
 23
1.1512595149
 33
0.0
 40
0.0
 40
0.0
 40
0.0
 40
0.0
 40
0.1332815688
 40
0.2565050513
 40
0.3724036708
 40
0.4855089538
 40
0.6010629239
 40
0.7236712736
 40
0.8563312196
 40
1.0
 40
1.0
 40
1.0
 40
1.0
 10
-3.935824232
 20
10.1358308207
 30
0.0
 10
-3.8890754167
 20
10.1150263637
 30
0.0
 10
-3.794989254
 20
10.0832093597
 30
0.0
 10
-3.6512722318
 20
10.0692047876
 30
0.0
 10
-3.5162009947
 20
10.0923868978
 30
0.0
 10
-3.3961800311
 20
10.1525632765
 30
0.0
 10
-3.2972392477
 20
10.2468886004
 30
0.0
 10
-3.2233644667
 20
10.3703448058
 30
0.0
 10
-3.1767421772
 20
10.5174183973
 30
0.0
 10
-3.1649868274
 20
10.6235359148
 30
0.0
 10
-3.1633740389
 20
10.6786692649
 30
0.0
 11
-3.935824232
 21
10.1358308207
 31
0.0
 11
-3.7899760251
 21
10.0879476813
 31
0.0
 11
-3.6486003731
 21
10.0754965059
 31
0.0
 11
-3.5171912335
 21
10.0989544313
 31
0.0
 11
-3.4007627222
 21
10.1573879408
 31
0.0
 11
-3.303848794
 21
10.2486047662
 31
0.0
 11
-3.2302166951
 21
10.3691029965
 31
0.0
 11
-3.1827623116
 21
10.5143382534
 31
0.0
 11
-3.1633740389
 21
10.6786692649
 31
0.0
  0
LINE
  5
449
100
AcDbEntity
  8
RACCORDO
100
AcDbLine
 62
253
  6
CONTINUOUS
 10
-15.4782613054
 20
15.9070493574
 11
-15.3911610325
 21
15.8581865587
  0
SPLINE
  5
44A
100
AcDbEntity
  8
RACCORDO
100
AcDbSpline
 62
253
  6
CONTINUOUS
 70
0
 71
3
 72
9
 73
5
 74
3
 42
0.0000001
 43
0.0000001
 44
0.0000000001
 12
8.9500142864
 22
-5.0162161537
 32
0.0
 13
9.3011649408
 23
-4.3305324118
 33
0.0
 40
0.0
 40
0.0
 40
0.0
 40
0.0
 40
0.2445857067
 40
1.0
 40
1.0
 40
1.0
 40
1.0
 10
-15.3911610325
 20
15.8581865587
 30
0.0
 10
-14.6614791762
 20
15.4492216345
 30
0.0
 10
-11.6614251053
 20
13.8070734862
 30
0.0
 10
-8.597390188
 20
12.2824519011
 30
0.0
 10
-6.2553125409
 20
11.1920032072
 30
0.0
 11
-15.3911610325
 21
15.8581865587
 31
0.0
 11
-13.1901110134
 21
14.6529603977
 31
0.0
 11
-6.2553125409
 21
11.1920032072
 31
0.0
  0
SPLINE
  5
44B
100
AcDbEntity
  8
RACCORDO
100
AcDbSpline
 62
253
  6
CONTINUOUS
 70
0
 71
3
 72
11
 73
7
 74
5
 42
0.0000001
 43
0.0000001
 44
0.0000000001
 12
-0.0419045685
 22
-1.4540179258
 32
0.0
 13
1.268228021
 23
-0.7124056485
 33
0.0
 40
0.0
 40
0.0
 40
0.0
 40
0.0
 40
0.2513121218
 40
0.5184759066
 40
0.7754657143
 40
1.0
 40
1.0
 40
1.0
 40
1.0
 10
-16.1136147581
 20
17.1537896245
 30
0.0
 10
-16.1171251335
 20
17.0319855145
 30
0.0
 10
-16.0853134747
 20
16.7791452494
 30
0.0
 10
-15.9531020821
 20
16.4239891515
 30
0.0
 10
-15.7523335711
 20
16.1179973101
 30
0.0
 10
-15.5731815297
 20
15.9603691886
 30
0.0
 10
-15.4782613054
 20
15.9070493574
 30
0.0
 11
-16.1136147581
 21
17.1537896245
 31
0.0
 11
-16.0729916481
 21
16.7904896954
 31
0.0
 11
-15.9380676294
 21
16.4260411508
 31
0.0
 11
-15.7293809615
 21
16.1158904421
 31
0.0
 11
-15.4782613054
 21
15.9070493574
 31
0.0
  0
SPLINE
  5
44C
100
AcDbEntity
  8
RACCORDO
100
AcDbSpline
 62
7
  6
CONTINUOUS
 70
0
 71
3
 72
9
 73
5
 74
3
 42
0.0000001
 43
0.0000001
 44
0.0000000001
 12
0.0990014579
 22
-0.0726681409
 32
0.0
 13
0.0224115065
 23
-0.1207463115
 33
0.0
 40
0.0
 40
0.0
 40
0.0
 40
0.0
 40
0.5023571931
 40
1.0
 40
1.0
 40
1.0
 40
1.0
 10
20.1949897123
 20
15.6298591848
 30
0.0
 10
20.2115677438
 20
15.6176907303
 30
0.0
 10
20.2406093079
 20
15.5872810691
 30
0.0
 10
20.2557303943
 20
15.5479920367
 30
0.0
 10
20.259448036
 20
15.5279625256
 30
0.0
 11
20.1949897123
 21
15.6298591848
 31
0.0
 11
20.237233211
 21
15.5848968837
 31
0.0
 11
20.259448036
 21
15.5279625256
 31
0.0
  0
SPLINE
  5
44D
100
AcDbEntity
  8
RACCORDO
100
AcDbSpline
 62
7
  6
CONTINUOUS
 70
0
 71
3
 72
10
 73
6
 74
4
 42
0.0000001
 43
0.0000001
 44
0.0000000001
 12
-0.0146088062
 22
-0.1263389234
 32
0.0
 13
-0.1177297199
 23
-0.0481108495
 33
0.0
 40
0.0
 40
0.0
 40
0.0
 40
0.0
 40
0.2012477259
 40
0.5559051945
 40
1.0
 40
1.0
 40
1.0
 40
1.0
 10
20.8930869169
 20
7.8022713523
 30
0.0
 10
20.8921069206
 20
7.793796212
 30
0.0
 10
20.8842355775
 20
7.7708289995
 30
0.0
 10
20.8532664575
 20
7.7399502131
 30
0.0
 10
20.8230170226
 20
7.7241245703
 30
0.0
 10
20.8055893036
 20
7.7170026442
 30
0.0
 11
20.8930869169
 21
7.8022713523
 31
0.0
 11
20.885183114
 21
7.7779274523
 31
0.0
 11
20.8549494155
 21
7.7444544993
 31
0.0
 11
20.8055893036
 21
7.7170026442
 31
0.0
  0
SPLINE
  5
44E
100
AcDbEntity
  8
RACCORDO
100
AcDbSpline
 62
7
  6
CONTINUOUS
 70
0
 71
3
 72
9
 73
5
 74
3
 42
0.0000001
 43
0.0000001
 44
0.0000000001
 12
-0.0000470301
 22
-0.1168954233
 32
0.0
 13
-0.088149438
 23
-0.0767738157
 33
0.0
 40
0.0
 40
0.0
 40
0.0
 40
0.0
 40
0.4581683325
 40
1.0
 40
1.0
 40
1.0
 40
1.0
 10
20.8934959839
 20
12.125913697
 30
0.0
 10
20.8934888014
 20
12.1080611033
 30
0.0
 10
20.8816629356
 20
12.0689207422
 30
0.0
 10
20.8549525473
 20
12.0393751867
 30
0.0
 10
20.8390318283
 20
12.0255090252
 30
0.0
 11
20.8934959839
 21
12.125913697
 31
0.0
 11
20.8795277945
 21
12.0742094799
 31
0.0
 11
20.8390318283
 21
12.0255090252
 31
0.0
  0
SPLINE
  5
44F
100
AcDbEntity
  8
RACCORDO
100
AcDbSpline
 62
7
  6
CONTINUOUS
 70
0
 71
3
 72
8
 73
4
 74
2
 42
0.0000001
 43
0.0000001
 44
0.0000000001
 12
-0.0313308479
 22
-0.0272876243
 32
0.0
 13
-0.0352041705
 23
-0.0220658752
 33
0.0
 40
0.0
 40
0.0
 40
0.0
 40
0.0
 40
1.0
 40
1.0
 40
1.0
 40
1.0
 10
20.8390318283
 20
12.0255090252
 30
0.0
 10
20.8285882124
 20
12.0164131504
 30
0.0
 10
20.8173240271
 20
12.0082100271
 30
0.0
 10
20.8055893036
 20
12.0008547353
 30
0.0
 11
20.8390318283
 21
12.0255090252
 31
0.0
 11
20.8055893036
 21
12.0008547353
 31
0.0
  0
SPLINE
  5
450
100
AcDbEntity
  8
RACCORDO
100
AcDbSpline
 62
7
  6
CONTINUOUS
 70
0
 71
3
 72
9
 73
5
 74
3
 42
0.0000001
 43
0.0000001
 44
0.0000000001
 12
0.0423943078
 22
-0.2284075058
 32
0.0
 13
-0.15149503
 23
-0.1761150814
 33
0.0
 40
0.0
 40
0.0
 40
0.0
 40
0.0
 40
0.4672918953
 40
1.0
 40
1.0
 40
1.0
 40
1.0
 10
20.259448036
 20
15.5279625256
 30
0.0
 10
20.2660515415
 20
15.4923848668
 30
0.0
 10
20.2555912407
 20
15.4116139565
 30
0.0
 10
20.2135397958
 20
15.3444767751
 30
0.0
 10
20.186638919
 20
15.3132041313
 30
0.0
 11
20.259448036
 21
15.5279625256
 31
0.0
 11
20.2493772175
 21
15.4198747677
 31
0.0
 11
20.186638919
 21
15.3132041313
 31
0.0
  0
SPLINE
  5
451
100
AcDbEntity
  8
RACCORDO
100
AcDbSpline
 62
7
  6
CONTINUOUS
 70
0
 71
3
 72
9
 73
5
 74
3
 42
0.0000001
 43
0.0000001
 44
0.0000000001
 12
0.0872551559
 22
-0.0642879453
 32
0.0
 13
0.0525379066
 23
-0.0947954139
 33
0.0
 40
0.0
 40
0.0
 40
0.0
 40
0.0
 40
0.238831587
 40
1.0
 40
1.0
 40
1.0
 40
1.0
 10
19.4890008694
 20
16.1414917611
 30
0.0
 10
19.4959472985
 20
16.1363737637
 30
0.0
 10
19.5236592397
 20
16.1130974586
 30
0.0
 10
19.5457846155
 20
16.083521421
 30
0.0
 10
19.5591146805
 20
16.0594696628
 30
0.0
 11
19.4890008694
 21
16.1414917611
 31
0.0
 11
19.5088656117
 21
16.1248961899
 31
0.0
 11
19.5591146805
 21
16.0594696628
 31
0.0
  0
SPLINE
  5
452
100
AcDbEntity
  8
RACCORDO
100
AcDbSpline
 62
7
  6
CONTINUOUS
 70
0
 71
3
 72
9
 73
5
 74
3
 42
0.0000001
 43
0.0000001
 44
0.0000000001
 12
0.1536269983
 22
-0.2771929038
 32
0.0
 13
-0.0880687394
 23
-0.3044356379
 33
0.0
 40
0.0
 40
0.0
 40
0.0
 40
0.0
 40
0.2440388313
 40
1.0
 40
1.0
 40
1.0
 40
1.0
 10
19.5591146805
 20
16.0594696628
 30
0.0
 10
19.5716116649
 20
16.036921052
 30
0.0
 10
19.610767009
 20
15.9380826523
 30
0.0
 10
19.6085426705
 20
15.8249739332
 30
0.0
 10
19.5863504881
 20
15.748260093
 30
0.0
 11
19.5591146805
 21
16.0594696628
 31
0.0
 11
19.5882581488
 21
15.9878303687
 31
0.0
 11
19.5863504881
 21
15.748260093
 31
0.0
  0
SPLINE
  5
453
100
AcDbEntity
  8
RACCORDO
100
AcDbSpline
 62
7
  6
CONTINUOUS
 70
0
 71
3
 72
9
 73
5
 74
3
 42
0.0000001
 43
0.0000001
 44
0.0000000001
 12
0.0
 22
0.3521611486
 32
0.0
 13
-0.2576048438
 23
0.2401191767
 33
0.0
 40
0.0
 40
0.0
 40
0.0
 40
0.0
 40
0.4932388687
 40
1.0
 40
1.0
 40
1.0
 40
1.0
 10
18.6135582819
 20
15.26186399
 30
0.0
 10
18.6135582819
 20
15.3197638455
 30
0.0
 10
18.5834645786
 20
15.4370268913
 30
0.0
 10
18.5157762463
 20
15.5367214696
 30
0.0
 10
18.472261539
 20
15.5772824914
 30
0.0
 11
18.6135582819
 21
15.26186399
 31
0.0
 11
18.57472532
 21
15.4311670923
 31
0.0
 11
18.472261539
 21
15.5772824914
 31
0.0
  0
SPLINE
  5
454
100
AcDbEntity
  8
RACCORDO
100
AcDbSpline
 62
7
  6
CONTINUOUS
 70
0
 71
3
 72
8
 73
4
 74
2
 42
0.0000001
 43
0.0000001
 44
0.0000000001
 12
-0.0306398619
 22
0.0285600935
 32
0.0
 13
-0.0338410552
 23
0.0246832548
 33
0.0
 40
0.0
 40
0.0
 40
0.0
 40
0.0
 40
1.0
 40
1.0
 40
1.0
 40
1.0
 10
18.472261539
 20
15.5772824914
 30
0.0
 10
18.4620482517
 20
15.5868025226
 30
0.0
 10
18.4512915123
 20
15.5957828743
 30
0.0
 10
18.4400111606
 20
15.6040106259
 30
0.0
 11
18.472261539
 21
15.5772824914
 31
0.0
 11
18.4400111606
 21
15.6040106259
 31
0.0
  0
SPLINE
  5
455
100
AcDbEntity
  8
RACCORDO
100
AcDbSpline
 62
7
  6
CONTINUOUS
 70
0
 71
3
 72
9
 73
5
 74
3
 42
0.0000001
 43
0.0000001
 44
0.0000000001
 12
-0.0366189477
 22
0.0267094158
 32
0.0
 13
-0.0405397605
 23
0.0202698802
 33
0.0
 40
0.0
 40
0.0
 40
0.0
 40
0.0
 40
0.2589491731
 40
1.0
 40
1.0
 40
1.0
 40
1.0
 10
18.4400111606
 20
15.6040106259
 30
0.0
 10
18.4368503452
 20
15.6063160863
 30
0.0
 10
18.4244812942
 20
15.6149910278
 30
0.0
 10
18.4114402552
 20
15.6227306244
 30
0.0
 10
18.4014262476
 20
15.6277376283
 30
0.0
 11
18.4400111606
 21
15.6040106259
 31
0.0
 11
18.4303993742
 21
15.6107461049
 31
0.0
 11
18.4014262476
 21
15.6277376283
 31
0.0
  0
SPLINE
  5
456
100
AcDbEntity
  8
ASSI
100
AcDbSpline
 62
7
  6
CONTINUOUS
 70
0
 71
3
 72
9
 73
5
 74
3
 42
0.0000001
 43
0.0000001
 44
0.0000000001
 12
0.2602954014
 22
0.1301477007
 32
0.0
 13
0.2849633767
 23
-0.0590592405
 33
0.0
 40
0.0
 40
0.0
 40
0.0
 40
0.0
 40
0.5311778872
 40
1.0
 40
1.0
 40
1.0
 40
1.0
 10
7.6534031735
 20
0.0664100511
 30
0.0
 10
7.699490894
 20
0.0894539113
 30
0.0
 10
7.7920243674
 20
0.1230623961
 30
0.0
 10
7.8917135086
 20
0.1242405103
 30
0.0
 10
7.936245886
 20
0.1150110843
 30
0.0
 11
7.6534031735
 21
0.0664100511
 31
0.0
 11
7.7998133351
 21
0.1160078518
 31
0.0
 11
7.936245886
 21
0.1150110843
 31
0.0
  0
SPLINE
  5
457
100
AcDbEntity
  8
ASSI
100
AcDbSpline
 62
7
  6
CONTINUOUS
 70
0
 71
3
 72
9
 73
5
 74
3
 42
0.0000001
 43
0.0000001
 44
0.0000000001
 12
0.2602954014
 22
0.1301477007
 32
0.0
 13
0.2849633767
 23
-0.0590592405
 33
0.0
 40
0.0
 40
0.0
 40
0.0
 40
0.0
 40
0.5311778872
 40
1.0
 40
1.0
 40
1.0
 40
1.0
 10
7.6534031735
 20
7.9472412256
 30
0.0
 10
7.699490894
 20
7.9702850858
 30
0.0
 10
7.7920243674
 20
8.0038935705
 30
0.0
 10
7.8917135086
 20
8.0050716847
 30
0.0
 10
7.936245886
 20
7.9958422588
 30
0.0
 11
7.6534031735
 21
7.9472412256
 31
0.0
 11
7.7998133351
 21
7.9968390263
 31
0.0
 11
7.936245886
 21
7.9958422588
 31
0.0
  0
SPLINE
  5
458
100
AcDbEntity
  8
RACCORDO
100
AcDbSpline
 62
7
  6
CONTINUOUS
 70
0
 71
3
 72
11
 73
7
 74
5
 42
0.0000001
 43
0.0000001
 44
0.0000000001
 12
-0.3168854645
 22
-0.1584427322
 32
0.0
 13
0.000101347
 23
-0.3542887053
 33
0.0
 40
0.0
 40
0.0
 40
0.0
 40
0.0
 40
0.2361391117
 40
0.4786674777
 40
0.7331730606
 40
1.0
 40
1.0
 40
1.0
 40
1.0
 10
-7.9029460126
 20
-6.4684290435
 30
0.0
 10
-7.9278890299
 20
-6.4809005522
 30
0.0
 10
-7.9737986814
 20
-6.5165745519
 30
0.0
 10
-8.0199979636
 20
-6.5914551825
 30
0.0
 10
-8.044762675
 20
-6.6790591352
 30
0.0
 10
-8.0494030436
 20
-6.7407980485
 30
0.0
 10
-8.0493940296
 20
-6.7723093054
 30
0.0
 11
-7.9029460126
 21
-6.4684290435
 31
0.0
 11
-7.9693534073
 21
-6.519314127
 31
0.0
 11
-8.0156228853
 21
-6.5917175253
 31
0.0
 11
-8.0414410286
 21
-6.6781106624
 31
0.0
 11
-8.0493940296
 21
-6.7723093054
 31
0.0
  0
SPLINE
  5
459
100
AcDbEntity
  8
RACCORDO
100
AcDbSpline
 62
7
  6
CONTINUOUS
 70
0
 71
3
 72
11
 73
7
 74
5
 42
0.0000001
 43
0.0000001
 44
0.0000000001
 12
-0.3168854645
 22
-0.1584427322
 32
0.0
 13
0.000101347
 23
-0.3542887053
 33
0.0
 40
0.0
 40
0.0
 40
0.0
 40
0.0
 40
0.2361391117
 40
0.4786674777
 40
0.7331730606
 40
1.0
 40
1.0
 40
1.0
 40
1.0
 10
-7.0544178751
 20
-5.5936550066
 30
0.0
 10
-7.0793608925
 20
-5.6061265153
 30
0.0
 10
-7.125270544
 20
-5.6418005149
 30
0.0
 10
-7.1714698262
 20
-5.7166811456
 30
0.0
 10
-7.1962345376
 20
-5.8042850982
 30
0.0
 10
-7.2008749062
 20
-5.8660240115
 30
0.0
 10
-7.2008658922
 20
-5.8975352685
 30
0.0
 11
-7.0544178751
 21
-5.5936550066
 31
0.0
 11
-7.1208252699
 21
-5.64454009
 31
0.0
 11
-7.1670947479
 21
-5.7169434883
 31
0.0
 11
-7.1929128911
 21
-5.8033366255
 31
0.0
 11
-7.2008658922
 21
-5.8975352685
 31
0.0
  0
SPLINE
  5
45A
100
AcDbEntity
  8
0
100
AcDbSpline
 62
7
  6
CONTINUOUS
 70
0
 71
3
 72
9
 73
5
 74
3
 42
0.0000001
 43
0.0000001
 44
0.0000000001
 12
-0.2484905218
 22
-0.4693315404
 32
0.0
 13
-0.4400891955
 23
-0.2972223649
 33
0.0
 40
0.0
 40
0.0
 40
0.0
 40
0.0
 40
0.5212709946
 40
1.0
 40
1.0
 40
1.0
 40
1.0
 10
8.0069565641
 20
-2.4826287352
 30
0.0
 10
7.963779597
 20
-2.5641783748
 30
0.0
 10
7.8643905921
 20
-2.7124163001
 30
0.0
 10
7.7331595267
 20
-2.8347621686
 30
0.0
 10
7.6629317057
 20
-2.8821918243
 30
0.0
 11
8.0069565641
 21
-2.4826287352
 31
0.0
 11
7.8515101516
 21
-2.7116871573
 31
0.0
 11
7.6629317057
 21
-2.8821918243
 31
0.0
  0
SPLINE
  5
45B
100
AcDbEntity
  8
0
100
AcDbSpline
 62
7
  6
CONTINUOUS
 70
0
 71
3
 72
9
 73
5
 74
3
 42
0.0000001
 43
0.0000001
 44
0.0000000001
 12
-0.2484905218
 22
-0.4693315404
 32
0.0
 13
-0.4400891955
 23
-0.2972223649
 33
0.0
 40
0.0
 40
0.0
 40
0.0
 40
0.0
 40
0.5212709946
 40
1.0
 40
1.0
 40
1.0
 40
1.0
 10
8.0069565641
 20
5.3982024393
 30
0.0
 10
7.963779597
 20
5.3166527996
 30
0.0
 10
7.8643905921
 20
5.1684148743
 30
0.0
 10
7.7331595267
 20
5.0460690059
 30
0.0
 10
7.6629317057
 20
4.9986393502
 30
0.0
 11
8.0069565641
 21
5.3982024393
 31
0.0
 11
7.8515101516
 21
5.1691440171
 31
0.0
 11
7.6629317057
 21
4.9986393502
 31
0.0
  0
SPLINE
  5
45C
100
AcDbEntity
  8
ASSI
100
AcDbSpline
 62
7
  6
CONTINUOUS
 70
0
 71
3
 72
9
 73
5
 74
3
 42
0.0000001
 43
0.0000001
 44
0.0000000001
 12
0.0
 22
-0.6011300399
 32
0.0
 13
-0.3015183879
 23
-0.5200422932
 33
0.0
 40
0.0
 40
0.0
 40
0.0
 40
0.0
 40
0.4822579053
 40
1.0
 40
1.0
 40
1.0
 40
1.0
 10
8.2190885985
 20
-1.9890158266
 30
0.0
 10
8.2190885985
 20
-2.0856490646
 30
0.0
 10
8.1857758836
 20
-2.2862882578
 30
0.0
 10
8.1054394275
 20
-2.4720072256
 30
0.0
 10
8.0534031735
 20
-2.5617564877
 30
0.0
 11
8.2190885985
 21
-1.9890158266
 31
0.0
 11
8.1760215204
 21
-2.2756987017
 31
0.0
 11
8.0534031735
 21
-2.5617564877
 31
0.0
  0
SPLINE
  5
45D
100
AcDbEntity
  8
ASSI
100
AcDbSpline
 62
7
  6
CONTINUOUS
 70
0
 71
3
 72
9
 73
5
 74
3
 42
0.0000001
 43
0.0000001
 44
0.0000000001
 12
-0.2876318275
 22
-0.4960915194
 32
0.0
 13
-0.5129045633
 23
-0.2564522817
 33
0.0
 40
0.0
 40
0.0
 40
0.0
 40
0.0
 40
0.5295225118
 40
1.0
 40
1.0
 40
1.0
 40
1.0
 10
8.0534031735
 20
-2.5617564877
 30
0.0
 10
8.0026339976
 20
-2.6493203635
 30
0.0
 10
7.887494567
 20
-2.8042964156
 30
0.0
 10
7.7338398571
 20
-2.9244605204
 30
0.0
 10
7.6534031735
 20
-2.9646788621
 30
0.0
 11
8.0534031735
 21
-2.5617564877
 31
0.0
 11
7.8698966999
 21
-2.803685916
 31
0.0
 11
7.6534031735
 21
-2.9646788621
 31
0.0
  0
SPLINE
  5
45E
100
AcDbEntity
  8
RACCORDO
100
AcDbSpline
 62
7
  6
CONTINUOUS
 70
0
 71
3
 72
10
 73
6
 74
4
 42
0.0000001
 43
0.0000001
 44
0.0000000001
 12
0.0001456492
 22
-0.5091602916
 32
0.0
 13
0.2553876639
 23
-0.4404785635
 33
0.0
 40
0.0
 40
0.0
 40
0.0
 40
0.0
 40
0.2406315914
 40
0.4892458123
 40
1.0
 40
1.0
 40
1.0
 40
1.0
 10
-5.2209669048
 20
-6.8874847621
 30
0.0
 10
-5.2209552222
 20
-6.9283247792
 30
0.0
 10
-5.2127929749
 20
-7.0114516592
 30
0.0
 10
-5.1717447221
 20
-7.1764716689
 30
0.0
 10
-5.1179989941
 20
-7.2951785024
 30
0.0
 10
-5.0745188878
 20
-7.3701705927
 30
0.0
 11
-5.2209669048
 21
-6.8874847621
 31
0.0
 11
-5.2100424968
 21
-7.0095168133
 31
0.0
 11
-5.1800853386
 21
-7.1325054424
 31
0.0
 11
-5.0745188878
 21
-7.3701705927
 31
0.0
  0
SPLINE
  5
45F
100
AcDbEntity
  8
RACCORDO
100
AcDbSpline
 62
7
  6
CONTINUOUS
 70
0
 71
3
 72
11
 73
7
 74
5
 42
0.0000001
 43
0.0000001
 44
0.0000000001
 12
0.0001753122
 22
0.0620075675
 32
0.0
 13
0.0466351013
 23
0.0408673033
 33
0.0
 40
0.0
 40
0.0
 40
0.0
 40
0.0
 40
0.130071086
 40
0.3417233029
 40
0.6334185329
 40
1.0
 40
1.0
 40
1.0
 40
1.0
 10
-5.2209669048
 20
-0.5713496689
 30
0.0
 10
-5.2209593038
 20
-0.568661205
 30
0.0
 10
-5.2175040053
 20
-0.5620111558
 30
0.0
 10
-5.2094391633
 20
-0.5519268838
 30
0.0
 10
-5.1967679141
 20
-0.5390136373
 30
0.0
 10
-5.1867040356
 20
-0.5298903736
 30
0.0
 10
-5.1810055143
 20
-0.5248966416
 30
0.0
 11
-5.2209669048
 21
-0.5713496689
 31
0.0
 11
-5.2181991474
 21
-0.5637740118
 31
0.0
 11
-5.2102951054
 21
-0.5532969941
 31
0.0
 11
-5.1977653242
 21
-0.54025253
 31
0.0
 11
-5.1810055143
 21
-0.5248966416
 31
0.0
  0
SPLINE
  5
460
100
AcDbEntity
  8
RACCORDO
100
AcDbSpline
 62
7
  6
CONTINUOUS
 70
0
 71
3
 72
9
 73
5
 74
3
 42
0.0000001
 43
0.0000001
 44
0.0000000001
 12
0.0455289246
 22
0.0398979378
 32
0.0
 13
0.0477970629
 23
0.0371506284
 33
0.0
 40
0.0
 40
0.0
 40
0.0
 40
0.0
 40
0.2230567346
 40
1.0
 40
1.0
 40
1.0
 40
1.0
 10
-5.1810055143
 20
-0.5248966416
 30
0.0
 10
-5.1776203366
 20
-0.5219301404
 30
0.0
 10
-5.1623013828
 20
-0.5087935825
 30
0.0
 10
-5.1465285554
 20
-0.4961947048
 30
0.0
 10
-5.13415002
 20
-0.4865733946
 30
0.0
 11
-5.1810055143
 21
-0.5248966416
 31
0.0
 11
-5.1707637628
 21
-0.5160964969
 31
0.0
 11
-5.13415002
 21
-0.4865733946
 31
0.0
  0
SPLINE
  5
461
100
AcDbEntity
  8
RACCORDO
100
AcDbSpline
 62
7
  6
CONTINUOUS
 70
0
 71
3
 72
9
 73
5
 74
3
 42
0.0000001
 43
0.0000001
 44
0.0000000001
 12
0.0587983671
 22
0.0457014753
 32
0.0
 13
0.0602994993
 23
0.0437017529
 33
0.0
 40
0.0
 40
0.0
 40
0.0
 40
0.0
 40
0.231840053
 40
1.0
 40
1.0
 40
1.0
 40
1.0
 10
-5.13415002
 20
-0.4865733946
 30
0.0
 10
-5.1296060812
 20
-0.4830415838
 30
0.0
 10
-5.1099252037
 20
-0.4679125294
 30
0.0
 10
-5.0899587745
 20
-0.4531573412
 30
0.0
 10
-5.0745188878
 20
-0.4419673625
 30
0.0
 11
-5.13415002
 21
-0.4865733946
 31
0.0
 11
-5.1204651014
 21
-0.4760466375
 31
0.0
 11
-5.0745188878
 21
-0.4419673625
 31
0.0
  0
SPLINE
  5
462
100
AcDbEntity
  8
ASSI
100
AcDbSpline
 62
7
  6
CONTINUOUS
 70
0
 71
3
 72
9
 73
5
 74
3
 42
0.0000001
 43
0.0000001
 44
0.0000000001
 12
0.0
 22
-0.6011300399
 32
0.0
 13
-0.3015183879
 23
-0.5200422932
 33
0.0
 40
0.0
 40
0.0
 40
0.0
 40
0.0
 40
0.4822579053
 40
1.0
 40
1.0
 40
1.0
 40
1.0
 10
8.2190885985
 20
5.8918153478
 30
0.0
 10
8.2190885985
 20
5.7951821099
 30
0.0
 10
8.1857758836
 20
5.5945429166
 30
0.0
 10
8.1054394275
 20
5.4088239488
 30
0.0
 10
8.0534031735
 20
5.3190746868
 30
0.0
 11
8.2190885985
 21
5.8918153478
 31
0.0
 11
8.1760215204
 21
5.6051324727
 31
0.0
 11
8.0534031735
 21
5.3190746868
 31
0.0
  0
SPLINE
  5
463
100
AcDbEntity
  8
ASSI
100
AcDbSpline
 62
7
  6
CONTINUOUS
 70
0
 71
3
 72
9
 73
5
 74
3
 42
0.0000001
 43
0.0000001
 44
0.0000000001
 12
-0.2876318275
 22
-0.4960915194
 32
0.0
 13
-0.5129045633
 23
-0.2564522817
 33
0.0
 40
0.0
 40
0.0
 40
0.0
 40
0.0
 40
0.5295225118
 40
1.0
 40
1.0
 40
1.0
 40
1.0
 10
8.0534031735
 20
5.3190746868
 30
0.0
 10
8.0026339976
 20
5.231510811
 30
0.0
 10
7.887494567
 20
5.0765347588
 30
0.0
 10
7.7338398571
 20
4.9563706541
 30
0.0
 10
7.6534031735
 20
4.9161523123
 30
0.0
 11
8.0534031735
 21
5.3190746868
 31
0.0
 11
7.8698966999
 21
5.0771452585
 31
0.0
 11
7.6534031735
 21
4.9161523123
 31
0.0
  0
SPLINE
  5
464
100
AcDbEntity
  8
RACCORDO
100
AcDbSpline
 62
7
  6
CONTINUOUS
 70
0
 71
3
 72
10
 73
6
 74
4
 42
0.0000001
 43
0.0000001
 44
0.0000000001
 12
0.0001456492
 22
-0.5091602916
 32
0.0
 13
0.2553876639
 23
-0.4404785635
 33
0.0
 40
0.0
 40
0.0
 40
0.0
 40
0.0
 40
0.2406315914
 40
0.4892458123
 40
1.0
 40
1.0
 40
1.0
 40
1.0
 10
-7.2008658922
 20
-7.1965733742
 30
0.0
 10
-7.2008542096
 20
-7.2374133912
 30
0.0
 10
-7.1926919622
 20
-7.3205402712
 30
0.0
 10
-7.1516437094
 20
-7.4855602809
 30
0.0
 10
-7.0978979814
 20
-7.6042671144
 30
0.0
 10
-7.0544178751
 20
-7.6792592047
 30
0.0
 11
-7.2008658922
 21
-7.1965733742
 31
0.0
 11
-7.1899414841
 21
-7.3186054253
 31
0.0
 11
-7.1599843259
 21
-7.4415940544
 31
0.0
 11
-7.0544178751
 21
-7.6792592047
 31
0.0
  0
SPLINE
  5
465
100
AcDbEntity
  8
ASSI
100
AcDbSpline
 62
7
  6
CONTINUOUS
 70
0
 71
3
 72
11
 73
7
 74
5
 42
0.0000001
 43
0.0000001
 44
0.0000000001
 12
0.4396824451
 22
-0.2320825349
 32
0.0
 13
0.0
 23
-0.4971749748
 33
0.0
 40
0.0
 40
0.0
 40
0.0
 40
0.0
 40
0.2171628899
 40
0.4507297004
 40
0.710742952
 40
1.0
 40
1.0
 40
1.0
 40
1.0
 10
8.0171109793
 20
7.9669004498
 30
0.0
 10
8.0489385495
 20
7.9501005452
 30
0.0
 10
8.1089061448
 20
7.9025809624
 30
0.0
 10
8.1730520607
 20
7.8017620342
 30
0.0
 10
8.2114403131
 20
7.6765582162
 30
0.0
 10
8.2190885985
 20
7.5852007369
 30
0.0
 10
8.2190885985
 20
7.537263615
 30
0.0
 11
8.0171109793
 21
7.9669004498
 31
0.0
 11
8.1022461869
 21
7.9004995794
 31
0.0
 11
8.1661099343
 21
7.803514498
 31
0.0
 11
8.205684407
 21
7.6804489373
 31
0.0
 11
8.2190885985
 21
7.537263615
 31
0.0
  0
SPLINE
  5
466
100
AcDbEntity
  8
ASSI
100
AcDbSpline
 62
7
  6
CONTINUOUS
 70
0
 71
3
 72
11
 73
7
 74
5
 42
0.0000001
 43
0.0000001
 44
0.0000000001
 12
0.4396824451
 22
-0.2320825349
 32
0.0
 13
0.0
 23
-0.4971749748
 33
0.0
 40
0.0
 40
0.0
 40
0.0
 40
0.0
 40
0.2171628899
 40
0.4507297004
 40
0.710742952
 40
1.0
 40
1.0
 40
1.0
 40
1.0
 10
8.0171109793
 20
0.0860692754
 30
0.0
 10
8.0489385495
 20
0.0692693707
 30
0.0
 10
8.1089061448
 20
0.021749788
 30
0.0
 10
8.1730520607
 20
-0.0790691403
 30
0.0
 10
8.2114403131
 20
-0.2042729582
 30
0.0
 10
8.2190885985
 20
-0.2956304376
 30
0.0
 10
8.2190885985
 20
-0.3435675594
 30
0.0
 11
8.0171109793
 21
0.0860692754
 31
0.0
 11
8.1022461869
 21
0.0196684049
 31
0.0
 11
8.1661099343
 21
-0.0773166764
 31
0.0
 11
8.205684407
 21
-0.2003822372
 31
0.0
 11
8.2190885985
 21
-0.3435675594
 31
0.0
  0
SPLINE
  5
467
100
AcDbEntity
  8
0
100
AcDbSpline
 62
7
  6
CONTINUOUS
 70
0
 71
3
 72
10
 73
6
 74
4
 42
0.0000001
 43
0.0000001
 44
0.0000000001
 12
0.2520156332
 22
-0.2873558786
 32
0.0
 13
0.0
 23
-0.3822110416
 33
0.0
 40
0.0
 40
0.0
 40
0.0
 40
0.0
 40
0.4593669127
 40
0.7195045618
 40
1.0
 40
1.0
 40
1.0
 40
1.0
 10
8.0358749686
 20
0.0501715941
 30
0.0
 10
8.0744641831
 20
0.0061709998
 30
0.0
 10
8.1173102546
 20
-0.0787263515
 30
0.0
 10
8.1439723542
 20
-0.2034014481
 30
0.0
 10
8.1483779204
 20
-0.2724760692
 30
0.0
 10
8.1483779204
 20
-0.3082122204
 30
0.0
 11
8.0358749686
 21
0.0501715941
 31
0.0
 11
8.1195289734
 21
-0.1041936397
 31
0.0
 11
8.1411122569
 21
-0.2012502521
 31
0.0
 11
8.1483779204
 21
-0.3082122204
 31
0.0
  0
SPLINE
  5
468
100
AcDbEntity
  8
0
100
AcDbSpline
 62
7
  6
CONTINUOUS
 70
0
 71
3
 72
9
 73
5
 74
3
 42
0.0000001
 43
0.0000001
 44
0.0000000001
 12
0.0
 22
-0.551442053
 32
0.0
 13
-0.2580299023
 23
-0.4873488559
 33
0.0
 40
0.0
 40
0.0
 40
0.0
 40
0.0
 40
0.4818998205
 40
1.0
 40
1.0
 40
1.0
 40
1.0
 10
8.1483779204
 20
-1.9536604876
 30
0.0
 10
8.1483779204
 20
-2.0422404297
 30
0.0
 10
8.1202660077
 20
-2.2263060107
 30
0.0
 10
8.0515183437
 20
-2.3984635586
 30
0.0
 10
8.0069565641
 20
-2.4826287352
 30
0.0
 11
8.1483779204
 21
-1.9536604876
 31
0.0
 11
8.1118469326
 21
-2.2168773986
 31
0.0
 11
8.0069565641
 21
-2.4826287352
 31
0.0
  0
SPLINE
  5
469
100
AcDbEntity
  8
RACCORDO
100
AcDbSpline
 62
7
  6
CONTINUOUS
 70
0
 71
3
 72
10
 73
6
 74
4
 42
0.0000001
 43
0.0000001
 44
0.0000000001
 12
0.0001456492
 22
-0.5091602916
 32
0.0
 13
0.2553876639
 23
-0.4404785635
 33
0.0
 40
0.0
 40
0.0
 40
0.0
 40
0.0
 40
0.2406315914
 40
0.4892458123
 40
1.0
 40
1.0
 40
1.0
 40
1.0
 10
-7.2008658922
 20
-5.8975352685
 30
0.0
 10
-7.2008542096
 20
-5.9383752856
 30
0.0
 10
-7.1926919622
 20
-6.0215021655
 30
0.0
 10
-7.1516437094
 20
-6.1865221752
 30
0.0
 10
-7.0978979814
 20
-6.3052290088
 30
0.0
 10
-7.0544178751
 20
-6.3802210991
 30
0.0
 11
-7.2008658922
 21
-5.8975352685
 31
0.0
 11
-7.1899414841
 21
-6.0195673196
 31
0.0
 11
-7.1599843259
 21
-6.1425559487
 31
0.0
 11
-7.0544178751
 21
-6.3802210991
 31
0.0
  0
SPLINE
  5
46A
100
AcDbEntity
  8
RACCORDO
100
AcDbSpline
 62
7
  6
CONTINUOUS
 70
0
 71
3
 72
11
 73
7
 74
5
 42
0.0000001
 43
0.0000001
 44
0.0000000001
 12
-0.7421770313
 22
-0.3710885157
 32
0.0
 13
-0.6718793128
 23
-0.4869410861
 33
0.0
 40
0.0
 40
0.0
 40
0.0
 40
0.0
 40
0.2679277148
 40
0.5491392839
 40
0.7973409494
 40
1.0
 40
1.0
 40
1.0
 40
1.0
 10
-13.5598002621
 20
-2.3409638131
 30
0.0
 10
-13.6260835274
 20
-2.3741054458
 30
0.0
 10
-13.7590383769
 20
-2.447758542
 30
0.0
 10
-13.9481916167
 20
-2.5611791019
 30
0.0
 10
-14.1186451561
 20
-2.6705311922
 30
0.0
 10
-14.2215195687
 20
-2.7410821756
 30
0.0
 10
-14.2669070432
 20
-2.773976515
 30
0.0
 11
-13.5598002621
 21
-2.3409638131
 31
0.0
 11
-13.7551835833
 21
-2.4470388313
 31
0.0
 11
-13.9553663596
 21
-2.5669389694
 31
0.0
 11
-14.1286119375
 21
-2.6783051639
 31
0.0
 11
-14.2669070432
 21
-2.773976515
 31
0.0
  0
SPLINE
  5
46B
100
AcDbEntity
  8
RACCORDO
100
AcDbSpline
 62
7
  6
CONTINUOUS
 70
0
 71
3
 72
11
 73
7
 74
5
 42
0.0000001
 43
0.0000001
 44
0.0000000001
 12
-0.7421770313
 22
-0.3710885157
 32
0.0
 13
-0.6718793128
 23
-0.4869410861
 33
0.0
 40
0.0
 40
0.0
 40
0.0
 40
0.0
 40
0.2679277148
 40
0.5491392839
 40
0.7973409494
 40
1.0
 40
1.0
 40
1.0
 40
1.0
 10
-11.5799012747
 20
-3.3309133068
 30
0.0
 10
-11.6461845401
 20
-3.3640549394
 30
0.0
 10
-11.7791393896
 20
-3.4377080357
 30
0.0
 10
-11.9682926294
 20
-3.5511285956
 30
0.0
 10
-12.1387461688
 20
-3.6604806858
 30
0.0
 10
-12.2416205814
 20
-3.7310316693
 30
0.0
 10
-12.2870080559
 20
-3.7639260087
 30
0.0
 11
-11.5799012747
 21
-3.3309133068
 31
0.0
 11
-11.775284596
 21
-3.436988325
 31
0.0
 11
-11.9754673723
 21
-3.556888463
 31
0.0
 11
-12.1487129501
 21
-3.6682546575
 31
0.0
 11
-12.2870080559
 21
-3.7639260087
 31
0.0
  0
SPLINE
  5
46C
100
AcDbEntity
  8
0
100
AcDbSpline
 62
7
  6
CONTINUOUS
 70
0
 71
3
 72
10
 73
6
 74
4
 42
0.0000001
 43
0.0000001
 44
0.0000000001
 12
0.2520156332
 22
-0.2873558786
 32
0.0
 13
0.0
 23
-0.3822110416
 33
0.0
 40
0.0
 40
0.0
 40
0.0
 40
0.0
 40
0.4593669127
 40
0.7195045618
 40
1.0
 40
1.0
 40
1.0
 40
1.0
 10
8.0358749686
 20
7.9310027685
 30
0.0
 10
8.0744641831
 20
7.8870021742
 30
0.0
 10
8.1173102546
 20
7.8021048229
 30
0.0
 10
8.1439723542
 20
7.6774297263
 30
0.0
 10
8.1483779204
 20
7.6083551053
 30
0.0
 10
8.1483779204
 20
7.5726189541
 30
0.0
 11
8.0358749686
 21
7.9310027685
 31
0.0
 11
8.1195289734
 21
7.7766375347
 31
0.0
 11
8.1411122569
 21
7.6795809223
 31
0.0
 11
8.1483779204
 21
7.5726189541
 31
0.0
  0
SPLINE
  5
46D
100
AcDbEntity
  8
0
100
AcDbSpline
 62
7
  6
CONTINUOUS
 70
0
 71
3
 72
9
 73
5
 74
3
 42
0.0000001
 43
0.0000001
 44
0.0000000001
 12
0.0
 22
-0.551442053
 32
0.0
 13
-0.2580299023
 23
-0.4873488559
 33
0.0
 40
0.0
 40
0.0
 40
0.0
 40
0.0
 40
0.4818998205
 40
1.0
 40
1.0
 40
1.0
 40
1.0
 10
8.1483779204
 20
5.9271706869
 30
0.0
 10
8.1483779204
 20
5.8385907448
 30
0.0
 10
8.1202660077
 20
5.6545251637
 30
0.0
 10
8.0515183437
 20
5.4823676158
 30
0.0
 10
8.0069565641
 20
5.3982024393
 30
0.0
 11
8.1483779204
 21
5.9271706869
 31
0.0
 11
8.1118469326
 21
5.6639537759
 31
0.0
 11
8.0069565641
 21
5.3982024393
 31
0.0
  0
SPLINE
  5
46E
100
AcDbEntity
  8
RACCORDO
100
AcDbSpline
 62
7
  6
CONTINUOUS
 70
0
 71
3
 72
11
 73
7
 74
5
 42
0.0000001
 43
0.0000001
 44
0.0000000001
 12
-0.7421770313
 22
-0.3710885157
 32
0.0
 13
-0.6718793128
 23
-0.4869410861
 33
0.0
 40
0.0
 40
0.0
 40
0.0
 40
0.0
 40
0.2679277148
 40
0.5491392839
 40
0.7973409494
 40
1.0
 40
1.0
 40
1.0
 40
1.0
 10
-11.5799012747
 20
-4.6299514125
 30
0.0
 10
-11.6461845401
 20
-4.6630930451
 30
0.0
 10
-11.7791393896
 20
-4.7367461414
 30
0.0
 10
-11.9682926294
 20
-4.8501667012
 30
0.0
 10
-12.1387461688
 20
-4.9595187915
 30
0.0
 10
-12.2416205814
 20
-5.0300697749
 30
0.0
 10
-12.2870080559
 20
-5.0629641144
 30
0.0
 11
-11.5799012747
 21
-4.6299514125
 31
0.0
 11
-11.775284596
 21
-4.7360264306
 31
0.0
 11
-11.9754673723
 21
-4.8559265687
 31
0.0
 11
-12.1487129501
 21
-4.9672927632
 31
0.0
 11
-12.2870080559
 21
-5.0629641144
 31
0.0
  0
SPLINE
  5
46F
100
AcDbEntity
  8
RACCORDO
100
AcDbSpline
 62
7
  6
CONTINUOUS
 70
0
 71
3
 72
9
 73
5
 74
3
 42
0.0000001
 43
0.0000001
 44
0.0000000001
 12
-0.2667074298
 22
0.1339929106
 32
0.0
 13
-0.2049122319
 23
0.217020576
 33
0.0
 40
0.0
 40
0.0
 40
0.0
 40
0.0
 40
0.4931774829
 40
1.0
 40
1.0
 40
1.0
 40
1.0
 10
-13.8641506542
 20
3.7473876706
 30
0.0
 10
-13.9079953539
 20
3.7694150993
 30
0.0
 10
-13.9917837755
 20
3.8244599892
 30
0.0
 10
-14.0650452486
 20
3.8922983489
 30
0.0
 10
-14.099663293
 20
3.9289619871
 30
0.0
 11
-13.8641506542
 21
3.7473876706
 31
0.0
 11
-13.9880800728
 21
3.8268205791
 31
0.0
 11
-14.099663293
 21
3.9289619871
 31
0.0
  0
SPLINE
  5
470
100
AcDbEntity
  8
RACCORDO
100
AcDbSpline
 62
7
  6
CONTINUOUS
 70
0
 71
3
 72
11
 73
7
 74
5
 42
0.0000001
 43
0.0000001
 44
0.0000000001
 12
-0.7421770313
 22
-0.3710885157
 32
0.0
 13
-0.6718793128
 23
-0.4869410861
 33
0.0
 40
0.0
 40
0.0
 40
0.0
 40
0.0
 40
0.2679277148
 40
0.5491392839
 40
0.7973409494
 40
1.0
 40
1.0
 40
1.0
 40
1.0
 10
-10.7313731373
 20
-5.0542154812
 30
0.0
 10
-10.7976564026
 20
-5.0873571138
 30
0.0
 10
-10.9306112521
 20
-5.1610102101
 30
0.0
 10
-11.119764492
 20
-5.2744307699
 30
0.0
 10
-11.2902180314
 20
-5.3837828602
 30
0.0
 10
-11.3930924439
 20
-5.4543338437
 30
0.0
 10
-11.4384799185
 20
-5.4872281831
 30
0.0
 11
-10.7313731373
 21
-5.0542154812
 31
0.0
 11
-10.9267564585
 21
-5.1602904993
 31
0.0
 11
-11.1269392349
 21
-5.2801906374
 31
0.0
 11
-11.3001848127
 21
-5.3915568319
 31
0.0
 11
-11.4384799185
 21
-5.4872281831
 31
0.0
  0
SPLINE
  5
471
100
AcDbEntity
  8
RACCORDO
100
AcDbSpline
 62
7
  6
CONTINUOUS
 70
0
 71
3
 72
10
 73
6
 74
4
 42
0.0000001
 43
0.0000001
 44
0.0000000001
 12
0.0001456492
 22
-0.5091602916
 32
0.0
 13
0.2553876639
 23
-0.4404785635
 33
0.0
 40
0.0
 40
0.0
 40
0.0
 40
0.0
 40
0.2406315914
 40
0.4892458123
 40
1.0
 40
1.0
 40
1.0
 40
1.0
 10
-8.0493940296
 20
-6.7723093054
 30
0.0
 10
-8.049382347
 20
-6.8131493225
 30
0.0
 10
-8.0412200996
 20
-6.8962762025
 30
0.0
 10
-8.0001718468
 20
-7.0612962122
 30
0.0
 10
-7.9464261188
 20
-7.1800030457
 30
0.0
 10
-7.9029460126
 20
-7.254995136
 30
0.0
 11
-8.0493940296
 21
-6.7723093054
 31
0.0
 11
-8.0384696216
 21
-6.8943413566
 31
0.0
 11
-8.0085124633
 21
-7.0173299857
 31
0.0
 11
-7.9029460126
 21
-7.254995136
 31
0.0
  0
SPLINE
  5
472
100
AcDbEntity
  8
ASSI
100
AcDbSpline
 62
7
  6
CONTINUOUS
 70
0
 71
3
 72
13
 73
9
 74
7
 42
0.0000001
 43
0.0000001
 44
0.0000000001
 12
0.3092727818
 22
-0.5497306504
 32
0.0
 13
-0.4979572077
 23
-0.3871589608
 33
0.0
 40
0.0
 40
0.0
 40
0.0
 40
0.0
 40
0.2942061298
 40
0.5679729652
 40
0.6912605556
 40
0.8036201313
 40
0.9057779327
 40
1.0
 40
1.0
 40
1.0
 40
1.0
 10
3.3782335542
 20
23.2626920526
 30
0.0
 10
3.4085635369
 20
23.2087806769
 30
0.0
 10
3.4553660052
 20
23.0976625642
 30
0.0
 10
3.4788878015
 20
22.9522642817
 30
0.0
 10
3.4710213081
 20
22.8449778608
 30
0.0
 10
3.4528358702
 20
22.7758041915
 30
0.0
 10
3.422530032
 20
22.7177080503
 30
0.0
 10
3.3938730734
 20
22.6870281235
 30
0.0
 10
3.3782335542
 20
22.6748684843
 30
0.0
 11
3.3782335542
 21
23.2626920526
 31
0.0
 11
3.4496780267
 21
23.0914238831
 31
0.0
 11
3.4746702941
 21
22.9205618985
 31
0.0
 11
3.4683761821
 21
22.8430526164
 31
0.0
 11
3.4496780267
 21
22.7746921813
 31
0.0
 11
3.4192126197
 21
22.7179123999
 31
0.0
 11
3.3782335542
 21
22.6748684843
 31
0.0
  0
SPLINE
  5
473
100
AcDbEntity
  8
RACCORDO
100
AcDbSpline
 62
7
  6
CONTINUOUS
 70
0
 71
3
 72
8
 73
4
 74
2
 42
0.0000001
 43
0.0000001
 44
0.0000000001
 12
-0.0392391113
 22
-0.0217685312
 32
0.0
 13
-0.0295087228
 23
-0.0338055039
 33
0.0
 40
0.0
 40
0.0
 40
0.0
 40
0.0
 40
1.0
 40
1.0
 40
1.0
 40
1.0
 10
-5.2862948581
 20
-9.40624514
 30
0.0
 10
-5.2993745619
 20
-9.413501317
 30
0.0
 10
-5.3112345488
 20
-9.4233352598
 30
0.0
 10
-5.3210707897
 20
-9.4346037611
 30
0.0
 11
-5.2862948581
 21
-9.40624514
 31
0.0
 11
-5.3210707897
 21
-9.4346037611
 31
0.0
  0
SPLINE
  5
474
100
AcDbEntity
  8
RACCORDO
100
AcDbSpline
 62
7
  6
CONTINUOUS
 70
0
 71
3
 72
9
 73
5
 74
3
 42
0.0000001
 43
0.0000001
 44
0.0000000001
 12
-0.1012648666
 22
-0.1160100987
 32
0.0
 13
0.0022381162
 23
-0.1539737219
 33
0.0
 40
0.0
 40
0.0
 40
0.0
 40
0.0
 40
0.479810138
 40
1.0
 40
1.0
 40
1.0
 40
1.0
 10
-5.3210707897
 20
-9.4346037611
 30
0.0
 10
-5.3372667596
 20
-9.4531580349
 30
0.0
 10
-5.360235724
 20
-9.5013162879
 30
0.0
 10
-5.3648639291
 20
-9.5530474693
 30
0.0
 10
-5.3644758473
 20
-9.5797459924
 30
0.0
 11
-5.3210707897
 21
-9.4346037611
 31
0.0
 11
-5.3550858748
 21
-9.5001942226
 31
0.0
 11
-5.3644758473
 21
-9.5797459924
 31
0.0
  0
SPLINE
  5
475
100
AcDbEntity
  8
ASSI
100
AcDbSpline
 62
253
  6
CONTINUOUS
 70
0
 71
3
 72
10
 73
6
 74
4
 42
0.0000001
 43
0.0000001
 44
0.0000000001
 12
0.0468239032
 22
0.0232263555
 32
0.0
 13
-0.0000002012
 23
-0.0522679778
 33
0.0
 40
0.0
 40
0.0
 40
0.0
 40
0.0
 40
0.2583967523
 40
0.4816423278
 40
1.0
 40
1.0
 40
1.0
 40
1.0
 10
-8.1566590053
 20
26.3218054883
 30
0.0
 10
-8.1526259571
 20
26.3238060265
 30
0.0
 10
-8.1442280858
 20
26.326444999
 30
0.0
 10
-8.1263686381
 20
26.3206993438
 30
0.0
 10
-8.1225270266
 20
26.3052143135
 30
0.0
 10
-8.1225270613
 20
26.2961831444
 30
0.0
 11
-8.1566590053
 21
26.3218054883
 31
0.0
 11
-8.1435564789
 21
26.3250815346
 31
0.0
 11
-8.1324912751
 21
26.3213778379
 31
0.0
 11
-8.1225270613
 21
26.2961831444
 31
0.0
  0
SPLINE
  5
476
100
AcDbEntity
  8
ASSI
100
AcDbSpline
 62
253
  6
CONTINUOUS
 70
0
 71
3
 72
9
 73
5
 74
3
 42
0.0000001
 43
0.0000001
 44
0.0000000001
 12
0.0000005359
 22
-0.0501438427
 32
0.0
 13
-0.0315178344
 23
-0.0390003983
 33
0.0
 40
0.0
 40
0.0
 40
0.0
 40
0.0
 40
0.2368631391
 40
1.0
 40
1.0
 40
1.0
 40
1.0
 10
-8.1225270613
 20
25.9562395495
 30
0.0
 10
-8.122527019
 20
25.9522804736
 30
0.0
 10
-8.1243490725
 20
25.9356026761
 30
0.0
 10
-8.1318786923
 20
25.9196673129
 30
0.0
 10
-8.139896166
 20
25.9097464324
 30
0.0
 11
-8.1225270613
 21
25.9562395495
 31
0.0
 11
-8.1237103918
 21
25.9444214163
 31
0.0
 11
-8.139896166
 21
25.9097464324
 31
0.0
  0
SPLINE
  5
477
100
AcDbEntity
  8
ASSI
100
AcDbSpline
 62
253
  6
CONTINUOUS
 70
0
 71
3
 72
11
 73
7
 74
5
 42
0.0000001
 43
0.0000001
 44
0.0000000001
 12
0.0001190189
 22
-0.0961856147
 32
0.0
 13
0.086031095
 23
-0.0430155475
 33
0.0
 40
0.0
 40
0.0
 40
0.0
 40
0.0
 40
0.2064745034
 40
0.4345350635
 40
0.6981241475
 40
1.0
 40
1.0
 40
1.0
 40
1.0
 10
-12.7414411582
 20
25.9711291744
 30
0.0
 10
-12.7414329668
 20
25.9645092154
 30
0.0
 10
-12.7384804627
 20
25.950478678
 30
0.0
 10
-12.7262625743
 20
25.9313045957
 30
0.0
 10
-12.7071820397
 20
25.9141453222
 30
0.0
 10
-12.6915195176
 20
25.9048152568
 30
0.0
 10
-12.6828626142
 20
25.9004868051
 30
0.0
 11
-12.7414411582
 21
25.9711291744
 31
0.0
 11
-12.7375767399
 21
25.9516488872
 31
0.0
 11
-12.7261920442
 21
25.9328983164
 31
0.0
 11
-12.7076537814
 21
25.9156028649
 31
0.0
 11
-12.6828626142
 21
25.9004868051
 31
0.0
  0
SPLINE
  5
478
100
AcDbEntity
  8
ASSI
100
AcDbSpline
 62
7
  6
CONTINUOUS
 70
0
 71
3
 72
9
 73
5
 74
3
 42
0.0000001
 43
0.0000001
 44
0.0000000001
 12
0.0349373875
 22
0.016177147
 32
0.0
 13
0.0384614131
 23
0.0017438006
 33
0.0
 40
0.0
 40
0.0
 40
0.0
 40
0.0
 40
0.7434564307
 40
1.0
 40
1.0
 40
1.0
 40
1.0
 10
-2.9563675773
 20
22.8935536288
 30
0.0
 10
-2.9477094355
 20
22.8975626301
 30
0.0
 10
-2.9351209099
 20
22.9011485706
 30
0.0
 10
-2.9223350785
 20
22.9022949588
 30
0.0
 10
-2.9190460691
 20
22.9024440791
 30
0.0
 11
-2.9563675773
 21
22.8935536288
 31
0.0
 11
-2.9288823385
 21
22.9015462036
 31
0.0
 11
-2.9190460691
 21
22.9024440791
 31
0.0
  0
SPLINE
  5
479
100
AcDbEntity
  8
ASSI
100
AcDbSpline
 62
7
  6
CONTINUOUS
 70
0
 71
3
 72
9
 73
5
 74
3
 42
0.0000001
 43
0.0000001
 44
0.0000000001
 12
0.0743191444
 22
0.003369553
 32
0.0
 13
0.0665413503
 23
-0.0332706751
 33
0.0
 40
0.0
 40
0.0
 40
0.0
 40
0.0
 40
0.2323604911
 40
1.0
 40
1.0
 40
1.0
 40
1.0
 10
-2.9190460691
 20
22.9024440791
 30
0.0
 10
-2.9132897915
 20
22.9027050628
 30
0.0
 10
-2.8884218784
 20
22.90187914
 30
0.0
 10
-2.8641860408
 20
22.8937230925
 30
0.0
 10
-2.847159451
 20
22.8852097976
 30
0.0
 11
-2.9190460691
 21
22.9024440791
 31
0.0
 11
-2.9017672771
 21
22.9019254754
 31
0.0
 11
-2.847159451
 21
22.8852097976
 31
0.0
  0
SPLINE
  5
47A
100
AcDbEntity
  8
ASSI
100
AcDbSpline
 62
253
  6
CONTINUOUS
 70
0
 71
3
 72
11
 73
7
 74
5
 42
0.0000001
 43
0.0000001
 44
0.0000000001
 12
-0.0000129856
 22
-0.0935240939
 32
0.0
 13
-0.0830519927
 23
-0.0430014281
 33
0.0
 40
0.0
 40
0.0
 40
0.0
 40
0.0
 40
0.2076695446
 40
0.4361879292
 40
0.699291716
 40
1.0
 40
1.0
 40
1.0
 40
1.0
 10
-8.0663950836
 20
26.0257053866
 30
0.0
 10
-8.0663959825
 20
26.0192313513
 30
0.0
 10
-8.0691874062
 20
26.005534666
 30
0.0
 10
-8.0808571891
 20
25.9867237671
 30
0.0
 10
-8.099147427
 20
25.9698096517
 30
0.0
 10
-8.1142022539
 20
25.9605498448
 30
0.0
 10
-8.1225270613
 20
25.9562395495
 30
0.0
 11
-8.0663950836
 21
26.0257053866
 31
0.0
 11
-8.0700712152
 21
26.0066343545
 31
0.0
 11
-8.0809594285
 21
25.9882439187
 31
0.0
 11
-8.0987235402
 21
25.9712169308
 31
0.0
 11
-8.1225270613
 21
25.9562395495
 31
0.0
  0
SPLINE
  5
47B
100
AcDbEntity
  8
ASSI
100
AcDbSpline
 62
253
  6
CONTINUOUS
 70
0
 71
3
 72
11
 73
7
 74
5
 42
0.0000001
 43
0.0000001
 44
0.0000000001
 12
-0.0000129856
 22
-0.0935240939
 32
0.0
 13
-0.0830519927
 23
-0.043001428
 33
0.0
 40
0.0
 40
0.0
 40
0.0
 40
0.0
 40
0.2076695446
 40
0.4361879292
 40
0.699291716
 40
1.0
 40
1.0
 40
1.0
 40
1.0
 10
-8.0663950836
 20
26.3656489815
 30
0.0
 10
-8.0663959825
 20
26.3591749461
 30
0.0
 10
-8.0691874062
 20
26.3454782609
 30
0.0
 10
-8.0808571891
 20
26.3266673619
 30
0.0
 10
-8.099147427
 20
26.3097532466
 30
0.0
 10
-8.1142022539
 20
26.3004934396
 30
0.0
 10
-8.1225270613
 20
26.2961831444
 30
0.0
 11
-8.0663950836
 21
26.3656489815
 31
0.0
 11
-8.0700712152
 21
26.3465779494
 31
0.0
 11
-8.0809594285
 21
26.3281875136
 31
0.0
 11
-8.0987235402
 21
26.3111605257
 31
0.0
 11
-8.1225270613
 21
26.2961831444
 31
0.0
  0
SPLINE
  5
47C
100
AcDbEntity
  8
ASSI
100
AcDbSpline
 62
7
  6
CONTINUOUS
 70
0
 71
3
 72
9
 73
5
 74
3
 42
0.0000001
 43
0.0000001
 44
0.0000000001
 12
0.0349373875
 22
0.016177147
 32
0.0
 13
0.0384614131
 23
0.0017438006
 33
0.0
 40
0.0
 40
0.0
 40
0.0
 40
0.0
 40
0.7434564307
 40
1.0
 40
1.0
 40
1.0
 40
1.0
 10
-6.6686781785
 20
24.7497089294
 30
0.0
 10
-6.6600200367
 20
24.7537179307
 30
0.0
 10
-6.6474315111
 20
24.7573038712
 30
0.0
 10
-6.6346456797
 20
24.7584502594
 30
0.0
 10
-6.6313566703
 20
24.7585993797
 30
0.0
 11
-6.6686781785
 21
24.7497089294
 31
0.0
 11
-6.6411929398
 21
24.7577015042
 31
0.0
 11
-6.6313566703
 21
24.7585993797
 31
0.0
  0
SPLINE
  5
47D
100
AcDbEntity
  8
ASSI
100
AcDbSpline
 62
7
  6
CONTINUOUS
 70
0
 71
3
 72
9
 73
5
 74
3
 42
0.0000001
 43
0.0000001
 44
0.0000000001
 12
0.0743191444
 22
0.003369553
 32
0.0
 13
0.0665413503
 23
-0.0332706751
 33
0.0
 40
0.0
 40
0.0
 40
0.0
 40
0.0
 40
0.2323604911
 40
1.0
 40
1.0
 40
1.0
 40
1.0
 10
-6.6313566703
 20
24.7585993797
 30
0.0
 10
-6.6256003927
 20
24.7588603634
 30
0.0
 10
-6.6007324796
 20
24.7580344406
 30
0.0
 10
-6.5764966421
 20
24.7498783931
 30
0.0
 10
-6.5594700523
 20
24.7413650982
 30
0.0
 11
-6.6313566703
 21
24.7585993797
 31
0.0
 11
-6.6140778783
 21
24.7580807761
 31
0.0
 11
-6.5594700523
 21
24.7413650982
 31
0.0
  0
SPLINE
  5
47E
100
AcDbEntity
  8
ASSI
100
AcDbSpline
 62
253
  6
CONTINUOUS
 70
0
 71
3
 72
10
 73
6
 74
4
 42
0.0000001
 43
0.0000001
 44
0.0000000001
 12
0.0374985431
 22
0.0464822637
 32
0.0
 13
-0.031065602
 23
0.0510065677
 33
0.0
 40
0.0
 40
0.0
 40
0.0
 40
0.0
 40
0.3758715799
 40
0.6547334137
 40
1.0
 40
1.0
 40
1.0
 40
1.0
 10
-8.1282121347
 20
25.8535069656
 30
0.0
 10
-8.1235139225
 20
25.8593307529
 30
0.0
 10
-8.1234819692
 20
25.874544671
 30
0.0
 10
-8.1304000955
 20
25.8927864006
 30
0.0
 10
-8.1363208612
 20
25.9038761445
 30
0.0
 10
-8.139896166
 20
25.9097464324
 30
0.0
 11
-8.1282121347
 21
25.8535069656
 31
0.0
 11
-8.1249805702
 21
25.8757210211
 31
0.0
 11
-8.1302607025
 21
25.8915160842
 31
0.0
 11
-8.139896166
 21
25.9097464324
 31
0.0
  0
SPLINE
  5
47F
100
AcDbEntity
  8
ASSI
100
AcDbSpline
 62
253
  6
CONTINUOUS
 70
0
 71
3
 72
11
 73
7
 74
5
 42
0.0000001
 43
0.0000001
 44
0.0000000001
 12
-0.1409343633
 22
0.0705506125
 32
0.0
 13
0.000001312
 23
0.1576067374
 33
0.0
 40
0.0
 40
0.0
 40
0.0
 40
0.0
 40
0.2174842744
 40
0.4508667617
 40
0.7105769087
 40
1.0
 40
1.0
 40
1.0
 40
1.0
 10
-10.5531998634
 20
24.7329236431
 30
0.0
 10
-10.563416866
 20
24.7380381927
 30
0.0
 10
-10.5827480707
 20
24.7527324571
 30
0.0
 10
-10.6034805988
 20
24.784459307
 30
0.0
 10
-10.6158977796
 20
24.824071785
 30
0.0
 10
-10.6183614181
 20
24.853031134
 30
0.0
 10
-10.6183612915
 20
24.8682361437
 30
0.0
 11
-10.5531998634
 21
24.7329236431
 31
0.0
 11
-10.5806293342
 21
24.7534793228
 31
0.0
 11
-10.6012423408
 21
24.7839435227
 31
0.0
 11
-10.6140282651
 21
24.8228273806
 31
0.0
 11
-10.6183612915
 21
24.8682361437
 31
0.0
  0
SPLINE
  5
480
100
AcDbEntity
  8
ASSI
100
AcDbSpline
 62
253
  6
CONTINUOUS
 70
0
 71
3
 72
11
 73
7
 74
5
 42
0.0000001
 43
0.0000001
 44
0.0000000001
 12
0.2312514505
 22
-0.0490368242
 32
0.0
 13
0.0857674302
 23
0.220285704
 33
0.0
 40
0.0
 40
0.0
 40
0.0
 40
0.0
 40
0.2233445289
 40
0.4614640225
 40
0.7216378373
 40
1.0
 40
1.0
 40
1.0
 40
1.0
 10
-10.5004509726
 20
24.7145109111
 30
0.0
 10
-10.4832347238
 20
24.710860209
 30
0.0
 10
-10.4455057263
 20
24.7115230594
 30
0.0
 10
-10.3927989391
 20
24.7362115297
 30
0.0
 10
-10.3486256509
 20
24.7799679075
 30
0.0
 10
-10.3279801626
 20
24.8177576591
 30
0.0
 10
-10.3200220268
 20
24.8381973941
 30
0.0
 11
-10.5004509726
 21
24.7145109111
 31
0.0
 11
-10.447656497
 21
24.7150447423
 31
0.0
 11
-10.3962487487
 21
24.7379749376
 31
0.0
 11
-10.3519904894
 21
24.7806817473
 31
0.0
 11
-10.3200220268
 21
24.8381973941
 31
0.0
  0
SPLINE
  5
481
100
AcDbEntity
  8
RACCORDO
100
AcDbSpline
 62
7
  6
CONTINUOUS
 70
0
 71
3
 72
9
 73
5
 74
3
 42
0.0000001
 43
0.0000001
 44
0.0000000001
 12
0.0056756745
 22
-0.3209436023
 32
0.0
 13
0.1723058214
 23
-0.2708278292
 33
0.0
 40
0.0
 40
0.0
 40
0.0
 40
0.0
 40
0.488119275
 40
1.0
 40
1.0
 40
1.0
 40
1.0
 10
-5.3415385467
 20
-10.9981223842
 30
0.0
 10
-5.340615078
 20
-11.0503419703
 30
0.0
 10
-5.316608687
 20
-11.1568266669
 30
0.0
 10
-5.2684590198
 20
-11.2531900537
 30
0.0
 10
-5.2390590102
 20
-11.2994005689
 30
0.0
 11
-5.3415385467
 21
-10.9981223842
 31
0.0
 11
-5.3114267264
 21
-11.1518849285
 31
0.0
 11
-5.2390590102
 21
-11.2994005689
 31
0.0
  0
SPLINE
  5
482
100
AcDbEntity
  8
ASSI
100
AcDbSpline
 62
7
  6
CONTINUOUS
 70
0
 71
3
 72
9
 73
5
 74
3
 42
0.0000001
 43
0.0000001
 44
0.0000000001
 12
0.0309994455
 22
0.0143043227
 32
0.0
 13
0.0341398669
 23
0.0002208143
 33
0.0
 40
0.0
 40
0.0
 40
0.0
 40
0.0
 40
0.2452208379
 40
1.0
 40
1.0
 40
1.0
 40
1.0
 10
1.5556382759
 20
21.079841369
 30
0.0
 10
1.5581721793
 20
21.0810106083
 30
0.0
 10
1.5687652124
 20
21.0852082324
 30
0.0
 10
1.5802720029
 20
21.0869761346
 30
0.0
 10
1.5888613563
 20
21.0870316899
 30
0.0
 11
1.5556382759
 21
21.079841369
 31
0.0
 11
1.5634223914
 21
21.082923191
 31
0.0
 11
1.5888613563
 21
21.0870316899
 31
0.0
  0
SPLINE
  5
483
100
AcDbEntity
  8
ASSI
100
AcDbSpline
 62
7
  6
CONTINUOUS
 70
0
 71
3
 72
9
 73
5
 74
3
 42
0.0000001
 43
0.0000001
 44
0.0000000001
 12
0.0561628735
 22
0.0003632576
 32
0.0
 13
0.0502346519
 23
-0.0251173259
 33
0.0
 40
0.0
 40
0.0
 40
0.0
 40
0.0
 40
0.2336306509
 40
1.0
 40
1.0
 40
1.0
 40
1.0
 10
1.5888613563
 20
21.0870316899
 30
0.0
 10
1.5932351459
 20
21.0870599793
 30
0.0
 10
1.6119654723
 20
21.0858093409
 30
0.0
 10
1.6301412285
 20
21.0795721597
 30
0.0
 10
1.6429739943
 20
21.0731557768
 30
0.0
 11
1.5888613563
 21
21.0870316899
 31
0.0
 11
1.6019568323
 21
21.0862034225
 31
0.0
 11
1.6429739943
 21
21.0731557768
 31
0.0
  0
SPLINE
  5
484
100
AcDbEntity
  8
ASSI
100
AcDbSpline
 62
253
  6
CONTINUOUS
 70
0
 71
3
 72
11
 73
7
 74
5
 42
0.0000001
 43
0.0000001
 44
0.0000000001
 12
-0.0001092739
 22
-0.1185541213
 32
0.0
 13
-0.1056633721
 23
-0.0537619142
 33
0.0
 40
0.0
 40
0.0
 40
0.0
 40
0.0
 40
0.2070713867
 40
0.435367768
 40
0.6987225536
 40
1.0
 40
1.0
 40
1.0
 40
1.0
 10
1.8681785277
 20
25.8509227996
 30
0.0
 10
1.8681709852
 20
25.8427397441
 30
0.0
 10
1.864580467
 20
25.8254122056
 30
0.0
 10
1.8496510538
 20
25.8016735934
 30
0.0
 10
1.8262972216
 20
25.7803798767
 30
0.0
 10
1.8071025167
 20
25.7687608425
 30
0.0
 10
1.7964911863
 20
25.7633617584
 30
0.0
 11
1.8681785277
 21
25.8509227996
 31
0.0
 11
1.8634633833
 21
25.8268306953
 31
0.0
 11
1.8495429621
 21
25.8036194365
 31
0.0
 11
1.8268561814
 21
25.7821692313
 31
0.0
 11
1.7964911863
 21
25.7633617584
 31
0.0
  0
SPLINE
  5
485
100
AcDbEntity
  8
ASSI
100
AcDbSpline
 62
253
  6
CONTINUOUS
 70
0
 71
3
 72
10
 73
6
 74
4
 42
0.0000001
 43
0.0000001
 44
0.0000000001
 12
0.0000004625
 22
0.052268429
 32
0.0
 13
-0.0468245066
 23
-0.0232261546
 33
0.0
 40
0.0
 40
0.0
 40
0.0
 40
0.0
 40
0.5182866506
 40
0.7415358719
 40
1.0
 40
1.0
 40
1.0
 40
1.0
 10
4.4639736438
 20
20.0029327918
 30
0.0
 10
4.4639737237
 20
20.0119628015
 30
0.0
 10
4.4601337696
 20
20.027445423
 30
0.0
 10
4.4422755345
 20
20.033195433
 30
0.0
 10
4.4338758516
 20
20.0305561783
 30
0.0
 10
4.4298416998
 20
20.0285551357
 30
0.0
 11
4.4639736438
 21
20.0029327918
 31
0.0
 11
4.4540126815
 21
20.0281250308
 31
0.0
 11
4.4429479833
 21
20.0318311547
 31
0.0
 11
4.4298416998
 21
20.0285551357
 31
0.0
  0
SPLINE
  5
486
100
AcDbEntity
  8
ASSI
100
AcDbSpline
 62
253
  6
CONTINUOUS
 70
0
 71
3
 72
9
 73
5
 74
3
 42
0.0000001
 43
0.0000001
 44
0.0000000001
 12
0.0314967225
 22
0.0389820757
 32
0.0
 13
-0.0000321995
 23
0.0501163118
 33
0.0
 40
0.0
 40
0.0
 40
0.0
 40
0.0
 40
0.2555971139
 40
1.0
 40
1.0
 40
1.0
 40
1.0
 10
4.4466045391
 20
19.6164960798
 30
0.0
 10
4.4492880296
 20
19.6198173151
 30
0.0
 10
4.4586045015
 20
19.6336743037
 30
0.0
 10
4.4639816336
 20
19.6505536213
 30
0.0
 10
4.4639736438
 20
19.662989197
 30
0.0
 11
4.4466045391
 21
19.6164960798
 31
0.0
 11
4.4537931996
 21
19.6270983761
 31
0.0
 11
4.4639736438
 21
19.662989197
 31
0.0
  0
SPLINE
  5
487
100
AcDbEntity
  8
ASSI
100
AcDbSpline
 62
253
  6
CONTINUOUS
 70
0
 71
3
 72
9
 73
5
 74
3
 42
0.0000001
 43
0.0000001
 44
0.0000000001
 12
-0.0000037956
 22
0.0355290971
 32
0.0
 13
-0.0348352978
 23
0.006987044
 33
0.0
 40
0.0
 40
0.0
 40
0.0
 40
0.0
 40
0.5571938031
 40
1.0
 40
1.0
 40
1.0
 40
1.0
 10
4.4639736438
 20
-21.6366149424
 30
0.0
 10
4.4639729388
 20
-21.6300160781
 30
0.0
 10
4.4622350481
 20
-21.6175299945
 30
0.0
 10
4.451746301
 20
-21.6091393617
 30
0.0
 10
4.4466045391
 20
-21.6081080596
 30
0.0
 11
4.4639736438
 21
-21.6366149424
 31
0.0
 11
4.4593194209
 21
-21.6173732351
 31
0.0
 11
4.4466045391
 21
-21.6081080596
 31
0.0
  0
SPLINE
  5
488
100
AcDbEntity
  8
ASSI
100
AcDbSpline
 62
253
  6
CONTINUOUS
 70
0
 71
3
 72
9
 73
5
 74
3
 42
0.0000001
 43
0.0000001
 44
0.0000000001
 12
0.0633521294
 22
0.0341790561
 32
0.0
 13
-0.0000008454
 23
0.0719840272
 33
0.0
 40
0.0
 40
0.0
 40
0.0
 40
0.0
 40
0.4876248425
 40
1.0
 40
1.0
 40
1.0
 40
1.0
 10
4.4298416998
 20
-22.0375255438
 30
0.0
 10
4.4401390572
 20
-22.0319700248
 30
0.0
 10
4.4565566159
 20
-22.0126630323
 30
0.0
 10
4.4639737882
 20
-21.988852813
 30
0.0
 10
4.4639736438
 20
-21.9765585372
 30
0.0
 11
4.4298416998
 21
-22.0375255438
 31
0.0
 11
4.4540101824
 21
-22.0120701183
 31
0.0
 11
4.4639736438
 21
-21.9765585372
 31
0.0
  0
SPLINE
  5
489
100
AcDbEntity
  8
RACCORDO
100
AcDbSpline
 62
7
  6
CONTINUOUS
 70
0
 71
3
 72
9
 73
5
 74
3
 42
0.0000001
 43
0.0000001
 44
0.0000000001
 12
0.0046738688
 22
-0.3215440555
 32
0.0
 13
0.1721516858
 23
-0.2716177861
 33
0.0
 40
0.0
 40
0.0
 40
0.0
 40
0.0
 40
0.4879013952
 40
1.0
 40
1.0
 40
1.0
 40
1.0
 10
-5.3644758473
 20
-9.5797459924
 30
0.0
 10
-5.3637157182
 20
-9.6320399235
 30
0.0
 10
-5.339870719
 20
-9.7387824768
 30
0.0
 10
-5.2917986846
 20
-9.8353996558
 30
0.0
 10
-5.2624124719
 20
-9.8817646856
 30
0.0
 11
-5.3644758473
 21
-9.5797459924
 31
0.0
 11
-5.3346805097
 21
-9.7337892821
 31
0.0
 11
-5.2624124719
 21
-9.8817646856
 31
0.0
  0
SPLINE
  5
48A
100
AcDbEntity
  8
RACCORDO
100
AcDbSpline
 62
7
  6
CONTINUOUS
 70
0
 71
3
 72
9
 73
5
 74
3
 42
0.0000001
 43
0.0000001
 44
0.0000000001
 12
-0.300538516
 22
0.1703182774
 32
0.0
 13
-0.1585736482
 23
0.3068975616
 33
0.0
 40
0.0
 40
0.0
 40
0.0
 40
0.0
 40
0.4958564874
 40
1.0
 40
1.0
 40
1.0
 40
1.0
 10
-15.4543900471
 20
10.2773609678
 30
0.0
 10
-15.5040647047
 20
10.3055121088
 30
0.0
 10
-15.5923124216
 20
10.3832827898
 30
0.0
 10
-15.6571710338
 20
10.4795946369
 30
0.0
 10
-15.6838189925
 20
10.5311681085
 30
0.0
 11
-15.4543900471
 21
10.2773609678
 31
0.0
 11
-15.5858303459
 21
10.3871970865
 31
0.0
 11
-15.6838189925
 21
10.5311681085
 31
0.0
  0
SPLINE
  5
48B
100
AcDbEntity
  8
RACCORDO
100
AcDbSpline
 62
7
  6
CONTINUOUS
 70
0
 71
3
 72
9
 73
5
 74
3
 42
0.0000001
 43
0.0000001
 44
0.0000000001
 12
0.0045368862
 22
-0.3262067359
 32
0.0
 13
0.1765363654
 23
-0.2743470969
 33
0.0
 40
0.0
 40
0.0
 40
0.0
 40
0.0
 40
0.4874675836
 40
1.0
 40
1.0
 40
1.0
 40
1.0
 10
-4.0918934387
 20
-10.1415244956
 30
0.0
 10
-4.0911562437
 20
-10.1945295653
 30
0.0
 10
-4.0664342985
 20
-10.3027862935
 30
0.0
 10
-4.0170484628
 20
-10.4004835587
 30
0.0
 10
-3.9868882594
 20
-10.4473541523
 30
0.0
 11
-4.0918934387
 21
-10.1415244956
 31
0.0
 11
-4.0611932017
 21
-10.2975636681
 31
0.0
 11
-3.9868882594
 21
-10.4473541523
 31
0.0
  0
SPLINE
  5
48C
100
AcDbEntity
  8
ASSI
100
AcDbSpline
 62
253
  6
CONTINUOUS
 70
0
 71
3
 72
9
 73
5
 74
3
 42
0.0000001
 43
0.0000001
 44
0.0000000001
 12
-0.1003296083
 22
0.0501915989
 32
0.0
 13
-0.1013241881
 23
-0.0481522151
 33
0.0
 40
0.0
 40
0.0
 40
0.0
 40
0.0
 40
0.4652843023
 40
1.0
 40
1.0
 40
1.0
 40
1.0
 10
2.2948201134
 20
21.3291940494
 30
0.0
 10
2.2792595161
 20
21.3369785038
 30
0.0
 10
2.2404983382
 20
21.3438152328
 30
0.0
 10
2.203759935
 20
21.3323872397
 30
0.0
 10
2.185700057
 20
21.3238046579
 30
0.0
 11
2.2948201134
 21
21.3291940494
 31
0.0
 11
2.2436274903
 21
21.3393864289
 31
0.0
 11
2.185700057
 21
21.3238046579
 31
0.0
  0
SPLINE
  5
48D
100
AcDbEntity
  8
ASSI
100
AcDbSpline
 62
253
  6
CONTINUOUS
 70
0
 71
3
 72
9
 73
5
 74
3
 42
0.0000001
 43
0.0000001
 44
0.0000000001
 12
-0.0996795919
 22
0.049839114
 32
0.0
 13
-0.1003890457
 23
-0.048394192
 33
0.0
 40
0.0
 40
0.0
 40
0.0
 40
0.0
 40
0.4648519224
 40
1.0
 40
1.0
 40
1.0
 40
1.0
 10
4.3967852356
 20
20.2782116864
 30
0.0
 10
4.381339819
 20
20.2859342891
 30
0.0
 10
4.3427888489
 20
20.2926356315
 30
0.0
 10
4.306349551
 20
20.2810664313
 30
0.0
 10
4.2884418827
 20
20.272433745
 30
0.0
 11
4.3967852356
 21
20.2782116864
 31
0.0
 11
4.3459551394
 21
20.2882165205
 31
0.0
 11
4.2884418827
 21
20.272433745
 31
0.0
  0
SPLINE
  5
48E
100
AcDbEntity
  8
ASSI
100
AcDbSpline
 62
253
  6
CONTINUOUS
 70
0
 71
3
 72
11
 73
7
 74
5
 42
0.0000001
 43
0.0000001
 44
0.0000000001
 12
-0.1405921882
 22
0.0703942378
 32
0.0
 13
-0.0000045769
 23
0.1572307606
 33
0.0
 40
0.0
 40
0.0
 40
0.0
 40
0.0
 40
0.2169986407
 40
0.4500358587
 40
0.7102954796
 40
1.0
 40
1.0
 40
1.0
 40
1.0
 10
-12.6181029357
 20
25.76539369
 30
0.0
 10
-12.6282723736
 20
25.770485508
 30
0.0
 10
-12.6475284187
 20
25.785116449
 30
0.0
 10
-12.6681271471
 20
25.81681617
 30
0.0
 10
-12.6803893722
 20
25.8563935067
 30
0.0
 10
-12.6828621632
 20
25.8853206643
 30
0.0
 10
-12.6828626051
 20
25.9005041516
 30
0.0
 11
-12.6181029357
 21
25.76539369
 31
0.0
 11
-12.6453995335
 21
25.7858629949
 31
0.0
 11
-12.6658691446
 21
25.8162526311
 31
0.0
 11
-12.6785532282
 21
25.8551579956
 31
0.0
 11
-12.6828626051
 21
25.9005041516
 31
0.0
  0
SPLINE
  5
48F
100
AcDbEntity
  8
ASSI
100
AcDbSpline
 62
7
  6
CONTINUOUS
 70
0
 71
3
 72
11
 73
7
 74
5
 42
0.0000001
 43
0.0000001
 44
0.0000000001
 12
0.0027510263
 22
0.0562046123
 32
0.0
 13
0.0442103812
 23
0.034813342
 33
0.0
 40
0.0
 40
0.0
 40
0.0
 40
0.0
 40
0.1190601151
 40
0.3300678012
 40
0.6269737554
 40
1.0
 40
1.0
 40
1.0
 40
1.0
 10
-11.8205940072
 20
25.3682230682
 30
0.0
 10
-11.8204848281
 20
25.3704536441
 30
0.0
 10
-11.8165504168
 20
25.3758657823
 30
0.0
 10
-11.8087174391
 20
25.384238701
 30
0.0
 10
-11.7962060865
 20
25.3952733032
 30
0.0
 10
-11.7864816354
 20
25.4031664857
 30
0.0
 10
-11.7809844245
 20
25.4074952491
 30
0.0
 11
-11.8205940072
 21
25.3682230682
 31
0.0
 11
-11.8176218114
 21
25.3742274458
 31
0.0
 11
-11.809640783
 21
25.383018941
 31
0.0
 11
-11.7972459427
 21
25.3942219412
 31
0.0
 11
-11.7809844245
 21
25.4074952491
 31
0.0
  0
SPLINE
  5
490
100
AcDbEntity
  8
ASSI
100
AcDbSpline
 62
7
  6
CONTINUOUS
 70
0
 71
3
 72
9
 73
5
 74
3
 42
0.0000001
 43
0.0000001
 44
0.0000000001
 12
0.0330198025
 22
0.0260013518
 32
0.0
 13
0.0340306727
 23
0.0246635555
 33
0.0
 40
0.0
 40
0.0
 40
0.0
 40
0.0
 40
0.2288015321
 40
1.0
 40
1.0
 40
1.0
 40
1.0
 10
-11.7809844245
 20
25.4074952491
 30
0.0
 10
-11.7784660974
 20
25.4094782989
 30
0.0
 10
-11.7674019036
 20
25.4180722729
 30
0.0
 10
-11.7561422301
 20
25.4264123805
 30
0.0
 10
-11.7473940959
 20
25.4327525459
 30
0.0
 11
-11.7809844245
 21
25.4074952491
 31
0.0
 11
-11.773392855
 21
25.4133976378
 31
0.0
 11
-11.7473940959
 21
25.4327525459
 31
0.0
  0
SPLINE
  5
491
100
AcDbEntity
  8
ASSI
100
AcDbSpline
 62
7
  6
CONTINUOUS
 70
0
 71
3
 72
11
 73
7
 74
5
 42
0.0000001
 43
0.0000001
 44
0.0000000001
 12
0.0027510263
 22
0.0562046123
 32
0.0
 13
0.0442103812
 23
0.034813342
 33
0.0
 40
0.0
 40
0.0
 40
0.0
 40
0.0
 40
0.1190601151
 40
0.3300678012
 40
0.6269737554
 40
1.0
 40
1.0
 40
1.0
 40
1.0
 10
0.7659066979
 20
19.0749727156
 30
0.0
 10
0.7660158771
 20
19.0772032915
 30
0.0
 10
0.7699502883
 20
19.0826154297
 30
0.0
 10
0.777783266
 20
19.0909883485
 30
0.0
 10
0.7902946186
 20
19.1020229506
 30
0.0
 10
0.8000190697
 20
19.1099161332
 30
0.0
 10
0.8055162806
 20
19.1142448966
 30
0.0
 11
0.7659066979
 21
19.0749727156
 31
0.0
 11
0.7688788938
 21
19.0809770933
 31
0.0
 11
0.7768599221
 21
19.0897685884
 31
0.0
 11
0.7892547625
 21
19.1009715886
 31
0.0
 11
0.8055162806
 21
19.1142448966
 31
0.0
  0
SPLINE
  5
492
100
AcDbEntity
  8
ASSI
100
AcDbSpline
 62
7
  6
CONTINUOUS
 70
0
 71
3
 72
9
 73
5
 74
3
 42
0.0000001
 43
0.0000001
 44
0.0000000001
 12
0.0330198025
 22
0.0260013518
 32
0.0
 13
0.0340306727
 23
0.0246635555
 33
0.0
 40
0.0
 40
0.0
 40
0.0
 40
0.0
 40
0.2288015321
 40
1.0
 40
1.0
 40
1.0
 40
1.0
 10
0.8055162806
 20
19.1142448966
 30
0.0
 10
0.8080346077
 20
19.1162279463
 30
0.0
 10
0.8190988015
 20
19.1248219204
 30
0.0
 10
0.830358475
 20
19.133162028
 30
0.0
 10
0.8391066092
 20
19.1395021934
 30
0.0
 11
0.8055162806
 21
19.1142448966
 31
0.0
 11
0.8131078501
 21
19.1201472852
 31
0.0
 11
0.8391066092
 21
19.1395021934
 31
0.0
  0
SPLINE
  5
493
100
AcDbEntity
  8
ASSI
100
AcDbSpline
 62
253
  6
CONTINUOUS
 70
0
 71
3
 72
9
 73
5
 74
3
 42
0.0000001
 43
0.0000001
 44
0.0000000001
 12
-0.0353602901
 22
0.0075002769
 32
0.0
 13
0.0000004791
 23
0.0361469815
 33
0.0
 40
0.0
 40
0.0
 40
0.0
 40
0.0
 40
0.4489754688
 40
1.0
 40
1.0
 40
1.0
 40
1.0
 10
-10.3200220268
 20
24.8381973941
 30
0.0
 10
-10.3253139944
 20
24.8393198743
 30
0.0
 10
-10.3360549009
 20
24.8476533075
 30
0.0
 10
-10.3380083492
 20
24.8603735506
 30
0.0
 10
-10.3380082612
 20
24.8670128418
 30
0.0
 11
-10.3200220268
 21
24.8381973941
 31
0.0
 11
-10.3331874347
 21
24.8476871771
 31
0.0
 11
-10.3380082612
 21
24.8670128418
 31
0.0
  0
SPLINE
  5
494
100
AcDbEntity
  8
ASSI
100
AcDbSpline
 62
253
  6
CONTINUOUS
 70
0
 71
3
 72
9
 73
5
 74
3
 42
0.0000001
 43
0.0000001
 44
0.0000000001
 12
-0.0000013918
 22
0.0722030778
 32
0.0
 13
0.0644807939
 23
0.0324886391
 33
0.0
 40
0.0
 40
0.0
 40
0.0
 40
0.0
 40
0.5097236387
 40
1.0
 40
1.0
 40
1.0
 40
1.0
 10
-10.3380082612
 20
25.1842816422
 30
0.0
 10
-10.3380084976
 20
25.196549514
 30
0.0
 10
-10.3302675918
 20
25.220448693
 30
0.0
 10
-10.3132014015
 20
25.2393328188
 30
0.0
 10
-10.3026635985
 20
25.2446422894
 30
0.0
 11
-10.3380082612
 21
25.1842816422
 31
0.0
 11
-10.3276941737
 21
25.2196104649
 31
0.0
 11
-10.3026635985
 21
25.2446422894
 31
0.0
  0
SPLINE
  5
495
100
AcDbEntity
  8
ASSI
100
AcDbSpline
 62
7
  6
CONTINUOUS
 70
0
 71
3
 72
9
 73
5
 74
3
 42
0.0000001
 43
0.0000001
 44
0.0000000001
 12
-0.256502206
 22
0.1303360411
 32
0.0
 13
-0.1443146273
 23
0.2489059132
 33
0.0
 40
0.0
 40
0.0
 40
0.0
 40
0.0
 40
0.4939555319
 40
1.0
 40
1.0
 40
1.0
 40
1.0
 10
-11.3536126331
 20
25.1331505345
 30
0.0
 10
-11.3958461943
 20
25.154610604
 30
0.0
 10
-11.4720147072
 20
25.2162800249
 30
0.0
 10
-11.5294866035
 20
25.2939845827
 30
0.0
 10
-11.5538298098
 20
25.3359704029
 30
0.0
 11
-11.3536126331
 21
25.1331505345
 31
0.0
 11
-11.4665320848
 21
25.2194469534
 31
0.0
 11
-11.5538298098
 21
25.3359704029
 31
0.0
  0
SPLINE
  5
496
100
AcDbEntity
  8
ASSI
100
AcDbSpline
 62
253
  6
CONTINUOUS
 70
0
 71
3
 72
18
 73
14
 74
12
 42
0.0000001
 43
0.0000001
 44
0.0000000001
 12
0.2884012388
 22
0.1428740244
 32
0.0
 13
-0.2921659193
 23
-0.1350086552
 33
0.0
 40
0.0
 40
0.0
 40
0.0
 40
0.0
 40
0.0593413286
 40
0.1107776894
 40
0.1552071775
 40
0.1956008089
 40
0.2804952052
 40
0.3331353194
 40
0.3938218159
 40
0.5364451684
 40
0.6967673704
 40
0.8571446997
 40
1.0
 40
1.0
 40
1.0
 40
1.0
 10
-2.3235639773
 20
26.5131311855
 30
0.0
 10
-2.3178592731
 20
26.515957297
 30
0.0
 10
-2.3075651117
 20
26.522033676
 30
0.0
 10
-2.2950896017
 20
26.5332869426
 30
0.0
 10
-2.2871927787
 20
26.5458763028
 30
0.0
 10
-2.2836062749
 20
26.5642777034
 30
0.0
 10
-2.2928576286
 20
26.5830520824
 30
0.0
 10
-2.3088758514
 20
26.5970292117
 30
0.0
 10
-2.3326411839
 20
26.6111260483
 30
0.0
 10
-2.3702788737
 20
26.6229366645
 30
0.0
 10
-2.4199653469
 20
26.6282230486
 30
0.0
 10
-2.4698014281
 20
26.6244437271
 30
0.0
 10
-2.5014890422
 20
26.6154788603
 30
0.0
 10
-2.5154015256
 20
26.6090499596
 30
0.0
 11
-2.3235639773
 21
26.5131311855
 31
0.0
 11
-2.3072293621
 21
26.5230284252
 31
0.0
 11
-2.2951452865
 21
26.5343438349
 31
0.0
 11
-2.287815797
 21
26.5466222582
 31
0.0
 11
-2.2854990191
 21
26.5594149068
 31
0.0
 11
-2.2960446462
 21
26.584621184
 31
0.0
 11
-2.3085200557
 21
26.5960844003
 31
0.0
 11
-2.3252262064
 21
26.6062039184
 31
0.0
 11
-2.3686977137
 21
26.6209470677
 31
0.0
 11
-2.4199810013
 21
26.6266545271
 31
0.0
 11
-2.471429953
 21
26.6224847067
 31
0.0
 11
-2.5154015256
 21
26.6090499596
 31
0.0
  0
SPLINE
  5
497
100
AcDbEntity
  8
ASSI
100
AcDbSpline
 62
253
  6
CONTINUOUS
 70
0
 71
3
 72
18
 73
14
 74
12
 42
0.0000001
 43
0.0000001
 44
0.0000000001
 12
0.2884012388
 22
0.1428740244
 32
0.0
 13
-0.2921659193
 23
-0.1350086552
 33
0.0
 40
0.0
 40
0.0
 40
0.0
 40
0.0
 40
0.0593413286
 40
0.1107776894
 40
0.1552071775
 40
0.1956008089
 40
0.2804952052
 40
0.3331353194
 40
0.3938218159
 40
0.5364451684
 40
0.6967673704
 40
0.8571446997
 40
1.0
 40
1.0
 40
1.0
 40
1.0
 10
3.2855923384
 20
23.7085530277
 30
0.0
 10
3.2912970426
 20
23.7113791391
 30
0.0
 10
3.301591204
 20
23.7174555181
 30
0.0
 10
3.314066714
 20
23.7287087847
 30
0.0
 10
3.321963537
 20
23.741298145
 30
0.0
 10
3.3255500408
 20
23.7596995456
 30
0.0
 10
3.3162986871
 20
23.7784739246
 30
0.0
 10
3.3002804642
 20
23.7924510539
 30
0.0
 10
3.2765151317
 20
23.8065478905
 30
0.0
 10
3.238877442
 20
23.8183585067
 30
0.0
 10
3.1891909687
 20
23.8236448907
 30
0.0
 10
3.1393548875
 20
23.8198655693
 30
0.0
 10
3.1076672735
 20
23.8109007025
 30
0.0
 10
3.0937547901
 20
23.8044718018
 30
0.0
 11
3.2855923384
 21
23.7085530277
 31
0.0
 11
3.3019269536
 21
23.7184502674
 31
0.0
 11
3.3140110292
 21
23.7297656771
 31
0.0
 11
3.3213405187
 21
23.7420441004
 31
0.0
 11
3.3236572965
 21
23.754836749
 31
0.0
 11
3.3131116694
 21
23.7800430262
 31
0.0
 11
3.30063626
 21
23.7915062425
 31
0.0
 11
3.2839301093
 21
23.8016257606
 31
0.0
 11
3.240458602
 21
23.8163689099
 31
0.0
 11
3.1891753144
 21
23.8220763693
 31
0.0
 11
3.1377263626
 21
23.8179065488
 31
0.0
 11
3.0937547901
 21
23.8044718018
 31
0.0
  0
SPLINE
  5
498
100
AcDbEntity
  8
ASSI
100
AcDbSpline
 62
7
  6
CONTINUOUS
 70
0
 71
3
 72
9
 73
5
 74
3
 42
0.0000001
 43
0.0000001
 44
0.0000000001
 12
-0.256502206
 22
0.1303360411
 32
0.0
 13
-0.1443146273
 23
0.2489059132
 33
0.0
 40
0.0
 40
0.0
 40
0.0
 40
0.0
 40
0.4939555319
 40
1.0
 40
1.0
 40
1.0
 40
1.0
 10
1.232888072
 20
18.839900182
 30
0.0
 10
1.1906545108
 20
18.8613602515
 30
0.0
 10
1.1144859979
 20
18.9230296723
 30
0.0
 10
1.0570141016
 20
19.0007342302
 30
0.0
 10
1.0326708953
 20
19.0427200503
 30
0.0
 11
1.232888072
 21
18.839900182
 31
0.0
 11
1.1199686203
 21
18.9261966009
 31
0.0
 11
1.0326708953
 21
19.0427200503
 31
0.0
  0
SPLINE
  5
499
100
AcDbEntity
  8
ASSI
100
AcDbSpline
 62
253
  6
CONTINUOUS
 70
0
 71
3
 72
10
 73
6
 74
4
 42
0.0000001
 43
0.0000001
 44
0.0000000001
 12
-0.0478202807
 22
0.0239112512
 32
0.0
 13
-0.0000014259
 23
-0.0534651959
 33
0.0
 40
0.0
 40
0.0
 40
0.0
 40
0.0
 40
0.2611523551
 40
0.4862749319
 40
1.0
 40
1.0
 40
1.0
 40
1.0
 10
-3.1969669816
 20
22.5287937486
 30
0.0
 10
-3.2011297746
 20
22.5308752418
 30
0.0
 10
-3.2097670309
 20
22.533626251
 30
0.0
 10
-3.2281337714
 20
22.5281068142
 30
0.0
 10
-3.2323166917
 20
22.512329521
 30
0.0
 10
-3.2323169359
 20
22.5031740506
 30
0.0
 11
-3.1969669816
 21
22.5287937486
 31
0.0
 11
-3.2104917985
 21
22.5322625323
 31
0.0
 11
-3.2219615809
 21
22.5286135942
 31
0.0
 11
-3.2323169359
 21
22.5031740506
 31
0.0
  0
SPLINE
  5
49A
100
AcDbEntity
  8
ASSI
100
AcDbSpline
 62
253
  6
CONTINUOUS
 70
0
 71
3
 72
9
 73
5
 74
3
 42
0.0000001
 43
0.0000001
 44
0.0000000001
 12
0.0000004879
 22
0.0727379768
 32
0.0
 13
-0.0650592676
 23
0.0325285253
 33
0.0
 40
0.0
 40
0.0
 40
0.0
 40
0.0
 40
0.5121953554
 40
1.0
 40
1.0
 40
1.0
 40
1.0
 10
-0.9416685387
 20
21.357849852
 30
0.0
 10
-0.9416684554
 20
21.3702685366
 30
0.0
 10
-0.9493798968
 20
21.394324485
 30
0.0
 10
-0.9664397554
 20
21.4135303158
 30
0.0
 10
-0.977018493
 20
21.4188195043
 30
0.0
 11
-0.9416685387
 21
21.357849852
 31
0.0
 11
-0.9520204863
 21
21.393638827
 31
0.0
 11
-0.977018493
 21
21.4188195043
 31
0.0
  0
SPLINE
  5
49B
100
AcDbEntity
  8
ASSI
100
AcDbSpline
 62
253
  6
CONTINUOUS
 70
0
 71
3
 72
10
 73
6
 74
4
 42
0.0000001
 43
0.0000001
 44
0.0000000001
 12
-0.0478202807
 22
0.0239112512
 32
0.0
 13
-0.0000014259
 23
-0.0534651959
 33
0.0
 40
0.0
 40
0.0
 40
0.0
 40
0.0
 40
0.2611523551
 40
0.4862749319
 40
1.0
 40
1.0
 40
1.0
 40
1.0
 10
-6.9092775828
 20
24.3849490492
 30
0.0
 10
-6.9134403758
 20
24.3870305424
 30
0.0
 10
-6.9220776321
 20
24.3897815516
 30
0.0
 10
-6.9404443727
 20
24.3842621148
 30
0.0
 10
-6.9446272929
 20
24.3684848217
 30
0.0
 10
-6.9446275371
 20
24.3593293512
 30
0.0
 11
-6.9092775828
 21
24.3849490492
 31
0.0
 11
-6.9228023997
 21
24.3884178329
 31
0.0
 11
-6.9342721821
 21
24.3847688948
 31
0.0
 11
-6.9446275371
 21
24.3593293512
 31
0.0
  0
SPLINE
  5
49C
100
AcDbEntity
  8
ASSI
100
AcDbSpline
 62
253
  6
CONTINUOUS
 70
0
 71
3
 72
9
 73
5
 74
3
 42
0.0000001
 43
0.0000001
 44
0.0000000001
 12
0.0000004879
 22
0.0727379768
 32
0.0
 13
-0.0650592676
 23
0.0325285253
 33
0.0
 40
0.0
 40
0.0
 40
0.0
 40
0.0
 40
0.5121953554
 40
1.0
 40
1.0
 40
1.0
 40
1.0
 10
-4.65397914
 20
23.2140051526
 30
0.0
 10
-4.6539790567
 20
23.2264238372
 30
0.0
 10
-4.661690498
 20
23.2504797856
 30
0.0
 10
-4.6787503566
 20
23.2696856164
 30
0.0
 10
-4.6893290942
 20
23.274974805
 30
0.0
 11
-4.65397914
 21
23.2140051526
 31
0.0
 11
-4.6643310875
 21
23.2497941276
 31
0.0
 11
-4.6893290942
 21
23.274974805
 31
0.0
  0
SPLINE
  5
49D
100
AcDbEntity
  8
ASSI
100
AcDbSpline
 62
7
  6
CONTINUOUS
 70
0
 71
3
 72
10
 73
6
 74
4
 42
0.0000001
 43
0.0000001
 44
0.0000000001
 12
0.170111722
 22
0.345119547
 32
0.0
 13
-0.1206318574
 23
0.3653675611
 33
0.0
 40
0.0
 40
0.0
 40
0.0
 40
0.0
 40
0.4539933938
 40
0.7184177455
 40
1.0
 40
1.0
 40
1.0
 40
1.0
 10
-0.442969471
 20
20.8015486237
 30
0.0
 10
-0.4172262717
 20
20.8537759552
 30
0.0
 10
-0.4020274234
 20
20.9489018658
 30
0.0
 10
-0.4143003656
 20
21.0764697137
 30
0.0
 10
-0.4316468743
 20
21.1447466716
 30
0.0
 10
-0.442969471
 20
21.1790403455
 30
0.0
 11
-0.442969471
 21
20.8015486237
 31
0.0
 11
-0.4076074762
 21
20.9726134871
 31
0.0
 11
-0.4165865036
 21
21.0739582137
 31
0.0
 11
-0.442969471
 21
21.1790403455
 31
0.0
  0
SPLINE
  5
49E
100
AcDbEntity
  8
ASSI
100
AcDbSpline
 62
7
  6
CONTINUOUS
 70
0
 71
3
 72
11
 73
7
 74
5
 42
0.0000001
 43
0.0000001
 44
0.0000000001
 12
0.2575099286
 22
0.1558388673
 32
0.0
 13
0.0
 23
0.300993548
 33
0.0
 40
0.0
 40
0.0
 40
0.0
 40
0.0
 40
0.2175208227
 40
0.4525013529
 40
0.7128527964
 40
1.0
 40
1.0
 40
1.0
 40
1.0
 10
4.1414752982
 20
-20.6823489234
 30
0.0
 10
4.1601465554
 20
-20.6710495238
 30
0.0
 10
4.1950491286
 20
-20.6405249708
 30
0.0
 10
4.2323438829
 20
-20.5784385742
 30
0.0
 10
4.2547720663
 20
-20.5025047343
 30
0.0
 10
4.2592906238
 20
-20.4473908885
 30
0.0
 10
4.2592906238
 20
-20.4185810699
 30
0.0
 11
4.1414752982
 21
-20.6823489234
 31
0.0
 11
4.1911076725
 21
-20.6396492992
 31
0.0
 11
4.2283796985
 21
-20.5795394598
 31
0.0
 11
4.2514771816
 21
-20.5046566234
 31
0.0
 11
4.2592906238
 21
-20.4185810699
 31
0.0
  0
SPLINE
  5
49F
100
AcDbEntity
  8
ASSI
100
AcDbSpline
 62
253
  6
CONTINUOUS
 70
0
 71
3
 72
11
 73
7
 74
5
 42
0.0000001
 43
0.0000001
 44
0.0000000001
 12
-0.4050136794
 22
0.2024841855
 32
0.0
 13
-0.4094659413
 23
-0.1933224478
 33
0.0
 40
0.0
 40
0.0
 40
0.0
 40
0.0
 40
0.2282020407
 40
0.4663331274
 40
0.7222036235
 40
1.0
 40
1.0
 40
1.0
 40
1.0
 10
6.3206104232
 20
24.087463448
 30
0.0
 10
6.2898021071
 20
24.1028658827
 30
0.0
 10
6.2221632784
 20
24.1257132998
 30
0.0
 10
6.1123123129
 20
24.1326801434
 30
0.0
 10
5.9965926165
 20
24.1131452565
 30
0.0
 10
5.9208072588
 20
24.0844246581
 30
0.0
 10
5.8828912072
 20
24.0665232329
 30
0.0
 11
6.3206104232
 21
24.087463448
 31
0.0
 11
6.2228148871
 21
24.1208328821
 31
0.0
 11
6.1152596684
 21
24.1284962448
 31
0.0
 11
6.0008524912
 21
24.1102030611
 31
0.0
 11
5.8828912072
 21
24.0665232329
 31
0.0
  0
SPLINE
  5
4A0
100
AcDbEntity
  8
ASSI
100
AcDbSpline
 62
253
  6
CONTINUOUS
 70
0
 71
3
 72
11
 73
7
 74
5
 42
0.0000001
 43
0.0000001
 44
0.0000000001
 12
0.0075213618
 22
-0.2148850632
 32
0.0
 13
0.1862299081
 23
-0.1074736367
 33
0.0
 40
0.0
 40
0.0
 40
0.0
 40
0.0
 40
0.2161856707
 40
0.448327406
 40
0.708093892
 40
1.0
 40
1.0
 40
1.0
 40
1.0
 10
-16.9598958071
 20
-14.6920068158
 30
0.0
 10
-16.9593538035
 20
-14.7074918396
 30
0.0
 10
-16.9526285811
 20
-14.7396152236
 30
0.0
 10
-16.9269921461
 20
-14.7841776272
 30
0.0
 10
-16.8873176485
 20
-14.8245973264
 30
0.0
 10
-16.8544521285
 20
-14.8469924858
 30
0.0
 10
-16.8363315793
 20
-14.8574498895
 30
0.0
 11
-16.9598958071
 21
-14.6920068158
 31
0.0
 11
-16.950657489
 21
-14.7375630563
 31
0.0
 11
-16.9264133856
 21
-14.7811940625
 31
0.0
 11
-16.8878488652
 21
-14.8215977819
 31
0.0
 11
-16.8363315793
 21
-14.8574498895
 31
0.0
  0
SPLINE
  5
4A1
100
AcDbEntity
  8
ASSI
100
AcDbSpline
 62
253
  6
CONTINUOUS
 70
0
 71
3
 72
11
 73
7
 74
5
 42
0.0000001
 43
0.0000001
 44
0.0000000001
 12
-0.0069088798
 22
-0.2135331846
 32
0.0
 13
0.1858848867
 23
-0.1053136384
 33
0.0
 40
0.0
 40
0.0
 40
0.0
 40
0.0
 40
0.2056069763
 40
0.4328959395
 40
0.6962131395
 40
1.0
 40
1.0
 40
1.0
 40
1.0
 10
-16.9599145189
 20
21.4655185909
 30
0.0
 10
-16.9603880236
 20
21.4508839534
 30
0.0
 10
-16.9550159083
 20
21.4196316797
 30
0.0
 10
-16.9296203536
 20
21.3761624632
 30
0.0
 10
-16.8889931843
 20
21.3361327104
 30
0.0
 10
-16.8551451649
 20
21.3137061722
 30
0.0
 10
-16.8363220362
 20
21.3030418724
 30
0.0
 11
-16.9599145189
 21
21.4655185909
 31
0.0
 11
-16.9529347271
 21
21.4221497785
 31
0.0
 11
-16.9293902621
 21
21.3796804061
 31
0.0
 11
-16.890018366
 21
21.3394978919
 31
0.0
 11
-16.8363220362
 21
21.3030418724
 31
0.0
  0
SPLINE
  5
4A2
100
AcDbEntity
  8
ASSI
100
AcDbSpline
 62
253
  6
CONTINUOUS
 70
0
 71
3
 72
11
 73
7
 74
5
 42
0.0000001
 43
0.0000001
 44
0.0000000001
 12
0.2112905372
 22
0.1251305382
 32
0.0
 13
0.2219907159
 23
-0.1049831642
 33
0.0
 40
0.0
 40
0.0
 40
0.0
 40
0.0
 40
0.223697647
 40
0.4596515511
 40
0.7172199347
 40
1.0
 40
1.0
 40
1.0
 40
1.0
 10
-16.2567777204
 20
22.7000589197
 30
0.0
 10
-16.2410226551
 20
22.7093893887
 30
0.0
 10
-16.2054581516
 20
22.7235909774
 30
0.0
 10
-16.1462956713
 20
22.7288445871
 30
0.0
 10
-16.0830421708
 20
22.7186644988
 30
0.0
 10
-16.0413957161
 20
22.7029439615
 30
0.0
 10
-16.0204708664
 20
22.6930482462
 30
0.0
 11
-16.2567777204
 21
22.7000589197
 31
0.0
 11
-16.2058495053
 21
22.7206461615
 31
0.0
 11
-16.1481923459
 21
22.7263805921
 31
0.0
 11
-16.0856375223
 21
22.7170331916
 31
0.0
 11
-16.0204708664
 21
22.6930482462
 31
0.0
  0
SPLINE
  5
4A3
100
AcDbEntity
  8
ASSI
100
AcDbSpline
 62
253
  6
CONTINUOUS
 70
0
 71
3
 72
11
 73
7
 74
5
 42
0.0000001
 43
0.0000001
 44
0.0000000001
 12
-0.55262749
 22
0.3637860026
 32
0.0
 13
-0.0246839061
 23
0.6611566404
 33
0.0
 40
0.0
 40
0.0
 40
0.0
 40
0.0
 40
0.2207351984
 40
0.456964294
 40
0.7158815231
 40
1.0
 40
1.0
 40
1.0
 40
1.0
 10
-16.5680554687
 20
-15.4369564181
 30
0.0
 10
-16.6087169149
 20
-15.4101896263
 30
0.0
 10
-16.6844292003
 20
-15.3410071435
 30
0.0
 10
-16.7673254468
 20
-15.2046559137
 30
0.0
 10
-16.8201486435
 20
-15.0397540672
 30
0.0
 10
-16.8339938634
 20
-14.9200654064
 30
0.0
 10
-16.8363315813
 20
-14.8574498005
 30
0.0
 11
-16.5680554687
 21
-15.4369564181
 31
0.0
 11
-16.676542619
 21
-15.3391869578
 31
0.0
 11
-16.7592873964
 21
-15.2065940438
 31
0.0
 11
-16.8132196269
 21
-15.0440012647
 31
0.0
 11
-16.8363315813
 21
-14.8574498005
 31
0.0
  0
SPLINE
  5
4A4
100
AcDbEntity
  8
RACCORDO
100
AcDbSpline
 62
7
  6
CONTINUOUS
 70
0
 71
3
 72
11
 73
7
 74
5
 42
0.0000001
 43
0.0000001
 44
0.0000000001
 12
-0.4462568644
 22
-0.2039152419
 32
0.0
 13
-0.3932251128
 23
-0.293429081
 33
0.0
 40
0.0
 40
0.0
 40
0.0
 40
0.0
 40
0.2777921732
 40
0.5613275895
 40
0.8056928483
 40
1.0
 40
1.0
 40
1.0
 40
1.0
 10
-15.2843243357
 20
-4.3383372134
 30
0.0
 10
-15.3256465571
 20
-4.3572192328
 30
0.0
 10
-15.4072421068
 20
-4.3994882495
 30
0.0
 10
-15.521500756
 20
-4.4651601919
 30
0.0
 10
-15.6215262125
 20
-4.5280254868
 30
0.0
 10
-15.680658003
 20
-4.5687297492
 30
0.0
 10
-15.7061268202
 20
-4.5877348722
 30
0.0
 11
-15.2843243357
 21
-4.3383372134
 31
0.0
 11
-15.405919556
 21
-4.3999092212
 31
0.0
 11
-15.5265508677
 21
-4.4691960213
 31
0.0
 11
-15.627955248
 21
-4.5331647022
 31
0.0
 11
-15.7061268202
 21
-4.5877348722
 31
0.0
  0
SPLINE
  5
4A5
100
AcDbEntity
  8
RACCORDO
100
AcDbSpline
 62
7
  6
CONTINUOUS
 70
0
 71
3
 72
11
 73
7
 74
5
 42
0.0000001
 43
0.0000001
 44
0.0000000001
 12
-0.445635733
 22
-0.2095140426
 32
0.0
 13
-0.3954691207
 23
-0.2934135566
 33
0.0
 40
0.0
 40
0.0
 40
0.0
 40
0.0
 40
0.2759845591
 40
0.5592577129
 40
0.8043456362
 40
1.0
 40
1.0
 40
1.0
 40
1.0
 10
-14.1508800593
 20
-4.973952539
 30
0.0
 10
-14.1918762531
 20
-4.9932267526
 30
0.0
 10
-14.27308877
 20
-5.0361984219
 30
0.0
 10
-14.3871745171
 20
-5.102681166
 30
0.0
 10
-14.4875996005
 20
-5.1662720391
 30
0.0
 10
-14.5472065688
 20
-5.2073358799
 30
0.0
 10
-14.5729983219
 20
-5.2264717608
 30
0.0
 11
-14.1508800593
 21
-4.973952539
 31
0.0
 11
-14.2715702793
 21
-5.0364306929
 31
0.0
 11
-14.3921150712
 21
-5.106623496
 31
0.0
 11
-14.4939842837
 21
-5.1713414609
 31
0.0
 11
-14.5729983219
 21
-5.2264717608
 31
0.0
  0
SPLINE
  5
4A6
100
AcDbEntity
  8
RACCORDO
100
AcDbSpline
 62
7
  6
CONTINUOUS
 70
0
 71
3
 72
11
 73
7
 74
5
 42
0.0000001
 43
0.0000001
 44
0.0000000001
 12
0.3958022722
 22
0.2939456038
 32
0.0
 13
0.445423803
 23
0.2113317118
 33
0.0
 40
0.0
 40
0.0
 40
0.0
 40
0.0
 40
0.1954117226
 40
0.4405138543
 40
0.7240166979
 40
1.0
 40
1.0
 40
1.0
 40
1.0
 10
-14.5489013729
 20
-6.6444794209
 30
0.0
 10
-14.523119905
 20
-6.6253326153
 30
0.0
 10
-14.46351161
 20
-6.5841873759
 30
0.0
 10
-14.3630670029
 20
-6.5203649449
 30
0.0
 10
-14.2489567044
 20
-6.4535357188
 30
0.0
 10
-14.1677415505
 20
-6.4102614096
 30
0.0
 10
-14.1267650399
 20
-6.3908200684
 30
0.0
 11
-14.5489013729
 21
-6.6444794209
 31
0.0
 11
-14.4699392784
 21
-6.5892838965
 31
0.0
 11
-14.3680430253
 21
-6.5243284954
 31
0.0
 11
-14.2474110401
 21
-6.4537319448
 31
0.0
 11
-14.1267650399
 21
-6.3908200684
 31
0.0
  0
SPLINE
  5
4A7
100
AcDbEntity
  8
RACCORDO
100
AcDbSpline
 62
253
  6
CONTINUOUS
 70
0
 71
3
 72
9
 73
5
 74
3
 42
0.0000001
 43
0.0000001
 44
0.0000000001
 12
-0.0852268657
 22
0.0418309076
 32
0.0
 13
-0.0824587203
 23
-0.0470531924
 33
0.0
 40
0.0
 40
0.0
 40
0.0
 40
0.0
 40
0.5425167707
 40
1.0
 40
1.0
 40
1.0
 40
1.0
 10
-1.8328137857
 20
15.5640392561
 30
0.0
 10
-1.8482261203
 20
15.5716039124
 30
0.0
 10
-1.8791896072
 20
15.5818620786
 30
0.0
 10
-1.9122382291
 20
15.5754944655
 30
0.0
 10
-1.924812723
 20
15.5683191167
 30
0.0
 11
-1.8328137857
 21
15.5640392561
 31
0.0
 11
-1.8824362483
 21
15.5778409935
 31
0.0
 11
-1.924812723
 21
15.5683191167
 31
0.0
  0
SPLINE
  5
4A8
100
AcDbEntity
  8
RACCORDO
100
AcDbSpline
 62
253
  6
CONTINUOUS
 70
0
 71
3
 72
11
 73
7
 74
5
 42
0.0000001
 43
0.0000001
 44
0.0000000001
 12
-0.0967364836
 22
0.0429434063
 32
0.0
 13
0.0036349252
 23
0.1057774585
 33
0.0
 40
0.0
 40
0.0
 40
0.0
 40
0.0
 40
0.3121452026
 40
0.5797732391
 40
0.803780086
 40
1.0
 40
1.0
 40
1.0
 40
1.0
 10
-2.6221826052
 20
14.1625523685
 30
0.0
 10
-2.6322478816
 20
14.1670205613
 30
0.0
 10
-2.6504069949
 20
14.1766657968
 30
0.0
 10
-2.6726550414
 20
14.1946290636
 30
0.0
 10
-2.6868955243
 20
14.2148165544
 30
0.0
 10
-2.690116566
 20
14.2298734161
 30
0.0
 10
-2.6898788178
 20
14.2367919641
 30
0.0
 11
-2.6221826052
 21
14.1625523685
 31
0.0
 11
-2.6511892934
 21
14.178366377
 31
0.0
 11
-2.6728460557
 21
14.1966237384
 31
0.0
 11
-2.6859139604
 21
14.2164060529
 31
0.0
 11
-2.6898788178
 21
14.2367919641
 31
0.0
  0
SPLINE
  5
4A9
100
AcDbEntity
  8
RACCORDO
100
AcDbSpline
 62
253
  6
CONTINUOUS
 70
0
 71
3
 72
11
 73
7
 74
5
 42
0.0000001
 43
0.0000001
 44
0.0000000001
 12
-0.0979367532
 22
0.0429005897
 32
0.0
 13
0.0028384638
 23
0.1068831668
 33
0.0
 40
0.0
 40
0.0
 40
0.0
 40
0.0
 40
0.3111798521
 40
0.5785305149
 40
0.8029300297
 40
1.0
 40
1.0
 40
1.0
 40
1.0
 10
-2.7377173145
 20
10.4851919345
 30
0.0
 10
-2.7478759626
 20
10.4896418675
 30
0.0
 10
-2.7662235492
 20
10.4992876984
 30
0.0
 10
-2.788735345
 20
10.5173442218
 30
0.0
 10
-2.80319731
 20
10.5377243487
 30
0.0
 10
-2.8065401958
 20
10.5529533853
 30
0.0
 10
-2.8063537372
 20
10.5599745394
 30
0.0
 11
-2.7377173145
 21
10.4851919345
 31
0.0
 11
-2.7669980964
 21
10.5009918121
 31
0.0
 11
-2.7889160379
 21
10.5193419253
 31
0.0
 11
-2.802210305
 21
10.5393150544
 31
0.0
 11
-2.8063537372
 21
10.5599745394
 31
0.0
  0
SPLINE
  5
4AA
100
AcDbEntity
  8
RACCORDO
100
AcDbSpline
 62
253
  6
CONTINUOUS
 70
0
 71
3
 72
11
 73
7
 74
5
 42
0.0000001
 43
0.0000001
 44
0.0000000001
 12
0.0071499768
 22
0.2844401679
 32
0.0
 13
0.2465873461
 23
0.1419577825
 33
0.0
 40
0.0
 40
0.0
 40
0.0
 40
0.0
 40
0.2507679519
 40
0.5174627016
 40
0.7746916747
 40
1.0
 40
1.0
 40
1.0
 40
1.0
 10
-3.8263967409
 20
9.7174099384
 30
0.0
 10
-3.8257990792
 20
9.7411860979
 30
0.0
 10
-3.817361108
 20
9.7901425778
 30
0.0
 10
-3.7892528291
 20
9.8585909529
 30
0.0
 10
-3.7487192173
 20
9.9175789276
 30
0.0
 10
-3.7135894148
 20
9.9482628485
 30
0.0
 10
-3.6950700208
 20
9.958924272
 30
0.0
 11
-3.8263967409
 21
9.7174099384
 31
0.0
 11
-3.8151931464
 21
9.7878758599
 31
0.0
 11
-3.7864906018
 21
9.8581207339
 31
0.0
 11
-3.7444278318
 21
9.9180156956
 31
0.0
 11
-3.6950700208
 21
9.958924272
 31
0.0
  0
SPLINE
  5
4AB
100
AcDbEntity
  8
RACCORDO
100
AcDbSpline
 62
253
  6
CONTINUOUS
 70
0
 71
3
 72
9
 73
5
 74
3
 42
0.0000001
 43
0.0000001
 44
0.0000000001
 12
0.0057384472
 22
0.196119754
 32
0.0
 13
0.1318038207
 23
0.1453397418
 33
0.0
 40
0.0
 40
0.0
 40
0.0
 40
0.0
 40
0.4874514583
 40
1.0
 40
1.0
 40
1.0
 40
1.0
 10
-15.5945376435
 20
15.6014835156
 30
0.0
 10
-15.5936052387
 20
15.6333498023
 30
0.0
 10
-15.5771886867
 20
15.6983858225
 30
0.0
 10
-15.5415289244
 20
15.7546662197
 30
0.0
 10
-15.5190103057
 20
15.779497444
 30
0.0
 11
-15.5945376435
 21
15.6014835156
 31
0.0
 11
-15.5730283358
 21
15.6946731939
 31
0.0
 11
-15.5190103057
 21
15.779497444
 31
0.0
  0
SPLINE
  5
4AC
100
AcDbEntity
  8
RACCORDO
100
AcDbSpline
 62
253
  6
CONTINUOUS
 70
0
 71
3
 72
9
 73
5
 74
3
 42
0.0000001
 43
0.0000001
 44
0.0000000001
 12
0.0424511228
 22
0.0468107464
 32
0.0
 13
0.052978084
 23
0.0344480249
 33
0.0
 40
0.0
 40
0.0
 40
0.0
 40
0.0
 40
0.2587827645
 40
1.0
 40
1.0
 40
1.0
 40
1.0
 10
-15.5190103057
 20
15.779497444
 30
0.0
 10
-15.5153484328
 20
15.7835353821
 30
0.0
 10
-15.500750979
 20
15.7987216041
 30
0.0
 10
-15.484296043
 20
15.8121693162
 30
0.0
 10
-15.47120662
 20
15.8206804728
 30
0.0
 11
-15.5190103057
 21
15.779497444
 31
0.0
 11
-15.507668901
 21
15.7912788217
 31
0.0
 11
-15.47120662
 21
15.8206804728
 31
0.0
  0
SPLINE
  5
4AD
100
AcDbEntity
  8
RACCORDO
100
AcDbSpline
 62
253
  6
CONTINUOUS
 70
0
 71
3
 72
11
 73
7
 74
5
 42
0.0000001
 43
0.0000001
 44
0.0000000001
 12
0.2597890049
 22
-0.1483504593
 32
0.0
 13
0.272972974
 23
0.1224089102
 33
0.0
 40
0.0
 40
0.0
 40
0.0
 40
0.0
 40
0.2309008094
 40
0.4961601714
 40
0.7634940608
 40
1.0
 40
1.0
 40
1.0
 40
1.0
 10
-16.4863368059
 20
17.3594995988
 30
0.0
 10
-16.4663416421
 20
17.3480815184
 30
0.0
 10
-16.4190494603
 20
17.3312417808
 30
0.0
 10
-16.3431995946
 20
17.3211303676
 30
0.0
 10
-16.2662142203
 20
17.325163256
 30
0.0
 10
-16.2169698778
 20
17.3380639842
 30
0.0
 10
-16.1954499679
 20
17.347714129
 30
0.0
 11
-16.4863368059
 21
17.3594995988
 31
0.0
 11
-16.4218914155
 21
17.3346318711
 31
0.0
 11
-16.3433062894
 21
17.32360025
 31
0.0
 11
-16.2634631588
 21
17.328213047
 31
0.0
 11
-16.1954499679
 21
17.347714129
 31
0.0
  0
SPLINE
  5
4AE
100
AcDbEntity
  8
RACCORDO
100
AcDbSpline
 62
253
  6
CONTINUOUS
 70
0
 71
3
 72
11
 73
7
 74
5
 42
0.0000001
 43
0.0000001
 44
0.0000000001
 12
0.2596583991
 22
-0.1463306026
 32
0.0
 13
0.2730517838
 23
0.1194899695
 33
0.0
 40
0.0
 40
0.0
 40
0.0
 40
0.0
 40
0.2316154934
 40
0.497149145
 40
0.7642210089
 40
1.0
 40
1.0
 40
1.0
 40
1.0
 10
-16.3669835206
 20
21.0349619928
 30
0.0
 10
-16.3469365512
 20
21.0236645145
 30
0.0
 10
-16.2997301239
 20
21.0069359273
 30
0.0
 10
-16.2241271764
 20
20.9966581349
 30
0.0
 10
-16.14749153
 20
21.0002579804
 30
0.0
 10
-16.0984371909
 20
21.0126928226
 30
0.0
 10
-16.0769772329
 20
21.0220838974
 30
0.0
 11
-16.3669835206
 21
21.0349619928
 31
0.0
 11
-16.3025219908
 21
21.0102569902
 31
0.0
 11
-16.2241723905
 21
20.9990794185
 31
0.0
 11
-16.1446802372
 21
21.0032477097
 31
0.0
 11
-16.0769772329
 21
21.0220838974
 31
0.0
  0
SPLINE
  5
4AF
100
AcDbEntity
  8
RACCORDO
100
AcDbSpline
 62
253
  6
CONTINUOUS
 70
0
 71
3
 72
11
 73
7
 74
5
 42
0.0000001
 43
0.0000001
 44
0.0000000001
 12
0.2608400918
 22
-0.1328570274
 32
0.0
 13
0.0128955347
 23
-0.2924418718
 33
0.0
 40
0.0
 40
0.0
 40
0.0
 40
0.0
 40
0.2305001887
 40
0.4905791889
 40
0.755789634
 40
1.0
 40
1.0
 40
1.0
 40
1.0
 10
-15.5482692731
 20
22.4217669871
 30
0.0
 10
-15.5282280429
 20
22.4115591305
 30
0.0
 10
-15.4897791005
 20
22.3815681441
 30
0.0
 10
-15.444341645
 20
22.322776706
 30
0.0
 10
-15.4121182917
 20
22.2543358942
 30
0.0
 10
-15.4017357394
 20
22.2049807228
 30
0.0
 10
-15.4006859983
 20
22.1811749439
 30
0.0
 11
-15.5482692731
 21
22.4217669871
 31
0.0
 11
-15.4940744109
 21
22.3815727326
 31
0.0
 11
-15.4469993398
 21
22.3217395994
 31
0.0
 11
-15.4142066966
 21
22.2513714131
 31
0.0
 11
-15.4006859983
 21
22.1811749439
 31
0.0
  0
SPLINE
  5
4B0
100
AcDbEntity
  8
RACCORDO
100
AcDbSpline
 62
253
  6
CONTINUOUS
 70
0
 71
3
 72
9
 73
5
 74
3
 42
0.0000001
 43
0.0000001
 44
0.0000000001
 12
-0.1563240799
 22
0.4364159546
 32
0.0
 13
-0.0477794738
 23
0.4611000166
 33
0.0
 40
0.0
 40
0.0
 40
0.0
 40
0.0
 40
0.2550460481
 40
1.0
 40
1.0
 40
1.0
 40
1.0
 10
-16.0832456965
 20
16.6819129176
 30
0.0
 10
-16.0965356428
 20
16.7190149724
 30
0.0
 10
-16.1444326041
 20
16.8659377673
 30
0.0
 10
-16.1756941354
 20
17.0184661827
 30
0.0
 10
-16.187558638
 20
17.1329656092
 30
0.0
 11
-16.0832456965
 21
16.6819129176
 31
0.0
 11
-16.1198853947
 21
16.794323766
 31
0.0
 11
-16.187558638
 21
17.1329656092
 31
0.0
  0
SPLINE
  5
4B1
100
AcDbEntity
  8
RACCORDO
100
AcDbSpline
 62
7
  6
CONTINUOUS
 70
0
 71
3
 72
14
 73
10
 74
8
 42
0.0000001
 43
0.0000001
 44
0.0000000001
 12
0.0022559054
 22
0.1366770796
 32
0.0
 13
0.1115823943
 23
0.0789625385
 33
0.0
 40
0.0
 40
0.0
 40
0.0
 40
0.0
 40
0.035164705
 40
0.1005260455
 40
0.1940104609
 40
0.3129084996
 40
0.4547788967
 40
0.6176676407
 40
1.0
 40
1.0
 40
1.0
 40
1.0
 10
-4.0707595906
 20
4.5859206558
 30
0.0
 10
-4.0707331478
 20
4.5875227255
 30
0.0
 10
-4.0677090996
 20
4.5915125805
 30
0.0
 10
-4.0618854125
 20
4.5977955913
 30
0.0
 10
-4.052339556
 20
4.606319624
 30
0.0
 10
-4.0399560134
 20
4.6165941053
 30
0.0
 10
-4.0247455088
 20
4.6285134974
 30
0.0
 10
-3.9997539761
 20
4.6473588703
 30
0.0
 10
-3.9795853983
 20
4.6618758615
 30
0.0
 10
-3.9653648783
 20
4.6719391727
 30
0.0
 11
-4.0707595906
 21
4.5859206558
 31
0.0
 11
-4.0686182796
 21
4.5902242272
 31
0.0
 11
-4.0626125508
 21
4.5968392515
 31
0.0
 11
-4.053188829
 21
4.6054702533
 31
0.0
 11
-4.0407077651
 21
4.6158807375
 31
0.0
 11
-4.0254690826
 21
4.6278754789
 31
0.0
 11
-4.007705679
 21
4.6413010037
 31
0.0
 11
-3.9653648783
 21
4.6719391727
 31
0.0
  0
SPLINE
  5
4B2
100
AcDbEntity
  8
RACCORDO
100
AcDbSpline
 62
253
  6
CONTINUOUS
 70
0
 71
3
 72
10
 73
6
 74
4
 42
0.0000001
 43
0.0000001
 44
0.0000000001
 12
-0.5389717159
 22
-0.2800486191
 32
0.0
 13
-0.5570329769
 23
0.2421404598
 33
0.0
 40
0.0
 40
0.0
 40
0.0
 40
0.0
 40
0.2334634669
 40
0.4746084861
 40
1.0
 40
1.0
 40
1.0
 40
1.0
 10
-3.1051555634
 20
9.95246088
 30
0.0
 10
-3.1470989652
 20
9.9306671729
 30
0.0
 10
-3.2385640975
 20
9.8973254121
 30
0.0
 10
-3.4416150611
 20
9.8769265466
 30
0.0
 10
-3.5975481697
 20
9.9165316793
 30
0.0
 10
-3.695101636
 20
9.9589378602
 30
0.0
 11
-3.1051555634
 21
9.95246088
 31
0.0
 11
-3.238270507
 21
9.9035901993
 31
0.0
 11
-3.3839269526
 21
9.8881919548
 31
0.0
 11
-3.695101636
 21
9.9589378602
 31
0.0
  0
LINE
  5
4B3
100
AcDbEntity
  8
RACCORDO
100
AcDbLine
 62
253
  6
CONTINUOUS
 10
-5.345393721
 20
-10.7853942445
 11
-5.4262959999
 21
-10.7486802645
  0
LINE
  5
4B4
100
AcDbEntity
  8
RACCORDO
100
AcDbLine
 62
253
  6
CONTINUOUS
 10
-11.045246961
 20
-8.0329689874
 11
-11.0602252934
 21
-8.0252655961
  0
LINE
  5
4B5
100
AcDbEntity
  8
RACCORDO
100
AcDbLine
 62
253
  6
CONTINUOUS
 10
-13.9876065171
 20
-6.467551575
 11
-14.1267657367
 21
-6.3908204021
  0
SPLINE
  5
4B6
100
AcDbEntity
  8
RACCORDO
100
AcDbSpline
 62
253
  6
CONTINUOUS
 70
0
 71
3
 72
13
 73
9
 74
7
 42
0.0000001
 43
0.0000001
 44
0.0000000001
 12
-1.78615777
 22
1.0088542944
 32
0.0
 13
0.0590123051
 23
2.0505277649
 33
0.0
 40
0.0
 40
0.0
 40
0.0
 40
0.0
 40
0.1074805319
 40
0.2249827748
 40
0.3507460376
 40
0.4821880874
 40
0.749049205
 40
1.0
 40
1.0
 40
1.0
 40
1.0
 10
-15.594541149
 20
15.6014820998
 30
0.0
 10
-15.6585335448
 20
15.6376261652
 30
0.0
 10
-15.7847076228
 20
15.7274182376
 30
0.0
 10
-15.9554721358
 20
15.896966711
 30
0.0
 10
-16.1110778734
 20
16.1014927521
 30
0.0
 10
-16.2913939984
 20
16.4120464332
 30
0.0
 10
-16.4466307665
 20
16.8319694398
 30
0.0
 10
-16.4912732009
 20
17.1879724079
 30
0.0
 10
-16.4863368059
 20
17.3594995988
 30
0.0
 11
-15.594541149
 21
15.6014820998
 31
0.0
 11
-15.7752899154
 21
15.7277463666
 31
0.0
 11
-15.9473870996
 21
15.8965169232
 31
0.0
 11
-16.1043412241
 21
16.1012682963
 31
0.0
 11
-16.2402469336
 21
16.3341498947
 31
0.0
 11
-16.4294083779
 21
16.847862363
 31
0.0
 11
-16.4863368059
 21
17.3594995988
 31
0.0
  0
SPLINE
  5
4B7
100
AcDbEntity
  8
RACCORDO
100
AcDbSpline
 62
253
  6
CONTINUOUS
 70
0
 71
3
 72
9
 73
5
 74
3
 42
0.0000001
 43
0.0000001
 44
0.0000000001
 12
-0.0085948779
 22
-0.3061137427
 32
0.0
 13
-0.0843143947
 23
-0.2943986723
 33
0.0
 40
0.0
 40
0.0
 40
0.0
 40
0.0
 40
0.2595836181
 40
1.0
 40
1.0
 40
1.0
 40
1.0
 10
-2.7377193401
 20
10.4851908659
 30
0.0
 10
-2.7384630366
 20
10.4587034949
 30
0.0
 10
-2.7441883164
 20
10.356790483
 30
0.0
 10
-2.7617053473
 20
10.2553511008
 30
0.0
 10
-2.7825146004
 20
10.1826919008
 30
0.0
 11
-2.7377193401
 21
10.4851908659
 31
0.0
 11
-2.7422299856
 21
10.4058255131
 31
0.0
 11
-2.7825146004
 21
10.1826919008
 31
0.0
  0
SPLINE
  5
4B8
100
AcDbEntity
  8
RACCORDO
100
AcDbSpline
 62
253
  6
CONTINUOUS
 70
0
 71
3
 72
13
 73
9
 74
7
 42
0.0000001
 43
0.0000001
 44
0.0000000001
 12
-0.3623249431
 22
-1.2651218397
 32
0.0
 13
-1.2033969155
 23
0.5325866102
 33
0.0
 40
0.0
 40
0.0
 40
0.0
 40
0.0
 40
0.2580407758
 40
0.3775441486
 40
0.4942226161
 40
0.6118066412
 40
0.7338269276
 40
1.0
 40
1.0
 40
1.0
 40
1.0
 10
-2.7825146004
 20
10.1826919008
 30
0.0
 10
-2.8136794702
 20
10.0738742272
 30
0.0
 10
-2.8869847937
 20
9.9187439927
 30
0.0
 10
-3.0416612875
 20
9.7643594458
 30
0.0
 10
-3.1759399597
 20
9.6833966109
 30
0.0
 10
-3.3269904603
 20
9.6375455138
 30
0.0
 10
-3.5500728626
 20
9.6240154344
 30
0.0
 10
-3.7196261646
 20
9.6701565119
 30
0.0
 10
-3.8263967827
 20
9.7174099167
 30
0.0
 11
-2.7825146004
 21
10.1826919008
 31
0.0
 11
-2.9348367109
 21
9.8791943035
 31
0.0
 11
-3.0465724589
 21
9.7685270725
 31
0.0
 11
-3.178176084
 21
9.6894249306
 31
0.0
 11
-3.3260967261
 21
9.6439988342
 31
0.0
 11
-3.4863269744
 21
9.6334565495
 31
0.0
 11
-3.8263967827
 21
9.7174099167
 31
0.0
  0
SPLINE
  5
4B9
100
AcDbEntity
  8
ASSI
100
AcDbSpline
 62
253
  6
CONTINUOUS
 70
0
 71
3
 72
11
 73
7
 74
5
 42
0.0000001
 43
0.0000001
 44
0.0000000001
 12
0.1170568738
 22
0.0540149533
 32
0.0
 13
0.0018556626
 23
0.1289049394
 33
0.0
 40
0.0
 40
0.0
 40
0.0
 40
0.0
 40
0.2158499043
 40
0.4486494297
 40
0.7095450212
 40
1.0
 40
1.0
 40
1.0
 40
1.0
 10
2.2287589642
 20
-23.1789718929
 30
0.0
 10
2.2371812025
 20
-23.1750855187
 30
0.0
 10
2.2532345855
 20
-23.1635139891
 30
0.0
 10
2.2706563986
 20
-23.1379030345
 30
0.0
 10
2.2812586919
 20
-23.1055642128
 30
0.0
 10
2.2836574445
 20
-23.0818195142
 30
0.0
 10
2.2838371066
 20
-23.0693391537
 30
0.0
 11
2.2287589642
 21
-23.1789718929
 31
0.0
 11
2.2514620923
 21
-23.1628812124
 31
0.0
 11
2.2687554159
 21
-23.138352287
 31
0.0
 11
2.2797269451
 21
-23.1065578541
 31
0.0
 11
2.2838371066
 21
-23.0693391537
 31
0.0
  0
LINE
  5
4BA
100
AcDbEntity
  8
ASSI
100
AcDbLine
 62
253
  6
CONTINUOUS
 10
-2.3715161908
 20
-10.3211525316
 11
-2.3704571301
 21
-10.4098813116
  0
SPLINE
  5
4BB
100
AcDbEntity
  8
ASSI
100
AcDbSpline
 62
253
  6
CONTINUOUS
 70
0
 71
3
 72
9
 73
5
 74
3
 42
0.0000001
 43
0.0000001
 44
0.0000000001
 12
14.3287805632
 22
-8.1717632373
 32
0.0
 13
15.1063384393
 23
-6.6249683615
 33
0.0
 40
0.0
 40
0.0
 40
0.0
 40
0.0
 40
0.4897616058
 40
1.0
 40
1.0
 40
1.0
 40
1.0
 10
-16.8363315905
 20
-14.8574498094
 30
0.0
 10
-14.4971027312
 20
-16.1915217712
 30
0.0
 10
-9.6409812114
 20
-18.7770804057
 30
0.0
 10
-4.6569197396
 20
-21.1050236382
 30
0.0
 10
-2.0876417838
 20
-22.231794711
 30
0.0
 11
-16.8363315905
 21
-14.8574498094
 31
0.0
 11
-9.7097304845
 21
-18.6623431818
 31
0.0
 11
-2.0876417838
 21
-22.231794711
 31
0.0
  0
SPLINE
  5
4BC
100
AcDbEntity
  8
ASSI
100
AcDbSpline
 62
253
  6
CONTINUOUS
 70
0
 71
3
 72
11
 73
7
 74
5
 42
0.0000001
 43
0.0000001
 44
0.0000000001
 12
0.0247849598
 22
-0.7266480306
 32
0.0
 13
0.6647499586
 23
-0.2945151052
 33
0.0
 40
0.0
 40
0.0
 40
0.0
 40
0.0
 40
0.2898984922
 40
0.549128838
 40
0.7820011107
 40
1.0
 40
1.0
 40
1.0
 40
1.0
 10
-2.0876417847
 20
-22.2317947162
 30
0.0
 10
-2.0852467439
 20
-22.3020127723
 30
0.0
 10
-2.0693358201
 20
-22.4351578797
 30
0.0
 10
-2.00532406
 20
-22.6155880601
 30
0.0
 10
-1.9035583617
 20
-22.7577437476
 30
0.0
 10
-1.8112248451
 20
-22.8212422239
 30
0.0
 10
-1.7629199276
 20
-22.8426435458
 30
0.0
 11
-2.0876417847
 21
-22.2317947162
 31
0.0
 11
-2.0603539925
 21
-22.4407975417
 31
0.0
 11
-1.9947743173
 21
-22.6174994096
 31
0.0
 11
-1.8940324781
 21
-22.7535821408
 31
0.0
 11
-1.7629199276
 21
-22.8426435458
 31
0.0
  0
SPLINE
  5
4BD
100
AcDbEntity
  8
RACCORDO
100
AcDbSpline
 62
253
  6
CONTINUOUS
 70
0
 71
3
 72
11
 73
7
 74
5
 42
0.0000001
 43
0.0000001
 44
0.0000000001
 12
0.0610139157
 22
1.66901704
 32
0.0
 13
1.4660519035
 23
0.800020246
 33
0.0
 40
0.0
 40
0.0
 40
0.0
 40
0.0
 40
0.2467357886
 40
0.5094759382
 40
0.7670665121
 40
1.0
 40
1.0
 40
1.0
 40
1.0
 10
-16.3669938361
 20
21.0349579711
 30
0.0
 10
-16.3619757306
 20
21.1722267163
 30
0.0
 10
-16.3081574064
 20
21.4546402706
 30
0.0
 10
-16.1321319647
 20
21.8473707199
 30
0.0
 10
-15.8786585793
 20
22.1856703644
 30
0.0
 10
-15.6621001342
 20
22.3596498183
 30
0.0
 10
-15.5482692731
 20
22.4217669871
 30
0.0
 11
-16.3669938361
 21
21.0349579711
 31
0.0
 11
-16.2950495881
 21
21.4407103997
 31
0.0
 11
-16.1167517149
 21
21.8416651408
 31
0.0
 11
-15.8561603642
 21
22.1839705525
 31
0.0
 11
-15.5482692731
 21
22.4217669871
 31
0.0
  0
SPLINE
  5
4BE
100
AcDbEntity
  8
ASSI
100
AcDbSpline
 62
253
  6
CONTINUOUS
 70
0
 71
3
 72
11
 73
7
 74
5
 42
0.0000001
 43
0.0000001
 44
0.0000000001
 12
0.0602916195
 22
1.669898392
 32
0.0
 13
1.4636706792
 23
0.8061413412
 33
0.0
 40
0.0
 40
0.0
 40
0.0
 40
0.0
 40
0.246820322
 40
0.5097239768
 40
0.767335803
 40
1.0
 40
1.0
 40
1.0
 40
1.0
 10
-16.8363315996
 20
21.3030380784
 30
0.0
 10
-16.8313712007
 20
21.4404263647
 30
0.0
 10
-16.7777444605
 20
21.7231387664
 30
0.0
 10
-16.6023692151
 20
22.1165289769
 30
0.0
 10
-16.3498490847
 20
22.4557087339
 30
0.0
 10
-16.1339854541
 20
22.6305281703
 30
0.0
 10
-16.0204708664
 20
22.6930482462
 30
0.0
 11
-16.8363315996
 21
21.3030380784
 31
0.0
 11
-16.7646950083
 21
21.7092024782
 31
0.0
 11
-16.5869884364
 21
22.110963955
 31
0.0
 11
-16.327269598
 21
22.4542524506
 31
0.0
 11
-16.0204708664
 21
22.6930482462
 31
0.0
  0
SPLINE
  5
4BF
100
AcDbEntity
  8
RACCORDO
100
AcDbSpline
 62
253
  6
CONTINUOUS
 70
0
 71
3
 72
9
 73
5
 74
3
 42
0.0000001
 43
0.0000001
 44
0.0000000001
 12
-0.1210089528
 22
-0.0706178339
 32
0.0
 13
-0.1114709766
 23
-0.0848779506
 33
0.0
 40
0.0
 40
0.0
 40
0.0
 40
0.0
 40
0.2436912278
 40
1.0
 40
1.0
 40
1.0
 40
1.0
 10
-1.8328137857
 20
15.5640392561
 30
0.0
 10
-1.8426433924
 20
15.5583029406
 30
0.0
 10
-1.8825874435
 20
15.5340947415
 30
0.0
 10
-1.9209664393
 20
15.5073292042
 30
0.0
 10
-1.9490685984
 20
15.4859312247
 30
0.0
 11
-1.8328137857
 21
15.5640392561
 31
0.0
 11
-1.8620184807
 21
15.5463524205
 31
0.0
 11
-1.9490685984
 21
15.4859312247
 31
0.0
  0
SPLINE
  5
4C0
100
AcDbEntity
  8
RACCORDO
100
AcDbSpline
 62
253
  6
CONTINUOUS
 70
0
 71
3
 72
11
 73
7
 74
5
 42
0.0000001
 43
0.0000001
 44
0.0000000001
 12
-1.2138249373
 22
-0.9242493085
 32
0.0
 13
-0.0524611503
 23
-1.5247477137
 33
0.0
 40
0.0
 40
0.0
 40
0.0
 40
0.0
 40
0.2385354141
 40
0.4963468503
 40
0.7561078447
 40
1.0
 40
1.0
 40
1.0
 40
1.0
 10
-1.9490685984
 20
15.4859312247
 30
0.0
 10
-2.0455820098
 20
15.4124424942
 30
0.0
 10
-2.2249953011
 20
15.2307784926
 30
0.0
 10
-2.4329415503
 20
14.9045450954
 30
0.0
 10
-2.5749275259
 20
14.5417458038
 30
0.0
 10
-2.6179176515
 20
14.2865103706
 30
0.0
 10
-2.6221826058
 20
14.1625523685
 30
0.0
 11
-1.9490685984
 21
15.4859312247
 31
0.0
 11
-2.2081178759
 21
15.2303292673
 31
0.0
 11
-2.4210327943
 21
14.8996092503
 31
0.0
 11
-2.564340825
 21
14.5301231962
 31
0.0
 11
-2.6221826058
 21
14.1625523685
 31
0.0
  0
SPLINE
  5
4C1
100
AcDbEntity
  8
ASSI
100
AcDbSpline
 62
253
  6
CONTINUOUS
 70
0
 71
3
 72
11
 73
7
 74
5
 42
0.0000001
 43
0.0000001
 44
0.0000000001
 12
-1.4432343864
 22
-0.8343278229
 32
0.0
 13
-0.0547811855
 23
-1.6661414801
 33
0.0
 40
0.0
 40
0.0
 40
0.0
 40
0.0
 40
0.23096881
 40
0.4883736669
 40
0.7520846433
 40
1.0
 40
1.0
 40
1.0
 40
1.0
 10
-1.2944950664
 20
15.3300603638
 30
0.0
 10
-1.4056091094
 20
15.2658257956
 30
0.0
 10
-1.6162492367
 20
15.0874601297
 30
0.0
 10
-1.8614957555
 20
14.7451638091
 30
0.0
 10
-2.0314848893
 20
14.3496551963
 30
0.0
 10
-2.0831147342
 20
14.0663805341
 30
0.0
 10
-2.0876417665
 20
13.928693181
 30
0.0
 11
-1.2944950664
 21
15.3300603638
 31
0.0
 11
-1.5933535717
 21
15.0872944552
 31
0.0
 11
-1.8460833585
 21
14.7405114341
 31
0.0
 11
-2.0186475717
 21
14.3361787784
 31
0.0
 11
-2.0876417665
 21
13.928693181
 31
0.0
  0
SPLINE
  5
4C2
100
AcDbEntity
  8
ASSI
100
AcDbSpline
 62
253
  6
CONTINUOUS
 70
0
 71
3
 72
11
 73
7
 74
5
 42
0.0000001
 43
0.0000001
 44
0.0000000001
 12
-0.1405017971
 22
0.0708328134
 32
0.0
 13
0.000000552
 23
0.1573468857
 33
0.0
 40
0.0
 40
0.0
 40
0.0
 40
0.0
 40
0.2175095698
 40
0.4509435265
 40
0.710649105
 40
1.0
 40
1.0
 40
1.0
 40
1.0
 10
2.0330659199
 20
-23.1770815208
 30
0.0
 10
2.0228790914
 20
-23.1719459159
 30
0.0
 10
2.0036146232
 20
-23.1572280995
 30
0.0
 10
1.9829637566
 20
-23.125522163
 30
0.0
 10
1.9705934186
 20
-23.0859704971
 30
0.0
 10
1.9681393604
 20
-23.0570633027
 30
0.0
 10
1.9681394136
 20
-23.0418871486
 30
0.0
 11
2.0330659199
 21
-23.1770815208
 31
0.0
 11
2.0057281731
 21
-23.1564912122
 31
0.0
 11
1.9851913245
 21
-23.1260389783
 31
0.0
 11
1.9724550223
 21
-23.0872106126
 31
0.0
 11
1.9681394136
 21
-23.0418871486
 31
0.0
  0
SPLINE
  5
4C3
100
AcDbEntity
  8
ASSI
100
AcDbSpline
 62
7
  6
CONTINUOUS
 70
0
 71
3
 72
9
 73
5
 74
3
 42
0.0000001
 43
0.0000001
 44
0.0000000001
 12
0.0541105048
 22
0.0291612789
 32
0.0
 13
0.0231339744
 23
0.0569486273
 33
0.0
 40
0.0
 40
0.0
 40
0.0
 40
0.0
 40
0.4784340984
 40
1.0
 40
1.0
 40
1.0
 40
1.0
 10
3.8558398572
 20
-22.4273747716
 30
0.0
 10
3.864469294
 20
-22.4227241882
 30
0.0
 10
3.8806232897
 20
-22.4092213545
 30
0.0
 10
3.8909535129
 20
-22.3910860457
 30
0.0
 10
3.8949754769
 20
-22.381185225
 30
0.0
 11
3.8558398572
 21
-22.4273747716
 31
0.0
 11
3.8785934819
 21
-22.4087433863
 31
0.0
 11
3.8949754769
 21
-22.381185225
 31
0.0
  0
SPLINE
  5
4C4
100
AcDbEntity
  8
ASSI
100
AcDbSpline
 62
7
  6
CONTINUOUS
 70
0
 71
3
 72
9
 73
5
 74
3
 42
0.0000001
 43
0.0000001
 44
0.0000000001
 12
0.0233562658
 22
0.0574958395
 32
0.0
 13
0.0
 23
0.062058736
 33
0.0
 40
0.0
 40
0.0
 40
0.0
 40
0.0
 40
0.2332872417
 40
1.0
 40
1.0
 40
1.0
 40
1.0
 10
3.8949754769
 20
-22.381185225
 30
0.0
 10
3.8967917165
 20
-22.3767142097
 30
0.0
 10
3.9034080374
 20
-22.3570760225
 30
0.0
 10
3.9057372333
 20
-22.3361523355
 30
0.0
 10
3.9057372333
 20
-22.3202919273
 30
0.0
 11
3.8949754769
 21
-22.381185225
 31
0.0
 11
3.8996454051
 21
-22.367481572
 31
0.0
 11
3.9057372333
 21
-22.3202919273
 31
0.0
  0
SPLINE
  5
4C5
100
AcDbEntity
  8
RACCORDO
100
AcDbSpline
 62
253
  6
CONTINUOUS
 70
0
 71
3
 72
9
 73
5
 74
3
 42
0.0000001
 43
0.0000001
 44
0.0000000001
 12
11.130532601
 22
-6.2856808519
 32
0.0
 13
11.7007674245
 23
-5.146900177
 33
0.0
 40
0.0
 40
0.0
 40
0.0
 40
0.0
 40
0.4904429382
 40
1.0
 40
1.0
 40
1.0
 40
1.0
 10
-15.4025416551
 20
10.3717954952
 30
0.0
 10
-13.5829112842
 20
9.3442062334
 30
0.0
 10
-9.8148307535
 20
7.3503210963
 30
0.0
 10
-5.9527677124
 20
5.5461523134
 30
0.0
 10
-3.9653648225
 20
4.6719392029
 30
0.0
 11
-15.4025416551
 21
10.3717954952
 31
0.0
 11
-9.8642482955
 21
7.4340657491
 31
0.0
 11
-3.9653648225
 21
4.6719392029
 31
0.0
  0
SPLINE
  5
4C6
100
AcDbEntity
  8
ASSI
100
AcDbSpline
 62
7
  6
CONTINUOUS
 70
0
 71
3
 72
11
 73
7
 74
5
 42
0.0000001
 43
0.0000001
 44
0.0000000001
 12
0.6527085383
 22
-0.3343495956
 32
0.0
 13
0.0
 23
-0.7333608171
 33
0.0
 40
0.0
 40
0.0
 40
0.0
 40
0.0
 40
0.2291665379
 40
0.4879399238
 40
0.7531104567
 40
1.0
 40
1.0
 40
1.0
 40
1.0
 10
3.9057398949
 20
18.1231220336
 30
0.0
 10
3.9555995469
 20
18.0975814539
 30
0.0
 10
4.0509826803
 20
18.0220597601
 30
0.0
 10
4.1617639519
 20
17.8731296877
 30
0.0
 10
4.2381073112
 20
17.6991479262
 30
0.0
 10
4.2592906238
 20
17.5737504012
 30
0.0
 10
4.2592906238
 20
17.5133973621
 30
0.0
 11
3.9057398949
 21
18.1231220336
 31
0.0
 11
4.0399876001
 21
18.0220166003
 31
0.0
 11
4.1546807601
 21
17.8708221908
 31
0.0
 11
4.231998526
 21
17.6923877119
 31
0.0
 11
4.2592906238
 21
17.5133973621
 31
0.0
  0
LINE
  5
4C7
100
AcDbEntity
  8
RACCORDO
100
AcDbLine
 62
253
  6
CONTINUOUS
 10
-4.0944346176
 20
-9.9379566004
 11
-4.1883572772
 21
-9.8965528219
  0
SPLINE
  5
4C8
100
AcDbEntity
  8
ASSI
100
AcDbSpline
 62
253
  6
CONTINUOUS
 70
0
 71
3
 72
11
 73
7
 74
5
 42
0.0000001
 43
0.0000001
 44
0.0000000001
 12
-0.0144699929
 22
-0.3366195737
 32
0.0
 13
-0.3114700468
 23
-0.128485517
 33
0.0
 40
0.0
 40
0.0
 40
0.0
 40
0.0
 40
0.2901782888
 40
0.5506982161
 40
0.7836829758
 40
1.0
 40
1.0
 40
1.0
 40
1.0
 10
-0.9318142409
 20
-22.5569737063
 30
0.0
 10
-0.9332138668
 20
-22.5895336036
 30
0.0
 10
-0.9412938605
 20
-22.6513302813
 30
0.0
 10
-0.9719126433
 20
-22.7348036703
 30
0.0
 10
-1.0198694824
 20
-22.800090679
 30
0.0
 10
-1.0630915302
 20
-22.8286756465
 30
0.0
 10
-1.0855502881
 20
-22.8379401814
 30
0.0
 11
-0.9318142409
 21
-22.5569737063
 31
0.0
 11
-0.9454595596
 21
-22.6537867119
 31
0.0
 11
-0.9769068187
 21
-22.7357372327
 31
0.0
 11
-1.0244552654
 21
-22.7981979506
 31
0.0
 11
-1.0855502881
 21
-22.8379401814
 31
0.0
  0
LINE
  5
4C9
100
AcDbEntity
  8
RACCORDO
100
AcDbLine
 62
253
  6
CONTINUOUS
 10
-15.223887139
 20
-4.3726739188
 11
-15.2843249323
 21
-4.3383374903
  0
SPLINE
  5
4CA
100
AcDbEntity
  8
ASSI
100
AcDbSpline
 62
253
  6
CONTINUOUS
 70
0
 71
3
 72
11
 73
7
 74
5
 42
0.0000001
 43
0.0000001
 44
0.0000000001
 12
-0.6117604196
 22
-0.3217466587
 32
0.0
 13
-0.6343967757
 23
0.2744311467
 33
0.0
 40
0.0
 40
0.0
 40
0.0
 40
0.0
 40
0.237445402
 40
0.4997939078
 40
0.7622524585
 40
1.0
 40
1.0
 40
1.0
 40
1.0
 10
-1.4147103711
 20
-22.2065124544
 30
0.0
 10
-1.4631302707
 20
-22.2319782093
 30
0.0
 10
-1.5731878152
 20
-22.2702408787
 30
0.0
 10
-1.748268396
 20
-22.2931830009
 30
0.0
 10
-1.9246462343
 20
-22.2834283057
 30
0.0
 10
-2.0373580001
 20
-22.2535379891
 30
0.0
 10
-2.0876334246
 20
-22.2317895456
 30
0.0
 11
-1.4147103711
 21
-22.2065124544
 31
0.0
 11
-1.5687737097
 21
-22.2630934571
 31
0.0
 11
-1.7484542914
 21
-22.2875548144
 31
0.0
 11
-1.929539993
 21
-22.2766446998
 31
0.0
 11
-2.0876334246
 21
-22.2317895456
 31
0.0
  0
SPLINE
  5
4CB
100
AcDbEntity
  8
ASSI
100
AcDbSpline
 62
253
  6
CONTINUOUS
 70
0
 71
3
 72
11
 73
7
 74
5
 42
0.0000001
 43
0.0000001
 44
0.0000000001
 12
-0.633294201
 22
-0.2678909028
 32
0.0
 13
-0.6289738261
 23
0.2778830812
 33
0.0
 40
0.0
 40
0.0
 40
0.0
 40
0.0
 40
0.2326601324
 40
0.4946330439
 40
0.7594589108
 40
1.0
 40
1.0
 40
1.0
 40
1.0
 10
-1.4147103616
 20
13.9168367037
 30
0.0
 10
-1.4638244658
 20
13.8960608594
 30
0.0
 10
-1.5747530897
 20
13.8673080863
 30
0.0
 10
-1.7492012687
 20
13.8558520207
 30
0.0
 10
-1.9249341333
 20
13.8738028365
 30
0.0
 10
-2.0372104173
 20
13.9064125072
 30
0.0
 10
-2.0876417671
 20
13.9286932735
 30
0.0
 11
-1.4147103616
 21
13.9168367037
 31
0.0
 11
-1.5687741838
 21
13.873722702
 31
0.0
 11
-1.7484567122
 21
13.8609078675
 31
0.0
 11
-1.9295454125
 21
13.8800792329
 31
0.0
 11
-2.0876417671
 21
13.9286932735
 31
0.0
  0
SPLINE
  5
4CC
100
AcDbEntity
  8
ASSI
100
AcDbSpline
 62
253
  6
CONTINUOUS
 70
0
 71
3
 72
11
 73
7
 74
5
 42
0.0000001
 43
0.0000001
 44
0.0000000001
 12
-0.0326907254
 22
0.7294715688
 32
0.0
 13
-0.6455789781
 23
0.3412114246
 33
0.0
 40
0.0
 40
0.0
 40
0.0
 40
0.0
 40
0.2449319447
 40
0.5106975777
 40
0.7706500547
 40
1.0
 40
1.0
 40
1.0
 40
1.0
 10
-0.9318142238
 20
14.7255492754
 30
0.0
 10
-0.9344832248
 20
14.7851062387
 30
0.0
 10
-0.9600996663
 20
14.9085256504
 30
0.0
 10
-1.0392545435
 20
15.0800700442
 30
0.0
 10
-1.1506529869
 20
15.2279091904
 30
0.0
 10
-1.2451405639
 20
15.3039747573
 30
0.0
 10
-1.2944950651
 20
15.3300603645
 30
0.0
 11
-0.9318142238
 21
14.7255492754
 31
0.0
 11
-0.9652279536
 21
14.9012505038
 31
0.0
 11
-1.0458736209
 21
15.0777632338
 31
0.0
 11
-1.1614617024
 21
15.2283300566
 31
0.0
 11
-1.2944950651
 21
15.3300603645
 31
0.0
  0
SPLINE
  5
4CD
100
AcDbEntity
  8
RACCORDO
100
AcDbSpline
 62
253
  6
CONTINUOUS
 70
0
 71
3
 72
9
 73
5
 74
3
 42
0.0000001
 43
0.0000001
 44
0.0000000001
 12
-9.4906584423
 22
4.2782115271
 32
0.0
 13
-9.1041009268
 23
5.0488650065
 33
0.0
 40
0.0
 40
0.0
 40
0.0
 40
0.0
 40
0.2558095504
 40
1.0
 40
1.0
 40
1.0
 40
1.0
 10
-5.2390422205
 20
-11.3003620482
 30
0.0
 10
-6.0483092435
 20
-10.9355595924
 30
0.0
 10
-9.1979553129
 20
-9.4789658718
 30
0.0
 10
-12.2904879995
 20
-7.8978807047
 30
0.0
 10
-14.5488829869
 20
-6.645441665
 30
0.0
 11
-5.2390422205
 21
-11.3003620482
 31
0.0
 11
-7.6559909178
 21
-10.1821918861
 31
0.0
 11
-14.5488829869
 21
-6.645441665
 31
0.0
  0
SPLINE
  5
4CE
100
AcDbEntity
  8
ASSI
100
AcDbSpline
 62
253
  6
CONTINUOUS
 70
0
 71
3
 72
15
 73
11
 74
9
 42
0.0000001
 43
0.0000001
 44
0.0000000001
 12
0.0267333508
 22
-0.7242687755
 32
0.0
 13
0.6701640539
 23
0.2759711436
 33
0.0
 40
0.0
 40
0.0
 40
0.0
 40
0.0
 40
0.1457269165
 40
0.2792753725
 40
0.4018041859
 40
0.5165831376
 40
0.628599918
 40
0.743537831
 40
0.8663203531
 40
1.0
 40
1.0
 40
1.0
 40
1.0
 10
-1.4147103711
 20
-22.2065124544
 30
0.0
 10
-1.4134117815
 20
-22.2416942729
 30
0.0
 10
-1.4057532761
 20
-22.3091201232
 30
0.0
 10
-1.3767172952
 20
-22.4024450707
 30
0.0
 10
-1.3311352328
 20
-22.4806340963
 30
0.0
 10
-1.2700953148
 20
-22.5405477716
 30
0.0
 10
-1.1957614396
 20
-22.5792250612
 30
0.0
 10
-1.1116085474
 20
-22.5949920738
 30
0.0
 10
-1.0213032029
 20
-22.5878483799
 30
0.0
 10
-0.9616766722
 20
-22.569270948
 30
0.0
 10
-0.9318142409
 20
-22.5569737063
 30
0.0
 11
-1.4147103711
 21
-22.2065124544
 31
0.0
 11
-1.4020095438
 21
-22.3113633445
 31
0.0
 11
-1.372393572
 21
-22.4035119291
 31
0.0
 11
-1.3269038742
 21
-22.4797803885
 31
0.0
 11
-1.2671274679
 21
-22.5376330305
 31
0.0
 11
-1.1951198369
 21
-22.5751295252
 31
0.0
 11
-1.1133554474
 21
-22.5910641643
 31
0.0
 11
-1.0245789768
 21
-22.5849305732
 31
0.0
 11
-0.9318142409
 21
-22.5569737063
 31
0.0
  0
SPLINE
  5
4CF
100
AcDbEntity
  8
ASSI
100
AcDbSpline
 62
253
  6
CONTINUOUS
 70
0
 71
3
 72
9
 73
5
 74
3
 42
0.0000001
 43
0.0000001
 44
0.0000000001
 12
0.0806759489
 22
0.0369150306
 32
0.0
 13
0.0787986616
 23
-0.0407688501
 33
0.0
 40
0.0
 40
0.0
 40
0.0
 40
0.0
 40
0.4651560211
 40
1.0
 40
1.0
 40
1.0
 40
1.0
 10
-10.4869053243
 20
27.6243086694
 30
0.0
 10
-10.4743963565
 20
27.630032419
 30
0.0
 10
-10.4435697445
 20
27.634350378
 30
0.0
 10
-10.414848978
 20
27.6243233351
 30
0.0
 10
-10.4008006481
 20
27.6170550105
 30
0.0
 11
-10.4869053243
 21
27.6243086694
 31
0.0
 11
-10.4461736302
 21
27.6309456384
 31
0.0
 11
-10.4008006481
 21
27.6170550105
 31
0.0
  0
LINE
  5
4D0
100
AcDbEntity
  8
ASSI
100
AcDbLine
 62
253
  6
CONTINUOUS
 10
-1.7150793785
 20
-9.3567925084
 11
-1.7107422277
 21
-9.7661043735
  0
SPLINE
  5
4D1
100
AcDbEntity
  8
ASSI
100
AcDbSpline
 62
253
  6
CONTINUOUS
 70
0
 71
3
 72
11
 73
7
 74
5
 42
0.0000001
 43
0.0000001
 44
0.0000000001
 12
-0.8610578597
 22
-0.4625328674
 32
0.0
 13
-0.034834436
 23
-0.9768028733
 33
0.0
 40
0.0
 40
0.0
 40
0.0
 40
0.0
 40
0.2334199064
 40
0.4910057105
 40
0.7535333017
 40
1.0
 40
1.0
 40
1.0
 40
1.0
 10
-0.9318142238
 20
14.7255492754
 30
0.0
 10
-0.9988102388
 20
14.6895611492
 30
0.0
 10
-1.1264312686
 20
14.5886047496
 30
0.0
 10
-1.2761472406
 20
14.3914997275
 30
0.0
 10
-1.3801544363
 20
14.1622334444
 30
0.0
 10
-1.4118485188
 20
13.9970864968
 30
0.0
 10
-1.4147103616
 20
13.9168367037
 30
0.0
 11
-0.9318142238
 21
14.7255492754
 31
0.0
 11
-1.1133554302
 21
14.5873635609
 31
0.0
 11
-1.2671274501
 21
14.3880082281
 31
0.0
 11
-1.3723935531
 21
14.153993324
 31
0.0
 11
-1.4147103616
 21
13.9168367037
 31
0.0
  0
SPLINE
  5
4D2
100
AcDbEntity
  8
ASSI
100
AcDbSpline
 62
253
  6
CONTINUOUS
 70
0
 71
3
 72
11
 73
7
 74
5
 42
0.0000001
 43
0.0000001
 44
0.0000000001
 12
0.0000416906
 22
-0.0962250162
 32
0.0
 13
0.0860662791
 23
-0.0430331394
 33
0.0
 40
0.0
 40
0.0
 40
0.0
 40
0.0
 40
0.2064739749
 40
0.4345185654
 40
0.698103973
 40
1.0
 40
1.0
 40
1.0
 40
1.0
 10
-12.7414411916
 20
26.2884378864
 30
0.0
 10
-12.7414383222
 20
26.2818152325
 30
0.0
 10
-12.7384943468
 20
26.2677768605
 30
0.0
 10
-12.7262787236
 20
26.2485903155
 30
0.0
 10
-12.707192812
 20
26.2314208332
 30
0.0
 10
-12.6915236368
 20
26.2220861167
 30
0.0
 10
-12.6828626142
 20
26.2177556055
 30
0.0
 11
-12.7414411916
 21
26.2884378864
 31
0.0
 11
-12.7375884351
 21
26.2689470619
 31
0.0
 11
-12.7262073758
 21
26.2501855877
 31
0.0
 11
-12.7076648961
 21
26.2328799755
 31
0.0
 11
-12.6828626142
 21
26.2177556055
 31
0.0
  0
SPLINE
  5
4D3
100
AcDbEntity
  8
ASSI
100
AcDbSpline
 62
253
  6
CONTINUOUS
 70
0
 71
3
 72
9
 73
5
 74
3
 42
0.0000001
 43
0.0000001
 44
0.0000000001
 12
0.0838255924
 22
0.0449468966
 32
0.0
 13
0.0856656421
 23
-0.0413322058
 33
0.0
 40
0.0
 40
0.0
 40
0.0
 40
0.0
 40
0.4626917864
 40
1.0
 40
1.0
 40
1.0
 40
1.0
 10
-12.6021315114
 20
26.5255222512
 30
0.0
 10
-12.5892030403
 20
26.5324544378
 30
0.0
 10
-12.5562553152
 20
26.5386642119
 30
0.0
 10
-12.525120408
 20
26.5287806306
 30
0.0
 10
-12.509777457
 20
26.5213779194
 30
0.0
 11
-12.6021315114
 21
26.5255222512
 31
0.0
 11
-12.5591018515
 21
26.5347555359
 31
0.0
 11
-12.509777457
 21
26.5213779194
 31
0.0
  0
SPLINE
  5
4D4
100
AcDbEntity
  8
ASSI
100
AcDbSpline
 62
253
  6
CONTINUOUS
 70
0
 71
3
 72
9
 73
5
 74
3
 42
0.0000001
 43
0.0000001
 44
0.0000000001
 12
0.0000039989
 22
-0.0361471944
 32
0.0
 13
0.0353695387
 23
-0.0074575741
 33
0.0
 40
0.0
 40
0.0
 40
0.0
 40
0.0
 40
0.5509787862
 40
1.0
 40
1.0
 40
1.0
 40
1.0
 10
2.248492444
 20
18.5737624892
 30
0.0
 10
2.2484931784
 20
18.5671237102
 30
0.0
 10
2.2504454044
 20
18.5544072682
 30
0.0
 10
2.2611847873
 20
18.5460632446
 30
0.0
 10
2.2664786784
 20
18.5449470416
 30
0.0
 11
2.248492444
 21
18.5737624892
 31
0.0
 11
2.2533120328
 21
18.554438099
 31
0.0
 11
2.2664786784
 21
18.5449470416
 31
0.0
  0
SPLINE
  5
4D5
100
AcDbEntity
  8
ASSI
100
AcDbSpline
 62
253
  6
CONTINUOUS
 70
0
 71
3
 72
15
 73
11
 74
9
 42
0.0000001
 43
0.0000001
 44
0.0000000001
 12
0.7243265149
 22
0.3527323816
 32
0.0
 13
0.0001228057
 23
-0.8056481975
 33
0.0
 40
0.0
 40
0.0
 40
0.0
 40
0.0
 40
0.1338353339
 40
0.2551617679
 40
0.3675969175
 40
0.4771736623
 40
0.5907586865
 40
0.7140078628
 40
0.8501922091
 40
1.0
 40
1.0
 40
1.0
 40
1.0
 10
1.2799639854
 20
26.1499709372
 30
0.0
 10
1.312277479
 20
26.1657069559
 30
0.0
 10
1.3769014439
 20
26.1902217789
 30
0.0
 10
1.4759107402
 20
26.2028393665
 30
0.0
 10
1.5683901287
 20
26.1878823163
 30
0.0
 10
1.6495643845
 20
26.1451330999
 30
0.0
 10
1.7149847132
 20
26.077010339
 30
0.0
 10
1.7623602056
 20
25.9875443992
 30
0.0
 10
1.7907588219
 20
25.8806067536
 30
0.0
 10
1.7964850539
 20
25.8035925507
 30
0.0
 10
1.7964911863
 20
25.7633617584
 30
0.0
 11
1.2799639854
 21
26.1499709372
 31
0.0
 11
1.3811979934
 21
26.1870887636
 31
0.0
 11
1.4783062611
 21
26.1982398957
 31
0.0
 11
1.5675956823
 21
26.1829850227
 31
0.0
 11
1.6457417038
 21
26.1419166395
 31
0.0
 11
1.7097905525
 21
26.0765580396
 31
0.0
 11
1.7573440418
 21
25.9893900548
 31
0.0
 11
1.7866118088
 21
25.8836491145
 31
0.0
 11
1.7964911863
 21
25.7633617584
 31
0.0
  0
SPLINE
  5
4D6
100
AcDbEntity
  8
ASSI
100
AcDbSpline
 62
253
  6
CONTINUOUS
 70
0
 71
3
 72
9
 73
5
 74
3
 42
0.0000001
 43
0.0000001
 44
0.0000000001
 12
-0.0644809999
 22
-0.0324882589
 32
0.0
 13
0.0000008781
 23
-0.0722030907
 33
0.0
 40
0.0
 40
0.0
 40
0.0
 40
0.0
 40
0.490186815
 40
1.0
 40
1.0
 40
1.0
 40
1.0
 10
2.2838371066
 20
18.9513919368
 30
0.0
 10
2.2733011946
 20
18.9460834981
 30
0.0
 10
2.2562343713
 20
18.9272006352
 30
0.0
 10
2.2484922947
 20
18.9033013188
 30
0.0
 10
2.248492444
 20
18.8910312896
 30
0.0
 11
2.2838371066
 21
18.9513919368
 31
0.0
 11
2.2588099103
 21
18.9263658682
 31
0.0
 11
2.248492444
 21
18.8910312896
 31
0.0
  0
SPLINE
  5
4D7
100
AcDbEntity
  8
ASSI
100
AcDbSpline
 62
253
  6
CONTINUOUS
 70
0
 71
3
 72
9
 73
5
 74
3
 42
0.0000001
 43
0.0000001
 44
0.0000000001
 12
-0.000000754
 22
0.2513982113
 32
0.0
 13
0.1608506199
 23
0.1932049138
 33
0.0
 40
0.0
 40
0.0
 40
0.0
 40
0.0
 40
0.4867531172
 40
1.0
 40
1.0
 40
1.0
 40
1.0
 10
1.9681394139
 20
-22.7246169195
 30
0.0
 10
1.9681392915
 20
-22.6838272985
 30
0.0
 10
1.9866859662
 20
-22.5999931993
 30
0.0
 10
2.0293176331
 20
-22.5261323968
 30
0.0
 10
2.0568363261
 20
-22.4930784568
 30
0.0
 11
1.9681394139
 21
-22.7246169195
 31
0.0
 11
1.9919010184
 21
-22.6045772394
 31
0.0
 11
2.0568363261
 21
-22.4930784568
 31
0.0
  0
SPLINE
  5
4D8
100
AcDbEntity
  8
ASSI
100
AcDbSpline
 62
7
  6
CONTINUOUS
 70
0
 71
3
 72
9
 73
5
 74
3
 42
0.0000001
 43
0.0000001
 44
0.0000000001
 12
0.2324688511
 22
0.1684806076
 32
0.0
 13
0.2481081076
 23
0.1444640054
 33
0.0
 40
0.0
 40
0.0
 40
0.0
 40
0.0
 40
0.4392426407
 40
1.0
 40
1.0
 40
1.0
 40
1.0
 10
1.0326708953
 20
-22.2568840891
 30
0.0
 10
1.0667076393
 20
-22.2322161334
 30
0.0
 10
1.1462450564
 20
-22.1789065468
 30
0.0
 10
1.2277762028
 20
-22.1287395544
 30
0.0
 10
1.2741523519
 20
-22.1017364697
 30
0.0
 11
1.0326708953
 21
-22.2568840891
 31
0.0
 11
1.1369647479
 21
-22.1859907598
 31
0.0
 11
1.2741523519
 21
-22.1017364697
 31
0.0
  0
SPLINE
  5
4D9
100
AcDbEntity
  8
ASSI
100
AcDbSpline
 62
253
  6
CONTINUOUS
 70
0
 71
3
 72
11
 73
7
 74
5
 42
0.0000001
 43
0.0000001
 44
0.0000000001
 12
0.0000057678
 22
-0.1576423069
 32
0.0
 13
0.1409405807
 23
-0.0706176301
 33
0.0
 40
0.0
 40
0.0
 40
0.0
 40
0.0
 40
0.2890071824
 40
0.5489866381
 40
0.7822674779
 40
1.0
 40
1.0
 40
1.0
 40
1.0
 10
1.9681394057
 20
18.5750031397
 30
0.0
 10
1.9681399613
 20
18.5598165534
 30
0.0
 10
1.9706333637
 20
18.5308641389
 30
0.0
 10
1.9829883447
 20
18.4912392302
 30
0.0
 10
2.0037379775
 20
18.4594755793
 30
0.0
 10
2.0230997442
 20
18.4448030654
 30
0.0
 10
2.0333288602
 20
18.4396778138
 30
0.0
 11
1.9681394057
 21
18.5750031397
 31
0.0
 11
1.9724771264
 21
18.5296503469
 31
0.0
 11
1.9852448211
 21
18.4907060963
 31
0.0
 11
2.0058502865
 21
18.4602461184
 31
0.0
 11
2.0333288602
 21
18.4396778138
 31
0.0
  0
SPLINE
  5
4DA
100
AcDbEntity
  8
ASSI
100
AcDbSpline
 62
253
  6
CONTINUOUS
 70
0
 71
3
 72
10
 73
6
 74
4
 42
0.0000001
 43
0.0000001
 44
0.0000000001
 12
-0.0484779294
 22
-0.0223900683
 32
0.0
 13
0.0000002129
 23
0.0533987341
 33
0.0
 40
0.0
 40
0.0
 40
0.0
 40
0.0
 40
0.2604027024
 40
0.4870741077
 40
1.0
 40
1.0
 40
1.0
 40
1.0
 10
2.2838371066
 20
-23.0693391537
 30
0.0
 10
2.2796291787
 20
-23.0712826318
 30
0.0
 10
2.2709077403
 20
-23.0737288621
 30
0.0
 10
2.2527526315
 20
-23.0678629311
 30
0.0
 10
2.2484924076
 20
-23.052240315
 30
0.0
 10
2.248492444
 20
-23.0431104505
 30
0.0
 11
2.2838371066
 21
-23.0693391537
 31
0.0
 11
2.2702690433
 21
-23.0723824316
 31
0.0
 11
2.2588106893
 21
-23.0684821599
 31
0.0
 11
2.248492444
 21
-23.0431104505
 31
0.0
  0
SPLINE
  5
4DB
100
AcDbEntity
  8
ASSI
100
AcDbSpline
 62
7
  6
CONTINUOUS
 70
0
 71
3
 72
9
 73
5
 74
3
 42
0.0000001
 43
0.0000001
 44
0.0000000001
 12
-0.0575564483
 22
-0.0314343965
 32
0.0
 13
-0.0627838176
 23
-0.0189488328
 33
0.0
 40
0.0
 40
0.0
 40
0.0
 40
0.0
 40
0.2377321415
 40
1.0
 40
1.0
 40
1.0
 40
1.0
 10
3.0032864826
 20
17.6303519886
 30
0.0
 10
2.9987254767
 20
17.6278609998
 30
0.0
 10
2.9792157522
 20
17.6179773714
 30
0.0
 10
2.9586070893
 20
17.6103537984
 30
0.0
 10
2.9426543939
 20
17.605539103
 30
0.0
 11
3.0032864826
 21
17.6303519886
 31
0.0
 11
2.9893871913
 21
17.6232894181
 31
0.0
 11
2.9426543939
 21
17.605539103
 31
0.0
  0
SPLINE
  5
4DC
100
AcDbEntity
  8
ASSI
100
AcDbSpline
 62
253
  6
CONTINUOUS
 70
0
 71
3
 72
9
 73
5
 74
3
 42
0.0000001
 43
0.0000001
 44
0.0000000001
 12
-0.0000005547
 22
0.0501152867
 32
0.0
 13
0.032435887
 23
0.0382028166
 33
0.0
 40
0.0
 40
0.0
 40
0.0
 40
0.0
 40
0.2366659259
 40
1.0
 40
1.0
 40
1.0
 40
1.0
 10
2.248492444
 20
-22.7258416501
 30
0.0
 10
2.2484924002
 20
-22.7218881232
 30
0.0
 10
2.2503751522
 20
-22.7052192247
 30
0.0
 10
2.2582255391
 20
-22.6893776017
 30
0.0
 10
2.2664786784
 20
-22.6796570978
 30
0.0
 11
2.248492444
 21
-22.7258416501
 31
0.0
 11
2.2497178185
 21
-22.7140445389
 31
0.0
 11
2.2664786784
 21
-22.6796570978
 31
0.0
  0
LINE
  5
4DD
100
AcDbEntity
  8
RACCORDO
100
AcDbLine
 62
253
  6
CONTINUOUS
 10
-3.6951006331
 20
9.9589383806
 11
-3.7039105797
 21
9.9628363438
  0
SPLINE
  5
4DE
100
AcDbEntity
  8
RACCORDO
100
AcDbSpline
 62
253
  6
CONTINUOUS
 70
0
 71
3
 72
11
 73
7
 74
5
 42
0.0000001
 43
0.0000001
 44
0.0000000001
 12
0.0499220832
 22
1.3900563531
 32
0.0
 13
1.2160901148
 23
0.6751842058
 33
0.0
 40
0.0
 40
0.0
 40
0.0
 40
0.0
 40
0.247105507
 40
0.5101365913
 40
0.7676577427
 40
1.0
 40
1.0
 40
1.0
 40
1.0
 10
-16.0769772326
 20
21.0220838973
 30
0.0
 10
-16.0728652254
 20
21.1365807573
 30
0.0
 10
-16.0284783373
 20
21.3721231603
 30
0.0
 10
-15.8831699997
 20
21.7000316514
 30
0.0
 10
-15.6739016729
 20
21.9828733183
 30
0.0
 10
-15.4948690391
 20
22.1288836698
 30
0.0
 10
-15.4006859983
 20
22.1811749439
 30
0.0
 11
-16.0769772326
 21
21.0220838973
 31
0.0
 11
-16.0176217738
 21
21.3606320998
 31
0.0
 11
-15.8703429413
 21
21.6955428736
 31
0.0
 11
-15.6550544104
 21
21.9818257185
 31
0.0
 11
-15.4006859983
 21
22.1811749439
 31
0.0
  0
LINE
  5
4DF
100
AcDbEntity
  8
RACCORDO
100
AcDbLine
 62
253
  6
CONTINUOUS
 10
-16.0816591139
 20
20.8907454307
 11
-16.0769772326
 21
21.0220838973
  0
SPLINE
  5
4E0
100
AcDbEntity
  8
ASSI
100
AcDbSpline
 62
7
  6
CONTINUOUS
 70
0
 71
3
 72
9
 73
5
 74
3
 42
0.0000001
 43
0.0000001
 44
0.0000000001
 12
-0.0534480206
 22
0.0921841994
 32
0.0
 13
-0.0363432192
 23
0.1001687972
 33
0.0
 40
0.0
 40
0.0
 40
0.0
 40
0.0
 40
0.2514970587
 40
1.0
 40
1.0
 40
1.0
 40
1.0
 10
0.8391066092
 20
-22.160101946
 30
0.0
 10
0.8346259359
 20
-22.1523739277
 30
0.0
 10
0.8174670634
 20
-22.1212715388
 30
0.0
 10
0.8029704502
 20
-22.0886844775
 30
0.0
 10
0.7939027814
 20
-22.0636922644
 30
0.0
 11
0.8391066092
 21
-22.160101946
 31
0.0
 11
0.8261635139
 21
-22.1366357024
 31
0.0
 11
0.7939027814
 21
-22.0636922644
 31
0.0
  0
SPLINE
  5
4E1
100
AcDbEntity
  8
ASSI
100
AcDbSpline
 62
253
  6
CONTINUOUS
 70
0
 71
3
 72
11
 73
7
 74
5
 42
0.0000001
 43
0.0000001
 44
0.0000000001
 12
-0.0000010333
 22
-0.1572110393
 32
0.0
 13
0.1406188274
 23
-0.070296915
 33
0.0
 40
0.0
 40
0.0
 40
0.0
 40
0.0
 40
0.2900356228
 40
0.5500138918
 40
0.7831798501
 40
1.0
 40
1.0
 40
1.0
 40
1.0
 10
-0.0963619091
 20
19.6072364525
 30
0.0
 10
-0.096362009
 20
19.5920375186
 30
0.0
 10
-0.0939195512
 20
19.5631059407
 30
0.0
 10
-0.0815982142
 20
19.5235391435
 30
0.0
 10
-0.0610110197
 20
19.4918700514
 30
0.0
 10
-0.0417788894
 20
19.4772122527
 30
0.0
 10
-0.031615891
 20
19.4721316569
 30
0.0
 11
-0.0963619091
 21
19.6072364525
 31
0.0
 11
-0.0920590863
 21
19.5618431265
 31
0.0
 11
-0.0793583268
 21
19.522995135
 31
0.0
 11
-0.058876767
 21
19.492594686
 31
0.0
 11
-0.031615891
 21
19.4721316569
 31
0.0
  0
SPLINE
  5
4E2
100
AcDbEntity
  8
ASSI
100
AcDbSpline
 62
253
  6
CONTINUOUS
 70
0
 71
3
 72
11
 73
7
 74
5
 42
0.0000001
 43
0.0000001
 44
0.0000000001
 12
-0.3230275233
 22
-0.167266237
 32
0.0
 13
0.0000028942
 23
-0.3637647246
 33
0.0
 40
0.0
 40
0.0
 40
0.0
 40
0.0
 40
0.2309135441
 40
0.4895532553
 40
0.753895527
 40
1.0
 40
1.0
 40
1.0
 40
1.0
 10
2.1424372895
 20
19.1952705461
 30
0.0
 10
2.1175734794
 20
19.1823958663
 30
0.0
 10
2.0701996141
 20
19.1446995216
 30
0.0
 10
2.0154936585
 20
19.0704900311
 30
0.0
 10
1.9783636364
 20
18.9840978097
 30
0.0
 10
1.9681391762
 20
18.9220959668
 30
0.0
 10
1.9681394136
 20
18.8922545915
 30
0.0
 11
2.1424372895
 21
19.1952705461
 31
0.0
 11
2.0755190424
 21
19.1445000222
 31
0.0
 11
2.0190139143
 21
19.0692738952
 31
0.0
 11
1.9813500726
 21
18.9807986348
 31
0.0
 11
1.9681394136
 21
18.8922545915
 31
0.0
  0
SPLINE
  5
4E3
100
AcDbEntity
  8
ASSI
100
AcDbSpline
 62
253
  6
CONTINUOUS
 70
0
 71
3
 72
9
 73
5
 74
3
 42
0.0000001
 43
0.0000001
 44
0.0000000001
 12
-0.1162774439
 22
-0.0610413491
 32
0.0
 13
-0.0780154687
 23
-0.1056412651
 33
0.0
 40
0.0
 40
0.0
 40
0.0
 40
0.0
 40
0.2303291093
 40
1.0
 40
1.0
 40
1.0
 40
1.0
 10
0.0767232481
 20
20.2281275668
 30
0.0
 10
0.0677958881
 20
20.2234410336
 30
0.0
 10
0.0305338517
 20
20.2002547135
 30
0.0
 10
-0.0004418971
 20
20.1678502174
 30
0.0
 10
-0.0204573089
 20
20.1407472153
 30
0.0
 11
0.0767232481
 21
20.2281275668
 31
0.0
 11
0.0509643218
 21
20.2122710267
 31
0.0
 11
-0.0204573089
 21
20.1407472153
 31
0.0
  0
SPLINE
  5
4E4
100
AcDbEntity
  8
ASSI
100
AcDbSpline
 62
253
  6
CONTINUOUS
 70
0
 71
3
 72
9
 73
5
 74
3
 42
0.0000001
 43
0.0000001
 44
0.0000000001
 12
-0.137751897
 22
-0.1865307599
 32
0.0
 13
0.0000021084
 23
-0.2318821026
 33
0.0
 40
0.0
 40
0.0
 40
0.0
 40
0.0
 40
0.515081084
 40
1.0
 40
1.0
 40
1.0
 40
1.0
 10
-0.0204573089
 20
20.1407472153
 30
0.0
 10
-0.044108441
 20
20.1087210599
 30
0.0
 10
-0.0806682233
 20
20.0393422611
 30
0.0
 10
-0.0963622499
 20
19.9619865922
 30
0.0
 10
-0.0963619091
 20
19.9245052529
 30
0.0
 11
-0.0204573089
 21
20.1407472153
 31
0.0
 11
-0.0762350828
 21
20.0351333145
 31
0.0
 11
-0.0963619091
 21
19.9245052529
 31
0.0
  0
SPLINE
  5
4E5
100
AcDbEntity
  8
ASSI
100
AcDbSpline
 62
253
  6
CONTINUOUS
 70
0
 71
3
 72
11
 73
7
 74
5
 42
0.0000001
 43
0.0000001
 44
0.0000000001
 12
-0.0000019047
 22
0.3637622627
 32
0.0
 13
0.3230249779
 23
0.1672657987
 33
0.0
 40
0.0
 40
0.0
 40
0.0
 40
0.0
 40
0.2460275742
 40
0.5103566058
 40
0.7690195998
 40
1.0
 40
1.0
 40
1.0
 40
1.0
 10
-10.618361291
 20
25.1855074435
 30
0.0
 10
-10.6183614472
 20
25.2153392926
 30
0.0
 10
-10.6081409505
 20
25.2773295782
 30
0.0
 10
-10.5710208579
 20
25.3637164491
 30
0.0
 10
-10.5163153116
 20
25.4379371332
 30
0.0
 10
-10.4689342285
 20
25.475642525
 30
0.0
 10
-10.4440634156
 20
25.4885208987
 30
0.0
 11
-10.618361291
 21
25.1855074435
 31
0.0
 11
-10.6051577467
 21
25.2740236532
 31
0.0
 11
-10.5675026991
 21
25.3624967151
 31
0.0
 11
-10.5109986131
 21
25.4377334206
 31
0.0
 11
-10.4440634156
 21
25.4885208987
 31
0.0
  0
SPLINE
  5
4E6
100
AcDbEntity
  8
ASSI
100
AcDbSpline
 62
253
  6
CONTINUOUS
 70
0
 71
3
 72
9
 73
5
 74
3
 42
0.0000001
 43
0.0000001
 44
0.0000000001
 12
-0.0000017219
 22
0.2280050728
 32
0.0
 13
0.133548538
 23
0.1848001656
 33
0.0
 40
0.0
 40
0.0
 40
0.0
 40
0.0
 40
0.4844999455
 40
1.0
 40
1.0
 40
1.0
 40
1.0
 10
-12.6828626142
 20
26.2177556054
 30
0.0
 10
-12.6828628923
 20
26.2545784206
 30
0.0
 10
-12.6676860012
 20
26.3306464031
 30
0.0
 10
-12.6322204691
 20
26.3990747673
 30
0.0
 10
-12.6092723762
 20
26.4308295992
 30
0.0
 11
-12.6828626142
 21
26.2177556054
 31
0.0
 11
-12.6633939269
 21
26.3264949619
 31
0.0
 11
-12.6092723762
 21
26.4308295992
 31
0.0
  0
SPLINE
  5
4E7
100
AcDbEntity
  8
ASSI
100
AcDbSpline
 62
253
  6
CONTINUOUS
 70
0
 71
3
 72
9
 73
5
 74
3
 42
0.0000001
 43
0.0000001
 44
0.0000000001
 12
0.0791590502
 22
0.1095377441
 32
0.0
 13
0.119659222
 23
0.0628199268
 33
0.0
 40
0.0
 40
0.0
 40
0.0
 40
0.0
 40
0.2690660329
 40
1.0
 40
1.0
 40
1.0
 40
1.0
 10
-12.6092723762
 20
26.4308295992
 30
0.0
 10
-12.6021727057
 20
26.4406538946
 30
0.0
 10
-12.5741172842
 20
26.4758318174
 30
0.0
 10
-12.5389317869
 20
26.5060721799
 30
0.0
 10
-12.509777457
 20
26.5213779194
 30
0.0
 11
-12.6092723762
 21
26.4308295992
 31
0.0
 11
-12.586558991
 21
26.4592268006
 31
0.0
 11
-12.509777457
 21
26.5213779194
 31
0.0
  0
SPLINE
  5
4E8
100
AcDbEntity
  8
ASSI
100
AcDbSpline
 62
253
  6
CONTINUOUS
 70
0
 71
3
 72
9
 73
5
 74
3
 42
0.0000001
 43
0.0000001
 44
0.0000000001
 12
-0.1004409607
 22
0.0510855561
 32
0.0
 13
-0.1020102299
 23
-0.0478751879
 33
0.0
 40
0.0
 40
0.0
 40
0.0
 40
0.0
 40
0.5343970039
 40
1.0
 40
1.0
 40
1.0
 40
1.0
 10
5.8828912072
 20
24.0665232329
 30
0.0
 10
5.8649994243
 20
24.0756232223
 30
0.0
 10
5.8284041082
 20
24.0880633557
 30
0.0
 10
5.7893013658
 20
24.0821880518
 30
0.0
 10
5.7734692763
 20
24.0747577749
 30
0.0
 11
5.8828912072
 21
24.0665232329
 31
0.0
 11
5.8251704986
 21
24.0836886369
 31
0.0
 11
5.7734692763
 21
24.0747577749
 31
0.0
  0
SPLINE
  5
4E9
100
AcDbEntity
  8
ASSI
100
AcDbSpline
 62
253
  6
CONTINUOUS
 70
0
 71
3
 72
11
 73
7
 74
5
 42
0.0000001
 43
0.0000001
 44
0.0000000001
 12
0.329880605
 22
-0.1621482398
 32
0.0
 13
-0.0051550514
 23
-0.3675414135
 33
0.0
 40
0.0
 40
0.0
 40
0.0
 40
0.0
 40
0.2298231387
 40
0.4878750929
 40
0.7525806787
 40
1.0
 40
1.0
 40
1.0
 40
1.0
 10
1.1047365518
 20
26.4556005606
 30
0.0
 10
1.1300079505
 20
26.4431787548
 30
0.0
 10
1.1782718311
 20
26.4057627506
 30
0.0
 10
1.2336290476
 20
26.3309639269
 30
0.0
 10
1.270749283
 20
26.2432953404
 30
0.0
 10
1.2803891385
 20
26.1802832195
 30
0.0
 10
1.2799639854
 20
26.1499709372
 30
0.0
 11
1.1047365518
 21
26.4556005606
 31
0.0
 11
1.1727326013
 21
26.4054703211
 31
0.0
 11
1.2299092425
 21
26.3297858866
 31
0.0
 11
1.2675635027
 21
26.2400673577
 31
0.0
 11
1.2799639854
 21
26.1499709372
 31
0.0
  0
SPLINE
  5
4EA
100
AcDbEntity
  8
ASSI
100
AcDbSpline
 62
253
  6
CONTINUOUS
 70
0
 71
3
 72
9
 73
5
 74
3
 42
0.0000001
 43
0.0000001
 44
0.0000000001
 12
0.1003362716
 22
0.0483682212
 32
0.0
 13
0.0996520263
 23
-0.0497626956
 33
0.0
 40
0.0
 40
0.0
 40
0.0
 40
0.0
 40
0.5350743832
 40
1.0
 40
1.0
 40
1.0
 40
1.0
 10
-8.2980567994
 20
26.5656850727
 30
0.0
 10
-8.2801610099
 20
26.5743119381
 30
0.0
 10
-8.2437443277
 20
26.5858748971
 30
0.0
 10
-8.2052111542
 20
26.5792002739
 30
0.0
 10
-8.1897675609
 20
26.5714882899
 30
0.0
 11
-8.2980567994
 21
26.5656850727
 31
0.0
 11
-8.2405837812
 21
26.5814645208
 31
0.0
 11
-8.1897675609
 21
26.5714882899
 31
0.0
  0
SPLINE
  5
4EB
100
AcDbEntity
  8
ASSI
100
AcDbSpline
 62
253
  6
CONTINUOUS
 70
0
 71
3
 72
9
 73
5
 74
3
 42
0.0000001
 43
0.0000001
 44
0.0000000001
 12
0.0975513207
 22
0.0463587883
 32
0.0
 13
0.0986942575
 23
-0.0438730096
 33
0.0
 40
0.0
 40
0.0
 40
0.0
 40
0.0
 40
0.5340871274
 40
1.0
 40
1.0
 40
1.0
 40
1.0
 10
-10.4008006481
 20
27.6170550105
 30
0.0
 10
-10.3834336799
 20
27.6253082211
 30
0.0
 10
-10.348224308
 20
27.6364366652
 30
0.0
 10
-10.3109023334
 20
27.6310971238
 30
0.0
 10
-10.2955746917
 20
27.6242834572
 30
0.0
 11
-10.4008006481
 21
27.6170550105
 31
0.0
 11
-10.3452213174
 21
27.6324978612
 31
0.0
 11
-10.2955746917
 21
27.6242834572
 31
0.0
  0
SPLINE
  5
4EC
100
AcDbEntity
  8
ASSI
100
AcDbSpline
 62
253
  6
CONTINUOUS
 70
0
 71
3
 72
11
 73
7
 74
5
 42
0.0000001
 43
0.0000001
 44
0.0000000001
 12
-0.0857674306
 22
-0.2202857061
 32
0.0
 13
-0.2312514524
 23
0.0490368253
 33
0.0
 40
0.0
 40
0.0
 40
0.0
 40
0.0
 40
0.2783621613
 40
0.5385359768
 40
0.776655476
 40
1.0
 40
1.0
 40
1.0
 40
1.0
 10
2.2664786784
 20
18.5449470416
 30
0.0
 10
2.2585205426
 20
18.5245073065
 30
0.0
 10
2.2378750539
 20
18.4867175547
 30
0.0
 10
2.1937017642
 20
18.4429611767
 30
0.0
 10
2.1409949757
 20
18.4182727081
 30
0.0
 10
2.103265978
 20
18.417609857
 30
0.0
 10
2.0860497295
 20
18.4212605592
 30
0.0
 11
2.2664786784
 21
18.5449470416
 31
0.0
 11
2.2345102154
 21
18.4874313947
 31
0.0
 11
2.1902519548
 21
18.4447245852
 31
0.0
 11
2.1388442043
 21
18.4217943904
 31
0.0
 11
2.0860497295
 21
18.4212605592
 31
0.0
  0
SPLINE
  5
4ED
100
AcDbEntity
  8
ASSI
100
AcDbSpline
 62
7
  6
CONTINUOUS
 70
0
 71
3
 72
10
 73
6
 74
4
 42
0.0000001
 43
0.0000001
 44
0.0000000001
 12
-0.2127160259
 22
-0.219357282
 32
0.0
 13
-0.2988271656
 23
0.0637812663
 33
0.0
 40
0.0
 40
0.0
 40
0.0
 40
0.0
 40
0.2482934291
 40
0.5043635743
 40
1.0
 40
1.0
 40
1.0
 40
1.0
 10
3.0032864826
 20
18.3886468646
 30
0.0
 10
2.9856811521
 20
18.370491874
 30
0.0
 10
2.9458035471
 20
18.3372726755
 30
0.0
 10
2.856334296
 20
18.2887575528
 30
0.0
 10
2.7750774377
 20
18.2750188415
 30
0.0
 10
2.7257075616
 20
18.2855562811
 30
0.0
 11
3.0032864826
 21
18.3886468646
 31
0.0
 11
2.9451467009
 21
18.3399054254
 31
0.0
 11
2.876143242
 21
18.3030178607
 31
0.0
 11
2.7257075616
 21
18.2855562811
 31
0.0
  0
SPLINE
  5
4EE
100
AcDbEntity
  8
ASSI
100
AcDbSpline
 62
253
  6
CONTINUOUS
 70
0
 71
3
 72
11
 73
7
 74
5
 42
0.0000001
 43
0.0000001
 44
0.0000000001
 12
-0.2592592138
 22
-0.1251821714
 32
0.0
 13
-0.2575046934
 23
0.1287526653
 33
0.0
 40
0.0
 40
0.0
 40
0.0
 40
0.0
 40
0.2366131959
 40
0.5012536678
 40
0.765220306
 40
1.0
 40
1.0
 40
1.0
 40
1.0
 10
2.248492444
 20
18.5737624892
 30
0.0
 10
2.2280443936
 20
18.563889238
 30
0.0
 10
2.1814053774
 20
18.549853009
 30
0.0
 10
2.1078700021
 20
18.5433444596
 30
0.0
 10
2.0345696612
 20
18.5504580941
 30
0.0
 10
1.9882917047
 20
18.5649096206
 30
0.0
 10
1.9681394136
 20
18.5749857911
 30
0.0
 11
2.248492444
 21
18.5737624892
 31
0.0
 11
2.1836722561
 21
18.5528154625
 31
0.0
 11
2.1078154607
 21
18.5457002077
 31
0.0
 11
2.0322185764
 21
18.5534763209
 31
0.0
 11
1.9681394136
 21
18.5749857911
 31
0.0
  0
SPLINE
  5
4EF
100
AcDbEntity
  8
ASSI
100
AcDbSpline
 62
253
  6
CONTINUOUS
 70
0
 71
3
 72
11
 73
7
 74
5
 42
0.0000001
 43
0.0000001
 44
0.0000000001
 12
-0.2592593051
 22
-0.1251819003
 32
0.0
 13
-0.257504789
 23
0.1287523945
 33
0.0
 40
0.0
 40
0.0
 40
0.0
 40
0.0
 40
0.236613166
 40
0.5012536621
 40
0.7652203297
 40
1.0
 40
1.0
 40
1.0
 40
1.0
 10
2.248492444
 20
18.8910312896
 30
0.0
 10
2.228044389
 20
18.881158061
 30
0.0
 10
2.1814053717
 20
18.867121867
 30
0.0
 10
2.1078700037
 20
18.8606133353
 30
0.0
 10
2.0345696693
 20
18.8677269518
 30
0.0
 10
1.9882917101
 20
18.8821784433
 30
0.0
 10
1.9681394136
 20
18.8922545915
 30
0.0
 11
2.248492444
 21
18.8910312896
 31
0.0
 11
2.1836722574
 21
18.8700843144
 31
0.0
 11
2.1078154628
 21
18.8629690773
 31
0.0
 11
2.0322185775
 21
18.8707451725
 31
0.0
 11
1.9681394136
 21
18.8922545915
 31
0.0
  0
SPLINE
  5
4F0
100
AcDbEntity
  8
ASSI
100
AcDbSpline
 62
253
  6
CONTINUOUS
 70
0
 71
3
 72
11
 73
7
 74
5
 42
0.0000001
 43
0.0000001
 44
0.0000000001
 12
-0.0042751977
 22
0.2928511099
 32
0.0
 13
-0.260047887
 23
0.1347410344
 33
0.0
 40
0.0
 40
0.0
 40
0.0
 40
0.0
 40
0.2465056875
 40
0.5120768718
 40
0.771055458
 40
1.0
 40
1.0
 40
1.0
 40
1.0
 10
2.2838371066
 20
18.9513919368
 30
0.0
 10
2.2834858198
 20
18.9754550915
 30
0.0
 10
2.2745890752
 20
19.0253957913
 30
0.0
 10
2.2441995492
 20
19.094912708
 30
0.0
 10
2.2001854778
 20
19.1545874446
 30
0.0
 10
2.1622828043
 20
19.1849878047
 30
0.0
 10
2.1424372895
 20
19.1952705461
 30
0.0
 11
2.2838371066
 21
18.9513919368
 31
0.0
 11
2.2723050763
 21
19.0226621384
 31
0.0
 11
2.2413850296
 21
19.094033356
 31
0.0
 11
2.1957824605
 21
19.1546441285
 31
0.0
 11
2.1424372895
 21
19.1952705461
 31
0.0
  0
SPLINE
  5
4F1
100
AcDbEntity
  8
ASSI
100
AcDbSpline
 62
253
  6
CONTINUOUS
 70
0
 71
3
 72
10
 73
6
 74
4
 42
0.0000001
 43
0.0000001
 44
0.0000000001
 12
0.0310656641
 22
-0.0510064764
 32
0.0
 13
-0.0374985269
 23
-0.0464822181
 33
0.0
 40
0.0
 40
0.0
 40
0.0
 40
0.0
 40
0.345266641
 40
0.6241284716
 40
1.0
 40
1.0
 40
1.0
 40
1.0
 10
4.4466045391
 20
19.6164960798
 30
0.0
 10
4.4501798516
 20
19.6106258015
 30
0.0
 10
4.4561006305
 20
19.5995360742
 30
0.0
 10
4.4630187788
 20
19.5812943691
 30
0.0
 10
4.4629868317
 20
19.5660804579
 30
0.0
 10
4.4582886222
 20
19.5602566771
 30
0.0
 11
4.4466045391
 21
19.6164960798
 31
0.0
 11
4.4562400256
 21
19.5982657579
 31
0.0
 11
4.4615201744
 21
19.5824707139
 31
0.0
 11
4.4582886222
 21
19.5602566771
 31
0.0
  0
SPLINE
  5
4F2
100
AcDbEntity
  8
ASSI
100
AcDbSpline
 62
253
  6
CONTINUOUS
 70
0
 71
3
 72
11
 73
7
 74
5
 42
0.0000001
 43
0.0000001
 44
0.0000000001
 12
0.0830519927
 22
0.043001428
 32
0.0
 13
0.0000129856
 23
0.0935240939
 33
0.0
 40
0.0
 40
0.0
 40
0.0
 40
0.0
 40
0.300708284
 40
0.5638120708
 40
0.7923304554
 40
1.0
 40
1.0
 40
1.0
 40
1.0
 10
4.4639736438
 20
19.662989197
 30
0.0
 10
4.4722984512
 20
19.6672994922
 30
0.0
 10
4.4873532782
 20
19.6765592992
 30
0.0
 10
4.5056435161
 20
19.6934734145
 30
0.0
 10
4.5173132989
 20
19.7122843134
 30
0.0
 10
4.5201047226
 20
19.7259809987
 30
0.0
 10
4.5201056215
 20
19.732455034
 30
0.0
 11
4.4639736438
 21
19.662989197
 31
0.0
 11
4.4877771649
 21
19.6779665783
 31
0.0
 11
4.5055412766
 21
19.6949935662
 31
0.0
 11
4.51642949
 21
19.7133840019
 31
0.0
 11
4.5201056215
 21
19.732455034
 31
0.0
  0
SPLINE
  5
4F3
100
AcDbEntity
  8
ASSI
100
AcDbSpline
 62
253
  6
CONTINUOUS
 70
0
 71
3
 72
11
 73
7
 74
5
 42
0.0000001
 43
0.0000001
 44
0.0000000001
 12
0.0830519925
 22
0.0430014281
 32
0.0
 13
0.0000129856
 23
0.0935240938
 33
0.0
 40
0.0
 40
0.0
 40
0.0
 40
0.0
 40
0.3007082848
 40
0.5638120704
 40
0.7923304547
 40
1.0
 40
1.0
 40
1.0
 40
1.0
 10
4.4639736438
 20
20.0029327918
 30
0.0
 10
4.4722984512
 20
20.0072430871
 30
0.0
 10
4.4873532782
 20
20.016502894
 30
0.0
 10
4.505643516
 20
20.0334170093
 30
0.0
 10
4.5173132988
 20
20.0522279082
 30
0.0
 10
4.5201047226
 20
20.0659245935
 30
0.0
 10
4.5201056215
 20
20.0723986288
 30
0.0
 11
4.4639736438
 21
20.0029327918
 31
0.0
 11
4.4877771649
 21
20.0179101731
 31
0.0
 11
4.5055412766
 21
20.0349371609
 31
0.0
 11
4.5164294899
 21
20.0533275967
 31
0.0
 11
4.5201056215
 21
20.0723986288
 31
0.0
  0
SPLINE
  5
4F4
100
AcDbEntity
  8
ASSI
100
AcDbSpline
 62
253
  6
CONTINUOUS
 70
0
 71
3
 72
11
 73
7
 74
5
 42
0.0000001
 43
0.0000001
 44
0.0000000001
 12
0.0040900125
 22
0.2942829918
 32
0.0
 13
-0.2649951358
 23
0.1280499335
 33
0.0
 40
0.0
 40
0.0
 40
0.0
 40
0.0
 40
0.2470852825
 40
0.5114851658
 40
0.7695777888
 40
1.0
 40
1.0
 40
1.0
 40
1.0
 10
4.4298416998
 20
20.0285551357
 30
0.0
 10
4.4301785604
 20
20.0527928011
 30
0.0
 10
4.4223913534
 20
20.1031851282
 30
0.0
 10
4.3924103315
 20
20.1732173762
 30
0.0
 10
4.3477080593
 20
20.2328815791
 30
0.0
 10
4.3087954711
 20
20.2625985621
 30
0.0
 10
4.2884418827
 20
20.272433745
 30
0.0
 11
4.4298416998
 21
20.0285551357
 31
0.0
 11
4.419822173
 21
20.1005815904
 31
0.0
 11
4.3894332356
 21
20.1722183634
 31
0.0
 11
4.3432995568
 21
20.2325635802
 31
0.0
 11
4.2884418827
 21
20.272433745
 31
0.0
  0
SPLINE
  5
4F5
100
AcDbEntity
  8
ASSI
100
AcDbSpline
 62
7
  6
CONTINUOUS
 70
0
 71
3
 72
11
 73
7
 74
5
 42
0.0000001
 43
0.0000001
 44
0.0000000001
 12
0.2626045656
 22
-0.1313022828
 32
0.0
 13
0.0
 23
-0.2936008299
 33
0.0
 40
0.0
 40
0.0
 40
0.0
 40
0.0
 40
0.2296740836
 40
0.4882138821
 40
0.7532075651
 40
1.0
 40
1.0
 40
1.0
 40
1.0
 10
3.7643374162
 20
20.0124740659
 30
0.0
 10
3.7844419038
 20
20.0024218221
 30
0.0
 10
3.822859966
 20
19.9723690479
 30
0.0
 10
3.8672223262
 20
19.9127003622
 30
0.0
 10
3.8974043213
 20
19.8429214992
 30
0.0
 10
3.9057372333
 20
19.7927482778
 30
0.0
 10
3.9057372333
 20
19.7685954566
 30
0.0
 11
3.7643374162
 21
20.0124740659
 31
0.0
 11
3.818449899
 21
19.9722374971
 31
0.0
 11
3.8643247979
 21
19.9117607072
 31
0.0
 11
3.8949755411
 21
19.8402502885
 31
0.0
 11
3.9057372333
 21
19.7685954566
 31
0.0
  0
SPLINE
  5
4F6
100
AcDbEntity
  8
ASSI
100
AcDbSpline
 62
253
  6
CONTINUOUS
 70
0
 71
3
 72
11
 73
7
 74
5
 42
0.0000001
 43
0.0000001
 44
0.0000000001
 12
0.2575047899
 22
-0.1287523919
 32
0.0
 13
0.2592593058
 23
0.1251818983
 33
0.0
 40
0.0
 40
0.0
 40
0.0
 40
0.0
 40
0.2347796661
 40
0.498746331
 40
0.7633868303
 40
1.0
 40
1.0
 40
1.0
 40
1.0
 10
-4.65397914
 20
23.2140051526
 30
0.0
 10
-4.6338268438
 20
23.2039290048
 30
0.0
 10
-4.5875488853
 20
23.1894775136
 30
0.0
 10
-4.5142485513
 20
23.1823638971
 30
0.0
 10
-4.440713183
 20
23.1888724283
 30
0.0
 10
-4.394074165
 20
23.2029086221
 30
0.0
 10
-4.3736261096
 20
23.2127818507
 30
0.0
 11
-4.65397914
 21
23.2140051526
 31
0.0
 11
-4.5898999772
 21
23.1924957343
 31
0.0
 11
-4.5143030928
 21
23.1847196391
 31
0.0
 11
-4.4384462973
 21
23.1918348757
 31
0.0
 11
-4.3736261096
 21
23.2127818507
 31
0.0
  0
SPLINE
  5
4F7
100
AcDbEntity
  8
ASSI
100
AcDbSpline
 62
253
  6
CONTINUOUS
 70
0
 71
3
 72
11
 73
7
 74
5
 42
0.0000001
 43
0.0000001
 44
0.0000000001
 12
0.0
 22
0.2909088213
 32
0.0
 13
0.2579535453
 23
0.1344913038
 33
0.0
 40
0.0
 40
0.0
 40
0.0
 40
0.0
 40
0.2462187683
 40
0.5106608019
 40
0.7692790849
 40
1.0
 40
1.0
 40
1.0
 40
1.0
 10
-4.6893290942
 20
23.274974805
 30
0.0
 10
-4.6893290942
 20
23.2988505422
 30
0.0
 10
-4.6811798038
 20
23.3484542828
 30
0.0
 10
-4.6515909131
 20
23.4176039501
 30
0.0
 10
-4.6079934693
 20
23.4770423823
 30
0.0
 10
-4.570214307
 20
23.5072867935
 30
0.0
 10
-4.550375881
 20
23.5176301124
 30
0.0
 11
-4.6893290942
 21
23.274974805
 31
0.0
 11
-4.6787989313
 21
23.3458237508
 31
0.0
 11
-4.6487765839
 21
23.4166521059
 31
0.0
 11
-4.6037329495
 21
23.4769121831
 31
0.0
 11
-4.550375881
 21
23.5176301124
 31
0.0
  0
SPLINE
  5
4F8
100
AcDbEntity
  8
ASSI
100
AcDbSpline
 62
253
  6
CONTINUOUS
 70
0
 71
3
 72
11
 73
7
 74
5
 42
0.0000001
 43
0.0000001
 44
0.0000000001
 12
-0.0860674549
 22
0.0430337276
 32
0.0
 13
-0.0000391052
 23
0.096226332
 33
0.0
 40
0.0
 40
0.0
 40
0.0
 40
0.0
 40
0.301896701
 40
0.5654819851
 40
0.7935260419
 40
1.0
 40
1.0
 40
1.0
 40
1.0
 10
-0.0963619091
 20
19.6072364525
 30
0.0
 10
-0.1050230693
 20
19.6115670326
 30
0.0
 10
-0.1206924669
 20
19.6209019046
 30
0.0
 10
-0.1397785581
 20
19.6380717281
 30
0.0
 10
-0.1519941054
 20
19.6572586897
 30
0.0
 10
-0.1549377956
 20
19.6712973236
 30
0.0
 10
-0.154940487
 20
19.6779200675
 30
0.0
 11
-0.0963619091
 21
19.6072364525
 31
0.0
 11
-0.1211645625
 21
19.6223611004
 31
0.0
 11
-0.139707183
 21
19.6396670522
 31
0.0
 11
-0.1510881205
 21
19.6584288909
 31
0.0
 11
-0.154940487
 21
19.6779200675
 31
0.0
  0
SPLINE
  5
4F9
100
AcDbEntity
  8
ASSI
100
AcDbSpline
 62
253
  6
CONTINUOUS
 70
0
 71
3
 72
11
 73
7
 74
5
 42
0.0000001
 43
0.0000001
 44
0.0000000001
 12
-0.0860645865
 22
0.0430322933
 32
0.0
 13
-0.0000454116
 23
0.0962231223
 33
0.0
 40
0.0
 40
0.0
 40
0.0
 40
0.0
 40
0.3018950576
 40
0.5654806419
 40
0.7935260005
 40
1.0
 40
1.0
 40
1.0
 40
1.0
 10
-0.0963619091
 20
19.9245052529
 30
0.0
 10
-0.1050227335
 20
19.9288356651
 30
0.0
 10
-0.1206915888
 20
19.9381701579
 30
0.0
 10
-0.1397772418
 20
19.955339149
 30
0.0
 10
-0.1519929741
 20
19.9745250944
 30
0.0
 10
-0.1549373601
 20
19.9885630897
 30
0.0
 10
-0.1549404856
 20
19.995185614
 30
0.0
 11
-0.0963619091
 21
19.9245052529
 31
0.0
 11
-0.1211636564
 21
19.9396292232
 31
0.0
 11
-0.1397059334
 21
19.9569343466
 31
0.0
 11
-0.1510871678
 21
19.9756952963
 31
0.0
 11
-0.1549404856
 21
19.995185614
 31
0.0
  0
SPLINE
  5
4FA
100
AcDbEntity
  8
ASSI
100
AcDbSpline
 62
253
  6
CONTINUOUS
 70
0
 71
3
 72
9
 73
5
 74
3
 42
0.0000001
 43
0.0000001
 44
0.0000000001
 12
-0.0857124956
 22
0.041354812
 32
0.0
 13
-0.0838393409
 23
-0.0450312924
 33
0.0
 40
0.0
 40
0.0
 40
0.0
 40
0.0
 40
0.5373176054
 40
1.0
 40
1.0
 40
1.0
 40
1.0
 10
0.0767232481
 20
20.2281275668
 30
0.0
 10
0.0613716372
 20
20.2355344563
 30
0.0
 10
0.0302174438
 20
20.2454220704
 30
0.0
 10
-0.0027479348
 20
20.2391914923
 30
0.0
 10
-0.0156782638
 20
20.2322464303
 30
0.0
 11
0.0767232481
 21
20.2281275668
 31
0.0
 11
0.0273693363
 21
20.2415065479
 31
0.0
 11
-0.0156782638
 21
20.2322464303
 31
0.0
  0
SPLINE
  5
4FB
100
AcDbEntity
  8
ASSI
100
AcDbSpline
 62
253
  6
CONTINUOUS
 70
0
 71
3
 72
11
 73
7
 74
5
 42
0.0000001
 43
0.0000001
 44
0.0000000001
 12
-0.0000000004
 22
0.2909088214
 32
0.0
 13
0.2579535455
 23
0.1344913035
 33
0.0
 40
0.0
 40
0.0
 40
0.0
 40
0.0
 40
0.2462187672
 40
0.5106608001
 40
0.7692790838
 40
1.0
 40
1.0
 40
1.0
 40
1.0
 10
-6.9092775828
 20
24.3849490492
 30
0.0
 10
-6.9092775829
 20
24.4088247864
 30
0.0
 10
-6.9011282926
 20
24.4584285269
 30
0.0
 10
-6.871539402
 20
24.5275781941
 30
0.0
 10
-6.8279419582
 20
24.5870166265
 30
0.0
 10
-6.7901627957
 20
24.6172610377
 30
0.0
 10
-6.7703243696
 20
24.6276043567
 30
0.0
 11
-6.9092775828
 21
24.3849490492
 31
0.0
 11
-6.8987474201
 21
24.4557979948
 31
0.0
 11
-6.8687250728
 21
24.5266263498
 31
0.0
 11
-6.8236814384
 21
24.5868864272
 31
0.0
 11
-6.7703243696
 21
24.6276043567
 31
0.0
  0
SPLINE
  5
4FC
100
AcDbEntity
  8
ASSI
100
AcDbSpline
 62
253
  6
CONTINUOUS
 70
0
 71
3
 72
11
 73
7
 74
5
 42
0.0000001
 43
0.0000001
 44
0.0000000001
 12
-0.086091312
 22
0.043045656
 32
0.0
 13
0.0000133645
 23
0.0962530121
 33
0.0
 40
0.0
 40
0.0
 40
0.0
 40
0.0
 40
0.3019103668
 40
0.5654931424
 40
0.7935263697
 40
1.0
 40
1.0
 40
1.0
 40
1.0
 10
-6.9446275371
 20
24.3593293512
 30
0.0
 10
-6.9532914903
 20
24.3636613278
 30
0.0
 10
-6.9689653986
 20
24.3729993533
 30
0.0
 10
-6.9880551333
 20
24.3901761002
 30
0.0
 10
-7.0002691392
 20
24.4093715148
 30
0.0
 10
-7.0032070384
 20
24.4234154597
 30
0.0
 10
-7.0032061186
 20
24.4300400293
 30
0.0
 11
-6.9446275371
 21
24.3593293512
 31
0.0
 11
-6.9694377263
 21
24.3744596344
 31
0.0
 11
-6.9879832025
 21
24.3917724764
 31
0.0
 11
-6.9993616684
 21
24.4105417085
 31
0.0
 11
-7.0032061186
 21
24.4300400293
 31
0.0
  0
SPLINE
  5
4FD
100
AcDbEntity
  8
ASSI
100
AcDbSpline
 62
253
  6
CONTINUOUS
 70
0
 71
3
 72
9
 73
5
 74
3
 42
0.0000001
 43
0.0000001
 44
0.0000000001
 12
-0.0787764132
 22
0.0407573394
 32
0.0
 13
-0.0806659325
 23
-0.0368767044
 33
0.0
 40
0.0
 40
0.0
 40
0.0
 40
0.0
 40
0.5348396885
 40
1.0
 40
1.0
 40
1.0
 40
1.0
 10
2.185700057
 20
21.3238046579
 30
0.0
 10
2.1716558062
 20
21.3310708721
 30
0.0
 10
2.142944198
 20
21.3410957603
 30
0.0
 10
2.1121264231
 20
21.3367869302
 30
0.0
 10
2.099618893
 20
21.3310690704
 30
0.0
 11
2.185700057
 21
21.3238046579
 31
0.0
 11
2.1403411147
 21
21.3376940781
 31
0.0
 11
2.099618893
 21
21.3310690704
 31
0.0
  0
SPLINE
  5
4FE
100
AcDbEntity
  8
ASSI
100
AcDbSpline
 62
253
  6
CONTINUOUS
 70
0
 71
3
 72
11
 73
7
 74
5
 42
0.0000001
 43
0.0000001
 44
0.0000000001
 12
0.2575047899
 22
-0.1287523919
 32
0.0
 13
0.2592593058
 23
0.1251818983
 33
0.0
 40
0.0
 40
0.0
 40
0.0
 40
0.0
 40
0.2347796661
 40
0.498746331
 40
0.7633868303
 40
1.0
 40
1.0
 40
1.0
 40
1.0
 10
-0.9416685387
 20
21.357849852
 30
0.0
 10
-0.9215162425
 20
21.3477737042
 30
0.0
 10
-0.8752382841
 20
21.333322213
 30
0.0
 10
-0.8019379501
 20
21.3262085965
 30
0.0
 10
-0.7284025818
 20
21.3327171277
 30
0.0
 10
-0.6817635638
 20
21.3467533215
 30
0.0
 10
-0.6613155084
 20
21.3566265501
 30
0.0
 11
-0.9416685387
 21
21.357849852
 31
0.0
 11
-0.877589376
 21
21.3363404336
 31
0.0
 11
-0.8019924916
 21
21.3285643384
 31
0.0
 11
-0.7261356961
 21
21.3356795751
 31
0.0
 11
-0.6613155084
 21
21.3566265501
 31
0.0
  0
SPLINE
  5
4FF
100
AcDbEntity
  8
ASSI
100
AcDbSpline
 62
7
  6
CONTINUOUS
 70
0
 71
3
 72
10
 73
6
 74
4
 42
0.0000001
 43
0.0000001
 44
0.0000000001
 12
-0.2127740416
 22
-0.2194171091
 32
0.0
 13
-0.2989126536
 23
0.0637799818
 33
0.0
 40
0.0
 40
0.0
 40
0.0
 40
0.0
 40
0.2480868159
 40
0.5042334556
 40
1.0
 40
1.0
 40
1.0
 40
1.0
 10
-9.5832142225
 20
24.6818972172
 30
0.0
 10
-9.6008097007
 20
24.6637523865
 30
0.0
 10
-9.6406895132
 20
24.6305388133
 30
0.0
 10
-9.7301715377
 20
24.58197403
 30
0.0
 10
-9.8114839561
 20
24.5683101035
 30
0.0
 10
-9.8608809205
 20
24.5788500972
 30
0.0
 11
-9.5832142225
 21
24.6818972172
 31
0.0
 11
-9.6413205221
 21
24.6331819266
 31
0.0
 11
-9.7103579987
 21
24.5962631404
 31
0.0
 11
-9.8608809205
 21
24.5788500972
 31
0.0
  0
SPLINE
  5
500
100
AcDbEntity
  8
ASSI
100
AcDbSpline
 62
253
  6
CONTINUOUS
 70
0
 71
3
 72
11
 73
7
 74
5
 42
0.0000001
 43
0.0000001
 44
0.0000000001
 12
0.0
 22
0.2909088213
 32
0.0
 13
0.2579535453
 23
0.1344913038
 33
0.0
 40
0.0
 40
0.0
 40
0.0
 40
0.0
 40
0.2462187683
 40
0.5106608019
 40
0.7692790849
 40
1.0
 40
1.0
 40
1.0
 40
1.0
 10
-0.977018493
 20
21.4188195043
 30
0.0
 10
-0.977018493
 20
21.4426952416
 30
0.0
 10
-0.9688692026
 20
21.4922989822
 30
0.0
 10
-0.9392803119
 20
21.5614486495
 30
0.0
 10
-0.8956828681
 20
21.6208870817
 30
0.0
 10
-0.8579037058
 20
21.6511314929
 30
0.0
 10
-0.8380652798
 20
21.6614748118
 30
0.0
 11
-0.977018493
 21
21.4188195043
 31
0.0
 11
-0.9664883301
 21
21.4896684501
 31
0.0
 11
-0.9364659826
 21
21.5604968053
 31
0.0
 11
-0.8914223483
 21
21.6207568824
 31
0.0
 11
-0.8380652798
 21
21.6614748118
 31
0.0
  0
SPLINE
  5
501
100
AcDbEntity
  8
ASSI
100
AcDbSpline
 62
253
  6
CONTINUOUS
 70
0
 71
3
 72
11
 73
7
 74
5
 42
0.0000001
 43
0.0000001
 44
0.0000000001
 12
0.257504789
 22
-0.1287523945
 32
0.0
 13
0.2592593051
 23
0.1251819003
 33
0.0
 40
0.0
 40
0.0
 40
0.0
 40
0.0
 40
0.2347796703
 40
0.4987463379
 40
0.763386834
 40
1.0
 40
1.0
 40
1.0
 40
1.0
 10
-10.6183612915
 20
24.8682361437
 30
0.0
 10
-10.598208995
 20
24.8581599955
 30
0.0
 10
-10.5519310358
 20
24.843708504
 30
0.0
 10
-10.4786307014
 20
24.8365948875
 30
0.0
 10
-10.4050953334
 20
24.8431034192
 30
0.0
 10
-10.3584563162
 20
24.8571396132
 30
0.0
 10
-10.3380082612
 20
24.8670128418
 30
0.0
 11
-10.6183612915
 21
24.8682361437
 31
0.0
 11
-10.5542821276
 21
24.8467267247
 31
0.0
 11
-10.4786852424
 21
24.8389506295
 31
0.0
 11
-10.4028284478
 21
24.8460658666
 31
0.0
 11
-10.3380082612
 21
24.8670128418
 31
0.0
  0
SPLINE
  5
502
100
AcDbEntity
  8
ASSI
100
AcDbSpline
 62
253
  6
CONTINUOUS
 70
0
 71
3
 72
11
 73
7
 74
5
 42
0.0000001
 43
0.0000001
 44
0.0000000001
 12
0.2575047889
 22
-0.1287523949
 32
0.0
 13
0.259259305
 23
0.1251819007
 33
0.0
 40
0.0
 40
0.0
 40
0.0
 40
0.0
 40
0.2347796713
 40
0.4987463397
 40
0.763386835
 40
1.0
 40
1.0
 40
1.0
 40
1.0
 10
-10.6183612915
 20
25.1855049441
 30
0.0
 10
-10.5982089949
 20
25.1754287958
 30
0.0
 10
-10.5519310356
 20
25.1609773042
 30
0.0
 10
-10.4786307011
 20
25.1538636878
 30
0.0
 10
-10.4050953332
 20
25.1603722195
 30
0.0
 10
-10.3584563161
 20
25.1744084136
 30
0.0
 10
-10.3380082612
 20
25.1842816422
 30
0.0
 11
-10.6183612915
 21
25.1855049441
 31
0.0
 11
-10.5542821273
 21
25.1639955249
 31
0.0
 11
-10.4786852419
 21
25.1562194298
 31
0.0
 11
-10.4028284475
 21
25.1633346669
 31
0.0
 11
-10.3380082612
 21
25.1842816422
 31
0.0
  0
SPLINE
  5
503
100
AcDbEntity
  8
ASSI
100
AcDbSpline
 62
253
  6
CONTINUOUS
 70
0
 71
3
 72
11
 73
7
 74
5
 42
0.0000001
 43
0.0000001
 44
0.0000000001
 12
0.2600478871
 22
-0.1347410343
 32
0.0
 13
0.0042751974
 23
-0.2928511099
 33
0.0
 40
0.0
 40
0.0
 40
0.0
 40
0.0
 40
0.2289445384
 40
0.4879231217
 40
0.7534943086
 40
1.0
 40
1.0
 40
1.0
 40
1.0
 10
-10.4440634156
 20
25.4885208987
 30
0.0
 10
-10.4242179011
 20
25.4782381574
 30
0.0
 10
-10.386315228
 20
25.4478377979
 30
0.0
 10
-10.3423011566
 20
25.3881630618
 30
0.0
 10
-10.3119116301
 20
25.3186461449
 30
0.0
 10
-10.3030148853
 20
25.2687054445
 30
0.0
 10
-10.3026635985
 20
25.2446422894
 30
0.0
 11
-10.4440634156
 21
25.4885208987
 31
0.0
 11
-10.3907182453
 21
25.4478944819
 31
0.0
 11
-10.3451156764
 21
25.3872837102
 31
0.0
 11
-10.3141956292
 21
25.3159124921
 31
0.0
 11
-10.3026635985
 21
25.2446422894
 31
0.0
  0
SPLINE
  5
504
100
AcDbEntity
  8
ASSI
100
AcDbSpline
 62
7
  6
CONTINUOUS
 70
0
 71
3
 72
11
 73
7
 74
5
 42
0.0000001
 43
0.0000001
 44
0.0000000001
 12
-0.0
 22
0.2936008299
 32
0.0
 13
-0.2626045656
 23
0.1313022828
 33
0.0
 40
0.0
 40
0.0
 40
0.0
 40
0.0
 40
0.2467924349
 40
0.5117861179
 40
0.7703259164
 40
1.0
 40
1.0
 40
1.0
 40
1.0
 10
-8.6807634719
 20
26.0618458091
 30
0.0
 10
-8.6807634719
 20
26.0859986304
 30
0.0
 10
-8.6890963838
 20
26.1361718518
 30
0.0
 10
-8.7192783789
 20
26.2059507147
 30
0.0
 10
-8.7636407391
 20
26.2656194004
 30
0.0
 10
-8.8020588013
 20
26.2956721746
 30
0.0
 10
-8.8221632889
 20
26.3057244184
 30
0.0
 11
-8.6807634719
 21
26.0618458091
 31
0.0
 11
-8.6915251641
 21
26.1335006411
 31
0.0
 11
-8.7221759073
 21
26.2050110597
 31
0.0
 11
-8.7680508061
 21
26.2654878497
 31
0.0
 11
-8.8221632889
 21
26.3057244184
 31
0.0
  0
SPLINE
  5
505
100
AcDbEntity
  8
ASSI
100
AcDbSpline
 62
253
  6
CONTINUOUS
 70
0
 71
3
 72
11
 73
7
 74
5
 42
0.0000001
 43
0.0000001
 44
0.0000000001
 12
-0.0000000004
 22
0.2909088214
 32
0.0
 13
0.2579535455
 23
0.1344913035
 33
0.0
 40
0.0
 40
0.0
 40
0.0
 40
0.0
 40
0.2462187672
 40
0.5106608001
 40
0.7692790838
 40
1.0
 40
1.0
 40
1.0
 40
1.0
 10
-3.1969669816
 20
22.5287937486
 30
0.0
 10
-3.1969669816
 20
22.5526694858
 30
0.0
 10
-3.1888176914
 20
22.6022732263
 30
0.0
 10
-3.1592288008
 20
22.6714228935
 30
0.0
 10
-3.115631357
 20
22.7308613258
 30
0.0
 10
-3.0778521945
 20
22.7611057371
 30
0.0
 10
-3.0580137683
 20
22.771449056
 30
0.0
 11
-3.1969669816
 21
22.5287937486
 31
0.0
 11
-3.1864368189
 21
22.5996426942
 31
0.0
 11
-3.1564144716
 21
22.6704710491
 31
0.0
 11
-3.1113708372
 21
22.7307311265
 31
0.0
 11
-3.0580137683
 21
22.771449056
 31
0.0
  0
SPLINE
  5
506
100
AcDbEntity
  8
ASSI
100
AcDbSpline
 62
253
  6
CONTINUOUS
 70
0
 71
3
 72
11
 73
7
 74
5
 42
0.0000001
 43
0.0000001
 44
0.0000000001
 12
-0.086091312
 22
0.043045656
 32
0.0
 13
0.0000133645
 23
0.0962530121
 33
0.0
 40
0.0
 40
0.0
 40
0.0
 40
0.0
 40
0.3019103668
 40
0.5654931424
 40
0.7935263697
 40
1.0
 40
1.0
 40
1.0
 40
1.0
 10
-3.2323169359
 20
22.5031740506
 30
0.0
 10
-3.2409808891
 20
22.5075060272
 30
0.0
 10
-3.2566547974
 20
22.5168440527
 30
0.0
 10
-3.275744532
 20
22.5340207996
 30
0.0
 10
-3.2879585379
 20
22.5532162142
 30
0.0
 10
-3.2908964372
 20
22.5672601591
 30
0.0
 10
-3.2908955174
 20
22.5738847287
 30
0.0
 11
-3.2323169359
 21
22.5031740506
 31
0.0
 11
-3.257127125
 21
22.5183043338
 31
0.0
 11
-3.2756726013
 21
22.5356171757
 31
0.0
 11
-3.2870510671
 21
22.5543864079
 31
0.0
 11
-3.2908955174
 21
22.5738847287
 31
0.0
  0
SPLINE
  5
507
100
AcDbEntity
  8
ASSI
100
AcDbSpline
 62
253
  6
CONTINUOUS
 70
0
 71
3
 72
11
 73
7
 74
5
 42
0.0000001
 43
0.0000001
 44
0.0000000001
 12
0.3312438285
 22
-0.1600625469
 32
0.0
 13
-0.0051123801
 23
-0.3678537161
 33
0.0
 40
0.0
 40
0.0
 40
0.0
 40
0.0
 40
0.2304221291
 40
0.4885147234
 40
0.7529146663
 40
1.0
 40
1.0
 40
1.0
 40
1.0
 10
3.2855923384
 20
23.7085530277
 30
0.0
 10
3.3110343078
 20
23.6962590434
 30
0.0
 10
3.3596750168
 20
23.659112814
 30
0.0
 10
3.4155528472
 20
23.5845325713
 30
0.0
 10
3.4530291451
 20
23.4969922677
 30
0.0
 10
3.4627631771
 20
23.4340018534
 30
0.0
 10
3.4623421124
 20
23.4037047674
 30
0.0
 11
3.2855923384
 21
23.7085530277
 31
0.0
 11
3.3541643881
 21
23.658715324
 31
0.0
 11
3.4118314754
 21
23.5832838161
 31
0.0
 11
3.4498176721
 21
23.4937378439
 31
0.0
 11
3.4623421124
 21
23.4037047674
 31
0.0
  0
SPLINE
  5
508
100
AcDbEntity
  8
ASSI
100
AcDbSpline
 62
253
  6
CONTINUOUS
 70
0
 71
3
 72
11
 73
7
 74
5
 42
0.0000001
 43
0.0000001
 44
0.0000000001
 12
0.2649951355
 22
-0.1280499339
 32
0.0
 13
-0.0040900118
 23
-0.2942829917
 33
0.0
 40
0.0
 40
0.0
 40
0.0
 40
0.0
 40
0.2304222131
 40
0.4885148378
 40
0.7529147197
 40
1.0
 40
1.0
 40
1.0
 40
1.0
 10
-8.2980588224
 20
26.5656840976
 30
0.0
 10
-8.2777052339
 20
26.5558489145
 30
0.0
 10
-8.2387926455
 20
26.5261319312
 30
0.0
 10
-8.1940903733
 20
26.466467728
 30
0.0
 10
-8.1641093517
 20
26.3964354802
 30
0.0
 10
-8.1563221447
 20
26.3460431534
 30
0.0
 10
-8.1566590053
 20
26.3218054883
 30
0.0
 11
-8.2980588224
 21
26.5656840976
 31
0.0
 11
-8.243201148
 21
26.5258139323
 31
0.0
 11
-8.1970674692
 21
26.465468715
 31
0.0
 11
-8.166678532
 21
26.3938319423
 31
0.0
 11
-8.1566590053
 21
26.3218054883
 31
0.0
  0
SPLINE
  5
509
100
AcDbEntity
  8
ASSI
100
AcDbSpline
 62
253
  6
CONTINUOUS
 70
0
 71
3
 72
9
 73
5
 74
3
 42
0.0000001
 43
0.0000001
 44
0.0000000001
 12
-0.0987551695
 22
0.051093948
 32
0.0
 13
-0.1009595448
 23
-0.0465869654
 33
0.0
 40
0.0
 40
0.0
 40
0.0
 40
0.0
 40
0.5348831908
 40
1.0
 40
1.0
 40
1.0
 40
1.0
 10
3.0937547901
 20
23.8044718018
 30
0.0
 10
3.0761472967
 20
23.8135815665
 30
0.0
 10
3.0401405469
 20
23.8261402382
 30
0.0
 10
3.0015053619
 20
23.8206370313
 30
0.0
 10
2.9858527015
 20
23.8134142377
 30
0.0
 11
3.0937547901
 21
23.8044718018
 31
0.0
 11
3.0368764909
 21
23.8218489073
 31
0.0
 11
2.9858527015
 21
23.8134142377
 31
0.0
  0
SPLINE
  5
50A
100
AcDbEntity
  8
ASSI
100
AcDbSpline
 62
7
  6
CONTINUOUS
 70
0
 71
3
 72
11
 73
7
 74
5
 42
0.0000001
 43
0.0000001
 44
0.0000000001
 12
-0.0
 22
0.3669998579
 32
0.0
 13
-0.328254652
 23
0.164127326
 33
0.0
 40
0.0
 40
0.0
 40
0.0
 40
0.0
 40
0.2468214196
 40
0.5117844928
 40
0.770298635
 40
1.0
 40
1.0
 40
1.0
 40
1.0
 10
-0.442969471
 20
21.4666414316
 30
0.0
 10
-0.442969471
 20
21.4968359069
 30
0.0
 10
-0.4533829865
 20
21.5595535958
 30
0.0
 10
-0.4911234619
 20
21.6467665199
 30
0.0
 10
-0.5465607476
 20
21.7213581942
 30
0.0
 10
-0.5945857285
 20
21.7589229363
 30
0.0
 10
-0.6197192424
 20
21.7714896933
 30
0.0
 11
-0.442969471
 21
21.4666414316
 31
0.0
 11
-0.4564238929
 21
21.5562200875
 31
0.0
 11
-0.494739939
 21
21.6455944264
 31
0.0
 11
-0.5520713209
 21
21.7211874984
 31
0.0
 11
-0.6197192424
 21
21.7714896933
 31
0.0
  0
SPLINE
  5
50B
100
AcDbEntity
  8
ASSI
100
AcDbSpline
 62
253
  6
CONTINUOUS
 70
0
 71
3
 72
11
 73
7
 74
5
 42
0.0000001
 43
0.0000001
 44
0.0000000001
 12
-0.0042666542
 22
0.3662553148
 32
0.0
 13
-0.3257077762
 23
0.1675577645
 33
0.0
 40
0.0
 40
0.0
 40
0.0
 40
0.0
 40
0.2465204346
 40
0.5119835308
 40
0.7708932999
 40
1.0
 40
1.0
 40
1.0
 40
1.0
 10
-0.6613155084
 20
21.3566265501
 30
0.0
 10
-0.6616661142
 20
21.3867230232
 30
0.0
 10
-0.67264525
 20
21.4492028305
 30
0.0
 10
-0.7105760169
 20
21.5361634588
 30
0.0
 10
-0.765681505
 20
21.6107603429
 30
0.0
 10
-0.8131913352
 20
21.6486786096
 30
0.0
 10
-0.8380652798
 20
21.6614748118
 30
0.0
 11
-0.6613155084
 21
21.3566265501
 31
0.0
 11
-0.6755340647
 21
21.4457955931
 31
0.0
 11
-0.7141145639
 21
21.5350478758
 31
0.0
 11
-0.7711877769
 21
21.6107845483
 31
0.0
 11
-0.8380652798
 21
21.6614748118
 31
0.0
  0
SPLINE
  5
50C
100
AcDbEntity
  8
ASSI
100
AcDbSpline
 62
7
  6
CONTINUOUS
 70
0
 71
3
 72
11
 73
7
 74
5
 42
0.0000001
 43
0.0000001
 44
0.0000000001
 12
-0.0
 22
0.3669998579
 32
0.0
 13
-0.328254652
 23
0.164127326
 33
0.0
 40
0.0
 40
0.0
 40
0.0
 40
0.0
 40
0.2468214196
 40
0.5117844928
 40
0.770298635
 40
1.0
 40
1.0
 40
1.0
 40
1.0
 10
-4.1552800723
 20
23.3227967322
 30
0.0
 10
-4.1552800723
 20
23.3529912075
 30
0.0
 10
-4.1656935878
 20
23.4157088964
 30
0.0
 10
-4.2034340631
 20
23.5029218205
 30
0.0
 10
-4.2588713489
 20
23.5775134948
 30
0.0
 10
-4.3068963297
 20
23.6150782369
 30
0.0
 10
-4.3320298436
 20
23.6276449939
 30
0.0
 11
-4.1552800723
 21
23.3227967322
 31
0.0
 11
-4.1687344941
 21
23.4123753881
 31
0.0
 11
-4.2070505403
 21
23.501749727
 31
0.0
 11
-4.2643819221
 21
23.577342799
 31
0.0
 11
-4.3320298436
 21
23.6276449939
 31
0.0
  0
SPLINE
  5
50D
100
AcDbEntity
  8
ASSI
100
AcDbSpline
 62
253
  6
CONTINUOUS
 70
0
 71
3
 72
11
 73
7
 74
5
 42
0.0000001
 43
0.0000001
 44
0.0000000001
 12
-0.0042666542
 22
0.3662553148
 32
0.0
 13
-0.3257077762
 23
0.1675577645
 33
0.0
 40
0.0
 40
0.0
 40
0.0
 40
0.0
 40
0.2465204346
 40
0.5119835308
 40
0.7708932999
 40
1.0
 40
1.0
 40
1.0
 40
1.0
 10
-4.3736261096
 20
23.2127818507
 30
0.0
 10
-4.3739767155
 20
23.2428783238
 30
0.0
 10
-4.3849558512
 20
23.3053581311
 30
0.0
 10
-4.4228866181
 20
23.3923187594
 30
0.0
 10
-4.4779921062
 20
23.4669156435
 30
0.0
 10
-4.5255019364
 20
23.5048339102
 30
0.0
 10
-4.550375881
 20
23.5176301124
 30
0.0
 11
-4.3736261096
 21
23.2127818507
 31
0.0
 11
-4.3878446659
 21
23.3019508937
 31
0.0
 11
-4.4264251651
 21
23.3912031764
 31
0.0
 11
-4.4834983782
 21
23.466939849
 31
0.0
 11
-4.550375881
 21
23.5176301124
 31
0.0
  0
SPLINE
  5
50E
100
AcDbEntity
  8
ASSI
100
AcDbSpline
 62
7
  6
CONTINUOUS
 70
0
 71
3
 72
9
 73
5
 74
3
 42
0.0000001
 43
0.0000001
 44
0.0000000001
 12
-0.0803798402
 22
0.0401899201
 32
0.0
 13
-0.0815990614
 23
-0.0376529093
 33
0.0
 40
0.0
 40
0.0
 40
0.0
 40
0.0
 40
0.5356764828
 40
1.0
 40
1.0
 40
1.0
 40
1.0
 10
-10.9435267108
 20
27.3664061294
 30
0.0
 10
-10.9578792409
 20
27.3735823944
 30
0.0
 10
-10.9870513468
 20
27.3833900735
 30
0.0
 10
-11.0182329748
 20
27.3789194319
 30
0.0
 10
-11.0308624292
 20
27.3730917215
 30
0.0
 11
-10.9435267108
 21
27.3664061294
 31
0.0
 11
-10.989709494
 21
27.3799927265
 31
0.0
 11
-11.0308624292
 21
27.3730917215
 31
0.0
  0
SPLINE
  5
50F
100
AcDbEntity
  8
ASSI
100
AcDbSpline
 62
253
  6
CONTINUOUS
 70
0
 71
3
 72
9
 73
5
 74
3
 42
0.0000001
 43
0.0000001
 44
0.0000000001
 12
-0.1068732818
 22
0.0519357288
 32
0.0
 13
-0.1045970371
 23
-0.056379767
 33
0.0
 40
0.0
 40
0.0
 40
0.0
 40
0.0
 40
0.5372366612
 40
1.0
 40
1.0
 40
1.0
 40
1.0
 10
-3.0580137683
 20
22.771449056
 30
0.0
 10
-3.0771525167
 20
22.7807496486
 30
0.0
 10
-3.1160350491
 20
22.7931910797
 30
0.0
 10
-3.1572124933
 20
22.7853898853
 30
0.0
 10
-3.1733470513
 20
22.7766930556
 30
0.0
 11
-3.0580137683
 21
22.771449056
 31
0.0
 11
-3.1195931253
 21
22.7882751425
 31
0.0
 11
-3.1733470513
 21
22.7766930556
 31
0.0
  0
SPLINE
  5
510
100
AcDbEntity
  8
ASSI
100
AcDbSpline
 62
253
  6
CONTINUOUS
 70
0
 71
3
 72
9
 73
5
 74
3
 42
0.0000001
 43
0.0000001
 44
0.0000000001
 12
-0.1068732818
 22
0.0519357288
 32
0.0
 13
-0.1045970371
 23
-0.056379767
 33
0.0
 40
0.0
 40
0.0
 40
0.0
 40
0.0
 40
0.5372366612
 40
1.0
 40
1.0
 40
1.0
 40
1.0
 10
-6.7703243696
 20
24.6276043567
 30
0.0
 10
-6.7894631179
 20
24.6369049492
 30
0.0
 10
-6.8283456504
 20
24.6493463804
 30
0.0
 10
-6.8695230945
 20
24.6415451859
 30
0.0
 10
-6.8856576526
 20
24.6328483562
 30
0.0
 11
-6.7703243696
 21
24.6276043567
 31
0.0
 11
-6.8319037266
 21
24.6444304431
 31
0.0
 11
-6.8856576526
 21
24.6328483562
 31
0.0
  0
SPLINE
  5
511
100
AcDbEntity
  8
ASSI
100
AcDbSpline
 62
253
  6
CONTINUOUS
 70
0
 71
3
 72
9
 73
5
 74
3
 42
0.0000001
 43
0.0000001
 44
0.0000000001
 12
-0.0987551695
 22
0.051093948
 32
0.0
 13
-0.1009595448
 23
-0.0465869654
 33
0.0
 40
0.0
 40
0.0
 40
0.0
 40
0.0
 40
0.5348831908
 40
1.0
 40
1.0
 40
1.0
 40
1.0
 10
-2.5154015256
 20
26.6090499596
 30
0.0
 10
-2.533009019
 20
26.6181597243
 30
0.0
 10
-2.5690157688
 20
26.6307183961
 30
0.0
 10
-2.6076509537
 20
26.6252151891
 30
0.0
 10
-2.6233036142
 20
26.6179923955
 30
0.0
 11
-2.5154015256
 21
26.6090499596
 31
0.0
 11
-2.5722798248
 21
26.6264270651
 31
0.0
 11
-2.6233036142
 21
26.6179923955
 31
0.0
  0
SPLINE
  5
512
100
AcDbEntity
  8
ASSI
100
AcDbSpline
 62
253
  6
CONTINUOUS
 70
0
 71
3
 72
11
 73
7
 74
5
 42
0.0000001
 43
0.0000001
 44
0.0000000001
 12
0.3312438285
 22
-0.1600625469
 32
0.0
 13
-0.0051123801
 23
-0.3678537161
 33
0.0
 40
0.0
 40
0.0
 40
0.0
 40
0.0
 40
0.2304221291
 40
0.4885147234
 40
0.7529146663
 40
1.0
 40
1.0
 40
1.0
 40
1.0
 10
-2.3235639773
 20
26.5131311855
 30
0.0
 10
-2.2981220079
 20
26.5008372012
 30
0.0
 10
-2.2494812988
 20
26.4636909718
 30
0.0
 10
-2.1936034685
 20
26.3891107291
 30
0.0
 10
-2.1561271706
 20
26.3015704256
 30
0.0
 10
-2.1463931385
 20
26.2385800112
 30
0.0
 10
-2.1468142032
 20
26.2082829252
 30
0.0
 11
-2.3235639773
 21
26.5131311855
 31
0.0
 11
-2.2549919275
 21
26.4632934818
 31
0.0
 11
-2.1973248402
 21
26.387861974
 31
0.0
 11
-2.1593386435
 21
26.2983160017
 31
0.0
 11
-2.1468142032
 21
26.2082829252
 31
0.0
  0
SPLINE
  5
513
100
AcDbEntity
  8
ASSI
100
AcDbSpline
 62
253
  6
CONTINUOUS
 70
0
 71
3
 72
9
 73
5
 74
3
 42
0.0000001
 43
0.0000001
 44
0.0000000001
 12
0.0533980009
 22
0.1429693515
 32
0.0
 13
-0.0421136761
 23
0.1466902187
 33
0.0
 40
0.0
 40
0.0
 40
0.0
 40
0.0
 40
0.2544748176
 40
1.0
 40
1.0
 40
1.0
 40
1.0
 10
4.4466045391
 20
-21.6081080596
 30
0.0
 10
4.4511340213
 20
-21.595980693
 30
0.0
 10
4.4651715445
 20
-21.5470435926
 30
0.0
 10
4.464274481
 20
-21.4935049378
 30
0.0
 10
4.453808879
 20
-21.4570511871
 30
0.0
 11
4.4466045391
 21
-21.6081080596
 31
0.0
 11
4.4573112881
 21
-21.5707761888
 31
0.0
 11
4.453808879
 21
-21.4570511871
 31
0.0
  0
SPLINE
  5
514
100
AcDbEntity
  8
ASSI
100
AcDbSpline
 62
253
  6
CONTINUOUS
 70
0
 71
3
 72
9
 73
5
 74
3
 42
0.0000001
 43
0.0000001
 44
0.0000000001
 12
-0.0313295235
 22
0.1091268938
 32
0.0
 13
-0.0924413689
 23
0.0659151827
 33
0.0
 40
0.0
 40
0.0
 40
0.0
 40
0.0
 40
0.518651304
 40
1.0
 40
1.0
 40
1.0
 40
1.0
 10
4.453808879
 20
-21.4570511871
 30
0.0
 10
4.4483925129
 20
-21.4381849185
 30
0.0
 10
4.4328400484
 20
-21.4029557508
 30
0.0
 10
4.4062677651
 20
-21.3746758504
 30
0.0
 10
4.3914355876
 20
-21.364099788
 30
0.0
 11
4.453808879
 21
-21.4570511871
 31
0.0
 11
4.4292955787
 21
-21.4035109581
 31
0.0
 11
4.3914355876
 21
-21.364099788
 31
0.0
  0
SPLINE
  5
515
100
AcDbEntity
  8
ASSI
100
AcDbSpline
 62
253
  6
CONTINUOUS
 70
0
 71
3
 72
11
 73
7
 74
5
 42
0.0000001
 43
0.0000001
 44
0.0000000001
 12
0.0830519921
 22
0.0430015322
 32
0.0
 13
0.0000129856
 23
0.0935241412
 33
0.0
 40
0.0
 40
0.0
 40
0.0
 40
0.0
 40
0.3007082987
 40
0.5638121155
 40
0.79233051
 40
1.0
 40
1.0
 40
1.0
 40
1.0
 10
4.4639736438
 20
-21.6366149424
 30
0.0
 10
4.4722984515
 20
-21.6323046365
 30
0.0
 10
4.4873532787
 20
-21.6230448106
 30
0.0
 10
4.5056435157
 20
-21.606130674
 30
0.0
 10
4.5173132979
 20
-21.5873197629
 30
0.0
 10
4.5201047226
 20
-21.5736230725
 30
0.0
 10
4.5201056215
 20
-21.5671490356
 30
0.0
 11
4.4639736438
 21
-21.6366149424
 31
0.0
 11
4.4877771648
 21
-21.6216375316
 31
0.0
 11
4.5055412768
 21
-21.604610522
 31
0.0
 11
4.5164294902
 21
-21.5862200726
 31
0.0
 11
4.5201056215
 21
-21.5671490356
 31
0.0
  0
SPLINE
  5
516
100
AcDbEntity
  8
ASSI
100
AcDbSpline
 62
253
  6
CONTINUOUS
 70
0
 71
3
 72
11
 73
7
 74
5
 42
0.0000001
 43
0.0000001
 44
0.0000000001
 12
0.0830519927
 22
0.043001428
 32
0.0
 13
0.0000129856
 23
0.0935240939
 33
0.0
 40
0.0
 40
0.0
 40
0.0
 40
0.0
 40
0.300708284
 40
0.5638120708
 40
0.7923304554
 40
1.0
 40
1.0
 40
1.0
 40
1.0
 10
4.4639736438
 20
-21.9765585372
 30
0.0
 10
4.4722984512
 20
-21.972248242
 30
0.0
 10
4.4873532782
 20
-21.9629884351
 30
0.0
 10
4.5056435161
 20
-21.9460743197
 30
0.0
 10
4.5173132989
 20
-21.9272634208
 30
0.0
 10
4.5201047226
 20
-21.9135667355
 30
0.0
 10
4.5201056215
 20
-21.9070927002
 30
0.0
 11
4.4639736438
 21
-21.9765585372
 31
0.0
 11
4.4877771649
 21
-21.961581156
 31
0.0
 11
4.5055412766
 21
-21.9445541681
 31
0.0
 11
4.51642949
 21
-21.9261637323
 31
0.0
 11
4.5201056215
 21
-21.9070927002
 31
0.0
  0
SPLINE
  5
517
100
AcDbEntity
  8
ASSI
100
AcDbSpline
 62
253
  6
CONTINUOUS
 70
0
 71
3
 72
11
 73
7
 74
5
 42
0.0000001
 43
0.0000001
 44
0.0000000001
 12
0.0017322571
 22
-0.1228448832
 32
0.0
 13
-0.1081510858
 23
-0.0582855788
 33
0.0
 40
0.0
 40
0.0
 40
0.0
 40
0.0
 40
0.2880667099
 40
0.5480551474
 40
0.7818193646
 40
1.0
 40
1.0
 40
1.0
 40
1.0
 10
4.4298416998
 20
-22.0375255438
 30
0.0
 10
4.430008035
 20
-22.0493213842
 30
0.0
 10
4.4283852087
 20
-22.0718674364
 30
0.0
 10
4.4192877879
 20
-22.1028882862
 30
0.0
 10
4.4035731021
 20
-22.1279578
 30
0.0
 10
4.388802388
 20
-22.139833965
 30
0.0
 10
4.3809368971
 20
-22.1440728933
 30
0.0
 11
4.4298416998
 21
-22.0375255438
 31
0.0
 11
4.4269885399
 21
-22.0728013875
 31
0.0
 11
4.4175538226
 21
-22.1033176242
 31
0.0
 11
4.4019463261
 21
-22.1274261511
 31
0.0
 11
4.3809368971
 21
-22.1440728933
 31
0.0
  0
SPLINE
  5
518
100
AcDbEntity
  8
ASSI
100
AcDbSpline
 62
7
  6
CONTINUOUS
 70
0
 71
3
 72
11
 73
7
 74
5
 42
0.0000001
 43
0.0000001
 44
0.0000000001
 12
0.3127343168
 22
-0.0698517
 32
0.0
 13
0.3197544845
 23
-0.0209542967
 33
0.0
 40
0.0
 40
0.0
 40
0.0
 40
0.0
 40
0.2600258425
 40
0.5362385583
 40
0.7904459356
 40
1.0
 40
1.0
 40
1.0
 40
1.0
 10
2.6896265356
 20
-21.7477652908
 30
0.0
 10
2.7167328703
 20
-21.7538197065
 30
0.0
 10
2.7722503719
 20
-21.767940126
 30
0.0
 10
2.8543271767
 20
-21.7877789451
 30
0.0
 10
2.9317848967
 20
-21.8035479939
 30
0.0
 10
2.9809511986
 20
-21.8103662091
 30
0.0
 10
3.0032864826
 20
-21.8118298951
 30
0.0
 11
2.6896265356
 21
-21.7477652908
 31
0.0
 11
2.7706129456
 21
-21.767358284
 31
0.0
 11
2.8567329718
 21
-21.7877863915
 31
0.0
 11
2.936645772
 21
-21.8035787577
 31
0.0
 11
3.0032864826
 21
-21.8118298951
 31
0.0
  0
SPLINE
  5
519
100
AcDbEntity
  8
ASSI
100
AcDbSpline
 62
253
  6
CONTINUOUS
 70
0
 71
3
 72
11
 73
7
 74
5
 42
0.0000001
 43
0.0000001
 44
0.0000000001
 12
0.250781152
 22
-0.1310694383
 32
0.0
 13
0.1497892018
 23
-0.2400699458
 33
0.0
 40
0.0
 40
0.0
 40
0.0
 40
0.0
 40
0.2433257346
 40
0.5160727117
 40
0.7803776914
 40
1.0
 40
1.0
 40
1.0
 40
1.0
 10
2.0568363261
 20
-22.4930784568
 30
0.0
 10
2.0771768288
 20
-22.5037093126
 30
0.0
 10
2.118318491
 20
-22.530054431
 30
0.0
 10
2.1758412626
 20
-22.5761641333
 30
0.0
 10
2.2267763013
 20
-22.6262817664
 30
0.0
 10
2.2555129949
 20
-22.6620821926
 30
0.0
 10
2.2664786784
 20
-22.6796570978
 30
0.0
 11
2.0568363261
 21
-22.4930784568
 31
0.0
 11
2.1152835909
 21
-22.5294745767
 31
0.0
 11
2.1755774267
 21
-22.5776530196
 31
0.0
 11
2.2286390517
 21
-22.6303592863
 31
0.0
 11
2.2664786784
 21
-22.6796570978
 31
0.0
  0
SPLINE
  5
51A
100
AcDbEntity
  8
ASSI
100
AcDbSpline
 62
253
  6
CONTINUOUS
 70
0
 71
3
 72
11
 73
7
 74
5
 42
0.0000001
 43
0.0000001
 44
0.0000000001
 12
0.257504789
 22
-0.1287523946
 32
0.0
 13
0.2592593051
 23
0.1251819004
 33
0.0
 40
0.0
 40
0.0
 40
0.0
 40
0.0
 40
0.2347796704
 40
0.4987463381
 40
0.7633868342
 40
1.0
 40
1.0
 40
1.0
 40
1.0
 10
1.9681394136
 20
-22.7246183482
 30
0.0
 10
1.9882917101
 20
-22.7346944965
 30
0.0
 10
2.0345696693
 20
-22.749145988
 30
0.0
 10
2.1078700037
 20
-22.7562596045
 30
0.0
 10
2.1814053717
 20
-22.7497510728
 30
0.0
 10
2.228044389
 20
-22.7357148787
 30
0.0
 10
2.248492444
 20
-22.7258416501
 30
0.0
 11
1.9681394136
 21
-22.7246183482
 31
0.0
 11
2.0322185776
 21
-22.7461277673
 31
0.0
 11
2.1078154628
 21
-22.7539038624
 31
0.0
 11
2.1836722574
 21
-22.7467886254
 31
0.0
 11
2.248492444
 21
-22.7258416501
 31
0.0
  0
SPLINE
  5
51B
100
AcDbEntity
  8
ASSI
100
AcDbSpline
 62
253
  6
CONTINUOUS
 70
0
 71
3
 72
11
 73
7
 74
5
 42
0.0000001
 43
0.0000001
 44
0.0000000001
 12
0.257504789
 22
-0.1287523945
 32
0.0
 13
0.2592593051
 23
0.1251819003
 33
0.0
 40
0.0
 40
0.0
 40
0.0
 40
0.0
 40
0.2347796703
 40
0.4987463379
 40
0.763386834
 40
1.0
 40
1.0
 40
1.0
 40
1.0
 10
1.9681394136
 20
-23.0418871486
 30
0.0
 10
1.9882917101
 20
-23.0519632968
 30
0.0
 10
2.0345696693
 20
-23.0664147883
 30
0.0
 10
2.1078700037
 20
-23.0735284048
 30
0.0
 10
2.1814053717
 20
-23.0670198731
 30
0.0
 10
2.228044389
 20
-23.0529836791
 30
0.0
 10
2.248492444
 20
-23.0431104505
 30
0.0
 11
1.9681394136
 21
-23.0418871486
 31
0.0
 11
2.0322185775
 21
-23.0633965676
 31
0.0
 11
2.1078154628
 21
-23.0711726628
 31
0.0
 11
2.1836722574
 21
-23.0640574258
 31
0.0
 11
2.248492444
 21
-23.0431104505
 31
0.0
  0
SPLINE
  5
51C
100
AcDbEntity
  8
ASSI
100
AcDbSpline
 62
253
  6
CONTINUOUS
 70
0
 71
3
 72
11
 73
7
 74
5
 42
0.0000001
 43
0.0000001
 44
0.0000000001
 12
0.1595996113
 22
0.0813941417
 32
0.0
 13
0.0001015022
 23
0.1791564454
 33
0.0
 40
0.0
 40
0.0
 40
0.0
 40
0.0
 40
0.3017267301
 40
0.5645973623
 40
0.7926900064
 40
1.0
 40
1.0
 40
1.0
 40
1.0
 10
-2.1467430865
 20
26.2083192223
 30
0.0
 10
-2.1306912636
 20
26.2165054851
 30
0.0
 10
-2.1016807287
 20
26.234064095
 30
0.0
 10
-2.0664877687
 20
26.266323704
 30
0.0
 10
-2.0439536815
 20
26.302184118
 30
0.0
 10
-2.0385918933
 20
26.3283841801
 30
0.0
 10
-2.0385848791
 20
26.3407644873
 30
0.0
 11
-2.1467430865
 21
26.2083192223
 31
0.0
 11
-2.1008106326
 21
26.2368199756
 31
0.0
 11
-2.0666503773
 21
26.2692393168
 31
0.0
 11
-2.0456676159
 21
26.3043051492
 31
0.0
 11
-2.0385848791
 21
26.3407644873
 31
0.0
  0
SPLINE
  5
51D
100
AcDbEntity
  8
ASSI
100
AcDbSpline
 62
253
  6
CONTINUOUS
 70
0
 71
3
 72
11
 73
7
 74
5
 42
0.0000001
 43
0.0000001
 44
0.0000000001
 12
0.1595996113
 22
0.0813941417
 32
0.0
 13
0.0001015022
 23
0.1791564454
 33
0.0
 40
0.0
 40
0.0
 40
0.0
 40
0.0
 40
0.3017267301
 40
0.5645973623
 40
0.7926900064
 40
1.0
 40
1.0
 40
1.0
 40
1.0
 10
3.4624132291
 20
23.4037410645
 30
0.0
 10
3.4784650521
 20
23.4119273272
 30
0.0
 10
3.507475587
 20
23.4294859372
 30
0.0
 10
3.542668547
 20
23.4617455462
 30
0.0
 10
3.5652026341
 20
23.4976059602
 30
0.0
 10
3.5705644224
 20
23.5238060223
 30
0.0
 10
3.5705714365
 20
23.5361863295
 30
0.0
 11
3.4624132291
 21
23.4037410645
 31
0.0
 11
3.508345683
 21
23.4322418177
 31
0.0
 11
3.5425059384
 21
23.4646611589
 31
0.0
 11
3.5634886997
 21
23.4997269914
 31
0.0
 11
3.5705714365
 21
23.5361863295
 31
0.0
  0
SPLINE
  5
51E
100
AcDbEntity
  8
ASSI
100
AcDbSpline
 62
253
  6
CONTINUOUS
 70
0
 71
3
 72
11
 73
7
 74
5
 42
0.0000001
 43
0.0000001
 44
0.0000000001
 12
0.4026003488
 22
0.1952390652
 32
0.0
 13
0.4002143527
 23
-0.2000844956
 33
0.0
 40
0.0
 40
0.0
 40
0.0
 40
0.0
 40
0.27852181
 40
0.5344491108
 40
0.7722103202
 40
1.0
 40
1.0
 40
1.0
 40
1.0
 10
1.1047365518
 20
26.4556005606
 30
0.0
 10
1.1421142111
 20
26.4737266732
 30
0.0
 10
1.2168186481
 20
26.5029221598
 30
0.0
 10
1.3310710877
 20
26.5232455069
 30
0.0
 10
1.439580872
 20
26.5170060491
 30
0.0
 10
1.5063749183
 20
26.4945794782
 30
0.0
 10
1.5367631514
 20
26.4793870838
 30
0.0
 11
1.1047365518
 21
26.4556005606
 31
0.0
 11
1.221163705
 21
26.5000474542
 31
0.0
 11
1.3340831279
 21
26.519084515
 31
0.0
 11
1.4402395653
 21
26.512120543
 31
0.0
 11
1.5367631514
 21
26.4793870838
 31
0.0
  0
ELLIPSE
  5
51F
100
AcDbEntity
  8
RACCORDO
100
AcDbEllipse
 62
7
  6
CONTINUOUS
 10
-13.2613434731
 20
23.1469987622
 30
0.0
 11
-0.0893248918
 21
0.1791819189
 31
0.0
 40
0.611934274
 41
-0.6831563312
 42
0.0353416601
  0
ELLIPSE
  5
520
100
AcDbEntity
  8
RACCORDO
100
AcDbEllipse
 62
7
  6
CONTINUOUS
 10
-0.4896526128
 20
16.5418803171
 30
0.0
 11
1.1587552967
 21
0.8082340163
 31
0.0
 40
0.0984623514
 41
-1.5081049473
 42
-1.3360082989
  0
ELLIPSE
  5
521
100
AcDbEntity
  8
RACCORDO
100
AcDbEllipse
 62
7
  6
CONTINUOUS
 10
-0.2818068522
 20
16.6572304518
 30
0.0
 11
-0.0892524615
 21
0.1791179969
 31
0.0
 40
0.6124818573
 41
-2.0729142985
 42
-0.6834093579
  0
ELLIPSE
  5
522
100
AcDbEntity
  8
RACCORDO
100
AcDbEllipse
 62
7
  6
CONTINUOUS
 10
20.1668199902
 20
4.1262712255
 30
0.0
 11
0.3016807068
 21
0.0022373111
 31
0.0
 40
0.4999484347
 41
-0.7946683794
 42
-0.0624113512
  0
ELLIPSE
  5
523
100
AcDbEntity
  8
SMUSSO
100
AcDbEllipse
 62
7
  6
CONTINUOUS
 10
-7.549392622
 20
-8.297069009
 30
0.0
 11
0.497109482
 21
0.089304341
 31
0.0
 40
0.6011553206
 41
3.0340765654
 42
3.8194118716
  0
ELLIPSE
  5
524
100
AcDbEntity
  8
SMUSSO
100
AcDbEllipse
 62
7
  6
CONTINUOUS
 10
-11.0849265279
 20
-6.5293020561
 30
0.0
 11
0.497109482
 21
0.089304341
 31
0.0
 40
0.6011553206
 41
-2.4637734356
 42
-0.8929771088
  0
ELLIPSE
  5
525
100
AcDbEntity
  8
ASSI
100
AcDbEllipse
 62
7
  6
CONTINUOUS
 10
4.6004475636
 20
-19.8668704726
 30
0.0
 11
-0.2237009107
 21
0.4473351135
 31
0.0
 40
0.6121897086
 41
-3.1223332426
 42
-2.2557347926
  0
ELLIPSE
  5
526
100
AcDbEntity
  8
ASSI
100
AcDbEllipse
 62
7
  6
CONTINUOUS
 10
4.6004475636
 20
18.0346772339
 30
0.0
 11
-0.2235807756
 21
0.4472283268
 31
0.0
 40
0.6125552124
 41
-2.255296188
 42
-0.6848044477
  0
ELLIPSE
  5
527
100
AcDbEntity
  8
RACCORDO
100
AcDbEllipse
 62
7
  6
CONTINUOUS
 10
9.0586224094
 20
-13.4742091494
 30
0.0
 11
-0.1316537962
 21
0.2729401056
 31
0.0
 40
0.6094565619
 41
-0.6679901581
 42
-0.1094228634
  0
ELLIPSE
  5
528
100
AcDbEntity
  8
ASSI
100
AcDbEllipse
 62
7
  6
CONTINUOUS
 10
-2.1276562231
 20
23.0009091042
 30
0.0
 11
-0.1118504554
 21
0.2236675568
 31
0.0
 40
0.6121897086
 41
-0.6846338794
 42
-0.0194291938
  0
ELLIPSE
  5
529
100
AcDbEntity
  8
RACCORDO
100
AcDbEllipse
 62
7
  6
CONTINUOUS
 10
9.0766110625
 20
-13.483203476
 30
0.0
 11
-0.1312734953
 21
0.2726279052
 31
0.0
 40
0.6112559224
 41
-2.2380176789
 42
-0.6687366997
  0
ELLIPSE
  5
52A
100
AcDbEntity
  8
RACCORDO
100
AcDbEllipse
 62
7
  6
CONTINUOUS
 10
9.0766110625
 20
21.3169823621
 30
0.0
 11
-0.1316537962
 21
0.2729401056
 31
0.0
 40
0.6094565619
 41
-3.0319838079
 42
-2.2403018325
  0
ELLIPSE
  5
52B
100
AcDbEntity
  8
ASSI
100
AcDbEllipse
 62
7
  6
CONTINUOUS
 10
-3.6373195092
 20
23.7557407473
 30
0.0
 11
-0.1117903878
 21
0.2236141634
 31
0.0
 40
0.6125552124
 41
-2.255296188
 42
-0.6848044477
  0
ELLIPSE
  5
52C
100
AcDbEntity
  8
ASSI
100
AcDbEllipse
 62
7
  6
CONTINUOUS
 10
9.1916781616
 20
21.5338955368
 30
0.0
 11
0.4349639225
 21
0.9005141702
 31
0.0
 40
0.6016116119
 41
-0.8943064336
 42
-0.6613938699
  0
ELLIPSE
  5
52D
100
AcDbEntity
  8
ASSI
100
AcDbEllipse
 62
7
  6
CONTINUOUS
 10
9.1916781616
 20
-15.2293973122
 30
0.0
 11
0.4349639225
 21
0.9005141702
 31
0.0
 40
0.6016116119
 41
-1.1272189973
 42
-0.8943064336
  0
ELLIPSE
  5
52E
100
AcDbEntity
  8
ASSI
100
AcDbEllipse
 62
7
  6
CONTINUOUS
 10
9.3513690914
 20
-15.3092427771
 30
0.0
 11
0.9927147821
 21
0.620457446
 31
0.0
 40
0.0764819879
 41
-2.3927159682
 42
-1.0722854976
  0
ELLIPSE
  5
52F
100
AcDbEntity
  8
ASSI
100
AcDbEllipse
 62
7
  6
CONTINUOUS
 10
-2.3884227623
 20
27.3239459988
 30
0.0
 11
1.004787277
 21
0.6140102217
 31
0.0
 40
0.0864918533
 41
0.0545281916
 42
0.7212730538
  0
ELLIPSE
  5
530
100
AcDbEntity
  8
ASSI
100
AcDbEllipse
 62
7
  6
CONTINUOUS
 10
1.2094475906
 20
-21.9184957414
 30
0.0
 11
0.220014872
 21
0.1791173313
 31
0.0
 40
0.6627826692
 41
-1.8038058062
 42
-1.2976603231
  0
ELLIPSE
  5
531
100
AcDbEntity
  8
ASSI
100
AcDbEllipse
 62
7
  6
CONTINUOUS
 10
1.6181785741
 20
25.561459258
 30
0.0
 11
0.2495017023
 21
-0.0599821937
 31
0.0
 40
0.2630210944
 41
-0.7135232271
 42
0.0636829494
  0
ELLIPSE
  5
532
100
AcDbEntity
  8
ASSI
100
AcDbEllipse
 62
7
  6
CONTINUOUS
 10
-2.4242421986
 20
25.1731719504
 30
0.0
 11
0.3856611795
 21
-0.0054197667
 31
0.0
 40
0.4892375088
 41
-0.7610696355
 42
0.0068059907
  0
ELLIPSE
  5
533
100
AcDbEntity
  8
ASSI
100
AcDbEllipse
 62
7
  6
CONTINUOUS
 10
3.1849141171
 20
22.3685937926
 30
0.0
 11
0.3856611795
 21
-0.0054197667
 31
0.0
 40
0.4892375088
 41
-0.7610696355
 42
0.0068059907
  0
ELLIPSE
  5
534
100
AcDbEntity
  8
RACCORDO
100
AcDbEllipse
 62
7
  6
CONTINUOUS
 10
0.0694706005
 20
16.4815917254
 30
0.0
 11
-0.0893248918
 21
0.1791819189
 31
0.0
 40
0.611934274
 41
-0.6831563312
 42
0.0366218912
  0
ELLIPSE
  5
535
100
AcDbEntity
  8
ASSI
100
AcDbEllipse
 62
7
  6
CONTINUOUS
 10
9.3513690914
 20
21.4540500719
 30
0.0
 11
-0.7356038977
 21
1.2035991204
 31
0.0
 40
0.5552491559
 41
4.9036048137
 42
6.2240352843
  0
ELLIPSE
  5
536
100
AcDbEntity
  8
RACCORDO
100
AcDbEllipse
 62
7
  6
CONTINUOUS
 10
-13.6126209258
 20
23.3226374886
 30
0.0
 11
-0.0892524615
 21
0.1791179969
 31
0.0
 40
0.6124818573
 41
-2.2255365712
 42
-0.6834093579
  0
ELLIPSE
  5
537
100
AcDbEntity
  8
ASSI
100
AcDbEllipse
 62
7
  6
CONTINUOUS
 10
15.6392256426
 20
29.3170947608
 30
0.0
 11
18.2927339069
 21
9.4748417608
 31
0.0
 40
0.0170707209
 41
-2.6536573066
 42
-2.3141694431
  0
ELLIPSE
  5
538
100
AcDbEntity
  8
ASSI
100
AcDbEllipse
 62
7
  6
CONTINUOUS
 10
15.6392256426
 20
29.3170947608
 30
0.0
 11
18.2927339069
 21
9.4748417608
 31
0.0
 40
0.0170707209
 41
2.2964861198
 42
2.6359739833
  0
ELLIPSE
  5
539
100
AcDbEntity
  8
ASSI
100
AcDbEllipse
 62
7
  6
CONTINUOUS
 10
3.9198608098
 20
17.6972243398
 30
0.0
 11
41.2152542262
 21
22.501943358
 31
0.0
 40
0.0081048063
 41
1.5667140536
 42
1.5886117747
  0
ELLIPSE
  5
53A
100
AcDbEntity
  8
ASSI
100
AcDbEllipse
 62
7
  6
CONTINUOUS
 10
1.2094475906
 20
17.7781558196
 30
0.0
 11
0.249929385
 21
0.0111824824
 31
0.0
 40
0.5313301283
 41
-2.3799630874
 42
-0.8266200532
  0
ELLIPSE
  5
53B
100
AcDbEntity
  8
ASSI
100
AcDbEllipse
 62
7
  6
CONTINUOUS
 10
-11.3770531145
 20
24.0714061721
 30
0.0
 11
0.249929385
 21
0.0111824824
 31
0.0
 40
0.5313301283
 41
-2.3799630874
 42
-0.8266200532
  0
ELLIPSE
  5
53C
100
AcDbEntity
  8
ASSI
100
AcDbEllipse
 62
7
  6
CONTINUOUS
 10
2.82962189
 20
17.7205619193
 30
0.0
 11
0.249929385
 21
0.0111824824
 31
0.0
 40
0.5313301283
 41
-2.3799630874
 42
-1.125412988
  0
ELLIPSE
  5
53D
100
AcDbEntity
  8
ASSI
100
AcDbEllipse
 62
7
  6
CONTINUOUS
 10
0.8099225676
 20
18.7304115805
 30
0.0
 11
0.249929385
 21
0.0111824824
 31
0.0
 40
0.5313301283
 41
3.117765999
 42
3.9032222197
  0
ELLIPSE
  5
53E
100
AcDbEntity
  8
ASSI
100
AcDbEllipse
 62
7
  6
CONTINUOUS
 10
-11.7765781376
 20
25.0236619331
 30
0.0
 11
0.249929385
 21
0.0111824824
 31
0.0
 40
0.5313301283
 41
3.118062645
 42
3.9032222197
  0
ELLIPSE
  5
53F
100
AcDbEntity
  8
ASSI
100
AcDbEllipse
 62
7
  6
CONTINUOUS
 10
-9.7568788152
 20
24.0138122719
 30
0.0
 11
0.249929385
 21
0.0111824824
 31
0.0
 40
0.5313301283
 41
-2.3799630874
 42
-0.8266200532
  0
ELLIPSE
  5
540
100
AcDbEntity
  8
ASSI
100
AcDbEllipse
 62
7
  6
CONTINUOUS
 10
2.82962189
 20
-21.5214761099
 30
0.0
 11
0.220014872
 21
0.1791173313
 31
0.0
 40
0.6627826692
 41
-2.8510033574
 42
-2.6599685648
  0
ELLIPSE
  5
541
100
AcDbEntity
  8
ASSI
100
AcDbEllipse
 62
7
  6
CONTINUOUS
 10
1.0158833045
 20
17.8749379626
 30
0.0
 11
0.249929385
 21
0.0111824824
 31
0.0
 40
0.5313301283
 41
3.1177659981
 42
3.9032222197
  0
ELLIPSE
  5
542
100
AcDbEntity
  8
ASSI
100
AcDbEllipse
 62
7
  6
CONTINUOUS
 10
-11.5706174006
 20
24.1681883152
 30
0.0
 11
0.249929385
 21
0.0111824824
 31
0.0
 40
0.5313301283
 41
3.1177659981
 42
3.9032222197
  0
ELLIPSE
  5
543
100
AcDbEntity
  8
ASSI
100
AcDbEllipse
 62
7
  6
CONTINUOUS
 10
-4.5125577837
 20
22.1065203431
 30
0.0
 11
0.199943508
 21
0.008945986
 31
0.0
 40
0.5313301283
 41
-2.3799630874
 42
-0.8266200532
  0
ELLIPSE
  5
544
100
AcDbEntity
  8
ASSI
100
AcDbEllipse
 62
7
  6
CONTINUOUS
 10
-6.8032061808
 20
23.2518445416
 30
0.0
 11
0.199943508
 21
0.008945986
 31
0.0
 40
0.5313301283
 41
3.1180383302
 42
3.9032222197
  0
ELLIPSE
  5
545
100
AcDbEntity
  8
ASSI
100
AcDbEllipse
 62
7
  6
CONTINUOUS
 10
-0.8002471825
 20
20.2503650425
 30
0.0
 11
0.199943508
 21
0.008945986
 31
0.0
 40
0.5313301283
 41
-2.3799630874
 42
-0.8266200532
  0
ELLIPSE
  5
546
100
AcDbEntity
  8
ASSI
100
AcDbEllipse
 62
7
  6
CONTINUOUS
 10
-3.0908955796
 20
21.395689241
 30
0.0
 11
0.199943508
 21
0.008945986
 31
0.0
 40
0.5313301283
 41
3.1180383302
 42
3.9032222197
  0
ENDSEC
  0
SECTION
  2
OBJECTS
  0
DICTIONARY
  5
C
100
AcDbDictionary
280
0
281
1
  3
ACAD_GROUP
350
D
  3
ACAD_MLINESTYLE
350
17
  3
ACAD_LAYOUT
350
1A
  3
ACAD_PLOTSETTINGS
350
19
  3
ACAD_PLOTSTYLENAME
350
E
  0
DICTIONARY
  5
D
102
{ACAD_REACTORS
330
C
102
}
100
AcDbDictionary
280
0
281
1
  0
ACDBDICTIONARYWDFLT
  5
E
102
{ACAD_REACTORS
330
C
102
}
100
AcDbDictionary
281
1
  3
Normal
350
F
100
AcDbDictionaryWithDefault
340
F
  0
DICTIONARY
  5
17
102
{ACAD_REACTORS
330
C
102
}
100
AcDbDictionary
280
0
281
1
  3
Standard
350
18
  0
DICTIONARY
  5
19
102
{ACAD_REACTORS
330
C
102
}
100
AcDbDictionary
281
1
  0
DICTIONARY
  5
1A
102
{ACAD_REACTORS
330
C
102
}
100
AcDbDictionary
281
1
  3
Model
350
547
  3
Layout1
350
548
  0
ACDBPLACEHOLDER
  5
F
102
{ACAD_REACTORS
330
E
102
}
  0
MLINESTYLE
  5
18
102
{ACAD_REACTORS
330
17
102
}
100
AcDbMlineStyle
  2
STANDARD
 70
0
  3

 62
256
 51
90.0
 52
90.0
 71
2
 49
0.5
 62
256
  6
BYLAYER
 49
-0.5
 62
256
  6
BYLAYER
  0
LAYOUT
  5
547
102
{ACAD_REACTORS
330
1A
102
}
100
AcDbPlotSettings
  1

  2
none_device
  4
ISO_A4_(297.00_x_210.00_MM)
  6

 40
0.0
 41
0.0
 42
0.0
 43
0.0
 44
297.0
 45
210.0
 46
0.0
 47
0.0
 48
0.0
 49
0.0
140
0.0
141
0.0
142
1.0
143
1.0
 70
1024
 72
1
 73
0
 74
0
  7

 75
0
147
1.0
148
0.0
149
0.0
100
AcDbLayout
  1
Model
 70
0
 71
0
 10
0.0
 20
0.0
 11
297.0
 21
210.0
 12
0.0
 22
0.0
 32
0.0
 14
0.0
 24
0.0
 34
0.0
 15
0.0
 25
0.0
 35
0.0
146
0.0
 13
0.0
 23
0.0
 33
0.0
 16
1.0
 26
0.0
 36
0.0
 17
0.0
 27
1.0
 37
0.0
 76
0
330
21B
345
0
346
0
  0
LAYOUT
  5
548
102
{ACAD_REACTORS
330
1A
102
}
100
AcDbPlotSettings
  1

  2
none_device
  4
ISO_A4_(297.00_x_210.00_MM)
  6

 40
0.0
 41
0.0
 42
0.0
 43
0.0
 44
297.0
 45
210.0
 46
0.0
 47
0.0
 48
0.0
 49
0.0
140
0.0
141
0.0
142
1.0
143
1.0
 70
0
 72
1
 73
0
 74
0
  7

 75
0
147
1.0
148
0.0
149
0.0
100
AcDbLayout
  1
Layout1
 70
0
 71
1
 10
0.0
 20
0.0
 11
297.0
 21
210.0
 12
0.0
 22
0.0
 32
0.0
 14
0.0
 24
0.0
 34
0.0
 15
0.0
 25
0.0
 35
0.0
146
0.0
 13
0.0
 23
0.0
 33
0.0
 16
1.0
 26
0.0
 36
0.0
 17
0.0
 27
1.0
 37
0.0
 76
0
330
21C
345
0
346
0
  0
ENDSEC
  0
EOF
