  0
SECTION
  2
HEADER
  9
$ACADVER
  1
AC1015
  9
$DWGCODEPAGE
  3
ANSI_1252
  9
$EXTMAX
 10
297.0
 20
210.0
 30
0.0
  9
$EXTMIN
 10
0.0
 20
0.0
 30
0.0
  9
$LIMMIN
 10
0.0
 20
0.0
  9
$LIMMAX
 10
297.0
 20
210.0
  9
$VIEWCTR
 10
148.5
 20
105.0
  9
$VIEWSIZE
 40
210.0
  9
$CLAYER
  8
0
  9
$LTSCALE
 40
16.335
  9
$CELTYPE
  6
BYLAYER
  9
$DIMSCALE
 40
1.0
  9
$DIMASZ
 40
3.0
  9
$DIMEXO
 40
1.85625
  9
$DIMDLI
 40
11.286
  9
$DIMEXE
 40
5.346
  9
$DIMCEN
 40
2.673
  9
$DIMLFAC
 40
1.0
  9
$DIMBLK
  1
_FILLED
  9
$DIMTXT
 40
3.0
  9
$DIMTOL
 70
1
  9
$DIMLIM
 70
0
  9
$DIMTFAC
 40
1.0
  9
$DIMTP
 40
0.01
  9
$DIMTM
 40
0.01
  9
$PDMODE
 70
3
  9
$PDSIZE
 40
3.0
  9
$HANDSEED
  5
67D
  9
$TILEMODE
 70
1
  9
$MEASUREMENT
 70
1
  9
$INSUNITS
 70
4
  0
ENDSEC
  0
SECTION
  2
CLASSES
  0
CLASS
  1
ACDBDICTIONARYWDFLT
  2
AcDbDictionaryWithDefault
  3
AutoCAD 2000
 90
0
280
0
281
0
  0
CLASS
  1
ACDBPLACEHOLDER
  2
AcDbPlaceHolder
  3
AutoCAD 2000
 90
0
280
0
281
0
  0
CLASS
  1
LAYOUT
  2
AcDbLayout
  3
AutoCAD 2000
 90
0
280
0
281
0
  0
ENDSEC
  0
SECTION
  2
TABLES
  0
TABLE
  2
VPORT
  5
8
100
AcDbSymbolTable
 70
2
  0
VPORT
  5
1F4
100
AcDbSymbolTableRecord
100
AcDbViewportTableRecord
  2
*ACTIVE
 70
0
 10
0.0
 20
0.0
 11
1.0
 21
1.0
 12
148.5
 22
105.0
 13
0.0
 23
0.0
 14
1.0
 24
1.0
 15
0.0
 25
0.0
 16
0.0
 26
0.0
 36
1.0
 17
0.0
 27
0.0
 37
0.0
 40
210.0
 41
1.4142857143
 42
50.0
 43
0.0
 44
0.0
 50
0.0
 51
0.0
 71
0
 72
100
 73
1
 74
1
 75
0
 76
0
 77
0
 78
0
  0
ENDTAB
  0
TABLE
  2
LTYPE
  5
5
100
AcDbSymbolTable
 70
6
  0
LTYPE
  5
14
100
AcDbSymbolTableRecord
100
AcDbLinetypeTableRecord
  2
BYBLOCK
 70
0
  3

 72
65
 73
0
 40
0.0
  0
LTYPE
  5
15
100
AcDbSymbolTableRecord
100
AcDbLinetypeTableRecord
  2
BYLAYER
 70
0
  3

 72
65
 73
0
 40
0.0
  0
LTYPE
  5
16
100
AcDbSymbolTableRecord
100
AcDbLinetypeTableRecord
  2
CONTINUOUS
 70
64
  3
Solid line
 72
65
 73
0
 40
0.0
  0
LTYPE
  5
1F5
100
AcDbSymbolTableRecord
100
AcDbLinetypeTableRecord
  2
CENTER
 70
64
  3
____ _ ____ _ ____ _ ____ _ ____ _ ____ _ ____
 72
65
 73
4
 40
0.6
 49
0.375
 74
0
 49
-0.075
 74
0
 49
0.075
 74
0
 49
-0.075
 74
0
  0
LTYPE
  5
1F6
100
AcDbSymbolTableRecord
100
AcDbLinetypeTableRecord
  2
HIDDEN
 70
64
  3
- - - - - - - - - - - - - - - - - - - -
 72
65
 73
2
 40
0.2
 49
0.1
 74
0
 49
-0.1
 74
0
  0
LTYPE
  5
1F7
100
AcDbSymbolTableRecord
100
AcDbLinetypeTableRecord
  2
PHANTOM
 70
64
  3
_____ _ _ _____ _ _ _____ _ _ _____
 72
65
 73
6
 40
0.8
 49
0.45
 74
0
 49
-0.05
 74
0
 49
0.1
 74
0
 49
-0.05
 74
0
 49
0.1
 74
0
 49
-0.05
 74
0
  0
LTYPE
  5
1F8
100
AcDbSymbolTableRecord
100
AcDbLinetypeTableRecord
  2
DOT
 70
64
  3
. . . . . . . . . . . . . . . . . . . .
 72
65
 73
2
 40
0.2
 49
0.1
 74
0
 49
-0.1
 74
0
  0
LTYPE
  5
1F9
100
AcDbSymbolTableRecord
100
AcDbLinetypeTableRecord
  2
DASHED
 70
64
  3
- - - - - - - - - - - - - - - - - - - -
 72
65
 73
2
 40
0.2
 49
0.1
 74
0
 49
-0.1
 74
0
  0
ENDTAB
  0
TABLE
  2
LAYER
  5
2
100
AcDbSymbolTable
 70
36
  0
LAYER
  5
10
100
AcDbSymbolTableRecord
100
AcDbLayerTableRecord
  2
0
 70
0
 62
7
  6
CONTINUOUS
370
-3
390
F
  0
LAYER
  5
1FA
100
AcDbSymbolTableRecord
100
AcDbLayerTableRecord
  2
DEFAULT_1
 70
0
 62
7
  6
CENTER
370
-3
390
F
  0
LAYER
  5
1FB
100
AcDbSymbolTableRecord
100
AcDbLayerTableRecord
  2
DEFAULT_2
 70
0
 62
7
  6
HIDDEN
370
-3
390
F
  0
LAYER
  5
1FC
100
AcDbSymbolTableRecord
100
AcDbLayerTableRecord
  2
DEFAULT_3
 70
0
 62
7
  6
PHANTOM
370
-3
390
F
  0
LAYER
  5
1FD
100
AcDbSymbolTableRecord
100
AcDbLayerTableRecord
  2
ASSI
 70
0
 62
7
  6
CONTINUOUS
370
-3
390
F
  0
LAYER
  5
1FE
100
AcDbSymbolTableRecord
100
AcDbLayerTableRecord
  2
COORDINATE
 70
0
 62
7
  6
CONTINUOUS
370
-3
390
F
  0
LAYER
  5
1FF
100
AcDbSymbolTableRecord
100
AcDbLayerTableRecord
  2
COORD_ORIGINE
 70
0
 62
7
  6
CONTINUOUS
370
-3
390
F
  0
LAYER
  5
200
100
AcDbSymbolTableRecord
100
AcDbLayerTableRecord
  2
COPY_PUBLISH
 70
0
 62
7
  6
CONTINUOUS
370
-3
390
F
  0
LAYER
  5
201
100
AcDbSymbolTableRecord
100
AcDbLayerTableRecord
  2
COSMETIC
 70
0
 62
7
  6
CONTINUOUS
370
-3
390
F
  0
LAYER
  5
202
100
AcDbSymbolTableRecord
100
AcDbLayerTableRecord
  2
CURVE
 70
0
 62
7
  6
CONTINUOUS
370
-3
390
F
  0
LAYER
  5
203
100
AcDbSymbolTableRecord
100
AcDbLayerTableRecord
  2
DRAFT
 70
0
 62
7
  6
CONTINUOUS
370
-3
390
F
  0
LAYER
  5
204
100
AcDbSymbolTableRecord
100
AcDbLayerTableRecord
  2
IMPORT_IGES
 70
0
 62
7
  6
CONTINUOUS
370
-3
390
F
  0
LAYER
  5
205
100
AcDbSymbolTableRecord
100
AcDbLayerTableRecord
  2
INCISIONI
 70
0
 62
7
  6
CONTINUOUS
370
-3
390
F
  0
LAYER
  5
206
100
AcDbSymbolTableRecord
100
AcDbLayerTableRecord
  2
INTFCLR_1
 70
0
 62
7
  6
CONTINUOUS
370
-3
390
F
  0
LAYER
  5
207
100
AcDbSymbolTableRecord
100
AcDbLayerTableRecord
  2
INTF_1
 70
0
 62
7
  6
CONTINUOUS
370
-3
390
F
  0
LAYER
  5
208
100
AcDbSymbolTableRecord
100
AcDbLayerTableRecord
  2
INTF_15
 70
0
 62
7
  6
CONTINUOUS
370
-3
390
F
  0
LAYER
  5
209
100
AcDbSymbolTableRecord
100
AcDbLayerTableRecord
  2
INTF_16
 70
0
 62
7
  6
CONTINUOUS
370
-3
390
F
  0
LAYER
  5
20A
100
AcDbSymbolTableRecord
100
AcDbLayerTableRecord
  2
NOTE
 70
0
 62
7
  6
CONTINUOUS
370
-3
390
F
  0
LAYER
  5
20B
100
AcDbSymbolTableRecord
100
AcDbLayerTableRecord
  2
PIANI
 70
0
 62
7
  6
CONTINUOUS
370
-3
390
F
  0
LAYER
  5
20C
100
AcDbSymbolTableRecord
100
AcDbLayerTableRecord
  2
PIANI_COSTRUZIONE_PROFILO
 70
0
 62
7
  6
CONTINUOUS
370
-3
390
F
  0
LAYER
  5
20D
100
AcDbSymbolTableRecord
100
AcDbLayerTableRecord
  2
PIANI_ORIGINE
 70
0
 62
7
  6
CONTINUOUS
370
-3
390
F
  0
LAYER
  5
20E
100
AcDbSymbolTableRecord
100
AcDbLayerTableRecord
  2
PIANI_RIFERIMENTO
 70
0
 62
7
  6
CONTINUOUS
370
-3
390
F
  0
LAYER
  5
20F
100
AcDbSymbolTableRecord
100
AcDbLayerTableRecord
  2
PUNTI
 70
0
 62
7
  6
CONTINUOUS
370
-3
390
F
  0
LAYER
  5
210
100
AcDbSymbolTableRecord
100
AcDbLayerTableRecord
  2
RACCORDO
 70
0
 62
7
  6
CONTINUOUS
370
-3
390
F
  0
LAYER
  5
211
100
AcDbSymbolTableRecord
100
AcDbLayerTableRecord
  2
SKEL
 70
0
 62
7
  6
CONTINUOUS
370
-3
390
F
  0
LAYER
  5
212
100
AcDbSymbolTableRecord
100
AcDbLayerTableRecord
  2
SMUSSO
 70
0
 62
7
  6
CONTINUOUS
370
-3
390
F
  0
LAYER
  5
213
100
AcDbSymbolTableRecord
100
AcDbLayerTableRecord
  2
SNAPLINE
 70
0
 62
7
  6
CONTINUOUS
370
-3
390
F
  0
LAYER
  5
214
100
AcDbSymbolTableRecord
100
AcDbLayerTableRecord
  2
SUPERFICI
 70
0
 62
7
  6
CONTINUOUS
370
-3
390
F
  0
LAYER
  5
215
100
AcDbSymbolTableRecord
100
AcDbLayerTableRecord
  2
SUPERFICI_ESTETICHE
 70
0
 62
7
  6
CONTINUOUS
370
-3
390
F
  0
LAYER
  5
216
100
AcDbSymbolTableRecord
100
AcDbLayerTableRecord
  2
SUPERFICI_SKEL
 70
0
 62
7
  6
CONTINUOUS
370
-3
390
F
  0
LAYER
  5
217
100
AcDbSymbolTableRecord
100
AcDbLayerTableRecord
  2
TRASH
 70
0
 62
7
  6
CONTINUOUS
370
-3
390
F
  0
LAYER
  5
218
100
AcDbSymbolTableRecord
100
AcDbLayerTableRecord
  2
XSEC_DATUMS
 70
0
 62
7
  6
CONTINUOUS
370
-3
390
F
  0
ENDTAB
  0
TABLE
  2
STYLE
  5
3
100
AcDbSymbolTable
 70
1
  0
STYLE
  5
11
100
AcDbSymbolTableRecord
100
AcDbTextStyleTableRecord
  2
STANDARD
 70
0
 40
0.0
 41
0.8
 50
0.0
 71
0
 42
0.2
  3
txt
  4

  0
STYLE
  5
219
100
AcDbSymbolTableRecord
100
AcDbTextStyleTableRecord
  2
TEXTSTYLE_1
 70
0
 40
0.0
 41
0.8
 50
0.0
 71
0
 42
0.2
  3
gdt
  4

  0
ENDTAB
  0
TABLE
  2
VIEW
  5
6
100
AcDbSymbolTable
 70
0
  0
ENDTAB
  0
TABLE
  2
UCS
  5
7
100
AcDbSymbolTable
 70
0
  0
ENDTAB
  0
TABLE
  2
APPID
  5
9
100
AcDbSymbolTable
 70
1
  0
APPID
  5
21A
100
AcDbSymbolTableRecord
100
AcDbRegAppTableRecord
  2
ACAD
 70
0
  0
ENDTAB
  0
TABLE
  2
BLOCK_RECORD
  5
1
100
AcDbSymbolTable
 70
0
  0
BLOCK_RECORD
  5
21B
100
AcDbSymbolTableRecord
100
AcDbBlockTableRecord
  2
*Model_Space
  0
BLOCK_RECORD
  5
21C
100
AcDbSymbolTableRecord
100
AcDbBlockTableRecord
  2
*Paper_Space
  0
ENDTAB
  0
TABLE
  2
DIMSTYLE
  5
A
100
AcDbSymbolTable
 70
1
100
AcDbDimStyleTable
 71
0
  0
DIMSTYLE
105
21D
100
AcDbSymbolTableRecord
100
AcDbDimStyleTableRecord
  2
STANDARD
 70
0
  3

  4

 40
1.0
 41
3.0
 42
0.0625
 43
0.38
 44
0.18
 45
0.0
 46
0.0
 47
0.01
 48
0.01
140
3.0
141
0.09
142
0.0
143
25.4
144
1.0
145
0.0
146
1.0
147
0.09
 71
1.0
 72
0.0
 73
0
 74
0
 75
0
 76
0
 77
1
 78
8
170
0
171
2
172
0
173
0
174
0
175
0
176
0
177
0
178
0
270
2
271
2
272
2
273
2
274
2
275
0
280
0
281
0
282
0
283
1
284
8
285
0
286
0
287
3
288
0
340
11
  0
ENDTAB
  0
ENDSEC
  0
SECTION
  2
BLOCKS
  0
BLOCK
  5
20
100
AcDbEntity
  8
0
100
AcDbBlockBegin
  2
*Model_Space
 70
0
 10
0.0
 20
0.0
 30
0.0
  3
*Model_Space
  1

  0
ENDBLK
  5
21
100
AcDbEntity
  8
0
100
AcDbBlockEnd
  0
BLOCK
  5
1C
100
AcDbEntity
  8
0
100
AcDbBlockBegin
  2
*Paper_Space
 70
0
 10
0.0
 20
0.0
 30
0.0
  3
*Paper_Space
  1

  0
ENDBLK
  5
1D
100
AcDbEntity
  8
0
100
AcDbBlockEnd
  0
ENDSEC
  0
SECTION
  2
ENTITIES
  0
LWPOLYLINE
  5
21E
100
AcDbEntity
  8
ASSI
100
AcDbPolyline
 62
7
  6
CONTINUOUS
 90
12
 70
0
 10
-12.9521684883
 20
26.5255248093
 10
-12.970678311
 20
26.5144674694
 10
-12.9918939385
 20
26.4988232183
 10
-13.0117117678
 20
26.4807447339
 10
-13.0298780952
 20
26.4604009388
 10
-13.0457328934
 20
26.4386331998
 10
-13.0595457654
 20
26.4151943957
 10
-13.0712660241
 20
26.3899814099
 10
-13.0803108502
 20
26.3641914375
 10
-13.0866794924
 20
26.3381325252
 10
-13.0904736681
 20
26.3111267677
 10
-13.0914767558
 20
26.2884378864
  0
LINE
  5
21F
100
AcDbEntity
  8
ASSI
100
AcDbLine
 62
7
  6
CONTINUOUS
 10
-12.9523096776
 20
26.5254494643
 11
-11.3851091872
 21
27.3709900831
  0
LINE
  5
220
100
AcDbEntity
  8
ASSI
100
AcDbLine
 62
253
  6
CONTINUOUS
 10
-12.8598130565
 20
26.5213779194
 11
-11.2935623104
 21
27.3664061294
  0
LINE
  5
221
100
AcDbEntity
  8
ASSI
100
AcDbLine
 62
7
  6
CONTINUOUS
 10
-11.3809013503
 20
27.3730959608
 11
-11.3850668538
 21
27.3710129229
  0
LINE
  5
222
100
AcDbEntity
  8
ASSI
100
AcDbLine
 62
7
  6
CONTINUOUS
 10
-11.3808435105
 20
27.3731227508
 11
-10.8371601328
 21
27.6242137517
  0
LINE
  5
223
100
AcDbEntity
  8
ASSI
100
AcDbLine
 62
253
  6
CONTINUOUS
 10
-11.2935623104
 20
27.3664061294
 11
-10.7508362477
 21
27.6170550105
  0
LINE
  5
224
100
AcDbEntity
  8
ASSI
100
AcDbLine
 62
7
  6
CONTINUOUS
 10
-10.8138117504
 20
27.6335340005
 11
-10.8369431144
 21
27.6243134284
  0
LWPOLYLINE
  5
225
100
AcDbEntity
  8
ASSI
100
AcDbPolyline
 62
7
  6
CONTINUOUS
 90
19
 70
0
 10
-16.6068168482
 20
22.7000648549
 10
-16.618773547
 20
22.6928763309
 10
-16.6909721693
 20
22.6450194569
 10
-16.7600592175
 20
22.5916106221
 10
-16.8260394519
 20
22.5329319611
 10
-16.8888065927
 20
22.4693183313
 10
-16.9480394596
 20
22.4012841035
 10
-17.003658237
 20
22.3291159569
 10
-17.0555167883
 20
22.2530887233
 10
-17.1031759235
 20
22.173918427
 10
-17.1465100646
 20
22.0919203989
 10
-17.1853404157
 20
22.0073806607
 10
-17.2192848888
 20
21.9211307118
 10
-17.2481989345
 20
21.8334961556
 10
-17.2719096114
 20
21.7447525708
 10
-17.2901500696
 20
21.6556123808
 10
-17.3027365378
 20
21.5664393055
 10
-17.3095145361
 20
21.4773898438
 10
-17.3099683514
 20
21.4655191993
  0
LINE
  5
226
100
AcDbEntity
  8
ASSI
100
AcDbLine
 62
7
  6
CONTINUOUS
 10
-16.6069708222
 20
22.699986975
 11
-12.3766137371
 21
25.2077519253
  0
LINE
  5
227
100
AcDbEntity
  8
ASSI
100
AcDbLine
 62
253
  6
CONTINUOUS
 10
-12.3766137371
 20
25.0606366079
 11
-16.3705064658
 21
22.6930482462
  0
LWPOLYLINE
  5
228
100
AcDbEntity
  8
RACCORDO
100
AcDbPolyline
 62
7
  6
CONTINUOUS
 90
19
 70
0
 10
-15.6290608248
 20
22.2202986774
 10
-15.6428649433
 20
22.2122437757
 10
-15.7163881029
 20
22.1646688879
 10
-15.7878940479
 20
22.110534668
 10
-15.8570852109
 20
22.050204769
 10
-15.9235970546
 20
21.9841529457
 10
-15.9869074221
 20
21.9130328818
 10
-16.0466442804
 20
21.837450092
 10
-16.1025881508
 20
21.7578372034
 10
-16.1544288641
 20
21.6747153932
 10
-16.2018838122
 20
21.588655945
 10
-16.2446970021
 20
21.5001687886
 10
-16.2826384219
 20
21.4097422428
 10
-16.3154712921
 20
21.3179413117
 10
-16.342953064
 20
21.2253093468
 10
-16.3649029653
 20
21.1322758222
 10
-16.3811080379
 20
21.0393136417
 10
-16.3913379991
 20
20.9470127859
 10
-16.3946367484
 20
20.8894510472
  0
LINE
  5
229
100
AcDbEntity
  8
RACCORDO
100
AcDbLine
 62
7
  6
CONTINUOUS
 10
-13.7045806474
 20
23.3241040504
 11
-15.6291620301
 21
22.2202509085
  0
LINE
  5
22A
100
AcDbEntity
  8
RACCORDO
100
AcDbLine
 62
253
  6
CONTINUOUS
 10
-13.6114436638
 20
23.3204738359
 11
-15.5370576866
 21
22.2160284182
  0
LINE
  5
22B
100
AcDbEntity
  8
RACCORDO
100
AcDbLine
 62
253
  6
CONTINUOUS
 10
-15.8983048731
 20
22.4217669868
 11
-13.9625919341
 21
23.496047971
  0
LINE
  5
22C
100
AcDbEntity
  8
RACCORDO
100
AcDbLine
 62
253
  6
CONTINUOUS
 10
-15.7507215978
 20
22.1811749439
 11
-14.1009557072
 21
23.0967611804
  0
LINE
  5
22D
100
AcDbEntity
  8
ASSI
100
AcDbLine
 62
7
  6
CONTINUOUS
 10
-11.0106980587
 20
24.2775807815
 11
-11.5534241214
 21
23.9812906713
  0
LINE
  5
22E
100
AcDbEntity
  8
ASSI
100
AcDbLine
 62
253
  6
CONTINUOUS
 10
-10.7940990151
 20
25.4885208987
 11
-9.1721988885
 21
26.3057244184
  0
LINE
  5
22F
100
AcDbEntity
  8
ASSI
100
AcDbLine
 62
253
  6
CONTINUOUS
 10
-10.652699198
 20
25.2446422894
 11
-9.0307990714
 21
26.0618458091
  0
LINE
  5
230
100
AcDbEntity
  8
ASSI
100
AcDbLine
 62
253
  6
CONTINUOUS
 10
-9.1721988885
 20
26.3057244184
 11
-8.6480924273
 21
26.5656850869
  0
LINE
  5
231
100
AcDbEntity
  8
ASSI
100
AcDbLine
 62
253
  6
CONTINUOUS
 10
-9.0307990714
 20
26.0618458091
 11
-8.5066946049
 21
26.3218054883
  0
LWPOLYLINE
  5
232
100
AcDbEntity
  8
ASSI
100
AcDbPolyline
 62
7
  6
CONTINUOUS
 90
12
 70
0
 10
-7.2357213098
 20
24.632833671
 10
-7.2438801741
 20
24.6282039137
 10
-7.263065807
 20
24.6153477056
 10
-7.2808534992
 20
24.6004911061
 10
-7.2970040629
 20
24.5838217781
 10
-7.3114544247
 20
24.5653667061
 10
-7.3239969695
 20
24.5453162098
 10
-7.3344341587
 20
24.5239304252
 10
-7.3427014015
 20
24.5012616935
 10
-7.3486726311
 20
24.477441342
 10
-7.3522076595
 20
24.4527795361
 10
-7.353241265
 20
24.4300871612
  0
LINE
  5
233
100
AcDbEntity
  8
ASSI
100
AcDbLine
 62
7
  6
CONTINUOUS
 10
-9.9332498221
 20
23.923696771
 11
-9.0307990714
 21
24.416371162
  0
LINE
  5
234
100
AcDbEntity
  8
ASSI
100
AcDbLine
 62
7
  6
CONTINUOUS
 10
-7.0239229393
 20
24.7471038392
 11
-7.2357353028
 21
24.6328262097
  0
LINE
  5
235
100
AcDbEntity
  8
ASSI
100
AcDbLine
 62
253
  6
CONTINUOUS
 10
-6.9095056518
 20
24.7413650982
 11
-7.1203599691
 21
24.6276043567
  0
LINE
  5
236
100
AcDbEntity
  8
ASSI
100
AcDbLine
 62
7
  6
CONTINUOUS
 10
-7.0239292318
 20
24.7471004633
 11
-7.0187150285
 21
24.7497110445
  0
LINE
  5
237
100
AcDbEntity
  8
ASSI
100
AcDbLine
 62
253
  6
CONTINUOUS
 10
-5.8841469712
 20
24.9206760094
 11
-2.6735995768
 21
26.5131311855
  0
LINE
  5
238
100
AcDbEntity
  8
ASSI
100
AcDbLine
 62
253
  6
CONTINUOUS
 10
-5.4900560615
 20
24.7236305546
 11
-2.4967786763
 21
26.2083182044
  0
LINE
  5
239
100
AcDbEntity
  8
ASSI
100
AcDbLine
 62
7
  6
CONTINUOUS
 10
-2.0189662567
 20
27.842434165
 11
-8.3626633563
 21
24.7742935559
  0
LINE
  5
23A
100
AcDbEntity
  8
ASSI
100
AcDbLine
 62
7
  6
CONTINUOUS
 10
-2.9733419797
 20
26.617998387
 11
-7.0186567573
 21
24.7497379656
  0
LINE
  5
23B
100
AcDbEntity
  8
ASSI
100
AcDbLine
 62
253
  6
CONTINUOUS
 10
-2.8654371251
 20
26.6090499596
 11
-6.9095056518
 21
24.7413650982
  0
LINE
  5
23C
100
AcDbEntity
  8
ASSI
100
AcDbLine
 62
7
  6
CONTINUOUS
 10
-2.9366742418
 20
26.6327760769
 11
-2.9734422689
 21
26.6179406911
  0
LWPOLYLINE
  5
23D
100
AcDbEntity
  8
ASSI
100
AcDbPolyline
 62
7
  6
CONTINUOUS
 90
6
 70
0
 10
-8.478269484
 20
25.8534732444
 10
-8.4687954955
 20
25.8659013762
 10
-8.4551825793
 20
25.8867559107
 10
-8.4433292462
 20
25.9090225488
 10
-8.4333861484
 20
25.9325835211
 10
-8.4257324373
 20
25.9565604994
  0
LINE
  5
23E
100
AcDbEntity
  8
ASSI
100
AcDbLine
 62
253
  6
CONTINUOUS
 10
-8.4899317655
 20
25.9097464324
 11
-9.0307990714
 21
25.2404589462
  0
LINE
  5
23F
100
AcDbEntity
  8
ASSI
100
AcDbLine
 62
7
  6
CONTINUOUS
 10
-8.4782443223
 20
25.8535042088
 11
-9.0307990714
 21
25.1697542854
  0
LWPOLYLINE
  5
240
100
AcDbEntity
  8
ASSI
100
AcDbPolyline
 62
7
  6
CONTINUOUS
 90
12
 70
0
 10
-3.5234107085
 20
22.7766783704
 10
-3.5315695729
 20
22.772048613
 10
-3.5507552058
 20
22.759192405
 10
-3.5685428979
 20
22.7443358055
 10
-3.5846934617
 20
22.7276664775
 10
-3.5991438235
 20
22.7092114055
 10
-3.6116863683
 20
22.6891609092
 10
-3.6221235575
 20
22.6677751245
 10
-3.6303908002
 20
22.6451063929
 10
-3.6363620299
 20
22.6212860414
 10
-3.6398970583
 20
22.5966242355
 10
-3.6409306637
 20
22.5739318606
  0
LINE
  5
241
100
AcDbEntity
  8
DRAFT
100
AcDbLine
 62
7
  6
CONTINUOUS
 10
-9.2552737005
 20
21.1423888542
 11
-8.5358243246
 21
21.5351574156
  0
LINE
  5
242
100
AcDbEntity
  8
ASSI
100
AcDbLine
 62
7
  6
CONTINUOUS
 10
-4.7236617092
 20
22.0344279424
 11
-4.5053156718
 21
22.1536294622
  0
LINE
  5
243
100
AcDbEntity
  8
ASSI
100
AcDbLine
 62
7
  6
CONTINUOUS
 10
-3.311612338
 20
22.8909485386
 11
-3.5234247016
 21
22.7766709091
  0
LINE
  5
244
100
AcDbEntity
  8
ASSI
100
AcDbLine
 62
253
  6
CONTINUOUS
 10
-3.1971950506
 20
22.8852097976
 11
-3.4080493679
 21
22.771449056
  0
LINE
  5
245
100
AcDbEntity
  8
ASSI
100
AcDbLine
 62
7
  6
CONTINUOUS
 10
-4.5053156718
 20
22.1536294622
 11
-3.8105514854
 21
22.5118426491
  0
LINE
  5
246
100
AcDbEntity
  8
ASSI
100
AcDbLine
 62
253
  6
CONTINUOUS
 10
-4.9004114805
 20
23.5176301124
 11
-4.6820654432
 21
23.6276449939
  0
LINE
  5
247
100
AcDbEntity
  8
ASSI
100
AcDbLine
 62
253
  6
CONTINUOUS
 10
-4.7236617092
 20
23.2127818507
 11
-4.5053156718
 21
23.3227967322
  0
LINE
  5
248
100
AcDbEntity
  8
RACCORDO
100
AcDbLine
 62
253
  6
CONTINUOUS
 10
-16.5091150314
 20
17.3659701141
 11
-16.5454855675
 21
17.347714129
  0
LINE
  5
249
100
AcDbEntity
  8
ASSI
100
AcDbLine
 62
7
  6
CONTINUOUS
 10
-3.3116186306
 20
22.8909451627
 11
-3.3064044272
 21
22.8935557439
  0
LINE
  5
24A
100
AcDbEntity
  8
ASSI
100
AcDbLine
 62
7
  6
CONTINUOUS
 10
0.0165481672
 20
25.3886381227
 11
-3.8105514854
 21
23.4826605408
  0
LINE
  5
24B
100
AcDbEntity
  8
ASSI
100
AcDbLine
 62
7
  6
CONTINUOUS
 10
-4.3162020291
 20
24.1367035384
 11
-2.4968498055
 21
25.0391156538
  0
LINE
  5
24C
100
AcDbEntity
  8
ASSI
100
AcDbLine
 62
253
  6
CONTINUOUS
 10
-4.6820654432
 20
23.6276449939
 11
-3.9873012567
 21
23.9722531522
  0
LINE
  5
24D
100
AcDbEntity
  8
ASSI
100
AcDbLine
 62
253
  6
CONTINUOUS
 10
-4.5053156718
 20
23.3227967322
 11
-3.8105514854
 21
23.6674048906
  0
LINE
  5
24E
100
AcDbEntity
  8
ASSI
100
AcDbLine
 62
253
  6
CONTINUOUS
 10
-4.1624021389
 20
24.0598035933
 11
0.7547009523
 21
26.4556005606
  0
LINE
  5
24F
100
AcDbEntity
  8
ASSI
100
AcDbLine
 62
253
  6
CONTINUOUS
 10
-3.8492185606
 20
23.8213913756
 11
0.9299283858
 21
26.1499709372
  0
LINE
  5
250
100
AcDbEntity
  8
ASSI
100
AcDbLine
 62
7
  6
CONTINUOUS
 10
-2.5868954657
 20
23.2258488356
 11
-3.3063461561
 21
22.893582665
  0
LINE
  5
251
100
AcDbEntity
  8
ASSI
100
AcDbLine
 62
253
  6
CONTINUOUS
 10
-2.4777456746
 20
23.2174753611
 11
-3.1971950506
 21
22.8852097976
  0
LWPOLYLINE
  5
252
100
AcDbEntity
  8
ASSI
100
AcDbPolyline
 62
7
  6
CONTINUOUS
 90
12
 70
0
 10
-2.1129852751
 20
-22.8426328116
 10
-2.1027936564
 20
-22.8470525546
 10
-2.0370550606
 20
-22.871576298
 10
-1.9681616715
 20
-22.8904194948
 10
-1.8966342894
 20
-22.9031848805
 10
-1.8231455849
 20
-22.9095488362
 10
-1.7481325597
 20
-22.9093162305
 10
-1.6721076389
 20
-22.9023671481
 10
-1.5957490831
 20
-22.8886782566
 10
-1.5194825874
 20
-22.8682693624
 10
-1.443610644
 20
-22.8411939357
 10
-1.4358040002
 20
-22.8380179704
  0
LWPOLYLINE
  5
253
100
AcDbEntity
  8
ASSI
100
AcDbPolyline
 62
7
  6
CONTINUOUS
 90
10
 70
0
 10
-16.8919889239
 20
-15.4529380788
 10
-15.4125386267
 20
-16.281499316
 10
-13.8270383053
 20
-17.1449949421
 10
-12.2157824603
 20
-17.9978064209
 10
-10.5791332395
 20
-18.8397417495
 10
-8.9174548451
 20
-19.670614645
 10
-7.2311232299
 20
-20.4902473128
 10
-5.5205325891
 20
-21.2984662402
 10
-3.7860875852
 20
-22.0950995348
 10
-2.1121432702
 20
-22.8430051279
  0
LINE
  5
254
100
AcDbEntity
  8
ASSI
100
AcDbLine
 62
7
  6
CONTINUOUS
 10
-16.8916385249
 20
-15.4531368086
 11
-16.8919924851
 21
-15.452936057
  0
LINE
  5
255
100
AcDbEntity
  8
ASSI
100
AcDbLine
 62
253
  6
CONTINUOUS
 10
-1.1881008793
 20
21.6614748118
 11
-0.9697548419
 21
21.7714896933
  0
LINE
  5
256
100
AcDbEntity
  8
ASSI
100
AcDbLine
 62
253
  6
CONTINUOUS
 10
-1.0113511079
 20
21.3566265501
 11
-0.7930050706
 21
21.4666414316
  0
LINE
  5
257
100
AcDbEntity
  8
ASSI
100
AcDbLine
 62
253
  6
CONTINUOUS
 10
-0.9697548419
 20
21.7714896933
 11
2.9355567388
 21
23.7085530277
  0
LINE
  5
258
100
AcDbEntity
  8
ASSI
100
AcDbLine
 62
253
  6
CONTINUOUS
 10
-0.7930050706
 20
21.4666414316
 11
3.1123776393
 21
23.4037400466
  0
LINE
  5
259
100
AcDbEntity
  8
ASSI
100
AcDbLine
 62
7
  6
CONTINUOUS
 10
5.4234013129
 20
24.0747496402
 11
3.2205488121
 21
23.0390662466
  0
LINE
  5
25A
100
AcDbEntity
  8
ASSI
100
AcDbLine
 62
253
  6
CONTINUOUS
 10
5.5328556076
 20
24.0665232329
 11
3.2205488121
 21
22.979379292
  0
LINE
  5
25B
100
AcDbEntity
  8
ASSI
100
AcDbLine
 62
7
  6
CONTINUOUS
 10
2.6358143359
 20
23.8134202292
 11
-0.6420149942
 21
22.299610021
  0
LINE
  5
25C
100
AcDbEntity
  8
ASSI
100
AcDbLine
 62
253
  6
CONTINUOUS
 10
2.7437191906
 20
23.8044718018
 11
-0.5808999602
 21
22.2690525039
  0
LINE
  5
25D
100
AcDbEntity
  8
ASSI
100
AcDbLine
 62
7
  6
CONTINUOUS
 10
2.6724820738
 20
23.8281979191
 11
2.6357140468
 21
23.8133625333
  0
LINE
  5
25E
100
AcDbEntity
  8
ASSI
100
AcDbLine
 62
253
  6
CONTINUOUS
 10
4.0965689396
 20
-21.6081080596
 11
3.5557016337
 21
-21.4989050644
  0
LINE
  5
25F
100
AcDbEntity
  8
ASSI
100
AcDbLine
 62
253
  6
CONTINUOUS
 10
4.0234625124
 20
-21.3532971512
 11
3.5557016337
 21
-21.2588545987
  0
LWPOLYLINE
  5
260
100
AcDbEntity
  8
ASSI
100
AcDbPolyline
 62
7
  6
CONTINUOUS
 90
10
 70
0
 10
1.6830247021
 20
-23.1770782027
 10
1.6954832316
 20
-23.1828489889
 10
1.7168180629
 20
-23.1906558882
 10
1.7389971215
 20
-23.1962503539
 10
1.7617842055
 20
-23.1995352277
 10
1.7850171214
 20
-23.2004433804
 10
1.8084465149
 20
-23.1989130453
 10
1.8317369529
 20
-23.1949369918
 10
1.854659514
 20
-23.1885386699
 10
1.8784941806
 20
-23.1790829428
  0
LINE
  5
261
100
AcDbEntity
  8
ASSI
100
AcDbLine
 62
7
  6
CONTINUOUS
 10
1.683304461
 20
-23.1772192739
 11
-0.0975858456
 21
-22.2867741206
  0
LINE
  5
262
100
AcDbEntity
  8
ASSI
100
AcDbLine
 62
253
  6
CONTINUOUS
 10
1.6181038141
 20
-23.0418871486
 11
0.0150668255
 21
-22.2403686543
  0
LINE
  5
263
100
AcDbEntity
  8
ASSI
100
AcDbLine
 62
253
  6
CONTINUOUS
 10
1.6181038141
 20
-22.7246169194
 11
0.6826352958
 21
-22.2568840891
  0
LINE
  5
264
100
AcDbEntity
  8
ASSI
100
AcDbLine
 62
253
  6
CONTINUOUS
 10
0.4890710097
 20
-22.160101946
 11
0.3629747211
 21
-22.0970535602
  0
LINE
  5
265
100
AcDbEntity
  8
ASSI
100
AcDbLine
 62
253
  6
CONTINUOUS
 10
1.7068007266
 20
-22.4930784568
 11
0.9241167524
 21
-22.1017364697
  0
LWPOLYLINE
  5
266
100
AcDbEntity
  8
ASSI
100
AcDbPolyline
 62
7
  6
CONTINUOUS
 90
14
 70
0
 10
-17.3099396485
 20
-14.6920070978
 10
-17.3090582734
 20
-14.7122834488
 10
-17.3011838636
 20
-14.8001535005
 10
-17.2869246318
 20
-14.8847089458
 10
-17.2663889163
 20
-14.9657244237
 10
-17.2397204567
 20
-15.0429483428
 10
-17.2071406148
 20
-15.1159205513
 10
-17.168905437
 20
-15.1842632613
 10
-17.1252940618
 20
-15.2476914129
 10
-17.0767595797
 20
-15.3057358558
 10
-17.0237820312
 20
-15.3580323175
 10
-16.9668890174
 20
-15.404316383
 10
-16.9068144838
 20
-15.4442898164
 10
-16.8915752692
 20
-15.4531685822
  0
LWPOLYLINE
  5
267
100
AcDbEntity
  8
RACCORDO
100
AcDbPolyline
 62
7
  6
CONTINUOUS
 90
3
 70
0
 10
-16.5133811477
 20
17.2193201613
 10
-16.5136454987
 20
17.2086266007
 10
-16.5128491308
 20
17.1242060802
  0
LINE
  5
268
100
AcDbEntity
  8
RACCORDO
100
AcDbLine
 62
7
  6
CONTINUOUS
 10
-16.4773514358
 20
18.4215780506
 11
-16.5133931529
 21
17.2192594062
  0
LWPOLYLINE
  5
269
100
AcDbEntity
  8
ASSI
100
AcDbPolyline
 62
7
  6
CONTINUOUS
 90
13
 70
0
 10
-17.3099712222
 20
21.4656657093
 10
-17.403056628
 20
18.4578528723
 10
-17.48103322
 20
15.3932036313
 10
-17.5416914279
 20
12.3370330199
 10
-17.5850194006
 20
9.2895219512
 10
-17.6110119163
 20
6.2508279508
 10
-17.6196652874
 20
3.2210996062
 10
-17.6109769521
 20
0.2004915211
 10
-17.5849491998
 20
-2.8108443818
 10
-17.5415853837
 20
-5.8127634116
 10
-17.4808904692
 20
-8.8051132782
 10
-17.4028760604
 20
-11.7877251497
 10
-17.3099500515
 20
-14.6919410863
  0
LINE
  5
26A
100
AcDbEntity
  8
RACCORDO
100
AcDbLine
 62
7
  6
CONTINUOUS
 10
-16.4503302036
 20
19.2672364416
 11
-16.4773514358
 21
18.4215780506
  0
LINE
  5
26B
100
AcDbEntity
  8
RACCORDO
100
AcDbLine
 62
7
  6
CONTINUOUS
 10
-16.4219100881
 20
20.1135482974
 11
-16.4503302036
 21
19.2672364416
  0
LINE
  5
26C
100
AcDbEntity
  8
RACCORDO
100
AcDbLine
 62
7
  6
CONTINUOUS
 10
-16.394644734
 20
20.8894811445
 11
-16.4219100881
 21
20.1135482974
  0
LINE
  5
26D
100
AcDbEntity
  8
DRAFT
100
AcDbLine
 62
7
  6
CONTINUOUS
 10
-4.9879478239
 20
19.0087259159
 11
-4.2931836374
 21
19.4138370721
  0
LWPOLYLINE
  5
26E
100
AcDbEntity
  8
ASSI
100
AcDbPolyline
 62
7
  6
CONTINUOUS
 90
12
 70
0
 10
-0.3657154123
 20
20.2322493059
 10
-0.3770354353
 20
20.2257486557
 10
-0.3993202355
 20
20.2104077286
 10
-0.4202108185
 20
20.1924168483
 10
-0.4393965266
 20
20.1719745584
 10
-0.4561665657
 20
20.1499528121
 10
-0.470826412
 20
20.1260777144
 10
-0.4833011444
 20
20.1002657543
 10
-0.492940177
 20
20.0738170422
 10
-0.4997492072
 20
20.0470615206
 10
-0.5038476113
 20
20.0192515239
 10
-0.5049760785
 20
19.995185614
  0
LINE
  5
26F
100
AcDbEntity
  8
ASSI
100
AcDbLine
 62
7
  6
CONTINUOUS
 10
-0.7930050706
 20
20.2974741615
 11
-1.0113511079
 21
20.1782726418
  0
LINE
  5
270
100
AcDbEntity
  8
ASSI
100
AcDbLine
 62
7
  6
CONTINUOUS
 10
1.2013915179
 20
21.0777397306
 11
-0.3658089723
 21
20.2321991118
  0
LINE
  5
271
100
AcDbEntity
  8
ASSI
100
AcDbLine
 62
253
  6
CONTINUOUS
 10
1.2929383948
 20
21.0731557768
 11
-0.2733123514
 21
20.2281275668
  0
LINE
  5
272
100
AcDbEntity
  8
ASSI
100
AcDbLine
 62
7
  6
CONTINUOUS
 10
1.2014349523
 20
21.0777631209
 11
1.2056013889
 21
21.0798466253
  0
LINE
  5
273
100
AcDbEntity
  8
ASSI
100
AcDbLine
 62
7
  6
CONTINUOUS
 10
-0.7930050706
 20
20.2974741615
 11
3.1123065102
 21
22.2345374959
  0
LINE
  5
274
100
AcDbEntity
  8
ASSI
100
AcDbLine
 62
7
  6
CONTINUOUS
 10
8.3065228165
 20
22.6796896284
 11
3.6524940525
 21
20.4753398029
  0
LINE
  5
275
100
AcDbEntity
  8
ASSI
100
AcDbLine
 62
7
  6
CONTINUOUS
 10
1.7493405725
 20
21.3309633992
 11
1.2056571946
 21
21.0798723982
  0
LINE
  5
276
100
AcDbEntity
  8
ASSI
100
AcDbLine
 62
253
  6
CONTINUOUS
 10
1.8356644575
 20
21.3238046579
 11
1.2929383948
 21
21.0731557768
  0
LINE
  5
277
100
AcDbEntity
  8
ASSI
100
AcDbLine
 62
7
  6
CONTINUOUS
 10
1.8237235549
 20
-21.4953214374
 11
2.3028095951
 21
-21.7348644576
  0
LINE
  5
278
100
AcDbEntity
  8
ASSI
100
AcDbLine
 62
253
  6
CONTINUOUS
 10
3.5557016337
 20
-21.1194255619
 11
4.0234625124
 21
-21.3532971512
  0
LINE
  5
279
100
AcDbEntity
  8
ASSI
100
AcDbLine
 62
7
  6
CONTINUOUS
 10
4.0467379187
 20
-21.3613298648
 11
3.5557016337
 21
-21.115811722
  0
LWPOLYLINE
  5
27A
100
AcDbEntity
  8
RACCORDO
100
AcDbPolyline
 62
7
  6
CONTINUOUS
 90
17
 70
0
 10
-16.5128491308
 20
17.1242060802
 10
-16.507062824
 20
17.0384806493
 10
-16.4963964472
 20
16.9519692489
 10
-16.4809931513
 20
16.8650612513
 10
-16.4609729829
 20
16.7780814683
 10
-16.4364488989
 20
16.6914417169
 10
-16.4075786315
 20
16.6056012465
 10
-16.3745121206
 20
16.5209941341
 10
-16.3373963525
 20
16.4380810056
 10
-16.2964107546
 20
16.3573017352
 10
-16.2517255199
 20
16.2790722542
 10
-16.2034661033
 20
16.2037739982
 10
-16.1518758732
 20
16.1319119296
 10
-16.0972782172
 20
16.0640529026
 10
-16.0397976315
 20
16.0005217056
 10
-15.9797202415
 20
15.9417909545
 10
-15.917600771
 20
15.8885142988
  0
LINE
  5
27B
100
AcDbEntity
  8
RACCORDO
100
AcDbLine
 62
7
  6
CONTINUOUS
 10
-15.559404763
 20
-3.9933749062
 11
-15.559404763
 21
8.9970061505
  0
LINE
  5
27C
100
AcDbEntity
  8
RACCORDO
100
AcDbLine
 62
253
  6
CONTINUOUS
 10
-15.5008261193
 20
-4.0640855843
 11
-15.5008261193
 21
8.9262954724
  0
LINE
  5
27D
100
AcDbEntity
  8
RACCORDO
100
AcDbLine
 62
7
  6
CONTINUOUS
 10
-15.4654707802
 20
9.9478482874
 11
-15.4654707802
 21
9.168425424
  0
LINE
  5
27E
100
AcDbEntity
  8
0
100
AcDbLine
 62
7
  6
CONTINUOUS
 10
-14.5108766256
 20
4.1011937067
 11
-14.5108766256
 21
-2.5672019025
  0
LINE
  5
27F
100
AcDbEntity
  8
0
100
AcDbLine
 62
7
  6
CONTINUOUS
 10
-14.3694552694
 20
4.0304830286
 11
-14.3694552694
 21
-2.4964912244
  0
LINE
  5
280
100
AcDbEntity
  8
RACCORDO
100
AcDbLine
 62
253
  6
CONTINUOUS
 10
-14.346700521
 20
-0.3507510202
 11
-14.346700521
 21
1.8143124893
  0
LINE
  5
281
100
AcDbEntity
  8
0
100
AcDbLine
 62
7
  6
CONTINUOUS
 10
-14.3340999303
 20
2.1464764243
 11
-14.3340999303
 21
1.9494335501
  0
LINE
  5
282
100
AcDbEntity
  8
0
100
AcDbLine
 62
7
  6
CONTINUOUS
 10
-14.3340999303
 20
-0.3560165895
 11
-14.3340999303
 21
-0.5858779142
  0
LINE
  5
283
100
AcDbEntity
  8
RACCORDO
100
AcDbLine
 62
253
  6
CONTINUOUS
 10
-14.2633892522
 20
-2.5495242329
 11
-14.2633892522
 21
-0.8333652876
  0
LINE
  5
284
100
AcDbEntity
  8
RACCORDO
100
AcDbLine
 62
253
  6
CONTINUOUS
 10
-14.2633892522
 20
2.1111210852
 11
-14.2633892522
 21
3.9297744332
  0
LWPOLYLINE
  5
285
100
AcDbEntity
  8
RACCORDO
100
AcDbPolyline
 62
7
  6
CONTINUOUS
 90
19
 70
0
 10
-2.2748451811
 20
15.5683136399
 10
-2.2905411542
 20
15.5591333815
 10
-2.3656145178
 20
15.5102522746
 10
-2.4384996079
 20
15.454579604
 10
-2.5088588408
 20
15.3925490528
 10
-2.5763429859
 20
15.3246569688
 10
-2.6404842321
 20
15.2515191682
 10
-2.7009134903
 20
15.1737423363
 10
-2.7573584905
 20
15.0918136289
 10
-2.8094805733
 20
15.0063062005
 10
-2.8569847446
 20
14.9178183817
 10
-2.8995884945
 20
14.8269017967
 10
-2.9370362949
 20
14.7341324027
 10
-2.9690771635
 20
14.6401180339
 10
-2.9954690179
 20
14.5454281151
 10
-3.0160270431
 20
14.4505446476
 10
-3.0305281512
 20
14.3559786784
 10
-3.0387619262
 20
14.2623642601
 10
-3.0399071415
 20
14.2367917149
  0
LINE
  5
286
100
AcDbEntity
  8
RACCORDO
100
AcDbLine
 62
7
  6
CONTINUOUS
 10
-0.3738171568
 20
16.6586680015
 11
-2.2749537202
 21
15.5682617514
  0
LINE
  5
287
100
AcDbEntity
  8
RACCORDO
100
AcDbLine
 62
253
  6
CONTINUOUS
 10
-0.2806295903
 20
16.6550667991
 11
-2.1828493857
 21
15.5640392558
  0
LINE
  5
288
100
AcDbEntity
  8
RACCORDO
100
AcDbLine
 62
253
  6
CONTINUOUS
 10
-2.5912969592
 20
15.7431480196
 11
-0.6317778605
 21
16.8306409342
  0
LINE
  5
289
100
AcDbEntity
  8
RACCORDO
100
AcDbLine
 62
253
  6
CONTINUOUS
 10
-2.4437136845
 20
15.5025559764
 11
-0.7701416336
 21
16.4313541436
  0
LINE
  5
28A
100
AcDbEntity
  8
ASSI
100
AcDbLine
 62
7
  6
CONTINUOUS
 10
1.5758026464
 20
17.984330429
 11
1.0330765837
 21
17.6880403187
  0
LINE
  5
28B
100
AcDbEntity
  8
ASSI
100
AcDbLine
 62
253
  6
CONTINUOUS
 10
-1.6445306531
 20
15.3300603707
 11
2.5926187943
 21
17.605539103
  0
LINE
  5
28C
100
AcDbEntity
  8
ASSI
100
AcDbLine
 62
7
  6
CONTINUOUS
 10
9.5364067484
 20
21.6874816314
 11
3.8369348524
 21
18.6744944516
  0
LINE
  5
28D
100
AcDbEntity
  8
ASSI
100
AcDbLine
 62
7
  6
CONTINUOUS
 10
9.5176469114
 20
22.0837964523
 11
3.6712278814
 21
19.0194600166
  0
LINE
  5
28E
100
AcDbEntity
  8
ASSI
100
AcDbLine
 62
253
  6
CONTINUOUS
 10
3.4143018166
 20
20.0124740659
 11
1.79240169
 21
19.1952705461
  0
LINE
  5
28F
100
AcDbEntity
  8
ASSI
100
AcDbLine
 62
253
  6
CONTINUOUS
 10
3.5557016337
 20
19.7685954566
 11
1.9338015071
 21
18.9513919368
  0
LINE
  5
290
100
AcDbEntity
  8
RACCORDO
100
AcDbLine
 62
7
  6
CONTINUOUS
 10
-15.5008261193
 20
9.0677168287
 11
-15.3947601021
 21
9.1207498373
  0
LINE
  5
291
100
AcDbEntity
  8
ASSI
100
AcDbLine
 62
253
  6
CONTINUOUS
 10
-15.4654707802
 20
8.9086178029
 11
-15.3628573529
 21
8.9599245166
  0
LINE
  5
292
100
AcDbEntity
  8
ASSI
100
AcDbLine
 62
253
  6
CONTINUOUS
 10
3.9384062832
 20
20.272433745
 11
3.4143018166
 21
20.0124740659
  0
LINE
  5
293
100
AcDbEntity
  8
ASSI
100
AcDbLine
 62
253
  6
CONTINUOUS
 10
4.0798061003
 20
20.0285551357
 11
3.5557016337
 21
19.7685954566
  0
LINE
  5
294
100
AcDbEntity
  8
ASSI
100
AcDbLine
 62
253
  6
CONTINUOUS
 10
4.250519668
 20
18.4677020438
 11
3.5557042955
 21
18.1231220387
  0
LINE
  5
295
100
AcDbEntity
  8
RACCORDO
100
AcDbLine
 62
253
  6
CONTINUOUS
 10
8.708265344
 20
-13.210232844
 11
4.6348780482
 21
-14.3396258164
  0
LINE
  5
296
100
AcDbEntity
  8
RACCORDO
100
AcDbLine
 62
7
  6
CONTINUOUS
 10
8.5962248036
 20
-13.1940451935
 11
4.6348780482
 21
-14.2923736513
  0
LWPOLYLINE
  5
297
100
AcDbEntity
  8
ASSI
100
AcDbPolyline
 62
7
  6
CONTINUOUS
 90
9
 70
0
 10
-13.0914772495
 20
25.9711291741
 10
-13.0913436299
 20
25.9630024294
 10
-13.0891608569
 20
25.9372346101
 10
-13.0843132254
 20
25.9120571619
 10
-13.0768504749
 20
25.8877882685
 10
-13.0669461523
 20
25.8648216056
 10
-13.0547353705
 20
25.8433072272
 10
-13.0403182653
 20
25.8233728302
 10
-13.0239359242
 20
25.8053184823
  0
LINE
  5
298
100
AcDbEntity
  8
RACCORDO
100
AcDbLine
 62
7
  6
CONTINUOUS
 10
-14.1219678959
 20
-6.2257578824
 11
-14.1219678959
 21
-4.753514696
  0
LINE
  5
299
100
AcDbEntity
  8
RACCORDO
100
AcDbLine
 62
253
  6
CONTINUOUS
 10
-14.0905638775
 20
-0.3619555465
 11
-14.0905638775
 21
1.8031079629
  0
LINE
  5
29A
100
AcDbEntity
  8
RACCORDO
100
AcDbLine
 62
253
  6
CONTINUOUS
 10
-13.8391251835
 20
-2.3922110144
 11
-13.8391251835
 21
-0.8333652876
  0
LINE
  5
29B
100
AcDbEntity
  8
RACCORDO
100
AcDbLine
 62
253
  6
CONTINUOUS
 10
-13.8391251835
 20
2.1111210852
 11
-13.8391251835
 21
3.5943642366
  0
LINE
  5
29C
100
AcDbEntity
  8
0
100
AcDbLine
 62
7
  6
CONTINUOUS
 10
-13.556282471
 20
3.8288854346
 11
-13.556282471
 21
3.3958727328
  0
LINE
  5
29D
100
AcDbEntity
  8
RACCORDO
100
AcDbLine
 62
7
  6
CONTINUOUS
 10
-13.4855717929
 20
8.9578987938
 11
-13.4855717929
 21
5.4071946383
  0
LINE
  5
29E
100
AcDbEntity
  8
0
100
AcDbLine
 62
7
  6
CONTINUOUS
 10
-13.4855717929
 20
4.194759073
 11
-13.4855717929
 21
3.8642407737
  0
LINE
  5
29F
100
AcDbEntity
  8
0
100
AcDbLine
 62
7
  6
CONTINUOUS
 10
-13.3441504366
 20
8.9235031931
 11
-13.3441504366
 21
5.4779053164
  0
LINE
  5
2A0
100
AcDbEntity
  8
0
100
AcDbLine
 62
7
  6
CONTINUOUS
 10
-13.3441504366
 20
4.1240483948
 11
-13.3441504366
 21
3.9349514518
  0
LINE
  5
2A1
100
AcDbEntity
  8
RACCORDO
100
AcDbLine
 62
7
  6
CONTINUOUS
 10
-13.1673737413
 20
5.3188062906
 11
-13.1673737413
 21
8.6963053654
  0
LINE
  5
2A2
100
AcDbEntity
  8
ASSI
100
AcDbLine
 62
7
  6
CONTINUOUS
 10
-13.0914768108
 20
25.9711291744
 11
-13.0914768575
 21
26.2884662835
  0
LINE
  5
2A3
100
AcDbEntity
  8
ASSI
100
AcDbLine
 62
253
  6
CONTINUOUS
 10
-13.0328982137
 20
25.9005041556
 11
-13.0328982137
 21
26.2177556054
  0
LINE
  5
2A4
100
AcDbEntity
  8
0
100
AcDbLine
 62
7
  6
CONTINUOUS
 10
-12.4956222992
 20
-3.5748290657
 11
-12.4956222992
 21
-5.0470722521
  0
LINE
  5
2A5
100
AcDbEntity
  8
ASSI
100
AcDbLine
 62
7
  6
CONTINUOUS
 10
-12.3766137371
 20
25.015665613
 11
-12.3766137371
 21
25.4696127649
  0
LINE
  5
2A6
100
AcDbEntity
  8
0
100
AcDbLine
 62
7
  6
CONTINUOUS
 10
-12.354200943
 20
-3.5041183875
 11
-12.354200943
 21
-4.976361574
  0
LINE
  5
2A7
100
AcDbEntity
  8
ASSI
100
AcDbLine
 62
253
  6
CONTINUOUS
 10
-12.3033904324
 20
24.9239269683
 11
-12.3033904324
 21
25.4330011125
  0
LINE
  5
2A8
100
AcDbEntity
  8
RACCORDO
100
AcDbLine
 62
253
  6
CONTINUOUS
 10
-12.2834902649
 20
-4.9410062349
 11
-12.2834902649
 21
-3.6419681292
  0
LINE
  5
2A9
100
AcDbEntity
  8
RACCORDO
100
AcDbLine
 62
253
  6
CONTINUOUS
 10
-12.2259846488
 20
0.2908406692
 11
-12.2259846488
 21
2.4559041787
  0
LINE
  5
2AA
100
AcDbEntity
  8
ASSI
100
AcDbLine
 62
7
  6
CONTINUOUS
 10
-12.1706530001
 20
24.160261896
 11
-12.1706530001
 21
25.3705559798
  0
LINE
  5
2AB
100
AcDbEntity
  8
RACCORDO
100
AcDbLine
 62
253
  6
CONTINUOUS
 10
-12.1592194764
 20
0.318851985
 11
-12.1592194764
 21
2.4839154945
  0
LINE
  5
2AC
100
AcDbEntity
  8
ASSI
100
AcDbLine
 62
253
  6
CONTINUOUS
 10
-12.0974296954
 20
24.0684533505
 11
-12.0974296954
 21
25.4327525459
  0
LINE
  5
2AD
100
AcDbEntity
  8
0
100
AcDbLine
 62
7
  6
CONTINUOUS
 10
-11.9299368743
 20
6.6486450156
 11
-11.9299368743
 21
5.2630043695
  0
LINE
  5
2AE
100
AcDbEntity
  8
ASSI
100
AcDbLine
 62
253
  6
CONTINUOUS
 10
-11.9038654093
 20
23.9716712074
 11
-11.9038654093
 21
25.3359704029
  0
LINE
  5
2AF
100
AcDbEntity
  8
RACCORDO
100
AcDbLine
 62
253
  6
CONTINUOUS
 10
-11.8592261961
 20
-4.6811986138
 11
-11.8592261961
 21
-3.3821605081
  0
LINE
  5
2B0
100
AcDbEntity
  8
ASSI
100
AcDbLine
 62
7
  6
CONTINUOUS
 10
-11.8365979994
 20
2.536030497
 11
-11.8365979994
 21
0.4801627235
  0
LWPOLYLINE
  5
2B1
100
AcDbEntity
  8
ASSI
100
AcDbPolyline
 62
7
  6
CONTINUOUS
 90
3
 70
0
 10
-8.4257324373
 20
25.9565604994
 10
-8.4203681471
 20
25.9807175521
 10
-8.4172249509
 20
26.0055476367
  0
LINE
  5
2B2
100
AcDbEntity
  8
RACCORDO
100
AcDbLine
 62
253
  6
CONTINUOUS
 10
8.9387155749
 20
21.210512534
 11
4.5758833701
 21
18.0402148376
  0
LINE
  5
2B3
100
AcDbEntity
  8
ASSI
100
AcDbLine
 62
253
  6
CONTINUOUS
 10
3.9092550243
 20
17.5133312086
 11
-1.2818498233
 21
14.7255492754
  0
LINE
  5
2B4
100
AcDbEntity
  8
RACCORDO
100
AcDbLine
 62
7
  6
CONTINUOUS
 10
9.5307539347
 20
20.5332007212
 11
8.2579617286
 21
19.8968046181
  0
LINE
  5
2B5
100
AcDbEntity
  8
RACCORDO
100
AcDbLine
 62
7
  6
CONTINUOUS
 10
9.5307539347
 20
20.3599956404
 11
8.2897454571
 21
19.7394914016
  0
LINE
  5
2B6
100
AcDbEntity
  8
0
100
AcDbLine
 62
7
  6
CONTINUOUS
 10
10.2025053769
 20
20.3776733099
 11
9.5661092738
 21
20.0594752584
  0
LINE
  5
2B7
100
AcDbEntity
  8
0
100
AcDbLine
 62
7
  6
CONTINUOUS
 10
9.5661092738
 20
19.9057336544
 11
9.0892962691
 21
19.6673271521
  0
LINE
  5
2B8
100
AcDbEntity
  8
0
100
AcDbLine
 62
7
  6
CONTINUOUS
 10
10.6267694456
 20
19.5291451725
 11
11.2631655487
 21
19.847343224
  0
LINE
  5
2B9
100
AcDbEntity
  8
RACCORDO
100
AcDbLine
 62
7
  6
CONTINUOUS
 10
11.2985208877
 20
19.6493172447
 11
10.0257286816
 21
19.0129211416
  0
LINE
  5
2BA
100
AcDbEntity
  8
ASSI
100
AcDbLine
 62
253
  6
CONTINUOUS
 10
4.6040192107
 20
17.8580055205
 11
3.9092550243
 21
17.5133973621
  0
LINE
  5
2BB
100
AcDbEntity
  8
RACCORDO
100
AcDbLine
 62
7
  6
CONTINUOUS
 10
-5.8415612785
 20
-10.4892393534
 11
-8.2457243345
 21
-9.2871578254
  0
LINE
  5
2BC
100
AcDbEntity
  8
RACCORDO
100
AcDbLine
 62
7
  6
CONTINUOUS
 10
-11.6398368842
 20
-7.5901015506
 11
-14.0439999402
 21
-6.3880200226
  0
LINE
  5
2BD
100
AcDbEntity
  8
RACCORDO
100
AcDbLine
 62
7
  6
CONTINUOUS
 10
-11.5056728056
 20
-7.5815810144
 11
-8.3184251175
 21
-9.1752048584
  0
LINE
  5
2BE
100
AcDbEntity
  8
RACCORDO
100
AcDbLine
 62
253
  6
CONTINUOUS
 10
-5.9195292342
 20
-10.3269772133
 11
-8.3236922902
 21
-9.1248956853
  0
LINE
  5
2BF
100
AcDbEntity
  8
RACCORDO
100
AcDbLine
 62
253
  6
CONTINUOUS
 10
-11.7178048399
 20
-7.4278394104
 11
-14.1219678959
 21
-6.2257578824
  0
LINE
  5
2C0
100
AcDbEntity
  8
RACCORDO
100
AcDbLine
 62
7
  6
CONTINUOUS
 10
-11.7178048399
 20
-7.4278394104
 11
-11.7178048399
 21
-5.4359809817
  0
LINE
  5
2C1
100
AcDbEntity
  8
RACCORDO
100
AcDbLine
 62
7
  6
CONTINUOUS
 10
-11.5763834837
 20
-7.3571287323
 11
-11.5763834837
 21
-5.3652703036
  0
LINE
  5
2C2
100
AcDbEntity
  8
ASSI
100
AcDbLine
 62
253
  6
CONTINUOUS
 10
-11.5534241214
 20
23.9812906713
 11
-11.5534241214
 21
25.058017957
  0
LINE
  5
2C3
100
AcDbEntity
  8
RACCORDO
100
AcDbLine
 62
7
  6
CONTINUOUS
 10
-11.5056728056
 20
-7.5815810144
 11
-11.5056728056
 21
-7.4083759337
  0
LINE
  5
2C4
100
AcDbEntity
  8
0
100
AcDbLine
 62
7
  6
CONTINUOUS
 10
-11.4349621274
 20
6.4011576422
 11
-11.4349621274
 21
5.5104917429
  0
LINE
  5
2C5
100
AcDbEntity
  8
0
100
AcDbLine
 62
7
  6
CONTINUOUS
 10
-11.4349621274
 20
2.335212561
 11
-11.4349621274
 21
0.8636909872
  0
LINE
  5
2C6
100
AcDbEntity
  8
RACCORDO
100
AcDbLine
 62
253
  6
CONTINUOUS
 10
-11.4349621274
 20
-5.3652703036
 11
-11.4349621274
 21
-7.0403651508
  0
LINE
  5
2C7
100
AcDbEntity
  8
ASSI
100
AcDbLine
 62
7
  6
CONTINUOUS
 10
-11.0106980587
 20
24.7866549257
 11
-11.0106980587
 21
24.2775807815
  0
LINE
  5
2C8
100
AcDbEntity
  8
RACCORDO
100
AcDbLine
 62
253
  6
CONTINUOUS
 10
-11.0106980587
 20
-5.1054626825
 11
-11.0106980587
 21
-6.7725615848
  0
LINE
  5
2C9
100
AcDbEntity
  8
ASSI
100
AcDbLine
 62
253
  6
CONTINUOUS
 10
-10.968396891
 20
24.8682361437
 11
-10.968396891
 21
25.1855074438
  0
LINE
  5
2CA
100
AcDbEntity
  8
0
100
AcDbLine
 62
7
  6
CONTINUOUS
 10
-10.9399873806
 20
0.6162036138
 11
-10.9399873806
 21
2.0877251876
  0
LINE
  5
2CB
100
AcDbEntity
  8
ASSI
100
AcDbLine
 62
253
  6
CONTINUOUS
 10
-10.6880438607
 20
24.8670128418
 11
-10.6880438607
 21
25.1842816422
  0
LINE
  5
2CC
100
AcDbEntity
  8
ASSI
100
AcDbLine
 62
253
  6
CONTINUOUS
 10
-10.28369111
 20
23.9140773071
 11
-10.28369111
 21
24.5942485955
  0
LINE
  5
2CD
100
AcDbEntity
  8
ASSI
100
AcDbLine
 62
253
  6
CONTINUOUS
 10
-9.9332498221
 20
24.6818972172
 11
-9.9332498221
 21
23.923696771
  0
LINE
  5
2CE
100
AcDbEntity
  8
ASSI
100
AcDbLine
 62
7
  6
CONTINUOUS
 10
-8.4172249509
 20
26.0055476367
 11
-8.4164306352
 21
26.0257228713
  0
LINE
  5
2CF
100
AcDbEntity
  8
RACCORDO
100
AcDbLine
 62
7
  6
CONTINUOUS
 10
8.8759996913
 20
21.0547218504
 11
4.5970654478
 21
17.945389486
  0
LINE
  5
2D0
100
AcDbEntity
  8
RACCORDO
100
AcDbLine
 62
7
  6
CONTINUOUS
 10
-3.4545837134
 20
9.9527724732
 11
-3.455187889
 21
9.952458067
  0
LINE
  5
2D1
100
AcDbEntity
  8
0
100
AcDbLine
 62
7
  6
CONTINUOUS
 10
-13.4855717929
 20
5.4071946383
 11
-13.3441504366
 21
5.4779053164
  0
LINE
  5
2D2
100
AcDbEntity
  8
0
100
AcDbLine
 62
7
  6
CONTINUOUS
 10
-11.9299368743
 20
5.2630043695
 11
-11.4349621274
 21
5.5104917429
  0
LINE
  5
2D3
100
AcDbEntity
  8
RACCORDO
100
AcDbLine
 62
7
  6
CONTINUOUS
 10
14.4805014031
 20
18.058326987
 11
13.2077091969
 21
17.4219308839
  0
LINE
  5
2D4
100
AcDbEntity
  8
RACCORDO
100
AcDbLine
 62
7
  6
CONTINUOUS
 10
14.4805014031
 20
17.8851219063
 11
13.2394929254
 21
17.2646176674
  0
LINE
  5
2D5
100
AcDbEntity
  8
0
100
AcDbLine
 62
7
  6
CONTINUOUS
 10
-13.2027290804
 20
4.0056621299
 11
-13.556282471
 21
3.8288854346
  0
LINE
  5
2D6
100
AcDbEntity
  8
RACCORDO
100
AcDbLine
 62
253
  6
CONTINUOUS
 10
-3.1518117001
 20
10.720180887
 11
-3.2413345405
 21
10.6761939619
  0
LINE
  5
2D7
100
AcDbEntity
  8
RACCORDO
100
AcDbLine
 62
7
  6
CONTINUOUS
 10
-3.5925518804
 20
10.0103577826
 11
-3.5914445891
 21
10.0108978643
  0
LINE
  5
2D8
100
AcDbEntity
  8
DRAFT
100
AcDbLine
 62
7
  6
CONTINUOUS
 10
-3.2422326704
 20
10.1807099707
 11
-3.5925555132
 21
10.0103560161
  0
LINE
  5
2D9
100
AcDbEntity
  8
RACCORDO
100
AcDbLine
 62
253
  6
CONTINUOUS
 10
-11.5827402286
 20
-7.3698422221
 11
-11.5056728056
 21
-7.4083759337
  0
LINE
  5
2DA
100
AcDbEntity
  8
RACCORDO
100
AcDbLine
 62
7
  6
CONTINUOUS
 10
-11.5056728056
 20
-7.4083759337
 11
-8.3236922902
 21
-8.9993661913
  0
LINE
  5
2DB
100
AcDbEntity
  8
RACCORDO
100
AcDbLine
 62
253
  6
CONTINUOUS
 10
-5.7844646228
 20
-10.268980025
 11
-5.7073971998
 21
-10.3075137365
  0
LINE
  5
2DC
100
AcDbEntity
  8
RACCORDO
100
AcDbLine
 62
7
  6
CONTINUOUS
 10
-11.5763834837
 20
-7.1498885953
 11
-8.3236922902
 21
-8.7762341921
  0
LINE
  5
2DD
100
AcDbEntity
  8
RACCORDO
100
AcDbLine
 62
7
  6
CONTINUOUS
 10
-5.7781078779
 20
-10.0490263982
 11
-5.7068542722
 21
-10.0846532011
  0
LINE
  5
2DE
100
AcDbEntity
  8
RACCORDO
100
AcDbLine
 62
253
  6
CONTINUOUS
 10
-11.5763834837
 20
-7.0266104331
 11
-8.3236922902
 21
-8.6529560298
  0
LINE
  5
2DF
100
AcDbEntity
  8
RACCORDO
100
AcDbLine
 62
253
  6
CONTINUOUS
 10
-5.7781078779
 20
-9.9257482359
 11
-5.7087847482
 21
-9.9604098008
  0
LINE
  5
2E0
100
AcDbEntity
  8
RACCORDO
100
AcDbLine
 62
253
  6
CONTINUOUS
 10
-8.3236922902
 20
-8.5960000695
 11
-11.4349621274
 21
-7.0403651508
  0
LINE
  5
2E1
100
AcDbEntity
  8
RACCORDO
100
AcDbLine
 62
253
  6
CONTINUOUS
 10
-8.3236922902
 20
-8.1832671955
 11
-11.0684813664
 21
-6.8108726574
  0
LINE
  5
2E2
100
AcDbEntity
  8
RACCORDO
100
AcDbLine
 62
7
  6
CONTINUOUS
 10
-15.5008261193
 20
-4.0640855843
 11
-14.1219678959
 21
-4.753514696
  0
LINE
  5
2E3
100
AcDbEntity
  8
RACCORDO
100
AcDbLine
 62
7
  6
CONTINUOUS
 10
-5.9195292342
 20
-8.8547340269
 11
-4.5406710109
 21
-9.5441631385
  0
LINE
  5
2E4
100
AcDbEntity
  8
0
100
AcDbLine
 62
7
  6
CONTINUOUS
 10
-12.4956222992
 20
-5.0470722521
 11
-11.7178048399
 21
-5.4359809817
  0
LINE
  5
2E5
100
AcDbEntity
  8
0
100
AcDbLine
 62
7
  6
CONTINUOUS
 10
-8.3236922902
 20
-7.1330372566
 11
-7.5458748309
 21
-7.5219459862
  0
LINE
  5
2E6
100
AcDbEntity
  8
0
100
AcDbLine
 62
7
  6
CONTINUOUS
 10
-12.354200943
 20
-4.976361574
 11
-11.5763834837
 21
-5.3652703036
  0
LINE
  5
2E7
100
AcDbEntity
  8
0
100
AcDbLine
 62
7
  6
CONTINUOUS
 10
-8.182270934
 20
-7.0623265785
 11
-7.5458748309
 21
-7.38052463
  0
LINE
  5
2E8
100
AcDbEntity
  8
RACCORDO
100
AcDbLine
 62
253
  6
CONTINUOUS
 10
-7.5458748309
 20
-7.3098139519
 11
-8.182270934
 21
-6.9916159004
  0
LINE
  5
2E9
100
AcDbEntity
  8
RACCORDO
100
AcDbLine
 62
253
  6
CONTINUOUS
 10
-11.4349621274
 20
-5.3652703036
 11
-12.2834902649
 21
-4.9410062349
  0
LINE
  5
2EA
100
AcDbEntity
  8
SMUSSO
100
AcDbLine
 62
7
  6
CONTINUOUS
 10
-8.245377085
 20
-6.585079747
 11
-9.8086165307
 21
-5.8034600242
  0
LINE
  5
2EB
100
AcDbEntity
  8
RACCORDO
100
AcDbLine
 62
253
  6
CONTINUOUS
 10
-7.5458748309
 20
-6.8378742964
 11
-8.182270934
 21
-6.5196762449
  0
LINE
  5
2EC
100
AcDbEntity
  8
RACCORDO
100
AcDbLine
 62
253
  6
CONTINUOUS
 10
-11.0106980587
 20
-5.1054626825
 11
-11.8592261961
 21
-4.6811986138
  0
LWPOLYLINE
  5
2ED
100
AcDbEntity
  8
ASSI
100
AcDbPolyline
 62
7
  6
CONTINUOUS
 90
5
 70
0
 10
4.1204315779
 20
-21.4212195122
 10
4.1039186319
 20
-21.402652779
 10
4.085603619
 20
-21.3862181549
 10
4.0656255418
 20
-21.3719806218
 10
4.0464743042
 20
-21.3611991453
  0
LWPOLYLINE
  5
2EE
100
AcDbEntity
  8
ASSI
100
AcDbPolyline
 62
7
  6
CONTINUOUS
 90
13
 70
0
 10
-8.4164307561
 20
26.3656831863
 10
-8.4164964113
 20
26.3714195407
 10
-8.4183486955
 20
26.3965921395
 10
-8.4227603571
 20
26.4213267807
 10
-8.4296836693
 20
26.4452424387
 10
-8.4389622131
 20
26.4679344209
 10
-8.4504988066
 20
26.4892940882
 10
-8.4642222582
 20
26.5092219233
 10
-8.4799315158
 20
26.5274364929
 10
-8.497401565
 20
26.5437220648
 10
-8.5165222104
 20
26.5580001719
 10
-8.5370195645
 20
26.5700718726
 10
-8.5397980493
 20
26.5714851735
  0
LINE
  5
2EF
100
AcDbEntity
  8
0
100
AcDbLine
 62
7
  6
CONTINUOUS
 10
-9.1015097495
 20
-4.1508685279
 11
-9.1015097495
 21
-5.4499066336
  0
LINE
  5
2F0
100
AcDbEntity
  8
ASSI
100
AcDbLine
 62
7
  6
CONTINUOUS
 10
-9.0307990714
 20
24.416371162
 11
-9.0307990714
 21
26.0618458091
  0
LINE
  5
2F1
100
AcDbEntity
  8
DRAFT
100
AcDbLine
 62
7
  6
CONTINUOUS
 10
-8.5358243246
 20
21.5351574156
 11
-8.5358243246
 21
20.7826641662
  0
LINE
  5
2F2
100
AcDbEntity
  8
ASSI
100
AcDbLine
 62
253
  6
CONTINUOUS
 10
-8.4725626609
 20
26.2961831444
 11
-8.4725626609
 21
25.9562395495
  0
LINE
  5
2F3
100
AcDbEntity
  8
ASSI
100
AcDbLine
 62
7
  6
CONTINUOUS
 10
-8.4164306326
 20
26.3656831863
 11
-8.4164306209
 21
26.0257053866
  0
LINE
  5
2F4
100
AcDbEntity
  8
RACCORDO
100
AcDbLine
 62
7
  6
CONTINUOUS
 10
-8.3236922902
 20
-7.1330372566
 11
-8.3236922902
 21
-9.1248956853
  0
LINE
  5
2F5
100
AcDbEntity
  8
RACCORDO
100
AcDbLine
 62
7
  6
CONTINUOUS
 10
-8.2701388996
 20
-7.1062605613
 11
-8.2701388996
 21
-6.7032986937
  0
LINE
  5
2F6
100
AcDbEntity
  8
RACCORDO
100
AcDbLine
 62
253
  6
CONTINUOUS
 10
-8.182270934
 20
-7.0623265785
 11
-8.182270934
 21
-6.9916159004
  0
LINE
  5
2F7
100
AcDbEntity
  8
0
100
AcDbLine
 62
7
  6
CONTINUOUS
 10
-7.9701388996
 20
3.2831053822
 11
-7.9701388996
 21
4.6687460283
  0
LINE
  5
2F8
100
AcDbEntity
  8
0
100
AcDbLine
 62
7
  6
CONTINUOUS
 10
-7.5458748309
 20
-7.5219459862
 11
-7.5458748309
 21
-6.0497027998
  0
LINE
  5
2F9
100
AcDbEntity
  8
RACCORDO
100
AcDbLine
 62
7
  6
CONTINUOUS
 10
-7.4216107622
 20
-5.8285246567
 11
-7.4216107622
 21
-5.9789921217
  0
LINE
  5
2FA
100
AcDbEntity
  8
ASSI
100
AcDbLine
 62
7
  6
CONTINUOUS
 10
-7.3532417804
 20
24.4300400293
 11
-7.3532417804
 21
23.2454355236
  0
LINE
  5
2FB
100
AcDbEntity
  8
ASSI
100
AcDbLine
 62
253
  6
CONTINUOUS
 10
-7.2946631366
 20
24.3593293512
 11
-7.2946631366
 21
23.1720565699
  0
LWPOLYLINE
  5
2FC
100
AcDbEntity
  8
ASSI
100
AcDbPolyline
 62
7
  6
CONTINUOUS
 90
6
 70
0
 10
4.1082298293
 20
19.5602204678
 10
4.1161144854
 20
19.5704607972
 10
4.1300870143
 20
19.5914427686
 10
4.1422657577
 20
19.6138986449
 10
4.1525019116
 20
19.6377073071
 10
4.1603959852
 20
19.6619431269
  0
LINE
  5
2FD
100
AcDbEntity
  8
ASSI
100
AcDbLine
 62
253
  6
CONTINUOUS
 10
3.5557016337
 20
18.9472085937
 11
4.0965689396
 21
19.6164960798
  0
LINE
  5
2FE
100
AcDbEntity
  8
ASSI
100
AcDbLine
 62
7
  6
CONTINUOUS
 10
3.5557016376
 20
18.8765039376
 11
4.1082564342
 21
19.5602539198
  0
LINE
  5
2FF
100
AcDbEntity
  8
0
100
AcDbLine
 62
7
  6
CONTINUOUS
 10
15.2229635233
 20
17.8674442367
 11
14.5865674202
 21
17.5492461852
  0
LINE
  5
300
100
AcDbEntity
  8
0
100
AcDbLine
 62
7
  6
CONTINUOUS
 10
14.5865674202
 20
17.3955045812
 11
14.1097544155
 21
17.1570980789
  0
LINE
  5
301
100
AcDbEntity
  8
0
100
AcDbLine
 62
7
  6
CONTINUOUS
 10
15.647227592
 20
17.0189160993
 11
16.2836236951
 21
17.3371141508
  0
LINE
  5
302
100
AcDbEntity
  8
RACCORDO
100
AcDbLine
 62
7
  6
CONTINUOUS
 10
16.248268356
 20
17.1744435105
 11
14.9754761499
 21
16.5380474075
  0
LINE
  5
303
100
AcDbEntity
  8
RACCORDO
100
AcDbLine
 62
7
  6
CONTINUOUS
 10
-13.8391251835
 20
2.1111210852
 11
-12.4129521797
 21
2.8242075871
  0
LINE
  5
304
100
AcDbEntity
  8
ASSI
100
AcDbLine
 62
7
  6
CONTINUOUS
 10
-12.3191999808
 20
2.5453465985
 11
-12.0872150916
 21
2.6613390431
  0
LINE
  5
305
100
AcDbEntity
  8
RACCORDO
100
AcDbLine
 62
7
  6
CONTINUOUS
 10
-11.9457937354
 20
2.590628365
 11
-12.1592194764
 21
2.4839154945
  0
LINE
  5
306
100
AcDbEntity
  8
0
100
AcDbLine
 62
7
  6
CONTINUOUS
 10
-7.5721207304
 20
-6.2146011431
 11
-9.1015097495
 21
-5.4499066336
  0
LINE
  5
307
100
AcDbEntity
  8
ASSI
100
AcDbLine
 62
7
  6
CONTINUOUS
 10
9.5364067484
 20
-14.6635340308
 11
8.9387155749
 21
-14.364688444
  0
LINE
  5
308
100
AcDbEntity
  8
0
100
AcDbLine
 62
7
  6
CONTINUOUS
 10
-14.5108766256
 20
-2.5672019025
 11
-12.4956222992
 21
-3.5748290657
  0
LINE
  5
309
100
AcDbEntity
  8
0
100
AcDbLine
 62
7
  6
CONTINUOUS
 10
-7.5458748309
 20
-6.0497027998
 11
-5.5306205045
 21
-7.057329963
  0
LINE
  5
30A
100
AcDbEntity
  8
RACCORDO
100
AcDbLine
 62
253
  6
CONTINUOUS
 10
-12.2834902649
 20
-3.6419681292
 11
-12.354200943
 21
-3.6066127902
  0
LINE
  5
30B
100
AcDbEntity
  8
0
100
AcDbLine
 62
7
  6
CONTINUOUS
 10
-14.3694552694
 20
-2.4964912244
 11
-12.354200943
 21
-3.5041183875
  0
LINE
  5
30C
100
AcDbEntity
  8
0
100
AcDbLine
 62
7
  6
CONTINUOUS
 10
-7.4044534747
 20
-5.9789921217
 11
-5.5306205045
 21
-6.9159086068
  0
LINE
  5
30D
100
AcDbEntity
  8
RACCORDO
100
AcDbLine
 62
253
  6
CONTINUOUS
 10
-5.5306205045
 20
-6.5464633539
 11
-7.3337427966
 21
-5.6449022079
  0
LINE
  5
30E
100
AcDbEntity
  8
RACCORDO
100
AcDbLine
 62
253
  6
CONTINUOUS
 10
-11.8592261961
 20
-3.3821605081
 11
-13.8391251835
 21
-2.3922110144
  0
LINE
  5
30F
100
AcDbEntity
  8
ASSI
100
AcDbLine
 62
7
  6
CONTINUOUS
 10
7.4627843387
 20
-12.8472999625
 11
4.6348780482
 21
-11.4333468173
  0
LINE
  5
310
100
AcDbEntity
  8
RACCORDO
100
AcDbLine
 62
7
  6
CONTINUOUS
 10
8.708265344
 20
-13.210232844
 11
8.7268969288
 21
-13.2195486364
  0
LINE
  5
311
100
AcDbEntity
  8
0
100
AcDbLine
 62
7
  6
CONTINUOUS
 10
-9.9500378869
 20
-3.7266044592
 11
-9.1015097495
 21
-4.1508685279
  0
LINE
  5
312
100
AcDbEntity
  8
RACCORDO
100
AcDbLine
 62
7
  6
CONTINUOUS
 10
-14.3694552694
 20
-0.780332279
 11
-14.2633892522
 21
-0.8333652876
  0
LINE
  5
313
100
AcDbEntity
  8
RACCORDO
100
AcDbLine
 62
7
  6
CONTINUOUS
 10
-5.714512111
 20
-9.5797457214
 11
-5.6915747295
 21
-10.9981221192
  0
LINE
  5
314
100
AcDbEntity
  8
RACCORDO
100
AcDbLine
 62
7
  6
CONTINUOUS
 10
-4.4596500379
 20
-8.715291556
 11
-4.441929889
 21
-10.1415242645
  0
LINE
  5
315
100
AcDbEntity
  8
0
100
AcDbLine
 62
7
  6
CONTINUOUS
 10
-6.7680573716
 20
0.0017601831
 11
-6.7680573716
 21
0.434772885
  0
LINE
  5
316
100
AcDbEntity
  8
RACCORDO
100
AcDbLine
 62
7
  6
CONTINUOUS
 10
-6.7327020325
 20
5.478969511
 11
-6.7327020325
 21
2.1014704362
  0
LINE
  5
317
100
AcDbEntity
  8
0
100
AcDbLine
 62
7
  6
CONTINUOUS
 10
-6.5912806763
 20
5.566558314
 11
-6.5912806763
 21
2.1721811143
  0
LINE
  5
318
100
AcDbEntity
  8
RACCORDO
100
AcDbLine
 62
7
  6
CONTINUOUS
 10
-6.5559253372
 20
5.493075566
 11
-6.5559253372
 21
1.9423714104
  0
LINE
  5
319
100
AcDbEntity
  8
0
100
AcDbLine
 62
7
  6
CONTINUOUS
 10
-6.5559253372
 20
0.1237180625
 11
-6.5559253372
 21
0.7299358451
  0
LINE
  5
31A
100
AcDbEntity
  8
RACCORDO
100
AcDbLine
 62
7
  6
CONTINUOUS
 10
-5.9195292342
 20
-10.3269772133
 11
-5.9195292342
 21
-8.8547340269
  0
LINE
  5
31B
100
AcDbEntity
  8
RACCORDO
100
AcDbLine
 62
7
  6
CONTINUOUS
 10
-5.7781078779
 20
-10.2562665352
 11
-5.7781078779
 21
-8.925444705
  0
LINE
  5
31C
100
AcDbEntity
  8
RACCORDO
100
AcDbLine
 62
7
  6
CONTINUOUS
 10
-5.5306205045
 20
-9.3512016939
 11
-5.5306205045
 21
-9.0491883917
  0
LINE
  5
31D
100
AcDbEntity
  8
0
100
AcDbLine
 62
7
  6
CONTINUOUS
 10
-5.5306205045
 20
-7.057329963
 11
-5.5306205045
 21
-0.3889343539
  0
LINE
  5
31E
100
AcDbEntity
  8
ASSI
100
AcDbLine
 62
253
  6
CONTINUOUS
 10
-5.0040147395
 20
22.0267323713
 11
-5.0040147395
 21
23.2140051526
  0
LINE
  5
31F
100
AcDbEntity
  8
ASSI
100
AcDbLine
 62
253
  6
CONTINUOUS
 10
-4.7236617092
 20
22.0344279424
 11
-4.7236617092
 21
23.2127818507
  0
LINE
  5
320
100
AcDbEntity
  8
RACCORDO
100
AcDbLine
 62
7
  6
CONTINUOUS
 10
-4.5760263499
 20
3.7237032089
 11
-4.5760263499
 21
4.3869325173
  0
LINE
  5
321
100
AcDbEntity
  8
RACCORDO
100
AcDbLine
 62
253
  6
CONTINUOUS
 10
-4.5406710109
 20
3.4462179182
 11
-4.5406710109
 21
-9.5441631385
  0
LINE
  5
322
100
AcDbEntity
  8
RACCORDO
100
AcDbLine
 62
253
  6
CONTINUOUS
 10
18.1574566652
 20
16.2198493559
 11
4.6348780482
 21
9.4585600474
  0
LINE
  5
323
100
AcDbEntity
  8
RACCORDO
100
AcDbLine
 62
7
  6
CONTINUOUS
 10
-4.4346049937
 20
4.5738367504
 11
-4.4185688934
 21
4.5818548006
  0
LINE
  5
324
100
AcDbEntity
  8
0
100
AcDbLine
 62
7
  6
CONTINUOUS
 10
19.8898682791
 20
16.5946520306
 11
18.8292081074
 21
16.0643219447
  0
LINE
  5
325
100
AcDbEntity
  8
0
100
AcDbLine
 62
7
  6
CONTINUOUS
 10
-14.3694552694
 20
-0.6035555837
 11
-13.4090634777
 21
-0.1233596879
  0
LINE
  5
326
100
AcDbEntity
  8
0
100
AcDbLine
 62
7
  6
CONTINUOUS
 10
-11.8365979994
 20
0.6628730512
 11
-11.4349621274
 21
0.8636909872
  0
LINE
  5
327
100
AcDbEntity
  8
RACCORDO
100
AcDbLine
 62
7
  6
CONTINUOUS
 10
-11.8365979994
 20
0.4801627235
 11
-12.1592194764
 21
0.318851985
  0
LINE
  5
328
100
AcDbEntity
  8
RACCORDO
100
AcDbLine
 62
253
  6
CONTINUOUS
 10
18.5110100558
 20
15.6100599587
 11
4.6348780482
 21
8.6719939549
  0
LINE
  5
329
100
AcDbEntity
  8
RACCORDO
100
AcDbLine
 62
7
  6
CONTINUOUS
 10
-13.8391251835
 20
-0.8333652876
 11
-10.9399873806
 21
0.6162036138
  0
LINE
  5
32A
100
AcDbEntity
  8
ASSI
100
AcDbLine
 62
7
  6
CONTINUOUS
 10
-4.5760263499
 20
3.7237032089
 11
-4.4346049937
 21
3.794413887
  0
LINE
  5
32B
100
AcDbEntity
  8
ASSI
100
AcDbLine
 62
253
  6
CONTINUOUS
 10
-4.5760263499
 20
3.4638955878
 11
-4.4346049937
 21
3.5346062659
  0
LINE
  5
32C
100
AcDbEntity
  8
0
100
AcDbLine
 62
7
  6
CONTINUOUS
 10
-6.5912806763
 20
2.1721811143
 11
-6.7327020325
 21
2.1014704362
  0
LINE
  5
32D
100
AcDbEntity
  8
0
100
AcDbLine
 62
7
  6
CONTINUOUS
 10
18.3160610815
 20
14.5087103261
 11
18.8292081074
 21
14.765283839
  0
LINE
  5
32E
100
AcDbEntity
  8
RACCORDO
100
AcDbLine
 62
7
  6
CONTINUOUS
 10
-14.0678091291
 20
1.933151945
 11
-12.3191999808
 21
2.5453465985
  0
LINE
  5
32F
100
AcDbEntity
  8
RACCORDO
100
AcDbLine
 62
7
  6
CONTINUOUS
 10
-12.2259846488
 20
2.4559041787
 11
-14.0905638775
 21
1.8031079629
  0
LINE
  5
330
100
AcDbEntity
  8
RACCORDO
100
AcDbLine
 62
7
  6
CONTINUOUS
 10
-14.346700521
 20
-0.3507510202
 11
-14.3694552694
 21
-0.339373646
  0
LINE
  5
331
100
AcDbEntity
  8
RACCORDO
100
AcDbLine
 62
7
  6
CONTINUOUS
 10
-14.346700521
 20
1.8143124893
 11
-14.3694552694
 21
1.8256898634
  0
LINE
  5
332
100
AcDbEntity
  8
RACCORDO
100
AcDbLine
 62
7
  6
CONTINUOUS
 10
-14.3694552694
 20
1.9671112197
 11
-14.3239457726
 21
1.9443564713
  0
LINE
  5
333
100
AcDbEntity
  8
ASSI
100
AcDbLine
 62
7
  6
CONTINUOUS
 10
-4.5053156718
 20
22.1536294622
 11
-4.5053156718
 21
23.3227967322
  0
LINE
  5
334
100
AcDbEntity
  8
ASSI
100
AcDbLine
 62
7
  6
CONTINUOUS
 10
-4.4346049937
 20
4.5738367504
 11
-4.4346049937
 21
3.794413887
  0
LINE
  5
335
100
AcDbEntity
  8
ASSI
100
AcDbLine
 62
7
  6
CONTINUOUS
 10
-3.8105514854
 20
23.6674048906
 11
-3.8105514854
 21
22.5118426491
  0
LINE
  5
336
100
AcDbEntity
  8
ASSI
100
AcDbLine
 62
7
  6
CONTINUOUS
 10
-3.6409311792
 20
22.5738847287
 11
-3.6409311792
 21
21.3892802229
  0
LINE
  5
337
100
AcDbEntity
  8
ASSI
100
AcDbLine
 62
253
  6
CONTINUOUS
 10
-3.5823525354
 20
22.5031740506
 11
-3.5823525354
 21
21.3159012692
  0
LINE
  5
338
100
AcDbEntity
  8
ASSI
100
AcDbLine
 62
7
  6
CONTINUOUS
 10
-2.3886075036
 20
26.340840188
 11
-2.3886075036
 21
25.1690992849
  0
LINE
  5
339
100
AcDbEntity
  8
ASSI
100
AcDbLine
 62
253
  6
CONTINUOUS
 10
-2.4967786763
 20
26.2083182044
 11
-2.4968498055
 21
25.0391156538
  0
LWPOLYLINE
  5
33A
100
AcDbEntity
  8
RACCORDO
100
AcDbPolyline
 62
7
  6
CONTINUOUS
 90
9
 70
0
 10
-4.4207961089
 20
4.5859201167
 10
-4.4425243535
 20
3.1480543728
 10
-4.4628261968
 20
1.4443629675
 10
-4.4771762285
 20
-0.2564054909
 10
-4.4855746152
 20
-1.9542194834
 10
-4.4880213483
 20
-3.6490471574
 10
-4.484516278
 20
-5.3408563515
 10
-4.4750592475
 20
-7.0296151025
 10
-4.4596500379
 20
-8.715291556
  0
LINE
  5
33B
100
AcDbEntity
  8
RACCORDO
100
AcDbLine
 62
7
  6
CONTINUOUS
 10
-3.1210353941
 20
11.7647457683
 11
-3.1563808848
 21
10.5600731008
  0
LINE
  5
33C
100
AcDbEntity
  8
RACCORDO
100
AcDbLine
 62
7
  6
CONTINUOUS
 10
-3.0945358746
 20
12.6118697212
 11
-3.1210353941
 21
11.7647457683
  0
LINE
  5
33D
100
AcDbEntity
  8
RACCORDO
100
AcDbLine
 62
7
  6
CONTINUOUS
 10
-3.0666620433
 20
13.4595749326
 11
-3.0945358746
 21
12.6118697212
  0
LWPOLYLINE
  5
33E
100
AcDbEntity
  8
RACCORDO
100
AcDbPolyline
 62
7
  6
CONTINUOUS
 90
13
 70
0
 10
-3.1563911851
 20
10.5599745909
 10
-3.1568040931
 20
10.5476380927
 10
-3.1625604477
 20
10.4684622788
 10
-3.1737136836
 20
10.3918923731
 10
-3.1903505574
 20
10.3185957569
 10
-3.2124003962
 20
10.2494516767
 10
-3.239559119
 20
10.1855676033
 10
-3.2714686307
 20
10.1275905315
 10
-3.3078206946
 20
10.0758522389
 10
-3.3482461065
 20
10.0307142431
 10
-3.3922561742
 20
9.9924306491
 10
-3.4397471317
 20
9.960892098
 10
-3.4545557171
 20
9.9527929497
  0
LINE
  5
33F
100
AcDbEntity
  8
RACCORDO
100
AcDbLine
 62
7
  6
CONTINUOUS
 10
-3.0399141223
 20
14.2368547126
 11
-3.0666620433
 21
13.4595749326
  0
LINE
  5
340
100
AcDbEntity
  8
RACCORDO
100
AcDbLine
 62
7
  6
CONTINUOUS
 10
-15.2937651587
 20
-4.1676160646
 11
-15.6239909047
 21
-4.3333710123
  0
LINE
  5
341
100
AcDbEntity
  8
0
100
AcDbLine
 62
7
  6
CONTINUOUS
 10
17.7536886458
 20
13.8298667454
 11
18.0867459871
 21
13.9963954161
  0
LINE
  5
342
100
AcDbEntity
  8
0
100
AcDbLine
 62
7
  6
CONTINUOUS
 10
-14.5108766256
 20
-2.5672019025
 11
-14.3694552694
 21
-2.4964912244
  0
LINE
  5
343
100
AcDbEntity
  8
RACCORDO
100
AcDbLine
 62
7
  6
CONTINUOUS
 10
-13.8391251835
 20
-2.3922110144
 11
-7.90962008
 21
0.5725415373
  0
LINE
  5
344
100
AcDbEntity
  8
0
100
AcDbLine
 62
7
  6
CONTINUOUS
 10
18.0867459871
 20
13.5633827142
 11
17.7331925965
 21
13.3866060189
  0
LINE
  5
345
100
AcDbEntity
  8
RACCORDO
100
AcDbLine
 62
7
  6
CONTINUOUS
 10
7.3387229131
 20
7.8155516077
 11
6.9851695225
 21
7.6387749124
  0
LINE
  5
346
100
AcDbEntity
  8
0
100
AcDbLine
 62
7
  6
CONTINUOUS
 10
-6.5559253372
 20
0.5408389021
 11
-6.7680573716
 21
0.434772885
  0
LINE
  5
347
100
AcDbEntity
  8
0
100
AcDbLine
 62
7
  6
CONTINUOUS
 10
-6.5495685923
 20
0.1110045727
 11
-6.7680573716
 21
0.0017601831
  0
LINE
  5
348
100
AcDbEntity
  8
0
100
AcDbLine
 62
7
  6
CONTINUOUS
 10
-12.4956222992
 20
-3.5748290657
 11
-12.354200943
 21
-3.5041183875
  0
LINE
  5
349
100
AcDbEntity
  8
RACCORDO
100
AcDbLine
 62
7
  6
CONTINUOUS
 10
-11.8592261961
 20
-3.3821605081
 11
-5.8726509451
 21
-0.3888728826
  0
LINE
  5
34A
100
AcDbEntity
  8
RACCORDO
100
AcDbLine
 62
7
  6
CONTINUOUS
 10
-12.2259846488
 20
0.2908406692
 11
-14.0905638775
 21
-0.3619555465
  0
LINE
  5
34B
100
AcDbEntity
  8
0
100
AcDbLine
 62
7
  6
CONTINUOUS
 10
6.9851695225
 20
4.9570815307
 11
7.4644828528
 21
5.1111465297
  0
LINE
  5
34C
100
AcDbEntity
  8
RACCORDO
100
AcDbLine
 62
7
  6
CONTINUOUS
 10
-14.2633892522
 20
2.1111210852
 11
-14.3694552694
 21
2.1641540938
  0
LINE
  5
34D
100
AcDbEntity
  8
0
100
AcDbLine
 62
7
  6
CONTINUOUS
 10
-11.4349621274
 20
0.8636909872
 11
-10.9399873806
 21
0.6162036138
  0
LINE
  5
34E
100
AcDbEntity
  8
0
100
AcDbLine
 62
7
  6
CONTINUOUS
 10
5.1360052419
 20
-6.4060920952
 11
4.9628001612
 21
-6.3194895548
  0
LINE
  5
34F
100
AcDbEntity
  8
0
100
AcDbLine
 62
7
  6
CONTINUOUS
 10
-13.556282471
 20
3.3958727328
 11
-6.7680573716
 21
0.0017601831
  0
LINE
  5
350
100
AcDbEntity
  8
RACCORDO
100
AcDbLine
 62
7
  6
CONTINUOUS
 10
-14.022166633
 20
3.6858849613
 11
-13.5539532925
 21
3.4517782911
  0
LINE
  5
351
100
AcDbEntity
  8
RACCORDO
100
AcDbLine
 62
7
  6
CONTINUOUS
 10
-6.710987224
 20
0.0302952568
 11
-5.5306205045
 21
-0.5598881029
  0
LINE
  5
352
100
AcDbEntity
  8
RACCORDO
100
AcDbLine
 62
253
  6
CONTINUOUS
 10
-14.2633892522
 20
3.9297744332
 11
-13.556282471
 21
3.5762210426
  0
LINE
  5
353
100
AcDbEntity
  8
RACCORDO
100
AcDbLine
 62
253
  6
CONTINUOUS
 10
-6.5877090618
 20
0.091934338
 11
-5.5496907392
 21
-0.4270748233
  0
LINE
  5
354
100
AcDbEntity
  8
0
100
AcDbLine
 62
7
  6
CONTINUOUS
 10
-5.5306205045
 20
-0.3889343539
 11
-6.5559253372
 21
0.1237180625
  0
LINE
  5
355
100
AcDbEntity
  8
0
100
AcDbLine
 62
7
  6
CONTINUOUS
 10
-13.556282471
 20
3.6238966294
 11
-14.5108766256
 21
4.1011937067
  0
LINE
  5
356
100
AcDbEntity
  8
0
100
AcDbLine
 62
7
  6
CONTINUOUS
 10
-6.7680573716
 20
0.434772885
 11
-13.556282471
 21
3.8288854346
  0
LINE
  5
357
100
AcDbEntity
  8
0
100
AcDbLine
 62
7
  6
CONTINUOUS
 10
-6.574995572
 20
0.6917953757
 11
-13.2027290804
 21
4.0056621299
  0
LINE
  5
358
100
AcDbEntity
  8
0
100
AcDbLine
 62
7
  6
CONTINUOUS
 10
-6.5559253372
 20
0.7299358451
 11
-13.4855717929
 21
4.194759073
  0
LWPOLYLINE
  5
359
100
AcDbEntity
  8
ASSI
100
AcDbPolyline
 62
7
  6
CONTINUOUS
 90
16
 70
0
 10
-2.3886120725
 20
26.3407129424
 10
-2.390381597
 20
26.3723556711
 10
-2.3960776449
 20
26.405361007
 10
-2.405766165
 20
26.4379207874
 10
-2.4194645041
 20
26.4695928109
 10
-2.4370384838
 20
26.4997813518
 10
-2.4583741456
 20
26.5281490021
 10
-2.4834257977
 20
26.5544640121
 10
-2.5118274477
 20
26.5782153014
 10
-2.5430922344
 20
26.5990161371
 10
-2.5774453757
 20
26.6170350735
 10
-2.6145513864
 20
26.6320217042
 10
-2.6531050427
 20
26.6435683965
 10
-2.6933805428
 20
26.6519124754
 10
-2.7353685004
 20
26.6570037544
 10
-2.777087955
 20
26.6586733088
  0
LWPOLYLINE
  5
35A
100
AcDbEntity
  8
ASSI
100
AcDbPolyline
 62
7
  6
CONTINUOUS
 90
9
 70
0
 10
-0.5049760723
 20
19.6779200675
 10
-0.5049453867
 20
19.673999183
 10
-0.5031257332
 20
19.6475453309
 10
-0.4984889108
 20
19.6215987459
 10
-0.4910861488
 20
19.5965467894
 10
-0.4810832874
 20
19.572833619
 10
-0.4686038613
 20
19.5506154337
 10
-0.4537598607
 20
19.5300497753
 10
-0.4368178084
 20
19.5114622586
  0
LINE
  5
35B
100
AcDbEntity
  8
ASSI
100
AcDbLine
 62
253
  6
CONTINUOUS
 10
-1.2917041383
 20
20.1705770707
 11
-1.2917041383
 21
21.357849852
  0
LINE
  5
35C
100
AcDbEntity
  8
ASSI
100
AcDbLine
 62
253
  6
CONTINUOUS
 10
-1.0113511079
 20
20.1782726418
 11
-1.0113511079
 21
21.3566265501
  0
LINE
  5
35D
100
AcDbEntity
  8
ASSI
100
AcDbLine
 62
7
  6
CONTINUOUS
 10
-0.7930050706
 20
20.2974741615
 11
-0.7930050706
 21
21.4666414316
  0
LINE
  5
35E
100
AcDbEntity
  8
DRAFT
100
AcDbLine
 62
7
  6
CONTINUOUS
 10
-0.5101623581
 20
16.580466539
 11
-0.5101623581
 21
16.6061778136
  0
LINE
  5
35F
100
AcDbEntity
  8
ASSI
100
AcDbLine
 62
7
  6
CONTINUOUS
 10
-0.5049761524
 20
19.995215931
 11
-0.5049761524
 21
19.6779471307
  0
LINE
  5
360
100
AcDbEntity
  8
ASSI
100
AcDbLine
 62
253
  6
CONTINUOUS
 10
-0.4463975086
 20
19.9245052529
 11
-0.4463975086
 21
19.6072364525
  0
LINE
  5
361
100
AcDbEntity
  8
ASSI
100
AcDbLine
 62
7
  6
CONTINUOUS
 10
0.209886968
 20
19.1763624123
 11
0.209886968
 21
18.722485161
  0
LINE
  5
362
100
AcDbEntity
  8
ASSI
100
AcDbLine
 62
253
  6
CONTINUOUS
 10
0.2831102727
 20
19.13975076
 11
0.2831102727
 21
18.6306766158
  0
LWPOLYLINE
  5
363
100
AcDbEntity
  8
ASSI
100
AcDbPolyline
 62
7
  6
CONTINUOUS
 90
3
 70
0
 10
4.1603959852
 20
19.6619431269
 10
4.1659368908
 20
19.6863666931
 10
4.169213468
 20
19.7115088995
  0
LINE
  5
364
100
AcDbEntity
  8
RACCORDO
100
AcDbLine
 62
7
  6
CONTINUOUS
 10
-11.0106980587
 20
-6.7725615848
 11
-9.8086165307
 21
-5.8034600242
  0
LINE
  5
365
100
AcDbEntity
  8
RACCORDO
100
AcDbLine
 62
7
  6
CONTINUOUS
 10
-14.493732769
 20
-4.9704631223
 11
-14.1219678959
 21
-4.7838578445
  0
LINE
  5
366
100
AcDbEntity
  8
RACCORDO
100
AcDbLine
 62
7
  6
CONTINUOUS
 10
-14.1271632038
 20
-6.2154075162
 11
-14.4706296384
 21
-6.3878085527
  0
LINE
  5
367
100
AcDbEntity
  8
RACCORDO
100
AcDbLine
 62
7
  6
CONTINUOUS
 10
6.9851695225
 20
4.7844626945
 11
7.1619462178
 21
4.8728510421
  0
LINE
  5
368
100
AcDbEntity
  8
0
100
AcDbLine
 62
7
  6
CONTINUOUS
 10
-5.5306205045
 20
-1.516895768
 11
-9.9500378869
 21
-3.7266044592
  0
LINE
  5
369
100
AcDbEntity
  8
RACCORDO
100
AcDbLine
 62
7
  6
CONTINUOUS
 10
-11.8592261961
 20
-4.6811986138
 11
-9.9500378869
 21
-3.7266044592
  0
LINE
  5
36A
100
AcDbEntity
  8
0
100
AcDbLine
 62
7
  6
CONTINUOUS
 10
-12.4956222992
 20
-5.0470722521
 11
-12.354200943
 21
-4.976361574
  0
LINE
  5
36B
100
AcDbEntity
  8
RACCORDO
100
AcDbLine
 62
7
  6
CONTINUOUS
 10
6.9851695225
 20
4.6076859992
 11
7.3387229131
 21
4.7844626945
  0
LINE
  5
36C
100
AcDbEntity
  8
RACCORDO
100
AcDbLine
 62
253
  6
CONTINUOUS
 10
14.5512120812
 20
7.7411882257
 11
16.248268356
 21
8.5897163631
  0
LINE
  5
36D
100
AcDbEntity
  8
0
100
AcDbLine
 62
7
  6
CONTINUOUS
 10
-11.7178048399
 20
-5.4359809817
 11
-11.5763834837
 21
-5.3652703036
  0
LINE
  5
36E
100
AcDbEntity
  8
RACCORDO
100
AcDbLine
 62
7
  6
CONTINUOUS
 10
-11.0106980587
 20
-5.1054626825
 11
-9.1015097495
 21
-4.1508685279
  0
LINE
  5
36F
100
AcDbEntity
  8
RACCORDO
100
AcDbLine
 62
7
  6
CONTINUOUS
 10
14.6063871121
 20
7.6865902996
 11
16.0891360508
 21
8.427964769
  0
LINE
  5
370
100
AcDbEntity
  8
RACCORDO
100
AcDbLine
 62
253
  6
CONTINUOUS
 10
15.8092894487
 20
8.2258727903
 11
14.6366375979
 21
7.6395468649
  0
LWPOLYLINE
  5
371
100
AcDbEntity
  8
RACCORDO
100
AcDbPolyline
 62
7
  6
CONTINUOUS
 90
3
 70
0
 10
11.1233438118
 20
-1.3141432719
 10
11.2179989201
 20
-1.3160345552
 10
11.3202171344
 20
-1.2998369669
  0
LINE
  5
372
100
AcDbEntity
  8
0
100
AcDbLine
 62
7
  6
CONTINUOUS
 10
-13.4855717929
 20
5.4071946383
 11
-6.5559253372
 21
1.9423714104
  0
LINE
  5
373
100
AcDbEntity
  8
0
100
AcDbLine
 62
7
  6
CONTINUOUS
 10
-13.1673737413
 20
5.3188062906
 11
-6.7327020325
 21
2.1014704362
  0
LINE
  5
374
100
AcDbEntity
  8
0
100
AcDbLine
 62
7
  6
CONTINUOUS
 10
-13.3441504366
 20
5.4779053164
 11
-13.1673737413
 21
5.3895169687
  0
LINE
  5
375
100
AcDbEntity
  8
0
100
AcDbLine
 62
7
  6
CONTINUOUS
 10
-6.7044177613
 20
2.1580389787
 11
-6.5559253372
 21
2.0837927667
  0
LINE
  5
376
100
AcDbEntity
  8
0
100
AcDbLine
 62
7
  6
CONTINUOUS
 10
-11.9299368743
 20
5.2630043695
 11
-7.9701388996
 21
3.2831053822
  0
LINE
  5
377
100
AcDbEntity
  8
0
100
AcDbLine
 62
7
  6
CONTINUOUS
 10
-11.4349621274
 20
5.5104917429
 11
-7.9701388996
 21
3.778080129
  0
LWPOLYLINE
  5
378
100
AcDbEntity
  8
ASSI
100
AcDbPolyline
 62
7
  6
CONTINUOUS
 90
5
 70
0
 10
4.1639097066
 20
-21.512200959
 10
4.1567425803
 20
-21.4873588421
 10
4.1470250369
 20
-21.4638154354
 10
4.1348836775
 20
-21.4417141782
 10
4.1204315779
 20
-21.4212195122
  0
LWPOLYLINE
  5
379
100
AcDbEntity
  8
ASSI
100
AcDbPolyline
 62
7
  6
CONTINUOUS
 90
14
 70
0
 10
1.5181325289
 20
25.8509228005
 10
1.5158156254
 20
25.9198456503
 10
1.5090729898
 20
25.985274344
 10
1.4978947591
 20
26.0484005218
 10
1.4823256624
 20
26.1089185741
 10
1.4625060025
 20
26.166342463
 10
1.4385518978
 20
26.2204183955
 10
1.4105606124
 20
26.2710106481
 10
1.378758241
 20
26.317791687
 10
1.3433972571
 20
26.3604754162
 10
1.3046880829
 20
26.3988869638
 10
1.2629194957
 20
26.4328402048
 10
1.2184333514
 20
26.4621486102
 10
1.1867925419
 20
26.4793546231
  0
LINE
  5
37A
100
AcDbEntity
  8
ASSI
100
AcDbLine
 62
7
  6
CONTINUOUS
 10
0.415847705
 20
17.8670115434
 11
0.415847705
 21
19.0773056272
  0
LINE
  5
37B
100
AcDbEntity
  8
ASSI
100
AcDbLine
 62
253
  6
CONTINUOUS
 10
0.4890710097
 20
-22.160101946
 11
0.4890710097
 21
-22.0451102105
  0
LINE
  5
37C
100
AcDbEntity
  8
ASSI
100
AcDbLine
 62
253
  6
CONTINUOUS
 10
0.4890710097
 20
17.7752029979
 11
0.4890710097
 21
19.1395021934
  0
LINE
  5
37D
100
AcDbEntity
  8
ASSI
100
AcDbLine
 62
253
  6
CONTINUOUS
 10
0.6826352958
 20
-22.2568840891
 11
0.6826352958
 21
-21.9653744982
  0
LINE
  5
37E
100
AcDbEntity
  8
ASSI
100
AcDbLine
 62
253
  6
CONTINUOUS
 10
0.6826352958
 20
17.6784208549
 11
0.6826352958
 21
19.0427200503
  0
LINE
  5
37F
100
AcDbEntity
  8
ASSI
100
AcDbLine
 62
253
  6
CONTINUOUS
 10
1.0330765837
 20
-22.0105947673
 11
1.0330765837
 21
-21.8210158137
  0
LINE
  5
380
100
AcDbEntity
  8
ASSI
100
AcDbLine
 62
253
  6
CONTINUOUS
 10
1.0330765837
 20
17.6880403187
 11
1.0330765837
 21
18.7647676045
  0
LINE
  5
381
100
AcDbEntity
  8
ASSI
100
AcDbLine
 62
253
  6
CONTINUOUS
 10
1.4464555868
 20
25.7633617584
 11
1.4464555868
 21
25.4731579326
  0
LINE
  5
382
100
AcDbEntity
  8
ASSI
100
AcDbLine
 62
7
  6
CONTINUOUS
 10
1.5181429745
 20
25.8509754147
 11
1.5181429745
 21
25.5064120337
  0
LINE
  5
383
100
AcDbEntity
  8
ASSI
100
AcDbLine
 62
7
  6
CONTINUOUS
 10
1.5758026464
 20
18.4934045731
 11
1.5758026464
 21
17.984330429
  0
LINE
  5
384
100
AcDbEntity
  8
ASSI
100
AcDbLine
 62
253
  6
CONTINUOUS
 10
1.6181038141
 20
18.8922545915
 11
1.6181038141
 21
18.5750031352
  0
LINE
  5
385
100
AcDbEntity
  8
ASSI
100
AcDbLine
 62
253
  6
CONTINUOUS
 10
1.6181038141
 20
-23.0418871486
 11
1.6181038141
 21
-22.7246169194
  0
LINE
  5
386
100
AcDbEntity
  8
ASSI
100
AcDbLine
 62
253
  6
CONTINUOUS
 10
1.8984568444
 20
18.8910312896
 11
1.8984568444
 21
18.5737624892
  0
LINE
  5
387
100
AcDbEntity
  8
ASSI
100
AcDbLine
 62
253
  6
CONTINUOUS
 10
1.8984568444
 20
-23.0431104505
 11
1.8984568444
 21
-22.7258416501
  0
LINE
  5
388
100
AcDbEntity
  8
ASSI
100
AcDbLine
 62
253
  6
CONTINUOUS
 10
2.3028095951
 20
18.3009982429
 11
2.3028095951
 21
17.6208269546
  0
LINE
  5
389
100
AcDbEntity
  8
ASSI
100
AcDbLine
 62
253
  6
CONTINUOUS
 10
2.3028095951
 20
-21.2979696043
 11
2.3028095951
 21
-21.7348644576
  0
LINE
  5
38A
100
AcDbEntity
  8
ASSI
100
AcDbLine
 62
253
  6
CONTINUOUS
 10
2.653250883
 20
18.3886468646
 11
2.653250883
 21
17.6303519886
  0
LINE
  5
38B
100
AcDbEntity
  8
ASSI
100
AcDbLine
 62
253
  6
CONTINUOUS
 10
2.653250883
 20
-21.1536109198
 11
2.653250883
 21
-21.8118298951
  0
LINE
  5
38C
100
AcDbEntity
  8
0
100
AcDbLine
 62
7
  6
CONTINUOUS
 10
-5.5306205045
 20
-3.6644620111
 11
-9.1015097495
 21
-5.4499066336
  0
LINE
  5
38D
100
AcDbEntity
  8
SMUSSO
100
AcDbLine
 62
7
  6
CONTINUOUS
 10
-9.8086165307
 20
-5.8034600242
 11
-9.1015097495
 21
-5.4499066336
  0
LINE
  5
38E
100
AcDbEntity
  8
0
100
AcDbLine
 62
7
  6
CONTINUOUS
 10
-5.5306205045
 20
-3.8376670918
 11
-8.9283046688
 21
-5.5365091739
  0
LINE
  5
38F
100
AcDbEntity
  8
RACCORDO
100
AcDbLine
 62
253
  6
CONTINUOUS
 10
14.6366375979
 20
6.2033475247
 11
15.8092894487
 21
6.7896734501
  0
LINE
  5
390
100
AcDbEntity
  8
RACCORDO
100
AcDbLine
 62
253
  6
CONTINUOUS
 10
14.6097907249
 20
5.9409703334
 11
16.0287789023
 21
6.6504644221
  0
LINE
  5
391
100
AcDbEntity
  8
RACCORDO
100
AcDbLine
 62
253
  6
CONTINUOUS
 10
16.248268356
 20
6.511255394
 11
14.5512120812
 21
5.6627272566
  0
LINE
  5
392
100
AcDbEntity
  8
RACCORDO
100
AcDbLine
 62
7
  6
CONTINUOUS
 10
-7.3337427966
 20
-5.6449022079
 11
-5.5306205045
 21
-4.7433410619
  0
LINE
  5
393
100
AcDbEntity
  8
0
100
AcDbLine
 62
7
  6
CONTINUOUS
 10
-7.5458748309
 20
-6.0497027998
 11
-7.4044534747
 21
-5.9789921217
  0
LINE
  5
394
100
AcDbEntity
  8
RACCORDO
100
AcDbLine
 62
7
  6
CONTINUOUS
 10
-8.182270934
 20
-6.5196762449
 11
-7.5458748309
 21
-6.2014781933
  0
LINE
  5
395
100
AcDbEntity
  8
0
100
AcDbLine
 62
7
  6
CONTINUOUS
 10
-8.3236922902
 20
-7.1330372566
 11
-8.182270934
 21
-7.0623265785
  0
LINE
  5
396
100
AcDbEntity
  8
ASSI
100
AcDbLine
 62
7
  6
CONTINUOUS
 10
17.9843190396
 20
3.2223587976
 11
18.1172116445
 21
3.2295654735
  0
LINE
  5
397
100
AcDbEntity
  8
RACCORDO
100
AcDbLine
 62
7
  6
CONTINUOUS
 10
11.0378314184
 20
-1.2947896487
 11
11.1233438118
 21
-1.3141432719
  0
LINE
  5
398
100
AcDbEntity
  8
RACCORDO
100
AcDbLine
 62
7
  6
CONTINUOUS
 10
-5.5716345335
 20
5.0989424845
 11
-4.4199084184
 21
4.5845338506
  0
LINE
  5
399
100
AcDbEntity
  8
RACCORDO
100
AcDbLine
 62
7
  6
CONTINUOUS
 10
-6.9425793264
 20
5.7276659794
 11
-5.5716345335
 21
5.0989424845
  0
LINE
  5
39A
100
AcDbEntity
  8
0
100
AcDbLine
 62
7
  6
CONTINUOUS
 10
-7.9701388996
 20
4.6687460283
 11
-11.9299368743
 21
6.6486450156
  0
LINE
  5
39B
100
AcDbEntity
  8
RACCORDO
100
AcDbLine
 62
253
  6
CONTINUOUS
 10
7.3387229131
 20
-2.8365608588
 11
7.1619462178
 21
-2.7481725112
  0
LINE
  5
39C
100
AcDbEntity
  8
0
100
AcDbLine
 62
253
  6
CONTINUOUS
 10
7.4240470093
 20
-2.5530789243
 11
7.3740782521
 21
-2.5280945457
  0
LINE
  5
39D
100
AcDbEntity
  8
RACCORDO
100
AcDbLine
 62
7
  6
CONTINUOUS
 10
-15.5008261193
 20
8.9262954724
 11
-15.4654707802
 21
8.9086178029
  0
LINE
  5
39E
100
AcDbEntity
  8
RACCORDO
100
AcDbLine
 62
7
  6
CONTINUOUS
 10
-4.5406710109
 20
3.4462179182
 11
-4.5760263499
 21
3.4638955878
  0
LINE
  5
39F
100
AcDbEntity
  8
RACCORDO
100
AcDbLine
 62
7
  6
CONTINUOUS
 10
9.9550180035
 20
-3.2746669378
 11
9.9903733425
 21
-3.2923446074
  0
LINE
  5
3A0
100
AcDbEntity
  8
0
100
AcDbLine
 62
7
  6
CONTINUOUS
 10
9.9550180035
 20
-3.0994724174
 11
9.8843073253
 21
-3.0641170783
  0
LINE
  5
3A1
100
AcDbEntity
  8
RACCORDO
100
AcDbLine
 62
253
  6
CONTINUOUS
 10
-13.1673737413
 20
8.6963053654
 11
-6.7327020325
 21
5.478969511
  0
LINE
  5
3A2
100
AcDbEntity
  8
RACCORDO
100
AcDbLine
 62
253
  6
CONTINUOUS
 10
-4.7528030452
 20
4.5915144199
 11
-6.5559253372
 21
5.493075566
  0
LINE
  5
3A3
100
AcDbEntity
  8
RACCORDO
100
AcDbLine
 62
253
  6
CONTINUOUS
 10
-13.4855717929
 20
8.9578987938
 11
-15.4654707802
 21
9.9478482874
  0
LINE
  5
3A4
100
AcDbEntity
  8
RACCORDO
100
AcDbLine
 62
253
  6
CONTINUOUS
 10
8.0458296943
 20
-1.6169820645
 11
7.869052999
 21
-1.5285937168
  0
LWPOLYLINE
  5
3A5
100
AcDbEntity
  8
RACCORDO
100
AcDbPolyline
 62
7
  6
CONTINUOUS
 90
6
 70
0
 10
-13.5165663948
 20
9.0148324735
 10
-12.2401445008
 20
8.3387077446
 10
-10.9442620894
 20
7.6717902751
 10
-9.6291891889
 20
7.014219867
 10
-8.2951976364
 20
6.3661346927
 10
-6.9425793264
 20
5.7276659794
  0
LWPOLYLINE
  5
3A6
100
AcDbEntity
  8
RACCORDO
100
AcDbPolyline
 62
7
  6
CONTINUOUS
 90
3
 70
0
 10
-15.8044260053
 20
10.2773601995
 10
-14.7732614539
 20
9.7000224086
 10
-13.5165663948
 20
9.0148324735
  0
LWPOLYLINE
  5
3A7
100
AcDbEntity
  8
ASSI
100
AcDbPolyline
 62
7
  6
CONTINUOUS
 90
16
 70
0
 10
3.2205442431
 20
23.5361347846
 10
3.2187747187
 20
23.5677775132
 10
3.2130786707
 20
23.6007828492
 10
3.2033901506
 20
23.6333426296
 10
3.1896918115
 20
23.6650146531
 10
3.1721178319
 20
23.695203194
 10
3.1507821701
 20
23.7235708443
 10
3.125730518
 20
23.7498858543
 10
3.097328868
 20
23.7736371435
 10
3.0660640813
 20
23.7944379792
 10
3.03171094
 20
23.8124569157
 10
2.9946049292
 20
23.8274435464
 10
2.9560512729
 20
23.8389902387
 10
2.9157757728
 20
23.8473343176
 10
2.8737878153
 20
23.8524255966
 10
2.8320683607
 20
23.854095151
  0
LWPOLYLINE
  5
3A8
100
AcDbEntity
  8
ASSI
100
AcDbPolyline
 62
7
  6
CONTINUOUS
 90
11
 70
0
 10
4.1700696556
 20
20.0725590422
 10
4.1695960292
 20
20.0878570932
 10
4.1659482322
 20
20.117529229
 10
4.1587255853
 20
20.1462720608
 10
4.14804038
 20
20.1736150409
 10
4.1342159777
 20
20.1989147009
 10
4.1175026118
 20
20.2219430716
 10
4.0980334056
 20
20.2425871868
 10
4.0762150768
 20
20.2604450463
 10
4.0524859612
 20
20.2752358372
 10
4.0468463869
 20
20.2781629114
  0
LWPOLYLINE
  5
3A9
100
AcDbEntity
  8
ASSI
100
AcDbPolyline
 62
7
  6
CONTINUOUS
 90
4
 70
0
 10
4.1700705154
 20
-21.5671208186
 10
4.1700520058
 20
-21.5641118924
 10
4.1683591813
 20
-21.5379163114
 10
4.1639097066
 20
-21.512200959
  0
LINE
  5
3AA
100
AcDbEntity
  8
ASSI
100
AcDbLine
 62
7
  6
CONTINUOUS
 10
3.2205488121
 20
23.5362620301
 11
3.2205488121
 21
22.3645211271
  0
LINE
  5
3AB
100
AcDbEntity
  8
ASSI
100
AcDbLine
 62
7
  6
CONTINUOUS
 10
3.5557016337
 20
-22.3202919273
 11
3.5557016337
 21
-20.7818607645
  0
LINE
  5
3AC
100
AcDbEntity
  8
ASSI
100
AcDbLine
 62
7
  6
CONTINUOUS
 10
3.5557016794
 20
18.1231207256
 11
3.5557016337
 21
19.7685954566
  0
LINE
  5
3AD
100
AcDbEntity
  8
ASSI
100
AcDbLine
 62
7
  6
CONTINUOUS
 10
3.9092550243
 20
17.5133973621
 11
3.9092550243
 21
16.7339085488
  0
LINE
  5
3AE
100
AcDbEntity
  8
ASSI
100
AcDbLine
 62
7
  6
CONTINUOUS
 10
3.9092550243
 20
-20.4186472235
 11
3.9092550243
 21
-19.6391584101
  0
LINE
  5
3AF
100
AcDbEntity
  8
ASSI
100
AcDbLine
 62
253
  6
CONTINUOUS
 10
4.1139380442
 20
-21.9765585372
 11
4.1139380442
 21
-21.6366149424
  0
LINE
  5
3B0
100
AcDbEntity
  8
ASSI
100
AcDbLine
 62
253
  6
CONTINUOUS
 10
4.1139380442
 20
19.662989197
 11
4.1139380442
 21
20.0029327918
  0
LINE
  5
3B1
100
AcDbEntity
  8
ASSI
100
AcDbLine
 62
7
  6
CONTINUOUS
 10
4.1700700842
 20
-21.9070927002
 11
4.1700700842
 21
-21.5671490365
  0
LINE
  5
3B2
100
AcDbEntity
  8
ASSI
100
AcDbLine
 62
7
  6
CONTINUOUS
 10
4.1700700842
 20
19.732455034
 11
4.1700700842
 21
20.072398629
  0
LINE
  5
3B3
100
AcDbEntity
  8
ASSI
100
AcDbLine
 62
7
  6
CONTINUOUS
 10
4.6040192107
 20
-20.0438060059
 11
4.6040192107
 21
-18.8307687967
  0
LINE
  5
3B4
100
AcDbEntity
  8
ASSI
100
AcDbLine
 62
7
  6
CONTINUOUS
 10
4.6040192107
 20
16.5936332368
 11
4.6040192107
 21
17.8580055205
  0
LINE
  5
3B5
100
AcDbEntity
  8
ASSI
100
AcDbLine
 62
7
  6
CONTINUOUS
 10
4.6348780482
 20
-18.7948631409
 11
4.6348780482
 21
16.578203818
  0
LINE
  5
3B6
100
AcDbEntity
  8
ASSI
100
AcDbLine
 62
253
  6
CONTINUOUS
 10
3.1123776393
 20
23.4037400466
 11
3.1123553824
 21
23.0378865549
  0
LINE
  5
3B7
100
AcDbEntity
  8
ASSI
100
AcDbLine
 62
253
  6
CONTINUOUS
 10
3.1123418516
 20
22.8154708613
 11
3.1123065102
 21
22.2345374959
  0
LINE
  5
3B8
100
AcDbEntity
  8
ASSI
100
AcDbLine
 62
7
  6
CONTINUOUS
 10
4.169213468
 20
19.7115088995
 11
4.1700661533
 21
19.7324948722
  0
LINE
  5
3B9
100
AcDbEntity
  8
0
100
AcDbLine
 62
7
  6
CONTINUOUS
 10
17.5210605622
 20
13.5490598081
 11
18.5110100558
 21
14.744034555
  0
LINE
  5
3BA
100
AcDbEntity
  8
RACCORDO
100
AcDbLine
 62
7
  6
CONTINUOUS
 10
7.3387229131
 20
0.1945280544
 11
6.9851695225
 21
0.0177513591
  0
LINE
  5
3BB
100
AcDbEntity
  8
SMUSSO
100
AcDbLine
 62
7
  6
CONTINUOUS
 10
17.5210605622
 20
3.7931875137
 11
17.8746139527
 21
3.969964209
  0
LINE
  5
3BC
100
AcDbEntity
  8
RACCORDO
100
AcDbLine
 62
253
  6
CONTINUOUS
 10
9.8135966472
 20
-0.3433871563
 11
13.2077091969
 21
1.3536691186
  0
LINE
  5
3BD
100
AcDbEntity
  8
RACCORDO
100
AcDbLine
 62
7
  6
CONTINUOUS
 10
9.7876073287
 20
-0.3974745363
 11
13.1817198783
 21
1.2995817385
  0
LINE
  5
3BE
100
AcDbEntity
  8
RACCORDO
100
AcDbLine
 62
7
  6
CONTINUOUS
 10
12.642023772
 20
0.7951269227
 11
10.2378607159
 21
-0.4069546053
  0
LINE
  5
3BF
100
AcDbEntity
  8
RACCORDO
100
AcDbLine
 62
7
  6
CONTINUOUS
 10
12.8188004673
 20
0.7067385751
 11
10.4146374112
 21
-0.495342953
  0
LWPOLYLINE
  5
3C0
100
AcDbEntity
  8
RACCORDO
100
AcDbPolyline
 62
7
  6
CONTINUOUS
 90
7
 70
0
 10
11.3202171344
 20
-1.2998369669
 10
11.4266233729
 20
-1.2654845534
 10
11.5350828932
 20
-1.213329229
 10
11.6465693303
 20
-1.1418209942
 10
11.7615912139
 20
-1.0480058747
 10
11.8745144211
 20
-0.9335893906
 10
11.9774049515
 20
-0.8059351641
  0
LINE
  5
3C1
100
AcDbEntity
  8
0
100
AcDbLine
 62
7
  6
CONTINUOUS
 10
6.9851695225
 20
-2.5773394822
 11
7.5617344411
 21
-2.3920150441
  0
LINE
  5
3C2
100
AcDbEntity
  8
RACCORDO
100
AcDbLine
 62
7
  6
CONTINUOUS
 10
10.9958387087
 20
-1.2770271127
 11
11.0378314184
 21
-1.2947896487
  0
LINE
  5
3C3
100
AcDbEntity
  8
RACCORDO
100
AcDbLine
 62
253
  6
CONTINUOUS
 10
8.0458296943
 20
-0.3179439588
 11
7.869052999
 21
-0.2295556111
  0
LINE
  5
3C4
100
AcDbEntity
  8
RACCORDO
100
AcDbLine
 62
253
  6
CONTINUOUS
 10
10.0610840206
 20
-1.1051323501
 11
9.8843073253
 21
-1.0167440025
  0
LINE
  5
3C5
100
AcDbEntity
  8
ASSI
100
AcDbLine
 62
7
  6
CONTINUOUS
 10
10.9972016032
 20
-1.2777137321
 11
10.8866626313
 21
-1.2224442461
  0
LINE
  5
3C6
100
AcDbEntity
  8
RACCORDO
100
AcDbLine
 62
253
  6
CONTINUOUS
 10
10.4146374112
 20
-0.495342953
 11
10.2378607159
 21
-0.4069546053
  0
LINE
  5
3C7
100
AcDbEntity
  8
0
100
AcDbLine
 62
7
  6
CONTINUOUS
 10
12.2884703814
 20
-1.2003031205
 11
12.4652470767
 21
-1.2886914682
  0
LINE
  5
3C8
100
AcDbEntity
  8
RACCORDO
100
AcDbLine
 62
7
  6
CONTINUOUS
 10
10.9958504725
 20
-1.2770339118
 11
10.9967217192
 21
-1.2774734868
  0
LWPOLYLINE
  5
3C9
100
AcDbEntity
  8
RACCORDO
100
AcDbPolyline
 62
7
  6
CONTINUOUS
 90
3
 70
0
 10
-15.8537661094
 20
15.841061471
 10
-15.7883730465
 20
15.7996115145
 10
-15.7767892629
 20
15.7929953453
  0
LINE
  5
3CA
100
AcDbEntity
  8
RACCORDO
100
AcDbLine
 62
7
  6
CONTINUOUS
 10
-15.917600771
 20
15.8885142988
 11
-15.8537661094
 21
15.841061471
  0
LINE
  5
3CB
100
AcDbEntity
  8
0
100
AcDbLine
 62
7
  6
CONTINUOUS
 10
6.9851695225
 20
7.6387749124
 11
6.9851695225
 21
4.6076859992
  0
LINE
  5
3CC
100
AcDbEntity
  8
0
100
AcDbLine
 62
7
  6
CONTINUOUS
 10
6.9851695225
 20
0.0177513591
 11
6.9851695225
 21
-3.0133375541
  0
LINE
  5
3CD
100
AcDbEntity
  8
ASSI
100
AcDbLine
 62
7
  6
CONTINUOUS
 10
7.4627843387
 20
-12.8472999625
 11
7.4627843387
 21
-13.508304458
  0
LINE
  5
3CE
100
AcDbEntity
  8
ASSI
100
AcDbLine
 62
7
  6
CONTINUOUS
 10
4.1689417765
 20
-21.931126428
 11
4.1700699988
 21
-21.9070614788
  0
LINE
  5
3CF
100
AcDbEntity
  8
SMUSSO
100
AcDbLine
 62
7
  6
CONTINUOUS
 10
17.8746139527
 20
3.969964209
 11
17.5210605622
 21
3.7137282024
  0
LINE
  5
3D0
100
AcDbEntity
  8
RACCORDO
100
AcDbLine
 62
7
  6
CONTINUOUS
 10
-5.6295013863
 20
-9.4025788136
 11
-5.2344087985
 21
-9.1972942447
  0
LINE
  5
3D1
100
AcDbEntity
  8
ASSI
100
AcDbLine
 62
7
  6
CONTINUOUS
 10
7.4447889302
 20
-2.5634498848
 11
6.9851695225
 21
-2.7932595886
  0
LINE
  5
3D2
100
AcDbEntity
  8
RACCORDO
100
AcDbLine
 62
7
  6
CONTINUOUS
 10
6.9851695225
 20
-2.8365608588
 11
7.1619462178
 21
-2.7481725112
  0
LINE
  5
3D3
100
AcDbEntity
  8
RACCORDO
100
AcDbLine
 62
7
  6
CONTINUOUS
 10
6.9851695225
 20
-3.0133375541
 11
7.3387229131
 21
-2.8365608588
  0
LINE
  5
3D4
100
AcDbEntity
  8
0
100
AcDbLine
 62
7
  6
CONTINUOUS
 10
10.7681908018
 20
-1.1845916614
 11
12.4652470767
 21
-0.336063524
  0
LINE
  5
3D5
100
AcDbEntity
  8
RACCORDO
100
AcDbLine
 62
7
  6
CONTINUOUS
 10
10.9554602417
 20
-1.1068488038
 11
12.1365562805
 21
-0.5163007843
  0
LINE
  5
3D6
100
AcDbEntity
  8
0
100
AcDbLine
 62
7
  6
CONTINUOUS
 10
20.6394014672
 20
3.1996147044
 11
18.1221013262
 21
1.9409646339
  0
LINE
  5
3D7
100
AcDbEntity
  8
0
100
AcDbLine
 62
7
  6
CONTINUOUS
 10
17.5210605622
 20
1.6050889129
 11
13.9641533573
 21
-0.1733646896
  0
LINE
  5
3D8
100
AcDbEntity
  8
RACCORDO
100
AcDbLine
 62
7
  6
CONTINUOUS
 10
13.9748400068
 20
-0.3412264456
 11
17.4220362625
 21
1.3823716823
  0
LINE
  5
3D9
100
AcDbEntity
  8
0
100
AcDbLine
 62
7
  6
CONTINUOUS
 10
12.2884703814
 20
-1.2003031205
 11
10.7681908018
 21
-1.9604429103
  0
LINE
  5
3DA
100
AcDbEntity
  8
ASSI
100
AcDbLine
 62
7
  6
CONTINUOUS
 10
13.9855266562
 20
-0.5090882016
 11
17.5210605622
 21
1.2586787514
  0
LINE
  5
3DB
100
AcDbEntity
  8
0
100
AcDbLine
 62
7
  6
CONTINUOUS
 10
12.4652470767
 20
-1.2886914682
 11
10.7681908018
 21
-2.1372196056
  0
LINE
  5
3DC
100
AcDbEntity
  8
RACCORDO
100
AcDbLine
 62
7
  6
CONTINUOUS
 10
-5.5406907095
 20
10.6104824542
 11
-4.2343889092
 21
10.021746231
  0
LINE
  5
3DD
100
AcDbEntity
  8
RACCORDO
100
AcDbLine
 62
7
  6
CONTINUOUS
 10
13.1723538579
 20
-0.5908554041
 11
13.2077091969
 21
-0.6085330736
  0
LINE
  5
3DE
100
AcDbEntity
  8
0
100
AcDbLine
 62
7
  6
CONTINUOUS
 10
13.9748400068
 20
-0.3412264456
 11
13.8271412644
 21
-0.2673770744
  0
LINE
  5
3DF
100
AcDbEntity
  8
RACCORDO
100
AcDbLine
 62
253
  6
CONTINUOUS
 10
12.8188004673
 20
0.7067385751
 11
12.642023772
 21
0.7951269227
  0
LINE
  5
3E0
100
AcDbEntity
  8
RACCORDO
100
AcDbLine
 62
7
  6
CONTINUOUS
 10
13.042407265
 20
0.7209394687
 11
12.8656305697
 21
0.8093278163
  0
LINE
  5
3E1
100
AcDbEntity
  8
RACCORDO
100
AcDbLine
 62
253
  6
CONTINUOUS
 10
13.1723538579
 20
1.2688523855
 11
13.2077091969
 21
1.2511747159
  0
LINE
  5
3E2
100
AcDbEntity
  8
RACCORDO
100
AcDbLine
 62
253
  6
CONTINUOUS
 10
7.3387229131
 20
4.7844626945
 11
7.1619462178
 21
4.8728510421
  0
LWPOLYLINE
  5
3E3
100
AcDbEntity
  8
RACCORDO
100
AcDbPolyline
 62
7
  6
CONTINUOUS
 90
6
 70
0
 10
-12.1008125667
 20
13.8062855314
 10
-10.8226187835
 20
13.1502693608
 10
-9.5273014372
 20
12.502579937
 10
-8.2150560983
 20
11.8633138269
 10
-6.8860968774
 20
11.2325747837
 10
-5.5406907095
 20
10.6104824542
  0
LWPOLYLINE
  5
3E4
100
AcDbEntity
  8
RACCORDO
100
AcDbPolyline
 62
7
  6
CONTINUOUS
 90
4
 70
0
 10
-15.7768674923
 20
15.7930198935
 10
-14.6049570797
 20
15.1428472722
 10
-13.3616726084
 20
14.4705223281
 10
-12.1008125667
 20
13.8062855314
  0
LINE
  5
3E5
100
AcDbEntity
  8
RACCORDO
100
AcDbLine
 62
7
  6
CONTINUOUS
 10
-15.7768674923
 20
15.7930198935
 11
-15.7767975284
 21
15.7929806316
  0
LINE
  5
3E6
100
AcDbEntity
  8
0
100
AcDbLine
 62
7
  6
CONTINUOUS
 10
7.7983423208
 20
0.1047042921
 11
7.7983423208
 21
-1.9335642981
  0
LINE
  5
3E7
100
AcDbEntity
  8
0
100
AcDbLine
 62
7
  6
CONTINUOUS
 10
7.7983423208
 20
5.6874592552
 11
7.7983423208
 21
7.7257278454
  0
LINE
  5
3E8
100
AcDbEntity
  8
RACCORDO
100
AcDbLine
 62
7
  6
CONTINUOUS
 10
7.869052999
 20
-1.5285937168
 11
7.869052999
 21
-0.2295556111
  0
LINE
  5
3E9
100
AcDbEntity
  8
RACCORDO
100
AcDbLine
 62
7
  6
CONTINUOUS
 10
7.869052999
 20
6.0924298365
 11
7.869052999
 21
7.3914679422
  0
LINE
  5
3EA
100
AcDbEntity
  8
RACCORDO
100
AcDbLine
 62
7
  6
CONTINUOUS
 10
8.0458296943
 20
-1.6169820645
 11
8.0458296943
 21
-0.3179439588
  0
LINE
  5
3EB
100
AcDbEntity
  8
RACCORDO
100
AcDbLine
 62
7
  6
CONTINUOUS
 10
8.0458296943
 20
6.0040414888
 11
8.0458296943
 21
7.3030795945
  0
LINE
  5
3EC
100
AcDbEntity
  8
RACCORDO
100
AcDbLine
 62
253
  6
CONTINUOUS
 10
8.2579617286
 20
19.8968046181
 11
8.2579617286
 21
19.7553832619
  0
LINE
  5
3ED
100
AcDbEntity
  8
RACCORDO
100
AcDbLine
 62
7
  6
CONTINUOUS
 10
8.9387155749
 20
-14.364688444
 11
8.9387155749
 21
-13.5888737598
  0
LINE
  5
3EE
100
AcDbEntity
  8
RACCORDO
100
AcDbLine
 62
7
  6
CONTINUOUS
 10
8.9387155749
 20
21.210512534
 11
8.9387155749
 21
21.3715162444
  0
LINE
  5
3EF
100
AcDbEntity
  8
0
100
AcDbLine
 62
7
  6
CONTINUOUS
 10
9.5307539347
 20
20.3599956404
 11
9.5307539347
 21
20.5332007212
  0
LINE
  5
3F0
100
AcDbEntity
  8
ASSI
100
AcDbLine
 62
7
  6
CONTINUOUS
 10
9.5364067484
 20
-14.8696726242
 11
9.5364067484
 21
-14.6635340308
  0
LINE
  5
3F1
100
AcDbEntity
  8
ASSI
100
AcDbLine
 62
7
  6
CONTINUOUS
 10
9.5364067484
 20
21.6874816314
 11
9.5364067484
 21
21.8936202248
  0
LINE
  5
3F2
100
AcDbEntity
  8
0
100
AcDbLine
 62
7
  6
CONTINUOUS
 10
9.5661092738
 20
20.0594752584
 11
9.5661092738
 21
19.4289206497
  0
LINE
  5
3F3
100
AcDbEntity
  8
RACCORDO
100
AcDbLine
 62
253
  6
CONTINUOUS
 10
9.672175291
 20
19.1762945851
 11
9.672175291
 21
19.0482897764
  0
LINE
  5
3F4
100
AcDbEntity
  8
RACCORDO
100
AcDbLine
 62
253
  6
CONTINUOUS
 10
9.672175291
 20
-3.1183535977
 11
9.672175291
 21
-0.5873029151
  0
LINE
  5
3F5
100
AcDbEntity
  8
RACCORDO
100
AcDbLine
 62
7
  6
CONTINUOUS
 10
9.7014646129
 20
-3.0740078639
 11
9.7014646129
 21
-0.5519475761
  0
LINE
  5
3F6
100
AcDbEntity
  8
RACCORDO
100
AcDbLine
 62
7
  6
CONTINUOUS
 10
9.8843073253
 20
-1.0167440025
 11
9.8843073253
 21
-3.0641170783
  0
LINE
  5
3F7
100
AcDbEntity
  8
0
100
AcDbLine
 62
7
  6
CONTINUOUS
 10
9.9550180035
 20
-3.0994724174
 11
9.9550180035
 21
-3.2746669378
  0
LINE
  5
3F8
100
AcDbEntity
  8
RACCORDO
100
AcDbLine
 62
7
  6
CONTINUOUS
 10
9.7014646129
 20
-2.8885707402
 11
9.8843073253
 21
-2.7631111615
  0
LINE
  5
3F9
100
AcDbEntity
  8
RACCORDO
100
AcDbLine
 62
7
  6
CONTINUOUS
 10
11.8220176177
 20
-1.4335295024
 11
12.2884703814
 21
-1.1134677048
  0
LINE
  5
3FA
100
AcDbEntity
  8
RACCORDO
100
AcDbLine
 62
7
  6
CONTINUOUS
 10
13.9641533573
 20
-0.1733646896
 11
13.3491305532
 21
-0.5953694875
  0
LINE
  5
3FB
100
AcDbEntity
  8
RACCORDO
100
AcDbLine
 62
7
  6
CONTINUOUS
 10
9.672175291
 20
-3.1183535977
 11
5.1253185925
 21
-6.2382303392
  0
LINE
  5
3FC
100
AcDbEntity
  8
0
100
AcDbLine
 62
7
  6
CONTINUOUS
 10
5.1360052419
 20
-6.4060920952
 11
9.9550180035
 21
-3.0994724174
  0
LINE
  5
3FD
100
AcDbEntity
  8
0
100
AcDbLine
 62
7
  6
CONTINUOUS
 10
13.1723538579
 20
-0.8918613209
 11
13.9748400068
 21
-0.3412264456
  0
LINE
  5
3FE
100
AcDbEntity
  8
0
100
AcDbLine
 62
7
  6
CONTINUOUS
 10
5.1466918914
 20
-6.5739538512
 11
9.9550180035
 21
-3.2746669378
  0
LINE
  5
3FF
100
AcDbEntity
  8
0
100
AcDbLine
 62
7
  6
CONTINUOUS
 10
13.1723538579
 20
-1.0670558414
 11
13.9855266562
 21
-0.5090882016
  0
LINE
  5
400
100
AcDbEntity
  8
RACCORDO
100
AcDbLine
 62
253
  6
CONTINUOUS
 10
10.0610840206
 20
-3.2401026862
 11
13.1723538579
 21
-1.1052699775
  0
LINE
  5
401
100
AcDbEntity
  8
RACCORDO
100
AcDbLine
 62
7
  6
CONTINUOUS
 10
10.0395331248
 20
-3.2922930644
 11
13.150802962
 21
-1.1574603557
  0
LINE
  5
402
100
AcDbEntity
  8
RACCORDO
100
AcDbLine
 62
7
  6
CONTINUOUS
 10
5.1253185925
 20
-6.2382303392
 11
4.6348780482
 21
-6.4834506113
  0
LINE
  5
403
100
AcDbEntity
  8
0
100
AcDbLine
 62
7
  6
CONTINUOUS
 10
4.6348780482
 20
-6.656655692
 11
5.1360052419
 21
-6.4060920952
  0
LINE
  5
404
100
AcDbEntity
  8
0
100
AcDbLine
 62
7
  6
CONTINUOUS
 10
4.6348780482
 20
-6.8298607728
 11
5.1466918914
 21
-6.5739538512
  0
LWPOLYLINE
  5
405
100
AcDbEntity
  8
RACCORDO
100
AcDbPolyline
 62
7
  6
CONTINUOUS
 90
11
 70
0
 10
-4.234380147
 20
10.0217560201
 10
-4.1608448503
 20
9.9924958062
 10
-4.0913814168
 20
9.9711205801
 10
-4.0221710063
 20
9.95588124
 10
-3.9535524953
 20
9.9468167728
 10
-3.8859049666
 20
9.9439149945
 10
-3.8195415288
 20
9.9471484148
 10
-3.7548536791
 20
9.9564630592
 10
-3.6923842137
 20
9.971680807
 10
-3.6325559553
 20
9.992563924
 10
-3.5914315565
 20
10.010904089
  0
LINE
  5
406
100
AcDbEntity
  8
RACCORDO
100
AcDbLine
 62
253
  6
CONTINUOUS
 10
8.0458296943
 20
6.0040414888
 11
7.869052999
 21
6.0924298365
  0
LINE
  5
407
100
AcDbEntity
  8
RACCORDO
100
AcDbLine
 62
253
  6
CONTINUOUS
 10
17.2488311817
 20
1.4689742226
 11
17.4220362625
 21
1.3823716823
  0
LINE
  5
408
100
AcDbEntity
  8
RACCORDO
100
AcDbLine
 62
253
  6
CONTINUOUS
 10
17.5109120336
 20
1.5847918558
 11
17.5549288673
 21
1.5627834389
  0
LINE
  5
409
100
AcDbEntity
  8
0
100
AcDbLine
 62
7
  6
CONTINUOUS
 10
18.1221013262
 20
1.9409646339
 11
17.8225568643
 21
2.0907368649
  0
LINE
  5
40A
100
AcDbEntity
  8
RACCORDO
100
AcDbLine
 62
7
  6
CONTINUOUS
 10
10.0610840206
 20
-1.1051323501
 11
10.0610840206
 21
-3.2401026862
  0
LINE
  5
40B
100
AcDbEntity
  8
0
100
AcDbLine
 62
7
  6
CONTINUOUS
 10
10.6267694456
 20
19.5291451725
 11
10.6267694456
 21
19.3134415236
  0
LINE
  5
40C
100
AcDbEntity
  8
0
100
AcDbLine
 62
7
  6
CONTINUOUS
 10
10.7681908018
 20
-2.1372196056
 11
10.7681908018
 21
-1.1845916614
  0
LINE
  5
40D
100
AcDbEntity
  8
0
100
AcDbLine
 62
7
  6
CONTINUOUS
 10
11.2631655487
 20
19.847343224
 11
11.2631655487
 21
19.6493172447
  0
LINE
  5
40E
100
AcDbEntity
  8
0
100
AcDbLine
 62
7
  6
CONTINUOUS
 10
12.2884703814
 20
-0.4244518717
 11
12.2884703814
 21
-1.2003031205
  0
LINE
  5
40F
100
AcDbEntity
  8
0
100
AcDbLine
 62
7
  6
CONTINUOUS
 10
12.4652470767
 20
-0.336063524
 11
12.4652470767
 21
-1.2886914682
  0
LWPOLYLINE
  5
410
100
AcDbEntity
  8
RACCORDO
100
AcDbPolyline
 62
7
  6
CONTINUOUS
 90
3
 70
0
 10
12.067186869
 20
-0.6704691589
 10
12.1442502673
 20
-0.5282659387
 10
12.158827601
 20
-0.4975797118
  0
LINE
  5
411
100
AcDbEntity
  8
RACCORDO
100
AcDbLine
 62
7
  6
CONTINUOUS
 10
11.9774049515
 20
-0.8059351641
 11
12.067186869
 21
-0.6704691589
  0
LINE
  5
412
100
AcDbEntity
  8
RACCORDO
100
AcDbLine
 62
253
  6
CONTINUOUS
 10
8.0458296943
 20
7.3030795945
 11
7.869052999
 21
7.3914679422
  0
LINE
  5
413
100
AcDbEntity
  8
ASSI
100
AcDbLine
 62
7
  6
CONTINUOUS
 10
17.9843190396
 20
3.2223587976
 11
17.5210605622
 21
3.4539880364
  0
LINE
  5
414
100
AcDbEntity
  8
ASSI
100
AcDbLine
 62
7
  6
CONTINUOUS
 10
18.1172116445
 20
3.2295654735
 11
17.5210605622
 21
3.5276410147
  0
LWPOLYLINE
  5
415
100
AcDbEntity
  8
ASSI
100
AcDbPolyline
 62
7
  6
CONTINUOUS
 90
4
 70
0
 10
-13.0239359242
 20
25.8053184823
 10
-13.0058373602
 20
25.7893337548
 10
-12.986128577
 20
25.7754615995
 10
-12.9678974807
 20
25.7652556706
  0
LINE
  5
416
100
AcDbEntity
  8
RACCORDO
100
AcDbLine
 62
253
  6
CONTINUOUS
 10
13.0309325016
 20
0.7209394687
 11
13.0309325016
 21
1.2241880502
  0
LINE
  5
417
100
AcDbEntity
  8
RACCORDO
100
AcDbLine
 62
7
  6
CONTINUOUS
 10
13.1723538579
 20
-1.1052699775
 11
13.1723538579
 21
0.4505025685
  0
LINE
  5
418
100
AcDbEntity
  8
RACCORDO
100
AcDbLine
 62
253
  6
CONTINUOUS
 10
13.1723538579
 20
0.4505025685
 11
13.1723538579
 21
1.2688523855
  0
LINE
  5
419
100
AcDbEntity
  8
RACCORDO
100
AcDbLine
 62
253
  6
CONTINUOUS
 10
13.2077091969
 20
17.4219308839
 11
13.2077091969
 21
17.2805095277
  0
LINE
  5
41A
100
AcDbEntity
  8
RACCORDO
100
AcDbLine
 62
253
  6
CONTINUOUS
 10
13.2077091969
 20
1.2511747159
 11
13.2077091969
 21
-0.6085330736
  0
LINE
  5
41B
100
AcDbEntity
  8
RACCORDO
100
AcDbLine
 62
253
  6
CONTINUOUS
 10
13.3491305532
 20
1.2511747159
 11
13.3491305532
 21
-0.5953694875
  0
LINE
  5
41C
100
AcDbEntity
  8
0
100
AcDbLine
 62
7
  6
CONTINUOUS
 10
14.4805014031
 20
17.8851219063
 11
14.4805014031
 21
18.058326987
  0
LINE
  5
41D
100
AcDbEntity
  8
RACCORDO
100
AcDbLine
 62
253
  6
CONTINUOUS
 10
14.5512120812
 20
5.6627272566
 11
14.5512120812
 21
7.7411882257
  0
LINE
  5
41E
100
AcDbEntity
  8
0
100
AcDbLine
 62
7
  6
CONTINUOUS
 10
14.5865674202
 20
17.5492461852
 11
14.5865674202
 21
16.9186915765
  0
LINE
  5
41F
100
AcDbEntity
  8
RACCORDO
100
AcDbLine
 62
7
  6
CONTINUOUS
 10
14.6097907249
 20
5.8548415283
 11
14.6097907249
 21
7.6904953102
  0
LINE
  5
420
100
AcDbEntity
  8
RACCORDO
100
AcDbLine
 62
253
  6
CONTINUOUS
 10
14.6219227593
 20
16.7014208509
 11
14.6219227593
 21
16.5734160422
  0
LINE
  5
421
100
AcDbEntity
  8
RACCORDO
100
AcDbLine
 62
253
  6
CONTINUOUS
 10
14.6366375979
 20
7.6395468649
 11
14.6366375979
 21
6.2033475247
  0
LINE
  5
422
100
AcDbEntity
  8
ASSI
100
AcDbLine
 62
7
  6
CONTINUOUS
 10
4.6348780482
 20
-14.2807291614
 11
7.4627843387
 21
-12.8472999625
  0
LINE
  5
423
100
AcDbEntity
  8
RACCORDO
100
AcDbLine
 62
7
  6
CONTINUOUS
 10
-0.2806295903
 20
16.6550667991
 11
-13.9625919341
 21
23.496047971
  0
LWPOLYLINE
  5
424
100
AcDbEntity
  8
ASSI
100
AcDbPolyline
 62
7
  6
CONTINUOUS
 90
4
 70
0
 10
-0.4368178084
 20
19.5114622586
 10
-0.41804471
 20
19.4950690668
 10
-0.3975687111
 20
19.4809383491
 10
-0.3814475014
 20
19.472030484
  0
LINE
  5
425
100
AcDbEntity
  8
0
100
AcDbLine
 62
7
  6
CONTINUOUS
 10
15.647227592
 20
17.0189160993
 11
15.647227592
 21
16.8739231285
  0
LINE
  5
426
100
AcDbEntity
  8
RACCORDO
100
AcDbLine
 62
253
  6
CONTINUOUS
 10
15.8092894487
 20
6.7896734501
 11
15.8092894487
 21
8.2258727903
  0
LINE
  5
427
100
AcDbEntity
  8
RACCORDO
100
AcDbLine
 62
253
  6
CONTINUOUS
 10
16.0287789023
 20
6.6504644221
 11
16.0287789023
 21
8.4077945767
  0
LINE
  5
428
100
AcDbEntity
  8
RACCORDO
100
AcDbLine
 62
253
  6
CONTINUOUS
 10
16.248268356
 20
8.5897163631
 11
16.248268356
 21
6.511255394
  0
LINE
  5
429
100
AcDbEntity
  8
0
100
AcDbLine
 62
7
  6
CONTINUOUS
 10
16.2836236951
 20
17.3371141508
 11
16.2836236951
 21
17.1744435105
  0
LINE
  5
42A
100
AcDbEntity
  8
RACCORDO
100
AcDbLine
 62
7
  6
CONTINUOUS
 10
17.5549288673
 20
1.5627834389
 11
17.9843190396
 21
3.2223587976
  0
LINE
  5
42B
100
AcDbEntity
  8
ASSI
100
AcDbLine
 62
7
  6
CONTINUOUS
 10
18.1172116445
 20
3.2295654735
 11
17.653953167
 21
1.439090508
  0
LINE
  5
42C
100
AcDbEntity
  8
ASSI
100
AcDbLine
 62
7
  6
CONTINUOUS
 10
1.2806054285
 20
-21.7190502644
 11
1.0330765837
 21
-22.0105947673
  0
LINE
  5
42D
100
AcDbEntity
  8
ASSI
100
AcDbLine
 62
253
  6
CONTINUOUS
 10
1.7068007266
 20
-22.4930784568
 11
2.339590936
 21
-21.7477652908
  0
LINE
  5
42E
100
AcDbEntity
  8
ASSI
100
AcDbLine
 62
253
  6
CONTINUOUS
 10
1.9164430788
 20
-22.6796570978
 11
2.653250883
 21
-21.8118298951
  0
LINE
  5
42F
100
AcDbEntity
  8
ASSI
100
AcDbLine
 62
7
  6
CONTINUOUS
 10
3.9092550243
 20
-19.6391584101
 11
4.6348780482
 21
-18.7948631409
  0
LINE
  5
430
100
AcDbEntity
  8
RACCORDO
100
AcDbLine
 62
7
  6
CONTINUOUS
 10
8.9387155749
 20
-14.364688444
 11
4.6348780482
 21
-16.5080916963
  0
LINE
  5
431
100
AcDbEntity
  8
RACCORDO
100
AcDbLine
 62
253
  6
CONTINUOUS
 10
4.6348780482
 20
-14.4101089424
 11
8.7268969288
 21
-13.2195486364
  0
LINE
  5
432
100
AcDbEntity
  8
RACCORDO
100
AcDbLine
 62
253
  6
CONTINUOUS
 10
4.6348780482
 20
-14.8410620493
 11
8.9387155749
 21
-13.5888737598
  0
LINE
  5
433
100
AcDbEntity
  8
ASSI
100
AcDbLine
 62
7
  6
CONTINUOUS
 10
4.6040192107
 20
16.5936332368
 11
3.9092550243
 21
16.7339085488
  0
LINE
  5
434
100
AcDbEntity
  8
ASSI
100
AcDbLine
 62
7
  6
CONTINUOUS
 10
4.6348780482
 20
16.578203818
 11
3.9092550243
 21
16.7339085488
  0
LINE
  5
435
100
AcDbEntity
  8
DRAFT
100
AcDbLine
 62
7
  6
CONTINUOUS
 10
-4.2931836374
 20
19.4138370721
 11
-8.5358243246
 21
21.5351574156
  0
LINE
  5
436
100
AcDbEntity
  8
ASSI
100
AcDbLine
 62
7
  6
CONTINUOUS
 10
0.6826352958
 20
17.6784208549
 11
0.4890710097
 21
17.7752029979
  0
LINE
  5
437
100
AcDbEntity
  8
ASSI
100
AcDbLine
 62
7
  6
CONTINUOUS
 10
-11.9038654093
 20
23.9716712074
 11
-12.0974296954
 21
24.0684533505
  0
LINE
  5
438
100
AcDbEntity
  8
ASSI
100
AcDbLine
 62
7
  6
CONTINUOUS
 10
-12.3033904324
 20
24.9239269683
 11
-12.1706530001
 21
24.8575582522
  0
LINE
  5
439
100
AcDbEntity
  8
ASSI
100
AcDbLine
 62
7
  6
CONTINUOUS
 10
-11.0106980587
 20
24.2775807815
 11
-10.28369111
 21
23.9140773071
  0
LINE
  5
43A
100
AcDbEntity
  8
ASSI
100
AcDbLine
 62
7
  6
CONTINUOUS
 10
0.2831102727
 20
18.6306766158
 11
0.415847705
 21
18.5643078997
  0
LINE
  5
43B
100
AcDbEntity
  8
ASSI
100
AcDbLine
 62
7
  6
CONTINUOUS
 10
1.5758026464
 20
17.984330429
 11
2.3028095951
 21
17.6208269546
  0
LINE
  5
43C
100
AcDbEntity
  8
ASSI
100
AcDbLine
 62
7
  6
CONTINUOUS
 10
4.6348780482
 20
16.578203818
 11
4.6040192107
 21
16.5936332368
  0
LINE
  5
43D
100
AcDbEntity
  8
ASSI
100
AcDbLine
 62
7
  6
CONTINUOUS
 10
1.6833098164
 20
18.4396509881
 11
0.8821518582
 21
18.8402299672
  0
LINE
  5
43E
100
AcDbEntity
  8
ASSI
100
AcDbLine
 62
7
  6
CONTINUOUS
 10
0.4142782716
 20
19.0741667605
 11
-0.3816509933
 21
19.472131393
  0
LINE
  5
43F
100
AcDbEntity
  8
ASSI
100
AcDbLine
 62
7
  6
CONTINUOUS
 10
-10.903079663
 20
24.7328458293
 11
-11.7043488469
 21
25.1334803198
  0
LINE
  5
440
100
AcDbEntity
  8
ASSI
100
AcDbLine
 62
7
  6
CONTINUOUS
 10
-12.1722224335
 20
25.3674171131
 11
-12.9681576232
 21
25.7653847079
  0
LINE
  5
441
100
AcDbEntity
  8
ASSI
100
AcDbLine
 62
253
  6
CONTINUOUS
 10
-12.0974296954
 20
25.4327525459
 11
-13.0328982137
 21
25.9005041556
  0
LINE
  5
442
100
AcDbEntity
  8
0
100
AcDbLine
 62
7
  6
CONTINUOUS
 10
17.5210605622
 20
1.6050889129
 11
17.5210605622
 21
13.5490598081
  0
LINE
  5
443
100
AcDbEntity
  8
0
100
AcDbLine
 62
7
  6
CONTINUOUS
 10
17.7331925965
 20
13.3866060189
 11
17.7331925965
 21
13.8051258253
  0
LINE
  5
444
100
AcDbEntity
  8
SMUSSO
100
AcDbLine
 62
7
  6
CONTINUOUS
 10
17.8746139527
 20
3.969964209
 11
17.8746139527
 21
13.457316697
  0
LINE
  5
445
100
AcDbEntity
  8
0
100
AcDbLine
 62
7
  6
CONTINUOUS
 10
18.0867459871
 20
13.5633827142
 11
18.0867459871
 21
13.9963954161
  0
LINE
  5
446
100
AcDbEntity
  8
0
100
AcDbLine
 62
7
  6
CONTINUOUS
 10
18.1221013262
 20
1.9409646339
 11
18.1221013262
 21
14.2745801901
  0
LINE
  5
447
100
AcDbEntity
  8
RACCORDO
100
AcDbLine
 62
7
  6
CONTINUOUS
 10
18.5110100558
 20
14.744034555
 11
18.5110100558
 21
15.6100599587
  0
LINE
  5
448
100
AcDbEntity
  8
0
100
AcDbLine
 62
7
  6
CONTINUOUS
 10
18.8292081074
 20
16.0643219447
 11
18.8292081074
 21
14.765283839
  0
LINE
  5
449
100
AcDbEntity
  8
ASSI
100
AcDbLine
 62
7
  6
CONTINUOUS
 10
8.3065228165
 20
-15.8153902284
 11
4.6348780482
 21
-17.7106266053
  0
LINE
  5
44A
100
AcDbEntity
  8
ASSI
100
AcDbLine
 62
7
  6
CONTINUOUS
 10
9.5176469114
 20
-15.0792752316
 11
4.6348780482
 21
-17.5762806386
  0
LINE
  5
44B
100
AcDbEntity
  8
ASSI
100
AcDbLine
 62
7
  6
CONTINUOUS
 10
9.5364067484
 20
-14.6635340308
 11
4.6348780482
 21
-17.148055665
  0
LINE
  5
44C
100
AcDbEntity
  8
ASSI
100
AcDbLine
 62
7
  6
CONTINUOUS
 10
1.7360086268
 20
18.4212346073
 11
2.3763959152
 21
18.2853882632
  0
LINE
  5
44D
100
AcDbEntity
  8
ASSI
100
AcDbLine
 62
253
  6
CONTINUOUS
 10
1.9164430788
 20
18.5449470416
 11
2.653250883
 21
18.3886468646
  0
LWPOLYLINE
  5
44E
100
AcDbEntity
  8
ASSI
100
AcDbPolyline
 62
7
  6
CONTINUOUS
 90
4
 70
0
 10
1.6833110759
 20
18.4396510961
 10
1.6922993453
 20
18.4354076639
 10
1.7140532037
 20
18.427088187
 10
1.7359518373
 20
18.4212538842
  0
LWPOLYLINE
  5
44F
100
AcDbEntity
  8
ASSI
100
AcDbPolyline
 62
7
  6
CONTINUOUS
 90
4
 70
0
 10
-10.9032336263
 20
24.7329227335
 10
-10.8971832959
 20
24.7300110473
 10
-10.8740826594
 20
24.7208748095
 10
-10.8505738155
 20
24.7145023498
  0
LINE
  5
450
100
AcDbEntity
  8
ASSI
100
AcDbLine
 62
253
  6
CONTINUOUS
 10
0.4890710097
 20
19.1395021934
 11
-0.4463975086
 21
19.6072364525
  0
LINE
  5
451
100
AcDbEntity
  8
ASSI
100
AcDbLine
 62
253
  6
CONTINUOUS
 10
-10.968396891
 20
24.8682361437
 11
-11.9038654093
 21
25.3359704029
  0
LINE
  5
452
100
AcDbEntity
  8
ASSI
100
AcDbLine
 62
253
  6
CONTINUOUS
 10
1.6181038141
 20
18.5750031352
 11
0.6826352958
 21
19.0427200503
  0
LINE
  5
453
100
AcDbEntity
  8
ASSI
100
AcDbLine
 62
7
  6
CONTINUOUS
 10
-1.2917041383
 20
20.1705770707
 11
-3.5823525354
 21
21.3159012692
  0
LINE
  5
454
100
AcDbEntity
  8
ASSI
100
AcDbLine
 62
7
  6
CONTINUOUS
 10
-5.0040147395
 20
22.0267323713
 11
-7.2946631366
 21
23.1720565699
  0
LINE
  5
455
100
AcDbEntity
  8
ASSI
100
AcDbLine
 62
253
  6
CONTINUOUS
 10
1.6181038141
 20
18.8922545915
 11
-0.4463975086
 21
19.9245052529
  0
LINE
  5
456
100
AcDbEntity
  8
ASSI
100
AcDbLine
 62
253
  6
CONTINUOUS
 10
-10.968396891
 20
25.1855074438
 11
-13.0328982137
 21
26.2177556054
  0
LINE
  5
457
100
AcDbEntity
  8
ASSI
100
AcDbLine
 62
7
  6
CONTINUOUS
 10
-9.0307990714
 20
24.416371162
 11
-7.3532417804
 21
23.5775925164
  0
LINE
  5
458
100
AcDbEntity
  8
ASSI
100
AcDbLine
 62
7
  6
CONTINUOUS
 10
-4.5053156718
 20
22.1536294622
 11
-3.6409311792
 21
21.7214372158
  0
LINE
  5
459
100
AcDbEntity
  8
ASSI
100
AcDbLine
 62
7
  6
CONTINUOUS
 10
-0.7930050706
 20
20.2974741615
 11
-0.4659842181
 21
20.1339637353
  0
LINE
  5
45A
100
AcDbEntity
  8
ASSI
100
AcDbLine
 62
253
  6
CONTINUOUS
 10
1.79240169
 20
19.1952705461
 11
-0.2733123514
 21
20.2281275668
  0
LINE
  5
45B
100
AcDbEntity
  8
ASSI
100
AcDbLine
 62
253
  6
CONTINUOUS
 10
-10.7940990151
 20
25.4885208987
 11
-12.8598130565
 21
26.5213779194
  0
LINE
  5
45C
100
AcDbEntity
  8
ASSI
100
AcDbLine
 62
7
  6
CONTINUOUS
 10
-9.0307990714
 20
25.1083614135
 11
-8.3626633563
 21
24.7742935559
  0
LINE
  5
45D
100
AcDbEntity
  8
ASSI
100
AcDbLine
 62
7
  6
CONTINUOUS
 10
3.555701641
 20
18.8151110573
 11
4.250519668
 21
18.4677020438
  0
LINE
  5
45E
100
AcDbEntity
  8
ASSI
100
AcDbLine
 62
7
  6
CONTINUOUS
 10
-3.8105514854
 20
22.5118426491
 11
-3.6409311792
 21
22.427032496
  0
LINE
  5
45F
100
AcDbEntity
  8
ASSI
100
AcDbLine
 62
253
  6
CONTINUOUS
 10
-1.3270540925
 20
21.4188195043
 11
-3.5470025811
 21
22.5287937486
  0
LINE
  5
460
100
AcDbEntity
  8
ASSI
100
AcDbLine
 62
253
  6
CONTINUOUS
 10
-5.0393646938
 20
23.274974805
 11
-7.2593131824
 21
24.3849490492
  0
LINE
  5
461
100
AcDbEntity
  8
ASSI
100
AcDbLine
 62
253
  6
CONTINUOUS
 10
-1.1881008793
 20
21.6614748118
 11
-3.4080493679
 21
22.771449056
  0
LINE
  5
462
100
AcDbEntity
  8
ASSI
100
AcDbLine
 62
253
  6
CONTINUOUS
 10
-4.9004114805
 20
23.5176301124
 11
-7.1203599691
 21
24.6276043567
  0
LINE
  5
463
100
AcDbEntity
  8
ASSI
100
AcDbLine
 62
7
  6
CONTINUOUS
 10
-6.9095056518
 20
24.7413650982
 11
-4.6820654432
 21
23.6276449939
  0
LINE
  5
464
100
AcDbEntity
  8
ASSI
100
AcDbLine
 62
7
  6
CONTINUOUS
 10
-3.1971950506
 20
22.8852097976
 11
-0.9697548419
 21
21.7714896933
  0
LINE
  5
465
100
AcDbEntity
  8
ASSI
100
AcDbLine
 62
7
  6
CONTINUOUS
 10
-11.2935623104
 20
27.3664061294
 11
-9.1721988885
 21
26.3057244184
  0
LINE
  5
466
100
AcDbEntity
  8
ASSI
100
AcDbLine
 62
7
  6
CONTINUOUS
 10
1.2929383948
 20
21.0731557768
 11
3.4143018166
 21
20.0124740659
  0
LINE
  5
467
100
AcDbEntity
  8
ASSI
100
AcDbLine
 62
7
  6
CONTINUOUS
 10
-0.5808999602
 20
22.2690525039
 11
-2.4777456746
 21
23.2174753611
  0
LINE
  5
468
100
AcDbEntity
  8
ASSI
100
AcDbLine
 62
7
  6
CONTINUOUS
 10
-3.9873012567
 20
23.9722531522
 11
-5.8841469712
 21
24.9206760094
  0
LINE
  5
469
100
AcDbEntity
  8
0
100
AcDbLine
 62
7
  6
CONTINUOUS
 10
21.2333711634
 20
8.3463418137
 11
21.2333711634
 21
12.6764688327
  0
LINE
  5
46A
100
AcDbEntity
  8
0
100
AcDbLine
 62
7
  6
CONTINUOUS
 10
20.6394014672
 20
3.1996147044
 11
21.2333711634
 21
8.3463418137
  0
LWPOLYLINE
  5
46B
100
AcDbEntity
  8
ASSI
100
AcDbPolyline
 62
7
  6
CONTINUOUS
 90
10
 70
0
 10
4.0425114573
 20
-22.13739167
 10
4.0647378373
 20
-22.1220343536
 10
4.0855697994
 20
-22.1040391672
 10
4.1046948938
 20
-22.0836090295
 10
4.1214087889
 20
-22.0616130277
 10
4.1360124633
 20
-22.037786185
 10
4.1484383894
 20
-22.0120399511
 10
4.1580489603
 20
-21.9856456381
 10
4.1648467249
 20
-21.9589205544
 10
4.1689417765
 20
-21.931126428
  0
LINE
  5
46C
100
AcDbEntity
  8
ASSI
100
AcDbLine
 62
7
  6
CONTINUOUS
 10
4.0308026666
 20
-22.1441296367
 11
4.0425114573
 21
-22.13739167
  0
LINE
  5
46D
100
AcDbEntity
  8
ASSI
100
AcDbLine
 62
253
  6
CONTINUOUS
 10
3.9092550243
 20
-20.4186472235
 11
4.6040192107
 21
-20.0438060059
  0
LINE
  5
46E
100
AcDbEntity
  8
ASSI
100
AcDbLine
 62
7
  6
CONTINUOUS
 10
3.7835150419
 20
-20.6869016812
 11
4.4793423109
 21
-20.3114869061
  0
LINE
  5
46F
100
AcDbEntity
  8
ASSI
100
AcDbLine
 62
253
  6
CONTINUOUS
 10
3.5557016337
 20
-22.3202919273
 11
4.0798061003
 21
-22.0375255438
  0
LINE
  5
470
100
AcDbEntity
  8
ASSI
100
AcDbLine
 62
7
  6
CONTINUOUS
 10
3.5058486935
 20
-22.4273546733
 11
4.0309029043
 21
-22.1440758809
  0
LINE
  5
471
100
AcDbEntity
  8
ASSI
100
AcDbLine
 62
7
  6
CONTINUOUS
 10
3.5016388225
 20
-22.429461568
 11
3.5058052591
 21
-22.4273780636
  0
LINE
  5
472
100
AcDbEntity
  8
ASSI
100
AcDbLine
 62
7
  6
CONTINUOUS
 10
3.7657412642
 20
-20.695338295
 11
3.7834906006
 21
-20.6869150843
  0
LINE
  5
473
100
AcDbEntity
  8
ASSI
100
AcDbLine
 62
253
  6
CONTINUOUS
 10
3.5557016337
 20
-22.3202919273
 11
1.9338015071
 21
-23.0693391537
  0
LINE
  5
474
100
AcDbEntity
  8
ASSI
100
AcDbLine
 62
7
  6
CONTINUOUS
 10
3.5015830168
 20
-22.429487341
 11
1.8787255751
 21
-23.1789766872
  0
LINE
  5
475
100
AcDbEntity
  8
ASSI
100
AcDbLine
 62
253
  6
CONTINUOUS
 10
-1.2818498404
 20
-22.5569737063
 11
3.9092550243
 21
-20.4185810699
  0
LINE
  5
476
100
AcDbEntity
  8
ASSI
100
AcDbLine
 62
7
  6
CONTINUOUS
 10
-1.4355853027
 20
-22.8379416006
 11
3.7656911325
 21
-20.6953589484
  0
LWPOLYLINE
  5
477
100
AcDbEntity
  8
ASSI
100
AcDbPolyline
 62
7
  6
CONTINUOUS
 90
4
 70
0
 10
5.5986065618
 20
24.1330393876
 10
5.5398652601
 20
24.1188197309
 10
5.4810032149
 20
24.0991862238
 10
5.4234355846
 20
24.0747537156
  0
LINE
  5
478
100
AcDbEntity
  8
ASSI
100
AcDbLine
 62
7
  6
CONTINUOUS
 10
-10.2096757662
 20
24.5785476063
 11
-10.8504920764
 21
24.7144849595
  0
LINE
  5
479
100
AcDbEntity
  8
ASSI
100
AcDbLine
 62
253
  6
CONTINUOUS
 10
-9.9332498221
 20
24.6818972172
 11
-10.6700576263
 21
24.8381973941
  0
LWPOLYLINE
  5
47A
100
AcDbEntity
  8
ASSI
100
AcDbPolyline
 62
7
  6
CONTINUOUS
 90
10
 70
0
 10
1.933096984
 20
21.334616776
 10
1.912050351
 20
21.3423932259
 10
1.8901712675
 20
21.3480158309
 10
1.8676870319
 20
21.3513893727
 10
1.8447536312
 20
21.3524452548
 10
1.8216135198
 20
21.3511257602
 10
1.798587727
 20
21.3474182705
 10
1.7758967304
 20
21.3413438879
 10
1.7537437206
 20
21.3329430372
 10
1.7495810851
 20
21.3310738699
  0
LINE
  5
47B
100
AcDbEntity
  8
ASSI
100
AcDbLine
 62
7
  6
CONTINUOUS
 10
-10.6414622442
 20
27.6223170156
 11
-10.6557504635
 21
27.6288565915
  0
LINE
  5
47C
100
AcDbEntity
  8
ASSI
100
AcDbLine
 62
7
  6
CONTINUOUS
 10
1.9450231279
 20
21.3290741243
 11
1.933096984
 21
21.334616776
  0
LINE
  5
47D
100
AcDbEntity
  8
ASSI
100
AcDbLine
 62
253
  6
CONTINUOUS
 10
3.9384062832
 20
20.272433745
 11
1.8356644575
 21
21.3238046579
  0
LINE
  5
47E
100
AcDbEntity
  8
ASSI
100
AcDbLine
 62
253
  6
CONTINUOUS
 10
-8.6480924273
 20
26.5656850869
 11
-10.7508362477
 21
27.6170550105
  0
LINE
  5
47F
100
AcDbEntity
  8
0
100
AcDbLine
 62
7
  6
CONTINUOUS
 10
17.5210605622
 20
13.4926720361
 11
17.7331925965
 21
13.3866060189
  0
LINE
  5
480
100
AcDbEntity
  8
ASSI
100
AcDbLine
 62
7
  6
CONTINUOUS
 10
4.0467460373
 20
20.2782138105
 11
1.9447608739
 21
21.3292063921
  0
LINE
  5
481
100
AcDbEntity
  8
ASSI
100
AcDbLine
 62
7
  6
CONTINUOUS
 10
-8.5397741624
 20
26.5714739078
 11
-10.6417390387
 21
27.6224563485
  0
LINE
  5
482
100
AcDbEntity
  8
0
100
AcDbLine
 62
7
  6
CONTINUOUS
 10
17.9487891193
 20
14.06537385
 11
18.0867459871
 21
13.9963954161
  0
LINE
  5
483
100
AcDbEntity
  8
RACCORDO
100
AcDbLine
 62
7
  6
CONTINUOUS
 10
8.2579617286
 20
19.7553832619
 11
8.3287078507
 21
19.7200102097
  0
LINE
  5
484
100
AcDbEntity
  8
RACCORDO
100
AcDbLine
 62
7
  6
CONTINUOUS
 10
9.6721487096
 20
19.0482897764
 11
9.7428859691
 21
19.0129211416
  0
LINE
  5
485
100
AcDbEntity
  8
RACCORDO
100
AcDbLine
 62
7
  6
CONTINUOUS
 10
13.2077091969
 20
17.2805095277
 11
13.2784553185
 21
17.2451364758
  0
LINE
  5
486
100
AcDbEntity
  8
RACCORDO
100
AcDbLine
 62
7
  6
CONTINUOUS
 10
14.6218961779
 20
16.5734160422
 11
14.6926334374
 21
16.5380474075
  0
LINE
  5
487
100
AcDbEntity
  8
RACCORDO
100
AcDbLine
 62
253
  6
CONTINUOUS
 10
14.6218961779
 20
16.5734160422
 11
13.2784553185
 21
17.2451364758
  0
LINE
  5
488
100
AcDbEntity
  8
RACCORDO
100
AcDbLine
 62
253
  6
CONTINUOUS
 10
9.6721487096
 20
19.0482897764
 11
8.3287078507
 21
19.7200102097
  0
LINE
  5
489
100
AcDbEntity
  8
ASSI
100
AcDbLine
 62
253
  6
CONTINUOUS
 10
14.7288084084
 20
16.5440505484
 11
14.7946734244
 21
16.5111180404
  0
LINE
  5
48A
100
AcDbEntity
  8
ASSI
100
AcDbLine
 62
253
  6
CONTINUOUS
 10
9.8449259561
 20
18.9859917745
 11
9.7790609401
 21
19.0189242826
  0
LINE
  5
48B
100
AcDbEntity
  8
0
100
AcDbLine
 62
7
  6
CONTINUOUS
 10
18.5110100558
 20
14.9243828648
 11
18.8292081074
 21
14.765283839
  0
LINE
  5
48C
100
AcDbEntity
  8
ASSI
100
AcDbLine
 62
7
  6
CONTINUOUS
 10
9.0514714371
 20
19.6862395681
 11
10.1121316089
 21
19.1559094822
  0
LINE
  5
48D
100
AcDbEntity
  8
ASSI
100
AcDbLine
 62
7
  6
CONTINUOUS
 10
14.0012189054
 20
17.2113658339
 11
15.0618790772
 21
16.681035748
  0
LINE
  5
48E
100
AcDbEntity
  8
ASSI
100
AcDbLine
 62
7
  6
CONTINUOUS
 10
-10.6417598138
 20
27.6224667326
 11
-10.6414685713
 21
27.6223205746
  0
LWPOLYLINE
  5
48F
100
AcDbEntity
  8
ASSI
100
AcDbPolyline
 62
7
  6
CONTINUOUS
 90
5
 70
0
 10
2.8320683607
 20
23.854095151
 10
2.7905834157
 20
23.8524607887
 10
2.7491805488
 20
23.8474690986
 10
2.7096800456
 20
23.8393063586
 10
2.6724820738
 20
23.8281979191
  0
LWPOLYLINE
  5
490
100
AcDbEntity
  8
ASSI
100
AcDbPolyline
 62
7
  6
CONTINUOUS
 90
8
 70
0
 10
-10.6557504635
 20
27.6288565915
 10
-10.6769799487
 20
27.6364176672
 10
-10.6990220914
 20
27.64179594
 10
-10.7216480465
 20
27.644898439
 10
-10.7447062282
 20
27.6456606407
 10
-10.7679677612
 20
27.6440195351
 10
-10.7910893726
 20
27.6399661207
 10
-10.8138117504
 20
27.6335340005
  0
LWPOLYLINE
  5
491
100
AcDbEntity
  8
ASSI
100
AcDbPolyline
 62
7
  6
CONTINUOUS
 90
8
 70
0
 10
5.9714486102
 20
24.0870251367
 10
5.9290942515
 20
24.1060460585
 10
5.8786958545
 20
24.1232831515
 10
5.8258119448
 20
24.1357336456
 10
5.7708651915
 20
24.1430974218
 10
5.714457332
 20
24.1451519516
 10
5.65694276
 20
24.1418153267
 10
5.5986065618
 20
24.1330393876
  0
LINE
  5
492
100
AcDbEntity
  8
0
100
AcDbLine
 62
7
  6
CONTINUOUS
 10
9.5661092738
 20
20.0594752584
 11
10.6267694456
 21
19.5291451725
  0
LINE
  5
493
100
AcDbEntity
  8
0
100
AcDbLine
 62
7
  6
CONTINUOUS
 10
14.5865674202
 20
17.5492461852
 11
15.647227592
 21
17.0189160993
  0
LINE
  5
494
100
AcDbEntity
  8
0
100
AcDbLine
 62
7
  6
CONTINUOUS
 10
14.6096025116
 20
17.5607637309
 11
14.2206937819
 21
17.7552180957
  0
LINE
  5
495
100
AcDbEntity
  8
0
100
AcDbLine
 62
7
  6
CONTINUOUS
 10
9.5891443651
 20
20.0709928041
 11
9.2709463136
 21
20.2300918298
  0
LINE
  5
496
100
AcDbEntity
  8
RACCORDO
100
AcDbLine
 62
7
  6
CONTINUOUS
 10
8.7177293203
 20
20.9397130284
 11
9.5307539347
 21
20.5332007212
  0
LINE
  5
497
100
AcDbEntity
  8
0
100
AcDbLine
 62
7
  6
CONTINUOUS
 10
11.2985208877
 20
19.6493172447
 11
14.4805014031
 21
18.058326987
  0
LINE
  5
498
100
AcDbEntity
  8
RACCORDO
100
AcDbLine
 62
7
  6
CONTINUOUS
 10
16.248268356
 20
17.1744435105
 11
18.1574566652
 21
16.2198493559
  0
LINE
  5
499
100
AcDbEntity
  8
ASSI
100
AcDbLine
 62
7
  6
CONTINUOUS
 10
3.9911175431
 20
23.4013534347
 11
0.0165481672
 21
25.3886381227
  0
LINE
  5
49A
100
AcDbEntity
  8
0
100
AcDbLine
 62
7
  6
CONTINUOUS
 10
8.8704814122
 20
21.0436852923
 11
10.2025053769
 21
20.3776733099
  0
LINE
  5
49B
100
AcDbEntity
  8
0
100
AcDbLine
 62
7
  6
CONTINUOUS
 10
11.2631655487
 20
19.847343224
 11
15.2229635233
 21
17.8674442367
  0
LINE
  5
49C
100
AcDbEntity
  8
0
100
AcDbLine
 62
7
  6
CONTINUOUS
 10
16.2836236951
 20
17.3371141508
 11
18.8292081074
 21
16.0643219447
  0
LINE
  5
49D
100
AcDbEntity
  8
ASSI
100
AcDbLine
 62
7
  6
CONTINUOUS
 10
1.5181429745
 20
25.534434086
 11
4.9152923725
 21
23.835859387
  0
LINE
  5
49E
100
AcDbEntity
  8
0
100
AcDbLine
 62
7
  6
CONTINUOUS
 10
9.5364067484
 20
21.7713827959
 11
19.8898682791
 21
16.5946520306
  0
LINE
  5
49F
100
AcDbEntity
  8
ASSI
100
AcDbLine
 62
253
  6
CONTINUOUS
 10
-2.0189662567
 20
27.842434165
 11
0.7547009523
 21
26.4556005606
  0
LINE
  5
4A0
100
AcDbEntity
  8
ASSI
100
AcDbLine
 62
253
  6
CONTINUOUS
 10
5.5328556076
 20
24.0665232329
 11
8.3065228165
 21
22.6796896284
  0
LINE
  5
4A1
100
AcDbEntity
  8
ASSI
100
AcDbLine
 62
7
  6
CONTINUOUS
 10
-1.739484739
 20
27.9424931761
 11
1.1867280644
 21
26.4793867744
  0
LINE
  5
4A2
100
AcDbEntity
  8
ASSI
100
AcDbLine
 62
7
  6
CONTINUOUS
 10
5.9705742567
 20
24.0874636783
 11
8.89678706
 21
22.6243572766
  0
LINE
  5
4A3
100
AcDbEntity
  8
0
100
AcDbLine
 62
7
  6
CONTINUOUS
 10
21.2333711634
 20
12.6764688327
 11
20.5969750603
 21
16.0821800174
  0
LINE
  5
4A4
100
AcDbEntity
  8
ASSI
100
AcDbLine
 62
7
  6
CONTINUOUS
 10
0.0165481672
 20
25.3886381227
 11
1.4464555868
 21
25.4731579326
  0
LWPOLYLINE
  5
4A5
100
AcDbEntity
  8
ASSI
100
AcDbPolyline
 62
7
  6
CONTINUOUS
 90
5
 70
0
 10
-2.777087955
 20
26.6586733088
 10
-2.8185729
 20
26.6570389465
 10
-2.8599757669
 20
26.6520472564
 10
-2.89947627
 20
26.6438845164
 10
-2.9366742418
 20
26.6327760769
  0
LINE
  5
4A6
100
AcDbEntity
  8
0
100
AcDbLine
 62
7
  6
CONTINUOUS
 10
20.5969750603
 20
16.0821800174
 11
19.8898682791
 21
16.5946520306
  0
ARC
  5
4A7
100
AcDbEntity
  8
RACCORDO
100
AcDbCircle
 62
253
  6
CONTINUOUS
 10
-14.8768833325
 20
17.3052625502
 40
1.6696247919
100
AcDbArc
 50
182.9878888457
 51
185.9231830951
  0
ARC
  5
4A8
100
AcDbEntity
  8
RACCORDO
100
AcDbCircle
 62
253
  6
CONTINUOUS
 10
-14.9849235242
 20
17.2992543402
 40
1.5614183391
100
AcDbArc
 50
180.7902938668
 51
182.9743682469
  0
ARC
  5
4A9
100
AcDbEntity
  8
RACCORDO
100
AcDbCircle
 62
7
  6
CONTINUOUS
 10
6.332423508
 20
-1.4783796897
 40
1.5344301353
100
AcDbArc
 50
322.9860544051
 51
326.7428367006
  0
ARC
  5
4AA
100
AcDbEntity
  8
RACCORDO
100
AcDbCircle
 62
253
  6
CONTINUOUS
 10
-15.0804975919
 20
17.2978992675
 40
1.4658346731
100
AcDbArc
 50
178.0524877437
 51
180.7888589484
  0
ARC
  5
4AB
100
AcDbEntity
  8
RACCORDO
100
AcDbCircle
 62
7
  6
CONTINUOUS
 10
6.4009407492
 20
-1.5298359278
 40
1.4487427419
100
AcDbArc
 50
320.2936132769
 51
322.9796956927
  0
ARC
  5
4AC
100
AcDbEntity
  8
RACCORDO
100
AcDbCircle
 62
7
  6
CONTINUOUS
 10
15.2181375007
 20
8.4428923316
 40
0.9917187484
100
AcDbArc
 50
232.9697544822
 51
234.1011808752
  0
ARC
  5
4AD
100
AcDbEntity
  8
RACCORDO
100
AcDbCircle
 62
7
  6
CONTINUOUS
 10
7.0896116048
 20
7.3040841803
 40
0.9562186171
100
AcDbArc
 50
359.9398060924
 51
6.2739166969
  0
ARC
  5
4AE
100
AcDbEntity
  8
RACCORDO
100
AcDbCircle
 62
7
  6
CONTINUOUS
 10
7.0896116048
 20
-0.316939373
 40
0.9562186171
100
AcDbArc
 50
359.9398060924
 51
6.2739166969
  0
ARC
  5
4AF
100
AcDbEntity
  8
RACCORDO
100
AcDbCircle
 62
7
  6
CONTINUOUS
 10
14.8587048608
 20
15.936244513
 40
0.8009747759
100
AcDbArc
 50
105.0283078092
 51
107.1945646212
  0
ARC
  5
4B0
100
AcDbEntity
  8
RACCORDO
100
AcDbCircle
 62
7
  6
CONTINUOUS
 10
9.9089573925
 20
18.4111182471
 40
0.800974776
100
AcDbArc
 50
105.0283078092
 51
107.1945646211
  0
ARC
  5
4B1
100
AcDbEntity
  8
RACCORDO
100
AcDbCircle
 62
7
  6
CONTINUOUS
 10
14.8460006451
 20
15.9849203419
 40
0.7506696928
100
AcDbArc
 50
100.3146126575
 51
105.0551559746
  0
ARC
  5
4B2
100
AcDbEntity
  8
RACCORDO
100
AcDbCircle
 62
7
  6
CONTINUOUS
 10
9.8962531767
 20
18.459794076
 40
0.7506696928
100
AcDbArc
 50
100.3146126575
 51
105.0551559746
  0
ARC
  5
4B3
100
AcDbEntity
  8
0
100
AcDbCircle
 62
7
  6
CONTINUOUS
 10
7.0674602473
 20
-1.9162819057
 40
0.6843458974
100
AcDbArc
 50
296.6183453477
 51
300.3952842612
  0
ARC
  5
4B4
100
AcDbEntity
  8
RACCORDO
100
AcDbCircle
 62
7
  6
CONTINUOUS
 10
16.2441939654
 20
7.973712704
 40
0.5027192534
100
AcDbArc
 50
146.0782663464
 51
149.8946009227
  0
ARC
  5
4B5
100
AcDbEntity
  8
RACCORDO
100
AcDbCircle
 62
7
  6
CONTINUOUS
 10
9.8875937509
 20
18.7103394002
 40
0.4990513239
100
AcDbArc
 50
51.4055210548
 51
57.4893819212
  0
ARC
  5
4B6
100
AcDbEntity
  8
RACCORDO
100
AcDbCircle
 62
7
  6
CONTINUOUS
 10
14.8373412192
 20
16.2354656661
 40
0.4990513239
100
AcDbArc
 50
51.4055210548
 51
57.4893819212
  0
ARC
  5
4B7
100
AcDbEntity
  8
RACCORDO
100
AcDbCircle
 62
7
  6
CONTINUOUS
 10
15.0661585433
 20
5.9542377659
 40
0.4965318866
100
AcDbArc
 50
149.8875035391
 51
153.7354931531
  0
ARC
  5
4B8
100
AcDbEntity
  8
RACCORDO
100
AcDbCircle
 62
253
  6
CONTINUOUS
 10
-5.0251567384
 20
4.195523728
 40
0.4882165816
100
AcDbArc
 50
23.082560427
 51
31.3728739107
  0
ARC
  5
4B9
100
AcDbEntity
  8
RACCORDO
100
AcDbCircle
 62
7
  6
CONTINUOUS
 10
9.894251509
 20
18.7204165574
 40
0.4869751284
100
AcDbArc
 50
57.5127256393
 51
63.3930100948
  0
ARC
  5
4BA
100
AcDbEntity
  8
RACCORDO
100
AcDbCircle
 62
7
  6
CONTINUOUS
 10
14.8439989773
 20
16.2455428232
 40
0.4869751284
100
AcDbArc
 50
57.5127256393
 51
63.3930100948
  0
ARC
  5
4BB
100
AcDbEntity
  8
ASSI
100
AcDbCircle
 62
253
  6
CONTINUOUS
 10
-16.6607906763
 20
-15.0460934781
 40
0.4679501358
100
AcDbArc
 50
236.6435688028
 51
237.3495177374
  0
ARC
  5
4BC
100
AcDbEntity
  8
ASSI
100
AcDbCircle
 62
253
  6
CONTINUOUS
 10
-16.6622303301
 20
-15.048366945
 40
0.4652592166
100
AcDbArc
 50
237.347743328
 51
240.4077048459
  0
ARC
  5
4BD
100
AcDbEntity
  8
RACCORDO
100
AcDbCircle
 62
7
  6
CONTINUOUS
 10
-4.2174068279
 20
4.4198032377
 40
0.3549343889
100
AcDbArc
 50
151.5196335586
 51
158.2057968549
  0
ARC
  5
4BE
100
AcDbEntity
  8
RACCORDO
100
AcDbCircle
 62
7
  6
CONTINUOUS
 10
-15.7649171082
 20
-4.0524365889
 40
0.3142997695
100
AcDbArc
 50
294.543797906
 51
296.6398902832
  0
ARC
  5
4BF
100
AcDbEntity
  8
RACCORDO
100
AcDbCircle
 62
7
  6
CONTINUOUS
 10
-14.6329860727
 20
-4.6929507885
 40
0.3104908663
100
AcDbArc
 50
295.1734562345
 51
296.6471042603
  0
ARC
  5
4C0
100
AcDbEntity
  8
RACCORDO
100
AcDbCircle
 62
7
  6
CONTINUOUS
 10
-14.609372962
 20
-6.111333469
 40
0.3093350639
100
AcDbArc
 50
295.3768219101
 51
296.648843035
  0
ARC
  5
4C1
100
AcDbEntity
  8
ASSI
100
AcDbCircle
 62
7
  6
CONTINUOUS
 10
17.3605233168
 20
1.5152738159
 40
0.3031583306
100
AcDbArc
 50
340.278578003
 51
345.4456214908
  0
ARC
  5
4C2
100
AcDbEntity
  8
RACCORDO
100
AcDbCircle
 62
7
  6
CONTINUOUS
 10
-5.4986289311
 20
-9.6545412204
 40
0.2839236764
100
AcDbArc
 50
117.4479343285
 51
119.0121363251
  0
ARC
  5
4C3
100
AcDbEntity
  8
RACCORDO
100
AcDbCircle
 62
253
  6
CONTINUOUS
 10
11.0998707201
 20
-1.0718706067
 40
0.2300263596
100
AcDbArc
 50
241.0076588831
 51
243.1122862863
  0
ARC
  5
4C4
100
AcDbEntity
  8
ASSI
100
AcDbCircle
 62
7
  6
CONTINUOUS
 10
3.6932140437
 20
-20.5200515775
 40
0.1897068997
100
AcDbArc
 50
298.4131232313
 51
301.183179147
  0
ARC
  5
4C5
100
AcDbEntity
  8
ASSI
100
AcDbCircle
 62
253
  6
CONTINUOUS
 10
3.9643563211
 20
-21.4719003772
 40
0.1325016742
100
AcDbArc
 50
54.4471051637
 51
63.5321853897
  0
ARC
  5
4C6
100
AcDbEntity
  8
RACCORDO
100
AcDbCircle
 62
7
  6
CONTINUOUS
 10
10.9053877795
 20
-1.0066307578
 40
0.1120308218
100
AcDbArc
 50
286.7947950498
 51
296.5482703847
  0
ARC
  5
4C7
100
AcDbEntity
  8
ASSI
100
AcDbCircle
 62
253
  6
CONTINUOUS
 10
4.004337388
 20
-21.4462616656
 40
0.0949111581
100
AcDbArc
 50
63.6308652201
 51
78.3745314914
  0
ARC
  5
4C8
100
AcDbEntity
  8
ASSI
100
AcDbCircle
 62
253
  6
CONTINUOUS
 10
-10.6839149336
 20
27.5381150696
 40
0.0942986567
100
AcDbArc
 50
63.4461754459
 51
66.0333017029
  0
ARC
  5
4C9
100
AcDbEntity
  8
RACCORDO
100
AcDbCircle
 62
253
  6
CONTINUOUS
 10
66.5801608806
 20
171.8124068739
 40
172.3103937538
100
AcDbArc
 50
246.1937069194
 51
246.3878242146
  0
ARC
  5
4CA
100
AcDbEntity
  8
RACCORDO
100
AcDbCircle
 62
253
  6
CONTINUOUS
 10
61.7395708825
 20
161.8950625035
 40
159.6835751656
100
AcDbArc
 50
246.4026408547
 51
246.61325045
  0
ARC
  5
4CB
100
AcDbEntity
  8
RACCORDO
100
AcDbCircle
 62
253
  6
CONTINUOUS
 10
57.2424812601
 20
148.3348907156
 40
151.2769543365
100
AcDbArc
 50
245.0353385742
 51
246.0006382569
  0
ARC
  5
4CC
100
AcDbEntity
  8
RACCORDO
100
AcDbCircle
 62
253
  6
CONTINUOUS
 10
55.7324314024
 20
145.0663076338
 40
148.0148508537
100
AcDbArc
 50
245.1071111435
 51
246.1246004644
  0
ARC
  5
4CD
100
AcDbEntity
  8
RACCORDO
100
AcDbCircle
 62
253
  6
CONTINUOUS
 10
52.2231453479
 20
133.2323866037
 40
140.4435680039
100
AcDbArc
 50
245.3005982815
 51
246.2609801943
  0
ARC
  5
4CE
100
AcDbEntity
  8
RACCORDO
100
AcDbCircle
 62
253
  6
CONTINUOUS
 10
51.9863938916
 20
137.01608224
 40
139.1357275793
100
AcDbArc
 50
242.7596952831
 51
245.1110189883
  0
ARC
  5
4CF
100
AcDbEntity
  8
RACCORDO
100
AcDbCircle
 62
253
  6
CONTINUOUS
 10
50.9698167297
 20
115.8391165111
 40
137.866610555
100
AcDbArc
 50
245.7692090714
 51
246.3492089604
  0
ARC
  5
4D0
100
AcDbEntity
  8
RACCORDO
100
AcDbCircle
 62
253
  6
CONTINUOUS
 10
50.5540840149
 20
139.7495633873
 40
136.4494638676
100
AcDbArc
 50
240.2345260062
 51
240.4613160986
  0
ARC
  5
4D1
100
AcDbEntity
  8
RACCORDO
100
AcDbCircle
 62
253
  6
CONTINUOUS
 10
50.2992645
 20
114.3747763423
 40
135.8327356069
100
AcDbArc
 50
245.6821924512
 51
246.2326943078
  0
ARC
  5
4D2
100
AcDbEntity
  8
RACCORDO
100
AcDbCircle
 62
253
  6
CONTINUOUS
 10
48.986223445
 20
109.8453884709
 40
132.4456966353
100
AcDbArc
 50
244.3400471288
 51
245.4519611372
  0
ARC
  5
4D3
100
AcDbEntity
  8
RACCORDO
100
AcDbCircle
 62
253
  6
CONTINUOUS
 10
46.7358247709
 20
121.6055144867
 40
127.5875267943
100
AcDbArc
 50
241.9114547039
 51
245.3457827849
  0
ARC
  5
4D4
100
AcDbEntity
  8
RACCORDO
100
AcDbCircle
 62
253
  6
CONTINUOUS
 10
47.3920414513
 20
133.1337502949
 40
127.525727545
100
AcDbArc
 50
240.0001638635
 51
240.2448375122
  0
ARC
  5
4D5
100
AcDbEntity
  8
RACCORDO
100
AcDbCircle
 62
253
  6
CONTINUOUS
 10
46.6234970626
 20
126.501218109
 40
127.3323026862
100
AcDbArc
 50
240.5689190254
 51
242.7395467355
  0
ARC
  5
4D6
100
AcDbEntity
  8
RACCORDO
100
AcDbCircle
 62
253
  6
CONTINUOUS
 10
46.1642700874
 20
103.9595686893
 40
125.9183489262
100
AcDbArc
 50
242.7987023891
 51
244.3377358031
  0
ARC
  5
4D7
100
AcDbEntity
  8
RACCORDO
100
AcDbCircle
 62
253
  6
CONTINUOUS
 10
43.9607973054
 20
99.6195743449
 40
121.0510869506
100
AcDbArc
 50
242.5599047494
 51
242.7793194748
  0
ARC
  5
4D8
100
AcDbEntity
  8
RACCORDO
100
AcDbCircle
 62
253
  6
CONTINUOUS
 10
42.6209401708
 20
97.049910236
 40
118.1530935794
100
AcDbArc
 50
241.2853193776
 51
242.5623094655
  0
ARC
  5
4D9
100
AcDbEntity
  8
RACCORDO
100
AcDbCircle
 62
253
  6
CONTINUOUS
 10
41.9754972218
 20
112.6257416024
 40
117.4240545989
100
AcDbArc
 50
240.7775835817
 51
241.8976289551
  0
ARC
  5
4DA
100
AcDbEntity
  8
RACCORDO
100
AcDbCircle
 62
253
  6
CONTINUOUS
 10
40.6707019737
 20
110.2854837822
 40
114.7446362406
100
AcDbArc
 50
240.5457047648
 51
240.7737210602
  0
ARC
  5
4DB
100
AcDbEntity
  8
RACCORDO
100
AcDbCircle
 62
253
  6
CONTINUOUS
 10
40.8385647925
 20
93.7643020161
 40
114.4152012478
100
AcDbArc
 50
241.0882646459
 51
241.27761738
  0
ARC
  5
4DC
100
AcDbEntity
  8
RACCORDO
100
AcDbCircle
 62
253
  6
CONTINUOUS
 10
40.2340410176
 20
109.5119085635
 40
113.8563280839
100
AcDbArc
 50
240.3829307048
 51
240.5456203679
  0
ARC
  5
4DD
100
AcDbEntity
  8
RACCORDO
100
AcDbCircle
 62
253
  6
CONTINUOUS
 10
39.2361462031
 20
92.288291088
 40
111.5449733095
100
AcDbArc
 50
240.2844001035
 51
240.9523542737
  0
ARC
  5
4DE
100
AcDbEntity
  8
RACCORDO
100
AcDbCircle
 62
253
  6
CONTINUOUS
 10
39.2405367223
 20
92.1875694785
 40
111.0338014516
100
AcDbArc
 50
240.3818059964
 51
241.0523798852
  0
ARC
  5
4DF
100
AcDbEntity
  8
RACCORDO
100
AcDbCircle
 62
253
  6
CONTINUOUS
 10
522.6403320822
 20
-4.4858065668
 40
525.9421844549
100
AcDbArc
 50
177.9680860932
 51
178.368803324
  0
ARC
  5
4E0
100
AcDbEntity
  8
ASSI
100
AcDbCircle
 62
253
  6
CONTINUOUS
 10
523.339794966
 20
-4.7256940534
 40
525.4353650596
100
AcDbArc
 50
177.9667098319
 51
178.2417372964
  0
ARC
  5
4E1
100
AcDbEntity
  8
RACCORDO
100
AcDbCircle
 62
253
  6
CONTINUOUS
 10
507.995850326
 20
2.4163030445
 40
525.0440577623
100
AcDbArc
 50
177.9677433637
 51
178.3691460536
  0
ARC
  5
4E2
100
AcDbEntity
  8
RACCORDO
100
AcDbCircle
 62
253
  6
CONTINUOUS
 10
503.1880553271
 20
2.4288750302
 40
519.9476178336
100
AcDbArc
 50
177.9651610759
 51
178.3557885088
  0
ARC
  5
4E3
100
AcDbEntity
  8
ASSI
100
AcDbCircle
 62
253
  6
CONTINUOUS
 10
513.6082636051
 20
-4.151550782
 40
516.3625745841
100
AcDbArc
 50
177.9933993732
 51
182.0066006234
  0
ARC
  5
4E4
100
AcDbEntity
  8
RACCORDO
100
AcDbCircle
 62
253
  6
CONTINUOUS
 10
499.2858943667
 20
2.1634165257
 40
515.9674487381
100
AcDbArc
 50
177.9274120678
 51
178.3280452144
  0
ARC
  5
4E5
100
AcDbEntity
  8
RACCORDO
100
AcDbCircle
 62
253
  6
CONTINUOUS
 10
511.3017609082
 20
-4.281232684
 40
515.0323693162
100
AcDbArc
 50
177.9270512653
 51
178.3355279674
  0
ARC
  5
4E6
100
AcDbEntity
  8
ASSI
100
AcDbCircle
 62
253
  6
CONTINUOUS
 10
495.7074233374
 20
3.2227941233
 40
513.2123688906
100
AcDbArc
 50
177.9810773514
 51
182.0189226461
  0
ARC
  5
4E7
100
AcDbEntity
  8
ASSI
100
AcDbCircle
 62
253
  6
CONTINUOUS
 10
508.3396622635
 20
-4.3145598619
 40
510.4296824647
100
AcDbArc
 50
178.2362029956
 51
180.5660002909
  0
ARC
  5
4E8
100
AcDbEntity
  8
RACCORDO
100
AcDbCircle
 62
253
  6
CONTINUOUS
 10
506.5678963211
 20
-4.2778007415
 40
510.0285029577
100
AcDbArc
 50
177.9075964495
 51
178.3198515668
  0
ARC
  5
4E9
100
AcDbEntity
  8
ASSI
100
AcDbCircle
 62
253
  6
CONTINUOUS
 10
483.3269686828
 20
-4.4395474546
 40
485.416971964
100
AcDbArc
 50
180.6287282345
 51
182.0975771257
  0
ARC
  5
4EA
100
AcDbEntity
  8
RACCORDO
100
AcDbCircle
 62
253
  6
CONTINUOUS
 10
468.2704798444
 20
2.1591036918
 40
483.9408621498
100
AcDbArc
 50
179.0520963891
 51
179.1903274247
  0
ARC
  5
4EB
100
AcDbEntity
  8
RACCORDO
100
AcDbCircle
 62
253
  6
CONTINUOUS
 10
474.9682327722
 20
-3.5863351189
 40
479.3535377173
100
AcDbArc
 50
179.1490379933
 51
180.8201442702
  0
ARC
  5
4EC
100
AcDbEntity
  8
RACCORDO
100
AcDbCircle
 62
253
  6
CONTINUOUS
 10
460.4560412053
 20
2.2807413316
 40
476.5623537202
100
AcDbArc
 50
179.0079546013
 51
180.8257613912
  0
ARC
  5
4ED
100
AcDbEntity
  8
RACCORDO
100
AcDbCircle
 62
253
  6
CONTINUOUS
 10
456.2553594431
 20
2.2626192675
 40
471.9254657525
100
AcDbArc
 50
179.1977168663
 51
180.7596752744
  0
ARC
  5
4EE
100
AcDbEntity
  8
RACCORDO
100
AcDbCircle
 62
253
  6
CONTINUOUS
 10
430.12315282
 20
1.517642515
 40
445.0971219514
100
AcDbArc
 50
180.8681908618
 51
181.0507264145
  0
ARC
  5
4EF
100
AcDbEntity
  8
RACCORDO
100
AcDbCircle
 62
253
  6
CONTINUOUS
 10
439.0815211682
 20
-3.1433626058
 40
444.745211823
100
AcDbArc
 50
180.8681190424
 51
181.0507990285
  0
ARC
  5
4F0
100
AcDbEntity
  8
RACCORDO
100
AcDbCircle
 62
253
  6
CONTINUOUS
 10
427.0391842104
 20
1.5177870321
 40
441.5805862653
100
AcDbArc
 50
180.8418910146
 51
181.0258183348
  0
LINE
  5
4F1
100
AcDbEntity
  8
RACCORDO
100
AcDbLine
 62
253
  6
CONTINUOUS
 10
-16.461887137
 20
17.217785703
 11
-16.4637489495
 21
17.1538454418
  0
SPLINE
  5
4F2
100
AcDbEntity
  8
RACCORDO
100
AcDbSpline
 62
253
  6
CONTINUOUS
 70
0
 71
3
 72
9
 73
5
 74
3
 42
0.0000001
 43
0.0000001
 44
0.0000000001
 12
-13.2502928466
 22
5.8326488848
 32
0.0
 13
-12.5916315929
 23
7.1442891433
 33
0.0
 40
0.0
 40
0.0
 40
0.0
 40
0.0
 40
0.256412245
 40
1.0
 40
1.0
 40
1.0
 40
1.0
 10
-2.5912969592
 20
15.7431480196
 30
0.0
 10
-3.7238094047
 20
16.2416688846
 30
0.0
 10
-8.1174838866
 20
18.2376206351
 30
0.0
 10
-12.4160633308
 20
20.4452264433
 30
0.0
 10
-15.5370576866
 20
22.2160284182
 30
0.0
 11
-2.5912969592
 21
15.7431480196
 31
0.0
 11
-5.9707410443
 21
17.2791574933
 31
0.0
 11
-15.5370576866
 21
22.2160284182
 31
0.0
  0
SPLINE
  5
4F3
100
AcDbEntity
  8
RACCORDO
100
AcDbSpline
 62
253
  6
CONTINUOUS
 70
0
 71
3
 72
9
 73
5
 74
3
 42
0.0000001
 43
0.0000001
 44
0.0000000001
 12
-13.2429022163
 22
5.8650165525
 32
0.0
 13
-12.6138596558
 23
7.1178243064
 33
0.0
 40
0.0
 40
0.0
 40
0.0
 40
0.0
 40
0.5086963776
 40
1.0
 40
1.0
 40
1.0
 40
1.0
 10
-3.3934395873
 20
14.3484055191
 30
0.0
 10
-5.6389783828
 20
15.342909744
 30
0.0
 10
-10.0105919994
 20
17.3961157428
 30
0.0
 10
-14.2783783767
 20
19.6580764525
 30
0.0
 10
-16.3441233571
 20
20.8237474076
 30
0.0
 11
-3.3934395873
 21
14.3484055191
 31
0.0
 11
-10.059758822
 21
17.4858465271
 31
0.0
 11
-16.3441233571
 21
20.8237474076
 31
0.0
  0
SPLINE
  5
4F4
100
AcDbEntity
  8
RACCORDO
100
AcDbSpline
 62
253
  6
CONTINUOUS
 70
0
 71
3
 72
11
 73
7
 74
5
 42
0.0000001
 43
0.0000001
 44
0.0000000001
 12
0.0594981364
 22
1.6654337517
 32
0.0
 13
1.4496107271
 23
0.8220938812
 33
0.0
 40
0.0
 40
0.0
 40
0.0
 40
0.0
 40
0.2476010117
 40
0.5109867455
 40
0.7684064558
 40
1.0
 40
1.0
 40
1.0
 40
1.0
 10
-3.3934395845
 20
14.3484055206
 30
0.0
 10
-3.3885289849
 20
14.4858598812
 30
0.0
 10
-3.3358449349
 20
14.7685431822
 30
0.0
 10
-3.1636253833
 20
15.1626076602
 30
0.0
 10
-2.9156594864
 20
15.5030611059
 30
0.0
 10
-2.7032037879
 20
15.679684141
 30
0.0
 10
-2.5912969593
 20
15.7431480196
 30
0.0
 11
-3.3934395845
 21
14.3484055206
 31
0.0
 11
-3.3229524959
 21
14.7549665953
 31
0.0
 11
-3.1482432919
 21
15.1576294859
 31
0.0
 11
-2.8929345382
 21
15.5023742865
 31
0.0
 11
-2.5912969593
 21
15.7431480196
 31
0.0
  0
SPLINE
  5
4F5
100
AcDbEntity
  8
RACCORDO
100
AcDbSpline
 62
253
  6
CONTINUOUS
 70
0
 71
3
 72
9
 73
5
 74
3
 42
0.0000001
 43
0.0000001
 44
0.0000000001
 12
-0.1234018754
 22
-0.0692898796
 32
0.0
 13
-0.1140132
 23
-0.0838456944
 33
0.0
 40
0.0
 40
0.0
 40
0.0
 40
0.0
 40
0.2439562331
 40
1.0
 40
1.0
 40
1.0
 40
1.0
 10
-15.5370576948
 20
22.2160284135
 30
0.0
 10
-15.5470925803
 20
22.2103938475
 30
0.0
 10
-15.5878430066
 20
22.1866176404
 30
0.0
 10
-15.6270599618
 20
22.1602380972
 30
0.0
 10
-15.6557929516
 20
22.139107759
 30
0.0
 11
-15.5370576948
 21
22.2160284135
 31
0.0
 11
-15.5668839573
 21
22.1986382031
 31
0.0
 11
-15.6557929516
 21
22.139107759
 31
0.0
  0
SPLINE
  5
4F6
100
AcDbEntity
  8
RACCORDO
100
AcDbSpline
 62
253
  6
CONTINUOUS
 70
0
 71
3
 72
11
 73
7
 74
5
 42
0.0000001
 43
0.0000001
 44
0.0000000001
 12
-1.2301804565
 22
-0.9046788842
 32
0.0
 13
-0.0560478154
 23
-1.5259903281
 33
0.0
 40
0.0
 40
0.0
 40
0.0
 40
0.0
 40
0.2395533861
 40
0.4974193745
 40
0.7566739133
 40
1.0
 40
1.0
 40
1.0
 40
1.0
 10
-15.6557929516
 20
22.139107759
 30
0.0
 10
-15.7540242495
 20
22.066868129
 30
0.0
 10
-15.937016306
 20
21.8876320072
 30
0.0
 10
-16.1497959421
 20
21.5636545227
 30
0.0
 10
-16.2953181029
 20
21.2023358777
 30
0.0
 10
-16.3395773447
 20
20.9475185028
 30
0.0
 10
-16.3441233099
 20
20.8237474179
 30
0.0
 11
-15.6557929516
 21
22.139107759
 31
0.0
 11
-15.9202795129
 21
21.8864055087
 31
0.0
 11
-16.1378532647
 21
21.5582080271
 31
0.0
 11
-16.2845513355
 21
21.1905044291
 31
0.0
 11
-16.3441233099
 21
20.8237474179
 31
0.0
  0
SPLINE
  5
4F7
100
AcDbEntity
  8
RACCORDO
100
AcDbSpline
 62
253
  6
CONTINUOUS
 70
0
 71
3
 72
9
 73
5
 74
3
 42
0.0000001
 43
0.0000001
 44
0.0000000001
 12
-0.0852341322
 22
0.0418344734
 32
0.0
 13
-0.0824600753
 23
-0.0470671481
 33
0.0
 40
0.0
 40
0.0
 40
0.0
 40
0.0
 40
0.5425186038
 40
1.0
 40
1.0
 40
1.0
 40
1.0
 10
-15.5370576948
 20
22.2160284135
 30
0.0
 10
-15.5524713956
 20
22.2235937402
 30
0.0
 10
-15.5834378847
 20
22.2338526228
 30
0.0
 10
-15.6164892879
 20
22.2274815528
 30
0.0
 10
-15.629063938
 20
22.2203041046
 30
0.0
 11
-15.5370576948
 21
22.2160284135
 31
0.0
 11
-15.5866848338
 21
22.2298303748
 31
0.0
 11
-15.629063938
 21
22.2203041046
 31
0.0
  0
SPLINE
  5
4F8
100
AcDbEntity
  8
RACCORDO
100
AcDbSpline
 62
253
  6
CONTINUOUS
 70
0
 71
3
 72
11
 73
7
 74
5
 42
0.0000001
 43
0.0000001
 44
0.0000000001
 12
-0.0757701489
 22
0.0423207988
 32
0.0
 13
0.0030432222
 23
0.0867346775
 33
0.0
 40
0.0
 40
0.0
 40
0.0
 40
0.0
 40
0.3042533211
 40
0.5682105755
 40
0.7952834351
 40
1.0
 40
1.0
 40
1.0
 40
1.0
 10
-16.3441233571
 20
20.8237474082
 30
0.0
 10
-16.3518077969
 20
20.8280394894
 30
0.0
 10
-16.3656296487
 20
20.8370951328
 30
0.0
 10
-16.3822720825
 20
20.8532552173
 30
0.0
 10
-16.392652809
 20
20.8708648528
 30
0.0
 10
-16.3948534102
 20
20.8835326949
 30
0.0
 10
-16.3946457442
 20
20.88945137
 30
0.0
 11
-16.3441233571
 21
20.8237474082
 31
0.0
 11
-16.3660561423
 21
20.8384513573
 31
0.0
 11
-16.3821917137
 21
20.8547128196
 31
0.0
 11
-16.3918132631
 21
20.8719116548
 31
0.0
 11
-16.3946457442
 21
20.88945137
 31
0.0
  0
SPLINE
  5
4F9
100
AcDbEntity
  8
RACCORDO
100
AcDbSpline
 62
253
  6
CONTINUOUS
 70
0
 71
3
 72
11
 73
7
 74
5
 42
0.0000001
 43
0.0000001
 44
0.0000000001
 12
-0.0748732207
 22
0.0423628897
 32
0.0
 13
0.0024714398
 23
0.0859913112
 33
0.0
 40
0.0
 40
0.0
 40
0.0
 40
0.0
 40
0.3025054532
 40
0.5658575735
 40
0.7936321692
 40
1.0
 40
1.0
 40
1.0
 40
1.0
 10
-16.463650403
 20
17.1537896065
 30
0.0
 10
-16.4712002555
 20
17.1580612749
 30
0.0
 10
-16.4847897293
 20
17.1670849078
 30
0.0
 10
-16.501141132
 20
17.1831840218
 30
0.0
 10
-16.5113530715
 20
17.20073594
 30
0.0
 10
-16.5135528237
 20
17.2133438274
 30
0.0
 10
-16.5133828151
 20
17.2192591075
 30
0.0
 11
-16.463650403
 21
17.1537896065
 31
0.0
 11
-16.4851781666
 21
17.1684108995
 31
0.0
 11
-16.501032171
 21
17.1845946942
 31
0.0
 11
-16.5105223654
 21
17.2017378974
 31
0.0
 11
-16.5133828151
 21
17.2192591075
 31
0.0
  0
SPLINE
  5
4FA
100
AcDbEntity
  8
RACCORDO
100
AcDbSpline
 62
253
  6
CONTINUOUS
 70
0
 71
3
 72
11
 73
7
 74
5
 42
0.0000001
 43
0.0000001
 44
0.0000000001
 12
-0.0038541339
 22
-0.1310361297
 32
0.0
 13
0.114319721
 23
-0.0641585771
 33
0.0
 40
0.0
 40
0.0
 40
0.0
 40
0.0
 40
0.2843580008
 40
0.5434420101
 40
0.7787543084
 40
1.0
 40
1.0
 40
1.0
 40
1.0
 10
-15.8282968761
 20
15.9070493691
 30
0.0
 10
-15.828662194
 20
15.8946289785
 30
0.0
 10
-15.8272162873
 20
15.8707440778
 30
0.0
 10
-15.8177532362
 20
15.8377041467
 30
0.0
 10
-15.8010489654
 20
15.8107287051
 30
0.0
 10
-15.785296363
 20
15.7977551372
 30
0.0
 10
-15.7768654478
 20
15.7930235343
 30
0.0
 11
-15.8282968761
 21
15.9070493691
 31
0.0
 11
-15.8257368817
 21
15.8698600901
 31
0.0
 11
-15.8159450815
 21
15.8373381409
 31
0.0
 11
-15.7993669719
 21
15.8113237254
 31
0.0
 11
-15.7768654478
 21
15.7930235343
 31
0.0
  0
SPLINE
  5
4FB
100
AcDbEntity
  8
RACCORDO
100
AcDbSpline
 62
253
  6
CONTINUOUS
 70
0
 71
3
 72
11
 73
7
 74
5
 42
0.0000001
 43
0.0000001
 44
0.0000000001
 12
-0.0035424232
 22
-0.1319741089
 32
0.0
 13
0.1206285719
 23
-0.0536512982
 33
0.0
 40
0.0
 40
0.0
 40
0.0
 40
0.0
 40
0.2979777591
 40
0.5615343757
 40
0.7912971712
 40
1.0
 40
1.0
 40
1.0
 40
1.0
 10
-4.2858597065
 20
10.1358308854
 30
0.0
 10
-4.2862115609
 20
10.1227224356
 30
0.0
 10
-4.2848112191
 20
10.0978785791
 30
0.0
 10
-4.2754379893
 20
10.0639831324
 30
0.0
 10
-4.2588209355
 20
10.0372916865
 30
0.0
 10
-4.2427730246
 20
10.0254959934
 30
0.0
 10
-4.2343811832
 20
10.0217636008
 30
0.0
 11
-4.2858597065
 21
10.1358308854
 31
0.0
 11
-4.2832466868
 21
10.0965782494
 31
0.0
 11
-4.2733726813
 21
10.0632134716
 31
0.0
 11
-4.256765691
 21
10.03782964
 31
0.0
 11
-4.2343811832
 21
10.0217636008
 31
0.0
  0
SPLINE
  5
4FC
100
AcDbEntity
  8
RACCORDO
100
AcDbSpline
 62
253
  6
CONTINUOUS
 70
0
 71
3
 72
11
 73
7
 74
5
 42
0.0000001
 43
0.0000001
 44
0.0000000001
 12
0.0509610404
 22
1.389795148
 32
0.0
 13
1.2158957353
 23
0.6750741751
 33
0.0
 40
0.0
 40
0.0
 40
0.0
 40
0.0
 40
0.2471700934
 40
0.5102109901
 40
0.7676896243
 40
1.0
 40
1.0
 40
1.0
 40
1.0
 10
-3.1205417305
 20
14.3439592669
 30
0.0
 10
-3.1163430488
 20
14.4584645324
 30
0.0
 10
-3.0717846466
 20
14.6939704767
 30
0.0
 10
-2.9262673716
 20
15.0217374099
 30
0.0
 10
-2.7168852111
 20
15.3043835235
 30
0.0
 10
-2.5378687495
 20
15.450280398
 30
0.0
 10
-2.4437136845
 20
15.5025559764
 30
0.0
 11
-3.1205417305
 21
14.3439592669
 31
0.0
 11
-3.0609309221
 21
14.6824977645
 31
0.0
 11
-2.9134391816
 21
15.0172655446
 31
0.0
 11
-2.6980592613
 21
15.303333641
 31
0.0
 11
-2.4437136845
 21
15.5025559764
 31
0.0
  0
SPLINE
  5
4FD
100
AcDbEntity
  8
RACCORDO
100
AcDbSpline
 62
253
  6
CONTINUOUS
 70
0
 71
3
 72
11
 73
7
 74
5
 42
0.0000001
 43
0.0000001
 44
0.0000000001
 12
0.2544879149
 22
-0.1125526123
 32
0.0
 13
0.2539963679
 23
0.1136575314
 33
0.0
 40
0.0
 40
0.0
 40
0.0
 40
0.0
 40
0.2407388562
 40
0.5060690813
 40
0.7681635572
 40
1.0
 40
1.0
 40
1.0
 40
1.0
 10
-3.5134096384
 20
10.6786692649
 30
0.0
 10
-3.4929879286
 20
10.6696373359
 30
0.0
 10
-3.4474298632
 20
10.6565557963
 30
0.0
 10
-3.3761790609
 20
10.6497492823
 30
0.0
 10
-3.3056418981
 20
10.6551136317
 30
0.0
 10
-3.2609630786
 20
10.6674106426
 30
0.0
 10
-3.2413345405
 20
10.6761939619
 30
0.0
 11
-3.5134096384
 21
10.6786692649
 31
0.0
 11
-3.4493308708
 21
10.6591370012
 31
0.0
 11
-3.3758592223
 21
10.6518463958
 31
0.0
 11
-3.3031711399
 21
10.6578072594
 31
0.0
 11
-3.2413345405
 21
10.6761939619
 31
0.0
  0
SPLINE
  5
4FE
100
AcDbEntity
  8
RACCORDO
100
AcDbSpline
 62
253
  6
CONTINUOUS
 70
0
 71
3
 72
11
 73
7
 74
5
 42
0.0000001
 43
0.0000001
 44
0.0000000001
 12
0.2546511618
 22
-0.1140756403
 32
0.0
 13
0.2557374585
 23
0.1116190764
 33
0.0
 40
0.0
 40
0.0
 40
0.0
 40
0.0
 40
0.2406238519
 40
0.506208863
 40
0.7684841259
 40
1.0
 40
1.0
 40
1.0
 40
1.0
 10
-3.3934305779
 20
14.3484100574
 30
0.0
 10
-3.37300553
 20
14.3392602841
 30
0.0
 10
-3.3273794155
 20
14.3259117963
 30
0.0
 10
-3.2559539647
 20
14.3186198949
 30
0.0
 10
-3.1851775078
 20
14.3234377063
 30
0.0
 10
-3.1402774911
 20
14.3353454043
 30
0.0
 10
-3.1205417307
 20
14.343959267
 30
0.0
 11
-3.3934305779
 21
14.3484100574
 31
0.0
 11
-3.3293077969
 21
14.3285008301
 31
0.0
 11
-3.2556115867
 21
14.3207041919
 31
0.0
 11
-3.1826274462
 21
14.3261083914
 31
0.0
 11
-3.1205417307
 21
14.343959267
 31
0.0
  0
SPLINE
  5
4FF
100
AcDbEntity
  8
RACCORDO
100
AcDbSpline
 62
253
  6
CONTINUOUS
 70
0
 71
3
 72
11
 73
7
 74
5
 42
0.0000001
 43
0.0000001
 44
0.0000000001
 12
0.2608400917
 22
-0.1328570276
 32
0.0
 13
0.0128955347
 23
-0.2924418718
 33
0.0
 40
0.0
 40
0.0
 40
0.0
 40
0.0
 40
0.2305001886
 40
0.4905791889
 40
0.755789634
 40
1.0
 40
1.0
 40
1.0
 40
1.0
 10
-2.5912969593
 20
15.7431480196
 30
0.0
 10
-2.5712557291
 20
15.7329401629
 30
0.0
 10
-2.5328067867
 20
15.7029491765
 30
0.0
 10
-2.4873693312
 20
15.6441577385
 30
0.0
 10
-2.4551459779
 20
15.5757169267
 30
0.0
 10
-2.4447634256
 20
15.5263617553
 30
0.0
 10
-2.4437136845
 20
15.5025559764
 30
0.0
 11
-2.5912969593
 21
15.7431480196
 31
0.0
 11
-2.5371020971
 21
15.7029537651
 31
0.0
 11
-2.490027026
 21
15.6431206319
 31
0.0
 11
-2.4572343828
 21
15.5727524456
 31
0.0
 11
-2.4437136845
 21
15.5025559764
 31
0.0
  0
SPLINE
  5
500
100
AcDbEntity
  8
RACCORDO
100
AcDbSpline
 62
253
  6
CONTINUOUS
 70
0
 71
3
 72
11
 73
7
 74
5
 42
0.0000001
 43
0.0000001
 44
0.0000000001
 12
0.7081302927
 22
0.3464172899
 32
0.0
 13
0.0193516803
 23
0.7880856316
 33
0.0
 40
0.0
 40
0.0
 40
0.0
 40
0.0
 40
0.2232516738
 40
0.459094281
 40
0.7168332375
 40
1.0
 40
1.0
 40
1.0
 40
1.0
 10
-3.5914420603
 20
10.0108989108
 30
0.0
 10
-3.5387449692
 20
10.0366783241
 30
0.0
 10
-3.4389313282
 20
10.1091385702
 30
0.0
 10
-3.3285214278
 20
10.2651341087
 30
0.0
 10
-3.2595549556
 20
10.4594496986
 30
0.0
 10
-3.2431611247
 20
10.6018074096
 30
0.0
 10
-3.2413345405
 20
10.6761939619
 30
0.0
 11
-3.5914420603
 21
10.0108989108
 31
0.0
 11
-3.4485506464
 21
10.1136417831
 31
0.0
 11
-3.3392454321
 21
10.2640368943
 31
0.0
 11
-3.268994738
 21
10.4546873624
 31
0.0
 11
-3.2413345405
 21
10.6761939619
 31
0.0
  0
SPLINE
  5
501
100
AcDbEntity
  8
RACCORDO
100
AcDbSpline
 62
253
  6
CONTINUOUS
 70
0
 71
3
 72
15
 73
11
 74
9
 42
0.0000001
 43
0.0000001
 44
0.0000000001
 12
1.0522568665
 22
-0.4682820869
 32
0.0
 13
0.033677223
 23
1.1512595149
 33
0.0
 40
0.0
 40
0.0
 40
0.0
 40
0.0
 40
0.1332815688
 40
0.2565050513
 40
0.3724036708
 40
0.4855089538
 40
0.6010629239
 40
0.7236712736
 40
0.8563312196
 40
1.0
 40
1.0
 40
1.0
 40
1.0
 10
-4.2858598315
 20
10.1358308207
 30
0.0
 10
-4.2391110162
 20
10.1150263637
 30
0.0
 10
-4.1450248535
 20
10.0832093597
 30
0.0
 10
-4.0013078313
 20
10.0692047876
 30
0.0
 10
-3.8662365942
 20
10.0923868978
 30
0.0
 10
-3.7462156307
 20
10.1525632765
 30
0.0
 10
-3.6472748472
 20
10.2468886004
 30
0.0
 10
-3.5734000662
 20
10.3703448058
 30
0.0
 10
-3.5267777768
 20
10.5174183973
 30
0.0
 10
-3.5150224269
 20
10.6235359148
 30
0.0
 10
-3.5134096384
 20
10.6786692649
 30
0.0
 11
-4.2858598315
 21
10.1358308207
 31
0.0
 11
-4.1400116246
 21
10.0879476813
 31
0.0
 11
-3.9986359726
 21
10.0754965059
 31
0.0
 11
-3.867226833
 21
10.0989544313
 31
0.0
 11
-3.7507983217
 21
10.1573879408
 31
0.0
 11
-3.6538843935
 21
10.2486047662
 31
0.0
 11
-3.5802522946
 21
10.3691029965
 31
0.0
 11
-3.5327979111
 21
10.5143382534
 31
0.0
 11
-3.5134096384
 21
10.6786692649
 31
0.0
  0
LINE
  5
502
100
AcDbEntity
  8
RACCORDO
100
AcDbLine
 62
253
  6
CONTINUOUS
 10
-15.8282969049
 20
15.9070493574
 11
-15.741196632
 21
15.8581865587
  0
SPLINE
  5
503
100
AcDbEntity
  8
RACCORDO
100
AcDbSpline
 62
253
  6
CONTINUOUS
 70
0
 71
3
 72
9
 73
5
 74
3
 42
0.0000001
 43
0.0000001
 44
0.0000000001
 12
8.9500142864
 22
-5.0162161537
 32
0.0
 13
9.3011649408
 23
-4.3305324118
 33
0.0
 40
0.0
 40
0.0
 40
0.0
 40
0.0
 40
0.2445857067
 40
1.0
 40
1.0
 40
1.0
 40
1.0
 10
-15.741196632
 20
15.8581865587
 30
0.0
 10
-15.0115147757
 20
15.4492216345
 30
0.0
 10
-12.0114607049
 20
13.8070734862
 30
0.0
 10
-8.9474257875
 20
12.2824519011
 30
0.0
 10
-6.6053481405
 20
11.1920032072
 30
0.0
 11
-15.741196632
 21
15.8581865587
 31
0.0
 11
-13.540146613
 21
14.6529603977
 31
0.0
 11
-6.6053481405
 21
11.1920032072
 31
0.0
  0
SPLINE
  5
504
100
AcDbEntity
  8
RACCORDO
100
AcDbSpline
 62
253
  6
CONTINUOUS
 70
0
 71
3
 72
11
 73
7
 74
5
 42
0.0000001
 43
0.0000001
 44
0.0000000001
 12
-0.0419045685
 22
-1.4540179258
 32
0.0
 13
1.268228021
 23
-0.7124056485
 33
0.0
 40
0.0
 40
0.0
 40
0.0
 40
0.0
 40
0.2513121218
 40
0.5184759066
 40
0.7754657143
 40
1.0
 40
1.0
 40
1.0
 40
1.0
 10
-16.4636503577
 20
17.1537896245
 30
0.0
 10
-16.467160733
 20
17.0319855145
 30
0.0
 10
-16.4353490742
 20
16.7791452494
 30
0.0
 10
-16.3031376816
 20
16.4239891515
 30
0.0
 10
-16.1023691706
 20
16.1179973101
 30
0.0
 10
-15.9232171292
 20
15.9603691886
 30
0.0
 10
-15.8282969049
 20
15.9070493574
 30
0.0
 11
-16.4636503577
 21
17.1537896245
 31
0.0
 11
-16.4230272476
 21
16.7904896954
 31
0.0
 11
-16.288103229
 21
16.4260411508
 31
0.0
 11
-16.0794165611
 21
16.1158904421
 31
0.0
 11
-15.8282969049
 21
15.9070493574
 31
0.0
  0
SPLINE
  5
505
100
AcDbEntity
  8
RACCORDO
100
AcDbSpline
 62
7
  6
CONTINUOUS
 70
0
 71
3
 72
11
 73
7
 74
5
 42
0.0000001
 43
0.0000001
 44
0.0000000001
 12
-0.1906789903
 22
-0.0953394952
 32
0.0
 13
0.0004561267
 23
-0.2131851042
 33
0.0
 40
0.0
 40
0.0
 40
0.0
 40
0.0
 40
0.2360084861
 40
0.478853428
 40
0.7333646762
 40
1.0
 40
1.0
 40
1.0
 40
1.0
 10
-7.3337427966
 20
-5.6449022079
 30
0.0
 10
-7.3487434165
 20
-5.6524025179
 30
0.0
 10
-7.3762892758
 20
-5.6739811484
 30
0.0
 10
-7.404187228
 20
-5.7189865587
 30
0.0
 10
-7.4189037981
 20
-5.7717818337
 30
0.0
 10
-7.4216493629
 20
-5.8089129736
 30
0.0
 10
-7.4216088231
 20
-5.8278605334
 30
0.0
 11
-7.3337427966
 21
-5.6449022079
 31
0.0
 11
-7.3736296905
 21
-5.6755696976
 31
0.0
 11
-7.4015168062
 21
-5.7191879237
 31
0.0
 11
-7.4169308166
 21
-5.7712105445
 31
0.0
 11
-7.4216088231
 21
-5.8278605334
 31
0.0
  0
SPLINE
  5
506
100
AcDbEntity
  8
RACCORDO
100
AcDbSpline
 62
7
  6
CONTINUOUS
 70
0
 71
3
 72
11
 73
7
 74
5
 42
0.0000001
 43
0.0000001
 44
0.0000000001
 12
-0.1906789903
 22
-0.0953394952
 32
0.0
 13
0.0004561267
 23
-0.2131851042
 33
0.0
 40
0.0
 40
0.0
 40
0.0
 40
0.0
 40
0.2360084861
 40
0.478853428
 40
0.7333646762
 40
1.0
 40
1.0
 40
1.0
 40
1.0
 10
-8.182270934
 20
-6.5196762449
 30
0.0
 10
-8.1972715539
 20
-6.5271765548
 30
0.0
 10
-8.2248174132
 20
-6.5487551854
 30
0.0
 10
-8.2527153655
 20
-6.5937605957
 30
0.0
 10
-8.2674319355
 20
-6.6465558706
 30
0.0
 10
-8.2701775003
 20
-6.6836870106
 30
0.0
 10
-8.2701369605
 20
-6.7026345703
 30
0.0
 11
-8.182270934
 21
-6.5196762449
 31
0.0
 11
-8.222157828
 21
-6.5503437346
 31
0.0
 11
-8.2500449436
 21
-6.5939619606
 31
0.0
 11
-8.265458954
 21
-6.6459845815
 31
0.0
 11
-8.2701369605
 21
-6.7026345703
 31
0.0
  0
SPLINE
  5
507
100
AcDbEntity
  8
RACCORDO
100
AcDbSpline
 62
7
  6
CONTINUOUS
 70
0
 71
3
 72
9
 73
5
 74
3
 42
0.0000001
 43
0.0000001
 44
0.0000000001
 12
0.0
 22
0.124497642
 32
0.0
 13
0.0386636455
 23
0.1183418159
 33
0.0
 40
0.0
 40
0.0
 40
0.0
 40
0.0
 40
0.2372861342
 40
1.0
 40
1.0
 40
1.0
 40
1.0
 10
-13.1673737413
 20
8.6963053654
 30
0.0
 10
-13.1673737413
 20
8.7061525534
 30
0.0
 10
-13.1654210639
 20
8.7476437783
 30
0.0
 10
-13.1564492991
 20
8.7886768044
 30
0.0
 10
-13.1466195329
 20
8.8187637857
 30
0.0
 11
-13.1673737413
 21
8.6963053654
 31
0.0
 11
-13.1660518471
 21
8.7258173394
 31
0.0
 11
-13.1466195329
 21
8.8187637857
 31
0.0
  0
SPLINE
  5
508
100
AcDbEntity
  8
RACCORDO
100
AcDbSpline
 62
7
  6
CONTINUOUS
 70
0
 71
3
 72
11
 73
7
 74
5
 42
0.0000001
 43
0.0000001
 44
0.0000000001
 12
-0.3899451095
 22
-0.1949725547
 32
0.0
 13
-0.3899451095
 23
0.1949725547
 33
0.0
 40
0.0
 40
0.0
 40
0.0
 40
0.0
 40
0.2353985187
 40
0.5
 40
0.7646014813
 40
1.0
 40
1.0
 40
1.0
 40
1.0
 10
-13.8391251835
 20
2.1111210852
 30
0.0
 10
-13.8697226838
 20
2.095822335
 30
0.0
 10
-13.9400334794
 20
2.0739972859
 30
0.0
 10
-14.0512572178
 20
2.0635937897
 30
0.0
 10
-14.1624809562
 20
2.0739972859
 30
0.0
 10
-14.2327917518
 20
2.095822335
 30
0.0
 10
-14.2633892522
 20
2.1111210852
 30
0.0
 11
-13.8391251835
 21
2.1111210852
 31
0.0
 11
-13.9364638254
 21
2.0786015854
 31
0.0
 11
-14.0512572178
 21
2.0671940711
 31
0.0
 11
-14.1660506102
 21
2.0786015854
 31
0.0
 11
-14.2633892522
 21
2.1111210852
 31
0.0
  0
SPLINE
  5
509
100
AcDbEntity
  8
0
100
AcDbSpline
 62
7
  6
CONTINUOUS
 70
0
 71
3
 72
9
 73
5
 74
3
 42
0.0000001
 43
0.0000001
 44
0.0000000001
 12
-0.1311445008
 22
-0.1201536901
 32
0.0
 13
-0.1534444975
 23
-0.0899476265
 33
0.0
 40
0.0
 40
0.0
 40
0.0
 40
0.0
 40
0.2597905431
 40
1.0
 40
1.0
 40
1.0
 40
1.0
 10
7.5560815618
 20
-2.4002527343
 30
0.0
 10
7.5447248615
 20
-2.4106576651
 30
0.0
 10
7.5000806853
 20
-2.4496674701
 30
0.0
 10
7.4515741514
 20
-2.4843747359
 30
0.0
 10
7.4137137953
 20
-2.5065680972
 30
0.0
 11
7.5560815618
 21
-2.4002527343
 31
0.0
 11
7.521267917
 21
-2.4306360387
 31
0.0
 11
7.4137137953
 21
-2.5065680972
 31
0.0
  0
SPLINE
  5
50A
100
AcDbEntity
  8
RACCORDO
100
AcDbSpline
 62
7
  6
CONTINUOUS
 70
0
 71
3
 72
9
 73
5
 74
3
 42
0.0000001
 43
0.0000001
 44
0.0000000001
 12
-0.0300226976
 22
-0.0808976069
 32
0.0
 13
-0.0136777462
 23
-0.0851980307
 33
0.0
 40
0.0
 40
0.0
 40
0.0
 40
0.0
 40
0.2552103796
 40
1.0
 40
1.0
 40
1.0
 40
1.0
 10
-6.7058051077
 20
5.6190362456
 30
0.0
 10
-6.7083591424
 20
5.6121542759
 30
0.0
 10
-6.717743114
 20
5.5849637117
 30
0.0
 10
-6.724592965
 20
5.5568779182
 30
0.0
 10
-6.7279886461
 20
5.5357263819
 30
0.0
 11
-6.7058051077
 21
5.6190362456
 31
0.0
 11
-6.7129838631
 21
5.5982173391
 31
0.0
 11
-6.7279886461
 21
5.5357263819
 31
0.0
  0
SPLINE
  5
50B
100
AcDbEntity
  8
RACCORDO
100
AcDbSpline
 62
7
  6
CONTINUOUS
 70
0
 71
3
 72
9
 73
5
 74
3
 42
0.0000001
 43
0.0000001
 44
0.0000000001
 12
-0.0090327677
 22
-0.0562646802
 32
0.0
 13
0.0
 23
-0.0569851307
 33
0.0
 40
0.0
 40
0.0
 40
0.0
 40
0.0
 40
0.2573287062
 40
1.0
 40
1.0
 40
1.0
 40
1.0
 10
-6.7279886461
 20
5.5357263819
 30
0.0
 10
-6.7287634429
 20
5.5309002095
 30
0.0
 10
-6.7314297062
 20
5.5120931349
 30
0.0
 10
-6.7327020325
 20
5.4930765846
 30
0.0
 10
-6.7327020325
 20
5.478969511
 30
0.0
 11
-6.7279886461
 21
5.5357263819
 31
0.0
 11
-6.7300433513
 21
5.5212071381
 31
0.0
 11
-6.7327020325
 21
5.478969511
 31
0.0
  0
SPLINE
  5
50C
100
AcDbEntity
  8
RACCORDO
100
AcDbSpline
 62
7
  6
CONTINUOUS
 70
0
 71
3
 72
9
 73
5
 74
3
 42
0.0000001
 43
0.0000001
 44
0.0000000001
 12
0.000340989
 22
-0.1593718873
 32
0.0
 13
0.0501942961
 23
-0.1512615198
 33
0.0
 40
0.0
 40
0.0
 40
0.0
 40
0.0
 40
0.2437344724
 40
1.0
 40
1.0
 40
1.0
 40
1.0
 10
-7.4216088231
 20
-5.8278605334
 30
0.0
 10
-7.4215811195
 20
-5.8408086743
 30
0.0
 10
-7.4187038082
 20
-5.8939242283
 30
0.0
 10
-7.4064660481
 20
-5.9462547896
 30
0.0
 10
-7.3938126428
 20
-5.9843860806
 30
0.0
 11
-7.4216088231
 21
-5.8278605334
 31
0.0
 11
-7.4196224481
 21
-5.8666542237
 31
0.0
 11
-7.3938126428
 21
-5.9843860806
 31
0.0
  0
SPLINE
  5
50D
100
AcDbEntity
  8
RACCORDO
100
AcDbSpline
 62
7
  6
CONTINUOUS
 70
0
 71
3
 72
9
 73
5
 74
3
 42
0.0000001
 43
0.0000001
 44
0.0000000001
 12
0.0006514055
 22
-0.304454808
 32
0.0
 13
0.1527106066
 23
-0.2633868355
 33
0.0
 40
0.0
 40
0.0
 40
0.0
 40
0.0
 40
0.4886473536
 40
1.0
 40
1.0
 40
1.0
 40
1.0
 10
-8.2701369605
 20
-6.7026345703
 30
0.0
 10
-8.270030858
 20
-6.7522249157
 30
0.0
 10
-8.2504526218
 20
-6.853651058
 30
0.0
 10
-8.2083005916
 20
-6.9467213819
 30
0.0
 10
-8.182270934
 20
-6.9916159004
 30
0.0
 11
-8.2701369605
 21
-6.7026345703
 31
0.0
 11
-8.2455070658
 21
-6.8493529769
 31
0.0
 11
-8.182270934
 21
-6.9916159004
 31
0.0
  0
SPLINE
  5
50E
100
AcDbEntity
  8
RACCORDO
100
AcDbSpline
 62
7
  6
CONTINUOUS
 70
0
 71
3
 72
9
 73
5
 74
3
 42
0.0000001
 43
0.0000001
 44
0.0000000001
 12
-0.3099021827
 22
0.1556675851
 32
0.0
 13
-0.1739511099
 23
0.3000212847
 33
0.0
 40
0.0
 40
0.0
 40
0.0
 40
0.0
 40
0.4932537563
 40
1.0
 40
1.0
 40
1.0
 40
1.0
 10
-14.0217326083
 20
3.685671284
 30
0.0
 10
-14.0726860802
 20
3.7112658244
 30
0.0
 10
-14.1646165646
 20
3.785524636
 30
0.0
 10
-14.2340062283
 20
3.8790962135
 30
0.0
 10
-14.2633892522
 20
3.9297744332
 30
0.0
 11
-14.0217326083
 21
3.685671284
 31
0.0
 11
-14.1578920285
 21
3.7892214817
 31
0.0
 11
-14.2633892522
 21
3.9297744332
 31
0.0
  0
SPLINE
  5
50F
100
AcDbEntity
  8
RACCORDO
100
AcDbSpline
 62
7
  6
CONTINUOUS
 70
0
 71
3
 72
11
 73
7
 74
5
 42
0.0000001
 43
0.0000001
 44
0.0000000001
 12
0.3899451095
 22
-0.1949725547
 32
0.0
 13
0.3899451095
 23
0.1949725547
 33
0.0
 40
0.0
 40
0.0
 40
0.0
 40
0.0
 40
0.2353985187
 40
0.5
 40
0.7646014813
 40
1.0
 40
1.0
 40
1.0
 40
1.0
 10
-14.2633892522
 20
-0.8333652876
 30
0.0
 10
-14.2327917518
 20
-0.8486640378
 30
0.0
 10
-14.1624809562
 20
-0.870489087
 30
0.0
 10
-14.0512572178
 20
-0.8808925831
 30
0.0
 10
-13.9400334794
 20
-0.870489087
 30
0.0
 10
-13.8697226838
 20
-0.8486640378
 30
0.0
 10
-13.8391251835
 20
-0.8333652876
 30
0.0
 11
-14.2633892522
 21
-0.8333652876
 31
0.0
 11
-14.1660506102
 21
-0.8658847875
 31
0.0
 11
-14.0512572178
 21
-0.8772923017
 31
0.0
 11
-13.9364638254
 21
-0.8658847875
 31
0.0
 11
-13.8391251835
 21
-0.8333652876
 31
0.0
  0
SPLINE
  5
510
100
AcDbEntity
  8
RACCORDO
100
AcDbSpline
 62
7
  6
CONTINUOUS
 70
0
 71
3
 72
9
 73
5
 74
3
 42
0.0000001
 43
0.0000001
 44
0.0000000001
 12
-0.3798386431
 22
-0.206992679
 32
0.0
 13
-0.3502617887
 23
-0.253850435
 33
0.0
 40
0.0
 40
0.0
 40
0.0
 40
0.0
 40
0.5595393565
 40
1.0
 40
1.0
 40
1.0
 40
1.0
 10
-11.0684813664
 20
-6.8108726574
 30
0.0
 10
-11.1393262564
 20
-6.8494795075
 30
0.0
 10
-11.2630490141
 20
-6.9237197733
 30
0.0
 10
-11.3835366165
 20
-7.0030947755
 30
0.0
 10
-11.4349621274
 20
-7.0403651508
 30
0.0
 11
-11.0684813664
 21
-6.8108726574
 31
0.0
 11
-11.2767688845
 21
-6.9341678139
 31
0.0
 11
-11.4349621274
 21
-7.0403651508
 31
0.0
  0
SPLINE
  5
511
100
AcDbEntity
  8
RACCORDO
100
AcDbSpline
 62
7
  6
CONTINUOUS
 70
0
 71
3
 72
11
 73
7
 74
5
 42
0.0000001
 43
0.0000001
 44
0.0000000001
 12
-0.4453062932
 22
-0.2226531466
 32
0.0
 13
-0.403127655
 23
-0.2921647005
 33
0.0
 40
0.0
 40
0.0
 40
0.0
 40
0.0
 40
0.2682380617
 40
0.5494246543
 40
0.7974723468
 40
1.0
 40
1.0
 40
1.0
 40
1.0
 10
-11.0106980587
 20
-5.1054626825
 30
0.0
 10
-11.050514091
 20
-5.1253706987
 30
0.0
 10
-11.1303293952
 20
-5.16958411
 30
0.0
 10
-11.2438341626
 20
-5.2376575173
 30
0.0
 10
-11.3460627859
 20
-5.3032411116
 30
0.0
 10
-11.4077472948
 20
-5.3455464932
 30
0.0
 10
-11.4349621274
 20
-5.3652703036
 30
0.0
 11
-11.0106980587
 21
-5.1054626825
 31
0.0
 11
-11.128063331
 21
-5.1691824022
 31
0.0
 11
-11.2481581339
 21
-5.2411231446
 31
0.0
 11
-11.3520396268
 21
-5.3079035782
 31
0.0
 11
-11.4349621274
 21
-5.3652703036
 31
0.0
  0
SPLINE
  5
512
100
AcDbEntity
  8
RACCORDO
100
AcDbSpline
 62
7
  6
CONTINUOUS
 70
0
 71
3
 72
11
 73
7
 74
5
 42
0.0000001
 43
0.0000001
 44
0.0000000001
 12
-0.4453062932
 22
-0.2226531466
 32
0.0
 13
-0.403127655
 23
-0.2921647005
 33
0.0
 40
0.0
 40
0.0
 40
0.0
 40
0.0
 40
0.2682380617
 40
0.5494246543
 40
0.7974723468
 40
1.0
 40
1.0
 40
1.0
 40
1.0
 10
-11.8592261961
 20
-4.6811986138
 30
0.0
 10
-11.8990422285
 20
-4.7011066299
 30
0.0
 10
-11.9788575326
 20
-4.7453200413
 30
0.0
 10
-12.0923623
 20
-4.8133934486
 30
0.0
 10
-12.1945909233
 20
-4.8789770429
 30
0.0
 10
-12.2562754322
 20
-4.9212824245
 30
0.0
 10
-12.2834902649
 20
-4.9410062349
 30
0.0
 11
-11.8592261961
 21
-4.6811986138
 31
0.0
 11
-11.9765914685
 21
-4.7449183335
 31
0.0
 11
-12.0966862714
 21
-4.8168590759
 31
0.0
 11
-12.2005677642
 21
-4.8836395095
 31
0.0
 11
-12.2834902649
 21
-4.9410062349
 31
0.0
  0
SPLINE
  5
513
100
AcDbEntity
  8
RACCORDO
100
AcDbSpline
 62
7
  6
CONTINUOUS
 70
0
 71
3
 72
11
 73
7
 74
5
 42
0.0000001
 43
0.0000001
 44
0.0000000001
 12
-0.4453062932
 22
-0.2226531466
 32
0.0
 13
-0.403127655
 23
-0.2921647005
 33
0.0
 40
0.0
 40
0.0
 40
0.0
 40
0.0
 40
0.2682380617
 40
0.5494246543
 40
0.7974723468
 40
1.0
 40
1.0
 40
1.0
 40
1.0
 10
-11.8592261961
 20
-3.3821605081
 30
0.0
 10
-11.8990422285
 20
-3.4020685243
 30
0.0
 10
-11.9788575326
 20
-3.4462819356
 30
0.0
 10
-12.0923623
 20
-3.5143553429
 30
0.0
 10
-12.1945909233
 20
-3.5799389372
 30
0.0
 10
-12.2562754322
 20
-3.6222443189
 30
0.0
 10
-12.2834902649
 20
-3.6419681292
 30
0.0
 11
-11.8592261961
 21
-3.3821605081
 31
0.0
 11
-11.9765914685
 21
-3.4458802279
 31
0.0
 11
-12.0966862714
 21
-3.5178209702
 31
0.0
 11
-12.2005677642
 21
-3.5846014038
 31
0.0
 11
-12.2834902649
 21
-3.6419681292
 31
0.0
  0
SPLINE
  5
514
100
AcDbEntity
  8
RACCORDO
100
AcDbSpline
 62
7
  6
CONTINUOUS
 70
0
 71
3
 72
10
 73
6
 74
4
 42
0.0000001
 43
0.0000001
 44
0.0000000001
 12
-0.3518074054
 22
-0.1759037027
 32
0.0
 13
-0.3276102055
 23
-0.2176743356
 33
0.0
 40
0.0
 40
0.0
 40
0.0
 40
0.0
 40
0.2460510817
 40
0.5149969683
 40
1.0
 40
1.0
 40
1.0
 40
1.0
 10
-13.8391251835
 20
-2.3922110144
 30
0.0
 10
-13.867979381
 20
-2.4066381132
 30
0.0
 10
-13.9273902133
 20
-2.4387895945
 30
0.0
 10
-14.0406925513
 20
-2.5047692809
 30
0.0
 10
-14.1244193062
 20
-2.5574098541
 30
0.0
 10
-14.1773832872
 20
-2.5926007584
 30
0.0
 11
-13.8391251835
 21
-2.3922110144
 31
0.0
 11
-13.9245069642
 21
-2.4377774997
 31
0.0
 11
-14.0159967808
 21
-2.4908823101
 31
0.0
 11
-14.1773832872
 21
-2.5926007584
 31
0.0
  0
SPLINE
  5
515
100
AcDbEntity
  8
RACCORDO
100
AcDbSpline
 62
7
  6
CONTINUOUS
 70
0
 71
3
 72
9
 73
5
 74
3
 42
0.0000001
 43
0.0000001
 44
0.0000000001
 12
-0.4014723191
 22
0.2010641743
 32
0.0
 13
-0.4289557644
 23
-0.1326792274
 33
0.0
 40
0.0
 40
0.0
 40
0.0
 40
0.0
 40
0.475770742
 40
1.0
 40
1.0
 40
1.0
 40
1.0
 10
9.0516919961
 20
19.6861509132
 30
0.0
 10
8.9880224017
 20
19.7180377303
 30
0.0
 10
8.8374950403
 20
19.7544747886
 30
0.0
 10
8.6864721732
 20
19.7298094486
 30
0.0
 10
8.6115151192
 20
19.7066246709
 30
0.0
 11
9.0516919961
 21
19.6861509132
 31
0.0
 11
8.8446772113
 21
19.7388780985
 31
0.0
 11
8.6115151192
 21
19.7066246709
 31
0.0
  0
SPLINE
  5
516
100
AcDbEntity
  8
RACCORDO
100
AcDbSpline
 62
7
  6
CONTINUOUS
 70
0
 71
3
 72
9
 73
5
 74
3
 42
0.0000001
 43
0.0000001
 44
0.0000000001
 12
-0.4014723191
 22
0.2010641743
 32
0.0
 13
-0.4289557644
 23
-0.1326792274
 33
0.0
 40
0.0
 40
0.0
 40
0.0
 40
0.0
 40
0.475770742
 40
1.0
 40
1.0
 40
1.0
 40
1.0
 10
14.0014394644
 20
17.211277179
 30
0.0
 10
13.93776987
 20
17.2431639962
 30
0.0
 10
13.7872425086
 20
17.2796010545
 30
0.0
 10
13.6362196415
 20
17.2549357144
 30
0.0
 10
13.5612625875
 20
17.2317509368
 30
0.0
 11
14.0014394644
 21
17.211277179
 31
0.0
 11
13.7944246796
 21
17.2640043643
 31
0.0
 11
13.5612625875
 21
17.2317509368
 31
0.0
  0
SPLINE
  5
517
100
AcDbEntity
  8
RACCORDO
100
AcDbSpline
 62
7
  6
CONTINUOUS
 70
0
 71
3
 72
11
 73
7
 74
5
 42
0.0000001
 43
0.0000001
 44
0.0000000001
 12
0.0096157512
 22
0.0004535897
 32
0.0
 13
-0.0086101528
 23
-0.0043050764
 33
0.0
 40
0.0
 40
0.0
 40
0.0
 40
0.0
 40
0.0177988949
 40
0.1281867056
 40
0.3294305427
 40
1.0
 40
1.0
 40
1.0
 40
1.0
 10
13.1907226107
 20
1.3029401287
 30
0.0
 10
13.1907796607
 20
1.3029428198
 30
0.0
 10
13.1899426817
 20
1.3027258665
 30
0.0
 10
13.1894906001
 20
1.3026537697
 30
0.0
 10
13.1859124457
 20
1.3015677232
 30
0.0
 10
13.1836444468
 20
1.3005440228
 30
0.0
 10
13.1817198783
 20
1.2995817385
 30
0.0
 11
13.1907226107
 21
1.3029401287
 31
0.0
 11
13.1905599745
 21
1.3028862133
 31
0.0
 11
13.1895264943
 21
1.3026389751
 31
0.0
 11
13.1876705796
 21
1.3020834876
 31
0.0
 11
13.1817198783
 21
1.2995817385
 31
0.0
  0
SPLINE
  5
518
100
AcDbEntity
  8
RACCORDO
100
AcDbSpline
 62
7
  6
CONTINUOUS
 70
0
 71
3
 72
9
 73
5
 74
3
 42
0.0000001
 43
0.0000001
 44
0.0000000001
 12
-0.1083406585
 22
-0.0541703293
 32
0.0
 13
-0.0430374231
 23
-0.1132250108
 33
0.0
 40
0.0
 40
0.0
 40
0.0
 40
0.0
 40
0.422006731
 40
1.0
 40
1.0
 40
1.0
 40
1.0
 10
9.7876073287
 20
-0.3974745363
 30
0.0
 10
9.7723671663
 20
-0.4050946175
 30
0.0
 10
9.7424699831
 20
-0.4342143032
 30
0.0
 10
9.7221619833
 20
-0.469630693
 30
0.0
 10
9.713870203
 20
-0.4914451244
 30
0.0
 11
9.7876073287
 21
-0.3974745363
 31
0.0
 11
9.7488412758
 21
-0.4307934023
 31
0.0
 11
9.713870203
 21
-0.4914451244
 31
0.0
  0
SPLINE
  5
519
100
AcDbEntity
  8
RACCORDO
100
AcDbSpline
 62
7
  6
CONTINUOUS
 70
0
 71
3
 72
9
 73
5
 74
3
 42
0.0000001
 43
0.0000001
 44
0.0000000001
 12
-0.0156976403
 22
-0.0412981393
 32
0.0
 13
-0.0060396362
 23
-0.0437661401
 33
0.0
 40
0.0
 40
0.0
 40
0.0
 40
0.0
 40
0.2651603632
 40
1.0
 40
1.0
 40
1.0
 40
1.0
 10
9.713870203
 20
-0.4914451244
 30
0.0
 10
9.712482739
 20
-0.4950953343
 30
0.0
 10
9.7076569206
 20
-0.5090104879
 30
0.0
 10
9.7042712434
 20
-0.5234406051
 30
0.0
 10
9.7027918553
 20
-0.53416097
 30
0.0
 11
9.713870203
 21
-0.4914451244
 31
0.0
 11
9.7100247638
 21
-0.5025110358
 31
0.0
 11
9.7027918553
 21
-0.53416097
 31
0.0
  0
SPLINE
  5
51A
100
AcDbEntity
  8
RACCORDO
100
AcDbSpline
 62
7
  6
CONTINUOUS
 70
0
 71
3
 72
8
 73
4
 74
2
 42
0.0000001
 43
0.0000001
 44
0.0000000001
 12
-0.0024382321
 22
-0.017668615
 32
0.0
 13
-0.0
 23
-0.017836057
 33
0.0
 40
0.0
 40
0.0
 40
0.0
 40
0.0
 40
1.0
 40
1.0
 40
1.0
 40
1.0
 10
9.7027918553
 20
-0.53416097
 30
0.0
 10
9.7019791113
 20
-0.5400505083
 30
0.0
 10
9.7014646129
 20
-0.5460022237
 30
0.0
 10
9.7014646129
 20
-0.5519475761
 30
0.0
 11
9.7027918553
 21
-0.53416097
 31
0.0
 11
9.7014646129
 21
-0.5519475761
 31
0.0
  0
SPLINE
  5
51B
100
AcDbEntity
  8
ASSI
100
AcDbSpline
 62
7
  6
CONTINUOUS
 70
0
 71
3
 72
9
 73
5
 74
3
 42
0.0000001
 43
0.0000001
 44
0.0000000001
 12
-0.0676196289
 22
-0.1891040835
 32
0.0
 13
-0.1796279902
 23
-0.0898139951
 33
0.0
 40
0.0
 40
0.0
 40
0.0
 40
0.0
 40
0.268559025
 40
1.0
 40
1.0
 40
1.0
 40
1.0
 10
17.6458997271
 20
1.4129738752
 30
0.0
 10
17.6398464399
 20
1.3960453391
 30
0.0
 10
17.612255066
 20
1.3353347562
 30
0.0
 10
17.5648563196
 20
1.2805766301
 30
0.0
 10
17.5210605622
 20
1.2586787514
 30
0.0
 11
17.6458997271
 21
1.4129738752
 31
0.0
 11
17.623598029
 21
1.3638659039
 31
0.0
 11
17.5210605622
 21
1.2586787514
 31
0.0
  0
SPLINE
  5
51C
100
AcDbEntity
  8
ASSI
100
AcDbSpline
 62
7
  6
CONTINUOUS
 70
0
 71
3
 72
9
 73
5
 74
3
 42
0.0000001
 43
0.0000001
 44
0.0000000001
 12
-0.0503125143
 22
0.0251562572
 32
0.0
 13
-0.0547721863
 23
-0.0128138197
 33
0.0
 40
0.0
 40
0.0
 40
0.0
 40
0.0
 40
0.2730698429
 40
1.0
 40
1.0
 40
1.0
 40
1.0
 10
-4.5760263499
 20
3.7237032089
 30
0.0
 10
-4.5806059601
 20
3.725993014
 30
0.0
 10
-4.5978723708
 20
3.7332126762
 30
0.0
 10
-4.6177710145
 20
3.7352055732
 30
0.0
 10
-4.6310428658
 20
3.7321006559
 30
0.0
 11
-4.5760263499
 21
3.7237032089
 31
0.0
 11
-4.5902321103
 21
3.7295462131
 31
0.0
 11
-4.6310428658
 21
3.7321006559
 31
0.0
  0
SPLINE
  5
51D
100
AcDbEntity
  8
ASSI
100
AcDbSpline
 62
7
  6
CONTINUOUS
 70
0
 71
3
 72
8
 73
4
 74
2
 42
0.0000001
 43
0.0000001
 44
0.0000000001
 12
-0.0132814992
 22
-0.0031071744
 32
0.0
 13
-0.0121824949
 23
-0.0061351098
 33
0.0
 40
0.0
 40
0.0
 40
0.0
 40
0.0
 40
1.0
 40
1.0
 40
1.0
 40
1.0
 10
-4.6310428658
 20
3.7321006559
 30
0.0
 10
-4.6354700322
 20
3.7310649311
 30
0.0
 10
-4.6398134858
 20
3.7295189655
 30
0.0
 10
-4.6438743175
 20
3.7274739289
 30
0.0
 11
-4.6310428658
 21
3.7321006559
 31
0.0
 11
-4.6438743175
 21
3.7274739289
 31
0.0
  0
SPLINE
  5
51E
100
AcDbEntity
  8
RACCORDO
100
AcDbSpline
 62
7
  6
CONTINUOUS
 70
0
 71
3
 72
9
 73
5
 74
3
 42
0.0000001
 43
0.0000001
 44
0.0000000001
 12
-0.0559757284
 22
0.0277505225
 32
0.0
 13
0.0
 23
0.0624769851
 33
0.0
 40
0.0
 40
0.0
 40
0.0
 40
0.0
 40
0.4487463794
 40
1.0
 40
1.0
 40
1.0
 40
1.0
 10
-11.5502900963
 20
-7.4112822416
 30
0.0
 10
-11.5586630648
 20
-7.4071312594
 30
0.0
 10
-11.57339064
 20
-7.3899593268
 30
0.0
 10
-11.5763834837
 20
-7.3686089537
 30
0.0
 10
-11.5763834837
 20
-7.3571287323
 30
0.0
 11
-11.5502900963
 21
-7.4112822416
 31
0.0
 11
-11.5695178951
 21
-7.3908781478
 31
0.0
 11
-11.5763834837
 21
-7.3571287323
 31
0.0
  0
SPLINE
  5
51F
100
AcDbEntity
  8
RACCORDO
100
AcDbSpline
 62
7
  6
CONTINUOUS
 70
0
 71
3
 72
9
 73
5
 74
3
 42
0.0000001
 43
0.0000001
 44
0.0000000001
 12
-0.0559757284
 22
0.0277505225
 32
0.0
 13
0.0
 23
0.0624769851
 33
0.0
 40
0.0
 40
0.0
 40
0.0
 40
0.0
 40
0.4487463794
 40
1.0
 40
1.0
 40
1.0
 40
1.0
 10
-5.7520144906
 20
-10.3104200444
 30
0.0
 10
-5.7603874591
 20
-10.3062690623
 30
0.0
 10
-5.7751150342
 20
-10.2890971297
 30
0.0
 10
-5.7781078779
 20
-10.2677467566
 30
0.0
 10
-5.7781078779
 20
-10.2562665352
 30
0.0
 11
-5.7520144906
 21
-10.3104200444
 31
0.0
 11
-5.7712422894
 21
-10.2900159507
 31
0.0
 11
-5.7781078779
 21
-10.2562665352
 31
0.0
  0
SPLINE
  5
520
100
AcDbEntity
  8
RACCORDO
100
AcDbSpline
 62
7
  6
CONTINUOUS
 70
0
 71
3
 72
8
 73
4
 74
2
 42
0.0000001
 43
0.0000001
 44
0.0000000001
 12
-0.0508930552
 22
0.0252307368
 32
0.0
 13
-0.0336589047
 23
0.0457577455
 33
0.0
 40
0.0
 40
0.0
 40
0.0
 40
0.0
 40
1.0
 40
1.0
 40
1.0
 40
1.0
 10
-14.0436877339
 20
-6.3882184102
 30
0.0
 10
-14.0606520857
 20
-6.3798081646
 30
0.0
 10
-14.0756798066
 20
-6.3666003876
 30
0.0
 10
-14.0868994415
 20
-6.3513478057
 30
0.0
 11
-14.0436877339
 21
-6.3882184102
 31
0.0
 11
-14.0868994415
 21
-6.3513478057
 31
0.0
  0
SPLINE
  5
521
100
AcDbEntity
  8
RACCORDO
100
AcDbSpline
 62
7
  6
CONTINUOUS
 70
0
 71
3
 72
9
 73
5
 74
3
 42
0.0000001
 43
0.0000001
 44
0.0000000001
 12
-0.0780235175
 22
0.1060694128
 32
0.0
 13
-0.0
 23
0.1316753189
 33
0.0
 40
0.0
 40
0.0
 40
0.0
 40
0.0
 40
0.2256002581
 40
1.0
 40
1.0
 40
1.0
 40
1.0
 10
-14.0868994415
 20
-6.3513478057
 30
0.0
 10
-14.0927668167
 20
-6.3433713767
 30
0.0
 10
-14.1148416571
 20
-6.3051095592
 30
0.0
 10
-14.1219678959
 20
-6.2597476601
 30
0.0
 10
-14.1219678959
 20
-6.2257578824
 30
0.0
 11
-14.0868994415
 21
-6.3513478057
 31
0.0
 11
-14.1019661799
 21
-6.3257462629
 31
0.0
 11
-14.1219678959
 21
-6.2257578824
 31
0.0
  0
SPLINE
  5
522
100
AcDbEntity
  8
RACCORDO
100
AcDbSpline
 62
7
  6
CONTINUOUS
 70
0
 71
3
 72
9
 73
5
 74
3
 42
0.0000001
 43
0.0000001
 44
0.0000000001
 12
0.0550792245
 22
-0.0273060718
 32
0.0
 13
0.0614084491
 23
0.0028887542
 33
0.0
 40
0.0
 40
0.0
 40
0.0
 40
0.0
 40
0.739442964
 40
1.0
 40
1.0
 40
1.0
 40
1.0
 10
-5.8412490722
 20
-10.489437741
 30
0.0
 10
-5.8276730905
 20
-10.4961681686
 30
0.0
 10
-5.8071284265
 20
-10.5014081065
 30
0.0
 10
-5.7866328921
 20
-10.5015261884
 30
0.0
 10
-5.7812994242
 20
-10.5012752933
 30
0.0
 11
-5.8412490722
 21
-10.489437741
 31
0.0
 11
-5.7973167389
 21
-10.5011169316
 31
0.0
 11
-5.7812994242
 21
-10.5012752933
 31
0.0
  0
SPLINE
  5
523
100
AcDbEntity
  8
RACCORDO
100
AcDbSpline
 62
7
  6
CONTINUOUS
 70
0
 71
3
 72
9
 73
5
 74
3
 42
0.0000001
 43
0.0000001
 44
0.0000000001
 12
0.0769441271
 22
0.003619578
 32
0.0
 13
0.0688970249
 23
0.0344485124
 33
0.0
 40
0.0
 40
0.0
 40
0.0
 40
0.0
 40
0.2356991265
 40
1.0
 40
1.0
 40
1.0
 40
1.0
 10
-5.7812994242
 20
-10.5012752933
 30
0.0
 10
-5.775254203
 20
-10.5009909162
 30
0.0
 10
-5.7496832216
 20
-10.4981948716
 30
0.0
 10
-5.7249498853
 20
-10.48949516
 30
0.0
 10
-5.7073971998
 20
-10.4807188173
 30
0.0
 11
-5.7812994242
 21
-10.5012752933
 31
0.0
 11
-5.7632466217
 21
-10.4993448929
 31
0.0
 11
-5.7073971998
 21
-10.4807188173
 31
0.0
  0
SPLINE
  5
524
100
AcDbEntity
  8
RACCORDO
100
AcDbSpline
 62
7
  6
CONTINUOUS
 70
0
 71
3
 72
11
 73
7
 74
5
 42
0.0000001
 43
0.0000001
 44
0.0000000001
 12
0.6565621445
 22
-0.3282810722
 32
0.0
 13
0.0
 23
-0.7340587933
 33
0.0
 40
0.0
 40
0.0
 40
0.0
 40
0.0
 40
0.2294888932
 40
0.4882056407
 40
0.7534262758
 40
1.0
 40
1.0
 40
1.0
 40
1.0
 10
18.1574566652
 20
16.2198493559
 30
0.0
 10
18.2076812385
 20
16.1947370693
 30
0.0
 10
18.3035733227
 20
16.1194324356
 30
0.0
 10
18.4148719627
 20
15.9704643579
 30
0.0
 10
18.4899591404
 20
15.7957774231
 30
0.0
 10
18.5110100558
 20
15.6703931622
 30
0.0
 10
18.5110100558
 20
15.6100599587
 30
0.0
 11
18.1574566652
 21
16.2198493559
 31
0.0
 11
18.2925795936
 21
16.1192511127
 31
0.0
 11
18.4074887829
 21
15.968046149
 31
0.0
 11
18.4840356387
 21
15.7890382809
 31
0.0
 11
18.5110100558
 21
15.6100599587
 31
0.0
  0
SPLINE
  5
525
100
AcDbEntity
  8
ASSI
100
AcDbSpline
 62
7
  6
CONTINUOUS
 70
0
 71
3
 72
9
 73
5
 74
3
 42
0.0000001
 43
0.0000001
 44
0.0000000001
 12
-0.0402976562
 22
-0.2044053931
 32
0.0
 13
0.1570452547
 23
-0.1369023514
 33
0.0
 40
0.0
 40
0.0
 40
0.0
 40
0.0
 40
0.4815344248
 40
1.0
 40
1.0
 40
1.0
 40
1.0
 10
-4.5382054471
 20
3.7438663784
 30
0.0
 10
-4.5446736833
 20
3.7110569672
 30
0.0
 10
-4.5317292295
 20
3.6386905743
 30
0.0
 10
-4.491897453
 20
3.5789560888
 30
0.0
 10
-4.4647566002
 20
3.55529637
 30
0.0
 11
-4.5382054471
 21
3.7438663784
 31
0.0
 11
-4.5259727743
 21
3.644292177
 31
0.0
 11
-4.4647566002
 21
3.55529637
 31
0.0
  0
SPLINE
  5
526
100
AcDbEntity
  8
ASSI
100
AcDbSpline
 62
7
  6
CONTINUOUS
 70
0
 71
3
 72
9
 73
5
 74
3
 42
0.0000001
 43
0.0000001
 44
0.0000000001
 12
0.0276032734
 22
-0.0240628285
 32
0.0
 13
0.0327531423
 23
-0.0163765712
 33
0.0
 40
0.0
 40
0.0
 40
0.0
 40
0.0
 40
0.264265763
 40
1.0
 40
1.0
 40
1.0
 40
1.0
 10
-4.4647566002
 20
3.55529637
 30
0.0
 10
-4.4623250669
 20
3.5531767094
 30
0.0
 10
-4.4529180737
 20
3.5454035262
 30
0.0
 10
-4.4426375297
 20
3.5386225339
 30
0.0
 10
-4.4346049937
 20
3.5346062659
 30
0.0
 11
-4.4647566002
 21
3.55529637
 31
0.0
 11
-4.4572921688
 21
3.5491376281
 31
0.0
 11
-4.4346049937
 21
3.5346062659
 31
0.0
  0
SPLINE
  5
527
100
AcDbEntity
  8
ASSI
100
AcDbSpline
 62
7
  6
CONTINUOUS
 70
0
 71
3
 72
11
 73
7
 74
5
 42
0.0000001
 43
0.0000001
 44
0.0000000001
 12
0.2570014082
 22
0.1294260237
 32
0.0
 13
-0.2304260801
 23
0.1723503438
 33
0.0
 40
0.0
 40
0.0
 40
0.0
 40
0.0
 40
0.1892982432
 40
0.436497416
 40
0.7241244342
 40
1.0
 40
1.0
 40
1.0
 40
1.0
 10
-15.3976228127
 20
8.9048470829
 30
0.0
 10
-15.3814061743
 20
8.9130137892
 30
0.0
 10
-15.3561189071
 20
8.9528824317
 30
0.0
 10
-15.3594617771
 20
9.024126674
 30
0.0
 10
-15.3879181049
 20
9.097725194
 30
0.0
 10
-15.424132511
 20
9.1399830107
 30
0.0
 10
-15.4453221527
 20
9.1558320936
 30
0.0
 11
-15.3976228127
 21
8.9048470829
 31
0.0
 11
-15.3646081072
 21
8.9481725867
 31
0.0
 11
-15.3627581924
 21
9.0192804146
 31
0.0
 11
-15.3926124933
 21
9.0964735145
 31
0.0
 11
-15.4453221527
 21
9.1558320936
 31
0.0
  0
SPLINE
  5
528
100
AcDbEntity
  8
ASSI
100
AcDbSpline
 62
7
  6
CONTINUOUS
 70
0
 71
3
 72
8
 73
4
 74
2
 42
0.0000001
 43
0.0000001
 44
0.0000000001
 12
-0.0190269442
 22
0.0142314636
 32
0.0
 13
-0.0212519959
 23
0.0106259979
 33
0.0
 40
0.0
 40
0.0
 40
0.0
 40
0.0
 40
1.0
 40
1.0
 40
1.0
 40
1.0
 10
-15.4453221527
 20
9.1558320936
 30
0.0
 10
-15.4516644674
 20
9.1605759148
 30
0.0
 10
-15.4583867816
 20
9.1648834247
 30
0.0
 10
-15.4654707802
 20
9.168425424
 30
0.0
 11
-15.4453221527
 21
9.1558320936
 31
0.0
 11
-15.4654707802
 21
9.168425424
 31
0.0
  0
SPLINE
  5
529
100
AcDbEntity
  8
RACCORDO
100
AcDbSpline
 62
7
  6
CONTINUOUS
 70
0
 71
3
 72
9
 73
5
 74
3
 42
0.0000001
 43
0.0000001
 44
0.0000000001
 12
-0.0852484615
 22
0.0426242308
 32
0.0
 13
0.0
 23
0.0953106775
 33
0.0
 40
0.0
 40
0.0
 40
0.0
 40
0.0
 40
0.5671894298
 40
1.0
 40
1.0
 40
1.0
 40
1.0
 10
8.2579617286
 20
19.7553832619
 30
0.0
 10
8.2418443865
 20
19.7634419329
 30
0.0
 10
8.2144011609
 20
19.7810172862
 30
0.0
 10
8.1993573907
 20
19.8123434504
 30
0.0
 10
8.1993573907
 20
19.82609394
 30
0.0
 11
8.2579617286
 21
19.7553832619
 31
0.0
 11
8.2147023241
 21
19.787802731
 31
0.0
 11
8.1993573907
 21
19.82609394
 31
0.0
  0
SPLINE
  5
52A
100
AcDbEntity
  8
RACCORDO
100
AcDbSpline
 62
7
  6
CONTINUOUS
 70
0
 71
3
 72
9
 73
5
 74
3
 42
0.0000001
 43
0.0000001
 44
0.0000000001
 12
-0.2742811018
 22
-0.084837197
 32
0.0
 13
-0.256791702
 23
0.128395851
 33
0.0
 40
0.0
 40
0.0
 40
0.0
 40
0.0
 40
0.4949146947
 40
1.0
 40
1.0
 40
1.0
 40
1.0
 10
8.6115151192
 20
19.7066246709
 30
0.0
 10
8.5662665366
 20
19.6926289458
 30
0.0
 10
8.469837643
 20
19.6836946801
 30
0.0
 10
8.3719063118
 20
19.6984111977
 30
0.0
 10
8.3286724067
 20
19.7200281502
 30
0.0
 11
8.6115151192
 21
19.7066246709
 31
0.0
 11
8.4704503758
 21
19.689578583
 31
0.0
 11
8.3286724067
 21
19.7200281502
 31
0.0
  0
SPLINE
  5
52B
100
AcDbEntity
  8
RACCORDO
100
AcDbSpline
 62
7
  6
CONTINUOUS
 70
0
 71
3
 72
9
 73
5
 74
3
 42
0.0000001
 43
0.0000001
 44
0.0000000001
 12
-0.0852484615
 22
-0.0426242308
 32
0.0
 13
0.0
 23
-0.0953106775
 33
0.0
 40
0.0
 40
0.0
 40
0.0
 40
0.0
 40
0.5671894298
 40
1.0
 40
1.0
 40
1.0
 40
1.0
 10
-15.5008261193
 20
9.0677168287
 30
0.0
 10
-15.5169434614
 20
9.0596581576
 30
0.0
 10
-15.544386687
 20
9.0420828043
 30
0.0
 10
-15.5594304571
 20
9.0107566401
 30
0.0
 10
-15.5594304571
 20
8.9970061505
 30
0.0
 11
-15.5008261193
 21
9.0677168287
 31
0.0
 11
-15.5440855238
 21
9.0352973596
 31
0.0
 11
-15.5594304571
 21
8.9970061505
 31
0.0
  0
SPLINE
  5
52C
100
AcDbEntity
  8
RACCORDO
100
AcDbSpline
 62
7
  6
CONTINUOUS
 70
0
 71
3
 72
9
 73
5
 74
3
 42
0.0000001
 43
0.0000001
 44
0.0000000001
 12
-0.0946861098
 22
0.0122714955
 32
0.0
 13
-0.0853981217
 23
0.0426990608
 33
0.0
 40
0.0
 40
0.0
 40
0.0
 40
0.0
 40
0.2693141175
 40
1.0
 40
1.0
 40
1.0
 40
1.0
 10
-4.4490741053
 20
-9.5703017051
 30
0.0
 10
-4.4575742073
 20
-9.5692000761
 30
0.0
 10
-4.4889442219
 20
-9.5639714901
 30
0.0
 10
-4.5198712769
 20
-9.5545630055
 30
0.0
 10
-4.5406710109
 20
-9.5441631385
 30
0.0
 11
-4.4490741053
 21
-9.5703017051
 31
0.0
 11
-4.474438855
 21
-9.5660806436
 31
0.0
 11
-4.5406710109
 21
-9.5441631385
 31
0.0
  0
SPLINE
  5
52D
100
AcDbEntity
  8
RACCORDO
100
AcDbSpline
 62
7
  6
CONTINUOUS
 70
0
 71
3
 72
9
 73
5
 74
3
 42
0.0000001
 43
0.0000001
 44
0.0000000001
 12
-0.0832678997
 22
0.0416339499
 32
0.0
 13
-0.000024887
 23
0.0930963387
 33
0.0
 40
0.0
 40
0.0
 40
0.0
 40
0.0
 40
0.3109435241
 40
1.0
 40
1.0
 40
1.0
 40
1.0
 10
9.672175291
 20
19.0482766512
 30
0.0
 10
9.6635447529
 20
19.0525919202
 30
0.0
 10
9.6373257698
 20
19.0678670177
 30
0.0
 10
9.6135840515
 20
19.0964546365
 30
0.0
 10
9.6135783353
 20
19.1178375149
 30
0.0
 11
9.672175291
 21
19.0482766512
 31
0.0
 11
9.6474790234
 21
19.0633784383
 31
0.0
 11
9.6135783353
 21
19.1178375149
 31
0.0
  0
SPLINE
  5
52E
100
AcDbEntity
  8
RACCORDO
100
AcDbSpline
 62
7
  6
CONTINUOUS
 70
0
 71
3
 72
9
 73
5
 74
3
 42
0.0000001
 43
0.0000001
 44
0.0000000001
 12
-0.0852484615
 22
0.0426242308
 32
0.0
 13
0.0
 23
0.0953106775
 33
0.0
 40
0.0
 40
0.0
 40
0.0
 40
0.0
 40
0.5671894298
 40
1.0
 40
1.0
 40
1.0
 40
1.0
 10
-15.5008261193
 20
-4.0640855843
 30
0.0
 10
-15.5169434614
 20
-4.0560269133
 30
0.0
 10
-15.544386687
 20
-4.03845156
 30
0.0
 10
-15.5594304571
 20
-4.0071253958
 30
0.0
 10
-15.5594304571
 20
-3.9933749062
 30
0.0
 11
-15.5008261193
 21
-4.0640855843
 31
0.0
 11
-15.5440855238
 21
-4.0316661152
 31
0.0
 11
-15.5594304571
 21
-3.9933749062
 31
0.0
  0
SPLINE
  5
52F
100
AcDbEntity
  8
RACCORDO
100
AcDbSpline
 62
7
  6
CONTINUOUS
 70
0
 71
3
 72
9
 73
5
 74
3
 42
0.0000001
 43
0.0000001
 44
0.0000000001
 12
-0.2318096712
 22
-0.1159048356
 32
0.0
 13
-0.2452073995
 23
0.0839224988
 33
0.0
 40
0.0
 40
0.0
 40
0.0
 40
0.0
 40
0.4877276246
 40
1.0
 40
1.0
 40
1.0
 40
1.0
 10
10.0257286816
 20
19.0129211416
 30
0.0
 10
9.9880420215
 20
18.9940778116
 30
0.0
 10
9.9005673078
 20
18.9773921536
 30
0.0
 10
9.8128940978
 20
18.9869360419
 30
0.0
 10
9.7710231055
 20
19.0012664345
 30
0.0
 11
10.0257286816
 21
19.0129211416
 31
0.0
 11
9.9026671349
 21
18.9840411371
 31
0.0
 11
9.7710231055
 21
19.0012664345
 31
0.0
  0
SPLINE
  5
530
100
AcDbEntity
  8
RACCORDO
100
AcDbSpline
 62
7
  6
CONTINUOUS
 70
0
 71
3
 72
8
 73
4
 74
2
 42
0.0000001
 43
0.0000001
 44
0.0000000001
 12
-0.0288145039
 22
0.0098617953
 32
0.0
 13
-0.0272401269
 23
0.0136200634
 33
0.0
 40
0.0
 40
0.0
 40
0.0
 40
0.0
 40
1.0
 40
1.0
 40
1.0
 40
1.0
 10
9.7710231055
 20
19.0012664345
 30
0.0
 10
9.7614182708
 20
19.0045536995
 30
0.0
 10
9.7519660114
 20
19.0083811205
 30
0.0
 10
9.7428859691
 20
19.0129211416
 30
0.0
 11
9.7710231055
 21
19.0012664345
 31
0.0
 11
9.7428859691
 21
19.0129211416
 31
0.0
  0
SPLINE
  5
531
100
AcDbEntity
  8
RACCORDO
100
AcDbSpline
 62
7
  6
CONTINUOUS
 70
0
 71
3
 72
8
 73
4
 74
2
 42
0.0000001
 43
0.0000001
 44
0.0000000001
 12
0.0694511402
 22
0.0102944971
 32
0.0
 13
0.0701969671
 23
0.0013503154
 33
0.0
 40
0.0
 40
0.0
 40
0.0
 40
0.0
 40
1.0
 40
1.0
 40
1.0
 40
1.0
 10
9.7451886687
 20
19.0160497211
 30
0.0
 10
9.7683390488
 20
19.0194812201
 30
0.0
 10
9.7917489092
 20
19.0215278327
 30
0.0
 10
9.8151478982
 20
19.0219779378
 30
0.0
 11
9.7451886687
 21
19.0160497211
 31
0.0
 11
9.8151478982
 21
19.0219779378
 31
0.0
  0
SPLINE
  5
532
100
AcDbEntity
  8
RACCORDO
100
AcDbSpline
 62
7
  6
CONTINUOUS
 70
0
 71
3
 72
8
 73
4
 74
2
 42
0.0000001
 43
0.0000001
 44
0.0000000001
 12
0.0670521467
 22
0.0012898213
 32
0.0
 13
0.0665900371
 23
-0.0079637288
 33
0.0
 40
0.0
 40
0.0
 40
0.0
 40
0.0
 40
1.0
 40
1.0
 40
1.0
 40
1.0
 10
9.8151478982
 20
19.0219779378
 30
0.0
 10
9.8374986138
 20
19.0224078782
 30
0.0
 10
9.8599368538
 20
19.021380011
 30
0.0
 10
9.8821335328
 20
19.0187254347
 30
0.0
 11
9.8151478982
 21
19.0219779378
 31
0.0
 11
9.8821335328
 21
19.0187254347
 31
0.0
  0
SPLINE
  5
533
100
AcDbEntity
  8
RACCORDO
100
AcDbSpline
 62
7
  6
CONTINUOUS
 70
0
 71
3
 72
8
 73
4
 74
2
 42
0.0000001
 43
0.0000001
 44
0.0000000001
 12
0.0965052388
 22
-0.0115413894
 32
0.0
 13
0.0915281206
 23
-0.0326966041
 33
0.0
 40
0.0
 40
0.0
 40
0.0
 40
0.0
 40
1.0
 40
1.0
 40
1.0
 40
1.0
 10
9.8821335328
 20
19.0187254347
 30
0.0
 10
9.9143019457
 20
19.0148783049
 30
0.0
 10
9.9462717811
 20
19.0075269623
 30
0.0
 10
9.9767811547
 20
18.9966280943
 30
0.0
 11
9.8821335328
 21
19.0187254347
 31
0.0
 11
9.9767811547
 21
18.9966280943
 31
0.0
  0
SPLINE
  5
534
100
AcDbEntity
  8
RACCORDO
100
AcDbSpline
 62
7
  6
CONTINUOUS
 70
0
 71
3
 72
9
 73
5
 74
3
 42
0.0000001
 43
0.0000001
 44
0.0000000001
 12
-0.2318096712
 22
-0.1159048356
 32
0.0
 13
-0.2452073995
 23
0.0839224988
 33
0.0
 40
0.0
 40
0.0
 40
0.0
 40
0.0
 40
0.4877276246
 40
1.0
 40
1.0
 40
1.0
 40
1.0
 10
14.9754761499
 20
16.5380474075
 30
0.0
 10
14.9377894898
 20
16.5192040774
 30
0.0
 10
14.8503147761
 20
16.5025184195
 30
0.0
 10
14.7626415661
 20
16.5120623077
 30
0.0
 10
14.7207705738
 20
16.5263927003
 30
0.0
 11
14.9754761499
 21
16.5380474075
 31
0.0
 11
14.8524146032
 21
16.509167403
 31
0.0
 11
14.7207705738
 21
16.5263927003
 31
0.0
  0
SPLINE
  5
535
100
AcDbEntity
  8
RACCORDO
100
AcDbSpline
 62
7
  6
CONTINUOUS
 70
0
 71
3
 72
8
 73
4
 74
2
 42
0.0000001
 43
0.0000001
 44
0.0000000001
 12
-0.0288145039
 22
0.0098617953
 32
0.0
 13
-0.0272401269
 23
0.0136200634
 33
0.0
 40
0.0
 40
0.0
 40
0.0
 40
0.0
 40
1.0
 40
1.0
 40
1.0
 40
1.0
 10
14.7207705738
 20
16.5263927003
 30
0.0
 10
14.7111657391
 20
16.5296799654
 30
0.0
 10
14.7017134797
 20
16.5335073863
 30
0.0
 10
14.6926334374
 20
16.5380474075
 30
0.0
 11
14.7207705738
 21
16.5263927003
 31
0.0
 11
14.6926334374
 21
16.5380474075
 31
0.0
  0
SPLINE
  5
536
100
AcDbEntity
  8
RACCORDO
100
AcDbSpline
 62
7
  6
CONTINUOUS
 70
0
 71
3
 72
9
 73
5
 74
3
 42
0.0000001
 43
0.0000001
 44
0.0000000001
 12
-0.0832678997
 22
0.0416339499
 32
0.0
 13
-0.000024887
 23
0.0930963387
 33
0.0
 40
0.0
 40
0.0
 40
0.0
 40
0.0
 40
0.3109435241
 40
1.0
 40
1.0
 40
1.0
 40
1.0
 10
14.6219227593
 20
16.573402917
 30
0.0
 10
14.6132922212
 20
16.577718186
 30
0.0
 10
14.5870732381
 20
16.5929932836
 30
0.0
 10
14.5633315198
 20
16.6215809023
 30
0.0
 10
14.5633258036
 20
16.6429637807
 30
0.0
 11
14.6219227593
 21
16.573402917
 31
0.0
 11
14.5972264917
 21
16.5885047041
 31
0.0
 11
14.5633258036
 21
16.6429637807
 31
0.0
  0
SPLINE
  5
537
100
AcDbEntity
  8
RACCORDO
100
AcDbSpline
 62
7
  6
CONTINUOUS
 70
0
 71
3
 72
9
 73
5
 74
3
 42
0.0000001
 43
0.0000001
 44
0.0000000001
 12
-0.2742811018
 22
-0.084837197
 32
0.0
 13
-0.256791702
 23
0.128395851
 33
0.0
 40
0.0
 40
0.0
 40
0.0
 40
0.0
 40
0.4949146948
 40
1.0
 40
1.0
 40
1.0
 40
1.0
 10
13.5612625875
 20
17.2317509368
 30
0.0
 10
13.5160140049
 20
17.2177552116
 30
0.0
 10
13.4195851113
 20
17.2088209459
 30
0.0
 10
13.3216537801
 20
17.2235374635
 30
0.0
 10
13.278419875
 20
17.245154416
 30
0.0
 11
13.5612625875
 21
17.2317509368
 31
0.0
 11
13.4201978441
 21
17.2147048489
 31
0.0
 11
13.278419875
 21
17.245154416
 31
0.0
  0
SPLINE
  5
538
100
AcDbEntity
  8
RACCORDO
100
AcDbSpline
 62
7
  6
CONTINUOUS
 70
0
 71
3
 72
9
 73
5
 74
3
 42
0.0000001
 43
0.0000001
 44
0.0000000001
 12
-0.0852484615
 22
0.0426242308
 32
0.0
 13
0.0
 23
0.0953106775
 33
0.0
 40
0.0
 40
0.0
 40
0.0
 40
0.0
 40
0.5671894298
 40
1.0
 40
1.0
 40
1.0
 40
1.0
 10
13.2077091969
 20
17.2805095277
 30
0.0
 10
13.1915918548
 20
17.2885681988
 30
0.0
 10
13.1641486292
 20
17.3061435521
 30
0.0
 10
13.149104859
 20
17.3374697163
 30
0.0
 10
13.149104859
 20
17.3512202058
 30
0.0
 11
13.2077091969
 21
17.2805095277
 31
0.0
 11
13.1644497924
 21
17.3129289968
 31
0.0
 11
13.149104859
 21
17.3512202058
 31
0.0
  0
SPLINE
  5
539
100
AcDbEntity
  8
RACCORDO
100
AcDbSpline
 62
7
  6
CONTINUOUS
 70
0
 71
3
 72
8
 73
4
 74
2
 42
0.0000001
 43
0.0000001
 44
0.0000000001
 12
0.0694511402
 22
0.0102944971
 32
0.0
 13
0.0701969671
 23
0.0013503154
 33
0.0
 40
0.0
 40
0.0
 40
0.0
 40
0.0
 40
1.0
 40
1.0
 40
1.0
 40
1.0
 10
14.694936137
 20
16.5411759869
 30
0.0
 10
14.7180865171
 20
16.544607486
 30
0.0
 10
14.7414963775
 20
16.5466540985
 30
0.0
 10
14.7648953665
 20
16.5471042036
 30
0.0
 11
14.694936137
 21
16.5411759869
 31
0.0
 11
14.7648953665
 21
16.5471042036
 31
0.0
  0
SPLINE
  5
53A
100
AcDbEntity
  8
RACCORDO
100
AcDbSpline
 62
7
  6
CONTINUOUS
 70
0
 71
3
 72
8
 73
4
 74
2
 42
0.0000001
 43
0.0000001
 44
0.0000000001
 12
0.0670521467
 22
0.0012898213
 32
0.0
 13
0.0665900371
 23
-0.0079637288
 33
0.0
 40
0.0
 40
0.0
 40
0.0
 40
0.0
 40
1.0
 40
1.0
 40
1.0
 40
1.0
 10
14.7648953665
 20
16.5471042036
 30
0.0
 10
14.7872460821
 20
16.5475341441
 30
0.0
 10
14.8096843221
 20
16.5465062768
 30
0.0
 10
14.8318810011
 20
16.5438517006
 30
0.0
 11
14.7648953665
 21
16.5471042036
 31
0.0
 11
14.8318810011
 21
16.5438517006
 31
0.0
  0
SPLINE
  5
53B
100
AcDbEntity
  8
RACCORDO
100
AcDbSpline
 62
7
  6
CONTINUOUS
 70
0
 71
3
 72
8
 73
4
 74
2
 42
0.0000001
 43
0.0000001
 44
0.0000000001
 12
0.0965052388
 22
-0.0115413894
 32
0.0
 13
0.0915281206
 23
-0.0326966041
 33
0.0
 40
0.0
 40
0.0
 40
0.0
 40
0.0
 40
1.0
 40
1.0
 40
1.0
 40
1.0
 10
14.8318810011
 20
16.5438517006
 30
0.0
 10
14.864049414
 20
16.5400045708
 30
0.0
 10
14.8960192494
 20
16.5326532282
 30
0.0
 10
14.926528623
 20
16.5217543602
 30
0.0
 11
14.8318810011
 21
16.5438517006
 31
0.0
 11
14.926528623
 21
16.5217543602
 31
0.0
  0
SPLINE
  5
53C
100
AcDbEntity
  8
RACCORDO
100
AcDbSpline
 62
7
  6
CONTINUOUS
 70
0
 71
3
 72
9
 73
5
 74
3
 42
0.0000001
 43
0.0000001
 44
0.0000000001
 12
-0.169028823
 22
-0.059177628
 32
0.0
 13
-0.1766561194
 23
0.0294168341
 33
0.0
 40
0.0
 40
0.0
 40
0.0
 40
0.0
 40
0.235816728
 40
1.0
 40
1.0
 40
1.0
 40
1.0
 10
-14.0678091291
 20
1.933151945
 30
0.0
 10
-14.0810957371
 20
1.9285002535
 30
0.0
 10
-14.1389734615
 20
1.9134200687
 30
0.0
 10
-14.2004341505
 20
1.9126496009
 30
0.0
 10
-14.2454333676
 20
1.9201428851
 30
0.0
 11
-14.0678091291
 21
1.933151945
 31
0.0
 11
-14.1085920553
 21
1.9221836904
 31
0.0
 11
-14.2454333676
 21
1.9201428851
 31
0.0
  0
SPLINE
  5
53D
100
AcDbEntity
  8
RACCORDO
100
AcDbSpline
 62
7
  6
CONTINUOUS
 70
0
 71
3
 72
9
 73
5
 74
3
 42
0.0000001
 43
0.0000001
 44
0.0000000001
 12
-0.054985178
 22
0.0091561496
 32
0.0
 13
-0.0524638448
 23
0.0188348045
 33
0.0
 40
0.0
 40
0.0
 40
0.0
 40
0.0
 40
0.2598365175
 40
1.0
 40
1.0
 40
1.0
 40
1.0
 10
-14.2454333676
 20
1.9201428851
 30
0.0
 10
-14.2501957533
 20
1.9209359191
 30
0.0
 10
-14.2684562784
 20
1.9243690058
 30
0.0
 10
-14.2864534771
 20
1.9293002609
 30
0.0
 10
-14.2993974178
 20
1.9339472057
 30
0.0
 11
-14.2454333676
 21
1.9201428851
 31
0.0
 11
-14.2596674773
 21
1.9228211505
 31
0.0
 11
-14.2993974178
 21
1.9339472057
 31
0.0
  0
SPLINE
  5
53E
100
AcDbEntity
  8
RACCORDO
100
AcDbSpline
 62
7
  6
CONTINUOUS
 70
0
 71
3
 72
8
 73
4
 74
2
 42
0.0000001
 43
0.0000001
 44
0.0000000001
 12
-0.0250958664
 22
0.009009552
 32
0.0
 13
-0.0238491012
 23
0.0119245506
 33
0.0
 40
0.0
 40
0.0
 40
0.0
 40
0.0
 40
1.0
 40
1.0
 40
1.0
 40
1.0
 10
-14.2993974178
 20
1.9339472057
 30
0.0
 10
-14.3077627066
 20
1.9369503897
 30
0.0
 10
-14.3159960722
 20
1.9403816211
 30
0.0
 10
-14.3239457726
 20
1.9443564713
 30
0.0
 11
-14.2993974178
 21
1.9339472057
 31
0.0
 11
-14.3239457726
 21
1.9443564713
 31
0.0
  0
SPLINE
  5
53F
100
AcDbEntity
  8
RACCORDO
100
AcDbSpline
 62
7
  6
CONTINUOUS
 70
0
 71
3
 72
9
 73
5
 74
3
 42
0.0000001
 43
0.0000001
 44
0.0000000001
 12
0.2054133474
 22
0.1027066737
 32
0.0
 13
0.2057611393
 23
-0.1020081254
 33
0.0
 40
0.0
 40
0.0
 40
0.0
 40
0.0
 40
0.5350706874
 40
1.0
 40
1.0
 40
1.0
 40
1.0
 10
12.642023772
 20
0.7951269227
 30
0.0
 10
12.678660659
 20
0.8134453662
 30
0.0
 10
12.7534435066
 20
0.8379842287
 30
0.0
 10
12.8332220975
 20
0.8254673182
 30
0.0
 10
12.8651102259
 20
0.8096584623
 30
0.0
 11
12.642023772
 21
0.7951269227
 31
0.0
 11
12.7601191628
 21
0.8290963267
 31
0.0
 11
12.8651102259
 21
0.8096584623
 31
0.0
  0
SPLINE
  5
540
100
AcDbEntity
  8
RACCORDO
100
AcDbSpline
 62
7
  6
CONTINUOUS
 70
0
 71
3
 72
9
 73
5
 74
3
 42
0.0000001
 43
0.0000001
 44
0.0000000001
 12
0.0
 22
0.3310216824
 32
0.0
 13
0.15012988
 23
0.2950192762
 33
0.0
 40
0.0
 40
0.0
 40
0.0
 40
0.0
 40
0.2339553766
 40
1.0
 40
1.0
 40
1.0
 40
1.0
 10
9.8843073253
 20
-1.0167440025
 30
0.0
 10
9.8843073253
 20
-0.990929235
 30
0.0
 10
9.8926864938
 20
-0.8806694731
 30
0.0
 10
9.9282410446
 20
-0.773173151
 30
0.0
 10
9.9665764404
 20
-0.6978405076
 30
0.0
 11
9.8843073253
 21
-1.0167440025
 31
0.0
 11
9.8897154761
 21
-0.939488764
 31
0.0
 11
9.9665764404
 21
-0.6978405076
 31
0.0
  0
SPLINE
  5
541
100
AcDbEntity
  8
RACCORDO
100
AcDbSpline
 62
7
  6
CONTINUOUS
 70
0
 71
3
 72
9
 73
5
 74
3
 42
0.0000001
 43
0.0000001
 44
0.0000000001
 12
0.1483864421
 22
0.2915932574
 32
0.0
 13
0.2643341053
 23
0.192802087
 33
0.0
 40
0.0
 40
0.0
 40
0.0
 40
0.0
 40
0.2625853946
 40
1.0
 40
1.0
 40
1.0
 40
1.0
 10
9.9665764404
 20
-0.6978405076
 30
0.0
 10
9.9795644779
 20
-0.6723177974
 30
0.0
 10
10.033995985
 20
-0.577880952
 30
0.0
 10
10.1085779176
 20
-0.4938913009
 30
0.0
 10
10.1735525276
 20
-0.4464996092
 30
0.0
 11
9.9665764404
 21
-0.6978405076
 31
0.0
 11
10.0095397092
 21
-0.6234426702
 31
0.0
 11
10.1735525276
 21
-0.4464996092
 31
0.0
  0
SPLINE
  5
542
100
AcDbEntity
  8
RACCORDO
100
AcDbSpline
 62
7
  6
CONTINUOUS
 70
0
 71
3
 72
9
 73
5
 74
3
 42
0.0000001
 43
0.0000001
 44
0.0000000001
 12
0.0610315794
 22
0.044515693
 32
0.0
 13
0.0675662674
 23
0.0337831337
 33
0.0
 40
0.0
 40
0.0
 40
0.0
 40
0.0
 40
0.2589491731
 40
1.0
 40
1.0
 40
1.0
 40
1.0
 10
10.1735525276
 20
-0.4464996092
 30
0.0
 10
10.1788205533
 20
-0.4426571753
 30
0.0
 10
10.1994356382
 20
-0.4281989395
 30
0.0
 10
10.2211707032
 20
-0.4152996117
 30
0.0
 10
10.2378607159
 20
-0.4069546053
 30
0.0
 11
10.1735525276
 21
-0.4464996092
 31
0.0
 11
10.1895721716
 21
-0.4352738109
 31
0.0
 11
10.2378607159
 21
-0.4069546053
 31
0.0
  0
SPLINE
  5
543
100
AcDbEntity
  8
RACCORDO
100
AcDbSpline
 62
7
  6
CONTINUOUS
 70
0
 71
3
 72
11
 73
7
 74
5
 42
0.0000001
 43
0.0000001
 44
0.0000000001
 12
0.0
 22
0.3154327803
 32
0.0
 13
-0.2826093418
 23
0.140106384
 33
0.0
 40
0.0
 40
0.0
 40
0.0
 40
0.0
 40
0.2883523528
 40
0.5492220546
 40
0.7829122029
 40
1.0
 40
1.0
 40
1.0
 40
1.0
 10
13.1723538579
 20
0.4505025685
 30
0.0
 10
13.1723538579
 20
0.4808211633
 30
0.0
 10
13.1671898344
 20
0.5387612545
 30
0.0
 10
13.142562494
 20
0.6181216976
 30
0.0
 10
13.1011364947
 20
0.6818432882
 30
0.0
 10
13.0623372677
 20
0.7111316526
 30
0.0
 10
13.0418869212
 20
0.7212701147
 30
0.0
 11
13.1723538579
 21
0.4505025685
 31
0.0
 11
13.1635927164
 21
0.5410354195
 31
0.0
 11
13.1380259151
 21
0.619249646
 31
0.0
 11
13.0967948125
 21
0.6803535015
 31
0.0
 11
13.0418869212
 21
0.7212701147
 31
0.0
  0
SPLINE
  5
544
100
AcDbEntity
  8
RACCORDO
100
AcDbSpline
 62
7
  6
CONTINUOUS
 70
0
 71
3
 72
9
 73
5
 74
3
 42
0.0000001
 43
0.0000001
 44
0.0000000001
 12
0.1351376156
 22
0.0675688078
 32
0.0
 13
0.1220677483
 23
0.0890347335
 33
0.0
 40
0.0
 40
0.0
 40
0.0
 40
0.0
 40
0.2410316764
 40
1.0
 40
1.0
 40
1.0
 40
1.0
 10
7.1619462178
 20
4.8728510421
 30
0.0
 10
7.1728036998
 20
4.8782797831
 30
0.0
 10
7.2173136924
 20
4.9018695194
 30
0.0
 10
7.259680743
 20
4.9294162025
 30
0.0
 10
7.2905625944
 20
4.95194105
 30
0.0
 11
7.1619462178
 21
4.8728510421
 31
0.0
 11
7.1941358391
 21
4.8898814143
 31
0.0
 11
7.2905625944
 21
4.95194105
 31
0.0
  0
SPLINE
  5
545
100
AcDbEntity
  8
RACCORDO
100
AcDbSpline
 62
7
  6
CONTINUOUS
 70
0
 71
3
 72
9
 73
5
 74
3
 42
0.0000001
 43
0.0000001
 44
0.0000000001
 12
0.251038148
 22
0.1831041772
 32
0.0
 13
0.1985570006
 23
0.2390029477
 33
0.0
 40
0.0
 40
0.0
 40
0.0
 40
0.0
 40
0.2392799485
 40
1.0
 40
1.0
 40
1.0
 40
1.0
 10
7.2905625944
 20
4.95194105
 30
0.0
 10
7.3105853928
 20
4.966545436
 30
0.0
 10
7.392102672
 20
5.0305192805
 30
0.0
 10
7.4651508445
 20
5.105048363
 30
0.0
 10
7.5154996084
 20
5.1656531412
 30
0.0
 11
7.2905625944
 21
4.95194105
 31
0.0
 11
7.3491113958
 21
4.9977650915
 31
0.0
 11
7.5154996084
 21
5.1656531412
 31
0.0
  0
SPLINE
  5
546
100
AcDbEntity
  8
RACCORDO
100
AcDbSpline
 62
7
  6
CONTINUOUS
 70
0
 71
3
 72
10
 73
6
 74
4
 42
0.0000001
 43
0.0000001
 44
0.0000000001
 12
0.6438539864
 22
0.775006674
 32
0.0
 13
0.0
 23
1.0075630504
 33
0.0
 40
0.0
 40
0.0
 40
0.0
 40
0.0
 40
0.5121281248
 40
0.7650829851
 40
1.0
 40
1.0
 40
1.0
 40
1.0
 10
7.5154996084
 20
5.1656531412
 30
0.0
 10
7.6254115199
 20
5.2979540461
 30
0.0
 10
7.756427291
 20
5.5261880861
 30
0.0
 10
7.8503958148
 20
5.8494338421
 30
0.0
 10
7.869052999
 20
6.0135319351
 30
0.0
 10
7.869052999
 20
6.0924298365
 30
0.0
 11
7.5154996084
 21
5.1656531412
 31
0.0
 11
7.7743186535
 21
5.6120499619
 31
0.0
 11
7.8447820661
 21
5.85698381
 31
0.0
 11
7.869052999
 21
6.0924298365
 31
0.0
  0
SPLINE
  5
547
100
AcDbEntity
  8
RACCORDO
100
AcDbSpline
 62
7
  6
CONTINUOUS
 70
0
 71
3
 72
9
 73
5
 74
3
 42
0.0000001
 43
0.0000001
 44
0.0000000001
 12
0.0
 22
0.1520619697
 32
0.0
 13
-0.0248411407
 23
0.1500191999
 33
0.0
 40
0.0
 40
0.0
 40
0.0
 40
0.0
 40
0.2568005962
 40
1.0
 40
1.0
 40
1.0
 40
1.0
 10
7.869052999
 20
7.3914679422
 30
0.0
 10
7.869052999
 20
7.404484477
 30
0.0
 10
7.8680737504
 20
7.4551640267
 30
0.0
 10
7.8631376675
 20
7.5057908106
 30
0.0
 10
7.8569836939
 20
7.5429555373
 30
0.0
 11
7.869052999
 21
7.3914679422
 31
0.0
 11
7.8682891162
 21
7.4305100745
 31
0.0
 11
7.8569836939
 21
7.5429555373
 31
0.0
  0
SPLINE
  5
548
100
AcDbEntity
  8
RACCORDO
100
AcDbSpline
 62
7
  6
CONTINUOUS
 70
0
 71
3
 72
9
 73
5
 74
3
 42
0.0000001
 43
0.0000001
 44
0.0000000001
 12
-0.0586864085
 22
0.3544156108
 32
0.0
 13
-0.2584936303
 23
0.249470565
 33
0.0
 40
0.0
 40
0.0
 40
0.0
 40
0.0
 40
0.2756844958
 40
1.0
 40
1.0
 40
1.0
 40
1.0
 10
7.8569836939
 20
7.5429555373
 30
0.0
 10
7.8515907162
 20
7.5755245003
 30
0.0
 10
7.8254969223
 20
7.6920444179
 30
0.0
 10
7.7669250836
 20
7.8045049025
 30
0.0
 10
7.7045147689
 20
7.8647367019
 30
0.0
 11
7.8569836939
 21
7.5429555373
 31
0.0
 11
7.8347350129
 21
7.639461445
 31
0.0
 11
7.7045147689
 21
7.8647367019
 31
0.0
  0
SPLINE
  5
549
100
AcDbEntity
  8
RACCORDO
100
AcDbSpline
 62
7
  6
CONTINUOUS
 70
0
 71
3
 72
9
 73
5
 74
3
 42
0.0000001
 43
0.0000001
 44
0.0000000001
 12
0.3239572007
 22
0.1619786004
 32
0.0
 13
0.3549068415
 23
-0.07229432
 33
0.0
 40
0.0
 40
0.0
 40
0.0
 40
0.0
 40
0.2742227212
 40
1.0
 40
1.0
 40
1.0
 40
1.0
 10
7.3387229131
 20
7.8155516077
 30
0.0
 10
7.3683350548
 20
7.8303576786
 30
0.0
 10
7.4791897763
 20
7.8773942331
 30
0.0
 10
7.6064151964
 20
7.8937927575
 30
0.0
 10
7.6922763037
 20
7.8763028992
 30
0.0
 11
7.3387229131
 21
7.8155516077
 31
0.0
 11
7.430363867
 21
7.8538507408
 31
0.0
 11
7.6922763037
 21
7.8763028992
 31
0.0
  0
SPLINE
  5
54A
100
AcDbEntity
  8
RACCORDO
100
AcDbSpline
 62
7
  6
CONTINUOUS
 70
0
 71
3
 72
8
 73
4
 74
2
 42
0.0000001
 43
0.0000001
 44
0.0000000001
 12
0.0959205243
 22
-0.0195389558
 32
0.0
 13
0.0877040212
 23
-0.0434801383
 33
0.0
 40
0.0
 40
0.0
 40
0.0
 40
0.0
 40
1.0
 40
1.0
 40
1.0
 40
1.0
 10
7.6922763037
 20
7.8763028992
 30
0.0
 10
7.7242498118
 20
7.869789914
 30
0.0
 10
7.7556611471
 20
7.8591080664
 30
0.0
 10
7.7848958209
 20
7.844614687
 30
0.0
 11
7.6922763037
 21
7.8763028992
 31
0.0
 11
7.7848958209
 21
7.844614687
 31
0.0
  0
SPLINE
  5
54B
100
AcDbEntity
  8
RACCORDO
100
AcDbSpline
 62
7
  6
CONTINUOUS
 70
0
 71
3
 72
9
 73
5
 74
3
 42
0.0000001
 43
0.0000001
 44
0.0000000001
 12
0.0
 22
0.1520619697
 32
0.0
 13
-0.0248411407
 23
0.1500191999
 33
0.0
 40
0.0
 40
0.0
 40
0.0
 40
0.0
 40
0.2568005962
 40
1.0
 40
1.0
 40
1.0
 40
1.0
 10
7.869052999
 20
-0.2295556111
 30
0.0
 10
7.869052999
 20
-0.2165390763
 30
0.0
 10
7.8680737504
 20
-0.1658595266
 30
0.0
 10
7.8631376675
 20
-0.1152327427
 30
0.0
 10
7.8569836939
 20
-0.078068016
 30
0.0
 11
7.869052999
 21
-0.2295556111
 31
0.0
 11
7.8682891162
 21
-0.1905134789
 31
0.0
 11
7.8569836939
 21
-0.078068016
 31
0.0
  0
SPLINE
  5
54C
100
AcDbEntity
  8
RACCORDO
100
AcDbSpline
 62
7
  6
CONTINUOUS
 70
0
 71
3
 72
9
 73
5
 74
3
 42
0.0000001
 43
0.0000001
 44
0.0000000001
 12
-0.0586864085
 22
0.3544156108
 32
0.0
 13
-0.2584936303
 23
0.249470565
 33
0.0
 40
0.0
 40
0.0
 40
0.0
 40
0.0
 40
0.2756844958
 40
1.0
 40
1.0
 40
1.0
 40
1.0
 10
7.8569836939
 20
-0.078068016
 30
0.0
 10
7.8515907162
 20
-0.045499053
 30
0.0
 10
7.8254969223
 20
0.0710208646
 30
0.0
 10
7.7669250836
 20
0.1834813492
 30
0.0
 10
7.7045147689
 20
0.2437131486
 30
0.0
 11
7.8569836939
 21
-0.078068016
 31
0.0
 11
7.8347350129
 21
0.0184378917
 31
0.0
 11
7.7045147689
 21
0.2437131486
 31
0.0
  0
SPLINE
  5
54D
100
AcDbEntity
  8
RACCORDO
100
AcDbSpline
 62
7
  6
CONTINUOUS
 70
0
 71
3
 72
9
 73
5
 74
3
 42
0.0000001
 43
0.0000001
 44
0.0000000001
 12
0.3239572007
 22
0.1619786004
 32
0.0
 13
0.3549068415
 23
-0.07229432
 33
0.0
 40
0.0
 40
0.0
 40
0.0
 40
0.0
 40
0.2742227212
 40
1.0
 40
1.0
 40
1.0
 40
1.0
 10
7.3387229131
 20
0.1945280544
 30
0.0
 10
7.3683350548
 20
0.2093341253
 30
0.0
 10
7.4791897763
 20
0.2563706798
 30
0.0
 10
7.6064151964
 20
0.2727692042
 30
0.0
 10
7.6922763037
 20
0.2552793459
 30
0.0
 11
7.3387229131
 21
0.1945280544
 31
0.0
 11
7.430363867
 21
0.2328271875
 31
0.0
 11
7.6922763037
 21
0.2552793459
 31
0.0
  0
SPLINE
  5
54E
100
AcDbEntity
  8
RACCORDO
100
AcDbSpline
 62
7
  6
CONTINUOUS
 70
0
 71
3
 72
8
 73
4
 74
2
 42
0.0000001
 43
0.0000001
 44
0.0000000001
 12
0.0959205243
 22
-0.0195389558
 32
0.0
 13
0.0877040212
 23
-0.0434801383
 33
0.0
 40
0.0
 40
0.0
 40
0.0
 40
0.0
 40
1.0
 40
1.0
 40
1.0
 40
1.0
 10
7.6922763037
 20
0.2552793459
 30
0.0
 10
7.7242498118
 20
0.2487663607
 30
0.0
 10
7.7556611471
 20
0.2380845131
 30
0.0
 10
7.7848958209
 20
0.2235911337
 30
0.0
 11
7.6922763037
 21
0.2552793459
 31
0.0
 11
7.7848958209
 21
0.2235911337
 31
0.0
  0
SPLINE
  5
54F
100
AcDbEntity
  8
RACCORDO
100
AcDbSpline
 62
7
  6
CONTINUOUS
 70
0
 71
3
 72
9
 73
5
 74
3
 42
0.0000001
 43
0.0000001
 44
0.0000000001
 12
0.1351376156
 22
0.0675688078
 32
0.0
 13
0.1220677483
 23
0.0890347335
 33
0.0
 40
0.0
 40
0.0
 40
0.0
 40
0.0
 40
0.2410316764
 40
1.0
 40
1.0
 40
1.0
 40
1.0
 10
7.1619462178
 20
-2.7481725112
 30
0.0
 10
7.1728036998
 20
-2.7427437702
 30
0.0
 10
7.2173136924
 20
-2.7191540339
 30
0.0
 10
7.259680743
 20
-2.6916073508
 30
0.0
 10
7.2905625944
 20
-2.6690825033
 30
0.0
 11
7.1619462178
 21
-2.7481725112
 31
0.0
 11
7.1941358391
 21
-2.731142139
 31
0.0
 11
7.2905625944
 21
-2.6690825033
 31
0.0
  0
SPLINE
  5
550
100
AcDbEntity
  8
RACCORDO
100
AcDbSpline
 62
7
  6
CONTINUOUS
 70
0
 71
3
 72
9
 73
5
 74
3
 42
0.0000001
 43
0.0000001
 44
0.0000000001
 12
0.251038148
 22
0.1831041772
 32
0.0
 13
0.1985570006
 23
0.2390029477
 33
0.0
 40
0.0
 40
0.0
 40
0.0
 40
0.0
 40
0.2392799485
 40
1.0
 40
1.0
 40
1.0
 40
1.0
 10
7.2905625944
 20
-2.6690825033
 30
0.0
 10
7.3105853928
 20
-2.6544781173
 30
0.0
 10
7.392102672
 20
-2.5905042728
 30
0.0
 10
7.4651508445
 20
-2.5159751903
 30
0.0
 10
7.5154996084
 20
-2.4553704121
 30
0.0
 11
7.2905625944
 21
-2.6690825033
 31
0.0
 11
7.3491113958
 21
-2.6232584618
 31
0.0
 11
7.5154996084
 21
-2.4553704121
 31
0.0
  0
SPLINE
  5
551
100
AcDbEntity
  8
RACCORDO
100
AcDbSpline
 62
7
  6
CONTINUOUS
 70
0
 71
3
 72
9
 73
5
 74
3
 42
0.0000001
 43
0.0000001
 44
0.0000000001
 12
0.4603751544
 22
0.70153132
 32
0.0
 13
0.0
 23
0.8391015884
 33
0.0
 40
0.0
 40
0.0
 40
0.0
 40
0.0
 40
0.517001678
 40
1.0
 40
1.0
 40
1.0
 40
1.0
 10
7.6155409931
 20
-2.3198577701
 30
0.0
 10
7.6948792355
 20
-2.1989601469
 30
0.0
 10
7.8170365269
 20
-1.9436248533
 30
0.0
 10
7.869052999
 20
-1.6636886032
 30
0.0
 10
7.869052999
 20
-1.5285937168
 30
0.0
 11
7.6155409931
 21
-2.3198577701
 31
0.0
 11
7.8024422936
 21
-1.9283669886
 31
0.0
 11
7.869052999
 21
-1.5285937168
 31
0.0
  0
SPLINE
  5
552
100
AcDbEntity
  8
RACCORDO
100
AcDbSpline
 62
7
  6
CONTINUOUS
 70
0
 71
3
 72
9
 73
5
 74
3
 42
0.0000001
 43
0.0000001
 44
0.0000000001
 12
0.0
 22
0.1269725934
 32
0.0
 13
0.0556695396
 23
0.1141181047
 33
0.0
 40
0.0
 40
0.0
 40
0.0
 40
0.0
 40
0.2340348408
 40
1.0
 40
1.0
 40
1.0
 40
1.0
 10
-15.4654707802
 20
9.9478482874
 30
0.0
 10
-15.4654707802
 20
9.9577536243
 30
0.0
 10
-15.4623818768
 20
10.0000497407
 30
0.0
 10
-15.4492253943
 20
10.0413590354
 30
0.0
 10
-15.4350117517
 20
10.0704958662
 30
0.0
 11
-15.4654707802
 21
9.9478482874
 31
0.0
 11
-15.4634735336
 21
9.9774971036
 31
0.0
 11
-15.4350117517
 21
10.0704958662
 31
0.0
  0
SPLINE
  5
553
100
AcDbEntity
  8
RACCORDO
100
AcDbSpline
 62
7
  6
CONTINUOUS
 70
0
 71
3
 72
8
 73
4
 74
2
 42
0.0000001
 43
0.0000001
 44
0.0000000001
 12
0.0
 22
-0.0510401421
 32
0.0
 13
0.0094466044
 23
-0.0501583271
 33
0.0
 40
0.0
 40
0.0
 40
0.0
 40
0.0
 40
1.0
 40
1.0
 40
1.0
 40
1.0
 10
-8.3236922902
 20
-9.1248956853
 30
0.0
 10
-8.3236922902
 20
-9.141909066
 30
0.0
 10
-8.3222672299
 20
-9.1590110272
 30
0.0
 10
-8.3191183618
 20
-9.1757304695
 30
0.0
 11
-8.3236922902
 21
-9.1248956853
 31
0.0
 11
-8.3191183618
 21
-9.1757304695
 31
0.0
  0
SPLINE
  5
554
100
AcDbEntity
  8
RACCORDO
100
AcDbSpline
 62
7
  6
CONTINUOUS
 70
0
 71
3
 72
9
 73
5
 74
3
 42
0.0000001
 43
0.0000001
 44
0.0000000001
 12
0.0254530856
 22
-0.1351474175
 32
0.0
 13
0.1232129265
 23
-0.0610840303
 33
0.0
 40
0.0
 40
0.0
 40
0.0
 40
0.0
 40
0.5368275124
 40
1.0
 40
1.0
 40
1.0
 40
1.0
 10
-8.3191183618
 20
-9.1757304695
 30
0.0
 10
-8.3145637229
 20
-9.1999140868
 30
0.0
 10
-8.2996120391
 20
-9.2446881876
 30
0.0
 10
-8.2644350741
 20
-9.2779253989
 30
0.0
 10
-8.2454121282
 20
-9.287356213
 30
0.0
 11
-8.3191183618
 21
-9.1757304695
 31
0.0
 11
-8.2926821745
 21
-9.2446612807
 31
0.0
 11
-8.2454121282
 21
-9.287356213
 31
0.0
  0
SPLINE
  5
555
100
AcDbEntity
  8
RACCORDO
100
AcDbSpline
 62
7
  6
CONTINUOUS
 70
0
 71
3
 72
9
 73
5
 74
3
 42
0.0000001
 43
0.0000001
 44
0.0000000001
 12
-0.1232480085
 22
-0.0616240042
 32
0.0
 13
-0.1234566836
 23
0.0612048753
 33
0.0
 40
0.0
 40
0.0
 40
0.0
 40
0.0
 40
0.5350706874
 40
1.0
 40
1.0
 40
1.0
 40
1.0
 10
-11.5056728056
 20
-7.5815810144
 30
0.0
 10
-11.5276549378
 20
-7.5925720805
 30
0.0
 10
-11.5725246463
 20
-7.607295398
 30
0.0
 10
-11.6203918009
 20
-7.5997852517
 30
0.0
 10
-11.6395246779
 20
-7.5902999382
 30
0.0
 11
-11.5056728056
 21
-7.5815810144
 31
0.0
 11
-11.5765300401
 21
-7.6019626568
 31
0.0
 11
-11.6395246779
 21
-7.5902999382
 31
0.0
  0
SPLINE
  5
556
100
AcDbEntity
  8
RACCORDO
100
AcDbSpline
 62
7
  6
CONTINUOUS
 70
0
 71
3
 72
9
 73
5
 74
3
 42
0.0000001
 43
0.0000001
 44
0.0000000001
 12
0.0
 22
0.0544752658
 32
0.0
 13
0.0118464879
 23
0.0531715648
 33
0.0
 40
0.0
 40
0.0
 40
0.0
 40
0.0
 40
0.2392468085
 40
1.0
 40
1.0
 40
1.0
 40
1.0
 10
-6.5559253372
 20
5.493075566
 30
0.0
 10
-6.5559253372
 20
5.4974199105
 30
0.0
 10
-6.5553391483
 20
5.5155768557
 30
0.0
 10
-6.5526151129
 20
5.5336373438
 30
0.0
 10
-6.5496110284
 20
5.547120823
 30
0.0
 11
-6.5559253372
 21
5.493075566
 31
0.0
 11
-6.5555224813
 21
5.5061023717
 31
0.0
 11
-6.5496110284
 21
5.547120823
 31
0.0
  0
SPLINE
  5
557
100
AcDbEntity
  8
RACCORDO
100
AcDbSpline
 62
7
  6
CONTINUOUS
 70
0
 71
3
 72
9
 73
5
 74
3
 42
0.0000001
 43
0.0000001
 44
0.0000000001
 12
-0.2460049845
 22
-0.0861272723
 32
0.0
 13
-0.2331289075
 23
0.1165644538
 33
0.0
 40
0.0
 40
0.0
 40
0.0
 40
0.0
 40
0.5115359907
 40
1.0
 40
1.0
 40
1.0
 40
1.0
 10
-14.0905638775
 20
-0.3619555465
 30
0.0
 10
-14.1325106786
 20
-0.3766412797
 30
0.0
 10
-14.2207313493
 20
-0.3863180203
 30
0.0
 10
-14.3087421607
 20
-0.3697302004
 30
0.0
 10
-14.346700521
 20
-0.3507510202
 30
0.0
 11
-14.0905638775
 21
-0.3619555465
 31
0.0
 11
-14.2227118613
 21
-0.3796686588
 31
0.0
 11
-14.346700521
 21
-0.3507510202
 31
0.0
  0
SPLINE
  5
558
100
AcDbEntity
  8
RACCORDO
100
AcDbSpline
 62
7
  6
CONTINUOUS
 70
0
 71
3
 72
9
 73
5
 74
3
 42
0.0000001
 43
0.0000001
 44
0.0000000001
 12
-0.0647842706
 22
-0.0323921353
 32
0.0
 13
-0.068362408
 23
-0.0239339367
 33
0.0
 40
0.0
 40
0.0
 40
0.0
 40
0.0
 40
0.2411973241
 40
1.0
 40
1.0
 40
1.0
 40
1.0
 10
-12.1592194764
 20
0.318851985
 30
0.0
 10
-12.1644280739
 20
0.3162476862
 30
0.0
 10
-12.1862132375
 20
0.3058327027
 30
0.0
 10
-12.2086934561
 20
0.296894381
 30
0.0
 10
-12.2259846488
 20
0.2908406692
 30
0.0
 11
-12.1592194764
 21
0.318851985
 31
0.0
 11
-12.1749775559
 21
0.3113094604
 31
0.0
 11
-12.2259846488
 21
0.2908406692
 31
0.0
  0
SPLINE
  5
559
100
AcDbEntity
  8
RACCORDO
100
AcDbSpline
 62
253
  6
CONTINUOUS
 70
0
 71
3
 72
8
 73
4
 74
2
 42
0.0000001
 43
0.0000001
 44
0.0000000001
 12
0.0
 22
-0.0133853074
 32
0.0
 13
-0.0063634699
 23
-0.0117759375
 33
0.0
 40
0.0
 40
0.0
 40
0.0
 40
0.0
 40
1.0
 40
1.0
 40
1.0
 40
1.0
 10
9.7014774599
 20
-0.5519475761
 30
0.0
 10
9.7014774599
 20
-0.5564093452
 30
0.0
 10
9.7001783521
 20
-0.5609632158
 30
0.0
 10
9.6980571955
 20
-0.5648885283
 30
0.0
 11
9.7014774599
 21
-0.5519475761
 31
0.0
 11
9.6980571955
 21
-0.5648885283
 31
0.0
  0
SPLINE
  5
55A
100
AcDbEntity
  8
RACCORDO
100
AcDbSpline
 62
253
  6
CONTINUOUS
 70
0
 71
3
 72
9
 73
5
 74
3
 42
0.0000001
 43
0.0000001
 44
0.0000000001
 12
-0.0164260283
 22
-0.0303972339
 32
0.0
 13
-0.0309038023
 23
-0.0154519009
 33
0.0
 40
0.0
 40
0.0
 40
0.0
 40
0.0
 40
0.2177010158
 40
1.0
 40
1.0
 40
1.0
 40
1.0
 10
9.6980571955
 20
-0.5648885283
 30
0.0
 10
9.6968652078
 20
-0.5670943646
 30
0.0
 10
9.6901949184
 20
-0.576583162
 30
0.0
 10
9.680233962
 20
-0.5832735795
 30
0.0
 10
9.672175291
 20
-0.5873029149
 30
0.0
 11
9.6980571955
 21
-0.5648885283
 31
0.0
 11
9.6938049933
 21
-0.5710931806
 31
0.0
 11
9.672175291
 21
-0.5873029149
 31
0.0
  0
SPLINE
  5
55B
100
AcDbEntity
  8
RACCORDO
100
AcDbSpline
 62
7
  6
CONTINUOUS
 70
0
 71
3
 72
9
 73
5
 74
3
 42
0.0000001
 43
0.0000001
 44
0.0000000001
 12
-0.1696303606
 22
0.0849537733
 32
0.0
 13
-0.1889431832
 23
0.0170902424
 33
0.0
 40
0.0
 40
0.0
 40
0.0
 40
0.0
 40
0.2470545273
 40
1.0
 40
1.0
 40
1.0
 40
1.0
 10
15.0620996362
 20
16.6809470931
 30
0.0
 10
15.04813032
 20
16.6879431646
 30
0.0
 10
14.9902484135
 20
16.7135485508
 30
0.0
 10
14.9274571851
 20
16.7276903975
 30
0.0
 10
14.8800358803
 20
16.7319797378
 30
0.0
 11
15.0620996362
 21
16.6809470931
 31
0.0
 11
15.0192307009
 21
16.6998953299
 31
0.0
 11
14.8800358803
 21
16.7319797378
 31
0.0
  0
SPLINE
  5
55C
100
AcDbEntity
  8
RACCORDO
100
AcDbSpline
 62
7
  6
CONTINUOUS
 70
0
 71
3
 72
9
 73
5
 74
3
 42
0.0000001
 43
0.0000001
 44
0.0000000001
 12
-0.168267614
 22
0.0152201009
 32
0.0
 13
-0.1662433375
 23
-0.0301462125
 33
0.0
 40
0.0
 40
0.0
 40
0.0
 40
0.0
 40
0.2426450808
 40
1.0
 40
1.0
 40
1.0
 40
1.0
 10
14.8800358803
 20
16.7319797378
 30
0.0
 10
14.8664261107
 20
16.7332107653
 30
0.0
 10
14.8101549972
 20
16.7362013477
 30
0.0
 10
14.7535592838
 20
16.7310692261
 30
0.0
 10
14.7115908807
 20
16.7234587653
 30
0.0
 11
14.8800358803
 21
16.7319797378
 31
0.0
 11
14.8390991816
 21
16.7341838281
 31
0.0
 11
14.7115908807
 21
16.7234587653
 31
0.0
  0
SPLINE
  5
55D
100
AcDbEntity
  8
RACCORDO
100
AcDbSpline
 62
7
  6
CONTINUOUS
 70
0
 71
3
 72
9
 73
5
 74
3
 42
0.0000001
 43
0.0000001
 44
0.0000000001
 12
-0.1696303606
 22
0.0849537733
 32
0.0
 13
-0.1889431832
 23
0.0170902424
 33
0.0
 40
0.0
 40
0.0
 40
0.0
 40
0.0
 40
0.2470545273
 40
1.0
 40
1.0
 40
1.0
 40
1.0
 10
10.1123521679
 20
19.1558208273
 30
0.0
 10
10.0983828517
 20
19.1628168987
 30
0.0
 10
10.0405009452
 20
19.188422285
 30
0.0
 10
9.9777097168
 20
19.2025641317
 30
0.0
 10
9.930288412
 20
19.2068534719
 30
0.0
 11
10.1123521679
 21
19.1558208273
 31
0.0
 11
10.0694832325
 21
19.174769064
 31
0.0
 11
9.930288412
 21
19.2068534719
 31
0.0
  0
SPLINE
  5
55E
100
AcDbEntity
  8
RACCORDO
100
AcDbSpline
 62
7
  6
CONTINUOUS
 70
0
 71
3
 72
9
 73
5
 74
3
 42
0.0000001
 43
0.0000001
 44
0.0000000001
 12
-0.168267614
 22
0.0152201009
 32
0.0
 13
-0.1662433375
 23
-0.0301462125
 33
0.0
 40
0.0
 40
0.0
 40
0.0
 40
0.0
 40
0.2426450808
 40
1.0
 40
1.0
 40
1.0
 40
1.0
 10
9.930288412
 20
19.2068534719
 30
0.0
 10
9.9166786424
 20
19.2080844995
 30
0.0
 10
9.8604075289
 20
19.2110750819
 30
0.0
 10
9.8038118155
 20
19.2059429602
 30
0.0
 10
9.7618434124
 20
19.1983324995
 30
0.0
 11
9.930288412
 21
19.2068534719
 31
0.0
 11
9.8893517133
 21
19.2090575622
 31
0.0
 11
9.7618434124
 21
19.1983324995
 31
0.0
  0
SPLINE
  5
55F
100
AcDbEntity
  8
RACCORDO
100
AcDbSpline
 62
7
  6
CONTINUOUS
 70
0
 71
3
 72
9
 73
5
 74
3
 42
0.0000001
 43
0.0000001
 44
0.0000000001
 12
0.0
 22
-0.0953106775
 32
0.0
 13
0.0852484615
 23
-0.0426242308
 33
0.0
 40
0.0
 40
0.0
 40
0.0
 40
0.0
 40
0.4328105702
 40
1.0
 40
1.0
 40
1.0
 40
1.0
 10
-15.5594304571
 20
8.9970061505
 30
0.0
 10
-15.5594304571
 20
8.983255661
 30
0.0
 10
-15.544386687
 20
8.9519294968
 30
0.0
 10
-15.5169434614
 20
8.9343541435
 30
0.0
 10
-15.5008261193
 20
8.9262954724
 30
0.0
 11
-15.5594304571
 21
8.9970061505
 31
0.0
 11
-15.5440855238
 21
8.9587149415
 31
0.0
 11
-15.5008261193
 21
8.9262954724
 31
0.0
  0
SPLINE
  5
560
100
AcDbEntity
  8
RACCORDO
100
AcDbSpline
 62
253
  6
CONTINUOUS
 70
0
 71
3
 72
9
 73
5
 74
3
 42
0.0000001
 43
0.0000001
 44
0.0000000001
 12
-0.0294220168
 22
0.0147110084
 32
0.0
 13
-0.0321464766
 23
0.0069765955
 33
0.0
 40
0.0
 40
0.0
 40
0.0
 40
0.0
 40
0.2319577267
 40
1.0
 40
1.0
 40
1.0
 40
1.0
 10
13.1723538579
 20
1.2688523855
 30
0.0
 10
13.1700789698
 20
1.2699898295
 30
0.0
 10
13.1600733772
 20
1.2744951121
 30
0.0
 10
13.1494736757
 20
1.2776024007
 30
0.0
 10
13.1412437247
 20
1.2793885074
 30
0.0
 11
13.1723538579
 21
1.2688523855
 31
0.0
 11
13.1654052551
 21
1.2720046815
 31
0.0
 11
13.1412437247
 21
1.2793885074
 31
0.0
  0
SPLINE
  5
561
100
AcDbEntity
  8
RACCORDO
100
AcDbSpline
 62
253
  6
CONTINUOUS
 70
0
 71
3
 72
9
 73
5
 74
3
 42
0.0000001
 43
0.0000001
 44
0.0000000001
 12
-0.0
 22
0.0622308155
 32
0.0
 13
-0.0555442007
 23
0.0280627186
 33
0.0
 40
0.0
 40
0.0
 40
0.0
 40
0.0
 40
0.5512494705
 40
1.0
 40
1.0
 40
1.0
 40
1.0
 10
13.2077091969
 20
1.2511747159
 30
0.0
 10
13.2077091969
 20
1.2626096173
 30
0.0
 10
13.2047743472
 20
1.2838855925
 30
0.0
 10
13.1901554588
 20
1.3009991567
 30
0.0
 10
13.1818469623
 20
1.3051968767
 30
0.0
 11
13.2077091969
 21
1.2511747159
 31
0.0
 11
13.2009230295
 21
1.2848015007
 31
0.0
 11
13.1818469623
 21
1.3051968767
 31
0.0
  0
SPLINE
  5
562
100
AcDbEntity
  8
RACCORDO
100
AcDbSpline
 62
253
  6
CONTINUOUS
 70
0
 71
3
 72
9
 73
5
 74
3
 42
0.0000001
 43
0.0000001
 44
0.0000000001
 12
-0.12917776
 22
-0.0645888801
 32
0.0
 13
-0.12917776
 23
0.06458888
 33
0.0
 40
0.0
 40
0.0
 40
0.0
 40
0.0
 40
0.5
 40
1.0
 40
1.0
 40
1.0
 40
1.0
 10
13.3491305532
 20
1.251174716
 30
0.0
 10
13.3276009265
 20
1.2404099026
 30
0.0
 10
13.278419875
 20
1.2326373603
 30
0.0
 10
13.2292388236
 20
1.2404099026
 30
0.0
 10
13.2077091969
 20
1.2511747159
 30
0.0
 11
13.3491305532
 21
1.251174716
 31
0.0
 11
13.278419875
 21
1.2365236315
 31
0.0
 11
13.2077091969
 21
1.2511747159
 31
0.0
  0
SPLINE
  5
563
100
AcDbEntity
  8
RACCORDO
100
AcDbSpline
 62
253
  6
CONTINUOUS
 70
0
 71
3
 72
9
 73
5
 74
3
 42
0.0000001
 43
0.0000001
 44
0.0000000001
 12
0.0
 22
-0.0623606862
 32
0.0
 13
-0.0557803361
 23
-0.0278820602
 33
0.0
 40
0.0
 40
0.0
 40
0.0
 40
0.0
 40
0.5511859032
 40
1.0
 40
1.0
 40
1.0
 40
1.0
 10
9.8135966472
 20
-0.3433871563
 30
0.0
 10
9.8135966472
 20
-0.3548446
 30
0.0
 10
9.8106122009
 20
-0.3761497768
 30
0.0
 10
9.7959580629
 20
-0.393314718
 30
0.0
 10
9.7876130625
 20
-0.3974860052
 30
0.0
 11
9.8135966472
 21
-0.3433871563
 31
0.0
 11
9.8067613565
 21
-0.3770729982
 31
0.0
 11
9.7876130625
 21
-0.3974860052
 31
0.0
  0
SPLINE
  5
564
100
AcDbEntity
  8
RACCORDO
100
AcDbSpline
 62
253
  6
CONTINUOUS
 70
0
 71
3
 72
9
 73
5
 74
3
 42
0.0000001
 43
0.0000001
 44
0.0000000001
 12
0.0557803363
 22
0.0278820603
 32
0.0
 13
0.0000000004
 23
0.0623606863
 33
0.0
 40
0.0
 40
0.0
 40
0.0
 40
0.0
 40
0.4488140962
 40
1.0
 40
1.0
 40
1.0
 40
1.0
 10
13.1817256121
 20
1.2995702697
 30
0.0
 10
13.1900706125
 20
1.3037415569
 30
0.0
 10
13.2047247506
 20
1.320906498
 30
0.0
 10
13.207709197
 20
1.3422116749
 30
0.0
 10
13.2077091971
 20
1.3536691187
 30
0.0
 11
13.1817256121
 21
1.2995702697
 31
0.0
 11
13.2008739062
 21
1.3199832766
 31
0.0
 11
13.2077091971
 21
1.3536691187
 31
0.0
  0
SPLINE
  5
565
100
AcDbEntity
  8
RACCORDO
100
AcDbSpline
 62
253
  6
CONTINUOUS
 70
0
 71
3
 72
9
 73
5
 74
3
 42
0.0000001
 43
0.0000001
 44
0.0000000001
 12
0.0
 22
0.1319096745
 32
0.0
 13
0.0596436377
 23
0.1176554237
 33
0.0
 40
0.0
 40
0.0
 40
0.0
 40
0.0
 40
0.2339611159
 40
1.0
 40
1.0
 40
1.0
 40
1.0
 10
-4.7528030452
 20
4.5915144199
 30
0.0
 10
-4.7528030452
 20
4.6018016648
 30
0.0
 10
-4.7494759337
 20
4.6457396453
 30
0.0
 10
-4.7353534755
 20
4.6885834614
 30
0.0
 10
-4.7201236936
 20
4.7186263379
 30
0.0
 11
-4.7528030452
 21
4.5915144199
 31
0.0
 11
-4.7506553022
 21
4.6223013306
 31
0.0
 11
-4.7201236936
 21
4.7186263379
 31
0.0
  0
SPLINE
  5
566
100
AcDbEntity
  8
RACCORDO
100
AcDbSpline
 62
7
  6
CONTINUOUS
 70
0
 71
3
 72
9
 73
5
 74
3
 42
0.0000001
 43
0.0000001
 44
0.0000000001
 12
-0.0407467429
 22
-0.0203733715
 32
0.0
 13
-0.0408157325
 23
0.0202348042
 33
0.0
 40
0.0
 40
0.0
 40
0.0
 40
0.0
 40
0.2815748027
 40
1.0
 40
1.0
 40
1.0
 40
1.0
 10
-11.5056728056
 20
-7.4083759337
 30
0.0
 10
-11.5094972243
 20
-7.410288143
 30
0.0
 10
-11.5234715448
 20
-7.4160216424
 30
0.0
 10
-11.5405157461
 20
-7.4161279726
 30
0.0
 10
-11.5502900963
 20
-7.4112822416
 30
0.0
 11
-11.5056728056
 21
-7.4083759337
 31
0.0
 11
-11.5176102509
 21
-7.4130708144
 31
0.0
 11
-11.5502900963
 21
-7.4112822416
 31
0.0
  0
SPLINE
  5
567
100
AcDbEntity
  8
RACCORDO
100
AcDbSpline
 62
7
  6
CONTINUOUS
 70
0
 71
3
 72
9
 73
5
 74
3
 42
0.0000001
 43
0.0000001
 44
0.0000000001
 12
-0.0407467429
 22
-0.0203733715
 32
0.0
 13
-0.0408157325
 23
0.0202348042
 33
0.0
 40
0.0
 40
0.0
 40
0.0
 40
0.0
 40
0.2815748027
 40
1.0
 40
1.0
 40
1.0
 40
1.0
 10
-5.7073971998
 20
-10.3075137365
 30
0.0
 10
-5.7112216185
 20
-10.3094259459
 30
0.0
 10
-5.7251959391
 20
-10.3151594453
 30
0.0
 10
-5.7422401404
 20
-10.3152657755
 30
0.0
 10
-5.7520144906
 20
-10.3104200444
 30
0.0
 11
-5.7073971998
 21
-10.3075137365
 31
0.0
 11
-5.7193346452
 21
-10.3122086172
 31
0.0
 11
-5.7520144906
 21
-10.3104200444
 31
0.0
  0
SPLINE
  5
568
100
AcDbEntity
  8
RACCORDO
100
AcDbSpline
 62
7
  6
CONTINUOUS
 70
0
 71
3
 72
9
 73
5
 74
3
 42
0.0000001
 43
0.0000001
 44
0.0000000001
 12
-0.2263755926
 22
0.1278409599
 32
0.0
 13
-0.2105074498
 23
0.1525641947
 33
0.0
 40
0.0
 40
0.0
 40
0.0
 40
0.0
 40
0.2902102463
 40
1.0
 40
1.0
 40
1.0
 40
1.0
 10
16.0287789023
 20
6.6504644221
 30
0.0
 10
16.0068800635
 20
6.6628313409
 30
0.0
 10
15.9322262502
 20
6.7068288491
 30
0.0
 10
15.8590947923
 20
6.7535772827
 30
0.0
 10
15.8092894487
 20
6.7896734501
 30
0.0
 11
16.0287789023
 21
6.6504644221
 31
0.0
 11
15.9636776762
 21
6.6886000847
 31
0.0
 11
15.8092894487
 21
6.7896734501
 31
0.0
  0
SPLINE
  5
569
100
AcDbEntity
  8
RACCORDO
100
AcDbSpline
 62
7
  6
CONTINUOUS
 70
0
 71
3
 72
9
 73
5
 74
3
 42
0.0000001
 43
0.0000001
 44
0.0000000001
 12
0.2263755939
 22
-0.1278409606
 32
0.0
 13
0.2105074511
 23
-0.1525641956
 33
0.0
 40
0.0
 40
0.0
 40
0.0
 40
0.0
 40
0.2902058393
 40
1.0
 40
1.0
 40
1.0
 40
1.0
 10
16.0287789023
 20
6.6504644221
 30
0.0
 10
16.0506774088
 20
6.638097691
 30
0.0
 10
16.1253312861
 20
6.5941002907
 30
0.0
 10
16.1984627028
 20
6.5473517857
 30
0.0
 10
16.248268356
 20
6.511255394
 30
0.0
 11
16.0287789023
 21
6.6504644221
 31
0.0
 11
16.0938791703
 21
6.6123293896
 31
0.0
 11
16.248268356
 21
6.511255394
 31
0.0
  0
SPLINE
  5
56A
100
AcDbEntity
  8
RACCORDO
100
AcDbSpline
 62
7
  6
CONTINUOUS
 70
0
 71
3
 72
8
 73
4
 74
2
 42
0.0000001
 43
0.0000001
 44
0.0000000001
 12
0.1058289139
 22
-0.0524657336
 32
0.0
 13
0.0849939251
 23
-0.0820270987
 33
0.0
 40
0.0
 40
0.0
 40
0.0
 40
0.0
 40
1.0
 40
1.0
 40
1.0
 40
1.0
 10
7.7848958209
 20
7.844614687
 30
0.0
 10
7.8201721255
 20
7.8271261091
 30
0.0
 10
7.8529601558
 20
7.8036907205
 30
0.0
 10
7.8812914642
 20
7.7763483542
 30
0.0
 11
7.7848958209
 21
7.844614687
 31
0.0
 11
7.8812914642
 21
7.7763483542
 31
0.0
  0
SPLINE
  5
56B
100
AcDbEntity
  8
RACCORDO
100
AcDbSpline
 62
7
  6
CONTINUOUS
 70
0
 71
3
 72
9
 73
5
 74
3
 42
0.0000001
 43
0.0000001
 44
0.0000000001
 12
0.2917412828
 22
-0.2815576639
 32
0.0
 13
0.0447655263
 23
-0.4029686611
 33
0.0
 40
0.0
 40
0.0
 40
0.0
 40
0.0
 40
0.2267095981
 40
1.0
 40
1.0
 40
1.0
 40
1.0
 10
7.8812914642
 20
7.7763483542
 30
0.0
 10
7.9033383138
 20
7.7550710793
 30
0.0
 10
7.9900000882
 20
7.6499818193
 30
0.0
 10
8.0285643276
 20
7.5124520803
 30
0.0
 10
8.0401032449
 20
7.408581481
 30
0.0
 11
7.8812914642
 21
7.7763483542
 31
0.0
 11
7.9401603453
 21
7.7057542404
 31
0.0
 11
8.0401032449
 21
7.408581481
 31
0.0
  0
SPLINE
  5
56C
100
AcDbEntity
  8
RACCORDO
100
AcDbSpline
 62
7
  6
CONTINUOUS
 70
0
 71
3
 72
8
 73
4
 74
2
 42
0.0000001
 43
0.0000001
 44
0.0000000001
 12
0.1058289139
 22
-0.0524657336
 32
0.0
 13
0.0849939251
 23
-0.0820270987
 33
0.0
 40
0.0
 40
0.0
 40
0.0
 40
0.0
 40
1.0
 40
1.0
 40
1.0
 40
1.0
 10
7.7848958209
 20
0.2235911337
 30
0.0
 10
7.8201721255
 20
0.2061025558
 30
0.0
 10
7.8529601558
 20
0.1826671672
 30
0.0
 10
7.8812914642
 20
0.1553248009
 30
0.0
 11
7.7848958209
 21
0.2235911337
 31
0.0
 11
7.8812914642
 21
0.1553248009
 31
0.0
  0
SPLINE
  5
56D
100
AcDbEntity
  8
RACCORDO
100
AcDbSpline
 62
7
  6
CONTINUOUS
 70
0
 71
3
 72
9
 73
5
 74
3
 42
0.0000001
 43
0.0000001
 44
0.0000000001
 12
0.2917412828
 22
-0.2815576639
 32
0.0
 13
0.0447655263
 23
-0.4029686611
 33
0.0
 40
0.0
 40
0.0
 40
0.0
 40
0.0
 40
0.2267095981
 40
1.0
 40
1.0
 40
1.0
 40
1.0
 10
7.8812914642
 20
0.1553248009
 30
0.0
 10
7.9033383138
 20
0.134047526
 30
0.0
 10
7.9900000882
 20
0.028958266
 30
0.0
 10
8.0285643276
 20
-0.108571473
 30
0.0
 10
8.0401032449
 20
-0.2124420723
 30
0.0
 11
7.8812914642
 21
0.1553248009
 31
0.0
 11
7.9401603453
 21
0.0847306871
 31
0.0
 11
8.0401032449
 21
-0.2124420723
 31
0.0
  0
SPLINE
  5
56E
100
AcDbEntity
  8
RACCORDO
100
AcDbSpline
 62
253
  6
CONTINUOUS
 70
0
 71
3
 72
8
 73
4
 74
2
 42
0.0000001
 43
0.0000001
 44
0.0000000001
 12
0.0069874451
 22
-0.0236478001
 32
0.0
 13
0.0
 23
-0.0246585247
 33
0.0
 40
0.0
 40
0.0
 40
0.0
 40
0.0
 40
1.0
 40
1.0
 40
1.0
 40
1.0
 10
13.1690368378
 20
1.2932867919
 30
0.0
 10
13.1713659861
 20
1.2854041918
 30
0.0
 10
13.1723538579
 20
1.2770718937
 30
0.0
 10
13.1723538579
 20
1.2688523855
 30
0.0
 11
13.1690368378
 21
1.2932867919
 31
0.0
 11
13.1723538579
 21
1.2688523855
 31
0.0
  0
SPLINE
  5
56F
100
AcDbEntity
  8
RACCORDO
100
AcDbSpline
 62
7
  6
CONTINUOUS
 70
0
 71
3
 72
8
 73
4
 74
2
 42
0.0000001
 43
0.0000001
 44
0.0000000001
 12
-0.0317486742
 22
0.0157397201
 32
0.0
 13
-0.0254981775
 23
0.0246081296
 33
0.0
 40
0.0
 40
0.0
 40
0.0
 40
0.0
 40
1.0
 40
1.0
 40
1.0
 40
1.0
 10
-11.6395246779
 20
-7.5902999382
 30
0.0
 10
-11.6501075693
 20
-7.5850533648
 30
0.0
 10
-11.6599439784
 20
-7.5780227482
 30
0.0
 10
-11.6684433709
 20
-7.5698200384
 30
0.0
 11
-11.6395246779
 21
-7.5902999382
 31
0.0
 11
-11.6684433709
 21
-7.5698200384
 31
0.0
  0
SPLINE
  5
570
100
AcDbEntity
  8
RACCORDO
100
AcDbSpline
 62
7
  6
CONTINUOUS
 70
0
 71
3
 72
9
 73
5
 74
3
 42
0.0000001
 43
0.0000001
 44
0.0000000001
 12
-0.1099140819
 22
0.1060773841
 32
0.0
 13
0.0
 23
0.1527531238
 33
0.0
 40
0.0
 40
0.0
 40
0.0
 40
0.0
 40
0.2218681951
 40
1.0
 40
1.0
 40
1.0
 40
1.0
 10
-11.6684433709
 20
-7.5698200384
 30
0.0
 10
-11.6765721839
 20
-7.5619749724
 30
0.0
 10
-11.7082305058
 20
-7.5213355917
 30
0.0
 10
-11.7178048399
 20
-7.4674600984
 30
0.0
 10
-11.7178048399
 20
-7.4278394104
 30
0.0
 11
-11.6684433709
 21
-7.5698200384
 31
0.0
 11
-11.6895330381
 21
-7.5432902461
 31
0.0
 11
-11.7178048399
 21
-7.4278394104
 31
0.0
  0
SPLINE
  5
571
100
AcDbEntity
  8
ASSI
100
AcDbSpline
 62
7
  6
CONTINUOUS
 70
0
 71
3
 72
10
 73
6
 74
4
 42
0.0000001
 43
0.0000001
 44
0.0000000001
 12
-0.1479329345
 22
-0.0744990917
 32
0.0
 13
0.0593307758
 23
-0.154641931
 33
0.0
 40
0.0
 40
0.0
 40
0.0
 40
0.0
 40
0.4198939589
 40
0.693899367
 40
1.0
 40
1.0
 40
1.0
 40
1.0
 10
-4.6438743175
 20
3.7274739289
 30
0.0
 10
-4.6645796993
 20
3.7170466894
 30
0.0
 10
-4.6840807206
 20
3.6757867251
 30
0.0
 10
-4.6818643213
 20
3.6211452684
 30
0.0
 10
-4.673573505
 20
3.589686938
 30
0.0
 10
-4.6675197757
 20
3.5739082736
 30
0.0
 11
-4.6438743175
 21
3.7274739289
 31
0.0
 11
-4.6804767984
 21
3.6683366324
 31
0.0
 11
-4.680372612
 21
3.6229524331
 31
0.0
 11
-4.6675197757
 21
3.5739082736
 31
0.0
  0
SPLINE
  5
572
100
AcDbEntity
  8
ASSI
100
AcDbSpline
 62
7
  6
CONTINUOUS
 70
0
 71
3
 72
9
 73
5
 74
3
 42
0.0000001
 43
0.0000001
 44
0.0000000001
 12
0.0390251269
 22
-0.1017165359
 32
0.0
 13
0.0821227703
 23
-0.0715895579
 33
0.0
 40
0.0
 40
0.0
 40
0.0
 40
0.0
 40
0.2570991791
 40
1.0
 40
1.0
 40
1.0
 40
1.0
 10
-4.6675197757
 20
3.5739082736
 30
0.0
 10
-4.664175333
 20
3.5651911943
 30
0.0
 10
-4.6492333123
 20
3.5320806423
 30
0.0
 10
-4.6265143143
 20
3.5023136723
 30
0.0
 10
-4.6061779565
 20
3.4845856919
 30
0.0
 11
-4.6675197757
 21
3.5739082736
 31
0.0
 11
-4.6559781124
 21
3.5483868136
 31
0.0
 11
-4.6061779565
 21
3.4845856919
 31
0.0
  0
SPLINE
  5
573
100
AcDbEntity
  8
ASSI
100
AcDbSpline
 62
7
  6
CONTINUOUS
 70
0
 71
3
 72
9
 73
5
 74
3
 42
0.0000001
 43
0.0000001
 44
0.0000000001
 12
0.0276032734
 22
-0.0240628285
 32
0.0
 13
0.0327531423
 23
-0.0163765712
 33
0.0
 40
0.0
 40
0.0
 40
0.0
 40
0.0
 40
0.264265763
 40
1.0
 40
1.0
 40
1.0
 40
1.0
 10
-4.6061779565
 20
3.4845856919
 30
0.0
 10
-4.6037464231
 20
3.4824660313
 30
0.0
 10
-4.5943394299
 20
3.4746928481
 30
0.0
 10
-4.584058886
 20
3.4679118558
 30
0.0
 10
-4.5760263499
 20
3.4638955878
 30
0.0
 11
-4.6061779565
 21
3.4845856919
 31
0.0
 11
-4.598713525
 21
3.47842695
 31
0.0
 11
-4.5760263499
 21
3.4638955878
 31
0.0
  0
SPLINE
  5
574
100
AcDbEntity
  8
RACCORDO
100
AcDbSpline
 62
7
  6
CONTINUOUS
 70
0
 71
3
 72
9
 73
5
 74
3
 42
0.0000001
 43
0.0000001
 44
0.0000000001
 12
-0.1449752361
 22
0.0718729111
 32
0.0
 13
-0.15619515
 23
-0.042268304
 33
0.0
 40
0.0
 40
0.0
 40
0.0
 40
0.0
 40
0.4775385465
 40
1.0
 40
1.0
 40
1.0
 40
1.0
 10
13.0418869212
 20
0.7212701147
 30
0.0
 10
13.0188098333
 20
0.7327108098
 30
0.0
 10
12.9648321724
 20
0.746182354
 30
0.0
 10
12.9103106373
 20
0.738862946
 30
0.0
 10
12.8831086556
 20
0.7315017595
 30
0.0
 11
13.0418869212
 21
0.7212701147
 31
0.0
 11
12.9671329791
 21
0.7408359407
 31
0.0
 11
12.8831086556
 21
0.7315017595
 31
0.0
  0
SPLINE
  5
575
100
AcDbEntity
  8
RACCORDO
100
AcDbSpline
 62
7
  6
CONTINUOUS
 70
0
 71
3
 72
9
 73
5
 74
3
 42
0.0000001
 43
0.0000001
 44
0.0000000001
 12
-0.066581442
 22
-0.0180177466
 32
0.0
 13
-0.061694263
 23
-0.0308471315
 33
0.0
 40
0.0
 40
0.0
 40
0.0
 40
0.0
 40
0.242424508
 40
1.0
 40
1.0
 40
1.0
 40
1.0
 10
12.8831086556
 20
0.7315017595
 30
0.0
 10
12.8777283311
 20
0.7300457783
 30
0.0
 10
12.855698577
 20
0.7234412567
 30
0.0
 10
12.8343798211
 20
0.714528252
 30
0.0
 10
12.8188004673
 20
0.7067385751
 30
0.0
 11
12.8831086556
 21
0.7315017595
 31
0.0
 11
12.8670890116
 21
0.7267079138
 31
0.0
 11
12.8188004673
 21
0.7067385751
 31
0.0
  0
SPLINE
  5
576
100
AcDbEntity
  8
RACCORDO
100
AcDbSpline
 62
7
  6
CONTINUOUS
 70
0
 71
3
 72
8
 73
4
 74
2
 42
0.0000001
 43
0.0000001
 44
0.0000000001
 12
-0.0672267597
 22
-0.0664299598
 32
0.0
 13
-0.0527438192
 23
-0.0784249087
 33
0.0
 40
0.0
 40
0.0
 40
0.0
 40
0.0
 40
1.0
 40
1.0
 40
1.0
 40
1.0
 10
15.8871242242
 20
8.3272116983
 30
0.0
 10
15.8647153043
 20
8.3050683783
 30
0.0
 10
15.8446184705
 20
8.2804018027
 30
0.0
 10
15.8270371974
 20
8.2542601665
 30
0.0
 11
15.8871242242
 21
8.3272116983
 31
0.0
 11
15.8270371974
 21
8.2542601665
 31
0.0
  0
SPLINE
  5
577
100
AcDbEntity
  8
RACCORDO
100
AcDbSpline
 62
7
  6
CONTINUOUS
 70
0
 71
3
 72
9
 73
5
 74
3
 42
0.0000001
 43
0.0000001
 44
0.0000000001
 12
-0.0716061369
 22
-0.0358030685
 32
0.0
 13
-0.0642774128
 23
-0.047725389
 33
0.0
 40
0.0
 40
0.0
 40
0.0
 40
0.0
 40
0.2405854564
 40
1.0
 40
1.0
 40
1.0
 40
1.0
 10
10.4146374112
 20
-0.495342953
 30
0.0
 10
10.4088949462
 20
-0.4982141855
 30
0.0
 10
10.3853266069
 20
-0.5107465218
 30
0.0
 10
10.362959861
 20
-0.5254859576
 30
0.0
 10
10.3466887937
 20
-0.5375670758
 30
0.0
 11
10.4146374112
 21
-0.495342953
 31
0.0
 11
10.3976240967
 21
-0.5043721311
 31
0.0
 11
10.3466887937
 21
-0.5375670758
 31
0.0
  0
SPLINE
  5
578
100
AcDbEntity
  8
RACCORDO
100
AcDbSpline
 62
7
  6
CONTINUOUS
 70
0
 71
3
 72
9
 73
5
 74
3
 42
0.0000001
 43
0.0000001
 44
0.0000000001
 12
-0.2591909487
 22
-0.1924469004
 32
0.0
 13
-0.1464122418
 23
-0.2877137689
 33
0.0
 40
0.0
 40
0.0
 40
0.0
 40
0.0
 40
0.2352829446
 40
1.0
 40
1.0
 40
1.0
 40
1.0
 10
10.3466887937
 20
-0.5375670758
 30
0.0
 10
10.3263610571
 20
-0.5526602336
 30
0.0
 10
10.2444812327
 20
-0.6228229905
 30
0.0
 10
10.1806744485
 20
-0.7128889799
 30
0.0
 10
10.1433531357
 20
-0.7862288552
 30
0.0
 11
10.3466887937
 21
-0.5375670758
 31
0.0
 11
10.2888316932
 21
-0.5867782381
 31
0.0
 11
10.1433531357
 21
-0.7862288552
 31
0.0
  0
SPLINE
  5
579
100
AcDbEntity
  8
RACCORDO
100
AcDbSpline
 62
7
  6
CONTINUOUS
 70
0
 71
3
 72
9
 73
5
 74
3
 42
0.0000001
 43
0.0000001
 44
0.0000000001
 12
-0.1500879304
 22
-0.2949368413
 32
0.0
 13
0.0
 23
-0.3309291876
 33
0.0
 40
0.0
 40
0.0
 40
0.0
 40
0.0
 40
0.2622946921
 40
1.0
 40
1.0
 40
1.0
 40
1.0
 10
10.1433531357
 20
-0.7862288552
 30
0.0
 10
10.1302307132
 20
-0.8120156446
 30
0.0
 10
10.0856049403
 20
-0.9128226373
 30
0.0
 10
10.0610840206
 20
-1.0237562774
 30
0.0
 10
10.0610840206
 20
-1.1051323501
 30
0.0
 11
10.1433531357
 21
-0.7862288552
 31
0.0
 11
10.1082036903
 21
-0.865594621
 31
0.0
 11
10.0610840206
 21
-1.1051323501
 31
0.0
  0
SPLINE
  5
57A
100
AcDbEntity
  8
RACCORDO
100
AcDbSpline
 62
7
  6
CONTINUOUS
 70
0
 71
3
 72
11
 73
7
 74
5
 42
0.0000001
 43
0.0000001
 44
0.0000000001
 12
-0.0002212004
 22
0.0786451837
 32
0.0
 13
-0.0636799336
 23
0.0461517053
 33
0.0
 40
0.0
 40
0.0
 40
0.0
 40
0.0
 40
0.1085883961
 40
0.3213164592
 40
0.6224566796
 40
1.0
 40
1.0
 40
1.0
 40
1.0
 10
14.6097699469
 20
7.6894995402
 30
0.0
 10
14.6097619403
 20
7.6923461916
 30
0.0
 10
14.6031668464
 20
7.6992029913
 30
0.0
 10
14.5920161542
 20
7.7100466815
 30
0.0
 10
14.5733869993
 20
7.7247926656
 30
0.0
 10
14.559226059
 20
7.7353801363
 30
0.0
 10
14.5512120812
 20
7.7411882257
 30
0.0
 11
14.6097699469
 21
7.6894995402
 31
0.0
 11
14.6054001617
 21
7.6968368677
 31
0.0
 11
14.5933371449
 21
7.7084291064
 31
0.0
 11
14.5749881423
 21
7.7234028776
 31
0.0
 11
14.5512120812
 21
7.7411882257
 31
0.0
  0
SPLINE
  5
57B
100
AcDbEntity
  8
RACCORDO
100
AcDbSpline
 62
7
  6
CONTINUOUS
 70
0
 71
3
 72
9
 73
5
 74
3
 42
0.0000001
 43
0.0000001
 44
0.0000000001
 12
-0.000057662
 22
-0.2026250848
 32
0.0
 13
-0.1016339017
 23
-0.1752925507
 33
0.0
 40
0.0
 40
0.0
 40
0.0
 40
0.0
 40
0.241895679
 40
1.0
 40
1.0
 40
1.0
 40
1.0
 10
14.6097699469
 20
5.8552820056
 30
0.0
 10
14.6097652975
 20
5.8389439614
 30
0.0
 10
14.603107655
 20
5.7714297446
 30
0.0
 10
14.5768951145
 20
5.7070239366
 30
0.0
 10
14.5512120812
 20
5.6627272566
 30
0.0
 11
14.6097699469
 21
5.8552820056
 31
0.0
 11
14.6054001617
 21
5.8064630507
 31
0.0
 11
14.5512120812
 21
5.6627272566
 31
0.0
  0
SPLINE
  5
57C
100
AcDbEntity
  8
RACCORDO
100
AcDbSpline
 62
7
  6
CONTINUOUS
 70
0
 71
3
 72
9
 73
5
 74
3
 42
0.0000001
 43
0.0000001
 44
0.0000000001
 12
0.2047105658
 22
0.1040053006
 32
0.0
 13
0.1151721736
 23
0.1986426157
 33
0.0
 40
0.0
 40
0.0
 40
0.0
 40
0.0
 40
0.2458397676
 40
1.0
 40
1.0
 40
1.0
 40
1.0
 10
16.0882864512
 20
8.4276016683
 30
0.0
 10
16.1050617839
 20
8.4361245479
 30
0.0
 10
16.1694747092
 20
8.4782224332
 30
0.0
 10
16.2193155983
 20
8.5397802427
 30
0.0
 10
16.248268356
 20
8.5897163631
 30
0.0
 11
16.0882864512
 21
8.4276016683
 31
0.0
 11
16.1358516081
 21
8.4579993198
 31
0.0
 11
16.248268356
 21
8.5897163631
 31
0.0
  0
SPLINE
  5
57D
100
AcDbEntity
  8
RACCORDO
100
AcDbSpline
 62
7
  6
CONTINUOUS
 70
0
 71
3
 72
9
 73
5
 74
3
 42
0.0000001
 43
0.0000001
 44
0.0000000001
 12
0.0
 22
0.0683197723
 32
0.0
 13
0.0551689594
 23
0.0402986006
 33
0.0
 40
0.0
 40
0.0
 40
0.0
 40
0.0
 40
0.2216430341
 40
1.0
 40
1.0
 40
1.0
 40
1.0
 10
8.1993573907
 20
19.82609394
 30
0.0
 10
8.1993573907
 20
19.8311414739
 30
0.0
 10
8.2029098438
 20
19.8540522806
 30
0.0
 10
8.2203385997
 20
19.8722804844
 30
0.0
 10
8.2346523143
 20
19.8827360499
 30
0.0
 11
8.1993573907
 21
19.82609394
 31
0.0
 11
8.2016138259
 21
19.8410674795
 31
0.0
 11
8.2346523143
 21
19.8827360499
 31
0.0
  0
SPLINE
  5
57E
100
AcDbEntity
  8
RACCORDO
100
AcDbSpline
 62
7
  6
CONTINUOUS
 70
0
 71
3
 72
8
 73
4
 74
2
 42
0.0000001
 43
0.0000001
 44
0.0000000001
 12
0.0219852664
 22
0.0160593109
 32
0.0
 13
0.0243516473
 23
0.0121758236
 33
0.0
 40
0.0
 40
0.0
 40
0.0
 40
0.0
 40
1.0
 40
1.0
 40
1.0
 40
1.0
 10
8.2346523143
 20
19.8827360499
 30
0.0
 10
8.2419807364
 20
19.8880891536
 30
0.0
 10
8.2498445129
 20
19.8927460102
 30
0.0
 10
8.2579617286
 20
19.8968046181
 30
0.0
 11
8.2346523143
 21
19.8827360499
 31
0.0
 11
8.2579617286
 21
19.8968046181
 31
0.0
  0
SPLINE
  5
57F
100
AcDbEntity
  8
ASSI
100
AcDbSpline
 62
7
  6
CONTINUOUS
 70
0
 71
3
 72
8
 73
4
 74
2
 42
0.0000001
 43
0.0000001
 44
0.0000000001
 12
-0.08813596
 22
0.0442078067
 32
0.0
 13
-0.0739881049
 23
0.0651769741
 33
0.0
 40
0.0
 40
0.0
 40
0.0
 40
0.0
 40
1.0
 40
1.0
 40
1.0
 40
1.0
 10
10.8869016774
 20
-1.222548463
 30
0.0
 10
10.8575230241
 20
-1.2078125274
 30
0.0
 10
10.8299396469
 20
-1.1889597403
 30
0.0
 10
10.8052769453
 20
-1.1672340823
 30
0.0
 11
10.8869016774
 21
-1.222548463
 31
0.0
 11
10.8052769453
 21
-1.1672340823
 31
0.0
  0
SPLINE
  5
580
100
AcDbEntity
  8
RACCORDO
100
AcDbSpline
 62
253
  6
CONTINUOUS
 70
0
 71
3
 72
10
 73
6
 74
4
 42
0.0000001
 43
0.0000001
 44
0.0000000001
 12
0.0
 22
0.213891171
 32
0.0
 13
-0.1913100794
 23
-0.0956550394
 33
0.0
 40
0.0
 40
0.0
 40
0.0
 40
0.0
 40
0.5133300828
 40
0.7384563539
 40
1.0
 40
1.0
 40
1.0
 40
1.0
 10
13.3491305532
 20
1.2511747159
 30
0.0
 10
13.3491305532
 20
1.2877736401
 30
0.0
 10
13.3324285722
 20
1.3508315764
 30
0.0
 10
13.2589848544
 20
1.3730091321
 30
0.0
 10
13.2243878421
 20
1.3620084412
 30
0.0
 10
13.2077091969
 20
1.3536691186
 30
0.0
 11
13.3491305532
 21
1.2511747159
 31
0.0
 11
13.3077734956
 21
1.3528847206
 31
0.0
 11
13.2619046735
 21
1.3675379287
 31
0.0
 11
13.2077091969
 21
1.3536691186
 31
0.0
  0
SPLINE
  5
581
100
AcDbEntity
  8
RACCORDO
100
AcDbSpline
 62
7
  6
CONTINUOUS
 70
0
 71
3
 72
9
 73
5
 74
3
 42
0.0000001
 43
0.0000001
 44
0.0000000001
 12
0.0
 22
-0.1640795668
 32
0.0
 13
-0.0230778807
 23
-0.1624485016
 33
0.0
 40
0.0
 40
0.0
 40
0.0
 40
0.0
 40
0.2426465688
 40
1.0
 40
1.0
 40
1.0
 40
1.0
 10
8.0458296943
 20
6.0040414888
 30
0.0
 10
8.0458296943
 20
5.9907703742
 30
0.0
 10
8.0447514514
 20
5.9360793597
 30
0.0
 10
8.0395864265
 20
5.8814948986
 30
0.0
 10
8.0337603892
 20
5.8404845886
 30
0.0
 11
8.0458296943
 21
6.0040414888
 31
0.0
 11
8.0450658115
 21
5.9642354738
 31
0.0
 11
8.0337603892
 21
5.8404845886
 31
0.0
  0
SPLINE
  5
582
100
AcDbEntity
  8
RACCORDO
100
AcDbSpline
 62
7
  6
CONTINUOUS
 70
0
 71
3
 72
10
 73
6
 74
4
 42
0.0000001
 43
0.0000001
 44
0.0000000001
 12
-0.1830489134
 22
-1.2885074698
 32
0.0
 13
-1.1640475607
 23
-0.5820237804
 33
0.0
 40
0.0
 40
0.0
 40
0.0
 40
0.0
 40
0.518870514
 40
0.7734222881
 40
1.0
 40
1.0
 40
1.0
 40
1.0
 10
8.0337603892
 20
5.8404845886
 30
0.0
 10
8.0021008279
 20
5.6176284109
 30
0.0
 10
7.8730182222
 20
5.2923188817
 30
0.0
 10
7.5965902396
 20
4.9558522696
 30
0.0
 10
7.4266386573
 20
4.8284205666
 30
0.0
 10
7.3387229131
 20
4.7844626945
 30
0.0
 11
8.0337603892
 21
5.8404845886
 31
0.0
 11
7.7907768023
 21
5.2104339474
 31
0.0
 11
7.578513416
 21
4.9560836961
 31
0.0
 11
7.3387229131
 21
4.7844626945
 31
0.0
  0
SPLINE
  5
583
100
AcDbEntity
  8
RACCORDO
100
AcDbSpline
 62
253
  6
CONTINUOUS
 70
0
 71
3
 72
9
 73
5
 74
3
 42
0.0000001
 43
0.0000001
 44
0.0000000001
 12
-0.2602726189
 22
-0.1301363095
 32
0.0
 13
-0.0000000003
 23
-0.2909936343
 33
0.0
 40
0.0
 40
0.0
 40
0.0
 40
0.0
 40
0.4873256893
 40
1.0
 40
1.0
 40
1.0
 40
1.0
 10
9.8135966472
 20
-0.3433871563
 30
0.0
 10
9.7713174694
 20
-0.3645267452
 30
0.0
 10
9.7030621529
 20
-0.441337433
 30
0.0
 10
9.672175291
 20
-0.5375745948
 30
0.0
 10
9.672175291
 20
-0.5873029151
 30
0.0
 11
9.8135966472
 21
-0.3433871563
 31
0.0
 11
9.7136668281
 21
-0.4440039099
 31
0.0
 11
9.672175291
 21
-0.5873029151
 31
0.0
  0
SPLINE
  5
584
100
AcDbEntity
  8
RACCORDO
100
AcDbSpline
 62
7
  6
CONTINUOUS
 70
0
 71
3
 72
9
 73
5
 74
3
 42
0.0000001
 43
0.0000001
 44
0.0000000001
 12
0.0
 22
-0.1640795668
 32
0.0
 13
-0.0230778807
 23
-0.1624485016
 33
0.0
 40
0.0
 40
0.0
 40
0.0
 40
0.0
 40
0.2426465688
 40
1.0
 40
1.0
 40
1.0
 40
1.0
 10
8.0458296943
 20
-1.6169820645
 30
0.0
 10
8.0458296943
 20
-1.6302531791
 30
0.0
 10
8.0447514514
 20
-1.6849441936
 30
0.0
 10
8.0395864265
 20
-1.7395286547
 30
0.0
 10
8.0337603892
 20
-1.7805389647
 30
0.0
 11
8.0458296943
 21
-1.6169820645
 31
0.0
 11
8.0450658115
 21
-1.6567880795
 31
0.0
 11
8.0337603892
 21
-1.7805389647
 31
0.0
  0
SPLINE
  5
585
100
AcDbEntity
  8
RACCORDO
100
AcDbSpline
 62
7
  6
CONTINUOUS
 70
0
 71
3
 72
9
 73
5
 74
3
 42
0.0000001
 43
0.0000001
 44
0.0000000001
 12
-0.0702431347
 22
-0.4944514669
 32
0.0
 13
-0.2265025818
 23
-0.4450987886
 33
0.0
 40
0.0
 40
0.0
 40
0.0
 40
0.0
 40
0.241924083
 40
1.0
 40
1.0
 40
1.0
 40
1.0
 10
8.0337603892
 20
-1.7805389647
 30
0.0
 10
8.0280958872
 20
-1.8204122039
 30
0.0
 10
7.997174009
 20
-1.9841042233
 30
0.0
 10
7.9385268483
 20
-2.1423161635
 30
0.0
 10
7.8812914642
 20
-2.2547890543
 30
0.0
 11
8.0337603892
 21
-1.7805389647
 31
0.0
 11
8.0115117082
 21
-1.8992935533
 31
0.0
 11
7.8812914642
 21
-2.2547890543
 31
0.0
  0
SPLINE
  5
586
100
AcDbEntity
  8
RACCORDO
100
AcDbSpline
 62
7
  6
CONTINUOUS
 70
0
 71
3
 72
9
 73
5
 74
3
 42
0.0000001
 43
0.0000001
 44
0.0000000001
 12
-0.2277765124
 22
-0.4476021816
 32
0.0
 13
-0.3635752445
 23
-0.3464720683
 33
0.0
 40
0.0
 40
0.0
 40
0.0
 40
0.0
 40
0.257063472
 40
1.0
 40
1.0
 40
1.0
 40
1.0
 10
7.8812914642
 20
-2.2547890543
 30
0.0
 10
7.8617737905
 20
-2.2931431112
 30
0.0
 10
7.7800362274
 20
-2.4392404487
 30
0.0
 10
7.6751014377
 20
-2.5729394459
 30
0.0
 10
7.5850636611
 20
-2.6587416977
 30
0.0
 11
7.8812914642
 21
-2.2547890543
 31
0.0
 11
7.8182173964
 21
-2.3674363864
 31
0.0
 11
7.5850636611
 21
-2.6587416977
 31
0.0
  0
SPLINE
  5
587
100
AcDbEntity
  8
RACCORDO
100
AcDbSpline
 62
7
  6
CONTINUOUS
 70
0
 71
3
 72
9
 73
5
 74
3
 42
0.0000001
 43
0.0000001
 44
0.0000000001
 12
-0.2203673267
 22
-0.210000886
 32
0.0
 13
-0.2722677077
 23
-0.1361338538
 33
0.0
 40
0.0
 40
0.0
 40
0.0
 40
0.0
 40
0.2650424621
 40
1.0
 40
1.0
 40
1.0
 40
1.0
 10
7.5850636611
 20
-2.6587416977
 30
0.0
 10
7.5655947615
 20
-2.6772947483
 30
0.0
 10
7.4899881893
 20
-2.7449121508
 30
0.0
 10
7.4054246478
 20
-2.8032099915
 30
0.0
 10
7.3387229131
 20
-2.8365608588
 30
0.0
 11
7.5850636611
 21
-2.6587416977
 31
0.0
 11
7.5248876526
 21
-2.712483038
 31
0.0
 11
7.3387229131
 21
-2.8365608588
 31
0.0
  0
SPLINE
  5
588
100
AcDbEntity
  8
RACCORDO
100
AcDbSpline
 62
7
  6
CONTINUOUS
 70
0
 71
3
 72
8
 73
4
 74
2
 42
0.0000001
 43
0.0000001
 44
0.0000000001
 12
-0.0243060656
 22
-0.0330325182
 32
0.0
 13
-0.0196013731
 23
-0.0360238568
 33
0.0
 40
0.0
 40
0.0
 40
0.0
 40
0.0
 40
1.0
 40
1.0
 40
1.0
 40
1.0
 10
-4.5074590714
 20
4.6237130915
 30
0.0
 10
-4.5155610932
 20
4.6127022521
 30
0.0
 10
-4.522853468
 20
4.6010643465
 30
0.0
 10
-4.529387259
 20
4.5890563943
 30
0.0
 11
-4.5074590714
 21
4.6237130915
 31
0.0
 11
-4.529387259
 21
4.5890563943
 31
0.0
  0
SPLINE
  5
589
100
AcDbEntity
  8
RACCORDO
100
AcDbSpline
 62
7
  6
CONTINUOUS
 70
0
 71
3
 72
9
 73
5
 74
3
 42
0.0000001
 43
0.0000001
 44
0.0000000001
 12
-0.0624993522
 22
-0.1557884373
 32
0.0
 13
0.0
 23
-0.1678576963
 33
0.0
 40
0.0
 40
0.0
 40
0.0
 40
0.0
 40
0.2655557469
 40
1.0
 40
1.0
 40
1.0
 40
1.0
 10
-4.5469717116
 20
4.5515811107
 30
0.0
 10
-4.5525040657
 20
4.5377909391
 30
0.0
 10
-4.5703357357
 20
4.4846201674
 30
0.0
 10
-4.5760263499
 20
4.4280265575
 30
0.0
 10
-4.5760263499
 20
4.3869325173
 30
0.0
 11
-4.5469717116
 21
4.5515811107
 31
0.0
 11
-4.5611184851
 21
4.5093099531
 31
0.0
 11
-4.5760263499
 21
4.3869325173
 31
0.0
  0
SPLINE
  5
58A
100
AcDbEntity
  8
RACCORDO
100
AcDbSpline
 62
253
  6
CONTINUOUS
 70
0
 71
3
 72
9
 73
5
 74
3
 42
0.0000001
 43
0.0000001
 44
0.0000000001
 12
0.1713313368
 22
-0.1391087051
 32
0.0
 13
0.217165399
 23
-0.0393045582
 33
0.0
 40
0.0
 40
0.0
 40
0.0
 40
0.0
 40
0.7467547728
 40
1.0
 40
1.0
 40
1.0
 40
1.0
 10
10.9554602417
 20
-1.1068488038
 30
0.0
 10
10.9981077395
 20
-1.1414755002
 30
0.0
 10
11.0649155521
 20
-1.1776464134
 30
0.0
 10
11.1364853325
 20
-1.1950417268
 30
0.0
 10
11.1548173661
 20
-1.198359624
 30
0.0
 11
10.9554602417
 21
-1.1068488038
 31
0.0
 11
11.1005413219
 21
-1.1850270283
 31
0.0
 11
11.1548173661
 21
-1.198359624
 31
0.0
  0
SPLINE
  5
58B
100
AcDbEntity
  8
RACCORDO
100
AcDbSpline
 62
253
  6
CONTINUOUS
 70
0
 71
3
 72
9
 73
5
 74
3
 42
0.0000001
 43
0.0000001
 44
0.0000000001
 12
0.222182824
 22
-0.0402126572
 32
0.0
 13
0.2194855703
 23
0.0529938627
 33
0.0
 40
0.0
 40
0.0
 40
0.0
 40
0.0
 40
0.2393232476
 40
1.0
 40
1.0
 40
1.0
 40
1.0
 10
11.1548173661
 20
-1.198359624
 30
0.0
 10
11.1725418711
 20
-1.2015675653
 30
0.0
 10
11.2473846218
 20
-1.2106418981
 30
0.0
 10
11.3238089834
 20
-1.2023260782
 30
0.0
 10
11.379461507
 20
-1.1888890118
 30
0.0
 11
11.1548173661
 21
-1.198359624
 31
0.0
 11
11.2084556792
 21
-1.2049149311
 31
0.0
 11
11.379461507
 21
-1.1888890118
 31
0.0
  0
SPLINE
  5
58C
100
AcDbEntity
  8
RACCORDO
100
AcDbSpline
 62
253
  6
CONTINUOUS
 70
0
 71
3
 72
9
 73
5
 74
3
 42
0.0000001
 43
0.0000001
 44
0.0000000001
 12
0.546190569
 22
0.1318754029
 32
0.0
 13
0.395609084
 23
0.3990096642
 33
0.0
 40
0.0
 40
0.0
 40
0.0
 40
0.0
 40
0.2253011759
 40
1.0
 40
1.0
 40
1.0
 40
1.0
 10
11.379461507
 20
-1.1888890118
 30
0.0
 10
11.4204806328
 20
-1.1789851173
 30
0.0
 10
11.5984001189
 20
-1.117752771
 30
0.0
 10
11.7526637515
 20
-1.0001965087
 30
0.0
 10
11.8548230489
 20
-0.8971590695
 30
0.0
 11
11.379461507
 21
-1.1888890118
 31
0.0
 11
11.4994507859
 21
-1.1485346412
 31
0.0
 11
11.8548230489
 21
-0.8971590695
 31
0.0
  0
SPLINE
  5
58D
100
AcDbEntity
  8
RACCORDO
100
AcDbSpline
 62
253
  6
CONTINUOUS
 70
0
 71
3
 72
9
 73
5
 74
3
 42
0.0000001
 43
0.0000001
 44
0.0000000001
 12
0.3341522989
 22
0.3370246083
 32
0.0
 13
0.2293229655
 23
0.4155169346
 33
0.0
 40
0.0
 40
0.0
 40
0.0
 40
0.0
 40
0.24255046
 40
1.0
 40
1.0
 40
1.0
 40
1.0
 10
11.8548230489
 20
-0.8971590695
 30
0.0
 10
11.8818393135
 20
-0.8699105782
 30
0.0
 10
11.9888410886
 20
-0.7532626951
 30
0.0
 10
12.078656089
 20
-0.6212118213
 30
0.0
 10
12.1365562805
 20
-0.5163007843
 30
0.0
 11
11.8548230489
 21
-0.8971590695
 31
0.0
 11
11.9327348626
 21
-0.8124184137
 31
0.0
 11
12.1365562805
 21
-0.5163007843
 31
0.0
  0
SPLINE
  5
58E
100
AcDbEntity
  8
RACCORDO
100
AcDbSpline
 62
253
  6
CONTINUOUS
 70
0
 71
3
 72
9
 73
5
 74
3
 42
0.0000001
 43
0.0000001
 44
0.0000000001
 12
0.0321455258
 22
-0.112778566
 32
0.0
 13
0.0803255409
 23
-0.0854408993
 33
0.0
 40
0.0
 40
0.0
 40
0.0
 40
0.0
 40
0.2620232102
 40
1.0
 40
1.0
 40
1.0
 40
1.0
 10
10.8786413265
 20
-1.1293651592
 30
0.0
 10
10.8814489511
 20
-1.1392153598
 30
0.0
 10
10.8940257693
 20
-1.176224979
 30
0.0
 10
10.9151326729
 20
-1.2105448526
 30
0.0
 10
10.9348921345
 20
-1.2315626528
 30
0.0
 11
10.8786413265
 21
-1.1293651592
 31
0.0
 11
10.8886254306
 21
-1.1584254507
 31
0.0
 11
10.9348921345
 21
-1.2315626528
 31
0.0
  0
SPLINE
  5
58F
100
AcDbEntity
  8
RACCORDO
100
AcDbSpline
 62
253
  6
CONTINUOUS
 70
0
 71
3
 72
8
 73
4
 74
2
 42
0.0000001
 43
0.0000001
 44
0.0000000001
 12
0.0463741628
 22
-0.0493274011
 32
0.0
 13
0.0592170927
 23
-0.0328190708
 33
0.0
 40
0.0
 40
0.0
 40
0.0
 40
0.0
 40
1.0
 40
1.0
 40
1.0
 40
1.0
 10
10.9348921345
 20
-1.2315626528
 30
0.0
 10
10.9503501888
 20
-1.2480051198
 30
0.0
 10
10.9686395912
 20
-1.2621314089
 30
0.0
 10
10.9883786221
 20
-1.2730710992
 30
0.0
 11
10.9348921345
 21
-1.2315626528
 31
0.0
 11
10.9883786221
 21
-1.2730710992
 31
0.0
  0
SPLINE
  5
590
100
AcDbEntity
  8
RACCORDO
100
AcDbSpline
 62
7
  6
CONTINUOUS
 70
0
 71
3
 72
9
 73
5
 74
3
 42
0.0000001
 43
0.0000001
 44
0.0000000001
 12
0.0948160294
 22
-0.0474080147
 32
0.0
 13
0.1054736456
 23
-0.0106258826
 33
0.0
 40
0.0
 40
0.0
 40
0.0
 40
0.0
 40
0.22692777
 40
1.0
 40
1.0
 40
1.0
 40
1.0
 10
-4.5406710109
 20
3.4462179182
 30
0.0
 10
-4.5334988808
 20
3.4426318532
 30
0.0
 10
-4.5008987621
 20
3.4288453348
 30
0.0
 10
-4.4657660697
 20
3.4216108178
 30
0.0
 10
-4.4385864875
 20
3.4188726262
 30
0.0
 11
-4.5406710109
 21
3.4462179182
 31
0.0
 11
-4.5185727184
 21
3.4367121687
 31
0.0
 11
-4.4385864875
 21
3.4188726262
 31
0.0
  0
SPLINE
  5
591
100
AcDbEntity
  8
RACCORDO
100
AcDbSpline
 62
7
  6
CONTINUOUS
 70
0
 71
3
 72
9
 73
5
 74
3
 42
0.0000001
 43
0.0000001
 44
0.0000000001
 12
-0.057269589
 22
-0.2213446064
 32
0.0
 13
-0.2044959473
 23
-0.1022479737
 33
0.0
 40
0.0
 40
0.0
 40
0.0
 40
0.0
 40
0.525956326
 40
1.0
 40
1.0
 40
1.0
 40
1.0
 10
17.5549288673
 20
1.5627834389
 30
0.0
 10
17.5448884331
 20
1.5239775736
 30
0.0
 10
17.511426531
 20
1.4537346082
 30
0.0
 10
17.4543495992
 20
1.3985283506
 30
0.0
 10
17.4220362625
 20
1.3823716823
 30
0.0
 11
17.5549288673
 21
1.5627834389
 31
0.0
 11
17.5031568079
 21
1.4542477149
 31
0.0
 11
17.4220362625
 21
1.3823716823
 31
0.0
  0
SPLINE
  5
592
100
AcDbEntity
  8
RACCORDO
100
AcDbSpline
 62
7
  6
CONTINUOUS
 70
0
 71
3
 72
8
 73
4
 74
2
 42
0.0000001
 43
0.0000001
 44
0.0000000001
 12
-0.0062362097
 22
-0.0380163075
 32
0.0
 13
0.0
 23
-0.0385244071
 33
0.0
 40
0.0
 40
0.0
 40
0.0
 40
0.0
 40
1.0
 40
1.0
 40
1.0
 40
1.0
 10
-13.4822894488
 20
8.9962831156
 30
0.0
 10
-13.4843681853
 20
8.9836110131
 30
0.0
 10
-13.4855717929
 20
8.9707402628
 30
0.0
 10
-13.4855717929
 20
8.9578987938
 30
0.0
 11
-13.4822894488
 21
8.9962831156
 31
0.0
 11
-13.4855717929
 21
8.9578987938
 31
0.0
  0
SPLINE
  5
593
100
AcDbEntity
  8
RACCORDO
100
AcDbSpline
 62
7
  6
CONTINUOUS
 70
0
 71
3
 72
9
 73
5
 74
3
 42
0.0000001
 43
0.0000001
 44
0.0000000001
 12
0.0
 22
-0.1874309553
 32
0.0
 13
0.1679271852
 23
-0.0832515675
 33
0.0
 40
0.0
 40
0.0
 40
0.0
 40
0.0
 40
0.5512536206
 40
1.0
 40
1.0
 40
1.0
 40
1.0
 10
-5.9195292342
 20
-10.3269772133
 30
0.0
 10
-5.9195292342
 20
-10.3614178776
 30
0.0
 10
-5.9105507031
 20
-10.4254689967
 30
0.0
 10
-5.8663679776
 20
-10.4769847946
 30
0.0
 10
-5.8412490722
 20
-10.489437741
 30
0.0
 11
-5.9195292342
 21
-10.3269772133
 31
0.0
 11
-5.8989324685
 21
-10.4282254598
 31
0.0
 11
-5.8412490722
 21
-10.489437741
 31
0.0
  0
SPLINE
  5
594
100
AcDbEntity
  8
ASSI
100
AcDbSpline
 62
7
  6
CONTINUOUS
 70
0
 71
3
 72
9
 73
5
 74
3
 42
0.0000001
 43
0.0000001
 44
0.0000000001
 12
0.0503125143
 22
-0.0251562572
 32
0.0
 13
0.0547721863
 23
0.0128138197
 33
0.0
 40
0.0
 40
0.0
 40
0.0
 40
0.0
 40
0.2730698429
 40
1.0
 40
1.0
 40
1.0
 40
1.0
 10
-15.4654707802
 20
8.9086178029
 30
0.0
 10
-15.4608911701
 20
8.9063279978
 30
0.0
 10
-15.4436247593
 20
8.8991083356
 30
0.0
 10
-15.4237261156
 20
8.8971154385
 30
0.0
 10
-15.4104542643
 20
8.9002203559
 30
0.0
 11
-15.4654707802
 21
8.9086178029
 31
0.0
 11
-15.4512650198
 21
8.9027747987
 31
0.0
 11
-15.4104542643
 21
8.9002203559
 31
0.0
  0
SPLINE
  5
595
100
AcDbEntity
  8
ASSI
100
AcDbSpline
 62
7
  6
CONTINUOUS
 70
0
 71
3
 72
8
 73
4
 74
2
 42
0.0000001
 43
0.0000001
 44
0.0000000001
 12
0.0132814992
 22
0.0031071744
 32
0.0
 13
0.0121824949
 23
0.0061351098
 33
0.0
 40
0.0
 40
0.0
 40
0.0
 40
0.0
 40
1.0
 40
1.0
 40
1.0
 40
1.0
 10
-15.4104542643
 20
8.9002203559
 30
0.0
 10
-15.4060270979
 20
8.9012560807
 30
0.0
 10
-15.4016836443
 20
8.9028020463
 30
0.0
 10
-15.3976228127
 20
8.9048470829
 30
0.0
 11
-15.4104542643
 21
8.9002203559
 31
0.0
 11
-15.3976228127
 21
8.9048470829
 31
0.0
  0
SPLINE
  5
596
100
AcDbEntity
  8
RACCORDO
100
AcDbSpline
 62
253
  6
CONTINUOUS
 70
0
 71
3
 72
9
 73
5
 74
3
 42
0.0000001
 43
0.0000001
 44
0.0000000001
 12
-0.0494552765
 22
0.0810703794
 32
0.0
 13
-0.0654651287
 23
0.0687935151
 33
0.0
 40
0.0
 40
0.0
 40
0.0
 40
0.0
 40
0.2553624272
 40
1.0
 40
1.0
 40
1.0
 40
1.0
 10
-4.608318706
 20
4.4496919503
 30
0.0
 10
-4.6125283791
 20
4.4565927265
 30
0.0
 10
-4.6296891038
 20
4.4831942737
 30
0.0
 10
-4.6495528956
 20
4.5080829839
 30
0.0
 10
-4.6658021604
 20
4.525158396
 30
0.0
 11
-4.608318706
 21
4.4496919503
 31
0.0
 11
-4.6214690547
 21
4.4700671038
 31
0.0
 11
-4.6658021604
 21
4.525158396
 31
0.0
  0
SPLINE
  5
597
100
AcDbEntity
  8
RACCORDO
100
AcDbSpline
 62
253
  6
CONTINUOUS
 70
0
 71
3
 72
9
 73
5
 74
3
 42
0.0000001
 43
0.0000001
 44
0.0000000001
 12
-0.0756289828
 22
0.0794741212
 32
0.0
 13
-0.0981259557
 23
0.0490629778
 33
0.0
 40
0.0
 40
0.0
 40
0.0
 40
0.0
 40
0.2658039782
 40
1.0
 40
1.0
 40
1.0
 40
1.0
 10
-4.6658021604
 20
4.525158396
 30
0.0
 10
-4.6725029886
 20
4.5321999085
 30
0.0
 10
-4.6986478662
 20
4.5577453599
 30
0.0
 10
-4.7287884831
 20
4.5795071389
 30
0.0
 10
-4.7528030452
 20
4.5915144199
 30
0.0
 11
-4.6658021604
 21
4.525158396
 31
0.0
 11
-4.6866841195
 21
4.5455127506
 31
0.0
 11
-4.7528030452
 21
4.5915144199
 31
0.0
  0
SPLINE
  5
598
100
AcDbEntity
  8
RACCORDO
100
AcDbSpline
 62
7
  6
CONTINUOUS
 70
0
 71
3
 72
9
 73
5
 74
3
 42
0.0000001
 43
0.0000001
 44
0.0000000001
 12
0.0683612083
 22
0.0239335167
 32
0.0
 13
0.0647831338
 23
0.0323915669
 33
0.0
 40
0.0
 40
0.0
 40
0.0
 40
0.0
 40
0.2586953128
 40
1.0
 40
1.0
 40
1.0
 40
1.0
 10
-12.2259846488
 20
2.4559041787
 30
0.0
 10
-12.2200897407
 20
2.4579680082
 30
0.0
 10
-12.1974195994
 20
2.4662719505
 30
0.0
 10
-12.1752274899
 20
2.4759114877
 30
0.0
 10
-12.1592194764
 20
2.4839154945
 30
0.0
 11
-12.2259846488
 21
2.4559041787
 31
0.0
 11
-12.2083924136
 21
2.4623537725
 31
0.0
 11
-12.1592194764
 21
2.4839154945
 31
0.0
  0
SPLINE
  5
599
100
AcDbEntity
  8
RACCORDO
100
AcDbSpline
 62
7
  6
CONTINUOUS
 70
0
 71
3
 72
9
 73
5
 74
3
 42
0.0000001
 43
0.0000001
 44
0.0000000001
 12
0.2331289075
 22
-0.1165644538
 32
0.0
 13
0.2460049845
 23
0.0861272723
 33
0.0
 40
0.0
 40
0.0
 40
0.0
 40
0.0
 40
0.4884640093
 40
1.0
 40
1.0
 40
1.0
 40
1.0
 10
-14.346700521
 20
1.8143124893
 30
0.0
 10
-14.3087421607
 20
1.7953333091
 30
0.0
 10
-14.2207313493
 20
1.7787454891
 30
0.0
 10
-14.1325106786
 20
1.7884222298
 30
0.0
 10
-14.0905638775
 20
1.8031079629
 30
0.0
 11
-14.346700521
 21
1.8143124893
 31
0.0
 11
-14.2227118613
 21
1.7853948507
 31
0.0
 11
-14.0905638775
 21
1.8031079629
 31
0.0
  0
SPLINE
  5
59A
100
AcDbEntity
  8
RACCORDO
100
AcDbSpline
 62
7
  6
CONTINUOUS
 70
0
 71
3
 72
9
 73
5
 74
3
 42
0.0000001
 43
0.0000001
 44
0.0000000001
 12
-0.0000170245
 22
0.0636845492
 32
0.0
 13
0.0563267331
 23
0.0297156733
 33
0.0
 40
0.0
 40
0.0
 40
0.0
 40
0.0
 40
0.4537872146
 40
1.0
 40
1.0
 40
1.0
 40
1.0
 10
9.6135783353
 20
19.1178375149
 30
0.0
 10
9.6135757601
 20
19.1274705929
 30
0.0
 10
9.6215492442
 20
19.1489834478
 30
0.0
 10
9.6395945794
 20
19.161763091
 30
0.0
 10
9.64985004
 20
19.1671734512
 30
0.0
 11
9.6135783353
 21
19.1178375149
 31
0.0
 11
9.6228863145
 21
19.1451967422
 31
0.0
 11
9.64985004
 21
19.1671734512
 31
0.0
  0
SPLINE
  5
59B
100
AcDbEntity
  8
RACCORDO
100
AcDbSpline
 62
7
  6
CONTINUOUS
 70
0
 71
3
 72
8
 73
4
 74
2
 42
0.0000001
 43
0.0000001
 44
0.0000000001
 12
0.0213303075
 22
0.0112529951
 32
0.0
 13
0.0230396852
 23
0.007126347
 33
0.0
 40
0.0
 40
0.0
 40
0.0
 40
0.0
 40
1.0
 40
1.0
 40
1.0
 40
1.0
 10
9.64985004
 20
19.1671734512
 30
0.0
 10
9.6569601425
 20
19.1709244496
 30
0.0
 10
9.6644953959
 20
19.173919136
 30
0.0
 10
9.672175291
 20
19.1762945851
 30
0.0
 11
9.64985004
 21
19.1671734512
 31
0.0
 11
9.672175291
 21
19.1762945851
 31
0.0
  0
SPLINE
  5
59C
100
AcDbEntity
  8
RACCORDO
100
AcDbSpline
 62
7
  6
CONTINUOUS
 70
0
 71
3
 72
9
 73
5
 74
3
 42
0.0000001
 43
0.0000001
 44
0.0000000001
 12
-0.0000170245
 22
0.0636845492
 32
0.0
 13
0.0563267331
 23
0.0297156733
 33
0.0
 40
0.0
 40
0.0
 40
0.0
 40
0.0
 40
0.4537872146
 40
1.0
 40
1.0
 40
1.0
 40
1.0
 10
14.5633258036
 20
16.6429637807
 30
0.0
 10
14.5633232284
 20
16.6525968588
 30
0.0
 10
14.5712967125
 20
16.6741097137
 30
0.0
 10
14.5893420477
 20
16.6868893568
 30
0.0
 10
14.5995975083
 20
16.692299717
 30
0.0
 11
14.5633258036
 21
16.6429637807
 31
0.0
 11
14.5726337828
 21
16.6703230081
 31
0.0
 11
14.5995975083
 21
16.692299717
 31
0.0
  0
SPLINE
  5
59D
100
AcDbEntity
  8
RACCORDO
100
AcDbSpline
 62
7
  6
CONTINUOUS
 70
0
 71
3
 72
8
 73
4
 74
2
 42
0.0000001
 43
0.0000001
 44
0.0000000001
 12
0.0213303075
 22
0.0112529951
 32
0.0
 13
0.0230396852
 23
0.007126347
 33
0.0
 40
0.0
 40
0.0
 40
0.0
 40
0.0
 40
1.0
 40
1.0
 40
1.0
 40
1.0
 10
14.5995975083
 20
16.692299717
 30
0.0
 10
14.6067076108
 20
16.6960507154
 30
0.0
 10
14.6142428642
 20
16.6990454019
 30
0.0
 10
14.6219227593
 20
16.7014208509
 30
0.0
 11
14.5995975083
 21
16.692299717
 31
0.0
 11
14.6219227593
 21
16.7014208509
 31
0.0
  0
SPLINE
  5
59E
100
AcDbEntity
  8
RACCORDO
100
AcDbSpline
 62
7
  6
CONTINUOUS
 70
0
 71
3
 72
9
 73
5
 74
3
 42
0.0000001
 43
0.0000001
 44
0.0000000001
 12
0.0
 22
0.0683197723
 32
0.0
 13
0.0551689594
 23
0.0402986006
 33
0.0
 40
0.0
 40
0.0
 40
0.0
 40
0.0
 40
0.2216430341
 40
1.0
 40
1.0
 40
1.0
 40
1.0
 10
13.149104859
 20
17.3512202058
 30
0.0
 10
13.149104859
 20
17.3562677397
 30
0.0
 10
13.1526573121
 20
17.3791785465
 30
0.0
 10
13.170086068
 20
17.3974067503
 30
0.0
 10
13.1843997826
 20
17.4078623158
 30
0.0
 11
13.149104859
 21
17.3512202058
 31
0.0
 11
13.1513612942
 21
17.3661937453
 31
0.0
 11
13.1843997826
 21
17.4078623158
 31
0.0
  0
SPLINE
  5
59F
100
AcDbEntity
  8
RACCORDO
100
AcDbSpline
 62
7
  6
CONTINUOUS
 70
0
 71
3
 72
8
 73
4
 74
2
 42
0.0000001
 43
0.0000001
 44
0.0000000001
 12
0.0219852664
 22
0.0160593109
 32
0.0
 13
0.0243516473
 23
0.0121758236
 33
0.0
 40
0.0
 40
0.0
 40
0.0
 40
0.0
 40
1.0
 40
1.0
 40
1.0
 40
1.0
 10
13.1843997826
 20
17.4078623158
 30
0.0
 10
13.1917282047
 20
17.4132154194
 30
0.0
 10
13.1995919812
 20
17.4178722761
 30
0.0
 10
13.2077091969
 20
17.4219308839
 30
0.0
 11
13.1843997826
 21
17.4078623158
 31
0.0
 11
13.2077091969
 21
17.4219308839
 31
0.0
  0
SPLINE
  5
5A0
100
AcDbEntity
  8
ASSI
100
AcDbSpline
 62
7
  6
CONTINUOUS
 70
0
 71
3
 72
13
 73
9
 74
7
 42
0.0000001
 43
0.0000001
 44
0.0000000001
 12
0.3092727818
 22
-0.5497306504
 32
0.0
 13
-0.4979572077
 23
-0.3871589608
 33
0.0
 40
0.0
 40
0.0
 40
0.0
 40
0.0
 40
0.2942061298
 40
0.5679729652
 40
0.6912605556
 40
0.8036201313
 40
0.9057779327
 40
1.0
 40
1.0
 40
1.0
 40
1.0
 10
3.0281979547
 20
23.2626920526
 30
0.0
 10
3.0585279374
 20
23.2087806769
 30
0.0
 10
3.1053304057
 20
23.0976625642
 30
0.0
 10
3.1288522019
 20
22.9522642817
 30
0.0
 10
3.1209857085
 20
22.8449778608
 30
0.0
 10
3.1028002707
 20
22.7758041915
 30
0.0
 10
3.0724944325
 20
22.7177080503
 30
0.0
 10
3.0438374739
 20
22.6870281235
 30
0.0
 10
3.0281979547
 20
22.6748684843
 30
0.0
 11
3.0281979547
 21
23.2626920526
 31
0.0
 11
3.0996424272
 21
23.0914238831
 31
0.0
 11
3.1246346946
 21
22.9205618985
 31
0.0
 11
3.1183405826
 21
22.8430526164
 31
0.0
 11
3.0996424272
 21
22.7746921813
 31
0.0
 11
3.0691770202
 21
22.7179123999
 31
0.0
 11
3.0281979547
 21
22.6748684843
 31
0.0
  0
SPLINE
  5
5A1
100
AcDbEntity
  8
RACCORDO
100
AcDbSpline
 62
7
  6
CONTINUOUS
 70
0
 71
3
 72
8
 73
4
 74
2
 42
0.0000001
 43
0.0000001
 44
0.0000000001
 12
-0.0392391113
 22
-0.0217685312
 32
0.0
 13
-0.0295087228
 23
-0.0338055039
 33
0.0
 40
0.0
 40
0.0
 40
0.0
 40
0.0
 40
1.0
 40
1.0
 40
1.0
 40
1.0
 10
-5.6363304577
 20
-9.40624514
 30
0.0
 10
-5.6494101614
 20
-9.413501317
 30
0.0
 10
-5.6612701483
 20
-9.4233352598
 30
0.0
 10
-5.6711063892
 20
-9.4346037611
 30
0.0
 11
-5.6363304577
 21
-9.40624514
 31
0.0
 11
-5.6711063892
 21
-9.4346037611
 31
0.0
  0
SPLINE
  5
5A2
100
AcDbEntity
  8
RACCORDO
100
AcDbSpline
 62
7
  6
CONTINUOUS
 70
0
 71
3
 72
9
 73
5
 74
3
 42
0.0000001
 43
0.0000001
 44
0.0000000001
 12
-0.1012648666
 22
-0.1160100987
 32
0.0
 13
0.0022381162
 23
-0.1539737219
 33
0.0
 40
0.0
 40
0.0
 40
0.0
 40
0.0
 40
0.479810138
 40
1.0
 40
1.0
 40
1.0
 40
1.0
 10
-5.6711063892
 20
-9.4346037611
 30
0.0
 10
-5.6873023591
 20
-9.4531580349
 30
0.0
 10
-5.7102713235
 20
-9.5013162879
 30
0.0
 10
-5.7148995286
 20
-9.5530474693
 30
0.0
 10
-5.7145114468
 20
-9.5797459924
 30
0.0
 11
-5.6711063892
 21
-9.4346037611
 31
0.0
 11
-5.7051214744
 21
-9.5001942226
 31
0.0
 11
-5.7145114468
 21
-9.5797459924
 31
0.0
  0
SPLINE
  5
5A3
100
AcDbEntity
  8
ASSI
100
AcDbSpline
 62
253
  6
CONTINUOUS
 70
0
 71
3
 72
10
 73
6
 74
4
 42
0.0000001
 43
0.0000001
 44
0.0000000001
 12
0.0468239032
 22
0.0232263555
 32
0.0
 13
-0.0000002012
 23
-0.0522679778
 33
0.0
 40
0.0
 40
0.0
 40
0.0
 40
0.0
 40
0.2583967523
 40
0.4816423278
 40
1.0
 40
1.0
 40
1.0
 40
1.0
 10
-8.5066946049
 20
26.3218054883
 30
0.0
 10
-8.5026615567
 20
26.3238060265
 30
0.0
 10
-8.4942636854
 20
26.326444999
 30
0.0
 10
-8.4764042376
 20
26.3206993438
 30
0.0
 10
-8.4725626261
 20
26.3052143135
 30
0.0
 10
-8.4725626609
 20
26.2961831444
 30
0.0
 11
-8.5066946049
 21
26.3218054883
 31
0.0
 11
-8.4935920784
 21
26.3250815346
 31
0.0
 11
-8.4825268746
 21
26.3213778379
 31
0.0
 11
-8.4725626609
 21
26.2961831444
 31
0.0
  0
SPLINE
  5
5A4
100
AcDbEntity
  8
ASSI
100
AcDbSpline
 62
253
  6
CONTINUOUS
 70
0
 71
3
 72
9
 73
5
 74
3
 42
0.0000001
 43
0.0000001
 44
0.0000000001
 12
0.0000005359
 22
-0.0501438427
 32
0.0
 13
-0.0315178344
 23
-0.0390003983
 33
0.0
 40
0.0
 40
0.0
 40
0.0
 40
0.0
 40
0.2368631391
 40
1.0
 40
1.0
 40
1.0
 40
1.0
 10
-8.4725626609
 20
25.9562395495
 30
0.0
 10
-8.4725626186
 20
25.9522804736
 30
0.0
 10
-8.474384672
 20
25.9356026761
 30
0.0
 10
-8.4819142918
 20
25.9196673129
 30
0.0
 10
-8.4899317655
 20
25.9097464324
 30
0.0
 11
-8.4725626609
 21
25.9562395495
 31
0.0
 11
-8.4737459913
 21
25.9444214163
 31
0.0
 11
-8.4899317655
 21
25.9097464324
 31
0.0
  0
SPLINE
  5
5A5
100
AcDbEntity
  8
ASSI
100
AcDbSpline
 62
253
  6
CONTINUOUS
 70
0
 71
3
 72
11
 73
7
 74
5
 42
0.0000001
 43
0.0000001
 44
0.0000000001
 12
0.0001190189
 22
-0.0961856147
 32
0.0
 13
0.086031095
 23
-0.0430155475
 33
0.0
 40
0.0
 40
0.0
 40
0.0
 40
0.0
 40
0.2064745034
 40
0.4345350635
 40
0.6981241475
 40
1.0
 40
1.0
 40
1.0
 40
1.0
 10
-13.0914767578
 20
25.9711291744
 30
0.0
 10
-13.0914685663
 20
25.9645092154
 30
0.0
 10
-13.0885160622
 20
25.950478678
 30
0.0
 10
-13.0762981738
 20
25.9313045957
 30
0.0
 10
-13.0572176392
 20
25.9141453222
 30
0.0
 10
-13.0415551171
 20
25.9048152568
 30
0.0
 10
-13.0328982137
 20
25.9004868051
 30
0.0
 11
-13.0914767578
 21
25.9711291744
 31
0.0
 11
-13.0876123395
 21
25.9516488872
 31
0.0
 11
-13.0762276437
 21
25.9328983164
 31
0.0
 11
-13.0576893809
 21
25.9156028649
 31
0.0
 11
-13.0328982137
 21
25.9004868051
 31
0.0
  0
SPLINE
  5
5A6
100
AcDbEntity
  8
ASSI
100
AcDbSpline
 62
7
  6
CONTINUOUS
 70
0
 71
3
 72
9
 73
5
 74
3
 42
0.0000001
 43
0.0000001
 44
0.0000000001
 12
0.0349373875
 22
0.016177147
 32
0.0
 13
0.0384614131
 23
0.0017438006
 33
0.0
 40
0.0
 40
0.0
 40
0.0
 40
0.0
 40
0.7434564307
 40
1.0
 40
1.0
 40
1.0
 40
1.0
 10
-3.3064031768
 20
22.8935536288
 30
0.0
 10
-3.297745035
 20
22.8975626301
 30
0.0
 10
-3.2851565094
 20
22.9011485706
 30
0.0
 10
-3.272370678
 20
22.9022949588
 30
0.0
 10
-3.2690816686
 20
22.9024440791
 30
0.0
 11
-3.3064031768
 21
22.8935536288
 31
0.0
 11
-3.2789179381
 21
22.9015462036
 31
0.0
 11
-3.2690816686
 21
22.9024440791
 31
0.0
  0
SPLINE
  5
5A7
100
AcDbEntity
  8
ASSI
100
AcDbSpline
 62
7
  6
CONTINUOUS
 70
0
 71
3
 72
9
 73
5
 74
3
 42
0.0000001
 43
0.0000001
 44
0.0000000001
 12
0.0743191444
 22
0.003369553
 32
0.0
 13
0.0665413503
 23
-0.0332706751
 33
0.0
 40
0.0
 40
0.0
 40
0.0
 40
0.0
 40
0.2323604911
 40
1.0
 40
1.0
 40
1.0
 40
1.0
 10
-3.2690816686
 20
22.9024440791
 30
0.0
 10
-3.263325391
 20
22.9027050628
 30
0.0
 10
-3.2384574779
 20
22.90187914
 30
0.0
 10
-3.2142216404
 20
22.8937230925
 30
0.0
 10
-3.1971950506
 20
22.8852097976
 30
0.0
 11
-3.2690816686
 21
22.9024440791
 31
0.0
 11
-3.2518028766
 21
22.9019254754
 31
0.0
 11
-3.1971950506
 21
22.8852097976
 31
0.0
  0
SPLINE
  5
5A8
100
AcDbEntity
  8
ASSI
100
AcDbSpline
 62
253
  6
CONTINUOUS
 70
0
 71
3
 72
11
 73
7
 74
5
 42
0.0000001
 43
0.0000001
 44
0.0000000001
 12
-0.0000129856
 22
-0.0935240939
 32
0.0
 13
-0.0830519927
 23
-0.0430014281
 33
0.0
 40
0.0
 40
0.0
 40
0.0
 40
0.0
 40
0.2076695446
 40
0.4361879292
 40
0.699291716
 40
1.0
 40
1.0
 40
1.0
 40
1.0
 10
-8.4164306832
 20
26.0257053866
 30
0.0
 10
-8.4164315821
 20
26.0192313513
 30
0.0
 10
-8.4192230057
 20
26.005534666
 30
0.0
 10
-8.4308927886
 20
25.9867237671
 30
0.0
 10
-8.4491830265
 20
25.9698096517
 30
0.0
 10
-8.4642378535
 20
25.9605498448
 30
0.0
 10
-8.4725626609
 20
25.9562395495
 30
0.0
 11
-8.4164306832
 21
26.0257053866
 31
0.0
 11
-8.4201068147
 21
26.0066343545
 31
0.0
 11
-8.430995028
 21
25.9882439187
 31
0.0
 11
-8.4487591398
 21
25.9712169308
 31
0.0
 11
-8.4725626609
 21
25.9562395495
 31
0.0
  0
SPLINE
  5
5A9
100
AcDbEntity
  8
ASSI
100
AcDbSpline
 62
253
  6
CONTINUOUS
 70
0
 71
3
 72
11
 73
7
 74
5
 42
0.0000001
 43
0.0000001
 44
0.0000000001
 12
-0.0000129856
 22
-0.0935240939
 32
0.0
 13
-0.0830519927
 23
-0.043001428
 33
0.0
 40
0.0
 40
0.0
 40
0.0
 40
0.0
 40
0.2076695446
 40
0.4361879292
 40
0.699291716
 40
1.0
 40
1.0
 40
1.0
 40
1.0
 10
-8.4164306832
 20
26.3656489815
 30
0.0
 10
-8.4164315821
 20
26.3591749461
 30
0.0
 10
-8.4192230057
 20
26.3454782609
 30
0.0
 10
-8.4308927886
 20
26.3266673619
 30
0.0
 10
-8.4491830265
 20
26.3097532466
 30
0.0
 10
-8.4642378535
 20
26.3004934396
 30
0.0
 10
-8.4725626609
 20
26.2961831444
 30
0.0
 11
-8.4164306832
 21
26.3656489815
 31
0.0
 11
-8.4201068147
 21
26.3465779494
 31
0.0
 11
-8.430995028
 21
26.3281875136
 31
0.0
 11
-8.4487591398
 21
26.3111605257
 31
0.0
 11
-8.4725626609
 21
26.2961831444
 31
0.0
  0
SPLINE
  5
5AA
100
AcDbEntity
  8
ASSI
100
AcDbSpline
 62
7
  6
CONTINUOUS
 70
0
 71
3
 72
9
 73
5
 74
3
 42
0.0000001
 43
0.0000001
 44
0.0000000001
 12
0.0349373875
 22
0.016177147
 32
0.0
 13
0.0384614131
 23
0.0017438006
 33
0.0
 40
0.0
 40
0.0
 40
0.0
 40
0.0
 40
0.7434564307
 40
1.0
 40
1.0
 40
1.0
 40
1.0
 10
-7.018713778
 20
24.7497089294
 30
0.0
 10
-7.0100556362
 20
24.7537179307
 30
0.0
 10
-6.9974671107
 20
24.7573038712
 30
0.0
 10
-6.9846812793
 20
24.7584502594
 30
0.0
 10
-6.9813922699
 20
24.7585993797
 30
0.0
 11
-7.018713778
 21
24.7497089294
 31
0.0
 11
-6.9912285393
 21
24.7577015042
 31
0.0
 11
-6.9813922699
 21
24.7585993797
 31
0.0
  0
SPLINE
  5
5AB
100
AcDbEntity
  8
ASSI
100
AcDbSpline
 62
7
  6
CONTINUOUS
 70
0
 71
3
 72
9
 73
5
 74
3
 42
0.0000001
 43
0.0000001
 44
0.0000000001
 12
0.0743191444
 22
0.003369553
 32
0.0
 13
0.0665413503
 23
-0.0332706751
 33
0.0
 40
0.0
 40
0.0
 40
0.0
 40
0.0
 40
0.2323604911
 40
1.0
 40
1.0
 40
1.0
 40
1.0
 10
-6.9813922699
 20
24.7585993797
 30
0.0
 10
-6.9756359922
 20
24.7588603634
 30
0.0
 10
-6.9507680792
 20
24.7580344406
 30
0.0
 10
-6.9265322416
 20
24.7498783931
 30
0.0
 10
-6.9095056518
 20
24.7413650982
 30
0.0
 11
-6.9813922699
 21
24.7585993797
 31
0.0
 11
-6.9641134779
 21
24.7580807761
 31
0.0
 11
-6.9095056518
 21
24.7413650982
 31
0.0
  0
SPLINE
  5
5AC
100
AcDbEntity
  8
ASSI
100
AcDbSpline
 62
253
  6
CONTINUOUS
 70
0
 71
3
 72
10
 73
6
 74
4
 42
0.0000001
 43
0.0000001
 44
0.0000000001
 12
0.0374985431
 22
0.0464822637
 32
0.0
 13
-0.031065602
 23
0.0510065677
 33
0.0
 40
0.0
 40
0.0
 40
0.0
 40
0.0
 40
0.3758715799
 40
0.6547334137
 40
1.0
 40
1.0
 40
1.0
 40
1.0
 10
-8.4782477342
 20
25.8535069656
 30
0.0
 10
-8.473549522
 20
25.8593307529
 30
0.0
 10
-8.4735175687
 20
25.874544671
 30
0.0
 10
-8.480435695
 20
25.8927864006
 30
0.0
 10
-8.4863564608
 20
25.9038761445
 30
0.0
 10
-8.4899317655
 20
25.9097464324
 30
0.0
 11
-8.4782477342
 21
25.8535069656
 31
0.0
 11
-8.4750161698
 21
25.8757210211
 31
0.0
 11
-8.480296302
 21
25.8915160842
 31
0.0
 11
-8.4899317655
 21
25.9097464324
 31
0.0
  0
SPLINE
  5
5AD
100
AcDbEntity
  8
ASSI
100
AcDbSpline
 62
253
  6
CONTINUOUS
 70
0
 71
3
 72
11
 73
7
 74
5
 42
0.0000001
 43
0.0000001
 44
0.0000000001
 12
-0.1409343633
 22
0.0705506125
 32
0.0
 13
0.000001312
 23
0.1576067374
 33
0.0
 40
0.0
 40
0.0
 40
0.0
 40
0.0
 40
0.2174842744
 40
0.4508667617
 40
0.7105769087
 40
1.0
 40
1.0
 40
1.0
 40
1.0
 10
-10.903235463
 20
24.7329236431
 30
0.0
 10
-10.9134524656
 20
24.7380381927
 30
0.0
 10
-10.9327836703
 20
24.7527324571
 30
0.0
 10
-10.9535161984
 20
24.784459307
 30
0.0
 10
-10.9659333791
 20
24.824071785
 30
0.0
 10
-10.9683970176
 20
24.853031134
 30
0.0
 10
-10.968396891
 20
24.8682361437
 30
0.0
 11
-10.903235463
 21
24.7329236431
 31
0.0
 11
-10.9306649337
 21
24.7534793228
 31
0.0
 11
-10.9512779403
 21
24.7839435227
 31
0.0
 11
-10.9640638647
 21
24.8228273806
 31
0.0
 11
-10.968396891
 21
24.8682361437
 31
0.0
  0
SPLINE
  5
5AE
100
AcDbEntity
  8
ASSI
100
AcDbSpline
 62
253
  6
CONTINUOUS
 70
0
 71
3
 72
11
 73
7
 74
5
 42
0.0000001
 43
0.0000001
 44
0.0000000001
 12
0.2312514505
 22
-0.0490368242
 32
0.0
 13
0.0857674302
 23
0.220285704
 33
0.0
 40
0.0
 40
0.0
 40
0.0
 40
0.0
 40
0.2233445289
 40
0.4614640225
 40
0.7216378373
 40
1.0
 40
1.0
 40
1.0
 40
1.0
 10
-10.8504865721
 20
24.7145109111
 30
0.0
 10
-10.8332703233
 20
24.710860209
 30
0.0
 10
-10.7955413258
 20
24.7115230594
 30
0.0
 10
-10.7428345387
 20
24.7362115297
 30
0.0
 10
-10.6986612504
 20
24.7799679075
 30
0.0
 10
-10.6780157621
 20
24.8177576591
 30
0.0
 10
-10.6700576263
 20
24.8381973941
 30
0.0
 11
-10.8504865721
 21
24.7145109111
 31
0.0
 11
-10.7976920965
 21
24.7150447423
 31
0.0
 11
-10.7462843483
 21
24.7379749376
 31
0.0
 11
-10.7020260889
 21
24.7806817473
 31
0.0
 11
-10.6700576263
 21
24.8381973941
 31
0.0
  0
SPLINE
  5
5AF
100
AcDbEntity
  8
RACCORDO
100
AcDbSpline
 62
7
  6
CONTINUOUS
 70
0
 71
3
 72
9
 73
5
 74
3
 42
0.0000001
 43
0.0000001
 44
0.0000000001
 12
0.0056756745
 22
-0.3209436023
 32
0.0
 13
0.1723058214
 23
-0.2708278292
 33
0.0
 40
0.0
 40
0.0
 40
0.0
 40
0.0
 40
0.488119275
 40
1.0
 40
1.0
 40
1.0
 40
1.0
 10
-5.6915741462
 20
-10.9981223842
 30
0.0
 10
-5.6906506775
 20
-11.0503419703
 30
0.0
 10
-5.6666442865
 20
-11.1568266669
 30
0.0
 10
-5.6184946194
 20
-11.2531900537
 30
0.0
 10
-5.5890946098
 20
-11.2994005689
 30
0.0
 11
-5.6915741462
 21
-10.9981223842
 31
0.0
 11
-5.6614623259
 21
-11.1518849285
 31
0.0
 11
-5.5890946098
 21
-11.2994005689
 31
0.0
  0
SPLINE
  5
5B0
100
AcDbEntity
  8
ASSI
100
AcDbSpline
 62
7
  6
CONTINUOUS
 70
0
 71
3
 72
9
 73
5
 74
3
 42
0.0000001
 43
0.0000001
 44
0.0000000001
 12
0.0309994455
 22
0.0143043227
 32
0.0
 13
0.0341398669
 23
0.0002208143
 33
0.0
 40
0.0
 40
0.0
 40
0.0
 40
0.0
 40
0.2452208379
 40
1.0
 40
1.0
 40
1.0
 40
1.0
 10
1.2056026764
 20
21.079841369
 30
0.0
 10
1.2081365797
 20
21.0810106083
 30
0.0
 10
1.2187296129
 20
21.0852082324
 30
0.0
 10
1.2302364034
 20
21.0869761346
 30
0.0
 10
1.2388257568
 20
21.0870316899
 30
0.0
 11
1.2056026764
 21
21.079841369
 31
0.0
 11
1.2133867919
 21
21.082923191
 31
0.0
 11
1.2388257568
 21
21.0870316899
 31
0.0
  0
SPLINE
  5
5B1
100
AcDbEntity
  8
ASSI
100
AcDbSpline
 62
7
  6
CONTINUOUS
 70
0
 71
3
 72
9
 73
5
 74
3
 42
0.0000001
 43
0.0000001
 44
0.0000000001
 12
0.0561628735
 22
0.0003632576
 32
0.0
 13
0.0502346519
 23
-0.0251173259
 33
0.0
 40
0.0
 40
0.0
 40
0.0
 40
0.0
 40
0.2336306509
 40
1.0
 40
1.0
 40
1.0
 40
1.0
 10
1.2388257568
 20
21.0870316899
 30
0.0
 10
1.2431995463
 20
21.0870599793
 30
0.0
 10
1.2619298728
 20
21.0858093409
 30
0.0
 10
1.2801056289
 20
21.0795721597
 30
0.0
 10
1.2929383948
 20
21.0731557768
 30
0.0
 11
1.2388257568
 21
21.0870316899
 31
0.0
 11
1.2519212328
 21
21.0862034225
 31
0.0
 11
1.2929383948
 21
21.0731557768
 31
0.0
  0
SPLINE
  5
5B2
100
AcDbEntity
  8
ASSI
100
AcDbSpline
 62
253
  6
CONTINUOUS
 70
0
 71
3
 72
11
 73
7
 74
5
 42
0.0000001
 43
0.0000001
 44
0.0000000001
 12
-0.0001092739
 22
-0.1185541213
 32
0.0
 13
-0.1056633721
 23
-0.0537619142
 33
0.0
 40
0.0
 40
0.0
 40
0.0
 40
0.0
 40
0.2070713867
 40
0.435367768
 40
0.6987225536
 40
1.0
 40
1.0
 40
1.0
 40
1.0
 10
1.5181429282
 20
25.8509227996
 30
0.0
 10
1.5181353857
 20
25.8427397441
 30
0.0
 10
1.5145448675
 20
25.8254122056
 30
0.0
 10
1.4996154543
 20
25.8016735934
 30
0.0
 10
1.476261622
 20
25.7803798767
 30
0.0
 10
1.4570669171
 20
25.7687608425
 30
0.0
 10
1.4464555868
 20
25.7633617584
 30
0.0
 11
1.5181429282
 21
25.8509227996
 31
0.0
 11
1.5134277838
 21
25.8268306953
 31
0.0
 11
1.4995073626
 21
25.8036194365
 31
0.0
 11
1.4768205818
 21
25.7821692313
 31
0.0
 11
1.4464555868
 21
25.7633617584
 31
0.0
  0
SPLINE
  5
5B3
100
AcDbEntity
  8
ASSI
100
AcDbSpline
 62
253
  6
CONTINUOUS
 70
0
 71
3
 72
10
 73
6
 74
4
 42
0.0000001
 43
0.0000001
 44
0.0000000001
 12
0.0000004625
 22
0.052268429
 32
0.0
 13
-0.0468245066
 23
-0.0232261546
 33
0.0
 40
0.0
 40
0.0
 40
0.0
 40
0.0
 40
0.5182866506
 40
0.7415358719
 40
1.0
 40
1.0
 40
1.0
 40
1.0
 10
4.1139380442
 20
20.0029327918
 30
0.0
 10
4.1139381241
 20
20.0119628015
 30
0.0
 10
4.1100981701
 20
20.027445423
 30
0.0
 10
4.0922399349
 20
20.033195433
 30
0.0
 10
4.083840252
 20
20.0305561783
 30
0.0
 10
4.0798061003
 20
20.0285551357
 30
0.0
 11
4.1139380442
 21
20.0029327918
 31
0.0
 11
4.103977082
 21
20.0281250308
 31
0.0
 11
4.0929123837
 21
20.0318311547
 31
0.0
 11
4.0798061003
 21
20.0285551357
 31
0.0
  0
SPLINE
  5
5B4
100
AcDbEntity
  8
ASSI
100
AcDbSpline
 62
253
  6
CONTINUOUS
 70
0
 71
3
 72
9
 73
5
 74
3
 42
0.0000001
 43
0.0000001
 44
0.0000000001
 12
0.0314967225
 22
0.0389820757
 32
0.0
 13
-0.0000321995
 23
0.0501163118
 33
0.0
 40
0.0
 40
0.0
 40
0.0
 40
0.0
 40
0.2555971139
 40
1.0
 40
1.0
 40
1.0
 40
1.0
 10
4.0965689396
 20
19.6164960798
 30
0.0
 10
4.09925243
 20
19.6198173151
 30
0.0
 10
4.1085689019
 20
19.6336743037
 30
0.0
 10
4.113946034
 20
19.6505536213
 30
0.0
 10
4.1139380442
 20
19.662989197
 30
0.0
 11
4.0965689396
 21
19.6164960798
 31
0.0
 11
4.1037576001
 21
19.6270983761
 31
0.0
 11
4.1139380442
 21
19.662989197
 31
0.0
  0
SPLINE
  5
5B5
100
AcDbEntity
  8
ASSI
100
AcDbSpline
 62
253
  6
CONTINUOUS
 70
0
 71
3
 72
9
 73
5
 74
3
 42
0.0000001
 43
0.0000001
 44
0.0000000001
 12
-0.0000037956
 22
0.0355290971
 32
0.0
 13
-0.0348352978
 23
0.006987044
 33
0.0
 40
0.0
 40
0.0
 40
0.0
 40
0.0
 40
0.5571938031
 40
1.0
 40
1.0
 40
1.0
 40
1.0
 10
4.1139380442
 20
-21.6366149424
 30
0.0
 10
4.1139373393
 20
-21.6300160781
 30
0.0
 10
4.1121994485
 20
-21.6175299945
 30
0.0
 10
4.1017107015
 20
-21.6091393617
 30
0.0
 10
4.0965689396
 20
-21.6081080596
 30
0.0
 11
4.1139380442
 21
-21.6366149424
 31
0.0
 11
4.1092838213
 21
-21.6173732351
 31
0.0
 11
4.0965689396
 21
-21.6081080596
 31
0.0
  0
SPLINE
  5
5B6
100
AcDbEntity
  8
ASSI
100
AcDbSpline
 62
253
  6
CONTINUOUS
 70
0
 71
3
 72
9
 73
5
 74
3
 42
0.0000001
 43
0.0000001
 44
0.0000000001
 12
0.0633521294
 22
0.0341790561
 32
0.0
 13
-0.0000008454
 23
0.0719840272
 33
0.0
 40
0.0
 40
0.0
 40
0.0
 40
0.0
 40
0.4876248425
 40
1.0
 40
1.0
 40
1.0
 40
1.0
 10
4.0798061003
 20
-22.0375255438
 30
0.0
 10
4.0901034576
 20
-22.0319700248
 30
0.0
 10
4.1065210164
 20
-22.0126630323
 30
0.0
 10
4.1139381886
 20
-21.988852813
 30
0.0
 10
4.1139380442
 20
-21.9765585372
 30
0.0
 11
4.0798061003
 21
-22.0375255438
 31
0.0
 11
4.1039745828
 21
-22.0120701183
 31
0.0
 11
4.1139380442
 21
-21.9765585372
 31
0.0
  0
SPLINE
  5
5B7
100
AcDbEntity
  8
RACCORDO
100
AcDbSpline
 62
7
  6
CONTINUOUS
 70
0
 71
3
 72
9
 73
5
 74
3
 42
0.0000001
 43
0.0000001
 44
0.0000000001
 12
0.0046738688
 22
-0.3215440555
 32
0.0
 13
0.1721516858
 23
-0.2716177861
 33
0.0
 40
0.0
 40
0.0
 40
0.0
 40
0.0
 40
0.4879013952
 40
1.0
 40
1.0
 40
1.0
 40
1.0
 10
-5.7145114468
 20
-9.5797459924
 30
0.0
 10
-5.7137513178
 20
-9.6320399235
 30
0.0
 10
-5.6899063186
 20
-9.7387824768
 30
0.0
 10
-5.6418342841
 20
-9.8353996558
 30
0.0
 10
-5.6124480714
 20
-9.8817646856
 30
0.0
 11
-5.7145114468
 21
-9.5797459924
 31
0.0
 11
-5.6847161093
 21
-9.7337892821
 31
0.0
 11
-5.6124480714
 21
-9.8817646856
 31
0.0
  0
SPLINE
  5
5B8
100
AcDbEntity
  8
RACCORDO
100
AcDbSpline
 62
7
  6
CONTINUOUS
 70
0
 71
3
 72
9
 73
5
 74
3
 42
0.0000001
 43
0.0000001
 44
0.0000000001
 12
-0.300538516
 22
0.1703182774
 32
0.0
 13
-0.1585736482
 23
0.3068975616
 33
0.0
 40
0.0
 40
0.0
 40
0.0
 40
0.0
 40
0.4958564874
 40
1.0
 40
1.0
 40
1.0
 40
1.0
 10
-15.8044256466
 20
10.2773609678
 30
0.0
 10
-15.8541003042
 20
10.3055121088
 30
0.0
 10
-15.9423480211
 20
10.3832827898
 30
0.0
 10
-16.0072066334
 20
10.4795946369
 30
0.0
 10
-16.033854592
 20
10.5311681085
 30
0.0
 11
-15.8044256466
 21
10.2773609678
 31
0.0
 11
-15.9358659454
 21
10.3871970865
 31
0.0
 11
-16.033854592
 21
10.5311681085
 31
0.0
  0
SPLINE
  5
5B9
100
AcDbEntity
  8
RACCORDO
100
AcDbSpline
 62
7
  6
CONTINUOUS
 70
0
 71
3
 72
9
 73
5
 74
3
 42
0.0000001
 43
0.0000001
 44
0.0000000001
 12
0.0045368862
 22
-0.3262067359
 32
0.0
 13
0.1765363654
 23
-0.2743470969
 33
0.0
 40
0.0
 40
0.0
 40
0.0
 40
0.0
 40
0.4874675836
 40
1.0
 40
1.0
 40
1.0
 40
1.0
 10
-4.4419290382
 20
-10.1415244956
 30
0.0
 10
-4.4411918432
 20
-10.1945295653
 30
0.0
 10
-4.416469898
 20
-10.3027862935
 30
0.0
 10
-4.3670840623
 20
-10.4004835587
 30
0.0
 10
-4.336923859
 20
-10.4473541523
 30
0.0
 11
-4.4419290382
 21
-10.1415244956
 31
0.0
 11
-4.4112288012
 21
-10.2975636681
 31
0.0
 11
-4.336923859
 21
-10.4473541523
 31
0.0
  0
SPLINE
  5
5BA
100
AcDbEntity
  8
ASSI
100
AcDbSpline
 62
253
  6
CONTINUOUS
 70
0
 71
3
 72
9
 73
5
 74
3
 42
0.0000001
 43
0.0000001
 44
0.0000000001
 12
-0.1003296083
 22
0.0501915989
 32
0.0
 13
-0.1013241881
 23
-0.0481522151
 33
0.0
 40
0.0
 40
0.0
 40
0.0
 40
0.0
 40
0.4652843023
 40
1.0
 40
1.0
 40
1.0
 40
1.0
 10
1.9447845138
 20
21.3291940494
 30
0.0
 10
1.9292239166
 20
21.3369785038
 30
0.0
 10
1.8904627387
 20
21.3438152328
 30
0.0
 10
1.8537243354
 20
21.3323872397
 30
0.0
 10
1.8356644575
 20
21.3238046579
 30
0.0
 11
1.9447845138
 21
21.3291940494
 31
0.0
 11
1.8935918908
 21
21.3393864289
 31
0.0
 11
1.8356644575
 21
21.3238046579
 31
0.0
  0
SPLINE
  5
5BB
100
AcDbEntity
  8
ASSI
100
AcDbSpline
 62
253
  6
CONTINUOUS
 70
0
 71
3
 72
9
 73
5
 74
3
 42
0.0000001
 43
0.0000001
 44
0.0000000001
 12
-0.0996795919
 22
0.049839114
 32
0.0
 13
-0.1003890457
 23
-0.048394192
 33
0.0
 40
0.0
 40
0.0
 40
0.0
 40
0.0
 40
0.4648519224
 40
1.0
 40
1.0
 40
1.0
 40
1.0
 10
4.0467496361
 20
20.2782116864
 30
0.0
 10
4.0313042194
 20
20.2859342891
 30
0.0
 10
3.9927532494
 20
20.2926356315
 30
0.0
 10
3.9563139515
 20
20.2810664313
 30
0.0
 10
3.9384062832
 20
20.272433745
 30
0.0
 11
4.0467496361
 21
20.2782116864
 31
0.0
 11
3.9959195399
 21
20.2882165205
 31
0.0
 11
3.9384062832
 21
20.272433745
 31
0.0
  0
SPLINE
  5
5BC
100
AcDbEntity
  8
ASSI
100
AcDbSpline
 62
253
  6
CONTINUOUS
 70
0
 71
3
 72
11
 73
7
 74
5
 42
0.0000001
 43
0.0000001
 44
0.0000000001
 12
-0.1405921882
 22
0.0703942378
 32
0.0
 13
-0.0000045769
 23
0.1572307606
 33
0.0
 40
0.0
 40
0.0
 40
0.0
 40
0.0
 40
0.2169986407
 40
0.4500358587
 40
0.7102954796
 40
1.0
 40
1.0
 40
1.0
 40
1.0
 10
-12.9681385352
 20
25.76539369
 30
0.0
 10
-12.9783079731
 20
25.770485508
 30
0.0
 10
-12.9975640182
 20
25.785116449
 30
0.0
 10
-13.0181627467
 20
25.81681617
 30
0.0
 10
-13.0304249718
 20
25.8563935067
 30
0.0
 10
-13.0328977627
 20
25.8853206643
 30
0.0
 10
-13.0328982047
 20
25.9005041516
 30
0.0
 11
-12.9681385352
 21
25.76539369
 31
0.0
 11
-12.9954351331
 21
25.7858629949
 31
0.0
 11
-13.0159047442
 21
25.8162526311
 31
0.0
 11
-13.0285888277
 21
25.8551579956
 31
0.0
 11
-13.0328982047
 21
25.9005041516
 31
0.0
  0
SPLINE
  5
5BD
100
AcDbEntity
  8
ASSI
100
AcDbSpline
 62
7
  6
CONTINUOUS
 70
0
 71
3
 72
11
 73
7
 74
5
 42
0.0000001
 43
0.0000001
 44
0.0000000001
 12
0.0027510263
 22
0.0562046123
 32
0.0
 13
0.0442103812
 23
0.034813342
 33
0.0
 40
0.0
 40
0.0
 40
0.0
 40
0.0
 40
0.1190601151
 40
0.3300678012
 40
0.6269737554
 40
1.0
 40
1.0
 40
1.0
 40
1.0
 10
-12.1706296068
 20
25.3682230682
 30
0.0
 10
-12.1705204276
 20
25.3704536441
 30
0.0
 10
-12.1665860164
 20
25.3758657823
 30
0.0
 10
-12.1587530386
 20
25.384238701
 30
0.0
 10
-12.1462416861
 20
25.3952733032
 30
0.0
 10
-12.1365172349
 20
25.4031664857
 30
0.0
 10
-12.1310200241
 20
25.4074952491
 30
0.0
 11
-12.1706296068
 21
25.3682230682
 31
0.0
 11
-12.1676574109
 21
25.3742274458
 31
0.0
 11
-12.1596763825
 21
25.383018941
 31
0.0
 11
-12.1472815422
 21
25.3942219412
 31
0.0
 11
-12.1310200241
 21
25.4074952491
 31
0.0
  0
SPLINE
  5
5BE
100
AcDbEntity
  8
ASSI
100
AcDbSpline
 62
7
  6
CONTINUOUS
 70
0
 71
3
 72
9
 73
5
 74
3
 42
0.0000001
 43
0.0000001
 44
0.0000000001
 12
0.0330198025
 22
0.0260013518
 32
0.0
 13
0.0340306727
 23
0.0246635555
 33
0.0
 40
0.0
 40
0.0
 40
0.0
 40
0.0
 40
0.2288015321
 40
1.0
 40
1.0
 40
1.0
 40
1.0
 10
-12.1310200241
 20
25.4074952491
 30
0.0
 10
-12.128501697
 20
25.4094782989
 30
0.0
 10
-12.1174375031
 20
25.4180722729
 30
0.0
 10
-12.1061778296
 20
25.4264123805
 30
0.0
 10
-12.0974296954
 20
25.4327525459
 30
0.0
 11
-12.1310200241
 21
25.4074952491
 31
0.0
 11
-12.1234284546
 21
25.4133976378
 31
0.0
 11
-12.0974296954
 21
25.4327525459
 31
0.0
  0
SPLINE
  5
5BF
100
AcDbEntity
  8
ASSI
100
AcDbSpline
 62
7
  6
CONTINUOUS
 70
0
 71
3
 72
11
 73
7
 74
5
 42
0.0000001
 43
0.0000001
 44
0.0000000001
 12
0.0027510263
 22
0.0562046123
 32
0.0
 13
0.0442103812
 23
0.034813342
 33
0.0
 40
0.0
 40
0.0
 40
0.0
 40
0.0
 40
0.1190601151
 40
0.3300678012
 40
0.6269737554
 40
1.0
 40
1.0
 40
1.0
 40
1.0
 10
0.4158710984
 20
19.0749727156
 30
0.0
 10
0.4159802775
 20
19.0772032915
 30
0.0
 10
0.4199146887
 20
19.0826154297
 30
0.0
 10
0.4277476665
 20
19.0909883485
 30
0.0
 10
0.4402590191
 20
19.1020229506
 30
0.0
 10
0.4499834702
 20
19.1099161332
 30
0.0
 10
0.455480681
 20
19.1142448966
 30
0.0
 11
0.4158710984
 21
19.0749727156
 31
0.0
 11
0.4188432942
 21
19.0809770933
 31
0.0
 11
0.4268243226
 21
19.0897685884
 31
0.0
 11
0.4392191629
 21
19.1009715886
 31
0.0
 11
0.455480681
 21
19.1142448966
 31
0.0
  0
SPLINE
  5
5C0
100
AcDbEntity
  8
ASSI
100
AcDbSpline
 62
7
  6
CONTINUOUS
 70
0
 71
3
 72
9
 73
5
 74
3
 42
0.0000001
 43
0.0000001
 44
0.0000000001
 12
0.0330198025
 22
0.0260013518
 32
0.0
 13
0.0340306727
 23
0.0246635555
 33
0.0
 40
0.0
 40
0.0
 40
0.0
 40
0.0
 40
0.2288015321
 40
1.0
 40
1.0
 40
1.0
 40
1.0
 10
0.455480681
 20
19.1142448966
 30
0.0
 10
0.4579990082
 20
19.1162279463
 30
0.0
 10
0.469063202
 20
19.1248219204
 30
0.0
 10
0.4803228755
 20
19.133162028
 30
0.0
 10
0.4890710097
 20
19.1395021934
 30
0.0
 11
0.455480681
 21
19.1142448966
 31
0.0
 11
0.4630722506
 21
19.1201472852
 31
0.0
 11
0.4890710097
 21
19.1395021934
 31
0.0
  0
SPLINE
  5
5C1
100
AcDbEntity
  8
ASSI
100
AcDbSpline
 62
253
  6
CONTINUOUS
 70
0
 71
3
 72
9
 73
5
 74
3
 42
0.0000001
 43
0.0000001
 44
0.0000000001
 12
-0.0353602901
 22
0.0075002769
 32
0.0
 13
0.0000004791
 23
0.0361469815
 33
0.0
 40
0.0
 40
0.0
 40
0.0
 40
0.0
 40
0.4489754688
 40
1.0
 40
1.0
 40
1.0
 40
1.0
 10
-10.6700576263
 20
24.8381973941
 30
0.0
 10
-10.6753495939
 20
24.8393198743
 30
0.0
 10
-10.6860905004
 20
24.8476533075
 30
0.0
 10
-10.6880439487
 20
24.8603735506
 30
0.0
 10
-10.6880438607
 20
24.8670128418
 30
0.0
 11
-10.6700576263
 21
24.8381973941
 31
0.0
 11
-10.6832230342
 21
24.8476871771
 31
0.0
 11
-10.6880438607
 21
24.8670128418
 31
0.0
  0
SPLINE
  5
5C2
100
AcDbEntity
  8
ASSI
100
AcDbSpline
 62
253
  6
CONTINUOUS
 70
0
 71
3
 72
9
 73
5
 74
3
 42
0.0000001
 43
0.0000001
 44
0.0000000001
 12
-0.0000013918
 22
0.0722030778
 32
0.0
 13
0.0644807939
 23
0.0324886391
 33
0.0
 40
0.0
 40
0.0
 40
0.0
 40
0.0
 40
0.5097236387
 40
1.0
 40
1.0
 40
1.0
 40
1.0
 10
-10.6880438607
 20
25.1842816422
 30
0.0
 10
-10.6880440972
 20
25.196549514
 30
0.0
 10
-10.6803031913
 20
25.220448693
 30
0.0
 10
-10.663237001
 20
25.2393328188
 30
0.0
 10
-10.652699198
 20
25.2446422894
 30
0.0
 11
-10.6880438607
 21
25.1842816422
 31
0.0
 11
-10.6777297733
 21
25.2196104649
 31
0.0
 11
-10.652699198
 21
25.2446422894
 31
0.0
  0
SPLINE
  5
5C3
100
AcDbEntity
  8
ASSI
100
AcDbSpline
 62
7
  6
CONTINUOUS
 70
0
 71
3
 72
9
 73
5
 74
3
 42
0.0000001
 43
0.0000001
 44
0.0000000001
 12
-0.256502206
 22
0.1303360411
 32
0.0
 13
-0.1443146273
 23
0.2489059132
 33
0.0
 40
0.0
 40
0.0
 40
0.0
 40
0.0
 40
0.4939555319
 40
1.0
 40
1.0
 40
1.0
 40
1.0
 10
-11.7036482327
 20
25.1331505345
 30
0.0
 10
-11.7458817939
 20
25.154610604
 30
0.0
 10
-11.8220503067
 20
25.2162800249
 30
0.0
 10
-11.8795222031
 20
25.2939845827
 30
0.0
 10
-11.9038654093
 20
25.3359704029
 30
0.0
 11
-11.7036482327
 21
25.1331505345
 31
0.0
 11
-11.8165676843
 21
25.2194469534
 31
0.0
 11
-11.9038654093
 21
25.3359704029
 31
0.0
  0
SPLINE
  5
5C4
100
AcDbEntity
  8
ASSI
100
AcDbSpline
 62
253
  6
CONTINUOUS
 70
0
 71
3
 72
18
 73
14
 74
12
 42
0.0000001
 43
0.0000001
 44
0.0000000001
 12
0.2884012388
 22
0.1428740244
 32
0.0
 13
-0.2921659193
 23
-0.1350086552
 33
0.0
 40
0.0
 40
0.0
 40
0.0
 40
0.0
 40
0.0593413286
 40
0.1107776894
 40
0.1552071775
 40
0.1956008089
 40
0.2804952052
 40
0.3331353194
 40
0.3938218159
 40
0.5364451684
 40
0.6967673704
 40
0.8571446997
 40
1.0
 40
1.0
 40
1.0
 40
1.0
 10
-2.6735995768
 20
26.5131311855
 30
0.0
 10
-2.6678948726
 20
26.515957297
 30
0.0
 10
-2.6576007112
 20
26.522033676
 30
0.0
 10
-2.6451252012
 20
26.5332869426
 30
0.0
 10
-2.6372283782
 20
26.5458763028
 30
0.0
 10
-2.6336418744
 20
26.5642777034
 30
0.0
 10
-2.6428932281
 20
26.5830520824
 30
0.0
 10
-2.6589114509
 20
26.5970292117
 30
0.0
 10
-2.6826767834
 20
26.6111260483
 30
0.0
 10
-2.7203144732
 20
26.6229366645
 30
0.0
 10
-2.7700009464
 20
26.6282230486
 30
0.0
 10
-2.8198370277
 20
26.6244437271
 30
0.0
 10
-2.8515246417
 20
26.6154788603
 30
0.0
 10
-2.8654371251
 20
26.6090499596
 30
0.0
 11
-2.6735995768
 21
26.5131311855
 31
0.0
 11
-2.6572649616
 21
26.5230284252
 31
0.0
 11
-2.645180886
 21
26.5343438349
 31
0.0
 11
-2.6378513965
 21
26.5466222582
 31
0.0
 11
-2.6355346187
 21
26.5594149068
 31
0.0
 11
-2.6460802458
 21
26.584621184
 31
0.0
 11
-2.6585556552
 21
26.5960844003
 31
0.0
 11
-2.6752618059
 21
26.6062039184
 31
0.0
 11
-2.7187333132
 21
26.6209470677
 31
0.0
 11
-2.7700166008
 21
26.6266545271
 31
0.0
 11
-2.8214655526
 21
26.6224847067
 31
0.0
 11
-2.8654371251
 21
26.6090499596
 31
0.0
  0
SPLINE
  5
5C5
100
AcDbEntity
  8
ASSI
100
AcDbSpline
 62
253
  6
CONTINUOUS
 70
0
 71
3
 72
18
 73
14
 74
12
 42
0.0000001
 43
0.0000001
 44
0.0000000001
 12
0.2884012388
 22
0.1428740244
 32
0.0
 13
-0.2921659193
 23
-0.1350086552
 33
0.0
 40
0.0
 40
0.0
 40
0.0
 40
0.0
 40
0.0593413286
 40
0.1107776894
 40
0.1552071775
 40
0.1956008089
 40
0.2804952052
 40
0.3331353194
 40
0.3938218159
 40
0.5364451684
 40
0.6967673704
 40
0.8571446997
 40
1.0
 40
1.0
 40
1.0
 40
1.0
 10
2.9355567388
 20
23.7085530277
 30
0.0
 10
2.9412614431
 20
23.7113791391
 30
0.0
 10
2.9515556044
 20
23.7174555181
 30
0.0
 10
2.9640311145
 20
23.7287087847
 30
0.0
 10
2.9719279374
 20
23.741298145
 30
0.0
 10
2.9755144412
 20
23.7596995456
 30
0.0
 10
2.9662630875
 20
23.7784739246
 30
0.0
 10
2.9502448647
 20
23.7924510539
 30
0.0
 10
2.9264795322
 20
23.8065478905
 30
0.0
 10
2.8888418424
 20
23.8183585067
 30
0.0
 10
2.8391553692
 20
23.8236448907
 30
0.0
 10
2.789319288
 20
23.8198655693
 30
0.0
 10
2.7576316739
 20
23.8109007025
 30
0.0
 10
2.7437191906
 20
23.8044718018
 30
0.0
 11
2.9355567388
 21
23.7085530277
 31
0.0
 11
2.951891354
 21
23.7184502674
 31
0.0
 11
2.9639754297
 21
23.7297656771
 31
0.0
 11
2.9713049192
 21
23.7420441004
 31
0.0
 11
2.973621697
 21
23.754836749
 31
0.0
 11
2.9630760699
 21
23.7800430262
 31
0.0
 11
2.9506006605
 21
23.7915062425
 31
0.0
 11
2.9338945098
 21
23.8016257606
 31
0.0
 11
2.8904230024
 21
23.8163689099
 31
0.0
 11
2.8391397149
 21
23.8220763693
 31
0.0
 11
2.7876907631
 21
23.8179065488
 31
0.0
 11
2.7437191906
 21
23.8044718018
 31
0.0
  0
SPLINE
  5
5C6
100
AcDbEntity
  8
ASSI
100
AcDbSpline
 62
7
  6
CONTINUOUS
 70
0
 71
3
 72
9
 73
5
 74
3
 42
0.0000001
 43
0.0000001
 44
0.0000000001
 12
-0.256502206
 22
0.1303360411
 32
0.0
 13
-0.1443146273
 23
0.2489059132
 33
0.0
 40
0.0
 40
0.0
 40
0.0
 40
0.0
 40
0.4939555319
 40
1.0
 40
1.0
 40
1.0
 40
1.0
 10
0.8828524724
 20
18.839900182
 30
0.0
 10
0.8406189112
 20
18.8613602515
 30
0.0
 10
0.7644503984
 20
18.9230296723
 30
0.0
 10
0.706978502
 20
19.0007342302
 30
0.0
 10
0.6826352958
 20
19.0427200503
 30
0.0
 11
0.8828524724
 21
18.839900182
 31
0.0
 11
0.7699330208
 21
18.9261966009
 31
0.0
 11
0.6826352958
 21
19.0427200503
 31
0.0
  0
SPLINE
  5
5C7
100
AcDbEntity
  8
ASSI
100
AcDbSpline
 62
253
  6
CONTINUOUS
 70
0
 71
3
 72
10
 73
6
 74
4
 42
0.0000001
 43
0.0000001
 44
0.0000000001
 12
-0.0478202807
 22
0.0239112512
 32
0.0
 13
-0.0000014259
 23
-0.0534651959
 33
0.0
 40
0.0
 40
0.0
 40
0.0
 40
0.0
 40
0.2611523551
 40
0.4862749319
 40
1.0
 40
1.0
 40
1.0
 40
1.0
 10
-3.5470025811
 20
22.5287937486
 30
0.0
 10
-3.5511653741
 20
22.5308752418
 30
0.0
 10
-3.5598026304
 20
22.533626251
 30
0.0
 10
-3.578169371
 20
22.5281068142
 30
0.0
 10
-3.5823522912
 20
22.512329521
 30
0.0
 10
-3.5823525354
 20
22.5031740506
 30
0.0
 11
-3.5470025811
 21
22.5287937486
 31
0.0
 11
-3.5605273981
 21
22.5322625323
 31
0.0
 11
-3.5719971804
 21
22.5286135942
 31
0.0
 11
-3.5823525354
 21
22.5031740506
 31
0.0
  0
SPLINE
  5
5C8
100
AcDbEntity
  8
ASSI
100
AcDbSpline
 62
253
  6
CONTINUOUS
 70
0
 71
3
 72
9
 73
5
 74
3
 42
0.0000001
 43
0.0000001
 44
0.0000000001
 12
0.0000004879
 22
0.0727379768
 32
0.0
 13
-0.0650592676
 23
0.0325285253
 33
0.0
 40
0.0
 40
0.0
 40
0.0
 40
0.0
 40
0.5121953554
 40
1.0
 40
1.0
 40
1.0
 40
1.0
 10
-1.2917041383
 20
21.357849852
 30
0.0
 10
-1.291704055
 20
21.3702685366
 30
0.0
 10
-1.2994154963
 20
21.394324485
 30
0.0
 10
-1.3164753549
 20
21.4135303158
 30
0.0
 10
-1.3270540925
 20
21.4188195043
 30
0.0
 11
-1.2917041383
 21
21.357849852
 31
0.0
 11
-1.3020560858
 21
21.393638827
 31
0.0
 11
-1.3270540925
 21
21.4188195043
 31
0.0
  0
SPLINE
  5
5C9
100
AcDbEntity
  8
ASSI
100
AcDbSpline
 62
253
  6
CONTINUOUS
 70
0
 71
3
 72
10
 73
6
 74
4
 42
0.0000001
 43
0.0000001
 44
0.0000000001
 12
-0.0478202807
 22
0.0239112512
 32
0.0
 13
-0.0000014259
 23
-0.0534651959
 33
0.0
 40
0.0
 40
0.0
 40
0.0
 40
0.0
 40
0.2611523551
 40
0.4862749319
 40
1.0
 40
1.0
 40
1.0
 40
1.0
 10
-7.2593131824
 20
24.3849490492
 30
0.0
 10
-7.2634759753
 20
24.3870305424
 30
0.0
 10
-7.2721132317
 20
24.3897815516
 30
0.0
 10
-7.2904799722
 20
24.3842621148
 30
0.0
 10
-7.2946628925
 20
24.3684848217
 30
0.0
 10
-7.2946631366
 20
24.3593293512
 30
0.0
 11
-7.2593131824
 21
24.3849490492
 31
0.0
 11
-7.2728379993
 21
24.3884178329
 31
0.0
 11
-7.2843077816
 21
24.3847688948
 31
0.0
 11
-7.2946631366
 21
24.3593293512
 31
0.0
  0
SPLINE
  5
5CA
100
AcDbEntity
  8
ASSI
100
AcDbSpline
 62
253
  6
CONTINUOUS
 70
0
 71
3
 72
9
 73
5
 74
3
 42
0.0000001
 43
0.0000001
 44
0.0000000001
 12
0.0000004879
 22
0.0727379768
 32
0.0
 13
-0.0650592676
 23
0.0325285253
 33
0.0
 40
0.0
 40
0.0
 40
0.0
 40
0.0
 40
0.5121953554
 40
1.0
 40
1.0
 40
1.0
 40
1.0
 10
-5.0040147395
 20
23.2140051526
 30
0.0
 10
-5.0040146562
 20
23.2264238372
 30
0.0
 10
-5.0117260975
 20
23.2504797856
 30
0.0
 10
-5.0287859561
 20
23.2696856164
 30
0.0
 10
-5.0393646938
 20
23.274974805
 30
0.0
 11
-5.0040147395
 21
23.2140051526
 31
0.0
 11
-5.014366687
 21
23.2497941276
 31
0.0
 11
-5.0393646938
 21
23.274974805
 31
0.0
  0
SPLINE
  5
5CB
100
AcDbEntity
  8
ASSI
100
AcDbSpline
 62
7
  6
CONTINUOUS
 70
0
 71
3
 72
10
 73
6
 74
4
 42
0.0000001
 43
0.0000001
 44
0.0000000001
 12
0.170111722
 22
0.345119547
 32
0.0
 13
-0.1206318574
 23
0.3653675611
 33
0.0
 40
0.0
 40
0.0
 40
0.0
 40
0.0
 40
0.4539933938
 40
0.7184177455
 40
1.0
 40
1.0
 40
1.0
 40
1.0
 10
-0.7930050706
 20
20.8015486237
 30
0.0
 10
-0.7672618712
 20
20.8537759552
 30
0.0
 10
-0.7520630229
 20
20.9489018658
 30
0.0
 10
-0.7643359652
 20
21.0764697137
 30
0.0
 10
-0.7816824738
 20
21.1447466716
 30
0.0
 10
-0.7930050706
 20
21.1790403455
 30
0.0
 11
-0.7930050706
 21
20.8015486237
 31
0.0
 11
-0.7576430757
 21
20.9726134871
 31
0.0
 11
-0.7666221031
 21
21.0739582137
 31
0.0
 11
-0.7930050706
 21
21.1790403455
 31
0.0
  0
SPLINE
  5
5CC
100
AcDbEntity
  8
ASSI
100
AcDbSpline
 62
7
  6
CONTINUOUS
 70
0
 71
3
 72
11
 73
7
 74
5
 42
0.0000001
 43
0.0000001
 44
0.0000000001
 12
0.2575099286
 22
0.1558388673
 32
0.0
 13
0.0
 23
0.300993548
 33
0.0
 40
0.0
 40
0.0
 40
0.0
 40
0.0
 40
0.2175208227
 40
0.4525013529
 40
0.7128527964
 40
1.0
 40
1.0
 40
1.0
 40
1.0
 10
3.7914396987
 20
-20.6823489234
 30
0.0
 10
3.8101109559
 20
-20.6710495238
 30
0.0
 10
3.845013529
 20
-20.6405249708
 30
0.0
 10
3.8823082833
 20
-20.5784385742
 30
0.0
 10
3.9047364668
 20
-20.5025047343
 30
0.0
 10
3.9092550243
 20
-20.4473908885
 30
0.0
 10
3.9092550243
 20
-20.4185810699
 30
0.0
 11
3.7914396987
 21
-20.6823489234
 31
0.0
 11
3.8410720729
 21
-20.6396492992
 31
0.0
 11
3.878344099
 21
-20.5795394598
 31
0.0
 11
3.9014415821
 21
-20.5046566234
 31
0.0
 11
3.9092550243
 21
-20.4185810699
 31
0.0
  0
SPLINE
  5
5CD
100
AcDbEntity
  8
ASSI
100
AcDbSpline
 62
253
  6
CONTINUOUS
 70
0
 71
3
 72
11
 73
7
 74
5
 42
0.0000001
 43
0.0000001
 44
0.0000000001
 12
-0.4050136794
 22
0.2024841855
 32
0.0
 13
-0.4094659413
 23
-0.1933224478
 33
0.0
 40
0.0
 40
0.0
 40
0.0
 40
0.0
 40
0.2282020407
 40
0.4663331274
 40
0.7222036235
 40
1.0
 40
1.0
 40
1.0
 40
1.0
 10
5.9705748236
 20
24.087463448
 30
0.0
 10
5.9397665076
 20
24.1028658827
 30
0.0
 10
5.8721276789
 20
24.1257132998
 30
0.0
 10
5.7622767134
 20
24.1326801434
 30
0.0
 10
5.646557017
 20
24.1131452565
 30
0.0
 10
5.5707716592
 20
24.0844246581
 30
0.0
 10
5.5328556076
 20
24.0665232329
 30
0.0
 11
5.9705748236
 21
24.087463448
 31
0.0
 11
5.8727792875
 21
24.1208328821
 31
0.0
 11
5.7652240689
 21
24.1284962448
 31
0.0
 11
5.6508168917
 21
24.1102030611
 31
0.0
 11
5.5328556076
 21
24.0665232329
 31
0.0
  0
SPLINE
  5
5CE
100
AcDbEntity
  8
ASSI
100
AcDbSpline
 62
253
  6
CONTINUOUS
 70
0
 71
3
 72
11
 73
7
 74
5
 42
0.0000001
 43
0.0000001
 44
0.0000000001
 12
0.0075213618
 22
-0.2148850632
 32
0.0
 13
0.1862299081
 23
-0.1074736367
 33
0.0
 40
0.0
 40
0.0
 40
0.0
 40
0.0
 40
0.2161856707
 40
0.448327406
 40
0.708093892
 40
1.0
 40
1.0
 40
1.0
 40
1.0
 10
-17.3099314066
 20
-14.6920068158
 30
0.0
 10
-17.3093894031
 20
-14.7074918396
 30
0.0
 10
-17.3026641806
 20
-14.7396152236
 30
0.0
 10
-17.2770277456
 20
-14.7841776272
 30
0.0
 10
-17.237353248
 20
-14.8245973264
 30
0.0
 10
-17.2044877281
 20
-14.8469924858
 30
0.0
 10
-17.1863671788
 20
-14.8574498895
 30
0.0
 11
-17.3099314066
 21
-14.6920068158
 31
0.0
 11
-17.3006930885
 21
-14.7375630563
 31
0.0
 11
-17.2764489851
 21
-14.7811940625
 31
0.0
 11
-17.2378844647
 21
-14.8215977819
 31
0.0
 11
-17.1863671788
 21
-14.8574498895
 31
0.0
  0
SPLINE
  5
5CF
100
AcDbEntity
  8
ASSI
100
AcDbSpline
 62
253
  6
CONTINUOUS
 70
0
 71
3
 72
11
 73
7
 74
5
 42
0.0000001
 43
0.0000001
 44
0.0000000001
 12
-0.0069088798
 22
-0.2135331846
 32
0.0
 13
0.1858848867
 23
-0.1053136384
 33
0.0
 40
0.0
 40
0.0
 40
0.0
 40
0.0
 40
0.2056069763
 40
0.4328959395
 40
0.6962131395
 40
1.0
 40
1.0
 40
1.0
 40
1.0
 10
-17.3099501185
 20
21.4655185909
 30
0.0
 10
-17.3104236231
 20
21.4508839534
 30
0.0
 10
-17.3050515078
 20
21.4196316797
 30
0.0
 10
-17.2796559532
 20
21.3761624632
 30
0.0
 10
-17.2390287839
 20
21.3361327104
 30
0.0
 10
-17.2051807644
 20
21.3137061722
 30
0.0
 10
-17.1863576357
 20
21.3030418724
 30
0.0
 11
-17.3099501185
 21
21.4655185909
 31
0.0
 11
-17.3029703266
 21
21.4221497785
 31
0.0
 11
-17.2794258617
 21
21.3796804061
 31
0.0
 11
-17.2400539655
 21
21.3394978919
 31
0.0
 11
-17.1863576357
 21
21.3030418724
 31
0.0
  0
SPLINE
  5
5D0
100
AcDbEntity
  8
ASSI
100
AcDbSpline
 62
253
  6
CONTINUOUS
 70
0
 71
3
 72
11
 73
7
 74
5
 42
0.0000001
 43
0.0000001
 44
0.0000000001
 12
0.2112905372
 22
0.1251305382
 32
0.0
 13
0.2219907159
 23
-0.1049831642
 33
0.0
 40
0.0
 40
0.0
 40
0.0
 40
0.0
 40
0.223697647
 40
0.4596515511
 40
0.7172199347
 40
1.0
 40
1.0
 40
1.0
 40
1.0
 10
-16.6068133199
 20
22.7000589197
 30
0.0
 10
-16.5910582546
 20
22.7093893887
 30
0.0
 10
-16.5554937511
 20
22.7235909774
 30
0.0
 10
-16.4963312709
 20
22.7288445871
 30
0.0
 10
-16.4330777703
 20
22.7186644988
 30
0.0
 10
-16.3914313156
 20
22.7029439615
 30
0.0
 10
-16.3705064659
 20
22.6930482462
 30
0.0
 11
-16.6068133199
 21
22.7000589197
 31
0.0
 11
-16.5558851048
 21
22.7206461615
 31
0.0
 11
-16.4982279455
 21
22.7263805921
 31
0.0
 11
-16.4356731219
 21
22.7170331916
 31
0.0
 11
-16.3705064659
 21
22.6930482462
 31
0.0
  0
SPLINE
  5
5D1
100
AcDbEntity
  8
ASSI
100
AcDbSpline
 62
253
  6
CONTINUOUS
 70
0
 71
3
 72
11
 73
7
 74
5
 42
0.0000001
 43
0.0000001
 44
0.0000000001
 12
-0.55262749
 22
0.3637860026
 32
0.0
 13
-0.0246839061
 23
0.6611566404
 33
0.0
 40
0.0
 40
0.0
 40
0.0
 40
0.0
 40
0.2207351984
 40
0.456964294
 40
0.7158815231
 40
1.0
 40
1.0
 40
1.0
 40
1.0
 10
-16.9180910682
 20
-15.4369564181
 30
0.0
 10
-16.9587525144
 20
-15.4101896263
 30
0.0
 10
-17.0344647998
 20
-15.3410071435
 30
0.0
 10
-17.1173610463
 20
-15.2046559137
 30
0.0
 10
-17.170184243
 20
-15.0397540672
 30
0.0
 10
-17.1840294629
 20
-14.9200654064
 30
0.0
 10
-17.1863671809
 20
-14.8574498005
 30
0.0
 11
-16.9180910682
 21
-15.4369564181
 31
0.0
 11
-17.0265782185
 21
-15.3391869578
 31
0.0
 11
-17.1093229959
 21
-15.2065940438
 31
0.0
 11
-17.1632552264
 21
-15.0440012647
 31
0.0
 11
-17.1863671809
 21
-14.8574498005
 31
0.0
  0
SPLINE
  5
5D2
100
AcDbEntity
  8
RACCORDO
100
AcDbSpline
 62
7
  6
CONTINUOUS
 70
0
 71
3
 72
11
 73
7
 74
5
 42
0.0000001
 43
0.0000001
 44
0.0000000001
 12
-0.4462568644
 22
-0.2039152419
 32
0.0
 13
-0.3932251128
 23
-0.293429081
 33
0.0
 40
0.0
 40
0.0
 40
0.0
 40
0.0
 40
0.2777921732
 40
0.5613275895
 40
0.8056928483
 40
1.0
 40
1.0
 40
1.0
 40
1.0
 10
-15.6343599353
 20
-4.3383372134
 30
0.0
 10
-15.6756821567
 20
-4.3572192328
 30
0.0
 10
-15.7572777063
 20
-4.3994882495
 30
0.0
 10
-15.8715363556
 20
-4.4651601919
 30
0.0
 10
-15.971561812
 20
-4.5280254868
 30
0.0
 10
-16.0306936026
 20
-4.5687297492
 30
0.0
 10
-16.0561624198
 20
-4.5877348722
 30
0.0
 11
-15.6343599353
 21
-4.3383372134
 31
0.0
 11
-15.7559551555
 21
-4.3999092212
 31
0.0
 11
-15.8765864672
 21
-4.4691960213
 31
0.0
 11
-15.9779908475
 21
-4.5331647022
 31
0.0
 11
-16.0561624198
 21
-4.5877348722
 31
0.0
  0
SPLINE
  5
5D3
100
AcDbEntity
  8
RACCORDO
100
AcDbSpline
 62
7
  6
CONTINUOUS
 70
0
 71
3
 72
11
 73
7
 74
5
 42
0.0000001
 43
0.0000001
 44
0.0000000001
 12
-0.445635733
 22
-0.2095140426
 32
0.0
 13
-0.3954691207
 23
-0.2934135566
 33
0.0
 40
0.0
 40
0.0
 40
0.0
 40
0.0
 40
0.2759845591
 40
0.5592577129
 40
0.8043456362
 40
1.0
 40
1.0
 40
1.0
 40
1.0
 10
-14.5009156589
 20
-4.973952539
 30
0.0
 10
-14.5419118526
 20
-4.9932267526
 30
0.0
 10
-14.6231243696
 20
-5.0361984219
 30
0.0
 10
-14.7372101167
 20
-5.102681166
 30
0.0
 10
-14.8376352001
 20
-5.1662720391
 30
0.0
 10
-14.8972421683
 20
-5.2073358799
 30
0.0
 10
-14.9230339214
 20
-5.2264717608
 30
0.0
 11
-14.5009156589
 21
-4.973952539
 31
0.0
 11
-14.6216058789
 21
-5.0364306929
 31
0.0
 11
-14.7421506708
 21
-5.106623496
 31
0.0
 11
-14.8440198833
 21
-5.1713414609
 31
0.0
 11
-14.9230339214
 21
-5.2264717608
 31
0.0
  0
SPLINE
  5
5D4
100
AcDbEntity
  8
RACCORDO
100
AcDbSpline
 62
7
  6
CONTINUOUS
 70
0
 71
3
 72
11
 73
7
 74
5
 42
0.0000001
 43
0.0000001
 44
0.0000000001
 12
0.3958022722
 22
0.2939456038
 32
0.0
 13
0.445423803
 23
0.2113317118
 33
0.0
 40
0.0
 40
0.0
 40
0.0
 40
0.0
 40
0.1954117226
 40
0.4405138543
 40
0.7240166979
 40
1.0
 40
1.0
 40
1.0
 40
1.0
 10
-14.8989369725
 20
-6.6444794209
 30
0.0
 10
-14.8731555045
 20
-6.6253326153
 30
0.0
 10
-14.8135472095
 20
-6.5841873759
 30
0.0
 10
-14.7131026024
 20
-6.5203649449
 30
0.0
 10
-14.5989923039
 20
-6.4535357188
 30
0.0
 10
-14.5177771501
 20
-6.4102614096
 30
0.0
 10
-14.4768006394
 20
-6.3908200684
 30
0.0
 11
-14.8989369725
 21
-6.6444794209
 31
0.0
 11
-14.8199748779
 21
-6.5892838965
 31
0.0
 11
-14.7180786249
 21
-6.5243284954
 31
0.0
 11
-14.5974466396
 21
-6.4537319448
 31
0.0
 11
-14.4768006394
 21
-6.3908200684
 31
0.0
  0
SPLINE
  5
5D5
100
AcDbEntity
  8
RACCORDO
100
AcDbSpline
 62
253
  6
CONTINUOUS
 70
0
 71
3
 72
9
 73
5
 74
3
 42
0.0000001
 43
0.0000001
 44
0.0000000001
 12
-0.0852268657
 22
0.0418309076
 32
0.0
 13
-0.0824587203
 23
-0.0470531924
 33
0.0
 40
0.0
 40
0.0
 40
0.0
 40
0.0
 40
0.5425167707
 40
1.0
 40
1.0
 40
1.0
 40
1.0
 10
-2.1828493852
 20
15.5640392561
 30
0.0
 10
-2.1982617198
 20
15.5716039124
 30
0.0
 10
-2.2292252067
 20
15.5818620786
 30
0.0
 10
-2.2622738286
 20
15.5754944655
 30
0.0
 10
-2.2748483225
 20
15.5683191167
 30
0.0
 11
-2.1828493852
 21
15.5640392561
 31
0.0
 11
-2.2324718479
 21
15.5778409935
 31
0.0
 11
-2.2748483225
 21
15.5683191167
 31
0.0
  0
SPLINE
  5
5D6
100
AcDbEntity
  8
RACCORDO
100
AcDbSpline
 62
253
  6
CONTINUOUS
 70
0
 71
3
 72
11
 73
7
 74
5
 42
0.0000001
 43
0.0000001
 44
0.0000000001
 12
-0.0967364836
 22
0.0429434063
 32
0.0
 13
0.0036349252
 23
0.1057774585
 33
0.0
 40
0.0
 40
0.0
 40
0.0
 40
0.0
 40
0.3121452026
 40
0.5797732391
 40
0.803780086
 40
1.0
 40
1.0
 40
1.0
 40
1.0
 10
-2.9722182047
 20
14.1625523685
 30
0.0
 10
-2.9822834811
 20
14.1670205613
 30
0.0
 10
-3.0004425945
 20
14.1766657968
 30
0.0
 10
-3.0226906409
 20
14.1946290636
 30
0.0
 10
-3.0369311238
 20
14.2148165544
 30
0.0
 10
-3.0401521655
 20
14.2298734161
 30
0.0
 10
-3.0399144173
 20
14.2367919641
 30
0.0
 11
-2.9722182047
 21
14.1625523685
 31
0.0
 11
-3.0012248929
 21
14.178366377
 31
0.0
 11
-3.0228816553
 21
14.1966237384
 31
0.0
 11
-3.03594956
 21
14.2164060529
 31
0.0
 11
-3.0399144173
 21
14.2367919641
 31
0.0
  0
SPLINE
  5
5D7
100
AcDbEntity
  8
RACCORDO
100
AcDbSpline
 62
253
  6
CONTINUOUS
 70
0
 71
3
 72
11
 73
7
 74
5
 42
0.0000001
 43
0.0000001
 44
0.0000000001
 12
-0.0979367532
 22
0.0429005897
 32
0.0
 13
0.0028384638
 23
0.1068831668
 33
0.0
 40
0.0
 40
0.0
 40
0.0
 40
0.0
 40
0.3111798521
 40
0.5785305149
 40
0.8029300297
 40
1.0
 40
1.0
 40
1.0
 40
1.0
 10
-3.087752914
 20
10.4851919345
 30
0.0
 10
-3.0979115621
 20
10.4896418675
 30
0.0
 10
-3.1162591487
 20
10.4992876984
 30
0.0
 10
-3.1387709445
 20
10.5173442218
 30
0.0
 10
-3.1532329095
 20
10.5377243487
 30
0.0
 10
-3.1565757954
 20
10.5529533853
 30
0.0
 10
-3.1563893367
 20
10.5599745394
 30
0.0
 11
-3.087752914
 21
10.4851919345
 31
0.0
 11
-3.1170336959
 21
10.5009918121
 31
0.0
 11
-3.1389516374
 21
10.5193419253
 31
0.0
 11
-3.1522459046
 21
10.5393150544
 31
0.0
 11
-3.1563893367
 21
10.5599745394
 31
0.0
  0
SPLINE
  5
5D8
100
AcDbEntity
  8
RACCORDO
100
AcDbSpline
 62
253
  6
CONTINUOUS
 70
0
 71
3
 72
11
 73
7
 74
5
 42
0.0000001
 43
0.0000001
 44
0.0000000001
 12
0.0071499768
 22
0.2844401679
 32
0.0
 13
0.2465873461
 23
0.1419577825
 33
0.0
 40
0.0
 40
0.0
 40
0.0
 40
0.0
 40
0.2507679519
 40
0.5174627016
 40
0.7746916747
 40
1.0
 40
1.0
 40
1.0
 40
1.0
 10
-4.1764323404
 20
9.7174099384
 30
0.0
 10
-4.1758346788
 20
9.7411860979
 30
0.0
 10
-4.1673967076
 20
9.7901425778
 30
0.0
 10
-4.1392884287
 20
9.8585909529
 30
0.0
 10
-4.0987548168
 20
9.9175789276
 30
0.0
 10
-4.0636250143
 20
9.9482628485
 30
0.0
 10
-4.0451056203
 20
9.958924272
 30
0.0
 11
-4.1764323404
 21
9.7174099384
 31
0.0
 11
-4.1652287459
 21
9.7878758599
 31
0.0
 11
-4.1365262014
 21
9.8581207339
 31
0.0
 11
-4.0944634314
 21
9.9180156956
 31
0.0
 11
-4.0451056203
 21
9.958924272
 31
0.0
  0
SPLINE
  5
5D9
100
AcDbEntity
  8
RACCORDO
100
AcDbSpline
 62
253
  6
CONTINUOUS
 70
0
 71
3
 72
9
 73
5
 74
3
 42
0.0000001
 43
0.0000001
 44
0.0000000001
 12
0.0057384472
 22
0.196119754
 32
0.0
 13
0.1318038207
 23
0.1453397418
 33
0.0
 40
0.0
 40
0.0
 40
0.0
 40
0.0
 40
0.4874514583
 40
1.0
 40
1.0
 40
1.0
 40
1.0
 10
-15.9445732431
 20
15.6014835156
 30
0.0
 10
-15.9436408382
 20
15.6333498023
 30
0.0
 10
-15.9272242863
 20
15.6983858225
 30
0.0
 10
-15.891564524
 20
15.7546662197
 30
0.0
 10
-15.8690459053
 20
15.779497444
 30
0.0
 11
-15.9445732431
 21
15.6014835156
 31
0.0
 11
-15.9230639353
 21
15.6946731939
 31
0.0
 11
-15.8690459053
 21
15.779497444
 31
0.0
  0
SPLINE
  5
5DA
100
AcDbEntity
  8
RACCORDO
100
AcDbSpline
 62
253
  6
CONTINUOUS
 70
0
 71
3
 72
9
 73
5
 74
3
 42
0.0000001
 43
0.0000001
 44
0.0000000001
 12
0.0424511228
 22
0.0468107464
 32
0.0
 13
0.052978084
 23
0.0344480249
 33
0.0
 40
0.0
 40
0.0
 40
0.0
 40
0.0
 40
0.2587827645
 40
1.0
 40
1.0
 40
1.0
 40
1.0
 10
-15.8690459053
 20
15.779497444
 30
0.0
 10
-15.8653840323
 20
15.7835353821
 30
0.0
 10
-15.8507865785
 20
15.7987216041
 30
0.0
 10
-15.8343316425
 20
15.8121693162
 30
0.0
 10
-15.8212422195
 20
15.8206804728
 30
0.0
 11
-15.8690459053
 21
15.779497444
 31
0.0
 11
-15.8577045006
 21
15.7912788217
 31
0.0
 11
-15.8212422195
 21
15.8206804728
 31
0.0
  0
SPLINE
  5
5DB
100
AcDbEntity
  8
RACCORDO
100
AcDbSpline
 62
253
  6
CONTINUOUS
 70
0
 71
3
 72
11
 73
7
 74
5
 42
0.0000001
 43
0.0000001
 44
0.0000000001
 12
0.2597890049
 22
-0.1483504593
 32
0.0
 13
0.272972974
 23
0.1224089102
 33
0.0
 40
0.0
 40
0.0
 40
0.0
 40
0.0
 40
0.2309008094
 40
0.4961601714
 40
0.7634940608
 40
1.0
 40
1.0
 40
1.0
 40
1.0
 10
-16.8363724054
 20
17.3594995988
 30
0.0
 10
-16.8163772416
 20
17.3480815184
 30
0.0
 10
-16.7690850599
 20
17.3312417808
 30
0.0
 10
-16.6932351942
 20
17.3211303676
 30
0.0
 10
-16.6162498198
 20
17.325163256
 30
0.0
 10
-16.5670054773
 20
17.3380639842
 30
0.0
 10
-16.5454855675
 20
17.347714129
 30
0.0
 11
-16.8363724054
 21
17.3594995988
 31
0.0
 11
-16.771927015
 21
17.3346318711
 31
0.0
 11
-16.6933418889
 21
17.32360025
 31
0.0
 11
-16.6134987583
 21
17.328213047
 31
0.0
 11
-16.5454855675
 21
17.347714129
 31
0.0
  0
SPLINE
  5
5DC
100
AcDbEntity
  8
RACCORDO
100
AcDbSpline
 62
253
  6
CONTINUOUS
 70
0
 71
3
 72
11
 73
7
 74
5
 42
0.0000001
 43
0.0000001
 44
0.0000000001
 12
0.2596583991
 22
-0.1463306026
 32
0.0
 13
0.2730517838
 23
0.1194899695
 33
0.0
 40
0.0
 40
0.0
 40
0.0
 40
0.0
 40
0.2316154934
 40
0.497149145
 40
0.7642210089
 40
1.0
 40
1.0
 40
1.0
 40
1.0
 10
-16.7170191201
 20
21.0349619928
 30
0.0
 10
-16.6969721507
 20
21.0236645145
 30
0.0
 10
-16.6497657235
 20
21.0069359273
 30
0.0
 10
-16.5741627759
 20
20.9966581349
 30
0.0
 10
-16.4975271295
 20
21.0002579804
 30
0.0
 10
-16.4484727904
 20
21.0126928226
 30
0.0
 10
-16.4270128324
 20
21.0220838974
 30
0.0
 11
-16.7170191201
 21
21.0349619928
 31
0.0
 11
-16.6525575903
 21
21.0102569902
 31
0.0
 11
-16.57420799
 21
20.9990794185
 31
0.0
 11
-16.4947158367
 21
21.0032477097
 31
0.0
 11
-16.4270128324
 21
21.0220838974
 31
0.0
  0
SPLINE
  5
5DD
100
AcDbEntity
  8
RACCORDO
100
AcDbSpline
 62
253
  6
CONTINUOUS
 70
0
 71
3
 72
11
 73
7
 74
5
 42
0.0000001
 43
0.0000001
 44
0.0000000001
 12
0.2608400918
 22
-0.1328570274
 32
0.0
 13
0.0128955347
 23
-0.2924418718
 33
0.0
 40
0.0
 40
0.0
 40
0.0
 40
0.0
 40
0.2305001887
 40
0.4905791889
 40
0.755789634
 40
1.0
 40
1.0
 40
1.0
 40
1.0
 10
-15.8983048726
 20
22.4217669871
 30
0.0
 10
-15.8782636425
 20
22.4115591305
 30
0.0
 10
-15.8398147
 20
22.3815681441
 30
0.0
 10
-15.7943772446
 20
22.322776706
 30
0.0
 10
-15.7621538913
 20
22.2543358942
 30
0.0
 10
-15.7517713389
 20
22.2049807228
 30
0.0
 10
-15.7507215978
 20
22.1811749439
 30
0.0
 11
-15.8983048726
 21
22.4217669871
 31
0.0
 11
-15.8441100105
 21
22.3815727326
 31
0.0
 11
-15.7970349394
 21
22.3217395994
 31
0.0
 11
-15.7642422961
 21
22.2513714131
 31
0.0
 11
-15.7507215978
 21
22.1811749439
 31
0.0
  0
SPLINE
  5
5DE
100
AcDbEntity
  8
RACCORDO
100
AcDbSpline
 62
253
  6
CONTINUOUS
 70
0
 71
3
 72
9
 73
5
 74
3
 42
0.0000001
 43
0.0000001
 44
0.0000000001
 12
-0.1563240799
 22
0.4364159546
 32
0.0
 13
-0.0477794738
 23
0.4611000166
 33
0.0
 40
0.0
 40
0.0
 40
0.0
 40
0.0
 40
0.2550460481
 40
1.0
 40
1.0
 40
1.0
 40
1.0
 10
-16.4332812961
 20
16.6819129176
 30
0.0
 10
-16.4465712423
 20
16.7190149724
 30
0.0
 10
-16.4944682037
 20
16.8659377673
 30
0.0
 10
-16.5257297349
 20
17.0184661827
 30
0.0
 10
-16.5375942375
 20
17.1329656092
 30
0.0
 11
-16.4332812961
 21
16.6819129176
 31
0.0
 11
-16.4699209942
 21
16.794323766
 31
0.0
 11
-16.5375942375
 21
17.1329656092
 31
0.0
  0
SPLINE
  5
5DF
100
AcDbEntity
  8
RACCORDO
100
AcDbSpline
 62
7
  6
CONTINUOUS
 70
0
 71
3
 72
14
 73
10
 74
8
 42
0.0000001
 43
0.0000001
 44
0.0000000001
 12
0.0022559054
 22
0.1366770796
 32
0.0
 13
0.1115823943
 23
0.0789625385
 33
0.0
 40
0.0
 40
0.0
 40
0.0
 40
0.0
 40
0.035164705
 40
0.1005260455
 40
0.1940104609
 40
0.3129084996
 40
0.4547788967
 40
0.6176676407
 40
1.0
 40
1.0
 40
1.0
 40
1.0
 10
-4.4207951901
 20
4.5859206558
 30
0.0
 10
-4.4207687474
 20
4.5875227255
 30
0.0
 10
-4.4177446992
 20
4.5915125805
 30
0.0
 10
-4.4119210121
 20
4.5977955913
 30
0.0
 10
-4.4023751555
 20
4.606319624
 30
0.0
 10
-4.389991613
 20
4.6165941053
 30
0.0
 10
-4.3747811083
 20
4.6285134974
 30
0.0
 10
-4.3497895756
 20
4.6473588703
 30
0.0
 10
-4.3296209979
 20
4.6618758615
 30
0.0
 10
-4.3154004778
 20
4.6719391727
 30
0.0
 11
-4.4207951901
 21
4.5859206558
 31
0.0
 11
-4.4186538792
 21
4.5902242272
 31
0.0
 11
-4.4126481503
 21
4.5968392515
 31
0.0
 11
-4.4032244285
 21
4.6054702533
 31
0.0
 11
-4.3907433646
 21
4.6158807375
 31
0.0
 11
-4.3755046821
 21
4.6278754789
 31
0.0
 11
-4.3577412785
 21
4.6413010037
 31
0.0
 11
-4.3154004778
 21
4.6719391727
 31
0.0
  0
SPLINE
  5
5E0
100
AcDbEntity
  8
RACCORDO
100
AcDbSpline
 62
253
  6
CONTINUOUS
 70
0
 71
3
 72
10
 73
6
 74
4
 42
0.0000001
 43
0.0000001
 44
0.0000000001
 12
-0.5389717159
 22
-0.2800486191
 32
0.0
 13
-0.5570329769
 23
0.2421404598
 33
0.0
 40
0.0
 40
0.0
 40
0.0
 40
0.0
 40
0.2334634669
 40
0.4746084861
 40
1.0
 40
1.0
 40
1.0
 40
1.0
 10
-3.455191163
 20
9.95246088
 30
0.0
 10
-3.4971345648
 20
9.9306671729
 30
0.0
 10
-3.588599697
 20
9.8973254121
 30
0.0
 10
-3.7916506606
 20
9.8769265466
 30
0.0
 10
-3.9475837692
 20
9.9165316793
 30
0.0
 10
-4.0451372355
 20
9.9589378602
 30
0.0
 11
-3.455191163
 21
9.95246088
 31
0.0
 11
-3.5883061065
 21
9.9035901993
 31
0.0
 11
-3.7339625521
 21
9.8881919548
 31
0.0
 11
-4.0451372355
 21
9.9589378602
 31
0.0
  0
LINE
  5
5E1
100
AcDbEntity
  8
RACCORDO
100
AcDbLine
 62
253
  6
CONTINUOUS
 10
-5.6954293205
 20
-10.7853942445
 11
-5.8203155397
 21
-10.7286932194
  0
LINE
  5
5E2
100
AcDbEntity
  8
RACCORDO
100
AcDbLine
 62
253
  6
CONTINUOUS
 10
-5.8203155397
 20
-10.7286932194
 11
-5.9278875587
 21
-10.6797308162
  0
LINE
  5
5E3
100
AcDbEntity
  8
RACCORDO
100
AcDbLine
 62
253
  6
CONTINUOUS
 10
-5.9278875587
 20
-10.6797308162
 11
-6.0391413784
 21
-10.6289730474
  0
LINE
  5
5E4
100
AcDbEntity
  8
RACCORDO
100
AcDbLine
 62
253
  6
CONTINUOUS
 10
-11.3952825606
 20
-8.0329689874
 11
-11.4102608929
 21
-8.0252655961
  0
SPLINE
  5
5E5
100
AcDbEntity
  8
RACCORDO
100
AcDbSpline
 62
253
  6
CONTINUOUS
 70
0
 71
3
 72
13
 73
9
 74
7
 42
0.0000001
 43
0.0000001
 44
0.0000000001
 12
-1.78615777
 22
1.0088542944
 32
0.0
 13
0.0590123051
 23
2.0505277649
 33
0.0
 40
0.0
 40
0.0
 40
0.0
 40
0.0
 40
0.1074805319
 40
0.2249827748
 40
0.3507460376
 40
0.4821880874
 40
0.749049205
 40
1.0
 40
1.0
 40
1.0
 40
1.0
 10
-15.9445767486
 20
15.6014820998
 30
0.0
 10
-16.0085691443
 20
15.6376261652
 30
0.0
 10
-16.1347432223
 20
15.7274182376
 30
0.0
 10
-16.3055077353
 20
15.896966711
 30
0.0
 10
-16.461113473
 20
16.1014927521
 30
0.0
 10
-16.6414295979
 20
16.4120464332
 30
0.0
 10
-16.7966663661
 20
16.8319694398
 30
0.0
 10
-16.8413088004
 20
17.1879724079
 30
0.0
 10
-16.8363724054
 20
17.3594995988
 30
0.0
 11
-15.9445767486
 21
15.6014820998
 31
0.0
 11
-16.1253255149
 21
15.7277463666
 31
0.0
 11
-16.2974226991
 21
15.8965169232
 31
0.0
 11
-16.4543768236
 21
16.1012682963
 31
0.0
 11
-16.5902825331
 21
16.3341498947
 31
0.0
 11
-16.7794439774
 21
16.847862363
 31
0.0
 11
-16.8363724054
 21
17.3594995988
 31
0.0
  0
SPLINE
  5
5E6
100
AcDbEntity
  8
RACCORDO
100
AcDbSpline
 62
253
  6
CONTINUOUS
 70
0
 71
3
 72
9
 73
5
 74
3
 42
0.0000001
 43
0.0000001
 44
0.0000000001
 12
-0.0085948779
 22
-0.3061137427
 32
0.0
 13
-0.0843143947
 23
-0.2943986723
 33
0.0
 40
0.0
 40
0.0
 40
0.0
 40
0.0
 40
0.2595836181
 40
1.0
 40
1.0
 40
1.0
 40
1.0
 10
-3.0877549397
 20
10.4851908659
 30
0.0
 10
-3.0884986362
 20
10.4587034949
 30
0.0
 10
-3.0942239159
 20
10.356790483
 30
0.0
 10
-3.1117409469
 20
10.2553511008
 30
0.0
 10
-3.1325501999
 20
10.1826919008
 30
0.0
 11
-3.0877549397
 21
10.4851908659
 31
0.0
 11
-3.0922655851
 21
10.4058255131
 31
0.0
 11
-3.1325501999
 21
10.1826919008
 31
0.0
  0
SPLINE
  5
5E7
100
AcDbEntity
  8
RACCORDO
100
AcDbSpline
 62
253
  6
CONTINUOUS
 70
0
 71
3
 72
13
 73
9
 74
7
 42
0.0000001
 43
0.0000001
 44
0.0000000001
 12
-0.3623249431
 22
-1.2651218397
 32
0.0
 13
-1.2033969155
 23
0.5325866102
 33
0.0
 40
0.0
 40
0.0
 40
0.0
 40
0.0
 40
0.2580407758
 40
0.3775441486
 40
0.4942226161
 40
0.6118066412
 40
0.7338269276
 40
1.0
 40
1.0
 40
1.0
 40
1.0
 10
-3.1325501999
 20
10.1826919008
 30
0.0
 10
-3.1637150697
 20
10.0738742272
 30
0.0
 10
-3.2370203932
 20
9.9187439927
 30
0.0
 10
-3.391696887
 20
9.7643594458
 30
0.0
 10
-3.5259755593
 20
9.6833966109
 30
0.0
 10
-3.6770260598
 20
9.6375455138
 30
0.0
 10
-3.9001084622
 20
9.6240154344
 30
0.0
 10
-4.0696617642
 20
9.6701565119
 30
0.0
 10
-4.1764323823
 20
9.7174099167
 30
0.0
 11
-3.1325501999
 21
10.1826919008
 31
0.0
 11
-3.2848723104
 21
9.8791943035
 31
0.0
 11
-3.3966080585
 21
9.7685270725
 31
0.0
 11
-3.5282116836
 21
9.6894249306
 31
0.0
 11
-3.6761323256
 21
9.6439988342
 31
0.0
 11
-3.8363625739
 21
9.6334565495
 31
0.0
 11
-4.1764323823
 21
9.7174099167
 31
0.0
  0
SPLINE
  5
5E8
100
AcDbEntity
  8
ASSI
100
AcDbSpline
 62
253
  6
CONTINUOUS
 70
0
 71
3
 72
11
 73
7
 74
5
 42
0.0000001
 43
0.0000001
 44
0.0000000001
 12
0.1170568738
 22
0.0540149533
 32
0.0
 13
0.0018556626
 23
0.1289049394
 33
0.0
 40
0.0
 40
0.0
 40
0.0
 40
0.0
 40
0.2158499043
 40
0.4486494297
 40
0.7095450212
 40
1.0
 40
1.0
 40
1.0
 40
1.0
 10
1.8787233647
 20
-23.1789718929
 30
0.0
 10
1.887145603
 20
-23.1750855187
 30
0.0
 10
1.903198986
 20
-23.1635139891
 30
0.0
 10
1.9206207991
 20
-23.1379030345
 30
0.0
 10
1.9312230924
 20
-23.1055642128
 30
0.0
 10
1.9336218449
 20
-23.0818195142
 30
0.0
 10
1.9338015071
 20
-23.0693391537
 30
0.0
 11
1.8787233647
 21
-23.1789718929
 31
0.0
 11
1.9014264928
 21
-23.1628812124
 31
0.0
 11
1.9187198164
 21
-23.138352287
 31
0.0
 11
1.9296913456
 21
-23.1065578541
 31
0.0
 11
1.9338015071
 21
-23.0693391537
 31
0.0
  0
SPLINE
  5
5E9
100
AcDbEntity
  8
ASSI
100
AcDbSpline
 62
253
  6
CONTINUOUS
 70
0
 71
3
 72
9
 73
5
 74
3
 42
0.0000001
 43
0.0000001
 44
0.0000000001
 12
14.3287805632
 22
-8.1717632373
 32
0.0
 13
15.1063384393
 23
-6.6249683615
 33
0.0
 40
0.0
 40
0.0
 40
0.0
 40
0.0
 40
0.4897616058
 40
1.0
 40
1.0
 40
1.0
 40
1.0
 10
-17.18636719
 20
-14.8574498094
 30
0.0
 10
-14.8471383307
 20
-16.1915217712
 30
0.0
 10
-9.9910168109
 20
-18.7770804057
 30
0.0
 10
-5.0069553391
 20
-21.1050236382
 30
0.0
 10
-2.4376773833
 20
-22.231794711
 30
0.0
 11
-17.18636719
 21
-14.8574498094
 31
0.0
 11
-10.059766084
 21
-18.6623431818
 31
0.0
 11
-2.4376773833
 21
-22.231794711
 31
0.0
  0
SPLINE
  5
5EA
100
AcDbEntity
  8
ASSI
100
AcDbSpline
 62
253
  6
CONTINUOUS
 70
0
 71
3
 72
11
 73
7
 74
5
 42
0.0000001
 43
0.0000001
 44
0.0000000001
 12
0.0247849598
 22
-0.7266480306
 32
0.0
 13
0.6647499586
 23
-0.2945151052
 33
0.0
 40
0.0
 40
0.0
 40
0.0
 40
0.0
 40
0.2898984922
 40
0.549128838
 40
0.7820011107
 40
1.0
 40
1.0
 40
1.0
 40
1.0
 10
-2.4376773843
 20
-22.2317947162
 30
0.0
 10
-2.4352823434
 20
-22.3020127723
 30
0.0
 10
-2.4193714196
 20
-22.4351578797
 30
0.0
 10
-2.3553596595
 20
-22.6155880601
 30
0.0
 10
-2.2535939612
 20
-22.7577437476
 30
0.0
 10
-2.1612604447
 20
-22.8212422239
 30
0.0
 10
-2.1129555271
 20
-22.8426435458
 30
0.0
 11
-2.4376773843
 21
-22.2317947162
 31
0.0
 11
-2.4103895921
 21
-22.4407975417
 31
0.0
 11
-2.3448099168
 21
-22.6174994096
 31
0.0
 11
-2.2440680776
 21
-22.7535821408
 31
0.0
 11
-2.1129555271
 21
-22.8426435458
 31
0.0
  0
SPLINE
  5
5EB
100
AcDbEntity
  8
RACCORDO
100
AcDbSpline
 62
253
  6
CONTINUOUS
 70
0
 71
3
 72
11
 73
7
 74
5
 42
0.0000001
 43
0.0000001
 44
0.0000000001
 12
0.0610139157
 22
1.66901704
 32
0.0
 13
1.4660519035
 23
0.800020246
 33
0.0
 40
0.0
 40
0.0
 40
0.0
 40
0.0
 40
0.2467357886
 40
0.5094759382
 40
0.7670665121
 40
1.0
 40
1.0
 40
1.0
 40
1.0
 10
-16.7170294357
 20
21.0349579711
 30
0.0
 10
-16.7120113301
 20
21.1722267163
 30
0.0
 10
-16.658193006
 20
21.4546402706
 30
0.0
 10
-16.4821675643
 20
21.8473707199
 30
0.0
 10
-16.2286941789
 20
22.1856703644
 30
0.0
 10
-16.0121357337
 20
22.3596498183
 30
0.0
 10
-15.8983048726
 20
22.4217669871
 30
0.0
 11
-16.7170294357
 21
21.0349579711
 31
0.0
 11
-16.6450851876
 21
21.4407103997
 31
0.0
 11
-16.4667873145
 21
21.8416651408
 31
0.0
 11
-16.2061959638
 21
22.1839705525
 31
0.0
 11
-15.8983048726
 21
22.4217669871
 31
0.0
  0
SPLINE
  5
5EC
100
AcDbEntity
  8
ASSI
100
AcDbSpline
 62
253
  6
CONTINUOUS
 70
0
 71
3
 72
11
 73
7
 74
5
 42
0.0000001
 43
0.0000001
 44
0.0000000001
 12
0.0602916195
 22
1.669898392
 32
0.0
 13
1.4636706792
 23
0.8061413412
 33
0.0
 40
0.0
 40
0.0
 40
0.0
 40
0.0
 40
0.246820322
 40
0.5097239768
 40
0.767335803
 40
1.0
 40
1.0
 40
1.0
 40
1.0
 10
-17.1863671992
 20
21.3030380784
 30
0.0
 10
-17.1814068002
 20
21.4404263647
 30
0.0
 10
-17.1277800601
 20
21.7231387664
 30
0.0
 10
-16.9524048147
 20
22.1165289769
 30
0.0
 10
-16.6998846843
 20
22.4557087339
 30
0.0
 10
-16.4840210536
 20
22.6305281703
 30
0.0
 10
-16.3705064659
 20
22.6930482462
 30
0.0
 11
-17.1863671992
 21
21.3030380784
 31
0.0
 11
-17.1147306079
 21
21.7092024782
 31
0.0
 11
-16.9370240359
 21
22.110963955
 31
0.0
 11
-16.6773051975
 21
22.4542524506
 31
0.0
 11
-16.3705064659
 21
22.6930482462
 31
0.0
  0
SPLINE
  5
5ED
100
AcDbEntity
  8
RACCORDO
100
AcDbSpline
 62
253
  6
CONTINUOUS
 70
0
 71
3
 72
9
 73
5
 74
3
 42
0.0000001
 43
0.0000001
 44
0.0000000001
 12
-0.1210089528
 22
-0.0706178339
 32
0.0
 13
-0.1114709766
 23
-0.0848779506
 33
0.0
 40
0.0
 40
0.0
 40
0.0
 40
0.0
 40
0.2436912278
 40
1.0
 40
1.0
 40
1.0
 40
1.0
 10
-2.1828493852
 20
15.5640392561
 30
0.0
 10
-2.192678992
 20
15.5583029406
 30
0.0
 10
-2.2326230431
 20
15.5340947415
 30
0.0
 10
-2.2710020388
 20
15.5073292042
 30
0.0
 10
-2.299104198
 20
15.4859312247
 30
0.0
 11
-2.1828493852
 21
15.5640392561
 31
0.0
 11
-2.2120540802
 21
15.5463524205
 31
0.0
 11
-2.299104198
 21
15.4859312247
 31
0.0
  0
SPLINE
  5
5EE
100
AcDbEntity
  8
RACCORDO
100
AcDbSpline
 62
253
  6
CONTINUOUS
 70
0
 71
3
 72
11
 73
7
 74
5
 42
0.0000001
 43
0.0000001
 44
0.0000000001
 12
-1.2138249373
 22
-0.9242493085
 32
0.0
 13
-0.0524611503
 23
-1.5247477137
 33
0.0
 40
0.0
 40
0.0
 40
0.0
 40
0.0
 40
0.2385354141
 40
0.4963468503
 40
0.7561078447
 40
1.0
 40
1.0
 40
1.0
 40
1.0
 10
-2.299104198
 20
15.4859312247
 30
0.0
 10
-2.3956176093
 20
15.4124424942
 30
0.0
 10
-2.5750309006
 20
15.2307784926
 30
0.0
 10
-2.7829771498
 20
14.9045450954
 30
0.0
 10
-2.9249631254
 20
14.5417458038
 30
0.0
 10
-2.967953251
 20
14.2865103706
 30
0.0
 10
-2.9722182053
 20
14.1625523685
 30
0.0
 11
-2.299104198
 21
15.4859312247
 31
0.0
 11
-2.5581534754
 21
15.2303292673
 31
0.0
 11
-2.7710683938
 21
14.8996092503
 31
0.0
 11
-2.9143764245
 21
14.5301231962
 31
0.0
 11
-2.9722182053
 21
14.1625523685
 31
0.0
  0
SPLINE
  5
5EF
100
AcDbEntity
  8
ASSI
100
AcDbSpline
 62
253
  6
CONTINUOUS
 70
0
 71
3
 72
11
 73
7
 74
5
 42
0.0000001
 43
0.0000001
 44
0.0000000001
 12
-1.4432343864
 22
-0.8343278229
 32
0.0
 13
-0.0547811855
 23
-1.6661414801
 33
0.0
 40
0.0
 40
0.0
 40
0.0
 40
0.0
 40
0.23096881
 40
0.4883736669
 40
0.7520846433
 40
1.0
 40
1.0
 40
1.0
 40
1.0
 10
-1.644530666
 20
15.3300603638
 30
0.0
 10
-1.7556447089
 20
15.2658257956
 30
0.0
 10
-1.9662848362
 20
15.0874601297
 30
0.0
 10
-2.2115313551
 20
14.7451638091
 30
0.0
 10
-2.3815204889
 20
14.3496551963
 30
0.0
 10
-2.4331503337
 20
14.0663805341
 30
0.0
 10
-2.4376773661
 20
13.928693181
 30
0.0
 11
-1.644530666
 21
15.3300603638
 31
0.0
 11
-1.9433891713
 21
15.0872944552
 31
0.0
 11
-2.196118958
 21
14.7405114341
 31
0.0
 11
-2.3686831713
 21
14.3361787784
 31
0.0
 11
-2.4376773661
 21
13.928693181
 31
0.0
  0
SPLINE
  5
5F0
100
AcDbEntity
  8
ASSI
100
AcDbSpline
 62
253
  6
CONTINUOUS
 70
0
 71
3
 72
11
 73
7
 74
5
 42
0.0000001
 43
0.0000001
 44
0.0000000001
 12
-0.1405017971
 22
0.0708328134
 32
0.0
 13
0.000000552
 23
0.1573468857
 33
0.0
 40
0.0
 40
0.0
 40
0.0
 40
0.0
 40
0.2175095698
 40
0.4509435265
 40
0.710649105
 40
1.0
 40
1.0
 40
1.0
 40
1.0
 10
1.6830303203
 20
-23.1770815208
 30
0.0
 10
1.6728434919
 20
-23.1719459159
 30
0.0
 10
1.6535790236
 20
-23.1572280995
 30
0.0
 10
1.632928157
 20
-23.125522163
 30
0.0
 10
1.620557819
 20
-23.0859704971
 30
0.0
 10
1.6181037609
 20
-23.0570633027
 30
0.0
 10
1.6181038141
 20
-23.0418871486
 30
0.0
 11
1.6830303203
 21
-23.1770815208
 31
0.0
 11
1.6556925736
 21
-23.1564912122
 31
0.0
 11
1.635155725
 21
-23.1260389783
 31
0.0
 11
1.6224194228
 21
-23.0872106126
 31
0.0
 11
1.6181038141
 21
-23.0418871486
 31
0.0
  0
SPLINE
  5
5F1
100
AcDbEntity
  8
ASSI
100
AcDbSpline
 62
7
  6
CONTINUOUS
 70
0
 71
3
 72
9
 73
5
 74
3
 42
0.0000001
 43
0.0000001
 44
0.0000000001
 12
0.0541105048
 22
0.0291612789
 32
0.0
 13
0.0231339744
 23
0.0569486273
 33
0.0
 40
0.0
 40
0.0
 40
0.0
 40
0.0
 40
0.4784340984
 40
1.0
 40
1.0
 40
1.0
 40
1.0
 10
3.5058042576
 20
-22.4273747716
 30
0.0
 10
3.5144336945
 20
-22.4227241882
 30
0.0
 10
3.5305876902
 20
-22.4092213545
 30
0.0
 10
3.5409179133
 20
-22.3910860457
 30
0.0
 10
3.5449398774
 20
-22.381185225
 30
0.0
 11
3.5058042576
 21
-22.4273747716
 31
0.0
 11
3.5285578824
 21
-22.4087433863
 31
0.0
 11
3.5449398774
 21
-22.381185225
 31
0.0
  0
SPLINE
  5
5F2
100
AcDbEntity
  8
ASSI
100
AcDbSpline
 62
7
  6
CONTINUOUS
 70
0
 71
3
 72
9
 73
5
 74
3
 42
0.0000001
 43
0.0000001
 44
0.0000000001
 12
0.0233562658
 22
0.0574958395
 32
0.0
 13
0.0
 23
0.062058736
 33
0.0
 40
0.0
 40
0.0
 40
0.0
 40
0.0
 40
0.2332872417
 40
1.0
 40
1.0
 40
1.0
 40
1.0
 10
3.5449398774
 20
-22.381185225
 30
0.0
 10
3.546756117
 20
-22.3767142097
 30
0.0
 10
3.5533724379
 20
-22.3570760225
 30
0.0
 10
3.5557016337
 20
-22.3361523355
 30
0.0
 10
3.5557016337
 20
-22.3202919273
 30
0.0
 11
3.5449398774
 21
-22.381185225
 31
0.0
 11
3.5496098056
 21
-22.367481572
 31
0.0
 11
3.5557016337
 21
-22.3202919273
 31
0.0
  0
LINE
  5
5F3
100
AcDbEntity
  8
RACCORDO
100
AcDbLine
 62
253
  6
CONTINUOUS
 10
-4.3142573749
 20
4.6714355886
 11
-4.3159598837
 21
4.5714539712
  0
LINE
  5
5F4
100
AcDbEntity
  8
RACCORDO
100
AcDbLine
 62
253
  6
CONTINUOUS
 10
-4.3159598837
 20
4.5714539712
 11
-4.3285277551
 21
3.7922664027
  0
LINE
  5
5F5
100
AcDbEntity
  8
RACCORDO
100
AcDbLine
 62
253
  6
CONTINUOUS
 10
-4.3285277551
 20
3.7922664027
 11
-4.3324369265
 21
3.5328044667
  0
LINE
  5
5F6
100
AcDbEntity
  8
RACCORDO
100
AcDbLine
 62
253
  6
CONTINUOUS
 10
-15.3545114819
 20
10.1480432155
 11
-15.3510605774
 21
10.1461125566
  0
LINE
  5
5F7
100
AcDbEntity
  8
RACCORDO
100
AcDbLine
 62
253
  6
CONTINUOUS
 10
-6.4861621646
 20
5.6486384503
 11
-6.4622651093
 21
5.6376437921
  0
SPLINE
  5
5F8
100
AcDbEntity
  8
ASSI
100
AcDbSpline
 62
7
  6
CONTINUOUS
 70
0
 71
3
 72
11
 73
7
 74
5
 42
0.0000001
 43
0.0000001
 44
0.0000000001
 12
0.6527085383
 22
-0.3343495956
 32
0.0
 13
0.0
 23
-0.7333608171
 33
0.0
 40
0.0
 40
0.0
 40
0.0
 40
0.0
 40
0.2291665379
 40
0.4879399238
 40
0.7531104567
 40
1.0
 40
1.0
 40
1.0
 40
1.0
 10
3.5557042954
 20
18.1231220336
 30
0.0
 10
3.6055639474
 20
18.0975814539
 30
0.0
 10
3.7009470808
 20
18.0220597601
 30
0.0
 10
3.8117283524
 20
17.8731296877
 30
0.0
 10
3.8880717117
 20
17.6991479262
 30
0.0
 10
3.9092550243
 20
17.5737504012
 30
0.0
 10
3.9092550243
 20
17.5133973621
 30
0.0
 11
3.5557042954
 21
18.1231220336
 31
0.0
 11
3.6899520006
 21
18.0220166003
 31
0.0
 11
3.8046451606
 21
17.8708221908
 31
0.0
 11
3.8819629265
 21
17.6923877119
 31
0.0
 11
3.9092550243
 21
17.5133973621
 31
0.0
  0
LINE
  5
5F9
100
AcDbEntity
  8
RACCORDO
100
AcDbLine
 62
253
  6
CONTINUOUS
 10
-15.6239909047
 20
-4.3333710123
 11
-15.6286254474
 21
-3.9943791834
  0
LINE
  5
5FA
100
AcDbEntity
  8
RACCORDO
100
AcDbLine
 62
253
  6
CONTINUOUS
 10
-15.6238419684
 20
8.8705312692
 11
-15.6220621119
 21
8.997663289
  0
SPLINE
  5
5FB
100
AcDbEntity
  8
ASSI
100
AcDbSpline
 62
253
  6
CONTINUOUS
 70
0
 71
3
 72
11
 73
7
 74
5
 42
0.0000001
 43
0.0000001
 44
0.0000000001
 12
-0.0144699929
 22
-0.3366195737
 32
0.0
 13
-0.3114700468
 23
-0.128485517
 33
0.0
 40
0.0
 40
0.0
 40
0.0
 40
0.0
 40
0.2901782888
 40
0.5506982161
 40
0.7836829758
 40
1.0
 40
1.0
 40
1.0
 40
1.0
 10
-1.2818498404
 20
-22.5569737063
 30
0.0
 10
-1.2832494663
 20
-22.5895336036
 30
0.0
 10
-1.29132946
 20
-22.6513302813
 30
0.0
 10
-1.3219482428
 20
-22.7348036703
 30
0.0
 10
-1.3699050819
 20
-22.800090679
 30
0.0
 10
-1.4131271297
 20
-22.8286756465
 30
0.0
 10
-1.4355858876
 20
-22.8379401814
 30
0.0
 11
-1.2818498404
 21
-22.5569737063
 31
0.0
 11
-1.2954951591
 21
-22.6537867119
 31
0.0
 11
-1.3269424182
 21
-22.7357372327
 31
0.0
 11
-1.3744908649
 21
-22.7981979506
 31
0.0
 11
-1.4355858876
 21
-22.8379401814
 31
0.0
  0
SPLINE
  5
5FC
100
AcDbEntity
  8
ASSI
100
AcDbSpline
 62
253
  6
CONTINUOUS
 70
0
 71
3
 72
11
 73
7
 74
5
 42
0.0000001
 43
0.0000001
 44
0.0000000001
 12
-0.6117604196
 22
-0.3217466587
 32
0.0
 13
-0.6343967757
 23
0.2744311467
 33
0.0
 40
0.0
 40
0.0
 40
0.0
 40
0.0
 40
0.237445402
 40
0.4997939078
 40
0.7622524585
 40
1.0
 40
1.0
 40
1.0
 40
1.0
 10
-1.7647459707
 20
-22.2065124544
 30
0.0
 10
-1.8131658703
 20
-22.2319782093
 30
0.0
 10
-1.9232234147
 20
-22.2702408787
 30
0.0
 10
-2.0983039955
 20
-22.2931830009
 30
0.0
 10
-2.2746818338
 20
-22.2834283057
 30
0.0
 10
-2.3873935996
 20
-22.2535379891
 30
0.0
 10
-2.4376690242
 20
-22.2317895456
 30
0.0
 11
-1.7647459707
 21
-22.2065124544
 31
0.0
 11
-1.9188093092
 21
-22.2630934571
 31
0.0
 11
-2.0984898909
 21
-22.2875548144
 31
0.0
 11
-2.2795755925
 21
-22.2766446998
 31
0.0
 11
-2.4376690242
 21
-22.2317895456
 31
0.0
  0
SPLINE
  5
5FD
100
AcDbEntity
  8
ASSI
100
AcDbSpline
 62
253
  6
CONTINUOUS
 70
0
 71
3
 72
11
 73
7
 74
5
 42
0.0000001
 43
0.0000001
 44
0.0000000001
 12
-0.633294201
 22
-0.2678909028
 32
0.0
 13
-0.6289738261
 23
0.2778830812
 33
0.0
 40
0.0
 40
0.0
 40
0.0
 40
0.0
 40
0.2326601324
 40
0.4946330439
 40
0.7594589108
 40
1.0
 40
1.0
 40
1.0
 40
1.0
 10
-1.7647459612
 20
13.9168367037
 30
0.0
 10
-1.8138600654
 20
13.8960608594
 30
0.0
 10
-1.9247886892
 20
13.8673080863
 30
0.0
 10
-2.0992368682
 20
13.8558520207
 30
0.0
 10
-2.2749697329
 20
13.8738028365
 30
0.0
 10
-2.3872460169
 20
13.9064125072
 30
0.0
 10
-2.4376773666
 20
13.9286932735
 30
0.0
 11
-1.7647459612
 21
13.9168367037
 31
0.0
 11
-1.9188097833
 21
13.873722702
 31
0.0
 11
-2.0984923118
 21
13.8609078675
 31
0.0
 11
-2.279581012
 21
13.8800792329
 31
0.0
 11
-2.4376773666
 21
13.9286932735
 31
0.0
  0
SPLINE
  5
5FE
100
AcDbEntity
  8
ASSI
100
AcDbSpline
 62
253
  6
CONTINUOUS
 70
0
 71
3
 72
11
 73
7
 74
5
 42
0.0000001
 43
0.0000001
 44
0.0000000001
 12
-0.0326907254
 22
0.7294715688
 32
0.0
 13
-0.6455789781
 23
0.3412114246
 33
0.0
 40
0.0
 40
0.0
 40
0.0
 40
0.0
 40
0.2449319447
 40
0.5106975777
 40
0.7706500547
 40
1.0
 40
1.0
 40
1.0
 40
1.0
 10
-1.2818498233
 20
14.7255492754
 30
0.0
 10
-1.2845188243
 20
14.7851062387
 30
0.0
 10
-1.3101352659
 20
14.9085256504
 30
0.0
 10
-1.389290143
 20
15.0800700442
 30
0.0
 10
-1.5006885865
 20
15.2279091904
 30
0.0
 10
-1.5951761635
 20
15.3039747573
 30
0.0
 10
-1.6445306646
 20
15.3300603645
 30
0.0
 11
-1.2818498233
 21
14.7255492754
 31
0.0
 11
-1.3152635532
 21
14.9012505038
 31
0.0
 11
-1.3959092205
 21
15.0777632338
 31
0.0
 11
-1.5114973019
 21
15.2283300566
 31
0.0
 11
-1.6445306646
 21
15.3300603645
 31
0.0
  0
SPLINE
  5
5FF
100
AcDbEntity
  8
RACCORDO
100
AcDbSpline
 62
253
  6
CONTINUOUS
 70
0
 71
3
 72
9
 73
5
 74
3
 42
0.0000001
 43
0.0000001
 44
0.0000000001
 12
-9.4906584423
 22
4.2782115271
 32
0.0
 13
-9.1041009268
 23
5.0488650065
 33
0.0
 40
0.0
 40
0.0
 40
0.0
 40
0.0
 40
0.2558095504
 40
1.0
 40
1.0
 40
1.0
 40
1.0
 10
-5.58907782
 20
-11.3003620482
 30
0.0
 10
-6.398344843
 20
-10.9355595924
 30
0.0
 10
-9.5479909124
 20
-9.4789658718
 30
0.0
 10
-12.6405235991
 20
-7.8978807047
 30
0.0
 10
-14.8989185864
 20
-6.645441665
 30
0.0
 11
-5.58907782
 21
-11.3003620482
 31
0.0
 11
-8.0060265173
 21
-10.1821918861
 31
0.0
 11
-14.8989185864
 21
-6.645441665
 31
0.0
  0
SPLINE
  5
600
100
AcDbEntity
  8
ASSI
100
AcDbSpline
 62
253
  6
CONTINUOUS
 70
0
 71
3
 72
15
 73
11
 74
9
 42
0.0000001
 43
0.0000001
 44
0.0000000001
 12
0.0267333508
 22
-0.7242687755
 32
0.0
 13
0.6701640539
 23
0.2759711436
 33
0.0
 40
0.0
 40
0.0
 40
0.0
 40
0.0
 40
0.1457269165
 40
0.2792753725
 40
0.4018041859
 40
0.5165831376
 40
0.628599918
 40
0.743537831
 40
0.8663203531
 40
1.0
 40
1.0
 40
1.0
 40
1.0
 10
-1.7647459706
 20
-22.2065124544
 30
0.0
 10
-1.763447381
 20
-22.2416942729
 30
0.0
 10
-1.7557888757
 20
-22.3091201232
 30
0.0
 10
-1.7267528948
 20
-22.4024450707
 30
0.0
 10
-1.6811708323
 20
-22.4806340963
 30
0.0
 10
-1.6201309143
 20
-22.5405477716
 30
0.0
 10
-1.5457970391
 20
-22.5792250612
 30
0.0
 10
-1.4616441469
 20
-22.5949920738
 30
0.0
 10
-1.3713388024
 20
-22.5878483799
 30
0.0
 10
-1.3117122718
 20
-22.569270948
 30
0.0
 10
-1.2818498404
 20
-22.5569737063
 30
0.0
 11
-1.7647459706
 21
-22.2065124544
 31
0.0
 11
-1.7520451433
 21
-22.3113633445
 31
0.0
 11
-1.7224291716
 21
-22.4035119291
 31
0.0
 11
-1.6769394737
 21
-22.4797803885
 31
0.0
 11
-1.6171630674
 21
-22.5376330305
 31
0.0
 11
-1.5451554364
 21
-22.5751295252
 31
0.0
 11
-1.4633910469
 21
-22.5910641643
 31
0.0
 11
-1.3746145763
 21
-22.5849305732
 31
0.0
 11
-1.2818498404
 21
-22.5569737063
 31
0.0
  0
SPLINE
  5
601
100
AcDbEntity
  8
ASSI
100
AcDbSpline
 62
253
  6
CONTINUOUS
 70
0
 71
3
 72
9
 73
5
 74
3
 42
0.0000001
 43
0.0000001
 44
0.0000000001
 12
0.0806759489
 22
0.0369150306
 32
0.0
 13
0.0787986616
 23
-0.0407688501
 33
0.0
 40
0.0
 40
0.0
 40
0.0
 40
0.0
 40
0.4651560211
 40
1.0
 40
1.0
 40
1.0
 40
1.0
 10
-10.8369409238
 20
27.6243086694
 30
0.0
 10
-10.824431956
 20
27.630032419
 30
0.0
 10
-10.7936053441
 20
27.634350378
 30
0.0
 10
-10.7648845775
 20
27.6243233351
 30
0.0
 10
-10.7508362476
 20
27.6170550105
 30
0.0
 11
-10.8369409238
 21
27.6243086694
 31
0.0
 11
-10.7962092297
 21
27.6309456384
 31
0.0
 11
-10.7508362476
 21
27.6170550105
 31
0.0
  0
LINE
  5
602
100
AcDbEntity
  8
ASSI
100
AcDbLine
 62
253
  6
CONTINUOUS
 10
-2.0651149781
 20
-9.3567925084
 11
-2.0607778272
 21
-9.7661043735
  0
SPLINE
  5
603
100
AcDbEntity
  8
ASSI
100
AcDbSpline
 62
253
  6
CONTINUOUS
 70
0
 71
3
 72
11
 73
7
 74
5
 42
0.0000001
 43
0.0000001
 44
0.0000000001
 12
-0.8610578597
 22
-0.4625328674
 32
0.0
 13
-0.034834436
 23
-0.9768028733
 33
0.0
 40
0.0
 40
0.0
 40
0.0
 40
0.0
 40
0.2334199064
 40
0.4910057105
 40
0.7535333017
 40
1.0
 40
1.0
 40
1.0
 40
1.0
 10
-1.2818498233
 20
14.7255492754
 30
0.0
 10
-1.3488458384
 20
14.6895611492
 30
0.0
 10
-1.4764668682
 20
14.5886047496
 30
0.0
 10
-1.6261828401
 20
14.3914997275
 30
0.0
 10
-1.7301900359
 20
14.1622334444
 30
0.0
 10
-1.7618841183
 20
13.9970864968
 30
0.0
 10
-1.7647459612
 20
13.9168367037
 30
0.0
 11
-1.2818498233
 21
14.7255492754
 31
0.0
 11
-1.4633910297
 21
14.5873635609
 31
0.0
 11
-1.6171630496
 21
14.3880082281
 31
0.0
 11
-1.7224291526
 21
14.153993324
 31
0.0
 11
-1.7647459612
 21
13.9168367037
 31
0.0
  0
SPLINE
  5
604
100
AcDbEntity
  8
ASSI
100
AcDbSpline
 62
253
  6
CONTINUOUS
 70
0
 71
3
 72
11
 73
7
 74
5
 42
0.0000001
 43
0.0000001
 44
0.0000000001
 12
0.0000416906
 22
-0.0962250162
 32
0.0
 13
0.0860662791
 23
-0.0430331394
 33
0.0
 40
0.0
 40
0.0
 40
0.0
 40
0.0
 40
0.2064739749
 40
0.4345185654
 40
0.698103973
 40
1.0
 40
1.0
 40
1.0
 40
1.0
 10
-13.0914767911
 20
26.2884378864
 30
0.0
 10
-13.0914739218
 20
26.2818152325
 30
0.0
 10
-13.0885299463
 20
26.2677768605
 30
0.0
 10
-13.0763143232
 20
26.2485903155
 30
0.0
 10
-13.0572284116
 20
26.2314208332
 30
0.0
 10
-13.0415592363
 20
26.2220861167
 30
0.0
 10
-13.0328982137
 20
26.2177556055
 30
0.0
 11
-13.0914767911
 21
26.2884378864
 31
0.0
 11
-13.0876240346
 21
26.2689470619
 31
0.0
 11
-13.0762429754
 21
26.2501855877
 31
0.0
 11
-13.0577004957
 21
26.2328799755
 31
0.0
 11
-13.0328982137
 21
26.2177556055
 31
0.0
  0
SPLINE
  5
605
100
AcDbEntity
  8
ASSI
100
AcDbSpline
 62
253
  6
CONTINUOUS
 70
0
 71
3
 72
9
 73
5
 74
3
 42
0.0000001
 43
0.0000001
 44
0.0000000001
 12
0.0838255924
 22
0.0449468966
 32
0.0
 13
0.0856656421
 23
-0.0413322058
 33
0.0
 40
0.0
 40
0.0
 40
0.0
 40
0.0
 40
0.4626917864
 40
1.0
 40
1.0
 40
1.0
 40
1.0
 10
-12.9521671109
 20
26.5255222512
 30
0.0
 10
-12.9392386399
 20
26.5324544378
 30
0.0
 10
-12.9062909148
 20
26.5386642119
 30
0.0
 10
-12.8751560076
 20
26.5287806306
 30
0.0
 10
-12.8598130565
 20
26.5213779194
 30
0.0
 11
-12.9521671109
 21
26.5255222512
 31
0.0
 11
-12.909137451
 21
26.5347555359
 31
0.0
 11
-12.8598130565
 21
26.5213779194
 31
0.0
  0
SPLINE
  5
606
100
AcDbEntity
  8
ASSI
100
AcDbSpline
 62
253
  6
CONTINUOUS
 70
0
 71
3
 72
9
 73
5
 74
3
 42
0.0000001
 43
0.0000001
 44
0.0000000001
 12
0.0000039989
 22
-0.0361471944
 32
0.0
 13
0.0353695387
 23
-0.0074575741
 33
0.0
 40
0.0
 40
0.0
 40
0.0
 40
0.0
 40
0.5509787862
 40
1.0
 40
1.0
 40
1.0
 40
1.0
 10
1.8984568444
 20
18.5737624892
 30
0.0
 10
1.8984575788
 20
18.5671237102
 30
0.0
 10
1.9004098049
 20
18.5544072682
 30
0.0
 10
1.9111491878
 20
18.5460632446
 30
0.0
 10
1.9164430788
 20
18.5449470416
 30
0.0
 11
1.8984568444
 21
18.5737624892
 31
0.0
 11
1.9032764333
 21
18.554438099
 31
0.0
 11
1.9164430788
 21
18.5449470416
 31
0.0
  0
SPLINE
  5
607
100
AcDbEntity
  8
ASSI
100
AcDbSpline
 62
253
  6
CONTINUOUS
 70
0
 71
3
 72
15
 73
11
 74
9
 42
0.0000001
 43
0.0000001
 44
0.0000000001
 12
0.7243265149
 22
0.3527323816
 32
0.0
 13
0.0001228057
 23
-0.8056481975
 33
0.0
 40
0.0
 40
0.0
 40
0.0
 40
0.0
 40
0.1338353339
 40
0.2551617679
 40
0.3675969175
 40
0.4771736623
 40
0.5907586865
 40
0.7140078628
 40
0.8501922091
 40
1.0
 40
1.0
 40
1.0
 40
1.0
 10
0.9299283858
 20
26.1499709372
 30
0.0
 10
0.9622418795
 20
26.1657069559
 30
0.0
 10
1.0268658443
 20
26.1902217789
 30
0.0
 10
1.1258751406
 20
26.2028393665
 30
0.0
 10
1.2183545292
 20
26.1878823163
 30
0.0
 10
1.299528785
 20
26.1451330999
 30
0.0
 10
1.3649491137
 20
26.077010339
 30
0.0
 10
1.4123246061
 20
25.9875443992
 30
0.0
 10
1.4407232224
 20
25.8806067536
 30
0.0
 10
1.4464494544
 20
25.8035925507
 30
0.0
 10
1.4464555868
 20
25.7633617584
 30
0.0
 11
0.9299283858
 21
26.1499709372
 31
0.0
 11
1.0311623938
 21
26.1870887636
 31
0.0
 11
1.1282706615
 21
26.1982398957
 31
0.0
 11
1.2175600828
 21
26.1829850227
 31
0.0
 11
1.2957061042
 21
26.1419166395
 31
0.0
 11
1.3597549529
 21
26.0765580396
 31
0.0
 11
1.4073084423
 21
25.9893900548
 31
0.0
 11
1.4365762092
 21
25.8836491145
 31
0.0
 11
1.4464555868
 21
25.7633617584
 31
0.0
  0
SPLINE
  5
608
100
AcDbEntity
  8
ASSI
100
AcDbSpline
 62
253
  6
CONTINUOUS
 70
0
 71
3
 72
9
 73
5
 74
3
 42
0.0000001
 43
0.0000001
 44
0.0000000001
 12
-0.0644809999
 22
-0.0324882589
 32
0.0
 13
0.0000008781
 23
-0.0722030907
 33
0.0
 40
0.0
 40
0.0
 40
0.0
 40
0.0
 40
0.490186815
 40
1.0
 40
1.0
 40
1.0
 40
1.0
 10
1.9338015071
 20
18.9513919368
 30
0.0
 10
1.9232655951
 20
18.9460834981
 30
0.0
 10
1.9061987717
 20
18.9272006352
 30
0.0
 10
1.8984566952
 20
18.9033013188
 30
0.0
 10
1.8984568444
 20
18.8910312896
 30
0.0
 11
1.9338015071
 21
18.9513919368
 31
0.0
 11
1.9087743107
 21
18.9263658682
 31
0.0
 11
1.8984568444
 21
18.8910312896
 31
0.0
  0
SPLINE
  5
609
100
AcDbEntity
  8
ASSI
100
AcDbSpline
 62
253
  6
CONTINUOUS
 70
0
 71
3
 72
9
 73
5
 74
3
 42
0.0000001
 43
0.0000001
 44
0.0000000001
 12
-0.000000754
 22
0.2513982113
 32
0.0
 13
0.1608506199
 23
0.1932049138
 33
0.0
 40
0.0
 40
0.0
 40
0.0
 40
0.0
 40
0.4867531172
 40
1.0
 40
1.0
 40
1.0
 40
1.0
 10
1.6181038144
 20
-22.7246169195
 30
0.0
 10
1.618103692
 20
-22.6838272985
 30
0.0
 10
1.6366503667
 20
-22.5999931993
 30
0.0
 10
1.6792820335
 20
-22.5261323968
 30
0.0
 10
1.7068007266
 20
-22.4930784568
 30
0.0
 11
1.6181038144
 21
-22.7246169195
 31
0.0
 11
1.6418654188
 21
-22.6045772394
 31
0.0
 11
1.7068007266
 21
-22.4930784568
 31
0.0
  0
SPLINE
  5
60A
100
AcDbEntity
  8
ASSI
100
AcDbSpline
 62
7
  6
CONTINUOUS
 70
0
 71
3
 72
9
 73
5
 74
3
 42
0.0000001
 43
0.0000001
 44
0.0000000001
 12
0.2324688511
 22
0.1684806076
 32
0.0
 13
0.2481081076
 23
0.1444640054
 33
0.0
 40
0.0
 40
0.0
 40
0.0
 40
0.0
 40
0.4392426407
 40
1.0
 40
1.0
 40
1.0
 40
1.0
 10
0.6826352958
 20
-22.2568840891
 30
0.0
 10
0.7166720398
 20
-22.2322161334
 30
0.0
 10
0.7962094568
 20
-22.1789065468
 30
0.0
 10
0.8777406033
 20
-22.1287395544
 30
0.0
 10
0.9241167524
 20
-22.1017364697
 30
0.0
 11
0.6826352958
 21
-22.2568840891
 31
0.0
 11
0.7869291484
 21
-22.1859907598
 31
0.0
 11
0.9241167524
 21
-22.1017364697
 31
0.0
  0
SPLINE
  5
60B
100
AcDbEntity
  8
ASSI
100
AcDbSpline
 62
253
  6
CONTINUOUS
 70
0
 71
3
 72
11
 73
7
 74
5
 42
0.0000001
 43
0.0000001
 44
0.0000000001
 12
0.0000057678
 22
-0.1576423069
 32
0.0
 13
0.1409405807
 23
-0.0706176301
 33
0.0
 40
0.0
 40
0.0
 40
0.0
 40
0.0
 40
0.2890071824
 40
0.5489866381
 40
0.7822674779
 40
1.0
 40
1.0
 40
1.0
 40
1.0
 10
1.6181038062
 20
18.5750031397
 30
0.0
 10
1.6181043618
 20
18.5598165534
 30
0.0
 10
1.6205977642
 20
18.5308641389
 30
0.0
 10
1.6329527452
 20
18.4912392302
 30
0.0
 10
1.6537023779
 20
18.4594755793
 30
0.0
 10
1.6730641447
 20
18.4448030654
 30
0.0
 10
1.6832932607
 20
18.4396778138
 30
0.0
 11
1.6181038062
 21
18.5750031397
 31
0.0
 11
1.6224415268
 21
18.5296503469
 31
0.0
 11
1.6352092216
 21
18.4907060963
 31
0.0
 11
1.655814687
 21
18.4602461184
 31
0.0
 11
1.6832932607
 21
18.4396778138
 31
0.0
  0
SPLINE
  5
60C
100
AcDbEntity
  8
ASSI
100
AcDbSpline
 62
253
  6
CONTINUOUS
 70
0
 71
3
 72
10
 73
6
 74
4
 42
0.0000001
 43
0.0000001
 44
0.0000000001
 12
-0.0484779294
 22
-0.0223900683
 32
0.0
 13
0.0000002129
 23
0.0533987341
 33
0.0
 40
0.0
 40
0.0
 40
0.0
 40
0.0
 40
0.2604027024
 40
0.4870741077
 40
1.0
 40
1.0
 40
1.0
 40
1.0
 10
1.9338015071
 20
-23.0693391537
 30
0.0
 10
1.9295935791
 20
-23.0712826318
 30
0.0
 10
1.9208721408
 20
-23.0737288621
 30
0.0
 10
1.902717032
 20
-23.0678629311
 30
0.0
 10
1.898456808
 20
-23.052240315
 30
0.0
 10
1.8984568444
 20
-23.0431104505
 30
0.0
 11
1.9338015071
 21
-23.0693391537
 31
0.0
 11
1.9202334438
 21
-23.0723824316
 31
0.0
 11
1.9087750898
 21
-23.0684821599
 31
0.0
 11
1.8984568444
 21
-23.0431104505
 31
0.0
  0
SPLINE
  5
60D
100
AcDbEntity
  8
ASSI
100
AcDbSpline
 62
7
  6
CONTINUOUS
 70
0
 71
3
 72
9
 73
5
 74
3
 42
0.0000001
 43
0.0000001
 44
0.0000000001
 12
-0.0575564483
 22
-0.0314343965
 32
0.0
 13
-0.0627838176
 23
-0.0189488328
 33
0.0
 40
0.0
 40
0.0
 40
0.0
 40
0.0
 40
0.2377321415
 40
1.0
 40
1.0
 40
1.0
 40
1.0
 10
2.653250883
 20
17.6303519886
 30
0.0
 10
2.6486898771
 20
17.6278609998
 30
0.0
 10
2.6291801527
 20
17.6179773714
 30
0.0
 10
2.6085714897
 20
17.6103537984
 30
0.0
 10
2.5926187943
 20
17.605539103
 30
0.0
 11
2.653250883
 21
17.6303519886
 31
0.0
 11
2.6393515918
 21
17.6232894181
 31
0.0
 11
2.5926187943
 21
17.605539103
 31
0.0
  0
SPLINE
  5
60E
100
AcDbEntity
  8
ASSI
100
AcDbSpline
 62
253
  6
CONTINUOUS
 70
0
 71
3
 72
9
 73
5
 74
3
 42
0.0000001
 43
0.0000001
 44
0.0000000001
 12
-0.0000005547
 22
0.0501152867
 32
0.0
 13
0.032435887
 23
0.0382028166
 33
0.0
 40
0.0
 40
0.0
 40
0.0
 40
0.0
 40
0.2366659259
 40
1.0
 40
1.0
 40
1.0
 40
1.0
 10
1.8984568444
 20
-22.7258416501
 30
0.0
 10
1.8984568007
 20
-22.7218881232
 30
0.0
 10
1.9003395527
 20
-22.7052192247
 30
0.0
 10
1.9081899396
 20
-22.6893776017
 30
0.0
 10
1.9164430788
 20
-22.6796570978
 30
0.0
 11
1.8984568444
 21
-22.7258416501
 31
0.0
 11
1.8996822189
 21
-22.7140445389
 31
0.0
 11
1.9164430788
 21
-22.6796570978
 31
0.0
  0
LINE
  5
60F
100
AcDbEntity
  8
RACCORDO
100
AcDbLine
 62
253
  6
CONTINUOUS
 10
-4.0451362326
 20
9.9589383806
 11
-4.0539461792
 21
9.9628363438
  0
SPLINE
  5
610
100
AcDbEntity
  8
RACCORDO
100
AcDbSpline
 62
253
  6
CONTINUOUS
 70
0
 71
3
 72
11
 73
7
 74
5
 42
0.0000001
 43
0.0000001
 44
0.0000000001
 12
0.0499220832
 22
1.3900563531
 32
0.0
 13
1.2160901148
 23
0.6751842058
 33
0.0
 40
0.0
 40
0.0
 40
0.0
 40
0.0
 40
0.247105507
 40
0.5101365913
 40
0.7676577427
 40
1.0
 40
1.0
 40
1.0
 40
1.0
 10
-16.4270128321
 20
21.0220838973
 30
0.0
 10
-16.4229008249
 20
21.1365807573
 30
0.0
 10
-16.3785139369
 20
21.3721231603
 30
0.0
 10
-16.2332055993
 20
21.7000316514
 30
0.0
 10
-16.0239372724
 20
21.9828733183
 30
0.0
 10
-15.8449046386
 20
22.1288836698
 30
0.0
 10
-15.7507215978
 20
22.1811749439
 30
0.0
 11
-16.4270128321
 21
21.0220838973
 31
0.0
 11
-16.3676573733
 21
21.3606320998
 31
0.0
 11
-16.2203785409
 21
21.6955428736
 31
0.0
 11
-16.0050900099
 21
21.9818257185
 31
0.0
 11
-15.7507215978
 21
22.1811749439
 31
0.0
  0
LINE
  5
611
100
AcDbEntity
  8
RACCORDO
100
AcDbLine
 62
253
  6
CONTINUOUS
 10
-16.4316947134
 20
20.8907454307
 11
-16.4270128321
 21
21.0220838973
  0
SPLINE
  5
612
100
AcDbEntity
  8
ASSI
100
AcDbSpline
 62
7
  6
CONTINUOUS
 70
0
 71
3
 72
9
 73
5
 74
3
 42
0.0000001
 43
0.0000001
 44
0.0000000001
 12
-0.0534480206
 22
0.0921841994
 32
0.0
 13
-0.0363432192
 23
0.1001687972
 33
0.0
 40
0.0
 40
0.0
 40
0.0
 40
0.0
 40
0.2514970587
 40
1.0
 40
1.0
 40
1.0
 40
1.0
 10
0.4890710097
 20
-22.160101946
 30
0.0
 10
0.4845903364
 20
-22.1523739277
 30
0.0
 10
0.4674314639
 20
-22.1212715388
 30
0.0
 10
0.4529348507
 20
-22.0886844775
 30
0.0
 10
0.4438671819
 20
-22.0636922644
 30
0.0
 11
0.4890710097
 21
-22.160101946
 31
0.0
 11
0.4761279144
 21
-22.1366357024
 31
0.0
 11
0.4438671819
 21
-22.0636922644
 31
0.0
  0
SPLINE
  5
613
100
AcDbEntity
  8
ASSI
100
AcDbSpline
 62
253
  6
CONTINUOUS
 70
0
 71
3
 72
11
 73
7
 74
5
 42
0.0000001
 43
0.0000001
 44
0.0000000001
 12
-0.0000010333
 22
-0.1572110393
 32
0.0
 13
0.1406188274
 23
-0.070296915
 33
0.0
 40
0.0
 40
0.0
 40
0.0
 40
0.0
 40
0.2900356228
 40
0.5500138918
 40
0.7831798501
 40
1.0
 40
1.0
 40
1.0
 40
1.0
 10
-0.4463975086
 20
19.6072364525
 30
0.0
 10
-0.4463976085
 20
19.5920375186
 30
0.0
 10
-0.4439551507
 20
19.5631059407
 30
0.0
 10
-0.4316338137
 20
19.5235391435
 30
0.0
 10
-0.4110466193
 20
19.4918700514
 30
0.0
 10
-0.391814489
 20
19.4772122527
 30
0.0
 10
-0.3816514905
 20
19.4721316569
 30
0.0
 11
-0.4463975086
 21
19.6072364525
 31
0.0
 11
-0.4420946859
 21
19.5618431265
 31
0.0
 11
-0.4293939264
 21
19.522995135
 31
0.0
 11
-0.4089123665
 21
19.492594686
 31
0.0
 11
-0.3816514905
 21
19.4721316569
 31
0.0
  0
SPLINE
  5
614
100
AcDbEntity
  8
ASSI
100
AcDbSpline
 62
253
  6
CONTINUOUS
 70
0
 71
3
 72
11
 73
7
 74
5
 42
0.0000001
 43
0.0000001
 44
0.0000000001
 12
-0.3230275233
 22
-0.167266237
 32
0.0
 13
0.0000028942
 23
-0.3637647246
 33
0.0
 40
0.0
 40
0.0
 40
0.0
 40
0.0
 40
0.2309135441
 40
0.4895532553
 40
0.753895527
 40
1.0
 40
1.0
 40
1.0
 40
1.0
 10
1.79240169
 20
19.1952705461
 30
0.0
 10
1.7675378799
 20
19.1823958663
 30
0.0
 10
1.7201640146
 20
19.1446995216
 30
0.0
 10
1.665458059
 20
19.0704900311
 30
0.0
 10
1.6283280368
 20
18.9840978097
 30
0.0
 10
1.6181035767
 20
18.9220959668
 30
0.0
 10
1.6181038141
 20
18.8922545915
 30
0.0
 11
1.79240169
 21
19.1952705461
 31
0.0
 11
1.7254834429
 21
19.1445000222
 31
0.0
 11
1.6689783147
 21
19.0692738952
 31
0.0
 11
1.6313144731
 21
18.9807986348
 31
0.0
 11
1.6181038141
 21
18.8922545915
 31
0.0
  0
SPLINE
  5
615
100
AcDbEntity
  8
ASSI
100
AcDbSpline
 62
253
  6
CONTINUOUS
 70
0
 71
3
 72
9
 73
5
 74
3
 42
0.0000001
 43
0.0000001
 44
0.0000000001
 12
-0.1162774439
 22
-0.0610413491
 32
0.0
 13
-0.0780154687
 23
-0.1056412651
 33
0.0
 40
0.0
 40
0.0
 40
0.0
 40
0.0
 40
0.2303291093
 40
1.0
 40
1.0
 40
1.0
 40
1.0
 10
-0.2733123514
 20
20.2281275668
 30
0.0
 10
-0.2822397114
 20
20.2234410336
 30
0.0
 10
-0.3195017479
 20
20.2002547135
 30
0.0
 10
-0.3504774967
 20
20.1678502174
 30
0.0
 10
-0.3704929084
 20
20.1407472153
 30
0.0
 11
-0.2733123514
 21
20.2281275668
 31
0.0
 11
-0.2990712778
 21
20.2122710267
 31
0.0
 11
-0.3704929084
 21
20.1407472153
 31
0.0
  0
SPLINE
  5
616
100
AcDbEntity
  8
ASSI
100
AcDbSpline
 62
253
  6
CONTINUOUS
 70
0
 71
3
 72
9
 73
5
 74
3
 42
0.0000001
 43
0.0000001
 44
0.0000000001
 12
-0.137751897
 22
-0.1865307599
 32
0.0
 13
0.0000021084
 23
-0.2318821026
 33
0.0
 40
0.0
 40
0.0
 40
0.0
 40
0.0
 40
0.515081084
 40
1.0
 40
1.0
 40
1.0
 40
1.0
 10
-0.3704929084
 20
20.1407472153
 30
0.0
 10
-0.3941440406
 20
20.1087210599
 30
0.0
 10
-0.4307038228
 20
20.0393422611
 30
0.0
 10
-0.4463978494
 20
19.9619865922
 30
0.0
 10
-0.4463975086
 20
19.9245052529
 30
0.0
 11
-0.3704929084
 21
20.1407472153
 31
0.0
 11
-0.4262706823
 21
20.0351333145
 31
0.0
 11
-0.4463975086
 21
19.9245052529
 31
0.0
  0
SPLINE
  5
617
100
AcDbEntity
  8
ASSI
100
AcDbSpline
 62
253
  6
CONTINUOUS
 70
0
 71
3
 72
11
 73
7
 74
5
 42
0.0000001
 43
0.0000001
 44
0.0000000001
 12
-0.0000019047
 22
0.3637622627
 32
0.0
 13
0.3230249779
 23
0.1672657987
 33
0.0
 40
0.0
 40
0.0
 40
0.0
 40
0.0
 40
0.2460275742
 40
0.5103566058
 40
0.7690195998
 40
1.0
 40
1.0
 40
1.0
 40
1.0
 10
-10.9683968905
 20
25.1855074435
 30
0.0
 10
-10.9683970467
 20
25.2153392926
 30
0.0
 10
-10.95817655
 20
25.2773295782
 30
0.0
 10
-10.9210564574
 20
25.3637164491
 30
0.0
 10
-10.8663509111
 20
25.4379371332
 30
0.0
 10
-10.818969828
 20
25.475642525
 30
0.0
 10
-10.7940990151
 20
25.4885208987
 30
0.0
 11
-10.9683968905
 21
25.1855074435
 31
0.0
 11
-10.9551933462
 21
25.2740236532
 31
0.0
 11
-10.9175382986
 21
25.3624967151
 31
0.0
 11
-10.8610342126
 21
25.4377334206
 31
0.0
 11
-10.7940990151
 21
25.4885208987
 31
0.0
  0
SPLINE
  5
618
100
AcDbEntity
  8
ASSI
100
AcDbSpline
 62
253
  6
CONTINUOUS
 70
0
 71
3
 72
9
 73
5
 74
3
 42
0.0000001
 43
0.0000001
 44
0.0000000001
 12
-0.0000017219
 22
0.2280050728
 32
0.0
 13
0.133548538
 23
0.1848001656
 33
0.0
 40
0.0
 40
0.0
 40
0.0
 40
0.0
 40
0.4844999455
 40
1.0
 40
1.0
 40
1.0
 40
1.0
 10
-13.0328982137
 20
26.2177556054
 30
0.0
 10
-13.0328984918
 20
26.2545784206
 30
0.0
 10
-13.0177216008
 20
26.3306464031
 30
0.0
 10
-12.9822560686
 20
26.3990747673
 30
0.0
 10
-12.9593079757
 20
26.4308295992
 30
0.0
 11
-13.0328982137
 21
26.2177556054
 31
0.0
 11
-13.0134295264
 21
26.3264949619
 31
0.0
 11
-12.9593079757
 21
26.4308295992
 31
0.0
  0
SPLINE
  5
619
100
AcDbEntity
  8
ASSI
100
AcDbSpline
 62
253
  6
CONTINUOUS
 70
0
 71
3
 72
9
 73
5
 74
3
 42
0.0000001
 43
0.0000001
 44
0.0000000001
 12
0.0791590502
 22
0.1095377441
 32
0.0
 13
0.119659222
 23
0.0628199268
 33
0.0
 40
0.0
 40
0.0
 40
0.0
 40
0.0
 40
0.2690660329
 40
1.0
 40
1.0
 40
1.0
 40
1.0
 10
-12.9593079757
 20
26.4308295992
 30
0.0
 10
-12.9522083052
 20
26.4406538946
 30
0.0
 10
-12.9241528837
 20
26.4758318174
 30
0.0
 10
-12.8889673865
 20
26.5060721799
 30
0.0
 10
-12.8598130565
 20
26.5213779194
 30
0.0
 11
-12.9593079757
 21
26.4308295992
 31
0.0
 11
-12.9365945905
 21
26.4592268006
 31
0.0
 11
-12.8598130565
 21
26.5213779194
 31
0.0
  0
SPLINE
  5
61A
100
AcDbEntity
  8
ASSI
100
AcDbSpline
 62
253
  6
CONTINUOUS
 70
0
 71
3
 72
9
 73
5
 74
3
 42
0.0000001
 43
0.0000001
 44
0.0000000001
 12
-0.1004409607
 22
0.0510855561
 32
0.0
 13
-0.1020102299
 23
-0.0478751879
 33
0.0
 40
0.0
 40
0.0
 40
0.0
 40
0.0
 40
0.5343970039
 40
1.0
 40
1.0
 40
1.0
 40
1.0
 10
5.5328556076
 20
24.0665232329
 30
0.0
 10
5.5149638248
 20
24.0756232223
 30
0.0
 10
5.4783685087
 20
24.0880633557
 30
0.0
 10
5.4392657663
 20
24.0821880518
 30
0.0
 10
5.4234336767
 20
24.0747577749
 30
0.0
 11
5.5328556076
 21
24.0665232329
 31
0.0
 11
5.475134899
 21
24.0836886369
 31
0.0
 11
5.4234336767
 21
24.0747577749
 31
0.0
  0
SPLINE
  5
61B
100
AcDbEntity
  8
ASSI
100
AcDbSpline
 62
253
  6
CONTINUOUS
 70
0
 71
3
 72
11
 73
7
 74
5
 42
0.0000001
 43
0.0000001
 44
0.0000000001
 12
0.329880605
 22
-0.1621482398
 32
0.0
 13
-0.0051550514
 23
-0.3675414135
 33
0.0
 40
0.0
 40
0.0
 40
0.0
 40
0.0
 40
0.2298231387
 40
0.4878750929
 40
0.7525806787
 40
1.0
 40
1.0
 40
1.0
 40
1.0
 10
0.7547009523
 20
26.4556005606
 30
0.0
 10
0.779972351
 20
26.4431787548
 30
0.0
 10
0.8282362316
 20
26.4057627506
 30
0.0
 10
0.8835934481
 20
26.3309639269
 30
0.0
 10
0.9207136835
 20
26.2432953404
 30
0.0
 10
0.9303535389
 20
26.1802832195
 30
0.0
 10
0.9299283858
 20
26.1499709372
 30
0.0
 11
0.7547009523
 21
26.4556005606
 31
0.0
 11
0.8226970018
 21
26.4054703211
 31
0.0
 11
0.8798736429
 21
26.3297858866
 31
0.0
 11
0.9175279031
 21
26.2400673577
 31
0.0
 11
0.9299283858
 21
26.1499709372
 31
0.0
  0
SPLINE
  5
61C
100
AcDbEntity
  8
ASSI
100
AcDbSpline
 62
253
  6
CONTINUOUS
 70
0
 71
3
 72
9
 73
5
 74
3
 42
0.0000001
 43
0.0000001
 44
0.0000000001
 12
0.1003362716
 22
0.0483682212
 32
0.0
 13
0.0996520263
 23
-0.0497626956
 33
0.0
 40
0.0
 40
0.0
 40
0.0
 40
0.0
 40
0.5350743832
 40
1.0
 40
1.0
 40
1.0
 40
1.0
 10
-8.6480923989
 20
26.5656850727
 30
0.0
 10
-8.6301966094
 20
26.5743119381
 30
0.0
 10
-8.5937799273
 20
26.5858748971
 30
0.0
 10
-8.5552467537
 20
26.5792002739
 30
0.0
 10
-8.5398031604
 20
26.5714882899
 30
0.0
 11
-8.6480923989
 21
26.5656850727
 31
0.0
 11
-8.5906193807
 21
26.5814645208
 31
0.0
 11
-8.5398031604
 21
26.5714882899
 31
0.0
  0
SPLINE
  5
61D
100
AcDbEntity
  8
ASSI
100
AcDbSpline
 62
253
  6
CONTINUOUS
 70
0
 71
3
 72
9
 73
5
 74
3
 42
0.0000001
 43
0.0000001
 44
0.0000000001
 12
0.0975513207
 22
0.0463587883
 32
0.0
 13
0.0986942575
 23
-0.0438730096
 33
0.0
 40
0.0
 40
0.0
 40
0.0
 40
0.0
 40
0.5340871274
 40
1.0
 40
1.0
 40
1.0
 40
1.0
 10
-10.7508362477
 20
27.6170550105
 30
0.0
 10
-10.7334692794
 20
27.6253082211
 30
0.0
 10
-10.6982599075
 20
27.6364366652
 30
0.0
 10
-10.6609379329
 20
27.6310971238
 30
0.0
 10
-10.6456102913
 20
27.6242834572
 30
0.0
 11
-10.7508362477
 21
27.6170550105
 31
0.0
 11
-10.6952569169
 21
27.6324978612
 31
0.0
 11
-10.6456102913
 21
27.6242834572
 31
0.0
  0
SPLINE
  5
61E
100
AcDbEntity
  8
ASSI
100
AcDbSpline
 62
253
  6
CONTINUOUS
 70
0
 71
3
 72
11
 73
7
 74
5
 42
0.0000001
 43
0.0000001
 44
0.0000000001
 12
-0.0857674306
 22
-0.2202857061
 32
0.0
 13
-0.2312514524
 23
0.0490368253
 33
0.0
 40
0.0
 40
0.0
 40
0.0
 40
0.0
 40
0.2783621613
 40
0.5385359768
 40
0.776655476
 40
1.0
 40
1.0
 40
1.0
 40
1.0
 10
1.9164430788
 20
18.5449470416
 30
0.0
 10
1.908484943
 20
18.5245073065
 30
0.0
 10
1.8878394543
 20
18.4867175547
 30
0.0
 10
1.8436661647
 20
18.4429611767
 30
0.0
 10
1.7909593762
 20
18.4182727081
 30
0.0
 10
1.7532303785
 20
18.417609857
 30
0.0
 10
1.7360141299
 20
18.4212605592
 30
0.0
 11
1.9164430788
 21
18.5449470416
 31
0.0
 11
1.8844746158
 21
18.4874313947
 31
0.0
 11
1.8402163553
 21
18.4447245852
 31
0.0
 11
1.7888086048
 21
18.4217943904
 31
0.0
 11
1.7360141299
 21
18.4212605592
 31
0.0
  0
SPLINE
  5
61F
100
AcDbEntity
  8
ASSI
100
AcDbSpline
 62
7
  6
CONTINUOUS
 70
0
 71
3
 72
10
 73
6
 74
4
 42
0.0000001
 43
0.0000001
 44
0.0000000001
 12
-0.2127160259
 22
-0.219357282
 32
0.0
 13
-0.2988271656
 23
0.0637812663
 33
0.0
 40
0.0
 40
0.0
 40
0.0
 40
0.0
 40
0.2482934291
 40
0.5043635743
 40
1.0
 40
1.0
 40
1.0
 40
1.0
 10
2.653250883
 20
18.3886468646
 30
0.0
 10
2.6356455525
 20
18.370491874
 30
0.0
 10
2.5957679475
 20
18.3372726755
 30
0.0
 10
2.5062986965
 20
18.2887575528
 30
0.0
 10
2.4250418382
 20
18.2750188415
 30
0.0
 10
2.3756719621
 20
18.2855562811
 30
0.0
 11
2.653250883
 21
18.3886468646
 31
0.0
 11
2.5951111014
 21
18.3399054254
 31
0.0
 11
2.5261076425
 21
18.3030178607
 31
0.0
 11
2.3756719621
 21
18.2855562811
 31
0.0
  0
SPLINE
  5
620
100
AcDbEntity
  8
ASSI
100
AcDbSpline
 62
253
  6
CONTINUOUS
 70
0
 71
3
 72
11
 73
7
 74
5
 42
0.0000001
 43
0.0000001
 44
0.0000000001
 12
-0.2592592138
 22
-0.1251821714
 32
0.0
 13
-0.2575046934
 23
0.1287526653
 33
0.0
 40
0.0
 40
0.0
 40
0.0
 40
0.0
 40
0.2366131959
 40
0.5012536678
 40
0.765220306
 40
1.0
 40
1.0
 40
1.0
 40
1.0
 10
1.8984568444
 20
18.5737624892
 30
0.0
 10
1.878008794
 20
18.563889238
 30
0.0
 10
1.8313697778
 20
18.549853009
 30
0.0
 10
1.7578344026
 20
18.5433444596
 30
0.0
 10
1.6845340617
 20
18.5504580941
 30
0.0
 10
1.6382561051
 20
18.5649096206
 30
0.0
 10
1.6181038141
 20
18.5749857911
 30
0.0
 11
1.8984568444
 21
18.5737624892
 31
0.0
 11
1.8336366566
 21
18.5528154625
 31
0.0
 11
1.7577798612
 21
18.5457002077
 31
0.0
 11
1.6821829769
 21
18.5534763209
 31
0.0
 11
1.6181038141
 21
18.5749857911
 31
0.0
  0
SPLINE
  5
621
100
AcDbEntity
  8
ASSI
100
AcDbSpline
 62
253
  6
CONTINUOUS
 70
0
 71
3
 72
11
 73
7
 74
5
 42
0.0000001
 43
0.0000001
 44
0.0000000001
 12
-0.2592593051
 22
-0.1251819003
 32
0.0
 13
-0.257504789
 23
0.1287523945
 33
0.0
 40
0.0
 40
0.0
 40
0.0
 40
0.0
 40
0.236613166
 40
0.5012536621
 40
0.7652203297
 40
1.0
 40
1.0
 40
1.0
 40
1.0
 10
1.8984568444
 20
18.8910312896
 30
0.0
 10
1.8780087894
 20
18.881158061
 30
0.0
 10
1.8313697721
 20
18.867121867
 30
0.0
 10
1.7578344042
 20
18.8606133353
 30
0.0
 10
1.6845340697
 20
18.8677269518
 30
0.0
 10
1.6382561106
 20
18.8821784433
 30
0.0
 10
1.6181038141
 20
18.8922545915
 30
0.0
 11
1.8984568444
 21
18.8910312896
 31
0.0
 11
1.8336366578
 21
18.8700843144
 31
0.0
 11
1.7577798632
 21
18.8629690773
 31
0.0
 11
1.682182978
 21
18.8707451725
 31
0.0
 11
1.6181038141
 21
18.8922545915
 31
0.0
  0
SPLINE
  5
622
100
AcDbEntity
  8
ASSI
100
AcDbSpline
 62
253
  6
CONTINUOUS
 70
0
 71
3
 72
11
 73
7
 74
5
 42
0.0000001
 43
0.0000001
 44
0.0000000001
 12
-0.0042751977
 22
0.2928511099
 32
0.0
 13
-0.260047887
 23
0.1347410344
 33
0.0
 40
0.0
 40
0.0
 40
0.0
 40
0.0
 40
0.2465056875
 40
0.5120768718
 40
0.771055458
 40
1.0
 40
1.0
 40
1.0
 40
1.0
 10
1.9338015071
 20
18.9513919368
 30
0.0
 10
1.9334502202
 20
18.9754550915
 30
0.0
 10
1.9245534757
 20
19.0253957913
 30
0.0
 10
1.8941639496
 20
19.094912708
 30
0.0
 10
1.8501498783
 20
19.1545874446
 30
0.0
 10
1.8122472048
 20
19.1849878047
 30
0.0
 10
1.79240169
 20
19.1952705461
 30
0.0
 11
1.9338015071
 21
18.9513919368
 31
0.0
 11
1.9222694768
 21
19.0226621384
 31
0.0
 11
1.8913494301
 21
19.094033356
 31
0.0
 11
1.8457468609
 21
19.1546441285
 31
0.0
 11
1.79240169
 21
19.1952705461
 31
0.0
  0
SPLINE
  5
623
100
AcDbEntity
  8
ASSI
100
AcDbSpline
 62
253
  6
CONTINUOUS
 70
0
 71
3
 72
10
 73
6
 74
4
 42
0.0000001
 43
0.0000001
 44
0.0000000001
 12
0.0310656641
 22
-0.0510064764
 32
0.0
 13
-0.0374985269
 23
-0.0464822181
 33
0.0
 40
0.0
 40
0.0
 40
0.0
 40
0.0
 40
0.345266641
 40
0.6241284716
 40
1.0
 40
1.0
 40
1.0
 40
1.0
 10
4.0965689396
 20
19.6164960798
 30
0.0
 10
4.1001442521
 20
19.6106258015
 30
0.0
 10
4.106065031
 20
19.5995360742
 30
0.0
 10
4.1129831793
 20
19.5812943691
 30
0.0
 10
4.1129512322
 20
19.5660804579
 30
0.0
 10
4.1082530227
 20
19.5602566771
 30
0.0
 11
4.0965689396
 21
19.6164960798
 31
0.0
 11
4.1062044261
 21
19.5982657579
 31
0.0
 11
4.1114845749
 21
19.5824707139
 31
0.0
 11
4.1082530227
 21
19.5602566771
 31
0.0
  0
SPLINE
  5
624
100
AcDbEntity
  8
ASSI
100
AcDbSpline
 62
253
  6
CONTINUOUS
 70
0
 71
3
 72
11
 73
7
 74
5
 42
0.0000001
 43
0.0000001
 44
0.0000000001
 12
0.0830519927
 22
0.043001428
 32
0.0
 13
0.0000129856
 23
0.0935240939
 33
0.0
 40
0.0
 40
0.0
 40
0.0
 40
0.0
 40
0.300708284
 40
0.5638120708
 40
0.7923304554
 40
1.0
 40
1.0
 40
1.0
 40
1.0
 10
4.1139380442
 20
19.662989197
 30
0.0
 10
4.1222628516
 20
19.6672994922
 30
0.0
 10
4.1373176786
 20
19.6765592992
 30
0.0
 10
4.1556079165
 20
19.6934734145
 30
0.0
 10
4.1672776994
 20
19.7122843134
 30
0.0
 10
4.170069123
 20
19.7259809987
 30
0.0
 10
4.1700700219
 20
19.732455034
 30
0.0
 11
4.1139380442
 21
19.662989197
 31
0.0
 11
4.1377415654
 21
19.6779665783
 31
0.0
 11
4.1555056771
 21
19.6949935662
 31
0.0
 11
4.1663938904
 21
19.7133840019
 31
0.0
 11
4.1700700219
 21
19.732455034
 31
0.0
  0
SPLINE
  5
625
100
AcDbEntity
  8
ASSI
100
AcDbSpline
 62
253
  6
CONTINUOUS
 70
0
 71
3
 72
11
 73
7
 74
5
 42
0.0000001
 43
0.0000001
 44
0.0000000001
 12
0.0830519925
 22
0.0430014281
 32
0.0
 13
0.0000129856
 23
0.0935240938
 33
0.0
 40
0.0
 40
0.0
 40
0.0
 40
0.0
 40
0.3007082848
 40
0.5638120704
 40
0.7923304547
 40
1.0
 40
1.0
 40
1.0
 40
1.0
 10
4.1139380442
 20
20.0029327918
 30
0.0
 10
4.1222628516
 20
20.0072430871
 30
0.0
 10
4.1373176786
 20
20.016502894
 30
0.0
 10
4.1556079165
 20
20.0334170093
 30
0.0
 10
4.1672776992
 20
20.0522279082
 30
0.0
 10
4.170069123
 20
20.0659245935
 30
0.0
 10
4.170070022
 20
20.0723986288
 30
0.0
 11
4.1139380442
 21
20.0029327918
 31
0.0
 11
4.1377415654
 21
20.0179101731
 31
0.0
 11
4.155505677
 21
20.0349371609
 31
0.0
 11
4.1663938903
 21
20.0533275967
 31
0.0
 11
4.170070022
 21
20.0723986288
 31
0.0
  0
SPLINE
  5
626
100
AcDbEntity
  8
ASSI
100
AcDbSpline
 62
253
  6
CONTINUOUS
 70
0
 71
3
 72
11
 73
7
 74
5
 42
0.0000001
 43
0.0000001
 44
0.0000000001
 12
0.0040900125
 22
0.2942829918
 32
0.0
 13
-0.2649951358
 23
0.1280499335
 33
0.0
 40
0.0
 40
0.0
 40
0.0
 40
0.0
 40
0.2470852825
 40
0.5114851658
 40
0.7695777888
 40
1.0
 40
1.0
 40
1.0
 40
1.0
 10
4.0798061003
 20
20.0285551357
 30
0.0
 10
4.0801429609
 20
20.0527928011
 30
0.0
 10
4.0723557539
 20
20.1031851282
 30
0.0
 10
4.042374732
 20
20.1732173762
 30
0.0
 10
3.9976724597
 20
20.2328815791
 30
0.0
 10
3.9587598716
 20
20.2625985621
 30
0.0
 10
3.9384062832
 20
20.272433745
 30
0.0
 11
4.0798061003
 21
20.0285551357
 31
0.0
 11
4.0697865735
 21
20.1005815904
 31
0.0
 11
4.039397636
 21
20.1722183634
 31
0.0
 11
3.9932639573
 21
20.2325635802
 31
0.0
 11
3.9384062832
 21
20.272433745
 31
0.0
  0
SPLINE
  5
627
100
AcDbEntity
  8
ASSI
100
AcDbSpline
 62
7
  6
CONTINUOUS
 70
0
 71
3
 72
11
 73
7
 74
5
 42
0.0000001
 43
0.0000001
 44
0.0000000001
 12
0.2626045656
 22
-0.1313022828
 32
0.0
 13
0.0
 23
-0.2936008299
 33
0.0
 40
0.0
 40
0.0
 40
0.0
 40
0.0
 40
0.2296740836
 40
0.4882138821
 40
0.7532075651
 40
1.0
 40
1.0
 40
1.0
 40
1.0
 10
3.4143018166
 20
20.0124740659
 30
0.0
 10
3.4344063043
 20
20.0024218221
 30
0.0
 10
3.4728243665
 20
19.9723690479
 30
0.0
 10
3.5171867266
 20
19.9127003622
 30
0.0
 10
3.5473687218
 20
19.8429214992
 30
0.0
 10
3.5557016337
 20
19.7927482778
 30
0.0
 10
3.5557016337
 20
19.7685954566
 30
0.0
 11
3.4143018166
 21
20.0124740659
 31
0.0
 11
3.4684142995
 21
19.9722374971
 31
0.0
 11
3.5142891983
 21
19.9117607072
 31
0.0
 11
3.5449399415
 21
19.8402502885
 31
0.0
 11
3.5557016337
 21
19.7685954566
 31
0.0
  0
SPLINE
  5
628
100
AcDbEntity
  8
ASSI
100
AcDbSpline
 62
253
  6
CONTINUOUS
 70
0
 71
3
 72
11
 73
7
 74
5
 42
0.0000001
 43
0.0000001
 44
0.0000000001
 12
0.2575047899
 22
-0.1287523919
 32
0.0
 13
0.2592593058
 23
0.1251818983
 33
0.0
 40
0.0
 40
0.0
 40
0.0
 40
0.0
 40
0.2347796661
 40
0.498746331
 40
0.7633868303
 40
1.0
 40
1.0
 40
1.0
 40
1.0
 10
-5.0040147395
 20
23.2140051526
 30
0.0
 10
-4.9838624433
 20
23.2039290048
 30
0.0
 10
-4.9375844848
 20
23.1894775136
 30
0.0
 10
-4.8642841509
 20
23.1823638971
 30
0.0
 10
-4.7907487825
 20
23.1888724283
 30
0.0
 10
-4.7441097645
 20
23.2029086221
 30
0.0
 10
-4.7236617092
 20
23.2127818507
 30
0.0
 11
-5.0040147395
 21
23.2140051526
 31
0.0
 11
-4.9399355767
 21
23.1924957343
 31
0.0
 11
-4.8643386924
 21
23.1847196391
 31
0.0
 11
-4.7884818969
 21
23.1918348757
 31
0.0
 11
-4.7236617092
 21
23.2127818507
 31
0.0
  0
SPLINE
  5
629
100
AcDbEntity
  8
ASSI
100
AcDbSpline
 62
253
  6
CONTINUOUS
 70
0
 71
3
 72
11
 73
7
 74
5
 42
0.0000001
 43
0.0000001
 44
0.0000000001
 12
0.0
 22
0.2909088213
 32
0.0
 13
0.2579535453
 23
0.1344913038
 33
0.0
 40
0.0
 40
0.0
 40
0.0
 40
0.0
 40
0.2462187683
 40
0.5106608019
 40
0.7692790849
 40
1.0
 40
1.0
 40
1.0
 40
1.0
 10
-5.0393646938
 20
23.274974805
 30
0.0
 10
-5.0393646938
 20
23.2988505422
 30
0.0
 10
-5.0312154034
 20
23.3484542828
 30
0.0
 10
-5.0016265127
 20
23.4176039501
 30
0.0
 10
-4.9580290689
 20
23.4770423823
 30
0.0
 10
-4.9202499065
 20
23.5072867935
 30
0.0
 10
-4.9004114805
 20
23.5176301124
 30
0.0
 11
-5.0393646938
 21
23.274974805
 31
0.0
 11
-5.0288345309
 21
23.3458237508
 31
0.0
 11
-4.9988121834
 21
23.4166521059
 31
0.0
 11
-4.9537685491
 21
23.4769121831
 31
0.0
 11
-4.9004114805
 21
23.5176301124
 31
0.0
  0
SPLINE
  5
62A
100
AcDbEntity
  8
ASSI
100
AcDbSpline
 62
253
  6
CONTINUOUS
 70
0
 71
3
 72
11
 73
7
 74
5
 42
0.0000001
 43
0.0000001
 44
0.0000000001
 12
-0.0860674549
 22
0.0430337276
 32
0.0
 13
-0.0000391052
 23
0.096226332
 33
0.0
 40
0.0
 40
0.0
 40
0.0
 40
0.0
 40
0.301896701
 40
0.5654819851
 40
0.7935260419
 40
1.0
 40
1.0
 40
1.0
 40
1.0
 10
-0.4463975086
 20
19.6072364525
 30
0.0
 10
-0.4550586689
 20
19.6115670326
 30
0.0
 10
-0.4707280665
 20
19.6209019046
 30
0.0
 10
-0.4898141577
 20
19.6380717281
 30
0.0
 10
-0.5020297049
 20
19.6572586897
 30
0.0
 10
-0.5049733951
 20
19.6712973236
 30
0.0
 10
-0.5049760865
 20
19.6779200675
 30
0.0
 11
-0.4463975086
 21
19.6072364525
 31
0.0
 11
-0.471200162
 21
19.6223611004
 31
0.0
 11
-0.4897427825
 21
19.6396670522
 31
0.0
 11
-0.5011237201
 21
19.6584288909
 31
0.0
 11
-0.5049760865
 21
19.6779200675
 31
0.0
  0
SPLINE
  5
62B
100
AcDbEntity
  8
ASSI
100
AcDbSpline
 62
253
  6
CONTINUOUS
 70
0
 71
3
 72
11
 73
7
 74
5
 42
0.0000001
 43
0.0000001
 44
0.0000000001
 12
-0.0860645865
 22
0.0430322933
 32
0.0
 13
-0.0000454116
 23
0.0962231223
 33
0.0
 40
0.0
 40
0.0
 40
0.0
 40
0.0
 40
0.3018950576
 40
0.5654806419
 40
0.7935260005
 40
1.0
 40
1.0
 40
1.0
 40
1.0
 10
-0.4463975086
 20
19.9245052529
 30
0.0
 10
-0.4550583331
 20
19.9288356651
 30
0.0
 10
-0.4707271883
 20
19.9381701579
 30
0.0
 10
-0.4898128413
 20
19.955339149
 30
0.0
 10
-0.5020285736
 20
19.9745250944
 30
0.0
 10
-0.5049729597
 20
19.9885630897
 30
0.0
 10
-0.5049760851
 20
19.995185614
 30
0.0
 11
-0.4463975086
 21
19.9245052529
 31
0.0
 11
-0.471199256
 21
19.9396292232
 31
0.0
 11
-0.4897415329
 21
19.9569343466
 31
0.0
 11
-0.5011227673
 21
19.9756952963
 31
0.0
 11
-0.5049760851
 21
19.995185614
 31
0.0
  0
SPLINE
  5
62C
100
AcDbEntity
  8
ASSI
100
AcDbSpline
 62
253
  6
CONTINUOUS
 70
0
 71
3
 72
9
 73
5
 74
3
 42
0.0000001
 43
0.0000001
 44
0.0000000001
 12
-0.0857124956
 22
0.041354812
 32
0.0
 13
-0.0838393409
 23
-0.0450312924
 33
0.0
 40
0.0
 40
0.0
 40
0.0
 40
0.0
 40
0.5373176054
 40
1.0
 40
1.0
 40
1.0
 40
1.0
 10
-0.2733123514
 20
20.2281275668
 30
0.0
 10
-0.2886639624
 20
20.2355344563
 30
0.0
 10
-0.3198181557
 20
20.2454220704
 30
0.0
 10
-0.3527835343
 20
20.2391914923
 30
0.0
 10
-0.3657138633
 20
20.2322464303
 30
0.0
 11
-0.2733123514
 21
20.2281275668
 31
0.0
 11
-0.3226662632
 21
20.2415065479
 31
0.0
 11
-0.3657138633
 21
20.2322464303
 31
0.0
  0
SPLINE
  5
62D
100
AcDbEntity
  8
ASSI
100
AcDbSpline
 62
253
  6
CONTINUOUS
 70
0
 71
3
 72
11
 73
7
 74
5
 42
0.0000001
 43
0.0000001
 44
0.0000000001
 12
-0.0000000004
 22
0.2909088214
 32
0.0
 13
0.2579535455
 23
0.1344913035
 33
0.0
 40
0.0
 40
0.0
 40
0.0
 40
0.0
 40
0.2462187672
 40
0.5106608001
 40
0.7692790838
 40
1.0
 40
1.0
 40
1.0
 40
1.0
 10
-7.2593131824
 20
24.3849490492
 30
0.0
 10
-7.2593131824
 20
24.4088247864
 30
0.0
 10
-7.2511638921
 20
24.4584285269
 30
0.0
 10
-7.2215750015
 20
24.5275781941
 30
0.0
 10
-7.1779775577
 20
24.5870166265
 30
0.0
 10
-7.1401983952
 20
24.6172610377
 30
0.0
 10
-7.1203599691
 20
24.6276043567
 30
0.0
 11
-7.2593131824
 21
24.3849490492
 31
0.0
 11
-7.2487830196
 21
24.4557979948
 31
0.0
 11
-7.2187606723
 21
24.5266263498
 31
0.0
 11
-7.1737170379
 21
24.5868864272
 31
0.0
 11
-7.1203599691
 21
24.6276043567
 31
0.0
  0
SPLINE
  5
62E
100
AcDbEntity
  8
ASSI
100
AcDbSpline
 62
253
  6
CONTINUOUS
 70
0
 71
3
 72
11
 73
7
 74
5
 42
0.0000001
 43
0.0000001
 44
0.0000000001
 12
-0.086091312
 22
0.043045656
 32
0.0
 13
0.0000133645
 23
0.0962530121
 33
0.0
 40
0.0
 40
0.0
 40
0.0
 40
0.0
 40
0.3019103668
 40
0.5654931424
 40
0.7935263697
 40
1.0
 40
1.0
 40
1.0
 40
1.0
 10
-7.2946631366
 20
24.3593293512
 30
0.0
 10
-7.3033270898
 20
24.3636613278
 30
0.0
 10
-7.3190009981
 20
24.3729993533
 30
0.0
 10
-7.3380907328
 20
24.3901761002
 30
0.0
 10
-7.3503047387
 20
24.4093715148
 30
0.0
 10
-7.353242638
 20
24.4234154597
 30
0.0
 10
-7.3532417182
 20
24.4300400293
 30
0.0
 11
-7.2946631366
 21
24.3593293512
 31
0.0
 11
-7.3194733258
 21
24.3744596344
 31
0.0
 11
-7.3380188021
 21
24.3917724764
 31
0.0
 11
-7.3493972679
 21
24.4105417085
 31
0.0
 11
-7.3532417182
 21
24.4300400293
 31
0.0
  0
SPLINE
  5
62F
100
AcDbEntity
  8
ASSI
100
AcDbSpline
 62
253
  6
CONTINUOUS
 70
0
 71
3
 72
9
 73
5
 74
3
 42
0.0000001
 43
0.0000001
 44
0.0000000001
 12
-0.0787764132
 22
0.0407573394
 32
0.0
 13
-0.0806659325
 23
-0.0368767044
 33
0.0
 40
0.0
 40
0.0
 40
0.0
 40
0.0
 40
0.5348396885
 40
1.0
 40
1.0
 40
1.0
 40
1.0
 10
1.8356644575
 20
21.3238046579
 30
0.0
 10
1.8216202067
 20
21.3310708721
 30
0.0
 10
1.7929085984
 20
21.3410957603
 30
0.0
 10
1.7620908236
 20
21.3367869302
 30
0.0
 10
1.7495832935
 20
21.3310690704
 30
0.0
 11
1.8356644575
 21
21.3238046579
 31
0.0
 11
1.7903055152
 21
21.3376940781
 31
0.0
 11
1.7495832935
 21
21.3310690704
 31
0.0
  0
SPLINE
  5
630
100
AcDbEntity
  8
ASSI
100
AcDbSpline
 62
253
  6
CONTINUOUS
 70
0
 71
3
 72
11
 73
7
 74
5
 42
0.0000001
 43
0.0000001
 44
0.0000000001
 12
0.2575047899
 22
-0.1287523919
 32
0.0
 13
0.2592593058
 23
0.1251818983
 33
0.0
 40
0.0
 40
0.0
 40
0.0
 40
0.0
 40
0.2347796661
 40
0.498746331
 40
0.7633868303
 40
1.0
 40
1.0
 40
1.0
 40
1.0
 10
-1.2917041383
 20
21.357849852
 30
0.0
 10
-1.2715518421
 20
21.3477737042
 30
0.0
 10
-1.2252738836
 20
21.333322213
 30
0.0
 10
-1.1519735496
 20
21.3262085965
 30
0.0
 10
-1.0784381813
 20
21.3327171277
 30
0.0
 10
-1.0317991633
 20
21.3467533215
 30
0.0
 10
-1.0113511079
 20
21.3566265501
 30
0.0
 11
-1.2917041383
 21
21.357849852
 31
0.0
 11
-1.2276249755
 21
21.3363404336
 31
0.0
 11
-1.1520280911
 21
21.3285643384
 31
0.0
 11
-1.0761712957
 21
21.3356795751
 31
0.0
 11
-1.0113511079
 21
21.3566265501
 31
0.0
  0
SPLINE
  5
631
100
AcDbEntity
  8
ASSI
100
AcDbSpline
 62
7
  6
CONTINUOUS
 70
0
 71
3
 72
10
 73
6
 74
4
 42
0.0000001
 43
0.0000001
 44
0.0000000001
 12
-0.2127740416
 22
-0.2194171091
 32
0.0
 13
-0.2989126536
 23
0.0637799818
 33
0.0
 40
0.0
 40
0.0
 40
0.0
 40
0.0
 40
0.2480868159
 40
0.5042334556
 40
1.0
 40
1.0
 40
1.0
 40
1.0
 10
-9.9332498221
 20
24.6818972172
 30
0.0
 10
-9.9508453002
 20
24.6637523865
 30
0.0
 10
-9.9907251128
 20
24.6305388133
 30
0.0
 10
-10.0802071373
 20
24.58197403
 30
0.0
 10
-10.1615195556
 20
24.5683101035
 30
0.0
 10
-10.2109165201
 20
24.5788500972
 30
0.0
 11
-9.9332498221
 21
24.6818972172
 31
0.0
 11
-9.9913561216
 21
24.6331819266
 31
0.0
 11
-10.0603935982
 21
24.5962631404
 31
0.0
 11
-10.2109165201
 21
24.5788500972
 31
0.0
  0
SPLINE
  5
632
100
AcDbEntity
  8
ASSI
100
AcDbSpline
 62
253
  6
CONTINUOUS
 70
0
 71
3
 72
11
 73
7
 74
5
 42
0.0000001
 43
0.0000001
 44
0.0000000001
 12
0.0
 22
0.2909088213
 32
0.0
 13
0.2579535453
 23
0.1344913038
 33
0.0
 40
0.0
 40
0.0
 40
0.0
 40
0.0
 40
0.2462187683
 40
0.5106608019
 40
0.7692790849
 40
1.0
 40
1.0
 40
1.0
 40
1.0
 10
-1.3270540925
 20
21.4188195043
 30
0.0
 10
-1.3270540925
 20
21.4426952416
 30
0.0
 10
-1.3189048022
 20
21.4922989822
 30
0.0
 10
-1.2893159114
 20
21.5614486495
 30
0.0
 10
-1.2457184676
 20
21.6208870817
 30
0.0
 10
-1.2079393053
 20
21.6511314929
 30
0.0
 10
-1.1881008793
 20
21.6614748118
 30
0.0
 11
-1.3270540925
 21
21.4188195043
 31
0.0
 11
-1.3165239296
 21
21.4896684501
 31
0.0
 11
-1.2865015822
 21
21.5604968053
 31
0.0
 11
-1.2414579478
 21
21.6207568824
 31
0.0
 11
-1.1881008793
 21
21.6614748118
 31
0.0
  0
SPLINE
  5
633
100
AcDbEntity
  8
ASSI
100
AcDbSpline
 62
253
  6
CONTINUOUS
 70
0
 71
3
 72
11
 73
7
 74
5
 42
0.0000001
 43
0.0000001
 44
0.0000000001
 12
0.257504789
 22
-0.1287523945
 32
0.0
 13
0.2592593051
 23
0.1251819003
 33
0.0
 40
0.0
 40
0.0
 40
0.0
 40
0.0
 40
0.2347796703
 40
0.4987463379
 40
0.763386834
 40
1.0
 40
1.0
 40
1.0
 40
1.0
 10
-10.968396891
 20
24.8682361437
 30
0.0
 10
-10.9482445945
 20
24.8581599955
 30
0.0
 10
-10.9019666354
 20
24.843708504
 30
0.0
 10
-10.828666301
 20
24.8365948875
 30
0.0
 10
-10.755130933
 20
24.8431034192
 30
0.0
 10
-10.7084919157
 20
24.8571396132
 30
0.0
 10
-10.6880438607
 20
24.8670128418
 30
0.0
 11
-10.968396891
 21
24.8682361437
 31
0.0
 11
-10.9043177271
 21
24.8467267247
 31
0.0
 11
-10.8287208419
 21
24.8389506295
 31
0.0
 11
-10.7528640473
 21
24.8460658666
 31
0.0
 11
-10.6880438607
 21
24.8670128418
 31
0.0
  0
SPLINE
  5
634
100
AcDbEntity
  8
ASSI
100
AcDbSpline
 62
253
  6
CONTINUOUS
 70
0
 71
3
 72
11
 73
7
 74
5
 42
0.0000001
 43
0.0000001
 44
0.0000000001
 12
0.2575047889
 22
-0.1287523949
 32
0.0
 13
0.259259305
 23
0.1251819007
 33
0.0
 40
0.0
 40
0.0
 40
0.0
 40
0.0
 40
0.2347796713
 40
0.4987463397
 40
0.763386835
 40
1.0
 40
1.0
 40
1.0
 40
1.0
 10
-10.968396891
 20
25.1855049441
 30
0.0
 10
-10.9482445945
 20
25.1754287958
 30
0.0
 10
-10.9019666351
 20
25.1609773042
 30
0.0
 10
-10.8286663006
 20
25.1538636878
 30
0.0
 10
-10.7551309327
 20
25.1603722195
 30
0.0
 10
-10.7084919156
 20
25.1744084136
 30
0.0
 10
-10.6880438607
 20
25.1842816422
 30
0.0
 11
-10.968396891
 21
25.1855049441
 31
0.0
 11
-10.9043177268
 21
25.1639955249
 31
0.0
 11
-10.8287208414
 21
25.1562194298
 31
0.0
 11
-10.752864047
 21
25.1633346669
 31
0.0
 11
-10.6880438607
 21
25.1842816422
 31
0.0
  0
SPLINE
  5
635
100
AcDbEntity
  8
ASSI
100
AcDbSpline
 62
253
  6
CONTINUOUS
 70
0
 71
3
 72
11
 73
7
 74
5
 42
0.0000001
 43
0.0000001
 44
0.0000000001
 12
0.2600478871
 22
-0.1347410343
 32
0.0
 13
0.0042751974
 23
-0.2928511099
 33
0.0
 40
0.0
 40
0.0
 40
0.0
 40
0.0
 40
0.2289445384
 40
0.4879231217
 40
0.7534943086
 40
1.0
 40
1.0
 40
1.0
 40
1.0
 10
-10.7940990151
 20
25.4885208987
 30
0.0
 10
-10.7742535006
 20
25.4782381574
 30
0.0
 10
-10.7363508275
 20
25.4478377979
 30
0.0
 10
-10.6923367561
 20
25.3881630618
 30
0.0
 10
-10.6619472297
 20
25.3186461449
 30
0.0
 10
-10.6530504849
 20
25.2687054445
 30
0.0
 10
-10.652699198
 20
25.2446422894
 30
0.0
 11
-10.7940990151
 21
25.4885208987
 31
0.0
 11
-10.7407538449
 21
25.4478944819
 31
0.0
 11
-10.695151276
 21
25.3872837102
 31
0.0
 11
-10.6642312287
 21
25.3159124921
 31
0.0
 11
-10.652699198
 21
25.2446422894
 31
0.0
  0
SPLINE
  5
636
100
AcDbEntity
  8
ASSI
100
AcDbSpline
 62
7
  6
CONTINUOUS
 70
0
 71
3
 72
11
 73
7
 74
5
 42
0.0000001
 43
0.0000001
 44
0.0000000001
 12
-0.0
 22
0.2936008299
 32
0.0
 13
-0.2626045656
 23
0.1313022828
 33
0.0
 40
0.0
 40
0.0
 40
0.0
 40
0.0
 40
0.2467924349
 40
0.5117861179
 40
0.7703259164
 40
1.0
 40
1.0
 40
1.0
 40
1.0
 10
-9.0307990714
 20
26.0618458091
 30
0.0
 10
-9.0307990714
 20
26.0859986304
 30
0.0
 10
-9.0391319833
 20
26.1361718518
 30
0.0
 10
-9.0693139785
 20
26.2059507147
 30
0.0
 10
-9.1136763386
 20
26.2656194004
 30
0.0
 10
-9.1520944008
 20
26.2956721746
 30
0.0
 10
-9.1721988885
 20
26.3057244184
 30
0.0
 11
-9.0307990714
 21
26.0618458091
 31
0.0
 11
-9.0415607636
 21
26.1335006411
 31
0.0
 11
-9.0722115068
 21
26.2050110597
 31
0.0
 11
-9.1180864056
 21
26.2654878497
 31
0.0
 11
-9.1721988885
 21
26.3057244184
 31
0.0
  0
SPLINE
  5
637
100
AcDbEntity
  8
ASSI
100
AcDbSpline
 62
253
  6
CONTINUOUS
 70
0
 71
3
 72
11
 73
7
 74
5
 42
0.0000001
 43
0.0000001
 44
0.0000000001
 12
-0.0000000004
 22
0.2909088214
 32
0.0
 13
0.2579535455
 23
0.1344913035
 33
0.0
 40
0.0
 40
0.0
 40
0.0
 40
0.0
 40
0.2462187672
 40
0.5106608001
 40
0.7692790838
 40
1.0
 40
1.0
 40
1.0
 40
1.0
 10
-3.5470025811
 20
22.5287937486
 30
0.0
 10
-3.5470025812
 20
22.5526694858
 30
0.0
 10
-3.5388532909
 20
22.6022732263
 30
0.0
 10
-3.5092644003
 20
22.6714228935
 30
0.0
 10
-3.4656669565
 20
22.7308613258
 30
0.0
 10
-3.427887794
 20
22.7611057371
 30
0.0
 10
-3.4080493679
 20
22.771449056
 30
0.0
 11
-3.5470025811
 21
22.5287937486
 31
0.0
 11
-3.5364724184
 21
22.5996426942
 31
0.0
 11
-3.5064500711
 21
22.6704710491
 31
0.0
 11
-3.4614064367
 21
22.7307311265
 31
0.0
 11
-3.4080493679
 21
22.771449056
 31
0.0
  0
SPLINE
  5
638
100
AcDbEntity
  8
ASSI
100
AcDbSpline
 62
253
  6
CONTINUOUS
 70
0
 71
3
 72
11
 73
7
 74
5
 42
0.0000001
 43
0.0000001
 44
0.0000000001
 12
-0.086091312
 22
0.043045656
 32
0.0
 13
0.0000133645
 23
0.0962530121
 33
0.0
 40
0.0
 40
0.0
 40
0.0
 40
0.0
 40
0.3019103668
 40
0.5654931424
 40
0.7935263697
 40
1.0
 40
1.0
 40
1.0
 40
1.0
 10
-3.5823525354
 20
22.5031740506
 30
0.0
 10
-3.5910164886
 20
22.5075060272
 30
0.0
 10
-3.6066903969
 20
22.5168440527
 30
0.0
 10
-3.6257801316
 20
22.5340207996
 30
0.0
 10
-3.6379941375
 20
22.5532162142
 30
0.0
 10
-3.6409320367
 20
22.5672601591
 30
0.0
 10
-3.6409311169
 20
22.5738847287
 30
0.0
 11
-3.5823525354
 21
22.5031740506
 31
0.0
 11
-3.6071627246
 21
22.5183043338
 31
0.0
 11
-3.6257082008
 21
22.5356171757
 31
0.0
 11
-3.6370866667
 21
22.5543864079
 31
0.0
 11
-3.6409311169
 21
22.5738847287
 31
0.0
  0
SPLINE
  5
639
100
AcDbEntity
  8
ASSI
100
AcDbSpline
 62
253
  6
CONTINUOUS
 70
0
 71
3
 72
11
 73
7
 74
5
 42
0.0000001
 43
0.0000001
 44
0.0000000001
 12
0.3312438285
 22
-0.1600625469
 32
0.0
 13
-0.0051123801
 23
-0.3678537161
 33
0.0
 40
0.0
 40
0.0
 40
0.0
 40
0.0
 40
0.2304221291
 40
0.4885147234
 40
0.7529146663
 40
1.0
 40
1.0
 40
1.0
 40
1.0
 10
2.9355567388
 20
23.7085530277
 30
0.0
 10
2.9609987082
 20
23.6962590434
 30
0.0
 10
3.0096394173
 20
23.659112814
 30
0.0
 10
3.0655172476
 20
23.5845325713
 30
0.0
 10
3.1029935456
 20
23.4969922677
 30
0.0
 10
3.1127275776
 20
23.4340018534
 30
0.0
 10
3.1123065129
 20
23.4037047674
 30
0.0
 11
2.9355567388
 21
23.7085530277
 31
0.0
 11
3.0041287886
 21
23.658715324
 31
0.0
 11
3.0617958759
 21
23.5832838161
 31
0.0
 11
3.0997820726
 21
23.4937378439
 31
0.0
 11
3.1123065129
 21
23.4037047674
 31
0.0
  0
SPLINE
  5
63A
100
AcDbEntity
  8
ASSI
100
AcDbSpline
 62
253
  6
CONTINUOUS
 70
0
 71
3
 72
11
 73
7
 74
5
 42
0.0000001
 43
0.0000001
 44
0.0000000001
 12
0.2649951355
 22
-0.1280499339
 32
0.0
 13
-0.0040900118
 23
-0.2942829917
 33
0.0
 40
0.0
 40
0.0
 40
0.0
 40
0.0
 40
0.2304222131
 40
0.4885148378
 40
0.7529147197
 40
1.0
 40
1.0
 40
1.0
 40
1.0
 10
-8.6480944219
 20
26.5656840976
 30
0.0
 10
-8.6277408334
 20
26.5558489145
 30
0.0
 10
-8.5888282451
 20
26.5261319312
 30
0.0
 10
-8.5441259729
 20
26.466467728
 30
0.0
 10
-8.5141449512
 20
26.3964354802
 30
0.0
 10
-8.5063577443
 20
26.3460431534
 30
0.0
 10
-8.5066946049
 20
26.3218054883
 30
0.0
 11
-8.6480944219
 21
26.5656840976
 31
0.0
 11
-8.5932367475
 21
26.5258139323
 31
0.0
 11
-8.5471030687
 21
26.465468715
 31
0.0
 11
-8.5167141316
 21
26.3938319423
 31
0.0
 11
-8.5066946049
 21
26.3218054883
 31
0.0
  0
SPLINE
  5
63B
100
AcDbEntity
  8
ASSI
100
AcDbSpline
 62
253
  6
CONTINUOUS
 70
0
 71
3
 72
9
 73
5
 74
3
 42
0.0000001
 43
0.0000001
 44
0.0000000001
 12
-0.0987551695
 22
0.051093948
 32
0.0
 13
-0.1009595448
 23
-0.0465869654
 33
0.0
 40
0.0
 40
0.0
 40
0.0
 40
0.0
 40
0.5348831908
 40
1.0
 40
1.0
 40
1.0
 40
1.0
 10
2.7437191906
 20
23.8044718018
 30
0.0
 10
2.7261116972
 20
23.8135815665
 30
0.0
 10
2.6901049473
 20
23.8261402382
 30
0.0
 10
2.6514697624
 20
23.8206370313
 30
0.0
 10
2.635817102
 20
23.8134142377
 30
0.0
 11
2.7437191906
 21
23.8044718018
 31
0.0
 11
2.6868408913
 21
23.8218489073
 31
0.0
 11
2.635817102
 21
23.8134142377
 31
0.0
  0
SPLINE
  5
63C
100
AcDbEntity
  8
ASSI
100
AcDbSpline
 62
7
  6
CONTINUOUS
 70
0
 71
3
 72
11
 73
7
 74
5
 42
0.0000001
 43
0.0000001
 44
0.0000000001
 12
-0.0
 22
0.3669998579
 32
0.0
 13
-0.328254652
 23
0.164127326
 33
0.0
 40
0.0
 40
0.0
 40
0.0
 40
0.0
 40
0.2468214196
 40
0.5117844928
 40
0.770298635
 40
1.0
 40
1.0
 40
1.0
 40
1.0
 10
-0.7930050706
 20
21.4666414316
 30
0.0
 10
-0.7930050706
 20
21.4968359069
 30
0.0
 10
-0.8034185861
 20
21.5595535958
 30
0.0
 10
-0.8411590614
 20
21.6467665199
 30
0.0
 10
-0.8965963472
 20
21.7213581942
 30
0.0
 10
-0.944621328
 20
21.7589229363
 30
0.0
 10
-0.9697548419
 20
21.7714896933
 30
0.0
 11
-0.7930050706
 21
21.4666414316
 31
0.0
 11
-0.8064594924
 21
21.5562200875
 31
0.0
 11
-0.8447755386
 21
21.6455944264
 31
0.0
 11
-0.9021069204
 21
21.7211874984
 31
0.0
 11
-0.9697548419
 21
21.7714896933
 31
0.0
  0
SPLINE
  5
63D
100
AcDbEntity
  8
ASSI
100
AcDbSpline
 62
253
  6
CONTINUOUS
 70
0
 71
3
 72
11
 73
7
 74
5
 42
0.0000001
 43
0.0000001
 44
0.0000000001
 12
-0.0042666542
 22
0.3662553148
 32
0.0
 13
-0.3257077762
 23
0.1675577645
 33
0.0
 40
0.0
 40
0.0
 40
0.0
 40
0.0
 40
0.2465204346
 40
0.5119835308
 40
0.7708932999
 40
1.0
 40
1.0
 40
1.0
 40
1.0
 10
-1.0113511079
 20
21.3566265501
 30
0.0
 10
-1.0117017138
 20
21.3867230232
 30
0.0
 10
-1.0226808495
 20
21.4492028305
 30
0.0
 10
-1.0606116164
 20
21.5361634588
 30
0.0
 10
-1.1157171046
 20
21.6107603429
 30
0.0
 10
-1.1632269347
 20
21.6486786096
 30
0.0
 10
-1.1881008793
 20
21.6614748118
 30
0.0
 11
-1.0113511079
 21
21.3566265501
 31
0.0
 11
-1.0255696642
 21
21.4457955931
 31
0.0
 11
-1.0641501634
 21
21.5350478758
 31
0.0
 11
-1.1212233765
 21
21.6107845483
 31
0.0
 11
-1.1881008793
 21
21.6614748118
 31
0.0
  0
SPLINE
  5
63E
100
AcDbEntity
  8
ASSI
100
AcDbSpline
 62
7
  6
CONTINUOUS
 70
0
 71
3
 72
11
 73
7
 74
5
 42
0.0000001
 43
0.0000001
 44
0.0000000001
 12
-0.0
 22
0.3669998579
 32
0.0
 13
-0.328254652
 23
0.164127326
 33
0.0
 40
0.0
 40
0.0
 40
0.0
 40
0.0
 40
0.2468214196
 40
0.5117844928
 40
0.770298635
 40
1.0
 40
1.0
 40
1.0
 40
1.0
 10
-4.5053156718
 20
23.3227967322
 30
0.0
 10
-4.5053156718
 20
23.3529912075
 30
0.0
 10
-4.5157291873
 20
23.4157088964
 30
0.0
 10
-4.5534696627
 20
23.5029218205
 30
0.0
 10
-4.6089069484
 20
23.5775134948
 30
0.0
 10
-4.6569319293
 20
23.6150782369
 30
0.0
 10
-4.6820654432
 20
23.6276449939
 30
0.0
 11
-4.5053156718
 21
23.3227967322
 31
0.0
 11
-4.5187700936
 21
23.4123753881
 31
0.0
 11
-4.5570861398
 21
23.501749727
 31
0.0
 11
-4.6144175216
 21
23.577342799
 31
0.0
 11
-4.6820654432
 21
23.6276449939
 31
0.0
  0
SPLINE
  5
63F
100
AcDbEntity
  8
ASSI
100
AcDbSpline
 62
253
  6
CONTINUOUS
 70
0
 71
3
 72
11
 73
7
 74
5
 42
0.0000001
 43
0.0000001
 44
0.0000000001
 12
-0.0042666542
 22
0.3662553148
 32
0.0
 13
-0.3257077762
 23
0.1675577645
 33
0.0
 40
0.0
 40
0.0
 40
0.0
 40
0.0
 40
0.2465204346
 40
0.5119835308
 40
0.7708932999
 40
1.0
 40
1.0
 40
1.0
 40
1.0
 10
-4.7236617092
 20
23.2127818507
 30
0.0
 10
-4.724012315
 20
23.2428783238
 30
0.0
 10
-4.7349914508
 20
23.3053581311
 30
0.0
 10
-4.7729222177
 20
23.3923187594
 30
0.0
 10
-4.8280277058
 20
23.4669156435
 30
0.0
 10
-4.8755375359
 20
23.5048339102
 30
0.0
 10
-4.9004114805
 20
23.5176301124
 30
0.0
 11
-4.7236617092
 21
23.2127818507
 31
0.0
 11
-4.7378802654
 21
23.3019508937
 31
0.0
 11
-4.7764607646
 21
23.3912031764
 31
0.0
 11
-4.8335339777
 21
23.466939849
 31
0.0
 11
-4.9004114805
 21
23.5176301124
 31
0.0
  0
SPLINE
  5
640
100
AcDbEntity
  8
ASSI
100
AcDbSpline
 62
7
  6
CONTINUOUS
 70
0
 71
3
 72
9
 73
5
 74
3
 42
0.0000001
 43
0.0000001
 44
0.0000000001
 12
-0.0803798402
 22
0.0401899201
 32
0.0
 13
-0.0815990614
 23
-0.0376529093
 33
0.0
 40
0.0
 40
0.0
 40
0.0
 40
0.0
 40
0.5356764828
 40
1.0
 40
1.0
 40
1.0
 40
1.0
 10
-11.2935623104
 20
27.3664061294
 30
0.0
 10
-11.3079148404
 20
27.3735823944
 30
0.0
 10
-11.3370869463
 20
27.3833900735
 30
0.0
 10
-11.3682685743
 20
27.3789194319
 30
0.0
 10
-11.3808980287
 20
27.3730917215
 30
0.0
 11
-11.2935623104
 21
27.3664061294
 31
0.0
 11
-11.3397450935
 21
27.3799927265
 31
0.0
 11
-11.3808980287
 21
27.3730917215
 31
0.0
  0
SPLINE
  5
641
100
AcDbEntity
  8
ASSI
100
AcDbSpline
 62
253
  6
CONTINUOUS
 70
0
 71
3
 72
9
 73
5
 74
3
 42
0.0000001
 43
0.0000001
 44
0.0000000001
 12
-0.1068732818
 22
0.0519357288
 32
0.0
 13
-0.1045970371
 23
-0.056379767
 33
0.0
 40
0.0
 40
0.0
 40
0.0
 40
0.0
 40
0.5372366612
 40
1.0
 40
1.0
 40
1.0
 40
1.0
 10
-3.4080493679
 20
22.771449056
 30
0.0
 10
-3.4271881162
 20
22.7807496486
 30
0.0
 10
-3.4660706487
 20
22.7931910797
 30
0.0
 10
-3.5072480928
 20
22.7853898853
 30
0.0
 10
-3.5233826509
 20
22.7766930556
 30
0.0
 11
-3.4080493679
 21
22.771449056
 31
0.0
 11
-3.4696287249
 21
22.7882751425
 31
0.0
 11
-3.5233826509
 21
22.7766930556
 31
0.0
  0
SPLINE
  5
642
100
AcDbEntity
  8
ASSI
100
AcDbSpline
 62
253
  6
CONTINUOUS
 70
0
 71
3
 72
9
 73
5
 74
3
 42
0.0000001
 43
0.0000001
 44
0.0000000001
 12
-0.1068732818
 22
0.0519357288
 32
0.0
 13
-0.1045970371
 23
-0.056379767
 33
0.0
 40
0.0
 40
0.0
 40
0.0
 40
0.0
 40
0.5372366612
 40
1.0
 40
1.0
 40
1.0
 40
1.0
 10
-7.1203599691
 20
24.6276043567
 30
0.0
 10
-7.1394987175
 20
24.6369049492
 30
0.0
 10
-7.1783812499
 20
24.6493463804
 30
0.0
 10
-7.219558694
 20
24.6415451859
 30
0.0
 10
-7.2356932521
 20
24.6328483562
 30
0.0
 11
-7.1203599691
 21
24.6276043567
 31
0.0
 11
-7.1819393261
 21
24.6444304431
 31
0.0
 11
-7.2356932521
 21
24.6328483562
 31
0.0
  0
SPLINE
  5
643
100
AcDbEntity
  8
ASSI
100
AcDbSpline
 62
253
  6
CONTINUOUS
 70
0
 71
3
 72
9
 73
5
 74
3
 42
0.0000001
 43
0.0000001
 44
0.0000000001
 12
-0.0987551695
 22
0.051093948
 32
0.0
 13
-0.1009595448
 23
-0.0465869654
 33
0.0
 40
0.0
 40
0.0
 40
0.0
 40
0.0
 40
0.5348831908
 40
1.0
 40
1.0
 40
1.0
 40
1.0
 10
-2.8654371251
 20
26.6090499596
 30
0.0
 10
-2.8830446185
 20
26.6181597243
 30
0.0
 10
-2.9190513683
 20
26.6307183961
 30
0.0
 10
-2.9576865533
 20
26.6252151891
 30
0.0
 10
-2.9733392137
 20
26.6179923955
 30
0.0
 11
-2.8654371251
 21
26.6090499596
 31
0.0
 11
-2.9223154243
 21
26.6264270651
 31
0.0
 11
-2.9733392137
 21
26.6179923955
 31
0.0
  0
SPLINE
  5
644
100
AcDbEntity
  8
ASSI
100
AcDbSpline
 62
253
  6
CONTINUOUS
 70
0
 71
3
 72
11
 73
7
 74
5
 42
0.0000001
 43
0.0000001
 44
0.0000000001
 12
0.3312438285
 22
-0.1600625469
 32
0.0
 13
-0.0051123801
 23
-0.3678537161
 33
0.0
 40
0.0
 40
0.0
 40
0.0
 40
0.0
 40
0.2304221291
 40
0.4885147234
 40
0.7529146663
 40
1.0
 40
1.0
 40
1.0
 40
1.0
 10
-2.6735995768
 20
26.5131311855
 30
0.0
 10
-2.6481576074
 20
26.5008372012
 30
0.0
 10
-2.5995168984
 20
26.4636909718
 30
0.0
 10
-2.543639068
 20
26.3891107291
 30
0.0
 10
-2.5061627701
 20
26.3015704256
 30
0.0
 10
-2.4964287381
 20
26.2385800112
 30
0.0
 10
-2.4968498028
 20
26.2082829252
 30
0.0
 11
-2.6735995768
 21
26.5131311855
 31
0.0
 11
-2.6050275271
 21
26.4632934818
 31
0.0
 11
-2.5473604398
 21
26.387861974
 31
0.0
 11
-2.5093742431
 21
26.2983160017
 31
0.0
 11
-2.4968498028
 21
26.2082829252
 31
0.0
  0
SPLINE
  5
645
100
AcDbEntity
  8
ASSI
100
AcDbSpline
 62
253
  6
CONTINUOUS
 70
0
 71
3
 72
9
 73
5
 74
3
 42
0.0000001
 43
0.0000001
 44
0.0000000001
 12
0.0533980009
 22
0.1429693515
 32
0.0
 13
-0.0421136761
 23
0.1466902187
 33
0.0
 40
0.0
 40
0.0
 40
0.0
 40
0.0
 40
0.2544748176
 40
1.0
 40
1.0
 40
1.0
 40
1.0
 10
4.0965689396
 20
-21.6081080596
 30
0.0
 10
4.1010984218
 20
-21.595980693
 30
0.0
 10
4.115135945
 20
-21.5470435926
 30
0.0
 10
4.1142388814
 20
-21.4935049378
 30
0.0
 10
4.1037732794
 20
-21.4570511871
 30
0.0
 11
4.0965689396
 21
-21.6081080596
 31
0.0
 11
4.1072756886
 21
-21.5707761888
 31
0.0
 11
4.1037732794
 21
-21.4570511871
 31
0.0
  0
SPLINE
  5
646
100
AcDbEntity
  8
ASSI
100
AcDbSpline
 62
253
  6
CONTINUOUS
 70
0
 71
3
 72
9
 73
5
 74
3
 42
0.0000001
 43
0.0000001
 44
0.0000000001
 12
-0.0313295235
 22
0.1091268938
 32
0.0
 13
-0.0924413689
 23
0.0659151827
 33
0.0
 40
0.0
 40
0.0
 40
0.0
 40
0.0
 40
0.518651304
 40
1.0
 40
1.0
 40
1.0
 40
1.0
 10
4.1037732794
 20
-21.4570511871
 30
0.0
 10
4.0983569134
 20
-21.4381849185
 30
0.0
 10
4.0828044488
 20
-21.4029557508
 30
0.0
 10
4.0562321656
 20
-21.3746758504
 30
0.0
 10
4.0413999881
 20
-21.364099788
 30
0.0
 11
4.1037732794
 21
-21.4570511871
 31
0.0
 11
4.0792599792
 21
-21.4035109581
 31
0.0
 11
4.0413999881
 21
-21.364099788
 31
0.0
  0
SPLINE
  5
647
100
AcDbEntity
  8
ASSI
100
AcDbSpline
 62
253
  6
CONTINUOUS
 70
0
 71
3
 72
11
 73
7
 74
5
 42
0.0000001
 43
0.0000001
 44
0.0000000001
 12
0.0830519921
 22
0.0430015322
 32
0.0
 13
0.0000129856
 23
0.0935241412
 33
0.0
 40
0.0
 40
0.0
 40
0.0
 40
0.0
 40
0.3007082987
 40
0.5638121155
 40
0.79233051
 40
1.0
 40
1.0
 40
1.0
 40
1.0
 10
4.1139380442
 20
-21.6366149424
 30
0.0
 10
4.122262852
 20
-21.6323046365
 30
0.0
 10
4.1373176792
 20
-21.6230448106
 30
0.0
 10
4.1556079162
 20
-21.606130674
 30
0.0
 10
4.1672776984
 20
-21.5873197629
 30
0.0
 10
4.170069123
 20
-21.5736230725
 30
0.0
 10
4.1700700219
 20
-21.5671490356
 30
0.0
 11
4.1139380442
 21
-21.6366149424
 31
0.0
 11
4.1377415653
 21
-21.6216375316
 31
0.0
 11
4.1555056773
 21
-21.604610522
 31
0.0
 11
4.1663938907
 21
-21.5862200726
 31
0.0
 11
4.1700700219
 21
-21.5671490356
 31
0.0
  0
SPLINE
  5
648
100
AcDbEntity
  8
ASSI
100
AcDbSpline
 62
253
  6
CONTINUOUS
 70
0
 71
3
 72
11
 73
7
 74
5
 42
0.0000001
 43
0.0000001
 44
0.0000000001
 12
0.0830519927
 22
0.043001428
 32
0.0
 13
0.0000129856
 23
0.0935240939
 33
0.0
 40
0.0
 40
0.0
 40
0.0
 40
0.0
 40
0.300708284
 40
0.5638120708
 40
0.7923304554
 40
1.0
 40
1.0
 40
1.0
 40
1.0
 10
4.1139380442
 20
-21.9765585372
 30
0.0
 10
4.1222628516
 20
-21.972248242
 30
0.0
 10
4.1373176786
 20
-21.9629884351
 30
0.0
 10
4.1556079165
 20
-21.9460743197
 30
0.0
 10
4.1672776994
 20
-21.9272634208
 30
0.0
 10
4.170069123
 20
-21.9135667355
 30
0.0
 10
4.1700700219
 20
-21.9070927002
 30
0.0
 11
4.1139380442
 21
-21.9765585372
 31
0.0
 11
4.1377415654
 21
-21.961581156
 31
0.0
 11
4.1555056771
 21
-21.9445541681
 31
0.0
 11
4.1663938904
 21
-21.9261637323
 31
0.0
 11
4.1700700219
 21
-21.9070927002
 31
0.0
  0
SPLINE
  5
649
100
AcDbEntity
  8
ASSI
100
AcDbSpline
 62
253
  6
CONTINUOUS
 70
0
 71
3
 72
11
 73
7
 74
5
 42
0.0000001
 43
0.0000001
 44
0.0000000001
 12
0.0017322571
 22
-0.1228448832
 32
0.0
 13
-0.1081510858
 23
-0.0582855788
 33
0.0
 40
0.0
 40
0.0
 40
0.0
 40
0.0
 40
0.2880667099
 40
0.5480551474
 40
0.7818193646
 40
1.0
 40
1.0
 40
1.0
 40
1.0
 10
4.0798061003
 20
-22.0375255438
 30
0.0
 10
4.0799724355
 20
-22.0493213842
 30
0.0
 10
4.0783496091
 20
-22.0718674364
 30
0.0
 10
4.0692521884
 20
-22.1028882862
 30
0.0
 10
4.0535375025
 20
-22.1279578
 30
0.0
 10
4.0387667884
 20
-22.139833965
 30
0.0
 10
4.0309012976
 20
-22.1440728933
 30
0.0
 11
4.0798061003
 21
-22.0375255438
 31
0.0
 11
4.0769529403
 21
-22.0728013875
 31
0.0
 11
4.067518223
 21
-22.1033176242
 31
0.0
 11
4.0519107266
 21
-22.1274261511
 31
0.0
 11
4.0309012976
 21
-22.1440728933
 31
0.0
  0
SPLINE
  5
64A
100
AcDbEntity
  8
ASSI
100
AcDbSpline
 62
7
  6
CONTINUOUS
 70
0
 71
3
 72
11
 73
7
 74
5
 42
0.0000001
 43
0.0000001
 44
0.0000000001
 12
0.3127343168
 22
-0.0698517
 32
0.0
 13
0.3197544845
 23
-0.0209542967
 33
0.0
 40
0.0
 40
0.0
 40
0.0
 40
0.0
 40
0.2600258425
 40
0.5362385583
 40
0.7904459356
 40
1.0
 40
1.0
 40
1.0
 40
1.0
 10
2.339590936
 20
-21.7477652908
 30
0.0
 10
2.3666972708
 20
-21.7538197065
 30
0.0
 10
2.4222147723
 20
-21.767940126
 30
0.0
 10
2.5042915771
 20
-21.7877789451
 30
0.0
 10
2.5817492971
 20
-21.8035479939
 30
0.0
 10
2.6309155991
 20
-21.8103662091
 30
0.0
 10
2.653250883
 20
-21.8118298951
 30
0.0
 11
2.339590936
 21
-21.7477652908
 31
0.0
 11
2.4205773461
 21
-21.767358284
 31
0.0
 11
2.5066973723
 21
-21.7877863915
 31
0.0
 11
2.5866101725
 21
-21.8035787577
 31
0.0
 11
2.653250883
 21
-21.8118298951
 31
0.0
  0
SPLINE
  5
64B
100
AcDbEntity
  8
ASSI
100
AcDbSpline
 62
253
  6
CONTINUOUS
 70
0
 71
3
 72
11
 73
7
 74
5
 42
0.0000001
 43
0.0000001
 44
0.0000000001
 12
0.250781152
 22
-0.1310694383
 32
0.0
 13
0.1497892018
 23
-0.2400699458
 33
0.0
 40
0.0
 40
0.0
 40
0.0
 40
0.0
 40
0.2433257346
 40
0.5160727117
 40
0.7803776914
 40
1.0
 40
1.0
 40
1.0
 40
1.0
 10
1.7068007266
 20
-22.4930784568
 30
0.0
 10
1.7271412293
 20
-22.5037093126
 30
0.0
 10
1.7682828914
 20
-22.530054431
 30
0.0
 10
1.8258056631
 20
-22.5761641333
 30
0.0
 10
1.8767407017
 20
-22.6262817664
 30
0.0
 10
1.9054773954
 20
-22.6620821926
 30
0.0
 10
1.9164430788
 20
-22.6796570978
 30
0.0
 11
1.7068007266
 21
-22.4930784568
 31
0.0
 11
1.7652479913
 21
-22.5294745767
 31
0.0
 11
1.8255418272
 21
-22.5776530196
 31
0.0
 11
1.8786034521
 21
-22.6303592863
 31
0.0
 11
1.9164430788
 21
-22.6796570978
 31
0.0
  0
SPLINE
  5
64C
100
AcDbEntity
  8
ASSI
100
AcDbSpline
 62
253
  6
CONTINUOUS
 70
0
 71
3
 72
11
 73
7
 74
5
 42
0.0000001
 43
0.0000001
 44
0.0000000001
 12
0.257504789
 22
-0.1287523946
 32
0.0
 13
0.2592593051
 23
0.1251819004
 33
0.0
 40
0.0
 40
0.0
 40
0.0
 40
0.0
 40
0.2347796704
 40
0.4987463381
 40
0.7633868342
 40
1.0
 40
1.0
 40
1.0
 40
1.0
 10
1.6181038141
 20
-22.7246183482
 30
0.0
 10
1.6382561106
 20
-22.7346944965
 30
0.0
 10
1.6845340698
 20
-22.749145988
 30
0.0
 10
1.7578344042
 20
-22.7562596045
 30
0.0
 10
1.8313697722
 20
-22.7497510728
 30
0.0
 10
1.8780087894
 20
-22.7357148787
 30
0.0
 10
1.8984568444
 20
-22.7258416501
 30
0.0
 11
1.6181038141
 21
-22.7246183482
 31
0.0
 11
1.682182978
 21
-22.7461277673
 31
0.0
 11
1.7577798633
 21
-22.7539038624
 31
0.0
 11
1.8336366579
 21
-22.7467886254
 31
0.0
 11
1.8984568444
 21
-22.7258416501
 31
0.0
  0
SPLINE
  5
64D
100
AcDbEntity
  8
ASSI
100
AcDbSpline
 62
253
  6
CONTINUOUS
 70
0
 71
3
 72
11
 73
7
 74
5
 42
0.0000001
 43
0.0000001
 44
0.0000000001
 12
0.257504789
 22
-0.1287523945
 32
0.0
 13
0.2592593051
 23
0.1251819003
 33
0.0
 40
0.0
 40
0.0
 40
0.0
 40
0.0
 40
0.2347796703
 40
0.4987463379
 40
0.763386834
 40
1.0
 40
1.0
 40
1.0
 40
1.0
 10
1.6181038141
 20
-23.0418871486
 30
0.0
 10
1.6382561106
 20
-23.0519632968
 30
0.0
 10
1.6845340697
 20
-23.0664147883
 30
0.0
 10
1.7578344042
 20
-23.0735284048
 30
0.0
 10
1.8313697721
 20
-23.0670198731
 30
0.0
 10
1.8780087894
 20
-23.0529836791
 30
0.0
 10
1.8984568444
 20
-23.0431104505
 30
0.0
 11
1.6181038141
 21
-23.0418871486
 31
0.0
 11
1.682182978
 21
-23.0633965676
 31
0.0
 11
1.7577798632
 21
-23.0711726628
 31
0.0
 11
1.8336366578
 21
-23.0640574258
 31
0.0
 11
1.8984568444
 21
-23.0431104505
 31
0.0
  0
SPLINE
  5
64E
100
AcDbEntity
  8
ASSI
100
AcDbSpline
 62
253
  6
CONTINUOUS
 70
0
 71
3
 72
11
 73
7
 74
5
 42
0.0000001
 43
0.0000001
 44
0.0000000001
 12
0.1595996113
 22
0.0813941417
 32
0.0
 13
0.0001015022
 23
0.1791564454
 33
0.0
 40
0.0
 40
0.0
 40
0.0
 40
0.0
 40
0.3017267301
 40
0.5645973623
 40
0.7926900064
 40
1.0
 40
1.0
 40
1.0
 40
1.0
 10
-2.4967786861
 20
26.2083192223
 30
0.0
 10
-2.4807268631
 20
26.2165054851
 30
0.0
 10
-2.4517163282
 20
26.234064095
 30
0.0
 10
-2.4165233682
 20
26.266323704
 30
0.0
 10
-2.3939892811
 20
26.302184118
 30
0.0
 10
-2.3886274928
 20
26.3283841801
 30
0.0
 10
-2.3886204787
 20
26.3407644873
 30
0.0
 11
-2.4967786861
 21
26.2083192223
 31
0.0
 11
-2.4508462321
 21
26.2368199756
 31
0.0
 11
-2.4166859768
 21
26.2692393168
 31
0.0
 11
-2.3957032155
 21
26.3043051492
 31
0.0
 11
-2.3886204787
 21
26.3407644873
 31
0.0
  0
SPLINE
  5
64F
100
AcDbEntity
  8
ASSI
100
AcDbSpline
 62
253
  6
CONTINUOUS
 70
0
 71
3
 72
11
 73
7
 74
5
 42
0.0000001
 43
0.0000001
 44
0.0000000001
 12
0.1595996113
 22
0.0813941417
 32
0.0
 13
0.0001015022
 23
0.1791564454
 33
0.0
 40
0.0
 40
0.0
 40
0.0
 40
0.0
 40
0.3017267301
 40
0.5645973623
 40
0.7926900064
 40
1.0
 40
1.0
 40
1.0
 40
1.0
 10
3.1123776296
 20
23.4037410645
 30
0.0
 10
3.1284294525
 20
23.4119273272
 30
0.0
 10
3.1574399874
 20
23.4294859372
 30
0.0
 10
3.1926329475
 20
23.4617455462
 30
0.0
 10
3.2151670346
 20
23.4976059602
 30
0.0
 10
3.2205288229
 20
23.5238060223
 30
0.0
 10
3.220535837
 20
23.5361863295
 30
0.0
 11
3.1123776296
 21
23.4037410645
 31
0.0
 11
3.1583100835
 21
23.4322418177
 31
0.0
 11
3.1924703389
 21
23.4646611589
 31
0.0
 11
3.2134531002
 21
23.4997269914
 31
0.0
 11
3.220535837
 21
23.5361863295
 31
0.0
  0
SPLINE
  5
650
100
AcDbEntity
  8
ASSI
100
AcDbSpline
 62
253
  6
CONTINUOUS
 70
0
 71
3
 72
11
 73
7
 74
5
 42
0.0000001
 43
0.0000001
 44
0.0000000001
 12
0.4026003488
 22
0.1952390652
 32
0.0
 13
0.4002143527
 23
-0.2000844956
 33
0.0
 40
0.0
 40
0.0
 40
0.0
 40
0.0
 40
0.27852181
 40
0.5344491108
 40
0.7722103202
 40
1.0
 40
1.0
 40
1.0
 40
1.0
 10
0.7547009523
 20
26.4556005606
 30
0.0
 10
0.7920786116
 20
26.4737266732
 30
0.0
 10
0.8667830486
 20
26.5029221598
 30
0.0
 10
0.9810354882
 20
26.5232455069
 30
0.0
 10
1.0895452724
 20
26.5170060491
 30
0.0
 10
1.1563393188
 20
26.4945794782
 30
0.0
 10
1.1867275519
 20
26.4793870838
 30
0.0
 11
0.7547009523
 21
26.4556005606
 31
0.0
 11
0.8711281054
 21
26.5000474542
 31
0.0
 11
0.9840475284
 21
26.519084515
 31
0.0
 11
1.0902039658
 21
26.512120543
 31
0.0
 11
1.1867275519
 21
26.4793870838
 31
0.0
  0
ELLIPSE
  5
651
100
AcDbEntity
  8
RACCORDO
100
AcDbEllipse
 62
7
  6
CONTINUOUS
 10
-13.6113790726
 20
23.1469987622
 30
0.0
 11
-0.0893248918
 21
0.1791819189
 31
0.0
 40
0.611934274
 41
-0.6831563312
 42
0.0353416601
  0
ELLIPSE
  5
652
100
AcDbEntity
  8
RACCORDO
100
AcDbEllipse
 62
7
  6
CONTINUOUS
 10
-0.8396882123
 20
16.5418803171
 30
0.0
 11
1.1587552967
 21
0.8082340163
 31
0.0
 40
0.0984623514
 41
-1.5081049473
 42
-1.3360082989
  0
ELLIPSE
  5
653
100
AcDbEntity
  8
RACCORDO
100
AcDbEllipse
 62
7
  6
CONTINUOUS
 10
-0.6318424518
 20
16.6572304518
 30
0.0
 11
-0.0892524615
 21
0.1791179969
 31
0.0
 40
0.6124818573
 41
-2.0729142985
 42
-0.6834093579
  0
ELLIPSE
  5
654
100
AcDbEntity
  8
RACCORDO
100
AcDbEllipse
 62
7
  6
CONTINUOUS
 10
-11.2228300931
 20
-6.6664955676
 30
0.0
 11
0.2960899748
 21
0.0768591039
 31
0.0
 40
0.6281312095
 41
-1.1920049671
 42
-0.947026304
  0
ELLIPSE
  5
655
100
AcDbEntity
  8
RACCORDO
100
AcDbEllipse
 62
7
  6
CONTINUOUS
 10
9.6014646129
 20
-3.0829982586
 30
0.0
 11
0.0996536137
 21
0.0142079284
 31
0.0
 40
0.585313041
 41
-0.8686551737
 42
-0.0831124169
  0
ELLIPSE
  5
656
100
AcDbEntity
  8
RACCORDO
100
AcDbEllipse
 62
7
  6
CONTINUOUS
 10
13.278419875
 20
-0.5600141484
 30
0.0
 11
0.0996536137
 21
0.0142079284
 31
0.0
 40
0.585313041
 41
-2.4394515005
 42
-0.8686551737
  0
ELLIPSE
  5
657
100
AcDbEntity
  8
RACCORDO
100
AcDbEllipse
 62
7
  6
CONTINUOUS
 10
13.1016431797
 20
-1.0699146385
 30
0.0
 11
-0.0440469829
 21
0.0905496731
 31
0.0
 40
0.6108915608
 41
-3.0510220769
 42
-2.2432641222
  0
ELLIPSE
  5
658
100
AcDbEntity
  8
RACCORDO
100
AcDbEllipse
 62
7
  6
CONTINUOUS
 10
9.9903733425
 20
-3.2047473471
 30
0.0
 11
-0.0440469829
 21
0.0905496731
 31
0.0
 40
0.6108915608
 41
2.4691248582
 42
4.039921185
  0
ELLIPSE
  5
659
100
AcDbEntity
  8
ASSI
100
AcDbEllipse
 62
7
  6
CONTINUOUS
 10
4.250411964
 20
-19.8668704726
 30
0.0
 11
-0.2237009107
 21
0.4473351135
 31
0.0
 40
0.6121897086
 41
-3.1223332426
 42
-2.2557347926
  0
ELLIPSE
  5
65A
100
AcDbEntity
  8
ASSI
100
AcDbEllipse
 62
7
  6
CONTINUOUS
 10
4.250411964
 20
18.0346772339
 30
0.0
 11
-0.2235807756
 21
0.4472283268
 31
0.0
 40
0.6125552124
 41
-2.255296188
 42
-0.6848044477
  0
ELLIPSE
  5
65B
100
AcDbEntity
  8
RACCORDO
100
AcDbEllipse
 62
7
  6
CONTINUOUS
 10
8.7085868098
 20
-13.4742091494
 30
0.0
 11
-0.1316537962
 21
0.2729401056
 31
0.0
 40
0.6094565619
 41
-0.6679901581
 42
-0.1094228634
  0
ELLIPSE
  5
65C
100
AcDbEntity
  8
ASSI
100
AcDbEllipse
 62
7
  6
CONTINUOUS
 10
-2.4776918226
 20
23.0009091042
 30
0.0
 11
-0.1118504554
 21
0.2236675568
 31
0.0
 40
0.6121897086
 41
-0.6846338794
 42
-0.0194291938
  0
ELLIPSE
  5
65D
100
AcDbEntity
  8
RACCORDO
100
AcDbEllipse
 62
7
  6
CONTINUOUS
 10
8.7265754629
 20
-13.483203476
 30
0.0
 11
-0.1312734953
 21
0.2726279052
 31
0.0
 40
0.6112559224
 41
-2.2380176789
 42
-0.6687366997
  0
ELLIPSE
  5
65E
100
AcDbEntity
  8
RACCORDO
100
AcDbEllipse
 62
7
  6
CONTINUOUS
 10
8.7265754629
 20
21.3169823621
 30
0.0
 11
-0.1316537962
 21
0.2729401056
 31
0.0
 40
0.6094565619
 41
-3.0319838079
 42
-2.2403018325
  0
ELLIPSE
  5
65F
100
AcDbEntity
  8
ASSI
100
AcDbEllipse
 62
7
  6
CONTINUOUS
 10
-3.9873551087
 20
23.7557407473
 30
0.0
 11
-0.1117903878
 21
0.2236141634
 31
0.0
 40
0.6125552124
 41
-2.255296188
 42
-0.6848044477
  0
ELLIPSE
  5
660
100
AcDbEntity
  8
ASSI
100
AcDbEllipse
 62
7
  6
CONTINUOUS
 10
8.841642562
 20
21.5338955368
 30
0.0
 11
0.4349639225
 21
0.9005141702
 31
0.0
 40
0.6016116119
 41
-0.8943064336
 42
-0.6613938699
  0
ELLIPSE
  5
661
100
AcDbEntity
  8
ASSI
100
AcDbEllipse
 62
7
  6
CONTINUOUS
 10
8.841642562
 20
-15.2293973122
 30
0.0
 11
0.4349639225
 21
0.9005141702
 31
0.0
 40
0.6016116119
 41
-1.1272189973
 42
-0.8943064336
  0
ELLIPSE
  5
662
100
AcDbEntity
  8
ASSI
100
AcDbEllipse
 62
7
  6
CONTINUOUS
 10
9.0013334919
 20
-15.3092427771
 30
0.0
 11
0.9927147821
 21
0.620457446
 31
0.0
 40
0.0764819879
 41
-2.3927159682
 42
-1.0722854976
  0
ELLIPSE
  5
663
100
AcDbEntity
  8
ASSI
100
AcDbEllipse
 62
7
  6
CONTINUOUS
 10
-2.7384583618
 20
27.3239459988
 30
0.0
 11
1.004787277
 21
0.6140102217
 31
0.0
 40
0.0864918533
 41
0.0545281916
 42
0.7212730538
  0
ELLIPSE
  5
664
100
AcDbEntity
  8
ASSI
100
AcDbEllipse
 62
7
  6
CONTINUOUS
 10
0.8594119911
 20
-21.9184957414
 30
0.0
 11
0.220014872
 21
0.1791173313
 31
0.0
 40
0.6627826692
 41
-1.8038058062
 42
-1.2976603231
  0
ELLIPSE
  5
665
100
AcDbEntity
  8
ASSI
100
AcDbEllipse
 62
7
  6
CONTINUOUS
 10
1.2681429745
 20
25.561459258
 30
0.0
 11
0.2495017023
 21
-0.0599821937
 31
0.0
 40
0.2630210944
 41
-0.7135232271
 42
0.0636829494
  0
ELLIPSE
  5
666
100
AcDbEntity
  8
ASSI
100
AcDbEllipse
 62
7
  6
CONTINUOUS
 10
-2.7742777981
 20
25.1731719504
 30
0.0
 11
0.3856611795
 21
-0.0054197667
 31
0.0
 40
0.4892375088
 41
-0.7610696355
 42
0.0068059907
  0
ELLIPSE
  5
667
100
AcDbEntity
  8
ASSI
100
AcDbEllipse
 62
7
  6
CONTINUOUS
 10
2.8348785175
 20
22.3685937926
 30
0.0
 11
0.3856611795
 21
-0.0054197667
 31
0.0
 40
0.4892375088
 41
-0.7610696355
 42
0.0068059907
  0
ELLIPSE
  5
668
100
AcDbEntity
  8
RACCORDO
100
AcDbEllipse
 62
7
  6
CONTINUOUS
 10
-0.280564999
 20
16.4815917254
 30
0.0
 11
-0.0893248918
 21
0.1791819189
 31
0.0
 40
0.611934274
 41
-0.6831563312
 42
0.0366218912
  0
ELLIPSE
  5
669
100
AcDbEntity
  8
ASSI
100
AcDbEllipse
 62
7
  6
CONTINUOUS
 10
9.0013334919
 20
21.4540500719
 30
0.0
 11
-0.7356038977
 21
1.2035991204
 31
0.0
 40
0.5552491559
 41
4.9036048137
 42
6.2240352843
  0
ELLIPSE
  5
66A
100
AcDbEntity
  8
RACCORDO
100
AcDbEllipse
 62
7
  6
CONTINUOUS
 10
-13.9626565254
 20
23.3226374886
 30
0.0
 11
-0.0892524615
 21
0.1791179969
 31
0.0
 40
0.6124818573
 41
-2.2255365712
 42
-0.6834093579
  0
ELLIPSE
  5
66B
100
AcDbEntity
  8
ASSI
100
AcDbEllipse
 62
7
  6
CONTINUOUS
 10
15.2891900431
 20
29.3170947608
 30
0.0
 11
18.2927339069
 21
9.4748417608
 31
0.0
 40
0.0170707209
 41
-2.6536573066
 42
-2.3141694431
  0
ELLIPSE
  5
66C
100
AcDbEntity
  8
ASSI
100
AcDbEllipse
 62
7
  6
CONTINUOUS
 10
15.2891900431
 20
29.3170947608
 30
0.0
 11
18.2927339069
 21
9.4748417608
 31
0.0
 40
0.0170707209
 41
2.2964861198
 42
2.6359739833
  0
ELLIPSE
  5
66D
100
AcDbEntity
  8
ASSI
100
AcDbEllipse
 62
7
  6
CONTINUOUS
 10
3.5698252102
 20
17.6972243398
 30
0.0
 11
41.2152542262
 21
22.501943358
 31
0.0
 40
0.0081048063
 41
1.5667140536
 42
1.5886117747
  0
ELLIPSE
  5
66E
100
AcDbEntity
  8
ASSI
100
AcDbEllipse
 62
7
  6
CONTINUOUS
 10
0.8594119911
 20
17.7781558196
 30
0.0
 11
0.249929385
 21
0.0111824824
 31
0.0
 40
0.5313301283
 41
-2.3799630874
 42
-0.8266200532
  0
ELLIPSE
  5
66F
100
AcDbEntity
  8
ASSI
100
AcDbEllipse
 62
7
  6
CONTINUOUS
 10
-11.727088714
 20
24.0714061721
 30
0.0
 11
0.249929385
 21
0.0111824824
 31
0.0
 40
0.5313301283
 41
-2.3799630874
 42
-0.8266200532
  0
ELLIPSE
  5
670
100
AcDbEntity
  8
ASSI
100
AcDbEllipse
 62
7
  6
CONTINUOUS
 10
2.4795862904
 20
17.7205619193
 30
0.0
 11
0.249929385
 21
0.0111824824
 31
0.0
 40
0.5313301283
 41
-2.3799630874
 42
-1.125412988
  0
ELLIPSE
  5
671
100
AcDbEntity
  8
ASSI
100
AcDbEllipse
 62
7
  6
CONTINUOUS
 10
0.459886968
 20
18.7304115805
 30
0.0
 11
0.249929385
 21
0.0111824824
 31
0.0
 40
0.5313301283
 41
3.117765999
 42
3.9032222197
  0
ELLIPSE
  5
672
100
AcDbEntity
  8
ASSI
100
AcDbEllipse
 62
7
  6
CONTINUOUS
 10
-12.1266137371
 20
25.0236619331
 30
0.0
 11
0.249929385
 21
0.0111824824
 31
0.0
 40
0.5313301283
 41
3.118062645
 42
3.9032222197
  0
ELLIPSE
  5
673
100
AcDbEntity
  8
ASSI
100
AcDbEllipse
 62
7
  6
CONTINUOUS
 10
-10.1069144147
 20
24.0138122719
 30
0.0
 11
0.249929385
 21
0.0111824824
 31
0.0
 40
0.5313301283
 41
-2.3799630874
 42
-0.8266200532
  0
ELLIPSE
  5
674
100
AcDbEntity
  8
ASSI
100
AcDbEllipse
 62
7
  6
CONTINUOUS
 10
2.4795862904
 20
-21.5214761099
 30
0.0
 11
0.220014872
 21
0.1791173313
 31
0.0
 40
0.6627826692
 41
-2.8510033574
 42
-2.6599685648
  0
ELLIPSE
  5
675
100
AcDbEntity
  8
ASSI
100
AcDbEllipse
 62
7
  6
CONTINUOUS
 10
0.665847705
 20
17.8749379626
 30
0.0
 11
0.249929385
 21
0.0111824824
 31
0.0
 40
0.5313301283
 41
3.1177659981
 42
3.9032222197
  0
ELLIPSE
  5
676
100
AcDbEntity
  8
ASSI
100
AcDbEllipse
 62
7
  6
CONTINUOUS
 10
-11.9206530001
 20
24.1681883152
 30
0.0
 11
0.249929385
 21
0.0111824824
 31
0.0
 40
0.5313301283
 41
3.1177659981
 42
3.9032222197
  0
ELLIPSE
  5
677
100
AcDbEntity
  8
ASSI
100
AcDbEllipse
 62
7
  6
CONTINUOUS
 10
-4.8625933833
 20
22.1065203431
 30
0.0
 11
0.199943508
 21
0.008945986
 31
0.0
 40
0.5313301283
 41
-2.3799630874
 42
-0.8266200532
  0
ELLIPSE
  5
678
100
AcDbEntity
  8
ASSI
100
AcDbEllipse
 62
7
  6
CONTINUOUS
 10
-7.1532417804
 20
23.2518445416
 30
0.0
 11
0.199943508
 21
0.008945986
 31
0.0
 40
0.5313301283
 41
3.1180383302
 42
3.9032222197
  0
ELLIPSE
  5
679
100
AcDbEntity
  8
ASSI
100
AcDbEllipse
 62
7
  6
CONTINUOUS
 10
-1.150282782
 20
20.2503650425
 30
0.0
 11
0.199943508
 21
0.008945986
 31
0.0
 40
0.5313301283
 41
-2.3799630874
 42
-0.8266200532
  0
ELLIPSE
  5
67A
100
AcDbEntity
  8
ASSI
100
AcDbEllipse
 62
7
  6
CONTINUOUS
 10
-3.4409311792
 20
21.395689241
 30
0.0
 11
0.199943508
 21
0.008945986
 31
0.0
 40
0.5313301283
 41
3.1180383302
 42
3.9032222197
  0
ENDSEC
  0
SECTION
  2
OBJECTS
  0
DICTIONARY
  5
C
100
AcDbDictionary
280
0
281
1
  3
ACAD_GROUP
350
D
  3
ACAD_MLINESTYLE
350
17
  3
ACAD_LAYOUT
350
1A
  3
ACAD_PLOTSETTINGS
350
19
  3
ACAD_PLOTSTYLENAME
350
E
  0
DICTIONARY
  5
D
102
{ACAD_REACTORS
330
C
102
}
100
AcDbDictionary
280
0
281
1
  0
ACDBDICTIONARYWDFLT
  5
E
102
{ACAD_REACTORS
330
C
102
}
100
AcDbDictionary
281
1
  3
Normal
350
F
100
AcDbDictionaryWithDefault
340
F
  0
DICTIONARY
  5
17
102
{ACAD_REACTORS
330
C
102
}
100
AcDbDictionary
280
0
281
1
  3
Standard
350
18
  0
DICTIONARY
  5
19
102
{ACAD_REACTORS
330
C
102
}
100
AcDbDictionary
281
1
  0
DICTIONARY
  5
1A
102
{ACAD_REACTORS
330
C
102
}
100
AcDbDictionary
281
1
  3
Model
350
67B
  3
Layout1
350
67C
  0
ACDBPLACEHOLDER
  5
F
102
{ACAD_REACTORS
330
E
102
}
  0
MLINESTYLE
  5
18
102
{ACAD_REACTORS
330
17
102
}
100
AcDbMlineStyle
  2
STANDARD
 70
0
  3

 62
256
 51
90.0
 52
90.0
 71
2
 49
0.5
 62
256
  6
BYLAYER
 49
-0.5
 62
256
  6
BYLAYER
  0
LAYOUT
  5
67B
102
{ACAD_REACTORS
330
1A
102
}
100
AcDbPlotSettings
  1

  2
none_device
  4
ISO_A4_(297.00_x_210.00_MM)
  6

 40
0.0
 41
0.0
 42
0.0
 43
0.0
 44
297.0
 45
210.0
 46
0.0
 47
0.0
 48
0.0
 49
0.0
140
0.0
141
0.0
142
1.0
143
1.0
 70
1024
 72
1
 73
0
 74
0
  7

 75
0
147
1.0
148
0.0
149
0.0
100
AcDbLayout
  1
Model
 70
0
 71
0
 10
0.0
 20
0.0
 11
297.0
 21
210.0
 12
0.0
 22
0.0
 32
0.0
 14
0.0
 24
0.0
 34
0.0
 15
0.0
 25
0.0
 35
0.0
146
0.0
 13
0.0
 23
0.0
 33
0.0
 16
1.0
 26
0.0
 36
0.0
 17
0.0
 27
1.0
 37
0.0
 76
0
330
21B
345
0
346
0
  0
LAYOUT
  5
67C
102
{ACAD_REACTORS
330
1A
102
}
100
AcDbPlotSettings
  1

  2
none_device
  4
ISO_A4_(297.00_x_210.00_MM)
  6

 40
0.0
 41
0.0
 42
0.0
 43
0.0
 44
297.0
 45
210.0
 46
0.0
 47
0.0
 48
0.0
 49
0.0
140
0.0
141
0.0
142
1.0
143
1.0
 70
0
 72
1
 73
0
 74
0
  7

 75
0
147
1.0
148
0.0
149
0.0
100
AcDbLayout
  1
Layout1
 70
0
 71
1
 10
0.0
 20
0.0
 11
297.0
 21
210.0
 12
0.0
 22
0.0
 32
0.0
 14
0.0
 24
0.0
 34
0.0
 15
0.0
 25
0.0
 35
0.0
146
0.0
 13
0.0
 23
0.0
 33
0.0
 16
1.0
 26
0.0
 36
0.0
 17
0.0
 27
1.0
 37
0.0
 76
0
330
21C
345
0
346
0
  0
ENDSEC
  0
EOF
