  0
SECTION
  2
HEADER
  9
$ACADVER
  1
AC1015
  9
$DWGCODEPAGE
  3
ANSI_1252
  9
$EXTMAX
 10
297.0
 20
210.0
 30
0.0
  9
$EXTMIN
 10
0.0
 20
0.0
 30
0.0
  9
$LIMMIN
 10
0.0
 20
0.0
  9
$LIMMAX
 10
297.0
 20
210.0
  9
$VIEWCTR
 10
148.5
 20
105.0
  9
$VIEWSIZE
 40
210.0
  9
$CLAYER
  8
0
  9
$LTSCALE
 40
16.335
  9
$CELTYPE
  6
BYLAYER
  9
$DIMSCALE
 40
1.0
  9
$DIMASZ
 40
3.0
  9
$DIMEXO
 40
1.85625
  9
$DIMDLI
 40
11.286
  9
$DIMEXE
 40
5.346
  9
$DIMCEN
 40
2.673
  9
$DIMLFAC
 40
1.0
  9
$DIMBLK
  1
_FILLED
  9
$DIMTXT
 40
3.0
  9
$DIMTOL
 70
1
  9
$DIMLIM
 70
0
  9
$DIMTFAC
 40
1.0
  9
$DIMTP
 40
0.01
  9
$DIMTM
 40
0.01
  9
$PDMODE
 70
3
  9
$PDSIZE
 40
3.0
  9
$HANDSEED
  5
541
  9
$TILEMODE
 70
1
  9
$MEASUREMENT
 70
1
  9
$INSUNITS
 70
4
  0
ENDSEC
  0
SECTION
  2
CLASSES
  0
CLASS
  1
ACDBDICTIONARYWDFLT
  2
AcDbDictionaryWithDefault
  3
AutoCAD 2000
 90
0
280
0
281
0
  0
CLASS
  1
ACDBPLACEHOLDER
  2
AcDbPlaceHolder
  3
AutoCAD 2000
 90
0
280
0
281
0
  0
CLASS
  1
LAYOUT
  2
AcDbLayout
  3
AutoCAD 2000
 90
0
280
0
281
0
  0
ENDSEC
  0
SECTION
  2
TABLES
  0
TABLE
  2
VPORT
  5
8
100
AcDbSymbolTable
 70
2
  0
VPORT
  5
1F4
100
AcDbSymbolTableRecord
100
AcDbViewportTableRecord
  2
*ACTIVE
 70
0
 10
0.0
 20
0.0
 11
1.0
 21
1.0
 12
148.5
 22
105.0
 13
0.0
 23
0.0
 14
1.0
 24
1.0
 15
0.0
 25
0.0
 16
0.0
 26
0.0
 36
1.0
 17
0.0
 27
0.0
 37
0.0
 40
210.0
 41
1.4142857143
 42
50.0
 43
0.0
 44
0.0
 50
0.0
 51
0.0
 71
0
 72
100
 73
1
 74
1
 75
0
 76
0
 77
0
 78
0
  0
ENDTAB
  0
TABLE
  2
LTYPE
  5
5
100
AcDbSymbolTable
 70
6
  0
LTYPE
  5
14
100
AcDbSymbolTableRecord
100
AcDbLinetypeTableRecord
  2
BYBLOCK
 70
0
  3

 72
65
 73
0
 40
0.0
  0
LTYPE
  5
15
100
AcDbSymbolTableRecord
100
AcDbLinetypeTableRecord
  2
BYLAYER
 70
0
  3

 72
65
 73
0
 40
0.0
  0
LTYPE
  5
16
100
AcDbSymbolTableRecord
100
AcDbLinetypeTableRecord
  2
CONTINUOUS
 70
64
  3
Solid line
 72
65
 73
0
 40
0.0
  0
LTYPE
  5
1F5
100
AcDbSymbolTableRecord
100
AcDbLinetypeTableRecord
  2
CENTER
 70
64
  3
____ _ ____ _ ____ _ ____ _ ____ _ ____ _ ____
 72
65
 73
4
 40
0.6
 49
0.375
 74
0
 49
-0.075
 74
0
 49
0.075
 74
0
 49
-0.075
 74
0
  0
LTYPE
  5
1F6
100
AcDbSymbolTableRecord
100
AcDbLinetypeTableRecord
  2
HIDDEN
 70
64
  3
- - - - - - - - - - - - - - - - - - - -
 72
65
 73
2
 40
0.2
 49
0.1
 74
0
 49
-0.1
 74
0
  0
LTYPE
  5
1F7
100
AcDbSymbolTableRecord
100
AcDbLinetypeTableRecord
  2
PHANTOM
 70
64
  3
_____ _ _ _____ _ _ _____ _ _ _____
 72
65
 73
6
 40
0.8
 49
0.45
 74
0
 49
-0.05
 74
0
 49
0.1
 74
0
 49
-0.05
 74
0
 49
0.1
 74
0
 49
-0.05
 74
0
  0
LTYPE
  5
1F8
100
AcDbSymbolTableRecord
100
AcDbLinetypeTableRecord
  2
DOT
 70
64
  3
. . . . . . . . . . . . . . . . . . . .
 72
65
 73
2
 40
0.2
 49
0.1
 74
0
 49
-0.1
 74
0
  0
LTYPE
  5
1F9
100
AcDbSymbolTableRecord
100
AcDbLinetypeTableRecord
  2
DASHED
 70
64
  3
- - - - - - - - - - - - - - - - - - - -
 72
65
 73
2
 40
0.2
 49
0.1
 74
0
 49
-0.1
 74
0
  0
ENDTAB
  0
TABLE
  2
LAYER
  5
2
100
AcDbSymbolTable
 70
36
  0
LAYER
  5
10
100
AcDbSymbolTableRecord
100
AcDbLayerTableRecord
  2
0
 70
0
 62
7
  6
CONTINUOUS
370
-3
390
F
  0
LAYER
  5
1FA
100
AcDbSymbolTableRecord
100
AcDbLayerTableRecord
  2
DEFAULT_1
 70
0
 62
7
  6
CENTER
370
-3
390
F
  0
LAYER
  5
1FB
100
AcDbSymbolTableRecord
100
AcDbLayerTableRecord
  2
DEFAULT_2
 70
0
 62
7
  6
HIDDEN
370
-3
390
F
  0
LAYER
  5
1FC
100
AcDbSymbolTableRecord
100
AcDbLayerTableRecord
  2
DEFAULT_3
 70
0
 62
7
  6
PHANTOM
370
-3
390
F
  0
LAYER
  5
1FD
100
AcDbSymbolTableRecord
100
AcDbLayerTableRecord
  2
ASSI
 70
0
 62
7
  6
CONTINUOUS
370
-3
390
F
  0
LAYER
  5
1FE
100
AcDbSymbolTableRecord
100
AcDbLayerTableRecord
  2
COLOR10
 70
0
 62
7
  6
CONTINUOUS
370
-3
390
F
  0
LAYER
  5
1FF
100
AcDbSymbolTableRecord
100
AcDbLayerTableRecord
  2
COLOR5
 70
0
 62
7
  6
CONTINUOUS
370
-3
390
F
  0
LAYER
  5
200
100
AcDbSymbolTableRecord
100
AcDbLayerTableRecord
  2
COLOR9
 70
0
 62
7
  6
CONTINUOUS
370
-3
390
F
  0
LAYER
  5
201
100
AcDbSymbolTableRecord
100
AcDbLayerTableRecord
  2
COLORE_MATERIALE
 70
0
 62
7
  6
CONTINUOUS
370
-3
390
F
  0
LAYER
  5
202
100
AcDbSymbolTableRecord
100
AcDbLayerTableRecord
  2
COORDINATE
 70
0
 62
7
  6
CONTINUOUS
370
-3
390
F
  0
LAYER
  5
203
100
AcDbSymbolTableRecord
100
AcDbLayerTableRecord
  2
COORD_ORIGINE
 70
0
 62
7
  6
CONTINUOUS
370
-3
390
F
  0
LAYER
  5
204
100
AcDbSymbolTableRecord
100
AcDbLayerTableRecord
  2
COPY_GEOMETRY
 70
0
 62
7
  6
CONTINUOUS
370
-3
390
F
  0
LAYER
  5
205
100
AcDbSymbolTableRecord
100
AcDbLayerTableRecord
  2
COPY_PUBLISH
 70
0
 62
7
  6
CONTINUOUS
370
-3
390
F
  0
LAYER
  5
206
100
AcDbSymbolTableRecord
100
AcDbLayerTableRecord
  2
COSMETIC
 70
0
 62
7
  6
CONTINUOUS
370
-3
390
F
  0
LAYER
  5
207
100
AcDbSymbolTableRecord
100
AcDbLayerTableRecord
  2
CURVE
 70
0
 62
7
  6
CONTINUOUS
370
-3
390
F
  0
LAYER
  5
208
100
AcDbSymbolTableRecord
100
AcDbLayerTableRecord
  2
DRAFT
 70
0
 62
7
  6
CONTINUOUS
370
-3
390
F
  0
LAYER
  5
209
100
AcDbSymbolTableRecord
100
AcDbLayerTableRecord
  2
IGES
 70
0
 62
7
  6
CONTINUOUS
370
-3
390
F
  0
LAYER
  5
20A
100
AcDbSymbolTableRecord
100
AcDbLayerTableRecord
  2
IMPORT_IGES
 70
0
 62
7
  6
CONTINUOUS
370
-3
390
F
  0
LAYER
  5
20B
100
AcDbSymbolTableRecord
100
AcDbLayerTableRecord
  2
INTFCLR_1
 70
0
 62
7
  6
CONTINUOUS
370
-3
390
F
  0
LAYER
  5
20C
100
AcDbSymbolTableRecord
100
AcDbLayerTableRecord
  2
INTFCLR_11371
 70
0
 62
7
  6
CONTINUOUS
370
-3
390
F
  0
LAYER
  5
20D
100
AcDbSymbolTableRecord
100
AcDbLayerTableRecord
  2
INTFCLR_118879
 70
0
 62
7
  6
CONTINUOUS
370
-3
390
F
  0
LAYER
  5
20E
100
AcDbSymbolTableRecord
100
AcDbLayerTableRecord
  2
INTFCLR_509
 70
0
 62
7
  6
CONTINUOUS
370
-3
390
F
  0
LAYER
  5
20F
100
AcDbSymbolTableRecord
100
AcDbLayerTableRecord
  2
INTF_15
 70
0
 62
7
  6
CONTINUOUS
370
-3
390
F
  0
LAYER
  5
210
100
AcDbSymbolTableRecord
100
AcDbLayerTableRecord
  2
INTF_16
 70
0
 62
7
  6
CONTINUOUS
370
-3
390
F
  0
LAYER
  5
211
100
AcDbSymbolTableRecord
100
AcDbLayerTableRecord
  2
INTF_2
 70
0
 62
7
  6
CONTINUOUS
370
-3
390
F
  0
LAYER
  5
212
100
AcDbSymbolTableRecord
100
AcDbLayerTableRecord
  2
INTF_6
 70
0
 62
7
  6
CONTINUOUS
370
-3
390
F
  0
LAYER
  5
213
100
AcDbSymbolTableRecord
100
AcDbLayerTableRecord
  2
NOTE
 70
0
 62
7
  6
CONTINUOUS
370
-3
390
F
  0
LAYER
  5
214
100
AcDbSymbolTableRecord
100
AcDbLayerTableRecord
  2
PIANI
 70
0
 62
7
  6
CONTINUOUS
370
-3
390
F
  0
LAYER
  5
215
100
AcDbSymbolTableRecord
100
AcDbLayerTableRecord
  2
PIANI_COSTRUZIONE
 70
0
 62
7
  6
CONTINUOUS
370
-3
390
F
  0
LAYER
  5
216
100
AcDbSymbolTableRecord
100
AcDbLayerTableRecord
  2
PIANI_ORIGINE
 70
0
 62
7
  6
CONTINUOUS
370
-3
390
F
  0
LAYER
  5
217
100
AcDbSymbolTableRecord
100
AcDbLayerTableRecord
  2
PIANI_RIFERIMENTO
 70
0
 62
7
  6
CONTINUOUS
370
-3
390
F
  0
LAYER
  5
218
100
AcDbSymbolTableRecord
100
AcDbLayerTableRecord
  2
PUNTI
 70
0
 62
7
  6
CONTINUOUS
370
-3
390
F
  0
LAYER
  5
219
100
AcDbSymbolTableRecord
100
AcDbLayerTableRecord
  2
RACCORDO
 70
0
 62
7
  6
CONTINUOUS
370
-3
390
F
  0
LAYER
  5
21A
100
AcDbSymbolTableRecord
100
AcDbLayerTableRecord
  2
RGB__255__126____0__
 70
0
 62
7
  6
CONTINUOUS
370
-3
390
F
  0
LAYER
  5
21B
100
AcDbSymbolTableRecord
100
AcDbLayerTableRecord
  2
SMUSSO
 70
0
 62
7
  6
CONTINUOUS
370
-3
390
F
  0
LAYER
  5
21C
100
AcDbSymbolTableRecord
100
AcDbLayerTableRecord
  2
SNAPLINE
 70
0
 62
7
  6
CONTINUOUS
370
-3
390
F
  0
LAYER
  5
21D
100
AcDbSymbolTableRecord
100
AcDbLayerTableRecord
  2
SUPERFICI
 70
0
 62
7
  6
CONTINUOUS
370
-3
390
F
  0
LAYER
  5
21E
100
AcDbSymbolTableRecord
100
AcDbLayerTableRecord
  2
SUPERFICI_SKEL
 70
0
 62
7
  6
CONTINUOUS
370
-3
390
F
  0
LAYER
  5
21F
100
AcDbSymbolTableRecord
100
AcDbLayerTableRecord
  2
TRASH
 70
0
 62
7
  6
CONTINUOUS
370
-3
390
F
  0
LAYER
  5
220
100
AcDbSymbolTableRecord
100
AcDbLayerTableRecord
  2
XSEC_DATUMS
 70
0
 62
7
  6
CONTINUOUS
370
-3
390
F
  0
ENDTAB
  0
TABLE
  2
STYLE
  5
3
100
AcDbSymbolTable
 70
1
  0
STYLE
  5
11
100
AcDbSymbolTableRecord
100
AcDbTextStyleTableRecord
  2
STANDARD
 70
0
 40
0.0
 41
0.8
 50
0.0
 71
0
 42
0.2
  3
txt
  4

  0
STYLE
  5
221
100
AcDbSymbolTableRecord
100
AcDbTextStyleTableRecord
  2
TEXTSTYLE_1
 70
0
 40
0.0
 41
0.8
 50
0.0
 71
0
 42
0.2
  3
gdt
  4

  0
ENDTAB
  0
TABLE
  2
VIEW
  5
6
100
AcDbSymbolTable
 70
0
  0
ENDTAB
  0
TABLE
  2
UCS
  5
7
100
AcDbSymbolTable
 70
0
  0
ENDTAB
  0
TABLE
  2
APPID
  5
9
100
AcDbSymbolTable
 70
1
  0
APPID
  5
222
100
AcDbSymbolTableRecord
100
AcDbRegAppTableRecord
  2
ACAD
 70
0
  0
ENDTAB
  0
TABLE
  2
BLOCK_RECORD
  5
1
100
AcDbSymbolTable
 70
0
  0
BLOCK_RECORD
  5
223
100
AcDbSymbolTableRecord
100
AcDbBlockTableRecord
  2
*Model_Space
  0
BLOCK_RECORD
  5
224
100
AcDbSymbolTableRecord
100
AcDbBlockTableRecord
  2
*Paper_Space
  0
ENDTAB
  0
TABLE
  2
DIMSTYLE
  5
A
100
AcDbSymbolTable
 70
1
100
AcDbDimStyleTable
 71
0
  0
DIMSTYLE
105
225
100
AcDbSymbolTableRecord
100
AcDbDimStyleTableRecord
  2
STANDARD
 70
0
  3

  4

 40
1.0
 41
3.0
 42
0.0625
 43
0.38
 44
0.18
 45
0.0
 46
0.0
 47
0.01
 48
0.01
140
3.0
141
0.09
142
0.0
143
25.4
144
1.0
145
0.0
146
1.0
147
0.09
 71
1.0
 72
0.0
 73
0
 74
0
 75
0
 76
0
 77
1
 78
8
170
0
171
2
172
0
173
0
174
0
175
0
176
0
177
0
178
0
270
2
271
2
272
2
273
2
274
2
275
0
280
0
281
0
282
0
283
1
284
8
285
0
286
0
287
3
288
0
340
11
  0
ENDTAB
  0
ENDSEC
  0
SECTION
  2
BLOCKS
  0
BLOCK
  5
20
100
AcDbEntity
  8
0
100
AcDbBlockBegin
  2
*Model_Space
 70
0
 10
0.0
 20
0.0
 30
0.0
  3
*Model_Space
  1

  0
ENDBLK
  5
21
100
AcDbEntity
  8
0
100
AcDbBlockEnd
  0
BLOCK
  5
1C
100
AcDbEntity
  8
0
100
AcDbBlockBegin
  2
*Paper_Space
 70
0
 10
0.0
 20
0.0
 30
0.0
  3
*Paper_Space
  1

  0
ENDBLK
  5
1D
100
AcDbEntity
  8
0
100
AcDbBlockEnd
  0
ENDSEC
  0
SECTION
  2
ENTITIES
  0
LWPOLYLINE
  5
226
100
AcDbEntity
  8
0
100
AcDbPolyline
 62
253
  6
CONTINUOUS
 90
11
 70
0
 10
-17.6159894618
 20
23.3345257117
 10
-17.6071700046
 20
23.3462482555
 10
-17.5980054948
 20
23.3574804782
 10
-17.5885251866
 20
23.3681849955
 10
-17.5787666176
 20
23.3783174
 10
-17.5687650174
 20
23.3878402171
 10
-17.5585569519
 20
23.3967177171
 10
-17.548184007
 20
23.404912904
 10
-17.5376857244
 20
23.412394817
 10
-17.527099182
 20
23.4191376269
 10
-17.5164632072
 20
23.4251168479
  0
LINE
  5
227
100
AcDbEntity
  8
0
100
AcDbLine
 62
7
  6
CONTINUOUS
 10
-16.7875432594
 20
22.3109099262
 11
-16.7540798461
 21
22.3364914745
  0
LWPOLYLINE
  5
228
100
AcDbEntity
  8
0
100
AcDbPolyline
 62
7
  6
CONTINUOUS
 90
19
 70
0
 10
-21.263466999
 20
19.6038037834
 10
-21.2754236978
 20
19.5966152593
 10
-21.3476223201
 20
19.5487583853
 10
-21.4167093683
 20
19.4953495506
 10
-21.4826896027
 20
19.4366708896
 10
-21.5454567435
 20
19.3730572597
 10
-21.6046896104
 20
19.305023032
 10
-21.6603083878
 20
19.2328548854
 10
-21.7121669391
 20
19.1568276518
 10
-21.7598260743
 20
19.0776573555
 10
-21.8031602154
 20
18.9956593274
 10
-21.8419905665
 20
18.9111195892
 10
-21.8759350396
 20
18.8248696402
 10
-21.9048490853
 20
18.7372350841
 10
-21.9285597622
 20
18.6484914993
 10
-21.9468002204
 20
18.5593513093
 10
-21.9593866886
 20
18.4701782339
 10
-21.9661646869
 20
18.3811287723
 10
-21.9666185022
 20
18.3692581277
  0
LWPOLYLINE
  5
229
100
AcDbEntity
  8
0
100
AcDbPolyline
 62
7
  6
CONTINUOUS
 90
12
 70
0
 10
-17.608818639
 20
23.4292637375
 10
-17.6273282232
 20
23.4182065532
 10
-17.6485439928
 20
23.4025622239
 10
-17.6683619568
 20
23.384483625
 10
-17.6865284072
 20
23.3641396706
 10
-17.7023832751
 20
23.342371777
 10
-17.7161961719
 20
23.318932833
 10
-17.7279164209
 20
23.2937197261
 10
-17.7369611901
 20
23.2679297226
 10
-17.7433297477
 20
23.2418709094
 10
-17.7471238483
 20
23.2148653656
 10
-17.7481269075
 20
23.1921768138
  0
LINE
  5
22A
100
AcDbEntity
  8
0
100
AcDbLine
 62
7
  6
CONTINUOUS
 10
-21.263620973
 20
19.6037259035
 11
-17.0332638878
 21
22.1114908539
  0
LINE
  5
22B
100
AcDbEntity
  8
0
100
AcDbLine
 62
253
  6
CONTINUOUS
 10
-17.0332638878
 20
21.9643755365
 11
-21.0271566166
 21
19.5967871747
  0
LINE
  5
22C
100
AcDbEntity
  8
0
100
AcDbLine
 62
7
  6
CONTINUOUS
 10
-17.6089598283
 20
23.4291883928
 11
-16.0417593379
 21
24.2747290117
  0
LINE
  5
22D
100
AcDbEntity
  8
0
100
AcDbLine
 62
253
  6
CONTINUOUS
 10
-17.5164632072
 20
23.4251168479
 11
-15.9502124611
 21
24.2701450579
  0
LINE
  5
22E
100
AcDbEntity
  8
0
100
AcDbLine
 62
7
  6
CONTINUOUS
 10
-16.037551501
 20
24.2768348893
 11
-16.0417170045
 21
24.2747518515
  0
LWPOLYLINE
  5
22F
100
AcDbEntity
  8
0
100
AcDbPolyline
 62
253
  6
CONTINUOUS
 90
7
 70
0
 10
-17.6088189045
 20
23.4292642316
 10
-17.6035196897
 20
23.4318476006
 10
-17.5880536214
 20
23.4367899942
 10
-17.5713208813
 20
23.4385918533
 10
-17.5536076604
 20
23.4372223596
 10
-17.5352169194
 20
23.4327049363
 10
-17.5164632072
 20
23.4251168479
  0
LINE
  5
230
100
AcDbEntity
  8
0
100
AcDbLine
 62
253
  6
CONTINUOUS
 10
-15.9502124611
 20
24.2701450579
 11
-15.4074863984
 21
24.520793939
  0
LINE
  5
231
100
AcDbEntity
  8
0
100
AcDbLine
 62
7
  6
CONTINUOUS
 10
-16.0374936612
 20
24.2768616793
 11
-15.4935933389
 21
24.5280524507
  0
LWPOLYLINE
  5
232
100
AcDbEntity
  8
0
100
AcDbPolyline
 62
253
  6
CONTINUOUS
 90
12
 70
0
 10
-15.4074863984
 20
24.520793939
 10
-15.3991220654
 20
24.5245275377
 10
-15.3905294971
 20
24.5278584856
 10
-15.3817322685
 20
24.5307319211
 10
-15.3727380768
 20
24.5330960122
 10
-15.363598154
 20
24.5348862794
 10
-15.3544049001
 20
24.5360397625
 10
-15.3451942024
 20
24.5365112986
 10
-15.3360054259
 20
24.5362566468
 10
-15.3269343985
 20
24.5352415064
 10
-15.3180206641
 20
24.533438602
 10
-15.3093059394
 20
24.5308232524
  0
LINE
  5
233
100
AcDbEntity
  8
0
100
AcDbLine
 62
7
  6
CONTINUOUS
 10
-15.4704617347
 20
24.537272985
 11
-15.4935932911
 21
24.5280523465
  0
LWPOLYLINE
  5
234
100
AcDbEntity
  8
0
100
AcDbPolyline
 62
253
  6
CONTINUOUS
 90
6
 70
0
 10
-15.4935933389
 20
24.5280524507
 10
-15.4772709816
 20
24.5333700126
 10
-15.4608316037
 20
24.5350251962
 10
-15.4435220395
 20
24.5334538748
 10
-15.4256383455
 20
24.5286829225
 10
-15.4074863984
 20
24.520793939
  0
LWPOLYLINE
  5
235
100
AcDbEntity
  8
0
100
AcDbPolyline
 62
7
  6
CONTINUOUS
 90
12
 70
0
 10
-21.5724654772
 20
-18.5347102899
 10
-21.6150396754
 20
-18.5035203233
 10
-21.6545009111
 20
-18.4673291456
 10
-21.6906483493
 20
-18.4263211535
 10
-21.7232934481
 20
-18.380706939
 10
-21.7522930893
 20
-18.3307040373
 10
-21.7774995771
 20
-18.2765672885
 10
-21.798783327
 20
-18.218566777
 10
-21.8160553457
 20
-18.1569702106
 10
-21.8292312458
 20
-18.0920751948
 10
-21.8382345884
 20
-18.0242102664
 10
-21.8430173316
 20
-17.9537108693
  0
LWPOLYLINE
  5
236
100
AcDbEntity
  8
0
100
AcDbPolyline
 62
7
  6
CONTINUOUS
 90
6
 70
0
 10
-16.8273008293
 20
22.2725719443
 10
-16.8255045319
 20
22.2762519509
 10
-16.8202789062
 20
22.2824437464
 10
-16.8120816969
 20
22.2907840747
 10
-16.8011092463
 20
22.3003458673
 10
-16.7875432594
 20
22.3109099262
  0
LWPOLYLINE
  5
237
100
AcDbEntity
  8
0
100
AcDbPolyline
 62
7
  6
CONTINUOUS
 90
12
 70
0
 10
-14.5898999728
 20
21.5856361457
 10
-14.611932709
 20
21.5649913866
 10
-14.6358205006
 20
21.5457262925
 10
-14.6613877389
 20
21.5282336951
 10
-14.6885879892
 20
21.512881436
 10
-14.7170026211
 20
21.5000280773
 10
-14.7458176674
 20
21.4899595041
 10
-14.7746473449
 20
21.4828622185
 10
-14.8031959074
 20
21.478914594
 10
-14.8307329849
 20
21.4781735898
 10
-14.856787563
 20
21.480565919
 10
-14.8675949762
 20
21.4825559169
  0
LWPOLYLINE
  5
238
100
AcDbEntity
  8
0
100
AcDbPolyline
 62
7
  6
CONTINUOUS
 90
12
 70
0
 10
-11.8923325847
 20
21.5365927545
 10
-11.8946895799
 20
21.5353031176
 10
-11.9148974586
 20
21.5225965669
 10
-11.9336791813
 20
21.5077001641
 10
-11.9507613911
 20
21.4908126712
 10
-11.9660329874
 20
21.4720104527
 10
-11.9792642063
 20
21.4515108792
 10
-11.9902528778
 20
21.4296019305
 10
-11.9989239805
 20
21.4063776231
 10
-12.0051603796
 20
21.3820016278
 10
-12.0088318099
 20
21.3567995169
 10
-12.0098917463
 20
21.3338288575
  0
LINE
  5
239
100
AcDbEntity
  8
0
100
AcDbLine
 62
7
  6
CONTINUOUS
 10
-15.6673482094
 20
21.1813197101
 11
-16.2100742721
 21
20.8850295998
  0
LINE
  5
23A
100
AcDbEntity
  8
0
100
AcDbLine
 62
7
  6
CONTINUOUS
 10
-14.5898999728
 20
20.8274356996
 11
-13.6874492221
 21
21.3201100905
  0
LINE
  5
23B
100
AcDbEntity
  8
0
100
AcDbLine
 62
7
  6
CONTINUOUS
 10
-11.68057309
 20
21.6508427678
 11
-11.8923847884
 21
21.5365654971
  0
LINE
  5
23C
100
AcDbEntity
  8
0
100
AcDbLine
 62
253
  6
CONTINUOUS
 10
-15.4507491658
 20
22.3922598272
 11
-13.8288490392
 21
23.209463347
  0
LINE
  5
23D
100
AcDbEntity
  8
0
100
AcDbLine
 62
253
  6
CONTINUOUS
 10
-15.3093493487
 20
22.1483812179
 11
-13.6874492221
 21
22.9655847377
  0
LINE
  5
23E
100
AcDbEntity
  8
0
100
AcDbLine
 62
253
  6
CONTINUOUS
 10
-13.8288490392
 20
23.209463347
 11
-13.3047425739
 21
23.4694240175
  0
LINE
  5
23F
100
AcDbEntity
  8
0
100
AcDbLine
 62
253
  6
CONTINUOUS
 10
-13.6874492221
 20
22.9655847377
 11
-13.1633447556
 21
23.2255444168
  0
LWPOLYLINE
  5
240
100
AcDbEntity
  8
0
100
AcDbPolyline
 62
7
  6
CONTINUOUS
 90
8
 70
0
 10
-21.2634728237
 20
19.6038136314
 10
-21.2366353731
 20
19.6168400766
 10
-21.2058694746
 20
19.6258767615
 10
-21.1729465958
 20
19.6299670547
 10
-21.1382268185
 20
19.6290662201
 10
-21.1020898773
 20
19.6231841101
 10
-21.0649310063
 20
19.6123850581
 10
-21.0271566167
 20
19.5967871747
  0
LINE
  5
241
100
AcDbEntity
  8
0
100
AcDbLine
 62
7
  6
CONTINUOUS
 10
-5.9721253532
 20
25.086417818
 11
-13.019313507
 21
21.6780324845
  0
LWPOLYLINE
  5
242
100
AcDbEntity
  8
0
100
AcDbPolyline
 62
253
  6
CONTINUOUS
 90
28
 70
0
 10
-13.1633447556
 20
23.2255444168
 10
-13.1616819923
 20
23.2263336943
 10
-13.1599874808
 20
23.2270183088
 10
-13.1582612209
 20
23.2275982604
 10
-13.1564929169
 20
23.2280841584
 10
-13.1546928646
 20
23.2284653934
 10
-13.1528919513
 20
23.2287101368
 10
-13.1510893329
 20
23.2288144089
 10
-13.1492858536
 20
23.2287821895
 10
-13.1475149328
 20
23.2285935894
 10
-13.1457770879
 20
23.2282436648
 10
-13.1440718016
 20
23.2277373595
 10
-13.142430941
 20
23.2270696169
 10
-13.1408569758
 20
23.2262363007
 10
-13.1393474364
 20
23.2252415471
 10
-13.1379267814
 20
23.2240927075
 10
-13.1365974865
 20
23.2227873047
 10
-13.135357076
 20
23.2213278159
 10
-13.1342225817
 20
23.2197290242
 10
-13.1331956973
 20
23.2179888566
 10
-13.132274729
 20
23.2161093861
 10
-13.1314716274
 20
23.2141116144
 10
-13.1307881283
 20
23.2119936751
 10
-13.1302224959
 20
23.2097574346
 10
-13.1297814737
 20
23.207429494
 10
-13.1294673095
 20
23.2050187204
 10
-13.1292777555
 20
23.2025162467
 10
-13.1292128116
 20
23.1999220729
  0
LINE
  5
243
100
AcDbEntity
  8
RACCORDO
100
AcDbLine
 62
7
  6
CONTINUOUS
 10
11.336058647
 20
32.6824982066
 11
-5.1423463232
 21
24.9113280729
  0
LWPOLYLINE
  5
244
100
AcDbEntity
  8
0
100
AcDbPolyline
 62
253
  6
CONTINUOUS
 90
14
 70
0
 10
-13.3047425455
 20
23.4694240033
 10
-13.2963587424
 20
23.4732198182
 10
-13.2877595812
 20
23.4765999002
 10
-13.2789690173
 20
23.479510903
 10
-13.269995629
 20
23.4819027984
 10
-13.2608901279
 20
23.4837129604
 10
-13.2517429779
 20
23.4848801976
 10
-13.2425899262
 20
23.4853615022
 10
-13.2334698136
 20
23.4851148929
 10
-13.2244757263
 20
23.4841078465
 10
-13.2156470888
 20
23.4823154498
 10
-13.2070239606
 20
23.4797152053
 10
-13.1986929291
 20
23.4763084134
 10
-13.1964533409
 20
23.4752273358
  0
LINE
  5
245
100
AcDbEntity
  8
0
100
AcDbLine
 62
7
  6
CONTINUOUS
 10
-7.589128405
 20
23.5385468656
 11
-7.6247302438
 21
23.5241633615
  0
LWPOLYLINE
  5
246
100
AcDbEntity
  8
0
100
AcDbPolyline
 62
7
  6
CONTINUOUS
 90
7
 70
0
 10
-2.1593345054
 20
-24.8819447069
 10
-2.1305208958
 20
-24.888276811
 10
-2.1021064239
 20
-24.8939472701
 10
-2.0749039896
 20
-24.8990170366
 10
-2.0493322588
 20
-24.9033106686
 10
-2.0254386155
 20
-24.906422429
 10
-2.0033992677
 20
-24.9080909666
  0
LINE
  5
247
100
AcDbEntity
  8
0
100
AcDbLine
 62
7
  6
CONTINUOUS
 10
-2.3170592147
 20
-24.8440263622
 11
-2.2946628609
 21
-24.8492637266
  0
LINE
  5
248
100
AcDbEntity
  8
0
100
AcDbLine
 62
7
  6
CONTINUOUS
 10
-2.216705763
 20
-24.8683244406
 11
-2.1593345054
 21
-24.8819447069
  0
LINE
  5
249
100
AcDbEntity
  8
0
100
AcDbLine
 62
7
  6
CONTINUOUS
 10
-2.2946628609
 20
-24.8492637266
 11
-2.216705763
 21
-24.8683244406
  0
LWPOLYLINE
  5
24A
100
AcDbEntity
  8
0
100
AcDbPolyline
 62
7
  6
CONTINUOUS
 90
12
 70
0
 10
-6.7696354256
 20
-25.938893883
 10
-6.7594438069
 20
-25.943313626
 10
-6.6937052112
 20
-25.9678373694
 10
-6.6248118221
 20
-25.9866805662
 10
-6.55328444
 20
-25.9994459519
 10
-6.4797957355
 20
-26.0058099076
 10
-6.4047827103
 20
-26.0055773019
 10
-6.3287577895
 20
-25.9986282195
 10
-6.2523992337
 20
-25.984939328
 10
-6.176132738
 20
-25.9645304338
 10
-6.1002607946
 20
-25.9374550071
 10
-6.0924541498
 20
-25.9342790414
  0
LWPOLYLINE
  5
24B
100
AcDbEntity
  8
0
100
AcDbPolyline
 62
253
  6
CONTINUOUS
 90
13
 70
0
 10
-3.0385463366
 20
-26.1381482201
 10
-3.0191079144
 20
-26.1466842513
 10
-2.9976283897
 20
-26.153894272
 10
-2.9744671727
 20
-26.1596576391
 10
-2.9500118128
 20
-26.1638779159
 10
-2.9246715139
 20
-26.166484486
 10
-2.8988702875
 20
-26.1674337342
 10
-2.8730398573
 20
-26.1667097773
 10
-2.8476124361
 20
-26.1643247289
 10
-2.8230134929
 20
-26.1603184972
 10
-2.7996546341
 20
-26.1547581174
 10
-2.7779267165
 20
-26.1477366295
 10
-2.7581933063
 20
-26.139371522
  0
LWPOLYLINE
  5
24C
100
AcDbEntity
  8
0
100
AcDbPolyline
 62
253
  6
CONTINUOUS
 90
13
 70
0
 10
-3.0385463366
 20
-25.8208794197
 10
-3.0191079135
 20
-25.8294154513
 10
-2.9976283878
 20
-25.8366254722
 10
-2.9744671699
 20
-25.8423888393
 10
-2.9500118093
 20
-25.8466091161
 10
-2.9246715099
 20
-25.8492156859
 10
-2.8988702833
 20
-25.8501649339
 10
-2.8730398533
 20
-25.8494409767
 10
-2.8476124325
 20
-25.847055928
 10
-2.8230134899
 20
-25.8430496963
 10
-2.7996546321
 20
-25.8374893165
 10
-2.7779267154
 20
-25.8304678288
 10
-2.7581933063
 20
-25.8221027216
  0
LWPOLYLINE
  5
24D
100
AcDbEntity
  8
0
100
AcDbPolyline
 62
7
  6
CONTINUOUS
 90
10
 70
0
 10
-2.973625494
 20
-26.2733392573
 10
-2.9611669222
 20
-26.2791100581
 10
-2.9398320952
 20
-26.2869169521
 10
-2.9176530244
 20
-26.2925114319
 10
-2.8948659064
 20
-26.2957962996
 10
-2.871632976
 20
-26.2967044533
 10
-2.8482036015
 20
-26.295174113
 10
-2.8249131991
 20
-26.2911980636
 10
-2.8019906702
 20
-26.2847997524
 10
-2.7781559399
 20
-26.2753440021
  0
LWPOLYLINE
  5
24E
100
AcDbEntity
  8
0
100
AcDbPolyline
 62
253
  6
CONTINUOUS
 90
12
 70
0
 10
-6.7696108066
 20
-25.9389047349
 10
-6.8032941198
 20
-25.9222083525
 10
-6.8535309404
 20
-25.8899647448
 10
-6.8997244574
 20
-25.8508084338
 10
-6.941559269
 20
-25.8049902423
 10
-6.9788143375
 20
-25.7528032892
 10
-7.0112407563
 20
-25.6946091429
 10
-7.0385879854
 20
-25.6307925068
 10
-7.0607087656
 20
-25.5617587463
 10
-7.0774541854
 20
-25.4879450297
 10
-7.0886775327
 20
-25.4098413844
 10
-7.0943191748
 20
-25.328050617
  0
LINE
  5
24F
100
AcDbEntity
  8
0
100
AcDbLine
 62
7
  6
CONTINUOUS
 10
-2.9733456831
 20
-26.2734803487
 11
-4.7542359963
 21
-25.3830351921
  0
LINE
  5
250
100
AcDbEntity
  8
0
100
AcDbLine
 62
253
  6
CONTINUOUS
 10
-3.0385463366
 20
-26.1381482201
 11
-4.6415833253
 21
-25.3366297257
  0
LWPOLYLINE
  5
251
100
AcDbEntity
  8
0
100
AcDbPolyline
 62
7
  6
CONTINUOUS
 90
10
 70
0
 10
-21.5486390745
 20
-18.5491991503
 10
-20.0691887906
 20
-19.3777603799
 10
-18.4836884805
 20
-20.2412560005
 10
-16.8724326424
 20
-21.0940674759
 10
-15.2357834251
 20
-21.9360028031
 10
-13.5741050314
 20
-22.766875699
 10
-11.8877734115
 20
-23.5865083693
 10
-10.1771827632
 20
-24.3947273006
 10
-8.4427377502
 20
-25.1913606001
 10
-6.7687934207
 20
-25.9392661993
  0
LINE
  5
252
100
AcDbEntity
  8
0
100
AcDbLine
 62
7
  6
CONTINUOUS
 10
-21.5482886755
 20
-18.5493978801
 11
-21.5486426357
 21
-18.5491971285
  0
LWPOLYLINE
  5
253
100
AcDbEntity
  8
0
100
AcDbPolyline
 62
7
  6
CONTINUOUS
 90
31
 70
0
 10
-21.8430173408
 20
-17.9537108782
 10
-21.396379022
 20
-18.2073395352
 10
-20.9477400138
 20
-18.4599283335
 10
-20.4971107136
 20
-18.7114740137
 10
-20.0446084624
 20
-18.9619144195
 10
-19.59013774
 20
-19.211305729
 10
-19.1333852188
 20
-19.459820181
 10
-18.6742070774
 20
-19.7075331324
 10
-18.2127580951
 20
-19.9543582847
 10
-17.749170195
 20
-20.2002241781
 10
-17.2834832491
 20
-20.4451098435
 10
-16.8156736894
 20
-20.6890277835
 10
-16.3457804669
 20
-20.9319577833
 10
-15.8737470582
 20
-21.1739289929
 10
-15.3996463705
 20
-21.4149038491
 10
-14.9237149465
 20
-21.6547637708
 10
-14.446271986
 20
-21.8933530581
 10
-13.9670241746
 20
-22.1308238148
 10
-13.4852833828
 20
-22.3675161859
 10
-13.0019695006
 20
-22.6029777038
 10
-12.5161763365
 20
-22.8376511495
 10
-12.0244241425
 20
-23.0731923855
 10
-11.5275058283
 20
-23.3091755027
 10
-11.0245545638
 20
-23.5459701419
 10
-10.5094818988
 20
-23.7863622027
 10
-9.9819974873
 20
-24.0303562886
 10
-9.4421547656
 20
-24.2778004314
 10
-8.8842313673
 20
-24.531163538
 10
-8.3061560748
 20
-24.7911700389
 10
-7.7095890476
 20
-25.0568434147
 10
-7.0943275341
 20
-25.3280557798
  0
LINE
  5
254
100
AcDbEntity
  8
0
100
AcDbLine
 62
7
  6
CONTINUOUS
 10
-21.5486426357
 20
-18.5491971285
 11
-21.5724654772
 21
-18.5347102899
  0
LWPOLYLINE
  5
255
100
AcDbEntity
  8
0
100
AcDbPolyline
 62
7
  6
CONTINUOUS
 90
14
 70
0
 10
-21.9665978669
 20
-17.7882684569
 10
-21.9657084241
 20
-17.8085445202
 10
-21.9578340143
 20
-17.896414572
 10
-21.9435747825
 20
-17.9809700172
 10
-21.923039067
 20
-18.0619854952
 10
-21.8963706074
 20
-18.1392094142
 10
-21.8637907655
 20
-18.2121816228
 10
-21.8255555877
 20
-18.2805243328
 10
-21.7819442125
 20
-18.3439524844
 10
-21.7334097304
 20
-18.4019969273
 10
-21.6804321819
 20
-18.454293389
 10
-21.6235391681
 20
-18.5005774544
 10
-21.5634646345
 20
-18.5405508878
 10
-21.5482254199
 20
-18.5494296537
  0
LWPOLYLINE
  5
256
100
AcDbEntity
  8
0
100
AcDbPolyline
 62
7
  6
CONTINUOUS
 90
13
 70
0
 10
-21.8430173408
 20
-17.9537108782
 10
-21.9394588939
 20
-14.9911096917
 10
-22.0183870299
 20
-12.0186434099
 10
-22.0797904693
 20
-9.0364616676
 10
-22.12365897
 20
-6.0446381107
 10
-22.1499822697
 20
-3.0433998488
 10
-22.1587563743
 20
-0.0331307025
 10
-22.1499819601
 20
2.9860140156
 10
-22.1236584087
 20
6.0138777741
 10
-22.0797897642
 20
9.0500699356
 10
-22.0183863359
 20
12.0943521735
 10
-21.9394584179
 20
15.1466415102
 10
-21.8430173398
 20
18.20677701
  0
LWPOLYLINE
  5
257
100
AcDbEntity
  8
0
100
AcDbPolyline
 62
7
  6
CONTINUOUS
 90
13
 70
0
 10
-21.9666213786
 20
18.3694046357
 10
-22.0597066745
 20
15.3615955877
 10
-22.1376832093
 20
12.296949303
 10
-22.1983414346
 20
9.2407807936
 10
-22.2416694533
 20
6.1932712205
 10
-22.2676620066
 20
3.1545782348
 10
-22.2763154382
 20
0.1248502404
 10
-22.2676271633
 20
-2.8957582585
 10
-22.2415994486
 20
-5.9070952156
 10
-22.1982356786
 20
-8.9090157893
 10
-22.1375407814
 20
-11.9013677768
 10
-22.0595263153
 20
-14.8839825446
 10
-21.9666001965
 20
-17.7882021538
  0
LWPOLYLINE
  5
258
100
AcDbEntity
  8
0
100
AcDbPolyline
 62
7
  6
CONTINUOUS
 90
22
 70
0
 10
-21.8430173499
 20
18.2067770097
 10
-21.8382346058
 20
18.2817833035
 10
-21.8292312621
 20
18.3582579097
 10
-21.8160553611
 20
18.4358250655
 10
-21.798783342
 20
18.514102059
 10
-21.7774995924
 20
18.5927078971
 10
-21.7522931049
 20
18.6712652198
 10
-21.7232934639
 20
18.7493976957
 10
-21.6906483652
 20
18.8267167537
 10
-21.6545009271
 20
18.9028303215
 10
-21.6150396916
 20
18.9773685549
 10
-21.5724654937
 20
19.0499677894
 10
-21.5269657946
 20
19.1202572085
 10
-21.4787762218
 20
19.187898325
 10
-21.4281446244
 20
19.2525598226
 10
-21.375298388
 20
19.3139021274
 10
-21.3205163655
 20
19.3716259945
 10
-21.2640775898
 20
19.425457152
 10
-21.2062248353
 20
19.4751195151
 10
-21.1472409761
 20
19.5203673416
 10
-21.0874481754
 20
19.5609882832
 10
-21.0271566167
 20
19.5967871747
  0
LWPOLYLINE
  5
259
100
AcDbEntity
  8
0
100
AcDbPolyline
 62
253
  6
CONTINUOUS
 90
7
 70
0
 10
-13.134894473
 20
22.7572431373
 10
-13.1339114086
 20
22.7585914011
 10
-13.1310940212
 20
22.7659573506
 10
-13.1309730887
 20
22.775302949
 10
-13.1335506576
 20
22.7864700598
 10
-13.1387831128
 20
22.7992697246
 10
-13.1465819162
 20
22.8134853609
  0
LWPOLYLINE
  5
25A
100
AcDbEntity
  8
0
100
AcDbPolyline
 62
7
  6
CONTINUOUS
 90
6
 70
0
 10
-13.1349196397
 20
22.7572121676
 10
-13.1254455003
 20
22.7696405058
 10
-13.1118325614
 20
22.7904951244
 10
-13.0999792365
 20
22.8127618171
 10
-13.0900361673
 20
22.8363228107
 10
-13.0823824958
 20
22.8602997719
  0
LINE
  5
25B
100
AcDbEntity
  8
0
100
AcDbLine
 62
253
  6
CONTINUOUS
 10
-13.1465819162
 20
22.8134853609
 11
-13.6874492221
 21
22.1441978748
  0
LINE
  5
25C
100
AcDbEntity
  8
0
100
AcDbLine
 62
7
  6
CONTINUOUS
 10
-13.134894473
 20
22.7572431373
 11
-13.6874492221
 21
22.0734932139
  0
LWPOLYLINE
  5
25D
100
AcDbEntity
  8
0
100
AcDbPolyline
 62
253
  6
CONTINUOUS
 90
13
 70
0
 10
-11.7770101198
 20
21.5313432852
 10
-11.7952419325
 20
21.520388305
 10
-11.8131273792
 20
21.506739535
 10
-11.8303671884
 20
21.4906253559
 10
-11.8466728916
 20
21.4723154011
 10
-11.8617716507
 20
21.4521160456
 10
-11.8754108227
 20
21.4303652787
 10
-11.8873621876
 20
21.4074270494
 10
-11.897425767
 20
21.3836851759
 10
-11.9054331701
 20
21.3595369236
 10
-11.9112504116
 20
21.3353863577
 10
-11.9147801532
 20
21.3116375821
 10
-11.9159633331
 20
21.2886879778
  0
LWPOLYLINE
  5
25E
100
AcDbEntity
  8
0
100
AcDbPolyline
 62
253
  6
CONTINUOUS
 90
13
 70
0
 10
-9.5570616312
 20
20.4213690409
 10
-9.5752934522
 20
20.410414055
 10
-9.5931789054
 20
20.3967652782
 10
-9.610418719
 20
20.3806510918
 10
-9.6267244246
 20
20.3623411303
 10
-9.6418231839
 20
20.3421417692
 10
-9.6554623543
 20
20.3203909989
 10
-9.667413716
 20
20.2974527689
 10
-9.6774772912
 20
20.2737108976
 10
-9.6854846898
 20
20.2495626503
 10
-9.6913019271
 20
20.2254120921
 10
-9.6948316658
 20
20.2016633264
 10
-9.6960148445
 20
20.1787137335
  0
LINE
  5
25F
100
AcDbEntity
  8
0
100
AcDbLine
 62
253
  6
CONTINUOUS
 10
-11.5661558025
 20
21.6451040267
 11
-11.7770101198
 21
21.5313432852
  0
LWPOLYLINE
  5
260
100
AcDbEntity
  8
0
100
AcDbPolyline
 62
253
  6
CONTINUOUS
 90
9
 70
0
 10
-7.1635896961
 20
23.1232688642
 10
-7.1372233134
 20
23.1373778567
 10
-7.114048197
 20
23.1527506686
 10
-7.0943134944
 20
23.1692194478
 10
-7.0782321448
 20
23.1866034111
 10
-7.0659737576
 20
23.2047149464
 10
-7.0576665831
 20
23.2233622753
 10
-7.053401061
 20
23.2423466065
 10
-7.0528069141
 20
23.2540494602
  0
LWPOLYLINE
  5
261
100
AcDbEntity
  8
0
100
AcDbPolyline
 62
253
  6
CONTINUOUS
 90
31
 70
0
 10
-7.3372206357
 20
23.4239754132
 10
-7.3282202659
 20
23.4287870231
 10
-7.3204302953
 20
23.4339282536
 10
-7.3138507237
 20
23.4393991048
 10
-7.3084315562
 20
23.4452682883
 10
-7.3042227878
 20
23.4514670924
 10
-7.3013744034
 20
23.4577893822
 10
-7.2999352993
 20
23.4642364228
 10
-7.2998565793
 20
23.4708069491
 10
-7.3011415392
 20
23.477291031
 10
-7.3038345894
 20
23.4836859023
 10
-7.3078913197
 20
23.4899943292
 10
-7.3131817944
 20
23.4960146795
 10
-7.3197457175
 20
23.5017376629
 10
-7.3275433851
 20
23.5071725697
 10
-7.3363257503
 20
23.5121456385
 10
-7.3461246788
 20
23.516641951
 10
-7.3569083049
 20
23.5206764255
 10
-7.3683319841
 20
23.5241200562
 10
-7.380416397
 20
23.5269538091
 10
-7.3931408629
 20
23.5291967183
 10
-7.4060986953
 20
23.5307768794
 10
-7.4192974516
 20
23.5316727979
 10
-7.4327295745
 20
23.5319059683
 10
-7.445965705
 20
23.5314689707
 10
-7.4590006176
 20
23.5303398754
 10
-7.4718395378
 20
23.5285406121
 10
-7.4840687831
 20
23.5261295497
 10
-7.4955504592
 20
23.5231261445
 10
-7.5064224603
 20
23.5195109402
 10
-7.5166847865
 20
23.5152839368
  0
LWPOLYLINE
  5
262
100
AcDbEntity
  8
0
100
AcDbPolyline
 62
253
  6
CONTINUOUS
 90
13
 70
0
 10
-11.892335078
 20
21.5365922993
 10
-11.8883436042
 20
21.5386219491
 10
-11.8796875906
 20
21.5422521783
 10
-11.8706257465
 20
21.5450443253
 10
-11.861192242
 20
21.5469836395
 10
-11.8514189198
 20
21.5480595292
 10
-11.8413500638
 20
21.5482641721
 10
-11.8310227545
 20
21.5475949805
 10
-11.8204757999
 20
21.5460527086
 10
-11.8097591485
 20
21.5436443752
 10
-11.7989169721
 20
21.5403811385
 10
-11.7879868621
 20
21.53627537
 10
-11.7770101198
 20
21.5313432852
  0
LINE
  5
263
100
AcDbEntity
  8
0
100
AcDbLine
 62
253
  6
CONTINUOUS
 10
-9.5570616312
 20
20.4213690409
 11
-9.3387155939
 21
20.5313839224
  0
LINE
  5
264
100
AcDbEntity
  8
0
100
AcDbLine
 62
253
  6
CONTINUOUS
 10
-9.3803118599
 20
20.1165207793
 11
-9.1619658225
 21
20.2265356608
  0
LINE
  5
265
100
AcDbEntity
  8
0
100
AcDbLine
 62
7
  6
CONTINUOUS
 10
-11.6805793825
 20
21.6508393919
 11
-11.6753651792
 21
21.6534499731
  0
LINE
  5
266
100
AcDbEntity
  8
0
100
AcDbLine
 62
7
  6
CONTINUOUS
 10
-4.0272669642
 20
22.6205986301
 11
-5.1085103339
 21
22.0799769453
  0
LINE
  5
267
100
AcDbEntity
  8
0
100
AcDbLine
 62
253
  6
CONTINUOUS
 10
-9.3387155939
 20
20.5313839224
 11
-8.6854968293
 21
20.8553852452
  0
LINE
  5
268
100
AcDbEntity
  8
0
100
AcDbLine
 62
253
  6
CONTINUOUS
 10
-9.1619658225
 20
20.2265356608
 11
-8.504197411
 21
20.552793642
  0
LINE
  5
269
100
AcDbEntity
  8
0
100
AcDbLine
 62
253
  6
CONTINUOUS
 10
-3.1535337598
 20
23.6771220213
 11
-5.4242004531
 21
22.5910078191
  0
LINE
  5
26A
100
AcDbEntity
  8
0
100
AcDbLine
 62
253
  6
CONTINUOUS
 10
-2.9798691671
 20
23.3745097271
 11
-5.1053876474
 21
22.3578233877
  0
LINE
  5
26B
100
AcDbEntity
  8
0
100
AcDbLine
 62
253
  6
CONTINUOUS
 10
-10.6523008662
 20
21.8387872636
 11
-7.3372206357
 21
23.4239754132
  0
LINE
  5
26C
100
AcDbEntity
  8
0
100
AcDbLine
 62
253
  6
CONTINUOUS
 10
-10.2600064956
 20
21.6426400784
 11
-7.1635896961
 21
23.1232688642
  0
LINE
  5
26D
100
AcDbEntity
  8
0
100
AcDbLine
 62
7
  6
CONTINUOUS
 10
-6.0504536775
 20
22.4562045678
 11
-7.1511456547
 21
21.9298812943
  0
LINE
  5
26E
100
AcDbEntity
  8
RACCORDO
100
AcDbLine
 62
253
  6
CONTINUOUS
 10
11.7754410643
 20
32.65032997
 11
-4.8959687501
 21
24.7881392864
  0
LINE
  5
26F
100
AcDbEntity
  8
0
100
AcDbLine
 62
7
  6
CONTINUOUS
 10
-7.6245896414
 20
23.524232364
 11
-11.675306908
 21
21.6534768941
  0
LINE
  5
270
100
AcDbEntity
  8
0
100
AcDbLine
 62
253
  6
CONTINUOUS
 10
-7.5166847865
 20
23.5152839368
 11
-11.5661558025
 21
21.6451040267
  0
LWPOLYLINE
  5
271
100
AcDbEntity
  8
0
100
AcDbPolyline
 62
7
  6
CONTINUOUS
 90
4
 70
0
 10
-11.6753651792
 20
21.6534499731
 10
-11.670324309
 20
21.6556044626
 10
-11.6547331041
 20
21.660252903
 10
-11.6380399643
 20
21.6623392226
  0
LWPOLYLINE
  5
272
100
AcDbEntity
  8
0
100
AcDbPolyline
 62
253
  6
CONTINUOUS
 90
13
 70
0
 10
-9.3803118599
 20
20.1165207793
 10
-9.4000452701
 20
20.1081556717
 10
-9.4217731877
 20
20.1011341838
 10
-9.4451320465
 20
20.095573804
 10
-9.4697309897
 20
20.0915675724
 10
-9.4951584109
 20
20.0891825239
 10
-9.5209888411
 20
20.088458567
 10
-9.5467900675
 20
20.0894078153
 10
-9.5721303664
 20
20.0920143853
 10
-9.5965857263
 20
20.0962346621
 10
-9.6197469433
 20
20.1019980292
 10
-9.641226468
 20
20.1092080499
 10
-9.6606648902
 20
20.1177440812
  0
LINE
  5
273
100
AcDbEntity
  8
0
100
AcDbLine
 62
253
  6
CONTINUOUS
 10
-0.5600812111
 20
-24.7043691311
 11
-1.100948517
 21
-24.5951661359
  0
LINE
  5
274
100
AcDbEntity
  8
0
100
AcDbLine
 62
253
  6
CONTINUOUS
 10
-0.6331876383
 20
-24.4495582227
 11
-1.100948517
 21
-24.3551156701
  0
LWPOLYLINE
  5
275
100
AcDbEntity
  8
0
100
AcDbPolyline
 62
253
  6
CONTINUOUS
 90
3
 70
0
 10
-0.6101516501
 20
-24.4574716777
 10
-0.6160978959
 20
-24.4547757855
 10
-0.6331868991
 20
-24.4495586081
  0
LINE
  5
276
100
AcDbEntity
  8
0
100
AcDbLine
 62
253
  6
CONTINUOUS
 10
-3.0385463366
 20
-25.8208780149
 11
-3.9740148549
 21
-25.3531451605
  0
LINE
  5
277
100
AcDbEntity
  8
0
100
AcDbLine
 62
253
  6
CONTINUOUS
 10
-4.167579141
 20
-25.2563630175
 11
-4.293675427
 21
-25.1933146306
  0
LINE
  5
278
100
AcDbEntity
  8
0
100
AcDbLine
 62
253
  6
CONTINUOUS
 10
-2.9498494241
 20
-25.5893395283
 11
-3.7325333983
 21
-25.1979975412
  0
LINE
  5
279
100
AcDbEntity
  8
0
100
AcDbLine
 62
7
  6
CONTINUOUS
 10
-2.8329265958
 20
-24.5915825089
 11
-2.3538405556
 21
-24.831125529
  0
LINE
  5
27A
100
AcDbEntity
  8
0
100
AcDbLine
 62
253
  6
CONTINUOUS
 10
-1.100948517
 20
-24.2156866334
 11
-0.6331876383
 21
-24.4495582227
  0
LINE
  5
27B
100
AcDbEntity
  8
0
100
AcDbLine
 62
7
  6
CONTINUOUS
 10
-0.609912232
 20
-24.4575909362
 11
-1.100948517
 21
-24.2120727935
  0
LWPOLYLINE
  5
27C
100
AcDbEntity
  8
0
100
AcDbPolyline
 62
253
  6
CONTINUOUS
 90
16
 70
0
 10
-2.9736198227
 20
-26.2733427238
 10
-2.9790965946
 20
-26.2703512785
 10
-2.9867841198
 20
-26.2653016537
 10
-2.9940457555
 20
-26.2594684843
 10
-3.0008470707
 20
-26.2528705487
 10
-3.0071644842
 20
-26.2455212293
 10
-3.0129627189
 20
-26.2374525374
 10
-3.0182176336
 20
-26.2286916841
 10
-3.0229084301
 20
-26.2192663436
 10
-3.0270114165
 20
-26.2092182361
 10
-3.0305106983
 20
-26.1985828159
 10
-3.0333924559
 20
-26.1873981679
 10
-3.03564301
 20
-26.1757168545
 10
-3.0372546014
 20
-26.163586599
 10
-3.0382232359
 20
-26.1510482934
 10
-3.0385463366
 20
-26.1381482201
  0
LWPOLYLINE
  5
27D
100
AcDbEntity
  8
0
100
AcDbPolyline
 62
253
  6
CONTINUOUS
 90
13
 70
0
 10
-2.9498494241
 20
-25.5893395283
 10
-2.9311363416
 20
-25.5997771004
 10
-2.9115434096
 20
-25.6119779571
 10
-2.8914021594
 20
-25.6257356482
 10
-2.8710534003
 20
-25.6408173801
 10
-2.8508414532
 20
-25.6569679555
 10
-2.8311083235
 20
-25.6739140911
 10
-2.812187915
 20
-25.6913690417
 10
-2.7944003793
 20
-25.7090374528
 10
-2.7780466986
 20
-25.7266203578
 10
-2.763403593
 20
-25.7438202369
 10
-2.750718838
 20
-25.7603460517
 10
-2.7402070719
 20
-25.7759181693
  0
LWPOLYLINE
  5
27E
100
AcDbEntity
  8
0
100
AcDbPolyline
 62
7
  6
CONTINUOUS
 90
8
 70
0
 10
-21.9664699498
 20
-17.7910777751
 10
-21.9626077851
 20
-17.8168380448
 10
-21.9539393221
 20
-17.8421515888
 10
-21.9405486095
 20
-17.8667729691
 10
-21.9225654826
 20
-17.8904634588
 10
-21.9001643041
 20
-17.912993357
 10
-21.873562274
 20
-17.9341442157
 10
-21.8430173234
 20
-17.9537109579
  0
LWPOLYLINE
  5
27F
100
AcDbEntity
  8
0
100
AcDbPolyline
 62
7
  6
CONTINUOUS
 90
9
 70
0
 10
-21.9666185022
 20
18.3692581277
 10
-21.9664618957
 20
18.3587186864
 10
-21.9625991487
 20
18.3354176165
 10
-21.9539302258
 20
18.3122830207
 10
-21.9405391784
 20
18.2895392058
 10
-21.9225558425
 20
18.2674066896
 10
-21.9001545794
 20
18.2461000631
 10
-21.8735525855
 20
18.2258259093
 10
-21.8430077865
 20
18.2067808008
  0
LWPOLYLINE
  5
280
100
AcDbEntity
  8
RACCORDO
100
AcDbPolyline
 62
7
  6
CONTINUOUS
 90
6
 70
0
 10
-5.6741642454
 20
21.1571251151
 10
-5.679596402
 20
21.1540287941
 10
-5.6866646624
 20
21.1494661226
 10
-5.6934131976
 20
21.1444735778
 10
-5.6998335457
 20
21.1390580927
 10
-5.7059861397
 20
21.1331571589
  0
LWPOLYLINE
  5
281
100
AcDbEntity
  8
0
100
AcDbPolyline
 62
253
  6
CONTINUOUS
 90
7
 70
0
 10
-2.4495390812
 20
22.9809991059
 10
-2.4279780447
 20
22.9932592943
 10
-2.4098097423
 20
23.0067571864
 10
-2.3953451057
 20
23.0212618729
 10
-2.3848317091
 20
23.0365252119
 10
-2.3784495368
 20
23.052286065
 10
-2.3763138807
 20
23.0691328632
  0
LWPOLYLINE
  5
282
100
AcDbEntity
  8
0
100
AcDbPolyline
 62
7
  6
CONTINUOUS
 90
12
 70
0
 10
-8.1800607741
 20
19.68041735
 10
-8.1882203354
 20
19.6757871731
 10
-8.2074058711
 20
19.6629309436
 10
-8.2251934758
 20
19.6480743451
 10
-8.2413439316
 20
19.6314050318
 10
-8.2557941888
 20
19.6129500287
 10
-8.2683366094
 20
19.5928996768
 10
-8.2787736938
 20
19.57151408
 10
-8.2870409029
 20
19.5488454853
 10
-8.2930121425
 20
19.525025157
 10
-8.2965471954
 20
19.5003632989
 10
-8.2975808143
 20
19.4776707994
  0
LINE
  5
283
100
AcDbEntity
  8
0
100
AcDbLine
 62
7
  6
CONTINUOUS
 10
-9.3803118599
 20
18.938166871
 11
-9.1619658225
 21
19.0573683907
  0
LINE
  5
284
100
AcDbEntity
  8
RACCORDO
100
AcDbLine
 62
7
  6
CONTINUOUS
 10
-5.6741442685
 20
21.1571358931
 11
-5.3602769504
 21
21.3264745118
  0
LINE
  5
285
100
AcDbEntity
  8
0
100
AcDbLine
 62
7
  6
CONTINUOUS
 10
-7.9682624887
 20
19.7946874671
 11
-8.1800748611
 21
19.6804098329
  0
LINE
  5
286
100
AcDbEntity
  8
RACCORDO
100
AcDbLine
 62
253
  6
CONTINUOUS
 10
-5.4582548109
 20
21.1386742233
 11
-5.1315110176
 21
21.3149599958
  0
LINE
  5
287
100
AcDbEntity
  8
0
100
AcDbLine
 62
253
  6
CONTINUOUS
 10
-7.8538452013
 20
19.7889487261
 11
-8.0646995186
 21
19.6751879846
  0
LINE
  5
288
100
AcDbEntity
  8
RACCORDO
100
AcDbLine
 62
253
  6
CONTINUOUS
 10
-5.0105822822
 20
21.3722951168
 11
-4.9813087565
 21
21.3878690336
  0
LINE
  5
289
100
AcDbEntity
  8
RACCORDO
100
AcDbLine
 62
253
  6
CONTINUOUS
 10
-4.9813087565
 20
21.3878690336
 11
-4.9741220971
 21
21.3916470551
  0
LINE
  5
28A
100
AcDbEntity
  8
RACCORDO
100
AcDbLine
 62
253
  6
CONTINUOUS
 10
-5.0170094874
 20
21.3689150626
 11
-5.0105822822
 21
21.3722951168
  0
LWPOLYLINE
  5
28B
100
AcDbEntity
  8
RACCORDO
100
AcDbPolyline
 62
7
  6
CONTINUOUS
 90
3
 70
0
 10
-5.3602699607
 20
21.3264782813
 10
-5.3557713538
 20
21.3288273184
 10
-5.349855664
 20
21.3316861325
  0
LINE
  5
28C
100
AcDbEntity
  8
RACCORDO
100
AcDbLine
 62
253
  6
CONTINUOUS
 10
-4.9741220971
 20
21.3916470551
 11
-4.9667354733
 21
21.3954816433
  0
LINE
  5
28D
100
AcDbEntity
  8
RACCORDO
100
AcDbLine
 62
253
  6
CONTINUOUS
 10
-5.0233524398
 20
21.3656247222
 11
-5.0170094874
 21
21.3689150626
  0
LINE
  5
28E
100
AcDbEntity
  8
0
100
AcDbLine
 62
7
  6
CONTINUOUS
 10
-9.1619658225
 20
19.0573683907
 11
-8.4799055922
 21
19.4090315501
  0
LINE
  5
28F
100
AcDbEntity
  8
RACCORDO
100
AcDbLine
 62
253
  6
CONTINUOUS
 10
-4.9667354733
 20
21.3954816433
 11
-4.9616917098
 21
21.3980662627
  0
LINE
  5
290
100
AcDbEntity
  8
0
100
AcDbLine
 62
7
  6
CONTINUOUS
 10
-6.6333539164
 20
20.18541684
 11
-6.9856106054
 21
20.0054421333
  0
LINE
  5
291
100
AcDbEntity
  8
RACCORDO
100
AcDbLine
 62
253
  6
CONTINUOUS
 10
-5.0275433339
 20
21.3634825598
 11
-5.0233524398
 21
21.3656247222
  0
LINE
  5
292
100
AcDbEntity
  8
RACCORDO
100
AcDbLine
 62
253
  6
CONTINUOUS
 10
-4.9616917098
 20
21.3980662627
 11
-4.9565465839
 21
21.4006709775
  0
LINE
  5
293
100
AcDbEntity
  8
0
100
AcDbLine
 62
253
  6
CONTINUOUS
 10
-5.84475103
 20
18.5652137403
 11
-5.6264049926
 21
18.6752286218
  0
LINE
  5
294
100
AcDbEntity
  8
RACCORDO
100
AcDbLine
 62
253
  6
CONTINUOUS
 10
-5.0317115787
 20
21.361382348
 11
-5.0275433339
 21
21.3634825598
  0
LINE
  5
295
100
AcDbEntity
  8
0
100
AcDbLine
 62
7
  6
CONTINUOUS
 10
-7.9682687813
 20
19.7946840913
 11
-7.9630545779
 21
19.7972946725
  0
LINE
  5
296
100
AcDbEntity
  8
RACCORDO
100
AcDbLine
 62
7
  6
CONTINUOUS
 10
14.7669202195
 20
28.8310708289
 11
7.0626126762
 21
24.9941606895
  0
LINE
  5
297
100
AcDbEntity
  8
RACCORDO
100
AcDbLine
 62
253
  6
CONTINUOUS
 10
-4.9565465839
 20
21.4006709775
 11
-4.9512946136
 21
21.4032934299
  0
LINE
  5
298
100
AcDbEntity
  8
0
100
AcDbLine
 62
253
  6
CONTINUOUS
 10
-1.7158762886
 20
20.6148796878
 11
-5.6264049926
 21
18.6752286218
  0
LINE
  5
299
100
AcDbEntity
  8
RACCORDO
100
AcDbLine
 62
253
  6
CONTINUOUS
 10
-5.0358615015
 20
21.3593244121
 11
-5.0317115787
 21
21.361382348
  0
LINE
  5
29A
100
AcDbEntity
  8
RACCORDO
100
AcDbLine
 62
253
  6
CONTINUOUS
 10
-4.9512946136
 20
21.4032934299
 11
-4.9459321256
 21
21.4059320549
  0
LINE
  5
29B
100
AcDbEntity
  8
SMUSSO
100
AcDbLine
 62
7
  6
CONTINUOUS
 10
15.628812319
 20
30.7236443426
 11
-1.5524885025
 21
22.3522704589
  0
LINE
  5
29C
100
AcDbEntity
  8
SMUSSO
100
AcDbLine
 62
7
  6
CONTINUOUS
 10
15.8183241501
 20
29.7627311134
 11
-0.4856221111
 21
21.8188372632
  0
LINE
  5
29D
100
AcDbEntity
  8
RACCORDO
100
AcDbLine
 62
253
  6
CONTINUOUS
 10
-5.0399996305
 20
21.3573091218
 11
-5.0358615015
 21
21.3593244121
  0
LINE
  5
29E
100
AcDbEntity
  8
RACCORDO
100
AcDbLine
 62
253
  6
CONTINUOUS
 10
-4.9459321256
 20
21.4059320549
 11
-4.9404535052
 21
21.4085845527
  0
LINE
  5
29F
100
AcDbEntity
  8
0
100
AcDbLine
 62
7
  6
CONTINUOUS
 10
-5.2725802895
 20
19.1489269753
 11
-2.0096596626
 21
20.7120927575
  0
LINE
  5
2A0
100
AcDbEntity
  8
0
100
AcDbLine
 62
253
  6
CONTINUOUS
 10
-5.2106133322
 20
19.1179434967
 11
-1.8985622108
 21
20.7046462007
  0
LINE
  5
2A1
100
AcDbEntity
  8
RACCORDO
100
AcDbLine
 62
253
  6
CONTINUOUS
 10
-5.044133565
 20
21.3553361717
 11
-5.0399996305
 21
21.3573091218
  0
LINE
  5
2A2
100
AcDbEntity
  8
RACCORDO
100
AcDbLine
 62
253
  6
CONTINUOUS
 10
-4.9404535052
 20
21.4085845527
 11
-4.9348536737
 21
21.4112483528
  0
LINE
  5
2A3
100
AcDbEntity
  8
SMUSSO
100
AcDbLine
 62
7
  6
CONTINUOUS
 10
17.3832083502
 20
29.846446327
 11
-0.1006103866
 21
21.6263314009
  0
LINE
  5
2A4
100
AcDbEntity
  8
RACCORDO
100
AcDbLine
 62
253
  6
CONTINUOUS
 10
-4.9348536737
 20
21.4112483528
 11
-4.9291292907
 21
21.4139217224
  0
LINE
  5
2A5
100
AcDbEntity
  8
RACCORDO
100
AcDbLine
 62
253
  6
CONTINUOUS
 10
-5.0482655694
 20
21.3534055025
 11
-5.044133565
 21
21.3553361717
  0
LINE
  5
2A6
100
AcDbEntity
  8
RACCORDO
100
AcDbLine
 62
7
  6
CONTINUOUS
 10
-5.3498491643
 20
21.3316891343
 11
-5.2280282858
 21
21.3880615189
  0
LINE
  5
2A7
100
AcDbEntity
  8
RACCORDO
100
AcDbLine
 62
253
  6
CONTINUOUS
 10
-5.1315110176
 20
21.3149599958
 11
-5.0482655694
 21
21.3534055025
  0
LINE
  5
2A8
100
AcDbEntity
  8
0
100
AcDbLine
 62
7
  6
CONTINUOUS
 10
-7.2855430873
 20
20.1101919403
 11
-7.9629963068
 21
19.7973215935
  0
LINE
  5
2A9
100
AcDbEntity
  8
0
100
AcDbLine
 62
253
  6
CONTINUOUS
 10
-7.1774173691
 20
20.1013455151
 11
-7.8538452013
 21
19.7889487261
  0
LINE
  5
2AA
100
AcDbEntity
  8
RACCORDO
100
AcDbLine
 62
7
  6
CONTINUOUS
 10
-5.2179320429
 20
21.3926961207
 11
-5.2280282858
 21
21.3880615189
  0
LINE
  5
2AB
100
AcDbEntity
  8
RACCORDO
100
AcDbLine
 62
253
  6
CONTINUOUS
 10
-4.9291292907
 20
21.4139217224
 11
-4.92327546
 21
21.4166020071
  0
LWPOLYLINE
  5
2AC
100
AcDbEntity
  8
RACCORDO
100
AcDbPolyline
 62
253
  6
CONTINUOUS
 90
18
 70
0
 10
-4.2791296889
 20
21.4447769117
 10
-4.2735012786
 20
21.4473334062
 10
-4.2678857108
 20
21.4496091984
 10
-4.2622918925
 20
21.4516006785
 10
-4.2567286965
 20
21.4533046876
 10
-4.251204947
 20
21.4547185229
 10
-4.2457294056
 20
21.455839942
 10
-4.2403107573
 20
21.4566671659
 10
-4.2349575971
 20
21.4571988827
 10
-4.2296784159
 20
21.4574342488
 10
-4.2244815874
 20
21.4573728911
 10
-4.2193753546
 20
21.4570149068
 10
-4.2143678169
 20
21.4563608638
 10
-4.2094669171
 20
21.4554117994
 10
-4.2046804287
 20
21.4541692191
 10
-4.200015944
 20
21.4526350937
 10
-4.1954808615
 20
21.4508118568
 10
-4.1921551124
 20
21.4492495774
  0
LINE
  5
2AD
100
AcDbEntity
  8
RACCORDO
100
AcDbLine
 62
7
  6
CONTINUOUS
 10
-5.2073120331
 20
21.3975109821
 11
-5.2179320429
 21
21.3926961207
  0
LWPOLYLINE
  5
2AE
100
AcDbEntity
  8
RACCORDO
100
AcDbPolyline
 62
253
  6
CONTINUOUS
 90
22
 70
0
 10
-5.2640754007
 20
21.3713023008
 10
-5.2609470633
 20
21.3727122434
 10
-5.2516985986
 20
21.3764861371
 10
-5.2422389818
 20
21.3797685924
 10
-5.2325783386
 20
21.3825560956
 10
-5.2227270098
 20
21.3848456631
 10
-5.2126955405
 20
21.3866348441
 10
-5.2024946685
 20
21.3879217233
 10
-5.1921353127
 20
21.3887049234
 10
-5.1816285621
 20
21.3889836061
 10
-5.170985663
 20
21.3887574729
 10
-5.1602180078
 20
21.3880267661
 10
-5.1493371224
 20
21.3867922676
 10
-5.1383546535
 20
21.385055299
 10
-5.1272823571
 20
21.3828177196
 10
-5.116132085
 20
21.3800819244
 10
-5.1049157726
 20
21.3768508419
 10
-5.0936454258
 20
21.3731279307
 10
-5.0823331087
 20
21.3689171757
 10
-5.0709909299
 20
21.3642230843
 10
-5.0596310302
 20
21.359050681
 10
-5.0482655694
 20
21.3534055025
  0
LWPOLYLINE
  5
2AF
100
AcDbEntity
  8
RACCORDO
100
AcDbPolyline
 62
7
  6
CONTINUOUS
 90
22
 70
0
 10
-5.349855664
 20
21.3316861325
 10
-5.3467157541
 20
21.3331014232
 10
-5.3374323
 20
21.3368921297
 10
-5.3279246158
 20
21.3401978056
 10
-5.3181971228
 20
21.3430157369
 10
-5.3082651376
 20
21.3453403287
 10
-5.2981490861
 20
21.3471668587
 10
-5.2878672257
 20
21.3484934849
 10
-5.2774237329
 20
21.3493210895
 10
-5.2668181522
 20
21.3496495923
 10
-5.2560533245
 20
21.3494774975
 10
-5.2451483593
 20
21.3488037055
 10
-5.2341273639
 20
21.3476295234
 10
-5.2230099513
 20
21.3459584319
 10
-5.2118003796
 20
21.3437924258
 10
-5.2004999833
 20
21.3411316081
 10
-5.1891143022
 20
21.3379763736
 10
-5.1776614781
 20
21.3343308307
 10
-5.1661617528
 20
21.3302009743
 10
-5.1546300238
 20
21.3255926291
 10
-5.1430757235
 20
21.3205103549
 10
-5.1315110176
 20
21.3149599958
  0
LINE
  5
2B0
100
AcDbEntity
  8
0
100
AcDbLine
 62
253
  6
CONTINUOUS
 10
-2.0096594499
 20
20.7120928594
 11
-2.0053026062
 21
20.7140490823
  0
LINE
  5
2B1
100
AcDbEntity
  8
RACCORDO
100
AcDbLine
 62
253
  6
CONTINUOUS
 10
-4.92327546
 20
21.4166020071
 11
-4.9172874782
 21
21.4192864654
  0
LINE
  5
2B2
100
AcDbEntity
  8
RACCORDO
100
AcDbLine
 62
7
  6
CONTINUOUS
 10
-5.1961824017
 20
21.4024804309
 11
-5.2073120331
 21
21.3975109821
  0
LINE
  5
2B3
100
AcDbEntity
  8
RACCORDO
100
AcDbLine
 62
7
  6
CONTINUOUS
 10
-5.1845324996
 20
21.4075899912
 11
-5.1961824017
 21
21.4024804309
  0
LINE
  5
2B4
100
AcDbEntity
  8
RACCORDO
100
AcDbLine
 62
253
  6
CONTINUOUS
 10
-4.9172874782
 20
21.4192864654
 11
-4.9111623118
 21
21.421973225
  0
LWPOLYLINE
  5
2B5
100
AcDbEntity
  8
0
100
AcDbPolyline
 62
253
  6
CONTINUOUS
 90
31
 70
0
 10
-1.8985622108
 20
20.7046462007
 10
-1.8885242595
 20
20.7089457217
 10
-1.8778392891
 20
20.7126451867
 10
-1.8665072996
 20
20.7157445956
 10
-1.854386749
 20
20.7182668438
 10
-1.8416191793
 20
20.720189036
 10
-1.8286292164
 20
20.7214424861
 10
-1.8154151258
 20
20.7220032524
 10
-1.8019786419
 20
20.7218952766
 10
-1.7887495942
 20
20.7211216983
 10
-1.7757346713
 20
20.719660825
 10
-1.7629271847
 20
20.7175343491
 10
-1.7507368981
 20
20.7148104874
 10
-1.7391837721
 20
20.7114699814
 10
-1.7282478462
 20
20.7075320896
 10
-1.7182790024
 20
20.7031228042
 10
-1.7093085693
 20
20.6982268626
 10
-1.7013052182
 20
20.6928595274
 10
-1.6945248458
 20
20.6871925787
 10
-1.6890069065
 20
20.6812163476
 10
-1.6847119458
 20
20.674940503
 10
-1.6817774963
 20
20.6685658321
 10
-1.6802478511
 20
20.6620891794
 10
-1.6800787171
 20
20.6555137004
 10
-1.6812747477
 20
20.6490496491
 10
-1.6838838795
 20
20.6426984487
 10
-1.6878581758
 20
20.6364586761
 10
-1.6930584805
 20
20.6305363152
 10
-1.6994384082
 20
20.6250000276
 10
-1.7070443442
 20
20.6197811518
 10
-1.7158762886
 20
20.6148796878
  0
LINE
  5
2B6
100
AcDbEntity
  8
RACCORDO
100
AcDbLine
 62
7
  6
CONTINUOUS
 10
-5.1723102217
 20
21.4128424248
 11
-5.1845324996
 21
21.4075899912
  0
LWPOLYLINE
  5
2B7
100
AcDbEntity
  8
0
100
AcDbPolyline
 62
7
  6
CONTINUOUS
 90
4
 70
0
 10
-7.9630545779
 20
19.7972946725
 10
-7.9580137078
 20
19.799449162
 10
-7.9424225029
 20
19.8040976024
 10
-7.9257293631
 20
19.806183922
  0
LWPOLYLINE
  5
2B8
100
AcDbEntity
  8
RACCORDO
100
AcDbPolyline
 62
253
  6
CONTINUOUS
 90
3
 70
0
 10
-4.9111623118
 20
21.421973225
 10
-4.9048955173
 20
21.4246594278
 10
-4.9017077086
 20
21.4260012938
  0
LINE
  5
2B9
100
AcDbEntity
  8
0
100
AcDbLine
 62
7
  6
CONTINUOUS
 10
-1.9775364535
 20
20.7257286581
 11
-2.0097353941
 21
20.7120458092
  0
LWPOLYLINE
  5
2BA
100
AcDbEntity
  8
RACCORDO
100
AcDbPolyline
 62
253
  6
CONTINUOUS
 90
153
 70
0
 10
-4.9017077086
 20
21.4260012938
 10
-4.8952219178
 20
21.4286815475
 10
-4.8919226363
 20
21.4300189105
 10
-4.8885853414
 20
21.4313540864
 10
-4.8852100199
 20
21.4326870792
 10
-4.8817953238
 20
21.4340168782
 10
-4.8783411801
 20
21.4353435137
 10
-4.8748476619
 20
21.4366669555
 10
-4.8713136413
 20
21.4379861025
 10
-4.8677390358
 20
21.4393009844
 10
-4.864123928
 20
21.4406115715
 10
-4.8604674375
 20
21.4419166733
 10
-4.8567695398
 20
21.4432162967
 10
-4.8530302594
 20
21.4445104349
 10
-4.8492487893
 20
21.4457978773
 10
-4.845425097
 20
21.4470786337
 10
-4.841559215
 20
21.4483526943
 10
-4.8376504338
 20
21.4496188193
 10
-4.8336987119
 20
21.450877021
 10
-4.8297040908
 20
21.452127287
 10
-4.8256659862
 20
21.45336834
 10
-4.8215843606
 20
21.4546001909
 10
-4.8174592515
 20
21.4558228287
 10
-4.8132901872
 20
21.457034944
 10
-4.8090771112
 20
21.4582365523
 10
-4.80482008
 20
21.4594276379
 10
-4.8005187906
 20
21.4606068448
 10
-4.7961731651
 20
21.4617741921
 10
-4.7917832814
 20
21.4629296607
 10
-4.787349071
 20
21.4640718365
 10
-4.7828704536
 20
21.4652007361
 10
-4.7783475094
 20
21.466316343
 10
-4.7737804103
 20
21.4674171927
 10
-4.7691690853
 20
21.4685032973
 10
-4.7645136053
 20
21.4695746447
 10
-4.759814356
 20
21.4706297349
 10
-4.7550713864
 20
21.4716685551
 10
-4.7502846474
 20
21.472691118
 10
-4.7454543767
 20
21.4736959619
 10
-4.7405777407
 20
21.4746835792
 10
-4.7356575731
 20
21.4756534774
 10
-4.7307026128
 20
21.4766027173
 10
-4.725709293
 20
21.4775316785
 10
-4.7206811806
 20
21.4784399814
 10
-4.7156377149
 20
21.4793235475
 10
-4.7105816431
 20
21.4801815921
 10
-4.705510218
 20
21.4810148998
 10
-4.7004346375
 20
21.481821746
 10
-4.6953576259
 20
21.4826015804
 10
-4.6902764589
 20
21.4833549531
 10
-4.6851941617
 20
21.4840817902
 10
-4.6801112778
 20
21.4847819988
 10
-4.6750272636
 20
21.4854556716
 10
-4.6699435133
 20
21.486103013
 10
-4.6648599846
 20
21.4867240285
 10
-4.6597767197
 20
21.4873187124
 10
-4.6546952394
 20
21.4878872524
 10
-4.6496153251
 20
21.4884296653
 10
-4.6445371954
 20
21.4889459343
 10
-4.6394630271
 20
21.4894361967
 10
-4.634392693
 20
21.4899004474
 10
-4.6293263202
 20
21.4903386916
 10
-4.6242664667
 20
21.4907510814
 10
-4.6192129896
 20
21.4911376038
 10
-4.6141660318
 20
21.491498272
 10
-4.6091285793
 20
21.4918332775
 10
-4.6041006182
 20
21.4921425929
 10
-4.5990821623
 20
21.4924262457
 10
-4.5940762399
 20
21.4926845109
 10
-4.5890829466
 20
21.4929173579
 10
-4.5841021867
 20
21.4931248173
 10
-4.5791367011
 20
21.4933072563
 10
-4.5741865029
 20
21.4934646514
 10
-4.569251579
 20
21.4935970261
 10
-4.5643346309
 20
21.493704818
 10
-4.5594356993
 20
21.4937880041
 10
-4.5545547436
 20
21.4938466074
 10
-4.5496943432
 20
21.4938811335
 10
-4.5448545705
 20
21.4938915626
 10
-4.5400353531
 20
21.4938779145
 10
-4.5352390544
 20
21.4938407544
 10
-4.5304657591
 20
21.4937800671
 10
-4.5257153825
 20
21.4936958678
 10
-4.5209900333
 20
21.4935887669
 10
-4.5162896402
 20
21.4934587456
 10
-4.5116142746
 20
21.4933058227
 10
-4.5069662596
 20
21.4931306652
 10
-4.5023454305
 20
21.4929332404
 10
-4.497751952
 20
21.492713581
 10
-4.4931886418
 20
21.4924724519
 10
-4.4886556332
 20
21.4922098311
 10
-4.4841527928
 20
21.4919257406
 10
-4.4796825389
 20
21.4916210113
 10
-4.4752451011
 20
21.4912956384
 10
-4.4708402498
 20
21.4909496267
 10
-4.4664697146
 20
21.4905838211
 10
-4.4621336038
 20
21.4901982179
 10
-4.4578318091
 20
21.4897928208
 10
-4.4535657341
 20
21.4893684864
 10
-4.4493354589
 20
21.4889252128
 10
-4.4451409036
 20
21.4884630019
 10
-4.4409832315
 20
21.4879827161
 10
-4.4368625194
 20
21.4874843565
 10
-4.4327786905
 20
21.4869679219
 10
-4.4287326784
 20
21.4864342716
 10
-4.4247245697
 20
21.4858834115
 10
-4.4207542776
 20
21.4853153356
 10
-4.4168224756
 20
21.4847308846
 10
-4.4129292221
 20
21.4841300637
 10
-4.4090744587
 20
21.4835128678
 10
-4.4052586827
 20
21.4828801215
 10
-4.4014819704
 20
21.4822318361
 10
-4.3977442454
 20
21.4815680003
 10
-4.3940457759
 20
21.4808894056
 10
-4.3903866461
 20
21.4801960689
 10
-4.3867667716
 20
21.4794879732
 10
-4.3831861684
 20
21.4787658589
 10
-4.3796448702
 20
21.4780297362
 10
-4.3761428432
 20
21.477279595
 10
-4.3726800014
 20
21.4765161453
 10
-4.3692564156
 20
21.475739408
 10
-4.3658720151
 20
21.4749493622
 10
-4.3625265017
 20
21.4741466558
 10
-4.3592199864
 20
21.473331326
 10
-4.3559523583
 20
21.4725033357
 10
-4.3527229862
 20
21.4716632203
 10
-4.3495319022
 20
21.4708110034
 10
-4.3463790743
 20
21.4699466616
 10
-4.3432637751
 20
21.4690706595
 10
-4.3401860194
 20
21.4681830181
 10
-4.3371457924
 20
21.4672837165
 10
-4.3341423224
 20
21.4663731567
 10
-4.3311756364
 20
21.4654513656
 10
-4.3282457075
 20
21.4645183162
 10
-4.3253516834
 20
21.4635743302
 10
-4.3224935703
 20
21.4626194304
 10
-4.3196713619
 20
21.4616535939
 10
-4.3168841876
 20
21.4606770736
 10
-4.3141320378
 20
21.4596898878
 10
-4.311414922
 20
21.4586920183
 10
-4.3087319978
 20
21.4576836632
 10
-4.3060832533
 20
21.4566648408
 10
-4.3034687003
 20
21.4556355329
 10
-4.3008875324
 20
21.4545958832
 10
-4.2983397363
 20
21.4535459082
 10
-4.2958253253
 20
21.4524855914
 10
-4.2933435326
 20
21.4514150265
 10
-4.2908943448
 20
21.4503342337
 10
-4.2884777753
 20
21.4492431927
 10
-4.2860930977
 20
21.4481419368
 10
-4.2837400696
 20
21.4470304768
 10
-4.2814189333
 20
21.4459088017
 10
-4.2791296889
 20
21.4447769117
  0
LWPOLYLINE
  5
2BB
100
AcDbEntity
  8
0
100
AcDbPolyline
 62
253
  6
CONTINUOUS
 90
6
 70
0
 10
-2.0053026062
 20
20.7140490823
 10
-1.9860471358
 20
20.7198878732
 10
-1.9653955371
 20
20.7218674556
 10
-1.9436895023
 20
20.7199552135
 10
-1.9212881875
 20
20.7141829181
 10
-1.8985622108
 20
20.7046462007
  0
LINE
  5
2BC
100
AcDbEntity
  8
0
100
AcDbLine
 62
7
  6
CONTINUOUS
 10
-0.05263094
 20
-21.4775029418
 11
-1.239216013
 21
-20.8842104053
  0
LINE
  5
2BD
100
AcDbEntity
  8
0
100
AcDbLine
 62
253
  6
CONTINUOUS
 10
-0.6152413168
 20
-24.4603434815
 11
-0.6332384931
 21
-24.4495479549
  0
LWPOLYLINE
  5
2BE
100
AcDbEntity
  8
0
100
AcDbPolyline
 62
7
  6
CONTINUOUS
 90
9
 70
0
 10
-17.7481274002
 20
22.8748681027
 10
-17.7479937806
 20
22.866741358
 10
-17.7458110076
 20
22.8409735387
 10
-17.7409633761
 20
22.8157960904
 10
-17.7335006256
 20
22.791527197
 10
-17.723596303
 20
22.7685605342
 10
-17.7113855212
 20
22.7470461558
 10
-17.696968416
 20
22.7271117587
 10
-17.6805860749
 20
22.7090574108
  0
LINE
  5
2BF
100
AcDbEntity
  8
0
100
AcDbLine
 62
7
  6
CONTINUOUS
 10
-17.7481269615
 20
22.8748681029
 11
-17.7481270082
 21
23.192205212
  0
LINE
  5
2C0
100
AcDbEntity
  8
0
100
AcDbLine
 62
253
  6
CONTINUOUS
 10
-17.6895483644
 20
22.8042430841
 11
-17.6895483644
 21
23.121494534
  0
LINE
  5
2C1
100
AcDbEntity
  8
0
100
AcDbLine
 62
7
  6
CONTINUOUS
 10
-17.0332638878
 20
21.9194045415
 11
-17.0332638878
 21
22.3733516934
  0
LINE
  5
2C2
100
AcDbEntity
  8
0
100
AcDbLine
 62
253
  6
CONTINUOUS
 10
-16.9600405831
 20
21.8276658969
 11
-16.9600405831
 21
22.3367400411
  0
LINE
  5
2C3
100
AcDbEntity
  8
0
100
AcDbLine
 62
7
  6
CONTINUOUS
 10
-16.8273031508
 20
21.0640008245
 11
-16.8273031508
 21
22.2742949083
  0
LINE
  5
2C4
100
AcDbEntity
  8
0
100
AcDbLine
 62
253
  6
CONTINUOUS
 10
-16.7540798461
 20
20.972192279
 11
-16.7540798461
 21
22.3364914745
  0
LINE
  5
2C5
100
AcDbEntity
  8
0
100
AcDbLine
 62
253
  6
CONTINUOUS
 10
-16.56051556
 20
20.875410136
 11
-16.56051556
 21
22.2397093314
  0
LWPOLYLINE
  5
2C6
100
AcDbEntity
  8
0
100
AcDbPolyline
 62
253
  6
CONTINUOUS
 90
18
 70
0
 10
-17.6895483644
 20
23.121494534
 10
-17.6893520195
 20
23.1318072829
 10
-17.6887399668
 20
23.1426173526
 10
-17.6876766292
 20
23.1539144141
 10
-17.6861227614
 20
23.165709191
 10
-17.6840456788
 20
23.1779562771
 10
-17.6814298993
 20
23.1905514882
 10
-17.6782526519
 20
23.2034627799
 10
-17.674493123
 20
23.21665274
 10
-17.6701603364
 20
23.2300000779
 10
-17.6652475428
 20
23.2434599524
 10
-17.6597508276
 20
23.2569832252
 10
-17.6537059765
 20
23.2704396584
 10
-17.6471264478
 20
23.2837728816
 10
-17.640022893
 20
23.2969364236
 10
-17.6324462615
 20
23.3098193979
 10
-17.6244288446
 20
23.3223609155
 10
-17.6159894618
 20
23.3345257117
  0
LWPOLYLINE
  5
2C7
100
AcDbEntity
  8
0
100
AcDbPolyline
 62
7
  6
CONTINUOUS
 90
3
 70
0
 10
-13.0823824958
 20
22.8602997719
 10
-13.0770182487
 20
22.8844567596
 10
-13.073875088
 20
22.9092867294
  0
LINE
  5
2C8
100
AcDbEntity
  8
RACCORDO
100
AcDbLine
 62
7
  6
CONTINUOUS
 10
-6.8673292295
 20
19.9463014453
 11
-5.706025424
 21
21.1331173285
  0
LINE
  5
2C9
100
AcDbEntity
  8
RACCORDO
100
AcDbLine
 62
253
  6
CONTINUOUS
 10
-6.7068142233
 20
19.8660439422
 11
-5.4604786931
 21
21.1397595677
  0
LWPOLYLINE
  5
2CA
100
AcDbEntity
  8
0
100
AcDbPolyline
 62
7
  6
CONTINUOUS
 90
9
 70
0
 10
-0.7349479694
 20
20.2995722808
 10
-0.7364145934
 20
20.2986781043
 10
-0.7405300206
 20
20.2941272387
 10
-0.7447130044
 20
20.2865665104
 10
-0.7488365892
 20
20.2757698587
 10
-0.7527309188
 20
20.2619745243
 10
-0.7561094653
 20
20.2460248227
 10
-0.758806585
 20
20.2282078463
 10
-0.7608026749
 20
20.2082506971
  0
LWPOLYLINE
  5
2CB
100
AcDbEntity
  8
0
100
AcDbPolyline
 62
7
  6
CONTINUOUS
 90
12
 70
0
 10
-5.0223655525
 20
17.135988241
 10
-5.0336849512
 20
17.1294879726
 10
-5.0559699035
 20
17.1141470317
 10
-5.0768606676
 20
17.0961560678
 10
-5.0960465642
 20
17.0757136204
 10
-5.1128167346
 20
17.0536917102
 10
-5.1274766701
 20
17.0298164412
 10
-5.1399514582
 20
17.0040042912
 10
-5.1495904824
 20
16.9775554707
 10
-5.1563994529
 20
16.9507999835
 10
-5.16049779
 20
16.9229901512
 10
-5.1616262286
 20
16.8989245528
  0
LWPOLYLINE
  5
2CC
100
AcDbEntity
  8
0
100
AcDbPolyline
 62
253
  6
CONTINUOUS
 90
12
 70
0
 10
-4.9299625021
 20
17.1318664954
 10
-4.9382184656
 20
17.1272940961
 10
-4.9467039976
 20
17.1220957646
 10
-4.9553958655
 20
17.1162398685
 10
-4.9642862699
 20
17.1096821454
 10
-4.9733247796
 20
17.1024086362
 10
-4.9824206591
 20
17.094447395
 10
-4.9915382897
 20
17.0857885152
 10
-5.0006385761
 20
17.0764264565
 10
-5.0096272363
 20
17.0664211342
 10
-5.0184643359
 20
17.0557847292
 10
-5.027108782
 20
17.0445329466
  0
LINE
  5
2CD
100
AcDbEntity
  8
0
100
AcDbLine
 62
7
  6
CONTINUOUS
 10
-5.4496552213
 20
17.2012130901
 11
-5.6680012587
 21
17.0820115703
  0
LINE
  5
2CE
100
AcDbEntity
  8
0
100
AcDbLine
 62
7
  6
CONTINUOUS
 10
-3.4552586328
 20
17.9814786591
 11
-5.022459123
 21
17.1359380404
  0
LINE
  5
2CF
100
AcDbEntity
  8
0
100
AcDbLine
 62
253
  6
CONTINUOUS
 10
-3.3637117559
 20
17.9768947054
 11
-4.9299625021
 21
17.1318664954
  0
LINE
  5
2D0
100
AcDbEntity
  8
DRAFT
100
AcDbLine
 62
7
  6
CONTINUOUS
 10
14.7669202195
 20
28.788702215
 11
15.8183241501
 21
29.3236604215
  0
LINE
  5
2D1
100
AcDbEntity
  8
0
100
AcDbLine
 62
253
  6
CONTINUOUS
 10
-5.6680012587
 20
18.2603654786
 11
-5.4496552213
 21
18.3703803602
  0
LINE
  5
2D2
100
AcDbEntity
  8
0
100
AcDbLine
 62
7
  6
CONTINUOUS
 10
-3.4552151984
 20
17.9815020494
 11
-3.4510487618
 21
17.9835855538
  0
LINE
  5
2D3
100
AcDbEntity
  8
0
100
AcDbLine
 62
253
  6
CONTINUOUS
 10
-1.5391265172
 20
20.3100314262
 11
-5.4496552213
 21
18.3703803602
  0
LINE
  5
2D4
100
AcDbEntity
  8
0
100
AcDbLine
 62
7
  6
CONTINUOUS
 10
-5.4496552213
 20
17.2012130901
 11
-1.5512932808
 21
19.1348293517
  0
LINE
  5
2D5
100
AcDbEntity
  8
SMUSSO
100
AcDbLine
 62
7
  6
CONTINUOUS
 10
19.1643462249
 20
28.9558773897
 11
2.757052379
 21
20.9616287218
  0
LINE
  5
2D6
100
AcDbEntity
  8
SMUSSO
100
AcDbLine
 62
7
  6
CONTINUOUS
 10
19.3538580561
 20
27.9949641604
 11
3.8239187705
 21
20.4281955261
  0
LINE
  5
2D7
100
AcDbEntity
  8
0
100
AcDbLine
 62
7
  6
CONTINUOUS
 10
-1.4373349895
 20
19.7375758747
 11
-1.0164564458
 21
19.9392059519
  0
LINE
  5
2D8
100
AcDbEntity
  8
0
100
AcDbLine
 62
7
  6
CONTINUOUS
 10
-0.73605114
 20
20.2990001811
 11
1.4309335395
 21
21.3368130374
  0
LINE
  5
2D9
100
AcDbEntity
  8
0
100
AcDbLine
 62
253
  6
CONTINUOUS
 10
-0.7272798839
 20
20.2425475346
 11
1.5420035806
 21
21.3293533511
  0
LINE
  5
2DA
100
AcDbEntity
  8
SMUSSO
100
AcDbLine
 62
7
  6
CONTINUOUS
 10
20.9187422561
 20
28.0786793741
 11
4.2225587399
 21
20.2288755414
  0
LINE
  5
2DB
100
AcDbEntity
  8
0
100
AcDbLine
 62
253
  6
CONTINUOUS
 10
-2.8209856932
 20
18.2275435864
 11
-3.3637117559
 21
17.9768947054
  0
LINE
  5
2DC
100
AcDbEntity
  8
0
100
AcDbLine
 62
7
  6
CONTINUOUS
 10
-2.9070690958
 20
18.2348128724
 11
-3.4509929561
 21
17.9836113268
  0
LWPOLYLINE
  5
2DD
100
AcDbEntity
  8
0
100
AcDbPolyline
 62
253
  6
CONTINUOUS
 90
7
 70
0
 10
1.430969076
 20
21.3368300477
 10
1.4347519501
 20
21.3385408368
 10
1.4540733757
 20
21.3445104812
 10
1.474814685
 20
21.3465783442
 10
1.4966287957
 20
21.3447097531
 10
1.5191507179
 20
21.3389359065
 10
1.5420035793
 20
21.3293533505
  0
LWPOLYLINE
  5
2DE
100
AcDbEntity
  8
0
100
AcDbPolyline
 62
253
  6
CONTINUOUS
 90
10
 70
0
 10
1.5420035806
 20
21.3293533511
 10
1.594176595
 20
21.3519939776
 10
1.6459478001
 20
21.369766781
 10
1.6970336112
 20
21.3825747603
 10
1.7471525569
 20
21.3903488302
 10
1.7960309002
 20
21.3930463174
 10
1.8434041217
 20
21.3906511115
 10
1.8890109901
 20
21.383177285
 10
1.9326008506
 20
21.3706661146
 10
1.9747914195
 20
21.3527592016
  0
LWPOLYLINE
  5
2DF
100
AcDbEntity
  8
0
100
AcDbPolyline
 62
7
  6
CONTINUOUS
 90
3
 70
0
 10
-3.4510487618
 20
17.9835855538
 10
-3.4344112916
 20
17.9890478271
 10
-3.4178243939
 20
17.9907706185
  0
LWPOLYLINE
  5
2E0
100
AcDbEntity
  8
0
100
AcDbPolyline
 62
7
  6
CONTINUOUS
 90
5
 70
0
 10
-0.5362185728
 20
-24.5174805837
 10
-0.5527315188
 20
-24.4989138504
 10
-0.5710465317
 20
-24.4824792263
 10
-0.5910246089
 20
-24.4682416933
 10
-0.6101758465
 20
-24.4574602168
  0
LINE
  5
2E1
100
AcDbEntity
  8
0
100
AcDbLine
 62
253
  6
CONTINUOUS
 10
-16.2100742721
 20
20.8850295998
 11
-16.2100742721
 21
21.9617568856
  0
LINE
  5
2E2
100
AcDbEntity
  8
0
100
AcDbLine
 62
7
  6
CONTINUOUS
 10
-15.6673482094
 20
21.6903938542
 11
-15.6673482094
 21
21.1813197101
  0
LINE
  5
2E3
100
AcDbEntity
  8
0
100
AcDbLine
 62
253
  6
CONTINUOUS
 10
-15.6250470417
 20
21.7719750723
 11
-15.6250470417
 21
22.0892438726
  0
LINE
  5
2E4
100
AcDbEntity
  8
0
100
AcDbLine
 62
253
  6
CONTINUOUS
 10
-15.3446940114
 20
21.7707517703
 11
-15.3446940114
 21
22.0880205707
  0
LINE
  5
2E5
100
AcDbEntity
  8
0
100
AcDbLine
 62
253
  6
CONTINUOUS
 10
-14.9403412607
 20
20.8178162357
 11
-14.9403412607
 21
21.497987524
  0
LINE
  5
2E6
100
AcDbEntity
  8
0
100
AcDbLine
 62
253
  6
CONTINUOUS
 10
-14.5898999728
 20
21.5856361457
 11
-14.5898999728
 21
20.8274356996
  0
LINE
  5
2E7
100
AcDbEntity
  8
0
100
AcDbLine
 62
7
  6
CONTINUOUS
 10
-13.6874492221
 20
21.3201100905
 11
-13.6874492221
 21
22.9655847377
  0
LWPOLYLINE
  5
2E8
100
AcDbEntity
  8
0
100
AcDbPolyline
 62
253
  6
CONTINUOUS
 90
28
 70
0
 10
-15.3446940114
 20
22.0880205707
 10
-15.3446645534
 20
22.0901083716
 10
-15.3445350789
 20
22.0922861484
 10
-15.344305588
 20
22.0945539012
 10
-15.3439806513
 20
22.0969221629
 10
-15.3435556982
 20
22.0993804007
 10
-15.343017016
 20
22.1018970151
 10
-15.3423609512
 20
22.1044748997
 10
-15.3415911573
 20
22.107111161
 10
-15.3407048834
 20
22.1097655195
 10
-15.3396982357
 20
22.1124392917
 10
-15.3385751079
 20
22.115131161
 10
-15.3373444302
 20
22.117796898
 10
-15.3360037847
 20
22.1204346418
 10
-15.3345555892
 20
22.1230462533
 10
-15.3330160284
 20
22.1255930859
 10
-15.3313840646
 20
22.1280725756
 10
-15.3296607354
 20
22.1304872864
 10
-15.3278653374
 20
22.1328062635
 10
-15.325996847
 20
22.1350279113
 10
-15.3240562878
 20
22.1371538255
 10
-15.3220660279
 20
22.1391578386
 10
-15.3200252323
 20
22.1410382077
 10
-15.317934736
 20
22.1427966758
 10
-15.3158194122
 20
22.1444123046
 10
-15.3136875519
 20
22.1458781149
 10
-15.3115308641
 20
22.147201086
 10
-15.3093493487
 20
22.1483812179
  0
LWPOLYLINE
  5
2E9
100
AcDbEntity
  8
0
100
AcDbPolyline
 62
253
  6
CONTINUOUS
 90
28
 70
0
 10
-15.6250470417
 20
22.0892438726
 10
-15.6248459379
 20
22.0996551173
 10
-15.6242190643
 20
22.110550812
 10
-15.6231322603
 20
22.1219194208
 10
-15.6215480149
 20
22.1337702082
 10
-15.6194351093
 20
22.1460571263
 10
-15.6167791032
 20
22.1586762525
 10
-15.613558751
 20
22.1715949186
 10
-15.6097550505
 20
22.1847754077
 10
-15.605378252
 20
22.1980975684
 10
-15.6004233625
 20
22.2115156317
 10
-15.5948877285
 20
22.2249819902
 10
-15.5888068548
 20
22.2383715259
 10
-15.5821967069
 20
22.2516250364
 10
-15.5750670937
 20
22.2647007275
 10
-15.5674614052
 20
22.2775032687
 10
-15.5594083745
 20
22.2899755406
 10
-15.5509281941
 20
22.3020780967
 10
-15.5420608713
 20
22.3137475754
 10
-15.5328380128
 20
22.324937945
 10
-15.5232903799
 20
22.3356076771
 10
-15.5134615024
 20
22.3457057151
 10
-15.5033864982
 20
22.355194312
 10
-15.4931018952
 20
22.3640374668
 10
-15.4826562715
 20
22.3721936646
 10
-15.4720917261
 20
22.3796316414
 10
-15.4614430943
 20
22.3863281553
 10
-15.4507491658
 20
22.3922598272
  0
LINE
  5
2EA
100
AcDbEntity
  8
0
100
AcDbLine
 62
7
  6
CONTINUOUS
 10
-13.073875088
 20
22.9092867294
 11
-13.0730807855
 21
22.9294617993
  0
LWPOLYLINE
  5
2EB
100
AcDbEntity
  8
0
100
AcDbPolyline
 62
253
  6
CONTINUOUS
 90
7
 70
0
 10
-13.0730807716
 20
23.26938791
 10
-13.0745363009
 20
23.2573453485
 10
-13.0793063978
 20
23.2446316379
 10
-13.0873188611
 20
23.2323321662
 10
-13.0984396207
 20
23.2206527369
 10
-13.1124825964
 20
23.209788778
 10
-13.1292128116
 20
23.1999220729
  0
LWPOLYLINE
  5
2EC
100
AcDbEntity
  8
0
100
AcDbPolyline
 62
253
  6
CONTINUOUS
 90
7
 70
0
 10
-13.0730807716
 20
22.9294443151
 10
-13.0745363014
 20
22.9174017516
 10
-13.0793063987
 20
22.9046880412
 10
-13.0873188622
 20
22.8923885699
 10
-13.0984396218
 20
22.880709141
 10
-13.1124825972
 20
22.8698451827
 10
-13.1292128116
 20
22.8599784781
  0
LWPOLYLINE
  5
2ED
100
AcDbEntity
  8
0
100
AcDbPolyline
 62
253
  6
CONTINUOUS
 90
17
 70
0
 10
-5.027108782
 20
17.0445329466
 10
-5.0354717348
 20
17.032754323
 10
-5.0435118462
 20
17.0204865643
 10
-5.0511961273
 20
17.0077582463
 10
-5.0584591857
 20
16.9946611225
 10
-5.0652648282
 20
16.9812503884
 10
-5.0715895944
 20
16.9675613302
 10
-5.0773967362
 20
16.9536640175
 10
-5.0826611849
 20
16.9396112917
 10
-5.0873619059
 20
16.9254512394
 10
-5.0914750773
 20
16.9112494902
 10
-5.0949843112
 20
16.897057872
 10
-5.0978750772
 20
16.882929292
 10
-5.1001333166
 20
16.8689310861
 10
-5.1017508792
 20
16.8551196878
 10
-5.1027233077
 20
16.8415407913
 10
-5.1030476593
 20
16.8282441814
  0
LINE
  5
2EE
100
AcDbEntity
  8
0
100
AcDbLine
 62
7
  6
CONTINUOUS
 10
-4.2010425543
 20
16.0176595736
 11
-4.167579141
 21
16.0432411219
  0
LWPOLYLINE
  5
2EF
100
AcDbEntity
  8
0
100
AcDbPolyline
 62
253
  6
CONTINUOUS
 90
7
 70
0
 10
-0.5427121065
 20
16.9066717204
 10
-0.5259819035
 20
16.9165384173
 10
-0.5119389337
 20
16.9274023682
 10
-0.5008181745
 20
16.9390817905
 10
-0.4928057073
 20
16.9513812567
 10
-0.4880356036
 20
16.9640949639
 10
-0.4865800665
 20
16.9761375573
  0
LWPOLYLINE
  5
2F0
100
AcDbEntity
  8
0
100
AcDbPolyline
 62
253
  6
CONTINUOUS
 90
7
 70
0
 10
-0.5427121065
 20
16.5667281255
 10
-0.5259818913
 20
16.5765948306
 10
-0.5119389156
 20
16.5874587895
 10
-0.500818156
 20
16.5991382188
 10
-0.4928056927
 20
16.6114376904
 10
-0.4880355958
 20
16.6241514011
 10
-0.4865800665
 20
16.6361939626
  0
LWPOLYLINE
  5
2F1
100
AcDbEntity
  8
0
100
AcDbPolyline
 62
253
  6
CONTINUOUS
 90
28
 70
0
 10
-2.8642484607
 20
16.0990094747
 10
-2.8731729639
 20
16.0941138147
 10
-2.8822609748
 20
16.0885608013
 10
-2.8914856909
 20
16.0823299405
 10
-2.9008358391
 20
16.0753892374
 10
-2.9102593318
 20
16.0677362454
 10
-2.9196658249
 20
16.0594094463
 10
-2.9290195723
 20
16.0504110001
 10
-2.9382822481
 20
16.0407472841
 10
-2.9473630546
 20
16.0304874985
 10
-2.9562230092
 20
16.0196569815
 10
-2.9648277376
 20
16.0082783414
 10
-2.9731014562
 20
15.9964368006
 10
-2.9810058627
 20
15.9841799013
 10
-2.9885170826
 20
15.9715371075
 10
-2.9955898219
 20
15.9585780921
 10
-3.0021943601
 20
15.945355641
 10
-3.0083109813
 20
15.9319075399
 10
-3.0139150022
 20
15.9182850028
 10
-3.0189861714
 20
15.9045351903
 10
-3.0235057896
 20
15.8907066251
 10
-3.0274554526
 20
15.876853662
 10
-3.0308211592
 20
15.8630250366
 10
-3.0335910358
 20
15.8492693119
 10
-3.0357543811
 20
15.8356404161
 10
-3.037304033
 20
15.8221878946
 10
-3.0382355626
 20
15.8089568806
 10
-3.0385463366
 20
15.7959935201
  0
LINE
  5
2F2
100
AcDbEntity
  8
0
100
AcDbLine
 62
7
  6
CONTINUOUS
 10
-3.0808475043
 20
14.8880693575
 11
-3.623573567
 21
14.5917792473
  0
LINE
  5
2F3
100
AcDbEntity
  8
0
100
AcDbLine
 62
253
  6
CONTINUOUS
 10
-6.3011808038
 20
12.2337992992
 11
-2.0640313564
 21
14.5092780315
  0
LINE
  5
2F4
100
AcDbEntity
  8
0
100
AcDbLine
 62
7
  6
CONTINUOUS
 10
5.5745207841
 20
18.950945248
 11
-0.8123680577
 21
15.5745597598
  0
LWPOLYLINE
  5
2F5
100
AcDbEntity
  8
0
100
AcDbPolyline
 62
253
  6
CONTINUOUS
 90
28
 70
0
 10
-2.7228486436
 20
15.8551308653
 10
-2.7246685408
 20
15.8541699946
 10
-2.7265096571
 20
15.8530706076
 10
-2.7283719925
 20
15.8518327043
 10
-2.7302662525
 20
15.8504545839
 10
-2.7321817316
 20
15.8489379473
 10
-2.7340863134
 20
15.8472878968
 10
-2.7359803696
 20
15.8454997499
 10
-2.7378635286
 20
15.8435781891
 10
-2.739702559
 20
15.8415423634
 10
-2.7414960752
 20
15.8393889507
 10
-2.7432454628
 20
15.8371212732
 10
-2.7449216484
 20
15.8347684468
 10
-2.746521803
 20
15.8323300497
 10
-2.7480487555
 20
15.8298065037
 10
-2.7494819192
 20
15.8272281898
 10
-2.750819104
 20
15.8245956606
 10
-2.7520625001
 20
15.8219083635
 10
-2.7531980916
 20
15.8191950212
 10
-2.7542246409
 20
15.8164551841
 10
-2.7551433856
 20
15.8136893018
 10
-2.7559440231
 20
15.8109274455
 10
-2.7566251072
 20
15.8081696678
 10
-2.7571880842
 20
15.8054159161
 10
-2.757626989
 20
15.8026961039
 10
-2.7579398335
 20
15.8000202025
 10
-2.7581286059
 20
15.7973782405
 10
-2.7581933063
 20
15.7947702182
  0
LINE
  5
2F6
100
AcDbEntity
  8
DRAFT
100
AcDbLine
 62
7
  6
CONTINUOUS
 10
-0.358941767
 20
15.3435167421
 11
5.9369900018
 21
18.6508324769
  0
LINE
  5
2F7
100
AcDbEntity
  8
0
100
AcDbLine
 62
7
  6
CONTINUOUS
 10
5.551853494
 20
19.3496403632
 11
-0.9854222693
 21
15.9231989451
  0
LWPOLYLINE
  5
2F8
100
AcDbEntity
  8
0
100
AcDbPolyline
 62
7
  6
CONTINUOUS
 90
7
 70
0
 10
-2.0033992677
 20
14.5340909172
 10
-2.012562506
 20
14.5293265031
 10
-2.0221349047
 20
14.5248009658
 10
-2.0320929404
 20
14.5205242795
 10
-2.0424121138
 20
14.5165058254
 10
-2.0530670092
 20
14.5127543679
 10
-2.0640313564
 20
14.5092780315
  0
LINE
  5
2F9
100
AcDbEntity
  8
DRAFT
100
AcDbLine
 62
7
  6
CONTINUOUS
 10
18.3024541254
 20
27.0209352621
 11
19.3538580561
 21
27.5558934685
  0
LINE
  5
2FA
100
AcDbEntity
  8
0
100
AcDbLine
 62
253
  6
CONTINUOUS
 10
-1.2423483341
 20
16.9162129944
 11
-2.8642484607
 21
16.0990094747
  0
LINE
  5
2FB
100
AcDbEntity
  8
0
100
AcDbLine
 62
253
  6
CONTINUOUS
 10
-1.100948517
 20
16.6723343851
 11
-2.7228486436
 21
15.8551308653
  0
LINE
  5
2FC
100
AcDbEntity
  8
RACCORDO
100
AcDbLine
 62
7
  6
CONTINUOUS
 10
18.3024541254
 20
27.0633038759
 11
10.5981465821
 21
23.2263937365
  0
LINE
  5
2FD
100
AcDbEntity
  8
0
100
AcDbLine
 62
253
  6
CONTINUOUS
 10
-0.7182438675
 20
17.1761726736
 11
-1.2423483341
 21
16.9162129944
  0
LINE
  5
2FE
100
AcDbEntity
  8
0
100
AcDbLine
 62
253
  6
CONTINUOUS
 10
-0.5768440504
 20
16.9322940643
 11
-1.100948517
 21
16.6723343851
  0
LINE
  5
2FF
100
AcDbEntity
  8
0
100
AcDbLine
 62
253
  6
CONTINUOUS
 10
-0.4061304827
 20
15.3714409723
 11
-1.1009458552
 21
15.0268609672
  0
LINE
  5
300
100
AcDbEntity
  8
SMUSSO
100
AcDbLine
 62
7
  6
CONTINUOUS
 10
22.6998801308
 20
27.1881104367
 11
5.5624403566
 21
18.8381072995
  0
LINE
  5
301
100
AcDbEntity
  8
SMUSSO
100
AcDbLine
 62
7
  6
CONTINUOUS
 10
22.889391962
 20
26.2271972074
 11
6.2459802807
 21
18.1179030781
  0
LINE
  5
302
100
AcDbEntity
  8
0
100
AcDbLine
 62
7
  6
CONTINUOUS
 10
4.360595174
 20
19.9200575544
 11
-1.0041560982
 21
17.3790787314
  0
LWPOLYLINE
  5
303
100
AcDbEntity
  8
0
100
AcDbPolyline
 62
253
  6
CONTINUOUS
 90
13
 70
0
 10
-2.7581933063
 20
15.7947702182
 10
-2.7779267165
 20
15.7864051106
 10
-2.7996546341
 20
15.7793836227
 10
-2.8230134929
 20
15.7738232429
 10
-2.8476124361
 20
15.7698170113
 10
-2.8730398573
 20
15.7674319628
 10
-2.8988702875
 20
15.7667080059
 10
-2.9246715139
 20
15.7676572542
 10
-2.9500118128
 20
15.7702638242
 10
-2.9744671727
 20
15.774484101
 10
-2.9976283897
 20
15.7802474681
 10
-3.0191079144
 20
15.7874574888
 10
-3.0385463366
 20
15.7959935201
  0
LWPOLYLINE
  5
304
100
AcDbEntity
  8
0
100
AcDbPolyline
 62
253
  6
CONTINUOUS
 90
13
 70
0
 10
-2.7581933063
 20
15.4775014178
 10
-2.7779267566
 20
15.4691362745
 10
-2.799654713
 20
15.4621147625
 10
-2.8230136051
 20
15.4565543689
 10
-2.8476125731
 20
15.4525481323
 10
-2.8730400085
 20
15.4501630861
 10
-2.8988704416
 20
15.4494391369
 10
-2.9246716593
 20
15.4503883967
 10
-2.9500119386
 20
15.4529949799
 10
-2.9744672718
 20
15.4572152701
 10
-2.9976284575
 20
15.4629786495
 10
-3.0191079482
 20
15.4701886805
 10
-3.0385463366
 20
15.4787247196
  0
LWPOLYLINE
  5
305
100
AcDbEntity
  8
0
100
AcDbPolyline
 62
7
  6
CONTINUOUS
 90
4
 70
0
 10
-4.167579141
 20
-25.2563630175
 10
-4.1856873403
 20
-25.2234539472
 10
-4.2013901652
 20
-25.1895308571
 10
-4.2126653217
 20
-25.1599438131
  0
LWPOLYLINE
  5
306
100
AcDbEntity
  8
0
100
AcDbPolyline
 62
253
  6
CONTINUOUS
 90
7
 70
0
 10
-17.7481269615
 20
22.8748681029
 10
-17.7462208963
 20
22.861163145
 10
-17.7410077562
 20
22.8484929955
 10
-17.7325672025
 20
22.8362653156
 10
-17.7210404684
 20
22.8246847071
 10
-17.706620427
 20
22.8139449447
 10
-17.6895483644
 20
22.8042257336
  0
LWPOLYLINE
  5
307
100
AcDbEntity
  8
0
100
AcDbPolyline
 62
253
  6
CONTINUOUS
 90
7
 70
0
 10
-17.7481270001
 20
23.1921768138
 10
-17.746220901
 20
23.1784319624
 10
-17.7410077645
 20
23.1657618109
 10
-17.7325672126
 20
23.1535341279
 10
-17.721040478
 20
23.1419535157
 10
-17.7066204334
 20
23.1312137492
 10
-17.6895483644
 20
23.121494534
  0
LWPOLYLINE
  5
308
100
AcDbEntity
  8
0
100
AcDbPolyline
 62
7
  6
CONTINUOUS
 90
13
 70
0
 10
-13.6874492221
 20
22.9655847377
 10
-13.688652839
 20
22.9887973736
 10
-13.692262069
 20
23.0128185782
 10
-13.6982109784
 20
23.0372397917
 10
-13.7063931107
 20
23.0616460589
 10
-13.7166676453
 20
23.0856202013
 10
-13.7288616575
 20
23.1087499883
 10
-13.7427690777
 20
23.130638513
 10
-13.7581495036
 20
23.1509126321
 10
-13.7747364012
 20
23.1692266221
 10
-13.7922468218
 20
23.1852667677
 10
-13.8103863257
 20
23.1987565806
 10
-13.8288490392
 20
23.209463347
  0
LWPOLYLINE
  5
309
100
AcDbEntity
  8
0
100
AcDbPolyline
 62
7
  6
CONTINUOUS
 90
13
 70
0
 10
-13.0730809074
 20
23.2694221025
 10
-13.0731465429
 20
23.2751576059
 10
-13.0749987233
 20
23.3003300861
 10
-13.079410274
 20
23.3250646982
 10
-13.0863334828
 20
23.3489803968
 10
-13.095611961
 20
23.3716724939
 10
-13.1071485368
 20
23.3930323319
 10
-13.1208720079
 20
23.4129603231
 10
-13.1365812909
 20
23.4311750383
 10
-13.1540513989
 20
23.4474607252
 10
-13.1731721115
 20
23.4617389296
 10
-13.1936695308
 20
23.473810712
 10
-13.1964482463
 20
23.4752241306
  0
LINE
  5
30A
100
AcDbEntity
  8
0
100
AcDbLine
 62
253
  6
CONTINUOUS
 10
-13.1292128116
 20
23.1999220729
 11
-13.1292128116
 21
22.8599784781
  0
LINE
  5
30B
100
AcDbEntity
  8
0
100
AcDbLine
 62
7
  6
CONTINUOUS
 10
-13.0730807833
 20
23.2694221025
 11
-13.0730807716
 21
22.9294443152
  0
LINE
  5
30C
100
AcDbEntity
  8
0
100
AcDbLine
 62
7
  6
CONTINUOUS
 10
-12.0098919311
 20
20.1491744522
 11
-12.0098919311
 21
21.333778958
  0
LINE
  5
30D
100
AcDbEntity
  8
0
100
AcDbLine
 62
253
  6
CONTINUOUS
 10
-11.9513132873
 20
20.0757954984
 11
-11.9513132873
 21
21.2630682797
  0
LWPOLYLINE
  5
30E
100
AcDbEntity
  8
0
100
AcDbPolyline
 62
253
  6
CONTINUOUS
 90
22
 70
0
 10
-13.1292128116
 20
22.8599784781
 10
-13.1292353558
 20
22.858147913
 10
-13.1293313831
 20
22.856243221
 10
-13.1295008935
 20
22.854264402
 10
-13.1297403151
 20
22.8522050945
 10
-13.1300532198
 20
22.8500716601
 10
-13.1304503234
 20
22.8478831829
 10
-13.1309335272
 20
22.845637671
 10
-13.1315009299
 20
22.8433371165
 10
-13.1321575432
 20
22.8410065798
 10
-13.1329055557
 20
22.838644654
 10
-13.1337427787
 20
22.836252746
 10
-13.1346676582
 20
22.8338601381
 10
-13.1356824155
 20
22.8314662751
 10
-13.1367848292
 20
22.8290717121
 10
-13.1379666815
 20
22.8267073963
 10
-13.1392299611
 20
22.8243737627
 10
-13.1405726794
 20
22.8220703763
 10
-13.1419806524
 20
22.8198268788
 10
-13.1434491522
 20
22.8176531506
 10
-13.1449829069
 20
22.8155393113
 10
-13.1465819162
 20
22.8134853609
  0
LWPOLYLINE
  5
30F
100
AcDbEntity
  8
0
100
AcDbPolyline
 62
253
  6
CONTINUOUS
 90
28
 70
0
 10
-11.9513132873
 20
21.2630682797
 10
-11.9512856549
 20
21.2651182094
 10
-11.9511590545
 20
21.2671648322
 10
-11.9509334861
 20
21.2692081481
 10
-11.9506139477
 20
21.2712638385
 10
-11.9501954412
 20
21.2733162219
 10
-11.949662973
 20
21.2753182543
 10
-11.9490127993
 20
21.2772693858
 10
-11.9482486639
 20
21.2791701661
 10
-11.9473668037
 20
21.2809752004
 10
-11.9463631379
 20
21.2826820081
 10
-11.9452417474
 20
21.2842930697
 10
-11.9440111116
 20
21.2857704312
 10
-11.9426683242
 20
21.2871097675
 10
-11.9412162914
 20
21.2883154037
 10
-11.939672211
 20
21.2893623613
 10
-11.9380351207
 20
21.290246508
 10
-11.9363059827
 20
21.2909719761
 10
-11.9345048817
 20
21.2915261847
 10
-11.9326308924
 20
21.2919063565
 10
-11.9306849401
 20
21.2921152687
 10
-11.9286898861
 20
21.2921486723
 10
-11.9266448622
 20
21.2920039264
 10
-11.9245507365
 20
21.2916836719
 10
-11.9224329742
 20
21.2911915824
 10
-11.9203000637
 20
21.2905288825
 10
-11.9181435167
 20
21.2896943476
 10
-11.9159633331
 20
21.2886879778
  0
LWPOLYLINE
  5
310
100
AcDbEntity
  8
0
100
AcDbPolyline
 62
7
  6
CONTINUOUS
 90
10
 70
0
 10
-5.4496552213
 20
17.7052875522
 10
-5.4357142385
 20
17.7389673427
 10
-5.4252585015
 20
17.7750363774
 10
-5.4182880101
 20
17.8134946563
 10
-5.4148027644
 20
17.8547732605
 10
-5.4148027644
 20
17.8984411089
 10
-5.4182880101
 20
17.9432049587
 10
-5.4252585015
 20
17.988633729
 10
-5.4357142385
 20
18.0351585008
 10
-5.4496552213
 20
18.082779274
  0
LWPOLYLINE
  5
311
100
AcDbEntity
  8
0
100
AcDbPolyline
 62
7
  6
CONTINUOUS
 90
6
 70
0
 10
-4.2408001242
 20
15.9793215917
 10
-4.2390038267
 20
15.9830015983
 10
-4.2337782011
 20
15.9891933938
 10
-4.2255809917
 20
15.9975337221
 10
-4.2146085412
 20
16.0070955147
 10
-4.2010425543
 20
16.0176595736
  0
LINE
  5
312
100
AcDbEntity
  8
0
100
AcDbLine
 62
253
  6
CONTINUOUS
 10
-1.100948517
 20
15.8509475222
 11
-0.5600812111
 21
16.5202350083
  0
LINE
  5
313
100
AcDbEntity
  8
0
100
AcDbLine
 62
7
  6
CONTINUOUS
 10
-1.1009485131
 20
15.7802428662
 11
-0.5483937165
 21
16.4639928484
  0
LWPOLYLINE
  5
314
100
AcDbEntity
  8
0
100
AcDbPolyline
 62
7
  6
CONTINUOUS
 90
14
 70
0
 10
-2.0033992677
 20
15.2923857931
 10
-2.0210095713
 20
15.2755471718
 10
-2.0398603738
 20
15.2596166748
 10
-2.0598544847
 20
15.2447955751
 10
-2.0809536409
 20
15.2312818697
 10
-2.1029564627
 20
15.2192474094
 10
-2.1254947846
 20
15.2088278067
 10
-2.1484079123
 20
15.200149473
 10
-2.1715351749
 20
15.1933437155
 10
-2.1944845542
 20
15.1884935933
 10
-2.2170420033
 20
15.1856401148
 10
-2.2390610166
 20
15.1848164878
 10
-2.260246089
 20
15.1860078962
 10
-2.2809942801
 20
15.1892842441
  0
LWPOLYLINE
  5
315
100
AcDbEntity
  8
0
100
AcDbPolyline
 62
7
  6
CONTINUOUS
 90
22
 70
0
 10
-5.938499974
 20
11.6292882039
 10
-5.9743306515
 20
11.6085220518
 10
-6.0095608376
 20
11.5851480128
 10
-6.0441905322
 20
11.559166087
 10
-6.0784020366
 20
11.5304127926
 10
-6.1120130496
 20
11.4990516113
 10
-6.1444766676
 20
11.4655729889
 10
-6.1757587377
 20
11.4299554489
 10
-6.2058934128
 20
11.3922204679
 10
-6.2344362483
 20
11.3529229208
 10
-6.2613642531
 20
11.3120374971
 10
-6.2867004184
 20
11.2695895075
 10
-6.3100692731
 20
11.2262097584
 10
-6.3314406248
 20
11.1818838572
 10
-6.3508446659
 20
11.1366261966
 10
-6.367996503
 20
11.091110762
 10
-6.3828621102
 20
11.0453169277
 10
-6.3954755134
 20
10.9992653195
 10
-6.4056538968
 20
10.9536917996
 10
-6.4133363216
 20
10.9088416555
 10
-6.4185837267
 20
10.8644695997
 10
-6.4213961119
 20
10.8205756323
  0
LINE
  5
316
100
AcDbEntity
  8
0
100
AcDbLine
 62
7
  6
CONTINUOUS
 10
-0.7473951264
 20
12.709213352
 11
-0.05263094
 21
13.0991803135
  0
LINE
  5
317
100
AcDbEntity
  8
0
100
AcDbLine
 62
253
  6
CONTINUOUS
 10
-0.7473951264
 20
14.4170701371
 11
-4.7383217578
 21
12.2738205811
  0
LINE
  5
318
100
AcDbEntity
  8
0
100
AcDbLine
 62
7
  6
CONTINUOUS
 10
-4.7383217578
 20
12.2738205811
 11
-5.938499974
 21
11.6292882039
  0
LINE
  5
319
100
AcDbEntity
  8
0
100
AcDbLine
 62
7
  6
CONTINUOUS
 10
-1.3278935455
 20
12.4095833178
 11
-0.7473951264
 21
12.709213352
  0
LINE
  5
31A
100
AcDbEntity
  8
DRAFT
100
AcDbLine
 62
7
  6
CONTINUOUS
 10
21.8379880313
 20
25.2531683091
 11
22.889391962
 21
25.7881265156
  0
LINE
  5
31B
100
AcDbEntity
  8
RACCORDO
100
AcDbLine
 62
253
  6
CONTINUOUS
 10
25.2995340102
 20
25.6009927782
 11
0.2880232994
 21
12.8763169884
  0
LINE
  5
31C
100
AcDbEntity
  8
RACCORDO
100
AcDbLine
 62
7
  6
CONTINUOUS
 10
21.8379880313
 20
25.295536923
 11
14.133680488
 21
21.4586267835
  0
LINE
  5
31D
100
AcDbEntity
  8
0
100
AcDbLine
 62
253
  6
CONTINUOUS
 10
-0.05263094
 20
14.761744449
 11
-0.7473951264
 21
14.4171362907
  0
LINE
  5
31E
100
AcDbEntity
  8
RACCORDO
100
AcDbLine
 62
253
  6
CONTINUOUS
 10
6.6825169375
 20
17.3649887181
 11
24.7721135107
 21
26.1519937468
  0
LINE
  5
31F
100
AcDbEntity
  8
RACCORDO
100
AcDbLine
 62
253
  6
CONTINUOUS
 10
7.0201852714
 20
16.782596991
 11
25.2720373583
 21
25.6484174875
  0
LWPOLYLINE
  5
320
100
AcDbEntity
  8
SMUSSO
100
AcDbPolyline
 62
7
  6
CONTINUOUS
 90
51
 70
0
 10
6.8114148005
 20
18.0160227177
 10
6.8041241277
 20
18.0125102427
 10
6.7967673327
 20
18.0090379524
 10
6.7893444155
 20
18.0056058467
 10
6.7818552405
 20
18.0022139957
 10
6.7742999434
 20
17.9988623293
 10
6.7666789307
 20
17.9955506374
 10
6.7589923816
 20
17.9922789294
 10
6.7512401168
 20
17.9890471959
 10
6.7434220057
 20
17.9858551988
 10
6.73553909
 20
17.9827032411
 10
6.727590328
 20
17.9795910198
 10
6.7195724626
 20
17.9765173878
 10
6.7114824027
 20
17.9734811612
 10
6.7033232394
 20
17.9704835239
 10
6.6951009896
 20
17.96752688
 10
6.6868147942
 20
17.9646110913
 10
6.6784655123
 20
17.9617362959
 10
6.670061738
 20
17.958905313
 10
6.6616072282
 20
17.9561194224
 10
6.653098226
 20
17.9533773443
 10
6.6445320552
 20
17.9506780581
 10
6.6359068915
 20
17.9480209393
 10
6.6272245592
 20
17.9454066125
 10
6.6184878555
 20
17.9428359311
 10
6.6096959481
 20
17.9403087079
 10
6.6008496694
 20
17.9378251301
 10
6.5919543129
 20
17.935386613
 10
6.5830130188
 20
17.9329939702
 10
6.5740226469
 20
17.9306463881
 10
6.5649790711
 20
17.9283428413
 10
6.5558786534
 20
17.926082397
 10
6.5467250318
 20
17.9238659881
 10
6.5375249945
 20
17.9216953876
 10
6.5282777376
 20
17.9195705529
 10
6.518984065
 20
17.9174915267
 10
6.5096531766
 20
17.9154602103
 10
6.5002893102
 20
17.9134775291
 10
6.490888228
 20
17.9115425578
 10
6.4814464162
 20
17.909654422
 10
6.4719615479
 20
17.9078126109
 10
6.46243595
 20
17.9060176354
 10
6.4528730896
 20
17.9042701532
 10
6.4432725986
 20
17.9025701395
 10
6.4336348451
 20
17.9009176192
 10
6.4239644004
 20
17.8993133244
 10
6.4142642992
 20
17.8977577029
 10
6.4045315067
 20
17.896250307
 10
6.3947614906
 20
17.894790526
 10
6.3849497775
 20
17.8933777034
 10
6.3768131021
 20
17.8922498403
  0
LINE
  5
321
100
AcDbEntity
  8
SMUSSO
100
AcDbLine
 62
7
  6
CONTINUOUS
 10
24.454276162
 20
26.3109124211
 11
6.8114148005
 21
18.0160227177
  0
LWPOLYLINE
  5
322
100
AcDbEntity
  8
0
100
AcDbPolyline
 62
7
  6
CONTINUOUS
 90
16
 70
0
 10
-6.4213961119
 20
10.8205756323
 10
-6.4587012809
 20
10.8063800713
 10
-6.4989818559
 20
10.7940804414
 10
-6.5418472799
 20
10.7837959988
 10
-6.5868819335
 20
10.7756264605
 10
-6.6336491643
 20
10.7696510376
 10
-6.6816955213
 20
10.7659276675
 10
-6.7305551512
 20
10.7644924514
 10
-6.7797543149
 20
10.7653593053
 10
-6.8288159817
 20
10.7685198241
 10
-6.8772644538
 20
10.7739433637
 10
-6.9246299789
 20
10.7815773379
 10
-6.9704533048
 20
10.7913477284
 10
-7.0142901325
 20
10.8031598023
 10
-7.0557154238
 20
10.8168990307
 10
-7.0943275227
 20
10.8324321993
  0
LWPOLYLINE
  5
323
100
AcDbEntity
  8
0
100
AcDbPolyline
 62
7
  6
CONTINUOUS
 90
22
 70
0
 10
-6.4213961213
 20
-25.3027735259
 10
-6.4185837403
 20
-25.3439986416
 10
-6.4133363385
 20
-25.3833910975
 10
-6.4056539157
 20
-25.4209508936
 10
-6.395475533
 20
-25.4568654886
 10
-6.3828621293
 20
-25.4909474238
 10
-6.3679965217
 20
-25.5226343233
 10
-6.3508446846
 20
-25.5518732722
 10
-6.3314406435
 20
-25.5787171854
 10
-6.3100692918
 20
-25.6027624312
 10
-6.2867004371
 20
-25.6239659652
 10
-6.2613642718
 20
-25.6423708318
 10
-6.2344362669
 20
-25.6577025331
 10
-6.2058934312
 20
-25.6699139406
 10
-6.175758756
 20
-25.6790521827
 10
-6.1444766857
 20
-25.6849841466
 10
-6.1120130676
 20
-25.6876559459
 10
-6.0784020545
 20
-25.6871214669
 10
-6.0441905499
 20
-25.683409256
 10
-6.009560855
 20
-25.6765288285
 10
-5.9743306687
 20
-25.6664706691
 10
-5.938499991
 20
-25.6532347777
  0
LWPOLYLINE
  5
324
100
AcDbEntity
  8
0
100
AcDbPolyline
 62
7
  6
CONTINUOUS
 90
16
 70
0
 10
-9.1619658225
 20
20.2265356608
 10
-9.1629149982
 20
20.2494824679
 10
-9.165784344
 20
20.2732309178
 10
-9.1705626045
 20
20.2975314385
 10
-9.17724424
 20
20.3222151613
 10
-9.1857611085
 20
20.3469182411
 10
-9.1959188672
 20
20.3710920273
 10
-9.2074663264
 20
20.3942824825
 10
-9.2203262819
 20
20.416462625
 10
-9.2345470873
 20
20.4377158517
 10
-9.2501382922
 20
20.4579524585
 10
-9.266831432
 20
20.4767302113
 10
-9.2842574056
 20
20.4936259637
 10
-9.3021472702
 20
20.5084221754
 10
-9.3203661856
 20
20.5210455959
 10
-9.3387155939
 20
20.5313839224
  0
LINE
  5
325
100
AcDbEntity
  8
0
100
AcDbLine
 62
7
  6
CONTINUOUS
 10
-8.504197411
 20
20.552793642
 11
-8.4799055922
 21
19.4090315501
  0
LINE
  5
326
100
AcDbEntity
  8
0
100
AcDbLine
 62
253
  6
CONTINUOUS
 10
-9.6606648902
 20
20.1177440812
 11
-9.6606648902
 21
18.9304712998
  0
LINE
  5
327
100
AcDbEntity
  8
0
100
AcDbLine
 62
253
  6
CONTINUOUS
 10
-9.3803118599
 20
20.1165207793
 11
-9.3803118599
 21
18.938166871
  0
LINE
  5
328
100
AcDbEntity
  8
0
100
AcDbLine
 62
7
  6
CONTINUOUS
 10
-9.1619658225
 20
19.0573683907
 11
-9.1619658225
 21
20.2265356608
  0
LINE
  5
329
100
AcDbEntity
  8
0
100
AcDbLine
 62
7
  6
CONTINUOUS
 10
-8.2975813299
 20
19.4776236572
 11
-8.2975813299
 21
18.2930191515
  0
LINE
  5
32A
100
AcDbEntity
  8
0
100
AcDbLine
 62
253
  6
CONTINUOUS
 10
-8.2390026861
 20
19.4069129791
 11
-8.2390026861
 21
18.2196401978
  0
LWPOLYLINE
  5
32B
100
AcDbEntity
  8
0
100
AcDbPolyline
 62
253
  6
CONTINUOUS
 90
13
 70
0
 10
-8.2036527318
 20
19.4325326772
 10
-8.2024695532
 20
19.4554822705
 10
-8.1989398144
 20
19.4792310366
 10
-8.193122577
 20
19.5033815952
 10
-8.1851151782
 20
19.5275298427
 10
-8.1750516029
 20
19.5512717141
 10
-8.163100241
 20
19.5742099441
 10
-8.1494610706
 20
19.5959607142
 10
-8.1343623112
 20
19.6161600751
 10
-8.1180566057
 20
19.6344700363
 10
-8.1008167923
 20
19.6505842224
 10
-8.0829313393
 20
19.664232999
 10
-8.0646995186
 20
19.6751879846
  0
LWPOLYLINE
  5
32C
100
AcDbEntity
  8
0
100
AcDbPolyline
 62
7
  6
CONTINUOUS
 90
9
 70
0
 10
-7.0350677592
 20
22.0670496998
 10
-7.0358257413
 20
22.0536942617
 10
-7.0404601149
 20
22.0339456317
 10
-7.0494664739
 20
22.0143836363
 10
-7.0626804834
 20
21.9951336453
 10
-7.0795142006
 20
21.9769799831
 10
-7.0997716443
 20
21.9601840913
 10
-7.1236487957
 20
21.9444845284
 10
-7.1511456547
 20
21.9298812943
  0
LWPOLYLINE
  5
32D
100
AcDbEntity
  8
0
100
AcDbPolyline
 62
253
  6
CONTINUOUS
 90
12
 70
0
 10
-2.7402070719
 20
15.4486859701
 10
-2.750718838
 20
15.4253150491
 10
-2.7634035931
 20
15.4035567792
 10
-2.7780466989
 20
15.3837793312
 10
-2.79440038
 20
15.3663173588
 10
-2.8121879162
 20
15.3514663353
 10
-2.8311083252
 20
15.3394775544
 10
-2.8508414557
 20
15.3305538778
 10
-2.8710534037
 20
15.3248463029
 10
-2.891402163
 20
15.3224514071
 10
-2.9115434127
 20
15.3234097143
 10
-2.9206415246
 20
15.324973536
  0
LWPOLYLINE
  5
32E
100
AcDbEntity
  8
0
100
AcDbPolyline
 62
253
  6
CONTINUOUS
 90
10
 70
0
 10
-0.5600812111
 20
16.5202350083
 10
-0.5566433551
 20
16.524865637
 10
-0.5535621605
 20
16.5296847015
 10
-0.5508376274
 20
16.534692202
 10
-0.5484426525
 20
16.5399609617
 10
-0.5464043391
 20
16.5454181574
 10
-0.5448039968
 20
16.5508453187
 10
-0.5436687289
 20
16.556169622
 10
-0.5429714321
 20
16.561463891
 10
-0.5427121065
 20
16.5667281255
  0
LWPOLYLINE
  5
32F
100
AcDbEntity
  8
0
100
AcDbPolyline
 62
7
  6
CONTINUOUS
 90
6
 70
0
 10
-0.5484203214
 20
16.4639593964
 10
-0.5405356653
 20
16.4741997257
 10
-0.5265631364
 20
16.4951816971
 10
-0.514384393
 20
16.5176375735
 10
-0.5041482391
 20
16.5414462356
 10
-0.4962541655
 20
16.5656820555
  0
LINE
  5
330
100
AcDbEntity
  8
0
100
AcDbLine
 62
7
  6
CONTINUOUS
 10
-1.3130805513
 20
10.596873956
 11
-1.3278935455
 21
10.5891507867
  0
LINE
  5
331
100
AcDbEntity
  8
RACCORDO
100
AcDbLine
 62
253
  6
CONTINUOUS
 10
25.7136844858
 20
24.1693592036
 11
0.702173775
 21
11.4446834137
  0
LINE
  5
332
100
AcDbEntity
  8
0
100
AcDbLine
 62
7
  6
CONTINUOUS
 10
-1.0841094206
 20
10.9945736982
 11
-0.3584863967
 21
11.3086266939
  0
LINE
  5
333
100
AcDbEntity
  8
0
100
AcDbLine
 62
7
  6
CONTINUOUS
 10
-1.3278935455
 20
9.8981096468
 11
0.7038509214
 21
10.7774580349
  0
LINE
  5
334
100
AcDbEntity
  8
0
100
AcDbLine
 62
253
  6
CONTINUOUS
 10
-4.3786763334
 20
-8.0434708101
 11
-4.4333816164
 21
-8.0161181687
  0
LWPOLYLINE
  5
335
100
AcDbEntity
  8
0
100
AcDbPolyline
 62
253
  6
CONTINUOUS
 90
6
 70
0
 10
-0.5528768713
 20
-24.5533122585
 10
-0.5608993293
 20
-24.5305107878
 10
-0.5713423287
 20
-24.5094757391
 10
-0.5840291646
 20
-24.4905630457
 10
-0.5987451636
 20
-24.4740927286
 10
-0.6152413168
 20
-24.4603434815
  0
LWPOLYLINE
  5
336
100
AcDbEntity
  8
0
100
AcDbPolyline
 62
253
  6
CONTINUOUS
 90
7
 70
0
 10
-12.0098919311
 20
21.3337789576
 10
-12.0079858022
 20
21.3200056302
 10
-12.0027726499
 20
21.3073354885
 10
-11.99433209
 20
21.2951078196
 10
-11.9828053575
 20
21.2835272242
 10
-11.9683853275
 20
21.2727874763
 10
-11.9513132873
 20
21.2630682797
  0
LWPOLYLINE
  5
337
100
AcDbEntity
  8
0
100
AcDbPolyline
 62
7
  6
CONTINUOUS
 90
12
 70
0
 10
-7.052807898
 20
23.2541160562
 10
-7.0544392618
 20
23.2803580949
 10
-7.0599631411
 20
23.3129814304
 10
-7.0694118365
 20
23.3451742083
 10
-7.0827924396
 20
23.376495714
 10
-7.0999700195
 20
23.4063644326
 10
-7.1208525581
 20
23.4344477354
 10
-7.1453886304
 20
23.460504827
 10
-7.1731967563
 20
23.4840309092
 10
-7.2038013844
 20
23.5046484014
 10
-7.2374468833
 20
23.5225115598
 10
-7.2737505527
 20
23.5373723143
  0
LWPOLYLINE
  5
338
100
AcDbEntity
  8
0
100
AcDbPolyline
 62
7
  6
CONTINUOUS
 90
3
 70
0
 10
-7.2717150003
 20
-19.3919794227
 10
-7.1918783907
 20
-22.3648999414
 10
-7.0943275341
 20
-25.3280557798
  0
LINE
  5
339
100
AcDbEntity
  8
0
100
AcDbLine
 62
7
  6
CONTINUOUS
 10
-7.3338260833
 20
-16.4094438585
 11
-7.2717150003
 21
-19.3919794227
  0
LWPOLYLINE
  5
33A
100
AcDbEntity
  8
0
100
AcDbPolyline
 62
253
  6
CONTINUOUS
 90
28
 70
0
 10
-5.948354289
 20
18.2615887806
 10
-5.9483908494
 20
18.2638234558
 10
-5.9485342131
 20
18.2661395847
 10
-5.9487843801
 20
18.2685371673
 10
-5.9491382811
 20
18.2710279455
 10
-5.9495989853
 20
18.2736001774
 10
-5.950175701
 20
18.2762186375
 10
-5.9508722699
 20
18.278885765
 10
-5.9516848502
 20
18.2815991207
 10
-5.9526111245
 20
18.2843161618
 10
-5.9536545163
 20
18.2870368866
 10
-5.954811602
 20
18.2897612968
 10
-5.956069794
 20
18.2924468553
 10
-5.9574306197
 20
18.2950907577
 10
-5.9588925516
 20
18.2976958083
 10
-5.9604384191
 20
18.300227883
 10
-5.9620686268
 20
18.3026844343
 10
-5.96378277
 20
18.3050680097
 10
-5.9655624649
 20
18.3073521279
 10
-5.9674085805
 20
18.309535706
 10
-5.9693202477
 20
18.3116198269
 10
-5.9712764754
 20
18.313581258
 10
-5.9732777993
 20
18.3154184944
 10
-5.9753236837
 20
18.3171330409
 10
-5.9773915302
 20
18.3187061798
 10
-5.9794738058
 20
18.3201316718
 10
-5.9815780435
 20
18.3214157561
 10
-5.9837042433
 20
18.3225584329
  0
LINE
  5
33B
100
AcDbEntity
  8
0
100
AcDbLine
 62
7
  6
CONTINUOUS
 10
-7.3782024505
 20
-13.4173663682
 11
-7.3338260833
 21
-16.4094438585
  0
LINE
  5
33C
100
AcDbEntity
  8
0
100
AcDbLine
 62
7
  6
CONTINUOUS
 10
-7.0351163605
 20
22.0670500619
 11
-7.0528069011
 21
23.2540485855
  0
LINE
  5
33D
100
AcDbEntity
  8
0
100
AcDbLine
 62
253
  6
CONTINUOUS
 10
-7.1511456547
 20
21.9298812943
 11
-7.1635896961
 21
23.1232688642
  0
LINE
  5
33E
100
AcDbEntity
  8
0
100
AcDbLine
 62
253
  6
CONTINUOUS
 10
-6.0504536775
 20
20.7811225104
 11
-6.0504536775
 21
22.4562045678
  0
LINE
  5
33F
100
AcDbEntity
  8
0
100
AcDbLine
 62
253
  6
CONTINUOUS
 10
-5.948354289
 20
17.0743159992
 11
-5.948354289
 21
18.2615887806
  0
LINE
  5
340
100
AcDbEntity
  8
0
100
AcDbLine
 62
253
  6
CONTINUOUS
 10
-5.6680012587
 20
17.0820115703
 11
-5.6680012587
 21
18.2603654786
  0
LINE
  5
341
100
AcDbEntity
  8
0
100
AcDbLine
 62
7
  6
CONTINUOUS
 10
-5.4496552213
 20
17.2012130901
 11
-5.4496552213
 21
18.3703803602
  0
LWPOLYLINE
  5
342
100
AcDbEntity
  8
0
100
AcDbPolyline
 62
7
  6
CONTINUOUS
 90
8
 70
0
 10
-7.1918779108
 20
7.7728512588
 10
-7.2717143003
 20
4.7210161579
 10
-7.3338253715
 20
1.6770877415
 10
-7.3782018838
 20
-1.3588504861
 10
-7.4048324742
 20
-4.3865607251
 10
-7.4137099379
 20
-7.4056539184
 10
-7.4048327866
 20
-10.4159745882
 10
-7.3782024505
 20
-13.4173663682
  0
LINE
  5
343
100
AcDbEntity
  8
0
100
AcDbLine
 62
7
  6
CONTINUOUS
 10
-7.0943275328
 20
10.8324321086
 11
-7.1918779108
 21
7.7728512588
  0
LWPOLYLINE
  5
344
100
AcDbEntity
  8
0
100
AcDbPolyline
 62
7
  6
CONTINUOUS
 90
13
 70
0
 10
-6.4213961119
 20
10.8205756323
 10
-6.5209962927
 20
7.764798636
 10
-6.6024931508
 20
4.7169085864
 10
-6.6658866861
 20
1.6769054835
 10
-6.711183969
 20
-1.3554477363
 10
-6.7383779291
 20
-4.3799140094
 10
-6.7474473553
 20
-7.3957821453
 10
-6.7383781462
 20
-10.4030459758
 10
-6.7111844032
 20
-13.4017116691
 10
-6.6658872199
 20
-16.3910865393
 10
-6.6024936274
 20
-19.3709396912
 10
-6.5209965945
 20
-22.3415020201
 10
-6.4213961213
 20
-25.3027735259
  0
LWPOLYLINE
  5
345
100
AcDbEntity
  8
0
100
AcDbPolyline
 62
253
  6
CONTINUOUS
 90
13
 70
0
 10
-5.9837042433
 20
18.3225584329
 10
-5.9825210634
 20
18.3455080372
 10
-5.9789913218
 20
18.3692568128
 10
-5.9731740803
 20
18.3934073787
 10
-5.9651666772
 20
18.417555631
 10
-5.9551030978
 20
18.4412975045
 10
-5.9431517329
 20
18.4642357338
 10
-5.9295125609
 20
18.4859865007
 10
-5.9144138018
 20
18.5061858562
 10
-5.8981080985
 20
18.524495811
 10
-5.8808682894
 20
18.5406099901
 10
-5.8629828427
 20
18.5542587601
 10
-5.84475103
 20
18.5652137403
  0
LWPOLYLINE
  5
346
100
AcDbEntity
  8
0
100
AcDbPolyline
 62
253
  6
CONTINUOUS
 90
19
 70
0
 10
-7.0943191567
 20
10.8324365054
 10
-7.0886775137
 20
10.9202328629
 10
-7.0774541644
 20
11.0100436264
 10
-7.0607087422
 20
11.1012095778
 10
-7.0385879604
 20
11.1931166399
 10
-7.0112407309
 20
11.285171661
 10
-6.9788143121
 20
11.376784967
 10
-6.941559244
 20
11.4673407424
 10
-6.8997244333
 20
11.5562351788
 10
-6.8535309172
 20
11.6429017243
 10
-6.8032940971
 20
11.7267972742
 10
-6.7493598135
 20
11.8073272818
 10
-6.6920708796
 20
11.8839057713
 10
-6.6318400286
 20
11.9560335307
 10
-6.5690799315
 20
12.0232140627
 10
-6.5041879239
 20
12.0849642997
 10
-6.437593696
 20
12.1408818992
 10
-6.3697548733
 20
12.1905994343
 10
-6.3011801962
 20
12.2337851344
  0
LWPOLYLINE
  5
347
100
AcDbEntity
  8
RACCORDO
100
AcDbPolyline
 62
7
  6
CONTINUOUS
 90
28
 70
0
 10
18.869582803
 20
16.3166076275
 10
18.8722907988
 20
16.3180419844
 10
18.8748540577
 20
16.3195633842
 10
18.8772725797
 20
16.3211718271
 10
18.8795572839
 20
16.3228701073
 10
18.8816972511
 20
16.3246554305
 10
18.8836597243
 20
16.3265194141
 10
18.8854393137
 20
16.3284644007
 10
18.8870414091
 20
16.3304880478
 10
18.8884494216
 20
16.332574945
 10
18.8896569351
 20
16.334720588
 10
18.8906703658
 20
16.3369294812
 10
18.8914923735
 20
16.3391997273
 10
18.8921241627
 20
16.3415236548
 10
18.8925645289
 20
16.3439089352
 10
18.8928125194
 20
16.3463766858
 10
18.8928731466
 20
16.3489294005
 10
18.892741398
 20
16.3515645854
 10
18.8924012837
 20
16.3542958759
 10
18.8918539553
 20
16.3571259304
 10
18.8910982612
 20
16.3600520905
 10
18.8901147565
 20
16.3630800166
 10
18.8889011559
 20
16.3662134107
 10
18.8874597446
 20
16.3694485707
 10
18.8857779336
 20
16.372780051
 10
18.8838515263
 20
16.3762060365
 10
18.8816847191
 20
16.3797283423
 10
18.8792775122
 20
16.3833469684
  0
LINE
  5
348
100
AcDbEntity
  8
RACCORDO
100
AcDbLine
 62
7
  6
CONTINUOUS
 10
19.5692246976
 20
17.7420661826
 11
8.5287510569
 21
11.9055946383
  0
LINE
  5
349
100
AcDbEntity
  8
RACCORDO
100
AcDbLine
 62
253
  6
CONTINUOUS
 10
21.0276638196
 20
19.5681521678
 11
25.7136844858
 21
21.9944103933
  0
LINE
  5
34A
100
AcDbEntity
  8
RACCORDO
100
AcDbLine
 62
7
  6
CONTINUOUS
 10
20.9497988298
 20
19.4059425944
 11
25.6371342009
 21
21.8328815282
  0
LINE
  5
34B
100
AcDbEntity
  8
RACCORDO
100
AcDbLine
 62
7
  6
CONTINUOUS
 10
18.8695741257
 20
16.3166032291
 11
7.8129220317
 21
10.7121289907
  0
LINE
  5
34C
100
AcDbEntity
  8
RACCORDO
100
AcDbLine
 62
7
  6
CONTINUOUS
 10
19.5692246976
 20
15.7270582932
 11
8.5287510569
 21
10.1307847039
  0
LINE
  5
34D
100
AcDbEntity
  8
ASSI
100
AcDbLine
 62
7
  6
CONTINUOUS
 10
23.8245655198
 20
17.9811953874
 11
24.8852256916
 21
18.5115254733
  0
LINE
  5
34E
100
AcDbEntity
  8
RACCORDO
100
AcDbLine
 62
7
  6
CONTINUOUS
 10
18.8792775122
 20
16.3833469684
 11
7.8340974799
 21
10.8826107868
  0
LINE
  5
34F
100
AcDbEntity
  8
0
100
AcDbLine
 62
253
  6
CONTINUOUS
 10
-2.1591939355
 20
-6.9672488296
 11
-2.285014767
 21
-6.9043384138
  0
LINE
  5
350
100
AcDbEntity
  8
0
100
AcDbLine
 62
253
  6
CONTINUOUS
 10
-1.799548511
 20
-6.3636072333
 11
-1.9376051613
 21
-6.2945789082
  0
LINE
  5
351
100
AcDbEntity
  8
0
100
AcDbLine
 62
253
  6
CONTINUOUS
 10
-4.7336620032
 20
-4.5047557171
 11
-4.5298759944
 21
-4.6066487215
  0
LINE
  5
352
100
AcDbEntity
  8
0
100
AcDbLine
 62
7
  6
CONTINUOUS
 10
-4.7345052606
 20
-4.4452794119
 11
-4.604930163
 21
-4.5100669607
  0
LWPOLYLINE
  5
353
100
AcDbEntity
  8
0
100
AcDbPolyline
 62
7
  6
CONTINUOUS
 90
5
 70
0
 10
-0.4927404441
 20
-24.6084620305
 10
-0.4999075704
 20
-24.5836199136
 10
-0.5096251138
 20
-24.5600765068
 10
-0.5217664732
 20
-24.5379752496
 10
-0.5362185728
 20
-24.5174805837
  0
LWPOLYLINE
  5
354
100
AcDbEntity
  8
0
100
AcDbPolyline
 62
253
  6
CONTINUOUS
 90
16
 70
0
 10
-5.938499974
 20
11.6292882039
 10
-5.9421027908
 20
11.6723745567
 10
-5.9490945202
 20
11.7168367876
 10
-5.959405624
 20
11.762232484
 10
-5.9729335307
 20
11.8081099299
 10
-5.9895436612
 20
11.8540126232
 10
-6.0090707724
 20
11.8994838175
 10
-6.0313205926
 20
11.9440710416
 10
-6.0560717406
 20
11.9873305863
 10
-6.0830779349
 20
12.0288319435
 10
-6.1120704492
 20
12.0681621003
 10
-6.1427608017
 20
12.1049296642
 10
-6.1748436176
 20
12.13876874
 10
-6.2079996518
 20
12.169342554
 10
-6.2418989627
 20
12.1963468101
 10
-6.2762042107
 20
12.2195127341
  0
LWPOLYLINE
  5
355
100
AcDbEntity
  8
0
100
AcDbPolyline
 62
7
  6
CONTINUOUS
 90
16
 70
0
 10
-5.1053876474
 20
22.3578233877
 10
-5.1065435648
 20
22.3811222016
 10
-5.1108857863
 20
22.404249283
 10
-5.1184244708
 20
22.4271846516
 10
-5.1293536652
 20
22.4502883856
 10
-5.1435195981
 20
22.4731137144
 10
-5.1604135249
 20
22.4944188009
 10
-5.1799471577
 20
22.5138373165
 10
-5.2022501733
 20
22.5315967238
 10
-5.2271312973
 20
22.5473471072
 10
-5.2547400337
 20
22.5610237217
 10
-5.2849363566
 20
22.5725000492
 10
-5.3170756656
 20
22.5813530714
 10
-5.3509210519
 20
22.5873952047
 10
-5.3866462876
 20
22.5906448325
 10
-5.4242004531
 20
22.5910078191
  0
LWPOLYLINE
  5
356
100
AcDbEntity
  8
0
100
AcDbPolyline
 62
7
  6
CONTINUOUS
 90
16
 70
0
 10
-5.4496552213
 20
18.3703803602
 10
-5.4506043969
 20
18.3933271673
 10
-5.4534737428
 20
18.4170756171
 10
-5.4582520032
 20
18.4413761379
 10
-5.4649336387
 20
18.4660598606
 10
-5.4734505073
 20
18.4907629405
 10
-5.483608266
 20
18.5149367267
 10
-5.4951557251
 20
18.5381271819
 10
-5.5080156807
 20
18.5603073244
 10
-5.5222364861
 20
18.5815605511
 10
-5.537827691
 20
18.6017971579
 10
-5.5545208308
 20
18.6205749107
 10
-5.5719468044
 20
18.6374706631
 10
-5.589836669
 20
18.6522668748
 10
-5.6080555843
 20
18.6648902953
 10
-5.6264049926
 20
18.6752286218
  0
LWPOLYLINE
  5
357
100
AcDbEntity
  8
0
100
AcDbPolyline
 62
253
  6
CONTINUOUS
 90
28
 70
0
 10
-5.6680012587
 20
18.2603654786
 10
-5.668354503
 20
18.2714369909
 10
-5.6691817758
 20
18.2829631705
 10
-5.6705111096
 20
18.2949256704
 10
-5.6723735775
 20
18.3073271388
 10
-5.6747927456
 20
18.3201151717
 10
-5.6777740533
 20
18.3331798519
 10
-5.681330307
 20
18.3464833451
 10
-5.6854717093
 20
18.3599833357
 10
-5.6901778998
 20
18.373555824
 10
-5.6954435813
 20
18.3871493581
 10
-5.7012636949
 20
18.4007185303
 10
-5.70759802
 20
18.4141479293
 10
-5.7144223077
 20
18.4273770077
 10
-5.7217215525
 20
18.44036849
 10
-5.7294561519
 20
18.4530460141
 10
-5.7375940477
 20
18.4653558284
 10
-5.7461117433
 20
18.4772614203
 10
-5.7549769837
 20
18.4887162886
 10
-5.7641587907
 20
18.4996791491
 10
-5.7736243758
 20
18.5101097505
 10
-5.7833364186
 20
18.5199666107
 10
-5.7932601724
 20
18.5292142247
 10
-5.8033601806
 20
18.537819395
 10
-5.8135964825
 20
18.5457486429
 10
-5.8239310935
 20
18.5529733909
 10
-5.8343283175
 20
18.5594692952
 10
-5.84475103
 20
18.5652137403
  0
LWPOLYLINE
  5
358
100
AcDbEntity
  8
0
100
AcDbPolyline
 62
253
  6
CONTINUOUS
 90
18
 70
0
 10
-5.1030476593
 20
16.5109753811
 10
-5.1028973537
 20
16.5021133333
 10
-5.1024300356
 20
16.4931739079
 10
-5.1016202765
 20
16.4841883928
 10
-5.1004405792
 20
16.4751772321
 10
-5.0988669052
 20
16.4661917485
 10
-5.0968843482
 20
16.457310105
 10
-5.0944739623
 20
16.4485704577
 10
-5.0916178372
 20
16.440013442
 10
-5.0883141577
 20
16.43171564
 10
-5.0845526706
 20
16.4237158305
 10
-5.0803247172
 20
16.4160541293
 10
-5.075643375
 20
16.4088001326
 10
-5.0705084839
 20
16.4019890595
 10
-5.0649215975
 20
16.3956560572
 10
-5.0589108599
 20
16.3898579892
 10
-5.0524863103
 20
16.3846222898
 10
-5.045659385
 20
16.37997512
  0
LWPOLYLINE
  5
359
100
AcDbEntity
  8
0
100
AcDbPolyline
 62
7
  6
CONTINUOUS
 90
9
 70
0
 10
-5.1616262237
 20
16.5816589935
 10
-5.1615955427
 20
16.5777384094
 10
-5.1597759267
 20
16.5512845982
 10
-5.1551391413
 20
16.5253380123
 10
-5.1477364144
 20
16.5002860454
 10
-5.1377335941
 20
16.4765728608
 10
-5.1252541985
 20
16.4543546602
 10
-5.1104102242
 20
16.4337889615
 10
-5.0934681683
 20
16.4152013962
  0
LINE
  5
35A
100
AcDbEntity
  8
0
100
AcDbLine
 62
7
  6
CONTINUOUS
 10
-5.1616263031
 20
16.8989548595
 11
-5.1616263031
 21
16.5816860593
  0
LINE
  5
35B
100
AcDbEntity
  8
0
100
AcDbLine
 62
253
  6
CONTINUOUS
 10
-5.1030476593
 20
16.8282441814
 11
-5.1030476593
 21
16.5109753811
  0
LINE
  5
35C
100
AcDbEntity
  8
0
100
AcDbLine
 62
7
  6
CONTINUOUS
 10
-4.7383217578
 20
-25.158840547
 11
-4.7383217578
 21
12.2738205811
  0
LINE
  5
35D
100
AcDbEntity
  8
0
100
AcDbLine
 62
253
  6
CONTINUOUS
 10
-4.6367247307
 20
21.5291376018
 11
-4.6367247307
 21
21.9475726024
  0
LINE
  5
35E
100
AcDbEntity
  8
0
100
AcDbLine
 62
7
  6
CONTINUOUS
 10
-4.4467631827
 20
16.0801013408
 11
-4.4467631827
 21
15.6262240895
  0
LINE
  5
35F
100
AcDbEntity
  8
0
100
AcDbLine
 62
253
  6
CONTINUOUS
 10
-4.373539878
 20
16.0434896885
 11
-4.373539878
 21
15.5344155443
  0
LINE
  5
360
100
AcDbEntity
  8
0
100
AcDbLine
 62
7
  6
CONTINUOUS
 10
-4.2408024457
 20
14.770750472
 11
-4.2408024457
 21
15.9810445557
  0
LINE
  5
361
100
AcDbEntity
  8
0
100
AcDbLine
 62
253
  6
CONTINUOUS
 10
-4.167579141
 20
-25.2563630175
 11
-4.167579141
 21
-25.141371282
  0
LINE
  5
362
100
AcDbEntity
  8
0
100
AcDbLine
 62
253
  6
CONTINUOUS
 10
-4.167579141
 20
14.6789419264
 11
-4.167579141
 21
16.0432411219
  0
LINE
  5
363
100
AcDbEntity
  8
0
100
AcDbLine
 62
253
  6
CONTINUOUS
 10
-3.9740148549
 20
-25.3531451605
 11
-3.9740148549
 21
-25.0616355697
  0
LINE
  5
364
100
AcDbEntity
  8
0
100
AcDbLine
 62
253
  6
CONTINUOUS
 10
-3.9740148549
 20
14.5821597834
 11
-3.9740148549
 21
15.9464589789
  0
LINE
  5
365
100
AcDbEntity
  8
0
100
AcDbLine
 62
253
  6
CONTINUOUS
 10
-3.623573567
 20
-25.1068558387
 11
-3.623573567
 21
-24.9172768852
  0
LINE
  5
366
100
AcDbEntity
  8
0
100
AcDbLine
 62
253
  6
CONTINUOUS
 10
-3.623573567
 20
14.5917792473
 11
-3.623573567
 21
15.668506533
  0
LINE
  5
367
100
AcDbEntity
  8
0
100
AcDbLine
 62
7
  6
CONTINUOUS
 10
-3.0808475043
 20
15.3971435017
 11
-3.0808475043
 21
14.8880693575
  0
LINE
  5
368
100
AcDbEntity
  8
0
100
AcDbLine
 62
253
  6
CONTINUOUS
 10
-3.0385463366
 20
15.7959935201
 11
-3.0385463366
 21
15.4787420637
  0
LINE
  5
369
100
AcDbEntity
  8
0
100
AcDbLine
 62
253
  6
CONTINUOUS
 10
-3.0385463366
 20
-26.1381482201
 11
-3.0385463366
 21
-25.8208780149
  0
LINE
  5
36A
100
AcDbEntity
  8
0
100
AcDbLine
 62
253
  6
CONTINUOUS
 10
-2.7581933063
 20
15.7947702182
 11
-2.7581933063
 21
15.4775014178
  0
LINE
  5
36B
100
AcDbEntity
  8
0
100
AcDbLine
 62
253
  6
CONTINUOUS
 10
-2.7581933063
 20
-26.139371522
 11
-2.7581933063
 21
-25.8221027216
  0
LWPOLYLINE
  5
36C
100
AcDbEntity
  8
0
100
AcDbPolyline
 62
253
  6
CONTINUOUS
 90
22
 70
0
 10
-2.7581933063
 20
-25.8221027216
 10
-2.7581699611
 20
-25.8202725571
 10
-2.7580705219
 20
-25.818369571
 10
-2.7578949887
 20
-25.8163937633
 10
-2.7576470604
 20
-25.8143387092
 10
-2.7573230381
 20
-25.8122108336
 10
-2.7569118253
 20
-25.810029411
 10
-2.7564114531
 20
-25.8077924833
 10
-2.7558238904
 20
-25.8055020088
 10
-2.7551439474
 20
-25.8031831369
 10
-2.7543693578
 20
-25.8008344996
 10
-2.753502388
 20
-25.7984574651
 10
-2.7525446472
 20
-25.7960812878
 10
-2.7514938353
 20
-25.7937054521
 10
-2.7503522525
 20
-25.7913304737
 10
-2.7491284086
 20
-25.7889871537
 10
-2.7478202443
 20
-25.7866759625
 10
-2.7464298188
 20
-25.7843964297
 10
-2.7449718201
 20
-25.782177945
 10
-2.743451144
 20
-25.7800303049
 10
-2.7418628946
 20
-25.777943713
 10
-2.7402070719
 20
-25.7759181693
  0
LWPOLYLINE
  5
36D
100
AcDbEntity
  8
0
100
AcDbPolyline
 62
253
  6
CONTINUOUS
 90
22
 70
0
 10
-3.0385463363
 20
-25.820878015
 10
-3.0383912403
 20
-25.8117467163
 10
-3.0379093093
 20
-25.802229673
 10
-3.0370762189
 20
-25.7923338028
 10
-3.0358658131
 20
-25.782053375
 10
-3.034255207
 20
-25.7714162983
 10
-3.0322303981
 20
-25.7604857061
 10
-3.0297737604
 20
-25.7492815218
 10
-3.0268688609
 20
-25.7378270034
 10
-3.0235149513
 20
-25.7261962639
 10
-3.019703079
 20
-25.7144180264
 10
-3.0154260091
 20
-25.7025237601
 10
-3.0106978486
 20
-25.6905949038
 10
-3.00551955
 20
-25.6786661583
 10
-2.9998938293
 20
-25.6667736302
 10
-2.9938495822
 20
-25.6550004827
 10
-2.9873976491
 20
-25.643383366
 10
-2.9805501678
 20
-25.6319587117
 10
-2.9733489172
 20
-25.6208050387
 10
-2.9658225997
 20
-25.6099692739
 10
-2.9579823902
 20
-25.5994700678
 10
-2.9498494241
 20
-25.5893395283
  0
LWPOLYLINE
  5
36E
100
AcDbEntity
  8
0
100
AcDbPolyline
 62
253
  6
CONTINUOUS
 90
11
 70
0
 10
-5.938499991
 20
-25.6532347777
 10
-5.9421029287
 20
-25.6963115965
 10
-5.9490949024
 20
-25.7371552205
 10
-5.9594063352
 20
-25.7753592172
 10
-5.9729346188
 20
-25.8105434207
 10
-5.9895451339
 20
-25.842357715
 10
-6.0090725902
 20
-25.870485518
 10
-6.0313226712
 20
-25.8946469315
 10
-6.0560739675
 20
-25.9146015265
 10
-6.0830801805
 20
-25.9301507362
 10
-6.09223545
 20
-25.9342026707
  0
LWPOLYLINE
  5
36F
100
AcDbEntity
  8
0
100
AcDbPolyline
 62
7
  6
CONTINUOUS
 90
3
 70
0
 10
-0.7272798839
 20
20.2425475346
 10
-0.7250151304
 20
20.2598302482
 10
-0.7243648892
 20
20.269575076
  0
LINE
  5
370
100
AcDbEntity
  8
0
100
AcDbLine
 62
7
  6
CONTINUOUS
 10
-1.1879294353
 20
11.3287440399
 11
-1.3130805513
 21
10.596873956
  0
LWPOLYLINE
  5
371
100
AcDbEntity
  8
0
100
AcDbPolyline
 62
7
  6
CONTINUOUS
 90
3
 70
0
 10
-0.4962541655
 20
16.5656820555
 10
-0.4907132599
 20
16.5901056216
 10
-0.4874366827
 20
16.615247828
  0
LWPOLYLINE
  5
372
100
AcDbEntity
  8
ASSI
100
AcDbPolyline
 62
7
  6
CONTINUOUS
 90
26
 70
0
 10
20.0415442405
 20
16.7773280521
 10
20.1481949455
 20
16.8357204821
 10
20.2530923198
 20
16.9026445459
 10
20.3562363632
 20
16.9781002434
 10
20.458182213
 20
17.0626030511
 10
20.5583747321
 20
17.1556374925
 10
20.6551485089
 20
17.2556571386
 10
20.7484464001
 20
17.3627787452
 10
20.838325549
 20
17.4768855565
 10
20.9232919743
 20
17.596080876
 10
21.003263561
 20
17.7204497568
 10
21.0783224241
 20
17.8499071459
 10
21.1472209265
 20
17.9823011879
 10
21.2098560995
 20
18.117680968
 10
21.2663309118
 20
18.2559974009
 10
21.3157066328
 20
18.3949513751
 10
21.3578646029
 20
18.534553547
 10
21.3929234816
 20
18.6747932602
 10
21.4203005162
 20
18.8133394342
 10
21.4398673069
 20
18.950163762
 10
21.4517522534
 20
19.0852945507
 10
21.4557578029
 20
19.2164856409
 10
21.4517522534
 20
19.3436711816
 10
21.4398673069
 20
19.4669170237
 10
21.4203005162
 20
19.5841745609
 10
21.4060210972
 20
19.6421585883
  0
LINE
  5
373
100
AcDbEntity
  8
RACCORDO
100
AcDbLine
 62
7
  6
CONTINUOUS
 10
19.5692246976
 20
13.4119391637
 11
8.5287510569
 21
7.5754676194
  0
LWPOLYLINE
  5
374
100
AcDbEntity
  8
SMUSSO
100
AcDbPolyline
 62
7
  6
CONTINUOUS
 90
91
 70
0
 10
8.5287510569
 20
10.1307847039
 10
8.5215645525
 20
10.1270349997
 10
8.5143852002
 20
10.1233788965
 10
8.507213
 20
10.1198163943
 10
8.5000479542
 20
10.1163476631
 10
8.4928900604
 20
10.1129725329
 10
8.4857393119
 20
10.1096904937
 10
8.4785958079
 20
10.1065015013
 10
8.4714594492
 20
10.1034055998
 10
8.464329931
 20
10.1004024119
 10
8.4572080806
 20
10.0974921209
 10
8.4500930707
 20
10.0946745435
 10
8.4429821146
 20
10.091948752
 10
8.4358724719
 20
10.0893136977
 10
8.428766883
 20
10.0867704292
 10
8.4216707821
 20
10.0843211651
 10
8.4145835992
 20
10.0819659517
 10
8.4075059043
 20
10.0797047426
 10
8.4004448421
 20
10.0775396172
 10
8.3934035834
 20
10.0754715688
 10
8.3863789574
 20
10.0734996041
 10
8.3793685961
 20
10.071622823
 10
8.3723709565
 20
10.0698407377
 10
8.3653875815
 20
10.0681538359
 10
8.3584207322
 20
10.066562681
 10
8.3514698028
 20
10.0650672235
 10
8.3445353992
 20
10.0636675128
 10
8.3376215997
 20
10.0623642611
 10
8.3307307973
 20
10.0611578445
 10
8.3238605991
 20
10.0600478868
 10
8.3170079042
 20
10.0590339707
 10
8.3101699497
 20
10.0581156776
 10
8.3033494984
 20
10.0572934261
 10
8.2965517384
 20
10.0565680553
 10
8.2897762231
 20
10.0559397623
 10
8.2830233991
 20
10.05540835
 10
8.2762997936
 20
10.0549740671
 10
8.2696084633
 20
10.0546371156
 10
8.2629463515
 20
10.0543972934
 10
8.2563108166
 20
10.0542542433
 10
8.2497001775
 20
10.0542078495
 10
8.2431161153
 20
10.0542582277
 10
8.2365610309
 20
10.0544053674
 10
8.2300347146
 20
10.0546493497
 10
8.223537376
 20
10.0549900936
 10
8.2170720453
 20
10.0554273462
 10
8.2106406952
 20
10.0559608714
 10
8.2042413529
 20
10.0565909054
 10
8.1978711299
 20
10.0573179032
 10
8.1915271214
 20
10.0581422186
 10
8.1852122323
 20
10.0590634978
 10
8.1789322883
 20
10.060081134
 10
8.17268729
 20
10.0611954163
 10
8.1664772369
 20
10.0624060556
 10
8.1603079534
 20
10.0637115782
 10
8.1541823087
 20
10.0651113665
 10
8.1480974337
 20
10.0666060381
 10
8.1420505457
 20
10.0681959725
 10
8.1360399025
 20
10.0698815411
 10
8.1300672463
 20
10.0716623725
 10
8.1241350218
 20
10.0735377321
 10
8.1182433243
 20
10.0755076602
 10
8.1123920584
 20
10.0775721164
 10
8.1065833821
 20
10.0797302444
 10
8.1008187754
 20
10.0819813723
 10
8.0950967583
 20
10.084326172
 10
8.0894150479
 20
10.0867658032
 10
8.0837710189
 20
10.0893014451
 10
8.0781672966
 20
10.0919319185
 10
8.0726094747
 20
10.0946548449
 10
8.067097934
 20
10.0974703503
 10
8.0616322937
 20
10.1003783087
 10
8.0562170049
 20
10.1033759643
 10
8.0508544156
 20
10.1064619737
 10
8.0455421777
 20
10.1096376802
 10
8.0402776985
 20
10.112904358
 10
8.0350592074
 20
10.1162630306
 10
8.0298884749
 20
10.1197126745
 10
8.0247682195
 20
10.1232514942
 10
8.0196987864
 20
10.1268793515
 10
8.0146798304
 20
10.1305963847
 10
8.0097130341
 20
10.1344012133
 10
8.0047995089
 20
10.1382928528
 10
7.9999381435
 20
10.1422722877
 10
7.9951272872
 20
10.1463410914
 10
7.9903648481
 20
10.1505011029
 10
7.985652918
 20
10.1547504832
 10
7.9809961219
 20
10.159085289
 10
7.9763950746
 20
10.1635052571
 10
7.9718491613
 20
10.1680106507
 10
7.9696520717
 20
10.1702388773
  0
LINE
  5
375
100
AcDbEntity
  8
RACCORDO
100
AcDbLine
 62
253
  6
CONTINUOUS
 10
25.5015201378
 20
18.2033782502
 11
20.8118618795
 21
15.7752366064
  0
LINE
  5
376
100
AcDbEntity
  8
RACCORDO
100
AcDbLine
 62
253
  6
CONTINUOUS
 10
25.7136844858
 20
17.8374884551
 11
21.0276638196
 21
15.4112302296
  0
LINE
  5
377
100
AcDbEntity
  8
RACCORDO
100
AcDbLine
 62
253
  6
CONTINUOUS
 10
21.0276638196
 20
15.2380251489
 11
25.7136844858
 21
17.6642833743
  0
LINE
  5
378
100
AcDbEntity
  8
RACCORDO
100
AcDbLine
 62
7
  6
CONTINUOUS
 10
20.9497988298
 20
15.0758155755
 11
25.6371342009
 21
17.5027545093
  0
LINE
  5
379
100
AcDbEntity
  8
DRAFT
100
AcDbLine
 62
7
  6
CONTINUOUS
 10
23.9475476958
 20
17.9197042994
 11
20.2676339384
 21
16.0473505769
  0
LWPOLYLINE
  5
37A
100
AcDbEntity
  8
RACCORDO
100
AcDbPolyline
 62
253
  6
CONTINUOUS
 90
32
 70
0
 10
20.8118618795
 20
15.7752366064
 10
20.7791489039
 20
15.758673214
 10
20.7464066783
 20
15.7430166843
 10
20.7136522375
 20
15.7282786423
 10
20.6808968153
 20
15.7144675777
 10
20.6481636383
 20
15.7015973825
 10
20.6154877707
 20
15.689685498
 10
20.5828865175
 20
15.6787401806
 10
20.5503771917
 20
15.6687692047
 10
20.5179945607
 20
15.6597852375
 10
20.4857562464
 20
15.6517935285
 10
20.4536787165
 20
15.6447985189
 10
20.4217944229
 20
15.6388076646
 10
20.3901252711
 20
15.633823762
 10
20.3586822392
 20
15.6298472096
 10
20.3274809005
 20
15.6268795046
 10
20.2965408645
 20
15.6249212589
 10
20.2658745084
 20
15.6239719993
 10
20.2354865885
 20
15.6240317977
 10
20.2053909191
 20
15.6251006637
 10
20.1756053916
 20
15.6271780084
 10
20.1461410475
 20
15.6302636109
 10
20.1170109716
 20
15.6343565916
 10
20.0882331024
 20
15.6394549325
 10
20.0598254882
 20
15.6455559077
 10
20.0318034625
 20
15.6526561827
 10
20.0041812576
 20
15.660752115
 10
19.9769747194
 20
15.6698391091
 10
19.950199041
 20
15.6799117679
 10
19.9238670766
 20
15.6909649372
 10
19.8979907671
 20
15.702993494
 10
19.8915364162
 20
15.7061813168
  0
LWPOLYLINE
  5
37B
100
AcDbEntity
  8
RACCORDO
100
AcDbPolyline
 62
253
  6
CONTINUOUS
 90
49
 70
0
 10
21.0276638196
 20
15.4112302296
 10
20.9909088407
 20
15.3926988851
 10
20.9541560748
 20
15.3751858999
 10
20.9174055222
 20
15.3586912739
 10
20.880631588
 20
15.3432015502
 10
20.843859867
 20
15.3287301858
 10
20.8071671431
 20
15.3153175516
 10
20.7705541128
 20
15.3029677703
 10
20.7340200797
 20
15.2916767193
 10
20.6976397388
 20
15.2814724013
 10
20.6614139935
 20
15.2723588391
 10
20.6253419406
 20
15.26433201
 10
20.5894955649
 20
15.2574078485
 10
20.5538811042
 20
15.2515902363
 10
20.5184923207
 20
15.2468752918
 10
20.4833824861
 20
15.2432673048
 10
20.4485560644
 20
15.2407676927
 10
20.4140085915
 20
15.239375038
 10
20.3797799469
 20
15.2390893781
 10
20.3458685184
 20
15.2399113418
 10
20.3122759182
 20
15.2418403002
 10
20.2790468618
 20
15.2448744034
 10
20.2461790171
 20
15.2490154895
 10
20.2136747162
 20
15.2542617204
 10
20.1815856719
 20
15.2606057322
 10
20.1499127563
 20
15.2680495662
 10
20.1186550972
 20
15.276591181
 10
20.0878617912
 20
15.2862170892
 10
20.0575347558
 20
15.296928674
 10
20.0276720734
 20
15.3087245521
 10
19.9983170883
 20
15.3215870865
 10
19.9694707351
 20
15.3355176089
 10
19.9411320793
 20
15.3505147875
 10
19.913341661
 20
15.3665569905
 10
19.886099878
 20
15.3836458818
 10
19.8594063325
 20
15.4017797974
 10
19.8333003717
 20
15.4209321137
 10
19.8077827157
 20
15.4411044819
 10
19.7828526445
 20
15.4622952509
 10
19.758547345
 20
15.4844728433
 10
19.7348678543
 20
15.5076386691
 10
19.7118131354
 20
15.5317913182
 10
19.6894172636
 20
15.5568949837
 10
19.667681239
 20
15.5829509862
 10
19.6466040616
 20
15.6099580049
 10
19.6262168069
 20
15.6378762705
 10
19.6065298335
 20
15.6666925264
 10
19.5875327828
 20
15.696420029
 10
19.5692256549
 20
15.7270587784
  0
LINE
  5
37C
100
AcDbEntity
  8
0
100
AcDbLine
 62
253
  6
CONTINUOUS
 10
-1.9417020182
 20
-3.6615442982
 11
-1.799548511
 21
-3.7326210518
  0
LINE
  5
37D
100
AcDbEntity
  8
SMUSSO
100
AcDbLine
 62
253
  6
CONTINUOUS
 10
8.5287510569
 20
-11.5198503907
 11
7.8127922724
 21
-10.9408816216
  0
LWPOLYLINE
  5
37E
100
AcDbEntity
  8
0
100
AcDbPolyline
 62
253
  6
CONTINUOUS
 90
13
 70
0
 10
-2.7228486436
 20
15.8551308653
 10
-2.7243643765
 20
15.8781878064
 10
-2.7282304177
 20
15.9020807271
 10
-2.734380646
 20
15.9264009728
 10
-2.7427098715
 20
15.9507325789
 10
-2.7530756363
 20
15.9746593872
 10
-2.7653006506
 20
15.9977721637
 10
-2.779175825
 20
16.0196755961
 10
-2.7944638441
 20
16.0399950526
 10
-2.8109032261
 20
16.058382992
 10
-2.8282127973
 20
16.0745249111
 10
-2.8460965012
 20
16.0881447223
 10
-2.8642484607
 20
16.0990094747
  0
LWPOLYLINE
  5
37F
100
AcDbEntity
  8
0
100
AcDbPolyline
 62
253
  6
CONTINUOUS
 90
10
 70
0
 10
-2.7581933063
 20
15.4775014178
 10
-2.7579224315
 20
15.4724957396
 10
-2.7571984611
 20
15.467907296
 10
-2.756021395
 20
15.4637360869
 10
-2.7543629711
 20
15.4599371046
 10
-2.7522514515
 20
15.4565553568
 10
-2.7497716231
 20
15.4537258671
 10
-2.7469517481
 20
15.4514936433
 10
-2.7437635644
 20
15.4498136777
 10
-2.7402070719
 20
15.4486859701
  0
LWPOLYLINE
  5
380
100
AcDbEntity
  8
0
100
AcDbPolyline
 62
253
  6
CONTINUOUS
 90
10
 70
0
 10
-0.5427121065
 20
-24.7328760139
 10
-0.5429736872
 20
-24.7278749827
 10
-0.5436728173
 20
-24.7232989592
 10
-0.5448094968
 20
-24.7191479434
 10
-0.5464110182
 20
-24.7153774124
 10
-0.548450089
 20
-24.712031889
 10
-0.5508448314
 20
-24.7092449423
 10
-0.553567953
 20
-24.7070610952
 10
-0.5566467462
 20
-24.7054358248
 10
-0.5600812111
 20
-24.7043691311
  0
LWPOLYLINE
  5
381
100
AcDbEntity
  8
0
100
AcDbPolyline
 62
253
  6
CONTINUOUS
 90
13
 70
0
 10
-2.9798691671
 20
23.3745097271
 10
-2.9813478004
 20
23.4035547912
 10
-2.9857592012
 20
23.4335293806
 10
-2.9930295547
 20
23.4639319379
 10
-3.0030372079
 20
23.494253745
 10
-3.0156147053
 20
23.5239874347
 10
-3.0305515909
 20
23.5526354808
 10
-3.0475979295
 20
23.5797185228
 10
-3.0664684892
 20
23.604783387
 10
-3.0868475133
 20
23.6274106695
 10
-3.1083940048
 20
23.6472217537
 10
-3.1307474317
 20
23.6638851458
 10
-3.1535337598
 20
23.6771220213
  0
LWPOLYLINE
  5
382
100
AcDbEntity
  8
0
100
AcDbPolyline
 62
253
  6
CONTINUOUS
 90
9
 70
0
 10
-3.0385463445
 20
15.4787420682
 10
-3.0373474414
 20
15.4541946158
 10
-3.0337652256
 20
15.4311727376
 10
-3.0278484953
 20
15.4099874628
 10
-3.0196762221
 20
15.3909230359
 10
-3.0093599369
 20
15.3742388291
 10
-2.9970439967
 20
15.3601637337
 10
-2.9828979554
 20
15.3488861452
 10
-2.9733655513
 20
15.3434025276
  0
LWPOLYLINE
  5
383
100
AcDbEntity
  8
0
100
AcDbPolyline
 62
7
  6
CONTINUOUS
 90
13
 70
0
 10
-2.3763246429
 20
23.0691361209
 10
-2.3795706709
 20
23.1374036451
 10
-2.3886085214
 20
23.2117602896
 10
-2.4032050281
 20
23.2825322189
 10
-2.4231681427
 20
23.349426892
 10
-2.4483445823
 20
23.4122604791
 10
-2.4786337656
 20
23.4708658851
 10
-2.5138474485
 20
23.5249421704
 10
-2.553738573
 20
23.5741266901
 10
-2.5980142389
 20
23.6180442027
 10
-2.6463024982
 20
23.6563626575
 10
-2.6981000849
 20
23.6887501763
 10
-2.7163393777
 20
23.6983233057
  0
LWPOLYLINE
  5
384
100
AcDbEntity
  8
0
100
AcDbPolyline
 62
253
  6
CONTINUOUS
 90
22
 70
0
 10
-2.4495390812
 20
22.9809991059
 10
-2.4516971921
 20
23.0287625633
 10
-2.4566739909
 20
23.0744165717
 10
-2.4644694776
 20
23.1179611313
 10
-2.4751560404
 20
23.1596388315
 10
-2.4886612912
 20
23.1992070829
 10
-2.5047680654
 20
23.2359381167
 10
-2.5235212605
 20
23.2697613688
 10
-2.5448759791
 20
23.3007474034
 10
-2.5684803643
 20
23.328380145
 10
-2.5943722709
 20
23.3526007702
 10
-2.6225138442
 20
23.3734681024
 10
-2.6524396635
 20
23.3906425369
 10
-2.6841771961
 20
23.4040610725
 10
-2.7176989747
 20
23.4137867104
 10
-2.7524571762
 20
23.4196688491
 10
-2.7884916539
 20
23.4216364461
 10
-2.8257625544
 20
23.4197605439
 10
-2.8636024944
 20
23.4141036683
 10
-2.9017890126
 20
23.4046866613
 10
-2.9405445701
 20
23.3914886809
 10
-2.9798691671
 20
23.3745097271
  0
LWPOLYLINE
  5
385
100
AcDbEntity
  8
0
100
AcDbPolyline
 62
7
  6
CONTINUOUS
 90
12
 70
0
 10
-1.4330405422
 20
20.4383281074
 10
-1.434227155
 20
20.4657963933
 10
-1.4393595091
 20
20.4992334139
 10
-1.4485872211
 20
20.5322268747
 10
-1.4619052432
 20
20.5643033248
 10
-1.4791642164
 20
20.5948570509
 10
-1.5003077992
 20
20.6236096986
 10
-1.5253270323
 20
20.6503297216
 10
-1.5538002564
 20
20.6744217297
 10
-1.5851735536
 20
20.695440336
 10
-1.6196789017
 20
20.7135589291
 10
-1.656935456
 20
20.7285268798
  0
LWPOLYLINE
  5
386
100
AcDbEntity
  8
0
100
AcDbPolyline
 62
253
  6
CONTINUOUS
 90
13
 70
0
 10
-1.5391265172
 20
20.3100314262
 10
-1.5402689614
 20
20.3392287626
 10
-1.5444677007
 20
20.3694118669
 10
-1.5516509214
 20
20.4000644978
 10
-1.5616957643
 20
20.430662383
 10
-1.5744304258
 20
20.4606821874
 10
-1.5896370957
 20
20.4896104629
 10
-1.6070556842
 20
20.5169524305
 10
-1.6263882702
 20
20.5422404427
 10
-1.6473041957
 20
20.5650419823
 10
-1.6694457221
 20
20.5849670596
 10
-1.6924341484
 20
20.601674883
 10
-1.7158762886
 20
20.6148796878
  0
LWPOLYLINE
  5
387
100
AcDbEntity
  8
0
100
AcDbPolyline
 62
253
  6
CONTINUOUS
 90
13
 70
0
 10
-0.5768440504
 20
16.9322940643
 10
-0.5777580076
 20
16.9556519322
 10
-0.5811170002
 20
16.9797984147
 10
-0.5868635772
 20
17.0043205189
 10
-0.5948994513
 20
17.0287988272
 10
-0.6050871796
 20
17.0528146711
 10
-0.6172525147
 20
17.075957292
 10
-0.631187385
 20
17.0978308665
 10
-0.6466534533
 20
17.1180612767
 10
-0.6633861934
 20
17.1363025087
 10
-0.6810994143
 20
17.1522425708
 10
-0.6994901553
 20
17.1656088297
 10
-0.7182438675
 20
17.1761726736
  0
LWPOLYLINE
  5
388
100
AcDbEntity
  8
0
100
AcDbPolyline
 62
7
  6
CONTINUOUS
 90
11
 70
0
 10
-0.4865804944
 20
16.9762980282
 10
-0.487054204
 20
16.9915973425
 10
-0.4907021814
 20
17.0212695846
 10
-0.497925002
 20
17.0500123626
 10
-0.5086103552
 20
17.0773552111
 10
-0.5224348408
 20
17.1026546946
 10
-0.5391482256
 20
17.1256828197
 10
-0.5586173913
 20
17.1463267243
 10
-0.5804356681
 20
17.1641843935
 10
-0.6041646942
 20
17.1789750381
 10
-0.6098037461
 20
17.1819018346
  0
LWPOLYLINE
  5
389
100
AcDbEntity
  8
0
100
AcDbPolyline
 62
253
  6
CONTINUOUS
 90
28
 70
0
 10
-0.5427121065
 20
16.9066717204
 10
-0.5427473243
 20
16.9088452777
 10
-0.5428850756
 20
16.9109935249
 10
-0.5431253606
 20
16.913116462
 10
-0.5434652167
 20
16.9152284477
 10
-0.5439076064
 20
16.9173151233
 10
-0.5444614169
 20
16.9193334123
 10
-0.5451302542
 20
16.9212819733
 10
-0.5459105122
 20
16.9231621476
 10
-0.5468002597
 20
16.9249348826
 10
-0.5478027219
 20
16.9265969095
 10
-0.5489146736
 20
16.9281514972
 10
-0.550124508
 20
16.9295693998
 10
-0.5514337063
 20
16.9308464759
 10
-0.5528407872
 20
16.9319868669
 10
-0.5543297
 20
16.9329737514
 10
-0.5559008861
 20
16.9338042735
 10
-0.5575539042
 20
16.934481289
 10
-0.5592713794
 20
16.9349965451
 10
-0.5610541723
 20
16.9353481249
 10
-0.5629014225
 20
16.9355379452
 10
-0.5647931737
 20
16.9355635032
 10
-0.566729968
 20
16.9354227895
 10
-0.5687112634
 20
16.9351178134
 10
-0.5707154775
 20
16.9346521002
 10
-0.5727354164
 20
16.9340268253
 10
-0.574778274
 20
16.9332408133
 10
-0.5768440504
 20
16.9322940643
  0
LINE
  5
38A
100
AcDbEntity
  8
0
100
AcDbLine
 62
253
  6
CONTINUOUS
 10
-2.4455744855
 20
22.7008386224
 11
-2.4495390812
 21
22.9809991059
  0
LINE
  5
38B
100
AcDbEntity
  8
0
100
AcDbLine
 62
7
  6
CONTINUOUS
 10
-2.3715759401
 20
22.734323515
 11
-2.3763138808
 21
23.0691328728
  0
LWPOLYLINE
  5
38C
100
AcDbEntity
  8
0
100
AcDbPolyline
 62
7
  6
CONTINUOUS
 90
4
 70
0
 10
-0.4865796353
 20
-24.6633818901
 10
-0.4865981449
 20
-24.6603729639
 10
-0.4882909694
 20
-24.6341773829
 10
-0.4927404441
 20
-24.6084620305
  0
LINE
  5
38D
100
AcDbEntity
  8
0
100
AcDbLine
 62
253
  6
CONTINUOUS
 10
-2.3538405556
 20
15.2047371714
 11
-2.3538405556
 21
14.5245658831
  0
LINE
  5
38E
100
AcDbEntity
  8
0
100
AcDbLine
 62
253
  6
CONTINUOUS
 10
-2.3538405556
 20
-24.3942306758
 11
-2.3538405556
 21
-24.831125529
  0
LINE
  5
38F
100
AcDbEntity
  8
0
100
AcDbLine
 62
253
  6
CONTINUOUS
 10
-2.0033992677
 20
15.2923857931
 11
-2.0033992677
 21
14.5340909172
  0
LINE
  5
390
100
AcDbEntity
  8
0
100
AcDbLine
 62
253
  6
CONTINUOUS
 10
-2.0033992677
 20
-24.2498719913
 11
-2.0033992677
 21
-24.9080909666
  0
LINE
  5
391
100
AcDbEntity
  8
0
100
AcDbLine
 62
7
  6
CONTINUOUS
 10
-1.9345779427
 20
-3.7433850607
 11
-1.9345779427
 21
-6.2885244708
  0
LINE
  5
392
100
AcDbEntity
  8
0
100
AcDbLine
 62
7
  6
CONTINUOUS
 10
-1.799548511
 20
-6.3636072333
 11
-1.799548511
 21
-3.7326210518
  0
LINE
  5
393
100
AcDbEntity
  8
0
100
AcDbLine
 62
7
  6
CONTINUOUS
 10
-1.3278935455
 20
-22.0582277528
 11
-1.3278935455
 21
-19.5467540819
  0
LINE
  5
394
100
AcDbEntity
  8
0
100
AcDbLine
 62
7
  6
CONTINUOUS
 10
-1.3278935455
 20
9.8981096468
 11
-1.3278935455
 21
12.4095833178
  0
LINE
  5
395
100
AcDbEntity
  8
0
100
AcDbLine
 62
7
  6
CONTINUOUS
 10
-1.3130805513
 20
-21.3161621735
 11
-1.3130805513
 21
-19.5391082075
  0
LINE
  5
396
100
AcDbEntity
  8
0
100
AcDbLine
 62
7
  6
CONTINUOUS
 10
-1.3130805513
 20
10.596873956
 11
-1.3130805513
 21
12.4172291921
  0
LINE
  5
397
100
AcDbEntity
  8
0
100
AcDbLine
 62
7
  6
CONTINUOUS
 10
-1.1879294353
 20
-20.5842920896
 11
-1.1879294353
 21
-19.4745102139
  0
LINE
  5
398
100
AcDbEntity
  8
0
100
AcDbLine
 62
7
  6
CONTINUOUS
 10
-1.1879294353
 20
11.3287440399
 11
-1.1879294353
 21
12.4818271857
  0
LINE
  5
399
100
AcDbEntity
  8
0
100
AcDbLine
 62
7
  6
CONTINUOUS
 10
-1.100948517
 20
-25.4165529988
 11
-1.100948517
 21
-23.8781218359
  0
LINE
  5
39A
100
AcDbEntity
  8
0
100
AcDbLine
 62
7
  6
CONTINUOUS
 10
-1.1009484713
 20
15.0268596542
 11
-1.100948517
 21
16.6723343851
  0
LINE
  5
39B
100
AcDbEntity
  8
0
100
AcDbLine
 62
7
  6
CONTINUOUS
 10
-0.7473951264
 20
14.4171362907
 11
-0.7473951264
 21
12.709213352
  0
LINE
  5
39C
100
AcDbEntity
  8
0
100
AcDbLine
 62
7
  6
CONTINUOUS
 10
-0.7473951264
 20
-23.5149082949
 11
-0.7473951264
 21
-21.8069853562
  0
LINE
  5
39D
100
AcDbEntity
  8
0
100
AcDbLine
 62
253
  6
CONTINUOUS
 10
-0.5427121065
 20
-25.0728196087
 11
-0.5427121065
 21
-24.7328760139
  0
LINE
  5
39E
100
AcDbEntity
  8
0
100
AcDbLine
 62
253
  6
CONTINUOUS
 10
-0.5427121065
 20
16.5667281255
 11
-0.5427121065
 21
16.9066717204
  0
LINE
  5
39F
100
AcDbEntity
  8
0
100
AcDbLine
 62
7
  6
CONTINUOUS
 10
-0.4865800665
 20
-25.0033537717
 11
-0.4865800665
 21
-24.6634101079
  0
LINE
  5
3A0
100
AcDbEntity
  8
0
100
AcDbLine
 62
7
  6
CONTINUOUS
 10
-0.4865800665
 20
16.6361939626
 11
-0.4865800665
 21
16.9761375575
  0
LINE
  5
3A1
100
AcDbEntity
  8
DRAFT
100
AcDbLine
 62
7
  6
CONTINUOUS
 10
-0.23474271
 20
11.7644459183
 11
-0.23474271
 21
11.2467548506
  0
LINE
  5
3A2
100
AcDbEntity
  8
0
100
AcDbLine
 62
7
  6
CONTINUOUS
 10
-0.05263094
 20
-23.1400670773
 11
-0.05263094
 21
-21.4775029418
  0
LINE
  5
3A3
100
AcDbEntity
  8
0
100
AcDbLine
 62
7
  6
CONTINUOUS
 10
-0.05263094
 20
13.0991803135
 11
-0.05263094
 21
14.761744449
  0
LINE
  5
3A4
100
AcDbEntity
  8
0
100
AcDbLine
 62
7
  6
CONTINUOUS
 10
-1.4402151981
 20
19.267599547
 11
-1.4330408294
 21
20.4382728736
  0
LINE
  5
3A5
100
AcDbEntity
  8
0
100
AcDbLine
 62
253
  6
CONTINUOUS
 10
-1.5512932808
 20
19.1348293517
 11
-1.5452771127
 21
19.7159381375
  0
LINE
  5
3A6
100
AcDbEntity
  8
0
100
AcDbLine
 62
253
  6
CONTINUOUS
 10
-1.543003659
 20
19.935533724
 11
-1.5391265172
 21
20.3100314262
  0
LWPOLYLINE
  5
3A7
100
AcDbEntity
  8
0
100
AcDbPolyline
 62
7
  6
CONTINUOUS
 90
3
 70
0
 10
-0.7243648892
 20
20.269575076
 10
-0.7242690263
 20
20.2740707058
 10
-0.7248402798
 20
20.2852369871
  0
LINE
  5
3A8
100
AcDbEntity
  8
0
100
AcDbLine
 62
7
  6
CONTINUOUS
 10
-0.4874366827
 20
16.615247828
 11
-0.4865839974
 21
16.6362338007
  0
LWPOLYLINE
  5
3A9
100
AcDbEntity
  8
0
100
AcDbPolyline
 62
253
  6
CONTINUOUS
 90
9
 70
0
 10
-1.433040831
 20
20.4382726127
 10
-1.4333245327
 20
20.4315577845
 10
-1.4368975324
 20
20.4121602655
 10
-1.4445229324
 20
20.3931127943
 10
-1.4561177133
 20
20.3746213709
 10
-1.4715598325
 20
20.3568796797
 10
-1.4906857404
 20
20.3400790429
 10
-1.5132890478
 20
20.3244057954
 10
-1.5391265172
 20
20.3100314262
  0
LINE
  5
3AA
100
AcDbEntity
  8
0
100
AcDbLine
 62
253
  6
CONTINUOUS
 10
-1.047315144
 20
19.9244224905
 11
-1.0377509839
 21
20.148085729
  0
LWPOLYLINE
  5
3AB
100
AcDbEntity
  8
0
100
AcDbPolyline
 62
7
  6
CONTINUOUS
 90
9
 70
0
 10
-1.4401718982
 20
19.2675990061
 10
-1.4405542801
 20
19.2597433869
 10
-1.4444561217
 20
19.2399416277
 10
-1.4527390246
 20
19.2202850569
 10
-1.4652422454
 20
19.2009019805
 10
-1.4814053271
 20
19.182585556
 10
-1.5010414508
 20
19.1656001693
 10
-1.5243374354
 20
19.1496814345
 10
-1.5512932808
 20
19.1348293517
  0
LINE
  5
3AC
100
AcDbEntity
  8
0
100
AcDbLine
 62
7
  6
CONTINUOUS
 10
-0.7608026749
 20
20.2082506971
 11
-0.7620550413
 21
20.1861570847
  0
LWPOLYLINE
  5
3AD
100
AcDbEntity
  8
ASSI
100
AcDbPolyline
 62
7
  6
CONTINUOUS
 90
26
 70
0
 10
20.0415442405
 20
12.4472010332
 10
20.1481949455
 20
12.5055934632
 10
20.2530923198
 20
12.572517527
 10
20.3562363632
 20
12.6479732245
 10
20.458182213
 20
12.7324760322
 10
20.5583747321
 20
12.8255104736
 10
20.6551485089
 20
12.9255301197
 10
20.7484464001
 20
13.0326517263
 10
20.838325549
 20
13.1467585375
 10
20.9232919743
 20
13.2659538571
 10
21.003263561
 20
13.3903227379
 10
21.0783224241
 20
13.519780127
 10
21.1472209265
 20
13.652174169
 10
21.2098560995
 20
13.787553949
 10
21.2663309118
 20
13.925870382
 10
21.3157066328
 20
14.0648243562
 10
21.3578646029
 20
14.2044265281
 10
21.3929234816
 20
14.3446662413
 10
21.4203005162
 20
14.4832124153
 10
21.4398673069
 20
14.6200367431
 10
21.4517522534
 20
14.7551675318
 10
21.4557578029
 20
14.886358622
 10
21.4517522534
 20
15.0135441626
 10
21.4398673069
 20
15.1367900048
 10
21.4203005162
 20
15.254047542
 10
21.4060210972
 20
15.3120315694
  0
LWPOLYLINE
  5
3AE
100
AcDbEntity
  8
RACCORDO
100
AcDbPolyline
 62
7
  6
CONTINUOUS
 90
28
 70
0
 10
18.869582803
 20
11.9864806086
 10
18.8722907988
 20
11.9879149654
 10
18.8748540577
 20
11.9894363653
 10
18.8772725797
 20
11.9910448082
 10
18.8795572839
 20
11.9927430884
 10
18.8816972511
 20
11.9945284116
 10
18.8836597243
 20
11.9963923952
 10
18.8854393137
 20
11.9983373818
 10
18.8870414091
 20
12.0003610289
 10
18.8884494216
 20
12.0024479261
 10
18.8896569351
 20
12.0045935691
 10
18.8906703658
 20
12.0068024623
 10
18.8914923735
 20
12.0090727084
 10
18.8921241627
 20
12.0113966359
 10
18.8925645289
 20
12.0137819163
 10
18.8928125194
 20
12.0162496669
 10
18.8928731466
 20
12.0188023816
 10
18.892741398
 20
12.0214375664
 10
18.8924012837
 20
12.0241688569
 10
18.8918539553
 20
12.0269989115
 10
18.8910982612
 20
12.0299250716
 10
18.8901147565
 20
12.0329529977
 10
18.8889011559
 20
12.0360863917
 10
18.8874597446
 20
12.0393215517
 10
18.8857779336
 20
12.0426530321
 10
18.8838515263
 20
12.0460790175
 10
18.8816847191
 20
12.0496013234
 10
18.8792775122
 20
12.0532199495
  0
LWPOLYLINE
  5
3AF
100
AcDbEntity
  8
SMUSSO
100
AcDbPolyline
 62
7
  6
CONTINUOUS
 90
91
 70
0
 10
8.5287510569
 20
5.800657685
 10
8.5215641254
 20
5.7969077623
 10
8.5143843721
 20
5.7932514624
 10
8.5072117972
 20
5.7896887856
 10
8.5000464027
 20
5.7862199026
 10
8.4928881865
 20
5.7828446425
 10
8.4857371421
 20
5.7795624926
 10
8.4785933686
 20
5.7763734085
 10
8.471456767
 20
5.7732774345
 10
8.4643270331
 20
5.7702741905
 10
8.4572049919
 20
5.7673638592
 10
8.4500898185
 20
5.7645462579
 10
8.4429787344
 20
5.7618204587
 10
8.4358690075
 20
5.7591854159
 10
8.42876337
 20
5.7566421753
 10
8.4216672394
 20
5.7541929461
 10
8.4145800475
 20
5.7518377745
 10
8.4075023627
 20
5.7495766145
 10
8.4004413073
 20
5.7474115374
 10
8.3934000431
 20
5.7453435332
 10
8.3863754085
 20
5.7433716121
 10
8.3793650404
 20
5.7414948753
 10
8.3723673987
 20
5.7397128359
 10
8.3653840236
 20
5.7380259808
 10
8.3584171731
 20
5.7364348727
 10
8.351466244
 20
5.7349394623
 10
8.3445318394
 20
5.7335397987
 10
8.337618027
 20
5.7322365927
 10
8.3307271982
 20
5.7310302198
 10
8.3238569615
 20
5.7299203044
 10
8.3170042099
 20
5.7289064303
 10
8.3101661715
 20
5.7279881779
 10
8.3033456181
 20
5.7271659667
 10
8.2965477585
 20
5.7264406395
 10
8.2897721452
 20
5.7258123942
 10
8.2830192257
 20
5.725281033
 10
8.2762955501
 20
5.7248468043
 10
8.2696041817
 20
5.7245099115
 10
8.2629420574
 20
5.7242701513
 10
8.2563065374
 20
5.7241271632
 10
8.2496959494
 20
5.7240808309
 10
8.2431119658
 20
5.7241312707
 10
8.2365569646
 20
5.7242784701
 10
8.2300307358
 20
5.7245225088
 10
8.2235334895
 20
5.7248633071
 10
8.2170682331
 20
5.7253006143
 10
8.2106369315
 20
5.7258341942
 10
8.2042376198
 20
5.7264642829
 10
8.1978674109
 20
5.7271913379
 10
8.1915233947
 20
5.7280157142
 10
8.1852084813
 20
5.7289370568
 10
8.1789285132
 20
5.7299547577
 10
8.1726834918
 20
5.7310691067
 10
8.1664734158
 20
5.732279814
 10
8.1603041239
 20
5.7335854021
 10
8.1541784905
 20
5.7349852525
 10
8.1480936412
 20
5.7364799836
 10
8.1420467921
 20
5.7380699732
 10
8.1360362045
 20
5.7397555913
 10
8.130063617
 20
5.7415364679
 10
8.1241314614
 20
5.7434118711
 10
8.1182398327
 20
5.7453818405
 10
8.1123886359
 20
5.7474463364
 10
8.1065800176
 20
5.7496045074
 10
8.1008154534
 20
5.7518556829
 10
8.0950934677
 20
5.7542005335
 10
8.08941178
 20
5.7566402197
 10
8.0837677624
 20
5.7591759223
 10
8.0781640428
 20
5.7618064606
 10
8.0726062243
 20
5.7645294524
 10
8.0670946883
 20
5.7673450239
 10
8.0616290533
 20
5.770253049
 10
8.0562137776
 20
5.7732507672
 10
8.0508512122
 20
5.7763368337
 10
8.045539006
 20
5.7795125932
 10
8.040274564
 20
5.7827793201
 10
8.0350561167
 20
5.7861380367
 10
8.0298854336
 20
5.7895877207
 10
8.0247652278
 20
5.7931265795
 10
8.0196958442
 20
5.7967544745
 10
8.014676938
 20
5.8004715442
 10
8.009710188
 20
5.8042764116
 10
8.0047967033
 20
5.8081680933
 10
7.9999353747
 20
5.8121475726
 10
7.9951245533
 20
5.8162164222
 10
7.9903621472
 20
5.8203764813
 10
7.9856502483
 20
5.8246259106
 10
7.9809934832
 20
5.8289607656
 10
7.976392467
 20
5.8333807826
 10
7.9718465847
 20
5.8378862253
 10
7.9696520648
 20
5.8401118655
  0
LINE
  5
3B0
100
AcDbEntity
  8
RACCORDO
100
AcDbLine
 62
253
  6
CONTINUOUS
 10
25.5015201378
 20
13.8732512313
 11
20.8118618795
 21
11.4451095874
  0
LINE
  5
3B1
100
AcDbEntity
  8
RACCORDO
100
AcDbLine
 62
253
  6
CONTINUOUS
 10
25.7136844858
 20
13.5073614362
 11
21.0276638196
 21
11.0811032107
  0
LINE
  5
3B2
100
AcDbEntity
  8
DRAFT
100
AcDbLine
 62
7
  6
CONTINUOUS
 10
23.9475476958
 20
13.5895772805
 11
20.2676339384
 21
11.717223558
  0
LINE
  5
3B3
100
AcDbEntity
  8
RACCORDO
100
AcDbLine
 62
7
  6
CONTINUOUS
 10
18.8695741257
 20
11.9864762102
 11
7.812922042
 21
6.382001977
  0
LINE
  5
3B4
100
AcDbEntity
  8
RACCORDO
100
AcDbLine
 62
7
  6
CONTINUOUS
 10
19.5692246976
 20
11.3969312743
 11
8.5287510569
 21
5.800657685
  0
LWPOLYLINE
  5
3B5
100
AcDbEntity
  8
RACCORDO
100
AcDbPolyline
 62
253
  6
CONTINUOUS
 90
32
 70
0
 10
20.8118618795
 20
11.4451095874
 10
20.7791489039
 20
11.428546195
 10
20.7464066783
 20
11.4128896654
 10
20.7136522375
 20
11.3981516234
 10
20.6808968153
 20
11.3843405588
 10
20.6481636383
 20
11.3714703636
 10
20.6154877707
 20
11.359558479
 10
20.5828865175
 20
11.3486131616
 10
20.5503771917
 20
11.3386421858
 10
20.5179945607
 20
11.3296582186
 10
20.4857562464
 20
11.3216665095
 10
20.4536787165
 20
11.3146714999
 10
20.4217944229
 20
11.3086806457
 10
20.3901252711
 20
11.3036967431
 10
20.3586822392
 20
11.2997201906
 10
20.3274809005
 20
11.2967524857
 10
20.2965408645
 20
11.2947942399
 10
20.2658745084
 20
11.2938449804
 10
20.2354865885
 20
11.2939047788
 10
20.2053909191
 20
11.2949736447
 10
20.1756053916
 20
11.2970509895
 10
20.1461410475
 20
11.300136592
 10
20.1170109716
 20
11.3042295727
 10
20.0882331024
 20
11.3093279136
 10
20.0598254882
 20
11.3154288888
 10
20.0318034625
 20
11.3225291638
 10
20.0041812576
 20
11.3306250961
 10
19.9769747194
 20
11.3397120902
 10
19.950199041
 20
11.349784749
 10
19.9238670766
 20
11.3608379183
 10
19.8979907671
 20
11.372866475
 10
19.8915364162
 20
11.3760542979
  0
LWPOLYLINE
  5
3B6
100
AcDbEntity
  8
RACCORDO
100
AcDbPolyline
 62
253
  6
CONTINUOUS
 90
49
 70
0
 10
21.0276638196
 20
11.0811032107
 10
20.9909088407
 20
11.0625718662
 10
20.9541560748
 20
11.045058881
 10
20.9174055222
 20
11.028564255
 10
20.880631588
 20
11.0130745313
 10
20.843859867
 20
10.9986031669
 10
20.8071671431
 20
10.9851905326
 10
20.7705541128
 20
10.9728407514
 10
20.7340200797
 20
10.9615497004
 10
20.6976397388
 20
10.9513453824
 10
20.6614139935
 20
10.9422318202
 10
20.6253419406
 20
10.934204991
 10
20.5894955649
 20
10.9272808296
 10
20.5538811042
 20
10.9214632174
 10
20.5184923207
 20
10.9167482729
 10
20.4833824861
 20
10.9131402858
 10
20.4485560644
 20
10.9106406738
 10
20.4140085915
 20
10.9092480191
 10
20.3797799469
 20
10.9089623591
 10
20.3458685184
 20
10.9097843229
 10
20.3122759182
 20
10.9117132812
 10
20.2790468618
 20
10.9147473845
 10
20.2461790171
 20
10.9188884706
 10
20.2136747162
 20
10.9241347015
 10
20.1815856719
 20
10.9304787133
 10
20.1499127563
 20
10.9379225472
 10
20.1186550972
 20
10.9464641621
 10
20.0878617912
 20
10.9560900703
 10
20.0575347558
 20
10.9668016551
 10
20.0276720734
 20
10.9785975332
 10
19.9983170883
 20
10.9914600676
 10
19.9694707351
 20
11.00539059
 10
19.9411320793
 20
11.0203877686
 10
19.913341661
 20
11.0364299716
 10
19.886099878
 20
11.0535188629
 10
19.8594063325
 20
11.0716527784
 10
19.8333003717
 20
11.0908050948
 10
19.8077827157
 20
11.110977463
 10
19.7828526445
 20
11.132168232
 10
19.758547345
 20
11.1543458244
 10
19.7348678543
 20
11.1775116501
 10
19.7118131354
 20
11.2016642993
 10
19.6894172636
 20
11.2267679647
 10
19.667681239
 20
11.2528239673
 10
19.6466040616
 20
11.279830986
 10
19.6262168069
 20
11.3077492516
 10
19.6065298335
 20
11.3365655074
 10
19.5875327828
 20
11.3662930101
 10
19.5692256549
 20
11.3969317595
  0
LINE
  5
3B7
100
AcDbEntity
  8
0
100
AcDbLine
 62
7
  6
CONTINUOUS
 10
19.4420772068
 20
11.7144548144
 11
22.5164179746
 21
13.2516251984
  0
LINE
  5
3B8
100
AcDbEntity
  8
ASSI
100
AcDbLine
 62
7
  6
CONTINUOUS
 10
23.8245655198
 20
13.6510683685
 11
24.8852256916
 21
14.1813984544
  0
LINE
  5
3B9
100
AcDbEntity
  8
RACCORDO
100
AcDbLine
 62
7
  6
CONTINUOUS
 10
18.8792775122
 20
12.0532199495
 11
7.8340974631
 21
6.5524837595
  0
LINE
  5
3BA
100
AcDbEntity
  8
SMUSSO
100
AcDbLine
 62
253
  6
CONTINUOUS
 10
8.5287510569
 20
-7.1897233717
 11
7.8127922716
 21
-6.610754602
  0
LWPOLYLINE
  5
3BB
100
AcDbEntity
  8
SMUSSO
100
AcDbPolyline
 62
7
  6
CONTINUOUS
 90
200
 70
0
 10
7.9696520648
 20
-11.4803962102
 10
7.9673586171
 20
-11.4780341364
 10
7.96293015
 20
-11.4733658666
 10
7.9585595976
 20
-11.4686153254
 10
7.9542449836
 20
-11.4637805211
 10
7.9499846553
 20
-11.4588596287
 10
7.9457802654
 20
-11.4538544731
 10
7.9416347951
 20
-11.4487685378
 10
7.9375487769
 20
-11.4436022946
 10
7.9335216784
 20
-11.4383552717
 10
7.9295548837
 20
-11.4330295373
 10
7.9256492478
 20
-11.4276263859
 10
7.9218039159
 20
-11.422144523
 10
7.9180177073
 20
-11.4165821333
 10
7.9142891566
 20
-11.410937001
 10
7.9106197292
 20
-11.4052113418
 10
7.9070126418
 20
-11.399409988
 10
7.9034685577
 20
-11.3935337415
 10
7.8999868134
 20
-11.3875818003
 10
7.8965686352
 20
-11.3815565899
 10
7.8932147751
 20
-11.3754596033
 10
7.889924481
 20
-11.3692893475
 10
7.8866967223
 20
-11.3630437688
 10
7.8835301852
 20
-11.3567202258
 10
7.8804261835
 20
-11.3503213599
 10
7.8773876274
 20
-11.3438530411
 10
7.8744151527
 20
-11.3373162744
 10
7.8715081237
 20
-11.3307100549
 10
7.8686675435
 20
-11.3240372384
 10
7.8658940364
 20
-11.3172994782
 10
7.8631869781
 20
-11.310495121
 10
7.8605454984
 20
-11.3036220629
 10
7.8579686933
 20
-11.2966779305
 10
7.8554574668
 20
-11.2896650972
 10
7.8530136613
 20
-11.282588579
 10
7.8506378095
 20
-11.2754497411
 10
7.8483293786
 20
-11.2682472183
 10
7.8460886126
 20
-11.2609819307
 10
7.8439156415
 20
-11.2536545765
 10
7.8418103352
 20
-11.2462644575
 10
7.839772548
 20
-11.2388103996
 10
7.8378015203
 20
-11.231289244
 10
7.8358980117
 20
-11.2237041495
 10
7.8340641548
 20
-11.216063419
 10
7.8323005282
 20
-11.2083688004
 10
7.8306065534
 20
-11.2006185457
 10
7.8289826272
 20
-11.1928157144
 10
7.8274290497
 20
-11.1849620821
 10
7.8259455207
 20
-11.1770558732
 10
7.8245315371
 20
-11.16909482
 10
7.8231866573
 20
-11.161076467
 10
7.8219113228
 20
-11.1530032699
 10
7.8207063543
 20
-11.144880327
 10
7.8195720437
 20
-11.1367095573
 10
7.8185080992
 20
-11.1284890418
 10
7.817514466
 20
-11.1202181226
 10
7.8165910336
 20
-11.1118964595
 10
7.8157379126
 20
-11.1035243926
 10
7.8149553794
 20
-11.0951022839
 10
7.8142432661
 20
-11.0866268774
 10
7.8136017405
 20
-11.0781014291
 10
7.8130315828
 20
-11.0695360687
 10
7.8125331014
 20
-11.0609334076
 10
7.8121059878
 20
-11.0522908344
 10
7.8117500967
 20
-11.0436106441
 10
7.8114654182
 20
-11.0348942315
 10
7.8112519622
 20
-11.0261402018
 10
7.8111096133
 20
-11.017346665
 10
7.811038333
 20
-11.0085111989
 10
7.8110381597
 20
-10.9996362257
 10
7.8111090935
 20
-10.9907271226
 10
7.8112510962
 20
-10.9817863497
 10
7.8114642061
 20
-10.9728114468
 10
7.811748538
 20
-10.9638004103
 10
7.8121040819
 20
-10.95475186
 10
7.8125308479
 20
-10.945667176
 10
7.8130289816
 20
-10.9365484953
 10
7.8135987912
 20
-10.927392886
 10
7.8142399685
 20
-10.91820328
 10
7.8149517344
 20
-10.9089906098
 10
7.8157339213
 20
-10.899758303
 10
7.8165866968
 20
-10.8905029319
 10
7.8175097847
 20
-10.8812251461
 10
7.8185030746
 20
-10.8719253999
 10
7.8195666769
 20
-10.8626032388
 10
7.8207006465
 20
-10.853257949
 10
7.8219052757
 20
-10.8438873065
 10
7.8231802721
 20
-10.8344935354
 10
7.8245248139
 20
-10.8250825933
 10
7.82593846
 20
-10.8156573928
 10
7.8274216515
 20
-10.8062150215
 10
7.8289748895
 20
-10.7967527
 10
7.8305984725
 20
-10.7872683498
 10
7.832292102
 20
-10.7777640494
 10
7.8340553831
 20
-10.7682432554
 10
7.8358888941
 20
-10.7587036204
 10
7.8377920566
 20
-10.7491474918
 10
7.8397627411
 20
-10.739585369
 10
7.8418001887
 20
-10.7300211945
 10
7.8439051581
 20
-10.7204510258
 10
7.8460777966
 20
-10.7108735353
 10
7.8483182347
 20
-10.7012878872
 10
7.8506263419
 20
-10.6916949173
 10
7.8530018731
 20
-10.6820958052
 10
7.855445362
 20
-10.6724886311
 10
7.857956275
 20
-10.6628753149
 10
7.8605327656
 20
-10.6532627964
 10
7.8631739296
 20
-10.6436543874
 10
7.8658806712
 20
-10.6340467761
 10
7.8686538568
 20
-10.6244369672
 10
7.871494108
 20
-10.6148226697
 10
7.8744008032
 20
-10.6052061746
 10
7.877372944
 20
-10.595591359
 10
7.8804111659
 20
-10.5859765589
 10
7.8835148334
 20
-10.5763634385
 10
7.8866810413
 20
-10.5667608673
 10
7.8899084772
 20
-10.557172843
 10
7.8931984535
 20
-10.5475953681
 10
7.8965520021
 20
-10.5380253196
 10
7.8999698765
 20
-10.5284604224
 10
7.9034513232
 20
-10.5189029518
 10
7.9069951141
 20
-10.5093566103
 10
7.9106019139
 20
-10.4998199066
 10
7.9142710578
 20
-10.4902943321
 10
7.9179993243
 20
-10.480788064
 10
7.9217852467
 20
-10.471304839
 10
7.9256302916
 20
-10.4618409203
 10
7.9295356368
 20
-10.4523932749
 10
7.9335021348
 20
-10.4429597283
 10
7.9375289331
 20
-10.4335424549
 10
7.941614652
 20
-10.4241449449
 10
7.9457598246
 20
-10.4147661733
 10
7.9499639177
 20
-10.4054071651
 10
7.9542239528
 20
-10.3960744856
 10
7.9585382785
 20
-10.386771669
 10
7.9629085461
 20
-10.3774951811
 10
7.9673367314
 20
-10.3682409853
 10
7.9718244194
 20
-10.3590057252
 10
7.976370025
 20
-10.3497927571
 10
7.9809707687
 20
-10.3406081132
 10
7.9856272663
 20
-10.3314508915
 10
7.990338902
 20
-10.322321994
 10
7.9951010483
 20
-10.3132301589
 10
7.9999116132
 20
-10.3041793923
 10
8.0047726888
 20
-10.2951656881
 10
8.009685924
 20
-10.2861857661
 10
8.0146524283
 20
-10.2772374939
 10
8.0196710923
 20
-10.2683230039
 10
8.0247402362
 20
-10.2594454134
 10
8.0298602064
 20
-10.2506042248
 10
8.0350306565
 20
-10.2417999357
 10
8.0402488685
 20
-10.2330371568
 10
8.0455130718
 20
-10.2243187448
 10
8.0508250369
 20
-10.215641843
 10
8.0561873567
 20
-10.2070024918
 10
8.0616023788
 20
-10.198396917
 10
8.0670677555
 20
-10.1898288928
 10
8.0725790374
 20
-10.1813057827
 10
8.0781366067
 20
-10.1728273161
 10
8.0837400813
 20
-10.1643937635
 10
8.0893838652
 20
-10.1560132999
 10
8.0950653327
 20
-10.1476898242
 10
8.1007871096
 20
-10.1394194375
 10
8.1065514773
 20
-10.1311986174
 10
8.112359915
 20
-10.1230251608
 10
8.1182109437
 20
-10.1149012709
 10
8.1241024074
 20
-10.1068300357
 10
8.1300344032
 20
-10.0988113949
 10
8.1360068342
 20
-10.0908454089
 10
8.1420172539
 20
-10.0829353463
 10
8.1480639194
 20
-10.0750833837
 10
8.1541485738
 20
-10.0672873446
 10
8.1602739994
 20
-10.0595439676
 10
8.1664430635
 20
-10.0518496659
 10
8.1726528989
 20
-10.0442080264
 10
8.1788976864
 20
-10.0366265482
 10
8.1851774306
 20
-10.0291055151
 10
8.1914921269
 20
-10.0216446434
 10
8.1978359428
 20
-10.0142505811
 10
8.2042059763
 20
-10.0069266879
 10
8.2106051292
 20
-9.9996696041
 10
8.2170362747
 20
-9.9924758995
 10
8.2235013603
 20
-9.9853433215
 10
8.2299984385
 20
-9.9782741227
 10
8.2365245393
 20
-9.9712716299
 10
8.2430794524
 20
-9.9643361382
 10
8.2496633882
 20
-9.9574673525
 10
8.2562740077
 20
-9.9506677145
 10
8.2629096526
 20
-9.9439388247
 10
8.2695719812
 20
-9.9372790825
 10
8.2762636291
 20
-9.9306861282
 10
8.2829876679
 20
-9.9241569857
 10
8.2897410261
 20
-9.917694631
 10
8.2965171253
 20
-9.9113056329
 10
8.3033155104
 20
-9.9049906608
 10
8.3101366365
 20
-9.8987490452
 10
8.3169752905
 20
-9.8925853462
 10
8.3238286894
 20
-9.8865020241
 10
8.3306996161
 20
-9.8804966186
 10
8.3375912065
 20
-9.8745663093
  0
LWPOLYLINE
  5
3BC
100
AcDbEntity
  8
SMUSSO
100
AcDbPolyline
 62
7
  6
CONTINUOUS
 90
28
 70
0
 10
8.3375912065
 20
-9.8745663093
 10
8.3445059024
 20
-9.8687089547
 10
8.3514412619
 20
-9.8629266964
 10
8.3583930951
 20
-9.8572231384
 10
8.3653608113
 20
-9.8515988534
 10
8.3723450011
 20
-9.8460532687
 10
8.3793432467
 20
-9.8405882711
 10
8.3863539481
 20
-9.8352050183
 10
8.3933787052
 20
-9.8299023524
 10
8.4004199003
 20
-9.8246786868
 10
8.4074805987
 20
-9.8195317996
 10
8.4145577351
 20
-9.8144639126
 10
8.4216444955
 20
-9.8094801048
 10
8.4287403405
 20
-9.8045809768
 10
8.4358458096
 20
-9.7997659281
 10
8.4429557067
 20
-9.7950382351
 10
8.4500674104
 20
-9.7903996056
 10
8.4571835422
 20
-9.785848332
 10
8.4643067693
 20
-9.7813825675
 10
8.4714378835
 20
-9.7770016643
 10
8.4785760931
 20
-9.7727062703
 10
8.4857216911
 20
-9.7684964823
 10
8.4928747738
 20
-9.764372155
 10
8.500035245
 20
-9.7603334336
 10
8.5072031085
 20
-9.7563808499
 10
8.5143783656
 20
-9.7525145811
 10
8.5215610151
 20
-9.7487344499
 10
8.5287510569
 20
-9.7450404563
  0
LINE
  5
3BD
100
AcDbEntity
  8
RACCORDO
100
AcDbLine
 62
7
  6
CONTINUOUS
 10
0.702173775
 20
11.4446834137
 11
0.702173775
 21
10.7782966081
  0
LINE
  5
3BE
100
AcDbEntity
  8
RACCORDO
100
AcDbLine
 62
7
  6
CONTINUOUS
 10
0.702173775
 20
-18.498914638
 11
0.702173775
 21
-19.1635971947
  0
LINE
  5
3BF
100
AcDbEntity
  8
0
100
AcDbLine
 62
7
  6
CONTINUOUS
 10
0.7038509214
 20
-18.4980489622
 11
0.7038509214
 21
10.7774580349
  0
LWPOLYLINE
  5
3C0
100
AcDbEntity
  8
0
100
AcDbPolyline
 62
253
  6
CONTINUOUS
 90
8
 70
0
 10
-0.5768440504
 20
-25.1337866152
 10
-0.5777580042
 20
-25.155628713
 10
-0.5811169871
 20
-25.1759091216
 10
-0.5868635502
 20
-25.1942809717
 10
-0.5948994083
 20
-25.2104300359
 10
-0.6050871208
 20
-25.2240801055
 10
-0.6172524436
 20
-25.2349977135
 10
-0.6257472429
 20
-25.2403369505
  0
LINE
  5
3C1
100
AcDbEntity
  8
0
100
AcDbLine
 62
7
  6
CONTINUOUS
 10
-0.487708365
 20
-25.0273874012
 11
-0.4865801524
 21
-25.0033225495
  0
LINE
  5
3C2
100
AcDbEntity
  8
0
100
AcDbLine
 62
7
  6
CONTINUOUS
 10
-1.1879294353
 20
-20.5842920896
 11
-1.3130805513
 21
-21.3161621735
  0
LINE
  5
3C3
100
AcDbEntity
  8
SMUSSO
100
AcDbLine
 62
7
  6
CONTINUOUS
 10
25.7136844858
 20
12.3300391571
 11
8.5287510569
 21
3.2453406005
  0
LWPOLYLINE
  5
3C4
100
AcDbEntity
  8
SMUSSO
100
AcDbPolyline
 62
7
  6
CONTINUOUS
 90
91
 70
0
 10
8.5287510569
 20
1.4705306661
 10
8.5215645525
 20
1.4667809619
 10
8.5143852002
 20
1.4631248587
 10
8.507213
 20
1.4595623565
 10
8.5000479542
 20
1.4560936253
 10
8.4928900604
 20
1.4527184951
 10
8.4857393119
 20
1.4494364559
 10
8.4785958079
 20
1.4462474634
 10
8.4714594492
 20
1.4431515619
 10
8.464329931
 20
1.440148374
 10
8.4572080806
 20
1.4372380831
 10
8.4500930707
 20
1.4344205057
 10
8.4429821146
 20
1.4316947141
 10
8.4358724719
 20
1.4290596598
 10
8.428766883
 20
1.4265163914
 10
8.4216707821
 20
1.4240671273
 10
8.4145835992
 20
1.4217119139
 10
8.4075059043
 20
1.4194507047
 10
8.4004448421
 20
1.4172855794
 10
8.3934035834
 20
1.415217531
 10
8.3863789574
 20
1.4132455663
 10
8.3793685961
 20
1.4113687852
 10
8.3723709565
 20
1.4095866998
 10
8.3653875815
 20
1.407899798
 10
8.3584207322
 20
1.4063086432
 10
8.3514698028
 20
1.4048131856
 10
8.3445353992
 20
1.403413475
 10
8.3376215997
 20
1.4021102232
 10
8.3307307973
 20
1.4009038066
 10
8.3238605991
 20
1.3997938489
 10
8.3170079042
 20
1.3987799329
 10
8.3101699497
 20
1.3978616397
 10
8.3033494984
 20
1.3970393882
 10
8.2965517384
 20
1.3963140175
 10
8.2897762231
 20
1.3956857244
 10
8.2830233991
 20
1.3951543121
 10
8.2762997936
 20
1.3947200292
 10
8.2696084633
 20
1.3943830777
 10
8.2629463515
 20
1.3941432556
 10
8.2563108166
 20
1.3940002055
 10
8.2497001775
 20
1.3939538117
 10
8.2431161153
 20
1.3940041898
 10
8.2365610309
 20
1.3941513296
 10
8.2300347146
 20
1.3943953119
 10
8.223537376
 20
1.3947360557
 10
8.2170720453
 20
1.3951733083
 10
8.2106406952
 20
1.3957068336
 10
8.2042413529
 20
1.3963368676
 10
8.1978711299
 20
1.3970638653
 10
8.1915271214
 20
1.3978881808
 10
8.1852122323
 20
1.3988094599
 10
8.1789322883
 20
1.3998270961
 10
8.17268729
 20
1.4009413784
 10
8.1664772369
 20
1.4021520177
 10
8.1603079534
 20
1.4034575404
 10
8.1541823087
 20
1.4048573286
 10
8.1480974337
 20
1.4063520003
 10
8.1420505457
 20
1.4079419347
 10
8.1360399025
 20
1.4096275033
 10
8.1300672463
 20
1.4114083347
 10
8.1241350218
 20
1.4132836942
 10
8.1182433243
 20
1.4152536223
 10
8.1123920584
 20
1.4173180785
 10
8.1065833821
 20
1.4194762066
 10
8.1008187754
 20
1.4217273345
 10
8.0950967583
 20
1.4240721342
 10
8.0894150479
 20
1.4265117653
 10
8.0837710189
 20
1.4290474073
 10
8.0781672966
 20
1.4316778807
 10
8.0726094747
 20
1.4344008071
 10
8.067097934
 20
1.4372163125
 10
8.0616322937
 20
1.4401242709
 10
8.0562170049
 20
1.4431219265
 10
8.0508544156
 20
1.4462079358
 10
8.0455421777
 20
1.4493836423
 10
8.0402776985
 20
1.4526503202
 10
8.0350592074
 20
1.4560089927
 10
8.0298884749
 20
1.4594586366
 10
8.0247682195
 20
1.4629974564
 10
8.0196987864
 20
1.4666253137
 10
8.0146798304
 20
1.4703423468
 10
8.0097130341
 20
1.4741471755
 10
8.0047995089
 20
1.4780388149
 10
7.9999381435
 20
1.4820182498
 10
7.9951272872
 20
1.4860870536
 10
7.9903648481
 20
1.490247065
 10
7.985652918
 20
1.4944964454
 10
7.9809961219
 20
1.4988312512
 10
7.9763950746
 20
1.5032512193
 10
7.9718491613
 20
1.5077566128
 10
7.9696520717
 20
1.5099848395
  0
LINE
  5
3C5
100
AcDbEntity
  8
SMUSSO
100
AcDbLine
 62
7
  6
CONTINUOUS
 10
25.0064700006
 20
10.7670625014
 11
7.8129220317
 21
2.0518749529
  0
LINE
  5
3C6
100
AcDbEntity
  8
SMUSSO
100
AcDbLine
 62
7
  6
CONTINUOUS
 10
25.7136844858
 20
10.1813516155
 11
8.5287510569
 21
1.4705306661
  0
LINE
  5
3C7
100
AcDbEntity
  8
RACCORDO
100
AcDbLine
 62
7
  6
CONTINUOUS
 10
23.9475476958
 20
10.2472000158
 11
7.8340974799
 21
2.222356749
  0
LINE
  5
3C8
100
AcDbEntity
  8
0
100
AcDbLine
 62
7
  6
CONTINUOUS
 10
-4.5298759944
 20
-4.6066487215
 11
-3.4630513562
 21
-4.0753472062
  0
LINE
  5
3C9
100
AcDbEntity
  8
DRAFT
100
AcDbLine
 62
7
  6
CONTINUOUS
 10
23.930631537
 20
10.2556580952
 11
24.9912917088
 21
10.7746516473
  0
LINE
  5
3CA
100
AcDbEntity
  8
0
100
AcDbLine
 62
7
  6
CONTINUOUS
 10
-4.3786763334
 20
-4.5002583914
 11
-2.1591939355
 21
-3.4702702198
  0
LINE
  5
3CB
100
AcDbEntity
  8
SMUSSO
100
AcDbLine
 62
253
  6
CONTINUOUS
 10
8.5287510569
 20
-2.8595963528
 11
7.8127922724
 21
-2.2806275838
  0
LWPOLYLINE
  5
3CC
100
AcDbEntity
  8
SMUSSO
100
AcDbPolyline
 62
7
  6
CONTINUOUS
 90
200
 70
0
 10
7.9696520717
 20
-7.1502691983
 10
7.9673611624
 20
-7.1479097598
 10
7.9629326633
 20
-7.143241538
 10
7.9585620787
 20
-7.1384910445
 10
7.9542474325
 20
-7.1336562881
 10
7.9499870728
 20
-7.1287354446
 10
7.9457826516
 20
-7.1237303382
 10
7.9416371489
 20
-7.1186444506
 10
7.9375510971
 20
-7.1134782537
 10
7.9335239638
 20
-7.1082312757
 10
7.929557132
 20
-7.1029055826
 10
7.9256514562
 20
-7.0975024682
 10
7.9218060818
 20
-7.0920206386
 10
7.9180198291
 20
-7.0864582786
 10
7.9142912314
 20
-7.0808131707
 10
7.9106217554
 20
-7.0750875324
 10
7.9070146205
 20
-7.0692862002
 10
7.9034704904
 20
-7.0634099761
 10
7.8999887014
 20
-7.0574580582
 10
7.8965704823
 20
-7.0514328775
 10
7.8932165867
 20
-7.0453359296
 10
7.8899262609
 20
-7.0391657189
 10
7.8866984725
 20
-7.0329201901
 10
7.8835319085
 20
-7.0265967038
 10
7.880427882
 20
-7.0201978994
 10
7.8773892994
 20
-7.0137296398
 10
7.8744167962
 20
-7.0071929294
 10
7.871509737
 20
-7.0005867638
 10
7.8686691229
 20
-6.9939139923
 10
7.8658955768
 20
-6.9871762651
 10
7.8631884758
 20
-6.980371932
 10
7.8605469516
 20
-6.9734988916
 10
7.8579700997
 20
-6.9665547688
 10
7.8554588246
 20
-6.9595419387
 10
7.8530149717
 20
-6.9524654253
 10
7.8506390742
 20
-6.945326594
 10
7.8483305988
 20
-6.9381240793
 10
7.8460897913
 20
-6.9308588086
 10
7.8439167826
 20
-6.9235314837
 10
7.8418114416
 20
-6.9161414028
 10
7.8397736208
 20
-6.9086873879
 10
7.8378025605
 20
-6.9011662812
 10
7.8358990203
 20
-6.8935812405
 10
7.8340651309
 20
-6.885940561
 10
7.8323014703
 20
-6.8782459896
 10
7.8306074604
 20
-6.8704957793
 10
7.8289834975
 20
-6.8626929842
 10
7.8274298811
 20
-6.8548393772
 10
7.8259463117
 20
-6.8469331853
 10
7.824532287
 20
-6.8389721444
 10
7.8231873658
 20
-6.830953798
 10
7.8219119893
 20
-6.8228806026
 10
7.8207069795
 20
-6.8147576625
 10
7.8195726283
 20
-6.806586897
 10
7.8185086438
 20
-6.7983663869
 10
7.8175149714
 20
-6.7900954782
 10
7.816591501
 20
-6.7817738335
 10
7.8157383428
 20
-6.7734017903
 10
7.8149557724
 20
-6.7649797072
 10
7.8142436219
 20
-6.7565043284
 10
7.8136020594
 20
-6.7479789096
 10
7.8130318646
 20
-6.7394135768
 10
7.8125333457
 20
-6.7308109405
 10
7.8121061946
 20
-6.7221683901
 10
7.8117502659
 20
-6.7134882198
 10
7.8114655497
 20
-6.7047718239
 10
7.8112520561
 20
-6.696017808
 10
7.8111096696
 20
-6.687224283
 10
7.8110383518
 20
-6.678388827
 10
7.8110381411
 20
-6.6695138619
 10
7.8111090379
 20
-6.6606047648
 10
7.8112510038
 20
-6.6516639963
 10
7.811464077
 20
-6.6426890957
 10
7.8117483727
 20
-6.6336780585
 10
7.8121038808
 20
-6.6246295037
 10
7.8125306114
 20
-6.6155448123
 10
7.8130287102
 20
-6.606426122
 10
7.8135984855
 20
-6.5972704998
 10
7.8142396291
 20
-6.5880808786
 10
7.8149513614
 20
-6.5788681952
 10
7.8157335151
 20
-6.5696358772
 10
7.8165862577
 20
-6.560380497
 10
7.8175093121
 20
-6.5511027079
 10
7.8185025679
 20
-6.5418029673
 10
7.8195661356
 20
-6.5324808179
 10
7.8207000704
 20
-6.5231355412
 10
7.8219046642
 20
-6.5137649142
 10
7.8231796251
 20
-6.50437116
 10
7.8245241322
 20
-6.4949602296
 10
7.8259377444
 20
-6.4855350346
 10
7.8274209028
 20
-6.4760926633
 10
7.8289741097
 20
-6.466630332
 10
7.8305976642
 20
-6.4571459584
 10
7.8322912672
 20
-6.4476416248
 10
7.8340545232
 20
-6.4381207937
 10
7.8358880108
 20
-6.4285811164
 10
7.8377911513
 20
-6.4190249416
 10
7.8397618131
 20
-6.4094627786
 10
7.8417992371
 20
-6.399898571
 10
7.8439041824
 20
-6.3903283753
 10
7.8460767941
 20
-6.3807508696
 10
7.8483172018
 20
-6.3711652229
 10
7.8506252759
 20
-6.3615722663
 10
7.8530007731
 20
-6.3519731704
 10
7.8554442268
 20
-6.342366016
 10
7.8579551035
 20
-6.3327527225
 10
7.8605315601
 20
-6.3231402185
 10
7.8631726925
 20
-6.3135318136
 10
7.8658794047
 20
-6.3039241983
 10
7.868652565
 20
-6.2943143724
 10
7.8714927963
 20
-6.2847000407
 10
7.8743994758
 20
-6.2750834984
 10
7.8773716026
 20
-6.2654686318
 10
7.8804098131
 20
-6.2558537758
 10
7.883513471
 20
-6.2462405955
 10
7.8866796675
 20
-6.2366379718
 10
7.8899070895
 20
-6.2270499047
 10
7.8931970501
 20
-6.2174723943
 10
7.8965505795
 20
-6.207902321
 10
7.8999684295
 20
-6.1983374136
 10
7.9034498483
 20
-6.1887799434
 10
7.9069936102
 20
-6.1792336049
 10
7.9106003798
 20
-6.1696969066
 10
7.9142694925
 20
-6.16017134
 10
7.9179977299
 20
-6.1506650743
 10
7.9217836261
 20
-6.141181844
 10
7.9256286469
 20
-6.1317179145
 10
7.9295339707
 20
-6.1222702523
 10
7.9335004506
 20
-6.1128366814
 10
7.9375272335
 20
-6.1034193778
 10
7.9416129384
 20
-6.0940218351
 10
7.9457580983
 20
-6.0846430286
 10
7.9499621802
 20
-6.0752839831
 10
7.9542222042
 20
-6.0659512671
 10
7.9585365181
 20
-6.0566484161
 10
7.962906774
 20
-6.0473718945
 10
7.9673349481
 20
-6.0381176647
 10
7.9718226256
 20
-6.0288823696
 10
7.9763682213
 20
-6.0196693663
 10
7.980968955
 20
-6.0104846878
 10
7.9856254431
 20
-6.0013274315
 10
7.9903370692
 20
-5.9921985
 10
7.9950992043
 20
-5.9831066348
 10
7.9999097562
 20
-5.9740558419
 10
8.0047708171
 20
-5.9650421152
 10
8.0096840341
 20
-5.9560621768
 10
8.014650515
 20
-5.9471138976
 10
8.0196691521
 20
-5.9381994068
 10
8.0247382696
 20
-5.9293218144
 10
8.0298582133
 20
-5.9204806232
 10
8.0350286376
 20
-5.9116763305
 10
8.0402468292
 20
-5.9029135387
 10
8.0455110189
 20
-5.8941951024
 10
8.0508229761
 20
-5.8855181671
 10
8.0561852958
 20
-5.8768787708
 10
8.0616003286
 20
-5.8682731344
 10
8.0670657241
 20
-5.8597050371
 10
8.0725770254
 20
-5.8511818542
 10
8.0781346155
 20
-5.8427033148
 10
8.0837381116
 20
-5.8342696897
 10
8.0893819083
 20
-5.8258891673
 10
8.0950633775
 20
-5.8175656504
 10
8.1007851474
 20
-5.8092952361
 10
8.1065494972
 20
-5.8010744036
 10
8.1123579017
 20
-5.7929009555
 10
8.1182088862
 20
-5.7847770893
 10
8.1241003061
 20
-5.7767058763
 10
8.1300322579
 20
-5.7686872562
 10
8.1360046453
 20
-5.7607212894
 10
8.1420150345
 20
-5.7528112287
 10
8.1480616866
 20
-5.7449592451
 10
8.1541463405
 20
-5.7371631677
 10
8.1602717804
 20
-5.7294197351
 10
8.1664408786
 20
-5.7217253545
 10
8.1726507627
 20
-5.7140836189
 10
8.178895599
 20
-5.7065020463
 10
8.1851753927
 20
-5.6989809208
 10
8.1914901387
 20
-5.6915199583
 10
8.1978339881
 20
-5.6841258249
 10
8.2042040338
 20
-5.6768018867
 10
8.210603183
 20
-5.6695447776
 10
8.2170343085
 20
-5.6623510648
 10
8.2234993523
 20
-5.655218502
 10
8.2299963725
 20
-5.6481493356
 10
8.2365224167
 20
-5.6411468726
 10
8.2430772746
 20
-5.634211407
 10
8.2496611566
 20
-5.6273426447
 10
8.2562717414
 20
-5.6205430102
 10
8.2629073772
 20
-5.613814097
 10
8.2695697159
 20
-5.6071543115
 10
8.2762613915
 20
-5.6005612981
 10
8.2829854812
 20
-5.5940320754
 10
8.2897389078
 20
-5.5875696247
 10
8.2965150743
 20
-5.5811805335
 10
8.3033135252
 20
-5.5748654725
 10
8.310134716
 20
-5.5686237711
 10
8.3169734147
 20
-5.5624600051
 10
8.323826831
 20
-5.5563766417
 10
8.3306977553
 20
-5.5503712137
 10
8.3375893269
 20
-5.5444408952
  0
LWPOLYLINE
  5
3CD
100
AcDbEntity
  8
SMUSSO
100
AcDbPolyline
 62
7
  6
CONTINUOUS
 90
28
 70
0
 10
8.3375893269
 20
-5.5444408952
 10
8.3445039826
 20
-5.5385835486
 10
8.3514392857
 20
-5.5328013115
 10
8.3583910649
 20
-5.5270977717
 10
8.3653587313
 20
-5.5214734994
 10
8.3723428739
 20
-5.5159279243
 10
8.3793410887
 20
-5.5104629232
 10
8.3863517825
 20
-5.5050796484
 10
8.3933765484
 20
-5.4997769476
 10
8.4004177624
 20
-5.4945532402
 10
8.4074784877
 20
-5.4894063061
 10
8.4145556609
 20
-5.4843383655
 10
8.4216424687
 20
-5.4793544981
 10
8.4287383715
 20
-5.474455305
 10
8.4358439087
 20
-5.4696401851
 10
8.4429538852
 20
-5.4649124157
 10
8.4500656802
 20
-5.4602737044
 10
8.4571819145
 20
-5.4557223437
 10
8.4643052552
 20
-5.4512564883
 10
8.4714364938
 20
-5.4468754905
 10
8.4785748388
 20
-5.4425799982
 10
8.4857205832
 20
-5.4383701091
 10
8.4928738234
 20
-5.4342456783
 10
8.5000344629
 20
-5.4302068508
 10
8.5072025057
 20
-5.4262541596
 10
8.5143779529
 20
-5.4223877825
 10
8.5215608033
 20
-5.4186075418
 10
8.5287510569
 20
-5.4149134374
  0
LINE
  5
3CE
100
AcDbEntity
  8
0
100
AcDbLine
 62
7
  6
CONTINUOUS
 10
5.5745207841
 20
18.950945248
 11
5.5745207841
 21
19.1419673117
  0
LINE
  5
3CF
100
AcDbEntity
  8
SMUSSO
100
AcDbLine
 62
7
  6
CONTINUOUS
 10
25.7136844858
 20
7.9999121382
 11
8.5287510569
 21
-1.0847864185
  0
LINE
  5
3D0
100
AcDbEntity
  8
0
100
AcDbLine
 62
7
  6
CONTINUOUS
 10
-4.5298759944
 20
-8.0662552945
 11
-2.2819875483
 21
-6.8982839765
  0
LINE
  5
3D1
100
AcDbEntity
  8
SMUSSO
100
AcDbLine
 62
7
  6
CONTINUOUS
 10
25.0064700006
 20
6.4369354825
 11
7.812922042
 21
-2.2782520608
  0
LINE
  5
3D2
100
AcDbEntity
  8
RACCORDO
100
AcDbLine
 62
7
  6
CONTINUOUS
 10
23.9475476958
 20
5.9170729969
 11
7.8340974631
 21
-2.1077702783
  0
LINE
  5
3D3
100
AcDbEntity
  8
DRAFT
100
AcDbLine
 62
7
  6
CONTINUOUS
 10
23.930631537
 20
5.9255310763
 11
24.9912917088
 21
6.4445246284
  0
LINE
  5
3D4
100
AcDbEntity
  8
0
100
AcDbLine
 62
7
  6
CONTINUOUS
 10
-4.3786763334
 20
-8.0434708101
 11
-2.1591939355
 21
-6.9672488296
  0
LINE
  5
3D5
100
AcDbEntity
  8
DRAFT
100
AcDbLine
 62
7
  6
CONTINUOUS
 10
20.2687730756
 20
-4.5752895804
 11
19.659314012
 21
-4.2705600487
  0
LINE
  5
3D6
100
AcDbEntity
  8
DRAFT
100
AcDbLine
 62
7
  6
CONTINUOUS
 10
19.659314012
 20
-4.2281914348
 11
19.3022926262
 21
-4.0496807419
  0
LINE
  5
3D7
100
AcDbEntity
  8
DRAFT
100
AcDbLine
 62
7
  6
CONTINUOUS
 10
15.9725141543
 20
-2.384791506
 11
15.0927407316
 21
-1.9449047946
  0
LWPOLYLINE
  5
3D8
100
AcDbEntity
  8
0
100
AcDbPolyline
 62
7
  6
CONTINUOUS
 90
4
 70
0
 10
-17.6805860749
 20
22.7090574108
 10
-17.6624875109
 20
22.6930726834
 10
-17.6427787277
 20
22.6792005281
 10
-17.6245476314
 20
22.6689945991
  0
LWPOLYLINE
  5
3D9
100
AcDbEntity
  8
SMUSSO
100
AcDbPolyline
 62
7
  6
CONTINUOUS
 90
200
 70
0
 10
7.9696520648
 20
-2.8201421723
 10
7.9673586171
 20
-2.8177800986
 10
7.96293015
 20
-2.8131118287
 10
7.9585595976
 20
-2.8083612875
 10
7.9542449836
 20
-2.8035264833
 10
7.9499846553
 20
-2.7986055908
 10
7.9457802654
 20
-2.7936004352
 10
7.9416347951
 20
-2.7885145
 10
7.9375487769
 20
-2.7833482568
 10
7.9335216784
 20
-2.7781012339
 10
7.9295548837
 20
-2.7727754995
 10
7.9256492478
 20
-2.7673723481
 10
7.9218039159
 20
-2.7618904852
 10
7.9180177073
 20
-2.7563280955
 10
7.9142891566
 20
-2.7506829631
 10
7.9106197292
 20
-2.744957304
 10
7.9070126418
 20
-2.7391559501
 10
7.9034685577
 20
-2.7332797037
 10
7.8999868134
 20
-2.7273277625
 10
7.8965686352
 20
-2.7213025521
 10
7.8932147751
 20
-2.7152055655
 10
7.889924481
 20
-2.7090353097
 10
7.8866967223
 20
-2.7027897309
 10
7.8835301852
 20
-2.6964661879
 10
7.8804261835
 20
-2.690067322
 10
7.8773876274
 20
-2.6835990033
 10
7.8744151527
 20
-2.6770622366
 10
7.8715081237
 20
-2.6704560171
 10
7.8686675435
 20
-2.6637832006
 10
7.8658940364
 20
-2.6570454404
 10
7.8631869781
 20
-2.6502410832
 10
7.8605454984
 20
-2.643368025
 10
7.8579686933
 20
-2.6364238927
 10
7.8554574668
 20
-2.6294110594
 10
7.8530136613
 20
-2.6223345412
 10
7.8506378095
 20
-2.6151957033
 10
7.8483293786
 20
-2.6079931805
 10
7.8460886126
 20
-2.6007278929
 10
7.8439156415
 20
-2.5934005386
 10
7.8418103352
 20
-2.5860104196
 10
7.839772548
 20
-2.5785563618
 10
7.8378015203
 20
-2.5710352061
 10
7.8358980117
 20
-2.5634501117
 10
7.8340641548
 20
-2.5558093812
 10
7.8323005282
 20
-2.5481147625
 10
7.8306065534
 20
-2.5403645079
 10
7.8289826272
 20
-2.5325616765
 10
7.8274290497
 20
-2.5247080443
 10
7.8259455207
 20
-2.5168018353
 10
7.8245315371
 20
-2.5088407821
 10
7.8231866573
 20
-2.5008224292
 10
7.8219113228
 20
-2.492749232
 10
7.8207063543
 20
-2.4846262891
 10
7.8195720437
 20
-2.4764555194
 10
7.8185080992
 20
-2.468235004
 10
7.817514466
 20
-2.4599640848
 10
7.8165910336
 20
-2.4516424217
 10
7.8157379126
 20
-2.4432703548
 10
7.8149553794
 20
-2.434848246
 10
7.8142432661
 20
-2.4263728396
 10
7.8136017405
 20
-2.4178473913
 10
7.8130315828
 20
-2.4092820308
 10
7.8125331014
 20
-2.4006793698
 10
7.8121059878
 20
-2.3920367966
 10
7.8117500967
 20
-2.3833566062
 10
7.8114654182
 20
-2.3746401937
 10
7.8112519622
 20
-2.3658861639
 10
7.8111096133
 20
-2.3570926272
 10
7.811038333
 20
-2.3482571611
 10
7.8110381597
 20
-2.3393821879
 10
7.8111090935
 20
-2.3304730847
 10
7.8112510962
 20
-2.3215323118
 10
7.8114642061
 20
-2.312557409
 10
7.811748538
 20
-2.3035463725
 10
7.8121040819
 20
-2.2944978222
 10
7.8125308479
 20
-2.2854131382
 10
7.8130289816
 20
-2.2762944575
 10
7.8135987912
 20
-2.2671388482
 10
7.8142399685
 20
-2.2579492422
 10
7.8149517344
 20
-2.2487365719
 10
7.8157339213
 20
-2.2395042651
 10
7.8165866968
 20
-2.2302488941
 10
7.8175097847
 20
-2.2209711083
 10
7.8185030746
 20
-2.211671362
 10
7.8195666769
 20
-2.2023492009
 10
7.8207006465
 20
-2.1930039111
 10
7.8219052757
 20
-2.1836332687
 10
7.8231802721
 20
-2.1742394975
 10
7.8245248139
 20
-2.1648285555
 10
7.82593846
 20
-2.155403355
 10
7.8274216515
 20
-2.1459609837
 10
7.8289748895
 20
-2.1364986622
 10
7.8305984725
 20
-2.1270143119
 10
7.832292102
 20
-2.1175100115
 10
7.8340553831
 20
-2.1079892176
 10
7.8358888941
 20
-2.0984495825
 10
7.8377920566
 20
-2.0888934539
 10
7.8397627411
 20
-2.0793313312
 10
7.8418001887
 20
-2.0697671566
 10
7.8439051581
 20
-2.060196988
 10
7.8460777966
 20
-2.0506194975
 10
7.8483182347
 20
-2.0410338493
 10
7.8506263419
 20
-2.0314408794
 10
7.8530018731
 20
-2.0218417674
 10
7.855445362
 20
-2.0122345933
 10
7.857956275
 20
-2.0026212771
 10
7.8605327656
 20
-1.9930087586
 10
7.8631739296
 20
-1.9834003496
 10
7.8658806712
 20
-1.9737927383
 10
7.8686538568
 20
-1.9641829294
 10
7.871494108
 20
-1.9545686319
 10
7.8744008032
 20
-1.9449521367
 10
7.877372944
 20
-1.9353373212
 10
7.8804111659
 20
-1.9257225211
 10
7.8835148334
 20
-1.9161094006
 10
7.8866810413
 20
-1.9065068295
 10
7.8899084772
 20
-1.8969188052
 10
7.8931984535
 20
-1.8873413302
 10
7.8965520021
 20
-1.8777712817
 10
7.8999698765
 20
-1.8682063846
 10
7.9034513232
 20
-1.8586489139
 10
7.9069951141
 20
-1.8491025725
 10
7.9106019139
 20
-1.8395658688
 10
7.9142710578
 20
-1.8300402943
 10
7.9179993243
 20
-1.8205340261
 10
7.9217852467
 20
-1.8110508011
 10
7.9256302916
 20
-1.8015868825
 10
7.9295356368
 20
-1.7921392371
 10
7.9335021348
 20
-1.7827056904
 10
7.9375289331
 20
-1.773288417
 10
7.941614652
 20
-1.763890907
 10
7.9457598246
 20
-1.7545121354
 10
7.9499639177
 20
-1.7451531272
 10
7.9542239528
 20
-1.7358204478
 10
7.9585382785
 20
-1.7265176311
 10
7.9629085461
 20
-1.7172411433
 10
7.9673367314
 20
-1.7079869474
 10
7.9718244194
 20
-1.6987516873
 10
7.976370025
 20
-1.6895387192
 10
7.9809707687
 20
-1.6803540753
 10
7.9856272663
 20
-1.6711968537
 10
7.990338902
 20
-1.6620679562
 10
7.9951010483
 20
-1.6529761211
 10
7.9999116132
 20
-1.6439253545
 10
8.0047726888
 20
-1.6349116503
 10
8.009685924
 20
-1.6259317283
 10
8.0146524283
 20
-1.616983456
 10
8.0196710923
 20
-1.608068966
 10
8.0247402362
 20
-1.5991913756
 10
8.0298602064
 20
-1.5903501869
 10
8.0350306565
 20
-1.5815458978
 10
8.0402488685
 20
-1.5727831189
 10
8.0455130718
 20
-1.5640647069
 10
8.0508250369
 20
-1.5553878051
 10
8.0561873567
 20
-1.546748454
 10
8.0616023788
 20
-1.5381428791
 10
8.0670677555
 20
-1.529574855
 10
8.0725790374
 20
-1.5210517448
 10
8.0781366067
 20
-1.5125732782
 10
8.0837400813
 20
-1.5041397257
 10
8.0893838652
 20
-1.4957592621
 10
8.0950653327
 20
-1.4874357864
 10
8.1007871096
 20
-1.4791653996
 10
8.1065514773
 20
-1.4709445796
 10
8.112359915
 20
-1.4627711229
 10
8.1182109437
 20
-1.454647233
 10
8.1241024074
 20
-1.4465759978
 10
8.1300344032
 20
-1.4385573571
 10
8.1360068342
 20
-1.4305913711
 10
8.1420172539
 20
-1.4226813084
 10
8.1480639194
 20
-1.4148293459
 10
8.1541485738
 20
-1.4070333067
 10
8.1602739994
 20
-1.3992899297
 10
8.1664430635
 20
-1.391595628
 10
8.1726528989
 20
-1.3839539885
 10
8.1788976864
 20
-1.3763725104
 10
8.1851774306
 20
-1.3688514773
 10
8.1914921269
 20
-1.3613906055
 10
8.1978359428
 20
-1.3539965433
 10
8.2042059763
 20
-1.34667265
 10
8.2106051292
 20
-1.3394155663
 10
8.2170362747
 20
-1.3322218617
 10
8.2235013603
 20
-1.3250892837
 10
8.2299984385
 20
-1.3180200848
 10
8.2365245393
 20
-1.311017592
 10
8.2430794524
 20
-1.3040821003
 10
8.2496633882
 20
-1.2972133147
 10
8.2562740077
 20
-1.2904136767
 10
8.2629096526
 20
-1.2836847868
 10
8.2695719812
 20
-1.2770250446
 10
8.2762636291
 20
-1.2704320903
 10
8.2829876679
 20
-1.2639029478
 10
8.2897410261
 20
-1.2574405932
 10
8.2965171253
 20
-1.251051595
 10
8.3033155104
 20
-1.2447366229
 10
8.3101366365
 20
-1.2384950073
 10
8.3169752905
 20
-1.2323313084
 10
8.3238286894
 20
-1.2262479863
 10
8.3306996161
 20
-1.2202425808
 10
8.3375912065
 20
-1.2143122715
  0
LWPOLYLINE
  5
3DA
100
AcDbEntity
  8
SMUSSO
100
AcDbPolyline
 62
7
  6
CONTINUOUS
 90
28
 70
0
 10
8.3375912065
 20
-1.2143122715
 10
8.3445059024
 20
-1.2084549169
 10
8.3514412619
 20
-1.2026726585
 10
8.3583930951
 20
-1.1969691005
 10
8.3653608113
 20
-1.1913448155
 10
8.3723450011
 20
-1.1857992309
 10
8.3793432467
 20
-1.1803342333
 10
8.3863539481
 20
-1.1749509804
 10
8.3933787052
 20
-1.1696483146
 10
8.4004199003
 20
-1.164424649
 10
8.4074805987
 20
-1.1592777617
 10
8.4145577351
 20
-1.1542098747
 10
8.4216444955
 20
-1.1492260669
 10
8.4287403405
 20
-1.144326939
 10
8.4358458096
 20
-1.1395118902
 10
8.4429557067
 20
-1.1347841972
 10
8.4500674104
 20
-1.1301455678
 10
8.4571835422
 20
-1.1255942941
 10
8.4643067693
 20
-1.1211285296
 10
8.4714378835
 20
-1.1167476265
 10
8.4785760931
 20
-1.1124522325
 10
8.4857216911
 20
-1.1082424444
 10
8.4928747738
 20
-1.1041181172
 10
8.500035245
 20
-1.1000793958
 10
8.5072031085
 20
-1.0961268121
 10
8.5143783656
 20
-1.0922605432
 10
8.5215610151
 20
-1.088480412
 10
8.5287510569
 20
-1.0847864185
  0
LINE
  5
3DB
100
AcDbEntity
  8
DRAFT
100
AcDbLine
 62
7
  6
CONTINUOUS
 10
-0.6954332249
 20
12.7383792549
 11
-0.3382961006
 21
12.1224088314
  0
LWPOLYLINE
  5
3DC
100
AcDbEntity
  8
DRAFT
100
AcDbPolyline
 62
7
  6
CONTINUOUS
 90
25
 70
0
 10
-0.3382961006
 20
12.1224088314
 10
-0.3302368302
 20
12.1081778529
 10
-0.3224700077
 20
12.0937991521
 10
-0.3149956332
 20
12.079272729
 10
-0.3078063344
 20
12.0645827229
 10
-0.3009094836
 20
12.0497449945
 10
-0.2943271978
 20
12.0348071257
 10
-0.2880604869
 20
12.0197687959
 10
-0.282108341
 20
12.0046303257
 10
-0.2764898465
 20
11.9894402592
 10
-0.2712060742
 20
11.9741984298
 10
-0.2662559533
 20
11.9589050041
 10
-0.2616553581
 20
11.9436090254
 10
-0.2574054107
 20
11.9283104863
 10
-0.2535049889
 20
11.9130093942
 10
-0.2499666002
 20
11.8977548151
 10
-0.2467914065
 20
11.8825468981
 10
-0.2439782459
 20
11.8673854941
 10
-0.2415361395
 20
11.8523192218
 10
-0.2394662784
 20
11.8373483864
 10
-0.2377674714
 20
11.8224726825
 10
-0.2364451663
 20
11.8077398135
 10
-0.235501179
 20
11.7931656803
 10
-0.2349336936
 20
11.7787343819
 10
-0.23474271
 20
11.7644459183
  0
LWPOLYLINE
  5
3DD
100
AcDbEntity
  8
0
100
AcDbPolyline
 62
7
  6
CONTINUOUS
 90
5
 70
0
 10
-0.7248402798
 20
20.2852369871
 10
-0.7265533401
 20
20.2933097551
 10
-0.7292219355
 20
20.2982651772
 10
-0.7325862407
 20
20.3000743985
 10
-0.7349479694
 20
20.2995722808
  0
LWPOLYLINE
  5
3DE
100
AcDbEntity
  8
0
100
AcDbPolyline
 62
253
  6
CONTINUOUS
 90
7
 70
0
 10
-0.5600812111
 20
-24.7043691311
 10
-0.5522824077
 20
-24.6796417287
 10
-0.5470499524
 20
-24.6541573089
 10
-0.5444723832
 20
-24.6283470926
 10
-0.5445933153
 20
-24.6026478136
 10
-0.5474107023
 20
-24.5774943285
 10
-0.5528768713
 20
-24.5533122585
  0
LWPOLYLINE
  5
3DF
100
AcDbEntity
  8
0
100
AcDbPolyline
 62
7
  6
CONTINUOUS
 90
4
 70
0
 10
-1.1117102733
 20
-25.4774462965
 10
-1.1057613639
 20
-25.4589654404
 10
-1.1021521338
 20
-25.4385505727
 10
-1.100948517
 20
-25.4165529988
  0
LWPOLYLINE
  5
3E0
100
AcDbEntity
  8
RACCORDO
100
AcDbPolyline
 62
7
  6
CONTINUOUS
 90
16
 70
0
 10
19.6604119554
 20
17.8137010831
 10
19.6576310993
 20
17.809417206
 10
19.6543799614
 20
17.8050449544
 10
19.6506585418
 20
17.8005843283
 10
19.6464664693
 20
17.7960270221
 10
19.641804115
 20
17.7913813415
 10
19.6366725921
 20
17.7866722025
 10
19.6310753796
 20
17.7819038807
 10
19.6250089985
 20
17.7770721006
 10
19.6184641254
 20
17.7721889526
 10
19.6114340677
 20
17.7672499238
 10
19.603925518
 20
17.762259527
 10
19.5959492308
 20
17.7572433916
 10
19.5875087907
 20
17.7522100606
 10
19.578600613
 20
17.7471509909
 10
19.5692246976
 20
17.7420661826
  0
LWPOLYLINE
  5
3E1
100
AcDbEntity
  8
SMUSSO
100
AcDbPolyline
 62
7
  6
CONTINUOUS
 90
91
 70
0
 10
8.5287510569
 20
-2.8595963528
 10
8.5215641254
 20
-2.8633462756
 10
8.5143843721
 20
-2.8670025754
 10
8.5072117972
 20
-2.8705652523
 10
8.5000464027
 20
-2.8740341353
 10
8.4928881865
 20
-2.8774093953
 10
8.4857371421
 20
-2.8806915453
 10
8.4785933686
 20
-2.8838806294
 10
8.471456767
 20
-2.8869766034
 10
8.4643270331
 20
-2.8899798473
 10
8.4572049919
 20
-2.8928901787
 10
8.4500898185
 20
-2.8957077799
 10
8.4429787344
 20
-2.8984335791
 10
8.4358690075
 20
-2.9010686219
 10
8.42876337
 20
-2.9036118626
 10
8.4216672394
 20
-2.9060610917
 10
8.4145800475
 20
-2.9084162633
 10
8.4075023627
 20
-2.9106774234
 10
8.4004413073
 20
-2.9128425005
 10
8.3934000431
 20
-2.9149105046
 10
8.3863754085
 20
-2.9168824258
 10
8.3793650404
 20
-2.9187591625
 10
8.3723673987
 20
-2.920541202
 10
8.3653840236
 20
-2.922228057
 10
8.3584171731
 20
-2.9238191651
 10
8.351466244
 20
-2.9253145756
 10
8.3445318394
 20
-2.9267142391
 10
8.337618027
 20
-2.9280174451
 10
8.3307271982
 20
-2.929223818
 10
8.3238569615
 20
-2.9303337334
 10
8.3170042099
 20
-2.9313476075
 10
8.3101661715
 20
-2.93226586
 10
8.3033456181
 20
-2.9330880711
 10
8.2965477585
 20
-2.9338133983
 10
8.2897721452
 20
-2.9344416436
 10
8.2830192257
 20
-2.9349730049
 10
8.2762955501
 20
-2.9354072335
 10
8.2696041817
 20
-2.9357441263
 10
8.2629420574
 20
-2.9359838865
 10
8.2563065374
 20
-2.9361268747
 10
8.2496959494
 20
-2.9361732069
 10
8.2431119658
 20
-2.9361227672
 10
8.2365569646
 20
-2.9359755677
 10
8.2300307358
 20
-2.9357315291
 10
8.2235334895
 20
-2.9353907307
 10
8.2170682331
 20
-2.9349534236
 10
8.2106369315
 20
-2.9344198437
 10
8.2042376198
 20
-2.9337897549
 10
8.1978674109
 20
-2.9330626999
 10
8.1915233947
 20
-2.9322383236
 10
8.1852084813
 20
-2.931316981
 10
8.1789285132
 20
-2.9302992802
 10
8.1726834918
 20
-2.9291849311
 10
8.1664734158
 20
-2.9279742238
 10
8.1603041239
 20
-2.9266686357
 10
8.1541784905
 20
-2.9252687854
 10
8.1480936412
 20
-2.9237740542
 10
8.1420467921
 20
-2.9221840646
 10
8.1360362045
 20
-2.9204984465
 10
8.130063617
 20
-2.9187175699
 10
8.1241314614
 20
-2.9168421668
 10
8.1182398327
 20
-2.9148721974
 10
8.1123886359
 20
-2.9128077015
 10
8.1065800176
 20
-2.9106495305
 10
8.1008154534
 20
-2.908398355
 10
8.0950934677
 20
-2.9060535044
 10
8.08941178
 20
-2.9036138182
 10
8.0837677624
 20
-2.9010781155
 10
8.0781640428
 20
-2.8984475773
 10
8.0726062243
 20
-2.8957245855
 10
8.0670946883
 20
-2.8929090139
 10
8.0616290533
 20
-2.8900009888
 10
8.0562137776
 20
-2.8870032706
 10
8.0508512122
 20
-2.8839172042
 10
8.045539006
 20
-2.8807414447
 10
8.040274564
 20
-2.8774747177
 10
8.0350561167
 20
-2.8741160011
 10
8.0298854336
 20
-2.8706663171
 10
8.0247652278
 20
-2.8671274583
 10
8.0196958442
 20
-2.8634995634
 10
8.014676938
 20
-2.8597824936
 10
8.009710188
 20
-2.8559776263
 10
8.0047967033
 20
-2.8520859446
 10
7.9999353747
 20
-2.8481064652
 10
7.9951245533
 20
-2.8440376156
 10
7.9903621472
 20
-2.8398775566
 10
7.9856502483
 20
-2.8356281272
 10
7.9809934832
 20
-2.8312932723
 10
7.976392467
 20
-2.8268732552
 10
7.9718465847
 20
-2.8223678126
 10
7.9696520648
 20
-2.8201421723
  0
LINE
  5
3E2
100
AcDbEntity
  8
SMUSSO
100
AcDbLine
 62
7
  6
CONTINUOUS
 10
25.7136844858
 20
5.8512245966
 11
8.5287510569
 21
-2.8595963528
  0
LWPOLYLINE
  5
3E3
100
AcDbEntity
  8
0
100
AcDbPolyline
 62
7
  6
CONTINUOUS
 90
9
 70
0
 10
-7.0943275328
 20
10.8324321086
 10
-7.6031064726
 20
11.0549697246
 10
-8.1097037971
 20
11.278560436
 10
-8.6141129785
 20
11.5031990509
 10
-9.1162102093
 20
11.7288274383
 10
-9.6161073067
 20
11.95549284
 10
-10.1141472131
 20
12.1833503187
 10
-10.6104800053
 20
12.4124710642
 10
-11.1049337901
 20
12.6427783749
  0
LWPOLYLINE
  5
3E4
100
AcDbEntity
  8
0
100
AcDbPolyline
 62
7
  6
CONTINUOUS
 90
23
 70
0
 10
-11.1049337901
 20
12.6427783749
 10
-11.5973661505
 20
12.8742067876
 10
-12.0877354128
 20
13.1067365837
 10
-12.5760663295
 20
13.3403793258
 10
-13.0623181825
 20
13.575115386
 10
-13.5465492163
 20
13.8109730523
 10
-14.0286843738
 20
14.0479158397
 10
-14.5084863858
 20
14.2858252402
 10
-14.9856429711
 20
14.5245410507
 10
-15.4604592099
 20
14.7642105377
 10
-15.9336179015
 20
15.0051793558
 10
-16.404215759
 20
15.2469860074
 10
-16.8731366426
 20
15.4900851684
 10
-17.3436898256
 20
15.7362229661
 10
-17.815030221
 20
15.9850008878
 10
-18.2878904494
 20
16.2368543666
 10
-18.7678200735
 20
16.4948398411
 10
-19.2548361861
 20
16.7591006879
 10
-19.7486275043
 20
17.0296117035
 10
-20.2540872975
 20
17.3092509822
 10
-20.7726501196
 20
17.5990594967
 10
-21.3023785174
 20
17.8982011532
 10
-21.8430173398
 20
18.20677701
  0
LINE
  5
3E5
100
AcDbEntity
  8
DRAFT
100
AcDbLine
 62
7
  6
CONTINUOUS
 10
23.9475476958
 20
-2.7431810409
 11
23.930631537
 21
-2.7347229615
  0
LINE
  5
3E6
100
AcDbEntity
  8
RACCORDO
100
AcDbLine
 62
7
  6
CONTINUOUS
 10
19.7905803018
 20
-0.4833128031
 11
18.7971463989
 21
0.0134041484
  0
LWPOLYLINE
  5
3E7
100
AcDbEntity
  8
0
100
AcDbPolyline
 62
253
  6
CONTINUOUS
 90
10
 70
0
 10
-21.0271566166
 20
19.5967871747
 10
-19.4905158128
 20
18.7236825942
 10
-17.9287999956
 20
17.8642331266
 10
-16.3420091651
 20
17.0184387718
 10
-14.7299028803
 20
16.1861747417
 10
-13.0927215821
 20
15.3675658244
 10
-11.431186593
 20
14.562986385
 10
-9.7455383541
 20
13.7725612119
 10
-8.0355364243
 20
12.9961655166
 10
-6.3011808038
 20
12.2337992992
  0
LWPOLYLINE
  5
3E8
100
AcDbEntity
  8
0
100
AcDbPolyline
 62
253
  6
CONTINUOUS
 90
7
 70
0
 10
-6.2762042107
 20
12.2195127341
 10
-6.2803680031
 20
12.222045026
 10
-6.2845321958
 20
12.2245173143
 10
-6.2886961811
 20
12.2269292355
 10
-6.2928593512
 20
12.2292804349
 10
-6.2970210984
 20
12.2315705664
 10
-6.3011808153
 20
12.2337992931
  0
LINE
  5
3E9
100
AcDbEntity
  8
SMUSSO
100
AcDbLine
 62
253
  6
CONTINUOUS
 10
7.8127922716
 20
2.0494994358
 11
8.5287510569
 21
1.4705306661
  0
LWPOLYLINE
  5
3EA
100
AcDbEntity
  8
SMUSSO
100
AcDbPolyline
 62
7
  6
CONTINUOUS
 90
200
 70
0
 10
7.9696520717
 20
1.5099848395
 10
7.9673611624
 20
1.5123442781
 10
7.9629326633
 20
1.5170124999
 10
7.9585620787
 20
1.5217629934
 10
7.9542474325
 20
1.5265977497
 10
7.9499870728
 20
1.5315185933
 10
7.9457826516
 20
1.5365236997
 10
7.9416371489
 20
1.5416095873
 10
7.9375510971
 20
1.5467757841
 10
7.9335239638
 20
1.5520227621
 10
7.929557132
 20
1.5573484553
 10
7.9256514562
 20
1.5627515697
 10
7.9218060818
 20
1.5682333992
 10
7.9180198291
 20
1.5737957592
 10
7.9142912314
 20
1.5794408671
 10
7.9106217554
 20
1.5851665055
 10
7.9070146205
 20
1.5909678377
 10
7.9034704904
 20
1.5968440618
 10
7.8999887014
 20
1.6027959797
 10
7.8965704823
 20
1.6088211603
 10
7.8932165867
 20
1.6149181083
 10
7.8899262609
 20
1.621088319
 10
7.8866984725
 20
1.6273338478
 10
7.8835319085
 20
1.6336573341
 10
7.880427882
 20
1.6400561384
 10
7.8773892994
 20
1.6465243981
 10
7.8744167962
 20
1.6530611084
 10
7.871509737
 20
1.659667274
 10
7.8686691229
 20
1.6663400455
 10
7.8658955768
 20
1.6730777727
 10
7.8631884758
 20
1.6798821059
 10
7.8605469516
 20
1.6867551463
 10
7.8579700997
 20
1.6936992691
 10
7.8554588246
 20
1.7007120991
 10
7.8530149717
 20
1.7077886125
 10
7.8506390742
 20
1.7149274438
 10
7.8483305988
 20
1.7221299585
 10
7.8460897913
 20
1.7293952292
 10
7.8439167826
 20
1.7367225541
 10
7.8418114416
 20
1.7441126351
 10
7.8397736208
 20
1.75156665
 10
7.8378025605
 20
1.7590877566
 10
7.8358990203
 20
1.7666727973
 10
7.8340651309
 20
1.7743134769
 10
7.8323014703
 20
1.7820080483
 10
7.8306074604
 20
1.7897582586
 10
7.8289834975
 20
1.7975610536
 10
7.8274298811
 20
1.8054146607
 10
7.8259463117
 20
1.8133208525
 10
7.824532287
 20
1.8212818935
 10
7.8231873658
 20
1.8293002398
 10
7.8219119893
 20
1.8373734352
 10
7.8207069795
 20
1.8454963754
 10
7.8195726283
 20
1.8536671408
 10
7.8185086438
 20
1.861887651
 10
7.8175149714
 20
1.8701585596
 10
7.816591501
 20
1.8784802043
 10
7.8157383428
 20
1.8868522475
 10
7.8149557724
 20
1.8952743307
 10
7.8142436219
 20
1.9037497095
 10
7.8136020594
 20
1.9122751283
 10
7.8130318646
 20
1.9208404611
 10
7.8125333457
 20
1.9294430974
 10
7.8121061946
 20
1.9380856477
 10
7.8117502659
 20
1.946765818
 10
7.8114655497
 20
1.955482214
 10
7.8112520561
 20
1.9642362299
 10
7.8111096696
 20
1.9730297548
 10
7.8110383518
 20
1.9818652109
 10
7.8110381411
 20
1.990740176
 10
7.8111090379
 20
1.9996492731
 10
7.8112510038
 20
2.0085900416
 10
7.811464077
 20
2.0175649421
 10
7.8117483727
 20
2.0265759794
 10
7.8121038808
 20
2.0356245341
 10
7.8125306114
 20
2.0447092255
 10
7.8130287102
 20
2.0538279158
 10
7.8135984855
 20
2.0629835381
 10
7.8142396291
 20
2.0721731592
 10
7.8149513614
 20
2.0813858426
 10
7.8157335151
 20
2.0906181606
 10
7.8165862577
 20
2.0998735409
 10
7.8175093121
 20
2.10915133
 10
7.8185025679
 20
2.1184510706
 10
7.8195661356
 20
2.12777322
 10
7.8207000704
 20
2.1371184966
 10
7.8219046642
 20
2.1464891236
 10
7.8231796251
 20
2.1558828778
 10
7.8245241322
 20
2.1652938083
 10
7.8259377444
 20
2.1747190033
 10
7.8274209028
 20
2.1841613745
 10
7.8289741097
 20
2.1936237058
 10
7.8305976642
 20
2.2031080794
 10
7.8322912672
 20
2.212612413
 10
7.8340545232
 20
2.2221332441
 10
7.8358880108
 20
2.2316729215
 10
7.8377911513
 20
2.2412290963
 10
7.8397618131
 20
2.2507912593
 10
7.8417992371
 20
2.2603554668
 10
7.8439041824
 20
2.2699256625
 10
7.8460767941
 20
2.2795031683
 10
7.8483172018
 20
2.2890888149
 10
7.8506252759
 20
2.2986817716
 10
7.8530007731
 20
2.3082808674
 10
7.8554442268
 20
2.3178880218
 10
7.8579551035
 20
2.3275013154
 10
7.8605315601
 20
2.3371138194
 10
7.8631726925
 20
2.3467222243
 10
7.8658794047
 20
2.3563298396
 10
7.868652565
 20
2.3659396654
 10
7.8714927963
 20
2.3755539972
 10
7.8743994758
 20
2.3851705394
 10
7.8773716026
 20
2.394785406
 10
7.8804098131
 20
2.404400262
 10
7.883513471
 20
2.4140134423
 10
7.8866796675
 20
2.4236160661
 10
7.8899070895
 20
2.4332041331
 10
7.8931970501
 20
2.4427816436
 10
7.8965505795
 20
2.4523517168
 10
7.8999684295
 20
2.4619166242
 10
7.9034498483
 20
2.4714740944
 10
7.9069936102
 20
2.4810204329
 10
7.9106003798
 20
2.4905571312
 10
7.9142694925
 20
2.5000826978
 10
7.9179977299
 20
2.5095889635
 10
7.9217836261
 20
2.5190721939
 10
7.9256286469
 20
2.5285361233
 10
7.9295339707
 20
2.5379837856
 10
7.9335004506
 20
2.5474173564
 10
7.9375272335
 20
2.5568346601
 10
7.9416129384
 20
2.5662322027
 10
7.9457580983
 20
2.5756110092
 10
7.9499621802
 20
2.5849700547
 10
7.9542222042
 20
2.5943027707
 10
7.9585365181
 20
2.6036056218
 10
7.962906774
 20
2.6128821433
 10
7.9673349481
 20
2.6221363731
 10
7.9718226256
 20
2.6313716682
 10
7.9763682213
 20
2.6405846716
 10
7.980968955
 20
2.6497693501
 10
7.9856254431
 20
2.6589266064
 10
7.9903370692
 20
2.6680555378
 10
7.9950992043
 20
2.6771474031
 10
7.9999097562
 20
2.6861981959
 10
8.0047708171
 20
2.6952119227
 10
8.0096840341
 20
2.704191861
 10
8.014650515
 20
2.7131401403
 10
8.0196691521
 20
2.7220546311
 10
8.0247382696
 20
2.7309322234
 10
8.0298582133
 20
2.7397734146
 10
8.0350286376
 20
2.7485777073
 10
8.0402468292
 20
2.7573404992
 10
8.0455110189
 20
2.7660589354
 10
8.0508229761
 20
2.7747358707
 10
8.0561852958
 20
2.783375267
 10
8.0616003286
 20
2.7919809034
 10
8.0670657241
 20
2.8005490007
 10
8.0725770254
 20
2.8090721836
 10
8.0781346155
 20
2.8175507231
 10
8.0837381116
 20
2.8259843481
 10
8.0893819083
 20
2.8343648706
 10
8.0950633775
 20
2.8426883875
 10
8.1007851474
 20
2.8509588018
 10
8.1065494972
 20
2.8591796342
 10
8.1123579017
 20
2.8673530823
 10
8.1182088862
 20
2.8754769486
 10
8.1241003061
 20
2.8835481615
 10
8.1300322579
 20
2.8915667816
 10
8.1360046453
 20
2.8995327484
 10
8.1420150345
 20
2.9074428092
 10
8.1480616866
 20
2.9152947927
 10
8.1541463405
 20
2.9230908702
 10
8.1602717804
 20
2.9308343027
 10
8.1664408786
 20
2.9385286833
 10
8.1726507627
 20
2.9461704189
 10
8.178895599
 20
2.9537519915
 10
8.1851753927
 20
2.961273117
 10
8.1914901387
 20
2.9687340795
 10
8.1978339881
 20
2.976128213
 10
8.2042040338
 20
2.9834521511
 10
8.210603183
 20
2.9907092603
 10
8.2170343085
 20
2.997902973
 10
8.2234993523
 20
3.0050355358
 10
8.2299963725
 20
3.0121047022
 10
8.2365224167
 20
3.0191071653
 10
8.2430772746
 20
3.0260426309
 10
8.2496611566
 20
3.0329113932
 10
8.2562717414
 20
3.0397110276
 10
8.2629073772
 20
3.0464399409
 10
8.2695697159
 20
3.0530997263
 10
8.2762613915
 20
3.0596927398
 10
8.2829854812
 20
3.0662219625
 10
8.2897389078
 20
3.0726844132
 10
8.2965150743
 20
3.0790735043
 10
8.3033135252
 20
3.0853885653
 10
8.310134716
 20
3.0916302667
 10
8.3169734147
 20
3.0977940327
 10
8.323826831
 20
3.1038773961
 10
8.3306977553
 20
3.1098828242
 10
8.3375893269
 20
3.1158131426
  0
LWPOLYLINE
  5
3EB
100
AcDbEntity
  8
SMUSSO
100
AcDbPolyline
 62
7
  6
CONTINUOUS
 90
28
 70
0
 10
8.3375893269
 20
3.1158131426
 10
8.3445039826
 20
3.1216704893
 10
8.3514392857
 20
3.1274527264
 10
8.3583910649
 20
3.1331562662
 10
8.3653587313
 20
3.1387805385
 10
8.3723428739
 20
3.1443261135
 10
8.3793410887
 20
3.1497911146
 10
8.3863517825
 20
3.1551743894
 10
8.3933765484
 20
3.1604770903
 10
8.4004177624
 20
3.1657007977
 10
8.4074784877
 20
3.1708477317
 10
8.4145556609
 20
3.1759156724
 10
8.4216424687
 20
3.1808995397
 10
8.4287383715
 20
3.1857987329
 10
8.4358439087
 20
3.1906138528
 10
8.4429538852
 20
3.1953416221
 10
8.4500656802
 20
3.1999803334
 10
8.4571819145
 20
3.2045316942
 10
8.4643052552
 20
3.2089975496
 10
8.4714364938
 20
3.2133785473
 10
8.4785748388
 20
3.2176740397
 10
8.4857205832
 20
3.2218839288
 10
8.4928738234
 20
3.2260083596
 10
8.5000344629
 20
3.2300471871
 10
8.5072025057
 20
3.2339998782
 10
8.5143779529
 20
3.2378662553
 10
8.5215608033
 20
3.2416464961
 10
8.5287510569
 20
3.2453406005
  0
LINE
  5
3EC
100
AcDbEntity
  8
RACCORDO
100
AcDbLine
 62
7
  6
CONTINUOUS
 10
-0.05263094
 20
13.4638586407
 11
0.2880232994
 21
12.8763169884
  0
LWPOLYLINE
  5
3ED
100
AcDbEntity
  8
0
100
AcDbPolyline
 62
253
  6
CONTINUOUS
 90
7
 70
0
 10
-0.5600812111
 20
16.5202350083
 10
-0.5522823689
 20
16.5060193505
 10
-0.5470498974
 20
16.4932196765
 10
-0.5444723309
 20
16.4820525679
 10
-0.5445932799
 20
16.4727069807
 10
-0.547410693
 20
16.4653410491
 10
-0.5483937163
 20
16.4639928486
  0
LWPOLYLINE
  5
3EE
100
AcDbEntity
  8
0
100
AcDbPolyline
 62
7
  6
CONTINUOUS
 90
16
 70
0
 10
-1.628452196
 20
20.1664309812
 10
-1.605013849
 20
20.1212652315
 10
-1.5847921615
 20
20.0758184113
 10
-1.5677871335
 20
20.0300905207
 10
-1.5538963504
 20
19.9836512974
 10
-1.5432222267
 20
19.9369310036
 10
-1.5360720061
 20
19.891220426
 10
-1.532548103
 20
19.8464483369
 10
-1.532548103
 20
19.8026859641
 10
-1.5360720061
 20
19.761437778
 10
-1.5432222267
 20
19.7228774211
 10
-1.5538963504
 20
19.686831251
 10
-1.5677871335
 20
19.6542828107
 10
-1.5847921615
 20
19.6255599482
 10
-1.605013849
 20
19.6003348155
 10
-1.628452196
 20
19.5786074129
  0
LWPOLYLINE
  5
3EF
100
AcDbEntity
  8
RACCORDO
100
AcDbPolyline
 62
7
  6
CONTINUOUS
 90
3
 70
0
 10
19.6603973358
 20
17.813681861
 10
19.6630785726
 20
17.818647963
 10
19.6654432249
 20
17.8240578341
  0
LWPOLYLINE
  5
3F0
100
AcDbEntity
  8
RACCORDO
100
AcDbPolyline
 62
7
  6
CONTINUOUS
 90
3
 70
0
 10
19.6603973358
 20
13.483554842
 10
19.6630785726
 20
13.4885209441
 10
19.6654432249
 20
13.4939308151
  0
LWPOLYLINE
  5
3F1
100
AcDbEntity
  8
RACCORDO
100
AcDbPolyline
 62
7
  6
CONTINUOUS
 90
16
 70
0
 10
19.6604119554
 20
13.4835740642
 10
19.6576310993
 20
13.4792901871
 10
19.6543799614
 20
13.4749179355
 10
19.6506585418
 20
13.4704573093
 10
19.6464664693
 20
13.4659000032
 10
19.641804115
 20
13.4612543225
 10
19.6366725921
 20
13.4565451836
 10
19.6310753796
 20
13.4517768618
 10
19.6250089985
 20
13.4469450817
 10
19.6184641254
 20
13.4420619337
 10
19.6114340677
 20
13.4371229048
 10
19.603925518
 20
13.4321325081
 10
19.5959492308
 20
13.4271163726
 10
19.5875087907
 20
13.4220830416
 10
19.578600613
 20
13.417023972
 10
19.5692246976
 20
13.4119391637
  0
LINE
  5
3F2
100
AcDbEntity
  8
SMUSSO
100
AcDbLine
 62
7
  6
CONTINUOUS
 10
15.2150558695
 20
-2.0060623636
 11
8.1361869216
 21
-5.760481402
  0
LINE
  5
3F3
100
AcDbEntity
  8
SMUSSO
100
AcDbLine
 62
7
  6
CONTINUOUS
 10
15.628812319
 20
-2.4575084221
 11
12.5852711304
 21
-4.0717110675
  0
LINE
  5
3F4
100
AcDbEntity
  8
SMUSSO
100
AcDbLine
 62
7
  6
CONTINUOUS
 10
25.7136844858
 20
3.6697851193
 11
8.5287510569
 21
-5.4149134374
  0
LWPOLYLINE
  5
3F5
100
AcDbEntity
  8
SMUSSO
100
AcDbPolyline
 62
7
  6
CONTINUOUS
 90
91
 70
0
 10
8.5287510569
 20
-7.1897233717
 10
8.5215645525
 20
-7.1934730759
 10
8.5143852002
 20
-7.1971291791
 10
8.507213
 20
-7.2006916813
 10
8.5000479542
 20
-7.2041604125
 10
8.4928900604
 20
-7.2075355428
 10
8.4857393119
 20
-7.210817582
 10
8.4785958079
 20
-7.2140065744
 10
8.4714594492
 20
-7.2171024759
 10
8.464329931
 20
-7.2201056638
 10
8.4572080806
 20
-7.2230159548
 10
8.4500930707
 20
-7.2258335322
 10
8.4429821146
 20
-7.2285593237
 10
8.4358724719
 20
-7.231194378
 10
8.428766883
 20
-7.2337376465
 10
8.4216707821
 20
-7.2361869106
 10
8.4145835992
 20
-7.238542124
 10
8.4075059043
 20
-7.2408033331
 10
8.4004448421
 20
-7.2429684585
 10
8.3934035834
 20
-7.2450365069
 10
8.3863789574
 20
-7.2470084716
 10
8.3793685961
 20
-7.2488852527
 10
8.3723709565
 20
-7.250667338
 10
8.3653875815
 20
-7.2523542398
 10
8.3584207322
 20
-7.2539453947
 10
8.3514698028
 20
-7.2554408522
 10
8.3445353992
 20
-7.2568405628
 10
8.3376215997
 20
-7.2581438146
 10
8.3307307973
 20
-7.2593502312
 10
8.3238605991
 20
-7.2604601889
 10
8.3170079042
 20
-7.261474105
 10
8.3101699497
 20
-7.2623923981
 10
8.3033494984
 20
-7.2632146496
 10
8.2965517384
 20
-7.2639400204
 10
8.2897762231
 20
-7.2645683134
 10
8.2830233991
 20
-7.2650997257
 10
8.2762997936
 20
-7.2655340086
 10
8.2696084633
 20
-7.2658709601
 10
8.2629463515
 20
-7.2661107822
 10
8.2563108166
 20
-7.2662538324
 10
8.2497001775
 20
-7.2663002262
 10
8.2431161153
 20
-7.266249848
 10
8.2365610309
 20
-7.2661027082
 10
8.2300347146
 20
-7.265858726
 10
8.223537376
 20
-7.2655179821
 10
8.2170720453
 20
-7.2650807295
 10
8.2106406952
 20
-7.2645472042
 10
8.2042413529
 20
-7.2639171703
 10
8.1978711299
 20
-7.2631901725
 10
8.1915271214
 20
-7.2623658571
 10
8.1852122323
 20
-7.2614445779
 10
8.1789322883
 20
-7.2604269417
 10
8.17268729
 20
-7.2593126594
 10
8.1664772369
 20
-7.2581020201
 10
8.1603079534
 20
-7.2567964975
 10
8.1541823087
 20
-7.2553967092
 10
8.1480974337
 20
-7.2539020376
 10
8.1420505457
 20
-7.2523121032
 10
8.1360399025
 20
-7.2506265346
 10
8.1300672463
 20
-7.2488457031
 10
8.1241350218
 20
-7.2469703436
 10
8.1182433243
 20
-7.2450004155
 10
8.1123920584
 20
-7.2429359593
 10
8.1065833821
 20
-7.2407778313
 10
8.1008187754
 20
-7.2385267034
 10
8.0950967583
 20
-7.2361819037
 10
8.0894150479
 20
-7.2337422725
 10
8.0837710189
 20
-7.2312066306
 10
8.0781672966
 20
-7.2285761572
 10
8.0726094747
 20
-7.2258532307
 10
8.067097934
 20
-7.2230377254
 10
8.0616322937
 20
-7.2201297669
 10
8.0562170049
 20
-7.2171321114
 10
8.0508544156
 20
-7.214046102
 10
8.0455421777
 20
-7.2108703955
 10
8.0402776985
 20
-7.2076037176
 10
8.0350592074
 20
-7.2042450451
 10
8.0298884749
 20
-7.2007954012
 10
8.0247682195
 20
-7.1972565814
 10
8.0196987864
 20
-7.1936287242
 10
8.0146798304
 20
-7.189911691
 10
8.0097130341
 20
-7.1861068624
 10
8.0047995089
 20
-7.1822152229
 10
7.9999381435
 20
-7.178235788
 10
7.9951272872
 20
-7.1741669843
 10
7.9903648481
 20
-7.1700069728
 10
7.985652918
 20
-7.1657575925
 10
7.9809961219
 20
-7.1614227867
 10
7.9763950746
 20
-7.1570028186
 10
7.9718491613
 20
-7.152497425
 10
7.9696520717
 20
-7.1502691983
  0
LINE
  5
3F6
100
AcDbEntity
  8
SMUSSO
100
AcDbLine
 62
7
  6
CONTINUOUS
 10
25.0064700006
 20
2.1068084636
 11
7.8129220317
 21
-6.608379085
  0
LINE
  5
3F7
100
AcDbEntity
  8
SMUSSO
100
AcDbLine
 62
7
  6
CONTINUOUS
 10
25.7136844858
 20
1.5210975777
 11
8.5287510569
 21
-7.1897233717
  0
LINE
  5
3F8
100
AcDbEntity
  8
RACCORDO
100
AcDbLine
 62
7
  6
CONTINUOUS
 10
23.9475476958
 20
1.586945978
 11
7.8340974799
 21
-6.4378972889
  0
LINE
  5
3F9
100
AcDbEntity
  8
DRAFT
100
AcDbLine
 62
7
  6
CONTINUOUS
 10
23.930631537
 20
1.5954040574
 11
24.9912917088
 21
2.1143976095
  0
LINE
  5
3FA
100
AcDbEntity
  8
SMUSSO
100
AcDbLine
 62
7
  6
CONTINUOUS
 10
20.1448346149
 20
-0.306886569
 11
19.1408548718
 21
0.1951033025
  0
LINE
  5
3FB
100
AcDbEntity
  8
SMUSSO
100
AcDbLine
 62
7
  6
CONTINUOUS
 10
20.620788303
 20
-0.0698514401
 11
19.6026398361
 21
0.4392227934
  0
LINE
  5
3FC
100
AcDbEntity
  8
SMUSSO
100
AcDbLine
 62
7
  6
CONTINUOUS
 10
25.0064700006
 20
-2.2233185553
 11
24.9912917088
 21
-2.2157294094
  0
LINE
  5
3FD
100
AcDbEntity
  8
0
100
AcDbLine
 62
7
  6
CONTINUOUS
 10
-5.0915118112
 20
12.8834285134
 11
-19.8792235769
 21
20.2772843962
  0
LINE
  5
3FE
100
AcDbEntity
  8
0
100
AcDbLine
 62
7
  6
CONTINUOUS
 10
-1.0841094206
 20
10.9945736982
 11
-1.2323946497
 21
11.0687163128
  0
LINE
  5
3FF
100
AcDbEntity
  8
RACCORDO
100
AcDbLine
 62
7
  6
CONTINUOUS
 10
20.0600119673
 20
0.6810094699
 11
21.0921937612
 21
0.1649185729
  0
LINE
  5
400
100
AcDbEntity
  8
0
100
AcDbLine
 62
7
  6
CONTINUOUS
 10
0.7038509214
 20
10.7774580349
 11
-0.3584863967
 21
11.3086266939
  0
LINE
  5
401
100
AcDbEntity
  8
0
100
AcDbLine
 62
7
  6
CONTINUOUS
 10
-3.9740148549
 20
14.5821597834
 11
-4.167579141
 21
14.6789419264
  0
LINE
  5
402
100
AcDbEntity
  8
0
100
AcDbLine
 62
7
  6
CONTINUOUS
 10
-16.56051556
 20
20.875410136
 11
-16.7540798461
 21
20.972192279
  0
LWPOLYLINE
  5
403
100
AcDbEntity
  8
0
100
AcDbPolyline
 62
7
  6
CONTINUOUS
 90
9
 70
0
 10
-16.3605711991
 20
22.0370086731
 10
-16.3836040147
 20
22.0498594147
 10
-16.4136733675
 20
22.0703363687
 10
-16.4423744169
 20
22.0937485244
 10
-16.4696591325
 20
22.1195495688
 10
-16.4951427769
 20
22.1473626326
 10
-16.5186654078
 20
22.1768967351
 10
-16.5404299773
 20
22.2077889529
 10
-16.56051556
 20
22.2397093314
  0
LWPOLYLINE
  5
404
100
AcDbEntity
  8
0
100
AcDbPolyline
 62
253
  6
CONTINUOUS
 90
9
 70
0
 10
-17.6247948557
 20
22.6691171776
 10
-17.6342852442
 20
22.6745797941
 10
-17.6483344818
 20
22.685808986
 10
-17.6605652885
 20
22.6998415046
 10
-17.6708091025
 20
22.7164894444
 10
-17.6789245193
 20
22.735525413
 10
-17.6848009825
 20
22.7566905484
 10
-17.6883585299
 20
22.7797001125
 10
-17.6895483554
 20
22.8042430802
  0
LWPOLYLINE
  5
405
100
AcDbEntity
  8
0
100
AcDbPolyline
 62
253
  6
CONTINUOUS
 90
13
 70
0
 10
-15.4507491658
 20
22.3922598272
 10
-15.4325972336
 20
22.3813950934
 10
-15.4147135514
 20
22.3677753051
 10
-15.3974039956
 20
22.3516334105
 10
-15.3809646227
 20
22.3332454949
 10
-15.3656766061
 20
22.3129260588
 10
-15.3518014267
 20
22.2910226388
 10
-15.3395764007
 20
22.2679098633
 10
-15.3292106207
 20
22.2439830453
 10
-15.3208813794
 20
22.2196514206
 10
-15.3147311372
 20
22.195331149
 10
-15.3108650858
 20
22.1714381958
 10
-15.3093493487
 20
22.1483812179
  0
LINE
  5
406
100
AcDbEntity
  8
SMUSSO
100
AcDbLine
 62
253
  6
CONTINUOUS
 10
7.8127922724
 20
6.3796264541
 11
8.5287510569
 21
5.800657685
  0
LWPOLYLINE
  5
407
100
AcDbEntity
  8
0
100
AcDbPolyline
 62
7
  6
CONTINUOUS
 90
4
 70
0
 10
-5.0934681683
 20
16.4152013962
 10
-5.074695048
 20
16.3988081403
 10
-5.054219015
 20
16.3846773698
 10
-5.0380977286
 20
16.3757694559
  0
LWPOLYLINE
  5
408
100
AcDbEntity
  8
SMUSSO
100
AcDbPolyline
 62
7
  6
CONTINUOUS
 90
200
 70
0
 10
7.9696520648
 20
5.8401118655
 10
7.9673586171
 20
5.8424739392
 10
7.96293015
 20
5.8471422091
 10
7.9585595976
 20
5.8518927503
 10
7.9542449836
 20
5.8567275546
 10
7.9499846553
 20
5.861648447
 10
7.9457802654
 20
5.8666536026
 10
7.9416347951
 20
5.8717395379
 10
7.9375487769
 20
5.8769057811
 10
7.9335216784
 20
5.882152804
 10
7.9295548837
 20
5.8874785384
 10
7.9256492478
 20
5.8928816898
 10
7.9218039159
 20
5.8983635527
 10
7.9180177073
 20
5.9039259424
 10
7.9142891566
 20
5.9095710747
 10
7.9106197292
 20
5.9152967338
 10
7.9070126418
 20
5.9210980877
 10
7.9034685577
 20
5.9269743342
 10
7.8999868134
 20
5.9329262754
 10
7.8965686352
 20
5.9389514858
 10
7.8932147751
 20
5.9450484724
 10
7.889924481
 20
5.9512187282
 10
7.8866967223
 20
5.9574643069
 10
7.8835301852
 20
5.9637878499
 10
7.8804261835
 20
5.9701867158
 10
7.8773876274
 20
5.9766550345
 10
7.8744151527
 20
5.9831918013
 10
7.8715081237
 20
5.9897980208
 10
7.8686675435
 20
5.9964708373
 10
7.8658940364
 20
6.0032085975
 10
7.8631869781
 20
6.0100129547
 10
7.8605454984
 20
6.0168860128
 10
7.8579686933
 20
6.0238301452
 10
7.8554574668
 20
6.0308429785
 10
7.8530136613
 20
6.0379194967
 10
7.8506378095
 20
6.0450583346
 10
7.8483293786
 20
6.0522608574
 10
7.8460886126
 20
6.0595261449
 10
7.8439156415
 20
6.0668534992
 10
7.8418103352
 20
6.0742436182
 10
7.839772548
 20
6.0816976761
 10
7.8378015203
 20
6.0892188317
 10
7.8358980117
 20
6.0968039262
 10
7.8340641548
 20
6.1044446566
 10
7.8323005282
 20
6.1121392753
 10
7.8306065534
 20
6.11988953
 10
7.8289826272
 20
6.1276923613
 10
7.8274290497
 20
6.1355459936
 10
7.8259455207
 20
6.1434522025
 10
7.8245315371
 20
6.1514132557
 10
7.8231866573
 20
6.1594316086
 10
7.8219113228
 20
6.1675048058
 10
7.8207063543
 20
6.1756277487
 10
7.8195720437
 20
6.1837985184
 10
7.8185080992
 20
6.1920190338
 10
7.817514466
 20
6.2002899531
 10
7.8165910336
 20
6.2086116162
 10
7.8157379126
 20
6.2169836831
 10
7.8149553794
 20
6.2254057918
 10
7.8142432661
 20
6.2338811983
 10
7.8136017405
 20
6.2424066466
 10
7.8130315828
 20
6.250972007
 10
7.8125331014
 20
6.2595746681
 10
7.8121059878
 20
6.2682172413
 10
7.8117500967
 20
6.2768974316
 10
7.8114654182
 20
6.2856138442
 10
7.8112519622
 20
6.2943678739
 10
7.8111096133
 20
6.3031614107
 10
7.811038333
 20
6.3119968768
 10
7.8110381597
 20
6.32087185
 10
7.8111090935
 20
6.3297809531
 10
7.8112510962
 20
6.338721726
 10
7.8114642061
 20
6.3476966289
 10
7.811748538
 20
6.3567076654
 10
7.8121040819
 20
6.3657562157
 10
7.8125308479
 20
6.3748408997
 10
7.8130289816
 20
6.3839595804
 10
7.8135987912
 20
6.3931151897
 10
7.8142399685
 20
6.4023047957
 10
7.8149517344
 20
6.4115174659
 10
7.8157339213
 20
6.4207497727
 10
7.8165866968
 20
6.4300051437
 10
7.8175097847
 20
6.4392829296
 10
7.8185030746
 20
6.4485826758
 10
7.8195666769
 20
6.4579048369
 10
7.8207006465
 20
6.4672501267
 10
7.8219052757
 20
6.4766207692
 10
7.8231802721
 20
6.4860145403
 10
7.8245248139
 20
6.4954254824
 10
7.82593846
 20
6.5048506828
 10
7.8274216515
 20
6.5142930542
 10
7.8289748895
 20
6.5237553757
 10
7.8305984725
 20
6.5332397259
 10
7.832292102
 20
6.5427440263
 10
7.8340553831
 20
6.5522648203
 10
7.8358888941
 20
6.5618044553
 10
7.8377920566
 20
6.5713605839
 10
7.8397627411
 20
6.5809227067
 10
7.8418001887
 20
6.5904868812
 10
7.8439051581
 20
6.6000570499
 10
7.8460777966
 20
6.6096345404
 10
7.8483182347
 20
6.6192201885
 10
7.8506263419
 20
6.6288131584
 10
7.8530018731
 20
6.6384122704
 10
7.855445362
 20
6.6480194446
 10
7.857956275
 20
6.6576327608
 10
7.8605327656
 20
6.6672452793
 10
7.8631739296
 20
6.6768536883
 10
7.8658806712
 20
6.6864612995
 10
7.8686538568
 20
6.6960711085
 10
7.871494108
 20
6.705685406
 10
7.8744008032
 20
6.7153019011
 10
7.877372944
 20
6.7249167167
 10
7.8804111659
 20
6.7345315167
 10
7.8835148334
 20
6.7441446372
 10
7.8866810413
 20
6.7537472084
 10
7.8899084772
 20
6.7633352327
 10
7.8931984535
 20
6.7729127076
 10
7.8965520021
 20
6.7824827561
 10
7.8999698765
 20
6.7920476533
 10
7.9034513232
 20
6.8016051239
 10
7.9069951141
 20
6.8111514654
 10
7.9106019139
 20
6.8206881691
 10
7.9142710578
 20
6.8302137436
 10
7.9179993243
 20
6.8397200117
 10
7.9217852467
 20
6.8492032367
 10
7.9256302916
 20
6.8586671554
 10
7.9295356368
 20
6.8681148008
 10
7.9335021348
 20
6.8775483474
 10
7.9375289331
 20
6.8869656208
 10
7.941614652
 20
6.8963631308
 10
7.9457598246
 20
6.9057419024
 10
7.9499639177
 20
6.9151009106
 10
7.9542239528
 20
6.9244335901
 10
7.9585382785
 20
6.9337364067
 10
7.9629085461
 20
6.9430128946
 10
7.9673367314
 20
6.9522670904
 10
7.9718244194
 20
6.9615023505
 10
7.976370025
 20
6.9707153186
 10
7.9809707687
 20
6.9798999625
 10
7.9856272663
 20
6.9890571842
 10
7.990338902
 20
6.9981860817
 10
7.9951010483
 20
7.0072779168
 10
7.9999116132
 20
7.0163286834
 10
8.0047726888
 20
7.0253423876
 10
8.009685924
 20
7.0343223096
 10
8.0146524283
 20
7.0432705818
 10
8.0196710923
 20
7.0521850718
 10
8.0247402362
 20
7.0610626623
 10
8.0298602064
 20
7.0699038509
 10
8.0350306565
 20
7.07870814
 10
8.0402488685
 20
7.0874709189
 10
8.0455130718
 20
7.0961893309
 10
8.0508250369
 20
7.1048662327
 10
8.0561873567
 20
7.1135055839
 10
8.0616023788
 20
7.1221111587
 10
8.0670677555
 20
7.1306791829
 10
8.0725790374
 20
7.139202293
 10
8.0781366067
 20
7.1476807596
 10
8.0837400813
 20
7.1561143122
 10
8.0893838652
 20
7.1644947758
 10
8.0950653327
 20
7.1728182515
 10
8.1007871096
 20
7.1810886382
 10
8.1065514773
 20
7.1893094582
 10
8.112359915
 20
7.1974829149
 10
8.1182109437
 20
7.2056068048
 10
8.1241024074
 20
7.21367804
 10
8.1300344032
 20
7.2216966808
 10
8.1360068342
 20
7.2296626668
 10
8.1420172539
 20
7.2375727294
 10
8.1480639194
 20
7.245424692
 10
8.1541485738
 20
7.2532207311
 10
8.1602739994
 20
7.2609641081
 10
8.1664430635
 20
7.2686584098
 10
8.1726528989
 20
7.2763000493
 10
8.1788976864
 20
7.2838815275
 10
8.1851774306
 20
7.2914025606
 10
8.1914921269
 20
7.2988634323
 10
8.1978359428
 20
7.3062574946
 10
8.2042059763
 20
7.3135813878
 10
8.2106051292
 20
7.3208384716
 10
8.2170362747
 20
7.3280321762
 10
8.2235013603
 20
7.3351647541
 10
8.2299984385
 20
7.342233953
 10
8.2365245393
 20
7.3492364458
 10
8.2430794524
 20
7.3561719375
 10
8.2496633882
 20
7.3630407232
 10
8.2562740077
 20
7.3698403611
 10
8.2629096526
 20
7.376569251
 10
8.2695719812
 20
7.3832289932
 10
8.2762636291
 20
7.3898219475
 10
8.2829876679
 20
7.39635109
 10
8.2897410261
 20
7.4028134447
 10
8.2965171253
 20
7.4092024428
 10
8.3033155104
 20
7.4155174149
 10
8.3101366365
 20
7.4217590305
 10
8.3169752905
 20
7.4279227295
 10
8.3238286894
 20
7.4340060516
 10
8.3306996161
 20
7.4400114571
 10
8.3375912065
 20
7.4459417663
  0
LWPOLYLINE
  5
409
100
AcDbEntity
  8
SMUSSO
100
AcDbPolyline
 62
7
  6
CONTINUOUS
 90
28
 70
0
 10
8.3375912065
 20
7.4459417663
 10
8.3445059024
 20
7.4517991209
 10
8.3514412619
 20
7.4575813793
 10
8.3583930951
 20
7.4632849373
 10
8.3653608113
 20
7.4689092223
 10
8.3723450011
 20
7.474454807
 10
8.3793432467
 20
7.4799198046
 10
8.3863539481
 20
7.4853030574
 10
8.3933787052
 20
7.4906057233
 10
8.4004199003
 20
7.4958293889
 10
8.4074805987
 20
7.5009762761
 10
8.4145577351
 20
7.5060441631
 10
8.4216444955
 20
7.5110279709
 10
8.4287403405
 20
7.5159270989
 10
8.4358458096
 20
7.5207421476
 10
8.4429557067
 20
7.5254698406
 10
8.4500674104
 20
7.5301084701
 10
8.4571835422
 20
7.5346597437
 10
8.4643067693
 20
7.5391255082
 10
8.4714378835
 20
7.5435064114
 10
8.4785760931
 20
7.5478018053
 10
8.4857216911
 20
7.5520115934
 10
8.4928747738
 20
7.5561359207
 10
8.500035245
 20
7.5601746421
 10
8.5072031085
 20
7.5641272258
 10
8.5143783656
 20
7.5679934946
 10
8.5215610151
 20
7.5717736258
 10
8.5287510569
 20
7.5754676194
  0
LINE
  5
40A
100
AcDbEntity
  8
0
100
AcDbLine
 62
7
  6
CONTINUOUS
 10
12.616923038
 20
27.7603261917
 11
12.616923038
 21
27.6055506951
  0
LWPOLYLINE
  5
40B
100
AcDbEntity
  8
RACCORDO
100
AcDbPolyline
 62
7
  6
CONTINUOUS
 90
18
 70
0
 10
19.6603963891
 20
15.8179050841
 10
19.6631090931
 20
15.8253892137
 10
19.6654431139
 20
15.8326009067
 10
19.6674108052
 20
15.8395284443
 10
19.6690299389
 20
15.8461500946
 10
19.6703100238
 20
15.8524669908
 10
19.6712503541
 20
15.8585021646
 10
19.6718639066
 20
15.8642469736
 10
19.6721647917
 20
15.8696924662
 10
19.6721514647
 20
15.8748605258
 10
19.67183669
 20
15.8797437903
 10
19.6712342543
 20
15.8843343425
 10
19.6703416582
 20
15.8886522534
 10
19.6691713055
 20
15.8926909661
 10
19.6677365299
 20
15.8964434356
 10
19.666033941
 20
15.8999278302
 10
19.6640755313
 20
15.9031381403
 10
19.6632877432
 20
15.9042564256
  0
LWPOLYLINE
  5
40C
100
AcDbEntity
  8
RACCORDO
100
AcDbPolyline
 62
253
  6
CONTINUOUS
 90
49
 70
0
 10
19.5692256627
 20
17.7420666928
 10
19.5875329544
 20
17.7916634661
 10
19.6065301833
 20
17.8410634289
 10
19.6262173493
 20
17.8902665813
 10
19.6466048118
 20
17.9392969081
 10
19.6676822115
 20
17.9881304244
 10
19.6894184704
 20
18.0366951753
 10
19.7118145901
 20
18.0849908784
 10
19.734869569
 20
18.1330178161
 10
19.7585493234
 20
18.1807048799
 10
19.782854888
 20
18.2280517284
 10
19.807785228
 20
18.2750587031
 10
19.8333031557
 20
18.3216557202
 10
19.8594093837
 20
18.3678418633
 10
19.8861031994
 20
18.4136180489
 10
19.9133452765
 20
18.4589169419
 10
19.9411360165
 20
18.5037372992
 10
19.969475018
 20
18.5480803641
 10
19.9983217507
 20
18.591882531
 10
20.0276771707
 20
18.6351434643
 10
20.0575403219
 20
18.6778634997
 10
20.0878678066
 20
18.7199800395
 10
20.1186615443
 20
18.7614936807
 10
20.1499196155
 20
18.8024038263
 10
20.1815928632
 20
18.8426460879
 10
20.2136821093
 20
18.8822192676
 10
20.2461865319
 20
18.9211245634
 10
20.2790545086
 20
18.9593011811
 10
20.3122836757
 20
18.9967448503
 10
20.3458763967
 20
19.0334598414
 10
20.3797881404
 20
19.0693981715
 10
20.4140173754
 20
19.1045576338
 10
20.448565633
 20
19.138940435
 10
20.4833929751
 20
19.1725052127
 10
20.5185039675
 20
19.2052552424
 10
20.5538940443
 20
19.2371872486
 10
20.5895095701
 20
19.2682500416
 10
20.6253567475
 20
19.2984461329
 10
20.6614293737
 20
19.3277730111
 10
20.6976552049
 20
19.3561719529
 10
20.7340350529
 20
19.3836397902
 10
20.7705681058
 20
19.4101796912
 10
20.807179684
 20
19.4357424376
 10
20.8438702649
 20
19.4603245146
 10
20.8806393711
 20
19.483929437
 10
20.9174108908
 20
19.5065185309
 10
20.9541594535
 20
19.528078905
 10
20.9909104298
 20
19.5486234507
 10
21.0276638196
 20
19.5681521678
  0
LWPOLYLINE
  5
40D
100
AcDbEntity
  8
RACCORDO
100
AcDbPolyline
 62
253
  6
CONTINUOUS
 90
49
 70
0
 10
19.5692256627
 20
13.4119396739
 10
19.5875329544
 20
13.4615364472
 10
19.6065301833
 20
13.51093641
 10
19.6262173493
 20
13.5601395623
 10
19.6466048118
 20
13.6091698892
 10
19.6676822115
 20
13.6580034055
 10
19.6894184704
 20
13.7065681564
 10
19.7118145901
 20
13.7548638595
 10
19.734869569
 20
13.8028907972
 10
19.7585493234
 20
13.850577861
 10
19.782854888
 20
13.8979247095
 10
19.807785228
 20
13.9449316842
 10
19.8333031557
 20
13.9915287013
 10
19.8594093837
 20
14.0377148444
 10
19.8861031994
 20
14.0834910299
 10
19.9133452765
 20
14.128789923
 10
19.9411360165
 20
14.1736102803
 10
19.969475018
 20
14.2179533451
 10
19.9983217507
 20
14.2617555121
 10
20.0276771707
 20
14.3050164454
 10
20.0575403219
 20
14.3477364808
 10
20.0878678066
 20
14.3898530206
 10
20.1186615443
 20
14.4313666618
 10
20.1499196155
 20
14.4722768074
 10
20.1815928632
 20
14.512519069
 10
20.2136821093
 20
14.5520922487
 10
20.2461865319
 20
14.5909975445
 10
20.2790545086
 20
14.6291741621
 10
20.3122836757
 20
14.6666178313
 10
20.3458763967
 20
14.7033328225
 10
20.3797881404
 20
14.7392711526
 10
20.4140173754
 20
14.7744306149
 10
20.448565633
 20
14.8088134161
 10
20.4833929751
 20
14.8423781938
 10
20.5185039675
 20
14.8751282235
 10
20.5538940443
 20
14.9070602296
 10
20.5895095701
 20
14.9381230227
 10
20.6253567475
 20
14.968319114
 10
20.6614293737
 20
14.9976459921
 10
20.6976552049
 20
15.026044934
 10
20.7340350529
 20
15.0535127713
 10
20.7705681058
 20
15.0800526723
 10
20.807179684
 20
15.1056154187
 10
20.8438702649
 20
15.1301974957
 10
20.8806393711
 20
15.1538024181
 10
20.9174108908
 20
15.176391512
 10
20.9541594535
 20
15.1979518861
 10
20.9909104298
 20
15.2184964318
 10
21.0276638196
 20
15.2380251489
  0
LWPOLYLINE
  5
40E
100
AcDbEntity
  8
RACCORDO
100
AcDbPolyline
 62
7
  6
CONTINUOUS
 90
48
 70
0
 10
19.6654620013
 20
17.8240606427
 10
19.6673653926
 20
17.828951076
 10
19.6856616161
 20
17.8749319248
 10
19.7046202888
 20
17.920755196
 10
19.7242305412
 20
17.9663926061
 10
19.7444798855
 20
18.0118133638
 10
19.7653567673
 20
18.0569909656
 10
19.786849255
 20
18.1018990456
 10
19.808943149
 20
18.1465074893
 10
19.8316253886
 20
18.190790476
 10
19.8548825431
 20
18.2347223904
 10
19.8786987802
 20
18.2782739656
 10
19.9030596413
 20
18.3214202763
 10
19.9279502879
 20
18.36413664
 10
19.9533533019
 20
18.4063947557
 10
19.979252885
 20
18.4481707193
 10
20.0056329347
 20
18.4894410507
 10
20.0324746156
 20
18.5301787362
 10
20.0597609518
 20
18.570361165
 10
20.0874746384
 20
18.6099661639
 10
20.1155954339
 20
18.6489680654
 10
20.1441052466
 20
18.6873456737
 10
20.172985725
 20
18.7250783827
 10
20.2022153592
 20
18.7621421292
 10
20.2317748835
 20
18.7985171112
 10
20.2616451882
 20
18.8341846911
 10
20.291804163
 20
18.8691232518
 10
20.322231915
 20
18.9033150234
 10
20.3529083133
 20
18.9367429673
 10
20.3838100762
 20
18.9693872371
 10
20.4149156532
 20
19.0012310848
 10
20.4462051388
 20
19.0322605126
 10
20.4776569427
 20
19.0624602871
 10
20.5092485061
 20
19.0918152754
 10
20.5409598232
 20
19.1203138463
 10
20.5727724069
 20
19.1479459896
 10
20.6046647268
 20
19.1746996763
 10
20.636614983
 20
19.2005637837
 10
20.6686034862
 20
19.2255293366
 10
20.700608307
 20
19.2495862701
 10
20.7326071061
 20
19.2727254408
 10
20.7645785952
 20
19.2949390072
 10
20.7965002964
 20
19.3162189687
 10
20.8283504827
 20
19.3365590183
 10
20.8601079238
 20
19.3559537428
 10
20.8917500914
 20
19.3743976803
 10
20.9232526924
 20
19.3918858085
 10
20.9497979263
 20
19.4059421077
  0
LWPOLYLINE
  5
40F
100
AcDbEntity
  8
RACCORDO
100
AcDbPolyline
 62
7
  6
CONTINUOUS
 90
48
 70
0
 10
19.6654620013
 20
13.4939336238
 10
19.6673653926
 20
13.4988240571
 10
19.6856616161
 20
13.5448049058
 10
19.7046202888
 20
13.5906281771
 10
19.7242305412
 20
13.6362655872
 10
19.7444798855
 20
13.6816863449
 10
19.7653567673
 20
13.7268639467
 10
19.786849255
 20
13.7717720266
 10
19.808943149
 20
13.8163804704
 10
19.8316253886
 20
13.8606634571
 10
19.8548825431
 20
13.9045953714
 10
19.8786987802
 20
13.9481469467
 10
19.9030596413
 20
13.9912932574
 10
19.9279502879
 20
14.0340096211
 10
19.9533533019
 20
14.0762677368
 10
19.979252885
 20
14.1180437004
 10
20.0056329347
 20
14.1593140318
 10
20.0324746156
 20
14.2000517173
 10
20.0597609518
 20
14.2402341461
 10
20.0874746384
 20
14.279839145
 10
20.1155954339
 20
14.3188410465
 10
20.1441052466
 20
14.3572186548
 10
20.172985725
 20
14.3949513637
 10
20.2022153592
 20
14.4320151103
 10
20.2317748835
 20
14.4683900923
 10
20.2616451882
 20
14.5040576722
 10
20.291804163
 20
14.5389962329
 10
20.322231915
 20
14.5731880044
 10
20.3529083133
 20
14.6066159484
 10
20.3838100762
 20
14.6392602182
 10
20.4149156532
 20
14.6711040659
 10
20.4462051388
 20
14.7021334937
 10
20.4776569427
 20
14.7323332682
 10
20.5092485061
 20
14.7616882564
 10
20.5409598232
 20
14.7901868274
 10
20.5727724069
 20
14.8178189706
 10
20.6046647268
 20
14.8445726573
 10
20.636614983
 20
14.8704367648
 10
20.6686034862
 20
14.8954023176
 10
20.700608307
 20
14.9194592512
 10
20.7326071061
 20
14.9425984219
 10
20.7645785952
 20
14.9648119882
 10
20.7965002964
 20
14.9860919498
 10
20.8283504827
 20
15.0064319993
 10
20.8601079238
 20
15.0258267239
 10
20.8917500914
 20
15.0442706614
 10
20.9232526924
 20
15.0617587895
 10
20.9497979263
 20
15.0758150888
  0
LWPOLYLINE
  5
410
100
AcDbEntity
  8
RACCORDO
100
AcDbPolyline
 62
7
  6
CONTINUOUS
 90
16
 70
0
 10
19.6604119511
 20
15.8179371551
 10
19.6576310987
 20
15.8111643855
 10
19.6543799636
 20
15.8044586513
 10
19.6506585459
 20
15.7978199526
 10
19.6464664743
 20
15.7912326442
 10
19.6418041201
 20
15.7847123712
 10
19.6366725972
 20
15.7783060692
 10
19.6310753848
 20
15.7720201456
 10
19.6250090037
 20
15.765848193
 10
19.6184641305
 20
15.7598179244
 10
19.6114340726
 20
15.7539240892
 10
19.6039255227
 20
15.7481719379
 10
19.5959492348
 20
15.7426049362
 10
19.5875087936
 20
15.7372375724
 10
19.5786006146
 20
15.732055358
 10
19.5692246976
 20
15.7270582932
  0
LWPOLYLINE
  5
411
100
AcDbEntity
  8
RACCORDO
100
AcDbPolyline
 62
7
  6
CONTINUOUS
 90
16
 70
0
 10
19.6604119511
 20
11.4878101362
 10
19.6576310987
 20
11.4810373665
 10
19.6543799636
 20
11.4743316324
 10
19.6506585459
 20
11.4676929337
 10
19.6464664743
 20
11.4611056252
 10
19.6418041201
 20
11.4545853522
 10
19.6366725972
 20
11.4481790502
 10
19.6310753848
 20
11.4418931267
 10
19.6250090037
 20
11.4357211741
 10
19.6184641305
 20
11.4296909055
 10
19.6114340726
 20
11.4237970702
 10
19.6039255227
 20
11.418044919
 10
19.5959492348
 20
11.4124779173
 10
19.5875087936
 20
11.4071105535
 10
19.5786006146
 20
11.4019283391
 10
19.5692246976
 20
11.3969312743
  0
LINE
  5
412
100
AcDbEntity
  8
0
100
AcDbLine
 62
7
  6
CONTINUOUS
 10
-3.3760447222
 20
-24.8153113358
 11
-3.623573567
 21
-25.1068558387
  0
LINE
  5
413
100
AcDbEntity
  8
SMUSSO
100
AcDbLine
 62
7
  6
CONTINUOUS
 10
19.1643462249
 20
-4.225275375
 11
8.8310041252
 21
-9.7057690239
  0
LINE
  5
414
100
AcDbEntity
  8
SMUSSO
100
AcDbLine
 62
7
  6
CONTINUOUS
 10
25.7136844858
 20
-0.6603418996
 11
8.5287510569
 21
-9.7450404563
  0
LWPOLYLINE
  5
415
100
AcDbEntity
  8
SMUSSO
100
AcDbPolyline
 62
7
  6
CONTINUOUS
 90
91
 70
0
 10
8.5287510569
 20
-11.5198503907
 10
8.5215641254
 20
-11.5236003134
 10
8.5143843721
 20
-11.5272566132
 10
8.5072117972
 20
-11.5308192901
 10
8.5000464027
 20
-11.5342881731
 10
8.4928881865
 20
-11.5376634332
 10
8.4857371421
 20
-11.5409455831
 10
8.4785933686
 20
-11.5441346672
 10
8.471456767
 20
-11.5472306412
 10
8.4643270331
 20
-11.5502338852
 10
8.4572049919
 20
-11.5531442165
 10
8.4500898185
 20
-11.5559618178
 10
8.4429787344
 20
-11.5586876169
 10
8.4358690075
 20
-11.5613226597
 10
8.42876337
 20
-11.5638659004
 10
8.4216672394
 20
-11.5663151296
 10
8.4145800475
 20
-11.5686703012
 10
8.4075023627
 20
-11.5709314612
 10
8.4004413073
 20
-11.5730965383
 10
8.3934000431
 20
-11.5751645424
 10
8.3863754085
 20
-11.5771364636
 10
8.3793650404
 20
-11.5790132004
 10
8.3723673987
 20
-11.5807952398
 10
8.3653840236
 20
-11.5824820948
 10
8.3584171731
 20
-11.5840732029
 10
8.351466244
 20
-11.5855686134
 10
8.3445318394
 20
-11.586968277
 10
8.337618027
 20
-11.588271483
 10
8.3307271982
 20
-11.5894778559
 10
8.3238569615
 20
-11.5905877713
 10
8.3170042099
 20
-11.5916016454
 10
8.3101661715
 20
-11.5925198978
 10
8.3033456181
 20
-11.593342109
 10
8.2965477585
 20
-11.5940674362
 10
8.2897721452
 20
-11.5946956814
 10
8.2830192257
 20
-11.5952270427
 10
8.2762955501
 20
-11.5956612714
 10
8.2696041817
 20
-11.5959981642
 10
8.2629420574
 20
-11.5962379244
 10
8.2563065374
 20
-11.5963809125
 10
8.2496959494
 20
-11.5964272448
 10
8.2431119658
 20
-11.596376805
 10
8.2365569646
 20
-11.5962296056
 10
8.2300307358
 20
-11.5959855669
 10
8.2235334895
 20
-11.5956447686
 10
8.2170682331
 20
-11.5952074614
 10
8.2106369315
 20
-11.5946738815
 10
8.2042376198
 20
-11.5940437928
 10
8.1978674109
 20
-11.5933167378
 10
8.1915233947
 20
-11.5924923615
 10
8.1852084813
 20
-11.5915710189
 10
8.1789285132
 20
-11.590553318
 10
8.1726834918
 20
-11.589438969
 10
8.1664734158
 20
-11.5882282617
 10
8.1603041239
 20
-11.5869226736
 10
8.1541784905
 20
-11.5855228232
 10
8.1480936412
 20
-11.5840280921
 10
8.1420467921
 20
-11.5824381024
 10
8.1360362045
 20
-11.5807524844
 10
8.130063617
 20
-11.5789716077
 10
8.1241314614
 20
-11.5770962046
 10
8.1182398327
 20
-11.5751262352
 10
8.1123886359
 20
-11.5730617393
 10
8.1065800176
 20
-11.5709035683
 10
8.1008154534
 20
-11.5686523928
 10
8.0950934677
 20
-11.5663075422
 10
8.08941178
 20
-11.563867856
 10
8.0837677624
 20
-11.5613321534
 10
8.0781640428
 20
-11.5587016151
 10
8.0726062243
 20
-11.5559786233
 10
8.0670946883
 20
-11.5531630518
 10
8.0616290533
 20
-11.5502550267
 10
8.0562137776
 20
-11.5472573084
 10
8.0508512122
 20
-11.544171242
 10
8.045539006
 20
-11.5409954825
 10
8.040274564
 20
-11.5377287556
 10
8.0350561167
 20
-11.534370039
 10
8.0298854336
 20
-11.5309203549
 10
8.0247652278
 20
-11.5273814962
 10
8.0196958442
 20
-11.5237536012
 10
8.014676938
 20
-11.5200365315
 10
8.009710188
 20
-11.5162316641
 10
8.0047967033
 20
-11.5123399824
 10
7.9999353747
 20
-11.5083605031
 10
7.9951245533
 20
-11.5042916534
 10
7.9903621472
 20
-11.5001315944
 10
7.9856502483
 20
-11.4958821651
 10
7.9809934832
 20
-11.4915473101
 10
7.976392467
 20
-11.4871272931
 10
7.9718465847
 20
-11.4826218504
 10
7.9696520648
 20
-11.4803962102
  0
LINE
  5
416
100
AcDbEntity
  8
SMUSSO
100
AcDbLine
 62
7
  6
CONTINUOUS
 10
25.0064700006
 20
-2.2233185553
 11
7.812922042
 21
-10.9385060987
  0
LINE
  5
417
100
AcDbEntity
  8
SMUSSO
100
AcDbLine
 62
7
  6
CONTINUOUS
 10
25.7136844858
 20
-2.8090294413
 11
8.5287510569
 21
-11.5198503907
  0
LINE
  5
418
100
AcDbEntity
  8
RACCORDO
100
AcDbLine
 62
7
  6
CONTINUOUS
 10
19.659314012
 20
-4.2705600487
 11
8.1839807304
 21
-10.0305387617
  0
LINE
  5
419
100
AcDbEntity
  8
RACCORDO
100
AcDbLine
 62
7
  6
CONTINUOUS
 10
23.9475476958
 20
-2.7431810409
 11
7.8340974631
 21
-10.7680243162
  0
LINE
  5
41A
100
AcDbEntity
  8
DRAFT
100
AcDbLine
 62
7
  6
CONTINUOUS
 10
23.930631537
 20
-2.7347229615
 11
24.9912917088
 21
-2.2157294094
  0
LWPOLYLINE
  5
41B
100
AcDbEntity
  8
RACCORDO
100
AcDbPolyline
 62
7
  6
CONTINUOUS
 90
19
 70
0
 10
19.6664202276
 20
11.5699748426
 10
19.6959032659
 20
11.5691168566
 10
19.7278992309
 20
11.5692772956
 10
19.7601734254
 20
11.5705193392
 10
19.7927248362
 20
11.572844702
 10
19.8255544765
 20
11.5762516695
 10
19.8586103384
 20
11.580734848
 10
19.8918941672
 20
11.5862962062
 10
19.9254042176
 20
11.5929337755
 10
19.9590832461
 20
11.6006362568
 10
19.9929303551
 20
11.6094051452
 10
20.0269464423
 20
11.6192389457
 10
20.0610769574
 20
11.6301218734
 10
20.0953229758
 20
11.6420559259
 10
20.129683422
 20
11.6550391057
 10
20.1641005191
 20
11.6690496364
 10
20.198555008
 20
11.6840802593
 10
20.2330661478
 20
11.7001382332
 10
20.2676339384
 20
11.717223558
  0
LWPOLYLINE
  5
41C
100
AcDbEntity
  8
RACCORDO
100
AcDbPolyline
 62
7
  6
CONTINUOUS
 90
13
 70
0
 10
18.8792775122
 20
12.0532199495
 10
18.8855178557
 20
12.0529562397
 10
18.8916773734
 20
12.0524034133
 10
18.8977560653
 20
12.0515614702
 10
18.9037631263
 20
12.0504296851
 10
18.9096893614
 20
12.0490087834
 10
18.9155071859
 20
12.0473009412
 10
18.9212142919
 20
12.0453047082
 10
18.9268129873
 20
12.0430215348
 10
18.9322826103
 20
12.0404579484
 10
18.9376193508
 20
12.0376155413
 10
18.942827019
 20
12.0344927212
 10
18.9443160521
 20
12.0335321023
  0
LWPOLYLINE
  5
41D
100
AcDbEntity
  8
0
100
AcDbPolyline
 62
253
  6
CONTINUOUS
 90
7
 70
0
 10
-4.9299625021
 20
17.1318664954
 10
-4.9487162388
 20
17.1394545918
 10
-4.9671069991
 20
17.1439720142
 10
-4.9848202335
 20
17.1453415001
 10
-5.0015529813
 20
17.1435396281
 10
-5.0170190514
 20
17.1385972186
 10
-5.022365635
 20
17.1359883944
  0
LWPOLYLINE
  5
41E
100
AcDbEntity
  8
0
100
AcDbPolyline
 62
253
  6
CONTINUOUS
 90
13
 70
0
 10
-15.6250470417
 20
21.7719750723
 10
-15.6056086196
 20
21.763439041
 10
-15.5841290949
 20
21.7562290203
 10
-15.5609678778
 20
21.7504656532
 10
-15.5365125179
 20
21.7462453764
 10
-15.511172219
 20
21.7436388063
 10
-15.4853709926
 20
21.7426895581
 10
-15.4595405625
 20
21.743413515
 10
-15.4341131412
 20
21.7457985635
 10
-15.409514198
 20
21.7498047951
 10
-15.3861553393
 20
21.7553651749
 10
-15.3644274216
 20
21.7623866628
 10
-15.3446940114
 20
21.7707517703
  0
LWPOLYLINE
  5
41F
100
AcDbEntity
  8
0
100
AcDbPolyline
 62
253
  6
CONTINUOUS
 90
13
 70
0
 10
-15.6250470417
 20
22.0892438726
 10
-15.6056086111
 20
22.0807078381
 10
-15.5841290779
 20
22.0734978157
 10
-15.5609678533
 20
22.0677344484
 10
-15.5365124871
 20
22.0635141724
 10
-15.511172184
 20
22.0609076042
 10
-15.4853709558
 20
22.0599583582
 10
-15.4595405268
 20
22.0606823175
 10
-15.4341131093
 20
22.0630673678
 10
-15.4095141722
 20
22.0670736005
 10
-15.3861553212
 20
22.0726339803
 10
-15.3644274124
 20
22.0796554665
 10
-15.3446940114
 20
22.0880205707
  0
LWPOLYLINE
  5
420
100
AcDbEntity
  8
0
100
AcDbPolyline
 62
7
  6
CONTINUOUS
 90
4
 70
0
 10
-2.9733390748
 20
15.3433900246
 10
-2.9643508054
 20
15.3391465924
 10
-2.942596947
 20
15.3308271155
 10
-2.9206983134
 20
15.3249928127
  0
LWPOLYLINE
  5
421
100
AcDbEntity
  8
0
100
AcDbPolyline
 62
253
  6
CONTINUOUS
 90
28
 70
0
 10
-8.2036527318
 20
19.4325326772
 10
-8.2053479224
 20
19.4333457845
 10
-8.2070801897
 20
19.4340551445
 10
-8.2088495338
 20
19.4346607573
 10
-8.2106667986
 20
19.4351740819
 10
-8.2125211402
 20
19.4355836592
 10
-8.2143800263
 20
19.4358551125
 10
-8.2162445069
 20
19.4359843327
 10
-8.2181135321
 20
19.4359754289
 10
-8.2199514189
 20
19.4358063511
 10
-8.2217578517
 20
19.4354717955
 10
-8.2235331462
 20
19.4349770658
 10
-8.2252425669
 20
19.4343160239
 10
-8.2268837459
 20
19.433483648
 10
-8.2284590511
 20
19.4324849598
 10
-8.2299408507
 20
19.4313288865
 10
-8.2313257691
 20
19.4300128777
 10
-8.2326171818
 20
19.4285394838
 10
-8.233797584
 20
19.4269252837
 10
-8.2348649494
 20
19.4251687718
 10
-8.2358213043
 20
19.4232714537
 10
-8.2366552224
 20
19.4212544254
 10
-8.2373651922
 20
19.41911611
 10
-8.2379527254
 20
19.4168580844
 10
-8.2384109304
 20
19.4145061758
 10
-8.2387375104
 20
19.4120689933
 10
-8.2389347623
 20
19.4095379277
 10
-8.2390026861
 20
19.4069129791
  0
LWPOLYLINE
  5
422
100
AcDbEntity
  8
0
100
AcDbPolyline
 62
7
  6
CONTINUOUS
 90
4
 70
0
 10
-15.5598836804
 20
21.6366616149
 10
-15.5538335467
 20
21.6337500209
 10
-15.5307329322
 20
21.6246137789
 10
-15.5072239265
 20
21.618241269
  0
LINE
  5
423
100
AcDbEntity
  8
0
100
AcDbLine
 62
7
  6
CONTINUOUS
 10
-16.9600405831
 20
21.8276658969
 11
-16.8273031508
 21
21.7612971808
  0
LINE
  5
424
100
AcDbEntity
  8
0
100
AcDbLine
 62
7
  6
CONTINUOUS
 10
-15.6673482094
 20
21.1813197101
 11
-14.9403412607
 21
20.8178162357
  0
LINE
  5
425
100
AcDbEntity
  8
0
100
AcDbLine
 62
7
  6
CONTINUOUS
 10
-4.373539878
 20
15.5344155443
 11
-4.2408024457
 21
15.4680468282
  0
LINE
  5
426
100
AcDbEntity
  8
0
100
AcDbLine
 62
7
  6
CONTINUOUS
 10
-3.0808475043
 20
14.8880693575
 11
-2.3538405556
 21
14.5245658831
  0
LINE
  5
427
100
AcDbEntity
  8
DRAFT
100
AcDbLine
 62
7
  6
CONTINUOUS
 10
23.9475476958
 20
1.586945978
 11
23.930631537
 21
1.5954040574
  0
LINE
  5
428
100
AcDbEntity
  8
0
100
AcDbLine
 62
7
  6
CONTINUOUS
 10
-2.9733403343
 20
15.3433899167
 11
-3.7744982925
 21
15.7439688957
  0
LINE
  5
429
100
AcDbEntity
  8
0
100
AcDbLine
 62
7
  6
CONTINUOUS
 10
-4.2423718791
 20
15.977905689
 11
-5.0383011457
 21
16.3758703223
  0
LINE
  5
42A
100
AcDbEntity
  8
0
100
AcDbLine
 62
7
  6
CONTINUOUS
 10
-15.5597295552
 20
21.636584629
 11
-16.3609989976
 21
22.0372192483
  0
LINE
  5
42B
100
AcDbEntity
  8
0
100
AcDbLine
 62
7
  6
CONTINUOUS
 10
-16.8288725842
 20
22.2711560416
 11
-17.6248077739
 21
22.6691236365
  0
LINE
  5
42C
100
AcDbEntity
  8
0
100
AcDbLine
 62
253
  6
CONTINUOUS
 10
-16.7540798461
 20
22.3364914745
 11
-17.6895483644
 21
22.8042430841
  0
LINE
  5
42D
100
AcDbEntity
  8
0
100
AcDbLine
 62
253
  6
CONTINUOUS
 10
-4.167579141
 20
16.0432411219
 11
-5.1030476593
 21
16.5109753811
  0
LINE
  5
42E
100
AcDbEntity
  8
0
100
AcDbLine
 62
253
  6
CONTINUOUS
 10
-15.6250470417
 20
21.7719750723
 11
-16.56051556
 21
22.2397093314
  0
LINE
  5
42F
100
AcDbEntity
  8
0
100
AcDbLine
 62
253
  6
CONTINUOUS
 10
-3.0385463366
 20
15.4787420637
 11
-3.9740148549
 21
15.9464589789
  0
LINE
  5
430
100
AcDbEntity
  8
0
100
AcDbLine
 62
7
  6
CONTINUOUS
 10
-5.948354289
 20
17.0743159992
 11
-8.2390026861
 21
18.2196401978
  0
LINE
  5
431
100
AcDbEntity
  8
0
100
AcDbLine
 62
7
  6
CONTINUOUS
 10
-9.6606648902
 20
18.9304712998
 11
-11.9513132873
 21
20.0757954984
  0
LINE
  5
432
100
AcDbEntity
  8
0
100
AcDbLine
 62
253
  6
CONTINUOUS
 10
-3.0385463366
 20
15.7959935201
 11
-5.1030476593
 21
16.8282441814
  0
LINE
  5
433
100
AcDbEntity
  8
0
100
AcDbLine
 62
253
  6
CONTINUOUS
 10
-15.6250470417
 20
22.0892438726
 11
-17.6895483644
 21
23.121494534
  0
LINE
  5
434
100
AcDbEntity
  8
0
100
AcDbLine
 62
7
  6
CONTINUOUS
 10
-13.6874492221
 20
21.3201100905
 11
-12.0098919311
 21
20.481331445
  0
LINE
  5
435
100
AcDbEntity
  8
0
100
AcDbLine
 62
7
  6
CONTINUOUS
 10
-9.1619658225
 20
19.0573683907
 11
-8.2975813299
 21
18.6251761444
  0
LINE
  5
436
100
AcDbEntity
  8
0
100
AcDbLine
 62
7
  6
CONTINUOUS
 10
-5.4496552213
 20
17.2012130901
 11
-5.1226343602
 21
17.0377026595
  0
LINE
  5
437
100
AcDbEntity
  8
SMUSSO
100
AcDbLine
 62
7
  6
CONTINUOUS
 10
25.0064700006
 20
2.1068084636
 11
24.9912917088
 21
2.1143976095
  0
LINE
  5
438
100
AcDbEntity
  8
0
100
AcDbLine
 62
253
  6
CONTINUOUS
 10
-2.8642484607
 20
16.0990094747
 11
-4.9299625021
 21
17.1318664954
  0
LINE
  5
439
100
AcDbEntity
  8
0
100
AcDbLine
 62
253
  6
CONTINUOUS
 10
-15.4507491658
 20
22.3922598272
 11
-17.5164632072
 21
23.4251168479
  0
LINE
  5
43A
100
AcDbEntity
  8
RACCORDO
100
AcDbLine
 62
7
  6
CONTINUOUS
 10
20.0600119673
 20
5.0111364888
 11
21.0921937612
 21
4.4950455919
  0
LINE
  5
43B
100
AcDbEntity
  8
0
100
AcDbLine
 62
7
  6
CONTINUOUS
 10
-13.6874492221
 20
22.012100342
 11
-13.019313507
 21
21.6780324845
  0
LINE
  5
43C
100
AcDbEntity
  8
0
100
AcDbLine
 62
7
  6
CONTINUOUS
 10
-1.1009485097
 20
15.7188499858
 11
-0.4061304827
 21
15.3714409723
  0
LINE
  5
43D
100
AcDbEntity
  8
0
100
AcDbLine
 62
7
  6
CONTINUOUS
 10
-8.4799055922
 20
19.4090315501
 11
-8.2975813299
 21
19.3178694189
  0
LINE
  5
43E
100
AcDbEntity
  8
0
100
AcDbLine
 62
7
  6
CONTINUOUS
 10
-8.2975813299
 20
19.4016943115
 11
-8.4817050178
 21
19.4937561554
  0
LINE
  5
43F
100
AcDbEntity
  8
0
100
AcDbLine
 62
253
  6
CONTINUOUS
 10
-11.9159633331
 20
21.2886879778
 11
-9.6960148445
 21
20.1787137335
  0
LINE
  5
440
100
AcDbEntity
  8
0
100
AcDbLine
 62
253
  6
CONTINUOUS
 10
-5.9837042433
 20
18.3225584329
 11
-8.2036527318
 21
19.4325326772
  0
LINE
  5
441
100
AcDbEntity
  8
0
100
AcDbLine
 62
253
  6
CONTINUOUS
 10
-11.7770101198
 20
21.5313432852
 11
-9.5570616312
 21
20.4213690409
  0
LINE
  5
442
100
AcDbEntity
  8
0
100
AcDbLine
 62
253
  6
CONTINUOUS
 10
-5.84475103
 20
18.5652137403
 11
-8.0646995186
 21
19.6751879846
  0
LINE
  5
443
100
AcDbEntity
  8
0
100
AcDbLine
 62
7
  6
CONTINUOUS
 10
-11.5661558025
 20
21.6451040267
 11
-9.3387155939
 21
20.5313839224
  0
LINE
  5
444
100
AcDbEntity
  8
0
100
AcDbLine
 62
7
  6
CONTINUOUS
 10
-7.8538452013
 20
19.7889487261
 11
-5.6264049926
 21
18.6752286218
  0
LWPOLYLINE
  5
445
100
AcDbEntity
  8
0
100
AcDbPolyline
 62
253
  6
CONTINUOUS
 90
19
 70
0
 10
-15.5598855297
 20
21.6366625254
 10
-15.5616155955
 20
21.637550949
 10
-15.5677906834
 20
21.6411060535
 10
-15.5738209705
 20
21.645214651
 10
-15.5796773606
 20
21.6498955943
 10
-15.5853293444
 20
21.655165853
 10
-15.5907235977
 20
21.6610152017
 10
-15.5958321998
 20
21.667450459
 10
-15.6006266922
 20
21.6744760217
 10
-15.6050611584
 20
21.6820623672
 10
-15.6091118965
 20
21.690203175
 10
-15.6127556725
 20
21.6988898549
 10
-15.6159579092
 20
21.7080745075
 10
-15.6187019459
 20
21.7177382954
 10
-15.6209723829
 20
21.7278609167
 10
-15.6227489231
 20
21.7383793738
 10
-15.6240227401
 20
21.7492513421
 10
-15.6247903332
 20
21.7604601937
 10
-15.6250470417
 20
21.7719750723
  0
LWPOLYLINE
  5
446
100
AcDbEntity
  8
0
100
AcDbPolyline
 62
253
  6
CONTINUOUS
 90
28
 70
0
 10
-9.6960148445
 20
20.1787137335
 10
-9.6943031294
 20
20.1778217711
 10
-9.692556905
 20
20.1767893327
 10
-9.6907761713
 20
20.1756164186
 10
-9.6889501549
 20
20.1743032681
 10
-9.6870896292
 20
20.1728496417
 10
-9.685226914
 20
20.1712548208
 10
-9.6833610709
 20
20.1695137254
 10
-9.6814930382
 20
20.1676314355
 10
-9.6796579506
 20
20.1656224727
 10
-9.6778563369
 20
20.1634822051
 10
-9.6760876681
 20
20.1612152645
 10
-9.6743854924
 20
20.1588500683
 10
-9.6727524453
 20
20.1563849509
 10
-9.6711858912
 20
20.1538215779
 10
-9.6697114716
 20
20.151193363
 10
-9.6683318219
 20
20.1485004238
 10
-9.6670443068
 20
20.1457426427
 10
-9.6658666614
 20
20.1429530813
 10
-9.6648006477
 20
20.1401314114
 10
-9.6638445037
 20
20.1372779613
 10
-9.6630106789
 20
20.1344267771
 10
-9.662300969
 20
20.1315777729
 10
-9.6617135781
 20
20.1287310346
 10
-9.6612555686
 20
20.1259208659
 10
-9.6609292945
 20
20.1231587014
 10
-9.6607324017
 20
20.1204331065
 10
-9.6606648902
 20
20.1177440812
  0
LWPOLYLINE
  5
447
100
AcDbEntity
  8
0
100
AcDbPolyline
 62
253
  6
CONTINUOUS
 90
28
 70
0
 10
-9.5570616312
 20
20.4213690409
 10
-9.5486684169
 20
20.4168034063
 10
-9.5400453124
 20
20.4115943725
 10
-9.5312154484
 20
20.4057114071
 10
-9.5221858574
 20
20.3991115945
 10
-9.5130074159
 20
20.3917823332
 10
-9.5037727588
 20
20.3837534983
 10
-9.494517484
 20
20.375017401
 10
-9.4852805156
 20
20.3655708773
 10
-9.47615807
 20
20.3554768023
 10
-9.4671901042
 20
20.3447502928
 10
-9.4584170597
 20
20.3334096534
 10
-9.4499288213
 20
20.3215462924
 10
-9.4417680068
 20
20.309203162
 10
-9.4339648786
 20
20.2964088761
 10
-9.4265806856
 20
20.2832494996
 10
-9.4196509804
 20
20.2697802297
 10
-9.4131997178
 20
20.2560391862
 10
-9.4072624422
 20
20.2420940299
 10
-9.4018641844
 20
20.2279976198
 10
-9.3970264785
 20
20.2137999234
 10
-9.3927732822
 20
20.1995666274
 10
-9.3891213772
 20
20.185350421
 10
-9.3860854223
 20
20.1712046683
 10
-9.3836795214
 20
20.1571959975
 10
-9.3819122299
 20
20.1433808808
 10
-9.3807885467
 20
20.1298057855
 10
-9.3803118599
 20
20.1165207793
  0
LWPOLYLINE
  5
448
100
AcDbEntity
  8
0
100
AcDbPolyline
 62
7
  6
CONTINUOUS
 90
9
 70
0
 10
-3.774070494
 20
15.7437583205
 10
-3.7971033096
 20
15.7566090622
 10
-3.8271726624
 20
15.7770860161
 10
-3.8558737117
 20
15.8004981718
 10
-3.8831584274
 20
15.8262992163
 10
-3.9086420718
 20
15.85411228
 10
-3.9321647027
 20
15.8836463825
 10
-3.9539292722
 20
15.9145386003
 10
-3.9740148549
 20
15.9464589789
  0
LWPOLYLINE
  5
449
100
AcDbEntity
  8
0
100
AcDbPolyline
 62
253
  6
CONTINUOUS
 90
13
 70
0
 10
-13.3047445726
 20
23.4694230261
 10
-13.2859908449
 20
23.4588591722
 10
-13.2676000916
 20
23.4454929007
 10
-13.2498868622
 20
23.4295528251
 10
-13.2331541171
 20
23.4113115797
 10
-13.2176880477
 20
23.3910811581
 10
-13.2037531805
 20
23.3692075765
 10
-13.1915878522
 20
23.3460649548
 10
-13.1814001327
 20
23.3220491162
 10
-13.1733642675
 20
23.2975708182
 10
-13.1676176981
 20
23.2730487284
 10
-13.1642587109
 20
23.248902264
 10
-13.1633447556
 20
23.2255444168
  0
LWPOLYLINE
  5
44A
100
AcDbEntity
  8
0
100
AcDbPolyline
 62
253
  6
CONTINUOUS
 90
7
 70
0
 10
-5.1030476593
 20
16.5109753811
 10
-5.1201197268
 20
16.5206945954
 10
-5.1345397707
 20
16.531434361
 10
-5.1460665053
 20
16.5430149724
 10
-5.1545070575
 20
16.5552426548
 10
-5.1597201949
 20
16.5679128058
 10
-5.1616262958
 20
16.5816589935
  0
LWPOLYLINE
  5
44B
100
AcDbEntity
  8
0
100
AcDbPolyline
 62
253
  6
CONTINUOUS
 90
7
 70
0
 10
-5.1030476593
 20
16.8282441814
 10
-5.1201197219
 20
16.8379633925
 10
-5.1345397632
 20
16.8487031549
 10
-5.1460664974
 20
16.8602837634
 10
-5.1545070511
 20
16.8725114433
 10
-5.1597201911
 20
16.8851815928
 10
-5.1616262939
 20
16.8989245528
  0
LWPOLYLINE
  5
44C
100
AcDbEntity
  8
0
100
AcDbPolyline
 62
253
  6
CONTINUOUS
 90
7
 70
0
 10
-8.2390026861
 20
19.4069129791
 10
-8.2560747486
 20
19.4166321902
 10
-8.27049479
 20
19.4273719525
 10
-8.2820215242
 20
19.4389525611
 10
-8.2904620779
 20
19.451180241
 10
-8.2956752179
 20
19.4638503904
 10
-8.2975813299
 20
19.4776236572
  0
LWPOLYLINE
  5
44D
100
AcDbEntity
  8
0
100
AcDbPolyline
 62
7
  6
CONTINUOUS
 90
16
 70
0
 10
-1.1009458553
 20
15.0268609622
 10
-1.0646597665
 20
15.005986028
 10
-1.028527432
 20
14.9805913289
 10
-0.9929596818
 20
14.9508940127
 10
-0.9582357986
 20
14.9170342532
 10
-0.9249087171
 20
14.8794403278
 10
-0.8937296856
 20
14.8389555444
 10
-0.8652273444
 20
14.7964705033
 10
-0.8393859459
 20
14.7521618522
 10
-0.8161376967
 20
14.7058476598
 10
-0.7956219132
 20
14.6575873795
 10
-0.7783617789
 20
14.6082814768
 10
-0.7648264371
 20
14.5589932111
 10
-0.7551674698
 20
14.5104441221
 10
-0.7493544179
 20
14.4629900025
 10
-0.7473951264
 20
14.4171362907
  0
LWPOLYLINE
  5
44E
100
AcDbEntity
  8
0
100
AcDbPolyline
 62
7
  6
CONTINUOUS
 90
13
 70
0
 10
-1.2423483341
 20
16.9162129944
 10
-1.2238970657
 20
16.9055005055
 10
-1.2057546686
 20
16.8920121391
 10
-1.1882356961
 20
16.8759762696
 10
-1.1716444974
 20
16.8576644301
 10
-1.1562660528
 20
16.8373893203
 10
-1.1423609524
 20
16.8154996357
 10
-1.1301646204
 20
16.7923710086
 10
-1.1198881045
 20
16.7683978569
 10
-1.1117102733
 20
16.7439894391
 10
-1.1057699159
 20
16.7195639496
 10
-1.1021635789
 20
16.6955412985
 10
-1.100948517
 20
16.6723343851
  0
LINE
  5
44F
100
AcDbEntity
  8
SMUSSO
100
AcDbLine
 62
253
  6
CONTINUOUS
 10
7.8127922716
 20
10.7097534737
 11
8.5287510569
 21
10.1307847039
  0
LINE
  5
450
100
AcDbEntity
  8
SMUSSO
100
AcDbLine
 62
7
  6
CONTINUOUS
 10
25.7136844858
 20
-2.8090294413
 11
25.0064700006
 21
-2.2233185553
  0
LWPOLYLINE
  5
451
100
AcDbEntity
  8
SMUSSO
100
AcDbPolyline
 62
7
  6
CONTINUOUS
 90
200
 70
0
 10
7.9696520717
 20
10.1702388773
 10
7.9673611624
 20
10.1725983159
 10
7.9629326633
 20
10.1772665377
 10
7.9585620787
 20
10.1820170312
 10
7.9542474325
 20
10.1868517875
 10
7.9499870728
 20
10.1917726311
 10
7.9457826516
 20
10.1967777375
 10
7.9416371489
 20
10.2018636251
 10
7.9375510971
 20
10.207029822
 10
7.9335239638
 20
10.2122768
 10
7.929557132
 20
10.2176024931
 10
7.9256514562
 20
10.2230056075
 10
7.9218060818
 20
10.2284874371
 10
7.9180198291
 20
10.2340497971
 10
7.9142912314
 20
10.239694905
 10
7.9106217554
 20
10.2454205433
 10
7.9070146205
 20
10.2512218755
 10
7.9034704904
 20
10.2570980996
 10
7.8999887014
 20
10.2630500175
 10
7.8965704823
 20
10.2690751982
 10
7.8932165867
 20
10.2751721461
 10
7.8899262609
 20
10.2813423568
 10
7.8866984725
 20
10.2875878856
 10
7.8835319085
 20
10.2939113719
 10
7.880427882
 20
10.3003101763
 10
7.8773892994
 20
10.3067784359
 10
7.8744167962
 20
10.3133151463
 10
7.871509737
 20
10.3199213118
 10
7.8686691229
 20
10.3265940834
 10
7.8658955768
 20
10.3333318106
 10
7.8631884758
 20
10.3401361437
 10
7.8605469516
 20
10.3470091841
 10
7.8579700997
 20
10.3539533069
 10
7.8554588246
 20
10.360966137
 10
7.8530149717
 20
10.3680426504
 10
7.8506390742
 20
10.3751814817
 10
7.8483305988
 20
10.3823839964
 10
7.8460897913
 20
10.3896492671
 10
7.8439167826
 20
10.396976592
 10
7.8418114416
 20
10.4043666729
 10
7.8397736208
 20
10.4118206878
 10
7.8378025605
 20
10.4193417945
 10
7.8358990203
 20
10.4269268352
 10
7.8340651309
 20
10.4345675147
 10
7.8323014703
 20
10.4422620861
 10
7.8306074604
 20
10.4500122964
 10
7.8289834975
 20
10.4578150915
 10
7.8274298811
 20
10.4656686985
 10
7.8259463117
 20
10.4735748904
 10
7.824532287
 20
10.4815359313
 10
7.8231873658
 20
10.4895542776
 10
7.8219119893
 20
10.4976274731
 10
7.8207069795
 20
10.5057504132
 10
7.8195726283
 20
10.5139211786
 10
7.8185086438
 20
10.5221416888
 10
7.8175149714
 20
10.5304125975
 10
7.816591501
 20
10.5387342422
 10
7.8157383428
 20
10.5471062854
 10
7.8149557724
 20
10.5555283685
 10
7.8142436219
 20
10.5640037473
 10
7.8136020594
 20
10.5725291661
 10
7.8130318646
 20
10.5810944989
 10
7.8125333457
 20
10.5896971352
 10
7.8121061946
 20
10.5983396855
 10
7.8117502659
 20
10.6070198559
 10
7.8114655497
 20
10.6157362518
 10
7.8112520561
 20
10.6244902677
 10
7.8111096696
 20
10.6332837927
 10
7.8110383518
 20
10.6421192487
 10
7.8110381411
 20
10.6509942138
 10
7.8111090379
 20
10.6599033109
 10
7.8112510038
 20
10.6688440794
 10
7.811464077
 20
10.67781898
 10
7.8117483727
 20
10.6868300172
 10
7.8121038808
 20
10.6958785719
 10
7.8125306114
 20
10.7049632633
 10
7.8130287102
 20
10.7140819537
 10
7.8135984855
 20
10.7232375759
 10
7.8142396291
 20
10.732427197
 10
7.8149513614
 20
10.7416398805
 10
7.8157335151
 20
10.7508721985
 10
7.8165862577
 20
10.7601275787
 10
7.8175093121
 20
10.7694053678
 10
7.8185025679
 20
10.7787051084
 10
7.8195661356
 20
10.7880272578
 10
7.8207000704
 20
10.7973725345
 10
7.8219046642
 20
10.8067431615
 10
7.8231796251
 20
10.8161369157
 10
7.8245241322
 20
10.8255478461
 10
7.8259377444
 20
10.8349730411
 10
7.8274209028
 20
10.8444154124
 10
7.8289741097
 20
10.8538777437
 10
7.8305976642
 20
10.8633621172
 10
7.8322912672
 20
10.8728664509
 10
7.8340545232
 20
10.8823872819
 10
7.8358880108
 20
10.8919269593
 10
7.8377911513
 20
10.9014831341
 10
7.8397618131
 20
10.9110452971
 10
7.8417992371
 20
10.9206095046
 10
7.8439041824
 20
10.9301797004
 10
7.8460767941
 20
10.9397572061
 10
7.8483172018
 20
10.9493428527
 10
7.8506252759
 20
10.9589358094
 10
7.8530007731
 20
10.9685349053
 10
7.8554442268
 20
10.9781420596
 10
7.8579551035
 20
10.9877553532
 10
7.8605315601
 20
10.9973678572
 10
7.8631726925
 20
11.0069762621
 10
7.8658794047
 20
11.0165838774
 10
7.868652565
 20
11.0261937033
 10
7.8714927963
 20
11.035808035
 10
7.8743994758
 20
11.0454245773
 10
7.8773716026
 20
11.0550394439
 10
7.8804098131
 20
11.0646542998
 10
7.883513471
 20
11.0742674802
 10
7.8866796675
 20
11.0838701039
 10
7.8899070895
 20
11.0934581709
 10
7.8931970501
 20
11.1030356814
 10
7.8965505795
 20
11.1126057547
 10
7.8999684295
 20
11.1221706621
 10
7.9034498483
 20
11.1317281323
 10
7.9069936102
 20
11.1412744707
 10
7.9106003798
 20
11.1508111691
 10
7.9142694925
 20
11.1603367357
 10
7.9179977299
 20
11.1698430013
 10
7.9217836261
 20
11.1793262317
 10
7.9256286469
 20
11.1887901612
 10
7.9295339707
 20
11.1982378234
 10
7.9335004506
 20
11.2076713943
 10
7.9375272335
 20
11.2170886979
 10
7.9416129384
 20
11.2264862406
 10
7.9457580983
 20
11.2358650471
 10
7.9499621802
 20
11.2452240926
 10
7.9542222042
 20
11.2545568086
 10
7.9585365181
 20
11.2638596596
 10
7.962906774
 20
11.2731361811
 10
7.9673349481
 20
11.282390411
 10
7.9718226256
 20
11.2916257061
 10
7.9763682213
 20
11.3008387094
 10
7.980968955
 20
11.3100233879
 10
7.9856254431
 20
11.3191806442
 10
7.9903370692
 20
11.3283095756
 10
7.9950992043
 20
11.3374014409
 10
7.9999097562
 20
11.3464522338
 10
8.0047708171
 20
11.3554659605
 10
8.0096840341
 20
11.3644458989
 10
8.014650515
 20
11.3733941781
 10
8.0196691521
 20
11.3823086689
 10
8.0247382696
 20
11.3911862613
 10
8.0298582133
 20
11.4000274525
 10
8.0350286376
 20
11.4088317452
 10
8.0402468292
 20
11.417594537
 10
8.0455110189
 20
11.4263129732
 10
8.0508229761
 20
11.4349899086
 10
8.0561852958
 20
11.4436293049
 10
8.0616003286
 20
11.4522349412
 10
8.0670657241
 20
11.4608030386
 10
8.0725770254
 20
11.4693262215
 10
8.0781346155
 20
11.4778047609
 10
8.0837381116
 20
11.486238386
 10
8.0893819083
 20
11.4946189084
 10
8.0950633775
 20
11.5029424253
 10
8.1007851474
 20
11.5112128396
 10
8.1065494972
 20
11.5194336721
 10
8.1123579017
 20
11.5276071202
 10
8.1182088862
 20
11.5357309864
 10
8.1241003061
 20
11.5438021994
 10
8.1300322579
 20
11.5518208195
 10
8.1360046453
 20
11.5597867863
 10
8.1420150345
 20
11.567696847
 10
8.1480616866
 20
11.5755488305
 10
8.1541463405
 20
11.583344908
 10
8.1602717804
 20
11.5910883405
 10
8.1664408786
 20
11.5987827211
 10
8.1726507627
 20
11.6064244568
 10
8.178895599
 20
11.6140060294
 10
8.1851753927
 20
11.6215271549
 10
8.1914901387
 20
11.6289881174
 10
8.1978339881
 20
11.6363822508
 10
8.2042040338
 20
11.643706189
 10
8.210603183
 20
11.6509632981
 10
8.2170343085
 20
11.6581570109
 10
8.2234993523
 20
11.6652895737
 10
8.2299963725
 20
11.6723587401
 10
8.2365224167
 20
11.6793612031
 10
8.2430772746
 20
11.6862966687
 10
8.2496611566
 20
11.693165431
 10
8.2562717414
 20
11.6999650655
 10
8.2629073772
 20
11.7066939787
 10
8.2695697159
 20
11.7133537641
 10
8.2762613915
 20
11.7199467776
 10
8.2829854812
 20
11.7264760003
 10
8.2897389078
 20
11.732938451
 10
8.2965150743
 20
11.7393275422
 10
8.3033135252
 20
11.7456426032
 10
8.310134716
 20
11.7518843045
 10
8.3169734147
 20
11.7580480706
 10
8.323826831
 20
11.764131434
 10
8.3306977553
 20
11.770136862
 10
8.3375893269
 20
11.7760671805
  0
LWPOLYLINE
  5
452
100
AcDbEntity
  8
SMUSSO
100
AcDbPolyline
 62
7
  6
CONTINUOUS
 90
28
 70
0
 10
8.3375893269
 20
11.7760671805
 10
8.3445039826
 20
11.7819245271
 10
8.3514392857
 20
11.7877067642
 10
8.3583910649
 20
11.793410304
 10
8.3653587313
 20
11.7990345763
 10
8.3723428739
 20
11.8045801513
 10
8.3793410887
 20
11.8100451525
 10
8.3863517825
 20
11.8154284272
 10
8.3933765484
 20
11.8207311281
 10
8.4004177624
 20
11.8259548355
 10
8.4074784877
 20
11.8311017696
 10
8.4145556609
 20
11.8361697102
 10
8.4216424687
 20
11.8411535775
 10
8.4287383715
 20
11.8460527707
 10
8.4358439087
 20
11.8508678906
 10
8.4429538852
 20
11.85559566
 10
8.4500656802
 20
11.8602343713
 10
8.4571819145
 20
11.864785732
 10
8.4643052552
 20
11.8692515874
 10
8.4714364938
 20
11.8736325852
 10
8.4785748388
 20
11.8779280775
 10
8.4857205832
 20
11.8821379666
 10
8.4928738234
 20
11.8862623974
 10
8.5000344629
 20
11.8903012249
 10
8.5072025057
 20
11.8942539161
 10
8.5143779529
 20
11.8981202932
 10
8.5215608033
 20
11.9019005339
 10
8.5287510569
 20
11.9055946383
  0
LINE
  5
453
100
AcDbEntity
  8
DRAFT
100
AcDbLine
 62
7
  6
CONTINUOUS
 10
14.7669202195
 20
28.8310708289
 11
14.7669202195
 21
28.788702215
  0
LINE
  5
454
100
AcDbEntity
  8
SMUSSO
100
AcDbLine
 62
7
  6
CONTINUOUS
 10
15.8183241501
 20
29.7627311134
 11
15.8183241501
 21
29.3236604215
  0
LINE
  5
455
100
AcDbEntity
  8
SMUSSO
100
AcDbLine
 62
7
  6
CONTINUOUS
 10
15.628812319
 20
-2.4575084221
 11
15.6823228041
 21
-2.2396958308
  0
LWPOLYLINE
  5
456
100
AcDbEntity
  8
RACCORDO
100
AcDbPolyline
 62
7
  6
CONTINUOUS
 90
18
 70
0
 10
19.6603963891
 20
11.4877780652
 10
19.6631090931
 20
11.4952621947
 10
19.6654431139
 20
11.5024738878
 10
19.6674108052
 20
11.5094014254
 10
19.6690299389
 20
11.5160230757
 10
19.6703100238
 20
11.5223399719
 10
19.6712503541
 20
11.5283751457
 10
19.6718639066
 20
11.5341199547
 10
19.6721647917
 20
11.5395654472
 10
19.6721514647
 20
11.5447335069
 10
19.67183669
 20
11.5496167714
 10
19.6712342543
 20
11.5542073236
 10
19.6703416582
 20
11.5585252345
 10
19.6691713055
 20
11.5625639472
 10
19.6677365299
 20
11.5663164167
 10
19.666033941
 20
11.5698008113
 10
19.6640755313
 20
11.5730111214
 10
19.6632877432
 20
11.5741294067
  0
LINE
  5
457
100
AcDbEntity
  8
0
100
AcDbLine
 62
253
  6
CONTINUOUS
 10
-2.9498494241
 20
-25.5893395283
 11
-2.3170592147
 21
-24.8440263622
  0
LINE
  5
458
100
AcDbEntity
  8
0
100
AcDbLine
 62
253
  6
CONTINUOUS
 10
-2.7402070719
 20
-25.7759181693
 11
-2.0033992677
 21
-24.9080909666
  0
LINE
  5
459
100
AcDbEntity
  8
RACCORDO
100
AcDbLine
 62
7
  6
CONTINUOUS
 10
0.2880232994
 20
-20.1810802937
 11
-0.909572871
 21
-21.0490319762
  0
LINE
  5
45A
100
AcDbEntity
  8
0
100
AcDbLine
 62
7
  6
CONTINUOUS
 10
-1.3278935455
 20
-19.5467540819
 11
0.7038509214
 21
-18.4980489622
  0
LWPOLYLINE
  5
45B
100
AcDbEntity
  8
RACCORDO
100
AcDbPolyline
 62
7
  6
CONTINUOUS
 90
19
 70
0
 10
19.6664202276
 20
15.9001018615
 10
19.6959032659
 20
15.8992438755
 10
19.7278992309
 20
15.8994043145
 10
19.7601734254
 20
15.9006463582
 10
19.7927248362
 20
15.9029717209
 10
19.8255544765
 20
15.9063786884
 10
19.8586103384
 20
15.910861867
 10
19.8918941672
 20
15.9164232252
 10
19.9254042176
 20
15.9230607945
 10
19.9590832461
 20
15.9307632757
 10
19.9929303551
 20
15.9395321642
 10
20.0269464423
 20
15.9493659646
 10
20.0610769574
 20
15.9602488924
 10
20.0953229758
 20
15.9721829448
 10
20.129683422
 20
15.9851661246
 10
20.1641005191
 20
15.9991766553
 10
20.198555008
 20
16.0142072782
 10
20.2330661478
 20
16.0302652521
 10
20.2676339384
 20
16.0473505769
  0
LINE
  5
45C
100
AcDbEntity
  8
0
100
AcDbLine
 62
7
  6
CONTINUOUS
 10
-2.9206415239
 20
15.3249735359
 11
-2.2802542355
 21
15.1891271918
  0
LINE
  5
45D
100
AcDbEntity
  8
0
100
AcDbLine
 62
253
  6
CONTINUOUS
 10
-2.7402070719
 20
15.4486859701
 11
-2.0033992677
 21
15.2923857931
  0
LWPOLYLINE
  5
45E
100
AcDbEntity
  8
0
100
AcDbPolyline
 62
7
  6
CONTINUOUS
 90
10
 70
0
 10
-2.7235533815
 20
18.238355801
 10
-2.7446001222
 20
18.2461322487
 10
-2.7664793057
 20
18.2517548465
 10
-2.7889636311
 20
18.255128353
 10
-2.8118970866
 20
18.2561841766
 10
-2.8350372066
 20
18.2548646282
 10
-2.8580629723
 20
18.251157078
 10
-2.8807538919
 20
18.2450826645
 10
-2.9029067782
 20
18.2366818127
 10
-2.9070690622
 20
18.2348127991
  0
LWPOLYLINE
  5
45F
100
AcDbEntity
  8
0
100
AcDbPolyline
 62
253
  6
CONTINUOUS
 90
3
 70
0
 10
-15.3093059394
 20
24.5308232524
 10
-15.3008817735
 20
24.5273962256
 10
-15.2984103904
 20
24.526205874
  0
LWPOLYLINE
  5
460
100
AcDbEntity
  8
0
100
AcDbPolyline
 62
7
  6
CONTINUOUS
 90
6
 70
0
 10
-15.9502124611
 20
24.2701450579
 10
-15.9686637294
 20
24.2778952824
 10
-15.9868061265
 20
24.28254642
 10
-16.004325099
 20
24.284020971
 10
-16.0209162977
 20
24.2822960292
 10
-16.037551501
 20
24.2768348893
  0
LWPOLYLINE
  5
461
100
AcDbEntity
  8
0
100
AcDbPolyline
 62
253
  6
CONTINUOUS
 90
6
 70
0
 10
-2.8209856932
 20
18.2275435864
 10
-2.8391376255
 20
18.2354325648
 10
-2.8570213076
 20
18.2402035175
 10
-2.8743308635
 20
18.2417748438
 10
-2.8907702364
 20
18.2401196683
 10
-2.9070690958
 20
18.2348128724
  0
LWPOLYLINE
  5
462
100
AcDbEntity
  8
0
100
AcDbPolyline
 62
253
  6
CONTINUOUS
 90
13
 70
0
 10
-5.948354289
 20
18.2615887806
 10
-5.9289159007
 20
18.2530527625
 10
-5.9074364098
 20
18.2458427486
 10
-5.8842752234
 20
18.2400793826
 10
-5.8598198892
 20
18.2358591022
 10
-5.8344796084
 20
18.2332525251
 10
-5.8086783886
 20
18.2323032676
 10
-5.7828479514
 20
18.2330272153
 10
-5.7574205117
 20
18.2354122565
 10
-5.7328215427
 20
18.2394184844
 10
-5.7094626535
 20
18.2449788648
 10
-5.6877347024
 20
18.2520003588
 10
-5.6680012587
 20
18.2603654786
  0
LWPOLYLINE
  5
463
100
AcDbEntity
  8
0
100
AcDbPolyline
 62
253
  6
CONTINUOUS
 90
12
 70
0
 10
-2.7118649184
 20
18.2329331376
 10
-2.7203831199
 20
18.2366830019
 10
-2.7292706775
 20
18.2395976419
 10
-2.738518969
 20
18.2416737564
 10
-2.748097646
 20
18.2429001265
 10
-2.7579630641
 20
18.2432678106
 10
-2.7680799225
 20
18.2427735978
 10
-2.7784111789
 20
18.2414174548
 10
-2.7889075367
 20
18.2392052063
 10
-2.7995262912
 20
18.2361471263
 10
-2.8102321399
 20
18.2322548366
 10
-2.8209856932
 20
18.2275435864
  0
LWPOLYLINE
  5
464
100
AcDbEntity
  8
0
100
AcDbPolyline
 62
253
  6
CONTINUOUS
 90
14
 70
0
 10
-8.0646995186
 20
19.6751879846
 10
-8.0732412444
 20
19.6790957177
 10
-8.0820203843
 20
19.6826018816
 10
-8.091012145
 20
19.6856502067
 10
-8.1002079091
 20
19.6881879933
 10
-8.1095541952
 20
19.6901484164
 10
-8.1189551977
 20
19.6914651762
 10
-8.1283731205
 20
19.692091809
 10
-8.137766424
 20
19.6919827977
 10
-8.1470356897
 20
19.6911014573
 10
-8.156139418
 20
19.6894197627
 10
-8.1650336815
 20
19.6869124465
 10
-8.1736236161
 20
19.6835792814
 10
-8.1800325814
 20
19.6804326316
  0
LINE
  5
465
100
AcDbEntity
  8
0
100
AcDbLine
 62
7
  6
CONTINUOUS
 10
-15.2981123881
 20
24.5260559477
 11
-15.3124005368
 21
24.5325954887
  0
LWPOLYLINE
  5
466
100
AcDbEntity
  8
RACCORDO
100
AcDbPolyline
 62
7
  6
CONTINUOUS
 90
23
 70
0
 10
-5.4604786931
 20
21.1397595677
 10
-5.4722780003
 20
21.1451833015
 10
-5.4839800949
 20
21.1501679208
 10
-5.4955721869
 20
21.1547087985
 10
-5.5070410365
 20
21.1588020626
 10
-5.5183745464
 20
21.1624439429
 10
-5.5295617717
 20
21.1656307419
 10
-5.540590135
 20
21.1683600804
 10
-5.551447522
 20
21.1706298657
 10
-5.5621238687
 20
21.1724376039
 10
-5.572607009
 20
21.1737825185
 10
-5.5828852951
 20
21.1746641406
 10
-5.5929496877
 20
21.1750812394
 10
-5.6027885501
 20
21.1750346488
 10
-5.6123908104
 20
21.1745255219
 10
-5.621748583
 20
21.1735539213
 10
-5.6308508771
 20
21.172122277
 10
-5.6396872966
 20
21.1702333419
 10
-5.6482512112
 20
21.1678884722
 10
-5.6565323801
 20
21.16509166
 10
-5.6645211796
 20
21.161847216
 10
-5.672212318
 20
21.158157761
 10
-5.6741642454
 20
21.1571251151
  0
LINE
  5
467
100
AcDbEntity
  8
0
100
AcDbLine
 62
7
  6
CONTINUOUS
 10
-2.7116271171
 20
18.2328131052
 11
-2.7235533815
 21
18.238355801
  0
LWPOLYLINE
  5
468
100
AcDbEntity
  8
0
100
AcDbPolyline
 62
253
  6
CONTINUOUS
 90
13
 70
0
 10
-0.6099001069
 20
17.1819507355
 10
-0.6120490548
 20
17.1829911463
 10
-0.6204126661
 20
17.1864256198
 10
-0.6291341587
 20
17.1890620398
 10
-0.638183617
 20
17.1908899288
 10
-0.6475294207
 20
17.1919015117
 10
-0.6571352431
 20
17.1920922076
 10
-0.6669672328
 20
17.1914611016
 10
-0.6769908236
 20
17.1900101651
 10
-0.687166835
 20
17.1877455239
 10
-0.6974579656
 20
17.1846764193
 10
-0.7078291599
 20
17.180814046
 10
-0.7182438675
 20
17.1761726736
  0
LINE
  5
469
100
AcDbEntity
  8
0
100
AcDbLine
 62
7
  6
CONTINUOUS
 10
-15.9502124611
 20
24.2701450579
 11
-13.8288490392
 21
23.209463347
  0
LINE
  5
46A
100
AcDbEntity
  8
0
100
AcDbLine
 62
7
  6
CONTINUOUS
 10
-3.3637117559
 20
17.9768947054
 11
-1.2423483341
 21
16.9162129944
  0
LINE
  5
46B
100
AcDbEntity
  8
0
100
AcDbLine
 62
7
  6
CONTINUOUS
 10
-5.2106133322
 20
19.1179434967
 11
-7.1774173691
 21
20.1013455151
  0
LINE
  5
46C
100
AcDbEntity
  8
0
100
AcDbLine
 62
7
  6
CONTINUOUS
 10
-8.6854968293
 20
20.8553852452
 11
-10.6523008662
 21
21.8387872636
  0
LINE
  5
46D
100
AcDbEntity
  8
0
100
AcDbLine
 62
253
  6
CONTINUOUS
 10
-0.7182438675
 20
17.1761726736
 11
-2.8209856932
 21
18.2275435864
  0
LINE
  5
46E
100
AcDbEntity
  8
0
100
AcDbLine
 62
253
  6
CONTINUOUS
 10
-13.3047425739
 20
23.4694240175
 11
-15.4074863984
 21
24.520793939
  0
LINE
  5
46F
100
AcDbEntity
  8
0
100
AcDbLine
 62
7
  6
CONTINUOUS
 10
-0.609904109
 20
17.1819527368
 11
-2.7118892806
 21
18.2329453226
  0
LINE
  5
470
100
AcDbEntity
  8
0
100
AcDbLine
 62
7
  6
CONTINUOUS
 10
-13.1964247356
 20
23.4752130474
 11
-15.2983891959
 21
24.5261952802
  0
LINE
  5
471
100
AcDbEntity
  8
DRAFT
100
AcDbLine
 62
7
  6
CONTINUOUS
 10
23.9475476958
 20
5.9170729969
 11
23.930631537
 21
5.9255310763
  0
LINE
  5
472
100
AcDbEntity
  8
RACCORDO
100
AcDbLine
 62
7
  6
CONTINUOUS
 10
-5.4582548109
 20
21.1386742233
 11
-3.3351182706
 21
20.0771059531
  0
LINE
  5
473
100
AcDbEntity
  8
RACCORDO
100
AcDbLine
 62
7
  6
CONTINUOUS
 10
-5.1315110176
 20
21.3149599958
 11
-2.9881994195
 21
20.2433041967
  0
LINE
  5
474
100
AcDbEntity
  8
SMUSSO
100
AcDbLine
 62
7
  6
CONTINUOUS
 10
25.0064700006
 20
6.4369354825
 11
24.9912917088
 21
6.4445246284
  0
LINE
  5
475
100
AcDbEntity
  8
0
100
AcDbLine
 62
7
  6
CONTINUOUS
 10
-15.2984103904
 20
24.526205874
 11
-15.2981187311
 21
24.5260595077
  0
LWPOLYLINE
  5
476
100
AcDbEntity
  8
0
100
AcDbPolyline
 62
253
  6
CONTINUOUS
 90
13
 70
0
 10
-7.3372206357
 20
23.4239754132
 10
-7.3145665963
 20
23.4108221414
 10
-7.2923380766
 20
23.3942795731
 10
-7.2709028385
 20
23.3746212542
 10
-7.2506155629
 20
23.3521723205
 10
-7.2318119188
 20
23.3273040556
 10
-7.2148030238
 20
23.3004277303
 10
-7.1998703515
 20
23.2719878612
 10
-7.1872611284
 20
23.2424550156
 10
-7.1771841509
 20
23.2123179603
 10
-7.169806258
 20
23.1820754034
 10
-7.1652496064
 20
23.15222773
 10
-7.1635896928
 20
23.1232688659
  0
LINE
  5
477
100
AcDbEntity
  8
RACCORDO
100
AcDbLine
 62
7
  6
CONTINUOUS
 10
7.0201852714
 20
16.782596991
 11
5.9369900018
 21
18.6508324769
  0
LINE
  5
478
100
AcDbEntity
  8
DRAFT
100
AcDbLine
 62
7
  6
CONTINUOUS
 10
18.3024541254
 20
27.0633038759
 11
18.3024541254
 21
27.0209352621
  0
LINE
  5
479
100
AcDbEntity
  8
SMUSSO
100
AcDbLine
 62
7
  6
CONTINUOUS
 10
19.3538580561
 20
27.9949641604
 11
19.3538580561
 21
27.5558934685
  0
LINE
  5
47A
100
AcDbEntity
  8
DRAFT
100
AcDbLine
 62
7
  6
CONTINUOUS
 10
19.659314012
 20
-4.2705600487
 11
19.659314012
 21
-4.2281914348
  0
LINE
  5
47B
100
AcDbEntity
  8
SMUSSO
100
AcDbLine
 62
7
  6
CONTINUOUS
 10
19.1643462249
 20
-4.225275375
 11
19.1933341839
 21
-4.1072808838
  0
LWPOLYLINE
  5
47C
100
AcDbEntity
  8
0
100
AcDbPolyline
 62
7
  6
CONTINUOUS
 90
3
 70
0
 10
-3.9740148549
 20
-25.3531451605
 10
-3.9543559246
 20
-25.3385971146
 10
-3.9325123136
 20
-25.3235440483
  0
LINE
  5
47D
100
AcDbEntity
  8
RACCORDO
100
AcDbLine
 62
7
  6
CONTINUOUS
 10
5.9369900018
 20
-17.4624268609
 11
7.0201852714
 21
-16.6773866446
  0
LWPOLYLINE
  5
47E
100
AcDbEntity
  8
0
100
AcDbPolyline
 62
7
  6
CONTINUOUS
 90
9
 70
0
 10
-0.8651967883
 20
-23.7786217649
 10
-0.8393610093
 20
-23.7599154252
 10
-0.8161178012
 20
-23.7365461153
 10
-0.7956154522
 20
-23.7084157052
 10
-0.7783716916
 20
-23.6759323497
 10
-0.7648232714
 20
-23.639814713
 10
-0.7551328409
 20
-23.6006720504
 10
-0.7493114859
 20
-23.5588491625
 10
-0.7473951264
 20
-23.5148421414
  0
LWPOLYLINE
  5
47F
100
AcDbEntity
  8
0
100
AcDbPolyline
 62
7
  6
CONTINUOUS
 90
4
 70
0
 10
-3.9325123136
 20
-25.3235440483
 10
-3.8560835699
 20
-25.27323132
 10
-3.8271726624
 20
-25.2551968835
 10
-3.7648095496
 20
-25.2179261702
  0
LINE
  5
480
100
AcDbEntity
  8
0
100
AcDbLine
 62
7
  6
CONTINUOUS
 10
-3.7648095496
 20
-25.2179261702
 11
-3.7325333983
 21
-25.1979975412
  0
LINE
  5
481
100
AcDbEntity
  8
RACCORDO
100
AcDbLine
 62
253
  6
CONTINUOUS
 10
25.2720373583
 20
-7.0255066062
 11
7.0201852714
 21
-16.6773866446
  0
LINE
  5
482
100
AcDbEntity
  8
RACCORDO
100
AcDbLine
 62
7
  6
CONTINUOUS
 10
25.2268597509
 20
-7.0536473681
 11
6.9984931691
 21
-16.6931078845
  0
LINE
  5
483
100
AcDbEntity
  8
RACCORDO
100
AcDbLine
 62
253
  6
CONTINUOUS
 10
0.702173775
 20
-19.1635971947
 11
25.7136844858
 21
-5.9880954498
  0
LINE
  5
484
100
AcDbEntity
  8
RACCORDO
100
AcDbLine
 62
253
  6
CONTINUOUS
 10
0.2880232994
 20
-20.1810802937
 11
25.2995340102
 21
-7.0055785488
  0
LINE
  5
485
100
AcDbEntity
  8
DRAFT
100
AcDbLine
 62
7
  6
CONTINUOUS
 10
-0.8998561716
 20
-21.0538903259
 11
5.9369900018
 21
-17.4624268609
  0
LINE
  5
486
100
AcDbEntity
  8
0
100
AcDbLine
 62
7
  6
CONTINUOUS
 10
-1.3130805513
 20
-21.3161621735
 11
-1.3278935455
 21
-21.3238853427
  0
LINE
  5
487
100
AcDbEntity
  8
0
100
AcDbLine
 62
7
  6
CONTINUOUS
 10
4.360595174
 20
-18.5447892431
 11
-0.6968920979
 21
-21.1553723628
  0
LINE
  5
488
100
AcDbEntity
  8
0
100
AcDbLine
 62
7
  6
CONTINUOUS
 10
5.551853494
 20
-17.8222381956
 11
-0.8329227112
 21
-21.0873570562
  0
LINE
  5
489
100
AcDbEntity
  8
0
100
AcDbLine
 62
7
  6
CONTINUOUS
 10
-0.7473951264
 20
-21.8069853562
 11
-0.05263094
 21
-21.4775029418
  0
LINE
  5
48A
100
AcDbEntity
  8
0
100
AcDbLine
 62
7
  6
CONTINUOUS
 10
-1.3278935455
 20
-22.0582277528
 11
-0.7473951264
 21
-21.8069853562
  0
LWPOLYLINE
  5
48B
100
AcDbEntity
  8
0
100
AcDbPolyline
 62
7
  6
CONTINUOUS
 90
5
 70
0
 10
-7.9257293631
 20
19.806183922
 10
-7.9083033895
 20
19.8056489556
 10
-7.8904135249
 20
19.8025475554
 10
-7.8721946095
 20
19.7969498021
 10
-7.8538452013
 20
19.7889487261
  0
LWPOLYLINE
  5
48C
100
AcDbEntity
  8
RACCORDO
100
AcDbPolyline
 62
7
  6
CONTINUOUS
 90
13
 70
0
 10
18.8792775122
 20
16.3833469684
 10
18.8855178557
 20
16.3830832586
 10
18.8916773734
 20
16.3825304322
 10
18.8977560653
 20
16.3816884891
 10
18.9037631263
 20
16.380556704
 10
18.9096893614
 20
16.3791358023
 10
18.9155071859
 20
16.3774279601
 10
18.9212142919
 20
16.3754317271
 10
18.9268129873
 20
16.3731485537
 10
18.9322826103
 20
16.3705849673
 10
18.9376193508
 20
16.3677425602
 10
18.942827019
 20
16.3646197401
 10
18.9443160521
 20
16.3636591212
  0
LWPOLYLINE
  5
48D
100
AcDbEntity
  8
0
100
AcDbPolyline
 62
7
  6
CONTINUOUS
 90
4
 70
0
 10
-3.4178243939
 20
17.9907706185
 10
-3.4003139733
 20
17.9892917915
 10
-3.3821744694
 20
17.9846392073
 10
-3.3637117559
 20
17.9768947054
  0
LWPOLYLINE
  5
48E
100
AcDbEntity
  8
0
100
AcDbPolyline
 62
253
  6
CONTINUOUS
 90
12
 70
0
 10
-15.5071422267
 20
21.6182238879
 10
-15.4980441112
 20
21.6166600658
 10
-15.4779028596
 20
21.615701759
 10
-15.4575540995
 20
21.6180966558
 10
-15.4373421517
 20
21.6238042322
 10
-15.417609022
 20
21.63272791
 10
-15.3986886141
 20
21.6447166919
 10
-15.3809010793
 20
21.6595677159
 10
-15.3645473999
 20
21.6770296882
 10
-15.3499042956
 20
21.6968071354
 10
-15.3372195419
 20
21.7185654039
 10
-15.326707777
 20
21.7419363227
  0
LINE
  5
48F
100
AcDbEntity
  8
0
100
AcDbLine
 62
7
  6
CONTINUOUS
 10
-14.8663259169
 20
21.4822865349
 11
-15.5071422271
 21
21.618223888
  0
LINE
  5
490
100
AcDbEntity
  8
0
100
AcDbLine
 62
253
  6
CONTINUOUS
 10
-14.5898999728
 20
21.5856361457
 11
-15.326707777
 21
21.7419363227
  0
LWPOLYLINE
  5
491
100
AcDbEntity
  8
0
100
AcDbPolyline
 62
253
  6
CONTINUOUS
 90
22
 70
0
 10
-15.326707777
 20
21.7419363227
 10
-15.3280047083
 20
21.7422438915
 10
-15.3292895504
 20
21.7426546634
 10
-15.3305623033
 20
21.7431686384
 10
-15.3318307238
 20
21.7437823206
 10
-15.3330870552
 20
21.744499206
 10
-15.3343080268
 20
21.7453297818
 10
-15.3354933792
 20
21.7462767297
 10
-15.3366433719
 20
21.7473373679
 10
-15.3377355129
 20
21.7485141386
 10
-15.338768866
 20
21.7498099933
 10
-15.3397443676
 20
21.7512219805
 10
-15.3406423339
 20
21.7527436867
 10
-15.3414611867
 20
21.7543779745
 10
-15.3422025042
 20
21.7561219814
 10
-15.3428513381
 20
21.7579607064
 10
-15.3434056046
 20
21.7598965702
 10
-15.3438673873
 20
21.761927152
 10
-15.3442279891
 20
21.7640301892
 10
-15.3444845108
 20
21.7661982609
 10
-15.3446398516
 20
21.7684387879
 10
-15.3446940114
 20
21.7707517703
  0
LWPOLYLINE
  5
492
100
AcDbEntity
  8
0
100
AcDbPolyline
 62
7
  6
CONTINUOUS
 90
5
 70
0
 10
-1.656935456
 20
20.7285268798
 10
-1.6955561511
 20
20.7399207124
 10
-1.7358493912
 20
20.7480154729
 10
-1.777821276
 20
20.7527641129
 10
-1.8193897992
 20
20.7540110579
  0
LWPOLYLINE
  5
493
100
AcDbEntity
  8
0
100
AcDbPolyline
 62
7
  6
CONTINUOUS
 90
8
 70
0
 10
-15.3124005368
 20
24.5325954887
 10
-15.3336299827
 20
24.5401565549
 10
-15.3556720737
 20
24.5455348421
 10
-15.3782979868
 20
24.5486373473
 10
-15.401356146
 20
24.5493995751
 10
-15.4246176881
 20
24.5477584914
 10
-15.4477393267
 20
24.5437050945
 10
-15.4704617347
 20
24.537272985
  0
LWPOLYLINE
  5
494
100
AcDbEntity
  8
0
100
AcDbPolyline
 62
253
  6
CONTINUOUS
 90
6
 70
0
 10
-7.5166847865
 20
23.5152839368
 10
-7.5393747018
 20
23.5251451597
 10
-7.5617293043
 20
23.5311088506
 10
-7.5833662489
 20
23.5330730086
 10
-7.6039154645
 20
23.5310040394
 10
-7.6245896414
 20
23.524232364
  0
LWPOLYLINE
  5
495
100
AcDbEntity
  8
RACCORDO
100
AcDbPolyline
 62
7
  6
CONTINUOUS
 90
80
 70
0
 10
-4.1921248834
 20
21.4492344509
 10
-4.2036205741
 20
21.4548202731
 10
-4.2215572254
 20
21.4629179355
 10
-4.2394508437
 20
21.4703049304
 10
-4.2571903549
 20
21.4770058943
 10
-4.274762342
 20
21.4830836618
 10
-4.292245847
 20
21.4886219767
 10
-4.3096108999
 20
21.4936586252
 10
-4.3268129532
 20
21.4982248609
 10
-4.3439117977
 20
21.5023747459
 10
-4.3608886695
 20
21.5061358748
 10
-4.377721899
 20
21.5095329035
 10
-4.3944669231
 20
21.5126020518
 10
-4.411123408
 20
21.5153639066
 10
-4.4276697082
 20
21.5178336965
 10
-4.4441283608
 20
21.5200314846
 10
-4.4605025792
 20
21.5219719884
 10
-4.4767754957
 20
21.5236662524
 10
-4.4929382393
 20
21.5251255724
 10
-4.5089855004
 20
21.52636075
 10
-4.5249127352
 20
21.5273818217
 10
-4.5407111843
 20
21.5281979014
 10
-4.5563763196
 20
21.5288178195
 10
-4.5719050785
 20
21.5292498929
 10
-4.587290247
 20
21.5295018614
 10
-4.6025280672
 20
21.5295811882
 10
-4.6176162876
 20
21.5294949468
 10
-4.6325495542
 20
21.5292498951
 10
-4.6473264066
 20
21.5288524647
 10
-4.6619435574
 20
21.5283088429
 10
-4.6763926672
 20
21.5276252731
 10
-4.6906765459
 20
21.5268073262
 10
-4.7047887481
 20
21.5258608516
 10
-4.7187069774
 20
21.5247929946
 10
-4.7324305385
 20
21.5236095508
 10
-4.7459577297
 20
21.5223162255
 10
-4.759264833
 20
21.5209210071
 10
-4.7723453988
 20
21.5194305169
 10
-4.7852047926
 20
21.5178499293
 10
-4.7978370453
 20
21.5161856178
 10
-4.810233813
 20
21.5144443583
 10
-4.8224033461
 20
21.512630543
 10
-4.8343642449
 20
21.5107464847
 10
-4.8461159116
 20
21.5087970328
 10
-4.857659137
 20
21.5067867277
 10
-4.8690139927
 20
21.5047164015
 10
-4.8801810321
 20
21.5025899732
 10
-4.8911599548
 20
21.5004114538
 10
-4.9019688761
 20
21.4981809442
 10
-4.912609417
 20
21.4959015315
 10
-4.9230801086
 20
21.4935769112
 10
-4.9333937877
 20
21.4912074619
 10
-4.9435509301
 20
21.4887961122
 10
-4.9535510989
 20
21.4863459975
 10
-4.9634051553
 20
21.4838573393
 10
-4.9731132632
 20
21.4813328542
 10
-4.9826750965
 20
21.4787753665
 10
-4.9921001561
 20
21.476184973
 10
-5.0013893358
 20
21.473563943
 10
-5.0105412692
 20
21.4709151801
 10
-5.0195614634
 20
21.468239568
 10
-5.0284498906
 20
21.4655395256
 10
-5.0372058278
 20
21.4628177084
 10
-5.0458331242
 20
21.4600753084
 10
-5.054331704
 20
21.4573147268
 10
-5.0627005146
 20
21.4545386744
 10
-5.0709414148
 20
21.4517489326
 10
-5.0790543392
 20
21.4489478782
 10
-5.087037791
 20
21.446138442
 10
-5.0948907948
 20
21.4433233777
 10
-5.1026124551
 20
21.4405054799
 10
-5.1102016303
 20
21.437687629
 10
-5.1176565648
 20
21.4348730102
 10
-5.1249747043
 20
21.4320651326
 10
-5.1321559317
 20
21.4292666443
 10
-5.1392013028
 20
21.4264797028
 10
-5.1461103262
 20
21.4237070909
 10
-5.1528797235
 20
21.4209527262
 10
-5.1595057477
 20
21.4182208022
 10
-5.1723102217
 20
21.4128424248
  0
LWPOLYLINE
  5
496
100
AcDbEntity
  8
ASSI
100
AcDbPolyline
 62
7
  6
CONTINUOUS
 90
11
 70
0
 10
19.1472091216
 20
12.3903564358
 10
19.1597965067
 20
12.3842061233
 10
19.244762932
 20
12.349977229
 10
19.3346420809
 20
12.3257495667
 10
19.4279399721
 20
12.3119258514
 10
19.5247137489
 20
12.308679982
 10
19.624906268
 20
12.3158380596
 10
19.7268521178
 20
12.3332811018
 10
19.8299961612
 20
12.3609694477
 10
19.9348935355
 20
12.3989427582
 10
20.0415442405
 20
12.4472010332
  0
LINE
  5
497
100
AcDbEntity
  8
RACCORDO
100
AcDbLine
 62
7
  6
CONTINUOUS
 10
19.8915364162
 20
11.3760542979
 11
19.8914477891
 21
11.3760986042
  0
LINE
  5
498
100
AcDbEntity
  8
RACCORDO
100
AcDbLine
 62
253
  6
CONTINUOUS
 10
-2.4203055415
 20
20.515364838
 11
-4.2791296889
 21
21.4447769117
  0
LINE
  5
499
100
AcDbEntity
  8
RACCORDO
100
AcDbLine
 62
7
  6
CONTINUOUS
 10
-2.3713203024
 20
20.5388321724
 11
-4.1921551124
 21
21.4492495774
  0
LINE
  5
49A
100
AcDbEntity
  8
RACCORDO
100
AcDbLine
 62
7
  6
CONTINUOUS
 10
20.0600119673
 20
9.3412635077
 11
21.0921937612
 21
8.8251726108
  0
LINE
  5
49B
100
AcDbEntity
  8
0
100
AcDbLine
 62
7
  6
CONTINUOUS
 10
-1.0377509839
 20
20.148085729
 11
-1.4336062338
 21
20.3460133539
  0
LINE
  5
49C
100
AcDbEntity
  8
0
100
AcDbLine
 62
7
  6
CONTINUOUS
 10
-2.0893809576
 20
20.6739007158
 11
-4.6367247307
 21
21.9475726024
  0
LINE
  5
49D
100
AcDbEntity
  8
0
100
AcDbLine
 62
7
  6
CONTINUOUS
 10
-0.0455040468
 20
20.6297171714
 11
-4.0272669642
 21
22.6205986301
  0
LINE
  5
49E
100
AcDbEntity
  8
0
100
AcDbLine
 62
7
  6
CONTINUOUS
 10
-2.3719677371
 20
22.7620100762
 11
0.9444244527
 21
21.1038139813
  0
LINE
  5
49F
100
AcDbEntity
  8
DRAFT
100
AcDbLine
 62
7
  6
CONTINUOUS
 10
5.4589528595
 20
18.8898510481
 11
5.9369900018
 21
18.6508324769
  0
LINE
  5
4A0
100
AcDbEntity
  8
0
100
AcDbLine
 62
253
  6
CONTINUOUS
 10
-5.9721253532
 20
25.086417818
 11
-3.1535337598
 21
23.6771220213
  0
LINE
  5
4A1
100
AcDbEntity
  8
0
100
AcDbLine
 62
253
  6
CONTINUOUS
 10
1.5420035806
 20
21.3293533511
 11
4.360595174
 21
19.9200575544
  0
LWPOLYLINE
  5
4A2
100
AcDbEntity
  8
RACCORDO
100
AcDbPolyline
 62
7
  6
CONTINUOUS
 90
15
 70
0
 10
19.8915383167
 20
11.3760533582
 10
19.8863734773
 20
11.378667585
 10
19.8657904059
 20
11.3897565857
 10
19.8458306861
 20
11.4015815598
 10
19.8264921357
 20
11.4141095888
 10
19.8077486846
 20
11.4273229882
 10
19.7895539694
 20
11.4412240065
 10
19.7718954019
 20
11.4557959558
 10
19.7547713611
 20
11.4710130604
 10
19.7381589214
 20
11.4868696308
 10
19.7220516729
 20
11.503347994
 10
19.7064506563
 20
11.520422159
 10
19.6913479135
 20
11.5380756125
 10
19.6767402486
 20
11.5562876592
 10
19.6632884653
 20
11.5741284198
  0
LINE
  5
4A3
100
AcDbEntity
  8
SMUSSO
100
AcDbLine
 62
7
  6
CONTINUOUS
 10
25.7136844858
 20
1.5210975777
 11
25.0064700006
 21
2.1068084636
  0
LWPOLYLINE
  5
4A4
100
AcDbEntity
  8
RACCORDO
100
AcDbPolyline
 62
253
  6
CONTINUOUS
 90
43
 70
0
 10
21.0276638196
 20
11.0811032107
 10
21.0275129103
 20
11.0908905945
 10
21.0270603935
 20
11.1008100211
 10
21.0263069021
 20
11.1108476173
 10
21.0252534899
 20
11.1209893446
 10
21.0239016301
 20
11.1312210189
 10
21.0222532136
 20
11.1415283302
 10
21.0203105458
 20
11.1518968629
 10
21.0180763436
 20
11.1623121155
 10
21.0155537318
 20
11.1727595215
 10
21.0127462386
 20
11.1832244692
 10
21.0096577904
 20
11.1936923225
 10
21.0062927067
 20
11.204148441
 10
21.0026556939
 20
11.2145782009
 10
20.9987518388
 20
11.2249670153
 10
20.9945866011
 20
11.2353003546
 10
20.9901658064
 20
11.2455637665
 10
20.9854956376
 20
11.2557428968
 10
20.9805826262
 20
11.265823509
 10
20.9754336437
 20
11.2757915045
 10
20.9700558913
 20
11.2856329422
 10
20.9644568903
 20
11.2953340579
 10
20.9586444713
 20
11.3048812838
 10
20.9526267637
 20
11.3142612671
 10
20.9464121837
 20
11.3234608892
 10
20.9400094229
 20
11.3324672835
 10
20.9334274363
 20
11.3412678538
 10
20.9266754293
 20
11.3498502916
 10
20.9197628451
 20
11.3582025938
 10
20.9126993517
 20
11.3663130787
 10
20.9054948281
 20
11.3741704033
 10
20.8981593503
 20
11.3817635783
 10
20.8907031777
 20
11.3890819839
 10
20.8831367385
 20
11.3961153848
 10
20.8754706149
 20
11.4028539441
 10
20.8677155288
 20
11.4092882372
 10
20.8598823264
 20
11.4154092654
 10
20.851981963
 20
11.4212084676
 10
20.8440254881
 20
11.4266777334
 10
20.8360240294
 20
11.4318094133
 10
20.8279887779
 20
11.4365963304
 10
20.8199309714
 20
11.4410317895
 10
20.2676339384
 20
11.717223558
  0
LWPOLYLINE
  5
4A5
100
AcDbEntity
  8
RACCORDO
100
AcDbPolyline
 62
253
  6
CONTINUOUS
 90
43
 70
0
 10
21.0276638196
 20
15.4112302296
 10
21.0275129103
 20
15.4210176134
 10
21.0270603935
 20
15.43093704
 10
21.0263069021
 20
15.4409746362
 10
21.0252534899
 20
15.4511163635
 10
21.0239016301
 20
15.4613480378
 10
21.0222532136
 20
15.4716553491
 10
21.0203105458
 20
15.4820238818
 10
21.0180763436
 20
15.4924391345
 10
21.0155537318
 20
15.5028865405
 10
21.0127462386
 20
15.5133514882
 10
21.0096577904
 20
15.5238193414
 10
21.0062927067
 20
15.5342754599
 10
21.0026556939
 20
15.5447052198
 10
20.9987518388
 20
15.5550940343
 10
20.9945866011
 20
15.5654273735
 10
20.9901658064
 20
15.5756907854
 10
20.9854956376
 20
15.5858699157
 10
20.9805826262
 20
15.5959505279
 10
20.9754336437
 20
15.6059185235
 10
20.9700558913
 20
15.6157599612
 10
20.9644568903
 20
15.6254610769
 10
20.9586444713
 20
15.6350083027
 10
20.9526267637
 20
15.644388286
 10
20.9464121837
 20
15.6535879081
 10
20.9400094229
 20
15.6625943024
 10
20.9334274363
 20
15.6713948727
 10
20.9266754293
 20
15.6799773105
 10
20.9197628451
 20
15.6883296127
 10
20.9126993517
 20
15.6964400976
 10
20.9054948281
 20
15.7042974222
 10
20.8981593503
 20
15.7118905972
 10
20.8907031777
 20
15.7192090028
 10
20.8831367385
 20
15.7262424037
 10
20.8754706149
 20
15.732980963
 10
20.8677155288
 20
15.7394152561
 10
20.8598823264
 20
15.7455362843
 10
20.851981963
 20
15.7513354866
 10
20.8440254881
 20
15.7568047523
 10
20.8360240294
 20
15.7619364323
 10
20.8279887779
 20
15.7667233493
 10
20.8199309714
 20
15.7711588084
 10
20.2676339384
 20
16.0473505769
  0
LINE
  5
4A6
100
AcDbEntity
  8
DRAFT
100
AcDbLine
 62
7
  6
CONTINUOUS
 10
21.8379880313
 20
25.295536923
 11
21.8379880313
 21
25.2531683091
  0
LINE
  5
4A7
100
AcDbEntity
  8
0
100
AcDbLine
 62
7
  6
CONTINUOUS
 10
22.5164179746
 20
13.2516251984
 11
22.5164179746
 21
15.8869563828
  0
LINE
  5
4A8
100
AcDbEntity
  8
0
100
AcDbLine
 62
7
  6
CONTINUOUS
 10
22.5164179746
 20
17.1915402071
 11
22.5164179746
 21
20.2170834017
  0
LWPOLYLINE
  5
4A9
100
AcDbEntity
  8
RACCORDO
100
AcDbPolyline
 62
253
  6
CONTINUOUS
 90
25
 70
0
 10
21.0276638196
 20
19.5681521678
 10
21.0275129104
 20
19.5585105163
 10
21.0270603936
 20
19.5490280808
 10
21.0263069023
 20
19.5397181235
 10
21.0252534902
 20
19.5305936652
 10
21.0239016307
 20
19.5216674672
 10
21.0222532144
 20
19.5129520137
 10
21.0203105468
 20
19.5044594939
 10
21.0180763449
 20
19.4962017855
 10
21.0155537334
 20
19.4881904376
 10
21.0127462405
 20
19.4804366547
 10
21.0096577926
 20
19.4729512814
 10
21.0062927092
 20
19.4657447864
 10
21.0026556967
 20
19.4588272489
 10
20.9987518418
 20
19.4522083434
 10
20.9945866044
 20
19.4458973273
 10
20.99016581
 20
19.4399030271
 10
20.9854956414
 20
19.4342338262
 10
20.9805826303
 20
19.4288976536
 10
20.9754336479
 20
19.4239019725
 10
20.9700558957
 20
19.4192537696
 10
20.9644568948
 20
19.414959546
 10
20.9586444759
 20
19.4110253075
 10
20.9526267684
 20
19.4074565566
 10
20.9497988298
 20
19.4059425944
  0
LWPOLYLINE
  5
4AA
100
AcDbEntity
  8
RACCORDO
100
AcDbPolyline
 62
253
  6
CONTINUOUS
 90
25
 70
0
 10
21.0276638196
 20
15.2380251489
 10
21.0275129104
 20
15.2283834973
 10
21.0270603936
 20
15.2189010619
 10
21.0263069023
 20
15.2095911046
 10
21.0252534902
 20
15.2004666463
 10
21.0239016307
 20
15.1915404483
 10
21.0222532144
 20
15.1828249947
 10
21.0203105468
 20
15.174332475
 10
21.0180763449
 20
15.1660747666
 10
21.0155537334
 20
15.1580634186
 10
21.0127462405
 20
15.1503096358
 10
21.0096577926
 20
15.1428242624
 10
21.0062927092
 20
15.1356177675
 10
21.0026556967
 20
15.1287002299
 10
20.9987518418
 20
15.1220813245
 10
20.9945866044
 20
15.1157703084
 10
20.99016581
 20
15.1097760081
 10
20.9854956414
 20
15.1041068073
 10
20.9805826303
 20
15.0987706347
 10
20.9754336479
 20
15.0937749535
 10
20.9700558957
 20
15.0891267507
 10
20.9644568948
 20
15.0848325271
 10
20.9586444759
 20
15.0808982886
 10
20.9526267684
 20
15.0773295377
 10
20.9497988298
 20
15.0758155755
  0
LINE
  5
4AB
100
AcDbEntity
  8
RACCORDO
100
AcDbLine
 62
7
  6
CONTINUOUS
 10
25.2995340102
 20
-7.0055785488
 11
25.2720373583
 21
-7.0255066062
  0
LWPOLYLINE
  5
4AC
100
AcDbEntity
  8
0
100
AcDbPolyline
 62
7
  6
CONTINUOUS
 90
10
 70
0
 10
-0.6141371087
 20
-25.2336517705
 10
-0.5919108959
 20
-25.2182943311
 10
-0.5710791706
 20
-25.2002991052
 10
-0.5519543455
 20
-25.1798690175
 10
-0.5352406963
 20
-25.1578731209
 10
-0.5206372538
 20
-25.134046458
 10
-0.5082115275
 20
-25.1083004643
 10
-0.4986010814
 20
-25.0819063582
 10
-0.491803382
 20
-25.0551814136
 10
-0.487708365
 20
-25.0273874012
  0
LWPOLYLINE
  5
4AD
100
AcDbEntity
  8
0
100
AcDbPolyline
 62
7
  6
CONTINUOUS
 90
5
 70
0
 10
-1.1508448916
 20
-25.5236391351
 10
-1.1423609524
 20
-25.518305814
 10
-1.1301669402
 20
-25.5073723589
 10
-1.1198924055
 20
-25.4936747325
 10
-1.1117102733
 20
-25.4774462965
  0
LWPOLYLINE
  5
4AE
100
AcDbEntity
  8
0
100
AcDbPolyline
 62
253
  6
CONTINUOUS
 90
7
 70
0
 10
-0.5427121065
 20
-24.7328760139
 10
-0.5259818615
 20
-24.7230092679
 10
-0.5119388716
 20
-24.7121452726
 10
-0.5008181112
 20
-24.7004658132
 10
-0.4928056577
 20
-24.6881663194
 10
-0.4880355775
 20
-24.6754525956
 10
-0.4865800665
 20
-24.6634101071
  0
LWPOLYLINE
  5
4AF
100
AcDbEntity
  8
0
100
AcDbPolyline
 62
253
  6
CONTINUOUS
 90
7
 70
0
 10
-0.5427121065
 20
-25.0728196087
 10
-0.5259818913
 20
-25.0629529036
 10
-0.5119389156
 20
-25.0520889448
 10
-0.500818156
 20
-25.0404095154
 10
-0.4928056927
 20
-25.0281100438
 10
-0.4880355958
 20
-25.0153963332
 10
-0.4865800665
 20
-25.0033537717
  0
LWPOLYLINE
  5
4B0
100
AcDbEntity
  8
0
100
AcDbPolyline
 62
253
  6
CONTINUOUS
 90
8
 70
0
 10
-2.7779245731
 20
-26.2752377575
 10
-2.765300682
 20
-26.2678331532
 10
-2.7530756625
 20
-26.2568857054
 10
-2.742709891
 20
-26.2431466123
 10
-2.7343806584
 20
-26.2268508632
 10
-2.728230424
 20
-26.2082771753
 10
-2.7243643783
 20
-26.1877432274
 10
-2.7228486436
 20
-26.1656002252
  0
LINE
  5
4B1
100
AcDbEntity
  8
0
100
AcDbLine
 62
7
  6
CONTINUOUS
 10
-0.6258475104
 20
-25.2403907236
 11
-0.6141371087
 21
-25.2336517705
  0
LINE
  5
4B2
100
AcDbEntity
  8
0
100
AcDbLine
 62
7
  6
CONTINUOUS
 10
-0.8731595501
 20
-23.7831761558
 11
-0.8651967883
 21
-23.7786217649
  0
LWPOLYLINE
  5
4B3
100
AcDbEntity
  8
0
100
AcDbPolyline
 62
253
  6
CONTINUOUS
 90
28
 70
0
 10
-0.5768440504
 20
-25.1337866152
 10
-0.5750865962
 20
-25.132794523
 10
-0.5733086508
 20
-25.1316635505
 10
-0.5715102144
 20
-25.1303936977
 10
-0.5696809488
 20
-25.1289830802
 10
-0.5678311922
 20
-25.1274335824
 10
-0.5659919589
 20
-25.1257508575
 10
-0.5641628901
 20
-25.123930217
 10
-0.5623443446
 20
-25.1219763494
 10
-0.5605684135
 20
-25.1199089741
 10
-0.5588364351
 20
-25.1177247925
 10
-0.5571470711
 20
-25.1154271032
 10
-0.5555283975
 20
-25.1130455207
 10
-0.5539831462
 20
-25.110579672
 10
-0.5525085853
 20
-25.1080299302
 10
-0.5511245951
 20
-25.1054270295
 10
-0.5498332908
 20
-25.1027715601
 10
-0.5486325572
 20
-25.1000629318
 10
-0.5475359292
 20
-25.0973301077
 10
-0.5465446021
 20
-25.0945726595
 10
-0.5456573806
 20
-25.0917910156
 10
-0.544884214
 20
-25.0890154239
 10
-0.5442264987
 20
-25.0862459617
 10
-0.5436828382
 20
-25.0834825518
 10
-0.5432589927
 20
-25.08075521
 10
-0.5429568823
 20
-25.0780739415
 10
-0.5427745869
 20
-25.0754287411
 10
-0.5427121065
 20
-25.0728196087
  0
LINE
  5
4B4
100
AcDbEntity
  8
0
100
AcDbLine
 62
253
  6
CONTINUOUS
 10
-0.7473951264
 20
-23.5149082949
 11
-0.05263094
 21
-23.1400670773
  0
LINE
  5
4B5
100
AcDbEntity
  8
0
100
AcDbLine
 62
7
  6
CONTINUOUS
 10
-0.8731351088
 20
-23.7831627526
 11
-0.1773078398
 21
-23.4077479776
  0
LINE
  5
4B6
100
AcDbEntity
  8
0
100
AcDbLine
 62
253
  6
CONTINUOUS
 10
-1.100948517
 20
-25.4165529988
 11
-0.5768440504
 21
-25.1337866152
  0
LINE
  5
4B7
100
AcDbEntity
  8
0
100
AcDbLine
 62
7
  6
CONTINUOUS
 10
-1.1508014572
 20
-25.5236157448
 11
-0.6257472464
 21
-25.2403369524
  0
LINE
  5
4B8
100
AcDbEntity
  8
0
100
AcDbLine
 62
7
  6
CONTINUOUS
 10
-1.1550113282
 20
-25.5257226395
 11
-1.1508448916
 21
-25.5236391351
  0
LWPOLYLINE
  5
4B9
100
AcDbEntity
  8
0
100
AcDbPolyline
 62
7
  6
CONTINUOUS
 90
16
 70
0
 10
-6.4213961213
 20
-25.3027735259
 10
-6.4587011473
 20
-25.3206369068
 10
-6.4989814618
 20
-25.3365688006
 10
-6.5418465182
 20
-25.3504147362
 10
-6.5868807087
 20
-25.362040467
 10
-6.6336473942
 20
-25.3713332733
 10
-6.681693138
 20
-25.3782030547
 10
-6.7305521018
 20
-25.3825832035
 10
-6.7797505627
 20
-25.3844312511
 10
-6.828811506
 20
-25.3837292794
 10
-6.8772592503
 20
-25.3804840943
 10
-6.9246240599
 20
-25.3747271605
 10
-6.9704466986
 20
-25.3665142957
 10
-7.0142828828
 20
-25.3559251298
 10
-7.055707589
 20
-25.3430623322
 10
-7.0943191748
 20
-25.328050617
  0
LINE
  5
4BA
100
AcDbEntity
  8
0
100
AcDbLine
 62
7
  6
CONTINUOUS
 10
-0.8909088866
 20
-23.7915993664
 11
-0.8731595501
 21
-23.7831761558
  0
LINE
  5
4BB
100
AcDbEntity
  8
0
100
AcDbLine
 62
7
  6
CONTINUOUS
 10
-5.938499991
 20
-25.6532347777
 11
-4.7383217578
 21
-25.158840547
  0
LINE
  5
4BC
100
AcDbEntity
  8
0
100
AcDbLine
 62
253
  6
CONTINUOUS
 10
-4.7383217578
 20
-25.158840547
 11
-0.7473951264
 21
-23.5148421414
  0
LINE
  5
4BD
100
AcDbEntity
  8
0
100
AcDbLine
 62
7
  6
CONTINUOUS
 10
-0.8909590182
 20
-23.7916200199
 11
-6.0924493671
 21
-25.9342906406
  0
LWPOLYLINE
  5
4BE
100
AcDbEntity
  8
0
100
AcDbPolyline
 62
7
  6
CONTINUOUS
 90
4
 70
0
 10
1.6024887406
 20
21.3956913948
 10
1.5436013933
 20
21.3806982391
 10
1.4845442743
 20
21.3601816064
 10
1.4309757203
 20
21.3368161686
  0
LWPOLYLINE
  5
4BF
100
AcDbEntity
  8
0
100
AcDbPolyline
 62
7
  6
CONTINUOUS
 90
5
 70
0
 10
-1.8193897992
 20
20.7540110579
 10
-1.860608184
 20
20.7518869346
 10
-1.9016965206
 20
20.7463243965
 10
-1.9408062414
 20
20.7375288424
 10
-1.9775364535
 20
20.7257286581
  0
LWPOLYLINE
  5
4C0
100
AcDbEntity
  8
0
100
AcDbPolyline
 62
7
  6
CONTINUOUS
 90
5
 70
0
 10
-11.6380399643
 20
21.6623392226
 10
-11.6206139907
 20
21.6618042562
 10
-11.6027241261
 20
21.658702856
 10
-11.5845052108
 20
21.6531051027
 10
-11.5661558025
 20
21.6451040267
  0
LWPOLYLINE
  5
4C1
100
AcDbEntity
  8
0
100
AcDbPolyline
 62
7
  6
CONTINUOUS
 90
5
 70
0
 10
-7.2737505527
 20
23.5373723143
 10
-7.3114358651
 20
23.5488197504
 10
-7.3508048359
 20
23.5571104849
 10
-7.3918500971
 20
23.5621970278
 10
-7.43263281
 20
23.5639095825
  0
LWPOLYLINE
  5
4C2
100
AcDbEntity
  8
0
100
AcDbPolyline
 62
253
  6
CONTINUOUS
 90
10
 70
0
 10
-2.7165758489
 20
23.6984428358
 10
-2.7596068771
 20
23.7167699785
 10
-2.803940696
 20
23.7296531281
 10
-2.8502012138
 20
23.7374537793
 10
-2.8981363273
 20
23.7401299311
 10
-2.9474862537
 20
23.7376682355
 10
-2.9979787724
 20
23.7300809521
 10
-3.0493375793
 20
23.7174094706
 10
-3.1012837699
 20
23.69972416
 10
-3.1535337598
 20
23.6771220213
  0
LWPOLYLINE
  5
4C3
100
AcDbEntity
  8
0
100
AcDbPolyline
 62
7
  6
CONTINUOUS
 90
8
 70
0
 10
1.9756150089
 20
21.3523447189
 10
1.9328524079
 20
21.3714757395
 10
1.8826447155
 20
21.3884322685
 10
1.8298613094
 20
21.4005470382
 10
1.7749401338
 20
21.4075045757
 10
1.7185143248
 20
21.4090712831
 10
1.660936737
 20
21.4051499013
 10
1.6024887406
 20
21.3956913948
  0
LINE
  5
4C4
100
AcDbEntity
  8
DRAFT
100
AcDbLine
 62
7
  6
CONTINUOUS
 10
23.9475476958
 20
10.2472000158
 11
23.930631537
 21
10.2556580952
  0
LINE
  5
4C5
100
AcDbEntity
  8
0
100
AcDbLine
 62
7
  6
CONTINUOUS
 10
1.9747901886
 20
21.352759817
 11
4.9504188785
 21
19.8649454721
  0
LINE
  5
4C6
100
AcDbEntity
  8
RACCORDO
100
AcDbLine
 62
7
  6
CONTINUOUS
 10
20.8141405376
 20
11.9952881358
 11
20.4089421935
 21
12.1978873078
  0
LINE
  5
4C7
100
AcDbEntity
  8
SMUSSO
100
AcDbLine
 62
7
  6
CONTINUOUS
 10
21.1646085145
 20
12.1736075379
 11
20.7624955841
 21
12.3746640031
  0
LINE
  5
4C8
100
AcDbEntity
  8
SMUSSO
100
AcDbLine
 62
7
  6
CONTINUOUS
 10
21.6354751208
 20
12.4131862078
 11
21.2375075571
 21
12.6121699896
  0
LINE
  5
4C9
100
AcDbEntity
  8
SMUSSO
100
AcDbLine
 62
7
  6
CONTINUOUS
 10
25.0064700006
 20
10.7670625014
 11
24.9912917088
 21
10.7746516473
  0
LINE
  5
4CA
100
AcDbEntity
  8
RACCORDO
100
AcDbLine
 62
7
  6
CONTINUOUS
 10
21.7079802992
 20
12.8474063607
 11
21.9860878888
 21
12.7083525659
  0
LINE
  5
4CB
100
AcDbEntity
  8
0
100
AcDbLine
 62
7
  6
CONTINUOUS
 10
-2.7162945921
 20
23.698302063
 11
-5.6922032966
 21
25.1862565596
  0
LWPOLYLINE
  5
4CC
100
AcDbEntity
  8
RACCORDO
100
AcDbPolyline
 62
7
  6
CONTINUOUS
 90
8
 70
0
 10
21.9860878888
 20
12.7083525659
 10
22.0019616235
 20
12.7001242889
 10
22.0177978092
 20
12.6913357021
 10
22.0335964459
 20
12.6819868055
 10
22.0493746458
 20
12.6720662432
 10
22.0651152966
 20
12.6615853711
 10
22.080767062
 20
12.6505782568
 10
22.0894277946
 20
12.6441590062
  0
LWPOLYLINE
  5
4CD
100
AcDbEntity
  8
RACCORDO
100
AcDbPolyline
 62
253
  6
CONTINUOUS
 90
10
 70
0
 10
19.6604119511
 20
11.4878101362
 10
19.5710886954
 20
11.5422367541
 10
19.4821355227
 20
11.5969148632
 10
19.393552433
 20
11.6518444635
 10
19.3053487417
 20
11.7070339687
 10
19.2175151333
 20
11.7624749651
 10
19.1300236621
 20
11.8181422116
 10
19.0428650128
 20
11.8740272944
 10
18.9560485007
 20
11.9301386272
 10
18.8695741257
 20
11.9864762102
  0
LWPOLYLINE
  5
4CE
100
AcDbEntity
  8
RACCORDO
100
AcDbPolyline
 62
7
  6
CONTINUOUS
 90
9
 70
0
 10
19.6527926287
 20
11.5837860646
 10
19.5878814863
 20
11.6237235592
 10
19.4968815458
 20
11.6801571859
 10
19.4042203713
 20
11.7381463634
 10
19.3099148626
 20
11.797700361
 10
19.2139814825
 20
11.8588277046
 10
19.1164371231
 20
11.9215366691
 10
19.0172994973
 20
11.985835545
 10
18.9443155866
 20
12.0335312552
  0
LINE
  5
4CF
100
AcDbEntity
  8
SMUSSO
100
AcDbLine
 62
7
  6
CONTINUOUS
 10
25.7136844858
 20
5.8512245966
 11
25.0064700006
 21
6.4369354825
  0
LWPOLYLINE
  5
4D0
100
AcDbEntity
  8
ASSI
100
AcDbPolyline
 62
7
  6
CONTINUOUS
 90
9
 70
0
 10
18.7032168215
 20
12.9541299708
 10
18.7252238781
 20
12.8881061657
 10
18.7673818482
 20
12.7906619639
 10
18.8167575692
 20
12.7010837106
 10
18.8732323815
 20
12.61924209
 10
18.9358675545
 20
12.546497483
 10
19.0047660569
 20
12.4830019434
 10
19.07982492
 20
12.4286034174
 10
19.1472091216
 20
12.3903564358
  0
LINE
  5
4D1
100
AcDbEntity
  8
SMUSSO
100
AcDbLine
 62
7
  6
CONTINUOUS
 10
15.628812319
 20
30.7236443426
 11
15.8183241501
 21
29.7627311134
  0
LINE
  5
4D2
100
AcDbEntity
  8
SMUSSO
100
AcDbLine
 62
7
  6
CONTINUOUS
 10
22.889391962
 20
26.2271972074
 11
22.889391962
 21
25.7881265156
  0
LINE
  5
4D3
100
AcDbEntity
  8
ASSI
100
AcDbLine
 62
7
  6
CONTINUOUS
 10
23.8245655198
 20
13.6510683685
 11
23.8245655198
 21
16.5642696018
  0
LINE
  5
4D4
100
AcDbEntity
  8
ASSI
100
AcDbLine
 62
7
  6
CONTINUOUS
 10
23.8245655198
 20
17.9811953874
 11
23.8245655198
 21
20.8943966207
  0
LINE
  5
4D5
100
AcDbEntity
  8
DRAFT
100
AcDbLine
 62
7
  6
CONTINUOUS
 10
23.930631537
 20
11.3874403035
 11
23.930631537
 21
10.2556580952
  0
LINE
  5
4D6
100
AcDbEntity
  8
DRAFT
100
AcDbLine
 62
7
  6
CONTINUOUS
 10
23.930631537
 20
7.0573132846
 11
23.930631537
 21
5.9255310763
  0
LINE
  5
4D7
100
AcDbEntity
  8
DRAFT
100
AcDbLine
 62
7
  6
CONTINUOUS
 10
23.930631537
 20
2.7271862656
 11
23.930631537
 21
1.5954040574
  0
LINE
  5
4D8
100
AcDbEntity
  8
DRAFT
100
AcDbLine
 62
7
  6
CONTINUOUS
 10
23.930631537
 20
-1.6029407533
 11
23.930631537
 21
-2.7347229615
  0
LINE
  5
4D9
100
AcDbEntity
  8
ASSI
100
AcDbLine
 62
7
  6
CONTINUOUS
 10
24.8852256916
 20
14.1813984544
 11
24.8852256916
 21
17.113442482
  0
LINE
  5
4DA
100
AcDbEntity
  8
ASSI
100
AcDbLine
 62
7
  6
CONTINUOUS
 10
24.8852256916
 20
18.5115254733
 11
24.8852256916
 21
21.443569501
  0
LINE
  5
4DB
100
AcDbEntity
  8
DRAFT
100
AcDbLine
 62
7
  6
CONTINUOUS
 10
24.9912917088
 20
11.9481511128
 11
24.9912917088
 21
10.7746516473
  0
LINE
  5
4DC
100
AcDbEntity
  8
DRAFT
100
AcDbLine
 62
7
  6
CONTINUOUS
 10
24.9912917088
 20
7.6180240939
 11
24.9912917088
 21
6.4445246284
  0
LINE
  5
4DD
100
AcDbEntity
  8
DRAFT
100
AcDbLine
 62
7
  6
CONTINUOUS
 10
24.9912917088
 20
3.287897075
 11
24.9912917088
 21
2.1143976095
  0
LINE
  5
4DE
100
AcDbEntity
  8
DRAFT
100
AcDbLine
 62
7
  6
CONTINUOUS
 10
24.9912917088
 20
-1.0422299439
 11
24.9912917088
 21
-2.2157294094
  0
LINE
  5
4DF
100
AcDbEntity
  8
0
100
AcDbLine
 62
253
  6
CONTINUOUS
 10
-1.100948517
 20
-25.4165529988
 11
-2.7228486436
 21
-26.1656002252
  0
LINE
  5
4E0
100
AcDbEntity
  8
0
100
AcDbLine
 62
7
  6
CONTINUOUS
 10
-2.7781558911
 20
-26.2753441085
 11
-1.1550671339
 21
-25.5257484124
  0
LWPOLYLINE
  5
4E1
100
AcDbEntity
  8
0
100
AcDbPolyline
 62
253
  6
CONTINUOUS
 90
28
 70
0
 10
-2.7228486436
 20
-26.1656002252
 10
-2.7245704854
 20
-26.1663599635
 10
-2.7263252034
 20
-26.1670144747
 10
-2.7281127979
 20
-26.1675637589
 10
-2.7299439303
 20
-26.1680182427
 10
-2.731807939
 20
-26.1683674995
 10
-2.7336728393
 20
-26.1685802495
 10
-2.7355395053
 20
-26.1686524978
 10
-2.7374070628
 20
-26.1685882392
 10
-2.739240905
 20
-26.1683681785
 10
-2.741040496
 20
-26.1679873808
 10
-2.7428063717
 20
-26.1674507809
 10
-2.7445055326
 20
-26.1667538881
 10
-2.7461354212
 20
-26.1658926101
 10
-2.7476985951
 20
-26.1648710393
 10
-2.7491697264
 20
-26.1636969615
 10
-2.7505462515
 20
-26.1623679436
 10
-2.7518307342
 20
-26.1608864187
 10
-2.7530055374
 20
-26.1592674725
 10
-2.7540689074
 20
-26.1575090622
 10
-2.755022598
 20
-26.1556132305
 10
-2.755854234
 20
-26.1536011916
 10
-2.7565620181
 20
-26.1514711098
 10
-2.7571477475
 20
-26.1492248208
 10
-2.7576044394
 20
-26.1468890454
 10
-2.7579297659
 20
-26.1444726906
 10
-2.7581260549
 20
-26.1419668495
 10
-2.7581933063
 20
-26.139371522
  0
LINE
  5
4E2
100
AcDbEntity
  8
0
100
AcDbLine
 62
7
  6
CONTINUOUS
 10
-4.0272669642
 20
22.6205986301
 11
-2.4455744855
 21
22.7008386224
  0
LWPOLYLINE
  5
4E3
100
AcDbEntity
  8
0
100
AcDbPolyline
 62
7
  6
CONTINUOUS
 90
5
 70
0
 10
-7.43263281
 20
23.5639095825
 10
-7.473220389
 20
23.5623670739
 10
-7.513804034
 20
23.5575008306
 10
-7.5525716279
 20
23.5494927095
 10
-7.589128405
 20
23.5385468656
  0
LWPOLYLINE
  5
4E4
100
AcDbEntity
  8
ASSI
100
AcDbPolyline
 62
7
  6
CONTINUOUS
 90
11
 70
0
 10
19.1472091216
 20
16.7204834547
 10
19.1597965067
 20
16.7143331422
 10
19.244762932
 20
16.6801042479
 10
19.3346420809
 20
16.6558765856
 10
19.4279399721
 20
16.6420528703
 10
19.5247137489
 20
16.638807001
 10
19.624906268
 20
16.6459650786
 10
19.7268521178
 20
16.6634081207
 10
19.8299961612
 20
16.6910964666
 10
19.9348935355
 20
16.7290697771
 10
20.0415442405
 20
16.7773280521
  0
LINE
  5
4E5
100
AcDbEntity
  8
RACCORDO
100
AcDbLine
 62
7
  6
CONTINUOUS
 10
19.8915364162
 20
15.7061813168
 11
19.8914477891
 21
15.7062256231
  0
LINE
  5
4E6
100
AcDbEntity
  8
DRAFT
100
AcDbLine
 62
7
  6
CONTINUOUS
 10
23.9475476958
 20
13.5895772805
 11
23.8245655198
 21
13.6510683685
  0
LINE
  5
4E7
100
AcDbEntity
  8
RACCORDO
100
AcDbLine
 62
7
  6
CONTINUOUS
 10
25.5015201378
 20
13.8732512313
 11
24.8852256916
 21
14.1813984544
  0
LWPOLYLINE
  5
4E8
100
AcDbEntity
  8
RACCORDO
100
AcDbPolyline
 62
7
  6
CONTINUOUS
 90
15
 70
0
 10
19.8915383167
 20
15.7061803772
 10
19.8863734773
 20
15.7087946039
 10
19.8657904059
 20
15.7198836046
 10
19.8458306861
 20
15.7317085787
 10
19.8264921357
 20
15.7442366077
 10
19.8077486846
 20
15.7574500071
 10
19.7895539694
 20
15.7713510255
 10
19.7718954019
 20
15.7859229748
 10
19.7547713611
 20
15.8011400793
 10
19.7381589214
 20
15.8169966498
 10
19.7220516729
 20
15.8334750129
 10
19.7064506563
 20
15.8505491779
 10
19.6913479135
 20
15.8682026314
 10
19.6767402486
 20
15.8864146781
 10
19.6632884653
 20
15.9042554388
  0
LWPOLYLINE
  5
4E9
100
AcDbEntity
  8
RACCORDO
100
AcDbPolyline
 62
253
  6
CONTINUOUS
 90
10
 70
0
 10
19.6604119511
 20
15.8179371551
 10
19.5710886954
 20
15.872363773
 10
19.4821355227
 20
15.9270418822
 10
19.393552433
 20
15.9819714825
 10
19.3053487417
 20
16.0371609877
 10
19.2175151333
 20
16.092601984
 10
19.1300236621
 20
16.1482692305
 10
19.0428650128
 20
16.2041543133
 10
18.9560485007
 20
16.2602656462
 10
18.8695741257
 20
16.3166032291
  0
LWPOLYLINE
  5
4EA
100
AcDbEntity
  8
RACCORDO
100
AcDbPolyline
 62
7
  6
CONTINUOUS
 90
9
 70
0
 10
19.6527926287
 20
15.9139130836
 10
19.5878814863
 20
15.9538505781
 10
19.4968815458
 20
16.0102842048
 10
19.4042203713
 20
16.0682733823
 10
19.3099148626
 20
16.12782738
 10
19.2139814825
 20
16.1889547235
 10
19.1164371231
 20
16.251663688
 10
19.0172994973
 20
16.3159625639
 10
18.9443155866
 20
16.3636582741
  0
LINE
  5
4EB
100
AcDbEntity
  8
SMUSSO
100
AcDbLine
 62
7
  6
CONTINUOUS
 10
25.7136844858
 20
10.1813516155
 11
25.0064700006
 21
10.7670625014
  0
LWPOLYLINE
  5
4EC
100
AcDbEntity
  8
RACCORDO
100
AcDbPolyline
 62
7
  6
CONTINUOUS
 90
6
 70
0
 10
19.6632877432
 20
11.5741294067
 10
19.6618741449
 20
11.5759409669
 10
19.65942563
 20
11.5786066799
 10
19.6567415767
 20
11.5810026389
 10
19.653834371
 20
11.5831229729
 10
19.6527951852
 20
11.5837831701
  0
LWPOLYLINE
  5
4ED
100
AcDbEntity
  8
RACCORDO
100
AcDbPolyline
 62
7
  6
CONTINUOUS
 90
6
 70
0
 10
19.6632877432
 20
15.9042564256
 10
19.6618741449
 20
15.9060679858
 10
19.65942563
 20
15.9087336989
 10
19.6567415767
 20
15.9111296578
 10
19.653834371
 20
15.9132499918
 10
19.6527951852
 20
15.913910189
  0
LWPOLYLINE
  5
4EE
100
AcDbEntity
  8
ASSI
100
AcDbPolyline
 62
7
  6
CONTINUOUS
 90
9
 70
0
 10
18.7032168215
 20
17.2842569898
 10
18.7252238781
 20
17.2182331846
 10
18.7673818482
 20
17.1207889828
 10
18.8167575692
 20
17.0312107295
 10
18.8732323815
 20
16.949369109
 10
18.9358675545
 20
16.8766245019
 10
19.0047660569
 20
16.8131289623
 10
19.07982492
 20
16.7587304363
 10
19.1472091216
 20
16.7204834547
  0
LINE
  5
4EF
100
AcDbEntity
  8
SMUSSO
100
AcDbLine
 62
7
  6
CONTINUOUS
 10
19.1643462249
 20
28.9558773897
 11
19.3538580561
 21
27.9949641604
  0
LINE
  5
4F0
100
AcDbEntity
  8
RACCORDO
100
AcDbLine
 62
7
  6
CONTINUOUS
 10
25.7136844858
 20
24.1693592036
 11
25.7136844858
 21
21.9944103933
  0
LINE
  5
4F1
100
AcDbEntity
  8
RACCORDO
100
AcDbLine
 62
7
  6
CONTINUOUS
 10
25.7136844858
 20
17.8374884551
 11
25.7136844858
 21
17.6642833743
  0
LINE
  5
4F2
100
AcDbEntity
  8
RACCORDO
100
AcDbLine
 62
7
  6
CONTINUOUS
 10
25.7136844858
 20
13.5073614362
 11
25.7136844858
 21
12.3300391571
  0
LINE
  5
4F3
100
AcDbEntity
  8
SMUSSO
100
AcDbLine
 62
7
  6
CONTINUOUS
 10
25.7136844858
 20
10.1813516155
 11
25.7136844858
 21
7.9999121382
  0
LINE
  5
4F4
100
AcDbEntity
  8
SMUSSO
100
AcDbLine
 62
7
  6
CONTINUOUS
 10
25.7136844858
 20
5.8512245966
 11
25.7136844858
 21
3.6697851193
  0
LINE
  5
4F5
100
AcDbEntity
  8
SMUSSO
100
AcDbLine
 62
7
  6
CONTINUOUS
 10
25.7136844858
 20
1.5210975777
 11
25.7136844858
 21
-0.6603418996
  0
LINE
  5
4F6
100
AcDbEntity
  8
SMUSSO
100
AcDbLine
 62
7
  6
CONTINUOUS
 10
25.7136844858
 20
-2.8090294413
 11
25.7136844858
 21
-5.9880954498
  0
LINE
  5
4F7
100
AcDbEntity
  8
DRAFT
100
AcDbLine
 62
7
  6
CONTINUOUS
 10
23.9475476958
 20
17.9197042994
 11
23.8245655198
 21
17.9811953874
  0
LINE
  5
4F8
100
AcDbEntity
  8
RACCORDO
100
AcDbLine
 62
7
  6
CONTINUOUS
 10
25.5015201378
 20
18.2033782502
 11
24.8852256916
 21
18.5115254733
  0
LINE
  5
4F9
100
AcDbEntity
  8
SMUSSO
100
AcDbLine
 62
7
  6
CONTINUOUS
 10
22.6998801308
 20
27.1881104367
 11
22.889391962
 21
26.2271972074
  0
LINE
  5
4FA
100
AcDbEntity
  8
0
100
AcDbLine
 62
7
  6
CONTINUOUS
 10
15.9604844039
 20
25.8969528028
 11
16.1145071448
 21
25.8199414323
  0
LINE
  5
4FB
100
AcDbEntity
  8
0
100
AcDbLine
 62
7
  6
CONTINUOUS
 10
19.2919750419
 20
24.027567933
 11
19.4148135669
 21
23.9415809654
  0
LINE
  5
4FC
100
AcDbEntity
  8
DRAFT
100
AcDbLine
 62
7
  6
CONTINUOUS
 10
14.7669202195
 20
28.788702215
 11
14.9445395141
 21
28.6998925677
  0
LINE
  5
4FD
100
AcDbEntity
  8
DRAFT
100
AcDbLine
 62
7
  6
CONTINUOUS
 10
18.3024541254
 20
27.0209352621
 11
18.48007342
 21
26.9321256148
  0
LINE
  5
4FE
100
AcDbEntity
  8
DRAFT
100
AcDbLine
 62
7
  6
CONTINUOUS
 10
21.8379880313
 20
25.2531683091
 11
22.0156073259
 21
25.1643586618
  0
LINE
  5
4FF
100
AcDbEntity
  8
DRAFT
100
AcDbLine
 62
7
  6
CONTINUOUS
 10
15.8183241501
 20
29.3236604215
 11
16.037828255
 21
29.213908369
  0
LINE
  5
500
100
AcDbEntity
  8
DRAFT
100
AcDbLine
 62
7
  6
CONTINUOUS
 10
19.3538580561
 20
27.5558934685
 11
19.5733621609
 21
27.4461414161
  0
LINE
  5
501
100
AcDbEntity
  8
DRAFT
100
AcDbLine
 62
7
  6
CONTINUOUS
 10
22.889391962
 20
25.7881265156
 11
23.1088960669
 21
25.6783744631
  0
LINE
  5
502
100
AcDbEntity
  8
SMUSSO
100
AcDbLine
 62
7
  6
CONTINUOUS
 10
11.7754410643
 20
32.65032997
 11
15.628812319
 21
30.7236443426
  0
LINE
  5
503
100
AcDbEntity
  8
SMUSSO
100
AcDbLine
 62
7
  6
CONTINUOUS
 10
17.3832083502
 20
29.846446327
 11
19.1643462249
 21
28.9558773897
  0
LINE
  5
504
100
AcDbEntity
  8
SMUSSO
100
AcDbLine
 62
7
  6
CONTINUOUS
 10
20.9187422561
 20
28.0786793741
 11
22.6998801308
 21
27.1881104367
  0
LINE
  5
505
100
AcDbEntity
  8
SMUSSO
100
AcDbLine
 62
7
  6
CONTINUOUS
 10
24.454276162
 20
26.3109124211
 11
24.7721135107
 21
26.1519937468
  0
LINE
  5
506
100
AcDbEntity
  8
RACCORDO
100
AcDbLine
 62
7
  6
CONTINUOUS
 10
25.2720373583
 20
25.6484174875
 11
25.2995340102
 21
25.6009927782
  0
ELLIPSE
  5
507
100
AcDbEntity
  8
0
100
AcDbEllipse
 62
7
  6
CONTINUOUS
 10
-4.5280409717
 20
-8.3251193566
 30
0.0
 11
0.132308947
 21
0.2692527733
 31
0.0
 40
0.607010042
 41
0.6892518406
 42
2.2513082869
  0
ELLIPSE
  5
508
100
AcDbEntity
  8
0
100
AcDbEllipse
 62
7
  6
CONTINUOUS
 10
-2.2850459196
 20
-6.466843873
 30
0.0
 11
0.2205149116
 21
0.4487546221
 31
0.0
 40
0.607010042
 41
-2.452340813
 42
-0.8902711325
  0
ELLIPSE
  5
509
100
AcDbEntity
  8
0
100
AcDbEllipse
 62
7
  6
CONTINUOUS
 10
-2.2850459196
 20
-3.9217044629
 30
0.0
 11
0.2205149116
 21
0.4487546221
 31
0.0
 40
0.607010042
 41
5.3929141747
 42
6.4833077502
  0
ELLIPSE
  5
50A
100
AcDbEntity
  8
0
100
AcDbEllipse
 62
7
  6
CONTINUOUS
 10
-4.5280409717
 20
-4.3459173267
 30
0.0
 11
0.132308947
 21
0.2692527733
 31
0.0
 40
0.607010042
 41
2.2513347556
 42
3.8133912016
  0
ELLIPSE
  5
50B
100
AcDbEntity
  8
0
100
AcDbEllipse
 62
7
  6
CONTINUOUS
 10
-8.6809996482
 20
20.6411301863
 30
0.0
 11
-0.1172693628
 21
0.2208586762
 31
0.0
 40
0.5994421146
 41
-2.2699607138
 42
-0.6994689735
  0
ELLIPSE
  5
50C
100
AcDbEntity
  8
0
100
AcDbEllipse
 62
7
  6
CONTINUOUS
 10
-0.4062381867
 20
14.9384161624
 30
0.0
 11
-0.2235807756
 21
0.4472283268
 31
0.0
 40
0.6125552124
 41
-2.255296188
 42
-0.6848044477
  0
ELLIPSE
  5
50D
100
AcDbEntity
  8
0
100
AcDbEllipse
 62
7
  6
CONTINUOUS
 10
-7.1726507843
 20
19.8869557543
 30
0.0
 11
-0.1174113663
 21
0.2209958577
 31
0.0
 40
0.5985429242
 41
-0.6989839728
 42
-0.0337839605
  0
ELLIPSE
  5
50E
100
AcDbEntity
  8
0
100
AcDbEllipse
 62
7
  6
CONTINUOUS
 10
-0.4062381867
 20
-22.9631315441
 30
0.0
 11
-0.2237009107
 21
0.4473351135
 31
0.0
 40
0.6121897086
 41
-3.1223332426
 42
-2.2557347926
  0
ELLIPSE
  5
50F
100
AcDbEntity
  8
0
100
AcDbEllipse
 62
7
  6
CONTINUOUS
 10
4.8797565977
 20
18.7822426237
 30
0.0
 11
0.4349639225
 21
0.9005141702
 31
0.0
 40
0.6016116119
 41
-0.8943064336
 42
-0.6381625531
  0
ELLIPSE
  5
510
100
AcDbEntity
  8
0
100
AcDbEllipse
 62
7
  6
CONTINUOUS
 10
4.8797565977
 20
-17.950817166
 30
0.0
 11
0.4349639225
 21
0.9005141702
 31
0.0
 40
0.6016116119
 41
-1.150450314
 42
-0.9656973067
  0
ELLIPSE
  5
511
100
AcDbEntity
  8
0
100
AcDbEllipse
 62
7
  6
CONTINUOUS
 10
5.0554058493
 20
-18.0386417918
 30
0.0
 11
0.9927147821
 21
0.620457446
 31
0.0
 40
0.0764819879
 41
-2.3927159682
 42
-1.0955168143
  0
ELLIPSE
  5
512
100
AcDbEntity
  8
0
100
AcDbEllipse
 62
7
  6
CONTINUOUS
 10
-6.6916174583
 20
24.5679296517
 30
0.0
 11
1.004787277
 21
0.6140102217
 31
0.0
 40
0.0864918533
 41
0.0543686983
 42
0.7212730538
  0
ELLIPSE
  5
513
100
AcDbEntity
  8
0
100
AcDbEllipse
 62
7
  6
CONTINUOUS
 10
0.4665445663
 20
71.5265384306
 30
0.0
 11
3.5378457856
 21
99.5794032239
 31
0.0
 40
0.0069684374
 41
-2.1126796178
 42
-2.1122241571
  0
ELLIPSE
  5
514
100
AcDbEntity
  8
0
100
AcDbEllipse
 62
7
  6
CONTINUOUS
 10
-1.7242898737
 20
20.2926485457
 30
0.0
 11
1.000203771
 21
-0.0143477891
 31
0.0
 40
0.4891226537
 41
-0.7775824994
 42
-0.0732257619
  0
ELLIPSE
  5
515
100
AcDbEntity
  8
0
100
AcDbEllipse
 62
7
  6
CONTINUOUS
 10
-2.6223781089
 20
22.789240434
 30
0.0
 11
0.2503214863
 21
-0.0601325557
 31
0.0
 40
0.261363135
 41
-0.7257858084
 42
0.0672477981
  0
ELLIPSE
  5
516
100
AcDbEntity
  8
0
100
AcDbEllipse
 62
7
  6
CONTINUOUS
 10
5.0554058493
 20
18.6944179979
 30
0.0
 11
-0.7356038977
 21
1.2035991204
 31
0.0
 40
0.5552491559
 41
4.9268361304
 42
6.2240352843
  0
ELLIPSE
  5
517
100
AcDbEntity
  8
0
100
AcDbEllipse
 62
7
  6
CONTINUOUS
 10
-4.3755102459
 20
-4.0657599248
 30
0.0
 11
0.2332600784
 21
0.442335334
 31
0.0
 40
0.6282300278
 41
2.2691055456
 42
3.8311752262
  0
ELLIPSE
  5
518
100
AcDbEntity
  8
0
100
AcDbEllipse
 62
7
  6
CONTINUOUS
 10
-4.3755102459
 20
-8.4749647718
 30
0.0
 11
0.2332600784
 21
0.442335334
 31
0.0
 40
0.6282300278
 41
0.7070358651
 42
2.2691055456
  0
ELLIPSE
  5
519
100
AcDbEntity
  8
0
100
AcDbEllipse
 62
7
  6
CONTINUOUS
 10
-2.162360023
 20
-3.9047686864
 30
0.0
 11
0.2332600784
 21
0.442335334
 31
0.0
 40
0.6282300278
 41
-0.8724871079
 42
0.6895825726
  0
ELLIPSE
  5
51A
100
AcDbEntity
  8
0
100
AcDbEllipse
 62
7
  6
CONTINUOUS
 10
-19.8787390443
 20
19.8434351847
 30
0.0
 11
-0.2236507175
 21
0.4481039483
 31
0.0
 40
0.6114248242
 41
-0.6832297371
 42
0.044462213
  0
ELLIPSE
  5
51B
100
AcDbEntity
  8
0
100
AcDbEllipse
 62
7
  6
CONTINUOUS
 10
-2.162360023
 20
-6.5357548679
 30
0.0
 11
0.2332600784
 21
0.442335334
 31
0.0
 40
0.6282300278
 41
-2.4345567885
 42
-0.8724871079
  0
ELLIPSE
  5
51C
100
AcDbEntity
  8
0
100
AcDbEllipse
 62
7
  6
CONTINUOUS
 10
10.6325398924
 20
26.2208336894
 30
0.0
 11
18.2927339069
 21
9.4748417608
 31
0.0
 40
0.0170707209
 41
-2.6536573066
 42
-2.3141694431
  0
ELLIPSE
  5
51D
100
AcDbEntity
  8
0
100
AcDbEllipse
 62
7
  6
CONTINUOUS
 10
10.6325398924
 20
26.2208336894
 30
0.0
 11
18.2927339069
 21
9.4748417608
 31
0.0
 40
0.0170707209
 41
2.2964861198
 42
2.6359739833
  0
ELLIPSE
  5
51E
100
AcDbEntity
  8
0
100
AcDbEllipse
 62
7
  6
CONTINUOUS
 10
-5.0919963439
 20
-24.9814092144
 30
0.0
 11
-0.2236507175
 21
0.4481039483
 31
0.0
 40
0.6114248242
 41
-3.1858607161
 42
-2.25539606
  0
ELLIPSE
  5
51F
100
AcDbEntity
  8
0
100
AcDbEllipse
 62
7
  6
CONTINUOUS
 10
-5.0919963439
 20
12.4500638345
 30
0.0
 11
-0.2231080361
 21
0.4476242326
 31
0.0
 40
0.6130677323
 41
-2.2534169372
 42
-0.6839906064
  0
ELLIPSE
  5
520
100
AcDbEntity
  8
0
100
AcDbEllipse
 62
7
  6
CONTINUOUS
 10
-5.3435892041
 20
74.4316053158
 30
0.0
 11
0.7093717925
 21
100.9935570733
 31
0.0
 40
0.0069790045
 41
-2.1156864167
 42
-2.1124724433
  0
ELLIPSE
  5
521
100
AcDbEntity
  8
0
100
AcDbEllipse
 62
7
  6
CONTINUOUS
 10
-5.3435892041
 20
21.593655667
 30
0.0
 11
1.0
 21
-0.0
 31
0.0
 40
0.5003427338
 41
0.7857407797
 42
1.3334966153
  0
ELLIPSE
  5
522
100
AcDbEntity
  8
0
100
AcDbEllipse
 62
7
  6
CONTINUOUS
 10
-5.3435892041
 20
22.102298211
 30
0.0
 11
0.9999753489
 21
-0.014348771
 31
0.0
 40
0.4893460778
 41
1.6585167088
 42
2.3628734463
  0
ELLIPSE
  5
523
100
AcDbEntity
  8
0
100
AcDbEllipse
 62
7
  6
CONTINUOUS
 10
-1.0868249405
 20
14.6009632684
 30
0.0
 11
41.2152542262
 21
22.501943358
 31
0.0
 40
0.0081048063
 41
1.5667140536
 42
1.5886117747
  0
ELLIPSE
  5
524
100
AcDbEntity
  8
0
100
AcDbEllipse
 62
7
  6
CONTINUOUS
 10
-1.7455848547
 20
19.7946534923
 30
0.0
 11
1.0006854676
 21
-0.0
 31
0.0
 40
0.499657501
 41
0.4960493912
 42
0.7850555471
  0
ELLIPSE
  5
525
100
AcDbEntity
  8
0
100
AcDbEllipse
 62
7
  6
CONTINUOUS
 10
-3.7972381596
 20
14.6818947481
 30
0.0
 11
0.249929385
 21
0.0111824824
 31
0.0
 40
0.5313301283
 41
-2.3799630874
 42
-0.8266200532
  0
ELLIPSE
  5
526
100
AcDbEntity
  8
0
100
AcDbEllipse
 62
7
  6
CONTINUOUS
 10
-16.3837388647
 20
20.9751451007
 30
0.0
 11
0.249929385
 21
0.0111824824
 31
0.0
 40
0.5313301283
 41
-2.3799630874
 42
-0.8266200532
  0
ELLIPSE
  5
527
100
AcDbEntity
  8
0
100
AcDbEllipse
 62
7
  6
CONTINUOUS
 10
-2.1770638603
 20
14.6243008478
 30
0.0
 11
0.249929385
 21
0.0111824824
 31
0.0
 40
0.5313301283
 41
-2.3799630874
 42
-1.125412988
  0
ELLIPSE
  5
528
100
AcDbEntity
  8
0
100
AcDbEllipse
 62
7
  6
CONTINUOUS
 10
-4.1967631827
 20
15.634150509
 30
0.0
 11
0.249929385
 21
0.0111824824
 31
0.0
 40
0.5313301283
 41
3.117765999
 42
3.9032222197
  0
ELLIPSE
  5
529
100
AcDbEntity
  8
0
100
AcDbEllipse
 62
7
  6
CONTINUOUS
 10
-16.7832638878
 20
21.9274008616
 30
0.0
 11
0.249929385
 21
0.0111824824
 31
0.0
 40
0.5313301283
 41
3.118062645
 42
3.9032222197
  0
ELLIPSE
  5
52A
100
AcDbEntity
  8
0
100
AcDbEllipse
 62
7
  6
CONTINUOUS
 10
-14.7635645654
 20
20.9175512004
 30
0.0
 11
0.249929385
 21
0.0111824824
 31
0.0
 40
0.5313301283
 41
-2.3799630874
 42
-0.8266200532
  0
ELLIPSE
  5
52B
100
AcDbEntity
  8
0
100
AcDbEllipse
 62
7
  6
CONTINUOUS
 10
-2.1770638603
 20
-24.6177371814
 30
0.0
 11
0.220014872
 21
0.1791173313
 31
0.0
 40
0.6627826692
 41
-2.8510033574
 42
-2.6599685648
  0
ELLIPSE
  5
52C
100
AcDbEntity
  8
0
100
AcDbEllipse
 62
7
  6
CONTINUOUS
 10
-3.9908024457
 20
14.7786768911
 30
0.0
 11
0.249929385
 21
0.0111824824
 31
0.0
 40
0.5313301283
 41
3.1177659981
 42
3.9032222197
  0
ELLIPSE
  5
52D
100
AcDbEntity
  8
0
100
AcDbEllipse
 62
7
  6
CONTINUOUS
 10
-16.5773031508
 20
21.0719272437
 30
0.0
 11
0.249929385
 21
0.0111824824
 31
0.0
 40
0.5313301283
 41
3.1177659981
 42
3.9032222197
  0
ELLIPSE
  5
52E
100
AcDbEntity
  8
0
100
AcDbEllipse
 62
7
  6
CONTINUOUS
 10
-3.7972381596
 20
-25.0147568129
 30
0.0
 11
0.220014872
 21
0.1791173313
 31
0.0
 40
0.6627826692
 41
-1.8038058062
 42
-1.2976603231
  0
ELLIPSE
  5
52F
100
AcDbEntity
  8
0
100
AcDbEllipse
 62
7
  6
CONTINUOUS
 10
-9.519243534
 20
19.0102592716
 30
0.0
 11
0.199943508
 21
0.008945986
 31
0.0
 40
0.5313301283
 41
-2.3799630874
 42
-0.8266200532
  0
ELLIPSE
  5
530
100
AcDbEntity
  8
0
100
AcDbEllipse
 62
7
  6
CONTINUOUS
 10
-11.8098919311
 20
20.1555834702
 30
0.0
 11
0.199943508
 21
0.008945986
 31
0.0
 40
0.5313301283
 41
3.1180383322
 42
3.9032222197
  0
ELLIPSE
  5
531
100
AcDbEntity
  8
0
100
AcDbEllipse
 62
7
  6
CONTINUOUS
 10
-8.0975813299
 20
18.2994281696
 30
0.0
 11
0.199943508
 21
0.008945986
 31
0.0
 40
0.5313301283
 41
3.1180383302
 42
3.9032222197
  0
ELLIPSE
  5
532
100
AcDbEntity
  8
0
100
AcDbEllipse
 62
7
  6
CONTINUOUS
 10
-5.8069329327
 20
17.154103971
 30
0.0
 11
0.199943508
 21
0.008945986
 31
0.0
 40
0.5313301283
 41
-2.3799630874
 42
-0.8266200532
  0
ELLIPSE
  5
533
100
AcDbEntity
  8
RACCORDO
100
AcDbEllipse
 62
7
  6
CONTINUOUS
 10
25.5015201378
 20
17.9435706291
 30
0.0
 11
-0.1342114942
 21
0.268324886
 31
0.0
 40
0.6123910759
 41
-2.2556797026
 42
-0.6848833758
  0
ELLIPSE
  5
534
100
AcDbEntity
  8
RACCORDO
100
AcDbEllipse
 62
7
  6
CONTINUOUS
 10
25.5015201378
 20
22.1004925673
 30
0.0
 11
-0.1342114942
 21
0.268324886
 31
0.0
 40
0.6123910759
 41
-3.1330279841
 42
-2.2556797026
  0
ELLIPSE
  5
535
100
AcDbEntity
  8
RACCORDO
100
AcDbEllipse
 62
7
  6
CONTINUOUS
 10
24.7720242858
 20
25.2858810355
 30
0.0
 11
-0.447101003
 21
0.8945282396
 31
0.0
 40
0.6124326778
 41
-1.4698904957
 42
-0.6846185041
  0
ELLIPSE
  5
536
100
AcDbEntity
  8
RACCORDO
100
AcDbEllipse
 62
7
  6
CONTINUOUS
 10
24.7720242858
 20
-6.1629570818
 30
0.0
 11
-0.4472005764
 21
0.894616689
 31
0.0
 40
0.6122812743
 41
-3.1275669201
 42
-3.040868577
  0
ELLIPSE
  5
537
100
AcDbEntity
  8
RACCORDO
100
AcDbEllipse
 62
7
  6
CONTINUOUS
 10
25.5015201378
 20
13.6134436102
 30
0.0
 11
-0.1342114942
 21
0.268324886
 31
0.0
 40
0.6123910759
 41
-2.2556797026
 42
-0.6848833758
  0
ELLIPSE
  5
538
100
AcDbEntity
  8
RACCORDO
100
AcDbEllipse
 62
7
  6
CONTINUOUS
 10
25.5015201378
 20
17.7703655483
 30
0.0
 11
-0.1342114942
 21
0.268324886
 31
0.0
 40
0.6123910759
 41
-3.1330279841
 42
-2.2556797026
  0
ELLIPSE
  5
539
100
AcDbEntity
  8
RACCORDO
100
AcDbEllipse
 62
7
  6
CONTINUOUS
 10
11.7755302892
 20
31.7841280338
 30
0.0
 11
-0.4472005764
 21
0.894616689
 31
0.0
 40
0.6122812743
 41
-0.684547915
 42
-0.0140030383
  0
ELLIPSE
  5
53A
100
AcDbEntity
  8
RACCORDO
100
AcDbEllipse
 62
7
  6
CONTINUOUS
 10
24.299255499
 20
24.8763551414
 30
0.0
 11
-0.894612936
 21
1.7887945813
 31
0.0
 40
0.6124635976
 41
-2.2555607096
 42
-1.470288718
  0
ELLIPSE
  5
53B
100
AcDbEntity
  8
RACCORDO
100
AcDbEllipse
 62
7
  6
CONTINUOUS
 10
24.299255499
 20
-5.280662401
 30
0.0
 11
-0.894811907
 21
1.788971565
 31
0.0
 40
0.6123121697
 41
-3.0410143285
 42
-2.2557423369
  0
ELLIPSE
  5
53C
100
AcDbEntity
  8
RACCORDO
100
AcDbEllipse
 62
7
  6
CONTINUOUS
 10
-6.3558207899
 20
20.2212261633
 30
0.0
 11
0.92906458
 21
0.8945128843
 31
0.0
 40
0.2904497238
 41
0.1026084894
 42
0.108848247
  0
ELLIPSE
  5
53D
100
AcDbEntity
  8
RACCORDO
100
AcDbEllipse
 62
7
  6
CONTINUOUS
 10
-0.7122552117
 20
12.1516793516
 30
0.0
 11
-0.894612936
 21
1.7887945813
 31
0.0
 40
0.6124635976
 41
-2.2555607096
 42
-1.470288718
  0
ELLIPSE
  5
53E
100
AcDbEntity
  8
RACCORDO
100
AcDbEllipse
 62
7
  6
CONTINUOUS
 10
-0.7122552117
 20
-18.4561641458
 30
0.0
 11
-0.894811907
 21
1.788971565
 31
0.0
 40
0.6123121697
 41
-3.0410143285
 42
-2.2557423369
  0
ENDSEC
  0
SECTION
  2
OBJECTS
  0
DICTIONARY
  5
C
100
AcDbDictionary
280
0
281
1
  3
ACAD_GROUP
350
D
  3
ACAD_MLINESTYLE
350
17
  3
ACAD_LAYOUT
350
1A
  3
ACAD_PLOTSETTINGS
350
19
  3
ACAD_PLOTSTYLENAME
350
E
  0
DICTIONARY
  5
D
102
{ACAD_REACTORS
330
C
102
}
100
AcDbDictionary
280
0
281
1
  0
ACDBDICTIONARYWDFLT
  5
E
102
{ACAD_REACTORS
330
C
102
}
100
AcDbDictionary
281
1
  3
Normal
350
F
100
AcDbDictionaryWithDefault
340
F
  0
DICTIONARY
  5
17
102
{ACAD_REACTORS
330
C
102
}
100
AcDbDictionary
280
0
281
1
  3
Standard
350
18
  0
DICTIONARY
  5
19
102
{ACAD_REACTORS
330
C
102
}
100
AcDbDictionary
281
1
  0
DICTIONARY
  5
1A
102
{ACAD_REACTORS
330
C
102
}
100
AcDbDictionary
281
1
  3
Model
350
53F
  3
Layout1
350
540
  0
ACDBPLACEHOLDER
  5
F
102
{ACAD_REACTORS
330
E
102
}
  0
MLINESTYLE
  5
18
102
{ACAD_REACTORS
330
17
102
}
100
AcDbMlineStyle
  2
STANDARD
 70
0
  3

 62
256
 51
90.0
 52
90.0
 71
2
 49
0.5
 62
256
  6
BYLAYER
 49
-0.5
 62
256
  6
BYLAYER
  0
LAYOUT
  5
53F
102
{ACAD_REACTORS
330
1A
102
}
100
AcDbPlotSettings
  1

  2
none_device
  4
ISO_A4_(297.00_x_210.00_MM)
  6

 40
0.0
 41
0.0
 42
0.0
 43
0.0
 44
297.0
 45
210.0
 46
0.0
 47
0.0
 48
0.0
 49
0.0
140
0.0
141
0.0
142
1.0
143
1.0
 70
1024
 72
1
 73
0
 74
0
  7

 75
0
147
1.0
148
0.0
149
0.0
100
AcDbLayout
  1
Model
 70
0
 71
0
 10
0.0
 20
0.0
 11
297.0
 21
210.0
 12
0.0
 22
0.0
 32
0.0
 14
0.0
 24
0.0
 34
0.0
 15
0.0
 25
0.0
 35
0.0
146
0.0
 13
0.0
 23
0.0
 33
0.0
 16
1.0
 26
0.0
 36
0.0
 17
0.0
 27
1.0
 37
0.0
 76
0
330
223
345
0
346
0
  0
LAYOUT
  5
540
102
{ACAD_REACTORS
330
1A
102
}
100
AcDbPlotSettings
  1

  2
none_device
  4
ISO_A4_(297.00_x_210.00_MM)
  6

 40
0.0
 41
0.0
 42
0.0
 43
0.0
 44
297.0
 45
210.0
 46
0.0
 47
0.0
 48
0.0
 49
0.0
140
0.0
141
0.0
142
1.0
143
1.0
 70
0
 72
1
 73
0
 74
0
  7

 75
0
147
1.0
148
0.0
149
0.0
100
AcDbLayout
  1
Layout1
 70
0
 71
1
 10
0.0
 20
0.0
 11
297.0
 21
210.0
 12
0.0
 22
0.0
 32
0.0
 14
0.0
 24
0.0
 34
0.0
 15
0.0
 25
0.0
 35
0.0
146
0.0
 13
0.0
 23
0.0
 33
0.0
 16
1.0
 26
0.0
 36
0.0
 17
0.0
 27
1.0
 37
0.0
 76
0
330
224
345
0
346
0
  0
ENDSEC
  0
EOF
