  0
SECTION
  2
HEADER
  9
$ACADVER
  1
AC1015
  9
$DWGCODEPAGE
  3
ANSI_1252
  9
$EXTMAX
 10
297.0
 20
210.0
 30
0.0
  9
$EXTMIN
 10
0.0
 20
0.0
 30
0.0
  9
$LIMMIN
 10
0.0
 20
0.0
  9
$LIMMAX
 10
297.0
 20
210.0
  9
$VIEWCTR
 10
148.5
 20
105.0
  9
$VIEWSIZE
 40
210.0
  9
$CLAYER
  8
0
  9
$LTSCALE
 40
16.335
  9
$CELTYPE
  6
BYLAYER
  9
$DIMSCALE
 40
1.0
  9
$DIMASZ
 40
3.0
  9
$DIMEXO
 40
1.85625
  9
$DIMDLI
 40
11.286
  9
$DIMEXE
 40
5.346
  9
$DIMCEN
 40
2.673
  9
$DIMLFAC
 40
1.0
  9
$DIMBLK
  1
_FILLED
  9
$DIMTXT
 40
3.0
  9
$DIMTOL
 70
1
  9
$DIMLIM
 70
0
  9
$DIMTFAC
 40
1.0
  9
$DIMTP
 40
0.01
  9
$DIMTM
 40
0.01
  9
$PDMODE
 70
3
  9
$PDSIZE
 40
3.0
  9
$HANDSEED
  5
50F
  9
$TILEMODE
 70
1
  9
$MEASUREMENT
 70
1
  9
$INSUNITS
 70
4
  0
ENDSEC
  0
SECTION
  2
CLASSES
  0
CLASS
  1
ACDBDICTIONARYWDFLT
  2
AcDbDictionaryWithDefault
  3
AutoCAD 2000
 90
0
280
0
281
0
  0
CLASS
  1
ACDBPLACEHOLDER
  2
AcDbPlaceHolder
  3
AutoCAD 2000
 90
0
280
0
281
0
  0
CLASS
  1
LAYOUT
  2
AcDbLayout
  3
AutoCAD 2000
 90
0
280
0
281
0
  0
ENDSEC
  0
SECTION
  2
TABLES
  0
TABLE
  2
VPORT
  5
8
100
AcDbSymbolTable
 70
2
  0
VPORT
  5
1F4
100
AcDbSymbolTableRecord
100
AcDbViewportTableRecord
  2
*ACTIVE
 70
0
 10
0.0
 20
0.0
 11
1.0
 21
1.0
 12
148.5
 22
105.0
 13
0.0
 23
0.0
 14
1.0
 24
1.0
 15
0.0
 25
0.0
 16
0.0
 26
0.0
 36
1.0
 17
0.0
 27
0.0
 37
0.0
 40
210.0
 41
1.4142857143
 42
50.0
 43
0.0
 44
0.0
 50
0.0
 51
0.0
 71
0
 72
100
 73
1
 74
1
 75
0
 76
0
 77
0
 78
0
  0
ENDTAB
  0
TABLE
  2
LTYPE
  5
5
100
AcDbSymbolTable
 70
6
  0
LTYPE
  5
14
100
AcDbSymbolTableRecord
100
AcDbLinetypeTableRecord
  2
BYBLOCK
 70
0
  3

 72
65
 73
0
 40
0.0
  0
LTYPE
  5
15
100
AcDbSymbolTableRecord
100
AcDbLinetypeTableRecord
  2
BYLAYER
 70
0
  3

 72
65
 73
0
 40
0.0
  0
LTYPE
  5
16
100
AcDbSymbolTableRecord
100
AcDbLinetypeTableRecord
  2
CONTINUOUS
 70
64
  3
Solid line
 72
65
 73
0
 40
0.0
  0
LTYPE
  5
1F5
100
AcDbSymbolTableRecord
100
AcDbLinetypeTableRecord
  2
CENTER
 70
64
  3
____ _ ____ _ ____ _ ____ _ ____ _ ____ _ ____
 72
65
 73
4
 40
0.6
 49
0.375
 74
0
 49
-0.075
 74
0
 49
0.075
 74
0
 49
-0.075
 74
0
  0
LTYPE
  5
1F6
100
AcDbSymbolTableRecord
100
AcDbLinetypeTableRecord
  2
HIDDEN
 70
64
  3
- - - - - - - - - - - - - - - - - - - -
 72
65
 73
2
 40
0.2
 49
0.1
 74
0
 49
-0.1
 74
0
  0
LTYPE
  5
1F7
100
AcDbSymbolTableRecord
100
AcDbLinetypeTableRecord
  2
PHANTOM
 70
64
  3
_____ _ _ _____ _ _ _____ _ _ _____
 72
65
 73
6
 40
0.8
 49
0.45
 74
0
 49
-0.05
 74
0
 49
0.1
 74
0
 49
-0.05
 74
0
 49
0.1
 74
0
 49
-0.05
 74
0
  0
LTYPE
  5
1F8
100
AcDbSymbolTableRecord
100
AcDbLinetypeTableRecord
  2
DOT
 70
64
  3
. . . . . . . . . . . . . . . . . . . .
 72
65
 73
2
 40
0.2
 49
0.1
 74
0
 49
-0.1
 74
0
  0
LTYPE
  5
1F9
100
AcDbSymbolTableRecord
100
AcDbLinetypeTableRecord
  2
DASHED
 70
64
  3
- - - - - - - - - - - - - - - - - - - -
 72
65
 73
2
 40
0.2
 49
0.1
 74
0
 49
-0.1
 74
0
  0
ENDTAB
  0
TABLE
  2
LAYER
  5
2
100
AcDbSymbolTable
 70
36
  0
LAYER
  5
10
100
AcDbSymbolTableRecord
100
AcDbLayerTableRecord
  2
0
 70
0
 62
7
  6
CONTINUOUS
370
-3
390
F
  0
LAYER
  5
1FA
100
AcDbSymbolTableRecord
100
AcDbLayerTableRecord
  2
DEFAULT_1
 70
0
 62
7
  6
CENTER
370
-3
390
F
  0
LAYER
  5
1FB
100
AcDbSymbolTableRecord
100
AcDbLayerTableRecord
  2
DEFAULT_2
 70
0
 62
7
  6
HIDDEN
370
-3
390
F
  0
LAYER
  5
1FC
100
AcDbSymbolTableRecord
100
AcDbLayerTableRecord
  2
DEFAULT_3
 70
0
 62
7
  6
PHANTOM
370
-3
390
F
  0
LAYER
  5
1FD
100
AcDbSymbolTableRecord
100
AcDbLayerTableRecord
  2
ASSI
 70
0
 62
7
  6
CONTINUOUS
370
-3
390
F
  0
LAYER
  5
1FE
100
AcDbSymbolTableRecord
100
AcDbLayerTableRecord
  2
COLOR10
 70
0
 62
7
  6
CONTINUOUS
370
-3
390
F
  0
LAYER
  5
1FF
100
AcDbSymbolTableRecord
100
AcDbLayerTableRecord
  2
COLOR5
 70
0
 62
7
  6
CONTINUOUS
370
-3
390
F
  0
LAYER
  5
200
100
AcDbSymbolTableRecord
100
AcDbLayerTableRecord
  2
COLOR9
 70
0
 62
7
  6
CONTINUOUS
370
-3
390
F
  0
LAYER
  5
201
100
AcDbSymbolTableRecord
100
AcDbLayerTableRecord
  2
COLORE_MATERIALE
 70
0
 62
7
  6
CONTINUOUS
370
-3
390
F
  0
LAYER
  5
202
100
AcDbSymbolTableRecord
100
AcDbLayerTableRecord
  2
COORDINATE
 70
0
 62
7
  6
CONTINUOUS
370
-3
390
F
  0
LAYER
  5
203
100
AcDbSymbolTableRecord
100
AcDbLayerTableRecord
  2
COORD_ORIGINE
 70
0
 62
7
  6
CONTINUOUS
370
-3
390
F
  0
LAYER
  5
204
100
AcDbSymbolTableRecord
100
AcDbLayerTableRecord
  2
COPY_GEOMETRY
 70
0
 62
7
  6
CONTINUOUS
370
-3
390
F
  0
LAYER
  5
205
100
AcDbSymbolTableRecord
100
AcDbLayerTableRecord
  2
COPY_PUBLISH
 70
0
 62
7
  6
CONTINUOUS
370
-3
390
F
  0
LAYER
  5
206
100
AcDbSymbolTableRecord
100
AcDbLayerTableRecord
  2
COSMETIC
 70
0
 62
7
  6
CONTINUOUS
370
-3
390
F
  0
LAYER
  5
207
100
AcDbSymbolTableRecord
100
AcDbLayerTableRecord
  2
CURVE
 70
0
 62
7
  6
CONTINUOUS
370
-3
390
F
  0
LAYER
  5
208
100
AcDbSymbolTableRecord
100
AcDbLayerTableRecord
  2
DRAFT
 70
0
 62
7
  6
CONTINUOUS
370
-3
390
F
  0
LAYER
  5
209
100
AcDbSymbolTableRecord
100
AcDbLayerTableRecord
  2
IGES
 70
0
 62
7
  6
CONTINUOUS
370
-3
390
F
  0
LAYER
  5
20A
100
AcDbSymbolTableRecord
100
AcDbLayerTableRecord
  2
IGES_SCRITTE
 70
0
 62
7
  6
CONTINUOUS
370
-3
390
F
  0
LAYER
  5
20B
100
AcDbSymbolTableRecord
100
AcDbLayerTableRecord
  2
IMPORT_IGES
 70
0
 62
7
  6
CONTINUOUS
370
-3
390
F
  0
LAYER
  5
20C
100
AcDbSymbolTableRecord
100
AcDbLayerTableRecord
  2
INTFCLR_1
 70
0
 62
7
  6
CONTINUOUS
370
-3
390
F
  0
LAYER
  5
20D
100
AcDbSymbolTableRecord
100
AcDbLayerTableRecord
  2
INTFCLR_11371
 70
0
 62
7
  6
CONTINUOUS
370
-3
390
F
  0
LAYER
  5
20E
100
AcDbSymbolTableRecord
100
AcDbLayerTableRecord
  2
INTFCLR_118879
 70
0
 62
7
  6
CONTINUOUS
370
-3
390
F
  0
LAYER
  5
20F
100
AcDbSymbolTableRecord
100
AcDbLayerTableRecord
  2
INTFCLR_509
 70
0
 62
7
  6
CONTINUOUS
370
-3
390
F
  0
LAYER
  5
210
100
AcDbSymbolTableRecord
100
AcDbLayerTableRecord
  2
INTF_1
 70
0
 62
7
  6
CONTINUOUS
370
-3
390
F
  0
LAYER
  5
211
100
AcDbSymbolTableRecord
100
AcDbLayerTableRecord
  2
INTF_15
 70
0
 62
7
  6
CONTINUOUS
370
-3
390
F
  0
LAYER
  5
212
100
AcDbSymbolTableRecord
100
AcDbLayerTableRecord
  2
INTF_16
 70
0
 62
7
  6
CONTINUOUS
370
-3
390
F
  0
LAYER
  5
213
100
AcDbSymbolTableRecord
100
AcDbLayerTableRecord
  2
INTF_2
 70
0
 62
7
  6
CONTINUOUS
370
-3
390
F
  0
LAYER
  5
214
100
AcDbSymbolTableRecord
100
AcDbLayerTableRecord
  2
INTF_6
 70
0
 62
7
  6
CONTINUOUS
370
-3
390
F
  0
LAYER
  5
215
100
AcDbSymbolTableRecord
100
AcDbLayerTableRecord
  2
INTF_YELLOW
 70
0
 62
7
  6
CONTINUOUS
370
-3
390
F
  0
LAYER
  5
216
100
AcDbSymbolTableRecord
100
AcDbLayerTableRecord
  2
NOTE
 70
0
 62
7
  6
CONTINUOUS
370
-3
390
F
  0
LAYER
  5
217
100
AcDbSymbolTableRecord
100
AcDbLayerTableRecord
  2
PIANI
 70
0
 62
7
  6
CONTINUOUS
370
-3
390
F
  0
LAYER
  5
218
100
AcDbSymbolTableRecord
100
AcDbLayerTableRecord
  2
PIANI_COSTRUZIONE
 70
0
 62
7
  6
CONTINUOUS
370
-3
390
F
  0
LAYER
  5
219
100
AcDbSymbolTableRecord
100
AcDbLayerTableRecord
  2
PIANI_DI_RIFERIMENTO
 70
0
 62
7
  6
CONTINUOUS
370
-3
390
F
  0
LAYER
  5
21A
100
AcDbSymbolTableRecord
100
AcDbLayerTableRecord
  2
PIANI_ORIGINE
 70
0
 62
7
  6
CONTINUOUS
370
-3
390
F
  0
LAYER
  5
21B
100
AcDbSymbolTableRecord
100
AcDbLayerTableRecord
  2
PIANI_RIFERIMENTO
 70
0
 62
7
  6
CONTINUOUS
370
-3
390
F
  0
LAYER
  5
21C
100
AcDbSymbolTableRecord
100
AcDbLayerTableRecord
  2
PUNTI
 70
0
 62
7
  6
CONTINUOUS
370
-3
390
F
  0
LAYER
  5
21D
100
AcDbSymbolTableRecord
100
AcDbLayerTableRecord
  2
RACCORDO
 70
0
 62
7
  6
CONTINUOUS
370
-3
390
F
  0
LAYER
  5
21E
100
AcDbSymbolTableRecord
100
AcDbLayerTableRecord
  2
RGB__255__126____0__
 70
0
 62
7
  6
CONTINUOUS
370
-3
390
F
  0
LAYER
  5
21F
100
AcDbSymbolTableRecord
100
AcDbLayerTableRecord
  2
SMUSSO
 70
0
 62
7
  6
CONTINUOUS
370
-3
390
F
  0
LAYER
  5
220
100
AcDbSymbolTableRecord
100
AcDbLayerTableRecord
  2
SNAPLINE
 70
0
 62
7
  6
CONTINUOUS
370
-3
390
F
  0
LAYER
  5
221
100
AcDbSymbolTableRecord
100
AcDbLayerTableRecord
  2
SUPERFICI
 70
0
 62
7
  6
CONTINUOUS
370
-3
390
F
  0
LAYER
  5
222
100
AcDbSymbolTableRecord
100
AcDbLayerTableRecord
  2
SUPERFICI_SKEL
 70
0
 62
7
  6
CONTINUOUS
370
-3
390
F
  0
LAYER
  5
223
100
AcDbSymbolTableRecord
100
AcDbLayerTableRecord
  2
TRASH
 70
0
 62
7
  6
CONTINUOUS
370
-3
390
F
  0
LAYER
  5
224
100
AcDbSymbolTableRecord
100
AcDbLayerTableRecord
  2
XSEC_DATUMS
 70
0
 62
7
  6
CONTINUOUS
370
-3
390
F
  0
ENDTAB
  0
TABLE
  2
STYLE
  5
3
100
AcDbSymbolTable
 70
1
  0
STYLE
  5
11
100
AcDbSymbolTableRecord
100
AcDbTextStyleTableRecord
  2
STANDARD
 70
0
 40
0.0
 41
0.8
 50
0.0
 71
0
 42
0.2
  3
txt
  4

  0
STYLE
  5
225
100
AcDbSymbolTableRecord
100
AcDbTextStyleTableRecord
  2
TEXTSTYLE_1
 70
0
 40
0.0
 41
0.8
 50
0.0
 71
0
 42
0.2
  3
gdt
  4

  0
ENDTAB
  0
TABLE
  2
VIEW
  5
6
100
AcDbSymbolTable
 70
0
  0
ENDTAB
  0
TABLE
  2
UCS
  5
7
100
AcDbSymbolTable
 70
0
  0
ENDTAB
  0
TABLE
  2
APPID
  5
9
100
AcDbSymbolTable
 70
1
  0
APPID
  5
226
100
AcDbSymbolTableRecord
100
AcDbRegAppTableRecord
  2
ACAD
 70
0
  0
ENDTAB
  0
TABLE
  2
BLOCK_RECORD
  5
1
100
AcDbSymbolTable
 70
0
  0
BLOCK_RECORD
  5
227
100
AcDbSymbolTableRecord
100
AcDbBlockTableRecord
  2
*Model_Space
  0
BLOCK_RECORD
  5
228
100
AcDbSymbolTableRecord
100
AcDbBlockTableRecord
  2
*Paper_Space
  0
ENDTAB
  0
TABLE
  2
DIMSTYLE
  5
A
100
AcDbSymbolTable
 70
1
100
AcDbDimStyleTable
 71
0
  0
DIMSTYLE
105
229
100
AcDbSymbolTableRecord
100
AcDbDimStyleTableRecord
  2
STANDARD
 70
0
  3

  4

 40
1.0
 41
3.0
 42
0.0625
 43
0.38
 44
0.18
 45
0.0
 46
0.0
 47
0.01
 48
0.01
140
3.0
141
0.09
142
0.0
143
25.4
144
1.0
145
0.0
146
1.0
147
0.09
 71
1.0
 72
0.0
 73
0
 74
0
 75
0
 76
0
 77
1
 78
8
170
0
171
2
172
0
173
0
174
0
175
0
176
0
177
0
178
0
270
2
271
2
272
2
273
2
274
2
275
0
280
0
281
0
282
0
283
1
284
8
285
0
286
0
287
3
288
0
340
11
  0
ENDTAB
  0
ENDSEC
  0
SECTION
  2
BLOCKS
  0
BLOCK
  5
20
100
AcDbEntity
  8
0
100
AcDbBlockBegin
  2
*Model_Space
 70
0
 10
0.0
 20
0.0
 30
0.0
  3
*Model_Space
  1

  0
ENDBLK
  5
21
100
AcDbEntity
  8
0
100
AcDbBlockEnd
  0
BLOCK
  5
1C
100
AcDbEntity
  8
0
100
AcDbBlockBegin
  2
*Paper_Space
 70
0
 10
0.0
 20
0.0
 30
0.0
  3
*Paper_Space
  1

  0
ENDBLK
  5
1D
100
AcDbEntity
  8
0
100
AcDbBlockEnd
  0
ENDSEC
  0
SECTION
  2
ENTITIES
  0
LWPOLYLINE
  5
22A
100
AcDbEntity
  8
0
100
AcDbPolyline
 62
253
  6
CONTINUOUS
 90
17
 70
0
 10
125.4407627034
 20
128.846274872
 10
125.4324316719
 20
128.8344787564
 10
125.4244341941
 20
128.8222117435
 10
125.4168002946
 20
128.8095014064
 10
125.4095891264
 20
128.7964318351
 10
125.4028350321
 20
128.7830561947
 10
125.3965616813
 20
128.7694114932
 10
125.3908037484
 20
128.7555647175
 10
125.3855853164
 20
128.7415671908
 10
125.3809272413
 20
128.7274674146
 10
125.376852787
 20
128.7133305867
 10
125.3733777815
 20
128.6992080229
 10
125.3705161106
 20
128.6851516607
 10
125.3682812243
 20
128.6712276269
 10
125.3666808053
 20
128.6574913663
 10
125.3657189244
 20
128.643987803
 10
125.3653981583
 20
128.6307657962
  0
LWPOLYLINE
  5
22B
100
AcDbEntity
  8
0
100
AcDbPolyline
 62
253
  6
CONTINUOUS
 90
17
 70
0
 10
121.8877412499
 20
125.0149589307
 10
121.8194215846
 20
124.9599040498
 10
121.7528018785
 20
124.8990176614
 10
121.6883223072
 20
124.8326968643
 10
121.6264566561
 20
124.7613865022
 10
121.5676005977
 20
124.6855915732
 10
121.5121417636
 20
124.6058238398
 10
121.46048982
 20
124.52263585
 10
121.4129795825
 20
124.4366276617
 10
121.3699033338
 20
124.34835394
 10
121.3315345083
 20
124.25835504
 10
121.2981153467
 20
124.1672381034
 10
121.269876962
 20
124.0756286604
 10
121.2470036633
 20
123.9840978605
 10
121.2296514318
 20
123.8932353182
 10
121.2179443157
 20
123.8036664413
 10
121.2119387363
 20
123.7160520631
  0
LWPOLYLINE
  5
22C
100
AcDbEntity
  8
0
100
AcDbPolyline
 62
7
  6
CONTINUOUS
 90
7
 70
0
 10
126.3008666766
 20
127.8457627367
 10
126.2674032633
 20
127.8201811884
 10
126.2538372764
 20
127.8096171295
 10
126.2428648258
 20
127.8000553369
 10
126.2346676165
 20
127.7917150086
 10
126.2294419908
 20
127.7855232131
 10
126.2276456934
 20
127.7818432065
  0
LWPOLYLINE
  5
22D
100
AcDbEntity
  8
0
100
AcDbPolyline
 62
7
  6
CONTINUOUS
 90
19
 70
0
 10
121.7914795246
 20
125.1130750461
 10
121.779522825
 20
125.1058865216
 10
121.7073242027
 20
125.0580296476
 10
121.6382371545
 20
125.0046208129
 10
121.5722569201
 20
124.9459421519
 10
121.5094897793
 20
124.882328522
 10
121.4502569124
 20
124.8142942943
 10
121.394638135
 20
124.7421261477
 10
121.3427795837
 20
124.6660989141
 10
121.2951204485
 20
124.5869286178
 10
121.2517863074
 20
124.5049305896
 10
121.2129559563
 20
124.4203908515
 10
121.1790114832
 20
124.3341409025
 10
121.1500974375
 20
124.2465063464
 10
121.1263867606
 20
124.1577627616
 10
121.1081463024
 20
124.0686225715
 10
121.0955598342
 20
123.9794494962
 10
121.0887818359
 20
123.8904000346
 10
121.0883280206
 20
123.87852939
  0
LWPOLYLINE
  5
22E
100
AcDbEntity
  8
0
100
AcDbPolyline
 62
253
  6
CONTINUOUS
 90
3
 70
0
 10
122.0277905265
 20
125.1060442786
 10
121.9573585801
 20
125.0637872133
 10
121.8877412499
 20
125.0149589307
  0
LINE
  5
22F
100
AcDbEntity
  8
0
100
AcDbLine
 62
7
  6
CONTINUOUS
 10
121.7913255505
 20
125.1129971662
 11
126.0216826349
 21
127.6207621161
  0
LINE
  5
230
100
AcDbEntity
  8
0
100
AcDbLine
 62
253
  6
CONTINUOUS
 10
122.0277899062
 20
125.106058437
 11
126.0216826349
 21
127.4736467987
  0
LWPOLYLINE
  5
231
100
AcDbEntity
  8
0
100
AcDbPolyline
 62
7
  6
CONTINUOUS
 90
12
 70
0
 10
125.4460834315
 20
128.9385116304
 10
125.434678108
 20
128.9319590033
 10
125.4124061806
 20
128.9166149603
 10
125.3915312265
 20
128.8986261252
 10
125.3723616992
 20
128.8781908075
 10
125.3556046596
 20
128.8561775464
 10
125.3409552657
 20
128.8323124285
 10
125.3284886962
 20
128.8065121227
 10
125.3188540143
 20
128.7800726105
 10
125.3120462853
 20
128.753321717
 10
125.3079480274
 20
128.7255135165
 10
125.3068196474
 20
128.7014467105
  0
LWPOLYLINE
  5
232
100
AcDbEntity
  8
0
100
AcDbPolyline
 62
253
  6
CONTINUOUS
 90
12
 70
0
 10
125.5384812883
 20
128.934387046
 10
125.5300974852
 20
128.9297399507
 10
125.521498324
 20
128.9244606442
 10
125.5127077601
 20
128.9185197359
 10
125.5037343719
 20
128.9118754122
 10
125.4946288707
 20
128.9045161222
 10
125.4854817207
 20
128.896472229
 10
125.476328669
 20
128.8877364402
 10
125.4672085564
 20
128.878305647
 10
125.4582144691
 20
128.8682415992
 10
125.4493858317
 20
128.8575588263
 10
125.4407627034
 20
128.846274872
  0
LINE
  5
233
100
AcDbEntity
  8
0
100
AcDbLine
 62
7
  6
CONTINUOUS
 10
127.0131871848
 20
129.7840002739
 11
125.4459866945
 21
128.9384596551
  0
LINE
  5
234
100
AcDbEntity
  8
0
100
AcDbLine
 62
253
  6
CONTINUOUS
 10
127.1047340616
 20
129.7794163201
 11
125.5384813168
 21
128.9343870318
  0
LWPOLYLINE
  5
235
100
AcDbEntity
  8
0
100
AcDbPolyline
 62
253
  6
CONTINUOUS
 90
8
 70
0
 10
121.7914736974
 20
125.1130848927
 10
121.8062372693
 20
125.1209209459
 10
121.8345777832
 20
125.1315841053
 10
121.8650250653
 20
125.13778235
 10
121.8972761963
 20
125.1394540004
 10
121.9310102755
 20
125.1365823941
 10
121.9658916031
 20
125.1291960798
 10
122.0015730784
 20
125.1173685348
  0
LINE
  5
236
100
AcDbEntity
  8
0
100
AcDbLine
 62
7
  6
CONTINUOUS
 10
127.0173950217
 20
129.7861061516
 11
127.0132295182
 21
129.7840231137
  0
LINE
  5
237
100
AcDbEntity
  8
0
100
AcDbLine
 62
253
  6
CONTINUOUS
 10
127.1047340616
 20
129.7794163201
 11
127.6474601243
 21
130.0300652012
  0
LINE
  5
238
100
AcDbEntity
  8
0
100
AcDbLine
 62
7
  6
CONTINUOUS
 10
127.0174528615
 20
129.7861329415
 11
127.5613555033
 21
130.0373247751
  0
LWPOLYLINE
  5
239
100
AcDbEntity
  8
0
100
AcDbPolyline
 62
253
  6
CONTINUOUS
 90
13
 70
0
 10
127.6474601243
 20
130.0300652012
 10
127.6563846275
 20
130.0340315858
 10
127.6654726385
 20
130.0375034024
 10
127.6746973545
 20
130.0404333542
 10
127.6840475028
 20
130.0427778082
 10
127.6934709955
 20
130.0444825952
 10
127.7028774885
 20
130.0454969494
 10
127.7122312359
 20
130.0457872701
 10
127.7214939117
 20
130.0453216234
 10
127.7305747182
 20
130.044079552
 10
127.7394346728
 20
130.042047459
 10
127.7480394013
 20
130.0392135309
 10
127.7565567536
 20
130.035466829
  0
LINE
  5
23A
100
AcDbEntity
  8
0
100
AcDbLine
 62
7
  6
CONTINUOUS
 10
127.5845012947
 20
130.0465498869
 11
127.561355591
 21
130.0373245839
  0
LWPOLYLINE
  5
23B
100
AcDbEntity
  8
0
100
AcDbPolyline
 62
253
  6
CONTINUOUS
 90
6
 70
0
 10
127.5613555033
 20
130.0373247751
 10
127.5776755077
 20
130.042641268
 10
127.5941148898
 20
130.0442964584
 10
127.6114244609
 20
130.0427251411
 10
127.6293081648
 20
130.0379541892
 10
127.6474601243
 20
130.0300652012
  0
LINE
  5
23C
100
AcDbEntity
  8
0
100
AcDbLine
 62
253
  6
CONTINUOUS
 10
129.9083646065
 20
128.3227566231
 11
129.3674973006
 21
127.653469137
  0
LINE
  5
23D
100
AcDbEntity
  8
0
100
AcDbLine
 62
7
  6
CONTINUOUS
 10
129.9200271897
 20
128.2664837109
 11
129.9200520497
 21
128.2665143995
  0
LWPOLYLINE
  5
23E
100
AcDbEntity
  8
0
100
AcDbPolyline
 62
7
  6
CONTINUOUS
 90
12
 70
0
 10
128.4650465499
 20
127.0949074079
 10
128.4430138137
 20
127.0742626488
 10
128.4191260221
 20
127.0549975548
 10
128.3935587839
 20
127.0375049574
 10
128.3663585336
 20
127.0221526982
 10
128.3379439016
 20
127.0092993396
 10
128.3091288554
 20
126.9992307663
 10
128.2802991778
 20
126.9921334807
 10
128.2517506153
 20
126.9881858563
 10
128.2242135378
 20
126.987444852
 10
128.1981589597
 20
126.9898371812
 10
128.1873515465
 20
126.9918271791
  0
LWPOLYLINE
  5
23F
100
AcDbEntity
  8
0
100
AcDbPolyline
 62
7
  6
CONTINUOUS
 90
12
 70
0
 10
131.1625751474
 20
127.0458439128
 10
131.1544155861
 20
127.0412137359
 10
131.1352300503
 20
127.0283575064
 10
131.1174424456
 20
127.013500908
 10
131.1012919899
 20
126.9968315946
 10
131.0868417327
 20
126.9783765915
 10
131.074299312
 20
126.9583262397
 10
131.0638622277
 20
126.9369406428
 10
131.0555950186
 20
126.9142720482
 10
131.0496237789
 20
126.8904517199
 10
131.046088726
 20
126.8657898617
 10
131.0450551072
 20
126.8430973623
  0
LINE
  5
240
100
AcDbEntity
  8
0
100
AcDbLine
 62
7
  6
CONTINUOUS
 10
127.3875983133
 20
126.6905909723
 11
126.8448722506
 21
126.3943008621
  0
LINE
  5
241
100
AcDbEntity
  8
0
100
AcDbLine
 62
7
  6
CONTINUOUS
 10
129.3674973006
 20
126.8293813527
 11
128.4650465499
 21
126.3367069618
  0
LINE
  5
242
100
AcDbEntity
  8
0
100
AcDbLine
 62
7
  6
CONTINUOUS
 10
131.3743734327
 20
127.16011403
 11
131.1625610603
 21
127.0458363957
  0
LINE
  5
243
100
AcDbEntity
  8
0
100
AcDbLine
 62
253
  6
CONTINUOUS
 10
131.4887907202
 20
127.154375289
 11
131.2779364029
 21
127.0406145474
  0
LINE
  5
244
100
AcDbEntity
  8
0
100
AcDbLine
 62
253
  6
CONTINUOUS
 10
127.6041973569
 20
127.9015310895
 11
129.2260974835
 21
128.7187346092
  0
LINE
  5
245
100
AcDbEntity
  8
0
100
AcDbLine
 62
253
  6
CONTINUOUS
 10
127.7455971739
 20
127.6576524801
 11
129.3674973006
 21
128.4748559999
  0
LINE
  5
246
100
AcDbEntity
  8
0
100
AcDbLine
 62
7
  6
CONTINUOUS
 10
131.3743671402
 20
127.1601106541
 11
131.3795813435
 21
127.1627212353
  0
LINE
  5
247
100
AcDbEntity
  8
0
100
AcDbLine
 62
253
  6
CONTINUOUS
 10
129.2260974835
 20
128.7187346092
 11
129.7502019501
 21
128.9786942884
  0
LINE
  5
248
100
AcDbEntity
  8
0
100
AcDbLine
 62
253
  6
CONTINUOUS
 10
129.3674973006
 20
128.4748559999
 11
129.8916017671
 21
128.734815679
  0
LINE
  5
249
100
AcDbEntity
  8
0
100
AcDbLine
 62
7
  6
CONTINUOUS
 10
137.0828211695
 20
130.5956890802
 11
130.0356330157
 21
127.1873037467
  0
LWPOLYLINE
  5
24A
100
AcDbEntity
  8
0
100
AcDbPolyline
 62
253
  6
CONTINUOUS
 90
28
 70
0
 10
129.8916017671
 20
128.734815679
 10
129.8932387675
 20
128.7355943767
 10
129.8949106101
 20
128.7362719106
 10
129.896617295
 20
128.7368482808
 10
129.898369115
 20
128.737334574
 10
129.9001557772
 20
128.7377197035
 10
129.9019464032
 20
128.7379704092
 10
129.9037419698
 20
128.7380828026
 10
129.9055415002
 20
128.7380607722
 10
129.9073111851
 20
128.7378827232
 10
129.909050665
 20
128.7375436955
 10
129.9107602995
 20
128.7370486493
 10
129.9124073577
 20
128.7363908702
 10
129.9139896419
 20
128.7355658099
 10
129.9155093498
 20
128.7345780165
 10
129.9169403438
 20
128.7334344203
 10
129.9182798269
 20
128.7321323997
 10
129.9195305961
 20
128.7306745761
 10
129.9206749043
 20
128.7290757442
 10
129.921710938
 20
128.7273338404
 10
129.9226405109
 20
128.7254509283
 10
129.9234513169
 20
128.7234479922
 10
129.9241416146
 20
128.7213230829
 10
129.9247131455
 20
128.7190781496
 10
129.9251588287
 20
128.7167400249
 10
129.9254763039
 20
128.714317653
 10
129.9256679314
 20
128.7118020898
 10
129.9257337111
 20
128.7091933352
  0
LINE
  5
24B
100
AcDbEntity
  8
RACCORDO
100
AcDbLine
 62
7
  6
CONTINUOUS
 10
153.6917135251
 20
137.8619854665
 11
137.9126001995
 21
130.4205993351
  0
LINE
  5
24C
100
AcDbEntity
  8
RACCORDO
100
AcDbLine
 62
253
  6
CONTINUOUS
 10
154.1305982755
 20
137.8295825315
 11
138.1589777726
 21
130.2974105486
  0
LINE
  5
24D
100
AcDbEntity
  8
0
100
AcDbLine
 62
7
  6
CONTINUOUS
 10
131.3796396147
 20
127.1627481564
 11
135.4303568317
 21
129.0335036033
  0
LINE
  5
24E
100
AcDbEntity
  8
0
100
AcDbLine
 62
253
  6
CONTINUOUS
 10
131.4887907202
 20
127.154375289
 11
135.5382617362
 21
129.024555199
  0
LWPOLYLINE
  5
24F
100
AcDbEntity
  8
0
100
AcDbPolyline
 62
253
  6
CONTINUOUS
 90
14
 70
0
 10
129.7502019501
 20
128.9786942884
 10
129.7584579135
 20
128.9824360172
 10
129.7669434455
 20
128.9857826181
 10
129.7756353135
 20
128.988679226
 10
129.7845257178
 20
128.9910741442
 10
129.7935642275
 20
128.9929026173
 10
129.8026601071
 20
128.9941008692
 10
129.8117777376
 20
128.9946234095
 10
129.8208780241
 20
128.9944255677
 10
129.8298666842
 20
128.9934717758
 10
129.8387037839
 20
128.9917342677
 10
129.8473482299
 20
128.9891876685
 10
129.8557111827
 20
128.9858305125
 10
129.8584984012
 20
128.9844959918
  0
LWPOLYLINE
  5
250
100
AcDbEntity
  8
0
100
AcDbPolyline
 62
7
  6
CONTINUOUS
 90
4
 70
0
 10
131.3795813435
 20
127.1627212353
 10
131.3846222136
 20
127.1648757248
 10
131.4002134186
 20
127.1695241653
 10
131.4169065584
 20
127.1716104849
  0
LWPOLYLINE
  5
251
100
AcDbEntity
  8
0
100
AcDbPolyline
 62
253
  6
CONTINUOUS
 90
31
 70
0
 10
135.5382617362
 20
129.024555199
 10
135.5484569454
 20
129.0287634972
 10
135.5592773925
 20
129.032366736
 10
135.5707230775
 20
129.0353649153
 10
135.5829362976
 20
129.0377796918
 10
135.5957747555
 20
129.0395894088
 10
135.6088115602
 20
129.0407290964
 10
135.6220476146
 20
129.0411748438
 10
135.6354820157
 20
129.0409505618
 10
135.648685163
 20
129.0400630128
 10
135.6616496405
 20
129.0384905893
 10
135.6743828643
 20
129.0362548988
 10
135.6864774822
 20
129.033427526
 10
135.6979128943
 20
129.0299893913
 10
135.7087097006
 20
129.0259595744
 10
135.718522349
 20
129.0214668991
 10
135.7273189942
 20
129.0164963608
 10
135.7351314814
 20
129.0110629641
 10
135.7417097946
 20
129.0053405462
 10
135.7470141274
 20
128.9993197547
 10
135.7510842862
 20
128.993009942
 10
135.753789674
 20
128.9866130021
 10
135.7550858401
 20
128.980126137
 10
135.7550172352
 20
128.9735521447
 10
135.7535866145
 20
128.9671013137
 10
135.7507460141
 20
128.9607754668
 10
135.7465433979
 20
128.9545727813
 10
135.7411254124
 20
128.9486980774
 10
135.7345409398
 20
128.9432196285
 10
135.7267410981
 20
128.9380691612
 10
135.717725887
 20
128.9332466754
  0
LINE
  5
252
100
AcDbEntity
  8
0
100
AcDbLine
 62
7
  6
CONTINUOUS
 10
135.4633670525
 20
129.0469532958
 11
135.4302487565
 21
129.0334432219
  0
LWPOLYLINE
  5
253
100
AcDbEntity
  8
0
100
AcDbPolyline
 62
253
  6
CONTINUOUS
 90
6
 70
0
 10
135.4303570719
 20
129.0335037142
 10
135.4510351065
 20
129.0402761197
 10
135.4715838748
 20
129.0423442609
 10
135.4932199894
 20
129.0403795939
 10
135.5155733764
 20
129.0344158618
 10
135.5382617362
 20
129.024555199
  0
LWPOLYLINE
  5
254
100
AcDbEntity
  8
0
100
AcDbPolyline
 62
7
  6
CONTINUOUS
 90
3
 70
0
 10
140.737887308
 20
80.6652449
 10
140.7555702618
 20
80.6611297857
 10
140.7745563016
 20
80.6565707404
  0
LWPOLYLINE
  5
255
100
AcDbEntity
  8
0
100
AcDbPolyline
 62
7
  6
CONTINUOUS
 90
10
 70
0
 10
140.8604619685
 20
80.6355151454
 10
140.8834113478
 20
80.6301214463
 10
140.9065386104
 20
80.6249258447
 10
140.929451738
 20
80.619949786
 10
140.9519900599
 20
80.6153812601
 10
140.9739928817
 20
80.6113477662
 10
140.9950920379
 20
80.6077843546
 10
141.0150861488
 20
80.6047689422
 10
141.0339369514
 20
80.6025213323
 10
141.051547255
 20
80.6011802957
  0
LINE
  5
256
100
AcDbEntity
  8
0
100
AcDbLine
 62
7
  6
CONTINUOUS
 10
140.7745563016
 20
80.6565707404
 11
140.8604619685
 21
80.6355151454
  0
LWPOLYLINE
  5
257
100
AcDbEntity
  8
0
100
AcDbPolyline
 62
7
  6
CONTINUOUS
 90
12
 70
0
 10
136.2853110969
 20
79.5703773791
 10
136.2955027156
 20
79.5659576362
 10
136.3612413114
 20
79.5414338928
 10
136.4301347005
 20
79.5225906959
 10
136.5016620825
 20
79.5098253103
 10
136.5751507871
 20
79.5034613546
 10
136.6501638123
 20
79.5036939602
 10
136.7261887331
 20
79.5106430427
 10
136.8025472888
 20
79.5243319342
 10
136.8788137846
 20
79.5447408284
 10
136.9546857279
 20
79.5718162551
 10
136.9624923718
 20
79.5749922203
  0
LWPOLYLINE
  5
258
100
AcDbEntity
  8
0
100
AcDbPolyline
 62
7
  6
CONTINUOUS
 90
11
 70
0
 10
140.0813449983
 20
79.2359193588
 10
140.095101475
 20
79.2296029873
 10
140.1160395839
 20
79.2220719135
 10
140.1377764417
 20
79.2166646009
 10
140.1600936414
 20
79.2134736933
 10
140.1828466176
 20
79.212561745
 10
140.2058126658
 20
79.2139891448
 10
140.2286638727
 20
79.2177707909
 10
140.2511533564
 20
79.2238753597
 10
140.2730784168
 20
79.2322562232
 10
140.2767960909
 20
79.2339303046
  0
LINE
  5
259
100
AcDbEntity
  8
0
100
AcDbLine
 62
7
  6
CONTINUOUS
 10
138.3007105264
 20
80.1262360701
 11
140.0816017078
 21
79.2357904794
  0
LINE
  5
25A
100
AcDbEntity
  8
0
100
AcDbLine
 62
253
  6
CONTINUOUS
 10
138.4133631974
 20
80.1726415365
 11
140.0164001861
 21
79.3711230422
  0
LWPOLYLINE
  5
25B
100
AcDbEntity
  8
0
100
AcDbPolyline
 62
7
  6
CONTINUOUS
 90
10
 70
0
 10
121.5063074481
 20
86.960072112
 10
122.9857577453
 20
86.1315108747
 10
124.5712580667
 20
85.2680152487
 10
126.1825139117
 20
84.4152037699
 10
127.8191631325
 20
83.5732684412
 10
129.4808415269
 20
82.7423955458
 10
131.1671731421
 20
81.922762878
 10
132.8777637829
 20
81.1145439505
 10
134.6122087868
 20
80.317910656
 10
136.2861531018
 20
79.5700050629
  0
LINE
  5
25C
100
AcDbEntity
  8
0
100
AcDbLine
 62
7
  6
CONTINUOUS
 10
121.5063076245
 20
86.960076204
 11
121.5066615638
 21
86.9598754007
  0
LWPOLYLINE
  5
25D
100
AcDbEntity
  8
0
100
AcDbPolyline
 62
253
  6
CONTINUOUS
 90
31
 70
0
 10
121.211929182
 20
87.5555603814
 10
121.6585480455
 20
87.3019427271
 10
122.1071691186
 20
87.0493638901
 10
122.5577820302
 20
86.7978271403
 10
123.0102702167
 20
86.5473942308
 10
123.4647284795
 20
86.2980094118
 10
123.9214678953
 20
86.0495016877
 10
124.3806312755
 20
85.8017962363
 10
124.8420648277
 20
85.5549788093
 10
125.305637351
 20
85.309120478
 10
125.7713093178
 20
85.0642420342
 10
126.2391039616
 20
84.8203311556
 10
126.7089820418
 20
84.577408209
 10
127.1810000788
 20
84.3354440442
 10
127.655085167
 20
84.0944762223
 10
128.131000474
 20
83.8546234693
 10
128.6084257496
 20
83.6160420039
 10
129.0876553413
 20
83.3785791933
 10
129.5693802464
 20
83.1418934821
 10
130.0526798719
 20
82.9064377144
 10
130.5384611707
 20
82.671768761
 10
131.0302090556
 20
82.4362283143
 10
131.5271320626
 20
82.2002416984
 10
132.0300957801
 20
81.9634399641
 10
132.5451898725
 20
81.7230367237
 10
133.072707042
 20
81.4790264054
 10
133.6125917528
 20
81.2315620861
 10
134.1705608563
 20
80.9781774626
 10
134.7486837416
 20
80.7181489796
 10
135.3453021813
 20
80.4524523441
 10
135.9606189887
 20
80.1812154797
  0
LWPOLYLINE
  5
25E
100
AcDbEntity
  8
0
100
AcDbPolyline
 62
253
  6
CONTINUOUS
 90
11
 70
0
 10
121.2119387543
 20
87.5555649587
 10
121.2179443339
 20
87.4735922126
 10
121.2296514513
 20
87.3952466824
 10
121.2470036848
 20
87.3211295588
 10
121.269876985
 20
87.2517195377
 10
121.2981153705
 20
87.1874573241
 10
121.3315345322
 20
87.1287668084
 10
121.3699033574
 20
87.0760229797
 10
121.4129796053
 20
87.0295840726
 10
121.4604898419
 20
86.9897694033
 10
121.5063076245
 20
86.960076204
  0
LWPOLYLINE
  5
25F
100
AcDbEntity
  8
0
100
AcDbPolyline
 62
7
  6
CONTINUOUS
 90
14
 70
0
 10
121.0883567235
 20
87.721003093
 10
121.0892380986
 20
87.700726742
 10
121.0971125084
 20
87.6128566903
 10
121.1113717402
 20
87.528301245
 10
121.1319074557
 20
87.447285767
 10
121.1585759153
 20
87.370061848
 10
121.1911557572
 20
87.2970896394
 10
121.229390935
 20
87.2287469294
 10
121.2730023102
 20
87.1653187778
 10
121.3215367922
 20
87.1072743349
 10
121.3745143408
 20
87.0549778733
 10
121.4314073546
 20
87.0086938078
 10
121.4914818882
 20
86.9687203744
 10
121.5067211028
 20
86.9598416086
  0
LWPOLYLINE
  5
260
100
AcDbEntity
  8
0
100
AcDbPolyline
 62
253
  6
CONTINUOUS
 90
13
 70
0
 10
121.211929182
 20
87.5555603814
 10
121.1154881044
 20
90.5181455034
 10
121.0365601866
 20
93.4905984506
 10
120.9751567586
 20
96.4727696174
 10
120.9312881141
 20
99.4645852665
 10
120.9049645627
 20
102.4658184347
 10
120.8961901484
 20
105.4760856891
 10
120.9049642529
 20
108.4952319867
 10
120.9312875526
 20
111.5231005846
 10
120.9751560533
 20
114.5593005089
 10
121.0365594929
 20
117.6035933343
 10
121.1154876292
 20
120.6558962261
 10
121.2119291828
 20
123.7160482695
  0
LWPOLYLINE
  5
261
100
AcDbEntity
  8
0
100
AcDbPolyline
 62
7
  6
CONTINUOUS
 90
13
 70
0
 10
121.0883251498
 20
123.8786759001
 10
120.995239744
 20
120.8708630631
 10
120.9172631519
 20
117.8062138221
 10
120.8566049441
 20
114.7500432107
 10
120.8132769714
 20
111.702532142
 10
120.7872844557
 20
108.6638381415
 10
120.7786310846
 20
105.634109797
 10
120.7873194199
 20
102.6135017119
 10
120.8133471722
 20
99.602165809
 10
120.8567109883
 20
96.6002467792
 10
120.9174059028
 20
93.6078969126
 10
120.9954203116
 20
90.6252850411
 10
121.0883463205
 20
87.7210691045
  0
LWPOLYLINE
  5
262
100
AcDbEntity
  8
0
100
AcDbPolyline
 62
253
  6
CONTINUOUS
 90
7
 70
0
 10
129.9200520497
 20
128.2665143995
 10
129.9210351141
 20
128.2678626633
 10
129.9238525015
 20
128.2752286128
 10
129.923973434
 20
128.2845742112
 10
129.9213958651
 20
128.295741322
 10
129.9161634099
 20
128.3085409869
 10
129.9083646065
 20
128.3227566231
  0
LWPOLYLINE
  5
263
100
AcDbEntity
  8
0
100
AcDbPolyline
 62
7
  6
CONTINUOUS
 90
6
 70
0
 10
129.9200271878
 20
128.2664837124
 10
129.9294836167
 20
128.2788877731
 10
129.9430949802
 20
128.2997343968
 10
129.9549498615
 20
128.3219963936
 10
129.9648964822
 20
128.3455562285
 10
129.9725545422
 20
128.3695356007
  0
LINE
  5
264
100
AcDbEntity
  8
0
100
AcDbLine
 62
7
  6
CONTINUOUS
 10
129.9200520497
 20
128.2665143995
 11
129.3674973006
 21
127.5827644761
  0
LINE
  5
265
100
AcDbEntity
  8
0
100
AcDbLine
 62
253
  6
CONTINUOUS
 10
133.4978848915
 20
125.9306403031
 11
133.7162309288
 21
126.0406551847
  0
LINE
  5
266
100
AcDbEntity
  8
0
100
AcDbLine
 62
253
  6
CONTINUOUS
 10
133.6746346628
 20
125.6257920415
 11
133.8929807002
 21
125.735806923
  0
LINE
  5
267
100
AcDbEntity
  8
0
100
AcDbLine
 62
7
  6
CONTINUOUS
 10
139.0276795584
 20
128.1298698924
 11
137.9464361888
 21
127.5892482076
  0
LINE
  5
268
100
AcDbEntity
  8
0
100
AcDbLine
 62
253
  6
CONTINUOUS
 10
133.7162309288
 20
126.0406551847
 11
134.3694496934
 21
126.3646565075
  0
LINE
  5
269
100
AcDbEntity
  8
0
100
AcDbLine
 62
253
  6
CONTINUOUS
 10
133.8929807002
 20
125.735806923
 11
134.5507491116
 21
126.0620649042
  0
LINE
  5
26A
100
AcDbEntity
  8
0
100
AcDbLine
 62
253
  6
CONTINUOUS
 10
139.9014127629
 20
129.1863932835
 11
137.6307460696
 21
128.1002790814
  0
LINE
  5
26B
100
AcDbEntity
  8
0
100
AcDbLine
 62
253
  6
CONTINUOUS
 10
140.0750773556
 20
128.8837809894
 11
137.9495588753
 21
127.86709465
  0
LINE
  5
26C
100
AcDbEntity
  8
0
100
AcDbLine
 62
253
  6
CONTINUOUS
 10
135.717725887
 20
128.9332466754
 11
132.4026456565
 21
127.3480585259
  0
LINE
  5
26D
100
AcDbEntity
  8
0
100
AcDbLine
 62
253
  6
CONTINUOUS
 10
135.8913568266
 20
128.6325401264
 11
132.7949400271
 21
127.1519113406
  0
LINE
  5
26E
100
AcDbEntity
  8
0
100
AcDbLine
 62
7
  6
CONTINUOUS
 10
137.0044928452
 20
127.96547583
 11
135.903800868
 21
127.4391525565
  0
LINE
  5
26F
100
AcDbEntity
  8
0
100
AcDbLine
 62
253
  6
CONTINUOUS
 10
142.4948653116
 20
80.8049021312
 11
141.9539980057
 21
80.9141051263
  0
LINE
  5
270
100
AcDbEntity
  8
0
100
AcDbLine
 62
253
  6
CONTINUOUS
 10
142.4216962252
 20
81.0597256906
 11
141.9539980057
 21
81.1541555921
  0
LWPOLYLINE
  5
271
100
AcDbEntity
  8
0
100
AcDbPolyline
 62
253
  6
CONTINUOUS
 90
3
 70
0
 10
142.4448199174
 20
81.0517871473
 10
142.4388165646
 20
81.0545086286
 10
142.4216960519
 20
81.0597257764
  0
LINE
  5
272
100
AcDbEntity
  8
0
100
AcDbLine
 62
253
  6
CONTINUOUS
 10
138.7612708282
 20
80.3159565215
 11
138.8873673817
 21
80.2529082447
  0
LINE
  5
273
100
AcDbEntity
  8
0
100
AcDbLine
 62
253
  6
CONTINUOUS
 10
139.0809316678
 20
80.1561261017
 11
140.0164001861
 21
79.688374492
  0
LINE
  5
274
100
AcDbEntity
  8
0
100
AcDbLine
 62
253
  6
CONTINUOUS
 10
140.1050444297
 20
79.9198696994
 11
139.3224131243
 21
80.3112737211
  0
LINE
  5
275
100
AcDbEntity
  8
0
100
AcDbLine
 62
7
  6
CONTINUOUS
 10
140.7011059671
 20
80.6781457332
 11
140.2220199268
 21
80.9176887534
  0
LINE
  5
276
100
AcDbEntity
  8
0
100
AcDbLine
 62
253
  6
CONTINUOUS
 10
141.9539980057
 20
81.2935768545
 11
142.4216962252
 21
81.0597256906
  0
LINE
  5
277
100
AcDbEntity
  8
0
100
AcDbLine
 62
7
  6
CONTINUOUS
 10
141.9539980057
 20
81.2971984688
 11
142.4450476805
 21
81.0516736314
  0
LWPOLYLINE
  5
278
100
AcDbEntity
  8
0
100
AcDbPolyline
 62
253
  6
CONTINUOUS
 90
8
 70
0
 10
121.0884765671
 20
87.7181934862
 10
121.0923387315
 20
87.6924332161
 10
121.1010071942
 20
87.6671196719
 10
121.1143979066
 20
87.6424982913
 10
121.1323810335
 20
87.6188078013
 10
121.1547822121
 20
87.5962779028
 10
121.1813842423
 20
87.5751270438
 10
121.2119291931
 20
87.5555603013
  0
LWPOLYLINE
  5
279
100
AcDbEntity
  8
0
100
AcDbPolyline
 62
253
  6
CONTINUOUS
 90
9
 70
0
 10
121.0883280206
 20
123.87852939
 10
121.0884846271
 20
123.8679899486
 10
121.0923473741
 20
123.8446888788
 10
121.101016297
 20
123.821554283
 10
121.1144073444
 20
123.7988104681
 10
121.1323906803
 20
123.7766779519
 10
121.1547919434
 20
123.7553713254
 10
121.1813939373
 20
123.7350971716
 10
121.2119387363
 20
123.7160520631
  0
LINE
  5
27A
100
AcDbEntity
  8
RACCORDO
100
AcDbLine
 62
7
  6
CONTINUOUS
 10
136.3934735844
 20
125.3526445619
 11
137.6731756929
 21
126.4726322226
  0
LINE
  5
27B
100
AcDbEntity
  8
RACCORDO
100
AcDbLine
 62
253
  6
CONTINUOUS
 10
136.5473761392
 20
125.2756932845
 11
137.9218305803
 21
126.4786076222
  0
LWPOLYLINE
  5
27C
100
AcDbEntity
  8
0
100
AcDbPolyline
 62
253
  6
CONTINUOUS
 90
7
 70
0
 10
140.6054074414
 20
128.4902703682
 10
140.626968478
 20
128.5025305565
 10
140.6451367804
 20
128.5160284487
 10
140.659601417
 20
128.5305331351
 10
140.6701148136
 20
128.5457964741
 10
140.6764969859
 20
128.5615573273
 10
140.678632642
 20
128.5784041254
  0
LWPOLYLINE
  5
27D
100
AcDbEntity
  8
0
100
AcDbPolyline
 62
7
  6
CONTINUOUS
 90
12
 70
0
 10
134.8748857486
 20
125.1896886122
 10
134.8667261873
 20
125.1850584353
 10
134.8475406515
 20
125.1722022058
 10
134.8297530469
 20
125.1573456074
 10
134.8136025911
 20
125.140676294
 10
134.7991523339
 20
125.1222212909
 10
134.7866099133
 20
125.102170939
 10
134.7761728289
 20
125.0807853422
 10
134.7679056198
 20
125.0581167475
 10
134.7619343802
 20
125.0342964192
 10
134.7583993273
 20
125.0096345611
 10
134.7573657084
 20
124.9869420616
  0
LINE
  5
27E
100
AcDbEntity
  8
0
100
AcDbLine
 62
7
  6
CONTINUOUS
 10
133.8929807002
 20
124.5666396529
 11
133.6746346628
 21
124.4474381332
  0
LINE
  5
27F
100
AcDbEntity
  8
0
100
AcDbLine
 62
7
  6
CONTINUOUS
 10
135.0866840339
 20
125.3039587294
 11
134.8748716616
 21
125.1896810951
  0
LINE
  5
280
100
AcDbEntity
  8
0
100
AcDbLine
 62
253
  6
CONTINUOUS
 10
135.2011013214
 20
125.2982199884
 11
134.9902470041
 21
125.1844592468
  0
LINE
  5
281
100
AcDbEntity
  8
DRAFT
100
AcDbLine
 62
7
  6
CONTINUOUS
 10
136.8628291812
 20
125.7956886932
 11
136.2108744215
 21
125.4439441434
  0
LINE
  5
282
100
AcDbEntity
  8
RACCORDO
100
AcDbLine
 62
253
  6
CONTINUOUS
 10
138.0443642423
 20
126.5351562188
 11
138.073637768
 21
126.5507301355
  0
LINE
  5
283
100
AcDbEntity
  8
RACCORDO
100
AcDbLine
 62
253
  6
CONTINUOUS
 10
138.073637768
 20
126.5507301355
 11
138.080824427
 21
126.5545081566
  0
LINE
  5
284
100
AcDbEntity
  8
RACCORDO
100
AcDbLine
 62
253
  6
CONTINUOUS
 10
138.0379370385
 20
126.5317761653
 11
138.0443642423
 21
126.5351562188
  0
LINE
  5
285
100
AcDbEntity
  8
RACCORDO
100
AcDbLine
 62
253
  6
CONTINUOUS
 10
138.080824427
 20
126.5545081566
 11
138.0882110506
 21
126.5583427447
  0
LINE
  5
286
100
AcDbEntity
  8
RACCORDO
100
AcDbLine
 62
253
  6
CONTINUOUS
 10
138.0315940861
 20
126.5284858249
 11
138.0379370385
 21
126.5317761653
  0
LINE
  5
287
100
AcDbEntity
  8
0
100
AcDbLine
 62
7
  6
CONTINUOUS
 10
134.5750409305
 20
124.9183028123
 11
133.8929807002
 21
124.5666396529
  0
LINE
  5
288
100
AcDbEntity
  8
RACCORDO
100
AcDbLine
 62
253
  6
CONTINUOUS
 10
138.0882110506
 20
126.5583427447
 11
138.0932548141
 21
126.5609273641
  0
LINE
  5
289
100
AcDbEntity
  8
0
100
AcDbLine
 62
7
  6
CONTINUOUS
 10
137.0044928452
 20
125.9925030278
 11
136.0693359172
 21
125.5147133955
  0
LINE
  5
28A
100
AcDbEntity
  8
RACCORDO
100
AcDbLine
 62
253
  6
CONTINUOUS
 10
138.0274031922
 20
126.5263436623
 11
138.0315940861
 21
126.5284858249
  0
LINE
  5
28B
100
AcDbEntity
  8
DRAFT
100
AcDbLine
 62
7
  6
CONTINUOUS
 10
157.114759961
 20
134.6948281381
 11
158.1661638916
 21
135.2297863445
  0
LINE
  5
28C
100
AcDbEntity
  8
RACCORDO
100
AcDbLine
 62
253
  6
CONTINUOUS
 10
138.0932548141
 20
126.5609273641
 11
138.0983999409
 21
126.5635320793
  0
LINE
  5
28D
100
AcDbEntity
  8
0
100
AcDbLine
 62
253
  6
CONTINUOUS
 10
137.2101954927
 20
124.0744850025
 11
137.4285415301
 21
124.184499884
  0
LINE
  5
28E
100
AcDbEntity
  8
RACCORDO
100
AcDbLine
 62
253
  6
CONTINUOUS
 10
138.0232349479
 20
126.5242434507
 11
138.0274031922
 21
126.5263436623
  0
LINE
  5
28F
100
AcDbEntity
  8
0
100
AcDbLine
 62
7
  6
CONTINUOUS
 10
135.0866777414
 20
125.3039553535
 11
135.0918919448
 21
125.3065659347
  0
LINE
  5
290
100
AcDbEntity
  8
RACCORDO
100
AcDbLine
 62
7
  6
CONTINUOUS
 10
157.114759961
 20
134.6938954817
 11
149.4114339643
 21
130.8574741735
  0
LWPOLYLINE
  5
291
100
AcDbEntity
  8
RACCORDO
100
AcDbPolyline
 62
7
  6
CONTINUOUS
 90
6
 70
0
 10
137.711243611
 20
126.4973888682
 10
137.7029619471
 20
126.4932675751
 10
137.6948670203
 20
126.4886262635
 10
137.6870530344
 20
126.4835081011
 10
137.6795290523
 20
126.4779180931
 10
137.6732119414
 20
126.4726639448
  0
LINE
  5
292
100
AcDbEntity
  8
RACCORDO
100
AcDbLine
 62
253
  6
CONTINUOUS
 10
138.0983999409
 20
126.5635320793
 11
138.1036519114
 21
126.5661545318
  0
LINE
  5
293
100
AcDbEntity
  8
0
100
AcDbLine
 62
253
  6
CONTINUOUS
 10
137.4285415301
 20
124.184499884
 11
141.3390702341
 21
126.12415095
  0
LINE
  5
294
100
AcDbEntity
  8
RACCORDO
100
AcDbLine
 62
253
  6
CONTINUOUS
 10
138.019085026
 20
126.5221855152
 11
138.0232349479
 21
126.5242434507
  0
LINE
  5
295
100
AcDbEntity
  8
RACCORDO
100
AcDbLine
 62
253
  6
CONTINUOUS
 10
138.1036519114
 20
126.5661545318
 11
138.1090143987
 21
126.5687931564
  0
LINE
  5
296
100
AcDbEntity
  8
RACCORDO
100
AcDbLine
 62
7
  6
CONTINUOUS
 10
157.2879773188
 20
136.2508930099
 11
140.795379432
 21
128.2150810152
  0
LINE
  5
297
100
AcDbEntity
  8
SMUSSO
100
AcDbLine
 62
7
  6
CONTINUOUS
 10
158.1661638916
 20
135.6255557662
 11
141.8622176304
 21
127.681661916
  0
LINE
  5
298
100
AcDbEntity
  8
RACCORDO
100
AcDbLine
 62
253
  6
CONTINUOUS
 10
138.014946898
 20
126.5201702251
 11
138.019085026
 21
126.5221855152
  0
LINE
  5
299
100
AcDbEntity
  8
RACCORDO
100
AcDbLine
 62
253
  6
CONTINUOUS
 10
138.1090143987
 20
126.5687931564
 11
138.1144930182
 21
126.5714456537
  0
LINE
  5
29A
100
AcDbEntity
  8
0
100
AcDbLine
 62
7
  6
CONTINUOUS
 10
141.0452869051
 20
126.2213640413
 11
137.7823662332
 21
124.6581982375
  0
LINE
  5
29B
100
AcDbEntity
  8
0
100
AcDbLine
 62
253
  6
CONTINUOUS
 10
141.1563843119
 20
126.213917463
 11
137.8443331905
 21
124.6272147589
  0
LINE
  5
29C
100
AcDbEntity
  8
RACCORDO
100
AcDbLine
 62
253
  6
CONTINUOUS
 10
138.0108129621
 20
126.5181972743
 11
138.014946898
 21
126.5201702251
  0
LINE
  5
29D
100
AcDbEntity
  8
RACCORDO
100
AcDbLine
 62
253
  6
CONTINUOUS
 10
138.1144930182
 20
126.5714456537
 11
138.1200928487
 21
126.5741094535
  0
LINE
  5
29E
100
AcDbEntity
  8
RACCORDO
100
AcDbLine
 62
7
  6
CONTINUOUS
 10
159.0301907008
 20
135.3797863189
 11
142.2472011619
 21
127.4891701503
  0
LINE
  5
29F
100
AcDbEntity
  8
RACCORDO
100
AcDbLine
 62
253
  6
CONTINUOUS
 10
138.1200928487
 20
126.5741094535
 11
138.1258172312
 21
126.5767828228
  0
LINE
  5
2A0
100
AcDbEntity
  8
RACCORDO
100
AcDbLine
 62
253
  6
CONTINUOUS
 10
138.0066809533
 20
126.5162666032
 11
138.0108129621
 21
126.5181972743
  0
LINE
  5
2A1
100
AcDbEntity
  8
0
100
AcDbLine
 62
7
  6
CONTINUOUS
 10
135.7694034354
 20
125.6194632025
 11
135.0919502159
 21
125.3065928557
  0
LINE
  5
2A2
100
AcDbEntity
  8
RACCORDO
100
AcDbLine
 62
7
  6
CONTINUOUS
 10
137.7112792939
 20
126.4974052577
 11
137.8268791316
 21
126.5509045743
  0
LINE
  5
2A3
100
AcDbEntity
  8
0
100
AcDbLine
 62
253
  6
CONTINUOUS
 10
135.8775291536
 20
125.6106167773
 11
135.2011013214
 21
125.2982199884
  0
LINE
  5
2A4
100
AcDbEntity
  8
RACCORDO
100
AcDbLine
 62
253
  6
CONTINUOUS
 10
137.9234355051
 20
126.4778210965
 11
138.0066809533
 21
126.5162666032
  0
LINE
  5
2A5
100
AcDbEntity
  8
DRAFT
100
AcDbLine
 62
7
  6
CONTINUOUS
 10
136.940889078
 20
125.8317393403
 11
136.8628291812
 21
125.7956886932
  0
LINE
  5
2A6
100
AcDbEntity
  8
RACCORDO
100
AcDbLine
 62
7
  6
CONTINUOUS
 10
137.8369764408
 20
126.5555398581
 11
137.8268791316
 21
126.5509045743
  0
LINE
  5
2A7
100
AcDbEntity
  8
RACCORDO
100
AcDbLine
 62
253
  6
CONTINUOUS
 10
138.1258172312
 20
126.5767828228
 11
138.1316710615
 21
126.5794631073
  0
LWPOLYLINE
  5
2A8
100
AcDbEntity
  8
RACCORDO
100
AcDbPolyline
 62
253
  6
CONTINUOUS
 90
18
 70
0
 10
138.7758168338
 20
126.6076380124
 10
138.7814452441
 20
126.6101945069
 10
138.7870608119
 20
126.6124702991
 10
138.7926546302
 20
126.6144617792
 10
138.7982178261
 20
126.6161657883
 10
138.8037415757
 20
126.6175796237
 10
138.8092171171
 20
126.6187010427
 10
138.8146357654
 20
126.6195282666
 10
138.8199889256
 20
126.6200599834
 10
138.8252681068
 20
126.6202953496
 10
138.8304649353
 20
126.6202339918
 10
138.8355711681
 20
126.6198760075
 10
138.8405787058
 20
126.6192219645
 10
138.8454796056
 20
126.6182729001
 10
138.850266094
 20
126.6170303198
 10
138.8549305787
 20
126.6154961945
 10
138.8594656612
 20
126.6136729575
 10
138.8627914103
 20
126.6121106781
  0
LINE
  5
2A9
100
AcDbEntity
  8
RACCORDO
100
AcDbLine
 62
7
  6
CONTINUOUS
 10
137.8475978608
 20
126.5603555937
 11
137.8369764408
 21
126.5555398581
  0
LWPOLYLINE
  5
2AA
100
AcDbEntity
  8
RACCORDO
100
AcDbPolyline
 62
253
  6
CONTINUOUS
 90
22
 70
0
 10
137.7908711216
 20
126.5341634013
 10
137.7939994586
 20
126.5355733438
 10
137.8032479234
 20
126.5393472375
 10
137.8127075402
 20
126.5426296928
 10
137.8223681834
 20
126.5454171961
 10
137.8322195122
 20
126.5477067636
 10
137.8422509815
 20
126.5494959445
 10
137.8524518536
 20
126.5507828238
 10
137.8628112093
 20
126.551566024
 10
137.87331796
 20
126.5518447066
 10
137.8839608591
 20
126.5516185735
 10
137.8947285143
 20
126.5508878666
 10
137.9056093998
 20
126.5496533682
 10
137.9165918687
 20
126.5479163996
 10
137.9276641651
 20
126.5456788202
 10
137.9388144373
 20
126.5429430251
 10
137.9500307498
 20
126.5397119426
 10
137.9613010966
 20
126.5359890313
 10
137.9726134138
 20
126.5317782764
 10
137.9839555927
 20
126.527084185
 10
137.9953154924
 20
126.5219117817
 10
138.0066809533
 20
126.5162666032
  0
LINE
  5
2AB
100
AcDbEntity
  8
RACCORDO
100
AcDbLine
 62
253
  6
CONTINUOUS
 10
138.1316710615
 20
126.5794631073
 11
138.1376590436
 21
126.5821475657
  0
LINE
  5
2AC
100
AcDbEntity
  8
RACCORDO
100
AcDbLine
 62
7
  6
CONTINUOUS
 10
137.8587291936
 20
126.5653260672
 11
137.8475978608
 21
126.5603555937
  0
LINE
  5
2AD
100
AcDbEntity
  8
RACCORDO
100
AcDbLine
 62
7
  6
CONTINUOUS
 10
137.8703810877
 20
126.5704367858
 11
137.8587291936
 21
126.5653260672
  0
LINE
  5
2AE
100
AcDbEntity
  8
RACCORDO
100
AcDbLine
 62
253
  6
CONTINUOUS
 10
138.1376590436
 20
126.5821475657
 11
138.1437842107
 21
126.5848343256
  0
LWPOLYLINE
  5
2AF
100
AcDbEntity
  8
0
100
AcDbPolyline
 62
253
  6
CONTINUOUS
 90
10
 70
0
 10
144.5969501033
 20
126.8386246134
 10
144.6491231177
 20
126.8612652398
 10
144.7008943228
 20
126.8790380432
 10
144.7519801339
 20
126.8918460226
 10
144.8020990796
 20
126.8996200924
 10
144.8509774229
 20
126.9023175796
 10
144.8983506444
 20
126.8999223738
 10
144.9439575128
 20
126.8924485472
 10
144.9875473733
 20
126.8799373768
 10
145.0297379422
 20
126.8620304638
  0
LINE
  5
2B0
100
AcDbEntity
  8
RACCORDO
100
AcDbLine
 62
7
  6
CONTINUOUS
 10
137.8826057204
 20
126.5756905264
 11
137.8703810877
 21
126.5704367858
  0
LWPOLYLINE
  5
2B1
100
AcDbEntity
  8
0
100
AcDbPolyline
 62
7
  6
CONTINUOUS
 90
4
 70
0
 10
135.0918919448
 20
125.3065659347
 10
135.0969328149
 20
125.3087204242
 10
135.1125240198
 20
125.3133688646
 10
135.1292171596
 20
125.3154551842
  0
LWPOLYLINE
  5
2B2
100
AcDbEntity
  8
RACCORDO
100
AcDbPolyline
 62
253
  6
CONTINUOUS
 90
3
 70
0
 10
138.1437842107
 20
126.5848343256
 10
138.1500510063
 20
126.5875205289
 10
138.1532388156
 20
126.5888623951
  0
LINE
  5
2B3
100
AcDbEntity
  8
0
100
AcDbLine
 62
7
  6
CONTINUOUS
 10
141.0798658289
 20
126.2359080385
 11
141.0452176136
 21
126.2213192975
  0
LWPOLYLINE
  5
2B4
100
AcDbEntity
  8
RACCORDO
100
AcDbPolyline
 62
253
  6
CONTINUOUS
 90
153
 70
0
 10
138.1532388156
 20
126.5888623951
 10
138.159724608
 20
126.5915426495
 10
138.1630238902
 20
126.5928800128
 10
138.1663611854
 20
126.5942151888
 10
138.1697365072
 20
126.5955481816
 10
138.1731512033
 20
126.5968779806
 10
138.1766053472
 20
126.5982046161
 10
138.1800988654
 20
126.5995280579
 10
138.183632886
 20
126.6008472049
 10
138.1872074917
 20
126.6021620869
 10
138.1908225997
 20
126.603472674
 10
138.1944790905
 20
126.6047777759
 10
138.1981769884
 20
126.6060773993
 10
138.201916269
 20
126.6073715376
 10
138.2056977392
 20
126.60865898
 10
138.2095214317
 20
126.6099397364
 10
138.2133873138
 20
126.611213797
 10
138.2172960951
 20
126.612479922
 10
138.2212478173
 20
126.6137381237
 10
138.2252424387
 20
126.6149883898
 10
138.2292805436
 20
126.6162294429
 10
138.2333621694
 20
126.6174612938
 10
138.2374872788
 20
126.6186839317
 10
138.2416563434
 20
126.619896047
 10
138.2458694195
 20
126.6210976553
 10
138.2501264509
 20
126.6222887409
 10
138.2544277404
 20
126.6234679478
 10
138.2587733663
 20
126.6246352952
 10
138.2631632504
 20
126.6257907638
 10
138.2675974613
 20
126.6269329396
 10
138.2720760793
 20
126.6280618394
 10
138.2765990241
 20
126.6291774463
 10
138.2811661233
 20
126.6302782961
 10
138.2857774481
 20
126.6313644005
 10
138.2904329274
 20
126.6324357477
 10
138.2951321758
 20
126.6334908376
 10
138.2998751432
 20
126.6345296573
 10
138.3046618798
 20
126.6355522197
 10
138.3094921507
 20
126.6365570636
 10
138.3143687925
 20
126.637544682
 10
138.3192889687
 20
126.6385145818
 10
138.324243935
 20
126.6394638227
 10
138.3292372555
 20
126.640392784
 10
138.334265366
 20
126.6413010864
 10
138.3393088304
 20
126.6421846521
 10
138.344364903
 20
126.6430426967
 10
138.3494363294
 20
126.6438760045
 10
138.3545119107
 20
126.6446828507
 10
138.359588922
 20
126.6454626849
 10
138.3646700883
 20
126.6462160574
 10
138.369752385
 20
126.6469428943
 10
138.374835269
 20
126.6476431027
 10
138.3799192835
 20
126.6483167755
 10
138.3850030342
 20
126.6489641168
 10
138.3900865635
 20
126.6495851322
 10
138.395169829
 20
126.6501798161
 10
138.4002513097
 20
126.650748356
 10
138.4053312244
 20
126.6512907688
 10
138.4104093543
 20
126.6518070377
 10
138.4154835227
 20
126.6522973
 10
138.4205538569
 20
126.6527615506
 10
138.4256202296
 20
126.6531997946
 10
138.4306800824
 20
126.6536121842
 10
138.4357335579
 20
126.6539987064
 10
138.4407805134
 20
126.6543593742
 10
138.4458179631
 20
126.6546943795
 10
138.4508459206
 20
126.6550036945
 10
138.4558643722
 20
126.655287347
 10
138.4608702908
 20
126.655545612
 10
138.4658635808
 20
126.6557784588
 10
138.4708443379
 20
126.6559859181
 10
138.4758098213
 20
126.656168357
 10
138.4807600181
 20
126.6563257521
 10
138.4856949414
 20
126.6564581268
 10
138.4906118891
 20
126.6565659186
 10
138.4955108208
 20
126.6566491048
 10
138.5003917771
 20
126.6567077081
 10
138.5052521778
 20
126.6567422342
 10
138.5100919507
 20
126.6567526633
 10
138.514911168
 20
126.6567390152
 10
138.5197074666
 20
126.6567018551
 10
138.5244807614
 20
126.6566411678
 10
138.5292311374
 20
126.6565569685
 10
138.5339564865
 20
126.6564498676
 10
138.538656881
 20
126.6563198463
 10
138.5433322486
 20
126.6561669234
 10
138.5479802647
 20
126.6559917658
 10
138.5526010939
 20
126.6557943411
 10
138.5571945717
 20
126.6555746817
 10
138.5617578799
 20
126.6553335527
 10
138.5662908848
 20
126.6550709321
 10
138.5707937203
 20
126.654786842
 10
138.5752639692
 20
126.654482113
 10
138.5797014022
 20
126.6541567406
 10
138.5841062487
 20
126.6538107293
 10
138.5884767804
 20
126.6534449242
 10
138.5928128891
 20
126.6530593213
 10
138.5971146829
 20
126.6526539244
 10
138.6013807576
 20
126.6522295902
 10
138.6056110333
 20
126.6517863168
 10
138.6098055898
 20
126.6513241059
 10
138.613963263
 20
126.6508438202
 10
138.6180839757
 20
126.6503454606
 10
138.622167805
 20
126.6498290261
 10
138.6262138174
 20
126.6492953759
 10
138.6302219261
 20
126.648744516
 10
138.6341922178
 20
126.6481764403
 10
138.6381240196
 20
126.6475919894
 10
138.6420172729
 20
126.6469911688
 10
138.6458720362
 20
126.646373973
 10
138.6496878128
 20
126.6457412268
 10
138.6534645262
 20
126.6450929413
 10
138.6572022527
 20
126.6444291054
 10
138.6609007244
 20
126.6437505105
 10
138.6645598574
 20
126.6430571732
 10
138.6681797355
 20
126.6423490769
 10
138.6717603418
 20
126.6416269622
 10
138.6753016423
 20
126.6408908391
 10
138.678803671
 20
126.6401406975
 10
138.6822665135
 20
126.6393772477
 10
138.6856900985
 20
126.6386005107
 10
138.6890744972
 20
126.6378104654
 10
138.6924200093
 20
126.6370077593
 10
138.6957265243
 20
126.6361924297
 10
138.6989941526
 20
126.6353644394
 10
138.702223525
 20
126.634524324
 10
138.7054146094
 20
126.6336721071
 10
138.7085674379
 20
126.6328077652
 10
138.7116827376
 20
126.6319317631
 10
138.7147604935
 20
126.6310441217
 10
138.7178007205
 20
126.6301448202
 10
138.7208041902
 20
126.6292342605
 10
138.7237708757
 20
126.6283124696
 10
138.726700804
 20
126.6273794205
 10
138.7295948274
 20
126.6264354348
 10
138.7324529399
 20
126.6254805353
 10
138.7352751475
 20
126.6245146992
 10
138.7380623214
 20
126.6235381792
 10
138.7408144712
 20
126.6225509935
 10
138.7435315873
 20
126.621553124
 10
138.7462145124
 20
126.6205447687
 10
138.7488632585
 20
126.6195259458
 10
138.7514778136
 20
126.6184966372
 10
138.7540589838
 20
126.6174569866
 10
138.7566067825
 20
126.6164070106
 10
138.7591211963
 20
126.6153466926
 10
138.7616029913
 20
126.6142761267
 10
138.7640521809
 20
126.6131953331
 10
138.7664687516
 20
126.6121042915
 10
138.7688534297
 20
126.6110030354
 10
138.7712064571
 20
126.6098915757
 10
138.7735275918
 20
126.6087699013
 10
138.7758168338
 20
126.6076380124
  0
LWPOLYLINE
  5
2B5
100
AcDbEntity
  8
0
100
AcDbPolyline
 62
253
  6
CONTINUOUS
 90
3
 70
0
 10
141.0688953543
 20
126.2291583575
 10
141.0496398042
 20
126.2233186217
 10
141.0452869051
 20
126.2213640413
  0
LINE
  5
2B6
100
AcDbEntity
  8
0
100
AcDbLine
 62
7
  6
CONTINUOUS
 10
143.0023155827
 20
84.0317683205
 11
141.845516229
 21
84.6101679973
  0
LINE
  5
2B7
100
AcDbEntity
  8
0
100
AcDbLine
 62
253
  6
CONTINUOUS
 10
142.4397052041
 20
81.0489277812
 11
142.4217080296
 21
81.0597233073
  0
LWPOLYLINE
  5
2B8
100
AcDbEntity
  8
0
100
AcDbPolyline
 62
253
  6
CONTINUOUS
 90
18
 70
0
 10
125.365398158
 20
128.3134955912
 10
125.3655524504
 20
128.3045189867
 10
125.366030967
 20
128.2954821672
 10
125.3668580322
 20
128.2864163748
 10
125.3680599284
 20
128.277342098
 10
125.3696594142
 20
128.2683100672
 10
125.3716701122
 20
128.2593972285
 10
125.3741095814
 20
128.2506410977
 10
125.3769943218
 20
128.2420813992
 10
125.3803249041
 20
128.2337929056
 10
125.3841102029
 20
128.2258132537
 10
125.388357531
 20
128.2181811864
 10
125.3930528368
 20
128.2109640632
 10
125.3981950882
 20
128.2041955927
 10
125.4037816488
 20
128.1979092053
 10
125.4097839171
 20
128.1921593155
 10
125.41619099
 20
128.1869717018
 10
125.4229907922
 20
128.1823706892
  0
LWPOLYLINE
  5
2B9
100
AcDbEntity
  8
0
100
AcDbPolyline
 62
7
  6
CONTINUOUS
 90
9
 70
0
 10
125.3068195344
 20
128.3841773979
 10
125.3068526708
 20
128.3801079851
 10
125.3086894752
 20
128.3536467059
 10
125.3133410849
 20
128.3277138598
 10
125.3207532571
 20
128.3026855558
 10
125.3307557554
 20
128.2790052472
 10
125.343223081
 20
128.2568273805
 10
125.3580483669
 20
128.2362944745
 10
125.3749690329
 20
128.2177317757
  0
LINE
  5
2BA
100
AcDbEntity
  8
0
100
AcDbLine
 62
7
  6
CONTINUOUS
 10
125.3068195145
 20
128.7014764743
 11
125.3068195145
 21
128.384207674
  0
LINE
  5
2BB
100
AcDbEntity
  8
0
100
AcDbLine
 62
253
  6
CONTINUOUS
 10
125.3653981583
 20
128.6307657962
 11
125.3653981583
 21
128.313495591
  0
LINE
  5
2BC
100
AcDbEntity
  8
0
100
AcDbLine
 62
7
  6
CONTINUOUS
 10
126.0216826349
 20
127.4286758037
 11
126.0216826349
 21
127.8826229556
  0
LINE
  5
2BD
100
AcDbEntity
  8
0
100
AcDbLine
 62
253
  6
CONTINUOUS
 10
126.0949059396
 20
127.3369371591
 11
126.0949059396
 21
127.8460113033
  0
LINE
  5
2BE
100
AcDbEntity
  8
0
100
AcDbLine
 62
7
  6
CONTINUOUS
 10
126.2276433719
 20
127.7835661705
 11
126.2276433719
 21
126.5732720864
  0
LINE
  5
2BF
100
AcDbEntity
  8
0
100
AcDbLine
 62
253
  6
CONTINUOUS
 10
126.3008666766
 20
127.8457627367
 11
126.3008666766
 21
126.4814635412
  0
LINE
  5
2C0
100
AcDbEntity
  8
0
100
AcDbLine
 62
253
  6
CONTINUOUS
 10
126.4944309627
 20
127.7489805936
 11
126.4944309627
 21
126.3846813982
  0
LWPOLYLINE
  5
2C1
100
AcDbEntity
  8
0
100
AcDbPolyline
 62
7
  6
CONTINUOUS
 90
3
 70
0
 10
129.9725545422
 20
128.3695356007
 10
129.9779232882
 20
128.3936993275
 10
129.9810700663
 20
128.4185407942
  0
LWPOLYLINE
  5
2C2
100
AcDbEntity
  8
0
100
AcDbPolyline
 62
7
  6
CONTINUOUS
 90
9
 70
0
 10
142.3199985138
 20
125.8088436799
 10
142.3185324143
 20
125.8079499536
 10
142.3144171561
 20
125.8033996832
 10
142.3102342809
 20
125.7958394216
 10
142.3061106411
 20
125.7850431184
 10
142.3022161518
 20
125.7712480006
 10
142.2988374339
 20
125.7552982229
 10
142.2961401768
 20
125.737480825
 10
142.2941439596
 20
125.717522963
  0
LWPOLYLINE
  5
2C3
100
AcDbEntity
  8
0
100
AcDbPolyline
 62
7
  6
CONTINUOUS
 90
12
 70
0
 10
138.0325841367
 20
122.6452612778
 10
138.0211788131
 20
122.6387086508
 10
137.9989068857
 20
122.6233646077
 10
137.9780319316
 20
122.6053757726
 10
137.9588624043
 20
122.5849404549
 10
137.9421053647
 20
122.5629271938
 10
137.9274559708
 20
122.539062076
 10
137.9149894013
 20
122.5132617701
 10
137.9053547194
 20
122.486822258
 10
137.8985469904
 20
122.4600713644
 10
137.8944487325
 20
122.432263164
 10
137.8933203525
 20
122.408196358
  0
LWPOLYLINE
  5
2C4
100
AcDbEntity
  8
0
100
AcDbPolyline
 62
253
  6
CONTINUOUS
 90
9
 70
0
 10
141.5158909713
 20
125.8193381019
 10
141.541683592
 20
125.8336932547
 10
141.5642599178
 20
125.8493496155
 10
141.5833735386
 20
125.8661377317
 10
141.5988161232
 20
125.8838754773
 10
141.6104167207
 20
125.9023703948
 10
141.6180461106
 20
125.9214213387
 10
141.6216212453
 20
125.9408192525
 10
141.6219051508
 20
125.9474615249
  0
LWPOLYLINE
  5
2C5
100
AcDbEntity
  8
0
100
AcDbPolyline
 62
253
  6
CONTINUOUS
 90
31
 70
0
 10
141.3390702341
 20
126.12415095
 10
141.3479330518
 20
126.1290776363
 10
141.3555588793
 20
126.1343158851
 10
141.3619477165
 20
126.1398656965
 10
141.3671423483
 20
126.1457940958
 10
141.3710999898
 20
126.1520340577
 10
141.3736922864
 20
126.1583845063
 10
141.37487452
 20
126.1648484661
 10
141.3746914088
 20
126.1714229125
 10
141.3731487527
 20
126.177897696
 10
141.3702024646
 20
126.184269587
 10
141.3658966318
 20
126.190541815
 10
141.3603693156
 20
126.1965139187
 10
141.3535811678
 20
126.2021762031
 10
141.3455715368
 20
126.2075383633
 10
141.3365965284
 20
126.2124290233
 10
141.3266249456
 20
126.2168329274
 10
141.3156879854
 20
126.2207653314
 10
141.3041353452
 20
126.2241006273
 10
141.2919471814
 20
126.2268195952
 10
141.2791433376
 20
126.2289414551
 10
141.266133041
 20
126.2303982587
 10
141.2529096703
 20
126.2311683485
 10
141.2394798469
 20
126.231273382
 10
141.2262726621
 20
126.2307103835
 10
141.2132896219
 20
126.2294554096
 10
141.2005292202
 20
126.2275324036
 10
141.1884160311
 20
126.2250102205
 10
141.1770915789
 20
126.2219118118
 10
141.1664143392
 20
126.218214226
 10
141.1563843119
 20
126.213917463
  0
LWPOLYLINE
  5
2C6
100
AcDbEntity
  8
0
100
AcDbPolyline
 62
253
  6
CONTINUOUS
 90
12
 70
0
 10
138.1249819935
 20
122.6411366935
 10
138.1165981903
 20
122.6364895981
 10
138.1079990291
 20
122.6312102917
 10
138.0992084653
 20
122.6252693834
 10
138.090235077
 20
122.6186250596
 10
138.0811295758
 20
122.6112657696
 10
138.0719824258
 20
122.6032218764
 10
138.0628293741
 20
122.5944860876
 10
138.0537092616
 20
122.5850552944
 10
138.0447151742
 20
122.5749912467
 10
138.0358865368
 20
122.5643084738
 10
138.0272634086
 20
122.5530245195
  0
LINE
  5
2C7
100
AcDbEntity
  8
0
100
AcDbLine
 62
7
  6
CONTINUOUS
 10
137.6052913014
 20
122.7104843523
 11
137.386945264
 21
122.5912828326
  0
LINE
  5
2C8
100
AcDbEntity
  8
0
100
AcDbLine
 62
7
  6
CONTINUOUS
 10
139.5996878899
 20
123.4907499213
 11
138.0324873996
 21
122.6452093026
  0
LINE
  5
2C9
100
AcDbEntity
  8
0
100
AcDbLine
 62
253
  6
CONTINUOUS
 10
139.6912347668
 20
123.4861659676
 11
138.1249820219
 21
122.6411366792
  0
LINE
  5
2CA
100
AcDbEntity
  8
DRAFT
100
AcDbLine
 62
7
  6
CONTINUOUS
 10
160.6502938669
 20
132.9270611851
 11
161.7016977976
 21
133.4620193915
  0
LINE
  5
2CB
100
AcDbEntity
  8
0
100
AcDbLine
 62
253
  6
CONTINUOUS
 10
137.386945264
 20
123.7696367409
 11
137.6052913014
 21
123.8796516224
  0
LINE
  5
2CC
100
AcDbEntity
  8
0
100
AcDbLine
 62
7
  6
CONTINUOUS
 10
139.5997313243
 20
123.4907733116
 11
139.6038977609
 21
123.4928568161
  0
LINE
  5
2CD
100
AcDbEntity
  8
RACCORDO
100
AcDbLine
 62
7
  6
CONTINUOUS
 10
160.6502938669
 20
132.9261285288
 11
152.9469678702
 21
129.0897072206
  0
LINE
  5
2CE
100
AcDbEntity
  8
0
100
AcDbLine
 62
253
  6
CONTINUOUS
 10
137.6052913014
 20
123.8796516224
 11
141.5158909791
 21
125.8193378919
  0
LINE
  5
2CF
100
AcDbEntity
  8
0
100
AcDbLine
 62
7
  6
CONTINUOUS
 10
137.6052913014
 20
122.7104843523
 11
141.5036532419
 21
124.6441006139
  0
LINE
  5
2D0
100
AcDbEntity
  8
RACCORDO
100
AcDbLine
 62
7
  6
CONTINUOUS
 10
160.8235112248
 20
134.4831260569
 11
145.1049203136
 21
126.8244392781
  0
LINE
  5
2D1
100
AcDbEntity
  8
SMUSSO
100
AcDbLine
 62
7
  6
CONTINUOUS
 10
161.7016977976
 20
133.8577888132
 11
146.171758512
 21
126.2910201789
  0
LINE
  5
2D2
100
AcDbEntity
  8
0
100
AcDbLine
 62
7
  6
CONTINUOUS
 10
141.6176115332
 20
125.2468471369
 11
142.0384900769
 21
125.4484772141
  0
LINE
  5
2D3
100
AcDbEntity
  8
0
100
AcDbLine
 62
7
  6
CONTINUOUS
 10
142.3188952806
 20
125.8082713945
 11
144.4858800622
 21
126.8460842997
  0
LINE
  5
2D4
100
AcDbEntity
  8
0
100
AcDbLine
 62
253
  6
CONTINUOUS
 10
142.3276666388
 20
125.7518187968
 11
144.5969501033
 21
126.8386246134
  0
LINE
  5
2D5
100
AcDbEntity
  8
RACCORDO
100
AcDbLine
 62
7
  6
CONTINUOUS
 10
162.5657246067
 20
133.6120193659
 11
146.5703702884
 21
126.0917142907
  0
LINE
  5
2D6
100
AcDbEntity
  8
0
100
AcDbLine
 62
253
  6
CONTINUOUS
 10
140.2339608295
 20
123.7368148487
 11
139.6912347668
 21
123.4861659676
  0
LINE
  5
2D7
100
AcDbEntity
  8
0
100
AcDbLine
 62
7
  6
CONTINUOUS
 10
140.1478797811
 20
123.7440852117
 11
139.6039535666
 21
123.492882589
  0
LWPOLYLINE
  5
2D8
100
AcDbEntity
  8
0
100
AcDbPolyline
 62
253
  6
CONTINUOUS
 90
7
 70
0
 10
144.4859155987
 20
126.8461013099
 10
144.4896984728
 20
126.8478120991
 10
144.5090198984
 20
126.8537817435
 10
144.5297612077
 20
126.8558496065
 10
144.5515753184
 20
126.8539810153
 10
144.5740972406
 20
126.8482071687
 10
144.596950102
 20
126.8386246127
  0
LWPOLYLINE
  5
2D9
100
AcDbEntity
  8
0
100
AcDbPolyline
 62
7
  6
CONTINUOUS
 90
3
 70
0
 10
139.6038977609
 20
123.4928568161
 10
139.6205352311
 20
123.4983190894
 10
139.6371221288
 20
123.5000418807
  0
LWPOLYLINE
  5
2DA
100
AcDbEntity
  8
0
100
AcDbPolyline
 62
7
  6
CONTINUOUS
 90
5
 70
0
 10
142.5193295635
 20
80.9910085123
 10
142.5026389844
 20
81.0099168251
 10
142.4840868116
 20
81.0266435797
 10
142.4638976206
 20
81.0410484354
 10
142.444837611
 20
81.051776132
  0
LWPOLYLINE
  5
2DB
100
AcDbEntity
  8
0
100
AcDbPolyline
 62
253
  6
CONTINUOUS
 90
13
 70
0
 10
140.3147394508
 20
79.733353093
 10
140.3042281024
 20
79.7489246624
 10
140.2915438262
 20
79.7654499692
 10
140.2769012037
 20
79.7826494202
 10
140.2605479686
 20
79.8002319959
 10
140.2427607877
 20
79.8179002074
 10
140.2238405723
 20
79.8353551293
 10
140.2041074176
 20
79.8523014241
 10
140.1838952418
 20
79.8684523021
 10
140.163546104
 20
79.8835344135
 10
140.1434043602
 20
79.897292516
 10
140.1238108335
 20
79.9094937869
 10
140.1050970954
 20
79.9199317302
  0
LINE
  5
2DC
100
AcDbEntity
  8
0
100
AcDbLine
 62
253
  6
CONTINUOUS
 10
126.8448722506
 20
127.4710281478
 11
126.8448722506
 21
126.3943008621
  0
LINE
  5
2DD
100
AcDbEntity
  8
0
100
AcDbLine
 62
7
  6
CONTINUOUS
 10
127.3875983133
 20
126.6905909723
 11
127.3875983133
 21
127.1996651164
  0
LINE
  5
2DE
100
AcDbEntity
  8
0
100
AcDbLine
 62
253
  6
CONTINUOUS
 10
127.429899481
 20
127.2812445249
 11
127.429899481
 21
127.5985151349
  0
LINE
  5
2DF
100
AcDbEntity
  8
0
100
AcDbLine
 62
253
  6
CONTINUOUS
 10
127.7102525113
 20
127.2800230326
 11
127.7102525113
 21
127.5972918329
  0
LINE
  5
2E0
100
AcDbEntity
  8
0
100
AcDbLine
 62
253
  6
CONTINUOUS
 10
128.114605262
 20
126.3270874979
 11
128.114605262
 21
127.0072587862
  0
LINE
  5
2E1
100
AcDbEntity
  8
0
100
AcDbLine
 62
253
  6
CONTINUOUS
 10
128.4650465499
 20
127.0949074079
 11
128.4650465499
 21
126.3367069618
  0
LINE
  5
2E2
100
AcDbEntity
  8
0
100
AcDbLine
 62
7
  6
CONTINUOUS
 10
129.3674973006
 20
126.8293813527
 11
129.3674973006
 21
128.4748559999
  0
LWPOLYLINE
  5
2E3
100
AcDbEntity
  8
0
100
AcDbPolyline
 62
253
  6
CONTINUOUS
 90
28
 70
0
 10
127.7102525113
 20
127.5972918329
 10
127.710280143
 20
127.5993465923
 10
127.7104061589
 20
127.6014943622
 10
127.7106305591
 20
127.6037351428
 10
127.7109483751
 20
127.6060792628
 10
127.7113645753
 20
127.6085163934
 10
127.7118940651
 20
127.6110155478
 10
127.7125404769
 20
127.6135797744
 10
127.7133001782
 20
127.6162060247
 10
127.7141771767
 20
127.6188541668
 10
127.7151754443
 20
127.6215257537
 10
127.7162910089
 20
127.6242192324
 10
127.7175159619
 20
127.6268898116
 10
127.7188531756
 20
127.6295361983
 10
127.7202997775
 20
127.6321596855
 10
127.7218392418
 20
127.634719361
 10
127.7234725934
 20
127.637212254
 10
127.7251988072
 20
127.6396413351
 10
127.7269982825
 20
127.6419746046
 10
127.7288719857
 20
127.644210288
 10
127.7308189502
 20
127.6463501596
 10
127.732816676
 20
127.6483675422
 10
127.7348660644
 20
127.6502607189
 10
127.7369662141
 20
127.6520314066
 10
127.7390919204
 20
127.6536580792
 10
127.7412347816
 20
127.6551335613
 10
127.7434031995
 20
127.6564650283
 10
127.7455971739
 20
127.6576524801
  0
LWPOLYLINE
  5
2E4
100
AcDbEntity
  8
0
100
AcDbPolyline
 62
253
  6
CONTINUOUS
 90
28
 70
0
 10
127.429899481
 20
127.5985151349
 10
127.4300944326
 20
127.6087649074
 10
127.4307038376
 20
127.6195110144
 10
127.4317634092
 20
127.6307436177
 10
127.4333123655
 20
127.6424739219
 10
127.4353838064
 20
127.654657098
 10
127.4379941626
 20
127.6671896325
 10
127.4411667312
 20
127.6800399996
 10
127.4449226283
 20
127.6931713602
 10
127.4492536386
 20
127.7064631295
 10
127.4541668887
 20
127.7198700288
 10
127.4596669744
 20
127.7333441948
 10
127.4657197759
 20
127.7467584368
 10
127.4723121904
 20
127.7600551764
 10
127.4794348487
 20
127.7731892187
 10
127.4870407794
 20
127.7860556913
 10
127.4951003844
 20
127.7985947503
 10
127.5035947835
 20
127.8107678954
 10
127.5124823411
 20
127.8225083643
 10
127.5217306326
 20
127.8337684884
 10
127.5313093096
 20
127.8445067379
 10
127.5411747277
 20
127.8546713088
 10
127.5512915861
 20
127.8642236751
 10
127.5616228425
 20
127.8731267754
 10
127.5721192004
 20
127.8813379612
 10
127.5827379548
 20
127.8888250765
 10
127.5934438036
 20
127.8955641661
 10
127.6041973569
 20
127.9015310895
  0
LINE
  5
2E5
100
AcDbEntity
  8
0
100
AcDbLine
 62
7
  6
CONTINUOUS
 10
129.9810700663
 20
128.4185407942
 11
129.9818656761
 21
128.4387327369
  0
LWPOLYLINE
  5
2E6
100
AcDbEntity
  8
0
100
AcDbPolyline
 62
253
  6
CONTINUOUS
 90
7
 70
0
 10
129.981865751
 20
128.7786591722
 10
129.9804102218
 20
128.7666166107
 10
129.9756401249
 20
128.7539029001
 10
129.9676276616
 20
128.7416034285
 10
129.956506902
 20
128.7299239991
 10
129.9424639262
 20
128.7190600403
 10
129.9257337111
 20
128.7091933352
  0
LWPOLYLINE
  5
2E7
100
AcDbEntity
  8
0
100
AcDbPolyline
 62
253
  6
CONTINUOUS
 90
7
 70
0
 10
129.981865751
 20
128.4387155774
 10
129.9804102185
 20
128.4266730023
 10
129.9756401187
 20
128.4139592931
 10
129.9676276538
 20
128.4016598238
 10
129.9565068943
 20
128.3899803974
 10
129.9424639211
 20
128.3791164419
 10
129.9257337111
 20
128.3692497403
  0
LWPOLYLINE
  5
2E8
100
AcDbEntity
  8
0
100
AcDbPolyline
 62
253
  6
CONTINUOUS
 90
17
 70
0
 10
138.0272634086
 20
122.5530245195
 10
138.018932377
 20
122.5412284038
 10
138.0109348992
 20
122.528961391
 10
138.0033009997
 20
122.5162510538
 10
137.9960898315
 20
122.5031814825
 10
137.9893357372
 20
122.4898058422
 10
137.9830623865
 20
122.4761611407
 10
137.9773044535
 20
122.462314365
 10
137.9720860215
 20
122.4483168382
 10
137.9674279465
 20
122.434217062
 10
137.9633534922
 20
122.4200802341
 10
137.9598784866
 20
122.4059576703
 10
137.9570168158
 20
122.3919013081
 10
137.9547819294
 20
122.3779772744
 10
137.9531815104
 20
122.3642410138
 10
137.9522196295
 20
122.3507374505
 10
137.9518988634
 20
122.3375154437
  0
LWPOLYLINE
  5
2E9
100
AcDbEntity
  8
0
100
AcDbPolyline
 62
7
  6
CONTINUOUS
 90
7
 70
0
 10
138.8873673817
 20
121.5525123841
 10
138.8539039684
 20
121.5269308359
 10
138.8403379815
 20
121.5163667769
 10
138.829365531
 20
121.5068049843
 10
138.8211683216
 20
121.498464656
 10
138.815942696
 20
121.4922728605
 10
138.8141463985
 20
121.488592854
  0
LWPOLYLINE
  5
2EA
100
AcDbEntity
  8
0
100
AcDbPolyline
 62
253
  6
CONTINUOUS
 90
22
 70
0
 10
136.753765706
 20
117.7430705546
 10
136.6949618189
 20
117.7065278302
 10
136.6367157332
 20
117.6651335333
 10
136.5792982056
 20
117.6191025422
 10
136.5229625597
 20
117.5686816244
 10
136.4679833466
 20
117.514120684
 10
136.4146557903
 20
117.4556695823
 10
136.3632253433
 20
117.3936193821
 10
136.3139330904
 20
117.3282882117
 10
136.2670546172
 20
117.2599915448
 10
136.2228103673
 20
117.1890744003
 10
136.1814010986
 20
117.1158927002
 10
136.1430540422
 20
117.0407973764
 10
136.1079484657
 20
116.9641628771
 10
136.0762436218
 20
116.8863736911
 10
136.0481140466
 20
116.8078061813
 10
136.0236934707
 20
116.7288559006
 10
136.0030881419
 20
116.6499108498
 10
135.9864077139
 20
116.57133806
 10
135.9737355748
 20
116.4935190246
 10
135.9651258992
 20
116.4168475871
 10
135.9606190059
 20
116.3417033718
  0
LWPOLYLINE
  5
2EB
100
AcDbEntity
  8
0
100
AcDbPolyline
 62
253
  6
CONTINUOUS
 90
7
 70
0
 10
142.5122344162
 20
122.4159429826
 10
142.5289646247
 20
122.4258096832
 10
142.5430075973
 20
122.4366736377
 10
142.5541283566
 20
122.4483530632
 10
142.562140822
 20
122.4606525318
 10
142.5669109226
 20
122.4733662406
 10
142.5683664562
 20
122.4854088195
  0
LWPOLYLINE
  5
2EC
100
AcDbEntity
  8
0
100
AcDbPolyline
 62
253
  6
CONTINUOUS
 90
7
 70
0
 10
142.5122344162
 20
122.0759993878
 10
142.5289646314
 20
122.0858660928
 10
142.5430076071
 20
122.0967300517
 10
142.5541283667
 20
122.1084094811
 10
142.56214083
 20
122.1207089527
 10
142.5669109269
 20
122.1334226633
 10
142.5683664562
 20
122.1454652248
  0
LINE
  5
2ED
100
AcDbEntity
  8
0
100
AcDbLine
 62
7
  6
CONTINUOUS
 10
139.9740990184
 20
120.3973406197
 11
139.4313729557
 21
120.1010505095
  0
LINE
  5
2EE
100
AcDbEntity
  8
0
100
AcDbLine
 62
253
  6
CONTINUOUS
 10
136.7537657189
 20
117.7430705615
 11
140.9909151663
 21
120.0185492937
  0
LINE
  5
2EF
100
AcDbEntity
  8
0
100
AcDbLine
 62
7
  6
CONTINUOUS
 10
148.6294673068
 20
124.4602165102
 11
142.242578465
 21
121.0838310221
  0
LINE
  5
2F0
100
AcDbEntity
  8
DRAFT
100
AcDbLine
 62
7
  6
CONTINUOUS
 10
142.6960047556
 20
120.8527880043
 11
148.9919365245
 21
124.1601037391
  0
LINE
  5
2F1
100
AcDbEntity
  8
0
100
AcDbLine
 62
7
  6
CONTINUOUS
 10
148.6068000167
 20
124.8589116254
 11
142.0695242534
 21
121.4324702074
  0
LWPOLYLINE
  5
2F2
100
AcDbEntity
  8
0
100
AcDbPolyline
 62
7
  6
CONTINUOUS
 90
7
 70
0
 10
141.051547255
 20
120.0433621794
 10
141.0423840167
 20
120.0385977654
 10
141.032811618
 20
120.034072228
 10
141.0228535823
 20
120.0297955417
 10
141.0125344089
 20
120.0257770877
 10
141.0018795135
 20
120.0220256301
 10
140.9909151663
 20
120.0185492937
  0
LINE
  5
2F3
100
AcDbEntity
  8
0
100
AcDbLine
 62
253
  6
CONTINUOUS
 10
140.190698062
 20
121.6082807369
 11
141.8125981886
 21
122.4254842566
  0
LINE
  5
2F4
100
AcDbEntity
  8
0
100
AcDbLine
 62
253
  6
CONTINUOUS
 10
140.3320978791
 20
121.3644021276
 11
141.9539980057
 21
122.1816056473
  0
LINE
  5
2F5
100
AcDbEntity
  8
RACCORDO
100
AcDbLine
 62
7
  6
CONTINUOUS
 10
164.1858277728
 20
131.1583615758
 11
156.4825017762
 21
127.3219402676
  0
LINE
  5
2F6
100
AcDbEntity
  8
0
100
AcDbLine
 62
253
  6
CONTINUOUS
 10
142.3367026552
 20
122.6854439358
 11
141.8125981886
 21
122.4254842566
  0
LINE
  5
2F7
100
AcDbEntity
  8
0
100
AcDbLine
 62
253
  6
CONTINUOUS
 10
142.4781024723
 20
122.4415653265
 11
141.9539980057
 21
122.1816056473
  0
LINE
  5
2F8
100
AcDbEntity
  8
0
100
AcDbLine
 62
253
  6
CONTINUOUS
 10
142.64881604
 20
120.8807122345
 11
141.9540006674
 21
120.5361322294
  0
LINE
  5
2F9
100
AcDbEntity
  8
RACCORDO
100
AcDbLine
 62
7
  6
CONTINUOUS
 10
164.3590451307
 20
132.7153591039
 11
148.4970560459
 21
124.986803359
  0
LINE
  5
2FA
100
AcDbEntity
  8
SMUSSO
100
AcDbLine
 62
7
  6
CONTINUOUS
 10
165.2372317035
 20
132.0900218602
 11
148.9771464895
 21
124.1674987566
  0
LINE
  5
2FB
100
AcDbEntity
  8
SMUSSO
100
AcDbLine
 62
7
  6
CONTINUOUS
 10
149.1592265971
 20
123.8788615836
 11
149.1559225107
 21
123.8772697504
  0
LINE
  5
2FC
100
AcDbEntity
  8
0
100
AcDbLine
 62
7
  6
CONTINUOUS
 10
147.4155416967
 20
125.4293288167
 11
142.0507904245
 21
122.8883499936
  0
LINE
  5
2FD
100
AcDbEntity
  8
RACCORDO
100
AcDbLine
 62
7
  6
CONTINUOUS
 10
166.1012585127
 20
131.8442524129
 11
149.1592265971
 21
123.8788615836
  0
LWPOLYLINE
  5
2FE
100
AcDbEntity
  8
0
100
AcDbPolyline
 62
7
  6
CONTINUOUS
 90
13
 70
0
 10
129.3674973006
 20
128.4748559999
 10
129.3662936837
 20
128.4980686358
 10
129.3626844537
 20
128.5220898404
 10
129.3567355443
 20
128.5465110539
 10
129.348553412
 20
128.5709173211
 10
129.3382788774
 20
128.5948914635
 10
129.3260848652
 20
128.6180212505
 10
129.312177445
 20
128.6399097752
 10
129.2967970191
 20
128.6601838944
 10
129.2802101215
 20
128.6784978843
 10
129.2626997009
 20
128.6945380299
 10
129.244560197
 20
128.7080278428
 10
129.2260974835
 20
128.7187346092
  0
LWPOLYLINE
  5
2FF
100
AcDbEntity
  8
0
100
AcDbPolyline
 62
7
  6
CONTINUOUS
 90
13
 70
0
 10
129.9818656708
 20
128.7786978414
 10
129.9817925101
 20
128.7847507546
 10
129.9799006346
 20
128.8099750991
 10
129.9754436592
 20
128.8347319046
 10
129.9684752348
 20
128.8586464814
 10
129.9591602094
 20
128.8813115213
 10
129.9476020092
 20
128.9026232341
 10
129.9338693934
 20
128.9224973627
 10
129.9181629367
 20
128.9406558279
 10
129.9007112655
 20
128.956885674
 10
129.8816173423
 20
128.9711145489
 10
129.8611537497
 20
128.983145472
 10
129.8584989939
 20
128.9844948509
  0
LINE
  5
300
100
AcDbEntity
  8
0
100
AcDbLine
 62
253
  6
CONTINUOUS
 10
129.9257337111
 20
128.7091933352
 11
129.9257337111
 21
128.3692497403
  0
LINE
  5
301
100
AcDbEntity
  8
0
100
AcDbLine
 62
7
  6
CONTINUOUS
 10
129.9818657361
 20
128.7786978414
 11
129.981865751
 21
128.4387155774
  0
LINE
  5
302
100
AcDbEntity
  8
0
100
AcDbLine
 62
7
  6
CONTINUOUS
 10
131.0450545916
 20
126.8430502201
 11
131.0450545916
 21
125.6584457143
  0
LINE
  5
303
100
AcDbEntity
  8
0
100
AcDbLine
 62
253
  6
CONTINUOUS
 10
131.1036332354
 20
126.772339542
 11
131.1036332354
 21
125.5850667606
  0
LWPOLYLINE
  5
304
100
AcDbEntity
  8
0
100
AcDbPolyline
 62
253
  6
CONTINUOUS
 90
22
 70
0
 10
129.9257337111
 20
128.3692497403
 10
129.9257123446
 20
128.3674437008
 10
129.9256184831
 20
128.3655611476
 10
129.9254521264
 20
128.3636020808
 10
129.9252171071
 20
128.3615602605
 10
129.9249095926
 20
128.3594419266
 10
129.9245180858
 20
128.3572657983
 10
129.9240406965
 20
128.355029793
 10
129.9234793148
 20
128.3527359933
 10
129.9228281145
 20
128.3504093665
 10
129.922084875
 20
128.3480483765
 10
129.9212518169
 20
128.3456545594
 10
129.9203297758
 20
128.3432574906
 10
129.9193164525
 20
128.34085648
 10
129.918214146
 20
128.3384522176
 10
129.9170305895
 20
128.3360763493
 10
129.9157636886
 20
128.3337292047
 10
129.9144155376
 20
128.3314104542
 10
129.9130001522
 20
128.329150755
 10
129.9115222046
 20
128.3269603264
 10
129.9099770227
 20
128.3248289491
 10
129.9083646065
 20
128.3227566231
  0
LWPOLYLINE
  5
305
100
AcDbEntity
  8
0
100
AcDbPolyline
 62
253
  6
CONTINUOUS
 90
13
 70
0
 10
131.1389831896
 20
126.79795924
 10
131.1401663683
 20
126.8209088334
 10
131.1436961071
 20
126.8446575995
 10
131.1495133445
 20
126.868808158
 10
131.1575207433
 20
126.8929564055
 10
131.1675843186
 20
126.916698277
 10
131.1795356804
 20
126.9396365069
 10
131.1931748509
 20
126.9613872771
 10
131.2082736102
 20
126.9815866379
 10
131.2245793158
 20
126.9998965992
 10
131.2418191292
 20
127.0160107852
 10
131.2597045822
 20
127.0296595618
 10
131.2779364029
 20
127.0406145474
  0
LWPOLYLINE
  5
306
100
AcDbEntity
  8
0
100
AcDbPolyline
 62
7
  6
CONTINUOUS
 90
10
 70
0
 10
137.6052913014
 20
123.2145588145
 10
137.6192322842
 20
123.2482386049
 10
137.6296880212
 20
123.2843076396
 10
137.6366585126
 20
123.3227659186
 10
137.6401437583
 20
123.3640445227
 10
137.6401437583
 20
123.4077123711
 10
137.6366585126
 20
123.4524762209
 10
137.6296880212
 20
123.4979049912
 10
137.6192322842
 20
123.544429763
 10
137.6052913014
 20
123.5920505362
  0
LINE
  5
307
100
AcDbEntity
  8
0
100
AcDbLine
 62
253
  6
CONTINUOUS
 10
141.9539980057
 20
121.3602187844
 11
142.4948653116
 21
122.0295062706
  0
LINE
  5
308
100
AcDbEntity
  8
0
100
AcDbLine
 62
7
  6
CONTINUOUS
 10
141.9539980096
 20
121.2895141284
 11
142.5065527236
 21
121.9732640083
  0
LWPOLYLINE
  5
309
100
AcDbEntity
  8
0
100
AcDbPolyline
 62
7
  6
CONTINUOUS
 90
12
 70
0
 10
141.051547255
 20
120.8016570554
 10
141.0295079072
 20
120.7810064754
 10
141.0056142639
 20
120.7617379364
 10
140.980042533
 20
120.7442441049
 10
140.9528400987
 20
120.7288926306
 10
140.9244256268
 20
120.7160413396
 10
140.8956120172
 20
120.7059751983
 10
140.8667851697
 20
120.698880343
 10
140.8382407596
 20
120.6949346452
 10
140.8107074911
 20
120.6941947104
 10
140.7846557343
 20
120.6965874378
 10
140.7738526464
 20
120.6985767423
  0
LWPOLYLINE
  5
30A
100
AcDbEntity
  8
0
100
AcDbPolyline
 62
253
  6
CONTINUOUS
 90
22
 70
0
 10
137.1164465486
 20
117.1385594662
 10
137.0806158712
 20
117.117793314
 10
137.0453856851
 20
117.094419275
 10
137.0107559905
 20
117.0684373493
 10
136.9765444861
 20
117.0396840548
 10
136.9429334731
 20
117.0083228735
 10
136.9104698551
 20
116.9748442511
 10
136.879187785
 20
116.9392267112
 10
136.8490531099
 20
116.9014917301
 10
136.8205102744
 20
116.862194183
 10
136.7935822696
 20
116.8213087594
 10
136.7682461043
 20
116.7788607697
 10
136.7448772496
 20
116.7354810207
 10
136.7235058979
 20
116.6911551194
 10
136.7041018568
 20
116.6458974588
 10
136.6869500197
 20
116.6003820242
 10
136.6720844125
 20
116.55458819
 10
136.6594710093
 20
116.5085365817
 10
136.6492926259
 20
116.4629630618
 10
136.641610201
 20
116.4181129177
 10
136.636362796
 20
116.3737408619
 10
136.6335504108
 20
116.3298468945
  0
LINE
  5
30B
100
AcDbEntity
  8
0
100
AcDbLine
 62
7
  6
CONTINUOUS
 10
142.3075513963
 20
118.2184846142
 11
143.0023155827
 21
118.6084515757
  0
LINE
  5
30C
100
AcDbEntity
  8
0
100
AcDbLine
 62
253
  6
CONTINUOUS
 10
142.3075513963
 20
119.9263413993
 11
137.1164465486
 21
117.1385594662
  0
LINE
  5
30D
100
AcDbEntity
  8
0
100
AcDbLine
 62
7
  6
CONTINUOUS
 10
141.7270529772
 20
117.91885458
 11
142.3075513963
 21
118.2184846142
  0
LINE
  5
30E
100
AcDbEntity
  8
DRAFT
100
AcDbLine
 62
7
  6
CONTINUOUS
 10
164.1858277728
 20
131.1592942321
 11
165.2372317035
 21
131.6942524386
  0
LINE
  5
30F
100
AcDbEntity
  8
RACCORDO
100
AcDbLine
 62
253
  6
CONTINUOUS
 10
167.6718416534
 20
130.7629696077
 11
143.3429698221
 21
118.3855882506
  0
LINE
  5
310
100
AcDbEntity
  8
0
100
AcDbLine
 62
253
  6
CONTINUOUS
 10
143.0023155827
 20
120.2710157112
 11
142.3075513963
 21
119.9264075529
  0
LINE
  5
311
100
AcDbEntity
  8
RACCORDO
100
AcDbLine
 62
253
  6
CONTINUOUS
 10
167.63724106
 20
130.8226468038
 11
167.6745433562
 21
130.8410239886
  0
LWPOLYLINE
  5
312
100
AcDbEntity
  8
RACCORDO
100
AcDbPolyline
 62
253
  6
CONTINUOUS
 90
31
 70
0
 10
167.6718416534
 20
130.7629696077
 10
167.711144466
 20
130.7823223599
 10
167.7301193581
 20
130.7915213238
 10
167.7486221815
 20
130.800391776
 10
167.766637627
 20
130.8089263771
 10
167.7841507886
 20
130.8171180655
 10
167.8011471759
 20
130.8249600634
 10
167.8176127259
 20
130.8324458824
 10
167.8335338149
 20
130.8395693285
 10
167.84889727
 20
130.8463245079
 10
167.8636903792
 20
130.8527058313
 10
167.8779009026
 20
130.8587080187
 10
167.8915170826
 20
130.864326104
 10
167.9045276529
 20
130.8695554387
 10
167.9169218487
 20
130.8743916961
 10
167.9286894148
 20
130.8788308745
 10
167.9398206148
 20
130.8828693011
 10
167.9503062387
 20
130.8865036344
 10
167.9601376107
 20
130.8897308673
 10
167.9693065962
 20
130.8925483297
 10
167.9778056087
 20
130.8949536903
 10
167.9856276163
 20
130.896944959
 10
167.9927661468
 20
130.8985204881
 10
167.9992152939
 20
130.899678974
 10
168.0049697216
 20
130.9004194584
 10
168.0100246685
 20
130.9007413283
 10
168.0143759523
 20
130.9006443176
 10
168.0180199726
 20
130.9001285065
 10
168.0209537144
 20
130.8991943218
 10
168.0231747503
 20
130.8978425364
 10
168.0246848843
 20
130.896067996
  0
LINE
  5
313
100
AcDbEntity
  8
RACCORDO
100
AcDbLine
 62
253
  6
CONTINUOUS
 10
149.7374634602
 20
122.8742599803
 11
167.1373172124
 21
131.3262230631
  0
LINE
  5
314
100
AcDbEntity
  8
RACCORDO
100
AcDbLine
 62
253
  6
CONTINUOUS
 10
150.0751317941
 20
122.2918682533
 11
167.63724106
 21
130.8226468038
  0
LWPOLYLINE
  5
315
100
AcDbEntity
  8
RACCORDO
100
AcDbPolyline
 62
253
  6
CONTINUOUS
 90
31
 70
0
 10
167.6745433562
 20
130.8410239886
 10
167.7102114689
 20
130.8582507809
 10
167.7273993577
 20
130.8664166306
 10
167.7441393324
 20
130.8742759511
 10
167.7604189575
 20
130.8818229035
 10
167.7762261095
 20
130.8890518666
 10
167.7915490022
 20
130.8959574501
 10
167.8063762313
 20
130.9025345145
 10
167.8206967826
 20
130.9087781743
 10
167.8345000093
 20
130.9146837876
 10
167.8477756486
 20
130.9202469633
 10
167.8605138274
 20
130.925463564
 10
167.8727050719
 20
130.9303297101
 10
167.8843403163
 20
130.9348417828
 10
167.8954109095
 20
130.9389964274
 10
167.9059086195
 20
130.9427905545
 10
167.9158256405
 20
130.9462213428
 10
167.9251545981
 20
130.9492862413
 10
167.9338885556
 20
130.951982971
 10
167.9420210186
 20
130.9543095265
 10
167.9495459398
 20
130.9562641779
 10
167.9564577238
 20
130.9578454718
 10
167.9627512312
 20
130.9590522324
 10
167.9684217822
 20
130.9598835623
 10
167.9734651603
 20
130.9603388432
 10
167.9778776152
 20
130.9604177369
 10
167.981655866
 20
130.9601201844
 10
167.9847971032
 20
130.9594464071
 10
167.987298991
 20
130.9583969061
 10
167.9891596691
 20
130.9569724616
 10
167.9900843088
 20
130.9557451612
  0
LWPOLYLINE
  5
316
100
AcDbEntity
  8
RACCORDO
100
AcDbPolyline
 62
253
  6
CONTINUOUS
 90
26
 70
0
 10
167.1373172124
 20
131.3262230631
 10
167.1565771246
 20
131.3351196742
 10
167.17581357
 20
131.3433620792
 10
167.1950122636
 20
131.3509441572
 10
167.2141589481
 20
131.3578602778
 10
167.2332394053
 20
131.364105305
 10
167.2522394659
 20
131.3696746013
 10
167.2711450203
 20
131.3745640308
 10
167.2899420291
 20
131.3787699626
 10
167.3086165337
 20
131.3822892733
 10
167.3271546661
 20
131.3851193496
 10
167.3455426599
 20
131.3872580897
 10
167.3637668601
 20
131.3887039055
 10
167.3818137332
 20
131.3894557233
 10
167.3996698776
 20
131.3895129847
 10
167.4173220332
 20
131.3888756472
 10
167.4347570913
 20
131.3875441842
 10
167.4519621047
 20
131.3855195844
 10
167.4689242968
 20
131.3828033512
 10
167.4856310714
 20
131.3793975018
 10
167.5020700219
 20
131.3753045653
 10
167.5182289407
 20
131.3705275812
 10
167.534095828
 20
131.3650700969
 10
167.5496589011
 20
131.3589361652
 10
167.5649066027
 20
131.3521303411
 10
167.572190093
 20
131.3485863927
  0
LWPOLYLINE
  5
317
100
AcDbEntity
  8
0
100
AcDbPolyline
 62
253
  6
CONTINUOUS
 90
16
 70
0
 10
136.6335504108
 20
116.3298468945
 10
136.5962452417
 20
116.315651334
 10
136.5559646666
 20
116.3033517046
 10
136.5130992427
 20
116.2930672623
 10
136.4680645893
 20
116.2848977244
 10
136.4212973588
 20
116.2789223019
 10
136.3732510021
 20
116.275198932
 10
136.3243913728
 20
116.2737637162
 10
136.2751922095
 20
116.2746305703
 10
136.2261305432
 20
116.2777910892
 10
136.1776820717
 20
116.2832146289
 10
136.1303165472
 20
116.2908486032
 10
136.0844932218
 20
116.3006189937
 10
136.0406563946
 20
116.3124310676
 10
135.9992311038
 20
116.3261702959
 10
135.9606190054
 20
116.3417034643
  0
LINE
  5
318
100
AcDbEntity
  8
0
100
AcDbLine
 62
7
  6
CONTINUOUS
 10
149.0373281145
 20
89.9210977572
 11
148.9678516958
 21
89.9558359665
  0
LWPOLYLINE
  5
319
100
AcDbEntity
  8
0
100
AcDbPolyline
 62
7
  6
CONTINUOUS
 90
4
 70
0
 10
138.842281201
 20
80.3493274491
 10
138.8535563574
 20
80.3197404051
 10
138.8692591824
 20
80.285817315
 10
138.8873673817
 20
80.2529082447
  0
LWPOLYLINE
  5
31A
100
AcDbEntity
  8
0
100
AcDbPolyline
 62
253
  6
CONTINUOUS
 90
22
 70
0
 10
136.6335504014
 20
80.2064977363
 10
136.6363627823
 20
80.1652726206
 10
136.6416101841
 20
80.1258801647
 10
136.6492926069
 20
80.0883203685
 10
136.6594709896
 20
80.0524057735
 10
136.6720843932
 20
80.0183238383
 10
136.6869500009
 20
79.9866369389
 10
136.704101838
 20
79.95739799
 10
136.7235058791
 20
79.9305540768
 10
136.7448772308
 20
79.906508831
 10
136.7682460855
 20
79.885305297
 10
136.7935822508
 20
79.8669004304
 10
136.8205102557
 20
79.8515687291
 10
136.8490530914
 20
79.8393573216
 10
136.8791877666
 20
79.8302190795
 10
136.9104698368
 20
79.8242871156
 10
136.942933455
 20
79.8216153163
 10
136.9765444681
 20
79.8221497953
 10
137.0107559727
 20
79.8258620062
 10
137.0453856676
 20
79.8327424336
 10
137.0806158539
 20
79.8428005931
 10
137.1164465316
 20
79.8560364845
  0
LWPOLYLINE
  5
31B
100
AcDbEntity
  8
0
100
AcDbPolyline
 62
253
  6
CONTINUOUS
 90
14
 70
0
 10
135.9606189877
 20
80.1812154746
 10
135.965125881
 20
80.1108539995
 10
135.973735557
 20
80.043185903
 10
135.9864076965
 20
79.9785427675
 10
136.0030881247
 20
79.9172419977
 10
136.0236934535
 20
79.8595806988
 10
136.0481140292
 20
79.8058369076
 10
136.0762436043
 20
79.7562690398
 10
136.1079484484
 20
79.7111249533
 10
136.1430540247
 20
79.6706378926
 10
136.1814010809
 20
79.6350038051
 10
136.2228103493
 20
79.6043963037
 10
136.267054599
 20
79.5789788591
 10
136.2853350936
 20
79.5703666388
  0
LWPOLYLINE
  5
31C
100
AcDbEntity
  8
0
100
AcDbPolyline
 62
7
  6
CONTINUOUS
 90
16
 70
0
 10
133.8929807002
 20
125.735806923
 10
133.8920315245
 20
125.7587537301
 10
133.8891621787
 20
125.78250218
 10
133.8843839182
 20
125.8068027007
 10
133.8777022827
 20
125.8314864235
 10
133.8691854142
 20
125.8561895034
 10
133.8590276555
 20
125.8803632895
 10
133.8474801963
 20
125.9035537448
 10
133.8346202408
 20
125.9257338872
 10
133.8203994354
 20
125.946987114
 10
133.8048082305
 20
125.9672237208
 10
133.7881150907
 20
125.9860014735
 10
133.770689117
 20
126.0028972259
 10
133.7527992525
 20
126.0176934376
 10
133.7345803371
 20
126.0303168581
 10
133.7162309288
 20
126.0406551847
  0
LWPOLYLINE
  5
31D
100
AcDbEntity
  8
0
100
AcDbPolyline
 62
253
  6
CONTINUOUS
 90
28
 70
0
 10
133.6746346628
 20
125.6257920415
 10
133.6742814185
 20
125.6368635538
 10
133.6734541457
 20
125.6483897334
 10
133.6721248118
 20
125.6603522333
 10
133.670262344
 20
125.6727537016
 10
133.6678431759
 20
125.6855417345
 10
133.6648618681
 20
125.6986064147
 10
133.6613056145
 20
125.711909908
 10
133.6571642121
 20
125.7254098985
 10
133.6524580217
 20
125.7389823868
 10
133.6471923402
 20
125.7525759209
 10
133.6413722265
 20
125.7661450932
 10
133.6350379014
 20
125.7795744922
 10
133.6282136138
 20
125.7928035706
 10
133.6209143689
 20
125.8057950528
 10
133.6131797696
 20
125.8184725769
 10
133.6050418738
 20
125.8307823913
 10
133.5965241782
 20
125.8426879831
 10
133.5876589377
 20
125.8541428515
 10
133.5784771308
 20
125.865105712
 10
133.5690115457
 20
125.8755363134
 10
133.5592995028
 20
125.8853931736
 10
133.5493757491
 20
125.8946407876
 10
133.5392757409
 20
125.9032459579
 10
133.529039439
 20
125.9111752057
 10
133.5187048279
 20
125.9183999537
 10
133.5083076039
 20
125.9248958581
 10
133.4978848915
 20
125.9306403031
  0
LWPOLYLINE
  5
31E
100
AcDbEntity
  8
0
100
AcDbPolyline
 62
253
  6
CONTINUOUS
 90
18
 70
0
 10
133.3942816325
 20
125.6270153434
 10
133.3942450721
 20
125.6292500186
 10
133.3941017084
 20
125.6315661475
 10
133.3938515414
 20
125.6339637302
 10
133.3934976404
 20
125.6364545083
 10
133.3930369361
 20
125.6390267402
 10
133.3924602205
 20
125.6416452004
 10
133.3917636516
 20
125.6443123278
 10
133.3909510713
 20
125.6470256835
 10
133.390024797
 20
125.6497427247
 10
133.3889814052
 20
125.6524634494
 10
133.3878243194
 20
125.6551878597
 10
133.3865661275
 20
125.6578734182
 10
133.3852053017
 20
125.6605173205
 10
133.3837433699
 20
125.6631223711
 10
133.3821975023
 20
125.6656544459
 10
133.3805672947
 20
125.6681109971
 10
133.3788531515
 20
125.6704945725
  0
LINE
  5
31F
100
AcDbEntity
  8
0
100
AcDbLine
 62
253
  6
CONTINUOUS
 10
133.3942816325
 20
124.4397425621
 11
133.3942816325
 21
125.6270153434
  0
LINE
  5
320
100
AcDbEntity
  8
0
100
AcDbLine
 62
253
  6
CONTINUOUS
 10
133.6746346628
 20
124.4474381332
 11
133.6746346628
 21
125.6257920415
  0
LINE
  5
321
100
AcDbEntity
  8
0
100
AcDbLine
 62
7
  6
CONTINUOUS
 10
133.8929807002
 20
125.735806923
 11
133.8929807002
 21
124.5666396529
  0
LINE
  5
322
100
AcDbEntity
  8
0
100
AcDbLine
 62
7
  6
CONTINUOUS
 10
134.7573651928
 20
124.9868949194
 11
134.7573651928
 21
123.8022904137
  0
LINE
  5
323
100
AcDbEntity
  8
0
100
AcDbLine
 62
253
  6
CONTINUOUS
 10
134.8159438366
 20
124.9161842413
 11
134.8159438366
 21
123.72891146
  0
LWPOLYLINE
  5
324
100
AcDbEntity
  8
0
100
AcDbPolyline
 62
253
  6
CONTINUOUS
 90
9
 70
0
 10
136.0021396078
 20
128.763320775
 10
136.001544726
 20
128.7516115831
 10
135.9972780002
 20
128.7326277162
 10
135.9889694623
 20
128.7139802741
 10
135.9767094717
 20
128.6958684968
 10
135.9606270871
 20
128.6784850648
 10
135.9408927353
 20
128.6620177553
 10
135.9177194944
 20
128.6466468903
 10
135.8913568266
 20
128.6325401264
  0
LWPOLYLINE
  5
325
100
AcDbEntity
  8
0
100
AcDbPolyline
 62
253
  6
CONTINUOUS
 90
13
 70
0
 10
133.3589316782
 20
125.6879849957
 10
133.360114858
 20
125.7109346001
 10
133.3636445997
 20
125.7346833756
 10
133.3694618411
 20
125.7588339415
 10
133.3774692442
 20
125.7829821938
 10
133.3875328236
 20
125.8067240673
 10
133.3994841886
 20
125.8296622966
 10
133.4131233606
 20
125.8514130635
 10
133.4282221197
 20
125.8716124191
 10
133.4445278229
 20
125.8899223738
 10
133.4617676321
 20
125.906036553
 10
133.4796530788
 20
125.919685323
 10
133.4978848915
 20
125.9306403031
  0
LWPOLYLINE
  5
326
100
AcDbEntity
  8
0
100
AcDbPolyline
 62
253
  6
CONTINUOUS
 90
13
 70
0
 10
134.8512937909
 20
124.9418039394
 10
134.8524769695
 20
124.9647535328
 10
134.8560067083
 20
124.9885022989
 10
134.8618239457
 20
125.0126528574
 10
134.8698313445
 20
125.0368011049
 10
134.8798949198
 20
125.0605429763
 10
134.8918462817
 20
125.0834812063
 10
134.9054854521
 20
125.1052319765
 10
134.9205842115
 20
125.1254313373
 10
134.936889917
 20
125.1437412986
 10
134.9541297304
 20
125.1598554846
 10
134.9720151834
 20
125.1735042612
 10
134.9902470041
 20
125.1844592468
  0
LWPOLYLINE
  5
327
100
AcDbEntity
  8
0
100
AcDbPolyline
 62
7
  6
CONTINUOUS
 90
9
 70
0
 10
136.019879365
 20
127.5763209578
 10
136.0191227653
 20
127.5629754501
 10
136.0144898599
 20
127.5432270237
 10
136.0054834471
 20
127.5236628006
 10
135.9922685799
 20
127.50440926
 10
135.9754340129
 20
127.4862528232
 10
135.9551759977
 20
127.4694556305
 10
135.9312982827
 20
127.4537555416
 10
135.903800868
 20
127.4391525565
  0
LWPOLYLINE
  5
328
100
AcDbEntity
  8
0
100
AcDbPolyline
 62
253
  6
CONTINUOUS
 90
10
 70
0
 10
142.4948653116
 20
122.0295062706
 10
142.4982997782
 20
122.0341294613
 10
142.5013785721
 20
122.0389429167
 10
142.5041016933
 20
122.0439466369
 10
142.5064964335
 20
122.0492134042
 10
142.508535501
 20
122.0546704363
 10
142.5101370205
 20
122.0600993855
 10
142.5112737004
 20
122.0654274692
 10
142.5119728323
 20
122.0707274699
 10
142.5122344162
 20
122.0759993878
  0
LWPOLYLINE
  5
329
100
AcDbEntity
  8
0
100
AcDbPolyline
 62
7
  6
CONTINUOUS
 90
6
 70
0
 10
142.5065278715
 20
121.9732385699
 10
142.5144722411
 20
121.9835521512
 10
142.5284505166
 20
122.0045666424
 10
142.5406264047
 20
122.0270307678
 10
142.5508431345
 20
122.0508357146
 10
142.558717839
 20
122.075066767
  0
LWPOLYLINE
  5
32A
100
AcDbEntity
  8
RACCORDO
100
AcDbPolyline
 62
253
  6
CONTINUOUS
 90
28
 70
0
 10
168.085992129
 20
129.3313360331
 10
168.1056740544
 20
129.3418244218
 10
168.1247445107
 20
129.3525915136
 10
168.1431877189
 20
129.3636284
 10
168.1609884192
 20
129.3749259489
 10
168.1781318831
 20
129.3864748126
 10
168.1946039261
 20
129.3982654357
 10
168.2103909191
 20
129.4102880625
 10
168.2254798
 20
129.4225327455
 10
168.2398580841
 20
129.4349893534
 10
168.2535138748
 20
129.4476475794
 10
168.2664358733
 20
129.4604969503
 10
168.2786133879
 20
129.4735268343
 10
168.2900363428
 20
129.4867264505
 10
168.3006952867
 20
129.5000848775
 10
168.3105814003
 20
129.5135910624
 10
168.3196865037
 20
129.5272338303
 10
168.3280030635
 20
129.541001893
 10
168.3355241985
 20
129.5548838588
 10
168.3422436856
 20
129.5688682417
 10
168.3481559651
 20
129.582943471
 10
168.3532561452
 20
129.5970979008
 10
168.357540006
 20
129.6113198196
 10
168.361004003
 20
129.6255974603
 10
168.3636452701
 20
129.6399190094
 10
168.3654616218
 20
129.6542726172
 10
168.3664515554
 20
129.6686464076
 10
168.3666523287
 20
129.6786630723
  0
LWPOLYLINE
  5
32B
100
AcDbEntity
  8
SMUSSO
100
AcDbPolyline
 62
7
  6
CONTINUOUS
 90
43
 70
0
 10
164.0789727502
 20
125.6817577943
 10
164.0463596164
 20
125.6644163469
 10
164.0137949484
 20
125.6461949648
 10
163.9812787464
 20
125.6270936478
 10
163.9487945272
 20
125.6071017713
 10
163.916358774
 20
125.58622996
 10
163.8840209357
 20
125.5645100882
 10
163.8517819325
 20
125.5419414427
 10
163.8196408443
 20
125.5185247366
 10
163.7876443591
 20
125.4942939839
 10
163.755791665
 20
125.4692471521
 10
163.7240835739
 20
125.4433862736
 10
163.6925692097
 20
125.4167514596
 10
163.6612500541
 20
125.389342588
 10
163.6301246252
 20
125.3611597809
 10
163.5992376014
 20
125.3322435153
 10
163.5685880763
 20
125.3025914848
 10
163.5381769563
 20
125.2722059957
 10
163.5080516378
 20
125.2411344447
 10
163.4782138176
 20
125.2093771346
 10
163.4486617989
 20
125.1769337625
 10
163.4194378879
 20
125.1438508161
 10
163.3905413661
 20
125.1101259521
 10
163.361972952
 20
125.0757615138
 10
163.3337771073
 20
125.040811019
 10
163.3059555012
 20
125.0052749805
 10
163.2785064645
 20
124.9691528854
 10
163.2514694514
 20
124.9324967128
 10
163.2248441028
 20
124.8953043334
 10
163.1986307778
 20
124.8575778764
 10
163.1728700081
 20
124.8193757086
 10
163.1475632969
 20
124.7806983461
 10
163.1227091411
 20
124.7415452728
 10
163.0983435628
 20
124.7019733071
 10
163.0744666304
 20
124.6619807483
 10
163.0510782755
 20
124.6215692971
 10
163.0282143161
 20
124.5808008736
 10
163.0058760291
 20
124.5396758407
 10
162.9840621376
 20
124.4981938356
 10
162.9628046279
 20
124.4564156897
 10
162.9421141621
 20
124.4143616802
 10
162.9219800781
 20
124.3720115299
 10
162.9024023759
 20
124.3293652389
  0
LINE
  5
32C
100
AcDbEntity
  8
0
100
AcDbLine
 62
7
  6
CONTINUOUS
 10
141.7772213104
 20
116.1238228878
 11
141.7270529772
 21
116.0976662225
  0
LINE
  5
32D
100
AcDbEntity
  8
RACCORDO
100
AcDbLine
 62
7
  6
CONTINUOUS
 10
168.085992129
 20
127.7564528116
 11
164.0789727502
 21
125.6817577943
  0
LINE
  5
32E
100
AcDbEntity
  8
RACCORDO
100
AcDbLine
 62
253
  6
CONTINUOUS
 10
168.085992129
 20
129.3313360331
 11
143.7571202977
 21
116.953954676
  0
LINE
  5
32F
100
AcDbEntity
  8
0
100
AcDbLine
 62
7
  6
CONTINUOUS
 10
141.9708371021
 20
116.5038449604
 11
142.696460126
 21
116.8178979562
  0
LINE
  5
330
100
AcDbEntity
  8
0
100
AcDbLine
 62
7
  6
CONTINUOUS
 10
141.7270529772
 20
115.407380909
 11
143.7587974441
 21
116.2867292971
  0
LWPOLYLINE
  5
331
100
AcDbEntity
  8
0
100
AcDbPolyline
 62
253
  6
CONTINUOUS
 90
6
 70
0
 10
142.5020696496
 20
80.9559590042
 10
142.4940471908
 20
80.9787604751
 10
142.4836041905
 20
80.999795524
 10
142.4709173544
 20
81.0187082174
 10
142.4562013559
 20
81.0351785343
 10
142.4397052041
 20
81.0489277812
  0
LWPOLYLINE
  5
332
100
AcDbEntity
  8
0
100
AcDbPolyline
 62
253
  6
CONTINUOUS
 90
13
 70
0
 10
135.8913568266
 20
128.6325401264
 10
135.8896971481
 20
128.6614969356
 10
135.8851410629
 20
128.6913427994
 10
135.8777639542
 20
128.7215839014
 10
135.8676878801
 20
128.7517198858
 10
135.8550795551
 20
128.7812521361
 10
135.8401475917
 20
128.8096920254
 10
135.8231390478
 20
128.8365689999
 10
135.8043353388
 20
128.8614383653
 10
135.7840475827
 20
128.8838886441
 10
135.7626114516
 20
128.9035483841
 10
135.740381618
 20
128.920092304
 10
135.717725887
 20
128.9332466754
  0
LWPOLYLINE
  5
333
100
AcDbEntity
  8
0
100
AcDbPolyline
 62
7
  6
CONTINUOUS
 90
12
 70
0
 10
136.0021377108
 20
128.7633463271
 10
136.0010850084
 20
128.7837507228
 10
135.9961516391
 20
128.8169409979
 10
135.9871852171
 20
128.8497195391
 10
135.9741851578
 20
128.8816217793
 10
135.9572899129
 20
128.9120539251
 10
135.9365575899
 20
128.9407364881
 10
135.9120101952
 20
128.9674289428
 10
135.8840484826
 20
128.9915540661
 10
135.853183777
 20
129.012686033
 10
135.8191996298
 20
129.0309835616
 10
135.7824775348
 20
129.0461870356
  0
LWPOLYLINE
  5
334
100
AcDbEntity
  8
0
100
AcDbPolyline
 62
253
  6
CONTINUOUS
 90
3
 70
0
 10
135.7832322221
 20
86.117262435
 10
135.8630686112
 20
83.1443552519
 10
135.9606189887
 20
80.1812154797
  0
LINE
  5
335
100
AcDbEntity
  8
0
100
AcDbLine
 62
7
  6
CONTINUOUS
 10
134.5750409305
 20
124.9183028123
 11
134.5507491116
 21
126.0620649042
  0
LINE
  5
336
100
AcDbEntity
  8
0
100
AcDbLine
 62
253
  6
CONTINUOUS
 10
135.7211211512
 20
89.0997874233
 11
135.7832322221
 21
86.117262435
  0
LWPOLYLINE
  5
337
100
AcDbEntity
  8
0
100
AcDbPolyline
 62
253
  6
CONTINUOUS
 90
28
 70
0
 10
137.1065922337
 20
123.7708600428
 10
137.1065556733
 20
123.773094718
 10
137.1064123096
 20
123.7754108469
 10
137.1061621426
 20
123.7778084295
 10
137.1058082416
 20
123.7802992077
 10
137.1053475374
 20
123.7828714396
 10
137.1047708217
 20
123.7854898998
 10
137.1040742528
 20
123.7881570272
 10
137.1032616725
 20
123.7908703829
 10
137.1023353982
 20
123.7935874241
 10
137.1012920064
 20
123.7963081488
 10
137.1001349206
 20
123.7990325591
 10
137.0988767287
 20
123.8017181175
 10
137.097515903
 20
123.8043620199
 10
137.0960539711
 20
123.8069670705
 10
137.0945081036
 20
123.8094991452
 10
137.0928778959
 20
123.8119556965
 10
137.0911637527
 20
123.8143392719
 10
137.0893840578
 20
123.8166233901
 10
137.0875379422
 20
123.8188069682
 10
137.085626275
 20
123.8208910892
 10
137.0836700473
 20
123.8228525203
 10
137.0816687234
 20
123.8246897566
 10
137.079622839
 20
123.8264043031
 10
137.0775549925
 20
123.827977442
 10
137.0754727169
 20
123.829402934
 10
137.0733684792
 20
123.8306870184
 10
137.0712422794
 20
123.8318296951
  0
LINE
  5
338
100
AcDbEntity
  8
0
100
AcDbLine
 62
253
  6
CONTINUOUS
 10
135.6767446389
 20
92.0918570064
 11
135.7211211512
 21
89.0997874233
  0
LINE
  5
339
100
AcDbEntity
  8
0
100
AcDbLine
 62
7
  6
CONTINUOUS
 10
136.0198301622
 20
127.5763213242
 11
136.0021396244
 21
128.7633196617
  0
LINE
  5
33A
100
AcDbEntity
  8
0
100
AcDbLine
 62
253
  6
CONTINUOUS
 10
135.903800868
 20
127.4391525565
 11
135.8913568266
 21
128.6325401264
  0
LINE
  5
33B
100
AcDbEntity
  8
0
100
AcDbLine
 62
253
  6
CONTINUOUS
 10
135.6501140485
 20
95.093243694
 11
135.6767446389
 21
92.0918570064
  0
LINE
  5
33C
100
AcDbEntity
  8
0
100
AcDbLine
 62
253
  6
CONTINUOUS
 10
137.0044928452
 20
127.96547583
 11
137.0044928452
 21
125.9925030278
  0
LINE
  5
33D
100
AcDbEntity
  8
0
100
AcDbLine
 62
253
  6
CONTINUOUS
 10
137.1065922337
 20
122.5835872615
 11
137.1065922337
 21
123.7708600428
  0
LINE
  5
33E
100
AcDbEntity
  8
0
100
AcDbLine
 62
253
  6
CONTINUOUS
 10
137.386945264
 20
122.5912828326
 11
137.386945264
 21
123.7696367409
  0
LINE
  5
33F
100
AcDbEntity
  8
0
100
AcDbLine
 62
7
  6
CONTINUOUS
 10
137.6052913014
 20
122.7104843523
 11
137.6052913014
 21
123.8796516224
  0
LWPOLYLINE
  5
340
100
AcDbEntity
  8
0
100
AcDbPolyline
 62
253
  6
CONTINUOUS
 90
5
 70
0
 10
135.7211204395
 20
107.1863183181
 10
135.6767440721
 20
104.1503723271
 10
135.6501137361
 20
101.1226572474
 10
135.6412365848
 20
98.1035624731
 10
135.6501140485
 20
95.093243694
  0
LINE
  5
341
100
AcDbEntity
  8
0
100
AcDbLine
 62
253
  6
CONTINUOUS
 10
135.7832315227
 20
110.2302573216
 11
135.7211204395
 21
107.1863183181
  0
LINE
  5
342
100
AcDbEntity
  8
0
100
AcDbLine
 62
253
  6
CONTINUOUS
 10
135.8630681327
 20
113.2821059765
 11
135.7832315227
 21
110.2302573216
  0
LINE
  5
343
100
AcDbEntity
  8
0
100
AcDbLine
 62
253
  6
CONTINUOUS
 10
135.9606189897
 20
116.341703368
 11
135.8630681327
 21
113.2821059765
  0
LWPOLYLINE
  5
344
100
AcDbEntity
  8
0
100
AcDbPolyline
 62
253
  6
CONTINUOUS
 90
13
 70
0
 10
136.6335504108
 20
116.3298468945
 10
136.5339499335
 20
113.274058067
 10
136.4524528975
 20
110.2261579404
 10
136.3890593029
 20
107.1861465146
 10
136.3437621188
 20
104.1537862221
 10
136.3165683762
 20
101.1293146304
 10
136.3074991674
 20
98.113444442
 10
136.316568594
 20
95.1061828704
 10
136.3437625544
 20
92.107522702
 10
136.3890598366
 20
89.1181549982
 10
136.4524533698
 20
86.138310113
 10
136.5339502247
 20
83.1677576923
 10
136.6335504014
 20
80.2064977363
  0
LWPOLYLINE
  5
345
100
AcDbEntity
  8
0
100
AcDbPolyline
 62
253
  6
CONTINUOUS
 90
13
 70
0
 10
137.0712422794
 20
123.8318296951
 10
137.0724254593
 20
123.8547792995
 10
137.0759552009
 20
123.878528075
 10
137.0817724423
 20
123.9026786409
 10
137.0897798455
 20
123.9268268932
 10
137.0998434249
 20
123.9505687667
 10
137.1117947898
 20
123.973506996
 10
137.1254339618
 20
123.9952577629
 10
137.1405327209
 20
124.0154571185
 10
137.1568384241
 20
124.0337670732
 10
137.1740782333
 20
124.0498812524
 10
137.19196368
 20
124.0635300223
 10
137.2101954927
 20
124.0744850025
  0
LWPOLYLINE
  5
346
100
AcDbEntity
  8
ASSI
100
AcDbPolyline
 62
7
  6
CONTINUOUS
 90
28
 70
0
 10
163.4146888147
 20
122.9935256924
 10
163.5213395197
 20
123.0519181224
 10
163.626236894
 20
123.1188421861
 10
163.7293809374
 20
123.1942978837
 10
163.8313267873
 20
123.2788006913
 10
163.9315193063
 20
123.3718351328
 10
164.0282930831
 20
123.4718547789
 10
164.1215909743
 20
123.5789763854
 10
164.2114701232
 20
123.6930831967
 10
164.2964365485
 20
123.8122785162
 10
164.3764081353
 20
123.9366473971
 10
164.4514669983
 20
124.0661047862
 10
164.5203655007
 20
124.1984988281
 10
164.5830006737
 20
124.3338786082
 10
164.6394754861
 20
124.4721950411
 10
164.688851207
 20
124.6111490153
 10
164.7310091771
 20
124.7507511872
 10
164.7660680558
 20
124.8909909004
 10
164.7934450905
 20
125.0295370745
 10
164.8130118811
 20
125.1663614023
 10
164.8248968276
 20
125.301492191
 10
164.8289023771
 20
125.4326832811
 10
164.8248968276
 20
125.5598688218
 10
164.8130118811
 20
125.683114664
 10
164.7934450905
 20
125.8003722012
 10
164.7660680558
 20
125.9115413406
 10
164.7310091771
 20
126.0167221751
 10
164.7300769742
 20
126.0188768749
  0
LINE
  5
347
100
AcDbEntity
  8
SMUSSO
100
AcDbLine
 62
7
  6
CONTINUOUS
 10
162.9024023759
 20
124.3293652389
 11
151.6358031511
 21
118.3733539375
  0
LWPOLYLINE
  5
348
100
AcDbEntity
  8
SMUSSO
100
AcDbPolyline
 62
7
  6
CONTINUOUS
 90
93
 70
0
 10
151.6358031511
 20
116.4675756356
 10
151.6283130352
 20
116.4636770099
 10
151.6208298108
 20
116.4598729344
 10
151.613353478
 20
116.456163409
 10
151.6058840392
 20
116.4525485885
 10
151.5984214919
 20
116.4490283182
 10
151.5909658292
 20
116.4456021338
 10
151.5835171805
 20
116.4422700064
 10
151.5760754163
 20
116.4390319647
 10
151.5686401418
 20
116.4358876311
 10
151.5612121258
 20
116.4328371718
 10
151.5537905994
 20
116.4298804205
 10
151.5463728605
 20
116.4270165001
 10
151.538956071
 20
116.4242443299
 10
151.531543069
 20
116.4215649906
 10
151.5241396669
 20
116.4189808477
 10
151.5167454509
 20
116.4164920001
 10
151.5093608348
 20
116.4140983489
 10
151.5019928725
 20
116.4118019628
 10
151.4946447487
 20
116.4096038503
 10
151.4873132788
 20
116.4075030028
 10
151.4799959629
 20
116.4054984635
 10
151.4726912168
 20
116.4035897241
 10
151.4654006247
 20
116.401777293
 10
151.4581264391
 20
116.4000617385
 10
151.4508682304
 20
116.3984430313
 10
151.4436264282
 20
116.3969212007
 10
151.4364045742
 20
116.3954969033
 10
151.4292048922
 20
116.3941704925
 10
151.4220251583
 20
116.3929416147
 10
151.4148622427
 20
116.3918098657
 10
151.4077131973
 20
116.3907747853
 10
151.40058097
 20
116.3898368336
 10
151.3934712754
 20
116.388996987
 10
151.3863838267
 20
116.3882554632
 10
151.3793189105
 20
116.3876120444
 10
151.3722831018
 20
116.3870670542
 10
151.3652795054
 20
116.3866207367
 10
151.3583050164
 20
116.3862728478
 10
151.351356895
 20
116.3860229775
 10
151.3444334576
 20
116.3858709847
 10
151.3375363879
 20
116.3858170106
 10
151.3306679976
 20
116.3858610691
 10
151.3238281819
 20
116.3860032199
 10
151.3170170456
 20
116.3862434034
 10
151.3102372138
 20
116.3865814541
 10
151.3034904819
 20
116.3870171777
 10
151.2967750545
 20
116.3875507684
 10
151.2900881702
 20
116.3881826438
 10
151.2834268962
 20
116.3889131134
 10
151.2767941653
 20
116.3897418676
 10
151.2701960149
 20
116.3906683948
 10
151.2636325713
 20
116.3916929548
 10
151.2571037083
 20
116.3928152879
 10
151.2506150835
 20
116.3940341031
 10
151.244169541
 20
116.3953488482
 10
151.2377642368
 20
116.3967600754
 10
151.2313962976
 20
116.398268151
 10
151.2250638583
 20
116.3998734411
 10
151.2187687839
 20
116.4015755795
 10
151.2125137966
 20
116.4033738336
 10
151.2062990501
 20
116.4052682397
 10
151.2001243907
 20
116.4072587615
 10
151.193992079
 20
116.409344558
 10
151.1879035964
 20
116.4115250183
 10
151.1818574615
 20
116.4138007533
 10
151.1758514909
 20
116.4161727546
 10
151.1698832284
 20
116.4186420294
 10
151.16395513
 20
116.4212075706
 10
151.1580723809
 20
116.4238673483
 10
151.1522354282
 20
116.4266214132
 10
151.1464438247
 20
116.4294697147
 10
151.140701414
 20
116.4324100707
 10
151.1350103192
 20
116.4354413295
 10
151.1293684171
 20
116.4385646429
 10
151.1237731824
 20
116.4417812837
 10
151.1182225598
 20
116.4450924052
 10
151.1127186045
 20
116.4484968542
 10
151.1072649571
 20
116.4519924432
 10
151.1018620305
 20
116.4555790759
 10
151.0965094118
 20
116.4592568486
 10
151.0912095021
 20
116.4630238637
 10
151.0859637172
 20
116.4668790178
 10
151.0807706413
 20
116.4708234144
 10
151.0756284293
 20
116.4748584659
 10
151.0705352582
 20
116.4789856063
 10
151.0654929509
 20
116.4832034016
 10
151.0605051308
 20
116.487508962
 10
151.0555723823
 20
116.4919019592
 10
151.0506941209
 20
116.4963827216
 10
151.0458722166
 20
116.5009493439
 10
151.0411078299
 20
116.5056006031
 10
151.0363906126
 20
116.510347107
  0
LINE
  5
349
100
AcDbEntity
  8
DRAFT
100
AcDbLine
 62
7
  6
CONTINUOUS
 10
167.0024942185
 20
124.2950009654
 11
163.3225804611
 21
122.4226472429
  0
LINE
  5
34A
100
AcDbEntity
  8
SMUSSO
100
AcDbLine
 62
7
  6
CONTINUOUS
 10
162.0785882772
 20
122.7050428823
 11
150.9180883987
 21
117.0479295423
  0
LINE
  5
34B
100
AcDbEntity
  8
SMUSSO
100
AcDbLine
 62
7
  6
CONTINUOUS
 10
162.9024023759
 20
122.1784693648
 11
151.6358031511
 21
116.4675756356
  0
LWPOLYLINE
  5
34C
100
AcDbEntity
  8
SMUSSO
100
AcDbPolyline
 62
7
  6
CONTINUOUS
 90
11
 70
0
 10
150.9180883987
 20
117.0479295423
 10
150.9124255343
 20
117.0450936391
 10
150.9067685541
 20
117.0423297446
 10
150.9011180061
 20
117.0396379392
 10
150.8954749844
 20
117.0370185379
 10
150.8898394813
 20
117.03447135
 10
150.8842103906
 20
117.0319957455
 10
150.878588347
 20
117.0295918747
 10
150.8729737917
 20
117.0272597976
 10
150.8673653321
 20
117.0249988696
 10
150.8660135817
 20
117.0244705019
  0
LINE
  5
34D
100
AcDbEntity
  8
0
100
AcDbLine
 62
7
  6
CONTINUOUS
 10
154.4697880327
 20
119.1673024566
 11
155.6718695607
 21
119.7683432206
  0
LINE
  5
34E
100
AcDbEntity
  8
0
100
AcDbLine
 62
7
  6
CONTINUOUS
 10
166.9148673816
 20
124.3388143839
 11
167.9755275534
 21
124.8691444698
  0
LINE
  5
34F
100
AcDbEntity
  8
RACCORDO
100
AcDbLine
 62
7
  6
CONTINUOUS
 10
162.0179229146
 20
122.7353755636
 11
150.876777778
 21
117.186846705
  0
LWPOLYLINE
  5
350
100
AcDbEntity
  8
0
100
AcDbPolyline
 62
7
  6
CONTINUOUS
 90
5
 70
0
 10
142.5626650493
 20
80.898759678
 10
142.5556879384
 20
80.923785816
 10
142.5460739743
 20
80.9476338816
 10
142.533899049
 20
80.9701353962
 10
142.5193295635
 20
80.9910085123
  0
LWPOLYLINE
  5
351
100
AcDbEntity
  8
0
100
AcDbPolyline
 62
253
  6
CONTINUOUS
 90
16
 70
0
 10
137.1164465486
 20
117.1385594662
 10
137.1125828218
 20
117.1837706199
 10
137.1049971933
 20
117.2304707643
 10
137.0937725858
 20
117.2781491688
 10
137.0790317246
 20
117.3262843868
 10
137.0609357902
 20
117.3743499822
 10
137.0396826503
 20
117.4218202859
 10
137.0155047051
 20
117.4681761211
 10
136.9886663636
 20
117.5129104584
 10
136.9594611464
 20
117.5555339877
 10
136.9282084445
 20
117.5955805128
 10
136.895250068
 20
117.6326119891
 10
136.8609465304
 20
117.6662233085
 10
136.8256730349
 20
117.6960468137
 10
136.7898153634
 20
117.721756304
 10
136.7537657074
 20
117.7430705553
  0
LWPOLYLINE
  5
352
100
AcDbEntity
  8
0
100
AcDbPolyline
 62
7
  6
CONTINUOUS
 90
16
 70
0
 10
137.9495588753
 20
127.86709465
 10
137.9484032175
 20
127.8903922745
 10
137.9440613718
 20
127.9135183915
 10
137.9365231805
 20
127.9364530234
 10
137.9255947391
 20
127.959556219
 10
137.9114296811
 20
127.9823812471
 10
137.8945363276
 20
128.003686368
 10
137.8750025855
 20
128.0231054592
 10
137.8526991497
 20
128.0408657563
 10
137.827818003
 20
128.0566168002
 10
137.8002103446
 20
128.0702935607
 10
137.770015506
 20
128.0817698557
 10
137.7378766952
 20
128.0906230232
 10
137.7040303512
 20
128.0966655406
 10
137.6683031662
 20
128.0999156234
 10
137.6307460696
 20
128.1002790814
  0
LWPOLYLINE
  5
353
100
AcDbEntity
  8
0
100
AcDbPolyline
 62
7
  6
CONTINUOUS
 90
16
 70
0
 10
137.6052913014
 20
123.8796516224
 10
137.6043421257
 20
123.9025984295
 10
137.6014727799
 20
123.9263468794
 10
137.5966945195
 20
123.9506474001
 10
137.5900128839
 20
123.9753311229
 10
137.5814960154
 20
124.0000342028
 10
137.5713382567
 20
124.0242079889
 10
137.5597907976
 20
124.0473984442
 10
137.546930842
 20
124.0695785866
 10
137.5327100366
 20
124.0908318134
 10
137.5171188317
 20
124.1110684202
 10
137.5004256919
 20
124.1298461729
 10
137.4829997183
 20
124.1467419253
 10
137.4651098537
 20
124.161538137
 10
137.4468909383
 20
124.1741615575
 10
137.4285415301
 20
124.184499884
  0
LWPOLYLINE
  5
354
100
AcDbEntity
  8
0
100
AcDbPolyline
 62
253
  6
CONTINUOUS
 90
28
 70
0
 10
137.386945264
 20
123.7696367409
 10
137.3865920197
 20
123.7807082532
 10
137.3857647469
 20
123.7922344328
 10
137.3844354131
 20
123.8041969327
 10
137.3825729452
 20
123.816598401
 10
137.3801537771
 20
123.8293864339
 10
137.3771724693
 20
123.8424511141
 10
137.3736162157
 20
123.8557546074
 10
137.3694748134
 20
123.8692545979
 10
137.3647686229
 20
123.8828270862
 10
137.3595029414
 20
123.8964206203
 10
137.3536828277
 20
123.9099897926
 10
137.3473485027
 20
123.9234191916
 10
137.340524215
 20
123.93664827
 10
137.3332249702
 20
123.9496397522
 10
137.3254903708
 20
123.9623172763
 10
137.317352475
 20
123.9746270907
 10
137.3088347794
 20
123.9865326825
 10
137.299969539
 20
123.9979875508
 10
137.290787732
 20
124.0089504114
 10
137.2813221469
 20
124.0193810128
 10
137.2716101041
 20
124.029237873
 10
137.2616863503
 20
124.0384854869
 10
137.2515863421
 20
124.0470906573
 10
137.2413500402
 20
124.0550199051
 10
137.2310154291
 20
124.0622446531
 10
137.2206182051
 20
124.0687405575
 10
137.2101954927
 20
124.0744850025
  0
LWPOLYLINE
  5
355
100
AcDbEntity
  8
0
100
AcDbPolyline
 62
253
  6
CONTINUOUS
 90
17
 70
0
 10
140.0164001861
 20
79.3711230422
 10
140.0165975045
 20
79.3610071249
 10
140.0172139369
 20
79.3508112978
 10
140.0182850601
 20
79.3405814667
 10
140.0198499517
 20
79.3303460695
 10
140.0219414641
 20
79.3201832808
 10
140.0245755839
 20
79.3102130195
 10
140.0277752082
 20
79.3004901636
 10
140.0315610243
 20
79.291072876
 10
140.0359241341
 20
79.2820734863
 10
140.0408714278
 20
79.2735436554
 10
140.0464066791
 20
79.2655363659
 10
140.0524938062
 20
79.2581459218
 10
140.0591194569
 20
79.2514152883
 10
140.0662728735
 20
79.2453802321
 10
140.0739024925
 20
79.240100383
 10
140.0813419696
 20
79.2359208434
  0
LWPOLYLINE
  5
356
100
AcDbEntity
  8
0
100
AcDbPolyline
 62
253
  6
CONTINUOUS
 90
18
 70
0
 10
137.9518988631
 20
122.0202452386
 10
137.9520531556
 20
122.0112686342
 10
137.9525316721
 20
122.0022318146
 10
137.9533587373
 20
121.9931660223
 10
137.9545606335
 20
121.9840917455
 10
137.9561601193
 20
121.9750597147
 10
137.9581708174
 20
121.9661468759
 10
137.9606102865
 20
121.9573907451
 10
137.9634950269
 20
121.9488310466
 10
137.9668256092
 20
121.940542553
 10
137.970610908
 20
121.9325629011
 10
137.9748582361
 20
121.9249308338
 10
137.979553542
 20
121.9177137107
 10
137.9846957933
 20
121.9109452401
 10
137.990282354
 20
121.9046588527
 10
137.9962846222
 20
121.8989089629
 10
138.0026916951
 20
121.8937213492
 10
138.0094914973
 20
121.8891203367
  0
LWPOLYLINE
  5
357
100
AcDbEntity
  8
0
100
AcDbPolyline
 62
253
  6
CONTINUOUS
 90
28
 70
0
 10
140.2967532164
 20
79.3698997403
 10
140.296781379
 20
79.3678594649
 10
140.2969088121
 20
79.3658223764
 10
140.2971355155
 20
79.3637884747
 10
140.297456592
 20
79.3617425644
 10
140.2978769388
 20
79.359699841
 10
140.2984112483
 20
79.3577058908
 10
140.299063196
 20
79.355761231
 10
140.2998291062
 20
79.3538653444
 10
140.3007126441
 20
79.3520622662
 10
140.3017179014
 20
79.3503542902
 10
140.3028407863
 20
79.3487391226
 10
140.3040726891
 20
79.3472539164
 10
140.3054167007
 20
79.3459028752
 10
140.3068697302
 20
79.3446817954
 10
140.3084138949
 20
79.3436152201
 10
140.3100499593
 20
79.3427074564
 10
140.311777159
 20
79.3419541971
 10
140.3135753184
 20
79.3413670639
 10
140.3154448847
 20
79.3409486764
 10
140.3173854108
 20
79.340696415
 10
140.3193753797
 20
79.3406140423
 10
140.3214154924
 20
79.3407037
 10
140.3235050478
 20
79.3409632464
 10
140.3256204262
 20
79.3413900195
 10
140.3277537542
 20
79.341983132
 10
140.3299129052
 20
79.3427434712
 10
140.3320978791
 20
79.343671037
  0
LWPOLYLINE
  5
358
100
AcDbEntity
  8
0
100
AcDbPolyline
 62
7
  6
CONTINUOUS
 90
9
 70
0
 10
137.8933202395
 20
122.0909270453
 10
137.893353376
 20
122.0868576325
 10
137.8951901803
 20
122.0603963533
 10
137.89984179
 20
122.0344635073
 10
137.9072539622
 20
122.0094352033
 10
137.9172564605
 20
121.9857548946
 10
137.9297237862
 20
121.9635770279
 10
137.9445490721
 20
121.9430441219
 10
137.961469738
 20
121.9244814232
  0
LINE
  5
359
100
AcDbEntity
  8
0
100
AcDbLine
 62
7
  6
CONTINUOUS
 10
137.8933202196
 20
122.4082261218
 11
137.8933202196
 21
122.0909573214
  0
LINE
  5
35A
100
AcDbEntity
  8
0
100
AcDbLine
 62
253
  6
CONTINUOUS
 10
137.9518988634
 20
122.3375154437
 11
137.9518988634
 21
122.0202452385
  0
LINE
  5
35B
100
AcDbEntity
  8
0
100
AcDbLine
 62
7
  6
CONTINUOUS
 10
138.3166247649
 20
80.3504307152
 11
138.3166247649
 21
117.7830918434
  0
LINE
  5
35C
100
AcDbEntity
  8
0
100
AcDbLine
 62
253
  6
CONTINUOUS
 10
138.4182217919
 20
127.4568438646
 11
138.4182217919
 21
126.6919987061
  0
LINE
  5
35D
100
AcDbEntity
  8
0
100
AcDbLine
 62
7
  6
CONTINUOUS
 10
138.60818334
 20
121.5893726031
 11
138.60818334
 21
121.1354953518
  0
LINE
  5
35E
100
AcDbEntity
  8
0
100
AcDbLine
 62
253
  6
CONTINUOUS
 10
138.6814066447
 20
121.5527609507
 11
138.6814066447
 21
121.0436868066
  0
LINE
  5
35F
100
AcDbEntity
  8
0
100
AcDbLine
 62
7
  6
CONTINUOUS
 10
138.814144077
 20
121.490315818
 11
138.814144077
 21
120.2800217339
  0
LINE
  5
360
100
AcDbEntity
  8
0
100
AcDbLine
 62
253
  6
CONTINUOUS
 10
138.8873673817
 20
121.5525123841
 11
138.8873673817
 21
120.1882131887
  0
LINE
  5
361
100
AcDbEntity
  8
0
100
AcDbLine
 62
253
  6
CONTINUOUS
 10
138.8873673817
 20
80.3678999802
 11
138.8873673817
 21
80.2529082447
  0
LINE
  5
362
100
AcDbEntity
  8
0
100
AcDbLine
 62
253
  6
CONTINUOUS
 10
139.0809316678
 20
121.4557302411
 11
139.0809316678
 21
120.0914310456
  0
LINE
  5
363
100
AcDbEntity
  8
0
100
AcDbLine
 62
253
  6
CONTINUOUS
 10
139.0809316678
 20
80.4476356925
 11
139.0809316678
 21
80.1561261017
  0
LINE
  5
364
100
AcDbEntity
  8
0
100
AcDbLine
 62
253
  6
CONTINUOUS
 10
139.4313729557
 20
121.1777777952
 11
139.4313729557
 21
120.1010505095
  0
LINE
  5
365
100
AcDbEntity
  8
0
100
AcDbLine
 62
253
  6
CONTINUOUS
 10
139.4313729557
 20
80.5919943771
 11
139.4313729557
 21
80.4024154235
  0
LINE
  5
366
100
AcDbEntity
  8
0
100
AcDbLine
 62
7
  6
CONTINUOUS
 10
139.9740990184
 20
120.3973406197
 11
139.9740990184
 21
120.9064147639
  0
LINE
  5
367
100
AcDbEntity
  8
0
100
AcDbLine
 62
253
  6
CONTINUOUS
 10
140.0164001861
 20
79.688374492
 11
140.0164001861
 21
79.3711230422
  0
LINE
  5
368
100
AcDbEntity
  8
0
100
AcDbLine
 62
253
  6
CONTINUOUS
 10
140.0164001861
 20
120.9879941724
 11
140.0164001861
 21
121.3052647823
  0
LINE
  5
369
100
AcDbEntity
  8
0
100
AcDbLine
 62
253
  6
CONTINUOUS
 10
140.2967532164
 20
79.6871685406
 11
140.2967532164
 21
79.3698997403
  0
LINE
  5
36A
100
AcDbEntity
  8
0
100
AcDbLine
 62
253
  6
CONTINUOUS
 10
140.2967532164
 20
120.98677268
 11
140.2967532164
 21
121.3040414804
  0
LWPOLYLINE
  5
36B
100
AcDbEntity
  8
0
100
AcDbPolyline
 62
253
  6
CONTINUOUS
 90
28
 70
0
 10
140.2967532164
 20
121.3040414804
 10
140.2967808481
 20
121.3060962397
 10
140.296906864
 20
121.3082440097
 10
140.2971312642
 20
121.3104847902
 10
140.2974490802
 20
121.3128289102
 10
140.2978652804
 20
121.3152660409
 10
140.2983947702
 20
121.3177651953
 10
140.299041182
 20
121.3203294218
 10
140.2998008834
 20
121.3229556721
 10
140.3006778818
 20
121.3256038142
 10
140.3016761494
 20
121.3282754011
 10
140.3027917141
 20
121.3309688798
 10
140.304016667
 20
121.333639459
 10
140.3053538807
 20
121.3362858457
 10
140.3068004826
 20
121.338909333
 10
140.3083399469
 20
121.3414690084
 10
140.3099732985
 20
121.3439619014
 10
140.3116995124
 20
121.3463909826
 10
140.3134989877
 20
121.348724252
 10
140.3153726908
 20
121.3509599354
 10
140.3173196554
 20
121.353099807
 10
140.3193173811
 20
121.3551171897
 10
140.3213667696
 20
121.3570103664
 10
140.3234669192
 20
121.3587810541
 10
140.3255926255
 20
121.3604077266
 10
140.3277354868
 20
121.3618832087
 10
140.3299039046
 20
121.3632146757
 10
140.3320978791
 20
121.3644021276
  0
LWPOLYLINE
  5
36C
100
AcDbEntity
  8
0
100
AcDbPolyline
 62
253
  6
CONTINUOUS
 90
28
 70
0
 10
140.0164001861
 20
121.3052647823
 10
140.0165951378
 20
121.3155145548
 10
140.0172045427
 20
121.3262606619
 10
140.0182641143
 20
121.3374932651
 10
140.0198130706
 20
121.3492235694
 10
140.0218845115
 20
121.3614067455
 10
140.0244948677
 20
121.3739392799
 10
140.0276674363
 20
121.386789647
 10
140.0314233334
 20
121.3999210077
 10
140.0357543437
 20
121.413212777
 10
140.0406675938
 20
121.4266196762
 10
140.0461676795
 20
121.4400938422
 10
140.052220481
 20
121.4535080842
 10
140.0588128956
 20
121.4668048238
 10
140.0659355538
 20
121.4799388661
 10
140.0735414846
 20
121.4928053388
 10
140.0816010896
 20
121.5053443977
 10
140.0900954887
 20
121.5175175428
 10
140.0989830463
 20
121.5292580117
 10
140.1082313377
 20
121.5405181358
 10
140.1178100147
 20
121.5512563854
 10
140.1276754328
 20
121.5614209562
 10
140.1377922912
 20
121.5709733225
 10
140.1481235476
 20
121.5798764228
 10
140.1586199055
 20
121.5880876087
 10
140.1692386599
 20
121.595574724
 10
140.1799445087
 20
121.6023138135
 10
140.190698062
 20
121.6082807369
  0
LWPOLYLINE
  5
36D
100
AcDbEntity
  8
0
100
AcDbPolyline
 62
253
  6
CONTINUOUS
 90
10
 70
0
 10
137.1164465316
 20
79.8560364845
 10
137.112582663
 20
79.8109269986
 10
137.1049967444
 20
79.7682942581
 10
137.0937717441
 20
79.7286045425
 10
137.0790304311
 20
79.6922919432
 10
137.0609340332
 20
79.6597536154
 10
137.0396804727
 20
79.6313454351
 10
137.0155022026
 20
79.6073781058
 10
136.9886636635
 20
79.5881137613
 10
136.9627110693
 20
79.5750685902
  0
LWPOLYLINE
  5
36E
100
AcDbEntity
  8
0
100
AcDbPolyline
 62
7
  6
CONTINUOUS
 90
3
 70
0
 10
142.3276666388
 20
125.7518187968
 10
142.3299312882
 20
125.7691005682
 10
142.3305816308
 20
125.7788462188
  0
LINE
  5
36F
100
AcDbEntity
  8
0
100
AcDbLine
 62
7
  6
CONTINUOUS
 10
141.9023724265
 20
116.8556929716
 11
141.7772213104
 21
116.1238228878
  0
LWPOLYLINE
  5
370
100
AcDbEntity
  8
0
100
AcDbPolyline
 62
7
  6
CONTINUOUS
 90
3
 70
0
 10
142.558717839
 20
122.075066767
 10
142.5642513259
 20
122.0994687836
 10
142.5675110865
 20
122.1245599437
  0
LWPOLYLINE
  5
371
100
AcDbEntity
  8
SMUSSO
100
AcDbPolyline
 62
7
  6
CONTINUOUS
 90
43
 70
0
 10
164.0789727502
 20
121.3516307753
 10
164.044832131
 20
121.3334546634
 10
164.0107470788
 20
121.3143159119
 10
163.9767175937
 20
121.294214521
 10
163.9427247815
 20
121.2731382003
 10
163.9087875363
 20
121.25109924
 10
163.8749625405
 20
121.2281345113
 10
163.8412508575
 20
121.2042431357
 10
163.8076514239
 20
121.1794259917
 10
163.7742177314
 20
121.1537225852
 10
163.7409488855
 20
121.1271305235
 10
163.7078457807
 20
121.0996521994
 10
163.6749645926
 20
121.0713342968
 10
163.6423070451
 20
121.0421766463
 10
163.6098714142
 20
121.0121794174
 10
163.577708704
 20
120.9813898023
 10
163.5458179078
 20
120.9498050753
 10
163.5142000323
 20
120.9174279623
 10
163.4829091021
 20
120.8843138325
 10
163.451947132
 20
120.8504630705
 10
163.4213121072
 20
120.8158752918
 10
163.3910520084
 20
120.7806047128
 10
163.3611660214
 20
120.7446485241
 10
163.3316549603
 20
120.7080095351
 10
163.3025692479
 20
120.6707503902
 10
163.2739109164
 20
120.6328718017
 10
163.2456779336
 20
120.5943730573
 10
163.2179146256
 20
120.5553146648
 10
163.1906205679
 20
120.515694012
 10
163.1637961851
 20
120.4755137111
 10
163.1374870771
 20
120.4348421056
 10
163.1116951232
 20
120.3936799984
 10
163.0864184442
 20
120.3520265867
 10
163.0616970024
 20
120.3099478058
 10
163.0375308542
 20
120.2674415034
 10
163.0139199431
 20
120.2245098318
 10
162.9909040624
 20
120.1812251832
 10
162.968484856
 20
120.13758824
 10
162.94666068
 20
120.0935983198
 10
162.9254663957
 20
120.0493257678
 10
162.9049136234
 20
120.0047940321
 10
162.8849907428
 20
119.9599796645
 10
162.8656977538
 20
119.914882665
  0
LWPOLYLINE
  5
372
100
AcDbEntity
  8
RACCORDO
100
AcDbPolyline
 62
7
  6
CONTINUOUS
 90
30
 70
0
 10
168.085992129
 20
124.1191461157
 10
168.1046250717
 20
124.1290580428
 10
168.1227029065
 20
124.1392166334
 10
168.1402256334
 20
124.1496218876
 10
168.1572130526
 20
124.1602860696
 10
168.1736453639
 20
124.1711969152
 10
168.1894631665
 20
124.1823176312
 10
168.2046609012
 20
124.1936485032
 10
168.2192441272
 20
124.2051892456
 10
168.2331701214
 20
124.216902208
 10
168.246426377
 20
124.2287770717
 10
168.2590254008
 20
124.2408241553
 10
168.2709619906
 20
124.2530367645
 10
168.2822431047
 20
124.2654209551
 10
168.2928617847
 20
124.2779706712
 10
168.3027919531
 20
124.2906610498
 10
168.3120349787
 20
124.3034983402
 10
168.3205894927
 20
124.316476293
 10
168.3284253107
 20
124.3295512973
 10
168.33553709
 20
124.3427221553
 10
168.3419301733
 20
124.3559900648
 10
168.3475904054
 20
124.3693150086
 10
168.3525130926
 20
124.3826843873
 10
168.3567029286
 20
124.3961108002
 10
168.3601598389
 20
124.4095920277
 10
168.3628871963
 20
124.4231390113
 10
168.3648816281
 20
124.4367408094
 10
168.3661329412
 20
124.4503623779
 10
168.3666374773
 20
124.4640073507
 10
168.3666493515
 20
124.4664711528
  0
LINE
  5
373
100
AcDbEntity
  8
SMUSSO
100
AcDbLine
 62
7
  6
CONTINUOUS
 10
162.8656977538
 20
119.914882665
 11
151.5836978212
 21
113.9507298839
  0
LINE
  5
374
100
AcDbEntity
  8
RACCORDO
100
AcDbLine
 62
7
  6
CONTINUOUS
 10
168.085992129
 20
124.1191461157
 11
164.0789727502
 21
122.0444510984
  0
LINE
  5
375
100
AcDbEntity
  8
RACCORDO
100
AcDbLine
 62
7
  6
CONTINUOUS
 10
168.085992129
 20
123.4263257927
 11
164.0789727502
 21
121.3516307753
  0
LINE
  5
376
100
AcDbEntity
  8
SMUSSO
100
AcDbLine
 62
7
  6
CONTINUOUS
 10
162.052568474
 20
118.4266786663
 11
150.8678963011
 21
112.7573127023
  0
LINE
  5
377
100
AcDbEntity
  8
RACCORDO
100
AcDbLine
 62
7
  6
CONTINUOUS
 10
161.9916719708
 20
118.4571269178
 11
150.88907254
 21
112.9277946461
  0
LWPOLYLINE
  5
378
100
AcDbEntity
  8
0
100
AcDbPolyline
 62
7
  6
CONTINUOUS
 90
3
 70
0
 10
142.5683625374
 20
80.8458350697
 10
142.5668970669
 20
80.872987128
 10
142.5626650493
 20
80.898759678
  0
LWPOLYLINE
  5
379
100
AcDbEntity
  8
0
100
AcDbPolyline
 62
7
  6
CONTINUOUS
 90
12
 70
0
 10
141.6219011394
 20
125.9474110063
 10
141.6200920525
 20
125.9810919444
 10
141.6143545699
 20
126.0139538656
 10
141.6046355778
 20
126.0463488226
 10
141.5909260549
 20
126.0778280289
 10
141.5733666356
 20
126.1077973552
 10
141.5520669748
 20
126.1359308859
 10
141.5270714753
 20
126.1619974973
 10
141.4987639574
 20
126.1854720004
 10
141.4676506845
 20
126.2059610615
 10
141.4334965995
 20
126.2236428599
 10
141.3966574586
 20
126.2382626697
  0
LWPOLYLINE
  5
37A
100
AcDbEntity
  8
0
100
AcDbPolyline
 62
253
  6
CONTINUOUS
 90
10
 70
0
 10
142.5122344162
 20
80.7763952484
 10
142.5119750889
 20
80.7813909461
 10
142.5112777918
 20
80.7859631442
 10
142.5101425249
 20
80.7901118425
 10
142.508542186
 20
80.7938817969
 10
142.5065038774
 20
80.7972282515
 10
142.504108905
 20
80.800016939
 10
142.5013843709
 20
80.8022031035
 10
142.4983031731
 20
80.8038315009
 10
142.4948653116
 20
80.8049021312
  0
LWPOLYLINE
  5
37B
100
AcDbEntity
  8
0
100
AcDbPolyline
 62
253
  6
CONTINUOUS
 90
13
 70
0
 10
140.0750773556
 20
128.8837809894
 10
140.0735987223
 20
128.9128260535
 10
140.0691873215
 20
128.9428006428
 10
140.061916968
 20
128.9732032002
 10
140.0519093148
 20
129.0035250072
 10
140.0393318174
 20
129.0332586969
 10
140.0243949318
 20
129.061906743
 10
140.0073485932
 20
129.088989785
 10
139.9884780335
 20
129.1140546492
 10
139.9680990094
 20
129.1366819317
 10
139.9465525179
 20
129.156493016
 10
139.924199091
 20
129.173156408
 10
139.9014127629
 20
129.1863932835
  0
LWPOLYLINE
  5
37C
100
AcDbEntity
  8
0
100
AcDbPolyline
 62
7
  6
CONTINUOUS
 90
13
 70
0
 10
140.6786218798
 20
128.5784073831
 10
140.6753758518
 20
128.6466749074
 10
140.6663380013
 20
128.7210315518
 10
140.6517414946
 20
128.7918034812
 10
140.63177838
 20
128.8586981542
 10
140.6066019404
 20
128.9215317413
 10
140.5763127571
 20
128.9801371473
 10
140.5410990742
 20
129.0342134327
 10
140.5012079497
 20
129.0833979523
 10
140.4569322838
 20
129.1273154649
 10
140.4086440245
 20
129.1656339197
 10
140.3568464378
 20
129.1980214385
 10
140.338607145
 20
129.2075945679
  0
LWPOLYLINE
  5
37D
100
AcDbEntity
  8
0
100
AcDbPolyline
 62
253
  6
CONTINUOUS
 90
22
 70
0
 10
140.6054074414
 20
128.4902703682
 10
140.6032493306
 20
128.5380338255
 10
140.5982725318
 20
128.5836878339
 10
140.5904770451
 20
128.6272323935
 10
140.5797904823
 20
128.6689100937
 10
140.5662852315
 20
128.7084783451
 10
140.5501784573
 20
128.745209379
 10
140.5314252622
 20
128.779032631
 10
140.5100705436
 20
128.8100186656
 10
140.4864661584
 20
128.8376514073
 10
140.4605742518
 20
128.8618720324
 10
140.4324326785
 20
128.8827393647
 10
140.4025068592
 20
128.8999137992
 10
140.3707693266
 20
128.9133323348
 10
140.337247548
 20
128.9230579726
 10
140.3024893465
 20
128.9289401113
 10
140.2664548688
 20
128.9309077083
 10
140.2291839683
 20
128.9290318061
 10
140.1913440283
 20
128.9233749306
 10
140.1531575101
 20
128.9139579235
 10
140.1144019525
 20
128.9007599431
 10
140.0750773556
 20
128.8837809894
  0
LWPOLYLINE
  5
37E
100
AcDbEntity
  8
0
100
AcDbPolyline
 62
253
  6
CONTINUOUS
 90
13
 70
0
 10
142.4781024723
 20
122.4415653265
 10
142.4771885151
 20
122.4649231944
 10
142.4738295225
 20
122.489069677
 10
142.4680829455
 20
122.5135917811
 10
142.4600470714
 20
122.5380700894
 10
142.4498593431
 20
122.5620859333
 10
142.437694008
 20
122.5852285542
 10
142.4237591377
 20
122.6071021287
 10
142.4082930694
 20
122.627332539
 10
142.3915603293
 20
122.6455737709
 10
142.3738471083
 20
122.661513833
 10
142.3554563674
 20
122.6748800919
 10
142.3367026552
 20
122.6854439358
  0
LWPOLYLINE
  5
37F
100
AcDbEntity
  8
0
100
AcDbPolyline
 62
7
  6
CONTINUOUS
 90
11
 70
0
 10
142.568366163
 20
122.4855503597
 10
142.5679381821
 20
122.5001039537
 10
142.5643998414
 20
122.529696446
 10
142.5572856739
 20
122.558451949
 10
142.5466914799
 20
122.5858605542
 10
142.5329205297
 20
122.6112778581
 10
142.5162046052
 20
122.6344617669
 10
142.496697616
 20
122.6552544196
 10
142.4748103711
 20
122.6732401597
 10
142.4509843411
 20
122.6881378638
 10
142.4451552411
 20
122.6911674596
  0
LINE
  5
380
100
AcDbEntity
  8
0
100
AcDbLine
 62
253
  6
CONTINUOUS
 10
140.6093720372
 20
128.2101098846
 11
140.6054074414
 21
128.4902703682
  0
LINE
  5
381
100
AcDbEntity
  8
0
100
AcDbLine
 62
7
  6
CONTINUOUS
 10
140.6833705826
 20
128.2435947772
 11
140.6786326419
 21
128.578404135
  0
LWPOLYLINE
  5
382
100
AcDbEntity
  8
0
100
AcDbPolyline
 62
253
  6
CONTINUOUS
 90
28
 70
0
 10
142.5122344162
 20
122.4159429826
 10
142.5122072199
 20
122.4179827748
 10
142.5120841593
 20
122.4200176772
 10
142.5118652343
 20
122.4220476896
 10
142.5115551744
 20
122.4240880916
 10
142.5111492501
 20
122.4261236037
 10
142.5106332735
 20
122.4281083875
 10
142.5100036949
 20
122.4300418627
 10
142.509264064
 20
122.4319246097
 10
142.5084108413
 20
122.4337125303
 10
142.5074400757
 20
122.4354032605
 10
142.5063557183
 20
122.4369991643
 10
142.5051660836
 20
122.4384632364
 10
142.5038681867
 20
122.4397912203
 10
142.5024650124
 20
122.4409873725
 10
142.5009738299
 20
122.4420274567
 10
142.4993939009
 20
122.4429071527
 10
142.4977259636
 20
122.4436307808
 10
142.4959895012
 20
122.4441870655
 10
142.494184082
 20
122.4445733795
 10
142.4923101377
 20
122.44479235
 10
142.4903884471
 20
122.4448405835
 10
142.4884183332
 20
122.4447159264
 10
142.4864004729
 20
122.4444205324
 10
142.4843576758
 20
122.4439574687
 10
142.4822975448
 20
122.4433277576
 10
142.480212477
 20
122.4425303769
 10
142.4781024723
 20
122.4415653265
  0
LINE
  5
383
100
AcDbEntity
  8
0
100
AcDbLine
 62
253
  6
CONTINUOUS
 10
140.7011059671
 20
120.7140084337
 11
140.7011059671
 21
120.0338371454
  0
LINE
  5
384
100
AcDbEntity
  8
0
100
AcDbLine
 62
253
  6
CONTINUOUS
 10
140.7011059671
 20
81.1150405864
 11
140.7011059671
 21
80.6781457332
  0
LINE
  5
385
100
AcDbEntity
  8
0
100
AcDbLine
 62
253
  6
CONTINUOUS
 10
141.051547255
 20
120.8016570554
 11
141.051547255
 21
120.0433621794
  0
LINE
  5
386
100
AcDbEntity
  8
0
100
AcDbLine
 62
253
  6
CONTINUOUS
 10
141.051547255
 20
81.259399271
 11
141.051547255
 21
80.6011802957
  0
LINE
  5
387
100
AcDbEntity
  8
0
100
AcDbLine
 62
7
  6
CONTINUOUS
 10
141.7270529772
 20
117.91885458
 11
141.7270529772
 21
115.407380909
  0
LINE
  5
388
100
AcDbEntity
  8
0
100
AcDbLine
 62
7
  6
CONTINUOUS
 10
141.7270529772
 20
85.9625171804
 11
141.7270529772
 21
83.4510435094
  0
LINE
  5
389
100
AcDbEntity
  8
0
100
AcDbLine
 62
7
  6
CONTINUOUS
 10
141.7772213104
 20
84.2107867583
 11
141.7772213104
 21
85.9884120647
  0
LINE
  5
38A
100
AcDbEntity
  8
0
100
AcDbLine
 62
7
  6
CONTINUOUS
 10
141.7772213104
 20
116.1238228878
 11
141.7772213104
 21
117.9447494643
  0
LINE
  5
38B
100
AcDbEntity
  8
0
100
AcDbLine
 62
7
  6
CONTINUOUS
 10
141.9023724265
 20
84.9426568422
 11
141.9023724265
 21
86.0530100583
  0
LINE
  5
38C
100
AcDbEntity
  8
0
100
AcDbLine
 62
7
  6
CONTINUOUS
 10
141.9023724265
 20
116.8556929716
 11
141.9023724265
 21
118.009347458
  0
LINE
  5
38D
100
AcDbEntity
  8
0
100
AcDbLine
 62
7
  6
CONTINUOUS
 10
141.9539980057
 20
80.0927182635
 11
141.9539980057
 21
81.6311494263
  0
LINE
  5
38E
100
AcDbEntity
  8
0
100
AcDbLine
 62
7
  6
CONTINUOUS
 10
141.9539980514
 20
120.5361309164
 11
141.9539980057
 21
122.1816056473
  0
LINE
  5
38F
100
AcDbEntity
  8
0
100
AcDbLine
 62
7
  6
CONTINUOUS
 10
142.3075513963
 20
119.9264075529
 11
142.3075513963
 21
118.2184846142
  0
LINE
  5
390
100
AcDbEntity
  8
0
100
AcDbLine
 62
7
  6
CONTINUOUS
 10
142.3075513963
 20
81.9943629673
 11
142.3075513963
 21
83.702285906
  0
LINE
  5
391
100
AcDbEntity
  8
0
100
AcDbLine
 62
253
  6
CONTINUOUS
 10
142.5122344162
 20
80.4364516535
 11
142.5122344162
 21
80.7763952484
  0
LINE
  5
392
100
AcDbEntity
  8
0
100
AcDbLine
 62
253
  6
CONTINUOUS
 10
142.5122344162
 20
122.0759993878
 11
142.5122344162
 21
122.4159429826
  0
LINE
  5
393
100
AcDbEntity
  8
0
100
AcDbLine
 62
7
  6
CONTINUOUS
 10
142.5683664562
 20
80.5059174906
 11
142.5683664562
 21
80.845861041
  0
LINE
  5
394
100
AcDbEntity
  8
0
100
AcDbLine
 62
7
  6
CONTINUOUS
 10
142.5683664562
 20
122.1454652248
 11
142.5683664562
 21
122.4854088196
  0
LINE
  5
395
100
AcDbEntity
  8
DRAFT
100
AcDbLine
 62
7
  6
CONTINUOUS
 10
142.8202038127
 20
117.2737171805
 11
142.8202038127
 21
116.7560261128
  0
LINE
  5
396
100
AcDbEntity
  8
0
100
AcDbLine
 62
7
  6
CONTINUOUS
 10
143.0023155827
 20
82.3692041849
 11
143.0023155827
 21
84.0317683205
  0
LINE
  5
397
100
AcDbEntity
  8
0
100
AcDbLine
 62
7
  6
CONTINUOUS
 10
143.0023155827
 20
118.6084515757
 11
143.0023155827
 21
120.2710157112
  0
LINE
  5
398
100
AcDbEntity
  8
0
100
AcDbLine
 62
7
  6
CONTINUOUS
 10
141.6147313246
 20
124.7768708093
 11
141.6219056969
 21
125.9475447314
  0
LINE
  5
399
100
AcDbEntity
  8
0
100
AcDbLine
 62
253
  6
CONTINUOUS
 10
141.5158909791
 20
125.8193378919
 11
141.5119879681
 21
125.4445166386
  0
LINE
  5
39A
100
AcDbEntity
  8
0
100
AcDbLine
 62
253
  6
CONTINUOUS
 10
141.5097055959
 20
125.2253315985
 11
141.5036532419
 21
124.6441006139
  0
LWPOLYLINE
  5
39B
100
AcDbEntity
  8
0
100
AcDbPolyline
 62
7
  6
CONTINUOUS
 90
3
 70
0
 10
142.3305816308
 20
125.7788462188
 10
142.3306775001
 20
125.7833404523
 10
142.3301064495
 20
125.7945065374
  0
LINE
  5
39C
100
AcDbEntity
  8
0
100
AcDbLine
 62
7
  6
CONTINUOUS
 10
142.5675110865
 20
122.1245599437
 11
142.5683668928
 21
122.1454778637
  0
LINE
  5
39D
100
AcDbEntity
  8
0
100
AcDbLine
 62
253
  6
CONTINUOUS
 10
142.0171955388
 20
125.6573569912
 11
142.0076313787
 21
125.4336937527
  0
LWPOLYLINE
  5
39E
100
AcDbEntity
  8
0
100
AcDbPolyline
 62
7
  6
CONTINUOUS
 90
9
 70
0
 10
141.6147851836
 20
124.7768701368
 10
141.6144113775
 20
124.7691183641
 10
141.6105226446
 20
124.7493196481
 10
141.6022384099
 20
124.7296377906
 10
141.5897252683
 20
124.7102152006
 10
141.5735531843
 20
124.6918685233
 10
141.5539121459
 20
124.6748699741
 10
141.5306121651
 20
124.6589473376
 10
141.5036532419
 20
124.6441006139
  0
LINE
  5
39F
100
AcDbEntity
  8
0
100
AcDbLine
 62
7
  6
CONTINUOUS
 10
142.2941439596
 20
125.717522963
 11
142.2928914814
 21
125.6954283469
  0
LWPOLYLINE
  5
3A0
100
AcDbEntity
  8
0
100
AcDbPolyline
 62
253
  6
CONTINUOUS
 90
8
 70
0
 10
140.3320978791
 20
79.343671037
 10
140.330582142
 20
79.3215280162
 10
140.3267160906
 20
79.3009940557
 10
140.3205658484
 20
79.2824203611
 10
140.3122366071
 20
79.2661246105
 10
140.3018708271
 20
79.2523855208
 10
140.2896458011
 20
79.2414380804
 10
140.277021947
 20
79.2340335035
  0
LWPOLYLINE
  5
3A1
100
AcDbEntity
  8
ASSI
100
AcDbPolyline
 62
7
  6
CONTINUOUS
 90
28
 70
0
 10
163.4146888147
 20
118.6633986735
 10
163.5213395197
 20
118.7217911035
 10
163.626236894
 20
118.7887151672
 10
163.7293809374
 20
118.8641708648
 10
163.8313267873
 20
118.9486736724
 10
163.9315193063
 20
119.0417081138
 10
164.0282930831
 20
119.14172776
 10
164.1215909743
 20
119.2488493665
 10
164.2114701232
 20
119.3629561778
 10
164.2964365485
 20
119.4821514973
 10
164.3764081353
 20
119.6065203782
 10
164.4514669983
 20
119.7359777673
 10
164.5203655007
 20
119.8683718092
 10
164.5830006737
 20
120.0037515893
 10
164.6394754861
 20
120.1420680222
 10
164.688851207
 20
120.2810219964
 10
164.7310091771
 20
120.4206241683
 10
164.7660680558
 20
120.5608638815
 10
164.7934450905
 20
120.6994100555
 10
164.8130118811
 20
120.8362343834
 10
164.8248968276
 20
120.971365172
 10
164.8289023771
 20
121.1025562622
 10
164.8248968276
 20
121.2297418029
 10
164.8130118811
 20
121.352987645
 10
164.7934450905
 20
121.4702451823
 10
164.7660680558
 20
121.5814143217
 10
164.7310091771
 20
121.6865951561
 10
164.7300769742
 20
121.688749856
  0
LWPOLYLINE
  5
3A2
100
AcDbEntity
  8
RACCORDO
100
AcDbPolyline
 62
7
  6
CONTINUOUS
 90
30
 70
0
 10
168.085992129
 20
119.7890190968
 10
168.1046250717
 20
119.7989310239
 10
168.1227029065
 20
119.8090896145
 10
168.1402256334
 20
119.8194948686
 10
168.1572130526
 20
119.8301590507
 10
168.1736453639
 20
119.8410698963
 10
168.1894631665
 20
119.8521906123
 10
168.2046609012
 20
119.8635214843
 10
168.2192441272
 20
119.8750622267
 10
168.2331701214
 20
119.886775189
 10
168.246426377
 20
119.8986500527
 10
168.2590254008
 20
119.9106971364
 10
168.2709619906
 20
119.9229097455
 10
168.2822431047
 20
119.9352939362
 10
168.2928617847
 20
119.9478436523
 10
168.3027919531
 20
119.9605340309
 10
168.3120349787
 20
119.9733713213
 10
168.3205894927
 20
119.9863492741
 10
168.3284253107
 20
119.9994242784
 10
168.33553709
 20
120.0125951364
 10
168.3419301733
 20
120.0258630459
 10
168.3475904054
 20
120.0391879896
 10
168.3525130926
 20
120.0525573683
 10
168.3567029286
 20
120.0659837812
 10
168.3601598389
 20
120.0794650087
 10
168.3628871963
 20
120.0930119923
 10
168.3648816281
 20
120.1066137905
 10
168.3661329412
 20
120.1202353589
 10
168.3666374773
 20
120.1338803318
 10
168.3666493515
 20
120.1363441339
  0
LWPOLYLINE
  5
3A3
100
AcDbEntity
  8
SMUSSO
100
AcDbPolyline
 62
7
  6
CONTINUOUS
 90
91
 70
0
 10
151.5836978212
 20
112.1759890028
 10
151.5765115483
 20
112.1722394139
 10
151.5693324302
 20
112.1685834249
 10
151.5621604668
 20
112.1650210357
 10
151.5549956605
 20
112.1615524165
 10
151.547838009
 20
112.158177397
 10
151.5406875054
 20
112.1548954672
 10
151.5335442491
 20
112.1517065826
 10
151.5264081408
 20
112.1486107875
 10
151.5192788759
 20
112.1456077042
 10
151.5121572812
 20
112.1426975161
 10
151.5050425299
 20
112.1398800397
 10
151.4979318363
 20
112.1371543475
 10
151.4908224613
 20
112.1345193912
 10
151.4837171441
 20
112.1319762191
 10
151.4766213166
 20
112.1295270484
 10
151.469534409
 20
112.1271719254
 10
151.4624569911
 20
112.1249108039
 10
151.4553962045
 20
112.1227457621
 10
151.4483552189
 20
112.1206777929
 10
151.4413308646
 20
112.1187059035
 10
151.4343207742
 20
112.116829194
 10
151.4273234047
 20
112.1150471765
 10
151.420340299
 20
112.1133603389
 10
151.4133737182
 20
112.1117692444
 10
151.4064230567
 20
112.1102738437
 10
151.3994889201
 20
112.1088741861
 10
151.3925753858
 20
112.1075709836
 10
151.3856848467
 20
112.1063646124
 10
151.3788149099
 20
112.1052546963
 10
151.3719624741
 20
112.104240818
 10
151.3651247758
 20
112.1033225589
 10
151.3583045785
 20
112.1025003377
 10
151.3515070718
 20
112.1017749938
 10
151.3447318091
 20
112.1011467242
 10
151.3379792369
 20
112.100615332
 10
151.3312558845
 20
112.1001810656
 10
151.3245648086
 20
112.0998441273
 10
151.3179029524
 20
112.099604315
 10
151.3112676744
 20
112.0994612709
 10
151.3046572943
 20
112.0994148793
 10
151.2980734924
 20
112.099465256
 10
151.2915186676
 20
112.0996123904
 10
151.2849926102
 20
112.0998563633
 10
151.2784955299
 20
112.1001970939
 10
151.2720304548
 20
112.1006343295
 10
151.2655993569
 20
112.1011678341
 10
151.2592002643
 20
112.1017978436
 10
151.2528302887
 20
112.1025248133
 10
151.2464865251
 20
112.1033490971
 10
151.2401718785
 20
112.1042703411
 10
151.2338921756
 20
112.1052879385
 10
151.2276474171
 20
112.1064021783
 10
151.2214376023
 20
112.1076127716
 10
151.2152685564
 20
112.1089182443
 10
151.2091431487
 20
112.1103179789
 10
151.2030585099
 20
112.111812593
 10
151.1970118575
 20
112.113402466
 10
151.1910014492
 20
112.1150879691
 10
151.1850290273
 20
112.1168687312
 10
151.1790970355
 20
112.1187440177
 10
151.1732055691
 20
112.1207138689
 10
151.1673545327
 20
112.1227782445
 10
151.1615460837
 20
112.1249362885
 10
151.1557817017
 20
112.127187329
 10
151.1500599071
 20
112.1295320379
 10
151.1443784172
 20
112.1319715748
 10
151.1387346066
 20
112.134507119
 10
151.1331311008
 20
112.1371374912
 10
151.1275734936
 20
112.1398603129
 10
151.1220621658
 20
112.1426757101
 10
151.1165967365
 20
112.1455835567
 10
151.1111816571
 20
112.148581097
 10
151.1058192756
 20
112.1516669874
 10
151.1005072439
 20
112.1548425713
 10
151.095242969
 20
112.158109123
 10
151.0900246807
 20
112.1614676657
 10
151.0848541493
 20
112.1649171762
 10
151.0797340931
 20
112.168455859
 10
151.0746648572
 20
112.1720835759
 10
151.0696460965
 20
112.1758004652
 10
151.0646794935
 20
112.1796051466
 10
151.0597661593
 20
112.1834966356
 10
151.0549049827
 20
112.1874759167
 10
151.0500943133
 20
112.1915445631
 10
151.0453320593
 20
112.1957044139
 10
151.0406203123
 20
112.1999536299
 10
151.0359636972
 20
112.2042882683
 10
151.0313628286
 20
112.2087080656
 10
151.0268170918
 20
112.2132132852
 10
151.0246339868
 20
112.2154272238
  0
LINE
  5
3A4
100
AcDbEntity
  8
RACCORDO
100
AcDbLine
 62
7
  6
CONTINUOUS
 10
168.085992129
 20
119.7890190968
 11
164.0789727502
 21
117.7143240794
  0
LINE
  5
3A5
100
AcDbEntity
  8
DRAFT
100
AcDbLine
 62
7
  6
CONTINUOUS
 10
167.0024942185
 20
119.9648739465
 11
163.3225804611
 21
118.092520224
  0
LINE
  5
3A6
100
AcDbEntity
  8
SMUSSO
100
AcDbLine
 62
7
  6
CONTINUOUS
 10
162.8656977538
 20
117.894689152
 11
151.5836978212
 21
112.1759890028
  0
LINE
  5
3A7
100
AcDbEntity
  8
0
100
AcDbLine
 62
7
  6
CONTINUOUS
 10
166.9148673816
 20
120.008687365
 11
167.9755275534
 21
120.5390174509
  0
LINE
  5
3A8
100
AcDbEntity
  8
0
100
AcDbLine
 62
7
  6
CONTINUOUS
 10
162.8509021292
 20
117.9484926288
 11
165.1824557677
 21
119.114269448
  0
LWPOLYLINE
  5
3A9
100
AcDbEntity
  8
0
100
AcDbPolyline
 62
7
  6
CONTINUOUS
 90
9
 70
0
 10
126.4944309627
 20
127.7489805936
 10
126.5145165454
 20
127.7170602151
 10
126.5362811149
 20
127.6861679973
 10
126.5598037458
 20
127.6566338948
 10
126.5852873901
 20
127.6288208311
 10
126.6125721058
 20
127.6030197866
 10
126.6412731552
 20
127.5796076309
 10
126.671342508
 20
127.5591306769
 10
126.6943753236
 20
127.5462799353
  0
LINE
  5
3AA
100
AcDbEntity
  8
RACCORDO
100
AcDbLine
 62
7
  6
CONTINUOUS
 10
143.7571202977
 20
116.953954676
 11
143.7571202977
 21
116.2875678703
  0
LINE
  5
3AB
100
AcDbEntity
  8
RACCORDO
100
AcDbLine
 62
7
  6
CONTINUOUS
 10
143.7571202977
 20
87.0103566242
 11
143.7571202977
 21
86.3456740675
  0
LINE
  5
3AC
100
AcDbEntity
  8
0
100
AcDbLine
 62
7
  6
CONTINUOUS
 10
143.7587974441
 20
116.2867292971
 11
143.7587974441
 21
87.0112223
  0
LWPOLYLINE
  5
3AD
100
AcDbEntity
  8
0
100
AcDbPolyline
 62
253
  6
CONTINUOUS
 90
8
 70
0
 10
142.4781024723
 20
80.375484647
 10
142.4771885169
 20
80.3536425341
 10
142.4738295296
 20
80.3333621152
 10
142.46808296
 20
80.3149902597
 10
142.4600470947
 20
80.2988411942
 10
142.449859375
 20
80.2851911272
 10
142.4376940465
 20
80.2742735252
 10
142.429199278
 20
80.2689343108
  0
LINE
  5
3AE
100
AcDbEntity
  8
0
100
AcDbLine
 62
7
  6
CONTINUOUS
 10
142.5672425879
 20
80.4819267226
 11
142.5683659707
 21
80.5059439612
  0
LINE
  5
3AF
100
AcDbEntity
  8
0
100
AcDbLine
 62
7
  6
CONTINUOUS
 10
141.9023724265
 20
84.9426568422
 11
141.7772213104
 21
84.2107867583
  0
LWPOLYLINE
  5
3B0
100
AcDbEntity
  8
0
100
AcDbPolyline
 62
7
  6
CONTINUOUS
 90
10
 70
0
 10
168.085992129
 20
117.2342441556
 10
168.1437474294
 20
117.266990686
 10
168.1950360809
 20
117.3015417926
 10
168.2398580835
 20
117.3378974753
 10
168.2784495935
 20
117.3763536994
 10
168.3105744546
 20
117.4166144996
 10
168.3355241979
 20
117.4577919802
 10
168.3531394143
 20
117.499906507
 10
168.3635795129
 20
117.5429377142
 10
168.3666505562
 20
117.5816171743
  0
LINE
  5
3B1
100
AcDbEntity
  8
RACCORDO
100
AcDbLine
 62
7
  6
CONTINUOUS
 10
168.085992129
 20
117.4855137787
 11
167.7264847289
 21
117.2954626288
  0
LINE
  5
3B2
100
AcDbEntity
  8
0
100
AcDbLine
 62
7
  6
CONTINUOUS
 10
167.7264847289
 20
117.0481037502
 11
168.085992129
 21
117.2342441556
  0
LINE
  5
3B3
100
AcDbEntity
  8
DRAFT
100
AcDbLine
 62
7
  6
CONTINUOUS
 10
148.9678516958
 20
106.729319392
 11
167.7264847289
 21
116.4418859675
  0
LINE
  5
3B4
100
AcDbEntity
  8
0
100
AcDbLine
 62
7
  6
CONTINUOUS
 10
149.0373281145
 20
106.7219905906
 11
167.7264847289
 21
116.3985846973
  0
LINE
  5
3B5
100
AcDbEntity
  8
0
100
AcDbLine
 62
7
  6
CONTINUOUS
 10
148.6294673068
 20
124.4602165102
 11
148.6294673068
 21
124.6512385739
  0
LINE
  5
3B6
100
AcDbEntity
  8
0
100
AcDbLine
 62
7
  6
CONTINUOUS
 10
149.0373281145
 20
106.7219905906
 11
148.9947826707
 21
106.7432633125
  0
LINE
  5
3B7
100
AcDbEntity
  8
0
100
AcDbLine
 62
7
  6
CONTINUOUS
 10
167.7264847289
 20
98.9481728111
 11
167.7168752241
 21
98.9529775635
  0
LWPOLYLINE
  5
3B8
100
AcDbEntity
  8
0
100
AcDbPolyline
 62
7
  6
CONTINUOUS
 90
4
 70
0
 10
125.3749690329
 20
128.2177317757
 10
125.3937183658
 20
128.2013547509
 10
125.4141796551
 20
128.187227851
 10
125.4303469249
 20
128.1782919642
  0
LWPOLYLINE
  5
3B9
100
AcDbEntity
  8
0
100
AcDbPolyline
 62
253
  6
CONTINUOUS
 90
11
 70
0
 10
133.3788531515
 20
125.6704945725
 10
133.3770734566
 20
125.6727786907
 10
133.375227341
 20
125.6749622689
 10
133.3733156738
 20
125.6770463898
 10
133.3713594461
 20
125.6790078209
 10
133.3693581222
 20
125.6808450572
 10
133.3673122377
 20
125.6825596037
 10
133.3652443913
 20
125.6841327426
 10
133.3631621156
 20
125.6855582346
 10
133.3610578779
 20
125.686842319
 10
133.3589316782
 20
125.6879849957
  0
LWPOLYLINE
  5
3BA
100
AcDbEntity
  8
0
100
AcDbPolyline
 62
7
  6
CONTINUOUS
 90
5
 70
0
 10
142.3301064495
 20
125.7945065374
 10
142.328393551
 20
125.8025796191
 10
142.3257249837
 20
125.8075357366
 10
142.3223606668
 20
125.8093456487
 10
142.3199985138
 20
125.8088436799
  0
LWPOLYLINE
  5
3BB
100
AcDbEntity
  8
ASSI
100
AcDbPolyline
 62
7
  6
CONTINUOUS
 90
55
 70
0
 10
150.3580149643
 20
99.005349808
 10
150.3652643523
 20
98.7052895997
 10
150.3863711953
 20
98.4154505212
 10
150.4213354936
 20
98.1358325726
 10
150.4703688553
 20
97.8655607625
 10
150.5332596723
 20
97.6055100823
 10
150.609373119
 20
97.358305506
 10
150.6988431164
 20
97.124077141
 10
150.8015357437
 20
96.9026948799
 10
150.9164144125
 20
96.6963933745
 10
151.043602545
 20
96.505325365
 10
151.1829767191
 20
96.3293381111
 10
151.3331300798
 20
96.1702080433
 10
151.4941718003
 20
96.0281058941
 10
151.6659927075
 20
95.902860931
 10
151.8468584261
 20
95.7957373875
 10
152.0368605635
 20
95.7069188004
 10
152.2359075124
 20
95.636221633
 10
152.4419900757
 20
95.5843595085
 10
152.6551795112
 20
95.5515231913
 10
152.875404561
 20
95.5375219172
 10
153.1004422545
 20
95.542497016
 10
153.3303413349
 20
95.5666406838
 10
153.565053059
 20
95.6097607245
 10
153.8022082263
 20
95.6714218809
 10
154.0418315844
 20
95.7518119404
 10
154.2838983858
 20
95.8507431154
 10
154.5259651871
 20
95.9672167863
 10
154.7680319884
 20
96.1014106262
 10
155.0100987898
 20
96.2531469619
 10
155.2497221479
 20
96.4208941536
 10
155.4868773152
 20
96.6048143621
 10
155.7215890392
 20
96.8047454266
 10
155.9514881196
 20
97.0186692257
 10
156.1765258131
 20
97.2467274802
 10
156.396750863
 20
97.4887784693
 10
156.6099402985
 20
97.7423789095
 10
156.8160228617
 20
98.0076457754
 10
157.0150698106
 20
98.2844620923
 10
157.2050719481
 20
98.5700336524
 10
157.3859376667
 20
98.8644491302
 10
157.5577585738
 20
99.1676198512
 10
157.7188002944
 20
99.4764855839
 10
157.8689536551
 20
99.7911040083
 10
158.0083278292
 20
100.1114174445
 10
158.1355159617
 20
100.4341926208
 10
158.2503946305
 20
100.7594544702
 10
158.3530872577
 20
101.0871780597
 10
158.4425572552
 20
101.4140553193
 10
158.5186707019
 20
101.7400776769
 10
158.5815615188
 20
102.0652537046
 10
158.6305948806
 20
102.3863010472
 10
158.6655591788
 20
102.7021255864
 10
158.6866660219
 20
103.0138214407
 10
158.6939154098
 20
103.32138861
  0
LINE
  5
3BC
100
AcDbEntity
  8
DRAFT
100
AcDbLine
 62
7
  6
CONTINUOUS
 10
148.9678516958
 20
89.8418240182
 11
148.9678516958
 21
106.729319392
  0
LINE
  5
3BD
100
AcDbEntity
  8
0
100
AcDbLine
 62
7
  6
CONTINUOUS
 10
149.0373281145
 20
89.9210977572
 11
149.0373281145
 21
106.7219905906
  0
LWPOLYLINE
  5
3BE
100
AcDbEntity
  8
0
100
AcDbPolyline
 62
253
  6
CONTINUOUS
 90
7
 70
0
 10
142.4948653116
 20
80.8049021312
 10
142.502664115
 20
80.8296295335
 10
142.5078965702
 20
80.8551139534
 10
142.5104741391
 20
80.8809241698
 10
142.5103532067
 20
80.9066234489
 10
142.5075358192
 20
80.9317769341
 10
142.5020696496
 20
80.9559590042
  0
LWPOLYLINE
  5
3BF
100
AcDbEntity
  8
0
100
AcDbPolyline
 62
7
  6
CONTINUOUS
 90
4
 70
0
 10
141.9432362494
 20
80.0318249658
 10
141.9491851588
 20
80.0503058218
 10
141.9527943888
 20
80.0707206895
 10
141.9539980057
 20
80.0927182635
  0
LWPOLYLINE
  5
3C0
100
AcDbEntity
  8
0
100
AcDbPolyline
 62
253
  6
CONTINUOUS
 90
9
 70
0
 10
135.9606189897
 20
116.341703368
 10
135.4518179841
 20
116.5642506816
 10
134.9452006879
 20
116.7878503359
 10
134.4407736079
 20
117.0124971262
 10
133.93866136
 20
117.2381325336
 10
133.4387512685
 20
117.4648041586
 10
132.940697898
 20
117.692668186
 10
132.4443501003
 20
117.9217963092
 10
131.9498808644
 20
118.1521113347
  0
LWPOLYLINE
  5
3C1
100
AcDbEntity
  8
0
100
AcDbPolyline
 62
253
  6
CONTINUOUS
 90
23
 70
0
 10
131.9498808644
 20
118.1521113347
 10
131.4574333858
 20
118.3835474388
 10
130.967049694
 20
118.6160847313
 10
130.4787046745
 20
118.8497349414
 10
129.9924387416
 20
119.084478586
 10
129.5081936507
 20
119.3203439545
 10
129.0260444634
 20
119.5572945609
 10
128.5462281593
 20
119.7952120426
 10
128.0690559833
 20
120.0339367221
 10
127.5942239121
 20
120.2736153489
 10
127.1210519644
 20
120.514592142
 10
126.650442678
 20
120.7564059578
 10
126.1815128851
 20
120.9995110892
 10
125.7109581895
 20
121.2456510743
 10
125.239624849
 20
121.4944266784
 10
124.7667788589
 20
121.7462739548
 10
124.286871615
 20
122.0042487261
 10
123.799887956
 20
122.2684931882
 10
123.3061369526
 20
122.5389831903
 10
122.8007201256
 20
122.8185995825
 10
122.2822011694
 20
123.1083842516
 10
121.7525191635
 20
123.407500138
 10
121.2119291828
 20
123.7160482695
  0
LINE
  5
3C2
100
AcDbEntity
  8
DRAFT
100
AcDbLine
 62
7
  6
CONTINUOUS
 10
167.7264847289
 20
99.5543905937
 11
167.6839392852
 21
99.5756633156
  0
LWPOLYLINE
  5
3C3
100
AcDbEntity
  8
0
100
AcDbPolyline
 62
253
  6
CONTINUOUS
 90
10
 70
0
 10
122.0277899062
 20
125.106058437
 10
123.5645915518
 20
124.232869124
 10
125.1264083474
 20
123.3733666852
 10
126.713240293
 20
122.5275511207
 10
128.3253016256
 20
121.6953117464
 10
129.9623781081
 20
120.8767592464
 10
131.6238270298
 20
120.0722256727
 10
133.3094341537
 20
119.2818217093
 10
135.0194137167
 20
118.5054366722
 10
136.7537657189
 20
117.7430705615
  0
LINE
  5
3C4
100
AcDbEntity
  8
DRAFT
100
AcDbLine
 62
7
  6
CONTINUOUS
 10
142.3595132978
 20
118.2476505172
 11
142.7166504221
 21
117.6316800937
  0
LINE
  5
3C5
100
AcDbEntity
  8
RACCORDO
100
AcDbLine
 62
7
  6
CONTINUOUS
 10
143.0023155827
 20
118.9731299029
 11
143.3429698221
 21
118.3855882506
  0
LWPOLYLINE
  5
3C6
100
AcDbEntity
  8
DRAFT
100
AcDbPolyline
 62
7
  6
CONTINUOUS
 90
25
 70
0
 10
142.7166504221
 20
117.6316800937
 10
142.7247096925
 20
117.6174491151
 10
142.732476515
 20
117.6030704143
 10
142.7399508895
 20
117.5885439912
 10
142.7471401883
 20
117.5738539851
 10
142.754037039
 20
117.5590162567
 10
142.7606193249
 20
117.5440783879
 10
142.7668860358
 20
117.5290400581
 10
142.7728381817
 20
117.5139015879
 10
142.7784566762
 20
117.4987115214
 10
142.7837404485
 20
117.483469692
 10
142.7886905694
 20
117.4681762663
 10
142.7932911646
 20
117.4528802877
 10
142.797541112
 20
117.4375817485
 10
142.8014415338
 20
117.4222806564
 10
142.8049799225
 20
117.4070260773
 10
142.8081551162
 20
117.3918181603
 10
142.8109682767
 20
117.3766567564
 10
142.8134103832
 20
117.3615904841
 10
142.8154802443
 20
117.3466196486
 10
142.8171790513
 20
117.3317439448
 10
142.8185013564
 20
117.3170110757
 10
142.8194453437
 20
117.3024369425
 10
142.8200128291
 20
117.2880056441
 10
142.8202038127
 20
117.2737171805
  0
LWPOLYLINE
  5
3C7
100
AcDbEntity
  8
0
100
AcDbPolyline
 62
253
  6
CONTINUOUS
 90
7
 70
0
 10
142.4948653116
 20
122.0295062706
 10
142.5026638756
 20
122.0152910933
 10
142.5078962998
 20
122.0024917125
 10
142.5104740052
 20
121.9913247201
 10
142.5103533299
 20
121.9819790996
 10
142.5075362705
 20
121.9746130082
 10
142.5065527515
 20
121.9732640429
  0
LWPOLYLINE
  5
3C8
100
AcDbEntity
  8
0
100
AcDbPolyline
 62
7
  6
CONTINUOUS
 90
16
 70
0
 10
141.4264943267
 20
125.6757022434
 10
141.4499326736
 20
125.6305364937
 10
141.4701543612
 20
125.5850896736
 10
141.4871593892
 20
125.539361783
 10
141.5010501723
 20
125.4929225596
 10
141.511724296
 20
125.4462022658
 10
141.5188745166
 20
125.4004916883
 10
141.5223984196
 20
125.3557195992
 10
141.5223984196
 20
125.3119572263
 10
141.5188745166
 20
125.2707090403
 10
141.511724296
 20
125.2321486834
 10
141.5010501723
 20
125.1961025132
 10
141.4871593892
 20
125.163554073
 10
141.4701543612
 20
125.1348312104
 10
141.4499326736
 20
125.1096060778
 10
141.4264943267
 20
125.0878786751
  0
LWPOLYLINE
  5
3C9
100
AcDbEntity
  8
0
100
AcDbPolyline
 62
253
  6
CONTINUOUS
 90
7
 70
0
 10
122.0015730784
 20
125.1173685348
 10
122.0059297835
 20
125.1156405942
 10
122.0102924445
 20
125.1138494694
 10
122.0146604249
 20
125.1119954189
 10
122.0190330874
 20
125.1100787105
 10
122.023409794
 20
125.1080996211
 10
122.0277899061
 20
125.106058437
  0
LINE
  5
3CA
100
AcDbEntity
  8
0
100
AcDbLine
 62
7
  6
CONTINUOUS
 10
137.9634347114
 20
118.3926997756
 11
123.1757229458
 21
125.7865556584
  0
LINE
  5
3CB
100
AcDbEntity
  8
0
100
AcDbLine
 62
7
  6
CONTINUOUS
 10
141.9708371021
 20
116.5038449604
 11
141.8523375922
 21
116.5630947153
  0
LINE
  5
3CC
100
AcDbEntity
  8
0
100
AcDbLine
 62
7
  6
CONTINUOUS
 10
143.7587974441
 20
116.2867292971
 11
142.696460126
 21
116.8178979562
  0
LWPOLYLINE
  5
3CD
100
AcDbEntity
  8
0
100
AcDbPolyline
 62
253
  6
CONTINUOUS
 90
7
 70
0
 10
125.3653981583
 20
128.3134969958
 10
125.348326095
 20
128.3232162074
 10
125.3339060532
 20
128.3339559703
 10
125.322379319
 20
128.3455365792
 10
125.3139387655
 20
128.3577642595
 10
125.3087256259
 20
128.3704344092
 10
125.3068195237
 20
128.3841773979
  0
LINE
  5
3CE
100
AcDbEntity
  8
SMUSSO
100
AcDbLine
 62
253
  6
CONTINUOUS
 10
150.8677646356
 20
112.7549023104
 11
151.5836978212
 21
112.1759890028
  0
LWPOLYLINE
  5
3CF
100
AcDbEntity
  8
0
100
AcDbPolyline
 62
7
  6
CONTINUOUS
 90
4
 70
0
 10
137.961469738
 20
121.9244814232
 10
137.9802190709
 20
121.9081043983
 10
138.0006803602
 20
121.8939774984
 10
138.01684763
 20
121.8850416117
  0
LWPOLYLINE
  5
3D0
100
AcDbEntity
  8
SMUSSO
100
AcDbPolyline
 62
7
  6
CONTINUOUS
 90
200
 70
0
 10
151.0246339868
 20
112.2154272238
 10
151.0223292671
 20
112.2178007733
 10
151.0179009399
 20
112.2224688151
 10
151.0135305247
 20
112.2272191254
 10
151.0092160458
 20
112.2320536955
 10
151.0049558511
 20
112.2369743497
 10
151.0007515927
 20
112.2419792636
 10
150.9966062506
 20
112.2470649555
 10
150.9925203571
 20
112.2522309535
 10
150.9884933799
 20
112.2574777296
 10
150.9845267021
 20
112.2628032176
 10
150.9806211779
 20
112.2682061237
 10
150.9767759531
 20
112.2736877416
 10
150.9729898477
 20
112.2792498869
 10
150.9692613953
 20
112.2848947765
 10
150.9655920623
 20
112.2906201934
 10
150.9619850681
 20
112.2964213013
 10
150.9584410761
 20
112.3022972982
 10
150.9549594229
 20
112.308248986
 10
150.9515413369
 20
112.314273934
 10
150.9481875717
 20
112.3203706469
 10
150.9448973738
 20
112.3265406199
 10
150.9416697108
 20
112.3327859083
 10
150.9385032698
 20
112.3391091514
 10
150.9353993637
 20
112.3455077099
 10
150.9323608992
 20
112.3519757209
 10
150.9293885114
 20
112.3585121799
 10
150.9264815652
 20
112.3651180916
 10
150.9236410616
 20
112.3717906064
 10
150.9208676235
 20
112.3785280743
 10
150.918160628
 20
112.3853321455
 10
150.9155192068
 20
112.3922049212
 10
150.9129424555
 20
112.3991487765
 10
150.9104312785
 20
112.4061613363
 10
150.9079875211
 20
112.413237577
 10
150.9056117165
 20
112.4203761332
 10
150.9033033314
 20
112.4275783703
 10
150.9010626116
 20
112.434843361
 10
150.898889688
 20
112.4421704035
 10
150.8967844295
 20
112.4495601997
 10
150.8947466886
 20
112.4570139273
 10
150.8927757057
 20
112.464534744
 10
150.8908722403
 20
112.4721194922
 10
150.8890384229
 20
112.4797598772
 10
150.8872748317
 20
112.487454152
 10
150.8855808885
 20
112.4952040636
 10
150.8839569896
 20
112.5030065583
 10
150.8824034344
 20
112.5108598632
 10
150.8809199234
 20
112.5187657511
 10
150.8795059545
 20
112.5267264862
 10
150.8781610864
 20
112.5347445246
 10
150.8768857604
 20
112.5428174101
 10
150.8756807983
 20
112.5509400382
 10
150.8745464923
 20
112.5591104897
 10
150.8734825503
 20
112.5673306838
 10
150.8724889177
 20
112.5756012741
 10
150.8715654845
 20
112.583922598
 10
150.8707123607
 20
112.5922943181
 10
150.8699298222
 20
112.6007160759
 10
150.8692177008
 20
112.6091911271
 10
150.8685761647
 20
112.6177162161
 10
150.8680059935
 20
112.6262812177
 10
150.8675074955
 20
112.6348835216
 10
150.8670803624
 20
112.6435257381
 10
150.8667244491
 20
112.6522055737
 10
150.8664397455
 20
112.6609216342
 10
150.8662262617
 20
112.6696753138
 10
150.8660838823
 20
112.6784685011
 10
150.8660125689
 20
112.6873036181
 10
150.86601236
 20
112.6961782428
 10
150.8660832557
 20
112.705086998
 10
150.8662252179
 20
112.7140274231
 10
150.8664382847
 20
112.7230019787
 10
150.8667225712
 20
112.732012669
 10
150.8670780674
 20
112.7410608745
 10
150.8675047833
 20
112.7501452148
 10
150.8680028647
 20
112.7592635525
 10
150.8685726197
 20
112.7684188202
 10
150.8692137402
 20
112.7776080853
 10
150.8699254468
 20
112.7868204121
 10
150.870707572
 20
112.7960523729
 10
150.8715602834
 20
112.8053073953
 10
150.8724833041
 20
112.8145848261
 10
150.8734765234
 20
112.8238842083
 10
150.874540052
 20
112.833205999
 10
150.875673945
 20
112.8425509161
 10
150.8768784944
 20
112.8519211828
 10
150.8781534082
 20
112.861314576
 10
150.8794978655
 20
112.8707251446
 10
150.8809114253
 20
112.8801499768
 10
150.8823945286
 20
112.8895919845
 10
150.8839476776
 20
112.899053951
 10
150.8855711714
 20
112.9085379584
 10
150.887264711
 20
112.9180419248
 10
150.8890279008
 20
112.9275623878
 10
150.8908613195
 20
112.9371016961
 10
150.8927643884
 20
112.9466575011
 10
150.894734976
 20
112.9562192941
 10
150.8967723233
 20
112.9657831317
 10
150.8988771892
 20
112.9753529573
 10
150.9010497191
 20
112.9849300927
 10
150.9032900422
 20
112.9945153689
 10
150.9055980293
 20
113.004107955
 10
150.9079734369
 20
113.0137066801
 10
150.9104167983
 20
113.0233134633
 10
150.9129275802
 20
113.0329263856
 10
150.9155039394
 20
113.0425385183
 10
150.918144972
 20
113.0521465519
 10
150.9208515819
 20
113.0617537961
 10
150.9236246372
 20
113.0713632507
 10
150.9264647611
 20
113.0809772111
 10
150.9293713305
 20
113.090593382
 10
150.9323433449
 20
113.1002078772
 10
150.9353814403
 20
113.1098223618
 10
150.9384849806
 20
113.1194351707
 10
150.9416510571
 20
113.1290374232
 10
150.9448783566
 20
113.1386251194
 10
150.9481681923
 20
113.1482022591
 10
150.9515215941
 20
113.1577719616
 10
150.9549393139
 20
113.167336498
 10
150.9584205999
 20
113.1768935971
 10
150.9619642267
 20
113.1864395648
 10
150.9655708585
 20
113.1959758926
 10
150.9692398311
 20
113.205501089
 10
150.9729679261
 20
113.2150069853
 10
150.9767536779
 20
113.2244898476
 10
150.980598552
 20
113.2339534099
 10
150.9845037269
 20
113.2434007058
 10
150.9884700557
 20
113.2528339114
 10
150.9924966854
 20
113.2622508507
 10
150.9965822347
 20
113.2716480297
 10
151.0007272369
 20
113.2810264733
 10
151.0049311588
 20
113.2903851567
 10
151.0091910204
 20
113.2997175113
 10
151.0135051697
 20
113.3090200017
 10
151.0178752588
 20
113.3182961633
 10
151.0223032636
 20
113.3275500337
 10
151.0267907694
 20
113.3367849697
 10
151.0313361909
 20
113.3459976145
 10
151.0359367482
 20
113.3551819353
 10
151.0405930577
 20
113.3643388349
 10
151.0453045031
 20
113.3734674106
 10
151.0500664554
 20
113.3825589216
 10
151.0548768227
 20
113.3916093619
 10
151.0597376971
 20
113.4006227376
 10
151.0646507257
 20
113.4096023262
 10
151.069617016
 20
113.4185502569
 10
151.0746354605
 20
113.4274644006
 10
151.0797043836
 20
113.4363416471
 10
151.0848241309
 20
113.445182494
 10
151.0899943566
 20
113.4539864437
 10
151.095212348
 20
113.4627488942
 10
151.1004763357
 20
113.4714669909
 10
151.105788089
 20
113.4801435883
 10
151.111150203
 20
113.4887826482
 10
151.1165650283
 20
113.4973879496
 10
151.1220302142
 20
113.5059557136
 10
151.1275413042
 20
113.5144785648
 10
151.1330986812
 20
113.5229567742
 10
151.1387019622
 20
113.5313900707
 10
151.1443455421
 20
113.5397702663
 10
151.1500267926
 20
113.548093458
 10
151.155748342
 20
113.5563635487
 10
151.1615124693
 20
113.564584059
 10
151.1673206489
 20
113.572757186
 10
151.1731714065
 20
113.5808807326
 10
151.179062598
 20
113.5889516279
 10
151.1849943197
 20
113.5969699324
 10
151.1909664754
 20
113.6049355857
 10
151.1969766319
 20
113.6128453357
 10
151.2030230504
 20
113.6206970115
 10
151.2091074699
 20
113.6284927841
 10
151.2152326741
 20
113.6362359143
 10
151.2214015359
 20
113.6439299955
 10
151.2276111824
 20
113.6515714344
 10
151.2338557798
 20
113.6591527124
 10
151.2401353331
 20
113.6666735455
 10
151.2464498371
 20
113.6741342176
 10
151.2527934427
 20
113.6815280624
 10
151.2591632424
 20
113.6888517132
 10
151.2655621435
 20
113.6961085367
 10
151.271993019
 20
113.7033019652
 10
151.27845781
 20
113.7104342448
 10
151.2849545753
 20
113.7175031296
 10
151.2914803636
 20
113.7245053138
 10
151.2980349645
 20
113.7314405032
 10
151.3046185884
 20
113.7383089921
 10
151.311228915
 20
113.745108357
 10
151.3178642931
 20
113.7518370048
 10
151.324526374
 20
113.7584965286
 10
151.3312177917
 20
113.765089284
 10
151.3379416236
 20
113.7716182523
 10
151.3446947924
 20
113.7780804521
 10
151.3514706997
 20
113.784469295
 10
151.3582688906
 20
113.7907841101
 10
151.3650898201
 20
113.7970255683
 10
151.3719282554
 20
113.8031890928
 10
151.378781406
 20
113.8092722162
 10
151.3856520624
 20
113.8152774059
 10
151.392543364
 20
113.8212074879
  0
LWPOLYLINE
  5
3D1
100
AcDbEntity
  8
SMUSSO
100
AcDbPolyline
 62
7
  6
CONTINUOUS
 90
28
 70
0
 10
151.392543364
 20
113.8212074879
 10
151.3994577473
 20
113.8270645998
 10
151.4063927759
 20
113.832846604
 10
151.4133442802
 20
113.8385499143
 10
151.4203116713
 20
113.8441739605
 10
151.427295538
 20
113.8497193128
 10
151.4342934776
 20
113.8551840952
 10
151.441303897
 20
113.8605671557
 10
151.4483283892
 20
113.8658696463
 10
151.4553693294
 20
113.8710931469
 10
151.4624297802
 20
113.8762398774
 10
151.469506679
 20
113.8813076179
 10
151.476593213
 20
113.886291289
 10
151.4836888427
 20
113.89119029
 10
151.4907941076
 20
113.8960052217
 10
151.4979038131
 20
113.9007328071
 10
151.5050153388
 20
113.9053713389
 10
151.512131305
 20
113.9099225244
 10
151.5192543787
 20
113.9143882083
 10
151.5263853512
 20
113.9187690384
 10
151.5335234311
 20
113.9230643671
 10
151.5406689115
 20
113.9272740961
 10
151.5478218885
 20
113.9313983706
 10
151.554982266
 20
113.9354370454
 10
151.5621500476
 20
113.9393895875
 10
151.5693252347
 20
113.9432558191
 10
151.5765078259
 20
113.9470359179
 10
151.5836978212
 20
113.9507298839
  0
LINE
  5
3D2
100
AcDbEntity
  8
0
100
AcDbLine
 62
7
  6
CONTINUOUS
 10
154.4697880327
 20
119.8715208329
 11
154.4697880327
 21
119.1673024566
  0
LINE
  5
3D3
100
AcDbEntity
  8
0
100
AcDbLine
 62
7
  6
CONTINUOUS
 10
155.6718695607
 20
120.5069930835
 11
155.6718695607
 21
119.5749050967
  0
LINE
  5
3D4
100
AcDbEntity
  8
RACCORDO
100
AcDbLine
 62
7
  6
CONTINUOUS
 10
156.5557530372
 20
134.4154980629
 11
156.5557530372
 21
134.2164156458
  0
LWPOLYLINE
  5
3D5
100
AcDbEntity
  8
0
100
AcDbPolyline
 62
253
  6
CONTINUOUS
 90
10
 70
0
 10
140.105045179
 20
79.919869319
 10
140.087834037
 20
79.897502051
 10
140.0720485383
 20
79.8734935183
 10
140.0579025047
 20
79.8481666908
 10
140.0455865862
 20
79.8218608096
 10
140.0352703227
 20
79.794932831
 10
140.0270980536
 20
79.7677530195
 10
140.0211813135
 20
79.7406912824
 10
140.0175990863
 20
79.7141118311
 10
140.0164001782
 20
79.6883744965
  0
LWPOLYLINE
  5
3D6
100
AcDbEntity
  8
0
100
AcDbPolyline
 62
253
  6
CONTINUOUS
 90
10
 70
0
 10
140.3147394508
 20
79.733353093
 10
140.3111829565
 20
79.7287909161
 10
140.3079947721
 20
79.7240321559
 10
140.3051748976
 20
79.7190768124
 10
140.3026950715
 20
79.713852588
 10
140.3005835553
 20
79.7084317802
 10
140.2989251332
 20
79.7030312823
 10
140.2977480668
 20
79.6977233919
 10
140.2970240945
 20
79.6924358114
 10
140.2967532164
 20
79.6871685406
  0
LINE
  5
3D7
100
AcDbEntity
  8
0
100
AcDbLine
 62
7
  6
CONTINUOUS
 10
139.4313729557
 20
80.4024154235
 11
139.6789018005
 21
80.6939599264
  0
LWPOLYLINE
  5
3D8
100
AcDbEntity
  8
0
100
AcDbPolyline
 62
253
  6
CONTINUOUS
 90
13
 70
0
 10
140.0164001861
 20
120.9879959819
 10
140.0358386082
 20
120.9794599507
 10
140.057318133
 20
120.97224993
 10
140.08047935
 20
120.9664865629
 10
140.1049347099
 20
120.962266286
 10
140.1302750088
 20
120.959659716
 10
140.1560762352
 20
120.9587104677
 10
140.1819066654
 20
120.9594344247
 10
140.2073340866
 20
120.9618194731
 10
140.2319330298
 20
120.9658257048
 10
140.2552918885
 20
120.9713860846
 10
140.2770198062
 20
120.9784075724
 10
140.2967532164
 20
120.98677268
  0
LWPOLYLINE
  5
3D9
100
AcDbEntity
  8
0
100
AcDbPolyline
 62
253
  6
CONTINUOUS
 90
13
 70
0
 10
140.0164001861
 20
121.3052647823
 10
140.0358386216
 20
121.2967287458
 10
140.0573181596
 20
121.2895187225
 10
140.0804793886
 20
121.283755355
 10
140.1049347584
 20
121.2795350796
 10
140.130275064
 20
121.2769285124
 10
140.1560762931
 20
121.2759792677
 10
140.1819067214
 20
121.2767032283
 10
140.2073341368
 20
121.2790882798
 10
140.2319330705
 20
121.2830945131
 10
140.2552919169
 20
121.2886548928
 10
140.2770198206
 20
121.2956763781
 10
140.2967532164
 20
121.3040414804
  0
LWPOLYLINE
  5
3DA
100
AcDbEntity
  8
0
100
AcDbPolyline
 62
253
  6
CONTINUOUS
 90
13
 70
0
 10
127.429899481
 20
127.2812463345
 10
127.4493379031
 20
127.2727103032
 10
127.4708174278
 20
127.2655002825
 10
127.4939786449
 20
127.2597369154
 10
127.5184340048
 20
127.2555166386
 10
127.5437743037
 20
127.2529100686
 10
127.5695755301
 20
127.2519608203
 10
127.5954059602
 20
127.2526847773
 10
127.6208333815
 20
127.2550698257
 10
127.6454323247
 20
127.2590760573
 10
127.6687911834
 20
127.2646364371
 10
127.6905191011
 20
127.271657925
 10
127.7102525113
 20
127.2800230326
  0
LWPOLYLINE
  5
3DB
100
AcDbEntity
  8
0
100
AcDbPolyline
 62
253
  6
CONTINUOUS
 90
13
 70
0
 10
127.429899481
 20
127.5985151349
 10
127.4493379165
 20
127.5899790984
 10
127.4708174545
 20
127.5827690751
 10
127.4939786835
 20
127.5770057076
 10
127.5184340533
 20
127.5727854322
 10
127.5437743589
 20
127.5701788649
 10
127.569575588
 20
127.5692296203
 10
127.5954060163
 20
127.5699535809
 10
127.6208334317
 20
127.5723386323
 10
127.6454323654
 20
127.5763448657
 10
127.6687912118
 20
127.5819052453
 10
127.6905191155
 20
127.5889267307
 10
127.7102525113
 20
127.5972918329
  0
LWPOLYLINE
  5
3DC
100
AcDbEntity
  8
0
100
AcDbPolyline
 62
7
  6
CONTINUOUS
 90
4
 70
0
 10
140.0815581744
 20
120.8526852577
 10
140.0877083105
 20
120.8497273417
 10
140.1108171148
 20
120.8406005139
 10
140.1342182169
 20
120.8342633753
  0
LWPOLYLINE
  5
3DD
100
AcDbEntity
  8
0
100
AcDbPolyline
 62
7
  6
CONTINUOUS
 90
4
 70
0
 10
127.4950574693
 20
127.1459356103
 10
127.5012076053
 20
127.1429776942
 10
127.5243164097
 20
127.1338508664
 10
127.5477175117
 20
127.1275137278
  0
LINE
  5
3DE
100
AcDbEntity
  8
0
100
AcDbLine
 62
7
  6
CONTINUOUS
 10
126.3008666766
 20
126.4814635412
 11
126.4944309627
 21
126.3846813982
  0
LINE
  5
3DF
100
AcDbEntity
  8
0
100
AcDbLine
 62
7
  6
CONTINUOUS
 10
138.8873673817
 20
120.1882131887
 11
139.0809316678
 21
120.0914310456
  0
LINE
  5
3E0
100
AcDbEntity
  8
0
100
AcDbLine
 62
7
  6
CONTINUOUS
 10
140.7011059671
 20
120.0338371454
 11
139.9740990184
 21
120.3973406197
  0
LINE
  5
3E1
100
AcDbEntity
  8
0
100
AcDbLine
 62
7
  6
CONTINUOUS
 10
138.814144077
 20
120.9773180904
 11
138.6814066447
 21
121.0436868066
  0
LINE
  5
3E2
100
AcDbEntity
  8
0
100
AcDbLine
 62
7
  6
CONTINUOUS
 10
128.114605262
 20
126.3270874979
 11
127.3875983133
 21
126.6905909723
  0
LINE
  5
3E3
100
AcDbEntity
  8
0
100
AcDbLine
 62
7
  6
CONTINUOUS
 10
126.2276433719
 20
127.270568443
 11
126.0949059396
 21
127.3369371591
  0
LINE
  5
3E4
100
AcDbEntity
  8
0
100
AcDbLine
 62
7
  6
CONTINUOUS
 10
125.4301446641
 20
128.178391941
 11
126.2260739385
 21
127.7804273038
  0
LINE
  5
3E5
100
AcDbEntity
  8
0
100
AcDbLine
 62
7
  6
CONTINUOUS
 10
126.6939475251
 20
127.5464905105
 11
127.4951002892
 21
127.1459141285
  0
LINE
  5
3E6
100
AcDbEntity
  8
0
100
AcDbLine
 62
7
  6
CONTINUOUS
 10
138.0166453692
 20
121.8851415885
 11
138.8125746436
 21
121.4871769513
  0
LINE
  5
3E7
100
AcDbEntity
  8
0
100
AcDbLine
 62
7
  6
CONTINUOUS
 10
139.2804482302
 20
121.253240158
 11
140.0816009944
 21
120.8526637759
  0
LINE
  5
3E8
100
AcDbEntity
  8
0
100
AcDbLine
 62
253
  6
CONTINUOUS
 10
126.4944309627
 20
127.7489805936
 11
127.429899481
 21
127.2812445249
  0
LINE
  5
3E9
100
AcDbEntity
  8
0
100
AcDbLine
 62
253
  6
CONTINUOUS
 10
139.0809316678
 20
121.4557302411
 11
140.0164001861
 21
120.9879941724
  0
LINE
  5
3EA
100
AcDbEntity
  8
0
100
AcDbLine
 62
253
  6
CONTINUOUS
 10
137.9518988634
 20
122.0202452385
 11
138.8873673817
 21
121.5525123841
  0
LINE
  5
3EB
100
AcDbEntity
  8
0
100
AcDbLine
 62
253
  6
CONTINUOUS
 10
125.3653981583
 20
128.313495591
 11
126.3008666766
 21
127.8457627367
  0
LINE
  5
3EC
100
AcDbEntity
  8
0
100
AcDbLine
 62
7
  6
CONTINUOUS
 10
131.1036332354
 20
125.5850667606
 11
133.3942816325
 21
124.4397425621
  0
LINE
  5
3ED
100
AcDbEntity
  8
0
100
AcDbLine
 62
7
  6
CONTINUOUS
 10
134.8159438366
 20
123.72891146
 11
137.1065922337
 21
122.5835872615
  0
LINE
  5
3EE
100
AcDbEntity
  8
0
100
AcDbLine
 62
253
  6
CONTINUOUS
 10
125.3653981583
 20
128.6307657962
 11
127.429899481
 21
127.5985151349
  0
LINE
  5
3EF
100
AcDbEntity
  8
0
100
AcDbLine
 62
253
  6
CONTINUOUS
 10
137.9518988634
 20
122.3375154437
 11
140.0164001861
 21
121.3052647823
  0
LINE
  5
3F0
100
AcDbEntity
  8
0
100
AcDbLine
 62
7
  6
CONTINUOUS
 10
137.9323124882
 20
122.5469737589
 11
137.6052913014
 21
122.7104843523
  0
LINE
  5
3F1
100
AcDbEntity
  8
0
100
AcDbLine
 62
7
  6
CONTINUOUS
 10
134.7573651928
 20
124.1344474066
 11
133.8929807002
 21
124.5666396529
  0
LINE
  5
3F2
100
AcDbEntity
  8
0
100
AcDbLine
 62
7
  6
CONTINUOUS
 10
131.0450545916
 20
125.9906027072
 11
129.3674973006
 21
126.8293813527
  0
LINE
  5
3F3
100
AcDbEntity
  8
0
100
AcDbLine
 62
253
  6
CONTINUOUS
 10
138.1249820219
 20
122.6411366792
 11
140.190698062
 21
121.6082807369
  0
LINE
  5
3F4
100
AcDbEntity
  8
0
100
AcDbLine
 62
253
  6
CONTINUOUS
 10
125.5384813168
 20
128.9343870318
 11
127.6041973569
 21
127.9015310895
  0
LINE
  5
3F5
100
AcDbEntity
  8
0
100
AcDbLine
 62
7
  6
CONTINUOUS
 10
129.3674973006
 20
127.5213716043
 11
130.0356330157
 21
127.1873037467
  0
LINE
  5
3F6
100
AcDbEntity
  8
0
100
AcDbLine
 62
7
  6
CONTINUOUS
 10
141.953998013
 20
121.228121248
 11
142.64881604
 21
120.8807122345
  0
LINE
  5
3F7
100
AcDbEntity
  8
0
100
AcDbLine
 62
7
  6
CONTINUOUS
 10
134.5750409305
 20
124.9183028123
 11
134.7573651928
 21
124.8271406811
  0
LINE
  5
3F8
100
AcDbEntity
  8
0
100
AcDbLine
 62
7
  6
CONTINUOUS
 10
134.5732415049
 20
125.0030274177
 11
134.7573651928
 21
124.9109655737
  0
LINE
  5
3F9
100
AcDbEntity
  8
0
100
AcDbLine
 62
253
  6
CONTINUOUS
 10
137.0712422794
 20
123.8318296951
 11
134.8512937909
 21
124.9418039394
  0
LINE
  5
3FA
100
AcDbEntity
  8
0
100
AcDbLine
 62
253
  6
CONTINUOUS
 10
133.3589316782
 20
125.6879849957
 11
131.1389831896
 21
126.79795924
  0
LINE
  5
3FB
100
AcDbEntity
  8
SMUSSO
100
AcDbLine
 62
253
  6
CONTINUOUS
 10
150.9180883987
 20
117.0479295423
 11
150.867106374
 21
117.0734205547
  0
LWPOLYLINE
  5
3FC
100
AcDbEntity
  8
0
100
AcDbPolyline
 62
253
  6
CONTINUOUS
 90
19
 70
0
 10
127.4950602217
 20
127.1459341737
 10
127.4935761046
 20
127.1466935588
 10
127.4874302788
 20
127.1502059295
 10
127.4814180195
 20
127.1542708311
 10
127.475569077
 20
127.158908943
 10
127.4699148132
 20
127.1641390526
 10
127.4645100229
 20
127.1699524071
 10
127.4593836352
 20
127.1763575665
 10
127.4545652774
 20
127.1833605886
 10
127.4501026023
 20
127.1909329839
 10
127.4460205531
 20
127.1990698641
 10
127.4423437377
 20
127.2077638826
 10
127.4391085476
 20
127.2169674163
 10
127.4363329406
 20
127.226662582
 10
127.4340337084
 20
127.236829692
 10
127.4322327865
 20
127.247404933
 10
127.4309402162
 20
127.2583457148
 10
127.4301605238
 20
127.2696358988
 10
127.4298994814
 20
127.2812445247
  0
LWPOLYLINE
  5
3FD
100
AcDbEntity
  8
0
100
AcDbPolyline
 62
253
  6
CONTINUOUS
 90
19
 70
0
 10
140.0815609268
 20
120.8526838212
 10
140.0800768098
 20
120.8534432063
 10
140.0739309839
 20
120.8569555769
 10
140.0679187246
 20
120.8610204785
 10
140.0620697821
 20
120.8656585904
 10
140.0564155183
 20
120.8708887
 10
140.051010728
 20
120.8767020545
 10
140.0458843403
 20
120.8831072139
 10
140.0410659825
 20
120.8901102361
 10
140.0366033074
 20
120.8976826314
 10
140.0325212582
 20
120.9058195116
 10
140.0288444429
 20
120.91451353
 10
140.0256092527
 20
120.9237170638
 10
140.0228336457
 20
120.9334122294
 10
140.0205344135
 20
120.9435793394
 10
140.0187334917
 20
120.9541545805
 10
140.0174409213
 20
120.9650953622
 10
140.016661229
 20
120.9763855462
 10
140.0164001865
 20
120.9879941722
  0
LWPOLYLINE
  5
3FE
100
AcDbEntity
  8
0
100
AcDbPolyline
 62
7
  6
CONTINUOUS
 90
9
 70
0
 10
139.2808760287
 20
121.2530295827
 10
139.2578432131
 20
121.2658803244
 10
139.2277738603
 20
121.2863572783
 10
139.199072811
 20
121.3097694341
 10
139.1717880953
 20
121.3355704785
 10
139.1463044509
 20
121.3633835422
 10
139.12278182
 20
121.3929176447
 10
139.1010172505
 20
121.4238098625
 10
139.0809316678
 20
121.4557302411
  0
LWPOLYLINE
  5
3FF
100
AcDbEntity
  8
0
100
AcDbPolyline
 62
253
  6
CONTINUOUS
 90
13
 70
0
 10
129.7502019501
 20
128.9786942884
 10
129.7689556868
 20
128.9681304286
 10
129.7873464471
 20
128.9547641499
 10
129.8050596814
 20
128.9388240665
 10
129.8217924293
 20
128.9205828136
 10
129.8372584994
 20
128.9003523853
 10
129.8511933648
 20
128.8784787997
 10
129.8633586892
 20
128.8553361775
 10
129.8735464037
 20
128.8313203419
 10
129.8815822638
 20
128.8068420498
 10
129.8873288287
 20
128.7823199683
 10
129.8906878129
 20
128.7581735143
 10
129.8916017671
 20
128.734815679
  0
LWPOLYLINE
  5
400
100
AcDbEntity
  8
0
100
AcDbPolyline
 62
253
  6
CONTINUOUS
 90
7
 70
0
 10
125.3653981583
 20
128.6307657962
 10
125.3483260957
 20
128.6404850073
 10
125.3339060543
 20
128.6512247697
 10
125.3223793202
 20
128.6628053782
 10
125.3139387665
 20
128.6750330581
 10
125.3087256264
 20
128.6877032076
 10
125.3068195233
 20
128.7014467105
  0
LWPOLYLINE
  5
401
100
AcDbEntity
  8
0
100
AcDbPolyline
 62
253
  6
CONTINUOUS
 90
7
 70
0
 10
137.9518988634
 20
122.0202466433
 10
137.9348268001
 20
122.0299658549
 10
137.9204067583
 20
122.0407056177
 10
137.9088800241
 20
122.0522862267
 10
137.9004394706
 20
122.064513907
 10
137.895226331
 20
122.0771840566
 10
137.8933202288
 20
122.0909270453
  0
LWPOLYLINE
  5
402
100
AcDbEntity
  8
0
100
AcDbPolyline
 62
253
  6
CONTINUOUS
 90
7
 70
0
 10
137.9518988634
 20
122.3375154437
 10
137.9348268008
 20
122.3472346547
 10
137.9204067594
 20
122.3579744171
 10
137.9088800253
 20
122.3695550256
 10
137.9004394716
 20
122.3817827056
 10
137.8952263315
 20
122.394452855
 10
137.8933202285
 20
122.408196358
  0
LWPOLYLINE
  5
403
100
AcDbEntity
  8
0
100
AcDbPolyline
 62
253
  6
CONTINUOUS
 90
7
 70
0
 10
131.1036332354
 20
126.772339542
 10
131.0865611728
 20
126.782058753
 10
131.0721411314
 20
126.7927985154
 10
131.0606143973
 20
126.8043791239
 10
131.0521738436
 20
126.8166068039
 10
131.0469607035
 20
126.8292769533
 10
131.0450545916
 20
126.8430502201
  0
LWPOLYLINE
  5
404
100
AcDbEntity
  8
0
100
AcDbPolyline
 62
253
  6
CONTINUOUS
 90
7
 70
0
 10
134.8159438366
 20
124.9161842413
 10
134.7988717741
 20
124.9259034524
 10
134.7844517327
 20
124.9366432148
 10
134.7729249985
 20
124.9482238233
 10
134.7644844448
 20
124.9604515033
 10
134.7592713048
 20
124.9731216527
 10
134.7573651928
 20
124.9868949194
  0
LWPOLYLINE
  5
405
100
AcDbEntity
  8
0
100
AcDbPolyline
 62
7
  6
CONTINUOUS
 90
16
 70
0
 10
141.9540006674
 20
120.5361322244
 10
141.9902867562
 20
120.5152572903
 10
142.0264190907
 20
120.4898625911
 10
142.0619868409
 20
120.4601652749
 10
142.0967107241
 20
120.4263055154
 10
142.1300378056
 20
120.38871159
 10
142.1612168371
 20
120.3482268067
 10
142.1897191782
 20
120.3057417655
 10
142.2155605768
 20
120.2614331144
 10
142.238808826
 20
120.215118922
 10
142.2593246095
 20
120.1668586417
 10
142.2765847438
 20
120.117552739
 10
142.2901200856
 20
120.0682644734
 10
142.2997790528
 20
120.0197153843
 10
142.3055921048
 20
119.9722612647
 10
142.3075513963
 20
119.9264075529
  0
LWPOLYLINE
  5
406
100
AcDbEntity
  8
0
100
AcDbPolyline
 62
253
  6
CONTINUOUS
 90
13
 70
0
 10
127.6041973569
 20
127.9015310895
 10
127.6223492891
 20
127.8906663556
 10
127.6402329713
 20
127.8770465673
 10
127.6575425271
 20
127.8609046727
 10
127.6739819
 20
127.8425167571
 10
127.6892699166
 20
127.822197321
 10
127.703145096
 20
127.800293901
 10
127.715370122
 20
127.7771811256
 10
127.725735902
 20
127.7532543075
 10
127.7340651433
 20
127.7289226829
 10
127.7402153855
 20
127.7046024112
 10
127.7440814369
 20
127.6807094581
 10
127.7455971739
 20
127.6576524801
  0
LWPOLYLINE
  5
407
100
AcDbEntity
  8
0
100
AcDbPolyline
 62
253
  6
CONTINUOUS
 90
13
 70
0
 10
140.190698062
 20
121.6082807369
 10
140.2088499942
 20
121.597416003
 10
140.2267336764
 20
121.5837962147
 10
140.2440432322
 20
121.5676543201
 10
140.2604826051
 20
121.5492664045
 10
140.2757706217
 20
121.5289469684
 10
140.2896458011
 20
121.5070435484
 10
140.3018708271
 20
121.483930773
 10
140.3122366071
 20
121.460003955
 10
140.3205658484
 20
121.4356723303
 10
140.3267160906
 20
121.4113520587
 10
140.330582142
 20
121.3874591055
 10
140.3320978791
 20
121.3644021276
  0
LINE
  5
408
100
AcDbEntity
  8
SMUSSO
100
AcDbLine
 62
253
  6
CONTINUOUS
 10
150.9180883987
 20
117.0479295423
 11
151.6358031511
 21
116.4675756356
  0
LWPOLYLINE
  5
409
100
AcDbEntity
  8
SMUSSO
100
AcDbPolyline
 62
7
  6
CONTINUOUS
 90
200
 70
0
 10
151.0363906126
 20
116.510347107
 10
151.0317465155
 20
116.5151624654
 10
151.0271460286
 20
116.5200769218
 10
151.0226002868
 20
116.525079002
 10
151.0181135193
 20
116.5301642019
 10
151.0136863771
 20
116.5353320914
 10
151.0093182093
 20
116.5405831007
 10
151.0050112931
 20
116.5459140163
 10
151.0007669457
 20
116.5513231076
 10
150.99658385
 20
116.5568121053
 10
150.9924603314
 20
116.5623829884
 10
150.9883950761
 20
116.5680374774
 10
150.9843893978
 20
116.5737738518
 10
150.9804455634
 20
116.5795889294
 10
150.9765641394
 20
116.5854819609
 10
150.9727445594
 20
116.5914536956
 10
150.96898739
 20
116.5975031993
 10
150.9652930207
 20
116.6036296623
 10
150.9616610621
 20
116.6098338943
 10
150.9580909132
 20
116.6161173903
 10
150.9545811022
 20
116.6224829504
 10
150.9511331008
 20
116.6289277745
 10
150.9477507229
 20
116.6354449572
 10
150.9444347269
 20
116.6420334991
 10
150.9411843544
 20
116.6486943996
 10
150.9380011447
 20
116.6554237521
 10
150.9348860431
 20
116.6622194142
 10
150.9318381043
 20
116.6690835282
 10
150.928856032
 20
116.6760186141
 10
150.9259388949
 20
116.6830267429
 10
150.9230876243
 20
116.6901058437
 10
150.9203037184
 20
116.6972522243
 10
150.9175876552
 20
116.7044646928
 10
150.9149389565
 20
116.7117444411
 10
150.9123576864
 20
116.7190913521
 10
150.9098438582
 20
116.7265051331
 10
150.9073974585
 20
116.7339860767
 10
150.9050185107
 20
116.7415349435
 10
150.9027061664
 20
116.7491548285
 10
150.900461274
 20
116.7568426367
 10
150.8982864017
 20
116.7645898424
 10
150.8961822102
 20
116.7723947312
 10
150.8941480387
 20
116.7802590175
 10
150.8921844729
 20
116.7881793196
 10
150.8902919287
 20
116.7961536898
 10
150.8884699902
 20
116.8041840756
 10
150.8867179957
 20
116.8122729382
 10
150.8850354008
 20
116.8204227443
 10
150.88342275
 20
116.828631027
 10
150.8818810153
 20
116.8368928473
 10
150.8804105308
 20
116.8452065063
 10
150.8790109624
 20
116.8535737027
 10
150.8776822794
 20
116.8619945939
 10
150.8764244087
 20
116.8704692034
 10
150.8752374233
 20
116.8789975076
 10
150.874121512
 20
116.8875795931
 10
150.8730763968
 20
116.8962184085
 10
150.8721023556
 20
116.9049110051
 10
150.871200411
 20
116.9136486245
 10
150.8703709168
 20
116.9224288339
 10
150.8696135193
 20
116.9312540659
 10
150.8689281799
 20
116.9401228606
 10
150.8683149025
 20
116.9490343411
 10
150.8677736833
 20
116.9579893842
 10
150.8673044727
 20
116.9669891595
 10
150.8669071717
 20
116.9760364759
 10
150.8665818793
 20
116.9851285245
 10
150.866328842
 20
116.9942580476
 10
150.8661481718
 20
117.0034226614
 10
150.8660397568
 20
117.0126247497
 10
150.8660035077
 20
117.0218642063
 10
150.8660393648
 20
117.0311409999
 10
150.8661473879
 20
117.0404551618
 10
150.8663276664
 20
117.0498066805
 10
150.8665803121
 20
117.0591980577
 10
150.8669052133
 20
117.0686267916
 10
150.8673021235
 20
117.0780853647
 10
150.8677709442
 20
117.0875708665
 10
150.868311774
 20
117.0970862074
 10
150.8689246618
 20
117.1066326015
 10
150.8696096108
 20
117.1162109241
 10
150.8703666178
 20
117.1258202999
 10
150.8711957217
 20
117.1354593165
 10
150.8720972761
 20
117.145130775
 10
150.8730709274
 20
117.1548318743
 10
150.8741156537
 20
117.1645527995
 10
150.8752311775
 20
117.1742903166
 10
150.8764177763
 20
117.1840476595
 10
150.8776752609
 20
117.193824715
 10
150.8790035579
 20
117.203621381
 10
150.8804027408
 20
117.2134377594
 10
150.8818728406
 20
117.2232740431
 10
150.8834141918
 20
117.233132278
 10
150.88502646
 20
117.243010418
 10
150.8867086736
 20
117.2529025174
 10
150.8884602882
 20
117.262805546
 10
150.8902818483
 20
117.272722534
 10
150.892174015
 20
117.2826566259
 10
150.8941372037
 20
117.2926101985
 10
150.8961709991
 20
117.302580875
 10
150.8982748165
 20
117.3125646704
 10
150.9004493171
 20
117.3225639865
 10
150.9026938397
 20
117.3325764214
 10
150.9050058153
 20
117.342590785
 10
150.9073843962
 20
117.3526031046
 10
150.9098304301
 20
117.3626173528
 10
150.9123438911
 20
117.3726342574
 10
150.9149247912
 20
117.3826541187
 10
150.9175731184
 20
117.3926766364
 10
150.9202888111
 20
117.4027016367
 10
150.9230723473
 20
117.4127308072
 10
150.925923249
 20
117.4227624604
 10
150.9288400205
 20
117.4327913599
 10
150.9318217308
 20
117.4428144721
 10
150.934869311
 20
117.4528348306
 10
150.9379840584
 20
117.4628563006
 10
150.9411669189
 20
117.4728820053
 10
150.9444169465
 20
117.4829088213
 10
150.9477326016
 20
117.4929312445
 10
150.9511146435
 20
117.5029510623
 10
150.9545623127
 20
117.5129664872
 10
150.9580717915
 20
117.5229666518
 10
150.9616416079
 20
117.5329472305
 10
150.9652732339
 20
117.5429125489
 10
150.9689672664
 20
117.5528647155
 10
150.9727240917
 20
117.5628049353
 10
150.9765433236
 20
117.5727320034
 10
150.9804244002
 20
117.5826444129
 10
150.9843678882
 20
117.592543501
 10
150.988373221
 20
117.6024279305
 10
150.9924381367
 20
117.612292183
 10
150.9965613226
 20
117.6221331806
 10
151.0007440915
 20
117.6319540012
 10
151.0049881195
 20
117.6417583604
 10
151.009294725
 20
117.6515493561
 10
151.0136625897
 20
117.6613238905
 10
151.0180894338
 20
117.6710763849
 10
151.0225759095
 20
117.6808079459
 10
151.0271213647
 20
117.690517467
 10
151.0317215636
 20
117.7001960503
 10
151.036374558
 20
117.7098395871
 10
151.0410822961
 20
117.7194521862
 10
151.0458463871
 20
117.7290372766
 10
151.0506679887
 20
117.7385972777
 10
151.0555459431
 20
117.7481297703
 10
151.0604783864
 20
117.7576309247
 10
151.0654659037
 20
117.7671016764
 10
151.0705079099
 20
117.7765410901
 10
151.0756007851
 20
117.7859425298
 10
151.0807427081
 20
117.7953026763
 10
151.0859355001
 20
117.804624849
 10
151.091181006
 20
117.8139123696
 10
151.0964806411
 20
117.8231678072
 10
151.1018329899
 20
117.8323885928
 10
151.1072356512
 20
117.8415703413
 10
151.112689039
 20
117.8507135783
 10
151.1181927392
 20
117.8598177783
 10
151.1237431089
 20
117.8688769794
 10
151.1293380919
 20
117.877887898
 10
151.1349797444
 20
117.8868538176
 10
151.1406705922
 20
117.8957786274
 10
151.146412758
 20
117.9046656773
 10
151.1522041191
 20
117.9135116173
 10
151.158040833
 20
117.9223102864
 10
151.1639233482
 20
117.931062099
 10
151.1698512162
 20
117.9397666408
 10
151.1758192483
 20
117.9484165068
 10
151.1818249879
 20
117.9570081458
 10
151.1878708916
 20
117.9655451091
 10
151.1939591399
 20
117.9740306464
 10
151.2000912109
 20
117.9824668982
 10
151.2062656265
 20
117.990851724
 10
151.2124801336
 20
117.999181952
 10
151.2187348866
 20
118.0074577066
 10
151.2250297309
 20
118.0156788634
 10
151.2313619498
 20
118.023841877
 10
151.2377296795
 20
118.0319444516
 10
151.2441347838
 20
118.0399888829
 10
151.2505801365
 20
118.0479785125
 10
151.2570685823
 20
118.0559168389
 10
151.2635972766
 20
118.0638003635
 10
151.2701605591
 20
118.0716219327
 10
151.2767585605
 20
118.0793814219
 10
151.2833911501
 20
118.0870789557
 10
151.2900522765
 20
118.094707754
 10
151.2967390082
 20
118.1022644705
 10
151.3034542766
 20
118.1097524514
 10
151.3102008245
 20
118.1171749559
 10
151.3169804176
 20
118.1245340066
 10
151.3237912903
 20
118.1318275807
 10
151.3306308886
 20
118.1390528697
 10
151.337499105
 20
118.1462097066
 10
151.3443960471
 20
118.1532982583
 10
151.3513194833
 20
118.1603162166
 10
151.3582677558
 20
118.1672620074
 10
151.3652425223
 20
118.1741372047
 10
151.3722465249
 20
118.1809442233
 10
151.3792828999
 20
118.1876860619
 10
151.3863485109
 20
118.1943597216
 10
151.3934366911
 20
118.2009586208
  0
LWPOLYLINE
  5
40A
100
AcDbEntity
  8
SMUSSO
100
AcDbPolyline
 62
7
  6
CONTINUOUS
 90
34
 70
0
 10
151.3934366911
 20
118.2009586208
 10
151.4005471482
 20
118.2074822354
 10
151.4076801744
 20
118.2139310895
 10
151.4148299792
 20
118.2203001739
 10
151.4219935764
 20
118.2265868613
 10
151.4291739522
 20
118.2327937792
 10
151.4363742744
 20
118.2389238005
 10
151.4435967919
 20
118.244978896
 10
151.4508392559
 20
118.250957095
 10
151.458098088
 20
118.256855359
 10
151.4653728756
 20
118.262673283
 10
151.4726640313
 20
118.2684112721
 10
151.4799692149
 20
118.2740675028
 10
151.4872868199
 20
118.2796408234
 10
151.4946184528
 20
118.2851323857
 10
151.5019665931
 20
118.2905438221
 10
151.5093343262
 20
118.2958773563
 10
151.5167185667
 20
118.3011307647
 10
151.5241125373
 20
118.3062990092
 10
151.5315158442
 20
118.3113815884
 10
151.5389288814
 20
118.3163790036
 10
151.5463460528
 20
118.321287721
 10
151.5537646253
 20
118.3261059539
 10
151.5611873321
 20
118.330835489
 10
151.5686167769
 20
118.3354781524
 10
151.5760537005
 20
118.3400345538
 10
151.5834973623
 20
118.3445040834
 10
151.5909481437
 20
118.3488867384
 10
151.5984061708
 20
118.3531826791
 10
151.6058713176
 20
118.3573917452
 10
151.6133435887
 20
118.3615134524
 10
151.6208229853
 20
118.3655476395
 10
151.6283095061
 20
118.3694944679
 10
151.6358031511
 20
118.3733539375
  0
LWPOLYLINE
  5
40B
100
AcDbEntity
  8
ASSI
100
AcDbPolyline
 62
7
  6
CONTINUOUS
 90
55
 70
0
 10
158.6939154098
 20
103.32138861
 10
158.6866660219
 20
103.6214488183
 10
158.6655591788
 20
103.9112878967
 10
158.6305948806
 20
104.1909058453
 10
158.5815615188
 20
104.4611776554
 10
158.5186707019
 20
104.7212283357
 10
158.4425572552
 20
104.968432912
 10
158.3530872577
 20
105.2026612769
 10
158.2503946305
 20
105.424043538
 10
158.1355159617
 20
105.6303450435
 10
158.0083278292
 20
105.821413053
 10
157.8689536551
 20
105.9974003069
 10
157.7188002944
 20
106.1565303746
 10
157.5577585738
 20
106.2986325239
 10
157.3859376667
 20
106.423877487
 10
157.2050719481
 20
106.5310010304
 10
157.0150698106
 20
106.6198196175
 10
156.8160228617
 20
106.690516785
 10
156.6099402985
 20
106.7423789095
 10
156.396750863
 20
106.7752152266
 10
156.1765258131
 20
106.7892165008
 10
155.9514881196
 20
106.7842414019
 10
155.7215890392
 20
106.7600977342
 10
155.4868773152
 20
106.7169776934
 10
155.2497221479
 20
106.655316537
 10
155.0100987898
 20
106.5749264776
 10
154.7680319884
 20
106.4759953025
 10
154.5259651871
 20
106.3595216317
 10
154.2838983858
 20
106.2253277918
 10
154.0418315844
 20
106.0735914561
 10
153.8022082263
 20
105.9058442643
 10
153.565053059
 20
105.7219240559
 10
153.3303413349
 20
105.5219929914
 10
153.1004422545
 20
105.3080691922
 10
152.875404561
 20
105.0800109377
 10
152.6551795112
 20
104.8379599486
 10
152.4419900757
 20
104.5843595085
 10
152.2359075124
 20
104.3190926426
 10
152.0368605635
 20
104.0422763256
 10
151.8468584261
 20
103.7567047656
 10
151.6659927075
 20
103.4622892877
 10
151.4941718003
 20
103.1591185667
 10
151.3331300798
 20
102.850252834
 10
151.1829767191
 20
102.5356344096
 10
151.043602545
 20
102.2153209735
 10
150.9164144125
 20
101.8925457972
 10
150.8015357437
 20
101.5672839478
 10
150.6988431164
 20
101.2395603582
 10
150.609373119
 20
100.9126830987
 10
150.5332596723
 20
100.586660741
 10
150.4703688553
 20
100.2614847134
 10
150.4213354936
 20
99.9404373708
 10
150.3863711953
 20
99.6246128315
 10
150.3652643523
 20
99.3129169772
 10
150.3580149643
 20
99.005349808
  0
LINE
  5
40C
100
AcDbEntity
  8
DRAFT
100
AcDbLine
 62
7
  6
CONTINUOUS
 10
157.114759961
 20
134.6938954817
 11
157.114759961
 21
134.6948281381
  0
LINE
  5
40D
100
AcDbEntity
  8
SMUSSO
100
AcDbLine
 62
7
  6
CONTINUOUS
 10
158.1661638916
 20
135.6255557662
 11
158.1661638916
 21
135.2297863445
  0
LINE
  5
40E
100
AcDbEntity
  8
0
100
AcDbLine
 62
253
  6
CONTINUOUS
 10
140.737887308
 20
80.6652449
 11
140.1050444297
 21
79.9198696994
  0
LINE
  5
40F
100
AcDbEntity
  8
0
100
AcDbLine
 62
253
  6
CONTINUOUS
 10
141.051547255
 20
80.6011802957
 11
140.3147394508
 21
79.733353093
  0
LINE
  5
410
100
AcDbEntity
  8
RACCORDO
100
AcDbLine
 62
7
  6
CONTINUOUS
 10
143.3429698221
 20
85.3281909685
 11
142.1453736516
 21
84.460239286
  0
LINE
  5
411
100
AcDbEntity
  8
0
100
AcDbLine
 62
7
  6
CONTINUOUS
 10
149.0373281145
 20
89.9210977572
 11
167.7264847289
 21
99.5976918639
  0
LINE
  5
412
100
AcDbEntity
  8
DRAFT
100
AcDbLine
 62
7
  6
CONTINUOUS
 10
167.7264847289
 20
99.5543905937
 11
148.9678516958
 21
89.8418240182
  0
LINE
  5
413
100
AcDbEntity
  8
0
100
AcDbLine
 62
7
  6
CONTINUOUS
 10
141.7270529772
 20
85.9625171804
 11
143.7587974441
 21
87.0112223
  0
LWPOLYLINE
  5
414
100
AcDbEntity
  8
0
100
AcDbPolyline
 62
253
  6
CONTINUOUS
 90
12
 70
0
 10
140.134305003
 20
120.8342447972
 10
140.1434031365
 20
120.8326809728
 10
140.163544396
 20
120.8317226697
 10
140.1838931621
 20
120.8341175723
 10
140.2041051135
 20
120.8398251555
 10
140.2238382436
 20
120.8487488401
 10
140.2427586484
 20
120.8607376269
 10
140.2605461774
 20
120.8755886529
 10
140.2768998497
 20
120.8930506241
 10
140.2915429463
 20
120.9128280665
 10
140.3042276924
 20
120.9345863263
 10
140.3147394508
 20
120.9579572323
  0
LINE
  5
415
100
AcDbEntity
  8
0
100
AcDbLine
 62
7
  6
CONTINUOUS
 10
140.7751211324
 20
120.6983074824
 11
140.1343050007
 21
120.8342447977
  0
LINE
  5
416
100
AcDbEntity
  8
0
100
AcDbLine
 62
253
  6
CONTINUOUS
 10
141.051547255
 20
120.8016570554
 11
140.3147394508
 21
120.9579572323
  0
LWPOLYLINE
  5
417
100
AcDbEntity
  8
0
100
AcDbPolyline
 62
253
  6
CONTINUOUS
 90
22
 70
0
 10
140.3147394508
 20
120.9579572323
 10
140.3134591169
 20
120.958259585
 10
140.3121882754
 20
120.9586642695
 10
140.3109269262
 20
120.9591712858
 10
140.3096671682
 20
120.9597767937
 10
140.3084169026
 20
120.9604846335
 10
140.3071998329
 20
120.9613063253
 10
140.3060161436
 20
120.9622445509
 10
140.3048656503
 20
120.9632966286
 10
140.303771503
 20
120.9644660333
 10
140.3027345735
 20
120.9657557765
 10
140.30175399
 20
120.9671628466
 10
140.300850287
 20
120.9686816843
 10
140.3000250148
 20
120.9703152702
 10
140.2992766229
 20
120.9720606237
 10
140.2986209945
 20
120.9739032433
 10
140.2980602311
 20
120.9758456981
 10
140.2975922311
 20
120.9778854191
 10
140.2972265718
 20
120.9800001985
 10
140.2969664459
 20
120.9821826339
 10
140.2968086608
 20
120.9844401277
 10
140.2967532164
 20
120.98677268
  0
LWPOLYLINE
  5
418
100
AcDbEntity
  8
0
100
AcDbPolyline
 62
7
  6
CONTINUOUS
 90
10
 70
0
 10
140.3314024759
 20
123.7476231327
 10
140.3103600244
 20
123.7553989588
 10
140.2884836281
 20
123.7610230505
 10
140.2660001717
 20
123.7643978443
 10
140.2430673697
 20
123.7654554325
 10
140.2199291237
 20
123.7641382885
 10
140.1969046929
 20
123.7604325359
 10
140.1742128311
 20
123.7543607359
 10
140.152055826
 20
123.7459599965
 10
140.147879845
 20
123.7440850722
  0
LWPOLYLINE
  5
419
100
AcDbEntity
  8
0
100
AcDbPolyline
 62
253
  6
CONTINUOUS
 90
7
 70
0
 10
138.1249840206
 20
122.6411377576
 10
138.1062302928
 20
122.6487258511
 10
138.0878395396
 20
122.6532432738
 10
138.0701263101
 20
122.6546127626
 10
138.0533935651
 20
122.6528108953
 10
138.0379274957
 20
122.6478684916
 10
138.0325840842
 20
122.6452613753
  0
LWPOLYLINE
  5
41A
100
AcDbEntity
  8
0
100
AcDbPolyline
 62
253
  6
CONTINUOUS
 90
7
 70
0
 10
125.5384833155
 20
128.9343881101
 10
125.5197295877
 20
128.9419762036
 10
125.5013388345
 20
128.9464936264
 10
125.483625605
 20
128.9478631151
 10
125.46689286
 20
128.9460612478
 10
125.4514267905
 20
128.9411188442
 10
125.4460833791
 20
128.9385117279
  0
LWPOLYLINE
  5
41B
100
AcDbEntity
  8
0
100
AcDbPolyline
 62
7
  6
CONTINUOUS
 90
6
 70
0
 10
127.1047340616
 20
129.7794163201
 10
127.0862827933
 20
129.7871665446
 10
127.0681403962
 20
129.7918176823
 10
127.0506214237
 20
129.7932922333
 10
127.034030225
 20
129.7915672914
 10
127.0173950217
 20
129.7861061516
  0
LWPOLYLINE
  5
41C
100
AcDbEntity
  8
0
100
AcDbPolyline
 62
253
  6
CONTINUOUS
 90
6
 70
0
 10
140.2339608295
 20
123.7368148487
 10
140.2158088972
 20
123.744703827
 10
140.197925215
 20
123.7494747797
 10
140.1806156592
 20
123.751046106
 10
140.1641762863
 20
123.7493909305
 10
140.1478797811
 20
123.7440852117
  0
LWPOLYLINE
  5
41D
100
AcDbEntity
  8
0
100
AcDbPolyline
 62
253
  6
CONTINUOUS
 90
12
 70
0
 10
142.4450565881
 20
122.6912169101
 10
142.4362289097
 20
122.695076166
 10
142.4274094525
 20
122.697917554
 10
142.4182449428
 20
122.6999211181
 10
142.4087646345
 20
122.701078744
 10
142.3990060656
 20
122.7013843014
 10
142.3890044654
 20
122.7008355178
 10
142.3787963999
 20
122.6994332566
 10
142.368423455
 20
122.6971829283
 10
142.3579251723
 20
122.6940933876
 10
142.3473386299
 20
122.6901756096
 10
142.3367026552
 20
122.6854439358
  0
LWPOLYLINE
  5
41E
100
AcDbEntity
  8
0
100
AcDbPolyline
 62
253
  6
CONTINUOUS
 90
12
 70
0
 10
140.3430787023
 20
123.7422058517
 10
140.3341398577
 20
123.7461152633
 10
140.325272535
 20
123.7489790125
 10
140.3160496765
 20
123.7510106266
 10
140.3065020436
 20
123.7521993015
 10
140.296673166
 20
123.7525367383
 10
140.2865981618
 20
123.7520203286
 10
140.2763135589
 20
123.7506505788
 10
140.2658679351
 20
123.748433719
 10
140.2553033897
 20
123.7453803068
 10
140.2446547579
 20
123.7415022131
 10
140.2339608295
 20
123.7368148487
  0
LWPOLYLINE
  5
41F
100
AcDbEntity
  8
0
100
AcDbPolyline
 62
253
  6
CONTINUOUS
 90
13
 70
0
 10
137.1065922337
 20
123.7708600428
 10
137.126030622
 20
123.7623240247
 10
137.1475101129
 20
123.7551140108
 10
137.1706712993
 20
123.7493506448
 10
137.1951266335
 20
123.7451303645
 10
137.2204669143
 20
123.7425237873
 10
137.2462681341
 20
123.7415745298
 10
137.2720985712
 20
123.7422984775
 10
137.297526011
 20
123.7446835187
 10
137.32212498
 20
123.7486897466
 10
137.3454838692
 20
123.754250127
 10
137.3672118203
 20
123.761271621
 10
137.386945264
 20
123.7696367409
  0
LWPOLYLINE
  5
420
100
AcDbEntity
  8
0
100
AcDbPolyline
 62
253
  6
CONTINUOUS
 90
13
 70
0
 10
133.3942816325
 20
125.6270153434
 10
133.4137200208
 20
125.6184793254
 10
133.4351995117
 20
125.6112693115
 10
133.458360698
 20
125.6055059454
 10
133.4828160322
 20
125.6012856651
 10
133.5081563131
 20
125.598679088
 10
133.5339575329
 20
125.5977298305
 10
133.55978797
 20
125.5984537781
 10
133.5852154097
 20
125.6008388193
 10
133.6098143788
 20
125.6048450472
 10
133.6331732679
 20
125.6104054276
 10
133.6549012191
 20
125.6174269216
 10
133.6746346628
 20
125.6257920415
  0
LWPOLYLINE
  5
421
100
AcDbEntity
  8
0
100
AcDbPolyline
 62
253
  6
CONTINUOUS
 90
14
 70
0
 10
134.9902470041
 20
125.1844592468
 10
134.9817052783
 20
125.18836698
 10
134.9729261384
 20
125.1918731438
 10
134.9639343777
 20
125.1949214689
 10
134.9547386136
 20
125.1974592555
 10
134.9453923275
 20
125.1994196786
 10
134.935991325
 20
125.2007364384
 10
134.9265734022
 20
125.2013630712
 10
134.9171800987
 20
125.2012540599
 10
134.907910833
 20
125.2003727196
 10
134.8988071047
 20
125.198691025
 10
134.8899128412
 20
125.1961837087
 10
134.8813229066
 20
125.1928505436
 10
134.8749139413
 20
125.1897038938
  0
LWPOLYLINE
  5
422
100
AcDbEntity
  8
0
100
AcDbPolyline
 62
253
  6
CONTINUOUS
 90
14
 70
0
 10
131.2779364029
 20
127.0406145474
 10
131.2693946771
 20
127.0445222806
 10
131.2606155371
 20
127.0480284444
 10
131.2516237765
 20
127.0510767696
 10
131.2424280124
 20
127.0536145561
 10
131.2330817263
 20
127.0555749792
 10
131.2236807237
 20
127.056891739
 10
131.2142628009
 20
127.0575183719
 10
131.2048694975
 20
127.0574093605
 10
131.1956002318
 20
127.0565280202
 10
131.1864965035
 20
127.0548463256
 10
131.1776022399
 20
127.0523390093
 10
131.1690123053
 20
127.0490058442
 10
131.1626033401
 20
127.0458591944
  0
LINE
  5
423
100
AcDbEntity
  8
0
100
AcDbLine
 62
7
  6
CONTINUOUS
 10
127.7568333186
 20
130.0353271653
 11
127.7425657163
 21
130.04185887
  0
LINE
  5
424
100
AcDbEntity
  8
0
100
AcDbLine
 62
7
  6
CONTINUOUS
 10
140.3433159139
 20
123.7420864983
 11
140.3314024759
 21
123.7476231327
  0
LWPOLYLINE
  5
425
100
AcDbEntity
  8
0
100
AcDbPolyline
 62
253
  6
CONTINUOUS
 90
28
 70
0
 10
134.8512937909
 20
124.9418039394
 10
134.8495986003
 20
124.9426170467
 10
134.847866333
 20
124.9433264067
 10
134.8460969889
 20
124.9439320196
 10
134.8442797241
 20
124.9444453441
 10
134.8424253825
 20
124.9448549214
 10
134.8405664964
 20
124.9451263747
 10
134.8387020157
 20
124.9452555949
 10
134.8368329906
 20
124.9452466911
 10
134.8349951038
 20
124.9450776133
 10
134.833188671
 20
124.9447430577
 10
134.8314133765
 20
124.944248328
 10
134.8297039558
 20
124.9435872862
 10
134.8280627768
 20
124.9427549102
 10
134.8264874716
 20
124.941756222
 10
134.825005672
 20
124.9406001487
 10
134.8236207536
 20
124.9392841399
 10
134.8223293409
 20
124.937810746
 10
134.8211489387
 20
124.9361965459
 10
134.8200815733
 20
124.934440034
 10
134.8191252184
 20
124.9325427159
 10
134.8182913003
 20
124.9305256876
 10
134.8175813304
 20
124.9283873722
 10
134.8169937973
 20
124.9261293466
 10
134.8165355922
 20
124.923777438
 10
134.8162090123
 20
124.9213402555
 10
134.8160117604
 20
124.9188091899
 10
134.8159438366
 20
124.9161842413
  0
LWPOLYLINE
  5
426
100
AcDbEntity
  8
0
100
AcDbPolyline
 62
253
  6
CONTINUOUS
 90
28
 70
0
 10
131.1389831896
 20
126.79795924
 10
131.1372879991
 20
126.7987723473
 10
131.1355557317
 20
126.7994817074
 10
131.1337863877
 20
126.8000873202
 10
131.1319691228
 20
126.8006006447
 10
131.1301147812
 20
126.801010222
 10
131.1282558952
 20
126.8012816753
 10
131.1263914145
 20
126.8014108956
 10
131.1245223894
 20
126.8014019917
 10
131.1226845026
 20
126.801232914
 10
131.1208780698
 20
126.8008983583
 10
131.1191027752
 20
126.8004036287
 10
131.1173933545
 20
126.7997425868
 10
131.1157521755
 20
126.7989102108
 10
131.1141768703
 20
126.7979115226
 10
131.1126950708
 20
126.7967554493
 10
131.1113101524
 20
126.7954394405
 10
131.1100187396
 20
126.7939660466
 10
131.1088383374
 20
126.7923518466
 10
131.107770972
 20
126.7905953346
 10
131.1068146172
 20
126.7886980165
 10
131.105980699
 20
126.7866809882
 10
131.1052707292
 20
126.7845426728
 10
131.1046831961
 20
126.7822846472
 10
131.104224991
 20
126.7799327387
 10
131.1038984111
 20
126.7774955561
 10
131.1037011592
 20
126.7749644905
 10
131.1036332354
 20
126.772339542
  0
LINE
  5
427
100
AcDbEntity
  8
0
100
AcDbLine
 62
253
  6
CONTINUOUS
 10
137.2101954927
 20
124.0744850025
 11
134.9902470041
 21
125.1844592468
  0
LINE
  5
428
100
AcDbEntity
  8
0
100
AcDbLine
 62
253
  6
CONTINUOUS
 10
133.4978848915
 20
125.9306403031
 11
131.2779364029
 21
127.0406145474
  0
LINE
  5
429
100
AcDbEntity
  8
0
100
AcDbLine
 62
7
  6
CONTINUOUS
 10
137.4285415301
 20
124.184499884
 11
135.2011013214
 21
125.2982199884
  0
LINE
  5
42A
100
AcDbEntity
  8
0
100
AcDbLine
 62
7
  6
CONTINUOUS
 10
133.7162309288
 20
126.0406551847
 11
131.4887907202
 21
127.154375289
  0
LINE
  5
42B
100
AcDbEntity
  8
0
100
AcDbLine
 62
7
  6
CONTINUOUS
 10
141.8125981886
 20
122.4254842566
 11
139.6912347668
 21
123.4861659676
  0
LINE
  5
42C
100
AcDbEntity
  8
0
100
AcDbLine
 62
7
  6
CONTINUOUS
 10
129.2260974835
 20
128.7187346092
 11
127.1047340616
 21
129.7794163201
  0
LINE
  5
42D
100
AcDbEntity
  8
0
100
AcDbLine
 62
7
  6
CONTINUOUS
 10
137.8443331905
 20
124.6272147589
 11
135.8775291536
 21
125.6106167773
  0
LINE
  5
42E
100
AcDbEntity
  8
0
100
AcDbLine
 62
7
  6
CONTINUOUS
 10
134.3694496934
 20
126.3646565075
 11
132.4026456565
 21
127.3480585259
  0
LINE
  5
42F
100
AcDbEntity
  8
0
100
AcDbLine
 62
253
  6
CONTINUOUS
 10
127.6474601243
 20
130.0300652012
 11
129.7502019501
 21
128.9786942884
  0
LINE
  5
430
100
AcDbEntity
  8
0
100
AcDbLine
 62
253
  6
CONTINUOUS
 10
140.2339608295
 20
123.7368148487
 11
142.3367026552
 21
122.6854439358
  0
LINE
  5
431
100
AcDbEntity
  8
0
100
AcDbLine
 62
7
  6
CONTINUOUS
 10
127.7565577905
 20
130.0354663106
 11
129.858541348
 21
128.9844745319
  0
LINE
  5
432
100
AcDbEntity
  8
0
100
AcDbLine
 62
7
  6
CONTINUOUS
 10
140.3430572299
 20
123.7422165909
 11
142.4450427413
 21
122.6912238352
  0
LINE
  5
433
100
AcDbEntity
  8
DRAFT
100
AcDbLine
 62
7
  6
CONTINUOUS
 10
136.5684033476
 20
125.7696965292
 11
136.6962094041
 21
125.7057935009
  0
LINE
  5
434
100
AcDbEntity
  8
DRAFT
100
AcDbLine
 62
7
  6
CONTINUOUS
 10
136.8628291812
 20
125.7956886932
 11
136.8862927132
 21
125.7839569271
  0
LINE
  5
435
100
AcDbEntity
  8
RACCORDO
100
AcDbLine
 62
7
  6
CONTINUOUS
 10
137.9234355051
 20
126.4778210965
 11
139.7129314053
 21
125.5830731464
  0
LWPOLYLINE
  5
436
100
AcDbEntity
  8
0
100
AcDbPolyline
 62
7
  6
CONTINUOUS
 90
13
 70
0
 10
141.8125981886
 20
122.4254842566
 10
141.831049457
 20
122.4147717677
 10
141.8491918541
 20
122.4012834014
 10
141.8667108266
 20
122.3852475318
 10
141.8833020253
 20
122.3669356923
 10
141.8986804698
 20
122.3466605825
 10
141.9125855703
 20
122.324770898
 10
141.9247819023
 20
122.3016422708
 10
141.9350584181
 20
122.2776691191
 10
141.9432362494
 20
122.2532607013
 10
141.9491766068
 20
122.2288352119
 10
141.9527829438
 20
122.2048125607
 10
141.9539980057
 20
122.1816056473
  0
LINE
  5
437
100
AcDbEntity
  8
RACCORDO
100
AcDbLine
 62
7
  6
CONTINUOUS
 10
150.0751317941
 20
122.2918682533
 11
148.9919365245
 21
124.1601037391
  0
LINE
  5
438
100
AcDbEntity
  8
DRAFT
100
AcDbLine
 62
7
  6
CONTINUOUS
 10
160.6502938669
 20
132.9261285288
 11
160.6502938669
 21
132.9270611851
  0
LINE
  5
439
100
AcDbEntity
  8
0
100
AcDbLine
 62
7
  6
CONTINUOUS
 10
161.0812364368
 20
123.3666182113
 11
161.0812364368
 21
122.2688856391
  0
LINE
  5
43A
100
AcDbEntity
  8
0
100
AcDbLine
 62
7
  6
CONTINUOUS
 10
161.0812364368
 20
118.9715392871
 11
161.0812364368
 21
118.0037105255
  0
LINE
  5
43B
100
AcDbEntity
  8
SMUSSO
100
AcDbLine
 62
7
  6
CONTINUOUS
 10
161.7016977976
 20
133.8577888132
 11
161.7016977976
 21
133.4620193915
  0
LWPOLYLINE
  5
43C
100
AcDbEntity
  8
0
100
AcDbPolyline
 62
7
  6
CONTINUOUS
 90
9
 70
0
 10
142.4626662717
 20
80.2906914217
 10
142.483585585
 20
80.308701493
 10
142.5028040174
 20
80.3291790895
 10
142.5195924702
 20
80.3512326501
 10
142.5342563629
 20
80.3751284864
 10
142.5467283516
 20
80.4009556453
 10
142.5563583562
 20
80.4274074723
 10
142.5631550139
 20
80.4541486254
 10
142.5672425879
 20
80.4819267226
  0
LINE
  5
43D
100
AcDbEntity
  8
RACCORDO
100
AcDbLine
 62
7
  6
CONTINUOUS
 10
148.9919365245
 20
88.0468444013
 11
150.0751317941
 21
88.8318846176
  0
LWPOLYLINE
  5
43E
100
AcDbEntity
  8
0
100
AcDbPolyline
 62
7
  6
CONTINUOUS
 90
9
 70
0
 10
142.1897497344
 20
81.7306494974
 10
142.2155855134
 20
81.7493558371
 10
142.2388287215
 20
81.7727251469
 10
142.2593310705
 20
81.800855557
 10
142.2765748311
 20
81.8333389125
 10
142.2901232513
 20
81.8694565492
 10
142.2998136817
 20
81.9085992118
 10
142.3056350368
 20
81.9504220997
 10
142.3075513963
 20
81.9944291208
  0
LWPOLYLINE
  5
43F
100
AcDbEntity
  8
0
100
AcDbPolyline
 62
7
  6
CONTINUOUS
 90
3
 70
0
 10
139.1224342091
 20
80.185727214
 10
139.1005905981
 20
80.1706741476
 10
139.0809316678
 20
80.1561261017
  0
LINE
  5
440
100
AcDbEntity
  8
0
100
AcDbLine
 62
7
  6
CONTINUOUS
 10
139.3224131243
 20
80.3112737211
 11
139.2901369731
 21
80.291345092
  0
LWPOLYLINE
  5
441
100
AcDbEntity
  8
RACCORDO
100
AcDbPolyline
 62
7
  6
CONTINUOUS
 90
4
 70
0
 10
167.6299121615
 20
98.1119310434
 10
167.6157989485
 20
98.1038284075
 10
167.6015765324
 20
98.0959677794
 10
167.5924475755
 20
98.0910796591
  0
LWPOLYLINE
  5
442
100
AcDbEntity
  8
0
100
AcDbPolyline
 62
7
  6
CONTINUOUS
 90
10
 70
0
 10
168.085992129
 20
99.1343132165
 10
168.1437474294
 20
99.167059747
 10
168.1950360809
 20
99.2016108535
 10
168.2398580835
 20
99.2379665362
 10
168.2784495935
 20
99.2764227603
 10
168.3105744546
 20
99.3166835605
 10
168.3355241979
 20
99.3578610411
 10
168.3531394143
 20
99.3999755679
 10
168.3635795129
 20
99.4430067751
 10
168.3666505562
 20
99.4816862352
  0
LWPOLYLINE
  5
443
100
AcDbEntity
  8
RACCORDO
100
AcDbPolyline
 62
253
  6
CONTINUOUS
 90
4
 70
0
 10
167.59245313
 20
98.0910825964
 10
167.6076011285
 20
98.0995538935
 10
167.6226315595
 20
98.108919277
 10
167.63724106
 20
98.1190172904
  0
LWPOLYLINE
  5
444
100
AcDbEntity
  8
RACCORDO
100
AcDbPolyline
 62
253
  6
CONTINUOUS
 90
5
 70
0
 10
167.6718416534
 20
98.144093893
 10
167.6917132054
 20
98.1550481557
 10
167.7111444662
 20
98.1667016705
 10
167.7301193583
 20
98.1790447955
 10
167.7464092474
 20
98.1904560258
  0
LWPOLYLINE
  5
445
100
AcDbEntity
  8
RACCORDO
100
AcDbPolyline
 62
253
  6
CONTINUOUS
 90
5
 70
0
 10
167.63724106
 20
98.1190172904
 10
167.6560775753
 20
98.1293774982
 10
167.6745196919
 20
98.1403657353
 10
167.6925537148
 20
98.1519738418
 10
167.711808654
 20
98.1653794232
  0
LINE
  5
446
100
AcDbEntity
  8
RACCORDO
100
AcDbLine
 62
253
  6
CONTINUOUS
 10
167.63724106
 20
98.1190172904
 11
150.0751317941
 21
88.8318846176
  0
LINE
  5
447
100
AcDbEntity
  8
RACCORDO
100
AcDbLine
 62
7
  6
CONTINUOUS
 10
167.59245313
 20
98.0910825964
 11
150.0534396918
 21
88.8161633778
  0
LINE
  5
448
100
AcDbEntity
  8
RACCORDO
100
AcDbLine
 62
253
  6
CONTINUOUS
 10
143.7571202977
 20
86.3456740675
 11
167.7264847289
 21
98.972196573
  0
LINE
  5
449
100
AcDbEntity
  8
RACCORDO
100
AcDbLine
 62
253
  6
CONTINUOUS
 10
143.3429698221
 20
85.3281909685
 11
167.6718416534
 21
98.144093893
  0
LINE
  5
44A
100
AcDbEntity
  8
DRAFT
100
AcDbLine
 62
7
  6
CONTINUOUS
 10
142.1550903511
 20
84.4553809363
 11
148.9919365245
 21
88.0468444013
  0
LWPOLYLINE
  5
44B
100
AcDbEntity
  8
RACCORDO
100
AcDbPolyline
 62
7
  6
CONTINUOUS
 90
26
 70
0
 10
168.0682321705
 20
98.8925777789
 10
168.0866636158
 20
98.9022308569
 10
168.1045431957
 20
98.9121315388
 10
168.1218709101
 20
98.9222798248
 10
168.1386665877
 20
98.9326875762
 10
168.1549103998
 20
98.9433429317
 10
168.1705428608
 20
98.9542103068
 10
168.1855583365
 20
98.9652899219
 10
168.199962461
 20
98.9765815566
 10
168.2137126506
 20
98.9880489656
 10
168.2267967318
 20
98.9996821814
 10
168.239226878
 20
99.0114911714
 10
168.2509970263
 20
99.0234695935
 10
168.2621136414
 20
99.0356227218
 10
168.2725702585
 20
99.0479452821
 10
168.2823414203
 20
99.0604151097
 10
168.2914290241
 20
99.0730387866
 10
168.2998311725
 20
99.0858097308
 10
168.3075167167
 20
99.0986860315
 10
168.3144804942
 20
99.1116667876
 10
168.3207276675
 20
99.1247529002
 10
168.326242575
 20
99.1379051627
 10
168.3310205805
 20
99.151110736
 10
168.3350663202
 20
99.1643824593
 10
168.3383780412
 20
99.1777196426
 10
168.3408904652
 20
99.1907162155
  0
LINE
  5
44C
100
AcDbEntity
  8
0
100
AcDbLine
 62
7
  6
CONTINUOUS
 10
141.7772213104
 20
84.2107867583
 11
141.7270529772
 21
84.184630093
  0
LINE
  5
44D
100
AcDbEntity
  8
0
100
AcDbLine
 62
7
  6
CONTINUOUS
 10
167.7264847289
 20
98.9481728111
 11
168.085992129
 21
99.1343132165
  0
LINE
  5
44E
100
AcDbEntity
  8
0
100
AcDbLine
 62
7
  6
CONTINUOUS
 10
147.4155416967
 20
86.9644820191
 11
142.3580544247
 21
84.3538988995
  0
LINE
  5
44F
100
AcDbEntity
  8
0
100
AcDbLine
 62
7
  6
CONTINUOUS
 10
148.6068000167
 20
87.6870330666
 11
142.2220238115
 21
84.4219142061
  0
LINE
  5
450
100
AcDbEntity
  8
RACCORDO
100
AcDbLine
 62
7
  6
CONTINUOUS
 10
167.7090156426
 20
98.7095484756
 11
168.0682321705
 21
98.8925777789
  0
LINE
  5
451
100
AcDbEntity
  8
0
100
AcDbLine
 62
7
  6
CONTINUOUS
 10
142.3075513963
 20
83.702285906
 11
143.0023155827
 21
84.0317683205
  0
LINE
  5
452
100
AcDbEntity
  8
0
100
AcDbLine
 62
7
  6
CONTINUOUS
 10
141.7270529772
 20
83.4510435094
 11
142.3075513963
 21
83.702285906
  0
LWPOLYLINE
  5
453
100
AcDbEntity
  8
0
100
AcDbPolyline
 62
7
  6
CONTINUOUS
 90
4
 70
0
 10
139.6371221288
 20
123.5000418807
 10
139.6546325493
 20
123.4985630537
 10
139.6727720533
 20
123.4939104695
 10
139.6912347668
 20
123.4861659676
  0
LWPOLYLINE
  5
454
100
AcDbEntity
  8
0
100
AcDbPolyline
 62
253
  6
CONTINUOUS
 90
12
 70
0
 10
127.5478042979
 20
127.1274951498
 10
127.5569024314
 20
127.1259313253
 10
127.5770436909
 20
127.1249730222
 10
127.597392457
 20
127.1273679248
 10
127.6176044084
 20
127.1330755081
 10
127.6373375385
 20
127.1419991927
 10
127.6562579433
 20
127.1539879795
 10
127.6740454723
 20
127.1688390055
 10
127.6903991446
 20
127.1863009766
 10
127.7050422412
 20
127.2060784191
 10
127.7177269873
 20
127.2278366788
 10
127.7282387457
 20
127.2512075849
  0
LINE
  5
455
100
AcDbEntity
  8
0
100
AcDbLine
 62
7
  6
CONTINUOUS
 10
128.1886206058
 20
126.9915577971
 11
127.5478042956
 21
127.1274951502
  0
LINE
  5
456
100
AcDbEntity
  8
0
100
AcDbLine
 62
253
  6
CONTINUOUS
 10
128.4650465499
 20
127.0949074079
 11
127.7282387457
 21
127.2512075849
  0
LWPOLYLINE
  5
457
100
AcDbEntity
  8
0
100
AcDbPolyline
 62
253
  6
CONTINUOUS
 90
22
 70
0
 10
127.7282387457
 20
127.2512075849
 10
127.7269584118
 20
127.2515099376
 10
127.7256875703
 20
127.2519146221
 10
127.7244262211
 20
127.2524216383
 10
127.7231664631
 20
127.2530271463
 10
127.7219161975
 20
127.253734986
 10
127.7206991278
 20
127.2545566778
 10
127.7195154385
 20
127.2554949035
 10
127.7183649452
 20
127.2565469812
 10
127.7172707979
 20
127.2577163859
 10
127.7162338684
 20
127.259006129
 10
127.7152532849
 20
127.2604131992
 10
127.7143495818
 20
127.2619320369
 10
127.7135243096
 20
127.2635656228
 10
127.7127759178
 20
127.2653109762
 10
127.7121202893
 20
127.2671535959
 10
127.711559526
 20
127.2690960506
 10
127.711091526
 20
127.2711357716
 10
127.7107258667
 20
127.2732505511
 10
127.7104657408
 20
127.2754329864
 10
127.7103079556
 20
127.2776904803
 10
127.7102525113
 20
127.2800230326
  0
LWPOLYLINE
  5
458
100
AcDbEntity
  8
0
100
AcDbPolyline
 62
7
  6
CONTINUOUS
 90
5
 70
0
 10
141.3966574586
 20
126.2382626697
 10
141.3584884898
 20
126.2494137372
 10
141.3186875326
 20
126.2573501716
 10
141.2772489242
 20
126.2620266046
 10
141.2361975874
 20
126.2632883583
  0
LWPOLYLINE
  5
459
100
AcDbEntity
  8
0
100
AcDbPolyline
 62
7
  6
CONTINUOUS
 90
8
 70
0
 10
127.7425657163
 20
130.04185887
 10
127.7213398109
 20
130.0494209034
 10
127.6993001054
 20
130.0548008411
 10
127.6766757931
 20
130.0579066596
 10
127.6536171672
 20
130.0586709849
 10
127.6303538719
 20
130.0570329354
 10
127.6072288331
 20
130.0529811167
 10
127.5845012947
 20
130.0465498869
  0
LWPOLYLINE
  5
45A
100
AcDbEntity
  8
0
100
AcDbPolyline
 62
253
  6
CONTINUOUS
 90
5
 70
0
 10
141.1563843119
 20
126.213917463
 10
141.1336567976
 20
126.2234547142
 10
141.1112542769
 20
126.2292269714
 10
141.0895474117
 20
126.2311387296
 10
141.0688953543
 20
126.2291583575
  0
LWPOLYLINE
  5
45B
100
AcDbEntity
  8
RACCORDO
100
AcDbPolyline
 62
7
  6
CONTINUOUS
 90
21
 70
0
 10
137.9218305803
 20
126.4786076222
 10
137.9100225955
 20
126.4840691319
 10
137.8982802106
 20
126.4890764516
 10
137.8866160986
 20
126.4936241884
 10
137.8750434257
 20
126.4977075588
 10
137.8635738977
 20
126.5013219426
 10
137.8522177942
 20
126.5044627647
 10
137.840987028
 20
126.5071262364
 10
137.8298935653
 20
126.5093092669
 10
137.8189475658
 20
126.5110088016
 10
137.808160287
 20
126.5122223875
 10
137.7975431799
 20
126.5129481829
 10
137.7871064425
 20
126.5131845713
 10
137.7768609474
 20
126.5129304961
 10
137.7668171227
 20
126.5121854559
 10
137.7569842215
 20
126.5109491858
 10
137.747371697
 20
126.5092218679
 10
137.7379899315
 20
126.5070043285
 10
137.7288491252
 20
126.5042979951
 10
137.7199594203
 20
126.5011052333
 10
137.711243611
 20
126.4973888682
  0
LWPOLYLINE
  5
45C
100
AcDbEntity
  8
RACCORDO
100
AcDbPolyline
 62
7
  6
CONTINUOUS
 90
80
 70
0
 10
138.8628220208
 20
126.6120953606
 10
138.8514189058
 20
126.6176374854
 10
138.8334775255
 20
126.6257409552
 10
138.8155789977
 20
126.6331331394
 10
138.7978345139
 20
126.6398386844
 10
138.7802575388
 20
126.6459204842
 10
138.7627690046
 20
126.6514623688
 10
138.7453989416
 20
126.656502159
 10
138.7281919491
 20
126.6610711438
 10
138.7110881964
 20
126.665223447
 10
138.6941064486
 20
126.6689866992
 10
138.6772684317
 20
126.6723855765
 10
138.6605187538
 20
126.675456324
 10
138.6438577601
 20
126.6782195541
 10
138.627307114
 20
126.6806905165
 10
138.6108443354
 20
126.6828892896
 10
138.5944662283
 20
126.6848306107
 10
138.5781896588
 20
126.6865255437
 10
138.5620235302
 20
126.6879853993
 10
138.545973159
 20
126.6892209955
 10
138.5300430909
 20
126.6902423846
 10
138.5142421101
 20
126.6910586937
 10
138.4985747487
 20
126.6916787673
 10
138.4830440701
 20
126.6921109357
 10
138.4676573084
 20
126.692362951
 10
138.4524182242
 20
126.6924422889
 10
138.4373290678
 20
126.6923560345
 10
138.4223952081
 20
126.6921109577
 10
138.4076181084
 20
126.691713501
 10
138.393001052
 20
126.6911698627
 10
138.3785523819
 20
126.6904862967
 10
138.3642692911
 20
126.6896683843
 10
138.3501582184
 20
126.6887219843
 10
138.3362414507
 20
126.6876542507
 10
138.3225196955
 20
126.6864709891
 10
138.3089946368
 20
126.6851779121
 10
138.2956899381
 20
126.6837830105
 10
138.2826121812
 20
126.6822929275
 10
138.2697558615
 20
126.6807128298
 10
138.2571264918
 20
126.6790490348
 10
138.2447323251
 20
126.6773082989
 10
138.2325652039
 20
126.6754950206
 10
138.2206063521
 20
126.6736114788
 10
138.2088563341
 20
126.6716625075
 10
138.1973143989
 20
126.6696526437
 10
138.1859604112
 20
126.667582699
 10
138.1747938134
 20
126.665456581
 10
138.1638149192
 20
126.6632782929
 10
138.1530055756
 20
126.6610479184
 10
138.1423641139
 20
126.6587685235
 10
138.1318920628
 20
126.6564438056
 10
138.1215767082
 20
126.6540741623
 10
138.1114175617
 20
126.6516625122
 10
138.1014150827
 20
126.6492119892
 10
138.0915585818
 20
126.6467228522
 10
138.0818478972
 20
126.6441978158
 10
138.0722833587
 20
126.6416397029
 10
138.0628556348
 20
126.6390486551
 10
138.0535638536
 20
126.6364269491
 10
138.0444093608
 20
126.6337774844
 10
138.0353867501
 20
126.6311011763
 10
138.0264960914
 20
126.6284004601
 10
138.0177380632
 20
126.6256779818
 10
138.0091087868
 20
126.6229349271
 10
138.0006083434
 20
126.6201737017
 10
137.992237779
 20
126.6173970172
 10
137.9839951889
 20
126.6146066418
 10
137.9758806385
 20
126.6118049542
 10
137.9678956256
 20
126.6089948872
 10
137.9600410827
 20
126.6061791808
 10
137.9523179014
 20
126.603360629
 10
137.9447272306
 20
126.6005421161
 10
137.9372708039
 20
126.5977268198
 10
137.9299511697
 20
126.594918248
 10
137.9227684579
 20
126.5921190538
 10
137.9157216144
 20
126.5893313973
 10
137.9088111332
 20
126.5865580624
 10
137.9020402982
 20
126.5838029711
 10
137.8954128749
 20
126.581070325
 10
137.8826057204
 20
126.5756905264
  0
LINE
  5
45D
100
AcDbEntity
  8
RACCORDO
100
AcDbLine
 62
253
  6
CONTINUOUS
 10
140.2808252834
 20
125.8551337876
 11
138.7758168338
 21
126.6076380124
  0
LINE
  5
45E
100
AcDbEntity
  8
RACCORDO
100
AcDbLine
 62
7
  6
CONTINUOUS
 10
140.3298105224
 20
125.878601122
 11
138.8627914103
 21
126.6121106781
  0
LINE
  5
45F
100
AcDbEntity
  8
0
100
AcDbLine
 62
7
  6
CONTINUOUS
 10
153.7851790623
 20
119.5096069418
 11
154.4697880327
 21
119.1673024566
  0
LINE
  5
460
100
AcDbEntity
  8
0
100
AcDbLine
 62
7
  6
CONTINUOUS
 10
142.0171955388
 20
125.6573569912
 11
141.6213402889
 21
125.8552846161
  0
LINE
  5
461
100
AcDbEntity
  8
0
100
AcDbLine
 62
7
  6
CONTINUOUS
 10
140.9655655651
 20
126.1831719781
 11
138.4182217919
 21
127.4568438646
  0
LINE
  5
462
100
AcDbEntity
  8
0
100
AcDbLine
 62
7
  6
CONTINUOUS
 10
155.4318200242
 20
119.455355287
 11
155.2388568588
 21
119.5518368697
  0
LINE
  5
463
100
AcDbEntity
  8
0
100
AcDbLine
 62
7
  6
CONTINUOUS
 10
155.6718695607
 20
119.7683432206
 11
155.8656911774
 21
119.6714324123
  0
LINE
  5
464
100
AcDbEntity
  8
0
100
AcDbLine
 62
7
  6
CONTINUOUS
 10
159.2264830433
 20
117.9910364794
 11
160.1393220356
 21
117.5346169832
  0
LINE
  5
465
100
AcDbEntity
  8
0
100
AcDbLine
 62
7
  6
CONTINUOUS
 10
143.0094424759
 20
126.1389884337
 11
139.0276795584
 21
128.1298698924
  0
LINE
  5
466
100
AcDbEntity
  8
0
100
AcDbLine
 62
7
  6
CONTINUOUS
 10
140.6829787856
 20
128.2712813384
 11
143.9993709754
 21
126.6130852435
  0
LINE
  5
467
100
AcDbEntity
  8
DRAFT
100
AcDbLine
 62
7
  6
CONTINUOUS
 10
148.5138993822
 20
124.3991223103
 11
148.9919365245
 21
124.1601037391
  0
LWPOLYLINE
  5
468
100
AcDbEntity
  8
0
100
AcDbPolyline
 62
253
  6
CONTINUOUS
 90
13
 70
0
 10
141.3390702341
 20
126.12415095
 10
141.3625117473
 20
126.1109465359
 10
141.3854996883
 20
126.0942391971
 10
141.4076408871
 20
126.074314631
 10
141.42855664
 20
126.0515135747
 10
141.4478892087
 20
126.026225956
 10
141.4653079333
 20
125.9988842179
 10
141.4805148703
 20
125.9699559429
 10
141.493249866
 20
125.9399359163
 10
141.503295041
 20
125.9093376421
 10
141.510478546
 20
125.8786844914
 10
141.5146774866
 20
125.8485007467
 10
141.5158200083
 20
125.8193026898
  0
LWPOLYLINE
  5
469
100
AcDbEntity
  8
ASSI
100
AcDbPolyline
 62
7
  6
CONTINUOUS
 90
12
 70
0
 10
162.0137986427
 20
119.4645319752
 10
162.0163657484
 20
119.437911317
 10
162.035932539
 20
119.3206537798
 10
162.0633095736
 20
119.2094846404
 10
162.0983684523
 20
119.1043038059
 10
162.1405264225
 20
119.0068596042
 10
162.1899021434
 20
118.9172813509
 10
162.2463769557
 20
118.8354397303
 10
162.3090121287
 20
118.7626951232
 10
162.3779106311
 20
118.6991995837
 10
162.4529694942
 20
118.6448010576
 10
162.5203536958
 20
118.6065540761
  0
LWPOLYLINE
  5
46A
100
AcDbEntity
  8
ASSI
100
AcDbPolyline
 62
7
  6
CONTINUOUS
 90
12
 70
0
 10
162.007838962
 20
123.8564603546
 10
162.0163657484
 20
123.7680383359
 10
162.035932539
 20
123.6507807987
 10
162.0633095736
 20
123.5396116593
 10
162.0983684523
 20
123.4344308248
 10
162.1405264225
 20
123.3369866231
 10
162.1899021434
 20
123.2474083698
 10
162.2463769557
 20
123.1655667492
 10
162.3090121287
 20
123.0928221421
 10
162.3779106311
 20
123.0293266026
 10
162.4529694942
 20
122.9749280765
 10
162.5203536958
 20
122.936681095
  0
LINE
  5
46B
100
AcDbEntity
  8
DRAFT
100
AcDbLine
 62
7
  6
CONTINUOUS
 10
164.1858277728
 20
131.1583615758
 11
164.1858277728
 21
131.1592942321
  0
LINE
  5
46C
100
AcDbEntity
  8
0
100
AcDbLine
 62
7
  6
CONTINUOUS
 10
165.1824557677
 20
126.2531028519
 11
165.1824557677
 21
123.3689586739
  0
LINE
  5
46D
100
AcDbEntity
  8
0
100
AcDbLine
 62
7
  6
CONTINUOUS
 10
165.1824557677
 20
121.922975833
 11
165.1824557677
 21
119.114269448
  0
LINE
  5
46E
100
AcDbEntity
  8
SMUSSO
100
AcDbLine
 62
7
  6
CONTINUOUS
 10
165.2372317035
 20
132.0900218602
 11
165.2372317035
 21
131.6942524386
  0
LWPOLYLINE
  5
46F
100
AcDbEntity
  8
RACCORDO
100
AcDbPolyline
 62
253
  6
CONTINUOUS
 90
28
 70
0
 10
167.7325228773
 20
98.1927793584
 10
167.751833555
 20
98.2104611357
 10
167.7706719243
 20
98.2288570531
 10
167.7890299671
 20
98.2479592475
 10
167.8068997469
 20
98.2677594793
 10
167.8242734737
 20
98.2882491429
 10
167.8411436674
 20
98.3094193792
 10
167.8575030086
 20
98.3312610108
 10
167.8733444074
 20
98.3537645917
 10
167.8886610646
 20
98.376920424
 10
167.903446347
 20
98.4007184886
 10
167.917693843
 20
98.4251484877
 10
167.9313974316
 20
98.4501998936
 10
167.9445511889
 20
98.4758618842
 10
167.9571494083
 20
98.5021233506
 10
167.9691866527
 20
98.5289729424
 10
167.9806577235
 20
98.5563990583
 10
167.9915576523
 20
98.5843898355
 10
168.0018817187
 20
98.6129331583
 10
168.0116254693
 20
98.6420166852
 10
168.0207846945
 20
98.6716278508
 10
168.0293554206
 20
98.7017538547
 10
168.0373339597
 20
98.7323816781
 10
168.044716871
 20
98.76349809
 10
168.0515009369
 20
98.79508965
 10
168.0576832273
 20
98.8271427135
 10
168.0632611034
 20
98.8596434361
 10
168.0682321757
 20
98.8925777815
  0
LWPOLYLINE
  5
470
100
AcDbEntity
  8
RACCORDO
100
AcDbPolyline
 62
253
  6
CONTINUOUS
 90
4
 70
0
 10
167.6718416534
 20
98.144093893
 10
167.6925182159
 20
98.1595885184
 10
167.7127482184
 20
98.1758193547
 10
167.7325228773
 20
98.1927793584
  0
LWPOLYLINE
  5
471
100
AcDbEntity
  8
RACCORDO
100
AcDbPolyline
 62
7
  6
CONTINUOUS
 90
33
 70
0
 10
167.7464199381
 20
98.1904637884
 10
167.7659746936
 20
98.2048997555
 10
167.793852312
 20
98.226419122
 10
167.8212408804
 20
98.2486917254
 10
167.8481125669
 20
98.2716993908
 10
167.8744557117
 20
98.2954364352
 10
167.900274026
 20
98.3199119655
 10
167.9255484009
 20
98.3451149116
 10
167.950259994
 20
98.3710334882
 10
167.9744112834
 20
98.397678916
 10
167.9979839417
 20
98.4250409791
 10
168.0209583002
 20
98.4531067022
 10
168.0433330359
 20
98.4818860167
 10
168.0650894028
 20
98.5113681884
 10
168.0862086334
 20
98.5415407197
 10
168.1066877106
 20
98.5724140176
 10
168.1265082447
 20
98.6039773935
 10
168.1456517491
 20
98.6362186385
 10
168.164113632
 20
98.6691489422
 10
168.1818772283
 20
98.702760526
 10
168.1989227563
 20
98.7370388797
 10
168.2152401833
 20
98.7719879973
 10
168.2308129416
 20
98.8075991141
 10
168.2456228331
 20
98.8438591013
 10
168.2596574771
 20
98.8807681289
 10
168.2729009507
 20
98.9183174191
 10
168.2853362291
 20
98.9564947207
 10
168.2969497856
 20
98.9952977434
 10
168.307725842
 20
99.0347163103
 10
168.3176487876
 20
99.0747408862
 10
168.3267056146
 20
99.1153730554
 10
168.3348814969
 20
99.1566081714
 10
168.3408923111
 20
99.1907161305
  0
LINE
  5
472
100
AcDbEntity
  8
RACCORDO
100
AcDbLine
 62
253
  6
CONTINUOUS
 10
167.63724106
 20
98.1190172904
 11
167.6718416534
 21
98.144093893
  0
LINE
  5
473
100
AcDbEntity
  8
RACCORDO
100
AcDbLine
 62
7
  6
CONTINUOUS
 10
167.711808654
 20
98.1653794232
 11
167.7464092474
 21
98.1904560258
  0
LWPOLYLINE
  5
474
100
AcDbEntity
  8
RACCORDO
100
AcDbPolyline
 62
7
  6
CONTINUOUS
 90
7
 70
0
 10
167.711808654
 20
98.1653794232
 10
167.6985436504
 20
98.1559294808
 10
167.68511786
 20
98.1466909864
 10
167.6715363797
 20
98.137668002
 10
167.6577986029
 20
98.1288607484
 10
167.6439160048
 20
98.1202770591
 10
167.6299121615
 20
98.1119310434
  0
LWPOLYLINE
  5
475
100
AcDbEntity
  8
0
100
AcDbPolyline
 62
7
  6
CONTINUOUS
 90
5
 70
0
 10
141.9041016311
 20
79.9856321272
 10
141.9125855703
 20
79.9909654482
 10
141.9247795825
 20
80.0018989033
 10
141.9350541172
 20
80.0155965298
 10
141.9432362494
 20
80.0318249658
  0
LWPOLYLINE
  5
476
100
AcDbEntity
  8
0
100
AcDbPolyline
 62
7
  6
CONTINUOUS
 90
4
 70
0
 10
139.2901369731
 20
80.291345092
 10
139.2277738603
 20
80.2540743787
 10
139.1988629528
 20
80.2360399423
 10
139.1224342091
 20
80.185727214
  0
LWPOLYLINE
  5
477
100
AcDbEntity
  8
0
100
AcDbPolyline
 62
253
  6
CONTINUOUS
 90
7
 70
0
 10
142.5122344162
 20
80.7763952484
 10
142.5289643525
 20
80.7862617516
 10
142.5430071934
 20
80.7971255163
 10
142.5541279431
 20
80.8088047766
 10
142.5621404957
 20
80.8211041187
 10
142.5669107497
 20
80.8338177498
 10
142.5683664494
 20
80.8458350685
  0
LWPOLYLINE
  5
478
100
AcDbEntity
  8
0
100
AcDbPolyline
 62
253
  6
CONTINUOUS
 90
7
 70
0
 10
142.5122344162
 20
80.4364516535
 10
142.5289646314
 20
80.4463183586
 10
142.5430076071
 20
80.4571823175
 10
142.5541283667
 20
80.4688617468
 10
142.56214083
 20
80.4811612184
 10
142.5669109269
 20
80.4938749291
 10
142.5683664562
 20
80.5059174906
  0
LWPOLYLINE
  5
479
100
AcDbEntity
  8
0
100
AcDbPolyline
 62
7
  6
CONTINUOUS
 90
3
 70
0
 10
142.4291067711
 20
80.2688846075
 10
142.4403711154
 20
80.2753514436
 10
142.4626662717
 20
80.2906914217
  0
LINE
  5
47A
100
AcDbEntity
  8
0
100
AcDbLine
 62
7
  6
CONTINUOUS
 10
142.1817869726
 20
81.7260951065
 11
142.1897497344
 21
81.7306494974
  0
LWPOLYLINE
  5
47B
100
AcDbEntity
  8
0
100
AcDbPolyline
 62
253
  6
CONTINUOUS
 90
28
 70
0
 10
142.4781024723
 20
80.375484647
 10
142.4797494542
 20
80.3764071373
 10
142.4814306531
 20
80.377467601
 10
142.483146069
 20
80.3786660381
 10
142.4849060761
 20
80.3800021498
 10
142.4867003003
 20
80.3814762349
 10
142.488497619
 20
80.3830891898
 10
142.490298979
 20
80.3848459503
 10
142.4921034336
 20
80.3867415805
 10
142.4938770202
 20
80.3887621698
 10
142.4956194145
 20
80.390912469
 10
142.4973309409
 20
80.3931877273
 10
142.4989786092
 20
80.3955597817
 10
142.5005601932
 20
80.3980311522
 10
142.5020779192
 20
80.4005993188
 10
142.503505476
 20
80.4032285582
 10
142.5048396921
 20
80.4059180796
 10
142.506083739
 20
80.4086686739
 10
142.5072208198
 20
80.4114469894
 10
142.508248999
 20
80.4142525206
 10
142.5091702121
 20
80.4170857731
 10
142.5099734692
 20
80.4199149127
 10
142.510657312
 20
80.4227399966
 10
142.5112231987
 20
80.4255609676
 10
142.511664514
 20
80.4283458195
 10
142.5119790528
 20
80.4310838833
 10
142.5121690202
 20
80.433785828
 10
142.5122344162
 20
80.4364516535
  0
LINE
  5
47C
100
AcDbEntity
  8
0
100
AcDbLine
 62
253
  6
CONTINUOUS
 10
142.3075513963
 20
81.9943629673
 11
143.0023155827
 21
82.3692041849
  0
LINE
  5
47D
100
AcDbEntity
  8
0
100
AcDbLine
 62
7
  6
CONTINUOUS
 10
142.1818114139
 20
81.7261085096
 11
142.8776386829
 21
82.1015232846
  0
LINE
  5
47E
100
AcDbEntity
  8
0
100
AcDbLine
 62
253
  6
CONTINUOUS
 10
141.9539980057
 20
80.0927182635
 11
142.4781024723
 21
80.375484647
  0
LINE
  5
47F
100
AcDbEntity
  8
0
100
AcDbLine
 62
7
  6
CONTINUOUS
 10
141.9041450655
 20
79.9856555175
 11
142.4291992762
 21
80.2689343098
  0
LINE
  5
480
100
AcDbEntity
  8
0
100
AcDbLine
 62
7
  6
CONTINUOUS
 10
141.8999351945
 20
79.9835486227
 11
141.9041016311
 21
79.9856321272
  0
LWPOLYLINE
  5
481
100
AcDbEntity
  8
0
100
AcDbPolyline
 62
253
  6
CONTINUOUS
 90
16
 70
0
 10
136.6335504013
 20
80.2064977364
 10
136.5962453754
 20
80.1886343554
 10
136.5559650608
 20
80.1727024616
 10
136.5131000044
 20
80.158856526
 10
136.468065814
 20
80.1472307952
 10
136.4212991284
 20
80.1379379889
 10
136.3732533846
 20
80.1310682075
 10
136.3243944208
 20
80.1266880587
 10
136.2751959599
 20
80.1248400111
 10
136.2261350166
 20
80.1255419828
 10
136.1776872723
 20
80.1287871678
 10
136.1303224627
 20
80.1345441017
 10
136.084499824
 20
80.1427569665
 10
136.0406636398
 20
80.1533461324
 10
135.9992389336
 20
80.16620893
 10
135.9606273478
 20
80.1812206451
  0
LINE
  5
482
100
AcDbEntity
  8
0
100
AcDbLine
 62
7
  6
CONTINUOUS
 10
142.1640376361
 20
81.7176718958
 11
142.1817869726
 21
81.7260951065
  0
LINE
  5
483
100
AcDbEntity
  8
0
100
AcDbLine
 62
253
  6
CONTINUOUS
 10
137.1164465316
 20
79.8560364845
 11
142.3075513963
 21
81.9944291208
  0
LINE
  5
484
100
AcDbEntity
  8
0
100
AcDbLine
 62
7
  6
CONTINUOUS
 10
142.1639875045
 20
81.7176512423
 11
136.9624971432
 21
79.5749806165
  0
LWPOLYLINE
  5
485
100
AcDbEntity
  8
0
100
AcDbPolyline
 62
7
  6
CONTINUOUS
 90
4
 70
0
 10
144.6574352633
 20
126.904962657
 10
144.598547916
 20
126.8899695013
 10
144.539490797
 20
126.8694528686
 10
144.485922243
 20
126.8460874308
  0
LWPOLYLINE
  5
486
100
AcDbEntity
  8
0
100
AcDbPolyline
 62
7
  6
CONTINUOUS
 90
5
 70
0
 10
141.2361975874
 20
126.2632883583
 10
141.1954803167
 20
126.2612623711
 10
141.1548868115
 20
126.2558867082
 10
141.1162180394
 20
126.2473599413
 10
141.0798658289
 20
126.2359080385
  0
LWPOLYLINE
  5
487
100
AcDbEntity
  8
0
100
AcDbPolyline
 62
7
  6
CONTINUOUS
 90
5
 70
0
 10
135.1292171596
 20
125.3154551842
 10
135.1466431332
 20
125.3149202178
 10
135.1645329978
 20
125.3118188176
 10
135.1827519132
 20
125.3062210644
 10
135.2011013214
 20
125.2982199884
  0
LWPOLYLINE
  5
488
100
AcDbEntity
  8
0
100
AcDbPolyline
 62
7
  6
CONTINUOUS
 90
5
 70
0
 10
131.4169065584
 20
127.1716104849
 10
131.434332532
 20
127.1710755185
 10
131.4522223966
 20
127.1679741182
 10
131.4704413119
 20
127.162376365
 10
131.4887907202
 20
127.154375289
  0
LWPOLYLINE
  5
489
100
AcDbEntity
  8
0
100
AcDbPolyline
 62
7
  6
CONTINUOUS
 90
5
 70
0
 10
135.7824775348
 20
129.0461870356
 10
135.7443389337
 20
129.0578780263
 10
135.7044784826
 20
129.0663265112
 10
135.6628973361
 20
129.0714844627
 10
135.6216045749
 20
129.0731821151
  0
LWPOLYLINE
  5
48A
100
AcDbEntity
  8
0
100
AcDbPolyline
 62
253
  6
CONTINUOUS
 90
10
 70
0
 10
140.3383706738
 20
129.207714098
 10
140.2953396456
 20
129.2260412407
 10
140.2510058267
 20
129.2389243903
 10
140.2047453089
 20
129.2467250415
 10
140.1568101954
 20
129.2494011934
 10
140.107460269
 20
129.2469394977
 10
140.0569677503
 20
129.2393522144
 10
140.0056089434
 20
129.2266807329
 10
139.9536627528
 20
129.2089954223
 10
139.9014127629
 20
129.1863932835
  0
LWPOLYLINE
  5
48B
100
AcDbEntity
  8
0
100
AcDbPolyline
 62
7
  6
CONTINUOUS
 90
8
 70
0
 10
145.0305615316
 20
126.8616159811
 10
144.9877989306
 20
126.8807470017
 10
144.9375912381
 20
126.8977035307
 10
144.884807832
 20
126.9098183004
 10
144.8298866565
 20
126.9167758379
 10
144.7734608475
 20
126.9183425453
 10
144.7158832597
 20
126.9144211636
 10
144.6574352633
 20
126.904962657
  0
LWPOLYLINE
  5
48C
100
AcDbEntity
  8
ASSI
100
AcDbPolyline
 62
7
  6
CONTINUOUS
 90
11
 70
0
 10
162.5203536958
 20
118.6065540761
 10
162.5329410809
 20
118.6004037635
 10
162.6179075062
 20
118.5661748693
 10
162.7077866552
 20
118.541947207
 10
162.8010845464
 20
118.5281234916
 10
162.8978583232
 20
118.5248776223
 10
162.9980508422
 20
118.5320356999
 10
163.099996692
 20
118.549478742
 10
163.2031407355
 20
118.577167088
 10
163.3080381097
 20
118.6151403984
 10
163.4146888147
 20
118.6633986735
  0
LWPOLYLINE
  5
48D
100
AcDbEntity
  8
SMUSSO
100
AcDbPolyline
 62
7
  6
CONTINUOUS
 90
31
 70
0
 10
163.1562108225
 20
117.6464878546
 10
163.1637961851
 20
117.642748068
 10
163.1906205679
 20
117.6303452286
 10
163.2179146256
 20
117.6189884
 10
163.2456779336
 20
117.6086797545
 10
163.2739109164
 20
117.5994171197
 10
163.3025692479
 20
117.5912151022
 10
163.3316549603
 20
117.5840750942
 10
163.3611660214
 20
117.5779957035
 10
163.3910520084
 20
117.5729873603
 10
163.4213121072
 20
117.5690520309
 10
163.451947132
 20
117.5661877491
 10
163.4829091021
 20
117.5643990457
 10
163.5142000323
 20
117.5636876227
 10
163.5458179078
 20
117.5640517781
 10
163.577708704
 20
117.5654909374
 10
163.6098714142
 20
117.5680067837
 10
163.6423070451
 20
117.5715976337
 10
163.6749645926
 20
117.5762578637
 10
163.7078457807
 20
117.5819894282
 10
163.7409488855
 20
117.5887903725
 10
163.7742177314
 20
117.5966492093
 10
163.8076514239
 20
117.6055674049
 10
163.8412508575
 20
117.6155434929
 10
163.8749625405
 20
117.626561587
 10
163.9087875363
 20
117.6386236668
 10
163.9427247815
 20
117.6517277527
 10
163.9767175937
 20
117.6658520194
 10
164.0107470788
 20
117.6809891919
 10
164.044832131
 20
117.6971465452
 10
164.0789727502
 20
117.7143240794
  0
LINE
  5
48E
100
AcDbEntity
  8
0
100
AcDbLine
 62
253
  6
CONTINUOUS
 10
137.0828211695
 20
130.5956890802
 11
139.9014127629
 21
129.1863932835
  0
LINE
  5
48F
100
AcDbEntity
  8
0
100
AcDbLine
 62
253
  6
CONTINUOUS
 10
144.5969501033
 20
126.8386246134
 11
147.4155416967
 21
125.4293288167
  0
LINE
  5
490
100
AcDbEntity
  8
0
100
AcDbLine
 62
7
  6
CONTINUOUS
 10
145.0297367112
 20
126.8620310793
 11
148.0053654012
 21
125.3742167343
  0
LINE
  5
491
100
AcDbEntity
  8
SMUSSO
100
AcDbLine
 62
7
  6
CONTINUOUS
 10
161.9916719708
 20
118.4571269178
 11
162.052568474
 21
118.4266786663
  0
LINE
  5
492
100
AcDbEntity
  8
DRAFT
100
AcDbLine
 62
253
  6
CONTINUOUS
 10
164.0789727502
 20
117.7143240794
 11
163.3225804611
 21
118.092520224
  0
LINE
  5
493
100
AcDbEntity
  8
0
100
AcDbLine
 62
7
  6
CONTINUOUS
 10
167.6839392852
 20
116.4198574192
 11
167.7264847289
 21
116.3985846973
  0
LINE
  5
494
100
AcDbEntity
  8
0
100
AcDbLine
 62
7
  6
CONTINUOUS
 10
140.3386519306
 20
129.2075733252
 11
137.3627432261
 21
130.6955278218
  0
LWPOLYLINE
  5
495
100
AcDbEntity
  8
SMUSSO
100
AcDbPolyline
 62
7
  6
CONTINUOUS
 90
10
 70
0
 10
162.8656977538
 20
117.894689152
 10
162.7810101154
 20
117.9480490544
 10
162.6949023826
 20
118.0028366323
 10
162.6073745554
 20
118.0590518858
 10
162.5184198612
 20
118.1166817008
 10
162.4280450727
 20
118.1757391914
 10
162.3362705079
 20
118.2362636991
 10
162.2431029395
 20
118.2982683377
 10
162.1485355949
 20
118.3617399934
 10
162.052568474
 20
118.4266786663
  0
LINE
  5
496
100
AcDbEntity
  8
RACCORDO
100
AcDbLine
 62
7
  6
CONTINUOUS
 10
158.1628569483
 20
135.6423257574
 11
158.1661638916
 21
135.6255557662
  0
LINE
  5
497
100
AcDbEntity
  8
0
100
AcDbLine
 62
7
  6
CONTINUOUS
 10
166.9148673816
 20
120.008687365
 11
166.9148673816
 21
122.8199582041
  0
LINE
  5
498
100
AcDbEntity
  8
0
100
AcDbLine
 62
7
  6
CONTINUOUS
 10
166.9148673816
 20
124.3388143839
 11
166.9148673816
 21
127.150085223
  0
LINE
  5
499
100
AcDbEntity
  8
DRAFT
100
AcDbLine
 62
7
  6
CONTINUOUS
 10
167.7264847289
 20
117.2954626288
 11
167.7264847289
 21
116.4418859675
  0
LINE
  5
49A
100
AcDbEntity
  8
0
100
AcDbLine
 62
7
  6
CONTINUOUS
 10
167.7264847289
 20
117.0481037502
 11
167.7264847289
 21
116.3985846973
  0
LINE
  5
49B
100
AcDbEntity
  8
RACCORDO
100
AcDbLine
 62
7
  6
CONTINUOUS
 10
167.7264847289
 20
99.5543905937
 11
167.7264847289
 21
98.972196573
  0
LINE
  5
49C
100
AcDbEntity
  8
0
100
AcDbLine
 62
7
  6
CONTINUOUS
 10
167.7264847289
 20
98.9481728111
 11
167.7264847289
 21
99.5976918639
  0
LINE
  5
49D
100
AcDbEntity
  8
0
100
AcDbLine
 62
7
  6
CONTINUOUS
 10
167.9755275534
 20
120.5390174509
 11
167.9755275534
 21
123.3691310843
  0
LINE
  5
49E
100
AcDbEntity
  8
0
100
AcDbLine
 62
7
  6
CONTINUOUS
 10
167.9755275534
 20
124.8691444698
 11
167.9755275534
 21
127.6992581033
  0
LINE
  5
49F
100
AcDbEntity
  8
0
100
AcDbLine
 62
253
  6
CONTINUOUS
 10
140.3320978791
 20
79.343671037
 11
141.9539980057
 21
80.0927182635
  0
LINE
  5
4A0
100
AcDbEntity
  8
0
100
AcDbLine
 62
7
  6
CONTINUOUS
 10
141.8998793888
 20
79.9835228498
 11
140.2767963379
 21
79.2339297658
  0
LWPOLYLINE
  5
4A1
100
AcDbEntity
  8
0
100
AcDbPolyline
 62
253
  6
CONTINUOUS
 90
13
 70
0
 10
140.2967532164
 20
79.6871685406
 10
140.2770198062
 20
79.6788034331
 10
140.2552918885
 20
79.6717819452
 10
140.2319330298
 20
79.6662215654
 10
140.2073340866
 20
79.6622153337
 10
140.1819066654
 20
79.6598302853
 10
140.1560762352
 20
79.6591063284
 10
140.1302750088
 20
79.6600555766
 10
140.1049347099
 20
79.6626621467
 10
140.08047935
 20
79.6668824235
 10
140.057318133
 20
79.6726457906
 10
140.0358386082
 20
79.6798558113
 10
140.0164001861
 20
79.6883918425
  0
LWPOLYLINE
  5
4A2
100
AcDbEntity
  8
0
100
AcDbPolyline
 62
253
  6
CONTINUOUS
 90
13
 70
0
 10
140.2967532164
 20
79.3698997403
 10
140.2770198152
 20
79.361534636
 10
140.2552919062
 20
79.3545131498
 10
140.2319330551
 20
79.3489527701
 10
140.2073341178
 20
79.3449465374
 10
140.1819067003
 20
79.3425614871
 10
140.1560762713
 20
79.3418375279
 10
140.1302750431
 20
79.342786774
 10
140.1049347401
 20
79.3453933422
 10
140.0804793741
 20
79.3496136181
 10
140.0573181495
 20
79.3553769854
 10
140.0358386166
 20
79.3625870077
 10
140.0164001861
 20
79.3711230422
  0
LINE
  5
4A3
100
AcDbEntity
  8
0
100
AcDbLine
 62
7
  6
CONTINUOUS
 10
140.6093720372
 20
128.2101098846
 11
139.0276795584
 21
128.1298698924
  0
LWPOLYLINE
  5
4A4
100
AcDbEntity
  8
0
100
AcDbPolyline
 62
7
  6
CONTINUOUS
 90
5
 70
0
 10
135.6216045749
 20
129.0731821151
 10
135.5805266646
 20
129.0715426633
 10
135.539470551
 20
129.0664990986
 10
135.5002849716
 20
129.0582313878
 10
135.4633670525
 20
129.0469532958
  0
LWPOLYLINE
  5
4A5
100
AcDbEntity
  8
SMUSSO
100
AcDbPolyline
 62
7
  6
CONTINUOUS
 90
32
 70
0
 10
163.1562223391
 20
121.9766087018
 10
163.1728700081
 20
121.9685363271
 10
163.1986307778
 20
121.9570102172
 10
163.2248441028
 20
121.9464284529
 10
163.2514694514
 20
121.9368074291
 10
163.2785064645
 20
121.9281489032
 10
163.3059555012
 20
121.9204511177
 10
163.3337771073
 20
121.9137251957
 10
163.361972952
 20
121.9079723528
 10
163.3905413661
 20
121.9031913733
 10
163.4194378879
 20
121.8993897336
 10
163.4486617989
 20
121.8965690329
 10
163.4782138176
 20
121.894727672
 10
163.5080516378
 20
121.8938683292
 10
163.5381769563
 20
121.8939924587
 10
163.5685880763
 20
121.8950986064
 10
163.5992376014
 20
121.8971850881
 10
163.6301246252
 20
121.900253272
 10
163.6612500541
 20
121.9043017899
 10
163.6925692097
 20
121.9093248534
 10
163.7240835739
 20
121.9153241189
 10
163.755791665
 20
121.9222979299
 10
163.7876443591
 20
121.9302355284
 10
163.8196408443
 20
121.9391381061
 10
163.8517819325
 20
121.9490044712
 10
163.8840209357
 20
121.9598202907
 10
163.916358774
 20
121.9715872308
 10
163.9487945272
 20
121.9843036252
 10
163.9812787464
 20
121.9979501423
 10
164.0137949484
 20
122.0125203383
 10
164.0463596164
 20
122.028020657
 10
164.0789727502
 20
122.0444510984
  0
LWPOLYLINE
  5
4A6
100
AcDbEntity
  8
ASSI
100
AcDbPolyline
 62
7
  6
CONTINUOUS
 90
11
 70
0
 10
162.5203536958
 20
122.936681095
 10
162.5329410809
 20
122.9305307825
 10
162.6179075062
 20
122.8963018882
 10
162.7077866552
 20
122.8720742259
 10
162.8010845464
 20
122.8582505105
 10
162.8978583232
 20
122.8550046412
 10
162.9980508422
 20
122.8621627188
 10
163.099996692
 20
122.879605761
 10
163.2031407355
 20
122.9072941069
 10
163.3080381097
 20
122.9452674174
 10
163.4146888147
 20
122.9935256924
  0
LINE
  5
4A7
100
AcDbEntity
  8
DRAFT
100
AcDbLine
 62
7
  6
CONTINUOUS
 10
165.972332961
 20
119.4407240907
 11
165.1824557677
 21
119.8356626874
  0
LINE
  5
4A8
100
AcDbEntity
  8
DRAFT
100
AcDbLine
 62
7
  6
CONTINUOUS
 10
167.0024942185
 20
119.9648739465
 11
166.9148673816
 21
120.008687365
  0
LINE
  5
4A9
100
AcDbEntity
  8
SMUSSO
100
AcDbLine
 62
7
  6
CONTINUOUS
 10
162.0179229146
 20
122.7353755636
 11
162.0785882772
 21
122.7050428823
  0
LINE
  5
4AA
100
AcDbEntity
  8
DRAFT
100
AcDbLine
 62
253
  6
CONTINUOUS
 10
164.0789727502
 20
122.0444510984
 11
163.3225804611
 21
122.4226472429
  0
LINE
  5
4AB
100
AcDbEntity
  8
RACCORDO
100
AcDbLine
 62
7
  6
CONTINUOUS
 10
168.0737591099
 20
120.4899016726
 11
167.9755275534
 21
120.5390174509
  0
LWPOLYLINE
  5
4AC
100
AcDbEntity
  8
SMUSSO
100
AcDbPolyline
 62
7
  6
CONTINUOUS
 90
10
 70
0
 10
162.9024023759
 20
122.1784693648
 10
162.8170181729
 20
122.2308673129
 10
162.7301158984
 20
122.2847656335
 10
162.6416955525
 20
122.3401643267
 10
162.5517832721
 20
122.3970271491
 10
162.4603529202
 20
122.4553903441
 10
162.3673260858
 20
122.5153626419
 10
162.2726766321
 20
122.5769802859
 10
162.1764306959
 20
122.6402070327
 10
162.0785882772
 20
122.7050428823
  0
LWPOLYLINE
  5
4AD
100
AcDbEntity
  8
SMUSSO
100
AcDbPolyline
 62
7
  6
CONTINUOUS
 90
14
 70
0
 10
162.8656977538
 20
117.894689152
 10
162.8849907428
 20
117.8695706274
 10
162.9049136234
 20
117.8453870066
 10
162.9254663957
 20
117.8221382897
 10
162.94666068
 20
117.7998130616
 10
162.968484856
 20
117.7784227373
 10
162.9909040624
 20
117.7580015619
 10
163.0139199431
 20
117.7385505555
 10
163.0375308542
 20
117.720068698
 10
163.0616970024
 20
117.7025871746
 10
163.0864184442
 20
117.6861081961
 10
163.1116951232
 20
117.6706295517
 10
163.1374870771
 20
117.6561757946
 10
163.1562108225
 20
117.6464878546
  0
LINE
  5
4AE
100
AcDbEntity
  8
RACCORDO
100
AcDbLine
 62
7
  6
CONTINUOUS
 10
161.6983908543
 20
133.8745588045
 11
161.7016977976
 21
133.8577888132
  0
LWPOLYLINE
  5
4AF
100
AcDbEntity
  8
RACCORDO
100
AcDbPolyline
 62
7
  6
CONTINUOUS
 90
30
 70
0
 10
168.3666493515
 20
120.1363441339
 10
168.3663988947
 20
120.1475450748
 10
168.3654179767
 20
120.1611836415
 10
168.3636911693
 20
120.1747924191
 10
168.3612220264
 20
120.1883750203
 10
168.3580219927
 20
120.2018963357
 10
168.3540948174
 20
120.2153454036
 10
168.3494367514
 20
120.2287331857
 10
168.3440479911
 20
120.2420574576
 10
168.3379234534
 20
120.2553307095
 10
168.3310682216
 20
120.2685404514
 10
168.3234977414
 20
120.2816469883
 10
168.3152065978
 20
120.2946515518
 10
168.306200206
 20
120.3075529105
 10
168.2965102572
 20
120.3203076748
 10
168.2861382848
 20
120.3329096442
 10
168.2750827554
 20
120.3453650192
 10
168.2633707608
 20
120.3576490126
 10
168.2510094912
 20
120.369755583
 10
168.2379917563
 20
120.3816907718
 10
168.2243230769
 20
120.3934479162
 10
168.2099906901
 20
120.405037158
 10
168.1950073589
 20
120.4164483554
 10
168.1794168935
 20
120.4276444209
 10
168.1632136306
 20
120.4386251105
 10
168.1464032336
 20
120.4493906682
 10
168.129046503
 20
120.4599047388
 10
168.1111637056
 20
120.4701552039
 10
168.0927345745
 20
120.4801541818
 10
168.0737591099
 20
120.4899016726
  0
LWPOLYLINE
  5
4B0
100
AcDbEntity
  8
RACCORDO
100
AcDbPolyline
 62
7
  6
CONTINUOUS
 90
30
 70
0
 10
168.3666493515
 20
124.4664711528
 10
168.3663988947
 20
124.4776720938
 10
168.3654179767
 20
124.4913106604
 10
168.3636911693
 20
124.5049194381
 10
168.3612220264
 20
124.5185020393
 10
168.3580219927
 20
124.5320233546
 10
168.3540948174
 20
124.5454724225
 10
168.3494367514
 20
124.5588602046
 10
168.3440479911
 20
124.5721844765
 10
168.3379234534
 20
124.5854577285
 10
168.3310682216
 20
124.5986674703
 10
168.3234977414
 20
124.6117740072
 10
168.3152065978
 20
124.6247785708
 10
168.306200206
 20
124.6376799294
 10
168.2965102572
 20
124.6504346938
 10
168.2861382848
 20
124.6630366631
 10
168.2750827554
 20
124.6754920381
 10
168.2633707608
 20
124.6877760315
 10
168.2510094912
 20
124.6998826019
 10
168.2379917563
 20
124.7118177907
 10
168.2243230769
 20
124.7235749351
 10
168.2099906901
 20
124.7351641769
 10
168.1950073589
 20
124.7465753743
 10
168.1794168935
 20
124.7577714399
 10
168.1632136306
 20
124.7687521294
 10
168.1464032336
 20
124.7795176872
 10
168.129046503
 20
124.7900317578
 10
168.1111637056
 20
124.8002822228
 10
168.0927345745
 20
124.8102812007
 10
168.0737591099
 20
124.8200286915
  0
LWPOLYLINE
  5
4B1
100
AcDbEntity
  8
RACCORDO
100
AcDbPolyline
 62
7
  6
CONTINUOUS
 90
28
 70
0
 10
168.3666523196
 20
129.6786630723
 10
168.3662860204
 20
129.7176051049
 10
168.3648697739
 20
129.7648131649
 10
168.3623985795
 20
129.81209139
 10
168.3588812208
 20
129.8594482554
 10
168.3543278424
 20
129.9068559164
 10
168.3487543354
 20
129.9542453987
 10
168.3421717566
 20
130.0016080877
 10
168.3345899467
 20
130.0489334899
 10
168.3260305989
 20
130.0961465046
 10
168.3165054832
 20
130.1432377327
 10
168.3060254099
 20
130.1901986128
 10
168.2946169192
 20
130.2369532661
 10
168.2822952192
 20
130.2834836659
 10
168.2690697179
 20
130.3297902205
 10
168.2549638524
 20
130.3758227745
 10
168.2399932688
 20
130.4215619213
 10
168.2241655618
 20
130.467009294
 10
168.2074951934
 20
130.5121443565
 10
168.1899920208
 20
130.5569568634
 10
168.1716646868
 20
130.6014380844
 10
168.1525254669
 20
130.6455679531
 10
168.1325826383
 20
130.6893353313
 10
168.1118428226
 20
130.7327303421
 10
168.0903158243
 20
130.7757346985
 10
168.0680080574
 20
130.8183360684
 10
168.044923307
 20
130.8605251466
 10
168.0246848784
 20
130.8960679926
  0
LWPOLYLINE
  5
4B2
100
AcDbEntity
  8
0
100
AcDbPolyline
 62
7
  6
CONTINUOUS
 90
5
 70
0
 10
168.3666505562
 20
117.5816171743
 10
168.3666142518
 20
117.5859366086
 10
168.3620791067
 20
117.6289024723
 10
168.350138602
 20
117.6718360233
 10
168.3333596506
 20
117.7087258224
  0
LWPOLYLINE
  5
4B3
100
AcDbEntity
  8
RACCORDO
100
AcDbPolyline
 62
253
  6
CONTINUOUS
 90
37
 70
0
 10
168.085992129
 20
129.3313360331
 10
168.085762202
 20
129.3693381802
 10
168.0848537233
 20
129.4076556552
 10
168.0832670821
 20
129.4462702002
 10
168.0810029569
 20
129.4851633577
 10
168.078062425
 20
129.5243166584
 10
168.0744469551
 20
129.563711632
 10
168.0701582293
 20
129.6033295843
 10
168.0651982507
 20
129.6431515815
 10
168.0595694517
 20
129.6831586388
 10
168.0532744996
 20
129.7233316772
 10
168.0463163527
 20
129.7636515982
 10
168.0386983614
 20
129.8040992705
 10
168.0304241404
 20
129.8446554442
 10
168.0214976021
 20
129.8853008101
 10
168.0119230137
 20
129.9260160735
 10
168.0017049244
 20
129.9667818777
 10
167.9908481822
 20
130.0075788026
 10
167.9793579659
 20
130.0483874242
 10
167.9672397498
 20
130.0891883299
 10
167.9544992922
 20
130.1299621032
 10
167.941142652
 20
130.1706893224
 10
167.9271762068
 20
130.2113506022
 10
167.9126065988
 20
130.2519266132
 10
167.8974407226
 20
130.2923980666
 10
167.8816858183
 20
130.3327457188
 10
167.8653493919
 20
130.3729503781
 10
167.8484391589
 20
130.4129929234
 10
167.8309631829
 20
130.4528543529
 10
167.8129298093
 20
130.492515676
 10
167.7943475866
 20
130.5319579204
 10
167.7752254294
 20
130.5711622781
 10
167.7555724368
 20
130.6101101751
 10
167.735397821
 20
130.6487831605
 10
167.7147111592
 20
130.687162873
 10
167.6935223947
 20
130.7252310523
 10
167.6718416534
 20
130.7629696077
  0
LINE
  5
4B4
100
AcDbEntity
  8
RACCORDO
100
AcDbLine
 62
253
  6
CONTINUOUS
 10
168.085992129
 20
124.1191461157
 11
168.085992129
 21
123.4263257927
  0
LINE
  5
4B5
100
AcDbEntity
  8
RACCORDO
100
AcDbLine
 62
253
  6
CONTINUOUS
 10
168.085992129
 20
119.7890190968
 11
168.085992129
 21
117.4855137787
  0
LINE
  5
4B6
100
AcDbEntity
  8
0
100
AcDbLine
 62
253
  6
CONTINUOUS
 10
168.085992129
 20
117.2342441556
 11
168.085992129
 21
99.1343132165
  0
LINE
  5
4B7
100
AcDbEntity
  8
RACCORDO
100
AcDbLine
 62
253
  6
CONTINUOUS
 10
168.085992129
 20
127.7564528116
 11
168.085992129
 21
129.3313360331
  0
LINE
  5
4B8
100
AcDbEntity
  8
RACCORDO
100
AcDbLine
 62
7
  6
CONTINUOUS
 10
168.3666523287
 20
124.4664753009
 11
168.3666523287
 21
123.7736549779
  0
LINE
  5
4B9
100
AcDbEntity
  8
RACCORDO
100
AcDbLine
 62
7
  6
CONTINUOUS
 10
168.3666523287
 20
120.136348282
 11
168.3666523287
 21
117.8380508541
  0
LINE
  5
4BA
100
AcDbEntity
  8
SUPERFICI
100
AcDbLine
 62
7
  6
CONTINUOUS
 10
168.3666523287
 20
99.4816424018
 11
168.3666523287
 21
117.5815733409
  0
LINE
  5
4BB
100
AcDbEntity
  8
RACCORDO
100
AcDbLine
 62
7
  6
CONTINUOUS
 10
168.3666523287
 20
128.1037819968
 11
168.3666523287
 21
129.6786652184
  0
LWPOLYLINE
  5
4BC
100
AcDbEntity
  8
RACCORDO
100
AcDbPolyline
 62
7
  6
CONTINUOUS
 90
30
 70
0
 10
168.3666493541
 20
128.1037779351
 10
168.3666374505
 20
128.101310901
 10
168.3661327335
 20
128.087665852
 10
168.3648812009
 20
128.0740440785
 10
168.3628865322
 20
128.0604419997
 10
168.3601589448
 20
128.0468948196
 10
168.3567018049
 20
128.0334135307
 10
168.3525117463
 20
128.0199871405
 10
168.347588888
 20
128.0066178745
 10
168.3419285835
 20
127.9932932001
 10
168.3355354793
 20
127.9800256501
 10
168.3284236334
 20
127.9668550478
 10
168.3205876744
 20
127.9537801147
 10
168.3120329738
 20
127.9408021294
 10
168.3027897035
 20
127.9279647512
 10
168.2928591802
 20
127.9152741932
 10
168.2822400872
 20
127.9027242424
 10
168.2709586469
 20
127.8903399187
 10
168.2590218375
 20
127.8781273253
 10
168.2464226807
 20
127.8660803589
 10
168.2331664641
 20
127.8542057294
 10
168.2192407805
 20
127.8424931854
 10
168.204658037
 20
127.8309529784
 10
168.1894607427
 20
127.8196225725
 10
168.1736432266
 20
127.8085021624
 10
168.1572111597
 20
127.7975915533
 10
168.1402240642
 20
127.7869276257
 10
168.122701781
 20
127.776522673
 10
168.1046244693
 20
127.7663644016
 10
168.085992129
 20
127.7564528116
  0
LWPOLYLINE
  5
4BD
100
AcDbEntity
  8
RACCORDO
100
AcDbPolyline
 62
7
  6
CONTINUOUS
 90
30
 70
0
 10
168.3666493515
 20
123.7736508298
 10
168.3666374773
 20
123.7711870277
 10
168.3661329412
 20
123.7575420548
 10
168.3648816281
 20
123.7439204864
 10
168.3628871963
 20
123.7303186882
 10
168.3601598389
 20
123.7167717046
 10
168.3567029286
 20
123.7032904771
 10
168.3525130926
 20
123.6898640642
 10
168.3475904054
 20
123.6764946855
 10
168.3419301733
 20
123.6631697418
 10
168.33553709
 20
123.6499018323
 10
168.3284253107
 20
123.6367309743
 10
168.3205894927
 20
123.62365597
 10
168.3120349787
 20
123.6106780172
 10
168.3027919531
 20
123.5978407268
 10
168.2928617847
 20
123.5851503482
 10
168.2822431047
 20
123.5726006321
 10
168.2709619906
 20
123.5602164414
 10
168.2590254008
 20
123.5480038323
 10
168.246426377
 20
123.5359567486
 10
168.2331701214
 20
123.5240818849
 10
168.2192441272
 20
123.5123689226
 10
168.2046609012
 20
123.5008281802
 10
168.1894631665
 20
123.4894973082
 10
168.1736453639
 20
123.4783765922
 10
168.1572130526
 20
123.4674657466
 10
168.1402256334
 20
123.4568015645
 10
168.1227029065
 20
123.4463963104
 10
168.1046250717
 20
123.4362377198
 10
168.085992129
 20
123.4263257927
  0
LWPOLYLINE
  5
4BE
100
AcDbEntity
  8
RACCORDO
100
AcDbPolyline
 62
7
  6
CONTINUOUS
 90
12
 70
0
 10
168.3408904652
 20
99.1907162155
 10
168.3428065946
 20
99.2046097081
 10
168.3439073391
 20
99.2181232639
 10
168.3442586097
 20
99.2316769575
 10
168.3438633575
 20
99.245266444
 10
168.3427179315
 20
99.2588490214
 10
168.3408188968
 20
99.2724220351
 10
168.3381696884
 20
99.2859881397
 10
168.3347769602
 20
99.2995125967
 10
168.3306451205
 20
99.3129835266
 10
168.325769761
 20
99.326412809
 10
168.3219613786
 20
99.3354767334
  0
LINE
  5
4BF
100
AcDbEntity
  8
0
100
AcDbLine
 62
7
  6
CONTINUOUS
 10
157.1852330734
 20
127.6719155022
 11
157.2054176653
 21
127.6618232062
  0
LINE
  5
4C0
100
AcDbEntity
  8
DRAFT
100
AcDbLine
 62
7
  6
CONTINUOUS
 10
167.0024942185
 20
124.2950009654
 11
166.9148673816
 21
124.3388143839
  0
LWPOLYLINE
  5
4C1
100
AcDbEntity
  8
SMUSSO
100
AcDbPolyline
 62
7
  6
CONTINUOUS
 90
13
 70
0
 10
162.9024023759
 20
122.1784693648
 10
162.9219800781
 20
122.1560963779
 10
162.9421141621
 20
122.1345956819
 10
162.9628046279
 20
122.1139672769
 10
162.9840621376
 20
122.0942019268
 10
163.0058760291
 20
122.0753088676
 10
163.0282143161
 20
122.057315808
 10
163.0510782755
 20
122.0402237076
 10
163.0744666304
 20
122.0240316068
 10
163.0983435628
 20
122.0087643354
 10
163.1227091411
 20
121.9944236645
 10
163.1475632969
 20
121.981007823
 10
163.1562223391
 20
121.9766087018
  0
LINE
  5
4C2
100
AcDbEntity
  8
RACCORDO
100
AcDbLine
 62
7
  6
CONTINUOUS
 10
165.2339247602
 20
132.1067918515
 11
165.2372317035
 21
132.0900218602
  0
LINE
  5
4C3
100
AcDbEntity
  8
RACCORDO
100
AcDbLine
 62
7
  6
CONTINUOUS
 10
168.0737591099
 20
124.8200286915
 11
167.9755275534
 21
124.8691444698
  0
LINE
  5
4C4
100
AcDbEntity
  8
0
100
AcDbLine
 62
7
  6
CONTINUOUS
 10
162.4547452565
 20
130.1298238607
 11
162.383908668
 21
130.2609672746
  0
LINE
  5
4C5
100
AcDbEntity
  8
0
100
AcDbLine
 62
7
  6
CONTINUOUS
 10
159.3549852122
 20
132.102472326
 11
159.1760664516
 21
132.1919317063
  0
LINE
  5
4C6
100
AcDbEntity
  8
DRAFT
100
AcDbLine
 62
7
  6
CONTINUOUS
 10
157.114759961
 20
134.6948281381
 11
157.3369843885
 21
134.5837159243
  0
LINE
  5
4C7
100
AcDbEntity
  8
DRAFT
100
AcDbLine
 62
7
  6
CONTINUOUS
 10
160.6502938669
 20
132.9270611851
 11
160.8725182944
 21
132.8159489713
  0
LINE
  5
4C8
100
AcDbEntity
  8
DRAFT
100
AcDbLine
 62
7
  6
CONTINUOUS
 10
164.1858277728
 20
131.1592942321
 11
164.4080522004
 21
131.0481820184
  0
LWPOLYLINE
  5
4C9
100
AcDbEntity
  8
RACCORDO
100
AcDbPolyline
 62
253
  6
CONTINUOUS
 90
25
 70
0
 10
154.5574946732
 20
137.8557991274
 10
154.5429399642
 20
137.8622956336
 10
154.5273768911
 20
137.8684295654
 10
154.5115100038
 20
137.8738870496
 10
154.495351085
 20
137.8786640337
 10
154.4789121345
 20
137.8827569702
 10
154.46220536
 20
137.8861628196
 10
154.4452431679
 20
137.8888790528
 10
154.4280381545
 20
137.8909036526
 10
154.4106030963
 20
137.8922351157
 10
154.3929509407
 20
137.8928724531
 10
154.3750947963
 20
137.8928151917
 10
154.3570479232
 20
137.892063374
 10
154.338823723
 20
137.8906175582
 10
154.3204357292
 20
137.888478818
 10
154.3018975968
 20
137.8856487418
 10
154.2832230923
 20
137.882129431
 10
154.2644260834
 20
137.8779234992
 10
154.245520529
 20
137.8730340697
 10
154.2265204685
 20
137.8674647735
 10
154.2074400113
 20
137.8612197463
 10
154.1882933267
 20
137.8543036256
 10
154.1690946332
 20
137.8467215476
 10
154.1498581878
 20
137.8384791426
 10
154.1305982755
 20
137.8295825315
  0
LWPOLYLINE
  5
4CA
100
AcDbEntity
  8
RACCORDO
100
AcDbPolyline
 62
7
  6
CONTINUOUS
 90
34
 70
0
 10
154.5654711561
 20
137.8519458611
 10
154.540928271
 20
137.8638019978
 10
154.51602445
 20
137.875005183
 10
154.4907810024
 20
137.8855414529
 10
154.4652554202
 20
137.8953845909
 10
154.4394354708
 20
137.9045375453
 10
154.4132360108
 20
137.9130225759
 10
154.3866071559
 20
137.9208402647
 10
154.3596422322
 20
137.9279481834
 10
154.3324707844
 20
137.934305594
 10
154.3051379599
 20
137.9399013432
 10
154.2776497935
 20
137.9447340043
 10
154.2500783503
 20
137.9487922345
 10
154.2225319267
 20
137.9520672394
 10
154.1949531225
 20
137.9545732276
 10
154.1671647541
 20
137.9563219973
 10
154.1390526078
 20
137.9573024297
 10
154.1107846838
 20
137.9574907478
 10
154.0826046303
 20
137.9568829023
 10
154.0546319041
 20
137.9554925054
 10
154.0267927761
 20
137.9533269816
 10
153.9990369909
 20
137.9503864638
 10
153.9714008601
 20
137.946676448
 10
153.943892724
 20
137.9421997879
 10
153.9164221752
 20
137.9369381294
 10
153.888920005
 20
137.9308656203
 10
153.8615059047
 20
137.9239960818
 10
153.834367088
 20
137.916375385
 10
153.8075738351
 20
137.9080320171
 10
153.7810853842
 20
137.8989616707
 10
153.754912287
 20
137.8891732264
 10
153.7290631456
 20
137.878674307
 10
153.7035541744
 20
137.8674753182
 10
153.6917165828
 20
137.8619869085
  0
LWPOLYLINE
  5
4CB
100
AcDbEntity
  8
RACCORDO
100
AcDbPolyline
 62
253
  6
CONTINUOUS
 90
24
 70
0
 10
154.1305982755
 20
137.8295825315
 10
154.1101795165
 20
137.8395659379
 10
154.0897675902
 20
137.848803284
 10
154.0693797614
 20
137.8572867566
 10
154.0490332749
 20
137.8650091802
 10
154.0287453402
 20
137.8719640228
 10
154.0085331174
 20
137.8781454019
 10
153.9884137027
 20
137.8835480891
 10
153.9684041135
 20
137.8881675147
 10
153.9485212746
 20
137.8919997714
 10
153.9287820034
 20
137.8950416178
 10
153.9092029959
 20
137.897290481
 10
153.8898008127
 20
137.8987444589
 10
153.8705918645
 20
137.8994023216
 10
153.851592399
 20
137.8992635127
 10
153.8328184863
 20
137.8983281496
 10
153.814286006
 20
137.8965970235
 10
153.7960106333
 20
137.8940715987
 10
153.7780078261
 20
137.890754011
 10
153.7602928117
 20
137.8866470668
 10
153.7428805739
 20
137.8817542398
 10
153.7257858405
 20
137.8760796684
 10
153.7090230707
 20
137.8696281523
 10
153.6917165828
 20
137.8619869085
  0
LINE
  5
4CC
100
AcDbEntity
  8
DRAFT
100
AcDbLine
 62
7
  6
CONTINUOUS
 10
158.1661638916
 20
135.2297863445
 11
158.4302731294
 21
135.0977317256
  0
LINE
  5
4CD
100
AcDbEntity
  8
DRAFT
100
AcDbLine
 62
7
  6
CONTINUOUS
 10
161.7016977976
 20
133.4620193915
 11
161.9658070354
 21
133.3299647726
  0
LINE
  5
4CE
100
AcDbEntity
  8
DRAFT
100
AcDbLine
 62
7
  6
CONTINUOUS
 10
165.2372317035
 20
131.6942524386
 11
165.5013409413
 21
131.5621978197
  0
LINE
  5
4CF
100
AcDbEntity
  8
RACCORDO
100
AcDbLine
 62
253
  6
CONTINUOUS
 10
167.1373172124
 20
131.3262230631
 11
166.1012585127
 21
131.8442524129
  0
LINE
  5
4D0
100
AcDbEntity
  8
RACCORDO
100
AcDbLine
 62
253
  6
CONTINUOUS
 10
164.3590451307
 20
132.7153591039
 11
162.5657246067
 21
133.6120193659
  0
LINE
  5
4D1
100
AcDbEntity
  8
RACCORDO
100
AcDbLine
 62
253
  6
CONTINUOUS
 10
160.8235112248
 20
134.4831260569
 11
159.0301907008
 21
135.3797863189
  0
LINE
  5
4D2
100
AcDbEntity
  8
RACCORDO
100
AcDbLine
 62
253
  6
CONTINUOUS
 10
154.1305982755
 20
137.8295825315
 11
157.2879773188
 21
136.2508930099
  0
LINE
  5
4D3
100
AcDbEntity
  8
RACCORDO
100
AcDbLine
 62
7
  6
CONTINUOUS
 10
167.572190093
 20
131.3485863927
 11
166.4991841881
 21
131.8850893451
  0
LINE
  5
4D4
100
AcDbEntity
  8
RACCORDO
100
AcDbLine
 62
7
  6
CONTINUOUS
 10
164.8308652163
 20
132.719248831
 11
162.9636502822
 21
133.6528562981
  0
LINE
  5
4D5
100
AcDbEntity
  8
RACCORDO
100
AcDbLine
 62
7
  6
CONTINUOUS
 10
161.2953313104
 20
134.487015784
 11
159.4281163763
 21
135.420623251
  0
LINE
  5
4D6
100
AcDbEntity
  8
RACCORDO
100
AcDbLine
 62
7
  6
CONTINUOUS
 10
154.5654711561
 20
137.8519458611
 11
157.7597973787
 21
136.2547827498
  0
LWPOLYLINE
  5
4D7
100
AcDbEntity
  8
RACCORDO
100
AcDbPolyline
 62
7
  6
CONTINUOUS
 90
22
 70
0
 10
167.572190093
 20
131.3485863927
 10
167.5969383352
 20
131.3357781801
 10
167.621339531
 20
131.3222742508
 10
167.6453694297
 20
131.3080861284
 10
167.6690082783
 20
131.2932238127
 10
167.6922288226
 20
131.2777032501
 10
167.7149970076
 20
131.2615474588
 10
167.737267255
 20
131.2447918776
 10
167.7590445515
 20
131.2274364501
 10
167.780368371
 20
131.209448214
 10
167.801233531
 20
131.1908249499
 10
167.8215985528
 20
131.1715975
 10
167.8414450315
 20
131.1517786106
 10
167.8607390807
 20
131.1313987613
 10
167.8794729934
 20
131.1104632757
 10
167.8976647309
 20
131.0889449088
 10
167.9153281639
 20
131.0668126464
 10
167.9324007212
 20
131.0441304915
 10
167.9487918117
 20
131.0210174979
 10
167.9644223804
 20
130.9976024919
 10
167.9793548962
 20
130.9738105768
 10
167.9900845633
 20
130.9557447223
  0
LWPOLYLINE
  5
4D8
100
AcDbEntity
  8
RACCORDO
100
AcDbPolyline
 62
253
  6
CONTINUOUS
 90
27
 70
0
 10
167.6226315595
 20
130.8476411229
 10
167.6076011285
 20
130.872302624
 10
167.5921624799
 20
130.8966104477
 10
167.5763286724
 20
130.9205440337
 10
167.5601130986
 20
130.9440831383
 10
167.543529474
 20
130.9672078516
 10
167.5265918256
 20
130.9898986139
 10
167.5093144797
 20
131.0121362328
 10
167.49171205
 20
131.0339018991
 10
167.473799425
 20
131.0551772028
 10
167.4555917559
 20
131.0759441486
 10
167.437104443
 20
131.0961851713
 10
167.4183531237
 20
131.1158831504
 10
167.3993536581
 20
131.1350214248
 10
167.3801221167
 20
131.1535838069
 10
167.3606747659
 20
131.171554596
 10
167.3410280549
 20
131.188918592
 10
167.3211986015
 20
131.205661108
 10
167.3012031779
 20
131.2217679825
 10
167.2810586969
 20
131.2372255921
 10
167.2607821971
 20
131.2520208621
 10
167.2403908291
 20
131.2661412784
 10
167.2199018404
 20
131.2795748974
 10
167.1993325612
 20
131.2923103568
 10
167.1787003895
 20
131.3043368844
 10
167.1580227767
 20
131.3156443078
 10
167.1373172124
 20
131.3262230631
  0
LINE
  5
4D9
100
AcDbEntity
  8
RACCORDO
100
AcDbLine
 62
253
  6
CONTINUOUS
 10
167.6718416534
 20
130.7629696077
 11
167.6226315595
 21
130.8476411229
  0
LINE
  5
4DA
100
AcDbEntity
  8
RACCORDO
100
AcDbLine
 62
7
  6
CONTINUOUS
 10
168.0246849022
 20
130.8960679652
 11
167.9900843088
 21
130.9557451612
  0
ELLIPSE
  5
4DB
100
AcDbEntity
  8
0
100
AcDbEllipse
 62
7
  6
CONTINUOUS
 10
135.8822957384
 20
125.3962270165
 30
0.0
 11
-0.1174113663
 21
0.2209958577
 31
0.0
 40
0.5985429242
 41
-0.6989839728
 42
-0.0337839605
  0
ELLIPSE
  5
4DC
100
AcDbEntity
  8
0
100
AcDbEllipse
 62
7
  6
CONTINUOUS
 10
142.648708336
 20
82.5461397182
 30
0.0
 11
-0.2237009107
 21
0.4473351135
 31
0.0
 40
0.6121897086
 41
-3.1223332426
 42
-2.2557347926
  0
ELLIPSE
  5
4DD
100
AcDbEntity
  8
0
100
AcDbEllipse
 62
7
  6
CONTINUOUS
 10
142.648708336
 20
120.4476874247
 30
0.0
 11
-0.2235807756
 21
0.4472283268
 31
0.0
 40
0.6125552124
 41
-2.255296188
 42
-0.6848044477
  0
ELLIPSE
  5
4DE
100
AcDbEntity
  8
0
100
AcDbEllipse
 62
7
  6
CONTINUOUS
 10
147.9347031204
 20
87.5584540962
 30
0.0
 11
0.4349639225
 21
0.9005141702
 31
0.0
 40
0.6016116119
 41
-1.150450314
 42
-0.9656973067
  0
ELLIPSE
  5
4DF
100
AcDbEntity
  8
0
100
AcDbEllipse
 62
7
  6
CONTINUOUS
 10
147.9347031204
 20
124.2915138859
 30
0.0
 11
0.4349639225
 21
0.9005141702
 31
0.0
 40
0.6016116119
 41
-0.8943064336
 42
-0.6381625531
  0
ELLIPSE
  5
4E0
100
AcDbEntity
  8
0
100
AcDbEllipse
 62
7
  6
CONTINUOUS
 10
136.3633290644
 20
130.077200914
 30
0.0
 11
1.004787277
 21
0.6140102217
 31
0.0
 40
0.0864918533
 41
0.0543686983
 42
0.7212730538
  0
ELLIPSE
  5
4E1
100
AcDbEntity
  8
0
100
AcDbEllipse
 62
7
  6
CONTINUOUS
 10
148.110352372
 20
87.4706294704
 30
0.0
 11
0.9927147821
 21
0.620457446
 31
0.0
 40
0.0764819879
 41
-2.3927159682
 42
-1.0955168143
  0
ELLIPSE
  5
4E2
100
AcDbEntity
  8
0
100
AcDbEllipse
 62
7
  6
CONTINUOUS
 10
134.3739468745
 20
126.1504014485
 30
0.0
 11
-0.1172693628
 21
0.2208586762
 31
0.0
 40
0.5994421146
 41
-2.2699607138
 42
-0.6994689735
  0
ELLIPSE
  5
4E3
100
AcDbEntity
  8
0
100
AcDbEllipse
 62
7
  6
CONTINUOUS
 10
143.521491089
 20
177.0358096928
 30
0.0
 11
3.5378457856
 21
99.5794032239
 31
0.0
 40
0.0069684374
 41
-2.1126796177
 42
-2.1122241571
  0
ELLIPSE
  5
4E4
100
AcDbEntity
  8
0
100
AcDbEllipse
 62
7
  6
CONTINUOUS
 10
141.330656649
 20
125.801919808
 30
0.0
 11
1.000203771
 21
-0.0143477891
 31
0.0
 40
0.4891226537
 41
-0.7775824994
 42
-0.0732257619
  0
ELLIPSE
  5
4E5
100
AcDbEntity
  8
0
100
AcDbEllipse
 62
7
  6
CONTINUOUS
 10
137.7113573186
 20
125.6385807998
 30
0.0
 11
0.9999931154
 21
0.0073364426
 31
0.0
 40
0.5057858187
 41
2.0805723666
 42
2.3521411967
  0
ELLIPSE
  5
4E6
100
AcDbEntity
  8
0
100
AcDbEllipse
 62
7
  6
CONTINUOUS
 10
148.110352372
 20
124.2036892601
 30
0.0
 11
-0.7356038977
 21
1.2035991204
 31
0.0
 40
0.5552491559
 41
4.9268361304
 42
6.2240352843
  0
ELLIPSE
  5
4E7
100
AcDbEntity
  8
0
100
AcDbEllipse
 62
7
  6
CONTINUOUS
 10
139.2577083631
 20
80.4945144493
 30
0.0
 11
0.220014872
 21
0.1791173313
 31
0.0
 40
0.6627826692
 41
-1.8038058062
 42
-1.2976603231
  0
ELLIPSE
  5
4E8
100
AcDbEntity
  8
0
100
AcDbEllipse
 62
7
  6
CONTINUOUS
 10
123.1762074784
 20
125.352706447
 30
0.0
 11
-0.2236507175
 21
0.4481039483
 31
0.0
 40
0.6114248242
 41
-0.6832297371
 42
0.044462213
  0
ELLIPSE
  5
4E9
100
AcDbEntity
  8
0
100
AcDbEllipse
 62
7
  6
CONTINUOUS
 10
153.6874864151
 20
131.7301049516
 30
0.0
 11
18.2927339069
 21
9.4748417608
 31
0.0
 40
0.0170707209
 41
-2.6536573066
 42
-2.3141694431
  0
ELLIPSE
  5
4EA
100
AcDbEntity
  8
0
100
AcDbEllipse
 62
7
  6
CONTINUOUS
 10
153.6874864151
 20
131.7301049516
 30
0.0
 11
18.2927339069
 21
9.4748417608
 31
0.0
 40
0.0170707209
 41
2.2964861198
 42
2.6359739833
  0
ELLIPSE
  5
4EB
100
AcDbEntity
  8
0
100
AcDbEllipse
 62
7
  6
CONTINUOUS
 10
137.9629501788
 20
80.5278620479
 30
0.0
 11
-0.2236507175
 21
0.4481039483
 31
0.0
 40
0.6114248242
 41
-3.1858607161
 42
-2.25539606
  0
ELLIPSE
  5
4EC
100
AcDbEntity
  8
0
100
AcDbEllipse
 62
7
  6
CONTINUOUS
 10
141.309361668
 20
125.3039247545
 30
0.0
 11
1.0006854676
 21
0.0
 31
0.0
 40
0.499657501
 41
0.4960493931
 42
0.7850555471
  0
ELLIPSE
  5
4ED
100
AcDbEntity
  8
0
100
AcDbEllipse
 62
7
  6
CONTINUOUS
 10
137.7113573186
 20
179.940876578
 30
0.0
 11
0.7093717925
 21
100.9935570733
 31
0.0
 40
0.0069790045
 41
-2.1156864167
 42
-2.1124724433
  0
ELLIPSE
  5
4EE
100
AcDbEntity
  8
0
100
AcDbEllipse
 62
7
  6
CONTINUOUS
 10
137.7113573186
 20
127.1029269292
 30
0.0
 11
1.0
 21
-0.0
 31
0.0
 40
0.5003427338
 41
0.7857407797
 42
1.3334966153
  0
ELLIPSE
  5
4EF
100
AcDbEntity
  8
0
100
AcDbEllipse
 62
7
  6
CONTINUOUS
 10
137.7113573186
 20
127.6115694732
 30
0.0
 11
0.9999753489
 21
-0.014348771
 31
0.0
 40
0.4893460778
 41
1.6585167088
 42
2.3628734463
  0
ELLIPSE
  5
4F0
100
AcDbEntity
  8
0
100
AcDbEllipse
 62
7
  6
CONTINUOUS
 10
137.9629501788
 20
117.9593350968
 30
0.0
 11
-0.2231080361
 21
0.4476242326
 31
0.0
 40
0.6130677323
 41
-2.2534169372
 42
-0.6839906064
  0
ELLIPSE
  5
4F1
100
AcDbEntity
  8
0
100
AcDbEllipse
 62
7
  6
CONTINUOUS
 10
141.9681215822
 20
120.1102345306
 30
0.0
 11
41.2152542262
 21
22.501943358
 31
0.0
 40
0.0081048063
 41
1.5667140536
 42
1.5886117747
  0
ELLIPSE
  5
4F2
100
AcDbEntity
  8
0
100
AcDbEllipse
 62
7
  6
CONTINUOUS
 10
139.064144077
 20
120.2879481534
 30
0.0
 11
0.249929385
 21
0.0111824824
 31
0.0
 40
0.5313301283
 41
3.117765999
 42
3.9032222197
  0
ELLIPSE
  5
4F3
100
AcDbEntity
  8
0
100
AcDbEllipse
 62
7
  6
CONTINUOUS
 10
126.4776433719
 20
126.5811985059
 30
0.0
 11
0.249929385
 21
0.0111824824
 31
0.0
 40
0.5313301283
 41
3.117765999
 42
3.9032222197
  0
ELLIPSE
  5
4F4
100
AcDbEntity
  8
0
100
AcDbEllipse
 62
7
  6
CONTINUOUS
 10
140.8778826624
 20
80.8915340809
 30
0.0
 11
0.220014872
 21
0.1791173313
 31
0.0
 40
0.6627826692
 41
-2.8510033574
 42
-2.6599685648
  0
ELLIPSE
  5
4F5
100
AcDbEntity
  8
0
100
AcDbEllipse
 62
7
  6
CONTINUOUS
 10
126.2716826349
 20
127.4366721238
 30
0.0
 11
0.249929385
 21
0.0111824824
 31
0.0
 40
0.5313301283
 41
3.118062645
 42
3.9032222197
  0
ELLIPSE
  5
4F6
100
AcDbEntity
  8
0
100
AcDbEllipse
 62
7
  6
CONTINUOUS
 10
128.2913819573
 20
126.4268224626
 30
0.0
 11
0.249929385
 21
0.0111824824
 31
0.0
 40
0.5313301283
 41
-2.3799630874
 42
-0.8266200532
  0
ELLIPSE
  5
4F7
100
AcDbEntity
  8
0
100
AcDbEllipse
 62
7
  6
CONTINUOUS
 10
138.85818334
 20
121.1434217713
 30
0.0
 11
0.249929385
 21
0.0111824824
 31
0.0
 40
0.5313301283
 41
3.117765999
 42
3.9032222197
  0
ELLIPSE
  5
4F8
100
AcDbEntity
  8
0
100
AcDbEllipse
 62
7
  6
CONTINUOUS
 10
140.8778826624
 20
120.1335721101
 30
0.0
 11
0.249929385
 21
0.0111824824
 31
0.0
 40
0.5313301283
 41
-2.3799630874
 42
-1.125412988
  0
ELLIPSE
  5
4F9
100
AcDbEntity
  8
0
100
AcDbEllipse
 62
7
  6
CONTINUOUS
 10
139.2577083631
 20
120.1911660103
 30
0.0
 11
0.249929385
 21
0.0111824824
 31
0.0
 40
0.5313301283
 41
-2.3799630874
 42
-0.8266200532
  0
ELLIPSE
  5
4FA
100
AcDbEntity
  8
0
100
AcDbEllipse
 62
7
  6
CONTINUOUS
 10
126.671207658
 20
126.4844163629
 30
0.0
 11
0.249929385
 21
0.0111824824
 31
0.0
 40
0.5313301283
 41
-2.3799630874
 42
-0.8266200532
  0
ELLIPSE
  5
4FB
100
AcDbEntity
  8
0
100
AcDbEllipse
 62
7
  6
CONTINUOUS
 10
140.4325684138
 20
128.2985116963
 30
0.0
 11
0.2503214863
 21
-0.0601325557
 31
0.0
 40
0.261363135
 41
-0.7257858084
 42
0.0672477981
  0
ELLIPSE
  5
4FC
100
AcDbEntity
  8
0
100
AcDbEllipse
 62
7
  6
CONTINUOUS
 10
134.9573651928
 20
123.8086994318
 30
0.0
 11
0.199943508
 21
0.008945986
 31
0.0
 40
0.5313301283
 41
3.1180383302
 42
3.9032222197
  0
ELLIPSE
  5
4FD
100
AcDbEntity
  8
0
100
AcDbEllipse
 62
7
  6
CONTINUOUS
 10
137.2480135899
 20
122.6633752332
 30
0.0
 11
0.199943508
 21
0.008945986
 31
0.0
 40
0.5313301283
 41
-2.3799630874
 42
-0.8266200532
  0
ELLIPSE
  5
4FE
100
AcDbEntity
  8
0
100
AcDbEllipse
 62
7
  6
CONTINUOUS
 10
131.2450545916
 20
125.6648547324
 30
0.0
 11
0.199943508
 21
0.008945986
 31
0.0
 40
0.5313301283
 41
3.1180383302
 42
3.9032222197
  0
ELLIPSE
  5
4FF
100
AcDbEntity
  8
0
100
AcDbEllipse
 62
7
  6
CONTINUOUS
 10
133.5357029887
 20
124.5195305338
 30
0.0
 11
0.199943508
 21
0.008945986
 31
0.0
 40
0.5313301283
 41
-2.3799630874
 42
-0.8266200532
  0
ELLIPSE
  5
500
100
AcDbEntity
  8
RACCORDO
100
AcDbEllipse
 62
7
  6
CONTINUOUS
 10
167.3666523287
 20
117.8327110641
 30
0.0
 11
0.9999934239
 21
0.0071767279
 31
0.0
 40
0.5053247124
 41
-0.7715714568
 42
-0.0036348515
  0
ELLIPSE
  5
501
100
AcDbEntity
  8
DRAFT
100
AcDbEllipse
 62
7
  6
CONTINUOUS
 10
163.3225804611
 20
119.9111735719
 30
0.0
 11
0.9261626287
 21
1.8847694129
 31
0.0
 40
0.607010042
 41
-2.8340038952
 42
-2.4610674593
  0
ELLIPSE
  5
502
100
AcDbEntity
  8
DRAFT
100
AcDbEllipse
 62
7
  6
CONTINUOUS
 10
163.3225804611
 20
124.2413005909
 30
0.0
 11
0.9261626287
 21
1.8847694129
 31
0.0
 40
0.607010042
 41
-2.8633293799
 42
-2.4610674593
  0
ELLIPSE
  5
503
100
AcDbEntity
  8
RACCORDO
100
AcDbEllipse
 62
7
  6
CONTINUOUS
 10
166.3120557421
 20
99.6796296219
 30
0.0
 11
-0.894811907
 21
1.788971565
 31
0.0
 40
0.6123121697
 41
-2.4130708791
 42
-2.2557423369
  0
ELLIPSE
  5
504
100
AcDbEntity
  8
RACCORDO
100
AcDbEllipse
 62
7
  6
CONTINUOUS
 10
158.8282586497
 20
134.6025181256
 30
0.0
 11
0.641670464
 21
0.7912297898
 31
0.0
 40
0.4688980884
 41
0.1034305811
 42
0.7706444734
  0
ELLIPSE
  5
505
100
AcDbEntity
  8
RACCORDO
100
AcDbEllipse
 62
7
  6
CONTINUOUS
 10
162.3637925556
 20
132.8347511726
 30
0.0
 11
0.641670464
 21
0.7912297898
 31
0.0
 40
0.4688980884
 41
0.1034305811
 42
0.7706444734
  0
ELLIPSE
  5
506
100
AcDbEntity
  8
RACCORDO
100
AcDbEllipse
 62
7
  6
CONTINUOUS
 10
165.8993264616
 20
131.0669842196
 30
0.0
 11
0.641670464
 21
0.7912297898
 31
0.0
 40
0.4688980884
 41
0.1034305811
 42
0.7706444734
  0
ELLIPSE
  5
507
100
AcDbEntity
  8
RACCORDO
100
AcDbEllipse
 62
7
  6
CONTINUOUS
 10
161.000761846
 20
133.5162665274
 30
0.0
 11
0.1291192785
 21
1.0214378241
 31
0.0
 40
0.6963436963
 41
5.157140519
 42
6.7104835533
  0
ELLIPSE
  5
508
100
AcDbEntity
  8
RACCORDO
100
AcDbEllipse
 62
7
  6
CONTINUOUS
 10
164.5362957519
 20
131.7484995745
 30
0.0
 11
0.1291192785
 21
1.0214378241
 31
0.0
 40
0.6963436963
 41
5.157140519
 42
6.7104835533
  0
ELLIPSE
  5
509
100
AcDbEntity
  8
RACCORDO
100
AcDbEllipse
 62
7
  6
CONTINUOUS
 10
142.342691311
 20
87.0531071164
 30
0.0
 11
-0.894811907
 21
1.788971565
 31
0.0
 40
0.6123121697
 41
-3.0410143285
 42
-2.2557423369
  0
ELLIPSE
  5
50A
100
AcDbEntity
  8
RACCORDO
100
AcDbEllipse
 62
7
  6
CONTINUOUS
 10
142.342691311
 20
117.6609506139
 30
0.0
 11
-0.894612936
 21
1.7887945813
 31
0.0
 40
0.6124635976
 41
-2.2555607096
 42
-1.470288718
  0
ELLIPSE
  5
50B
100
AcDbEntity
  8
RACCORDO
100
AcDbEllipse
 62
7
  6
CONTINUOUS
 10
136.7408379128
 20
125.4984760833
 30
0.0
 11
1.2141619185
 21
0.9541526469
 31
0.0
 40
0.2329077568
 41
0.1095198182
 42
0.114024621
  0
ELLIPSE
  5
50C
100
AcDbEntity
  8
RACCORDO
100
AcDbEllipse
 62
7
  6
CONTINUOUS
 10
157.4652279401
 20
135.2840334804
 30
0.0
 11
0.1291192785
 21
1.0214378241
 31
0.0
 40
0.6963436963
 41
5.157140519
 42
6.7104835533
  0
ENDSEC
  0
SECTION
  2
OBJECTS
  0
DICTIONARY
  5
C
100
AcDbDictionary
280
0
281
1
  3
ACAD_GROUP
350
D
  3
ACAD_MLINESTYLE
350
17
  3
ACAD_LAYOUT
350
1A
  3
ACAD_PLOTSETTINGS
350
19
  3
ACAD_PLOTSTYLENAME
350
E
  0
DICTIONARY
  5
D
102
{ACAD_REACTORS
330
C
102
}
100
AcDbDictionary
280
0
281
1
  0
ACDBDICTIONARYWDFLT
  5
E
102
{ACAD_REACTORS
330
C
102
}
100
AcDbDictionary
281
1
  3
Normal
350
F
100
AcDbDictionaryWithDefault
340
F
  0
DICTIONARY
  5
17
102
{ACAD_REACTORS
330
C
102
}
100
AcDbDictionary
280
0
281
1
  3
Standard
350
18
  0
DICTIONARY
  5
19
102
{ACAD_REACTORS
330
C
102
}
100
AcDbDictionary
281
1
  0
DICTIONARY
  5
1A
102
{ACAD_REACTORS
330
C
102
}
100
AcDbDictionary
281
1
  3
Model
350
50D
  3
Layout1
350
50E
  0
ACDBPLACEHOLDER
  5
F
102
{ACAD_REACTORS
330
E
102
}
  0
MLINESTYLE
  5
18
102
{ACAD_REACTORS
330
17
102
}
100
AcDbMlineStyle
  2
STANDARD
 70
0
  3

 62
256
 51
90.0
 52
90.0
 71
2
 49
0.5
 62
256
  6
BYLAYER
 49
-0.5
 62
256
  6
BYLAYER
  0
LAYOUT
  5
50D
102
{ACAD_REACTORS
330
1A
102
}
100
AcDbPlotSettings
  1

  2
none_device
  4
ISO_A4_(297.00_x_210.00_MM)
  6

 40
0.0
 41
0.0
 42
0.0
 43
0.0
 44
297.0
 45
210.0
 46
0.0
 47
0.0
 48
0.0
 49
0.0
140
0.0
141
0.0
142
1.0
143
1.0
 70
1024
 72
1
 73
0
 74
0
  7

 75
0
147
1.0
148
0.0
149
0.0
100
AcDbLayout
  1
Model
 70
0
 71
0
 10
0.0
 20
0.0
 11
297.0
 21
210.0
 12
0.0
 22
0.0
 32
0.0
 14
0.0
 24
0.0
 34
0.0
 15
0.0
 25
0.0
 35
0.0
146
0.0
 13
0.0
 23
0.0
 33
0.0
 16
1.0
 26
0.0
 36
0.0
 17
0.0
 27
1.0
 37
0.0
 76
0
330
227
345
0
346
0
  0
LAYOUT
  5
50E
102
{ACAD_REACTORS
330
1A
102
}
100
AcDbPlotSettings
  1

  2
none_device
  4
ISO_A4_(297.00_x_210.00_MM)
  6

 40
0.0
 41
0.0
 42
0.0
 43
0.0
 44
297.0
 45
210.0
 46
0.0
 47
0.0
 48
0.0
 49
0.0
140
0.0
141
0.0
142
1.0
143
1.0
 70
0
 72
1
 73
0
 74
0
  7

 75
0
147
1.0
148
0.0
149
0.0
100
AcDbLayout
  1
Layout1
 70
0
 71
1
 10
0.0
 20
0.0
 11
297.0
 21
210.0
 12
0.0
 22
0.0
 32
0.0
 14
0.0
 24
0.0
 34
0.0
 15
0.0
 25
0.0
 35
0.0
146
0.0
 13
0.0
 23
0.0
 33
0.0
 16
1.0
 26
0.0
 36
0.0
 17
0.0
 27
1.0
 37
0.0
 76
0
330
228
345
0
346
0
  0
ENDSEC
  0
EOF
