  0
SECTION
  2
HEADER
  9
$ACADVER
  1
AC1015
  9
$DWGCODEPAGE
  3
ANSI_1252
  9
$EXTMAX
 10
297.0
 20
210.0
 30
0.0
  9
$EXTMIN
 10
0.0
 20
0.0
 30
0.0
  9
$LIMMIN
 10
0.0
 20
0.0
  9
$LIMMAX
 10
297.0
 20
210.0
  9
$VIEWCTR
 10
148.5
 20
105.0
  9
$VIEWSIZE
 40
210.0
  9
$CLAYER
  8
0
  9
$LTSCALE
 40
16.335
  9
$CELTYPE
  6
BYLAYER
  9
$DIMSCALE
 40
1.0
  9
$DIMASZ
 40
3.0
  9
$DIMEXO
 40
1.85625
  9
$DIMDLI
 40
11.286
  9
$DIMEXE
 40
5.346
  9
$DIMCEN
 40
2.673
  9
$DIMLFAC
 40
1.0
  9
$DIMBLK
  1
_FILLED
  9
$DIMTXT
 40
3.0
  9
$DIMTOL
 70
1
  9
$DIMLIM
 70
0
  9
$DIMTFAC
 40
1.0
  9
$DIMTP
 40
0.01
  9
$DIMTM
 40
0.01
  9
$PDMODE
 70
3
  9
$PDSIZE
 40
3.0
  9
$HANDSEED
  5
47E
  9
$TILEMODE
 70
1
  9
$MEASUREMENT
 70
1
  9
$INSUNITS
 70
4
  0
ENDSEC
  0
SECTION
  2
CLASSES
  0
CLASS
  1
ACDBDICTIONARYWDFLT
  2
AcDbDictionaryWithDefault
  3
AutoCAD 2000
 90
0
280
0
281
0
  0
CLASS
  1
ACDBPLACEHOLDER
  2
AcDbPlaceHolder
  3
AutoCAD 2000
 90
0
280
0
281
0
  0
CLASS
  1
LAYOUT
  2
AcDbLayout
  3
AutoCAD 2000
 90
0
280
0
281
0
  0
ENDSEC
  0
SECTION
  2
TABLES
  0
TABLE
  2
VPORT
  5
8
100
AcDbSymbolTable
 70
2
  0
VPORT
  5
1F4
100
AcDbSymbolTableRecord
100
AcDbViewportTableRecord
  2
*ACTIVE
 70
0
 10
0.0
 20
0.0
 11
1.0
 21
1.0
 12
148.5
 22
105.0
 13
0.0
 23
0.0
 14
1.0
 24
1.0
 15
0.0
 25
0.0
 16
0.0
 26
0.0
 36
1.0
 17
0.0
 27
0.0
 37
0.0
 40
210.0
 41
1.4142857143
 42
50.0
 43
0.0
 44
0.0
 50
0.0
 51
0.0
 71
0
 72
100
 73
1
 74
1
 75
0
 76
0
 77
0
 78
0
  0
ENDTAB
  0
TABLE
  2
LTYPE
  5
5
100
AcDbSymbolTable
 70
6
  0
LTYPE
  5
14
100
AcDbSymbolTableRecord
100
AcDbLinetypeTableRecord
  2
BYBLOCK
 70
0
  3

 72
65
 73
0
 40
0.0
  0
LTYPE
  5
15
100
AcDbSymbolTableRecord
100
AcDbLinetypeTableRecord
  2
BYLAYER
 70
0
  3

 72
65
 73
0
 40
0.0
  0
LTYPE
  5
16
100
AcDbSymbolTableRecord
100
AcDbLinetypeTableRecord
  2
CONTINUOUS
 70
64
  3
Solid line
 72
65
 73
0
 40
0.0
  0
LTYPE
  5
1F5
100
AcDbSymbolTableRecord
100
AcDbLinetypeTableRecord
  2
CENTER
 70
64
  3
____ _ ____ _ ____ _ ____ _ ____ _ ____ _ ____
 72
65
 73
4
 40
0.6
 49
0.375
 74
0
 49
-0.075
 74
0
 49
0.075
 74
0
 49
-0.075
 74
0
  0
LTYPE
  5
1F6
100
AcDbSymbolTableRecord
100
AcDbLinetypeTableRecord
  2
HIDDEN
 70
64
  3
- - - - - - - - - - - - - - - - - - - -
 72
65
 73
2
 40
0.2
 49
0.1
 74
0
 49
-0.1
 74
0
  0
LTYPE
  5
1F7
100
AcDbSymbolTableRecord
100
AcDbLinetypeTableRecord
  2
PHANTOM
 70
64
  3
_____ _ _ _____ _ _ _____ _ _ _____
 72
65
 73
6
 40
0.8
 49
0.45
 74
0
 49
-0.05
 74
0
 49
0.1
 74
0
 49
-0.05
 74
0
 49
0.1
 74
0
 49
-0.05
 74
0
  0
LTYPE
  5
1F8
100
AcDbSymbolTableRecord
100
AcDbLinetypeTableRecord
  2
DOT
 70
64
  3
. . . . . . . . . . . . . . . . . . . .
 72
65
 73
2
 40
0.2
 49
0.1
 74
0
 49
-0.1
 74
0
  0
LTYPE
  5
1F9
100
AcDbSymbolTableRecord
100
AcDbLinetypeTableRecord
  2
DASHED
 70
64
  3
- - - - - - - - - - - - - - - - - - - -
 72
65
 73
2
 40
0.2
 49
0.1
 74
0
 49
-0.1
 74
0
  0
ENDTAB
  0
TABLE
  2
LAYER
  5
2
100
AcDbSymbolTable
 70
36
  0
LAYER
  5
10
100
AcDbSymbolTableRecord
100
AcDbLayerTableRecord
  2
0
 70
0
 62
7
  6
CONTINUOUS
370
-3
390
F
  0
LAYER
  5
1FA
100
AcDbSymbolTableRecord
100
AcDbLayerTableRecord
  2
DEFAULT_1
 70
0
 62
7
  6
CENTER
370
-3
390
F
  0
LAYER
  5
1FB
100
AcDbSymbolTableRecord
100
AcDbLayerTableRecord
  2
DEFAULT_2
 70
0
 62
7
  6
HIDDEN
370
-3
390
F
  0
LAYER
  5
1FC
100
AcDbSymbolTableRecord
100
AcDbLayerTableRecord
  2
DEFAULT_3
 70
0
 62
7
  6
PHANTOM
370
-3
390
F
  0
LAYER
  5
1FD
100
AcDbSymbolTableRecord
100
AcDbLayerTableRecord
  2
ASSI
 70
0
 62
7
  6
CONTINUOUS
370
-3
390
F
  0
LAYER
  5
1FE
100
AcDbSymbolTableRecord
100
AcDbLayerTableRecord
  2
COORDINATE
 70
0
 62
7
  6
CONTINUOUS
370
-3
390
F
  0
LAYER
  5
1FF
100
AcDbSymbolTableRecord
100
AcDbLayerTableRecord
  2
COORD_ORIGINE
 70
0
 62
7
  6
CONTINUOUS
370
-3
390
F
  0
LAYER
  5
200
100
AcDbSymbolTableRecord
100
AcDbLayerTableRecord
  2
COPY_PUBLISH
 70
0
 62
7
  6
CONTINUOUS
370
-3
390
F
  0
LAYER
  5
201
100
AcDbSymbolTableRecord
100
AcDbLayerTableRecord
  2
COSMETIC
 70
0
 62
7
  6
CONTINUOUS
370
-3
390
F
  0
LAYER
  5
202
100
AcDbSymbolTableRecord
100
AcDbLayerTableRecord
  2
COSMETICHE
 70
0
 62
7
  6
CONTINUOUS
370
-3
390
F
  0
LAYER
  5
203
100
AcDbSymbolTableRecord
100
AcDbLayerTableRecord
  2
COSMETICI
 70
0
 62
7
  6
CONTINUOUS
370
-3
390
F
  0
LAYER
  5
204
100
AcDbSymbolTableRecord
100
AcDbLayerTableRecord
  2
CURVE
 70
0
 62
7
  6
CONTINUOUS
370
-3
390
F
  0
LAYER
  5
205
100
AcDbSymbolTableRecord
100
AcDbLayerTableRecord
  2
DRAFT
 70
0
 62
7
  6
CONTINUOUS
370
-3
390
F
  0
LAYER
  5
206
100
AcDbSymbolTableRecord
100
AcDbLayerTableRecord
  2
IMPORT
 70
0
 62
7
  6
CONTINUOUS
370
-3
390
F
  0
LAYER
  5
207
100
AcDbSymbolTableRecord
100
AcDbLayerTableRecord
  2
IMPORT_IGES
 70
0
 62
7
  6
CONTINUOUS
370
-3
390
F
  0
LAYER
  5
208
100
AcDbSymbolTableRecord
100
AcDbLayerTableRecord
  2
INTFCLR_1
 70
0
 62
7
  6
CONTINUOUS
370
-3
390
F
  0
LAYER
  5
209
100
AcDbSymbolTableRecord
100
AcDbLayerTableRecord
  2
INTFCLR_3
 70
0
 62
7
  6
CONTINUOUS
370
-3
390
F
  0
LAYER
  5
20A
100
AcDbSymbolTableRecord
100
AcDbLayerTableRecord
  2
INTF_1
 70
0
 62
7
  6
CONTINUOUS
370
-3
390
F
  0
LAYER
  5
20B
100
AcDbSymbolTableRecord
100
AcDbLayerTableRecord
  2
INTF_15
 70
0
 62
7
  6
CONTINUOUS
370
-3
390
F
  0
LAYER
  5
20C
100
AcDbSymbolTableRecord
100
AcDbLayerTableRecord
  2
INTF_16
 70
0
 62
7
  6
CONTINUOUS
370
-3
390
F
  0
LAYER
  5
20D
100
AcDbSymbolTableRecord
100
AcDbLayerTableRecord
  2
INTF_2
 70
0
 62
7
  6
CONTINUOUS
370
-3
390
F
  0
LAYER
  5
20E
100
AcDbSymbolTableRecord
100
AcDbLayerTableRecord
  2
INTF_3
 70
0
 62
7
  6
CONTINUOUS
370
-3
390
F
  0
LAYER
  5
20F
100
AcDbSymbolTableRecord
100
AcDbLayerTableRecord
  2
INTF_4
 70
0
 62
7
  6
CONTINUOUS
370
-3
390
F
  0
LAYER
  5
210
100
AcDbSymbolTableRecord
100
AcDbLayerTableRecord
  2
INTF_5
 70
0
 62
7
  6
CONTINUOUS
370
-3
390
F
  0
LAYER
  5
211
100
AcDbSymbolTableRecord
100
AcDbLayerTableRecord
  2
INTF_6
 70
0
 62
7
  6
CONTINUOUS
370
-3
390
F
  0
LAYER
  5
212
100
AcDbSymbolTableRecord
100
AcDbLayerTableRecord
  2
INTF_7
 70
0
 62
7
  6
CONTINUOUS
370
-3
390
F
  0
LAYER
  5
213
100
AcDbSymbolTableRecord
100
AcDbLayerTableRecord
  2
INTF_9
 70
0
 62
7
  6
CONTINUOUS
370
-3
390
F
  0
LAYER
  5
214
100
AcDbSymbolTableRecord
100
AcDbLayerTableRecord
  2
NOTE
 70
0
 62
7
  6
CONTINUOUS
370
-3
390
F
  0
LAYER
  5
215
100
AcDbSymbolTableRecord
100
AcDbLayerTableRecord
  2
PIANI
 70
0
 62
7
  6
CONTINUOUS
370
-3
390
F
  0
LAYER
  5
216
100
AcDbSymbolTableRecord
100
AcDbLayerTableRecord
  2
PIANI_ORIGINE
 70
0
 62
7
  6
CONTINUOUS
370
-3
390
F
  0
LAYER
  5
217
100
AcDbSymbolTableRecord
100
AcDbLayerTableRecord
  2
PIANI_SFORMI
 70
0
 62
7
  6
CONTINUOUS
370
-3
390
F
  0
LAYER
  5
218
100
AcDbSymbolTableRecord
100
AcDbLayerTableRecord
  2
PUNTI
 70
0
 62
7
  6
CONTINUOUS
370
-3
390
F
  0
LAYER
  5
219
100
AcDbSymbolTableRecord
100
AcDbLayerTableRecord
  2
RACCORDO
 70
0
 62
7
  6
CONTINUOUS
370
-3
390
F
  0
LAYER
  5
21A
100
AcDbSymbolTableRecord
100
AcDbLayerTableRecord
  2
SIMBOLI
 70
0
 62
7
  6
CONTINUOUS
370
-3
390
F
  0
LAYER
  5
21B
100
AcDbSymbolTableRecord
100
AcDbLayerTableRecord
  2
SMUSSO
 70
0
 62
7
  6
CONTINUOUS
370
-3
390
F
  0
LAYER
  5
21C
100
AcDbSymbolTableRecord
100
AcDbLayerTableRecord
  2
SNAPLINE
 70
0
 62
7
  6
CONTINUOUS
370
-3
390
F
  0
LAYER
  5
21D
100
AcDbSymbolTableRecord
100
AcDbLayerTableRecord
  2
SUPERFICI
 70
0
 62
7
  6
CONTINUOUS
370
-3
390
F
  0
LAYER
  5
21E
100
AcDbSymbolTableRecord
100
AcDbLayerTableRecord
  2
SUPERFICI_SKEL
 70
0
 62
7
  6
CONTINUOUS
370
-3
390
F
  0
LAYER
  5
21F
100
AcDbSymbolTableRecord
100
AcDbLayerTableRecord
  2
TRASH
 70
0
 62
7
  6
CONTINUOUS
370
-3
390
F
  0
LAYER
  5
220
100
AcDbSymbolTableRecord
100
AcDbLayerTableRecord
  2
XSEC_DATUMS
 70
0
 62
7
  6
CONTINUOUS
370
-3
390
F
  0
ENDTAB
  0
TABLE
  2
STYLE
  5
3
100
AcDbSymbolTable
 70
1
  0
STYLE
  5
11
100
AcDbSymbolTableRecord
100
AcDbTextStyleTableRecord
  2
STANDARD
 70
0
 40
0.0
 41
0.8
 50
0.0
 71
0
 42
0.2
  3
txt
  4

  0
STYLE
  5
221
100
AcDbSymbolTableRecord
100
AcDbTextStyleTableRecord
  2
TEXTSTYLE_1
 70
0
 40
0.0
 41
0.8
 50
0.0
 71
0
 42
0.2
  3
gdt
  4

  0
ENDTAB
  0
TABLE
  2
VIEW
  5
6
100
AcDbSymbolTable
 70
0
  0
ENDTAB
  0
TABLE
  2
UCS
  5
7
100
AcDbSymbolTable
 70
0
  0
ENDTAB
  0
TABLE
  2
APPID
  5
9
100
AcDbSymbolTable
 70
1
  0
APPID
  5
222
100
AcDbSymbolTableRecord
100
AcDbRegAppTableRecord
  2
ACAD
 70
0
  0
ENDTAB
  0
TABLE
  2
BLOCK_RECORD
  5
1
100
AcDbSymbolTable
 70
0
  0
BLOCK_RECORD
  5
223
100
AcDbSymbolTableRecord
100
AcDbBlockTableRecord
  2
*Model_Space
  0
BLOCK_RECORD
  5
224
100
AcDbSymbolTableRecord
100
AcDbBlockTableRecord
  2
*Paper_Space
  0
ENDTAB
  0
TABLE
  2
DIMSTYLE
  5
A
100
AcDbSymbolTable
 70
1
100
AcDbDimStyleTable
 71
0
  0
DIMSTYLE
105
225
100
AcDbSymbolTableRecord
100
AcDbDimStyleTableRecord
  2
STANDARD
 70
0
  3

  4

 40
1.0
 41
3.0
 42
0.0625
 43
0.38
 44
0.18
 45
0.0
 46
0.0
 47
0.01
 48
0.01
140
3.0
141
0.09
142
0.0
143
25.4
144
1.0
145
0.0
146
1.0
147
0.09
 71
1.0
 72
0.0
 73
0
 74
0
 75
0
 76
0
 77
1
 78
8
170
0
171
2
172
0
173
0
174
0
175
0
176
0
177
0
178
0
270
2
271
2
272
2
273
2
274
2
275
0
280
0
281
0
282
0
283
1
284
8
285
0
286
0
287
3
288
0
340
11
  0
ENDTAB
  0
ENDSEC
  0
SECTION
  2
BLOCKS
  0
BLOCK
  5
20
100
AcDbEntity
  8
0
100
AcDbBlockBegin
  2
*Model_Space
 70
0
 10
0.0
 20
0.0
 30
0.0
  3
*Model_Space
  1

  0
ENDBLK
  5
21
100
AcDbEntity
  8
0
100
AcDbBlockEnd
  0
BLOCK
  5
1C
100
AcDbEntity
  8
0
100
AcDbBlockBegin
  2
*Paper_Space
 70
0
 10
0.0
 20
0.0
 30
0.0
  3
*Paper_Space
  1

  0
ENDBLK
  5
1D
100
AcDbEntity
  8
0
100
AcDbBlockEnd
  0
ENDSEC
  0
SECTION
  2
ENTITIES
  0
LINE
  5
226
100
AcDbEntity
  8
ASSI
100
AcDbLine
 62
7
  6
CONTINUOUS
 10
-10.7911193563
 20
24.6948081093
 11
-10.3468419782
 21
25.0347416727
  0
LWPOLYLINE
  5
227
100
AcDbEntity
  8
ASSI
100
AcDbPolyline
 62
7
  6
CONTINUOUS
 90
5
 70
0
 10
-10.2691008905
 20
25.0737291057
 10
-10.2960374143
 20
25.0643523043
 10
-10.3214680011
 20
25.051694656
 10
-10.3444668293
 20
25.0365357952
 10
-10.3468242799
 20
25.0347550604
  0
LWPOLYLINE
  5
228
100
AcDbEntity
  8
RACCORDO
100
AcDbPolyline
 62
7
  6
CONTINUOUS
 90
18
 70
0
 10
-15.1048228525
 20
19.216797962
 10
-15.1617510651
 20
19.1583476893
 10
-15.2149603757
 20
19.096527419
 10
-15.2645980214
 20
19.0318564622
 10
-15.3109820946
 20
18.9645386854
 10
-15.3543516362
 20
18.894663062
 10
-15.3947130524
 20
18.8225750929
 10
-15.4320842729
 20
18.7485194008
 10
-15.466479162
 20
18.6726276505
 10
-15.4978197048
 20
18.5951856287
 10
-15.5259985054
 20
18.5164515965
 10
-15.5509309311
 20
18.4365681409
 10
-15.5724701556
 20
18.3557608966
 10
-15.5904115708
 20
18.2743122023
 10
-15.6045810503
 20
18.1922722229
 10
-15.6147146197
 20
18.1096911511
 10
-15.6204698259
 20
18.0268558122
 10
-15.6211382403
 20
18.0076994914
  0
LINE
  5
229
100
AcDbEntity
  8
ASSI
100
AcDbLine
 62
7
  6
CONTINUOUS
 10
-11.9876036783
 20
22.2323678942
 11
-11.5748614845
 21
22.622134101
  0
LINE
  5
22A
100
AcDbEntity
  8
RACCORDO
100
AcDbLine
 62
7
  6
CONTINUOUS
 10
-11.9660855112
 20
22.1808871855
 11
-15.1048228525
 21
19.216797962
  0
LINE
  5
22B
100
AcDbEntity
  8
RACCORDO
100
AcDbLine
 62
253
  6
CONTINUOUS
 10
-11.637743022
 20
22.2141382209
 11
-14.7689107463
 21
19.2572722033
  0
LWPOLYLINE
  5
22C
100
AcDbEntity
  8
ASSI
100
AcDbPolyline
 62
7
  6
CONTINUOUS
 90
12
 70
0
 10
-12.0572960404
 20
23.5859945639
 10
-12.0613689605
 20
23.5823491241
 10
-12.0791039993
 20
23.5644043254
 10
-12.0947250716
 20
23.5452382278
 10
-12.1087712848
 20
23.5244270919
 10
-12.1211495394
 20
23.5021354065
 10
-12.1313990178
 20
23.4794100411
 10
-12.1397993213
 20
23.4558668957
 10
-12.1463840838
 20
23.4311065847
 10
-12.1507466727
 20
23.4062977495
 10
-12.15285873
 20
23.3816190396
 10
-12.1530670659
 20
23.3710242253
  0
LINE
  5
22D
100
AcDbEntity
  8
ASSI
100
AcDbLine
 62
7
  6
CONTINUOUS
 10
-12.0573714043
 20
23.5859291231
 11
-10.7958121963
 21
24.6909638622
  0
LINE
  5
22E
100
AcDbEntity
  8
ASSI
100
AcDbLine
 62
253
  6
CONTINUOUS
 10
-11.9275935052
 20
23.5976484436
 11
-10.6667776286
 21
24.7020320782
  0
LINE
  5
22F
100
AcDbEntity
  8
ASSI
100
AcDbLine
 62
7
  6
CONTINUOUS
 10
-10.7911544295
 20
24.69478123
 11
-10.7957685215
 21
24.6910021182
  0
LINE
  5
230
100
AcDbEntity
  8
ASSI
100
AcDbLine
 62
253
  6
CONTINUOUS
 10
-10.6667776286
 20
24.7020320782
 11
-10.2233065798
 21
25.0413486882
  0
LWPOLYLINE
  5
231
100
AcDbEntity
  8
RACCORDO
100
AcDbPolyline
 62
7
  6
CONTINUOUS
 90
7
 70
0
 10
1.2451033855
 20
29.7463622179
 10
1.2259757405
 20
29.7336327707
 10
1.2070606171
 20
29.7206088289
 10
1.1883621489
 20
29.7072934961
 10
1.1698848336
 20
29.6936902398
 10
1.1516333153
 20
29.6798029073
 10
-7.9580693269
 20
22.5798436509
  0
LWPOLYLINE
  5
232
100
AcDbEntity
  8
RACCORDO
100
AcDbPolyline
 62
7
  6
CONTINUOUS
 90
3
 70
0
 10
1.2839773534
 20
29.7709241411
 10
1.2644389554
 20
29.7587938473
 10
1.2451033855
 20
29.7463622179
  0
LINE
  5
233
100
AcDbEntity
  8
RACCORDO
100
AcDbLine
 62
7
  6
CONTINUOUS
 10
1.7070588911
 20
30.0241477684
 11
1.2839773534
 21
29.7709241411
  0
LINE
  5
234
100
AcDbEntity
  8
RACCORDO
100
AcDbLine
 62
253
  6
CONTINUOUS
 10
1.6528871223
 20
29.9868656956
 11
1.2389038303
 21
29.7391474267
  0
LINE
  5
235
100
AcDbEntity
  8
DRAFT
100
AcDbLine
 62
7
  6
CONTINUOUS
 10
-3.5727175994
 20
25.9004329197
 11
-2.7007546739
 21
26.4221958764
  0
LINE
  5
236
100
AcDbEntity
  8
ASSI
100
AcDbLine
 62
7
  6
CONTINUOUS
 10
-8.7828745777
 20
21.2930306169
 11
-8.0454661347
 21
21.9290349932
  0
LINE
  5
237
100
AcDbEntity
  8
ASSI
100
AcDbLine
 62
253
  6
CONTINUOUS
 10
-8.2092715914
 20
23.7150422505
 11
-7.7873728411
 21
24.0630227819
  0
LINE
  5
238
100
AcDbEntity
  8
ASSI
100
AcDbLine
 62
253
  6
CONTINUOUS
 10
-8.0454661347
 20
23.4854488295
 11
-7.6235673844
 21
23.8334293609
  0
LINE
  5
239
100
AcDbEntity
  8
ASSI
100
AcDbLine
 62
253
  6
CONTINUOUS
 10
-9.5345548229
 20
22.636550159
 11
-8.2092715914
 21
23.7150422505
  0
LINE
  5
23A
100
AcDbEntity
  8
ASSI
100
AcDbLine
 62
253
  6
CONTINUOUS
 10
-9.3707493662
 20
22.406956738
 11
-8.0454661347
 21
23.4854488295
  0
LINE
  5
23B
100
AcDbEntity
  8
ASSI
100
AcDbLine
 62
7
  6
CONTINUOUS
 10
-2.0979149022
 20
26.7543815536
 11
-7.5170359609
 21
22.4027147083
  0
LINE
  5
23C
100
AcDbEntity
  8
ASSI
100
AcDbLine
 62
7
  6
CONTINUOUS
 10
-2.1625016754
 20
26.8267562606
 11
-7.6494821875
 21
22.4559080988
  0
LINE
  5
23D
100
AcDbEntity
  8
RACCORDO
100
AcDbLine
 62
7
  6
CONTINUOUS
 10
1.6528871223
 20
29.9868656956
 11
-3.5727175994
 21
25.9004329197
  0
LINE
  5
23E
100
AcDbEntity
  8
DRAFT
100
AcDbLine
 62
7
  6
CONTINUOUS
 10
-7.7309045534
 20
22.4886091566
 11
-2.7007546739
 21
26.4221958764
  0
LINE
  5
23F
100
AcDbEntity
  8
RACCORDO
100
AcDbLine
 62
253
  6
CONTINUOUS
 10
-7.9507150115
 20
22.5768899921
 11
1.2389038303
 21
29.7391474267
  0
LWPOLYLINE
  5
240
100
AcDbEntity
  8
ASSI
100
AcDbPolyline
 62
7
  6
CONTINUOUS
 90
4
 70
0
 10
-2.3500946701
 20
24.8238820253
 10
-2.3861073886
 20
24.8068258168
 10
-2.4192670912
 20
24.7865955094
 10
-2.4334123294
 20
24.7763348082
  0
LINE
  5
241
100
AcDbEntity
  8
ASSI
100
AcDbLine
 62
7
  6
CONTINUOUS
 10
0.5189758737
 20
24.2369183
 11
1.834387745
 21
24.6223942422
  0
LINE
  5
242
100
AcDbEntity
  8
ASSI
100
AcDbLine
 62
253
  6
CONTINUOUS
 10
6.9708329186
 20
-21.4024176688
 11
6.5354402536
 21
-21.404481601
  0
LWPOLYLINE
  5
243
100
AcDbEntity
  8
RACCORDO
100
AcDbPolyline
 62
7
  6
CONTINUOUS
 90
12
 70
0
 10
1.8529806787
 20
-23.6828856328
 10
1.8853268525
 20
-23.6933397338
 10
1.953014435
 20
-23.7095634325
 10
2.0227891166
 20
-23.7188143213
 10
2.0941264016
 20
-23.7208800097
 10
2.1668571385
 20
-23.7155444785
 10
2.2405409817
 20
-23.7025593188
 10
2.3144976544
 20
-23.6818031018
 10
2.3885162558
 20
-23.6530821738
 10
2.4624343822
 20
-23.6161195053
 10
2.5358561454
 20
-23.5707773852
 10
2.5495177659
 20
-23.5613473072
  0
LWPOLYLINE
  5
244
100
AcDbEntity
  8
RACCORDO
100
AcDbPolyline
 62
7
  6
CONTINUOUS
 90
10
 70
0
 10
-15.201001442
 20
-16.8335176394
 10
-13.4621165805
 20
-17.6196232611
 10
-11.6066742506
 20
-18.43471642
 10
-9.7300454938
 20
-19.2350422697
 10
-7.8326499077
 20
-20.0204159869
 10
-5.914912826
 20
-20.7906575135
 10
-3.9772719
 20
-21.5455962744
 10
-2.0201756755
 20
-22.2850707282
 10
-0.0440788459
 20
-23.0089246066
 10
1.8538774942
 20
-23.6832013417
  0
LWPOLYLINE
  5
245
100
AcDbEntity
  8
ASSI
100
AcDbPolyline
 62
7
  6
CONTINUOUS
 90
9
 70
0
 10
-5.9194328642
 20
22.0898894028
 10
-5.9335218397
 20
22.0764764247
 10
-5.9503768898
 20
22.0567903479
 10
-5.9648479419
 20
22.0352754348
 10
-5.9767599164
 20
22.012207217
 10
-5.9860317451
 20
21.987698636
 10
-5.9925043295
 20
21.962009871
 10
-5.9960330323
 20
21.9355909754
 10
-5.9967258182
 20
21.9173179013
  0
LINE
  5
246
100
AcDbEntity
  8
ASSI
100
AcDbLine
 62
7
  6
CONTINUOUS
 10
-5.7493344017
 20
22.2388857357
 11
-5.9198022021
 21
22.089568256
  0
LINE
  5
247
100
AcDbEntity
  8
ASSI
100
AcDbLine
 62
253
  6
CONTINUOUS
 10
-5.588041192
 20
22.2527210057
 11
-5.757776767
 21
22.1040449027
  0
LINE
  5
248
100
AcDbEntity
  8
ASSI
100
AcDbLine
 62
7
  6
CONTINUOUS
 10
-5.7492777045
 20
22.2389352789
 11
-5.7435111866
 21
22.24365827
  0
LINE
  5
249
100
AcDbEntity
  8
ASSI
100
AcDbLine
 62
253
  6
CONTINUOUS
 10
1.2053291583
 20
25.4277242691
 11
-0.6058150685
 21
23.9902127404
  0
LINE
  5
24A
100
AcDbEntity
  8
ASSI
100
AcDbLine
 62
253
  6
CONTINUOUS
 10
-4.7602712297
 20
22.5651632016
 11
-2.0706861585
 21
24.6991970495
  0
LINE
  5
24B
100
AcDbEntity
  8
ASSI
100
AcDbLine
 62
253
  6
CONTINUOUS
 10
-4.3886501252
 20
22.415911788
 11
-1.8684708954
 21
24.4155316687
  0
LINE
  5
24C
100
AcDbEntity
  8
ASSI
100
AcDbLine
 62
7
  6
CONTINUOUS
 10
-1.2434884563
 20
23.7654618328
 11
-1.8496556225
 21
23.2845024224
  0
LINE
  5
24D
100
AcDbEntity
  8
ASSI
100
AcDbLine
 62
253
  6
CONTINUOUS
 10
-2.2791469231
 20
24.7844821869
 11
-5.588041192
 21
22.2527210057
  0
LINE
  5
24E
100
AcDbEntity
  8
ASSI
100
AcDbLine
 62
7
  6
CONTINUOUS
 10
-2.4334152817
 20
24.7763386679
 11
-5.7434683517
 21
22.2436910446
  0
LINE
  5
24F
100
AcDbEntity
  8
ASSI
100
AcDbLine
 62
253
  6
CONTINUOUS
 10
6.8623830477
 20
-21.1494037672
 11
6.5354402708
 21
-21.1509536043
  0
LWPOLYLINE
  5
250
100
AcDbEntity
  8
ASSI
100
AcDbPolyline
 62
7
  6
CONTINUOUS
 90
10
 70
0
 10
4.9548141424
 20
-23.318284687
 10
4.9797810064
 20
-23.3266088969
 10
5.0066536864
 20
-23.3319175476
 10
5.0346991599
 20
-23.333725269
 10
5.0632131744
 20
-23.3317788769
 10
5.0912110147
 20
-23.3260906556
 10
5.1183275749
 20
-23.3167736894
 10
5.1439321678
 20
-23.3041338082
 10
5.1670973367
 20
-23.288948913
 10
5.1698649031
 20
-23.2868630792
  0
LINE
  5
251
100
AcDbEntity
  8
ASSI
100
AcDbLine
 62
7
  6
CONTINUOUS
 10
4.9552310844
 20
-23.3184545968
 11
3.6440947405
 21
-22.7918726822
  0
LINE
  5
252
100
AcDbEntity
  8
ASSI
100
AcDbLine
 62
253
  6
CONTINUOUS
 10
4.9047575881
 20
-23.2038260342
 11
3.7295154106
 21
-22.7318222805
  0
LINE
  5
253
100
AcDbEntity
  8
ASSI
100
AcDbLine
 62
253
  6
CONTINUOUS
 10
4.9047575881
 20
-22.9037293104
 11
4.0011899053
 21
-22.5408361586
  0
LINE
  5
254
100
AcDbEntity
  8
ASSI
100
AcDbLine
 62
253
  6
CONTINUOUS
 10
4.9768121014
 20
-22.6677904652
 11
4.2409808533
 21
-22.372264047
  0
LWPOLYLINE
  5
255
100
AcDbEntity
  8
ASSI
100
AcDbPolyline
 62
7
  6
CONTINUOUS
 90
6
 70
0
 10
-7.6036036821
 20
23.4094962608
 10
-7.6018832454
 20
23.4124528417
 10
-7.5917084427
 20
23.4317710674
 10
-7.5828238038
 20
23.4520654339
 10
-7.575566958
 20
23.4724731407
 10
-7.5698241797
 20
23.4931189315
  0
LINE
  5
256
100
AcDbEntity
  8
ASSI
100
AcDbLine
 62
253
  6
CONTINUOUS
 10
-7.6100734697
 20
23.4469381335
 11
-8.0454661347
 21
22.7085192787
  0
LINE
  5
257
100
AcDbEntity
  8
ASSI
100
AcDbLine
 62
7
  6
CONTINUOUS
 10
-7.6035991143
 20
23.4095038395
 11
-8.0454661347
 21
22.6601045836
  0
LINE
  5
258
100
AcDbEntity
  8
ASSI
100
AcDbLine
 62
7
  6
CONTINUOUS
 10
-2.9813074537
 20
19.6696195473
 11
-2.8028930513
 21
19.8234994518
  0
LINE
  5
259
100
AcDbEntity
  8
ASSI
100
AcDbLine
 62
7
  6
CONTINUOUS
 10
-2.8028930513
 20
19.8234994518
 11
-2.2538415221
 21
20.2889884794
  0
LINE
  5
25A
100
AcDbEntity
  8
ASSI
100
AcDbLine
 62
253
  6
CONTINUOUS
 10
-3.0076498721
 20
21.2163776781
 11
-2.4818154288
 21
21.6500839854
  0
LINE
  5
25B
100
AcDbEntity
  8
ASSI
100
AcDbLine
 62
253
  6
CONTINUOUS
 10
-2.8028930513
 20
20.9293859018
 11
-2.2733961885
 21
21.3661129591
  0
LINE
  5
25C
100
AcDbEntity
  8
ASSI
100
AcDbLine
 62
7
  6
CONTINUOUS
 10
0.5189758737
 20
24.2369183
 11
-0.3580850388
 21
23.5184720605
  0
LINE
  5
25D
100
AcDbEntity
  8
RACCORDO
100
AcDbLine
 62
7
  6
CONTINUOUS
 10
-1.2187869256
 20
22.7147606749
 11
-1.1711400671
 21
22.7537906965
  0
LINE
  5
25E
100
AcDbEntity
  8
RACCORDO
100
AcDbLine
 62
253
  6
CONTINUOUS
 10
-1.0979687649
 20
22.7190244176
 11
-1.0444026123
 21
22.762903241
  0
LINE
  5
25F
100
AcDbEntity
  8
ASSI
100
AcDbLine
 62
7
  6
CONTINUOUS
 10
-1.448729472
 20
20.5117381552
 11
-1.4429629541
 21
20.5164611462
  0
LINE
  5
260
100
AcDbEntity
  8
ASSI
100
AcDbLine
 62
253
  6
CONTINUOUS
 10
-3.1860642746
 20
21.0711871878
 11
-3.0076498721
 21
21.2163776781
  0
LINE
  5
261
100
AcDbEntity
  8
ASSI
100
AcDbLine
 62
253
  6
CONTINUOUS
 10
-2.9813074537
 20
20.7841954116
 11
-2.8028930513
 21
20.9293859018
  0
LINE
  5
262
100
AcDbEntity
  8
ASSI
100
AcDbLine
 62
253
  6
CONTINUOUS
 10
1.3671325571
 20
25.1993500932
 11
-0.3566832863
 21
23.8311514088
  0
LINE
  5
263
100
AcDbEntity
  8
ASSI
100
AcDbLine
 62
7
  6
CONTINUOUS
 10
-0.8888392675
 20
20.9404423089
 11
-1.4429201192
 21
20.5164939208
  0
LINE
  5
264
100
AcDbEntity
  8
ASSI
100
AcDbLine
 62
253
  6
CONTINUOUS
 10
-0.7347718341
 20
20.9484318916
 11
-1.2874929595
 21
20.5255238819
  0
LWPOLYLINE
  5
265
100
AcDbEntity
  8
ASSI
100
AcDbPolyline
 62
7
  6
CONTINUOUS
 90
4
 70
0
 10
4.1447598209
 20
22.2025025725
 10
4.1090827811
 20
22.1836021483
 10
4.0766587683
 20
22.1615522307
 10
4.0717327584
 20
22.1577084068
  0
LWPOLYLINE
  5
266
100
AcDbEntity
  8
ASSI
100
AcDbPolyline
 62
7
  6
CONTINUOUS
 90
3
 70
0
 10
6.5946227995
 20
23.3625105408
 10
6.5436347371
 20
23.3373194572
 10
6.4922177205
 20
23.3059292972
  0
LWPOLYLINE
  5
267
100
AcDbEntity
  8
ASSI
100
AcDbPolyline
 62
7
  6
CONTINUOUS
 90
5
 70
0
 10
4.3151935851
 20
19.2186181664
 10
4.2886731835
 20
19.2098951132
 10
4.2635615668
 20
19.1980000061
 10
4.2406175859
 20
19.1835616559
 10
4.2341362438
 20
19.1787758094
  0
LINE
  5
268
100
AcDbEntity
  8
ASSI
100
AcDbLine
 62
7
  6
CONTINUOUS
 10
5.1702626535
 20
-21.7189825256
 11
5.4523834529
 21
-21.8322885989
  0
LINE
  5
269
100
AcDbEntity
  8
ASSI
100
AcDbLine
 62
253
  6
CONTINUOUS
 10
6.5354402799
 20
-21.0180961809
 11
6.8623830477
 21
-21.1494037672
  0
LINE
  5
26A
100
AcDbEntity
  8
ASSI
100
AcDbLine
 62
7
  6
CONTINUOUS
 10
6.8838258277
 20
-21.1534841444
 11
6.5354402802
 21
-21.0135645902
  0
LWPOLYLINE
  5
26B
100
AcDbEntity
  8
RACCORDO
100
AcDbPolyline
 62
7
  6
CONTINUOUS
 90
14
 70
0
 10
-15.6211021672
 20
-16.1030710554
 10
-15.6200875188
 20
-16.1284392306
 10
-15.6122211157
 20
-16.218059474
 10
-15.5980944658
 20
-16.3020919895
 10
-15.5780186079
 20
-16.3806595107
 10
-15.552213485
 20
-16.4540648408
 10
-15.5208538641
 20
-16.5224174196
 10
-15.4842657481
 20
-16.5855026936
 10
-15.4427330703
 20
-16.6432426869
 10
-15.3965339965
 20
-16.6955177903
 10
-15.3462154657
 20
-16.7419496378
 10
-15.2922795333
 20
-16.7823502832
 10
-15.2350691861
 20
-16.816662882
 10
-15.2004793497
 20
-16.8337532245
  0
LWPOLYLINE
  5
26C
100
AcDbEntity
  8
RACCORDO
100
AcDbPolyline
 62
7
  6
CONTINUOUS
 90
13
 70
0
 10
-15.6211350655
 20
18.0080316262
 10
-15.6953321105
 20
15.1581011518
 10
-15.7576276484
 20
12.2517356873
 10
-15.8060938265
 20
9.3567328122
 10
-15.8407210236
 20
6.4732651568
 10
-15.8615049015
 20
3.6014819317
 10
-15.8684423831
 20
0.7415233706
 10
-15.8615312526
 20
-2.1064647224
 10
-15.8407731352
 20
-4.9423398615
 10
-15.8061705209
 20
-7.7659666414
 10
-15.7577271557
 20
-10.5772028808
 10
-15.6954520698
 20
-13.3758921162
 10
-15.6211021672
 20
-16.1030710554
  0
LINE
  5
26D
100
AcDbEntity
  8
RACCORDO
100
AcDbLine
 62
7
  6
CONTINUOUS
 10
-1.2286385984
 20
22.7048777888
 11
-2.2796123253
 21
21.4135811627
  0
LINE
  5
26E
100
AcDbEntity
  8
0
100
AcDbLine
 62
253
  6
CONTINUOUS
 10
-1.0979687649
 20
22.7190244176
 11
-2.2717748951
 21
21.2768076838
  0
LWPOLYLINE
  5
26F
100
AcDbEntity
  8
ASSI
100
AcDbPolyline
 62
7
  6
CONTINUOUS
 90
9
 70
0
 10
-1.6189226401
 20
20.3626600323
 10
-1.6332076893
 20
20.3490353511
 10
-1.6494880256
 20
20.3300402401
 10
-1.6636357081
 20
20.3091934101
 10
-1.6754309153
 20
20.2867418961
 10
-1.684731638
 20
20.2628518064
 10
-1.6913752838
 20
20.2377364525
 10
-1.6951960881
 20
20.2118411185
 10
-1.6961772126
 20
20.190147538
  0
LINE
  5
270
100
AcDbEntity
  8
ASSI
100
AcDbLine
 62
7
  6
CONTINUOUS
 10
-1.4487861692
 20
20.5116886119
 11
-1.6192564007
 21
20.3623690029
  0
LINE
  5
271
100
AcDbEntity
  8
ASSI
100
AcDbLine
 62
253
  6
CONTINUOUS
 10
-1.2874929595
 20
20.5255238819
 11
-1.4572285345
 21
20.3768477789
  0
LINE
  5
272
100
AcDbEntity
  8
ASSI
100
AcDbLine
 62
253
  6
CONTINUOUS
 10
4.4408340841
 20
22.085586316
 11
1.2928983604
 21
19.4891805543
  0
LINE
  5
273
100
AcDbEntity
  8
ASSI
100
AcDbLine
 62
253
  6
CONTINUOUS
 10
1.1144839579
 20
19.3439900641
 11
1.2928983604
 21
19.4891805543
  0
LINE
  5
274
100
AcDbEntity
  8
ASSI
100
AcDbLine
 62
7
  6
CONTINUOUS
 10
1.4479479568
 20
20.0718024153
 11
4.0716803649
 21
22.157682155
  0
LINE
  5
275
100
AcDbEntity
  8
ASSI
100
AcDbLine
 62
253
  6
CONTINUOUS
 10
1.5436839668
 20
20.0333526753
 11
4.2297599487
 21
22.1687958526
  0
LINE
  5
276
100
AcDbEntity
  8
ASSI
100
AcDbLine
 62
7
  6
CONTINUOUS
 10
4.7100629633
 20
21.8929887284
 11
6.4382151091
 21
23.2664276225
  0
LINE
  5
277
100
AcDbEntity
  8
ASSI
100
AcDbLine
 62
253
  6
CONTINUOUS
 10
4.7550849953
 20
21.8371544161
 11
6.5646537516
 21
23.2752986892
  0
LINE
  5
278
100
AcDbEntity
  8
ASSI
100
AcDbLine
 62
7
  6
CONTINUOUS
 10
6.4922177205
 20
23.3059292972
 11
6.4381860141
 21
23.2663884829
  0
LWPOLYLINE
  5
279
100
AcDbEntity
  8
ASSI
100
AcDbPolyline
 62
7
  6
CONTINUOUS
 90
7
 70
0
 10
-12.1530670674
 20
23.0711103303
 10
-12.1530057841
 20
23.0654405753
 10
-12.1513352564
 20
23.0414387901
 10
-12.147061266
 20
23.0165988124
 10
-12.1400389583
 20
22.9920623485
 10
-12.1302515309
 20
22.9683687479
 10
-12.1175815798
 20
22.9456456239
  0
LINE
  5
27A
100
AcDbEntity
  8
ASSI
100
AcDbLine
 62
7
  6
CONTINUOUS
 10
-12.1530673142
 20
23.0710704547
 11
-12.1530673142
 21
23.3711671784
  0
LINE
  5
27B
100
AcDbEntity
  8
ASSI
100
AcDbLine
 62
253
  6
CONTINUOUS
 10
-12.0677826015
 20
22.9771011926
 11
-12.0677826015
 21
23.2771979164
  0
LWPOLYLINE
  5
27C
100
AcDbEntity
  8
ASSI
100
AcDbPolyline
 62
7
  6
CONTINUOUS
 90
3
 70
0
 10
-7.5698241797
 20
23.4931189315
 10
-7.565535968
 20
23.5143704602
 10
-7.5628888471
 20
23.5355838791
  0
LINE
  5
27D
100
AcDbEntity
  8
ASSI
100
AcDbLine
 62
7
  6
CONTINUOUS
 10
1.4976551813
 20
18.096302328
 11
1.3192407788
 21
17.9424224236
  0
LINE
  5
27E
100
AcDbEntity
  8
ASSI
100
AcDbLine
 62
253
  6
CONTINUOUS
 10
4.6455909049
 20
21.7985945397
 11
1.4976551813
 21
19.202188778
  0
LINE
  5
27F
100
AcDbEntity
  8
ASSI
100
AcDbLine
 62
7
  6
CONTINUOUS
 10
1.4976551813
 20
18.096302328
 11
4.6357967843
 21
20.6846299352
  0
LINE
  5
280
100
AcDbEntity
  8
ASSI
100
AcDbLine
 62
7
  6
CONTINUOUS
 10
4.5948695272
 20
21.1047852505
 11
3.6821556538
 21
20.3535367405
  0
LINE
  5
281
100
AcDbEntity
  8
ASSI
100
AcDbLine
 62
7
  6
CONTINUOUS
 10
3.7851395498
 20
18.8349827724
 11
3.7897527641
 21
18.8387611652
  0
LINE
  5
282
100
AcDbEntity
  8
ASSI
100
AcDbLine
 62
253
  6
CONTINUOUS
 10
1.3192407788
 20
19.0569982878
 11
1.4976551813
 21
19.202188778
  0
LINE
  5
283
100
AcDbEntity
  8
ASSI
100
AcDbLine
 62
7
  6
CONTINUOUS
 10
4.2340644103
 20
19.1787209484
 11
3.789787032
 21
18.8387873849
  0
LINE
  5
284
100
AcDbEntity
  8
ASSI
100
AcDbLine
 62
253
  6
CONTINUOUS
 10
4.3575998085
 20
19.1853279638
 11
3.9141287598
 21
18.8460113538
  0
LINE
  5
285
100
AcDbEntity
  8
ASSI
100
AcDbLine
 62
7
  6
CONTINUOUS
 10
-11.5748614845
 20
22.31012949
 11
-11.5748614845
 21
22.6847756909
  0
LINE
  5
286
100
AcDbEntity
  8
ASSI
100
AcDbLine
 62
253
  6
CONTINUOUS
 10
-11.4682555936
 20
22.1417728066
 11
-11.4682555936
 21
22.6419603617
  0
LINE
  5
287
100
AcDbEntity
  8
ASSI
100
AcDbLine
 62
7
  6
CONTINUOUS
 10
-11.0906894394
 20
21.8981769417
 11
-11.0906894394
 21
22.4887254882
  0
LINE
  5
288
100
AcDbEntity
  8
ASSI
100
AcDbLine
 62
253
  6
CONTINUOUS
 10
-10.9840835485
 20
21.8316688039
 11
-10.9840835485
 21
22.5418632215
  0
LINE
  5
289
100
AcDbEntity
  8
ASSI
100
AcDbLine
 62
253
  6
CONTINUOUS
 10
-10.7598478533
 20
21.7416106934
 11
-10.7598478533
 21
22.451805111
  0
LINE
  5
28A
100
AcDbEntity
  8
ASSI
100
AcDbLine
 62
253
  6
CONTINUOUS
 10
-10.4141994956
 20
21.6586163901
 11
-10.4141994956
 21
22.2186276696
  0
LINE
  5
28B
100
AcDbEntity
  8
ASSI
100
AcDbLine
 62
7
  6
CONTINUOUS
 10
-9.9707284468
 20
22.0405196986
 11
-9.9707284468
 21
21.6519524344
  0
LINE
  5
28C
100
AcDbEntity
  8
ASSI
100
AcDbLine
 62
253
  6
CONTINUOUS
 10
-9.6761488003
 20
22.0165671399
 11
-9.6761488003
 21
22.3166638637
  0
LINE
  5
28D
100
AcDbEntity
  8
ASSI
100
AcDbLine
 62
253
  6
CONTINUOUS
 10
-9.3996301141
 20
22.0431084479
 11
-9.3996301141
 21
22.3432051717
  0
LWPOLYLINE
  5
28E
100
AcDbEntity
  8
ASSI
100
AcDbPolyline
 62
7
  6
CONTINUOUS
 90
12
 70
0
 10
2.5235966227
 20
17.7299621578
 10
2.5211469653
 20
17.7277888364
 10
2.5033755966
 20
17.7101247331
 10
2.4876783444
 20
17.6912163853
 10
2.4735382541
 20
17.6706717905
 10
2.4610456166
 20
17.6486571737
 10
2.4506458066
 20
17.6261739853
 10
2.442051946
 20
17.6028242672
 10
2.4352365007
 20
17.5782397455
 10
2.4306143614
 20
17.5535971877
 10
2.4282084649
 20
17.5290695101
 10
2.4278393146
 20
17.5149791006
  0
LINE
  5
28F
100
AcDbEntity
  8
ASSI
100
AcDbLine
 62
7
  6
CONTINUOUS
 10
3.785094192
 20
18.8349431378
 11
2.5235349842
 21
17.7299083988
  0
LINE
  5
290
100
AcDbEntity
  8
ASSI
100
AcDbLine
 62
253
  6
CONTINUOUS
 10
3.9141287598
 20
18.8460113538
 11
2.6533128831
 21
17.7416277192
  0
LINE
  5
291
100
AcDbEntity
  8
ASSI
100
AcDbLine
 62
253
  6
CONTINUOUS
 10
6.7935335472
 20
18.2070020575
 11
6.3716347969
 21
17.8590215261
  0
LINE
  5
292
100
AcDbEntity
  8
ASSI
100
AcDbLine
 62
253
  6
CONTINUOUS
 10
6.9573390039
 20
17.9774086365
 11
6.5354402536
 21
17.6294281051
  0
LINE
  5
293
100
AcDbEntity
  8
ASSI
100
AcDbLine
 62
253
  6
CONTINUOUS
 10
6.3716347969
 20
17.8590215261
 11
5.0463515655
 21
16.7805294346
  0
LINE
  5
294
100
AcDbEntity
  8
ASSI
100
AcDbLine
 62
253
  6
CONTINUOUS
 10
6.5354402536
 20
17.6294281051
 11
5.2101570221
 21
16.5509360136
  0
LINE
  5
295
100
AcDbEntity
  8
ASSI
100
AcDbLine
 62
7
  6
CONTINUOUS
 10
9.8678978121
 20
21.9486414046
 11
5.728011453
 21
18.6965370078
  0
LWPOLYLINE
  5
296
100
AcDbEntity
  8
ASSI
100
AcDbPolyline
 62
7
  6
CONTINUOUS
 90
5
 70
0
 10
6.9518330759
 20
-21.1976281406
 10
6.931820617
 20
-21.1805475354
 10
6.9102465944
 20
-21.1663150728
 10
6.8876731437
 20
-21.1550765308
 10
6.8834922941
 20
-21.1533517058
  0
LINE
  5
297
100
AcDbEntity
  8
ASSI
100
AcDbLine
 62
253
  6
CONTINUOUS
 10
-9.1285229354
 20
21.2493088047
 11
-9.1285229354
 21
21.8803616746
  0
LINE
  5
298
100
AcDbEntity
  8
ASSI
100
AcDbLine
 62
253
  6
CONTINUOUS
 10
-8.7828745777
 20
22.0101936963
 11
-8.7828745777
 21
21.2930306169
  0
LINE
  5
299
100
AcDbEntity
  8
ASSI
100
AcDbLine
 62
7
  6
CONTINUOUS
 10
-8.0454661347
 20
21.9290349932
 11
-8.0454661347
 21
23.4854488295
  0
LINE
  5
29A
100
AcDbEntity
  8
ASSI
100
AcDbLine
 62
253
  6
CONTINUOUS
 10
-7.5960915176
 20
23.8158424308
 11
-7.5960915176
 21
23.4942981788
  0
LINE
  5
29B
100
AcDbEntity
  8
ASSI
100
AcDbLine
 62
7
  6
CONTINUOUS
 10
-7.5618991374
 20
23.8801080758
 11
-7.5618990321
 21
23.5584461536
  0
LINE
  5
29C
100
AcDbEntity
  8
ASSI
100
AcDbLine
 62
7
  6
CONTINUOUS
 10
-7.5628888471
 20
23.5355838791
 11
-7.5618991586
 21
23.5584616616
  0
LINE
  5
29D
100
AcDbEntity
  8
ASSI
100
AcDbLine
 62
7
  6
CONTINUOUS
 10
11.0421309182
 20
21.1581706358
 11
7.0182183807
 21
17.6849549616
  0
LINE
  5
29E
100
AcDbEntity
  8
ASSI
100
AcDbLine
 62
7
  6
CONTINUOUS
 10
11.0254955474
 20
21.5301592595
 11
7.010778523
 21
18.0861284688
  0
LINE
  5
29F
100
AcDbEntity
  8
RACCORDO
100
AcDbLine
 62
253
  6
CONTINUOUS
 10
2.2474097197
 20
12.4231342598
 11
5.6218708813
 21
15.2822881685
  0
LINE
  5
2A0
100
AcDbEntity
  8
ASSI
100
AcDbLine
 62
253
  6
CONTINUOUS
 10
6.9450162758
 20
15.4989430898
 11
6.0524762445
 21
14.7427010716
  0
LINE
  5
2A1
100
AcDbEntity
  8
RACCORDO
100
AcDbLine
 62
253
  6
CONTINUOUS
 10
2.6643474856
 20
11.8558263081
 11
6.0310259933
 21
14.7083860366
  0
LINE
  5
2A2
100
AcDbEntity
  8
ASSI
100
AcDbLine
 62
253
  6
CONTINUOUS
 10
7.0947807183
 20
16.5342797142
 11
6.5354402536
 21
16.0730142688
  0
LINE
  5
2A3
100
AcDbEntity
  8
ASSI
100
AcDbLine
 62
253
  6
CONTINUOUS
 10
7.50429436
 20
15.9602961617
 11
6.9450162758
 21
15.4990056629
  0
LINE
  5
2A4
100
AcDbEntity
  8
DRAFT
100
AcDbLine
 62
7
  6
CONTINUOUS
 10
6.6705378509
 20
16.7046652141
 11
11.5978698783
 21
20.6795459013
  0
LINE
  5
2A5
100
AcDbEntity
  8
RACCORDO
100
AcDbLine
 62
7
  6
CONTINUOUS
 10
17.5886245147
 20
23.5867142961
 11
12.4698328038
 21
19.4573830069
  0
LWPOLYLINE
  5
2A6
100
AcDbEntity
  8
ASSI
100
AcDbPolyline
 62
7
  6
CONTINUOUS
 90
11
 70
0
 10
-7.5618992064
 20
23.8801080753
 10
-7.562779601
 20
23.9011995726
 10
-7.5667261944
 20
23.9289755787
 10
-7.5741640589
 20
23.9567630406
 10
-7.5850921987
 20
23.9834707558
 10
-7.599253755
 20
24.0082903737
 10
-7.6165641795
 20
24.031041563
 10
-7.6368058258
 20
24.0513268379
 10
-7.6595887732
 20
24.0686960221
 10
-7.6844466581
 20
24.0827887294
 10
-7.6970615884
 20
24.0883483227
  0
LINE
  5
2A7
100
AcDbEntity
  8
ASSI
100
AcDbLine
 62
7
  6
CONTINUOUS
 10
-5.9967260734
 20
20.7981157116
 11
-5.9967260734
 21
21.9173750628
  0
LINE
  5
2A8
100
AcDbEntity
  8
ASSI
100
AcDbLine
 62
253
  6
CONTINUOUS
 10
-5.9114413606
 20
20.7003937946
 11
-5.9114413606
 21
21.8234058006
  0
LINE
  5
2A9
100
AcDbEntity
  8
ASSI
100
AcDbLine
 62
7
  6
CONTINUOUS
 10
7.7839334021
 20
13.4744502011
 11
7.50429436
 21
13.2345614454
  0
LINE
  5
2AA
100
AcDbEntity
  8
RACCORDO
100
AcDbLine
 62
253
  6
CONTINUOUS
 10
18.0026078067
 20
23.0064659809
 11
7.50429436
 21
14.1902724675
  0
LINE
  5
2AB
100
AcDbEntity
  8
RACCORDO
100
AcDbLine
 62
253
  6
CONTINUOUS
 10
18.4823828814
 20
21.6554980024
 11
7.8463385325
 21
12.7236418835
  0
LINE
  5
2AC
100
AcDbEntity
  8
ASSI
100
AcDbLine
 62
253
  6
CONTINUOUS
 10
-3.2578261399
 20
20.7576541036
 11
-3.2578261399
 21
19.6346420976
  0
LINE
  5
2AD
100
AcDbEntity
  8
ASSI
100
AcDbLine
 62
253
  6
CONTINUOUS
 10
-2.9813074537
 20
20.7841954116
 11
-2.9813074537
 21
19.6696195473
  0
LINE
  5
2AE
100
AcDbEntity
  8
ASSI
100
AcDbLine
 62
7
  6
CONTINUOUS
 10
-2.8028930513
 20
19.8234994518
 11
-2.8028930513
 21
20.9293859018
  0
LWPOLYLINE
  5
2AF
100
AcDbEntity
  8
ASSI
100
AcDbPolyline
 62
7
  6
CONTINUOUS
 90
5
 70
0
 10
6.9773096103
 20
17.5534870746
 10
6.9867256696
 20
17.570733217
 10
6.996056016
 20
17.5910496193
 10
7.0037325064
 20
17.6115197002
 10
7.0098859552
 20
17.6322948363
  0
LINE
  5
2B0
100
AcDbEntity
  8
ASSI
100
AcDbLine
 62
253
  6
CONTINUOUS
 10
6.5354402536
 20
16.8524985543
 11
6.9708329186
 21
17.5909174091
  0
LINE
  5
2B1
100
AcDbEntity
  8
ASSI
100
AcDbLine
 62
7
  6
CONTINUOUS
 10
6.5354402536
 20
16.8040838592
 11
6.9773072741
 21
17.5534831152
  0
LINE
  5
2B2
100
AcDbEntity
  8
0
100
AcDbLine
 62
7
  6
CONTINUOUS
 10
6.0524762445
 20
-5.0982985027
 11
6.0310259933
 21
-5.0896835982
  0
LWPOLYLINE
  5
2B3
100
AcDbEntity
  8
ASSI
100
AcDbPolyline
 62
7
  6
CONTINUOUS
 90
16
 70
0
 10
-1.8000810019
 20
24.5392741626
 10
-1.801332897
 20
24.5610556099
 10
-1.8066706416
 20
24.5953475888
 10
-1.8161740222
 20
24.6291717227
 10
-1.8298254572
 20
24.6620288969
 10
-1.8474546328
 20
24.6933464835
 10
-1.8689235598
 20
24.7227784583
 10
-1.894140373
 20
24.7500426475
 10
-1.9227430566
 20
24.7746566844
 10
-1.9542819654
 20
24.7962823981
 10
-1.9889522838
 20
24.8150025905
 10
-2.0263424166
 20
24.8304911996
 10
-2.0651800434
 20
24.8423213314
 10
-2.1057069158
 20
24.8506493893
 10
-2.1478006148
 20
24.8553987513
 10
-2.1896267977
 20
24.8563796235
  0
LINE
  5
2B4
100
AcDbEntity
  8
ASSI
100
AcDbLine
 62
7
  6
CONTINUOUS
 10
-1.7780069416
 20
23.4139872416
 11
-1.8000638508
 21
24.5391691277
  0
LINE
  5
2B5
100
AcDbEntity
  8
ASSI
100
AcDbLine
 62
7
  6
CONTINUOUS
 10
-2.2538415221
 20
20.2889884794
 11
-2.2733961885
 21
21.3661129591
  0
LINE
  5
2B6
100
AcDbEntity
  8
ASSI
100
AcDbLine
 62
253
  6
CONTINUOUS
 10
-1.8496556225
 20
23.2845024224
 11
-1.8684708954
 21
24.4155316687
  0
LINE
  5
2B7
100
AcDbEntity
  8
ASSI
100
AcDbLine
 62
253
  6
CONTINUOUS
 10
-1.2353071109
 20
22.6966844082
 11
-1.2434884563
 21
23.7654618328
  0
LINE
  5
2B8
100
AcDbEntity
  8
ASSI
100
AcDbLine
 62
7
  6
CONTINUOUS
 10
-1.6961778408
 20
20.1901779389
 11
-1.6961778408
 21
19.0709185875
  0
LINE
  5
2B9
100
AcDbEntity
  8
ASSI
100
AcDbLine
 62
253
  6
CONTINUOUS
 10
-1.6108931281
 20
20.0962086768
 11
-1.6108931281
 21
18.9731966708
  0
LINE
  5
2BA
100
AcDbEntity
  8
0
100
AcDbLine
 62
7
  6
CONTINUOUS
 10
6.9450162758
 20
-4.3420564845
 11
6.0310259933
 21
-3.9749773816
  0
LINE
  5
2BB
100
AcDbEntity
  8
ASSI
100
AcDbLine
 62
253
  6
CONTINUOUS
 10
1.834387745
 20
24.6223942422
 11
1.8294224145
 21
24.9088520229
  0
LINE
  5
2BC
100
AcDbEntity
  8
ASSI
100
AcDbLine
 62
7
  6
CONTINUOUS
 10
1.8711358851
 20
24.6551183185
 11
1.8655869193
 21
24.9752469431
  0
LINE
  5
2BD
100
AcDbEntity
  8
ASSI
100
AcDbLine
 62
253
  6
CONTINUOUS
 10
0.1564879056
 20
22.8970900357
 11
0.1525166266
 21
23.4158816419
  0
LINE
  5
2BE
100
AcDbEntity
  8
ASSI
100
AcDbLine
 62
253
  6
CONTINUOUS
 10
1.0427220926
 20
17.9074449738
 11
1.0427220926
 21
19.0304569798
  0
LINE
  5
2BF
100
AcDbEntity
  8
ASSI
100
AcDbLine
 62
253
  6
CONTINUOUS
 10
1.3192407788
 20
17.9424224236
 11
1.3192407788
 21
19.0569982878
  0
LINE
  5
2C0
100
AcDbEntity
  8
ASSI
100
AcDbLine
 62
7
  6
CONTINUOUS
 10
1.4976551813
 20
18.096302328
 11
1.4976551813
 21
19.202188778
  0
LINE
  5
2C1
100
AcDbEntity
  8
ASSI
100
AcDbLine
 62
7
  6
CONTINUOUS
 10
2.4278390742
 20
17.5151464541
 11
2.4278390742
 21
17.2150497305
  0
LINE
  5
2C2
100
AcDbEntity
  8
ASSI
100
AcDbLine
 62
253
  6
CONTINUOUS
 10
2.5131237869
 20
17.4211794385
 11
2.5131237869
 21
17.1210804682
  0
LINE
  5
2C3
100
AcDbEntity
  8
0
100
AcDbLine
 62
7
  6
CONTINUOUS
 10
6.0524762445
 20
-1.1663686901
 11
6.0310259933
 21
-1.1577537856
  0
LWPOLYLINE
  5
2C4
100
AcDbEntity
  8
ASSI
100
AcDbPolyline
 62
7
  6
CONTINUOUS
 90
6
 70
0
 10
7.0138635787
 20
-21.3113291038
 10
7.0071423969
 20
-21.2862765126
 10
6.9975614905
 20
-21.2620425772
 10
6.9849789956
 20
-21.238740014
 10
6.969646055
 20
-21.2171246428
 10
6.9518330759
 20
-21.1976281406
  0
LWPOLYLINE
  5
2C5
100
AcDbEntity
  8
ASSI
100
AcDbPolyline
 62
7
  6
CONTINUOUS
 90
12
 70
0
 10
1.8655818148
 20
24.9750078249
 10
1.8612139928
 20
25.0553755039
 10
1.8520198059
 20
25.125222986
 10
1.8376308347
 20
25.1918226413
 10
1.8179489692
 20
25.2545211861
 10
1.7932237368
 20
25.3121130795
 10
1.7636088931
 20
25.3642985241
 10
1.7291009949
 20
25.4110774666
 10
1.6901469539
 20
25.4518107197
 10
1.6471231938
 20
25.4861774279
 10
1.6005823676
 20
25.5138615233
 10
1.5709516281
 20
25.5272674537
  0
LWPOLYLINE
  5
2C6
100
AcDbEntity
  8
ASSI
100
AcDbPolyline
 62
7
  6
CONTINUOUS
 90
6
 70
0
 10
2.4278391973
 20
17.2150681002
 10
2.4292617174
 20
17.18816229
 10
2.4333872855
 20
17.1626350715
 10
2.4403930071
 20
17.1374210609
 10
2.4502918694
 20
17.1131045511
 10
2.4632093575
 20
17.089806866
  0
LINE
  5
2C7
100
AcDbEntity
  8
ASSI
100
AcDbLine
 62
7
  6
CONTINUOUS
 10
3.0060449038
 20
16.8287549665
 11
3.0060449038
 21
16.4551298597
  0
LINE
  5
2C8
100
AcDbEntity
  8
ASSI
100
AcDbLine
 62
253
  6
CONTINUOUS
 10
3.1126507947
 20
16.7859396373
 11
3.1126507947
 21
16.3329774638
  0
LINE
  5
2C9
100
AcDbEntity
  8
ASSI
100
AcDbLine
 62
7
  6
CONTINUOUS
 10
3.490216949
 20
16.0421562173
 11
3.490216949
 21
16.6327047638
  0
LINE
  5
2CA
100
AcDbEntity
  8
ASSI
100
AcDbLine
 62
253
  6
CONTINUOUS
 10
3.5968228399
 20
15.9756480795
 11
3.5968228399
 21
16.6858424971
  0
LINE
  5
2CB
100
AcDbEntity
  8
ASSI
100
AcDbLine
 62
253
  6
CONTINUOUS
 10
3.8210585351
 20
15.885589969
 11
3.8210585351
 21
16.5957843866
  0
LINE
  5
2CC
100
AcDbEntity
  8
ASSI
100
AcDbLine
 62
253
  6
CONTINUOUS
 10
4.1667068928
 20
15.8025956657
 11
4.1667068928
 21
16.3626069452
  0
LINE
  5
2CD
100
AcDbEntity
  8
ASSI
100
AcDbLine
 62
7
  6
CONTINUOUS
 10
4.6101779415
 20
16.1844989742
 11
4.6101779415
 21
15.79593171
  0
LINE
  5
2CE
100
AcDbEntity
  8
ASSI
100
AcDbLine
 62
253
  6
CONTINUOUS
 10
4.9047575881
 20
16.4606431393
 11
4.9047575881
 21
16.16054655
  0
LINE
  5
2CF
100
AcDbEntity
  8
ASSI
100
AcDbLine
 62
253
  6
CONTINUOUS
 10
4.9047575881
 20
-23.2038260342
 11
4.9047575881
 21
-22.9037293104
  0
LINE
  5
2D0
100
AcDbEntity
  8
ASSI
100
AcDbLine
 62
7
  6
CONTINUOUS
 10
4.7034558303
 20
20.8076673931
 11
4.7102094487
 21
21.9170511525
  0
LWPOLYLINE
  5
2D1
100
AcDbEntity
  8
ASSI
100
AcDbPolyline
 62
7
  6
CONTINUOUS
 90
3
 70
0
 10
7.0098859552
 20
17.6322948363
 10
7.014578309
 20
17.6537360735
 10
7.0176020226
 20
17.6751487757
  0
LINE
  5
2D2
100
AcDbEntity
  8
0
100
AcDbLine
 62
7
  6
CONTINUOUS
 10
6.0524762445
 20
-1.1663686901
 11
6.9450162758
 21
-0.5389164905
  0
LWPOLYLINE
  5
2D3
100
AcDbEntity
  8
ASSI
100
AcDbPolyline
 62
7
  6
CONTINUOUS
 90
4
 70
0
 10
-12.1175815798
 20
22.9456456239
 10
-12.1022734058
 20
22.9245870011
 10
-12.0845865806
 20
22.9055956409
 10
-12.0647926733
 20
22.8889556108
  0
LWPOLYLINE
  5
2D4
100
AcDbEntity
  8
ASSI
100
AcDbPolyline
 62
7
  6
CONTINUOUS
 90
3
 70
0
 10
7.0190073582
 20
-21.3618584486
 10
7.0177580749
 20
-21.3366344434
 10
7.0138635787
 20
-21.3113291038
  0
LWPOLYLINE
  5
2D5
100
AcDbEntity
  8
ASSI
100
AcDbPolyline
 62
7
  6
CONTINUOUS
 90
16
 70
0
 10
4.7101962149
 20
21.9171031282
 10
4.7092601099
 20
21.9421946829
 10
4.7041760538
 20
21.9777451949
 10
4.694642602
 20
22.0127858438
 10
4.6806948501
 20
22.0467620517
 10
4.6625330741
 20
22.0790575014
 10
4.6402909254
 20
22.1093439769
 10
4.6140411142
 20
22.1373386998
 10
4.5842050881
 20
22.1624892138
 10
4.5513142952
 20
22.1844071211
 10
4.5151325993
 20
22.2031995083
 10
4.4761214987
 20
22.2185286889
 10
4.435741736
 20
22.2299248467
 10
4.3937642327
 20
22.2375782853
 10
4.3502836568
 20
22.2414105669
 10
4.3072923891
 20
22.2412736475
  0
LWPOLYLINE
  5
2D6
100
AcDbEntity
  8
ASSI
100
AcDbPolyline
 62
7
  6
CONTINUOUS
 90
11
 70
0
 10
7.0190072199
 20
18.0239833817
 10
7.0186424672
 20
18.037668883
 10
7.0156249814
 20
18.0651433184
 10
7.0091935616
 20
18.0929913468
 10
6.9992855234
 20
18.1199729689
 10
6.9860933179
 20
18.1452647592
 10
6.969632348
 20
18.1687124734
 10
6.9501290207
 20
18.1898207473
 10
6.9279555999
 20
18.2081083821
 10
6.9035549219
 20
18.2231928568
 10
6.8838126982
 20
18.2323404227
  0
LINE
  5
2D7
100
AcDbEntity
  8
ASSI
100
AcDbLine
 62
253
  6
CONTINUOUS
 10
5.1812762742
 20
16.4871844473
 11
5.1812762742
 21
16.1870877235
  0
LINE
  5
2D8
100
AcDbEntity
  8
ASSI
100
AcDbLine
 62
253
  6
CONTINUOUS
 10
5.1812762742
 20
-23.1772847262
 11
5.1812762742
 21
-22.8771880024
  0
LINE
  5
2D9
100
AcDbEntity
  8
ASSI
100
AcDbLine
 62
253
  6
CONTINUOUS
 10
5.4523834529
 20
16.0243409502
 11
5.4523834529
 21
15.3460626986
  0
LINE
  5
2DA
100
AcDbEntity
  8
ASSI
100
AcDbLine
 62
253
  6
CONTINUOUS
 10
5.4523834529
 20
-21.5206526917
 11
5.4523834529
 21
-21.8322885989
  0
LINE
  5
2DB
100
AcDbEntity
  8
ASSI
100
AcDbLine
 62
253
  6
CONTINUOUS
 10
5.7980318106
 20
16.1541729719
 11
5.7980318106
 21
15.4369205736
  0
LINE
  5
2DC
100
AcDbEntity
  8
ASSI
100
AcDbLine
 62
253
  6
CONTINUOUS
 10
5.7980318106
 20
-21.284207372
 11
5.7980318106
 21
-21.8704653069
  0
LINE
  5
2DD
100
AcDbEntity
  8
RACCORDO
100
AcDbLine
 62
7
  6
CONTINUOUS
 10
6.0310259933
 20
-20.9558234204
 11
6.0310259933
 21
14.7083860366
  0
LINE
  5
2DE
100
AcDbEntity
  8
0
100
AcDbLine
 62
7
  6
CONTINUOUS
 10
6.0524762445
 20
-21.0073682644
 11
6.0524762445
 21
-5.0982985027
  0
LINE
  5
2DF
100
AcDbEntity
  8
0
100
AcDbLine
 62
7
  6
CONTINUOUS
 10
6.0524762445
 20
-1.1663686901
 11
6.0524762445
 21
14.7427010716
  0
LINE
  5
2E0
100
AcDbEntity
  8
ASSI
100
AcDbLine
 62
7
  6
CONTINUOUS
 10
6.5354402536
 20
16.0730142688
 11
6.5354402536
 21
17.6294281051
  0
LINE
  5
2E1
100
AcDbEntity
  8
ASSI
100
AcDbLine
 62
7
  6
CONTINUOUS
 10
6.5354402536
 20
-22.1814111517
 11
6.5354402929
 21
-20.8258921982
  0
LINE
  5
2E2
100
AcDbEntity
  8
ASSI
100
AcDbLine
 62
7
  6
CONTINUOUS
 10
6.9450162758
 20
15.4989430898
 11
6.9450162758
 21
13.123402354
  0
LINE
  5
2E3
100
AcDbEntity
  8
0
100
AcDbLine
 62
7
  6
CONTINUOUS
 10
6.9450162758
 20
-0.5389164905
 11
6.9450162758
 21
-4.3420564845
  0
LINE
  5
2E4
100
AcDbEntity
  8
ASSI
100
AcDbLine
 62
7
  6
CONTINUOUS
 10
6.9450162758
 20
-20.3799160648
 11
6.9450162758
 21
-18.004375329
  0
LINE
  5
2E5
100
AcDbEntity
  8
ASSI
100
AcDbLine
 62
253
  6
CONTINUOUS
 10
6.9848148707
 20
-21.7475425235
 11
6.9848148707
 21
-21.4259982715
  0
LINE
  5
2E6
100
AcDbEntity
  8
ASSI
100
AcDbLine
 62
253
  6
CONTINUOUS
 10
6.9848148707
 20
17.6382774544
 11
6.9848148707
 21
17.9598217064
  0
LINE
  5
2E7
100
AcDbEntity
  8
ASSI
100
AcDbLine
 62
7
  6
CONTINUOUS
 10
7.0190073562
 20
-21.683394549
 11
7.0190073562
 21
-21.3618502969
  0
LINE
  5
2E8
100
AcDbEntity
  8
ASSI
100
AcDbLine
 62
7
  6
CONTINUOUS
 10
7.0190073562
 20
17.702425429
 11
7.0190073562
 21
18.0239696811
  0
LINE
  5
2E9
100
AcDbEntity
  8
ASSI
100
AcDbLine
 62
7
  6
CONTINUOUS
 10
7.50429436
 20
-19.8900914347
 11
7.50429436
 21
-17.1643567185
  0
LINE
  5
2EA
100
AcDbEntity
  8
ASSI
100
AcDbLine
 62
7
  6
CONTINUOUS
 10
7.50429436
 20
13.2345614454
 11
7.50429436
 21
15.9602961617
  0
LINE
  5
2EB
100
AcDbEntity
  8
ASSI
100
AcDbLine
 62
7
  6
CONTINUOUS
 10
7.0189379057
 20
17.696402523
 11
7.0190073438
 21
17.702462268
  0
LINE
  5
2EC
100
AcDbEntity
  8
ASSI
100
AcDbLine
 62
7
  6
CONTINUOUS
 10
7.0176020226
 20
17.6751487757
 11
7.0189379057
 21
17.696402523
  0
LINE
  5
2ED
100
AcDbEntity
  8
ASSI
100
AcDbLine
 62
7
  6
CONTINUOUS
 10
7.7839334021
 20
13.4744502011
 11
7.7839334021
 21
13.1273791505
  0
LINE
  5
2EE
100
AcDbEntity
  8
ASSI
100
AcDbLine
 62
7
  6
CONTINUOUS
 10
7.7839334021
 20
-16.6873076426
 11
7.7839334021
 21
-16.9286566232
  0
LINE
  5
2EF
100
AcDbEntity
  8
ASSI
100
AcDbLine
 62
7
  6
CONTINUOUS
 10
7.8375563071
 20
13.105842983
 11
7.8375563071
 21
-16.6031217402
  0
LINE
  5
2F0
100
AcDbEntity
  8
RACCORDO
100
AcDbLine
 62
7
  6
CONTINUOUS
 10
7.8463385325
 20
12.7236418835
 11
7.8463385325
 21
-16.2279749201
  0
LINE
  5
2F1
100
AcDbEntity
  8
ASSI
100
AcDbLine
 62
7
  6
CONTINUOUS
 10
7.018636666
 20
-21.69734303
 11
7.0190071042
 21
-21.6832263949
  0
LINE
  5
2F2
100
AcDbEntity
  8
ASSI
100
AcDbLine
 62
7
  6
CONTINUOUS
 10
7.0162274662
 20
-21.7218774654
 11
7.018636666
 21
-21.69734303
  0
LINE
  5
2F3
100
AcDbEntity
  8
0
100
AcDbLine
 62
7
  6
CONTINUOUS
 10
6.0524762445
 20
-5.0982985027
 11
6.9450162758
 21
-4.3420564845
  0
LINE
  5
2F4
100
AcDbEntity
  8
ASSI
100
AcDbLine
 62
7
  6
CONTINUOUS
 10
11.0421309182
 20
21.1581706358
 11
11.0421309182
 21
21.3460028649
  0
LINE
  5
2F5
100
AcDbEntity
  8
DRAFT
100
AcDbLine
 62
7
  6
CONTINUOUS
 10
18.6536318619
 20
1.7137277352
 11
19.4556712698
 21
2.5463930408
  0
LWPOLYLINE
  5
2F6
100
AcDbEntity
  8
ASSI
100
AcDbPolyline
 62
7
  6
CONTINUOUS
 90
4
 70
0
 10
2.4632093575
 20
17.089806866
 10
2.4788942457
 20
17.06824954
 10
2.4970686021
 20
17.0488674905
 10
2.5174377206
 20
17.0319616941
  0
LWPOLYLINE
  5
2F7
100
AcDbEntity
  8
ASSI
100
AcDbPolyline
 62
7
  6
CONTINUOUS
 90
3
 70
0
 10
7.0047819984
 20
-21.7711110742
 10
7.0116014777
 20
-21.7465242506
 10
7.0162274662
 20
-21.7218774654
  0
LINE
  5
2F8
100
AcDbEntity
  8
ASSI
100
AcDbLine
 62
7
  6
CONTINUOUS
 10
6.9450162758
 20
13.123402354
 11
7.7839334021
 21
13.1273791505
  0
LINE
  5
2F9
100
AcDbEntity
  8
ASSI
100
AcDbLine
 62
7
  6
CONTINUOUS
 10
6.9450162758
 20
13.123402354
 11
7.8375563071
 21
13.105842983
  0
LWPOLYLINE
  5
2FA
100
AcDbEntity
  8
ASSI
100
AcDbPolyline
 62
7
  6
CONTINUOUS
 90
4
 70
0
 10
-12.0647926733
 20
22.8889556108
 10
-12.0434875397
 20
22.8750667112
 10
-12.0211977362
 20
22.8640692502
 10
-12.0175638372
 20
22.8625757268
  0
LINE
  5
2FB
100
AcDbEntity
  8
ASSI
100
AcDbLine
 62
7
  6
CONTINUOUS
 10
7.50429436
 20
13.8663985868
 11
7.7839334021
 21
13.4744502011
  0
LWPOLYLINE
  5
2FC
100
AcDbEntity
  8
ASSI
100
AcDbPolyline
 62
7
  6
CONTINUOUS
 90
4
 70
0
 10
6.9732882191
 20
-21.8389518553
 10
6.9857823513
 20
-21.8169413645
 10
6.9961845993
 20
-21.7944608064
 10
7.0047819984
 20
-21.7711110742
  0
LINE
  5
2FD
100
AcDbEntity
  8
ASSI
100
AcDbLine
 62
253
  6
CONTINUOUS
 10
4.9768121014
 20
-22.6677904652
 11
5.4938761548
 21
-21.843617621
  0
LINE
  5
2FE
100
AcDbEntity
  8
ASSI
100
AcDbLine
 62
253
  6
CONTINUOUS
 10
5.1959731439
 20
-22.8301150842
 11
5.7980318106
 21
-21.8704653069
  0
LINE
  5
2FF
100
AcDbEntity
  8
ASSI
100
AcDbLine
 62
7
  6
CONTINUOUS
 10
7.8375563071
 20
-16.6031217402
 11
6.9450162758
 21
-18.004375329
  0
LINE
  5
300
100
AcDbEntity
  8
ASSI
100
AcDbLine
 62
7
  6
CONTINUOUS
 10
4.6101779415
 20
15.79593171
 11
4.1667068928
 21
15.8025956657
  0
LINE
  5
301
100
AcDbEntity
  8
ASSI
100
AcDbLine
 62
7
  6
CONTINUOUS
 10
5.0311647221
 20
16.0306705245
 11
5.5584352441
 21
16.0227473299
  0
LINE
  5
302
100
AcDbEntity
  8
ASSI
100
AcDbLine
 62
253
  6
CONTINUOUS
 10
5.1959731439
 20
16.1632199938
 11
5.7980318106
 21
16.1541729719
  0
LWPOLYLINE
  5
303
100
AcDbEntity
  8
ASSI
100
AcDbPolyline
 62
7
  6
CONTINUOUS
 90
5
 70
0
 10
4.9552719044
 20
16.0459022616
 10
4.9598505904
 20
16.0441259658
 10
4.9826471928
 20
16.0370226132
 10
5.0062409776
 20
16.0325093844
 10
5.0311557226
 20
16.0306706725
  0
LINE
  5
304
100
AcDbEntity
  8
ASSI
100
AcDbLine
 62
7
  6
CONTINUOUS
 10
7.7839334021
 20
13.1273791505
 11
7.8375563071
 21
13.105842983
  0
LINE
  5
305
100
AcDbEntity
  8
ASSI
100
AcDbLine
 62
7
  6
CONTINUOUS
 10
-10.9840835485
 20
21.8316688039
 11
-10.7598478533
 21
21.7416106934
  0
LINE
  5
306
100
AcDbEntity
  8
ASSI
100
AcDbLine
 62
7
  6
CONTINUOUS
 10
3.5968228399
 20
15.9756480795
 11
3.8210585351
 21
15.885589969
  0
LINE
  5
307
100
AcDbEntity
  8
RACCORDO
100
AcDbLine
 62
7
  6
CONTINUOUS
 10
-11.637743022
 20
22.2141382209
 11
-11.0906894394
 21
21.9944291691
  0
LINE
  5
308
100
AcDbEntity
  8
RACCORDO
100
AcDbLine
 62
7
  6
CONTINUOUS
 10
-10.2483436391
 20
21.6561241055
 11
3.490216949
 21
16.1384084447
  0
LINE
  5
309
100
AcDbEntity
  8
RACCORDO
100
AcDbLine
 62
7
  6
CONTINUOUS
 10
4.3325627492
 20
15.8001033811
 11
5.6218708813
 21
15.2822881685
  0
LINE
  5
30A
100
AcDbEntity
  8
ASSI
100
AcDbLine
 62
7
  6
CONTINUOUS
 10
3.1126507947
 20
16.3329774638
 11
-9.1285229354
 21
21.2493088047
  0
LINE
  5
30B
100
AcDbEntity
  8
ASSI
100
AcDbLine
 62
7
  6
CONTINUOUS
 10
4.9552306923
 20
16.0459180104
 11
4.0241351326
 21
16.4198669783
  0
LINE
  5
30C
100
AcDbEntity
  8
ASSI
100
AcDbLine
 62
7
  6
CONTINUOUS
 10
3.4941903164
 20
16.6327047638
 11
2.5630954019
 21
17.0066534725
  0
LINE
  5
30D
100
AcDbEntity
  8
ASSI
100
AcDbLine
 62
7
  6
CONTINUOUS
 10
-9.6256753849
 20
21.9019386099
 11
-10.5567712557
 21
22.2758877027
  0
LINE
  5
30E
100
AcDbEntity
  8
ASSI
100
AcDbLine
 62
7
  6
CONTINUOUS
 10
-11.086716072
 20
22.4887254882
 11
-12.0178117016
 21
22.8626744841
  0
LINE
  5
30F
100
AcDbEntity
  8
ASSI
100
AcDbLine
 62
253
  6
CONTINUOUS
 10
4.9047575881
 20
16.16054655
 11
3.8210585351
 21
16.5957843866
  0
LINE
  5
310
100
AcDbEntity
  8
ASSI
100
AcDbLine
 62
253
  6
CONTINUOUS
 10
3.5968228399
 20
16.6858424971
 11
2.5131237869
 21
17.1210804682
  0
LINE
  5
311
100
AcDbEntity
  8
ASSI
100
AcDbLine
 62
253
  6
CONTINUOUS
 10
-9.6761488003
 20
22.0165671399
 11
-10.7598478533
 21
22.451805111
  0
LINE
  5
312
100
AcDbEntity
  8
ASSI
100
AcDbLine
 62
253
  6
CONTINUOUS
 10
-10.9840835485
 20
22.5418632215
 11
-12.0677826015
 21
22.9771011926
  0
LINE
  5
313
100
AcDbEntity
  8
ASSI
100
AcDbLine
 62
7
  6
CONTINUOUS
 10
1.0427220926
 20
17.9074449738
 11
-1.6108931281
 21
18.9731966708
  0
LINE
  5
314
100
AcDbEntity
  8
ASSI
100
AcDbLine
 62
7
  6
CONTINUOUS
 10
-3.2578261399
 20
19.6346420976
 11
-5.9114413606
 21
20.7003937946
  0
LINE
  5
315
100
AcDbEntity
  8
ASSI
100
AcDbLine
 62
253
  6
CONTINUOUS
 10
4.9047575881
 20
16.4606431393
 11
2.5131237869
 21
17.4211794385
  0
LINE
  5
316
100
AcDbEntity
  8
ASSI
100
AcDbLine
 62
253
  6
CONTINUOUS
 10
-9.6761488003
 20
22.3166638637
 11
-12.0677826015
 21
23.2771979164
  0
LWPOLYLINE
  5
317
100
AcDbEntity
  8
ASSI
100
AcDbPolyline
 62
7
  6
CONTINUOUS
 90
3
 70
0
 10
2.5174377206
 20
17.0319616941
 10
2.5393787325
 20
17.0179444031
 10
2.5633327725
 20
17.006559721
  0
LWPOLYLINE
  5
318
100
AcDbEntity
  8
RACCORDO
100
AcDbPolyline
 62
7
  6
CONTINUOUS
 90
31
 70
0
 10
18.6533452974
 20
21.9762405983
 10
18.6530318832
 20
22.0100548265
 10
18.6517314756
 20
22.053137296
 10
18.6494167726
 20
22.0964455259
 10
18.6460809422
 20
22.1399838573
 10
18.6417202238
 20
22.1837173665
 10
18.6363377758
 20
22.2275711569
 10
18.629932425
 20
22.2715336463
 10
18.6225033369
 20
22.3155895587
 10
18.6140621252
 20
22.3596600772
 10
18.604611234
 20
22.4037342616
 10
18.5941530167
 20
22.4477984742
 10
18.5827078895
 20
22.4917714968
 10
18.5702819589
 20
22.5356415308
 10
18.5568800006
 20
22.5793981602
 10
18.5425295575
 20
22.6229635692
 10
18.5272409897
 20
22.6663218675
 10
18.5110199273
 20
22.7094691153
 10
18.4938935598
 20
22.7523464595
 10
18.4758722273
 20
22.7949419565
 10
18.4569637229
 20
22.8372491565
 10
18.4371955501
 20
22.8792179657
 10
18.4165774466
 20
22.9208399578
 10
18.3951186808
 20
22.9621061512
 10
18.3728505595
 20
23.0029662013
 10
18.3497841072
 20
23.0434111648
 10
18.325928637
 20
23.0834328893
 10
18.3013177906
 20
23.1229840548
 10
18.2759702657
 20
23.1620446827
 10
18.2498886884
 20
23.200619061
 10
18.2275094177
 20
23.2325143414
  0
LINE
  5
319
100
AcDbEntity
  8
RACCORDO
100
AcDbLine
 62
253
  6
CONTINUOUS
 10
18.4823828814
 20
1.8066670637
 11
18.4823828814
 21
-7.070854363
  0
LINE
  5
31A
100
AcDbEntity
  8
RACCORDO
100
AcDbLine
 62
253
  6
CONTINUOUS
 10
18.4823828814
 20
3.3577280474
 11
18.4823828814
 21
21.6554980024
  0
LINE
  5
31B
100
AcDbEntity
  8
RACCORDO
100
AcDbLine
 62
7
  6
CONTINUOUS
 10
18.6533452716
 20
1.7142064744
 11
18.6533453088
 21
-6.7501144902
  0
LINE
  5
31C
100
AcDbEntity
  8
RACCORDO
100
AcDbLine
 62
7
  6
CONTINUOUS
 10
18.6533453088
 20
21.9762378753
 11
18.6533452652
 21
4.0913141392
  0
LWPOLYLINE
  5
31D
100
AcDbEntity
  8
RACCORDO
100
AcDbPolyline
 62
7
  6
CONTINUOUS
 90
7
 70
0
 10
18.6533453154
 20
1.7140037423
 10
18.6533794631
 20
1.7164706374
 10
18.6535784513
 20
1.7202520572
 10
18.6538885739
 20
1.723274072
 10
18.6542290645
 20
1.725504357
 10
18.6545188321
 20
1.7269371913
 10
18.654612882
 20
1.7273286961
  0
LWPOLYLINE
  5
31E
100
AcDbEntity
  8
RACCORDO
100
AcDbPolyline
 62
7
  6
CONTINUOUS
 90
37
 70
0
 10
18.1287994964
 20
-7.9453896409
 10
18.1435268443
 20
-7.9325366599
 10
18.1702571947
 20
-7.9082898257
 10
18.1963985868
 20
-7.8833645128
 10
18.2219279091
 20
-7.8577813436
 10
18.2468348393
 20
-7.8315493909
 10
18.2711204927
 20
-7.8046646014
 10
18.2947683227
 20
-7.7771417081
 10
18.317762232
 20
-7.7489961569
 10
18.3401023771
 20
-7.7202230341
 10
18.3617726691
 20
-7.6908369457
 10
18.3827572597
 20
-7.6608539651
 10
18.403054756
 20
-7.6302692499
 10
18.4226493319
 20
-7.5990980462
 10
18.4415256964
 20
-7.5673562574
 10
18.459681591
 20
-7.5350381082
 10
18.4771017557
 20
-7.5021591248
 10
18.4937713264
 20
-7.4687353275
 10
18.5096868986
 20
-7.4347596823
 10
18.5248335896
 20
-7.4002480933
 10
18.5391971188
 20
-7.3652164339
 10
18.5527730495
 20
-7.3296554993
 10
18.5655475072
 20
-7.2935787459
 10
18.5775055684
 20
-7.2570042973
 10
18.5886394492
 20
-7.2199278184
 10
18.5989363539
 20
-7.1823591459
 10
18.6083809785
 20
-7.1443197141
 10
18.6169611379
 20
-7.1058205815
 10
18.6246641116
 20
-7.0668760567
 10
18.6314774752
 20
-7.0275032481
 10
18.6373897463
 20
-6.9877154421
 10
18.642389379
 20
-6.9475269969
 10
18.6464653124
 20
-6.9069539293
 10
18.649606951
 20
-6.8660098124
 10
18.6518037455
 20
-6.8247084707
 10
18.6530457137
 20
-6.7830671518
 10
18.6533452981
 20
-6.7501186449
  0
LINE
  5
31F
100
AcDbEntity
  8
RACCORDO
100
AcDbLine
 62
253
  6
CONTINUOUS
 10
7.8463385325
 20
-16.2279749201
 11
18.4823828814
 21
-7.070854363
  0
LINE
  5
320
100
AcDbEntity
  8
RACCORDO
100
AcDbLine
 62
7
  6
CONTINUOUS
 10
7.7839334021
 20
-16.8518197813
 11
18.1288182999
 21
-7.9453734511
  0
LINE
  5
321
100
AcDbEntity
  8
ASSI
100
AcDbLine
 62
7
  6
CONTINUOUS
 10
7.7839334021
 20
-16.9286566232
 11
7.50429436
 21
-17.1643567185
  0
LWPOLYLINE
  5
322
100
AcDbEntity
  8
ASSI
100
AcDbPolyline
 62
7
  6
CONTINUOUS
 90
5
 70
0
 10
-9.6255987079
 20
21.9019082026
 10
-9.614634692
 20
21.8978577722
 10
-9.5876937905
 20
21.8906792741
 10
-9.5599196546
 20
21.8870873593
 10
-9.5501093737
 20
21.8866975411
  0
LINE
  5
323
100
AcDbEntity
  8
ASSI
100
AcDbLine
 62
7
  6
CONTINUOUS
 10
-8.0454661347
 20
21.9290349932
 11
-5.9967260734
 21
21.1062147968
  0
LINE
  5
324
100
AcDbEntity
  8
ASSI
100
AcDbLine
 62
7
  6
CONTINUOUS
 10
-2.8028930513
 20
19.8234994518
 11
-1.6961778408
 21
19.379017673
  0
LINE
  5
325
100
AcDbEntity
  8
ASSI
100
AcDbLine
 62
7
  6
CONTINUOUS
 10
1.4976551813
 20
18.096302328
 11
2.492329311
 21
17.6968187731
  0
LINE
  5
326
100
AcDbEntity
  8
ASSI
100
AcDbLine
 62
253
  6
CONTINUOUS
 10
5.0463515655
 20
16.7805294346
 11
2.6533128831
 21
17.7416277192
  0
LINE
  5
327
100
AcDbEntity
  8
ASSI
100
AcDbLine
 62
253
  6
CONTINUOUS
 10
-9.5345548229
 20
22.636550159
 11
-11.9275935052
 21
23.5976484436
  0
LINE
  5
328
100
AcDbEntity
  8
ASSI
100
AcDbLine
 62
7
  6
CONTINUOUS
 10
-8.0454661347
 20
22.6149441793
 11
-7.5170359609
 21
22.4027147083
  0
LINE
  5
329
100
AcDbEntity
  8
ASSI
100
AcDbLine
 62
7
  6
CONTINUOUS
 10
6.5354402536
 20
16.7589234549
 11
7.0947807183
 21
16.5342797142
  0
LINE
  5
32A
100
AcDbEntity
  8
ASSI
100
AcDbLine
 62
7
  6
CONTINUOUS
 10
-1.6961778408
 20
20.0650181728
 11
-2.2538415221
 21
20.2889884794
  0
LINE
  5
32B
100
AcDbEntity
  8
ASSI
100
AcDbLine
 62
253
  6
CONTINUOUS
 10
-5.8704899964
 20
21.8479101737
 11
-3.2987775041
 21
20.8150524588
  0
LINE
  5
32C
100
AcDbEntity
  8
ASSI
100
AcDbLine
 62
253
  6
CONTINUOUS
 10
1.0017707285
 20
19.087855335
 11
-1.5699417639
 21
20.1207130499
  0
LINE
  5
32D
100
AcDbEntity
  8
ASSI
100
AcDbLine
 62
253
  6
CONTINUOUS
 10
-5.757776767
 20
22.1040449027
 11
-3.1860642746
 21
21.0711871878
  0
LINE
  5
32E
100
AcDbEntity
  8
ASSI
100
AcDbLine
 62
253
  6
CONTINUOUS
 10
1.1144839579
 20
19.3439900641
 11
-1.4572285345
 21
20.3768477789
  0
LINE
  5
32F
100
AcDbEntity
  8
ASSI
100
AcDbLine
 62
7
  6
CONTINUOUS
 10
-5.588041192
 20
22.2527210057
 11
-3.0076498721
 21
21.2163776781
  0
LINE
  5
330
100
AcDbEntity
  8
ASSI
100
AcDbLine
 62
7
  6
CONTINUOUS
 10
-1.2874929595
 20
20.5255238819
 11
1.2928983604
 21
19.4891805543
  0
LINE
  5
331
100
AcDbEntity
  8
ASSI
100
AcDbLine
 62
7
  6
CONTINUOUS
 10
-10.6667776286
 20
24.7020320782
 11
-8.2092715914
 21
23.7150422505
  0
LINE
  5
332
100
AcDbEntity
  8
ASSI
100
AcDbLine
 62
7
  6
CONTINUOUS
 10
3.9141287598
 20
18.8460113538
 11
6.3716347969
 21
17.8590215261
  0
LINE
  5
333
100
AcDbEntity
  8
ASSI
100
AcDbLine
 62
7
  6
CONTINUOUS
 10
1.5436839668
 20
20.0333526753
 11
-0.7347718341
 21
20.9484318916
  0
LINE
  5
334
100
AcDbEntity
  8
ASSI
100
AcDbLine
 62
7
  6
CONTINUOUS
 10
-2.4818154288
 20
21.6500839854
 11
-4.7602712297
 21
22.5651632016
  0
LINE
  5
335
100
AcDbEntity
  8
ASSI
100
AcDbLine
 62
253
  6
CONTINUOUS
 10
6.7935335472
 20
18.2070020575
 11
4.3575998085
 21
19.1853279638
  0
LINE
  5
336
100
AcDbEntity
  8
ASSI
100
AcDbLine
 62
253
  6
CONTINUOUS
 10
-7.7873728411
 20
24.0630227819
 11
-10.2233065798
 21
25.0413486882
  0
LINE
  5
337
100
AcDbEntity
  8
ASSI
100
AcDbLine
 62
7
  6
CONTINUOUS
 10
6.8837514125
 20
18.2323657845
 11
4.4487204819
 21
19.2103291027
  0
LINE
  5
338
100
AcDbEntity
  8
ASSI
100
AcDbLine
 62
7
  6
CONTINUOUS
 10
-7.6971543225
 20
24.0883862465
 11
-10.1321861184
 21
25.0663499122
  0
LWPOLYLINE
  5
339
100
AcDbEntity
  8
ASSI
100
AcDbPolyline
 62
7
  6
CONTINUOUS
 90
5
 70
0
 10
6.9232504017
 20
-21.8982097048
 10
6.9256859803
 20
-21.8960490326
 10
6.9434525185
 20
-21.8783928722
 10
6.9591479186
 20
-21.8594911919
 10
6.9732882191
 20
-21.8389518553
  0
LINE
  5
33A
100
AcDbEntity
  8
ASSI
100
AcDbLine
 62
253
  6
CONTINUOUS
 10
6.9450162758
 20
-20.3799786378
 11
7.50429436
 21
-19.8900914347
  0
LINE
  5
33B
100
AcDbEntity
  8
ASSI
100
AcDbLine
 62
7
  6
CONTINUOUS
 10
6.8573124242
 20
-20.5980320998
 11
7.4172899171
 21
-20.1075322653
  0
LINE
  5
33C
100
AcDbEntity
  8
ASSI
100
AcDbLine
 62
253
  6
CONTINUOUS
 10
6.5354402536
 20
-22.1814111517
 11
6.9573390039
 21
-21.8118583217
  0
LINE
  5
33D
100
AcDbEntity
  8
ASSI
100
AcDbLine
 62
7
  6
CONTINUOUS
 10
6.5006693647
 20
-22.2683604281
 11
6.9233114464
 21
-21.8981564935
  0
LINE
  5
33E
100
AcDbEntity
  8
ASSI
100
AcDbLine
 62
7
  6
CONTINUOUS
 10
6.4960107926
 20
-22.2721784555
 11
6.5006240069
 21
-22.2684000627
  0
LINE
  5
33F
100
AcDbEntity
  8
ASSI
100
AcDbLine
 62
7
  6
CONTINUOUS
 10
6.8572036549
 20
-20.5981273521
 11
6.8381630068
 21
-20.6130787246
  0
LINE
  5
340
100
AcDbEntity
  8
ASSI
100
AcDbLine
 62
253
  6
CONTINUOUS
 10
6.5354402536
 20
-22.1814111517
 11
5.2101570221
 21
-23.1954358883
  0
LINE
  5
341
100
AcDbEntity
  8
ASSI
100
AcDbLine
 62
7
  6
CONTINUOUS
 10
6.4959765247
 20
-22.2722046752
 11
5.1698869639
 21
-23.2868463651
  0
LINE
  5
342
100
AcDbEntity
  8
RACCORDO
100
AcDbLine
 62
253
  6
CONTINUOUS
 10
6.0310259933
 20
-20.9558234204
 11
2.6643474809
 21
-23.3225854298
  0
LINE
  5
343
100
AcDbEntity
  8
ASSI
100
AcDbLine
 62
253
  6
CONTINUOUS
 10
6.0524762445
 20
-21.0073682644
 11
6.9450162758
 21
-20.3799160648
  0
LINE
  5
344
100
AcDbEntity
  8
ASSI
100
AcDbLine
 62
7
  6
CONTINUOUS
 10
5.9463545079
 20
-21.240017233
 11
6.8380862135
 21
-20.6131332833
  0
LINE
  5
345
100
AcDbEntity
  8
RACCORDO
100
AcDbLine
 62
7
  6
CONTINUOUS
 10
2.5495215132
 20
-23.5613526561
 11
5.9248966707
 21
-21.188477722
  0
LWPOLYLINE
  5
346
100
AcDbEntity
  8
ASSI
100
AcDbPolyline
 62
7
  6
CONTINUOUS
 90
5
 70
0
 10
4.3072923891
 20
22.2412736475
 10
4.2647771031
 20
22.2372876267
 10
4.2225866916
 20
22.2293273935
 10
4.1825140288
 20
22.2176911056
 10
4.1447598209
 20
22.2025025725
  0
LINE
  5
347
100
AcDbEntity
  8
ASSI
100
AcDbLine
 62
7
  6
CONTINUOUS
 10
-9.9707284468
 20
21.6519524344
 11
-10.4141994956
 21
21.6586163901
  0
LINE
  5
348
100
AcDbEntity
  8
ASSI
100
AcDbLine
 62
253
  6
CONTINUOUS
 10
-8.7828745777
 20
22.0101936963
 11
-9.3849332444
 21
22.0192407182
  0
LINE
  5
349
100
AcDbEntity
  8
ASSI
100
AcDbLine
 62
7
  6
CONTINUOUS
 10
-9.5501093776
 20
21.8866972309
 11
-9.0221369186
 21
21.878763032
  0
LWPOLYLINE
  5
34A
100
AcDbEntity
  8
RACCORDO
100
AcDbPolyline
 62
7
  6
CONTINUOUS
 90
51
 70
0
 10
0.0614435135
 20
22.935136571
 10
0.0498708229
 20
22.9386918558
 10
0.0248795288
 20
22.9459673919
 10
-0.0003642526
 20
22.9527768706
 10
-0.0258451758
 20
22.9591215222
 10
-0.0515525695
 20
22.9650032047
 10
-0.0774682438
 20
22.9704215073
 10
-0.1035743103
 20
22.975376611
 10
-0.1298601794
 20
22.9798696623
 10
-0.1563077684
 20
22.9839001998
 10
-0.1828992794
 20
22.987468238
 10
-0.2096241772
 20
22.9905743018
 10
-0.236464556
 20
22.9932179264
 10
-0.2634024018
 20
22.9953989662
 10
-0.2904266726
 20
22.9971174129
 10
-0.3175194146
 20
22.9983728625
 10
-0.3446626071
 20
22.9991650929
 10
-0.3718448566
 20
22.9994937018
 10
-0.3990482773
 20
22.9993583653
 10
-0.4262547006
 20
22.9987587987
 10
-0.4534522535
 20
22.997694297
 10
-0.4806229575
 20
22.9961646051
 10
-0.5077486269
 20
22.9941693832
 10
-0.5348172996
 20
22.9917076574
 10
-0.5618112466
 20
22.9887791361
 10
-0.5887118642
 20
22.985383417
 10
-0.6155064237
 20
22.9815193308
 10
-0.6421772395
 20
22.9771864899
 10
-0.6687054334
 20
22.9723844234
 10
-0.6950773696
 20
22.9671118265
 10
-0.7212752272
 20
22.9613681625
 10
-0.7472799741
 20
22.9551528499
 10
-0.7730773355
 20
22.9484643834
 10
-0.7986544737
 20
22.9413004638
 10
-0.8239868591
 20
22.9336616528
 10
-0.8490446301
 20
22.9255511441
 10
-0.8738135448
 20
22.9169673343
 10
-0.8982713285
 20
22.9079110911
 10
-0.9223792488
 20
22.8983906631
 10
-0.9461206889
 20
22.8884064185
 10
-0.9694780058
 20
22.8779590288
 10
-0.9924147436
 20
22.8670585591
 10
-1.0149167529
 20
22.8557052371
 10
-1.0369663122
 20
22.8439010795
 10
-1.0585256205
 20
22.8316599959
 10
-1.0795806389
 20
22.8189835619
 10
-1.100116758
 20
22.8058736884
 10
-1.1200995052
 20
22.7923458456
 10
-1.1395096342
 20
22.7784070465
 10
-1.1583396438
 20
22.7640565209
 10
-1.1711420377
 20
22.7537890371
  0
LWPOLYLINE
  5
34B
100
AcDbEntity
  8
ASSI
100
AcDbPolyline
 62
7
  6
CONTINUOUS
 90
6
 70
0
 10
-10.1317844527
 20
25.0661864905
 10
-10.1582954673
 20
25.0749120999
 10
-10.1850260615
 20
25.0799938878
 10
-10.2129201669
 20
25.0816150133
 10
-10.2412759125
 20
25.0795212666
 10
-10.2691008905
 20
25.0737291057
  0
LWPOLYLINE
  5
34C
100
AcDbEntity
  8
ASSI
100
AcDbPolyline
 62
7
  6
CONTINUOUS
 90
6
 70
0
 10
4.4491127032
 20
19.2101690707
 10
4.4244119201
 20
19.2184196297
 10
4.3978956834
 20
19.2237126312
 10
4.3703995306
 20
19.2255983402
 10
4.3425563982
 20
19.2238920192
 10
4.3151935851
 20
19.2186181664
  0
LINE
  5
34D
100
AcDbEntity
  8
RACCORDO
100
AcDbLine
 62
7
  6
CONTINUOUS
 10
2.8057010781
 20
21.1512226025
 11
-1.0979687649
 21
22.7190244176
  0
LINE
  5
34E
100
AcDbEntity
  8
RACCORDO
100
AcDbLine
 62
253
  6
CONTINUOUS
 10
3.3323368859
 20
21.5699005737
 11
-0.0041333643
 21
22.9099022452
  0
LINE
  5
34F
100
AcDbEntity
  8
RACCORDO
100
AcDbLine
 62
7
  6
CONTINUOUS
 10
3.3755390706
 20
21.604246516
 11
0.0642263929
 21
22.9341443391
  0
LINE
  5
350
100
AcDbEntity
  8
ASSI
100
AcDbLine
 62
7
  6
CONTINUOUS
 10
3.8077510479
 20
21.947857093
 11
0.1525166266
 21
23.4158816419
  0
LINE
  5
351
100
AcDbEntity
  8
DRAFT
100
AcDbLine
 62
7
  6
CONTINUOUS
 10
12.4698328038
 20
19.4573830069
 11
11.5978698783
 21
20.6795459013
  0
LWPOLYLINE
  5
352
100
AcDbEntity
  8
ASSI
100
AcDbPolyline
 62
7
  6
CONTINUOUS
 90
8
 70
0
 10
6.9256056454
 20
23.3767143319
 10
6.8836027873
 20
23.3908671234
 10
6.8393405639
 20
23.4000584513
 10
6.7927690779
 20
23.4040093104
 10
6.7444283283
 20
23.4023609668
 10
6.6951072954
 20
23.3949389989
 10
6.6451529691
 20
23.3816841148
 10
6.5946227995
 20
23.3625105408
  0
LINE
  5
353
100
AcDbEntity
  8
ASSI
100
AcDbLine
 62
7
  6
CONTINUOUS
 10
5.2623137792
 20
22.3318868611
 11
0.5189758737
 21
24.2369183
  0
LINE
  5
354
100
AcDbEntity
  8
DRAFT
100
AcDbLine
 62
7
  6
CONTINUOUS
 10
-2.7007546739
 20
26.4221958764
 11
-2.6805544592
 21
26.4140830147
  0
LINE
  5
355
100
AcDbEntity
  8
DRAFT
100
AcDbLine
 62
7
  6
CONTINUOUS
 10
10.8401747114
 20
20.9838533621
 11
11.5978698783
 21
20.6795459013
  0
LINE
  5
356
100
AcDbEntity
  8
ASSI
100
AcDbLine
 62
7
  6
CONTINUOUS
 10
1.8705611045
 20
24.6882783208
 11
6.0933190919
 21
22.9923235133
  0
LINE
  5
357
100
AcDbEntity
  8
ASSI
100
AcDbLine
 62
253
  6
CONTINUOUS
 10
-2.0979149022
 20
26.7543815536
 11
1.2053291583
 21
25.4277242691
  0
LINE
  5
358
100
AcDbEntity
  8
ASSI
100
AcDbLine
 62
253
  6
CONTINUOUS
 10
6.5646537516
 20
23.2752986892
 11
9.8678978121
 21
21.9486414046
  0
LINE
  5
359
100
AcDbEntity
  8
ASSI
100
AcDbLine
 62
7
  6
CONTINUOUS
 10
6.9245701383
 20
23.3771371765
 11
10.4211382979
 21
21.9728365753
  0
LINE
  5
35A
100
AcDbEntity
  8
ASSI
100
AcDbLine
 62
7
  6
CONTINUOUS
 10
1.5709986743
 20
25.5272519978
 11
-1.9257993895
 21
26.9316451058
  0
LWPOLYLINE
  5
35B
100
AcDbEntity
  8
ASSI
100
AcDbPolyline
 62
7
  6
CONTINUOUS
 90
5
 70
0
 10
-2.1896267977
 20
24.8563796235
 10
-2.2312107922
 20
24.8537112422
 10
-2.2726732945
 20
24.8472794302
 10
-2.3123517266
 20
24.837307339
 10
-2.3500946701
 20
24.8238820253
  0
LINE
  5
35C
100
AcDbEntity
  8
RACCORDO
100
AcDbLine
 62
253
  6
CONTINUOUS
 10
17.5886245147
 20
23.5867142961
 11
1.6528871223
 21
29.9868656956
  0
LINE
  5
35D
100
AcDbEntity
  8
RACCORDO
100
AcDbLine
 62
7
  6
CONTINUOUS
 10
17.8699414069
 20
23.7201201123
 11
2.0969262285
 21
30.0549186023
  0
LINE
  5
35E
100
AcDbEntity
  8
RACCORDO
100
AcDbLine
 62
253
  6
CONTINUOUS
 10
18.0026078067
 20
23.0064659809
 11
17.5886245147
 21
23.5867142961
  0
LINE
  5
35F
100
AcDbEntity
  8
RACCORDO
100
AcDbLine
 62
7
  6
CONTINUOUS
 10
18.227509486
 20
23.2325142595
 11
17.8920741383
 21
23.702668005
  0
ARC
  5
360
100
AcDbEntity
  8
0
100
AcDbCircle
 62
7
  6
CONTINUOUS
 10
-4.6165029111
 20
-8.0437350878
 40
7.1363803288
100
AcDbArc
 50
243.0389920498
 51
248.1183016736
  0
ARC
  5
361
100
AcDbEntity
  8
0
100
AcDbCircle
 62
7
  6
CONTINUOUS
 10
-6.9706390756
 20
-6.8425676749
 40
5.8390537838
100
AcDbArc
 50
180.7192030507
 51
183.469596117
  0
ARC
  5
362
100
AcDbEntity
  8
0
100
AcDbCircle
 62
7
  6
CONTINUOUS
 10
-7.4214288363
 20
0.9970390949
 40
5.6711441701
100
AcDbArc
 50
359.323254171
 51
2.2579920698
  0
ARC
  5
363
100
AcDbEntity
  8
0
100
AcDbCircle
 62
7
  6
CONTINUOUS
 10
-7.1575945856
 20
5.3044100331
 40
5.6520355143
100
AcDbArc
 50
176.3924212233
 51
179.3206894987
  0
ARC
  5
364
100
AcDbEntity
  8
0
100
AcDbCircle
 62
7
  6
CONTINUOUS
 10
-6.9560738002
 20
-11.4221338055
 40
5.2057982302
100
AcDbArc
 50
357.6242331186
 51
0.7144208751
  0
ARC
  5
365
100
AcDbEntity
  8
0
100
AcDbCircle
 62
7
  6
CONTINUOUS
 10
-4.9456322927
 20
-11.9523592177
 40
3.0926689574
100
AcDbArc
 50
301.2119942303
 51
305.2690087854
  0
ARC
  5
366
100
AcDbEntity
  8
0
100
AcDbCircle
 62
7
  6
CONTINUOUS
 10
-4.9346591955
 20
-11.970422063
 40
3.071585856
100
AcDbArc
 50
305.2964441809
 51
321.531892771
  0
ARC
  5
367
100
AcDbEntity
  8
0
100
AcDbCircle
 62
7
  6
CONTINUOUS
 10
-4.9251870435
 20
-11.9816876502
 40
3.0569183514
100
AcDbArc
 50
305.2735505025
 51
309.6926518847
  0
ARC
  5
368
100
AcDbEntity
  8
0
100
AcDbCircle
 62
7
  6
CONTINUOUS
 10
-9.6211150803
 20
6.0352937547
 40
3.0351539537
100
AcDbArc
 50
118.5720692945
 51
125.3889032416
  0
ARC
  5
369
100
AcDbEntity
  8
0
100
AcDbCircle
 62
7
  6
CONTINUOUS
 10
-9.6332545121
 20
6.054101726
 40
3.012800397
100
AcDbArc
 50
119.2096900729
 51
133.3688379487
  0
ARC
  5
36A
100
AcDbEntity
  8
RACCORDO
100
AcDbCircle
 62
253
  6
CONTINUOUS
 10
18.1800395585
 20
1.7140585305
 40
0.4733057902
100
AcDbArc
 50
0.018204953
 51
1.0754501598
  0
ARC
  5
36B
100
AcDbEntity
  8
RACCORDO
100
AcDbCircle
 62
253
  6
CONTINUOUS
 10
18.3336997403
 20
1.960317168
 40
0.4011676434
100
AcDbArc
 50
322.8957946988
 51
324.0146391682
  0
ARC
  5
36C
100
AcDbEntity
  8
RACCORDO
100
AcDbCircle
 62
253
  6
CONTINUOUS
 10
-15.085366486
 20
-16.5813755395
 40
0.277391822
100
AcDbArc
 50
242.2858658898
 51
245.3639122686
  0
ARC
  5
36D
100
AcDbEntity
  8
ASSI
100
AcDbCircle
 62
253
  6
CONTINUOUS
 10
6.754273703
 20
-21.3382872407
 40
0.2257239089
100
AcDbArc
 50
3.2533237237
 51
16.40612499
  0
ARC
  5
36E
100
AcDbEntity
  8
ASSI
100
AcDbCircle
 62
253
  6
CONTINUOUS
 10
6.762485044
 20
-21.3359249051
 40
0.2171796816
100
AcDbArc
 50
16.420132066
 51
23.1729260354
  0
ARC
  5
36F
100
AcDbEntity
  8
ASSI
100
AcDbCircle
 62
253
  6
CONTINUOUS
 10
6.8020595769
 20
-21.3006085098
 40
0.1627937201
100
AcDbArc
 50
60.8275277637
 51
68.2503610818
  0
ARC
  5
370
100
AcDbEntity
  8
0
100
AcDbCircle
 62
253
  6
CONTINUOUS
 10
4.0816986354
 20
33.4515799619
 40
33.3106034585
100
AcDbArc
 50
239.5165981842
 51
241.8218169976
  0
ARC
  5
371
100
AcDbEntity
  8
0
100
AcDbCircle
 62
7
  6
CONTINUOUS
 10
-9.6369057373
 20
6.0584408291
 40
3.0071388432
100
AcDbArc
 50
125.399036431
 51
133.375041538
  0
ARC
  5
372
100
AcDbEntity
  8
ASSI
100
AcDbCircle
 62
7
  6
CONTINUOUS
 10
5.5923138772
 20
14.2253125632
 40
1.1294518094
100
AcDbArc
 50
96.7011116566
 51
97.1167941521
  0
ARC
  5
373
100
AcDbEntity
  8
ASSI
100
AcDbCircle
 62
7
  6
CONTINUOUS
 10
-10.8479818856
 20
22.8101077402
 40
0.9118174469
100
AcDbArc
 50
226.4540194613
 51
227.1359701435
  0
ARC
  5
374
100
AcDbEntity
  8
RACCORDO
100
AcDbCircle
 62
253
  6
CONTINUOUS
 10
1.7010282709
 20
28.9658277438
 40
0.9008786436
100
AcDbArc
 50
120.8619167893
 51
127.9198646288
  0
ARC
  5
375
100
AcDbEntity
  8
ASSI
100
AcDbCircle
 62
253
  6
CONTINUOUS
 10
1.1588099267
 20
24.9146512938
 40
0.6696298918
100
AcDbArc
 50
7.4866713313
 51
11.1712023127
  0
ARC
  5
376
100
AcDbEntity
  8
RACCORDO
100
AcDbCircle
 62
253
  6
CONTINUOUS
 10
1.5753391909
 20
29.3082523936
 40
0.5466802369
100
AcDbArc
 50
120.9046736891
 51
127.982100083
  0
ARC
  5
377
100
AcDbEntity
  8
ASSI
100
AcDbCircle
 62
253
  6
CONTINUOUS
 10
6.8450474251
 20
23.1790914483
 40
0.2134148051
100
AcDbArc
 50
68.1170422474
 51
72.5848690635
  0
ARC
  5
378
100
AcDbEntity
  8
RACCORDO
100
AcDbCircle
 62
253
  6
CONTINUOUS
 10
-1.1140530253
 20
22.68409639
 40
0.0900900222
100
AcDbArc
 50
128.2719775028
 51
129.3211195109
  0
ARC
  5
379
100
AcDbEntity
  8
RACCORDO
100
AcDbCircle
 62
7
  6
CONTINUOUS
 10
-1.1747891399
 20
22.6610501268
 40
0.0694306876
100
AcDbArc
 50
129.338748398
 51
140.8445371819
  0
ARC
  5
37A
100
AcDbEntity
  8
ASSI
100
AcDbCircle
 62
253
  6
CONTINUOUS
 10
2.4941785141
 20
17.2150662833
 40
0.0663336434
100
AcDbArc
 50
180.0142950162
 51
185.5641989251
  0
ARC
  5
37B
100
AcDbEntity
  8
ASSI
100
AcDbCircle
 62
253
  6
CONTINUOUS
 10
4.427851783
 20
19.1583320735
 40
0.0560283624
100
AcDbArc
 50
68.1285019854
 51
73.7783833511
  0
ARC
  5
37C
100
AcDbEntity
  8
ASSI
100
AcDbCircle
 62
253
  6
CONTINUOUS
 10
-10.1530344978
 20
25.0144302462
 40
0.0559488877
100
AcDbArc
 50
68.1385141758
 51
74.158934039
  0
ARC
  5
37D
100
AcDbEntity
  8
RACCORDO
100
AcDbCircle
 62
7
  6
CONTINUOUS
 10
0.050303873
 20
22.8994939449
 40
0.0373427881
100
AcDbArc
 50
68.120658988
 51
74.0272592576
  0
ARC
  5
37E
100
AcDbEntity
  8
RACCORDO
100
AcDbCircle
 62
253
  6
CONTINUOUS
 10
556.1717403779
 20
0.729759651
 40
571.8608401385
100
AcDbArc
 50
178.2906249326
 51
181.7093750499
  0
ARC
  5
37F
100
AcDbEntity
  8
RACCORDO
100
AcDbCircle
 62
253
  6
CONTINUOUS
 10
556.9181649928
 20
-6.1149211738
 40
555.5721581046
100
AcDbArc
 50
178.2404926536
 51
181.7595073271
  0
ARC
  5
380
100
AcDbEntity
  8
RACCORDO
100
AcDbCircle
 62
253
  6
CONTINUOUS
 10
540.7042720684
 20
-6.0403238207
 40
538.7055050704
100
AcDbArc
 50
178.1872514025
 51
181.8127485926
  0
ARC
  5
381
100
AcDbEntity
  8
0
100
AcDbCircle
 62
7
  6
CONTINUOUS
 10
502.9576742159
 20
-0.8463962088
 40
515.8043793129
100
AcDbArc
 50
179.3789011827
 51
179.6142247258
  0
ARC
  5
382
100
AcDbEntity
  8
0
100
AcDbCircle
 62
7
  6
CONTINUOUS
 10
513.8616633039
 20
-5.2792657724
 40
515.6497692162
100
AcDbArc
 50
179.6164226045
 51
179.7676876423
  0
ARC
  5
383
100
AcDbEntity
  8
0
100
AcDbCircle
 62
7
  6
CONTINUOUS
 10
513.6406564047
 20
-5.2860997232
 40
515.4288132492
100
AcDbArc
 50
179.3785921361
 51
179.6142106735
  0
ARC
  5
384
100
AcDbEntity
  8
0
100
AcDbCircle
 62
7
  6
CONTINUOUS
 10
498.8465995473
 20
-0.8189916887
 40
511.6932132863
100
AcDbArc
 50
179.6156520367
 51
179.7680088306
  0
ARC
  5
385
100
AcDbEntity
  8
0
100
AcDbCircle
 62
7
  6
CONTINUOUS
 10
495.5074353439
 20
-0.8062425748
 40
508.3540248125
100
AcDbArc
 50
179.7690386683
 51
179.9214776742
  0
ARC
  5
386
100
AcDbEntity
  8
0
100
AcDbCircle
 62
7
  6
CONTINUOUS
 10
506.4055468829
 20
-5.2467418408
 40
508.193582217
100
AcDbArc
 50
179.7690619015
 51
179.9215536319
  0
ARC
  5
387
100
AcDbEntity
  8
0
100
AcDbCircle
 62
7
  6
CONTINUOUS
 10
505.9501302547
 20
-5.2135840767
 40
507.7379809572
100
AcDbArc
 50
179.3067029497
 51
180.6932970499
  0
ARC
  5
388
100
AcDbEntity
  8
0
100
AcDbCircle
 62
7
  6
CONTINUOUS
 10
492.1485706649
 20
-0.8024507242
 40
504.9951580489
100
AcDbArc
 50
179.9235428153
 51
180.0764785085
  0
ARC
  5
389
100
AcDbEntity
  8
0
100
AcDbCircle
 62
7
  6
CONTINUOUS
 10
503.1472763172
 20
-5.2438138191
 40
504.9353106637
100
AcDbArc
 50
179.923527341
 51
180.076468636
  0
ARC
  5
38A
100
AcDbEntity
  8
0
100
AcDbCircle
 62
7
  6
CONTINUOUS
 10
490.1441092619
 20
-0.778087149
 40
502.9908315561
100
AcDbArc
 50
179.3708177396
 51
180.6291863467
  0
ARC
  5
38B
100
AcDbEntity
  8
0
100
AcDbCircle
 62
7
  6
CONTINUOUS
 10
500.6391524429
 20
-5.2473957568
 40
502.427184213
100
AcDbArc
 50
180.078604286
 51
180.2321404222
  0
ARC
  5
38C
100
AcDbEntity
  8
0
100
AcDbCircle
 62
7
  6
CONTINUOUS
 10
500.3727154001
 20
-5.2448000723
 40
502.1607599057
100
AcDbArc
 50
180.2337159116
 51
180.3876671398
  0
ARC
  5
38D
100
AcDbEntity
  8
0
100
AcDbCircle
 62
7
  6
CONTINUOUS
 10
488.7854685698
 20
-0.8077579609
 40
501.6320518237
100
AcDbArc
 50
180.0785130807
 51
180.2323055197
  0
ARC
  5
38E
100
AcDbEntity
  8
0
100
AcDbCircle
 62
7
  6
CONTINUOUS
 10
485.4300427279
 20
-0.8221601224
 40
498.2765951454
100
AcDbArc
 50
180.2333897513
 51
180.3884554551
  0
ARC
  5
38F
100
AcDbEntity
  8
0
100
AcDbCircle
 62
7
  6
CONTINUOUS
 10
480.9797790364
 20
-0.8547741397
 40
493.8262125524
100
AcDbArc
 50
180.3896569896
 51
180.6320094677
  0
ARC
  5
390
100
AcDbEntity
  8
0
100
AcDbCircle
 62
7
  6
CONTINUOUS
 10
489.7145678546
 20
-5.3152495223
 40
491.5023796444
100
AcDbArc
 50
180.3891861415
 51
180.6327254669
  0
SPLINE
  5
391
100
AcDbEntity
  8
0
100
AcDbSpline
 62
7
  6
CONTINUOUS
 70
0
 71
3
 72
11
 73
7
 74
5
 42
0.0000001
 43
0.0000001
 44
0.0000000001
 12
0.0380285929
 22
3.1581047826
 32
0.0
 13
2.2958895332
 23
2.1688622002
 33
0.0
 40
0.0
 40
0.0
 40
0.0
 40
0.0
 40
0.2728024265
 40
0.5284390442
 40
0.7689478684
 40
1.0
 40
1.0
 40
1.0
 40
1.0
 10
-12.8092328507
 20
5.3714202894
 30
0.0
 10
-12.8057747532
 20
5.6585998386
 30
0.0
 10
-12.7575692492
 20
6.2157541538
 30
0.0
 10
-12.5458554976
 20
7.0020513588
 30
0.0
 10
-12.1996053241
 20
7.6911953429
 30
0.0
 10
-11.8789447107
 20
8.0772114969
 30
0.0
 10
-11.7021213205
 20
8.2442515751
 30
0.0
 11
-12.8092328507
 21
5.3714202894
 31
0.0
 11
-12.7300752167
 21
6.2293774774
 31
0.0
 11
-12.5152400372
 21
7.0076560918
 31
0.0
 11
-12.1700965033
 21
7.684323616
 31
0.0
 11
-11.7021213205
 21
8.2442515751
 31
0.0
  0
SPLINE
  5
392
100
AcDbEntity
  8
0
100
AcDbSpline
 62
7
  6
CONTINUOUS
 70
0
 71
3
 72
13
 73
9
 74
7
 42
0.0000001
 43
0.0000001
 44
0.0000000001
 12
-3.504851447
 22
-2.4792951189
 32
0.0
 13
-3.983878827
 23
1.5998741963
 33
0.0
 40
0.0
 40
0.0
 40
0.0
 40
0.0
 40
0.1115960729
 40
0.2254568224
 40
0.3424272268
 40
0.4637492667
 40
0.7211147126
 40
1.0
 40
1.0
 40
1.0
 40
1.0
 10
-3.1598753622
 20
-14.4773688147
 30
0.0
 10
-3.290251248
 20
-14.5695953476
 30
0.0
 10
-3.5687310756
 20
-14.7354664301
 30
0.0
 10
-4.0241274773
 20
-14.9209149475
 30
0.0
 10
-4.5150079486
 20
-15.0422393722
 30
0.0
 10
-5.2221240213
 20
-15.1180001338
 30
0.0
 10
-6.168955177
 20
-15.0387552026
 30
0.0
 10
-6.9082274152
 20
-14.8137390592
 30
0.0
 10
-7.2785758125
 20
-14.6650119342
 30
0.0
 11
-3.1598753622
 21
-14.4773688147
 31
0.0
 11
-3.5711662681
 21
-14.7230764368
 31
0.0
 11
-4.0235882404
 21
-14.9081639085
 31
0.0
 11
-4.5108184851
 21
-15.0297348298
 31
0.0
 11
-5.0285572696
 21
-15.0865809331
 31
0.0
 11
-6.1303981052
 21
-15.0044043177
 31
0.0
 11
-7.2785758125
 21
-14.6650119342
 31
0.0
  0
SPLINE
  5
393
100
AcDbEntity
  8
0
100
AcDbSpline
 62
7
  6
CONTINUOUS
 70
0
 71
3
 72
15
 73
11
 74
9
 42
0.0000001
 43
0.0000001
 44
0.0000000001
 12
-9.2851073105
 22
3.7287789716
 32
0.0
 13
-0.1229017872
 23
10.0050939795
 33
0.0
 40
0.0
 40
0.0
 40
0.0
 40
0.0
 40
0.1202252549
 40
0.2468439378
 40
0.3776408421
 40
0.5100074679
 40
0.6408486853
 40
0.7677970548
 40
0.8881954043
 40
1.0
 40
1.0
 40
1.0
 40
1.0
 10
-7.2785758125
 20
-14.6650119342
 30
0.0
 10
-7.6506772768
 20
-14.5155808001
 30
0.0
 10
-8.388781798
 20
-14.1414388714
 30
0.0
 10
-9.4173267961
 20
-13.4075112561
 30
0.0
 10
-10.3648848322
 20
-12.5116452077
 30
0.0
 10
-11.1953597381
 20
-11.4884056179
 30
0.0
 10
-11.8794768521
 20
-10.3771230685
 30
0.0
 10
-12.3933566371
 20
-9.2206416752
 30
0.0
 10
-12.7179734989
 20
-8.0631825148
 30
0.0
 10
-12.8046525225
 20
-7.2887322041
 30
0.0
 10
-12.8092328507
 20
-6.915860375
 30
0.0
 11
-7.2785758125
 21
-14.6650119342
 31
0.0
 11
-8.3540557636
 21
-14.1260821177
 31
0.0
 11
-9.3877225294
 21
-13.3935262845
 31
0.0
 11
-10.3400571977
 21
-12.495838427
 31
0.0
 11
-11.1749880002
 21
-11.4677173013
 31
0.0
 11
-11.860094665
 21
-10.3521123418
 31
0.0
 11
-12.3726144476
 21
-9.189873963
 31
0.0
 11
-12.6926199314
 21
-8.0284658082
 31
0.0
 11
-12.8092328507
 21
-6.915860375
 31
0.0
  0
LINE
  5
394
100
AcDbEntity
  8
0
100
AcDbLine
 62
7
  6
CONTINUOUS
 10
-12.8092328511
 20
-6.9158603747
 11
-12.8163948204
 21
-6.3015061276
  0
LINE
  5
395
100
AcDbEntity
  8
0
100
AcDbLine
 62
7
  6
CONTINUOUS
 10
-12.8163952143
 20
4.7452962071
 11
-12.8092328511
 21
5.3714202896
  0
SPLINE
  5
396
100
AcDbEntity
  8
0
100
AcDbSpline
 62
7
  6
CONTINUOUS
 70
0
 71
3
 72
11
 73
7
 74
5
 42
0.0000001
 43
0.0000001
 44
0.0000000001
 12
-0.1277703375
 22
-3.0397336735
 32
0.0
 13
-2.3409728431
 23
-1.9432324135
 33
0.0
 40
0.0
 40
0.0
 40
0.0
 40
0.0
 40
0.2684109803
 40
0.5222117997
 40
0.7641423794
 40
1.0
 40
1.0
 40
1.0
 40
1.0
 10
-1.7547502037
 20
-11.6379301411
 30
0.0
 10
-1.7661818576
 20
-11.9098961062
 30
0.0
 10
-1.832491219
 20
-12.4386301504
 30
0.0
 10
-2.0738270981
 20
-13.1805381104
 30
0.0
 10
-2.4515843049
 20
-13.8259854373
 30
0.0
 10
-2.7887822078
 20
-14.1811542856
 30
0.0
 10
-2.972827636
 20
-14.3339296767
 30
0.0
 11
-1.7547502037
 21
-11.6379301411
 31
0.0
 11
-1.8603998835
 21
-12.4476854529
 31
0.0
 11
-2.1036321616
 21
-13.1805440208
 31
0.0
 11
-2.4779216322
 21
-13.8143284783
 31
0.0
 11
-2.972827636
 21
-14.3339296767
 31
0.0
  0
SPLINE
  5
397
100
AcDbEntity
  8
0
100
AcDbSpline
 62
7
  6
CONTINUOUS
 70
0
 71
3
 72
12
 73
8
 74
6
 42
0.0000001
 43
0.0000001
 44
0.0000000001
 12
3.4328535939
 22
1.8715977082
 32
0.0
 13
3.6287901553
 23
-1.4557622703
 33
0.0
 40
0.0
 40
0.0
 40
0.0
 40
0.0
 40
0.1113327008
 40
0.2251514693
 40
0.4639142118
 40
0.7217489198
 40
1.0
 40
1.0
 40
1.0
 40
1.0
 10
-11.0727193423
 20
8.7008152027
 30
0.0
 10
-10.9453230549
 20
8.7702718785
 30
0.0
 10
-10.6774532403
 20
8.8927735249
 30
0.0
 10
-10.0974225982
 20
9.0687072882
 30
0.0
 10
-9.2973644055
 20
9.1485334308
 30
0.0
 10
-8.288484308
 20
9.0277001337
 30
0.0
 10
-7.6180526537
 20
8.8170099851
 30
0.0
 10
-7.2814810603
 20
8.6819875104
 30
0.0
 11
-11.0727193423
 21
8.7008152027
 31
0.0
 11
-10.6770767535
 21
8.8823457419
 31
0.0
 11
-10.2514212158
 21
9.0121946279
 31
0.0
 11
-9.3233535681
 21
9.1131251387
 31
0.0
 11
-8.3214448677
 21
9.0014852962
 31
0.0
 11
-7.2814810603
 21
8.6819875104
 31
0.0
  0
LINE
  5
398
100
AcDbEntity
  8
0
100
AcDbLine
 62
7
  6
CONTINUOUS
 10
-7.2814810603
 20
8.6819875104
 11
-7.2790548191
 21
8.6810136471
  0
LINE
  5
399
100
AcDbEntity
  8
0
100
AcDbLine
 62
7
  6
CONTINUOUS
 10
-1.7578422216
 20
-10.7428701605
 11
-1.7506802523
 21
-11.3572244077
  0
LINE
  5
39A
100
AcDbEntity
  8
0
100
AcDbLine
 62
7
  6
CONTINUOUS
 10
-1.7764728267
 20
-1.815592229
 11
-1.7765505397
 21
-1.8271769853
  0
LINE
  5
39B
100
AcDbEntity
  8
0
100
AcDbLine
 62
7
  6
CONTINUOUS
 10
-1.783867301
 20
-3.1885099361
 11
-1.7839072884
 21
-3.1984069934
  0
LINE
  5
39C
100
AcDbEntity
  8
0
100
AcDbLine
 62
7
  6
CONTINUOUS
 10
-1.7875590133
 20
-4.5509501314
 11
-1.7875845948
 21
-4.5698770183
  0
LINE
  5
39D
100
AcDbEntity
  8
0
100
AcDbLine
 62
7
  6
CONTINUOUS
 10
-1.7875846421
 20
-5.9177151665
 11
-1.7875589561
 21
-5.936677202
  0
LINE
  5
39E
100
AcDbEntity
  8
0
100
AcDbLine
 62
7
  6
CONTINUOUS
 10
-1.7839079585
 20
-7.2830315497
 11
-1.7838667457
 21
-7.2931644597
  0
LINE
  5
39F
100
AcDbEntity
  8
0
100
AcDbLine
 62
7
  6
CONTINUOUS
 10
-1.7765501709
 20
-8.6424279927
 11
-1.7764730855
 21
-8.6537928727
  0
LINE
  5
3A0
100
AcDbEntity
  8
0
100
AcDbLine
 62
7
  6
CONTINUOUS
 10
-1.7506802522
 20
0.9300562567
 11
-1.7578426155
 21
0.3039321742
  0
SPLINE
  5
3A1
100
AcDbEntity
  8
0
100
AcDbSpline
 62
253
  6
CONTINUOUS
 70
0
 71
3
 72
11
 73
7
 74
5
 42
0.0000001
 43
0.0000001
 44
0.0000000001
 12
10.1048896712
 22
-6.4168218738
 32
0.0
 13
11.6584375009
 23
-2.7138963252
 33
0.0
 40
0.0
 40
0.0
 40
0.0
 40
0.0
 40
0.233712345
 40
0.4770604879
 40
0.7319394976
 40
1.0
 40
1.0
 40
1.0
 40
1.0
 10
-12.8092328507
 20
-6.915860375
 30
0.0
 10
-12.0220203638
 20
-7.4157572041
 30
0.0
 10
-10.3627098512
 20
-8.3555388687
 30
0.0
 10
-7.6964971738
 20
-9.5561408812
 30
0.0
 10
-4.8096741426
 20
-10.573251095
 30
0.0
 10
-2.7924024575
 20
-11.11472827
 30
0.0
 10
-1.7506802528
 20
-11.3572244075
 30
0.0
 11
-12.8092328507
 21
-6.915860375
 31
0.0
 11
-10.3773938287
 21
-8.2988144688
 31
0.0
 11
-7.7236887218
 21
-9.5000265055
 31
0.0
 11
-4.8481175298
 21
-10.5194964851
 31
0.0
 11
-1.7506802528
 21
-11.3572244075
 31
0.0
  0
SPLINE
  5
3A2
100
AcDbEntity
  8
0
100
AcDbSpline
 62
253
  6
CONTINUOUS
 70
0
 71
3
 72
11
 73
7
 74
5
 42
0.0000001
 43
0.0000001
 44
0.0000000001
 12
9.9047311217
 22
-6.7632852666
 32
0.0
 13
11.7642833348
 23
-2.3339588272
 33
0.0
 40
0.0
 40
0.0
 40
0.0
 40
0.0
 40
0.236475077
 40
0.4804886344
 40
0.7343390697
 40
1.0
 40
1.0
 40
1.0
 40
1.0
 10
-12.81639482
 20
-6.3015061278
 30
0.0
 10
-12.035654135
 20
-6.8346222626
 30
0.0
 10
-10.3847968875
 20
-7.8261166506
 30
0.0
 10
-7.7135958589
 20
-9.0565254202
 30
0.0
 10
-4.8215204524
 20
-10.0476289447
 30
0.0
 10
-2.7996123736
 20
-10.5361896026
 30
0.0
 10
-1.7578422221
 20
-10.7428701604
 30
0.0
 11
-12.81639482
 21
-6.3015061278
 31
0.0
 11
-10.3872150444
 21
-7.7654067702
 31
0.0
 11
-7.731410394
 21
-8.9948995609
 31
0.0
 11
-4.853337742
 21
-9.9879366532
 31
0.0
 11
-1.7578422221
 21
-10.7428701604
 31
0.0
  0
SPLINE
  5
3A3
100
AcDbEntity
  8
0
100
AcDbSpline
 62
253
  6
CONTINUOUS
 70
0
 71
3
 72
10
 73
6
 74
4
 42
0.0000001
 43
0.0000001
 44
0.0000000001
 12
9.3499838734
 22
-5.0134144089
 32
0.0
 13
10.2518987034
 23
-2.730402066
 33
0.0
 40
0.0
 40
0.0
 40
0.0
 40
0.0
 40
0.4766626001
 40
0.732286732
 40
1.0
 40
1.0
 40
1.0
 40
1.0
 10
-11.6480729489
 20
4.0888384572
 30
0.0
 10
-10.1624770741
 20
3.2922694079
 30
0.0
 10
-7.7897559962
 20
2.2322338444
 30
0.0
 10
-4.4505336917
 20
1.0658526155
 30
0.0
 10
-2.672699051
 20
0.5475871276
 30
0.0
 10
-1.757842616
 20
0.3039321743
 30
0.0
 11
-11.6480729489
 21
4.0888384572
 31
0.0
 11
-7.0428192249
 21
1.9995097805
 31
0.0
 11
-4.4836741879
 21
1.1019375239
 31
0.0
 11
-1.757842616
 21
0.3039321743
 31
0.0
  0
SPLINE
  5
3A4
100
AcDbEntity
  8
0
100
AcDbSpline
 62
253
  6
CONTINUOUS
 70
0
 71
3
 72
11
 73
7
 74
5
 42
0.0000001
 43
0.0000001
 44
0.0000000001
 12
10.1048896712
 22
-6.4168218738
 32
0.0
 13
11.6584375009
 23
-2.7138963252
 33
0.0
 40
0.0
 40
0.0
 40
0.0
 40
0.0
 40
0.233712345
 40
0.4770604879
 40
0.7319394976
 40
1.0
 40
1.0
 40
1.0
 40
1.0
 10
-12.8092328507
 20
5.3714202894
 30
0.0
 10
-12.0220203638
 20
4.8715234602
 30
0.0
 10
-10.3627098512
 20
3.9317417956
 30
0.0
 10
-7.6964971738
 20
2.7311397831
 30
0.0
 10
-4.8096741426
 20
1.7140295693
 30
0.0
 10
-2.7924024575
 20
1.1725523943
 30
0.0
 10
-1.7506802528
 20
0.9300562568
 30
0.0
 11
-12.8092328507
 21
5.3714202894
 31
0.0
 11
-10.3773938287
 21
3.9884661956
 31
0.0
 11
-7.7236887218
 21
2.7872541589
 31
0.0
 11
-4.8481175298
 21
1.7677841793
 31
0.0
 11
-1.7506802528
 21
0.9300562568
 31
0.0
  0
SPLINE
  5
3A5
100
AcDbEntity
  8
0
100
AcDbSpline
 62
7
  6
CONTINUOUS
 70
0
 71
3
 72
9
 73
5
 74
3
 42
0.0000001
 43
0.0000001
 44
0.0000000001
 12
2.1317165113
 22
-0.8561083137
 32
0.0
 13
1.8121410606
 23
-1.4118362178
 33
0.0
 40
0.0
 40
0.0
 40
0.0
 40
0.0
 40
0.2406424913
 40
1.0
 40
1.0
 40
1.0
 40
1.0
 10
-7.2790548191
 20
8.6810136471
 30
0.0
 10
-7.1080609617
 20
8.6123416347
 30
0.0
 10
-6.4088682501
 20
8.2989498861
 30
0.0
 10
-5.7577526683
 20
7.8820157537
 30
0.0
 10
-5.2990650279
 20
7.5246529427
 30
0.0
 11
-7.2790548191
 21
8.6810136471
 31
0.0
 11
-6.774334099
 21
8.4555148763
 31
0.0
 11
-5.2990650279
 21
7.5246529427
 31
0.0
  0
SPLINE
  5
3A6
100
AcDbEntity
  8
0
100
AcDbSpline
 62
7
  6
CONTINUOUS
 70
0
 71
3
 72
13
 73
9
 74
7
 42
0.0000001
 43
0.0000001
 44
0.0000000001
 12
5.8690137974
 22
-4.572539314
 32
0.0
 13
0.2925116329
 23
-7.4342367246
 33
0.0
 40
0.0
 40
0.0
 40
0.0
 40
0.0
 40
0.2586235946
 40
0.5183712583
 40
0.6454489759
 40
0.7686112992
 40
0.8871952005
 40
1.0
 40
1.0
 40
1.0
 40
1.0
 10
-5.2990650279
 20
7.5246529427
 30
0.0
 10
-4.7931098796
 20
7.1304640915
 30
0.0
 10
-3.8575635499
 20
6.2351857499
 30
0.0
 10
-2.9256690124
 20
4.9205283909
 30
0.0
 10
-2.3588044699
 20
3.7876367578
 30
0.0
 10
-2.0391133758
 20
2.9284940173
 30
0.0
 10
-1.8303678506
 20
2.0722871023
 30
0.0
 10
-1.76568693
 20
1.5000168087
 30
0.0
 10
-1.7546880247
 20
1.2204776143
 30
0.0
 11
-5.2990650279
 21
7.5246529427
 31
0.0
 11
-3.9061709995
 21
6.1971645668
 31
0.0
 11
-2.792074029
 21
4.6181076554
 31
0.0
 11
-2.370246272
 21
3.7719693787
 31
0.0
 11
-2.0525902205
 21
2.9124645132
 31
0.0
 11
-1.8457579129
 21
2.0547884133
 31
0.0
 11
-1.7546880247
 21
1.2204776143
 31
0.0
  0
SPLINE
  5
3A7
100
AcDbEntity
  8
0
100
AcDbSpline
 62
7
  6
CONTINUOUS
 70
0
 71
3
 72
8
 73
4
 74
2
 42
0.0000001
 43
0.0000001
 44
0.0000000001
 12
0.0034467498
 22
-0.2805897936
 32
0.0
 13
-0.0118363933
 23
-0.2806283995
 33
0.0
 40
0.0
 40
0.0
 40
0.0
 40
0.0
 40
1.0
 40
1.0
 40
1.0
 40
1.0
 10
-1.7506802544
 20
-11.3572242751
 30
0.0
 10
-1.7495313378
 20
-11.4507542063
 30
0.0
 10
-1.7508431859
 20
-11.5443857196
 30
0.0
 10
-1.7547886503
 20
-11.6379285195
 30
0.0
 11
-1.7506802544
 21
-11.3572242751
 31
0.0
 11
-1.7547886503
 21
-11.6379285195
 31
0.0
  0
SPLINE
  5
3A8
100
AcDbEntity
  8
0
100
AcDbSpline
 62
7
  6
CONTINUOUS
 70
0
 71
3
 72
20
 73
16
 74
14
 42
0.0000001
 43
0.0000001
 44
0.0000000001
 12
12.1921682321
 22
6.828282076
 32
0.0
 13
-0.1682580094
 23
-13.9730487565
 33
0.0
 40
0.0
 40
0.0
 40
0.0
 40
0.0
 40
0.0481070235
 40
0.0981755371
 40
0.1511851251
 40
0.2074115038
 40
0.2670457195
 40
0.3299672422
 40
0.3957132927
 40
0.4638608881
 40
0.6038875226
 40
0.7436358614
 40
0.8116582984
 40
0.8773694166
 40
1.0
 40
1.0
 40
1.0
 40
1.0
 10
-11.103523051
 20
8.6837930874
 30
0.0
 10
-10.9080134097
 20
8.7932891961
 30
0.0
 10
-10.4833928751
 20
8.9736068346
 30
0.0
 10
-9.7887505828
 20
9.11248241
 30
0.0
 10
-9.0430808249
 20
9.1235247898
 30
0.0
 10
-8.2619602525
 20
9.0082811744
 30
0.0
 10
-7.4612489696
 20
8.7705178266
 30
0.0
 10
-6.6567859144
 20
8.4157714418
 30
0.0
 10
-5.8641235946
 20
7.9513683511
 30
0.0
 10
-4.8367167933
 20
7.1914320401
 30
0.0
 10
-3.6863985225
 20
6.0340954905
 30
0.0
 10
-2.7802182679
 20
4.6774570487
 30
0.0
 10
-2.2461361434
 20
3.5180505651
 30
0.0
 10
-1.8705442384
 20
2.3832781376
 30
0.0
 10
-1.7438023951
 20
1.501230499
 30
0.0
 10
-1.7506802544
 20
0.9300561256
 30
0.0
 11
-11.103523051
 21
8.6837930874
 31
0.0
 11
-10.485522895
 21
8.9483617288
 31
0.0
 11
-9.8001689506
 21
9.0891267401
 31
0.0
 11
-9.0595582905
 21
9.1039634516
 31
0.0
 11
-8.2817309567
 21
8.9929398563
 31
0.0
 11
-7.4819638519
 21
8.7588134849
 31
0.0
 11
-6.676384024
 21
8.4064563568
 31
0.0
 11
-5.8827283154
 21
7.9436468436
 31
0.0
 11
-5.1162334655
 21
7.3785287374
 31
0.0
 11
-3.7345900854
 21
5.992925517
 31
0.0
 11
-2.6546779975
 21
4.3658359383
 31
0.0
 11
-2.2585006706
 21
3.5017825105
 31
0.0
 11
-1.9720959889
 21
2.6293390039
 31
0.0
 11
-1.7506802544
 21
0.9300561256
 31
0.0
  0
SPLINE
  5
3A9
100
AcDbEntity
  8
RACCORDO
100
AcDbSpline
 62
253
  6
CONTINUOUS
 70
0
 71
3
 72
11
 73
7
 74
5
 42
0.0000001
 43
0.0000001
 44
0.0000000001
 12
-0.2783758299
 22
0.129683333
 32
0.0
 13
-0.0095892883
 23
0.3069509978
 33
0.0
 40
0.0
 40
0.0
 40
0.0
 40
0.0
 40
0.2905926839
 40
0.5508411837
 40
0.7836386844
 40
1.0
 40
1.0
 40
1.0
 40
1.0
 10
-15.434609442
 20
-16.3287271347
 30
0.0
 10
-15.4615741019
 20
-16.3161654588
 30
0.0
 10
-15.5108699892
 20
-16.2879647864
 30
0.0
 10
-15.5709525983
 20
-16.2336512286
 30
0.0
 10
-15.6101929222
 20
-16.171232975
 30
0.0
 10
-15.6204092217
 20
-16.1252084547
 30
0.0
 10
-15.6211008054
 20
-16.1030710141
 30
0.0
 11
-15.434609442
 21
-16.3287271347
 31
0.0
 11
-15.5116201346
 21
-16.2836344472
 31
0.0
 11
-15.5701234999
 21
-16.2291829669
 31
0.0
 11
-15.6071723821
 21
-16.1680394687
 31
0.0
 11
-15.6211008054
 21
-16.1030710141
 31
0.0
  0
SPLINE
  5
3AA
100
AcDbEntity
  8
RACCORDO
100
AcDbSpline
 62
253
  6
CONTINUOUS
 70
0
 71
3
 72
11
 73
7
 74
5
 42
0.0000001
 43
0.0000001
 44
0.0000000001
 12
0.6533693616
 22
-0.2241952977
 32
0.0
 13
0.5303740532
 23
0.4425589428
 33
0.0
 40
0.0
 40
0.0
 40
0.0
 40
0.0
 40
0.2540854837
 40
0.5199318575
 40
0.7749981444
 40
1.0
 40
1.0
 40
1.0
 40
1.0
 10
1.6079537841
 20
-23.1734141034
 30
0.0
 10
1.6632910075
 20
-23.1924023603
 30
0.0
 10
1.7821739297
 20
-23.2155454044
 30
0.0
 10
1.961867319
 20
-23.2105745608
 30
0.0
 10
2.1298000457
 20
-23.1686839561
 30
0.0
 10
2.2285856308
 20
-23.1144699062
 30
0.0
 10
2.2683640128
 20
-23.0812777117
 30
0.0
 11
1.6079537841
 21
-23.1734141034
 31
0.0
 11
1.7798836249
 21
-23.2086985135
 31
0.0
 11
1.9634542382
 21
-23.2037561721
 31
0.0
 11
2.1339446334
 21
-23.1593020893
 31
0.0
 11
2.2683640128
 21
-23.0812777117
 31
0.0
  0
SPLINE
  5
3AB
100
AcDbEntity
  8
RACCORDO
100
AcDbSpline
 62
253
  6
CONTINUOUS
 70
0
 71
3
 72
11
 73
7
 74
5
 42
0.0000001
 43
0.0000001
 44
0.0000000001
 12
0.6445227829
 22
-0.2260958539
 32
0.0
 13
0.5553967868
 23
0.3975718326
 33
0.0
 40
0.0
 40
0.0
 40
0.0
 40
0.0
 40
0.2580536653
 40
0.5268420432
 40
0.7812081242
 40
1.0
 40
1.0
 40
1.0
 40
1.0
 10
1.6079603957
 20
10.9435777679
 30
0.0
 10
1.6634008845
 20
10.92412948
 30
0.0
 10
1.7817394574
 20
10.8985430533
 30
0.0
 10
1.9606687494
 20
10.8957039752
 30
0.0
 10
2.1278291856
 20
10.9264746703
 30
0.0
 10
2.2278585793
 20
10.9716349542
 30
0.0
 10
2.2683640143
 20
11.0006301165
 30
0.0
 11
1.6079603957
 21
10.9435777679
 31
0.0
 11
1.7798873073
 21
10.9047436279
 31
0.0
 11
1.9634553089
 21
10.9018808216
 31
0.0
 11
2.1339444037
 21
10.93533038
 31
0.0
 11
2.2683640143
 21
11.0006301165
 31
0.0
  0
SPLINE
  5
3AC
100
AcDbEntity
  8
RACCORDO
100
AcDbSpline
 62
253
  6
CONTINUOUS
 70
0
 71
3
 72
11
 73
7
 74
5
 42
0.0000001
 43
0.0000001
 44
0.0000000001
 12
0.6759473727
 22
-0.2877877516
 32
0.0
 13
0.0287754965
 23
-0.7340971403
 33
0.0
 40
0.0
 40
0.0
 40
0.0
 40
0.0
 40
0.247706514
 40
0.5123984742
 40
0.7702911719
 40
1.0
 40
1.0
 40
1.0
 40
1.0
 10
2.2474097196
 20
12.4231342597
 30
0.0
 10
2.3032219087
 20
12.3993719595
 30
0.0
 10
2.4106874532
 20
12.330815502
 30
0.0
 10
2.5409481045
 20
12.1920710607
 30
0.0
 10
2.6328949181
 20
12.0304785551
 30
0.0
 10
2.6621441571
 20
11.9120358394
 30
0.0
 10
2.6643474856
 20
11.8558263081
 30
0.0
 11
2.2474097196
 21
12.4231342597
 31
0.0
 11
2.4022603778
 21
12.3275408501
 31
0.0
 11
2.5358122948
 21
12.1861968596
 31
0.0
 11
2.6278506355
 21
12.0205906079
 31
0.0
 11
2.6643474856
 21
11.8558263081
 31
0.0
  0
SPLINE
  5
3AD
100
AcDbEntity
  8
RACCORDO
100
AcDbSpline
 62
253
  6
CONTINUOUS
 70
0
 71
3
 72
11
 73
7
 74
5
 42
0.0000001
 43
0.0000001
 44
0.0000000001
 12
0.0186148827
 22
-0.5674789968
 32
0.0
 13
0.5026572106
 23
-0.2640353278
 33
0.0
 40
0.0
 40
0.0
 40
0.0
 40
0.0
 40
0.3058786416
 40
0.5711172521
 40
0.798606818
 40
1.0
 40
1.0
 40
1.0
 40
1.0
 10
-15.4346174594
 20
-16.3287332166
 30
0.0
 10
-15.4327194944
 20
-16.3865931181
 30
0.0
 10
-15.4219866619
 20
-16.4946812865
 30
0.0
 10
-15.3795698033
 20
-16.6408963226
 30
0.0
 10
-15.3122548345
 20
-16.7557787326
 30
0.0
 10
-15.2481143623
 20
-16.8092197028
 30
0.0
 10
-15.2143704506
 20
-16.8269446745
 30
0.0
 11
-15.4346174594
 21
-16.3287332166
 31
0.0
 11
-15.4156004015
 21
-16.501361968
 31
0.0
 11
-15.3713017757
 21
-16.6452976459
 31
0.0
 11
-15.3033801804
 21
-16.7551623385
 31
0.0
 11
-15.2143704506
 21
-16.8269446745
 31
0.0
  0
SPLINE
  5
3AE
100
AcDbEntity
  8
RACCORDO
100
AcDbSpline
 62
253
  6
CONTINUOUS
 70
0
 71
3
 72
12
 73
8
 74
6
 42
0.0000001
 43
0.0000001
 44
0.0000000001
 12
-1.2436496295
 22
-1.0829640618
 32
0.0
 13
-0.0515520021
 23
-1.6482772676
 33
0.0
 40
0.0
 40
0.0
 40
0.0
 40
0.0
 40
0.1097052067
 40
0.2299056125
 40
0.4904761678
 40
0.7562545552
 40
1.0
 40
1.0
 40
1.0
 40
1.0
 10
-14.7689107659
 20
19.2572721847
 30
0.0
 10
-14.8143890458
 20
19.2176699193
 30
0.0
 10
-14.9034255263
 20
19.1273547526
 30
0.0
 10
-15.069185016
 20
18.9141913811
 30
0.0
 10
-15.2434565388
 20
18.6017747759
 30
0.0
 10
-15.3852348617
 20
18.2011815473
 30
0.0
 10
-15.4304289304
 20
17.9221727064
 30
0.0
 10
-15.4346174523
 20
17.7882526812
 30
0.0
 11
-14.7689107659
 21
19.2572721847
 31
0.0
 11
-14.8967792908
 21
19.1292910899
 31
0.0
 11
-15.0191500657
 21
18.9733527993
 31
0.0
 11
-15.2310319184
 21
18.5995208165
 31
0.0
 11
-15.3760645018
 21
18.1859216438
 31
0.0
 11
-15.4346174523
 21
17.7882526812
 31
0.0
  0
SPLINE
  5
3AF
100
AcDbEntity
  8
RACCORDO
100
AcDbSpline
 62
253
  6
CONTINUOUS
 70
0
 71
3
 72
12
 73
8
 74
6
 42
0.0000001
 43
0.0000001
 44
0.0000000001
 12
0.0450475161
 22
1.6452928579
 32
0.0
 13
1.2122889817
 23
1.1132714367
 33
0.0
 40
0.0
 40
0.0
 40
0.0
 40
0.0
 40
0.2446901794
 40
0.5111831487
 40
0.7716038364
 40
0.8912409364
 40
1.0
 40
1.0
 40
1.0
 40
1.0
 10
1.6079537797
 20
10.9435718627
 30
0.0
 10
1.611628008
 20
11.0777675308
 30
0.0
 10
1.6544917459
 20
11.3573437281
 30
0.0
 10
1.7902680393
 20
11.7599026446
 30
0.0
 10
1.9577828336
 20
12.0750744024
 30
0.0
 10
2.1175410208
 20
12.2909710634
 30
0.0
 10
2.2034605815
 20
12.3827748067
 30
0.0
 10
2.2474097196
 20
12.4231342597
 30
0.0
 11
1.6079537797
 21
10.9435718627
 31
0.0
 11
1.6634525992
 21
11.342467434
 31
0.0
 11
1.8025401267
 21
11.7584542757
 31
0.0
 11
2.006345569
 21
12.1355299274
 31
0.0
 11
2.1241895373
 21
12.2932862856
 31
0.0
 11
2.2474097196
 21
12.4231342597
 31
0.0
  0
LINE
  5
3B0
100
AcDbEntity
  8
0
100
AcDbLine
 62
7
  6
CONTINUOUS
 10
-12.8092328522
 20
-6.9158602464
 11
-12.8163906305
 21
-6.3018858678
  0
LINE
  5
3B1
100
AcDbEntity
  8
0
100
AcDbLine
 62
7
  6
CONTINUOUS
 10
-12.8350136201
 20
-4.2131602848
 11
-12.8351005579
 21
-4.2003632001
  0
LINE
  5
3B2
100
AcDbEntity
  8
0
100
AcDbLine
 62
7
  6
CONTINUOUS
 10
-12.8424185344
 20
-2.8518441581
 11
-12.8424601101
 21
-2.841617631
  0
LINE
  5
3B3
100
AcDbEntity
  8
0
100
AcDbLine
 62
7
  6
CONTINUOUS
 10
-12.8461122831
 20
-1.4951500475
 11
-12.8461375102
 21
-1.4765189602
  0
LINE
  5
3B4
100
AcDbEntity
  8
0
100
AcDbLine
 62
7
  6
CONTINUOUS
 10
-12.846137761
 20
-0.1285704326
 11
-12.8461120743
 21
-0.1095572657
  0
LINE
  5
3B5
100
AcDbEntity
  8
0
100
AcDbLine
 62
7
  6
CONTINUOUS
 10
-12.8424592887
 20
1.2429450891
 11
-12.8424192727
 21
1.2528534551
  0
LINE
  5
3B6
100
AcDbEntity
  8
0
100
AcDbLine
 62
7
  6
CONTINUOUS
 10
-12.8351009132
 20
2.6134909662
 11
-12.8350134174
 21
2.6265135605
  0
LINE
  5
3B7
100
AcDbEntity
  8
0
100
AcDbLine
 62
7
  6
CONTINUOUS
 10
-12.8163992157
 20
4.7449268924
 11
-12.8092328523
 21
5.3714201542
  0
SPLINE
  5
3B8
100
AcDbEntity
  8
RACCORDO
100
AcDbSpline
 62
253
  6
CONTINUOUS
 70
0
 71
3
 72
9
 73
5
 74
3
 42
0.0000001
 43
0.0000001
 44
0.0000000001
 12
16.6859957011
 22
-7.6828095727
 32
0.0
 13
17.3487339039
 23
-6.0389939061
 33
0.0
 40
0.0
 40
0.0
 40
0.0
 40
0.0
 40
0.2447928677
 40
1.0
 40
1.0
 40
1.0
 40
1.0
 10
-15.4346174464
 20
-16.3287332127
 30
0.0
 10
-14.0730798673
 20
-16.9556322084
 30
0.0
 10
-8.4783056723
 20
-19.4450352441
 30
0.0
 10
-2.7593420852
 20
-21.6531836081
 30
0.0
 10
1.6079537753
 20
-23.1734140314
 30
0.0
 11
-15.4346174464
 21
-16.3287332127
 31
0.0
 11
-11.3265163601
 21
-18.1575546463
 31
0.0
 11
1.6079537753
 21
-23.1734140314
 31
0.0
  0
SPLINE
  5
3B9
100
AcDbEntity
  8
0
100
AcDbSpline
 62
7
  6
CONTINUOUS
 70
0
 71
3
 72
12
 73
8
 74
6
 42
0.0000001
 43
0.0000001
 44
0.0000000001
 12
-3.4813386846
 22
-2.1097772406
 32
0.0
 13
-3.7780883116
 23
1.5155618602
 33
0.0
 40
0.0
 40
0.0
 40
0.0
 40
0.0
 40
0.1117564725
 40
0.2259275192
 40
0.4647309494
 40
0.7222541456
 40
1.0
 40
1.0
 40
1.0
 40
1.0
 10
-3.3429925007
 20
-14.5973822756
 30
0.0
 10
-3.4726798777
 20
-14.6759760297
 30
0.0
 10
-3.74685687
 20
-14.8158869678
 30
0.0
 10
-4.344482081
 20
-15.0223706824
 30
0.0
 10
-5.1756659332
 20
-15.1300013302
 30
0.0
 10
-6.2278084947
 20
-15.0219709242
 30
0.0
 10
-6.9263876264
 20
-14.8062910538
 30
0.0
 10
-7.2761704151
 20
-14.6659773792
 30
0.0
 11
-3.3429925007
 21
-14.5973822756
 31
0.0
 11
-3.7479288629
 21
-14.8047194115
 31
0.0
 11
-4.1869989868
 21
-14.9570982065
 31
0.0
 11
-5.1499200666
 21
-15.090409157
 31
0.0
 11
-6.1936145882
 21
-14.9921617146
 31
0.0
 11
-7.2761704151
 21
-14.6659773792
 31
0.0
  0
SPLINE
  5
3BA
100
AcDbEntity
  8
0
100
AcDbSpline
 62
7
  6
CONTINUOUS
 70
0
 71
3
 72
14
 73
10
 74
8
 42
0.0000001
 43
0.0000001
 44
0.0000000001
 12
-8.1096280702
 22
4.1134055293
 32
0.0
 13
-0.5494489245
 23
9.0765785605
 33
0.0
 40
0.0
 40
0.0
 40
0.0
 40
0.0
 40
0.2495940878
 40
0.3800393839
 40
0.5113573112
 40
0.6409565969
 40
0.7670003565
 40
0.8872779324
 40
1.0
 40
1.0
 40
1.0
 40
1.0
 10
-7.8520237798
 20
-14.4044998929
 30
0.0
 10
-8.5267288533
 20
-14.0622726593
 30
0.0
 10
-9.4807891462
 20
-13.386066779
 30
0.0
 10
-10.5671921974
 20
-12.2780916872
 30
0.0
 10
-11.2944423
 20
-11.3369569909
 30
0.0
 10
-11.898783834
 20
-10.3286683667
 30
0.0
 10
-12.3638863533
 20
-9.2851015158
 30
0.0
 10
-12.6748100886
 20
-8.2389797043
 30
0.0
 10
-12.778345178
 20
-7.5369841958
 30
0.0
 10
-12.7989901842
 20
-7.1959406285
 30
0.0
 11
-7.8520237798
 21
-14.4044998929
 31
0.0
 11
-9.7166490997
 21
-13.1105562479
 31
0.0
 11
-10.5480276237
 21
-12.2645091946
 31
0.0
 11
-11.2780406253
 21
-11.3195466091
 31
0.0
 11
-11.8830149775
 21
-10.30821041
 31
0.0
 11
-12.3470754019
 21
-9.2602192035
 31
0.0
 11
-12.6551750124
 21
-8.2108049427
 31
0.0
 11
-12.7989901842
 21
-7.1959406285
 31
0.0
  0
SPLINE
  5
3BB
100
AcDbEntity
  8
RACCORDO
100
AcDbSpline
 62
253
  6
CONTINUOUS
 70
0
 71
3
 72
9
 73
5
 74
3
 42
0.0000001
 43
0.0000001
 44
0.0000000001
 12
-17.3630719353
 22
5.9985231076
 32
0.0
 13
-16.667993473
 23
7.7224698177
 33
0.0
 40
0.0
 40
0.0
 40
0.0
 40
0.0
 40
0.2549766725
 40
1.0
 40
1.0
 40
1.0
 40
1.0
 10
1.607953781
 20
10.9435718706
 30
0.0
 10
0.1322276789
 20
11.4533996912
 30
0.0
 10
-5.6312933298
 20
13.5218296205
 30
0.0
 10
-11.2952694545
 20
15.8704459688
 30
0.0
 10
-15.4346174412
 20
17.7882526888
 30
0.0
 11
1.607953781
 21
10.9435718706
 31
0.0
 11
-2.8004274166
 21
12.5264182412
 31
0.0
 11
-15.4346174412
 21
17.7882526888
 31
0.0
  0
SPLINE
  5
3BC
100
AcDbEntity
  8
RACCORDO
100
AcDbSpline
 62
253
  6
CONTINUOUS
 70
0
 71
3
 72
10
 73
6
 74
4
 42
0.0000001
 43
0.0000001
 44
0.0000000001
 12
0.2232710313
 22
0.1568255025
 32
0.0
 13
0.0100755389
 23
0.2726585322
 33
0.0
 40
0.0
 40
0.0
 40
0.0
 40
0.0
 40
0.2324403923
 40
0.473207202
 40
1.0
 40
1.0
 40
1.0
 40
1.0
 10
2.5499609238
 20
-23.5610205255
 30
0.0
 10
2.5672599925
 20
-23.548869665
 30
0.0
 10
2.5992566091
 20
-23.5191681748
 30
0.0
 10
2.6481026596
 20
-23.4415159239
 30
0.0
 10
2.6625782404
 20
-23.3704636135
 30
0.0
 10
2.6643474809
 20
-23.3225854298
 30
0.0
 11
2.5499609238
 21
-23.5610205255
 31
0.0
 11
2.5965504852
 21
-23.517991193
 31
0.0
 11
2.631866715
 21
-23.4625999148
 31
0.0
 11
2.6643474809
 21
-23.3225854298
 31
0.0
  0
SPLINE
  5
3BD
100
AcDbEntity
  8
RACCORDO
100
AcDbSpline
 62
253
  6
CONTINUOUS
 70
0
 71
3
 72
9
 73
5
 74
3
 42
0.0000001
 43
0.0000001
 44
0.0000000001
 12
-17.3499234421
 22
5.9510068875
 32
0.0
 13
-16.6250856401
 23
7.7486033503
 33
0.0
 40
0.0
 40
0.0
 40
0.0
 40
0.0
 40
0.2548830671
 40
1.0
 40
1.0
 40
1.0
 40
1.0
 10
2.2474097197
 20
12.4231342598
 30
0.0
 10
0.7733424863
 20
12.928737889
 30
0.0
 10
-4.9849066949
 20
14.9843378987
 30
0.0
 10
-10.6396998055
 20
17.3327336823
 30
0.0
 10
-14.7689107463
 20
19.2572722033
 30
0.0
 11
2.2474097197
 21
12.4231342598
 31
0.0
 11
-2.1552968753
 21
13.9956347473
 31
0.0
 11
-14.7689107463
 21
19.2572722033
 31
0.0
  0
SPLINE
  5
3BE
100
AcDbEntity
  8
RACCORDO
100
AcDbSpline
 62
253
  6
CONTINUOUS
 70
0
 71
3
 72
12
 73
8
 74
6
 42
0.0000001
 43
0.0000001
 44
0.0000000001
 12
-0.5631490419
 22
0.1994335961
 32
0.0
 13
-0.0172028257
 23
0.5971722243
 33
0.0
 40
0.0
 40
0.0
 40
0.0
 40
0.0
 40
0.097287322
 40
0.1978653828
 40
0.4207811408
 40
0.686725345
 40
1.0
 40
1.0
 40
1.0
 40
1.0
 10
1.85297273
 20
-23.6828829084
 30
0.0
 10
1.8347103093
 20
-23.6764154549
 30
0.0
 10
1.7989677665
 20
-23.6588916968
 30
0.0
 10
1.733337936
 20
-23.6058202674
 30
0.0
 10
1.6676599658
 20
-23.505316188
 30
0.0
 10
1.6210747698
 20
-23.3512263582
 30
0.0
 10
1.609750169
 20
-23.2357736813
 30
0.0
 10
1.607953766
 20
-23.1734140405
 30
0.0
 11
1.85297273
 21
-23.6828829084
 31
0.0
 11
1.800742255
 21
-23.6573863759
 31
0.0
 11
1.7538121354
 21
-23.6198623519
 31
0.0
 11
1.6778771139
 21
-23.5104581812
 31
0.0
 11
1.6285277097
 21
-23.3594362963
 31
0.0
 11
1.607953766
 21
-23.1734140405
 31
0.0
  0
SPLINE
  5
3BF
100
AcDbEntity
  8
RACCORDO
100
AcDbSpline
 62
253
  6
CONTINUOUS
 70
0
 71
3
 72
15
 73
11
 74
9
 42
0.0000001
 43
0.0000001
 44
0.0000000001
 12
-0.5039107329
 22
-0.3541170484
 32
0.0
 13
-0.0198048012
 23
0.6155750811
 33
0.0
 40
0.0
 40
0.0
 40
0.0
 40
0.0
 40
0.1425062169
 40
0.2661744984
 40
0.3750410961
 40
0.4773640775
 40
0.5838358799
 40
0.703618783
 40
0.8419059524
 40
1.0
 40
1.0
 40
1.0
 40
1.0
 10
2.6643474809
 20
-23.3225854298
 30
0.0
 10
2.6404106768
 20
-23.3394067234
 30
0.0
 10
2.5930977575
 20
-23.3674885866
 30
0.0
 10
2.5191887018
 20
-23.3917483289
 30
0.0
 10
2.4491365075
 20
-23.3932742625
 30
0.0
 10
2.3863972571
 20
-23.370083538
 30
0.0
 10
2.3356495161
 20
-23.3234629209
 30
0.0
 10
2.2986508201
 20
-23.2573426927
 30
0.0
 10
2.2753447389
 20
-23.1745591504
 30
0.0
 10
2.2694076866
 20
-23.1137172971
 30
0.0
 10
2.2683640128
 20
-23.0812777117
 30
0.0
 11
2.6643474809
 21
-23.3225854298
 31
0.0
 11
2.5882754242
 21
-23.3663619164
 31
0.0
 11
2.5154739165
 21
-23.3887511198
 31
0.0
 11
2.4484239761
 21
-23.3889513384
 31
0.0
 11
2.3893757449
 21
-23.3669323608
 31
0.0
 11
2.3403585252
 21
-23.3233728362
 31
0.0
 11
2.3030580831
 21
-23.2597237235
 31
0.0
 11
2.2787748722
 21
-23.1780886492
 31
0.0
 11
2.2683640128
 21
-23.0812777117
 31
0.0
  0
SPLINE
  5
3C0
100
AcDbEntity
  8
RACCORDO
100
AcDbSpline
 62
253
  6
CONTINUOUS
 70
0
 71
3
 72
11
 73
7
 74
5
 42
0.0000001
 43
0.0000001
 44
0.0000000001
 12
0.0295282422
 22
0.9635772869
 32
0.0
 13
0.7354202725
 23
0.6233058059
 33
0.0
 40
0.0
 40
0.0
 40
0.0
 40
0.0
 40
0.2435703831
 40
0.5091390349
 40
0.7697568527
 40
1.0
 40
1.0
 40
1.0
 40
1.0
 10
2.2683640143
 20
11.0006301165
 30
0.0
 10
2.2707614161
 20
11.0788630795
 30
0.0
 10
2.2975539799
 20
11.2418225917
 30
0.0
 10
2.3820687247
 20
11.4755161406
 30
0.0
 10
2.5032902894
 20
11.6874915205
 30
0.0
 10
2.6079056596
 20
11.8079890113
 30
0.0
 10
2.6643474856
 20
11.8558263081
 30
0.0
 11
2.2683640143
 21
11.0006301165
 31
0.0
 11
2.3030580864
 21
11.2328619352
 31
0.0
 11
2.3893757486
 21
11.4738878198
 31
0.0
 11
2.5154739208
 21
11.6911950779
 31
0.0
 11
2.6643474856
 21
11.8558263081
 31
0.0
  0
SPLINE
  5
3C1
100
AcDbEntity
  8
RACCORDO
100
AcDbSpline
 62
253
  6
CONTINUOUS
 70
0
 71
3
 72
11
 73
7
 74
5
 42
0.0000001
 43
0.0000001
 44
0.0000000001
 12
-0.3236661622
 22
0.1224613642
 32
0.0
 13
-0.2524013745
 23
-0.2367490579
 33
0.0
 40
0.0
 40
0.0
 40
0.0
 40
0.0
 40
0.2856351834
 40
0.54484344
 40
0.7797183801
 40
1.0
 40
1.0
 40
1.0
 40
1.0
 10
-14.7689107659
 20
19.2572721847
 30
0.0
 10
-14.7997275805
 20
19.2689319428
 30
0.0
 10
-14.8607603428
 20
19.2859257111
 30
0.0
 10
-14.9515260906
 20
19.290184753
 30
0.0
 10
-15.032949862
 20
19.2709406349
 30
0.0
 10
-15.0782118762
 20
19.2418812149
 30
0.0
 10
-15.096745004
 20
19.2244973929
 30
0.0
 11
-14.7689107659
 21
19.2572721847
 31
0.0
 11
-14.8643779588
 21
19.2828973527
 31
0.0
 11
-14.9540285545
 21
19.285911543
 31
0.0
 11
-15.032851182
 21
19.2660743861
 31
0.0
 11
-15.096745004
 21
19.2244973929
 31
0.0
  0
SPLINE
  5
3C2
100
AcDbEntity
  8
RACCORDO
100
AcDbSpline
 62
253
  6
CONTINUOUS
 70
0
 71
3
 72
11
 73
7
 74
5
 42
0.0000001
 43
0.0000001
 44
0.0000000001
 12
-0.275914642
 22
0.1262174
 32
0.0
 13
0.0078548525
 23
0.3033117588
 33
0.0
 40
0.0
 40
0.0
 40
0.0
 40
0.0
 40
0.3017972571
 40
0.5657096218
 40
0.7940068342
 40
1.0
 40
1.0
 40
1.0
 40
1.0
 10
-15.4346174309
 20
17.7882527765
 30
0.0
 10
-15.4623741916
 20
17.8009501316
 30
0.0
 10
-15.5127224498
 20
17.8288970941
 30
0.0
 10
-15.5739164831
 20
17.8820539661
 30
0.0
 10
-15.6129676608
 20
17.9423515782
 30
0.0
 10
-15.6216848499
 20
17.986872976
 30
0.0
 10
-15.6211455013
 20
18.0076996924
 30
0.0
 11
-15.4346174309
 21
17.7882527765
 31
0.0
 11
-15.514173389
 21
17.8335936505
 31
0.0
 11
-15.5736700948
 21
17.8871854159
 31
0.0
 11
-15.6099117056
 21
17.946216451
 31
0.0
 11
-15.6211455013
 21
18.0076996924
 31
0.0
  0
SPLINE
  5
3C3
100
AcDbEntity
  8
RACCORDO
100
AcDbSpline
 62
7
  6
CONTINUOUS
 70
0
 71
3
 72
21
 73
17
 74
15
 42
0.0000001
 43
0.0000001
 44
0.0000000001
 12
3.420415687
 22
-3.3357846578
 32
0.0
 13
-3.3144905
 23
-3.441054414
 33
0.0
 40
0.0
 40
0.0
 40
0.0
 40
0.0
 40
0.1401495362
 40
0.2102187823
 40
0.2797653611
 40
0.4158338764
 40
0.4818629718
 40
0.5462158341
 40
0.6087441898
 40
0.6693779227
 40
0.7281323498
 40
0.785110746
 40
0.8405006173
 40
0.8945624284
 40
0.9476119971
 40
1.0
 40
1.0
 40
1.0
 40
1.0
 10
18.6534146155
 20
6.822473708
 30
0.0
 10
18.8132045063
 20
6.6666374838
 30
0.0
 10
19.0365978557
 20
6.4153252222
 30
0.0
 10
19.2962013486
 20
6.0528828319
 30
0.0
 10
19.526039389
 20
5.6784694504
 30
0.0
 10
19.7122434766
 20
5.2858117494
 30
0.0
 10
19.8475860033
 20
4.8832342504
 30
0.0
 10
19.9211190205
 20
4.5845374492
 30
0.0
 10
19.9666865884
 20
4.2889847938
 30
0.0
 10
19.9835042125
 20
3.9992855848
 30
0.0
 10
19.9709368957
 20
3.7181554146
 30
0.0
 10
19.9285073323
 20
3.4483346755
 30
0.0
 10
19.8559438035
 20
3.1926902774
 30
0.0
 10
19.7532708252
 20
2.9542693875
 30
0.0
 10
19.6210785216
 20
2.7364055444
 30
0.0
 10
19.5135511157
 20
2.6064830302
 30
0.0
 10
19.4556712697
 20
2.5463930407
 30
0.0
 11
18.6534146155
 21
6.822473708
 31
0.0
 11
19.0984808383
 21
6.3221980848
 31
0.0
 11
19.293372575
 21
6.0500043004
 31
0.0
 11
19.467093216
 21
5.7667594244
 31
0.0
 11
19.7439900177
 21
5.1785788701
 31
0.0
 11
19.8441984099
 21
4.8794483254
 31
0.0
 11
19.9173047482
 21
4.5808055966
 31
0.0
 11
19.9623674282
 21
4.285480201
 31
0.0
 11
19.9786368412
 21
3.9962458193
 31
0.0
 11
19.9655399843
 21
3.7158387256
 31
0.0
 11
19.9226802758
 21
3.4470064454
 31
0.0
 11
19.8498754973
 21
3.1925803226
 31
0.0
 11
19.7472567702
 21
2.9555475585
 31
0.0
 11
19.6154315165
 21
2.7390705284
 31
0.0
 11
19.4556712697
 21
2.5463930407
 31
0.0
  0
SPLINE
  5
3C4
100
AcDbEntity
  8
RACCORDO
100
AcDbSpline
 62
7
  6
CONTINUOUS
 70
0
 71
3
 72
9
 73
5
 74
3
 42
0.0000001
 43
0.0000001
 44
0.0000000001
 12
0.0262790721
 22
-0.0105553594
 32
0.0
 13
0.0164442578
 23
-0.0230562708
 33
0.0
 40
0.0
 40
0.0
 40
0.0
 40
0.0
 40
0.5012096937
 40
1.0
 40
1.0
 40
1.0
 40
1.0
 10
17.8699695491
 20
23.7201088091
 30
0.0
 10
17.874359991
 20
23.7183453263
 30
0.0
 10
17.8827037664
 20
23.7136149784
 30
0.0
 10
17.889258574
 20
23.706615558
 30
0.0
 10
17.8919926528
 20
23.7027821432
 30
0.0
 11
17.8699695491
 21
23.7201088091
 31
0.0
 11
17.8822745446
 21
23.7130335175
 31
0.0
 11
17.8919926528
 21
23.7027821432
 31
0.0
  0
SPLINE
  5
3C5
100
AcDbEntity
  8
RACCORDO
100
AcDbSpline
 62
7
  6
CONTINUOUS
 70
0
 71
3
 72
11
 73
7
 74
5
 42
0.0000001
 43
0.0000001
 44
0.0000000001
 12
0.3475203203
 22
0.2079248349
 32
0.0
 13
0.3757955694
 23
-0.1509330977
 33
0.0
 40
0.0
 40
0.0
 40
0.0
 40
0.0
 40
0.2571483811
 40
0.5042929156
 40
0.7493396583
 40
1.0
 40
1.0
 40
1.0
 40
1.0
 10
1.7071810932
 20
30.0242209157
 30
0.0
 10
1.7369691891
 20
30.0420434273
 30
0.0
 10
1.7993296315
 20
30.0710084974
 30
0.0
 10
1.8994805078
 20
30.0910019307
 30
0.0
 10
2.0005914703
 20
30.0862215759
 30
0.0
 10
2.0655056353
 20
30.0675382484
 30
0.0
 10
2.0969046506
 20
30.0549272678
 30
0.0
 11
1.7071810932
 21
30.0242209157
 31
0.0
 11
1.8018770297
 21
30.0675502684
 31
0.0
 11
1.9000661342
 21
30.0869481744
 31
0.0
 11
1.9992024217
 21
30.0824715847
 31
0.0
 11
2.0969046506
 21
30.0549272678
 31
0.0
  0
SPLINE
  5
3C6
100
AcDbEntity
  8
RACCORDO
100
AcDbSpline
 62
253
  6
CONTINUOUS
 70
0
 71
3
 72
12
 73
8
 74
6
 42
0.0000001
 43
0.0000001
 44
0.0000000001
 12
-0.0000019752
 22
-0.3747201257
 32
0.0
 13
-0.2854629916
 23
-0.242746891
 33
0.0
 40
0.0
 40
0.0
 40
0.0
 40
0.0
 40
0.113672132
 40
0.2286036285
 40
0.4664761566
 40
0.7219363942
 40
1.0
 40
1.0
 40
1.0
 40
1.0
 10
18.6533452405
 20
-6.7501186449
 30
0.0
 10
18.6533451657
 20
-6.7643170568
 30
0.0
 10
18.6514831511
 20
-6.7929070751
 30
0.0
 10
18.6402685782
 20
-6.8502181857
 30
0.0
 10
18.6116095183
 20
-6.9214379891
 30
0.0
 10
18.5565050635
 20
-7.0012346283
 30
0.0
 10
18.5088418376
 20
-7.0483546711
 30
0.0
 10
18.4823828814
 20
-7.070854363
 30
0.0
 11
18.6533452405
 21
-6.7501186449
 31
0.0
 11
18.6505949269
 21
-6.7926249958
 31
0.0
 11
18.6423602599
 21
-6.8348975546
 31
0.0
 11
18.6096489406
 21
-6.9178139522
 31
0.0
 11
18.5559299845
 21
-6.9970462594
 31
0.0
 11
18.4823828814
 21
-7.070854363
 31
0.0
  0
SPLINE
  5
3C7
100
AcDbEntity
  8
RACCORDO
100
AcDbSpline
 62
7
  6
CONTINUOUS
 70
0
 71
3
 72
11
 73
7
 74
5
 42
0.0000001
 43
0.0000001
 44
0.0000000001
 12
-0.0696029929
 22
0.0199228733
 32
0.0
 13
-0.0528985453
 23
-0.0494291553
 33
0.0
 40
0.0
 40
0.0
 40
0.0
 40
0.0
 40
0.2025325465
 40
0.4293672411
 40
0.6934836654
 40
1.0
 40
1.0
 40
1.0
 40
1.0
 10
0.0605791454
 20
22.9353952328
 30
0.0
 10
0.0558801883
 20
22.9367402428
 30
0.0
 10
0.0452721845
 20
22.9375605566
 30
0.0
 10
0.0288942141
 20
22.9331630194
 30
0.0
 10
0.0119584832
 20
22.9237381903
 30
0.0
 10
0.0012715595
 20
22.914952459
 30
0.0
 10
-0.0041331966
 20
22.9099021778
 30
0.0
 11
0.0605791454
 21
22.9353952328
 31
0.0
 11
0.045976651
 21
22.9367257997
 31
0.0
 11
0.0300241363
 21
22.9328253927
 31
0.0
 11
0.013165603
 21
22.9238018932
 31
0.0
 11
-0.0041331966
 21
22.9099021778
 31
0.0
  0
SPLINE
  5
3C8
100
AcDbEntity
  8
RACCORDO
100
AcDbSpline
 62
253
  6
CONTINUOUS
 70
0
 71
3
 72
11
 73
7
 74
5
 42
0.0000001
 43
0.0000001
 44
0.0000000001
 12
0.103106147
 22
0.0813466061
 32
0.0
 13
0.1218705848
 23
-0.0489459745
 33
0.0
 40
0.0
 40
0.0
 40
0.0
 40
0.0
 40
0.224351312
 40
0.461289686
 40
0.7188605641
 40
1.0
 40
1.0
 40
1.0
 40
1.0
 10
-1.1698543468
 20
22.7548242106
 30
0.0
 10
-1.1621436803
 20
22.7609076166
 30
0.0
 10
-1.1440762213
 20
22.7708186302
 30
0.0
 10
-1.1127656895
 20
22.7768563813
 30
0.0
 10
-1.0785789384
 20
22.7743532365
 30
0.0
 10
-1.0558234881
 20
22.7674901223
 30
0.0
 10
-1.0444026123
 20
22.762903241
 30
0.0
 11
-1.1698543468
 21
22.7548242106
 31
0.0
 11
-1.1440903715
 21
22.7691202737
 31
0.0
 11
-1.1136054039
 21
22.7753632062
 31
0.0
 11
-1.0798436368
 21
22.7732577925
 31
0.0
 11
-1.0444026123
 21
22.762903241
 31
0.0
  0
SPLINE
  5
3C9
100
AcDbEntity
  8
RACCORDO
100
AcDbSpline
 62
253
  6
CONTINUOUS
 70
0
 71
3
 72
21
 73
17
 74
15
 42
0.0000001
 43
0.0000001
 44
0.0000000001
 12
-0.0001180599
 22
-0.7780052223
 32
0.0
 13
-0.74399582
 23
-0.2275134273
 33
0.0
 40
0.0
 40
0.0
 40
0.0
 40
0.0
 40
0.1335512009
 40
0.2671507851
 40
0.4007462343
 40
0.5341462607
 40
0.6006152124
 40
0.6667135038
 40
0.7320859318
 40
0.7960168671
 40
0.8570839258
 40
0.9127840702
 40
0.9377304624
 40
0.9604431099
 40
0.9810581384
 40
1.0
 40
1.0
 40
1.0
 40
1.0
 10
18.6533453266
 20
4.0913142435
 30
0.0
 10
18.653340071
 20
4.0566797329
 30
0.0
 10
18.6522692719
 20
3.9873931608
 30
0.0
 10
18.6472611995
 20
3.8835660605
 30
0.0
 10
18.6384502445
 20
3.7800273012
 30
0.0
 10
18.6273667651
 20
3.6942199817
 30
0.0
 10
18.6155733906
 20
3.6262503477
 30
0.0
 10
18.6050161442
 20
3.5760009982
 30
0.0
 10
18.5923914979
 20
3.5269037697
 30
0.0
 10
18.5772475941
 20
3.4798656382
 30
0.0
 10
18.5591059153
 20
3.436592258
 30
0.0
 10
18.5405040384
 20
3.4046452554
 30
0.0
 10
18.5233323411
 20
3.3839782784
 30
0.0
 10
18.5102159293
 20
3.371983432
 30
0.0
 10
18.4966194089
 20
3.3631260774
 30
0.0
 10
18.4870804366
 20
3.3591643091
 30
0.0
 10
18.4823828814
 20
3.3577277998
 30
0.0
 11
18.6533453266
 21
4.0913142435
 31
0.0
 11
18.651702734
 21
3.9874236951
 31
0.0
 11
18.6466266869
 21
3.8836065399
 31
0.0
 11
18.6376944098
 21
3.7800531064
 31
0.0
 11
18.6241534874
 21
3.6771543198
 31
0.0
 11
18.6152572008
 21
3.6262120944
 31
0.0
 11
18.6046028092
 21
3.5759030923
 31
0.0
 11
18.5918045568
 21
3.5266795859
 31
0.0
 11
18.5763380878
 21
3.4794067937
 31
0.0
 11
18.5575813186
 21
3.4357555581
 31
0.0
 11
18.5351256306
 21
3.3986925762
 31
0.0
 11
18.5226220203
 21
3.3838484987
 31
0.0
 11
18.5095005859
 21
3.3720131027
 31
0.0
 11
18.4960091629
 21
3.3633402601
 31
0.0
 11
18.4823828814
 21
3.3577277998
 31
0.0
  0
SPLINE
  5
3CA
100
AcDbEntity
  8
RACCORDO
100
AcDbSpline
 62
7
  6
CONTINUOUS
 70
0
 71
3
 72
12
 73
8
 74
6
 42
0.0000001
 43
0.0000001
 44
0.0000000001
 12
-0.1172990574
 22
0.0471099459
 32
0.0
 13
-0.0977839798
 23
-0.0801043641
 33
0.0
 40
0.0
 40
0.0
 40
0.0
 40
0.0
 40
0.2943354724
 40
0.556807496
 40
0.7887599576
 40
0.8961755213
 40
1.0
 40
1.0
 40
1.0
 40
1.0
 10
-1.0979687649
 20
22.7190244176
 30
0.0
 10
-1.1094771894
 20
22.7236464603
 30
0.0
 10
-1.132014495
 20
22.7306976525
 30
0.0
 10
-1.1653343724
 20
22.7341013567
 30
0.0
 10
-1.1907913497
 20
22.7300305889
 30
0.0
 10
-1.2079794137
 20
22.7225181935
 30
0.0
 10
-1.2154174115
 20
22.7175208965
 30
0.0
 10
-1.2188015351
 20
22.7147486319
 30
0.0
 11
-1.0979687649
 21
22.7190244176
 31
0.0
 11
-1.1335791915
 21
22.7298022438
 31
0.0
 11
-1.166631314
 21
22.7326893252
 31
0.0
 11
-1.195501642
 21
22.7275732713
 31
0.0
 11
-1.2079236188
 21
22.7220910176
 31
0.0
 11
-1.2188015351
 21
22.7147486319
 31
0.0
  0
SPLINE
  5
3CB
100
AcDbEntity
  8
RACCORDO
100
AcDbSpline
 62
253
  6
CONTINUOUS
 70
0
 71
3
 72
15
 73
11
 74
9
 42
0.0000001
 43
0.0000001
 44
0.0000000001
 12
0.8408734913
 22
0.6887911273
 32
0.0
 13
1.039371428
 23
-0.3181328026
 33
0.0
 40
0.0
 40
0.0
 40
0.0
 40
0.0
 40
0.1048208179
 40
0.2194267156
 40
0.3425120485
 40
0.4720474903
 40
0.6054876048
 40
0.7399560227
 40
0.87243828
 40
1.0
 40
1.0
 40
1.0
 40
1.0
 10
-1.0444026123
 20
22.762903241
 30
0.0
 10
-1.0150222632
 20
22.7869697908
 30
0.0
 10
-0.9485987799
 20
22.8314693721
 30
0.0
 10
-0.8359495225
 20
22.8843880849
 30
0.0
 10
-0.7089251791
 20
22.9251060304
 30
0.0
 10
-0.5714233117
 20
22.9522766194
 30
0.0
 10
-0.427714318
 20
22.9649605305
 30
0.0
 10
-0.282393815
 20
22.9626330316
 30
0.0
 10
-0.1402495964
 20
22.9452747707
 30
0.0
 10
-0.0483280334
 20
22.9234294344
 30
0.0
 10
-0.0041333643
 20
22.9099022452
 30
0.0
 11
-1.0444026123
 21
22.762903241
 31
0.0
 11
-0.9502500599
 21
22.8270665517
 31
0.0
 11
-0.8377983647
 21
22.8806674929
 31
0.0
 11
-0.7105407053
 21
22.9219619725
 31
0.0
 11
-0.5724684029
 21
22.9495474926
 31
0.0
 11
-0.4279955018
 21
22.9624202423
 31
0.0
 11
-0.2818519744
 21
22.9600349642
 31
0.0
 11
-0.1389369459
 21
22.9423580141
 31
0.0
 11
-0.0041333643
 21
22.9099022452
 31
0.0
  0
SPLINE
  5
3CC
100
AcDbEntity
  8
RACCORDO
100
AcDbSpline
 62
7
  6
CONTINUOUS
 70
0
 71
3
 72
37
 73
33
 74
31
 42
0.0000001
 43
0.0000001
 44
0.0000000001
 12
1.6658364897
 22
2.1168463751
 32
0.0
 13
-2.4746394903
 23
-1.0640531845
 33
0.0
 40
0.0
 40
0.0
 40
0.0
 40
0.0
 40
0.0746858944
 40
0.150147875
 40
0.2265752136
 40
0.3042407324
 40
0.3436597639
 40
0.3835573803
 40
0.4240189964
 40
0.4651431029
 40
0.5070153158
 40
0.5495757268
 40
0.5709401623
 40
0.5920380118
 40
0.6123198127
 40
0.6309477094
 40
0.6471592938
 40
0.6608491933
 40
0.6725948635
 40
0.6831653884
 40
0.6931668587
 40
0.7029754929
 40
0.7227014583
 40
0.743053586
 40
0.7641168579
 40
0.7858357185
 40
0.8081288882
 40
0.8309193536
 40
0.8541410624
 40
0.9016631193
 40
0.9503619425
 40
1.0
 40
1.0
 40
1.0
 40
1.0
 10
18.5601525686
 20
1.9386085307
 30
0.0
 10
18.6016240647
 20
1.9913080524
 30
0.0
 10
18.6844299036
 20
2.0977037447
 30
0.0
 10
18.8072806634
 20
2.2598746308
 30
0.0
 10
18.9290362595
 20
2.4262008757
 30
0.0
 10
19.028661467
 20
2.5685836373
 30
0.0
 10
19.106891468
 20
2.6858435877
 30
0.0
 10
19.1649485915
 20
2.7763851942
 30
0.0
 10
19.2217431376
 20
2.869526267
 30
0.0
 10
19.276677902
 20
2.965836227
 30
0.0
 10
19.3286208281
 20
3.065930915
 30
0.0
 10
19.3675374726
 20
3.1526983632
 30
0.0
 10
19.3938911262
 20
3.2243845832
 30
0.0
 10
19.4100066427
 20
3.2784193876
 30
0.0
 10
19.4209827826
 20
3.3312607876
 30
0.0
 10
19.4252804374
 20
3.3807258173
 30
0.0
 10
19.4219853191
 20
3.4244292472
 30
0.0
 10
19.4113960911
 20
3.4606350134
 30
0.0
 10
19.3950073635
 20
3.488878155
 30
0.0
 10
19.374709171
 20
3.5099647035
 30
0.0
 10
19.3519526798
 20
3.5253070686
 30
0.0
 10
19.3194281145
 20
3.5398640171
 30
0.0
 10
19.2752937863
 20
3.549616182
 30
0.0
 10
19.2203276288
 20
3.5522935432
 30
0.0
 10
19.1636642759
 20
3.5487271587
 30
0.0
 10
19.105777945
 20
3.5404704257
 30
0.0
 10
19.0469656341
 20
3.5285508184
 30
0.0
 10
18.9874476549
 20
3.5136804351
 30
0.0
 10
18.9067338615
 20
3.4904217291
 30
0.0
 10
18.8050215841
 20
3.4562590389
 30
0.0
 10
18.6826268482
 20
3.4095945756
 30
0.0
 10
18.6010987723
 20
3.3756575547
 30
0.0
 10
18.5601533399
 20
3.3580517104
 30
0.0
 11
18.5601525686
 21
1.9386085307
 31
0.0
 11
18.6836568535
 21
2.0974191497
 31
0.0
 11
18.8063145179
 21
2.2595140266
 31
0.0
 11
18.9277892707
 21
2.4257291679
 31
0.0
 11
19.0475022524
 21
2.597300747
 31
0.0
 11
19.1063859152
 21
2.6856613723
 31
0.0
 11
19.1643345846
 21
2.7761725617
 31
0.0
 11
19.2209810884
 21
2.8692873309
 31
0.0
 11
19.2757079082
 21
2.9656011383
 31
0.0
 11
19.3273838482
 21
3.0658583089
 31
0.0
 11
19.3736940888
 21
3.1707338892
 31
0.0
 11
19.3934028088
 21
3.224803393
 31
0.0
 11
19.4094209516
 21
3.2793306941
 31
0.0
 11
19.4201758248
 21
3.3328948544
 31
0.0
 11
19.4240160096
 21
3.3829257612
 31
0.0
 11
19.4201760998
 21
3.4264258442
 31
0.0
 11
19.4094214513
 21
3.4616993203
 31
0.0
 11
19.3934034823
 21
3.4889843872
 31
0.0
 11
19.3736947537
 21
3.5095350069
 31
0.0
 11
19.3514365522
 21
3.5247136379
 31
0.0
 11
19.3273845809
 21
3.5356499158
 31
0.0
 11
19.2757088086
 21
3.5480209718
 31
0.0
 11
19.2209819057
 21
3.5512594832
 31
0.0
 11
19.1643353958
 21
3.5480342222
 31
0.0
 11
19.1063867425
 21
3.5399907854
 31
0.0
 11
19.0475030936
 21
3.5282066094
 31
0.0
 11
18.9879184515
 21
3.5134248217
 31
0.0
 11
18.9277901475
 21
3.4961796583
 31
0.0
 11
18.8063153362
 21
3.4557997076
 31
0.0
 11
18.6836576449
 21
3.4092877755
 31
0.0
 11
18.5601533399
 21
3.3580517104
 31
0.0
  0
SPLINE
  5
3CD
100
AcDbEntity
  8
RACCORDO
100
AcDbSpline
 62
253
  6
CONTINUOUS
 70
0
 71
3
 72
21
 73
17
 74
15
 42
0.0000001
 43
0.0000001
 44
0.0000000001
 12
3.2487842147
 22
-3.3059654554
 32
0.0
 13
-3.2155356603
 23
-3.3383134788
 33
0.0
 40
0.0
 40
0.0
 40
0.0
 40
0.0
 40
0.1443493645
 40
0.2163540567
 40
0.2876784177
 40
0.3579367747
 40
0.426770681
 40
0.4938596271
 40
0.5589323342
 40
0.6217787256
 40
0.6822624439
 40
0.7958699032
 40
0.84937545
 40
0.9009541886
 40
0.9509977045
 40
1.0
 40
1.0
 40
1.0
 40
1.0
 10
18.6534150437
 20
6.7110415685
 30
0.0
 10
18.8097350227
 20
6.551970231
 30
0.0
 10
19.0280114585
 20
6.2969891429
 30
0.0
 10
19.2812833898
 20
5.9314574442
 30
0.0
 10
19.4502003848
 20
5.6476287121
 30
0.0
 10
19.5963962835
 20
5.3569474775
 30
0.0
 10
19.7183933892
 20
5.062354256
 30
0.0
 10
19.814930227
 20
4.766853069
 30
0.0
 10
19.8850109019
 20
4.4734762625
 30
0.0
 10
19.9278900036
 20
4.1851102045
 30
0.0
 10
19.9477877319
 20
3.8192645181
 30
0.0
 10
19.91443741
 20
3.4657592033
 30
0.0
 10
19.8219830395
 20
3.1399749108
 30
0.0
 10
19.7270593008
 20
2.9190815144
 30
0.0
 10
19.6061284081
 20
2.7193791534
 30
0.0
 10
19.5081941434
 20
2.6009213848
 30
0.0
 10
19.4556712672
 20
2.5463930436
 30
0.0
 11
18.6534150437
 21
6.7110415685
 31
0.0
 11
19.0886246555
 21
6.2028592882
 31
0.0
 11
19.2786432941
 21
5.9284863244
 31
0.0
 11
19.4475917958
 21
5.6443225021
 31
0.0
 11
19.5937272824
 21
5.3532992014
 31
0.0
 11
19.7155424327
 21
5.0584185761
 31
0.0
 11
19.8117805302
 21
4.7627225048
 31
0.0
 11
19.8814486982
 21
4.4692613446
 31
0.0
 11
19.9238284699
 21
4.1810623381
 31
0.0
 11
19.9384825955
 21
3.9010984624
 31
0.0
 11
19.8842965341
 21
3.3773136535
 31
0.0
 11
19.8160155095
 21
3.1388958465
 31
0.0
 11
19.7211208449
 21
2.9194640143
 31
0.0
 11
19.6005916436
 21
2.7212816286
 31
0.0
 11
19.4556712672
 21
2.5463930436
 31
0.0
  0
SPLINE
  5
3CE
100
AcDbEntity
  8
RACCORDO
100
AcDbSpline
 62
7
  6
CONTINUOUS
 70
0
 71
3
 72
11
 73
7
 74
5
 42
0.0000001
 43
0.0000001
 44
0.0000000001
 12
-0.0739678538
 22
-0.0318049278
 32
0.0
 13
-0.0709208294
 23
0.0381186673
 33
0.0
 40
0.0
 40
0.0
 40
0.0
 40
0.0
 40
0.2797511752
 40
0.5333245585
 40
0.7694121361
 40
1.0
 40
1.0
 40
1.0
 40
1.0
 10
18.5601533399
 20
3.3580517104
 30
0.0
 10
18.5532558086
 20
3.3550858884
 30
0.0
 10
18.5396449845
 20
3.3503833488
 30
0.0
 10
18.5189902352
 20
3.3477046693
 30
0.0
 10
18.4995854818
 20
3.3500595482
 30
0.0
 10
18.4878340422
 20
3.3547981467
 30
0.0
 10
18.4823828814
 20
3.3577280474
 30
0.0
 11
18.5601533399
 21
3.3580517104
 31
0.0
 11
18.5387826041
 21
3.3509355318
 31
0.0
 11
18.5185081083
 21
3.3485302953
 31
0.0
 11
18.4996475815
 21
3.3508997691
 31
0.0
 11
18.4823828814
 21
3.3577280474
 31
0.0
  0
SPLINE
  5
3CF
100
AcDbEntity
  8
RACCORDO
100
AcDbSpline
 62
253
  6
CONTINUOUS
 70
0
 71
3
 72
18
 73
14
 74
12
 42
0.0000001
 43
0.0000001
 44
0.0000000001
 12
0.2817590776
 22
-1.378897992
 32
0.0
 13
-0.7998355206
 23
-1.1580202892
 33
0.0
 40
0.0
 40
0.0
 40
0.0
 40
0.0
 40
0.2560132028
 40
0.3839034952
 40
0.5115634976
 40
0.6387548858
 40
0.7020172776
 40
0.7648566897
 40
0.826970031
 40
0.8877719483
 40
0.9461145583
 40
0.9737784209
 40
1.0
 40
1.0
 40
1.0
 40
1.0
 10
18.6535161392
 20
4.7380414785
 30
0.0
 10
18.6775608205
 20
4.6203694481
 30
0.0
 10
18.7024368748
 20
4.4413969785
 30
0.0
 10
18.7143210237
 20
4.2016147697
 30
0.0
 10
18.7125164445
 20
4.0219530974
 30
0.0
 10
18.701639814
 20
3.8729896931
 30
0.0
 10
18.6864993452
 20
3.7551033543
 30
0.0
 10
18.671602441
 20
3.6680419635
 30
0.0
 10
18.6526525025
 20
3.5829356343
 30
0.0
 10
18.6289593582
 20
3.5012070007
 30
0.0
 10
18.6041253233
 20
3.4368000027
 30
0.0
 10
18.5803895177
 20
3.3897585108
 30
0.0
 10
18.5671443234
 20
3.3681734172
 30
0.0
 10
18.5601533399
 20
3.3580517104
 30
0.0
 11
18.6535161392
 21
4.7380414785
 31
0.0
 11
18.7036423861
 21
4.3812347516
 31
0.0
 11
18.712537758
 21
4.2014631204
 31
0.0
 11
18.7106293139
 21
4.0218057897
 31
0.0
 11
18.6972808892
 21
3.8432962283
 31
0.0
 11
18.6858591899
 21
3.7549969892
 31
0.0
 11
18.6708223033
 21
3.6678450947
 31
0.0
 11
18.6516179059
 21
3.5825629197
 31
0.0
 11
18.6274450188
 21
3.5004761054
 31
0.0
 11
18.5972601714
 21
3.4241147039
 31
0.0
 11
18.579597252
 21
3.3894179259
 31
0.0
 11
18.5601533399
 21
3.3580517104
 31
0.0
  0
SPLINE
  5
3D0
100
AcDbEntity
  8
RACCORDO
100
AcDbSpline
 62
253
  6
CONTINUOUS
 70
0
 71
3
 72
20
 73
16
 74
14
 42
0.0000001
 43
0.0000001
 44
0.0000000001
 12
0.3020510954
 22
0.2376442483
 32
0.0
 13
-0.2253344771
 23
-0.3113422979
 33
0.0
 40
0.0
 40
0.0
 40
0.0
 40
0.0
 40
0.0610086845
 40
0.1127564335
 40
0.1941493295
 40
0.2565384681
 40
0.3095311628
 40
0.3589472014
 40
0.4077375551
 40
0.4572575284
 40
0.5081339536
 40
0.6150194346
 40
0.7309041218
 40
0.8582431714
 40
1.0
 40
1.0
 40
1.0
 40
1.0
 10
18.5601525686
 20
1.9386085307
 30
0.0
 10
18.5662951486
 20
1.9434413184
 30
0.0
 10
18.5780458681
 20
1.9519057587
 30
0.0
 10
18.599733927
 20
1.9641271207
 30
0.0
 10
18.6237632841
 20
1.9724706797
 30
0.0
 10
18.6494760883
 20
1.9725582954
 30
0.0
 10
18.6696883073
 20
1.9651961453
 30
0.0
 10
18.6851694872
 20
1.9531341297
 30
0.0
 10
18.6968024011
 20
1.9380032329
 30
0.0
 10
18.7051655568
 20
1.9206940307
 30
0.0
 10
18.7125016104
 20
1.895065575
 30
0.0
 10
18.7144467425
 20
1.8596025555
 30
0.0
 10
18.7062392286
 20
1.8151701069
 30
0.0
 10
18.6876384234
 20
1.7691856785
 30
0.0
 10
18.6693070079
 20
1.7397914025
 30
0.0
 10
18.6586594409
 20
1.7250797703
 30
0.0
 11
18.5601525686
 21
1.9386085307
 31
0.0
 11
18.5792583833
 21
1.9522008806
 31
0.0
 11
18.5966472938
 21
1.9618531892
 31
0.0
 11
18.6264570833
 21
1.9713360095
 31
0.0
 11
18.6504332869
 21
1.9710403878
 31
0.0
 11
18.6695714373
 21
1.9640738072
 31
0.0
 11
18.6846456569
 21
1.9525210269
 31
0.0
 11
18.6961955746
 21
1.9377486871
 31
0.0
 11
18.7045847247
 21
1.9206653656
 31
0.0
 11
18.7100553067
 21
1.9018928866
 31
0.0
 11
18.7128160067
 21
1.8609064454
 31
0.0
 11
18.7051343946
 21
1.8170359054
 31
0.0
 11
18.6871415604
 21
1.771523221
 31
0.0
 11
18.6586594409
 21
1.7250797703
 31
0.0
  0
LINE
  5
3D1
100
AcDbEntity
  8
RACCORDO
100
AcDbLine
 62
253
  6
CONTINUOUS
 10
18.6586594409
 20
1.7250797703
 11
18.6583114182
 21
1.7245996747
  0
SPLINE
  5
3D2
100
AcDbEntity
  8
RACCORDO
100
AcDbSpline
 62
7
  6
CONTINUOUS
 70
0
 71
3
 72
9
 73
5
 74
3
 42
0.0000001
 43
0.0000001
 44
0.0000000001
 12
0.0625954563
 22
0.1401025137
 32
0.0
 13
0.0948962748
 23
0.1205885671
 33
0.0
 40
0.0
 40
0.0
 40
0.0
 40
0.0
 40
0.5170268307
 40
1.0
 40
1.0
 40
1.0
 40
1.0
 10
18.4823828814
 20
1.8066670637
 30
0.0
 10
18.4931707248
 20
1.8308126499
 30
0.0
 10
18.5162286282
 20
1.8765949239
 30
0.0
 10
18.5448751171
 20
1.9191948499
 30
0.0
 10
18.5601525686
 20
1.9386085307
 30
0.0
 11
18.4823828814
 21
1.8066670637
 31
0.0
 11
18.5185077567
 21
1.877303283
 31
0.0
 11
18.5601525686
 21
1.9386085307
 31
0.0
  0
SPLINE
  5
3D3
100
AcDbEntity
  8
RACCORDO
100
AcDbSpline
 62
253
  6
CONTINUOUS
 70
0
 71
3
 72
23
 73
19
 74
17
 42
0.0000001
 43
0.0000001
 44
0.0000000001
 12
0.1870011139
 22
0.2608517589
 32
0.0
 13
0.0060413637
 23
-0.3208996084
 33
0.0
 40
0.0
 40
0.0
 40
0.0
 40
0.0
 40
0.1330599459
 40
0.1913173242
 40
0.2427793239
 40
0.2872280808
 40
0.3251440401
 40
0.3854257657
 40
0.4105435212
 40
0.4337906479
 40
0.4778355448
 40
0.5220654382
 40
0.5680992314
 40
0.6163111446
 40
0.6666141451
 40
0.7725074931
 40
0.8840883307
 40
1.0
 40
1.0
 40
1.0
 40
1.0
 10
18.4823828814
 20
1.8066673303
 30
0.0
 10
18.4906770007
 20
1.8182369706
 30
0.0
 10
18.5031674915
 20
1.8345095053
 30
0.0
 10
18.5208630111
 20
1.8535505718
 30
0.0
 10
18.5330211893
 20
1.8647240516
 30
0.0
 10
18.5445066098
 20
1.8733365306
 30
0.0
 10
18.5577538769
 20
1.8809372989
 30
0.0
 10
18.5706078358
 20
1.8850750675
 30
0.0
 10
18.5823008412
 20
1.8851930662
 30
0.0
 10
18.5920813008
 20
1.8834163171
 30
0.0
 10
18.6030331564
 20
1.878127442
 30
0.0
 10
18.6138102835
 20
1.8684367957
 30
0.0
 10
18.6227330697
 20
1.8565276825
 30
0.0
 10
18.6301837504
 20
1.842932835
 30
0.0
 10
18.6385983119
 20
1.8227148774
 30
0.0
 10
18.6462054875
 20
1.794982916
 30
0.0
 10
18.6516043394
 20
1.7596743001
 30
0.0
 10
18.6530285525
 20
1.7353406975
 30
0.0
 10
18.653261974
 20
1.7229420277
 30
0.0
 11
18.4823828814
 21
1.8066673303
 31
0.0
 11
18.5087544764
 21
1.840258697
 31
0.0
 11
18.521543157
 21
1.8538993692
 31
0.0
 11
18.5337664577
 21
1.865008116
 31
0.0
 11
18.5452362581
 21
1.8734913788
 31
0.0
 11
18.555843253
 21
1.8794567193
 31
0.0
 11
18.5744173582
 21
1.8848733941
 31
0.0
 11
18.5824788648
 21
1.8849301233
 31
0.0
 11
18.589818796
 21
1.8835897343
 31
0.0
 11
18.6026202491
 21
1.8775927951
 31
0.0
 11
18.6133229784
 21
1.8682667924
 31
0.0
 11
18.622302859
 21
1.8565340282
 31
0.0
 11
18.6298310824
 21
1.8430148483
 31
0.0
 11
18.6361032472
 21
1.8281379082
 31
0.0
 11
18.6454141049
 21
1.7954509894
 31
0.0
 11
18.650990561
 21
1.7600752226
 31
0.0
 11
18.653261974
 21
1.7229420277
 31
0.0
  0
SPLINE
  5
3D4
100
AcDbEntity
  8
RACCORDO
100
AcDbSpline
 62
253
  6
CONTINUOUS
 70
0
 71
3
 72
13
 73
9
 74
7
 42
0.0000001
 43
0.0000001
 44
0.0000000001
 12
0.0024040467
 22
-0.9726000732
 32
0.0
 13
-0.7370666332
 23
-0.634578175
 33
0.0
 40
0.0
 40
0.0
 40
0.0
 40
0.0
 40
0.2717674164
 40
0.5260549745
 40
0.6478873266
 40
0.7669299714
 40
0.8839969549
 40
1.0
 40
1.0
 40
1.0
 40
1.0
 10
18.4823828814
 20
-7.070854363
 30
0.0
 10
18.4826006619
 20
-7.158961366
 30
0.0
 10
18.4691719131
 20
-7.330007591
 30
0.0
 10
18.4123892094
 20
-7.5339118269
 30
0.0
 10
18.3441309868
 20
-7.6795513828
 30
0.0
 10
18.2829668407
 20
-7.7784964754
 30
0.0
 10
18.2115560238
 20
-7.8679020233
 30
0.0
 10
18.1573150624
 20
-7.9208391538
 30
0.0
 10
18.1288144045
 20
-7.9453768207
 30
0.0
 11
18.4823828814
 21
-7.070854363
 31
0.0
 11
18.46000474
 21
-7.3342271814
 31
0.0
 11
18.3921488725
 21
-7.5720573428
 31
0.0
 11
18.3417112378
 21
-7.6792813861
 31
0.0
 11
18.2807128591
 21
-7.7776912079
 31
0.0
 11
18.2095811004
 21
-7.8665973675
 31
0.0
 11
18.1288144045
 21
-7.9453768207
 31
0.0
  0
SPLINE
  5
3D5
100
AcDbEntity
  8
RACCORDO
100
AcDbSpline
 62
253
  6
CONTINUOUS
 70
0
 71
3
 72
12
 73
8
 74
6
 42
0.0000001
 43
0.0000001
 44
0.0000000001
 12
0.2854661394
 22
0.2427495678
 32
0.0
 13
-0.0000027566
 23
0.3747242578
 33
0.0
 40
0.0
 40
0.0
 40
0.0
 40
0.0
 40
0.2780637803
 40
0.5335239365
 40
0.7713963098
 40
0.8863277928
 40
1.0
 40
1.0
 40
1.0
 40
1.0
 10
18.4823828814
 20
21.6554980024
 30
0.0
 10
18.508842146
 20
21.6779979566
 30
0.0
 10
18.5565058724
 20
21.7251185751
 30
0.0
 10
18.6116106609
 20
21.8049162975
 30
0.0
 10
18.6402695289
 20
21.8761370838
 30
0.0
 10
18.6514836483
 20
21.9334489315
 30
0.0
 10
18.653345345
 20
21.9620392975
 30
0.0
 10
18.6533452405
 20
21.9762378753
 30
0.0
 11
18.4823828814
 21
21.6554980024
 31
0.0
 11
18.5559307641
 21
21.7293070435
 31
0.0
 11
18.6096499995
 21
21.8085403999
 31
0.0
 11
18.6423610629
 21
21.8914578927
 31
0.0
 11
18.6505953966
 21
21.933730995
 31
0.0
 11
18.6533452405
 21
21.9762378753
 31
0.0
  0
SPLINE
  5
3D6
100
AcDbEntity
  8
RACCORDO
100
AcDbSpline
 62
7
  6
CONTINUOUS
 70
0
 71
3
 72
9
 73
5
 74
3
 42
0.0000001
 43
0.0000001
 44
0.0000000001
 12
0.0519331573
 22
0.0406118272
 32
0.0
 13
0.0565741029
 23
0.0338488437
 33
0.0
 40
0.0
 40
0.0
 40
0.0
 40
0.0
 40
0.2538153307
 40
1.0
 40
1.0
 40
1.0
 40
1.0
 10
1.6528871223
 20
29.9868656956
 30
0.0
 10
1.6572809328
 20
29.9903016638
 30
0.0
 10
1.6747921294
 20
30.0035802739
 30
0.0
 10
1.6931095171
 20
30.015801753
 30
0.0
 10
1.7071810932
 20
30.0242209157
 30
0.0
 11
1.6528871223
 21
29.9868656956
 31
0.0
 11
1.6662220897
 21
29.9969741907
 31
0.0
 11
1.7071810932
 21
30.0242209157
 31
0.0
  0
SPLINE
  5
3D7
100
AcDbEntity
  8
RACCORDO
100
AcDbSpline
 62
253
  6
CONTINUOUS
 70
0
 71
3
 72
12
 73
8
 74
6
 42
0.0000001
 43
0.0000001
 44
0.0000000001
 12
0.0035816155
 22
1.4551291384
 32
0.0
 13
-0.8482528696
 23
1.1823200525
 33
0.0
 40
0.0
 40
0.0
 40
0.0
 40
0.0
 40
0.2296319774
 40
0.3506514477
 40
0.4753150715
 40
0.7335384275
 40
1.0
 40
1.0
 40
1.0
 40
1.0
 10
18.4823828814
 20
21.6554980024
 30
0.0
 10
18.4826570325
 20
21.7668793962
 30
0.0
 10
18.4657118863
 20
21.9373631943
 30
0.0
 10
18.4144424923
 20
22.1622755702
 30
0.0
 10
18.3412163541
 20
22.3957333125
 30
0.0
 10
18.2128439009
 20
22.6846062785
 30
0.0
 10
18.0779500712
 20
22.9014516941
 30
0.0
 10
18.0026078067
 20
23.0064659809
 30
0.0
 11
18.4823828814
 21
21.6554980024
 31
0.0
 11
18.4515097194
 21
21.9882138846
 31
0.0
 11
18.4126029146
 21
22.1599616393
 31
0.0
 11
18.3584989
 21
22.3331075933
 31
0.0
 11
18.2069236422
 21
22.6769281916
 31
0.0
 11
18.0026078067
 21
23.0064659809
 31
0.0
  0
SPLINE
  5
3D8
100
AcDbEntity
  8
RACCORDO
100
AcDbSpline
 62
253
  6
CONTINUOUS
 70
0
 71
3
 72
18
 73
14
 74
12
 42
0.0000001
 43
0.0000001
 44
0.0000000001
 12
0.2493982257
 22
0.2052830409
 32
0.0
 13
-0.1876022913
 23
0.2629562362
 33
0.0
 40
0.0
 40
0.0
 40
0.0
 40
0.0
 40
0.4137133157
 40
0.582520821
 40
0.7236731955
 40
0.7834725654
 40
0.835923448
 40
0.8809504233
 40
0.9185336531
 40
0.9487458466
 40
0.9611630225
 40
0.9718617049
 40
1.0
 40
1.0
 40
1.0
 40
1.0
 10
18.0026078067
 20
23.0064659809
 30
0.0
 10
18.037000929
 20
23.0347754234
 30
0.0
 10
18.084989027
 20
23.0751925408
 30
0.0
 10
18.1428511377
 20
23.1273879669
 30
0.0
 10
18.1716221599
 20
23.1549229911
 30
0.0
 10
18.1906623634
 20
23.1744692368
 30
0.0
 10
18.2021235631
 20
23.1869409839
 30
0.0
 10
18.2115539017
 20
23.1980142431
 30
0.0
 10
18.218936437
 20
23.2076799483
 30
0.0
 10
18.2236520615
 20
23.2149090943
 30
0.0
 10
18.2263003517
 20
23.2200526833
 30
0.0
 10
18.2283785226
 20
23.225019994
 30
0.0
 10
18.2292690878
 20
23.2300478787
 30
0.0
 10
18.2275094849
 20
23.2325142588
 30
0.0
 11
18.0026078067
 21
23.0064659809
 31
0.0
 11
18.1044521743
 21
23.092990702
 31
0.0
 11
18.1448650452
 21
23.1295978997
 31
0.0
 11
18.1776873252
 21
23.161245638
 31
0.0
 11
18.1911423413
 21
23.1751049614
 31
0.0
 11
18.2025784879
 21
23.1876055801
 31
0.0
 11
18.2119659599
 21
23.198714967
 31
0.0
 11
18.2192802945
 21
23.2084042148
 31
0.0
 11
18.2245027508
 21
23.2166483408
 31
0.0
 11
18.2263249012
 21
23.2202215264
 31
0.0
 11
18.2276194921
 21
23.2234257498
 31
0.0
 11
18.2275094849
 21
23.2325142588
 31
0.0
  0
SPLINE
  5
3D9
100
AcDbEntity
  8
RACCORDO
100
AcDbSpline
 62
7
  6
CONTINUOUS
 70
0
 71
3
 72
15
 73
11
 74
9
 42
0.0000001
 43
0.0000001
 44
0.0000000001
 12
0.2492241643
 22
0.2010492315
 32
0.0
 13
0.2971353116
 23
-0.1193485824
 33
0.0
 40
0.0
 40
0.0
 40
0.0
 40
0.0
 40
0.1902665159
 40
0.3623658427
 40
0.5153535266
 40
0.6487194471
 40
0.7625194798
 40
0.8123324721
 40
0.8576496763
 40
1.0
 40
1.0
 40
1.0
 40
1.0
 10
17.5886245147
 20
23.5867142961
 30
0.0
 10
17.6044308525
 20
23.599465275
 30
0.0
 10
17.6349772565
 20
23.623210771
 30
0.0
 10
17.6799032212
 20
23.6549885969
 30
0.0
 10
17.7213840709
 20
23.6810051662
 30
0.0
 10
17.7591217328
 20
23.7011072283
 30
0.0
 10
17.7884065021
 20
23.7133835357
 30
0.0
 10
17.8097949051
 20
23.7198872766
 30
0.0
 10
17.8344152955
 20
23.7253288463
 30
0.0
 10
17.8558704465
 20
23.7257719122
 30
0.0
 10
17.8699695491
 20
23.7201088091
 30
0.0
 11
17.5886245147
 21
23.5867142961
 31
0.0
 11
17.6367962089
 21
23.6240149379
 31
0.0
 11
17.6818703949
 21
23.6557193946
 31
0.0
 11
17.7234723218
 21
23.6815863513
 31
0.0
 11
17.7612764565
 21
23.7014497824
 31
0.0
 11
17.7950139773
 21
23.7152205522
 31
0.0
 11
17.8102891115
 21
23.719812948
 31
0.0
 11
17.8244721165
 21
23.7228805434
 31
0.0
 11
17.8699695491
 21
23.7201088091
 31
0.0
  0
SPLINE
  5
3DA
100
AcDbEntity
  8
ASSI
100
AcDbSpline
 62
7
  6
CONTINUOUS
 70
0
 71
3
 72
12
 73
8
 74
6
 42
0.0000001
 43
0.0000001
 44
0.0000000001
 12
0.4524592385
 22
0.3748531207
 32
0.0
 13
-0.3344098288
 23
0.4831193341
 33
0.0
 40
0.0
 40
0.0
 40
0.0
 40
0.0
 40
0.1017890723
 40
0.2074610816
 40
0.4397978442
 40
0.7069919276
 40
1.0
 40
1.0
 40
1.0
 40
1.0
 10
4.5952809245
 20
21.1051436626
 30
0.0
 10
4.6106327266
 20
21.117862313
 30
0.0
 10
4.638515778
 20
21.1482057862
 30
0.0
 10
4.6786892934
 20
21.2253554396
 30
0.0
 10
4.6932595738
 20
21.3467427596
 30
0.0
 10
4.6584406216
 20
21.5000553278
 30
0.0
 10
4.6063462377
 20
21.5981805877
 30
0.0
 10
4.5736846445
 20
21.6453665426
 30
0.0
 11
4.5952809245
 21
21.1051436626
 31
0.0
 11
4.6358436071
 21
21.1490941557
 31
0.0
 11
4.6648966821
 21
21.2039667553
 31
0.0
 11
4.6850712424
 21
21.3389810462
 31
0.0
 11
4.6533226344
 21
21.4927315642
 31
0.0
 11
4.5736846445
 21
21.6453665426
 31
0.0
  0
SPLINE
  5
3DB
100
AcDbEntity
  8
ASSI
100
AcDbSpline
 62
7
  6
CONTINUOUS
 70
0
 71
3
 72
11
 73
7
 74
5
 42
0.0000001
 43
0.0000001
 44
0.0000000001
 12
0.1900726137
 22
0.3161133867
 32
0.0
 13
-0.1385959482
 23
0.3418280779
 33
0.0
 40
0.0
 40
0.0
 40
0.0
 40
0.0
 40
0.2186678989
 40
0.4573836574
 40
0.7186061281
 40
1.0
 40
1.0
 40
1.0
 40
1.0
 10
1.4976551813
 20
18.5730939144
 30
0.0
 10
1.511509441
 20
18.5961351978
 30
0.0
 10
1.5325749337
 20
18.6493240234
 30
0.0
 10
1.5420740131
 20
18.7379998849
 30
0.0
 10
1.5307686921
 20
18.8340652233
 30
0.0
 10
1.5106551981
 20
18.898091237
 30
0.0
 10
1.4976551813
 20
18.9301540125
 30
0.0
 11
1.4976551813
 21
18.5730939144
 31
0.0
 11
1.5282186864
 21
18.6477360166
 31
0.0
 11
1.5386204939
 21
18.7351713704
 31
0.0
 11
1.5282186864
 21
18.830961925
 31
0.0
 11
1.4976551813
 21
18.9301540125
 31
0.0
  0
SPLINE
  5
3DC
100
AcDbEntity
  8
ASSI
100
AcDbSpline
 62
253
  6
CONTINUOUS
 70
0
 71
3
 72
10
 73
6
 74
4
 42
0.0000001
 43
0.0000001
 44
0.0000000001
 12
0.1033298332
 22
0.0821823627
 32
0.0
 13
0.1225256602
 23
-0.0491778178
 33
0.0
 40
0.0
 40
0.0
 40
0.0
 40
0.0
 40
0.2265111571
 40
0.4647525757
 40
1.0
 40
1.0
 40
1.0
 40
1.0
 10
6.4382175374
 20
23.2664242656
 30
0.0
 10
6.4460193241
 20
23.2726293396
 30
0.0
 10
6.4642653212
 20
23.2827648437
 30
0.0
 10
6.5079271205
 20
23.2915461202
 30
0.0
 10
6.5427932359
 20
23.2840727885
 30
0.0
 10
6.5646537505
 20
23.2752986884
 30
0.0
 11
6.4382175374
 21
23.2664242656
 31
0.0
 11
6.4642907864
 21
23.2810708713
 31
0.0
 11
6.4950631101
 21
23.2875846632
 31
0.0
 11
6.5646537505
 21
23.2752986884
 31
0.0
  0
LINE
  5
3DD
100
AcDbEntity
  8
ASSI
100
AcDbLine
 62
253
  6
CONTINUOUS
 10
4.6455909049
 20
21.7985945397
 11
4.6431299778
 21
21.5186933831
  0
LINE
  5
3DE
100
AcDbEntity
  8
ASSI
100
AcDbLine
 62
253
  6
CONTINUOUS
 10
4.6399396295
 20
21.1558292426
 11
4.6394915365
 21
21.1048640074
  0
LINE
  5
3DF
100
AcDbEntity
  8
ASSI
100
AcDbLine
 62
253
  6
CONTINUOUS
 10
4.6394915365
 20
21.1048640074
 11
4.6357967843
 21
20.6846299352
  0
SPLINE
  5
3E0
100
AcDbEntity
  8
ASSI
100
AcDbSpline
 62
253
  6
CONTINUOUS
 70
0
 71
3
 72
11
 73
7
 74
5
 42
0.0000001
 43
0.0000001
 44
0.0000000001
 12
-0.3670128022
 22
0.1474379559
 32
0.0
 13
-0.3097930665
 23
-0.245895514
 33
0.0
 40
0.0
 40
0.0
 40
0.0
 40
0.0
 40
0.2103459288
 40
0.43935063
 40
0.7006270498
 40
1.0
 40
1.0
 40
1.0
 40
1.0
 10
1.57074893
 20
25.5273522377
 30
0.0
 10
1.5450157137
 20
25.5376898956
 30
0.0
 10
1.4867498816
 20
25.5491416813
 30
0.0
 10
1.394037869
 20
25.5356336412
 30
0.0
 10
1.2975658576
 20
25.4942594936
 30
0.0
 10
1.236243713
 20
25.4522624242
 30
0.0
 10
1.2053291583
 20
25.4277242691
 30
0.0
 11
1.57074893
 21
25.5273522377
 31
0.0
 11
1.4892536648
 21
25.5440887866
 31
0.0
 11
1.3993947679
 21
25.5327136383
 31
0.0
 11
1.3037777974
 21
25.493514407
 31
0.0
 11
1.2053291583
 21
25.4277242691
 31
0.0
  0
SPLINE
  5
3E1
100
AcDbEntity
  8
ASSI
100
AcDbSpline
 62
253
  6
CONTINUOUS
 70
0
 71
3
 72
11
 73
7
 74
5
 42
0.0000001
 43
0.0000001
 44
0.0000000001
 12
0.0001359921
 22
-0.1339125405
 32
0.0
 13
0.1242650889
 23
-0.0499076615
 33
0.0
 40
0.0
 40
0.0
 40
0.0
 40
0.0
 40
0.2078659888
 40
0.4373231642
 40
0.701182586
 40
1.0
 40
1.0
 40
1.0
 40
1.0
 10
-5.9967202415
 20
21.9173179037
 30
0.0
 10
-5.9967108188
 20
21.9080392829
 30
0.0
 10
-5.992323969
 20
21.8883558123
 30
0.0
 10
-5.97421735
 20
21.8621377831
 30
0.0
 10
-5.946427966
 20
21.839713735
 30
0.0
 10
-5.9238188848
 20
21.8283768933
 30
0.0
 10
-5.9114413606
 20
21.8234058006
 30
0.0
 11
-5.9967202415
 21
21.9173179037
 31
0.0
 11
-5.9909802933
 21
21.8900802636
 31
0.0
 11
-5.9741175579
 21
21.8643935056
 31
0.0
 11
-5.9470233585
 21
21.8417130461
 31
0.0
 11
-5.9114413606
 21
21.8234058006
 31
0.0
  0
SPLINE
  5
3E2
100
AcDbEntity
  8
ASSI
100
AcDbSpline
 62
253
  6
CONTINUOUS
 70
0
 71
3
 72
11
 73
7
 74
5
 42
0.0000001
 43
0.0000001
 44
0.0000000001
 12
0.1284198994
 22
0.1114840241
 32
0.0
 13
0.1584597229
 23
-0.0617322803
 33
0.0
 40
0.0
 40
0.0
 40
0.0
 40
0.0
 40
0.2235022506
 40
0.4598156526
 40
0.717631449
 40
1.0
 40
1.0
 40
1.0
 40
1.0
 10
-5.9194292915
 20
22.0898934386
 30
0.0
 10
-5.9098619127
 20
22.098199082
 30
0.0
 10
-5.8870387868
 20
22.1119473394
 30
0.0
 10
-5.8467480481
 20
22.1208561177
 30
0.0
 10
-5.8023551265
 20
22.1184089137
 30
0.0
 10
-5.7726914478
 20
22.1098553208
 30
0.0
 10
-5.757776767
 20
22.1040449027
 30
0.0
 11
-5.9194292915
 21
22.0898934386
 31
0.0
 11
-5.886967587
 21
22.1096647257
 31
0.0
 11
-5.847839253
 21
22.1188300222
 31
0.0
 11
-5.8040365101
 21
22.1169256686
 31
0.0
 11
-5.757776767
 21
22.1040449027
 31
0.0
  0
SPLINE
  5
3E3
100
AcDbEntity
  8
ASSI
100
AcDbSpline
 62
253
  6
CONTINUOUS
 70
0
 71
3
 72
9
 73
5
 74
3
 42
0.0000001
 43
0.0000001
 44
0.0000000001
 12
-0.0016314476
 22
0.0933025272
 32
0.0
 13
-0.0121980536
 23
0.0925161105
 33
0.0
 40
0.0
 40
0.0
 40
0.0
 40
0.0
 40
0.2582038613
 40
1.0
 40
1.0
 40
1.0
 40
1.0
 10
1.8294224145
 20
24.9088520229
 30
0.0
 10
1.8292819991
 20
24.9168823805
 30
0.0
 10
1.8283354676
 20
24.9479735434
 30
0.0
 10
1.825747513
 20
24.9790250574
 30
0.0
 10
1.8227313567
 20
25.0019010886
 30
0.0
 11
1.8294224145
 21
24.9088520229
 31
0.0
 11
1.8286837705
 21
24.9329354538
 31
0.0
 11
1.8227313567
 21
25.0019010886
 31
0.0
  0
SPLINE
  5
3E4
100
AcDbEntity
  8
ASSI
100
AcDbSpline
 62
253
  6
CONTINUOUS
 70
0
 71
3
 72
15
 73
11
 74
9
 42
0.0000001
 43
0.0000001
 44
0.0000000001
 12
-0.1188884015
 22
0.5977561459
 32
0.0
 13
-0.4774035813
 23
-0.378857074
 33
0.0
 40
0.0
 40
0.0
 40
0.0
 40
0.0
 40
0.1467967954
 40
0.2753928016
 40
0.3891554453
 40
0.4947038816
 40
0.6011974041
 40
0.717439617
 40
0.849518688
 40
1.0
 40
1.0
 40
1.0
 40
1.0
 10
1.8157521108
 20
25.0443862491
 30
0.0
 10
1.809934632
 20
25.0736358113
 30
0.0
 10
1.7950218577
 20
25.1278964867
 30
0.0
 10
1.7591756986
 20
25.1990906466
 30
0.0
 10
1.711505831
 20
25.2526782121
 30
0.0
 10
1.6526107484
 20
25.2858010007
 30
0.0
 10
1.5853625494
 20
25.296056333
 30
0.0
 10
1.5133346866
 20
25.2839210865
 30
0.0
 10
1.4386308957
 20
25.2510408695
 30
0.0
 10
1.3910793296
 20
25.2183537297
 30
0.0
 10
1.3671325571
 20
25.1993500932
 30
0.0
 11
1.8157521108
 21
25.0443862491
 31
0.0
 11
1.7910657849
 21
25.1303804632
 31
0.0
 11
1.7547452547
 21
25.1998312435
 31
0.0
 11
1.7077986133
 21
25.2508533517
 31
0.0
 11
1.6515164817
 21
25.2820048394
 31
0.0
 11
1.5874535478
 21
25.2924197897
 31
0.0
 11
1.5174028649
 21
25.2818374717
 31
0.0
 11
1.4432530206
 21
25.2505062272
 31
0.0
 11
1.3671325571
 21
25.1993500932
 31
0.0
  0
SPLINE
  5
3E5
100
AcDbEntity
  8
ASSI
100
AcDbSpline
 62
7
  6
CONTINUOUS
 70
0
 71
3
 72
8
 73
4
 74
2
 42
0.0000001
 43
0.0000001
 44
0.0000000001
 12
0.0278736673
 22
0.0213462428
 32
0.0
 13
0.0329757319
 23
0.0120500837
 33
0.0
 40
0.0
 40
0.0
 40
0.0
 40
0.0
 40
1.0
 40
1.0
 40
1.0
 40
1.0
 10
-5.7435092646
 20
22.2436548062
 30
0.0
 10
-5.7342180422
 20
22.2507702204
 30
0.0
 10
-5.7236810483
 20
22.2564524861
 30
0.0
 10
-5.7126891377
 20
22.2604691806
 30
0.0
 11
-5.7435092646
 21
22.2436548062
 31
0.0
 11
-5.7126891377
 21
22.2604691806
 31
0.0
  0
SPLINE
  5
3E6
100
AcDbEntity
  8
ASSI
100
AcDbSpline
 62
7
  6
CONTINUOUS
 70
0
 71
3
 72
9
 73
5
 74
3
 42
0.0000001
 43
0.0000001
 44
0.0000000001
 12
0.1192639353
 22
0.0435817591
 32
0.0
 13
0.1178295005
 23
-0.0473229838
 33
0.0
 40
0.0
 40
0.0
 40
0.0
 40
0.0
 40
0.4676465715
 40
1.0
 40
1.0
 40
1.0
 40
1.0
 10
-5.7126891377
 20
22.2604691806
 30
0.0
 10
-5.6940980142
 20
22.2672628007
 30
0.0
 10
-5.6506104485
 20
22.2719962374
 30
0.0
 10
-5.6089501716
 20
22.2611185233
 30
0.0
 10
-5.588041192
 20
22.2527210057
 30
0.0
 11
-5.7126891377
 21
22.2604691806
 31
0.0
 11
-5.6538240081
 21
22.2682758973
 31
0.0
 11
-5.588041192
 21
22.2527210057
 31
0.0
  0
SPLINE
  5
3E7
100
AcDbEntity
  8
ASSI
100
AcDbSpline
 62
7
  6
CONTINUOUS
 70
0
 71
3
 72
8
 73
4
 74
2
 42
0.0000001
 43
0.0000001
 44
0.0000000001
 12
0.0278736673
 22
0.0213462428
 32
0.0
 13
0.0329757319
 23
0.0120500837
 33
0.0
 40
0.0
 40
0.0
 40
0.0
 40
0.0
 40
1.0
 40
1.0
 40
1.0
 40
1.0
 10
-1.4429610321
 20
20.5164576824
 30
0.0
 10
-1.4336698096
 20
20.5235730966
 30
0.0
 10
-1.4231328158
 20
20.5292553623
 30
0.0
 10
-1.4121409052
 20
20.5332720569
 30
0.0
 11
-1.4429610321
 21
20.5164576824
 31
0.0
 11
-1.4121409052
 21
20.5332720569
 31
0.0
  0
SPLINE
  5
3E8
100
AcDbEntity
  8
ASSI
100
AcDbSpline
 62
7
  6
CONTINUOUS
 70
0
 71
3
 72
9
 73
5
 74
3
 42
0.0000001
 43
0.0000001
 44
0.0000000001
 12
0.1192639353
 22
0.0435817591
 32
0.0
 13
0.1178295005
 23
-0.0473229838
 33
0.0
 40
0.0
 40
0.0
 40
0.0
 40
0.0
 40
0.4676465715
 40
1.0
 40
1.0
 40
1.0
 40
1.0
 10
-1.4121409052
 20
20.5332720569
 30
0.0
 10
-1.3935497817
 20
20.5400656769
 30
0.0
 10
-1.350062216
 20
20.5447991137
 30
0.0
 10
-1.308401939
 20
20.5339213995
 30
0.0
 10
-1.2874929595
 20
20.5255238819
 30
0.0
 11
-1.4121409052
 21
20.5332720569
 31
0.0
 11
-1.3532757755
 21
20.5410787735
 31
0.0
 11
-1.2874929595
 21
20.5255238819
 31
0.0
  0
SPLINE
  5
3E9
100
AcDbEntity
  8
ASSI
100
AcDbSpline
 62
253
  6
CONTINUOUS
 70
0
 71
3
 72
10
 73
6
 74
4
 42
0.0000001
 43
0.0000001
 44
0.0000000001
 12
0.1291825183
 22
0.1026682951
 32
0.0
 13
0.1531440934
 23
-0.0614474452
 33
0.0
 40
0.0
 40
0.0
 40
0.0
 40
0.0
 40
0.2265146531
 40
0.4647603438
 40
1.0
 40
1.0
 40
1.0
 40
1.0
 10
4.0717285768
 20
22.1577136515
 30
0.0
 10
4.0814824879
 20
22.1654656093
 30
0.0
 10
4.1042899582
 20
22.1781280103
 30
0.0
 10
4.1588612409
 20
22.1890950238
 30
0.0
 10
4.2024370181
 20
22.179758889
 30
0.0
 10
4.2297599487
 20
22.1687958526
 30
0.0
 11
4.0717285768
 21
22.1577136515
 31
0.0
 11
4.1043212086
 21
22.1760113299
 31
0.0
 11
4.1427834673
 21
22.1841473361
 31
0.0
 11
4.2297599487
 21
22.1687958526
 31
0.0
  0
SPLINE
  5
3EA
100
AcDbEntity
  8
ASSI
100
AcDbSpline
 62
7
  6
CONTINUOUS
 70
0
 71
3
 72
11
 73
7
 74
5
 42
0.0000001
 43
0.0000001
 44
0.0000000001
 12
0.0014708305
 22
0.3292239839
 32
0.0
 13
-0.3277475272
 23
-0.0311793741
 33
0.0
 40
0.0
 40
0.0
 40
0.0
 40
0.0
 40
0.229662153
 40
0.4763819346
 40
0.7354145412
 40
1.0
 40
1.0
 40
1.0
 40
1.0
 10
-0.3566832863
 20
23.8311514088
 30
0.0
 10
-0.3565706883
 20
23.8563548385
 30
0.0
 10
-0.3740875227
 20
23.9094041018
 30
0.0
 10
-0.4370081881
 20
23.964278005
 30
0.0
 10
-0.5186798629
 20
23.9917563674
 30
0.0
 10
-0.5769093252
 20
23.9929626101
 30
0.0
 10
-0.6058150685
 20
23.9902127404
 30
0.0
 11
-0.3566832863
 21
23.8311514088
 31
0.0
 11
-0.3788620277
 21
23.9034364926
 31
0.0
 11
-0.4384175237
 21
23.9586718882
 31
0.0
 11
-0.5187556169
 21
23.9872825703
 31
0.0
 11
-0.6058150685
 21
23.9902127404
 31
0.0
  0
SPLINE
  5
3EB
100
AcDbEntity
  8
ASSI
100
AcDbSpline
 62
7
  6
CONTINUOUS
 70
0
 71
3
 72
12
 73
8
 74
6
 42
0.0000001
 43
0.0000001
 44
0.0000000001
 12
-0.0214680386
 22
0.0716503447
 32
0.0
 13
-0.0733273788
 23
-0.0147561546
 33
0.0
 40
0.0
 40
0.0
 40
0.0
 40
0.0
 40
0.3291108663
 40
0.5401314864
 40
0.7185559512
 40
0.8671420145
 40
1.0
 40
1.0
 40
1.0
 40
1.0
 10
4.7550849953
 20
21.8371544161
 30
0.0
 10
4.7527298737
 20
21.8450147185
 30
0.0
 10
4.7481064929
 20
21.8577314344
 30
0.0
 10
4.7393298783
 20
21.8734388777
 30
0.0
 10
4.7305510364
 20
21.8837272517
 30
0.0
 10
4.7206779548
 20
21.8900890988
 30
0.0
 10
4.7132994704
 20
21.8907007794
 30
0.0
 10
4.7100520944
 20
21.8900472884
 30
0.0
 11
4.7550849953
 21
21.8371544161
 31
0.0
 11
4.7463628242
 21
21.8601740227
 31
0.0
 11
4.7384626708
 21
21.8738384147
 31
0.0
 11
4.7295625417
 21
21.8837830093
 31
0.0
 11
4.7199678927
 21
21.8893919614
 31
0.0
 11
4.7100520944
 21
21.8900472884
 31
0.0
  0
SPLINE
  5
3EC
100
AcDbEntity
  8
ASSI
100
AcDbSpline
 62
253
  6
CONTINUOUS
 70
0
 71
3
 72
9
 73
5
 74
3
 42
0.0000001
 43
0.0000001
 44
0.0000000001
 12
-0.0008443928
 22
-0.138285888
 32
0.0
 13
-0.1064653416
 23
-0.0882543532
 33
0.0
 40
0.0
 40
0.0
 40
0.0
 40
0.0
 40
0.4654311439
 40
1.0
 40
1.0
 40
1.0
 40
1.0
 10
4.7102103185
 20
21.9170508291
 30
0.0
 10
4.7100793163
 20
21.8955966428
 30
0.0
 10
4.6965748223
 20
21.8491832493
 30
0.0
 10
4.6645619236
 20
21.8143205492
 30
0.0
 10
4.6455909049
 20
21.7985945397
 30
0.0
 11
4.7102103185
 21
21.9170508291
 31
0.0
 11
4.6934990876
 21
21.8548943474
 31
0.0
 11
4.6455909049
 21
21.7985945397
 31
0.0
  0
SPLINE
  5
3ED
100
AcDbEntity
  8
ASSI
100
AcDbSpline
 62
7
  6
CONTINUOUS
 70
0
 71
3
 72
10
 73
6
 74
4
 42
0.0000001
 43
0.0000001
 44
0.0000000001
 12
-0.2679627816
 22
-0.231182236
 32
0.0
 13
-0.3514808798
 23
-0.0413578252
 33
0.0
 40
0.0
 40
0.0
 40
0.0
 40
0.0
 40
0.2308949432
 40
0.4944901227
 40
1.0
 40
1.0
 40
1.0
 40
1.0
 10
5.7980318106
 20
15.4369205736
 30
0.0
 10
5.7774080602
 20
15.4191276372
 30
0.0
 10
5.725156727
 20
15.3905123117
 30
0.0
 10
5.6105941031
 20
15.3604029782
 30
0.0
 10
5.5197438235
 20
15.3540173231
 30
0.0
 10
5.4605181381
 20
15.3470483934
 30
0.0
 11
5.7980318106
 21
15.4369205736
 31
0.0
 11
5.7276530117
 21
15.3953974033
 31
0.0
 11
5.6379866838
 21
15.3696569206
 31
0.0
 11
5.4605181381
 21
15.3470483934
 31
0.0
  0
SPLINE
  5
3EE
100
AcDbEntity
  8
ASSI
100
AcDbSpline
 62
7
  6
CONTINUOUS
 70
0
 71
3
 72
9
 73
5
 74
3
 42
0.0000001
 43
0.0000001
 44
0.0000000001
 12
-0.0008962142
 22
-0.1439162947
 32
0.0
 13
-0.1110264373
 23
-0.0915741956
 33
0.0
 40
0.0
 40
0.0
 40
0.0
 40
0.0
 40
0.4643193042
 40
1.0
 40
1.0
 40
1.0
 40
1.0
 10
4.7034560294
 20
20.8076676638
 30
0.0
 10
4.7033173196
 20
20.7853932926
 30
0.0
 10
4.6890898835
 20
20.7371081994
 30
0.0
 10
4.6556216907
 20
20.7009814448
 30
0.0
 10
4.6357967843
 20
20.6846299352
 30
0.0
 11
4.7034560294
 21
20.8076676638
 31
0.0
 11
4.6859570119
 21
20.7431751364
 31
0.0
 11
4.6357967843
 21
20.6846299352
 31
0.0
  0
SPLINE
  5
3EF
100
AcDbEntity
  8
ASSI
100
AcDbSpline
 62
7
  6
CONTINUOUS
 70
0
 71
3
 72
10
 73
6
 74
4
 42
0.0000001
 43
0.0000001
 44
0.0000000001
 12
-0.1395204106
 22
0.1326394856
 32
0.0
 13
-0.0000343103
 23
0.1925076023
 33
0.0
 40
0.0
 40
0.0
 40
0.0
 40
0.0
 40
0.2959866998
 40
0.5653427575
 40
1.0
 40
1.0
 40
1.0
 40
1.0
 10
-11.4761661837
 20
22.1492026457
 30
0.0
 10
-11.489931579
 20
22.1622891535
 30
0.0
 10
-11.5154940211
 20
22.1882596842
 30
0.0
 10
-11.555320556
 20
22.2380409504
 30
0.0
 10
-11.5748579804
 20
22.2823477754
 30
0.0
 10
-11.5748629515
 20
22.3102393832
 30
0.0
 11
-11.4761661837
 21
22.1492026457
 31
0.0
 11
-11.5158629976
 21
22.1900786549
 31
0.0
 11
-11.5474927796
 21
22.2311675803
 31
0.0
 11
-11.5748629515
 21
22.3102393832
 31
0.0
  0
SPLINE
  5
3F0
100
AcDbEntity
  8
ASSI
100
AcDbSpline
 62
7
  6
CONTINUOUS
 70
0
 71
3
 72
9
 73
5
 74
3
 42
0.0000001
 43
0.0000001
 44
0.0000000001
 12
0.0030133497
 22
-0.1520570685
 32
0.0
 13
-0.1191400234
 23
-0.0945308796
 33
0.0
 40
0.0
 40
0.0
 40
0.0
 40
0.0
 40
0.4623053401
 40
1.0
 40
1.0
 40
1.0
 40
1.0
 10
-1.7780070001
 20
23.4139872409
 30
0.0
 10
-1.7775426376
 20
23.3905549759
 30
0.0
 10
-1.7921991897
 20
23.3391096331
 30
0.0
 10
-1.828301971
 20
23.3014453388
 30
0.0
 10
-1.8496556225
 20
23.2845024224
 30
0.0
 11
-1.7780070001
 21
23.4139872409
 31
0.0
 11
-1.7956778639
 21
23.345933434
 31
0.0
 11
-1.8496556225
 21
23.2845024224
 31
0.0
  0
LINE
  5
3F1
100
AcDbEntity
  8
ASSI
100
AcDbLine
 62
7
  6
CONTINUOUS
 10
5.7980318106
 20
15.4369205736
 11
6.5354402536
 21
16.0730142688
  0
SPLINE
  5
3F2
100
AcDbEntity
  8
ASSI
100
AcDbSpline
 62
7
  6
CONTINUOUS
 70
0
 71
3
 72
11
 73
7
 74
5
 42
0.0000001
 43
0.0000001
 44
0.0000000001
 12
0.0
 22
0.7393334118
 32
0.0
 13
-0.6835726522
 23
0.2816776935
 33
0.0
 40
0.0
 40
0.0
 40
0.0
 40
0.0
 40
0.2325582005
 40
0.4900081083
 40
0.7531917506
 40
1.0
 40
1.0
 40
1.0
 40
1.0
 10
6.9450162758
 20
15.4989430898
 30
0.0
 10
6.9450162758
 20
15.5562557725
 30
0.0
 10
6.9197359416
 20
15.6772430592
 30
0.0
 10
6.8299133833
 20
15.8419254315
 30
0.0
 10
6.6999620939
 20
15.9818932864
 30
0.0
 10
6.591677385
 20
16.0498405999
 30
0.0
 10
6.5354402618
 20
16.0730140593
 30
0.0
 11
6.9450162758
 21
15.4989430898
 31
0.0
 11
6.91355189
 21
15.6679776565
 31
0.0
 11
6.8242223046
 21
15.8360551469
 31
0.0
 11
6.6913496679
 21
15.9782044272
 31
0.0
 11
6.5354402618
 21
16.0730140593
 31
0.0
  0
SPLINE
  5
3F3
100
AcDbEntity
  8
ASSI
100
AcDbSpline
 62
253
  6
CONTINUOUS
 70
0
 71
3
 72
10
 73
6
 74
4
 42
0.0000001
 43
0.0000001
 44
0.0000000001
 12
0.0232434264
 22
0.0191717331
 32
0.0
 13
0.0113564868
 23
-0.0279077486
 33
0.0
 40
0.0
 40
0.0
 40
0.0
 40
0.0
 40
0.5341152139
 40
0.7496955087
 40
1.0
 40
1.0
 40
1.0
 40
1.0
 10
-7.6235673844
 20
23.8334293609
 30
0.0
 10
-7.6194291619
 20
23.8368426657
 30
0.0
 10
-7.6116813348
 20
23.8414069793
 30
0.0
 10
-7.6018969966
 20
23.8369636961
 30
0.0
 10
-7.5994331871
 20
23.8327159924
 30
0.0
 10
-7.5984856605
 20
23.8303875141
 30
0.0
 11
-7.6235673844
 21
23.8334293609
 31
0.0
 11
-7.608598795
 21
23.839338773
 31
0.0
 11
-7.602685242
 21
23.8366517039
 31
0.0
 11
-7.5984856605
 21
23.8303875141
 31
0.0
  0
SPLINE
  5
3F4
100
AcDbEntity
  8
ASSI
100
AcDbSpline
 62
253
  6
CONTINUOUS
 70
0
 71
3
 72
9
 73
5
 74
3
 42
0.0000001
 43
0.0000001
 44
0.0000000001
 12
0.0055762659
 22
-0.0137032719
 32
0.0
 13
-0.0000000701
 23
-0.0147944044
 33
0.0
 40
0.0
 40
0.0
 40
0.0
 40
0.0
 40
0.2210885319
 40
1.0
 40
1.0
 40
1.0
 40
1.0
 10
-7.5984856605
 20
23.8303875141
 30
0.0
 10
-7.5980747111
 20
23.8293776354
 30
0.0
 10
-7.5965332507
 20
23.8246803885
 30
0.0
 10
-7.5960914994
 20
23.8196836079
 30
0.0
 10
-7.5960915176
 20
23.8158424308
 30
0.0
 11
-7.5984856605
 21
23.8303875141
 31
0.0
 11
-7.5974468666
 21
23.8272859793
 31
0.0
 11
-7.5960915176
 21
23.8158424308
 31
0.0
  0
SPLINE
  5
3F5
100
AcDbEntity
  8
ASSI
100
AcDbSpline
 62
253
  6
CONTINUOUS
 70
0
 71
3
 72
9
 73
5
 74
3
 42
0.0000001
 43
0.0000001
 44
0.0000000001
 12
0.0000112191
 22
-0.0744600776
 32
0.0
 13
-0.056723926
 23
-0.0482358736
 33
0.0
 40
0.0
 40
0.0
 40
0.0
 40
0.0
 40
0.465837978
 40
1.0
 40
1.0
 40
1.0
 40
1.0
 10
-7.5619048307
 20
23.5584461507
 30
0.0
 10
-7.5619030886
 20
23.5468840401
 30
0.0
 10
-7.5690091427
 20
23.5218638908
 30
0.0
 10
-7.5859915953
 20
23.5028867694
 30
0.0
 10
-7.5960915176
 20
23.4942981788
 30
0.0
 11
-7.5619048307
 21
23.5584461507
 31
0.0
 11
-7.5706668564
 21
23.524884736
 31
0.0
 11
-7.5960915176
 21
23.4942981788
 31
0.0
  0
SPLINE
  5
3F6
100
AcDbEntity
  8
ASSI
100
AcDbSpline
 62
253
  6
CONTINUOUS
 70
0
 71
3
 72
9
 73
5
 74
3
 42
0.0000001
 43
0.0000001
 44
0.0000000001
 12
0.0000112222
 22
-0.0744600799
 32
0.0
 13
-0.0567239279
 23
-0.0482358749
 33
0.0
 40
0.0
 40
0.0
 40
0.0
 40
0.0
 40
0.4658379785
 40
1.0
 40
1.0
 40
1.0
 40
1.0
 10
-7.5619048307
 20
23.8799904051
 30
0.0
 10
-7.5619030881
 20
23.868428294
 30
0.0
 10
-7.569009142
 20
23.8434081438
 30
0.0
 10
-7.585991595
 20
23.8244310216
 30
0.0
 10
-7.5960915176
 20
23.8158424308
 30
0.0
 11
-7.5619048307
 21
23.8799904051
 31
0.0
 11
-7.5706668559
 21
23.846428989
 31
0.0
 11
-7.5960915176
 21
23.8158424308
 31
0.0
  0
SPLINE
  5
3F7
100
AcDbEntity
  8
ASSI
100
AcDbSpline
 62
253
  6
CONTINUOUS
 70
0
 71
3
 72
9
 73
5
 74
3
 42
0.0000001
 43
0.0000001
 44
0.0000000001
 12
-0.000001059
 22
0.248772927
 32
0.0
 13
0.1298876539
 23
0.2121724925
 33
0.0
 40
0.0
 40
0.0
 40
0.0
 40
0.0
 40
0.4809360142
 40
1.0
 40
1.0
 40
1.0
 40
1.0
 10
4.9047575881
 20
-22.9037293104
 30
0.0
 10
4.9047574183
 20
-22.8638480238
 30
0.0
 10
4.9204488298
 20
-22.7810509335
 30
0.0
 10
4.954338767
 20
-22.7045008317
 30
0.0
 10
4.9768121014
 20
-22.6677904652
 30
0.0
 11
4.9047575881
 21
-22.9037293104
 31
0.0
 11
4.9240598571
 21
-22.7856527436
 31
0.0
 11
4.9768121014
 21
-22.6677904652
 31
0.0
  0
SPLINE
  5
3F8
100
AcDbEntity
  8
ASSI
100
AcDbSpline
 62
253
  6
CONTINUOUS
 70
0
 71
3
 72
10
 73
6
 74
4
 42
0.0000001
 43
0.0000001
 44
0.0000000001
 12
0.0201238507
 22
0.034042888
 32
0.0
 13
-0.0201626371
 23
0.0340199302
 33
0.0
 40
0.0
 40
0.0
 40
0.0
 40
0.0
 40
0.1946884778
 40
0.5428983517
 40
1.0
 40
1.0
 40
1.0
 40
1.0
 10
-7.6036000342
 20
23.409504382
 30
0.0
 10
-7.6022940736
 20
23.4117136347
 30
0.0
 10
-7.6000423942
 20
23.4187529637
 30
0.0
 10
-7.6022760129
 20
23.4321828132
 30
0.0
 10
-7.6070013448
 20
23.4417546115
 30
0.0
 10
-7.6100734697
 20
23.4469381335
 30
0.0
 11
-7.6036000342
 21
23.409504382
 31
0.0
 11
-7.6011246391
 21
23.4167947451
 31
0.0
 11
-7.6025799494
 21
23.4304879413
 31
0.0
 11
-7.6100734697
 21
23.4469381335
 31
0.0
  0
SPLINE
  5
3F9
100
AcDbEntity
  8
ASSI
100
AcDbSpline
 62
253
  6
CONTINUOUS
 70
0
 71
3
 72
9
 73
5
 74
3
 42
0.0000001
 43
0.0000001
 44
0.0000000001
 12
0.0000003901
 22
-0.0496879569
 32
0.0
 13
-0.0252372424
 23
-0.0428015731
 33
0.0
 40
0.0
 40
0.0
 40
0.0
 40
0.0
 40
0.2304051353
 40
1.0
 40
1.0
 40
1.0
 40
1.0
 10
-7.5960915176
 20
23.4942981788
 30
0.0
 10
-7.5960914877
 20
23.4904820587
 30
0.0
 10
-7.5976537505
 20
23.47394732
 30
0.0
 10
-7.603599319
 20
23.4579180905
 30
0.0
 10
-7.6100734697
 20
23.4469381335
 30
0.0
 11
-7.5960915176
 21
23.4942981788
 31
0.0
 11
-7.5970440889
 21
23.482889517
 31
0.0
 11
-7.6100734697
 21
23.4469381335
 31
0.0
  0
SPLINE
  5
3FA
100
AcDbEntity
  8
ASSI
100
AcDbSpline
 62
253
  6
CONTINUOUS
 70
0
 71
3
 72
11
 73
7
 74
5
 42
0.0000001
 43
0.0000001
 44
0.0000000001
 12
-0.122629869
 22
0.0490319682
 32
0.0
 13
0.0000005487
 23
0.1320689921
 33
0.0
 40
0.0
 40
0.0
 40
0.0
 40
0.0
 40
0.1964431877
 40
0.4203425869
 40
0.6871249544
 40
1.0
 40
1.0
 40
1.0
 40
1.0
 10
-9.6255951673
 20
21.9019064454
 30
0.0
 10
-9.6336251014
 20
21.9051171108
 30
0.0
 10
-9.6492285021
 20
21.9163439562
 30
0.0
 10
-9.665053028
 20
21.9427684763
 30
0.0
 10
-9.6743846836
 20
21.9771950354
 30
0.0
 10
-9.6761488575
 20
22.0027934426
 30
0.0
 10
-9.6761488003
 20
22.0165671399
 30
0.0
 11
-9.6255951673
 21
21.9019064454
 31
0.0
 11
-9.6469157071
 21
21.9166891552
 31
0.0
 11
-9.6628989908
 21
21.9415674485
 31
0.0
 11
-9.6727972168
 21
21.975382197
 31
0.0
 11
-9.6761488003
 21
22.0165671399
 31
0.0
  0
SPLINE
  5
3FB
100
AcDbEntity
  8
ASSI
100
AcDbSpline
 62
253
  6
CONTINUOUS
 70
0
 71
3
 72
10
 73
6
 74
4
 42
0.0000001
 43
0.0000001
 44
0.0000000001
 12
0.2245259799
 22
-0.00364014
 32
0.0
 13
0.0669096256
 23
0.2143554718
 33
0.0
 40
0.0
 40
0.0
 40
0.0
 40
0.0
 40
0.2377734348
 40
0.4824413398
 40
1.0
 40
1.0
 40
1.0
 40
1.0
 10
-9.5497414726
 20
21.8867031884
 30
0.0
 10
-9.5319460348
 20
21.8864146789
 30
0.0
 10
-9.4954109778
 20
21.8926406227
 30
0.0
 10
-9.4293764996
 20
21.9302666356
 30
0.0
 10
-9.3964764631
 20
21.9822602079
 30
0.0
 10
-9.3849332444
 20
22.0192407182
 30
0.0
 11
-9.5497414726
 21
21.8867031884
 31
0.0
 11
-9.4970692342
 21
21.8954486391
 31
0.0
 11
-9.4491929321
 21
21.9224010111
 31
0.0
 11
-9.3849332444
 21
22.0192407182
 31
0.0
  0
SPLINE
  5
3FC
100
AcDbEntity
  8
ASSI
100
AcDbSpline
 62
7
  6
CONTINUOUS
 70
0
 71
3
 72
9
 73
5
 74
3
 42
0.0000001
 43
0.0000001
 44
0.0000000001
 12
-0.0
 22
-0.2406984737
 32
0.0
 13
-0.1812010837
 23
-0.1584358625
 33
0.0
 40
0.0
 40
0.0
 40
0.0
 40
0.0
 40
0.5267659387
 40
1.0
 40
1.0
 40
1.0
 40
1.0
 10
6.9450162758
 20
-20.3799786378
 30
0.0
 10
6.9450162758
 20
-20.422242557
 30
0.0
 10
6.9326479872
 20
-20.5037291425
 30
0.0
 10
6.8857791226
 20
-20.5731357836
 30
0.0
 10
6.8571956143
 20
-20.5981281992
 30
0.0
 11
6.9450162758
 21
-20.3799786378
 31
0.0
 11
6.9224125884
 21
-20.504739301
 31
0.0
 11
6.8571956143
 21
-20.5981281992
 31
0.0
  0
SPLINE
  5
3FD
100
AcDbEntity
  8
ASSI
100
AcDbSpline
 62
253
  6
CONTINUOUS
 70
0
 71
3
 72
11
 73
7
 74
5
 42
0.0000001
 43
0.0000001
 44
0.0000000001
 12
-0.2727993311
 22
-0.231973382
 32
0.0
 13
0.0000011505
 23
-0.3580937377
 33
0.0
 40
0.0
 40
0.0
 40
0.0
 40
0.0
 40
0.2271891145
 40
0.4892992829
 40
0.7571326917
 40
1.0
 40
1.0
 40
1.0
 40
1.0
 10
2.6533128831
 20
17.7416277192
 30
0.0
 10
2.6326538703
 20
17.7240604435
 30
0.0
 10
2.5946225633
 20
17.6787181543
 30
0.0
 10
2.551249202
 20
17.5989735208
 30
0.0
 10
2.5216872626
 20
17.5111395295
 30
0.0
 10
2.513123693
 20
17.4501691929
 30
0.0
 10
2.5131237862
 20
17.4211794388
 30
0.0
 11
2.6533128831
 21
17.7416277192
 31
0.0
 11
2.5994929719
 21
17.6806190883
 31
0.0
 11
2.5540446089
 21
17.598496328
 31
0.0
 11
2.5237499919
 21
17.5074970866
 31
0.0
 11
2.5131237862
 21
17.4211794388
 31
0.0
  0
SPLINE
  5
3FE
100
AcDbEntity
  8
ASSI
100
AcDbSpline
 62
253
  6
CONTINUOUS
 70
0
 71
3
 72
11
 73
7
 74
5
 42
0.0000001
 43
0.0000001
 44
0.0000000001
 12
-0.2746421515
 22
-0.230118075
 32
0.0
 13
0.0000024857
 23
-0.3583052328
 33
0.0
 40
0.0
 40
0.0
 40
0.0
 40
0.0
 40
0.2276263343
 40
0.4897588194
 40
0.7573701809
 40
1.0
 40
1.0
 40
1.0
 40
1.0
 10
5.0463515655
 20
16.7805294346
 30
0.0
 10
5.0255129701
 20
16.7630691233
 30
0.0
 10
4.9871083366
 20
16.7179135725
 30
0.0
 10
4.9432772387
 20
16.6383148351
 30
0.0
 10
4.9134057832
 20
16.5505740292
 30
0.0
 10
4.904757387
 20
16.4896216506
 30
0.0
 10
4.9047575881
 20
16.4606431393
 30
0.0
 11
5.0463515655
 21
16.7805294346
 31
0.0
 11
4.9919874474
 21
16.7197303522
 31
0.0
 11
4.9460844864
 21
16.6377881106
 31
0.0
 11
4.9154889129
 21
16.5469137931
 31
0.0
 11
4.9047575881
 21
16.4606431393
 31
0.0
  0
SPLINE
  5
3FF
100
AcDbEntity
  8
ASSI
100
AcDbSpline
 62
253
  6
CONTINUOUS
 70
0
 71
3
 72
11
 73
7
 74
5
 42
0.0000001
 43
0.0000001
 44
0.0000000001
 12
0.0000000354
 22
-0.1319034852
 32
0.0
 13
0.1223299889
 23
-0.0493346046
 33
0.0
 40
0.0
 40
0.0
 40
0.0
 40
0.0
 40
0.3127022096
 40
0.5794843908
 40
0.8034710645
 40
1.0
 40
1.0
 40
1.0
 40
1.0
 10
4.904757588
 20
16.16054655
 30
0.0
 10
4.9047575917
 20
16.1467977129
 30
0.0
 10
4.9065163567
 20
16.121239586
 30
0.0
 10
4.915813959
 20
16.0868553004
 30
0.0
 10
4.9315839872
 20
16.0604391634
 30
0.0
 10
4.9471406008
 20
16.0491804257
 30
0.0
 10
4.9551543949
 20
16.0459485333
 30
0.0
 11
4.904757588
 21
16.16054655
 31
0.0
 11
4.9080962234
 21
16.1194353811
 31
0.0
 11
4.9179585511
 21
16.0856561661
 31
0.0
 11
4.9338901542
 21
16.0607750736
 31
0.0
 11
4.9551543949
 21
16.0459485333
 31
0.0
  0
SPLINE
  5
400
100
AcDbEntity
  8
ASSI
100
AcDbSpline
 62
253
  6
CONTINUOUS
 70
0
 71
3
 72
11
 73
7
 74
5
 42
0.0000001
 43
0.0000001
 44
0.0000000001
 12
0.0000006204
 22
-0.1315407354
 32
0.0
 13
0.12207153
 23
-0.0490051694
 33
0.0
 40
0.0
 40
0.0
 40
0.0
 40
0.0
 40
0.3136539445
 40
0.5808354053
 40
0.8045049034
 40
1.0
 40
1.0
 40
1.0
 40
1.0
 10
2.5131237869
 20
17.1210804682
 30
0.0
 10
2.5131238517
 20
17.1073277113
 30
0.0
 10
2.514863712
 20
17.0817814512
 30
0.0
 10
2.5240718643
 20
17.0474318979
 30
0.0
 10
2.5396853431
 20
17.0210718067
 30
0.0
 10
2.5551401065
 20
17.0098471575
 30
0.0
 10
2.5630949017
 20
17.0066537341
 30
0.0
 11
2.5131237869
 21
17.1210804682
 31
0.0
 11
2.5164341833
 21
17.0799552185
 31
0.0
 11
2.5262137143
 21
17.0461980107
 31
0.0
 11
2.5420117237
 21
17.0213775271
 31
0.0
 11
2.5630949017
 21
17.0066537341
 31
0.0
  0
SPLINE
  5
401
100
AcDbEntity
  8
ASSI
100
AcDbSpline
 62
7
  6
CONTINUOUS
 70
0
 71
3
 72
9
 73
5
 74
3
 42
0.0000001
 43
0.0000001
 44
0.0000000001
 12
0.036890209
 22
0.0282513008
 32
0.0
 13
0.0457609183
 23
0.0080598928
 33
0.0
 40
0.0
 40
0.0
 40
0.0
 40
0.0
 40
0.2449299241
 40
1.0
 40
1.0
 40
1.0
 40
1.0
 10
3.7897543017
 20
18.8387583942
 30
0.0
 10
3.7927661404
 20
18.8410649238
 30
0.0
 10
3.805650503
 20
18.8497106391
 30
0.0
 10
3.8207073972
 20
18.8549322848
 30
0.0
 10
3.8322249638
 20
18.8569608795
 30
0.0
 11
3.7897543017
 21
18.8387583942
 31
0.0
 11
3.7992080039
 21
18.8450947004
 31
0.0
 11
3.8322249638
 21
18.8569608795
 31
0.0
  0
SPLINE
  5
402
100
AcDbEntity
  8
ASSI
100
AcDbSpline
 62
7
  6
CONTINUOUS
 70
0
 71
3
 72
9
 73
5
 74
3
 42
0.0000001
 43
0.0000001
 44
0.0000000001
 12
0.0819977194
 22
0.0144422982
 32
0.0
 13
0.0772615454
 23
-0.0310299785
 33
0.0
 40
0.0
 40
0.0
 40
0.0
 40
0.0
 40
0.2319060719
 40
1.0
 40
1.0
 40
1.0
 40
1.0
 10
3.8322249638
 20
18.8569608795
 30
0.0
 10
3.8385635535
 20
18.8580772983
 30
0.0
 10
3.8663231932
 20
18.8605063995
 30
0.0
 10
3.8943473851
 20
18.8539559998
 30
0.0
 10
3.9141287598
 20
18.8460113538
 30
0.0
 11
3.8322249638
 21
18.8569608795
 31
0.0
 11
3.8514530392
 21
18.8587210236
 31
0.0
 11
3.9141287598
 21
18.8460113538
 31
0.0
  0
SPLINE
  5
403
100
AcDbEntity
  8
ASSI
100
AcDbSpline
 62
253
  6
CONTINUOUS
 70
0
 71
3
 72
10
 73
6
 74
4
 42
0.0000001
 43
0.0000001
 44
0.0000000001
 12
-0.0360920739
 22
-0.0276163687
 32
0.0
 13
0.0000002265
 23
0.0454455897
 33
0.0
 40
0.0
 40
0.0
 40
0.0
 40
0.0
 40
0.2716956361
 40
0.4804554203
 40
1.0
 40
1.0
 40
1.0
 40
1.0
 10
5.2101570221
 20
-23.1954358883
 30
0.0
 10
5.2068883358
 20
-23.1979369706
 30
0.0
 10
5.2004109626
 20
-23.2019925811
 30
0.0
 10
5.1837232504
 20
-23.1996718422
 30
0.0
 10
5.181276235
 20
-23.1851550628
 30
0.0
 10
5.1812762742
 20
-23.1772847262
 30
0.0
 11
5.2101570221
 21
-23.1954358883
 31
0.0
 11
5.1990699029
 21
-23.2008703425
 31
0.0
 11
5.1897070552
 21
-23.1993392431
 31
0.0
 11
5.1812762742
 21
-23.1772847262
 31
0.0
  0
SPLINE
  5
404
100
AcDbEntity
  8
ASSI
100
AcDbSpline
 62
253
  6
CONTINUOUS
 70
0
 71
3
 72
9
 73
5
 74
3
 42
0.0000001
 43
0.0000001
 44
0.0000000001
 12
-0.0000004098
 22
0.0496548047
 32
0.0
 13
0.0263889108
 23
0.0420621566
 33
0.0
 40
0.0
 40
0.0
 40
0.0
 40
0.0
 40
0.2302502138
 40
1.0
 40
1.0
 40
1.0
 40
1.0
 10
5.1812762742
 20
-22.8771880024
 30
0.0
 10
5.1812762428
 20
-22.8733769926
 30
0.0
 10
5.1829156297
 20
-22.8568545369
 30
0.0
 10
5.1892021911
 20
-22.8409075295
 30
0.0
 10
5.1959731439
 20
-22.8301150842
 30
0.0
 11
5.1812762742
 21
-22.8771880024
 31
0.0
 11
5.1822775518
 21
-22.8657989022
 31
0.0
 11
5.1959731439
 21
-22.8301150842
 31
0.0
  0
SPLINE
  5
405
100
AcDbEntity
  8
ASSI
100
AcDbSpline
 62
253
  6
CONTINUOUS
 70
0
 71
3
 72
11
 73
7
 74
5
 42
0.0000001
 43
0.0000001
 44
0.0000000001
 12
-0.0000016273
 22
0.358095934
 32
0.0
 13
0.2727983439
 23
0.2319779333
 33
0.0
 40
0.0
 40
0.0
 40
0.0
 40
0.0
 40
0.2427910019
 40
0.5106102865
 40
0.7727396981
 40
1.0
 40
1.0
 40
1.0
 40
1.0
 10
-12.0677826015
 20
23.2771979164
 30
0.0
 10
-12.0677827332
 20
23.3061787399
 30
0.0
 10
-12.0592233529
 20
23.3671386913
 30
0.0
 10
-12.0296690064
 20
23.4549669055
 30
0.0
 10
-11.9862961061
 20
23.5347227885
 30
0.0
 10
-11.9482589165
 20
23.5800753186
 30
0.0
 10
-11.9275935052
 20
23.5976484436
 30
0.0
 11
-12.0677826015
 21
23.2771979164
 31
0.0
 11
-12.0571627783
 21
23.363489356
 31
0.0
 11
-12.0268752192
 21
23.4544862361
 31
0.0
 11
-11.9814284375
 21
23.5366184051
 31
0.0
 11
-11.9275935052
 21
23.5976484436
 31
0.0
  0
SPLINE
  5
406
100
AcDbEntity
  8
ASSI
100
AcDbSpline
 62
253
  6
CONTINUOUS
 70
0
 71
3
 72
11
 73
7
 74
5
 42
0.0000001
 43
0.0000001
 44
0.0000000001
 12
-0.0000025084
 22
0.3583052568
 32
0.0
 13
0.2746427088
 23
0.2301174472
 33
0.0
 40
0.0
 40
0.0
 40
0.0
 40
0.0
 40
0.2425699427
 40
0.5101770664
 40
0.7723238289
 40
1.0
 40
1.0
 40
1.0
 40
1.0
 10
-9.6761488003
 20
22.3166638637
 30
0.0
 10
-9.6761490031
 20
22.3456352256
 30
0.0
 10
-9.6675034495
 20
22.4065799205
 30
0.0
 10
-9.6376377255
 20
22.4943164507
 30
0.0
 10
-9.5938065927
 20
22.5739232937
 30
0.0
 10
-9.555398023
 20
22.6190860726
 30
0.0
 10
-9.5345548229
 20
22.636550159
 30
0.0
 11
-9.6761488003
 21
22.3166638637
 31
0.0
 11
-9.66542227
 21
22.4029135004
 31
0.0
 11
-9.6348312986
 21
22.4937877718
 31
0.0
 11
-9.5889294364
 21
22.5757364997
 31
0.0
 11
-9.5345548229
 21
22.636550159
 31
0.0
  0
SPLINE
  5
407
100
AcDbEntity
  8
ASSI
100
AcDbSpline
 62
253
  6
CONTINUOUS
 70
0
 71
3
 72
11
 73
7
 74
5
 42
0.0000001
 43
0.0000001
 44
0.0000000001
 12
0.0000000212
 22
-0.0309864963
 32
0.0
 13
0.0309829917
 23
-0.0004660243
 33
0.0
 40
0.0
 40
0.0
 40
0.0
 40
0.0
 40
0.3181745735
 40
0.5798961776
 40
0.7959443159
 40
1.0
 40
1.0
 40
1.0
 40
1.0
 10
5.1812762742
 20
16.1870877235
 30
0.0
 10
5.1812762765
 20
16.1838013518
 30
0.0
 10
5.1817790394
 20
16.1777832442
 30
0.0
 10
5.184518462
 20
16.169897764
 30
0.0
 10
5.1894213932
 20
16.1644481678
 30
0.0
 10
5.1938657254
 20
16.1632516921
 30
0.0
 10
5.1959731439
 20
16.1632199938
 30
0.0
 11
5.1812762742
 21
16.1870877235
 31
0.0
 11
5.182277467
 21
16.1772795755
 31
0.0
 11
5.1852131778
 21
16.1697197452
 31
0.0
 11
5.1898840893
 21
16.1649239222
 31
0.0
 11
5.1959731439
 21
16.1632199938
 31
0.0
  0
SPLINE
  5
408
100
AcDbEntity
  8
ASSI
100
AcDbSpline
 62
253
  6
CONTINUOUS
 70
0
 71
3
 72
9
 73
5
 74
3
 42
0.0000001
 43
0.0000001
 44
0.0000000001
 12
-0.0553345764
 22
-0.0450305477
 32
0.0
 13
0.0000007492
 23
-0.0713418921
 33
0.0
 40
0.0
 40
0.0
 40
0.0
 40
0.0
 40
0.4904026107
 40
1.0
 40
1.0
 40
1.0
 40
1.0
 10
5.2101570221
 20
16.5509360136
 30
0.0
 10
5.2011116152
 20
16.5435749809
 30
0.0
 10
5.1878370526
 20
16.5228100993
 30
0.0
 10
5.181276147
 20
16.4993029947
 30
0.0
 10
5.1812762742
 20
16.4871844473
 30
0.0
 11
5.2101570221
 21
16.5509360136
 31
0.0
 11
5.1897064539
 21
16.5225491864
 31
0.0
 11
5.1812762742
 21
16.4871844473
 31
0.0
  0
SPLINE
  5
409
100
AcDbEntity
  8
ASSI
100
AcDbSpline
 62
253
  6
CONTINUOUS
 70
0
 71
3
 72
9
 73
5
 74
3
 42
0.0000001
 43
0.0000001
 44
0.0000000001
 12
0.0723644994
 22
0.0570439925
 32
0.0
 13
0.0886434537
 23
-0.0251590138
 33
0.0
 40
0.0
 40
0.0
 40
0.0
 40
0.0
 40
0.5616571733
 40
1.0
 40
1.0
 40
1.0
 40
1.0
 10
-10.2233065798
 20
25.0413486882
 30
0.0
 10
-10.2097585664
 20
25.0520284108
 30
0.0
 10
-10.1833281192
 20
25.0688241591
 30
0.0
 10
-10.1507142133
 20
25.0719304313
 30
0.0
 10
-10.1377621393
 20
25.0682543402
 30
0.0
 11
-10.2233065798
 21
25.0413486882
 31
0.0
 11
-10.1781182395
 21
25.0665768504
 31
0.0
 11
-10.1377621393
 21
25.0682543402
 31
0.0
  0
SPLINE
  5
40A
100
AcDbEntity
  8
ASSI
100
AcDbSpline
 62
253
  6
CONTINUOUS
 70
0
 71
3
 72
11
 73
7
 74
5
 42
0.0000001
 43
0.0000001
 44
0.0000000001
 12
0.0764006705
 22
0.0611390631
 32
0.0
 13
0.090808331
 23
-0.0364540053
 33
0.0
 40
0.0
 40
0.0
 40
0.0
 40
0.0
 40
0.3014084573
 40
0.5633035647
 40
0.7916363389
 40
1.0
 40
1.0
 40
1.0
 40
1.0
 10
-7.7873728411
 20
24.0630227819
 30
0.0
 10
-7.779696905
 20
24.0691653922
 30
0.0
 10
-7.7645136117
 20
24.0796865983
 30
0.0
 10
-7.7406705611
 20
24.0901294043
 30
0.0
 10
-7.7178298274
 20
24.0936737853
 30
0.0
 10
-7.7034757254
 20
24.0909236531
 30
0.0
 10
-7.6971686733
 20
24.0883917564
 30
0.0
 11
-7.7873728411
 21
24.0630227819
 31
0.0
 11
-7.7629381837
 21
24.0795398159
 31
0.0
 11
-7.7392991928
 21
24.0894363556
 31
0.0
 11
-7.7171561149
 21
24.0924175287
 31
0.0
 11
-7.6971686733
 21
24.0883917564
 31
0.0
  0
SPLINE
  5
40B
100
AcDbEntity
  8
ASSI
100
AcDbSpline
 62
253
  6
CONTINUOUS
 70
0
 71
3
 72
10
 73
6
 74
4
 42
0.0000001
 43
0.0000001
 44
0.0000000001
 12
0.1022674905
 22
0.0782781512
 32
0.0
 13
0.1188910038
 23
-0.0495079569
 33
0.0
 40
0.0
 40
0.0
 40
0.0
 40
0.0
 40
0.2260606191
 40
0.4640560021
 40
1.0
 40
1.0
 40
1.0
 40
1.0
 10
-10.3468224632
 20
25.0347526868
 30
0.0
 10
-10.3391162458
 20
25.0406512226
 30
0.0
 10
-10.3211661499
 20
25.0501908622
 30
0.0
 10
-10.2784361883
 20
25.0580105273
 30
0.0
 10
-10.2445462198
 20
25.0501931857
 30
0.0
 10
-10.2233065798
 20
25.0413486882
 30
0.0
 11
-10.3468224632
 21
25.0347526868
 31
0.0
 11
-10.321181899
 21
25.0485428306
 31
0.0
 11
-10.29109002
 21
25.0543691416
 31
0.0
 11
-10.2233065798
 21
25.0413486882
 31
0.0
  0
SPLINE
  5
40C
100
AcDbEntity
  8
ASSI
100
AcDbSpline
 62
253
  6
CONTINUOUS
 70
0
 71
3
 72
11
 73
7
 74
5
 42
0.0000001
 43
0.0000001
 44
0.0000000001
 12
0.0003096105
 22
-0.1338278488
 32
0.0
 13
0.1241867672
 23
-0.0498762051
 33
0.0
 40
0.0
 40
0.0
 40
0.0
 40
0.0
 40
0.2078675852
 40
0.4373492768
 40
0.7012136435
 40
1.0
 40
1.0
 40
1.0
 40
1.0
 10
-12.1530613395
 20
23.3710242293
 30
0.0
 10
-12.1530398868
 20
23.3617514053
 30
0.0
 10
-12.1486333158
 20
23.3420855904
 30
0.0
 10
-12.1305223377
 20
23.3158952678
 30
0.0
 10
-12.1027451705
 20
23.2934931482
 30
0.0
 10
-12.0801510387
 20
23.2821653596
 30
0.0
 10
-12.0677826015
 20
23.2771979164
 30
0.0
 11
-12.1530613395
 21
23.3710242293
 31
0.0
 11
-12.1472947956
 21
23.3438099226
 31
0.0
 11
-12.1304242427
 21
23.3181475467
 31
0.0
 11
-12.1033398683
 21
23.2954890169
 31
0.0
 11
-12.0677826015
 21
23.2771979164
 31
0.0
  0
SPLINE
  5
40D
100
AcDbEntity
  8
ASSI
100
AcDbSpline
 62
253
  6
CONTINUOUS
 70
0
 71
3
 72
10
 73
6
 74
4
 42
0.0000001
 43
0.0000001
 44
0.0000000001
 12
0.1023774418
 22
0.0895260318
 32
0.0
 13
0.1268512481
 23
-0.0490388807
 33
0.0
 40
0.0
 40
0.0
 40
0.0
 40
0.0
 40
0.2239215205
 40
0.4610175458
 40
1.0
 40
1.0
 40
1.0
 40
1.0
 10
-12.0572927875
 20
23.5859908492
 30
0.0
 10
-12.0496512833
 20
23.5926731176
 30
0.0
 10
-12.0313691102
 20
23.6037442136
 30
0.0
 10
-11.9865582301
 20
23.6137943485
 30
0.0
 10
-11.9503837042
 20
23.6064588091
 30
0.0
 10
-11.9275935052
 20
23.5976484436
 30
0.0
 11
-12.0572927875
 21
23.5859908492
 31
0.0
 11
-12.0313309234
 21
23.6019090552
 31
0.0
 11
-11.9999555684
 21
23.6093477258
 31
0.0
 11
-11.9275935052
 21
23.5976484436
 31
0.0
  0
SPLINE
  5
40E
100
AcDbEntity
  8
ASSI
100
AcDbSpline
 62
253
  6
CONTINUOUS
 70
0
 71
3
 72
11
 73
7
 74
5
 42
0.0000001
 43
0.0000001
 44
0.0000000001
 12
0.0000201911
 22
-0.1339688412
 32
0.0
 13
0.1243172709
 23
-0.0499286187
 33
0.0
 40
0.0
 40
0.0
 40
0.0
 40
0.0
 40
0.2078649896
 40
0.4373058241
 40
0.7011619259
 40
1.0
 40
1.0
 40
1.0
 40
1.0
 10
-12.1530615156
 20
23.071070455
 30
0.0
 10
-12.1530601166
 20
23.0617879777
 30
0.0
 10
-12.148686431
 20
23.0420927505
 30
0.0
 10
-12.1305827357
 20
23.0158562518
 30
0.0
 10
-12.1027852186
 20
22.9934175904
 30
0.0
 10
-12.0801661794
 20
22.9820747167
 30
0.0
 10
-12.0677826015
 20
22.9771011926
 30
0.0
 11
-12.1530615156
 21
23.071070455
 31
0.0
 11
-12.1473393155
 21
23.0438172735
 31
0.0
 11
-12.1304818091
 21
23.0181142699
 31
0.0
 11
-12.1033810738
 21
22.9954191965
 31
0.0
 11
-12.0677826015
 21
22.9771011926
 31
0.0
  0
SPLINE
  5
40F
100
AcDbEntity
  8
ASSI
100
AcDbSpline
 62
253
  6
CONTINUOUS
 70
0
 71
3
 72
9
 73
5
 74
3
 42
0.0000001
 43
0.0000001
 44
0.0000000001
 12
0.081420235
 22
0.0623527924
 32
0.0
 13
0.0012716043
 23
0.102545153
 33
0.0
 40
0.0
 40
0.0
 40
0.0
 40
0.0
 40
0.4709553504
 40
1.0
 40
1.0
 40
1.0
 40
1.0
 10
5.1698850715
 20
-23.2868438871
 30
0.0
 10
5.1826668366
 20
-23.2770554267
 30
0.0
 10
5.2041117056
 20
-23.248259951
 30
0.0
 10
5.209932777
 20
-23.2135195431
 30
0.0
 10
5.2101570221
 20
-23.1954358883
 30
0.0
 11
5.1698850715
 21
-23.2868438871
 31
0.0
 11
5.1994006464
 21
-23.2486140803
 31
0.0
 11
5.2101570221
 21
-23.1954358883
 31
0.0
  0
SPLINE
  5
410
100
AcDbEntity
  8
ASSI
100
AcDbSpline
 62
253
  6
CONTINUOUS
 70
0
 71
3
 72
11
 73
7
 74
5
 42
0.0000001
 43
0.0000001
 44
0.0000000001
 12
-0.1216709343
 22
0.0500090393
 32
0.0
 13
0.000000514
 23
0.1315474069
 33
0.0
 40
0.0
 40
0.0
 40
0.0
 40
0.0
 40
0.196512166
 40
0.4206278037
 40
0.6874242193
 40
1.0
 40
1.0
 40
1.0
 40
1.0
 10
4.9548190024
 20
-23.3182868895
 30
0.0
 10
4.9468490628
 20
-23.3150110946
 30
0.0
 10
4.9313988134
 20
-23.3036999936
 30
0.0
 10
4.9157442722
 20
-23.2773142442
 30
0.0
 10
4.906505523
 20
-23.2430159533
 30
0.0
 10
4.9047575345
 20
-23.217532212
 30
0.0
 10
4.9047575881
 20
-23.2038260342
 30
0.0
 11
4.9548190024
 21
-23.3182868895
 31
0.0
 11
4.9336942446
 21
-23.3033871736
 31
0.0
 11
4.9178697794
 21
-23.278512193
 31
0.0
 11
4.908073897
 21
-23.2448106153
 31
0.0
 11
4.9047575881
 21
-23.2038260342
 31
0.0
  0
SPLINE
  5
411
100
AcDbEntity
  8
ASSI
100
AcDbSpline
 62
7
  6
CONTINUOUS
 70
0
 71
3
 72
9
 73
5
 74
3
 42
0.0000001
 43
0.0000001
 44
0.0000000001
 12
0.0278162613
 22
0.0243792458
 32
0.0
 13
0.0164323092
 23
0.0331371579
 33
0.0
 40
0.0
 40
0.0
 40
0.0
 40
0.0
 40
0.7439380091
 40
1.0
 40
1.0
 40
1.0
 40
1.0
 10
6.5006214032
 20
-22.2683952941
 30
0.0
 10
6.5075192613
 20
-22.2623497449
 30
0.0
 10
6.5155927611
 20
-22.2527082021
 30
0.0
 10
6.5215706699
 20
-22.2419196105
 30
0.0
 10
6.5229732332
 20
-22.2390912216
 30
0.0
 11
6.5006214032
 21
-22.2683952941
 31
0.0
 11
6.5183718363
 21
-22.2473694976
 31
0.0
 11
6.5229732332
 21
-22.2390912216
 31
0.0
  0
SPLINE
  5
412
100
AcDbEntity
  8
ASSI
100
AcDbSpline
 62
7
  6
CONTINUOUS
 70
0
 71
3
 72
9
 73
5
 74
3
 42
0.0000001
 43
0.0000001
 44
0.0000000001
 12
0.0263514377
 22
0.0531399295
 32
0.0
 13
0.0
 23
0.0593148411
 33
0.0
 40
0.0
 40
0.0
 40
0.0
 40
0.0
 40
0.2373553626
 40
1.0
 40
1.0
 40
1.0
 40
1.0
 10
6.5229732332
 20
-22.2390912216
 30
0.0
 10
6.5250581182
 20
-22.2348868725
 30
0.0
 10
6.5326267573
 20
-22.2165730691
 30
0.0
 10
6.5354402536
 20
-22.1964898669
 30
0.0
 10
6.5354402536
 20
-22.1814111517
 30
0.0
 11
6.5229732332
 21
-22.2390912216
 31
0.0
 11
6.5283831392
 21
-22.22609343
 31
0.0
 11
6.5354402536
 21
-22.1814111517
 31
0.0
  0
SPLINE
  5
413
100
AcDbEntity
  8
ASSI
100
AcDbSpline
 62
253
  6
CONTINUOUS
 70
0
 71
3
 72
8
 73
4
 74
2
 42
0.0000001
 43
0.0000001
 44
0.0000000001
 12
0.0219227669
 22
0.074274332
 32
0.0
 13
-0.0043856177
 23
0.0773178534
 33
0.0
 40
0.0
 40
0.0
 40
0.0
 40
0.0
 40
1.0
 40
1.0
 40
1.0
 40
1.0
 10
6.9708329186
 20
-21.4024176688
 30
0.0
 10
6.9781405076
 20
-21.3776595581
 30
0.0
 10
6.9810957033
 20
-21.3512498678
 30
0.0
 10
6.9796338308
 20
-21.32547725
 30
0.0
 11
6.9708329186
 21
-21.4024176688
 31
0.0
 11
6.9796338308
 21
-21.32547725
 31
0.0
  0
SPLINE
  5
414
100
AcDbEntity
  8
ASSI
100
AcDbSpline
 62
253
  6
CONTINUOUS
 70
0
 71
3
 72
9
 73
5
 74
3
 42
0.0000001
 43
0.0000001
 44
0.0000000001
 12
-0.0488799351
 22
0.1140370476
 32
0.0
 13
-0.1083738897
 23
0.0604052672
 33
0.0
 40
0.0
 40
0.0
 40
0.0
 40
0.0
 40
0.5104328971
 40
1.0
 40
1.0
 40
1.0
 40
1.0
 10
6.9621429699
 20
-21.2504630614
 30
0.0
 10
6.9538263276
 20
-21.2310603079
 30
0.0
 10
6.9317663369
 20
-21.1951799215
 30
0.0
 10
6.899097212
 20
-21.1683216135
 30
0.0
 10
6.8814117816
 20
-21.1584641363
 30
0.0
 11
6.9621429699
 21
-21.2504630614
 31
0.0
 11
6.9285419154
 21
-21.1967818768
 31
0.0
 11
6.8814117816
 21
-21.1584641363
 31
0.0
  0
SPLINE
  5
415
100
AcDbEntity
  8
ASSI
100
AcDbSpline
 62
253
  6
CONTINUOUS
 70
0
 71
3
 72
8
 73
4
 74
2
 42
0.0000001
 43
0.0000001
 44
0.0000000001
 12
-0.0199662814
 22
0.0078987535
 32
0.0
 13
-0.0214717805
 23
0.0000730959
 33
0.0
 40
0.0
 40
0.0
 40
0.0
 40
0.0
 40
1.0
 40
1.0
 40
1.0
 40
1.0
 10
6.8834892943
 20
-21.1533495318
 30
0.0
 10
6.8768338671
 20
-21.150716614
 30
0.0
 10
6.8695403079
 20
-21.1494281325
 30
0.0
 10
6.8623830477
 20
-21.1494037672
 30
0.0
 11
6.8834892943
 21
-21.1533495318
 31
0.0
 11
6.8623830477
 21
-21.1494037672
 31
0.0
  0
SPLINE
  5
416
100
AcDbEntity
  8
ASSI
100
AcDbSpline
 62
253
  6
CONTINUOUS
 70
0
 71
3
 72
9
 73
5
 74
3
 42
0.0000001
 43
0.0000001
 44
0.0000000001
 12
0.0567178948
 22
0.0482307447
 32
0.0
 13
-0.0000020388
 23
0.0744521613
 33
0.0
 40
0.0
 40
0.0
 40
0.0
 40
0.0
 40
0.534160556
 40
1.0
 40
1.0
 40
1.0
 40
1.0
 10
6.9848148707
 20
-21.4259982715
 30
0.0
 10
6.9949136915
 20
-21.4174106177
 30
0.0
 10
7.0118944127
 20
-21.398435877
 30
0.0
 10
7.019001875
 20
-21.3734193664
 30
0.0
 10
7.0190015584
 20
-21.3618584486
 30
0.0
 11
6.9848148707
 21
-21.4259982715
 31
0.0
 11
7.0102374421
 21
-21.3954156185
 31
0.0
 11
7.0190015584
 21
-21.3618584486
 31
0.0
  0
SPLINE
  5
417
100
AcDbEntity
  8
ASSI
100
AcDbSpline
 62
253
  6
CONTINUOUS
 70
0
 71
3
 72
9
 73
5
 74
3
 42
0.0000001
 43
0.0000001
 44
0.0000000001
 12
0.0567239279
 22
0.0482358749
 32
0.0
 13
-0.0000112222
 23
0.0744600799
 33
0.0
 40
0.0
 40
0.0
 40
0.0
 40
0.0
 40
0.5341620215
 40
1.0
 40
1.0
 40
1.0
 40
1.0
 10
6.9848148707
 20
-21.7475425235
 30
0.0
 10
6.9949147934
 20
-21.7389539327
 30
0.0
 10
7.0118972464
 20
-21.7199768106
 30
0.0
 10
7.0190033002
 20
-21.6949566603
 30
0.0
 10
7.0190015577
 20
-21.6833945492
 30
0.0
 11
6.9848148707
 21
-21.7475425235
 31
0.0
 11
7.0102395325
 21
-21.7169559653
 31
0.0
 11
7.0190015577
 21
-21.6833945492
 31
0.0
  0
SPLINE
  5
418
100
AcDbEntity
  8
ASSI
100
AcDbSpline
 62
253
  6
CONTINUOUS
 70
0
 71
3
 72
9
 73
5
 74
3
 42
0.0000001
 43
0.0000001
 44
0.0000000001
 12
0.0011434627
 22
-0.0950051566
 32
0.0
 13
-0.0714530699
 23
-0.062623846
 33
0.0
 40
0.0
 40
0.0
 40
0.0
 40
0.0
 40
0.5266129468
 40
1.0
 40
1.0
 40
1.0
 40
1.0
 10
6.9573390039
 20
-21.8118583217
 30
0.0
 10
6.9575397247
 20
-21.8285353036
 30
0.0
 10
6.9530199704
 20
-21.8607832145
 30
0.0
 10
6.9345829172
 20
-21.8882706992
 30
0.0
 10
6.9233079312
 20
-21.8981524718
 30
0.0
 11
6.9573390039
 21
-21.8118583217
 31
0.0
 11
6.9489198405
 21
-21.8611794713
 31
0.0
 11
6.9233079312
 21
-21.8981524718
 31
0.0
  0
SPLINE
  5
419
100
AcDbEntity
  8
ASSI
100
AcDbSpline
 62
253
  6
CONTINUOUS
 70
0
 71
3
 72
11
 73
7
 74
5
 42
0.0000001
 43
0.0000001
 44
0.0000000001
 12
0.2540709404
 22
-0.1068481735
 32
0.0
 13
0.1444708233
 23
-0.2347269821
 33
0.0
 40
0.0
 40
0.0
 40
0.0
 40
0.0
 40
0.268267991
 40
0.5492465416
 40
0.804279021
 40
1.0
 40
1.0
 40
1.0
 40
1.0
 10
4.9768121014
 20
-22.6677904652
 30
0.0
 10
4.9995318017
 20
-22.6773451134
 30
0.0
 10
5.0446079237
 20
-22.7003438161
 30
0.0
 10
5.1066352634
 20
-22.7408180234
 30
0.0
 10
5.1584357101
 20
-22.7837236513
 30
0.0
 10
5.1865478203
 20
-22.8148014193
 30
0.0
 10
5.1959731439
 20
-22.8301150842
 30
0.0
 11
4.9768121014
 21
-22.6677904652
 31
0.0
 11
5.0429165304
 21
-22.7009188399
 31
0.0
 11
5.1077039067
 21
-22.7433480136
 31
0.0
 11
5.1614188306
 21
-22.7886891869
 31
0.0
 11
5.1959731439
 21
-22.8301150842
 31
0.0
  0
SPLINE
  5
41A
100
AcDbEntity
  8
ASSI
100
AcDbSpline
 62
7
  6
CONTINUOUS
 70
0
 71
3
 72
11
 73
7
 74
5
 42
0.0000001
 43
0.0000001
 44
0.0000000001
 12
0.3024897367
 22
-0.0476989669
 32
0.0
 13
0.3026288233
 23
0.0468084136
 33
0.0
 40
0.0
 40
0.0
 40
0.0
 40
0.0
 40
0.2843288082
 40
0.5668550694
 40
0.811560554
 40
1.0
 40
1.0
 40
1.0
 40
1.0
 10
5.4938761548
 20
-21.843617621
 30
0.0
 10
5.5225450035
 20
-21.8481383512
 30
0.0
 10
5.5795900944
 20
-21.8577973212
 30
0.0
 10
5.6617162621
 20
-21.8690547999
 30
0.0
 10
5.7345624296
 20
-21.8745154987
 30
0.0
 10
5.7790227413
 20
-21.8734054907
 30
0.0
 10
5.7980318106
 20
-21.8704653069
 30
0.0
 11
5.4938761548
 21
-21.843617621
 31
0.0
 11
5.5798515029
 21
-21.8573762014
 31
0.0
 11
5.6656331512
 21
-21.8686345277
 31
0.0
 11
5.7404082278
 21
-21.8735356928
 31
0.0
 11
5.7980318106
 21
-21.8704653069
 31
0.0
  0
SPLINE
  5
41B
100
AcDbEntity
  8
ASSI
100
AcDbSpline
 62
253
  6
CONTINUOUS
 70
0
 71
3
 72
11
 73
7
 74
5
 42
0.0000001
 43
0.0000001
 44
0.0000000001
 12
0.2672068902
 22
-0.1073163121
 32
0.0
 13
0.2260099833
 23
0.1784258962
 33
0.0
 40
0.0
 40
0.0
 40
0.0
 40
0.0
 40
0.2528709513
 40
0.5208296411
 40
0.7774602032
 40
1.0
 40
1.0
 40
1.0
 40
1.0
 10
4.9047575881
 20
-22.9037293104
 30
0.0
 10
4.9272805416
 20
-22.9127750364
 30
0.0
 10
4.9764896841
 20
-22.9245977637
 30
0.0
 10
5.0516507412
 20
-22.9257272673
 30
0.0
 10
5.12244124
 20
-22.9113013971
 30
0.0
 10
5.164510869
 20
-22.8904236233
 30
0.0
 10
5.1812762742
 20
-22.8771880024
 30
0.0
 11
4.9047575881
 21
-22.9037293104
 31
0.0
 11
4.9753333889
 21
-22.9216467231
 31
0.0
 11
5.0524823974
 21
-22.9229020846
 31
0.0
 11
5.1247156606
 21
-22.9073084481
 31
0.0
 11
5.1812762742
 21
-22.8771880024
 31
0.0
  0
SPLINE
  5
41C
100
AcDbEntity
  8
ASSI
100
AcDbSpline
 62
253
  6
CONTINUOUS
 70
0
 71
3
 72
11
 73
7
 74
5
 42
0.0000001
 43
0.0000001
 44
0.0000000001
 12
0.2672068904
 22
-0.1073163112
 32
0.0
 13
0.2260099838
 23
0.1784258954
 33
0.0
 40
0.0
 40
0.0
 40
0.0
 40
0.0
 40
0.2528709494
 40
0.5208296381
 40
0.7774602015
 40
1.0
 40
1.0
 40
1.0
 40
1.0
 10
4.9047575881
 20
-23.2038260342
 30
0.0
 10
4.9272805414
 20
-23.2128717601
 30
0.0
 10
4.9764896836
 20
-23.2246944873
 30
0.0
 10
5.0516507405
 20
-23.225823991
 30
0.0
 10
5.1224412395
 20
-23.2113981208
 30
0.0
 10
5.1645108688
 20
-23.1905203472
 30
0.0
 10
5.1812762742
 20
-23.1772847262
 30
0.0
 11
4.9047575881
 21
-23.2038260342
 31
0.0
 11
4.9753333883
 21
-23.2217434466
 31
0.0
 11
5.0524823965
 21
-23.2229988083
 31
0.0
 11
5.1247156601
 21
-23.2074051719
 31
0.0
 11
5.1812762742
 21
-23.1772847262
 31
0.0
  0
SPLINE
  5
41D
100
AcDbEntity
  8
ASSI
100
AcDbSpline
 62
7
  6
CONTINUOUS
 70
0
 71
3
 72
9
 73
5
 74
3
 42
0.0000001
 43
0.0000001
 44
0.0000000001
 12
-0.1196106832
 22
0.0480383469
 32
0.0
 13
-0.1023351283
 23
-0.0783704014
 33
0.0
 40
0.0
 40
0.0
 40
0.0
 40
0.0
 40
0.539932886
 40
1.0
 40
1.0
 40
1.0
 40
1.0
 10
-10.6667776286
 20
24.7020320782
 30
0.0
 10
-10.6883048757
 20
24.710677906
 30
0.0
 10
-10.7316364336
 20
24.7207281549
 30
0.0
 10
-10.7754584109
 20
24.7067976667
 30
0.0
 10
-10.7911520866
 20
24.6947791186
 30
0.0
 11
-10.6667776286
 21
24.7020320782
 31
0.0
 11
-10.7352401127
 21
24.714539781
 31
0.0
 11
-10.7911520866
 21
24.6947791186
 31
0.0
  0
SPLINE
  5
41E
100
AcDbEntity
  8
ASSI
100
AcDbSpline
 62
253
  6
CONTINUOUS
 70
0
 71
3
 72
11
 73
7
 74
5
 42
0.0000001
 43
0.0000001
 44
0.0000000001
 12
-0.1184449585
 22
0.0475701662
 32
0.0
 13
-0.0123708351
 23
0.1270397235
 33
0.0
 40
0.0
 40
0.0
 40
0.0
 40
0.0
 40
0.2963658292
 40
0.5604403746
 40
0.7916883992
 40
1.0
 40
1.0
 40
1.0
 40
1.0
 10
2.5131237869
 20
17.1210804682
 30
0.0
 10
2.5014227741
 20
17.1257798588
 30
0.0
 10
2.4799329688
 20
17.136445031
 30
0.0
 10
2.4530869132
 20
17.1572601654
 30
0.0
 10
2.4347450992
 20
17.1814653739
 30
0.0
 10
2.429016419
 20
17.1998132231
 30
0.0
 10
2.4281574228
 20
17.2086345058
 30
0.0
 11
2.5131237869
 21
17.1210804682
 31
0.0
 11
2.4793897736
 21
17.1381976554
 31
0.0
 11
2.4530779146
 21
17.1592647777
 31
0.0
 11
2.4357329504
 21
17.1831474991
 31
0.0
 11
2.4281574228
 21
17.2086345058
 31
0.0
  0
SPLINE
  5
41F
100
AcDbEntity
  8
ASSI
100
AcDbSpline
 62
253
  6
CONTINUOUS
 70
0
 71
3
 72
11
 73
7
 74
5
 42
0.0000001
 43
0.0000001
 44
0.0000000001
 12
-0.1241644914
 22
0.049867259
 32
0.0
 13
-0.000358949
 23
0.1338037204
 33
0.0
 40
0.0
 40
0.0
 40
0.0
 40
0.0
 40
0.2987775133
 40
0.5626432735
 40
0.7921319366
 40
1.0
 40
1.0
 40
1.0
 40
1.0
 10
2.5131237869
 20
17.421177192
 30
0.0
 10
2.5007579342
 20
17.4261435972
 30
0.0
 10
2.4781680548
 20
17.4374688109
 30
0.0
 10
2.4503943649
 20
17.4598646953
 30
0.0
 10
2.432282153
 20
17.4860471406
 30
0.0
 10
2.4278699811
 20
17.5057079323
 30
0.0
 10
2.4278451098
 20
17.5149791057
 30
0.0
 11
2.5131237869
 21
17.421177192
 31
0.0
 11
2.4775735546
 21
17.4394637012
 31
0.0
 11
2.4504919784
 21
17.4621159948
 31
0.0
 11
2.4336192086
 21
17.4877714366
 31
0.0
 11
2.4278451098
 21
17.5149791057
 31
0.0
  0
SPLINE
  5
420
100
AcDbEntity
  8
ASSI
100
AcDbSpline
 62
253
  6
CONTINUOUS
 70
0
 71
3
 72
10
 73
6
 74
4
 42
0.0000001
 43
0.0000001
 44
0.0000000001
 12
-0.1268676435
 22
0.0490452193
 32
0.0
 13
-0.1023727062
 23
-0.089558146
 33
0.0
 40
0.0
 40
0.0
 40
0.0
 40
0.0
 40
0.5389842723
 40
0.7760778654
 40
1.0
 40
1.0
 40
1.0
 40
1.0
 10
2.6533128831
 20
17.7416277192
 30
0.0
 10
2.6305196616
 20
17.7504392532
 30
0.0
 10
2.5943397174
 20
17.7577750743
 30
0.0
 10
2.5495238469
 20
17.7477187685
 30
0.0
 10
2.5312412072
 20
17.7366429437
 30
0.0
 10
2.5236000356
 20
17.72995826
 30
0.0
 11
2.6533128831
 21
17.7416277192
 31
0.0
 11
2.5809408265
 21
17.7533261001
 31
0.0
 11
2.5495625602
 21
17.7458830778
 31
0.0
 11
2.5236000356
 21
17.72995826
 31
0.0
  0
SPLINE
  5
421
100
AcDbEntity
  8
ASSI
100
AcDbSpline
 62
253
  6
CONTINUOUS
 70
0
 71
3
 72
10
 73
6
 74
4
 42
0.0000001
 43
0.0000001
 44
0.0000000001
 12
-0.1188294833
 22
0.0494823392
 32
0.0
 13
-0.1022734827
 23
-0.0781606213
 33
0.0
 40
0.0
 40
0.0
 40
0.0
 40
0.0
 40
0.5359380163
 40
0.7739419706
 40
1.0
 40
1.0
 40
1.0
 40
1.0
 10
4.3575998085
 20
19.1853279638
 30
0.0
 10
4.336371396
 20
19.1941677861
 30
0.0
 10
4.3025016775
 20
19.2019835601
 30
0.0
 10
4.2597915442
 20
19.1941856355
 30
0.0
 10
4.2418446736
 20
19.1846630035
 30
0.0
 10
4.2341380929
 20
19.1787733915
 30
0.0
 11
4.3575998085
 21
19.1853279638
 31
0.0
 11
4.289853906
 21
19.1983504172
 31
0.0
 11
4.2597740732
 21
19.1925395366
 31
0.0
 11
4.2341380929
 21
19.1787733915
 31
0.0
  0
SPLINE
  5
422
100
AcDbEntity
  8
ASSI
100
AcDbSpline
 62
253
  6
CONTINUOUS
 70
0
 71
3
 72
10
 73
6
 74
4
 42
0.0000001
 43
0.0000001
 44
0.0000000001
 12
-0.0669096268
 22
-0.2143554752
 32
0.0
 13
-0.2245259835
 23
0.0036401446
 33
0.0
 40
0.0
 40
0.0
 40
0.0
 40
0.0
 40
0.517558666
 40
0.7622265698
 40
1.0
 40
1.0
 40
1.0
 40
1.0
 10
5.1959731439
 20
16.1632199938
 30
0.0
 10
5.1844299249
 20
16.1262394825
 30
0.0
 10
5.1515298871
 20
16.074245909
 30
0.0
 10
5.0854954069
 20
16.036619897
 30
0.0
 10
5.0489603497
 20
16.030393954
 30
0.0
 10
5.031164912
 20
16.0306824639
 30
0.0
 11
5.1959731439
 21
16.1632199938
 31
0.0
 11
5.1317134536
 21
16.0663802846
 31
0.0
 11
5.0838371504
 21
16.0394279134
 31
0.0
 11
5.031164912
 21
16.0306824639
 31
0.0
  0
SPLINE
  5
423
100
AcDbEntity
  8
ASSI
100
AcDbSpline
 62
7
  6
CONTINUOUS
 70
0
 71
3
 72
9
 73
5
 74
3
 42
0.0000001
 43
0.0000001
 44
0.0000000001
 12
-0.1615465195
 22
-0.2300822727
 32
0.0
 13
-0.281097892
 23
0.0043709592
 33
0.0
 40
0.0
 40
0.0
 40
0.0
 40
0.0
 40
0.4935090309
 40
1.0
 40
1.0
 40
1.0
 40
1.0
 10
5.7980318106
 20
16.1541729719
 30
0.0
 10
5.7714569219
 20
16.1163237454
 30
0.0
 10
5.7003320432
 20
16.0509228496
 30
0.0
 10
5.6057486064
 20
16.0220099785
 30
0.0
 10
5.5582907585
 20
16.022747929
 30
0.0
 11
5.7980318106
 21
16.1541729719
 31
0.0
 11
5.6955420229
 21
16.0606585809
 31
0.0
 11
5.5582907585
 21
16.022747929
 31
0.0
  0
SPLINE
  5
424
100
AcDbEntity
  8
ASSI
100
AcDbSpline
 62
253
  6
CONTINUOUS
 70
0
 71
3
 72
11
 73
7
 74
5
 42
0.0000001
 43
0.0000001
 44
0.0000000001
 12
-0.2260099836
 22
-0.1784258956
 32
0.0
 13
-0.2672068903
 23
0.1073163115
 33
0.0
 40
0.0
 40
0.0
 40
0.0
 40
0.0
 40
0.2225397986
 40
0.479170362
 40
0.7471290507
 40
1.0
 40
1.0
 40
1.0
 40
1.0
 10
5.1812762742
 20
16.1870877235
 30
0.0
 10
5.1645108688
 20
16.1738521026
 30
0.0
 10
5.1224412395
 20
16.1529743288
 30
0.0
 10
5.0516507405
 20
16.1385484587
 30
0.0
 10
4.9764896836
 20
16.1396779624
 30
0.0
 10
4.9272805414
 20
16.1515006897
 30
0.0
 10
4.9047575881
 20
16.1605464155
 30
0.0
 11
5.1812762742
 21
16.1870877235
 31
0.0
 11
5.1247156601
 21
16.1569672778
 31
0.0
 11
5.0524823965
 21
16.1413736414
 31
0.0
 11
4.9753333883
 21
16.142629003
 31
0.0
 11
4.9047575881
 21
16.1605464155
 31
0.0
  0
SPLINE
  5
425
100
AcDbEntity
  8
ASSI
100
AcDbSpline
 62
253
  6
CONTINUOUS
 70
0
 71
3
 72
11
 73
7
 74
5
 42
0.0000001
 43
0.0000001
 44
0.0000000001
 12
-0.2260099838
 22
-0.1784258954
 32
0.0
 13
-0.2672068904
 23
0.1073163112
 33
0.0
 40
0.0
 40
0.0
 40
0.0
 40
0.0
 40
0.2225397985
 40
0.4791703619
 40
0.7471290506
 40
1.0
 40
1.0
 40
1.0
 40
1.0
 10
5.1812762742
 20
16.4871844473
 30
0.0
 10
5.1645108688
 20
16.4739488264
 30
0.0
 10
5.1224412395
 20
16.4530710527
 30
0.0
 10
5.0516507405
 20
16.4386451826
 30
0.0
 10
4.9764896836
 20
16.4397746863
 30
0.0
 10
4.9272805414
 20
16.4515974135
 30
0.0
 10
4.9047575881
 20
16.4606431393
 30
0.0
 11
5.1812762742
 21
16.4871844473
 31
0.0
 11
5.1247156601
 21
16.4570640016
 31
0.0
 11
5.0524823965
 21
16.4414703653
 31
0.0
 11
4.9753333883
 21
16.4427257269
 31
0.0
 11
4.9047575881
 21
16.4606431393
 31
0.0
  0
SPLINE
  5
426
100
AcDbEntity
  8
ASSI
100
AcDbSpline
 62
253
  6
CONTINUOUS
 70
0
 71
3
 72
11
 73
7
 74
5
 42
0.0000001
 43
0.0000001
 44
0.0000000001
 12
-0.0037337853
 22
0.2952057613
 32
0.0
 13
-0.2724841265
 23
0.113634429
 33
0.0
 40
0.0
 40
0.0
 40
0.0
 40
0.0
 40
0.2318528427
 40
0.4897084652
 40
0.7532341258
 40
1.0
 40
1.0
 40
1.0
 40
1.0
 10
5.2101570221
 20
16.5509360136
 30
0.0
 10
5.2098684592
 20
16.5737507786
 30
0.0
 10
5.1993579508
 20
16.6218789845
 30
0.0
 10
5.1635958143
 20
16.68765652
 30
0.0
 10
5.1118743012
 20
16.7437852768
 30
0.0
 10
5.0687648267
 20
16.7711824016
 30
0.0
 10
5.0463515655
 20
16.7805294346
 30
0.0
 11
5.2101570221
 21
16.5509360136
 31
0.0
 11
5.1970603168
 21
16.6181211849
 31
0.0
 11
5.1613330317
 21
16.6853433039
 31
0.0
 11
5.1084122388
 21
16.7423723306
 31
0.0
 11
5.0463515655
 21
16.7805294346
 31
0.0
  0
SPLINE
  5
427
100
AcDbEntity
  8
ASSI
100
AcDbSpline
 62
253
  6
CONTINUOUS
 70
0
 71
3
 72
9
 73
5
 74
3
 42
0.0000001
 43
0.0000001
 44
0.0000000001
 12
0.0197746693
 22
-0.0333653213
 32
0.0
 13
-0.0197281732
 23
-0.0333928345
 33
0.0
 40
0.0
 40
0.0
 40
0.0
 40
0.0
 40
0.3244006037
 40
1.0
 40
1.0
 40
1.0
 40
1.0
 10
6.9708329186
 20
17.5909174091
 30
0.0
 10
6.9729712235
 20
17.587309499
 30
0.0
 10
6.9788860472
 20
17.5762135679
 30
0.0
 10
6.9817514738
 20
17.5610076752
 30
0.0
 10
6.9773086932
 20
17.5534876155
 30
0.0
 11
6.9708329186
 21
17.5909174091
 31
0.0
 11
6.9764878627
 21
17.5796779306
 31
0.0
 11
6.9773086932
 21
17.5534876155
 31
0.0
  0
SPLINE
  5
428
100
AcDbEntity
  8
ASSI
100
AcDbSpline
 62
253
  6
CONTINUOUS
 70
0
 71
3
 72
9
 73
5
 74
3
 42
0.0000001
 43
0.0000001
 44
0.0000000001
 12
0.0567239279
 22
0.0482358749
 32
0.0
 13
-0.0000112222
 23
0.0744600799
 33
0.0
 40
0.0
 40
0.0
 40
0.0
 40
0.0
 40
0.5341620215
 40
1.0
 40
1.0
 40
1.0
 40
1.0
 10
6.9848148707
 20
17.6382774544
 30
0.0
 10
6.9949147934
 20
17.6468660452
 30
0.0
 10
7.0118972464
 20
17.6658431674
 30
0.0
 10
7.0190033002
 20
17.6908633176
 30
0.0
 10
7.0190015577
 20
17.7024254287
 30
0.0
 11
6.9848148707
 21
17.6382774544
 31
0.0
 11
7.0102395325
 21
17.6688640126
 31
0.0
 11
7.0190015577
 21
17.7024254287
 31
0.0
  0
SPLINE
  5
429
100
AcDbEntity
  8
ASSI
100
AcDbSpline
 62
253
  6
CONTINUOUS
 70
0
 71
3
 72
9
 73
5
 74
3
 42
0.0000001
 43
0.0000001
 44
0.0000000001
 12
0.0567239259
 22
0.0482358733
 32
0.0
 13
-0.0000112188
 23
0.0744600773
 33
0.0
 40
0.0
 40
0.0
 40
0.0
 40
0.0
 40
0.534162022
 40
1.0
 40
1.0
 40
1.0
 40
1.0
 10
6.9848148707
 20
17.9598217064
 30
0.0
 10
6.994914793
 20
17.9684102969
 30
0.0
 10
7.0118972456
 20
17.9873874182
 30
0.0
 10
7.0190032997
 20
18.0124075673
 30
0.0
 10
7.0190015576
 20
18.023969678
 30
0.0
 11
6.9848148707
 21
17.9598217064
 31
0.0
 11
7.0102395319
 21
17.9904082634
 31
0.0
 11
7.0190015576
 21
18.023969678
 31
0.0
  0
SPLINE
  5
42A
100
AcDbEntity
  8
ASSI
100
AcDbSpline
 62
253
  6
CONTINUOUS
 70
0
 71
3
 72
10
 73
6
 74
4
 42
0.0000001
 43
0.0000001
 44
0.0000000001
 12
0.0034784879
 22
0.2949278536
 32
0.0
 13
-0.2750510318
 23
0.1064963315
 33
0.0
 40
0.0
 40
0.0
 40
0.0
 40
0.0
 40
0.4872883578
 40
0.7511883143
 40
1.0
 40
1.0
 40
1.0
 40
1.0
 10
6.9573390039
 20
17.9774086365
 30
0.0
 10
6.9579040128
 20
18.0253136063
 30
0.0
 10
6.9277717279
 20
18.0996645592
 30
0.0
 10
6.8603311467
 20
18.1714318443
 30
0.0
 10
6.8163455175
 20
18.1981695469
 30
0.0
 10
6.7935335472
 20
18.2070020575
 30
0.0
 11
6.9573390039
 21
17.9774086365
 31
0.0
 11
6.9101727091
 21
18.1131738344
 31
0.0
 11
6.8568211016
 21
18.1698499573
 31
0.0
 11
6.7935335472
 21
18.2070020575
 31
0.0
  0
SPLINE
  5
42B
100
AcDbEntity
  8
ASSI
100
AcDbSpline
 62
7
  6
CONTINUOUS
 70
0
 71
3
 72
10
 73
6
 74
4
 42
0.0000001
 43
0.0000001
 44
0.0000000001
 12
0.2737251843
 22
-0.109934205
 32
0.0
 13
0.0
 23
-0.2949762803
 33
0.0
 40
0.0
 40
0.0
 40
0.0
 40
0.0
 40
0.2478876795
 40
0.6413979178
 40
1.0
 40
1.0
 40
1.0
 40
1.0
 10
6.3716347969
 20
17.8590215261
 30
0.0
 10
6.3942524972
 20
17.8499377478
 30
0.0
 10
6.4487241892
 20
17.816059472
 30
0.0
 10
6.5124067643
 20
17.7384698444
 30
0.0
 10
6.5354402536
 20
17.6646878078
 30
0.0
 10
6.5354402536
 20
17.6294281051
 30
0.0
 11
6.3716347969
 21
17.8590215261
 31
0.0
 11
6.4343217237
 21
17.8213780969
 31
0.0
 11
6.5078236872
 21
17.73153856
 31
0.0
 11
6.5354402536
 21
17.6294281051
 31
0.0
  0
SPLINE
  5
42C
100
AcDbEntity
  8
ASSI
100
AcDbSpline
 62
7
  6
CONTINUOUS
 70
0
 71
3
 72
9
 73
5
 74
3
 42
0.0000001
 43
0.0000001
 44
0.0000000001
 12
-0.1616073088
 22
-0.2301688518
 32
0.0
 13
-0.2811960382
 23
0.0048384576
 33
0.0
 40
0.0
 40
0.0
 40
0.0
 40
0.0
 40
0.4934424416
 40
1.0
 40
1.0
 40
1.0
 40
1.0
 10
-8.7828745777
 20
22.0101936963
 30
0.0
 10
-8.8094558794
 20
21.9723353362
 30
0.0
 10
-8.8806045382
 20
21.9069253793
 30
0.0
 10
-8.9752493828
 20
21.8779739203
 30
0.0
 10
-9.0227300423
 20
21.8787909061
 30
0.0
 11
-8.7828745777
 21
22.0101936963
 31
0.0
 11
-8.8853923945
 21
21.916660352
 31
0.0
 11
-9.0227300423
 21
21.8787909061
 31
0.0
  0
SPLINE
  5
42D
100
AcDbEntity
  8
ASSI
100
AcDbSpline
 62
253
  6
CONTINUOUS
 70
0
 71
3
 72
11
 73
7
 74
5
 42
0.0000001
 43
0.0000001
 44
0.0000000001
 12
0.2672068904
 22
-0.1073163112
 32
0.0
 13
0.2260099838
 23
0.1784258954
 33
0.0
 40
0.0
 40
0.0
 40
0.0
 40
0.0
 40
0.2528709494
 40
0.5208296381
 40
0.7774602015
 40
1.0
 40
1.0
 40
1.0
 40
1.0
 10
-9.6761488003
 20
22.0165671399
 30
0.0
 10
-9.6536258469
 20
22.0075214141
 30
0.0
 10
-9.6044167047
 20
21.9956986869
 30
0.0
 10
-9.5292556478
 20
21.9945691832
 30
0.0
 10
-9.4584651488
 20
22.0089950533
 30
0.0
 10
-9.4163955195
 20
22.029872827
 30
0.0
 10
-9.3996301141
 20
22.0431084479
 30
0.0
 11
-9.6761488003
 21
22.0165671399
 31
0.0
 11
-9.605573
 21
21.9986497275
 31
0.0
 11
-9.5284239918
 21
21.9973943659
 31
0.0
 11
-9.4561907283
 21
22.0129880022
 31
0.0
 11
-9.3996301141
 21
22.0431084479
 31
0.0
  0
SPLINE
  5
42E
100
AcDbEntity
  8
ASSI
100
AcDbSpline
 62
253
  6
CONTINUOUS
 70
0
 71
3
 72
11
 73
7
 74
5
 42
0.0000001
 43
0.0000001
 44
0.0000000001
 12
0.2672068902
 22
-0.1073163118
 32
0.0
 13
0.2260099835
 23
0.1784258959
 33
0.0
 40
0.0
 40
0.0
 40
0.0
 40
0.0
 40
0.2528709509
 40
0.5208296405
 40
0.7774602029
 40
1.0
 40
1.0
 40
1.0
 40
1.0
 10
-9.6761488003
 20
22.3166638637
 30
0.0
 10
-9.6536258468
 20
22.3076181378
 30
0.0
 10
-9.6044167043
 20
22.2957954105
 30
0.0
 10
-9.5292556473
 20
22.2946659069
 30
0.0
 10
-9.4584651484
 20
22.3090917771
 30
0.0
 10
-9.4163955194
 20
22.3299695508
 30
0.0
 10
-9.3996301141
 20
22.3432051717
 30
0.0
 11
-9.6761488003
 21
22.3166638637
 31
0.0
 11
-9.6055729996
 21
22.2987464512
 31
0.0
 11
-9.5284239911
 21
22.2974910896
 31
0.0
 11
-9.4561907279
 21
22.313084726
 31
0.0
 11
-9.3996301141
 21
22.3432051717
 31
0.0
  0
SPLINE
  5
42F
100
AcDbEntity
  8
ASSI
100
AcDbSpline
 62
253
  6
CONTINUOUS
 70
0
 71
3
 72
11
 73
7
 74
5
 42
0.0000001
 43
0.0000001
 44
0.0000000001
 12
0.2724841267
 22
-0.1136344288
 32
0.0
 13
0.003733785
 23
-0.2952057614
 33
0.0
 40
0.0
 40
0.0
 40
0.0
 40
0.0
 40
0.2467658699
 40
0.5102915274
 40
0.768147153
 40
1.0
 40
1.0
 40
1.0
 40
1.0
 10
-9.5345548229
 20
22.636550159
 30
0.0
 10
-9.512141562
 20
22.6272031261
 30
0.0
 10
-9.469032088
 20
22.599806002
 30
0.0
 10
-9.4173105749
 20
22.5436772458
 30
0.0
 10
-9.3815484379
 20
22.47789971
 30
0.0
 10
-9.3710379291
 20
22.4297715034
 30
0.0
 10
-9.3707493662
 20
22.406956738
 30
0.0
 11
-9.5345548229
 21
22.636550159
 31
0.0
 11
-9.4724941505
 21
22.5983930559
 31
0.0
 11
-9.4195733579
 21
22.5413640301
 31
0.0
 11
-9.3838460719
 21
22.4741419105
 31
0.0
 11
-9.3707493662
 21
22.406956738
 31
0.0
  0
SPLINE
  5
430
100
AcDbEntity
  8
ASSI
100
AcDbSpline
 62
7
  6
CONTINUOUS
 70
0
 71
3
 72
10
 73
6
 74
4
 42
0.0000001
 43
0.0000001
 44
0.0000000001
 12
-0.0
 22
0.2950427613
 32
0.0
 13
-0.2737868758
 23
0.1099589817
 33
0.0
 40
0.0
 40
0.0
 40
0.0
 40
0.0
 40
0.2332962063
 40
0.6225412807
 40
1.0
 40
1.0
 40
1.0
 40
1.0
 10
-8.0454661347
 20
23.4854488295
 30
0.0
 10
-8.0454661347
 20
23.5083929484
 30
0.0
 10
-8.0581972013
 20
23.56966375
 30
0.0
 10
-8.1121043834
 20
23.6546739071
 30
0.0
 10
-8.1748238436
 20
23.7012072584
 30
0.0
 10
-8.2092715914
 20
23.7150422505
 30
0.0
 11
-8.0454661347
 21
23.4854488295
 31
0.0
 11
-8.0579330808
 21
23.5531427628
 31
0.0
 11
-8.1182525721
 21
23.650870394
 31
0.0
 11
-8.2092715914
 21
23.7150422505
 31
0.0
  0
SPLINE
  5
431
100
AcDbEntity
  8
ASSI
100
AcDbSpline
 62
253
  6
CONTINUOUS
 70
0
 71
3
 72
10
 73
6
 74
4
 42
0.0000001
 43
0.0000001
 44
0.0000000001
 12
0.2750510315
 22
-0.106496332
 32
0.0
 13
-0.0034784872
 23
-0.2949278536
 33
0.0
 40
0.0
 40
0.0
 40
0.0
 40
0.0
 40
0.2488116887
 40
0.5127116476
 40
1.0
 40
1.0
 40
1.0
 40
1.0
 10
-7.7873728411
 20
24.0630227819
 30
0.0
 10
-7.7645608706
 20
24.0541902712
 30
0.0
 10
-7.7205752411
 20
24.027452568
 30
0.0
 10
-7.6531346602
 20
23.9556852827
 30
0.0
 10
-7.6230023757
 20
23.8813343302
 30
0.0
 10
-7.6235673844
 20
23.8334293609
 30
0.0
 11
-7.7873728411
 21
24.0630227819
 31
0.0
 11
-7.7240852861
 21
24.025870681
 31
0.0
 11
-7.6707336785
 21
23.9691945573
 31
0.0
 11
-7.6235673844
 21
23.8334293609
 31
0.0
  0
SPLINE
  5
432
100
AcDbEntity
  8
ASSI
100
AcDbSpline
 62
253
  6
CONTINUOUS
 70
0
 71
3
 72
9
 73
5
 74
3
 42
0.0000001
 43
0.0000001
 44
0.0000000001
 12
0.1135157209
 22
0.0905141944
 32
0.0
 13
-0.0028827565
 23
0.1451562192
 33
0.0
 40
0.0
 40
0.0
 40
0.0
 40
0.0
 40
0.5385227302
 40
1.0
 40
1.0
 40
1.0
 40
1.0
 10
-1.8684708954
 20
24.4155316687
 30
0.0
 10
-1.8480939634
 20
24.4317796524
 30
0.0
 10
-1.8136894871
 20
24.4677553567
 30
0.0
 10
-1.7996202433
 20
24.5168403614
 30
0.0
 10
-1.8000636855
 20
24.5391691266
 30
0.0
 11
-1.8684708954
 21
24.4155316687
 31
0.0
 11
-1.8169361327
 21
24.4743289068
 31
0.0
 11
-1.8000636855
 21
24.5391691266
 31
0.0
  0
SPLINE
  5
433
100
AcDbEntity
  8
ASSI
100
AcDbSpline
 62
253
  6
CONTINUOUS
 70
0
 71
3
 72
11
 73
7
 74
5
 42
0.0000001
 43
0.0000001
 44
0.0000000001
 12
-0.0037263135
 22
0.3691987523
 32
0.0
 13
-0.3411496894
 23
0.1412037305
 33
0.0
 40
0.0
 40
0.0
 40
0.0
 40
0.0
 40
0.2319661159
 40
0.489743305
 40
0.7531656247
 40
1.0
 40
1.0
 40
1.0
 40
1.0
 10
1.3192407788
 20
19.0569982878
 30
0.0
 10
1.3189526526
 20
19.085545488
 30
0.0
 10
1.3059413277
 20
19.1457774543
 30
0.0
 10
1.2612776766
 20
19.2280776026
 30
0.0
 10
1.1965449313
 20
19.298223913
 30
0.0
 10
1.1425531147
 20
19.3323720859
 30
0.0
 10
1.1144839579
 20
19.3439900641
 30
0.0
 11
1.3192407788
 21
19.0569982878
 31
0.0
 11
1.3030306151
 21
19.1410962158
 31
0.0
 11
1.2584273591
 21
19.2251735291
 31
0.0
 11
1.1922189993
 21
19.2964195041
 31
0.0
 11
1.1144839579
 21
19.3439900641
 31
0.0
  0
SPLINE
  5
434
100
AcDbEntity
  8
ASSI
100
AcDbSpline
 62
7
  6
CONTINUOUS
 70
0
 71
3
 72
10
 73
6
 74
4
 42
0.0000001
 43
0.0000001
 44
0.0000000001
 12
-0.0
 22
0.3688034516
 32
0.0
 13
-0.3422335947
 23
0.1374487271
 33
0.0
 40
0.0
 40
0.0
 40
0.0
 40
0.0
 40
0.2332962063
 40
0.6225412807
 40
1.0
 40
1.0
 40
1.0
 40
1.0
 10
1.4976551813
 20
19.202188778
 30
0.0
 10
1.4976551813
 20
19.2308689267
 30
0.0
 10
1.481741348
 20
19.3074574287
 30
0.0
 10
1.4143573704
 20
19.4137201251
 30
0.0
 10
1.3359580452
 20
19.4718868141
 30
0.0
 10
1.2928983604
 20
19.4891805543
 30
0.0
 11
1.4976551813
 21
19.202188778
 31
0.0
 11
1.4820714986
 21
19.2868061947
 31
0.0
 11
1.4066721345
 21
19.4089657336
 31
0.0
 11
1.2928983604
 21
19.4891805543
 31
0.0
  0
SPLINE
  5
435
100
AcDbEntity
  8
ASSI
100
AcDbSpline
 62
253
  6
CONTINUOUS
 70
0
 71
3
 72
11
 73
7
 74
5
 42
0.0000001
 43
0.0000001
 44
0.0000000001
 12
0.0043736121
 22
0.3708204111
 32
0.0
 13
-0.3458287696
 23
0.1339005896
 33
0.0
 40
0.0
 40
0.0
 40
0.0
 40
0.0
 40
0.2333027597
 40
0.4902756844
 40
0.7526380214
 40
1.0
 40
1.0
 40
1.0
 40
1.0
 10
4.6455909049
 20
21.7985945397
 30
0.0
 10
4.6459310302
 20
21.8274323481
 30
0.0
 10
4.6340246072
 20
21.8883162553
 30
0.0
 10
4.5896746368
 20
21.9713100094
 30
0.0
 10
4.5242413304
 20
22.0412942525
 30
0.0
 10
4.469349047
 20
22.0745456777
 30
0.0
 10
4.4408340841
 20
22.085586316
 30
0.0
 11
4.6455909049
 21
21.7985945397
 31
0.0
 11
4.6307536277
 21
21.8838322609
 31
0.0
 11
4.5866330376
 21
21.9683010381
 31
0.0
 11
4.5199435273
 21
22.0391461909
 31
0.0
 11
4.4408340841
 21
22.085586316
 31
0.0
  0
SPLINE
  5
436
100
AcDbEntity
  8
ASSI
100
AcDbSpline
 62
253
  6
CONTINUOUS
 70
0
 71
3
 72
11
 73
7
 74
5
 42
0.0000001
 43
0.0000001
 44
0.0000000001
 12
-0.1585046472
 22
0.061750021
 32
0.0
 13
-0.1283997696
 23
-0.1115808561
 33
0.0
 40
0.0
 40
0.0
 40
0.0
 40
0.0
 40
0.2823080496
 40
0.5401303348
 40
0.7764634472
 40
1.0
 40
1.0
 40
1.0
 40
1.0
 10
-1.4572285345
 20
20.3768477789
 30
0.0
 10
-1.4721442471
 20
20.3826586216
 30
0.0
 10
-1.5018135667
 20
20.3912127412
 30
0.0
 10
-1.5462175674
 20
20.3936602018
 30
0.0
 10
-1.5865219578
 20
20.3847400099
 30
0.0
 10
-1.6093502718
 20
20.3709781352
 30
0.0
 10
-1.6189176191
 20
20.3626640019
 30
0.0
 11
-1.4572285345
 21
20.3768477789
 31
0.0
 11
-1.5034916791
 21
20.3897288047
 31
0.0
 11
-1.5473080406
 21
20.3916320187
 31
0.0
 11
-1.5864490093
 21
20.3824559169
 31
0.0
 11
-1.6189176191
 21
20.3626640019
 31
0.0
  0
SPLINE
  5
437
100
AcDbEntity
  8
ASSI
100
AcDbSpline
 62
253
  6
CONTINUOUS
 70
0
 71
3
 72
11
 73
7
 74
5
 42
0.0000001
 43
0.0000001
 44
0.0000000001
 12
0.3411501371
 22
-0.1412026691
 32
0.0
 13
0.0037241005
 23
-0.3691987824
 33
0.0
 40
0.0
 40
0.0
 40
0.0
 40
0.0
 40
0.2467743659
 40
0.5101942602
 40
0.767984181
 40
1.0
 40
1.0
 40
1.0
 40
1.0
 10
-3.1860642746
 20
21.0711871878
 30
0.0
 10
-3.158001905
 20
21.0595721214
 30
0.0
 10
-3.1040160066
 20
21.0254301153
 30
0.0
 10
-3.0392829966
 20
20.9552923484
 30
0.0
 10
-2.9946108576
 20
20.8729884249
 30
0.0
 10
-2.9815954705
 20
20.8127487309
 30
0.0
 10
-2.9813074537
 20
20.7841954116
 30
0.0
 11
-3.1860642746
 21
21.0711871878
 31
0.0
 11
-3.1083465876
 21
21.0236307128
 31
0.0
 11
-3.0421343329
 21
20.9523895774
 31
0.0
 11
-2.9975236886
 21
20.8683108601
 31
0.0
 11
-2.9813074537
 21
20.7841954116
 31
0.0
  0
SPLINE
  5
438
100
AcDbEntity
  8
ASSI
100
AcDbSpline
 62
7
  6
CONTINUOUS
 70
0
 71
3
 72
10
 73
6
 74
4
 42
0.0000001
 43
0.0000001
 44
0.0000000001
 12
0.0
 22
0.3688034516
 32
0.0
 13
-0.3422335947
 23
0.1374487271
 33
0.0
 40
0.0
 40
0.0
 40
0.0
 40
0.0
 40
0.2332962063
 40
0.6225412807
 40
1.0
 40
1.0
 40
1.0
 40
1.0
 10
-2.8028930513
 20
20.9293859018
 30
0.0
 10
-2.8028930513
 20
20.9580660505
 30
0.0
 10
-2.8188068845
 20
21.0346545524
 30
0.0
 10
-2.8861908622
 20
21.1409172489
 30
0.0
 10
-2.9645901873
 20
21.1990839379
 30
0.0
 10
-3.0076498721
 20
21.2163776781
 30
0.0
 11
-2.8028930513
 21
20.9293859018
 31
0.0
 11
-2.8184767339
 21
21.0140033185
 31
0.0
 11
-2.893876098
 21
21.1361628574
 31
0.0
 11
-3.0076498721
 21
21.2163776781
 31
0.0
  0
SPLINE
  5
439
100
AcDbEntity
  8
ASSI
100
AcDbSpline
 62
253
  6
CONTINUOUS
 70
0
 71
3
 72
11
 73
7
 74
5
 42
0.0000001
 43
0.0000001
 44
0.0000000001
 12
-0.0000000197
 22
0.0303174918
 32
0.0
 13
-0.0303171533
 23
-0.0001432537
 33
0.0
 40
0.0
 40
0.0
 40
0.0
 40
0.0
 40
0.3243942668
 40
0.5884486067
 40
0.8019039894
 40
1.0
 40
1.0
 40
1.0
 40
1.0
 10
6.9848148707
 20
-21.4259982715
 30
0.0
 10
6.9848148686
 20
-21.422719998
 30
0.0
 10
6.9843412588
 20
-21.4167464225
 30
0.0
 10
6.9817662367
 20
-21.4089458587
 30
0.0
 10
6.9771247133
 20
-21.4035470261
 30
0.0
 10
6.972834821
 20
-21.4024082095
 30
0.0
 10
6.9708329186
 20
-21.4024176688
 30
0.0
 11
6.9848148707
 21
-21.4259982715
 31
0.0
 11
6.9838623802
 21
-21.4162096835
 31
0.0
 11
6.9810694747
 21
-21.408707207
 31
0.0
 11
6.976625776
 21
-21.4040026378
 31
0.0
 11
6.9708329186
 21
-21.4024176688
 31
0.0
  0
SPLINE
  5
43A
100
AcDbEntity
  8
ASSI
100
AcDbSpline
 62
253
  6
CONTINUOUS
 70
0
 71
3
 72
10
 73
6
 74
4
 42
0.0000001
 43
0.0000001
 44
0.0000000001
 12
0.3378980023
 22
-0.1358370145
 32
0.0
 13
0.0049797043
 23
-0.3641455163
 33
0.0
 40
0.0
 40
0.0
 40
0.0
 40
0.0
 40
0.375290616
 40
0.7642200384
 40
1.0
 40
1.0
 40
1.0
 40
1.0
 10
-2.0706861585
 20
24.6991970495
 30
0.0
 10
-2.0284161753
 20
24.6822042638
 30
0.0
 10
-1.9512492808
 20
24.6249157247
 30
0.0
 10
-1.8849635894
 20
24.5198628298
 30
0.0
 10
-1.8688622642
 20
24.4441510761
 30
0.0
 10
-1.8684708927
 20
24.4155316709
 30
0.0
 11
-2.0706861585
 21
24.6991970495
 31
0.0
 11
-1.959019518
 21
24.6203927504
 31
0.0
 11
-1.88462138
 21
24.4998653743
 31
0.0
 11
-1.8684708927
 21
24.4155316709
 31
0.0
  0
SPLINE
  5
43B
100
AcDbEntity
  8
ASSI
100
AcDbSpline
 62
253
  6
CONTINUOUS
 70
0
 71
3
 72
10
 73
6
 74
4
 42
0.0000001
 43
0.0000001
 44
0.0000000001
 12
-0.148467493
 22
0.0618240408
 32
0.0
 13
-0.1278484808
 23
-0.0975683066
 33
0.0
 40
0.0
 40
0.0
 40
0.0
 40
0.0
 40
0.5359325942
 40
0.7739442797
 40
1.0
 40
1.0
 40
1.0
 40
1.0
 10
-2.2791469231
 20
24.7844821869
 30
0.0
 10
-2.3056697793
 20
24.795526693
 30
0.0
 10
-2.3479841
 20
24.8052946401
 30
0.0
 10
-2.4013494013
 20
24.7955717219
 30
0.0
 10
-2.4237793374
 20
24.7836875936
 30
0.0
 10
-2.4334129642
 20
24.7763356357
 30
0.0
 11
-2.2791469231
 21
24.7844821869
 31
0.0
 11
-2.3637869768
 21
24.8007624962
 31
0.0
 11
-2.4013731764
 21
24.7935162775
 31
0.0
 11
-2.4334129642
 21
24.7763356357
 31
0.0
  0
SPLINE
  5
43C
100
AcDbEntity
  8
ASSI
100
AcDbSpline
 62
253
  6
CONTINUOUS
 70
0
 71
3
 72
9
 73
5
 74
3
 42
0.0000001
 43
0.0000001
 44
0.0000000001
 12
0.0535345577
 22
0.0468926562
 32
0.0
 13
-0.000000711
 23
0.0711679006
 33
0.0
 40
0.0
 40
0.0
 40
0.0
 40
0.0
 40
0.4882048937
 40
1.0
 40
1.0
 40
1.0
 40
1.0
 10
6.9573390039
 20
-21.8118583217
 30
0.0
 10
6.9660509483
 20
-21.804227247
 30
0.0
 10
6.9786009815
 20
-21.7831383358
 30
0.0
 10
6.984814992
 20
-21.7596836513
 30
0.0
 10
6.9848148707
 20
-21.7475425235
 30
0.0
 11
6.9573390039
 21
-21.8118583217
 31
0.0
 11
6.9767947704
 21
-21.7830719598
 31
0.0
 11
6.9848148707
 21
-21.7475425235
 31
0.0
  0
SPLINE
  5
43D
100
AcDbEntity
  8
ASSI
100
AcDbSpline
 62
253
  6
CONTINUOUS
 70
0
 71
3
 72
11
 73
7
 74
5
 42
0.0000001
 43
0.0000001
 44
0.0000000001
 12
-0.1220198658
 22
0.0490711789
 32
0.0
 13
-0.0000018474
 23
0.1315174066
 33
0.0
 40
0.0
 40
0.0
 40
0.0
 40
0.0
 40
0.1954153336
 40
0.4190243335
 40
0.6862086846
 40
1.0
 40
1.0
 40
1.0
 40
1.0
 10
-12.0178339762
 20
22.8626833839
 30
0.0
 10
-12.0257821605
 20
22.8658798041
 30
0.0
 10
-12.0412259515
 20
22.8771001479
 30
0.0
 10
-12.0568332203
 20
22.9034505841
 30
0.0
 10
-12.0660423728
 20
22.9377968152
 30
0.0
 10
-12.0677824082
 20
22.9633448526
 30
0.0
 10
-12.0677826015
 20
22.9771011926
 30
0.0
 11
-12.0178339762
 21
22.8626833839
 31
0.0
 11
-12.0389007227
 21
22.877404417
 31
0.0
 11
-12.0546910812
 21
22.9022141534
 31
0.0
 11
-12.0644705204
 21
22.9359652942
 31
0.0
 11
-12.0677826015
 21
22.9771011926
 31
0.0
  0
SPLINE
  5
43E
100
AcDbEntity
  8
ASSI
100
AcDbSpline
 62
7
  6
CONTINUOUS
 70
0
 71
3
 72
13
 73
9
 74
7
 42
0.0000001
 43
0.0000001
 44
0.0000000001
 12
0.1122891201
 22
-0.0365791629
 32
0.0
 13
0.10133974
 23
0.0606394158
 33
0.0
 40
0.0
 40
0.0
 40
0.0
 40
0.0
 40
0.0402961382
 40
0.1088868695
 40
0.2038919617
 40
0.3231686952
 40
0.6252178938
 40
1.0
 40
1.0
 40
1.0
 40
1.0
 10
-11.0893422805
 20
22.4898028954
 30
0.0
 10
-11.0878340079
 20
22.4893115624
 30
0.0
 10
-11.0833603313
 20
22.4901253681
 30
0.0
 10
-11.0758570785
 20
22.4925562369
 30
0.0
 10
-11.0655590905
 20
22.4969887864
 30
0.0
 10
-11.0472988922
 20
22.5058461374
 30
0.0
 10
-11.0197443042
 20
22.5208513111
 30
0.0
 10
-10.9967436555
 20
22.5342876988
 30
0.0
 10
-10.9840835485
 20
22.5418632215
 30
0.0
 11
-11.0893422805
 21
22.4898028954
 31
0.0
 11
-11.0845867364
 21
22.4899802361
 31
0.0
 11
-11.0768404929
 21
22.4923490848
 31
0.0
 11
-11.066486497
 21
22.4966709907
 31
0.0
 11
-11.0537881434
 21
22.502767978
 31
0.0
 11
-11.0223464646
 21
22.5196157286
 31
0.0
 11
-10.9840835485
 21
22.5418632215
 31
0.0
  0
SPLINE
  5
43F
100
AcDbEntity
  8
ASSI
100
AcDbSpline
 62
253
  6
CONTINUOUS
 70
0
 71
3
 72
11
 73
7
 74
5
 42
0.0000001
 43
0.0000001
 44
0.0000000001
 12
-0.1242895195
 22
0.0499174731
 32
0.0
 13
-0.0000817885
 23
0.1339389117
 33
0.0
 40
0.0
 40
0.0
 40
0.0
 40
0.0
 40
0.2988270896
 40
0.562684962
 40
0.7921344871
 40
1.0
 40
1.0
 40
1.0
 40
1.0
 10
-1.6108931281
 20
20.0962086768
 30
0.0
 10
-1.6232734866
 20
20.1011809079
 30
0.0
 10
-1.6458872301
 20
20.1125205737
 30
0.0
 10
-1.6736804228
 20
20.134951463
 30
0.0
 10
-1.6917856746
 20
20.1611781384
 30
0.0
 10
-1.6961663637
 20
20.1808671137
 30
0.0
 10
-1.6961720307
 20
20.1901475405
 30
0.0
 11
-1.6108931281
 21
20.0962086768
 31
0.0
 11
-1.6464828392
 21
20.114520959
 31
0.0
 11
-1.6735800999
 21
20.1372082602
 31
0.0
 11
-1.6904403891
 21
20.162902624
 31
0.0
 11
-1.6961720307
 21
20.1901475405
 31
0.0
  0
SPLINE
  5
440
100
AcDbEntity
  8
ASSI
100
AcDbSpline
 62
253
  6
CONTINUOUS
 70
0
 71
3
 72
11
 73
7
 74
5
 42
0.0000001
 43
0.0000001
 44
0.0000000001
 12
-0.0000000007
 22
0.2865598572
 32
0.0
 13
0.2189795887
 23
0.1848363912
 33
0.0
 40
0.0
 40
0.0
 40
0.0
 40
0.0
 40
0.2427329138
 40
0.5104359371
 40
0.7725496601
 40
1.0
 40
1.0
 40
1.0
 40
1.0
 10
-1.5699417639
 20
20.1207130499
 30
0.0
 10
-1.569941764
 20
20.1438988863
 30
0.0
 10
-1.5630585375
 20
20.1926647396
 30
0.0
 10
-1.5392875757
 20
20.2628913701
 30
0.0
 10
-1.5044070706
 20
20.3266313468
 30
0.0
 10
-1.4738308618
 20
20.3628340789
 30
0.0
 10
-1.4572285345
 20
20.3768477789
 30
0.0
 11
-1.5699417639
 21
20.1207130499
 31
0.0
 11
-1.5614001217
 21
20.1897441112
 31
0.0
 11
-1.5370472073
 21
20.2624889443
 31
0.0
 11
-1.5005096319
 21
20.3281144624
 31
0.0
 11
-1.4572285345
 21
20.3768477789
 31
0.0
  0
SPLINE
  5
441
100
AcDbEntity
  8
ASSI
100
AcDbSpline
 62
253
  6
CONTINUOUS
 70
0
 71
3
 72
11
 73
7
 74
5
 42
0.0000001
 43
0.0000001
 44
0.0000000001
 12
0.0
 22
0.2865598572
 32
0.0
 13
0.2189795882
 23
0.1848363917
 33
0.0
 40
0.0
 40
0.0
 40
0.0
 40
0.0
 40
0.2427329153
 40
0.5104359397
 40
0.7725496617
 40
1.0
 40
1.0
 40
1.0
 40
1.0
 10
1.0017707285
 20
19.087855335
 30
0.0
 10
1.0017707285
 20
19.1110411716
 30
0.0
 10
1.0086539551
 20
19.1598070251
 30
0.0
 10
1.0324249171
 20
19.2300336557
 30
0.0
 10
1.0673054221
 20
19.2937736322
 30
0.0
 10
1.0978816308
 20
19.3299763641
 30
0.0
 10
1.1144839579
 20
19.3439900641
 30
0.0
 11
1.0017707285
 21
19.087855335
 31
0.0
 11
1.0103123709
 21
19.1568863967
 31
0.0
 11
1.0346652856
 21
19.2296312301
 31
0.0
 11
1.0712028608
 21
19.2952567478
 31
0.0
 11
1.1144839579
 21
19.3439900641
 31
0.0
  0
SPLINE
  5
442
100
AcDbEntity
  8
ASSI
100
AcDbSpline
 62
253
  6
CONTINUOUS
 70
0
 71
3
 72
11
 73
7
 74
5
 42
0.0000001
 43
0.0000001
 44
0.0000000001
 12
0.267206891
 22
-0.1073163085
 32
0.0
 13
0.2260099848
 23
0.1784258934
 33
0.0
 40
0.0
 40
0.0
 40
0.0
 40
0.0
 40
0.2528709448
 40
0.5208296308
 40
0.7774601979
 40
1.0
 40
1.0
 40
1.0
 40
1.0
 10
1.0427220926
 20
19.0304569798
 30
0.0
 10
1.0652450456
 20
19.0214112543
 30
0.0
 10
1.1144541871
 20
19.0095885275
 30
0.0
 10
1.1896152435
 20
19.0084590236
 30
0.0
 10
1.2604057429
 20
19.0228848933
 30
0.0
 10
1.302475373
 20
19.0437626668
 30
0.0
 10
1.3192407788
 20
19.0569982878
 30
0.0
 11
1.0427220926
 21
19.0304569798
 31
0.0
 11
1.1132978916
 21
19.012539568
 31
0.0
 11
1.1904468989
 21
19.0112842062
 31
0.0
 11
1.2626801635
 21
19.0268778422
 31
0.0
 11
1.3192407788
 21
19.0569982878
 31
0.0
  0
SPLINE
  5
443
100
AcDbEntity
  8
ASSI
100
AcDbSpline
 62
253
  6
CONTINUOUS
 70
0
 71
3
 72
11
 73
7
 74
5
 42
0.0000001
 43
0.0000001
 44
0.0000000001
 12
-0.2260099838
 22
-0.1784258954
 32
0.0
 13
-0.2672068904
 23
0.1073163112
 33
0.0
 40
0.0
 40
0.0
 40
0.0
 40
0.0
 40
0.2225397985
 40
0.4791703619
 40
0.7471290506
 40
1.0
 40
1.0
 40
1.0
 40
1.0
 10
-2.9813074537
 20
20.7841954116
 30
0.0
 10
-2.9980728592
 20
20.7709597906
 30
0.0
 10
-3.0401424884
 20
20.750082017
 30
0.0
 10
-3.1109329874
 20
20.7356561468
 30
0.0
 10
-3.1860940443
 20
20.7367856505
 30
0.0
 10
-3.2353031865
 20
20.7486083777
 30
0.0
 10
-3.2578261399
 20
20.7576541036
 30
0.0
 11
-2.9813074537
 21
20.7841954116
 31
0.0
 11
-3.0378680679
 21
20.7540749659
 31
0.0
 11
-3.1101013314
 21
20.7384813295
 31
0.0
 11
-3.1872503396
 21
20.7397366912
 31
0.0
 11
-3.2578261399
 21
20.7576541036
 31
0.0
  0
SPLINE
  5
444
100
AcDbEntity
  8
ASSI
100
AcDbSpline
 62
253
  6
CONTINUOUS
 70
0
 71
3
 72
11
 73
7
 74
5
 42
0.0000001
 43
0.0000001
 44
0.0000000001
 12
-0.2189795877
 22
-0.1848363922
 32
0.0
 13
-0.0000000007
 23
-0.2865598571
 33
0.0
 40
0.0
 40
0.0
 40
0.0
 40
0.0
 40
0.2274503398
 40
0.489564063
 40
0.7572670864
 40
1.0
 40
1.0
 40
1.0
 40
1.0
 10
-3.1860642746
 20
21.0711871878
 30
0.0
 10
-3.2026666018
 20
21.0571734878
 30
0.0
 10
-3.2332428105
 20
21.0209707556
 30
0.0
 10
-3.2681233155
 20
20.9572307788
 30
0.0
 10
-3.2918942773
 20
20.8870041484
 30
0.0
 10
-3.298777504
 20
20.8382382951
 30
0.0
 10
-3.2987775041
 20
20.8150524588
 30
0.0
 11
-3.1860642746
 21
21.0711871878
 31
0.0
 11
-3.2293453718
 21
21.0224538712
 31
0.0
 11
-3.2658829471
 21
20.9568283531
 31
0.0
 11
-3.2902358616
 21
20.88408352
 31
0.0
 11
-3.2987775041
 21
20.8150524588
 31
0.0
  0
SPLINE
  5
445
100
AcDbEntity
  8
ASSI
100
AcDbSpline
 62
253
  6
CONTINUOUS
 70
0
 71
3
 72
11
 73
7
 74
5
 42
0.0000001
 43
0.0000001
 44
0.0000000001
 12
-0.2189795882
 22
-0.1848363917
 32
0.0
 13
0.0
 23
-0.2865598572
 33
0.0
 40
0.0
 40
0.0
 40
0.0
 40
0.0
 40
0.2274503383
 40
0.4895640603
 40
0.7572670847
 40
1.0
 40
1.0
 40
1.0
 40
1.0
 10
-5.757776767
 20
22.1040449027
 30
0.0
 10
-5.7743790941
 20
22.0900312027
 30
0.0
 10
-5.8049553028
 20
22.0538284708
 30
0.0
 10
-5.8398358079
 20
21.9900884943
 30
0.0
 10
-5.8636067698
 20
21.9198618637
 30
0.0
 10
-5.8704899964
 20
21.8710960102
 30
0.0
 10
-5.8704899964
 20
21.8479101737
 30
0.0
 11
-5.757776767
 21
22.1040449027
 31
0.0
 11
-5.8010578641
 21
22.0553115865
 31
0.0
 11
-5.8375954393
 21
21.9896860687
 31
0.0
 11
-5.861948354
 21
21.9169412353
 31
0.0
 11
-5.8704899964
 21
21.8479101737
 31
0.0
  0
SPLINE
  5
446
100
AcDbEntity
  8
ASSI
100
AcDbSpline
 62
7
  6
CONTINUOUS
 70
0
 71
3
 72
9
 73
5
 74
3
 42
0.0000001
 43
0.0000001
 44
0.0000000001
 12
-0.2519289914
 22
0.1032197111
 32
0.0
 13
-0.1581233566
 23
0.2216292615
 33
0.0
 40
0.0
 40
0.0
 40
0.0
 40
0.0
 40
0.4849626645
 40
1.0
 40
1.0
 40
1.0
 40
1.0
 10
-10.5556273137
 20
22.2754509324
 30
0.0
 10
-10.5963526987
 20
22.2921368344
 30
0.0
 10
-10.6724992961
 20
22.3451200789
 30
0.0
 10
-10.7327013758
 20
22.4137559963
 30
0.0
 10
-10.7598478533
 20
22.451805111
 30
0.0
 11
-10.5556273137
 21
22.2754509324
 31
0.0
 11
-10.6664592405
 21
22.3472079584
 31
0.0
 11
-10.7598478533
 21
22.451805111
 31
0.0
  0
SPLINE
  5
447
100
AcDbEntity
  8
ASSI
100
AcDbSpline
 62
253
  6
CONTINUOUS
 70
0
 71
3
 72
11
 73
7
 74
5
 42
0.0000001
 43
0.0000001
 44
0.0000000001
 12
0.29279581
 22
0.2326496375
 32
0.0
 13
0.3568258603
 23
-0.1119399198
 33
0.0
 40
0.0
 40
0.0
 40
0.0
 40
0.0
 40
0.3005513313
 40
0.5634253439
 40
0.7928287339
 40
1.0
 40
1.0
 40
1.0
 40
1.0
 10
6.5646537516
 20
23.2752986892
 30
0.0
 10
6.5939871418
 20
23.2986064086
 30
0.0
 10
6.6519554776
 20
23.3388347924
 30
0.0
 10
6.7424517115
 20
23.3802103668
 30
0.0
 10
6.8290297479
 20
23.3971153827
 30
0.0
 10
6.8842795808
 20
23.390453846
 30
0.0
 10
6.9089209359
 20
23.3827236011
 30
0.0
 11
6.5646537516
 21
23.2752986892
 31
0.0
 11
6.6576368542
 21
23.3384447161
 31
0.0
 11
6.7476249336
 21
23.3780240893
 31
0.0
 11
6.832115866
 21
23.3928999882
 31
0.0
 11
6.9089209359
 21
23.3827236011
 31
0.0
  0
SPLINE
  5
448
100
AcDbEntity
  8
ASSI
100
AcDbSpline
 62
253
  6
CONTINUOUS
 70
0
 71
3
 72
9
 73
5
 74
3
 42
0.0000001
 43
0.0000001
 44
0.0000000001
 12
-0.0888179278
 22
0.0258482911
 32
0.0
 13
-0.0726450594
 23
-0.0572665154
 33
0.0
 40
0.0
 40
0.0
 40
0.0
 40
0.0
 40
0.4380719938
 40
1.0
 40
1.0
 40
1.0
 40
1.0
 10
4.4435034959
 20
19.2121298549
 30
0.0
 10
4.430533947
 20
19.2159043257
 30
0.0
 10
4.3977508579
 20
19.2129190025
 30
0.0
 10
4.3712069063
 20
19.1960545168
 30
0.0
 10
4.3575998085
 20
19.1853279638
 30
0.0
 11
4.4435034959
 21
19.2121298549
 31
0.0
 11
4.4030085752
 21
19.2106252433
 31
0.0
 11
4.3575998085
 21
19.1853279638
 31
0.0
  0
SPLINE
  5
449
100
AcDbEntity
  8
ASSI
100
AcDbSpline
 62
253
  6
CONTINUOUS
 70
0
 71
3
 72
11
 73
7
 74
5
 42
0.0000001
 43
0.0000001
 44
0.0000000001
 12
-0.0908167458
 22
0.0364650524
 32
0.0
 13
-0.0764102801
 23
-0.0611461401
 33
0.0
 40
0.0
 40
0.0
 40
0.0
 40
0.0
 40
0.208333599
 40
0.4366334709
 40
0.6985406456
 40
1.0
 40
1.0
 40
1.0
 40
1.0
 10
6.88374881
 20
18.232366801
 30
0.0
 10
6.8774420836
 20
18.2348990996
 30
0.0
 10
6.8630894135
 20
18.2376535474
 30
0.0
 10
6.8402464899
 20
18.2341126853
 30
0.0
 10
6.8163988883
 20
18.22366975
 30
0.0
 10
6.8012117451
 20
18.2131464162
 30
0.0
 10
6.7935335472
 20
18.2070020575
 30
0.0
 11
6.88374881
 21
18.232366801
 31
0.0
 11
6.8637626561
 21
18.2363966477
 31
0.0
 11
6.8416195436
 21
18.2334194595
 31
0.0
 11
6.8179757559
 21
18.2235232328
 31
0.0
 11
6.7935335472
 21
18.2070020575
 31
0.0
  0
SPLINE
  5
44A
100
AcDbEntity
  8
ASSI
100
AcDbSpline
 62
253
  6
CONTINUOUS
 70
0
 71
3
 72
11
 73
7
 74
5
 42
0.0000001
 43
0.0000001
 44
0.0000000001
 12
-0.0000000682
 22
0.0312234305
 32
0.0
 13
-0.0311301762
 23
-0.0024113784
 33
0.0
 40
0.0
 40
0.0
 40
0.0
 40
0.0
 40
0.3252973844
 40
0.5877305163
 40
0.799201512
 40
1.0
 40
1.0
 40
1.0
 40
1.0
 10
6.9848148707
 20
17.9598217064
 30
0.0
 10
6.9848148633
 20
17.9632073398
 30
0.0
 10
6.9843110973
 20
17.9693521338
 30
0.0
 10
6.9815617623
 20
17.9773421171
 30
0.0
 10
6.9765115386
 20
17.9827087495
 30
0.0
 10
6.9719864275
 20
17.9835249331
 30
0.0
 10
6.9699027968
 20
17.9833635327
 30
0.0
 11
6.9848148707
 21
17.9598217064
 31
0.0
 11
6.9837921621
 21
17.9699269867
 31
0.0
 11
6.9807985977
 21
17.9775546492
 31
0.0
 11
6.9760529767
 21
17.9821455869
 31
0.0
 11
6.9699027968
 21
17.9833635327
 31
0.0
  0
SPLINE
  5
44B
100
AcDbEntity
  8
ASSI
100
AcDbSpline
 62
253
  6
CONTINUOUS
 70
0
 71
3
 72
9
 73
5
 74
3
 42
0.0000001
 43
0.0000001
 44
0.0000000001
 12
-0.0139918187
 22
-0.001083822
 32
0.0
 13
-0.0108262152
 23
-0.0089296543
 33
0.0
 40
0.0
 40
0.0
 40
0.0
 40
0.0
 40
0.2156919723
 40
1.0
 40
1.0
 40
1.0
 40
1.0
 10
6.9699027968
 20
17.9833635327
 30
0.0
 10
6.9688968224
 20
17.9832856088
 30
0.0
 10
6.9642709286
 20
17.9823861012
 30
0.0
 10
6.9601693664
 20
17.9797431697
 30
0.0
 10
6.9573390039
 20
17.9774086365
 30
0.0
 11
6.9699027968
 21
17.9833635327
 31
0.0
 11
6.9669256796
 21
17.9828164663
 31
0.0
 11
6.9573390039
 21
17.9774086365
 31
0.0
  0
SPLINE
  5
44C
100
AcDbEntity
  8
ASSI
100
AcDbSpline
 62
7
  6
CONTINUOUS
 70
0
 71
3
 72
13
 73
9
 74
7
 42
0.0000001
 43
0.0000001
 44
0.0000000001
 12
0.1122891201
 22
-0.0365791629
 32
0.0
 13
0.10133974
 23
0.0606394158
 33
0.0
 40
0.0
 40
0.0
 40
0.0
 40
0.0
 40
0.0402961382
 40
0.1088868695
 40
0.2038919617
 40
0.3231686952
 40
0.6252178938
 40
1.0
 40
1.0
 40
1.0
 40
1.0
 10
3.4915641078
 20
16.633782171
 30
0.0
 10
3.4930723804
 20
16.633290838
 30
0.0
 10
3.4975460571
 20
16.6341046437
 30
0.0
 10
3.5050493098
 20
16.6365355125
 30
0.0
 10
3.5153472979
 20
16.640968062
 30
0.0
 10
3.5336074962
 20
16.649825413
 30
0.0
 10
3.5611620841
 20
16.6648305867
 30
0.0
 10
3.5841627328
 20
16.6782669744
 30
0.0
 10
3.5968228399
 20
16.6858424971
 30
0.0
 11
3.4915641078
 21
16.633782171
 31
0.0
 11
3.496319652
 21
16.6339595117
 31
0.0
 11
3.5040658955
 21
16.6363283604
 31
0.0
 11
3.5144198914
 21
16.6406502663
 31
0.0
 11
3.5271182449
 21
16.6467472535
 31
0.0
 11
3.5585599237
 21
16.6635950042
 31
0.0
 11
3.5968228399
 21
16.6858424971
 31
0.0
  0
SPLINE
  5
44D
100
AcDbEntity
  8
ASSI
100
AcDbSpline
 62
253
  6
CONTINUOUS
 70
0
 71
3
 72
10
 73
6
 74
4
 42
0.0000001
 43
0.0000001
 44
0.0000000001
 12
-0.0015052731
 22
0.2927615045
 32
0.0
 13
-0.2716495832
 23
0.1091699056
 33
0.0
 40
0.0
 40
0.0
 40
0.0
 40
0.0
 40
0.235355925
 40
0.6243388165
 40
1.0
 40
1.0
 40
1.0
 40
1.0
 10
1.3671325571
 20
25.1993500932
 30
0.0
 10
1.3670144655
 20
25.2223178114
 30
0.0
 10
1.354436497
 20
25.2832504572
 30
0.0
 10
1.3013771803
 20
25.3678815347
 30
0.0
 10
1.2393452262
 20
25.4140539704
 30
0.0
 10
1.2053291583
 20
25.4277242691
 30
0.0
 11
1.3671325571
 21
25.1993500932
 31
0.0
 11
1.3546113549
 21
25.2671069359
 31
0.0
 11
1.2951166524
 21
25.3642109995
 31
0.0
 11
1.2053291583
 21
25.4277242691
 31
0.0
  0
SPLINE
  5
44E
100
AcDbEntity
  8
ASSI
100
AcDbSpline
 62
253
  6
CONTINUOUS
 70
0
 71
3
 72
9
 73
5
 74
3
 42
0.0000001
 43
0.0000001
 44
0.0000000001
 12
0.0598502571
 22
0.0490264635
 32
0.0
 13
-0.0010518877
 23
0.0773598147
 33
0.0
 40
0.0
 40
0.0
 40
0.0
 40
0.0
 40
0.5379419503
 40
1.0
 40
1.0
 40
1.0
 40
1.0
 10
1.8294224145
 20
24.9088520229
 30
0.0
 10
1.8401544025
 20
24.9176431534
 30
0.0
 10
1.8582207249
 20
24.9370087449
 30
0.0
 10
1.8657463786
 20
24.9630929678
 30
0.0
 10
1.8655843676
 20
24.9750078762
 30
0.0
 11
1.8294224145
 21
24.9088520229
 31
0.0
 11
1.856541393
 21
24.9404225294
 31
0.0
 11
1.8655843676
 21
24.9750078762
 31
0.0
  0
SPLINE
  5
44F
100
AcDbEntity
  8
ASSI
100
AcDbSpline
 62
7
  6
CONTINUOUS
 70
0
 71
3
 72
9
 73
5
 74
3
 42
0.0000001
 43
0.0000001
 44
0.0000000001
 12
-0.2519289914
 22
0.1032197111
 32
0.0
 13
-0.1581233566
 23
0.2216292615
 33
0.0
 40
0.0
 40
0.0
 40
0.0
 40
0.0
 40
0.4849626645
 40
1.0
 40
1.0
 40
1.0
 40
1.0
 10
4.0252790746
 20
16.419430208
 30
0.0
 10
3.9845536897
 20
16.43611611
 30
0.0
 10
3.9084070922
 20
16.4890993545
 30
0.0
 10
3.8482050125
 20
16.5577352719
 30
0.0
 10
3.8210585351
 20
16.5957843866
 30
0.0
 11
4.0252790746
 21
16.419430208
 31
0.0
 11
3.9144471479
 21
16.491187234
 31
0.0
 11
3.8210585351
 21
16.5957843866
 31
0.0
  0
SPLINE
  5
450
100
AcDbEntity
  8
ASSI
100
AcDbSpline
 62
253
  6
CONTINUOUS
 70
0
 71
3
 72
8
 73
4
 74
2
 42
0.0000001
 43
0.0000001
 44
0.0000000001
 12
0.0064711012
 22
0.0109748942
 32
0.0
 13
0.0050604462
 23
0.0116925334
 33
0.0
 40
0.0
 40
0.0
 40
0.0
 40
0.0
 40
1.0
 40
1.0
 40
1.0
 40
1.0
 10
6.9708329186
 20
17.5909174091
 30
0.0
 10
6.9729899523
 20
17.5945757072
 30
0.0
 10
6.9749072638
 20
17.5983835454
 30
0.0
 10
6.9765940792
 20
17.6022810565
 30
0.0
 11
6.9708329186
 21
17.5909174091
 31
0.0
 11
6.9765940792
 21
17.6022810565
 31
0.0
  0
SPLINE
  5
451
100
AcDbEntity
  8
ASSI
100
AcDbSpline
 62
253
  6
CONTINUOUS
 70
0
 71
3
 72
9
 73
5
 74
3
 42
0.0000001
 43
0.0000001
 44
0.0000000001
 12
0.0147164934
 22
0.0340035409
 32
0.0
 13
0.0000001972
 23
0.0370515313
 33
0.0
 40
0.0
 40
0.0
 40
0.0
 40
0.0
 40
0.2649899826
 40
1.0
 40
1.0
 40
1.0
 40
1.0
 10
6.9765940792
 20
17.6022810565
 30
0.0
 10
6.977893987
 20
17.6052845891
 30
0.0
 10
6.9822670151
 20
17.6168224606
 30
0.0
 10
6.9848148224
 20
17.6291997055
 30
0.0
 10
6.9848148707
 20
17.6382774544
 30
0.0
 11
6.9765940792
 21
17.6022810565
 31
0.0
 11
6.9800834378
 21
17.6114583704
 31
0.0
 11
6.9848148707
 21
17.6382774544
 31
0.0
  0
SPLINE
  5
452
100
AcDbEntity
  8
ASSI
100
AcDbSpline
 62
253
  6
CONTINUOUS
 70
0
 71
3
 72
11
 73
7
 74
5
 42
0.0000001
 43
0.0000001
 44
0.0000000001
 12
-0.0309829549
 22
0.0004649132
 32
0.0
 13
0.0000001708
 23
0.0309864428
 33
0.0
 40
0.0
 40
0.0
 40
0.0
 40
0.0
 40
0.2039476864
 40
0.4199616159
 40
0.6817039539
 40
1.0
 40
1.0
 40
1.0
 40
1.0
 10
-9.3849332444
 20
22.0192407182
 30
0.0
 10
-9.3870395451
 20
22.0192723242
 30
0.0
 10
-9.3914822704
 20
22.0204677765
 30
0.0
 10
-9.3963859617
 20
22.0259149421
 30
0.0
 10
-9.3991268697
 20
22.0338012533
 30
0.0
 10
-9.3996301323
 20
22.0398208272
 30
0.0
 10
-9.3996301141
 20
22.0431084479
 30
0.0
 11
-9.3849332444
 21
22.0192407182
 31
0.0
 11
-9.3910193
 21
22.0209429052
 31
0.0
 11
-9.3956907495
 21
22.025736708
 31
0.0
 11
-9.398627954
 21
22.0332966323
 31
0.0
 11
-9.3996301141
 21
22.0431084479
 31
0.0
  0
SPLINE
  5
453
100
AcDbEntity
  8
ASSI
100
AcDbSpline
 62
253
  6
CONTINUOUS
 70
0
 71
3
 72
9
 73
5
 74
3
 42
0.0000001
 43
0.0000001
 44
0.0000000001
 12
-0.0000009637
 22
0.0713418827
 32
0.0
 13
0.0553349518
 23
0.0450300714
 33
0.0
 40
0.0
 40
0.0
 40
0.0
 40
0.0
 40
0.5095337446
 40
1.0
 40
1.0
 40
1.0
 40
1.0
 10
-9.3996301141
 20
22.3432051717
 30
0.0
 10
-9.3996302778
 20
22.3553222039
 30
0.0
 10
-9.3930699435
 20
22.3788291986
 30
0.0
 10
-9.3797960084
 20
22.3995948279
 30
0.0
 10
-9.3707493662
 20
22.406956738
 30
0.0
 11
-9.3996301141
 21
22.3432051717
 31
0.0
 11
-9.3912018382
 21
22.378565692
 31
0.0
 11
-9.3707493662
 21
22.406956738
 31
0.0
  0
SPLINE
  5
454
100
AcDbEntity
  8
ASSI
100
AcDbSpline
 62
253
  6
CONTINUOUS
 70
0
 71
3
 72
16
 73
12
 74
10
 42
0.0000001
 43
0.0000001
 44
0.0000000001
 12
0.2481740889
 22
0.1974518548
 32
0.0
 13
-0.2447078073
 23
-0.2017317587
 33
0.0
 40
0.0
 40
0.0
 40
0.0
 40
0.0
 40
0.127984112
 40
0.2770472793
 40
0.4337345118
 40
0.5820768383
 40
0.7088264837
 40
0.809698027
 40
0.8543647506
 40
0.8990392404
 40
1.0
 40
1.0
 40
1.0
 40
1.0
 10
4.2297599487
 20
22.1687958526
 30
0.0
 10
4.2403473956
 20
22.1772194193
 30
0.0
 10
4.267210222
 20
22.1904306712
 30
0.0
 10
4.3124864878
 20
22.1994587354
 30
0.0
 10
4.3608651959
 20
22.1986735295
 30
0.0
 10
4.4056709739
 20
22.1879711795
 30
0.0
 10
4.4411971477
 20
22.1690065119
 30
0.0
 10
4.4601572318
 20
22.1453271168
 30
0.0
 10
4.4635713414
 20
22.1250721887
 30
0.0
 10
4.4596454123
 20
22.1049447209
 30
0.0
 10
4.4490693794
 20
22.0923753132
 30
0.0
 10
4.4408340841
 20
22.085586316
 30
0.0
 11
4.2297599487
 21
22.1687958526
 31
0.0
 11
4.2656054147
 21
22.1878367856
 31
0.0
 11
4.3118470427
 21
22.1976617076
 31
0.0
 11
4.3615313753
 21
22.1968032765
 31
0.0
 11
4.407169598
 21
22.185383651
 31
0.0
 11
4.4418877654
 21
22.1651234498
 31
0.0
 11
4.4604575402
 21
22.1390745047
 31
0.0
 11
4.4627096804
 21
22.1250890876
 31
0.0
 11
4.460094118
 21
22.1111645537
 31
0.0
 11
4.4408340841
 21
22.085586316
 31
0.0
  0
SPLINE
  5
455
100
AcDbEntity
  8
ASSI
100
AcDbSpline
 62
253
  6
CONTINUOUS
 70
0
 71
3
 72
16
 73
12
 74
10
 42
0.0000001
 43
0.0000001
 44
0.0000000001
 12
0.2484851121
 22
0.1970420356
 32
0.0
 13
-0.2517400973
 23
-0.1928661146
 33
0.0
 40
0.0
 40
0.0
 40
0.0
 40
0.0
 40
0.102027177
 40
0.1468830099
 40
0.1914024723
 40
0.2912491485
 40
0.4168215572
 40
0.5644338144
 40
0.7210929233
 40
0.8708398166
 40
1.0
 40
1.0
 40
1.0
 40
1.0
 10
-2.0706861585
 20
24.6991970495
 30
0.0
 10
-2.0622354136
 20
24.7058982637
 30
0.0
 10
-2.0512920304
 20
24.7182848671
 30
0.0
 10
-2.0466926424
 20
24.7383814375
 30
0.0
 10
-2.0494300006
 20
24.7586389044
 30
0.0
 10
-2.0676856411
 20
24.7826118928
 30
0.0
 10
-2.1027003175
 20
24.8019213512
 30
0.0
 10
-2.1471904469
 20
24.8130484204
 30
0.0
 10
-2.1955512431
 20
24.8142940577
 30
0.0
 10
-2.2411035501
 20
24.8056962413
 30
0.0
 10
-2.2683086574
 20
24.7927857278
 30
0.0
 10
-2.2791469231
 20
24.7844821869
 30
0.0
 11
-2.0706861585
 21
24.6991970495
 31
0.0
 11
-2.0506096164
 21
24.7245707505
 31
0.0
 11
-2.0475512011
 21
24.7384631358
 31
0.0
 11
-2.0493594761
 21
24.7524652409
 31
0.0
 11
-2.0671061652
 21
24.778688848
 31
0.0
 11
-2.101187842
 21
24.7992868293
 31
0.0
 11
-2.1464699274
 21
24.8111569417
 31
0.0
 11
-2.1961324892
 21
24.8125122113
 31
0.0
 11
-2.2426905302
 21
24.803155231
 31
0.0
 11
-2.2791469231
 21
24.7844821869
 31
0.0
  0
SPLINE
  5
456
100
AcDbEntity
  8
ASSI
100
AcDbSpline
 62
253
  6
CONTINUOUS
 70
0
 71
3
 72
10
 73
6
 74
4
 42
0.0000001
 43
0.0000001
 44
0.0000000001
 12
-0.0527791491
 22
0.0211979635
 32
0.0
 13
-0.0000011518
 23
-0.0568769921
 33
0.0
 40
0.0
 40
0.0
 40
0.0
 40
0.0
 40
0.5091345982
 40
0.7406019047
 40
1.0
 40
1.0
 40
1.0
 40
1.0
 10
-1.5699417639
 20
20.1207130499
 30
0.0
 10
-1.5788989942
 20
20.1243105888
 30
0.0
 10
-1.5958807109
 20
20.1257737409
 30
0.0
 10
-1.6092392335
 20
20.1106872051
 30
0.0
 10
-1.6108930285
 20
20.1011266046
 30
0.0
 10
-1.6108931281
 20
20.0962086768
 30
0.0
 11
-1.5699417639
 21
20.1207130499
 31
0.0
 11
-1.5988975374
 21
20.1203503812
 31
0.0
 11
-1.6077757957
 21
20.110629369
 31
0.0
 11
-1.6108931281
 21
20.0962086768
 31
0.0
  0
SPLINE
  5
457
100
AcDbEntity
  8
ASSI
100
AcDbSpline
 62
253
  6
CONTINUOUS
 70
0
 71
3
 72
9
 73
5
 74
3
 42
0.0000001
 43
0.0000001
 44
0.0000000001
 12
-0.0000004863
 22
0.0726124568
 32
0.0
 13
-0.0673815387
 23
0.0270609889
 33
0.0
 40
0.0
 40
0.0
 40
0.0
 40
0.0
 40
0.2369533333
 40
1.0
 40
1.0
 40
1.0
 40
1.0
 10
1.0427220926
 20
19.0304569798
 30
0.0
 10
1.0427220542
 20
19.0361922343
 30
0.0
 10
1.0378021891
 20
19.0601728669
 30
0.0
 10
1.018909148
 20
19.0809724026
 30
0.0
 10
1.0017707285
 20
19.087855335
 30
0.0
 11
1.0427220926
 21
19.0304569798
 31
0.0
 11
1.0396059471
 21
19.0473782073
 31
0.0
 11
1.0017707285
 21
19.087855335
 31
0.0
  0
SPLINE
  5
458
100
AcDbEntity
  8
ASSI
100
AcDbSpline
 62
253
  6
CONTINUOUS
 70
0
 71
3
 72
10
 73
6
 74
4
 42
0.0000001
 43
0.0000001
 44
0.0000000001
 12
0.0000004056
 22
0.0568765402
 32
0.0
 13
0.0527786349
 23
-0.0211980312
 33
0.0
 40
0.0
 40
0.0
 40
0.0
 40
0.0
 40
0.2593314446
 40
0.4907937664
 40
1.0
 40
1.0
 40
1.0
 40
1.0
 10
-5.9114413606
 20
21.8234058006
 30
0.0
 10
-5.9114413256
 20
21.8283224257
 30
0.0
 10
-5.9097881314
 20
21.837881242
 30
0.0
 10
-5.8964329339
 20
21.8529704085
 30
0.0
 10
-5.8794483997
 20
21.8515082302
 30
0.0
 10
-5.8704899964
 20
21.8479101737
 30
0.0
 11
-5.9114413606
 21
21.8234058006
 31
0.0
 11
-5.9083257808
 21
21.8378228732
 31
0.0
 11
-5.8994495861
 21
21.8475452441
 31
0.0
 11
-5.8704899964
 21
21.8479101737
 31
0.0
  0
SPLINE
  5
459
100
AcDbEntity
  8
ASSI
100
AcDbSpline
 62
253
  6
CONTINUOUS
 70
0
 71
3
 72
9
 73
5
 74
3
 42
0.0000001
 43
0.0000001
 44
0.0000000001
 12
0.0673818796
 22
-0.0270609088
 32
0.0
 13
-0.0000004015
 23
-0.0726127432
 33
0.0
 40
0.0
 40
0.0
 40
0.0
 40
0.0
 40
0.7629968381
 40
1.0
 40
1.0
 40
1.0
 40
1.0
 10
-3.2987775041
 20
20.8150524588
 30
0.0
 10
-3.281640117
 20
20.8081699962
 30
0.0
 10
-3.2627470634
 20
20.7873712887
 30
0.0
 10
-3.2578261082
 20
20.7633905868
 30
0.0
 10
-3.2578261399
 20
20.7576541036
 30
0.0
 11
-3.2987775041
 21
20.8150524588
 31
0.0
 11
-3.2609434918
 21
20.7745788569
 31
0.0
 11
-3.2578261399
 21
20.7576541036
 31
0.0
  0
ELLIPSE
  5
45A
100
AcDbEntity
  8
RACCORDO
100
AcDbEllipse
 62
7
  6
CONTINUOUS
 10
5.6213095716
 20
14.872375501
 30
0.0
 11
-0.3165198962
 21
0.3871139532
 31
0.0
 40
0.6720475734
 41
-2.4536186814
 42
-0.8841923507
  0
ELLIPSE
  5
45B
100
AcDbEntity
  8
RACCORDO
100
AcDbEllipse
 62
7
  6
CONTINUOUS
 10
5.6213095716
 20
-20.7907101812
 30
0.0
 11
-0.3166934957
 21
0.3878404978
 31
0.0
 40
0.6702436759
 41
-3.1895544554
 42
-2.4542862349
  0
ELLIPSE
  5
45C
100
AcDbEntity
  8
RACCORDO
100
AcDbEllipse
 62
7
  6
CONTINUOUS
 10
-11.6371817123
 20
21.8037746841
 30
0.0
 11
-0.3166934957
 21
0.3878404978
 31
0.0
 40
0.6702436759
 41
-0.8821199121
 42
0.0484752164
  0
ELLIPSE
  5
45D
100
AcDbEntity
  8
RACCORDO
100
AcDbEllipse
 62
7
  6
CONTINUOUS
 10
6.2077848843
 20
13.3815152427
 30
0.0
 11
1.2677055941
 21
-1.5470103314
 31
0.0
 40
0.6710763966
 41
0.6861775039
 42
0.7891491246
  0
ELLIPSE
  5
45E
100
AcDbEntity
  8
RACCORDO
100
AcDbEllipse
 62
7
  6
CONTINUOUS
 10
6.2077848843
 20
13.3815152427
 30
0.0
 11
1.2677055941
 21
-1.5470103314
 31
0.0
 40
0.6710763966
 41
7.2026179442
 42
7.2460021297
  0
ELLIPSE
  5
45F
100
AcDbEntity
  8
RACCORDO
100
AcDbEllipse
 62
7
  6
CONTINUOUS
 10
6.2077848843
 20
-15.5696881084
 30
0.0
 11
-1.2677684437
 21
1.5472787173
 31
0.0
 40
0.6709103902
 41
-2.558447312
 42
-2.4554756913
  0
ELLIPSE
  5
460
100
AcDbEntity
  8
ASSI
100
AcDbEllipse
 62
7
  6
CONTINUOUS
 10
7.094655948
 20
-19.7254466431
 30
0.0
 11
-0.3169109156
 21
0.3869345179
 31
0.0
 40
0.670809718
 41
-3.1189696451
 42
-2.4553554967
  0
ELLIPSE
  5
461
100
AcDbEntity
  8
ASSI
100
AcDbEllipse
 62
7
  6
CONTINUOUS
 10
7.094655948
 20
16.1246914127
 30
0.0
 11
-0.3168729153
 21
0.3867726039
 31
0.0
 40
0.6712104788
 41
-2.4552091068
 42
-0.8847173665
  0
ELLIPSE
  5
462
100
AcDbEntity
  8
ASSI
100
AcDbEllipse
 62
7
  6
CONTINUOUS
 10
3.9644526442
 20
15.8848171333
 30
0.0
 11
0.2497065505
 21
-0.0699912687
 31
0.0
 40
0.1730136333
 41
-2.1332048293
 42
-0.579861795
  0
ELLIPSE
  5
463
100
AcDbEntity
  8
ASSI
100
AcDbEllipse
 62
7
  6
CONTINUOUS
 10
3.740216949
 20
15.9748752437
 30
0.0
 11
0.2497065505
 21
-0.0699912687
 31
0.0
 40
0.1730136333
 41
-3.0915361384
 42
-2.1332048293
  0
ELLIPSE
  5
464
100
AcDbEntity
  8
ASSI
100
AcDbEllipse
 62
7
  6
CONTINUOUS
 10
-10.6164537442
 20
21.7408378577
 30
0.0
 11
0.2497065505
 21
-0.0699912687
 31
0.0
 40
0.1730136333
 41
-2.1332048293
 42
-0.579861795
  0
ELLIPSE
  5
465
100
AcDbEntity
  8
ASSI
100
AcDbEllipse
 62
7
  6
CONTINUOUS
 10
-10.8406894394
 20
21.8308959681
 30
0.0
 11
0.2497065505
 21
-0.0699912687
 31
0.0
 40
0.1730136333
 41
-3.0915361384
 42
-2.1332048293
  0
ELLIPSE
  5
466
100
AcDbEntity
  8
ASSI
100
AcDbEllipse
 62
7
  6
CONTINUOUS
 10
-0.7308585918
 20
20.7465340679
 30
0.0
 11
-0.1625608641
 21
0.1902058938
 31
0.0
 40
0.6553964474
 41
-0.8974928192
 42
-0.0349831269
  0
ELLIPSE
  5
467
100
AcDbEntity
  8
ASSI
100
AcDbEllipse
 62
7
  6
CONTINUOUS
 10
10.482852834
 20
20.870414014
 30
0.0
 11
0.3609241303
 21
0.9326631928
 31
0.0
 40
0.458075675
 41
-0.8693289497
 42
-0.6248171946
  0
ELLIPSE
  5
468
100
AcDbEntity
  8
ASSI
100
AcDbEllipse
 62
7
  6
CONTINUOUS
 10
-2.4782142787
 20
21.448311505
 30
0.0
 11
-0.1625146743
 21
0.1900010152
 31
0.0
 40
0.6563705712
 41
-2.4691737663
 42
-0.898682026
  0
ELLIPSE
  5
469
100
AcDbEntity
  8
ASSI
100
AcDbEllipse
 62
7
  6
CONTINUOUS
 10
1.6705323801
 20
24.6882022508
 30
0.0
 11
0.2002557398
 21
-0.0380654797
 31
0.0
 40
0.3171006239
 41
-0.5548407301
 42
0.0670296361
  0
ELLIPSE
  5
46A
100
AcDbEntity
  8
ASSI
100
AcDbEllipse
 62
7
  6
CONTINUOUS
 10
14.4436582271
 20
29.7604134845
 30
0.0
 11
14.7248791155
 21
12.5261813432
 31
0.0
 40
0.014760238
 41
2.2927721807
 42
2.6322600442
  0
ELLIPSE
  5
46B
100
AcDbEntity
  8
ASSI
100
AcDbEllipse
 62
7
  6
CONTINUOUS
 10
10.677091245
 20
20.7924034891
 30
0.0
 11
-0.7858461616
 21
1.1731918886
 31
0.0
 40
0.5191454105
 41
5.0136960441
 42
6.3225273233
  0
ELLIPSE
  5
46C
100
AcDbEntity
  8
ASSI
100
AcDbEllipse
 62
7
  6
CONTINUOUS
 10
-2.9271289132
 20
26.2561650046
 30
0.0
 11
1.0048735789
 21
0.6729900454
 31
0.0
 40
0.0652557815
 41
-0.6453210963
 42
0.6635101829
  0
ELLIPSE
  5
46D
100
AcDbEntity
  8
ASSI
100
AcDbEllipse
 62
7
  6
CONTINUOUS
 10
-0.804827168
 20
73.127110287
 30
0.0
 11
0.085060811
 21
95.923252966
 31
0.0
 40
0.0059773055
 41
-2.1143322489
 42
-2.1105280496
  0
ELLIPSE
  5
46E
100
AcDbEntity
  8
ASSI
100
AcDbEllipse
 62
7
  6
CONTINUOUS
 10
-0.4206949253
 20
22.9456487598
 30
0.0
 11
1.0000206696
 21
-0.0002005927
 31
0.0
 40
0.5739458546
 41
0.9605060513
 42
1.5082618869
  0
ELLIPSE
  5
46F
100
AcDbEntity
  8
ASSI
100
AcDbEllipse
 62
7
  6
CONTINUOUS
 10
-0.4244488578
 20
23.4360471115
 30
0.0
 11
1.0000607388
 21
-0.0124020305
 31
0.0
 40
0.5618375086
 41
1.7601235639
 42
2.5373774498
  0
ELLIPSE
  5
470
100
AcDbEntity
  8
ASSI
100
AcDbEllipse
 62
7
  6
CONTINUOUS
 10
3.7687241609
 20
21.7519742944
 30
0.0
 11
1.000275873
 21
-0.0122714276
 31
0.0
 40
0.561597706
 41
5.9389560812
 42
6.4572100988
  0
ELLIPSE
  5
471
100
AcDbEntity
  8
ASSI
100
AcDbEllipse
 62
7
  6
CONTINUOUS
 10
3.2560449038
 20
16.4611715263
 30
0.0
 11
0.2499293568
 21
0.009771784
 31
0.0
 40
0.6081570881
 41
3.1179734409
 42
4.077750384
  0
ELLIPSE
  5
472
100
AcDbEntity
  8
ASSI
100
AcDbEllipse
 62
7
  6
CONTINUOUS
 10
-8.9851288263
 20
21.3775028671
 30
0.0
 11
0.2499293568
 21
0.009771784
 31
0.0
 40
0.6081570881
 41
-2.2054349231
 42
-0.6520918889
  0
ELLIPSE
  5
473
100
AcDbEntity
  8
ASSI
100
AcDbEllipse
 62
7
  6
CONTINUOUS
 10
5.6427598228
 20
14.906690536
 30
0.0
 11
-0.3165198962
 21
0.3871139532
 31
0.0
 40
0.6720475734
 41
3.8295666258
 42
5.8836067685
  0
ELLIPSE
  5
474
100
AcDbEntity
  8
ASSI
100
AcDbEllipse
 62
7
  6
CONTINUOUS
 10
5.595777562
 20
-21.596592608
 30
0.0
 11
0.1997382246
 21
0.198664618
 31
0.0
 40
0.7567950566
 41
-2.8269058184
 42
-2.6358710258
  0
ELLIPSE
  5
475
100
AcDbEntity
  8
ASSI
100
AcDbEllipse
 62
7
  6
CONTINUOUS
 10
-11.6586319634
 20
21.8553195281
 30
0.0
 11
-0.3166934957
 21
0.3878404978
 31
0.0
 40
0.6702436759
 41
4.9164515831
 42
6.7734333279
  0
ELLIPSE
  5
476
100
AcDbEntity
  8
ASSI
100
AcDbEllipse
 62
7
  6
CONTINUOUS
 10
-1.4961778408
 20
19.0757519208
 30
0.0
 11
0.1999434854
 21
0.0078174272
 31
0.0
 40
0.6081570881
 41
3.1179734409
 42
4.077750384
  0
ELLIPSE
  5
477
100
AcDbEntity
  8
ASSI
100
AcDbEllipse
 62
7
  6
CONTINUOUS
 10
1.1574373799
 20
18.0100002238
 30
0.0
 11
0.1999434854
 21
0.0078174272
 31
0.0
 40
0.6081570881
 41
-2.2054349231
 42
-0.6520918889
  0
ELLIPSE
  5
478
100
AcDbEntity
  8
ASSI
100
AcDbEllipse
 62
7
  6
CONTINUOUS
 10
-3.1431108526
 20
19.7371973475
 30
0.0
 11
0.1999434854
 21
0.0078174272
 31
0.0
 40
0.6081570881
 41
-2.2054349231
 42
-0.6520918889
  0
ELLIPSE
  5
479
100
AcDbEntity
  8
ASSI
100
AcDbEllipse
 62
7
  6
CONTINUOUS
 10
-5.7967260734
 20
20.8029490445
 30
0.0
 11
0.1999434854
 21
0.0078174272
 31
0.0
 40
0.6081570881
 41
3.1179733728
 42
4.077750384
  0
ELLIPSE
  5
47A
100
AcDbEntity
  8
ASSI
100
AcDbEllipse
 62
7
  6
CONTINUOUS
 10
14.4436582271
 20
29.7604134845
 30
0.0
 11
14.7248791155
 21
12.5261813432
 31
0.0
 40
0.014760238
 41
-2.6573712457
 42
-2.4030044782
  0
ELLIPSE
  5
47B
100
AcDbEntity
  8
ASSI
100
AcDbEllipse
 62
7
  6
CONTINUOUS
 10
5.6427598228
 20
-20.8422550252
 30
0.0
 11
-0.3166934957
 21
0.3878404978
 31
0.0
 40
0.6702436759
 41
2.624116724
 42
3.8288990723
  0
ENDSEC
  0
SECTION
  2
OBJECTS
  0
DICTIONARY
  5
C
100
AcDbDictionary
280
0
281
1
  3
ACAD_GROUP
350
D
  3
ACAD_MLINESTYLE
350
17
  3
ACAD_LAYOUT
350
1A
  3
ACAD_PLOTSETTINGS
350
19
  3
ACAD_PLOTSTYLENAME
350
E
  0
DICTIONARY
  5
D
102
{ACAD_REACTORS
330
C
102
}
100
AcDbDictionary
280
0
281
1
  0
ACDBDICTIONARYWDFLT
  5
E
102
{ACAD_REACTORS
330
C
102
}
100
AcDbDictionary
281
1
  3
Normal
350
F
100
AcDbDictionaryWithDefault
340
F
  0
DICTIONARY
  5
17
102
{ACAD_REACTORS
330
C
102
}
100
AcDbDictionary
280
0
281
1
  3
Standard
350
18
  0
DICTIONARY
  5
19
102
{ACAD_REACTORS
330
C
102
}
100
AcDbDictionary
281
1
  0
DICTIONARY
  5
1A
102
{ACAD_REACTORS
330
C
102
}
100
AcDbDictionary
281
1
  3
Model
350
47C
  3
Layout1
350
47D
  0
ACDBPLACEHOLDER
  5
F
102
{ACAD_REACTORS
330
E
102
}
  0
MLINESTYLE
  5
18
102
{ACAD_REACTORS
330
17
102
}
100
AcDbMlineStyle
  2
STANDARD
 70
0
  3

 62
256
 51
90.0
 52
90.0
 71
2
 49
0.5
 62
256
  6
BYLAYER
 49
-0.5
 62
256
  6
BYLAYER
  0
LAYOUT
  5
47C
102
{ACAD_REACTORS
330
1A
102
}
100
AcDbPlotSettings
  1

  2
none_device
  4
ISO_A4_(297.00_x_210.00_MM)
  6

 40
0.0
 41
0.0
 42
0.0
 43
0.0
 44
297.0
 45
210.0
 46
0.0
 47
0.0
 48
0.0
 49
0.0
140
0.0
141
0.0
142
1.0
143
1.0
 70
1024
 72
1
 73
0
 74
0
  7

 75
0
147
1.0
148
0.0
149
0.0
100
AcDbLayout
  1
Model
 70
0
 71
0
 10
0.0
 20
0.0
 11
297.0
 21
210.0
 12
0.0
 22
0.0
 32
0.0
 14
0.0
 24
0.0
 34
0.0
 15
0.0
 25
0.0
 35
0.0
146
0.0
 13
0.0
 23
0.0
 33
0.0
 16
1.0
 26
0.0
 36
0.0
 17
0.0
 27
1.0
 37
0.0
 76
0
330
223
345
0
346
0
  0
LAYOUT
  5
47D
102
{ACAD_REACTORS
330
1A
102
}
100
AcDbPlotSettings
  1

  2
none_device
  4
ISO_A4_(297.00_x_210.00_MM)
  6

 40
0.0
 41
0.0
 42
0.0
 43
0.0
 44
297.0
 45
210.0
 46
0.0
 47
0.0
 48
0.0
 49
0.0
140
0.0
141
0.0
142
1.0
143
1.0
 70
0
 72
1
 73
0
 74
0
  7

 75
0
147
1.0
148
0.0
149
0.0
100
AcDbLayout
  1
Layout1
 70
0
 71
1
 10
0.0
 20
0.0
 11
297.0
 21
210.0
 12
0.0
 22
0.0
 32
0.0
 14
0.0
 24
0.0
 34
0.0
 15
0.0
 25
0.0
 35
0.0
146
0.0
 13
0.0
 23
0.0
 33
0.0
 16
1.0
 26
0.0
 36
0.0
 17
0.0
 27
1.0
 37
0.0
 76
0
330
224
345
0
346
0
  0
ENDSEC
  0
EOF
