  0
SECTION
  2
HEADER
  9
$ACADVER
  1
AC1021
  9
$DWGCODEPAGE
  3
ANSI_1252
  9
$EXTMAX
 10
297.0
 20
210.0
 30
0.0
  9
$EXTMIN
 10
0.0
 20
0.0
 30
0.0
  9
$LIMMIN
 10
0.0
 20
0.0
  9
$LIMMAX
 10
297.0
 20
210.0
  9
$VIEWCTR
 10
148.5
 20
105.0
  9
$VIEWSIZE
 40
210.0
  9
$CLAYER
  8
0
  9
$LTSCALE
 40
16.335
  9
$CELTYPE
  6
BYLAYER
  9
$DIMSCALE
 40
1.0
  9
$DIMASZ
 40
3.0
  9
$DIMEXO
 40
1.85625
  9
$DIMDLI
 40
11.286
  9
$DIMEXE
 40
5.346
  9
$DIMCEN
 40
2.673
  9
$DIMLFAC
 40
1.0
  9
$DIMBLK
  1
_FILLED
  9
$DIMTXT
 40
3.0
  9
$DIMTOL
 70
1
  9
$DIMLIM
 70
0
  9
$DIMTFAC
 40
1.0
  9
$DIMTP
 40
0.01
  9
$DIMTM
 40
0.01
  9
$PDMODE
 70
3
  9
$PDSIZE
 40
3.0
  9
$HANDSEED
  5
515
  9
$TILEMODE
 70
1
  9
$MEASUREMENT
 70
1
  9
$INSUNITS
 70
4
  0
ENDSEC
  0
SECTION
  2
CLASSES
  0
CLASS
  1
ACDBDICTIONARYWDFLT
  2
AcDbDictionaryWithDefault
  3
AutoCAD 2000
 90
0
 91
1
280
0
281
0
  0
CLASS
  1
ACDBPLACEHOLDER
  2
AcDbPlaceHolder
  3
AutoCAD 2000
 90
0
 91
1
280
0
281
0
  0
CLASS
  1
LAYOUT
  2
AcDbLayout
  3
AutoCAD 2000
 90
0
 91
0
280
0
281
0
  0
ENDSEC
  0
SECTION
  2
TABLES
  0
TABLE
  2
VPORT
  5
8
100
AcDbSymbolTable
 70
2
  0
VPORT
  5
1F4
100
AcDbSymbolTableRecord
100
AcDbViewportTableRecord
  2
*ACTIVE
 70
0
 10
0.0
 20
0.0
 11
1.0
 21
1.0
 12
148.5
 22
105.0
 13
0.0
 23
0.0
 14
1.0
 24
1.0
 15
0.0
 25
0.0
 16
0.0
 26
0.0
 36
1.0
 17
0.0
 27
0.0
 37
0.0
 40
210.0
 41
1.4142857143
 42
50.0
 43
0.0
 44
0.0
 50
0.0
 51
0.0
 71
0
 72
100
 73
1
 74
1
 75
0
 76
0
 77
0
 78
0
  0
ENDTAB
  0
TABLE
  2
LTYPE
  5
5
100
AcDbSymbolTable
 70
6
  0
LTYPE
  5
14
100
AcDbSymbolTableRecord
100
AcDbLinetypeTableRecord
  2
BYBLOCK
 70
0
  3

 72
65
 73
0
 40
0.0
  0
LTYPE
  5
15
100
AcDbSymbolTableRecord
100
AcDbLinetypeTableRecord
  2
BYLAYER
 70
0
  3

 72
65
 73
0
 40
0.0
  0
LTYPE
  5
16
100
AcDbSymbolTableRecord
100
AcDbLinetypeTableRecord
  2
CONTINUOUS
 70
64
  3
Solid line
 72
65
 73
0
 40
0.0
  0
LTYPE
  5
1F5
100
AcDbSymbolTableRecord
100
AcDbLinetypeTableRecord
  2
CENTER
 70
64
  3
____ _ ____ _ ____ _ ____ _ ____ _ ____ _ ____
 72
65
 73
4
 40
0.6
 49
0.375
 74
0
 49
-0.075
 74
0
 49
0.075
 74
0
 49
-0.075
 74
0
  0
LTYPE
  5
1F6
100
AcDbSymbolTableRecord
100
AcDbLinetypeTableRecord
  2
HIDDEN
 70
64
  3
- - - - - - - - - - - - - - - - - - - -
 72
65
 73
2
 40
0.2
 49
0.1
 74
0
 49
-0.1
 74
0
  0
LTYPE
  5
1F7
100
AcDbSymbolTableRecord
100
AcDbLinetypeTableRecord
  2
PHANTOM
 70
64
  3
_____ _ _ _____ _ _ _____ _ _ _____
 72
65
 73
6
 40
0.8
 49
0.45
 74
0
 49
-0.05
 74
0
 49
0.1
 74
0
 49
-0.05
 74
0
 49
0.1
 74
0
 49
-0.05
 74
0
  0
LTYPE
  5
1F8
100
AcDbSymbolTableRecord
100
AcDbLinetypeTableRecord
  2
DOT
 70
64
  3
. . . . . . . . . . . . . . . . . . . .
 72
65
 73
2
 40
0.2
 49
0.1
 74
0
 49
-0.1
 74
0
  0
LTYPE
  5
1F9
100
AcDbSymbolTableRecord
100
AcDbLinetypeTableRecord
  2
DASHED
 70
64
  3
- - - - - - - - - - - - - - - - - - - -
 72
65
 73
2
 40
0.2
 49
0.1
 74
0
 49
-0.1
 74
0
  0
ENDTAB
  0
TABLE
  2
LAYER
  5
2
100
AcDbSymbolTable
 70
36
  0
LAYER
  5
10
100
AcDbSymbolTableRecord
100
AcDbLayerTableRecord
  2
0
 70
0
 62
7
  6
CONTINUOUS
370
-3
390
F
  0
LAYER
  5
1FA
100
AcDbSymbolTableRecord
100
AcDbLayerTableRecord
  2
DEFAULT_1
 70
0
 62
7
  6
CENTER
370
-3
390
F
  0
LAYER
  5
1FB
100
AcDbSymbolTableRecord
100
AcDbLayerTableRecord
  2
DEFAULT_2
 70
0
 62
7
  6
HIDDEN
370
-3
390
F
  0
LAYER
  5
1FC
100
AcDbSymbolTableRecord
100
AcDbLayerTableRecord
  2
DEFAULT_3
 70
0
 62
7
  6
PHANTOM
370
-3
390
F
  0
LAYER
  5
1FD
100
AcDbSymbolTableRecord
100
AcDbLayerTableRecord
  2
ASSI
 70
0
 62
7
  6
CONTINUOUS
370
-3
390
F
  0
LAYER
  5
1FE
100
AcDbSymbolTableRecord
100
AcDbLayerTableRecord
  2
COORDINATE
 70
0
 62
7
  6
CONTINUOUS
370
-3
390
F
  0
LAYER
  5
1FF
100
AcDbSymbolTableRecord
100
AcDbLayerTableRecord
  2
COORD_ORIGINE
 70
0
 62
7
  6
CONTINUOUS
370
-3
390
F
  0
LAYER
  5
200
100
AcDbSymbolTableRecord
100
AcDbLayerTableRecord
  2
COPY_PUBLISH
 70
0
 62
7
  6
CONTINUOUS
370
-3
390
F
  0
LAYER
  5
201
100
AcDbSymbolTableRecord
100
AcDbLayerTableRecord
  2
COSMETIC
 70
0
 62
7
  6
CONTINUOUS
370
-3
390
F
  0
LAYER
  5
202
100
AcDbSymbolTableRecord
100
AcDbLayerTableRecord
  2
COSMETICHE
 70
0
 62
7
  6
CONTINUOUS
370
-3
390
F
  0
LAYER
  5
203
100
AcDbSymbolTableRecord
100
AcDbLayerTableRecord
  2
COSMETICI
 70
0
 62
7
  6
CONTINUOUS
370
-3
390
F
  0
LAYER
  5
204
100
AcDbSymbolTableRecord
100
AcDbLayerTableRecord
  2
CURVE
 70
0
 62
7
  6
CONTINUOUS
370
-3
390
F
  0
LAYER
  5
205
100
AcDbSymbolTableRecord
100
AcDbLayerTableRecord
  2
DRAFT
 70
0
 62
7
  6
CONTINUOUS
370
-3
390
F
  0
LAYER
  5
206
100
AcDbSymbolTableRecord
100
AcDbLayerTableRecord
  2
IMPORT
 70
0
 62
7
  6
CONTINUOUS
370
-3
390
F
  0
LAYER
  5
207
100
AcDbSymbolTableRecord
100
AcDbLayerTableRecord
  2
IMPORT_IGES
 70
0
 62
7
  6
CONTINUOUS
370
-3
390
F
  0
LAYER
  5
208
100
AcDbSymbolTableRecord
100
AcDbLayerTableRecord
  2
INTFCLR_1
 70
0
 62
7
  6
CONTINUOUS
370
-3
390
F
  0
LAYER
  5
209
100
AcDbSymbolTableRecord
100
AcDbLayerTableRecord
  2
INTFCLR_3
 70
0
 62
7
  6
CONTINUOUS
370
-3
390
F
  0
LAYER
  5
20A
100
AcDbSymbolTableRecord
100
AcDbLayerTableRecord
  2
INTF_1
 70
0
 62
7
  6
CONTINUOUS
370
-3
390
F
  0
LAYER
  5
20B
100
AcDbSymbolTableRecord
100
AcDbLayerTableRecord
  2
INTF_15
 70
0
 62
7
  6
CONTINUOUS
370
-3
390
F
  0
LAYER
  5
20C
100
AcDbSymbolTableRecord
100
AcDbLayerTableRecord
  2
INTF_16
 70
0
 62
7
  6
CONTINUOUS
370
-3
390
F
  0
LAYER
  5
20D
100
AcDbSymbolTableRecord
100
AcDbLayerTableRecord
  2
INTF_2
 70
0
 62
7
  6
CONTINUOUS
370
-3
390
F
  0
LAYER
  5
20E
100
AcDbSymbolTableRecord
100
AcDbLayerTableRecord
  2
INTF_3
 70
0
 62
7
  6
CONTINUOUS
370
-3
390
F
  0
LAYER
  5
20F
100
AcDbSymbolTableRecord
100
AcDbLayerTableRecord
  2
INTF_4
 70
0
 62
7
  6
CONTINUOUS
370
-3
390
F
  0
LAYER
  5
210
100
AcDbSymbolTableRecord
100
AcDbLayerTableRecord
  2
INTF_5
 70
0
 62
7
  6
CONTINUOUS
370
-3
390
F
  0
LAYER
  5
211
100
AcDbSymbolTableRecord
100
AcDbLayerTableRecord
  2
INTF_6
 70
0
 62
7
  6
CONTINUOUS
370
-3
390
F
  0
LAYER
  5
212
100
AcDbSymbolTableRecord
100
AcDbLayerTableRecord
  2
INTF_7
 70
0
 62
7
  6
CONTINUOUS
370
-3
390
F
  0
LAYER
  5
213
100
AcDbSymbolTableRecord
100
AcDbLayerTableRecord
  2
INTF_9
 70
0
 62
7
  6
CONTINUOUS
370
-3
390
F
  0
LAYER
  5
214
100
AcDbSymbolTableRecord
100
AcDbLayerTableRecord
  2
NOTE
 70
0
 62
7
  6
CONTINUOUS
370
-3
390
F
  0
LAYER
  5
215
100
AcDbSymbolTableRecord
100
AcDbLayerTableRecord
  2
PIANI
 70
0
 62
7
  6
CONTINUOUS
370
-3
390
F
  0
LAYER
  5
216
100
AcDbSymbolTableRecord
100
AcDbLayerTableRecord
  2
PIANI_ORIGINE
 70
0
 62
7
  6
CONTINUOUS
370
-3
390
F
  0
LAYER
  5
217
100
AcDbSymbolTableRecord
100
AcDbLayerTableRecord
  2
PIANI_SFORMO
 70
0
 62
7
  6
CONTINUOUS
370
-3
390
F
  0
LAYER
  5
218
100
AcDbSymbolTableRecord
100
AcDbLayerTableRecord
  2
PUNTI
 70
0
 62
7
  6
CONTINUOUS
370
-3
390
F
  0
LAYER
  5
219
100
AcDbSymbolTableRecord
100
AcDbLayerTableRecord
  2
RACCORDO
 70
0
 62
7
  6
CONTINUOUS
370
-3
390
F
  0
LAYER
  5
21A
100
AcDbSymbolTableRecord
100
AcDbLayerTableRecord
  2
SIMBOLI
 70
0
 62
7
  6
CONTINUOUS
370
-3
390
F
  0
LAYER
  5
21B
100
AcDbSymbolTableRecord
100
AcDbLayerTableRecord
  2
SMUSSO
 70
0
 62
7
  6
CONTINUOUS
370
-3
390
F
  0
LAYER
  5
21C
100
AcDbSymbolTableRecord
100
AcDbLayerTableRecord
  2
SNAPLINE
 70
0
 62
7
  6
CONTINUOUS
370
-3
390
F
  0
LAYER
  5
21D
100
AcDbSymbolTableRecord
100
AcDbLayerTableRecord
  2
SUPERFICI
 70
0
 62
7
  6
CONTINUOUS
370
-3
390
F
  0
LAYER
  5
21E
100
AcDbSymbolTableRecord
100
AcDbLayerTableRecord
  2
SUPERFICI_SKEL
 70
0
 62
7
  6
CONTINUOUS
370
-3
390
F
  0
LAYER
  5
21F
100
AcDbSymbolTableRecord
100
AcDbLayerTableRecord
  2
TRASH
 70
0
 62
7
  6
CONTINUOUS
370
-3
390
F
  0
LAYER
  5
220
100
AcDbSymbolTableRecord
100
AcDbLayerTableRecord
  2
XSEC_DATUMS
 70
0
 62
7
  6
CONTINUOUS
370
-3
390
F
  0
ENDTAB
  0
TABLE
  2
STYLE
  5
3
100
AcDbSymbolTable
 70
1
  0
STYLE
  5
11
100
AcDbSymbolTableRecord
100
AcDbTextStyleTableRecord
  2
STANDARD
 70
0
 40
0.0
 41
0.8
 50
0.0
 71
0
 42
0.2
  3
txt
  4

  0
STYLE
  5
221
100
AcDbSymbolTableRecord
100
AcDbTextStyleTableRecord
  2
TEXTSTYLE_1
 70
0
 40
0.0
 41
0.8
 50
0.0
 71
0
 42
0.2
  3
gdt
  4

  0
ENDTAB
  0
TABLE
  2
VIEW
  5
6
100
AcDbSymbolTable
 70
0
  0
ENDTAB
  0
TABLE
  2
UCS
  5
7
100
AcDbSymbolTable
 70
0
  0
ENDTAB
  0
TABLE
  2
APPID
  5
9
100
AcDbSymbolTable
 70
1
  0
APPID
  5
222
100
AcDbSymbolTableRecord
100
AcDbRegAppTableRecord
  2
ACAD
 70
0
  0
ENDTAB
  0
TABLE
  2
BLOCK_RECORD
  5
1
100
AcDbSymbolTable
 70
0
  0
BLOCK_RECORD
  5
223
100
AcDbSymbolTableRecord
100
AcDbBlockTableRecord
  2
*Model_Space
  0
BLOCK_RECORD
  5
224
100
AcDbSymbolTableRecord
100
AcDbBlockTableRecord
  2
*Paper_Space
  0
ENDTAB
  0
TABLE
  2
DIMSTYLE
  5
A
100
AcDbSymbolTable
 70
1
100
AcDbDimStyleTable
 71
0
  0
DIMSTYLE
105
225
100
AcDbSymbolTableRecord
100
AcDbDimStyleTableRecord
  2
STANDARD
 70
0
  3

  4

 40
1.0
 41
3.0
 42
0.0625
 43
0.38
 44
0.18
 45
0.0
 46
0.0
 47
0.01
 48
0.01
140
3.0
141
0.09
142
0.0
143
25.4
144
1.0
145
0.0
146
1.0
147
0.09
 71
1.0
 72
0.0
 73
0
 74
0
 75
0
 76
0
 77
1
 78
8
170
0
171
2
172
0
173
0
174
0
175
0
176
0
177
0
178
0
270
2
271
2
272
2
273
2
274
2
275
0
280
0
281
0
282
0
283
1
284
8
285
0
286
0
287
3
288
0
340
11
  0
ENDTAB
  0
ENDSEC
  0
SECTION
  2
BLOCKS
  0
BLOCK
  5
20
100
AcDbEntity
  8
0
100
AcDbBlockBegin
  2
*Model_Space
 70
0
 10
0.0
 20
0.0
 30
0.0
  3
*Model_Space
  1

  0
ENDBLK
  5
21
100
AcDbEntity
  8
0
100
AcDbBlockEnd
  0
BLOCK
  5
1C
100
AcDbEntity
  8
0
100
AcDbBlockBegin
  2
*Paper_Space
 70
0
 10
0.0
 20
0.0
 30
0.0
  3
*Paper_Space
  1

  0
ENDBLK
  5
1D
100
AcDbEntity
  8
0
100
AcDbBlockEnd
  0
ENDSEC
  0
SECTION
  2
ENTITIES
  0
LINE
  5
226
100
AcDbEntity
  8
ASSI
100
AcDbLine
 62
7
  6
CONTINUOUS
 10
132.3335532575
 20
132.7190386134
 11
132.7778306356
 21
133.0589721768
  0
LWPOLYLINE
  5
227
100
AcDbEntity
  8
ASSI
100
AcDbPolyline
 62
253
  6
CONTINUOUS
 90
8
 70
0
 10
131.0673763273
 20
131.610225351
 10
131.0804399468
 20
131.6197168844
 10
131.0965725147
 20
131.6273948149
 10
131.1144583549
 20
131.6322047822
 10
131.1337915542
 20
131.6340645184
 10
131.1542414444
 20
131.6329422152
 10
131.1754582575
 20
131.628857068
 10
131.1970791086
 20
131.6218789477
  0
LWPOLYLINE
  5
228
100
AcDbEntity
  8
ASSI
100
AcDbPolyline
 62
253
  6
CONTINUOUS
 90
8
 70
0
 10
132.7778482614
 20
133.0589856595
 10
132.7863845039
 20
133.0647749957
 10
132.8024686483
 20
133.0724132773
 10
132.8202100624
 20
133.0771049497
 10
132.8393053025
 20
133.0787697654
 10
132.8594277699
 20
133.0773792485
 10
132.8802332974
 20
133.0729571801
 10
132.901366034
 20
133.0655791923
  0
LWPOLYLINE
  5
229
100
AcDbEntity
  8
ASSI
100
AcDbPolyline
 62
7
  6
CONTINUOUS
 90
5
 70
0
 10
132.8555717233
 20
133.0979596098
 10
132.8286351996
 20
133.0885828084
 10
132.8032046127
 20
133.0759251601
 10
132.7802057845
 20
133.0607662993
 10
132.7778483339
 20
133.0589855645
  0
LWPOLYLINE
  5
22A
100
AcDbEntity
  8
RACCORDO
100
AcDbPolyline
 62
7
  6
CONTINUOUS
 90
18
 70
0
 10
128.0198497613
 20
127.2410284661
 10
127.9629215487
 20
127.1825781934
 10
127.9097122381
 20
127.1207579231
 10
127.8600745924
 20
127.0560869663
 10
127.8136905192
 20
126.9887691895
 10
127.7703209777
 20
126.9188935661
 10
127.7299595615
 20
126.846805597
 10
127.6925883409
 20
126.7727499049
 10
127.6581934518
 20
126.6968581546
 10
127.626852909
 20
126.6194161328
 10
127.5986741084
 20
126.5406821006
 10
127.5737416827
 20
126.460798645
 10
127.5522024582
 20
126.3799914007
 10
127.534261043
 20
126.2985427064
 10
127.5200915636
 20
126.216502727
 10
127.5099579942
 20
126.1339216552
 10
127.5042027879
 20
126.0510863163
 10
127.5035343736
 20
126.0319299955
  0
LINE
  5
22B
100
AcDbEntity
  8
ASSI
100
AcDbLine
 62
7
  6
CONTINUOUS
 10
131.1370689355
 20
130.2565983983
 11
131.5498111293
 21
130.6463646051
  0
LINE
  5
22C
100
AcDbEntity
  8
RACCORDO
100
AcDbLine
 62
7
  6
CONTINUOUS
 10
131.1585871027
 20
130.2051176896
 11
128.0198497613
 21
127.2410284661
  0
LINE
  5
22D
100
AcDbEntity
  8
RACCORDO
100
AcDbLine
 62
253
  6
CONTINUOUS
 10
131.4869295919
 20
130.238368725
 11
128.3557618676
 21
127.2815027074
  0
LWPOLYLINE
  5
22E
100
AcDbEntity
  8
RACCORDO
100
AcDbPolyline
 62
253
  6
CONTINUOUS
 90
22
 70
0
 10
128.3557618479
 20
127.2815026888
 10
128.3066008382
 20
127.2362308786
 10
128.2578329999
 20
127.1864979617
 10
128.2097168044
 20
127.1325440388
 10
128.1625250312
 20
127.0746244431
 10
128.1164892481
 20
127.0130253854
 10
128.0717989591
 20
126.9480613356
 10
128.0286869989
 20
126.8800432833
 10
127.9873853326
 20
126.8093034353
 10
127.9480694594
 20
126.7362102362
 10
127.9109450299
 20
126.6611217815
 10
127.8762094213
 20
126.5844004779
 10
127.8440078038
 20
126.5064366437
 10
127.8145067523
 20
126.4276106954
 10
127.7878644095
 20
126.3483060399
 10
127.7641916867
 20
126.2689241627
 10
127.7436109054
 20
126.1898598226
 10
127.7262310602
 20
126.1114915529
 10
127.7121206131
 20
126.0341950909
 10
127.7013481496
 20
125.9583468663
 10
127.6939795662
 20
125.8843215782
 10
127.6900551615
 20
125.8124831853
  0
LWPOLYLINE
  5
22F
100
AcDbEntity
  8
ASSI
100
AcDbPolyline
 62
7
  6
CONTINUOUS
 90
12
 70
0
 10
131.0673765734
 20
131.610225068
 10
131.0633036533
 20
131.6065796282
 10
131.0455686145
 20
131.5886348295
 10
131.0299475422
 20
131.5694687319
 10
131.015901329
 20
131.548657596
 10
131.0035230744
 20
131.5263659106
 10
130.993273596
 20
131.5036405452
 10
130.9848732925
 20
131.4800973998
 10
130.97828853
 20
131.4553370888
 10
130.9739259411
 20
131.4305282536
 10
130.9718138838
 20
131.4058495437
 10
130.9716055479
 20
131.3952547294
  0
LINE
  5
230
100
AcDbEntity
  8
ASSI
100
AcDbLine
 62
7
  6
CONTINUOUS
 10
131.0673012095
 20
131.6101596272
 11
132.3288604175
 21
132.7151943663
  0
LINE
  5
231
100
AcDbEntity
  8
ASSI
100
AcDbLine
 62
253
  6
CONTINUOUS
 10
131.1970791086
 20
131.6218789477
 11
132.4578949852
 21
132.7262625823
  0
LINE
  5
232
100
AcDbEntity
  8
ASSI
100
AcDbLine
 62
7
  6
CONTINUOUS
 10
132.3335181843
 20
132.7190117341
 11
132.3289040923
 21
132.7152326223
  0
LINE
  5
233
100
AcDbEntity
  8
ASSI
100
AcDbLine
 62
253
  6
CONTINUOUS
 10
132.4578949852
 20
132.7262625823
 11
132.901366034
 21
133.0655791923
  0
LWPOLYLINE
  5
234
100
AcDbEntity
  8
ASSI
100
AcDbPolyline
 62
253
  6
CONTINUOUS
 90
14
 70
0
 10
135.3372997727
 20
132.087253286
 10
135.344260171
 20
132.0925792023
 10
135.3513863995
 20
132.0975231054
 10
135.3586578124
 20
132.1020297458
 10
135.3660678173
 20
132.1060509283
 10
135.3735724304
 20
132.1095168292
 10
135.3810925341
 20
132.1123514898
 10
135.3885985051
 20
132.1145097893
 10
135.3960581801
 20
132.1159472409
 10
135.4033913214
 20
132.1166186737
 10
135.4105661239
 20
132.1164980614
 10
135.4175513334
 20
132.1155618235
 10
135.4242751134
 20
132.1138018663
 10
135.4275040876
 20
132.1126224531
  0
LWPOLYLINE
  5
235
100
AcDbEntity
  8
ASSI
100
AcDbPolyline
 62
253
  6
CONTINUOUS
 90
12
 70
0
 10
132.901366034
 20
133.0655791923
 10
132.9083251475
 20
133.0708255336
 10
132.9154617387
 20
133.0757063832
 10
132.9227555262
 20
133.0801649748
 10
132.9302006273
 20
133.0841512268
 10
132.9377527124
 20
133.0875934685
 10
132.9453312191
 20
133.090413874
 10
132.9529062575
 20
133.092564817
 10
132.9604452634
 20
133.0939991886
 10
132.967866025
 20
133.0946694114
 10
132.9751367901
 20
133.094546452
 10
132.9822242757
 20
133.0936035631
  0
LWPOLYLINE
  5
236
100
AcDbEntity
  8
RACCORDO
100
AcDbPolyline
 62
7
  6
CONTINUOUS
 90
7
 70
0
 10
144.3696656344
 20
137.7705205127
 10
144.3507456616
 20
137.7579291511
 10
144.3320336895
 20
137.7450496943
 10
144.3135338272
 20
137.7318852218
 10
144.2952504485
 20
137.7184391186
 10
144.2771879811
 20
137.7047150833
 10
135.1666032869
 20
130.604074155
  0
LWPOLYLINE
  5
237
100
AcDbEntity
  8
RACCORDO
100
AcDbPolyline
 62
253
  6
CONTINUOUS
 90
4
 70
0
 10
144.4122988779
 20
137.7973286946
 10
144.3956682748
 20
137.786614943
 10
144.3794235725
 20
137.7752953104
 10
144.3635764441
 20
137.7633779308
  0
LWPOLYLINE
  5
238
100
AcDbEntity
  8
RACCORDO
100
AcDbPolyline
 62
7
  6
CONTINUOUS
 90
4
 70
0
 10
144.4192304021
 20
137.8015468853
 10
144.408111227
 20
137.7948258555
 10
144.3887891214
 20
137.7828205407
 10
144.3696656344
 20
137.7705205127
  0
LINE
  5
239
100
AcDbEntity
  8
RACCORDO
100
AcDbLine
 62
7
  6
CONTINUOUS
 10
144.4192342742
 20
137.8015492292
 11
144.8332175662
 21
138.0492674981
  0
LINE
  5
23A
100
AcDbEntity
  8
RACCORDO
100
AcDbLine
 62
253
  6
CONTINUOUS
 10
144.3635764441
 20
137.7633779308
 11
144.7775597361
 21
138.0110961997
  0
LINE
  5
23B
100
AcDbEntity
  8
DRAFT
100
AcDbLine
 62
7
  6
CONTINUOUS
 10
139.5519550144
 20
133.9246634238
 11
140.42391794
 21
134.4464263805
  0
LINE
  5
23C
100
AcDbEntity
  8
ASSI
100
AcDbLine
 62
7
  6
CONTINUOUS
 10
134.3417980361
 20
129.317261121
 11
135.0792064791
 21
129.9532654973
  0
LINE
  5
23D
100
AcDbEntity
  8
ASSI
100
AcDbLine
 62
253
  6
CONTINUOUS
 10
134.9154010224
 20
131.7392727546
 11
135.3372997727
 21
132.087253286
  0
LINE
  5
23E
100
AcDbEntity
  8
ASSI
100
AcDbLine
 62
253
  6
CONTINUOUS
 10
135.0792064791
 20
131.5096793336
 11
135.5011052294
 21
131.857659865
  0
LINE
  5
23F
100
AcDbEntity
  8
ASSI
100
AcDbLine
 62
253
  6
CONTINUOUS
 10
133.5901177909
 20
130.6607806631
 11
134.9154010224
 21
131.7392727546
  0
LINE
  5
240
100
AcDbEntity
  8
ASSI
100
AcDbLine
 62
253
  6
CONTINUOUS
 10
133.7539232476
 20
130.4311872421
 11
135.0792064791
 21
131.5096793336
  0
LINE
  5
241
100
AcDbEntity
  8
ASSI
100
AcDbLine
 62
7
  6
CONTINUOUS
 10
141.0267577116
 20
134.7786120577
 11
135.6076366529
 21
130.4269452124
  0
LWPOLYLINE
  5
242
100
AcDbEntity
  8
ASSI
100
AcDbPolyline
 62
253
  6
CONTINUOUS
 90
21
 70
0
 10
135.5011052294
 20
131.857659865
 10
135.5024772342
 20
131.8587552786
 10
135.5038726594
 20
131.8597518706
 10
135.5052915049
 20
131.860649641
 10
135.5067425723
 20
131.8614605077
 10
135.5082170601
 20
131.8621725528
 10
135.5096885635
 20
131.8627500226
 10
135.5111575607
 20
131.8631886944
 10
135.5126235734
 20
131.8634927908
 10
135.5140587621
 20
131.8636392264
 10
135.5154623109
 20
131.863622682
 10
135.5168350358
 20
131.8634484768
 10
135.5181515449
 20
131.8631094823
 10
135.5194093011
 20
131.862601306
 10
135.5206108416
 20
131.8619283404
 10
135.5217383854
 20
131.861096635
 10
135.52278968
 20
131.8601041005
 10
135.523766978
 20
131.8589528263
 10
135.524659256
 20
131.8576551294
 10
135.5254654071
 20
131.8562094741
 10
135.5261865384
 20
131.8546173962
  0
LINE
  5
243
100
AcDbEntity
  8
ASSI
100
AcDbLine
 62
7
  6
CONTINUOUS
 10
140.9621709385
 20
134.8509867647
 11
135.4751904263
 21
130.4801386029
  0
LINE
  5
244
100
AcDbEntity
  8
RACCORDO
100
AcDbLine
 62
7
  6
CONTINUOUS
 10
145.1155270721
 20
138.155138994
 11
142.7493249372
 21
136.2758453496
  0
LINE
  5
245
100
AcDbEntity
  8
RACCORDO
100
AcDbLine
 62
7
  6
CONTINUOUS
 10
144.7775597361
 20
138.0110961997
 11
139.5519550144
 21
133.9246634238
  0
LINE
  5
246
100
AcDbEntity
  8
DRAFT
100
AcDbLine
 62
7
  6
CONTINUOUS
 10
135.3937680604
 20
130.5128396607
 11
140.42391794
 21
134.4464263805
  0
LINE
  5
247
100
AcDbEntity
  8
RACCORDO
100
AcDbLine
 62
253
  6
CONTINUOUS
 10
135.1739576023
 20
130.6011204962
 11
144.3635764441
 21
137.7633779308
  0
LINE
  5
248
100
AcDbEntity
  8
RACCORDO
100
AcDbLine
 62
253
  6
CONTINUOUS
 10
144.2720580799
 20
137.7007353343
 11
144.2771879811
 21
137.7047150833
  0
LWPOLYLINE
  5
249
100
AcDbEntity
  8
RACCORDO
100
AcDbPolyline
 62
253
  6
CONTINUOUS
 90
4
 70
0
 10
144.290555534
 20
137.7147702546
 10
144.3143296606
 20
137.7317366742
 10
144.3386738093
 20
137.7479417953
 10
144.3635764441
 20
137.7633779308
  0
LWPOLYLINE
  5
24A
100
AcDbEntity
  8
ASSI
100
AcDbPolyline
 62
7
  6
CONTINUOUS
 90
3
 70
0
 10
137.3811614272
 20
130.2678887741
 10
137.3918427026
 20
130.2751338219
 10
137.4119811159
 20
130.2847066786
  0
LWPOLYLINE
  5
24B
100
AcDbEntity
  8
ASSI
100
AcDbPolyline
 62
7
  6
CONTINUOUS
 90
4
 70
0
 10
140.7745779437
 20
132.8481125294
 10
140.7385652253
 20
132.8310563209
 10
140.7054055227
 20
132.8108260135
 10
140.6912602844
 20
132.8005653123
  0
LINE
  5
24C
100
AcDbEntity
  8
ASSI
100
AcDbLine
 62
7
  6
CONTINUOUS
 10
143.6436484876
 20
132.2611488041
 11
144.9590603588
 21
132.6466247463
  0
LINE
  5
24D
100
AcDbEntity
  8
ASSI
100
AcDbLine
 62
253
  6
CONTINUOUS
 10
150.0955055324
 20
86.6218128353
 11
149.6601128675
 21
86.6197489031
  0
LWPOLYLINE
  5
24E
100
AcDbEntity
  8
RACCORDO
100
AcDbPolyline
 62
253
  6
CONTINUOUS
 90
16
 70
0
 10
144.7326263979
 20
84.8508164007
 10
144.7759564923
 20
84.8376520778
 10
144.8213728954
 20
84.8271630269
 10
144.8684352079
 20
84.8194509595
 10
144.9166870705
 20
84.8145906589
 10
144.9656605887
 20
84.8126292549
 10
145.0148808705
 20
84.8135857673
 10
145.0638706306
 20
84.8174509207
 10
145.1121548196
 20
84.8241872352
 10
145.1592652294
 20
84.8337293891
 10
145.2047450344
 20
84.845984853
 10
145.2481532206
 20
84.8608347867
 10
145.2890688623
 20
84.8781351916
 10
145.327095204
 20
84.897718307
 10
145.3618635072
 20
84.9193942372
 10
145.3930366267
 20
84.9429527924
  0
LWPOLYLINE
  5
24F
100
AcDbEntity
  8
RACCORDO
100
AcDbPolyline
 62
7
  6
CONTINUOUS
 90
12
 70
0
 10
144.9776532925
 20
84.3413448713
 10
145.0099994663
 20
84.3308907703
 10
145.0776870488
 20
84.3146670716
 10
145.1474617305
 20
84.3054161828
 10
145.2187990154
 20
84.3033504944
 10
145.2915297523
 20
84.3086860256
 10
145.3652135956
 20
84.3216711853
 10
145.4391702682
 20
84.3424274023
 10
145.5131888696
 20
84.3711483303
 10
145.587106996
 20
84.4081109988
 10
145.6605287592
 20
84.4534531189
 10
145.6741903797
 20
84.4628831969
  0
LWPOLYLINE
  5
250
100
AcDbEntity
  8
RACCORDO
100
AcDbPolyline
 62
7
  6
CONTINUOUS
 90
10
 70
0
 10
127.9236711718
 20
91.1907128647
 10
129.6625560333
 20
90.404607243
 10
131.5179983633
 20
89.5895140841
 10
133.39462712
 20
88.7891882344
 10
135.2920227062
 20
88.0038145172
 10
137.2097597878
 20
87.2335729906
 10
139.1474007138
 20
86.4786342297
 10
141.1044969383
 20
85.7391597759
 10
143.0805937679
 20
85.0153058975
 10
144.9785501081
 20
84.3410291624
  0
LWPOLYLINE
  5
251
100
AcDbEntity
  8
RACCORDO
100
AcDbPolyline
 62
253
  6
CONTINUOUS
 90
10
 70
0
 10
127.6900631718
 20
91.6955033694
 10
127.6532732727
 20
91.7145168548
 10
127.6198778964
 20
91.7356801057
 10
127.5902008686
 20
91.7587879078
 10
127.5645299593
 20
91.7836161911
 10
127.5431140923
 20
91.8099242026
 10
127.5261609315
 20
91.8374568408
 10
127.5138348669
 20
91.8659471294
 10
127.5062554211
 20
91.8951188058
 10
127.5035704466
 20
91.9211594487
  0
LINE
  5
252
100
AcDbEntity
  8
RACCORDO
100
AcDbLine
 62
253
  6
CONTINUOUS
 10
127.8762094145
 20
91.218402706
 11
127.9109450236
 21
91.196945298
  0
LWPOLYLINE
  5
253
100
AcDbEntity
  8
ASSI
100
AcDbPolyline
 62
7
  6
CONTINUOUS
 90
11
 70
0
 10
134.3417980361
 20
130.0344242004
 10
134.3233953471
 20
130.0109579032
 10
134.3026756509
 20
129.9888712972
 10
134.2797889942
 20
129.9685655622
 10
134.2547876507
 20
129.9503897911
 10
134.2280520652
 20
129.9347416824
 10
134.2003235947
 20
129.9220046109
 10
134.1719865824
 20
129.9123910685
 10
134.1433695919
 20
129.9060794793
 10
134.1152116453
 20
129.9031860107
 10
134.1019393772
 20
129.903002547
  0
LWPOLYLINE
  5
254
100
AcDbEntity
  8
ASSI
100
AcDbPolyline
 62
7
  6
CONTINUOUS
 90
9
 70
0
 10
137.2052397496
 20
130.1141199069
 10
137.1911507741
 20
130.1007069288
 10
137.1742957241
 20
130.081020852
 10
137.1598246719
 20
130.0595059389
 10
137.1479126974
 20
130.0364377211
 10
137.1386408687
 20
130.0119291401
 10
137.1321682843
 20
129.9862403751
 10
137.1286395816
 20
129.9598214795
 10
137.1279467956
 20
129.9415484054
  0
LWPOLYLINE
  5
255
100
AcDbEntity
  8
ASSI
100
AcDbPolyline
 62
7
  6
CONTINUOUS
 90
6
 70
0
 10
142.8749110317
 20
135.1301749424
 10
142.8408941273
 20
135.0981161987
 10
142.8208544468
 20
135.0794319747
 10
142.8016993277
 20
135.0617886775
 10
142.7836604355
 20
135.0454204452
 10
142.7667364779
 20
135.0304063616
  0
LWPOLYLINE
  5
256
100
AcDbEntity
  8
ASSI
100
AcDbPolyline
 62
253
  6
CONTINUOUS
 90
13
 70
0
 10
137.3668958468
 20
130.1282754068
 10
137.3521069374
 20
130.1144215068
 10
137.337598986
 20
130.0980859555
 10
137.3236147498
 20
130.0795420906
 10
137.3103882224
 20
130.0591002006
 10
137.2981407195
 20
130.0371023335
 10
137.2870771745
 20
130.0139165728
 10
137.2773827104
 20
129.9899308785
 10
137.2692195416
 20
129.9655465958
 10
137.2627242598
 20
129.9411717394
 10
137.2580055488
 20
129.9172141662
 10
137.255142365
 20
129.8940747508
 10
137.2541826174
 20
129.8721406778
  0
LWPOLYLINE
  5
257
100
AcDbEntity
  8
ASSI
100
AcDbPolyline
 62
253
  6
CONTINUOUS
 90
31
 70
0
 10
141.0539864553
 20
132.7234275536
 10
141.061108389
 20
132.7297971891
 10
141.0669259269
 20
132.7364175423
 10
141.0714390691
 20
132.7432886129
 10
141.0746724767
 20
132.7504933823
 10
141.0766014887
 20
132.7579488693
 10
141.0771521214
 20
132.7654061303
 10
141.0762759578
 20
132.7728616315
 10
141.0740214149
 20
132.7803189068
 10
141.07045976
 20
132.7875396148
 10
141.0655484075
 20
132.7945161071
 10
141.0593299429
 20
132.8012560322
 10
141.0520033908
 20
132.8075439939
 10
141.0435330979
 20
132.8133654251
 10
141.0339547173
 20
132.8187348929
 10
141.0235742327
 20
132.8234807023
 10
141.0123656776
 20
132.8275827017
 10
141.0003550184
 20
132.8310610427
 10
140.9879261384
 20
132.8338044848
 10
140.9750655044
 20
132.8357893471
 10
140.9617866496
 20
132.8370393105
 10
140.9485140569
 20
132.8375141771
 10
140.9352479405
 20
132.8371888096
 10
140.9219880862
 20
132.8360883453
 10
140.9091583345
 20
132.8342479984
 10
140.8967715942
 20
132.8316434373
 10
140.8848149565
 20
132.8282989935
 10
140.8736735359
 20
132.8243228761
 10
140.8634757038
 20
132.8197511547
 10
140.8540930887
 20
132.8145477597
 10
140.8455256907
 20
132.808712691
  0
LWPOLYLINE
  5
258
100
AcDbEntity
  8
ASSI
100
AcDbPolyline
 62
253
  6
CONTINUOUS
 90
7
 70
0
 10
141.2562017184
 20
132.4397621728
 10
141.277089026
 20
132.4584220578
 10
141.2943861102
 20
132.4781963698
 10
141.3079078467
 20
132.4988696376
 10
141.3175095137
 20
132.5202152543
 10
141.3230912961
 20
132.5420032856
 10
141.3246087627
 20
132.5633996486
  0
LINE
  5
259
100
AcDbEntity
  8
ASSI
100
AcDbLine
 62
7
  6
CONTINUOUS
 10
137.3753382121
 20
130.2631162398
 11
137.2048704117
 21
130.1137987601
  0
LINE
  5
25A
100
AcDbEntity
  8
ASSI
100
AcDbLine
 62
253
  6
CONTINUOUS
 10
137.5366314218
 20
130.2769515098
 11
137.3668958468
 21
130.1282754068
  0
LWPOLYLINE
  5
25B
100
AcDbEntity
  8
ASSI
100
AcDbPolyline
 62
7
  6
CONTINUOUS
 90
6
 70
0
 10
142.7667364779
 20
135.0304063616
 10
142.7508868775
 20
135.0167002863
 10
142.7362948297
 20
135.0043398186
 10
142.7230193335
 20
134.9933390327
 10
142.7109915747
 20
134.9836912876
 10
142.7002105819
 20
134.9753973134
  0
LINE
  5
25C
100
AcDbEntity
  8
ASSI
100
AcDbLine
 62
7
  6
CONTINUOUS
 10
144.5847702998
 20
136.5764561405
 11
145.4451349544
 21
137.2919485535
  0
LINE
  5
25D
100
AcDbEntity
  8
ASSI
100
AcDbLine
 62
7
  6
CONTINUOUS
 10
137.3753949093
 20
130.263165783
 11
137.3811614272
 21
130.2678887741
  0
LINE
  5
25E
100
AcDbEntity
  8
ASSI
100
AcDbLine
 62
7
  6
CONTINUOUS
 10
144.5847702998
 20
136.5764561405
 11
143.4141961817
 21
135.6321671268
  0
LWPOLYLINE
  5
25F
100
AcDbEntity
  8
ASSI
100
AcDbPolyline
 62
253
  6
CONTINUOUS
 90
16
 70
0
 10
137.2052433149
 20
130.1141239442
 10
137.2127746522
 20
130.1201154054
 10
137.2212484898
 20
130.1257195868
 10
137.2302664401
 20
130.1305937114
 10
137.2397847415
 20
130.1347143082
 10
137.2497798259
 20
130.1380713808
 10
137.2602094272
 20
130.1406501415
 10
137.2710329293
 20
130.1424410121
 10
137.2822128715
 20
130.1434382721
 10
137.2937087576
 20
130.1436385635
 10
137.3054789025
 20
130.1430411889
 10
137.3174798544
 20
130.1416484047
 10
137.3296669543
 20
130.1394657519
 10
137.3419953284
 20
130.1365015904
 10
137.3544201065
 20
130.1327668604
 10
137.3668958468
 20
130.1282754068
  0
LINE
  5
260
100
AcDbEntity
  8
ASSI
100
AcDbLine
 62
253
  6
CONTINUOUS
 10
144.3300017721
 20
133.4519547732
 11
142.5188575454
 21
132.0144432445
  0
LINE
  5
261
100
AcDbEntity
  8
ASSI
100
AcDbLine
 62
253
  6
CONTINUOUS
 10
138.3644013841
 20
130.5893937057
 11
141.0539864553
 21
132.7234275536
  0
LINE
  5
262
100
AcDbEntity
  8
ASSI
100
AcDbLine
 62
253
  6
CONTINUOUS
 10
138.7360224886
 20
130.4401422921
 11
141.2562017184
 21
132.4397621728
  0
LINE
  5
263
100
AcDbEntity
  8
ASSI
100
AcDbLine
 62
7
  6
CONTINUOUS
 10
141.8811841575
 20
131.7896923369
 11
141.2750169914
 21
131.3087329265
  0
LINE
  5
264
100
AcDbEntity
  8
ASSI
100
AcDbLine
 62
253
  6
CONTINUOUS
 10
142.4413263428
 20
134.6651990619
 11
142.6787646872
 21
134.8532060201
  0
LINE
  5
265
100
AcDbEntity
  8
ASSI
100
AcDbLine
 62
253
  6
CONTINUOUS
 10
140.8455256907
 20
132.808712691
 11
137.5366314218
 21
130.2769515098
  0
LINE
  5
266
100
AcDbEntity
  8
ASSI
100
AcDbLine
 62
7
  6
CONTINUOUS
 10
140.6912573321
 20
132.800569172
 11
137.3812042621
 21
130.2679215487
  0
LWPOLYLINE
  5
267
100
AcDbEntity
  8
RACCORDO
100
AcDbPolyline
 62
253
  6
CONTINUOUS
 90
21
 70
0
 10
141.9548194075
 20
130.779053184
 10
141.9594815586
 20
130.782496923
 10
141.9644244134
 20
130.7856751341
 10
141.9695877868
 20
130.7885442613
 10
141.97496185
 20
130.7910988429
 10
141.9805363733
 20
130.7933340162
 10
141.9863007452
 20
130.7952455265
 10
141.9922439928
 20
130.796829735
 10
141.9983548029
 20
130.7980836261
 10
142.0046215431
 20
130.7990048131
 10
142.0110322845
 20
130.7995915423
 10
142.0175748237
 20
130.7998426969
 10
142.0242367067
 20
130.7997577989
 10
142.0310052522
 20
130.7993370098
 10
142.0378675758
 20
130.7985811306
 10
142.0448106148
 20
130.7974916003
 10
142.0518211527
 20
130.7960704927
 10
142.0588858446
 20
130.7943205132
 10
142.0659912423
 20
130.7922449928
 10
142.0731238204
 20
130.7898478824
 10
142.0802700015
 20
130.7871337451
  0
LINE
  5
268
100
AcDbEntity
  8
ASSI
100
AcDbLine
 62
253
  6
CONTINUOUS
 10
149.9870556616
 20
86.8748267369
 11
149.6601128847
 21
86.8732768998
  0
LWPOLYLINE
  5
269
100
AcDbEntity
  8
ASSI
100
AcDbPolyline
 62
7
  6
CONTINUOUS
 90
10
 70
0
 10
148.6961110574
 20
86.1681477195
 10
148.7242653013
 20
86.1639790271
 10
148.7528783863
 20
86.1600877834
 10
148.7812129232
 20
86.1565730198
 10
148.8089403806
 20
86.1537967398
 10
148.8356762344
 20
86.1519233853
 10
148.8606800028
 20
86.1507825392
 10
148.8835710509
 20
86.1504816825
 10
148.9042961009
 20
86.1514033739
 10
148.9227044244
 20
86.1537651972
  0
LWPOLYLINE
  5
26A
100
AcDbEntity
  8
ASSI
100
AcDbPolyline
 62
7
  6
CONTINUOUS
 90
3
 70
0
 10
148.6185487686
 20
86.180612883
 10
148.6429542793
 20
86.1766459615
 10
148.6961110574
 20
86.1681477195
  0
LWPOLYLINE
  5
26B
100
AcDbEntity
  8
ASSI
100
AcDbPolyline
 62
7
  6
CONTINUOUS
 90
10
 70
0
 10
148.0794867563
 20
84.7059458171
 10
148.1044536202
 20
84.6976216072
 10
148.1313263002
 20
84.6923129565
 10
148.1593717737
 20
84.6905052351
 10
148.1878857883
 20
84.6924516272
 10
148.2158836286
 20
84.6981398485
 10
148.2430001887
 20
84.7074568147
 10
148.2686047817
 20
84.7200966959
 10
148.2917699505
 20
84.7352815911
 10
148.294537517
 20
84.7373674249
  0
LWPOLYLINE
  5
26C
100
AcDbEntity
  8
ASSI
100
AcDbPolyline
 62
253
  6
CONTINUOUS
 90
13
 70
0
 10
148.0294302019
 20
84.8204044699
 10
148.0515378433
 20
84.8126971782
 10
148.0751950597
 20
84.8066912087
 10
148.1000060022
 20
84.8024870575
 10
148.125555517
 20
84.8001550712
 10
148.151416092
 20
84.7997342702
 10
148.1771550103
 20
84.8012316958
 10
148.2023415906
 20
84.804622292
 10
148.2265543935
 20
84.8098493248
 10
148.2493882739
 20
84.8168253322
 10
148.2704611594
 20
84.8254335866
 10
148.2894204441
 20
84.8355300488
 10
148.305948888
 20
84.8469457779
  0
LWPOLYLINE
  5
26D
100
AcDbEntity
  8
ASSI
100
AcDbPolyline
 62
253
  6
CONTINUOUS
 90
13
 70
0
 10
148.0294302019
 20
85.1205011937
 10
148.0515378614
 20
85.1127938965
 10
148.0751950948
 20
85.106787925
 10
148.1000060518
 20
85.1025837747
 10
148.1255555778
 20
85.1002517915
 10
148.1514161597
 20
85.0998309952
 10
148.1771550797
 20
85.1013284261
 10
148.2023416562
 20
85.104719027
 10
148.2265544508
 20
85.1099460633
 10
148.2493883191
 20
85.1169220719
 10
148.27046119
 20
85.1255303245
 10
148.289420459
 20
85.1356267816
 10
148.305948888
 20
85.1470425017
  0
LINE
  5
26E
100
AcDbEntity
  8
ASSI
100
AcDbLine
 62
7
  6
CONTINUOUS
 10
148.0799036982
 20
84.7057759073
 11
146.7687673543
 21
85.2323578219
  0
LINE
  5
26F
100
AcDbEntity
  8
ASSI
100
AcDbLine
 62
253
  6
CONTINUOUS
 10
148.0294302019
 20
84.8204044699
 11
146.8541880244
 21
85.2924082236
  0
LINE
  5
270
100
AcDbEntity
  8
ASSI
100
AcDbLine
 62
253
  6
CONTINUOUS
 10
148.0294302019
 20
85.1205011937
 11
147.1258625191
 21
85.4833943455
  0
LINE
  5
271
100
AcDbEntity
  8
ASSI
100
AcDbLine
 62
253
  6
CONTINUOUS
 10
148.1014847152
 20
85.3564400389
 11
147.3656534671
 21
85.6519664571
  0
LWPOLYLINE
  5
272
100
AcDbEntity
  8
RACCORDO
100
AcDbPolyline
 62
253
  6
CONTINUOUS
 90
13
 70
0
 10
144.9776464758
 20
84.3413473023
 10
144.9438517548
 20
84.3561459525
 10
144.9104624995
 20
84.3770626346
 10
144.8795487663
 20
84.4033254002
 10
144.8512522814
 20
84.4348063785
 10
144.8256971787
 20
84.4713533898
 10
144.8030304424
 20
84.5127762043
 10
144.7833580842
 20
84.558867103
 10
144.7667622565
 20
84.6094041307
 10
144.7533355194
 20
84.664143452
 10
144.7431453642
 20
84.7228201046
 10
144.7362318631
 20
84.7851461939
 10
144.7326263798
 20
84.8508164636
  0
LWPOLYLINE
  5
273
100
AcDbEntity
  8
ASSI
100
AcDbPolyline
 62
253
  6
CONTINUOUS
 90
16
 70
0
 10
148.0794915738
 20
84.7059433293
 10
148.076683346
 20
84.7071886644
 10
148.0705067987
 20
84.7106233436
 10
148.0646922396
 20
84.7148644472
 10
148.0592656952
 20
84.7198932294
 10
148.0542413317
 20
84.7256967742
 10
148.0496399938
 20
84.7322522505
 10
148.0454785693
 20
84.7395354666
 10
148.0417711145
 20
84.747521609
 10
148.0385312025
 20
84.756181753
 10
148.0357702107
 20
84.7654853762
 10
148.0334979079
 20
84.7753992742
 10
148.031722614
 20
84.7858866809
 10
148.0304504359
 20
84.7969095973
 10
148.0296854819
 20
84.808429209
 10
148.0294302019
 20
84.8204044699
  0
LWPOLYLINE
  5
274
100
AcDbEntity
  8
RACCORDO
100
AcDbPolyline
 62
253
  6
CONTINUOUS
 90
28
 70
0
 10
127.6900551674
 20
91.6954972914
 10
128.272467102
 20
91.4286228543
 10
128.8569498931
 20
91.163370596
 10
129.4434898444
 20
90.8997451862
 10
130.0320167316
 20
90.6377762715
 10
130.6225728944
 20
90.3774430987
 10
131.2153151292
 20
90.1186759408
 10
131.810284142
 20
89.8614577612
 10
132.40741511
 20
89.6058172517
 10
133.0067084368
 20
89.3517547115
 10
133.6083228169
 20
89.0992044259
 10
134.2120763438
 20
88.8482445089
 10
134.8174533901
 20
88.5990869259
 10
135.4239698234
 20
88.3519224543
 10
136.0320717848
 20
88.1065607105
 10
136.6426428706
 20
87.8626450431
 10
137.2542269657
 20
87.6207546498
 10
137.868253113
 20
87.3803193291
 10
138.4899929572
 20
87.1393089342
 10
139.1185999207
 20
86.8981179195
 10
139.7549994178
 20
86.6564524015
 10
140.4072504241
 20
86.411361765
 10
141.0761236582
 20
86.1627334056
 10
141.7610952992
 20
85.9109358003
 10
142.468423581
 20
85.6538673734
 10
143.20034751
 20
85.3909825245
 10
143.9550180104
 20
85.1232304932
 10
144.7326263891
 20
84.8508164727
  0
LWPOLYLINE
  5
275
100
AcDbEntity
  8
ASSI
100
AcDbPolyline
 62
7
  6
CONTINUOUS
 90
6
 70
0
 10
135.5210689318
 20
131.4337267649
 10
135.5227893684
 20
131.4366833458
 10
135.5329641711
 20
131.4560015715
 10
135.5418488101
 20
131.476295938
 10
135.5491056558
 20
131.4967036448
 10
135.5548484341
 20
131.5173494356
  0
LINE
  5
276
100
AcDbEntity
  8
ASSI
100
AcDbLine
 62
253
  6
CONTINUOUS
 10
135.5145991441
 20
131.4711686376
 11
135.0792064791
 21
130.7327497828
  0
LINE
  5
277
100
AcDbEntity
  8
ASSI
100
AcDbLine
 62
7
  6
CONTINUOUS
 10
135.5210734995
 20
131.4337343436
 11
135.0792064791
 21
130.6843350877
  0
LWPOLYLINE
  5
278
100
AcDbEntity
  8
ASSI
100
AcDbPolyline
 62
253
  6
CONTINUOUS
 90
6
 70
0
 10
144.9540950283
 20
132.933082527
 10
144.9676663765
 20
132.9458856577
 10
144.9782031632
 20
132.9595465075
 10
144.9855250194
 20
132.9738313775
 10
144.9895065734
 20
132.9884958855
 10
144.9902632284
 20
132.9992384811
  0
LWPOLYLINE
  5
279
100
AcDbEntity
  8
ASSI
100
AcDbPolyline
 62
253
  6
CONTINUOUS
 90
13
 70
0
 10
139.9386083392
 20
129.0954176919
 10
139.92381942
 20
129.0815637818
 10
139.9093114609
 20
129.0652282191
 10
139.8953272194
 20
129.046684343
 10
139.8821006893
 20
129.026242443
 10
139.869853186
 20
129.0042445682
 10
139.858789643
 20
128.9810588032
 10
139.8490951827
 20
128.9570731089
 10
139.8409320189
 20
128.9326888304
 10
139.8344367425
 20
128.9083139822
 10
139.8297180363
 20
128.8843564207
 10
139.8268548561
 20
128.8612170197
 10
139.8258951098
 20
128.8392829629
  0
LINE
  5
27A
100
AcDbEntity
  8
ASSI
100
AcDbLine
 62
7
  6
CONTINUOUS
 10
140.1433651601
 20
127.6938500514
 11
140.3217795626
 21
127.8477299559
  0
LINE
  5
27B
100
AcDbEntity
  8
ASSI
100
AcDbLine
 62
7
  6
CONTINUOUS
 10
140.3217795626
 20
127.8477299559
 11
140.8708310917
 21
128.3132189835
  0
LINE
  5
27C
100
AcDbEntity
  8
ASSI
100
AcDbLine
 62
253
  6
CONTINUOUS
 10
140.1170227417
 20
129.2406081822
 11
140.642857185
 21
129.6743144895
  0
LINE
  5
27D
100
AcDbEntity
  8
ASSI
100
AcDbLine
 62
253
  6
CONTINUOUS
 10
140.3217795626
 20
128.9536164059
 11
140.8512764253
 21
129.3903434632
  0
LINE
  5
27E
100
AcDbEntity
  8
ASSI
100
AcDbLine
 62
7
  6
CONTINUOUS
 10
143.6436484876
 20
132.2611488041
 11
142.766587575
 21
131.5427025646
  0
LINE
  5
27F
100
AcDbEntity
  8
RACCORDO
100
AcDbLine
 62
7
  6
CONTINUOUS
 10
141.9058801614
 20
130.7389866517
 11
141.9535325467
 21
130.7780212006
  0
LINE
  5
280
100
AcDbEntity
  8
RACCORDO
100
AcDbLine
 62
253
  6
CONTINUOUS
 10
142.0267038489
 20
130.7432549217
 11
142.0802700015
 21
130.7871337451
  0
LINE
  5
281
100
AcDbEntity
  8
ASSI
100
AcDbLine
 62
7
  6
CONTINUOUS
 10
141.6759431419
 20
128.5359686593
 11
141.6817096597
 21
128.5406916503
  0
LINE
  5
282
100
AcDbEntity
  8
ASSI
100
AcDbLine
 62
253
  6
CONTINUOUS
 10
139.9386083392
 20
129.0954176919
 11
140.1170227417
 21
129.2406081822
  0
LINE
  5
283
100
AcDbEntity
  8
ASSI
100
AcDbLine
 62
253
  6
CONTINUOUS
 10
140.1433651601
 20
128.8084259157
 11
140.3217795626
 21
128.9536164059
  0
LINE
  5
284
100
AcDbEntity
  8
RACCORDO
100
AcDbLine
 62
7
  6
CONTINUOUS
 10
148.9069834144
 20
136.3526265549
 11
146.8054284657
 21
134.6468236463
  0
LWPOLYLINE
  5
285
100
AcDbEntity
  8
RACCORDO
100
AcDbPolyline
 62
253
  6
CONTINUOUS
 90
55
 70
0
 10
142.0802700015
 20
130.7871337451
 10
142.0931188389
 20
130.7973649874
 10
142.1064175595
 20
130.8073823552
 10
142.1201661635
 20
130.8171858487
 10
142.1343759948
 20
130.8267826786
 10
142.1490357094
 20
130.8361656342
 10
142.1641112749
 20
130.8453130832
 10
142.1796034183
 20
130.8542242267
 10
142.1955114125
 20
130.8628998636
 10
142.2117990443
 20
130.8713207584
 10
142.2284671112
 20
130.8794862425
 10
142.2455148156
 20
130.8873969845
 10
142.2629035507
 20
130.8950357548
 10
142.2806340116
 20
130.902401872
 10
142.2987055032
 20
130.9094960175
 10
142.317077334
 20
130.9163030063
 10
142.3357501776
 20
130.9228221628
 10
142.3547233604
 20
130.9290541625
 10
142.3739541697
 20
130.9349858473
 10
142.3934430654
 20
130.9406164855
 10
142.4131895876
 20
130.9459468087
 10
142.4331496438
 20
130.9509658541
 10
142.453323618
 20
130.9556728927
 10
142.4737111263
 20
130.9600686534
 10
142.4942669237
 20
130.9641443606
 10
142.5149912239
 20
130.967899272
 10
142.5358838133
 20
130.9713341298
 10
142.5568988065
 20
130.9744423847
 10
142.5780363741
 20
130.9772233092
 10
142.5992963455
 20
130.9796776307
 10
142.6206323242
 20
130.9818009827
 10
142.6420443159
 20
130.9835926385
 10
142.6635323147
 20
130.9850533246
 10
142.6850499071
 20
130.9861808542
 10
142.7065970668
 20
130.9869745171
 10
142.7281738199
 20
130.9874350233
 10
142.7497338315
 20
130.9875623166
 10
142.7712769125
 20
130.9873557012
 10
142.7928032518
 20
130.9868158727
 10
142.8142670815
 20
130.9859448618
 10
142.8356681263
 20
130.9847420008
 10
142.8570066614
 20
130.9832079574
 10
142.8782377439
 20
130.981346765
 10
142.8993610222
 20
130.9791577851
 10
142.920376848
 20
130.9766416562
 10
142.9412413339
 20
130.9738043269
 10
142.9619541945
 20
130.9706451618
 10
142.9825157152
 20
130.9671647963
 10
143.0028828648
 20
130.9633710851
 10
143.0230553237
 20
130.9592633695
 10
143.0430334115
 20
130.9548423082
 10
143.0627750552
 20
130.9501177325
 10
143.0822662307
 20
130.9450929192
 10
143.1015209621
 20
130.9397645915
 10
143.1205392495
 20
130.9341327493
  0
LINE
  5
286
100
AcDbEntity
  8
ASSI
100
AcDbLine
 62
253
  6
CONTINUOUS
 10
144.491805171
 20
133.2235805973
 11
142.7679893275
 21
131.8553819129
  0
LWPOLYLINE
  5
287
100
AcDbEntity
  8
RACCORDO
100
AcDbPolyline
 62
7
  6
CONTINUOUS
 90
25
 70
0
 10
141.9058717844
 20
130.7389797897
 10
141.9078784894
 20
130.7405632044
 10
141.9114959697
 20
130.7431370871
 10
141.9152988862
 20
130.7455019541
 10
141.9192815519
 20
130.7476538249
 10
141.923437903
 20
130.7495889184
 10
141.927763424
 20
130.7513052406
 10
141.9322517367
 20
130.7527997671
 10
141.9368960977
 20
130.7540696805
 10
141.9416911164
 20
130.7551137979
 10
141.9466297975
 20
130.7559300993
 10
141.9517048014
 20
130.756516775
 10
141.9569099339
 20
130.7568734794
 10
141.9622376643
 20
130.7569992308
 10
141.9676801524
 20
130.7568932573
 10
141.9732305009
 20
130.7565560591
 10
141.9788807426
 20
130.7559877105
 10
141.9846226324
 20
130.7551884891
 10
141.990448671
 20
130.7541597294
 10
141.9963505503
 20
130.7529025642
 10
142.0023197294
 20
130.7514183184
 10
142.0083482281
 20
130.7497091294
 10
142.0144276246
 20
130.7477772163
 10
142.0205490667
 20
130.7456248871
 10
142.0267038489
 20
130.7432549217
  0
LINE
  5
288
100
AcDbEntity
  8
ASSI
100
AcDbLine
 62
7
  6
CONTINUOUS
 10
142.2358333463
 20
128.964672813
 11
141.6817524946
 21
128.5407244249
  0
LINE
  5
289
100
AcDbEntity
  8
ASSI
100
AcDbLine
 62
253
  6
CONTINUOUS
 10
142.3899007797
 20
128.9726623957
 11
141.8371796543
 21
128.549754386
  0
LWPOLYLINE
  5
28A
100
AcDbEntity
  8
ASSI
100
AcDbPolyline
 62
253
  6
CONTINUOUS
 90
13
 70
0
 10
140.1433651601
 20
128.8084259157
 10
140.1268367161
 20
128.7970101866
 10
140.1078774315
 20
128.7869137244
 10
140.0868045459
 20
128.77830547
 10
140.0639706656
 20
128.7713294626
 10
140.0397578626
 20
128.7661024298
 10
140.0145712824
 20
128.7627118336
 10
139.9888323641
 20
128.761214408
 10
139.962971789
 20
128.761635209
 10
139.9374222742
 20
128.7639671953
 10
139.9126113317
 20
128.7681713465
 10
139.8889541153
 20
128.774177316
 10
139.8668464739
 20
128.7818846077
  0
LWPOLYLINE
  5
28B
100
AcDbEntity
  8
ASSI
100
AcDbPolyline
 62
7
  6
CONTINUOUS
 90
3
 70
0
 10
141.6817096597
 20
128.5406916503
 10
141.6923909352
 20
128.5479366981
 10
141.7125293484
 20
128.5575095548
  0
LWPOLYLINE
  5
28C
100
AcDbEntity
  8
ASSI
100
AcDbPolyline
 62
7
  6
CONTINUOUS
 90
4
 70
0
 10
147.2694324347
 20
130.2267330766
 10
147.2337553949
 20
130.2078326524
 10
147.2013313821
 20
130.1857827348
 10
147.1964053722
 20
130.1819389109
  0
LWPOLYLINE
  5
28D
100
AcDbEntity
  8
ASSI
100
AcDbPolyline
 62
7
  6
CONTINUOUS
 90
3
 70
0
 10
149.7192954133
 20
131.3867410449
 10
149.6683073509
 20
131.3615499613
 10
149.6168903343
 20
131.3301598013
  0
LWPOLYLINE
  5
28E
100
AcDbEntity
  8
ASSI
100
AcDbPolyline
 62
7
  6
CONTINUOUS
 90
5
 70
0
 10
147.4398661989
 20
127.2428486705
 10
147.4133457974
 20
127.2341256173
 10
147.3882341806
 20
127.2222305102
 10
147.3652901997
 20
127.20779216
 10
147.3588088576
 20
127.2030063135
  0
LWPOLYLINE
  5
28F
100
AcDbEntity
  8
ASSI
100
AcDbPolyline
 62
253
  6
CONTINUOUS
 90
5
 70
0
 10
150.0081618409
 20
86.8708808271
 10
150.006099923
 20
86.8716489883
 10
150.0001406903
 20
86.8733639059
 10
149.9937920475
 20
86.8744405867
 10
149.9870556616
 20
86.8748267369
  0
LINE
  5
290
100
AcDbEntity
  8
ASSI
100
AcDbLine
 62
7
  6
CONTINUOUS
 10
148.2949352673
 20
86.3052479785
 11
148.5770560668
 21
86.1919419052
  0
LINE
  5
291
100
AcDbEntity
  8
ASSI
100
AcDbLine
 62
253
  6
CONTINUOUS
 10
149.6601128937
 20
87.0061343232
 11
149.9870556616
 21
86.8748267369
  0
LINE
  5
292
100
AcDbEntity
  8
ASSI
100
AcDbLine
 62
7
  6
CONTINUOUS
 10
150.0084984416
 20
86.8707463597
 11
149.660112894
 21
87.0106659139
  0
LWPOLYLINE
  5
293
100
AcDbEntity
  8
ASSI
100
AcDbPolyline
 62
253
  6
CONTINUOUS
 90
13
 70
0
 10
148.1014847152
 20
85.3564400389
 10
148.1230386805
 20
85.3467768418
 10
148.1451984785
 20
85.335671412
 10
148.1675891442
 20
85.3233116642
 10
148.1898318059
 20
85.3099067372
 10
148.2115500961
 20
85.2956834554
 10
148.2323765205
 20
85.2808824905
 10
148.2519586759
 20
85.265754289
 10
148.2699652132
 20
85.2505548348
 10
148.2860914445
 20
85.2355413172
 10
148.3000644983
 20
85.2209677796
 10
148.311647937
 20
85.2070808203
 10
148.3206457577
 20
85.1941154199
  0
LWPOLYLINE
  5
294
100
AcDbEntity
  8
RACCORDO
100
AcDbPolyline
 62
253
  6
CONTINUOUS
 90
11
 70
0
 10
127.6900551544
 20
91.6954972875
 10
127.6939795573
 20
91.6296989287
 10
127.7013481398
 20
91.5671900665
 10
127.712120603
 20
91.5082795454
 10
127.7262310504
 20
91.4532656318
 10
127.743610896
 20
91.4024137267
 10
127.7641916777
 20
91.3559579861
 10
127.787864401
 20
91.3141311452
 10
127.8145067443
 20
91.2771474741
 10
127.8440077964
 20
91.2451827148
 10
127.8762094145
 20
91.218402706
  0
LWPOLYLINE
  5
295
100
AcDbEntity
  8
RACCORDO
100
AcDbPolyline
 62
7
  6
CONTINUOUS
 90
14
 70
0
 10
127.5035704466
 20
91.9211594487
 10
127.504585095
 20
91.8957912735
 10
127.5124514981
 20
91.8061710301
 10
127.526578148
 20
91.7221385146
 10
127.5466540059
 20
91.6435709934
 10
127.5724591288
 20
91.5701656633
 10
127.6038187497
 20
91.5018130845
 10
127.6404068657
 20
91.4387278105
 10
127.6819395435
 20
91.3809878172
 10
127.7281386173
 20
91.3287127138
 10
127.7784571481
 20
91.2822808663
 10
127.8323930805
 20
91.2418802209
 10
127.8896034277
 20
91.2075676221
 10
127.9241932641
 20
91.1904772796
  0
LWPOLYLINE
  5
296
100
AcDbEntity
  8
RACCORDO
100
AcDbPolyline
 62
7
  6
CONTINUOUS
 90
13
 70
0
 10
127.5035375483
 20
126.0322621303
 10
127.4293405034
 20
123.1823316559
 10
127.3670449654
 20
120.2759661914
 10
127.3185787873
 20
117.3809633163
 10
127.2839515902
 20
114.4974956609
 10
127.2631677123
 20
111.6257124358
 10
127.2562302308
 20
108.7657538747
 10
127.2631413612
 20
105.9177657817
 10
127.2838994786
 20
103.0818906425
 10
127.3185020929
 20
100.2582638627
 10
127.3669454581
 20
97.4470276233
 10
127.429220544
 20
94.6483383879
 10
127.5035704466
 20
91.9211594487
  0
LWPOLYLINE
  5
297
100
AcDbEntity
  8
RACCORDO
100
AcDbPolyline
 62
253
  6
CONTINUOUS
 90
13
 70
0
 10
127.6900551726
 20
125.8124831929
 10
127.6123357406
 20
122.9068316866
 10
127.5487299105
 20
120.0119351785
 10
127.4992468146
 20
117.1279472517
 10
127.4638949249
 20
114.2549478621
 10
127.4426823502
 20
111.3931632739
 10
127.4356117894
 20
108.5429620205
 10
127.442682365
 20
105.7044915596
 10
127.4638949517
 20
102.8778978304
 10
127.4992468478
 20
100.0635405117
 10
127.548729942
 20
97.2616311037
 10
127.6123357601
 20
94.4722371572
 10
127.6900551674
 20
91.6954972914
  0
LWPOLYLINE
  5
298
100
AcDbEntity
  8
ASSI
100
AcDbPolyline
 62
253
  6
CONTINUOUS
 90
5
 70
0
 10
135.5210734995
 20
131.4337343436
 10
135.5234000562
 20
131.4400858868
 10
135.523404395
 20
131.4490457885
 10
135.5204541171
 20
131.4594654758
 10
135.5145991441
 20
131.4711686376
  0
LINE
  5
299
100
AcDbEntity
  8
RACCORDO
100
AcDbLine
 62
7
  6
CONTINUOUS
 10
141.8960411046
 20
130.7291170032
 11
140.8450602885
 21
129.4378116668
  0
LINE
  5
29A
100
AcDbEntity
  8
0
100
AcDbLine
 62
253
  6
CONTINUOUS
 10
142.0267038489
 20
130.7432549217
 11
140.8528977187
 21
129.3010381879
  0
LWPOLYLINE
  5
29B
100
AcDbEntity
  8
RACCORDO
100
AcDbPolyline
 62
7
  6
CONTINUOUS
 90
5
 70
0
 10
141.8960452156
 20
130.729121968
 10
141.8981810529
 20
130.7316229841
 10
141.9012159086
 20
130.7348013711
 10
141.904450031
 20
130.7377830698
 10
141.9058717844
 20
130.7389797897
  0
LWPOLYLINE
  5
29C
100
AcDbEntity
  8
ASSI
100
AcDbPolyline
 62
7
  6
CONTINUOUS
 90
9
 70
0
 10
141.5057499737
 20
128.3868905364
 10
141.4914649246
 20
128.3732658552
 10
141.4751845882
 20
128.3542707442
 10
141.4610369057
 20
128.3334239142
 10
141.4492416985
 20
128.3109724002
 10
141.4399409758
 20
128.2870823105
 10
141.4332973301
 20
128.2619669566
 10
141.4294765258
 20
128.2360716226
 10
141.4284954012
 20
128.2143780421
  0
LINE
  5
29D
100
AcDbEntity
  8
ASSI
100
AcDbLine
 62
7
  6
CONTINUOUS
 10
141.6758864446
 20
128.535919116
 11
141.5054162132
 21
128.386599507
  0
LINE
  5
29E
100
AcDbEntity
  8
ASSI
100
AcDbLine
 62
253
  6
CONTINUOUS
 10
141.8371796543
 20
128.549754386
 11
141.6674440793
 21
128.401078283
  0
LINE
  5
29F
100
AcDbEntity
  8
ASSI
100
AcDbLine
 62
253
  6
CONTINUOUS
 10
147.5655066979
 20
130.1098168201
 11
144.4175709742
 21
127.5134110584
  0
LINE
  5
2A0
100
AcDbEntity
  8
ASSI
100
AcDbLine
 62
253
  6
CONTINUOUS
 10
144.2391565717
 20
127.3682205682
 11
144.4175709742
 21
127.5134110584
  0
LINE
  5
2A1
100
AcDbEntity
  8
ASSI
100
AcDbLine
 62
7
  6
CONTINUOUS
 10
144.5726205706
 20
128.0960329194
 11
147.1963529788
 21
130.1819126591
  0
LINE
  5
2A2
100
AcDbEntity
  8
ASSI
100
AcDbLine
 62
253
  6
CONTINUOUS
 10
144.6683565807
 20
128.0575831794
 11
147.3544325626
 21
130.1930263567
  0
LINE
  5
2A3
100
AcDbEntity
  8
ASSI
100
AcDbLine
 62
7
  6
CONTINUOUS
 10
147.8347355772
 20
129.9172192325
 11
149.5628877229
 21
131.2906581266
  0
LINE
  5
2A4
100
AcDbEntity
  8
ASSI
100
AcDbLine
 62
253
  6
CONTINUOUS
 10
147.8797576092
 20
129.8613849202
 11
149.6893263655
 21
131.2995291933
  0
LWPOLYLINE
  5
2A5
100
AcDbEntity
  8
ASSI
100
AcDbPolyline
 62
253
  6
CONTINUOUS
 90
9
 70
0
 10
149.6893263655
 20
131.2995291933
 10
149.7316303481
 20
131.3309449084
 10
149.7735876214
 20
131.3576899269
 10
149.8149681572
 20
131.37961818
 10
149.855543089
 20
131.396610681
 10
149.8950909272
 20
131.4085743607
 10
149.9333987605
 20
131.4154424854
 10
149.9702543877
 20
131.4171784735
 10
150.0054547849
 20
131.4137731876
  0
LINE
  5
2A6
100
AcDbEntity
  8
ASSI
100
AcDbLine
 62
7
  6
CONTINUOUS
 10
149.6168903343
 20
131.3301598013
 11
149.5628586279
 21
131.290618987
  0
LWPOLYLINE
  5
2A7
100
AcDbEntity
  8
ASSI
100
AcDbPolyline
 62
253
  6
CONTINUOUS
 90
31
 70
0
 10
147.3544325626
 20
130.1930263567
 10
147.3627668198
 20
130.1989271056
 10
147.3719461369
 20
130.204211259
 10
147.3819705138
 20
130.2088788169
 10
147.3929699407
 20
130.2129694896
 10
147.4048144274
 20
130.2164435667
 10
147.4171140038
 20
130.2191819175
 10
147.4298796267
 20
130.2211581609
 10
147.4431003393
 20
130.222398678
 10
147.4563533017
 20
130.2228634808
 10
147.4696396257
 20
130.222527313
 10
147.4829581996
 20
130.221415431
 10
147.4958828476
 20
130.2195636161
 10
147.508400814
 20
130.2169480004
 10
147.5205248545
 20
130.2135924519
 10
147.5318670609
 20
130.2096043561
 10
147.5424020875
 20
130.2049632333
 10
147.55215528
 20
130.1996895632
 10
147.5608147679
 20
130.1939521704
 10
147.5683452717
 20
130.1877361054
 10
147.5747820709
 20
130.1810563177
 10
147.5799191329
 20
130.1741264802
 10
147.5837141052
 20
130.1669385091
 10
147.5862093403
 20
130.1595004883
 10
147.5873258631
 20
130.1520503425
 10
147.5870154001
 20
130.1445841904
 10
147.5853262248
 20
130.1371059133
 10
147.5823241825
 20
130.1298650808
 10
147.5780312214
 20
130.1229448826
 10
147.5724253932
 20
130.1162621291
 10
147.5655066979
 20
130.1098168201
  0
LWPOLYLINE
  5
2A8
100
AcDbEntity
  8
ASSI
100
AcDbPolyline
 62
253
  6
CONTINUOUS
 90
8
 70
0
 10
149.5628875755
 20
131.2906580094
 10
149.5738942407
 20
131.2981848238
 10
149.5901111647
 20
131.3057260334
 10
149.6079549992
 20
131.3103951656
 10
149.6271271138
 20
131.3121139811
 10
149.6473066792
 20
131.3108536553
 10
149.6681560587
 20
131.3066352169
 10
149.6893263643
 20
131.2995291925
  0
LWPOLYLINE
  5
2A9
100
AcDbEntity
  8
ASSI
100
AcDbPolyline
 62
253
  6
CONTINUOUS
 90
8
 70
0
 10
147.1963978715
 20
130.1819483309
 10
147.210781526
 20
130.1917130142
 10
147.2310093271
 20
130.2009784944
 10
147.2532374897
 20
130.2066906637
 10
147.2770982406
 20
130.2087551618
 10
147.3021967897
 20
130.2071379503
 10
147.3281178481
 20
130.2018659023
 10
147.3544325626
 20
130.1930263567
  0
LINE
  5
2AA
100
AcDbEntity
  8
0
100
AcDbLine
 62
7
  6
CONTINUOUS
 10
136.1040262168
 20
93.2617572142
 11
136.0508676203
 21
93.2808438134
  0
LINE
  5
2AB
100
AcDbEntity
  8
0
100
AcDbLine
 62
7
  6
CONTINUOUS
 10
136.0508676203
 20
93.2808438134
 11
136.0006371577
 21
93.2993558077
  0
LINE
  5
2AC
100
AcDbEntity
  8
0
100
AcDbLine
 62
7
  6
CONTINUOUS
 10
136.0006371577
 20
93.2993558077
 11
135.9534034626
 21
93.3171861577
  0
LINE
  5
2AD
100
AcDbEntity
  8
0
100
AcDbLine
 62
7
  6
CONTINUOUS
 10
135.9534034626
 20
93.3171861577
 11
135.9089669555
 21
93.334335007
  0
LINE
  5
2AE
100
AcDbEntity
  8
0
100
AcDbLine
 62
7
  6
CONTINUOUS
 10
135.9089669555
 20
93.334335007
 11
135.8665214399
 21
93.3510547664
  0
LINE
  5
2AF
100
AcDbEntity
  8
0
100
AcDbLine
 62
7
  6
CONTINUOUS
 10
135.8665214399
 20
93.3510547664
 11
135.8305730191
 21
93.3654748657
  0
LINE
  5
2B0
100
AcDbEntity
  8
0
100
AcDbLine
 62
7
  6
CONTINUOUS
 10
135.8305730191
 20
93.3654748657
 11
135.7985957056
 21
93.3785021992
  0
LINE
  5
2B1
100
AcDbEntity
  8
0
100
AcDbLine
 62
7
  6
CONTINUOUS
 10
135.7985957056
 20
93.3785021992
 11
135.7655521666
 21
93.3921617475
  0
LINE
  5
2B2
100
AcDbEntity
  8
0
100
AcDbLine
 62
7
  6
CONTINUOUS
 10
135.7655521666
 20
93.3921617475
 11
135.7304127252
 21
93.4069082678
  0
LINE
  5
2B3
100
AcDbEntity
  8
0
100
AcDbLine
 62
7
  6
CONTINUOUS
 10
135.8485021992
 20
93.3582531252
 11
135.5596370923
 21
93.4818378447
  0
LINE
  5
2B4
100
AcDbEntity
  8
0
100
AcDbLine
 62
7
  6
CONTINUOUS
 10
135.7304127252
 20
93.4069082678
 11
135.6929144302
 21
93.4228953392
  0
LINE
  5
2B5
100
AcDbEntity
  8
0
100
AcDbLine
 62
7
  6
CONTINUOUS
 10
135.6929144302
 20
93.4228953392
 11
135.6531179017
 21
93.4401452743
  0
LINE
  5
2B6
100
AcDbEntity
  8
0
100
AcDbLine
 62
7
  6
CONTINUOUS
 10
135.6531179017
 20
93.4401452743
 11
135.6110360215
 21
93.4587028415
  0
LINE
  5
2B7
100
AcDbEntity
  8
0
100
AcDbLine
 62
7
  6
CONTINUOUS
 10
135.6110360215
 20
93.4587028415
 11
135.5666682014
 21
93.478621496
  0
LINE
  5
2B8
100
AcDbEntity
  8
0
100
AcDbLine
 62
7
  6
CONTINUOUS
 10
135.5666682014
 20
93.478621496
 11
135.5199985444
 21
93.4999648134
  0
LINE
  5
2B9
100
AcDbEntity
  8
0
100
AcDbLine
 62
7
  6
CONTINUOUS
 10
135.5199985444
 20
93.4999648134
 11
135.4710228381
 21
93.5227944918
  0
LINE
  5
2BA
100
AcDbEntity
  8
0
100
AcDbLine
 62
7
  6
CONTINUOUS
 10
135.4710228381
 20
93.5227944918
 11
135.4197425121
 21
93.5471729121
  0
LWPOLYLINE
  5
2BB
100
AcDbEntity
  8
0
100
AcDbPolyline
 62
7
  6
CONTINUOUS
 90
29
 70
0
 10
135.5596370923
 20
93.4818378447
 10
135.2708760076
 20
93.6206704062
 10
134.984611132
 20
93.7736066868
 10
134.7008969509
 20
93.9407202046
 10
134.4196695563
 20
94.1219270928
 10
134.143121471
 20
94.3158293847
 10
133.8711911581
 20
94.5225854151
 10
133.6039195654
 20
94.7420185816
 10
133.3436304747
 20
94.9722106652
 10
133.0904394881
 20
95.2131596432
 10
132.8441949373
 20
95.4648381372
 10
132.6067981699
 20
95.7252729198
 10
132.3782209646
 20
95.9946030746
 10
132.1584449532
 20
96.2726529429
 10
131.9493666685
 20
96.5569617524
 10
131.7511200642
 20
96.8474371912
 10
131.5635131178
 20
97.1441267743
 10
131.3879367939
 20
97.4447663312
 10
131.2243856914
 20
97.7494827825
 10
131.0728047915
 20
98.0581030761
 10
130.9344977789
 20
98.3679027743
 10
130.8095918053
 20
98.678726238
 10
130.6979001069
 20
98.9906836344
 10
130.6002465745
 20
99.3014418933
 10
130.516669499
 20
99.6112031845
 10
130.4470827974
 20
99.9197289104
 10
130.3921183523
 20
100.224020089
 10
130.3519732744
 20
100.5230664583
 10
130.3264166564
 20
100.8178520855
  0
LINE
  5
2BC
100
AcDbEntity
  8
ASSI
100
AcDbLine
 62
253
  6
CONTINUOUS
 10
150.0080289111
 20
86.8646878453
 11
149.9870556616
 21
86.8748267369
  0
LINE
  5
2BD
100
AcDbEntity
  8
0
100
AcDbLine
 62
7
  6
CONTINUOUS
 10
135.4197425121
 20
93.5471729121
 11
135.3661584165
 21
93.5731659627
  0
LINE
  5
2BE
100
AcDbEntity
  8
0
100
AcDbLine
 62
7
  6
CONTINUOUS
 10
135.3661584165
 20
93.5731659627
 11
135.3102923172
 21
93.6008323828
  0
LWPOLYLINE
  5
2BF
100
AcDbEntity
  8
0
100
AcDbPolyline
 62
7
  6
CONTINUOUS
 90
80
 70
0
 10
135.3102923172
 20
93.6008323828
 10
135.25210104
 20
93.630266781
 10
135.2221102331
 20
93.6456830474
 10
135.1914993501
 20
93.6615912555
 10
135.160098922
 20
93.6780918595
 10
135.1279174248
 20
93.6951947392
 10
135.0949526146
 20
93.7129157674
 10
135.061020167
 20
93.7313707608
 10
135.0261240519
 20
93.7505768288
 10
134.9902692405
 20
93.7705510676
 10
134.9532745012
 20
93.7914165736
 10
134.915145005
 20
93.8131954703
 10
134.8758871308
 20
93.8359099585
 10
134.8353231901
 20
93.8596914047
 10
134.7934403326
 20
93.8845795817
 10
134.7502671889
 20
93.9105908543
 10
134.7056904708
 20
93.9378290677
 10
134.6596034475
 20
93.9663997275
 10
134.6121340487
 20
93.9962653463
 10
134.563521306
 20
94.0273136917
 10
134.5137339345
 20
94.0596015333
 10
134.4628257151
 20
94.0931320176
 10
134.4111604287
 20
94.1276984127
 10
134.3587475462
 20
94.1633223939
 10
134.3055984523
 20
94.200025058
 10
134.2520751718
 20
94.2375801658
 10
134.1982976081
 20
94.275919472
 10
134.1441626407
 20
94.3151330855
 10
134.0896957145
 20
94.3552215685
 10
134.0350490926
 20
94.396087114
 10
133.9800945215
 20
94.437840464
 10
133.9244433501
 20
94.480803474
 10
133.8681253399
 20
94.5249855457
 10
133.8111490939
 20
94.5704131981
 10
133.7531056523
 20
94.61745728
 10
133.6940246508
 20
94.6661469726
 10
133.6339343797
 20
94.7165121881
 10
133.5724388769
 20
94.7689495397
 10
133.5095798151
 20
94.8235009562
 10
133.4454011482
 20
94.8802071479
 10
133.379529683
 20
94.9394882277
 10
133.3120207464
 20
95.0014019134
 10
133.2429383332
 20
95.0660002817
 10
133.1719427158
 20
95.133723214
 10
133.0990987558
 20
95.2046508599
 10
133.0244884066
 20
95.2788516183
 10
132.9478236175
 20
95.3567756116
 10
132.8691916602
 20
95.4385211272
 10
132.7887035361
 20
95.5241691052
 10
132.7061375916
 20
95.6141711261
 10
132.6216154574
 20
95.7086354111
 10
132.5352804883
 20
95.8076580046
 10
132.4469925188
 20
95.9116778909
 10
132.3569342306
 20
96.0207793921
 10
132.2653219007
 20
96.1350202849
 10
132.172121314
 20
96.2548033762
 10
132.0776351815
 20
96.3801251725
 10
131.9820964255
 20
96.5110838921
 10
131.8854364587
 20
96.6482447046
 10
131.7879362762
 20
96.7917348914
 10
131.6899446175
 20
96.9415807217
 10
131.591551785
 20
97.0982304212
 10
131.4932249188
 20
97.2615937063
 10
131.3952464467
 20
97.4319073965
 10
131.2975479609
 20
97.6101081191
 10
131.200615938
 20
97.7962492971
 10
131.1051187049
 20
97.9900726563
 10
131.0114521949
 20
98.1919370899
 10
130.9202622113
 20
98.4018096239
 10
130.832420285
 20
98.6192020268
 10
130.7486982981
 20
98.8438272552
 10
130.6698224296
 20
99.0755261722
 10
130.5965800181
 20
99.3140226577
 10
130.5298469182
 20
99.5587327847
 10
130.4704378645
 20
99.8091183559
 10
130.4192895252
 20
100.0641114867
 10
130.3774254765
 20
100.3219752414
 10
130.3456816734
 20
100.5818434558
 10
130.3247669421
 20
100.8439524516
 10
130.3154397631
 20
101.1083701291
  0
LINE
  5
2C0
100
AcDbEntity
  8
0
100
AcDbLine
 62
7
  6
CONTINUOUS
 10
130.3264166564
 20
100.8178520855
 11
130.3154397616
 21
101.1083702577
  0
LINE
  5
2C1
100
AcDbEntity
  8
0
100
AcDbLine
 62
7
  6
CONTINUOUS
 10
130.3154397631
 20
101.1083701291
 11
130.3112966423
 21
101.4556697269
  0
LINE
  5
2C2
100
AcDbEntity
  8
0
100
AcDbLine
 62
7
  6
CONTINUOUS
 10
130.3154397616
 20
101.1083702577
 11
130.3006824756
 21
102.4614431536
  0
LINE
  5
2C3
100
AcDbEntity
  8
0
100
AcDbLine
 62
7
  6
CONTINUOUS
 10
130.3112966423
 20
101.4556697269
 11
130.3056494477
 21
101.9662184181
  0
LWPOLYLINE
  5
2C4
100
AcDbEntity
  8
ASSI
100
AcDbPolyline
 62
7
  6
CONTINUOUS
 90
7
 70
0
 10
130.9716055464
 20
131.0953408344
 10
130.9716668297
 20
131.0896710794
 10
130.9733373575
 20
131.0656692942
 10
130.9776113478
 20
131.0408293165
 10
130.9846336555
 20
131.0162928526
 10
130.9944210829
 20
130.992599252
 10
131.007091034
 20
130.969876128
  0
LINE
  5
2C5
100
AcDbEntity
  8
0
100
AcDbLine
 62
7
  6
CONTINUOUS
 10
130.3056494477
 20
101.9662184181
 11
130.3007482034
 21
102.4539656715
  0
LINE
  5
2C6
100
AcDbEntity
  8
0
100
AcDbLine
 62
7
  6
CONTINUOUS
 10
130.3007482034
 20
102.4539656715
 11
130.2963191917
 21
102.9428460454
  0
LINE
  5
2C7
100
AcDbEntity
  8
0
100
AcDbLine
 62
7
  6
CONTINUOUS
 10
130.2963191917
 20
102.9428460454
 11
130.2923734281
 21
103.4321884996
  0
LINE
  5
2C8
100
AcDbEntity
  8
0
100
AcDbLine
 62
7
  6
CONTINUOUS
 10
130.3006824756
 20
102.4614431536
 11
130.2895805207
 21
103.8238743544
  0
LINE
  5
2C9
100
AcDbEntity
  8
0
100
AcDbLine
 62
7
  6
CONTINUOUS
 10
130.2923734281
 20
103.4321884996
 11
130.2889135358
 21
103.9216289835
  0
LINE
  5
2CA
100
AcDbEntity
  8
0
100
AcDbLine
 62
7
  6
CONTINUOUS
 10
130.2889135358
 20
103.9216289835
 11
130.2859391955
 21
104.4105321428
  0
LINE
  5
2CB
100
AcDbEntity
  8
0
100
AcDbLine
 62
7
  6
CONTINUOUS
 10
130.2859391955
 20
104.4105321428
 11
130.2834442753
 21
104.8987852071
  0
LINE
  5
2CC
100
AcDbEntity
  8
0
100
AcDbLine
 62
7
  6
CONTINUOUS
 10
130.2895805207
 20
103.8238743544
 11
130.2822202901
 21
105.1826193155
  0
LINE
  5
2CD
100
AcDbEntity
  8
0
100
AcDbLine
 62
7
  6
CONTINUOUS
 10
130.2834442753
 20
104.8987852071
 11
130.2814264448
 21
105.3865603954
  0
LINE
  5
2CE
100
AcDbEntity
  8
0
100
AcDbLine
 62
7
  6
CONTINUOUS
 10
130.2814264448
 20
105.3865603954
 11
130.2798843105
 21
105.8746436956
  0
LINE
  5
2CF
100
AcDbEntity
  8
0
100
AcDbLine
 62
7
  6
CONTINUOUS
 10
130.2798843105
 20
105.8746436956
 11
130.2788156332
 21
106.3633863203
  0
LINE
  5
2D0
100
AcDbEntity
  8
0
100
AcDbLine
 62
7
  6
CONTINUOUS
 10
130.2822202901
 20
105.1826193155
 11
130.2785466376
 21
106.5477210234
  0
LINE
  5
2D1
100
AcDbEntity
  8
0
100
AcDbLine
 62
7
  6
CONTINUOUS
 10
130.2788156332
 20
106.3633863203
 11
130.2782203383
 21
106.8528652301
  0
LINE
  5
2D2
100
AcDbEntity
  8
0
100
AcDbLine
 62
7
  6
CONTINUOUS
 10
130.2782203383
 20
106.8528652301
 11
130.2781004872
 21
107.3429099087
  0
LINE
  5
2D3
100
AcDbEntity
  8
ASSI
100
AcDbLine
 62
7
  6
CONTINUOUS
 10
130.9716052996
 20
131.0953009588
 11
130.9716052996
 21
131.3953976825
  0
LINE
  5
2D4
100
AcDbEntity
  8
ASSI
100
AcDbLine
 62
253
  6
CONTINUOUS
 10
131.0568900124
 20
131.0013316967
 11
131.0568900124
 21
131.3014284205
  0
LINE
  5
2D5
100
AcDbEntity
  8
0
100
AcDbLine
 62
7
  6
CONTINUOUS
 10
130.2781004872
 20
107.3429099087
 11
130.2784561324
 21
107.8333320588
  0
LINE
  5
2D6
100
AcDbEntity
  8
0
100
AcDbLine
 62
7
  6
CONTINUOUS
 10
130.2785466376
 20
106.5477210234
 11
130.2785742388
 21
107.9146844219
  0
LINE
  5
2D7
100
AcDbEntity
  8
0
100
AcDbLine
 62
7
  6
CONTINUOUS
 10
130.2784561324
 20
107.8333320588
 11
130.2792868885
 21
108.3240143421
  0
LINE
  5
2D8
100
AcDbEntity
  8
0
100
AcDbLine
 62
7
  6
CONTINUOUS
 10
130.2792868885
 20
108.3240143421
 11
130.2805906165
 21
108.8146723008
  0
LINE
  5
2D9
100
AcDbEntity
  8
0
100
AcDbLine
 62
7
  6
CONTINUOUS
 10
130.2785742388
 20
107.9146844219
 11
130.2822591241
 21
109.2770886485
  0
LINE
  5
2DA
100
AcDbEntity
  8
0
100
AcDbLine
 62
7
  6
CONTINUOUS
 10
130.2805906165
 20
108.8146723008
 11
130.2823697224
 21
109.3057053811
  0
LINE
  5
2DB
100
AcDbEntity
  8
0
100
AcDbLine
 62
7
  6
CONTINUOUS
 10
130.2823697224
 20
109.3057053811
 11
130.2846253615
 21
109.7974348156
  0
LINE
  5
2DC
100
AcDbEntity
  8
0
100
AcDbLine
 62
7
  6
CONTINUOUS
 10
130.2846253615
 20
109.7974348156
 11
130.2873586042
 21
110.2906968831
  0
LINE
  5
2DD
100
AcDbEntity
  8
0
100
AcDbLine
 62
7
  6
CONTINUOUS
 10
130.2822591241
 20
109.2770886485
 11
130.2896680793
 21
110.6507512184
  0
LINE
  5
2DE
100
AcDbEntity
  8
0
100
AcDbLine
 62
7
  6
CONTINUOUS
 10
130.2873586042
 20
110.2906968831
 11
130.2905756795
 21
110.7852996063
  0
LINE
  5
2DF
100
AcDbEntity
  8
0
100
AcDbLine
 62
7
  6
CONTINUOUS
 10
130.2905756795
 20
110.7852996063
 11
130.2942785318
 21
111.2810391306
  0
LINE
  5
2E0
100
AcDbEntity
  8
0
100
AcDbLine
 62
7
  6
CONTINUOUS
 10
130.2896680793
 20
110.6507512184
 11
130.3006824639
 21
112.018399607
  0
LINE
  5
2E1
100
AcDbEntity
  8
0
100
AcDbLine
 62
7
  6
CONTINUOUS
 10
130.2942785318
 20
111.2810391306
 11
130.2984690833
 21
111.7773468122
  0
LINE
  5
2E2
100
AcDbEntity
  8
0
100
AcDbLine
 62
7
  6
CONTINUOUS
 10
130.2984690833
 20
111.7773468122
 11
130.3031363272
 21
112.2735734338
  0
LINE
  5
2E3
100
AcDbEntity
  8
0
100
AcDbLine
 62
7
  6
CONTINUOUS
 10
130.3006824639
 20
112.018399607
 11
130.3154397615
 21
113.3956506583
  0
LINE
  5
2E4
100
AcDbEntity
  8
0
100
AcDbLine
 62
7
  6
CONTINUOUS
 10
130.3031363272
 20
112.2735734338
 11
130.3090079342
 21
112.8365772148
  0
LINE
  5
2E5
100
AcDbEntity
  8
0
100
AcDbLine
 62
7
  6
CONTINUOUS
 10
130.3090079342
 20
112.8365772148
 11
130.3137313274
 21
113.252101386
  0
LWPOLYLINE
  5
2E6
100
AcDbEntity
  8
ASSI
100
AcDbPolyline
 62
253
  6
CONTINUOUS
 90
28
 70
0
 10
131.0568900124
 20
131.3014284205
 10
131.0570568815
 20
131.3114605931
 10
131.0575757285
 20
131.3220449913
 10
131.0584750192
 20
131.3331766733
 10
131.0597864469
 20
131.3448735569
 10
131.0615356393
 20
131.3570943849
 10
131.0637325831
 20
131.3697338054
 10
131.0663939089
 20
131.3827632396
 10
131.0695345844
 20
131.3961487288
 10
131.0731427805
 20
131.409763916
 10
131.0772210928
 20
131.4235657657
 10
131.0817698146
 20
131.4375068574
 10
131.086753893
 20
131.4514483765
 10
131.0921580241
 20
131.4653319694
 10
131.0979712246
 20
131.4791145628
 10
131.1041487849
 20
131.4926822409
 10
131.1106604658
 20
131.5059707892
 10
131.1174900283
 20
131.5189489714
 10
131.1246057839
 20
131.5315574188
 10
131.1319775693
 20
131.5437463725
 10
131.139581728
 20
131.5554802096
 10
131.1473945049
 20
131.5667237002
 10
131.1553880167
 20
131.5774383003
 10
131.1635332111
 20
131.5875865817
 10
131.1718042034
 20
131.5971367159
 10
131.180172633
 20
131.6060563316
 10
131.1886076024
 20
131.6143132988
 10
131.1970791086
 20
131.6218789477
  0
LWPOLYLINE
  5
2E7
100
AcDbEntity
  8
0
100
AcDbPolyline
 62
7
  6
CONTINUOUS
 90
17
 70
0
 10
130.3154397631
 20
113.3956507935
 10
130.3259250285
 20
113.6791050374
 10
130.3496048102
 20
113.947123284
 10
130.3854026732
 20
114.2007127133
 10
130.4322911567
 20
114.4408757304
 10
130.4891000561
 20
114.6674427464
 10
130.5545136052
 20
114.8797079855
 10
130.6273152536
 20
115.0775336164
 10
130.7064577364
 20
115.2613633635
 10
130.7908875803
 20
115.4317074924
 10
130.8794978011
 20
115.5889530104
 10
130.9714852719
 20
115.7339669265
 10
131.0663511757
 20
115.867888955
 10
131.1632016344
 20
115.9911160478
 10
131.2612772475
 20
116.1041619741
 10
131.3604671377
 20
116.2081297221
 10
131.4226149542
 20
116.2685422178
  0
LWPOLYLINE
  5
2E8
100
AcDbEntity
  8
0
100
AcDbPolyline
 62
7
  6
CONTINUOUS
 90
14
 70
0
 10
130.3154397615
 20
113.3956506583
 10
130.3264217922
 20
113.6854090945
 10
130.3519636445
 20
113.9666769279
 10
130.392073978
 20
114.2394609232
 10
130.4469854081
 20
114.5045956939
 10
130.516498912
 20
114.7612725849
 10
130.599977121
 20
115.0070343862
 10
130.6975001871
 20
115.2416095619
 10
130.8090355391
 20
115.4653059547
 10
130.9337713842
 20
115.676531114
 10
131.0718984745
 20
115.8753104567
 10
131.2232856059
 20
116.0616640709
 10
131.3866292107
 20
116.2339846303
 10
131.4225652085
 20
116.2684659165
  0
LWPOLYLINE
  5
2E9
100
AcDbEntity
  8
ASSI
100
AcDbPolyline
 62
7
  6
CONTINUOUS
 90
3
 70
0
 10
135.5548484341
 20
131.5173494356
 10
135.5591366458
 20
131.5386009643
 10
135.5617837667
 20
131.5598143832
  0
LWPOLYLINE
  5
2EA
100
AcDbEntity
  8
RACCORDO
100
AcDbPolyline
 62
7
  6
CONTINUOUS
 90
18
 70
0
 10
142.4310234865
 20
134.6973831151
 10
142.4321568802
 20
134.6994466435
 10
142.4454224505
 20
134.7213365593
 10
142.4598397287
 20
134.7430806657
 10
142.4753779597
 20
134.7647389614
 10
142.4919029429
 20
134.786112088
 10
142.5093876818
 20
134.8072384123
 10
142.527823144
 20
134.8282231793
 10
142.5470897706
 20
134.8489895893
 10
142.567171204
 20
134.8695943886
 10
142.588039312
 20
134.8901038533
 10
142.6095537004
 20
134.9104555831
 10
142.6317183587
 20
134.9307031637
 10
142.6544918574
 20
134.9508785391
 10
142.6776685624
 20
134.9708772506
 10
142.7011732765
 20
134.9906780782
 10
142.7250608908
 20
135.0103442567
 10
142.7493257035
 20
135.0298872617
  0
LWPOLYLINE
  5
2EB
100
AcDbEntity
  8
0
100
AcDbPolyline
 62
7
  6
CONTINUOUS
 90
4
 70
0
 10
131.4226149542
 20
116.2685422178
 10
131.4602565875
 20
116.3035009126
 10
131.5600505865
 20
116.390666911
 10
131.6598101399
 20
116.4704575228
  0
LWPOLYLINE
  5
2EC
100
AcDbEntity
  8
0
100
AcDbPolyline
 62
7
  6
CONTINUOUS
 90
4
 70
0
 10
131.4225652085
 20
116.2684659165
 10
131.5619797522
 20
116.3921094789
 10
131.7493470464
 20
116.5362477096
 10
131.94735377
 20
116.6653398152
  0
LINE
  5
2ED
100
AcDbEntity
  8
ASSI
100
AcDbLine
 62
7
  6
CONTINUOUS
 10
146.9097668058
 20
126.8591736419
 11
145.648207598
 21
125.7541389029
  0
LINE
  5
2EE
100
AcDbEntity
  8
ASSI
100
AcDbLine
 62
7
  6
CONTINUOUS
 10
144.6223277951
 20
126.1205328321
 11
144.4439133926
 21
125.9666529277
  0
LWPOLYLINE
  5
2EF
100
AcDbEntity
  8
ASSI
100
AcDbPolyline
 62
7
  6
CONTINUOUS
 90
16
 70
0
 10
147.7198630981
 20
129.1294840121
 10
147.7255095504
 20
129.1343205667
 10
147.7489354843
 20
129.1583356111
 10
147.7686350599
 20
129.1856343819
 10
147.7847269199
 20
129.2165277684
 10
147.7970924218
 20
129.2507048813
 10
147.8053756373
 20
129.2872330532
 10
147.8094579236
 20
129.326275742
 10
147.8094579236
 20
129.3676694898
 10
147.8053756373
 20
129.4099912552
 10
147.7970924218
 20
129.4531728792
 10
147.7847269199
 20
129.4972825208
 10
147.7686350599
 20
129.5411016148
 10
147.7489354843
 20
129.584223973
 10
147.7255095504
 20
129.6270557836
 10
147.6983572584
 20
129.6695970467
  0
LINE
  5
2F0
100
AcDbEntity
  8
ASSI
100
AcDbLine
 62
253
  6
CONTINUOUS
 10
147.7702635188
 20
129.8228250438
 11
144.6223277951
 21
127.2264192821
  0
LINE
  5
2F1
100
AcDbEntity
  8
ASSI
100
AcDbLine
 62
7
  6
CONTINUOUS
 10
144.6223277951
 20
126.1205328321
 11
147.7604693982
 21
128.7088604393
  0
LINE
  5
2F2
100
AcDbEntity
  8
ASSI
100
AcDbLine
 62
7
  6
CONTINUOUS
 10
147.719542141
 20
129.1290157546
 11
146.8068282676
 21
128.3777672446
  0
LINE
  5
2F3
100
AcDbEntity
  8
ASSI
100
AcDbLine
 62
7
  6
CONTINUOUS
 10
146.9098121636
 20
126.8592132765
 11
146.9144253779
 21
126.8629916693
  0
LINE
  5
2F4
100
AcDbEntity
  8
ASSI
100
AcDbLine
 62
253
  6
CONTINUOUS
 10
144.4439133926
 20
127.0812287919
 11
144.6223277951
 21
127.2264192821
  0
LINE
  5
2F5
100
AcDbEntity
  8
RACCORDO
100
AcDbLine
 62
7
  6
CONTINUOUS
 10
156.5838734502
 20
133.269414445
 11
154.4209421917
 21
131.5882616462
  0
LINE
  5
2F6
100
AcDbEntity
  8
ASSI
100
AcDbLine
 62
7
  6
CONTINUOUS
 10
147.3587370241
 20
127.2029514525
 11
146.9144596458
 21
126.863017889
  0
LINE
  5
2F7
100
AcDbEntity
  8
ASSI
100
AcDbLine
 62
253
  6
CONTINUOUS
 10
147.4822724224
 20
127.2095584679
 11
147.0388013736
 21
126.8702418579
  0
LWPOLYLINE
  5
2F8
100
AcDbEntity
  8
0
100
AcDbPolyline
 62
7
  6
CONTINUOUS
 90
5
 70
0
 10
131.6598101399
 20
116.4704575228
 10
131.7591723339
 20
116.5433352453
 10
131.8577212126
 20
116.6096948702
 10
131.9554423675
 20
116.6701560203
 10
132.0519673177
 20
116.725058932
  0
LWPOLYLINE
  5
2F9
100
AcDbEntity
  8
ASSI
100
AcDbPolyline
 62
7
  6
CONTINUOUS
 90
4
 70
0
 10
146.9144253779
 20
126.8629916693
 10
146.9229703983
 20
126.8687877076
 10
146.9390811289
 20
126.8764459929
 10
146.9568983304
 20
126.8811949272
  0
LWPOLYLINE
  5
2FA
100
AcDbEntity
  8
0
100
AcDbPolyline
 62
7
  6
CONTINUOUS
 90
46
 70
0
 10
131.94735377
 20
116.6653398152
 10
132.1562007434
 20
116.7793375206
 10
132.3757452578
 20
116.8783346881
 10
132.6040781003
 20
116.9614723379
 10
132.8412056115
 20
117.0286021467
 10
133.0871678479
 20
117.0799100328
 10
133.3400866393
 20
117.1150234066
 10
133.6001206363
 20
117.1338279742
 10
133.8671473822
 20
117.1364688323
 10
134.1388456686
 20
117.1229459165
 10
134.4151763755
 20
117.0931318621
 10
134.6961993259
 20
117.0471735693
 10
134.9797192584
 20
116.9854646933
 10
135.2657662792
 20
116.9078919799
 10
135.5543196308
 20
116.8145796464
 10
135.8430862104
 20
116.7062602749
 10
136.1321000338
 20
116.5827918824
 10
136.4213251337
 20
116.4443181799
 10
136.7083411808
 20
116.2919820748
 10
136.9930653455
 20
116.1256966263
 10
137.2755660857
 20
115.9455396326
 10
137.5536284235
 20
115.752883117
 10
137.8272852233
 20
115.5475427475
 10
138.09647978
 20
115.3296847293
 10
138.3588413779
 20
115.101188816
 10
138.614208371
 20
114.862018734
 10
138.8627055071
 20
114.6121803893
 10
139.1023714483
 20
114.3535995872
 10
139.3331792101
 20
114.0860925786
 10
139.5551108211
 20
113.809804698
 10
139.7662002131
 20
113.5271398066
 10
139.9662464667
 20
113.2381354463
 10
140.1553963448
 20
112.9427069424
 10
140.33218983
 20
112.6430616949
 10
140.4965637687
 20
112.3390165832
 10
140.6485260605
 20
112.0307061048
 10
140.7867111452
 20
111.720803937
 10
140.9109232184
 20
111.4094094197
 10
141.0213039095
 20
111.0963754758
 10
141.1169851581
 20
110.7839991041
 10
141.1978660484
 20
110.4720268606
 10
141.2640041269
 20
110.1606739422
 10
141.3147633901
 20
109.8529359901
 10
141.3499191901
 20
109.5498007215
 10
141.3696648807
 20
109.2502532949
 10
141.3739923595
 20
108.9542866297
  0
LWPOLYLINE
  5
2FB
100
AcDbEntity
  8
0
100
AcDbPolyline
 62
7
  6
CONTINUOUS
 90
59
 70
0
 10
132.0519673177
 20
116.725058932
 10
132.1469928798
 20
116.7747682907
 10
132.2406967741
 20
116.8198438039
 10
132.332801332
 20
116.8605607833
 10
132.4230666174
 20
116.8971974665
 10
132.5118183812
 20
116.9302172895
 10
132.5988642923
 20
116.9598368395
 10
132.6840402829
 20
116.9862762775
 10
132.7677964234
 20
117.0099169288
 10
132.8500246401
 20
117.0309360303
 10
132.93061601
 20
117.0495051102
 10
133.0100755866
 20
117.065910251
 10
133.0884350504
 20
117.0802951093
 10
133.1655153326
 20
117.0927589779
 10
133.2415385112
 20
117.1034608585
 10
133.3165299144
 20
117.1125102636
 10
133.3903500824
 20
117.1199931423
 10
133.4629800921
 20
117.1260114269
 10
133.5343520658
 20
117.1306579868
 10
133.6044145075
 20
117.1340239007
 10
133.6731759351
 20
117.1362004296
 10
133.7405868205
 20
117.13727183
 10
133.8066017935
 20
117.1373185876
 10
133.8712428556
 20
117.136417239
 10
133.9344675443
 20
117.1346423803
 10
133.9962437149
 20
117.1320661662
 10
134.056614986
 20
117.1287524067
 10
134.1155367746
 20
117.1247672496
 10
134.1729959278
 20
117.1201739653
 10
134.2290903348
 20
117.1150223359
 10
134.2838077135
 20
117.1093682785
 10
134.3371221042
 20
117.1032679496
 10
134.3891163874
 20
117.0967616752
 10
134.4397745819
 20
117.0898981161
 10
134.4890826516
 20
117.0827244186
 10
134.5371294
 20
117.075269908
 10
134.5838988637
 20
117.0675764605
 10
134.6293835829
 20
117.0596834797
 10
134.6736876413
 20
117.0516083916
 10
134.7167982334
 20
117.0433863228
 10
134.7587101183
 20
117.0350500454
 10
134.7995408884
 20
117.0266055583
 10
134.8392859298
 20
117.0180806443
 10
134.8779361325
 20
117.0095032658
 10
134.9156041058
 20
117.0008725617
 10
134.9522838272
 20
116.9922119046
 10
134.9879708718
 20
116.9835436898
 10
135.0227815535
 20
116.9748593823
 10
135.0567110912
 20
116.9661780223
 10
135.0897558273
 20
116.9575178852
 10
135.1220347364
 20
116.9488637056
 10
135.1535451149
 20
116.9402304438
 10
135.1842834108
 20
116.9316329041
 10
135.2143682742
 20
116.9230505055
 10
135.2438186491
 20
116.9144888519
 10
135.2726110168
 20
116.9059655061
 10
135.3008009523
 20
116.8974743171
 10
135.3284145103
 20
116.8890167613
 10
135.3554220908
 20
116.8806110011
  0
LWPOLYLINE
  5
2FC
100
AcDbEntity
  8
0
100
AcDbPolyline
 62
253
  6
CONTINUOUS
 90
13
 70
0
 10
130.3154397631
 20
101.1083701291
 10
131.1058321664
 20
100.6245774952
 10
131.9200446669
 20
100.1618087709
 10
132.7579774753
 20
99.7199822133
 10
133.6193598734
 20
99.2990966077
 10
134.5042537344
 20
98.8989820933
 10
135.4131018542
 20
98.5193397528
 10
136.345816666
 20
98.160135574
 10
137.3023724622
 20
97.8213107804
 10
138.2833992087
 20
97.5026066217
 10
139.2891261926
 20
97.2039526561
 10
140.3193255542
 20
96.9254204945
 10
141.373992361
 20
96.6670060966
  0
LWPOLYLINE
  5
2FD
100
AcDbEntity
  8
0
100
AcDbPolyline
 62
253
  6
CONTINUOUS
 90
13
 70
0
 10
130.3082777938
 20
101.7227243763
 10
131.0964143777
 20
101.2064243106
 10
131.9093524409
 20
100.7168035249
 10
132.7468460544
 20
100.2538533531
 10
133.6085162636
 20
99.8176296393
 10
134.494246032
 20
99.4080498244
 10
135.4042185843
 20
99.0249331728
 10
136.3381961662
 20
98.6683111722
 10
137.2959743004
 20
98.3381800106
 10
138.2778614736
 20
98.0343847384
 10
139.2838496587
 20
97.756923536
 10
140.3135701498
 20
97.5059000457
 10
141.3668303917
 20
97.2813603437
  0
LWPOLYLINE
  5
2FE
100
AcDbEntity
  8
ASSI
100
AcDbPolyline
 62
253
  6
CONTINUOUS
 90
9
 70
0
 10
130.9716054549
 20
131.3952547289
 10
130.9718948251
 20
131.3892273659
 10
130.9749543086
 20
131.3744925113
 10
130.9813042927
 20
131.3601074547
 10
130.9908385262
 20
131.346312897
 10
131.0033974765
 20
131.3333396589
 10
131.0187709994
 20
131.3214048179
 10
131.036701855
 20
131.3107080765
 10
131.0568900124
 20
131.3014284205
  0
LWPOLYLINE
  5
2FF
100
AcDbEntity
  8
ASSI
100
AcDbPolyline
 62
253
  6
CONTINUOUS
 90
9
 70
0
 10
130.9716052996
 20
131.0953009588
 10
130.9718948278
 20
131.089130613
 10
130.9749543181
 20
131.0743957581
 10
130.9813043082
 20
131.0600107035
 10
130.9908385456
 20
131.0462161498
 10
131.003397497
 20
131.0332429169
 10
131.0187710173
 20
131.0213080819
 10
131.0367018662
 20
131.0106113468
 10
131.0568900124
 20
131.0013316967
  0
LINE
  5
300
100
AcDbEntity
  8
ASSI
100
AcDbLine
 62
7
  6
CONTINUOUS
 10
131.5498111293
 20
130.3343599941
 11
131.5498111293
 21
130.709006195
  0
LINE
  5
301
100
AcDbEntity
  8
ASSI
100
AcDbLine
 62
253
  6
CONTINUOUS
 10
131.6564170202
 20
130.1660033107
 11
131.6564170202
 21
130.6661908658
  0
LINE
  5
302
100
AcDbEntity
  8
ASSI
100
AcDbLine
 62
7
  6
CONTINUOUS
 10
132.0339831744
 20
129.9224074458
 11
132.0339831744
 21
130.5129559923
  0
LINE
  5
303
100
AcDbEntity
  8
ASSI
100
AcDbLine
 62
253
  6
CONTINUOUS
 10
132.1405890654
 20
129.855899308
 11
132.1405890654
 21
130.5660937256
  0
LINE
  5
304
100
AcDbEntity
  8
ASSI
100
AcDbLine
 62
253
  6
CONTINUOUS
 10
132.3648247605
 20
129.7658411975
 11
132.3648247605
 21
130.4760356151
  0
LINE
  5
305
100
AcDbEntity
  8
ASSI
100
AcDbLine
 62
253
  6
CONTINUOUS
 10
132.7104731182
 20
129.6828468942
 11
132.7104731182
 21
130.2428581737
  0
LINE
  5
306
100
AcDbEntity
  8
ASSI
100
AcDbLine
 62
7
  6
CONTINUOUS
 10
133.153944167
 20
130.0647502027
 11
133.153944167
 21
129.6761829385
  0
LINE
  5
307
100
AcDbEntity
  8
ASSI
100
AcDbLine
 62
253
  6
CONTINUOUS
 10
133.4485238135
 20
130.040797644
 11
133.4485238135
 21
130.3408943678
  0
LINE
  5
308
100
AcDbEntity
  8
ASSI
100
AcDbLine
 62
253
  6
CONTINUOUS
 10
133.7250424997
 20
130.067338952
 11
133.7250424997
 21
130.3674356758
  0
LWPOLYLINE
  5
309
100
AcDbEntity
  8
ASSI
100
AcDbPolyline
 62
253
  6
CONTINUOUS
 90
28
 70
0
 10
133.7250424997
 20
130.3674356758
 10
133.7250684828
 20
130.3694666521
 10
133.7251792376
 20
130.3716009237
 10
133.725374764
 20
130.3738384905
 10
133.7256517195
 20
130.3761895263
 10
133.7260134466
 20
130.3786438573
 10
133.7264699736
 20
130.3811709628
 10
133.7270246137
 20
130.3837742398
 10
133.7276740537
 20
130.3864502914
 10
133.7284183815
 20
130.3891584055
 10
133.7292609313
 20
130.3919001
 10
133.730198369
 20
130.3946738571
 10
133.7312207805
 20
130.397434412
 10
133.7323298163
 20
130.4001793909
 10
133.7335238259
 20
130.4029111677
 10
133.7347879443
 20
130.4055915992
 10
133.7361223373
 20
130.4082175206
 10
133.7375268391
 20
130.4107920967
 10
133.7389860872
 20
130.4132866796
 10
133.7405005283
 20
130.415700011
 10
133.7420697157
 20
130.4180333493
 10
133.7436769467
 20
130.420261821
 10
133.7453226757
 20
130.4223843005
 10
133.7470064482
 20
130.4244019136
 10
133.7487101983
 20
130.4262931639
 10
133.7504279039
 20
130.428050886
 10
133.752165587
 20
130.4296822454
 10
133.7539232476
 20
130.4311872421
  0
LWPOLYLINE
  5
30A
100
AcDbEntity
  8
ASSI
100
AcDbPolyline
 62
253
  6
CONTINUOUS
 90
28
 70
0
 10
133.4485238135
 20
130.3408943678
 10
133.4486953888
 20
130.3510305411
 10
133.4492291808
 20
130.3617076103
 10
133.450152391
 20
130.3729190457
 10
133.4514952024
 20
130.3846813303
 10
133.4532819372
 20
130.3969517448
 10
133.4555214636
 20
130.4096234973
 10
133.4582289917
 20
130.4226670324
 10
133.4614176911
 20
130.4360476043
 10
133.4650739745
 20
130.4496381088
 10
133.4691984412
 20
130.4633934907
 10
133.473790157
 20
130.4772684504
 10
133.4788140559
 20
130.491130149
 10
133.4842522918
 20
130.504916571
 10
133.4900946571
 20
130.5185903071
 10
133.4963036033
 20
130.5320569824
 10
133.5028515853
 20
130.5452562506
 10
133.5097216307
 20
130.5581534756
 10
133.5168860278
 20
130.5706963603
 10
133.5243184839
 20
130.5828386146
 10
133.5319937759
 20
130.5945388497
 10
133.5398838647
 20
130.6057548088
 10
133.5479610848
 20
130.6164469254
 10
133.5561967285
 20
130.6265769818
 10
133.5645601002
 20
130.6361078778
 10
133.5730210914
 20
130.6450057082
 10
133.5815503543
 20
130.6532396044
 10
133.5901177909
 20
130.6607806631
  0
LWPOLYLINE
  5
30B
100
AcDbEntity
  8
ASSI
100
AcDbPolyline
 62
7
  6
CONTINUOUS
 90
12
 70
0
 10
145.6482692366
 20
125.7541926619
 10
145.6458195791
 20
125.7520193405
 10
145.6280482104
 20
125.7343552372
 10
145.6123509582
 20
125.7154468894
 10
145.5982108679
 20
125.6949022946
 10
145.5857182305
 20
125.6728876778
 10
145.5753184205
 20
125.6504044894
 10
145.5667245598
 20
125.6270547713
 10
145.5599091145
 20
125.6024702496
 10
145.5552869752
 20
125.5778276918
 10
145.5528810788
 20
125.5533000142
 10
145.5525119284
 20
125.5392096047
  0
LWPOLYLINE
  5
30C
100
AcDbEntity
  8
ASSI
100
AcDbPolyline
 62
253
  6
CONTINUOUS
 90
28
 70
0
 10
145.7779854969
 20
125.7658582233
 10
145.7711288798
 20
125.7597907359
 10
145.7640943134
 20
125.7530710421
 10
145.7569018438
 20
125.7456752421
 10
145.7495573919
 20
125.7375626781
 10
145.7421047841
 20
125.7287336546
 10
145.7346235357
 20
125.7192413323
 10
145.727143307
 20
125.7090865886
 10
145.7196964605
 20
125.6982752221
 10
145.7123641898
 20
125.6868935133
 10
145.7051787098
 20
125.674965221
 10
145.6981723702
 20
125.6625165777
 10
145.6914192043
 20
125.6496592628
 10
145.6849516628
 20
125.6364425364
 10
145.6787928784
 20
125.6229003087
 10
145.6729928123
 20
125.6091345877
 10
145.6675790714
 20
125.5952101575
 10
145.662565153
 20
125.5811607497
 10
145.6579727112
 20
125.5670461269
 10
145.6538191367
 20
125.5529197262
 10
145.6501184535
 20
125.5388290741
 10
145.6468839978
 20
125.5248253486
 10
145.6441272763
 20
125.5109580639
 10
145.6418583864
 20
125.4972773863
 10
145.6400856503
 20
125.4838346268
 10
145.6388152104
 20
125.4706784952
 10
145.6380512974
 20
125.4578550524
 10
145.6377964
 20
125.4454099429
  0
LINE
  5
30D
100
AcDbEntity
  8
ASSI
100
AcDbLine
 62
253
  6
CONTINUOUS
 10
147.0388013736
 20
126.8702418579
 11
145.7779854969
 21
125.7658582233
  0
LWPOLYLINE
  5
30E
100
AcDbEntity
  8
ASSI
100
AcDbPolyline
 62
253
  6
CONTINUOUS
 90
28
 70
0
 10
148.1710241793
 20
124.8047599387
 10
148.1636111265
 20
124.798277309
 10
148.1560750531
 20
124.7911269208
 10
148.1484389098
 20
124.7832968349
 10
148.140711377
 20
124.7747595791
 10
148.1329374758
 20
124.7655270298
 10
148.1251961733
 20
124.7556618312
 10
148.1175169937
 20
124.7451766201
 10
148.1099313165
 20
124.7340884479
 10
148.1025170607
 20
124.7224907239
 10
148.0953057383
 20
124.7104199867
 10
148.0883234191
 20
124.6979067245
 10
148.0816319991
 20
124.6850531971
 10
148.0752618417
 20
124.6719176313
 10
148.0692281586
 20
124.6585314445
 10
148.0635625201
 20
124.6449648849
 10
148.0582870693
 20
124.6312759754
 10
148.0534141079
 20
124.6175021208
 10
148.0489570394
 20
124.6036839755
 10
148.0449301063
 20
124.589868344
 10
148.0413464513
 20
124.5761033502
 10
148.038216619
 20
124.5624313325
 10
148.0355509006
 20
124.5488991063
 10
148.0333579051
 20
124.5355527653
 10
148.0316442349
 20
124.5224330314
 10
148.0304157241
 20
124.5095832869
 10
148.0296768449
 20
124.497049172
 10
148.0294302019
 20
124.4848736434
  0
LWPOLYLINE
  5
30F
100
AcDbEntity
  8
ASSI
100
AcDbPolyline
 62
253
  6
CONTINUOUS
 90
28
 70
0
 10
148.334829636
 20
124.5751665177
 10
148.3333090203
 20
124.5738846833
 10
148.3317735157
 20
124.5724658438
 10
148.3302231224
 20
124.5709099994
 10
148.3286486198
 20
124.5692125174
 10
148.3270592284
 20
124.5673780303
 10
148.3254826094
 20
124.5654204364
 10
148.3239186946
 20
124.5633350462
 10
148.3223675522
 20
124.5611265492
 10
148.3208570484
 20
124.5588229116
 10
148.3193887573
 20
124.5564215593
 10
148.3179611048
 20
124.5539250664
 10
148.3165972354
 20
124.5513691222
 10
148.3152999591
 20
124.5487548553
 10
148.3140664658
 20
124.5460811371
 10
148.3129114694
 20
124.5433802709
 10
148.311836841
 20
124.5406539968
 10
148.3108407095
 20
124.5379005747
 10
148.3099321761
 20
124.5351470878
 10
148.3091119832
 20
124.5323934975
 10
148.3083793883
 20
124.5296398424
 10
148.307741265
 20
124.5269133208
 10
148.3071984709
 20
124.5242142374
 10
148.3067501483
 20
124.5215422875
 10
148.3064005986
 20
124.5189237556
 10
148.3061512555
 20
124.516367403
 10
148.3060006853
 20
124.5138644683
 10
148.305948888
 20
124.5114149514
  0
LINE
  5
310
100
AcDbEntity
  8
ASSI
100
AcDbLine
 62
7
  6
CONTINUOUS
 10
156.7082205553
 20
131.7074052011
 11
157.5685852099
 21
132.4228976141
  0
LINE
  5
311
100
AcDbEntity
  8
ASSI
100
AcDbLine
 62
253
  6
CONTINUOUS
 10
149.9182061611
 20
126.2312325616
 11
149.4963074108
 21
125.8832520302
  0
LINE
  5
312
100
AcDbEntity
  8
ASSI
100
AcDbLine
 62
253
  6
CONTINUOUS
 10
150.0820116177
 20
126.0016391406
 11
149.6601128675
 21
125.6536586092
  0
LINE
  5
313
100
AcDbEntity
  8
RACCORDO
100
AcDbLine
 62
7
  6
CONTINUOUS
 10
154.872775959
 20
130.6241959774
 11
157.5651450782
 21
132.8296556453
  0
LINE
  5
314
100
AcDbEntity
  8
ASSI
100
AcDbLine
 62
253
  6
CONTINUOUS
 10
149.4963074108
 20
125.8832520302
 11
148.1710241793
 21
124.8047599387
  0
LINE
  5
315
100
AcDbEntity
  8
ASSI
100
AcDbLine
 62
253
  6
CONTINUOUS
 10
149.6601128675
 20
125.6536586092
 11
148.334829636
 21
124.5751665177
  0
LINE
  5
316
100
AcDbEntity
  8
ASSI
100
AcDbLine
 62
7
  6
CONTINUOUS
 10
156.7082205553
 20
131.7074052011
 11
154.872775959
 21
130.2267726289
  0
LINE
  5
317
100
AcDbEntity
  8
ASSI
100
AcDbLine
 62
7
  6
CONTINUOUS
 10
152.992570426
 20
129.9728719087
 11
148.8526840668
 21
126.7207675119
  0
LWPOLYLINE
  5
318
100
AcDbEntity
  8
ASSI
100
AcDbPolyline
 62
253
  6
CONTINUOUS
 90
13
 70
0
 10
148.305948888
 20
124.5114149514
 10
148.2894204441
 20
124.4999992224
 10
148.2704611594
 20
124.4899027601
 10
148.2493882739
 20
124.4812945057
 10
148.2265543935
 20
124.4743184984
 10
148.2023415906
 20
124.4690914655
 10
148.1771550103
 20
124.4657008694
 10
148.151416092
 20
124.4642034438
 10
148.125555517
 20
124.4646242447
 10
148.1000060022
 20
124.466956231
 10
148.0751950597
 20
124.4711603823
 10
148.0515378433
 20
124.4771663518
 10
148.0294302019
 20
124.4848736434
  0
LWPOLYLINE
  5
319
100
AcDbEntity
  8
ASSI
100
AcDbPolyline
 62
253
  6
CONTINUOUS
 90
13
 70
0
 10
148.305948888
 20
124.2113182276
 10
148.2894204438
 20
124.1999024983
 10
148.2704611588
 20
124.189806036
 10
148.249388273
 20
124.1811977815
 10
148.2265543924
 20
124.1742217742
 10
148.2023415893
 20
124.1689947414
 10
148.1771550089
 20
124.1656041454
 10
148.1514160907
 20
124.1641067199
 10
148.1255555158
 20
124.1645275209
 10
148.1000060012
 20
124.1668595073
 10
148.075195059
 20
124.1710636586
 10
148.0515378429
 20
124.177069628
 10
148.0294302019
 20
124.1847769196
  0
LWPOLYLINE
  5
31A
100
AcDbEntity
  8
ASSI
100
AcDbPolyline
 62
7
  6
CONTINUOUS
 90
5
 70
0
 10
150.0765056897
 20
86.8266023635
 10
150.0564932308
 20
86.8436829687
 10
150.0349192082
 20
86.8579154313
 10
150.0123457575
 20
86.8691539733
 10
150.0081649079
 20
86.8708787983
  0
LINE
  5
31B
100
AcDbEntity
  8
ASSI
100
AcDbLine
 62
253
  6
CONTINUOUS
 10
133.9961496784
 20
129.2735393088
 11
133.9961496784
 21
129.9045921787
  0
LINE
  5
31C
100
AcDbEntity
  8
ASSI
100
AcDbLine
 62
253
  6
CONTINUOUS
 10
134.3417980361
 20
130.0344242004
 11
134.3417980361
 21
129.317261121
  0
LINE
  5
31D
100
AcDbEntity
  8
ASSI
100
AcDbLine
 62
7
  6
CONTINUOUS
 10
135.0792064791
 20
129.9532654973
 11
135.0792064791
 21
131.5096793336
  0
LINE
  5
31E
100
AcDbEntity
  8
ASSI
100
AcDbLine
 62
253
  6
CONTINUOUS
 10
135.5285810962
 20
131.8400729349
 11
135.5285810962
 21
131.5185286829
  0
LINE
  5
31F
100
AcDbEntity
  8
ASSI
100
AcDbLine
 62
7
  6
CONTINUOUS
 10
135.5627734765
 20
131.9043385799
 11
135.5627735817
 21
131.5826766577
  0
LWPOLYLINE
  5
320
100
AcDbEntity
  8
ASSI
100
AcDbPolyline
 62
253
  6
CONTINUOUS
 90
19
 70
0
 10
135.5285810962
 20
131.5185286829
 10
135.5285557409
 20
131.516459132
 10
135.528446279
 20
131.5142800758
 10
135.5282527105
 20
131.5119915143
 10
135.5279786459
 20
131.5095834935
 10
135.5276204747
 20
131.5070659674
 10
135.5271673652
 20
131.5044687981
 10
135.5266161842
 20
131.5017881989
 10
135.525970065
 20
131.4990279565
 10
135.5252275748
 20
131.4962292925
 10
135.5243853418
 20
131.4933899435
 10
135.5234467379
 20
131.4905121729
 10
135.5224204458
 20
131.4876439931
 10
135.5213034143
 20
131.4847852493
 10
135.5200986946
 20
131.4819360963
 10
135.518824124
 20
131.479145011
 10
135.5174856483
 20
131.4764281522
 10
135.5160773216
 20
131.4737693611
 10
135.5145991441
 20
131.4711686376
  0
LINE
  5
321
100
AcDbEntity
  8
ASSI
100
AcDbLine
 62
7
  6
CONTINUOUS
 10
135.5617837667
 20
131.5598143832
 11
135.5627734553
 21
131.5826921657
  0
LWPOLYLINE
  5
322
100
AcDbEntity
  8
ASSI
100
AcDbPolyline
 62
253
  6
CONTINUOUS
 90
6
 70
0
 10
135.5627735817
 20
131.9042209095
 10
135.5622018505
 20
131.8955531539
 10
135.5585826762
 20
131.8808600875
 10
135.5516870891
 20
131.8665579104
 10
135.5416304711
 20
131.8528859366
 10
135.5285810962
 20
131.8400729349
  0
LWPOLYLINE
  5
323
100
AcDbEntity
  8
ASSI
100
AcDbPolyline
 62
253
  6
CONTINUOUS
 90
6
 70
0
 10
135.5627735817
 20
131.5826766551
 10
135.5622018457
 20
131.5740088662
 10
135.5585826654
 20
131.5593158058
 10
135.5516870762
 20
131.5450136372
 10
135.5416304613
 20
131.5313416735
 10
135.5285810962
 20
131.5185286829
  0
LWPOLYLINE
  5
324
100
AcDbEntity
  8
ASSI
100
AcDbPolyline
 62
7
  6
CONTINUOUS
 90
10
 70
0
 10
144.6223277951
 20
126.5973244185
 10
144.6384778088
 20
126.6292883023
 10
144.6505903191
 20
126.6634853639
 10
144.6586653259
 20
126.6999156034
 10
144.6627028294
 20
126.7389867709
 10
144.6627028294
 20
126.7802911162
 10
144.6586653259
 20
126.8226053886
 10
144.6505903191
 20
126.8655218376
 10
144.6384778088
 20
126.9094482136
 10
144.6223277951
 20
126.9543845166
  0
LWPOLYLINE
  5
325
100
AcDbEntity
  8
ASSI
100
AcDbPolyline
 62
253
  6
CONTINUOUS
 90
6
 70
0
 10
150.1094874845
 20
125.9840522105
 10
150.1225368489
 20
125.9968652001
 10
150.1325934634
 20
126.0105371629
 10
150.1394890528
 20
126.0248393308
 10
150.1431082337
 20
126.0395323906
 10
150.14367997
 20
126.0482001823
  0
LWPOLYLINE
  5
326
100
AcDbEntity
  8
ASSI
100
AcDbPolyline
 62
253
  6
CONTINUOUS
 90
6
 70
0
 10
150.1094874845
 20
125.6625079585
 10
150.1225368594
 20
125.6753209602
 10
150.1325934775
 20
125.688992934
 10
150.1394890645
 20
125.7032951111
 10
150.1431082388
 20
125.7179881776
 10
150.14367997
 20
125.7266559331
  0
LINE
  5
327
100
AcDbEntity
  8
DRAFT
100
AcDbLine
 62
7
  6
CONTINUOUS
 10
156.2191928354
 20
129.1948416531
 11
156.4832036221
 21
129.4312728226
  0
LINE
  5
328
100
AcDbEntity
  8
ASSI
100
AcDbLine
 62
7
  6
CONTINUOUS
 10
154.1668035321
 20
129.1824011399
 11
150.1428909945
 21
125.7091854657
  0
LINE
  5
329
100
AcDbEntity
  8
ASSI
100
AcDbLine
 62
7
  6
CONTINUOUS
 10
148.9227044244
 20
123.4611510777
 11
149.6601128675
 21
124.0972447729
  0
LINE
  5
32A
100
AcDbEntity
  8
ASSI
100
AcDbLine
 62
7
  6
CONTINUOUS
 10
154.1501681613
 20
129.5543897636
 11
150.1354511368
 21
126.1103589729
  0
LINE
  5
32B
100
AcDbEntity
  8
RACCORDO
100
AcDbLine
 62
253
  6
CONTINUOUS
 10
145.3720823335
 20
120.4473647639
 11
148.7465434951
 21
123.3065186726
  0
LINE
  5
32C
100
AcDbEntity
  8
ASSI
100
AcDbLine
 62
253
  6
CONTINUOUS
 10
150.0696888896
 20
123.5231735939
 11
149.1771488583
 21
122.7669315757
  0
LINE
  5
32D
100
AcDbEntity
  8
RACCORDO
100
AcDbLine
 62
253
  6
CONTINUOUS
 10
145.7890200994
 20
119.8800568122
 11
149.1556986071
 21
122.7326165407
  0
LINE
  5
32E
100
AcDbEntity
  8
ASSI
100
AcDbLine
 62
253
  6
CONTINUOUS
 10
150.2194533321
 20
124.5585102183
 11
149.6601128675
 21
124.0972447729
  0
LINE
  5
32F
100
AcDbEntity
  8
ASSI
100
AcDbLine
 62
253
  6
CONTINUOUS
 10
150.6289669738
 20
123.9845266658
 11
150.0696888896
 21
123.523236167
  0
LINE
  5
330
100
AcDbEntity
  8
DRAFT
100
AcDbLine
 62
7
  6
CONTINUOUS
 10
149.7952104647
 20
124.7288957182
 11
154.7225424921
 21
128.7037764054
  0
LINE
  5
331
100
AcDbEntity
  8
RACCORDO
100
AcDbLine
 62
7
  6
CONTINUOUS
 10
160.7132971285
 20
131.6109448002
 11
155.5945054177
 21
127.481613511
  0
LWPOLYLINE
  5
332
100
AcDbEntity
  8
0
100
AcDbPolyline
 62
7
  6
CONTINUOUS
 90
3
 70
0
 10
158.5158448721
 20
129.9436572352
 10
158.4996166421
 20
129.9305696009
 10
158.4832157594
 20
129.9175207641
  0
LINE
  5
333
100
AcDbEntity
  8
RACCORDO
100
AcDbLine
 62
7
  6
CONTINUOUS
 10
160.8432463225
 20
131.83853237
 11
158.477045628
 21
129.9592398696
  0
LWPOLYLINE
  5
334
100
AcDbEntity
  8
0
100
AcDbPolyline
 62
7
  6
CONTINUOUS
 90
89
 70
0
 10
158.4832157594
 20
129.9175207641
 10
158.4666422241
 20
129.9045107248
 10
158.4498853481
 20
129.8915293911
 10
158.4329558195
 20
129.8785868549
 10
158.4158857019
 20
129.8657133925
 10
158.3986764263
 20
129.8529108713
 10
158.3813265617
 20
129.8401774239
 10
158.3638638781
 20
129.8275377247
 10
158.3463274616
 20
129.8150181871
 10
158.3286782261
 20
129.8025923977
 10
158.3108266837
 20
129.7902057912
 10
158.2928420088
 20
129.7778981711
 10
158.274655027
 20
129.765629734
 10
158.2559687276
 20
129.7532265036
 10
158.2367972065
 20
129.7406843787
 10
158.2171263677
 20
129.7280074605
 10
158.1966169132
 20
129.7150340778
 10
158.1752795705
 20
129.7017540142
 10
158.1531036121
 20
129.688177486
 10
158.1297175562
 20
129.6741734706
 10
158.1051260503
 20
129.6597238295
 10
158.079324447
 20
129.6448467013
 10
158.0519273227
 20
129.6294654792
 10
158.0229295236
 20
129.6135534385
 10
157.9923362035
 20
129.597137304
 10
157.9597773992
 20
129.5802206435
 10
157.925130888
 20
129.5627265985
 10
157.8885188926
 20
129.5447320275
 10
157.8499381179
 20
129.5264710739
 10
157.809070923
 20
129.507827125
 10
157.7662349488
 20
129.4889167935
 10
157.7223798221
 20
129.4703240612
 10
157.6777145119
 20
129.4521795892
 10
157.6320300492
 20
129.4343527165
 10
157.5856491541
 20
129.4170354422
 10
157.5385816236
 20
129.4002513332
 10
157.4908176608
 20
129.3839768227
 10
157.442650594
 20
129.3683332096
 10
157.3941056331
 20
129.3533426086
 10
157.3451575682
 20
129.3389829049
 10
157.2960240986
 20
129.3253090538
 10
157.2467180618
 20
129.3123334776
 10
157.1972266203
 20
129.300043754
 10
157.1477289599
 20
129.2884575703
 10
157.0982704851
 20
129.2775881108
 10
157.0488057915
 20
129.2674221913
 10
156.9993778513
 20
129.2579379465
 10
156.9500025563
 20
129.2491363715
 10
156.9006640147
 20
129.2410164711
 10
156.8513575236
 20
129.2335533947
 10
156.8020535806
 20
129.2267419297
 10
156.752781688
 20
129.2205872888
 10
156.7036256495
 20
129.2150802588
 10
156.6545859753
 20
129.2102227738
 10
156.6056621552
 20
129.2060128998
 10
156.5569364625
 20
129.2024356211
 10
156.5084284512
 20
129.1994925677
 10
156.4601185673
 20
129.1971821097
 10
156.4120304215
 20
129.1954843422
 10
156.3641682476
 20
129.1943981535
 10
156.3165278117
 20
129.1939246553
 10
156.2691200231
 20
129.1940472777
 10
156.2219492189
 20
129.1947645271
 10
156.1750110621
 20
129.196077897
 10
156.1283034507
 20
129.1979752981
 10
156.0818345338
 20
129.2004539363
 10
156.0355961623
 20
129.2035166056
 10
155.9895617874
 20
129.2071595986
 10
155.9437179633
 20
129.211382373
 10
155.8980781359
 20
129.216185471
 10
155.8526560937
 20
129.2215668124
 10
155.8074500589
 20
129.2275260689
 10
155.7624618093
 20
129.2340635688
 10
155.7177104664
 20
129.2411782172
 10
155.6732027665
 20
129.2488679166
 10
155.6289319735
 20
129.2571347644
 10
155.5848970006
 20
129.2659839581
 10
155.5410714287
 20
129.2754213305
 10
155.497481677
 20
129.2854410488
 10
155.4542059172
 20
129.2960308119
 10
155.4112575072
 20
129.3071880921
 10
155.3686230891
 20
129.3189154172
 10
155.3263407619
 20
129.3312080689
 10
155.2844054103
 20
129.3440663236
 10
155.2428221495
 20
129.357489905
 10
155.2016444241
 20
129.3714732658
 10
155.1608900489
 20
129.3860145569
 10
155.1205412091
 20
129.4011156274
 10
155.0805979046
 20
129.4167764773
  0
LWPOLYLINE
  5
335
100
AcDbEntity
  8
ASSI
100
AcDbPolyline
 62
7
  6
CONTINUOUS
 90
12
 70
0
 10
148.9227044244
 20
123.4611510777
 10
148.9062599717
 20
123.4485174922
 10
148.8878220919
 20
123.4368660179
 10
148.8676024364
 20
123.4263055698
 10
148.8458359171
 20
123.4170494283
 10
148.8227608831
 20
123.4090591702
 10
148.7986130542
 20
123.402047613
 10
148.7736632459
 20
123.3961012067
 10
148.7481729551
 20
123.3912221106
 10
148.7223694591
 20
123.3869842765
 10
148.6964767128
 20
123.3833689049
 10
148.6708247526
 20
123.3804094007
  0
LWPOLYLINE
  5
336
100
AcDbEntity
  8
ASSI
100
AcDbPolyline
 62
7
  6
CONTINUOUS
 90
13
 70
0
 10
135.0792064791
 20
131.5096793336
 10
135.0778101546
 20
131.5316274063
 10
135.073629523
 20
131.5543205014
 10
135.0667394587
 20
131.5773734765
 10
135.0572615659
 20
131.6003955635
 10
135.0453586263
 20
131.6229934313
 10
135.0312319977
 20
131.6447779422
 10
135.0151212671
 20
131.6653747957
 10
134.9973040656
 20
131.6844333477
 10
134.9780881288
 20
131.701629179
 10
134.9578015932
 20
131.7166675391
 10
134.9367872749
 20
131.7292882538
 10
134.9154010224
 20
131.7392727546
  0
LWPOLYLINE
  5
337
100
AcDbEntity
  8
ASSI
100
AcDbPolyline
 62
253
  6
CONTINUOUS
 90
9
 70
0
 10
137.1279465653
 20
129.9415484059
 10
137.128236076
 20
129.9354351428
 10
137.1312955849
 20
129.9207002859
 10
137.1376455913
 20
129.9063152367
 10
137.1471798392
 20
129.892520694
 10
137.1597387931
 20
129.8795474757
 10
137.1751123065
 20
129.8676126572
 10
137.1930431373
 20
129.856915939
 10
137.2132312532
 20
129.8476363047
  0
LWPOLYLINE
  5
338
100
AcDbEntity
  8
ASSI
100
AcDbPolyline
 62
7
  6
CONTINUOUS
 90
11
 70
0
 10
135.5627734074
 20
131.9043385794
 10
135.5618930128
 20
131.9254300767
 10
135.5579464195
 20
131.9532060828
 10
135.5505085549
 20
131.9809935447
 10
135.5395804152
 20
132.0077012599
 10
135.5254188588
 20
132.0325208778
 10
135.5081084343
 20
132.0552720671
 10
135.487866788
 20
132.075557342
 10
135.4650838406
 20
132.0929265262
 10
135.4402259557
 20
132.1070192335
 10
135.4276110254
 20
132.1125788268
  0
LINE
  5
339
100
AcDbEntity
  8
ASSI
100
AcDbLine
 62
7
  6
CONTINUOUS
 10
137.1279465405
 20
128.8223462157
 11
137.1279465405
 21
129.9416055669
  0
LINE
  5
33A
100
AcDbEntity
  8
ASSI
100
AcDbLine
 62
253
  6
CONTINUOUS
 10
137.2132312532
 20
128.7246242987
 11
137.2132312532
 21
129.8476363047
  0
LWPOLYLINE
  5
33B
100
AcDbEntity
  8
ASSI
100
AcDbPolyline
 62
253
  6
CONTINUOUS
 90
28
 70
0
 10
137.2132312532
 20
129.8476363047
 10
137.2132658931
 20
129.8496242887
 10
137.2134195625
 20
129.8516051604
 10
137.2136922615
 20
129.8535789198
 10
137.2140787257
 20
129.8555609376
 10
137.2145842194
 20
129.8575358431
 10
137.2152245354
 20
129.8594575243
 10
137.2160044831
 20
129.8613250116
 10
137.2169192531
 20
129.8631392745
 10
137.2179702091
 20
129.8648571098
 10
137.2191623362
 20
129.866475537
 10
137.2204906495
 20
129.8679975366
 10
137.2219415574
 20
129.8693888462
 10
137.2235181008
 20
129.8706447431
 10
137.2252172388
 20
129.8717699502
 10
137.2270162576
 20
129.8727443732
 10
137.2289151803
 20
129.8735639813
 10
137.2309139837
 20
129.8742328054
 10
137.2329898846
 20
129.874742844
 10
137.2351433798
 20
129.8750920908
 10
137.2373739725
 20
129.8752825521
 10
137.2396573891
 20
129.8753122458
 10
137.2419942804
 20
129.8751793867
 10
137.2443839956
 20
129.87488576
 10
137.2468003094
 20
129.8744347384
 10
137.2492344801
 20
129.8738274463
 10
137.2516952494
 20
129.8730627595
 10
137.2541826174
 20
129.8721406778
  0
LWPOLYLINE
  5
33C
100
AcDbEntity
  8
ASSI
100
AcDbPolyline
 62
7
  6
CONTINUOUS
 90
13
 70
0
 10
148.9227044244
 20
124.178403476
 10
148.9080527882
 20
124.1592976313
 10
148.8918643802
 20
124.1410940206
 10
148.8742240608
 20
124.1239984485
 10
148.8551732986
 20
124.1082000023
 10
148.8348941023
 20
124.0938899236
 10
148.813714217
 20
124.081251591
 10
148.7917920845
 20
124.0704204793
 10
148.7692957777
 20
124.061531581
 10
148.7466006599
 20
124.0547081687
 10
148.7239278075
 20
124.0500049077
 10
148.7014466756
 20
124.0474544736
 10
148.682964215
 20
124.0469799956
  0
LINE
  5
33D
100
AcDbEntity
  8
ASSI
100
AcDbLine
 62
7
  6
CONTINUOUS
 10
150.908606016
 20
121.4986807052
 11
150.6289669738
 21
121.2587919495
  0
LINE
  5
33E
100
AcDbEntity
  8
RACCORDO
100
AcDbLine
 62
253
  6
CONTINUOUS
 10
161.1272804205
 20
131.030696485
 11
150.6289669738
 21
122.2145029716
  0
LINE
  5
33F
100
AcDbEntity
  8
RACCORDO
100
AcDbLine
 62
253
  6
CONTINUOUS
 10
161.1841911505
 20
131.0782882286
 11
161.1566244923
 21
131.0550370591
  0
LINE
  5
340
100
AcDbEntity
  8
RACCORDO
100
AcDbLine
 62
253
  6
CONTINUOUS
 10
161.6070554952
 20
129.6797285065
 11
150.9710111463
 21
120.7478723876
  0
LINE
  5
341
100
AcDbEntity
  8
RACCORDO
100
AcDbLine
 62
253
  6
CONTINUOUS
 10
161.1566244923
 20
131.0550370591
 11
161.1272804205
 21
131.030696485
  0
LWPOLYLINE
  5
342
100
AcDbEntity
  8
RACCORDO
100
AcDbPolyline
 62
7
  6
CONTINUOUS
 90
16
 70
0
 10
161.6848290043
 20
120.8025320355
 10
161.6788378383
 20
120.8001127192
 10
161.6729491627
 20
120.7980475253
 10
161.6671629773
 20
120.7963364536
 10
161.6614727641
 20
120.7949810876
 10
161.6558850413
 20
120.7939798438
 10
161.6504193629
 20
120.7933279723
 10
161.6450787333
 20
120.7930315673
 10
161.6398601481
 20
120.7930845346
 10
161.6347741491
 20
120.7934638416
 10
161.6298245484
 20
120.7941743964
 10
161.6250075339
 20
120.795211291
 10
161.6203222108
 20
120.7965367679
 10
161.6157682809
 20
120.7981382414
 10
161.6113460423
 20
120.8000282972
 10
161.6070554952
 20
120.8022069355
  0
LINE
  5
343
100
AcDbEntity
  8
ASSI
100
AcDbLine
 62
253
  6
CONTINUOUS
 10
139.8668464739
 20
128.7818846077
 11
139.8668464739
 21
127.6588726017
  0
LINE
  5
344
100
AcDbEntity
  8
ASSI
100
AcDbLine
 62
253
  6
CONTINUOUS
 10
140.1433651601
 20
128.8084259157
 11
140.1433651601
 21
127.6938500514
  0
LINE
  5
345
100
AcDbEntity
  8
ASSI
100
AcDbLine
 62
7
  6
CONTINUOUS
 10
140.3217795626
 20
127.8477299559
 11
140.3217795626
 21
128.9536164059
  0
LWPOLYLINE
  5
346
100
AcDbEntity
  8
ASSI
100
AcDbPolyline
 62
253
  6
CONTINUOUS
 90
13
 70
0
 10
141.5547308499
 20
128.144943554
 10
141.5556905962
 20
128.166877612
 10
141.5585537766
 20
128.1900170141
 10
141.5632724831
 20
128.2139745764
 10
141.5697677598
 20
128.2383494253
 10
141.577930924
 20
128.2627337041
 10
141.5876253845
 20
128.2867193984
 10
141.5986889277
 20
128.3099051631
 10
141.6109364311
 20
128.3319030373
 10
141.624162961
 20
128.3523449365
 10
141.6381472022
 20
128.3708888119
 10
141.6526551607
 20
128.3872243737
 10
141.6674440793
 20
128.401078283
  0
LWPOLYLINE
  5
347
100
AcDbEntity
  8
ASSI
100
AcDbPolyline
 62
7
  6
CONTINUOUS
 90
7
 70
0
 10
141.3466665411
 20
131.4382177431
 10
141.3447761878
 20
131.4148471326
 10
141.3386437399
 20
131.3916896242
 10
141.3285717748
 20
131.3694051362
 10
141.3146596975
 20
131.3483080459
 10
141.2968081031
 20
131.328083976
 10
141.2750169914
 20
131.3087329265
  0
LWPOLYLINE
  5
348
100
AcDbEntity
  8
ASSI
100
AcDbPolyline
 62
7
  6
CONTINUOUS
 90
5
 70
0
 10
150.1019822241
 20
125.5777175787
 10
150.1113982835
 20
125.5949637211
 10
150.1207286298
 20
125.6152801234
 10
150.1284051202
 20
125.6357502043
 10
150.134558569
 20
125.6565253404
  0
LWPOLYLINE
  5
349
100
AcDbEntity
  8
ASSI
100
AcDbPolyline
 62
253
  6
CONTINUOUS
 90
8
 70
0
 10
150.0955055324
 20
125.6151479132
 10
150.0963838255
 20
125.6166679584
 10
150.0972433363
 20
125.6182212992
 10
150.0980840648
 20
125.6198079356
 10
150.0989050693
 20
125.6214237249
 10
150.0997072915
 20
125.6230728097
 10
150.1004935571
 20
125.6247676186
 10
150.1012664456
 20
125.6265117138
  0
LINE
  5
34A
100
AcDbEntity
  8
ASSI
100
AcDbLine
 62
253
  6
CONTINUOUS
 10
149.6601128675
 20
124.8767290584
 11
150.0955055324
 21
125.6151479132
  0
LINE
  5
34B
100
AcDbEntity
  8
ASSI
100
AcDbLine
 62
7
  6
CONTINUOUS
 10
149.6601128675
 20
124.8283143633
 11
150.1019798879
 21
125.5777136193
  0
LWPOLYLINE
  5
34C
100
AcDbEntity
  8
RACCORDO
100
AcDbPolyline
 62
253
  6
CONTINUOUS
 90
23
 70
0
 10
161.6070554952
 20
129.6797285065
 10
161.6219847045
 20
129.6928046223
 10
161.6362871794
 20
129.7061092104
 10
161.6499522988
 20
129.7196323909
 10
161.6629699149
 20
129.7333641214
 10
161.6753303609
 20
129.7472942047
 10
161.6870244577
 20
129.7614122963
 10
161.6980435213
 20
129.7757079121
 10
161.7083793687
 20
129.7901704361
 10
161.7180243247
 20
129.8047891284
 10
161.7269712267
 20
129.8195531332
 10
161.7352134308
 20
129.8344514867
 10
161.7427448163
 20
129.8494731252
 10
161.7495597903
 20
129.8646068939
 10
161.7556532919
 20
129.8798415541
 10
161.7610207961
 20
129.8951657927
 10
161.765658317
 20
129.9105682299
 10
161.7695624107
 20
129.9260374276
 10
161.772730178
 20
129.9415618986
 10
161.7751592666
 20
129.9571301142
 10
161.7768478725
 20
129.9727305135
 10
161.7777947417
 20
129.9883515115
 10
161.7780179226
 20
130.0004689637
  0
LINE
  5
34D
100
AcDbEntity
  8
0
100
AcDbLine
 62
7
  6
CONTINUOUS
 10
149.1771488583
 20
102.9259320014
 11
149.1556986071
 21
102.9345469059
  0
LINE
  5
34E
100
AcDbEntity
  8
0
100
AcDbLine
 62
253
  6
CONTINUOUS
 10
130.3082773999
 20
112.7695267109
 11
131.096414004
 21
112.3199995424
  0
LWPOLYLINE
  5
34F
100
AcDbEntity
  8
0
100
AcDbPolyline
 62
253
  6
CONTINUOUS
 90
13
 70
0
 10
130.3154397631
 20
113.3956507935
 10
131.1058321664
 20
112.9118581596
 10
131.9200446669
 20
112.4490894352
 10
132.7579774753
 20
112.0072628776
 10
133.6193598734
 20
111.5863772721
 10
134.5042537344
 20
111.1862627576
 10
135.4131018542
 20
110.8066204171
 10
136.345816666
 20
110.4474162384
 10
137.3023724622
 20
110.1085914448
 10
138.2833992087
 20
109.7898872861
 10
139.2891261926
 20
109.4912333204
 10
140.3193255542
 20
109.2127011588
 10
141.373992361
 20
108.9542867609
  0
LWPOLYLINE
  5
350
100
AcDbEntity
  8
ASSI
100
AcDbPolyline
 62
253
  6
CONTINUOUS
 90
6
 70
0
 10
150.0868155837
 20
86.7737674427
 10
150.075488382
 20
86.7963497154
 10
150.0616942666
 20
86.8170641011
 10
150.045666647
 20
86.8355600925
 10
150.0276767263
 20
86.8515247196
 10
150.0080289111
 20
86.8646878453
  0
LWPOLYLINE
  5
351
100
AcDbEntity
  8
ASSI
100
AcDbPolyline
 62
7
  6
CONTINUOUS
 90
13
 70
0
 10
140.3217795626
 20
128.9536164059
 10
140.3200341569
 20
128.9810514968
 10
140.3148083675
 20
129.0094178657
 10
140.306195787
 20
129.0382340845
 10
140.2943484211
 20
129.0670116934
 10
140.2794697466
 20
129.0952590281
 10
140.2618114608
 20
129.1224896667
 10
140.2416730476
 20
129.1482357335
 10
140.2194015457
 20
129.1720589235
 10
140.1953816247
 20
129.1935537126
 10
140.1700234552
 20
129.2123516628
 10
140.1437555573
 20
129.2281275561
 10
140.1170227417
 20
129.2406081822
  0
LWPOLYLINE
  5
352
100
AcDbEntity
  8
0
100
AcDbPolyline
 62
7
  6
CONTINUOUS
 90
3
 70
0
 10
141.3535911262
 20
109.5091501306
 10
141.3704151937
 20
109.2338245536
 10
141.373992361
 20
108.9542867609
  0
LWPOLYLINE
  5
353
100
AcDbEntity
  8
ASSI
100
AcDbPolyline
 62
7
  6
CONTINUOUS
 90
16
 70
0
 10
141.3245916119
 20
132.5635046667
 10
141.3233397168
 20
132.585286114
 10
141.3180019723
 20
132.6195780929
 10
141.3084985917
 20
132.6534022268
 10
141.2948471566
 20
132.686259401
 10
141.277217981
 20
132.7175769876
 10
141.255749054
 20
132.7470089624
 10
141.2305322408
 20
132.7742731516
 10
141.2019295572
 20
132.7988871885
 10
141.1703906484
 20
132.8205129022
 10
141.1357203301
 20
132.8392330946
 10
141.0983301972
 20
132.8547217037
 10
141.0594925704
 20
132.8665518355
 10
141.018965698
 20
132.8748798934
 10
140.976871999
 20
132.8796292554
 10
140.9350458161
 20
132.8806101276
  0
LINE
  5
354
100
AcDbEntity
  8
ASSI
100
AcDbLine
 62
7
  6
CONTINUOUS
 10
141.3466656722
 20
131.4382177457
 11
141.324608763
 21
132.5633996318
  0
LINE
  5
355
100
AcDbEntity
  8
ASSI
100
AcDbLine
 62
7
  6
CONTINUOUS
 10
140.8708310917
 20
128.3132189835
 11
140.8512764253
 21
129.3903434632
  0
LINE
  5
356
100
AcDbEntity
  8
ASSI
100
AcDbLine
 62
253
  6
CONTINUOUS
 10
141.2750169914
 20
131.3087329265
 11
141.2562017184
 21
132.4397621728
  0
LINE
  5
357
100
AcDbEntity
  8
0
100
AcDbLine
 62
7
  6
CONTINUOUS
 10
141.3698492362
 20
97.0143071566
 11
141.373992361
 21
96.6670060966
  0
LINE
  5
358
100
AcDbEntity
  8
0
100
AcDbLine
 62
7
  6
CONTINUOUS
 10
141.3592350617
 20
98.0200803564
 11
141.3739923594
 21
96.667006229
  0
LINE
  5
359
100
AcDbEntity
  8
0
100
AcDbLine
 62
7
  6
CONTINUOUS
 10
141.3642015191
 20
97.5248719381
 11
141.3698492362
 21
97.0143071566
  0
LINE
  5
35A
100
AcDbEntity
  8
0
100
AcDbLine
 62
7
  6
CONTINUOUS
 10
141.3592997783
 20
98.0126149554
 11
141.3642015191
 21
97.5248719381
  0
LINE
  5
35B
100
AcDbEntity
  8
0
100
AcDbLine
 62
7
  6
CONTINUOUS
 10
141.3548707839
 20
98.5014282148
 11
141.3592997783
 21
98.0126149554
  0
LINE
  5
35C
100
AcDbEntity
  8
0
100
AcDbLine
 62
7
  6
CONTINUOUS
 10
141.3509255294
 20
98.9906986939
 11
141.3548707839
 21
98.5014282148
  0
LINE
  5
35D
100
AcDbEntity
  8
ASSI
100
AcDbLine
 62
253
  6
CONTINUOUS
 10
141.8893655029
 20
130.7209149123
 11
141.8811841575
 21
131.7896923369
  0
LINE
  5
35E
100
AcDbEntity
  8
ASSI
100
AcDbLine
 62
253
  6
CONTINUOUS
 10
143.2811605194
 20
130.9213205398
 11
143.2771892405
 21
131.440112146
  0
LINE
  5
35F
100
AcDbEntity
  8
0
100
AcDbLine
 62
7
  6
CONTINUOUS
 10
141.3459188863
 20
99.7246074952
 11
141.3592350617
 21
98.0200803564
  0
LINE
  5
360
100
AcDbEntity
  8
0
100
AcDbLine
 62
7
  6
CONTINUOUS
 10
141.343185261
 20
100.2133223211
 11
141.3459188863
 21
99.7246074952
  0
LINE
  5
361
100
AcDbEntity
  8
0
100
AcDbLine
 62
7
  6
CONTINUOUS
 10
141.3407730187
 20
100.7412056261
 11
141.3481671205
 21
99.3762461644
  0
LINE
  5
362
100
AcDbEntity
  8
0
100
AcDbLine
 62
7
  6
CONTINUOUS
 10
141.3408124658
 20
100.7310712543
 11
141.343185261
 21
100.2133223211
  0
LINE
  5
363
100
AcDbEntity
  8
0
100
AcDbLine
 62
7
  6
CONTINUOUS
 10
141.3391473925
 20
101.1895512025
 11
141.3407730187
 21
100.7412056261
  0
LINE
  5
364
100
AcDbEntity
  8
0
100
AcDbLine
 62
7
  6
CONTINUOUS
 10
141.33784229
 20
101.678167095
 11
141.3391473925
 21
101.1895512025
  0
LINE
  5
365
100
AcDbEntity
  8
0
100
AcDbLine
 62
7
  6
CONTINUOUS
 10
141.3367722657
 20
102.4125012437
 11
141.3407885163
 21
100.7354830745
  0
LINE
  5
366
100
AcDbEntity
  8
0
100
AcDbLine
 62
7
  6
CONTINUOUS
 10
141.336653427
 20
102.9026055776
 11
141.3367722657
 21
102.4125012437
  0
LINE
  5
367
100
AcDbEntity
  8
ASSI
100
AcDbLine
 62
7
  6
CONTINUOUS
 10
141.428494773
 20
128.214408443
 11
141.428494773
 21
127.0951490916
  0
LINE
  5
368
100
AcDbEntity
  8
ASSI
100
AcDbLine
 62
253
  6
CONTINUOUS
 10
141.5137794857
 20
128.1204391809
 11
141.5137794857
 21
126.9974271749
  0
LINE
  5
369
100
AcDbEntity
  8
DRAFT
100
AcDbLine
 62
7
  6
CONTINUOUS
 10
142.7002105819
 20
134.8445850676
 11
142.7002105819
 21
134.9753973134
  0
LINE
  5
36A
100
AcDbEntity
  8
0
100
AcDbLine
 62
253
  6
CONTINUOUS
 10
142.7493257035
 20
135.0298872617
 11
142.7493253334
 21
136.2086434001
  0
LINE
  5
36B
100
AcDbEntity
  8
0
100
AcDbLine
 62
7
  6
CONTINUOUS
 10
142.7493249372
 20
136.2758453496
 11
142.7493249632
 21
136.2086430968
  0
LINE
  5
36C
100
AcDbEntity
  8
ASSI
100
AcDbLine
 62
7
  6
CONTINUOUS
 10
143.4141961817
 20
135.6321671268
 11
143.4141961817
 21
135.5607125895
  0
LINE
  5
36D
100
AcDbEntity
  8
0
100
AcDbLine
 62
7
  6
CONTINUOUS
 10
141.3371267527
 20
103.4732907827
 11
141.3370992313
 21
102.097768994
  0
LINE
  5
36E
100
AcDbEntity
  8
0
100
AcDbLine
 62
7
  6
CONTINUOUS
 10
141.3370992355
 20
103.4543623176
 11
141.336653427
 21
102.9026055776
  0
LINE
  5
36F
100
AcDbEntity
  8
0
100
AcDbLine
 62
7
  6
CONTINUOUS
 10
141.3378411638
 20
103.8833835898
 11
141.3371267527
 21
103.4732907827
  0
LINE
  5
370
100
AcDbEntity
  8
0
100
AcDbLine
 62
7
  6
CONTINUOUS
 10
141.3391446669
 20
104.3737982026
 11
141.3378411638
 21
103.8833835898
  0
LINE
  5
371
100
AcDbEntity
  8
0
100
AcDbLine
 62
7
  6
CONTINUOUS
 10
141.341991272
 20
105.1102268631
 11
141.3370992355
 21
103.4630848522
  0
LINE
  5
372
100
AcDbEntity
  8
0
100
AcDbLine
 62
7
  6
CONTINUOUS
 10
141.3444850494
 20
105.6026031595
 11
141.341991272
 21
105.1102268631
  0
LINE
  5
373
100
AcDbEntity
  8
0
100
AcDbLine
 62
7
  6
CONTINUOUS
 10
141.3482147423
 20
106.2086506265
 11
141.3407885278
 21
104.8314146337
  0
LINE
  5
374
100
AcDbEntity
  8
0
100
AcDbLine
 62
7
  6
CONTINUOUS
 10
141.3481366068
 20
106.1970655228
 11
141.3444850494
 21
105.6026031595
  0
LWPOLYLINE
  5
375
100
AcDbEntity
  8
0
100
AcDbPolyline
 62
7
  6
CONTINUOUS
 90
33
 70
0
 10
142.3514602148
 20
135.2235785351
 10
142.3516310293
 20
135.2478206447
 10
142.352785999
 20
135.2913429844
 10
142.3550124732
 20
135.3343724601
 10
142.3582895844
 20
135.3769089628
 10
142.3625831247
 20
135.4187438194
 10
142.3678611494
 20
135.4598439532
 10
142.3740949476
 20
135.5002200861
 10
142.3812415814
 20
135.5397310066
 10
142.3892631528
 20
135.5783468718
 10
142.3981271054
 20
135.6160804089
 10
142.407791866
 20
135.6528560084
 10
142.4182174543
 20
135.6886482913
 10
142.4293711022
 20
135.723470525
 10
142.4412215261
 20
135.7573062629
 10
142.4537308885
 20
135.7901374966
 10
142.4668683418
 20
135.8219740544
 10
142.4806172851
 20
135.8528415799
 10
142.4949444337
 20
135.8827286426
 10
142.5098223113
 20
135.9116410405
 10
142.5252501774
 20
135.9396296961
 10
142.5412003063
 20
135.9666879351
 10
142.5576494414
 20
135.9928179703
 10
142.5746122779
 20
136.0180826726
 10
142.5920674549
 20
136.0424790312
 10
142.6099957444
 20
136.066005508
 10
142.6284243032
 20
136.0887251482
 10
142.647335511
 20
136.1106344542
 10
142.6667161453
 20
136.13173135
 10
142.6866095476
 20
136.1520783288
 10
142.7070254133
 20
136.1716928541
 10
142.7279343007
 20
136.1905492195
 10
142.7493257035
 20
136.2086437033
  0
LINE
  5
376
100
AcDbEntity
  8
0
100
AcDbLine
 62
7
  6
CONTINUOUS
 10
141.3509176623
 20
106.5917516476
 11
141.3482147423
 21
106.2086506265
  0
LINE
  5
377
100
AcDbEntity
  8
0
100
AcDbLine
 62
7
  6
CONTINUOUS
 10
141.3548645057
 20
107.0877921669
 11
141.3509176623
 21
106.5917516476
  0
LINE
  5
378
100
AcDbEntity
  8
0
100
AcDbLine
 62
7
  6
CONTINUOUS
 10
141.3592959614
 20
107.5842027435
 11
141.3548645057
 21
107.0877921669
  0
LINE
  5
379
100
AcDbEntity
  8
0
100
AcDbLine
 62
7
  6
CONTINUOUS
 10
141.3641999823
 20
108.0802367344
 11
141.3592959614
 21
107.5842027435
  0
LWPOLYLINE
  5
37A
100
AcDbEntity
  8
0
100
AcDbPolyline
 62
7
  6
CONTINUOUS
 90
3
 70
0
 10
141.3739923595
 20
108.9542866297
 10
141.3592350736
 20
107.5770368294
 10
141.3481671354
 20
106.2027393147
  0
LINE
  5
37B
100
AcDbEntity
  8
0
100
AcDbLine
 62
7
  6
CONTINUOUS
 10
141.3722839886
 20
108.8107383202
 11
141.3641999823
 21
108.0802367344
  0
LINE
  5
37C
100
AcDbEntity
  8
0
100
AcDbLine
 62
7
  6
CONTINUOUS
 10
141.373992361
 20
96.6670060966
 11
141.3702948156
 21
96.3950710737
  0
LWPOLYLINE
  5
37D
100
AcDbEntity
  8
ASSI
100
AcDbPolyline
 62
7
  6
CONTINUOUS
 90
13
 70
0
 10
142.6787640532
 20
134.8531984771
 10
142.6789155463
 20
134.8642517908
 10
142.6793663078
 20
134.8751585502
 10
142.6801163376
 20
134.8859187552
 10
142.6811666059
 20
134.8965394539
 10
142.6825161425
 20
134.9070135982
 10
142.6841620374
 20
134.9173200441
 10
142.6861049697
 20
134.9274590561
 10
142.6883442602
 20
134.9374303697
 10
142.6908749615
 20
134.947212046
 10
142.6936954242
 20
134.9567967723
 10
142.6968072977
 20
134.9661918615
 10
142.7002105819
 20
134.9753973134
  0
LWPOLYLINE
  5
37E
100
AcDbEntity
  8
0
100
AcDbPolyline
 62
7
  6
CONTINUOUS
 90
11
 70
0
 10
141.3739923594
 20
96.667006229
 10
141.3696579248
 20
96.3826943708
 10
141.3499260438
 20
96.1061868468
 10
141.3148047428
 20
95.8374905604
 10
141.2640983816
 20
95.5758012361
 10
141.1980336945
 20
95.3219501791
 10
141.1172531899
 20
95.0783986622
 10
141.0217054996
 20
94.8454417586
 10
140.9114851621
 20
94.622822427
 10
140.7874480193
 20
94.4121691756
 10
140.6494485137
 20
94.2134935644
  0
LWPOLYLINE
  5
37F
100
AcDbEntity
  8
ASSI
100
AcDbPolyline
 62
253
  6
CONTINUOUS
 90
13
 70
0
 10
144.1264433423
 20
127.1120858391
 10
144.1274030899
 20
127.1340199121
 10
144.1302662737
 20
127.1571593276
 10
144.1349849848
 20
127.1811169008
 10
144.1414802665
 20
127.2054917572
 10
144.1496434353
 20
127.2298760399
 10
144.1593378994
 20
127.2538617342
 10
144.1704014444
 20
127.2770474949
 10
144.1826489473
 20
127.299045362
 10
144.1958754747
 20
127.3194872519
 10
144.209859711
 20
127.3380311169
 10
144.2243676623
 20
127.3543666682
 10
144.2391565717
 20
127.3682205682
  0
LWPOLYLINE
  5
380
100
AcDbEntity
  8
0
100
AcDbPolyline
 62
7
  6
CONTINUOUS
 90
16
 70
0
 10
141.3702948156
 20
96.3950710737
 10
141.3529658138
 20
96.1362175724
 10
141.3229500758
 20
95.8896390498
 10
141.2811323195
 20
95.6544496279
 10
141.2285535927
 20
95.4309554739
 10
141.1664537548
 20
95.2201185609
 10
141.0959593832
 20
95.0222256319
 10
141.0180397197
 20
94.8370428328
 10
140.9337504551
 20
94.6643688454
 10
140.8440620351
 20
94.5037858336
 10
140.7498391159
 20
94.3547482345
 10
140.6520032516
 20
94.2168404359
 10
140.5516389136
 20
94.0898565829
 10
140.4494701787
 20
93.9731718533
 10
140.3457937074
 20
93.865851479
 10
140.2412342786
 20
93.7674626557
  0
LWPOLYLINE
  5
381
100
AcDbEntity
  8
ASSI
100
AcDbPolyline
 62
253
  6
CONTINUOUS
 90
11
 70
0
 10
148.3206457577
 20
124.1874504979
 10
148.311647937
 20
124.1635806397
 10
148.3000644983
 20
124.1412556286
 10
148.2860914445
 20
124.1208532255
 10
148.2699652132
 20
124.1027186588
 10
148.2519586759
 20
124.0871587827
 10
148.2323765205
 20
124.0744368855
 10
148.2115500961
 20
124.0647682339
 10
148.1898318059
 20
124.0583164309
 10
148.1675891442
 20
124.0551906472
 10
148.1558373359
 20
124.0549010286
  0
LWPOLYLINE
  5
382
100
AcDbEntity
  8
ASSI
100
AcDbPolyline
 62
253
  6
CONTINUOUS
 90
18
 70
0
 10
150.1012664456
 20
125.6265117138
 10
150.1020233776
 20
125.628301533
 10
150.10275944
 20
125.6301388184
 10
150.1034755648
 20
125.6320246044
 10
150.1041708199
 20
125.6339578566
 10
150.1048374963
 20
125.6359372134
 10
150.1054765548
 20
125.6379640424
 10
150.1060870344
 20
125.640036976
 10
150.106658344
 20
125.6421505498
 10
150.1071915091
 20
125.6443067196
 10
150.1076855042
 20
125.6465035296
 10
150.1081266603
 20
125.648729648
 10
150.1085159457
 20
125.6509876387
 10
150.1088523922
 20
125.6532749378
 10
150.1091194266
 20
125.6555725217
 10
150.1093115246
 20
125.6578740492
 10
150.1094342106
 20
125.6601858614
 10
150.1094874845
 20
125.6625079585
  0
LINE
  5
383
100
AcDbEntity
  8
0
100
AcDbLine
 62
7
  6
CONTINUOUS
 10
150.0696888896
 20
103.6821740196
 11
149.1556986071
 21
104.0492531225
  0
LWPOLYLINE
  5
384
100
AcDbEntity
  8
0
100
AcDbPolyline
 62
253
  6
CONTINUOUS
 90
12
 70
0
 10
131.096414004
 20
112.3199995424
 10
131.9093521283
 20
111.8848920208
 10
132.7468458316
 20
111.4642370264
 10
133.6085161485
 20
111.0581282086
 10
134.4942460291
 20
110.6665318699
 10
135.4042186808
 20
110.2893086099
 10
136.3381963361
 20
109.926514909
 10
137.295974504
 20
109.578171921
 10
138.2778616529
 20
109.2441295774
 10
139.2838497394
 20
108.9243822514
 10
140.3135700443
 20
108.6190429403
 10
141.3668299978
 20
108.3281626784
  0
LINE
  5
385
100
AcDbEntity
  8
ASSI
100
AcDbLine
 62
253
  6
CONTINUOUS
 10
150.0954842043
 20
86.7496993969
 11
150.0868155837
 21
86.7737674427
  0
LWPOLYLINE
  5
386
100
AcDbEntity
  8
ASSI
100
AcDbPolyline
 62
7
  6
CONTINUOUS
 90
13
 70
0
 10
144.6223277951
 20
127.2264192821
 10
144.6205823894
 20
127.253854373
 10
144.6153566
 20
127.282220742
 10
144.6067440195
 20
127.3110369607
 10
144.5948966536
 20
127.3398145696
 10
144.5800179791
 20
127.3680619043
 10
144.5623596934
 20
127.3952925429
 10
144.5422212801
 20
127.4210386097
 10
144.5199497782
 20
127.4448617997
 10
144.4959298572
 20
127.4663565889
 10
144.4705716877
 20
127.4851545391
 10
144.4443037898
 20
127.5009304324
 10
144.4175709742
 20
127.5134110584
  0
LWPOLYLINE
  5
387
100
AcDbEntity
  8
ASSI
100
AcDbPolyline
 62
7
  6
CONTINUOUS
 90
16
 70
0
 10
142.7679893275
 20
131.8553819129
 10
142.7669217091
 20
131.8727801096
 10
142.7633221207
 20
131.8898685448
 10
142.7571889432
 20
131.9066328421
 10
142.7483760022
 20
131.923323392
 10
142.7370242196
 20
131.9396277811
 10
142.723563107
 20
131.9546793838
 10
142.7080878553
 20
131.9682242563
 10
142.6905055375
 20
131.980418761
 10
142.6709676654
 20
131.9910126876
 10
142.6493478529
 20
131.9999777755
 10
142.6257976496
 20
132.0072080425
 10
142.6008910445
 20
132.0123527347
 10
142.5748363046
 20
132.0152659103
 10
142.5474794002
 20
132.0159831971
 10
142.5188575454
 20
132.0144432445
  0
LWPOLYLINE
  5
388
100
AcDbEntity
  8
ASSI
100
AcDbPolyline
 62
253
  6
CONTINUOUS
 90
28
 70
0
 10
144.4439133926
 20
127.0812287919
 10
144.4435322288
 20
127.0919134905
 10
144.4425775662
 20
127.1030214075
 10
144.4410179096
 20
127.1145328208
 10
144.4388178322
 20
127.1264503051
 10
144.4359516963
 20
127.1387195433
 10
144.4324174704
 20
127.1512268825
 10
144.4282033935
 20
127.1639343489
 10
144.4233008126
 20
127.1768000872
 10
144.4177405184
 20
127.1896981509
 10
144.4115337341
 20
127.2025779432
 10
144.4046901608
 20
127.2153974992
 10
144.3972634293
 20
127.2280446542
 10
144.3892882031
 20
127.2404605862
 10
144.3807841255
 20
127.2526151726
 10
144.3717970542
 20
127.2644441608
 10
144.3623681747
 20
127.2758981315
 10
144.3525255944
 20
127.2869476039
 10
144.3422995985
 20
127.2975613833
 10
144.3317262325
 20
127.3077037372
 10
144.3208438048
 20
127.3173396022
 10
144.3096865387
 20
127.3264401267
 10
144.2982937014
 20
127.3349739347
 10
144.2867051647
 20
127.3429118381
 10
144.2749565893
 20
127.3502298844
 10
144.2630872223
 20
127.3569032554
 10
144.2511400097
 20
127.3629072306
 10
144.2391565717
 20
127.3682205682
  0
LWPOLYLINE
  5
389
100
AcDbEntity
  8
RACCORDO
100
AcDbPolyline
 62
253
  6
CONTINUOUS
 90
13
 70
0
 10
145.3930366267
 20
84.9429527924
 10
145.3116863414
 20
87.7184035429
 10
145.2451223266
 20
90.505975719
 10
145.1933445822
 20
93.3056693208
 10
145.1563473763
 20
96.1176998539
 10
145.1341364408
 20
98.9418518126
 10
145.1267289716
 20
101.7774786801
 10
145.1341364304
 20
104.6245893699
 10
145.1563473555
 20
107.4831749684
 10
145.1933445568
 20
110.3525622185
 10
145.2451223044
 20
113.232526701
 10
145.3116863281
 20
116.123292835
 10
145.3930366281
 20
119.0248606206
  0
LWPOLYLINE
  5
38A
100
AcDbEntity
  8
RACCORDO
100
AcDbPolyline
 62
253
  6
CONTINUOUS
 90
13
 70
0
 10
144.7326263891
 20
84.8508164727
 10
144.6536105097
 20
87.6280770312
 10
144.5889429558
 20
90.4178973949
 10
144.5386328626
 20
93.2201389446
 10
144.5026874997
 20
96.0347346129
 10
144.4811161832
 20
98.8614724161
 10
144.473925228
 20
101.6999912241
 10
144.4811161682
 20
104.5501441305
 10
144.5026874725
 20
107.4117846448
 10
144.538632829
 20
110.2845456848
 10
144.5889429241
 20
113.16820147
 10
144.6536104903
 20
116.062671561
 10
144.7326263949
 20
118.9678023747
  0
LWPOLYLINE
  5
38B
100
AcDbEntity
  8
ASSI
100
AcDbPolyline
 62
253
  6
CONTINUOUS
 90
28
 70
0
 10
144.1673947065
 20
127.0546874839
 10
144.1673494349
 20
127.0568494561
 10
144.1671763614
 20
127.0590858858
 10
144.1668754859
 20
127.0613967728
 10
144.1664497245
 20
127.0637941893
 10
144.1658961612
 20
127.0662660632
 10
144.1652060483
 20
127.0687761786
 10
144.1643745428
 20
127.0713266349
 10
144.1634064877
 20
127.0739153328
 10
144.1623076636
 20
127.0764997584
 10
144.1610740524
 20
127.0790792743
 10
144.1597096721
 20
127.081654518
 10
144.1582323581
 20
127.084184888
 10
144.1566409571
 20
127.0866667502
 10
144.1549366223
 20
127.0891037388
 10
144.1531406486
 20
127.0914661545
 10
144.1512533227
 20
127.0937511679
 10
144.1492743579
 20
127.0959616085
 10
144.1472241885
 20
127.0980762652
 10
144.1451021867
 20
127.1000943376
 10
144.1429089803
 20
127.1020166261
 10
144.1406668877
 20
127.1038243215
 10
144.138375534
 20
127.1055163605
 10
144.1360352942
 20
127.1070938063
 10
144.1336696108
 20
127.1085410391
 10
144.1312862982
 20
127.1098528521
 10
144.128877542
 20
127.1110344522
 10
144.1264433423
 20
127.1120858391
  0
LINE
  5
38C
100
AcDbEntity
  8
ASSI
100
AcDbLine
 62
253
  6
CONTINUOUS
 10
144.9590603588
 20
132.6466247463
 11
144.9540950283
 21
132.933082527
  0
LINE
  5
38D
100
AcDbEntity
  8
ASSI
100
AcDbLine
 62
7
  6
CONTINUOUS
 10
144.9958084989
 20
132.6793488226
 11
144.9902595332
 21
132.9994774472
  0
LWPOLYLINE
  5
38E
100
AcDbEntity
  8
ASSI
100
AcDbPolyline
 62
253
  6
CONTINUOUS
 90
16
 70
0
 10
145.6377964007
 20
125.1453109723
 10
145.6379687698
 20
125.1353968935
 10
145.6385054411
 20
125.1255078739
 10
145.6394369787
 20
125.1156988307
 10
145.6407969962
 20
125.1060088358
 10
145.6426132486
 20
125.0965238565
 10
145.6448984836
 20
125.0873664605
 10
145.6476716383
 20
125.0785979308
 10
145.6509497434
 20
125.070282444
 10
145.6547238712
 20
125.0625295704
 10
145.6589984428
 20
125.0553937681
 10
145.663775438
 20
125.0489295432
 10
145.6690227561
 20
125.0432212777
 10
145.6747293629
 20
125.0383076269
 10
145.6808822624
 20
125.0342247157
 10
145.6877675039
 20
125.0308841821
  0
LWPOLYLINE
  5
38F
100
AcDbEntity
  8
RACCORDO
100
AcDbPolyline
 62
7
  6
CONTINUOUS
 90
9
 70
0
 10
145.4451097892
 20
137.383401921
 10
145.4450059319
 20
137.3974028457
 10
145.4448233824
 20
137.4114335829
 10
145.4445675346
 20
137.4254895014
 10
145.4442329947
 20
137.4395752323
 10
145.4438035811
 20
137.4537046689
 10
145.4432739001
 20
137.4678824422
 10
145.4426493454
 20
137.4821039211
 10
145.4419299171
 20
137.4963691057
  0
LINE
  5
390
100
AcDbEntity
  8
ASSI
100
AcDbLine
 62
253
  6
CONTINUOUS
 10
144.1673947065
 20
125.9316754779
 11
144.1673947065
 21
127.0546874839
  0
LINE
  5
391
100
AcDbEntity
  8
ASSI
100
AcDbLine
 62
253
  6
CONTINUOUS
 10
144.4439133926
 20
125.9666529277
 11
144.4439133926
 21
127.0812287919
  0
LINE
  5
392
100
AcDbEntity
  8
ASSI
100
AcDbLine
 62
7
  6
CONTINUOUS
 10
144.6223277951
 20
126.1205328321
 11
144.6223277951
 21
127.2264192821
  0
LINE
  5
393
100
AcDbEntity
  8
RACCORDO
100
AcDbLine
 62
7
  6
CONTINUOUS
 10
145.4451097892
 20
137.383401921
 11
145.4451349544
 21
137.2919485535
  0
LINE
  5
394
100
AcDbEntity
  8
ASSI
100
AcDbLine
 62
7
  6
CONTINUOUS
 10
145.552511688
 20
125.5393769582
 11
145.552511688
 21
125.2392802346
  0
LINE
  5
395
100
AcDbEntity
  8
ASSI
100
AcDbLine
 62
253
  6
CONTINUOUS
 10
145.6377964007
 20
125.4454099426
 11
145.6377964007
 21
125.1453109723
  0
LWPOLYLINE
  5
396
100
AcDbEntity
  8
RACCORDO
100
AcDbPolyline
 62
253
  6
CONTINUOUS
 90
22
 70
0
 10
144.7326263935
 20
118.9678023668
 10
144.7362318796
 20
119.0397688496
 10
144.743145383
 20
119.1139769117
 10
144.7533355397
 20
119.1900590059
 10
144.7667622771
 20
119.2676300607
 10
144.783358104
 20
119.3463132073
 10
144.8030304612
 20
119.4257423889
 10
144.8256971968
 20
119.5055282923
 10
144.851252299
 20
119.5852696076
 10
144.8795487831
 20
119.6645793368
 10
144.9104625152
 20
119.7430604138
 10
144.9438517694
 20
119.8203224429
 10
144.9795253077
 20
119.8959936073
 10
145.0173261683
 20
119.969695269
 10
145.0570803559
 20
120.0410566187
 10
145.0985563534
 20
120.1097317098
 10
145.1415657587
 20
120.175370839
 10
145.1859147199
 20
120.2376473608
 10
145.2313532089
 20
120.2962711147
 10
145.2776593639
 20
120.3509519919
 10
145.32464002
 20
120.4014026836
 10
145.3720823335
 20
120.4473647638
  0
LWPOLYLINE
  5
397
100
AcDbEntity
  8
RACCORDO
100
AcDbPolyline
 62
253
  6
CONTINUOUS
 90
22
 70
0
 10
145.3930366281
 20
119.0248606206
 10
145.3953424291
 20
119.0669093621
 10
145.3996439608
 20
119.1098611041
 10
145.4059412234
 20
119.1537158467
 10
145.4142844912
 20
119.1987164012
 10
145.4246234897
 20
119.2446199564
 10
145.4368073959
 20
119.2906980777
 10
145.4508625908
 20
119.3369353107
 10
145.4667626934
 20
119.3833471099
 10
145.4842777371
 20
119.429251405
 10
145.5034334931
 20
119.4746438574
 10
145.5242041902
 20
119.5195288058
 10
145.5462825488
 20
119.5632371957
 10
145.5696880168
 20
119.6057499812
 10
145.5944011462
 20
119.6470862081
 10
145.6200563134
 20
119.6866339603
 10
145.6466804868
 20
119.7243774824
 10
145.6742466978
 20
119.7603325297
 10
145.7023084175
 20
119.7939344514
 10
145.7307168029
 20
119.8249950306
 10
145.7596206968
 20
119.8537024842
 10
145.7890200994
 20
119.8800568122
  0
LWPOLYLINE
  5
398
100
AcDbEntity
  8
RACCORDO
100
AcDbPolyline
 62
253
  6
CONTINUOUS
 90
53
 70
0
 10
161.6848289908
 20
119.3830923836
 10
161.6896387456
 20
119.3867942376
 10
161.6944245213
 20
119.3902903348
 10
161.6991857017
 20
119.3935813422
 10
161.7039124855
 20
119.3966687876
 10
161.7086132112
 20
119.3995526327
 10
161.7133141998
 20
119.4022314436
 10
161.7180163144
 20
119.4047127302
 10
161.7227163303
 20
119.4069912508
 10
161.7274338429
 20
119.4090470061
 10
161.7321744207
 20
119.4108886451
 10
161.7369287104
 20
119.4125110244
 10
161.7416930441
 20
119.4138742442
 10
161.7464699602
 20
119.414982502
 10
161.7512512331
 20
119.4158367157
 10
161.75601603
 20
119.4163929279
 10
161.7607607708
 20
119.4166525357
 10
161.7654812104
 20
119.4166210353
 10
161.7701544669
 20
119.4162614802
 10
161.7747728219
 20
119.4155772157
 10
161.7793338531
 20
119.4145737498
 10
161.7838213707
 20
119.4132184285
 10
161.7882291195
 20
119.4115169298
 10
161.7925502803
 20
119.4094750288
 10
161.7967662504
 20
119.4070615694
 10
161.8008712478
 20
119.4042814488
 10
161.8048545388
 20
119.4011443983
 10
161.8086886227
 20
119.3976278041
 10
161.81236274
 20
119.3937407944
 10
161.8158682021
 20
119.3894917611
 10
161.8191791656
 20
119.3848583071
 10
161.8222821492
 20
119.3798611816
 10
161.8251679045
 20
119.37450062
 10
161.8278137766
 20
119.3687264118
 10
161.8302087515
 20
119.3625641582
 10
161.8323341385
 20
119.3560164755
 10
161.8341496082
 20
119.3490045105
 10
161.8356422962
 20
119.3415465626
 10
161.8367841758
 20
119.3336643579
 10
161.8375052729
 20
119.3252908786
 10
161.8377859321
 20
119.3164584347
 10
161.8375954935
 20
119.3071858576
 10
161.8368405615
 20
119.2973928863
 10
161.8355068138
 20
119.2871546185
 10
161.8335477468
 20
119.2764605616
 10
161.8308060426
 20
119.265118135
 10
161.8272320625
 20
119.2531376661
 10
161.8227800679
 20
119.2406136701
 10
161.8172865143
 20
119.2274928476
 10
161.8106421765
 20
119.2137244108
 10
161.8028512838
 20
119.1994822356
 10
161.7939500271
 20
119.1850189545
 10
161.7838855883
 20
119.1703328838
  0
LINE
  5
399
100
AcDbEntity
  8
0
100
AcDbLine
 62
7
  6
CONTINUOUS
 10
149.1771488583
 20
106.857861814
 11
149.1556986071
 21
106.8664767185
  0
LWPOLYLINE
  5
39A
100
AcDbEntity
  8
0
100
AcDbPolyline
 62
7
  6
CONTINUOUS
 90
47
 70
0
 10
137.7853350208
 20
115.580094027
 10
137.845006549
 20
115.533727198
 10
137.9059509598
 20
115.4855716326
 10
137.968205467
 20
115.435537874
 10
138.0317364175
 20
115.3835879482
 10
138.0965044729
 20
115.3296843274
 10
138.1625325112
 20
115.2737347217
 10
138.2297794318
 20
115.2156983693
 10
138.2981942247
 20
115.1555393632
 10
138.3677780677
 20
115.093169891
 10
138.4384655695
 20
115.0285614272
 10
138.5102207815
 20
114.9616584782
 10
138.5830816485
 20
114.8923284362
 10
138.6568675816
 20
114.8206467478
 10
138.7316494911
 20
114.7464449941
 10
138.8078233153
 20
114.6692053803
 10
138.885280392
 20
114.5888964642
 10
138.9639718743
 20
114.5054220091
 10
139.044345932
 20
114.4181298308
 10
139.1262928659
 20
114.3269327381
 10
139.2096896147
 20
114.2317579312
 10
139.2949061023
 20
114.13194705
 10
139.3817684057
 20
114.0274251826
 10
139.4700816613
 20
113.9181357994
 10
139.5601150848
 20
113.8034196438
 10
139.6516311992
 20
113.683195544
 10
139.7443414227
 20
113.5574302431
 10
139.8383564789
 20
113.425512943
 10
139.9334033188
 20
113.287308654
 10
140.0291260665
 20
113.1427702205
 10
140.1254498775
 20
112.9913758685
 10
140.2219430361
 20
112.8331147571
 10
140.3182621707
 20
112.6678113457
 10
140.4143551975
 20
112.4946924308
 10
140.5096069517
 20
112.3139172932
 10
140.6034940054
 20
112.1254548054
 10
140.6958814457
 20
111.9283293727
 10
140.7860400083
 20
111.7225768952
 10
140.8730619792
 20
111.5085763887
 10
140.9563841471
 20
111.2858028495
 10
141.0351863198
 20
111.054149666
 10
141.108420495
 20
110.8140472125
 10
141.1750692551
 20
110.5658513703
 10
141.2341177967
 20
110.3100224079
 10
141.2843807783
 20
110.0476368138
 10
141.324579849
 20
109.780360118
 10
141.3535911262
 20
109.5091501306
  0
LWPOLYLINE
  5
39B
100
AcDbEntity
  8
ASSI
100
AcDbPolyline
 62
253
  6
CONTINUOUS
 90
8
 70
0
 10
135.5261865384
 20
131.8546173962
 10
135.526814948
 20
131.8528958208
 10
135.5273496149
 20
131.8510432723
 10
135.5277915601
 20
131.8490612263
 10
135.5281361448
 20
131.8469710344
 10
135.5283818225
 20
131.8447798138
 10
135.5285301397
 20
131.8424804473
 10
135.5285810962
 20
131.8400729349
  0
LWPOLYLINE
  5
39C
100
AcDbEntity
  8
ASSI
100
AcDbPolyline
 62
7
  6
CONTINUOUS
 90
6
 70
0
 10
150.1385361925
 20
86.7129014003
 10
150.1318150107
 20
86.7379539915
 10
150.1222341043
 20
86.7621879269
 10
150.1096516094
 20
86.7854904901
 10
150.0943186688
 20
86.8071058613
 10
150.0765056897
 20
86.8266023635
  0
LWPOLYLINE
  5
39D
100
AcDbEntity
  8
ASSI
100
AcDbPolyline
 62
253
  6
CONTINUOUS
 90
13
 70
0
 10
144.491805171
 20
133.2235805973
 10
144.4903241609
 20
133.2456085079
 10
144.486127017
 20
133.2683208015
 10
144.4792839691
 20
133.2913374391
 10
144.46990952
 20
133.3142732891
 10
144.4581605302
 20
133.3367445717
 10
144.4442335923
 20
133.3583752808
 10
144.4283617423
 20
133.3788034752
 10
144.4108105598
 20
133.397687335
 10
144.3918737245
 20
133.4147108816
 10
144.3718681017
 20
133.4295892643
 10
144.3511284404
 20
133.4420735269
 10
144.3300017721
 20
133.4519547732
  0
LWPOLYLINE
  5
39E
100
AcDbEntity
  8
ASSI
100
AcDbPolyline
 62
7
  6
CONTINUOUS
 90
12
 70
0
 10
144.9902544286
 20
132.999238329
 10
144.9858866066
 20
133.079606008
 10
144.9766924197
 20
133.1494534901
 10
144.9623034485
 20
133.2160531454
 10
144.942621583
 20
133.2787516902
 10
144.9178963506
 20
133.3363435836
 10
144.8882815069
 20
133.3885290282
 10
144.8537736087
 20
133.4353079707
 10
144.8148195677
 20
133.4760412238
 10
144.7717958076
 20
133.510407932
 10
144.7252549814
 20
133.5380920274
 10
144.6956242419
 20
133.5514979578
  0
LWPOLYLINE
  5
39F
100
AcDbEntity
  8
ASSI
100
AcDbPolyline
 62
7
  6
CONTINUOUS
 90
6
 70
0
 10
145.5525118111
 20
125.2392986043
 10
145.5539343312
 20
125.2123927941
 10
145.5580598994
 20
125.1868655756
 10
145.5650656209
 20
125.161651565
 10
145.5749644832
 20
125.1373350552
 10
145.5878819714
 20
125.1140373701
  0
LWPOLYLINE
  5
3A0
100
AcDbEntity
  8
ASSI
100
AcDbPolyline
 62
253
  6
CONTINUOUS
 90
3
 70
0
 10
144.9540950283
 20
132.933082527
 10
144.9519734739
 20
132.9809667201
 10
144.947416706
 20
133.0261447955
  0
LWPOLYLINE
  5
3A1
100
AcDbEntity
  8
ASSI
100
AcDbPolyline
 62
253
  6
CONTINUOUS
 90
22
 70
0
 10
148.0294302019
 20
124.1847770541
 10
148.0295264639
 20
124.1773705983
 10
148.0298169993
 20
124.1700969376
 10
148.0303041312
 20
124.1629683182
 10
148.0309871139
 20
124.1560214223
 10
148.0318691509
 20
124.1492427028
 10
148.0329642992
 20
124.1425756781
 10
148.0342828449
 20
124.1360268541
 10
148.0358299076
 20
124.1296303658
 10
148.037620157
 20
124.1233819795
 10
148.0396628483
 20
124.1173059868
 10
148.0419663086
 20
124.1114291352
 10
148.0445481264
 20
124.105758849
 10
148.0474181739
 20
124.1003262747
 10
148.050585412
 20
124.0951640073
 10
148.0540696879
 20
124.0902904534
 10
148.0578807252
 20
124.0857438007
 10
148.0620267829
 20
124.0815637355
 10
148.0665282909
 20
124.077780519
 10
148.0713932336
 20
124.0744396527
 10
148.0766274414
 20
124.0715878027
 10
148.0798270641
 20
124.0701791992
  0
LINE
  5
3A2
100
AcDbEntity
  8
ASSI
100
AcDbLine
 62
7
  6
CONTINUOUS
 10
146.1307175176
 20
124.8529854706
 11
146.1307175176
 21
124.4793603638
  0
LINE
  5
3A3
100
AcDbEntity
  8
ASSI
100
AcDbLine
 62
253
  6
CONTINUOUS
 10
146.2373234085
 20
124.8101701414
 11
146.2373234085
 21
124.3572079679
  0
LINE
  5
3A4
100
AcDbEntity
  8
ASSI
100
AcDbLine
 62
7
  6
CONTINUOUS
 10
146.6148895628
 20
124.0663867214
 11
146.6148895628
 21
124.6569352679
  0
LINE
  5
3A5
100
AcDbEntity
  8
ASSI
100
AcDbLine
 62
253
  6
CONTINUOUS
 10
146.7214954537
 20
123.9998785836
 11
146.7214954537
 21
124.7100730012
  0
LINE
  5
3A6
100
AcDbEntity
  8
ASSI
100
AcDbLine
 62
253
  6
CONTINUOUS
 10
146.9457311489
 20
123.9098204731
 11
146.9457311489
 21
124.6200148907
  0
LINE
  5
3A7
100
AcDbEntity
  8
ASSI
100
AcDbLine
 62
253
  6
CONTINUOUS
 10
147.2913795066
 20
123.8268261698
 11
147.2913795066
 21
124.3868374493
  0
LINE
  5
3A8
100
AcDbEntity
  8
ASSI
100
AcDbLine
 62
7
  6
CONTINUOUS
 10
147.7348505554
 20
124.2087294783
 11
147.7348505554
 21
123.8201622141
  0
LINE
  5
3A9
100
AcDbEntity
  8
ASSI
100
AcDbLine
 62
253
  6
CONTINUOUS
 10
148.0294302019
 20
124.4848736434
 11
148.0294302019
 21
124.1847770541
  0
LINE
  5
3AA
100
AcDbEntity
  8
ASSI
100
AcDbLine
 62
253
  6
CONTINUOUS
 10
148.0294302019
 20
84.8204044699
 11
148.0294302019
 21
85.1205011937
  0
LINE
  5
3AB
100
AcDbEntity
  8
ASSI
100
AcDbLine
 62
253
  6
CONTINUOUS
 10
148.305948888
 20
124.5114149514
 11
148.305948888
 21
124.2113182276
  0
LINE
  5
3AC
100
AcDbEntity
  8
ASSI
100
AcDbLine
 62
253
  6
CONTINUOUS
 10
148.305948888
 20
84.8469457779
 11
148.305948888
 21
85.1470425017
  0
LINE
  5
3AD
100
AcDbEntity
  8
ASSI
100
AcDbLine
 62
7
  6
CONTINUOUS
 10
147.8281284441
 20
128.8318978972
 11
147.8348820625
 21
129.9412816566
  0
LINE
  5
3AE
100
AcDbEntity
  8
ASSI
100
AcDbLine
 62
253
  6
CONTINUOUS
 10
147.7702635188
 20
129.8228250438
 11
147.7678025917
 21
129.5429238872
  0
LINE
  5
3AF
100
AcDbEntity
  8
ASSI
100
AcDbLine
 62
253
  6
CONTINUOUS
 10
147.7646122433
 20
129.1800597467
 11
147.7604693982
 21
128.7088604393
  0
LWPOLYLINE
  5
3B0
100
AcDbEntity
  8
ASSI
100
AcDbPolyline
 62
253
  6
CONTINUOUS
 90
19
 70
0
 10
148.0294302019
 20
85.1205011937
 10
148.0296081458
 20
85.1308265026
 10
148.0301623776
 20
85.1417164078
 10
148.031122009
 20
85.1531641524
 10
148.0325188589
 20
85.1651833372
 10
148.0343791857
 20
85.1777323187
 10
148.0367146546
 20
85.1907096402
 10
148.0395425966
 20
85.2040839143
 10
148.0428780961
 20
85.2178178115
 10
148.046710815
 20
85.2317880083
 10
148.051043696
 20
85.2459470825
 10
148.0558770017
 20
85.2602438027
 10
148.0611772765
 20
85.2745430232
 10
148.0669324176
 20
85.2887888434
 10
148.0731282695
 20
85.3029249591
 10
148.079710936
 20
85.3168180984
 10
148.0866427954
 20
85.330390193
 10
148.0939097801
 20
85.3436145352
 10
148.1014847152
 20
85.3564400389
  0
LWPOLYLINE
  5
3B1
100
AcDbEntity
  8
ASSI
100
AcDbPolyline
 62
253
  6
CONTINUOUS
 90
7
 70
0
 10
147.8348820576
 20
129.941280854
 10
147.8338894974
 20
129.9264736264
 10
147.8289996319
 20
129.9043727704
 10
147.8200772538
 20
129.8827262842
 10
147.8072152319
 20
129.8617671702
 10
147.7905511865
 20
129.8417271598
 10
147.7702635188
 20
129.8228250438
  0
LWPOLYLINE
  5
3B2
100
AcDbEntity
  8
ASSI
100
AcDbPolyline
 62
7
  6
CONTINUOUS
 90
7
 70
0
 10
147.8280487629
 20
128.8318989865
 10
147.8269703648
 20
128.8174898735
 10
147.8216606287
 20
128.7935167895
 10
147.8123146331
 20
128.7705483911
 10
147.7990691476
 20
128.7489810549
 10
147.7817874026
 20
128.7284184043
 10
147.7604693982
 20
128.7088604393
  0
LWPOLYLINE
  5
3B3
100
AcDbEntity
  8
ASSI
100
AcDbPolyline
 62
7
  6
CONTINUOUS
 90
3
 70
0
 10
150.134558569
 20
125.6565253404
 10
150.1392509228
 20
125.6779665776
 10
150.1422746364
 20
125.6993792798
  0
LINE
  5
3B4
100
AcDbEntity
  8
0
100
AcDbLine
 62
7
  6
CONTINUOUS
 10
149.1771488583
 20
106.857861814
 11
150.0696888896
 21
107.4853140136
  0
LWPOLYLINE
  5
3B5
100
AcDbEntity
  8
RACCORDO
100
AcDbPolyline
 62
7
  6
CONTINUOUS
 90
16
 70
0
 10
161.6848289149
 20
111.3822834877
 10
161.6788377563
 20
111.3798641809
 10
161.6729490879
 20
111.377798995
 10
161.6671629096
 20
111.37608793
 10
161.6614727034
 20
111.374732569
 10
161.6558849874
 20
111.3737313288
 10
161.6504193157
 20
111.3730794602
 10
161.6450786924
 20
111.3727830574
 10
161.6398601135
 20
111.3728360263
 10
161.6347741205
 20
111.3732153341
 10
161.6298245255
 20
111.3739258888
 10
161.6250075164
 20
111.3749627826
 10
161.6203221984
 20
111.376288259
 10
161.615768273
 20
111.3778897325
 10
161.6113460386
 20
111.3797797887
 10
161.6070554952
 20
111.3819584274
  0
LINE
  5
3B6
100
AcDbEntity
  8
0
100
AcDbLine
 62
7
  6
CONTINUOUS
 10
135.9176392831
 20
116.6758567735
 11
135.9556114407
 21
116.6599902452
  0
LINE
  5
3B7
100
AcDbEntity
  8
0
100
AcDbLine
 62
7
  6
CONTINUOUS
 10
135.9556114407
 20
116.6599902452
 11
135.9962792298
 21
116.6427122351
  0
LINE
  5
3B8
100
AcDbEntity
  8
0
100
AcDbLine
 62
7
  6
CONTINUOUS
 10
135.9962792298
 20
116.6427122351
 11
136.0251167621
 21
116.6302817109
  0
LINE
  5
3B9
100
AcDbEntity
  8
0
100
AcDbLine
 62
7
  6
CONTINUOUS
 10
136.0251167621
 20
116.6302817109
 11
136.0555227416
 21
116.6170145007
  0
LINE
  5
3BA
100
AcDbEntity
  8
0
100
AcDbLine
 62
7
  6
CONTINUOUS
 10
136.0555227416
 20
116.6170145007
 11
136.0876020539
 21
116.6028383941
  0
LINE
  5
3BB
100
AcDbEntity
  8
0
100
AcDbLine
 62
7
  6
CONTINUOUS
 10
136.0876020539
 20
116.6028383941
 11
136.121511434
 21
116.5876539382
  0
LINE
  5
3BC
100
AcDbEntity
  8
0
100
AcDbLine
 62
7
  6
CONTINUOUS
 10
136.121511434
 20
116.5876539382
 11
136.1574071837
 21
116.5713563211
  0
LINE
  5
3BD
100
AcDbEntity
  8
0
100
AcDbLine
 62
7
  6
CONTINUOUS
 10
136.1574071837
 20
116.5713563211
 11
136.1953907341
 21
116.5538600889
  0
LINE
  5
3BE
100
AcDbEntity
  8
0
100
AcDbLine
 62
7
  6
CONTINUOUS
 10
136.1953907341
 20
116.5538600889
 11
136.2356510025
 21
116.5350334327
  0
LINE
  5
3BF
100
AcDbEntity
  8
0
100
AcDbLine
 62
7
  6
CONTINUOUS
 10
136.2356510025
 20
116.5350334327
 11
136.2781571641
 21
116.5148414967
  0
LINE
  5
3C0
100
AcDbEntity
  8
0
100
AcDbLine
 62
7
  6
CONTINUOUS
 10
136.2781571641
 20
116.5148414967
 11
136.3228143083
 21
116.4932786361
  0
LINE
  5
3C1
100
AcDbEntity
  8
0
100
AcDbLine
 62
7
  6
CONTINUOUS
 10
136.3228143083
 20
116.4932786361
 11
136.3693112474
 21
116.4704465048
  0
LINE
  5
3C2
100
AcDbEntity
  8
0
100
AcDbLine
 62
7
  6
CONTINUOUS
 10
136.3693112474
 20
116.4704465048
 11
136.4174862982
 21
116.4463794306
  0
LINE
  5
3C3
100
AcDbEntity
  8
0
100
AcDbLine
 62
7
  6
CONTINUOUS
 10
136.4174862982
 20
116.4463794306
 11
136.4673781903
 21
116.4210126446
  0
LINE
  5
3C4
100
AcDbEntity
  8
0
100
AcDbLine
 62
7
  6
CONTINUOUS
 10
136.4673781903
 20
116.4210126446
 11
136.5192806326
 21
116.3941447418
  0
LINE
  5
3C5
100
AcDbEntity
  8
0
100
AcDbLine
 62
7
  6
CONTINUOUS
 10
136.5192806326
 20
116.3941447418
 11
136.5735514077
 21
116.3655265228
  0
LINE
  5
3C6
100
AcDbEntity
  8
0
100
AcDbLine
 62
7
  6
CONTINUOUS
 10
136.5735514077
 20
116.3655265228
 11
136.630410265
 21
116.3349661247
  0
LWPOLYLINE
  5
3C7
100
AcDbEntity
  8
0
100
AcDbPolyline
 62
7
  6
CONTINUOUS
 90
27
 70
0
 10
136.630410265
 20
116.3349661247
 10
136.6901908423
 20
116.3021949055
 10
136.721286086
 20
116.2848879161
 10
136.7532196023
 20
116.2669278541
 10
136.7859877041
 20
116.2483014009
 10
136.819701634
 20
116.2289282438
 10
136.8543578338
 20
116.2087919361
 10
136.8899514602
 20
116.1878762171
 10
136.9265906845
 20
116.1660965318
 10
136.9642702545
 20
116.1434333823
 10
137.0029843636
 20
116.1198669122
 10
137.0428389433
 20
116.0953070958
 10
137.0838364586
 20
116.0697248448
 10
137.1259599426
 20
116.043102291
 10
137.1692845803
 20
116.0153614429
 10
137.2138066252
 20
115.9864722407
 10
137.259511309
 20
115.9564108071
 10
137.3064555679
 20
115.9251041981
 10
137.3546288913
 20
115.8925218007
 10
137.4040185108
 20
115.8586335422
 10
137.4546760111
 20
115.8233631899
 10
137.5065763425
 20
115.7866847337
 10
137.5597155406
 20
115.748556666
 10
137.6141734026
 20
115.708875242
 10
137.6699340954
 20
115.6676016362
 10
137.7269694764
 20
115.6247057795
 10
137.7853350208
 20
115.580094027
  0
LWPOLYLINE
  5
3C8
100
AcDbEntity
  8
ASSI
100
AcDbPolyline
 62
7
  6
CONTINUOUS
 90
4
 70
0
 10
131.007091034
 20
130.969876128
 10
131.0223992081
 20
130.9488175052
 10
131.0400860332
 20
130.929826145
 10
131.0598799405
 20
130.9131861149
  0
LINE
  5
3C9
100
AcDbEntity
  8
DRAFT
100
AcDbLine
 62
7
  6
CONTINUOUS
 10
144.2070126351
 20
135.3942043978
 11
144.401284473
 21
133.9963014463
  0
LWPOLYLINE
  5
3CA
100
AcDbEntity
  8
ASSI
100
AcDbPolyline
 62
253
  6
CONTINUOUS
 90
3
 70
0
 10
150.1043064446
 20
86.6987532541
 10
150.1013475625
 20
86.7245528327
 10
150.0954842043
 20
86.7496993969
  0
LWPOLYLINE
  5
3CB
100
AcDbEntity
  8
ASSI
100
AcDbPolyline
 62
253
  6
CONTINUOUS
 90
13
 70
0
 10
148.334829636
 20
124.5751665177
 10
148.3331782248
 20
124.596908551
 10
148.3287876379
 20
124.6194319844
 10
148.3217329677
 20
124.6423515868
 10
148.3121348725
 20
124.6652753496
 10
148.300157512
 20
124.6878111941
 10
148.286005739
 20
124.709573677
 10
148.2699215967
 20
124.7301905809
 10
148.2521801816
 20
124.7493092779
 10
148.2330849378
 20
124.7666027643
 10
148.212962464
 20
124.7817752553
 10
148.1921569274
 20
124.7945672443
 10
148.1710241793
 20
124.8047599387
  0
LWPOLYLINE
  5
3CC
100
AcDbEntity
  8
ASSI
100
AcDbPolyline
 62
253
  6
CONTINUOUS
 90
13
 70
0
 10
147.7702635188
 20
129.8228250438
 10
147.7688094236
 20
129.8505024625
 10
147.7638353059
 20
129.8790779517
 10
147.7554262411
 20
129.9080627661
 10
147.743726055
 20
129.9369611594
 10
147.7289348636
 20
129.9652788637
 10
147.7113056508
 20
129.9925315432
 10
147.6911399405
 20
130.0182530776
 10
147.6687826401
 20
130.0420035348
 10
147.6446161408
 20
130.0633766953
 10
147.6190537781
 20
130.0820070001
 10
147.5925327617
 20
130.0975758028
 10
147.5655066979
 20
130.1098168201
  0
LWPOLYLINE
  5
3CD
100
AcDbEntity
  8
ASSI
100
AcDbPolyline
 62
7
  6
CONTINUOUS
 90
16
 70
0
 10
150.0696888896
 20
123.5231735939
 10
150.0674722749
 20
123.5665763362
 10
150.0607593072
 20
123.6114129992
 10
150.0495844049
 20
123.6572236316
 10
150.0339572921
 20
123.7036903302
 10
150.0140558468
 20
123.7501472348
 10
149.9903705238
 20
123.7955974719
 10
149.9634959908
 20
123.8391997164
 10
149.93360569
 20
123.8808977627
 10
149.9006003673
 20
123.9208557016
 10
149.8644646262
 20
123.9589093684
 10
149.8258274088
 20
123.9942317235
 10
149.7855575429
 20
124.0260344912
 10
149.744282978
 20
124.0539099513
 10
149.7023146076
 20
124.0777176163
 10
149.6601128756
 20
124.0972445634
  0
LWPOLYLINE
  5
3CE
100
AcDbEntity
  8
ASSI
100
AcDbPolyline
 62
7
  6
CONTINUOUS
 90
3
 70
0
 10
150.1436799721
 20
86.6623720555
 10
150.1424306887
 20
86.6875960607
 10
150.1385361925
 20
86.7129014003
  0
LWPOLYLINE
  5
3CF
100
AcDbEntity
  8
ASSI
100
AcDbPolyline
 62
7
  6
CONTINUOUS
 90
16
 70
0
 10
147.8348688288
 20
129.9413336323
 10
147.8339327237
 20
129.966425187
 10
147.8288486676
 20
130.001975699
 10
147.8193152158
 20
130.0370163479
 10
147.8053674639
 20
130.0709925558
 10
147.7872056879
 20
130.1032880055
 10
147.7649635392
 20
130.133574481
 10
147.738713728
 20
130.1615692039
 10
147.708877702
 20
130.1867197179
 10
147.675986909
 20
130.2086376252
 10
147.6398052131
 20
130.2274300124
 10
147.6007941126
 20
130.242759193
 10
147.5604143498
 20
130.2541553508
 10
147.5184368465
 20
130.2618087894
 10
147.4749562707
 20
130.265641071
 10
147.4319650029
 20
130.2655041516
  0
LWPOLYLINE
  5
3D0
100
AcDbEntity
  8
ASSI
100
AcDbPolyline
 62
7
  6
CONTINUOUS
 90
11
 70
0
 10
150.1436798337
 20
126.0482138858
 10
150.1433150811
 20
126.0618993871
 10
150.1402975953
 20
126.0893738225
 10
150.1338661754
 20
126.1172218509
 10
150.1239581372
 20
126.144203473
 10
150.1107659317
 20
126.1694952633
 10
150.0943049618
 20
126.1929429775
 10
150.0748016345
 20
126.2140512514
 10
150.0526282138
 20
126.2323388862
 10
150.0282275357
 20
126.2474233609
 10
150.008485312
 20
126.2565709268
  0
LWPOLYLINE
  5
3D1
100
AcDbEntity
  8
ASSI
100
AcDbPolyline
 62
253
  6
CONTINUOUS
 90
20
 70
0
 10
150.1094874845
 20
125.9840522105
 10
150.1094571853
 20
125.986146409
 10
150.1093416289
 20
125.9881910381
 10
150.1091408154
 20
125.9901860978
 10
150.1088567043
 20
125.9921460551
 10
150.1084873361
 20
125.994056443
 10
150.108026832
 20
125.9958738602
 10
150.1074720282
 20
125.9975957924
 10
150.1068260885
 20
125.9992247537
 10
150.1060926252
 20
126.0007248862
 10
150.1052690066
 20
126.0020918246
 10
150.1043578643
 20
126.0033299341
 10
150.1033707065
 20
126.0044164516
 10
150.1023067428
 20
126.005346808
 10
150.1011667635
 20
126.0061255723
 10
150.0999646475
 20
126.0067436884
 10
150.0987005437
 20
126.0071986713
 10
150.0973743031
 20
126.007493006
 10
150.0959993582
 20
126.0076250904
 10
150.0945752704
 20
126.0075935283
  0
LWPOLYLINE
  5
3D2
100
AcDbEntity
  8
ASSI
100
AcDbPolyline
 62
253
  6
CONTINUOUS
 90
25
 70
0
 10
148.305948888
 20
124.2113182276
 10
148.30596783
 20
124.2098324983
 10
148.3060272646
 20
124.2083779315
 10
148.306127192
 20
124.2069545273
 10
148.3062660305
 20
124.2055639026
 10
148.3064453617
 20
124.2042044405
 10
148.3066699305
 20
124.2028712904
 10
148.3069392316
 20
124.2015600977
 10
148.3072537702
 20
124.2002752171
 10
148.3076198072
 20
124.1990248609
 10
148.3080370029
 20
124.1978074579
 10
148.3085056971
 20
124.1966245794
 10
148.309033169
 20
124.1954891523
 10
148.3096192559
 20
124.1943995541
 10
148.3102641206
 20
124.1933574073
 10
148.310975531
 20
124.1923805065
 10
148.3117536213
 20
124.1914671146
 10
148.3125982574
 20
124.1906189687
 10
148.3135168042
 20
124.1898590744
 10
148.314509835
 20
124.1891857856
 10
148.3155767765
 20
124.1886007485
 10
148.316723275
 20
124.1881319067
 10
148.3179512123
 20
124.187788575
 10
148.3192587066
 20
124.1875614387
 10
148.3206457577
 20
124.1874504979
  0
LWPOLYLINE
  5
3D3
100
AcDbEntity
  8
ASSI
100
AcDbPolyline
 62
253
  6
CONTINUOUS
 90
25
 70
0
 10
150.1094874845
 20
86.5982322326
 10
150.109469464
 20
86.5997175919
 10
150.1094129205
 20
86.6011709975
 10
150.109317854
 20
86.6025924494
 10
150.1091857692
 20
86.6039803617
 10
150.1090151614
 20
86.6053363202
 10
150.1088015166
 20
86.6066650831
 10
150.1085453155
 20
86.6079710145
 10
150.1082460773
 20
86.6092497502
 10
150.1078978459
 20
86.6104929552
 10
150.1075009443
 20
86.6117022076
 10
150.1070550495
 20
86.6128759294
 10
150.106553236
 20
86.6140010515
 10
150.1059956588
 20
86.6150791996
 10
150.1053821631
 20
86.6161087479
 10
150.1047053587
 20
86.6170717501
 10
150.1039651179
 20
86.6179699408
 10
150.1031615685
 20
86.6188015853
 10
150.1022877036
 20
86.6195435343
 10
150.1013429781
 20
86.6201974227
 10
150.1003279371
 20
86.6207616154
 10
150.0992372091
 20
86.6212080585
 10
150.0980690038
 20
86.6215274005
 10
150.0968251116
 20
86.6217289927
 10
150.0955055324
 20
86.6218128353
  0
LINE
  5
3D4
100
AcDbEntity
  8
ASSI
100
AcDbLine
 62
253
  6
CONTINUOUS
 10
148.5770560668
 20
124.0485714543
 11
148.5770560668
 21
123.3702932027
  0
LINE
  5
3D5
100
AcDbEntity
  8
ASSI
100
AcDbLine
 62
253
  6
CONTINUOUS
 10
148.5770560668
 20
86.5035778124
 11
148.5770560668
 21
86.1919419052
  0
LINE
  5
3D6
100
AcDbEntity
  8
ASSI
100
AcDbLine
 62
253
  6
CONTINUOUS
 10
148.9227044244
 20
124.178403476
 11
148.9227044244
 21
123.4611510777
  0
LINE
  5
3D7
100
AcDbEntity
  8
ASSI
100
AcDbLine
 62
253
  6
CONTINUOUS
 10
148.9227044244
 20
86.7400231321
 11
148.9227044244
 21
86.1537651972
  0
LINE
  5
3D8
100
AcDbEntity
  8
RACCORDO
100
AcDbLine
 62
7
  6
CONTINUOUS
 10
149.1556986071
 20
87.0684070837
 11
149.1556986071
 21
122.7326165407
  0
LINE
  5
3D9
100
AcDbEntity
  8
0
100
AcDbLine
 62
7
  6
CONTINUOUS
 10
149.1771488583
 20
87.0168622397
 11
149.1771488583
 21
102.9259320014
  0
LINE
  5
3DA
100
AcDbEntity
  8
0
100
AcDbLine
 62
7
  6
CONTINUOUS
 10
149.1771488583
 20
106.857861814
 11
149.1771488583
 21
122.7669315757
  0
LINE
  5
3DB
100
AcDbEntity
  8
ASSI
100
AcDbLine
 62
7
  6
CONTINUOUS
 10
149.6601128675
 20
124.0972447729
 11
149.6601128675
 21
125.6536586092
  0
LINE
  5
3DC
100
AcDbEntity
  8
ASSI
100
AcDbLine
 62
7
  6
CONTINUOUS
 10
149.6601128675
 20
85.8428193524
 11
149.6601129067
 21
87.1983383059
  0
LINE
  5
3DD
100
AcDbEntity
  8
ASSI
100
AcDbLine
 62
7
  6
CONTINUOUS
 10
150.0696888896
 20
123.5231735939
 11
150.0696888896
 21
121.1476328581
  0
LINE
  5
3DE
100
AcDbEntity
  8
0
100
AcDbLine
 62
7
  6
CONTINUOUS
 10
150.0696888896
 20
107.4853140136
 11
150.0696888896
 21
103.6821740196
  0
LINE
  5
3DF
100
AcDbEntity
  8
ASSI
100
AcDbLine
 62
7
  6
CONTINUOUS
 10
150.0696888896
 20
87.6443144393
 11
150.0696888896
 21
90.0198551751
  0
LINE
  5
3E0
100
AcDbEntity
  8
ASSI
100
AcDbLine
 62
253
  6
CONTINUOUS
 10
150.1094874845
 20
86.2766879806
 11
150.1094874845
 21
86.5982322326
  0
LINE
  5
3E1
100
AcDbEntity
  8
ASSI
100
AcDbLine
 62
253
  6
CONTINUOUS
 10
150.1094874845
 20
125.6625079585
 11
150.1094874845
 21
125.9840522105
  0
LINE
  5
3E2
100
AcDbEntity
  8
ASSI
100
AcDbLine
 62
7
  6
CONTINUOUS
 10
150.14367997
 20
86.3408359551
 11
150.14367997
 21
86.6623802072
  0
LINE
  5
3E3
100
AcDbEntity
  8
ASSI
100
AcDbLine
 62
7
  6
CONTINUOUS
 10
150.14367997
 20
125.7266559331
 11
150.14367997
 21
126.0482001852
  0
LINE
  5
3E4
100
AcDbEntity
  8
ASSI
100
AcDbLine
 62
7
  6
CONTINUOUS
 10
150.6289669738
 20
88.1341390694
 11
150.6289669738
 21
90.8598737856
  0
LINE
  5
3E5
100
AcDbEntity
  8
ASSI
100
AcDbLine
 62
7
  6
CONTINUOUS
 10
150.6289669738
 20
121.2587919495
 11
150.6289669738
 21
123.9845266658
  0
LINE
  5
3E6
100
AcDbEntity
  8
ASSI
100
AcDbLine
 62
7
  6
CONTINUOUS
 10
150.1436105196
 20
125.7206330271
 11
150.1436799576
 21
125.7266927721
  0
LWPOLYLINE
  5
3E7
100
AcDbEntity
  8
ASSI
100
AcDbPolyline
 62
253
  6
CONTINUOUS
 90
19
 70
0
 10
148.305948888
 20
85.1470425017
 10
148.3059755397
 20
85.1491115319
 10
148.3060905986
 20
85.1512883403
 10
148.3062940645
 20
85.1535729267
 10
148.3065821424
 20
85.1559753195
 10
148.3069586275
 20
85.1584854903
 10
148.3074349052
 20
85.1610733548
 10
148.3080142688
 20
85.1637426351
 10
148.3086934251
 20
85.1664896092
 10
148.3094738799
 20
85.1692730257
 10
148.3103591775
 20
85.172095079
 10
148.3113457736
 20
85.1749535748
 10
148.3124245414
 20
85.1778006791
 10
148.3135986885
 20
85.1806364841
 10
148.3148650072
 20
85.1834608975
 10
148.3162047484
 20
85.1862258089
 10
148.3176116624
 20
85.1889151813
 10
148.3190919988
 20
85.1915450516
 10
148.3206457577
 20
85.1941154199
  0
LINE
  5
3E8
100
AcDbEntity
  8
ASSI
100
AcDbLine
 62
7
  6
CONTINUOUS
 10
150.1433092798
 20
86.3268874741
 11
150.143679718
 21
86.3410041092
  0
LINE
  5
3E9
100
AcDbEntity
  8
ASSI
100
AcDbLine
 62
7
  6
CONTINUOUS
 10
150.1422746364
 20
125.6993792798
 11
150.1436105196
 21
125.7206330271
  0
LWPOLYLINE
  5
3EA
100
AcDbEntity
  8
RACCORDO
100
AcDbPolyline
 62
7
  6
CONTINUOUS
 90
121
 70
0
 10
161.6848289908
 20
119.3830923836
 10
161.7246998262
 20
119.4339626036
 10
161.7632539087
 20
119.4834983826
 10
161.8004912383
 20
119.5316997204
 10
161.8363730797
 20
119.5785281069
 10
161.8709381681
 20
119.6240220524
 10
161.9043027099
 20
119.6682970876
 10
161.9364726939
 20
119.7113598146
 10
161.9674421313
 20
119.7532036315
 10
161.9973092616
 20
119.7939242633
 10
162.02607458
 20
119.8335209667
 10
162.0537375914
 20
119.871994485
 10
162.0803950487
 20
119.909442774
 10
162.1060520934
 20
119.9458716117
 10
162.1307035841
 20
119.9812752201
 10
162.1544308497
 20
120.0157342198
 10
162.177242293
 20
120.0492603021
 10
162.1991295112
 20
120.0818417757
 10
162.2201486251
 20
120.1135241879
 10
162.2402974697
 20
120.1443041274
 10
162.25957821
 20
120.1741850055
 10
162.2780534623
 20
120.2032226029
 10
162.2957226096
 20
120.2314152175
 10
162.3125862689
 20
120.2587645513
 10
162.3287089077
 20
120.2853314912
 10
162.3440933223
 20
120.3111199296
 10
162.3587367165
 20
120.336125974
 10
162.3726951682
 20
120.3603988332
 10
162.3859700649
 20
120.3839406326
 10
162.3985600192
 20
120.4067492467
 10
162.4105169473
 20
120.4288675082
 10
162.4218420961
 20
120.4502979174
 10
162.4325342186
 20
120.4710379739
 10
162.4426414904
 20
120.4911230095
 10
162.4521644924
 20
120.5105550559
 10
162.4611026438
 20
120.5293320813
 10
162.4695023781
 20
120.5474833221
 10
162.4773637542
 20
120.565010663
 10
162.4846867132
 20
120.5819122194
 10
162.4915175112
 20
120.5982115738
 10
162.4978552834
 20
120.6139092854
 10
162.5037008946
 20
120.6290047949
 10
162.5091031961
 20
120.6435200076
 10
162.514059115
 20
120.657447746
 10
162.5185717243
 20
120.6707951875
 10
162.5226990937
 20
120.6836057688
 10
162.5264389843
 20
120.6958665086
 10
162.5297936351
 20
120.7075903881
 10
162.5328278318
 20
120.7188597877
 10
162.5355446787
 20
120.7296702447
 10
162.5379410715
 20
120.7400262217
 10
162.5400724838
 20
120.7500234871
 10
162.5419450251
 20
120.7596676013
 10
162.5435525859
 20
120.7689530038
 10
162.5449323107
 20
120.777958782
 10
162.5460896315
 20
120.7866910319
 10
162.5470191165
 20
120.7951436574
 10
162.5477416147
 20
120.8033774582
 10
162.5482617512
 20
120.8113968046
 10
162.5485749011
 20
120.8191973261
 10
162.5486880385
 20
120.8268267111
 10
162.5486055847
 20
120.8342887393
 10
162.5483231185
 20
120.841579631
 10
162.5478343495
 20
120.848735735
 10
162.5471438872
 20
120.855760526
 10
162.5462471223
 20
120.8626505294
 10
162.5451239364
 20
120.8694316702
 10
162.543779653
 20
120.8761072376
 10
162.5422089486
 20
120.8826739424
 10
162.5403757352
 20
120.8891478417
 10
162.5382864202
 20
120.895533016
 10
162.5359345961
 20
120.9018253848
 10
162.5332649527
 20
120.908028764
 10
162.5302813696
 20
120.9141526156
 10
162.526979967
 20
120.9201874774
 10
162.5232937955
 20
120.9261087794
 10
162.5192200513
 20
120.9319273246
 10
162.5147615381
 20
120.9376323098
 10
162.5098597174
 20
120.9431667555
 10
162.5045110617
 20
120.9485326956
 10
162.4987190985
 20
120.953728096
 10
162.4924358717
 20
120.9586898755
 10
162.4856610179
 20
120.9634153936
 10
162.4783949005
 20
120.9679072906
 10
162.4705906536
 20
120.9721104062
 10
162.4622480927
 20
120.9760230685
 10
162.4533674023
 20
120.9796469493
 10
162.44390227
 20
120.9829319039
 10
162.4338533215
 20
120.9858768087
 10
162.423219931
 20
120.9884827873
 10
162.4119539091
 20
120.9907030657
 10
162.4000564126
 20
120.9925372358
 10
162.3875262846
 20
120.9939857057
 10
162.3743118651
 20
120.9950029256
 10
162.3604147441
 20
120.9955891117
 10
162.3458333316
 20
120.9957440477
 10
162.3305111976
 20
120.9954215351
 10
162.3144502481
 20
120.9946223035
 10
162.2976485771
 20
120.9933456233
 10
162.2800440363
 20
120.9915431071
 10
162.2616388155
 20
120.9892158982
 10
162.2424307248
 20
120.9863628533
 10
162.2223510463
 20
120.9829321545
 10
162.2014022294
 20
120.9789252901
 10
162.1795818247
 20
120.9743407718
 10
162.1568137656
 20
120.9691223172
 10
162.1331006849
 20
120.9632716909
 10
162.1084399498
 20
120.9567871284
 10
162.0827475963
 20
120.9496070541
 10
162.0560264773
 20
120.9417334781
 10
162.0282737399
 20
120.9331643902
 10
161.9993968602
 20
120.9238321843
 10
161.9693989624
 20
120.9137391158
 10
161.9382769224
 20
120.9028829292
 10
161.9059288442
 20
120.891189252
 10
161.8723600506
 20
120.8786614084
 10
161.8375652188
 20
120.8652960742
 10
161.8014264847
 20
120.8510089043
 10
161.7639045602
 20
120.8357717837
 10
161.7250387334
 20
120.8196128274
 10
161.6848290043
 20
120.8025320355
  0
LWPOLYLINE
  5
3EB
100
AcDbEntity
  8
0
100
AcDbPolyline
 62
7
  6
CONTINUOUS
 90
5
 70
0
 10
140.6494485137
 20
94.2134935644
 10
140.4976863239
 20
94.0268316409
 10
140.3335265716
 20
93.8538412616
 10
140.1569657661
 20
93.6947235908
 10
139.9647212307
 20
93.5469564729
  0
LINE
  5
3EC
100
AcDbEntity
  8
DRAFT
100
AcDbLine
 62
7
  6
CONTINUOUS
 10
161.7783033387
 20
119.1582055682
 11
162.5803438836
 21
119.9908720542
  0
LINE
  5
3ED
100
AcDbEntity
  8
0
100
AcDbLine
 62
7
  6
CONTINUOUS
 10
135.3554220908
 20
116.8806110011
 11
135.4075311187
 21
116.8640197092
  0
LINE
  5
3EE
100
AcDbEntity
  8
0
100
AcDbLine
 62
7
  6
CONTINUOUS
 10
135.4075311187
 20
116.8640197092
 11
135.4570751127
 21
116.8477904139
  0
LINE
  5
3EF
100
AcDbEntity
  8
0
100
AcDbLine
 62
7
  6
CONTINUOUS
 10
135.4570751127
 20
116.8477904139
 11
135.503963983
 21
116.8320236582
  0
LINE
  5
3F0
100
AcDbEntity
  8
0
100
AcDbLine
 62
7
  6
CONTINUOUS
 10
135.503963983
 20
116.8320236582
 11
135.5483509227
 21
116.8167340656
  0
LINE
  5
3F1
100
AcDbEntity
  8
0
100
AcDbLine
 62
7
  6
CONTINUOUS
 10
135.5483509227
 20
116.8167340656
 11
135.5903272467
 21
116.8019495527
  0
LINE
  5
3F2
100
AcDbEntity
  8
0
100
AcDbLine
 62
7
  6
CONTINUOUS
 10
135.5903272467
 20
116.8019495527
 11
135.6300586501
 21
116.7876648392
  0
LINE
  5
3F3
100
AcDbEntity
  8
0
100
AcDbLine
 62
7
  6
CONTINUOUS
 10
135.6300586501
 20
116.7876648392
 11
135.6677105569
 21
116.7738669767
  0
LINE
  5
3F4
100
AcDbEntity
  8
0
100
AcDbLine
 62
7
  6
CONTINUOUS
 10
135.6677105569
 20
116.7738669767
 11
135.7033920309
 21
116.7605571884
  0
LINE
  5
3F5
100
AcDbEntity
  8
0
100
AcDbLine
 62
7
  6
CONTINUOUS
 10
135.7033920309
 20
116.7605571884
 11
135.7372691134
 21
116.7477098675
  0
LINE
  5
3F6
100
AcDbEntity
  8
0
100
AcDbLine
 62
7
  6
CONTINUOUS
 10
135.7372691134
 20
116.7477098675
 11
135.7694393423
 21
116.7353200298
  0
LINE
  5
3F7
100
AcDbEntity
  8
0
100
AcDbLine
 62
7
  6
CONTINUOUS
 10
135.7694393423
 20
116.7353200298
 11
135.800216728
 21
116.7232936225
  0
LINE
  5
3F8
100
AcDbEntity
  8
0
100
AcDbLine
 62
7
  6
CONTINUOUS
 10
135.800216728
 20
116.7232936225
 11
135.8306209306
 21
116.711246936
  0
LINE
  5
3F9
100
AcDbEntity
  8
0
100
AcDbLine
 62
7
  6
CONTINUOUS
 10
135.8306209306
 20
116.711246936
 11
135.8698571868
 21
116.6954569317
  0
LWPOLYLINE
  5
3FA
100
AcDbEntity
  8
0
100
AcDbPolyline
 62
7
  6
CONTINUOUS
 90
3
 70
0
 10
135.8698571868
 20
116.6954569317
 10
135.9055775108
 20
116.6808429242
 10
135.9176392831
 20
116.6758567735
  0
LWPOLYLINE
  5
3FB
100
AcDbEntity
  8
ASSI
100
AcDbPolyline
 62
253
  6
CONTINUOUS
 90
19
 70
0
 10
144.9404247246
 20
133.0686167532
 10
144.9309334398
 20
133.1086133305
 10
144.9190069415
 20
133.1459037901
 10
144.9048374994
 20
133.1797959202
 10
144.8883865118
 20
133.2102092164
 10
144.8696925806
 20
133.237224183
 10
144.8490637805
 20
133.2603901217
 10
144.8264675743
 20
133.2796398286
 10
144.8019364992
 20
133.2950405074
 10
144.7758762419
 20
133.3063430714
 10
144.7482632925
 20
133.3134782127
 10
144.7191211609
 20
133.3165152392
 10
144.6889260638
 20
133.3154129872
 10
144.6576437945
 20
133.3100915025
 10
144.6253085597
 20
133.3006307395
 10
144.5924991963
 20
133.2872293975
 10
144.5594086498
 20
133.2699537097
 10
144.5258439747
 20
133.248737443
 10
144.491805171
 20
133.2235805973
  0
LWPOLYLINE
  5
3FC
100
AcDbEntity
  8
ASSI
100
AcDbPolyline
 62
253
  6
CONTINUOUS
 90
3
 70
0
 10
145.5558606941
 20
125.2183750724
 10
145.5528012126
 20
125.2331099269
 10
145.552511688
 20
125.2392802371
  0
LINE
  5
3FD
100
AcDbEntity
  8
ASSI
100
AcDbLine
 62
253
  6
CONTINUOUS
 10
144.947416706
 20
133.0261447955
 11
144.9404247246
 21
133.0686167532
  0
LWPOLYLINE
  5
3FE
100
AcDbEntity
  8
ASSI
100
AcDbPolyline
 62
253
  6
CONTINUOUS
 90
13
 70
0
 10
150.0820116177
 20
126.0016391406
 10
150.0808483407
 20
126.0237810744
 10
150.076869046
 20
126.0466414649
 10
150.070141794
 20
126.069829316
 10
150.0607816453
 20
126.0929480306
 10
150.0489486927
 20
126.1156021944
 10
150.0348453229
 20
126.1374043385
 10
150.018712755
 20
126.1579815665
 10
150.0008269147
 20
126.1769819327
 10
149.9814937154
 20
126.1940804614
 10
149.9610438253
 20
126.2089847054
 10
149.9398270122
 20
126.2214397478
 10
149.9182061611
 20
126.2312325616
  0
LINE
  5
3FF
100
AcDbEntity
  8
ASSI
100
AcDbLine
 62
7
  6
CONTINUOUS
 10
150.908606016
 20
121.4986807052
 11
150.908606016
 21
121.1516096546
  0
LINE
  5
400
100
AcDbEntity
  8
ASSI
100
AcDbLine
 62
7
  6
CONTINUOUS
 10
150.908606016
 20
91.3369228615
 11
150.908606016
 21
91.0955738809
  0
LINE
  5
401
100
AcDbEntity
  8
ASSI
100
AcDbLine
 62
7
  6
CONTINUOUS
 10
150.9622289209
 20
121.1300734871
 11
150.9622289209
 21
91.4211087639
  0
LINE
  5
402
100
AcDbEntity
  8
RACCORDO
100
AcDbLine
 62
7
  6
CONTINUOUS
 10
150.9710111463
 20
120.7478723876
 11
150.9710111463
 21
91.796255584
  0
LWPOLYLINE
  5
403
100
AcDbEntity
  8
ASSI
100
AcDbPolyline
 62
7
  6
CONTINUOUS
 90
8
 70
0
 10
150.0696888896
 20
87.6442518663
 10
150.0674373449
 20
87.6026093591
 10
150.0607308176
 20
87.5630123102
 10
150.0495807559
 20
87.525917337
 10
150.0339629485
 20
87.491623366
 10
150.0140460884
 20
87.4607119555
 10
149.9903475303
 20
87.4339048148
 10
149.9818762688
 20
87.426103152
  0
LWPOLYLINE
  5
404
100
AcDbEntity
  8
ASSI
100
AcDbPolyline
 62
253
  6
CONTINUOUS
 90
6
 70
0
 10
150.0820116177
 20
86.2123721824
 10
150.0808483454
 20
86.1917605895
 10
150.0768690637
 20
86.1725986839
 10
150.0701418303
 20
86.1552142047
 10
150.060781703
 20
86.1399044915
 10
150.0479840649
 20
86.1260740147
  0
LINE
  5
405
100
AcDbEntity
  8
ASSI
100
AcDbLine
 62
7
  6
CONTINUOUS
 10
150.14090008
 20
86.3023530387
 11
150.1433092798
 21
86.3268874741
  0
LWPOLYLINE
  5
406
100
AcDbEntity
  8
RACCORDO
100
AcDbPolyline
 62
253
  6
CONTINUOUS
 90
53
 70
0
 10
161.6070554952
 20
119.2511463437
 10
161.6110336488
 20
119.2566384011
 10
161.6149959204
 20
119.2619599893
 10
161.6189412235
 20
119.2671112626
 10
161.6228645868
 20
119.2720942561
 10
161.6267688626
 20
119.2769071925
 10
161.6306642766
 20
119.2815446436
 10
161.6345510228
 20
119.2860106307
 10
161.6384257443
 20
119.2903016881
 10
161.6422926757
 20
119.2944013691
 10
161.6461514199
 20
119.2983118815
 10
161.6499986081
 20
119.3020316731
 10
161.6538336905
 20
119.3055387381
 10
161.6576559816
 20
119.3088335733
 10
161.6614621048
 20
119.3119163114
 10
161.6652474868
 20
119.314764367
 10
161.6690088756
 20
119.3173757925
 10
161.672745597
 20
119.3197529983
 10
161.6764569523
 20
119.3218799011
 10
161.6801344649
 20
119.3237553149
 10
161.6837825676
 20
119.3253807984
 10
161.6874187215
 20
119.3267446797
 10
161.6910354825
 20
119.3278528864
 10
161.6946337299
 20
119.3287003761
 10
161.6982403219
 20
119.3292597681
 10
161.7018533956
 20
119.3295389651
 10
161.7054634841
 20
119.3295318479
 10
161.7090826165
 20
119.3291907439
 10
161.7127078362
 20
119.3285174773
 10
161.7163269479
 20
119.3275124196
 10
161.7199361358
 20
119.3261260348
 10
161.7235286748
 20
119.3243554734
 10
161.7270941105
 20
119.3222055918
 10
161.7306224242
 20
119.3196383729
 10
161.734103026
 20
119.3166520718
 10
161.7375282746
 20
119.3132499262
 10
161.7408919025
 20
119.309401319
 10
161.744182139
 20
119.3051065756
 10
161.7473901882
 20
119.3003664405
 10
161.7505123155
 20
119.2951510012
 10
161.7535377442
 20
119.2894551883
 10
161.7564523883
 20
119.2832847649
 10
161.7592455205
 20
119.2766260701
 10
161.7619036635
 20
119.2694745054
 10
161.7644127438
 20
119.2618344602
 10
161.7667598259
 20
119.2537055691
 10
161.7689268995
 20
119.2450979411
 10
161.7709023867
 20
119.2360000345
 10
161.7726785748
 20
119.2263789598
 10
161.7742340771
 20
119.2162470004
 10
161.7755511793
 20
119.2055893108
 10
161.7766165516
 20
119.1943323708
 10
161.7774024012
 20
119.182463657
  0
LINE
  5
407
100
AcDbEntity
  8
RACCORDO
100
AcDbLine
 62
253
  6
CONTINUOUS
 10
161.7838855883
 20
119.1703328838
 11
161.7781462309
 21
119.1627368073
  0
LWPOLYLINE
  5
408
100
AcDbEntity
  8
0
100
AcDbPolyline
 62
7
  6
CONTINUOUS
 90
4
 70
0
 10
140.2412342786
 20
93.7674626557
 10
140.1363949157
 20
93.6775558455
 10
140.0313522842
 20
93.5952945414
 10
139.9648244699
 20
93.5468809433
  0
LINE
  5
409
100
AcDbEntity
  8
0
100
AcDbLine
 62
7
  6
CONTINUOUS
 10
149.1771488583
 20
102.9259320014
 11
150.0696888896
 21
103.6821740196
  0
LWPOLYLINE
  5
40A
100
AcDbEntity
  8
RACCORDO
100
AcDbPolyline
 62
253
  6
CONTINUOUS
 90
53
 70
0
 10
161.6848289237
 20
109.9628437891
 10
161.689645301
 20
109.9665507733
 10
161.6944381915
 20
109.9700516682
 10
161.6992069751
 20
109.9733471446
 10
161.7039424409
 20
109.976439082
 10
161.7086523261
 20
109.9793271022
 10
161.7133611621
 20
109.9820087365
 10
161.718069843
 20
109.984491156
 10
161.7227751048
 20
109.9867694638
 10
161.7274946623
 20
109.9888236341
 10
161.7322327497
 20
109.9906617009
 10
161.736981375
 20
109.9922791055
 10
161.7417390448
 20
109.9936377111
 10
161.7465063739
 20
109.9947423978
 10
161.7512771106
 20
109.9955933529
 10
161.7560383504
 20
109.9961463521
 10
161.760789371
 20
109.9964042983
 10
161.7655228761
 20
109.996371369
 10
161.7702148872
 20
109.9960062632
 10
161.7748627635
 20
109.9953092694
 10
161.7794585265
 20
109.9942893897
 10
161.7839692424
 20
109.9929191541
 10
161.7883842145
 20
109.9912016772
 10
161.7927014835
 20
109.9891448993
 10
161.7969003844
 20
109.9867292796
 10
161.8009700304
 20
109.9839645574
 10
161.8049062373
 20
109.9808543053
 10
161.8086968237
 20
109.9773711329
 10
161.8123337411
 20
109.9735272844
 10
161.8158061074
 20
109.9693275741
 10
161.819094927
 20
109.9647358113
 10
161.8221894304
 20
109.9597714108
 10
161.8250766695
 20
109.9544368511
 10
161.8277303346
 20
109.9486742955
 10
161.830139538
 20
109.9425054368
 10
161.832283733
 20
109.9359384056
 10
161.8341162029
 20
109.9289006155
 10
161.8356223704
 20
109.9214092708
 10
161.8367751036
 20
109.913487976
 10
161.8375030493
 20
109.9050793987
 10
161.8377867374
 20
109.8962235203
 10
161.8375961144
 20
109.8869307554
 10
161.8368366867
 20
109.8771067478
 10
161.8354914606
 20
109.8668155223
 10
161.8335143628
 20
109.8560599447
 10
161.8307522068
 20
109.8446694026
 10
161.8271488875
 20
109.8326397116
 10
161.822666295
 20
109.8200787968
 10
161.8171724499
 20
109.8069907098
 10
161.8105923897
 20
109.7933721481
 10
161.802911614
 20
109.7793327026
 10
161.794112675
 20
109.7650209217
 10
161.7841130627
 20
109.7504017156
  0
LWPOLYLINE
  5
40B
100
AcDbEntity
  8
RACCORDO
100
AcDbPolyline
 62
253
  6
CONTINUOUS
 90
11
 70
0
 10
127.6900551829
 20
125.8124832806
 10
127.6532650469
 20
125.8310048238
 10
127.6198695349
 20
125.8513408122
 10
127.5901924807
 20
125.8732940494
 10
127.5645216601
 20
125.8966516567
 10
127.543106001
 20
125.9211871373
 10
127.5261531693
 20
125.9466625726
 10
127.5138275553
 20
125.9728309294
 10
127.5062486793
 20
125.9994384553
 10
127.5034900331
 20
126.0262271393
 10
127.5035285285
 20
126.0319301575
  0
LWPOLYLINE
  5
40C
100
AcDbEntity
  8
ASSI
100
AcDbPolyline
 62
7
  6
CONTINUOUS
 90
11
 70
0
 10
131.6564170202
 20
130.1660033107
 10
131.6362777768
 20
130.1851684472
 10
131.617781137
 20
130.2042789359
 10
131.601140905
 20
130.2232395927
 10
131.5865357112
 20
130.241845036
 10
131.5741700093
 20
130.2600732905
 10
131.5642384636
 20
130.2780765053
 10
131.5568550993
 20
130.2956429307
 10
131.5520714394
 20
130.3126807279
 10
131.5499318859
 20
130.3295068326
 10
131.5498111296
 20
130.3345141124
  0
LWPOLYLINE
  5
40D
100
AcDbEntity
  8
0
100
AcDbPolyline
 62
7
  6
CONTINUOUS
 90
18
 70
0
 10
142.4871259
 20
134.5428995306
 10
142.4807118896
 20
134.5580763649
 10
142.4650915231
 20
134.5978345667
 10
142.4503691973
 20
134.6382660892
 10
142.4365664923
 20
134.679375661
 10
142.4237108227
 20
134.7211396223
 10
142.4118389787
 20
134.7634360731
 10
142.400968936
 20
134.806268817
 10
142.3911234513
 20
134.8496111691
 10
142.3823367881
 20
134.8932936248
 10
142.3746206701
 20
134.9373182992
 10
142.3679903749
 20
134.9816566556
 10
142.3624707728
 20
135.0260914706
 10
142.3580646745
 20
135.0706206707
 10
142.3547765808
 20
135.1152175574
 10
142.3526141353
 20
135.1596268416
 10
142.3515686935
 20
135.2038320744
 10
142.3514602148
 20
135.2235785351
  0
LINE
  5
40E
100
AcDbEntity
  8
ASSI
100
AcDbLine
 62
7
  6
CONTINUOUS
 10
154.1668035321
 20
129.1824011399
 11
154.1668035321
 21
129.370233369
  0
LINE
  5
40F
100
AcDbEntity
  8
DRAFT
100
AcDbLine
 62
7
  6
CONTINUOUS
 10
154.8236608374
 20
129.9755341282
 11
154.8236608374
 21
130.1853189971
  0
LINE
  5
410
100
AcDbEntity
  8
0
100
AcDbLine
 62
253
  6
CONTINUOUS
 10
154.872775959
 20
130.2267726289
 11
154.872775959
 21
130.6241959774
  0
LWPOLYLINE
  5
411
100
AcDbEntity
  8
0
100
AcDbPolyline
 62
7
  6
CONTINUOUS
 90
29
 70
0
 10
154.4749104564
 20
129.900418135
 10
154.4754339969
 20
129.9279456439
 10
154.477004369
 20
129.9554600511
 10
154.4796208253
 20
129.9829482614
 10
154.4832821206
 20
130.0103971918
 10
154.4879865123
 20
130.0377937781
 10
154.4937317614
 20
130.065124981
 10
154.5005151334
 20
130.0923777924
 10
154.5083333998
 20
130.1195392415
 10
154.5171828396
 20
130.1465964007
 10
154.5270592408
 20
130.1735363924
 10
154.5379579028
 20
130.2003463946
 10
154.5498736386
 20
130.2270136472
 10
154.5628007768
 20
130.2535254581
 10
154.5767331648
 20
130.2798692089
 10
154.5916641715
 20
130.3060323616
 10
154.6075866907
 20
130.332002464
 10
154.624493144
 20
130.3577671555
 10
154.6423754849
 20
130.3833141737
 10
154.6612252024
 20
130.4086313595
 10
154.681033325
 20
130.4337066633
 10
154.7017904251
 20
130.4585281507
 10
154.7234866234
 20
130.483084008
 10
154.7461115939
 20
130.5073625478
 10
154.7696545681
 20
130.531352215
 10
154.794104341
 20
130.5550415917
 10
154.8194492756
 20
130.5784194032
 10
154.8456773094
 20
130.6014745227
 10
154.872775959
 20
130.6241959774
  0
LWPOLYLINE
  5
412
100
AcDbEntity
  8
ASSI
100
AcDbPolyline
 62
253
  6
CONTINUOUS
 90
4
 70
0
 10
150.0955055324
 20
86.6218128353
 10
150.1013605055
 20
86.646944932
 10
150.1043107834
 20
86.6727372151
 10
150.1043064446
 20
86.6987532541
  0
LWPOLYLINE
  5
413
100
AcDbEntity
  8
RACCORDO
100
AcDbPolyline
 62
7
  6
CONTINUOUS
 90
16
 70
0
 10
161.6070554952
 20
119.2511462213
 10
161.6113460415
 20
119.2606218949
 10
161.6157682792
 20
119.2700329568
 10
161.6203222084
 20
119.2793794072
 10
161.6250075307
 20
119.2886733245
 10
161.6298245445
 20
119.2979026303
 10
161.6347741443
 20
119.3070310889
 10
161.6398601424
 20
119.3160602755
 10
161.6450787266
 20
119.3249886148
 10
161.6504193553
 20
119.333775146
 10
161.6558850326
 20
119.342418884
 10
161.6614727545
 20
119.3509208138
 10
161.6671629666
 20
119.3592429293
 10
161.672949151
 20
119.3673725617
 10
161.6788378258
 20
119.3753223798
 10
161.6848289908
 20
119.3830923836
  0
LINE
  5
414
100
AcDbEntity
  8
DRAFT
100
AcDbLine
 62
7
  6
CONTINUOUS
 10
161.7783033868
 20
109.7379571088
 11
162.5803438836
 21
110.5706235449
  0
LWPOLYLINE
  5
415
100
AcDbEntity
  8
0
100
AcDbPolyline
 62
7
  6
CONTINUOUS
 90
65
 70
0
 10
139.9648244699
 20
93.5468809433
 10
139.9265270829
 20
93.5202238181
 10
139.8223590175
 20
93.4519304272
 10
139.7188330631
 20
93.3897583005
 10
139.6163024716
 20
93.3333422826
 10
139.5151618816
 20
93.2823534501
 10
139.4153762504
 20
93.2362863416
 10
139.3172293956
 20
93.1948398012
 10
139.2210091494
 20
93.1577292254
 10
139.1266079296
 20
93.124545791
 10
139.0342424092
 20
93.09503544
 10
138.9440914345
 20
93.0689369177
 10
138.8559335471
 20
93.0458968013
 10
138.769916542
 20
93.0256939567
 10
138.6861602459
 20
93.0081102316
 10
138.6043597487
 20
92.9928636904
 10
138.5246260262
 20
92.9797804878
 10
138.4470444815
 20
92.9686889092
 10
138.3712368013
 20
92.9593731668
 10
138.2972844858
 20
92.9517003093
 10
138.2252574315
 20
92.9455387313
 10
138.1547292758
 20
92.9407332244
 10
138.0857609667
 20
92.9371857763
 10
138.0184056785
 20
92.9348000902
 10
137.9521994401
 20
92.9334769458
 10
137.8871805631
 20
92.9331489871
 10
137.8233868723
 20
92.9337493269
 10
137.760333961
 20
92.9352273707
 10
137.6980156788
 20
92.9375421247
 10
137.6364880869
 20
92.9406514155
 10
137.5753461338
 20
92.9445428785
 10
137.5144013871
 20
92.9492094469
 10
137.4538725238
 20
92.9546149196
 10
137.393960738
 20
92.9607131727
 10
137.3345985616
 20
92.9674818168
 10
137.2758793065
 20
92.9748818312
 10
137.2182497297
 20
92.9828197421
 10
137.1617429255
 20
92.9912469224
 10
137.1063548048
 20
93.000121236
 10
137.0524811109
 20
93.0093318252
 10
137.0002685469
 20
93.0187993951
 10
136.949599053
 20
93.0284930971
 10
136.9004721305
 20
93.0383649203
 10
136.8529711522
 20
93.0483506586
 10
136.8070350155
 20
93.0584174254
 10
136.7624441046
 20
93.0685734446
 10
136.7192074164
 20
93.0787807927
 10
136.6773315602
 20
93.0890032172
 10
136.636590926
 20
93.0992651781
 10
136.5969921459
 20
93.1095377644
 10
136.558540331
 20
93.1197932204
 10
136.521005563
 20
93.1300700091
 10
136.4843745399
 20
93.1403520103
 10
136.4486685535
 20
93.1506139628
 10
136.4137080664
 20
93.160890505
 10
136.3794442772
 20
93.1711815656
 10
136.3459315662
 20
93.181456689
 10
136.3131444105
 20
93.1917098112
 10
136.2810761934
 20
93.201929667
 10
136.2497378854
 20
93.2120997106
 10
136.2191300254
 20
93.2222070542
 10
136.1892553736
 20
93.2322383161
 10
136.1601145212
 20
93.2421811115
 10
136.131704515
 20
93.2520246696
 10
136.1040262168
 20
93.2617572142
  0
LWPOLYLINE
  5
416
100
AcDbEntity
  8
0
100
AcDbPolyline
 62
7
  6
CONTINUOUS
 90
17
 70
0
 10
139.9647212307
 20
93.5469564729
 10
139.7682630547
 20
93.4187631266
 10
139.5574116775
 20
93.3031216128
 10
139.3357182694
 20
93.2023621033
 10
139.1051619353
 20
93.1174006179
 10
138.8657734484
 20
93.0484155442
 10
138.6175667894
 20
92.9952655662
 10
138.3624776935
 20
92.9583712306
 10
138.1003744906
 20
92.9378685168
 10
137.8314258737
 20
92.9336506183
 10
137.5579980744
 20
92.9457565312
 10
137.2801450965
 20
92.9743242158
 10
136.9978369106
 20
93.0192327744
 10
136.713292316
 20
93.0801146733
 10
136.4264767722
 20
93.1570901656
 10
136.1374391287
 20
93.2500474154
 10
135.8485021992
 20
93.3582531252
  0
LWPOLYLINE
  5
417
100
AcDbEntity
  8
RACCORDO
100
AcDbPolyline
 62
253
  6
CONTINUOUS
 90
16
 70
0
 10
144.7326330095
 20
118.967808272
 10
144.7759625731
 20
118.9541517662
 10
144.821378394
 20
118.942835087
 10
144.8684400874
 20
118.9339679693
 10
144.9166913089
 20
118.9276363949
 10
144.9656641797
 20
118.9239017595
 10
145.0148838233
 20
118.9228002765
 10
145.0638729701
 20
118.9243426266
 10
145.1121565858
 20
118.9285138543
 10
145.1592664775
 20
118.9352735121
 10
145.2047458334
 20
118.9445560535
 10
145.2481536526
 20
118.9562714683
 10
145.2890690214
 20
118.9703061553
 10
145.3270951947
 20
118.986524024
 10
145.3618634429
 20
119.0047678141
 10
145.3930366281
 20
119.0248606206
  0
LWPOLYLINE
  5
418
100
AcDbEntity
  8
RACCORDO
100
AcDbPolyline
 62
253
  6
CONTINUOUS
 90
28
 70
0
 10
144.7326263949
 20
118.9678023747
 10
144.0948569029
 20
119.1893668053
 10
143.4591384058
 20
119.4126819949
 10
142.8254831973
 20
119.6377421197
 10
142.1939650696
 20
119.8645191559
 10
141.5645342537
 20
120.0930290621
 10
140.9370191351
 20
120.3233333124
 10
140.3113765582
 20
120.5554483285
 10
139.687677008
 20
120.7893486632
 10
139.0659210543
 20
121.0250345241
 10
138.445946907
 20
121.2625689141
 10
137.8279445891
 20
121.5018805411
 10
137.212437484
 20
121.7427640266
 10
136.5999026098
 20
121.9850241667
 10
135.9898766355
 20
122.2288358598
 10
135.3814761941
 20
122.474551972
 10
134.7761449365
 20
122.7215842149
 10
134.1724631642
 20
122.9705093229
 10
133.5653144781
 20
123.2234772779
 10
132.9556309428
 20
123.4801614403
 10
132.3426177667
 20
123.7409649118
 10
131.718707091
 20
124.0092399208
 10
131.0834476569
 20
124.2853580979
 10
130.4376243437
 20
124.5691674902
 10
129.775683583
 20
124.8633542219
 10
129.0959751446
 20
125.1689486348
 10
128.4006756814
 20
125.4852673977
 10
127.6900551726
 20
125.8124831929
  0
LWPOLYLINE
  5
419
100
AcDbEntity
  8
RACCORDO
100
AcDbPolyline
 62
253
  6
CONTINUOUS
 90
16
 70
0
 10
145.3720823335
 20
120.4473647638
 10
145.4141430534
 20
120.4273226748
 10
145.4559079087
 20
120.4031608149
 10
145.4969201121
 20
120.3751434456
 10
145.5367311079
 20
120.3435769962
 10
145.5749054785
 20
120.3088067129
 10
145.6110257062
 20
120.2712128827
 10
145.6446967397
 20
120.2312066742
 10
145.6755503146
 20
120.1892256401
 10
145.7032489817
 20
120.1457289322
 10
145.7274897971
 20
120.1011922793
 10
145.7480076361
 20
120.0561027844
 10
145.7645780925
 20
120.0109535968
 10
145.7770199333
 20
119.9662385188
 10
145.7851970804
 20
119.9224466048
 10
145.7890200994
 20
119.8800568122
  0
LWPOLYLINE
  5
41A
100
AcDbEntity
  8
ASSI
100
AcDbPolyline
 62
7
  6
CONTINUOUS
 90
4
 70
0
 10
145.5878819714
 20
125.1140373701
 10
145.6035668596
 20
125.0924800441
 10
145.6217412159
 20
125.0730979946
 10
145.6421103344
 20
125.0561921982
  0
LINE
  5
41B
100
AcDbEntity
  8
0
100
AcDbLine
 62
7
  6
CONTINUOUS
 10
142.7493249632
 20
136.2086430968
 11
142.71052567
 21
136.2914279909
  0
LWPOLYLINE
  5
41C
100
AcDbEntity
  8
ASSI
100
AcDbPolyline
 62
7
  6
CONTINUOUS
 90
9
 70
0
 10
147.8797576092
 20
129.8613849202
 10
147.8744733812
 20
129.876541384
 10
147.8686045882
 20
129.8891677973
 10
147.8622702302
 20
129.8992627248
 10
147.8555281305
 20
129.9068293211
 10
147.8485299799
 20
129.9118687199
 10
147.8415628015
 20
129.9143852974
 10
147.8347980119
 20
129.914355072
 10
147.8347179514
 20
129.9143239298
  0
LWPOLYLINE
  5
41D
100
AcDbEntity
  8
RACCORDO
100
AcDbPolyline
 62
7
  6
CONTINUOUS
 90
9
 70
0
 10
157.5685426446
 20
132.7528327675
 10
157.5684151189
 20
132.7626995549
 10
157.5682026328
 20
132.7724923129
 10
157.5679051297
 20
132.782212471
 10
157.5675226661
 20
132.7918585998
 10
157.5670554122
 20
132.8014264105
 10
157.5665034245
 20
132.8109144735
 10
157.5658666465
 20
132.8203242185
 10
157.5651450782
 20
132.8296556453
  0
LINE
  5
41E
100
AcDbEntity
  8
RACCORDO
100
AcDbLine
 62
7
  6
CONTINUOUS
 10
157.5685426446
 20
132.7528327675
 11
157.5685852099
 21
132.4228976141
  0
LWPOLYLINE
  5
41F
100
AcDbEntity
  8
ASSI
100
AcDbPolyline
 62
7
  6
CONTINUOUS
 90
3
 70
0
 10
150.1294546122
 20
86.2531194299
 10
150.1362740915
 20
86.2777062535
 10
150.14090008
 20
86.3023530387
  0
LWPOLYLINE
  5
420
100
AcDbEntity
  8
ASSI
100
AcDbPolyline
 62
7
  6
CONTINUOUS
 90
4
 70
0
 10
149.647645847
 20
85.7851392825
 10
149.6545359114
 20
85.8026663157
 10
149.658716543
 20
85.8220042039
 10
149.6601128675
 20
85.8428193524
  0
LWPOLYLINE
  5
421
100
AcDbEntity
  8
RACCORDO
100
AcDbPolyline
 62
253
  6
CONTINUOUS
 90
53
 70
0
 10
161.6070554952
 20
109.8308978344
 10
161.6110393179
 20
109.8363973968
 10
161.6150063209
 20
109.8417250984
 10
161.6189554427
 20
109.8468810831
 10
161.6228815946
 20
109.851867106
 10
161.6267878015
 20
109.8566816479
 10
161.6306847354
 20
109.8613200835
 10
161.6345726074
 20
109.8657865289
 10
161.6384480677
 20
109.8700774144
 10
161.6423157534
 20
109.874176808
 10
161.6461752652
 20
109.8780870181
 10
161.6500232314
 20
109.8818063931
 10
161.653859473
 20
109.885313152
 10
161.6576832864
 20
109.8886079019
 10
161.6614912747
 20
109.8916906765
 10
161.6652791979
 20
109.8945388118
 10
161.6690438562
 20
109.8971504991
 10
161.6727844447
 20
109.8995280314
 10
161.6765003015
 20
109.9016548681
 10
161.6801832268
 20
109.9035298864
 10
161.6838372755
 20
109.9051546063
 10
161.6874790031
 20
109.9065167343
 10
161.6911012748
 20
109.9076218757
 10
161.6947046459
 20
109.9084653088
 10
161.6983142686
 20
109.9090199569
 10
161.7019279106
 20
109.9092932878
 10
161.705536716
 20
109.9092795541
 10
161.7091526051
 20
109.9089325672
 10
161.7127711283
 20
109.908255193
 10
161.7163819691
 20
109.9072466763
 10
161.7199859084
 20
109.90585579
 10
161.7235758669
 20
109.9040815904
 10
161.7271412771
 20
109.9019271248
 10
161.7306762204
 20
109.8993472831
 10
161.7341736667
 20
109.896335824
 10
161.7376205309
 20
109.8929008014
 10
161.7410016518
 20
109.8890183804
 10
161.7443069072
 20
109.8846824531
 10
161.7475261086
 20
109.8799001083
 10
161.7506448469
 20
109.8746669478
 10
161.7536482141
 20
109.8689891584
 10
161.7565312007
 20
109.862860579
 10
161.7592926095
 20
109.85625825
 10
161.7619193572
 20
109.8491831043
 10
161.7643987163
 20
109.8416339029
 10
161.7667253574
 20
109.833584637
 10
161.7688817404
 20
109.8250412212
 10
161.7708532283
 20
109.8159966341
 10
161.7726319678
 20
109.8064056209
 10
161.7741956176
 20
109.7962739252
 10
161.7755234551
 20
109.785593499
 10
161.7765992301
 20
109.7742984158
 10
161.777394225
 20
109.7623700111
  0
LINE
  5
422
100
AcDbEntity
  8
RACCORDO
100
AcDbLine
 62
253
  6
CONTINUOUS
 10
161.7841130627
 20
109.7504017156
 11
161.7781461852
 21
109.7424873945
  0
LWPOLYLINE
  5
423
100
AcDbEntity
  8
RACCORDO
100
AcDbPolyline
 62
7
  6
CONTINUOUS
 90
121
 70
0
 10
161.6848289237
 20
109.9628437891
 10
161.7246997627
 20
110.0137140131
 10
161.7632538487
 20
110.0632497958
 10
161.8004911816
 20
110.1114511374
 10
161.8363730261
 20
110.1582795274
 10
161.8709381175
 20
110.2037734762
 10
161.9043026622
 20
110.2480485147
 10
161.936472649
 20
110.2911112448
 10
161.9674420889
 20
110.3329550646
 10
161.9973092217
 20
110.3736756993
 10
162.0260745425
 20
110.4132724055
 10
162.0537375561
 20
110.4517459265
 10
162.0803950156
 20
110.4891942179
 10
162.1060520624
 20
110.5256230581
 10
162.130703555
 20
110.5610266688
 10
162.1544308225
 20
110.5954856707
 10
162.1772422675
 20
110.6290117551
 10
162.1991294874
 20
110.6615932308
 10
162.220148603
 20
110.693275645
 10
162.2402974491
 20
110.7240555865
 10
162.2595781909
 20
110.7539364664
 10
162.2780534446
 20
110.7829740656
 10
162.2957225932
 20
110.8111666819
 10
162.3125862538
 20
110.8385160174
 10
162.3287088938
 20
110.8650829588
 10
162.3440933096
 20
110.8908713987
 10
162.3587367048
 20
110.9158774445
 10
162.3726951575
 20
110.9401503051
 10
162.3859700552
 20
110.9636921058
 10
162.3985600104
 20
110.9865007211
 10
162.4105169393
 20
111.0086189838
 10
162.4218420888
 20
111.0300493942
 10
162.432534212
 20
111.0507894518
 10
162.4426414846
 20
111.0708744884
 10
162.4521644872
 20
111.0903065358
 10
162.4611026392
 20
111.1090835621
 10
162.469502374
 20
111.1272348039
 10
162.4773637507
 20
111.1447621457
 10
162.4846867101
 20
111.1616637028
 10
162.4915175086
 20
111.177963058
 10
162.4978552811
 20
111.1936607703
 10
162.5037008926
 20
111.2087562806
 10
162.5091031945
 20
111.2232714939
 10
162.5140591137
 20
111.2371992329
 10
162.5185717233
 20
111.250546675
 10
162.5226990928
 20
111.2633572568
 10
162.5264389837
 20
111.2756179971
 10
162.5297936346
 20
111.2873418771
 10
162.5328278315
 20
111.2986112771
 10
162.5355446784
 20
111.3094217344
 10
162.5379410714
 20
111.3197777118
 10
162.5400724837
 20
111.3297749776
 10
162.5419450251
 20
111.339419092
 10
162.5435525859
 20
111.3487044949
 10
162.5449323108
 20
111.3577102734
 10
162.5460896317
 20
111.3664425235
 10
162.5470191166
 20
111.3748951493
 10
162.5477416148
 20
111.3831289502
 10
162.5482617513
 20
111.3911482968
 10
162.5485749012
 20
111.3989488186
 10
162.5486880385
 20
111.4065782038
 10
162.5486055847
 20
111.4140402322
 10
162.5483231183
 20
111.421331124
 10
162.5478343493
 20
111.4284872282
 10
162.5471438869
 20
111.4355120194
 10
162.5462471219
 20
111.442402023
 10
162.5451239359
 20
111.4491831639
 10
162.5437796523
 20
111.4558587315
 10
162.5422089477
 20
111.4624254364
 10
162.5403757341
 20
111.4688993359
 10
162.5382864189
 20
111.4752845104
 10
162.5359345946
 20
111.4815768794
 10
162.5332649509
 20
111.4877802587
 10
162.5302813674
 20
111.4939041104
 10
162.5269799645
 20
111.4999389724
 10
162.5232937926
 20
111.5058602744
 10
162.519220048
 20
111.5116788197
 10
162.5147615344
 20
111.5173838051
 10
162.5098597131
 20
111.5229182508
 10
162.5045110569
 20
111.5282841909
 10
162.4987190931
 20
111.5334795913
 10
162.4924358656
 20
111.5384413707
 10
162.4856610111
 20
111.5431668887
 10
162.478394893
 20
111.5476587856
 10
162.4705906453
 20
111.5518619011
 10
162.4622480836
 20
111.5557745632
 10
162.4533673923
 20
111.5593984438
 10
162.443902259
 20
111.5626833981
 10
162.4338533095
 20
111.5656283026
 10
162.4232199179
 20
111.5682342808
 10
162.4119538949
 20
111.5704545588
 10
162.4000563972
 20
111.5722887285
 10
162.387526268
 20
111.573737198
 10
162.3743118473
 20
111.5747544173
 10
162.3604147249
 20
111.5753406028
 10
162.345833311
 20
111.5754955382
 10
162.3305111754
 20
111.5751730249
 10
162.3144502244
 20
111.5743737927
 10
162.2976485517
 20
111.5730971117
 10
162.2800440091
 20
111.5712945946
 10
162.2616387865
 20
111.5689673849
 10
162.2424306939
 20
111.566114339
 10
162.2223510134
 20
111.5626836392
 10
162.2014021944
 20
111.5586767737
 10
162.1795817875
 20
111.5540922543
 10
162.1568137261
 20
111.5488737985
 10
162.133100643
 20
111.5430231709
 10
162.1084399054
 20
111.5365386071
 10
162.0827475492
 20
111.5293585313
 10
162.0560264275
 20
111.5214849537
 10
162.0282736872
 20
111.5129158642
 10
161.9993968045
 20
111.5035836566
 10
161.9693989036
 20
111.4934905863
 10
161.9382768603
 20
111.4826343978
 10
161.9059287787
 20
111.4709407186
 10
161.8723599815
 20
111.4584128729
 10
161.837565146
 20
111.4450475365
 10
161.801426408
 20
111.4307603642
 10
161.7639044794
 20
111.4155232412
 10
161.7250386484
 20
111.3993642823
 10
161.6848289149
 20
111.3822834877
  0
LINE
  5
424
100
AcDbEntity
  8
ASSI
100
AcDbLine
 62
7
  6
CONTINUOUS
 10
148.6708247526
 20
123.3804094007
 11
148.5770560668
 21
123.3702932027
  0
LINE
  5
425
100
AcDbEntity
  8
ASSI
100
AcDbLine
 62
7
  6
CONTINUOUS
 10
150.0696888896
 20
121.1476328581
 11
150.908606016
 21
121.1516096546
  0
LINE
  5
426
100
AcDbEntity
  8
ASSI
100
AcDbLine
 62
7
  6
CONTINUOUS
 10
150.0696888896
 20
121.1476328581
 11
150.9622289209
 21
121.1300734871
  0
LWPOLYLINE
  5
427
100
AcDbEntity
  8
RACCORDO
100
AcDbPolyline
 62
253
  6
CONTINUOUS
 90
10
 70
0
 10
128.3557618479
 20
127.2815026888
 10
128.3123009571
 20
127.2958079367
 10
128.2694796323
 20
127.3056176301
 10
128.2277662229
 20
127.310824494
 10
128.1876169458
 20
127.3113715961
 10
128.1494709327
 20
127.307252968
 10
128.1137454212
 20
127.2985136843
 10
128.080831139
 20
127.2852493616
 10
128.0510880494
 20
127.2676051021
 10
128.0279263621
 20
127.248729222
  0
LWPOLYLINE
  5
428
100
AcDbEntity
  8
RACCORDO
100
AcDbPolyline
 62
253
  6
CONTINUOUS
 90
28
 70
0
 10
145.3720823335
 20
120.4473647639
 10
144.7350054717
 20
120.6671681144
 10
144.1001200197
 20
120.8887766191
 10
143.4674259778
 20
121.112190278
 10
142.8370166729
 20
121.337376294
 10
142.2087987779
 20
121.5643674641
 10
141.5824923117
 20
121.7932621797
 10
140.957984083
 20
122.0240998796
 10
140.3353872829
 20
122.2568411249
 10
139.7147615039
 20
122.4914659896
 10
139.095948897
 20
122.7280390804
 10
138.4791073112
 20
122.9664957907
 10
137.8647698854
 20
123.2066223745
 10
137.253396791
 20
123.4482349613
 10
136.6445278567
 20
123.6915174217
 10
136.0373157066
 20
123.936807622
 10
135.4331717938
 20
124.1834782734
 10
134.8306846653
 20
124.4321566648
 10
134.2247725862
 20
124.685062529
 10
133.6162183109
 20
124.9417447522
 10
133.004239085
 20
125.2026544483
 10
132.3814049105
 20
125.4713646919
 10
131.7469363097
 20
125.7480695114
 10
131.1016127603
 20
126.0325748783
 10
130.4403426979
 20
126.3278717825
 10
129.7614289342
 20
126.6349572203
 10
129.0665686574
 20
126.9528341953
 10
128.3557618676
 20
127.2815027074
  0
LWPOLYLINE
  5
429
100
AcDbEntity
  8
ASSI
100
AcDbPolyline
 62
7
  6
CONTINUOUS
 90
4
 70
0
 10
131.0598799405
 20
130.9131861149
 10
131.0811850741
 20
130.8992972153
 10
131.1034748776
 20
130.8882997543
 10
131.1071087766
 20
130.8868062309
  0
LINE
  5
42A
100
AcDbEntity
  8
ASSI
100
AcDbLine
 62
7
  6
CONTINUOUS
 10
150.6289669738
 20
121.8906290909
 11
150.908606016
 21
121.4986807052
  0
LWPOLYLINE
  5
42B
100
AcDbEntity
  8
ASSI
100
AcDbPolyline
 62
253
  6
CONTINUOUS
 90
5
 70
0
 10
150.0955055324
 20
125.6151479132
 10
150.1013605056
 20
125.6034447511
 10
150.1043107835
 20
125.5930250635
 10
150.1043064445
 20
125.5840651618
 10
150.1019822224
 20
125.5777175798
  0
LINE
  5
42C
100
AcDbEntity
  8
0
100
AcDbLine
 62
7
  6
CONTINUOUS
 10
158.477045628
 20
129.9592398696
 11
158.4770456121
 21
129.9126772677
  0
LWPOLYLINE
  5
42D
100
AcDbEntity
  8
RACCORDO
100
AcDbPolyline
 62
7
  6
CONTINUOUS
 90
16
 70
0
 10
161.6070554952
 20
109.8308977109
 10
161.6113460388
 20
109.8403733804
 10
161.6157682735
 20
109.8497844376
 10
161.6203221992
 20
109.8591308824
 10
161.6250075178
 20
109.8684247929
 10
161.6298245275
 20
109.8776540911
 10
161.6347741231
 20
109.8867825423
 10
161.6398601168
 20
109.8958117218
 10
161.6450786963
 20
109.9047400543
 10
161.6504193202
 20
109.913526579
 10
161.6558849926
 20
109.9221703107
 10
161.6614727093
 20
109.9306722345
 10
161.6671629162
 20
109.9389943448
 10
161.6729490952
 20
109.9471239731
 10
161.6788377644
 20
109.9550737878
 10
161.6848289237
 20
109.9628437891
  0
LWPOLYLINE
  5
42E
100
AcDbEntity
  8
ASSI
100
AcDbPolyline
 62
7
  6
CONTINUOUS
 90
4
 70
0
 10
150.0979608329
 20
86.1852786488
 10
150.1104549651
 20
86.2072891396
 10
150.1208572131
 20
86.2297696977
 10
150.1294546122
 20
86.2531194299
  0
LINE
  5
42F
100
AcDbEntity
  8
ASSI
100
AcDbLine
 62
253
  6
CONTINUOUS
 10
148.1014847152
 20
85.3564400389
 11
148.6185487686
 21
86.180612883
  0
LINE
  5
430
100
AcDbEntity
  8
ASSI
100
AcDbLine
 62
253
  6
CONTINUOUS
 10
148.3206457577
 20
85.1941154199
 11
148.9227044244
 21
86.1537651972
  0
LINE
  5
431
100
AcDbEntity
  8
ASSI
100
AcDbLine
 62
7
  6
CONTINUOUS
 10
150.9622289209
 20
91.4211087639
 11
150.0696888896
 21
90.0198551751
  0
LWPOLYLINE
  5
432
100
AcDbEntity
  8
ASSI
100
AcDbPolyline
 62
253
  6
CONTINUOUS
 90
9
 70
0
 10
150.0945752704
 20
126.0075935283
 10
150.0931024781
 20
126.007399716
 10
150.0915957293
 20
126.0070462404
 10
150.0900547558
 20
126.0065316854
 10
150.0884798257
 20
126.005857467
 10
150.0868864915
 20
126.0050304198
 10
150.0852799376
 20
126.0040528222
 10
150.0836549797
 20
126.0029223958
 10
150.0820116177
 20
126.0016391406
  0
LINE
  5
433
100
AcDbEntity
  8
ASSI
100
AcDbLine
 62
7
  6
CONTINUOUS
 10
147.7348505554
 20
123.8201622141
 11
147.2913795066
 21
123.8268261698
  0
LINE
  5
434
100
AcDbEntity
  8
ASSI
100
AcDbLine
 62
7
  6
CONTINUOUS
 10
148.1558373359
 20
124.0549010286
 11
148.6831078579
 21
124.046977834
  0
LINE
  5
435
100
AcDbEntity
  8
ASSI
100
AcDbLine
 62
253
  6
CONTINUOUS
 10
148.3206457577
 20
124.1874504979
 11
148.9227044244
 21
124.178403476
  0
LWPOLYLINE
  5
436
100
AcDbEntity
  8
ASSI
100
AcDbPolyline
 62
7
  6
CONTINUOUS
 90
9
 70
0
 10
146.6161736518
 20
124.6588676324
 10
146.6185667859
 20
124.6584744489
 10
146.6256569903
 20
124.6594784379
 10
146.6358235534
 20
124.663197948
 10
146.6485944356
 20
124.6694161951
 10
146.6638286711
 20
124.6772089965
 10
146.6813335842
 20
124.6863581892
 10
146.7006687919
 20
124.6972935965
 10
146.7214954537
 20
124.7100730012
  0
LWPOLYLINE
  5
437
100
AcDbEntity
  8
ASSI
100
AcDbPolyline
 62
7
  6
CONTINUOUS
 90
5
 70
0
 10
133.4990739059
 20
129.9261387067
 10
133.5100379218
 20
129.9220882763
 10
133.5369788233
 20
129.9149097782
 10
133.5647529592
 20
129.9113178634
 10
133.5745632402
 20
129.9109280452
  0
LWPOLYLINE
  5
438
100
AcDbEntity
  8
ASSI
100
AcDbPolyline
 62
7
  6
CONTINUOUS
 90
5
 70
0
 10
148.0799445182
 20
124.0701327657
 10
148.0845232042
 20
124.0683564699
 10
148.1073198066
 20
124.0612531173
 10
148.1309135914
 20
124.0567398885
 10
148.1558283364
 20
124.0549011766
  0
LINE
  5
439
100
AcDbEntity
  8
ASSI
100
AcDbLine
 62
7
  6
CONTINUOUS
 10
150.908606016
 20
121.1516096546
 11
150.9622289209
 21
121.1300734871
  0
LINE
  5
43A
100
AcDbEntity
  8
ASSI
100
AcDbLine
 62
7
  6
CONTINUOUS
 10
132.1405890654
 20
129.855899308
 11
132.3648247605
 21
129.7658411975
  0
LINE
  5
43B
100
AcDbEntity
  8
ASSI
100
AcDbLine
 62
7
  6
CONTINUOUS
 10
146.7214954537
 20
123.9998785836
 11
146.9457311489
 21
123.9098204731
  0
LINE
  5
43C
100
AcDbEntity
  8
RACCORDO
100
AcDbLine
 62
7
  6
CONTINUOUS
 10
131.4869295919
 20
130.238368725
 11
132.0339831744
 21
130.0186596732
  0
LINE
  5
43D
100
AcDbEntity
  8
RACCORDO
100
AcDbLine
 62
7
  6
CONTINUOUS
 10
132.8763289747
 20
129.6803546096
 11
146.6148895628
 21
124.1626389488
  0
LINE
  5
43E
100
AcDbEntity
  8
RACCORDO
100
AcDbLine
 62
7
  6
CONTINUOUS
 10
147.4572353631
 20
123.8243338852
 11
148.7465434951
 21
123.3065186726
  0
LINE
  5
43F
100
AcDbEntity
  8
ASSI
100
AcDbLine
 62
7
  6
CONTINUOUS
 10
146.2373234085
 20
124.3572079679
 11
133.9961496784
 21
129.2735393088
  0
LINE
  5
440
100
AcDbEntity
  8
ASSI
100
AcDbLine
 62
7
  6
CONTINUOUS
 10
148.0799033062
 20
124.0701485145
 11
147.1488077464
 21
124.4440974824
  0
LINE
  5
441
100
AcDbEntity
  8
ASSI
100
AcDbLine
 62
7
  6
CONTINUOUS
 10
146.6188629302
 20
124.6569352679
 11
145.6877680157
 21
125.0308839766
  0
LINE
  5
442
100
AcDbEntity
  8
ASSI
100
AcDbLine
 62
7
  6
CONTINUOUS
 10
133.4989972289
 20
129.926169114
 11
132.5679013581
 21
130.3001182068
  0
LINE
  5
443
100
AcDbEntity
  8
ASSI
100
AcDbLine
 62
7
  6
CONTINUOUS
 10
132.0379565418
 20
130.5129559923
 11
131.1068609122
 21
130.8869049882
  0
LINE
  5
444
100
AcDbEntity
  8
ASSI
100
AcDbLine
 62
253
  6
CONTINUOUS
 10
148.0294302019
 20
124.1847770541
 11
146.9457311489
 21
124.6200148907
  0
LINE
  5
445
100
AcDbEntity
  8
ASSI
100
AcDbLine
 62
253
  6
CONTINUOUS
 10
146.7214954537
 20
124.7100730012
 11
145.6377964007
 21
125.1453109723
  0
LINE
  5
446
100
AcDbEntity
  8
ASSI
100
AcDbLine
 62
253
  6
CONTINUOUS
 10
133.4485238135
 20
130.040797644
 11
132.3648247605
 21
130.4760356151
  0
LINE
  5
447
100
AcDbEntity
  8
ASSI
100
AcDbLine
 62
253
  6
CONTINUOUS
 10
132.1405890654
 20
130.5660937256
 11
131.0568900124
 21
131.0013316967
  0
LINE
  5
448
100
AcDbEntity
  8
ASSI
100
AcDbLine
 62
7
  6
CONTINUOUS
 10
144.1673947065
 20
125.9316754779
 11
141.5137794857
 21
126.9974271749
  0
LINE
  5
449
100
AcDbEntity
  8
ASSI
100
AcDbLine
 62
7
  6
CONTINUOUS
 10
139.8668464739
 20
127.6588726017
 11
137.2132312532
 21
128.7246242987
  0
LINE
  5
44A
100
AcDbEntity
  8
ASSI
100
AcDbLine
 62
253
  6
CONTINUOUS
 10
148.0294302019
 20
124.4848736434
 11
145.6377964007
 21
125.4454099426
  0
LINE
  5
44B
100
AcDbEntity
  8
ASSI
100
AcDbLine
 62
253
  6
CONTINUOUS
 10
133.4485238135
 20
130.3408943678
 11
131.0568900124
 21
131.3014284205
  0
LWPOLYLINE
  5
44C
100
AcDbEntity
  8
ASSI
100
AcDbPolyline
 62
253
  6
CONTINUOUS
 90
21
 70
0
 10
131.1068386815
 20
130.8869139226
 10
131.1054085645
 20
130.8875127477
 10
131.1013832042
 20
130.889464615
 10
131.0974746987
 20
130.8917685578
 10
131.0937021754
 20
130.894420311
 10
131.0900317032
 20
130.8974570431
 10
131.0864690819
 20
130.9008980476
 10
131.0830366118
 20
130.904747437
 10
131.0797337927
 20
130.9090352188
 10
131.0765775577
 20
130.913775805
 10
131.0735863873
 20
130.918980975
 10
131.0707681734
 20
130.9246843255
 10
131.0681445441
 20
130.9309000817
 10
131.0657378567
 20
130.9376402565
 10
131.0635635521
 20
130.9449409143
 10
131.0616478522
 20
130.9528144381
 10
131.0600176171
 20
130.9612697843
 10
131.0586960513
 20
130.9703416104
 10
131.0577128734
 20
130.9800461783
 10
131.0571005969
 20
130.990376866
 10
131.0568900124
 20
131.0013316967
  0
LWPOLYLINE
  5
44D
100
AcDbEntity
  8
ASSI
100
AcDbPolyline
 62
253
  6
CONTINUOUS
 90
16
 70
0
 10
133.499077524
 20
129.9261369396
 10
133.4964228102
 20
129.9272789477
 10
133.4906271473
 20
129.9303743695
 10
133.4850435514
 20
129.9342477124
 10
133.4797082539
 20
129.9389272211
 10
133.4746590033
 20
129.944437708
 10
133.4699608928
 20
129.9507614498
 10
133.4656455552
 20
129.9579029652
 10
133.4617443751
 20
129.9658626796
 10
133.4583067429
 20
129.9745853181
 10
133.4553544774
 20
129.9840506483
 10
133.452907625
 20
129.9942353706
 10
133.4509941066
 20
130.0050510756
 10
133.449624036
 20
130.0164358717
 10
133.4487993085
 20
130.0283663399
 10
133.4485238135
 20
130.040797644
  0
LWPOLYLINE
  5
44E
100
AcDbEntity
  8
ASSI
100
AcDbPolyline
 62
7
  6
CONTINUOUS
 90
9
 70
0
 10
132.568655889
 20
130.2998185263
 10
132.5516651533
 20
130.3074028795
 10
132.5218388567
 20
130.3238897635
 10
132.4927028619
 20
130.3436371783
 10
132.4643694977
 20
130.3660987393
 10
132.4373709539
 20
130.3908751437
 10
132.4119103377
 20
130.4176829536
 10
132.387749654
 20
130.4461788576
 10
132.3648247605
 20
130.4760356151
  0
LWPOLYLINE
  5
44F
100
AcDbEntity
  8
ASSI
100
AcDbPolyline
 62
7
  6
CONTINUOUS
 90
9
 70
0
 10
147.1495622774
 20
124.4437978019
 10
147.1325715416
 20
124.4513821551
 10
147.1027452451
 20
124.4678690391
 10
147.0736092503
 20
124.4876164539
 10
147.045275886
 20
124.5100780149
 10
147.0182773422
 20
124.5348544193
 10
146.992816726
 20
124.5616622292
 10
146.9686560423
 20
124.5901581332
 10
146.9457311489
 20
124.6200148907
  0
LWPOLYLINE
  5
450
100
AcDbEntity
  8
ASSI
100
AcDbPolyline
 62
253
  6
CONTINUOUS
 90
7
 70
0
 10
145.6377964007
 20
125.1453109723
 10
145.6176082399
 20
125.1545906302
 10
145.5996773823
 20
125.1652873736
 10
145.5843038587
 20
125.1772222165
 10
145.5717449087
 20
125.1901954562
 10
145.5622106764
 20
125.2039900151
 10
145.5558606941
 20
125.2183750724
  0
LWPOLYLINE
  5
451
100
AcDbEntity
  8
ASSI
100
AcDbPolyline
 62
253
  6
CONTINUOUS
 90
9
 70
0
 10
145.6377964007
 20
125.4454076961
 10
145.6176082546
 20
125.4546873462
 10
145.5996774057
 20
125.4653840814
 10
145.5843038854
 20
125.4773189163
 10
145.571744934
 20
125.4902921492
 10
145.5622106965
 20
125.5040867029
 10
145.5558607065
 20
125.5184717575
 10
145.5528012162
 20
125.5332066124
 10
145.5525119008
 20
125.5392096046
  0
LWPOLYLINE
  5
452
100
AcDbEntity
  8
ASSI
100
AcDbPolyline
 62
253
  6
CONTINUOUS
 90
13
 70
0
 10
133.5901177909
 20
130.6607806631
 10
133.6112505025
 20
130.6505879887
 10
133.63205601
 20
130.6377960246
 10
133.6521784633
 20
130.62262356
 10
133.671273695
 20
130.6053300996
 10
133.6890151069
 20
130.5862114246
 10
133.705099256
 20
130.5655945342
 10
133.7192510446
 20
130.5438320526
 10
133.7312284256
 20
130.5212961976
 10
133.7408265419
 20
130.4983724146
 10
133.7478812307
 20
130.4754527841
 10
133.752271831
 20
130.4529293154
 10
133.7539232476
 20
130.4311872421
  0
LWPOLYLINE
  5
453
100
AcDbEntity
  8
ASSI
100
AcDbPolyline
 62
7
  6
CONTINUOUS
 90
3
 70
0
 10
145.6421103344
 20
125.0561921982
 10
145.6640513463
 20
125.0421749072
 10
145.6880053863
 20
125.0307902251
  0
LWPOLYLINE
  5
454
100
AcDbEntity
  8
0
100
AcDbPolyline
 62
7
  6
CONTINUOUS
 90
68
 70
0
 10
142.2509683767
 20
134.7682080953
 10
142.2471129974
 20
134.7730906142
 10
142.2286080739
 20
134.7973921078
 10
142.2110041601
 20
134.8220091017
 10
142.1943198261
 20
134.846949109
 10
142.178549925
 20
134.8722160686
 10
142.1636996036
 20
134.8978060416
 10
142.1498028731
 20
134.9237147244
 10
142.1368574842
 20
134.949942732
 10
142.124865686
 20
134.9764894495
 10
142.1138682366
 20
135.0033487272
 10
142.103861425
 20
135.0305317069
 10
142.0948489622
 20
135.0580272469
 10
142.0868827386
 20
135.0857957732
 10
142.079965906
 20
135.1138380904
 10
142.0740953127
 20
135.1421533939
 10
142.0693133934
 20
135.1706996951
 10
142.0656210411
 20
135.1994582561
 10
142.063017363
 20
135.2284478147
 10
142.061542115
 20
135.2576825961
 10
142.0611915461
 20
135.2871731588
 10
142.0619694073
 20
135.3169089443
 10
142.063926709
 20
135.346872502
 10
142.0670716871
 20
135.3770949625
 10
142.0713961056
 20
135.4075451953
 10
142.0769262662
 20
135.438112358
 10
142.0836782821
 20
135.4688029467
 10
142.0916360401
 20
135.4996104653
 10
142.1007775035
 20
135.5304045829
 10
142.1111289535
 20
135.5612026532
 10
142.1226641089
 20
135.5919873226
 10
142.1352820889
 20
135.6225761991
 10
142.1490204138
 20
135.6529874515
 10
142.1638415633
 20
135.6832029111
 10
142.1795320951
 20
135.7129856797
 10
142.1962497314
 20
135.7424999496
 10
142.2138367499
 20
135.7715815285
 10
142.2316065412
 20
135.7995009419
 10
142.2494545536
 20
135.8260297114
 10
142.2674853388
 20
135.8513963153
 10
142.2853259425
 20
135.875556714
 10
142.3028935611
 20
135.8984305971
 10
142.3202709981
 20
135.9200982751
 10
142.3373337102
 20
135.9407566397
 10
142.3540395249
 20
135.9603948892
 10
142.3704306148
 20
135.9790238253
 10
142.3865089546
 20
135.9968727452
 10
142.4022432999
 20
136.0139385197
 10
142.4176648953
 20
136.030224278
 10
142.4328694486
 20
136.0459687045
 10
142.4478365834
 20
136.0611741533
 10
142.4625866762
 20
136.0758382703
 10
142.4772765643
 20
136.0901926775
 10
142.4918948196
 20
136.1042434418
 10
142.5064528703
 20
136.1179844963
 10
142.5211418382
 20
136.1316292626
 10
142.5360048814
 20
136.1452270059
 10
142.5509988419
 20
136.158728461
 10
142.5661853675
 20
136.1721992541
 10
142.5815953721
 20
136.1856685618
 10
142.5971979418
 20
136.1991072074
 10
142.6129619837
 20
136.2124932871
 10
142.6288900699
 20
136.2258281691
 10
142.6449796283
 20
136.2391104851
 10
142.6611918485
 20
136.2523142262
 10
142.6775137938
 20
136.2654307227
 10
142.6939584009
 20
136.2784686443
 10
142.71052567
 20
136.2914279909
  0
LWPOLYLINE
  5
455
100
AcDbEntity
  8
0
100
AcDbPolyline
 62
7
  6
CONTINUOUS
 90
8
 70
0
 10
154.494272693
 20
129.7335380472
 10
154.4937317614
 20
129.735711289
 10
154.4879865123
 20
129.763042492
 10
154.4832821206
 20
129.7904390783
 10
154.4796208253
 20
129.8178880087
 10
154.477004369
 20
129.8453762189
 10
154.4754339969
 20
129.8728906262
 10
154.4749104564
 20
129.900418135
  0
LINE
  5
456
100
AcDbEntity
  8
DRAFT
100
AcDbLine
 62
7
  6
CONTINUOUS
 10
156.4832036221
 20
129.4312728226
 11
156.5149857084
 21
129.1998904063
  0
LINE
  5
457
100
AcDbEntity
  8
RACCORDO
100
AcDbLine
 62
253
  6
CONTINUOUS
 10
161.777394225
 20
109.7623700111
 11
161.7778766748
 21
109.7498224445
  0
LINE
  5
458
100
AcDbEntity
  8
RACCORDO
100
AcDbLine
 62
253
  6
CONTINUOUS
 10
161.7774024012
 20
119.182463657
 11
161.7778786559
 21
119.1699911856
  0
LINE
  5
459
100
AcDbEntity
  8
RACCORDO
100
AcDbLine
 62
253
  6
CONTINUOUS
 10
161.7778766748
 20
109.7498224445
 11
161.7780179165
 21
109.7383262034
  0
LINE
  5
45A
100
AcDbEntity
  8
RACCORDO
100
AcDbLine
 62
253
  6
CONTINUOUS
 10
161.7778786559
 20
119.1699911856
 11
161.778017916
 21
119.1585779711
  0
LWPOLYLINE
  5
45B
100
AcDbEntity
  8
RACCORDO
100
AcDbPolyline
 62
7
  6
CONTINUOUS
 90
31
 70
0
 10
161.7780179119
 20
130.0004716562
 10
161.777690522
 20
130.0350324357
 10
161.7763727029
 20
130.0781146026
 10
161.7740407282
 20
130.1214219112
 10
161.7706877816
 20
130.1649587173
 10
161.766310133
 20
130.2086901132
 10
161.7609109829
 20
130.2525412192
 10
161.7544891748
 20
130.2965004619
 10
161.7470438935
 20
130.3405525787
 10
161.7385867889
 20
130.3846187776
 10
161.7291203167
 20
130.4286881265
 10
161.718646848
 20
130.4727469975
 10
161.7071868251
 20
130.5167142009
 10
161.6947463708
 20
130.5605779423
 10
161.6813302685
 20
130.604327819
 10
161.6669660779
 20
130.6478860555
 10
161.6516641859
 20
130.6912367468
 10
161.6354302061
 20
130.7343759835
 10
161.6182913218
 20
130.7772450178
 10
161.6002578744
 20
130.8198319009
 10
161.581337647
 20
130.8621301965
 10
161.5615581121
 20
130.9040899386
 10
161.5409289843
 20
130.9457026969
 10
161.5194595412
 20
130.9869594957
 10
161.4971810107
 20
131.0278101203
 10
161.4741043853
 20
131.0682456642
 10
161.450239001
 20
131.1082579262
 10
161.4256184925
 20
131.1477995697
 10
161.4002615504
 20
131.1868506459
 10
161.3741706457
 20
131.2254155866
 10
161.3521820227
 20
131.2567448467
  0
LINE
  5
45C
100
AcDbEntity
  8
RACCORDO
100
AcDbLine
 62
253
  6
CONTINUOUS
 10
161.6070554952
 20
100.9533761411
 11
161.6070554952
 21
109.8308977109
  0
LINE
  5
45D
100
AcDbEntity
  8
RACCORDO
100
AcDbLine
 62
253
  6
CONTINUOUS
 10
161.6070554952
 20
111.3819584274
 11
161.6070554952
 21
119.2511462213
  0
LINE
  5
45E
100
AcDbEntity
  8
RACCORDO
100
AcDbLine
 62
253
  6
CONTINUOUS
 10
161.6070554952
 20
120.8022069355
 11
161.6070554952
 21
129.6797285065
  0
LINE
  5
45F
100
AcDbEntity
  8
RACCORDO
100
AcDbLine
 62
7
  6
CONTINUOUS
 10
161.7780179226
 20
101.2741160139
 11
161.7780179226
 21
109.7382110797
  0
LINE
  5
460
100
AcDbEntity
  8
RACCORDO
100
AcDbLine
 62
7
  6
CONTINUOUS
 10
161.7780179166
 20
112.1158834729
 11
161.7780179226
 21
119.158459495
  0
LINE
  5
461
100
AcDbEntity
  8
RACCORDO
100
AcDbLine
 62
7
  6
CONTINUOUS
 10
161.7780179163
 20
121.5361280389
 11
161.7780179226
 21
130.0004689637
  0
LINE
  5
462
100
AcDbEntity
  8
RACCORDO
100
AcDbLine
 62
7
  6
CONTINUOUS
 10
161.778017916
 20
119.1585779711
 11
161.7780179223
 21
119.158480979
  0
LWPOLYLINE
  5
463
100
AcDbEntity
  8
RACCORDO
100
AcDbPolyline
 62
253
  6
CONTINUOUS
 90
55
 70
0
 10
161.7780179163
 20
121.5361280389
 10
161.7778773523
 20
121.5055545243
 10
161.7773994259
 20
121.4719722589
 10
161.7766118168
 20
121.4396292828
 10
161.7755447384
 20
121.4085547499
 10
161.7742260852
 20
121.3787240073
 10
161.7726692276
 20
121.3499094586
 10
161.7708919704
 20
121.3220765002
 10
161.7689157619
 20
121.2952622846
 10
161.7667482377
 20
121.2693469152
 10
161.764401044
 20
121.2442952942
 10
161.7618921777
 20
121.2201439413
 10
161.759234255
 20
121.1968803482
 10
161.756441184
 20
121.1745090907
 10
161.7535264896
 20
121.1530258108
 10
161.750500821
 20
121.1324044227
 10
161.7473780772
 20
121.1126565114
 10
161.7441691105
 20
121.0937698121
 10
161.7408780265
 20
121.0756824593
 10
161.7375137328
 20
121.0583882406
 10
161.73408792
 20
121.0418922935
 10
161.7306070116
 20
121.0261498423
 10
161.7270787889
 20
121.011157453
 10
161.7235137592
 20
120.9969170554
 10
161.71992176
 20
120.9833918465
 10
161.7163132338
 20
120.970590195
 10
161.7126949224
 20
120.9585017226
 10
161.7090704691
 20
120.9470614724
 10
161.7054519995
 20
120.9362806277
 10
161.7018425161
 20
120.9261458135
 10
161.6982299783
 20
120.9165555544
 10
161.6946238216
 20
120.9075119724
 10
161.691025922
 20
120.8990111658
 10
161.6874094823
 20
120.8909433633
 10
161.6837736232
 20
120.8832921722
 10
161.6801257819
 20
120.8760731016
 10
161.6764485555
 20
120.8692249772
 10
161.6727375292
 20
120.8627338615
 10
161.6690011622
 20
120.8566133187
 10
161.6652401627
 20
120.8508437206
 10
161.6614552135
 20
120.845424164
 10
161.6576495592
 20
120.8403550884
 10
161.6538277577
 20
120.835618845
 10
161.6499931846
 20
120.8312177104
 10
161.6461465259
 20
120.8271487782
 10
161.6422883159
 20
120.823386592
 10
161.6384219217
 20
120.8199318483
 10
161.6345477404
 20
120.8167831953
 10
161.6306615235
 20
120.8139121856
 10
161.6267666258
 20
120.8113181054
 10
161.6228628529
 20
120.8090011136
 10
161.6189399672
 20
120.806934283
 10
161.6149951115
 20
120.8051086066
 10
161.6110332591
 20
120.8035328345
 10
161.6070554952
 20
120.8022068132
  0
LWPOLYLINE
  5
464
100
AcDbEntity
  8
RACCORDO
100
AcDbPolyline
 62
253
  6
CONTINUOUS
 90
55
 70
0
 10
161.7780179166
 20
112.1158834729
 10
161.777876534
 20
112.0852179187
 10
161.777393923
 20
112.0514409713
 10
161.7765987769
 20
112.0189382822
 10
161.7755228786
 20
111.9877521993
 10
161.7741949532
 20
111.9578448785
 10
161.7726313221
 20
111.9290192896
 10
161.770852772
 20
111.9012583882
 10
161.7688816606
 20
111.8745815164
 10
161.7667258674
 20
111.8488462365
 10
161.7644001004
 20
111.8240348189
 10
161.7619218939
 20
111.8001660908
 10
161.7592964504
 20
111.7771526098
 10
161.7565365446
 20
111.7549920105
 10
161.7536552053
 20
111.7336869614
 10
161.7506532548
 20
111.7131577913
 10
161.7475354607
 20
111.6933730123
 10
161.7443168243
 20
111.6743641052
 10
161.7410118461
 20
111.6561458173
 10
161.7376305997
 20
111.6387237023
 10
161.7341832425
 20
111.6220912393
 10
161.7306853231
 20
111.6062446948
 10
161.7271500948
 20
111.5912014888
 10
161.7235844569
 20
111.5769423833
 10
161.7199943107
 20
111.5634084814
 10
161.7163902567
 20
111.5506060306
 10
161.7127793597
 20
111.5385266767
 10
161.7091607387
 20
111.5270897524
 10
161.7055446702
 20
111.5163005617
 10
161.7019356405
 20
111.5061516913
 10
161.6983217362
 20
111.4965437921
 10
161.6947118043
 20
111.4874781448
 10
161.6911080855
 20
111.478951749
 10
161.687485463
 20
111.4708595441
 10
161.6838433931
 20
111.463186245
 10
161.6801890025
 20
111.4559462526
 10
161.6765057434
 20
111.4490797422
 10
161.6727895669
 20
111.4425734391
 10
161.6690486701
 20
111.4364402201
 10
161.6652837099
 20
111.4306597705
 10
161.6614954923
 20
111.4252312365
 10
161.6576872183
 20
111.4201549872
 10
161.6538631227
 20
111.4154125138
 10
161.6500266038
 20
111.4110059899
 10
161.6461783656
 20
111.4069326007
 10
161.6423185805
 20
111.4031663311
 10
161.6384506211
 20
111.3997077808
 10
161.6345748869
 20
111.3965556931
 10
161.6306867322
 20
111.3936813606
 10
161.6267895076
 20
111.3910839849
 10
161.6228830015
 20
111.3887638179
 10
161.6189565309
 20
111.3866939491
 10
161.6150070666
 20
111.384865386
 10
161.611039701
 20
111.3832868854
 10
161.6070554952
 20
111.3819583039
  0
LWPOLYLINE
  5
465
100
AcDbEntity
  8
RACCORDO
100
AcDbPolyline
 62
7
  6
CONTINUOUS
 90
7
 70
0
 10
161.7780179359
 20
119.1584804737
 10
161.7780523688
 20
119.1609570847
 10
161.7782521084
 20
119.1647443542
 10
161.7785632211
 20
119.1677691115
 10
161.778904574
 20
119.1699992903
 10
161.7791940838
 20
119.1714277492
 10
161.7792875207
 20
119.1718158288
  0
LWPOLYLINE
  5
466
100
AcDbEntity
  8
RACCORDO
100
AcDbPolyline
 62
7
  6
CONTINUOUS
 90
7
 70
0
 10
161.7780179355
 20
109.7382320611
 10
161.7780523789
 20
109.7407089494
 10
161.7782521527
 20
109.7444964004
 10
161.7785633038
 20
109.7475212397
 10
161.7789046886
 20
109.7497514135
 10
161.7791942056
 20
109.7511797583
 10
161.7792876259
 20
109.7515677271
  0
LWPOLYLINE
  5
467
100
AcDbEntity
  8
RACCORDO
100
AcDbPolyline
 62
253
  6
CONTINUOUS
 90
32
 70
0
 10
161.2534870008
 20
100.0788536842
 10
161.2690031443
 20
100.0925236858
 10
161.290504715
 20
100.1125474449
 10
161.3113726448
 20
100.1332804861
 10
161.3315969882
 20
100.1547129212
 10
161.3511680814
 20
100.1768345028
 10
161.3700766192
 20
100.1996347104
 10
161.3883136661
 20
100.223102753
 10
161.4058705374
 20
100.2472274574
 10
161.42273886
 20
100.2719973269
 10
161.4389106498
 20
100.2974006258
 10
161.4543782199
 20
100.3234252867
 10
161.4691341842
 20
100.3500588999
 10
161.4831715146
 20
100.3772887761
 10
161.4964835383
 20
100.4051019647
 10
161.5090639156
 20
100.4334852272
 10
161.520906643
 20
100.4624250262
 10
161.5320060937
 20
100.4919075811
 10
161.5423569983
 20
100.5219188844
 10
161.5519544239
 20
100.5524446742
 10
161.560793823
 20
100.5834704439
 10
161.5688709982
 20
100.61498144
 10
161.5761820793
 20
100.6469626813
 10
161.5827236213
 20
100.6793990268
 10
161.5884925113
 20
100.7122750104
 10
161.5934859349
 20
100.7455748391
 10
161.5977015422
 20
100.779282597
 10
161.6011373707
 20
100.8133823607
 10
161.6037917401
 20
100.8478580394
 10
161.605663384
 20
100.8826932998
 10
161.606751465
 20
100.9178715673
 10
161.6070554952
 20
100.9533761411
  0
LWPOLYLINE
  5
468
100
AcDbEntity
  8
RACCORDO
100
AcDbPolyline
 62
253
  6
CONTINUOUS
 90
23
 70
0
 10
161.6070554952
 20
100.9533761411
 10
161.6219847045
 20
100.9664522273
 10
161.6362871793
 20
100.9797567863
 10
161.6499522988
 20
100.9932799381
 10
161.6629699149
 20
101.0070116403
 10
161.6753303609
 20
101.0209416956
 10
161.6870244577
 20
101.0350597596
 10
161.6980435212
 20
101.0493553481
 10
161.7083793687
 20
101.0638178451
 10
161.7180243247
 20
101.0784365107
 10
161.7269712267
 20
101.093200489
 10
161.7352134308
 20
101.1080988161
 10
161.7427448163
 20
101.1231204285
 10
161.7495597902
 20
101.138254171
 10
161.7556532919
 20
101.1534888053
 10
161.7610207961
 20
101.1688130181
 10
161.765658317
 20
101.1842154294
 10
161.7695624107
 20
101.1996846014
 10
161.772730178
 20
101.2152090465
 10
161.7751592666
 20
101.2307772363
 10
161.7768478724
 20
101.2463776097
 10
161.7777947417
 20
101.2619985818
 10
161.7780179226
 20
101.2741120324
  0
LWPOLYLINE
  5
469
100
AcDbEntity
  8
RACCORDO
100
AcDbPolyline
 62
7
  6
CONTINUOUS
 90
37
 70
0
 10
161.2534710317
 20
100.0788399382
 10
161.2671926753
 20
100.0908040032
 10
161.2939603174
 20
100.1150398477
 10
161.3201386182
 20
100.1399552047
 10
161.3457044328
 20
100.1655294044
 10
161.3706474448
 20
100.1917533386
 10
161.394968789
 20
100.2186310623
 10
161.4186518503
 20
100.2461478134
 10
161.4416805367
 20
100.2742881258
 10
161.4640550917
 20
100.3030569658
 10
161.4857594009
 20
100.332439734
 10
161.5067775563
 20
100.3624203277
 10
161.5271081983
 20
100.3930035904
 10
161.5467354818
 20
100.4241742383
 10
161.5656440699
 20
100.4559163616
 10
161.5838317203
 20
100.4882357663
 10
161.6012831617
 20
100.5211169039
 10
161.6179835022
 20
100.5545437087
 10
161.6339293123
 20
100.5885232231
 10
161.6491056901
 20
100.6230395225
 10
161.6634983374
 20
100.6580766863
 10
161.6771028025
 20
100.6936438841
 10
161.6899051688
 20
100.7297276345
 10
161.7018905061
 20
100.7663097852
 10
161.7130510391
 20
100.8033946553
 10
161.7233739191
 20
100.8409723355
 10
161.7328438427
 20
100.8790214136
 10
161.7414486649
 20
100.9175309859
 10
161.7491756223
 20
100.9564867251
 10
161.7560122599
 20
100.9958715049
 10
161.7619471141
 20
101.0356722156
 10
161.7669685954
 20
101.075874466
 10
161.771065596
 20
101.1164621994
 10
161.7742275122
 20
101.1574220174
 10
161.7764437461
 20
101.1987401842
 10
161.7777042537
 20
101.2403994139
 10
161.7780179112
 20
101.2741120324
  0
LINE
  5
46A
100
AcDbEntity
  8
RACCORDO
100
AcDbLine
 62
253
  6
CONTINUOUS
 10
150.9710111463
 20
91.796255584
 11
161.6070554952
 21
100.9533761411
  0
LINE
  5
46B
100
AcDbEntity
  8
RACCORDO
100
AcDbLine
 62
7
  6
CONTINUOUS
 10
150.908606016
 20
91.1724107228
 11
161.2534909131
 21
100.0788570525
  0
LINE
  5
46C
100
AcDbEntity
  8
ASSI
100
AcDbLine
 62
7
  6
CONTINUOUS
 10
150.908606016
 20
91.0955738809
 11
150.6289669738
 21
90.8598737856
  0
LWPOLYLINE
  5
46D
100
AcDbEntity
  8
ASSI
100
AcDbPolyline
 62
7
  6
CONTINUOUS
 90
5
 70
0
 10
146.9568983304
 20
126.8811949272
 10
146.9761142672
 20
126.8829513926
 10
146.9964008028
 20
126.8816862242
 10
147.0174151211
 20
126.8774244259
 10
147.0388013736
 20
126.8702418579
  0
LWPOLYLINE
  5
46E
100
AcDbEntity
  8
ASSI
100
AcDbPolyline
 62
253
  6
CONTINUOUS
 90
8
 70
0
 10
145.7779854969
 20
125.7658582233
 10
145.7563646137
 20
125.7728363519
 10
145.7351477752
 20
125.776921498
 10
145.7146978674
 20
125.7780437927
 10
145.6953646577
 20
125.7761840426
 10
145.6774788151
 20
125.7713740583
 10
145.6613462536
 20
125.7636961112
 10
145.6482691466
 20
125.7541927653
  0
LWPOLYLINE
  5
46F
100
AcDbEntity
  8
ASSI
100
AcDbPolyline
 62
7
  6
CONTINUOUS
 90
6
 70
0
 10
147.573785317
 20
127.2343995748
 10
147.5490845339
 20
127.2426501338
 10
147.5225682973
 20
127.2479431353
 10
147.4950721444
 20
127.2498288443
 10
147.467229012
 20
127.2481225233
 10
147.4398661989
 20
127.2428486705
  0
LWPOLYLINE
  5
470
100
AcDbEntity
  8
ASSI
100
AcDbPolyline
 62
253
  6
CONTINUOUS
 90
13
 70
0
 10
150.0084214046
 20
126.2565973415
 10
150.0033473295
 20
126.2583512173
 10
149.9965966516
 20
126.2598747977
 10
149.9895723153
 20
126.2605885315
 10
149.9822987008
 20
126.2604914492
 10
149.9748017054
 20
126.2595853418
 10
149.9671045015
 20
126.2578742574
 10
149.9592338011
 20
126.2553647496
 10
149.9512167684
 20
126.2520660625
 10
149.9430777172
 20
126.2479886716
 10
149.9348434732
 20
126.2431457485
 10
149.9265434432
 20
126.2375540641
 10
149.9182061611
 20
126.2312325616
  0
LWPOLYLINE
  5
471
100
AcDbEntity
  8
ASSI
100
AcDbPolyline
 62
253
  6
CONTINUOUS
 90
13
 70
0
 10
133.4485238135
 20
130.040797644
 10
133.4706314549
 20
130.0330903523
 10
133.4942886713
 20
130.0270843829
 10
133.5190996138
 20
130.0228802316
 10
133.5446491286
 20
130.0205482453
 10
133.5705097037
 20
130.0201274444
 10
133.596248622
 20
130.02162487
 10
133.6214352022
 20
130.0250154661
 10
133.6456480052
 20
130.030242499
 10
133.6684818855
 20
130.0372185063
 10
133.6895547711
 20
130.0458267607
 10
133.7085140557
 20
130.0559232229
 10
133.7250424997
 20
130.067338952
  0
LWPOLYLINE
  5
472
100
AcDbEntity
  8
ASSI
100
AcDbPolyline
 62
253
  6
CONTINUOUS
 90
13
 70
0
 10
133.4485238135
 20
130.3408943678
 10
133.4706314693
 20
130.3331870718
 10
133.4942886991
 20
130.3271811007
 10
133.5190996531
 20
130.3229769502
 10
133.5446491768
 20
130.3206449664
 10
133.5705097572
 20
130.3202241692
 10
133.5962486769
 20
130.3217215989
 10
133.6214352542
 20
130.3251121988
 10
133.6456480506
 20
130.3303392344
 10
133.6684819214
 20
130.3373152427
 10
133.6895547953
 20
130.3459234958
 10
133.7085140676
 20
130.3560199539
 10
133.7250424997
 20
130.3674356758
  0
LWPOLYLINE
  5
473
100
AcDbEntity
  8
ASSI
100
AcDbPolyline
 62
253
  6
CONTINUOUS
 90
13
 70
0
 10
144.1673947065
 20
127.0546874839
 10
144.1895023058
 20
127.046980205
 10
144.2131594826
 20
127.0409742403
 10
144.2379703911
 20
127.036770087
 10
144.2635198792
 20
127.0344380934
 10
144.2893804372
 20
127.0340172816
 10
144.3151193519
 20
127.0355146949
 10
144.3403059433
 20
127.0389052801
 10
144.3645187693
 20
127.044132306
 10
144.3873526793
 20
127.0511083114
 10
144.4084255979
 20
127.05971657
 10
144.4273849167
 20
127.0698130436
 10
144.4439133926
 20
127.0812287919
  0
LWPOLYLINE
  5
474
100
AcDbEntity
  8
ASSI
100
AcDbPolyline
 62
253
  6
CONTINUOUS
 90
8
 70
0
 10
147.4822724224
 20
127.2095584679
 10
147.4611397108
 20
127.2169364487
 10
147.4403342033
 20
127.2213585177
 10
147.42021175
 20
127.2227490415
 10
147.4011165183
 20
127.221084237
 10
147.3833751064
 20
127.2163925784
 10
147.3672909573
 20
127.2087543103
 10
147.3588088361
 20
127.2030063417
  0
LINE
  5
475
100
AcDbEntity
  8
ASSI
100
AcDbLine
 62
253
  6
CONTINUOUS
 10
147.5733965237
 20
127.23455823
 11
147.5698534564
 21
127.2358442059
  0
LWPOLYLINE
  5
476
100
AcDbEntity
  8
ASSI
100
AcDbPolyline
 62
253
  6
CONTINUOUS
 90
17
 70
0
 10
141.6674440793
 20
128.401078283
 10
141.6573501477
 20
128.4047695237
 10
141.6469917133
 20
128.4080528243
 10
141.6363988678
 20
128.4108752349
 10
141.6255808305
 20
128.4131875573
 10
141.6146031297
 20
128.4149269192
 10
141.6035843047
 20
128.4160321032
 10
141.5925689657
 20
128.4164617965
 10
141.581605812
 20
128.4161759284
 10
141.5708159861
 20
128.4151448883
 10
141.5602468126
 20
128.4133469329
 10
141.5499480644
 20
128.4107631974
 10
141.540033079
 20
128.4074018097
 10
141.5305492239
 20
128.4032673595
 10
141.5215314812
 20
128.3983630767
 10
141.513058059
 20
128.3927249455
 10
141.5057547066
 20
128.3868948228
  0
LWPOLYLINE
  5
477
100
AcDbEntity
  8
ASSI
100
AcDbPolyline
 62
253
  6
CONTINUOUS
 90
28
 70
0
 10
141.5547308499
 20
128.144943554
 10
141.5527192631
 20
128.1457162828
 10
141.5506676148
 20
128.1463852309
 10
141.548575905
 20
128.1469503982
 10
141.5464308617
 20
128.1474223373
 10
141.5442457569
 20
128.1477904957
 10
141.542060407
 20
128.148023216
 10
141.539873862
 20
128.1481160782
 10
141.5376870718
 20
128.1480735023
 10
141.5355427022
 20
128.1478770909
 10
141.5334415653
 20
128.1475213622
 10
141.5313828489
 20
128.147011798
 10
141.5294067823
 20
128.1463464473
 10
141.5275168818
 20
128.1455205746
 10
141.525709631
 20
128.1445389155
 10
141.5240147105
 20
128.1434137249
 10
141.5224364772
 20
128.1421432334
 10
141.5209705742
 20
128.1407292105
 10
141.5196336112
 20
128.1391892197
 10
141.5184277905
 20
128.1375226337
 10
141.5173509099
 20
128.1357300797
 10
141.5164129721
 20
128.1338310028
 10
141.5156152251
 20
128.1318244501
 10
141.5149564209
 20
128.1297113745
 10
141.514442819
 20
128.1275140795
 10
141.5140765057
 20
128.1252399994
 10
141.5138553946
 20
128.1228816999
 10
141.5137794857
 20
128.1204391809
  0
LINE
  5
478
100
AcDbEntity
  8
ASSI
100
AcDbLine
 62
7
  6
CONTINUOUS
 10
135.0792064791
 20
129.9532654973
 11
137.1279465405
 21
129.1304453009
  0
LINE
  5
479
100
AcDbEntity
  8
ASSI
100
AcDbLine
 62
7
  6
CONTINUOUS
 10
140.3217795626
 20
127.8477299559
 11
141.428494773
 21
127.4032481771
  0
LINE
  5
47A
100
AcDbEntity
  8
ASSI
100
AcDbLine
 62
7
  6
CONTINUOUS
 10
144.6223277951
 20
126.1205328321
 11
145.6170019248
 21
125.7210492772
  0
LINE
  5
47B
100
AcDbEntity
  8
ASSI
100
AcDbLine
 62
253
  6
CONTINUOUS
 10
148.1710241793
 20
124.8047599387
 11
145.7779854969
 21
125.7658582233
  0
LINE
  5
47C
100
AcDbEntity
  8
ASSI
100
AcDbLine
 62
253
  6
CONTINUOUS
 10
133.5901177909
 20
130.6607806631
 11
131.1970791086
 21
131.6218789477
  0
LINE
  5
47D
100
AcDbEntity
  8
ASSI
100
AcDbLine
 62
7
  6
CONTINUOUS
 10
135.0792064791
 20
130.6391746834
 11
135.6076366529
 21
130.4269452124
  0
LINE
  5
47E
100
AcDbEntity
  8
ASSI
100
AcDbLine
 62
7
  6
CONTINUOUS
 10
149.6601128675
 20
124.783153959
 11
150.2194533321
 21
124.5585102183
  0
LINE
  5
47F
100
AcDbEntity
  8
ASSI
100
AcDbLine
 62
7
  6
CONTINUOUS
 10
141.428494773
 20
128.0892486769
 11
140.8708310917
 21
128.3132189835
  0
LINE
  5
480
100
AcDbEntity
  8
ASSI
100
AcDbLine
 62
253
  6
CONTINUOUS
 10
144.1264433423
 20
127.1120858391
 11
141.5547308499
 21
128.144943554
  0
LINE
  5
481
100
AcDbEntity
  8
ASSI
100
AcDbLine
 62
253
  6
CONTINUOUS
 10
137.2541826174
 20
129.8721406778
 11
139.8258951098
 21
128.8392829629
  0
LINE
  5
482
100
AcDbEntity
  8
ASSI
100
AcDbLine
 62
253
  6
CONTINUOUS
 10
144.2391565717
 20
127.3682205682
 11
141.6674440793
 21
128.401078283
  0
LINE
  5
483
100
AcDbEntity
  8
ASSI
100
AcDbLine
 62
253
  6
CONTINUOUS
 10
137.3668958468
 20
130.1282754068
 11
139.9386083392
 21
129.0954176919
  0
LINE
  5
484
100
AcDbEntity
  8
ASSI
100
AcDbLine
 62
7
  6
CONTINUOUS
 10
137.5366314218
 20
130.2769515098
 11
140.1170227417
 21
129.2406081822
  0
LINE
  5
485
100
AcDbEntity
  8
ASSI
100
AcDbLine
 62
7
  6
CONTINUOUS
 10
141.8371796543
 20
128.549754386
 11
144.4175709742
 21
127.5134110584
  0
LINE
  5
486
100
AcDbEntity
  8
ASSI
100
AcDbLine
 62
7
  6
CONTINUOUS
 10
132.4578949852
 20
132.7262625823
 11
134.9154010224
 21
131.7392727546
  0
LINE
  5
487
100
AcDbEntity
  8
ASSI
100
AcDbLine
 62
7
  6
CONTINUOUS
 10
147.0388013736
 20
126.8702418579
 11
149.4963074108
 21
125.8832520302
  0
LINE
  5
488
100
AcDbEntity
  8
ASSI
100
AcDbLine
 62
7
  6
CONTINUOUS
 10
144.6683565807
 20
128.0575831794
 11
142.3899007797
 21
128.9726623957
  0
LINE
  5
489
100
AcDbEntity
  8
ASSI
100
AcDbLine
 62
7
  6
CONTINUOUS
 10
140.642857185
 20
129.6743144895
 11
138.3644013841
 21
130.5893937057
  0
LINE
  5
48A
100
AcDbEntity
  8
ASSI
100
AcDbLine
 62
253
  6
CONTINUOUS
 10
149.9182061611
 20
126.2312325616
 11
147.4822724224
 21
127.2095584679
  0
LINE
  5
48B
100
AcDbEntity
  8
ASSI
100
AcDbLine
 62
253
  6
CONTINUOUS
 10
135.3372997727
 20
132.087253286
 11
132.901366034
 21
133.0655791923
  0
LINE
  5
48C
100
AcDbEntity
  8
ASSI
100
AcDbLine
 62
7
  6
CONTINUOUS
 10
150.0084240263
 20
126.2565962886
 11
147.5733930957
 21
127.2345596068
  0
LINE
  5
48D
100
AcDbEntity
  8
ASSI
100
AcDbLine
 62
7
  6
CONTINUOUS
 10
135.4275182913
 20
132.1126167506
 11
132.9924864954
 21
133.0905804163
  0
LWPOLYLINE
  5
48E
100
AcDbEntity
  8
ASSI
100
AcDbPolyline
 62
253
  6
CONTINUOUS
 90
28
 70
0
 10
139.8258951098
 20
128.8392829629
 10
139.8279277527
 20
128.8384297332
 10
139.8299972573
 20
128.8374408049
 10
139.8321036236
 20
128.8363161781
 10
139.8342601105
 20
128.8350552874
 10
139.8364534591
 20
128.8336586981
 10
139.8386438925
 20
128.8321281063
 10
139.8408321988
 20
128.8304583642
 10
139.8430175899
 20
128.8286546196
 10
139.8451579254
 20
128.8267340123
 10
139.8472519891
 20
128.824692187
 10
139.8493009972
 20
128.8225334991
 10
139.8512664578
 20
128.8202881538
 10
139.8531444911
 20
128.8179553614
 10
139.8549389768
 20
128.8155359116
 10
139.8566230627
 20
128.8130623792
 10
139.8581933041
 20
128.8105359922
 10
139.8596531455
 20
128.8079555226
 10
139.860986069
 20
128.8053498615
 10
139.8621904201
 20
128.8027190786
 10
139.8632678531
 20
128.8000631041
 10
139.864206813
 20
128.7974106199
 10
139.8650057834
 20
128.7947616221
 10
139.8656662806
 20
128.7921161146
 10
139.8661812989
 20
128.7895027901
 10
139.8665485029
 20
128.7869312129
 10
139.8667702279
 20
128.7843918188
 10
139.8668464739
 20
128.7818846077
  0
LWPOLYLINE
  5
48F
100
AcDbEntity
  8
ASSI
100
AcDbPolyline
 62
253
  6
CONTINUOUS
 90
28
 70
0
 10
139.9386083392
 20
129.0954176919
 10
139.9486153682
 20
129.0910296032
 10
139.9588762529
 20
129.0860166166
 10
139.9693620459
 20
129.080351338
 10
139.9800648975
 20
129.0739933632
 10
139.9909210865
 20
129.0669338907
 10
140.0018139627
 20
129.0592085857
 10
140.0127008554
 20
129.0508134972
 10
140.0235353396
 20
129.0417491504
 10
140.0341983789
 20
129.032085073
 10
140.0446435234
 20
129.0218403747
 10
140.0548253568
 20
129.0110359194
 10
140.0646369295
 20
128.9997675862
 10
140.0740298082
 20
128.9880823431
 10
140.082974667
 20
128.9760078585
 10
140.0914065113
 20
128.9636257886
 10
140.0992868368
 20
128.9509929986
 10
140.106594954
 20
128.9381432088
 10
140.1133011269
 20
128.9251283347
 10
140.1193803218
 20
128.911997378
 10
140.1248116525
 20
128.8987960661
 10
140.1295757298
 20
128.8855722398
 10
140.1336554576
 20
128.8723733954
 10
140.1370360562
 20
128.859247572
 10
140.1397054444
 20
128.8462432303
 10
140.1416542181
 20
128.8334076361
 10
140.1428755275
 20
128.820786712
 10
140.1433651601
 20
128.8084259157
  0
LWPOLYLINE
  5
490
100
AcDbEntity
  8
ASSI
100
AcDbPolyline
 62
253
  6
CONTINUOUS
 90
13
 70
0
 10
135.3372997727
 20
132.087253286
 10
135.358920651
 20
132.077460458
 10
135.3801374856
 20
132.0650053978
 10
135.4005873907
 20
132.0501011345
 10
135.4199205987
 20
132.0330025867
 10
135.437806441
 20
132.0140022041
 10
135.4539390035
 20
131.9934249659
 10
135.4680423615
 20
131.9716228206
 10
135.4798752988
 20
131.9489686642
 10
135.489235432
 20
131.9258499641
 10
135.4959626705
 20
131.9026621336
 10
135.4999419557
 20
131.8798017691
 10
135.5011052294
 20
131.857659865
  0
LWPOLYLINE
  5
491
100
AcDbEntity
  8
ASSI
100
AcDbPolyline
 62
253
  6
CONTINUOUS
 90
9
 70
0
 10
141.5137794857
 20
128.1204391809
 10
141.4935913396
 20
128.129718831
 10
141.4756604907
 20
128.1404155661
 10
141.4602869704
 20
128.1523504011
 10
141.447728019
 20
128.165323634
 10
141.4381937815
 20
128.1791181877
 10
141.4318437915
 20
128.1935032423
 10
141.4287843012
 20
128.2082380971
 10
141.42849478
 20
128.2143780435
  0
LWPOLYLINE
  5
492
100
AcDbEntity
  8
ASSI
100
AcDbPolyline
 62
7
  6
CONTINUOUS
 90
13
 70
0
 10
149.4963074108
 20
125.8832520302
 10
149.5176843794
 20
125.8732599245
 10
149.5387010446
 20
125.8606411322
 10
149.5589945172
 20
125.8456084546
 10
149.5782139428
 20
125.8284154811
 10
149.5960295372
 20
125.8093556127
 10
149.6121383861
 20
125.7887572178
 10
149.6262668964
 20
125.7669742483
 10
149.6381714431
 20
125.744377697
 10
149.647645847
 20
125.7213527521
 10
149.6545289744
 20
125.6982940946
 10
149.6587072592
 20
125.675599077
 10
149.6601128675
 20
125.6536586092
  0
LWPOLYLINE
  5
493
100
AcDbEntity
  8
RACCORDO
100
AcDbPolyline
 62
7
  6
CONTINUOUS
 90
82
 70
0
 10
161.7780179226
 20
114.8466143137
 10
161.7957950733
 20
114.8293427117
 10
161.8434329433
 20
114.7817085046
 10
161.890441817
 20
114.7333359504
 10
161.9368057862
 20
114.6842422128
 10
161.9825041184
 20
114.6344499182
 10
162.027515702
 20
114.5839828834
 10
162.0718208636
 20
114.5328641109
 10
162.1154043269
 20
114.4811120493
 10
162.1582518785
 20
114.4287440146
 10
162.20034701
 20
114.3757802999
 10
162.2416722755
 20
114.3222428313
 10
162.2822121948
 20
114.2681514597
 10
162.3219520806
 20
114.2135252511
 10
162.3608739305
 20
114.1583882578
 10
162.3989578854
 20
114.1027681199
 10
162.4361842415
 20
114.0466935172
 10
162.472542363
 20
113.9901802065
 10
162.5080260623
 20
113.9332363898
 10
162.5426273514
 20
113.875871992
 10
162.5763235858
 20
113.8181214028
 10
162.6090874792
 20
113.7600297077
 10
162.6408967434
 20
113.7016365185
 10
162.6717478007
 20
113.6429482989
 10
162.701641694
 20
113.5839603529
 10
162.730574118
 20
113.5246755123
 10
162.7585213203
 20
113.4651363532
 10
162.7854559313
 20
113.4053976894
 10
162.8113582124
 20
113.3455025811
 10
162.8362261538
 20
113.285454666
 10
162.8600597328
 20
113.2252495304
 10
162.8828544756
 20
113.1648902097
 10
162.9045906525
 20
113.1044199697
 10
162.9252461841
 20
113.0438944503
 10
162.9448066453
 20
112.9833533638
 10
162.9632688016
 20
112.9228036445
 10
162.9806287336
 20
112.8622514897
 10
162.9968808486
 20
112.8017058895
 10
163.0120119235
 20
112.741204373
 10
163.026007623
 20
112.6807954841
 10
163.0388596462
 20
112.6205088
 10
163.0505629009
 20
112.5603607831
 10
163.0611101397
 20
112.500379679
 10
163.0704958578
 20
112.4405866266
 10
163.0787142955
 20
112.3810060292
 10
163.0857592293
 20
112.3216703844
 10
163.091627288
 20
112.2625921631
 10
163.0963132122
 20
112.2038038126
 10
163.099811391
 20
112.1453666092
 10
163.1021203033
 20
112.0873202335
 10
163.1032405574
 20
112.0296677148
 10
163.1031716066
 20
111.9724145329
 10
163.1019113496
 20
111.9155497872
 10
163.0994587523
 20
111.8591277199
 10
163.0958194812
 20
111.8032496305
 10
163.0910028671
 20
111.7479784434
 10
163.0850118566
 20
111.693288709
 10
163.0778448026
 20
111.6391482676
 10
163.0694953761
 20
111.5855234649
 10
163.0599732594
 20
111.5324893378
 10
163.0493053691
 20
111.4801746076
 10
163.0375167291
 20
111.4286531456
 10
163.0246074996
 20
111.3778819791
 10
163.0105708143
 20
111.3278131627
 10
162.9954006694
 20
111.2784215414
 10
162.9791172079
 20
111.2297694051
 10
162.9617537674
 20
111.1819397252
 10
162.9433367117
 20
111.134978118
 10
162.923869221
 20
111.0888673715
 10
162.9033533202
 20
111.04359472
 10
162.8817990947
 20
110.999169283
 10
162.8592231456
 20
110.9556127512
 10
162.8356357424
 20
110.9129330334
 10
162.811047932
 20
110.8711398578
 10
162.7854775823
 20
110.8302536605
 10
162.7589464482
 20
110.7902982206
 10
162.7314807366
 20
110.7513002476
 10
162.7030888585
 20
110.7132592458
 10
162.6737653698
 20
110.6761594383
 10
162.6435184443
 20
110.6400060881
 10
162.6123722196
 20
110.6048229484
 10
162.5803438835
 20
110.5706235448
  0
LWPOLYLINE
  5
494
100
AcDbEntity
  8
RACCORDO
100
AcDbPolyline
 62
253
  6
CONTINUOUS
 90
83
 70
0
 10
161.7780179226
 20
114.7351868698
 10
161.805119863
 20
114.7075435086
 10
161.8508203609
 20
114.6596415858
 10
161.8959165734
 20
114.6110680864
 10
161.9403901889
 20
114.5618427367
 10
161.9842231968
 20
114.511985474
 10
162.0273978527
 20
114.4615164818
 10
162.0698966676
 20
114.4104562013
 10
162.1117023842
 20
114.3588253638
 10
162.1527980168
 20
114.3066449472
 10
162.1931668787
 20
114.253936142
 10
162.2327926218
 20
114.2007202965
 10
162.2716592102
 20
114.1470189467
 10
162.3097509019
 20
114.0928538394
 10
162.347052226
 20
114.0382469703
 10
162.3835480239
 20
113.983220531
 10
162.4192234765
 20
113.9277968679
 10
162.4540641373
 20
113.8719984281
 10
162.4880559049
 20
113.8158477951
 10
162.5211850106
 20
113.7593677101
 10
162.553438
 20
113.7025811074
 10
162.5848017675
 20
113.645511061
 10
162.6152635795
 20
113.5881807453
 10
162.6448110998
 20
113.5306133809
 10
162.6734323683
 20
113.47283227
 10
162.7011157902
 20
113.4148608167
 10
162.7278501233
 20
113.3567225588
 10
162.7536245065
 20
113.2984411154
 10
162.7784284773
 20
113.2400401488
 10
162.8022519895
 20
113.1815433167
 10
162.8250853974
 20
113.1229743036
 10
162.8469194489
 20
113.0643568373
 10
162.8677452788
 20
113.0057147141
 10
162.8875544291
 20
112.9470717502
 10
162.9063388603
 20
112.8884517496
 10
162.924090963
 20
112.8298784633
 10
162.9408035472
 20
112.7713756152
 10
162.9564698392
 20
112.7129669122
 10
162.9710834795
 20
112.6546760599
 10
162.9846385353
 20
112.5965267232
 10
162.997129507
 20
112.538542499
 10
163.0085513331
 20
112.4807468871
 10
163.0188993856
 20
112.4231633061
 10
163.0281694694
 20
112.3658150974
 10
163.0363578222
 20
112.3087255295
 10
163.0434611213
 20
112.2519177691
 10
163.0494764855
 20
112.1954148615
 10
163.0544014768
 20
112.1392397132
 10
163.0582340986
 20
112.0834150973
 10
163.0609727967
 20
112.0279636491
 10
163.0626164599
 20
111.9729078605
 10
163.0631644215
 20
111.9182700617
 10
163.0626164593
 20
111.8640724105
 10
163.0609727955
 20
111.8103368864
 10
163.0582340968
 20
111.7570852843
 10
163.0544014744
 20
111.7043392033
 10
163.0494764826
 20
111.6521200305
 10
163.0434611178
 20
111.600448935
 10
163.0363578181
 20
111.5493468649
 10
163.0281694647
 20
111.4988345515
 10
163.0188993804
 20
111.4489324923
 10
163.0085513272
 20
111.3996609341
 10
162.9971295006
 20
111.3510398483
 10
162.9846385284
 20
111.3030889361
 10
162.971083472
 20
111.2558276318
 10
162.9564698311
 20
111.2092751147
 10
162.9408035385
 20
111.1634502842
 10
162.9240909538
 20
111.1183717376
 10
162.9063388506
 20
111.0740577411
 10
162.8875544188
 20
111.0305262431
 10
162.867745268
 20
110.9877948823
 10
162.8469194375
 20
110.9458810051
 10
162.8250853855
 20
110.904801634
 10
162.8022519771
 20
110.8645734441
 10
162.7784284643
 20
110.8252127316
 10
162.753624493
 20
110.7867354332
 10
162.7278501092
 20
110.749157137
 10
162.7011157757
 20
110.7124931015
 10
162.6734323533
 20
110.6767582213
 10
162.6448110843
 20
110.6419670043
 10
162.6152635634
 20
110.608133541
 10
162.5848017509
 20
110.5752715266
 10
162.5803438836
 20
110.5706235449
  0
LWPOLYLINE
  5
495
100
AcDbEntity
  8
RACCORDO
100
AcDbPolyline
 62
253
  6
CONTINUOUS
 90
54
 70
0
 10
161.7780179226
 20
112.7622999481
 10
161.7841364831
 20
112.7321944266
 10
161.7941336697
 20
112.6777367777
 10
161.8029287589
 20
112.6239339413
 10
161.8106051422
 20
112.5706643574
 10
161.8171816786
 20
112.5187726947
 10
161.8226732875
 20
112.4684311604
 10
161.8271542946
 20
112.4195019073
 10
161.8307563162
 20
112.3723701637
 10
161.8335173808
 20
112.3272989581
 10
161.8354936067
 20
112.2840533059
 10
161.836838037
 20
112.2422695814
 10
161.8375967205
 20
112.2018909152
 10
161.8377867019
 20
112.1629904122
 10
161.8375024581
 20
112.1253960368
 10
161.8367740182
 20
112.0890757133
 10
161.8356208363
 20
112.0540721257
 10
161.8341142543
 20
112.0203238866
 10
161.8322813639
 20
111.9878707115
 10
161.8301367793
 20
111.9566801899
 10
161.8277273494
 20
111.9265817576
 10
161.8250736465
 20
111.8975744977
 10
161.8221865615
 20
111.8696639043
 10
161.8190925163
 20
111.8426881932
 10
161.8158045298
 20
111.8166271442
 10
161.8123333211
 20
111.7915038219
 10
161.8086978034
 20
111.7672208594
 10
161.8049089728
 20
111.7437734616
 10
161.8009747569
 20
111.7211682758
 10
161.7969068749
 20
111.6993248097
 10
161.7927094051
 20
111.678221995
 10
161.7883932983
 20
111.6578821019
 10
161.7839789981
 20
111.6382895044
 10
161.7794682403
 20
111.6194337983
 10
161.7748719167
 20
111.6013262732
 10
161.7702233834
 20
111.5839838272
 10
161.7655306872
 20
111.567425688
 10
161.760796407
 20
111.5516333891
 10
161.7560447635
 20
111.5365672905
 10
161.7512832001
 20
111.5222396738
 10
161.7465123009
 20
111.508638898
 10
161.7417447847
 20
111.495689403
 10
161.7369868549
 20
111.4833965606
 10
161.7322379458
 20
111.4717555385
 10
161.7274995085
 20
111.4606754093
 10
161.7227795085
 20
111.450161655
 10
161.7180737387
 20
111.4402092505
 10
161.7133645221
 20
111.4307114277
 10
161.7086551232
 20
111.4216617044
 10
161.7039446483
 20
111.4130669336
 10
161.6992086031
 20
111.4048402709
 10
161.6944392628
 20
111.3969528598
 10
161.6896458267
 20
111.3894338743
 10
161.6848289149
 20
111.3822834877
  0
LWPOLYLINE
  5
496
100
AcDbEntity
  8
ASSI
100
AcDbPolyline
 62
7
  6
CONTINUOUS
 90
3
 70
0
 10
149.6252966207
 20
85.7558304414
 10
149.6381679543
 20
85.7697260072
 10
149.647645847
 20
85.7851392825
  0
LWPOLYLINE
  5
497
100
AcDbEntity
  8
ASSI
100
AcDbPolyline
 62
253
  6
CONTINUOUS
 90
6
 70
0
 10
150.1094874845
 20
86.5982322326
 10
150.1225368596
 20
86.6110452345
 10
150.1325934777
 20
86.6247172085
 10
150.1394890647
 20
86.6390193858
 10
150.1431082389
 20
86.6537124524
 10
150.1436799695
 20
86.6623720555
  0
LWPOLYLINE
  5
498
100
AcDbEntity
  8
ASSI
100
AcDbPolyline
 62
253
  6
CONTINUOUS
 90
6
 70
0
 10
150.1094874845
 20
86.2766879806
 10
150.1225368594
 20
86.2895009822
 10
150.1325934775
 20
86.3031729561
 10
150.1394890645
 20
86.3174751332
 10
150.1431082388
 20
86.3321681996
 10
150.14367997
 20
86.3408359551
  0
LWPOLYLINE
  5
499
100
AcDbEntity
  8
ASSI
100
AcDbPolyline
 62
253
  6
CONTINUOUS
 90
28
 70
0
 10
150.0820116177
 20
86.2123721824
 10
150.0834582643
 20
86.2136837245
 10
150.0849190754
 20
86.2151325625
 10
150.0863940511
 20
86.2167186963
 10
150.0878919633
 20
86.2184469388
 10
150.08940404
 20
86.2203124772
 10
150.0909039656
 20
86.2223008729
 10
150.092391805
 20
86.2244168166
 10
150.0938674933
 20
86.2266556178
 10
150.0953045198
 20
86.2289887655
 10
150.0967013871
 20
86.2314188033
 10
150.0980595925
 20
86.2339431876
 10
150.0993571176
 20
86.2365257772
 10
150.100591289
 20
86.2391653885
 10
150.10176478
 20
86.241863205
 10
150.1028635924
 20
86.2445866358
 10
150.1038859464
 20
86.2473339046
 10
150.1048336219
 20
86.2501067877
 10
150.1056979604
 20
86.2528780243
 10
150.1064782557
 20
86.2556476384
 10
150.107175214
 20
86.2584156059
 10
150.1077822963
 20
86.2611545943
 10
150.1082986867
 20
86.263864282
 10
150.1087252009
 20
86.2665449906
 10
150.1090577471
 20
86.2691703515
 10
150.109294961
 20
86.2717315755
 10
150.1094382069
 20
86.2742374518
 10
150.1094874845
 20
86.2766879806
  0
LWPOLYLINE
  5
49A
100
AcDbEntity
  8
ASSI
100
AcDbPolyline
 62
7
  6
CONTINUOUS
 90
5
 70
0
 10
150.0479230155
 20
86.1260207993
 10
150.0503585941
 20
86.1281814715
 10
150.0681251323
 20
86.1458376319
 10
150.0838205324
 20
86.1647393122
 10
150.0979608329
 20
86.1852786488
  0
LINE
  5
49B
100
AcDbEntity
  8
ASSI
100
AcDbLine
 62
253
  6
CONTINUOUS
 10
150.0696888896
 20
87.6442518663
 11
150.6289669738
 21
88.1341390694
  0
LINE
  5
49C
100
AcDbEntity
  8
ASSI
100
AcDbLine
 62
7
  6
CONTINUOUS
 10
149.981985038
 20
87.4261984043
 11
150.5419625309
 21
87.9166982388
  0
LINE
  5
49D
100
AcDbEntity
  8
ASSI
100
AcDbLine
 62
253
  6
CONTINUOUS
 10
149.6601128675
 20
85.8428193524
 11
150.0820116177
 21
86.2123721824
  0
LINE
  5
49E
100
AcDbEntity
  8
ASSI
100
AcDbLine
 62
7
  6
CONTINUOUS
 10
149.6253419785
 20
85.755870076
 11
150.0479840602
 21
86.1260740106
  0
LWPOLYLINE
  5
49F
100
AcDbEntity
  8
ASSI
100
AcDbPolyline
 62
253
  6
CONTINUOUS
 90
7
 70
0
 10
148.2945595805
 20
84.7373841411
 10
148.3001574908
 20
84.7420355686
 10
148.3121348568
 20
84.7551269703
 10
148.3217329577
 20
84.7706316162
 10
148.3287876329
 20
84.7882843194
 10
148.3331782234
 20
84.8077831532
 10
148.334829636
 20
84.8287946158
  0
LWPOLYLINE
  5
4A0
100
AcDbEntity
  8
RACCORDO
100
AcDbPolyline
 62
253
  6
CONTINUOUS
 90
8
 70
0
 10
145.6746448309
 20
84.4631939078
 10
145.7032505217
 20
84.4868553464
 10
145.7274910304
 20
84.5140906263
 10
145.7480085333
 20
84.5452428408
 10
145.7645786635
 20
84.5799712601
 10
145.7770202231
 20
84.6178960424
 10
145.7851971671
 20
84.6586023857
 10
145.7890200947
 20
84.7016450743
  0
LINE
  5
4A1
100
AcDbEntity
  8
ASSI
100
AcDbLine
 62
7
  6
CONTINUOUS
 10
149.6206834064
 20
85.7520520486
 11
149.6252966207
 21
85.7558304414
  0
LINE
  5
4A2
100
AcDbEntity
  8
ASSI
100
AcDbLine
 62
7
  6
CONTINUOUS
 10
149.9818762688
 20
87.426103152
 11
149.9628356207
 21
87.4111517795
  0
LINE
  5
4A3
100
AcDbEntity
  8
ASSI
100
AcDbLine
 62
253
  6
CONTINUOUS
 10
149.6601128675
 20
85.8428193524
 11
148.334829636
 21
84.8287946158
  0
LINE
  5
4A4
100
AcDbEntity
  8
ASSI
100
AcDbLine
 62
7
  6
CONTINUOUS
 10
149.6206491385
 20
85.7520258289
 11
148.2945595777
 21
84.737384139
  0
LWPOLYLINE
  5
4A5
100
AcDbEntity
  8
ASSI
100
AcDbPolyline
 62
253
  6
CONTINUOUS
 90
28
 70
0
 10
148.334829636
 20
84.8287946158
 10
148.3333874786
 20
84.8277273771
 10
148.3319207033
 20
84.8267594409
 10
148.3304293101
 20
84.8258908073
 10
148.3289040475
 20
84.825109739
 10
148.3273541669
 20
84.8244279733
 10
148.3258074235
 20
84.8238807216
 10
148.3242633143
 20
84.8234722166
 10
148.3227223423
 20
84.8231982255
 10
148.3212137702
 20
84.8230812623
 10
148.3197384559
 20
84.8231266293
 10
148.3182955416
 20
84.8233290242
 10
148.3169117175
 20
84.8236950539
 10
148.3155896503
 20
84.824229059
 10
148.3143266734
 20
84.8249266988
 10
148.3131414766
 20
84.825781559
 10
148.3120364278
 20
84.8267956823
 10
148.3110091592
 20
84.8279670259
 10
148.3100712576
 20
84.8292830462
 10
148.3092238868
 20
84.8307452563
 10
148.3084658831
 20
84.832352143
 10
148.307805342
 20
84.8340866231
 10
148.3072433368
 20
84.8359501513
 10
148.3067787942
 20
84.8379412729
 10
148.3064165904
 20
84.840038541
 10
148.3061583508
 20
84.8422348068
 10
148.30600245
 20
84.844537219
 10
148.305948888
 20
84.8469457779
  0
LINE
  5
4A6
100
AcDbEntity
  8
RACCORDO
100
AcDbLine
 62
253
  6
CONTINUOUS
 10
149.1556986071
 20
87.0684070837
 11
145.7890200947
 21
84.7016450743
  0
LINE
  5
4A7
100
AcDbEntity
  8
ASSI
100
AcDbLine
 62
253
  6
CONTINUOUS
 10
149.1771488583
 20
87.0168622397
 11
150.0696888896
 21
87.6443144393
  0
LINE
  5
4A8
100
AcDbEntity
  8
ASSI
100
AcDbLine
 62
7
  6
CONTINUOUS
 10
149.0710271217
 20
86.7842132711
 11
149.9627588273
 21
87.4110972208
  0
LINE
  5
4A9
100
AcDbEntity
  8
RACCORDO
100
AcDbLine
 62
7
  6
CONTINUOUS
 10
145.674194127
 20
84.462877848
 11
149.0495692846
 21
86.8357527821
  0
LWPOLYLINE
  5
4AA
100
AcDbEntity
  8
RACCORDO
100
AcDbPolyline
 62
253
  6
CONTINUOUS
 90
22
 70
0
 10
145.7890200947
 20
84.7016450743
 10
145.7596206923
 20
84.6824218576
 10
145.7307167985
 20
84.6663199476
 10
145.7023084133
 20
84.6533393443
 10
145.6742466938
 20
84.643437515
 10
145.6466804828
 20
84.6366569924
 10
145.6200563096
 20
84.6331253746
 10
145.5944011426
 20
84.6329002256
 10
145.5696880132
 20
84.6359239813
 10
145.5462825453
 20
84.6421515476
 10
145.5242041869
 20
84.6516321203
 10
145.5034334898
 20
84.6643165035
 10
145.484277734
 20
84.6800120148
 10
145.4667626903
 20
84.6987629455
 10
145.4508625877
 20
84.7205250044
 10
145.4368073928
 20
84.7449726354
 10
145.4246234867
 20
84.7721621917
 10
145.4142844882
 20
84.8020373202
 10
145.4059412206
 20
84.834103406
 10
145.3996439584
 20
84.8681955775
 10
145.3953424271
 20
84.9044787063
 10
145.3930366267
 20
84.9429527924
  0
LWPOLYLINE
  5
4AB
100
AcDbEntity
  8
ASSI
100
AcDbPolyline
 62
7
  6
CONTINUOUS
 90
6
 70
0
 10
141.7125293484
 20
128.5575095548
 10
141.7348008503
 20
128.5634457227
 10
141.7588207713
 20
128.5656413044
 10
141.7841789408
 20
128.5640598439
 10
141.8104468387
 20
128.5587325961
 10
141.8371796543
 20
128.549754386
  0
LWPOLYLINE
  5
4AC
100
AcDbEntity
  8
ASSI
100
AcDbPolyline
 62
7
  6
CONTINUOUS
 90
5
 70
0
 10
147.4319650029
 20
130.2655041516
 10
147.389449717
 20
130.2615181308
 10
147.3472593054
 20
130.2535578976
 10
147.3071866426
 20
130.2419216097
 10
147.2694324347
 20
130.2267330766
  0
LINE
  5
4AD
100
AcDbEntity
  8
ASSI
100
AcDbLine
 62
7
  6
CONTINUOUS
 10
133.153944167
 20
129.6761829385
 11
132.7104731182
 21
129.6828468942
  0
LINE
  5
4AE
100
AcDbEntity
  8
ASSI
100
AcDbLine
 62
253
  6
CONTINUOUS
 10
134.3417980361
 20
130.0344242004
 11
133.7397393694
 21
130.0434712223
  0
LINE
  5
4AF
100
AcDbEntity
  8
ASSI
100
AcDbLine
 62
7
  6
CONTINUOUS
 10
133.5745632362
 20
129.910927735
 11
134.1025356952
 21
129.9029935361
  0
LWPOLYLINE
  5
4B0
100
AcDbEntity
  8
ASSI
100
AcDbPolyline
 62
253
  6
CONTINUOUS
 90
19
 70
0
 10
133.7397393694
 20
130.0434712223
 10
133.7384798387
 20
130.0435330309
 10
133.7372409037
 20
130.0437367755
 10
133.7360225646
 20
130.0440824561
 10
133.7348148288
 20
130.0445641165
 10
133.7336276888
 20
130.0451877128
 10
133.7324911221
 20
130.0459711138
 10
133.7314060778
 20
130.0469196042
 10
133.7303716068
 20
130.0480278991
 10
133.7294148395
 20
130.0492980133
 10
133.7285379233
 20
130.0507356175
 10
133.7277387108
 20
130.0523350408
 10
133.7270378898
 20
130.0540812858
 10
133.7264385809
 20
130.0559794668
 10
133.7259376636
 20
130.0580244695
 10
133.7255464642
 20
130.0601859534
 10
133.7252687581
 20
130.0624538051
 10
133.7251007699
 20
130.0648381379
 10
133.7250424997
 20
130.067338952
  0
LWPOLYLINE
  5
4B1
100
AcDbEntity
  8
ASSI
100
AcDbPolyline
 62
7
  6
CONTINUOUS
 90
9
 70
0
 10
132.0352672635
 20
130.5148883568
 10
132.0376603976
 20
130.5144951733
 10
132.044750602
 20
130.5154991623
 10
132.054917165
 20
130.5192186724
 10
132.0676880473
 20
130.5254369195
 10
132.0829222828
 20
130.5332297209
 10
132.1004271958
 20
130.5423789136
 10
132.1197624036
 20
130.5533143209
 10
132.1405890654
 20
130.5660937256
  0
LWPOLYLINE
  5
4B2
100
AcDbEntity
  8
ASSI
100
AcDbPolyline
 62
253
  6
CONTINUOUS
 90
12
 70
0
 10
147.5698534564
 20
127.2358442059
 10
147.562968113
 20
127.2376142842
 10
147.5557847949
 20
127.2385441663
 10
147.5483305995
 20
127.2386305074
 10
147.540630551
 20
127.23787318
 10
147.5327128361
 20
127.2362747363
 10
147.5246053487
 20
127.2338408323
 10
147.5163372166
 20
127.2305802543
 10
147.507939592
 20
127.2265052333
 10
147.4994429893
 20
127.2216309755
 10
147.4908771038
 20
127.2159751819
 10
147.4822724224
 20
127.2095584679
  0
LWPOLYLINE
  5
4B3
100
AcDbEntity
  8
ASSI
100
AcDbPolyline
 62
253
  6
CONTINUOUS
 90
3
 70
0
 10
132.9822242757
 20
133.0936035631
 10
132.9890515393
 20
133.091830843
 10
132.9924714991
 20
133.0905864363
  0
LINE
  5
4B4
100
AcDbEntity
  8
RACCORDO
100
AcDbLine
 62
7
  6
CONTINUOUS
 10
143.1861161841
 20
130.959367052
 11
143.1852518797
 21
130.9596257426
  0
LWPOLYLINE
  5
4B5
100
AcDbEntity
  8
RACCORDO
100
AcDbPolyline
 62
7
  6
CONTINUOUS
 90
51
 70
0
 10
143.186116131
 20
130.9593670731
 10
143.1745447027
 20
130.9629219778
 10
143.149553862
 20
130.9701974137
 10
143.1243105584
 20
130.9770068029
 10
143.0988301507
 20
130.9833513804
 10
143.073123286
 20
130.9892329993
 10
143.0472081522
 20
130.9946512561
 10
143.0211026365
 20
130.9996063355
 10
142.9948173053
 20
131.0040993777
 10
142.9683702441
 20
131.00812993
 10
142.94177925
 20
131.0116980037
 10
142.9150548376
 20
131.0148041171
 10
142.8882149127
 20
131.0174478157
 10
142.861277488
 20
131.0196289461
 10
142.8342535865
 20
131.021347495
 10
142.8071611602
 20
131.0226030666
 10
142.7800182305
 20
131.0233954284
 10
142.7528361746
 20
131.0237241743
 10
142.7256328763
 20
131.0235889858
 10
142.6984265069
 20
131.0229895657
 10
142.6712289229
 20
131.0219252083
 10
142.6440581021
 20
131.020395659
 10
142.6169322351
 20
131.0184005647
 10
142.5898632675
 20
131.0159389535
 10
142.5628689223
 20
131.0130105283
 10
142.5359678181
 20
131.0096148752
 10
142.5091726911
 20
131.0057508313
 10
142.4825012237
 20
131.001418
 10
142.4559723096
 20
130.9966159024
 10
142.429599617
 20
130.9913432472
 10
142.4034009734
 20
130.9855994894
 10
142.3773954164
 20
130.9793840439
 10
142.3515972557
 20
130.9726954217
 10
142.326019329
 20
130.9655313139
 10
142.3006861745
 20
130.9578922867
 10
142.2756277155
 20
130.9497815599
 10
142.2508581957
 20
130.9411975245
 10
142.2263998868
 20
130.9321410594
 10
142.2022916002
 20
130.9226204498
 10
142.1785499668
 20
130.9126360717
 10
142.1551925974
 20
130.9021886058
 10
142.1322559845
 20
130.8912881414
 10
142.1097543435
 20
130.8799349498
 10
142.0877053021
 20
130.868131033
 10
142.0661464934
 20
130.8558902104
 10
142.0450919762
 20
130.8432140662
 10
142.0245563145
 20
130.8301044949
 10
142.0045737749
 20
130.8165768119
 10
141.985163572
 20
130.8026379847
 10
141.9663333248
 20
130.7882873078
 10
141.9535305306
 20
130.7780195089
  0
LWPOLYLINE
  5
4B6
100
AcDbEntity
  8
ASSI
100
AcDbPolyline
 62
7
  6
CONTINUOUS
 90
6
 70
0
 10
132.9928881611
 20
133.0904169946
 10
132.9663771466
 20
133.099142604
 10
132.9396465523
 20
133.1042243919
 10
132.911752447
 20
133.1058455174
 10
132.8833967013
 20
133.1037517707
 10
132.8555717233
 20
133.0979596098
  0
LWPOLYLINE
  5
4B7
100
AcDbEntity
  8
ASSI
100
AcDbPolyline
 62
7
  6
CONTINUOUS
 90
8
 70
0
 10
132.4578949852
 20
132.7262625823
 10
132.4365180166
 20
132.7334527552
 10
132.4155013514
 20
132.737712631
 10
132.3952078788
 20
132.738972117
 10
132.3759884532
 20
132.7372127938
 10
132.3581728588
 20
132.7324651759
 10
132.3420640099
 20
132.724808432
 10
132.3335181843
 20
132.7190117341
  0
LINE
  5
4B8
100
AcDbEntity
  8
RACCORDO
100
AcDbLine
 62
7
  6
CONTINUOUS
 10
143.188892327
 20
130.958377526
 11
143.1861161841
 21
130.959367052
  0
LINE
  5
4B9
100
AcDbEntity
  8
RACCORDO
100
AcDbLine
 62
7
  6
CONTINUOUS
 10
145.9303736919
 20
129.1754531066
 11
142.0267038489
 21
130.7432549217
  0
LINE
  5
4BA
100
AcDbEntity
  8
RACCORDO
100
AcDbLine
 62
253
  6
CONTINUOUS
 10
146.4570094997
 20
129.5941310778
 11
143.1205392495
 21
130.9341327493
  0
LINE
  5
4BB
100
AcDbEntity
  8
RACCORDO
100
AcDbLine
 62
7
  6
CONTINUOUS
 10
146.5002116844
 20
129.6284770201
 11
143.1888990156
 21
130.9583748397
  0
LINE
  5
4BC
100
AcDbEntity
  8
ASSI
100
AcDbLine
 62
7
  6
CONTINUOUS
 10
146.9324236617
 20
129.9720875971
 11
143.2771892405
 21
131.440112146
  0
LWPOLYLINE
  5
4BD
100
AcDbEntity
  8
ASSI
100
AcDbPolyline
 62
253
  6
CONTINUOUS
 90
13
 70
0
 10
141.0539864553
 20
132.7234275536
 10
141.080242631
 20
132.7111534818
 10
141.1060233795
 20
132.695661018
 10
141.1309021694
 20
132.6772063421
 10
141.1544673415
 20
132.6560946809
 10
141.1763289922
 20
132.6326751997
 10
141.1961254083
 20
132.607335208
 10
141.2135289875
 20
132.580493811
 10
141.2282515965
 20
132.5525951263
 10
141.240049445
 20
132.5241008743
 10
141.2487272036
 20
132.4954825772
 10
141.2541411952
 20
132.4672137447
 10
141.2562017211
 20
132.439762175
  0
LINE
  5
4BE
100
AcDbEntity
  8
DRAFT
100
AcDbLine
 62
7
  6
CONTINUOUS
 10
155.5945054177
 20
127.481613511
 11
154.7225424921
 21
128.7037764054
  0
LINE
  5
4BF
100
AcDbEntity
  8
0
100
AcDbLine
 62
253
  6
CONTINUOUS
 10
154.4209421917
 20
131.5882616462
 11
154.872775959
 21
130.6241959774
  0
LWPOLYLINE
  5
4C0
100
AcDbEntity
  8
RACCORDO
100
AcDbPolyline
 62
253
  6
CONTINUOUS
 90
54
 70
0
 10
161.7780179226
 20
122.182552446
 10
161.783849338
 20
122.1539472656
 10
161.7939164303
 20
122.0992384446
 10
161.8028217467
 20
122.0448233628
 10
161.8106175356
 20
121.9907569693
 10
161.8172669699
 20
121.9382941338
 10
161.8227658196
 20
121.8878057615
 10
161.8272229633
 20
121.8389596243
 10
161.8308009889
 20
121.7919632702
 10
161.8335454091
 20
121.7470490763
 10
161.8355062288
 20
121.7040129446
 10
161.8368408981
 20
121.6624044567
 10
161.8375959604
 20
121.622117715
 10
161.8377858234
 20
121.5832743959
 10
161.837504109
 20
121.5457619522
 10
161.8367815217
 20
121.509582093
 10
161.8356378051
 20
121.4747438593
 10
161.8341432425
 20
121.4411442831
 10
161.8323259528
 20
121.408824576
 10
161.830198837
 20
121.3777507246
 10
161.827802439
 20
121.3477057705
 10
161.8251555434
 20
121.3186697402
 10
161.822269145
 20
121.2906669731
 10
161.8191659037
 20
121.2635460898
 10
161.8158551839
 20
121.2372690321
 10
161.8123503708
 20
121.2118765871
 10
161.8086769453
 20
121.1873352201
 10
161.8048435543
 20
121.1636391031
 10
161.8008609599
 20
121.1407959584
 10
161.7967563359
 20
121.1187924159
 10
161.7925401916
 20
121.0976420574
 10
161.7882184897
 20
121.0773326584
 10
161.7838101241
 20
121.0578120302
 10
161.7793218791
 20
121.0390809481
 10
161.774760042
 20
121.0211395874
 10
161.7701412153
 20
121.0039347691
 10
161.7654679952
 20
120.9874603896
 10
161.7607479379
 20
120.971723262
 10
161.7560038366
 20
120.9566895405
 10
161.7512399956
 20
120.9423646479
 10
161.7464599351
 20
120.9287437698
 10
161.7416842137
 20
120.9157776863
 10
161.7369209919
 20
120.9034795515
 10
161.73216779
 20
120.8918367581
 10
161.7274281866
 20
120.8807614003
 10
161.7227114799
 20
120.8702618811
 10
161.7180121524
 20
120.8603302626
 10
161.7133106785
 20
120.8508540475
 10
161.7086102845
 20
120.8418259349
 10
161.7039101044
 20
120.8332535967
 10
161.6991838813
 20
120.8250469113
 10
161.6944232978
 20
120.8171759282
 10
161.6896381335
 20
120.8096709123
 10
161.6848290043
 20
120.8025320355
  0
LWPOLYLINE
  5
4C1
100
AcDbEntity
  8
ASSI
100
AcDbPolyline
 62
7
  6
CONTINUOUS
 90
6
 70
0
 10
137.4119811159
 20
130.2847066786
 10
137.4342526178
 20
130.2906428465
 10
137.4582725388
 20
130.2928384282
 10
137.4836307083
 20
130.2912569676
 10
137.5098986062
 20
130.2859297198
 10
137.5366314218
 20
130.2769515098
  0
LWPOLYLINE
  5
4C2
100
AcDbEntity
  8
ASSI
100
AcDbPolyline
 62
253
  6
CONTINUOUS
 90
11
 70
0
 10
133.5749309514
 20
129.910921753
 10
133.5866828463
 20
129.9112113774
 10
133.6089255257
 20
129.9143371788
 10
133.6306438254
 20
129.9207890028
 10
133.6514702487
 20
129.9304576744
 10
133.6710523921
 20
129.9431795858
 10
133.6890589101
 20
129.9587394673
 10
133.7051851185
 20
129.9768740297
 10
133.7191581488
 20
129.997276418
 10
133.7307415658
 20
130.0196014024
 10
133.7397393694
 20
130.0434712223
  0
LWPOLYLINE
  5
4C3
100
AcDbEntity
  8
RACCORDO
100
AcDbPolyline
 62
7
  6
CONTINUOUS
 90
20
 70
0
 10
143.1852518797
 20
130.9596257426
 10
143.1823102949
 20
130.9603410896
 10
143.179294282
 20
130.9608247205
 10
143.1762078228
 20
130.9610759724
 10
143.173054237
 20
130.9610947673
 10
143.169837745
 20
130.9608809808
 10
143.1665625943
 20
130.9604347899
 10
143.1632322702
 20
130.9597569898
 10
143.1598512269
 20
130.958848295
 10
143.1564239301
 20
130.9577097186
 10
143.152953984
 20
130.9563429193
 10
143.1494460272
 20
130.9547494412
 10
143.1459046945
 20
130.9529311202
 10
143.1423336598
 20
130.9508904592
 10
143.138737695
 20
130.9486298129
 10
143.1351215532
 20
130.9461518177
 10
143.1314889299
 20
130.9434597928
 10
143.1278442832
 20
130.9405570258
 10
143.1241928279
 20
130.9374467724
 10
143.1205394186
 20
130.9341326814
  0
LWPOLYLINE
  5
4C4
100
AcDbEntity
  8
ASSI
100
AcDbPolyline
 62
253
  6
CONTINUOUS
 90
3
 70
0
 10
150.0054547849
 20
131.4137731876
 10
150.0388122015
 20
131.4052431733
 10
150.049263288
 20
131.401359433
  0
LWPOLYLINE
  5
4C5
100
AcDbEntity
  8
ASSI
100
AcDbPolyline
 62
7
  6
CONTINUOUS
 90
8
 70
0
 10
150.0502782592
 20
131.400944836
 10
150.0082754011
 20
131.4150976275
 10
149.9640131777
 20
131.4242889554
 10
149.9174416918
 20
131.4282398145
 10
149.8691009421
 20
131.4265914709
 10
149.8197799092
 20
131.419169503
 10
149.769825583
 20
131.4059146189
 10
149.7192954133
 20
131.3867410449
  0
LWPOLYLINE
  5
4C6
100
AcDbEntity
  8
ASSI
100
AcDbPolyline
 62
253
  6
CONTINUOUS
 90
8
 70
0
 10
140.8455256907
 20
132.808712691
 10
140.8191098013
 20
132.8179351669
 10
140.7931029171
 20
132.8234627533
 10
140.7679498507
 20
132.8252009082
 10
140.7440808114
 20
132.8231199028
 10
140.721904047
 20
132.8172553299
 10
140.7017988611
 20
132.8077074951
 10
140.6912573321
 20
132.800569172
  0
LWPOLYLINE
  5
4C7
100
AcDbEntity
  8
ASSI
100
AcDbPolyline
 62
253
  6
CONTINUOUS
 90
11
 70
0
 10
144.69542068
 20
133.5515833239
 10
144.6846179562
 20
133.5556082897
 10
144.6502445384
 20
133.564546353
 10
144.6141248472
 20
133.5683208481
 10
144.5764615176
 20
133.5669092515
 10
144.5374593625
 20
133.560319982
 10
144.4973287942
 20
133.5485903399
 10
144.4562922426
 20
133.5317832358
 10
144.4145743702
 20
133.5099904647
 10
144.3724008707
 20
133.4833322876
 10
144.3300017721
 20
133.4519547732
  0
LINE
  5
4C8
100
AcDbEntity
  8
ASSI
100
AcDbLine
 62
7
  6
CONTINUOUS
 10
148.3869863931
 20
130.3561173652
 11
143.6436484876
 21
132.2611488041
  0
LINE
  5
4C9
100
AcDbEntity
  8
DRAFT
100
AcDbLine
 62
7
  6
CONTINUOUS
 10
140.42391794
 20
134.4464263805
 11
140.4441181547
 21
134.4383135188
  0
LINE
  5
4CA
100
AcDbEntity
  8
DRAFT
100
AcDbLine
 62
7
  6
CONTINUOUS
 10
153.9648473252
 20
129.0080838662
 11
154.7225424921
 21
128.7037764054
  0
LINE
  5
4CB
100
AcDbEntity
  8
ASSI
100
AcDbLine
 62
7
  6
CONTINUOUS
 10
144.9952337183
 20
132.7125088249
 11
149.2179917057
 21
131.0165540174
  0
LINE
  5
4CC
100
AcDbEntity
  8
ASSI
100
AcDbLine
 62
253
  6
CONTINUOUS
 10
141.0267577116
 20
134.7786120577
 11
144.3300017721
 21
133.4519547732
  0
LINE
  5
4CD
100
AcDbEntity
  8
ASSI
100
AcDbLine
 62
253
  6
CONTINUOUS
 10
149.6893263655
 20
131.2995291933
 11
152.992570426
 21
129.9728719087
  0
LINE
  5
4CE
100
AcDbEntity
  8
ASSI
100
AcDbLine
 62
7
  6
CONTINUOUS
 10
150.0492427522
 20
131.4013676806
 11
153.5458109117
 21
129.9970670794
  0
LINE
  5
4CF
100
AcDbEntity
  8
ASSI
100
AcDbLine
 62
7
  6
CONTINUOUS
 10
144.6956712881
 20
133.5514825019
 11
141.1988732243
 21
134.9558756099
  0
LWPOLYLINE
  5
4D0
100
AcDbEntity
  8
0
100
AcDbPolyline
 62
7
  6
CONTINUOUS
 90
25
 70
0
 10
142.9571476491
 20
134.2858274167
 10
142.9178294864
 20
134.3020000277
 10
142.8793151101
 20
134.3185728985
 10
142.8416045203
 20
134.3355460291
 10
142.8046888363
 20
134.352928297
 10
142.7685769388
 20
134.3707108247
 10
142.7332954695
 20
134.3888669791
 10
142.6988465401
 20
134.407394124
 10
142.6652280388
 20
134.4262948956
 10
142.6324602719
 20
134.4455505704
 10
142.6005346233
 20
134.4651674325
 10
142.569459709
 20
134.4851391977
 10
142.5392816833
 20
134.5054282901
 10
142.5100188901
 20
134.5260225904
 10
142.4816529855
 20
134.5469342177
 10
142.4541750921
 20
134.5681619539
 10
142.4275793973
 20
134.5897088224
 10
142.4018717138
 20
134.6115717997
 10
142.3770606019
 20
134.6337405972
 10
142.3531461766
 20
134.656214171
 10
142.330128323
 20
134.678993565
 10
142.3080152567
 20
134.702071622
 10
142.2868109755
 20
134.725440344
 10
142.2665114816
 20
134.7491077289
 10
142.2509683767
 20
134.7682080953
  0
LINE
  5
4D1
100
AcDbEntity
  8
SMUSSO
100
AcDbLine
 62
7
  6
CONTINUOUS
 10
154.8236608374
 20
129.9755341282
 11
154.7349645139
 21
130.0998562722
  0
LWPOLYLINE
  5
4D2
100
AcDbEntity
  8
ASSI
100
AcDbPolyline
 62
7
  6
CONTINUOUS
 90
5
 70
0
 10
140.9350458161
 20
132.8806101276
 10
140.8934618216
 20
132.8779417463
 10
140.8519993194
 20
132.8715099343
 10
140.8123208872
 20
132.8615378431
 10
140.7745779437
 20
132.8481125294
  0
LINE
  5
4D3
100
AcDbEntity
  8
DRAFT
100
AcDbLine
 62
7
  6
CONTINUOUS
 10
142.7002105819
 20
134.8445850676
 11
142.6787646872
 21
134.8531982224
  0
LINE
  5
4D4
100
AcDbEntity
  8
0
100
AcDbLine
 62
7
  6
CONTINUOUS
 10
158.5158448721
 20
129.9436572352
 11
158.477045628
 21
129.9592398696
  0
LINE
  5
4D5
100
AcDbEntity
  8
0
100
AcDbLine
 62
7
  6
CONTINUOUS
 10
142.71052567
 20
136.2914279909
 11
142.7493249372
 21
136.2758453496
  0
LWPOLYLINE
  5
4D6
100
AcDbEntity
  8
RACCORDO
100
AcDbPolyline
 62
7
  6
CONTINUOUS
 90
82
 70
0
 10
161.7780179226
 20
124.2668628231
 10
161.7957950733
 20
124.2495912211
 10
161.8434329433
 20
124.201957014
 10
161.890441817
 20
124.1535844597
 10
161.9368057862
 20
124.1044907221
 10
161.9825041184
 20
124.0546984275
 10
162.027515702
 20
124.0042313927
 10
162.0718208636
 20
123.9531126202
 10
162.1154043269
 20
123.9013605586
 10
162.1582518785
 20
123.8489925239
 10
162.20034701
 20
123.7960288092
 10
162.2416722755
 20
123.7424913406
 10
162.2822121948
 20
123.688399969
 10
162.3219520806
 20
123.6337737604
 10
162.3608739305
 20
123.5786367671
 10
162.3989578854
 20
123.5230166293
 10
162.4361842415
 20
123.4669420265
 10
162.472542363
 20
123.4104287159
 10
162.5080260623
 20
123.3534848991
 10
162.5426273514
 20
123.2961205014
 10
162.5763235858
 20
123.2383699121
 10
162.6090874792
 20
123.180278217
 10
162.6408967434
 20
123.1218850278
 10
162.6717478007
 20
123.0631968082
 10
162.701641694
 20
123.0042088622
 10
162.730574118
 20
122.9449240216
 10
162.7585213203
 20
122.8853848625
 10
162.7854559313
 20
122.8256461988
 10
162.8113582124
 20
122.7657510904
 10
162.8362261538
 20
122.7057031753
 10
162.8600597328
 20
122.6454980397
 10
162.8828544756
 20
122.585138719
 10
162.9045906525
 20
122.5246684791
 10
162.9252461841
 20
122.4641429596
 10
162.9448066453
 20
122.4036018731
 10
162.9632688016
 20
122.3430521538
 10
162.9806287336
 20
122.282499999
 10
162.9968808486
 20
122.2219543988
 10
163.0120119235
 20
122.1614528823
 10
163.026007623
 20
122.1010439934
 10
163.0388596462
 20
122.0407573094
 10
163.0505629009
 20
121.9806092924
 10
163.0611101397
 20
121.9206281884
 10
163.0704958578
 20
121.8608351359
 10
163.0787142955
 20
121.8012545385
 10
163.0857592293
 20
121.7419188937
 10
163.091627288
 20
121.6828406724
 10
163.0963132122
 20
121.624052322
 10
163.099811391
 20
121.5656151185
 10
163.1021203033
 20
121.5075687428
 10
163.1032405574
 20
121.4499162241
 10
163.1031716066
 20
121.3926630423
 10
163.1019113496
 20
121.3357982966
 10
163.0994587523
 20
121.2793762292
 10
163.0958194812
 20
121.2234981398
 10
163.0910028671
 20
121.1682269527
 10
163.0850118566
 20
121.1135372184
 10
163.0778448026
 20
121.059396777
 10
163.0694953761
 20
121.0057719743
 10
163.0599732594
 20
120.9527378471
 10
163.0493053691
 20
120.9004231169
 10
163.0375167291
 20
120.8489016549
 10
163.0246074996
 20
120.7981304884
 10
163.0105708143
 20
120.748061672
 10
162.9954006694
 20
120.6986700508
 10
162.9791172079
 20
120.6500179145
 10
162.9617537674
 20
120.6021882346
 10
162.9433367117
 20
120.5552266273
 10
162.923869221
 20
120.5091158808
 10
162.9033533202
 20
120.4638432293
 10
162.8817990947
 20
120.4194177923
 10
162.8592231456
 20
120.3758612605
 10
162.8356357424
 20
120.3331815427
 10
162.811047932
 20
120.2913883671
 10
162.7854775823
 20
120.2505021699
 10
162.7589464482
 20
120.21054673
 10
162.7314807366
 20
120.1715487569
 10
162.7030888585
 20
120.1335077551
 10
162.6737653698
 20
120.0964079476
 10
162.6435184443
 20
120.0602545974
 10
162.6123722196
 20
120.0250714577
 10
162.5803438835
 20
119.9908720541
  0
LWPOLYLINE
  5
4D7
100
AcDbEntity
  8
RACCORDO
100
AcDbPolyline
 62
253
  6
CONTINUOUS
 90
83
 70
0
 10
161.7780179226
 20
124.1554353791
 10
161.805119863
 20
124.127792018
 10
161.8508203609
 20
124.0798900952
 10
161.8959165734
 20
124.0313165957
 10
161.9403901889
 20
123.982091246
 10
161.9842231968
 20
123.9322339834
 10
162.0273978527
 20
123.8817649911
 10
162.0698966676
 20
123.8307047106
 10
162.1117023842
 20
123.7790738731
 10
162.1527980168
 20
123.7268934565
 10
162.1931668787
 20
123.6741846513
 10
162.2327926218
 20
123.6209688059
 10
162.2716592102
 20
123.5672674561
 10
162.3097509019
 20
123.5131023487
 10
162.347052226
 20
123.4584954797
 10
162.3835480239
 20
123.4034690403
 10
162.4192234765
 20
123.3480453772
 10
162.4540641373
 20
123.2922469374
 10
162.4880559049
 20
123.2360963045
 10
162.5211850106
 20
123.1796162195
 10
162.553438
 20
123.1228296167
 10
162.5848017675
 20
123.0657595703
 10
162.6152635795
 20
123.0084292546
 10
162.6448110998
 20
122.9508618902
 10
162.6734323683
 20
122.8930807794
 10
162.7011157902
 20
122.835109326
 10
162.7278501233
 20
122.7769710681
 10
162.7536245065
 20
122.7186896247
 10
162.7784284773
 20
122.6602886581
 10
162.8022519895
 20
122.601791826
 10
162.8250853974
 20
122.5432228129
 10
162.8469194489
 20
122.4846053467
 10
162.8677452788
 20
122.4259632234
 10
162.8875544291
 20
122.3673202595
 10
162.9063388603
 20
122.3087002589
 10
162.924090963
 20
122.2501269727
 10
162.9408035472
 20
122.1916241245
 10
162.9564698392
 20
122.1332154215
 10
162.9710834795
 20
122.0749245693
 10
162.9846385353
 20
122.0167752326
 10
162.997129507
 20
121.9587910083
 10
163.0085513331
 20
121.9009953964
 10
163.0188993856
 20
121.8434118154
 10
163.0281694694
 20
121.7860636067
 10
163.0363578222
 20
121.7289740388
 10
163.0434611213
 20
121.6721662784
 10
163.0494764855
 20
121.6156633708
 10
163.0544014768
 20
121.5594882226
 10
163.0582340986
 20
121.5036636066
 10
163.0609727967
 20
121.4482121584
 10
163.0626164599
 20
121.3931563698
 10
163.0631644215
 20
121.338518571
 10
163.0626164593
 20
121.2843209198
 10
163.0609727955
 20
121.2305853958
 10
163.0582340968
 20
121.1773337936
 10
163.0544014744
 20
121.1245877126
 10
163.0494764826
 20
121.0723685398
 10
163.0434611178
 20
121.0206974443
 10
163.0363578181
 20
120.9695953743
 10
163.0281694647
 20
120.9190830609
 10
163.0188993804
 20
120.8691810016
 10
163.0085513272
 20
120.8199094434
 10
162.9971295006
 20
120.7712883577
 10
162.9846385284
 20
120.7233374454
 10
162.971083472
 20
120.6760761411
 10
162.9564698311
 20
120.6295236241
 10
162.9408035385
 20
120.5836987935
 10
162.9240909538
 20
120.5386202469
 10
162.9063388506
 20
120.4943062505
 10
162.8875544188
 20
120.4507747524
 10
162.867745268
 20
120.4080433916
 10
162.8469194375
 20
120.3661295144
 10
162.8250853855
 20
120.3250501433
 10
162.8022519771
 20
120.2848219534
 10
162.7784284643
 20
120.2454612409
 10
162.753624493
 20
120.2069839425
 10
162.7278501092
 20
120.1694056464
 10
162.7011157757
 20
120.1327416108
 10
162.6734323533
 20
120.0970067306
 10
162.6448110843
 20
120.0622155136
 10
162.6152635634
 20
120.0283820503
 10
162.5848017509
 20
119.9955200359
 10
162.5803438836
 20
119.9908720542
  0
LINE
  5
4D8
100
AcDbEntity
  8
ASSI
100
AcDbLine
 62
7
  6
CONTINUOUS
 10
144.5847702998
 20
136.5764561405
 11
147.6607476203
 21
135.3410743023
  0
LINE
  5
4D9
100
AcDbEntity
  8
ASSI
100
AcDbLine
 62
7
  6
CONTINUOUS
 10
156.7082205553
 20
131.7074052011
 11
159.3448539874
 21
130.6484737733
  0
LINE
  5
4DA
100
AcDbEntity
  8
DRAFT
100
AcDbLine
 62
7
  6
CONTINUOUS
 10
145.4451349544
 20
137.2919485535
 11
148.5352442067
 21
136.0508910128
  0
LINE
  5
4DB
100
AcDbEntity
  8
DRAFT
100
AcDbLine
 62
7
  6
CONTINUOUS
 10
157.5685852099
 20
132.4228976141
 11
160.2321204929
 21
131.3531617964
  0
LINE
  5
4DC
100
AcDbEntity
  8
RACCORDO
100
AcDbLine
 62
253
  6
CONTINUOUS
 10
156.5838734502
 20
133.269414445
 11
148.9069834144
 21
136.3526265549
  0
LINE
  5
4DD
100
AcDbEntity
  8
RACCORDO
100
AcDbLine
 62
7
  6
CONTINUOUS
 10
157.0600032108
 20
133.3245790214
 11
149.1562096522
 21
136.4989207014
  0
LINE
  5
4DE
100
AcDbEntity
  8
RACCORDO
100
AcDbLine
 62
253
  6
CONTINUOUS
 10
160.7132971285
 20
131.6109448002
 11
161.1272804205
 21
131.030696485
  0
LINE
  5
4DF
100
AcDbEntity
  8
RACCORDO
100
AcDbLine
 62
7
  6
CONTINUOUS
 10
161.0237567176
 20
131.7170731834
 11
161.3521820998
 21
131.2567447636
  0
LWPOLYLINE
  5
4E0
100
AcDbEntity
  8
RACCORDO
100
AcDbPolyline
 62
253
  6
CONTINUOUS
 90
37
 70
0
 10
161.1272804205
 20
131.030696485
 10
161.1523590128
 20
130.995186762
 10
161.1768696608
 20
130.959360453
 10
161.2008006702
 20
130.9232345753
 10
161.2241405521
 20
130.88682633
 10
161.246878249
 20
130.8501529756
 10
161.2690031296
 20
130.8132318153
 10
161.2905047016
 20
130.7760802868
 10
161.3113726333
 20
130.7387161442
 10
161.3315969779
 20
130.7011573312
 10
161.3511680711
 20
130.6634217647
 10
161.3700766084
 20
130.6255273188
 10
161.3883136552
 20
130.5874920033
 10
161.4058705273
 20
130.5493339067
 10
161.422738851
 20
130.5110711688
 10
161.4389106419
 20
130.4727219666
 10
161.4543782132
 20
130.4343045176
 10
161.4691341787
 20
130.3958371166
 10
161.4831715101
 20
130.3573381079
 10
161.4964835344
 20
130.3188258144
 10
161.5090639119
 20
130.2803185546
 10
161.5209066396
 20
130.241834679
 10
161.5320060902
 20
130.2033925361
 10
161.5423569949
 20
130.1650103898
 10
161.5519544205
 20
130.1267064363
 10
161.56079382
 20
130.0884989176
 10
161.5688709956
 20
130.0504060193
 10
161.5761820772
 20
130.0124457879
 10
161.5827236196
 20
129.9746362514
 10
161.58849251
 20
129.9369954705
 10
161.5934859338
 20
129.8995414349
 10
161.5977015412
 20
129.8622921007
 10
161.6011373697
 20
129.8252650997
 10
161.6037917392
 20
129.7884777937
 10
161.6056633834
 20
129.7519476243
 10
161.6067514648
 20
129.7156920999
 10
161.6070554952
 20
129.6797285065
  0
LWPOLYLINE
  5
4E1
100
AcDbEntity
  8
RACCORDO
100
AcDbPolyline
 62
253
  6
CONTINUOUS
 90
28
 70
0
 10
161.3521820998
 20
131.2567447636
 10
161.3526053145
 20
131.2560452149
 10
161.3532119329
 20
131.2540634253
 10
161.3532328556
 20
131.2516662206
 10
161.3526680676
 20
131.2488553233
 10
161.3515179747
 20
131.2456327534
 10
161.3497834033
 20
131.2420008265
 10
161.3474655998
 20
131.2379621524
 10
161.3445662298
 20
131.2335196331
 10
161.3410873767
 20
131.228676461
 10
161.3370315403
 20
131.2234361162
 10
161.332401635
 20
131.2178023643
 10
161.3272009876
 20
131.2117792535
 10
161.3214333354
 20
131.2053711119
 10
161.3151028227
 20
131.1985825443
 10
161.3082139985
 20
131.1914184286
 10
161.3007718128
 20
131.1838839129
 10
161.2927816136
 20
131.1759844112
 10
161.2842491422
 20
131.1677256
 10
161.27518053
 20
131.1591134137
 10
161.2655822933
 20
131.1501540408
 10
161.2554613292
 20
131.1408539194
 10
161.2448249104
 20
131.1312197322
 10
161.2336806798
 20
131.1212584021
 10
161.2220366455
 20
131.1109770871
 10
161.2099011746
 20
131.1003831749
 10
161.1972829872
 20
131.0894842782
 10
161.1841911505
 20
131.0782882286
  0
ELLIPSE
  5
4E2
100
AcDbEntity
  8
RACCORDO
100
AcDbEllipse
 62
7
  6
CONTINUOUS
 10
148.7459821854
 20
122.8966060051
 30
0.0
 11
-0.3165198962
 21
0.3871139532
 31
0.0
 40
0.6720475734
 41
-2.4536186814
 42
-0.8841923507
  0
ELLIPSE
  5
4E3
100
AcDbEntity
  8
RACCORDO
100
AcDbEllipse
 62
7
  6
CONTINUOUS
 10
148.7459821854
 20
87.2335203229
 30
0.0
 11
-0.3166934957
 21
0.3878404978
 31
0.0
 40
0.6702436759
 41
-3.1895544554
 42
-2.4542862349
  0
ELLIPSE
  5
4E4
100
AcDbEntity
  8
RACCORDO
100
AcDbEllipse
 62
7
  6
CONTINUOUS
 10
131.4874909016
 20
129.8280051882
 30
0.0
 11
-0.3166934957
 21
0.3878404978
 31
0.0
 40
0.6702436759
 41
-0.8821199121
 42
0.0484752164
  0
ELLIPSE
  5
4E5
100
AcDbEntity
  8
0
100
AcDbEllipse
 62
7
  6
CONTINUOUS
 10
144.5355535215
 20
135.5394346553
 30
0.0
 11
2.751710928
 21
-0.0328694997
 31
0.0
 40
0.561818812
 41
-2.1749745364
 42
-0.5941003525
  0
ELLIPSE
  5
4E6
100
AcDbEntity
  8
DRAFT
100
AcDbEllipse
 62
7
  6
CONTINUOUS
 10
144.6661754882
 20
134.0550092396
 30
0.0
 11
2.3999858428
 21
-0.0145206007
 31
0.0
 40
0.5677065366
 41
0.4660630024
 42
2.5341621888
  0
ELLIPSE
  5
4E7
100
AcDbEntity
  8
DRAFT
100
AcDbEllipse
 62
7
  6
CONTINUOUS
 10
156.7896257437
 20
129.1859583002
 30
0.0
 11
2.3999858428
 21
-0.0145206007
 31
0.0
 40
0.5677065366
 41
0.7125235081
 42
2.5341621888
  0
ELLIPSE
  5
4E8
100
AcDbEntity
  8
RACCORDO
100
AcDbEllipse
 62
7
  6
CONTINUOUS
 10
156.6749104564
 20
129.5029947866
 30
0.0
 11
2.1999870226
 21
-0.0133105506
 31
0.0
 40
0.5677065366
 41
2.5341621888
 42
2.9739821769
  0
ELLIPSE
  5
4E9
100
AcDbEntity
  8
ASSI
100
AcDbEllipse
 62
7
  6
CONTINUOUS
 10
124.865914066
 20
120.2598843366
 30
0.0
 11
32.8633165563
 21
26.512994848
 31
0.0
 40
0.0075497859
 41
0.9650035946
 42
0.9893114783
  0
ELLIPSE
  5
4EA
100
AcDbEntity
  8
RACCORDO
100
AcDbEllipse
 62
7
  6
CONTINUOUS
 10
160.5992777684
 20
130.5902468179
 30
0.0
 11
0.2601885021
 21
1.245541479
 31
0.0
 40
0.4103975457
 41
-0.3617964621
 42
0.0314841452
  0
ELLIPSE
  5
4EB
100
AcDbEntity
  8
RACCORDO
100
AcDbEllipse
 62
7
  6
CONTINUOUS
 10
148.4241075027
 20
135.7153128172
 30
0.0
 11
0.7374589533
 21
0.7802475842
 31
0.0
 40
0.1203261756
 41
0.0474173503
 42
0.7371892365
  0
ELLIPSE
  5
4EC
100
AcDbEntity
  8
RACCORDO
100
AcDbEllipse
 62
7
  6
CONTINUOUS
 10
144.871558518
 20
136.906853442
 30
0.0
 11
0.2601885021
 21
1.245541479
 31
0.0
 40
0.4103975457
 41
-0.9942036964
 42
0.0314841452
  0
ELLIPSE
  5
4ED
100
AcDbEntity
  8
RACCORDO
100
AcDbEllipse
 62
7
  6
CONTINUOUS
 10
149.3324574981
 20
121.4057457468
 30
0.0
 11
1.2677055941
 21
-1.5470103314
 31
0.0
 40
0.6710763966
 41
0.6861775039
 42
0.7891491246
  0
ELLIPSE
  5
4EE
100
AcDbEntity
  8
RACCORDO
100
AcDbEllipse
 62
7
  6
CONTINUOUS
 10
149.3324574981
 20
121.4057457468
 30
0.0
 11
1.2677055941
 21
-1.5470103314
 31
0.0
 40
0.6710763966
 41
7.2026179442
 42
7.2460021297
  0
ELLIPSE
  5
4EF
100
AcDbEntity
  8
RACCORDO
100
AcDbEllipse
 62
7
  6
CONTINUOUS
 10
145.9260784799
 20
137.5378544136
 30
0.0
 11
1.2798711057
 21
-0.2794590033
 31
0.0
 40
0.4630058659
 41
8.6364122204
 42
9.0583033008
  0
ELLIPSE
  5
4F0
100
AcDbEntity
  8
0
100
AcDbEllipse
 62
7
  6
CONTINUOUS
 10
156.659003777
 20
130.6703837159
 30
0.0
 11
2.751710928
 21
-0.0328694997
 31
0.0
 40
0.561818812
 41
2.527336587
 42
4.1082107708
  0
ELLIPSE
  5
4F1
100
AcDbEntity
  8
RACCORDO
100
AcDbEllipse
 62
7
  6
CONTINUOUS
 10
157.0467287837
 20
132.2522737183
 30
0.0
 11
-0.3061535807
 21
1.0969405699
 31
0.0
 40
0.6175755523
 41
5.0870410187
 42
6.5308058482
  0
ELLIPSE
  5
4F2
100
AcDbEntity
  8
RACCORDO
100
AcDbEllipse
 62
7
  6
CONTINUOUS
 10
152.5663083141
 20
129.7740362092
 30
0.0
 11
-3.8526197446
 21
3.6837010235
 31
0.0
 40
0.5641669459
 41
-2.1840827045
 42
-1.9436920009
  0
ELLIPSE
  5
4F3
100
AcDbEntity
  8
RACCORDO
100
AcDbEllipse
 62
7
  6
CONTINUOUS
 10
149.3324574981
 20
92.4545423957
 30
0.0
 11
-1.2677684437
 21
1.5472787173
 31
0.0
 40
0.6709103902
 41
-2.558447312
 42
-2.4554756913
  0
ELLIPSE
  5
4F4
100
AcDbEntity
  8
ASSI
100
AcDbEllipse
 62
7
  6
CONTINUOUS
 10
144.6661754882
 20
134.4645852617
 30
0.0
 11
2.3999858428
 21
-0.0145206007
 31
0.0
 40
0.5677065366
 41
0.2566075089
 42
2.1230243265
  0
ELLIPSE
  5
4F5
100
AcDbEntity
  8
ASSI
100
AcDbEllipse
 62
7
  6
CONTINUOUS
 10
156.7896257437
 20
129.5955343223
 30
0.0
 11
2.3999858428
 21
-0.0145206007
 31
0.0
 40
0.5677065366
 41
0.5277307369
 42
2.1230243265
  0
ELLIPSE
  5
4F6
100
AcDbEntity
  8
RACCORDO
100
AcDbEllipse
 62
7
  6
CONTINUOUS
 10
159.5447578065
 20
132.0682857701
 30
0.0
 11
1.2933411087
 21
-0.2678576354
 31
0.0
 40
0.4554916359
 41
-0.3580914156
 42
0.0637996648
  0
ELLIPSE
  5
4F7
100
AcDbEntity
  8
ASSI
100
AcDbEllipse
 62
7
  6
CONTINUOUS
 10
150.2193285618
 20
88.298783861
 30
0.0
 11
-0.3169109156
 21
0.3869345179
 31
0.0
 40
0.670809718
 41
-3.1189696451
 42
-2.4553554967
  0
ELLIPSE
  5
4F8
100
AcDbEntity
  8
ASSI
100
AcDbEllipse
 62
7
  6
CONTINUOUS
 10
150.2193285618
 20
124.1489219168
 30
0.0
 11
-0.3168729153
 21
0.3867726039
 31
0.0
 40
0.6712104788
 41
-2.4552091068
 42
-0.8847173665
  0
ELLIPSE
  5
4F9
100
AcDbEntity
  8
ASSI
100
AcDbEllipse
 62
7
  6
CONTINUOUS
 10
147.089125258
 20
123.9090476374
 30
0.0
 11
0.2497065505
 21
-0.0699912687
 31
0.0
 40
0.1730136333
 41
-2.1332048293
 42
-0.579861795
  0
ELLIPSE
  5
4FA
100
AcDbEntity
  8
ASSI
100
AcDbEllipse
 62
7
  6
CONTINUOUS
 10
146.8648895628
 20
123.9991057478
 30
0.0
 11
0.2497065505
 21
-0.0699912687
 31
0.0
 40
0.1730136333
 41
-3.0915361384
 42
-2.1332048293
  0
ELLIPSE
  5
4FB
100
AcDbEntity
  8
ASSI
100
AcDbEllipse
 62
7
  6
CONTINUOUS
 10
132.5082188696
 20
129.7650683618
 30
0.0
 11
0.2497065505
 21
-0.0699912687
 31
0.0
 40
0.1730136333
 41
-2.1332048293
 42
-0.579861795
  0
ELLIPSE
  5
4FC
100
AcDbEntity
  8
ASSI
100
AcDbEllipse
 62
7
  6
CONTINUOUS
 10
132.2839831744
 20
129.8551264722
 30
0.0
 11
0.2497065505
 21
-0.0699912687
 31
0.0
 40
0.1730136333
 41
-3.0915361384
 42
-2.1332048293
  0
ELLIPSE
  5
4FD
100
AcDbEntity
  8
ASSI
100
AcDbEllipse
 62
7
  6
CONTINUOUS
 10
142.393814022
 20
128.770764572
 30
0.0
 11
-0.1625608641
 21
0.1902058938
 31
0.0
 40
0.6553964474
 41
-0.8974928192
 42
-0.0349831269
  0
ELLIPSE
  5
4FE
100
AcDbEntity
  8
ASSI
100
AcDbEllipse
 62
7
  6
CONTINUOUS
 10
153.6075254478
 20
128.8946445181
 30
0.0
 11
0.3609241303
 21
0.9326631928
 31
0.0
 40
0.458075675
 41
-0.8693289497
 42
-0.6248171946
  0
ELLIPSE
  5
4FF
100
AcDbEntity
  8
ASSI
100
AcDbEllipse
 62
7
  6
CONTINUOUS
 10
140.6464583351
 20
129.4725420091
 30
0.0
 11
-0.1625146743
 21
0.1900010152
 31
0.0
 40
0.6563705712
 41
-2.4691737663
 42
-0.898682026
  0
ELLIPSE
  5
500
100
AcDbEntity
  8
ASSI
100
AcDbEllipse
 62
7
  6
CONTINUOUS
 10
144.7952049939
 20
132.7124327549
 30
0.0
 11
0.2002557398
 21
-0.0380654797
 31
0.0
 40
0.3171006239
 41
-0.5548407301
 42
0.0670296361
  0
ELLIPSE
  5
501
100
AcDbEntity
  8
ASSI
100
AcDbEllipse
 62
7
  6
CONTINUOUS
 10
157.5683308409
 20
137.7846439886
 30
0.0
 11
14.7248791155
 21
12.5261813432
 31
0.0
 40
0.014760238
 41
2.2927721807
 42
2.6322600442
  0
ELLIPSE
  5
502
100
AcDbEntity
  8
ASSI
100
AcDbEllipse
 62
7
  6
CONTINUOUS
 10
153.8017638588
 20
128.8166339932
 30
0.0
 11
-0.7858461616
 21
1.1731918886
 31
0.0
 40
0.5191454105
 41
5.0136960441
 42
6.3225273233
  0
ELLIPSE
  5
503
100
AcDbEntity
  8
ASSI
100
AcDbEllipse
 62
7
  6
CONTINUOUS
 10
140.1975437006
 20
134.2803955087
 30
0.0
 11
1.0048735789
 21
0.6729900454
 31
0.0
 40
0.0652557815
 41
-0.6453210963
 42
0.6635101829
  0
ELLIPSE
  5
504
100
AcDbEntity
  8
ASSI
100
AcDbEllipse
 62
7
  6
CONTINUOUS
 10
142.3198454458
 20
181.1513407911
 30
0.0
 11
0.085060811
 21
95.923252966
 31
0.0
 40
0.0059773055
 41
-2.1143322489
 42
-2.1105280496
  0
ELLIPSE
  5
505
100
AcDbEntity
  8
ASSI
100
AcDbEllipse
 62
7
  6
CONTINUOUS
 10
142.7039776885
 20
130.9698792639
 30
0.0
 11
1.0000206696
 21
-0.0002005927
 31
0.0
 40
0.5739458546
 41
0.9605060513
 42
1.5082618869
  0
ELLIPSE
  5
506
100
AcDbEntity
  8
ASSI
100
AcDbEllipse
 62
7
  6
CONTINUOUS
 10
142.700223756
 20
131.4602776156
 30
0.0
 11
1.0000607388
 21
-0.0124020305
 31
0.0
 40
0.5618375086
 41
1.7601235639
 42
2.5373774498
  0
ELLIPSE
  5
507
100
AcDbEntity
  8
ASSI
100
AcDbEllipse
 62
7
  6
CONTINUOUS
 10
146.8933967747
 20
129.7762047985
 30
0.0
 11
1.000275873
 21
-0.0122714276
 31
0.0
 40
0.561597706
 41
5.9389560812
 42
6.4572100988
  0
ELLIPSE
  5
508
100
AcDbEntity
  8
ASSI
100
AcDbEllipse
 62
7
  6
CONTINUOUS
 10
146.3807175176
 20
124.4854020304
 30
0.0
 11
0.2499293568
 21
0.009771784
 31
0.0
 40
0.6081570881
 41
3.1179734409
 42
4.077750384
  0
ELLIPSE
  5
509
100
AcDbEntity
  8
ASSI
100
AcDbEllipse
 62
7
  6
CONTINUOUS
 10
134.1395437875
 20
129.4017333712
 30
0.0
 11
0.2499293568
 21
0.009771784
 31
0.0
 40
0.6081570881
 41
-2.2054349231
 42
-0.6520918889
  0
ELLIPSE
  5
50A
100
AcDbEntity
  8
ASSI
100
AcDbEllipse
 62
7
  6
CONTINUOUS
 10
148.7674324366
 20
122.9309210401
 30
0.0
 11
-0.3165198962
 21
0.3871139532
 31
0.0
 40
0.6720475734
 41
3.8295666258
 42
5.8836067685
  0
ELLIPSE
  5
50B
100
AcDbEntity
  8
ASSI
100
AcDbEllipse
 62
7
  6
CONTINUOUS
 10
148.7204501758
 20
86.4276378961
 30
0.0
 11
0.1997382246
 21
0.198664618
 31
0.0
 40
0.7567950566
 41
-2.8269058184
 42
-2.6358710258
  0
ELLIPSE
  5
50C
100
AcDbEntity
  8
ASSI
100
AcDbEllipse
 62
7
  6
CONTINUOUS
 10
131.4660406504
 20
129.8795500322
 30
0.0
 11
-0.3166934957
 21
0.3878404978
 31
0.0
 40
0.6702436759
 41
4.9164515831
 42
6.7734333279
  0
ELLIPSE
  5
50D
100
AcDbEntity
  8
ASSI
100
AcDbEllipse
 62
7
  6
CONTINUOUS
 10
141.628494773
 20
127.0999824249
 30
0.0
 11
0.1999434854
 21
0.0078174272
 31
0.0
 40
0.6081570881
 41
3.1179734409
 42
4.077750384
  0
ELLIPSE
  5
50E
100
AcDbEntity
  8
ASSI
100
AcDbEllipse
 62
7
  6
CONTINUOUS
 10
144.2821099937
 20
126.0342307279
 30
0.0
 11
0.1999434854
 21
0.0078174272
 31
0.0
 40
0.6081570881
 41
-2.2054349231
 42
-0.6520918889
  0
ELLIPSE
  5
50F
100
AcDbEntity
  8
ASSI
100
AcDbEllipse
 62
7
  6
CONTINUOUS
 10
139.9815617612
 20
127.7614278516
 30
0.0
 11
0.1999434854
 21
0.0078174272
 31
0.0
 40
0.6081570881
 41
-2.2054349231
 42
-0.6520918889
  0
ELLIPSE
  5
510
100
AcDbEntity
  8
ASSI
100
AcDbEllipse
 62
7
  6
CONTINUOUS
 10
137.3279465405
 20
128.8271795486
 30
0.0
 11
0.1999434854
 21
0.0078174272
 31
0.0
 40
0.6081570881
 41
3.1179733728
 42
4.077750384
  0
ELLIPSE
  5
511
100
AcDbEntity
  8
ASSI
100
AcDbEllipse
 62
7
  6
CONTINUOUS
 10
157.5683308409
 20
137.7846439886
 30
0.0
 11
14.7248791155
 21
12.5261813432
 31
0.0
 40
0.014760238
 41
-2.6573712457
 42
-2.4030044782
  0
ELLIPSE
  5
512
100
AcDbEntity
  8
ASSI
100
AcDbEllipse
 62
7
  6
CONTINUOUS
 10
148.7674324366
 20
87.1819754789
 30
0.0
 11
-0.3166934957
 21
0.3878404978
 31
0.0
 40
0.6702436759
 41
2.624116724
 42
3.8288990723
  0
ENDSEC
  0
SECTION
  2
OBJECTS
  0
DICTIONARY
  5
C
100
AcDbDictionary
280
0
281
1
  3
ACAD_GROUP
350
D
  3
ACAD_MLINESTYLE
350
17
  3
ACAD_LAYOUT
350
1A
  3
ACAD_PLOTSETTINGS
350
19
  3
ACAD_PLOTSTYLENAME
350
E
  0
DICTIONARY
  5
D
102
{ACAD_REACTORS
330
C
102
}
100
AcDbDictionary
280
0
281
1
  0
ACDBDICTIONARYWDFLT
  5
E
102
{ACAD_REACTORS
330
C
102
}
100
AcDbDictionary
281
1
  3
Normal
350
F
100
AcDbDictionaryWithDefault
340
F
  0
DICTIONARY
  5
17
102
{ACAD_REACTORS
330
C
102
}
100
AcDbDictionary
280
0
281
1
  3
Standard
350
18
  0
DICTIONARY
  5
19
102
{ACAD_REACTORS
330
C
102
}
100
AcDbDictionary
281
1
  0
DICTIONARY
  5
1A
102
{ACAD_REACTORS
330
C
102
}
100
AcDbDictionary
281
1
  3
Model
350
513
  3
Layout1
350
514
  0
ACDBPLACEHOLDER
  5
F
102
{ACAD_REACTORS
330
E
102
}
  0
MLINESTYLE
  5
18
102
{ACAD_REACTORS
330
17
102
}
100
AcDbMlineStyle
  2
STANDARD
 70
0
  3

 62
256
 51
90.0
 52
90.0
 71
2
 49
0.5
 62
256
  6
BYLAYER
 49
-0.5
 62
256
  6
BYLAYER
  0
LAYOUT
  5
513
102
{ACAD_REACTORS
330
1A
102
}
100
AcDbPlotSettings
  1

  2
none_device
  4
ISO_A4_(297.00_x_210.00_MM)
  6

 40
0.0
 41
0.0
 42
0.0
 43
0.0
 44
297.0
 45
210.0
 46
0.0
 47
0.0
 48
0.0
 49
0.0
140
0.0
141
0.0
142
1.0
143
1.0
 70
1024
 72
1
 73
0
 74
0
  7

 75
0
147
1.0
148
0.0
149
0.0
100
AcDbLayout
  1
Model
 70
0
 71
0
 10
0.0
 20
0.0
 11
297.0
 21
210.0
 12
0.0
 22
0.0
 32
0.0
 14
0.0
 24
0.0
 34
0.0
 15
0.0
 25
0.0
 35
0.0
146
0.0
 13
0.0
 23
0.0
 33
0.0
 16
1.0
 26
0.0
 36
0.0
 17
0.0
 27
1.0
 37
0.0
 76
0
330
223
345
0
346
0
  0
LAYOUT
  5
514
102
{ACAD_REACTORS
330
1A
102
}
100
AcDbPlotSettings
  1

  2
none_device
  4
ISO_A4_(297.00_x_210.00_MM)
  6

 40
0.0
 41
0.0
 42
0.0
 43
0.0
 44
297.0
 45
210.0
 46
0.0
 47
0.0
 48
0.0
 49
0.0
140
0.0
141
0.0
142
1.0
143
1.0
 70
0
 72
1
 73
0
 74
0
  7

 75
0
147
1.0
148
0.0
149
0.0
100
AcDbLayout
  1
Layout1
 70
0
 71
1
 10
0.0
 20
0.0
 11
297.0
 21
210.0
 12
0.0
 22
0.0
 32
0.0
 14
0.0
 24
0.0
 34
0.0
 15
0.0
 25
0.0
 35
0.0
146
0.0
 13
0.0
 23
0.0
 33
0.0
 16
1.0
 26
0.0
 36
0.0
 17
0.0
 27
1.0
 37
0.0
 76
0
330
224
345
0
346
0
  0
ENDSEC
  0
EOF
