  0
SECTION
  2
HEADER
  9
$ACADVER
  1
AC1021
  9
$DWGCODEPAGE
  3
ANSI_1252
  9
$EXTMAX
 10
297.0
 20
210.0
 30
0.0
  9
$EXTMIN
 10
0.0
 20
0.0
 30
0.0
  9
$LIMMIN
 10
0.0
 20
0.0
  9
$LIMMAX
 10
297.0
 20
210.0
  9
$VIEWCTR
 10
148.5
 20
105.0
  9
$VIEWSIZE
 40
210.0
  9
$CLAYER
  8
0
  9
$LTSCALE
 40
16.335
  9
$CELTYPE
  6
BYLAYER
  9
$DIMSCALE
 40
1.0
  9
$DIMASZ
 40
3.0
  9
$DIMEXO
 40
0.5
  9
$DIMDLI
 40
11.286
  9
$DIMEXE
 40
1.5
  9
$DIMCEN
 40
2.673
  9
$DIMLFAC
 40
1.0
  9
$DIMBLK
  1
_FILLED
  9
$DIMALT
 70
0
  9
$DIMALTF
 40
25.4
  9
$DIMTXT
 40
3.0
  9
$DIMTOL
 70
1
  9
$DIMLIM
 70
0
  9
$DIMTFAC
 40
1.0
  9
$DIMTP
 40
0.01
  9
$DIMTM
 40
0.01
  9
$DIMGAP
 40
0.625
  9
$DIMDSEP
 70
44
  9
$AUNITS
 70
0
  9
$PDMODE
 70
3
  9
$PDSIZE
 40
3.0
  9
$HANDSEED
  5
5BD
  9
$TILEMODE
 70
1
  9
$MEASUREMENT
 70
1
  9
$INSUNITS
 70
4
  0
ENDSEC
  0
SECTION
  2
CLASSES
  0
CLASS
  1
ACDBDICTIONARYWDFLT
  2
AcDbDictionaryWithDefault
  3
AutoCAD 2000
 90
0
 91
1
280
0
281
0
  0
CLASS
  1
ACDBPLACEHOLDER
  2
AcDbPlaceHolder
  3
AutoCAD 2000
 90
0
 91
1
280
0
281
0
  0
CLASS
  1
LAYOUT
  2
AcDbLayout
  3
AutoCAD 2000
 90
0
 91
0
280
0
281
0
  0
ENDSEC
  0
SECTION
  2
TABLES
  0
TABLE
  2
VPORT
  5
8
100
AcDbSymbolTable
 70
2
  0
VPORT
  5
1F4
100
AcDbSymbolTableRecord
100
AcDbViewportTableRecord
  2
*ACTIVE
 70
0
 10
0.0
 20
0.0
 11
1.0
 21
1.0
 12
148.5
 22
105.0
 13
0.0
 23
0.0
 14
1.0
 24
1.0
 15
0.0
 25
0.0
 16
0.0
 26
0.0
 36
1.0
 17
0.0
 27
0.0
 37
0.0
 40
210.0
 41
1.4142857143
 42
50.0
 43
0.0
 44
0.0
 50
0.0
 51
0.0
 71
0
 72
100
 73
1
 74
1
 75
0
 76
0
 77
0
 78
0
  0
ENDTAB
  0
TABLE
  2
LTYPE
  5
5
100
AcDbSymbolTable
 70
6
  0
LTYPE
  5
14
100
AcDbSymbolTableRecord
100
AcDbLinetypeTableRecord
  2
BYBLOCK
 70
0
  3

 72
65
 73
0
 40
0.0
  0
LTYPE
  5
15
100
AcDbSymbolTableRecord
100
AcDbLinetypeTableRecord
  2
BYLAYER
 70
0
  3

 72
65
 73
0
 40
0.0
  0
LTYPE
  5
16
100
AcDbSymbolTableRecord
100
AcDbLinetypeTableRecord
  2
CONTINUOUS
 70
64
  3
Solid line
 72
65
 73
0
 40
0.0
  0
LTYPE
  5
1F5
100
AcDbSymbolTableRecord
100
AcDbLinetypeTableRecord
  2
CENTER
 70
64
  3
____ _ ____ _ ____ _ ____ _ ____ _ ____ _ ____
 72
65
 73
4
 40
0.6
 49
0.375
 74
0
 49
-0.075
 74
0
 49
0.075
 74
0
 49
-0.075
 74
0
  0
LTYPE
  5
1F6
100
AcDbSymbolTableRecord
100
AcDbLinetypeTableRecord
  2
HIDDEN
 70
64
  3
- - - - - - - - - - - - - - - - - - - -
 72
65
 73
2
 40
0.2
 49
0.1
 74
0
 49
-0.1
 74
0
  0
LTYPE
  5
1F7
100
AcDbSymbolTableRecord
100
AcDbLinetypeTableRecord
  2
PHANTOM
 70
64
  3
_____ _ _ _____ _ _ _____ _ _ _____
 72
65
 73
6
 40
0.8
 49
0.45
 74
0
 49
-0.05
 74
0
 49
0.1
 74
0
 49
-0.05
 74
0
 49
0.1
 74
0
 49
-0.05
 74
0
  0
LTYPE
  5
1F8
100
AcDbSymbolTableRecord
100
AcDbLinetypeTableRecord
  2
DOT
 70
64
  3
. . . . . . . . . . . . . . . . . . . .
 72
65
 73
2
 40
0.2
 49
0.1
 74
0
 49
-0.1
 74
0
  0
LTYPE
  5
1F9
100
AcDbSymbolTableRecord
100
AcDbLinetypeTableRecord
  2
DASHED
 70
64
  3
- - - - - - - - - - - - - - - - - - - -
 72
65
 73
2
 40
0.2
 49
0.1
 74
0
 49
-0.1
 74
0
  0
ENDTAB
  0
TABLE
  2
LAYER
  5
2
100
AcDbSymbolTable
 70
36
  0
LAYER
  5
10
100
AcDbSymbolTableRecord
100
AcDbLayerTableRecord
  2
0
 70
0
 62
7
  6
CONTINUOUS
370
-3
390
F
  0
LAYER
  5
1FA
100
AcDbSymbolTableRecord
100
AcDbLayerTableRecord
  2
DEFAULT_1
 70
0
 62
7
  6
CENTER
370
-3
390
F
  0
LAYER
  5
1FB
100
AcDbSymbolTableRecord
100
AcDbLayerTableRecord
  2
DEFAULT_2
 70
0
 62
7
  6
HIDDEN
370
-3
390
F
  0
LAYER
  5
1FC
100
AcDbSymbolTableRecord
100
AcDbLayerTableRecord
  2
DEFAULT_3
 70
0
 62
7
  6
PHANTOM
370
-3
390
F
  0
LAYER
  5
1FD
100
AcDbSymbolTableRecord
100
AcDbLayerTableRecord
  2
ASSI
 70
0
 62
7
  6
CONTINUOUS
370
-3
390
F
  0
LAYER
  5
1FE
100
AcDbSymbolTableRecord
100
AcDbLayerTableRecord
  2
COLOR5
 70
0
 62
7
  6
CONTINUOUS
370
-3
390
F
  0
LAYER
  5
1FF
100
AcDbSymbolTableRecord
100
AcDbLayerTableRecord
  2
COORDINATE
 70
0
 62
7
  6
CONTINUOUS
370
-3
390
F
  0
LAYER
  5
200
100
AcDbSymbolTableRecord
100
AcDbLayerTableRecord
  2
COORD_ORIGINE
 70
0
 62
7
  6
CONTINUOUS
370
-3
390
F
  0
LAYER
  5
201
100
AcDbSymbolTableRecord
100
AcDbLayerTableRecord
  2
COPY_PUBLISH
 70
0
 62
7
  6
CONTINUOUS
370
-3
390
F
  0
LAYER
  5
202
100
AcDbSymbolTableRecord
100
AcDbLayerTableRecord
  2
COSMETIC
 70
0
 62
7
  6
CONTINUOUS
370
-3
390
F
  0
LAYER
  5
203
100
AcDbSymbolTableRecord
100
AcDbLayerTableRecord
  2
COSMETICHE
 70
0
 62
7
  6
CONTINUOUS
370
-3
390
F
  0
LAYER
  5
204
100
AcDbSymbolTableRecord
100
AcDbLayerTableRecord
  2
COSMETICI
 70
0
 62
7
  6
CONTINUOUS
370
-3
390
F
  0
LAYER
  5
205
100
AcDbSymbolTableRecord
100
AcDbLayerTableRecord
  2
CURVE
 70
0
 62
7
  6
CONTINUOUS
370
-3
390
F
  0
LAYER
  5
206
100
AcDbSymbolTableRecord
100
AcDbLayerTableRecord
  2
DRAFT
 70
0
 62
7
  6
CONTINUOUS
370
-3
390
F
  0
LAYER
  5
207
100
AcDbSymbolTableRecord
100
AcDbLayerTableRecord
  2
IMPORT_IGES
 70
0
 62
7
  6
CONTINUOUS
370
-3
390
F
  0
LAYER
  5
208
100
AcDbSymbolTableRecord
100
AcDbLayerTableRecord
  2
INTFCLR_1
 70
0
 62
7
  6
CONTINUOUS
370
-3
390
F
  0
LAYER
  5
209
100
AcDbSymbolTableRecord
100
AcDbLayerTableRecord
  2
INTFCLR_24229
 70
0
 62
7
  6
CONTINUOUS
370
-3
390
F
  0
LAYER
  5
20A
100
AcDbSymbolTableRecord
100
AcDbLayerTableRecord
  2
INTFCLR_28681
 70
0
 62
7
  6
CONTINUOUS
370
-3
390
F
  0
LAYER
  5
20B
100
AcDbSymbolTableRecord
100
AcDbLayerTableRecord
  2
INTFCLR_28687
 70
0
 62
7
  6
CONTINUOUS
370
-3
390
F
  0
LAYER
  5
20C
100
AcDbSymbolTableRecord
100
AcDbLayerTableRecord
  2
INTFCLR_30313
 70
0
 62
7
  6
CONTINUOUS
370
-3
390
F
  0
LAYER
  5
20D
100
AcDbSymbolTableRecord
100
AcDbLayerTableRecord
  2
INTFCLR_34197
 70
0
 62
7
  6
CONTINUOUS
370
-3
390
F
  0
LAYER
  5
20E
100
AcDbSymbolTableRecord
100
AcDbLayerTableRecord
  2
INTFCLR_34739
 70
0
 62
7
  6
CONTINUOUS
370
-3
390
F
  0
LAYER
  5
20F
100
AcDbSymbolTableRecord
100
AcDbLayerTableRecord
  2
INTFCLR_34829
 70
0
 62
7
  6
CONTINUOUS
370
-3
390
F
  0
LAYER
  5
210
100
AcDbSymbolTableRecord
100
AcDbLayerTableRecord
  2
INTF_1
 70
0
 62
7
  6
CONTINUOUS
370
-3
390
F
  0
LAYER
  5
211
100
AcDbSymbolTableRecord
100
AcDbLayerTableRecord
  2
INTF_15
 70
0
 62
7
  6
CONTINUOUS
370
-3
390
F
  0
LAYER
  5
212
100
AcDbSymbolTableRecord
100
AcDbLayerTableRecord
  2
INTF_16
 70
0
 62
7
  6
CONTINUOUS
370
-3
390
F
  0
LAYER
  5
213
100
AcDbSymbolTableRecord
100
AcDbLayerTableRecord
  2
INTF_2
 70
0
 62
7
  6
CONTINUOUS
370
-3
390
F
  0
LAYER
  5
214
100
AcDbSymbolTableRecord
100
AcDbLayerTableRecord
  2
INTF_5
 70
0
 62
7
  6
CONTINUOUS
370
-3
390
F
  0
LAYER
  5
215
100
AcDbSymbolTableRecord
100
AcDbLayerTableRecord
  2
INTF_7
 70
0
 62
7
  6
CONTINUOUS
370
-3
390
F
  0
LAYER
  5
216
100
AcDbSymbolTableRecord
100
AcDbLayerTableRecord
  2
INTF_9
 70
0
 62
7
  6
CONTINUOUS
370
-3
390
F
  0
LAYER
  5
217
100
AcDbSymbolTableRecord
100
AcDbLayerTableRecord
  2
NOTE
 70
0
 62
7
  6
CONTINUOUS
370
-3
390
F
  0
LAYER
  5
218
100
AcDbSymbolTableRecord
100
AcDbLayerTableRecord
  2
PIANI
 70
0
 62
7
  6
CONTINUOUS
370
-3
390
F
  0
LAYER
  5
219
100
AcDbSymbolTableRecord
100
AcDbLayerTableRecord
  2
PIANI_ORIGINE
 70
0
 62
7
  6
CONTINUOUS
370
-3
390
F
  0
LAYER
  5
21A
100
AcDbSymbolTableRecord
100
AcDbLayerTableRecord
  2
PIANI_SFORMO
 70
0
 62
7
  6
CONTINUOUS
370
-3
390
F
  0
LAYER
  5
21B
100
AcDbSymbolTableRecord
100
AcDbLayerTableRecord
  2
PUNTI
 70
0
 62
7
  6
CONTINUOUS
370
-3
390
F
  0
LAYER
  5
21C
100
AcDbSymbolTableRecord
100
AcDbLayerTableRecord
  2
RACCORDO
 70
0
 62
7
  6
CONTINUOUS
370
-3
390
F
  0
LAYER
  5
21D
100
AcDbSymbolTableRecord
100
AcDbLayerTableRecord
  2
RGB__255__255__255__
 70
0
 62
7
  6
CONTINUOUS
370
-3
390
F
  0
LAYER
  5
21E
100
AcDbSymbolTableRecord
100
AcDbLayerTableRecord
  2
RGB____0____0____0__
 70
0
 62
7
  6
CONTINUOUS
370
-3
390
F
  0
LAYER
  5
21F
100
AcDbSymbolTableRecord
100
AcDbLayerTableRecord
  2
SHELL
 70
0
 62
7
  6
CONTINUOUS
370
-3
390
F
  0
LAYER
  5
220
100
AcDbSymbolTableRecord
100
AcDbLayerTableRecord
  2
SIMBOLI
 70
0
 62
7
  6
CONTINUOUS
370
-3
390
F
  0
LAYER
  5
221
100
AcDbSymbolTableRecord
100
AcDbLayerTableRecord
  2
SMUSSO
 70
0
 62
7
  6
CONTINUOUS
370
-3
390
F
  0
LAYER
  5
222
100
AcDbSymbolTableRecord
100
AcDbLayerTableRecord
  2
SNAPLINE
 70
0
 62
7
  6
CONTINUOUS
370
-3
390
F
  0
LAYER
  5
223
100
AcDbSymbolTableRecord
100
AcDbLayerTableRecord
  2
SUPERFICI
 70
0
 62
7
  6
CONTINUOUS
370
-3
390
F
  0
LAYER
  5
224
100
AcDbSymbolTableRecord
100
AcDbLayerTableRecord
  2
SUPERFICI_SKEL
 70
0
 62
7
  6
CONTINUOUS
370
-3
390
F
  0
LAYER
  5
225
100
AcDbSymbolTableRecord
100
AcDbLayerTableRecord
  2
TRASH
 70
0
 62
7
  6
CONTINUOUS
370
-3
390
F
  0
LAYER
  5
226
100
AcDbSymbolTableRecord
100
AcDbLayerTableRecord
  2
XSEC_DATUMS
 70
0
 62
7
  6
CONTINUOUS
370
-3
390
F
  0
ENDTAB
  0
TABLE
  2
STYLE
  5
3
100
AcDbSymbolTable
 70
1
  0
STYLE
  5
11
100
AcDbSymbolTableRecord
100
AcDbTextStyleTableRecord
  2
STANDARD
 70
0
 40
0.0
 41
0.8
 50
0.0
 71
0
 42
0.2
  3
txt
  4

  0
STYLE
  5
227
100
AcDbSymbolTableRecord
100
AcDbTextStyleTableRecord
  2
TEXTSTYLE_1
 70
0
 40
0.0
 41
0.8
 50
0.0
 71
0
 42
0.2
  3
gdt
  4

  0
ENDTAB
  0
TABLE
  2
VIEW
  5
6
100
AcDbSymbolTable
 70
0
  0
ENDTAB
  0
TABLE
  2
UCS
  5
7
100
AcDbSymbolTable
 70
0
  0
ENDTAB
  0
TABLE
  2
APPID
  5
9
100
AcDbSymbolTable
 70
1
  0
APPID
  5
228
100
AcDbSymbolTableRecord
100
AcDbRegAppTableRecord
  2
ACAD
 70
0
  0
ENDTAB
  0
TABLE
  2
BLOCK_RECORD
  5
1
100
AcDbSymbolTable
 70
0
  0
BLOCK_RECORD
  5
229
100
AcDbSymbolTableRecord
100
AcDbBlockTableRecord
  2
*Model_Space
  0
BLOCK_RECORD
  5
22A
100
AcDbSymbolTableRecord
100
AcDbBlockTableRecord
  2
*Paper_Space
  0
ENDTAB
  0
TABLE
  2
DIMSTYLE
  5
A
100
AcDbSymbolTable
 70
1
100
AcDbDimStyleTable
 71
0
  0
DIMSTYLE
105
22B
100
AcDbSymbolTableRecord
100
AcDbDimStyleTableRecord
  2
STANDARD
 70
0
  3

  4

 40
1.0
 41
3.0
 42
0.5
 43
0.38
 44
1.5
 45
0.0
 46
0.0
 47
0.01
 48
0.01
140
3.0
141
0.09
142
0.0
143
25.4
144
1.0
145
0.0
146
1.0
147
0.625
 71
1.0
 72
0.0
 73
0
 74
0
 75
0
 76
0
 77
1
 78
8
170
0
171
1
172
0
173
0
174
0
175
0
176
0
177
0
178
0
270
2
271
2
272
2
273
2
274
2
275
0
280
0
281
0
282
0
283
1
284
8
285
0
286
0
287
3
288
0
340
11
278
44
  0
ENDTAB
  0
ENDSEC
  0
SECTION
  2
BLOCKS
  0
BLOCK
  5
20
100
AcDbEntity
  8
0
100
AcDbBlockBegin
  2
*Model_Space
 70
0
 10
0.0
 20
0.0
 30
0.0
  3
*Model_Space
  1

  0
ENDBLK
  5
21
100
AcDbEntity
  8
0
100
AcDbBlockEnd
  0
BLOCK
  5
1C
100
AcDbEntity
  8
0
100
AcDbBlockBegin
  2
*Paper_Space
 70
0
 10
0.0
 20
0.0
 30
0.0
  3
*Paper_Space
  1

  0
ENDBLK
  5
1D
100
AcDbEntity
  8
0
100
AcDbBlockEnd
  0
ENDSEC
  0
SECTION
  2
ENTITIES
  0
LWPOLYLINE
  5
22C
100
AcDbEntity
  8
ASSI
100
AcDbPolyline
 62
7
  6
CONTINUOUS
 90
13
 70
0
 10
-24.1894224151
 20
25.5167884467
 10
-24.2038211344
 20
25.5031184328
 10
-24.2171230038
 20
25.4883600349
 10
-24.2293848727
 20
25.4725136566
 10
-24.2405687668
 20
25.455691096
 10
-24.2504511625
 20
25.4383412519
 10
-24.2592239783
 20
25.4202304821
 10
-24.2669164968
 20
25.4012543143
 10
-24.2732438776
 20
25.3821002457
 10
-24.2782794608
 20
25.3626374227
 10
-24.2820266292
 20
25.3425852977
 10
-24.2843194636
 20
25.3224589064
 10
-24.2851100537
 20
25.3020075998
  0
LINE
  5
22D
100
AcDbEntity
  8
ASSI
100
AcDbLine
 62
7
  6
CONTINUOUS
 10
-24.1894148561
 20
25.5167956044
 11
-22.9278239424
 21
26.6218581154
  0
LINE
  5
22E
100
AcDbEntity
  8
ASSI
100
AcDbLine
 62
253
  6
CONTINUOUS
 10
-24.059636957
 20
25.528514925
 11
-22.7988210803
 21
26.6328985595
  0
LINE
  5
22F
100
AcDbEntity
  8
ASSI
100
AcDbLine
 62
7
  6
CONTINUOUS
 10
-22.9231636715
 20
26.6256739495
 11
-22.9277851284
 21
26.621892105
  0
LINE
  5
230
100
AcDbEntity
  8
ASSI
100
AcDbLine
 62
7
  6
CONTINUOUS
 10
-22.9231711444
 20
26.6256682122
 11
-22.4788854425
 21
26.9656081444
  0
LINE
  5
231
100
AcDbEntity
  8
ASSI
100
AcDbLine
 62
253
  6
CONTINUOUS
 10
-22.7988210803
 20
26.6328985595
 11
-22.3553177004
 21
26.9722399074
  0
LWPOLYLINE
  5
232
100
AcDbEntity
  8
ASSI
100
AcDbPolyline
 62
253
  6
CONTINUOUS
 90
8
 70
0
 10
-24.1894148561
 20
25.5167956044
 10
-24.1762761188
 20
25.5263528616
 10
-24.1601435508
 20
25.5340307921
 10
-24.1422577106
 20
25.5388407595
 10
-24.1229245113
 20
25.5407004957
 10
-24.1024746212
 20
25.5395781924
 10
-24.0812578081
 20
25.5354930452
 10
-24.059636957
 20
25.528514925
  0
LWPOLYLINE
  5
233
100
AcDbEntity
  8
ASSI
100
AcDbPolyline
 62
253
  6
CONTINUOUS
 90
8
 70
0
 10
-22.3553183323
 20
26.9722401562
 10
-22.340450312
 20
26.9828591246
 10
-22.3257665485
 20
26.9911550017
 10
-22.3114235561
 20
26.9970370269
 10
-22.2975725898
 20
27.0004400692
 10
-22.2843635794
 20
27.0013253273
 10
-22.2719429608
 20
26.999682816
 10
-22.2642282038
 20
26.9972158448
  0
LWPOLYLINE
  5
234
100
AcDbEntity
  8
ASSI
100
AcDbPolyline
 62
253
  6
CONTINUOUS
 90
8
 70
0
 10
-22.4788854621
 20
26.9656081294
 10
-22.4703319838
 20
26.9714107182
 10
-22.4542478676
 20
26.9790490855
 10
-22.4365064376
 20
26.9837408456
 10
-22.4174111426
 20
26.9854057335
 10
-22.3972885844
 20
26.9840152612
 10
-22.3764829286
 20
26.9795931993
 10
-22.3553500311
 20
26.9722151699
  0
LWPOLYLINE
  5
235
100
AcDbEntity
  8
ASSI
100
AcDbPolyline
 62
7
  6
CONTINUOUS
 90
19
 70
0
 10
-27.236073038
 20
21.2202764029
 10
-27.2485663069
 20
21.2083152246
 10
-27.3053806214
 20
21.1493889469
 10
-27.3584103353
 20
21.0871467753
 10
-27.4078235319
 20
21.0221200496
 10
-27.4539451725
 20
20.9545076516
 10
-27.4970195765
 20
20.8843972595
 10
-27.5370519204
 20
20.8121571403
 10
-27.5740619944
 20
20.7380252606
 10
-27.6080839053
 20
20.6621157032
 10
-27.6390407474
 20
20.5847142767
 10
-27.6668263379
 20
20.5060778128
 10
-27.6913724272
 20
20.4263232906
 10
-27.7125269709
 20
20.3456744551
 10
-27.7300902915
 20
20.2644050902
 10
-27.7438926405
 20
20.1825256823
 10
-27.7536620281
 20
20.100074593
 10
-27.7590520143
 20
20.017356888
 10
-27.7594860047
 20
20.0039983205
  0
LINE
  5
236
100
AcDbEntity
  8
ASSI
100
AcDbLine
 62
7
  6
CONTINUOUS
 10
-27.2364922959
 20
21.2198936271
 11
-23.7069049363
 21
24.5530005823
  0
LINE
  5
237
100
AcDbEntity
  8
ASSI
100
AcDbLine
 62
253
  6
CONTINUOUS
 10
-23.7069049363
 20
24.2761868643
 11
-26.9563875277
 21
21.2074814671
  0
LINE
  5
238
100
AcDbEntity
  8
ASSI
100
AcDbLine
 62
7
  6
CONTINUOUS
 10
-22.1027718986
 20
23.5184240064
 11
-22.5462429473
 21
23.1359364848
  0
LINE
  5
239
100
AcDbEntity
  8
ASSI
100
AcDbLine
 62
253
  6
CONTINUOUS
 10
-20.3413150431
 20
25.6459087318
 11
-19.9194147348
 21
25.9938905483
  0
LINE
  5
23A
100
AcDbEntity
  8
ASSI
100
AcDbLine
 62
253
  6
CONTINUOUS
 10
-20.1775095865
 20
25.4163153108
 11
-19.7556108362
 21
25.7642958422
  0
LWPOLYLINE
  5
23B
100
AcDbEntity
  8
ASSI
100
AcDbPolyline
 62
253
  6
CONTINUOUS
 90
10
 70
0
 10
-27.2360790715
 20
21.2202828066
 10
-27.2128832906
 20
21.2391903024
 10
-27.1831400319
 20
21.2568342821
 10
-27.1502256838
 20
21.2700983002
 10
-27.1145002345
 20
21.2788372868
 10
-27.0763544176
 20
21.2829556623
 10
-27.036205439
 20
21.2824083834
 10
-26.9944924131
 20
21.2772014356
 10
-26.9516715602
 20
21.2673917681
 10
-26.9082112174
 20
21.2530866703
  0
LINE
  5
23C
100
AcDbEntity
  8
ASSI
100
AcDbLine
 62
253
  6
CONTINUOUS
 10
-21.6665982746
 20
24.5674166403
 11
-20.3413150431
 21
25.6459087318
  0
LINE
  5
23D
100
AcDbEntity
  8
ASSI
100
AcDbLine
 62
253
  6
CONTINUOUS
 10
-21.502792818
 20
24.3378232193
 11
-20.1775095865
 21
25.4163153108
  0
LWPOLYLINE
  5
23E
100
AcDbEntity
  8
ASSI
100
AcDbPolyline
 62
253
  6
CONTINUOUS
 90
21
 70
0
 10
-19.7556108362
 20
25.7642958422
 10
-19.7543032179
 20
25.7653431466
 10
-19.7529682239
 20
25.7663030683
 10
-19.7516058544
 20
25.7671756072
 10
-19.7502083216
 20
25.7679728557
 10
-19.7487834133
 20
25.7686827214
 10
-19.7473544921
 20
25.7692689278
 10
-19.7459207012
 20
25.7697284598
 10
-19.7444828974
 20
25.7700643325
 10
-19.7430670148
 20
25.7702493144
 10
-19.7416731247
 20
25.770279178
 10
-19.7403011557
 20
25.7701581508
 10
-19.7389768278
 20
25.7698716851
 10
-19.7377015677
 20
25.7694154524
 10
-19.7364739487
 20
25.768793781
 10
-19.7353154111
 20
25.768005108
 10
-19.7342276747
 20
25.7670459649
 10
-19.7332090196
 20
25.7659198202
 10
-19.7322757272
 20
25.7646355155
 10
-19.7314293666
 20
25.7631899902
 10
-19.7306683685
 20
25.761586305
  0
LWPOLYLINE
  5
23F
100
AcDbEntity
  8
ASSI
100
AcDbPolyline
 62
253
  6
CONTINUOUS
 90
14
 70
0
 10
-19.9194147029
 20
25.9938905355
 10
-19.9127804207
 20
25.9989777338
 10
-19.9059646029
 20
26.0037396244
 10
-19.898985592
 20
26.0081215811
 10
-19.8918509771
 20
26.0120741555
 10
-19.8845989685
 20
26.015529551
 10
-19.8772967714
 20
26.018413634
 10
-19.8699726906
 20
26.0206769257
 10
-19.8626576103
 20
26.0222700354
 10
-19.8554219109
 20
26.0231413965
 10
-19.8482977581
 20
26.023255392
 10
-19.8413185254
 20
26.0225782853
 10
-19.8345518194
 20
26.0210878705
 10
-19.8292442915
 20
26.0192713865
  0
LWPOLYLINE
  5
240
100
AcDbEntity
  8
ASSI
100
AcDbPolyline
 62
7
  6
CONTINUOUS
 90
3
 70
0
 10
-22.4524376475
 20
26.9831771414
 10
-22.4713182016
 20
26.9711682275
 10
-22.4788949431
 20
26.9655997312
  0
LWPOLYLINE
  5
241
100
AcDbEntity
  8
ASSI
100
AcDbPolyline
 62
253
  6
CONTINUOUS
 90
21
 70
0
 10
-27.5601074644
 20
19.7788241179
 10
-27.556318579
 20
19.8507510695
 10
-27.5491502239
 20
19.9248922584
 10
-27.5386410527
 20
20.0008818123
 10
-27.5248523009
 20
20.0783423846
 10
-27.5078519156
 20
20.156895604
 10
-27.4877121357
 20
20.2361644784
 10
-27.4645373064
 20
20.3157666329
 10
-27.438446101
 20
20.3953053205
 10
-27.4095541543
 20
20.4743803325
 10
-27.3780130944
 20
20.5526042372
 10
-27.3439840363
 20
20.6295941662
 10
-27.3076175418
 20
20.7049632865
 10
-27.2691025947
 20
20.7783452938
 10
-27.22863769
 20
20.8493790764
 10
-27.186404626
 20
20.9177008384
 10
-27.1426266848
 20
20.9829731472
 10
-27.0975268095
 20
21.0448831411
 10
-27.0512979606
 20
21.1031252068
 10
-27.0041656594
 20
21.1574127142
 10
-26.9563875277
 20
21.2074814671
  0
LWPOLYLINE
  5
242
100
AcDbEntity
  8
ASSI
100
AcDbPolyline
 62
7
  6
CONTINUOUS
 90
6
 70
0
 10
-19.7356470323
 20
25.3403628454
 10
-19.733942833
 20
25.3432911538
 10
-19.72376748
 20
25.3626049733
 10
-19.7148815178
 20
25.3828958747
 10
-19.7076225742
 20
25.4033014967
 10
-19.7018768355
 20
25.4239473662
  0
LINE
  5
243
100
AcDbEntity
  8
ASSI
100
AcDbLine
 62
253
  6
CONTINUOUS
 10
-19.7421169215
 20
25.3778046149
 11
-20.1775095865
 21
24.6393857601
  0
LINE
  5
244
100
AcDbEntity
  8
ASSI
100
AcDbLine
 62
7
  6
CONTINUOUS
 10
-19.7356425661
 20
25.3403703208
 11
-20.1775095865
 21
24.5909710649
  0
LWPOLYLINE
  5
245
100
AcDbEntity
  8
ASSI
100
AcDbPolyline
 62
7
  6
CONTINUOUS
 90
13
 70
0
 10
-20.9149180295
 20
23.9410601776
 10
-20.930435897
 20
23.9209113451
 10
-20.9474969055
 20
23.9019558428
 10
-20.9659516561
 20
23.8843954948
 10
-20.9857018965
 20
23.8683935886
 10
-21.0065081487
 20
23.8541195781
 10
-21.027979586
 20
23.8417317944
 10
-21.049811515
 20
23.8313489207
 10
-21.0719010139
 20
23.8229741926
 10
-21.0941668129
 20
23.8165867357
 10
-21.1165567005
 20
23.8122184863
 10
-21.1387589682
 20
23.8099546287
 10
-21.1547194477
 20
23.8096376379
  0
LWPOLYLINE
  5
246
100
AcDbEntity
  8
ASSI
100
AcDbPolyline
 62
7
  6
CONTINUOUS
 90
10
 70
0
 10
-18.0245667258
 20
24.0443291079
 10
-18.0415171362
 20
24.0280093706
 10
-18.0571516287
 20
24.0097925266
 10
-18.0711918697
 20
23.9898047146
 10
-18.08341616
 20
23.9681396007
 10
-18.0935247834
 20
23.9451097606
 10
-18.1012566375
 20
23.9212242266
 10
-18.10654068
 20
23.8967639323
 10
-18.109347362
 20
23.8719864983
 10
-18.1098417707
 20
23.8563098837
  0
LWPOLYLINE
  5
247
100
AcDbEntity
  8
ASSI
100
AcDbPolyline
 62
253
  6
CONTINUOUS
 90
8
 70
0
 10
-13.9885772276
 20
26.335754325
 10
-13.9697384863
 20
26.3533445513
 10
-13.9538911013
 20
26.3718798819
 10
-13.941177057
 20
26.3911952655
 10
-13.9317102211
 20
26.4111184836
 10
-13.9255772934
 20
26.4314721419
 10
-13.9228347748
 20
26.4520750167
 10
-13.9226775481
 20
26.4583455433
  0
LWPOLYLINE
  5
248
100
AcDbEntity
  8
ASSI
100
AcDbPolyline
 62
253
  6
CONTINUOUS
 90
34
 70
0
 10
-14.1933694987
 20
26.6227162644
 10
-14.1866644657
 20
26.6288953797
 10
-14.1810987936
 20
26.6352891824
 10
-14.1766724825
 20
26.6418976725
 10
-14.173366843
 20
26.6487830162
 10
-14.1712005645
 20
26.6558830472
 10
-14.1702297151
 20
26.6630112674
 10
-14.1704858078
 20
26.6701682479
 10
-14.1719373296
 20
26.6773534174
 10
-14.1745458098
 20
26.684378564
 10
-14.178341866
 20
26.6912394115
 10
-14.1832948805
 20
26.6979402361
 10
-14.1892745297
 20
26.7043056549
 10
-14.1963078195
 20
26.7103267861
 10
-14.2043677439
 20
26.7160125116
 10
-14.2132429612
 20
26.7212140933
 10
-14.2229549445
 20
26.7259187374
 10
-14.2334822208
 20
26.7301392377
 10
-14.2445490293
 20
26.7337652384
 10
-14.2561695698
 20
26.7367810367
 10
-14.2683296425
 20
26.7392023352
 10
-14.2807108876
 20
26.7409658863
 10
-14.2933191193
 20
26.7420543973
 10
-14.3061485234
 20
26.7424851607
 10
-14.3188632977
 20
26.7422468064
 10
-14.3314603485
 20
26.7413215444
 10
-14.3439427694
 20
26.7397271647
 10
-14.3559840394
 20
26.7375056668
 10
-14.3675756738
 20
26.734638466
 10
-14.3787261572
 20
26.731144147
 10
-14.3891344227
 20
26.7271204644
 10
-14.3987001145
 20
26.722600003
 10
-14.4075235884
 20
26.7175501779
 10
-14.4156048442
 20
26.7119709893
  0
LINE
  5
249
100
AcDbEntity
  8
ASSI
100
AcDbLine
 62
7
  6
CONTINUOUS
 10
-17.8813382214
 20
24.1697869319
 11
-18.0245667258
 21
24.0443291079
  0
LINE
  5
24A
100
AcDbEntity
  8
ASSI
100
AcDbLine
 62
253
  6
CONTINUOUS
 10
-17.7200846438
 20
24.183587487
 11
-17.862344352
 21
24.0589782586
  0
LINE
  5
24B
100
AcDbEntity
  8
ASSI
100
AcDbLine
 62
7
  6
CONTINUOUS
 10
-20.9149180295
 20
23.2238970982
 11
-20.1775095865
 21
23.8599014745
  0
LINE
  5
24C
100
AcDbEntity
  8
ASSI
100
AcDbLine
 62
253
  6
CONTINUOUS
 10
-16.7778274071
 20
24.4910649242
 11
-14.1933694987
 21
26.6227162644
  0
LINE
  5
24D
100
AcDbEntity
  8
ASSI
100
AcDbLine
 62
253
  6
CONTINUOUS
 10
-16.4061155362
 20
24.3417770568
 11
-13.9885772233
 21
26.3357537308
  0
LINE
  5
24E
100
AcDbEntity
  8
ASSI
100
AcDbLine
 62
7
  6
CONTINUOUS
 10
-17.8755128827
 20
24.1745567245
 11
-17.8812897039
 21
24.1698294189
  0
LINE
  5
24F
100
AcDbEntity
  8
RACCORDO
100
AcDbLine
 62
7
  6
CONTINUOUS
 10
-16.5630042028
 20
26.4653834871
 11
-19.4524053822
 21
24.2545924651
  0
LINE
  5
250
100
AcDbEntity
  8
RACCORDO
100
AcDbLine
 62
253
  6
CONTINUOUS
 10
-16.4085849549
 20
26.4736422565
 11
-19.358218727
 21
24.2167649809
  0
LINE
  5
251
100
AcDbEntity
  8
ASSI
100
AcDbLine
 62
7
  6
CONTINUOUS
 10
-14.5700240904
 20
26.7037122212
 11
-17.8755222239
 21
24.1745495529
  0
LINE
  5
252
100
AcDbEntity
  8
ASSI
100
AcDbLine
 62
253
  6
CONTINUOUS
 10
-14.4156048442
 20
26.7119709893
 11
-17.7200846438
 21
24.183587487
  0
LINE
  5
253
100
AcDbEntity
  8
RACCORDO
100
AcDbLine
 62
7
  6
CONTINUOUS
 10
-2.4943859742
 20
35.2982673925
 11
-13.9358229578
 21
26.5439876673
  0
LINE
  5
254
100
AcDbEntity
  8
RACCORDO
100
AcDbLine
 62
253
  6
CONTINUOUS
 10
-0.9437898524
 20
35.3856424941
 11
-13.4193837182
 21
25.8401627206
  0
LWPOLYLINE
  5
255
100
AcDbEntity
  8
RACCORDO
100
AcDbPolyline
 62
253
  6
CONTINUOUS
 90
8
 70
0
 10
-13.1086730961
 20
25.6537770743
 10
-13.0940827907
 20
25.664299807
 10
-13.0796098269
 20
25.6725920026
 10
-13.0654092522
 20
25.6785373293
 10
-13.0516178103
 20
25.6820455915
 10
-13.0384100502
 20
25.6830381177
 10
-13.0259867311
 20
25.681484216
 10
-13.0180046214
 20
25.6789598264
  0
LWPOLYLINE
  5
256
100
AcDbEntity
  8
RACCORDO
100
AcDbPolyline
 62
253
  6
CONTINUOUS
 90
8
 70
0
 10
-15.3716398819
 20
26.5626355529
 10
-15.3568330711
 20
26.5732982757
 10
-15.3422116534
 20
26.5816311008
 10
-15.3279322842
 20
26.5875447237
 10
-15.3141479551
 20
26.5909757579
 10
-15.3010063607
 20
26.5918874131
 10
-15.2886483153
 20
26.5902698937
 10
-15.28097041
 20
26.5878179045
  0
LWPOLYLINE
  5
257
100
AcDbEntity
  8
RACCORDO
100
AcDbPolyline
 62
253
  6
CONTINUOUS
 90
16
 70
0
 10
-2.4943859742
 20
35.2982673925
 10
-2.4290302482
 20
35.3446926107
 10
-2.3448110241
 20
35.3950877048
 10
-2.2558879528
 20
35.438494337
 10
-2.162563917
 20
35.4747659084
 10
-2.0651524748
 20
35.5037813924
 10
-1.9639797685
 20
35.5254428559
 10
-1.8593814789
 20
35.5396781674
 10
-1.7517148581
 20
35.5464378366
 10
-1.6413555294
 20
35.5456964424
 10
-1.5286859877
 20
35.5374605665
 10
-1.4140755168
 20
35.5217604691
 10
-1.2978907541
 20
35.4986413301
 10
-1.1805152743
 20
35.4681753379
 10
-1.0623494949
 20
35.4304668747
 10
-0.9437904009
 20
35.3856420722
  0
LWPOLYLINE
  5
258
100
AcDbEntity
  8
RACCORDO
100
AcDbPolyline
 62
7
  6
CONTINUOUS
 90
3
 70
0
 10
-16.4565922725
 20
26.534738494
 10
-16.5125759648
 20
26.5010209149
 10
-16.5630998159
 20
26.4652986454
  0
LWPOLYLINE
  5
259
100
AcDbEntity
  8
RACCORDO
100
AcDbPolyline
 62
253
  6
CONTINUOUS
 90
3
 70
0
 10
-16.544541174
 20
26.4768891172
 10
-16.5596954623
 20
26.4678211327
 10
-16.5630042028
 20
26.4653834871
  0
LWPOLYLINE
  5
25A
100
AcDbEntity
  8
ASSI
100
AcDbPolyline
 62
7
  6
CONTINUOUS
 90
4
 70
0
 10
-14.5026313683
 20
26.7444787729
 10
-14.53436423
 20
26.727721986
 10
-14.5636304738
 20
26.7084807115
 10
-14.5699824136
 20
26.7037328388
  0
LINE
  5
25B
100
AcDbEntity
  8
RACCORDO
100
AcDbLine
 62
7
  6
CONTINUOUS
 10
-16.3968110842
 20
26.5652936779
 11
-16.4565922725
 21
26.534738494
  0
LWPOLYLINE
  5
25C
100
AcDbEntity
  8
ASSI
100
AcDbPolyline
 62
253
  6
CONTINUOUS
 90
10
 70
0
 10
-27.7594590897
 20
-14.194071954
 10
-27.7559137619
 20
-14.2247879152
 10
-27.7473594083
 20
-14.2544909566
 10
-27.7338653158
 20
-14.2834324005
 10
-27.7155681662
 20
-14.3113190985
 10
-27.6926532916
 20
-14.337868586
 10
-27.6653527972
 20
-14.3628119428
 10
-27.63394321
 20
-14.3858965173
 10
-27.5987426782
 20
-14.4068884854
 10
-27.5601077485
 20
-14.4255752192
  0
LWPOLYLINE
  5
25D
100
AcDbEntity
  8
RACCORDO
100
AcDbPolyline
 62
253
  6
CONTINUOUS
 90
4
 70
0
 10
-26.2479671807
 20
-10.3081539296
 10
-26.2456401487
 20
-10.3326843616
 10
-26.238411143
 20
-10.3617688014
 10
-26.2264104588
 20
-10.3902053024
  0
LWPOLYLINE
  5
25E
100
AcDbEntity
  8
ASSI
100
AcDbPolyline
 62
7
  6
CONTINUOUS
 90
17
 70
0
 10
-27.7594529971
 20
-14.1940717733
 10
-27.7589087326
 20
-14.2093852819
 10
-27.7534625124
 20
-14.2845808992
 10
-27.743701744
 20
-14.3557159732
 10
-27.7298494926
 20
-14.4228189109
 10
-27.7120839967
 20
-14.4861500755
 10
-27.6905058307
 20
-14.5459755329
 10
-27.6652594086
 20
-14.6022730261
 10
-27.6364918441
 20
-14.6550345824
 10
-27.6043226547
 20
-14.7042857713
 10
-27.5690103031
 20
-14.7498295982
 10
-27.5307562331
 20
-14.7915880304
 10
-27.4896477494
 20
-14.8295810335
 10
-27.4460012537
 20
-14.8636132607
 10
-27.4001121872
 20
-14.8935621148
 10
-27.352046448
 20
-14.9194442582
 10
-27.32505818
 20
-14.931778192
  0
LWPOLYLINE
  5
25F
100
AcDbEntity
  8
RACCORDO
100
AcDbPolyline
 62
7
  6
CONTINUOUS
 90
4
 70
0
 10
-26.2479749071
 20
-10.3074996715
 10
-26.2478051182
 20
-10.3136088882
 10
-26.2447524052
 20
-10.3745657999
 10
-26.2393681845
 20
-10.4362654159
  0
LWPOLYLINE
  5
260
100
AcDbEntity
  8
ASSI
100
AcDbPolyline
 62
253
  6
CONTINUOUS
 90
10
 70
0
 10
-27.5601077492
 20
-14.4255752082
 10
-27.6582475807
 20
-10.7099066692
 10
-27.7318717388
 20
-6.972225442
 10
-27.7809641877
 20
-3.2128565067
 10
-27.8055130617
 20
0.5679160463
 10
-27.8055131342
 20
4.3697129063
 10
-27.7809643839
 20
8.1920609985
 10
-27.7318719936
 20
12.0345724843
 10
-27.6582477832
 20
15.8969438681
 10
-27.5601077437
 20
19.7788239313
  0
LWPOLYLINE
  5
261
100
AcDbEntity
  8
RACCORDO
100
AcDbPolyline
 62
253
  6
CONTINUOUS
 90
22
 70
0
 10
-26.2264104579
 20
-10.3902053022
 10
-26.2545585976
 20
-9.2435982194
 10
-26.2798470594
 20
-8.0947290889
 10
-26.3022927155
 20
-6.9435968297
 10
-26.3219169084
 20
-5.7901956231
 10
-26.3387272972
 20
-4.6345326313
 10
-26.3527174994
 20
-3.4766280211
 10
-26.3638947324
 20
-2.316491008
 10
-26.3722704512
 20
-1.154120685
 10
-26.3778417253
 20
0.0104762538
 10
-26.3806108907
 20
1.1772875175
 10
-26.3805843846
 20
2.3463103815
 10
-26.3777626879
 20
3.5175508736
 10
-26.3721432659
 20
4.6909936201
 10
-26.3637276624
 20
5.8666323679
 10
-26.3525197553
 20
7.0444852059
 10
-26.3385120634
 20
8.2245334744
 10
-26.3217012716
 20
9.4067675534
 10
-26.3020946687
 20
10.5912174071
 10
-26.2796875993
 20
11.777881306
 10
-26.2544637936
 20
12.9667258488
 10
-26.2264104579
 20
14.1577317525
  0
LWPOLYLINE
  5
262
100
AcDbEntity
  8
RACCORDO
100
AcDbPolyline
 62
253
  6
CONTINUOUS
 90
10
 70
0
 10
-26.9486256927
 20
-10.2260643496
 10
-27.005203042
 20
-7.4955289293
 10
-27.0476376669
 20
-4.7534793032
 10
-27.0759280944
 20
-2.0000515555
 10
-27.0900739534
 20
0.7646852419
 10
-27.0900739675
 20
3.5405268799
 10
-27.0759281323
 20
6.3271322367
 10
-27.0476377156
 20
9.1242950189
 10
-27.0052030807
 20
11.9319455522
 10
-26.9486256927
 20
14.749945345
  0
LWPOLYLINE
  5
263
100
AcDbEntity
  8
RACCORDO
100
AcDbPolyline
 62
253
  6
CONTINUOUS
 90
10
 70
0
 10
-25.7201464925
 20
15.4849869352
 10
-25.7195709563
 20
15.4420357273
 10
-25.7156364986
 20
15.4019712436
 10
-25.70838723
 20
15.3652426623
 10
-25.6979044249
 20
15.3322617618
 10
-25.68430561
 20
15.3033983037
 10
-25.6677432469
 20
15.2789758873
 10
-25.6484030226
 20
15.2592683218
 10
-25.6265017679
 20
15.2444965563
 10
-25.6178021186
 20
15.2403189143
  0
LWPOLYLINE
  5
264
100
AcDbEntity
  8
ASSI
100
AcDbPolyline
 62
253
  6
CONTINUOUS
 90
11
 70
0
 10
-27.7594860047
 20
20.0039983205
 10
-27.7594354661
 20
19.9948230755
 10
-27.7559068296
 20
19.9674356913
 10
-27.7473519322
 20
19.9402809081
 10
-27.7338574248
 20
19.9136337715
 10
-27.7155599908
 20
19.8877641849
 10
-27.6926449611
 20
19.8629341765
 10
-27.6653444376
 20
19.8393952447
 10
-27.633934942
 20
19.8173858109
 10
-27.598734615
 20
19.7971288043
 10
-27.5600999936
 20
19.7788294041
  0
LWPOLYLINE
  5
265
100
AcDbEntity
  8
RACCORDO
100
AcDbPolyline
 62
253
  6
CONTINUOUS
 90
6
 70
0
 10
-25.7201420327
 20
-11.9515481207
 10
-25.7195672634
 20
-11.9077776317
 10
-25.7156335099
 20
-11.8617652355
 10
-25.7083848764
 20
-11.814026811
 10
-25.6979026326
 20
-11.7650975892
 10
-25.6956076401
 20
-11.756731409
  0
LWPOLYLINE
  5
266
100
AcDbEntity
  8
RACCORDO
100
AcDbPolyline
 62
253
  6
CONTINUOUS
 90
5
 70
0
 10
-26.247971035
 20
14.2415510075
 10
-26.2480176936
 20
14.2380732758
 10
-26.2456343664
 20
14.2110295155
 10
-26.2384085883
 20
14.1841618231
 10
-26.2264106914
 20
14.1577317176
  0
LINE
  5
267
100
AcDbEntity
  8
RACCORDO
100
AcDbLine
 62
253
  6
CONTINUOUS
 10
-26.2985672786
 20
11.9578471533
 11
-26.2982166954
 21
11.9813619856
  0
LINE
  5
268
100
AcDbEntity
  8
RACCORDO
100
AcDbLine
 62
253
  6
CONTINUOUS
 10
-26.2982166954
 20
11.9813619856
 11
-26.2424578711
 21
14.7970122037
  0
LWPOLYLINE
  5
269
100
AcDbEntity
  8
RACCORDO
100
AcDbPolyline
 62
7
  6
CONTINUOUS
 90
10
 70
0
 10
-26.2479810372
 20
14.2415512718
 10
-26.3084825183
 20
11.5102259577
 10
-26.3549491276
 20
8.7295088079
 10
-26.3858947955
 20
5.9613980423
 10
-26.4013542794
 20
3.2060484008
 10
-26.4013438851
 20
0.4636321495
 10
-26.3858616359
 20
-2.265665505
 10
-26.3548872454
 20
-4.9816414802
 10
-26.3083819441
 20
-7.6840787735
 10
-26.2479671807
 20
-10.3081539296
  0
LWPOLYLINE
  5
26A
100
AcDbEntity
  8
ASSI
100
AcDbPolyline
 62
7
  6
CONTINUOUS
 90
10
 70
0
 10
-27.7594824299
 20
20.004355302
 10
-27.8550687771
 20
16.1700068947
 10
-27.928077304
 20
12.2934125346
 10
-27.9767551128
 20
8.4369894878
 10
-28.0010870947
 20
4.6011366762
 10
-28.0010699036
 20
0.7861788835
 10
-27.9767027562
 20
-3.0075862826
 10
-27.9279875349
 20
-6.779838157
 10
-27.8549378859
 20
-10.5302022555
 10
-27.7594621123
 20
-14.1939699483
  0
LWPOLYLINE
  5
26B
100
AcDbEntity
  8
RACCORDO
100
AcDbPolyline
 62
253
  6
CONTINUOUS
 90
10
 70
0
 10
-26.2264104579
 20
14.1577317525
 10
-26.2252005266
 20
14.186757779
 10
-26.2230250604
 20
14.2136293501
 10
-26.2198829875
 20
14.2383468446
 10
-26.2157562201
 20
14.2610630633
 10
-26.2106576192
 20
14.281626496
 10
-26.204631264
 20
14.2995812557
 10
-26.1976645297
 20
14.3148774616
 10
-26.1897594081
 20
14.3275671662
 10
-26.1809812109
 20
14.3373474492
  0
LWPOLYLINE
  5
26C
100
AcDbEntity
  8
RACCORDO
100
AcDbPolyline
 62
253
  6
CONTINUOUS
 90
28
 70
0
 10
-26.9486256927
 20
14.749945345
 10
-26.9449361864
 20
14.8219629059
 10
-26.9372579418
 20
14.8916171881
 10
-26.9255905976
 20
14.9589084825
 10
-26.9098612253
 20
15.0240867567
 10
-26.8901417166
 20
15.0869028666
 10
-26.8666491938
 20
15.1466082379
 10
-26.8393510289
 20
15.2031265934
 10
-26.8082792136
 20
15.2565347168
 10
-26.7737484022
 20
15.3063131555
 10
-26.7357312886
 20
15.3524257625
 10
-26.6942548287
 20
15.3949089625
 10
-26.6497156471
 20
15.4333517106
 10
-26.602063309
 20
15.4677258308
 10
-26.5513482225
 20
15.4980595199
 10
-26.498118902
 20
15.5240258047
 10
-26.4423730597
 20
15.5455688337
 10
-26.3841134001
 20
15.5627441297
 10
-26.3238965342
 20
15.5753913075
 10
-26.2617053381
 20
15.5834740759
 10
-26.1975576279
 20
15.5870281796
 10
-26.1320629512
 20
15.5860008775
 10
-26.0651252589
 20
15.5803191802
 10
-25.9968414752
 20
15.5700553853
 10
-25.9281111713
 20
15.5553742438
 10
-25.8592347525
 20
15.5363302425
 10
-25.7899130456
 20
15.5128679235
 10
-25.7201464927
 20
15.484986935
  0
LWPOLYLINE
  5
26D
100
AcDbEntity
  8
RACCORDO
100
AcDbPolyline
 62
253
  6
CONTINUOUS
 90
14
 70
0
 10
-26.2424577294
 20
14.797012312
 10
-26.2398079825
 20
14.8448766159
 10
-26.2344946704
 20
14.8914748232
 10
-26.2265218241
 20
14.9366458351
 10
-26.2158940418
 20
14.9802596344
 10
-26.2026393775
 20
15.0221330366
 10
-26.1868257605
 20
15.0620416233
 10
-26.1685233216
 20
15.0998268979
 10
-26.1477851918
 20
15.1353939448
 10
-26.1246793641
 20
15.1686329593
 10
-26.099286628
 20
15.1994307587
 10
-26.0716914003
 20
15.2276875692
 10
-26.0419736609
 20
15.25332042
 10
-26.0375310644
 20
15.2567855206
  0
LWPOLYLINE
  5
26E
100
AcDbEntity
  8
ASSI
100
AcDbPolyline
 62
253
  6
CONTINUOUS
 90
5
 70
0
 10
-19.7356425661
 20
25.3403703208
 10
-19.7333160093
 20
25.3467218641
 10
-19.7333116706
 20
25.3556817657
 10
-19.7362619485
 20
25.366101453
 10
-19.7421169215
 20
25.3778046149
  0
LWPOLYLINE
  5
26F
100
AcDbEntity
  8
ASSI
100
AcDbPolyline
 62
7
  6
CONTINUOUS
 90
10
 70
0
 10
-13.7240184933
 20
22.3171319841
 10
-13.7409689037
 20
22.3008122468
 10
-13.7566033961
 20
22.2825954028
 10
-13.7706436372
 20
22.2626075908
 10
-13.7828679275
 20
22.240942477
 10
-13.7929765509
 20
22.2179126368
 10
-13.8007084049
 20
22.1940271029
 10
-13.8059924475
 20
22.1695668085
 10
-13.8087991294
 20
22.1447893745
 10
-13.8092935382
 20
22.1291127599
  0
LWPOLYLINE
  5
270
100
AcDbEntity
  8
RACCORDO
100
AcDbPolyline
 62
253
  6
CONTINUOUS
 90
7
 70
0
 10
-12.9063876573
 20
25.3647227842
 10
-12.8927094964
 20
25.3772564646
 10
-12.8813110166
 20
25.3905895936
 10
-12.8723451133
 20
25.4045877957
 10
-12.8659338646
 20
25.4191269395
 10
-12.8621951439
 20
25.4340336261
 10
-12.8611757299
 20
25.4468696215
  0
LWPOLYLINE
  5
271
100
AcDbEntity
  8
RACCORDO
100
AcDbPolyline
 62
7
  6
CONTINUOUS
 90
13
 70
0
 10
-26.0309000415
 20
14.787387826
 10
-26.0355654038
 20
14.7832596265
 10
-26.0720085937
 20
14.7475161983
 10
-26.1059075263
 20
14.7075636148
 10
-26.1362203722
 20
14.6644541342
 10
-26.1631038849
 20
14.6179141513
 10
-26.1862113885
 20
14.568461958
 10
-26.2047561968
 20
14.5185447134
 10
-26.2189166684
 20
14.4698501619
 10
-26.229847487
 20
14.4207657768
 10
-26.2383604364
 20
14.3682308539
 10
-26.2444478141
 20
14.3104934732
 10
-26.2479669129
 20
14.2417123846
  0
LINE
  5
272
100
AcDbEntity
  8
RACCORDO
100
AcDbLine
 62
7
  6
CONTINUOUS
 10
-26.0314358659
 20
14.7869082105
 11
-25.5478940571
 21
15.2104559069
  0
LINE
  5
273
100
AcDbEntity
  8
RACCORDO
100
AcDbLine
 62
253
  6
CONTINUOUS
 10
-25.5512008508
 20
14.6978022584
 11
-25.1566972835
 21
15.0433501081
  0
LINE
  5
274
100
AcDbEntity
  8
ASSI
100
AcDbLine
 62
7
  6
CONTINUOUS
 10
-13.5807899889
 20
22.4425898081
 11
-13.7240184933
 21
22.3171319841
  0
LINE
  5
275
100
AcDbEntity
  8
ASSI
100
AcDbLine
 62
253
  6
CONTINUOUS
 10
-13.4195364113
 20
22.4563903633
 11
-13.5617961194
 21
22.3317811348
  0
LINE
  5
276
100
AcDbEntity
  8
ASSI
100
AcDbLine
 62
7
  6
CONTINUOUS
 10
-15.0844701576
 20
21.6253952662
 11
-14.934936503
 21
21.7543659331
  0
LINE
  5
277
100
AcDbEntity
  8
ASSI
100
AcDbLine
 62
7
  6
CONTINUOUS
 10
-14.934936503
 20
21.7543659331
 11
-14.3756584188
 21
22.2285250926
  0
LINE
  5
278
100
AcDbEntity
  8
ASSI
100
AcDbLine
 62
7
  6
CONTINUOUS
 10
-15.5043955014
 20
23.979625962
 11
-13.9886126778
 21
25.2298380381
  0
LINE
  5
279
100
AcDbEntity
  8
ASSI
100
AcDbLine
 62
253
  6
CONTINUOUS
 10
-15.1396933239
 20
23.1472441594
 11
-14.5804152396
 21
23.6085346582
  0
LINE
  5
27A
100
AcDbEntity
  8
ASSI
100
AcDbLine
 62
253
  6
CONTINUOUS
 10
-14.934936503
 20
22.8602523831
 11
-14.3756584188
 21
23.321542882
  0
LINE
  5
27B
100
AcDbEntity
  8
SMUSSO
100
AcDbLine
 62
7
  6
CONTINUOUS
 10
-14.8741445473
 20
23.7265029702
 11
-13.0497817664
 21
25.2209334717
  0
LINE
  5
27C
100
AcDbEntity
  8
ASSI
100
AcDbLine
 62
7
  6
CONTINUOUS
 10
-13.5807417455
 20
22.4426320705
 11
-13.5749653884
 21
22.447358996
  0
LINE
  5
27D
100
AcDbEntity
  8
ASSI
100
AcDbLine
 62
253
  6
CONTINUOUS
 10
-15.2892269784
 20
23.0255563118
 11
-15.1396933239
 21
23.1472441594
  0
LINE
  5
27E
100
AcDbEntity
  8
ASSI
100
AcDbLine
 62
253
  6
CONTINUOUS
 10
-15.0844701576
 20
22.7385645356
 11
-14.934936503
 21
22.8602523831
  0
LINE
  5
27F
100
AcDbEntity
  8
RACCORDO
100
AcDbLine
 62
253
  6
CONTINUOUS
 10
-13.1086730961
 20
25.6537770743
 11
-15.3132436346
 21
23.9028550629
  0
LINE
  5
280
100
AcDbEntity
  8
RACCORDO
100
AcDbLine
 62
253
  6
CONTINUOUS
 10
-12.9063876573
 20
25.3647227842
 11
-14.9371800776
 21
23.7518194602
  0
LWPOLYLINE
  5
281
100
AcDbEntity
  8
RACCORDO
100
AcDbPolyline
 62
253
  6
CONTINUOUS
 90
13
 70
0
 10
-26.0309772051
 20
14.7873097208
 10
-26.0069169282
 20
14.8058184878
 10
-25.9754029678
 20
14.8235419605
 10
-25.9412572363
 20
14.8360774566
 10
-25.9046960486
 20
14.8431908844
 10
-25.8659324332
 20
14.8447084726
 10
-25.8250567383
 20
14.8406570074
 10
-25.7823658152
 20
14.8308935706
 10
-25.7381619562
 20
14.8153405594
 10
-25.6925964315
 20
14.7942115513
 10
-25.6459678995
 20
14.767598552
 10
-25.5987096324
 20
14.7354404884
 10
-25.5512052927
 20
14.6977983674
  0
LINE
  5
282
100
AcDbEntity
  8
RACCORDO
100
AcDbLine
 62
7
  6
CONTINUOUS
 10
-26.0375310644
 20
15.2567855206
 11
-26.0364282572
 21
15.2576320172
  0
LINE
  5
283
100
AcDbEntity
  8
RACCORDO
100
AcDbLine
 62
253
  6
CONTINUOUS
 10
-25.6475646387
 20
15.2521873809
 11
-26.2424578711
 21
14.7970122037
  0
LINE
  5
284
100
AcDbEntity
  8
ASSI
100
AcDbLine
 62
7
  6
CONTINUOUS
 10
-12.9870981287
 20
22.8971586687
 11
-13.5749739914
 21
22.4473524291
  0
LINE
  5
285
100
AcDbEntity
  8
ASSI
100
AcDbLine
 62
253
  6
CONTINUOUS
 10
-12.8316616228
 20
22.906195781
 11
-13.4195364113
 21
22.4563903633
  0
LWPOLYLINE
  5
286
100
AcDbEntity
  8
RACCORDO
100
AcDbPolyline
 62
7
  6
CONTINUOUS
 90
14
 70
0
 10
-26.0375644968
 20
15.2567580416
 10
-26.0324325895
 20
15.260601578
 10
-26.0143034138
 20
15.2721084895
 10
-25.9944336433
 20
15.2817020092
 10
-25.972165896
 20
15.2895941621
 10
-25.946206424
 20
15.2958947963
 10
-25.9159974383
 20
15.3001585899
 10
-25.8818775464
 20
15.3018091414
 10
-25.8440776818
 20
15.3004158723
 10
-25.802756124
 20
15.2955909685
 10
-25.7584509056
 20
15.2870664306
 10
-25.7120745627
 20
15.2748004289
 10
-25.6642266265
 20
15.2588340938
 10
-25.6178036742
 20
15.2403152927
  0
LWPOLYLINE
  5
287
100
AcDbEntity
  8
ASSI
100
AcDbPolyline
 62
7
  6
CONTINUOUS
 90
4
 70
0
 10
-13.5749653884
 20
22.447358996
 10
-13.5715826985
 20
22.4498462904
 10
-13.5566850067
 20
22.4587607333
 10
-13.5402110355
 20
22.4655229068
  0
LWPOLYLINE
  5
288
100
AcDbEntity
  8
RACCORDO
100
AcDbPolyline
 62
253
  6
CONTINUOUS
 90
13
 70
0
 10
-26.1809812109
 20
14.3373474492
 10
-26.171298407
 20
14.3441943168
 10
-26.1607273425
 20
14.3481346426
 10
-26.1494057288
 20
14.348941617
 10
-26.1373023594
 20
14.346552724
 10
-26.1244314569
 20
14.3410335398
 10
-26.1110018017
 20
14.3323487555
 10
-26.0969794924
 20
14.3204070314
 10
-26.0823833678
 20
14.3053022753
 10
-26.0675072866
 20
14.2872758575
 10
-26.0524482322
 20
14.2664082927
 10
-26.0371018571
 20
14.2426201041
 10
-26.0214638346
 20
14.2159119294
  0
LINE
  5
289
100
AcDbEntity
  8
ASSI
100
AcDbLine
 62
253
  6
CONTINUOUS
 10
13.2697104634
 20
-26.8738245751
 11
12.8343177984
 21
-26.8758885072
  0
LINE
  5
28A
100
AcDbEntity
  8
ASSI
100
AcDbLine
 62
253
  6
CONTINUOUS
 10
13.1612686865
 20
-26.6208106351
 11
12.8343177984
 21
-26.6223605107
  0
LWPOLYLINE
  5
28B
100
AcDbEntity
  8
ASSI
100
AcDbPolyline
 62
7
  6
CONTINUOUS
 90
12
 70
0
 10
11.8730687557
 20
-27.3278724879
 10
11.8952706584
 20
-27.3312073293
 10
11.9176603592
 20
-27.3344002294
 10
11.9399263102
 20
-27.3372690484
 10
11.9620161118
 20
-27.3397546147
 10
11.9838482965
 20
-27.3418892358
 10
12.0053199296
 20
-27.343524125
 10
12.0261263282
 20
-27.344540836
 10
12.0458765473
 20
-27.3450113361
 10
12.0643311035
 20
-27.344859999
 10
12.0813918248
 20
-27.3438637434
 10
12.0969093554
 20
-27.3418722131
  0
LWPOLYLINE
  5
28C
100
AcDbEntity
  8
ASSI
100
AcDbPolyline
 62
253
  6
CONTINUOUS
 90
13
 70
0
 10
-27.3253776585
 20
-14.9316449977
 10
-27.3439842818
 20
-14.9227739607
 10
-27.3780133424
 20
-14.9015708011
 10
-27.4095544047
 20
-14.8750249997
 10
-27.4384463535
 20
-14.8432706096
 10
-27.4645375608
 20
-14.8064692822
 10
-27.4877123918
 20
-14.7647986975
 10
-27.5078521736
 20
-14.7184704536
 10
-27.5248525606
 20
-14.6677145555
 10
-27.5386413127
 20
-14.6127680778
 10
-27.5491504829
 20
-14.5538967737
 10
-27.5563188365
 20
-14.4913963621
 10
-27.5601077201
 20
-14.4255751769
  0
LINE
  5
28D
100
AcDbEntity
  8
RACCORDO
100
AcDbLine
 62
253
  6
CONTINUOUS
 10
-25.6504406117
 20
-11.7492615478
 11
-26.0214638346
 21
-11.1412174758
  0
LWPOLYLINE
  5
28E
100
AcDbEntity
  8
RACCORDO
100
AcDbPolyline
 62
7
  6
CONTINUOUS
 90
37
 70
0
 10
-25.9795527807
 20
-11.2897560305
 10
-25.6267419164
 20
-11.8699877843
 10
-25.2116600214
 20
-12.4833741195
 10
-24.7581593351
 20
-13.0883093022
 10
-24.2666808715
 20
-13.6840367961
 10
-23.7378369886
 20
-14.2697483088
 10
-23.1724265461
 20
-14.8445060483
 10
-22.5710735524
 20
-15.4076210887
 10
-21.9345050727
 20
-15.9584037225
 10
-21.2637658326
 20
-16.4959318985
 10
-20.5596522232
 20
-17.0195458627
 10
-19.8230640012
 20
-17.5286054513
 10
-19.0553015579
 20
-18.0222407828
 10
-18.2574035359
 20
-18.4998157827
 10
-17.4303544142
 20
-18.9608113804
 10
-16.575452831
 20
-19.4045556517
 10
-15.6938710206
 20
-19.8304829656
 10
-14.7867103959
 20
-20.2381402815
 10
-13.85519687
 20
-20.62703056
 10
-12.9005631733
 20
-20.9966731723
 10
-11.9240314095
 20
-21.3466625545
 10
-10.9268169117
 20
-21.6766063616
 10
-9.9102022942
 20
-21.9861003002
 10
-8.8755040661
 20
-22.2747962367
 10
-7.8239855633
 20
-22.5423732744
 10
-6.7569772539
 20
-22.7885012106
 10
-5.6758623715
 20
-23.0128995854
 10
-4.5819814364
 20
-23.2153112179
 10
-3.4767433315
 20
-23.3954768462
 10
-2.3615601217
 20
-23.5532001635
 10
-1.2377753046
 20
-23.688306972
 10
-0.1068397509
 20
-23.80061528
 10
1.0298564999
 20
-23.890003319
 10
2.1710641022
 20
-23.9563699465
 10
3.3153993142
 20
-23.9996105555
 10
4.4612062023
 20
-24.0196782052
 10
5.526479628
 20
-24.0175242651
  0
LINE
  5
28F
100
AcDbEntity
  8
RACCORDO
100
AcDbLine
 62
7
  6
CONTINUOUS
 10
-25.9789989715
 20
-11.2907153885
 11
-25.9795531884
 21
-11.2897562786
  0
LWPOLYLINE
  5
290
100
AcDbEntity
  8
RACCORDO
100
AcDbPolyline
 62
253
  6
CONTINUOUS
 90
22
 70
0
 10
-26.0214638346
 20
-11.1412174758
 10
-26.0370976173
 20
-11.1127413444
 10
-26.0524406911
 20
-11.0824093194
 10
-26.067497369
 20
-11.0502220326
 10
-26.0823721599
 20
-11.015912048
 10
-26.0969678908
 20
-10.9797478203
 10
-26.1109901706
 20
-10.9425345621
 10
-26.1244198575
 20
-10.9042843206
 10
-26.1372911491
 20
-10.8649875911
 10
-26.1493956345
 20
-10.8254184527
 10
-26.160719566
 20
-10.7856004048
 10
-26.1712936591
 20
-10.7455129772
 10
-26.1809791305
 20
-10.705864939
 10
-26.1897593275
 20
-10.6667215092
 10
-26.1976660996
 20
-10.6280203268
 10
-26.204634012
 20
-10.590278991
 10
-26.2106610276
 20
-10.5534807942
 10
-26.2157598234
 20
-10.5176445991
 10
-26.2198863439
 20
-10.4833413034
 10
-26.2230277369
 20
-10.4507616591
 10
-26.2252020841
 20
-10.4197162002
 10
-26.2264104579
 20
-10.3902053022
  0
LWPOLYLINE
  5
291
100
AcDbEntity
  8
RACCORDO
100
AcDbPolyline
 62
7
  6
CONTINUOUS
 90
3
 70
0
 10
-26.0144463462
 20
-11.2250797728
 10
-25.984353658
 20
-11.2813363231
 10
-25.9789989715
 20
-11.2907153885
  0
LWPOLYLINE
  5
292
100
AcDbEntity
  8
RACCORDO
100
AcDbPolyline
 62
253
  6
CONTINUOUS
 90
5
 70
0
 10
-25.9795531884
 20
-11.2897562786
 10
-25.9947230734
 20
-11.2597141331
 10
-26.0084543587
 20
-11.2219588003
 10
-26.0173986804
 20
-11.1823230711
 10
-26.0214634171
 20
-11.1412173872
  0
LWPOLYLINE
  5
293
100
AcDbEntity
  8
RACCORDO
100
AcDbPolyline
 62
7
  6
CONTINUOUS
 90
4
 70
0
 10
-26.0904372376
 20
-11.0521335296
 10
-26.0672153719
 20
-11.1102443569
 10
-26.0420137542
 20
-11.1678554024
 10
-26.0144463462
 20
-11.2250797728
  0
LWPOLYLINE
  5
294
100
AcDbEntity
  8
RACCORDO
100
AcDbPolyline
 62
7
  6
CONTINUOUS
 90
11
 70
0
 10
-26.2393681845
 20
-10.4362654159
 10
-26.2318774974
 20
-10.4984581735
 10
-26.2224547718
 20
-10.5611470737
 10
-26.2112310543
 20
-10.6240900566
 10
-26.1983951432
 20
-10.6867791079
 10
-26.1840434351
 20
-10.7490854905
 10
-26.1681868441
 20
-10.8110780517
 10
-26.1509108456
 20
-10.8724502674
 10
-26.1322638653
 20
-10.9329896354
 10
-26.1121062154
 20
-10.9929752745
 10
-26.0904372376
 20
-11.0521335296
  0
LWPOLYLINE
  5
295
100
AcDbEntity
  8
ASSI
100
AcDbPolyline
 62
253
  6
CONTINUOUS
 90
9
 70
0
 10
-24.2851107608
 20
25.3020075965
 10
-24.2848212582
 20
25.2958635158
 10
-24.2817618184
 20
25.2811286621
 10
-24.2754118726
 20
25.2667435929
 10
-24.2658776641
 20
25.2529490111
 10
-24.2533187203
 20
25.2399757414
 10
-24.2379451812
 20
25.2280408648
 10
-24.2200142825
 20
25.2173440871
 10
-24.1998260532
 20
25.2080643984
  0
LWPOLYLINE
  5
296
100
AcDbEntity
  8
ASSI
100
AcDbPolyline
 62
253
  6
CONTINUOUS
 90
9
 70
0
 10
-24.2851107659
 20
25.001936936
 10
-24.2848212377
 20
24.9957665902
 10
-24.2817617475
 20
24.9810317353
 10
-24.2754117574
 20
24.9666466807
 10
-24.2658775199
 20
24.952852127
 10
-24.2533185685
 20
24.9398788941
 10
-24.2379450482
 20
24.9279440592
 10
-24.2200141993
 20
24.9172473241
 10
-24.1998260532
 20
24.9079676739
  0
LWPOLYLINE
  5
297
100
AcDbEntity
  8
ASSI
100
AcDbPolyline
 62
7
  6
CONTINUOUS
 90
7
 70
0
 10
-24.2851101714
 20
25.001976393
 10
-24.2850433386
 20
24.9960580027
 10
-24.283349486
 20
24.9720588492
 10
-24.2790543475
 20
24.9472570492
 10
-24.272021273
 20
24.9227597169
 10
-24.2622315874
 20
24.8991037575
 10
-24.2495675451
 20
24.8764276934
  0
LINE
  5
298
100
AcDbEntity
  8
ASSI
100
AcDbLine
 62
7
  6
CONTINUOUS
 10
-24.2851107659
 20
25.001936936
 11
-24.2851107659
 21
25.3020336451
  0
LINE
  5
299
100
AcDbEntity
  8
ASSI
100
AcDbLine
 62
253
  6
CONTINUOUS
 10
-24.1998260532
 20
24.9079676739
 11
-24.1998260532
 21
25.2081095361
  0
LINE
  5
29A
100
AcDbEntity
  8
ASSI
100
AcDbLine
 62
7
  6
CONTINUOUS
 10
-23.7069049363
 20
24.2419325059
 11
-23.7069049363
 21
24.6156421722
  0
LINE
  5
29B
100
AcDbEntity
  8
ASSI
100
AcDbLine
 62
253
  6
CONTINUOUS
 10
-23.6002990454
 20
24.1198646696
 11
-23.6002990454
 21
24.572826843
  0
LINE
  5
29C
100
AcDbEntity
  8
ASSI
100
AcDbLine
 62
7
  6
CONTINUOUS
 10
-23.2227328911
 20
23.3043324394
 11
-23.2227328911
 21
24.4128396604
  0
LINE
  5
29D
100
AcDbEntity
  8
ASSI
100
AcDbLine
 62
253
  6
CONTINUOUS
 10
-23.1161270002
 20
23.1822727831
 11
-23.1161270002
 21
24.4727297028
  0
LINE
  5
29E
100
AcDbEntity
  8
ASSI
100
AcDbLine
 62
253
  6
CONTINUOUS
 10
-22.891891305
 20
23.0922146726
 11
-22.891891305
 21
24.3826715923
  0
LINE
  5
29F
100
AcDbEntity
  8
ASSI
100
AcDbLine
 62
253
  6
CONTINUOUS
 10
-22.5462429473
 20
23.1359364848
 11
-22.5462429473
 21
24.1494941509
  0
LINE
  5
2A0
100
AcDbEntity
  8
ASSI
100
AcDbLine
 62
7
  6
CONTINUOUS
 10
-22.1027718986
 20
23.9713861799
 11
-22.1027718986
 21
23.5184240064
  0
LWPOLYLINE
  5
2A1
100
AcDbEntity
  8
ASSI
100
AcDbPolyline
 62
253
  6
CONTINUOUS
 90
28
 70
0
 10
-21.8081922514
 20
24.2475326385
 10
-21.8080363485
 20
24.2571875082
 10
-21.8075492546
 20
24.2673798417
 10
-21.8067029241
 20
24.2781071116
 10
-21.8054668897
 20
24.2893846016
 10
-21.8038149991
 20
24.3011794001
 10
-21.80173292
 20
24.3134063896
 10
-21.7992016656
 20
24.3260411186
 10
-21.7962039141
 20
24.3390541405
 10
-21.7927431519
 20
24.3523409037
 10
-21.7888122575
 20
24.3658613808
 10
-21.7844062406
 20
24.3795722075
 10
-21.7795478177
 20
24.3933568415
 10
-21.7742451823
 20
24.4071593963
 10
-21.7685041581
 20
24.4209346526
 10
-21.7623575644
 20
24.434580973
 10
-21.7558245979
 20
24.4480396493
 10
-21.7489208842
 20
24.4612634268
 10
-21.7416830083
 20
24.4741709034
 10
-21.7341355947
 20
24.4867096178
 10
-21.7263034492
 20
24.4988302498
 10
-21.718229244
 20
24.5104619167
 10
-21.7099422527
 20
24.5215592562
 10
-21.7014729575
 20
24.5320783965
 10
-21.6928695673
 20
24.5419595063
 10
-21.684170299
 20
24.5511612539
 10
-21.675402261
 20
24.5596570472
 10
-21.6665982746
 20
24.5674166403
  0
LWPOLYLINE
  5
2A2
100
AcDbEntity
  8
ASSI
100
AcDbPolyline
 62
253
  6
CONTINUOUS
 90
16
 70
0
 10
-24.199826074
 20
25.2081095487
 10
-24.1990602112
 20
25.2298907437
 10
-24.196775708
 20
25.2527031532
 10
-24.1929960445
 20
25.276303402
 10
-24.187760729
 20
25.3004415264
 10
-24.1811249479
 20
25.3248573598
 10
-24.1731601018
 20
25.3492831775
 10
-24.1639529169
 20
25.3734554814
 10
-24.1536018062
 20
25.39711745
 10
-24.142216602
 20
25.4200153177
 10
-24.1299200437
 20
25.4419041754
 10
-24.1168443595
 20
25.4625495414
 10
-24.1031282322
 20
25.4817294352
 10
-24.0889186581
 20
25.4992383212
 10
-24.074369345
 20
25.514889271
 10
-24.059636957
 20
25.528514925
  0
LWPOLYLINE
  5
2A3
100
AcDbEntity
  8
ASSI
100
AcDbPolyline
 62
7
  6
CONTINUOUS
 90
3
 70
0
 10
-19.7018768355
 20
25.4239473662
 10
-19.6975851682
 20
25.4452013138
 10
-19.6949348019
 20
25.4664196099
  0
LWPOLYLINE
  5
2A4
100
AcDbEntity
  8
ASSI
100
AcDbPolyline
 62
253
  6
CONTINUOUS
 90
8
 70
0
 10
-7.4906522778
 20
23.7259970984
 10
-7.4717951252
 20
23.7435993778
 10
-7.4559365152
 20
23.7621447571
 10
-7.4432169278
 20
23.7814674134
 10
-7.4337490338
 20
23.8013932639
 10
-7.4276167427
 20
23.8217457498
 10
-7.4248744068
 20
23.8423474081
 10
-7.4247171481
 20
23.8486185738
  0
LWPOLYLINE
  5
2A5
100
AcDbEntity
  8
ASSI
100
AcDbPolyline
 62
253
  6
CONTINUOUS
 90
34
 70
0
 10
-7.6954090987
 20
24.0129888746
 10
-7.6887312603
 20
24.0191317074
 10
-7.6831824324
 20
24.025496704
 10
-7.6787626149
 20
24.0320838646
 10
-7.6754502583
 20
24.0389574242
 10
-7.6732669122
 20
24.0460531477
 10
-7.6722772251
 20
24.0531783296
 10
-7.672515065
 20
24.0603313948
 10
-7.673946564
 20
24.0675139184
 10
-7.6765347663
 20
24.0745379204
 10
-7.6803104405
 20
24.0813992106
 10
-7.6852428181
 20
24.0881019791
 10
-7.6912026376
 20
24.0944708161
 10
-7.6982169113
 20
24.1004969427
 10
-7.7062586269
 20
24.1061891377
 10
-7.7151174865
 20
24.1113983282
 10
-7.7248150902
 20
24.1161117836
 10
-7.7353298379
 20
24.1203422345
 10
-7.7463866307
 20
24.1239787991
 10
-7.7579998162
 20
24.1270058219
 10
-7.7701550468
 20
24.1294389584
 10
-7.7825341805
 20
24.1312142941
 10
-7.7951432055
 20
24.1323145059
 10
-7.8079761337
 20
24.1327569169
 10
-7.820696859
 20
24.1325295812
 10
-7.8333024815
 20
24.1316147612
 10
-7.8457959012
 20
24.1300301946
 10
-7.8578497117
 20
24.1278171488
 10
-7.8694526119
 20
24.1249589999
 10
-7.880615903
 20
24.1214723719
 10
-7.891046082
 20
24.1174484039
 10
-7.9006453148
 20
24.1129174757
 10
-7.9095114355
 20
24.1078492076
 10
-7.9176444443
 20
24.1022435996
  0
LINE
  5
2A6
100
AcDbEntity
  8
ASSI
100
AcDbLine
 62
7
  6
CONTINUOUS
 10
-10.6343882705
 20
20.0271688094
 11
-10.783921925
 21
19.8981981424
  0
LINE
  5
2A7
100
AcDbEntity
  8
ASSI
100
AcDbLine
 62
253
  6
CONTINUOUS
 10
-10.8391450914
 20
21.4200470356
 11
-7.6954090987
 21
24.0129888746
  0
LINE
  5
2A8
100
AcDbEntity
  8
ASSI
100
AcDbLine
 62
253
  6
CONTINUOUS
 10
-10.6343882705
 20
21.1330552594
 11
-7.4906522778
 21
23.7259970984
  0
LINE
  5
2A9
100
AcDbEntity
  8
ASSI
100
AcDbLine
 62
7
  6
CONTINUOUS
 10
-10.6343882705
 20
20.0271688094
 11
-7.4906522778
 21
22.6201106484
  0
LINE
  5
2AA
100
AcDbEntity
  8
ASSI
100
AcDbLine
 62
7
  6
CONTINUOUS
 10
-7.5371739246
 20
23.0356517319
 11
-8.449887798
 21
22.2844032218
  0
LINE
  5
2AB
100
AcDbEntity
  8
ASSI
100
AcDbLine
 62
253
  6
CONTINUOUS
 10
-10.9886787459
 20
21.2983591881
 11
-10.8391450914
 21
21.4200470356
  0
LINE
  5
2AC
100
AcDbEntity
  8
ASSI
100
AcDbLine
 62
253
  6
CONTINUOUS
 10
-10.783921925
 20
21.0113674118
 11
-10.6343882705
 21
21.1330552594
  0
LINE
  5
2AD
100
AcDbEntity
  8
ASSI
100
AcDbLine
 62
7
  6
CONTINUOUS
 10
-8.0720636919
 20
24.0939848304
 11
-10.7284361105
 21
22.0614929991
  0
LINE
  5
2AE
100
AcDbEntity
  8
ASSI
100
AcDbLine
 62
253
  6
CONTINUOUS
 10
-7.9176444443
 20
24.1022435996
 11
-10.6342494553
 21
22.023665515
  0
LWPOLYLINE
  5
2AF
100
AcDbEntity
  8
ASSI
100
AcDbPolyline
 62
7
  6
CONTINUOUS
 90
3
 70
0
 10
-7.8683485993
 20
21.1289395938
 10
-7.8870889113
 20
21.1174473022
 10
-7.8979797343
 20
21.1095867984
  0
LWPOLYLINE
  5
2B0
100
AcDbEntity
  8
ASSI
100
AcDbPolyline
 62
7
  6
CONTINUOUS
 90
4
 70
0
 10
-8.0029297917
 20
24.135565359
 10
-8.0349462315
 20
24.1188489075
 10
-8.0645413348
 20
24.0995826384
 10
-8.0720013973
 20
24.0940310603
  0
LWPOLYLINE
  5
2B1
100
AcDbEntity
  8
RACCORDO
100
AcDbPolyline
 62
253
  6
CONTINUOUS
 90
11
 70
0
 10
5.526479628
 20
-24.0175242651
 10
5.5267198937
 20
-24.0174732447
 10
5.5284421202
 20
-24.0141586532
 10
5.5300847122
 20
-24.0057015331
 10
5.5316306597
 20
-23.9921894615
 10
5.5330639539
 20
-23.9737623618
 10
5.5343697523
 20
-23.9506110548
 10
5.5355345329
 20
-23.9229752826
 10
5.5365462337
 20
-23.8911412258
 10
5.5373943783
 20
-23.85543854
 10
5.5380701837
 20
-23.8162369424
  0
LWPOLYLINE
  5
2B2
100
AcDbEntity
  8
RACCORDO
100
AcDbPolyline
 62
7
  6
CONTINUOUS
 90
11
 70
0
 10
5.5264785645
 20
-24.0175260497
 10
5.5547424339
 20
-24.0169335469
 10
5.6525299235
 20
-24.010706815
 10
5.7471399884
 20
-23.9984103125
 10
5.8385128798
 20
-23.980398423
 10
5.9263764632
 20
-23.9569696886
 10
6.0102380303
 20
-23.9285248023
 10
6.0897966069
 20
-23.8953599227
 10
6.1649894809
 20
-23.8576582404
 10
6.2356243459
 20
-23.8156638574
 10
6.3044561294
 20
-23.767292707
  0
LWPOLYLINE
  5
2B3
100
AcDbEntity
  8
RACCORDO
100
AcDbPolyline
 62
253
  6
CONTINUOUS
 90
3
 70
0
 10
5.5380702364
 20
-23.8162378517
 10
4.3996185612
 20
-23.8180084123
 10
3.2589665408
 20
-23.7969769498
  0
LWPOLYLINE
  5
2B4
100
AcDbEntity
  8
RACCORDO
100
AcDbPolyline
 62
253
  6
CONTINUOUS
 90
34
 70
0
 10
3.2589665408
 20
-23.7969769498
 10
2.1175684153
 20
-23.7530226511
 10
0.9765080334
 20
-23.6860165069
 10
-0.1623431747
 20
-23.5959201694
 10
-1.2963453148
 20
-23.4828655225
 10
-2.4239914337
 20
-23.3469321896
 10
-3.5438297379
 20
-23.1882170734
 10
-4.6533476507
 20
-23.0070604303
 10
-5.7508292054
 20
-22.8037497453
 10
-6.8351430136
 20
-22.5784962643
 10
-7.9047101416
 20
-22.3316462655
 10
-8.9580139266
 20
-22.0635667819
 10
-9.9938502002
 20
-21.7745781993
 10
-11.01113578
 20
-21.4649943875
 10
-12.0086497616
 20
-21.1351782681
 10
-12.9850006102
 20
-20.7855779832
 10
-13.9388773389
 20
-20.4166631076
 10
-14.8690480812
 20
-20.0289119116
 10
-15.7743103513
 20
-19.6228236708
 10
-16.653450297
 20
-19.1989429282
 10
-17.5052543235
 20
-18.7578679778
 10
-18.3287139446
 20
-18.3001313218
 10
-19.1229592224
 20
-17.8262036506
 10
-19.8870472077
 20
-17.3366275665
 10
-20.6198645228
 20
-16.8320920446
 10
-21.3203371624
 20
-16.3133143859
 10
-21.9877248242
 20
-15.780834059
 10
-22.6209754469
 20
-15.2354751003
 10
-23.2187240283
 20
-14.6784529873
 10
-23.7803083435
 20
-14.1105185259
 10
-24.3050871048
 20
-13.5324546292
 10
-24.7920101487
 20
-12.9456113538
 10
-25.240522548
 20
-12.3510012018
 10
-25.6504406117
 20
-11.7492615478
  0
LINE
  5
2B5
100
AcDbEntity
  8
ASSI
100
AcDbLine
 62
7
  6
CONTINUOUS
 10
11.8308861733
 20
-27.3212358167
 11
11.8730687557
 21
-27.3278724879
  0
LINE
  5
2B6
100
AcDbEntity
  8
ASSI
100
AcDbLine
 62
7
  6
CONTINUOUS
 10
11.7927536995
 20
-27.3150245273
 11
11.8308861733
 21
-27.3212358167
  0
LWPOLYLINE
  5
2B7
100
AcDbEntity
  8
ASSI
100
AcDbPolyline
 62
253
  6
CONTINUOUS
 90
13
 70
0
 10
11.2036351328
 20
-28.6752329405
 10
11.2257427742
 20
-28.6829402322
 10
11.2493999906
 20
-28.6889462017
 10
11.2742109331
 20
-28.6931503529
 10
11.2997604479
 20
-28.6954823392
 10
11.3256210229
 20
-28.6959031401
 10
11.3513599413
 20
-28.6944057145
 10
11.3765465215
 20
-28.6910151184
 10
11.4007593245
 20
-28.6857880855
 10
11.4235932048
 20
-28.6788120782
 10
11.4446660903
 20
-28.6702038238
 10
11.463625375
 20
-28.6601073616
 10
11.480153819
 20
-28.6486916325
  0
LWPOLYLINE
  5
2B8
100
AcDbEntity
  8
ASSI
100
AcDbPolyline
 62
253
  6
CONTINUOUS
 90
13
 70
0
 10
11.2036351328
 20
-28.3751362167
 10
11.2257427742
 20
-28.3828435084
 10
11.2493999906
 20
-28.3888494778
 10
11.2742109331
 20
-28.3930536291
 10
11.2997604479
 20
-28.3953856154
 10
11.3256210229
 20
-28.3958064163
 10
11.3513599412
 20
-28.3943089907
 10
11.3765465215
 20
-28.3909183946
 10
11.4007593244
 20
-28.3856913617
 10
11.4235932048
 20
-28.3787153544
 10
11.4446660903
 20
-28.3701071
 10
11.463625375
 20
-28.3600106378
 10
11.480153819
 20
-28.3485949087
  0
LWPOLYLINE
  5
2B9
100
AcDbEntity
  8
ASSI
100
AcDbPolyline
 62
7
  6
CONTINUOUS
 90
14
 70
0
 10
8.176467674
 20
-29.1899993792
 10
8.1996012988
 20
-29.1982007624
 10
8.2521665688
 20
-29.2133902212
 10
8.3061597181
 20
-29.2243053391
 10
8.3613508455
 20
-29.2308440463
 10
8.4177221262
 20
-29.2329103352
 10
8.4750523506
 20
-29.2303635608
 10
8.5329495906
 20
-29.2230953951
 10
8.5912309108
 20
-29.2110130942
 10
8.6496712877
 20
-29.1940499958
 10
8.7080389245
 20
-29.1721592326
 10
8.7663004228
 20
-29.1452136266
 10
8.8244056954
 20
-29.1130570552
 10
8.8853707278
 20
-29.0733810736
  0
LWPOLYLINE
  5
2BA
100
AcDbEntity
  8
ASSI
100
AcDbPolyline
 62
7
  6
CONTINUOUS
 90
12
 70
0
 10
11.2539060206
 20
-28.7897796059
 10
11.268192641
 20
-28.7949462458
 10
11.2891579943
 20
-28.8005209799
 10
11.3110868209
 20
-28.8039787219
 10
11.3336548535
 20
-28.8051323939
 10
11.3563772384
 20
-28.8038819238
 10
11.3789894428
 20
-28.8002122449
 10
11.4011665043
 20
-28.794164248
 10
11.4224202851
 20
-28.785926078
 10
11.442665574
 20
-28.7756233813
 10
11.4616511056
 20
-28.7634919801
 10
11.4687264165
 20
-28.7582823433
  0
LWPOLYLINE
  5
2BB
100
AcDbEntity
  8
ASSI
100
AcDbPolyline
 62
253
  6
CONTINUOUS
 90
9
 70
0
 10
-8.2392890026
 20
-22.436692144
 10
-7.3336528328
 20
-22.7978851144
 10
-5.3536231844
 20
-23.5814017376
 10
-3.317784867
 20
-24.3805057567
 10
-1.2269365154
 20
-25.1943980505
 10
0.9406290391
 20
-26.0309664235
 10
3.1926026877
 20
-26.8924215127
 10
5.5224651328
 20
-27.775460054
 10
7.9307998209
 20
-28.6795238356
  0
LINE
  5
2BC
100
AcDbEntity
  8
ASSI
100
AcDbLine
 62
7
  6
CONTINUOUS
 10
11.2541090287
 20
-28.7898616635
 11
10.0032865716
 21
-28.2875031656
  0
LINE
  5
2BD
100
AcDbEntity
  8
ASSI
100
AcDbLine
 62
253
  6
CONTINUOUS
 10
11.2036351328
 20
-28.6752329405
 11
10.0887072417
 21
-28.227452764
  0
LINE
  5
2BE
100
AcDbEntity
  8
ASSI
100
AcDbLine
 62
253
  6
CONTINUOUS
 10
11.2036351328
 20
-28.3751359956
 11
10.3603817808
 21
-28.0364666108
  0
LWPOLYLINE
  5
2BF
100
AcDbEntity
  8
ASSI
100
AcDbPolyline
 62
7
  6
CONTINUOUS
 90
7
 70
0
 10
-12.171372375
 20
-21.2580154516
 10
-11.7708965173
 20
-21.4213473823
 10
-7.8066919854
 20
-23.013479759
 10
-3.8212421772
 20
-24.5896322618
 10
0.1852118484
 20
-26.14971516
 10
4.2124226656
 20
-27.6936440607
 10
8.1768605641
 20
-29.1901486631
  0
LWPOLYLINE
  5
2C0
100
AcDbEntity
  8
ASSI
100
AcDbPolyline
 62
253
  6
CONTINUOUS
 90
16
 70
0
 10
11.253909932
 20
-28.7897812626
 10
11.2529289035
 20
-28.7893719574
 10
11.2466211932
 20
-28.7861846725
 10
11.2406435016
 20
-28.7821608234
 10
11.2350255999
 20
-28.7773042858
 10
11.2297913261
 20
-28.7716183412
 10
11.2249768054
 20
-28.7651264951
 10
11.220604227
 20
-28.7578463867
 10
11.2166934519
 20
-28.7497975814
 10
11.2132696099
 20
-28.7410207401
 10
11.2103471934
 20
-28.7315462493
 10
11.2079388737
 20
-28.7214075013
 10
11.2060586757
 20
-28.710661635
 10
11.2047131606
 20
-28.699357833
 10
11.2039047194
 20
-28.6875331123
 10
11.2036351328
 20
-28.6752329405
  0
LWPOLYLINE
  5
2C1
100
AcDbEntity
  8
ASSI
100
AcDbPolyline
 62
7
  6
CONTINUOUS
 90
4
 70
0
 10
-27.3253749159
 20
-14.931646177
 10
-23.5337123205
 20
-16.5500370491
 10
-19.6346319807
 20
-18.1895244367
 10
-15.8239313547
 20
-19.7676456337
  0
LWPOLYLINE
  5
2C2
100
AcDbEntity
  8
ASSI
100
AcDbPolyline
 62
253
  6
CONTINUOUS
 90
6
 70
0
 10
-27.5601077492
 20
-14.4255752082
 10
-25.7547791417
 20
-15.2009288663
 10
-23.9471203709
 20
-15.9716390248
 10
-22.1371713857
 20
-16.7377110514
 10
-20.3277474381
 20
-17.4979880071
 10
-19.019423738
 20
-18.0437151434
  0
LWPOLYLINE
  5
2C3
100
AcDbEntity
  8
ASSI
100
AcDbPolyline
 62
7
  6
CONTINUOUS
 90
16
 70
0
 10
-20.1775095865
 20
25.4163153108
 10
-20.178390639
 20
25.4336740728
 10
-20.1810495338
 20
25.4516267453
 10
-20.1854767809
 20
25.4699850446
 10
-20.1916684259
 20
25.4886218461
 10
-20.1995617965
 20
25.5072625003
 10
-20.2089760713
 20
25.5254926599
 10
-20.2196780134
 20
25.5429700627
 10
-20.2315961668
 20
25.5596748152
 10
-20.2447753438
 20
25.5756697273
 10
-20.2592243007
 20
25.5908868112
 10
-20.2746946771
 20
25.6049933115
 10
-20.2908451143
 20
25.6176716761
 10
-20.3074258863
 20
25.62875869
 10
-20.3243108485
 20
25.6381991281
 10
-20.3413150431
 20
25.6459087318
  0
LINE
  5
2C4
100
AcDbEntity
  8
ASSI
100
AcDbLine
 62
7
  6
CONTINUOUS
 10
-19.6939425832
 20
25.8108623103
 11
-19.6940419246
 21
25.8180264033
  0
LINE
  5
2C5
100
AcDbEntity
  8
ASSI
100
AcDbLine
 62
253
  6
CONTINUOUS
 10
-21.808192252
 20
23.9474336212
 11
-21.808192252
 21
24.2475326387
  0
LINE
  5
2C6
100
AcDbEntity
  8
ASSI
100
AcDbLine
 62
253
  6
CONTINUOUS
 10
-21.5316735659
 20
23.9739749292
 11
-21.5316735659
 21
24.2740716531
  0
LINE
  5
2C7
100
AcDbEntity
  8
ASSI
100
AcDbLine
 62
253
  6
CONTINUOUS
 10
-21.2605663872
 20
23.180175286
 11
-21.2605663872
 21
23.8112281559
  0
LINE
  5
2C8
100
AcDbEntity
  8
ASSI
100
AcDbLine
 62
253
  6
CONTINUOUS
 10
-20.9149180295
 20
23.9410601776
 11
-20.9149180295
 21
23.2238970982
  0
LINE
  5
2C9
100
AcDbEntity
  8
ASSI
100
AcDbLine
 62
7
  6
CONTINUOUS
 10
-20.1775095865
 20
23.8599014745
 11
-20.1775095865
 21
25.4163153108
  0
LINE
  5
2CA
100
AcDbEntity
  8
ASSI
100
AcDbLine
 62
253
  6
CONTINUOUS
 10
-19.7281349694
 20
25.7467089121
 11
-19.7281349694
 21
25.4251646601
  0
LINE
  5
2CB
100
AcDbEntity
  8
ASSI
100
AcDbLine
 62
7
  6
CONTINUOUS
 10
-19.6939424839
 20
25.8108568867
 11
-19.6939424839
 21
25.4893126347
  0
LWPOLYLINE
  5
2CC
100
AcDbEntity
  8
ASSI
100
AcDbPolyline
 62
253
  6
CONTINUOUS
 90
22
 70
0
 10
-19.7281349694
 20
25.4251646601
 10
-19.728152211
 20
25.423454286
 10
-19.7282275242
 20
25.4216582622
 10
-19.7283609088
 20
25.4197765885
 10
-19.728549294
 20
25.4178043225
 10
-19.7287957507
 20
25.4157464066
 10
-19.7291094917
 20
25.4136176685
 10
-19.7294919614
 20
25.4114158151
 10
-19.7299417154
 20
25.4091431394
 10
-19.7304636335
 20
25.4068213476
 10
-19.7310594225
 20
25.404448565
 10
-19.7317273754
 20
25.4020266663
 10
-19.7324672516
 20
25.3995829813
 10
-19.7332808289
 20
25.3971163648
 10
-19.7341663293
 20
25.3946279619
 10
-19.7351181785
 20
25.3921485384
 10
-19.7361380193
 20
25.3896778857
 10
-19.7372242088
 20
25.3872162124
 10
-19.738366244
 20
25.3847949095
 10
-19.7395606241
 20
25.3824244408
 10
-19.7408108499
 20
25.3800943426
 10
-19.7421169215
 20
25.3778046149
  0
LWPOLYLINE
  5
2CD
100
AcDbEntity
  8
ASSI
100
AcDbPolyline
 62
253
  6
CONTINUOUS
 90
28
 70
0
 10
-21.5316735659
 20
24.2740716531
 10
-21.5316511682
 20
24.2760053891
 10
-21.5315498662
 20
24.2780434397
 10
-21.5313696601
 20
24.2801858049
 10
-21.5311146176
 20
24.2824405825
 10
-21.530780671
 20
24.2847996747
 10
-21.5303556161
 20
24.287238788
 10
-21.5298367823
 20
24.2897613517
 10
-21.5292268403
 20
24.2923639365
 10
-21.5285215991
 20
24.2950119613
 10
-21.5277180669
 20
24.297707756
 10
-21.5268192356
 20
24.3004489906
 10
-21.5258298891
 20
24.3031940938
 10
-21.5247477659
 20
24.3059428159
 10
-21.5235751276
 20
24.3086954065
 10
-21.5223235429
 20
24.3114110437
 10
-21.520991541
 20
24.3140884049
 10
-21.5195805927
 20
24.3167288128
 10
-21.5181066789
 20
24.3192954136
 10
-21.5165685323
 20
24.3217869396
 10
-21.5149674203
 20
24.3242046585
 10
-21.5133231253
 20
24.3265155201
 10
-21.5116347329
 20
24.3287176696
 10
-21.5099031575
 20
24.3308129618
 10
-21.5081509257
 20
24.3327739114
 10
-21.5063855463
 20
24.3345913567
 10
-21.5045995103
 20
24.3362744593
 10
-21.502792818
 20
24.3378232193
  0
LWPOLYLINE
  5
2CE
100
AcDbEntity
  8
ASSI
100
AcDbPolyline
 62
253
  6
CONTINUOUS
 90
16
 70
0
 10
-18.0032358888
 20
23.7388098473
 10
-18.0024602383
 20
23.7607167572
 10
-18.0001423422
 20
23.7836523842
 10
-17.9963082529
 20
23.8073681209
 10
-17.991003954
 20
23.8315927122
 10
-17.9842857928
 20
23.8560783361
 10
-17.9762116246
 20
23.8806042391
 10
-17.9668410881
 20
23.9049567752
 10
-17.9562868053
 20
23.9288150959
 10
-17.9447162184
 20
23.9518083886
 10
-17.9322765416
 20
23.9736755043
 10
-17.9190995987
 20
23.9942136994
 10
-17.9053607261
 20
24.0131805641
 10
-17.8912235774
 20
24.0303886075
 10
-17.8768337494
 20
24.0456975433
 10
-17.862344352
 20
24.0589782586
  0
LINE
  5
2CF
100
AcDbEntity
  8
ASSI
100
AcDbLine
 62
7
  6
CONTINUOUS
 10
-19.6949348019
 20
25.4664196099
 11
-19.6939424861
 21
25.4893297748
  0
LWPOLYLINE
  5
2D0
100
AcDbEntity
  8
ASSI
100
AcDbPolyline
 62
253
  6
CONTINUOUS
 90
6
 70
0
 10
-19.6939424839
 20
25.8108568867
 10
-19.6945142151
 20
25.8021891312
 10
-19.6981333894
 20
25.7874960647
 10
-19.7050289764
 20
25.7731938876
 10
-19.7150855945
 20
25.7595219138
 10
-19.7281349694
 20
25.7467089121
  0
LWPOLYLINE
  5
2D1
100
AcDbEntity
  8
ASSI
100
AcDbPolyline
 62
253
  6
CONTINUOUS
 90
6
 70
0
 10
-19.6939424839
 20
25.4893126347
 10
-19.6945142151
 20
25.4806448792
 10
-19.6981333894
 20
25.4659518127
 10
-19.7050289764
 20
25.4516496356
 10
-19.7150855945
 20
25.4379776618
 10
-19.7281349694
 20
25.4251646601
  0
LWPOLYLINE
  5
2D2
100
AcDbEntity
  8
RACCORDO
100
AcDbPolyline
 62
253
  6
CONTINUOUS
 90
7
 70
0
 10
-17.8928923726
 20
8.2966133363
 10
-17.8888296609
 20
8.3084326167
 10
-17.8786185572
 20
8.329800043
 10
-17.8658369168
 20
8.3505330548
 10
-17.8505552157
 20
8.3705020131
 10
-17.8327029778
 20
8.3898365569
 10
-17.8122802032
 20
8.4085366863
  0
LINE
  5
2D3
100
AcDbEntity
  8
RACCORDO
100
AcDbLine
 62
253
  6
CONTINUOUS
 10
-18.3924939207
 20
8.7448059406
 11
-18.3801813616
 21
8.7804865542
  0
LWPOLYLINE
  5
2D4
100
AcDbEntity
  8
RACCORDO
100
AcDbPolyline
 62
253
  6
CONTINUOUS
 90
3
 70
0
 10
-18.3801813616
 20
8.7804865542
 10
-18.3599461518
 20
8.8224879548
 10
-18.3343374892
 20
8.8635104731
  0
LWPOLYLINE
  5
2D5
100
AcDbEntity
  8
ASSI
100
AcDbPolyline
 62
7
  6
CONTINUOUS
 90
13
 70
0
 10
-10.6343882705
 20
20.5039603958
 10
-10.6219409482
 20
20.5274516939
 10
-10.6117420479
 20
20.5523518429
 10
-10.6037915699
 20
20.5786608428
 10
-10.5980715137
 20
20.6065400758
 10
-10.5945998797
 20
20.6358281597
 10
-10.5934306683
 20
20.6660409484
 10
-10.5945998797
 20
20.6971929004
 10
-10.5980715137
 20
20.7292695573
 10
-10.6037915699
 20
20.7617433972
 10
-10.6117420479
 20
20.7944385797
 10
-10.6219409482
 20
20.8275309452
 10
-10.6343882705
 20
20.8610204938
  0
LWPOLYLINE
  5
2D6
100
AcDbEntity
  8
RACCORDO
100
AcDbPolyline
 62
253
  6
CONTINUOUS
 90
4
 70
0
 10
-18.3343374892
 20
8.8635104731
 10
-18.3034998712
 20
8.9033225087
 10
-18.2676070363
 20
8.9417053359
 10
-18.2268613699
 20
8.9784453178
  0
LWPOLYLINE
  5
2D7
100
AcDbEntity
  8
ASSI
100
AcDbPolyline
 62
253
  6
CONTINUOUS
 90
27
 70
0
 10
-9.4852611498
 20
19.6667259614
 10
-9.491984318
 20
19.6603367014
 10
-9.4988823043
 20
19.6532997576
 10
-9.5059481619
 20
19.6455753141
 10
-9.5131439157
 20
19.6371564881
 10
-9.5204021507
 20
19.6280787456
 10
-9.5276947284
 20
19.6183365332
 10
-9.5349906207
 20
19.6079289666
 10
-9.5422185219
 20
19.5969200442
 10
-9.5493459072
 20
19.5853248502
 10
-9.5563387362
 20
19.5731627007
 10
-9.5631278032
 20
19.5605235109
 10
-9.5696787205
 20
19.5474453483
 10
-9.5759613301
 20
19.5339608943
 10
-9.5819203429
 20
19.5201662498
 10
-9.5875247699
 20
19.5061151584
 10
-9.5927502996
 20
19.4918490508
 10
-9.5975597822
 20
19.4774529644
 10
-9.6019301025
 20
19.4629822703
 10
-9.6058408712
 20
19.4484889289
 10
-9.6092667587
 20
19.4340551158
 10
-9.6121926528
 20
19.4197356006
 10
-9.6146049893
 20
19.4055858473
 10
-9.6164892465
 20
19.3916874684
 10
-9.6178383413
 20
19.3781016847
 10
-9.6186492486
 20
19.3648705315
 10
-9.6189196649
 20
19.3520436733
  0
LWPOLYLINE
  5
2D8
100
AcDbEntity
  8
ASSI
100
AcDbPolyline
 62
7
  6
CONTINUOUS
 90
18
 70
0
 10
-7.5369638383
 20
23.0359072958
 10
-7.5153736501
 20
23.0562600728
 10
-7.4976543501
 20
23.0779016973
 10
-7.4823594903
 20
23.1021496976
 10
-7.4695801496
 20
23.128813832
 10
-7.4595895637
 20
23.1573233755
 10
-7.4524479525
 20
23.1877174868
 10
-7.4480950962
 20
23.2199570072
 10
-7.4466235715
 20
23.2533537353
 10
-7.4480950962
 20
23.2879324585
 10
-7.4524479525
 20
23.3236683894
 10
-7.4595895637
 20
23.3597989648
 10
-7.4695801496
 20
23.3963333973
 10
-7.4823594903
 20
23.4332624744
 10
-7.4976543501
 20
23.4697959957
 10
-7.5153736501
 20
23.5056705609
 10
-7.5356084692
 20
23.5411495704
 10
-7.5583588072
 20
23.576233024
  0
LWPOLYLINE
  5
2D9
100
AcDbEntity
  8
ASSI
100
AcDbPolyline
 62
7
  6
CONTINUOUS
 90
14
 70
0
 10
-9.6085216645
 20
19.6607631893
 10
-9.6215464316
 20
19.6484937243
 10
-9.6349413723
 20
19.6338551079
 10
-9.6472825266
 20
19.6181518388
 10
-9.6585365148
 20
19.6014880515
 10
-9.6684971414
 20
19.5842951097
 10
-9.6773587128
 20
19.5663487483
 10
-9.685149636
 20
19.547548168
 10
-9.6915955123
 20
19.5285694599
 10
-9.6967675023
 20
19.5092755418
 10
-9.7006802364
 20
19.4893933116
 10
-9.703163856
 20
19.4694552145
 10
-9.7041803867
 20
19.4495477179
 10
-9.7042042999
 20
19.4459679281
  0
LWPOLYLINE
  5
2DA
100
AcDbEntity
  8
RACCORDO
100
AcDbPolyline
 62
253
  6
CONTINUOUS
 90
8
 70
0
 10
-5.0938871783
 20
20.9543523573
 10
-5.0887116075
 20
20.9591415165
 10
-5.0747951038
 20
20.975006506
 10
-5.0632537122
 20
20.9931158117
 10
-5.0542138338
 20
21.0132711011
 10
-5.0477744728
 20
21.0352516341
 10
-5.044006153
 20
21.0588166809
 10
-5.042950145
 20
21.0837081578
  0
LWPOLYLINE
  5
2DB
100
AcDbEntity
  8
RACCORDO
100
AcDbPolyline
 62
253
  6
CONTINUOUS
 90
11
 70
0
 10
-5.042950145
 20
21.7041902637
 10
-5.008517126
 20
21.7349207733
 10
-4.9777003697
 20
21.7668722587
 10
-4.9506289121
 20
21.7999080176
 10
-4.9274160868
 20
21.8338841234
 10
-4.9081591051
 20
21.8686581908
 10
-4.8929386191
 20
21.9040899776
 10
-4.881818317
 20
21.9400285986
 10
-4.8748447127
 20
21.9763207064
 10
-4.8720469564
 20
22.012819302
 10
-4.8719877175
 20
22.0189670334
  0
LWPOLYLINE
  5
2DC
100
AcDbEntity
  8
RACCORDO
100
AcDbPolyline
 62
253
  6
CONTINUOUS
 90
21
 70
0
 10
-5.2477069658
 20
21.99118204
 10
-5.2218243993
 20
22.0141315534
 10
-5.1987993514
 20
22.0378159648
 10
-5.1786318223
 20
22.0622352741
 10
-5.1612514818
 20
22.0875055158
 10
-5.1467286599
 20
22.1135106553
 10
-5.1352743473
 20
22.1399025898
 10
-5.1269357319
 20
22.1666779569
 10
-5.1216656257
 20
22.1938401188
 10
-5.1195334546
 20
22.2210510594
 10
-5.1205785997
 20
22.2483117956
 10
-5.1247616799
 20
22.2756213105
 10
-5.1320339778
 20
22.3026385372
 10
-5.1424362828
 20
22.3293620999
 10
-5.1559278054
 20
22.3557933745
 10
-5.1723374595
 20
22.3815954208
 10
-5.1917027071
 20
22.4067582872
 10
-5.2139860862
 20
22.4312919254
 10
-5.2389041246
 20
22.4548892505
 10
-5.2665056812
 20
22.4775446192
 10
-5.2967418971
 20
22.4992636748
  0
LINE
  5
2DD
100
AcDbEntity
  8
ASSI
100
AcDbLine
 62
7
  6
CONTINUOUS
 10
-8.3469175541
 20
20.765837391
 11
-9.6085084676
 21
19.6607748801
  0
LINE
  5
2DE
100
AcDbEntity
  8
ASSI
100
AcDbLine
 62
253
  6
CONTINUOUS
 10
-8.217914692
 20
20.7768778351
 11
-9.4852611498
 21
19.6667259614
  0
LINE
  5
2DF
100
AcDbEntity
  8
RACCORDO
100
AcDbLine
 62
253
  6
CONTINUOUS
 10
-5.042950145
 20
21.0837081578
 11
-5.8280040231
 21
20.3960576678
  0
LINE
  5
2E0
100
AcDbEntity
  8
RACCORDO
100
AcDbLine
 62
7
  6
CONTINUOUS
 10
-5.0938871783
 20
20.9543523573
 11
-5.7616749453
 21
20.3694184149
  0
LINE
  5
2E1
100
AcDbEntity
  8
RACCORDO
100
AcDbLine
 62
253
  6
CONTINUOUS
 10
-6.7383761199
 20
20.7616836258
 11
-5.2477069658
 21
21.99118204
  0
LINE
  5
2E2
100
AcDbEntity
  8
RACCORDO
100
AcDbLine
 62
253
  6
CONTINUOUS
 10
-6.3666642489
 20
20.6123957583
 11
-5.042950145
 21
21.7041902637
  0
LINE
  5
2E3
100
AcDbEntity
  8
ASSI
100
AcDbLine
 62
253
  6
CONTINUOUS
 10
-5.3384791521
 20
20.1378939033
 11
-5.7604086548
 21
19.7898880074
  0
LINE
  5
2E4
100
AcDbEntity
  8
ASSI
100
AcDbLine
 62
7
  6
CONTINUOUS
 10
-8.3468789594
 20
20.7658712009
 11
-8.3422578737
 21
20.7696527413
  0
LINE
  5
2E5
100
AcDbEntity
  8
ASSI
100
AcDbLine
 62
253
  6
CONTINUOUS
 10
-5.7604086548
 20
19.7898880074
 11
-7.0856918863
 21
18.7113959159
  0
LINE
  5
2E6
100
AcDbEntity
  8
ASSI
100
AcDbLine
 62
7
  6
CONTINUOUS
 10
-7.8979790415
 20
21.1095874297
 11
-8.3422647561
 21
20.7696474878
  0
LINE
  5
2E7
100
AcDbEntity
  8
ASSI
100
AcDbLine
 62
253
  6
CONTINUOUS
 10
-7.7744436432
 20
21.1161944451
 11
-8.217914692
 21
20.7768778351
  0
LINE
  5
2E8
100
AcDbEntity
  8
ASSI
100
AcDbLine
 62
253
  6
CONTINUOUS
 10
-5.1717665137
 20
19.9104595103
 11
-5.1747044478
 21
19.9082751178
  0
LWPOLYLINE
  5
2E9
100
AcDbEntity
  8
ASSI
100
AcDbPolyline
 62
7
  6
CONTINUOUS
 90
5
 70
0
 10
-8.3422578737
 20
20.7696527413
 10
-8.3395517218
 20
20.7716425768
 10
-8.3276335683
 20
20.7787741312
 10
-8.3144543914
 20
20.78418387
 10
-8.3000054344
 20
20.7877973074
  0
LWPOLYLINE
  5
2EA
100
AcDbEntity
  8
RACCORDO
100
AcDbPolyline
 62
253
  6
CONTINUOUS
 90
8
 70
0
 10
-5.439302818
 20
22.5735850688
 10
-5.4244956591
 20
22.5842480163
 10
-5.409873962
 20
22.5925809261
 10
-5.395594388
 20
22.5984945168
 10
-5.3818099329
 20
22.6019254285
 10
-5.3686682875
 20
22.6028369012
 10
-5.3563102555
 20
22.6012191691
 10
-5.3487277373
 20
22.598805229
  0
LWPOLYLINE
  5
2EB
100
AcDbEntity
  8
ASSI
100
AcDbPolyline
 62
253
  6
CONTINUOUS
 90
13
 70
0
 10
-6.9507671775
 20
18.4180509287
 10
-6.9672956215
 20
18.4066351996
 10
-6.9862549062
 20
18.3965387373
 10
-7.0073277917
 20
18.387930483
 10
-7.030161672
 20
18.3809544756
 10
-7.054374475
 20
18.3757274427
 10
-7.0795610552
 20
18.3723368466
 10
-7.1052999736
 20
18.370839421
 10
-7.1311605486
 20
18.3712602219
 10
-7.1567100634
 20
18.3735922082
 10
-7.1815210059
 20
18.3777963595
 10
-7.2051782223
 20
18.383802329
 10
-7.2272858637
 20
18.3915096206
  0
LWPOLYLINE
  5
2EC
100
AcDbEntity
  8
ASSI
100
AcDbPolyline
 62
253
  6
CONTINUOUS
 90
13
 70
0
 10
-6.9507671775
 20
18.1179542048
 10
-6.9672955489
 20
18.1065385033
 10
-6.9862547572
 20
18.0964420531
 10
-7.0073275712
 20
18.0878337967
 10
-7.0301613917
 20
18.0808577761
 10
-7.0543741527
 20
18.0756307219
 10
-7.079560714
 20
18.0722401006
 10
-7.1052996395
 20
18.070742651
 10
-7.1311602474
 20
18.0711634336
 10
-7.1567098166
 20
18.0734954118
 10
-7.1815208309
 20
18.0776995688
 10
-7.2051781318
 20
18.0837055616
 10
-7.2272858637
 20
18.0914128969
  0
LWPOLYLINE
  5
2ED
100
AcDbEntity
  8
ASSI
100
AcDbPolyline
 62
253
  6
CONTINUOUS
 90
3
 70
0
 10
13.1823728178
 20
-26.624758973
 10
13.1717618574
 20
-26.6217467321
 10
13.1612688554
 20
-26.6208107036
  0
LINE
  5
2EE
100
AcDbEntity
  8
RACCORDO
100
AcDbLine
 62
253
  6
CONTINUOUS
 10
6.0784757894
 20
-23.9549107619
 11
6.0090609761
 21
-23.9289240456
  0
LINE
  5
2EF
100
AcDbEntity
  8
RACCORDO
100
AcDbLine
 62
253
  6
CONTINUOUS
 10
5.8107920502
 20
-24.6150875094
 11
4.2077481524
 21
-24.0152391436
  0
LWPOLYLINE
  5
2F0
100
AcDbEntity
  8
RACCORDO
100
AcDbPolyline
 62
253
  6
CONTINUOUS
 90
14
 70
0
 10
-26.9486256986
 20
-10.2260643543
 10
-26.9047412702
 20
-10.2430558915
 10
-26.857961379
 20
-10.2571445171
 10
-26.8088114816
 20
-10.26817198
 10
-26.7578436558
 20
-10.276014414
 10
-26.7056303996
 20
-10.2805837286
 10
-26.6527581999
 20
-10.2818285988
 10
-26.5998209455
 20
-10.2797350417
 10
-26.5474132559
 20
-10.2743265731
 10
-26.4961238021
 20
-10.2656639439
 10
-26.4465286948
 20
-10.2538444573
 10
-26.3991850124
 20
-10.2390008761
 10
-26.3546245445
 20
-10.2212999314
 10
-26.3133478181
 20
-10.2009404495
  0
LINE
  5
2F1
100
AcDbEntity
  8
ASSI
100
AcDbLine
 62
253
  6
CONTINUOUS
 10
11.2756896462
 20
-28.1391973714
 11
10.6001726844
 21
-27.8678945304
  0
LINE
  5
2F2
100
AcDbEntity
  8
ASSI
100
AcDbLine
 62
7
  6
CONTINUOUS
 10
11.5294544846
 20
-27.214613009
 11
11.7512609977
 21
-27.3036955052
  0
LINE
  5
2F3
100
AcDbEntity
  8
ASSI
100
AcDbLine
 62
253
  6
CONTINUOUS
 10
12.8343177984
 20
-26.4895009461
 11
13.1612686865
 21
-26.6208106351
  0
LINE
  5
2F4
100
AcDbEntity
  8
ASSI
100
AcDbLine
 62
7
  6
CONTINUOUS
 10
13.1826272065
 20
-26.6248603966
 11
12.8343177984
 21
-26.4849714858
  0
LWPOLYLINE
  5
2F5
100
AcDbEntity
  8
RACCORDO
100
AcDbPolyline
 62
253
  6
CONTINUOUS
 90
11
 70
0
 10
7.0422864303
 20
-23.877575559
 10
6.9993640101
 20
-23.8597044359
 10
6.9599703374
 20
-23.8391846671
 10
6.9245479169
 20
-23.816246749
 10
6.8934946448
 20
-23.7911483406
 10
6.8671593389
 20
-23.7641713697
 10
6.8458378207
 20
-23.7356188656
 10
6.8297695926
 20
-23.7058115554
 10
6.8191351472
 20
-23.6750842612
 10
6.8140539399
 20
-23.6437821395
 10
6.8136380804
 20
-23.6350688589
  0
LINE
  5
2F6
100
AcDbEntity
  8
RACCORDO
100
AcDbLine
 62
253
  6
CONTINUOUS
 10
-25.5104760791
 20
-12.0417993634
 11
-25.7201464927
 21
-11.9515517422
  0
LWPOLYLINE
  5
2F7
100
AcDbEntity
  8
ASSI
100
AcDbPolyline
 62
253
  6
CONTINUOUS
 90
13
 70
0
 10
11.2756896462
 20
-28.1391973714
 10
11.2972436114
 20
-28.1488605686
 10
11.3194034094
 20
-28.1599659984
 10
11.3417940751
 20
-28.1723257462
 10
11.3640367368
 20
-28.1857306732
 10
11.385755027
 20
-28.1999539549
 10
11.4065814515
 20
-28.2147549199
 10
11.4261636068
 20
-28.2298831214
 10
11.4441701441
 20
-28.2450825756
 10
11.4602963754
 20
-28.2600960932
 10
11.4742694292
 20
-28.2746696308
 10
11.4858528679
 20
-28.2885565901
 10
11.4948506887
 20
-28.3015219904
  0
LWPOLYLINE
  5
2F8
100
AcDbEntity
  8
RACCORDO
100
AcDbPolyline
 62
253
  6
CONTINUOUS
 90
28
 70
0
 10
-25.7201464927
 20
-11.9515517422
 10
-25.7901170257
 20
-11.9192963276
 10
-25.8595717097
 20
-11.8832818744
 10
-25.9285101274
 20
-11.8435080166
 10
-25.9971999673
 20
-11.7997927644
 10
-26.0653723702
 20
-11.752317089
 10
-26.1322223
 20
-11.7016252173
 10
-26.1976911034
 20
-11.647708409
 10
-26.2618365303
 20
-11.5905745626
 10
-26.3240286842
 20
-11.5307932839
 10
-26.3842448322
 20
-11.4683463888
 10
-26.4425070122
 20
-11.4032513684
 10
-26.4982530212
 20
-11.3361317751
 10
-26.5514780777
 20
-11.2669389758
 10
-26.6021865496
 20
-11.1957211333
 10
-26.6498305694
 20
-11.1232474974
 10
-26.6943587081
 20
-11.0495364204
 10
-26.7358224247
 20
-10.9745694528
 10
-26.7738288056
 20
-10.8990611627
 10
-26.8083515838
 20
-10.8230049529
 10
-26.8394173738
 20
-10.7464076059
 10
-26.8667131504
 20
-10.6700042417
 10
-26.8902122416
 20
-10.5937098025
 10
-26.909941924
 20
-10.5176097734
 10
-26.9256707301
 20
-10.4426956384
 10
-26.9373220249
 20
-10.3692983193
 10
-26.9449735492
 20
-10.2970877849
 10
-26.9486256927
 20
-10.2260643496
  0
LWPOLYLINE
  5
2F9
100
AcDbEntity
  8
ASSI
100
AcDbPolyline
 62
7
  6
CONTINUOUS
 90
12
 70
0
 10
-19.6940419246
 20
25.8180264033
 10
-19.695764765
 20
25.8412379696
 10
-19.6998050195
 20
25.8646940311
 10
-19.7062275087
 20
25.8876904077
 10
-19.7149797245
 20
25.9097799465
 10
-19.7260995951
 20
25.930896913
 10
-19.7394994886
 20
25.9507218677
 10
-19.7549962363
 20
25.9689152174
 10
-19.7724147463
 20
25.9852457353
 10
-19.7915630765
 20
25.9995164289
 10
-19.8121721928
 20
26.0115196098
 10
-19.8291743236
 20
26.0192432031
  0
LINE
  5
2FA
100
AcDbEntity
  8
RACCORDO
100
AcDbLine
 62
253
  6
CONTINUOUS
 10
-18.2268613699
 20
9.183170939
 11
-18.2268613699
 21
8.9784453178
  0
LINE
  5
2FB
100
AcDbEntity
  8
ASSI
100
AcDbLine
 62
7
  6
CONTINUOUS
 10
-18.1098417797
 20
23.8562714249
 11
-18.1098417797
 21
22.7371550573
  0
LINE
  5
2FC
100
AcDbEntity
  8
ASSI
100
AcDbLine
 62
253
  6
CONTINUOUS
 10
-18.0032358888
 20
23.7388098473
 11
-18.0032358888
 21
22.6150954008
  0
LINE
  5
2FD
100
AcDbEntity
  8
RACCORDO
100
AcDbLine
 62
253
  6
CONTINUOUS
 10
-15.7964061923
 20
11.1056606365
 11
-15.7964061923
 21
11.0299450433
  0
LWPOLYLINE
  5
2FE
100
AcDbEntity
  8
ASSI
100
AcDbPolyline
 62
253
  6
CONTINUOUS
 90
16
 70
0
 10
-15.4301185152
 20
22.7053879006
 10
-15.4293428648
 20
22.7272948099
 10
-15.4270249688
 20
22.7502304367
 10
-15.4231908795
 20
22.7739461733
 10
-15.4178865805
 20
22.7981707653
 10
-15.4111684191
 20
22.8226563901
 10
-15.4030942505
 20
22.8471822938
 10
-15.393723714
 20
22.8715348299
 10
-15.3831694313
 20
22.8953931502
 10
-15.3715988446
 20
22.9183864424
 10
-15.3591591682
 20
22.9402535574
 10
-15.3459822258
 20
22.9607917516
 10
-15.3322433535
 20
22.979758616
 10
-15.3181062049
 20
22.9969666596
 10
-15.3037163765
 20
23.0122755959
 10
-15.2892269784
 20
23.0255563118
  0
LWPOLYLINE
  5
2FF
100
AcDbEntity
  8
ASSI
100
AcDbPolyline
 62
7
  6
CONTINUOUS
 90
11
 70
0
 10
-6.3340116411
 20
18.0850394532
 10
-6.3537238944
 20
18.0600407244
 10
-6.3756901882
 20
18.0370262913
 10
-6.399594269
 20
18.0163592201
 10
-6.4251162962
 20
17.9983738145
 10
-6.4518582625
 20
17.9832551645
 10
-6.4793885991
 20
17.9710978334
 10
-6.5074268758
 20
17.962027242
 10
-6.5355342939
 20
17.9562133538
 10
-6.5630451656
 20
17.9537090898
 10
-6.5739137755
 20
17.9536184818
  0
LWPOLYLINE
  5
300
100
AcDbEntity
  8
ASSI
100
AcDbPolyline
 62
253
  6
CONTINUOUS
 90
6
 70
0
 10
-5.147228581
 20
19.8906881877
 10
-5.1341792357
 20
19.9035011766
 10
-5.1241226275
 20
19.9171731364
 10
-5.1172270341
 20
19.9314753008
 10
-5.1136078414
 20
19.9461683577
 10
-5.1130360956
 20
19.9548362201
  0
LWPOLYLINE
  5
301
100
AcDbEntity
  8
ASSI
100
AcDbPolyline
 62
253
  6
CONTINUOUS
 90
6
 70
0
 10
-5.147228581
 20
19.5691439357
 10
-5.1341792062
 20
19.5819569374
 10
-5.1241225881
 20
19.5956289112
 10
-5.1172270011
 20
19.6099310883
 10
-5.1136078268
 20
19.6246241548
 10
-5.1130360956
 20
19.6332919103
  0
LWPOLYLINE
  5
302
100
AcDbEntity
  8
ASSI
100
AcDbPolyline
 62
7
  6
CONTINUOUS
 90
13
 70
0
 10
-5.7585014186
 20
18.1145150591
 10
-5.7729001379
 20
18.1008450453
 10
-5.7862020073
 20
18.0860866473
 10
-5.7984638762
 20
18.070240269
 10
-5.8096477703
 20
18.0534177084
 10
-5.819530166
 20
18.0360678643
 10
-5.8283029818
 20
18.0179570945
 10
-5.8359955003
 20
17.9989809267
 10
-5.8423228811
 20
17.9798268581
 10
-5.8473584643
 20
17.9603640351
 10
-5.8511056327
 20
17.9403119101
 10
-5.853398467
 20
17.9201855188
 10
-5.8541890572
 20
17.8997342122
  0
LWPOLYLINE
  5
303
100
AcDbEntity
  8
RACCORDO
100
AcDbPolyline
 62
7
  6
CONTINUOUS
 90
5
 70
0
 10
-5.0938933767
 20
20.9543594214
 10
-5.0514208581
 20
20.9945087838
 10
-5.010886713
 20
21.0395608391
 10
-4.9752499394
 20
21.0868859077
 10
-4.9446760007
 20
21.1362202278
  0
LWPOLYLINE
  5
304
100
AcDbEntity
  8
RACCORDO
100
AcDbPolyline
 62
253
  6
CONTINUOUS
 90
11
 70
0
 10
-15.3818250256
 20
10.4600364117
 10
-15.3521152225
 20
10.4873225975
 10
-15.322779882
 20
10.5186862997
 10
-15.2941353414
 20
10.5537892598
 10
-15.2664871282
 20
10.5922578658
 10
-15.2401370517
 20
10.6336730237
 10
-15.2153781994
 20
10.6775712478
 10
-15.1924806876
 20
10.723465765
 10
-15.1716827171
 20
10.7708706612
 10
-15.1531996651
 20
10.8192911361
 10
-15.1472028658
 20
10.837661737
  0
LWPOLYLINE
  5
305
100
AcDbEntity
  8
ASSI
100
AcDbPolyline
 62
253
  6
CONTINUOUS
 90
16
 70
0
 10
-7.0856918863
 20
18.7113959159
 10
-7.100573787
 20
18.6978302362
 10
-7.1152678973
 20
18.6822374045
 10
-7.1296175545
 20
18.6647847942
 10
-7.1434705162
 20
18.6456599742
 10
-7.1566783316
 20
18.6250678644
 10
-7.1690979313
 20
18.6032285512
 10
-7.1805966576
 20
18.5803762781
 10
-7.191052184
 20
18.5567561691
 10
-7.2003515452
 20
18.532620763
 10
-7.208396075
 20
18.5082267423
 10
-7.2150992819
 20
18.4838377504
 10
-7.2203873902
 20
18.4597207143
 10
-7.2242044445
 20
18.4361355299
 10
-7.2265117467
 20
18.4133324194
 10
-7.2272858359
 20
18.3915547432
  0
LWPOLYLINE
  5
306
100
AcDbEntity
  8
ASSI
100
AcDbPolyline
 62
253
  6
CONTINUOUS
 90
16
 70
0
 10
-6.9218864296
 20
18.4818024949
 10
-6.9249724646
 20
18.4790520801
 10
-6.9279579874
 20
18.4759688913
 10
-6.9308429981
 20
18.4725529285
 10
-6.9336560777
 20
18.4687609199
 10
-6.9363686452
 20
18.4646361372
 10
-6.9388949574
 20
18.460308396
 10
-6.9412290465
 20
18.4557711014
 10
-6.9433768805
 20
18.4510308483
 10
-6.94527062
 20
18.4462372367
 10
-6.9469022527
 20
18.441388404
 10
-6.948279791
 20
18.4364862127
 10
-6.9493594328
 20
18.4316858508
 10
-6.9501265775
 20
18.4270390474
 10
-6.9505958258
 20
18.4224940734
 10
-6.9507671775
 20
18.4180509287
  0
LINE
  5
307
100
AcDbEntity
  8
ASSI
100
AcDbLine
 62
7
  6
CONTINUOUS
 10
-5.7584938596
 20
18.1145222168
 11
-4.4969029459
 21
19.2195847278
  0
LINE
  5
308
100
AcDbEntity
  8
ASSI
100
AcDbLine
 62
253
  6
CONTINUOUS
 10
-5.6287159605
 20
18.1262415374
 11
-4.3679000838
 21
19.2306251719
  0
LINE
  5
309
100
AcDbEntity
  8
ASSI
100
AcDbLine
 62
7
  6
CONTINUOUS
 10
-7.5218655102
 20
17.662403282
 11
-7.965336559
 21
17.2799157604
  0
LINE
  5
30A
100
AcDbEntity
  8
ASSI
100
AcDbLine
 62
7
  6
CONTINUOUS
 10
-5.8541897694
 20
17.7817159672
 11
-6.3340116411
 21
17.3678763738
  0
LINE
  5
30B
100
AcDbEntity
  8
DRAFT
100
AcDbLine
 62
7
  6
CONTINUOUS
 10
-18.2268613699
 20
9.183170939
 11
-15.898927874
 21
11.1481341161
  0
LINE
  5
30C
100
AcDbEntity
  8
RACCORDO
100
AcDbLine
 62
253
  6
CONTINUOUS
 10
-18.2268613699
 20
8.9784453178
 11
-15.7964061923
 21
11.0299450433
  0
LINE
  5
30D
100
AcDbEntity
  8
RACCORDO
100
AcDbLine
 62
253
  6
CONTINUOUS
 10
-17.8122802032
 20
8.4085366863
 11
-15.3818250256
 21
10.4600364117
  0
LINE
  5
30E
100
AcDbEntity
  8
ASSI
100
AcDbLine
 62
253
  6
CONTINUOUS
 10
-5.1747044478
 20
19.9082751178
 11
-5.5966031981
 21
19.5602945864
  0
LINE
  5
30F
100
AcDbEntity
  8
ASSI
100
AcDbLine
 62
7
  6
CONTINUOUS
 10
-4.492242675
 20
19.2234005619
 11
-4.4968641319
 21
19.2196187174
  0
LINE
  5
310
100
AcDbEntity
  8
ASSI
100
AcDbLine
 62
253
  6
CONTINUOUS
 10
-5.5966031981
 20
19.5602945864
 11
-6.9218864296
 21
18.4818024949
  0
LWPOLYLINE
  5
311
100
AcDbEntity
  8
ASSI
100
AcDbPolyline
 62
253
  6
CONTINUOUS
 90
14
 70
0
 10
-1.4884937064
 20
18.5916171479
 10
-1.4818594242
 20
18.5967043462
 10
-1.4750436064
 20
18.6014662368
 10
-1.4680645955
 20
18.6058481935
 10
-1.4609299806
 20
18.6098007679
 10
-1.453677972
 20
18.6132561634
 10
-1.4463757749
 20
18.6161402465
 10
-1.4390516941
 20
18.6184035381
 10
-1.4317366138
 20
18.6199966478
 10
-1.4245009144
 20
18.6208680089
 10
-1.4173767616
 20
18.6209820044
 10
-1.4103975289
 20
18.6203048977
 10
-1.4036308229
 20
18.6188144829
 10
-1.398323295
 20
18.6169979989
  0
LINE
  5
312
100
AcDbEntity
  8
ASSI
100
AcDbLine
 62
7
  6
CONTINUOUS
 10
-4.4922501479
 20
19.2233948246
 11
-4.047964446
 21
19.5633347568
  0
LINE
  5
313
100
AcDbEntity
  8
ASSI
100
AcDbLine
 62
253
  6
CONTINUOUS
 10
-4.3679000838
 20
19.2306251719
 11
-3.9243967039
 21
19.5699665198
  0
LWPOLYLINE
  5
314
100
AcDbEntity
  8
RACCORDO
100
AcDbPolyline
 62
253
  6
CONTINUOUS
 90
4
 70
0
 10
-15.7964061923
 20
11.0299450433
 10
-15.7641849602
 20
11.0536000791
 10
-15.7278293501
 20
11.0751937041
 10
-15.72553319
 20
11.0762988179
  0
LWPOLYLINE
  5
315
100
AcDbEntity
  8
ASSI
100
AcDbPolyline
 62
253
  6
CONTINUOUS
 90
8
 70
0
 10
-5.7584938596
 20
18.1145222168
 10
-5.7453551223
 20
18.124079474
 10
-5.7292225543
 20
18.1317574046
 10
-5.7113367141
 20
18.1365673719
 10
-5.6920035148
 20
18.1384271081
 10
-5.6715536247
 20
18.1373048049
 10
-5.6503368116
 20
18.1332196576
 10
-5.6287159605
 20
18.1262415374
  0
LWPOLYLINE
  5
316
100
AcDbEntity
  8
ASSI
100
AcDbPolyline
 62
253
  6
CONTINUOUS
 90
8
 70
0
 10
-3.9243973358
 20
19.5699667686
 10
-3.9095293155
 20
19.5805857371
 10
-3.894845552
 20
19.5888816141
 10
-3.8805025596
 20
19.5947636393
 10
-3.8666515933
 20
19.5981666816
 10
-3.8534425829
 20
19.5990519397
 10
-3.8410219643
 20
19.5974094284
 10
-3.8333072073
 20
19.5949424572
  0
LWPOLYLINE
  5
317
100
AcDbEntity
  8
ASSI
100
AcDbPolyline
 62
253
  6
CONTINUOUS
 90
8
 70
0
 10
-4.0479644656
 20
19.5633347418
 10
-4.0394109873
 20
19.5691373306
 10
-4.0233268711
 20
19.5767756979
 10
-4.0055854411
 20
19.581467458
 10
-3.9864901461
 20
19.5831323459
 10
-3.9663675879
 20
19.5817418736
 10
-3.9455619321
 20
19.5773198117
 10
-3.9244290346
 20
19.5699417823
  0
LWPOLYLINE
  5
318
100
AcDbEntity
  8
ASSI
100
AcDbPolyline
 62
7
  6
CONTINUOUS
 90
3
 70
0
 10
-4.021516651
 20
19.5809037538
 10
-4.0403972051
 20
19.5688948399
 10
-4.0479739466
 20
19.5633263436
  0
LINE
  5
319
100
AcDbEntity
  8
RACCORDO
100
AcDbLine
 62
7
  6
CONTINUOUS
 10
2.0341099123
 20
19.1630202904
 11
1.974328724
 21
19.1324651064
  0
LINE
  5
31A
100
AcDbEntity
  8
ASSI
100
AcDbLine
 62
253
  6
CONTINUOUS
 10
13.182233842
 20
-26.6309495651
 11
13.1612605925
 21
-26.6208106735
  0
LWPOLYLINE
  5
31B
100
AcDbEntity
  8
ASSI
100
AcDbPolyline
 62
253
  6
CONTINUOUS
 90
16
 70
0
 10
-15.0844701576
 20
22.7385645356
 10
-15.0858456766
 20
22.7602133086
 10
-15.089421214
 20
22.7825480739
 10
-15.0951576116
 20
22.8053242216
 10
-15.1029920463
 20
22.8282923115
 10
-15.1128387156
 20
22.8512007941
 10
-15.1245897745
 20
22.873798767
 10
-15.1381165211
 20
22.8958387338
 10
-15.1532708115
 20
22.9170793185
 10
-15.1698866784
 20
22.9372878994
 10
-15.1877821452
 20
22.9562431537
 10
-15.2067612208
 20
22.9737374844
 10
-15.2266160497
 20
22.989579297
 10
-15.2471291834
 20
23.0035950931
 10
-15.2680759624
 20
23.0156313716
 10
-15.2892269784
 20
23.0255563118
  0
LWPOLYLINE
  5
31C
100
AcDbEntity
  8
ASSI
100
AcDbPolyline
 62
7
  6
CONTINUOUS
 90
16
 70
0
 10
-14.934936503
 20
22.8602523831
 10
-14.9360378187
 20
22.8819508356
 10
-14.9393614372
 20
22.9043916762
 10
-14.9448954961
 20
22.9273395504
 10
-14.9526350523
 20
22.9506355522
 10
-14.9625017656
 20
22.97393637
 10
-14.974269609
 20
22.9967240695
 10
-14.9876470367
 20
23.0185708229
 10
-15.0025447285
 20
23.0394517636
 10
-15.0190186997
 20
23.0594454037
 10
-15.0370798958
 20
23.0784667587
 10
-15.0564178663
 20
23.096099884
 10
-15.0766059128
 20
23.1119478398
 10
-15.0973318778
 20
23.1258066071
 10
-15.1184380805
 20
23.1376071547
 10
-15.1396933239
 20
23.1472441594
  0
LWPOLYLINE
  5
31D
100
AcDbEntity
  8
ASSI
100
AcDbPolyline
 62
7
  6
CONTINUOUS
 90
18
 70
0
 10
-13.9226785265
 20
26.4585656768
 10
-13.9230330171
 20
26.4727707658
 10
-13.92628305
 20
26.5041536378
 10
-13.9329649656
 20
26.5353381946
 10
-13.9430754836
 20
26.5659368259
 10
-13.9565388505
 20
26.5955286669
 10
-13.9733077999
 20
26.623861161
 10
-13.9932990576
 20
26.6506617587
 10
-14.0162749397
 20
26.6755504166
 10
-14.0420181055
 20
26.6982714517
 10
-14.070556279
 20
26.7187855988
 10
-14.1015775606
 20
26.7368263729
 10
-14.1344741217
 20
26.7520800464
 10
-14.1694291978
 20
26.7646547585
 10
-14.2062387683
 20
26.774436622
 10
-14.2437246035
 20
26.7811419498
 10
-14.2819596075
 20
26.7848742871
 10
-14.3209336835
 20
26.7855774872
  0
LINE
  5
31E
100
AcDbEntity
  8
ASSI
100
AcDbLine
 62
253
  6
CONTINUOUS
 10
-15.4301185152
 20
21.581673454
 11
-15.4301185152
 21
22.7053879006
  0
LINE
  5
31F
100
AcDbEntity
  8
ASSI
100
AcDbLine
 62
253
  6
CONTINUOUS
 10
-15.0844701576
 20
21.6253952662
 11
-15.0844701576
 21
22.7385645356
  0
LINE
  5
320
100
AcDbEntity
  8
ASSI
100
AcDbLine
 62
7
  6
CONTINUOUS
 10
-14.934936503
 20
21.7543659331
 11
-14.934936503
 21
22.8602523831
  0
LINE
  5
321
100
AcDbEntity
  8
ASSI
100
AcDbLine
 62
7
  6
CONTINUOUS
 10
-14.3756584188
 20
22.2285250926
 11
-14.3756584188
 21
23.321542882
  0
LINE
  5
322
100
AcDbEntity
  8
ASSI
100
AcDbLine
 62
253
  6
CONTINUOUS
 10
-13.9885772233
 20
26.3357537308
 11
-13.9886126778
 21
25.2298380381
  0
LINE
  5
323
100
AcDbEntity
  8
ASSI
100
AcDbLine
 62
7
  6
CONTINUOUS
 10
-13.9226776826
 20
26.4585289537
 11
-13.9226775481
 21
25.3504820796
  0
LINE
  5
324
100
AcDbEntity
  8
ASSI
100
AcDbLine
 62
7
  6
CONTINUOUS
 10
-13.8092935472
 20
22.1290743012
 11
-13.8092935472
 21
21.0099579335
  0
LINE
  5
325
100
AcDbEntity
  8
ASSI
100
AcDbLine
 62
253
  6
CONTINUOUS
 10
-13.7026876563
 20
22.0116127236
 11
-13.7026876563
 21
20.887898277
  0
LINE
  5
326
100
AcDbEntity
  8
SMUSSO
100
AcDbLine
 62
253
  6
CONTINUOUS
 10
-12.9063876573
 20
25.2155222427
 11
-12.9063876573
 21
25.3647227842
  0
LINE
  5
327
100
AcDbEntity
  8
RACCORDO
100
AcDbLine
 62
7
  6
CONTINUOUS
 10
-12.8611756684
 20
25.2278041583
 11
-12.8611756684
 21
25.4469702663
  0
LINE
  5
328
100
AcDbEntity
  8
RACCORDO
100
AcDbLine
 62
253
  6
CONTINUOUS
 10
-12.8611757299
 20
25.4468696215
 11
-12.8611756684
 21
25.4469695636
  0
LWPOLYLINE
  5
329
100
AcDbEntity
  8
ASSI
100
AcDbPolyline
 62
253
  6
CONTINUOUS
 90
16
 70
0
 10
-13.7026876563
 20
22.0116127236
 10
-13.7019120058
 20
22.0335196334
 10
-13.6995941097
 20
22.0564552605
 10
-13.6957600204
 20
22.0801709971
 10
-13.6904557215
 20
22.1043955884
 10
-13.6837375603
 20
22.1288812123
 10
-13.6756633921
 20
22.1534071154
 10
-13.6662928556
 20
22.1777596515
 10
-13.6557385728
 20
22.2016179722
 10
-13.6441679859
 20
22.2246112648
 10
-13.6317283091
 20
22.2464783805
 10
-13.6185513662
 20
22.2670165756
 10
-13.6048124936
 20
22.2859834404
 10
-13.5906753449
 20
22.3031914837
 10
-13.5762855169
 20
22.3185004195
 10
-13.5617961194
 20
22.3317811348
  0
LWPOLYLINE
  5
32A
100
AcDbEntity
  8
ASSI
100
AcDbPolyline
 62
253
  6
CONTINUOUS
 90
11
 70
0
 10
-6.9360703078
 20
18.0940864751
 10
-6.9450681286
 20
18.0702166169
 10
-6.9566515673
 20
18.0478916058
 10
-6.9706246211
 20
18.0274892028
 10
-6.9867508524
 20
18.009354636
 10
-7.0047573897
 20
17.9937947599
 10
-7.024339545
 20
17.9810728627
 10
-7.0451659694
 20
17.9714042111
 10
-7.0668842597
 20
17.9649524081
 10
-7.0891269213
 20
17.9618266244
 10
-7.1008787297
 20
17.9615370058
  0
LWPOLYLINE
  5
32B
100
AcDbEntity
  8
RACCORDO
100
AcDbPolyline
 62
7
  6
CONTINUOUS
 90
7
 70
0
 10
-4.9446760007
 20
21.1362202278
 10
-4.9194134224
 20
21.1870599834
 10
-4.8995255298
 20
21.2390614436
 10
-4.885031825
 20
21.291833667
 10
-4.8759573559
 20
21.344629347
 10
-4.8721490543
 20
21.3968886576
 10
-4.8719912764
 20
21.4107694745
  0
LWPOLYLINE
  5
32C
100
AcDbEntity
  8
ASSI
100
AcDbPolyline
 62
7
  6
CONTINUOUS
 90
5
 70
0
 10
-5.1547334415
 20
19.4843551062
 10
-5.145424619
 20
19.5013879215
 10
-5.1360919526
 20
19.5216692269
 10
-5.128400689
 20
19.5421188259
 10
-5.1222285236
 20
19.5628927328
  0
LWPOLYLINE
  5
32D
100
AcDbEntity
  8
ASSI
100
AcDbPolyline
 62
253
  6
CONTINUOUS
 90
4
 70
0
 10
-5.1612105331
 20
19.5217838905
 10
-5.1591330066
 20
19.5254983178
 10
-5.1572045611
 20
19.5293052476
 10
-5.1554251969
 20
19.53320468
  0
LINE
  5
32E
100
AcDbEntity
  8
ASSI
100
AcDbLine
 62
253
  6
CONTINUOUS
 10
-5.5966031981
 20
18.7833650357
 11
-5.1612105331
 21
19.5217838905
  0
LINE
  5
32F
100
AcDbEntity
  8
ASSI
100
AcDbLine
 62
7
  6
CONTINUOUS
 10
-5.5966031981
 20
18.7349503405
 11
-5.1547361479
 21
19.4843496469
  0
LINE
  5
330
100
AcDbEntity
  8
ASSI
100
AcDbLine
 62
7
  6
CONTINUOUS
 10
-3.6718509021
 20
16.1161506188
 11
-4.1153219508
 21
15.7336630972
  0
LINE
  5
331
100
AcDbEntity
  8
ASSI
100
AcDbLine
 62
7
  6
CONTINUOUS
 10
-2.483997033
 20
15.8216237106
 11
-1.74658859
 21
16.4576280869
  0
LINE
  5
332
100
AcDbEntity
  8
ASSI
100
AcDbLine
 62
253
  6
CONTINUOUS
 10
-1.9103940466
 20
18.2436353442
 11
-1.4884937383
 21
18.5916171607
  0
LINE
  5
333
100
AcDbEntity
  8
ASSI
100
AcDbLine
 62
253
  6
CONTINUOUS
 10
-1.74658859
 20
18.0140419232
 11
-1.3246898397
 21
18.3620224547
  0
LINE
  5
334
100
AcDbEntity
  8
ASSI
100
AcDbLine
 62
7
  6
CONTINUOUS
 10
0.5496310185
 20
16.7675558067
 11
0.5554073756
 21
16.7722827322
  0
LINE
  5
335
100
AcDbEntity
  8
ASSI
100
AcDbLine
 62
253
  6
CONTINUOUS
 10
-3.2356772781
 20
17.1651432528
 11
-1.9103940466
 21
18.2436353442
  0
LINE
  5
336
100
AcDbEntity
  8
ASSI
100
AcDbLine
 62
253
  6
CONTINUOUS
 10
-3.0718718214
 20
16.9355498318
 11
-1.74658859
 21
18.0140419232
  0
LWPOLYLINE
  5
337
100
AcDbEntity
  8
ASSI
100
AcDbPolyline
 62
253
  6
CONTINUOUS
 90
21
 70
0
 10
-1.3246898397
 20
18.3620224547
 10
-1.3233822214
 20
18.363069759
 10
-1.3220472274
 20
18.3640296807
 10
-1.3206848579
 20
18.3649022196
 10
-1.3192873251
 20
18.3656994681
 10
-1.3178624168
 20
18.3664093338
 10
-1.3164334956
 20
18.3669955403
 10
-1.3149997047
 20
18.3674550722
 10
-1.3135619009
 20
18.3677909449
 10
-1.3121460183
 20
18.3679759268
 10
-1.3107521282
 20
18.3680057904
 10
-1.3093801592
 20
18.3678847633
 10
-1.3080558313
 20
18.3675982975
 10
-1.3067805712
 20
18.3671420648
 10
-1.3055529522
 20
18.3665203934
 10
-1.3043944146
 20
18.3657317204
 10
-1.3033066782
 20
18.3647725773
 10
-1.3022880231
 20
18.3636464326
 10
-1.3013547307
 20
18.3623621279
 10
-1.3005083701
 20
18.3609166026
 10
-1.299747372
 20
18.3593129174
  0
LINE
  5
338
100
AcDbEntity
  8
RACCORDO
100
AcDbLine
 62
7
  6
CONTINUOUS
 10
1.8679167937
 20
19.0631100996
 11
-1.0214843857
 21
16.8523190775
  0
LINE
  5
339
100
AcDbEntity
  8
RACCORDO
100
AcDbLine
 62
253
  6
CONTINUOUS
 10
2.0223360416
 20
19.0713688689
 11
-0.9272977305
 21
16.8144915934
  0
LINE
  5
33A
100
AcDbEntity
  8
ASSI
100
AcDbLine
 62
7
  6
CONTINUOUS
 10
3.8608969061
 20
19.3014388336
 11
0.5553987726
 21
16.7722761653
  0
LINE
  5
33B
100
AcDbEntity
  8
ASSI
100
AcDbLine
 62
253
  6
CONTINUOUS
 10
4.0153161523
 20
19.3096976017
 11
0.7108363527
 21
16.7813140994
  0
LWPOLYLINE
  5
33C
100
AcDbEntity
  8
ASSI
100
AcDbPolyline
 62
7
  6
CONTINUOUS
 90
4
 70
0
 10
0.5554073756
 20
16.7722827322
 10
0.5587900655
 20
16.7747700266
 10
0.5736877573
 20
16.7836844695
 10
0.5901617285
 20
16.790446643
  0
LWPOLYLINE
  5
33D
100
AcDbEntity
  8
RACCORDO
100
AcDbPolyline
 62
253
  6
CONTINUOUS
 90
8
 70
0
 10
3.0592811146
 20
19.1603621653
 10
3.0740879254
 20
19.1710248881
 10
3.0887093431
 20
19.1793577132
 10
3.1029887123
 20
19.1852713361
 10
3.1167730414
 20
19.1887023703
 10
3.1299146358
 20
19.1896140255
 10
3.1422726812
 20
19.1879965061
 10
3.1499505865
 20
19.1855445169
  0
LWPOLYLINE
  5
33E
100
AcDbEntity
  8
RACCORDO
100
AcDbPolyline
 62
7
  6
CONTINUOUS
 90
3
 70
0
 10
1.974328724
 20
19.1324651064
 10
1.9183450317
 20
19.0987475273
 10
1.8678211806
 20
19.0630252578
  0
LWPOLYLINE
  5
33F
100
AcDbEntity
  8
RACCORDO
100
AcDbPolyline
 62
253
  6
CONTINUOUS
 90
3
 70
0
 10
1.8863798225
 20
19.0746157296
 10
1.8712255342
 20
19.0655477451
 10
1.8679167937
 20
19.0631100996
  0
LWPOLYLINE
  5
340
100
AcDbEntity
  8
ASSI
100
AcDbPolyline
 62
7
  6
CONTINUOUS
 90
4
 70
0
 10
3.9282896282
 20
19.3422053853
 10
3.8965567665
 20
19.3254485984
 10
3.8672905227
 20
19.3062073239
 10
3.8609385829
 20
19.3014594512
  0
LWPOLYLINE
  5
341
100
AcDbEntity
  8
RACCORDO
100
AcDbPolyline
 62
253
  6
CONTINUOUS
 90
35
 70
0
 10
-26.0214638346
 20
14.2159119294
 10
-25.6504385498
 20
13.5889663412
 10
-25.2405184841
 20
12.9692825688
 10
-24.7920042703
 20
12.3576856811
 10
-24.3050798713
 20
11.7547844677
 10
-23.7803002124
 20
11.1616199632
 10
-23.2187150767
 20
10.5796279053
 10
-22.6209655285
 20
10.009599161
 10
-21.9877140346
 20
9.4522765826
 10
-21.3203258527
 20
8.9089374795
 10
-20.6198534045
 20
8.3804154035
 10
-19.8870367664
 20
7.8672402497
 10
-19.1229492623
 20
7.3701625443
 10
-18.3287039043
 20
6.8898762429
 10
-17.5052439069
 20
6.4269190163
 10
-16.6534394108
 20
5.9817799431
 10
-15.7742988779
 20
5.5549952359
 10
-14.8690359086
 20
5.1471594929
 10
-13.9388646519
 20
4.7588245038
 10
-12.9849878184
 20
4.3904943539
 10
-12.0086370894
 20
4.0426424714
 10
-11.0111231347
 20
3.7157311996
 10
-9.9938374601
 20
3.410212387
 10
-8.9580009823
 20
3.1264452633
 10
-7.9046965933
 20
2.8647254065
 10
-6.8351280113
 20
2.6253783277
 10
-5.7508123061
 20
2.4087660029
 10
-4.6533294375
 20
2.2152011012
 10
-3.5438112978
 20
2.0449042228
 10
-2.4239734031
 20
1.8981534019
 10
-1.2963279464
 20
1.7752270374
 10
-0.1623262627
 20
1.6762301457
 10
0.9765242388
 20
1.6012342238
 10
2.1175826746
 20
1.5502849027
 10
3.2589772802
 20
1.5233150057
  0
LWPOLYLINE
  5
342
100
AcDbEntity
  8
RACCORDO
100
AcDbPolyline
 62
253
  6
CONTINUOUS
 90
34
 70
0
 10
-25.5512008508
 20
14.6978022584
 10
-25.1854997397
 20
14.07930348
 10
-24.7821633884
 20
13.4695360497
 10
-24.341191797
 20
12.8684999676
 10
-23.8618938144
 20
12.2751885856
 10
-23.3449605916
 20
11.6906085517
 10
-22.7924655816
 20
11.1177798098
 10
-22.2041479312
 20
10.5568136551
 10
-21.5802684937
 20
10.0075987924
 10
-20.9236832823
 20
9.4728212794
 10
-20.2343650744
 20
8.9527026161
 10
-19.5123410927
 20
8.4470213027
 10
-18.7605490176
 20
7.957798897
 10
-17.9789810779
 20
7.4851609522
 10
-17.167645045
 20
7.0289819152
 10
-16.3295019128
 20
6.5909066847
 10
-15.4643754759
 20
6.1709571479
 10
-14.5724419398
 20
5.7691114176
 10
-13.6571909149
 20
5.3869487313
 10
-12.7185282111
 20
5.0245497276
 10
-11.7565480184
 20
4.6818337679
 10
-10.7750225178
 20
4.3601381743
 10
-9.7739786141
 20
4.0595662465
 10
-8.7533894023
 20
3.7800146848
 10
-7.7169463489
 20
3.522510912
 10
-6.6644466206
 20
3.2871032661
 10
-5.5960930506
 20
3.0737434092
 10
-4.5161856052
 20
2.8833137505
 10
-3.4243808109
 20
2.7159088171
 10
-2.3210221411
 20
2.571434082
 10
-1.211439983
 20
2.4504883732
 10
-0.0955477552
 20
2.3532534524
 10
1.026567961
 20
2.2795475581
 10
2.1493170346
 20
2.2294242332
  0
LWPOLYLINE
  5
343
100
AcDbEntity
  8
ASSI
100
AcDbPolyline
 62
253
  6
CONTINUOUS
 90
16
 70
0
 10
-10.783921925
 20
21.0113674118
 10
-10.785297444
 20
21.0330161849
 10
-10.7888729815
 20
21.0553509501
 10
-10.7946093791
 20
21.0781270979
 10
-10.8024438138
 20
21.1010951877
 10
-10.8122904831
 20
21.1240036704
 10
-10.8240415419
 20
21.1466016432
 10
-10.8375682885
 20
21.16864161
 10
-10.852722579
 20
21.1898821947
 10
-10.8693384459
 20
21.2100907757
 10
-10.8872339127
 20
21.22904603
 10
-10.9062129883
 20
21.2465403607
 10
-10.9260678171
 20
21.2623821732
 10
-10.9465809509
 20
21.2763979693
 10
-10.9675277299
 20
21.2884342479
 10
-10.9886787459
 20
21.2983591881
  0
LWPOLYLINE
  5
344
100
AcDbEntity
  8
RACCORDO
100
AcDbPolyline
 62
253
  6
CONTINUOUS
 90
16
 70
0
 10
-12.9063876573
 20
25.3647227842
 10
-12.9072479163
 20
25.3867905293
 10
-12.9103424482
 20
25.4095176181
 10
-12.9156373496
 20
25.432655048
 10
-12.9230746093
 20
25.4559493213
 10
-12.9325727437
 20
25.4791452207
 10
-12.9440276897
 20
25.5019886065
 10
-12.9573139448
 20
25.5242292017
 10
-12.9722859427
 20
25.5456233335
 10
-12.9887796465
 20
25.5659366023
 10
-13.0066143481
 20
25.5849464514
 10
-13.0255946468
 20
25.6024446047
 10
-13.0455125897
 20
25.6182393477
 10
-13.066149951
 20
25.6321576298
 10
-13.0872806239
 20
25.6440469593
 10
-13.1086730961
 20
25.6537770743
  0
LWPOLYLINE
  5
345
100
AcDbEntity
  8
ASSI
100
AcDbPolyline
 62
7
  6
CONTINUOUS
 90
12
 70
0
 10
-9.7042042939
 20
19.1458330817
 10
-9.7039933607
 20
19.1354883122
 10
-9.7022524223
 20
19.1144849708
 10
-9.6986418876
 20
19.0934343906
 10
-9.693068645
 20
19.0725928759
 10
-9.6853824817
 20
19.0519785
 10
-9.675638654
 20
19.032108792
 10
-9.6639209529
 20
19.0132992866
 10
-9.650285209
 20
18.9957254507
 10
-9.6349681962
 20
18.9797269002
 10
-9.6181761075
 20
18.9654905397
 10
-9.6001363477
 20
18.9531612656
  0
LWPOLYLINE
  5
346
100
AcDbEntity
  8
ASSI
100
AcDbPolyline
 62
253
  6
CONTINUOUS
 90
19
 70
0
 10
-9.6189196649
 20
19.0519469495
 10
-9.6188014193
 20
19.0437146918
 10
-9.6184332468
 20
19.0354549267
 10
-9.6177939693
 20
19.0272019773
 10
-9.6168607419
 20
19.018981029
 10
-9.6156133495
 20
19.0108446071
 10
-9.6140385385
 20
19.0028679989
 10
-9.6121198909
 20
18.9950915678
 10
-9.609841757
 20
18.9875579843
 10
-9.6072008384
 20
18.9803396544
 10
-9.6041874231
 20
18.9734767713
 10
-9.6007930638
 20
18.9670106929
 10
-9.5970260493
 20
18.9610056835
 10
-9.5928846959
 20
18.9554976357
 10
-9.5883687528
 20
18.9505222396
 10
-9.5834985066
 20
18.9461301404
 10
-9.5782806418
 20
18.9423488186
 10
-9.5727231165
 20
18.9392044122
 10
-9.568960346
 20
18.937524894
  0
LINE
  5
347
100
AcDbEntity
  8
ASSI
100
AcDbLine
 62
253
  6
CONTINUOUS
 10
-11.1295702827
 20
19.8544763302
 11
-11.1295702827
 21
20.9781907768
  0
LINE
  5
348
100
AcDbEntity
  8
ASSI
100
AcDbLine
 62
253
  6
CONTINUOUS
 10
-10.783921925
 20
19.8981981424
 11
-10.783921925
 21
21.0113674118
  0
LINE
  5
349
100
AcDbEntity
  8
ASSI
100
AcDbLine
 62
7
  6
CONTINUOUS
 10
-10.6343882705
 20
21.1330552594
 11
-10.6343882705
 21
20.0271688094
  0
LINE
  5
34A
100
AcDbEntity
  8
ASSI
100
AcDbLine
 62
7
  6
CONTINUOUS
 10
-9.7042043776
 20
19.4460129354
 11
-9.7042043776
 21
19.1459162116
  0
LINE
  5
34B
100
AcDbEntity
  8
ASSI
100
AcDbLine
 62
253
  6
CONTINUOUS
 10
-9.6189196649
 20
19.3520436733
 11
-9.6189196649
 21
19.0519469495
  0
LWPOLYLINE
  5
34C
100
AcDbEntity
  8
ASSI
100
AcDbPolyline
 62
253
  6
CONTINUOUS
 90
16
 70
0
 10
-11.1295702827
 20
20.9781907768
 10
-11.1287946323
 20
21.0000976861
 10
-11.1264767363
 20
21.0230333129
 10
-11.122642647
 20
21.0467490496
 10
-11.117338348
 20
21.0709736415
 10
-11.1106201865
 20
21.0954592663
 10
-11.102546018
 20
21.11998517
 10
-11.0931754815
 20
21.1443377061
 10
-11.0826211987
 20
21.1681960265
 10
-11.0710506121
 20
21.1911893186
 10
-11.0586109357
 20
21.2130564336
 10
-11.0454339933
 20
21.2335946279
 10
-11.031695121
 20
21.2525614923
 10
-11.0175579724
 20
21.2697695358
 10
-11.0031681439
 20
21.2850784721
 10
-10.9886787459
 20
21.2983591881
  0
LWPOLYLINE
  5
34D
100
AcDbEntity
  8
ASSI
100
AcDbPolyline
 62
7
  6
CONTINUOUS
 90
3
 70
0
 10
-5.1222285236
 20
19.5628927328
 10
-5.1175115962
 20
19.5843456216
 10
-5.1144659601
 20
19.6057790502
  0
LWPOLYLINE
  5
34E
100
AcDbEntity
  8
ASSI
100
AcDbPolyline
 62
253
  6
CONTINUOUS
 90
10
 70
0
 10
-5.1554251969
 20
19.53320468
 10
-5.1537836406
 20
19.5372272708
 10
-5.1522911655
 20
19.5413423641
 10
-5.1509815909
 20
19.5454579924
 10
-5.1498589345
 20
19.5495744305
 10
-5.1489191786
 20
19.5536914037
 10
-5.1481840887
 20
19.55771612
 10
-5.1476609201
 20
19.5616176488
 10
-5.1473424175
 20
19.5654269207
 10
-5.147228581
 20
19.5691439357
  0
LWPOLYLINE
  5
34F
100
AcDbEntity
  8
ASSI
100
AcDbPolyline
 62
7
  6
CONTINUOUS
 90
6
 70
0
 10
-1.3047260358
 20
17.9380894578
 10
-1.3030218365
 20
17.9410177662
 10
-1.2928464835
 20
17.9603315857
 10
-1.2839605213
 20
17.9806224871
 10
-1.2767015777
 20
18.0010281091
 10
-1.270955839
 20
18.0216739787
  0
LINE
  5
350
100
AcDbEntity
  8
ASSI
100
AcDbLine
 62
253
  6
CONTINUOUS
 10
-1.311195925
 20
17.9755312273
 11
-1.74658859
 21
17.2371123725
  0
LINE
  5
351
100
AcDbEntity
  8
ASSI
100
AcDbLine
 62
7
  6
CONTINUOUS
 10
-1.3047215696
 20
17.9380969332
 11
-1.74658859
 21
17.1886976773
  0
LWPOLYLINE
  5
352
100
AcDbEntity
  8
ASSI
100
AcDbPolyline
 62
7
  6
CONTINUOUS
 90
13
 70
0
 10
-2.483997033
 20
16.53878679
 10
-2.4995149005
 20
16.5186379576
 10
-2.516575909
 20
16.4996824552
 10
-2.5350306596
 20
16.4821221073
 10
-2.5547808999
 20
16.4661202011
 10
-2.5755871521
 20
16.4518461905
 10
-2.5970585894
 20
16.4394584068
 10
-2.6188905185
 20
16.4290755331
 10
-2.6409800174
 20
16.420700805
 10
-2.6632458164
 20
16.4143133481
 10
-2.685635704
 20
16.4099450987
 10
-2.7078379717
 20
16.4076812411
 10
-2.7237984512
 20
16.4073642503
  0
LWPOLYLINE
  5
353
100
AcDbEntity
  8
ASSI
100
AcDbPolyline
 62
7
  6
CONTINUOUS
 90
10
 70
0
 10
0.4063542707
 20
16.6420557203
 10
0.3894038603
 20
16.625735983
 10
0.3737693678
 20
16.607519139
 10
0.3597291268
 20
16.587531327
 10
0.3475048365
 20
16.5658662132
 10
0.3373962131
 20
16.542836373
 10
0.329664359
 20
16.5189508391
 10
0.3243803165
 20
16.4944905447
 10
0.3215736345
 20
16.4697131107
 10
0.3210792258
 20
16.4540364961
  0
LWPOLYLINE
  5
354
100
AcDbEntity
  8
ASSI
100
AcDbPolyline
 62
253
  6
CONTINUOUS
 90
8
 70
0
 10
4.4423437689
 20
18.9334809375
 10
4.4611825102
 20
18.9510711637
 10
4.4770298952
 20
18.9696064943
 10
4.4897439395
 20
18.9889218779
 10
4.4992107754
 20
19.008845096
 10
4.5053437031
 20
19.0291987544
 10
4.5080862217
 20
19.0498016291
 10
4.5082434484
 20
19.0560721557
  0
LWPOLYLINE
  5
355
100
AcDbEntity
  8
ASSI
100
AcDbPolyline
 62
253
  6
CONTINUOUS
 90
34
 70
0
 10
4.2375514978
 20
19.2204428768
 10
4.2442565308
 20
19.2266219921
 10
4.2498222029
 20
19.2330157948
 10
4.254248514
 20
19.2396242849
 10
4.2575541535
 20
19.2465096286
 10
4.259720432
 20
19.2536096597
 10
4.2606912814
 20
19.2607378798
 10
4.2604351887
 20
19.2678948603
 10
4.2589836669
 20
19.2750800298
 10
4.2563751867
 20
19.2821051765
 10
4.2525791305
 20
19.2889660239
 10
4.247626116
 20
19.2956668485
 10
4.2416464668
 20
19.3020322673
 10
4.234613177
 20
19.3080533985
 10
4.2265532526
 20
19.313739124
 10
4.2176780353
 20
19.3189407057
 10
4.207966052
 20
19.3236453498
 10
4.1974387757
 20
19.3278658502
 10
4.1863719672
 20
19.3314918508
 10
4.1747514268
 20
19.3345076491
 10
4.162591354
 20
19.3369289477
 10
4.1502101089
 20
19.3386924987
 10
4.1376018772
 20
19.3397810097
 10
4.1247724731
 20
19.3402117731
 10
4.1120576988
 20
19.3399734188
 10
4.099460648
 20
19.3390481568
 10
4.0869782271
 20
19.3374537771
 10
4.0749369571
 20
19.3352322793
 10
4.0633453227
 20
19.3323650784
 10
4.0521948393
 20
19.3288707594
 10
4.0417865738
 20
19.3248470768
 10
4.032220882
 20
19.3203266154
 10
4.0233974081
 20
19.3152767904
 10
4.0153161523
 20
19.3096976017
  0
LWPOLYLINE
  5
356
100
AcDbEntity
  8
RACCORDO
100
AcDbPolyline
 62
253
  6
CONTINUOUS
 90
7
 70
0
 10
5.5245333392
 20
17.9624493966
 10
5.5382115001
 20
17.974983077
 10
5.5496099799
 20
17.988316206
 10
5.5585758832
 20
18.0023144081
 10
5.5649871319
 20
18.0168535519
 10
5.5687258526
 20
18.0317602385
 10
5.5697452666
 20
18.0445962339
  0
LINE
  5
357
100
AcDbEntity
  8
ASSI
100
AcDbLine
 62
7
  6
CONTINUOUS
 10
0.5495827751
 20
16.7675135443
 11
0.4063542707
 21
16.6420557203
  0
LINE
  5
358
100
AcDbEntity
  8
ASSI
100
AcDbLine
 62
253
  6
CONTINUOUS
 10
0.7108363527
 20
16.7813140994
 11
0.5685766445
 21
16.656704871
  0
LINE
  5
359
100
AcDbEntity
  8
ASSI
100
AcDbLine
 62
253
  6
CONTINUOUS
 10
1.6530935894
 20
17.0887915366
 11
4.2375514978
 21
19.2204428768
  0
LINE
  5
35A
100
AcDbEntity
  8
ASSI
100
AcDbLine
 62
253
  6
CONTINUOUS
 10
2.0248054603
 20
16.9395036692
 11
4.4423437732
 21
18.9334803433
  0
LINE
  5
35B
100
AcDbEntity
  8
ASSI
100
AcDbLine
 62
7
  6
CONTINUOUS
 10
2.9265254951
 20
16.5773525744
 11
4.4423083187
 21
17.8275646505
  0
LINE
  5
35C
100
AcDbEntity
  8
ASSI
100
AcDbLine
 62
253
  6
CONTINUOUS
 10
3.2912276726
 20
15.7449707718
 11
3.8505057569
 21
16.2062612706
  0
LINE
  5
35D
100
AcDbEntity
  8
ASSI
100
AcDbLine
 62
253
  6
CONTINUOUS
 10
3.4959844935
 20
15.4579789955
 11
4.0552625777
 21
15.9192694944
  0
LINE
  5
35E
100
AcDbEntity
  8
SMUSSO
100
AcDbLine
 62
7
  6
CONTINUOUS
 10
3.5567764492
 20
16.3242295826
 11
5.3811392301
 21
17.8186600841
  0
LINE
  5
35F
100
AcDbEntity
  8
ASSI
100
AcDbLine
 62
253
  6
CONTINUOUS
 10
3.1416940181
 20
15.6232829242
 11
3.2912276726
 21
15.7449707718
  0
LINE
  5
360
100
AcDbEntity
  8
ASSI
100
AcDbLine
 62
253
  6
CONTINUOUS
 10
3.3464508389
 20
15.336291148
 11
3.4959844935
 21
15.4579789955
  0
LINE
  5
361
100
AcDbEntity
  8
RACCORDO
100
AcDbLine
 62
253
  6
CONTINUOUS
 10
5.3222479004
 20
18.2515036868
 11
3.1176773619
 21
16.5005816753
  0
LINE
  5
362
100
AcDbEntity
  8
RACCORDO
100
AcDbLine
 62
253
  6
CONTINUOUS
 10
5.5245333392
 20
17.9624493966
 11
3.4937409189
 21
16.3495460726
  0
LWPOLYLINE
  5
363
100
AcDbEntity
  8
ASSI
100
AcDbPolyline
 62
7
  6
CONTINUOUS
 90
4
 70
0
 10
4.8559556081
 20
15.0450856084
 10
4.859338298
 20
15.0475729028
 10
4.8742359898
 20
15.0564873457
 10
4.890709961
 20
15.0632495193
  0
LWPOLYLINE
  5
364
100
AcDbEntity
  8
RACCORDO
100
AcDbPolyline
 62
253
  6
CONTINUOUS
 90
8
 70
0
 10
5.3222479004
 20
18.2515036868
 10
5.3368382058
 20
18.2620264195
 10
5.3513111697
 20
18.270318615
 10
5.3655117443
 20
18.2762639417
 10
5.3793031862
 20
18.2797722039
 10
5.3925109463
 20
18.2807647301
 10
5.4049342654
 20
18.2792108284
 10
5.4129163751
 20
18.2766864388
  0
LWPOLYLINE
  5
365
100
AcDbEntity
  8
ASSI
100
AcDbPolyline
 62
7
  6
CONTINUOUS
 90
4
 70
0
 10
10.4279912048
 20
16.7332919714
 10
10.395974765
 20
16.7165755199
 10
10.3663796617
 20
16.6973092508
 10
10.3589195992
 20
16.6917576727
  0
LWPOLYLINE
  5
366
100
AcDbEntity
  8
ASSI
100
AcDbPolyline
 62
7
  6
CONTINUOUS
 90
5
 70
0
 10
13.2506533138
 20
-26.6689847102
 10
13.2307050759
 20
-26.6519600767
 10
13.2091786438
 20
-26.6377534018
 10
13.1866182872
 20
-26.6265130016
 10
13.1823795022
 20
-26.6247633739
  0
LWPOLYLINE
  5
367
100
AcDbEntity
  8
ASSI
100
AcDbPolyline
 62
253
  6
CONTINUOUS
 90
8
 70
0
 10
-19.7306683685
 20
25.761586305
 10
-19.7300043059
 20
25.7598424841
 10
-19.7294389533
 20
25.7579557891
 10
-19.7289705361
 20
25.7559289585
 10
-19.7286053042
 20
25.7537882315
 10
-19.7283453407
 20
25.7515423547
 10
-19.7281885624
 20
25.7491825815
 10
-19.7281349694
 20
25.7467089121
  0
LWPOLYLINE
  5
368
100
AcDbEntity
  8
ASSI
100
AcDbPolyline
 62
253
  6
CONTINUOUS
 90
13
 70
0
 10
-6.9507671775
 20
18.1179542048
 10
-6.9506484849
 20
18.1144388319
 10
-6.9503151581
 20
18.1111723627
 10
-6.9497671971
 20
18.1081547974
 10
-6.9489974321
 20
18.105366962
 10
-6.948013033
 20
18.1028280305
 10
-6.9468355089
 20
18.100595524
 10
-6.9454604536
 20
18.0986761713
 10
-6.9438922735
 20
18.0970632437
 10
-6.9421656961
 20
18.0957940767
 10
-6.9402922972
 20
18.0948811156
 10
-6.9382605012
 20
18.094311915
 10
-6.9360703078
 20
18.0940864751
  0
LWPOLYLINE
  5
369
100
AcDbEntity
  8
ASSI
100
AcDbPolyline
 62
253
  6
CONTINUOUS
 90
11
 70
0
 10
-7.2272858637
 20
18.0914128968
 10
-7.2267372724
 20
18.0740102858
 10
-7.225096329
 20
18.0576319798
 10
-7.2223754616
 20
18.0424026005
 10
-7.2185951387
 20
18.0284379921
 10
-7.213784136
 20
18.0158443817
 10
-7.2079792847
 20
18.0047176178
 10
-7.2012240803
 20
17.9951419305
 10
-7.1935700207
 20
17.9871906773
 10
-7.1850769302
 20
17.9809252645
 10
-7.1768130016
 20
17.976784589
  0
LWPOLYLINE
  5
36A
100
AcDbEntity
  8
ASSI
100
AcDbPolyline
 62
7
  6
CONTINUOUS
 90
18
 70
0
 10
-7.424725874
 20
23.8488011529
 10
-7.4250588314
 20
23.8626305018
 10
-7.4282430682
 20
23.8939367853
 10
-7.4348490906
 20
23.9250556117
 10
-7.4448777478
 20
23.9556005381
 10
-7.4582485958
 20
23.9851562898
 10
-7.4749054869
 20
24.013468536
 10
-7.4947772495
 20
24.0402644344
 10
-7.5176379021
 20
24.0651584657
 10
-7.5432453653
 20
24.0878898888
 10
-7.5716035095
 20
24.1084177189
 10
-7.6024335968
 20
24.1264792577
 10
-7.6351364315
 20
24.1417835222
 10
-7.6698879438
 20
24.1544330949
 10
-7.7064956965
 20
24.1643083285
 10
-7.7438034672
 20
24.1711429582
 10
-7.7819022261
 20
24.1750183649
 10
-7.820773072
 20
24.1758951411
  0
LINE
  5
36B
100
AcDbEntity
  8
ASSI
100
AcDbLine
 62
7
  6
CONTINUOUS
 10
-9.125998548
 20
18.7596214478
 11
-9.125998548
 21
18.3859036016
  0
LINE
  5
36C
100
AcDbEntity
  8
ASSI
100
AcDbLine
 62
253
  6
CONTINUOUS
 10
-9.019392657
 20
18.7168061186
 11
-9.019392657
 21
18.2638439452
  0
LINE
  5
36D
100
AcDbEntity
  8
ASSI
100
AcDbLine
 62
7
  6
CONTINUOUS
 10
-8.6418265028
 20
17.448311715
 11
-8.6418265028
 21
18.556818936
  0
LINE
  5
36E
100
AcDbEntity
  8
ASSI
100
AcDbLine
 62
253
  6
CONTINUOUS
 10
-8.5352206119
 20
17.3262520587
 11
-8.5352206119
 21
18.6167089784
  0
LINE
  5
36F
100
AcDbEntity
  8
ASSI
100
AcDbLine
 62
253
  6
CONTINUOUS
 10
-8.3109849167
 20
17.2361939482
 11
-8.3109849167
 21
18.5266508679
  0
LINE
  5
370
100
AcDbEntity
  8
ASSI
100
AcDbLine
 62
253
  6
CONTINUOUS
 10
-7.965336559
 20
17.2799157604
 11
-7.965336559
 21
18.2934734265
  0
LINE
  5
371
100
AcDbEntity
  8
ASSI
100
AcDbLine
 62
7
  6
CONTINUOUS
 10
-7.5218655102
 20
18.1153654555
 11
-7.5218655102
 21
17.662403282
  0
LINE
  5
372
100
AcDbEntity
  8
ASSI
100
AcDbLine
 62
253
  6
CONTINUOUS
 10
-7.4906522778
 20
22.6201106484
 11
-7.4906522778
 21
23.0890025673
  0
LINE
  5
373
100
AcDbEntity
  8
ASSI
100
AcDbLine
 62
253
  6
CONTINUOUS
 10
-7.4906522778
 20
23.4530707456
 11
-7.4906522778
 21
23.7259970984
  0
LINE
  5
374
100
AcDbEntity
  8
ASSI
100
AcDbLine
 62
7
  6
CONTINUOUS
 10
-7.4247171481
 20
22.74075469
 11
-7.4247171481
 21
23.8486225594
  0
LINE
  5
375
100
AcDbEntity
  8
ASSI
100
AcDbLine
 62
253
  6
CONTINUOUS
 10
-7.2272858637
 20
18.3915547501
 11
-7.2272858637
 21
18.0914128968
  0
LINE
  5
376
100
AcDbEntity
  8
ASSI
100
AcDbLine
 62
253
  6
CONTINUOUS
 10
-6.9507671775
 20
18.4180509287
 11
-6.9507671775
 21
18.1179542048
  0
LINE
  5
377
100
AcDbEntity
  8
ASSI
100
AcDbLine
 62
253
  6
CONTINUOUS
 10
-6.6796599988
 20
17.9552074315
 11
-6.6796599988
 21
17.3241545616
  0
LINE
  5
378
100
AcDbEntity
  8
ASSI
100
AcDbLine
 62
253
  6
CONTINUOUS
 10
-6.3340116411
 20
18.0850394532
 11
-6.3340116411
 21
17.3678763738
  0
LWPOLYLINE
  5
379
100
AcDbEntity
  8
ASSI
100
AcDbPolyline
 62
253
  6
CONTINUOUS
 90
16
 70
0
 10
-5.7689050775
 20
17.8058361611
 10
-5.7681392147
 20
17.8276173561
 10
-5.7658547115
 20
17.8504297657
 10
-5.762075048
 20
17.8740300144
 10
-5.7568397325
 20
17.8981681388
 10
-5.7502039514
 20
17.9225839722
 10
-5.7422391053
 20
17.94700979
 10
-5.7330319204
 20
17.9711820939
 10
-5.7226808097
 20
17.9948440624
 10
-5.7112956055
 20
18.0177419301
 10
-5.6989990472
 20
18.0396307878
 10
-5.6859233629
 20
18.0602761538
 10
-5.6722072357
 20
18.0794560477
 10
-5.6579976616
 20
18.0969649337
 10
-5.6434483485
 20
18.1126158834
 10
-5.6287159605
 20
18.1262415374
  0
LINE
  5
37A
100
AcDbEntity
  8
ASSI
100
AcDbLine
 62
7
  6
CONTINUOUS
 10
-5.1144659601
 20
19.6057790502
 11
-5.1131098019
 21
19.6270773662
  0
LWPOLYLINE
  5
37B
100
AcDbEntity
  8
RACCORDO
100
AcDbPolyline
 62
253
  6
CONTINUOUS
 90
10
 70
0
 10
-4.872076353
 20
21.4032846919
 10
-4.8748449293
 20
21.3660511381
 10
-4.8818186833
 20
21.3285803206
 10
-4.8929390937
 20
21.2914288606
 10
-4.9081596387
 20
21.254749698
 10
-4.9274166235
 20
21.2186941193
 10
-4.9506293976
 20
21.1834183056
 10
-4.9777007505
 20
21.1490699533
 10
-5.0085173453
 20
21.1157876711
 10
-5.042950145
 20
21.0837081578
  0
LWPOLYLINE
  5
37C
100
AcDbEntity
  8
ASSI
100
AcDbPolyline
 62
253
  6
CONTINUOUS
 90
5
 70
0
 10
-1.3047215696
 20
17.9380969332
 10
-1.3023950128
 20
17.9444484765
 10
-1.3023906741
 20
17.9534083781
 10
-1.305340952
 20
17.9638280654
 10
-1.311195925
 20
17.9755312273
  0
LWPOLYLINE
  5
37D
100
AcDbEntity
  8
ASSI
100
AcDbPolyline
 62
7
  6
CONTINUOUS
 90
10
 70
0
 10
4.7069025032
 20
14.9148585965
 10
4.6899520928
 20
14.8985388592
 10
4.6743176004
 20
14.8803220152
 10
4.6602773593
 20
14.8603342032
 10
4.648053069
 20
14.8386690894
 10
4.6379444456
 20
14.8156392492
 10
4.6302125916
 20
14.7917537153
 10
4.624928549
 20
14.767293421
 10
4.6221218671
 20
14.742515987
 10
4.6216274583
 20
14.7268393724
  0
LINE
  5
37E
100
AcDbEntity
  8
ASSI
100
AcDbLine
 62
7
  6
CONTINUOUS
 10
4.8501310076
 20
15.0403164205
 11
4.7069025032
 21
14.9148585965
  0
LINE
  5
37F
100
AcDbEntity
  8
ASSI
100
AcDbLine
 62
253
  6
CONTINUOUS
 10
5.0113845852
 20
15.0541169757
 11
4.8691248771
 21
14.9295077473
  0
LINE
  5
380
100
AcDbEntity
  8
ASSI
100
AcDbLine
 62
7
  6
CONTINUOUS
 10
3.3464508389
 20
14.2231218786
 11
3.4959844935
 21
14.3520925455
  0
LINE
  5
381
100
AcDbEntity
  8
ASSI
100
AcDbLine
 62
7
  6
CONTINUOUS
 10
3.4959844935
 20
14.3520925455
 11
4.0552625777
 21
14.826251705
  0
LINE
  5
382
100
AcDbEntity
  8
DRAFT
100
AcDbLine
 62
7
  6
CONTINUOUS
 10
-3.6064713939
 20
6.217653996
 11
-5.9395807055
 21
4.2483220139
  0
LINE
  5
383
100
AcDbEntity
  8
ASSI
100
AcDbLine
 62
7
  6
CONTINUOUS
 10
4.850179251
 20
15.0403586829
 11
4.8559556081
 21
15.0450856084
  0
LINE
  5
384
100
AcDbEntity
  8
ASSI
100
AcDbLine
 62
253
  6
CONTINUOUS
 10
7.4422422506
 20
13.8960858005
 11
7.5917759051
 21
14.017773648
  0
LINE
  5
385
100
AcDbEntity
  8
ASSI
100
AcDbLine
 62
7
  6
CONTINUOUS
 10
5.4438228678
 20
15.4948852811
 11
4.8559470052
 21
15.0450790415
  0
LINE
  5
386
100
AcDbEntity
  8
ASSI
100
AcDbLine
 62
253
  6
CONTINUOUS
 10
5.5992593737
 20
15.5039223934
 11
5.0113845852
 21
15.0541169757
  0
LINE
  5
387
100
AcDbEntity
  8
ASSI
100
AcDbLine
 62
7
  6
CONTINUOUS
 10
10.3588573046
 20
16.6917114428
 11
7.702484886
 21
14.6592196115
  0
LINE
  5
388
100
AcDbEntity
  8
ASSI
100
AcDbLine
 62
253
  6
CONTINUOUS
 10
10.5132765523
 20
16.699970212
 11
7.7966715412
 21
14.6213921274
  0
LWPOLYLINE
  5
389
100
AcDbEntity
  8
ASSI
100
AcDbPolyline
 62
7
  6
CONTINUOUS
 90
3
 70
0
 10
10.5625723972
 20
13.7266662062
 10
10.5438320852
 20
13.7151739147
 10
10.5329412622
 20
13.7073134108
  0
LWPOLYLINE
  5
38A
100
AcDbEntity
  8
ASSI
100
AcDbPolyline
 62
253
  6
CONTINUOUS
 90
13
 70
0
 10
-6.9218864296
 20
18.4818024949
 10
-6.9235378471
 20
18.5035444331
 10
-6.9279284206
 20
18.5260677835
 10
-6.9349830633
 20
18.5489873193
 10
-6.9445811218
 20
18.5719110336
 10
-6.9565584427
 20
18.5944468513
 10
-6.9707101826
 20
18.6162093348
 10
-6.986794307
 20
18.6368262682
 10
-7.0045357219
 20
18.6559450156
 10
-7.0236309826
 20
18.6732385624
 10
-7.0437534892
 20
18.6884111169
 10
-7.064559075
 20
18.7012031678
 10
-7.0856918862
 20
18.711395916
  0
LWPOLYLINE
  5
38B
100
AcDbEntity
  8
ASSI
100
AcDbPolyline
 62
253
  6
CONTINUOUS
 90
13
 70
0
 10
-5.1747044478
 20
19.9082751178
 10
-5.1758677249
 20
19.9304170517
 10
-5.1798470196
 20
19.9532774422
 10
-5.1865742716
 20
19.9764652932
 10
-5.1959344202
 20
19.9995840079
 10
-5.2077673727
 20
20.0222381718
 10
-5.2218707425
 20
20.0440403158
 10
-5.2380033103
 20
20.0646175439
 10
-5.2558891505
 20
20.0836179102
 10
-5.2752223498
 20
20.1007164389
 10
-5.29567224
 20
20.1156206829
 10
-5.3168890532
 20
20.1280757251
 10
-5.3385099045
 20
20.1378685388
  0
LWPOLYLINE
  5
38C
100
AcDbEntity
  8
ASSI
100
AcDbPolyline
 62
253
  6
CONTINUOUS
 90
9
 70
0
 10
-5.8541897643
 20
17.8997342089
 10
-5.8539002617
 20
17.8935901282
 10
-5.8508408219
 20
17.8788552745
 10
-5.8444908761
 20
17.8644702053
 10
-5.8349566676
 20
17.8506756235
 10
-5.8223977238
 20
17.8377023538
 10
-5.8070241847
 20
17.8257674772
 10
-5.789093286
 20
17.8150706995
 10
-5.7689050567
 20
17.8057910108
  0
LWPOLYLINE
  5
38D
100
AcDbEntity
  8
ASSI
100
AcDbPolyline
 62
253
  6
CONTINUOUS
 90
9
 70
0
 10
-5.8541897694
 20
17.5996635484
 10
-5.8539002412
 20
17.5934932026
 10
-5.850840751
 20
17.5787583477
 10
-5.8444907609
 20
17.5643732931
 10
-5.8349565234
 20
17.5505787394
 10
-5.822397572
 20
17.5376055065
 10
-5.8070240517
 20
17.5256706716
 10
-5.7890932028
 20
17.5149739365
 10
-5.7689050567
 20
17.5056942863
  0
LWPOLYLINE
  5
38E
100
AcDbEntity
  8
ASSI
100
AcDbPolyline
 62
7
  6
CONTINUOUS
 90
13
 70
0
 10
-5.1130364421
 20
19.9548416161
 10
-5.1140961247
 20
19.978080252
 10
-5.117384692
 20
20.0013881378
 10
-5.1230083538
 20
20.0243758202
 10
-5.1309535249
 20
20.0466251647
 10
-5.1412964166
 20
20.0680870536
 10
-5.153962072
 20
20.0883714277
 10
-5.1687880201
 20
20.1071192988
 10
-5.1856219752
 20
20.1241039601
 10
-5.2042556116
 20
20.139088934
 10
-5.2244237107
 20
20.1518541283
 10
-5.2458296817
 20
20.1622251189
 10
-5.2482358331
 20
20.1632096828
  0
LWPOLYLINE
  5
38F
100
AcDbEntity
  8
ASSI
100
AcDbPolyline
 62
253
  6
CONTINUOUS
 90
11
 70
0
 10
-5.147228581
 20
19.8906881877
 10
-5.1473917679
 20
19.8948543396
 10
-5.1478379578
 20
19.8986469999
 10
-5.1485671508
 20
19.9020661688
 10
-5.1495930078
 20
19.9051404097
 10
-5.1509018678
 20
19.9078411591
 10
-5.1524527485
 20
19.9100827264
 10
-5.1542534674
 20
19.9118503482
 10
-5.156296207
 20
19.9131587879
 10
-5.1585165319
 20
19.9139666459
 10
-5.1609201657
 20
19.9142580356
  0
LWPOLYLINE
  5
390
100
AcDbEntity
  8
RACCORDO
100
AcDbPolyline
 62
7
  6
CONTINUOUS
 90
15
 70
0
 10
-4.8719902766
 20
22.0190781759
 10
-4.8722608021
 20
22.0351538852
 10
-4.876707883
 20
22.0866272596
 10
-4.8866873641
 20
22.1380478226
 10
-4.9022483183
 20
22.1889555297
 10
-4.9233818911
 20
22.2389533907
 10
-4.950035092
 20
22.2876822753
 10
-4.9822276396
 20
22.3349301601
 10
-5.0198437207
 20
22.3803199402
 10
-5.0625854193
 20
22.423422963
 10
-5.1105199162
 20
22.4642176343
 10
-5.1634333764
 20
22.5024108013
 10
-5.2203877714
 20
22.5373741581
 10
-5.2808404087
 20
22.5689286762
 10
-5.3487300719
 20
22.5987994109
  0
LWPOLYLINE
  5
391
100
AcDbEntity
  8
ASSI
100
AcDbPolyline
 62
7
  6
CONTINUOUS
 90
7
 70
0
 10
-5.8541891749
 20
17.5997030054
 10
-5.8541223421
 20
17.5937846151
 10
-5.8524284895
 20
17.5697854616
 10
-5.848133351
 20
17.5449836616
 10
-5.8411002765
 20
17.5204863294
 10
-5.8313105908
 20
17.4968303699
 10
-5.8186465486
 20
17.4741543058
  0
LINE
  5
392
100
AcDbEntity
  8
ASSI
100
AcDbLine
 62
7
  6
CONTINUOUS
 10
-5.8541897694
 20
17.5996635484
 11
-5.8541897694
 21
17.8997602575
  0
LINE
  5
393
100
AcDbEntity
  8
ASSI
100
AcDbLine
 62
253
  6
CONTINUOUS
 10
-5.7689050567
 20
17.5056942863
 11
-5.7689050567
 21
17.8058361485
  0
LINE
  5
394
100
AcDbEntity
  8
ASSI
100
AcDbLine
 62
7
  6
CONTINUOUS
 10
-5.5966031981
 20
18.2563267423
 11
-5.5966031981
 21
19.5602945864
  0
LINE
  5
395
100
AcDbEntity
  8
ASSI
100
AcDbLine
 62
7
  6
CONTINUOUS
 10
-5.2759839398
 20
16.8396509383
 11
-5.2759839398
 21
17.2133687846
  0
LINE
  5
396
100
AcDbEntity
  8
ASSI
100
AcDbLine
 62
253
  6
CONTINUOUS
 10
-5.1693780489
 20
16.717591282
 11
-5.1693780489
 21
17.1705534554
  0
LINE
  5
397
100
AcDbEntity
  8
ASSI
100
AcDbLine
 62
253
  6
CONTINUOUS
 10
-5.147228581
 20
19.5691439357
 11
-5.147228581
 21
19.8906881877
  0
LINE
  5
398
100
AcDbEntity
  8
ASSI
100
AcDbLine
 62
7
  6
CONTINUOUS
 10
-5.1130360956
 20
19.6332919103
 11
-5.1130360956
 21
19.9548362236
  0
LINE
  5
399
100
AcDbEntity
  8
RACCORDO
100
AcDbLine
 62
253
  6
CONTINUOUS
 10
-5.042950145
 20
21.7041902637
 11
-5.042950145
 21
21.0837081578
  0
LINE
  5
39A
100
AcDbEntity
  8
RACCORDO
100
AcDbLine
 62
7
  6
CONTINUOUS
 10
-4.8719877557
 20
22.0191231498
 11
-4.8719877175
 21
21.4100079134
  0
LINE
  5
39B
100
AcDbEntity
  8
ASSI
100
AcDbLine
 62
7
  6
CONTINUOUS
 10
-4.7918118946
 20
15.9020590518
 11
-4.7918118946
 21
17.0105662728
  0
LINE
  5
39C
100
AcDbEntity
  8
ASSI
100
AcDbLine
 62
253
  6
CONTINUOUS
 10
-4.6852060037
 20
15.7799993955
 11
-4.6852060037
 21
17.0704563152
  0
LINE
  5
39D
100
AcDbEntity
  8
ASSI
100
AcDbLine
 62
253
  6
CONTINUOUS
 10
-4.4609703085
 20
15.689941285
 11
-4.4609703085
 21
16.9803982048
  0
LINE
  5
39E
100
AcDbEntity
  8
ASSI
100
AcDbLine
 62
253
  6
CONTINUOUS
 10
-4.1153219508
 20
15.7336630972
 11
-4.1153219508
 21
16.7472207633
  0
LINE
  5
39F
100
AcDbEntity
  8
ASSI
100
AcDbLine
 62
7
  6
CONTINUOUS
 10
-3.6718509021
 20
16.5691127923
 11
-3.6718509021
 21
16.1161506188
  0
LINE
  5
3A0
100
AcDbEntity
  8
ASSI
100
AcDbLine
 62
253
  6
CONTINUOUS
 10
-3.3772712555
 20
16.5451602336
 11
-3.3772712555
 21
16.8452592512
  0
LINE
  5
3A1
100
AcDbEntity
  8
ASSI
100
AcDbLine
 62
253
  6
CONTINUOUS
 10
-3.1007525694
 20
16.5717015417
 11
-3.1007525694
 21
16.8717982655
  0
LINE
  5
3A2
100
AcDbEntity
  8
ASSI
100
AcDbLine
 62
253
  6
CONTINUOUS
 10
-2.8296453907
 20
15.7779018984
 11
-2.8296453907
 21
16.4089547683
  0
LWPOLYLINE
  5
3A3
100
AcDbEntity
  8
ASSI
100
AcDbPolyline
 62
253
  6
CONTINUOUS
 90
28
 70
0
 10
-3.1007525694
 20
16.8717982655
 10
-3.1007301717
 20
16.8737320015
 10
-3.1006288697
 20
16.8757700522
 10
-3.1004486636
 20
16.8779124174
 10
-3.1001936211
 20
16.8801671949
 10
-3.0998596744
 20
16.8825262871
 10
-3.0994346196
 20
16.8849654004
 10
-3.0989157858
 20
16.8874879641
 10
-3.0983058438
 20
16.8900905489
 10
-3.0976006026
 20
16.8927385737
 10
-3.0967970704
 20
16.8954343684
 10
-3.0958982391
 20
16.898175603
 10
-3.0949088926
 20
16.9009207063
 10
-3.0938267694
 20
16.9036694283
 10
-3.0926541311
 20
16.9064220189
 10
-3.0914025464
 20
16.9091376562
 10
-3.0900705445
 20
16.9118150174
 10
-3.0886595962
 20
16.9144554252
 10
-3.0871856824
 20
16.917022026
 10
-3.0856475358
 20
16.919513552
 10
-3.0840464238
 20
16.9219312709
 10
-3.0824021288
 20
16.9242421325
 10
-3.0807137364
 20
16.926444282
 10
-3.078982161
 20
16.9285395742
 10
-3.0772299292
 20
16.9305005238
 10
-3.0754645498
 20
16.9323179691
 10
-3.0736785138
 20
16.9340010717
 10
-3.0718718214
 20
16.9355498318
  0
LINE
  5
3A4
100
AcDbEntity
  8
ASSI
100
AcDbLine
 62
7
  6
CONTINUOUS
 10
-5.1131098019
 20
19.6270773662
 11
-5.1130359652
 21
19.6333308207
  0
LWPOLYLINE
  5
3A5
100
AcDbEntity
  8
ASSI
100
AcDbPolyline
 62
253
  6
CONTINUOUS
 90
28
 70
0
 10
-3.3772712549
 20
16.8452592509
 10
-3.377115352
 20
16.8549141206
 10
-3.3766282581
 20
16.8651064541
 10
-3.3757819276
 20
16.875833724
 10
-3.3745458932
 20
16.887111214
 10
-3.3728940026
 20
16.8989060125
 10
-3.3708119235
 20
16.911133002
 10
-3.3682806691
 20
16.923767731
 10
-3.3652829176
 20
16.936780753
 10
-3.3618221554
 20
16.9500675161
 10
-3.357891261
 20
16.9635879933
 10
-3.3534852441
 20
16.9772988199
 10
-3.3486268212
 20
16.9910834539
 10
-3.3433241858
 20
17.0048860087
 10
-3.3375831616
 20
17.0186612651
 10
-3.3314365679
 20
17.0323075855
 10
-3.3249036014
 20
17.0457662617
 10
-3.3179998877
 20
17.0589900392
 10
-3.3107620118
 20
17.0718975158
 10
-3.3032145982
 20
17.0844362302
 10
-3.2953824527
 20
17.0965568622
 10
-3.2873082475
 20
17.1081885291
 10
-3.2790212562
 20
17.1192858686
 10
-3.270551961
 20
17.1298050089
 10
-3.2619485708
 20
17.1396861187
 10
-3.2532493025
 20
17.1488878663
 10
-3.2444812645
 20
17.1573836596
 10
-3.2356772781
 20
17.1651432528
  0
LWPOLYLINE
  5
3A6
100
AcDbEntity
  8
ASSI
100
AcDbPolyline
 62
7
  6
CONTINUOUS
 90
3
 70
0
 10
-1.270955839
 20
18.0216739787
 10
-1.2666641717
 20
18.0429279262
 10
-1.2640138054
 20
18.0641462223
  0
LWPOLYLINE
  5
3A7
100
AcDbEntity
  8
RACCORDO
100
AcDbPolyline
 62
253
  6
CONTINUOUS
 90
4
 70
0
 10
-3.7239713156
 20
6.118474608
 10
-3.7035541057
 20
6.1650116434
 10
-3.6850710866
 20
6.213432022
 10
-3.6749873839
 20
6.2443224385
  0
LWPOLYLINE
  5
3A8
100
AcDbEntity
  8
ASSI
100
AcDbPolyline
 62
7
  6
CONTINUOUS
 90
14
 70
0
 10
8.822399332
 20
12.2584898017
 10
8.8093745649
 20
12.2462203367
 10
8.7959796242
 20
12.2315817203
 10
8.7836384699
 20
12.2158784512
 10
8.7723844817
 20
12.1992146639
 10
8.7624238551
 20
12.1820217221
 10
8.7535622837
 20
12.1640753607
 10
8.7457713605
 20
12.1452747804
 10
8.7393254842
 20
12.1262960723
 10
8.7341534942
 20
12.1070021542
 10
8.7302407601
 20
12.087119924
 10
8.7277571405
 20
12.0671818269
 10
8.7267406098
 20
12.0472743304
 10
8.7267166966
 20
12.0436945405
  0
LWPOLYLINE
  5
3A9
100
AcDbEntity
  8
ASSI
100
AcDbPolyline
 62
253
  6
CONTINUOUS
 90
8
 70
0
 10
10.9402687187
 20
16.3237237108
 10
10.9591258713
 20
16.3413259902
 10
10.9749844813
 20
16.3598713695
 10
10.9877040687
 20
16.3791940259
 10
10.9971719627
 20
16.3991198763
 10
11.0033042538
 20
16.4194723623
 10
11.0060465897
 20
16.4400740205
 10
11.0062038484
 20
16.4463451862
  0
LWPOLYLINE
  5
3AA
100
AcDbEntity
  8
ASSI
100
AcDbPolyline
 62
253
  6
CONTINUOUS
 90
34
 70
0
 10
10.7355118978
 20
16.610715487
 10
10.7421897362
 20
16.6168583198
 10
10.7477385641
 20
16.6232233164
 10
10.7521583816
 20
16.629810477
 10
10.7554707382
 20
16.6366840366
 10
10.7576540843
 20
16.6437797601
 10
10.7586437714
 20
16.650904942
 10
10.7584059315
 20
16.6580580072
 10
10.7569744325
 20
16.6652405308
 10
10.7543862302
 20
16.6722645328
 10
10.750610556
 20
16.679125823
 10
10.7456781784
 20
16.6858285915
 10
10.7397183589
 20
16.6921974285
 10
10.7327040852
 20
16.6982235551
 10
10.7246623696
 20
16.7039157502
 10
10.71580351
 20
16.7091249406
 10
10.7061059063
 20
16.7138383961
 10
10.6955911586
 20
16.7180688469
 10
10.6845343658
 20
16.7217054115
 10
10.6729211803
 20
16.7247324343
 10
10.6607659497
 20
16.7271655708
 10
10.648386816
 20
16.7289409065
 10
10.635777791
 20
16.7300411183
 10
10.6229448628
 20
16.7304835293
 10
10.6102241375
 20
16.7302561936
 10
10.597618515
 20
16.7293413736
 10
10.5851250953
 20
16.727756807
 10
10.5730712848
 20
16.7255437612
 10
10.5614683846
 20
16.7226856123
 10
10.5503050935
 20
16.7191989843
 10
10.5398749145
 20
16.7151750163
 10
10.5302756817
 20
16.7106440882
 10
10.521409561
 20
16.70557582
 10
10.5132765523
 20
16.699970212
  0
LINE
  5
3AB
100
AcDbEntity
  8
ASSI
100
AcDbLine
 62
7
  6
CONTINUOUS
 10
10.0840034424
 20
13.3635640034
 11
8.8224125289
 21
12.2585014925
  0
LINE
  5
3AC
100
AcDbEntity
  8
ASSI
100
AcDbLine
 62
253
  6
CONTINUOUS
 10
10.2130063045
 20
13.3746044475
 11
8.9456598467
 21
12.2644525739
  0
LINE
  5
3AD
100
AcDbEntity
  8
ASSI
100
AcDbLine
 62
7
  6
CONTINUOUS
 10
7.796532726
 20
12.6248954218
 11
7.6469990715
 21
12.4959247548
  0
LINE
  5
3AE
100
AcDbEntity
  8
ASSI
100
AcDbLine
 62
253
  6
CONTINUOUS
 10
7.5917759051
 20
14.017773648
 11
10.7355118978
 21
16.610715487
  0
LINE
  5
3AF
100
AcDbEntity
  8
ASSI
100
AcDbLine
 62
253
  6
CONTINUOUS
 10
7.796532726
 20
13.7307818718
 11
10.9402687187
 21
16.3237237108
  0
LINE
  5
3B0
100
AcDbEntity
  8
ASSI
100
AcDbLine
 62
7
  6
CONTINUOUS
 10
7.796532726
 20
12.6248954218
 11
10.9402687187
 21
15.2178372608
  0
LINE
  5
3B1
100
AcDbEntity
  8
RACCORDO
100
AcDbLine
 62
253
  6
CONTINUOUS
 10
11.6925448766
 20
13.3594102382
 11
13.1832140307
 21
14.5889086524
  0
LINE
  5
3B2
100
AcDbEntity
  8
ASSI
100
AcDbLine
 62
7
  6
CONTINUOUS
 10
10.8937470719
 20
15.6333783443
 11
9.9810331985
 21
14.8821298342
  0
LINE
  5
3B3
100
AcDbEntity
  8
ASSI
100
AcDbLine
 62
7
  6
CONTINUOUS
 10
10.0840420371
 20
13.3635978133
 11
10.0886631228
 21
13.3673793537
  0
LINE
  5
3B4
100
AcDbEntity
  8
ASSI
100
AcDbLine
 62
253
  6
CONTINUOUS
 10
7.6469990715
 20
13.6090940242
 11
7.796532726
 21
13.7307818718
  0
LINE
  5
3B5
100
AcDbEntity
  8
ASSI
100
AcDbLine
 62
7
  6
CONTINUOUS
 10
10.532941955
 20
13.7073140421
 11
10.0886562404
 21
13.3673741002
  0
LINE
  5
3B6
100
AcDbEntity
  8
ASSI
100
AcDbLine
 62
253
  6
CONTINUOUS
 10
10.6564773533
 20
13.7139210576
 11
10.2130063045
 21
13.3746044475
  0
LWPOLYLINE
  5
3B7
100
AcDbEntity
  8
ASSI
100
AcDbPolyline
 62
7
  6
CONTINUOUS
 90
5
 70
0
 10
10.0886631228
 20
13.3673793537
 10
10.0913692747
 20
13.3693691893
 10
10.1032874282
 20
13.3765007436
 10
10.1164666051
 20
13.3819104824
 10
10.1309155621
 20
13.3855239198
  0
LWPOLYLINE
  5
3B8
100
AcDbEntity
  8
RACCORDO
100
AcDbPolyline
 62
253
  6
CONTINUOUS
 90
8
 70
0
 10
12.9916181785
 20
15.1713116812
 10
13.0064253374
 20
15.1819746287
 10
13.0210470345
 20
15.1903075385
 10
13.0353266085
 20
15.1962211292
 10
13.0491110636
 20
15.1996520409
 10
13.062252709
 20
15.2005635136
 10
13.074610741
 20
15.1989457815
 10
13.0821932592
 20
15.1965318414
  0
LWPOLYLINE
  5
3B9
100
AcDbEntity
  8
RACCORDO
100
AcDbPolyline
 62
253
  6
CONTINUOUS
 90
3
 70
0
 10
-26.3133478181
 20
-10.2009404495
 10
-26.2758184753
 20
-10.178151119
 10
-26.251381274
 20
-10.1598650524
  0
LWPOLYLINE
  5
3BA
100
AcDbEntity
  8
ASSI
100
AcDbPolyline
 62
7
  6
CONTINUOUS
 90
4
 70
0
 10
-24.2495675451
 20
24.8764276934
 10
-24.2342740823
 20
24.8554095909
 10
-24.2166131288
 20
24.8364509989
 10
-24.1968525331
 20
24.8198346442
  0
LWPOLYLINE
  5
3BB
100
AcDbEntity
  8
ASSI
100
AcDbPolyline
 62
7
  6
CONTINUOUS
 90
12
 70
0
 10
-1.2631209281
 20
18.4157530157
 10
-1.2648437685
 20
18.438964582
 10
-1.268884023
 20
18.4624206435
 10
-1.2753065122
 20
18.4854170201
 10
-1.284058728
 20
18.5075065589
 10
-1.2951785986
 20
18.5286235254
 10
-1.3085784921
 20
18.5484484801
 10
-1.3240752398
 20
18.5666418298
 10
-1.3414937498
 20
18.5829723477
 10
-1.36064208
 20
18.5972430413
 10
-1.3812511962
 20
18.6092462222
 10
-1.3982533271
 20
18.6169698155
  0
LWPOLYLINE
  5
3BC
100
AcDbEntity
  8
ASSI
100
AcDbPolyline
 62
7
  6
CONTINUOUS
 90
16
 70
0
 10
-1.74658859
 20
18.0140419232
 10
-1.7474696425
 20
18.0314006852
 10
-1.7501285373
 20
18.0493533577
 10
-1.7545557844
 20
18.067711657
 10
-1.7607474294
 20
18.0863484585
 10
-1.7686408
 20
18.1049891127
 10
-1.7780550748
 20
18.1232192723
 10
-1.7887570169
 20
18.1406966751
 10
-1.8006751703
 20
18.1574014276
 10
-1.8138543473
 20
18.1733963397
 10
-1.8283033042
 20
18.1886134236
 10
-1.8437736806
 20
18.2027199239
 10
-1.8599241178
 20
18.2153982885
 10
-1.8765048898
 20
18.2264853024
 10
-1.893389852
 20
18.2359257405
 10
-1.9103940466
 20
18.2436353442
  0
LINE
  5
3BD
100
AcDbEntity
  8
ASSI
100
AcDbLine
 62
7
  6
CONTINUOUS
 10
-1.2630215867
 20
18.4085889227
 11
-1.2631209281
 21
18.4157530157
  0
LINE
  5
3BE
100
AcDbEntity
  8
ASSI
100
AcDbLine
 62
253
  6
CONTINUOUS
 10
-2.483997033
 20
16.53878679
 11
-2.483997033
 21
15.8216237106
  0
LINE
  5
3BF
100
AcDbEntity
  8
ASSI
100
AcDbLine
 62
7
  6
CONTINUOUS
 10
-1.74658859
 20
16.4576280869
 11
-1.74658859
 21
18.0140419232
  0
LINE
  5
3C0
100
AcDbEntity
  8
ASSI
100
AcDbLine
 62
253
  6
CONTINUOUS
 10
-1.2972139729
 20
18.3444355245
 11
-1.2972139729
 21
18.0228912725
  0
LINE
  5
3C1
100
AcDbEntity
  8
ASSI
100
AcDbLine
 62
7
  6
CONTINUOUS
 10
-1.2630214874
 20
18.4085834991
 11
-1.2630214874
 21
18.0870392471
  0
LINE
  5
3C2
100
AcDbEntity
  8
ASSI
100
AcDbLine
 62
7
  6
CONTINUOUS
 10
0.3210792168
 20
16.4539980374
 11
0.3210792168
 21
15.3348816697
  0
LINE
  5
3C3
100
AcDbEntity
  8
ASSI
100
AcDbLine
 62
253
  6
CONTINUOUS
 10
0.4276851077
 20
16.3365364598
 11
0.4276851077
 21
15.2128220132
  0
LWPOLYLINE
  5
3C4
100
AcDbEntity
  8
ASSI
100
AcDbPolyline
 62
253
  6
CONTINUOUS
 90
22
 70
0
 10
-1.2972139729
 20
18.0228912725
 10
-1.2972312145
 20
18.0211808985
 10
-1.2973065277
 20
18.0193848746
 10
-1.2974399123
 20
18.0175032009
 10
-1.2976282975
 20
18.0155309349
 10
-1.2978747542
 20
18.0134730191
 10
-1.2981884952
 20
18.0113442809
 10
-1.2985709649
 20
18.0091424275
 10
-1.2990207189
 20
18.0068697518
 10
-1.299542637
 20
18.00454796
 10
-1.3001384259
 20
18.0021751774
 10
-1.3008063789
 20
17.9997532787
 10
-1.3015462551
 20
17.9973095937
 10
-1.3023598323
 20
17.9948429772
 10
-1.3032453328
 20
17.9923545743
 10
-1.304197182
 20
17.9898751508
 10
-1.3052170228
 20
17.9874044981
 10
-1.3063032123
 20
17.9849428248
 10
-1.3074452475
 20
17.9825215219
 10
-1.3086396276
 20
17.9801510532
 10
-1.3098898534
 20
17.977820955
 10
-1.311195925
 20
17.9755312273
  0
LWPOLYLINE
  5
3C5
100
AcDbEntity
  8
ASSI
100
AcDbPolyline
 62
253
  6
CONTINUOUS
 90
16
 70
0
 10
0.4276851077
 20
16.3365364598
 10
0.4284607582
 20
16.3584433696
 10
0.4307786543
 20
16.3813789967
 10
0.4346127436
 20
16.4050947333
 10
0.4399170425
 20
16.4293193246
 10
0.4466352037
 20
16.4538049485
 10
0.4547093719
 20
16.4783308516
 10
0.4640799084
 20
16.5026833877
 10
0.4746341912
 20
16.5265417083
 10
0.4862047781
 20
16.549535001
 10
0.4986444549
 20
16.5714021167
 10
0.5118213978
 20
16.5919403118
 10
0.5255602704
 20
16.6109071765
 10
0.5396974191
 20
16.6281152199
 10
0.5540872471
 20
16.6434241557
 10
0.5685766445
 20
16.656704871
  0
LINE
  5
3C6
100
AcDbEntity
  8
ASSI
100
AcDbLine
 62
7
  6
CONTINUOUS
 10
-1.2640138054
 20
18.0641462223
 11
-1.2630214896
 21
18.0870563872
  0
LWPOLYLINE
  5
3C7
100
AcDbEntity
  8
ASSI
100
AcDbPolyline
 62
253
  6
CONTINUOUS
 90
6
 70
0
 10
-1.2630214874
 20
18.4085834991
 10
-1.2635932186
 20
18.3999157436
 10
-1.2672123929
 20
18.3852226771
 10
-1.2741079799
 20
18.3709205
 10
-1.284164598
 20
18.3572485262
 10
-1.2972139729
 20
18.3444355245
  0
LWPOLYLINE
  5
3C8
100
AcDbEntity
  8
ASSI
100
AcDbPolyline
 62
253
  6
CONTINUOUS
 90
6
 70
0
 10
-1.2630214874
 20
18.0870392471
 10
-1.2635932186
 20
18.0783714916
 10
-1.2672123929
 20
18.0636784251
 10
-1.2741079799
 20
18.049376248
 10
-1.284164598
 20
18.0357042742
 10
-1.2972139729
 20
18.0228912725
  0
LWPOLYLINE
  5
3C9
100
AcDbEntity
  8
ASSI
100
AcDbPolyline
 62
253
  6
CONTINUOUS
 90
6
 70
0
 10
13.2836924155
 20
12.4884148001
 10
13.2967417608
 20
12.501227789
 10
13.306798369
 20
12.5148997488
 10
13.3136939624
 20
12.5292019132
 10
13.3173131551
 20
12.5438949701
 10
13.317884901
 20
12.5525628325
  0
LWPOLYLINE
  5
3CA
100
AcDbEntity
  8
ASSI
100
AcDbPolyline
 62
253
  6
CONTINUOUS
 90
27
 70
0
 10
8.9456598467
 20
12.2644525739
 10
8.9389366785
 20
12.2580633138
 10
8.9320386922
 20
12.25102637
 10
8.9249728346
 20
12.2433019265
 10
8.9177770808
 20
12.2348831005
 10
8.9105188458
 20
12.225805358
 10
8.9032262681
 20
12.2160631456
 10
8.8959303758
 20
12.205655579
 10
8.8887024747
 20
12.1946466566
 10
8.8815750893
 20
12.1830514626
 10
8.8745822603
 20
12.1708893132
 10
8.8677931933
 20
12.1582501233
 10
8.861242276
 20
12.1451719607
 10
8.8549596664
 20
12.1316875067
 10
8.8490006536
 20
12.1178928622
 10
8.8433962266
 20
12.1038417708
 10
8.8381706969
 20
12.0895756632
 10
8.8333612143
 20
12.0751795768
 10
8.828990894
 20
12.0607088828
 10
8.8250801253
 20
12.0462155413
 10
8.8216542378
 20
12.0317817282
 10
8.8187283437
 20
12.017462213
 10
8.8163160072
 20
12.0033124598
 10
8.81443175
 20
11.9894140809
 10
8.8130826553
 20
11.9758282972
 10
8.8122717479
 20
11.9625971439
 10
8.8120013316
 20
11.9497702857
  0
LWPOLYLINE
  5
3CB
100
AcDbEntity
  8
RACCORDO
100
AcDbPolyline
 62
7
  6
CONTINUOUS
 90
5
 70
0
 10
13.3370276198
 20
13.5520860338
 10
13.3795001384
 20
13.5922353962
 10
13.4200342835
 20
13.6372874515
 10
13.4556710571
 20
13.6846125201
 10
13.4862449958
 20
13.7339468402
  0
LWPOLYLINE
  5
3CC
100
AcDbEntity
  8
RACCORDO
100
AcDbPolyline
 62
253
  6
CONTINUOUS
 90
8
 70
0
 10
13.3370338182
 20
13.5520789697
 10
13.342209389
 20
13.5568681289
 10
13.3561258927
 20
13.5727331184
 10
13.3676672843
 20
13.5908424241
 10
13.3767071627
 20
13.6109977135
 10
13.3831465237
 20
13.6329782466
 10
13.3869148435
 20
13.6565432933
 10
13.3879708515
 20
13.6814347702
  0
LWPOLYLINE
  5
3CD
100
AcDbEntity
  8
ASSI
100
AcDbPolyline
 62
253
  6
CONTINUOUS
 90
16
 70
0
 10
11.3452291102
 20
11.3091225284
 10
11.3303472095
 20
11.2955568486
 10
11.3156530992
 20
11.2799640169
 10
11.301303442
 20
11.2625114066
 10
11.2874504803
 20
11.2433865866
 10
11.2742426649
 20
11.2227944768
 10
11.2618230652
 20
11.2009551636
 10
11.2503243389
 20
11.1781028905
 10
11.2398688125
 20
11.1544827815
 10
11.2305694513
 20
11.1303473754
 10
11.2225249215
 20
11.1059533547
 10
11.2158217146
 20
11.0815643628
 10
11.2105336063
 20
11.0574473267
 10
11.206716552
 20
11.0338621423
 10
11.2044092498
 20
11.0110590318
 10
11.2036351606
 20
10.9892813556
  0
LWPOLYLINE
  5
3CE
100
AcDbEntity
  8
RACCORDO
100
AcDbPolyline
 62
253
  6
CONTINUOUS
 90
11
 70
0
 10
13.3879708515
 20
14.3019168761
 10
13.4224038705
 20
14.3326473857
 10
13.4532206268
 20
14.3645988711
 10
13.4802920844
 20
14.39763463
 10
13.5035049097
 20
14.4316107358
 10
13.5227618914
 20
14.4663848032
 10
13.5379823774
 20
14.50181659
 10
13.5491026795
 20
14.537755211
 10
13.5560762838
 20
14.5740473188
 10
13.5588740401
 20
14.6105459144
 10
13.558933279
 20
14.6166936458
  0
LWPOLYLINE
  5
3CF
100
AcDbEntity
  8
ASSI
100
AcDbPolyline
 62
253
  6
CONTINUOUS
 90
16
 70
0
 10
11.5090345669
 20
11.0795291073
 10
11.5059485319
 20
11.0767786926
 10
11.5029630091
 20
11.0736955038
 10
11.5000779984
 20
11.0702795409
 10
11.4972649188
 20
11.0664875323
 10
11.4945523513
 20
11.0623627496
 10
11.4920260391
 20
11.0580350084
 10
11.48969195
 20
11.0534977138
 10
11.487544116
 20
11.0487574607
 10
11.4856503765
 20
11.0439638491
 10
11.4840187438
 20
11.0391150164
 10
11.4826412055
 20
11.0342128251
 10
11.4815615637
 20
11.0294124632
 10
11.480794419
 20
11.0247656598
 10
11.4803251707
 20
11.0202206858
 10
11.480153819
 20
11.0157775411
  0
LWPOLYLINE
  5
3D0
100
AcDbEntity
  8
RACCORDO
100
AcDbPolyline
 62
253
  6
CONTINUOUS
 90
21
 70
0
 10
13.1832140307
 20
14.5889086524
 10
13.2090965972
 20
14.6118581658
 10
13.2321216451
 20
14.6355425772
 10
13.2522891742
 20
14.6599618865
 10
13.2696695147
 20
14.6852321282
 10
13.2841923366
 20
14.7112372677
 10
13.2956466492
 20
14.7376292022
 10
13.3039852646
 20
14.7644045693
 10
13.3092553708
 20
14.7915667312
 10
13.3113875419
 20
14.8187776718
 10
13.3103423968
 20
14.8460384081
 10
13.3061593166
 20
14.8733479229
 10
13.2988870187
 20
14.9003651496
 10
13.2884847137
 20
14.9270887124
 10
13.2749931911
 20
14.9535199869
 10
13.258583537
 20
14.9793220332
 10
13.2392182894
 20
15.0044848996
 10
13.2169349103
 20
15.0290185378
 10
13.1920168719
 20
15.0526158629
 10
13.1644153153
 20
15.0752712316
 10
13.1341790994
 20
15.0969902872
  0
LINE
  5
3D1
100
AcDbEntity
  8
RACCORDO
100
AcDbLine
 62
253
  6
CONTINUOUS
 10
13.3879708515
 20
13.6814347702
 11
12.6029169734
 21
12.9937842803
  0
LINE
  5
3D2
100
AcDbEntity
  8
RACCORDO
100
AcDbLine
 62
7
  6
CONTINUOUS
 10
13.3370338182
 20
13.5520789697
 11
12.6692460512
 21
12.9671450273
  0
LINE
  5
3D3
100
AcDbEntity
  8
ASSI
100
AcDbLine
 62
7
  6
CONTINUOUS
 10
10.9090554863
 20
10.2601298944
 11
10.4655844375
 21
9.8776423728
  0
LINE
  5
3D4
100
AcDbEntity
  8
ASSI
100
AcDbLine
 62
253
  6
CONTINUOUS
 10
8.5830333604
 20
6.9990024354
 11
12.0446918547
 21
9.9320379455
  0
LINE
  5
3D5
100
AcDbEntity
  8
RACCORDO
100
AcDbLine
 62
253
  6
CONTINUOUS
 10
12.0642567476
 20
13.2101223708
 11
13.3879708515
 21
14.3019168761
  0
LINE
  5
3D6
100
AcDbEntity
  8
ASSI
100
AcDbLine
 62
253
  6
CONTINUOUS
 10
13.0924418444
 20
12.7356205157
 11
12.6705123417
 21
12.3876146198
  0
LINE
  5
3D7
100
AcDbEntity
  8
ASSI
100
AcDbLine
 62
253
  6
CONTINUOUS
 10
13.2562165487
 20
12.5060017303
 11
12.8343177984
 21
12.1580211988
  0
LINE
  5
3D8
100
AcDbEntity
  8
ASSI
100
AcDbLine
 62
253
  6
CONTINUOUS
 10
13.393658263
 20
11.062872808
 11
12.8343199733
 21
10.6016090266
  0
LWPOLYLINE
  5
3D9
100
AcDbEntity
  8
ASSI
100
AcDbPolyline
 62
7
  6
CONTINUOUS
 90
7
 70
0
 10
12.0969093554
 20
9.9655136673
 10
12.0893439896
 20
9.9593181464
 10
12.0812958805
 20
9.9533517059
 10
12.072784975
 20
9.9476278548
 10
12.0638323683
 20
9.9421595159
 10
12.054460251
 20
9.9369589942
 10
12.0446918547
 20
9.9320379455
  0
LINE
  5
3DA
100
AcDbEntity
  8
ASSI
100
AcDbLine
 62
253
  6
CONTINUOUS
 10
12.6705123417
 20
12.3876146198
 11
11.3452291102
 21
11.3091225284
  0
LINE
  5
3DB
100
AcDbEntity
  8
ASSI
100
AcDbLine
 62
253
  6
CONTINUOUS
 10
12.8343177984
 20
12.1580211988
 11
11.5090345669
 21
11.0795291073
  0
LINE
  5
3DC
100
AcDbEntity
  8
ASSI
100
AcDbLine
 62
253
  6
CONTINUOUS
 10
13.2591544828
 20
12.5081861227
 11
13.2562165487
 21
12.5060017303
  0
LWPOLYLINE
  5
3DD
100
AcDbEntity
  8
ASSI
100
AcDbPolyline
 62
253
  6
CONTINUOUS
 90
13
 70
0
 10
11.480153819
 20
11.0157775411
 10
11.463625375
 20
11.004361812
 10
11.4446660903
 20
10.9942653498
 10
11.4235932048
 20
10.9856570954
 10
11.4007593245
 20
10.978681088
 10
11.3765465215
 20
10.9734540552
 10
11.3513599413
 20
10.970063459
 10
11.3256210229
 20
10.9685660334
 10
11.2997604479
 20
10.9689868344
 10
11.2742109331
 20
10.9713188207
 10
11.2493999906
 20
10.9755229719
 10
11.2257427742
 20
10.9815289414
 10
11.2036351328
 20
10.9892362331
  0
LWPOLYLINE
  5
3DE
100
AcDbEntity
  8
ASSI
100
AcDbPolyline
 62
253
  6
CONTINUOUS
 90
13
 70
0
 10
11.480153819
 20
10.7156808173
 10
11.4636254476
 20
10.7042651157
 10
11.4446662393
 20
10.6941686655
 10
11.4235934253
 20
10.6855604092
 10
11.4007596048
 20
10.6785843885
 10
11.3765468438
 20
10.6733573343
 10
11.3513602825
 20
10.6699667131
 10
11.325621357
 20
10.6684692634
 10
11.2997607491
 20
10.668890046
 10
11.2742111799
 20
10.6712220242
 10
11.2494001656
 20
10.6754261813
 10
11.2257428647
 20
10.681432174
 10
11.2036351328
 20
10.6891395093
  0
LWPOLYLINE
  5
3DF
100
AcDbEntity
  8
ASSI
100
AcDbPolyline
 62
253
  6
CONTINUOUS
 90
16
 70
0
 10
8.6050205807
 20
5.5771602084
 10
8.5731174942
 20
5.5566197555
 10
8.5374664155
 20
5.5380152471
 10
8.4984284548
 20
5.5215351285
 10
8.4563990283
 20
5.5073463271
 10
8.4118038525
 20
5.4955925614
 10
8.3650946327
 20
5.4863928855
 10
8.3167444872
 20
5.4798404831
 10
8.2672431554
 20
5.4760017235
 10
8.217092037
 20
5.4749154896
 10
8.1667991134
 20
5.4765927838
 10
8.1168738023
 20
5.4810166169
 10
8.067821798
 20
5.4881421797
 10
8.0201399488
 20
5.4978972974
 10
7.9743112251
 20
5.5101831601
 10
7.9307998265
 20
5.5248753242
  0
LWPOLYLINE
  5
3E0
100
AcDbEntity
  8
RACCORDO
100
AcDbPolyline
 62
253
  6
CONTINUOUS
 90
16
 70
0
 10
-17.8122802032
 20
8.4085366863
 10
-17.8551199741
 20
8.4279519906
 10
-17.8975452209
 20
8.4515963738
 10
-17.9390911237
 20
8.479210783
 10
-17.979302497
 20
8.5104926689
 10
-18.0177387765
 20
8.5450993008
 10
-18.0539788462
 20
8.582651521
 10
-18.0876256525
 20
8.6227378997
 10
-18.1183105538
 20
8.664919242
 10
-18.14569736
 20
8.7087334004
 10
-18.1694860154
 20
8.7537003378
 10
-18.1894158866
 20
8.7993273869
 10
-18.2052686178
 20
8.8451146483
 10
-18.216870523
 20
8.8905604671
 10
-18.2240944895
 20
8.9351669296
 10
-18.2268613699
 20
8.9784453178
  0
LWPOLYLINE
  5
3E1
100
AcDbEntity
  8
ASSI
100
AcDbPolyline
 62
253
  6
CONTINUOUS
 90
6
 70
0
 10
13.2610205146
 20
-26.7218699677
 10
13.2496933129
 20
-26.699287695
 10
13.2358991975
 20
-26.6785733092
 10
13.2198715779
 20
-26.6600773178
 10
13.2018816572
 20
-26.6441126908
 10
13.182233842
 20
-26.6309495651
  0
LINE
  5
3E2
100
AcDbEntity
  8
ASSI
100
AcDbLine
 62
253
  6
CONTINUOUS
 10
3.0008024813
 20
14.1794000664
 11
3.0008024813
 21
15.303114513
  0
LINE
  5
3E3
100
AcDbEntity
  8
ASSI
100
AcDbLine
 62
253
  6
CONTINUOUS
 10
3.3464508389
 20
14.2231218786
 11
3.3464508389
 21
15.336291148
  0
LINE
  5
3E4
100
AcDbEntity
  8
ASSI
100
AcDbLine
 62
7
  6
CONTINUOUS
 10
3.4959844935
 20
14.3520925455
 11
3.4959844935
 21
15.4579789955
  0
LWPOLYLINE
  5
3E5
100
AcDbEntity
  8
ASSI
100
AcDbPolyline
 62
253
  6
CONTINUOUS
 90
16
 70
0
 10
3.0008024813
 20
15.303114513
 10
3.0015781317
 20
15.3250214223
 10
3.0038960277
 20
15.3479570491
 10
3.007730117
 20
15.3716727857
 10
3.013034416
 20
15.3958973777
 10
3.0197525774
 20
15.4203830025
 10
3.027826746
 20
15.4449089062
 10
3.0371972825
 20
15.4692614423
 10
3.0477515652
 20
15.4931197626
 10
3.0593221519
 20
15.5161130548
 10
3.0717618283
 20
15.5379801698
 10
3.0849387707
 20
15.558518364
 10
3.098677643
 20
15.5774852285
 10
3.1128147916
 20
15.594693272
 10
3.12720462
 20
15.6100022083
 10
3.1416940181
 20
15.6232829242
  0
LWPOLYLINE
  5
3E6
100
AcDbEntity
  8
ASSI
100
AcDbPolyline
 62
7
  6
CONTINUOUS
 90
13
 70
0
 10
7.796532726
 20
13.1016870082
 10
7.8089800482
 20
13.1251783057
 10
7.8191789483
 20
13.1500784544
 10
7.8271294264
 20
13.1763874543
 10
7.8328494826
 20
13.2042666874
 10
7.8363211167
 20
13.2335547717
 10
7.8374903282
 20
13.2637675608
 10
7.8363211167
 20
13.2949195133
 10
7.8328494826
 20
13.3269961706
 10
7.8271294264
 20
13.3594700108
 10
7.8191789483
 20
13.3921651931
 10
7.8089800482
 20
13.4252575582
 10
7.796532726
 20
13.4587471062
  0
LWPOLYLINE
  5
3E7
100
AcDbEntity
  8
ASSI
100
AcDbPolyline
 62
7
  6
CONTINUOUS
 90
11
 70
0
 10
12.0969093554
 20
10.6827660656
 10
12.0771971021
 20
10.6577673368
 10
12.0552308083
 20
10.6347529037
 10
12.0313267275
 20
10.6140858325
 10
12.0058047003
 20
10.5961004269
 10
11.979062734
 20
10.5809817769
 10
11.9515323974
 20
10.5688244458
 10
11.9234941207
 20
10.5597538544
 10
11.8953867026
 20
10.5539399663
 10
11.8678758309
 20
10.5514357022
 10
11.857007221
 20
10.5513450942
  0
LWPOLYLINE
  5
3E8
100
AcDbEntity
  8
ASSI
100
AcDbPolyline
 62
253
  6
CONTINUOUS
 90
6
 70
0
 10
13.2836924155
 20
12.1668705481
 10
13.2967417903
 20
12.1796835498
 10
13.3067984084
 20
12.1933555236
 10
13.3136939954
 20
12.2076577007
 10
13.3173131697
 20
12.2223507672
 10
13.317884901
 20
12.2310185227
  0
LWPOLYLINE
  5
3E9
100
AcDbEntity
  8
ASSI
100
AcDbPolyline
 62
253
  6
CONTINUOUS
 90
22
 70
0
 10
8.5830333548
 20
6.9990024305
 10
8.5347009349
 20
6.953459925
 10
8.4868219998
 20
6.9034316573
 10
8.4396207705
 20
6.8491718328
 10
8.3933092382
 20
6.7909629738
 10
8.3481126209
 20
6.7290918324
 10
8.3042689832
 20
6.6638459074
 10
8.2619813731
 20
6.5955460515
 10
8.2214501704
 20
6.5245388948
 10
8.1828988142
 20
6.4511715096
 10
8.1465098999
 20
6.3758113927
 10
8.1124506781
 20
6.2988335774
 10
8.0809061332
 20
6.2206110717
 10
8.0520249778
 20
6.1415317253
 10
8.0259403006
 20
6.0619904154
 10
8.0027948369
 20
5.9823764666
 10
7.9826996626
 20
5.9030896765
 10
7.9657439042
 20
5.8245185327
 10
7.9520174696
 20
5.747032933
 10
7.9415893715
 20
5.6710108209
 10
7.9345055313
 20
5.596835693
 10
7.9307998613
 20
5.5248753253
  0
LWPOLYLINE
  5
3EA
100
AcDbEntity
  8
ASSI
100
AcDbPolyline
 62
253
  6
CONTINUOUS
 90
22
 70
0
 10
8.9999711207
 20
6.4316944789
 10
8.970670586
 20
6.4054278154
 10
8.9418603902
 20
6.3768053883
 10
8.9135405333
 20
6.3458271975
 10
8.8855621087
 20
6.3123055071
 10
8.858074023
 20
6.2764280531
 10
8.8315229962
 20
6.2387580431
 10
8.8059366429
 20
6.1992812876
 10
8.7812873485
 20
6.1580119762
 10
8.7579389893
 20
6.1155558853
 10
8.7359101384
 20
6.071893012
 10
8.7151822227
 20
6.0270433592
 10
8.6960633992
 20
5.9816727115
 10
8.6785781669
 20
5.9357723769
 10
8.6627020268
 20
5.8893510473
 10
8.6486696395
 20
5.8431005832
 10
8.6365089607
 20
5.7970075119
 10
8.6261920347
 20
5.7510853062
 10
8.6178696544
 20
5.706066245
 10
8.6115920841
 20
5.6621944215
 10
8.6073090595
 20
5.6192257427
 10
8.6050205807
 20
5.5771602084
  0
LINE
  5
3EB
100
AcDbEntity
  8
ASSI
100
AcDbLine
 62
253
  6
CONTINUOUS
 10
13.2438938205
 20
10.0275361836
 11
8.9999711207
 21
6.4316944789
  0
LINE
  5
3EC
100
AcDbEntity
  8
ASSI
100
AcDbLine
 62
253
  6
CONTINUOUS
 10
13.8031719048
 20
10.4888892554
 11
13.2438938205
 21
10.0275987566
  0
LINE
  5
3ED
100
AcDbEntity
  8
RACCORDO
100
AcDbLine
 62
253
  6
CONTINUOUS
 10
13.8031719048
 20
10.21862279
 11
29.4945535005
 21
23.1609175872
  0
LINE
  5
3EE
100
AcDbEntity
  8
RACCORDO
100
AcDbLine
 62
253
  6
CONTINUOUS
 10
5.5157742692
 20
2.2206032182
 11
5.9400990555
 21
2.5659187847
  0
LINE
  5
3EF
100
AcDbEntity
  8
RACCORDO
100
AcDbLine
 62
253
  6
CONTINUOUS
 10
6.5529502616
 20
1.2501840205
 11
6.8068043403
 21
1.4567659871
  0
LWPOLYLINE
  5
3F0
100
AcDbEntity
  8
RACCORDO
100
AcDbPolyline
 62
253
  6
CONTINUOUS
 90
10
 70
0
 10
6.5529502616
 20
1.2501840205
 10
6.5220433411
 20
1.2296572068
 10
6.4875002921
 20
1.2109708025
 10
6.4496573094
 20
1.1943066758
 10
6.4088827051
 20
1.1798270126
 10
6.3655733237
 20
1.167672738
 10
6.3201506795
 20
1.1579621454
 10
6.2730568549
 20
1.1507897443
 10
6.2247501967
 20
1.1462253412
 10
6.1757008563
 20
1.1443133597
  0
LWPOLYLINE
  5
3F1
100
AcDbEntity
  8
RACCORDO
100
AcDbPolyline
 62
253
  6
CONTINUOUS
 90
22
 70
0
 10
5.5380702364
 20
1.5408915535
 10
5.5886166906
 20
1.5410142084
 10
5.6381935517
 20
1.5387248602
 10
5.6868012569
 20
1.5340209659
 10
5.734760092
 20
1.5268118438
 10
5.7817505999
 20
1.5171838639
 10
5.8268136868
 20
1.5053977464
 10
5.8698559533
 20
1.4914047099
 10
5.9109717629
 20
1.475244535
 10
5.9494837541
 20
1.4573071591
 10
5.9853140864
 20
1.4375635794
 10
6.0185414181
 20
1.4160325986
 10
6.0487230886
 20
1.3931740638
 10
6.0757777216
 20
1.3690001756
 10
6.099787189
 20
1.3434895489
 10
6.1205535838
 20
1.3170512683
 10
6.1380461468
 20
1.289645098
 10
6.1522957308
 20
1.2613047896
 10
6.1631967122
 20
1.2325508076
 10
6.1707137689
 20
1.2035554972
 10
6.1748819007
 20
1.174143251
 10
6.1757008562
 20
1.1443133602
  0
LWPOLYLINE
  5
3F2
100
AcDbEntity
  8
RACCORDO
100
AcDbPolyline
 62
253
  6
CONTINUOUS
 90
3
 70
0
 10
3.2589772802
 20
1.5233150057
 10
4.3996245422
 20
1.5202241857
 10
5.5380702364
 20
1.5408915535
  0
LWPOLYLINE
  5
3F3
100
AcDbEntity
  8
RACCORDO
100
AcDbPolyline
 62
253
  6
CONTINUOUS
 90
4
 70
0
 10
2.1493170346
 20
2.2294242332
 10
3.2708360887
 20
2.2029013254
 10
4.3929885002
 20
2.199960987
 10
5.5157742692
 20
2.2206032182
  0
LWPOLYLINE
  5
3F4
100
AcDbEntity
  8
RACCORDO
100
AcDbPolyline
 62
253
  6
CONTINUOUS
 90
22
 70
0
 10
5.5157701454
 20
2.220599862
 10
5.5970921616
 20
2.2065005748
 10
5.6774918603
 20
2.1873881525
 10
5.7565927224
 20
2.1635064423
 10
5.8341704125
 20
2.1351804887
 10
5.9097286597
 20
2.1026367994
 10
5.9825111087
 20
2.0660250637
 10
6.0521714066
 20
2.0256830461
 10
6.1184597029
 20
1.981973035
 10
6.1808142446
 20
1.9351293568
 10
6.2389623203
 20
1.8855198062
 10
6.2927430813
 20
1.8335308345
 10
6.3418136604
 20
1.7794379414
 10
6.3859705783
 20
1.7236529739
 10
6.4251555156
 20
1.6665032015
 10
6.4592595436
 20
1.6081238795
 10
6.4881878456
 20
1.5487897727
 10
6.5118565212
 20
1.488908392
 10
6.5301837576
 20
1.4287975548
 10
6.5431343798
 20
1.3687707979
 10
6.5507166647
 20
1.3091361449
 10
6.5529502616
 20
1.2501840205
  0
LWPOLYLINE
  5
3F5
100
AcDbEntity
  8
RACCORDO
100
AcDbPolyline
 62
253
  6
CONTINUOUS
 90
19
 70
0
 10
-15.3818250256
 20
10.4600364117
 10
-15.4176476393
 20
10.4759678484
 10
-15.4532400235
 20
10.4948845247
 10
-15.4883294078
 20
10.5166429727
 10
-15.5226544489
 20
10.5410837517
 10
-15.5559433815
 20
10.5680160287
 10
-15.5879187393
 20
10.5972134866
 10
-15.6183209689
 20
10.6284306819
 10
-15.6469388538
 20
10.6614418767
 10
-15.6735828263
 20
10.6960281478
 10
-15.6980692618
 20
10.7319633161
 10
-15.7201796663
 20
10.7689400158
 10
-15.739705164
 20
10.8066015389
 10
-15.7565082792
 20
10.8446579756
 10
-15.7704724999
 20
10.8828167774
 10
-15.7814848339
 20
10.9207106852
 10
-15.7894886524
 20
10.9580310812
 10
-15.7944641003
 20
10.9945301048
 10
-15.7964061923
 20
11.0299450433
  0
LINE
  5
3F6
100
AcDbEntity
  8
ASSI
100
AcDbLine
 62
253
  6
CONTINUOUS
 10
13.2696891352
 20
-26.7459380135
 11
13.2610205146
 21
-26.7218699677
  0
LWPOLYLINE
  5
3F7
100
AcDbEntity
  8
ASSI
100
AcDbPolyline
 62
253
  6
CONTINUOUS
 90
16
 70
0
 10
3.3464508389
 20
15.336291148
 10
3.3450753199
 20
15.3579399211
 10
3.3414997825
 20
15.3802746863
 10
3.3357633849
 20
15.4030508341
 10
3.3279289502
 20
15.4260189239
 10
3.3180822809
 20
15.4489274065
 10
3.306331222
 20
15.4715253794
 10
3.2928044754
 20
15.4935653462
 10
3.277650185
 20
15.5148059309
 10
3.2610343181
 20
15.5350145118
 10
3.2431388513
 20
15.5539697661
 10
3.2241597757
 20
15.5714640969
 10
3.2043049468
 20
15.5873059094
 10
3.1837918131
 20
15.6013217055
 10
3.1628450341
 20
15.6133579841
 10
3.1416940181
 20
15.6232829242
  0
LINE
  5
3F8
100
AcDbEntity
  8
RACCORDO
100
AcDbLine
 62
253
  6
CONTINUOUS
 10
5.5157468737
 20
2.2206058156
 11
5.517556705
 21
2.188801181
  0
LWPOLYLINE
  5
3F9
100
AcDbEntity
  8
ASSI
100
AcDbPolyline
 62
253
  6
CONTINUOUS
 90
13
 70
0
 10
7.9308000571
 20
-28.6795236009
 10
7.9345057256
 20
-28.7453113699
 10
7.9415895651
 20
-28.807777842
 10
7.9520176632
 20
-28.8666165873
 10
7.9657440985
 20
-28.9215380372
 10
7.9826998582
 20
-28.9722760112
 10
8.0027950339
 20
-29.0185863395
 10
8.0259404991
 20
-29.0602451301
 10
8.052025178
 20
-29.0970438353
 10
8.0809063352
 20
-29.1287938911
 10
8.1124508819
 20
-29.1553410919
 10
8.1465101057
 20
-29.1765563656
 10
8.1764280761
 20
-29.189986226
  0
LWPOLYLINE
  5
3FA
100
AcDbEntity
  8
ASSI
100
AcDbPolyline
 62
7
  6
CONTINUOUS
 90
16
 70
0
 10
3.4959844935
 20
15.4579789955
 10
3.4948831778
 20
15.479677448
 10
3.4915595593
 20
15.5021182887
 10
3.4860255005
 20
15.5250661628
 10
3.4782859442
 20
15.5483621646
 10
3.4684192309
 20
15.5716629824
 10
3.4566513875
 20
15.5944506819
 10
3.4432739598
 20
15.6162974354
 10
3.428376268
 20
15.6371783761
 10
3.4119022968
 20
15.6571720161
 10
3.3938411007
 20
15.6761933711
 10
3.3745031302
 20
15.6938264964
 10
3.3543150837
 20
15.7096744522
 10
3.3335891187
 20
15.7235332195
 10
3.312482916
 20
15.7353337671
 10
3.2912276726
 20
15.7449707718
  0
LINE
  5
3FB
100
AcDbEntity
  8
RACCORDO
100
AcDbLine
 62
253
  6
CONTINUOUS
 10
5.517556705
 20
2.188801181
 11
5.5212565686
 21
2.1139545864
  0
LINE
  5
3FC
100
AcDbEntity
  8
RACCORDO
100
AcDbLine
 62
253
  6
CONTINUOUS
 10
5.5212565686
 20
2.1139545864
 11
5.5249356136
 21
2.0267646288
  0
LWPOLYLINE
  5
3FD
100
AcDbEntity
  8
RACCORDO
100
AcDbPolyline
 62
253
  6
CONTINUOUS
 90
16
 70
0
 10
5.5245333392
 20
17.9624493966
 10
5.5236730802
 20
17.9845171418
 10
5.5205785483
 20
18.0072442305
 10
5.5152836469
 20
18.0303816605
 10
5.5078463872
 20
18.0536759337
 10
5.4983482528
 20
18.0768718331
 10
5.4868933068
 20
18.0997152189
 10
5.4736070517
 20
18.1219558141
 10
5.4586350538
 20
18.1433499459
 10
5.44214135
 20
18.1636632147
 10
5.4243066484
 20
18.1826730638
 10
5.4053263497
 20
18.2001712171
 10
5.3854084068
 20
18.2159659601
 10
5.3647710455
 20
18.2298842422
 10
5.3436403726
 20
18.2417735718
 10
5.3222479004
 20
18.2515036868
  0
LINE
  5
3FE
100
AcDbEntity
  8
RACCORDO
100
AcDbLine
 62
253
  6
CONTINUOUS
 10
5.5249356136
 20
2.0267646288
 11
5.5284418436
 21
1.9308334863
  0
LINE
  5
3FF
100
AcDbEntity
  8
RACCORDO
100
AcDbLine
 62
253
  6
CONTINUOUS
 10
5.5284418436
 20
1.9308334863
 11
5.5316304017
 21
1.8301244714
  0
LINE
  5
400
100
AcDbEntity
  8
RACCORDO
100
AcDbLine
 62
253
  6
CONTINUOUS
 10
5.5316304017
 20
1.8301244714
 11
5.534369555
 21
1.7287982904
  0
LWPOLYLINE
  5
401
100
AcDbEntity
  8
ASSI
100
AcDbPolyline
 62
7
  6
CONTINUOUS
 90
18
 70
0
 10
4.50824247
 20
19.0562922892
 10
4.5078879794
 20
19.0704973782
 10
4.5046379465
 20
19.1018802502
 10
4.4979560309
 20
19.133064807
 10
4.4878455129
 20
19.1636634383
 10
4.474382146
 20
19.1932552793
 10
4.4576131966
 20
19.2215877734
 10
4.4376219389
 20
19.2483883711
 10
4.4146460568
 20
19.273277029
 10
4.388902891
 20
19.2959980641
 10
4.3603647175
 20
19.3165122112
 10
4.3293434359
 20
19.3345529854
 10
4.2964468748
 20
19.3498066588
 10
4.2614917987
 20
19.3623813709
 10
4.2246822282
 20
19.3721632344
 10
4.187196393
 20
19.3788685622
 10
4.148961389
 20
19.3826008995
 10
4.109987313
 20
19.3833040996
  0
LINE
  5
402
100
AcDbEntity
  8
RACCORDO
100
AcDbLine
 62
253
  6
CONTINUOUS
 10
5.534369555
 20
1.7287982904
 11
5.5365461366
 21
1.6310411473
  0
LINE
  5
403
100
AcDbEntity
  8
RACCORDO
100
AcDbLine
 62
253
  6
CONTINUOUS
 10
5.5365461366
 20
1.6310411473
 11
5.5380702211
 21
1.5408917944
  0
LWPOLYLINE
  5
404
100
AcDbEntity
  8
RACCORDO
100
AcDbPolyline
 62
253
  6
CONTINUOUS
 90
10
 70
0
 10
5.8107957086
 20
2.8214541938
 10
5.8112695297
 20
2.7785426869
 10
5.8147955955
 20
2.7386410504
 10
5.8213343726
 20
2.7021966502
 10
5.8308125503
 20
2.6696180906
 10
5.8431238619
 20
2.6412706332
 10
5.8581302764
 20
2.6174721016
 10
5.8756635463
 20
2.5984893181
 10
5.8955270935
 20
2.5845351124
 10
5.9082798589
 20
2.5787155185
  0
LINE
  5
405
100
AcDbEntity
  8
ASSI
100
AcDbLine
 62
7
  6
CONTINUOUS
 10
4.0552625777
 20
14.826251705
 11
4.0552625777
 21
15.9192694944
  0
LINE
  5
406
100
AcDbEntity
  8
ASSI
100
AcDbLine
 62
253
  6
CONTINUOUS
 10
4.4423437732
 20
18.9334803433
 11
4.4423083187
 21
17.8275646505
  0
LINE
  5
407
100
AcDbEntity
  8
ASSI
100
AcDbLine
 62
7
  6
CONTINUOUS
 10
4.5082433139
 20
19.0562555661
 11
4.5082434484
 21
17.9482086921
  0
LINE
  5
408
100
AcDbEntity
  8
ASSI
100
AcDbLine
 62
7
  6
CONTINUOUS
 10
4.6216274493
 20
14.7268009136
 11
4.6216274493
 21
13.6076845459
  0
LINE
  5
409
100
AcDbEntity
  8
ASSI
100
AcDbLine
 62
253
  6
CONTINUOUS
 10
4.7282333402
 20
14.609339336
 11
4.7282333402
 21
13.4856248894
  0
LINE
  5
40A
100
AcDbEntity
  8
SMUSSO
100
AcDbLine
 62
253
  6
CONTINUOUS
 10
5.5245333392
 20
17.8132488551
 11
5.5245333392
 21
17.9624493966
  0
LINE
  5
40B
100
AcDbEntity
  8
RACCORDO
100
AcDbLine
 62
7
  6
CONTINUOUS
 10
5.5697453281
 20
17.8255307707
 11
5.5697453281
 21
18.0446968787
  0
LINE
  5
40C
100
AcDbEntity
  8
RACCORDO
100
AcDbLine
 62
253
  6
CONTINUOUS
 10
5.5697452666
 20
18.0445962339
 11
5.5697453281
 21
18.044696176
  0
LWPOLYLINE
  5
40D
100
AcDbEntity
  8
RACCORDO
100
AcDbPolyline
 62
253
  6
CONTINUOUS
 90
16
 70
0
 10
5.8107920504
 20
-24.6150875092
 10
5.8112665157
 20
-24.5712761906
 10
5.8147931722
 20
-24.5250999199
 10
5.8213324812
 20
-24.4770763971
 10
5.830811128
 20
-24.4277440324
 10
5.8431228439
 20
-24.37765591
 10
5.8581295974
 20
-24.3273735872
 10
5.8756631421
 20
-24.2774607985
 10
5.8955269026
 20
-24.2284771354
 10
5.9174981786
 20
-24.1809717726
 10
5.9413306417
 20
-24.1354773112
 10
5.966757097
 20
-24.092503807
 10
5.9934924786
 20
-24.0525330526
 10
6.0212370459
 20
-24.0160131755
 10
6.0496797438
 20
-23.9833536142
 10
6.0785016902
 20
-23.9549205276
  0
LWPOLYLINE
  5
40E
100
AcDbEntity
  8
RACCORDO
100
AcDbPolyline
 62
7
  6
CONTINUOUS
 90
10
 70
0
 10
6.8136304782
 20
1.3368437708
 10
6.7614122348
 20
-1.4294537601
 10
6.7211759464
 20
-4.2520955182
 10
6.6943468244
 20
-7.0637220149
 10
6.6809252951
 20
-9.8641766682
 10
6.6809117067
 20
-12.6533292352
 10
6.6943064831
 20
-15.4310595711
 10
6.7211101268
 20
-18.1972372181
 10
6.76132307
 20
-20.9517054791
 10
6.8136389715
 20
-23.634880005
  0
LWPOLYLINE
  5
40F
100
AcDbEntity
  8
RACCORDO
100
AcDbPolyline
 62
253
  6
CONTINUOUS
 90
22
 70
0
 10
6.5529502616
 20
1.2501840205
 10
6.5233438016
 20
0.0601269772
 10
6.4967045901
 20
-1.1277155148
 10
6.4730326269
 20
-2.3133434555
 10
6.4523316518
 20
-3.4967571652
 10
6.4345979251
 20
-4.6779563234
 10
6.4198202283
 20
-5.8569399698
 10
6.4079962724
 20
-7.0337095703
 10
6.3991283464
 20
-8.2082636589
 10
6.3932120981
 20
-9.3805968761
 10
6.390245283
 20
-10.5507108984
 10
6.3902301455
 20
-11.7186040494
 10
6.3931690673
 20
-12.8842659405
 10
6.3990597978
 20
-14.0476984529
 10
6.4079045876
 20
-15.2088997053
 10
6.4197125698
 20
-16.3678536661
 10
6.4344814373
 20
-17.5245625095
 10
6.4522134974
 20
-18.6790240612
 10
6.4729248043
 20
-19.8312157664
 10
6.4966207098
 20
-20.9811301069
 10
6.5232958622
 20
-22.128774601
 10
6.5529502616
 20
-23.2741492485
  0
LWPOLYLINE
  5
410
100
AcDbEntity
  8
RACCORDO
100
AcDbPolyline
 62
253
  6
CONTINUOUS
 90
22
 70
0
 10
6.1757008562
 20
1.1443133602
 10
6.1456266562
 20
-0.0468956622
 10
6.1185308062
 20
-1.2358966797
 10
6.0944350772
 20
-2.4226847839
 10
6.0733772022
 20
-3.6072483865
 10
6.0553556909
 20
-4.7895879156
 10
6.0403296813
 20
-5.9697156442
 10
6.0283013294
 20
-7.1476246931
 10
6.0192898921
 20
-8.32330765
 10
6.013276393
 20
-9.4967750309
 10
6.01025599
 20
-10.6680185729
 10
6.0102405705
 20
-11.8370292262
 10
6.0132326423
 20
-13.0038154115
 10
6.0192202098
 20
-14.16836756
 10
6.0282080522
 20
-15.3306749177
 10
6.0402202178
 20
-16.4907432048
 10
6.0552372571
 20
-17.6485614716
 10
6.0732569628
 20
-18.8041172975
 10
6.094325438
 20
-19.9574132167
 10
6.1184457839
 20
-21.10844116
 10
6.1455782597
 20
-22.2571826389
 10
6.1757008562
 20
-23.4036236945
  0
LWPOLYLINE
  5
411
100
AcDbEntity
  8
RACCORDO
100
AcDbPolyline
 62
253
  6
CONTINUOUS
 90
22
 70
0
 10
6.1757008562
 20
-23.4036236945
 10
6.1748779632
 20
-23.4323326778
 10
6.1707069214
 20
-23.4608389288
 10
6.1631879821
 20
-23.4891417423
 10
6.152285963
 20
-23.5174079224
 10
6.1380363686
 20
-23.5454674101
 10
6.12054537
 20
-23.5728134558
 10
6.0997824185
 20
-23.5994108612
 10
6.0757779695
 20
-23.6252883628
 10
6.0487295642
 20
-23.650034724
 10
6.0185563634
 20
-23.6736663422
 10
5.9853387112
 20
-23.6961576666
 10
5.949515806
 20
-23.717034924
 10
5.91100748
 20
-23.7362757052
 10
5.8698930833
 20
-23.753892237
 10
5.8268510426
 20
-23.7694644988
 10
5.7817879388
 20
-23.7829499051
 10
5.7347962267
 20
-23.7943820606
 10
5.6868332328
 20
-23.8034588551
 10
5.6382178248
 20
-23.8100790458
 10
5.5886303053
 20
-23.8143395607
 10
5.5380702364
 20
-23.8162378517
  0
LWPOLYLINE
  5
412
100
AcDbEntity
  8
ASSI
100
AcDbPolyline
 62
253
  6
CONTINUOUS
 90
16
 70
0
 10
4.7282333402
 20
14.609339336
 10
4.7290089907
 20
14.6312462458
 10
4.7313268868
 20
14.6541818729
 10
4.7351609761
 20
14.6778976095
 10
4.740465275
 20
14.7021222008
 10
4.7471834362
 20
14.7266078247
 10
4.7552576044
 20
14.7511337278
 10
4.7646281409
 20
14.7754862639
 10
4.7751824237
 20
14.7993445846
 10
4.7867530106
 20
14.8223378772
 10
4.7991926874
 20
14.8442049929
 10
4.8123696303
 20
14.864743188
 10
4.8261085029
 20
14.8837100528
 10
4.8402456516
 20
14.9009180961
 10
4.8546354796
 20
14.9162270319
 10
4.8691248771
 20
14.9295077473
  0
LWPOLYLINE
  5
413
100
AcDbEntity
  8
ASSI
100
AcDbPolyline
 62
253
  6
CONTINUOUS
 90
16
 70
0
 10
7.3013507138
 20
13.5759173892
 10
7.3021263642
 20
13.5978242985
 10
7.3044442602
 20
13.6207599253
 10
7.3082783495
 20
13.644475662
 10
7.3135826485
 20
13.6687002539
 10
7.32030081
 20
13.6931858787
 10
7.3283749785
 20
13.7177117824
 10
7.337745515
 20
13.7420643185
 10
7.3482997978
 20
13.7659226389
 10
7.3598703844
 20
13.788915931
 10
7.3723100608
 20
13.810783046
 10
7.3854870032
 20
13.8313212403
 10
7.3992258755
 20
13.8502881047
 10
7.4133630241
 20
13.8674961482
 10
7.4277528526
 20
13.8828050845
 10
7.4422422506
 20
13.8960858005
  0
LWPOLYLINE
  5
414
100
AcDbEntity
  8
RACCORDO
100
AcDbPolyline
 62
7
  6
CONTINUOUS
 90
7
 70
0
 10
13.4862449958
 20
13.7339468402
 10
13.5115075741
 20
13.7847865958
 10
13.5313954667
 20
13.836788056
 10
13.5458891715
 20
13.8895602794
 10
13.5549636406
 20
13.9423559594
 10
13.5587719422
 20
13.99461527
 10
13.5589297201
 20
14.008496087
  0
LWPOLYLINE
  5
415
100
AcDbEntity
  8
ASSI
100
AcDbPolyline
 62
7
  6
CONTINUOUS
 90
5
 70
0
 10
13.276187555
 20
12.0820817186
 10
13.2854963775
 20
12.099114534
 10
13.2948290439
 20
12.1193958393
 10
13.3025203075
 20
12.1398454383
 10
13.3086924729
 20
12.1606193452
  0
LWPOLYLINE
  5
416
100
AcDbEntity
  8
ASSI
100
AcDbPolyline
 62
253
  6
CONTINUOUS
 90
4
 70
0
 10
13.2697104634
 20
12.1195105029
 10
13.2717879899
 20
12.1232249302
 10
13.2737164354
 20
12.12703186
 10
13.2754957997
 20
12.1309312924
  0
LINE
  5
417
100
AcDbEntity
  8
ASSI
100
AcDbLine
 62
253
  6
CONTINUOUS
 10
12.8343177984
 20
11.3810916481
 11
13.2697104634
 21
12.1195105029
  0
LINE
  5
418
100
AcDbEntity
  8
ASSI
100
AcDbLine
 62
7
  6
CONTINUOUS
 10
12.8343178017
 20
11.3326769585
 11
13.2761848486
 21
12.0820762593
  0
LINE
  5
419
100
AcDbEntity
  8
RACCORDO
100
AcDbLine
 62
253
  6
CONTINUOUS
 10
13.8031719048
 20
5.6598615186
 11
31.5422179287
 21
20.2909611807
  0
LWPOLYLINE
  5
41A
100
AcDbEntity
  8
RACCORDO
100
AcDbPolyline
 62
253
  6
CONTINUOUS
 90
16
 70
0
 10
-26.9486211947
 20
14.7499485601
 10
-26.9047371541
 20
14.7328651502
 10
-26.8579574934
 20
14.7183956286
 10
-26.8088076833
 20
14.7067025298
 10
-26.7578398182
 20
14.697917201
 10
-26.7056264143
 20
14.692138327
 10
-26.6527539791
 20
14.6894308211
 10
-26.5998164226
 20
14.6898250966
 10
-26.5474083866
 20
14.6933167245
 10
-26.4961185646
 20
14.699866484
 10
-26.4465230895
 20
14.7094008022
 10
-26.3991790618
 20
14.7218125814
 10
-26.3546182916
 20
14.7369624013
 10
-26.3133413251
 20
14.7546800857
 10
-26.2758118218
 20
14.774766614
 10
-26.2424513466
 20
14.7969963564
  0
LWPOLYLINE
  5
41B
100
AcDbEntity
  8
RACCORDO
100
AcDbPolyline
 62
7
  6
CONTINUOUS
 90
4
 70
0
 10
-4.7452235442
 20
6.6608898919
 10
-1.191245312
 20
5.2775768282
 10
2.3806404049
 20
3.9091009037
 10
5.9082813154
 20
2.5787194193
  0
LINE
  5
41C
100
AcDbEntity
  8
RACCORDO
100
AcDbLine
 62
253
  6
CONTINUOUS
 10
-15.3818250256
 20
10.4600364117
 11
-3.9973069863
 21
5.8877573092
  0
LWPOLYLINE
  5
41D
100
AcDbEntity
  8
RACCORDO
100
AcDbPolyline
 62
7
  6
CONTINUOUS
 90
26
 70
0
 10
5.9083298319
 20
2.5786968323
 10
5.9557136743
 20
2.5596383561
 10
6.0104328186
 20
2.5343592004
 10
6.0658007795
 20
2.5052120881
 10
6.1214147332
 20
2.4722778292
 10
6.1768673452
 20
2.4356842422
 10
6.2317905683
 20
2.3955748875
 10
6.2858287951
 20
2.3521298511
 10
6.3386340832
 20
2.305560218
 10
6.3898668386
 20
2.2561071067
 10
6.4392174587
 20
2.2040322003
 10
6.4864139553
 20
2.1495958779
 10
6.531173869
 20
2.093104402
 10
6.5732418709
 20
2.03488369
 10
6.6124071796
 20
1.9752453208
 10
6.6484551746
 20
1.9145466084
 10
6.6812009499
 20
1.8531614918
 10
6.7104991762
 20
1.7914593104
 10
6.7362295232
 20
1.7298148316
 10
6.7582913652
 20
1.6686495389
 10
6.7766139876
 20
1.6084447107
 10
6.7911962623
 20
1.5495955823
 10
6.8020755945
 20
1.4925067582
 10
6.809327482
 20
1.4376955968
 10
6.8131034631
 20
1.385569498
 10
6.8136264452
 20
1.3369073705
  0
LWPOLYLINE
  5
41E
100
AcDbEntity
  8
RACCORDO
100
AcDbPolyline
 62
253
  6
CONTINUOUS
 90
28
 70
0
 10
5.8107920502
 20
2.8214511678
 10
5.8838159015
 20
2.7919842989
 10
5.9561796601
 20
2.7585425293
 10
6.0278837787
 20
2.7211262067
 10
6.0992395318
 20
2.6795456195
 10
6.1699368929
 20
2.633991444
 10
6.2390441456
 20
2.5850344148
 10
6.3064589239
 20
2.5326822734
 10
6.3722845322
 20
2.4769279447
 10
6.4358972296
 20
2.4183194872
 10
6.4972776126
 20
2.3568361045
 10
6.5564458612
 20
2.2924991053
 10
6.6128371062
 20
2.225919287
 10
6.6664463155
 20
2.1570442337
 10
6.7172790349
 20
2.0859266508
 10
6.7647856709
 20
2.0133345359
 10
6.8089128853
 20
1.9392813581
 10
6.8497140902
 20
1.863753587
 10
6.8867992028
 20
1.7874782296
 10
6.920138351
 20
1.7104416888
 10
6.9497611456
 20
1.6326572482
 10
6.9753661535
 20
1.5548917847
 10
6.9969161586
 20
1.4770962948
 10
7.0144478074
 20
1.3993192487
 10
7.0277698555
 20
1.3224732661
 10
7.0368180848
 20
1.2468621679
 10
7.0416557125
 20
1.1721812952
 10
7.0422823863
 20
1.0984303534
  0
LWPOLYLINE
  5
41F
100
AcDbEntity
  8
RACCORDO
100
AcDbPolyline
 62
253
  6
CONTINUOUS
 90
11
 70
0
 10
7.0422823809
 20
1.098430349
 10
6.9993610338
 20
1.1162107962
 10
6.9599684733
 20
1.1363507688
 10
6.9245471774
 20
1.1586240437
 10
6.8934950172
 20
1.1827804358
 10
6.867160787
 20
1.2085486075
 10
6.845840287
 20
1.235639117
 10
6.8297730003
 20
1.2637476693
 10
6.8191394033
 20
1.2925585341
 10
6.8140589382
 20
1.3217480924
 10
6.8136304782
 20
1.3368437708
  0
LWPOLYLINE
  5
420
100
AcDbEntity
  8
RACCORDO
100
AcDbPolyline
 62
7
  6
CONTINUOUS
 90
7
 70
0
 10
-25.6176344516
 20
15.2402466033
 10
-22.2396494728
 20
13.7972876724
 10
-18.7781446916
 20
12.3409584524
 10
-15.2977549638
 20
10.8990755273
 10
-11.7986744021
 20
9.4717171399
 10
-8.2810991857
 20
8.0589627061
 10
-4.7452235442
 20
6.6608898919
  0
LWPOLYLINE
  5
421
100
AcDbEntity
  8
RACCORDO
100
AcDbPolyline
 62
253
  6
CONTINUOUS
 90
22
 70
0
 10
-25.7201464927
 20
15.484986935
 10
-24.2536086637
 20
14.85634575
 10
-22.7835414845
 20
14.2302485242
 10
-21.3099563787
 20
13.6067001107
 10
-19.8328725748
 20
12.9857086381
 10
-18.3522938165
 20
12.3672755995
 10
-16.8682081213
 20
11.751396043
 10
-15.3806265993
 20
11.1380749593
 10
-13.8895605151
 20
10.5273174802
 10
-12.394997723
 20
9.9191191873
 10
-10.8969491392
 20
9.3134853795
 10
-9.3954256123
 20
8.7104214026
 10
-7.8904145975
 20
8.1099231564
 10
-6.3819269034
 20
7.5119960483
 10
-4.869973266
 20
6.9166455305
 10
-3.3545407398
 20
6.3238678205
 10
-1.8356399148
 20
5.7336686202
 10
-0.313281153
 20
5.1460536191
 10
1.2125492152
 20
4.5610193453
 10
2.7418490274
 20
3.9785686769
 10
4.2746000579
 20
3.3987106466
 10
5.8107920502
 20
2.8214511678
  0
LWPOLYLINE
  5
422
100
AcDbEntity
  8
ASSI
100
AcDbPolyline
 62
7
  6
CONTINUOUS
 90
4
 70
0
 10
-5.8186465486
 20
17.4741543058
 10
-5.8033530858
 20
17.4531362033
 10
-5.7856921323
 20
17.4341776113
 10
-5.7659315366
 20
17.4175612566
  0
LWPOLYLINE
  5
423
100
AcDbEntity
  8
ASSI
100
AcDbPolyline
 62
253
  6
CONTINUOUS
 90
5
 70
0
 10
-5.1612105331
 20
19.5217838905
 10
-5.1553555855
 20
19.5100808409
 10
-5.1524052841
 20
19.4996612255
 10
-5.1524095622
 20
19.4907013577
 10
-5.1547330631
 20
19.4843548808
  0
LWPOLYLINE
  5
424
100
AcDbEntity
  8
ASSI
100
AcDbPolyline
 62
253
  6
CONTINUOUS
 90
8
 70
0
 10
-1.299747372
 20
18.3593129174
 10
-1.2990833094
 20
18.3575690965
 10
-1.2985179568
 20
18.3556824015
 10
-1.2980495396
 20
18.3536555709
 10
-1.2976843077
 20
18.3515148439
 10
-1.2974243442
 20
18.3492689671
 10
-1.2972675659
 20
18.346909194
 10
-1.2972139729
 20
18.3444355245
  0
LWPOLYLINE
  5
425
100
AcDbEntity
  8
ASSI
100
AcDbPolyline
 62
7
  6
CONTINUOUS
 90
6
 70
0
 10
13.3126402969
 20
-26.7822684874
 10
13.3058863046
 20
-26.7572879425
 10
13.2962922143
 20
-26.733133905
 10
13.2837202028
 20
-26.7099323818
 10
13.2684168379
 20
-26.6884073296
 10
13.2506533138
 20
-26.6689847102
  0
LWPOLYLINE
  5
426
100
AcDbEntity
  8
ASSI
100
AcDbPolyline
 62
253
  6
CONTINUOUS
 90
16
 70
0
 10
8.9999711207
 20
6.4316944789
 10
8.9961482536
 20
6.4740831838
 10
8.9879714388
 20
6.5178741109
 10
8.9755300569
 20
6.5625883465
 10
8.9589601339
 20
6.6077368627
 10
8.9384428466
 20
6.6528258886
 10
8.9142025355
 20
6.6973623102
 10
8.8865042618
 20
6.7408590389
 10
8.8556509306
 20
6.7828403165
 10
8.821979971
 20
6.8228469458
 10
8.7858596097
 20
6.8604413527
 10
8.7476848931
 20
6.8952123135
 10
8.7078733943
 20
6.9267794469
 10
8.6668605611
 20
6.9547974548
 10
8.6250949452
 20
6.9789598838
 10
8.5830333559
 20
6.9990024315
  0
LWPOLYLINE
  5
427
100
AcDbEntity
  8
ASSI
100
AcDbPolyline
 62
253
  6
CONTINUOUS
 90
16
 70
0
 10
7.6469990715
 20
13.6090940242
 10
7.6456235525
 20
13.6307427973
 10
7.642048015
 20
13.6530775625
 10
7.6363116174
 20
13.6758537103
 10
7.6284771827
 20
13.6988218001
 10
7.6186305134
 20
13.7217302828
 10
7.6068794546
 20
13.7443282557
 10
7.593352708
 20
13.7663682224
 10
7.5781984175
 20
13.7876088072
 10
7.5615825506
 20
13.8078173881
 10
7.5436870838
 20
13.8267726424
 10
7.5247080082
 20
13.8442669731
 10
7.5048531794
 20
13.8601087856
 10
7.4843400456
 20
13.8741245817
 10
7.4633932666
 20
13.8861608603
 10
7.4422422506
 20
13.8960858005
  0
LWPOLYLINE
  5
428
100
AcDbEntity
  8
ASSI
100
AcDbPolyline
 62
253
  6
CONTINUOUS
 90
22
 70
0
 10
8.6050206988
 20
-28.5925370578
 10
8.6073092297
 20
-28.6310547473
 10
8.6115922932
 20
-28.6673834717
 10
8.6178698895
 20
-28.7015232309
 10
8.6261922785
 20
-28.7336401975
 10
8.6365092002
 20
-28.763568199
 10
8.6486698746
 20
-28.7908087181
 10
8.6627022619
 20
-28.8153049386
 10
8.6785784018
 20
-28.8371136767
 10
8.696063634
 20
-28.8559068633
 10
8.7151824573
 20
-28.871637826
 10
8.7359103728
 20
-28.8843532371
 10
8.7579392234
 20
-28.8938650443
 10
8.7812875823
 20
-28.9001244512
 10
8.8059368764
 20
-28.9031802541
 10
8.8315232293
 20
-28.9029907898
 10
8.8580742557
 20
-28.8994990583
 10
8.8855623409
 20
-28.8927620595
 10
8.9135407651
 20
-28.8829091305
 10
8.9418606215
 20
-28.8699833835
 10
8.9706708168
 20
-28.8539417063
 10
8.999971351
 20
-28.8347840989
  0
LWPOLYLINE
  5
429
100
AcDbEntity
  8
ASSI
100
AcDbPolyline
 62
7
  6
CONTINUOUS
 90
16
 70
0
 10
7.796532726
 20
13.7307818718
 10
7.7954314104
 20
13.7524803243
 10
7.7921077918
 20
13.7749211649
 10
7.786573733
 20
13.797869039
 10
7.7788341767
 20
13.8211650409
 10
7.7689674634
 20
13.8444658586
 10
7.75719962
 20
13.8672535581
 10
7.7438221923
 20
13.8891003116
 10
7.7289245005
 20
13.9099812523
 10
7.7124505294
 20
13.9299748924
 10
7.6943893332
 20
13.9489962473
 10
7.6750513627
 20
13.9666293726
 10
7.6548633163
 20
13.9824773284
 10
7.6341373512
 20
13.9963360958
 10
7.6130311485
 20
14.0081366434
 10
7.5917759051
 20
14.017773648
  0
LWPOLYLINE
  5
42A
100
AcDbEntity
  8
ASSI
100
AcDbPolyline
 62
7
  6
CONTINUOUS
 90
12
 70
0
 10
8.7267167026
 20
11.7435596941
 10
8.7269276358
 20
11.7332149247
 10
8.7286685742
 20
11.7122115832
 10
8.7322791089
 20
11.691161003
 10
8.7378523515
 20
11.6703194884
 10
8.7455385148
 20
11.6497051125
 10
8.7552823425
 20
11.6298354044
 10
8.7670000436
 20
11.611025899
 10
8.7806357875
 20
11.5934520632
 10
8.7959528003
 20
11.5774535126
 10
8.812744889
 20
11.5632171522
 10
8.8307846488
 20
11.550887878
  0
LWPOLYLINE
  5
42B
100
AcDbEntity
  8
ASSI
100
AcDbPolyline
 62
253
  6
CONTINUOUS
 90
19
 70
0
 10
8.8120013316
 20
11.6496735619
 10
8.8121195772
 20
11.6414413042
 10
8.8124877497
 20
11.6331815391
 10
8.8131270272
 20
11.6249285897
 10
8.8140602546
 20
11.6167076414
 10
8.815307647
 20
11.6085712195
 10
8.816882458
 20
11.6005946113
 10
8.8188011056
 20
11.5928181802
 10
8.8210792395
 20
11.5852845967
 10
8.8237201581
 20
11.5780662669
 10
8.8267335734
 20
11.5712033837
 10
8.8301279327
 20
11.5647373054
 10
8.8338949472
 20
11.5587322959
 10
8.8380363006
 20
11.5532242482
 10
8.8425522437
 20
11.548248852
 10
8.8474224899
 20
11.5438567528
 10
8.8526403547
 20
11.540075431
 10
8.85819788
 20
11.5369310246
 10
8.8619606505
 20
11.5352515064
  0
LINE
  5
42C
100
AcDbEntity
  8
ASSI
100
AcDbLine
 62
253
  6
CONTINUOUS
 10
7.3013507138
 20
12.4522029426
 11
7.3013507138
 21
13.5759173892
  0
LINE
  5
42D
100
AcDbEntity
  8
ASSI
100
AcDbLine
 62
253
  6
CONTINUOUS
 10
7.6469990715
 20
12.4959247548
 11
7.6469990715
 21
13.6090940242
  0
LINE
  5
42E
100
AcDbEntity
  8
ASSI
100
AcDbLine
 62
7
  6
CONTINUOUS
 10
7.796532726
 20
12.6248954218
 11
7.796532726
 21
13.7307818718
  0
LINE
  5
42F
100
AcDbEntity
  8
ASSI
100
AcDbLine
 62
7
  6
CONTINUOUS
 10
8.7267166189
 20
12.0437395478
 11
8.7267166189
 21
11.743642824
  0
LINE
  5
430
100
AcDbEntity
  8
ASSI
100
AcDbLine
 62
253
  6
CONTINUOUS
 10
8.8120013316
 20
11.9497702857
 11
8.8120013316
 21
11.6496735619
  0
LINE
  5
431
100
AcDbEntity
  8
ASSI
100
AcDbLine
 62
7
  6
CONTINUOUS
 10
9.3049224485
 20
11.3573480602
 11
9.3049224485
 21
10.9836302141
  0
LINE
  5
432
100
AcDbEntity
  8
ASSI
100
AcDbLine
 62
253
  6
CONTINUOUS
 10
9.4115283395
 20
11.314532731
 11
9.4115283395
 21
10.8615705576
  0
LINE
  5
433
100
AcDbEntity
  8
ASSI
100
AcDbLine
 62
7
  6
CONTINUOUS
 10
9.7890944937
 20
10.0460383274
 11
9.7890944937
 21
11.1545455484
  0
LINE
  5
434
100
AcDbEntity
  8
ASSI
100
AcDbLine
 62
253
  6
CONTINUOUS
 10
9.8957003846
 20
9.9239786711
 11
9.8957003846
 21
11.2144355908
  0
LWPOLYLINE
  5
435
100
AcDbEntity
  8
RACCORDO
100
AcDbPolyline
 62
7
  6
CONTINUOUS
 90
12
 70
0
 10
6.8136380804
 20
-23.6350688589
 10
6.8135416064
 20
-23.6669232213
 10
6.8112131152
 20
-23.704615037
 10
6.8065854044
 20
-23.7394395916
 10
6.7999074363
 20
-23.7710572938
 10
6.7915433
 20
-23.7990550453
 10
6.7819716623
 20
-23.8231502591
 10
6.7714930306
 20
-23.8437293334
 10
6.7600705213
 20
-23.861527699
 10
6.7476450171
 20
-23.87698223
 10
6.7342909938
 20
-23.8902759358
 10
6.7324715203
 20
-23.8918721885
  0
LWPOLYLINE
  5
436
100
AcDbEntity
  8
RACCORDO
100
AcDbPolyline
 62
253
  6
CONTINUOUS
 90
28
 70
0
 10
7.0422823863
 20
-23.8775793412
 10
7.0416557043
 20
-23.9470879833
 10
7.0368180682
 20
-24.0144153751
 10
7.0277698304
 20
-24.0795612232
 10
7.0144477736
 20
-24.14276754
 10
6.9969161159
 20
-24.2037914672
 10
6.9753661015
 20
-24.2619056288
 10
6.9497610838
 20
-24.3170370395
 10
6.9201382789
 20
-24.3692582029
 10
6.8867991207
 20
-24.4180604965
 10
6.8497139983
 20
-24.463409661
 10
6.8089127837
 20
-24.5053397324
 10
6.7647855597
 20
-24.5434450246
 10
6.7172789141
 20
-24.5776998005
 10
6.6664461851
 20
-24.6081298567
 10
6.6128369664
 20
-24.6344073359
 10
6.5564457116
 20
-24.6564790558
 10
6.4972774534
 20
-24.6743986323
 10
6.4358970628
 20
-24.6879989137
 10
6.372284364
 20
-24.6972461089
 10
6.3064587563
 20
-24.7021746658
 10
6.2390439701
 20
-24.7027202253
 10
6.169936682
 20
-24.6988157569
 10
6.0992392769
 20
-24.6905290848
 10
6.0278835183
 20
-24.6779985899
 10
5.9561794481
 20
-24.6612708651
 10
5.8838157763
 20
-24.6403003778
 10
5.8107920502
 20
-24.6150875094
  0
LWPOLYLINE
  5
437
100
AcDbEntity
  8
RACCORDO
100
AcDbPolyline
 62
253
  6
CONTINUOUS
 90
10
 70
0
 10
7.0422823863
 20
1.0984303534
 10
6.9899881801
 20
-1.7212873307
 10
6.9507659117
 20
-4.5302262978
 10
6.9246170547
 20
-7.3282480501
 10
6.9115419812
 20
-10.1152829067
 10
6.9115419674
 20
-12.8911245676
 10
6.9246170172
 20
-15.6554319042
 10
6.9507658625
 20
-18.4080007002
 10
6.9899881405
 20
-21.1487618765
 10
7.0422823863
 20
-23.8775793412
  0
LWPOLYLINE
  5
438
100
AcDbEntity
  8
ASSI
100
AcDbPolyline
 62
253
  6
CONTINUOUS
 90
10
 70
0
 10
7.9307998246
 20
5.5248753028
 10
7.8282204641
 20
1.6447781682
 10
7.7512667635
 20
-2.2162560194
 10
7.6999547142
 20
-6.0578760414
 10
7.6742961377
 20
-9.8797784029
 10
7.6742962154
 20
-13.6815752647
 10
7.6999549224
 20
-17.4627935506
 10
7.7512670307
 20
-21.2230539494
 10
7.8282206755
 20
-24.9620723712
 10
7.9307998209
 20
-28.6795238356
  0
LWPOLYLINE
  5
439
100
AcDbEntity
  8
ASSI
100
AcDbPolyline
 62
253
  6
CONTINUOUS
 90
10
 70
0
 10
8.6050205807
 20
5.5771602084
 10
8.5009512382
 20
1.7010147205
 10
8.4228992353
 20
-2.1555419138
 10
8.370864572
 20
-5.9925096947
 10
8.3448472492
 20
-9.8102743036
 10
8.3448472661
 20
-13.608450059
 10
8.3708646198
 20
-17.3858799166
 10
8.4228993093
 20
-21.1421781949
 10
8.5009513357
 20
-24.8777305753
 10
8.6050206988
 20
-28.5925370578
  0
LWPOLYLINE
  5
43A
100
AcDbEntity
  8
RACCORDO
100
AcDbPolyline
 62
253
  6
CONTINUOUS
 90
11
 70
0
 10
6.5529502616
 20
-23.2741492485
 10
6.5507112832
 20
-23.3317196598
 10
6.5431217509
 20
-23.388465307
 10
6.53016375
 20
-23.4440708109
 10
6.5118319819
 20
-23.4982333039
 10
6.4881624279
 20
-23.5506399622
 10
6.459233809
 20
-23.6009706662
 10
6.4251280372
 20
-23.6489186828
 10
6.3859417562
 20
-23.6942388118
 10
6.3417851451
 20
-23.7366942823
 10
6.3050918217
 20
-23.7667866875
  0
LWPOLYLINE
  5
43B
100
AcDbEntity
  8
ASSI
100
AcDbPolyline
 62
253
  6
CONTINUOUS
 90
11
 70
0
 10
11.4948506887
 20
10.6918130875
 10
11.4858528679
 20
10.6679432293
 10
11.4742694292
 20
10.6456182182
 10
11.4602963754
 20
10.6252158152
 10
11.4441701441
 20
10.6070812484
 10
11.4261636068
 20
10.5915213723
 10
11.4065814515
 20
10.5787994751
 10
11.3857550271
 20
10.5691308235
 10
11.3640367368
 20
10.5626790205
 10
11.3417940752
 20
10.5595532368
 10
11.3300422668
 20
10.5592636183
  0
LWPOLYLINE
  5
43C
100
AcDbEntity
  8
ASSI
100
AcDbPolyline
 62
253
  6
CONTINUOUS
 90
10
 70
0
 10
13.2754957997
 20
12.1309312924
 10
13.2771373559
 20
12.1349538832
 10
13.278629831
 20
12.1390689765
 10
13.2799394056
 20
12.1431846048
 10
13.281062062
 20
12.147301043
 10
13.2820018179
 20
12.1514180161
 10
13.2827369078
 20
12.1554427324
 10
13.2832600764
 20
12.1593442612
 10
13.283578579
 20
12.1631535331
 10
13.2836924155
 20
12.1668705481
  0
LINE
  5
43D
100
AcDbEntity
  8
RACCORDO
100
AcDbLine
 62
253
  6
CONTINUOUS
 10
32.2225525939
 20
17.1038591799
 11
31.7131803561
 21
16.683698563
  0
LWPOLYLINE
  5
43E
100
AcDbEntity
  8
ASSI
100
AcDbPolyline
 62
253
  6
CONTINUOUS
 90
19
 70
0
 10
8.5830333604
 20
6.9990024354
 10
6.6931418289
 20
7.7031776887
 10
4.8103605873
 20
8.4105378076
 10
2.9346896355
 20
9.1210827919
 10
1.0689552627
 20
9.8337067728
 10
-0.7896688203
 20
10.5495156192
 10
-2.6496614802
 20
11.2718269381
 10
-4.5077594193
 20
11.9991921802
 10
-6.3672259353
 20
12.7330598946
 10
-8.2463297889
 20
13.4810933358
 10
-10.1432791091
 20
14.2422754353
 10
-12.0598657669
 20
15.0176232615
 10
-14.0197341355
 20
15.8178512736
 10
-16.0243559616
 20
16.6431993097
 10
-18.0722594985
 20
17.4934275318
 10
-20.1826738792
 20
18.3785308844
 10
-22.3620088147
 20
19.3018410158
 10
-24.6038545941
 20
20.2600262778
 10
-26.9082112174
 20
21.2530866704
  0
LWPOLYLINE
  5
43F
100
AcDbEntity
  8
ASSI
100
AcDbPolyline
 62
253
  6
CONTINUOUS
 90
19
 70
0
 10
7.9307998246
 20
5.5248753028
 10
6.0409771836
 20
6.2310700988
 10
4.1582197799
 20
6.9402832863
 10
2.2825322658
 20
7.6524913097
 10
0.4167829913
 20
8.3665693567
 10
-1.4419019833
 20
9.0835832117
 10
-3.3020700601
 20
9.8068475735
 10
-5.1602642001
 20
10.5350524043
 10
-7.0198265115
 20
11.2695505474
 10
-8.8993018902
 20
12.0178182917
 10
-10.7965097138
 20
12.7791980263
 10
-12.7132192284
 20
13.5546284755
 10
-14.6735624579
 20
14.3542537837
 10
-16.6782514049
 20
15.17884207
 10
-18.7257090237
 20
16.0282537417
 10
-20.8362392194
 20
16.9115809197
 10
-23.0160807332
 20
17.8322420319
 10
-25.257608131
 20
18.7878216058
 10
-27.5601077437
 20
19.7788239313
  0
LWPOLYLINE
  5
440
100
AcDbEntity
  8
ASSI
100
AcDbPolyline
 62
7
  6
CONTINUOUS
 90
4
 70
0
 10
-24.1968525331
 20
24.8198346442
 10
-24.1755694465
 20
24.8059551877
 10
-24.1532807276
 20
24.7949538648
 10
-24.1496215995
 20
24.7934495345
  0
LWPOLYLINE
  5
441
100
AcDbEntity
  8
ASSI
100
AcDbPolyline
 62
253
  6
CONTINUOUS
 90
13
 70
0
 10
11.5090345669
 20
11.0795291073
 10
11.5073831494
 20
11.1012710455
 10
11.5029925759
 20
11.1237943959
 10
11.4959379332
 20
11.1467139318
 10
11.4863398747
 20
11.169637646
 10
11.4743625538
 20
11.1921734637
 10
11.4602108139
 20
11.2139359472
 10
11.4441266895
 20
11.2345528806
 10
11.4263852746
 20
11.2536716281
 10
11.4072900139
 20
11.2709651748
 10
11.3871675073
 20
11.2861377293
 10
11.3663619215
 20
11.2989297802
 10
11.3452291103
 20
11.3091225284
  0
LWPOLYLINE
  5
442
100
AcDbEntity
  8
ASSI
100
AcDbPolyline
 62
7
  6
CONTINUOUS
 90
3
 70
0
 10
13.3178843163
 20
-26.8332676994
 10
13.3165827843
 20
-26.8075182205
 10
13.3126402969
 20
-26.7822684874
  0
LWPOLYLINE
  5
443
100
AcDbEntity
  8
ASSI
100
AcDbPolyline
 62
253
  6
CONTINUOUS
 90
13
 70
0
 10
11.480153819
 20
10.7156808173
 10
11.4802725116
 20
10.7121654443
 10
11.4806058384
 20
10.7088989751
 10
11.4811537994
 20
10.7058814098
 10
11.4819235644
 20
10.7030935744
 10
11.4829079635
 20
10.7005546429
 10
11.4840854876
 20
10.6983221365
 10
11.4854605429
 20
10.6964027837
 10
11.487028723
 20
10.6947898561
 10
11.4887553005
 20
10.6935206892
 10
11.4906286993
 20
10.692607728
 10
11.4926604953
 20
10.6920385274
 10
11.4948506887
 20
10.6918130875
  0
LWPOLYLINE
  5
444
100
AcDbEntity
  8
ASSI
100
AcDbPolyline
 62
253
  6
CONTINUOUS
 90
13
 70
0
 10
13.2836924155
 20
-26.8974051778
 10
13.2835794965
 20
-26.8938921237
 10
13.2832623841
 20
-26.8906321666
 10
13.2827410783
 20
-26.8876253066
 10
13.2820087579
 20
-26.8848525098
 10
13.2810722441
 20
-26.8823328101
 10
13.2799519997
 20
-26.8801233085
 10
13.278643833
 20
-26.8782308197
 10
13.2771519357
 20
-26.876648529
 10
13.2755093462
 20
-26.8754130935
 10
13.2737270774
 20
-26.8745367322
 10
13.2717941165
 20
-26.874007226
 10
13.2697104634
 20
-26.8738245751
  0
LWPOLYLINE
  5
445
100
AcDbEntity
  8
ASSI
100
AcDbPolyline
 62
253
  6
CONTINUOUS
 90
11
 70
0
 10
11.2036351328
 20
10.6891395092
 10
11.2041837241
 20
10.6717368982
 10
11.2058246675
 20
10.6553585923
 10
11.2085455349
 20
10.6401292129
 10
11.2123258578
 20
10.6261646046
 10
11.2171368605
 20
10.6135709941
 10
11.2229417118
 20
10.6024442302
 10
11.2296969162
 20
10.5928685429
 10
11.2373509758
 20
10.5849172898
 10
11.2458440663
 20
10.578651877
 10
11.2541079949
 20
10.5745112014
  0
LWPOLYLINE
  5
446
100
AcDbEntity
  8
ASSI
100
AcDbPolyline
 62
7
  6
CONTINUOUS
 90
18
 70
0
 10
11.0061951226
 20
16.4465277653
 10
11.0058621651
 20
16.4603571143
 10
11.0026779283
 20
16.4916633978
 10
10.9960719059
 20
16.5227822241
 10
10.9860432487
 20
16.5533271505
 10
10.9726724007
 20
16.5828829022
 10
10.9560155096
 20
16.6111951484
 10
10.9361437471
 20
16.6379910468
 10
10.9132830944
 20
16.6628850781
 10
10.8876756312
 20
16.6856165012
 10
10.859317487
 20
16.7061443313
 10
10.8284873997
 20
16.7242058701
 10
10.795784565
 20
16.7395101346
 10
10.7610330527
 20
16.7521597073
 10
10.7244253
 20
16.762034941
 10
10.6871175294
 20
16.7688695706
 10
10.6490187704
 20
16.7727449773
 10
10.6101479245
 20
16.7736217535
  0
LINE
  5
447
100
AcDbEntity
  8
ASSI
100
AcDbLine
 62
253
  6
CONTINUOUS
 10
10.1199360798
 20
9.8339205606
 11
10.1199360798
 21
11.1243774803
  0
LINE
  5
448
100
AcDbEntity
  8
ASSI
100
AcDbLine
 62
253
  6
CONTINUOUS
 10
10.4655844375
 20
9.8776423728
 11
10.4655844375
 21
10.8912000389
  0
LINE
  5
449
100
AcDbEntity
  8
ASSI
100
AcDbLine
 62
7
  6
CONTINUOUS
 10
10.9090554863
 20
10.7130920679
 11
10.9090554863
 21
10.2601298944
  0
LINE
  5
44A
100
AcDbEntity
  8
ASSI
100
AcDbLine
 62
253
  6
CONTINUOUS
 10
10.9402687187
 20
15.2178372608
 11
10.9402687187
 21
15.6867291797
  0
LINE
  5
44B
100
AcDbEntity
  8
ASSI
100
AcDbLine
 62
253
  6
CONTINUOUS
 10
10.9402687187
 20
16.050797358
 11
10.9402687187
 21
16.3237237108
  0
LINE
  5
44C
100
AcDbEntity
  8
ASSI
100
AcDbLine
 62
7
  6
CONTINUOUS
 10
11.0062038484
 20
15.3384813024
 11
11.0062038484
 21
16.4463491718
  0
LINE
  5
44D
100
AcDbEntity
  8
ASSI
100
AcDbLine
 62
253
  6
CONTINUOUS
 10
11.2036351328
 20
10.9892813625
 11
11.2036351328
 21
10.6891395092
  0
LINE
  5
44E
100
AcDbEntity
  8
ASSI
100
AcDbLine
 62
253
  6
CONTINUOUS
 10
11.2036351328
 20
-28.6752329405
 11
11.2036351328
 21
-28.3751359956
  0
LINE
  5
44F
100
AcDbEntity
  8
ASSI
100
AcDbLine
 62
253
  6
CONTINUOUS
 10
11.480153819
 20
11.0157775411
 11
11.480153819
 21
10.7156808173
  0
LINE
  5
450
100
AcDbEntity
  8
ASSI
100
AcDbLine
 62
253
  6
CONTINUOUS
 10
11.480153819
 20
-28.6486916325
 11
11.480153819
 21
-28.3485949087
  0
LINE
  5
451
100
AcDbEntity
  8
ASSI
100
AcDbLine
 62
253
  6
CONTINUOUS
 10
11.7512609977
 20
10.5529340439
 11
11.7512609977
 21
9.921881174
  0
LINE
  5
452
100
AcDbEntity
  8
ASSI
100
AcDbLine
 62
253
  6
CONTINUOUS
 10
11.7512609977
 20
-27.0586838858
 11
11.7512609977
 21
-27.3036955052
  0
LINE
  5
453
100
AcDbEntity
  8
ASSI
100
AcDbLine
 62
253
  6
CONTINUOUS
 10
12.0969093554
 20
10.6827660656
 11
12.0969093554
 21
9.9655136673
  0
LINE
  5
454
100
AcDbEntity
  8
ASSI
100
AcDbLine
 62
253
  6
CONTINUOUS
 10
12.0969093554
 20
-26.8156944234
 11
12.0969093554
 21
-27.3418722131
  0
LINE
  5
455
100
AcDbEntity
  8
ASSI
100
AcDbLine
 62
7
  6
CONTINUOUS
 10
12.8343177984
 20
-27.652818058
 11
12.8343177984
 21
-26.2972991321
  0
LINE
  5
456
100
AcDbEntity
  8
ASSI
100
AcDbLine
 62
7
  6
CONTINUOUS
 10
12.8343178513
 20
10.6016072836
 11
12.8343177984
 21
12.1580211988
  0
LINE
  5
457
100
AcDbEntity
  8
0
100
AcDbLine
 62
7
  6
CONTINUOUS
 10
13.2438938205
 20
-25.8513855441
 11
13.2438938205
 21
10.0275987566
  0
LWPOLYLINE
  5
458
100
AcDbEntity
  8
ASSI
100
AcDbPolyline
 62
253
  6
CONTINUOUS
 90
22
 70
0
 10
11.480153819
 20
-28.3485949087
 10
11.4801719422
 20
-28.3468848887
 10
11.4802511062
 20
-28.3450904114
 10
11.480391311
 20
-28.3432114768
 10
11.4805893286
 20
-28.3412430794
 10
11.480848387
 20
-28.3391902247
 10
11.48117817
 20
-28.3370679294
 10
11.481580196
 20
-28.3348739303
 10
11.4820529466
 20
-28.3326104905
 10
11.4826015511
 20
-28.3302994165
 10
11.4832278036
 20
-28.3279388688
 10
11.48392991
 20
-28.3255306869
 10
11.4847076171
 20
-28.3231021957
 10
11.4855627937
 20
-28.3206522864
 10
11.4864935711
 20
-28.3181820678
 10
11.4874940898
 20
-28.315722191
 10
11.4885660765
 20
-28.3132724813
 10
11.4897078044
 20
-28.3108331134
 10
11.4909082336
 20
-28.3084352629
 10
11.492163684
 20
-28.3060893214
 10
11.4934778357
 20
-28.3037848973
 10
11.4948506887
 20
-28.3015219904
  0
LINE
  5
459
100
AcDbEntity
  8
ASSI
100
AcDbLine
 62
7
  6
CONTINUOUS
 10
13.3178111946
 20
12.2248039787
 11
13.3178850313
 21
12.2310574331
  0
LWPOLYLINE
  5
45A
100
AcDbEntity
  8
ASSI
100
AcDbPolyline
 62
253
  6
CONTINUOUS
 90
22
 70
0
 10
11.2036351329
 20
-28.3751359956
 10
11.2037574611
 20
-28.3665946414
 10
11.2041385385
 20
-28.3576222643
 10
11.2047986447
 20
-28.3482197013
 10
11.2057594664
 20
-28.3383763386
 10
11.2070403322
 20
-28.3281122853
 10
11.2086539525
 20
-28.3174808199
 10
11.2106157039
 20
-28.3064962732
 10
11.2129400095
 20
-28.2951765362
 10
11.2156294234
 20
-28.2835880436
 10
11.2186926236
 20
-28.2717555
 10
11.2221368681
 20
-28.259706746
 10
11.2259530762
 20
-28.2475185772
 10
11.2301420449
 20
-28.2352239906
 10
11.2347030412
 20
-28.2228579583
 10
11.2396151285
 20
-28.2105027482
 10
11.2448709734
 20
-28.1981961732
 10
11.2504620191
 20
-28.185976429
 10
11.2563567248
 20
-28.1739251158
 10
11.2625332952
 20
-28.1620936135
 10
11.2689831161
 20
-28.1505052149
 10
11.2756896462
 20
-28.1391973714
  0
LINE
  5
45B
100
AcDbEntity
  8
ASSI
100
AcDbLine
 62
7
  6
CONTINUOUS
 10
13.3164550364
 20
12.2035056626
 11
13.3178111946
 21
12.2248039787
  0
LWPOLYLINE
  5
45C
100
AcDbEntity
  8
RACCORDO
100
AcDbPolyline
 62
253
  6
CONTINUOUS
 90
10
 70
0
 10
13.5588446435
 20
14.0010113043
 10
13.5560760672
 20
13.9637777506
 10
13.5491023132
 20
13.926306933
 10
13.5379819028
 20
13.889155473
 10
13.5227613578
 20
13.8524763104
 10
13.503504373
 20
13.8164207318
 10
13.4802915989
 20
13.781144918
 10
13.453220246
 20
13.7467965657
 10
13.4224036512
 20
13.7135142835
 10
13.3879708515
 20
13.6814347702
  0
LWPOLYLINE
  5
45D
100
AcDbEntity
  8
ASSI
100
AcDbPolyline
 62
253
  6
CONTINUOUS
 90
8
 70
0
 10
8.999971351
 20
-28.8347840989
 10
8.996148332
 20
-28.8778274409
 10
8.9879711849
 20
-28.9185342687
 10
8.9755293442
 20
-28.9564593666
 10
8.9589588877
 20
-28.9911879431
 10
8.9384410488
 20
-29.0223401675
 10
8.9142002334
 20
-29.0495753241
 10
8.8855960259
 20
-29.0732353084
  0
LWPOLYLINE
  5
45E
100
AcDbEntity
  8
ASSI
100
AcDbPolyline
 62
7
  6
CONTINUOUS
 90
3
 70
0
 10
13.3086924729
 20
12.1606193452
 10
13.3134094003
 20
12.182072234
 10
13.3164550364
 20
12.2035056626
  0
LWPOLYLINE
  5
45F
100
AcDbEntity
  8
RACCORDO
100
AcDbPolyline
 62
7
  6
CONTINUOUS
 90
15
 70
0
 10
31.9280987069
 20
12.3270221849
 10
31.9526594189
 20
12.3492060303
 10
32.005167567
 20
12.401782967
 10
32.0544069246
 20
12.4586818331
 10
32.1000307596
 20
12.5197293887
 10
32.1416886985
 20
12.5846357698
 10
32.1791450273
 20
12.6532082553
 10
32.2121672043
 20
12.7252252301
 10
32.2405111122
 20
12.8003314761
 10
32.2640425629
 20
12.8782790128
 10
32.2826523244
 20
12.9588616234
 10
32.2962227545
 20
13.0418059203
 10
32.3046790005
 20
13.1268781905
 10
32.3079761749
 20
13.213850196
 10
32.3080338076
 20
17.2642291163
  0
LINE
  5
460
100
AcDbEntity
  8
RACCORDO
100
AcDbLine
 62
253
  6
CONTINUOUS
 10
32.2225525939
 20
13.0651177208
 11
31.7141114727
 21
12.6197935715
  0
LINE
  5
461
100
AcDbEntity
  8
RACCORDO
100
AcDbLine
 62
7
  6
CONTINUOUS
 10
31.928665698
 20
12.3275078696
 11
31.7141114727
 21
12.1395738663
  0
LWPOLYLINE
  5
462
100
AcDbEntity
  8
ASSI
100
AcDbPolyline
 62
7
  6
CONTINUOUS
 90
4
 70
0
 10
10.6249532885
 20
13.7497456825
 10
10.6032994047
 20
13.7441146885
 10
10.5824730373
 20
13.7363834473
 10
10.5625723972
 20
13.7266662062
  0
LWPOLYLINE
  5
463
100
AcDbEntity
  8
ASSI
100
AcDbPolyline
 62
7
  6
CONTINUOUS
 90
6
 70
0
 10
10.1309155621
 20
13.3855239198
 10
10.1463859384
 20
13.3872052682
 10
10.1625363756
 20
13.3869071144
 10
10.1791171476
 20
13.3846695672
 10
10.1960021098
 20
13.3805454532
 10
10.2130063045
 20
13.3746044475
  0
LWPOLYLINE
  5
464
100
AcDbEntity
  8
ASSI
100
AcDbPolyline
 62
253
  6
CONTINUOUS
 90
5
 70
0
 10
13.2700008308
 20
12.511984648
 10
13.2674196116
 20
12.5117754561
 10
13.2647424132
 20
12.5110719423
 10
13.2619964376
 20
12.5098761934
 10
13.2591544828
 20
12.5081861227
  0
LINE
  5
465
100
AcDbEntity
  8
ASSI
100
AcDbLine
 62
7
  6
CONTINUOUS
 10
11.3300422668
 20
10.5592636183
 11
11.8575646843
 21
10.5513366385
  0
LINE
  5
466
100
AcDbEntity
  8
ASSI
100
AcDbLine
 62
253
  6
CONTINUOUS
 10
11.4948506887
 20
10.6918130875
 11
12.0969093554
 21
10.6827660656
  0
LINE
  5
467
100
AcDbEntity
  8
ASSI
100
AcDbLine
 62
7
  6
CONTINUOUS
 10
10.1199360798
 20
9.8339205606
 11
9.8957003846
 21
9.9239786711
  0
LINE
  5
468
100
AcDbEntity
  8
ASSI
100
AcDbLine
 62
7
  6
CONTINUOUS
 10
-4.4609703085
 20
15.689941285
 11
-4.6852060037
 21
15.7799993955
  0
LINE
  5
469
100
AcDbEntity
  8
ASSI
100
AcDbLine
 62
7
  6
CONTINUOUS
 10
-8.3109849167
 20
17.2361939482
 11
-8.5352206119
 21
17.3262520587
  0
LINE
  5
46A
100
AcDbEntity
  8
ASSI
100
AcDbLine
 62
7
  6
CONTINUOUS
 10
-22.891891305
 20
23.0922146726
 11
-23.1161270002
 21
23.1822727831
  0
LWPOLYLINE
  5
46B
100
AcDbEntity
  8
ASSI
100
AcDbPolyline
 62
253
  6
CONTINUOUS
 90
18
 70
0
 10
-21.7577411019
 20
23.8328140385
 10
-21.7614053273
 20
23.834442737
 10
-21.7662779724
 20
23.8371263443
 10
-21.7710192508
 20
23.8403801875
 10
-21.7756038946
 20
23.8442279768
 10
-21.7799887724
 20
23.8486733054
 10
-21.784150293
 20
23.8537302783
 10
-21.7880643005
 20
23.8594108124
 10
-21.7916928619
 20
23.8656995748
 10
-21.795015203
 20
23.8725976813
 10
-21.7980108191
 20
23.8801038968
 10
-21.8006501897
 20
23.8881836389
 10
-21.8029177029
 20
23.8968246487
 10
-21.8047987203
 20
23.9060128142
 10
-21.806274677
 20
23.9156963602
 10
-21.8073359692
 20
23.9258394037
 10
-21.8079772344
 20
23.936427595
 10
-21.808192252
 20
23.9474336212
  0
LWPOLYLINE
  5
46C
100
AcDbEntity
  8
ASSI
100
AcDbPolyline
 62
253
  6
CONTINUOUS
 90
13
 70
0
 10
-21.6665982746
 20
24.5674166403
 10
-21.6454655631
 20
24.5572239659
 10
-21.6246600556
 20
24.5444320018
 10
-21.6045376023
 20
24.5292595373
 10
-21.5854423706
 20
24.5119660768
 10
-21.5677009587
 20
24.4928474018
 10
-21.5516168096
 20
24.4722305115
 10
-21.537465021
 20
24.4504680298
 10
-21.52548764
 20
24.4279321748
 10
-21.5158895237
 20
24.4050083918
 10
-21.5088348349
 20
24.3820887613
 10
-21.5044442346
 20
24.3595652926
 10
-21.502792818
 20
24.3378232193
  0
LWPOLYLINE
  5
46D
100
AcDbEntity
  8
ASSI
100
AcDbPolyline
 62
253
  6
CONTINUOUS
 90
11
 70
0
 10
-24.1498532543
 20
24.7935402027
 10
-24.1580363575
 20
24.7976485376
 10
-24.1664450433
 20
24.8038800594
 10
-24.1740222299
 20
24.8118001936
 10
-24.1807102515
 20
24.8213486
 10
-24.1864579868
 20
24.8324524144
 10
-24.1912214119
 20
24.8450271739
 10
-24.1949644656
 20
24.8589770772
 10
-24.1976586809
 20
24.8741958403
 10
-24.1992833447
 20
24.8905675876
 10
-24.1998260532
 20
24.9079676739
  0
LWPOLYLINE
  5
46E
100
AcDbEntity
  8
ASSI
100
AcDbPolyline
 62
253
  6
CONTINUOUS
 90
11
 70
0
 10
-5.7189322578
 20
17.3912668151
 10
-5.727115361
 20
17.39537515
 10
-5.7355240468
 20
17.4016066718
 10
-5.7431012334
 20
17.409526806
 10
-5.749789255
 20
17.4190752124
 10
-5.7555369903
 20
17.4301790268
 10
-5.7603004154
 20
17.4427537863
 10
-5.7640434691
 20
17.4567036896
 10
-5.7667376844
 20
17.4719224527
 10
-5.7683623482
 20
17.4882942
 10
-5.7689050567
 20
17.5056942863
  0
LWPOLYLINE
  5
46F
100
AcDbEntity
  8
ASSI
100
AcDbPolyline
 62
7
  6
CONTINUOUS
 90
3
 70
0
 10
-9.6001363477
 20
18.9531612656
 10
-9.5812438679
 20
18.9429198511
 10
-9.5688678263
 20
18.9374881621
  0
LWPOLYLINE
  5
470
100
AcDbEntity
  8
ASSI
100
AcDbPolyline
 62
7
  6
CONTINUOUS
 90
4
 70
0
 10
-5.7659315366
 20
17.4175612566
 10
-5.7446484499
 20
17.4036818001
 10
-5.722359731
 20
17.3926804772
 10
-5.718700603
 20
17.3911761469
  0
LWPOLYLINE
  5
471
100
AcDbEntity
  8
ASSI
100
AcDbPolyline
 62
253
  6
CONTINUOUS
 90
3
 70
0
 10
13.2785113755
 20
-26.7968841562
 10
13.2755524934
 20
-26.7710845777
 10
13.2696891352
 20
-26.7459380135
  0
LWPOLYLINE
  5
472
100
AcDbEntity
  8
ASSI
100
AcDbPolyline
 62
253
  6
CONTINUOUS
 90
13
 70
0
 10
13.2562165487
 20
12.5060017303
 10
13.2550532716
 20
12.5281436641
 10
13.2510739769
 20
12.5510040546
 10
13.2443467249
 20
12.5741919056
 10
13.2349865763
 20
12.5973106203
 10
13.2231536238
 20
12.6199647842
 10
13.209050254
 20
12.6417669283
 10
13.1929176862
 20
12.6623441563
 10
13.175031846
 20
12.6813445226
 10
13.1556986467
 20
12.6984430514
 10
13.1352487565
 20
12.7133472953
 10
13.1140319433
 20
12.7258023375
 10
13.092411092
 20
12.7355951513
  0
LWPOLYLINE
  5
473
100
AcDbEntity
  8
ASSI
100
AcDbPolyline
 62
7
  6
CONTINUOUS
 90
13
 70
0
 10
13.3178845544
 20
12.5525682285
 10
13.3168248718
 20
12.5758068644
 10
13.3135363045
 20
12.5991147502
 10
13.3079126427
 20
12.6221024326
 10
13.2999674716
 20
12.6443517771
 10
13.2896245799
 20
12.665813666
 10
13.2769589245
 20
12.6860980402
 10
13.2621329764
 20
12.7048459112
 10
13.2452990213
 20
12.7218305725
 10
13.2266653849
 20
12.7368155464
 10
13.2064972858
 20
12.7495807407
 10
13.1850913148
 20
12.7599517313
 10
13.1826851634
 20
12.7609362952
  0
LWPOLYLINE
  5
474
100
AcDbEntity
  8
ASSI
100
AcDbPolyline
 62
253
  6
CONTINUOUS
 90
11
 70
0
 10
13.2836924155
 20
12.4884148001
 10
13.2835292286
 20
12.492580952
 10
13.2830830387
 20
12.4963736124
 10
13.2823538457
 20
12.4997927812
 10
13.2813279887
 20
12.5028670221
 10
13.2800191287
 20
12.5055677715
 10
13.278468248
 20
12.5078093388
 10
13.2766675291
 20
12.5095769606
 10
13.2746247895
 20
12.5108854003
 10
13.2724044646
 20
12.5116932583
 10
13.2700008308
 20
12.511984648
  0
LWPOLYLINE
  5
475
100
AcDbEntity
  8
RACCORDO
100
AcDbPolyline
 62
7
  6
CONTINUOUS
 90
15
 70
0
 10
13.5589307199
 20
14.6168047883
 10
13.5586601944
 20
14.6328804976
 10
13.5542131135
 20
14.684353872
 10
13.5442336324
 20
14.735774435
 10
13.5286726783
 20
14.7866821422
 10
13.5075391054
 20
14.8366800031
 10
13.4808859045
 20
14.8854088877
 10
13.4486933569
 20
14.9326567725
 10
13.4110772758
 20
14.9780465526
 10
13.3683355772
 20
15.0211495754
 10
13.3204010803
 20
15.0619442467
 10
13.2674876201
 20
15.1001374137
 10
13.2105332251
 20
15.1351007705
 10
13.1500805878
 20
15.1666552886
 10
13.0821909246
 20
15.1965260233
  0
LINE
  5
476
100
AcDbEntity
  8
ASSI
100
AcDbLine
 62
253
  6
CONTINUOUS
 10
13.2836924155
 20
-27.2189494298
 11
13.2836924155
 21
-26.8974051778
  0
LINE
  5
477
100
AcDbEntity
  8
ASSI
100
AcDbLine
 62
253
  6
CONTINUOUS
 10
13.2836924155
 20
12.1668705481
 11
13.2836924155
 21
12.4884148001
  0
LINE
  5
478
100
AcDbEntity
  8
ASSI
100
AcDbLine
 62
7
  6
CONTINUOUS
 10
13.317884901
 20
-27.1548014552
 11
13.317884901
 21
-26.8332571551
  0
LINE
  5
479
100
AcDbEntity
  8
ASSI
100
AcDbLine
 62
7
  6
CONTINUOUS
 10
13.317884901
 20
12.2310185227
 11
13.317884901
 21
12.552562836
  0
LINE
  5
47A
100
AcDbEntity
  8
RACCORDO
100
AcDbLine
 62
253
  6
CONTINUOUS
 10
13.3879708515
 20
14.3019168761
 11
13.3879708515
 21
13.6814347702
  0
LINE
  5
47B
100
AcDbEntity
  8
RACCORDO
100
AcDbLine
 62
7
  6
CONTINUOUS
 10
13.5589332408
 20
14.6168497623
 11
13.558933279
 21
14.0077345258
  0
LINE
  5
47C
100
AcDbEntity
  8
0
100
AcDbLine
 62
7
  6
CONTINUOUS
 10
13.8031719048
 20
10.4888892554
 11
13.8031719048
 21
-25.361498341
  0
LWPOLYLINE
  5
47D
100
AcDbEntity
  8
ASSI
100
AcDbPolyline
 62
253
  6
CONTINUOUS
 90
6
 70
0
 10
13.2562165487
 20
-27.283265228
 10
13.2550533023
 20
-27.3038767337
 10
13.2510740605
 20
-27.3230385776
 10
13.244346875
 20
-27.3404230205
 10
13.2349867986
 20
-27.3557327204
 10
13.2222046923
 20
-27.3695496434
  0
LWPOLYLINE
  5
47E
100
AcDbEntity
  8
RACCORDO
100
AcDbPolyline
 62
253
  6
CONTINUOUS
 90
3
 70
0
 10
31.989800941
 20
12.3874241744
 10
31.9368079595
 20
12.3347449488
 10
31.9285908221
 20
12.3274422837
  0
LWPOLYLINE
  5
47F
100
AcDbEntity
  8
ASSI
100
AcDbPolyline
 62
7
  6
CONTINUOUS
 90
7
 70
0
 10
4.890709961
 20
15.0632495193
 10
4.9087711572
 20
15.067766316
 10
4.9281091276
 20
15.0698680015
 10
4.9482971741
 20
15.0694953092
 10
4.9690231392
 20
15.0666983752
 10
4.9901293419
 20
15.0615432328
 10
5.0113845852
 20
15.0541169757
  0
LWPOLYLINE
  5
480
100
AcDbEntity
  8
ASSI
100
AcDbPolyline
 62
7
  6
CONTINUOUS
 90
7
 70
0
 10
0.5901617285
 20
16.790446643
 10
0.6082229247
 20
16.7949634397
 10
0.6275608951
 20
16.7970651253
 10
0.6477489416
 20
16.796692433
 10
0.6684749066
 20
16.793895499
 10
0.6895811093
 20
16.7887403565
 10
0.7108363527
 20
16.7813140994
  0
LWPOLYLINE
  5
481
100
AcDbEntity
  8
ASSI
100
AcDbPolyline
 62
7
  6
CONTINUOUS
 90
6
 70
0
 10
10.6101479245
 20
16.7736217535
 10
10.5718764945
 20
16.7714607148
 10
10.5342345816
 20
16.766330888
 10
10.4971296698
 20
16.7581418554
 10
10.461673519
 20
16.7471103474
 10
10.4279912048
 20
16.7332919714
  0
LINE
  5
482
100
AcDbEntity
  8
ASSI
100
AcDbLine
 62
7
  6
CONTINUOUS
 10
-2.7235348949
 20
16.4073602659
 11
-3.2508641215
 21
16.4152843427
  0
LWPOLYLINE
  5
483
100
AcDbEntity
  8
ASSI
100
AcDbPolyline
 62
253
  6
CONTINUOUS
 90
22
 70
0
 10
-3.0860556997
 20
16.5478338119
 10
-3.0871005501
 20
16.5478786726
 10
-3.0881374212
 20
16.5480216271
 10
-3.089166313
 20
16.5482626754
 10
-3.0901935346
 20
16.5485967185
 10
-3.0912127769
 20
16.5490288555
 10
-3.092205113
 20
16.549574383
 10
-3.0931704454
 20
16.5502357427
 10
-3.0941088716
 20
16.5510104929
 10
-3.0950017571
 20
16.5519066061
 10
-3.0958484677
 20
16.5529269596
 10
-3.0966496374
 20
16.5540686761
 10
-3.0973885343
 20
16.5553310958
 10
-3.0980639959
 20
16.5567172084
 10
-3.0986771846
 20
16.5582240243
 10
-3.0992148554
 20
16.5598419149
 10
-3.0996754059
 20
16.5615736349
 10
-3.1000604385
 20
16.5634164297
 10
-3.1003615149
 20
16.565352407
 10
-3.1005758226
 20
16.5673756027
 10
-3.100706174
 20
16.5694919809
 10
-3.1007525694
 20
16.5717015417
  0
LWPOLYLINE
  5
484
100
AcDbEntity
  8
ASSI
100
AcDbPolyline
 62
253
  6
CONTINUOUS
 90
8
 70
0
 10
13.1826283068
 20
12.7609591395
 10
13.1749894827
 20
12.7633956243
 10
13.1626918808
 20
12.7649887087
 10
13.1496150933
 20
12.7640502726
 10
13.135901201
 20
12.7605920975
 10
13.1216986919
 20
12.7546536234
 10
13.1071602786
 20
12.7462994137
 10
13.0924424761
 20
12.735620257
  0
LWPOLYLINE
  5
485
100
AcDbEntity
  8
ASSI
100
AcDbPolyline
 62
253
  6
CONTINUOUS
 90
8
 70
0
 10
8.9521904279
 20
12.270220813
 10
8.9305695539
 20
12.2771989391
 10
8.9093527228
 20
12.2812840856
 10
8.8889028202
 20
12.2824063827
 10
8.8695696135
 20
12.2805466367
 10
8.8516837716
 20
12.2757366573
 10
8.8355512082
 20
12.268058715
 10
8.822412526
 20
12.25850149
  0
LWPOLYLINE
  5
486
100
AcDbEntity
  8
ASSI
100
AcDbPolyline
 62
253
  6
CONTINUOUS
 90
8
 70
0
 10
-9.4787305686
 20
19.6724942006
 10
-9.5003514426
 20
19.6794723267
 10
-9.5215682737
 20
19.6835574731
 10
-9.5420181763
 20
19.6846797703
 10
-9.561351383
 20
19.6828200242
 10
-9.5792372249
 20
19.6780100449
 10
-9.5953697883
 20
19.6703321026
 10
-9.6085084705
 20
19.6607748776
  0
LWPOLYLINE
  5
487
100
AcDbEntity
  8
ASSI
100
AcDbPolyline
 62
253
  6
CONTINUOUS
 90
10
 70
0
 10
4.8691248771
 20
14.9295077473
 10
4.8474783378
 20
14.9367712687
 10
4.826096276
 20
14.9417352025
 10
4.8052128674
 20
14.9443451827
 10
4.7850568255
 20
14.944572624
 10
4.7658489005
 20
14.9424150342
 10
4.7477994612
 20
14.9378960433
 10
4.7311061841
 20
14.9310651436
 10
4.7159518936
 20
14.9219971475
 10
4.7069025032
 20
14.9148585965
  0
LWPOLYLINE
  5
488
100
AcDbEntity
  8
ASSI
100
AcDbPolyline
 62
253
  6
CONTINUOUS
 90
10
 70
0
 10
0.5685766445
 20
16.656704871
 10
0.5469301053
 20
16.6639683925
 10
0.5255480435
 20
16.6689323263
 10
0.5046646349
 20
16.6715423065
 10
0.484508593
 20
16.6717697478
 10
0.465300668
 20
16.669612158
 10
0.4472512287
 20
16.6650931671
 10
0.4305579515
 20
16.6582622674
 10
0.415403661
 20
16.6491942713
 10
0.4063542707
 20
16.6420557203
  0
LWPOLYLINE
  5
489
100
AcDbEntity
  8
ASSI
100
AcDbPolyline
 62
253
  6
CONTINUOUS
 90
13
 70
0
 10
-3.3772712555
 20
16.5451602336
 10
-3.3551636141
 20
16.537452942
 10
-3.3315063978
 20
16.5314469725
 10
-3.3066954553
 20
16.5272428212
 10
-3.2811459404
 20
16.5249108349
 10
-3.2552853654
 20
16.524490034
 10
-3.2295464471
 20
16.5259874596
 10
-3.2043598668
 20
16.5293780557
 10
-3.1801470639
 20
16.5346050886
 10
-3.1573131835
 20
16.541581096
 10
-3.136240298
 20
16.5501893503
 10
-3.1172810133
 20
16.5602858126
 10
-3.1007525694
 20
16.5717015417
  0
LWPOLYLINE
  5
48A
100
AcDbEntity
  8
ASSI
100
AcDbPolyline
 62
253
  6
CONTINUOUS
 90
13
 70
0
 10
-3.3772712555
 20
16.8452569575
 10
-3.3551636089
 20
16.8375496642
 10
-3.3315063877
 20
16.8315436942
 10
-3.3066954411
 20
16.8273395432
 10
-3.2811459231
 20
16.8250075578
 10
-3.2552853461
 20
16.8245867582
 10
-3.2295464273
 20
16.8260841853
 10
-3.2043598481
 20
16.8294747828
 10
-3.1801470475
 20
16.8347018166
 10
-3.1573131706
 20
16.8416778243
 10
-3.1362402893
 20
16.8502860782
 10
-3.1172810091
 20
16.860382539
 10
-3.1007525694
 20
16.8717982655
  0
LWPOLYLINE
  5
48B
100
AcDbEntity
  8
ASSI
100
AcDbPolyline
 62
253
  6
CONTINUOUS
 90
13
 70
0
 10
-21.808192252
 20
23.9474336212
 10
-21.7860846106
 20
23.9397263296
 10
-21.7624273943
 20
23.9337203601
 10
-21.7376164518
 20
23.9295162088
 10
-21.7120669369
 20
23.9271842225
 10
-21.6862063619
 20
23.9267634216
 10
-21.6604674436
 20
23.9282608472
 10
-21.6352808633
 20
23.9316514433
 10
-21.6110680604
 20
23.9368784762
 10
-21.58823418
 20
23.9438544835
 10
-21.5671612945
 20
23.9524627379
 10
-21.5482020098
 20
23.9625592002
 10
-21.5316735659
 20
23.9739749292
  0
LWPOLYLINE
  5
48C
100
AcDbEntity
  8
ASSI
100
AcDbPolyline
 62
253
  6
CONTINUOUS
 90
13
 70
0
 10
-21.808192252
 20
24.247530345
 10
-21.7860846054
 20
24.2398230518
 10
-21.7624273842
 20
24.2338170818
 10
-21.7376164376
 20
24.2296129308
 10
-21.7120669196
 20
24.2272809454
 10
-21.6862063426
 20
24.2268601458
 10
-21.6604674238
 20
24.2283575729
 10
-21.6352808446
 20
24.2317481704
 10
-21.611068044
 20
24.2369752042
 10
-21.5882341671
 20
24.2439512119
 10
-21.5671612858
 20
24.2525594658
 10
-21.5482020056
 20
24.2626559265
 10
-21.5316735659
 20
24.2740716531
  0
LWPOLYLINE
  5
48D
100
AcDbEntity
  8
ASSI
100
AcDbPolyline
 62
253
  6
CONTINUOUS
 90
8
 70
0
 10
10.6564773533
 20
13.7139210576
 10
10.6353446417
 20
13.7212990383
 10
10.6145391342
 20
13.7257211073
 10
10.5944166809
 20
13.7271116311
 10
10.5753214492
 20
13.7254468266
 10
10.5575800374
 20
13.720755168
 10
10.5414958883
 20
13.7131168999
 10
10.532941955
 20
13.7073140421
  0
LWPOLYLINE
  5
48E
100
AcDbEntity
  8
ASSI
100
AcDbPolyline
 62
253
  6
CONTINUOUS
 90
16
 70
0
 10
7.3013507138
 20
13.5759173892
 10
7.3233978981
 20
13.5680096373
 10
7.3467527118
 20
13.5614594462
 10
7.3711618359
 20
13.5563367505
 10
7.3963456997
 20
13.5526976965
 10
7.4220462906
 20
13.5505771208
 10
7.4480323914
 20
13.5499972568
 10
7.4740795702
 20
13.5509754357
 10
7.4998466114
 20
13.5535112115
 10
7.5249324207
 20
13.5575612634
 10
7.5490492254
 20
13.5630614517
 10
7.5719704424
 20
13.5699418505
 10
7.5934219533
 20
13.578098506
 10
7.6131866709
 20
13.5874188214
 10
7.6310979778
 20
13.5977919733
 10
7.6469990715
 20
13.6090940242
  0
LWPOLYLINE
  5
48F
100
AcDbEntity
  8
ASSI
100
AcDbPolyline
 62
253
  6
CONTINUOUS
 90
16
 70
0
 10
3.0008024813
 20
15.303114513
 10
3.0228496655
 20
15.2952067611
 10
3.0462044793
 20
15.2886565699
 10
3.0706136034
 20
15.2835338743
 10
3.0957974672
 20
15.2798948203
 10
3.121498058
 20
15.2777742446
 10
3.1474841589
 20
15.2771943806
 10
3.1735313377
 20
15.2781725595
 10
3.1992983789
 20
15.2807083353
 10
3.2243841881
 20
15.2847583872
 10
3.2485009929
 20
15.2902585755
 10
3.2714222098
 20
15.2971389743
 10
3.2928737208
 20
15.3052956298
 10
3.3126384384
 20
15.3146159452
 10
3.3305497453
 20
15.3249890971
 10
3.3464508389
 20
15.336291148
  0
LWPOLYLINE
  5
490
100
AcDbEntity
  8
ASSI
100
AcDbPolyline
 62
253
  6
CONTINUOUS
 90
16
 70
0
 10
-11.1295702827
 20
20.9781907768
 10
-11.1075230984
 20
20.9702830249
 10
-11.0841682847
 20
20.9637328337
 10
-11.0597591606
 20
20.9586101381
 10
-11.0345752968
 20
20.9549710841
 10
-11.0088747059
 20
20.9528505084
 10
-10.9828886051
 20
20.9522706444
 10
-10.9568414263
 20
20.9532488233
 10
-10.9310743851
 20
20.9557845991
 10
-10.9059885758
 20
20.959834651
 10
-10.8818717711
 20
20.9653348393
 10
-10.8589505541
 20
20.9722152381
 10
-10.8374990432
 20
20.9803718936
 10
-10.8177343256
 20
20.989692209
 10
-10.7998230187
 20
21.0000653609
 10
-10.783921925
 20
21.0113674118
  0
LWPOLYLINE
  5
491
100
AcDbEntity
  8
ASSI
100
AcDbPolyline
 62
253
  6
CONTINUOUS
 90
16
 70
0
 10
-15.4301185152
 20
22.7053879006
 10
-15.408071331
 20
22.6974801487
 10
-15.3847165172
 20
22.6909299575
 10
-15.3603073931
 20
22.6858072619
 10
-15.3351235293
 20
22.6821682079
 10
-15.3094229385
 20
22.6800476322
 10
-15.2834368376
 20
22.6794677682
 10
-15.2573896588
 20
22.680445947
 10
-15.2316226176
 20
22.6829817229
 10
-15.2065368084
 20
22.6870317748
 10
-15.1824200036
 20
22.6925319631
 10
-15.1594987867
 20
22.6994123619
 10
-15.1380472757
 20
22.7075690174
 10
-15.1182825581
 20
22.7168893328
 10
-15.1003712512
 20
22.7272624847
 10
-15.0844701576
 20
22.7385645356
  0
LWPOLYLINE
  5
492
100
AcDbEntity
  8
ASSI
100
AcDbPolyline
 62
7
  6
CONTINUOUS
 90
5
 70
0
 10
11.2541414713
 20
10.5744994572
 10
11.2587741395
 20
10.5727028104
 10
11.2816052832
 20
10.5655965132
 10
11.3052258994
 20
10.5610882091
 10
11.330003543
 20
10.5592638629
  0
LWPOLYLINE
  5
493
100
AcDbEntity
  8
ASSI
100
AcDbPolyline
 62
7
  6
CONTINUOUS
 90
5
 70
0
 10
-7.1767795252
 20
17.9767728448
 10
-7.172146857
 20
17.974976198
 10
-7.1493157133
 20
17.9678699008
 10
-7.1256950971
 20
17.9633615967
 10
-7.1009174535
 20
17.9615372504
  0
LWPOLYLINE
  5
494
100
AcDbEntity
  8
ASSI
100
AcDbPolyline
 62
7
  6
CONTINUOUS
 90
6
 70
0
 10
-3.3268169714
 20
16.4305396428
 10
-3.3223480476
 20
16.4288028012
 10
-3.3024100196
 20
16.4224189604
 10
-3.2818996418
 20
16.4180279332
 10
-3.2610436758
 20
16.4156804569
 10
-3.2507058169
 20
16.4152820484
  0
LWPOLYLINE
  5
495
100
AcDbEntity
  8
ASSI
100
AcDbPolyline
 62
7
  6
CONTINUOUS
 90
6
 70
0
 10
-21.7577379679
 20
23.8328130304
 10
-21.7532690441
 20
23.8310761887
 10
-21.7333310161
 20
23.824692348
 10
-21.7128206383
 20
23.8203013208
 10
-21.6919646723
 20
23.8179538445
 10
-21.6816268134
 20
23.817555436
  0
LINE
  5
496
100
AcDbEntity
  8
ASSI
100
AcDbLine
 62
7
  6
CONTINUOUS
 10
-23.6002990454
 20
24.1198646696
 11
-23.2227328911
 21
23.96822559
  0
LINE
  5
497
100
AcDbEntity
  8
ASSI
100
AcDbLine
 62
7
  6
CONTINUOUS
 10
-22.1027718986
 20
23.5184240064
 11
-21.2605663872
 21
23.180175286
  0
LINE
  5
498
100
AcDbEntity
  8
ASSI
100
AcDbLine
 62
7
  6
CONTINUOUS
 10
-9.019392657
 20
18.2638439452
 11
-8.6418265028
 21
18.1122048656
  0
LINE
  5
499
100
AcDbEntity
  8
ASSI
100
AcDbLine
 62
7
  6
CONTINUOUS
 10
-7.5218655102
 20
17.662403282
 11
-6.6796599988
 21
17.3241545616
  0
LINE
  5
49A
100
AcDbEntity
  8
ASSI
100
AcDbLine
 62
7
  6
CONTINUOUS
 10
-5.1693780489
 20
16.717591282
 11
-4.7918118946
 21
16.5659522024
  0
LINE
  5
49B
100
AcDbEntity
  8
ASSI
100
AcDbLine
 62
7
  6
CONTINUOUS
 10
-3.6718509021
 20
16.1161506188
 11
-2.8296453907
 21
15.7779018984
  0
LINE
  5
49C
100
AcDbEntity
  8
ASSI
100
AcDbLine
 62
7
  6
CONTINUOUS
 10
9.4115283395
 20
10.8615705576
 11
9.7890944937
 21
10.709931478
  0
LINE
  5
49D
100
AcDbEntity
  8
ASSI
100
AcDbLine
 62
7
  6
CONTINUOUS
 10
10.9090554863
 20
10.2601298944
 11
11.7512609977
 21
9.921881174
  0
LINE
  5
49E
100
AcDbEntity
  8
ASSI
100
AcDbLine
 62
7
  6
CONTINUOUS
 10
11.2541477132
 20
10.5744952682
 11
10.3242569438
 21
10.9479603465
  0
LINE
  5
49F
100
AcDbEntity
  8
ASSI
100
AcDbLine
 62
7
  6
CONTINUOUS
 10
9.7918235946
 20
11.161797583
 11
8.8619723886
 21
11.5352467903
  0
LINE
  5
4A0
100
AcDbEntity
  8
ASSI
100
AcDbLine
 62
7
  6
CONTINUOUS
 10
-3.3266705867
 20
16.4304807802
 11
-4.2566494445
 21
16.8039810709
  0
LINE
  5
4A1
100
AcDbEntity
  8
ASSI
100
AcDbLine
 62
7
  6
CONTINUOUS
 10
-4.7890827937
 20
17.0178183074
 11
-5.7189365527
 21
17.3912685401
  0
LINE
  5
4A2
100
AcDbEntity
  8
ASSI
100
AcDbLine
 62
7
  6
CONTINUOUS
 10
-7.1767732833
 20
17.9767686558
 11
-8.1066640527
 21
18.3502337341
  0
LINE
  5
4A3
100
AcDbEntity
  8
ASSI
100
AcDbLine
 62
7
  6
CONTINUOUS
 10
-8.6390974019
 20
18.5640709706
 11
-9.5689486079
 21
18.9375201779
  0
LINE
  5
4A4
100
AcDbEntity
  8
ASSI
100
AcDbLine
 62
7
  6
CONTINUOUS
 10
-21.7575915832
 20
23.8327541678
 11
-22.687570441
 21
24.2062544585
  0
LINE
  5
4A5
100
AcDbEntity
  8
ASSI
100
AcDbLine
 62
7
  6
CONTINUOUS
 10
-23.2200037902
 20
24.420091695
 11
-24.1498575492
 21
24.7935419276
  0
LINE
  5
4A6
100
AcDbEntity
  8
ASSI
100
AcDbLine
 62
253
  6
CONTINUOUS
 10
11.2036351328
 20
10.6891395092
 11
10.1199360798
 21
11.1243774803
  0
LINE
  5
4A7
100
AcDbEntity
  8
ASSI
100
AcDbLine
 62
253
  6
CONTINUOUS
 10
9.8957003846
 20
11.2144355908
 11
8.8120013316
 21
11.6496735619
  0
LINE
  5
4A8
100
AcDbEntity
  8
ASSI
100
AcDbLine
 62
253
  6
CONTINUOUS
 10
-3.3772712555
 20
16.5451602336
 11
-4.4609703085
 21
16.9803982048
  0
LINE
  5
4A9
100
AcDbEntity
  8
ASSI
100
AcDbLine
 62
253
  6
CONTINUOUS
 10
-4.6852060037
 20
17.0704563152
 11
-5.7689050567
 21
17.5056942863
  0
LINE
  5
4AA
100
AcDbEntity
  8
ASSI
100
AcDbLine
 62
253
  6
CONTINUOUS
 10
-7.2272858637
 20
18.0914128968
 11
-8.3109849167
 21
18.5266508679
  0
LINE
  5
4AB
100
AcDbEntity
  8
ASSI
100
AcDbLine
 62
253
  6
CONTINUOUS
 10
-8.5352206119
 20
18.6167089784
 11
-9.6189196649
 21
19.0519469495
  0
LINE
  5
4AC
100
AcDbEntity
  8
ASSI
100
AcDbLine
 62
253
  6
CONTINUOUS
 10
-21.808192252
 20
23.9474336212
 11
-22.891891305
 21
24.3826715923
  0
LINE
  5
4AD
100
AcDbEntity
  8
ASSI
100
AcDbLine
 62
253
  6
CONTINUOUS
 10
-23.1161270002
 20
24.4727297028
 11
-24.1998260532
 21
24.9079676739
  0
LINE
  5
4AE
100
AcDbEntity
  8
ASSI
100
AcDbLine
 62
7
  6
CONTINUOUS
 10
7.3013507138
 20
12.4522029426
 11
4.7282333402
 21
13.4856248894
  0
LINE
  5
4AF
100
AcDbEntity
  8
ASSI
100
AcDbLine
 62
7
  6
CONTINUOUS
 10
3.0008024813
 20
14.1794000664
 11
0.4276851077
 21
15.2128220132
  0
LINE
  5
4B0
100
AcDbEntity
  8
ASSI
100
AcDbLine
 62
7
  6
CONTINUOUS
 10
-11.1295702827
 20
19.8544763302
 11
-13.7026876563
 21
20.887898277
  0
LINE
  5
4B1
100
AcDbEntity
  8
ASSI
100
AcDbLine
 62
7
  6
CONTINUOUS
 10
-15.4301185152
 20
21.581673454
 11
-18.0032358888
 21
22.6150954008
  0
LINE
  5
4B2
100
AcDbEntity
  8
ASSI
100
AcDbLine
 62
253
  6
CONTINUOUS
 10
-21.808192252
 20
24.2475326387
 11
-24.1998260532
 21
25.2081095361
  0
LINE
  5
4B3
100
AcDbEntity
  8
ASSI
100
AcDbLine
 62
253
  6
CONTINUOUS
 10
-3.3772712555
 20
16.8452592512
 11
-5.7689050567
 21
17.8058361485
  0
LINE
  5
4B4
100
AcDbEntity
  8
ASSI
100
AcDbLine
 62
253
  6
CONTINUOUS
 10
11.2036351328
 20
10.9892813625
 11
8.8120013316
 21
11.9497702857
  0
LINE
  5
4B5
100
AcDbEntity
  8
ASSI
100
AcDbLine
 62
253
  6
CONTINUOUS
 10
-7.2272858637
 20
18.3915547501
 11
-9.6189196649
 21
19.3520436733
  0
LINE
  5
4B6
100
AcDbEntity
  8
ASSI
100
AcDbLine
 62
7
  6
CONTINUOUS
 10
-20.1775095865
 20
23.8599014745
 11
-18.1098417797
 21
23.0294794688
  0
LINE
  5
4B7
100
AcDbEntity
  8
ASSI
100
AcDbLine
 62
7
  6
CONTINUOUS
 10
-14.934936503
 20
21.7543659331
 11
-13.8092935472
 21
21.302282345
  0
LINE
  5
4B8
100
AcDbEntity
  8
ASSI
100
AcDbLine
 62
7
  6
CONTINUOUS
 10
-10.6343882705
 20
20.0271688094
 11
-9.6397719849
 21
19.627708486
  0
LINE
  5
4B9
100
AcDbEntity
  8
ASSI
100
AcDbLine
 62
7
  6
CONTINUOUS
 10
-1.74658859
 20
16.4576280869
 11
0.3210792168
 21
15.6272060812
  0
LINE
  5
4BA
100
AcDbEntity
  8
ASSI
100
AcDbLine
 62
7
  6
CONTINUOUS
 10
3.4959844935
 20
14.3520925455
 11
4.6216274493
 21
13.9000089575
  0
LINE
  5
4BB
100
AcDbEntity
  8
ASSI
100
AcDbLine
 62
7
  6
CONTINUOUS
 10
7.796532726
 20
12.6248954218
 11
8.7911490116
 21
12.2254350984
  0
LINE
  5
4BC
100
AcDbEntity
  8
ASSI
100
AcDbLine
 62
253
  6
CONTINUOUS
 10
11.3452291102
 20
11.3091225284
 11
8.9521904279
 21
12.270220813
  0
LINE
  5
4BD
100
AcDbEntity
  8
ASSI
100
AcDbLine
 62
253
  6
CONTINUOUS
 10
-3.2356772781
 20
17.1651432528
 11
-5.6287159605
 21
18.1262415374
  0
LINE
  5
4BE
100
AcDbEntity
  8
ASSI
100
AcDbLine
 62
253
  6
CONTINUOUS
 10
-7.0856918863
 20
18.7113959159
 11
-9.4787305686
 21
19.6724942006
  0
LINE
  5
4BF
100
AcDbEntity
  8
ASSI
100
AcDbLine
 62
253
  6
CONTINUOUS
 10
-21.6665982746
 20
24.5674166403
 11
-24.059636957
 21
25.528514925
  0
LINE
  5
4C0
100
AcDbEntity
  8
0
100
AcDbLine
 62
7
  6
CONTINUOUS
 10
-5.5966031981
 20
18.6897899362
 11
-5.2573107333
 21
18.5535224331
  0
LINE
  5
4C1
100
AcDbEntity
  8
ASSI
100
AcDbLine
 62
7
  6
CONTINUOUS
 10
12.8343178047
 20
11.287516546
 11
13.393658263
 21
11.062872808
  0
LINE
  5
4C2
100
AcDbEntity
  8
RACCORDO
100
AcDbLine
 62
7
  6
CONTINUOUS
 10
-0.9272977305
 20
16.8144915934
 11
-1.74658859
 21
17.143537273
  0
LINE
  5
4C3
100
AcDbEntity
  8
RACCORDO
100
AcDbLine
 62
7
  6
CONTINUOUS
 10
-19.358218727
 20
24.2167649809
 11
-20.1775095865
 21
24.5458106606
  0
LINE
  5
4C4
100
AcDbEntity
  8
ASSI
100
AcDbLine
 62
7
  6
CONTINUOUS
 10
-14.3756584188
 20
22.2285250926
 11
-13.8092935472
 21
22.0010601918
  0
LINE
  5
4C5
100
AcDbEntity
  8
ASSI
100
AcDbLine
 62
7
  6
CONTINUOUS
 10
4.0552625777
 20
14.826251705
 11
4.6216274493
 21
14.5987868042
  0
LINE
  5
4C6
100
AcDbEntity
  8
ASSI
100
AcDbLine
 62
253
  6
CONTINUOUS
 10
7.3013507138
 20
13.5759173892
 11
4.7282333402
 21
14.609339336
  0
LINE
  5
4C7
100
AcDbEntity
  8
ASSI
100
AcDbLine
 62
253
  6
CONTINUOUS
 10
3.0008024813
 20
15.303114513
 11
0.4276851077
 21
16.3365364598
  0
LINE
  5
4C8
100
AcDbEntity
  8
ASSI
100
AcDbLine
 62
253
  6
CONTINUOUS
 10
-11.1295702827
 20
20.9781907768
 11
-13.7026876563
 21
22.0116127236
  0
LINE
  5
4C9
100
AcDbEntity
  8
ASSI
100
AcDbLine
 62
253
  6
CONTINUOUS
 10
-15.4301185152
 20
22.7053879006
 11
-18.0032358888
 21
23.7388098473
  0
LINE
  5
4CA
100
AcDbEntity
  8
ASSI
100
AcDbLine
 62
253
  6
CONTINUOUS
 10
7.4422422506
 20
13.8960858005
 11
4.8691248771
 21
14.9295077473
  0
LINE
  5
4CB
100
AcDbEntity
  8
ASSI
100
AcDbLine
 62
253
  6
CONTINUOUS
 10
3.1416940181
 20
15.6232829242
 11
0.5685766445
 21
16.656704871
  0
LINE
  5
4CC
100
AcDbEntity
  8
ASSI
100
AcDbLine
 62
253
  6
CONTINUOUS
 10
-10.9886787459
 20
21.2983591881
 11
-13.5617961194
 21
22.3317811348
  0
LINE
  5
4CD
100
AcDbEntity
  8
ASSI
100
AcDbLine
 62
253
  6
CONTINUOUS
 10
-15.2892269784
 20
23.0255563118
 11
-17.862344352
 21
24.0589782586
  0
LINE
  5
4CE
100
AcDbEntity
  8
ASSI
100
AcDbLine
 62
7
  6
CONTINUOUS
 10
-17.7200846438
 20
24.183587487
 11
-15.1396933239
 21
23.1472441594
  0
LINE
  5
4CF
100
AcDbEntity
  8
ASSI
100
AcDbLine
 62
7
  6
CONTINUOUS
 10
-13.4195364113
 20
22.4563903633
 11
-10.8391450914
 21
21.4200470356
  0
LINE
  5
4D0
100
AcDbEntity
  8
ASSI
100
AcDbLine
 62
7
  6
CONTINUOUS
 10
0.7108363527
 20
16.7813140994
 11
3.2912276726
 21
15.7449707718
  0
LINE
  5
4D1
100
AcDbEntity
  8
ASSI
100
AcDbLine
 62
7
  6
CONTINUOUS
 10
5.0113845852
 20
15.0541169757
 11
7.5917759051
 21
14.017773648
  0
LINE
  5
4D2
100
AcDbEntity
  8
ASSI
100
AcDbLine
 62
7
  6
CONTINUOUS
 10
-22.7988210803
 20
26.6328985595
 11
-20.3413150431
 21
25.6459087318
  0
LINE
  5
4D3
100
AcDbEntity
  8
ASSI
100
AcDbLine
 62
7
  6
CONTINUOUS
 10
-8.217914692
 20
20.7768778351
 11
-5.7604086548
 21
19.7898880074
  0
LINE
  5
4D4
100
AcDbEntity
  8
ASSI
100
AcDbLine
 62
7
  6
CONTINUOUS
 10
-4.3679000838
 20
19.2306251719
 11
-1.9103940466
 21
18.2436353442
  0
LINE
  5
4D5
100
AcDbEntity
  8
ASSI
100
AcDbLine
 62
7
  6
CONTINUOUS
 10
10.2130063045
 20
13.3746044475
 11
12.6705123417
 21
12.3876146198
  0
LWPOLYLINE
  5
4D6
100
AcDbEntity
  8
ASSI
100
AcDbPolyline
 62
7
  6
CONTINUOUS
 90
12
 70
0
 10
-23.2214966513
 20
24.4210320544
 10
-23.2212258657
 20
24.4209217016
 10
-23.2175486066
 20
24.4206636996
 10
-23.2119481047
 20
24.4220265124
 10
-23.2046525739
 20
24.4249036155
 10
-23.1957594633
 20
24.4288212227
 10
-23.185413887
 20
24.4337814907
 10
-23.1737974808
 20
24.4398874213
 10
-23.1609465919
 20
24.446829546
 10
-23.146943201
 20
24.4545373532
 10
-23.1319589543
 20
24.4631617959
 10
-23.1161270002
 20
24.4727297028
  0
LWPOLYLINE
  5
4D7
100
AcDbEntity
  8
ASSI
100
AcDbPolyline
 62
7
  6
CONTINUOUS
 90
12
 70
0
 10
-8.6405902629
 20
18.56501133
 10
-8.6403194773
 20
18.5649009772
 10
-8.6366422183
 20
18.5646429752
 10
-8.6310417164
 20
18.566005788
 10
-8.6237461855
 20
18.5688828911
 10
-8.614853075
 20
18.5728004983
 10
-8.6045074986
 20
18.5777607663
 10
-8.5928910925
 20
18.5838666969
 10
-8.5800402035
 20
18.5908088216
 10
-8.5660368126
 20
18.5985166288
 10
-8.551052566
 20
18.6071410715
 10
-8.5352206119
 20
18.6167089784
  0
LWPOLYLINE
  5
4D8
100
AcDbEntity
  8
ASSI
100
AcDbPolyline
 62
7
  6
CONTINUOUS
 90
12
 70
0
 10
-4.7905756548
 20
17.0187586668
 10
-4.7903048692
 20
17.0186483141
 10
-4.7866276101
 20
17.018390312
 10
-4.7810271082
 20
17.0197531248
 10
-4.7737315774
 20
17.0226302279
 10
-4.7648384668
 20
17.0265478351
 10
-4.7544928905
 20
17.0315081031
 10
-4.7428764843
 20
17.0376140337
 10
-4.7300255954
 20
17.0445561584
 10
-4.7160222045
 20
17.0522639656
 10
-4.7010379578
 20
17.0608884083
 10
-4.6852060037
 20
17.0704563152
  0
LWPOLYLINE
  5
4D9
100
AcDbEntity
  8
ASSI
100
AcDbPolyline
 62
7
  6
CONTINUOUS
 90
12
 70
0
 10
9.7903307336
 20
11.1627379424
 10
9.7906015192
 20
11.1626275897
 10
9.7942787782
 20
11.1623695876
 10
9.7998792801
 20
11.1637324004
 10
9.807174811
 20
11.1666095035
 10
9.8160679215
 20
11.1705271107
 10
9.8264134979
 20
11.1754873787
 10
9.838029904
 20
11.1815933093
 10
9.850880793
 20
11.188535434
 10
9.8648841839
 20
11.1962432412
 10
9.8798684305
 20
11.2048676839
 10
9.8957003846
 20
11.2144355908
  0
LWPOLYLINE
  5
4DA
100
AcDbEntity
  8
ASSI
100
AcDbPolyline
 62
7
  6
CONTINUOUS
 90
12
 70
0
 10
-22.6870882467
 20
24.2060620786
 10
-22.6895782549
 20
24.2070852086
 10
-22.7123592643
 20
24.2177682705
 10
-22.7348225472
 20
24.2305164744
 10
-22.7569069092
 20
24.2450634115
 10
-22.7783619105
 20
24.2611849555
 10
-22.7991663721
 20
24.2787240127
 10
-22.8193628296
 20
24.2975147893
 10
-22.8387475999
 20
24.317427167
 10
-22.8572490326
 20
24.3383472284
 10
-22.8749563251
 20
24.3601384371
 10
-22.891891305
 20
24.3826715923
  0
LWPOLYLINE
  5
4DB
100
AcDbEntity
  8
ASSI
100
AcDbPolyline
 62
7
  6
CONTINUOUS
 90
12
 70
0
 10
-8.1061818584
 20
18.3500413542
 10
-8.1086718666
 20
18.3510644842
 10
-8.131452876
 20
18.3617475461
 10
-8.1539161589
 20
18.37449575
 10
-8.1760005209
 20
18.3890426871
 10
-8.1974555221
 20
18.4051642311
 10
-8.2182599837
 20
18.4227032883
 10
-8.2384564413
 20
18.4414940649
 10
-8.2578412115
 20
18.4614064426
 10
-8.2763426443
 20
18.482326504
 10
-8.2940499368
 20
18.5041177127
 10
-8.3109849167
 20
18.5266508679
  0
LWPOLYLINE
  5
4DC
100
AcDbEntity
  8
ASSI
100
AcDbPolyline
 62
7
  6
CONTINUOUS
 90
12
 70
0
 10
-4.2561672502
 20
16.803788691
 10
-4.2586572584
 20
16.804811821
 10
-4.2814382678
 20
16.8154948829
 10
-4.3039015507
 20
16.8282430869
 10
-4.3259859127
 20
16.8427900239
 10
-4.347440914
 20
16.8589115679
 10
-4.3682453756
 20
16.8764506251
 10
-4.3884418331
 20
16.8952414017
 10
-4.4078266034
 20
16.9151537794
 10
-4.4263280361
 20
16.9360738408
 10
-4.4440353286
 20
16.9578650495
 10
-4.4609703085
 20
16.9803982048
  0
LWPOLYLINE
  5
4DD
100
AcDbEntity
  8
ASSI
100
AcDbPolyline
 62
7
  6
CONTINUOUS
 90
12
 70
0
 10
10.3247391381
 20
10.9477679666
 10
10.3222491299
 20
10.9487910966
 10
10.2994681205
 20
10.9594741585
 10
10.2770048377
 20
10.9722223625
 10
10.2549204756
 20
10.9867692995
 10
10.2334654744
 20
11.0028908435
 10
10.2126610128
 20
11.0204299007
 10
10.1924645552
 20
11.0392206773
 10
10.173079785
 20
11.059133055
 10
10.1545783522
 20
11.0800531164
 10
10.1368710597
 20
11.1018443251
 10
10.1199360798
 20
11.1243774803
  0
LWPOLYLINE
  5
4DE
100
AcDbEntity
  8
ASSI
100
AcDbPolyline
 62
253
  6
CONTINUOUS
 90
18
 70
0
 10
-3.3268201054
 20
16.4305406509
 10
-3.3304843308
 20
16.4321693495
 10
-3.3353569759
 20
16.4348529567
 10
-3.3400982543
 20
16.4381068
 10
-3.3446828981
 20
16.4419545892
 10
-3.3490677759
 20
16.4463999178
 10
-3.3532292965
 20
16.4514568908
 10
-3.357143304
 20
16.4571374248
 10
-3.3607718654
 20
16.4634261872
 10
-3.3640942065
 20
16.4703242937
 10
-3.3670898226
 20
16.4778305092
 10
-3.3697291932
 20
16.4859102513
 10
-3.3719967064
 20
16.4945512611
 10
-3.3738777237
 20
16.5037394266
 10
-3.3753536805
 20
16.5134229726
 10
-3.3764149727
 20
16.5235660161
 10
-3.3770562379
 20
16.5341542074
 10
-3.3772712555
 20
16.5451602336
  0
LWPOLYLINE
  5
4DF
100
AcDbEntity
  8
ASSI
100
AcDbPolyline
 62
253
  6
CONTINUOUS
 90
11
 70
0
 10
-18.0032358888
 20
23.7388098473
 10
-18.023731772
 20
23.7479883505
 10
-18.0424507936
 20
23.7583359601
 10
-18.0591917388
 20
23.7697400599
 10
-18.0737670044
 20
23.7820691685
 10
-18.0860312721
 20
23.7951961357
 10
-18.0958690356
 20
23.8090039431
 10
-18.103175141
 20
23.8233775526
 10
-18.1078336164
 20
23.8381329015
 10
-18.1097782521
 20
23.8530389893
 10
-18.1098417783
 20
23.8562865001
  0
LWPOLYLINE
  5
4E0
100
AcDbEntity
  8
ASSI
100
AcDbPolyline
 62
253
  6
CONTINUOUS
 90
11
 70
0
 10
-13.7026876563
 20
22.0116127236
 10
-13.7231835394
 20
22.0207912267
 10
-13.741902561
 20
22.0311388363
 10
-13.7586435063
 20
22.0425429361
 10
-13.7732187719
 20
22.0548720448
 10
-13.7854830396
 20
22.067999012
 10
-13.7953208031
 20
22.0818068193
 10
-13.8026269085
 20
22.0961804289
 10
-13.8072853838
 20
22.1109357778
 10
-13.8092300196
 20
22.1258418655
 10
-13.8092935458
 20
22.1290893763
  0
LWPOLYLINE
  5
4E1
100
AcDbEntity
  8
ASSI
100
AcDbPolyline
 62
253
  6
CONTINUOUS
 90
11
 70
0
 10
0.4276851077
 20
16.3365364598
 10
0.4071892245
 20
16.3457149629
 10
0.3884702029
 20
16.3560625725
 10
0.3717292577
 20
16.3674666723
 10
0.3571539921
 20
16.379795781
 10
0.3448897244
 20
16.3929227481
 10
0.3350519609
 20
16.4067305555
 10
0.3277458555
 20
16.421104165
 10
0.3230873801
 20
16.4358595139
 10
0.3211427444
 20
16.4507656017
 10
0.3210792182
 20
16.4540131125
  0
LWPOLYLINE
  5
4E2
100
AcDbEntity
  8
ASSI
100
AcDbPolyline
 62
253
  6
CONTINUOUS
 90
11
 70
0
 10
4.7282333402
 20
14.609339336
 10
4.7077374571
 20
14.6185178391
 10
4.6890184355
 20
14.6288654487
 10
4.6722774902
 20
14.6402695485
 10
4.6577022246
 20
14.6525986572
 10
4.6454379569
 20
14.6657256244
 10
4.6356001934
 20
14.6795334318
 10
4.628294088
 20
14.6939070413
 10
4.6236356127
 20
14.7086623902
 10
4.6216909769
 20
14.7235684779
 10
4.6216274507
 20
14.7268159887
  0
LWPOLYLINE
  5
4E3
100
AcDbEntity
  8
ASSI
100
AcDbPolyline
 62
253
  6
CONTINUOUS
 90
13
 70
0
 10
-19.9194162929
 20
25.9938892632
 10
-19.8977954319
 20
25.9840964443
 10
-19.8765786111
 20
25.9716413955
 10
-19.8561287156
 20
25.9567371445
 10
-19.8367955131
 20
25.9396386089
 10
-19.8189096721
 20
25.9206382368
 10
-19.8027771062
 20
25.9000610051
 10
-19.7886737406
 20
25.8782588606
 10
-19.7768407935
 20
25.8556046995
 10
-19.7674806505
 20
25.8324859901
 10
-19.7607534033
 20
25.8092981465
 10
-19.756774112
 20
25.7864377653
 10
-19.7556108362
 20
25.7642958422
  0
LWPOLYLINE
  5
4E4
100
AcDbEntity
  8
ASSI
100
AcDbPolyline
 62
253
  6
CONTINUOUS
 90
13
 70
0
 10
-1.4884952964
 20
18.5916158757
 10
-1.4668744354
 20
18.5818230567
 10
-1.4456576146
 20
18.5693680079
 10
-1.4252077191
 20
18.5544637569
 10
-1.4058745166
 20
18.5373652213
 10
-1.3879886756
 20
18.5183648492
 10
-1.3718561097
 20
18.4977876175
 10
-1.3577527441
 20
18.475985473
 10
-1.345919797
 20
18.4533313119
 10
-1.336559654
 20
18.4302126025
 10
-1.3298324068
 20
18.4070247589
 10
-1.3258531155
 20
18.3841643777
 10
-1.3246898397
 20
18.3620224547
  0
LWPOLYLINE
  5
4E5
100
AcDbEntity
  8
ASSI
100
AcDbPolyline
 62
7
  6
CONTINUOUS
 90
16
 70
0
 10
-10.8391450914
 20
21.4200470356
 10
-10.8178979642
 20
21.4104033825
 10
-10.7967899296
 20
21.3986043355
 10
-10.7760576803
 20
21.384750716
 10
-10.7558657847
 20
21.3689059132
 10
-10.7365291986
 20
21.3512716539
 10
-10.7184704671
 20
21.3322482799
 10
-10.7019974543
 20
21.3122538549
 10
-10.6870997625
 20
21.2913729142
 10
-10.6737213765
 20
21.2695269457
 10
-10.6619510683
 20
21.2467412652
 10
-10.6520829707
 20
21.2234415815
 10
-10.6443472635
 20
21.2001424266
 10
-10.638819489
 20
21.1771894047
 10
-10.6354977024
 20
21.1547470634
 10
-10.6343882705
 20
21.1330552594
  0
LWPOLYLINE
  5
4E6
100
AcDbEntity
  8
ASSI
100
AcDbPolyline
 62
7
  6
CONTINUOUS
 90
16
 70
0
 10
-5.7604086548
 20
19.7898880074
 10
-5.7434109531
 20
19.7821730849
 10
-5.7265245254
 20
19.7727338474
 10
-5.7099387259
 20
19.7616509517
 10
-5.6937852095
 20
19.7489751095
 10
-5.6783159406
 20
19.734867702
 10
-5.6638689554
 20
19.7196490029
 10
-5.6506905451
 20
19.7036534628
 10
-5.6387723917
 20
19.6869487103
 10
-5.6280696829
 20
19.6694719355
 10
-5.6186534364
 20
19.6512433911
 10
-5.6107589583
 20
19.6326036441
 10
-5.6045703925
 20
19.6139643202
 10
-5.6001481729
 20
19.5956019026
 10
-5.5974907436
 20
19.5776480296
 10
-5.5966031981
 20
19.5602945864
  0
LWPOLYLINE
  5
4E7
100
AcDbEntity
  8
ASSI
100
AcDbPolyline
 62
7
  6
CONTINUOUS
 90
19
 70
0
 10
12.8343199733
 20
10.6016090219
 10
12.8693321511
 20
10.585691657
 10
12.9043364994
 20
10.5667727147
 10
12.9390577007
 20
10.5449402189
 10
12.9733442988
 20
10.5202122264
 10
13.0067749675
 20
10.4928079584
 10
13.03870865
 20
10.4632416395
 10
13.068758429
 20
10.4319652748
 10
13.0969060442
 20
10.3990868718
 10
13.1231038443
 20
10.364672138
 10
13.1471573311
 20
10.3289809055
 10
13.1688854829
 20
10.2922798526
 10
13.188210435
 20
10.2546145141
 10
13.2050376919
 20
10.2160487509
 10
13.2190642259
 20
10.1770833964
 10
13.2299831778
 20
10.138426689
 10
13.2377277879
 20
10.1005088717
 10
13.2423572421
 20
10.0634772003
 10
13.2438938205
 20
10.0275987566
  0
LWPOLYLINE
  5
4E8
100
AcDbEntity
  8
ASSI
100
AcDbPolyline
 62
253
  6
CONTINUOUS
 90
9
 70
0
 10
-9.6189196649
 20
19.0519469495
 10
-9.6391078148
 20
19.0612266016
 10
-9.6570386659
 20
19.0719233389
 10
-9.6724121871
 20
19.0838581759
 10
-9.6849711381
 20
19.0968314105
 10
-9.6945053742
 20
19.1106259656
 10
-9.7008553623
 20
19.1250110209
 10
-9.7039148503
 20
19.1397458756
 10
-9.7042043251
 20
19.1458330815
  0
LWPOLYLINE
  5
4E9
100
AcDbEntity
  8
ASSI
100
AcDbPolyline
 62
253
  6
CONTINUOUS
 90
9
 70
0
 10
-9.6189196649
 20
19.3520436733
 10
-9.639107811
 20
19.3613233235
 10
-9.6570386599
 20
19.3720200586
 10
-9.6724121802
 20
19.3839548935
 10
-9.6849711316
 20
19.3969281264
 10
-9.694505369
 20
19.4107226801
 10
-9.7008553591
 20
19.4251077347
 10
-9.7039148494
 20
19.4398425896
 10
-9.7042043622
 20
19.4459679279
  0
LWPOLYLINE
  5
4EA
100
AcDbEntity
  8
ASSI
100
AcDbPolyline
 62
253
  6
CONTINUOUS
 90
9
 70
0
 10
8.8120013316
 20
11.6496735619
 10
8.7918131817
 20
11.6589532141
 10
8.7738823306
 20
11.6696499513
 10
8.7585088094
 20
11.6815847883
 10
8.7459498584
 20
11.6945580229
 10
8.7364156223
 20
11.708352578
 10
8.7300656342
 20
11.7227376333
 10
8.7270061462
 20
11.737472488
 10
8.7267166714
 20
11.7435596939
  0
LWPOLYLINE
  5
4EB
100
AcDbEntity
  8
ASSI
100
AcDbPolyline
 62
253
  6
CONTINUOUS
 90
9
 70
0
 10
8.8120013316
 20
11.9497702857
 10
8.7918131855
 20
11.9590499359
 10
8.7738823366
 20
11.969746671
 10
8.7585088163
 20
11.9816815059
 10
8.7459498649
 20
11.9946547388
 10
8.7364156275
 20
12.0084492925
 10
8.7300656374
 20
12.0228343472
 10
8.7270061471
 20
12.037569202
 10
8.7267166343
 20
12.0436945403
  0
LWPOLYLINE
  5
4EC
100
AcDbEntity
  8
ASSI
100
AcDbPolyline
 62
253
  6
CONTINUOUS
 90
13
 70
0
 10
-3.2356772781
 20
17.1651432528
 10
-3.2145445666
 20
17.1549505784
 10
-3.1937390591
 20
17.1421586142
 10
-3.1736166058
 20
17.1269861497
 10
-3.1545213741
 20
17.1096926892
 10
-3.1367799622
 20
17.0905740143
 10
-3.1206958131
 20
17.0699571239
 10
-3.1065440244
 20
17.0481946422
 10
-3.0945666435
 20
17.0256587872
 10
-3.0849685272
 20
17.0027350042
 10
-3.0779138384
 20
16.9798153737
 10
-3.0735232381
 20
16.957291905
 10
-3.0718718214
 20
16.9355498318
  0
LWPOLYLINE
  5
4ED
100
AcDbEntity
  8
ASSI
100
AcDbPolyline
 62
7
  6
CONTINUOUS
 90
3
 70
0
 10
8.8307846488
 20
11.550887878
 10
8.8496771286
 20
11.5406464635
 10
8.8620531702
 20
11.5352147746
  0
LWPOLYLINE
  5
4EE
100
AcDbEntity
  8
RACCORDO
100
AcDbPolyline
 62
253
  6
CONTINUOUS
 90
5
 70
0
 10
-5.2967418971
 20
22.4992636748
 10
-5.3291827237
 20
22.519756263
 10
-5.3636848112
 20
22.5389256657
 10
-5.4003915093
 20
22.5568686009
 10
-5.439302818
 20
22.5735850688
  0
LWPOLYLINE
  5
4EF
100
AcDbEntity
  8
ASSI
100
AcDbPolyline
 62
7
  6
CONTINUOUS
 90
4
 70
0
 10
13.3142657974
 20
-27.1987668659
 10
13.3167996736
 20
-27.1787449557
 10
13.3178555794
 20
-27.1587140507
 10
13.3178841796
 20
-27.1547579225
  0
LWPOLYLINE
  5
4F0
100
AcDbEntity
  8
ASSI
100
AcDbPolyline
 62
253
  6
CONTINUOUS
 90
4
 70
0
 10
13.2697104634
 20
-26.8738245751
 10
13.2755654364
 20
-26.8486924784
 10
13.2785157143
 20
-26.8229001953
 10
13.2785113755
 20
-26.7968841562
  0
LWPOLYLINE
  5
4F1
100
AcDbEntity
  8
ASSI
100
AcDbPolyline
 62
7
  6
CONTINUOUS
 90
6
 70
0
 10
4.109987313
 20
19.3833040996
 10
4.0716734916
 20
19.3809695361
 10
4.0340619799
 20
19.3756569889
 10
3.9970392643
 20
19.3672999979
 10
3.9617394634
 20
19.3561247699
 10
3.9282896282
 20
19.3422053853
  0
LWPOLYLINE
  5
4F2
100
AcDbEntity
  8
ASSI
100
AcDbPolyline
 62
253
  6
CONTINUOUS
 90
11
 70
0
 10
-3.2507058169
 20
16.4152820484
 10
-3.2391123132
 20
16.4155739612
 10
-3.2168696516
 20
16.4186997449
 10
-3.1951513613
 20
16.4251515479
 10
-3.1743249369
 20
16.4348201995
 10
-3.1547427815
 20
16.4475420967
 10
-3.1367362442
 20
16.4631019728
 10
-3.120610013
 20
16.4812365395
 10
-3.1066369592
 20
16.5016389426
 10
-3.0950535204
 20
16.5239639537
 10
-3.0860556997
 20
16.5478338119
  0
LINE
  5
4F3
100
AcDbEntity
  8
ASSI
100
AcDbLine
 62
253
  6
CONTINUOUS
 10
-2.483997033
 20
16.53878679
 11
-3.0860556997
 21
16.5478338119
  0
LINE
  5
4F4
100
AcDbEntity
  8
ASSI
100
AcDbLine
 62
7
  6
CONTINUOUS
 10
-7.1008787297
 20
17.9615370058
 11
-6.5733563122
 21
17.9536100261
  0
LINE
  5
4F5
100
AcDbEntity
  8
ASSI
100
AcDbLine
 62
253
  6
CONTINUOUS
 10
-6.9360703078
 20
18.0940864751
 11
-6.3340116411
 21
18.0850394532
  0
LINE
  5
4F6
100
AcDbEntity
  8
SMUSSO
100
AcDbLine
 62
7
  6
CONTINUOUS
 10
5.3811392301
 20
17.8186600841
 11
5.5245333392
 21
17.8132488551
  0
LWPOLYLINE
  5
4F7
100
AcDbEntity
  8
RACCORDO
100
AcDbPolyline
 62
7
  6
CONTINUOUS
 90
15
 70
0
 10
3.020410586
 20
19.2293560211
 10
2.9512411135
 20
19.246778507
 10
2.8807199468
 20
19.2607948151
 10
2.8090284108
 20
19.2714396949
 10
2.7364893411
 20
19.278714314
 10
2.6634472815
 20
19.2826162287
 10
2.5901539183
 20
19.2831297127
 10
2.5169421537
 20
19.280248146
 10
2.4441566846
 20
19.2739551831
 10
2.3720531661
 20
19.2642197192
 10
2.3008475632
 20
19.2509962598
 10
2.231019303
 20
19.2342606492
 10
2.1631239119
 20
19.2140525202
 10
2.0973209118
 20
19.1903010789
 10
2.0341099123
 20
19.1630202904
  0
LINE
  5
4F8
100
AcDbEntity
  8
RACCORDO
100
AcDbLine
 62
7
  6
CONTINUOUS
 10
3.0879591679
 20
19.2084695198
 11
3.020410586
 21
19.2293560211
  0
LWPOLYLINE
  5
4F9
100
AcDbEntity
  8
ASSI
100
AcDbPolyline
 62
253
  6
CONTINUOUS
 90
8
 70
0
 10
-5.2482926897
 20
20.163232527
 10
-5.2559315139
 20
20.1656690119
 10
-5.2682291157
 20
20.1672620963
 10
-5.2813059032
 20
20.1663236602
 10
-5.2950197955
 20
20.1628654851
 10
-5.3092223046
 20
20.156927011
 10
-5.3237607179
 20
20.1485728013
 10
-5.3384785204
 20
20.1378936446
  0
LWPOLYLINE
  5
4FA
100
AcDbEntity
  8
ASSI
100
AcDbPolyline
 62
253
  6
CONTINUOUS
 90
10
 70
0
 10
-13.5617961194
 20
22.3317811348
 10
-13.5834426587
 20
22.3390446563
 10
-13.6048247205
 20
22.3440085901
 10
-13.6257081291
 20
22.3466185703
 10
-13.645864171
 20
22.3468460116
 10
-13.665072096
 20
22.3446884218
 10
-13.6831215353
 20
22.3401694309
 10
-13.6998148124
 20
22.3333385312
 10
-13.714969103
 20
22.3242705351
 10
-13.7240184933
 20
22.3171319841
  0
LWPOLYLINE
  5
4FB
100
AcDbEntity
  8
ASSI
100
AcDbPolyline
 62
253
  6
CONTINUOUS
 90
10
 70
0
 10
-17.862344352
 20
24.0589782586
 10
-17.8839908912
 20
24.0662417801
 10
-17.905372953
 20
24.0712057138
 10
-17.9262563616
 20
24.0738156941
 10
-17.9464124035
 20
24.0740431354
 10
-17.9656203285
 20
24.0718855455
 10
-17.9836697678
 20
24.0673665547
 10
-18.000363045
 20
24.060535655
 10
-18.0155173355
 20
24.0514676589
 10
-18.0245667258
 20
24.0443291079
  0
LWPOLYLINE
  5
4FC
100
AcDbEntity
  8
ASSI
100
AcDbPolyline
 62
253
  6
CONTINUOUS
 90
8
 70
0
 10
-7.7744436432
 20
21.1161944451
 10
-7.7955763548
 20
21.1235724259
 10
-7.8163818623
 20
21.1279944949
 10
-7.8365043156
 20
21.1293850187
 10
-7.8555995473
 20
21.1277202142
 10
-7.8733409591
 20
21.1230285556
 10
-7.8894251082
 20
21.1153902875
 10
-7.8979790415
 20
21.1095874297
  0
LWPOLYLINE
  5
4FD
100
AcDbEntity
  8
ASSI
100
AcDbPolyline
 62
253
  6
CONTINUOUS
 90
8
 70
0
 10
10.5132765523
 20
16.699970212
 10
10.4868606628
 20
16.7091926879
 10
10.4608537784
 20
16.7147202742
 10
10.4357007118
 20
16.716458429
 10
10.4118316722
 20
16.7143774233
 10
10.3896549074
 20
16.7085128502
 10
10.3695497211
 20
16.6989650151
 10
10.358918923
 20
16.6917585559
  0
LWPOLYLINE
  5
4FE
100
AcDbEntity
  8
ASSI
100
AcDbPolyline
 62
253
  6
CONTINUOUS
 90
8
 70
0
 10
4.0153161523
 20
19.3096976017
 10
3.9889002629
 20
19.3189200777
 10
3.9628933787
 20
19.324447664
 10
3.9377403123
 20
19.3261858189
 10
3.913871273
 20
19.3241048135
 10
3.8916945086
 20
19.3182402407
 10
3.8715893227
 20
19.3086924059
 10
3.8609331468
 20
19.3014665512
  0
LWPOLYLINE
  5
4FF
100
AcDbEntity
  8
ASSI
100
AcDbPolyline
 62
7
  6
CONTINUOUS
 90
10
 70
0
 10
-4.3679000838
 20
19.2306251719
 10
-4.3848977855
 20
19.2365714964
 10
-4.4017842133
 20
19.2406944098
 10
-4.4183700127
 20
19.2429278388
 10
-4.4345235292
 20
19.2432234702
 10
-4.4499927981
 20
19.241543029
 10
-4.4644397832
 20
19.2379312068
 10
-4.4776181935
 20
19.232522096
 10
-4.4895363469
 20
19.2253905417
 10
-4.492242675
 20
19.2234005619
  0
LWPOLYLINE
  5
500
100
AcDbEntity
  8
ASSI
100
AcDbPolyline
 62
7
  6
CONTINUOUS
 90
10
 70
0
 10
-17.7200846438
 20
24.183587487
 10
-17.7413317709
 20
24.1910203926
 10
-17.7624398056
 20
24.1961740344
 10
-17.7831720549
 20
24.1989658206
 10
-17.8033639505
 20
24.1993353599
 10
-17.8227005366
 20
24.1972348083
 10
-17.840759268
 20
24.1927200306
 10
-17.8572322809
 20
24.1859586421
 10
-17.8721299727
 20
24.1770441992
 10
-17.8755128827
 20
24.1745567245
  0
LWPOLYLINE
  5
501
100
AcDbEntity
  8
ASSI
100
AcDbPolyline
 62
7
  6
CONTINUOUS
 90
10
 70
0
 10
-22.7988210803
 20
26.6328985595
 10
-22.815818782
 20
26.6388448839
 10
-22.8327052098
 20
26.6429677974
 10
-22.8492910092
 20
26.6452012263
 10
-22.8654445257
 20
26.6454968578
 10
-22.8809137946
 20
26.6438164166
 10
-22.8953607797
 20
26.6402045944
 10
-22.90853919
 20
26.6347954836
 10
-22.9204573435
 20
26.6276639292
 10
-22.9231636715
 20
26.6256739495
  0
LWPOLYLINE
  5
502
100
AcDbEntity
  8
ASSI
100
AcDbPolyline
 62
7
  6
CONTINUOUS
 90
7
 70
0
 10
-3.8331068405
 20
19.5948615221
 10
-3.8490413219
 20
19.600549899
 10
-3.8698405026
 20
19.6059064922
 10
-3.8915256676
 20
19.6091776244
 10
-3.913792305
 20
19.6102012662
 10
-3.9362077261
 20
19.6088889888
 10
-3.9585171872
 20
19.6052214797
  0
LWPOLYLINE
  5
503
100
AcDbEntity
  8
ASSI
100
AcDbPolyline
 62
7
  6
CONTINUOUS
 90
7
 70
0
 10
-22.2640278371
 20
26.9971349097
 10
-22.2799623184
 20
27.0028232866
 10
-22.3007614991
 20
27.0081798798
 10
-22.3224466641
 20
27.011451012
 10
-22.3447133015
 20
27.0124746538
 10
-22.3671287226
 20
27.0111623764
 10
-22.3894381837
 20
27.0074948673
  0
LWPOLYLINE
  5
504
100
AcDbEntity
  8
ASSI
100
AcDbPolyline
 62
7
  6
CONTINUOUS
 90
7
 70
0
 10
10.7477865997
 20
13.7388453753
 10
10.7336185098
 20
13.7439736467
 10
10.712879013
 20
13.7495120395
 10
10.6913197964
 20
13.752964584
 10
10.6692359961
 20
13.7541916462
 10
10.6470314032
 20
13.7531208086
 10
10.6249532885
 20
13.7497456825
  0
LWPOLYLINE
  5
505
100
AcDbEntity
  8
ASSI
100
AcDbPolyline
 62
7
  6
CONTINUOUS
 90
7
 70
0
 10
-7.6831343968
 20
21.1411187629
 10
-7.6973024867
 20
21.1462470343
 10
-7.7180419835
 20
21.1517854271
 10
-7.7396012001
 20
21.1552379715
 10
-7.7616850004
 20
21.1564650338
 10
-7.7838895933
 20
21.1553941962
 10
-7.805967708
 20
21.1520190701
  0
LWPOLYLINE
  5
506
100
AcDbEntity
  8
RACCORDO
100
AcDbPolyline
 62
253
  6
CONTINUOUS
 90
8
 70
0
 10
2.0223360416
 20
19.0713688689
 10
2.0011850156
 20
19.0790382893
 10
1.9802382268
 20
19.0843587736
 10
1.9597250837
 20
19.0872720521
 10
1.9398702455
 20
19.0877462186
 10
1.9208911617
 20
19.0857760802
 10
1.9029956905
 20
19.0813832137
 10
1.8863798225
 20
19.0746157296
  0
LWPOLYLINE
  5
507
100
AcDbEntity
  8
RACCORDO
100
AcDbPolyline
 62
253
  6
CONTINUOUS
 90
8
 70
0
 10
-16.4085849549
 20
26.4736422565
 10
-16.4297359809
 20
26.4813116769
 10
-16.4506827697
 20
26.4866321612
 10
-16.4711959128
 20
26.4895454397
 10
-16.491050751
 20
26.4900196062
 10
-16.5100298349
 20
26.4880494678
 10
-16.527925306
 20
26.4836566013
 10
-16.544541174
 20
26.4768891172
  0
LINE
  5
508
100
AcDbEntity
  8
RACCORDO
100
AcDbLine
 62
7
  6
CONTINUOUS
 10
3.1500332765
 20
19.1855044538
 11
3.0879591679
 21
19.2084695198
  0
LINE
  5
509
100
AcDbEntity
  8
RACCORDO
100
AcDbLine
 62
7
  6
CONTINUOUS
 10
-15.28088772
 20
26.5877778414
 11
-15.3429618286
 21
26.6107429073
  0
LWPOLYLINE
  5
50A
100
AcDbEntity
  8
RACCORDO
100
AcDbPolyline
 62
253
  6
CONTINUOUS
 90
25
 70
0
 10
3.0592811146
 20
19.1603621653
 10
3.0185488208
 20
19.1756323638
 10
2.9764890968
 20
19.1893237994
 10
2.9331019426
 20
19.2014364722
 10
2.8881785392
 20
19.2120151028
 10
2.8419277056
 20
19.2210149707
 10
2.7949758989
 20
19.2283019135
 10
2.7473297212
 20
19.2338480134
 10
2.6989825705
 20
19.2376811884
 10
2.6505410976
 20
19.2397510296
 10
2.6020009576
 20
19.2400342848
 10
2.5533664954
 20
19.2385542064
 10
2.5052573966
 20
19.2353301425
 10
2.4576847517
 20
19.2303398813
 10
2.4106374701
 20
19.2236056347
 10
2.3647019653
 20
19.2152133867
 10
2.3198928671
 20
19.2051424621
 10
2.2761955458
 20
19.193413536
 10
2.2341525257
 20
19.1801746178
 10
2.1937736756
 20
19.1653994296
 10
2.1550491267
 20
19.1491142493
 10
2.118491797
 20
19.1315459188
 10
2.0842726593
 20
19.1127700523
 10
2.0522207408
 20
19.0927110356
 10
2.0223360416
 20
19.0713688689
  0
LWPOLYLINE
  5
50B
100
AcDbEntity
  8
RACCORDO
100
AcDbPolyline
 62
253
  6
CONTINUOUS
 90
25
 70
0
 10
-15.3716398819
 20
26.5626355529
 10
-15.4123721757
 20
26.5779057514
 10
-15.4544318997
 20
26.591597187
 10
-15.4978190539
 20
26.6037098598
 10
-15.5427424573
 20
26.6142884904
 10
-15.5889932909
 20
26.6232883583
 10
-15.6359450976
 20
26.6305753011
 10
-15.6835912753
 20
26.636121401
 10
-15.731938426
 20
26.6399545759
 10
-15.7803798989
 20
26.6420244172
 10
-15.8289200389
 20
26.6423076724
 10
-15.8775545011
 20
26.640827594
 10
-15.9256635999
 20
26.6376035301
 10
-15.9732362448
 20
26.6326132689
 10
-16.0202835264
 20
26.6258790223
 10
-16.0662190312
 20
26.6174867742
 10
-16.1110281294
 20
26.6074158497
 10
-16.1547254507
 20
26.5956869236
 10
-16.1967684708
 20
26.5824480054
 10
-16.2371473209
 20
26.5676728172
 10
-16.2758718698
 20
26.5513876369
 10
-16.3124291995
 20
26.5338193064
 10
-16.3466483372
 20
26.5150434399
 10
-16.3787002557
 20
26.4949844232
 10
-16.4085849549
 20
26.4736422565
  0
LWPOLYLINE
  5
50C
100
AcDbEntity
  8
ASSI
100
AcDbPolyline
 62
253
  6
CONTINUOUS
 90
13
 70
0
 10
10.747628264
 20
13.7389100428
 10
10.7460974776
 20
13.7394998347
 10
10.7391862878
 20
13.7415533326
 10
10.7319347767
 20
13.7427410097
 10
10.7243679833
 20
13.7430497182
 10
10.7165103044
 20
13.7424697324
 10
10.7084045196
 20
13.7409978245
 10
10.700079986
 20
13.7386356747
 10
10.6915675757
 20
13.7353884816
 10
10.6829162305
 20
13.7312735047
 10
10.6741647543
 20
13.7263111566
 10
10.6653406592
 20
13.7205192595
 10
10.6564773533
 20
13.7139210576
  0
LWPOLYLINE
  5
50D
100
AcDbEntity
  8
ASSI
100
AcDbPolyline
 62
253
  6
CONTINUOUS
 90
13
 70
0
 10
-7.6832927325
 20
21.1411834304
 10
-7.6848235189
 20
21.1417732223
 10
-7.6917347087
 20
21.1438267202
 10
-7.6989862198
 20
21.1450143973
 10
-7.7065530132
 20
21.1453231058
 10
-7.7144106921
 20
21.14474312
 10
-7.722516477
 20
21.1432712121
 10
-7.7308410105
 20
21.1409090622
 10
-7.7393534208
 20
21.1376618692
 10
-7.748004766
 20
21.1335468923
 10
-7.7567562422
 20
21.1285845442
 10
-7.7655803373
 20
21.1227926471
 10
-7.7744436432
 20
21.1161944451
  0
LINE
  5
50E
100
AcDbEntity
  8
ASSI
100
AcDbLine
 62
7
  6
CONTINUOUS
 10
7.7966715412
 20
14.6213921274
 11
5.5992593737
 21
15.5039223934
  0
LINE
  5
50F
100
AcDbEntity
  8
ASSI
100
AcDbLine
 62
7
  6
CONTINUOUS
 10
3.8505057569
 20
16.2062612706
 11
1.6530935894
 21
17.0887915366
  0
LINE
  5
510
100
AcDbEntity
  8
ASSI
100
AcDbLine
 62
7
  6
CONTINUOUS
 10
-10.6342494553
 20
22.023665515
 11
-12.8316616228
 21
22.906195781
  0
LINE
  5
511
100
AcDbEntity
  8
ASSI
100
AcDbLine
 62
7
  6
CONTINUOUS
 10
-14.5804152396
 20
23.6085346582
 11
-16.7778274071
 21
24.4910649242
  0
LINE
  5
512
100
AcDbEntity
  8
ASSI
100
AcDbLine
 62
253
  6
CONTINUOUS
 10
-19.9194147348
 20
25.9938905483
 11
-22.3553177004
 21
26.9722399074
  0
LINE
  5
513
100
AcDbEntity
  8
ASSI
100
AcDbLine
 62
253
  6
CONTINUOUS
 10
-1.4884937383
 20
18.5916171607
 11
-3.9243967039
 21
19.5699665198
  0
LINE
  5
514
100
AcDbEntity
  8
ASSI
100
AcDbLine
 62
253
  6
CONTINUOUS
 10
13.0924418444
 20
12.7356205157
 11
10.6564773533
 21
13.7139210576
  0
LINE
  5
515
100
AcDbEntity
  8
ASSI
100
AcDbLine
 62
253
  6
CONTINUOUS
 10
-5.3384791521
 20
20.1378939033
 11
-7.7744436432
 21
21.1161944451
  0
LINE
  5
516
100
AcDbEntity
  8
ASSI
100
AcDbLine
 62
7
  6
CONTINUOUS
 10
13.1826321143
 20
12.7609576103
 11
10.747597501
 21
13.7389224076
  0
LINE
  5
517
100
AcDbEntity
  8
ASSI
100
AcDbLine
 62
7
  6
CONTINUOUS
 10
-1.398257181
 20
18.6169714649
 11
-3.8333110578
 21
19.5949440037
  0
LINE
  5
518
100
AcDbEntity
  8
ASSI
100
AcDbLine
 62
7
  6
CONTINUOUS
 10
-5.2482888822
 20
20.1632309979
 11
-7.6833234955
 21
21.1411957952
  0
LINE
  5
519
100
AcDbEntity
  8
ASSI
100
AcDbLine
 62
7
  6
CONTINUOUS
 10
-19.8291781775
 20
26.0192448524
 11
-22.2642320543
 21
26.9972173913
  0
LINE
  5
51A
100
AcDbEntity
  8
SMUSSO
100
AcDbLine
 62
7
  6
CONTINUOUS
 10
9.6113045504
 20
16.1197303247
 11
5.3811392301
 21
17.8186600841
  0
LINE
  5
51B
100
AcDbEntity
  8
SMUSSO
100
AcDbLine
 62
7
  6
CONTINUOUS
 10
-8.8196164461
 20
23.5220037122
 11
-13.0497817664
 21
25.2209334717
  0
LINE
  5
51C
100
AcDbEntity
  8
SMUSSO
100
AcDbLine
 62
7
  6
CONTINUOUS
 10
9.700747191
 20
16.1881662996
 11
5.5772635153
 21
17.8442503055
  0
LINE
  5
51D
100
AcDbEntity
  8
SMUSSO
100
AcDbLine
 62
7
  6
CONTINUOUS
 10
-8.7301738055
 20
23.5904396872
 11
-12.8536574812
 21
25.2465236931
  0
LINE
  5
51E
100
AcDbEntity
  8
RACCORDO
100
AcDbLine
 62
253
  6
CONTINUOUS
 10
12.9916181785
 20
15.1713116812
 11
11.0062038484
 21
15.9686988363
  0
LINE
  5
51F
100
AcDbEntity
  8
RACCORDO
100
AcDbLine
 62
253
  6
CONTINUOUS
 10
5.3222479004
 20
18.2515036868
 11
4.5082434484
 21
18.578426226
  0
LINE
  5
520
100
AcDbEntity
  8
RACCORDO
100
AcDbLine
 62
253
  6
CONTINUOUS
 10
3.4640514764
 20
18.9977972627
 11
3.0592811146
 21
19.1603621653
  0
LINE
  5
521
100
AcDbEntity
  8
RACCORDO
100
AcDbLine
 62
253
  6
CONTINUOUS
 10
-5.439302818
 20
22.5735850688
 11
-7.4247171481
 21
23.3709722238
  0
LINE
  5
522
100
AcDbEntity
  8
RACCORDO
100
AcDbLine
 62
253
  6
CONTINUOUS
 10
-13.1086730961
 20
25.6537770743
 11
-13.9226775481
 21
25.9806996136
  0
LINE
  5
523
100
AcDbEntity
  8
RACCORDO
100
AcDbLine
 62
253
  6
CONTINUOUS
 10
-14.9668695201
 20
26.4000706503
 11
-15.3716398819
 21
26.5626355529
  0
LINE
  5
524
100
AcDbEntity
  8
RACCORDO
100
AcDbLine
 62
7
  6
CONTINUOUS
 10
13.0822876783
 20
15.1964940215
 11
11.0062038484
 21
16.0302960918
  0
LINE
  5
525
100
AcDbEntity
  8
RACCORDO
100
AcDbLine
 62
7
  6
CONTINUOUS
 10
5.4129174002
 20
18.2766860271
 11
4.5082434484
 21
18.6400234816
  0
LINE
  5
526
100
AcDbEntity
  8
RACCORDO
100
AcDbLine
 62
7
  6
CONTINUOUS
 10
3.5168448699
 20
19.0381915013
 11
3.1499506152
 21
19.1855445054
  0
LINE
  5
527
100
AcDbEntity
  8
RACCORDO
100
AcDbLine
 62
7
  6
CONTINUOUS
 10
-5.3486333182
 20
22.5987674091
 11
-7.4247171481
 21
23.4325694794
  0
LINE
  5
528
100
AcDbEntity
  8
RACCORDO
100
AcDbLine
 62
7
  6
CONTINUOUS
 10
-13.0180035963
 20
25.6789594147
 11
-13.9226775481
 21
26.0422968691
  0
LINE
  5
529
100
AcDbEntity
  8
RACCORDO
100
AcDbLine
 62
7
  6
CONTINUOUS
 10
-14.9140761266
 20
26.4404648888
 11
-15.2809703813
 21
26.587817893
  0
LINE
  5
52A
100
AcDbEntity
  8
ASSI
100
AcDbLine
 62
7
  6
CONTINUOUS
 10
-22.2642282038
 20
26.9972158448
 11
-22.2640216981
 21
26.9971324279
  0
LINE
  5
52B
100
AcDbEntity
  8
ASSI
100
AcDbLine
 62
7
  6
CONTINUOUS
 10
-3.8333072073
 20
19.5949424572
 11
-3.8331007016
 21
19.5948590403
  0
LWPOLYLINE
  5
52C
100
AcDbEntity
  8
RACCORDO
100
AcDbPolyline
 62
253
  6
CONTINUOUS
 90
16
 70
0
 10
-5.2477069658
 20
21.99118204
 10
-5.2260611728
 20
21.9816633597
 10
-5.2046797224
 20
21.9699840693
 10
-5.1837967758
 20
21.9562720392
 10
-5.1636410421
 20
21.9406774063
 10
-5.1444332699
 20
21.9233709269
 10
-5.1263838297
 20
21.9045421072
 10
-5.1096904099
 20
21.8843971257
 10
-5.0945358655
 20
21.8631565955
 10
-5.0810862077
 20
21.8410531487
 10
-5.0694887591
 20
21.8183288473
 10
-5.0598705683
 20
21.7952325739
 10
-5.0523370168
 20
21.7720173283
 10
-5.0469706339
 20
21.7489373878
 10
-5.0438302058
 20
21.7262455208
 10
-5.042950145
 20
21.7041902636
  0
LWPOLYLINE
  5
52D
100
AcDbEntity
  8
RACCORDO
100
AcDbPolyline
 62
253
  6
CONTINUOUS
 90
16
 70
0
 10
13.1832140307
 20
14.5889086524
 10
13.2048598237
 20
14.5793899722
 10
13.2262412741
 20
14.5677106817
 10
13.2471242207
 20
14.5539986517
 10
13.2672799544
 20
14.5384040187
 10
13.2864877266
 20
14.5210975393
 10
13.3045371668
 20
14.5022687196
 10
13.3212305866
 20
14.4821237381
 10
13.336385131
 20
14.4608832079
 10
13.3498347888
 20
14.4387797611
 10
13.3614322374
 20
14.4160554597
 10
13.3710504282
 20
14.3929591863
 10
13.3785839797
 20
14.3697439407
 10
13.3839503626
 20
14.3466640002
 10
13.3870907907
 20
14.3239721332
 10
13.3879708515
 20
14.301916876
  0
LWPOLYLINE
  5
52E
100
AcDbEntity
  8
ASSI
100
AcDbPolyline
 62
253
  6
CONTINUOUS
 90
13
 70
0
 10
-14.1933694987
 20
26.6227162644
 10
-14.1663435969
 20
26.6104753277
 10
-14.139822706
 20
26.5949066261
 10
-14.114260428
 20
26.5762764284
 10
-14.0900939734
 20
26.5549033693
 10
-14.0677366774
 20
26.5311529947
 10
-14.0475709323
 20
26.5054315085
 10
-14.0299416509
 20
26.4781788293
 10
-14.0151503737
 20
26.4498610784
 10
-14.0034501022
 20
26.4209626037
 10
-13.9950409639
 20
26.3919776807
 10
-13.9900667936
 20
26.3634020577
 10
-13.9886126775
 20
26.3357244884
  0
LWPOLYLINE
  5
52F
100
AcDbEntity
  8
ASSI
100
AcDbPolyline
 62
253
  6
CONTINUOUS
 90
13
 70
0
 10
-7.6954090987
 20
24.0129888746
 10
-7.6683843307
 20
24.000748517
 10
-7.6418643178
 20
23.9851805377
 10
-7.6163026318
 20
23.9665511044
 10
-7.5921364875
 20
23.9451787688
 10
-7.5697792201
 20
23.9214289843
 10
-7.5496132259
 20
23.8957078444
 10
-7.5319834583
 20
23.86845517
 10
-7.5171915739
 20
23.8401370905
 10
-7.5054907012
 20
23.8112380363
 10
-7.4970810512
 20
23.782252336
 10
-7.4921065226
 20
23.7536757527
 10
-7.4906522758
 20
23.7259971001
  0
LWPOLYLINE
  5
530
100
AcDbEntity
  8
ASSI
100
AcDbPolyline
 62
253
  6
CONTINUOUS
 90
13
 70
0
 10
4.2375514978
 20
19.2204428768
 10
4.2645773996
 20
19.2082019401
 10
4.2910982905
 20
19.1926332385
 10
4.3166605685
 20
19.1740030408
 10
4.3408270231
 20
19.1526299817
 10
4.3631843191
 20
19.1288796071
 10
4.3833500642
 20
19.1031581209
 10
4.4009793456
 20
19.0759054417
 10
4.4157706228
 20
19.0475876908
 10
4.4274708944
 20
19.0186892161
 10
4.4358800326
 20
18.9897042931
 10
4.4408542029
 20
18.9611286701
 10
4.442308319
 20
18.9334511008
  0
LWPOLYLINE
  5
531
100
AcDbEntity
  8
ASSI
100
AcDbPolyline
 62
253
  6
CONTINUOUS
 90
13
 70
0
 10
10.7355118978
 20
16.610715487
 10
10.7625366658
 20
16.5984751294
 10
10.7890566787
 20
16.5829071501
 10
10.8146183647
 20
16.5642777168
 10
10.838784509
 20
16.5429053813
 10
10.8611417764
 20
16.5191555967
 10
10.8813077706
 20
16.4934344569
 10
10.8989375382
 20
16.4661817824
 10
10.9137294226
 20
16.4378637029
 10
10.9254302953
 20
16.4089646487
 10
10.9338399453
 20
16.3799789484
 10
10.9388144739
 20
16.3514023651
 10
10.9402687207
 20
16.3237237125
  0
LWPOLYLINE
  5
532
100
AcDbEntity
  8
ASSI
100
AcDbPolyline
 62
7
  6
CONTINUOUS
 90
16
 70
0
 10
12.6705123417
 20
12.3876146198
 10
12.6875100434
 20
12.3798996973
 10
12.7043964711
 20
12.3704604598
 10
12.7209822706
 20
12.3593775641
 10
12.737135787
 20
12.3467017219
 10
12.7526050559
 20
12.3325943144
 10
12.7670520411
 20
12.3173756153
 10
12.7802304514
 20
12.3013800752
 10
12.7921486048
 20
12.2846753227
 10
12.8028513136
 20
12.2671985479
 10
12.8122675601
 20
12.2489700035
 10
12.8201620382
 20
12.2303302565
 10
12.826350604
 20
12.2116909326
 10
12.8307728236
 20
12.1933285151
 10
12.8334302529
 20
12.1753746421
 10
12.8343177984
 20
12.1580211988
  0
LWPOLYLINE
  5
533
100
AcDbEntity
  8
RACCORDO
100
AcDbPolyline
 62
7
  6
CONTINUOUS
 90
13
 70
0
 10
-13.0179531715
 20
25.6789391341
 10
-12.995327757
 20
25.6685086635
 10
-12.9730677555
 20
25.6553598116
 10
-12.9522421948
 20
25.63994734
 10
-12.9330510465
 20
25.6223886778
 10
-12.9157157753
 20
25.6028401801
 10
-12.900461221
 20
25.5815043565
 10
-12.887478266
 20
25.5585922721
 10
-12.8769359353
 20
25.5343301396
 10
-12.8689905158
 20
25.5089892116
 10
-12.863768193
 20
25.4828804479
 10
-12.8613501904
 20
25.4563092579
 10
-12.8611757299
 20
25.4468696215
  0
LWPOLYLINE
  5
534
100
AcDbEntity
  8
RACCORDO
100
AcDbPolyline
 62
7
  6
CONTINUOUS
 90
13
 70
0
 10
5.412967825
 20
18.2766657466
 10
5.4355932395
 20
18.2662352759
 10
5.457853241
 20
18.253086424
 10
5.4786788017
 20
18.2376739524
 10
5.49786995
 20
18.2201152902
 10
5.5152052212
 20
18.2005667925
 10
5.5304597755
 20
18.1792309689
 10
5.5434427305
 20
18.1563188845
 10
5.5539850612
 20
18.132056752
 10
5.5619304807
 20
18.106715824
 10
5.5671528035
 20
18.0806070603
 10
5.5695708062
 20
18.0540358704
 10
5.5697452666
 20
18.0445962339
  0
LWPOLYLINE
  5
535
100
AcDbEntity
  8
ASSI
100
AcDbPolyline
 62
7
  6
CONTINUOUS
 90
18
 70
0
 10
10.8725621893
 20
16.1739596364
 10
10.8953125273
 20
16.1388761828
 10
10.9155473464
 20
16.1033971734
 10
10.9332666465
 20
16.0675226081
 10
10.9485615062
 20
16.0309890868
 10
10.9613408469
 20
15.9940600097
 10
10.9713314328
 20
15.9575255772
 10
10.978473044
 20
15.9213950018
 10
10.9828259003
 20
15.8856590709
 10
10.984297425
 20
15.8510803478
 10
10.9828259003
 20
15.8176836196
 10
10.978473044
 20
15.7854440992
 10
10.9713314328
 20
15.7550499879
 10
10.9613408469
 20
15.7265404444
 10
10.9485615062
 20
15.69987631
 10
10.9332666465
 20
15.6756283097
 10
10.9155473464
 20
15.6539866852
 10
10.8939571582
 20
15.6336339082
  0
LWPOLYLINE
  5
536
100
AcDbEntity
  8
ASSI
100
AcDbPolyline
 62
253
  6
CONTINUOUS
 90
5
 70
0
 10
13.2697104634
 20
12.1195105029
 10
13.275565411
 20
12.1078074533
 10
13.2785157124
 20
12.0973878379
 10
13.2785114343
 20
12.0884279701
 10
13.2761879334
 20
12.0820814932
  0
LWPOLYLINE
  5
537
100
AcDbEntity
  8
ASSI
100
AcDbPolyline
 62
7
  6
CONTINUOUS
 90
3
 70
0
 10
13.3050669083
 20
-27.2380361508
 10
13.3102965926
 20
-27.2187066061
 10
13.3142657974
 20
-27.1987668659
  0
LWPOLYLINE
  5
538
100
AcDbEntity
  8
ASSI
100
AcDbPolyline
 62
7
  6
CONTINUOUS
 90
4
 70
0
 10
12.826350604
 20
-27.7000881819
 10
12.830777851
 20
-27.6852799097
 10
12.8334367459
 20
-27.6694611924
 10
12.8343177984
 20
-27.652818058
  0
LINE
  5
539
100
AcDbEntity
  8
RACCORDO
100
AcDbLine
 62
253
  6
CONTINUOUS
 10
6.2448423025
 20
-23.80918599
 11
6.0784757894
 21
-23.9549107619
  0
LWPOLYLINE
  5
53A
100
AcDbEntity
  8
RACCORDO
100
AcDbPolyline
 62
253
  6
CONTINUOUS
 90
17
 70
0
 10
6.7324767537
 20
-23.8918676229
 10
6.7158227824
 20
-23.9056886027
 10
6.6841667929
 20
-23.9285357455
 10
6.6503740723
 20
-23.9487644531
 10
6.6145835358
 20
-23.966291876
 10
6.5769345909
 20
-23.9810567477
 10
6.5375413215
 20
-23.993020756
 10
6.4965149253
 20
-24.0021506111
 10
6.4539913914
 20
-24.0084148655
 10
6.4101134076
 20
-24.0117911387
 10
6.3650048107
 20
-24.0122645054
 10
6.3187566173
 20
-24.009823819
 10
6.2715778711
 20
-24.0044691476
 10
6.2237806523
 20
-23.9962401835
 10
6.1755813805
 20
-23.9851991927
 10
6.1270923078
 20
-23.9713999715
 10
6.0784756038
 20
-23.9549109241
  0
LINE
  5
53B
100
AcDbEntity
  8
RACCORDO
100
AcDbLine
 62
7
  6
CONTINUOUS
 10
6.3039556198
 20
-23.7676561419
 11
6.8086978216
 21
-23.3814586362
  0
LWPOLYLINE
  5
53C
100
AcDbEntity
  8
RACCORDO
100
AcDbPolyline
 62
253
  6
CONTINUOUS
 90
10
 70
0
 10
6.802877001
 20
-23.0829207699
 10
6.5220115417
 20
-23.2976605777
 10
6.4874732137
 20
-23.319317514
 10
6.4496347518
 20
-23.3388939455
 10
6.4088644565
 20
-23.3561993234
 10
6.3655591652
 20
-23.3710652044
 10
6.3201403894
 20
-23.3833468902
 10
6.2730502122
 20
-23.3929248375
 10
6.2247469858
 20
-23.3997058209
 10
6.1757008695
 20
-23.40362384
  0
LWPOLYLINE
  5
53D
100
AcDbEntity
  8
ASSI
100
AcDbPolyline
 62
7
  6
CONTINUOUS
 90
4
 70
0
 10
-3.9585171872
 20
19.6052214797
 10
-3.9804076222
 20
19.5992324142
 10
-4.0014397993
 20
19.591086903
 10
-4.021516651
 20
19.5809037538
  0
LWPOLYLINE
  5
53E
100
AcDbEntity
  8
ASSI
100
AcDbPolyline
 62
7
  6
CONTINUOUS
 90
4
 70
0
 10
-7.805967708
 20
21.1520190701
 10
-7.8276215918
 20
21.146388076
 10
-7.8484479592
 20
21.1386568349
 10
-7.8683485993
 20
21.1289395938
  0
LWPOLYLINE
  5
53F
100
AcDbEntity
  8
RACCORDO
100
AcDbPolyline
 62
253
  6
CONTINUOUS
 90
16
 70
0
 10
-25.5511897158
 20
14.6977854245
 10
-25.5994902957
 20
14.6861061113
 10
-25.6472388563
 20
14.670349508
 10
-25.6939409402
 20
14.650678781
 10
-25.7391129266
 20
14.6272976296
 10
-25.7822870396
 20
14.6004481758
 10
-25.8230161924
 20
14.5704084576
 10
-25.8608786164
 20
14.5374895495
 10
-25.8954822296
 20
14.5020323413
 10
-25.9264686963
 20
14.4644040082
 10
-25.9535171379
 20
14.4249942082
 10
-25.9763474559
 20
14.384211047
 10
-25.9947232323
 20
14.3424768524
 10
-26.0084541777
 20
14.3002238004
 10
-26.0173981021
 20
14.25788944
 10
-26.0214623873
 20
14.2159121622
  0
LWPOLYLINE
  5
540
100
AcDbEntity
  8
ASSI
100
AcDbPolyline
 62
7
  6
CONTINUOUS
 90
6
 70
0
 10
-8.3000054344
 20
20.7877973074
 10
-8.2845350581
 20
20.7894786558
 10
-8.2683846209
 20
20.7891805019
 10
-8.2518038489
 20
20.7869429547
 10
-8.2349188867
 20
20.7828188408
 10
-8.217914692
 20
20.7768778351
  0
LWPOLYLINE
  5
541
100
AcDbEntity
  8
ASSI
100
AcDbPolyline
 62
253
  6
CONTINUOUS
 90
5
 70
0
 10
-5.1609201657
 20
19.9142580356
 10
-5.1635013849
 20
19.9140488437
 10
-5.1661785833
 20
19.9133453299
 10
-5.1689245589
 20
19.912149581
 10
-5.1717665137
 20
19.9104595103
  0
LWPOLYLINE
  5
542
100
AcDbEntity
  8
RACCORDO
100
AcDbPolyline
 62
7
  6
CONTINUOUS
 90
15
 70
0
 10
-15.4105104105
 20
26.6316294086
 10
-15.4796798831
 20
26.6490518946
 10
-15.5502010497
 20
26.6630682027
 10
-15.6218925857
 20
26.6737130825
 10
-15.6944316554
 20
26.6809877015
 10
-15.767473715
 20
26.6848896162
 10
-15.8407670782
 20
26.6854031003
 10
-15.9139788428
 20
26.6825215336
 10
-15.9867643119
 20
26.6762285707
 10
-16.0588678304
 20
26.6664931068
 10
-16.1300734333
 20
26.6532696473
 10
-16.1999016935
 20
26.6365340368
 10
-16.2677970846
 20
26.6163259077
 10
-16.3336000847
 20
26.5925744665
 10
-16.3968110842
 20
26.5652936779
  0
LINE
  5
543
100
AcDbEntity
  8
RACCORDO
100
AcDbLine
 62
7
  6
CONTINUOUS
 10
-15.3429618286
 20
26.6107429073
 11
-15.4105104105
 21
26.6316294086
  0
LWPOLYLINE
  5
544
100
AcDbEntity
  8
ASSI
100
AcDbPolyline
 62
253
  6
CONTINUOUS
 90
8
 70
0
 10
-7.9176444443
 20
24.1022435996
 10
-7.9440603337
 20
24.1114660755
 10
-7.9700672181
 20
24.1169936618
 10
-7.9952202847
 20
24.1187318165
 10
-8.0190893243
 20
24.1166508109
 10
-8.0412660891
 20
24.1107862378
 10
-8.0613712754
 20
24.1012384026
 10
-8.0720020735
 20
24.0940319435
  0
LWPOLYLINE
  5
545
100
AcDbEntity
  8
ASSI
100
AcDbPolyline
 62
253
  6
CONTINUOUS
 90
8
 70
0
 10
-14.4156048442
 20
26.7119709893
 10
-14.4420207336
 20
26.7211934652
 10
-14.4680276178
 20
26.7267210516
 10
-14.4931806842
 20
26.7284592065
 10
-14.5170497235
 20
26.7263782011
 10
-14.5392264879
 20
26.7205136283
 10
-14.5593316738
 20
26.7109657935
 10
-14.5699878497
 20
26.7037399388
  0
LWPOLYLINE
  5
546
100
AcDbEntity
  8
RACCORDO
100
AcDbPolyline
 62
253
  6
CONTINUOUS
 90
5
 70
0
 10
13.1341790994
 20
15.0969902872
 10
13.1017382729
 20
15.1174828754
 10
13.0672361853
 20
15.1366522781
 10
13.0305294872
 20
15.1545952133
 10
12.9916181785
 20
15.1713116812
  0
LWPOLYLINE
  5
547
100
AcDbEntity
  8
ASSI
100
AcDbPolyline
 62
7
  6
CONTINUOUS
 90
5
 70
0
 10
13.2718539333
 20
-27.3108521462
 10
13.2818360894
 20
-27.2937194283
 10
13.2907326155
 20
-27.275807109
 10
13.2985713445
 20
-27.2570224063
 10
13.3050669083
 20
-27.2380361508
  0
LINE
  5
548
100
AcDbEntity
  8
ASSI
100
AcDbLine
 62
253
  6
CONTINUOUS
 10
11.2756896462
 20
-28.1391973714
 11
11.7927536995
 21
-27.3150245273
  0
LINE
  5
549
100
AcDbEntity
  8
ASSI
100
AcDbLine
 62
253
  6
CONTINUOUS
 10
11.4948506887
 20
-28.3015219904
 11
12.0969093554
 21
-27.3418722131
  0
LWPOLYLINE
  5
54A
100
AcDbEntity
  8
RACCORDO
100
AcDbPolyline
 62
7
  6
CONTINUOUS
 90
12
 70
0
 10
27.7605968417
 20
-7.6129449545
 10
27.8318890833
 20
-7.548071948
 10
27.939712757
 20
-7.4400718709
 10
28.0427731316
 20
-7.3242074987
 10
28.1406245138
 20
-7.2007470468
 10
28.232801139
 20
-7.0700383106
 10
28.3189666421
 20
-6.9322981042
 10
28.3987523078
 20
-6.7877478775
 10
28.4716889704
 20
-6.6367997327
 10
28.5373979923
 20
-6.4797560637
 10
28.595517239
 20
-6.316809511
 10
28.6233103634
 20
-6.2274202813
  0
LINE
  5
54B
100
AcDbEntity
  8
RACCORDO
100
AcDbLine
 62
253
  6
CONTINUOUS
 10
13.8031719048
 20
-19.1324812159
 11
28.4932723506
 21
-6.2650143454
  0
LINE
  5
54C
100
AcDbEntity
  8
RACCORDO
100
AcDbLine
 62
7
  6
CONTINUOUS
 10
27.7605786081
 20
-7.6129572451
 11
27.7600851091
 21
-7.6133894409
  0
LINE
  5
54D
100
AcDbEntity
  8
RACCORDO
100
AcDbLine
 62
7
  6
CONTINUOUS
 10
13.8031719048
 20
-19.8386373319
 11
27.7614835513
 21
-7.6121645898
  0
LWPOLYLINE
  5
54E
100
AcDbEntity
  8
ASSI
100
AcDbPolyline
 62
7
  6
CONTINUOUS
 90
7
 70
0
 10
-13.5402110355
 20
22.4655229068
 10
-13.5221498393
 20
22.4700397036
 10
-13.5028118689
 20
22.4721413891
 10
-13.4826238224
 20
22.4717686968
 10
-13.4618978573
 20
22.4689717628
 10
-13.4407916546
 20
22.4638166203
 10
-13.4195364113
 20
22.4563903633
  0
LWPOLYLINE
  5
54F
100
AcDbEntity
  8
ASSI
100
AcDbPolyline
 62
7
  6
CONTINUOUS
 90
6
 70
0
 10
-7.820773072
 20
24.1758951411
 10
-7.859044502
 20
24.1737341024
 10
-7.8966864149
 20
24.1686042756
 10
-7.9337913267
 20
24.160415243
 10
-7.9692474775
 20
24.149383735
 10
-8.0029297917
 20
24.135565359
  0
LWPOLYLINE
  5
550
100
AcDbEntity
  8
ASSI
100
AcDbPolyline
 62
253
  6
CONTINUOUS
 90
11
 70
0
 10
-21.6816268134
 20
23.817555436
 10
-21.6700333097
 20
23.8178473488
 10
-21.6477906481
 20
23.8209731325
 10
-21.6260723578
 20
23.8274249355
 10
-21.6052459334
 20
23.8370935871
 10
-21.5856637781
 20
23.8498154843
 10
-21.5676572407
 20
23.8653753604
 10
-21.5515310095
 20
23.8835099271
 10
-21.5375579557
 20
23.9039123302
 10
-21.5259745169
 20
23.9262373413
 10
-21.5169766962
 20
23.9501071995
  0
LINE
  5
551
100
AcDbEntity
  8
ASSI
100
AcDbLine
 62
7
  6
CONTINUOUS
 10
-21.1544558914
 20
23.8096336535
 11
-21.681785118
 21
23.8175577302
  0
LINE
  5
552
100
AcDbEntity
  8
ASSI
100
AcDbLine
 62
253
  6
CONTINUOUS
 10
-20.9149180295
 20
23.9410601776
 11
-21.5169766962
 21
23.9501071995
  0
LINE
  5
553
100
AcDbEntity
  8
SMUSSO
100
AcDbLine
 62
7
  6
CONTINUOUS
 10
-13.0497817664
 20
25.2209334717
 11
-12.9063876573
 21
25.2155222427
  0
LWPOLYLINE
  5
554
100
AcDbEntity
  8
ASSI
100
AcDbPolyline
 62
253
  6
CONTINUOUS
 90
22
 70
0
 10
-21.5169766962
 20
23.9501071995
 10
-21.5180215466
 20
23.9501520602
 10
-21.5190584177
 20
23.9502950147
 10
-21.5200873096
 20
23.950536063
 10
-21.5211145311
 20
23.9508701061
 10
-21.5221337734
 20
23.9513022431
 10
-21.5231261095
 20
23.9518477706
 10
-21.5240914419
 20
23.9525091303
 10
-21.5250298682
 20
23.9532838805
 10
-21.5259227536
 20
23.9541799937
 10
-21.5267694642
 20
23.9552003472
 10
-21.527570634
 20
23.9563420637
 10
-21.5283095308
 20
23.9576044834
 10
-21.5289849924
 20
23.958990596
 10
-21.5295981811
 20
23.9604974119
 10
-21.5301358519
 20
23.9621153025
 10
-21.5305964024
 20
23.9638470225
 10
-21.530981435
 20
23.9656898173
 10
-21.5312825115
 20
23.9676257945
 10
-21.5314968191
 20
23.9696489902
 10
-21.5316271705
 20
23.9717653685
 10
-21.5316735659
 20
23.9739749292
  0
LWPOLYLINE
  5
555
100
AcDbEntity
  8
RACCORDO
100
AcDbPolyline
 62
253
  6
CONTINUOUS
 90
13
 70
0
 10
28.4932723506
 20
-6.2650143454
 10
28.4603751501
 20
-6.4127342927
 10
28.4203738414
 20
-6.5565212262
 10
28.3733410516
 20
-6.6959656708
 10
28.3192549186
 20
-6.8308138023
 10
28.2583561965
 20
-6.9605514586
 10
28.1911755001
 20
-7.0844236719
 10
28.1179300702
 20
-7.2020992378
 10
28.0388238715
 20
-7.3133091911
 10
27.954445919
 20
-7.41746204
 10
27.8651182851
 20
-7.5142992149
 10
27.7710993128
 20
-7.6036720437
 10
27.7614835513
 20
-7.6121645898
  0
LWPOLYLINE
  5
556
100
AcDbEntity
  8
RACCORDO
100
AcDbPolyline
 62
7
  6
CONTINUOUS
 90
10
 70
0
 10
31.5973159289
 20
3.8462085335
 10
31.6069949872
 20
3.8796849998
 10
31.6323300614
 20
3.9750477625
 10
31.6546393711
 20
4.0717739194
 10
31.6737684149
 20
4.1699951036
 10
31.6894470974
 20
4.2694452837
 10
31.7013765822
 20
4.3696316516
 10
31.7093095261
 20
4.4704499637
 10
31.7129671165
 20
4.5720076605
 10
31.7131797321
 20
4.6030189448
  0
LINE
  5
557
100
AcDbEntity
  8
RACCORDO
100
AcDbLine
 62
253
  6
CONTINUOUS
 10
31.4672888732
 20
3.8086546301
 11
28.4932723506
 21
-6.2650143454
  0
LINE
  5
558
100
AcDbEntity
  8
RACCORDO
100
AcDbLine
 62
7
  6
CONTINUOUS
 10
31.5973283551
 20
3.8462493039
 11
28.6233118193
 21
-6.2274197159
  0
LWPOLYLINE
  5
559
100
AcDbEntity
  8
RACCORDO
100
AcDbPolyline
 62
253
  6
CONTINUOUS
 90
7
 70
0
 10
28.6233115491
 20
-6.2274206313
 10
28.6198736835
 20
-6.2346209387
 10
28.6083194773
 20
-6.2453025477
 10
28.5897177353
 20
-6.2537369989
 10
28.5642073191
 20
-6.2598613296
 10
28.5319786624
 20
-6.2636298223
 10
28.4932723506
 20
-6.2650143454
  0
LWPOLYLINE
  5
55A
100
AcDbEntity
  8
RACCORDO
100
AcDbPolyline
 62
253
  6
CONTINUOUS
 90
7
 70
0
 10
31.597316252
 20
3.8462084381
 10
31.5938902044
 20
3.8390480579
 10
31.5823359896
 20
3.8283664505
 10
31.5637342441
 20
3.819931998
 10
31.5382238285
 20
3.8138076629
 10
31.5059951767
 20
3.8100391631
 10
31.4672888732
 20
3.8086546301
  0
LWPOLYLINE
  5
55B
100
AcDbEntity
  8
ASSI
100
AcDbPolyline
 62
7
  6
CONTINUOUS
 90
8
 70
0
 10
13.1689058022
 20
-26.0574017257
 10
13.1882261141
 20
-26.034955823
 10
13.2050443925
 20
-26.0095658667
 10
13.2190601615
 20
-25.9815100274
 10
13.2299851203
 20
-25.9513352655
 10
13.2377464002
 20
-25.9194469703
 10
13.2423801184
 20
-25.8860140429
 10
13.2438938205
 20
-25.8513229711
  0
LWPOLYLINE
  5
55C
100
AcDbEntity
  8
ASSI
100
AcDbPolyline
 62
253
  6
CONTINUOUS
 90
6
 70
0
 10
13.2836924155
 20
-26.8974051778
 10
13.2967417431
 20
-26.8845922138
 10
13.3067983453
 20
-26.8709202763
 10
13.3136939426
 20
-26.8566181302
 10
13.3173131465
 20
-26.8419250863
 10
13.3178849001
 20
-26.8332676963
  0
LWPOLYLINE
  5
55D
100
AcDbEntity
  8
ASSI
100
AcDbPolyline
 62
253
  6
CONTINUOUS
 90
6
 70
0
 10
13.2836924155
 20
-27.2189494298
 10
13.2967417903
 20
-27.2061364281
 10
13.3067984084
 20
-27.1924644543
 10
13.3136939954
 20
-27.1781622772
 10
13.3173131697
 20
-27.1634692107
 10
13.317884901
 20
-27.1548014552
  0
LWPOLYLINE
  5
55E
100
AcDbEntity
  8
ASSI
100
AcDbPolyline
 62
253
  6
CONTINUOUS
 90
16
 70
0
 10
13.2562165487
 20
-27.283265228
 10
13.2591524659
 20
-27.2804545226
 10
13.2619927604
 20
-27.2773130068
 10
13.264737432
 20
-27.2738406806
 10
13.2674136715
 20
-27.2699937139
 10
13.2699942883
 20
-27.2658159369
 10
13.2723977101
 20
-27.2614388401
 10
13.2746182593
 20
-27.2568559453
 10
13.2766616135
 20
-27.2520737308
 10
13.2784632336
 20
-27.247243122
 10
13.2800154968
 20
-27.2423624126
 10
13.2813260259
 20
-27.237433309
 10
13.2823531494
 20
-27.2326118545
 10
13.2830829769
 20
-27.2279500637
 10
13.283529399
 20
-27.2233959221
 10
13.2836924155
 20
-27.2189494298
  0
LINE
  5
55F
100
AcDbEntity
  8
ASSI
100
AcDbLine
 62
7
  6
CONTINUOUS
 10
13.1560811212
 20
-26.0695346438
 11
13.1689058022
 21
-26.0574017257
  0
LWPOLYLINE
  5
560
100
AcDbEntity
  8
ASSI
100
AcDbPolyline
 62
7
  6
CONTINUOUS
 90
5
 70
0
 10
13.2222044283
 20
-27.3695493395
 10
13.2349427177
 20
-27.3575682557
 10
13.2482794706
 20
-27.3430469872
 10
13.2605966261
 20
-27.3274380856
 10
13.2718539333
 20
-27.3108521462
  0
LWPOLYLINE
  5
561
100
AcDbEntity
  8
ASSI
100
AcDbPolyline
 62
7
  6
CONTINUOUS
 90
5
 70
0
 10
12.7994766091
 20
-27.7398289161
 10
12.8028513136
 20
-27.7367201076
 10
12.8122655883
 20
-27.7260543251
 10
12.8201589589
 20
-27.7137553341
 10
12.826350604
 20
-27.7000881819
  0
LINE
  5
562
100
AcDbEntity
  8
ASSI
100
AcDbLine
 62
253
  6
CONTINUOUS
 10
13.2438938205
 20
-25.8513855441
 11
13.8031719048
 21
-25.361498341
  0
LINE
  5
563
100
AcDbEntity
  8
ASSI
100
AcDbLine
 62
7
  6
CONTINUOUS
 10
13.1562217727
 20
-26.0694111483
 11
13.7161914017
 21
-25.578918202
  0
LINE
  5
564
100
AcDbEntity
  8
ASSI
100
AcDbLine
 62
253
  6
CONTINUOUS
 10
12.8343177984
 20
-27.652818058
 11
13.2562165487
 21
-27.283265228
  0
LWPOLYLINE
  5
565
100
AcDbEntity
  8
ASSI
100
AcDbPolyline
 62
253
  6
CONTINUOUS
 90
16
 70
0
 10
8.6050206987
 20
-28.5925370578
 10
8.573117534
 20
-28.6165712171
 10
8.5374665079
 20
-28.6386340415
 10
8.4984287225
 20
-28.6585020611
 10
8.4563995839
 20
-28.6759740365
 10
8.4118047971
 20
-28.6908729976
 10
8.3650960538
 20
-28.7030480356
 10
8.3167464579
 20
-28.712375832
 10
8.2672457329
 20
-28.7187619074
 10
8.2170952619
 20
-28.7221415784
 10
8.1668030092
 20
-28.722480613
 10
8.1168783753
 20
-28.7197755773
 10
8.0678270368
 20
-28.7140538702
 10
8.0201458253
 20
-28.7053734459
 10
7.9743176944
 20
-28.6938222266
 10
7.9308068282
 20
-28.6795172124
  0
LWPOLYLINE
  5
566
100
AcDbEntity
  8
ASSI
100
AcDbPolyline
 62
7
  6
CONTINUOUS
 90
3
 70
0
 10
13.1370866054
 20
-26.0844538275
 10
13.1471858067
 20
-26.0769291393
 10
13.1560811212
 20
-26.0695346438
  0
LINE
  5
567
100
AcDbEntity
  8
ASSI
100
AcDbLine
 62
253
  6
CONTINUOUS
 10
8.999971351
 20
-28.8347840989
 11
13.2438938205
 21
-25.8513229711
  0
LINE
  5
568
100
AcDbEntity
  8
ASSI
100
AcDbLine
 62
7
  6
CONTINUOUS
 10
8.8855960259
 20
-29.0732353084
 11
13.1370348581
 21
-26.0844902067
  0
LWPOLYLINE
  5
569
100
AcDbEntity
  8
ASSI
100
AcDbPolyline
 62
7
  6
CONTINUOUS
 90
6
 70
0
 10
-14.3209336835
 20
26.7855774872
 10
-14.3592475049
 20
26.7832429237
 10
-14.3968590166
 20
26.7779303765
 10
-14.4338817322
 20
26.7695733855
 10
-14.4691815331
 20
26.7583981575
 10
-14.5026313683
 20
26.7444787729
  0
LWPOLYLINE
  5
56A
100
AcDbEntity
  8
RACCORDO
100
AcDbPolyline
 62
7
  6
CONTINUOUS
 90
25
 70
0
 10
31.7131740295
 20
20.6116833136
 10
31.7122255186
 20
20.6767849037
 10
31.7038289633
 20
20.8176800075
 10
31.6868896035
 20
20.9590164072
 10
31.6615414307
 20
21.100554923
 10
31.6279596451
 20
21.2418968593
 10
31.5863798115
 20
21.3824157792
 10
31.5369660192
 20
21.5218572828
 10
31.4798860709
 20
21.659903353
 10
31.4154852845
 20
21.7958004024
 10
31.3439568924
 20
21.9292740604
 10
31.2654831761
 20
22.0600018435
 10
31.1805644239
 20
22.1871678689
 10
31.0894378738
 20
22.3104820528
 10
30.9923070289
 20
22.4296250344
 10
30.8897992615
 20
22.5438235356
 10
30.7821721138
 20
22.6527971019
 10
30.6696514668
 20
22.7562472028
 10
30.5529299348
 20
22.8535150339
 10
30.4322848625
 20
22.9443283165
 10
30.3079330284
 20
23.0284394469
 10
30.1804905943
 20
23.1053551308
 10
30.0503133218
 20
23.1747711322
 10
29.9175673759
 20
23.2365072309
 10
29.8572699559
 20
23.2616276092
  0
LWPOLYLINE
  5
56B
100
AcDbEntity
  8
RACCORDO
100
AcDbPolyline
 62
7
  6
CONTINUOUS
 90
17
 70
0
 10
32.3080267822
 20
17.2641883881
 10
32.3077879444
 20
17.2907237815
 10
32.3028803993
 20
17.3889847956
 10
32.2917168708
 20
17.4880365277
 10
32.2743704843
 20
17.5876323509
 10
32.2509588614
 20
17.6874230608
 10
32.2216644845
 20
17.7869099147
 10
32.1866006908
 20
17.8858524092
 10
32.1459125009
 20
17.983953907
 10
32.0998994904
 20
18.0806013097
 10
32.048738112
 20
18.1754910693
 10
31.9926097879
 20
18.2683545901
 10
31.9319004199
 20
18.3586212612
 10
31.866858137
 20
18.4459664528
 10
31.797678852
 20
18.5301724749
 10
31.7247089366
 20
18.6108373297
 10
31.7131803561
 20
18.6224144279
  0
LINE
  5
56C
100
AcDbEntity
  8
RACCORDO
100
AcDbLine
 62
253
  6
CONTINUOUS
 10
31.5422180605
 20
15.7237015919
 11
31.543149467
 21
15.3078917647
  0
LINE
  5
56D
100
AcDbEntity
  8
RACCORDO
100
AcDbLine
 62
7
  6
CONTINUOUS
 10
31.7141134359
 20
15.6286745911
 11
31.7132540799
 21
15.9904460363
  0
LINE
  5
56E
100
AcDbEntity
  8
RACCORDO
100
AcDbLine
 62
253
  6
CONTINUOUS
 10
31.5422179287
 20
20.2909611807
 11
31.5422180605
 21
15.7237015919
  0
LINE
  5
56F
100
AcDbEntity
  8
RACCORDO
100
AcDbLine
 62
7
  6
CONTINUOUS
 10
31.7131803561
 20
20.6117010535
 11
31.7132540799
 21
15.9904460363
  0
LINE
  5
570
100
AcDbEntity
  8
RACCORDO
100
AcDbLine
 62
253
  6
CONTINUOUS
 10
32.2225525939
 20
17.1038591799
 11
32.2225525939
 21
13.0651177208
  0
LINE
  5
571
100
AcDbEntity
  8
RACCORDO
100
AcDbLine
 62
253
  6
CONTINUOUS
 10
31.543149467
 20
15.3078917647
 11
31.5428960337
 21
11.087331498
  0
LWPOLYLINE
  5
572
100
AcDbEntity
  8
RACCORDO
100
AcDbPolyline
 62
253
  6
CONTINUOUS
 90
3
 70
0
 10
31.5428960337
 20
11.087331498
 10
31.5424089637
 20
10.8762564089
 10
31.5422179287
 20
4.2819474765
  0
LWPOLYLINE
  5
573
100
AcDbEntity
  8
RACCORDO
100
AcDbPolyline
 62
7
  6
CONTINUOUS
 90
3
 70
0
 10
31.7131803561
 20
4.6026873495
 10
31.7134612098
 20
11.2610849302
 10
31.7141114727
 20
15.6286296339
  0
LWPOLYLINE
  5
574
100
AcDbEntity
  8
RACCORDO
100
AcDbPolyline
 62
253
  6
CONTINUOUS
 90
9
 70
0
 10
31.7141114727
 20
15.6286296339
 10
31.7140708187
 20
15.6234577213
 10
31.7098362136
 20
15.5756485623
 10
31.6986657127
 20
15.528208454
 10
31.6806371259
 20
15.4814678505
 10
31.6558760347
 20
15.4357523333
 10
31.6245549168
 20
15.3913803435
 10
31.5868919449
 20
15.3486609637
 10
31.543149467
 20
15.3078917647
  0
LWPOLYLINE
  5
575
100
AcDbEntity
  8
RACCORDO
100
AcDbPolyline
 62
253
  6
CONTINUOUS
 90
9
 70
0
 10
31.7141114727
 20
11.5408679245
 10
31.7140708261
 20
11.5356963693
 10
31.7098362665
 20
11.4878858314
 10
31.6986657772
 20
11.4404442804
 10
31.6806371773
 20
11.3937021734
 10
31.6558760586
 20
11.3479851188
 10
31.6245549092
 20
11.3036115663
 10
31.5868919114
 20
11.2608905885
 10
31.5431494225
 20
11.2201197545
  0
LWPOLYLINE
  5
576
100
AcDbEntity
  8
RACCORDO
100
AcDbPolyline
 62
253
  6
CONTINUOUS
 90
19
 70
0
 10
31.5422179287
 20
4.2819474765
 10
31.5419738226
 20
4.2577602173
 10
31.5412592277
 20
4.2332678408
 10
31.540074144
 20
4.2084703467
 10
31.5384156143
 20
4.1833504686
 10
31.5362865958
 20
4.1579254729
 10
31.53369596
 20
4.1322471599
 10
31.5306441502
 20
4.1063178334
 10
31.527130723
 20
4.0801351895
 10
31.5231632196
 20
4.0537441161
 10
31.5187419635
 20
4.0271446005
 10
31.5138666313
 20
4.0003366554
 10
31.5085437929
 20
3.9733652075
 10
31.5027731719
 20
3.946228128
 10
31.4965550449
 20
3.9189275458
 10
31.4898968115
 20
3.8915147735
 10
31.4828009384
 20
3.8640069156
 10
31.4752649589
 20
3.8363868678
 10
31.4672888732
 20
3.8086546301
  0
LWPOLYLINE
  5
577
100
AcDbEntity
  8
RACCORDO
100
AcDbPolyline
 62
253
  6
CONTINUOUS
 90
10
 70
0
 10
32.2225525939
 20
13.0651177208
 10
32.2198749715
 20
12.9754949005
 10
32.2112305013
 20
12.8886442639
 10
32.1966543217
 20
12.8049345543
 10
32.1762057708
 20
12.7247217395
 10
32.149972774
 20
12.6483455756
 10
32.118069651
 20
12.5761293908
 10
32.0806292906
 20
12.5083785456
 10
32.0378103583
 20
12.4453849996
 10
31.989800941
 20
12.3874241744
  0
LWPOLYLINE
  5
578
100
AcDbEntity
  8
RACCORDO
100
AcDbPolyline
 62
253
  6
CONTINUOUS
 90
8
 70
0
 10
31.7131803557
 20
20.6116833119
 10
31.7103217001
 20
20.5683622759
 10
31.7000986765
 20
20.5192284547
 10
31.6825304904
 20
20.4707828629
 10
31.6577478934
 20
20.4233860581
 10
31.6259353305
 20
20.377390792
 10
31.5873295675
 20
20.3331393855
 10
31.5422179287
 20
20.2909611807
  0
LWPOLYLINE
  5
579
100
AcDbEntity
  8
RACCORDO
100
AcDbPolyline
 62
253
  6
CONTINUOUS
 90
8
 70
0
 10
31.7131803536
 20
16.0443915656
 10
31.710320558
 20
16.0010857525
 10
31.7000964527
 20
15.9519534996
 10
31.6825275451
 20
15.9035100482
 10
31.6577447139
 20
15.8561159055
 10
31.6259325218
 20
15.8101237684
 10
31.5873278348
 20
15.7658759
 10
31.5422180624
 20
15.7237015706
  0
LWPOLYLINE
  5
57A
100
AcDbEntity
  8
RACCORDO
100
AcDbPolyline
 62
253
  6
CONTINUOUS
 90
8
 70
0
 10
31.7131803561
 20
11.123465804
 10
31.7103217264
 20
11.0801273031
 10
31.7000987305
 20
11.0309935616
 10
31.6825305694
 20
10.9825480484
 10
31.6577479945
 20
10.9351513199
 10
31.6259354507
 20
10.8891561274
 10
31.5873297035
 20
10.8449047926
 10
31.5422180772
 20
10.8027266578
  0
LWPOLYLINE
  5
57B
100
AcDbEntity
  8
RACCORDO
100
AcDbPolyline
 62
253
  6
CONTINUOUS
 90
7
 70
0
 10
32.3080338026
 20
17.2641883896
 10
32.3066044796
 20
17.2425597275
 10
32.3000282548
 20
17.2131149142
 10
32.2881806504
 20
17.1842177541
 10
32.2711886054
 20
17.1561778603
 10
32.2492341778
 20
17.1292956609
 10
32.2225525939
 20
17.1038591799
  0
LWPOLYLINE
  5
57C
100
AcDbEntity
  8
RACCORDO
100
AcDbPolyline
 62
253
  6
CONTINUOUS
 90
8
 70
0
 10
31.7131803561
 20
4.6026873465
 10
31.7103216857
 20
4.5593484632
 10
31.7000986486
 20
4.5102146525
 10
31.6825304534
 20
4.4617690751
 10
31.6577478533
 20
4.4143722878
 10
31.6259352948
 20
4.3683770421
 10
31.5873295448
 20
4.3241256579
 10
31.5422179287
 20
4.2819474765
  0
LWPOLYLINE
  5
57D
100
AcDbEntity
  8
RACCORDO
100
AcDbPolyline
 62
253
  6
CONTINUOUS
 90
7
 70
0
 10
32.3080338028
 20
13.2254477621
 10
32.3066046513
 20
13.203819565
 10
32.3000285979
 20
13.1743745389
 10
32.2881810746
 20
13.1454771308
 10
32.2711890087
 20
13.1174369691
 10
32.2492344428
 20
13.0905544872
 10
32.2225525939
 20
13.0651177222
  0
LINE
  5
57E
100
AcDbEntity
  8
ASSI
100
AcDbLine
 62
7
  6
CONTINUOUS
 10
12.7995152038
 20
-27.7397951062
 11
13.2221890384
 21
-27.3695633584
  0
LWPOLYLINE
  5
57F
100
AcDbEntity
  8
ASSI
100
AcDbPolyline
 62
253
  6
CONTINUOUS
 90
7
 70
0
 10
11.4687645095
 20
-28.7582532707
 10
11.4743623848
 20
-28.7536018751
 10
11.4863397604
 20
-28.7405104763
 10
11.4959378711
 20
-28.7250058291
 10
11.502992555
 20
-28.7073531197
 10
11.5073831517
 20
-28.6878542743
 10
11.5090345669
 20
-28.6668427946
  0
LINE
  5
580
100
AcDbEntity
  8
ASSI
100
AcDbLine
 62
7
  6
CONTINUOUS
 10
12.7948555234
 20
-27.7436104565
 11
12.7994766091
 21
-27.7398289161
  0
LINE
  5
581
100
AcDbEntity
  8
ASSI
100
AcDbLine
 62
253
  6
CONTINUOUS
 10
12.8343177984
 20
-27.652818058
 11
11.5090345669
 21
-28.6668427946
  0
LINE
  5
582
100
AcDbEntity
  8
ASSI
100
AcDbLine
 62
7
  6
CONTINUOUS
 10
12.7948624058
 20
-27.743605203
 11
11.4687645085
 21
-28.7582532714
  0
LWPOLYLINE
  5
583
100
AcDbEntity
  8
ASSI
100
AcDbPolyline
 62
253
  6
CONTINUOUS
 90
28
 70
0
 10
11.5090345669
 20
-28.6668427946
 10
11.5076600882
 20
-28.6678632463
 10
11.5062568341
 20
-28.6687957531
 10
11.5048248046
 20
-28.6696403151
 10
11.5033558139
 20
-28.6704088644
 10
11.5018580479
 20
-28.6710894689
 10
11.5003560639
 20
-28.6716463316
 10
11.4988489611
 20
-28.6720764199
 10
11.4973376404
 20
-28.6723827665
 10
11.4958493616
 20
-28.6725386725
 10
11.4943841999
 20
-28.6725399118
 10
11.4929420801
 20
-28.6723907105
 10
11.4915500374
 20
-28.6720770489
 10
11.4902095714
 20
-28.6715946281
 10
11.4889191824
 20
-28.6709477469
 10
11.4877014071
 20
-28.6701352827
 10
11.4865580531
 20
-28.6691538023
 10
11.4854873128
 20
-28.6680067389
 10
11.4845062997
 20
-28.6667032686
 10
11.4836166635
 20
-28.6652403628
 10
11.4828167545
 20
-28.6636210501
 10
11.4821187374
 20
-28.6618635923
 10
11.4815244775
 20
-28.6599652875
 10
11.4810321095
 20
-28.6579288377
 10
11.4806482027
 20
-28.6557806104
 10
11.4803749469
 20
-28.6535293951
 10
11.4802101523
 20
-28.6511664025
 10
11.480153819
 20
-28.6486916325
  0
LWPOLYLINE
  5
584
100
AcDbEntity
  8
ASSI
100
AcDbPolyline
 62
7
  6
CONTINUOUS
 90
4
 70
0
 10
-22.3894381837
 20
27.0074948673
 10
-22.4113286187
 20
27.0015058018
 10
-22.4323607958
 20
26.9933602906
 10
-22.4524376475
 20
26.9831771414
  0
LWPOLYLINE
  5
585
100
AcDbEntity
  8
RACCORDO
100
AcDbPolyline
 62
253
  6
CONTINUOUS
 90
9
 70
0
 10
29.8572712994
 20
23.2616309552
 10
29.8186223326
 20
23.2731946937
 10
29.7771882732
 20
23.2778862576
 10
29.7335768969
 20
23.2755503192
 10
29.6881127818
 20
23.2662042586
 10
29.6411342994
 20
23.2499176309
 10
29.5929910901
 20
23.2268116476
 10
29.5440414602
 20
23.1970582724
 10
29.4946497197
 20
23.1608789434
  0
LINE
  5
586
100
AcDbEntity
  8
RACCORDO
100
AcDbLine
 62
253
  6
CONTINUOUS
 10
-0.9437898524
 20
35.3856424941
 11
29.4945535005
 21
23.1609175872
  0
LWPOLYLINE
  5
587
100
AcDbEntity
  8
RACCORDO
100
AcDbPolyline
 62
253
  6
CONTINUOUS
 90
9
 70
0
 10
-0.5812544406
 20
35.4864291158
 10
-0.619913905
 20
35.4979969809
 10
-0.6613479485
 20
35.5026884671
 10
-0.7049592904
 20
35.5003524655
 10
-0.7504233522
 20
35.4910063621
 10
-0.7974017666
 20
35.4747197153
 10
-0.8455448956
 20
35.4516137389
 10
-0.8944944329
 20
35.4218603996
 10
-0.9438860704
 20
35.3856811375
  0
LWPOLYLINE
  5
588
100
AcDbEntity
  8
RACCORDO
100
AcDbPolyline
 62
7
  6
CONTINUOUS
 90
18
 70
0
 10
-0.5812557836
 20
35.4864257701
 10
-0.6476872113
 20
35.5120156137
 10
-0.7816827214
 20
35.557120471
 10
-0.915192649
 20
35.5935085069
 10
-1.0477931471
 20
35.6212355341
 10
-1.1792227878
 20
35.6404349679
 10
-1.3092785076
 20
35.6512205445
 10
-1.4375915407
 20
35.6536772387
 10
-1.5638180187
 20
35.6479306063
 10
-1.6876900681
 20
35.6340998969
 10
-1.8087616678
 20
35.6123230455
 10
-1.9266537665
 20
35.58278336
 10
-2.0411003496
 20
35.5456599665
 10
-2.1516602079
 20
35.501192336
 10
-2.2579182257
 20
35.4496569175
 10
-2.3595996303
 20
35.3913219745
 10
-2.4563511972
 20
35.3265211896
 10
-2.4953219952
 20
35.2975487848
  0
LINE
  5
589
100
AcDbEntity
  8
RACCORDO
100
AcDbLine
 62
7
  6
CONTINUOUS
 10
29.8573277401
 20
23.2616082963
 11
29.8572712994
 21
23.2616309552
  0
LINE
  5
58A
100
AcDbEntity
  8
RACCORDO
100
AcDbLine
 62
7
  6
CONTINUOUS
 10
-0.5812080712
 20
35.4864104989
 11
29.857327729
 21
23.2616083008
  0
LINE
  5
58B
100
AcDbEntity
  8
RACCORDO
100
AcDbLine
 62
7
  6
CONTINUOUS
 10
-0.5812080712
 20
35.4864104989
 11
-0.5812544406
 21
35.4864291158
  0
LWPOLYLINE
  5
58C
100
AcDbEntity
  8
RACCORDO
100
AcDbPolyline
 62
253
  6
CONTINUOUS
 90
28
 70
0
 10
29.4945529787
 20
23.1609171546
 10
29.614234187
 20
23.1100592808
 10
29.7334603048
 20
23.0524258062
 10
29.8518254812
 20
22.9882130361
 10
29.9689169018
 20
22.9176432008
 10
30.0843476477
 20
22.8409535593
 10
30.1977566651
 20
22.7583911891
 10
30.3087696565
 20
22.6702244688
 10
30.4169972759
 20
22.5767568055
 10
30.5220677412
 20
22.4783137952
 10
30.62362127
 20
22.3752329053
 10
30.7213175686
 20
22.2678577541
 10
30.8148324021
 20
22.1565474805
 10
30.9038520164
 20
22.0416750542
 10
30.9880712567
 20
21.9236312754
 10
31.0672018724
 20
21.8028201525
 10
31.140975382
 20
21.6796548863
 10
31.2091447791
 20
21.5545484797
 10
31.2714813014
 20
21.4279169187
 10
31.3277774379
 20
21.3001844804
 10
31.3778400264
 20
21.1717886919
 10
31.4214933323
 20
21.0431711907
 10
31.4585906962
 20
20.9147770138
 10
31.4890118222
 20
20.787033132
 10
31.5126531454
 20
20.660353501
 10
31.5294340354
 20
20.5351621731
 10
31.5392996944
 20
20.4118915275
 10
31.5422179287
 20
20.2909611807
  0
LWPOLYLINE
  5
58D
100
AcDbEntity
  8
RACCORDO
100
AcDbPolyline
 62
253
  6
CONTINUOUS
 90
15
 70
0
 10
31.7131803561
 20
18.3881367104
 10
31.7502792182
 20
18.3428385952
 10
31.816788353
 20
18.2538661004
 10
31.8790528052
 20
18.1623470244
 10
31.9368052906
 20
18.0686725135
 10
31.9897985408
 20
17.9732412173
 10
32.0378081937
 20
17.876460643
 10
32.080627341
 20
17.7787473285
 10
32.1180678606
 20
17.6805225422
 10
32.1499709874
 20
17.5822140214
 10
32.1762040594
 20
17.484238179
 10
32.1966530166
 20
17.3870003793
 10
32.2112297943
 20
17.2909138287
 10
32.219874764
 20
17.1963976101
 10
32.2225525939
 20
17.1038591799
  0
ELLIPSE
  5
58E
100
AcDbEntity
  8
DRAFT
100
AcDbEllipse
 62
7
  6
CONTINUOUS
 10
-6.7587327498
 20
4.5773119423
 30
0.0
 11
0.9999733557
 21
0.012473506
 31
0.0
 40
0.5852290915
 41
-1.9705627604
 42
-0.6181651616
  0
ELLIPSE
  5
58F
100
AcDbEntity
  8
DRAFT
100
AcDbEllipse
 62
7
  6
CONTINUOUS
 10
4.7153238705
 20
20.8950699978
 30
0.0
 11
30.999174026
 21
0.3866786852
 31
0.0
 40
0.5852290915
 41
-2.4073602164
 42
-1.9705627604
  0
ELLIPSE
  5
590
100
AcDbEntity
  8
DRAFT
100
AcDbEllipse
 62
7
  6
CONTINUOUS
 10
-17.4077093256
 20
8.8541810106
 30
0.0
 11
0.9999733557
 21
0.012473506
 31
0.0
 40
0.5852290915
 41
2.523427492
 42
3.8758250908
  0
ELLIPSE
  5
591
100
AcDbEntity
  8
ASSI
100
AcDbEllipse
 62
7
  6
CONTINUOUS
 10
13.3935334927
 20
-25.1968535493
 30
0.0
 11
-0.3169109156
 21
0.3869345179
 31
0.0
 40
0.670809718
 41
-3.1194280822
 42
-2.4553554967
  0
ELLIPSE
  5
592
100
AcDbEntity
  8
ASSI
100
AcDbEllipse
 62
7
  6
CONTINUOUS
 10
13.3935334927
 20
10.6532845065
 30
0.0
 11
-0.3168729153
 21
0.3867726039
 31
0.0
 40
0.6712104788
 41
-2.4552091068
 42
-0.8847173665
  0
ELLIPSE
  5
593
100
AcDbEntity
  8
ASSI
100
AcDbEllipse
 62
7
  6
CONTINUOUS
 10
-12.8315992376
 20
22.7013515197
 30
0.0
 11
-0.1584554578
 21
0.1934672589
 31
0.0
 40
0.670809718
 41
-0.8842545834
 42
-0.0217373988
  0
ELLIPSE
  5
594
100
AcDbEntity
  8
ASSI
100
AcDbEllipse
 62
7
  6
CONTINUOUS
 10
5.5993217589
 20
15.2990781321
 30
0.0
 11
-0.1584554578
 21
0.1934672589
 31
0.0
 40
0.670809718
 41
-0.8842545834
 42
-0.0217373988
  0
ELLIPSE
  5
595
100
AcDbEntity
  8
ASSI
100
AcDbEllipse
 62
7
  6
CONTINUOUS
 10
3.8504433717
 20
16.0014671199
 30
0.0
 11
-0.1584364577
 21
0.1933863019
 31
0.0
 40
0.6712104788
 41
-2.4552091068
 42
-0.8847173665
  0
ELLIPSE
  5
596
100
AcDbEntity
  8
ASSI
100
AcDbEllipse
 62
7
  6
CONTINUOUS
 10
-14.5804776248
 20
23.4037405075
 30
0.0
 11
-0.1584364577
 21
0.1933863019
 31
0.0
 40
0.6712104788
 41
-2.4552091068
 42
-0.8847173665
  0
ELLIPSE
  5
597
100
AcDbEntity
  8
ASSI
100
AcDbEllipse
 62
7
  6
CONTINUOUS
 10
10.6205335539
 20
15.3416333424
 30
0.0
 11
0.3856615536
 21
-0.0046218062
 31
0.0
 40
0.5618086952
 41
-0.5866792765
 42
0.0070689325
  0
ELLIPSE
  5
598
100
AcDbEntity
  8
ASSI
100
AcDbEllipse
 62
7
  6
CONTINUOUS
 10
-14.3083478426
 20
25.3536341197
 30
0.0
 11
0.3856615536
 21
-0.0046218062
 31
0.0
 40
0.5618086952
 41
-0.5866792765
 42
0.0070689317
  0
ELLIPSE
  5
599
100
AcDbEntity
  8
ASSI
100
AcDbEllipse
 62
7
  6
CONTINUOUS
 10
-7.8103874426
 20
22.74390673
 30
0.0
 11
0.3856615536
 21
-0.0046218062
 31
0.0
 40
0.5618086952
 41
-0.5866792765
 42
0.0070689325
  0
ELLIPSE
  5
59A
100
AcDbEntity
  8
ASSI
100
AcDbEllipse
 62
7
  6
CONTINUOUS
 10
4.1225731539
 20
17.9513607321
 30
0.0
 11
0.3856615536
 21
-0.0046218062
 31
0.0
 40
0.5618086952
 41
-0.5866792765
 42
0.0070689317
  0
ELLIPSE
  5
59B
100
AcDbEntity
  8
ASSI
100
AcDbEllipse
 62
7
  6
CONTINUOUS
 10
20.7425357719
 20
24.2890065782
 30
0.0
 11
14.7248791155
 21
12.5261813432
 31
0.0
 40
0.014760238
 41
8.5759574879
 42
8.9154453514
  0
ELLIPSE
  5
59C
100
AcDbEntity
  8
ASSI
100
AcDbEllipse
 62
7
  6
CONTINUOUS
 10
2.3116147754
 20
31.6912799658
 30
0.0
 11
14.7248791155
 21
12.5261813432
 31
0.0
 40
0.014760238
 41
8.5759574879
 42
8.9154453514
  0
ELLIPSE
  5
59D
100
AcDbEntity
  8
ASSI
100
AcDbEllipse
 62
7
  6
CONTINUOUS
 10
12.8458584221
 20
10.2014228855
 30
0.0
 11
33.6774307551
 21
29.0482172724
 31
0.0
 40
0.006983244
 41
1.5651156649
 42
1.587013386
  0
ELLIPSE
  5
59E
100
AcDbEntity
  8
ASSI
100
AcDbEllipse
 62
7
  6
CONTINUOUS
 10
-8.3918265028
 20
17.4544461211
 30
0.0
 11
0.2499293568
 21
0.009771784
 31
0.0
 40
0.6081570881
 41
3.1181633627
 42
4.077750384
  0
ELLIPSE
  5
59F
100
AcDbEntity
  8
ASSI
100
AcDbEllipse
 62
7
  6
CONTINUOUS
 10
-8.1675908076
 20
17.3643880107
 30
0.0
 11
0.2499293568
 21
0.009771784
 31
0.0
 40
0.6081570881
 41
-2.2054349231
 42
-0.6520918889
  0
ELLIPSE
  5
5A0
100
AcDbEntity
  8
ASSI
100
AcDbEllipse
 62
7
  6
CONTINUOUS
 10
-6.5362658897
 20
17.4523486241
 30
0.0
 11
0.2499293568
 21
0.009771784
 31
0.0
 40
0.6081570881
 41
-2.2054349231
 42
-0.6520918889
  0
ELLIPSE
  5
5A1
100
AcDbEntity
  8
ASSI
100
AcDbEllipse
 62
7
  6
CONTINUOUS
 10
-23.4569049363
 20
24.248058732
 30
0.0
 11
0.2499293568
 21
0.009771784
 31
0.0
 40
0.6081570881
 41
3.1176137453
 42
4.077750384
  0
ELLIPSE
  5
5A2
100
AcDbEntity
  8
ASSI
100
AcDbEllipse
 62
7
  6
CONTINUOUS
 10
-22.9727328911
 20
23.3104668455
 30
0.0
 11
0.2499293568
 21
0.009771784
 31
0.0
 40
0.6081570881
 41
3.1181633627
 42
4.077750384
  0
ELLIPSE
  5
5A3
100
AcDbEntity
  8
ASSI
100
AcDbEllipse
 62
7
  6
CONTINUOUS
 10
-22.7484971959
 20
23.2204087351
 30
0.0
 11
0.2499293568
 21
0.009771784
 31
0.0
 40
0.6081570881
 41
-2.2054349231
 42
-0.6520918889
  0
ELLIPSE
  5
5A4
100
AcDbEntity
  8
ASSI
100
AcDbEllipse
 62
7
  6
CONTINUOUS
 10
-21.1171722781
 20
23.3083693485
 30
0.0
 11
0.2499293568
 21
0.009771784
 31
0.0
 40
0.6081570881
 41
-2.2054349231
 42
-0.6520918889
  0
ELLIPSE
  5
5A5
100
AcDbEntity
  8
ASSI
100
AcDbEllipse
 62
7
  6
CONTINUOUS
 10
-8.875998548
 20
18.3920380076
 30
0.0
 11
0.2499293568
 21
0.009771784
 31
0.0
 40
0.6081570881
 41
3.1181633757
 42
4.077750384
  0
ELLIPSE
  5
5A6
100
AcDbEntity
  8
ASSI
100
AcDbEllipse
 62
7
  6
CONTINUOUS
 10
-4.3175761994
 20
15.8181353475
 30
0.0
 11
0.2499293568
 21
0.009771784
 31
0.0
 40
0.6081570881
 41
-2.2054349231
 42
-0.6520918889
  0
ELLIPSE
  5
5A7
100
AcDbEntity
  8
ASSI
100
AcDbEllipse
 62
7
  6
CONTINUOUS
 10
10.2633301889
 20
9.9621146231
 30
0.0
 11
0.2499293568
 21
0.009771784
 31
0.0
 40
0.6081570881
 41
-2.2054349231
 42
-0.6520918889
  0
ELLIPSE
  5
5A8
100
AcDbEntity
  8
ASSI
100
AcDbEllipse
 62
7
  6
CONTINUOUS
 10
2.3116147754
 20
31.6912799658
 30
0.0
 11
14.7248791155
 21
12.5261813432
 31
0.0
 40
0.014760238
 41
-2.6573712457
 42
-2.4030044782
  0
ELLIPSE
  5
5A9
100
AcDbEntity
  8
ASSI
100
AcDbEllipse
 62
7
  6
CONTINUOUS
 10
11.8946551068
 20
-27.0679995142
 30
0.0
 11
0.1997382246
 21
0.198664618
 31
0.0
 40
0.7567950566
 41
-2.8269058184
 42
-2.6358710258
  0
ELLIPSE
  5
5AA
100
AcDbEntity
  8
ASSI
100
AcDbEllipse
 62
7
  6
CONTINUOUS
 10
-2.6862512816
 20
15.9060959609
 30
0.0
 11
0.2499293568
 21
0.009771784
 31
0.0
 40
0.6081570881
 41
-2.2054349231
 42
-0.6520918889
  0
ELLIPSE
  5
5AB
100
AcDbEntity
  8
ASSI
100
AcDbEllipse
 62
7
  6
CONTINUOUS
 10
-5.0259839398
 20
16.8457853445
 30
0.0
 11
0.2499293568
 21
0.009771784
 31
0.0
 40
0.6081570881
 41
3.1181633627
 42
4.077750384
  0
ELLIPSE
  5
5AC
100
AcDbEntity
  8
ASSI
100
AcDbEllipse
 62
7
  6
CONTINUOUS
 10
9.5549224485
 20
10.98976462
 30
0.0
 11
0.2499293568
 21
0.009771784
 31
0.0
 40
0.6081570881
 41
3.1181633757
 42
4.077750384
  0
ELLIPSE
  5
5AD
100
AcDbEntity
  8
ASSI
100
AcDbEllipse
 62
7
  6
CONTINUOUS
 10
11.8946551068
 20
10.0500752365
 30
0.0
 11
0.2499293568
 21
0.009771784
 31
0.0
 40
0.6081570881
 41
-2.2054349231
 42
-0.9508848237
  0
ELLIPSE
  5
5AE
100
AcDbEntity
  8
ASSI
100
AcDbEllipse
 62
7
  6
CONTINUOUS
 10
20.7425357719
 20
24.2890065782
 30
0.0
 11
14.7248791155
 21
12.5261813432
 31
0.0
 40
0.014760238
 41
-2.6573712457
 42
-2.4030044782
  0
ELLIPSE
  5
5AF
100
AcDbEntity
  8
ASSI
100
AcDbEllipse
 62
7
  6
CONTINUOUS
 10
10.0390944937
 20
10.0521727336
 30
0.0
 11
0.2499293568
 21
0.009771784
 31
0.0
 40
0.6081570881
 41
3.1181633627
 42
4.077750384
  0
ELLIPSE
  5
5B0
100
AcDbEntity
  8
ASSI
100
AcDbEllipse
 62
7
  6
CONTINUOUS
 10
-4.5418118946
 20
15.908193458
 30
0.0
 11
0.2499293568
 21
0.009771784
 31
0.0
 40
0.6081570881
 41
3.1181633627
 42
4.077750384
  0
ELLIPSE
  5
5B1
100
AcDbEntity
  8
SMUSSO
100
AcDbEllipse
 62
7
  6
CONTINUOUS
 10
5.3197453281
 20
17.8954963372
 30
0.0
 11
0.2497382529
 21
-0.0723585469
 31
0.0
 40
0.1580601555
 41
-0.5651012529
 42
0.0473467744
  0
ELLIPSE
  5
5B2
100
AcDbEntity
  8
SMUSSO
100
AcDbEllipse
 62
7
  6
CONTINUOUS
 10
-13.1111756684
 20
25.2977697248
 30
0.0
 11
0.2497382529
 21
-0.0723585469
 31
0.0
 40
0.1580601555
 41
-0.5651012529
 42
0.0473467744
  0
ELLIPSE
  5
5B3
100
AcDbEntity
  8
ASSI
100
AcDbEllipse
 62
7
  6
CONTINUOUS
 10
-17.8598417797
 20
22.7432894633
 30
0.0
 11
0.2499293568
 21
0.009771784
 31
0.0
 40
0.6081570881
 41
3.1181633757
 42
4.077750384
  0
ELLIPSE
  5
5B4
100
AcDbEntity
  8
ASSI
100
AcDbEllipse
 62
7
  6
CONTINUOUS
 10
-15.2867244062
 20
21.7098675165
 30
0.0
 11
0.2499293568
 21
0.009771784
 31
0.0
 40
0.6081570881
 41
-2.2054349231
 42
-0.6520918889
  0
ELLIPSE
  5
5B5
100
AcDbEntity
  8
ASSI
100
AcDbEllipse
 62
7
  6
CONTINUOUS
 10
-13.5592935472
 20
21.0160923395
 30
0.0
 11
0.2499293568
 21
0.009771784
 31
0.0
 40
0.6081570881
 41
3.1181633757
 42
4.077750384
  0
ELLIPSE
  5
5B6
100
AcDbEntity
  8
ASSI
100
AcDbEllipse
 62
7
  6
CONTINUOUS
 10
-10.9861761736
 20
19.9826703927
 30
0.0
 11
0.2499293568
 21
0.009771784
 31
0.0
 40
0.6081570881
 41
-2.2054349231
 42
-0.6520918889
  0
ELLIPSE
  5
5B7
100
AcDbEntity
  8
ASSI
100
AcDbEllipse
 62
7
  6
CONTINUOUS
 10
0.5710792168
 20
15.3410160757
 30
0.0
 11
0.2499293568
 21
0.009771784
 31
0.0
 40
0.6081570881
 41
3.1181633757
 42
4.077750384
  0
ELLIPSE
  5
5B8
100
AcDbEntity
  8
ASSI
100
AcDbEllipse
 62
7
  6
CONTINUOUS
 10
3.1441965903
 20
14.3075941289
 30
0.0
 11
0.2499293568
 21
0.009771784
 31
0.0
 40
0.6081570881
 41
-2.2054349231
 42
-0.6520918889
  0
ELLIPSE
  5
5B9
100
AcDbEntity
  8
ASSI
100
AcDbEllipse
 62
7
  6
CONTINUOUS
 10
4.8716274493
 20
13.6138189519
 30
0.0
 11
0.2499293568
 21
0.009771784
 31
0.0
 40
0.6081570881
 41
3.1181633757
 42
4.077750384
  0
ELLIPSE
  5
5BA
100
AcDbEntity
  8
ASSI
100
AcDbEllipse
 62
7
  6
CONTINUOUS
 10
7.4447448229
 20
12.5803970051
 30
0.0
 11
0.2499293568
 21
0.009771784
 31
0.0
 40
0.6081570881
 41
-2.2054349231
 42
-0.6520918889
  0
ENDSEC
  0
SECTION
  2
OBJECTS
  0
DICTIONARY
  5
C
100
AcDbDictionary
280
0
281
1
  3
ACAD_GROUP
350
D
  3
ACAD_MLINESTYLE
350
17
  3
ACAD_LAYOUT
350
1A
  3
ACAD_PLOTSETTINGS
350
19
  3
ACAD_PLOTSTYLENAME
350
E
  0
DICTIONARY
  5
D
102
{ACAD_REACTORS
330
C
102
}
100
AcDbDictionary
280
0
281
1
  0
ACDBDICTIONARYWDFLT
  5
E
102
{ACAD_REACTORS
330
C
102
}
100
AcDbDictionary
281
1
  3
Normal
350
F
100
AcDbDictionaryWithDefault
340
F
  0
DICTIONARY
  5
17
102
{ACAD_REACTORS
330
C
102
}
100
AcDbDictionary
280
0
281
1
  3
Standard
350
18
  0
DICTIONARY
  5
19
102
{ACAD_REACTORS
330
C
102
}
100
AcDbDictionary
281
1
  0
DICTIONARY
  5
1A
102
{ACAD_REACTORS
330
C
102
}
100
AcDbDictionary
281
1
  3
Model
350
5BB
  3
Layout1
350
5BC
  0
ACDBPLACEHOLDER
  5
F
102
{ACAD_REACTORS
330
E
102
}
  0
MLINESTYLE
  5
18
102
{ACAD_REACTORS
330
17
102
}
100
AcDbMlineStyle
  2
STANDARD
 70
0
  3

 62
256
 51
90.0
 52
90.0
 71
2
 49
0.5
 62
256
  6
BYLAYER
 49
-0.5
 62
256
  6
BYLAYER
  0
LAYOUT
  5
5BB
102
{ACAD_REACTORS
330
1A
102
}
100
AcDbPlotSettings
  1

  2
none_device
  4
ISO_A4_(297.00_x_210.00_MM)
  6

 40
0.0
 41
0.0
 42
0.0
 43
0.0
 44
297.0
 45
210.0
 46
0.0
 47
0.0
 48
0.0
 49
0.0
140
0.0
141
0.0
142
1.0
143
1.0
 70
1024
 72
1
 73
0
 74
0
  7

 75
0
147
1.0
148
0.0
149
0.0
100
AcDbLayout
  1
Model
 70
0
 71
0
 10
0.0
 20
0.0
 11
297.0
 21
210.0
 12
0.0
 22
0.0
 32
0.0
 14
0.0
 24
0.0
 34
0.0
 15
0.0
 25
0.0
 35
0.0
146
0.0
 13
0.0
 23
0.0
 33
0.0
 16
1.0
 26
0.0
 36
0.0
 17
0.0
 27
1.0
 37
0.0
 76
0
330
229
345
0
346
0
  0
LAYOUT
  5
5BC
102
{ACAD_REACTORS
330
1A
102
}
100
AcDbPlotSettings
  1

  2
none_device
  4
ISO_A4_(297.00_x_210.00_MM)
  6

 40
0.0
 41
0.0
 42
0.0
 43
0.0
 44
297.0
 45
210.0
 46
0.0
 47
0.0
 48
0.0
 49
0.0
140
0.0
141
0.0
142
1.0
143
1.0
 70
0
 72
1
 73
0
 74
0
  7

 75
0
147
1.0
148
0.0
149
0.0
100
AcDbLayout
  1
Layout1
 70
0
 71
1
 10
0.0
 20
0.0
 11
297.0
 21
210.0
 12
0.0
 22
0.0
 32
0.0
 14
0.0
 24
0.0
 34
0.0
 15
0.0
 25
0.0
 35
0.0
146
0.0
 13
0.0
 23
0.0
 33
0.0
 16
1.0
 26
0.0
 36
0.0
 17
0.0
 27
1.0
 37
0.0
 76
0
330
22A
345
0
346
0
  0
ENDSEC
  0
EOF
