  0
SECTION
  2
HEADER
  9
$ACADVER
  1
AC1024
  9
$DWGCODEPAGE
  3
ANSI_1252
  9
$EXTMAX
 10
297.0
 20
210.0
 30
0.0
  9
$EXTMIN
 10
0.0
 20
0.0
 30
0.0
  9
$LIMMIN
 10
0.0
 20
0.0
  9
$LIMMAX
 10
297.0
 20
210.0
  9
$VIEWCTR
 10
148.5
 20
105.0
  9
$VIEWSIZE
 40
210.0
  9
$CLAYER
  8
0
  9
$LTSCALE
 40
16.335
  9
$CELTYPE
  6
BYLAYER
  9
$DIMSCALE
 40
1.0
  9
$DIMASZ
 40
3.0
  9
$DIMEXO
 40
0.5
  9
$DIMDLI
 40
11.286
  9
$DIMEXE
 40
1.5
  9
$DIMCEN
 40
2.673
  9
$DIMLFAC
 40
1.0
  9
$DIMBLK
  1
_FILLED
  9
$DIMALT
 70
0
  9
$DIMALTF
 40
0.0393700787
  9
$DIMTXT
 40
3.0
  9
$DIMTOL
 70
1
  9
$DIMLIM
 70
0
  9
$DIMTFAC
 40
1.0
  9
$DIMTP
 40
0.01
  9
$DIMTM
 40
0.01
  9
$DIMGAP
 40
0.625
  9
$DIMDSEP
 70
44
  9
$AUNITS
 70
0
  9
$PDMODE
 70
3
  9
$PDSIZE
 40
3.0
  9
$HANDSEED
  5
723
  9
$TILEMODE
 70
1
  9
$MEASUREMENT
 70
1
  9
$INSUNITS
 70
4
  0
ENDSEC
  0
SECTION
  2
CLASSES
  0
CLASS
  1
ACDBDICTIONARYWDFLT
  2
AcDbDictionaryWithDefault
  3
AutoCAD 2000
 90
0
 91
1
280
0
281
0
  0
CLASS
  1
ACDBPLACEHOLDER
  2
AcDbPlaceHolder
  3
AutoCAD 2000
 90
0
 91
1
280
0
281
0
  0
CLASS
  1
LAYOUT
  2
AcDbLayout
  3
AutoCAD 2000
 90
0
 91
0
280
0
281
0
  0
ENDSEC
  0
SECTION
  2
TABLES
  0
TABLE
  2
VPORT
  5
8
100
AcDbSymbolTable
 70
2
  0
VPORT
  5
1F4
100
AcDbSymbolTableRecord
100
AcDbViewportTableRecord
  2
*ACTIVE
 70
0
 10
0.0
 20
0.0
 11
1.0
 21
1.0
 12
148.5
 22
105.0
 13
0.0
 23
0.0
 14
1.0
 24
1.0
 15
0.0
 25
0.0
 16
0.0
 26
0.0
 36
1.0
 17
0.0
 27
0.0
 37
0.0
 40
210.0
 41
1.4142857143
 42
50.0
 43
0.0
 44
0.0
 50
0.0
 51
0.0
 71
0
 72
100
 73
1
 74
1
 75
0
 76
0
 77
0
 78
0
  0
ENDTAB
  0
TABLE
  2
LTYPE
  5
5
100
AcDbSymbolTable
 70
6
  0
LTYPE
  5
14
100
AcDbSymbolTableRecord
100
AcDbLinetypeTableRecord
  2
BYBLOCK
 70
0
  3

 72
65
 73
0
 40
0.0
  0
LTYPE
  5
15
100
AcDbSymbolTableRecord
100
AcDbLinetypeTableRecord
  2
BYLAYER
 70
0
  3

 72
65
 73
0
 40
0.0
  0
LTYPE
  5
16
100
AcDbSymbolTableRecord
100
AcDbLinetypeTableRecord
  2
CONTINUOUS
 70
64
  3
Solid line
 72
65
 73
0
 40
0.0
  0
LTYPE
  5
1F5
100
AcDbSymbolTableRecord
100
AcDbLinetypeTableRecord
  2
CENTER
 70
64
  3
____ _ ____ _ ____ _ ____ _ ____ _ ____ _ ____
 72
65
 73
4
 40
0.6
 49
0.375
 74
0
 49
-0.075
 74
0
 49
0.075
 74
0
 49
-0.075
 74
0
  0
LTYPE
  5
1F6
100
AcDbSymbolTableRecord
100
AcDbLinetypeTableRecord
  2
HIDDEN
 70
64
  3
- - - - - - - - - - - - - - - - - - - -
 72
65
 73
2
 40
0.2
 49
0.1
 74
0
 49
-0.1
 74
0
  0
LTYPE
  5
1F7
100
AcDbSymbolTableRecord
100
AcDbLinetypeTableRecord
  2
PHANTOM
 70
64
  3
_____ _ _ _____ _ _ _____ _ _ _____
 72
65
 73
6
 40
0.8
 49
0.45
 74
0
 49
-0.05
 74
0
 49
0.1
 74
0
 49
-0.05
 74
0
 49
0.1
 74
0
 49
-0.05
 74
0
  0
LTYPE
  5
1F8
100
AcDbSymbolTableRecord
100
AcDbLinetypeTableRecord
  2
DOT
 70
64
  3
. . . . . . . . . . . . . . . . . . . .
 72
65
 73
2
 40
0.2
 49
0.1
 74
0
 49
-0.1
 74
0
  0
LTYPE
  5
1F9
100
AcDbSymbolTableRecord
100
AcDbLinetypeTableRecord
  2
DASHED
 70
64
  3
- - - - - - - - - - - - - - - - - - - -
 72
65
 73
2
 40
0.2
 49
0.1
 74
0
 49
-0.1
 74
0
  0
ENDTAB
  0
TABLE
  2
LAYER
  5
2
100
AcDbSymbolTable
 70
36
  0
LAYER
  5
10
100
AcDbSymbolTableRecord
100
AcDbLayerTableRecord
  2
0
 70
0
 62
7
  6
CONTINUOUS
370
-3
390
F
  0
LAYER
  5
1FA
100
AcDbSymbolTableRecord
100
AcDbLayerTableRecord
  2
DEFAULT_1
 70
0
 62
7
  6
CENTER
370
-3
390
F
  0
LAYER
  5
1FB
100
AcDbSymbolTableRecord
100
AcDbLayerTableRecord
  2
DEFAULT_2
 70
0
 62
7
  6
HIDDEN
370
-3
390
F
  0
LAYER
  5
1FC
100
AcDbSymbolTableRecord
100
AcDbLayerTableRecord
  2
DEFAULT_3
 70
0
 62
7
  6
PHANTOM
370
-3
390
F
  0
LAYER
  5
1FD
100
AcDbSymbolTableRecord
100
AcDbLayerTableRecord
  2
0402_C_REF_70000
 70
0
 62
7
  6
CONTINUOUS
370
-3
390
F
  0
LAYER
  5
1FE
100
AcDbSymbolTableRecord
100
AcDbLayerTableRecord
  2
0402_C_REF_70000_1
 70
0
 62
7
  6
CONTINUOUS
370
-3
390
F
  0
LAYER
  5
1FF
100
AcDbSymbolTableRecord
100
AcDbLayerTableRecord
  2
0402_R_REF_30000
 70
0
 62
7
  6
CONTINUOUS
370
-3
390
F
  0
LAYER
  5
200
100
AcDbSymbolTableRecord
100
AcDbLayerTableRecord
  2
0402_R_REF_30000_1
 70
0
 62
7
  6
CONTINUOUS
370
-3
390
F
  0
LAYER
  5
201
100
AcDbSymbolTableRecord
100
AcDbLayerTableRecord
  2
0402_R_REF_30000_2
 70
0
 62
7
  6
CONTINUOUS
370
-3
390
F
  0
LAYER
  5
202
100
AcDbSymbolTableRecord
100
AcDbLayerTableRecord
  2
0402_R_REF_30000_3
 70
0
 62
7
  6
CONTINUOUS
370
-3
390
F
  0
LAYER
  5
203
100
AcDbSymbolTableRecord
100
AcDbLayerTableRecord
  2
0402_R_REF_30000_4
 70
0
 62
7
  6
CONTINUOUS
370
-3
390
F
  0
LAYER
  5
204
100
AcDbSymbolTableRecord
100
AcDbLayerTableRecord
  2
0603_C_REF_90000
 70
0
 62
7
  6
CONTINUOUS
370
-3
390
F
  0
LAYER
  5
205
100
AcDbSymbolTableRecord
100
AcDbLayerTableRecord
  2
0603_C_REF_90000_1
 70
0
 62
7
  6
CONTINUOUS
370
-3
390
F
  0
LAYER
  5
206
100
AcDbSymbolTableRecord
100
AcDbLayerTableRecord
  2
0603_C_REF_90000_2
 70
0
 62
7
  6
CONTINUOUS
370
-3
390
F
  0
LAYER
  5
207
100
AcDbSymbolTableRecord
100
AcDbLayerTableRecord
  2
0603_C_REF_90000_3
 70
0
 62
7
  6
CONTINUOUS
370
-3
390
F
  0
LAYER
  5
208
100
AcDbSymbolTableRecord
100
AcDbLayerTableRecord
  2
0603_R_REF_55000
 70
0
 62
7
  6
CONTINUOUS
370
-3
390
F
  0
LAYER
  5
209
100
AcDbSymbolTableRecord
100
AcDbLayerTableRecord
  2
0603_R_REF_55000_1
 70
0
 62
7
  6
CONTINUOUS
370
-3
390
F
  0
LAYER
  5
20A
100
AcDbSymbolTableRecord
100
AcDbLayerTableRecord
  2
0603_R_REF_55000_10
 70
0
 62
7
  6
CONTINUOUS
370
-3
390
F
  0
LAYER
  5
20B
100
AcDbSymbolTableRecord
100
AcDbLayerTableRecord
  2
0603_R_REF_55000_11
 70
0
 62
7
  6
CONTINUOUS
370
-3
390
F
  0
LAYER
  5
20C
100
AcDbSymbolTableRecord
100
AcDbLayerTableRecord
  2
0603_R_REF_55000_12
 70
0
 62
7
  6
CONTINUOUS
370
-3
390
F
  0
LAYER
  5
20D
100
AcDbSymbolTableRecord
100
AcDbLayerTableRecord
  2
0603_R_REF_55000_2
 70
0
 62
7
  6
CONTINUOUS
370
-3
390
F
  0
LAYER
  5
20E
100
AcDbSymbolTableRecord
100
AcDbLayerTableRecord
  2
0603_R_REF_55000_3
 70
0
 62
7
  6
CONTINUOUS
370
-3
390
F
  0
LAYER
  5
20F
100
AcDbSymbolTableRecord
100
AcDbLayerTableRecord
  2
0603_R_REF_55000_4
 70
0
 62
7
  6
CONTINUOUS
370
-3
390
F
  0
LAYER
  5
210
100
AcDbSymbolTableRecord
100
AcDbLayerTableRecord
  2
0603_R_REF_55000_5
 70
0
 62
7
  6
CONTINUOUS
370
-3
390
F
  0
LAYER
  5
211
100
AcDbSymbolTableRecord
100
AcDbLayerTableRecord
  2
0603_R_REF_55000_6
 70
0
 62
7
  6
CONTINUOUS
370
-3
390
F
  0
LAYER
  5
212
100
AcDbSymbolTableRecord
100
AcDbLayerTableRecord
  2
0603_R_REF_55000_7
 70
0
 62
7
  6
CONTINUOUS
370
-3
390
F
  0
LAYER
  5
213
100
AcDbSymbolTableRecord
100
AcDbLayerTableRecord
  2
0603_R_REF_55000_8
 70
0
 62
7
  6
CONTINUOUS
370
-3
390
F
  0
LAYER
  5
214
100
AcDbSymbolTableRecord
100
AcDbLayerTableRecord
  2
0603_R_REF_55000_9
 70
0
 62
7
  6
CONTINUOUS
370
-3
390
F
  0
LAYER
  5
215
100
AcDbSymbolTableRecord
100
AcDbLayerTableRecord
  2
06___PRT_ALL_SURFS
 70
0
 62
7
  6
CONTINUOUS
370
-3
390
F
  0
LAYER
  5
216
100
AcDbSymbolTableRecord
100
AcDbLayerTableRecord
  2
06___PRT_ALL_SURFS_1
 70
0
 62
7
  6
CONTINUOUS
370
-3
390
F
  0
LAYER
  5
217
100
AcDbSymbolTableRecord
100
AcDbLayerTableRecord
  2
06___PRT_ALL_SURFS_10
 70
0
 62
7
  6
CONTINUOUS
370
-3
390
F
  0
LAYER
  5
218
100
AcDbSymbolTableRecord
100
AcDbLayerTableRecord
  2
06___PRT_ALL_SURFS_11
 70
0
 62
7
  6
CONTINUOUS
370
-3
390
F
  0
LAYER
  5
219
100
AcDbSymbolTableRecord
100
AcDbLayerTableRecord
  2
06___PRT_ALL_SURFS_12
 70
0
 62
7
  6
CONTINUOUS
370
-3
390
F
  0
LAYER
  5
21A
100
AcDbSymbolTableRecord
100
AcDbLayerTableRecord
  2
06___PRT_ALL_SURFS_13
 70
0
 62
7
  6
CONTINUOUS
370
-3
390
F
  0
LAYER
  5
21B
100
AcDbSymbolTableRecord
100
AcDbLayerTableRecord
  2
06___PRT_ALL_SURFS_14
 70
0
 62
7
  6
CONTINUOUS
370
-3
390
F
  0
LAYER
  5
21C
100
AcDbSymbolTableRecord
100
AcDbLayerTableRecord
  2
06___PRT_ALL_SURFS_15
 70
0
 62
7
  6
CONTINUOUS
370
-3
390
F
  0
LAYER
  5
21D
100
AcDbSymbolTableRecord
100
AcDbLayerTableRecord
  2
06___PRT_ALL_SURFS_16
 70
0
 62
7
  6
CONTINUOUS
370
-3
390
F
  0
LAYER
  5
21E
100
AcDbSymbolTableRecord
100
AcDbLayerTableRecord
  2
06___PRT_ALL_SURFS_17
 70
0
 62
7
  6
CONTINUOUS
370
-3
390
F
  0
LAYER
  5
21F
100
AcDbSymbolTableRecord
100
AcDbLayerTableRecord
  2
06___PRT_ALL_SURFS_18
 70
0
 62
7
  6
CONTINUOUS
370
-3
390
F
  0
LAYER
  5
220
100
AcDbSymbolTableRecord
100
AcDbLayerTableRecord
  2
06___PRT_ALL_SURFS_19
 70
0
 62
7
  6
CONTINUOUS
370
-3
390
F
  0
LAYER
  5
221
100
AcDbSymbolTableRecord
100
AcDbLayerTableRecord
  2
06___PRT_ALL_SURFS_2
 70
0
 62
7
  6
CONTINUOUS
370
-3
390
F
  0
LAYER
  5
222
100
AcDbSymbolTableRecord
100
AcDbLayerTableRecord
  2
06___PRT_ALL_SURFS_20
 70
0
 62
7
  6
CONTINUOUS
370
-3
390
F
  0
LAYER
  5
223
100
AcDbSymbolTableRecord
100
AcDbLayerTableRecord
  2
06___PRT_ALL_SURFS_21
 70
0
 62
7
  6
CONTINUOUS
370
-3
390
F
  0
LAYER
  5
224
100
AcDbSymbolTableRecord
100
AcDbLayerTableRecord
  2
06___PRT_ALL_SURFS_23
 70
0
 62
7
  6
CONTINUOUS
370
-3
390
F
  0
LAYER
  5
225
100
AcDbSymbolTableRecord
100
AcDbLayerTableRecord
  2
06___PRT_ALL_SURFS_24
 70
0
 62
7
  6
CONTINUOUS
370
-3
390
F
  0
LAYER
  5
226
100
AcDbSymbolTableRecord
100
AcDbLayerTableRecord
  2
06___PRT_ALL_SURFS_25
 70
0
 62
7
  6
CONTINUOUS
370
-3
390
F
  0
LAYER
  5
227
100
AcDbSymbolTableRecord
100
AcDbLayerTableRecord
  2
06___PRT_ALL_SURFS_26
 70
0
 62
7
  6
CONTINUOUS
370
-3
390
F
  0
LAYER
  5
228
100
AcDbSymbolTableRecord
100
AcDbLayerTableRecord
  2
06___PRT_ALL_SURFS_28
 70
0
 62
7
  6
CONTINUOUS
370
-3
390
F
  0
LAYER
  5
229
100
AcDbSymbolTableRecord
100
AcDbLayerTableRecord
  2
06___PRT_ALL_SURFS_29
 70
0
 62
7
  6
CONTINUOUS
370
-3
390
F
  0
LAYER
  5
22A
100
AcDbSymbolTableRecord
100
AcDbLayerTableRecord
  2
06___PRT_ALL_SURFS_3
 70
0
 62
7
  6
CONTINUOUS
370
-3
390
F
  0
LAYER
  5
22B
100
AcDbSymbolTableRecord
100
AcDbLayerTableRecord
  2
06___PRT_ALL_SURFS_30
 70
0
 62
7
  6
CONTINUOUS
370
-3
390
F
  0
LAYER
  5
22C
100
AcDbSymbolTableRecord
100
AcDbLayerTableRecord
  2
06___PRT_ALL_SURFS_31
 70
0
 62
7
  6
CONTINUOUS
370
-3
390
F
  0
LAYER
  5
22D
100
AcDbSymbolTableRecord
100
AcDbLayerTableRecord
  2
06___PRT_ALL_SURFS_33
 70
0
 62
7
  6
CONTINUOUS
370
-3
390
F
  0
LAYER
  5
22E
100
AcDbSymbolTableRecord
100
AcDbLayerTableRecord
  2
06___PRT_ALL_SURFS_4
 70
0
 62
7
  6
CONTINUOUS
370
-3
390
F
  0
LAYER
  5
22F
100
AcDbSymbolTableRecord
100
AcDbLayerTableRecord
  2
06___PRT_ALL_SURFS_5
 70
0
 62
7
  6
CONTINUOUS
370
-3
390
F
  0
LAYER
  5
230
100
AcDbSymbolTableRecord
100
AcDbLayerTableRecord
  2
06___PRT_ALL_SURFS_6
 70
0
 62
7
  6
CONTINUOUS
370
-3
390
F
  0
LAYER
  5
231
100
AcDbSymbolTableRecord
100
AcDbLayerTableRecord
  2
06___PRT_ALL_SURFS_7
 70
0
 62
7
  6
CONTINUOUS
370
-3
390
F
  0
LAYER
  5
232
100
AcDbSymbolTableRecord
100
AcDbLayerTableRecord
  2
06___PRT_ALL_SURFS_8
 70
0
 62
7
  6
CONTINUOUS
370
-3
390
F
  0
LAYER
  5
233
100
AcDbSymbolTableRecord
100
AcDbLayerTableRecord
  2
06___PRT_ALL_SURFS_9
 70
0
 62
7
  6
CONTINUOUS
370
-3
390
F
  0
LAYER
  5
234
100
AcDbSymbolTableRecord
100
AcDbLayerTableRecord
  2
0805_C_REF_145000
 70
0
 62
7
  6
CONTINUOUS
370
-3
390
F
  0
LAYER
  5
235
100
AcDbSymbolTableRecord
100
AcDbLayerTableRecord
  2
0805_C_REF_145000_1
 70
0
 62
7
  6
CONTINUOUS
370
-3
390
F
  0
LAYER
  5
236
100
AcDbSymbolTableRecord
100
AcDbLayerTableRecord
  2
0805_C_REF_145000_2
 70
0
 62
7
  6
CONTINUOUS
370
-3
390
F
  0
LAYER
  5
237
100
AcDbSymbolTableRecord
100
AcDbLayerTableRecord
  2
0805_C_REF_145000_3
 70
0
 62
7
  6
CONTINUOUS
370
-3
390
F
  0
LAYER
  5
238
100
AcDbSymbolTableRecord
100
AcDbLayerTableRecord
  2
0805_L_REF_145000
 70
0
 62
7
  6
CONTINUOUS
370
-3
390
F
  0
LAYER
  5
239
100
AcDbSymbolTableRecord
100
AcDbLayerTableRecord
  2
0805_R_REF_60000
 70
0
 62
7
  6
CONTINUOUS
370
-3
390
F
  0
LAYER
  5
23A
100
AcDbSymbolTableRecord
100
AcDbLayerTableRecord
  2
0805_R_REF_60000_1
 70
0
 62
7
  6
CONTINUOUS
370
-3
390
F
  0
LAYER
  5
23B
100
AcDbSymbolTableRecord
100
AcDbLayerTableRecord
  2
0805_R_REF_60000_2
 70
0
 62
7
  6
CONTINUOUS
370
-3
390
F
  0
LAYER
  5
23C
100
AcDbSymbolTableRecord
100
AcDbLayerTableRecord
  2
1206_C_REF_180000
 70
0
 62
7
  6
CONTINUOUS
370
-3
390
F
  0
LAYER
  5
23D
100
AcDbSymbolTableRecord
100
AcDbLayerTableRecord
  2
1206_R_REF_65000
 70
0
 62
7
  6
CONTINUOUS
370
-3
390
F
  0
LAYER
  5
23E
100
AcDbSymbolTableRecord
100
AcDbLayerTableRecord
  2
1206_R_REF_65000_1
 70
0
 62
7
  6
CONTINUOUS
370
-3
390
F
  0
LAYER
  5
23F
100
AcDbSymbolTableRecord
100
AcDbLayerTableRecord
  2
1206_R_REF_65000_2
 70
0
 62
7
  6
CONTINUOUS
370
-3
390
F
  0
LAYER
  5
240
100
AcDbSymbolTableRecord
100
AcDbLayerTableRecord
  2
1206_R_REF_65000_3
 70
0
 62
7
  6
CONTINUOUS
370
-3
390
F
  0
LAYER
  5
241
100
AcDbSymbolTableRecord
100
AcDbLayerTableRecord
  2
1206_R_REF_65000_4
 70
0
 62
7
  6
CONTINUOUS
370
-3
390
F
  0
LAYER
  5
242
100
AcDbSymbolTableRecord
100
AcDbLayerTableRecord
  2
1M_LED
 70
0
 62
7
  6
CONTINUOUS
370
-3
390
F
  0
LAYER
  5
243
100
AcDbSymbolTableRecord
100
AcDbLayerTableRecord
  2
1M_LED_1
 70
0
 62
7
  6
CONTINUOUS
370
-3
390
F
  0
LAYER
  5
244
100
AcDbSymbolTableRecord
100
AcDbLayerTableRecord
  2
1M_POWER
 70
0
 62
7
  6
CONTINUOUS
370
-3
390
F
  0
LAYER
  5
245
100
AcDbSymbolTableRecord
100
AcDbLayerTableRecord
  2
1M_POWER_1
 70
0
 62
7
  6
CONTINUOUS
370
-3
390
F
  0
LAYER
  5
246
100
AcDbSymbolTableRecord
100
AcDbLayerTableRecord
  2
43901036A0
 70
0
 62
7
  6
CONTINUOUS
370
-3
390
F
  0
LAYER
  5
247
100
AcDbSymbolTableRecord
100
AcDbLayerTableRecord
  2
43901037A0
 70
0
 62
7
  6
CONTINUOUS
370
-3
390
F
  0
LAYER
  5
248
100
AcDbSymbolTableRecord
100
AcDbLayerTableRecord
  2
43901037A0_1
 70
0
 62
7
  6
CONTINUOUS
370
-3
390
F
  0
LAYER
  5
249
100
AcDbSymbolTableRecord
100
AcDbLayerTableRecord
  2
ALIM
 70
0
 62
7
  6
CONTINUOUS
370
-3
390
F
  0
LAYER
  5
24A
100
AcDbSymbolTableRecord
100
AcDbLayerTableRecord
  2
ALIM_1
 70
0
 62
7
  6
CONTINUOUS
370
-3
390
F
  0
LAYER
  5
24B
100
AcDbSymbolTableRecord
100
AcDbLayerTableRecord
  2
ASSI
 70
0
 62
7
  6
CONTINUOUS
370
-3
390
F
  0
LAYER
  5
24C
100
AcDbSymbolTableRecord
100
AcDbLayerTableRecord
  2
CAP-E-8-9-3_5_900000
 70
0
 62
7
  6
CONTINUOUS
370
-3
390
F
  0
LAYER
  5
24D
100
AcDbSymbolTableRecord
100
AcDbLayerTableRecord
  2
CAP-E-8-9-3_5_900000_1
 70
0
 62
7
  6
CONTINUOUS
370
-3
390
F
  0
LAYER
  5
24E
100
AcDbSymbolTableRecord
100
AcDbLayerTableRecord
  2
CAP-E-8_0-9_0-3_5-RST_820000
 70
0
 62
7
  6
CONTINUOUS
370
-3
390
F
  0
LAYER
  5
24F
100
AcDbSymbolTableRecord
100
AcDbLayerTableRecord
  2
CAP-E-8_0-9_0-3_5-RST_INV_82000
 70
0
 62
7
  6
CONTINUOUS
370
-3
390
F
  0
LAYER
  5
250
100
AcDbSymbolTableRecord
100
AcDbLayerTableRecord
  2
CN_STRIP_THT_P2_54_R1_P3_TET_85
 70
0
 62
7
  6
CONTINUOUS
370
-3
390
F
  0
LAYER
  5
251
100
AcDbSymbolTableRecord
100
AcDbLayerTableRecord
  2
COLOR10
 70
0
 62
7
  6
CONTINUOUS
370
-3
390
F
  0
LAYER
  5
252
100
AcDbSymbolTableRecord
100
AcDbLayerTableRecord
  2
COLOR16
 70
0
 62
7
  6
CONTINUOUS
370
-3
390
F
  0
LAYER
  5
253
100
AcDbSymbolTableRecord
100
AcDbLayerTableRecord
  2
COLOR17
 70
0
 62
7
  6
CONTINUOUS
370
-3
390
F
  0
LAYER
  5
254
100
AcDbSymbolTableRecord
100
AcDbLayerTableRecord
  2
COLOR18
 70
0
 62
7
  6
CONTINUOUS
370
-3
390
F
  0
LAYER
  5
255
100
AcDbSymbolTableRecord
100
AcDbLayerTableRecord
  2
COLOR19
 70
0
 62
7
  6
CONTINUOUS
370
-3
390
F
  0
LAYER
  5
256
100
AcDbSymbolTableRecord
100
AcDbLayerTableRecord
  2
COLOR20
 70
0
 62
7
  6
CONTINUOUS
370
-3
390
F
  0
LAYER
  5
257
100
AcDbSymbolTableRecord
100
AcDbLayerTableRecord
  2
COLOR23
 70
0
 62
7
  6
CONTINUOUS
370
-3
390
F
  0
LAYER
  5
258
100
AcDbSymbolTableRecord
100
AcDbLayerTableRecord
  2
COLOR24
 70
0
 62
7
  6
CONTINUOUS
370
-3
390
F
  0
LAYER
  5
259
100
AcDbSymbolTableRecord
100
AcDbLayerTableRecord
  2
COLOR25
 70
0
 62
7
  6
CONTINUOUS
370
-3
390
F
  0
LAYER
  5
25A
100
AcDbSymbolTableRecord
100
AcDbLayerTableRecord
  2
COLOR26
 70
0
 62
7
  6
CONTINUOUS
370
-3
390
F
  0
LAYER
  5
25B
100
AcDbSymbolTableRecord
100
AcDbLayerTableRecord
  2
COLOR27
 70
0
 62
7
  6
CONTINUOUS
370
-3
390
F
  0
LAYER
  5
25C
100
AcDbSymbolTableRecord
100
AcDbLayerTableRecord
  2
COLOR28
 70
0
 62
7
  6
CONTINUOUS
370
-3
390
F
  0
LAYER
  5
25D
100
AcDbSymbolTableRecord
100
AcDbLayerTableRecord
  2
COLOR39
 70
0
 62
7
  6
CONTINUOUS
370
-3
390
F
  0
LAYER
  5
25E
100
AcDbSymbolTableRecord
100
AcDbLayerTableRecord
  2
COLOR40
 70
0
 62
7
  6
CONTINUOUS
370
-3
390
F
  0
LAYER
  5
25F
100
AcDbSymbolTableRecord
100
AcDbLayerTableRecord
  2
COLOR41
 70
0
 62
7
  6
CONTINUOUS
370
-3
390
F
  0
LAYER
  5
260
100
AcDbSymbolTableRecord
100
AcDbLayerTableRecord
  2
COLOR42
 70
0
 62
7
  6
CONTINUOUS
370
-3
390
F
  0
LAYER
  5
261
100
AcDbSymbolTableRecord
100
AcDbLayerTableRecord
  2
COLOR43
 70
0
 62
7
  6
CONTINUOUS
370
-3
390
F
  0
LAYER
  5
262
100
AcDbSymbolTableRecord
100
AcDbLayerTableRecord
  2
COLOR44
 70
0
 62
7
  6
CONTINUOUS
370
-3
390
F
  0
LAYER
  5
263
100
AcDbSymbolTableRecord
100
AcDbLayerTableRecord
  2
COLOR45
 70
0
 62
7
  6
CONTINUOUS
370
-3
390
F
  0
LAYER
  5
264
100
AcDbSymbolTableRecord
100
AcDbLayerTableRecord
  2
COLOR46
 70
0
 62
7
  6
CONTINUOUS
370
-3
390
F
  0
LAYER
  5
265
100
AcDbSymbolTableRecord
100
AcDbLayerTableRecord
  2
COLOR47
 70
0
 62
7
  6
CONTINUOUS
370
-3
390
F
  0
LAYER
  5
266
100
AcDbSymbolTableRecord
100
AcDbLayerTableRecord
  2
COLOR48
 70
0
 62
7
  6
CONTINUOUS
370
-3
390
F
  0
LAYER
  5
267
100
AcDbSymbolTableRecord
100
AcDbLayerTableRecord
  2
COLOR49
 70
0
 62
7
  6
CONTINUOUS
370
-3
390
F
  0
LAYER
  5
268
100
AcDbSymbolTableRecord
100
AcDbLayerTableRecord
  2
COLOR5
 70
0
 62
7
  6
CONTINUOUS
370
-3
390
F
  0
LAYER
  5
269
100
AcDbSymbolTableRecord
100
AcDbLayerTableRecord
  2
COLOR50
 70
0
 62
7
  6
CONTINUOUS
370
-3
390
F
  0
LAYER
  5
26A
100
AcDbSymbolTableRecord
100
AcDbLayerTableRecord
  2
COLOR51
 70
0
 62
7
  6
CONTINUOUS
370
-3
390
F
  0
LAYER
  5
26B
100
AcDbSymbolTableRecord
100
AcDbLayerTableRecord
  2
COLOR52
 70
0
 62
7
  6
CONTINUOUS
370
-3
390
F
  0
LAYER
  5
26C
100
AcDbSymbolTableRecord
100
AcDbLayerTableRecord
  2
COLOR56
 70
0
 62
7
  6
CONTINUOUS
370
-3
390
F
  0
LAYER
  5
26D
100
AcDbSymbolTableRecord
100
AcDbLayerTableRecord
  2
COLOR57
 70
0
 62
7
  6
CONTINUOUS
370
-3
390
F
  0
LAYER
  5
26E
100
AcDbSymbolTableRecord
100
AcDbLayerTableRecord
  2
COLOR58
 70
0
 62
7
  6
CONTINUOUS
370
-3
390
F
  0
LAYER
  5
26F
100
AcDbSymbolTableRecord
100
AcDbLayerTableRecord
  2
COLOR59
 70
0
 62
7
  6
CONTINUOUS
370
-3
390
F
  0
LAYER
  5
270
100
AcDbSymbolTableRecord
100
AcDbLayerTableRecord
  2
COLOR60
 70
0
 62
7
  6
CONTINUOUS
370
-3
390
F
  0
LAYER
  5
271
100
AcDbSymbolTableRecord
100
AcDbLayerTableRecord
  2
COLOR61
 70
0
 62
7
  6
CONTINUOUS
370
-3
390
F
  0
LAYER
  5
272
100
AcDbSymbolTableRecord
100
AcDbLayerTableRecord
  2
COLOR62
 70
0
 62
7
  6
CONTINUOUS
370
-3
390
F
  0
LAYER
  5
273
100
AcDbSymbolTableRecord
100
AcDbLayerTableRecord
  2
COLOR63
 70
0
 62
7
  6
CONTINUOUS
370
-3
390
F
  0
LAYER
  5
274
100
AcDbSymbolTableRecord
100
AcDbLayerTableRecord
  2
COLOR64
 70
0
 62
7
  6
CONTINUOUS
370
-3
390
F
  0
LAYER
  5
275
100
AcDbSymbolTableRecord
100
AcDbLayerTableRecord
  2
COLOR65
 70
0
 62
7
  6
CONTINUOUS
370
-3
390
F
  0
LAYER
  5
276
100
AcDbSymbolTableRecord
100
AcDbLayerTableRecord
  2
COLOR66
 70
0
 62
7
  6
CONTINUOUS
370
-3
390
F
  0
LAYER
  5
277
100
AcDbSymbolTableRecord
100
AcDbLayerTableRecord
  2
COLOR67
 70
0
 62
7
  6
CONTINUOUS
370
-3
390
F
  0
LAYER
  5
278
100
AcDbSymbolTableRecord
100
AcDbLayerTableRecord
  2
COLOR68
 70
0
 62
7
  6
CONTINUOUS
370
-3
390
F
  0
LAYER
  5
279
100
AcDbSymbolTableRecord
100
AcDbLayerTableRecord
  2
COLOR69
 70
0
 62
7
  6
CONTINUOUS
370
-3
390
F
  0
LAYER
  5
27A
100
AcDbSymbolTableRecord
100
AcDbLayerTableRecord
  2
COLOR70
 70
0
 62
7
  6
CONTINUOUS
370
-3
390
F
  0
LAYER
  5
27B
100
AcDbSymbolTableRecord
100
AcDbLayerTableRecord
  2
COLOR71
 70
0
 62
7
  6
CONTINUOUS
370
-3
390
F
  0
LAYER
  5
27C
100
AcDbSymbolTableRecord
100
AcDbLayerTableRecord
  2
COLOR72
 70
0
 62
7
  6
CONTINUOUS
370
-3
390
F
  0
LAYER
  5
27D
100
AcDbSymbolTableRecord
100
AcDbLayerTableRecord
  2
COLOR73
 70
0
 62
7
  6
CONTINUOUS
370
-3
390
F
  0
LAYER
  5
27E
100
AcDbSymbolTableRecord
100
AcDbLayerTableRecord
  2
COLOR74
 70
0
 62
7
  6
CONTINUOUS
370
-3
390
F
  0
LAYER
  5
27F
100
AcDbSymbolTableRecord
100
AcDbLayerTableRecord
  2
COLOR75
 70
0
 62
7
  6
CONTINUOUS
370
-3
390
F
  0
LAYER
  5
280
100
AcDbSymbolTableRecord
100
AcDbLayerTableRecord
  2
COLOR76
 70
0
 62
7
  6
CONTINUOUS
370
-3
390
F
  0
LAYER
  5
281
100
AcDbSymbolTableRecord
100
AcDbLayerTableRecord
  2
COLOR77
 70
0
 62
7
  6
CONTINUOUS
370
-3
390
F
  0
LAYER
  5
282
100
AcDbSymbolTableRecord
100
AcDbLayerTableRecord
  2
COLOR78
 70
0
 62
7
  6
CONTINUOUS
370
-3
390
F
  0
LAYER
  5
283
100
AcDbSymbolTableRecord
100
AcDbLayerTableRecord
  2
COLOR79
 70
0
 62
7
  6
CONTINUOUS
370
-3
390
F
  0
LAYER
  5
284
100
AcDbSymbolTableRecord
100
AcDbLayerTableRecord
  2
COLOR9
 70
0
 62
7
  6
CONTINUOUS
370
-3
390
F
  0
LAYER
  5
285
100
AcDbSymbolTableRecord
100
AcDbLayerTableRecord
  2
COLORE_MATERIALE
 70
0
 62
7
  6
CONTINUOUS
370
-3
390
F
  0
LAYER
  5
286
100
AcDbSymbolTableRecord
100
AcDbLayerTableRecord
  2
COORDINATE
 70
0
 62
7
  6
CONTINUOUS
370
-3
390
F
  0
LAYER
  5
287
100
AcDbSymbolTableRecord
100
AcDbLayerTableRecord
  2
COORD_ORIGINE
 70
0
 62
7
  6
CONTINUOUS
370
-3
390
F
  0
LAYER
  5
288
100
AcDbSymbolTableRecord
100
AcDbLayerTableRecord
  2
COPY_GEOMETRY
 70
0
 62
7
  6
CONTINUOUS
370
-3
390
F
  0
LAYER
  5
289
100
AcDbSymbolTableRecord
100
AcDbLayerTableRecord
  2
COPY_PUBLISH
 70
0
 62
7
  6
CONTINUOUS
370
-3
390
F
  0
LAYER
  5
28A
100
AcDbSymbolTableRecord
100
AcDbLayerTableRecord
  2
COSMETIC
 70
0
 62
7
  6
CONTINUOUS
370
-3
390
F
  0
LAYER
  5
28B
100
AcDbSymbolTableRecord
100
AcDbLayerTableRecord
  2
COSMETICI
 70
0
 62
7
  6
CONTINUOUS
370
-3
390
F
  0
LAYER
  5
28C
100
AcDbSymbolTableRecord
100
AcDbLayerTableRecord
  2
CURVE
 70
0
 62
7
  6
CONTINUOUS
370
-3
390
F
  0
LAYER
  5
28D
100
AcDbSymbolTableRecord
100
AcDbLayerTableRecord
  2
DATAMATRIX_RESIST_1000
 70
0
 62
7
  6
CONTINUOUS
370
-3
390
F
  0
LAYER
  5
28E
100
AcDbSymbolTableRecord
100
AcDbLayerTableRecord
  2
DO-214BA_290000
 70
0
 62
7
  6
CONTINUOUS
370
-3
390
F
  0
LAYER
  5
28F
100
AcDbSymbolTableRecord
100
AcDbLayerTableRecord
  2
DO-214BA_290000_1
 70
0
 62
7
  6
CONTINUOUS
370
-3
390
F
  0
LAYER
  5
290
100
AcDbSymbolTableRecord
100
AcDbLayerTableRecord
  2
DO-214BA_290000_2
 70
0
 62
7
  6
CONTINUOUS
370
-3
390
F
  0
LAYER
  5
291
100
AcDbSymbolTableRecord
100
AcDbLayerTableRecord
  2
DO-214BA_290000_3
 70
0
 62
7
  6
CONTINUOUS
370
-3
390
F
  0
LAYER
  5
292
100
AcDbSymbolTableRecord
100
AcDbLayerTableRecord
  2
DO213AB_MELF_REF_250000
 70
0
 62
7
  6
CONTINUOUS
370
-3
390
F
  0
LAYER
  5
293
100
AcDbSymbolTableRecord
100
AcDbLayerTableRecord
  2
DO213AB_MELF_REF_250000_1
 70
0
 62
7
  6
CONTINUOUS
370
-3
390
F
  0
LAYER
  5
294
100
AcDbSymbolTableRecord
100
AcDbLayerTableRecord
  2
DRAFT
 70
0
 62
7
  6
CONTINUOUS
370
-3
390
F
  0
LAYER
  5
295
100
AcDbSymbolTableRecord
100
AcDbLayerTableRecord
  2
FIDUCIAL_1MM_0
 70
0
 62
7
  6
CONTINUOUS
370
-3
390
F
  0
LAYER
  5
296
100
AcDbSymbolTableRecord
100
AcDbLayerTableRecord
  2
FIDUCIAL_1MM_0_1
 70
0
 62
7
  6
CONTINUOUS
370
-3
390
F
  0
LAYER
  5
297
100
AcDbSymbolTableRecord
100
AcDbLayerTableRecord
  2
FIDUCIAL_1MM_0_2
 70
0
 62
7
  6
CONTINUOUS
370
-3
390
F
  0
LAYER
  5
298
100
AcDbSymbolTableRecord
100
AcDbLayerTableRecord
  2
FIDUCIAL_1MM_0_3
 70
0
 62
7
  6
CONTINUOUS
370
-3
390
F
  0
LAYER
  5
299
100
AcDbSymbolTableRecord
100
AcDbLayerTableRecord
  2
GEOMETRIA_SOLIDA
 70
0
 62
7
  6
CONTINUOUS
370
-3
390
F
  0
LAYER
  5
29A
100
AcDbSymbolTableRecord
100
AcDbLayerTableRecord
  2
GEOMETRIA_SOLIDA_1
 70
0
 62
7
  6
CONTINUOUS
370
-3
390
F
  0
LAYER
  5
29B
100
AcDbSymbolTableRecord
100
AcDbLayerTableRecord
  2
GEOMETRIA_SOLIDA_10
 70
0
 62
7
  6
CONTINUOUS
370
-3
390
F
  0
LAYER
  5
29C
100
AcDbSymbolTableRecord
100
AcDbLayerTableRecord
  2
GEOMETRIA_SOLIDA_2
 70
0
 62
7
  6
CONTINUOUS
370
-3
390
F
  0
LAYER
  5
29D
100
AcDbSymbolTableRecord
100
AcDbLayerTableRecord
  2
GEOMETRIA_SOLIDA_3
 70
0
 62
7
  6
CONTINUOUS
370
-3
390
F
  0
LAYER
  5
29E
100
AcDbSymbolTableRecord
100
AcDbLayerTableRecord
  2
GEOMETRIA_SOLIDA_4
 70
0
 62
7
  6
CONTINUOUS
370
-3
390
F
  0
LAYER
  5
29F
100
AcDbSymbolTableRecord
100
AcDbLayerTableRecord
  2
GEOMETRIA_SOLIDA_5
 70
0
 62
7
  6
CONTINUOUS
370
-3
390
F
  0
LAYER
  5
2A0
100
AcDbSymbolTableRecord
100
AcDbLayerTableRecord
  2
GEOMETRIA_SOLIDA_6
 70
0
 62
7
  6
CONTINUOUS
370
-3
390
F
  0
LAYER
  5
2A1
100
AcDbSymbolTableRecord
100
AcDbLayerTableRecord
  2
GEOMETRIA_SOLIDA_7
 70
0
 62
7
  6
CONTINUOUS
370
-3
390
F
  0
LAYER
  5
2A2
100
AcDbSymbolTableRecord
100
AcDbLayerTableRecord
  2
GEOMETRIA_SOLIDA_8
 70
0
 62
7
  6
CONTINUOUS
370
-3
390
F
  0
LAYER
  5
2A3
100
AcDbSymbolTableRecord
100
AcDbLayerTableRecord
  2
GEOMETRIA_SOLIDA_9
 70
0
 62
7
  6
CONTINUOUS
370
-3
390
F
  0
LAYER
  5
2A4
100
AcDbSymbolTableRecord
100
AcDbLayerTableRecord
  2
IGES
 70
0
 62
7
  6
CONTINUOUS
370
-3
390
F
  0
LAYER
  5
2A5
100
AcDbSymbolTableRecord
100
AcDbLayerTableRecord
  2
IGES_SCRITTE
 70
0
 62
7
  6
CONTINUOUS
370
-3
390
F
  0
LAYER
  5
2A6
100
AcDbSymbolTableRecord
100
AcDbLayerTableRecord
  2
IMPORT_IGES
 70
0
 62
7
  6
CONTINUOUS
370
-3
390
F
  0
LAYER
  5
2A7
100
AcDbSymbolTableRecord
100
AcDbLayerTableRecord
  2
IND-CHIP-0805_H1_1_REF_110000
 70
0
 62
7
  6
CONTINUOUS
370
-3
390
F
  0
LAYER
  5
2A8
100
AcDbSymbolTableRecord
100
AcDbLayerTableRecord
  2
IND-RAD-6_0-8_5-2_5-0_5_850000
 70
0
 62
7
  6
CONTINUOUS
370
-3
390
F
  0
LAYER
  5
2A9
100
AcDbSymbolTableRecord
100
AcDbLayerTableRecord
  2
INTFCLR_1
 70
0
 62
7
  6
CONTINUOUS
370
-3
390
F
  0
LAYER
  5
2AA
100
AcDbSymbolTableRecord
100
AcDbLayerTableRecord
  2
INTFCLR_11371
 70
0
 62
7
  6
CONTINUOUS
370
-3
390
F
  0
LAYER
  5
2AB
100
AcDbSymbolTableRecord
100
AcDbLayerTableRecord
  2
INTFCLR_118879
 70
0
 62
7
  6
CONTINUOUS
370
-3
390
F
  0
LAYER
  5
2AC
100
AcDbSymbolTableRecord
100
AcDbLayerTableRecord
  2
INTFCLR_509
 70
0
 62
7
  6
CONTINUOUS
370
-3
390
F
  0
LAYER
  5
2AD
100
AcDbSymbolTableRecord
100
AcDbLayerTableRecord
  2
INTF_1
 70
0
 62
7
  6
CONTINUOUS
370
-3
390
F
  0
LAYER
  5
2AE
100
AcDbSymbolTableRecord
100
AcDbLayerTableRecord
  2
INTF_15
 70
0
 62
7
  6
CONTINUOUS
370
-3
390
F
  0
LAYER
  5
2AF
100
AcDbSymbolTableRecord
100
AcDbLayerTableRecord
  2
INTF_16
 70
0
 62
7
  6
CONTINUOUS
370
-3
390
F
  0
LAYER
  5
2B0
100
AcDbSymbolTableRecord
100
AcDbLayerTableRecord
  2
INTF_2
 70
0
 62
7
  6
CONTINUOUS
370
-3
390
F
  0
LAYER
  5
2B1
100
AcDbSymbolTableRecord
100
AcDbLayerTableRecord
  2
INTF_5
 70
0
 62
7
  6
CONTINUOUS
370
-3
390
F
  0
LAYER
  5
2B2
100
AcDbSymbolTableRecord
100
AcDbLayerTableRecord
  2
INTF_6
 70
0
 62
7
  6
CONTINUOUS
370
-3
390
F
  0
LAYER
  5
2B3
100
AcDbSymbolTableRecord
100
AcDbLayerTableRecord
  2
INTF_CYAN
 70
0
 62
7
  6
CONTINUOUS
370
-3
390
F
  0
LAYER
  5
2B4
100
AcDbSymbolTableRecord
100
AcDbLayerTableRecord
  2
INTF_GREEN
 70
0
 62
7
  6
CONTINUOUS
370
-3
390
F
  0
LAYER
  5
2B5
100
AcDbSymbolTableRecord
100
AcDbLayerTableRecord
  2
INTF_RED
 70
0
 62
7
  6
CONTINUOUS
370
-3
390
F
  0
LAYER
  5
2B6
100
AcDbSymbolTableRecord
100
AcDbLayerTableRecord
  2
INTF_YELLOW
 70
0
 62
7
  6
CONTINUOUS
370
-3
390
F
  0
LAYER
  5
2B7
100
AcDbSymbolTableRecord
100
AcDbLayerTableRecord
  2
LED
 70
0
 62
7
  6
CONTINUOUS
370
-3
390
F
  0
LAYER
  5
2B8
100
AcDbSymbolTableRecord
100
AcDbLayerTableRecord
  2
LED_1
 70
0
 62
7
  6
CONTINUOUS
370
-3
390
F
  0
LAYER
  5
2B9
100
AcDbSymbolTableRecord
100
AcDbLayerTableRecord
  2
NOTE
 70
0
 62
7
  6
CONTINUOUS
370
-3
390
F
  0
LAYER
  5
2BA
100
AcDbSymbolTableRecord
100
AcDbLayerTableRecord
  2
PIANI
 70
0
 62
7
  6
CONTINUOUS
370
-3
390
F
  0
LAYER
  5
2BB
100
AcDbSymbolTableRecord
100
AcDbLayerTableRecord
  2
PIANI_COSTRUZIONE
 70
0
 62
7
  6
CONTINUOUS
370
-3
390
F
  0
LAYER
  5
2BC
100
AcDbSymbolTableRecord
100
AcDbLayerTableRecord
  2
PIANI_ORIGINE
 70
0
 62
7
  6
CONTINUOUS
370
-3
390
F
  0
LAYER
  5
2BD
100
AcDbSymbolTableRecord
100
AcDbLayerTableRecord
  2
PIANI_RIFERIMENTO
 70
0
 62
7
  6
CONTINUOUS
370
-3
390
F
  0
LAYER
  5
2BE
100
AcDbSymbolTableRecord
100
AcDbLayerTableRecord
  2
PUNTI
 70
0
 62
7
  6
CONTINUOUS
370
-3
390
F
  0
LAYER
  5
2BF
100
AcDbSymbolTableRecord
100
AcDbLayerTableRecord
  2
RACCORDO
 70
0
 62
7
  6
CONTINUOUS
370
-3
390
F
  0
LAYER
  5
2C0
100
AcDbSymbolTableRecord
100
AcDbLayerTableRecord
  2
RGB__255__126____0__
 70
0
 62
7
  6
CONTINUOUS
370
-3
390
F
  0
LAYER
  5
2C1
100
AcDbSymbolTableRecord
100
AcDbLayerTableRecord
  2
RGB__255__255__255__
 70
0
 62
7
  6
CONTINUOUS
370
-3
390
F
  0
LAYER
  5
2C2
100
AcDbSymbolTableRecord
100
AcDbLayerTableRecord
  2
SC88-6_REF_H1_1_110000
 70
0
 62
7
  6
CONTINUOUS
370
-3
390
F
  0
LAYER
  5
2C3
100
AcDbSymbolTableRecord
100
AcDbLayerTableRecord
  2
SIMBOLI
 70
0
 62
7
  6
CONTINUOUS
370
-3
390
F
  0
LAYER
  5
2C4
100
AcDbSymbolTableRecord
100
AcDbLayerTableRecord
  2
SMUSSO
 70
0
 62
7
  6
CONTINUOUS
370
-3
390
F
  0
LAYER
  5
2C5
100
AcDbSymbolTableRecord
100
AcDbLayerTableRecord
  2
SOD523F_70000
 70
0
 62
7
  6
CONTINUOUS
370
-3
390
F
  0
LAYER
  5
2C6
100
AcDbSymbolTableRecord
100
AcDbLayerTableRecord
  2
SOD523F_70000_1
 70
0
 62
7
  6
CONTINUOUS
370
-3
390
F
  0
LAYER
  5
2C7
100
AcDbSymbolTableRecord
100
AcDbLayerTableRecord
  2
SOD80_SOD-213AA_MINIMELF_REF_16
 70
0
 62
7
  6
CONTINUOUS
370
-3
390
F
  0
LAYER
  5
2C8
100
AcDbSymbolTableRecord
100
AcDbLayerTableRecord
  2
SOT23-5_REF_H1_5_150000
 70
0
 62
7
  6
CONTINUOUS
370
-3
390
F
  0
LAYER
  5
2C9
100
AcDbSymbolTableRecord
100
AcDbLayerTableRecord
  2
SOT323_H1_1_REF_110000
 70
0
 62
7
  6
CONTINUOUS
370
-3
390
F
  0
LAYER
  5
2CA
100
AcDbSymbolTableRecord
100
AcDbLayerTableRecord
  2
SOT89_REF_H1_6_160000
 70
0
 62
7
  6
CONTINUOUS
370
-3
390
F
  0
LAYER
  5
2CB
100
AcDbSymbolTableRecord
100
AcDbLayerTableRecord
  2
SUB_SMA_143000
 70
0
 62
7
  6
CONTINUOUS
370
-3
390
F
  0
LAYER
  5
2CC
100
AcDbSymbolTableRecord
100
AcDbLayerTableRecord
  2
SUB_SMA_143000_1
 70
0
 62
7
  6
CONTINUOUS
370
-3
390
F
  0
LAYER
  5
2CD
100
AcDbSymbolTableRecord
100
AcDbLayerTableRecord
  2
SUPERFICI
 70
0
 62
7
  6
CONTINUOUS
370
-3
390
F
  0
LAYER
  5
2CE
100
AcDbSymbolTableRecord
100
AcDbLayerTableRecord
  2
SUPERFICI_13
 70
0
 62
7
  6
CONTINUOUS
370
-3
390
F
  0
LAYER
  5
2CF
100
AcDbSymbolTableRecord
100
AcDbLayerTableRecord
  2
SUPERFICI_SKEL
 70
0
 62
7
  6
CONTINUOUS
370
-3
390
F
  0
LAYER
  5
2D0
100
AcDbSymbolTableRecord
100
AcDbLayerTableRecord
  2
SYMBOL_DATA_10000
 70
0
 62
7
  6
CONTINUOUS
370
-3
390
F
  0
LAYER
  5
2D1
100
AcDbSymbolTableRecord
100
AcDbLayerTableRecord
  2
SYMBOL_NO-PB_10000
 70
0
 62
7
  6
CONTINUOUS
370
-3
390
F
  0
LAYER
  5
2D2
100
AcDbSymbolTableRecord
100
AcDbLayerTableRecord
  2
TP-RND-1_0_3500
 70
0
 62
7
  6
CONTINUOUS
370
-3
390
F
  0
LAYER
  5
2D3
100
AcDbSymbolTableRecord
100
AcDbLayerTableRecord
  2
TP-RND-1_0_3500_1
 70
0
 62
7
  6
CONTINUOUS
370
-3
390
F
  0
LAYER
  5
2D4
100
AcDbSymbolTableRecord
100
AcDbLayerTableRecord
  2
TP-RND-1_0_3500_2
 70
0
 62
7
  6
CONTINUOUS
370
-3
390
F
  0
LAYER
  5
2D5
100
AcDbSymbolTableRecord
100
AcDbLayerTableRecord
  2
TP-RND-1_0_3500_3
 70
0
 62
7
  6
CONTINUOUS
370
-3
390
F
  0
LAYER
  5
2D6
100
AcDbSymbolTableRecord
100
AcDbLayerTableRecord
  2
TP-RND-1_2_1000
 70
0
 62
7
  6
CONTINUOUS
370
-3
390
F
  0
LAYER
  5
2D7
100
AcDbSymbolTableRecord
100
AcDbLayerTableRecord
  2
TP-RND-1_5_1000
 70
0
 62
7
  6
CONTINUOUS
370
-3
390
F
  0
LAYER
  5
2D8
100
AcDbSymbolTableRecord
100
AcDbLayerTableRecord
  2
TP-RND-1_5_1000_1
 70
0
 62
7
  6
CONTINUOUS
370
-3
390
F
  0
LAYER
  5
2D9
100
AcDbSymbolTableRecord
100
AcDbLayerTableRecord
  2
TP-RND-1_5_1000_2
 70
0
 62
7
  6
CONTINUOUS
370
-3
390
F
  0
LAYER
  5
2DA
100
AcDbSymbolTableRecord
100
AcDbLayerTableRecord
  2
TP-RND-1_5_1000_3
 70
0
 62
7
  6
CONTINUOUS
370
-3
390
F
  0
LAYER
  5
2DB
100
AcDbSymbolTableRecord
100
AcDbLayerTableRecord
  2
TP-RND-1_5_1000_4
 70
0
 62
7
  6
CONTINUOUS
370
-3
390
F
  0
LAYER
  5
2DC
100
AcDbSymbolTableRecord
100
AcDbLayerTableRecord
  2
TP-RND-1_5_1000_5
 70
0
 62
7
  6
CONTINUOUS
370
-3
390
F
  0
LAYER
  5
2DD
100
AcDbSymbolTableRecord
100
AcDbLayerTableRecord
  2
TP-RND-1_5_1000_6
 70
0
 62
7
  6
CONTINUOUS
370
-3
390
F
  0
LAYER
  5
2DE
100
AcDbSymbolTableRecord
100
AcDbLayerTableRecord
  2
TP-RND-1_5_1000_7
 70
0
 62
7
  6
CONTINUOUS
370
-3
390
F
  0
LAYER
  5
2DF
100
AcDbSymbolTableRecord
100
AcDbLayerTableRecord
  2
TP-SQR-2_0_0
 70
0
 62
7
  6
CONTINUOUS
370
-3
390
F
  0
LAYER
  5
2E0
100
AcDbSymbolTableRecord
100
AcDbLayerTableRecord
  2
TP-SQR-2_0_0_1
 70
0
 62
7
  6
CONTINUOUS
370
-3
390
F
  0
LAYER
  5
2E1
100
AcDbSymbolTableRecord
100
AcDbLayerTableRecord
  2
TP-SQR-2_0_0_2
 70
0
 62
7
  6
CONTINUOUS
370
-3
390
F
  0
LAYER
  5
2E2
100
AcDbSymbolTableRecord
100
AcDbLayerTableRecord
  2
TP-SQR-2_0_0_3
 70
0
 62
7
  6
CONTINUOUS
370
-3
390
F
  0
LAYER
  5
2E3
100
AcDbSymbolTableRecord
100
AcDbLayerTableRecord
  2
TP-SQR-2_0_0_4
 70
0
 62
7
  6
CONTINUOUS
370
-3
390
F
  0
LAYER
  5
2E4
100
AcDbSymbolTableRecord
100
AcDbLayerTableRecord
  2
TP-SQR-2_0_0_5
 70
0
 62
7
  6
CONTINUOUS
370
-3
390
F
  0
LAYER
  5
2E5
100
AcDbSymbolTableRecord
100
AcDbLayerTableRecord
  2
TP-SQR-2_0_0_6
 70
0
 62
7
  6
CONTINUOUS
370
-3
390
F
  0
LAYER
  5
2E6
100
AcDbSymbolTableRecord
100
AcDbLayerTableRecord
  2
TP-SQR-2_0_0_7
 70
0
 62
7
  6
CONTINUOUS
370
-3
390
F
  0
LAYER
  5
2E7
100
AcDbSymbolTableRecord
100
AcDbLayerTableRecord
  2
TRASH
 70
0
 62
7
  6
CONTINUOUS
370
-3
390
F
  0
LAYER
  5
2E8
100
AcDbSymbolTableRecord
100
AcDbLayerTableRecord
  2
UMT-250_REF_300000
 70
0
 62
7
  6
CONTINUOUS
370
-3
390
F
  0
LAYER
  5
2E9
100
AcDbSymbolTableRecord
100
AcDbLayerTableRecord
  2
VG_CAP-E-SMD-5_3-5_0-6_3_630000
 70
0
 62
7
  6
CONTINUOUS
370
-3
390
F
  0
LAYER
  5
2EA
100
AcDbSymbolTableRecord
100
AcDbLayerTableRecord
  2
VG_CN-SMD-MOLEX-53398-R1-P2-TET
 70
0
 62
7
  6
CONTINUOUS
370
-3
390
F
  0
LAYER
  5
2EB
100
AcDbSymbolTableRecord
100
AcDbLayerTableRecord
  2
VG_CN-STRIP-M-THT-P2-R1-P3-TET_
 70
0
 62
7
  6
CONTINUOUS
370
-3
390
F
  0
LAYER
  5
2EC
100
AcDbSymbolTableRecord
100
AcDbLayerTableRecord
  2
VG_CN_THT_1P_254000
 70
0
 62
7
  6
CONTINUOUS
370
-3
390
F
  0
LAYER
  5
2ED
100
AcDbSymbolTableRecord
100
AcDbLayerTableRecord
  2
VG_CN_THT_1P_254000_1
 70
0
 62
7
  6
CONTINUOUS
370
-3
390
F
  0
LAYER
  5
2EE
100
AcDbSymbolTableRecord
100
AcDbLayerTableRecord
  2
VG_CN_THT_1P_254000_2
 70
0
 62
7
  6
CONTINUOUS
370
-3
390
F
  0
LAYER
  5
2EF
100
AcDbSymbolTableRecord
100
AcDbLayerTableRecord
  2
VG_CN_THT_1P_254000_3
 70
0
 62
7
  6
CONTINUOUS
370
-3
390
F
  0
LAYER
  5
2F0
100
AcDbSymbolTableRecord
100
AcDbLayerTableRecord
  2
VG_CN_THT_1P_254000_4
 70
0
 62
7
  6
CONTINUOUS
370
-3
390
F
  0
LAYER
  5
2F1
100
AcDbSymbolTableRecord
100
AcDbLayerTableRecord
  2
VG_CN_THT_1P_254000_5
 70
0
 62
7
  6
CONTINUOUS
370
-3
390
F
  0
LAYER
  5
2F2
100
AcDbSymbolTableRecord
100
AcDbLayerTableRecord
  2
VG_CN_THT_1P_254000_6
 70
0
 62
7
  6
CONTINUOUS
370
-3
390
F
  0
LAYER
  5
2F3
100
AcDbSymbolTableRecord
100
AcDbLayerTableRecord
  2
VG_CN_THT_1P_254000_7
 70
0
 62
7
  6
CONTINUOUS
370
-3
390
F
  0
LAYER
  5
2F4
100
AcDbSymbolTableRecord
100
AcDbLayerTableRecord
  2
VG_FUSE-RAD-8_5-4_3-7_85-5_08-0
 70
0
 62
7
  6
CONTINUOUS
370
-3
390
F
  0
LAYER
  5
2F5
100
AcDbSymbolTableRecord
100
AcDbLayerTableRecord
  2
VG_IND-PS-7_8-5_0_550000
 70
0
 62
7
  6
CONTINUOUS
370
-3
390
F
  0
LAYER
  5
2F6
100
AcDbSymbolTableRecord
100
AcDbLayerTableRecord
  2
VG_IND-SMT-4_0-4_0-2_5-1_55-3_1
 70
0
 62
7
  6
CONTINUOUS
370
-3
390
F
  0
LAYER
  5
2F7
100
AcDbSymbolTableRecord
100
AcDbLayerTableRecord
  2
VG_IND-SMT-4_0-4_0-2_5-1_55-3_6
 70
0
 62
7
  6
CONTINUOUS
370
-3
390
F
  0
LAYER
  5
2F8
100
AcDbSymbolTableRecord
100
AcDbLayerTableRecord
  2
VG_LED-SMT-2_7-1_4-0_8_80000
 70
0
 62
7
  6
CONTINUOUS
370
-3
390
F
  0
LAYER
  5
2F9
100
AcDbSymbolTableRecord
100
AcDbLayerTableRecord
  2
VG_LED-SMT-5_0-3_0-0_8_LM561C_8
 70
0
 62
7
  6
CONTINUOUS
370
-3
390
F
  0
LAYER
  5
2FA
100
AcDbSymbolTableRecord
100
AcDbLayerTableRecord
  2
VG_M_3P_VERT_P_5MM_24A_H_15MM_M
 70
0
 62
7
  6
CONTINUOUS
370
-3
390
F
  0
LAYER
  5
2FB
100
AcDbSymbolTableRecord
100
AcDbLayerTableRecord
  2
VG_RES-ASS-5_0-12_0-0_7-20_0-A9
 70
0
 62
7
  6
CONTINUOUS
370
-3
390
F
  0
LAYER
  5
2FC
100
AcDbSymbolTableRecord
100
AcDbLayerTableRecord
  2
VG_SOD523_70000
 70
0
 62
7
  6
CONTINUOUS
370
-3
390
F
  0
LAYER
  5
2FD
100
AcDbSymbolTableRecord
100
AcDbLayerTableRecord
  2
VG_SOD523_70000_1
 70
0
 62
7
  6
CONTINUOUS
370
-3
390
F
  0
LAYER
  5
2FE
100
AcDbSymbolTableRecord
100
AcDbLayerTableRecord
  2
VG_SOD523_70000_2
 70
0
 62
7
  6
CONTINUOUS
370
-3
390
F
  0
LAYER
  5
2FF
100
AcDbSymbolTableRecord
100
AcDbLayerTableRecord
  2
VG_SOT23-5-H1_1-REF_150000
 70
0
 62
7
  6
CONTINUOUS
370
-3
390
F
  0
LAYER
  5
300
100
AcDbSymbolTableRecord
100
AcDbLayerTableRecord
  2
VG_SOT23_H1_1_REF_110000
 70
0
 62
7
  6
CONTINUOUS
370
-3
390
F
  0
LAYER
  5
301
100
AcDbSymbolTableRecord
100
AcDbLayerTableRecord
  2
VG_SOT23_H1_1_REF_110000_1
 70
0
 62
7
  6
CONTINUOUS
370
-3
390
F
  0
LAYER
  5
302
100
AcDbSymbolTableRecord
100
AcDbLayerTableRecord
  2
VG_SOT23_H1_1_REF_110000_2
 70
0
 62
7
  6
CONTINUOUS
370
-3
390
F
  0
LAYER
  5
303
100
AcDbSymbolTableRecord
100
AcDbLayerTableRecord
  2
VG_SOT23_H1_2_REF_120000
 70
0
 62
7
  6
CONTINUOUS
370
-3
390
F
  0
LAYER
  5
304
100
AcDbSymbolTableRecord
100
AcDbLayerTableRecord
  2
XSEC_DATUMS
 70
0
 62
7
  6
CONTINUOUS
370
-3
390
F
  0
LAYER
  5
305
100
AcDbSymbolTableRecord
100
AcDbLayerTableRecord
  2
___SHELL
 70
0
 62
7
  6
CONTINUOUS
370
-3
390
F
  0
ENDTAB
  0
TABLE
  2
STYLE
  5
3
100
AcDbSymbolTable
 70
1
  0
STYLE
  5
11
100
AcDbSymbolTableRecord
100
AcDbTextStyleTableRecord
  2
STANDARD
 70
0
 40
0.0
 41
0.8
 50
0.0
 71
0
 42
0.2
  3
txt
  4

  0
STYLE
  5
306
100
AcDbSymbolTableRecord
100
AcDbTextStyleTableRecord
  2
TEXTSTYLE_1
 70
0
 40
0.0
 41
0.8
 50
0.0
 71
0
 42
0.2
  3
gdt
  4

  0
ENDTAB
  0
TABLE
  2
VIEW
  5
6
100
AcDbSymbolTable
 70
0
  0
ENDTAB
  0
TABLE
  2
UCS
  5
7
100
AcDbSymbolTable
 70
0
  0
ENDTAB
  0
TABLE
  2
APPID
  5
9
100
AcDbSymbolTable
 70
1
  0
APPID
  5
307
100
AcDbSymbolTableRecord
100
AcDbRegAppTableRecord
  2
ACAD
 70
0
  0
ENDTAB
  0
TABLE
  2
BLOCK_RECORD
  5
1
100
AcDbSymbolTable
 70
0
  0
BLOCK_RECORD
  5
308
100
AcDbSymbolTableRecord
100
AcDbBlockTableRecord
  2
*Model_Space
  0
BLOCK_RECORD
  5
309
100
AcDbSymbolTableRecord
100
AcDbBlockTableRecord
  2
*Paper_Space
  0
BLOCK_RECORD
  5
30A
100
AcDbSymbolTableRecord
100
AcDbBlockTableRecord
  2
_FILLED
  0
ENDTAB
  0
TABLE
  2
DIMSTYLE
  5
A
100
AcDbSymbolTable
 70
1
100
AcDbDimStyleTable
 71
0
  0
DIMSTYLE
105
30B
100
AcDbSymbolTableRecord
100
AcDbDimStyleTableRecord
  2
STANDARD
 70
0
  3

  4

 40
1.0
 41
3.0
 42
0.5
 43
0.38
 44
1.5
 45
0.0
 46
0.0
 47
0.01
 48
0.01
140
3.0
141
0.09
142
0.0
143
25.4
144
1.0
145
0.0
146
1.0
147
0.625
 71
1
 72
0
 73
0
 74
0
 75
0
 76
0
 77
1
 78
8
 79
2
170
0
171
1
172
0
173
0
174
0
175
0
176
0
177
0
178
0
270
2
179
2
271
2
272
2
273
2
274
2
275
0
280
0
281
0
282
0
283
1
284
8
285
0
286
0
287
3
288
0
340
11
278
44
341
30A
342
30A
343
30A
344
30A
  0
ENDTAB
  0
ENDSEC
  0
SECTION
  2
BLOCKS
  0
BLOCK
  5
20
100
AcDbEntity
  8
0
100
AcDbBlockBegin
  2
*Model_Space
 70
0
 10
0.0
 20
0.0
 30
0.0
  3
*Model_Space
  1

  0
ENDBLK
  5
21
100
AcDbEntity
  8
0
100
AcDbBlockEnd
  0
BLOCK
  5
1C
100
AcDbEntity
  8
0
100
AcDbBlockBegin
  2
*Paper_Space
 70
0
 10
0.0
 20
0.0
 30
0.0
  3
*Paper_Space
  1

  0
ENDBLK
  5
1D
100
AcDbEntity
  8
0
100
AcDbBlockEnd
  0
BLOCK
  5
30C
100
AcDbEntity
  8
0
100
AcDbBlockBegin
  2
_FILLED
 70
64
 10
0.0
 20
0.0
  3
_FILLED
  1

  0
SOLID
  5
30D
100
AcDbEntity
  8
0
  6
BYBLOCK
 62
0
100
AcDbTrace
 10
0.0
 20
0.0
 11
-1.0
 21
0.3166666667
 12
-1.0
 22
-0.3166666667
 13
-1.0
 23
-0.3166666667
  0
ENDBLK
  5
30E
100
AcDbEntity
  8
0
  6
BYBLOCK
 62
0
100
AcDbBlockEnd
  0
ENDSEC
  0
SECTION
  2
ENTITIES
  0
LWPOLYLINE
  5
30F
100
AcDbEntity
  8
0
100
AcDbPolyline
 62
250
  6
CONTINUOUS
 90
11
 70
0
 10
133.263657362
 20
127.7319739109
 10
133.2724768192
 20
127.7436964547
 10
133.2816413289
 20
127.7549286774
 10
133.2911216372
 20
127.7656331947
 10
133.3008802061
 20
127.7757655992
 10
133.3108818063
 20
127.7852884163
 10
133.3210898719
 20
127.7941659164
 10
133.3314628168
 20
127.8023611032
 10
133.3419610994
 20
127.8098430162
 10
133.3525476418
 20
127.8165858261
 10
133.3631836165
 20
127.8225650471
  0
LWPOLYLINE
  5
310
100
AcDbEntity
  8
0
100
AcDbPolyline
 62
7
  6
CONTINUOUS
 90
19
 70
0
 10
129.6161798247
 20
124.0012519826
 10
129.6042231259
 20
123.9940634585
 10
129.5320245037
 20
123.9462065846
 10
129.4629374554
 20
123.8927977498
 10
129.3969572211
 20
123.8341190888
 10
129.3341900803
 20
123.7705054589
 10
129.2749572133
 20
123.7024712312
 10
129.2193384359
 20
123.6303030846
 10
129.1674798847
 20
123.554275851
 10
129.1198207494
 20
123.4751055547
 10
129.0764866084
 20
123.3931075266
 10
129.0376562572
 20
123.3085677884
 10
129.0037117842
 20
123.2223178395
 10
128.9747977385
 20
123.1346832833
 10
128.9510870615
 20
123.0459396985
 10
128.9328466033
 20
122.9567995085
 10
128.9202601351
 20
122.8676264332
 10
128.9134821368
 20
122.7785769715
 10
128.9130283216
 20
122.7667063269
  0
LWPOLYLINE
  5
311
100
AcDbEntity
  8
0
100
AcDbPolyline
 62
7
  6
CONTINUOUS
 90
12
 70
0
 10
133.2708281848
 20
127.8267119367
 10
133.2523186006
 20
127.8156547524
 10
133.2311028309
 20
127.8000104232
 10
133.211284867
 20
127.7819318242
 10
133.1931184166
 20
127.7615878698
 10
133.1772635487
 20
127.7398199762
 10
133.1634506519
 20
127.7163810323
 10
133.1517304029
 20
127.6911679253
 10
133.1426856337
 20
127.6653779218
 10
133.1363170761
 20
127.6393191086
 10
133.1325229755
 20
127.6123135648
 10
133.1315199162
 20
127.589625013
  0
LINE
  5
312
100
AcDbEntity
  8
0
100
AcDbLine
 62
7
  6
CONTINUOUS
 10
129.6160258508
 20
124.0011741027
 11
133.846382936
 21
126.5089390531
  0
LINE
  5
313
100
AcDbEntity
  8
0
100
AcDbLine
 62
250
  6
CONTINUOUS
 10
133.846382936
 20
126.3618237357
 11
129.7921986484
 21
123.9584364824
  0
LINE
  5
314
100
AcDbEntity
  8
0
100
AcDbLine
 62
7
  6
CONTINUOUS
 10
133.2706869954
 20
127.8266365921
 11
134.8379303041
 21
128.6722003123
  0
LINE
  5
315
100
AcDbEntity
  8
0
100
AcDbLine
 62
250
  6
CONTINUOUS
 10
133.3631836165
 20
127.8225650471
 11
134.9294343627
 21
128.6675932571
  0
LINE
  5
316
100
AcDbEntity
  8
0
100
AcDbLine
 62
250
  6
CONTINUOUS
 10
135.4288976579
 20
126.7897080264
 11
137.0507977846
 21
127.6069115462
  0
LINE
  5
317
100
AcDbEntity
  8
0
100
AcDbLine
 62
250
  6
CONTINUOUS
 10
135.570297475
 20
126.5458294171
 11
137.1921976017
 21
127.3630329369
  0
LINE
  5
318
100
AcDbEntity
  8
0
100
AcDbLine
 62
7
  6
CONTINUOUS
 10
134.8420952113
 20
128.6742830371
 11
134.8379297623
 21
128.67220002
  0
LINE
  5
319
100
AcDbEntity
  8
0
100
AcDbLine
 62
250
  6
CONTINUOUS
 10
137.0507977846
 20
127.6069115462
 11
137.5749042498
 21
127.8668722167
  0
LINE
  5
31A
100
AcDbEntity
  8
0
100
AcDbLine
 62
250
  6
CONTINUOUS
 10
137.1921976017
 20
127.3630329369
 11
137.7163020682
 21
127.622992616
  0
LWPOLYLINE
  5
31B
100
AcDbEntity
  8
0
100
AcDbPolyline
 62
250
  6
CONTINUOUS
 90
7
 70
0
 10
133.2708279192
 20
127.8267124308
 10
133.276127134
 20
127.8292957998
 10
133.2915932024
 20
127.8342381934
 10
133.3083259425
 20
127.8360400525
 10
133.3260391634
 20
127.8346705588
 10
133.3444299044
 20
127.8301531355
 10
133.3631836165
 20
127.8225650471
  0
LWPOLYLINE
  5
31C
100
AcDbEntity
  8
0
100
AcDbPolyline
 62
250
  6
CONTINUOUS
 90
8
 70
0
 10
129.6161740001
 20
124.0012618306
 10
129.6430114507
 20
124.0142882758
 10
129.6737773491
 20
124.0233249607
 10
129.7067002279
 20
124.027415254
 10
129.7414200052
 20
124.0265144193
 10
129.7775569464
 20
124.0206323093
 10
129.8147158174
 20
124.0098332573
 10
129.8524902071
 20
123.9942353739
  0
LWPOLYLINE
  5
31D
100
AcDbEntity
  8
0
100
AcDbPolyline
 62
250
  6
CONTINUOUS
 90
28
 70
0
 10
137.7163020682
 20
127.622992616
 10
137.7179648314
 20
127.6237818936
 10
137.719659343
 20
127.6244665081
 10
137.7213856029
 20
127.6250464596
 10
137.7231539069
 20
127.6255323576
 10
137.7249539592
 20
127.6259135926
 10
137.7267548725
 20
127.6261583361
 10
137.7285574908
 20
127.6262626081
 10
137.7303609702
 20
127.6262303887
 10
137.732131891
 20
127.6260417886
 10
137.7338697358
 20
127.625691864
 10
137.7355750222
 20
127.6251855588
 10
137.7372158827
 20
127.6245178161
 10
137.738789848
 20
127.6236844999
 10
137.7402993874
 20
127.6226897463
 10
137.7417200423
 20
127.6215409067
 10
137.7430493372
 20
127.6202355039
 10
137.7442897477
 20
127.6187760151
 10
137.745424242
 20
127.6171772234
 10
137.7464511265
 20
127.6154370558
 10
137.7473720948
 20
127.6135575853
 10
137.7481751963
 20
127.6115598136
 10
137.7488586954
 20
127.6094418743
 10
137.7494243278
 20
127.6072056338
 10
137.74986535
 20
127.6048776932
 10
137.7501795142
 20
127.6024669196
 10
137.7503690683
 20
127.5999644459
 10
137.7504340122
 20
127.5973702722
  0
LINE
  5
31E
100
AcDbEntity
  8
0
100
AcDbLine
 62
7
  6
CONTINUOUS
 10
134.842096213
 20
128.6742835773
 11
135.3858365403
 21
128.9254008794
  0
LINE
  5
31F
100
AcDbEntity
  8
0
100
AcDbLine
 62
250
  6
CONTINUOUS
 10
134.9294343627
 20
128.6675932571
 11
135.4721604254
 21
128.9182421382
  0
LWPOLYLINE
  5
320
100
AcDbEntity
  8
0
100
AcDbPolyline
 62
250
  6
CONTINUOUS
 90
14
 70
0
 10
137.5749042783
 20
127.8668722025
 10
137.5832880814
 20
127.8706680175
 10
137.5918872426
 20
127.8740480994
 10
137.6006778065
 20
127.8769591023
 10
137.6096511947
 20
127.8793509976
 10
137.6187566959
 20
127.8811611597
 10
137.6279038459
 20
127.8823283968
 10
137.6370568976
 20
127.8828097015
 10
137.6461770102
 20
127.8825630921
 10
137.6551710975
 20
127.8815560458
 10
137.6639997349
 20
127.879763649
 10
137.6726228632
 20
127.8771634045
 10
137.6809538947
 20
127.8737566126
 10
137.6831934828
 20
127.8726755351
  0
LWPOLYLINE
  5
321
100
AcDbEntity
  8
0
100
AcDbPolyline
 62
250
  6
CONTINUOUS
 90
13
 70
0
 10
135.4721604254
 20
128.9182421382
 10
135.4805247583
 20
128.9219757369
 10
135.4891173266
 20
128.9253066849
 10
135.4979145552
 20
128.9281801203
 10
135.506908747
 20
128.9305442115
 10
135.5160486698
 20
128.9323344786
 10
135.5252419236
 20
128.9334879617
 10
135.5344526214
 20
128.9339594978
 10
135.5436413979
 20
128.9337048461
 10
135.5527124252
 20
128.9326897056
 10
135.5616261596
 20
128.9308868012
 10
135.5703408843
 20
128.9282714517
 10
135.5773350776
 20
128.9254261506
  0
LWPOLYLINE
  5
322
100
AcDbEntity
  8
0
100
AcDbPolyline
 62
250
  6
CONTINUOUS
 90
6
 70
0
 10
135.3860534848
 20
128.92550065
 10
135.4023758422
 20
128.9308182118
 10
135.4188152201
 20
128.9324733954
 10
135.4361247843
 20
128.930902074
 10
135.4540084783
 20
128.9261311218
 10
135.4721604254
 20
128.9182421382
  0
LWPOLYLINE
  5
323
100
AcDbEntity
  8
0
100
AcDbPolyline
 62
7
  6
CONTINUOUS
 90
12
 70
0
 10
136.289746851
 20
125.9830843449
 10
136.2677141148
 20
125.9624395858
 10
136.2438263233
 20
125.9431744918
 10
136.218259085
 20
125.9256818944
 10
136.1910588347
 20
125.9103296353
 10
136.1626442028
 20
125.8974762766
 10
136.1338291565
 20
125.8874077033
 10
136.104999479
 20
125.8803104177
 10
136.0764509164
 20
125.8763627933
 10
136.0489138389
 20
125.875621789
 10
136.0228592607
 20
125.8780141182
 10
136.0123116393
 20
125.8799488318
  0
LWPOLYLINE
  5
324
100
AcDbEntity
  8
0
100
AcDbPolyline
 62
250
  6
CONTINUOUS
 90
13
 70
0
 10
139.102636704
 20
125.9287914844
 10
139.0844048913
 20
125.9178365042
 10
139.0665194446
 20
125.9041877343
 10
139.0492796354
 20
125.8880735551
 10
139.0329739322
 20
125.8697636004
 10
139.0178751731
 20
125.8495642448
 10
139.0042360011
 20
125.8278134779
 10
138.9922846361
 20
125.8048752486
 10
138.9822210567
 20
125.7811333751
 10
138.9742136536
 20
125.7569851228
 10
138.9683964122
 20
125.7328345569
 10
138.9648666705
 20
125.7090857814
 10
138.9636834907
 20
125.686136177
  0
LWPOLYLINE
  5
325
100
AcDbEntity
  8
0
100
AcDbPolyline
 62
7
  6
CONTINUOUS
 90
12
 70
0
 10
138.987314239
 20
125.9340409537
 10
138.9849572439
 20
125.9327513168
 10
138.9647493652
 20
125.9200447661
 10
138.9459676424
 20
125.9051483633
 10
138.9288854327
 20
125.8882608704
 10
138.9136138363
 20
125.8694586519
 10
138.9003826175
 20
125.8489590784
 10
138.889393946
 20
125.8270501298
 10
138.8807228432
 20
125.8038258224
 10
138.8744864442
 20
125.779449827
 10
138.8708150139
 20
125.7542477162
 10
138.8697550774
 20
125.7312770567
  0
LINE
  5
326
100
AcDbEntity
  8
0
100
AcDbLine
 62
7
  6
CONTINUOUS
 10
135.2122986143
 20
125.5787679093
 11
134.6695725516
 21
125.2824777991
  0
LINE
  5
327
100
AcDbEntity
  8
0
100
AcDbLine
 62
7
  6
CONTINUOUS
 10
136.289746851
 20
125.2248838988
 11
137.1921976017
 21
125.7175582897
  0
LINE
  5
328
100
AcDbEntity
  8
0
100
AcDbLine
 62
7
  6
CONTINUOUS
 10
139.199110948
 20
126.0483110449
 11
138.9872640398
 21
125.9340147778
  0
LINE
  5
329
100
AcDbEntity
  8
0
100
AcDbLine
 62
250
  6
CONTINUOUS
 10
139.3134910213
 20
126.042552226
 11
139.102636704
 21
125.9287914844
  0
LWPOLYLINE
  5
32A
100
AcDbEntity
  8
0
100
AcDbPolyline
 62
250
  6
CONTINUOUS
 90
31
 70
0
 10
143.5424261881
 20
127.8214236124
 10
143.5514265578
 20
127.8262352223
 10
143.5592165285
 20
127.8313764528
 10
143.5657961001
 20
127.836847304
 10
143.5712152676
 20
127.8427164875
 10
143.575424036
 20
127.8489152916
 10
143.5782724204
 20
127.8552375814
 10
143.5797115244
 20
127.861684622
 10
143.5797902445
 20
127.8682551483
 10
143.5785052846
 20
127.8747392302
 10
143.5758122343
 20
127.8811341016
 10
143.5717555041
 20
127.8874425285
 10
143.5664650294
 20
127.8934628788
 10
143.5599011063
 20
127.8991858621
 10
143.5521034387
 20
127.9046207689
 10
143.5433210735
 20
127.9095938377
 10
143.5335221449
 20
127.9140901502
 10
143.5227385188
 20
127.9181246247
 10
143.5113148397
 20
127.9215682554
 10
143.4992304268
 20
127.9244020084
 10
143.4865059609
 20
127.9266449175
 10
143.4735481285
 20
127.9282250786
 10
143.4603493721
 20
127.9291209971
 10
143.4469172493
 20
127.9293541675
 10
143.4336811188
 20
127.9289171699
 10
143.4206462062
 20
127.9277880746
 10
143.407807286
 20
127.9259888113
 10
143.3955780407
 20
127.9235777489
 10
143.3840963646
 20
127.9205743437
 10
143.3732243634
 20
127.9169591394
 10
143.3629620372
 20
127.912732136
  0
LWPOLYLINE
  5
32B
100
AcDbEntity
  8
0
100
AcDbPolyline
 62
250
  6
CONTINUOUS
 90
13
 70
0
 10
138.9873117457
 20
125.9340404985
 10
138.9913032196
 20
125.9360701483
 10
138.9999592332
 20
125.9397003775
 10
139.0090210773
 20
125.9424925245
 10
139.0184545818
 20
125.9444318387
 10
139.0282279039
 20
125.9455077284
 10
139.03829676
 20
125.9457123713
 10
139.0486240693
 20
125.9450431797
 10
139.0591710238
 20
125.9435009078
 10
139.0698876752
 20
125.9410925745
 10
139.0807298516
 20
125.9378293377
 10
139.0916599617
 20
125.9337235692
 10
139.102636704
 20
125.9287914844
  0
LINE
  5
32C
100
AcDbEntity
  8
0
100
AcDbLine
 62
7
  6
CONTINUOUS
 10
139.1991105178
 20
126.0483108463
 11
139.2043181541
 21
126.0509150431
  0
LINE
  5
32D
100
AcDbEntity
  8
0
100
AcDbLine
 62
250
  6
CONTINUOUS
 10
144.9660988082
 20
129.4545773484
 11
137.9189106544
 21
126.0461920149
  0
LINE
  5
32E
100
AcDbEntity
  8
0
100
AcDbLine
 62
250
  6
CONTINUOUS
 10
140.2273459576
 20
126.2362354629
 11
143.5424261881
 21
127.8214236124
  0
LINE
  5
32F
100
AcDbEntity
  8
0
100
AcDbLine
 62
250
  6
CONTINUOUS
 10
140.6196403281
 20
126.0400882776
 11
143.7160571277
 21
127.5207170634
  0
LINE
  5
330
100
AcDbEntity
  8
0
100
AcDbLine
 62
7
  6
CONTINUOUS
 10
147.7666366439
 20
130.2658040544
 11
147.7675580159
 21
130.2662400919
  0
LINE
  5
331
100
AcDbEntity
  8
RACCORDO
100
AcDbLine
 62
7
  6
CONTINUOUS
 10
145.7373005006
 20
129.3087762721
 11
147.767561457
 21
130.2662417148
  0
LINE
  5
332
100
AcDbEntity
  8
0
100
AcDbLine
 62
250
  6
CONTINUOUS
 10
145.9836780737
 20
129.1855874856
 11
148.2066993703
 21
130.2339581706
  0
LINE
  5
333
100
AcDbEntity
  8
0
100
AcDbLine
 62
7
  6
CONTINUOUS
 10
143.2550571823
 20
127.9216805632
 11
139.2043183341
 21
126.0509151262
  0
LINE
  5
334
100
AcDbEntity
  8
0
100
AcDbLine
 62
250
  6
CONTINUOUS
 10
143.3629620372
 20
127.912732136
 11
139.3134910213
 21
126.042552226
  0
LWPOLYLINE
  5
335
100
AcDbEntity
  8
0
100
AcDbPolyline
 62
7
  6
CONTINUOUS
 90
4
 70
0
 10
139.2043181541
 20
126.0509150431
 10
139.2093225147
 20
126.0530526618
 10
139.2249137196
 20
126.0577011022
 10
139.2416068594
 20
126.0597874218
  0
LINE
  5
336
100
AcDbEntity
  8
0
100
AcDbLine
 62
7
  6
CONTINUOUS
 10
150.1521770663
 20
129.3811192075
 11
153.4626171035
 21
130.4902638786
  0
LINE
  5
337
100
AcDbEntity
  8
0
100
AcDbLine
 62
250
  6
CONTINUOUS
 10
150.2604645622
 20
129.3269754596
 11
153.6645482544
 21
130.4674949207
  0
LWPOLYLINE
  5
338
100
AcDbEntity
  8
0
100
AcDbPolyline
 62
250
  6
CONTINUOUS
 90
7
 70
0
 10
160.5792654065
 20
131.7739712058
 10
160.6101038962
 20
131.783046034
 10
160.6427854041
 20
131.7870011489
 10
160.6769519915
 20
131.7857932676
 10
160.712229462
 20
131.7794356538
 10
160.748231461
 20
131.7679979691
 10
160.7845637019
 20
131.7516055093
  0
LWPOLYLINE
  5
339
100
AcDbEntity
  8
0
100
AcDbPolyline
 62
250
  6
CONTINUOUS
 90
7
 70
0
 10
153.6645482544
 20
130.4674949207
 10
153.7200099737
 20
130.4837667979
 10
153.7741902887
 20
130.4942848755
 10
153.8267832268
 20
130.4991074731
 10
153.8773929267
 20
130.4983353157
 10
153.9258763954
 20
130.4921133593
 10
153.9723013172
 20
130.480503655
  0
LWPOLYLINE
  5
33A
100
AcDbEntity
  8
0
100
AcDbPolyline
 62
250
  6
CONTINUOUS
 90
8
 70
0
 10
147.7981215243
 20
130.2790491337
 10
147.8487280389
 20
130.2938606692
 10
147.901973368
 20
130.3019575305
 10
147.9577312384
 20
130.3032365095
 10
148.0163931239
 20
130.2974447988
 10
148.0778604313
 20
130.284153253
 10
148.1414585619
 20
130.2630686324
 10
148.2066993703
 20
130.2339581706
  0
LINE
  5
33B
100
AcDbEntity
  8
0
100
AcDbLine
 62
250
  6
CONTINUOUS
 10
129.3310041881
 20
85.8482510707
 11
129.3071813466
 21
85.8627379093
  0
LWPOLYLINE
  5
33C
100
AcDbEntity
  8
0
100
AcDbPolyline
 62
250
  6
CONTINUOUS
 90
12
 70
0
 10
129.3071813466
 20
85.8627379093
 10
129.2646071484
 20
85.8939278759
 10
129.2251459126
 20
85.9301190536
 10
129.1889984744
 20
85.9711270457
 10
129.1563533756
 20
86.0167412603
 10
129.1273537345
 20
86.0667441619
 10
129.1021472466
 20
86.1208809107
 10
129.0808634968
 20
86.1788814222
 10
129.063591478
 20
86.2404779887
 10
129.0504155779
 20
86.3053730044
 10
129.0414122353
 20
86.3732379328
 10
129.0366294921
 20
86.4437373299
  0
LWPOLYLINE
  5
33D
100
AcDbEntity
  8
0
100
AcDbPolyline
 62
7
  6
CONTINUOUS
 90
7
 70
0
 10
134.0523439426
 20
126.6698820283
 10
134.0541422919
 20
126.6737001501
 10
134.0593679176
 20
126.6798919456
 10
134.0675651269
 20
126.6882322739
 10
134.0785375775
 20
126.6977940665
 10
134.0921035643
 20
126.7083581254
 10
134.1255669776
 20
126.7339396737
  0
LWPOLYLINE
  5
33E
100
AcDbEntity
  8
0
100
AcDbPolyline
 62
250
  6
CONTINUOUS
 90
7
 70
0
 10
137.7447523507
 20
127.1546913365
 10
137.7457354151
 20
127.1560396003
 10
137.7485528026
 20
127.1634055498
 10
137.748673735
 20
127.1727511482
 10
137.7460961662
 20
127.183918259
 10
137.7408637109
 20
127.1967179239
 10
137.7330649075
 20
127.2109335601
  0
LWPOLYLINE
  5
33F
100
AcDbEntity
  8
0
100
AcDbPolyline
 62
7
  6
CONTINUOUS
 90
9
 70
0
 10
137.744727184
 20
127.1546603668
 10
137.7542013235
 20
127.167088705
 10
137.7678142623
 20
127.1879433237
 10
137.7796675872
 20
127.2102100164
 10
137.7896106565
 20
127.2337710099
 10
137.7972643279
 20
127.2577479712
 10
137.802628575
 20
127.2819049588
 10
137.8057717358
 20
127.3067349286
 10
137.8065660383
 20
127.3269099985
  0
LINE
  5
340
100
AcDbEntity
  8
0
100
AcDbLine
 62
250
  6
CONTINUOUS
 10
137.7330649075
 20
127.2109335601
 11
137.1921976017
 21
126.541646074
  0
LINE
  5
341
100
AcDbEntity
  8
0
100
AcDbLine
 62
7
  6
CONTINUOUS
 10
137.7447523507
 20
127.1546913365
 11
137.1921976017
 21
126.4709414131
  0
LWPOLYLINE
  5
342
100
AcDbEntity
  8
0
100
AcDbPolyline
 62
250
  6
CONTINUOUS
 90
13
 70
0
 10
141.3225851925
 20
124.8188172401
 10
141.3043533716
 20
124.8078622542
 10
141.2864679184
 20
124.7942134774
 10
141.2692281048
 20
124.778099291
 10
141.2529223992
 20
124.7597893295
 10
141.2378236398
 20
124.7395899684
 10
141.2241844695
 20
124.7178391982
 10
141.2122331078
 20
124.6949009681
 10
141.2021695326
 20
124.6711590968
 10
141.194162134
 20
124.6470108495
 10
141.1883448966
 20
124.6228602913
 10
141.184815158
 20
124.5991115256
 10
141.1836319793
 20
124.5761619327
  0
LINE
  5
343
100
AcDbEntity
  8
RACCORDO
100
AcDbLine
 62
7
  6
CONTINUOUS
 10
145.2054843702
 20
125.5545742811
 11
145.5193756596
 21
125.7239258329
  0
LINE
  5
344
100
AcDbEntity
  8
0
100
AcDbLine
 62
7
  6
CONTINUOUS
 10
142.9114215492
 20
124.1921557443
 11
142.6995746764
 21
124.0778594963
  0
LINE
  5
345
100
AcDbEntity
  8
RACCORDO
100
AcDbLine
 62
250
  6
CONTINUOUS
 10
145.4213920129
 20
125.5361224225
 11
145.7481358061
 21
125.712408195
  0
LWPOLYLINE
  5
346
100
AcDbEntity
  8
0
100
AcDbPolyline
 62
250
  6
CONTINUOUS
 90
9
 70
0
 10
143.7160571277
 20
127.5207170634
 10
143.7424235104
 20
127.5348260559
 10
143.7655986267
 20
127.5501988678
 10
143.7853333294
 20
127.566667647
 10
143.8014146789
 20
127.5840516103
 10
143.8136730661
 20
127.6021631456
 10
143.8219802406
 20
127.6208104745
 10
143.8262457628
 20
127.6397948057
 10
143.8268399096
 20
127.6514976594
  0
LWPOLYLINE
  5
347
100
AcDbEntity
  8
RACCORDO
100
AcDbPolyline
 62
250
  6
CONTINUOUS
 90
61
 70
0
 10
145.8701869686
 20
125.7703333267
 10
145.898072004
 20
125.7851697165
 10
145.9054694833
 20
125.7890714367
 10
145.9130986587
 20
125.7930259905
 10
145.9209604582
 20
125.7970339843
 10
145.9290539537
 20
125.8010948117
 10
145.9374320048
 20
125.8051846386
 10
145.9460952808
 20
125.8093039338
 10
145.9550431124
 20
125.8134522287
 10
145.9643263508
 20
125.8176042828
 10
145.9739497087
 20
125.8217621764
 10
145.9839084736
 20
125.8259238292
 10
145.9942393593
 20
125.8300577613
 10
146.0049449147
 20
125.8341648344
 10
146.016022591
 20
125.8382441867
 10
146.0275014562
 20
125.8422617526
 10
146.0393860689
 20
125.8462189136
 10
146.0516718704
 20
125.8501142884
 10
146.0643742523
 20
125.8539096671
 10
146.0775133661
 20
125.8576090287
 10
146.0910690603
 20
125.8612083944
 10
146.104996272
 20
125.8646576181
 10
146.1193261611
 20
125.8679581182
 10
146.1340275677
 20
125.8711084765
 10
146.1489619492
 20
125.8740542913
 10
146.1641321313
 20
125.876787957
 10
146.1795352883
 20
125.8793170793
 10
146.1950244003
 20
125.8816100742
 10
146.2105891712
 20
125.8836592815
 10
146.2262398972
 20
125.8854723615
 10
146.2418604465
 20
125.8870407107
 10
146.2574448577
 20
125.888359786
 10
146.2729990923
 20
125.8894341305
 10
146.288424903
 20
125.8902687704
 10
146.3037121697
 20
125.8908609167
 10
146.3188710126
 20
125.8912133584
 10
146.3338335453
 20
125.8913394884
 10
146.3485978561
 20
125.89123793
 10
146.3631658567
 20
125.8909100601
 10
146.3774753964
 20
125.8903734024
 10
146.3915311656
 20
125.8896256692
 10
146.4053284739
 20
125.8886691483
 10
146.418791099
 20
125.887528227
 10
146.4319030776
 20
125.8862026854
 10
146.4446803731
 20
125.8846927435
 10
146.4570946531
 20
125.8830234484
 10
146.4691391405
 20
125.881195525
 10
146.4808206125
 20
125.8792082485
 10
146.4921310685
 20
125.8770844908
 10
146.5030625896
 20
125.8748265006
 10
146.5136230947
 20
125.8724320292
 10
146.5238283404
 20
125.8699172029
 10
146.5336762279
 20
125.867284122
 10
146.5431688561
 20
125.8645306861
 10
146.5523282781
 20
125.8616667203
 10
146.5611549732
 20
125.8586938824
 10
146.5696484621
 20
125.8556105145
 10
146.5778293612
 20
125.8524214683
 10
146.5857045423
 20
125.8491283609
 10
146.5932671336
 20
125.8457295751
 10
146.6005171349
 20
125.8422251109
  0
LINE
  5
348
100
AcDbEntity
  8
0
100
AcDbLine
 62
7
  6
CONTINUOUS
 10
141.7176810013
 20
123.4548165899
 11
142.3997412316
 21
123.8064797493
  0
LINE
  5
349
100
AcDbEntity
  8
0
100
AcDbLine
 62
250
  6
CONTINUOUS
 10
141.3225851925
 20
124.8188172401
 11
141.5409312299
 21
124.9288321216
  0
LINE
  5
34A
100
AcDbEntity
  8
0
100
AcDbLine
 62
250
  6
CONTINUOUS
 10
141.4993349639
 20
124.5139689785
 11
141.7176810013
 21
124.62398386
  0
LINE
  5
34B
100
AcDbEntity
  8
RACCORDO
100
AcDbLine
 62
7
  6
CONTINUOUS
 10
145.519376493
 20
125.7239262825
 11
145.5297907811
 21
125.7291341839
  0
LINE
  5
34C
100
AcDbEntity
  8
0
100
AcDbLine
 62
7
  6
CONTINUOUS
 10
142.9114211191
 20
124.1921555457
 11
142.9166287553
 21
124.1947597425
  0
LINE
  5
34D
100
AcDbEntity
  8
0
100
AcDbLine
 62
7
  6
CONTINUOUS
 10
157.9457816295
 20
132.6369500219
 11
154.4102477235
 21
130.8691830689
  0
LINE
  5
34E
100
AcDbEntity
  8
0
100
AcDbLine
 62
7
  6
CONTINUOUS
 10
146.8523798595
 20
127.0180468294
 11
145.7711364899
 21
126.4774251445
  0
LINE
  5
34F
100
AcDbEntity
  8
0
100
AcDbLine
 62
7
  6
CONTINUOUS
 10
155.258775861
 20
130.4449190002
 11
158.7943097669
 21
132.2126859531
  0
LINE
  5
350
100
AcDbEntity
  8
0
100
AcDbLine
 62
7
  6
CONTINUOUS
 10
155.4709078953
 20
130.338852983
 11
159.0064418013
 21
132.106619936
  0
LINE
  5
351
100
AcDbEntity
  8
0
100
AcDbLine
 62
250
  6
CONTINUOUS
 10
141.5409312299
 20
124.9288321216
 11
142.1941499944
 21
125.2528334444
  0
LINE
  5
352
100
AcDbEntity
  8
0
100
AcDbLine
 62
250
  6
CONTINUOUS
 10
141.7176810013
 20
124.62398386
 11
142.3754494127
 21
124.9502418412
  0
LINE
  5
353
100
AcDbEntity
  8
0
100
AcDbLine
 62
250
  6
CONTINUOUS
 10
147.726113064
 20
128.0745702205
 11
145.4554463707
 21
126.9884560184
  0
LINE
  5
354
100
AcDbEntity
  8
0
100
AcDbLine
 62
250
  6
CONTINUOUS
 10
147.8997776566
 20
127.7719579263
 11
145.7742591764
 21
126.7552715869
  0
LINE
  5
355
100
AcDbEntity
  8
0
100
AcDbLine
 62
7
  6
CONTINUOUS
 10
144.8291931463
 20
126.853652767
 11
143.728501169
 21
126.3273294935
  0
LWPOLYLINE
  5
356
100
AcDbEntity
  8
RACCORDO
100
AcDbPolyline
 62
250
  6
CONTINUOUS
 90
6
 70
0
 10
145.8313812543
 20
125.7508537017
 10
145.8377268889
 20
125.7538493731
 10
145.8441213173
 20
125.7569454176
 10
145.8505645395
 20
125.7601418353
 10
145.8570342578
 20
125.7634417864
 10
145.8701869686
 20
125.7703333267
  0
LINE
  5
357
100
AcDbEntity
  8
RACCORDO
100
AcDbLine
 62
7
  6
CONTINUOUS
 10
145.5297904318
 20
125.7291339955
 11
145.6485811204
 21
125.7841061691
  0
LINE
  5
358
100
AcDbEntity
  8
RACCORDO
100
AcDbLine
 62
250
  6
CONTINUOUS
 10
145.7481358061
 20
125.712408195
 11
145.8313812543
 21
125.7508537017
  0
LINE
  5
359
100
AcDbEntity
  8
0
100
AcDbLine
 62
7
  6
CONTINUOUS
 10
143.5940627683
 20
124.5076212191
 11
142.9166289353
 21
124.1947598256
  0
LINE
  5
35A
100
AcDbEntity
  8
0
100
AcDbLine
 62
250
  6
CONTINUOUS
 10
143.7022294547
 20
124.4987937143
 11
143.0258016225
 21
124.1863969253
  0
LINE
  5
35B
100
AcDbEntity
  8
RACCORDO
100
AcDbLine
 62
7
  6
CONTINUOUS
 10
145.2054665029
 20
125.5545646412
 11
145.2220317773
 21
125.5621329378
  0
LINE
  5
35C
100
AcDbEntity
  8
RACCORDO
100
AcDbLine
 62
7
  6
CONTINUOUS
 10
145.5297907811
 20
125.7291341839
 11
145.539798793
 21
125.7334090668
  0
LWPOLYLINE
  5
35D
100
AcDbEntity
  8
0
100
AcDbPolyline
 62
7
  6
CONTINUOUS
 90
4
 70
0
 10
142.9166287553
 20
124.1947597425
 10
142.9216331159
 20
124.1968973612
 10
142.9372243208
 20
124.2015458016
 10
142.9539174607
 20
124.2036321212
  0
LWPOLYLINE
  5
35E
100
AcDbEntity
  8
RACCORDO
100
AcDbPolyline
 62
250
  6
CONTINUOUS
 90
8
 70
0
 10
145.6155870629
 20
125.768757723
 10
145.6260997332
 20
125.773227045
 10
145.6569373669
 20
125.7823012507
 10
145.6896172718
 20
125.7862555098
 10
145.7237814603
 20
125.7850465097
 10
145.7590557312
 20
125.7786874869
 10
145.7950537551
 20
125.76724812
 10
145.8313812543
 20
125.7508537017
  0
LWPOLYLINE
  5
35F
100
AcDbEntity
  8
0
100
AcDbPolyline
 62
250
  6
CONTINUOUS
 90
13
 70
0
 10
141.4993349639
 20
124.5139689785
 10
141.4796015537
 20
124.5056038709
 10
141.457873636
 20
124.498582383
 10
141.4345147773
 20
124.4930220032
 10
141.4099158341
 20
124.4890157716
 10
141.3844884128
 20
124.4866307232
 10
141.3586579827
 20
124.4859067662
 10
141.3328567562
 20
124.4868560145
 10
141.3075164574
 20
124.4894625845
 10
141.2830610975
 20
124.4936828613
 10
141.2598998804
 20
124.4994462284
 10
141.2384203557
 20
124.5066562491
 10
141.2189819335
 20
124.5151922804
  0
LWPOLYLINE
  5
360
100
AcDbEntity
  8
0
100
AcDbPolyline
 62
250
  6
CONTINUOUS
 90
22
 70
0
 10
158.7249127306
 20
130.8594576749
 10
158.754945073
 20
130.8720817
 10
158.7860669723
 20
130.8833343185
 10
158.8182784283
 20
130.8932155304
 10
158.8516275779
 20
130.9017114388
 10
158.8860662843
 20
130.9088359406
 10
158.9214501372
 20
130.9146307268
 10
158.9580371021
 20
130.9191294894
 10
158.9955692134
 20
130.9222985365
 10
159.0331281644
 20
130.9240784828
 10
159.0708545266
 20
130.9243754882
 10
159.1086077284
 20
130.9232833928
 10
159.145047748
 20
130.9210243313
 10
159.179619598
 20
130.9176256323
 10
159.2128782657
 20
130.9130599672
 10
159.2451486911
 20
130.9074674845
 10
159.2762752146
 20
130.9010303321
 10
159.3064134957
 20
130.8935663622
 10
159.3363554535
 20
130.8846692801
 10
159.3663650611
 20
130.8742036541
 10
159.3961783454
 20
130.8623049158
 10
159.4257953064
 20
130.8489730652
  0
LWPOLYLINE
  5
361
100
AcDbEntity
  8
0
100
AcDbPolyline
 62
250
  6
CONTINUOUS
 90
22
 70
0
 10
160.7845637019
 20
131.7516055093
 10
160.8149288376
 20
131.7643513973
 10
160.8463830894
 20
131.7756961015
 10
160.8789264573
 20
131.7856396219
 10
160.9126113749
 20
131.794166191
 10
160.9473854087
 20
131.8012915763
 10
160.983091258
 20
131.8070630797
 10
161.0200133729
 20
131.8115119242
 10
161.0578673034
 20
131.8146068868
 10
161.0956423989
 20
131.8163016005
 10
161.1334417577
 20
131.8164964925
 10
161.1711622815
 20
131.8152911355
 10
161.2074840254
 20
131.8129378809
 10
161.2418347051
 20
131.8094728903
 10
161.274786605
 20
131.804860002
 10
161.3067366333
 20
131.7992430822
 10
161.3375483903
 20
131.7928042987
 10
161.3673582758
 20
131.7853614838
 10
161.3969723966
 20
131.7765120001
 10
161.426659455
 20
131.7661216353
 10
161.4561507487
 20
131.7543246018
 10
161.4854462777
 20
131.7411208995
  0
LWPOLYLINE
  5
362
100
AcDbEntity
  8
RACCORDO
100
AcDbPolyline
 62
7
  6
CONTINUOUS
 90
4
 70
0
 10
145.539798793
 20
125.7334090668
 10
145.5709751258
 20
125.7427029091
 10
145.6043579921
 20
125.7468738416
 10
145.6392194297
 20
125.745808654
  0
LWPOLYLINE
  5
363
100
AcDbEntity
  8
0
100
AcDbPolyline
 62
250
  6
CONTINUOUS
 90
7
 70
0
 10
158.5196145797
 20
130.8818234275
 10
158.5504530698
 20
130.8908982287
 10
158.5831345689
 20
130.8948533191
 10
158.6173011372
 20
130.8936454194
 10
158.6525785782
 20
130.8872877966
 10
158.6885805379
 20
130.8758501155
 10
158.7249127306
 20
130.8594576749
  0
LINE
  5
364
100
AcDbEntity
  8
0
100
AcDbLine
 62
250
  6
CONTINUOUS
 10
150.3195656126
 20
79.6930790682
 11
149.7786983068
 21
79.8022820633
  0
LINE
  5
365
100
AcDbEntity
  8
0
100
AcDbLine
 62
250
  6
CONTINUOUS
 10
150.2464591854
 20
79.9478899765
 11
149.7786983068
 21
80.0423325291
  0
LWPOLYLINE
  5
366
100
AcDbEntity
  8
0
100
AcDbPolyline
 62
7
  6
CONTINUOUS
 90
7
 70
0
 10
148.7203123184
 20
79.5155034923
 10
148.749125928
 20
79.5091713882
 10
148.7775403999
 20
79.5035009291
 10
148.8047428342
 20
79.4984311627
 10
148.830314565
 20
79.4941375306
 10
148.8542082083
 20
79.4910257703
 10
148.8762475561
 20
79.4893572327
  0
LINE
  5
367
100
AcDbEntity
  8
0
100
AcDbLine
 62
7
  6
CONTINUOUS
 10
148.5625876091
 20
79.553421837
 11
148.5849839628
 21
79.5481844726
  0
LINE
  5
368
100
AcDbEntity
  8
0
100
AcDbLine
 62
7
  6
CONTINUOUS
 10
148.6629410607
 20
79.5291237586
 11
148.7203123184
 21
79.5155034923
  0
LINE
  5
369
100
AcDbEntity
  8
0
100
AcDbLine
 62
7
  6
CONTINUOUS
 10
148.5849839628
 20
79.5481844726
 11
148.6629410607
 21
79.5291237586
  0
LWPOLYLINE
  5
36A
100
AcDbEntity
  8
0
100
AcDbPolyline
 62
7
  6
CONTINUOUS
 90
12
 70
0
 10
144.1100113981
 20
78.4585543162
 10
144.1202030168
 20
78.4541345732
 10
144.1859416126
 20
78.4296108298
 10
144.2548350016
 20
78.410767633
 10
144.3263623837
 20
78.3980022473
 10
144.3998510882
 20
78.3916382916
 10
144.4748641135
 20
78.3918708973
 10
144.5508890343
 20
78.3988199797
 10
144.62724759
 20
78.4125088712
 10
144.7035140858
 20
78.4329177654
 10
144.7793860291
 20
78.4599931921
 10
144.787192674
 20
78.4631691578
  0
LWPOLYLINE
  5
36B
100
AcDbEntity
  8
0
100
AcDbPolyline
 62
250
  6
CONTINUOUS
 90
13
 70
0
 10
147.8411004871
 20
78.2592999792
 10
147.8605389093
 20
78.2507639479
 10
147.882018434
 20
78.2435539272
 10
147.9051796511
 20
78.2377905601
 10
147.929635011
 20
78.2335702833
 10
147.9549753098
 20
78.2309637132
 10
147.9807765363
 20
78.230014465
 10
148.0066069664
 20
78.2307384219
 10
148.0320343877
 20
78.2331234704
 10
148.0566333309
 20
78.237129702
 10
148.0799921896
 20
78.2426900818
 10
148.1017201073
 20
78.2497115697
 10
148.1214535175
 20
78.2580766772
  0
LWPOLYLINE
  5
36C
100
AcDbEntity
  8
0
100
AcDbPolyline
 62
250
  6
CONTINUOUS
 90
13
 70
0
 10
147.8411004871
 20
78.5765687795
 10
147.8605389103
 20
78.5680327479
 10
147.8820184359
 20
78.560822727
 10
147.9051796538
 20
78.5550593599
 10
147.9296350145
 20
78.5508390831
 10
147.9549753138
 20
78.5482325133
 10
147.9807765405
 20
78.5472832653
 10
148.0066069705
 20
78.5480072225
 10
148.0320343913
 20
78.5503922712
 10
148.0566333338
 20
78.5543985029
 10
148.0799921917
 20
78.5599588827
 10
148.1017201083
 20
78.5669803704
 10
148.1214535175
 20
78.5753454776
  0
LWPOLYLINE
  5
36D
100
AcDbEntity
  8
0
100
AcDbPolyline
 62
7
  6
CONTINUOUS
 90
10
 70
0
 10
147.9060213298
 20
78.1241089419
 10
147.9184799016
 20
78.1183381412
 10
147.9398147286
 20
78.1105312471
 10
147.9619937994
 20
78.1049367673
 10
147.9847809173
 20
78.1016518996
 10
148.0080138477
 20
78.1007437459
 10
148.0314432223
 20
78.1022740862
 10
148.0547336246
 20
78.1062501356
 10
148.0776561536
 20
78.1126484469
 10
148.1014908838
 20
78.1221041971
  0
LWPOLYLINE
  5
36E
100
AcDbEntity
  8
0
100
AcDbPolyline
 62
250
  6
CONTINUOUS
 90
12
 70
0
 10
144.1100360171
 20
78.4585434643
 10
144.076352704
 20
78.4752398467
 10
144.0261158833
 20
78.5074834544
 10
143.9799223664
 20
78.5466397654
 10
143.9380875547
 20
78.5924579569
 10
143.9008324863
 20
78.64464491
 10
143.8684060674
 20
78.7028390564
 10
143.8410588384
 20
78.7666556924
 10
143.8189380582
 20
78.835689453
 10
143.8021926384
 20
78.9095031695
 10
143.790969291
 20
78.9876068148
 10
143.785327649
 20
79.0693975822
  0
LINE
  5
36F
100
AcDbEntity
  8
0
100
AcDbLine
 62
7
  6
CONTINUOUS
 10
147.9063005367
 20
78.1239681525
 11
146.1254108275
 21
79.0144130071
  0
LINE
  5
370
100
AcDbEntity
  8
0
100
AcDbLine
 62
250
  6
CONTINUOUS
 10
147.8411004871
 20
78.2592999792
 11
146.2380634985
 21
79.0608184735
  0
LINE
  5
371
100
AcDbEntity
  8
0
100
AcDbLine
 62
250
  6
CONTINUOUS
 10
147.8411004871
 20
78.5765701843
 11
146.9056319688
 21
79.0443030387
  0
LINE
  5
372
100
AcDbEntity
  8
0
100
AcDbLine
 62
250
  6
CONTINUOUS
 10
146.7120676827
 20
79.1410851817
 11
146.5859713967
 21
79.2041335687
  0
LINE
  5
373
100
AcDbEntity
  8
0
100
AcDbLine
 62
250
  6
CONTINUOUS
 10
147.9297973997
 20
78.8081086709
 11
147.1471134254
 21
79.1994506581
  0
LWPOLYLINE
  5
374
100
AcDbEntity
  8
0
100
AcDbPolyline
 62
250
  6
CONTINUOUS
 90
16
 70
0
 10
147.9060270011
 20
78.1241054754
 10
147.9005502291
 20
78.1270969207
 10
147.8928627039
 20
78.1321465455
 10
147.8856010682
 20
78.1379797149
 10
147.878799753
 20
78.1445776505
 10
147.8724823395
 20
78.1519269699
 10
147.8666841048
 20
78.1599956618
 10
147.8614291902
 20
78.1687565152
 10
147.8567383936
 20
78.1781818556
 10
147.8526354072
 20
78.1882299631
 10
147.8491361254
 20
78.1988653833
 10
147.8462543679
 20
78.2100500313
 10
147.8440038137
 20
78.2217313447
 10
147.8423922223
 20
78.2338616002
 10
147.8414235879
 20
78.2463999058
 10
147.8411004871
 20
78.2592999792
  0
LWPOLYLINE
  5
375
100
AcDbEntity
  8
0
100
AcDbPolyline
 62
7
  6
CONTINUOUS
 90
10
 70
0
 10
129.3310077492
 20
85.848249049
 10
130.8104580332
 20
85.0196878193
 10
132.3959583433
 20
84.1561921987
 10
134.0072141814
 20
83.3033807233
 10
135.6438633986
 20
82.4614453961
 10
137.3055417924
 20
81.6305725002
 10
138.9918734122
 20
80.8109398299
 10
140.7024640606
 20
80.0027208986
 10
142.4369090735
 20
79.2060875991
 10
144.110853403
 20
78.4581819999
  0
LINE
  5
376
100
AcDbEntity
  8
0
100
AcDbLine
 62
7
  6
CONTINUOUS
 10
129.3313581482
 20
85.8480503191
 11
129.3310041881
 21
85.8482510707
  0
LWPOLYLINE
  5
377
100
AcDbEntity
  8
0
100
AcDbPolyline
 62
250
  6
CONTINUOUS
 90
31
 70
0
 10
129.036629483
 20
86.443737321
 10
129.4832678018
 20
86.190108664
 10
129.9319068099
 20
85.9375198657
 10
130.3825361101
 20
85.6859741855
 10
130.8350383614
 20
85.4355337797
 10
131.2895090838
 20
85.1861424703
 10
131.746261605
 20
84.9376280182
 10
132.2054397463
 20
84.6899150668
 10
132.6668887287
 20
84.4430899145
 10
133.1304766288
 20
84.1972240212
 10
133.5961635747
 20
83.9523383558
 10
134.0639731344
 20
83.7084204157
 10
134.5338663569
 20
83.4654904159
 10
135.0058997656
 20
83.2235192063
 10
135.4800004533
 20
82.9825443501
 10
135.9559318773
 20
82.7426844284
 10
136.4333748378
 20
82.5040951411
 10
136.9126226492
 20
82.2666243844
 10
137.3943634409
 20
82.0299320133
 10
137.8776773231
 20
81.7944704954
 10
138.3634704873
 20
81.5597970497
 10
138.8552226813
 20
81.3242558138
 10
139.3521409954
 20
81.0882726965
 10
139.85509226
 20
80.8514780573
 10
140.370164925
 20
80.6110859966
 10
140.8976493365
 20
80.3670919107
 10
141.4374920582
 20
80.1196477678
 10
141.9954154565
 20
79.8662846612
 10
142.573490749
 20
79.6062781603
 10
143.1700577762
 20
79.3406047845
 10
143.7853192897
 20
79.0693924194
  0
LWPOLYLINE
  5
378
100
AcDbEntity
  8
0
100
AcDbPolyline
 62
250
  6
CONTINUOUS
 90
8
 70
0
 10
128.913176874
 20
86.6063704241
 10
128.9170390387
 20
86.5806101544
 10
128.9257075016
 20
86.5552966104
 10
128.9390982142
 20
86.5306752302
 10
128.9570813412
 20
86.5069847404
 10
128.9794825197
 20
86.4844548423
 10
129.0060845497
 20
86.4633039836
 10
129.0366295004
 20
86.4437372413
  0
LWPOLYLINE
  5
379
100
AcDbEntity
  8
0
100
AcDbPolyline
 62
7
  6
CONTINUOUS
 90
14
 70
0
 10
128.9130570246
 20
86.6091800299
 10
128.9139383997
 20
86.588903679
 10
128.9218128094
 20
86.5010336273
 10
128.9360720413
 20
86.416478182
 10
128.9566077568
 20
86.335462704
 10
128.9832762164
 20
86.258238785
 10
129.0158560582
 20
86.1852665764
 10
129.054091236
 20
86.1169238664
 10
129.0977026112
 20
86.0534957148
 10
129.1462370933
 20
85.9954512719
 10
129.1992146419
 20
85.9431548103
 10
129.2561076556
 20
85.8968707448
 10
129.3161821893
 20
85.8568973114
 10
129.3314214039
 20
85.8480185455
  0
LWPOLYLINE
  5
37A
100
AcDbEntity
  8
0
100
AcDbPolyline
 62
250
  6
CONTINUOUS
 90
13
 70
0
 10
129.036629483
 20
86.443737321
 10
128.9401879298
 20
89.4063385075
 10
128.8612597938
 20
92.3788047893
 10
128.7998563544
 20
95.3609865316
 10
128.7559878538
 20
98.3528100886
 10
128.729664554
 20
101.3540483504
 10
128.7208904495
 20
104.3643174968
 10
128.7296648637
 20
107.3834622148
 10
128.755988415
 20
110.4113259733
 10
128.7998570596
 20
113.4475181348
 10
128.8612604879
 20
116.4918003727
 10
128.9401884059
 20
119.5440897094
 10
129.036629484
 20
122.6042252093
  0
LWPOLYLINE
  5
37B
100
AcDbEntity
  8
0
100
AcDbPolyline
 62
250
  6
CONTINUOUS
 90
9
 70
0
 10
128.9130206185
 20
122.7667065814
 10
128.913184928
 20
122.7561668856
 10
128.917047675
 20
122.7328658157
 10
128.9257165979
 20
122.7097312199
 10
128.9391076453
 20
122.686987405
 10
128.9570909813
 20
122.6648548888
 10
128.9794922444
 20
122.6435482623
 10
129.0060942382
 20
122.6232741086
 10
129.0366390372
 20
122.6042290001
  0
LWPOLYLINE
  5
37C
100
AcDbEntity
  8
0
100
AcDbPolyline
 62
7
  6
CONTINUOUS
 90
13
 70
0
 10
128.9130254452
 20
122.7668528349
 10
128.8199401493
 20
119.7590437869
 10
128.7419636144
 20
116.6943975022
 10
128.6813053891
 20
113.6382289928
 10
128.6379773705
 20
110.5907194197
 10
128.6119848172
 20
107.552026434
 10
128.6033313856
 20
104.5222984396
 10
128.6120196605
 20
101.5016899407
 10
128.6380473752
 20
98.4903529836
 10
128.6814111452
 20
95.4884324099
 10
128.7421060424
 20
92.4960804225
 10
128.8201205084
 20
89.5134656546
 10
128.9130466272
 20
86.6092460454
  0
LWPOLYLINE
  5
37D
100
AcDbEntity
  8
0
100
AcDbPolyline
 62
250
  6
CONTINUOUS
 90
21
 70
0
 10
129.0366294739
 20
122.6042252089
 10
129.041412218
 20
122.6792315027
 10
129.0504155616
 20
122.755706109
 10
129.0635914626
 20
122.8332732647
 10
129.0808634818
 20
122.9115502582
 10
129.1021472314
 20
122.9901560963
 10
129.1273537189
 20
123.0687134191
 10
129.1563533599
 20
123.146845895
 10
129.1889984586
 20
123.2241649529
 10
129.2251458966
 20
123.3002785208
 10
129.2646071321
 20
123.3748167541
 10
129.30718133
 20
123.4474159886
 10
129.3526810292
 20
123.5177054077
 10
129.400870602
 20
123.5853465242
 10
129.4515021994
 20
123.6500080218
 10
129.5043484358
 20
123.7113503266
 10
129.5591304582
 20
123.7690741937
 10
129.6155692339
 20
123.8229053512
 10
129.6734219885
 20
123.8725677143
 10
129.7324058476
 20
123.9178155409
 10
129.7921986484
 20
123.9584364824
  0
LWPOLYLINE
  5
37E
100
AcDbEntity
  8
0
100
AcDbPolyline
 62
250
  6
CONTINUOUS
 90
7
 70
0
 10
148.4301077425
 20
127.3784473051
 10
148.4516687791
 20
127.3907074935
 10
148.4698370815
 20
127.4042053857
 10
148.4843017181
 20
127.4187100721
 10
148.4948151146
 20
127.4339734111
 10
148.5011972869
 20
127.4497342643
 10
148.503332943
 20
127.466581072
  0
LWPOLYLINE
  5
37F
100
AcDbEntity
  8
0
100
AcDbPolyline
 62
7
  6
CONTINUOUS
 90
12
 70
0
 10
142.6995860497
 20
124.0778655492
 10
142.6914264884
 20
124.0732353723
 10
142.6722409526
 20
124.0603791428
 10
142.6544533479
 20
124.0455225444
 10
142.6383028922
 20
124.028853231
 10
142.623852635
 20
124.0103982279
 10
142.6113102143
 20
123.990347876
 10
142.60087313
 20
123.9689622792
 10
142.5926059209
 20
123.9462936845
 10
142.5866346812
 20
123.9224733562
 10
142.5830996283
 20
123.8978114981
 10
142.5820660095
 20
123.8751189986
  0
LINE
  5
380
100
AcDbEntity
  8
0
100
AcDbLine
 62
7
  6
CONTINUOUS
 10
141.4993349639
 20
123.3356150702
 11
141.7176810013
 21
123.4548165899
  0
LINE
  5
381
100
AcDbEntity
  8
0
100
AcDbLine
 62
250
  6
CONTINUOUS
 10
143.0258016225
 20
124.1863969253
 11
142.8149473052
 21
124.0726361838
  0
LINE
  5
382
100
AcDbEntity
  8
0
100
AcDbLine
 62
7
  6
CONTINUOUS
 10
144.2462929073
 20
124.5828650393
 11
143.8940362183
 21
124.4028903325
  0
LINE
  5
383
100
AcDbEntity
  8
0
100
AcDbLine
 62
250
  6
CONTINUOUS
 10
145.0348957938
 20
122.9626619395
 11
145.2532418311
 21
123.072676821
  0
LINE
  5
384
100
AcDbEntity
  8
0
100
AcDbLine
 62
250
  6
CONTINUOUS
 10
145.2116455651
 20
122.6578136779
 11
145.4299916025
 21
122.7678285594
  0
LINE
  5
385
100
AcDbEntity
  8
0
100
AcDbLine
 62
7
  6
CONTINUOUS
 10
155.7537506078
 20
130.1974316268
 11
159.2892845137
 21
131.9651985797
  0
LINE
  5
386
100
AcDbEntity
  8
0
100
AcDbLine
 62
7
  6
CONTINUOUS
 10
155.9658826422
 20
130.0913656096
 11
159.5014165481
 21
131.8591325625
  0
LINE
  5
387
100
AcDbEntity
  8
0
100
AcDbLine
 62
7
  6
CONTINUOUS
 10
156.2487253546
 20
129.9499442533
 11
159.7842592606
 21
131.7177112063
  0
LINE
  5
388
100
AcDbEntity
  8
0
100
AcDbLine
 62
7
  6
CONTINUOUS
 10
158.6014945439
 20
130.9141968136
 11
159.9963912949
 21
131.6116451891
  0
LINE
  5
389
100
AcDbEntity
  8
0
100
AcDbLine
 62
7
  6
CONTINUOUS
 10
159.2810334912
 20
130.9711235748
 11
160.2792340074
 21
131.4702238329
  0
LINE
  5
38A
100
AcDbEntity
  8
0
100
AcDbLine
 62
7
  6
CONTINUOUS
 10
159.5581514673
 20
130.8975505285
 11
160.4913660418
 21
131.3641578157
  0
LINE
  5
38B
100
AcDbEntity
  8
0
100
AcDbLine
 62
7
  6
CONTINUOUS
 10
159.846138521
 20
130.7587013429
 11
160.7742087542
 21
131.2227364595
  0
LINE
  5
38C
100
AcDbEntity
  8
0
100
AcDbLine
 62
7
  6
CONTINUOUS
 10
160.0582705554
 20
130.6526353257
 11
160.9863407886
 21
131.1166704423
  0
LINE
  5
38D
100
AcDbEntity
  8
0
100
AcDbLine
 62
250
  6
CONTINUOUS
 10
149.1637705352
 20
125.012327887
 11
145.2532418311
 21
123.072676821
  0
LINE
  5
38E
100
AcDbEntity
  8
0
100
AcDbLine
 62
250
  6
CONTINUOUS
 10
149.3405203065
 20
124.7074796254
 11
145.4299916025
 21
122.7678285594
  0
LINE
  5
38F
100
AcDbEntity
  8
0
100
AcDbLine
 62
7
  6
CONTINUOUS
 10
145.6070665343
 20
123.5463751745
 11
148.8699871587
 21
125.1095409555
  0
LINE
  5
390
100
AcDbEntity
  8
0
100
AcDbLine
 62
250
  6
CONTINUOUS
 10
145.6690334915
 20
123.5153916959
 11
148.9810846129
 21
125.1020944
  0
LINE
  5
391
100
AcDbEntity
  8
0
100
AcDbLine
 62
7
  6
CONTINUOUS
 10
149.4423118343
 20
124.1350240739
 11
149.863190378
 21
124.3366541511
  0
LINE
  5
392
100
AcDbEntity
  8
0
100
AcDbLine
 62
7
  6
CONTINUOUS
 10
150.1446819236
 20
124.6969686026
 11
152.310580363
 21
125.7342612365
  0
LINE
  5
393
100
AcDbEntity
  8
0
100
AcDbLine
 62
250
  6
CONTINUOUS
 10
150.1523669399
 20
124.6399957338
 11
152.4216504044
 21
125.7268015503
  0
LINE
  5
394
100
AcDbEntity
  8
0
100
AcDbLine
 62
7
  6
CONTINUOUS
 10
152.6092241029
 20
128.1525949298
 11
158.5091030225
 21
130.8773545301
  0
LINE
  5
395
100
AcDbEntity
  8
0
100
AcDbLine
 62
7
  6
CONTINUOUS
 10
160.10709541
 20
131.5562931316
 11
160.568753997
 21
131.7695023659
  0
LINE
  5
396
100
AcDbEntity
  8
0
100
AcDbLine
 62
250
  6
CONTINUOUS
 10
152.6067972834
 20
128.0339092141
 11
158.7249127306
 21
130.8594576749
  0
LINE
  5
397
100
AcDbEntity
  8
0
100
AcDbLine
 62
250
  6
CONTINUOUS
 10
160.2293254781
 20
131.4951780975
 11
160.7845637019
 21
131.7516055093
  0
LINE
  5
398
100
AcDbEntity
  8
0
100
AcDbLine
 62
7
  6
CONTINUOUS
 10
166.869169004
 20
133.6172240494
 11
160.246358404
 21
130.5585906419
  0
LINE
  5
399
100
AcDbEntity
  8
0
100
AcDbLine
 62
250
  6
CONTINUOUS
 10
167.0849787176
 20
133.5993271968
 11
160.2439315845
 21
130.4399049262
  0
LWPOLYLINE
  5
39A
100
AcDbEntity
  8
0
100
AcDbPolyline
 62
250
  6
CONTINUOUS
 90
7
 70
0
 10
152.3106158998
 20
125.7342782469
 10
152.3143987738
 20
125.7359890361
 10
152.3337201995
 20
125.7419586804
 10
152.3544615087
 20
125.7440265435
 10
152.3762756195
 20
125.7421579523
 10
152.3987975416
 20
125.7363841057
 10
152.421650403
 20
125.7268015497
  0
LINE
  5
39B
100
AcDbEntity
  8
0
100
AcDbLine
 62
250
  6
CONTINUOUS
 10
148.8699871587
 20
125.1095409555
 11
148.8743442176
 21
125.1114972816
  0
LWPOLYLINE
  5
39C
100
AcDbEntity
  8
0
100
AcDbPolyline
 62
250
  6
CONTINUOUS
 90
10
 70
0
 10
152.4216504044
 20
125.7268015503
 10
152.4738234187
 20
125.7494421768
 10
152.5255946238
 20
125.7672149802
 10
152.5766804349
 20
125.7800229596
 10
152.6267993807
 20
125.7877970294
 10
152.675677724
 20
125.7904945166
 10
152.7230509455
 20
125.7880993108
 10
152.7686578139
 20
125.7806254842
 10
152.8122476744
 20
125.7681143138
 10
152.8544382486
 20
125.7502073981
  0
LWPOLYLINE
  5
39D
100
AcDbEntity
  8
0
100
AcDbPolyline
 62
250
  6
CONTINUOUS
 90
31
 70
0
 10
148.9810846129
 20
125.1020944
 10
148.9911225643
 20
125.106393921
 10
149.0018075347
 20
125.1100933859
 10
149.0131395242
 20
125.1131927948
 10
149.0252600747
 20
125.1157150431
 10
149.0380276444
 20
125.1176372352
 10
149.0510176073
 20
125.1188906853
 10
149.064231698
 20
125.1194514516
 10
149.0776681819
 20
125.1193434758
 10
149.0908972296
 20
125.1185698975
 10
149.1039121525
 20
125.1171090242
 10
149.1167196391
 20
125.1149825483
 10
149.1289099257
 20
125.1122586866
 10
149.1404630516
 20
125.1089181806
 10
149.1513989775
 20
125.1049802888
 10
149.1613678213
 20
125.1005710034
 10
149.1703382545
 20
125.0956750618
 10
149.1783416055
 20
125.0903077266
 10
149.185121978
 20
125.0846407779
 10
149.1906399173
 20
125.0786645468
 10
149.194934878
 20
125.0723887022
 10
149.1978693274
 20
125.0660140314
 10
149.1993989726
 20
125.0595373786
 10
149.1995681066
 20
125.0529618996
 10
149.198372076
 20
125.0464978483
 10
149.1957629443
 20
125.0401466479
 10
149.1917886479
 20
125.0339068753
 10
149.1865883432
 20
125.0279845145
 10
149.1802084156
 20
125.0224482268
 10
149.1726024795
 20
125.017229351
 10
149.1637705352
 20
125.012327887
  0
LWPOLYLINE
  5
39E
100
AcDbEntity
  8
0
100
AcDbPolyline
 62
7
  6
CONTINUOUS
 90
3
 70
0
 10
147.4285979504
 20
122.3810337016
 10
147.4452355322
 20
122.3864960263
 10
147.4618224298
 20
122.3882188177
  0
LWPOLYLINE
  5
39F
100
AcDbEntity
  8
0
100
AcDbPolyline
 62
250
  6
CONTINUOUS
 90
6
 70
0
 10
148.8743442176
 20
125.1114972816
 10
148.8935996879
 20
125.1173360724
 10
148.9142512867
 20
125.1193156548
 10
148.9359573214
 20
125.1174034127
 10
148.9583586363
 20
125.1116311173
 10
148.9810846129
 20
125.1020944
  0
LWPOLYLINE
  5
3A0
100
AcDbEntity
  8
0
100
AcDbPolyline
 62
250
  6
CONTINUOUS
 90
3
 70
0
 10
150.2694951736
 20
79.9399765215
 10
150.2635489279
 20
79.9426724137
 10
150.2464599247
 20
79.9478895911
  0
LINE
  5
3A1
100
AcDbEntity
  8
0
100
AcDbLine
 62
7
  6
CONTINUOUS
 10
148.0467202279
 20
79.8058656903
 11
148.5258062682
 21
79.5663226702
  0
LINE
  5
3A2
100
AcDbEntity
  8
0
100
AcDbLine
 62
250
  6
CONTINUOUS
 10
149.7786983068
 20
80.1817615658
 11
150.2464591854
 21
79.9478899765
  0
LINE
  5
3A3
100
AcDbEntity
  8
0
100
AcDbLine
 62
7
  6
CONTINUOUS
 10
150.2697404199
 20
79.9398543492
 11
149.7786983068
 21
80.1853754058
  0
LWPOLYLINE
  5
3A4
100
AcDbEntity
  8
0
100
AcDbPolyline
 62
250
  6
CONTINUOUS
 90
13
 70
0
 10
147.9297973997
 20
78.8081086709
 10
147.9485104821
 20
78.7976710988
 10
147.9681034141
 20
78.7854702421
 10
147.9882446644
 20
78.771712551
 10
148.0085934234
 20
78.7566308191
 10
148.0288053706
 20
78.7404802437
 10
148.0485385002
 20
78.7235341082
 10
148.0674589087
 20
78.7060791575
 10
148.0852464445
 20
78.6884107464
 10
148.1016001252
 20
78.6708278414
 10
148.1162432308
 20
78.6536279623
 10
148.1289279858
 20
78.6371021475
 10
148.1394397519
 20
78.62153003
  0
LINE
  5
3A5
100
AcDbEntity
  8
RACCORDO
100
AcDbLine
 62
7
  6
CONTINUOUS
 10
144.0123175942
 20
124.3437496445
 11
145.1736630578
 21
125.530608101
  0
LINE
  5
3A6
100
AcDbEntity
  8
RACCORDO
100
AcDbLine
 62
250
  6
CONTINUOUS
 10
144.1728326005
 20
124.2634921414
 11
145.4191856059
 21
125.537225626
  0
LWPOLYLINE
  5
3A7
100
AcDbEntity
  8
RACCORDO
100
AcDbPolyline
 62
7
  6
CONTINUOUS
 90
4
 70
0
 10
145.1736943971
 20
125.5306260273
 10
145.1763924903
 20
125.5333074018
 10
145.1975597981
 20
125.5499422924
 10
145.2054665029
 20
125.5545646412
  0
LINE
  5
3A8
100
AcDbEntity
  8
0
100
AcDbLine
 62
7
  6
CONTINUOUS
 10
155.4709078953
 20
130.338852983
 11
155.3648418782
 21
130.261982181
  0
LINE
  5
3A9
100
AcDbEntity
  8
0
100
AcDbLine
 62
7
  6
CONTINUOUS
 10
155.9658826422
 20
130.0913656096
 11
155.859816625
 21
130.0144948076
  0
LWPOLYLINE
  5
3AA
100
AcDbEntity
  8
0
100
AcDbPolyline
 62
7
  6
CONTINUOUS
 90
9
 70
0
 10
150.1446800959
 20
124.6970116794
 10
150.1432322303
 20
124.6961263035
 10
150.1391168031
 20
124.6915754379
 10
150.1349338194
 20
124.6840147096
 10
150.1308102346
 20
124.6732180579
 10
150.126915905
 20
124.6594227236
 10
150.1235373584
 20
124.6434730219
 10
150.1208402388
 20
124.6256560455
 10
150.1188441489
 20
124.6056988963
  0
LWPOLYLINE
  5
3AB
100
AcDbEntity
  8
0
100
AcDbPolyline
 62
7
  6
CONTINUOUS
 90
12
 70
0
 10
145.8572812713
 20
121.5334364402
 10
145.8459618726
 20
121.5269361718
 10
145.8236769202
 20
121.5115952309
 10
145.8027861561
 20
121.493604267
 10
145.7836002596
 20
121.4731618196
 10
145.7668300891
 20
121.4511399094
 10
145.7521701537
 20
121.4272646404
 10
145.7396953655
 20
121.4014524904
 10
145.7300563414
 20
121.3750036699
 10
145.7232473708
 20
121.3482481828
 10
145.7191490337
 20
121.3204383504
 10
145.7180205952
 20
121.2963727521
  0
LWPOLYLINE
  5
3AC
100
AcDbEntity
  8
0
100
AcDbPolyline
 62
250
  6
CONTINUOUS
 90
12
 70
0
 10
145.9496843217
 20
121.5293146946
 10
145.9414283582
 20
121.5247422954
 10
145.9329428262
 20
121.5195439638
 10
145.9242509583
 20
121.5136880677
 10
145.9153605539
 20
121.5071303446
 10
145.9063220442
 20
121.4998568354
 10
145.8972261646
 20
121.4918955942
 10
145.8881085341
 20
121.4832367144
 10
145.8790082476
 20
121.4738746557
 10
145.8700195875
 20
121.4638693334
 10
145.8611824878
 20
121.4532329284
 10
145.8525380418
 20
121.4419811459
  0
LINE
  5
3AD
100
AcDbEntity
  8
0
100
AcDbLine
 62
7
  6
CONTINUOUS
 10
145.4299916025
 20
121.5986612893
 11
145.2116455651
 21
121.4794597696
  0
LINE
  5
3AE
100
AcDbEntity
  8
0
100
AcDbLine
 62
7
  6
CONTINUOUS
 10
147.4244310092
 20
122.3789499597
 11
145.8571877007
 21
121.5333862396
  0
LINE
  5
3AF
100
AcDbEntity
  8
0
100
AcDbLine
 62
250
  6
CONTINUOUS
 10
147.5159350678
 20
122.3743429046
 11
145.9496843217
 21
121.5293146946
  0
LINE
  5
3B0
100
AcDbEntity
  8
0
100
AcDbLine
 62
250
  6
CONTINUOUS
 10
149.6372984897
 20
121.3136611936
 11
148.015398363
 21
120.4964576739
  0
LINE
  5
3B1
100
AcDbEntity
  8
0
100
AcDbLine
 62
7
  6
CONTINUOUS
 10
147.4244315684
 20
122.3789502179
 11
147.4285979504
 21
122.3810337016
  0
LINE
  5
3B2
100
AcDbEntity
  8
0
100
AcDbLine
 62
7
  6
CONTINUOUS
 10
145.4299916025
 20
121.5986612893
 11
149.3283535429
 21
123.5322775509
  0
LINE
  5
3B3
100
AcDbEntity
  8
0
100
AcDbLine
 62
250
  6
CONTINUOUS
 10
150.1614029562
 20
121.5736208728
 11
149.6372984897
 21
121.3136611936
  0
LINE
  5
3B4
100
AcDbEntity
  8
0
100
AcDbLine
 62
250
  6
CONTINUOUS
 10
155.1816646601
 20
124.3467944225
 11
149.8169133879
 21
121.8058155994
  0
LINE
  5
3B5
100
AcDbEntity
  8
0
100
AcDbLine
 62
250
  6
CONTINUOUS
 10
155.280426828
 20
124.245470437
 11
149.9690245577
 21
121.7297600145
  0
LINE
  5
3B6
100
AcDbEntity
  8
0
100
AcDbLine
 62
7
  6
CONTINUOUS
 10
147.9723372455
 20
122.6321505269
 11
147.4285969181
 21
122.3810332248
  0
LINE
  5
3B7
100
AcDbEntity
  8
0
100
AcDbLine
 62
250
  6
CONTINUOUS
 10
148.0586611305
 20
122.6249917857
 11
147.5159350678
 21
122.3743429046
  0
LWPOLYLINE
  5
3B8
100
AcDbEntity
  8
0
100
AcDbPolyline
 62
250
  6
CONTINUOUS
 90
13
 70
0
 10
148.1214535175
 20
120.1922184174
 10
148.1017201073
 20
120.1838533098
 10
148.0799921896
 20
120.1768318219
 10
148.0566333309
 20
120.1712714421
 10
148.0320343877
 20
120.1672652105
 10
148.0066069664
 20
120.1648801621
 10
147.9807765363
 20
120.1641562051
 10
147.9549753098
 20
120.1651054534
 10
147.929635011
 20
120.1677120234
 10
147.9051796511
 20
120.1719323002
 10
147.882018434
 20
120.1776956673
 10
147.8605389093
 20
120.184905688
 10
147.8411004871
 20
120.1934417193
  0
LINE
  5
3B9
100
AcDbEntity
  8
0
100
AcDbLine
 62
250
  6
CONTINUOUS
 10
149.6006361376
 20
83.3390931769
 11
150.625497137
 21
82.8266626772
  0
LINE
  5
3BA
100
AcDbEntity
  8
0
100
AcDbLine
 62
7
  6
CONTINUOUS
 10
149.6130016203
 20
83.4016225737
 11
150.7504088638
 21
82.832918952
  0
LINE
  5
3BB
100
AcDbEntity
  8
DRAFT
100
AcDbLine
 62
7
  6
CONTINUOUS
 10
149.920119663
 20
83.3122121077
 11
149.6231071114
 21
83.4607183836
  0
LINE
  5
3BC
100
AcDbEntity
  8
0
100
AcDbLine
 62
250
  6
CONTINUOUS
 10
150.264405507
 20
79.9371047177
 11
150.2464083307
 21
79.9479002443
  0
LWPOLYLINE
  5
3BD
100
AcDbEntity
  8
0
100
AcDbPolyline
 62
7
  6
CONTINUOUS
 90
12
 70
0
 10
133.1315194236
 20
127.2723163019
 10
133.1316530431
 20
127.2641895572
 10
133.1338358162
 20
127.2384217379
 10
133.1386834477
 20
127.2132442896
 10
133.1461461981
 20
127.1889753962
 10
133.1560505207
 20
127.1660087334
 10
133.1682613026
 20
127.144494355
 10
133.1826784077
 20
127.1245599579
 10
133.1990607488
 20
127.10650561
 10
133.2171593128
 20
127.0905208826
 10
133.236868096
 20
127.0766487273
 10
133.2550991924
 20
127.0664427983
  0
LINE
  5
3BE
100
AcDbEntity
  8
0
100
AcDbLine
 62
7
  6
CONTINUOUS
 10
133.1315198622
 20
127.2723163022
 11
133.1315198156
 21
127.5896534112
  0
LINE
  5
3BF
100
AcDbEntity
  8
0
100
AcDbLine
 62
250
  6
CONTINUOUS
 10
133.1900984593
 20
127.2016912834
 11
133.1900984593
 21
127.5189427332
  0
LINE
  5
3C0
100
AcDbEntity
  8
0
100
AcDbLine
 62
7
  6
CONTINUOUS
 10
133.846382936
 20
126.3168257909
 11
133.846382936
 21
126.7707998926
  0
LINE
  5
3C1
100
AcDbEntity
  8
0
100
AcDbLine
 62
250
  6
CONTINUOUS
 10
133.9196062407
 20
126.2251140961
 11
133.9196062407
 21
126.7341882403
  0
LINE
  5
3C2
100
AcDbEntity
  8
0
100
AcDbLine
 62
7
  6
CONTINUOUS
 10
134.0523436729
 20
125.4613521731
 11
134.0523436729
 21
126.6692349124
  0
LINE
  5
3C3
100
AcDbEntity
  8
0
100
AcDbLine
 62
250
  6
CONTINUOUS
 10
134.1255669776
 20
125.3696404782
 11
134.1255669776
 21
126.7339396737
  0
LINE
  5
3C4
100
AcDbEntity
  8
0
100
AcDbLine
 62
250
  6
CONTINUOUS
 10
134.3191312637
 20
125.2728583352
 11
134.3191312637
 21
126.6371575306
  0
LINE
  5
3C5
100
AcDbEntity
  8
0
100
AcDbLine
 62
250
  6
CONTINUOUS
 10
134.6695725516
 20
125.2824777991
 11
134.6695725516
 21
126.3592050848
  0
LINE
  5
3C6
100
AcDbEntity
  8
0
100
AcDbLine
 62
7
  6
CONTINUOUS
 10
135.2122986143
 20
126.0878420534
 11
135.2122986143
 21
125.5787679093
  0
LWPOLYLINE
  5
3C7
100
AcDbEntity
  8
0
100
AcDbPolyline
 62
250
  6
CONTINUOUS
 90
28
 70
0
 10
135.5349528124
 20
126.4854687699
 10
135.5349822703
 20
126.4875565708
 10
135.5351117448
 20
126.4897343476
 10
135.5353412358
 20
126.4920021004
 10
135.5356661724
 20
126.4943703622
 10
135.5360911256
 20
126.4968285999
 10
135.5366298077
 20
126.4993452143
 10
135.5372858726
 20
126.5019230989
 10
135.5380556664
 20
126.5045593602
 10
135.5389419404
 20
126.5072137187
 10
135.5399485881
 20
126.5098874909
 10
135.5410717159
 20
126.5125793602
 10
135.5423023935
 20
126.5152450973
 10
135.5436430391
 20
126.517882841
 10
135.5450912345
 20
126.5204944525
 10
135.5466307954
 20
126.5230412851
 10
135.5482627592
 20
126.5255207748
 10
135.5499860884
 20
126.5279354856
 10
135.5517814864
 20
126.5302544627
 10
135.5536499768
 20
126.5324761105
 10
135.555590536
 20
126.5346020247
 10
135.5575807958
 20
126.5366060378
 10
135.5596215915
 20
126.5384864069
 10
135.5617120878
 20
126.540244875
 10
135.5638274116
 20
126.5418605039
 10
135.5659592719
 20
126.5433263141
 10
135.5681159597
 20
126.5446492852
 10
135.570297475
 20
126.5458294171
  0
LWPOLYLINE
  5
3C8
100
AcDbEntity
  8
0
100
AcDbPolyline
 62
250
  6
CONTINUOUS
 90
18
 70
0
 10
133.1900984593
 20
127.5189427332
 10
133.1902948042
 20
127.5292554821
 10
133.190906857
 20
127.5400655519
 10
133.1919701946
 20
127.5513626133
 10
133.1935240624
 20
127.5631573902
 10
133.1956011449
 20
127.5754044764
 10
133.1982169244
 20
127.5879996874
 10
133.2013941719
 20
127.6009109791
 10
133.2051537008
 20
127.6141009392
 10
133.2094864873
 20
127.6274482771
 10
133.214399281
 20
127.6409081516
 10
133.2198959961
 20
127.6544314244
 10
133.2259408472
 20
127.6678878576
 10
133.232520376
 20
127.6812210809
 10
133.2396239308
 20
127.6943846228
 10
133.2472005623
 20
127.7072675971
 10
133.2552179791
 20
127.7198091147
 10
133.263657362
 20
127.7319739109
  0
LWPOLYLINE
  5
3C9
100
AcDbEntity
  8
0
100
AcDbPolyline
 62
250
  6
CONTINUOUS
 90
28
 70
0
 10
135.254599782
 20
126.4866920719
 10
135.2548008858
 20
126.4971033165
 10
135.2554277594
 20
126.5079990112
 10
135.2565145634
 20
126.51936762
 10
135.2580988089
 20
126.5312184074
 10
135.2602117145
 20
126.5435053255
 10
135.2628677205
 20
126.5561244518
 10
135.2660880727
 20
126.5690431178
 10
135.2698917733
 20
126.5822236069
 10
135.2742685717
 20
126.5955457676
 10
135.2792234612
 20
126.6089638309
 10
135.2847590952
 20
126.6224301894
 10
135.290839969
 20
126.6358197251
 10
135.2974501169
 20
126.6490732356
 10
135.3045797301
 20
126.6621489267
 10
135.3121854186
 20
126.6749514679
 10
135.3202384493
 20
126.6874237398
 10
135.3287186296
 20
126.6995262959
 10
135.3375859524
 20
126.7111957746
 10
135.3468088109
 20
126.7223861442
 10
135.3563564438
 20
126.7330558764
 10
135.3661853214
 20
126.7431539143
 10
135.3762603255
 20
126.7526425112
 10
135.3865449285
 20
126.761485666
 10
135.3969905523
 20
126.7696418638
 10
135.4075550977
 20
126.7770798406
 10
135.4182037295
 20
126.7837763545
 10
135.4288976579
 20
126.7897080264
  0
LWPOLYLINE
  5
3CA
100
AcDbEntity
  8
0
100
AcDbPolyline
 62
250
  6
CONTINUOUS
 90
7
 70
0
 10
137.8065660521
 20
127.6668361092
 10
137.8051105228
 20
127.6547935477
 10
137.800340426
 20
127.6420798371
 10
137.7923279627
 20
127.6297803655
 10
137.7812072031
 20
127.6181009361
 10
137.7671642273
 20
127.6072369772
 10
137.7504340122
 20
127.5973702722
  0
LWPOLYLINE
  5
3CB
100
AcDbEntity
  8
0
100
AcDbPolyline
 62
250
  6
CONTINUOUS
 90
7
 70
0
 10
137.8065660521
 20
127.3268925144
 10
137.8051105223
 20
127.3148499508
 10
137.800340425
 20
127.3021362404
 10
137.7923279615
 20
127.2898367692
 10
137.7812072019
 20
127.2781573402
 10
137.7671642265
 20
127.2672933819
 10
137.7504340122
 20
127.2574266773
  0
LWPOLYLINE
  5
3CC
100
AcDbEntity
  8
0
100
AcDbPolyline
 62
250
  6
CONTINUOUS
 90
7
 70
0
 10
150.3369347173
 20
121.3041199196
 10
150.3536649202
 20
121.3139866165
 10
150.3677078901
 20
121.3248505674
 10
150.3788286493
 20
121.3365299897
 10
150.3868411164
 20
121.3488294559
 10
150.3916112202
 20
121.3615431632
 10
150.3930667572
 20
121.3735857568
  0
LWPOLYLINE
  5
3CD
100
AcDbEntity
  8
0
100
AcDbPolyline
 62
250
  6
CONTINUOUS
 90
7
 70
0
 10
150.3369347173
 20
120.9641763247
 10
150.3536649324
 20
120.9740430298
 10
150.3677079082
 20
120.9849069887
 10
150.3788286678
 20
120.996586418
 10
150.3868411311
 20
121.0088858897
 10
150.3916112279
 20
121.0215996003
 10
150.3930667572
 20
121.0336421618
  0
LINE
  5
3CE
100
AcDbEntity
  8
0
100
AcDbLine
 62
250
  6
CONTINUOUS
 10
156.3343700471
 20
123.4785928907
 11
156.317639832
 21
123.4687261856
  0
LWPOLYLINE
  5
3CF
100
AcDbEntity
  8
0
100
AcDbPolyline
 62
250
  6
CONTINUOUS
 90
22
 70
0
 10
144.9411468497
 20
116.0267364031
 10
144.9053161722
 20
116.005970251
 10
144.8700859862
 20
115.982596212
 10
144.8354562915
 20
115.9566142863
 10
144.8012447871
 20
115.9278609918
 10
144.7676337741
 20
115.8964998105
 10
144.7351701561
 20
115.8630211881
 10
144.7038880861
 20
115.8274036482
 10
144.673753411
 20
115.7896686671
 10
144.6452105755
 20
115.75037112
 10
144.6182825706
 20
115.7094856964
 10
144.5929464054
 20
115.6670377067
 10
144.5695775507
 20
115.6236579577
 10
144.548206199
 20
115.5793320564
 10
144.5288021579
 20
115.5340743958
 10
144.5116503208
 20
115.4885589612
 10
144.4967847136
 20
115.442765127
 10
144.4841713104
 20
115.3967135187
 10
144.473992927
 20
115.3511399988
 10
144.4663105021
 20
115.3062898547
 10
144.4610630971
 20
115.2619177989
 10
144.4582507119
 20
115.2180238315
  0
LWPOLYLINE
  5
3D0
100
AcDbEntity
  8
0
100
AcDbPolyline
 62
250
  6
CONTINUOUS
 90
10
 70
0
 10
156.2672432587
 20
123.3420563538
 10
156.2706977974
 20
123.3439985973
 10
156.281297867
 20
123.3516036979
 10
156.2907191583
 20
123.3610515952
 10
156.2988585588
 20
123.3722435009
 10
156.3056222801
 20
123.3850558005
 10
156.3109324161
 20
123.3993433062
 10
156.314730049
 20
123.4149464466
 10
156.3169740962
 20
123.4316949644
 10
156.317639832
 20
123.4494042602
  0
LWPOLYLINE
  5
3D1
100
AcDbEntity
  8
0
100
AcDbPolyline
 62
7
  6
CONTINUOUS
 90
7
 70
0
 10
156.2892739449
 20
123.6725421684
 10
156.2928573642
 20
123.6745119805
 10
156.2963354314
 20
123.6766345554
 10
156.2997081465
 20
123.6789098931
 10
156.3029755096
 20
123.6813379934
 10
156.3061375206
 20
123.6839188566
 10
156.3091941796
 20
123.6866524825
  0
LWPOLYLINE
  5
3D2
100
AcDbEntity
  8
0
100
AcDbPolyline
 62
250
  6
CONTINUOUS
 90
28
 70
0
 10
148.015398363
 20
120.4964576739
 10
148.0064738599
 20
120.4915620139
 10
147.9973858489
 20
120.4860090005
 10
147.9881611329
 20
120.4797781397
 10
147.9788109846
 20
120.4728374366
 10
147.9693874919
 20
120.4651844446
 10
147.9599809989
 20
120.4568576455
 10
147.9506272515
 20
120.4478591993
 10
147.9413645757
 20
120.4381954833
 10
147.9322837692
 20
120.4279356977
 10
147.9234238146
 20
120.4171051808
 10
147.9148190861
 20
120.4057265407
 10
147.9065453676
 20
120.3938849998
 10
147.898640961
 20
120.3816281006
 10
147.8911297412
 20
120.3689853067
 10
147.8840570018
 20
120.3560262913
 10
147.8774524637
 20
120.3428038402
 10
147.8713358424
 20
120.3293557391
 10
147.8657318215
 20
120.315733202
 10
147.8606606524
 20
120.3019833895
 10
147.8561410342
 20
120.2881548243
 10
147.8521913712
 20
120.2743018612
 10
147.8488256646
 20
120.2604732358
 10
147.846055788
 20
120.2467175111
 10
147.8438924426
 20
120.2330886153
 10
147.8423427907
 20
120.2196360938
 10
147.8414112612
 20
120.2064050798
 10
147.8411004871
 20
120.1934417193
  0
LINE
  5
3D3
100
AcDbEntity
  8
0
100
AcDbLine
 62
7
  6
CONTINUOUS
 10
147.7987993195
 20
119.2855175567
 11
147.2560732568
 21
118.9892274465
  0
LINE
  5
3D4
100
AcDbEntity
  8
0
100
AcDbLine
 62
250
  6
CONTINUOUS
 10
144.57846602
 20
116.6312474985
 11
148.8156154674
 21
118.9067262307
  0
LINE
  5
3D5
100
AcDbEntity
  8
0
100
AcDbLine
 62
250
  6
CONTINUOUS
 10
150.1322516974
 20
118.8145183363
 11
144.9411468497
 21
116.0267364031
  0
LINE
  5
3D6
100
AcDbEntity
  8
0
100
AcDbLine
 62
250
  6
CONTINUOUS
 10
156.317639832
 20
123.4494042602
 11
149.8989159239
 21
120.0561893801
  0
LINE
  5
3D7
100
AcDbEntity
  8
0
100
AcDbLine
 62
7
  6
CONTINUOUS
 10
156.2672432587
 20
123.3420563538
 11
149.9773747111
 21
120.0169599865
  0
LWPOLYLINE
  5
3D8
100
AcDbEntity
  8
0
100
AcDbPolyline
 62
250
  6
CONTINUOUS
 90
28
 70
0
 10
148.1567981801
 20
120.2525790646
 10
148.154978283
 20
120.2516181938
 10
148.1531371667
 20
120.2505188068
 10
148.1512748313
 20
120.2492809035
 10
148.1493805713
 20
120.2479027832
 10
148.1474650922
 20
120.2463861466
 10
148.1455605104
 20
120.244736096
 10
148.1436664542
 20
120.2429479491
 10
148.1417832952
 20
120.2410263883
 10
148.1399442647
 20
120.2389905627
 10
148.1381507486
 20
120.23683715
 10
148.1364013609
 20
120.2345694724
 10
148.1347251753
 20
120.232216646
 10
148.1331250208
 20
120.2297782489
 10
148.1315980683
 20
120.2272547029
 10
148.1301649045
 20
120.224676389
 10
148.1288277197
 20
120.2220438598
 10
148.1275843236
 20
120.2193565627
 10
148.1264487321
 20
120.2166432204
 10
148.1254221829
 20
120.2139033833
 10
148.1245034381
 20
120.211137501
 10
148.1237028007
 20
120.2083756447
 10
148.1230217165
 20
120.205617867
 10
148.1224587396
 20
120.2028641153
 10
148.1220198347
 20
120.2001443031
 10
148.1217069902
 20
120.1974684017
 10
148.1215182178
 20
120.1948264398
 10
148.1214535175
 20
120.1922184174
  0
LINE
  5
3D9
100
AcDbEntity
  8
0
100
AcDbLine
 62
7
  6
CONTINUOUS
 10
156.2892739449
 20
123.6725421684
 11
149.8942245545
 21
120.3206471444
  0
LWPOLYLINE
  5
3DA
100
AcDbEntity
  8
0
100
AcDbPolyline
 62
7
  6
CONTINUOUS
 90
7
 70
0
 10
148.8762475561
 20
118.9315391164
 10
148.8670843178
 20
118.9267747024
 10
148.8575119191
 20
118.922249165
 10
148.8475538834
 20
118.9179724787
 10
148.8372347099
 20
118.9139540246
 10
148.8265798145
 20
118.9102025671
 10
148.8156154674
 20
118.9067262307
  0
LINE
  5
3DB
100
AcDbEntity
  8
0
100
AcDbLine
 62
250
  6
CONTINUOUS
 10
149.7786983068
 20
121.0697825843
 11
148.1567981801
 21
120.2525790646
  0
LINE
  5
3DC
100
AcDbEntity
  8
0
100
AcDbLine
 62
250
  6
CONTINUOUS
 10
150.3028027733
 20
121.3297422635
 11
149.7786983068
 21
121.0697825843
  0
LINE
  5
3DD
100
AcDbEntity
  8
0
100
AcDbLine
 62
250
  6
CONTINUOUS
 10
150.4735163411
 20
119.7688891715
 11
149.7787009685
 21
119.4243091664
  0
LINE
  5
3DE
100
AcDbEntity
  8
0
100
AcDbLine
 62
250
  6
CONTINUOUS
 10
150.8270158838
 20
119.1591926482
 11
150.1322516974
 21
118.8145844899
  0
LINE
  5
3DF
100
AcDbEntity
  8
DRAFT
100
AcDbLine
 62
7
  6
CONTINUOUS
 10
150.5408771328
 20
119.72700382
 11
156.9400627734
 21
122.8354024057
  0
LWPOLYLINE
  5
3E0
100
AcDbEntity
  8
0
100
AcDbPolyline
 62
250
  6
CONTINUOUS
 90
9
 70
0
 10
174.4004220646
 20
129.9416055233
 10
174.4612555681
 20
129.9675045895
 10
174.5215615321
 20
129.9867372553
 10
174.5808911085
 20
129.9991551558
 10
174.6388072258
 20
130.0046606141
 10
174.6948721829
 20
130.0032056713
 10
174.7486527492
 20
129.9947987697
 10
174.7997437787
 20
129.9795043036
 10
174.8349629423
 20
129.964134649
  0
LWPOLYLINE
  5
3E1
100
AcDbEntity
  8
0
100
AcDbPolyline
 62
250
  6
CONTINUOUS
 90
13
 70
0
 10
148.1214535175
 20
119.874949617
 10
148.1017200672
 20
119.8665844738
 10
148.0799921108
 20
119.8595629617
 10
148.0566332187
 20
119.8540025681
 10
148.0320342507
 20
119.8499963315
 10
148.0066068153
 20
119.8476112853
 10
147.9807763821
 20
119.8468873361
 10
147.9549751644
 20
119.8478365959
 10
147.9296348851
 20
119.8504431791
 10
147.9051795519
 20
119.8546634693
 10
147.8820183662
 20
119.8604268487
 10
147.8605388756
 20
119.8676368797
 10
147.8411004871
 20
119.8761729188
  0
LINE
  5
3E2
100
AcDbEntity
  8
0
100
AcDbLine
 62
250
  6
CONTINUOUS
 10
135.254599782
 20
126.1694232715
 11
135.254599782
 21
126.4866920719
  0
LINE
  5
3E3
100
AcDbEntity
  8
0
100
AcDbLine
 62
250
  6
CONTINUOUS
 10
135.5349528124
 20
126.1681999696
 11
135.5349528124
 21
126.4854687699
  0
LINE
  5
3E4
100
AcDbEntity
  8
0
100
AcDbLine
 62
250
  6
CONTINUOUS
 10
135.9393055631
 20
125.2152644349
 11
135.9393055631
 21
125.8954357232
  0
LINE
  5
3E5
100
AcDbEntity
  8
0
100
AcDbLine
 62
250
  6
CONTINUOUS
 10
136.289746851
 20
125.9830843449
 11
136.289746851
 21
125.2248838988
  0
LINE
  5
3E6
100
AcDbEntity
  8
0
100
AcDbLine
 62
7
  6
CONTINUOUS
 10
137.1921976017
 20
125.7175582897
 11
137.1921976017
 21
127.3630329369
  0
LINE
  5
3E7
100
AcDbEntity
  8
0
100
AcDbLine
 62
250
  6
CONTINUOUS
 10
137.7504340122
 20
127.5973702722
 11
137.7504340122
 21
127.2574266773
  0
LINE
  5
3E8
100
AcDbEntity
  8
0
100
AcDbLine
 62
7
  6
CONTINUOUS
 10
137.8065660404
 20
127.6668703018
 11
137.8065660521
 21
127.3268925144
  0
LWPOLYLINE
  5
3E9
100
AcDbEntity
  8
0
100
AcDbPolyline
 62
250
  6
CONTINUOUS
 90
22
 70
0
 10
137.7504340122
 20
127.2574266773
 10
137.750411468
 20
127.2555961123
 10
137.7503154406
 20
127.2536914202
 10
137.7501459302
 20
127.2517126012
 10
137.7499065086
 20
127.2496532937
 10
137.7495936039
 20
127.2475198593
 10
137.7491965004
 20
127.2453313822
 10
137.7487132966
 20
127.2430858703
 10
137.7481458939
 20
127.2407853157
 10
137.7474892806
 20
127.238454779
 10
137.7467412681
 20
127.2360928532
 10
137.745904045
 20
127.2337009452
 10
137.7449791655
 20
127.2313083373
 10
137.7439644083
 20
127.2289144743
 10
137.7428619946
 20
127.2265199113
 10
137.7416801422
 20
127.2241555955
 10
137.7404168626
 20
127.221821962
 10
137.7390741444
 20
127.2195185755
 10
137.7376661714
 20
127.217275078
 10
137.7361976715
 20
127.2151013498
 10
137.7346639169
 20
127.2129875105
 10
137.7330649075
 20
127.2109335601
  0
LWPOLYLINE
  5
3EA
100
AcDbEntity
  8
0
100
AcDbPolyline
 62
250
  6
CONTINUOUS
 90
17
 70
0
 10
145.8525380418
 20
121.4419811459
 10
145.844175089
 20
121.4302025222
 10
145.8361349775
 20
121.4179347636
 10
145.8284506964
 20
121.4052064455
 10
145.8211876381
 20
121.3921093217
 10
145.8143819955
 20
121.3786985876
 10
145.8080572294
 20
121.3650095294
 10
145.8022500875
 20
121.3511122167
 10
145.7969856388
 20
121.3370594909
 10
145.7922849179
 20
121.3228994386
 10
145.7881717465
 20
121.3086976894
 10
145.7846625126
 20
121.2945060712
 10
145.7817717465
 20
121.2803774912
 10
145.7795135072
 20
121.2663792853
 10
145.7778959446
 20
121.2525678871
 10
145.776923516
 20
121.2389889905
 10
145.7765991644
 20
121.2256923806
  0
LWPOLYLINE
  5
3EB
100
AcDbEntity
  8
0
100
AcDbPolyline
 62
7
  6
CONTINUOUS
 90
14
 70
0
 10
148.8762475561
 20
119.6898339924
 10
148.8586372524
 20
119.672995371
 10
148.8397864499
 20
119.657064874
 10
148.819792339
 20
119.6422437742
 10
148.7986931828
 20
119.6287300688
 10
148.776690361
 20
119.6166956086
 10
148.7541520391
 20
119.6062760059
 10
148.7312389114
 20
119.5975976722
 10
148.7081116488
 20
119.5907919147
 10
148.6851622696
 20
119.5859417925
 10
148.6626048204
 20
119.583088314
 10
148.6405858071
 20
119.582264687
 10
148.6194007347
 20
119.5834560954
 10
148.5988140792
 20
119.5866981112
  0
LWPOLYLINE
  5
3EC
100
AcDbEntity
  8
0
100
AcDbPolyline
 62
250
  6
CONTINUOUS
 90
3
 70
0
 10
156.3485222513
 20
123.4702329075
 10
156.3344343527
 20
123.4593143097
 10
156.317639832
 20
123.4494042602
  0
LINE
  5
3ED
100
AcDbEntity
  8
0
100
AcDbLine
 62
7
  6
CONTINUOUS
 10
150.1322516974
 20
117.1054509496
 11
150.625497137
 21
117.3812323219
  0
LINE
  5
3EE
100
AcDbEntity
  8
0
100
AcDbLine
 62
7
  6
CONTINUOUS
 10
149.5517532783
 20
116.807031517
 11
150.1322516974
 21
117.1054509496
  0
LINE
  5
3EF
100
AcDbEntity
  8
0
100
AcDbLine
 62
250
  6
CONTINUOUS
 10
174.9407306053
 20
129.3683759716
 11
151.1676701232
 21
117.2737651876
  0
LINE
  5
3F0
100
AcDbEntity
  8
RACCORDO
100
AcDbLine
 62
250
  6
CONTINUOUS
 10
150.4452345404
 20
116.6509597175
 11
149.7666419651
 21
116.3182221423
  0
LINE
  5
3F1
100
AcDbEntity
  8
RACCORDO
100
AcDbLine
 62
7
  6
CONTINUOUS
 10
150.5151197193
 20
116.5611920001
 11
149.716021901
 21
116.1693665071
  0
LWPOLYLINE
  5
3F2
100
AcDbEntity
  8
0
100
AcDbPolyline
 62
250
  6
CONTINUOUS
 90
12
 70
0
 10
174.9407306053
 20
129.3683759716
 10
174.99900831
 20
129.3969276877
 10
175.0530397406
 20
129.4225244294
 10
175.1024227669
 20
129.4449756924
 10
175.1467898546
 20
129.4641143826
 10
175.1858108006
 20
129.47979806
 10
175.2191951907
 20
129.4919099983
 10
175.2466945607
 20
129.5003600542
 10
175.2681042459
 20
129.5050853379
 10
175.2832649042
 20
129.5060506815
 10
175.2920637022
 20
129.5032489003
 10
175.2935738541
 20
129.5014743291
  0
LINE
  5
3F3
100
AcDbEntity
  8
0
100
AcDbLine
 62
250
  6
CONTINUOUS
 10
157.5621637613
 20
121.7624369173
 11
174.4004220646
 21
129.9416055233
  0
LINE
  5
3F4
100
AcDbEntity
  8
0
100
AcDbLine
 62
250
  6
CONTINUOUS
 10
157.8998320951
 20
121.1800451902
 11
174.9585710291
 21
129.4665556251
  0
LWPOLYLINE
  5
3F5
100
AcDbEntity
  8
0
100
AcDbPolyline
 62
250
  6
CONTINUOUS
 90
11
 70
0
 10
174.9585710291
 20
129.4665556251
 10
175.0125720786
 20
129.4921391718
 10
175.0619441228
 20
129.5145873035
 10
175.106319864
 20
129.5337320527
 10
175.1453602615
 20
129.5494260724
 10
175.1787620174
 20
129.5615469155
 10
175.2062741174
 20
129.5700037137
 10
175.2276951971
 20
129.5747348379
 10
175.2428659874
 20
129.575705061
 10
175.2516733682
 20
129.5729069095
 10
175.253189161
 20
129.5711276214
  0
LINE
  5
3F6
100
AcDbEntity
  8
0
100
AcDbLine
 62
7
  6
CONTINUOUS
 10
150.4218006217
 20
115.6295427977
 11
150.6449041137
 21
115.7325793837
  0
LINE
  5
3F7
100
AcDbEntity
  8
0
100
AcDbLine
 62
250
  6
CONTINUOUS
 10
150.4976291513
 20
115.5940239675
 11
150.6449041137
 21
115.6620404257
  0
LINE
  5
3F8
100
AcDbEntity
  8
0
100
AcDbLine
 62
7
  6
CONTINUOUS
 10
150.3106909681
 20
115.618780921
 11
149.6131316866
 21
115.3154193162
  0
LWPOLYLINE
  5
3F9
100
AcDbEntity
  8
0
100
AcDbPolyline
 62
250
  6
CONTINUOUS
 90
16
 70
0
 10
144.4582507119
 20
115.2180238315
 10
144.4209455429
 20
115.2038282705
 10
144.3806649679
 20
115.1915286407
 10
144.3377995438
 20
115.181244198
 10
144.2927648903
 20
115.1730746597
 10
144.2459976594
 20
115.1670992369
 10
144.1979513024
 20
115.1633758667
 10
144.1490916726
 20
115.1619406507
 10
144.0998925088
 20
115.1628075045
 10
144.050830842
 20
115.1659680233
 10
144.00238237
 20
115.1713915629
 10
143.9550168449
 20
115.1790255371
 10
143.909193519
 20
115.1887959276
 10
143.8653566913
 20
115.2006080015
 10
143.8239313999
 20
115.2143472299
 10
143.7853193011
 20
115.2298803985
  0
LWPOLYLINE
  5
3FA
100
AcDbEntity
  8
RACCORDO
100
AcDbPolyline
 62
250
  6
CONTINUOUS
 90
3
 70
0
 10
149.716021901
 20
116.298598283
 10
149.7390811894
 20
116.3062386347
 10
149.7666419651
 20
116.3182221423
  0
LWPOLYLINE
  5
3FB
100
AcDbEntity
  8
0
100
AcDbPolyline
 62
7
  6
CONTINUOUS
 90
4
 70
0
 10
146.7120676827
 20
79.1410851817
 10
146.6939594835
 20
79.173994252
 10
146.6782566585
 20
79.2079173421
 10
146.6669815021
 20
79.2375043861
  0
LWPOLYLINE
  5
3FC
100
AcDbEntity
  8
0
100
AcDbPolyline
 62
250
  6
CONTINUOUS
 90
7
 70
0
 10
133.1315198622
 20
127.2723163022
 10
133.1334259275
 20
127.2586113442
 10
133.1386390675
 20
127.2459411948
 10
133.1470796212
 20
127.2337135148
 10
133.1586063554
 20
127.2221329063
 10
133.1730263968
 20
127.2113931439
 10
133.1900984593
 20
127.2016739328
  0
LWPOLYLINE
  5
3FD
100
AcDbEntity
  8
0
100
AcDbPolyline
 62
250
  6
CONTINUOUS
 90
7
 70
0
 10
133.1315198236
 20
127.589625013
 10
133.1334259227
 20
127.5758801617
 10
133.1386390593
 20
127.5632100101
 10
133.1470796111
 20
127.5509823271
 10
133.1586063457
 20
127.5394017149
 10
133.1730263904
 20
127.5286619484
 10
133.1900984593
 20
127.5189427332
  0
LWPOLYLINE
  5
3FE
100
AcDbEntity
  8
0
100
AcDbPolyline
 62
7
  6
CONTINUOUS
 90
13
 70
0
 10
137.1921976017
 20
127.3630329369
 10
137.1909939848
 20
127.3862455728
 10
137.1873847547
 20
127.4102667774
 10
137.1814358453
 20
127.4346879909
 10
137.1732537131
 20
127.4590942581
 10
137.1629791785
 20
127.4830684005
 10
137.1507851663
 20
127.5061981875
 10
137.136877746
 20
127.5280867122
 10
137.1214973202
 20
127.5483608313
 10
137.1049104226
 20
127.5666748213
 10
137.087400002
 20
127.5827149669
 10
137.069260498
 20
127.5962047798
 10
137.0507977846
 20
127.6069115462
  0
LWPOLYLINE
  5
3FF
100
AcDbEntity
  8
0
100
AcDbPolyline
 62
7
  6
CONTINUOUS
 90
13
 70
0
 10
137.8065659164
 20
127.6668703017
 10
137.8065002808
 20
127.6726058052
 10
137.8046481005
 20
127.6977782853
 10
137.8002365497
 20
127.7225128974
 10
137.793313341
 20
127.746428596
 10
137.7840348628
 20
127.7691206931
 10
137.772498287
 20
127.7904805311
 10
137.7587748159
 20
127.8104085223
 10
137.7430655329
 20
127.8286232375
 10
137.7255954249
 20
127.8449089244
 10
137.7064747123
 20
127.8591871289
 10
137.685977293
 20
127.8712589112
 10
137.6831985774
 20
127.8726723298
  0
LINE
  5
400
100
AcDbEntity
  8
0
100
AcDbLine
 62
7
  6
CONTINUOUS
 10
138.8697548927
 20
124.5466130535
 11
138.8697548927
 21
125.7312271573
  0
LINE
  5
401
100
AcDbEntity
  8
0
100
AcDbLine
 62
250
  6
CONTINUOUS
 10
138.9283335364
 20
124.4732436976
 11
138.9283335364
 21
125.6605164789
  0
LWPOLYLINE
  5
402
100
AcDbEntity
  8
0
100
AcDbPolyline
 62
250
  6
CONTINUOUS
 90
28
 70
0
 10
138.9283335364
 20
125.6605164789
 10
138.9283611689
 20
125.6625664087
 10
138.9284877693
 20
125.6646130315
 10
138.9287133377
 20
125.6666563473
 10
138.9290328761
 20
125.6687120377
 10
138.9294513825
 20
125.6707644212
 10
138.9299838508
 20
125.6727664535
 10
138.9306340244
 20
125.674717585
 10
138.9313981599
 20
125.6766183653
 10
138.9322800201
 20
125.6784233996
 10
138.9332836858
 20
125.6801302073
 10
138.9344050763
 20
125.6817412689
 10
138.9356357122
 20
125.6832186305
 10
138.9369784996
 20
125.6845579667
 10
138.9384305323
 20
125.6857636029
 10
138.9399746127
 20
125.6868105606
 10
138.9416117031
 20
125.6876947072
 10
138.9433408411
 20
125.6884201754
 10
138.945141942
 20
125.688974384
 10
138.9470159314
 20
125.6893545557
 10
138.9489618836
 20
125.689563468
 10
138.9509569377
 20
125.6895968716
 10
138.9530019616
 20
125.6894521257
 10
138.9550960873
 20
125.6891318711
 10
138.9572138496
 20
125.6886397816
 10
138.95934676
 20
125.6879770817
 10
138.9615033071
 20
125.6871425468
 10
138.9636834907
 20
125.686136177
  0
LWPOLYLINE
  5
403
100
AcDbEntity
  8
0
100
AcDbPolyline
 62
7
  6
CONTINUOUS
 90
10
 70
0
 10
145.4299916025
 20
122.1027357514
 10
145.4439325852
 20
122.1364155419
 10
145.4543883223
 20
122.1724845766
 10
145.4613588137
 20
122.2109428556
 10
145.4648440594
 20
122.2522214597
 10
145.4648440594
 20
122.2958893081
 10
145.4613588137
 20
122.3406531579
 10
145.4543883223
 20
122.3860819282
 10
145.4439325852
 20
122.4326067
 10
145.4299916025
 20
122.4802274732
  0
LWPOLYLINE
  5
404
100
AcDbEntity
  8
0
100
AcDbPolyline
 62
7
  6
CONTINUOUS
 90
7
 70
0
 10
146.6388446478
 20
120.3766316758
 10
146.640642997
 20
120.3804497975
 10
146.6458686227
 20
120.386641593
 10
146.654065832
 20
120.3949819213
 10
146.6650382826
 20
120.4045437139
 10
146.6786042694
 20
120.4151077729
 10
146.7120676827
 20
120.4406893211
  0
LWPOLYLINE
  5
405
100
AcDbEntity
  8
0
100
AcDbPolyline
 62
250
  6
CONTINUOUS
 90
10
 70
0
 10
150.3195656126
 20
120.9176832076
 10
150.3230034687
 20
120.9223138362
 10
150.3260846632
 20
120.9271329007
 10
150.3288091964
 20
120.9321404012
 10
150.3312041712
 20
120.937409161
 10
150.3332424847
 20
120.9428663566
 10
150.3348428269
 20
120.9482935179
 10
150.3359780949
 20
120.9536178213
 10
150.3366753916
 20
120.9589120902
 10
150.3369347173
 20
120.9641763247
  0
LWPOLYLINE
  5
406
100
AcDbEntity
  8
0
100
AcDbPolyline
 62
7
  6
CONTINUOUS
 90
9
 70
0
 10
150.3312265024
 20
120.8614075956
 10
150.3391111584
 20
120.8716479249
 10
150.3530836874
 20
120.8926298963
 10
150.3652624307
 20
120.9150857727
 10
150.3754985847
 20
120.9388944348
 10
150.3833926582
 20
120.9631302547
 10
150.3889335639
 20
120.9875538208
 10
150.3922101411
 20
121.0126960272
 10
150.3930628263
 20
121.0336819999
  0
LINE
  5
407
100
AcDbEntity
  8
0
100
AcDbLine
 62
250
  6
CONTINUOUS
 10
149.7786983068
 20
120.2483957214
 11
150.3195656126
 21
120.9176832076
  0
LINE
  5
408
100
AcDbEntity
  8
0
100
AcDbLine
 62
7
  6
CONTINUOUS
 10
149.7786983107
 20
120.1776910654
 11
150.3312531101
 21
120.8614410511
  0
LWPOLYLINE
  5
409
100
AcDbEntity
  8
RACCORDO
100
AcDbPolyline
 62
250
  6
CONTINUOUS
 90
10
 70
0
 10
149.716021901
 20
116.1753301725
 10
149.7166573751
 20
116.1758616983
 10
149.7279371087
 20
116.1882168631
 10
149.7379036661
 20
116.2023720157
 10
149.7464811857
 20
116.2182196149
 10
149.7536042667
 20
116.2356389712
 10
149.7592186782
 20
116.2544973056
 10
149.7632817124
 20
116.2746509709
 10
149.765762437
 20
116.2959466189
 10
149.7666419651
 20
116.3182221423
  0
LWPOLYLINE
  5
40A
100
AcDbEntity
  8
0
100
AcDbPolyline
 62
250
  6
CONTINUOUS
 90
9
 70
0
 10
168.6524288192
 20
124.05473532
 10
168.6606924016
 20
124.0596607624
 10
168.6776028652
 20
124.0731569477
 10
168.692245516
 20
124.0899739257
 10
168.7044223397
 20
124.1098842887
 10
168.7139687849
 20
124.1326188631
 10
168.7207557376
 20
124.1578702093
 10
168.7246912693
 20
124.1852967774
 10
168.7257220705
 20
124.2145276316
  0
LWPOLYLINE
  5
40B
100
AcDbEntity
  8
0
100
AcDbPolyline
 62
250
  6
CONTINUOUS
 90
5
 70
0
 10
175.354881081
 20
127.936742397
 10
175.4120768766
 20
127.969034891
 10
175.4634932291
 20
128.0036720596
 10
175.508747474
 20
128.040396111
 10
175.547502811
 20
128.0789337238
  0
LWPOLYLINE
  5
40C
100
AcDbEntity
  8
0
100
AcDbPolyline
 62
250
  6
CONTINUOUS
 90
5
 70
0
 10
168.7257220705
 20
124.2145276316
 10
168.6888720729
 20
124.1942631794
 10
168.6509008488
 20
124.1718919593
 10
168.6118083982
 20
124.1474139713
 10
168.5716241184
 20
124.1210028008
  0
LWPOLYLINE
  5
40D
100
AcDbEntity
  8
0
100
AcDbPolyline
 62
250
  6
CONTINUOUS
 90
9
 70
0
 10
149.5544152366
 20
115.2551181757
 10
149.5644999767
 20
115.260653781
 10
149.5737054798
 20
115.2665508604
 10
149.581978911
 20
115.2727752069
 10
149.5892730982
 20
115.279288489
 10
149.5955456372
 20
115.2860551344
 10
149.6007596766
 20
115.2930424216
 10
149.6048854635
 20
115.3002118956
 10
149.6078999666
 20
115.307519724
  0
LWPOLYLINE
  5
40E
100
AcDbEntity
  8
0
100
AcDbPolyline
 62
7
  6
CONTINUOUS
 90
13
 70
0
 10
168.6524036864
 20
124.0547217562
 10
175.2917858024
 20
127.6367732381
 10
175.3533280113
 20
127.673578209
 10
175.408845838
 20
127.7133452481
 10
175.4581490702
 20
127.7557067549
 10
175.5013802411
 20
127.8005042928
 10
175.5384342721
 20
127.8472984002
 10
175.569316757
 20
127.8956595393
 10
175.5941728633
 20
127.9453103752
 10
175.6130722451
 20
127.9957880949
 10
175.6261195979
 20
128.0465554297
 10
175.6335122857
 20
128.0971258972
 10
175.635541134
 20
128.1413140504
  0
LINE
  5
40F
100
AcDbEntity
  8
0
100
AcDbLine
 62
250
  6
CONTINUOUS
 10
175.354881081
 20
127.936742397
 11
151.5818205988
 21
115.842131613
  0
LINE
  5
410
100
AcDbEntity
  8
0
100
AcDbLine
 62
7
  6
CONTINUOUS
 10
171.3197517759
 20
125.0020771052
 11
170.8672034359
 21
124.7758029353
  0
LINE
  5
411
100
AcDbEntity
  8
0
100
AcDbLine
 62
7
  6
CONTINUOUS
 10
169.5237005516
 20
124.1040514931
 11
169.0711522117
 21
123.8777773232
  0
LINE
  5
412
100
AcDbEntity
  8
0
100
AcDbLine
 62
7
  6
CONTINUOUS
 10
172.6632546601
 20
125.6738285474
 11
173.1158030001
 21
125.9001027173
  0
LINE
  5
413
100
AcDbEntity
  8
0
100
AcDbLine
 62
7
  6
CONTINUOUS
 10
173.1158030001
 20
125.5854762804
 11
172.9460973726
 21
125.5006234666
  0
LINE
  5
414
100
AcDbEntity
  8
0
100
AcDbLine
 62
7
  6
CONTINUOUS
 10
169.3539949242
 20
123.7045722424
 11
169.5237005516
 21
123.7894250561
  0
LINE
  5
415
100
AcDbEntity
  8
0
100
AcDbLine
 62
7
  6
CONTINUOUS
 10
171.1500461484
 20
124.6025978545
 11
171.3197517759
 21
124.6874506682
  0
LINE
  5
416
100
AcDbEntity
  8
0
100
AcDbLine
 62
7
  6
CONTINUOUS
 10
171.3197517759
 20
124.4796045713
 11
171.1500461484
 21
124.3947517576
  0
LINE
  5
417
100
AcDbEntity
  8
0
100
AcDbLine
 62
7
  6
CONTINUOUS
 10
169.5237005516
 20
123.5815789592
 11
169.3539949242
 21
123.4967261455
  0
LINE
  5
418
100
AcDbEntity
  8
0
100
AcDbLine
 62
7
  6
CONTINUOUS
 10
172.9460973726
 20
125.2927773697
 11
173.1158030001
 21
125.3776301834
  0
LINE
  5
419
100
AcDbEntity
  8
0
100
AcDbLine
 62
7
  6
CONTINUOUS
 10
173.1158030001
 20
125.3458464589
 11
172.6632546601
 21
125.1195722889
  0
LINE
  5
41A
100
AcDbEntity
  8
0
100
AcDbLine
 62
7
  6
CONTINUOUS
 10
171.3197517759
 20
124.4478208468
 11
170.8672034359
 21
124.2215466768
  0
LINE
  5
41B
100
AcDbEntity
  8
0
100
AcDbLine
 62
7
  6
CONTINUOUS
 10
169.5237005516
 20
123.5497952347
 11
169.0711522117
 21
123.3235210647
  0
LINE
  5
41C
100
AcDbEntity
  8
0
100
AcDbLine
 62
7
  6
CONTINUOUS
 10
174.8610959929
 20
124.5365945841
 11
168.2340768429
 21
121.2495442306
  0
LINE
  5
41D
100
AcDbEntity
  8
0
100
AcDbLine
 62
7
  6
CONTINUOUS
 10
174.1208589755
 20
124.5521807708
 11
167.8330796991
 21
121.4500428025
  0
LWPOLYLINE
  5
41E
100
AcDbEntity
  8
0
100
AcDbPolyline
 62
7
  6
CONTINUOUS
 90
10
 70
0
 10
168.2340768429
 20
121.2495442306
 10
168.1576873238
 20
121.2148119699
 10
168.0816757634
 20
121.1873616381
 10
168.0064699588
 20
121.1673728959
 10
167.932454401
 20
121.154975274
 10
167.8600967883
 20
121.1502890142
 10
167.7899316502
 20
121.1533702692
 10
167.7224065024
 20
121.1641731101
 10
167.6578359682
 20
121.1826203522
 10
167.5961917121
 20
121.2087872576
  0
LINE
  5
41F
100
AcDbEntity
  8
0
100
AcDbLine
 62
7
  6
CONTINUOUS
 10
149.5517532783
 20
114.295557846
 11
151.3730282862
 21
115.0876122619
  0
LWPOLYLINE
  5
420
100
AcDbEntity
  8
0
100
AcDbPolyline
 62
250
  6
CONTINUOUS
 90
22
 70
0
 10
144.4582507025
 20
79.0946746733
 10
144.4610630834
 20
79.0534495576
 10
144.4663104853
 20
79.0140571017
 10
144.4739929081
 20
78.9764973056
 10
144.4841712908
 20
78.9405827106
 10
144.4967846944
 20
78.9065007754
 10
144.5116503021
 20
78.8748138759
 10
144.5288021392
 20
78.845574927
 10
144.5482061803
 20
78.8187310139
 10
144.5695775319
 20
78.794685768
 10
144.5929463867
 20
78.7734822341
 10
144.618282552
 20
78.7550773674
 10
144.6452105569
 20
78.7397456661
 10
144.6737533926
 20
78.7275342586
 10
144.7038880678
 20
78.7183960165
 10
144.735170138
 20
78.7124640526
 10
144.7676337562
 20
78.7097922533
 10
144.8012447693
 20
78.7103267323
 10
144.8354562739
 20
78.7140389432
 10
144.8700859687
 20
78.7209193707
 10
144.905316155
 20
78.7309775301
 10
144.9411468328
 20
78.7442134215
  0
LWPOLYLINE
  5
421
100
AcDbEntity
  8
0
100
AcDbPolyline
 62
7
  6
CONTINUOUS
 90
16
 70
0
 10
141.7176810013
 20
124.62398386
 10
141.7167318256
 20
124.6469306671
 10
141.7138624797
 20
124.670679117
 10
141.7090842193
 20
124.6949796377
 10
141.7024025838
 20
124.7196633605
 10
141.6938857152
 20
124.7443664404
 10
141.6837279565
 20
124.7685402265
 10
141.6721804974
 20
124.7917306818
 10
141.6593205418
 20
124.8139108242
 10
141.6450997365
 20
124.835164051
 10
141.6295085316
 20
124.8554006578
 10
141.6128153917
 20
124.8741784105
 10
141.5953894181
 20
124.8910741629
 10
141.5774995535
 20
124.9058703746
 10
141.5592806382
 20
124.9184937951
 10
141.5409312299
 20
124.9288321216
  0
LWPOLYLINE
  5
422
100
AcDbEntity
  8
0
100
AcDbPolyline
 62
250
  6
CONTINUOUS
 90
3
 70
0
 10
143.6079318234
 20
85.0054687765
 10
143.6877684331
 20
82.0325482578
 10
143.7853192897
 20
79.0693924194
  0
LINE
  5
423
100
AcDbEntity
  8
0
100
AcDbLine
 62
7
  6
CONTINUOUS
 10
142.3754494127
 20
124.9502418412
 11
142.3997412316
 21
123.8064797493
  0
LINE
  5
424
100
AcDbEntity
  8
0
100
AcDbLine
 62
250
  6
CONTINUOUS
 10
143.5458207405
 20
87.9880043407
 11
143.6079318234
 21
85.0054687765
  0
LINE
  5
425
100
AcDbEntity
  8
0
100
AcDbLine
 62
250
  6
CONTINUOUS
 10
143.5014443733
 20
90.980081831
 11
143.5458207405
 21
87.9880043407
  0
LINE
  5
426
100
AcDbEntity
  8
0
100
AcDbLine
 62
250
  6
CONTINUOUS
 10
141.2189819335
 20
124.5151922804
 11
141.2189819335
 21
123.3279194991
  0
LINE
  5
427
100
AcDbEntity
  8
0
100
AcDbLine
 62
250
  6
CONTINUOUS
 10
141.4993349639
 20
124.5139689785
 11
141.4993349639
 21
123.3356150702
  0
LINE
  5
428
100
AcDbEntity
  8
0
100
AcDbLine
 62
7
  6
CONTINUOUS
 10
141.7176810013
 20
123.4548165899
 11
141.7176810013
 21
124.62398386
  0
LINE
  5
429
100
AcDbEntity
  8
0
100
AcDbLine
 62
7
  6
CONTINUOUS
 10
142.5820654939
 20
123.8750718564
 11
142.5820654939
 21
122.6904577529
  0
LINE
  5
42A
100
AcDbEntity
  8
0
100
AcDbLine
 62
250
  6
CONTINUOUS
 10
142.6406441377
 20
123.8043611783
 11
142.6406441377
 21
122.617088397
  0
LWPOLYLINE
  5
42B
100
AcDbEntity
  8
0
100
AcDbPolyline
 62
250
  6
CONTINUOUS
 90
8
 70
0
 10
143.687768913
 20
112.170299458
 10
143.6079325235
 20
109.1184643571
 10
143.5458214523
 20
106.0745359408
 10
143.5014449399
 20
103.0385977131
 10
143.4748143496
 20
100.0108874741
 10
143.4659368859
 20
96.9917942808
 10
143.4748140372
 20
93.981473611
 10
143.5014443733
 20
90.980081831
  0
LINE
  5
42C
100
AcDbEntity
  8
0
100
AcDbLine
 62
250
  6
CONTINUOUS
 10
143.7853192909
 20
115.2298803078
 11
143.687768913
 21
112.170299458
  0
LWPOLYLINE
  5
42D
100
AcDbEntity
  8
0
100
AcDbPolyline
 62
250
  6
CONTINUOUS
 90
13
 70
0
 10
142.6759940919
 20
123.8299808764
 10
142.6771772706
 20
123.8529304698
 10
142.6807070094
 20
123.8766792358
 10
142.6865242468
 20
123.9008297944
 10
142.6945316455
 20
123.9249780419
 10
142.7045952209
 20
123.9487199133
 10
142.7165465827
 20
123.9716581433
 10
142.7301857532
 20
123.9934089134
 10
142.7452845125
 20
124.0136082743
 10
142.7615902181
 20
124.0319182355
 10
142.7788300315
 20
124.0480324216
 10
142.7967154845
 20
124.0616811982
 10
142.8149473052
 20
124.0726361838
  0
LWPOLYLINE
  5
42E
100
AcDbEntity
  8
0
100
AcDbPolyline
 62
7
  6
CONTINUOUS
 90
9
 70
0
 10
143.8445790646
 20
126.464497899
 10
143.8438210825
 20
126.4511424609
 10
143.8391867089
 20
126.431393831
 10
143.8301803498
 20
126.4118318356
 10
143.8169663403
 20
126.3925818445
 10
143.8001326232
 20
126.3744281823
 10
143.7798751794
 20
126.3576322905
 10
143.755998028
 20
126.3419327276
 10
143.728501169
 20
126.3273294935
  0
LWPOLYLINE
  5
42F
100
AcDbEntity
  8
0
100
AcDbPolyline
 62
250
  6
CONTINUOUS
 90
19
 70
0
 10
143.785327667
 20
115.2298847047
 10
143.7909693101
 20
115.3176810621
 10
143.8021926594
 20
115.4074918256
 10
143.8189380815
 20
115.4986577771
 10
143.8410588634
 20
115.5905648392
 10
143.8684060929
 20
115.6826198602
 10
143.9008325117
 20
115.7742331662
 10
143.9380875798
 20
115.8647889416
 10
143.9799223905
 20
115.953683378
 10
144.0261159065
 20
116.0403499236
 10
144.0763527267
 20
116.1242454734
 10
144.1302870102
 20
116.204775481
 10
144.1875759441
 20
116.2813539705
 10
144.2478067952
 20
116.3534817299
 10
144.3105668922
 20
116.4206622619
 10
144.3754588999
 20
116.4824124989
 10
144.4420531277
 20
116.5383300985
 10
144.5098919504
 20
116.5880476335
 10
144.5784666276
 20
116.6312333336
  0
LWPOLYLINE
  5
430
100
AcDbEntity
  8
0
100
AcDbPolyline
 62
250
  6
CONTINUOUS
 90
12
 70
0
 10
148.1394397519
 20
119.8461341693
 10
148.1289279858
 20
119.8227632484
 10
148.1162432307
 20
119.8010049784
 10
148.1016001248
 20
119.7812275304
 10
148.0852464438
 20
119.763765558
 10
148.0674589076
 20
119.7489145345
 10
148.0485384985
 20
119.7369257536
 10
148.0288053681
 20
119.7280020771
 10
148.00859342
 20
119.7222945021
 10
147.9882446607
 20
119.7198996063
 10
147.9681034111
 20
119.7208579135
 10
147.9590052991
 20
119.7224217352
  0
LWPOLYLINE
  5
431
100
AcDbEntity
  8
0
100
AcDbPolyline
 62
7
  6
CONTINUOUS
 90
7
 70
0
 10
149.5517532783
 20
115.1567857285
 10
149.5605701292
 20
115.1676993211
 10
149.5755778112
 20
115.1909185284
 10
149.5880553162
 20
115.2156090662
 10
149.5979260672
 20
115.2417184166
 10
149.6050576373
 20
115.2690758643
 10
149.6068420161
 20
115.278672701
  0
LWPOLYLINE
  5
432
100
AcDbEntity
  8
0
100
AcDbPolyline
 62
250
  6
CONTINUOUS
 90
30
 70
0
 10
168.5716241184
 20
124.1210028008
 10
168.5303186121
 20
124.0924848623
 10
168.4878036873
 20
124.0613393998
 10
168.4440440495
 20
124.0275784817
 10
168.3990749933
 20
123.9911900395
 10
168.3529142103
 20
123.951617111
 10
168.3055178795
 20
123.9088860032
 10
168.256929822
 20
123.8629704091
 10
168.2072991927
 20
123.8132344465
 10
168.1565769209
 20
123.7597198999
 10
168.1048120774
 20
123.7023849848
 10
168.0523010288
 20
123.6404684654
 10
167.9989627797
 20
123.5739709518
 10
167.9448783256
 20
123.5028918339
 10
167.8905870201
 20
123.4264680461
 10
167.8359617964
 20
123.3446828543
 10
167.7811297212
 20
123.2575529927
 10
167.7270113483
 20
123.1643655978
 10
167.67340883
 20
123.0650440106
 10
167.620520014
 20
122.9596648902
 10
167.5698589968
 20
122.8477453501
 10
167.520982535
 20
122.7279774837
 10
167.474333872
 20
122.6016691977
 10
167.4327568345
 20
122.4722613259
 10
167.396625688
 20
122.3390837779
 10
167.365566167
 20
122.202806644
 10
167.3412993022
 20
122.0688810288
 10
167.3243987705
 20
121.9391239669
 10
167.314290895
 20
121.8117184235
 10
167.3109756757
 20
121.6866643988
  0
LWPOLYLINE
  5
433
100
AcDbEntity
  8
0
100
AcDbPolyline
 62
7
  6
CONTINUOUS
 90
18
 70
0
 10
167.6809802831
 20
122.0042673087
 10
167.6642824874
 20
121.9940186849
 10
167.648723688
 20
121.981820258
 10
167.6343038847
 20
121.9676720283
 10
167.6208020977
 20
121.9511936607
 10
167.6084393068
 20
121.9327654902
 10
167.5978784526
 20
121.9135285214
 10
167.5891998078
 20
121.8934615699
 10
167.5823230996
 20
121.8725858201
 10
167.5776704503
 20
121.8521058301
 10
167.575379137
 20
121.8319542186
 10
167.5753118825
 20
121.8121983668
 10
167.5774789776
 20
121.7942449771
 10
167.582009263
 20
121.7782956775
 10
167.588773898
 20
121.7641488398
 10
167.5973966503
 20
121.7526062819
 10
167.6079899197
 20
121.7437569341
 10
167.6138821128
 20
121.7402074787
  0
LWPOLYLINE
  5
434
100
AcDbEntity
  8
0
100
AcDbPolyline
 62
7
  6
CONTINUOUS
 90
18
 70
0
 10
167.6809802831
 20
121.7444596793
 10
167.6977259102
 20
121.7547198498
 10
167.7133393401
 20
121.766978508
 10
167.7278205728
 20
121.7812356537
 10
167.7414091761
 20
121.7979027116
 10
167.7538655823
 20
121.8165682571
 10
167.7644710875
 20
121.8359980166
 10
167.7731096164
 20
121.8562096255
 10
167.7798972445
 20
121.8771854484
 10
167.784463494
 20
121.8976383048
 10
167.7866848725
 20
121.9175309496
 10
167.7866848725
 20
121.9369006279
 10
167.784463494
 20
121.9545718942
 10
167.7798972445
 20
121.970458501
 10
167.7731096164
 20
121.9846466958
 10
167.7644710875
 20
121.9962197758
 10
167.7538655823
 20
122.00504403
 10
167.7480746792
 20
122.0085213978
  0
LINE
  5
435
100
AcDbEntity
  8
0
100
AcDbLine
 62
7
  6
CONTINUOUS
 10
169.3539949242
 20
123.4967261455
 11
169.0711522117
 21
123.3235210647
  0
LINE
  5
436
100
AcDbEntity
  8
0
100
AcDbLine
 62
7
  6
CONTINUOUS
 10
171.1500461484
 20
124.3947517576
 11
170.8672034359
 21
124.2215466768
  0
LINE
  5
437
100
AcDbEntity
  8
0
100
AcDbLine
 62
7
  6
CONTINUOUS
 10
172.9460973726
 20
125.2927773697
 11
172.6632546601
 21
125.1195722889
  0
LWPOLYLINE
  5
438
100
AcDbEntity
  8
0
100
AcDbPolyline
 62
250
  6
CONTINUOUS
 90
9
 70
0
 10
175.2797753103
 20
127.6303407904
 10
175.2881671967
 20
127.6353352781
 10
175.3053149051
 20
127.6489591682
 10
175.3202034697
 20
127.6659086355
 10
175.3326315888
 20
127.6859544629
 10
175.3424247962
 20
127.7088221624
 10
175.3494506511
 20
127.7342025357
 10
175.3536205195
 20
127.7617557924
 10
175.354881081
 20
127.7911109882
  0
LWPOLYLINE
  5
439
100
AcDbEntity
  8
0
100
AcDbPolyline
 62
250
  6
CONTINUOUS
 90
22
 70
0
 10
175.354881081
 20
123.7967730859
 10
175.3723058338
 20
123.805924933
 10
175.3899271606
 20
123.8156784745
 10
175.4076721422
 20
123.826053864
 10
175.4254669725
 20
123.8370726016
 10
175.4432244944
 20
123.8487509014
 10
175.4608456614
 20
123.8610988688
 10
175.478222251
 20
123.874119535
 10
175.4952761028
 20
123.8878373512
 10
175.511941098
 20
123.9022931869
 10
175.5280838477
 20
123.9174761119
 10
175.5436090377
 20
123.9334144956
 10
175.5584732781
 20
123.950210687
 10
175.5725008709
 20
123.967837796
 10
175.5855639441
 20
123.9863282583
 10
175.5976133092
 20
124.0058797718
 10
175.6084640582
 20
124.0265659574
 10
175.6178325613
 20
124.0483014406
 10
175.6254672758
 20
124.0710407797
 10
175.6311511063
 20
124.0948882598
 10
175.6345836603
 20
124.1196687383
 10
175.6355411084
 20
124.1411325058
  0
LWPOLYLINE
  5
43A
100
AcDbEntity
  8
0
100
AcDbPolyline
 62
250
  6
CONTINUOUS
 90
33
 70
0
 10
175.2480254588
 20
124.0744155842
 10
175.2628958934
 20
124.0822015733
 10
175.2779072072
 20
124.0904902508
 10
175.2930000967
 20
124.099296899
 10
175.308104897
 20
124.1086312494
 10
175.323159824
 20
124.1185112536
 10
175.3381081426
 20
124.1289638038
 10
175.3528605517
 20
124.1399978914
 10
175.3673396105
 20
124.1516261355
 10
175.3814903264
 20
124.1638813102
 10
175.3951994518
 20
124.1767550072
 10
175.408383055
 20
124.1902706076
 10
175.4210002309
 20
124.2045110661
 10
175.432901703
 20
124.2194537745
 10
175.443982938
 20
124.2351279005
 10
175.45420347
 20
124.2517000766
 10
175.4634064221
 20
124.269235622
 10
175.4713483403
 20
124.2876643354
 10
175.4778150049
 20
124.3069447206
 10
175.4826210802
 20
124.3271635935
 10
175.4855161722
 20
124.3481734025
 10
175.4862910397
 20
124.3695628546
 10
175.4848363259
 20
124.3912993879
 10
175.4810546582
 20
124.4133028474
 10
175.474997225
 20
124.4350840938
 10
175.4667348527
 20
124.4565333977
 10
175.4563085623
 20
124.477648195
 10
175.4439442023
 20
124.4981182599
 10
175.4300135222
 20
124.5176151309
 10
175.4144876969
 20
124.5364168513
 10
175.3968955088
 20
124.5551075473
 10
175.3771523158
 20
124.573661159
 10
175.3552471154
 20
124.5919740512
  0
LINE
  5
43B
100
AcDbEntity
  8
0
100
AcDbLine
 62
7
  6
CONTINUOUS
 10
174.1031715796
 20
124.5610244688
 11
174.6584360265
 21
124.8464486097
  0
LINE
  5
43C
100
AcDbEntity
  8
0
100
AcDbLine
 62
250
  6
CONTINUOUS
 10
168.6210107582
 20
120.7873599488
 11
175.2480271269
 21
124.0744135917
  0
LINE
  5
43D
100
AcDbEntity
  8
0
100
AcDbLine
 62
250
  6
CONTINUOUS
 10
168.725722123
 20
120.5086442556
 11
175.354881081
 21
123.7967559833
  0
LWPOLYLINE
  5
43E
100
AcDbEntity
  8
0
100
AcDbPolyline
 62
7
  6
CONTINUOUS
 90
5
 70
0
 10
171.4484052447
 20
119.176652667
 10
171.4445850424
 20
119.1749364725
 10
171.425370234
 20
119.1687296293
 10
171.4048946179
 20
119.1664772271
 10
171.4032233758
 20
119.1666192714
  0
LWPOLYLINE
  5
43F
100
AcDbEntity
  8
0
100
AcDbPolyline
 62
7
  6
CONTINUOUS
 90
5
 70
0
 10
168.6977598659
 20
117.8013299776
 10
168.6939396636
 20
117.7996137831
 10
168.6747248552
 20
117.7934069399
 10
168.6542492391
 20
117.7911545377
 10
168.652577997
 20
117.7912965819
  0
LWPOLYLINE
  5
440
100
AcDbEntity
  8
0
100
AcDbPolyline
 62
7
  6
CONTINUOUS
 90
7
 70
0
 10
167.3118305748
 20
117.108365332
 10
167.3080103724
 20
117.1066491375
 10
167.2887955641
 20
117.1004422943
 10
167.2683199479
 20
117.0981898921
 10
167.2468566627
 20
117.1000141261
 10
167.2241325696
 20
117.1057928011
 10
167.2001476687
 20
117.115525917
  0
LINE
  5
441
100
AcDbEntity
  8
0
100
AcDbLine
 62
250
  6
CONTINUOUS
 10
146.5009704903
 20
96.3539773891
 11
146.4462652074
 21
96.3813300305
  0
LWPOLYLINE
  5
442
100
AcDbEntity
  8
0
100
AcDbPolyline
 62
250
  6
CONTINUOUS
 90
6
 70
0
 10
150.3267699525
 20
79.8441359407
 10
150.3187474945
 20
79.8669374114
 10
150.3083044951
 20
79.8879724601
 10
150.2956176592
 20
79.9068851535
 10
150.2809016601
 20
79.9233554706
 10
150.264405507
 20
79.9371047177
  0
LWPOLYLINE
  5
443
100
AcDbEntity
  8
0
100
AcDbPolyline
 62
250
  6
CONTINUOUS
 90
7
 70
0
 10
138.8697548927
 20
125.7312271573
 10
138.8716610216
 20
125.7174538295
 10
138.8768741739
 20
125.7047836878
 10
138.8853147338
 20
125.6925560188
 10
138.8968414663
 20
125.6809754234
 10
138.9112614963
 20
125.6702356755
 10
138.9283335364
 20
125.6605164789
  0
LWPOLYLINE
  5
444
100
AcDbEntity
  8
0
100
AcDbPolyline
 62
250
  6
CONTINUOUS
 90
16
 70
0
 10
144.9411468497
 20
116.0267364031
 10
144.9375440329
 20
116.069822756
 10
144.9305523036
 20
116.1142849868
 10
144.9202411997
 20
116.1596806832
 10
144.9067132931
 20
116.2055581292
 10
144.8901031626
 20
116.2514608224
 10
144.8705760513
 20
116.2969320167
 10
144.8483262311
 20
116.3415192409
 10
144.8235750832
 20
116.3847787855
 10
144.7965688888
 20
116.4262801427
 10
144.7675763745
 20
116.4656102995
 10
144.736886022
 20
116.5023778634
 10
144.7048032061
 20
116.5362169393
 10
144.671647172
 20
116.5667907532
 10
144.637747861
 20
116.5937950093
 10
144.603442613
 20
116.6169609333
  0
LWPOLYLINE
  5
445
100
AcDbEntity
  8
0
100
AcDbPolyline
 62
7
  6
CONTINUOUS
 90
21
 70
0
 10
143.8268389258
 20
127.6515642554
 10
143.825207562
 20
127.6778062941
 10
143.8196836827
 20
127.7104296296
 10
143.8102349873
 20
127.7426224075
 10
143.7968543842
 20
127.7739439132
 10
143.7796768043
 20
127.8038126318
 10
143.7587942656
 20
127.8318959346
 10
143.7342581934
 20
127.8579530262
 10
143.7064500674
 20
127.8814791084
 10
143.6758454394
 20
127.9020966006
 10
143.6421999404
 20
127.919959759
 10
143.6058962711
 20
127.9348205135
 10
143.5682109586
 20
127.9462679496
 10
143.5288419879
 20
127.9545586841
 10
143.4877967267
 20
127.959645227
 10
143.4470140138
 20
127.9613577817
 10
143.4064264348
 20
127.9598152732
 10
143.3658427897
 20
127.9549490298
 10
143.3270751959
 20
127.9469409087
 10
143.2905184188
 20
127.9359950648
 10
143.2549165799
 20
127.9216115607
  0
LWPOLYLINE
  5
446
100
AcDbEntity
  8
0
100
AcDbPolyline
 62
250
  6
CONTINUOUS
 90
28
 70
0
 10
145.2116455651
 20
122.6578136779
 10
145.2112923208
 20
122.6688851901
 10
145.210465048
 20
122.6804113698
 10
145.2091357141
 20
122.6923738697
 10
145.2072732462
 20
122.704775338
 10
145.2048540782
 20
122.7175633709
 10
145.2018727704
 20
122.7306280511
 10
145.1983165168
 20
122.7439315444
 10
145.1941751144
 20
122.7574315349
 10
145.189468924
 20
122.7710040232
 10
145.1842032425
 20
122.7845975573
 10
145.1783831288
 20
122.7981667296
 10
145.1720488037
 20
122.8115961285
 10
145.1652245161
 20
122.824825207
 10
145.1579252712
 20
122.8378166892
 10
145.1501906719
 20
122.8504942133
 10
145.1420527761
 20
122.8628040277
 10
145.1335350805
 20
122.8747096195
 10
145.12466984
 20
122.8861644878
 10
145.1154880331
 20
122.8971273484
 10
145.106022448
 20
122.9075579498
 10
145.0963104051
 20
122.91741481
 10
145.0863866514
 20
122.9266624239
 10
145.0762866432
 20
122.9352675943
 10
145.0660503413
 20
122.9431968421
 10
145.0557157302
 20
122.9504215901
 10
145.0453185062
 20
122.9569174945
 10
145.0348957938
 20
122.9626619395
  0
LWPOLYLINE
  5
447
100
AcDbEntity
  8
0
100
AcDbPolyline
 62
250
  6
CONTINUOUS
 90
18
 70
0
 10
145.7765991644
 20
120.9084235803
 10
145.7767494701
 20
120.8995615326
 10
145.7772167881
 20
120.8906221071
 10
145.7780265472
 20
120.881636592
 10
145.7792062445
 20
120.8726254313
 10
145.7807799186
 20
120.8636399477
 10
145.7827624756
 20
120.8547583043
 10
145.7851728615
 20
120.8460186569
 10
145.7880289866
 20
120.8374616412
 10
145.7913326661
 20
120.8291638392
 10
145.7950941531
 20
120.8211640298
 10
145.7993221065
 20
120.8135023285
 10
145.8040034487
 20
120.8062483318
 10
145.8091383398
 20
120.7994372588
 10
145.8147252263
 20
120.7931042564
 10
145.8207359638
 20
120.7873061884
 10
145.8271605134
 20
120.782070489
 10
145.8339874388
 20
120.7774233192
  0
LWPOLYLINE
  5
448
100
AcDbEntity
  8
0
100
AcDbPolyline
 62
250
  6
CONTINUOUS
 90
28
 70
0
 10
144.9312925348
 20
122.6590369798
 10
144.9312559744
 20
122.661271655
 10
144.9311126107
 20
122.6635877839
 10
144.9308624437
 20
122.6659853665
 10
144.9305085427
 20
122.6684761447
 10
144.9300478384
 20
122.6710483766
 10
144.9294711228
 20
122.6736668368
 10
144.9287745539
 20
122.6763339642
 10
144.9279619736
 20
122.6790473199
 10
144.9270356993
 20
122.6817643611
 10
144.9259923075
 20
122.6844850858
 10
144.9248352217
 20
122.687209496
 10
144.9235770297
 20
122.6898950545
 10
144.922216204
 20
122.6925389569
 10
144.9207542721
 20
122.6951440075
 10
144.9192084046
 20
122.6976760822
 10
144.917578197
 20
122.7001326335
 10
144.9158640537
 20
122.7025162089
 10
144.9140843589
 20
122.7048003271
 10
144.9122382433
 20
122.7069839052
 10
144.9103265761
 20
122.7090680262
 10
144.9083703484
 20
122.7110294573
 10
144.9063690245
 20
122.7128666936
 10
144.90432314
 20
122.7145812401
 10
144.9022552936
 20
122.716154379
 10
144.9001730179
 20
122.717579871
 10
144.8980687802
 20
122.7188639554
 10
144.8959425805
 20
122.7200066321
  0
LINE
  5
449
100
AcDbEntity
  8
0
100
AcDbLine
 62
7
  6
CONTINUOUS
 10
143.8445304632
 20
126.4644982612
 11
143.8268399227
 21
127.6514967847
  0
LINE
  5
44A
100
AcDbEntity
  8
0
100
AcDbLine
 62
250
  6
CONTINUOUS
 10
143.728501169
 20
126.3273294935
 11
143.7160571277
 21
127.5207170634
  0
LWPOLYLINE
  5
44B
100
AcDbEntity
  8
0
100
AcDbPolyline
 62
7
  6
CONTINUOUS
 90
12
 70
0
 10
145.7180206
 20
120.9791071927
 10
145.7180512811
 20
120.9751866086
 10
145.7198708971
 20
120.9487327974
 10
145.7245076824
 20
120.9227862116
 10
145.7319104093
 20
120.8977342446
 10
145.7419132296
 20
120.87402106
 10
145.7543926253
 20
120.8518028594
 10
145.7692365996
 20
120.8312371607
 10
145.7861786554
 20
120.8126495954
 10
145.8049517757
 20
120.7962563395
 10
145.8254278087
 20
120.782125569
 10
145.8415490951
 20
120.7732176552
  0
LINE
  5
44C
100
AcDbEntity
  8
0
100
AcDbLine
 62
250
  6
CONTINUOUS
 10
144.8291931463
 20
125.1785707096
 11
144.8291931463
 21
126.853652767
  0
LINE
  5
44D
100
AcDbEntity
  8
0
100
AcDbLine
 62
250
  6
CONTINUOUS
 10
144.9312925348
 20
121.4717641985
 11
144.9312925348
 21
122.6590369798
  0
LINE
  5
44E
100
AcDbEntity
  8
0
100
AcDbLine
 62
250
  6
CONTINUOUS
 10
145.2116455651
 20
121.4794597696
 11
145.2116455651
 21
122.6578136779
  0
LINE
  5
44F
100
AcDbEntity
  8
0
100
AcDbLine
 62
7
  6
CONTINUOUS
 10
145.4299916025
 20
121.5986612893
 11
145.4299916025
 21
122.7678285594
  0
LINE
  5
450
100
AcDbEntity
  8
0
100
AcDbLine
 62
7
  6
CONTINUOUS
 10
145.7180205207
 20
121.2964030588
 11
145.7180205207
 21
120.9791342585
  0
LINE
  5
451
100
AcDbEntity
  8
0
100
AcDbLine
 62
250
  6
CONTINUOUS
 10
145.7765991644
 20
121.2256923806
 11
145.7765991644
 21
120.9084235803
  0
LINE
  5
452
100
AcDbEntity
  8
0
100
AcDbLine
 62
7
  6
CONTINUOUS
 10
146.1413250659
 20
79.2386076522
 11
146.1413250659
 21
116.6712687803
  0
LWPOLYLINE
  5
453
100
AcDbEntity
  8
0
100
AcDbPolyline
 62
250
  6
CONTINUOUS
 90
12
 70
0
 10
144.3586505311
 20
112.1622468352
 10
144.277153673
 20
109.1143567857
 10
144.2137601377
 20
106.0743536827
 10
144.1684628548
 20
103.0420004629
 10
144.1412688947
 20
100.0175341898
 10
144.1321994685
 20
97.0016660539
 10
144.1412686776
 20
93.9944022234
 10
144.1684624206
 20
90.9957365301
 10
144.2137596039
 20
88.0063616599
 10
144.2771531964
 20
85.026508508
 10
144.3586502293
 20
82.0559461791
 10
144.4582507025
 20
79.0946746733
  0
LINE
  5
454
100
AcDbEntity
  8
0
100
AcDbLine
 62
250
  6
CONTINUOUS
 10
144.4582507119
 20
115.2180238315
 11
144.3586505311
 21
112.1622468352
  0
LWPOLYLINE
  5
455
100
AcDbEntity
  8
0
100
AcDbPolyline
 62
250
  6
CONTINUOUS
 90
13
 70
0
 10
144.8959425805
 20
122.7200066321
 10
144.8971257603
 20
122.7429562365
 10
144.900655502
 20
122.766705012
 10
144.9064727434
 20
122.7908555779
 10
144.9144801465
 20
122.8150038302
 10
144.9245437259
 20
122.8387457037
 10
144.9364950909
 20
122.861683933
 10
144.9501342629
 20
122.8834346999
 10
144.965233022
 20
122.9036340555
 10
144.9815387252
 20
122.9219440102
 10
144.9987785344
 20
122.9380581894
 10
145.0166639811
 20
122.9517069593
 10
145.0348957938
 20
122.9626619395
  0
LWPOLYLINE
  5
456
100
AcDbEntity
  8
0
100
AcDbPolyline
 62
7
  6
CONTINUOUS
 90
5
 70
0
 10
156.3407672867
 20
123.7248174151
 10
156.3349105148
 20
123.7155999474
 10
156.3276451413
 20
123.7060710433
 10
156.3190433689
 20
123.6963827618
 10
156.3091941796
 20
123.6866524825
  0
LWPOLYLINE
  5
457
100
AcDbEntity
  8
0
100
AcDbPolyline
 62
250
  6
CONTINUOUS
 90
3
 70
0
 10
156.3676660459
 20
123.4943494461
 10
156.3596629157
 20
123.4819766023
 10
156.3485222513
 20
123.4702329075
  0
LWPOLYLINE
  5
458
100
AcDbEntity
  8
0
100
AcDbPolyline
 62
250
  6
CONTINUOUS
 90
3
 70
0
 10
167.3530737596
 20
121.7142349195
 10
167.3336239787
 20
121.6998391968
 10
167.3109756757
 20
121.6866644512
  0
LWPOLYLINE
  5
459
100
AcDbEntity
  8
RACCORDO
100
AcDbPolyline
 62
250
  6
CONTINUOUS
 90
5
 70
0
 10
162.425580664
 20
114.7132041184
 10
162.4526999093
 20
114.730900048
 10
162.4789858532
 20
114.7471945908
 10
162.5044588978
 20
114.7619934993
 10
162.529119043
 20
114.7752967735
  0
LWPOLYLINE
  5
45A
100
AcDbEntity
  8
0
100
AcDbPolyline
 62
7
  6
CONTINUOUS
 90
13
 70
0
 10
165.2061065416
 20
115.9170881536
 10
165.2228043373
 20
115.9273367775
 10
165.2383631368
 20
115.9395352043
 10
165.25278294
 20
115.9536834341
 10
165.2662847271
 20
115.9701618017
 10
165.2786475179
 20
115.9885899722
 10
165.2892083721
 20
116.007826941
 10
165.297887017
 20
116.0278938925
 10
165.3047637251
 20
116.0487696423
 10
165.3094163745
 20
116.0692496322
 10
165.3117076878
 20
116.0894012438
 10
165.3117749422
 20
116.1091570955
 10
165.3099466922
 20
116.1243033092
  0
LINE
  5
45B
100
AcDbEntity
  8
0
100
AcDbLine
 62
7
  6
CONTINUOUS
 10
167.5395589236
 20
117.2586248386
 11
167.4334929065
 21
117.1936729334
  0
LWPOLYLINE
  5
45C
100
AcDbEntity
  8
0
100
AcDbPolyline
 62
7
  6
CONTINUOUS
 90
4
 70
0
 10
167.6653839654
 20
117.2851420273
 10
167.6786983476
 20
117.2932205312
 10
167.6936908503
 20
117.3067097745
 10
167.6999436634
 20
117.3149794151
  0
LWPOLYLINE
  5
45D
100
AcDbEntity
  8
0
100
AcDbPolyline
 62
7
  6
CONTINUOUS
 90
4
 70
0
 10
169.0513132565
 20
117.9781066728
 10
169.0646276388
 20
117.9861851768
 10
169.0796201414
 20
117.9996744201
 10
169.0858729545
 20
118.0079440607
  0
LINE
  5
45E
100
AcDbEntity
  8
RACCORDO
100
AcDbLine
 62
250
  6
CONTINUOUS
 10
175.285491365
 20
121.3977999086
 11
175.2783608412
 21
121.3940378709
  0
LWPOLYLINE
  5
45F
100
AcDbEntity
  8
0
100
AcDbPolyline
 62
250
  6
CONTINUOUS
 90
6
 70
0
 10
162.4569220226
 20
114.5999882393
 10
162.4599706951
 20
114.6017721235
 10
162.4624384797
 20
114.6037844584
 10
162.4642530086
 20
114.6059788566
 10
162.4653556071
 20
114.6082998484
 10
162.4657088134
 20
114.6105855006
  0
LWPOLYLINE
  5
460
100
AcDbEntity
  8
RACCORDO
100
AcDbPolyline
 62
250
  6
CONTINUOUS
 90
14
 70
0
 10
175.354881081
 20
121.5555451275
 10
175.3870450729
 20
121.5731076536
 10
175.4187083619
 20
121.5921647416
 10
175.4495755861
 20
121.6127610099
 10
175.4792567519
 20
121.6348727547
 10
175.5074995273
 20
121.6585772702
 10
175.534126
 20
121.6840702175
 10
175.5587519237
 20
121.7114318123
 10
175.5808362557
 20
121.7405828122
 10
175.5998784938
 20
121.7714646986
 10
175.615510303
 20
121.8043400761
 10
175.6269956469
 20
121.8387996692
 10
175.6336871144
 20
121.8736978974
 10
175.6355412806
 20
121.904216854
  0
LINE
  5
461
100
AcDbEntity
  8
RACCORDO
100
AcDbLine
 62
250
  6
CONTINUOUS
 10
162.529119043
 20
114.7752967735
 11
175.354881081
 21
121.5555489262
  0
LWPOLYLINE
  5
462
100
AcDbEntity
  8
RACCORDO
100
AcDbPolyline
 62
7
  6
CONTINUOUS
 90
13
 70
0
 10
162.4536698523
 20
114.6143519211
 10
175.285491365
 20
121.3977999086
 10
175.3473566612
 20
121.4339549485
 10
175.4031661653
 20
121.4730235542
 10
175.4530779545
 20
121.5149133794
 10
175.4970978877
 20
121.5594633442
 10
175.5350683844
 20
121.6062951908
 10
175.5669780782
 20
121.6551397941
 10
175.5927953273
 20
121.7056291133
 10
175.6123709453
 20
121.7569234289
 10
175.6258135294
 20
121.8083165822
 10
175.6334224822
 20
121.8594159301
 10
175.635534958
 20
121.9045288304
  0
LINE
  5
463
100
AcDbEntity
  8
0
100
AcDbLine
 62
7
  6
CONTINUOUS
 10
174.1031715796
 20
119.7334740868
 11
174.6562186861
 21
120.023884334
  0
LWPOLYLINE
  5
464
100
AcDbEntity
  8
0
100
AcDbPolyline
 62
7
  6
CONTINUOUS
 90
8
 70
0
 10
162.4490982961
 20
114.5837486052
 10
162.4501440899
 20
114.5842961159
 10
162.4545596614
 20
114.5872571953
 10
162.4583214943
 20
114.5908805628
 10
162.4614554274
 20
114.5951963946
 10
162.4637484858
 20
114.5999283877
 10
162.4651541196
 20
114.6048584036
 10
162.4657059963
 20
114.6101833181
  0
LINE
  5
465
100
AcDbEntity
  8
0
100
AcDbLine
 62
7
  6
CONTINUOUS
 10
174.8588014025
 20
119.7116235457
 11
162.0342348363
 21
113.2110162798
  0
LINE
  5
466
100
AcDbEntity
  8
RACCORDO
100
AcDbLine
 62
250
  6
CONTINUOUS
 10
175.2475050101
 20
119.2505476464
 11
162.4229384295
 21
112.7499403732
  0
LINE
  5
467
100
AcDbEntity
  8
RACCORDO
100
AcDbLine
 62
250
  6
CONTINUOUS
 10
175.354881081
 20
118.9731736389
 11
162.5291182211
 21
112.4719599872
  0
LINE
  5
468
100
AcDbEntity
  8
RACCORDO
100
AcDbLine
 62
7
  6
CONTINUOUS
 10
174.1208589755
 20
119.7246303889
 11
161.7173161924
 21
113.4706317511
  0
LINE
  5
469
100
AcDbEntity
  8
0
100
AcDbLine
 62
7
  6
CONTINUOUS
 10
169.519457911
 20
118.2485743323
 11
167.5395589236
 21
117.2586248386
  0
LINE
  5
46A
100
AcDbEntity
  8
0
100
AcDbLine
 62
7
  6
CONTINUOUS
 10
170.9336714733
 20
118.9556811135
 11
172.9135704607
 21
119.9456306071
  0
LINE
  5
46B
100
AcDbEntity
  8
0
100
AcDbLine
 62
7
  6
CONTINUOUS
 10
172.8075044435
 20
119.8687598052
 11
170.8276054562
 21
118.8788103115
  0
LINE
  5
46C
100
AcDbEntity
  8
0
100
AcDbLine
 62
7
  6
CONTINUOUS
 10
169.4133918938
 20
118.1717035303
 11
167.4334929065
 21
117.1817540367
  0
LINE
  5
46D
100
AcDbEntity
  8
0
100
AcDbLine
 62
7
  6
CONTINUOUS
 10
171.8020791281
 20
119.3534895005
 11
171.4485257375
 21
119.1767128052
  0
LINE
  5
46E
100
AcDbEntity
  8
0
100
AcDbLine
 62
7
  6
CONTINUOUS
 10
169.0514337493
 20
117.9781668111
 11
168.6978803587
 21
117.8013901158
  0
LINE
  5
46F
100
AcDbEntity
  8
0
100
AcDbLine
 62
7
  6
CONTINUOUS
 10
167.6655044581
 20
117.2852021655
 11
167.3119510675
 21
117.1084254702
  0
LINE
  5
470
100
AcDbEntity
  8
0
100
AcDbLine
 62
7
  6
CONTINUOUS
 10
167.376924364
 20
117.1208833388
 11
167.0233709734
 21
116.9441066435
  0
LINE
  5
471
100
AcDbEntity
  8
0
100
AcDbLine
 62
7
  6
CONTINUOUS
 10
168.4093002645
 20
117.6370712891
 11
168.7628536551
 21
117.8138479844
  0
LINE
  5
472
100
AcDbEntity
  8
0
100
AcDbLine
 62
7
  6
CONTINUOUS
 10
171.1599456433
 20
119.0123939785
 11
171.5134990339
 21
119.1891706738
  0
LINE
  5
473
100
AcDbEntity
  8
0
100
AcDbLine
 62
7
  6
CONTINUOUS
 10
162.4562149159
 20
114.6003417927
 11
162.3407432109
 21
114.5426059402
  0
LINE
  5
474
100
AcDbEntity
  8
0
100
AcDbLine
 62
7
  6
CONTINUOUS
 10
162.294925568
 20
114.5066621958
 11
162.4491252271
 21
114.5837620253
  0
LINE
  5
475
100
AcDbEntity
  8
0
100
AcDbLine
 62
7
  6
CONTINUOUS
 10
163.9384913582
 20
115.1100754903
 11
163.3322735756
 21
114.806966599
  0
LINE
  5
476
100
AcDbEntity
  8
0
100
AcDbLine
 62
7
  6
CONTINUOUS
 10
165.1707512067
 20
115.6960270941
 11
163.9686696786
 21
115.0949863301
  0
LINE
  5
477
100
AcDbEntity
  8
0
100
AcDbLine
 62
7
  6
CONTINUOUS
 10
166.6733531167
 20
116.1990379737
 11
166.284444387
 21
116.0045836088
  0
LINE
  5
478
100
AcDbEntity
  8
0
100
AcDbLine
 62
7
  6
CONTINUOUS
 10
170.4033413874
 20
118.0525145634
 11
169.7669452844
 21
117.7343165118
  0
LINE
  5
479
100
AcDbEntity
  8
0
100
AcDbLine
 62
7
  6
CONTINUOUS
 10
161.8685625385
 20
113.6738821031
 11
161.7476229551
 21
113.6134123114
  0
LINE
  5
47A
100
AcDbEntity
  8
0
100
AcDbLine
 62
7
  6
CONTINUOUS
 10
168.5295084173
 20
116.972571318
 11
167.3274268893
 21
116.371530554
  0
LWPOLYLINE
  5
47B
100
AcDbEntity
  8
RACCORDO
100
AcDbPolyline
 62
250
  6
CONTINUOUS
 90
23
 70
0
 10
162.5291182211
 20
112.4719599872
 10
162.4706826545
 20
112.4438490593
 10
162.4110189111
 20
112.4209567171
 10
162.350126991
 20
112.4032829603
 10
162.2871758072
 20
112.3903151575
 10
162.2229964465
 20
112.3825659402
 10
162.1600821702
 20
112.3815732037
 10
162.0986911821
 20
112.3877985802
 10
162.0385652782
 20
112.4007804375
 10
161.9814231075
 20
112.4206717735
 10
161.9274592551
 20
112.4477720279
 10
161.8764791359
 20
112.4817817609
 10
161.8296176435
 20
112.5219556515
 10
161.7870844636
 20
112.5683049229
 10
161.7486699106
 20
112.6208183517
 10
161.7148798211
 20
112.6787169471
 10
161.6857392261
 20
112.7420443351
 10
161.6612230946
 20
112.8107568895
 10
161.6417621704
 20
112.8839447409
 10
161.627453657
 20
112.9620976239
 10
161.6182003508
 20
113.0447258039
 10
161.6141413846
 20
113.1294502065
 10
161.6156129542
 20
113.2164402703
  0
LWPOLYLINE
  5
47C
100
AcDbEntity
  8
RACCORDO
100
AcDbPolyline
 62
250
  6
CONTINUOUS
 90
17
 70
0
 10
162.4229384028
 20
112.7499404049
 10
162.3761947025
 20
112.7280512496
 10
162.3279707374
 20
112.7093473714
 10
162.2785006145
 20
112.6943381837
 10
162.2277595322
 20
112.6835161481
 10
162.1764036288
 20
112.6775262544
 10
162.1257137276
 20
112.6768300316
 10
162.0761940076
 20
112.6816275276
 10
162.028091529
 20
112.6921128237
 10
161.9821494654
 20
112.7082462492
 10
161.9386693139
 20
112.7299633081
 10
161.8978496783
 20
112.7572289392
 10
161.8601589194
 20
112.7897158912
 10
161.825901336
 20
112.8270654737
 10
161.7951533014
 20
112.8691313449
 10
161.7679721017
 20
112.9157957316
 10
161.7577948876
 20
112.9364055258
  0
LWPOLYLINE
  5
47D
100
AcDbEntity
  8
0
100
AcDbPolyline
 62
7
  6
CONTINUOUS
 90
10
 70
0
 10
162.0342348363
 20
113.2110162798
 10
161.9926951246
 20
113.1916426414
 10
161.9513871233
 20
113.1765822109
 10
161.9105838917
 20
113.165943067
 10
161.870540575
 20
113.1597998578
 10
161.831542453
 20
113.1582153125
 10
161.7938959568
 20
113.1612132155
 10
161.7578767644
 20
113.1687552117
 10
161.7236878204
 20
113.180782123
 10
161.7094521723
 20
113.1873829281
  0
LINE
  5
47E
100
AcDbEntity
  8
0
100
AcDbLine
 62
250
  6
CONTINUOUS
 10
148.7204528883
 20
97.4301993696
 11
148.5946320568
 21
97.4931097854
  0
LINE
  5
47F
100
AcDbEntity
  8
0
100
AcDbLine
 62
250
  6
CONTINUOUS
 10
149.0800983127
 20
98.0338409659
 11
148.9420416624
 21
98.1028692911
  0
LINE
  5
480
100
AcDbEntity
  8
0
100
AcDbLine
 62
250
  6
CONTINUOUS
 10
146.1459848206
 20
99.8926924821
 11
146.3497708293
 21
99.7907994778
  0
LINE
  5
481
100
AcDbEntity
  8
0
100
AcDbLine
 62
7
  6
CONTINUOUS
 10
146.1451415632
 20
99.9521687874
 11
146.2746744301
 21
99.8874023539
  0
LWPOLYLINE
  5
482
100
AcDbEntity
  8
0
100
AcDbPolyline
 62
7
  6
CONTINUOUS
 90
16
 70
0
 10
145.7742591764
 20
126.7552715869
 10
145.773103259
 20
126.7785704009
 10
145.7687610375
 20
126.8016974822
 10
145.761222353
 20
126.8246328508
 10
145.7502931585
 20
126.8477365848
 10
145.7361272257
 20
126.8705619136
 10
145.7192332988
 20
126.8918670001
 10
145.6996996661
 20
126.9112855157
 10
145.6773966505
 20
126.929044923
 10
145.6525155265
 20
126.9447953064
 10
145.62490679
 20
126.9584719209
 10
145.5947104672
 20
126.9699482485
 10
145.5625711581
 20
126.9788012706
 10
145.5287257719
 20
126.9848434039
 10
145.4930005362
 20
126.9880930317
 10
145.4554463707
 20
126.9884560184
  0
LWPOLYLINE
  5
483
100
AcDbEntity
  8
0
100
AcDbPolyline
 62
250
  6
CONTINUOUS
 90
9
 70
0
 10
147.8411004792
 20
119.8761902675
 10
147.8422993823
 20
119.851642815
 10
147.8458815982
 20
119.8286209368
 10
147.8517983284
 20
119.807435662
 10
147.8599706017
 20
119.7883712351
 10
147.8702868869
 20
119.7716870283
 10
147.882602827
 20
119.7576119329
 10
147.8967488683
 20
119.7463343444
 10
147.9062812724
 20
119.7408507268
  0
LWPOLYLINE
  5
484
100
AcDbEntity
  8
0
100
AcDbPolyline
 62
7
  6
CONTINUOUS
 90
16
 70
0
 10
145.4299916025
 20
122.7678285594
 10
145.4290424268
 20
122.7907753665
 10
145.426173081
 20
122.8145238164
 10
145.4213948205
 20
122.8388243371
 10
145.414713185
 20
122.8635080599
 10
145.4061963165
 20
122.8882111397
 10
145.3960385577
 20
122.9123849259
 10
145.3844910986
 20
122.9355753811
 10
145.3716311431
 20
122.9577555236
 10
145.3574103377
 20
122.9790087503
 10
145.3418191328
 20
122.9992453571
 10
145.325125993
 20
123.0180231099
 10
145.3077000193
 20
123.0349188623
 10
145.2898101548
 20
123.049715074
 10
145.2715912394
 20
123.0623384945
 10
145.2532418311
 20
123.072676821
  0
LINE
  5
485
100
AcDbEntity
  8
0
100
AcDbLine
 62
250
  6
CONTINUOUS
 10
148.4340723382
 20
127.0982868216
 11
148.4301077425
 21
127.3784473051
  0
LINE
  5
486
100
AcDbEntity
  8
0
100
AcDbLine
 62
7
  6
CONTINUOUS
 10
148.5080811778
 20
127.131044269
 11
148.503332943
 21
127.466581072
  0
LINE
  5
487
100
AcDbEntity
  8
0
100
AcDbLine
 62
250
  6
CONTINUOUS
 10
146.242922093
 20
125.9265614357
 11
146.242922093
 21
126.3450208016
  0
LINE
  5
488
100
AcDbEntity
  8
0
100
AcDbLine
 62
7
  6
CONTINUOUS
 10
146.4328836411
 20
120.4775495401
 11
146.4328836411
 21
120.0235754384
  0
LINE
  5
489
100
AcDbEntity
  8
0
100
AcDbLine
 62
250
  6
CONTINUOUS
 10
146.5061069458
 20
120.4409378877
 11
146.5061069458
 21
119.9318637435
  0
LINE
  5
48A
100
AcDbEntity
  8
0
100
AcDbLine
 62
7
  6
CONTINUOUS
 10
146.638844378
 20
119.1681018205
 11
146.638844378
 21
120.3759845598
  0
LINE
  5
48B
100
AcDbEntity
  8
0
100
AcDbLine
 62
250
  6
CONTINUOUS
 10
146.7120676827
 20
79.1410851817
 11
146.7120676827
 21
79.2560769172
  0
LINE
  5
48C
100
AcDbEntity
  8
0
100
AcDbLine
 62
250
  6
CONTINUOUS
 10
146.7120676827
 20
119.0763901257
 11
146.7120676827
 21
120.4406893211
  0
LINE
  5
48D
100
AcDbEntity
  8
0
100
AcDbLine
 62
250
  6
CONTINUOUS
 10
146.9056319688
 20
79.0443030387
 11
146.9056319688
 21
79.3358126295
  0
LINE
  5
48E
100
AcDbEntity
  8
0
100
AcDbLine
 62
250
  6
CONTINUOUS
 10
146.9056319688
 20
118.9796079826
 11
146.9056319688
 21
120.3439071781
  0
LINE
  5
48F
100
AcDbEntity
  8
0
100
AcDbLine
 62
250
  6
CONTINUOUS
 10
147.2560732568
 20
79.2905923605
 11
147.2560732568
 21
79.4801713141
  0
LINE
  5
490
100
AcDbEntity
  8
0
100
AcDbLine
 62
250
  6
CONTINUOUS
 10
147.2560732568
 20
118.9892274465
 11
147.2560732568
 21
120.0659547322
  0
LINE
  5
491
100
AcDbEntity
  8
0
100
AcDbLine
 62
7
  6
CONTINUOUS
 10
147.7987993195
 20
119.7945917009
 11
147.7987993195
 21
119.2855175567
  0
LINE
  5
492
100
AcDbEntity
  8
0
100
AcDbLine
 62
250
  6
CONTINUOUS
 10
147.8411004871
 20
120.1934417193
 11
147.8411004871
 21
119.8761902629
  0
LINE
  5
493
100
AcDbEntity
  8
0
100
AcDbLine
 62
250
  6
CONTINUOUS
 10
147.8411004871
 20
78.2592999792
 11
147.8411004871
 21
78.5765701843
  0
LINE
  5
494
100
AcDbEntity
  8
0
100
AcDbLine
 62
250
  6
CONTINUOUS
 10
148.1214535175
 20
120.1922184174
 11
148.1214535175
 21
119.874949617
  0
LINE
  5
495
100
AcDbEntity
  8
0
100
AcDbLine
 62
250
  6
CONTINUOUS
 10
148.1214535175
 20
78.2580766772
 11
148.1214535175
 21
78.5753454776
  0
LINE
  5
496
100
AcDbEntity
  8
0
100
AcDbLine
 62
250
  6
CONTINUOUS
 10
148.5258062682
 20
119.6021853707
 11
148.5258062682
 21
118.9220140823
  0
LINE
  5
497
100
AcDbEntity
  8
0
100
AcDbLine
 62
250
  6
CONTINUOUS
 10
148.5258062682
 20
80.0032175234
 11
148.5258062682
 21
79.5663226702
  0
LINE
  5
498
100
AcDbEntity
  8
0
100
AcDbLine
 62
250
  6
CONTINUOUS
 10
148.8762475561
 20
119.6898339924
 11
148.8762475561
 21
118.9315391164
  0
LINE
  5
499
100
AcDbEntity
  8
0
100
AcDbLine
 62
250
  6
CONTINUOUS
 10
148.8762475561
 20
80.1475762079
 11
148.8762475561
 21
79.4893572327
  0
LINE
  5
49A
100
AcDbEntity
  8
0
100
AcDbLine
 62
7
  6
CONTINUOUS
 10
148.9450688811
 20
100.6540631385
 11
148.9450688811
 21
98.1089237284
  0
LWPOLYLINE
  5
49B
100
AcDbEntity
  8
0
100
AcDbPolyline
 62
250
  6
CONTINUOUS
 90
22
 70
0
 10
148.1214535175
 20
78.5753454776
 10
148.1214768627
 20
78.5771756422
 10
148.1215763019
 20
78.5790786283
 10
148.1217518351
 20
78.5810544359
 10
148.1219997634
 20
78.58310949
 10
148.1223237857
 20
78.5852373657
 10
148.1227349985
 20
78.5874187882
 10
148.1232353707
 20
78.5896557159
 10
148.1238229334
 20
78.5919461905
 10
148.1245028763
 20
78.5942650623
 10
148.1252774659
 20
78.5966136996
 10
148.1261444358
 20
78.5989907341
 10
148.1271021766
 20
78.6013669114
 10
148.1281529884
 20
78.6037427471
 10
148.1292945712
 20
78.6061177255
 10
148.1305184152
 20
78.6084610456
 10
148.1318265795
 20
78.6107722367
 10
148.1332170049
 20
78.6130517696
 10
148.1346750037
 20
78.6152702543
 10
148.1361956798
 20
78.6174178943
 10
148.1377839292
 20
78.6195044862
 10
148.1394397519
 20
78.62153003
  0
LWPOLYLINE
  5
49C
100
AcDbEntity
  8
0
100
AcDbPolyline
 62
250
  6
CONTINUOUS
 90
22
 70
0
 10
147.8411004874
 20
78.5765701842
 10
147.8412555835
 20
78.5857014829
 10
147.8417375144
 20
78.5952185262
 10
147.8425706049
 20
78.6051143964
 10
147.8437810106
 20
78.6153948242
 10
147.8453916167
 20
78.6260319009
 10
147.8474164256
 20
78.6369624931
 10
147.8498730634
 20
78.6481666774
 10
147.8527779629
 20
78.6596211958
 10
147.8561318725
 20
78.6712519354
 10
147.8599437448
 20
78.6830301729
 10
147.8642208146
 20
78.6949244392
 10
147.8689489751
 20
78.7068532955
 10
147.8741272737
 20
78.718782041
 10
147.8797529945
 20
78.730674569
 10
147.8857972415
 20
78.7424477165
 10
147.8922491747
 20
78.7540648332
 10
147.8990966559
 20
78.7654894875
 10
147.9062979066
 20
78.7766431606
 10
147.9138242241
 20
78.7874789253
 10
147.9216644336
 20
78.7979781314
 10
147.9297973997
 20
78.8081086709
  0
LWPOLYLINE
  5
49D
100
AcDbEntity
  8
0
100
AcDbPolyline
 62
250
  6
CONTINUOUS
 90
9
 70
0
 10
149.4466059927
 20
124.8357208119
 10
149.446322291
 20
124.8290059837
 10
149.4427492913
 20
124.8096084647
 10
149.4351238913
 20
124.7905609935
 10
149.4235291104
 20
124.7720695701
 10
149.4080869912
 20
124.7543278789
 10
149.3889610834
 20
124.7375272421
 10
149.366357776
 20
124.7218539946
 10
149.3405203065
 20
124.7074796254
  0
LINE
  5
49E
100
AcDbEntity
  8
0
100
AcDbLine
 62
250
  6
CONTINUOUS
 10
149.8323316797
 20
124.3218706897
 11
149.8418958398
 21
124.5455339282
  0
LWPOLYLINE
  5
49F
100
AcDbEntity
  8
0
100
AcDbPolyline
 62
7
  6
CONTINUOUS
 90
9
 70
0
 10
149.4394749255
 20
123.6650472053
 10
149.4390925437
 20
123.6571915861
 10
149.435190702
 20
123.6373898269
 10
149.4269077992
 20
123.6177332561
 10
149.4144045784
 20
123.5983501797
 10
149.3982414966
 20
123.5800337552
 10
149.378605373
 20
123.5630483685
 10
149.3553093884
 20
123.5471296337
 10
149.3283535429
 20
123.5322775509
  0
LINE
  5
4A0
100
AcDbEntity
  8
0
100
AcDbLine
 62
7
  6
CONTINUOUS
 10
150.1188441489
 20
124.6056988963
 11
150.1175917825
 21
124.5836052839
  0
LWPOLYLINE
  5
4A1
100
AcDbEntity
  8
0
100
AcDbPolyline
 62
250
  6
CONTINUOUS
 90
11
 70
0
 10
144.9411468328
 20
78.7442134215
 10
144.937543895
 20
78.7011366027
 10
144.9305519214
 20
78.6602929787
 10
144.9202404885
 20
78.622088982
 10
144.906712205
 20
78.5869047785
 10
144.8901016899
 20
78.5550904842
 10
144.8705742336
 20
78.5269626812
 10
144.8483241526
 20
78.5028012678
 10
144.8235728562
 20
78.4828466727
 10
144.7965666432
 20
78.4672974631
 10
144.7874113714
 20
78.4632455276
  0
LINE
  5
4A2
100
AcDbEntity
  8
0
100
AcDbLine
 62
250
  6
CONTINUOUS
 10
149.716021901
 20
115.9425755258
 11
149.7148803105
 21
115.9295021643
  0
LWPOLYLINE
  5
4A3
100
AcDbEntity
  8
0
100
AcDbPolyline
 62
7
  6
CONTINUOUS
 90
3
 70
0
 10
150.1523669399
 20
124.6399957338
 10
150.1546316933
 20
124.6572784474
 10
150.1552491114
 20
124.6662039278
  0
LWPOLYLINE
  5
4A4
100
AcDbEntity
  8
0
100
AcDbPolyline
 62
250
  6
CONTINUOUS
 90
3
 70
0
 10
149.6068385963
 20
115.2786313696
 10
149.6087215674
 20
115.2928611932
 10
149.6097870409
 20
115.3149281803
  0
LWPOLYLINE
  5
4A5
100
AcDbEntity
  8
0
100
AcDbPolyline
 62
250
  6
CONTINUOUS
 90
3
 70
0
 10
149.7117295677
 20
115.8920089767
 10
149.7133100643
 20
115.9028798382
 10
149.7148803105
 20
115.9295021643
  0
LINE
  5
4A6
100
AcDbEntity
  8
0
100
AcDbLine
 62
250
  6
CONTINUOUS
 10
149.7148803105
 20
115.9295021643
 11
149.6097862161
 21
115.314923357
  0
LINE
  5
4A7
100
AcDbEntity
  8
0
100
AcDbLine
 62
7
  6
CONTINUOUS
 10
149.7117295677
 20
115.8920089767
 11
149.6066735796
 21
115.2776530105
  0
LINE
  5
4A8
100
AcDbEntity
  8
0
100
AcDbLine
 62
250
  6
CONTINUOUS
 10
149.6078999666
 20
115.307519724
 11
149.6097862161
 21
115.3149235277
  0
LWPOLYLINE
  5
4A9
100
AcDbEntity
  8
RACCORDO
100
AcDbPolyline
 62
250
  6
CONTINUOUS
 90
3
 70
0
 10
162.3689646816
 20
114.6730426146
 10
162.3976485193
 20
114.6940125545
 10
162.425580664
 20
114.7132041184
  0
LWPOLYLINE
  5
4AA
100
AcDbEntity
  8
0
100
AcDbPolyline
 62
7
  6
CONTINUOUS
 90
18
 70
0
 10
165.2061065416
 20
115.4840754598
 10
165.1894087459
 20
115.4738268359
 10
165.1738499465
 20
115.4616284091
 10
165.1594301432
 20
115.4474801794
 10
165.1459283561
 20
115.4310018118
 10
165.1335655653
 20
115.4125736413
 10
165.1230047111
 20
115.3933366725
 10
165.1143260663
 20
115.373269721
 10
165.1074493581
 20
115.3523939712
 10
165.1027967088
 20
115.3319139812
 10
165.1005053955
 20
115.3117623697
 10
165.100438141
 20
115.2920065179
 10
165.1026052361
 20
115.2740531282
 10
165.1071355215
 20
115.2581038286
 10
165.1139001565
 20
115.2439569909
 10
165.1225229088
 20
115.232414433
 10
165.1331161782
 20
115.2235650852
 10
165.1390083713
 20
115.2200156298
  0
LINE
  5
4AB
100
AcDbEntity
  8
0
100
AcDbLine
 62
7
  6
CONTINUOUS
 10
169.519457911
 20
118.2366554356
 11
169.4133918938
 21
118.1717035303
  0
LINE
  5
4AC
100
AcDbEntity
  8
0
100
AcDbLine
 62
7
  6
CONTINUOUS
 10
170.8276054562
 20
118.8907292082
 11
170.9336714733
 21
118.9556811135
  0
LINE
  5
4AD
100
AcDbEntity
  8
0
100
AcDbLine
 62
7
  6
CONTINUOUS
 10
172.9135704607
 20
119.9337117105
 11
172.8075044435
 21
119.8687598052
  0
LWPOLYLINE
  5
4AE
100
AcDbEntity
  8
0
100
AcDbPolyline
 62
7
  6
CONTINUOUS
 90
4
 70
0
 10
171.8019586353
 20
119.3534293623
 10
171.8152730176
 20
119.3615078662
 10
171.8302655202
 20
119.3749971095
 10
171.8365183334
 20
119.3832667501
  0
LWPOLYLINE
  5
4AF
100
AcDbEntity
  8
RACCORDO
100
AcDbPolyline
 62
250
  6
CONTINUOUS
 90
14
 70
0
 10
175.354881081
 20
117.2254181086
 10
175.3870450729
 20
117.2429806347
 10
175.4187083619
 20
117.2620377226
 10
175.4495755861
 20
117.282633991
 10
175.4792567518
 20
117.3047457358
 10
175.5074995273
 20
117.3284502512
 10
175.534126
 20
117.3539431985
 10
175.5587519237
 20
117.3813047934
 10
175.5808362557
 20
117.4104557933
 10
175.5998784938
 20
117.4413376796
 10
175.615510303
 20
117.4742130571
 10
175.6269956469
 20
117.5086726502
 10
175.6336871144
 20
117.5435708784
 10
175.6355412806
 20
117.5740898351
  0
LINE
  5
4B0
100
AcDbEntity
  8
RACCORDO
100
AcDbLine
 62
250
  6
CONTINUOUS
 10
162.5291190925
 20
110.4451697808
 11
175.354881081
 21
117.2254219073
  0
LWPOLYLINE
  5
4B1
100
AcDbEntity
  8
RACCORDO
100
AcDbPolyline
 62
7
  6
CONTINUOUS
 90
13
 70
0
 10
162.4536698523
 20
110.2842249022
 10
175.285491365
 20
117.0676728897
 10
175.3473566612
 20
117.1038279296
 10
175.4031661653
 20
117.1428965353
 10
175.4530779545
 20
117.1847863605
 10
175.4970978877
 20
117.2293363253
 10
175.5350683844
 20
117.2761681719
 10
175.5669780782
 20
117.3250127751
 10
175.5927953273
 20
117.3755020944
 10
175.6123709453
 20
117.42679641
 10
175.6258135294
 20
117.4781895633
 10
175.6334224822
 20
117.5292889112
 10
175.635534958
 20
117.5744018115
  0
LINE
  5
4B2
100
AcDbEntity
  8
RACCORDO
100
AcDbLine
 62
7
  6
CONTINUOUS
 10
174.1208589755
 20
115.3945033699
 11
161.7173198295
 21
109.140506566
  0
LINE
  5
4B3
100
AcDbEntity
  8
0
100
AcDbLine
 62
250
  6
CONTINUOUS
 10
166.0546346831
 20
112.1441823181
 11
166.1212886152
 21
112.1775092842
  0
LINE
  5
4B4
100
AcDbEntity
  8
0
100
AcDbLine
 62
7
  6
CONTINUOUS
 10
167.9638229923
 20
113.0726880884
 11
168.2289880353
 21
113.2052706099
  0
LINE
  5
4B5
100
AcDbEntity
  8
0
100
AcDbLine
 62
7
  6
CONTINUOUS
 10
166.0546346831
 20
112.035063008
 11
166.1960560394
 21
112.1057736861
  0
LINE
  5
4B6
100
AcDbEntity
  8
0
100
AcDbLine
 62
7
  6
CONTINUOUS
 10
162.5756693197
 20
110.1418387223
 11
162.2221159291
 21
109.965062027
  0
LINE
  5
4B7
100
AcDbEntity
  8
0
100
AcDbLine
 62
7
  6
CONTINUOUS
 10
167.9638229923
 20
112.7292677873
 11
166.54960943
 21
112.0221610061
  0
LINE
  5
4B8
100
AcDbEntity
  8
0
100
AcDbLine
 62
7
  6
CONTINUOUS
 10
162.3635372854
 20
109.8943513489
 11
162.7170906759
 21
110.0711280442
  0
LINE
  5
4B9
100
AcDbEntity
  8
0
100
AcDbLine
 62
7
  6
CONTINUOUS
 10
165.04700752
 20
111.1749271233
 11
164.0217026872
 21
110.662274707
  0
LINE
  5
4BA
100
AcDbEntity
  8
0
100
AcDbLine
 62
250
  6
CONTINUOUS
 10
162.3635372854
 20
109.7211462682
 11
162.7170906759
 21
109.8979229635
  0
LINE
  5
4BB
100
AcDbEntity
  8
0
100
AcDbLine
 62
7
  6
CONTINUOUS
 10
166.5142540909
 20
111.7863715815
 11
165.8071473097
 21
111.4328181909
  0
LINE
  5
4BC
100
AcDbEntity
  8
0
100
AcDbLine
 62
250
  6
CONTINUOUS
 10
162.4342479635
 20
109.5991883887
 11
162.7878013541
 21
109.775965084
  0
LINE
  5
4BD
100
AcDbEntity
  8
0
100
AcDbLine
 62
7
  6
CONTINUOUS
 10
162.3311002816
 20
109.4566376908
 11
161.7190952138
 21
109.1506351569
  0
LWPOLYLINE
  5
4BE
100
AcDbEntity
  8
0
100
AcDbPolyline
 62
7
  6
CONTINUOUS
 90
10
 70
0
 10
162.0342348363
 20
108.8808892609
 10
161.992601768
 20
108.8614768666
 10
161.9512305226
 20
108.8464062111
 10
161.9103945258
 20
108.8357767483
 10
161.8703617248
 20
108.8296553544
 10
161.8314010939
 20
108.8280909082
 10
161.7937779538
 20
108.8311031131
 10
161.7577513875
 20
108.8386631879
 10
161.7235457407
 20
108.8507161115
 10
161.7094568776
 20
108.857259104
  0
LINE
  5
4BF
100
AcDbEntity
  8
0
100
AcDbLine
 62
250
  6
CONTINUOUS
 10
148.9379448055
 20
100.7359039011
 11
149.0800983127
 21
100.6648271475
  0
LWPOLYLINE
  5
4C0
100
AcDbEntity
  8
0
100
AcDbPolyline
 62
250
  6
CONTINUOUS
 90
13
 70
0
 10
148.1567981801
 20
120.2525790646
 10
148.1552824473
 20
120.2756360056
 10
148.151416406
 20
120.2995289263
 10
148.1452661778
 20
120.323849172
 10
148.1369369522
 20
120.3481807781
 10
148.1265711875
 20
120.3721075864
 10
148.1143461732
 20
120.3952203629
 10
148.1004709987
 20
120.4171237953
 10
148.0851829797
 20
120.4374432518
 10
148.0687435976
 20
120.4558311913
 10
148.0514340265
 20
120.4719731103
 10
148.0335503226
 20
120.4855929215
 10
148.015398363
 20
120.4964576739
  0
LWPOLYLINE
  5
4C1
100
AcDbEntity
  8
0
100
AcDbPolyline
 62
250
  6
CONTINUOUS
 90
10
 70
0
 10
148.1214535175
 20
119.874949617
 10
148.1217243923
 20
119.8699439388
 10
148.1224483627
 20
119.8653554952
 10
148.1236254287
 20
119.8611842861
 10
148.1252838527
 20
119.8573853038
 10
148.1273953723
 20
119.854003556
 10
148.1298752007
 20
119.8511740663
 10
148.1326950756
 20
119.8489418425
 10
148.1358832593
 20
119.8472618769
 10
148.1394397519
 20
119.8461341693
  0
LWPOLYLINE
  5
4C2
100
AcDbEntity
  8
0
100
AcDbPolyline
 62
250
  6
CONTINUOUS
 90
10
 70
0
 10
150.3369347173
 20
79.6645721854
 10
150.3366731366
 20
79.6695732165
 10
150.3359740064
 20
79.67414924
 10
150.334837327
 20
79.6783002558
 10
150.3332358056
 20
79.6820707869
 10
150.3311967348
 20
79.6854163102
 10
150.3288019923
 20
79.688203257
 10
150.3260788708
 20
79.690387104
 10
150.3230000776
 20
79.6920123744
 10
150.3195656126
 20
79.6930790682
  0
LWPOLYLINE
  5
4C3
100
AcDbEntity
  8
0
100
AcDbPolyline
 62
250
  6
CONTINUOUS
 90
13
 70
0
 10
147.8997776566
 20
127.7719579263
 10
147.8982990234
 20
127.8010029905
 10
147.8938876226
 20
127.8309775798
 10
147.8866172691
 20
127.8613801371
 10
147.8766096159
 20
127.8917019442
 10
147.8640321185
 20
127.9214356339
 10
147.8490952329
 20
127.95008368
 10
147.8320488942
 20
127.977166722
 10
147.8131783346
 20
128.0022315862
 10
147.7927993104
 20
128.0248588687
 10
147.771252819
 20
128.044669953
 10
147.7488993921
 20
128.061333345
 10
147.726113064
 20
128.0745702205
  0
LWPOLYLINE
  5
4C4
100
AcDbEntity
  8
0
100
AcDbPolyline
 62
7
  6
CONTINUOUS
 90
13
 70
0
 10
148.5033221808
 20
127.4665843201
 10
148.5000761529
 20
127.5348518444
 10
148.4910383023
 20
127.6092084888
 10
148.4764417957
 20
127.6799804181
 10
148.456478681
 20
127.7468750912
 10
148.4313022415
 20
127.8097086783
 10
148.4010130582
 20
127.8683140843
 10
148.3657993753
 20
127.9223903697
 10
148.3259082507
 20
127.9715748893
 10
148.2816325848
 20
128.0154924019
 10
148.2333443256
 20
128.0538108567
 10
148.1815467389
 20
128.0861983755
 10
148.163307446
 20
128.0957715049
  0
LWPOLYLINE
  5
4C5
100
AcDbEntity
  8
0
100
AcDbPolyline
 62
250
  6
CONTINUOUS
 90
22
 70
0
 10
148.4301077425
 20
127.3784473051
 10
148.4279496317
 20
127.4262107625
 10
148.4229728329
 20
127.4718647709
 10
148.4151773462
 20
127.5154093305
 10
148.4044907833
 20
127.5570870307
 10
148.3909855326
 20
127.5966552821
 10
148.3748787583
 20
127.633386316
 10
148.3561255632
 20
127.667209568
 10
148.3347708447
 20
127.6981956026
 10
148.3111664595
 20
127.7258283443
 10
148.2852745528
 20
127.7500489694
 10
148.2571329795
 20
127.7709163017
 10
148.2272071603
 20
127.7880907361
 10
148.1954696276
 20
127.8015092718
 10
148.161947849
 20
127.8112349096
 10
148.1271896476
 20
127.8171170483
 10
148.0911551699
 20
127.8190846453
 10
148.0538842693
 20
127.8172087431
 10
148.0160443294
 20
127.8115518676
 10
147.9778578112
 20
127.8021348605
 10
147.9391022536
 20
127.7889368801
 10
147.8997776566
 20
127.7719579263
  0
LWPOLYLINE
  5
4C6
100
AcDbEntity
  8
0
100
AcDbPolyline
 62
7
  6
CONTINUOUS
 90
21
 70
0
 10
149.4466062816
 20
124.8357763066
 10
149.4454196688
 20
124.8632445926
 10
149.4402873147
 20
124.8966816131
 10
149.4310596027
 20
124.9296750739
 10
149.4177415805
 20
124.961751524
 10
149.4004826074
 20
124.9923052502
 10
149.3793390246
 20
125.0210578978
 10
149.3543197914
 20
125.0477779208
 10
149.3258465674
 20
125.0718699289
 10
149.2944732702
 20
125.0928885353
 10
149.259967922
 20
125.1110071283
 10
149.2227113677
 20
125.125975079
 10
149.1840906727
 20
125.1373689116
 10
149.1437974326
 20
125.1454636721
 10
149.1018255478
 20
125.1502123122
 10
149.0602570246
 20
125.1514592571
 10
149.0190386397
 20
125.1493351338
 10
148.9779503032
 20
125.1437725957
 10
148.9388405824
 20
125.1349770416
 10
148.9021103702
 20
125.1231768574
 10
148.8699114296
 20
125.1094940084
  0
LWPOLYLINE
  5
4C7
100
AcDbEntity
  8
0
100
AcDbPolyline
 62
250
  6
CONTINUOUS
 90
13
 70
0
 10
149.3405203065
 20
124.7074796254
 10
149.3393778624
 20
124.7366769618
 10
149.3351791231
 20
124.7668600661
 10
149.3279959024
 20
124.797512697
 10
149.3179510594
 20
124.8281105823
 10
149.305216398
 20
124.8581303866
 10
149.2900097281
 20
124.8870586621
 10
149.2725911395
 20
124.9144006297
 10
149.2532585536
 20
124.939688642
 10
149.2323426281
 20
124.9624901815
 10
149.2102011017
 20
124.9824152588
 10
149.1872126754
 20
124.9991230823
 10
149.1637705352
 20
125.012327887
  0
LWPOLYLINE
  5
4C8
100
AcDbEntity
  8
0
100
AcDbPolyline
 62
250
  6
CONTINUOUS
 90
13
 70
0
 10
150.3028027733
 20
121.3297422635
 10
150.3018888162
 20
121.3531001314
 10
150.2985298236
 20
121.3772466139
 10
150.2927832465
 20
121.4017687181
 10
150.2847473725
 20
121.4262470264
 10
150.2745596442
 20
121.4502628703
 10
150.2623943091
 20
121.4734054912
 10
150.2484594388
 20
121.4952790657
 10
150.2329933704
 20
121.515509476
 10
150.2162606303
 20
121.5337507079
 10
150.1985474094
 20
121.54969077
 10
150.1801566684
 20
121.5630570289
 10
150.1614029562
 20
121.5736208728
  0
LWPOLYLINE
  5
4C9
100
AcDbEntity
  8
0
100
AcDbPolyline
 62
7
  6
CONTINUOUS
 90
11
 70
0
 10
150.3930663294
 20
121.3737462274
 10
150.3925926197
 20
121.3890455417
 10
150.3889446423
 20
121.4187177838
 10
150.3817218217
 20
121.4474605618
 10
150.3710364686
 20
121.4748034103
 10
150.357211983
 20
121.5001028938
 10
150.3404985982
 20
121.5231310189
 10
150.3210294325
 20
121.5437749235
 10
150.2992111557
 20
121.5616325927
 10
150.2754821296
 20
121.5764232373
 10
150.2698430777
 20
121.5793500339
  0
LWPOLYLINE
  5
4CA
100
AcDbEntity
  8
0
100
AcDbPolyline
 62
250
  6
CONTINUOUS
 90
28
 70
0
 10
150.3369347173
 20
121.3041199196
 10
150.3368994995
 20
121.3062934769
 10
150.3367617481
 20
121.3084417241
 10
150.3365214632
 20
121.3105646612
 10
150.336181607
 20
121.3126766469
 10
150.3357392173
 20
121.3147633226
 10
150.3351854069
 20
121.3167816115
 10
150.3345165696
 20
121.3187301725
 10
150.3337363116
 20
121.3206103468
 10
150.3328465641
 20
121.3223830819
 10
150.3318441018
 20
121.3240451087
 10
150.3307321501
 20
121.3255996964
 10
150.3295223158
 20
121.327017599
 10
150.3282131175
 20
121.3282946751
 10
150.3268060366
 20
121.3294350661
 10
150.3253171237
 20
121.3304219507
 10
150.3237459376
 20
121.3312524727
 10
150.3220929196
 20
121.3319294882
 10
150.3203754444
 20
121.3324447443
 10
150.3185926514
 20
121.3327963241
 10
150.3167454013
 20
121.3329861444
 10
150.3148536501
 20
121.3330117024
 10
150.3129168558
 20
121.3328709887
 10
150.3109355604
 20
121.3325660126
 10
150.3089313462
 20
121.3321002995
 10
150.3069114074
 20
121.3314750245
 10
150.3048685498
 20
121.3306890125
 10
150.3028027733
 20
121.3297422635
  0
LWPOLYLINE
  5
4CB
100
AcDbEntity
  8
0
100
AcDbPolyline
 62
7
  6
CONTINUOUS
 90
12
 70
0
 10
150.3930671885
 20
79.7340663091
 10
150.3930486788
 20
79.7370752353
 10
150.3913558543
 20
79.7632708163
 10
150.3869063797
 20
79.7889861688
 10
150.3797392533
 20
79.8138282856
 10
150.3700217099
 20
79.8373716924
 10
150.3578803506
 20
79.8594729496
 10
150.3434282509
 20
79.8799676156
 10
150.326915305
 20
79.8985343488
 10
150.308600292
 20
79.9149689729
 10
150.2886222148
 20
79.9292065059
 10
150.2694709773
 20
79.9399879824
  0
LINE
  5
4CC
100
AcDbEntity
  8
0
100
AcDbLine
 62
7
  6
CONTINUOUS
 10
149.0800983127
 20
98.0338409659
 11
149.0800983127
 21
100.6648271475
  0
LINE
  5
4CD
100
AcDbEntity
  8
0
100
AcDbLine
 62
7
  6
CONTINUOUS
 10
149.5517532783
 20
82.3392204464
 11
149.5517532783
 21
84.8506941174
  0
LINE
  5
4CE
100
AcDbEntity
  8
0
100
AcDbLine
 62
7
  6
CONTINUOUS
 10
149.5517532783
 20
114.295557846
 11
149.5517532783
 21
116.807031517
  0
LINE
  5
4CF
100
AcDbEntity
  8
0
100
AcDbLine
 62
250
  6
CONTINUOUS
 10
149.6097862161
 20
83.4018872276
 11
149.6097862161
 21
84.8805273707
  0
LINE
  5
4D0
100
AcDbEntity
  8
0
100
AcDbLine
 62
250
  6
CONTINUOUS
 10
149.6097862161
 20
115.314923357
 11
149.6097862161
 21
116.8368647703
  0
LINE
  5
4D1
100
AcDbEntity
  8
0
100
AcDbLine
 62
250
  6
CONTINUOUS
 10
149.7148803105
 20
84.0164660349
 11
149.716021901
 21
84.0295393963
  0
LINE
  5
4D2
100
AcDbEntity
  8
0
100
AcDbLine
 62
250
  6
CONTINUOUS
 10
149.7148803105
 20
115.9295021643
 11
149.716021901
 21
115.9425755258
  0
LINE
  5
4D3
100
AcDbEntity
  8
0
100
AcDbLine
 62
7
  6
CONTINUOUS
 10
149.716021901
 20
84.0295393963
 11
149.716021901
 21
84.9351404269
  0
LINE
  5
4D4
100
AcDbEntity
  8
0
100
AcDbLine
 62
7
  6
CONTINUOUS
 10
149.716021901
 20
115.9425755258
 11
149.716021901
 21
116.8914778266
  0
LINE
  5
4D5
100
AcDbEntity
  8
RACCORDO
100
AcDbLine
 62
250
  6
CONTINUOUS
 10
149.7666419651
 20
116.3182221423
 11
149.7666419651
 21
116.9175003105
  0
LINE
  5
4D6
100
AcDbEntity
  8
0
100
AcDbLine
 62
7
  6
CONTINUOUS
 10
149.7786983068
 20
78.9808952004
 11
149.7786983068
 21
80.5193263633
  0
LINE
  5
4D7
100
AcDbEntity
  8
0
100
AcDbLine
 62
7
  6
CONTINUOUS
 10
149.7786983524
 20
119.4243078534
 11
149.7786983068
 21
121.0697825843
  0
LINE
  5
4D8
100
AcDbEntity
  8
0
100
AcDbLine
 62
7
  6
CONTINUOUS
 10
150.1322516974
 20
118.8145844899
 11
150.1322516974
 21
117.1054509496
  0
LINE
  5
4D9
100
AcDbEntity
  8
0
100
AcDbLine
 62
7
  6
CONTINUOUS
 10
150.1322516974
 20
80.8825399043
 11
150.1322516974
 21
82.5916734446
  0
LINE
  5
4DA
100
AcDbEntity
  8
0
100
AcDbLine
 62
250
  6
CONTINUOUS
 10
150.3369347173
 20
79.3246285905
 11
150.3369347173
 21
79.6645721854
  0
LINE
  5
4DB
100
AcDbEntity
  8
0
100
AcDbLine
 62
250
  6
CONTINUOUS
 10
150.3369347173
 20
120.9641763247
 11
150.3369347173
 21
121.3041199196
  0
LINE
  5
4DC
100
AcDbEntity
  8
0
100
AcDbLine
 62
7
  6
CONTINUOUS
 10
150.3930667572
 20
79.3940944276
 11
150.3930667572
 21
79.7340380917
  0
LINE
  5
4DD
100
AcDbEntity
  8
0
100
AcDbLine
 62
7
  6
CONTINUOUS
 10
150.3930667572
 20
121.0336421618
 11
150.3930667572
 21
121.3735857568
  0
LINE
  5
4DE
100
AcDbEntity
  8
DRAFT
100
AcDbLine
 62
7
  6
CONTINUOUS
 10
150.6449041137
 20
116.1618941175
 11
150.6449041137
 21
115.5203864863
  0
LINE
  5
4DF
100
AcDbEntity
  8
0
100
AcDbLine
 62
7
  6
CONTINUOUS
 10
150.8270158838
 20
81.2573811219
 11
150.8270158838
 21
82.6713372797
  0
LINE
  5
4E0
100
AcDbEntity
  8
0
100
AcDbLine
 62
7
  6
CONTINUOUS
 10
150.8270158838
 20
117.7452364904
 11
150.8270158838
 21
119.1591926482
  0
LINE
  5
4E1
100
AcDbEntity
  8
RACCORDO
100
AcDbLine
 62
7
  6
CONTINUOUS
 10
151.5818205988
 20
115.842131613
 11
151.5818205988
 21
85.2338510045
  0
LINE
  5
4E2
100
AcDbEntity
  8
0
100
AcDbLine
 62
7
  6
CONTINUOUS
 10
151.5834977452
 20
86.1464939628
 11
151.5834977452
 21
114.9278115083
  0
LINE
  5
4E3
100
AcDbEntity
  8
0
100
AcDbLine
 62
7
  6
CONTINUOUS
 10
149.4394316256
 20
123.6650477463
 11
149.4466059943
 21
124.8357210728
  0
LINE
  5
4E4
100
AcDbEntity
  8
0
100
AcDbLine
 62
250
  6
CONTINUOUS
 10
149.3283535429
 20
123.5322775509
 11
149.334369711
 21
124.1133863367
  0
LINE
  5
4E5
100
AcDbEntity
  8
0
100
AcDbLine
 62
250
  6
CONTINUOUS
 10
149.3366431648
 20
124.3329819232
 11
149.3405203065
 21
124.7074796254
  0
LWPOLYLINE
  5
4E6
100
AcDbEntity
  8
0
100
AcDbPolyline
 62
7
  6
CONTINUOUS
 90
3
 70
0
 10
150.1552491114
 20
124.6662039278
 10
150.1553777974
 20
124.671518905
 10
150.1548065439
 20
124.6826851863
  0
LWPOLYLINE
  5
4E7
100
AcDbEntity
  8
0
100
AcDbPolyline
 62
250
  6
CONTINUOUS
 90
8
 70
0
 10
150.3028027733
 20
79.263661584
 10
150.3018888196
 20
79.2418194862
 10
150.2985298367
 20
79.2215390776
 10
150.2927832735
 20
79.2031672276
 10
150.2847474155
 20
79.1870181633
 10
150.274559703
 20
79.1733680937
 10
150.2623943801
 20
79.1624504857
 10
150.2538995774
 20
79.1571112469
  0
LWPOLYLINE
  5
4E8
100
AcDbEntity
  8
0
100
AcDbPolyline
 62
7
  6
CONTINUOUS
 90
9
 70
0
 10
152.6092634312
 20
128.1525753145
 10
152.609259749
 20
128.152524129
 10
152.6090861844
 20
128.1498002658
 10
152.6088759836
 20
128.1426911664
 10
152.6087256099
 20
128.1309805214
 10
152.6082886788
 20
128.1145343272
 10
152.6075721199
 20
128.0930652288
 10
152.6069796177
 20
128.066265284
 10
152.6067972834
 20
128.0339092141
  0
LINE
  5
4E9
100
AcDbEntity
  8
0
100
AcDbLine
 62
250
  6
CONTINUOUS
 10
149.716021901
 20
84.0295393963
 11
149.7148803105
 21
84.0164660349
  0
LWPOLYLINE
  5
4EA
100
AcDbEntity
  8
0
100
AcDbPolyline
 62
7
  6
CONTINUOUS
 90
17
 70
0
 10
165.235741057
 20
115.2446591153
 10
165.2383631368
 20
115.2467148811
 10
165.25278294
 20
115.2608631109
 10
165.2662847271
 20
115.2773414785
 10
165.2786475179
 20
115.295769649
 10
165.2892083721
 20
115.3150066178
 10
165.297887017
 20
115.3350735693
 10
165.3047637251
 20
115.3559493191
 10
165.3094163745
 20
115.376429309
 10
165.3117076878
 20
115.3965809206
 10
165.3117749422
 20
115.4163367723
 10
165.3096078472
 20
115.4342901621
 10
165.3050775617
 20
115.4502394617
 10
165.2983129268
 20
115.4643862993
 10
165.2896901744
 20
115.4759288572
 10
165.2790969051
 20
115.484778205
 10
165.2732047119
 20
115.4883276604
  0
LINE
  5
4EB
100
AcDbEntity
  8
RACCORDO
100
AcDbLine
 62
250
  6
CONTINUOUS
 10
162.3740284932
 20
110.3466986488
 11
162.401878076
 21
110.3668760873
  0
LWPOLYLINE
  5
4EC
100
AcDbEntity
  8
RACCORDO
100
AcDbPolyline
 62
250
  6
CONTINUOUS
 90
6
 70
0
 10
162.401878076
 20
110.3668760873
 10
162.4289619355
 20
110.3853405886
 10
162.4552327036
 20
110.4023740216
 10
162.4806745912
 20
110.4180703429
 10
162.5053033875
 20
110.4323355959
 10
162.5291190925
 20
110.4451697808
  0
LWPOLYLINE
  5
4ED
100
AcDbEntity
  8
0
100
AcDbPolyline
 62
7
  6
CONTINUOUS
 90
7
 70
0
 10
166.0726297115
 20
112.1816462923
 10
166.0676602226
 20
112.178364606
 10
166.0630933072
 20
112.1736006014
 10
166.0594802212
 20
112.1677722101
 10
166.0569112124
 20
112.1609732995
 10
166.055296033
 20
112.1531100022
 10
166.0546346831
 20
112.1441823181
  0
LWPOLYLINE
  5
4EE
100
AcDbEntity
  8
0
100
AcDbPolyline
 62
7
  6
CONTINUOUS
 90
18
 70
0
 10
163.438339586
 20
110.3566674997
 10
163.4550373817
 20
110.3669161236
 10
163.4705961811
 20
110.3791145504
 10
163.4850159843
 20
110.3932627802
 10
163.4985177714
 20
110.4097411477
 10
163.5108805623
 20
110.4281693183
 10
163.5214414165
 20
110.447406287
 10
163.5301200613
 20
110.4674732385
 10
163.5369967695
 20
110.4883489883
 10
163.5416494188
 20
110.5088289783
 10
163.5439407321
 20
110.5289805898
 10
163.5440079866
 20
110.5487364416
 10
163.5418408915
 20
110.5666898313
 10
163.5373106061
 20
110.5826391309
 10
163.5305459711
 20
110.5967859686
 10
163.5219232188
 20
110.6083285265
 10
163.5113299494
 20
110.6171778743
 10
163.5054377563
 20
110.6207273297
  0
LWPOLYLINE
  5
4EF
100
AcDbEntity
  8
0
100
AcDbPolyline
 62
7
  6
CONTINUOUS
 90
18
 70
0
 10
163.438339586
 20
110.6164751291
 10
163.4217605037
 20
110.6063688886
 10
163.40626545
 20
110.5942405615
 10
163.3918544247
 20
110.5800901477
 10
163.3782730637
 20
110.563490333
 10
163.3657757312
 20
110.5448684317
 10
163.3551255199
 20
110.5255063867
 10
163.346459553
 20
110.5054326746
 10
163.3396407073
 20
110.4846188189
 10
163.3350207062
 20
110.4642613325
 10
163.3327076619
 20
110.4443488279
 10
163.3325934621
 20
110.4248926927
 10
163.3347054938
 20
110.4071236026
 10
163.3391651276
 20
110.3911465323
 10
163.3458509929
 20
110.3768565072
 10
163.354426365
 20
110.3651692791
 10
163.3650214172
 20
110.3562000488
 10
163.3712338474
 20
110.352419087
  0
LWPOLYLINE
  5
4F0
100
AcDbEntity
  8
0
100
AcDbPolyline
 62
7
  6
CONTINUOUS
 90
5
 70
0
 10
164.0040250111
 20
110.6395102122
 10
164.0206040933
 20
110.6496164527
 10
164.036099147
 20
110.6617447798
 10
164.0505101723
 20
110.6758951936
 10
164.0515946392
 20
110.6772206829
  0
LINE
  5
4F1
100
AcDbEntity
  8
RACCORDO
100
AcDbLine
 62
250
  6
CONTINUOUS
 10
175.285491365
 20
117.0676728897
 11
175.2783608412
 21
117.063910852
  0
LINE
  5
4F2
100
AcDbEntity
  8
0
100
AcDbLine
 62
7
  6
CONTINUOUS
 10
174.1031715796
 20
115.4033470679
 11
174.6562186861
 21
115.693757315
  0
LINE
  5
4F3
100
AcDbEntity
  8
0
100
AcDbLine
 62
7
  6
CONTINUOUS
 10
174.8588014025
 20
115.3814965268
 11
162.0342348363
 21
108.8808892609
  0
LINE
  5
4F4
100
AcDbEntity
  8
RACCORDO
100
AcDbLine
 62
250
  6
CONTINUOUS
 10
175.2475050101
 20
114.9204206275
 11
162.4229383822
 21
108.4198133303
  0
LINE
  5
4F5
100
AcDbEntity
  8
RACCORDO
100
AcDbLine
 62
250
  6
CONTINUOUS
 10
175.354881081
 20
114.64304662
 11
162.5291181358
 21
108.1418329251
  0
LINE
  5
4F6
100
AcDbEntity
  8
0
100
AcDbLine
 62
7
  6
CONTINUOUS
 10
146.3497708293
 20
99.7907994778
 11
147.4165954676
 21
100.322100993
  0
LINE
  5
4F7
100
AcDbEntity
  8
0
100
AcDbLine
 62
7
  6
CONTINUOUS
 10
146.5009704903
 20
99.8971898078
 11
148.7204528883
 21
100.9271779794
  0
LWPOLYLINE
  5
4F8
100
AcDbEntity
  8
RACCORDO
100
AcDbPolyline
 62
250
  6
CONTINUOUS
 90
16
 70
0
 10
162.4229383555
 20
108.419813362
 10
162.3665435252
 20
108.3938690952
 10
162.3105604411
 20
108.3734571496
 10
162.2553445286
 20
108.3586841483
 10
162.2012652006
 20
108.349644111
 10
162.1486127269
 20
108.3463302804
 10
162.0976207082
 20
108.3487138695
 10
162.0485638586
 20
108.3567831797
 10
162.0017346145
 20
108.3704674255
 10
161.9573855205
 20
108.3896533683
 10
161.9157677141
 20
108.4142178488
 10
161.8770838201
 20
108.4440095975
 10
161.8415060144
 20
108.4788521341
 10
161.8092610212
 20
108.5185207862
 10
161.7805083986
 20
108.56281684
 10
161.7577881819
 20
108.6062998112
  0
LWPOLYLINE
  5
4F9
100
AcDbEntity
  8
RACCORDO
100
AcDbPolyline
 62
250
  6
CONTINUOUS
 90
23
 70
0
 10
162.5291181358
 20
108.1418329251
 10
162.4585922937
 20
108.109636065
 10
162.3893393337
 20
108.0844600945
 10
162.3213592558
 20
108.0663050135
 10
162.2542699158
 20
108.055166633
 10
162.188453458
 20
108.051049142
 10
162.1250563143
 20
108.0539651075
 10
162.0641434
 20
108.0640422408
 10
162.0056497998
 20
108.0811528305
 10
161.9505272003
 20
108.1049263103
 10
161.898847659
 20
108.1354554283
 10
161.8505391182
 20
108.1726474362
 10
161.8063370917
 20
108.215853523
 10
161.7663080459
 20
108.2651017757
 10
161.7303855143
 20
108.3203641071
 10
161.6991056118
 20
108.3809074448
 10
161.672492056
 20
108.4468901996
 10
161.6505211292
 20
108.5181539606
 10
161.633657794
 20
108.5934904227
 10
161.6220750796
 20
108.6733523951
 10
161.6155999567
 20
108.7572870686
 10
161.6141783007
 20
108.8427277116
 10
161.6181270165
 20
108.9297118839
  0
LINE
  5
4FA
100
AcDbEntity
  8
0
100
AcDbLine
 62
7
  6
CONTINUOUS
 10
154.4102477235
 20
130.266934354
 11
154.4102477235
 21
130.8691830689
  0
LWPOLYLINE
  5
4FB
100
AcDbEntity
  8
0
100
AcDbPolyline
 62
250
  6
CONTINUOUS
 90
3
 70
0
 10
156.3737717924
 20
123.518780909
 10
156.3723914245
 20
123.5071411443
 10
156.3676660459
 20
123.4943494461
  0
LWPOLYLINE
  5
4FC
100
AcDbEntity
  8
0
100
AcDbPolyline
 62
250
  6
CONTINUOUS
 90
6
 70
0
 10
156.3737718567
 20
123.5381529259
 10
156.3723163427
 20
123.5261494611
 10
156.3675462458
 20
123.5134357505
 10
156.3595337825
 20
123.5011362789
 10
156.3484130229
 20
123.4894568495
 10
156.3343700471
 20
123.4785928907
  0
LWPOLYLINE
  5
4FD
100
AcDbEntity
  8
0
100
AcDbPolyline
 62
250
  6
CONTINUOUS
 90
3
 70
0
 10
149.6068463817
 20
83.3656420995
 10
149.6087209815
 20
83.3798193008
 10
149.6097870409
 20
83.4018920509
  0
LWPOLYLINE
  5
4FE
100
AcDbEntity
  8
0
100
AcDbPolyline
 62
250
  6
CONTINUOUS
 90
3
 70
0
 10
149.7117295677
 20
83.9789728472
 10
149.7133100643
 20
83.9898437087
 10
149.7148803105
 20
84.0164660349
  0
LINE
  5
4FF
100
AcDbEntity
  8
0
100
AcDbLine
 62
250
  6
CONTINUOUS
 10
149.7148803105
 20
84.0164660349
 11
149.6097862161
 21
83.4018872276
  0
LINE
  5
500
100
AcDbEntity
  8
0
100
AcDbLine
 62
7
  6
CONTINUOUS
 10
149.7117295677
 20
83.9789728472
 11
149.6066736966
 21
83.3646175653
  0
LINE
  5
501
100
AcDbEntity
  8
0
100
AcDbLine
 62
250
  6
CONTINUOUS
 10
149.6078999666
 20
83.3944835958
 11
149.6097862161
 21
83.4018873959
  0
LWPOLYLINE
  5
502
100
AcDbEntity
  8
0
100
AcDbPolyline
 62
250
  6
CONTINUOUS
 90
3
 70
0
 10
175.547502811
 20
128.0789337238
 10
175.5794708049
 20
128.118998076
 10
175.6044135355
 20
128.1602909792
  0
LINE
  5
503
100
AcDbEntity
  8
0
100
AcDbLine
 62
7
  6
CONTINUOUS
 10
146.3497708293
 20
96.3311929047
 11
148.5976592754
 21
97.4991642228
  0
LINE
  5
504
100
AcDbEntity
  8
0
100
AcDbLine
 62
7
  6
CONTINUOUS
 10
146.5009704903
 20
96.3539773891
 11
148.7204528883
 21
97.4301993696
  0
LINE
  5
505
100
AcDbEntity
  8
0
100
AcDbLine
 62
7
  6
CONTINUOUS
 10
156.3737617383
 20
123.5381529259
 11
156.3734018144
 21
123.5656562372
  0
LINE
  5
506
100
AcDbEntity
  8
0
100
AcDbLine
 62
250
  6
CONTINUOUS
 10
156.317639832
 20
123.4687261856
 11
156.317639832
 21
123.4494042602
  0
LINE
  5
507
100
AcDbEntity
  8
0
100
AcDbLine
 62
7
  6
CONTINUOUS
 10
156.3737718719
 20
123.5381920227
 11
156.3737718719
 21
123.5188700972
  0
LINE
  5
508
100
AcDbEntity
  8
0
100
AcDbLine
 62
250
  6
CONTINUOUS
 10
156.3737718719
 20
123.5188700972
 11
156.3737717924
 21
123.518780909
  0
LWPOLYLINE
  5
509
100
AcDbEntity
  8
0
100
AcDbPolyline
 62
250
  6
CONTINUOUS
 90
7
 70
0
 10
150.3195656126
 20
79.6930790682
 10
150.327364416
 20
79.7178064705
 10
150.3325968714
 20
79.7432908903
 10
150.3351744405
 20
79.7691011066
 10
150.3350535085
 20
79.7948003856
 10
150.3322361215
 20
79.8199538707
 10
150.3267699525
 20
79.8441359407
  0
LWPOLYLINE
  5
50A
100
AcDbEntity
  8
0
100
AcDbPolyline
 62
7
  6
CONTINUOUS
 90
4
 70
0
 10
149.7679365504
 20
78.9200019028
 10
149.7738854599
 20
78.9384827588
 10
149.7774946899
 20
78.9588976265
 10
149.7786983068
 20
78.9808952004
  0
LWPOLYLINE
  5
50B
100
AcDbEntity
  8
0
100
AcDbPolyline
 62
7
  6
CONTINUOUS
 90
4
 70
0
 10
168.7323195639
 20
117.8311673654
 10
168.7260667508
 20
117.8228977248
 10
168.7110742482
 20
117.8094084815
 10
168.6977598659
 20
117.8013299776
  0
LWPOLYLINE
  5
50C
100
AcDbEntity
  8
0
100
AcDbPolyline
 62
7
  6
CONTINUOUS
 90
4
 70
0
 10
171.4829649428
 20
119.2064900548
 10
171.4767121296
 20
119.1982204142
 10
171.461719627
 20
119.1847311709
 10
171.4484052447
 20
119.176652667
  0
LWPOLYLINE
  5
50D
100
AcDbEntity
  8
0
100
AcDbPolyline
 62
7
  6
CONTINUOUS
 90
5
 70
0
 10
150.1548065439
 20
124.6826851863
 10
150.1530934837
 20
124.6907579544
 10
150.1504248882
 20
124.6957133764
 10
150.1470605831
 20
124.6975225977
 10
150.1446800959
 20
124.6970116794
  0
LWPOLYLINE
  5
50E
100
AcDbEntity
  8
0
100
AcDbPolyline
 62
7
  6
CONTINUOUS
 90
6
 70
0
 10
156.3734018144
 20
123.5656562372
 10
156.3711091681
 20
123.6121839904
 10
156.3666420616
 20
123.6580970171
 10
156.3599670309
 20
123.7030705701
 10
156.3511803999
 20
123.7464641403
 10
156.3483285647
 20
123.758406042
  0
LINE
  5
50F
100
AcDbEntity
  8
0
100
AcDbLine
 62
250
  6
CONTINUOUS
 10
156.3138486334
 20
86.6550867074
 11
156.3164304886
 21
86.6946866359
  0
LWPOLYLINE
  5
510
100
AcDbEntity
  8
0
100
AcDbPolyline
 62
7
  6
CONTINUOUS
 90
9
 70
0
 10
160.2463977322
 20
130.5585710266
 10
160.2463940501
 20
130.5585198412
 10
160.2462204855
 20
130.5557959779
 10
160.2460102847
 20
130.5486868785
 10
160.245859911
 20
130.5369762335
 10
160.2454229798
 20
130.5205300393
 10
160.244706421
 20
130.4990609409
 10
160.2441139188
 20
130.4722609961
 10
160.2439315845
 20
130.4399049262
  0
LWPOLYLINE
  5
511
100
AcDbEntity
  8
0
100
AcDbPolyline
 62
250
  6
CONTINUOUS
 90
3
 70
0
 10
156.3043933377
 20
86.5773568012
 10
156.3098289977
 20
86.6158655315
 10
156.3138486334
 20
86.6550867074
  0
LINE
  5
512
100
AcDbEntity
  8
0
100
AcDbLine
 62
250
  6
CONTINUOUS
 10
156.2975416535
 20
86.5395605164
 11
156.3043933377
 21
86.5773568012
  0
LWPOLYLINE
  5
513
100
AcDbEntity
  8
0
100
AcDbPolyline
 62
7
  6
CONTINUOUS
 90
6
 70
0
 10
156.3475110578
 20
86.5596819188
 10
156.3501666713
 20
86.5727746629
 10
156.357517826
 20
86.6132820533
 10
156.3635372969
 20
86.6537292657
 10
156.3681941775
 20
86.6940386937
 10
156.3705784459
 20
86.7233209677
  0
LINE
  5
514
100
AcDbEntity
  8
0
100
AcDbLine
 62
250
  6
CONTINUOUS
 10
156.2892739449
 20
86.5024766771
 11
156.2975416535
 21
86.5395605164
  0
LWPOLYLINE
  5
515
100
AcDbEntity
  8
0
100
AcDbPolyline
 62
7
  6
CONTINUOUS
 90
10
 70
0
 10
166.8379393724
 20
112.3090208463
 10
166.8269529881
 20
112.2945699262
 10
166.814798538
 20
112.281454266
 10
166.802237795
 20
112.2704389192
 10
166.7892538213
 20
112.2616434725
 10
166.7758635546
 20
112.2549483392
 10
166.7628795809
 20
112.2507598121
 10
166.7503188379
 20
112.249214416
 10
166.7381643879
 20
112.2501756261
 10
166.7349623624
 20
112.2511853788
  0
LWPOLYLINE
  5
516
100
AcDbEntity
  8
0
100
AcDbPolyline
 62
7
  6
CONTINUOUS
 90
4
 70
0
 10
166.0924880112
 20
112.183679128
 10
166.0852789955
 20
112.1843929484
 10
166.0787530668
 20
112.1837607795
 10
166.0726297115
 20
112.1816462923
  0
LWPOLYLINE
  5
517
100
AcDbEntity
  8
0
100
AcDbPolyline
 62
250
  6
CONTINUOUS
 90
8
 70
0
 10
143.7853192909
 20
115.2298803078
 10
143.2765403512
 20
115.4524179239
 10
142.7699430266
 20
115.6760086352
 10
142.2655338452
 20
115.9006472502
 10
141.7634366144
 20
116.1262756375
 10
141.2635395171
 20
116.3529410392
 10
140.7654996107
 20
116.5807985179
 10
140.2691668185
 20
116.8099192634
  0
LINE
  5
518
100
AcDbEntity
  8
0
100
AcDbLine
 62
250
  6
CONTINUOUS
 10
140.2691668185
 20
116.8099192634
 11
139.5724411586
 21
117.1352882775
  0
LWPOLYLINE
  5
519
100
AcDbEntity
  8
0
100
AcDbPolyline
 62
250
  6
CONTINUOUS
 90
22
 70
0
 10
139.5724411586
 20
117.1352882775
 10
138.791911411
 20
117.5041847829
 10
138.3035804943
 20
117.737827525
 10
137.8173286413
 20
117.9725635852
 10
137.3330976074
 20
118.2084212516
 10
136.85096245
 20
118.4453640389
 10
136.3711604379
 20
118.6832734394
 10
135.8940038526
 20
118.9219892499
 10
135.4191876139
 20
119.161658737
 10
134.9460289223
 20
119.402627555
 10
134.4754310648
 20
119.6444342067
 10
134.0065101811
 20
119.8875333676
 10
133.5359569982
 20
120.1336711653
 10
133.0646166028
 20
120.382449087
 10
132.5917563743
 20
120.6343025658
 10
132.1118267503
 20
120.8922880404
 10
131.6248106377
 20
121.1565488872
 10
131.1310193194
 20
121.4270599027
 10
130.6255595263
 20
121.7066991814
 10
130.1069967041
 20
121.996507696
 10
129.5772683064
 20
122.2956493525
 10
129.036629484
 20
122.6042252093
  0
LWPOLYLINE
  5
51A
100
AcDbEntity
  8
0
100
AcDbPolyline
 62
250
  6
CONTINUOUS
 90
10
 70
0
 10
129.8524902071
 20
123.9942353739
 10
131.3891310109
 20
123.1211307934
 10
132.9508468281
 20
122.2616813258
 10
134.5376376587
 20
121.4158869711
 10
136.1497439435
 20
120.5836229409
 10
137.7869252417
 20
119.7650140236
 10
139.4484602307
 20
118.9604345842
 10
141.1341084697
 20
118.1700094111
 10
142.8441103994
 20
117.3936137158
 10
144.57846602
 20
116.6312474985
  0
LWPOLYLINE
  5
51B
100
AcDbEntity
  8
0
100
AcDbPolyline
 62
250
  6
CONTINUOUS
 90
7
 70
0
 10
144.603442613
 20
116.6169609333
 10
144.5992788206
 20
116.6194932252
 10
144.5951146279
 20
116.6219655135
 10
144.5909506427
 20
116.6243774348
 10
144.5867874726
 20
116.6267286341
 10
144.5826257253
 20
116.6290187656
 10
144.5784660085
 20
116.6312474923
  0
LINE
  5
51C
100
AcDbEntity
  8
RACCORDO
100
AcDbLine
 62
7
  6
CONTINUOUS
 10
150.8270158838
 20
117.8613068399
 11
151.1676701232
 21
117.2737651876
  0
LWPOLYLINE
  5
51D
100
AcDbEntity
  8
0
100
AcDbPolyline
 62
250
  6
CONTINUOUS
 90
7
 70
0
 10
150.3195656126
 20
120.9176832076
 10
150.3273644549
 20
120.9034675497
 10
150.3325969264
 20
120.8906678757
 10
150.3351744929
 20
120.8795007671
 10
150.3350535439
 20
120.8701551799
 10
150.3322361308
 20
120.8627892483
 10
150.3312531101
 20
120.8614410511
  0
LWPOLYLINE
  5
51E
100
AcDbEntity
  8
0
100
AcDbPolyline
 62
7
  6
CONTINUOUS
 90
16
 70
0
 10
149.2511946277
 20
124.5638791804
 10
149.2746329747
 20
124.5187134307
 10
149.2948546622
 20
124.4732666106
 10
149.3118596903
 20
124.42753872
 10
149.3257504734
 20
124.3810994966
 10
149.3364245971
 20
124.3343792028
 10
149.3435748177
 20
124.2886686253
 10
149.3470987207
 20
124.2438965362
 10
149.3470987207
 20
124.2001341633
 10
149.3435748177
 20
124.1588859773
 10
149.3364245971
 20
124.1203256203
 10
149.3257504734
 20
124.0842794502
 10
149.3118596903
 20
124.0517310099
 10
149.2948546622
 20
124.0230081474
 10
149.2746329747
 20
123.9977830148
 10
149.2511946277
 20
123.9760556121
  0
LINE
  5
51F
100
AcDbEntity
  8
0
100
AcDbLine
 62
7
  6
CONTINUOUS
 10
161.8685625385
 20
113.5468917728
 11
161.8685625385
 21
113.6738821031
  0
LINE
  5
520
100
AcDbEntity
  8
0
100
AcDbLine
 62
7
  6
CONTINUOUS
 10
162.2221159291
 20
109.6792736438
 11
162.2221159291
 21
109.965062027
  0
LINE
  5
521
100
AcDbEntity
  8
0
100
AcDbLine
 62
7
  6
CONTINUOUS
 10
162.3635372854
 20
109.7211462682
 11
162.3635372854
 21
109.8943513489
  0
LINE
  5
522
100
AcDbEntity
  8
0
100
AcDbLine
 62
7
  6
CONTINUOUS
 10
162.4562149159
 20
114.6003417927
 11
162.4562149159
 21
114.6143519211
  0
LINE
  5
523
100
AcDbEntity
  8
0
100
AcDbLine
 62
7
  6
CONTINUOUS
 10
162.4657088192
 20
114.610594841
 11
162.4657088192
 21
114.6207162393
  0
LWPOLYLINE
  5
524
100
AcDbEntity
  8
RACCORDO
100
AcDbPolyline
 62
250
  6
CONTINUOUS
 90
9
 70
0
 10
162.5292647122
 20
114.7753737806
 10
162.5280166298
 20
114.7460269562
 10
162.5238670745
 20
114.7184861067
 10
162.5168721619
 20
114.6931236748
 10
162.5071264863
 20
114.6702826439
 10
162.4947618412
 20
114.6502718998
 10
162.4799454372
 20
114.6333620534
 10
162.4628776407
 20
114.6197817814
 10
162.453674628
 20
114.6143544459
  0
LWPOLYLINE
  5
525
100
AcDbEntity
  8
RACCORDO
100
AcDbPolyline
 62
250
  6
CONTINUOUS
 90
9
 70
0
 10
162.5292647122
 20
110.4452467617
 10
162.5280166298
 20
110.4158999373
 10
162.5238670745
 20
110.3883590878
 10
162.5168721619
 20
110.3629966559
 10
162.5071264863
 20
110.340155625
 10
162.4947618412
 20
110.3201448809
 10
162.4799454372
 20
110.3032350345
 10
162.4628776407
 20
110.2896547625
 10
162.4536908344
 20
110.284235997
  0
LWPOLYLINE
  5
526
100
AcDbEntity
  8
0
100
AcDbPolyline
 62
250
  6
CONTINUOUS
 90
7
 70
0
 10
162.4569220226
 20
114.5999882393
 10
162.456662431
 20
114.5960659701
 10
162.4558838852
 20
114.5924792279
 10
162.4545966315
 20
114.5893240241
 10
162.4528268562
 20
114.5866911422
 10
162.4506099923
 20
114.5846528359
 10
162.4491252271
 20
114.5837620253
  0
LINE
  5
527
100
AcDbEntity
  8
RACCORDO
100
AcDbLine
 62
250
  6
CONTINUOUS
 10
161.6156129542
 20
113.2164402703
 11
161.6222788638
 21
113.3055265568
  0
LWPOLYLINE
  5
528
100
AcDbEntity
  8
RACCORDO
100
AcDbPolyline
 62
250
  6
CONTINUOUS
 90
27
 70
0
 10
161.6181270165
 20
108.9297118839
 10
161.627129199
 20
109.0182020257
 10
161.6401800084
 20
109.105518725
 10
161.6574037421
 20
109.1913036518
 10
161.6786761027
 20
109.2759151362
 10
161.7026193573
 20
109.357748757
 10
161.7292026615
 20
109.4365283735
 10
161.7584568598
 20
109.5125301265
 10
161.7890967526
 20
109.5849780168
 10
161.8210075342
 20
109.6536252051
 10
161.8543040105
 20
109.7187185308
 10
161.8880453996
 20
109.7802225121
 10
161.9220971628
 20
109.8379991389
 10
161.956593839
 20
109.8921864214
 10
161.9909982628
 20
109.9431629082
 10
162.0252242714
 20
109.9908922222
 10
162.0593580277
 20
110.0354107405
 10
162.0931208541
 20
110.0772061435
 10
162.1264723826
 20
110.1162988305
 10
162.1594529812
 20
110.1526684022
 10
162.1919050768
 20
110.1867413408
 10
162.22381968
 20
110.2185525475
 10
162.2552057802
 20
110.2480671212
 10
162.2859327722
 20
110.2756068403
 10
162.3159926591
 20
110.3011916586
 10
162.3453934379
 20
110.3248016223
 10
162.3740284932
 20
110.3466986488
  0
LWPOLYLINE
  5
529
100
AcDbEntity
  8
RACCORDO
100
AcDbPolyline
 62
250
  6
CONTINUOUS
 90
26
 70
0
 10
161.6222788638
 20
113.3055265568
 10
161.6332696583
 20
113.3938216763
 10
161.648756187
 20
113.4809703827
 10
161.6685676005
 20
113.5673279221
 10
161.691321896
 20
113.6510726431
 10
161.7170120363
 20
113.7319126541
 10
161.7456450587
 20
113.8101398468
 10
161.7758600717
 20
113.8848082448
 10
161.8075460212
 20
113.9556455315
 10
161.8408139614
 20
114.0229240235
 10
161.8746361637
 20
114.0865146942
 10
161.9088668073
 20
114.1462523219
 10
161.943651713
 20
114.2023021284
 10
161.9784006154
 20
114.2550307521
 10
162.0130137193
 20
114.3043889241
 10
162.0475908199
 20
114.3504259133
 10
162.0818410381
 20
114.3936561647
 10
162.1157204452
 20
114.4341009851
 10
162.1492729698
 20
114.4717390678
 10
162.1823395186
 20
114.5070209377
 10
162.2149133734
 20
114.539988997
 10
162.2470012523
 20
114.5706008436
 10
162.2784642164
 20
114.5991797968
 10
162.3092982123
 20
114.6257487904
 10
162.3395072935
 20
114.6502848905
 10
162.3689646816
 20
114.6730426146
  0
LWPOLYLINE
  5
52A
100
AcDbEntity
  8
0
100
AcDbPolyline
 62
7
  6
CONTINUOUS
 90
6
 70
0
 10
156.3475048709
 20
86.5596762366
 10
156.3451253902
 20
86.551028226
 10
156.3407768291
 20
86.5411485021
 10
156.3349090892
 20
86.5322736283
 10
156.3276024583
 20
86.5244623892
 10
156.3206234468
 20
86.5189007235
  0
LWPOLYLINE
  5
52B
100
AcDbEntity
  8
0
100
AcDbPolyline
 62
7
  6
CONTINUOUS
 90
7
 70
0
 10
149.5517532783
 20
83.243749748
 10
149.5604281221
 20
83.2544666573
 10
149.5754569606
 20
83.2776679725
 10
149.5879599508
 20
83.3023545081
 10
149.5978612595
 20
83.3284812946
 10
149.6050259991
 20
83.3558811918
 10
149.6068526538
 20
83.365692111
  0
LWPOLYLINE
  5
52C
100
AcDbEntity
  8
0
100
AcDbPolyline
 62
7
  6
CONTINUOUS
 90
4
 70
0
 10
165.1707512067
 20
115.9071539107
 10
165.1741680719
 20
115.9072090909
 10
165.189622525
 20
115.9105797628
 10
165.2061065416
 20
115.9170881536
  0
LINE
  5
52D
100
AcDbEntity
  8
0
100
AcDbLine
 62
7
  6
CONTINUOUS
 10
166.3270881972
 20
112.1334216225
 11
166.0924880112
 21
112.183679128
  0
LWPOLYLINE
  5
52E
100
AcDbEntity
  8
0
100
AcDbPolyline
 62
7
  6
CONTINUOUS
 90
6
 70
0
 10
163.5054377563
 20
110.6207273297
 10
163.4988785627
 20
110.6234229424
 10
163.4852824898
 20
110.6265287045
 10
163.4707795413
 20
110.6263168187
 10
163.4551319067
 20
110.6229656269
 10
163.438339586
 20
110.6164751291
  0
LWPOLYLINE
  5
52F
100
AcDbEntity
  8
0
100
AcDbPolyline
 62
7
  6
CONTINUOUS
 90
6
 70
0
 10
163.3712338474
 20
110.352419087
 10
163.3775059761
 20
110.3498336156
 10
163.3911527969
 20
110.3466401291
 10
163.4057194647
 20
110.3468096392
 10
163.4214483944
 20
110.3501520961
 10
163.438339586
 20
110.3566674997
  0
LWPOLYLINE
  5
530
100
AcDbEntity
  8
0
100
AcDbPolyline
 62
7
  6
CONTINUOUS
 90
6
 70
0
 10
163.9369192725
 20
110.6352617995
 10
163.9431914012
 20
110.6326763281
 10
163.956838222
 20
110.6294828416
 10
163.9714048898
 20
110.6296523517
 10
163.9871338194
 20
110.6329948086
 10
164.0040250111
 20
110.6395102122
  0
LINE
  5
531
100
AcDbEntity
  8
0
100
AcDbLine
 62
250
  6
CONTINUOUS
 10
161.704467384
 20
109.0457729871
 11
162.0342348363
 21
108.8808892609
  0
LINE
  5
532
100
AcDbEntity
  8
0
100
AcDbLine
 62
7
  6
CONTINUOUS
 10
149.6198229836
 20
115.3545492917
 11
149.6585655032
 21
115.3351780319
  0
LINE
  5
533
100
AcDbEntity
  8
0
100
AcDbLine
 62
7
  6
CONTINUOUS
 10
145.7881350125
 20
117.2808767126
 11
131.0004232468
 21
124.6747325954
  0
LINE
  5
534
100
AcDbEntity
  8
0
100
AcDbLine
 62
7
  6
CONTINUOUS
 10
149.8803701487
 20
115.4316386697
 11
149.6524894174
 21
115.5455790354
  0
LINE
  5
535
100
AcDbEntity
  8
0
100
AcDbLine
 62
250
  6
CONTINUOUS
 10
150.3106909681
 20
115.618780921
 11
151.3730282862
 21
115.0876122619
  0
LINE
  5
536
100
AcDbEntity
  8
0
100
AcDbLine
 62
7
  6
CONTINUOUS
 10
162.5310394132
 20
109.5507926639
 11
162.4342479635
 21
109.5991883887
  0
LINE
  5
537
100
AcDbEntity
  8
0
100
AcDbLine
 62
7
  6
CONTINUOUS
 10
150.4411508085
 20
115.6222631389
 11
151.5034881267
 21
115.0910944798
  0
LINE
  5
538
100
AcDbEntity
  8
0
100
AcDbLine
 62
250
  6
CONTINUOUS
 10
149.716021901
 20
116.1126001182
 11
150.5571338255
 21
115.692044156
  0
LINE
  5
539
100
AcDbEntity
  8
0
100
AcDbLine
 62
7
  6
CONTINUOUS
 10
149.7313435293
 20
116.1768792351
 11
150.6319284318
 21
115.7265867838
  0
LINE
  5
53A
100
AcDbEntity
  8
0
100
AcDbLine
 62
7
  6
CONTINUOUS
 10
162.3635372854
 20
109.8943513489
 11
162.2221159291
 21
109.965062027
  0
LINE
  5
53B
100
AcDbEntity
  8
0
100
AcDbLine
 62
7
  6
CONTINUOUS
 10
162.7878013541
 20
109.775965084
 11
162.8831103487
 21
109.7283105867
  0
LINE
  5
53C
100
AcDbEntity
  8
0
100
AcDbLine
 62
7
  6
CONTINUOUS
 10
162.5756693197
 20
110.1418387223
 11
162.7170906759
 21
110.0711280442
  0
LINE
  5
53D
100
AcDbEntity
  8
RACCORDO
100
AcDbLine
 62
7
  6
CONTINUOUS
 10
149.8815621052
 20
116.9765778237
 11
150.2913507231
 21
116.7716835147
  0
LINE
  5
53E
100
AcDbEntity
  8
0
100
AcDbLine
 62
7
  6
CONTINUOUS
 10
146.9056319688
 20
118.9796079826
 11
146.7120676827
 21
119.0763901257
  0
LINE
  5
53F
100
AcDbEntity
  8
0
100
AcDbLine
 62
7
  6
CONTINUOUS
 10
134.3191312637
 20
125.2728583352
 11
134.1255669776
 21
125.3696404782
  0
LINE
  5
540
100
AcDbEntity
  8
0
100
AcDbLine
 62
7
  6
CONTINUOUS
 10
164.0217026872
 20
110.662274707
 11
163.583377606
 21
110.8814372476
  0
LINE
  5
541
100
AcDbEntity
  8
0
100
AcDbLine
 62
7
  6
CONTINUOUS
 10
161.7094568776
 20
108.857259104
 11
161.7004884774
 21
108.8621816308
  0
LWPOLYLINE
  5
542
100
AcDbEntity
  8
0
100
AcDbPolyline
 62
7
  6
CONTINUOUS
 90
9
 70
0
 10
134.5207634607
 20
126.4336101379
 10
134.4960428091
 20
126.4473076139
 10
134.4659734562
 20
126.4677845679
 10
134.4372724069
 20
126.4911967236
 10
134.4099876912
 20
126.5169977681
 10
134.3845040469
 20
126.5448108318
 10
134.360981416
 20
126.5743449343
 10
134.3392168465
 20
126.6052371521
 10
134.3191312637
 20
126.6371575306
  0
LWPOLYLINE
  5
543
100
AcDbEntity
  8
DRAFT
100
AcDbPolyline
 62
7
  6
CONTINUOUS
 90
16
 70
0
 10
150.2913507231
 20
116.7716835147
 10
150.3290306089
 20
116.7502198792
 10
150.3654816662
 20
116.7249168065
 10
150.4007038949
 20
116.6957742966
 10
150.4350206094
 20
116.6624361127
 10
150.4681084954
 20
116.6252584917
 10
150.4989976097
 20
116.5853101433
 10
150.5276850255
 20
116.5423947174
 10
150.5541736696
 20
116.4967085643
 10
150.5775023796
 20
116.4499094439
 10
150.5975096414
 20
116.4020745287
 10
150.614356969
 20
116.3531266462
 10
150.6275677421
 20
116.3044920396
 10
150.6369830872
 20
116.2566461231
 10
150.6427618777
 20
116.2091134824
 10
150.6449041137
 20
116.1618941175
  0
LWPOLYLINE
  5
544
100
AcDbEntity
  8
0
100
AcDbPolyline
 62
250
  6
CONTINUOUS
 90
9
 70
0
 10
133.2548461529
 20
127.0665682842
 10
133.2453615795
 20
127.0720279933
 10
133.2313123419
 20
127.0832571852
 10
133.2190815352
 20
127.0972897038
 10
133.2088377213
 20
127.1139376436
 10
133.2007223045
 20
127.1329736122
 10
133.1948458413
 20
127.1541387476
 10
133.1912882939
 20
127.1771483117
 10
133.1900984684
 20
127.2016912794
  0
LWPOLYLINE
  5
545
100
AcDbEntity
  8
0
100
AcDbPolyline
 62
7
  6
CONTINUOUS
 90
13
 70
0
 10
162.7878013541
 20
109.775965084
 10
162.7782073937
 20
109.781665798
 10
162.7691177565
 20
109.7884439652
 10
162.7605324424
 20
109.7962995858
 10
162.7523421959
 20
109.8053907931
 10
162.7446562726
 20
109.8155594537
 10
162.7378024387
 20
109.8263311669
 10
162.7318054377
 20
109.8377238653
 10
162.7266405261
 20
109.8497196163
 10
162.7225612405
 20
109.8617902214
 10
162.719652093
 20
109.8737596146
 10
162.7178285715
 20
109.8858038619
 10
162.7170906759
 20
109.8979229635
  0
LWPOLYLINE
  5
546
100
AcDbEntity
  8
0
100
AcDbPolyline
 62
250
  6
CONTINUOUS
 90
13
 70
0
 10
135.4288976579
 20
126.7897080264
 10
135.4470495902
 20
126.7788432926
 10
135.4649332723
 20
126.7652235043
 10
135.4822428282
 20
126.7490816097
 10
135.498682201
 20
126.7306936941
 10
135.5139702177
 20
126.710374258
 10
135.5278453971
 20
126.688470838
 10
135.5400704231
 20
126.6653580625
 10
135.5504362031
 20
126.6414312445
 10
135.5587654444
 20
126.6170996199
 10
135.5649156865
 20
126.5927793482
 10
135.5687817379
 20
126.5688863951
 10
135.570297475
 20
126.5458294171
  0
LWPOLYLINE
  5
547
100
AcDbEntity
  8
0
100
AcDbPolyline
 62
7
  6
CONTINUOUS
 90
12
 70
0
 10
162.3364260086
 20
109.4526665084
 10
162.3261696814
 20
109.4603142429
 10
162.3089987309
 20
109.4760251119
 10
162.2926177421
 20
109.4942073981
 10
162.277245321
 20
109.5145448109
 10
162.2635372854
 20
109.5360884785
 10
162.2515432365
 20
109.5588743493
 10
162.2412135731
 20
109.5828664749
 10
162.2330553093
 20
109.6070081388
 10
162.2272374497
 20
109.6309471022
 10
162.2235909896
 20
109.6550356039
 10
162.2221159291
 20
109.6792736438
  0
LWPOLYLINE
  5
548
100
AcDbEntity
  8
0
100
AcDbPolyline
 62
250
  6
CONTINUOUS
 90
7
 70
0
 10
156.2892739449
 20
123.6725421684
 10
156.2975447208
 20
123.6439997492
 10
156.3043982455
 20
123.6132865655
 10
156.3098345189
 20
123.5804026173
 10
156.3138535412
 20
123.5453479046
 10
156.3164553122
 20
123.5081224274
 10
156.317639832
 20
123.4687261856
  0
LWPOLYLINE
  5
549
100
AcDbEntity
  8
0
100
AcDbPolyline
 62
7
  6
CONTINUOUS
 90
6
 70
0
 10
156.3483319439
 20
123.7583923601
 10
156.3486208487
 20
123.7570812397
 10
156.349108119
 20
123.7498783681
 10
156.3479336911
 20
123.7420209002
 10
156.3451368031
 20
123.7336319795
 10
156.3407672867
 20
123.7248174151
  0
LWPOLYLINE
  5
54A
100
AcDbEntity
  8
0
100
AcDbPolyline
 62
7
  6
CONTINUOUS
 90
13
 70
0
 10
162.3635372854
 20
109.7211462682
 10
162.3642751809
 20
109.7090271666
 10
162.3660987024
 20
109.6969829193
 10
162.3690078499
 20
109.6850135261
 10
162.3730871355
 20
109.672942921
 10
162.3782520471
 20
109.66094717
 10
162.3842490481
 20
109.6495544716
 10
162.391102882
 20
109.6387827584
 10
162.3987888053
 20
109.6286140978
 10
162.4069790518
 20
109.6195228905
 10
162.4155643659
 20
109.6116672699
 10
162.4246540031
 20
109.6048891027
 10
162.4342479635
 20
109.5991883887
  0
LWPOLYLINE
  5
54B
100
AcDbEntity
  8
RACCORDO
100
AcDbPolyline
 62
250
  6
CONTINUOUS
 90
10
 70
0
 10
162.5292647122
 20
108.1419072228
 10
162.527971368
 20
108.1728590205
 10
162.5237920916
 20
108.2048088963
 10
162.5167830145
 20
108.2373245716
 10
162.5070444249
 20
108.2699690981
 10
162.4947024538
 20
108.3022981914
 10
162.4799072878
 20
108.3338661988
 10
162.4628536216
 20
108.3642434958
 10
162.4437779527
 20
108.3930222572
 10
162.4229384226
 20
108.419813396
  0
LWPOLYLINE
  5
54C
100
AcDbEntity
  8
RACCORDO
100
AcDbPolyline
 62
250
  6
CONTINUOUS
 90
10
 70
0
 10
162.5292647122
 20
112.4720342417
 10
162.5279713623
 20
112.5029859642
 10
162.5237920925
 20
112.5349357812
 10
162.5167830291
 20
112.5674514174
 10
162.5070444549
 20
112.6000959273
 10
162.494702496
 20
112.6324250262
 10
162.4799073357
 20
112.6639930584
 10
162.462853666
 20
112.6943703964
 10
162.4437779812
 20
112.7231492123
 10
162.4229384213
 20
112.7499404143
  0
LINE
  5
54D
100
AcDbEntity
  8
0
100
AcDbLine
 62
7
  6
CONTINUOUS
 10
162.7170906759
 20
110.0711280442
 11
162.7170906759
 21
109.8979229635
  0
LINE
  5
54E
100
AcDbEntity
  8
0
100
AcDbLine
 62
7
  6
CONTINUOUS
 10
163.3322735756
 20
114.806966599
 11
163.3322735756
 21
114.284910498
  0
LINE
  5
54F
100
AcDbEntity
  8
0
100
AcDbLine
 62
7
  6
CONTINUOUS
 10
163.9686696786
 20
115.0949863301
 11
163.9686696786
 21
115.4152463088
  0
LINE
  5
550
100
AcDbEntity
  8
0
100
AcDbLine
 62
7
  6
CONTINUOUS
 10
164.0217026872
 20
110.662274707
 11
164.0217026872
 21
111.1131548303
  0
LINE
  5
551
100
AcDbEntity
  8
0
100
AcDbLine
 62
7
  6
CONTINUOUS
 10
165.04700752
 20
111.6551752794
 11
165.04700752
 21
111.1749271233
  0
LINE
  5
552
100
AcDbEntity
  8
0
100
AcDbLine
 62
7
  6
CONTINUOUS
 10
165.1707512067
 20
116.0507185594
 11
165.1707512067
 21
115.6960270941
  0
LWPOLYLINE
  5
553
100
AcDbEntity
  8
0
100
AcDbPolyline
 62
7
  6
CONTINUOUS
 90
8
 70
0
 10
163.8983739962
 20
110.7239390525
 10
163.8982788872
 20
110.7077354052
 10
163.9003909189
 20
110.6899663151
 10
163.9048505527
 20
110.6739892449
 10
163.911536418
 20
110.6596992197
 10
163.9201117901
 20
110.6480119917
 10
163.9307068423
 20
110.6390427614
 10
163.9369192725
 20
110.6352617995
  0
LINE
  5
554
100
AcDbEntity
  8
0
100
AcDbLine
 62
250
  6
CONTINUOUS
 10
175.6044135355
 20
128.1602909792
 11
175.6221453744
 21
128.2025051065
  0
LINE
  5
555
100
AcDbEntity
  8
0
100
AcDbLine
 62
7
  6
CONTINUOUS
 10
147.5036021016
 20
79.5821368634
 11
147.2560732568
 21
79.2905923605
  0
LINE
  5
556
100
AcDbEntity
  8
0
100
AcDbLine
 62
250
  6
CONTINUOUS
 10
147.9297973997
 20
78.8081086709
 11
148.5625876091
 21
79.553421837
  0
LINE
  5
557
100
AcDbEntity
  8
0
100
AcDbLine
 62
250
  6
CONTINUOUS
 10
148.1394397519
 20
78.62153003
 11
148.8762475561
 21
79.4893572327
  0
LINE
  5
558
100
AcDbEntity
  8
RACCORDO
100
AcDbLine
 62
7
  6
CONTINUOUS
 10
151.1676701232
 20
84.2163679055
 11
149.920119663
 21
83.3122121077
  0
LINE
  5
559
100
AcDbEntity
  8
0
100
AcDbLine
 62
7
  6
CONTINUOUS
 10
149.5517532783
 20
84.8506941174
 11
151.3730282862
 21
85.7869651503
  0
LINE
  5
55A
100
AcDbEntity
  8
0
100
AcDbLine
 62
7
  6
CONTINUOUS
 10
147.9590052991
 20
119.7224217352
 11
148.5988241578
 21
119.586695973
  0
LINE
  5
55B
100
AcDbEntity
  8
0
100
AcDbLine
 62
250
  6
CONTINUOUS
 10
148.1394397519
 20
119.8461341693
 11
148.8762475561
 21
119.6898339924
  0
LWPOLYLINE
  5
55C
100
AcDbEntity
  8
0
100
AcDbPolyline
 62
250
  6
CONTINUOUS
 90
7
 70
0
 10
145.9496843217
 20
121.5293146946
 10
145.9309305849
 20
121.536902791
 10
145.9125398246
 20
121.5414202134
 10
145.8948265903
 20
121.5427896993
 10
145.8780938424
 20
121.5409878273
 10
145.8626277723
 20
121.5360454179
 10
145.8572811888
 20
121.5334365936
  0
LWPOLYLINE
  5
55D
100
AcDbEntity
  8
0
100
AcDbPolyline
 62
250
  6
CONTINUOUS
 90
13
 70
0
 10
135.254599782
 20
126.1694232715
 10
135.2740382042
 20
126.1608872402
 10
135.2955177289
 20
126.1536772195
 10
135.3186789459
 20
126.1479138524
 10
135.3431343059
 20
126.1436935756
 10
135.3684746047
 20
126.1410870056
 10
135.3942758312
 20
126.1401377573
 10
135.4201062613
 20
126.1408617142
 10
135.4455336825
 20
126.1432467627
 10
135.4701326258
 20
126.1472529943
 10
135.4934914845
 20
126.1528133741
 10
135.5152194022
 20
126.159834862
 10
135.5349528124
 20
126.1681999696
  0
LWPOLYLINE
  5
55E
100
AcDbEntity
  8
0
100
AcDbPolyline
 62
250
  6
CONTINUOUS
 90
13
 70
0
 10
135.254599782
 20
126.4866920719
 10
135.2740382127
 20
126.4781560373
 10
135.2955177458
 20
126.4709460149
 10
135.3186789705
 20
126.4651826476
 10
135.3431343367
 20
126.4609623717
 10
135.3684746398
 20
126.4583558034
 10
135.3942758679
 20
126.4574065574
 10
135.4201062969
 20
126.4581305167
 10
135.4455337144
 20
126.460515567
 10
135.4701326516
 20
126.4645217998
 10
135.4934915025
 20
126.4700821795
 10
135.5152194113
 20
126.4771036657
 10
135.5349528124
 20
126.4854687699
  0
LWPOLYLINE
  5
55F
100
AcDbEntity
  8
0
100
AcDbPolyline
 62
250
  6
CONTINUOUS
 90
13
 70
0
 10
144.9312925348
 20
122.6590369798
 10
144.9507309231
 20
122.6505009617
 10
144.972210414
 20
122.6432909478
 10
144.9953716003
 20
122.6375275818
 10
145.0198269345
 20
122.6333073014
 10
145.0451672154
 20
122.6307007243
 10
145.0709684352
 20
122.6297514668
 10
145.0967988723
 20
122.6304754145
 10
145.122226312
 20
122.6328604557
 10
145.1468252811
 20
122.6368666836
 10
145.1701841702
 20
122.642427064
 10
145.1919121214
 20
122.649448558
 10
145.2116455651
 20
122.6578136779
  0
LWPOLYLINE
  5
560
100
AcDbEntity
  8
0
100
AcDbPolyline
 62
7
  6
CONTINUOUS
 90
4
 70
0
 10
147.906307749
 20
119.7408382239
 10
147.9152960184
 20
119.7365947917
 10
147.9370498768
 20
119.7282753147
 10
147.9589485103
 20
119.722441012
  0
LWPOLYLINE
  5
561
100
AcDbEntity
  8
0
100
AcDbPolyline
 62
7
  6
CONTINUOUS
 90
17
 70
0
 10
166.7436823716
 20
112.2453542118
 10
166.7451385158
 20
112.2446599058
 10
166.7561249001
 20
112.24119537
 10
166.7682793502
 20
112.2402341598
 10
166.7808400932
 20
112.241779556
 10
166.7938240669
 20
112.245968083
 10
166.8072143335
 20
112.2526632164
 10
166.8201983072
 20
112.2614586631
 10
166.8327590503
 20
112.2724740099
 10
166.8449135003
 20
112.28558967
 10
166.8558998847
 20
112.3000405902
 10
166.8656658904
 20
112.3159209783
 10
166.8742638304
 20
112.3331366265
 10
166.8810888709
 20
112.3506398575
 10
166.8859394006
 20
112.3680814456
 10
166.8890170308
 20
112.3858106165
 10
166.8903217614
 20
112.4038273703
  0
LWPOLYLINE
  5
562
100
AcDbEntity
  8
0
100
AcDbPolyline
 62
7
  6
CONTINUOUS
 90
17
 70
0
 10
166.8573560289
 20
112.4724979677
 10
166.8558998847
 20
112.4731922737
 10
166.8449135003
 20
112.4766568095
 10
166.8327590503
 20
112.4776180196
 10
166.8201983072
 20
112.4760726234
 10
166.8072143335
 20
112.4718840964
 10
166.7938240669
 20
112.4651889631
 10
166.7808400932
 20
112.4563935164
 10
166.7682793502
 20
112.4453781696
 10
166.7561249001
 20
112.4322625094
 10
166.7451385158
 20
112.4178115892
 10
166.7353725101
 20
112.4019312011
 10
166.7267745701
 20
112.384715553
 10
166.7199495296
 20
112.367212322
 10
166.7150989999
 20
112.3497707339
 10
166.7120213697
 20
112.3320415629
 10
166.710716639
 20
112.3140248091
  0
LWPOLYLINE
  5
563
100
AcDbEntity
  8
0
100
AcDbPolyline
 62
250
  6
CONTINUOUS
 90
28
 70
0
 10
142.6759940919
 20
123.8299808764
 10
142.6742989014
 20
123.8307939837
 10
142.672566634
 20
123.8315033437
 10
142.67079729
 20
123.8321089566
 10
142.6689800251
 20
123.8326222811
 10
142.6671256835
 20
123.8330318584
 10
142.6652667975
 20
123.8333033117
 10
142.6634023168
 20
123.8334325319
 10
142.6615332917
 20
123.8334236281
 10
142.6596954049
 20
123.8332545503
 10
142.6578889721
 20
123.8329199947
 10
142.6561136775
 20
123.832425265
 10
142.6544042568
 20
123.8317642231
 10
142.6527630778
 20
123.8309318472
 10
142.6511877726
 20
123.829933159
 10
142.649705973
 20
123.8287770857
 10
142.6483210547
 20
123.8274610769
 10
142.6470296419
 20
123.825987683
 10
142.6458492397
 20
123.8243734829
 10
142.6447818743
 20
123.822616971
 10
142.6438255195
 20
123.8207196529
 10
142.6429916013
 20
123.8187026246
 10
142.6422816315
 20
123.8165643092
 10
142.6416940984
 20
123.8143062836
 10
142.6412358933
 20
123.811954375
 10
142.6409093134
 20
123.8095171925
 10
142.6407120615
 20
123.8069861269
 10
142.6406441377
 20
123.8043611783
  0
LWPOLYLINE
  5
564
100
AcDbEntity
  8
0
100
AcDbPolyline
 62
7
  6
CONTINUOUS
 90
4
 70
0
 10
135.3197631434
 20
126.0341098142
 10
135.325813277
 20
126.0311982201
 10
135.3489138915
 20
126.0220619781
 10
135.3724228972
 20
126.0156894683
  0
LINE
  5
565
100
AcDbEntity
  8
0
100
AcDbLine
 62
7
  6
CONTINUOUS
 10
133.9196062407
 20
126.2251140961
 11
134.0523436729
 21
126.15874538
  0
LINE
  5
566
100
AcDbEntity
  8
0
100
AcDbLine
 62
7
  6
CONTINUOUS
 10
135.2122986143
 20
125.5787679093
 11
135.9393055631
 21
125.2152644349
  0
LINE
  5
567
100
AcDbEntity
  8
0
100
AcDbLine
 62
7
  6
CONTINUOUS
 10
146.5061069458
 20
119.9318637435
 11
146.638844378
 21
119.8654950274
  0
LINE
  5
568
100
AcDbEntity
  8
0
100
AcDbLine
 62
7
  6
CONTINUOUS
 10
147.7987993195
 20
119.2855175567
 11
148.5258062682
 21
118.9220140823
  0
LINE
  5
569
100
AcDbEntity
  8
0
100
AcDbLine
 62
7
  6
CONTINUOUS
 10
147.9063009654
 20
119.7408408779
 11
147.1075359046
 21
120.1402234083
  0
LINE
  5
56A
100
AcDbEntity
  8
0
100
AcDbLine
 62
7
  6
CONTINUOUS
 10
146.6401103398
 20
120.3739361907
 11
145.8413457354
 21
120.7733184929
  0
LINE
  5
56B
100
AcDbEntity
  8
0
100
AcDbLine
 62
7
  6
CONTINUOUS
 10
135.3197999262
 20
126.0340913975
 11
134.5210351995
 21
126.4334737608
  0
LINE
  5
56C
100
AcDbEntity
  8
0
100
AcDbLine
 62
7
  6
CONTINUOUS
 10
134.0536096347
 20
126.6671865433
 11
133.2548445739
 21
127.0665690736
  0
LINE
  5
56D
100
AcDbEntity
  8
0
100
AcDbLine
 62
250
  6
CONTINUOUS
 10
134.1255669776
 20
126.7339396737
 11
133.1900984593
 21
127.2016912834
  0
LINE
  5
56E
100
AcDbEntity
  8
0
100
AcDbLine
 62
250
  6
CONTINUOUS
 10
146.7120676827
 20
120.4406893211
 11
145.7765991644
 21
120.9084235803
  0
LINE
  5
56F
100
AcDbEntity
  8
0
100
AcDbLine
 62
250
  6
CONTINUOUS
 10
135.254599782
 20
126.1694232715
 11
134.3191312637
 21
126.6371575306
  0
LINE
  5
570
100
AcDbEntity
  8
0
100
AcDbLine
 62
250
  6
CONTINUOUS
 10
147.8411004871
 20
119.8761902629
 11
146.9056319688
 21
120.3439071781
  0
LINE
  5
571
100
AcDbEntity
  8
0
100
AcDbLine
 62
7
  6
CONTINUOUS
 10
144.9312925348
 20
121.4717641985
 11
142.6406441377
 21
122.617088397
  0
LINE
  5
572
100
AcDbEntity
  8
0
100
AcDbLine
 62
7
  6
CONTINUOUS
 10
141.2189819335
 20
123.3279194991
 11
138.9283335364
 21
124.4732436976
  0
LINE
  5
573
100
AcDbEntity
  8
0
100
AcDbLine
 62
250
  6
CONTINUOUS
 10
147.8411004871
 20
120.1934417193
 11
145.7765991644
 21
121.2256923806
  0
LINE
  5
574
100
AcDbEntity
  8
0
100
AcDbLine
 62
250
  6
CONTINUOUS
 10
135.254599782
 20
126.4866920719
 11
133.1900984593
 21
127.5189427332
  0
LINE
  5
575
100
AcDbEntity
  8
0
100
AcDbLine
 62
250
  6
CONTINUOUS
 10
162.0342348363
 20
113.2110162798
 11
161.7044564034
 21
113.3759054963
  0
LINE
  5
576
100
AcDbEntity
  8
0
100
AcDbLine
 62
7
  6
CONTINUOUS
 10
137.1921976017
 20
125.7175582897
 11
138.8697548927
 21
124.8787796442
  0
LINE
  5
577
100
AcDbEntity
  8
0
100
AcDbLine
 62
7
  6
CONTINUOUS
 10
141.7176810013
 20
123.4548165899
 11
142.5820654939
 21
123.0226243436
  0
LINE
  5
578
100
AcDbEntity
  8
0
100
AcDbLine
 62
7
  6
CONTINUOUS
 10
145.4299916025
 20
121.5986612893
 11
145.7570124636
 21
121.4351508587
  0
LINE
  5
579
100
AcDbEntity
  8
0
100
AcDbLine
 62
7
  6
CONTINUOUS
 10
166.0363591381
 20
111.3182122768
 11
165.8071473097
 21
111.4328181909
  0
LINE
  5
57A
100
AcDbEntity
  8
0
100
AcDbLine
 62
250
  6
CONTINUOUS
 10
148.015398363
 20
120.4964576739
 11
145.9496843217
 21
121.5293146946
  0
LINE
  5
57B
100
AcDbEntity
  8
0
100
AcDbLine
 62
250
  6
CONTINUOUS
 10
135.4288976579
 20
126.7897080264
 11
133.3631836165
 21
127.8225650471
  0
LINE
  5
57C
100
AcDbEntity
  8
0
100
AcDbLine
 62
7
  6
CONTINUOUS
 10
161.8685625385
 20
113.6738821031
 11
161.7788668865
 21
113.7187299291
  0
LINE
  5
57D
100
AcDbEntity
  8
0
100
AcDbLine
 62
7
  6
CONTINUOUS
 10
137.9189106544
 20
126.0461920149
 11
137.1921976017
 21
126.4095485412
  0
LINE
  5
57E
100
AcDbEntity
  8
0
100
AcDbLine
 62
7
  6
CONTINUOUS
 10
149.7786983141
 20
120.116298185
 11
150.4735163411
 21
119.7688891715
  0
LINE
  5
57F
100
AcDbEntity
  8
0
100
AcDbLine
 62
7
  6
CONTINUOUS
 10
142.3997412316
 20
123.8064797493
 11
142.5820654939
 21
123.7153176181
  0
LINE
  5
580
100
AcDbEntity
  8
0
100
AcDbLine
 62
7
  6
CONTINUOUS
 10
166.740501009
 20
111.6732481225
 11
166.5142540909
 21
111.7863715815
  0
LINE
  5
581
100
AcDbEntity
  8
0
100
AcDbLine
 62
7
  6
CONTINUOUS
 10
165.948568666
 20
112.0880960166
 11
166.0546346831
 21
112.035063008
  0
LINE
  5
582
100
AcDbEntity
  8
0
100
AcDbLine
 62
7
  6
CONTINUOUS
 10
142.5820654939
 20
123.7991425107
 11
142.397941806
 21
123.8912043547
  0
LINE
  5
583
100
AcDbEntity
  8
0
100
AcDbLine
 62
250
  6
CONTINUOUS
 10
144.8959425805
 20
122.7200066321
 11
142.6759940919
 21
123.8299808764
  0
LINE
  5
584
100
AcDbEntity
  8
0
100
AcDbLine
 62
250
  6
CONTINUOUS
 10
138.9636834907
 20
125.686136177
 11
141.1836319793
 21
124.5761619327
  0
LINE
  5
585
100
AcDbEntity
  8
0
100
AcDbLine
 62
7
  6
CONTINUOUS
 10
166.54960943
 20
112.0221610061
 11
166.1341548021
 21
112.22988832
  0
LINE
  5
586
100
AcDbEntity
  8
0
100
AcDbLine
 62
250
  6
CONTINUOUS
 10
145.0348957938
 20
122.9626619395
 11
142.8149473052
 21
124.0726361838
  0
LINE
  5
587
100
AcDbEntity
  8
0
100
AcDbLine
 62
250
  6
CONTINUOUS
 10
139.102636704
 20
125.9287914844
 11
141.3225851925
 21
124.8188172401
  0
LINE
  5
588
100
AcDbEntity
  8
0
100
AcDbLine
 62
7
  6
CONTINUOUS
 10
139.3134910213
 20
126.042552226
 11
141.5409312299
 21
124.9288321216
  0
LINE
  5
589
100
AcDbEntity
  8
0
100
AcDbLine
 62
7
  6
CONTINUOUS
 10
143.0258016225
 20
124.1863969253
 11
145.2532418311
 21
123.072676821
  0
LWPOLYLINE
  5
58A
100
AcDbEntity
  8
0
100
AcDbPolyline
 62
250
  6
CONTINUOUS
 90
19
 70
0
 10
135.319761294
 20
126.0341107246
 10
135.3180312283
 20
126.0349991482
 10
135.3118561404
 20
126.0385542527
 10
135.3058258533
 20
126.0426628502
 10
135.2999694632
 20
126.0473437935
 10
135.2943174793
 20
126.0526140522
 10
135.288923226
 20
126.058463401
 10
135.2838146239
 20
126.0648986582
 10
135.2790201315
 20
126.0719242209
 10
135.2745856654
 20
126.0795105665
 10
135.2705349272
 20
126.0876513743
 10
135.2668911512
 20
126.0963380541
 10
135.2636889146
 20
126.1055227068
 10
135.2609448779
 20
126.1151864947
 10
135.2586744409
 20
126.125309116
 10
135.2568979007
 20
126.1358275731
 10
135.2556240837
 20
126.1466995413
 10
135.2548564905
 20
126.157908393
 10
135.254599782
 20
126.1694232715
  0
LWPOLYLINE
  5
58B
100
AcDbEntity
  8
0
100
AcDbPolyline
 62
250
  6
CONTINUOUS
 90
28
 70
0
 10
141.1836319793
 20
124.5761619327
 10
141.1853436943
 20
124.5752699703
 10
141.1870899187
 20
124.574237532
 10
141.1888706525
 20
124.5730646178
 10
141.1906966688
 20
124.5717514673
 10
141.1925571945
 20
124.5702978409
 10
141.1944199098
 20
124.5687030201
 10
141.1962857529
 20
124.5669619247
 10
141.1981537855
 20
124.5650796348
 10
141.1999888731
 20
124.5630706719
 10
141.2017904869
 20
124.5609304043
 10
141.2035591556
 20
124.5586634637
 10
141.2052613313
 20
124.5562982675
 10
141.2068943785
 20
124.5538331501
 10
141.2084609326
 20
124.5512697771
 10
141.2099353522
 20
124.5486415623
 10
141.2113150018
 20
124.545948623
 10
141.212602517
 20
124.5431908419
 10
141.2137801624
 20
124.5404012805
 10
141.2148461761
 20
124.5375796106
 10
141.21580232
 20
124.5347261605
 10
141.2166361448
 20
124.5318749763
 10
141.2173458548
 20
124.5290259721
 10
141.2179332456
 20
124.5261792338
 10
141.2183912552
 20
124.5233690651
 10
141.2187175293
 20
124.5206069006
 10
141.2189144221
 20
124.5178813057
 10
141.2189819335
 20
124.5151922804
  0
LWPOLYLINE
  5
58C
100
AcDbEntity
  8
0
100
AcDbPolyline
 62
250
  6
CONTINUOUS
 90
28
 70
0
 10
141.3225851925
 20
124.8188172401
 10
141.3309784068
 20
124.8142516055
 10
141.3396015114
 20
124.8090425717
 10
141.3484313753
 20
124.8031596063
 10
141.3574609664
 20
124.7965597937
 10
141.3666394079
 20
124.7892305325
 10
141.3758740649
 20
124.7812016975
 10
141.3851293398
 20
124.7724656003
 10
141.3943663082
 20
124.7630190765
 10
141.4034887537
 20
124.7529250015
 10
141.4124567195
 20
124.7421984921
 10
141.421229764
 20
124.7308578527
 10
141.4297180025
 20
124.7189944916
 10
141.437878817
 20
124.7066513612
 10
141.4456819452
 20
124.6938570753
 10
141.4530661382
 20
124.6806976988
 10
141.4599958434
 20
124.6672284289
 10
141.4664471059
 20
124.6534873854
 10
141.4723843816
 20
124.6395422291
 10
141.4777826394
 20
124.625445819
 10
141.4826203452
 20
124.6112481226
 10
141.4868735416
 20
124.5970148266
 10
141.4905254465
 20
124.5827986202
 10
141.4935614014
 20
124.5686528675
 10
141.4959673023
 20
124.5546441967
 10
141.4977345939
 20
124.54082908
 10
141.4988582771
 20
124.5272539847
 10
141.4993349639
 20
124.5139689785
  0
LINE
  5
58D
100
AcDbEntity
  8
0
100
AcDbLine
 62
7
  6
CONTINUOUS
 10
161.7094521723
 20
113.1873829281
 11
161.7004914273
 21
113.192300348
  0
LWPOLYLINE
  5
58E
100
AcDbEntity
  8
0
100
AcDbPolyline
 62
7
  6
CONTINUOUS
 90
9
 70
0
 10
147.1072641659
 20
120.1403597854
 10
147.0825435142
 20
120.1540572614
 10
147.0524741614
 20
120.1745342153
 10
147.023773112
 20
120.1979463711
 10
146.9964883963
 20
120.2237474155
 10
146.971004752
 20
120.2515604792
 10
146.9474821211
 20
120.2810945817
 10
146.9257175516
 20
120.3119867995
 10
146.9056319688
 20
120.3439071781
  0
LWPOLYLINE
  5
58F
100
AcDbEntity
  8
0
100
AcDbPolyline
 62
250
  6
CONTINUOUS
 90
13
 70
0
 10
137.5749022511
 20
127.8668712254
 10
137.5936559789
 20
127.8563073714
 10
137.6120467321
 20
127.8429410999
 10
137.6297599616
 20
127.8270010243
 10
137.6464927066
 20
127.808759779
 10
137.6619587761
 20
127.7885293573
 10
137.6758936432
 20
127.7666557757
 10
137.6880589715
 20
127.743513154
 10
137.6982466911
 20
127.7194973154
 10
137.7062825563
 20
127.6950190174
 10
137.7120291257
 20
127.6704969276
 10
137.7153881129
 20
127.6463504632
 10
137.7163020682
 20
127.622992616
  0
LWPOLYLINE
  5
590
100
AcDbEntity
  8
0
100
AcDbPolyline
 62
250
  6
CONTINUOUS
 90
7
 70
0
 10
145.7765991644
 20
120.9084235803
 10
145.7595270969
 20
120.9181427946
 10
145.745107053
 20
120.9288825602
 10
145.7335803185
 20
120.9404631716
 10
145.7251397662
 20
120.952690854
 10
145.7199266289
 20
120.9653610051
 10
145.718020528
 20
120.9791071927
  0
LWPOLYLINE
  5
591
100
AcDbEntity
  8
0
100
AcDbPolyline
 62
250
  6
CONTINUOUS
 90
7
 70
0
 10
145.7765991644
 20
121.2256923806
 10
145.7595271019
 20
121.2354115917
 10
145.7451070605
 20
121.2461513541
 10
145.7335803263
 20
121.2577319626
 10
145.7251397727
 20
121.2699596426
 10
145.7199266326
 20
121.282629792
 10
145.7180205299
 20
121.296372752
  0
LWPOLYLINE
  5
592
100
AcDbEntity
  8
0
100
AcDbPolyline
 62
250
  6
CONTINUOUS
 90
7
 70
0
 10
142.6406441377
 20
123.8043611783
 10
142.6235720751
 20
123.8140803894
 10
142.6091520337
 20
123.8248201518
 10
142.5976252996
 20
123.8364007603
 10
142.5891847459
 20
123.8486284402
 10
142.5839716058
 20
123.8612985897
 10
142.5820654939
 20
123.8750718564
  0
LWPOLYLINE
  5
593
100
AcDbEntity
  8
0
100
AcDbPolyline
 62
7
  6
CONTINUOUS
 90
16
 70
0
 10
149.7787009684
 20
119.4243091614
 10
149.8149870573
 20
119.4034342272
 10
149.8511193917
 20
119.3780395281
 10
149.886687142
 20
119.3483422119
 10
149.9214110252
 20
119.3144824524
 10
149.9547381066
 20
119.276888527
 10
149.9859171381
 20
119.2364037436
 10
150.0144194793
 20
119.1939187025
 10
150.0402608778
 20
119.1496100514
 10
150.063509127
 20
119.103295859
 10
150.0840249106
 20
119.0550355787
 10
150.1012850449
 20
119.005729676
 10
150.1148203867
 20
118.9564414103
 10
150.1244793539
 20
118.9078923213
 10
150.1302924059
 20
118.8604382017
 10
150.1322516974
 20
118.8145844899
  0
LWPOLYLINE
  5
594
100
AcDbEntity
  8
0
100
AcDbPolyline
 62
7
  6
CONTINUOUS
 90
13
 70
0
 10
149.6372984897
 20
121.3136611936
 10
149.6557497581
 20
121.3029487047
 10
149.6738921551
 20
121.2894603384
 10
149.6914111277
 20
121.2734244688
 10
149.7080023263
 20
121.2551126293
 10
149.7233807709
 20
121.2348375195
 10
149.7372858714
 20
121.2129478349
 10
149.7494822033
 20
121.1898192078
 10
149.7597587192
 20
121.1658460561
 10
149.7679365504
 20
121.1414376383
 10
149.7738769079
 20
121.1170121488
 10
149.7774832448
 20
121.0929894977
 10
149.7786983068
 20
121.0697825843
  0
LINE
  5
595
100
AcDbEntity
  8
RACCORDO
100
AcDbLine
 62
250
  6
CONTINUOUS
 10
162.4229383822
 20
108.4198133303
 11
162.0342348363
 21
108.8808892609
  0
LINE
  5
596
100
AcDbEntity
  8
RACCORDO
100
AcDbLine
 62
7
  6
CONTINUOUS
 10
161.7577948876
 20
112.9364055258
 11
161.7576696974
 21
112.9366721454
  0
LWPOLYLINE
  5
597
100
AcDbEntity
  8
RACCORDO
100
AcDbPolyline
 62
7
  6
CONTINUOUS
 90
29
 70
0
 10
161.7577747881
 20
108.6063269362
 10
161.7546678153
 20
108.6130845482
 10
161.7368754767
 20
108.6585097917
 10
161.7218067487
 20
108.7103997856
 10
161.7101391997
 20
108.7678686117
 10
161.7022847716
 20
108.8303296571
 10
161.698514033
 20
108.8971925727
 10
161.6990104313
 20
108.9675739483
 10
161.7038548335
 20
109.0407495229
 10
161.7130455848
 20
109.1161219441
 10
161.7265518496
 20
109.1931753623
 10
161.7442999514
 20
109.2712921505
 10
161.7661479664
 20
109.3498681162
 10
161.7919915648
 20
109.4285397534
 10
161.8216533386
 20
109.5067297903
 10
161.8549187667
 20
109.5838932714
 10
161.8916801261
 20
109.659760553
 10
161.9316939721
 20
109.7337990228
 10
161.9746793595
 20
109.8055022681
 10
162.0204796704
 20
109.8746035196
 10
162.0687601791
 20
109.9405799488
 10
162.119150031
 20
110.0028834186
 10
162.1714121202
 20
110.0612267349
 10
162.225116574
 20
110.1152227921
 10
162.2796670524
 20
110.164348177
 10
162.3344656183
 20
110.2080952169
 10
162.3889365433
 20
110.2461014669
 10
162.4426062069
 20
110.2782515451
 10
162.4536914329
 20
110.2842361921
  0
LWPOLYLINE
  5
598
100
AcDbEntity
  8
RACCORDO
100
AcDbPolyline
 62
7
  6
CONTINUOUS
 90
29
 70
0
 10
161.7577033471
 20
112.9366026315
 10
161.7546389506
 20
112.9432771599
 10
161.7368295474
 20
112.988785752
 10
161.7217496547
 20
113.0407654143
 10
161.7100919381
 20
113.0983333455
 10
161.7022522736
 20
113.1608855914
 10
161.6984999667
 20
113.2278294277
 10
161.6990334063
 20
113.2982929606
 10
161.7039227221
 20
113.3715461675
 10
161.7131578857
 20
113.4469827896
 10
161.7267157127
 20
113.5240883406
 10
161.7445120821
 20
113.6022416013
 10
161.7663991844
 20
113.6808351241
 10
161.7922830859
 20
113.7595076328
 10
161.8219850176
 20
113.8376867146
 10
161.8552898769
 20
113.9148301277
 10
161.8920895247
 20
113.990670392
 10
161.9321273452
 20
114.0646747492
 10
161.9751179664
 20
114.1363250769
 10
162.0208976998
 20
114.2053447775
 10
162.0691436956
 20
114.2712178392
 10
162.1195093288
 20
114.3334330187
 10
162.1717442749
 20
114.3917016151
 10
162.2253913027
 20
114.4456108678
 10
162.2798775364
 20
114.4946548784
 10
162.3346139516
 20
114.5383308571
 10
162.3890299929
 20
114.5762853777
 10
162.4426417863
 20
114.6083979021
 10
162.4536752433
 20
114.614354611
  0
LWPOLYLINE
  5
599
100
AcDbEntity
  8
0
100
AcDbPolyline
 62
7
  6
CONTINUOUS
 90
7
 70
0
 10
166.710716639
 20
112.3140248091
 10
166.7120213697
 20
112.297312786
 10
166.7150989999
 20
112.2826612452
 10
166.7199495296
 20
112.2700701868
 10
166.7267745701
 20
112.2593919963
 10
166.7353725101
 20
112.2507742882
 10
166.7436823716
 20
112.2453542118
  0
LINE
  5
59A
100
AcDbEntity
  8
0
100
AcDbLine
 62
7
  6
CONTINUOUS
 10
166.8710565185
 20
112.4295196496
 11
166.8723612492
 21
112.4128076265
  0
LWPOLYLINE
  5
59B
100
AcDbEntity
  8
0
100
AcDbPolyline
 62
7
  6
CONTINUOUS
 90
7
 70
0
 10
166.8903217614
 20
112.4038273703
 10
166.8890170308
 20
112.4205393935
 10
166.8859394006
 20
112.4351909343
 10
166.8810888709
 20
112.4477819927
 10
166.8742638304
 20
112.4584601831
 10
166.8656658904
 20
112.4670778913
 10
166.8573560289
 20
112.4724979677
  0
LWPOLYLINE
  5
59C
100
AcDbEntity
  8
0
100
AcDbPolyline
 62
250
  6
CONTINUOUS
 90
4
 70
0
 10
167.3109756757
 20
121.5714946319
 10
167.311249361
 20
121.526598863
 10
167.312688447
 20
121.4808583806
 10
167.3152929339
 20
121.4342731849
  0
LINE
  5
59D
100
AcDbEntity
  8
0
100
AcDbLine
 62
7
  6
CONTINUOUS
 10
165.7894696402
 20
116.3777998648
 11
165.7894696402
 21
116.2520709823
  0
LINE
  5
59E
100
AcDbEntity
  8
0
100
AcDbLine
 62
7
  6
CONTINUOUS
 10
165.8071473097
 20
111.4328181909
 11
165.8071473097
 21
111.2026412268
  0
LINE
  5
59F
100
AcDbEntity
  8
0
100
AcDbLine
 62
7
  6
CONTINUOUS
 10
165.948568666
 20
112.1317794673
 11
165.948568666
 21
112.0880960166
  0
LINE
  5
5A0
100
AcDbEntity
  8
0
100
AcDbLine
 62
7
  6
CONTINUOUS
 10
166.0546346831
 20
112.035063008
 11
166.0546346831
 21
112.1441823181
  0
LINE
  5
5A1
100
AcDbEntity
  8
0
100
AcDbLine
 62
7
  6
CONTINUOUS
 10
166.1960560394
 20
112.1614921433
 11
166.1960560394
 21
112.1057736861
  0
LINE
  5
5A2
100
AcDbEntity
  8
0
100
AcDbLine
 62
7
  6
CONTINUOUS
 10
166.284444387
 20
116.0045836088
 11
166.284444387
 21
116.6394649092
  0
LINE
  5
5A3
100
AcDbEntity
  8
0
100
AcDbLine
 62
7
  6
CONTINUOUS
 10
166.54960943
 20
112.0221610061
 11
166.54960943
 21
112.4495155926
  0
LINE
  5
5A4
100
AcDbEntity
  8
0
100
AcDbLine
 62
7
  6
CONTINUOUS
 10
166.6733531167
 20
116.8450588726
 11
166.6733531167
 21
116.1990379737
  0
LINE
  5
5A5
100
AcDbEntity
  8
0
100
AcDbLine
 62
7
  6
CONTINUOUS
 10
167.0233709734
 20
116.9441066435
 11
167.0233709734
 21
117.0300934397
  0
LINE
  5
5A6
100
AcDbEntity
  8
0
100
AcDbLine
 62
250
  6
CONTINUOUS
 10
167.3109756757
 20
121.6866643988
 11
167.3109756757
 21
121.5714946319
  0
LINE
  5
5A7
100
AcDbEntity
  8
0
100
AcDbLine
 62
7
  6
CONTINUOUS
 10
167.3274268893
 20
116.371530554
 11
167.3274268893
 21
116.2993094337
  0
LINE
  5
5A8
100
AcDbEntity
  8
0
100
AcDbLine
 62
7
  6
CONTINUOUS
 10
167.376924364
 20
117.1409121184
 11
167.376924364
 21
117.1208833388
  0
LINE
  5
5A9
100
AcDbEntity
  8
0
100
AcDbLine
 62
7
  6
CONTINUOUS
 10
167.3951737128
 20
121.7909217767
 11
167.3951737356
 21
121.6756932107
  0
LINE
  5
5AA
100
AcDbEntity
  8
0
100
AcDbLine
 62
7
  6
CONTINUOUS
 10
167.4334929065
 20
117.1817540367
 11
167.4334929065
 21
117.1936729334
  0
LINE
  5
5AB
100
AcDbEntity
  8
0
100
AcDbLine
 62
7
  6
CONTINUOUS
 10
167.5395589236
 20
117.3029727003
 11
167.5395589236
 21
117.2586248386
  0
LINE
  5
5AC
100
AcDbEntity
  8
0
100
AcDbLine
 62
7
  6
CONTINUOUS
 10
167.5572365932
 20
112.5259745877
 11
167.5572365932
 21
112.2862121975
  0
LINE
  5
5AD
100
AcDbEntity
  8
0
100
AcDbLine
 62
7
  6
CONTINUOUS
 10
167.8400793056
 20
112.227667234
 11
167.8400793056
 21
112.6673959439
  0
LINE
  5
5AE
100
AcDbEntity
  8
0
100
AcDbLine
 62
7
  6
CONTINUOUS
 10
167.9638229923
 20
113.1971300051
 11
167.9638229923
 21
112.7292677873
  0
LWPOLYLINE
  5
5AF
100
AcDbEntity
  8
0
100
AcDbPolyline
 62
7
  6
CONTINUOUS
 90
25
 70
0
 10
167.3951737128
 20
121.7909217709
 10
167.3957144189
 20
121.8368201348
 10
167.4011071848
 20
121.945778169
 10
167.4123465863
 20
122.0581275168
 10
167.4294826921
 20
122.1731815461
 10
167.4524976904
 20
122.2902655918
 10
167.4813120035
 20
122.4087562582
 10
167.5158288459
 20
122.5280122107
 10
167.5559089862
 20
122.6473541245
 10
167.6013733154
 20
122.7661365423
 10
167.6520131665
 20
122.8837048366
 10
167.7075716972
 20
122.9994215336
 10
167.7677542846
 20
123.1126863548
 10
167.8322319735
 20
123.2228753921
 10
167.9006472769
 20
123.3293915078
 10
167.9726371132
 20
123.4316673056
 10
168.0477938865
 20
123.5291333459
 10
168.125668382
 20
123.6212247983
 10
168.2057958528
 20
123.7074888222
 10
168.2877122011
 20
123.7875912134
 10
168.3707737467
 20
123.8610281708
 10
168.4542610716
 20
123.9272307446
 10
168.5375958711
 20
123.9858671017
 10
168.6202940506
 20
124.0368442292
 10
168.6524289018
 20
124.0547353576
  0
LWPOLYLINE
  5
5B0
100
AcDbEntity
  8
0
100
AcDbPolyline
 62
7
  6
CONTINUOUS
 90
8
 70
0
 10
167.37513541
 20
117.2160513244
 10
167.3750796251
 20
117.2151909054
 10
167.3705208213
 20
117.1896390908
 10
167.3632479526
 20
117.1669884766
 10
167.3530497386
 20
117.1470101777
 10
167.3401374597
 20
117.1299330792
 10
167.325144957
 20
117.1164438359
 10
167.3118305748
 20
117.108365332
  0
LWPOLYLINE
  5
5B1
100
AcDbEntity
  8
0
100
AcDbPolyline
 62
7
  6
CONTINUOUS
 90
7
 70
0
 10
166.8723612492
 20
112.4128076265
 10
166.8710565185
 20
112.3947908726
 10
166.8679788883
 20
112.3770617017
 10
166.8631283586
 20
112.3596201136
 10
166.8563033181
 20
112.3421168826
 10
166.8477053781
 20
112.3249012345
 10
166.8379393724
 20
112.3090208463
  0
LWPOLYLINE
  5
5B2
100
AcDbEntity
  8
0
100
AcDbPolyline
 62
250
  6
CONTINUOUS
 90
6
 70
0
 10
167.3951737356
 20
121.7908632068
 10
167.3943824168
 20
121.7799755404
 10
167.3898579135
 20
121.7627507749
 10
167.3813805779
 20
121.7459031038
 10
167.3690641231
 20
121.7296585182
 10
167.3530737596
 20
121.7142349195
  0
LWPOLYLINE
  5
5B3
100
AcDbEntity
  8
0
100
AcDbPolyline
 62
250
  6
CONTINUOUS
 90
8
 70
0
 10
167.3951737066
 20
121.675627245
 10
167.3943824377
 20
121.6648056624
 10
167.389857975
 20
121.6475808919
 10
167.3813806795
 20
121.6307332212
 10
167.3690642506
 20
121.6144886389
 10
167.3530738851
 20
121.5990650483
 10
167.3336240646
 20
121.5846693437
 10
167.3109756757
 20
121.5714946319
  0
LWPOLYLINE
  5
5B4
100
AcDbEntity
  8
0
100
AcDbPolyline
 62
7
  6
CONTINUOUS
 90
3
 70
0
 10
146.9056319688
 20
79.0443030387
 10
146.9252908991
 20
79.0588510846
 10
146.9471345102
 20
79.073904151
  0
LINE
  5
5B5
100
AcDbEntity
  8
RACCORDO
100
AcDbLine
 62
7
  6
CONTINUOUS
 10
156.9400627734
 20
87.0244736609
 11
157.8998320951
 21
87.7200615546
  0
LWPOLYLINE
  5
5B6
100
AcDbEntity
  8
0
100
AcDbPolyline
 62
7
  6
CONTINUOUS
 90
9
 70
0
 10
150.0144500355
 20
80.6188264344
 10
150.0402858145
 20
80.637532774
 10
150.0635290226
 20
80.6609020839
 10
150.0840313715
 20
80.689032494
 10
150.1012751322
 20
80.7215158495
 10
150.1148235524
 20
80.7576334862
 10
150.1245139828
 20
80.7967761488
 10
150.1303353378
 20
80.8385990367
 10
150.1322516974
 20
80.8826060578
  0
LINE
  5
5B7
100
AcDbEntity
  8
0
100
AcDbLine
 62
250
  6
CONTINUOUS
 10
156.262534264
 20
86.4787498695
 11
156.2567021421
 21
86.4760513714
  0
LINE
  5
5B8
100
AcDbEntity
  8
0
100
AcDbLine
 62
250
  6
CONTINUOUS
 10
156.2092891459
 20
86.4425751603
 11
156.2035296925
 21
86.4398490103
  0
LWPOLYLINE
  5
5B9
100
AcDbEntity
  8
0
100
AcDbPolyline
 62
7
  6
CONTINUOUS
 90
3
 70
0
 10
156.3206234468
 20
86.5189007235
 10
156.3189913337
 20
86.5177931943
 10
156.309192507
 20
86.5123147663
  0
LINE
  5
5BA
100
AcDbEntity
  8
0
100
AcDbLine
 62
250
  6
CONTINUOUS
 10
156.1547052019
 20
86.4060359074
 11
156.1496751583
 21
86.4037076828
  0
LINE
  5
5BB
100
AcDbEntity
  8
0
100
AcDbLine
 62
250
  6
CONTINUOUS
 10
156.0989804818
 20
86.3692481653
 11
156.0948056343
 21
86.3674376004
  0
LWPOLYLINE
  5
5BC
100
AcDbEntity
  8
0
100
AcDbPolyline
 62
7
  6
CONTINUOUS
 90
4
 70
0
 10
146.9471345102
 20
79.073904151
 10
147.0235632539
 20
79.1242168793
 10
147.0524741614
 20
79.1422513157
 10
147.1148372742
 20
79.179522029
  0
LINE
  5
5BD
100
AcDbEntity
  8
0
100
AcDbLine
 62
250
  6
CONTINUOUS
 10
156.0421974071
 20
86.3322558616
 11
156.0392540256
 21
86.3312285516
  0
LINE
  5
5BE
100
AcDbEntity
  8
0
100
AcDbLine
 62
250
  6
CONTINUOUS
 10
155.9292170378
 20
86.2607770396
 11
155.9263005422
 21
86.2581763101
  0
LINE
  5
5BF
100
AcDbEntity
  8
0
100
AcDbLine
 62
250
  6
CONTINUOUS
 10
174.9003459122
 20
96.7102133031
 11
174.8555579823
 21
96.6822786091
  0
LINE
  5
5C0
100
AcDbEntity
  8
0
100
AcDbLine
 62
250
  6
CONTINUOUS
 10
155.2709325127
 20
85.8761719483
 11
155.280426828
 21
85.8820413936
  0
LINE
  5
5C1
100
AcDbEntity
  8
0
100
AcDbLine
 62
7
  6
CONTINUOUS
 10
147.1148372742
 20
79.179522029
 11
147.1471134254
 21
79.1994506581
  0
LINE
  5
5C2
100
AcDbEntity
  8
0
100
AcDbLine
 62
250
  6
CONTINUOUS
 10
174.99900831
 20
96.7744328046
 11
174.9407306053
 21
96.7394819024
  0
LINE
  5
5C3
100
AcDbEntity
  8
0
100
AcDbLine
 62
250
  6
CONTINUOUS
 10
155.6319126519
 20
86.0780918308
 11
155.6183615513
 21
86.0707170189
  0
LINE
  5
5C4
100
AcDbEntity
  8
0
100
AcDbLine
 62
250
  6
CONTINUOUS
 10
155.5741949036
 20
86.0441918264
 11
155.570930389
 21
86.0429241941
  0
LINE
  5
5C5
100
AcDbEntity
  8
0
100
AcDbLine
 62
250
  6
CONTINUOUS
 10
155.5247876524
 20
86.0162297524
 11
155.517619487
 21
86.0114648395
  0
LINE
  5
5C6
100
AcDbEntity
  8
0
100
AcDbLine
 62
250
  6
CONTINUOUS
 10
155.4797229414
 20
85.9905112563
 11
155.462567501
 21
85.9801414737
  0
LINE
  5
5C7
100
AcDbEntity
  8
0
100
AcDbLine
 62
250
  6
CONTINUOUS
 10
155.4095064202
 20
85.9504902149
 11
155.3940679835
 21
85.9427009473
  0
LWPOLYLINE
  5
5C8
100
AcDbEntity
  8
0
100
AcDbPolyline
 62
250
  6
CONTINUOUS
 90
9
 70
0
 10
149.5544152366
 20
83.3420820451
 10
149.5644999766
 20
83.3476176537
 10
149.5737054796
 20
83.3535147355
 10
149.5819789108
 20
83.3597390836
 10
149.589273098
 20
83.3662523664
 10
149.595545637
 20
83.3730190117
 10
149.6007596765
 20
83.380006298
 10
149.6048854634
 20
83.3871757701
 10
149.6078999666
 20
83.3944835958
  0
LINE
  5
5C9
100
AcDbEntity
  8
0
100
AcDbLine
 62
250
  6
CONTINUOUS
 10
155.3588233515
 20
85.9227283186
 11
155.3542899857
 21
85.9210511792
  0
LINE
  5
5CA
100
AcDbEntity
  8
0
100
AcDbLine
 62
250
  6
CONTINUOUS
 10
174.9003459122
 20
96.7102133031
 11
157.8998320951
 21
87.7200615546
  0
LINE
  5
5CB
100
AcDbEntity
  8
RACCORDO
100
AcDbLine
 62
7
  6
CONTINUOUS
 10
174.8555579823
 20
96.6822786091
 11
157.8781399929
 21
87.7043403148
  0
LINE
  5
5CC
100
AcDbEntity
  8
DRAFT
100
AcDbLine
 62
7
  6
CONTINUOUS
 10
149.920119663
 20
83.3122121077
 11
156.9400627734
 21
87.0244736609
  0
LINE
  5
5CD
100
AcDbEntity
  8
0
100
AcDbLine
 62
250
  6
CONTINUOUS
 10
151.5818205988
 20
85.2338510045
 11
175.354881081
 21
97.7569650014
  0
LINE
  5
5CE
100
AcDbEntity
  8
0
100
AcDbLine
 62
250
  6
CONTINUOUS
 10
151.1676701232
 20
84.2163679055
 11
174.9407306053
 21
96.7394819024
  0
LWPOLYLINE
  5
5CF
100
AcDbEntity
  8
0
100
AcDbPolyline
 62
7
  6
CONTINUOUS
 90
21
 70
0
 10
155.2708939773
 20
85.8761560039
 10
155.3108830649
 20
85.8970585686
 10
155.3588233515
 20
85.9227283186
 10
155.4095064202
 20
85.9504902149
 10
155.462567501
 20
85.9801414737
 10
155.517619487
 20
86.0114648395
 10
155.5741949036
 20
86.0441918264
 10
155.6319126519
 20
86.0780918308
 10
155.6904320091
 20
86.1129567545
 10
155.7493740755
 20
86.1485535809
 10
155.8084661314
 20
86.1847085095
 10
155.867529743
 20
86.2213049842
 10
155.9263005422
 20
86.2581763101
 10
155.9845588926
 20
86.295182915
 10
156.0421974071
 20
86.3322558616
 10
156.0989804818
 20
86.3692481653
 10
156.1547052019
 20
86.4060359074
 10
156.2092891459
 20
86.4425751603
 10
156.262534264
 20
86.4787498695
 10
156.3141404555
 20
86.5143807238
 10
156.3206664537
 20
86.5189307456
  0
LINE
  5
5D0
100
AcDbEntity
  8
0
100
AcDbLine
 62
250
  6
CONTINUOUS
 10
155.3164096005
 20
85.900831328
 11
155.3108830649
 21
85.8970585686
  0
LINE
  5
5D1
100
AcDbEntity
  8
0
100
AcDbLine
 62
250
  6
CONTINUOUS
 10
155.280426828
 20
85.8820413936
 11
155.2709325127
 21
85.8761719483
  0
LINE
  5
5D2
100
AcDbEntity
  8
0
100
AcDbLine
 62
7
  6
CONTINUOUS
 10
155.2709325127
 20
85.8761719483
 11
150.0518717333
 21
83.1821875172
  0
LINE
  5
5D3
100
AcDbEntity
  8
0
100
AcDbLine
 62
7
  6
CONTINUOUS
 10
156.2928569298
 20
86.5043002919
 11
149.922805884
 21
83.2467204418
  0
LINE
  5
5D4
100
AcDbEntity
  8
0
100
AcDbLine
 62
250
  6
CONTINUOUS
 10
149.7215315452
 20
83.4115061666
 11
149.657821765
 21
83.3792125014
  0
LWPOLYLINE
  5
5D5
100
AcDbEntity
  8
0
100
AcDbPolyline
 62
7
  6
CONTINUOUS
 90
5
 70
0
 10
156.3061359711
 20
86.510859018
 10
156.3029741455
 20
86.5093296964
 10
156.2997070301
 20
86.5077268015
 10
156.2963346248
 20
86.5060503334
 10
156.2928569298
 20
86.5043002919
  0
LWPOLYLINE
  5
5D6
100
AcDbEntity
  8
0
100
AcDbPolyline
 62
250
  6
CONTINUOUS
 90
16
 70
0
 10
144.4582507024
 20
79.0946746734
 10
144.4209456765
 20
79.0768112924
 10
144.3806653619
 20
79.0608793986
 10
144.3378003056
 20
79.0470334631
 10
144.2927661151
 20
79.0354077322
 10
144.2459994296
 20
79.0261149259
 10
144.1979536858
 20
79.0192451446
 10
144.1490947219
 20
79.0148649957
 10
144.0998962611
 20
79.0130169481
 10
144.0508353178
 20
79.0137189199
 10
144.0023875734
 20
79.0169641049
 10
143.9550227638
 20
79.0227210387
 10
143.9092001251
 20
79.0309339035
 10
143.8653639409
 20
79.0415230695
 10
143.8239392347
 20
79.0543858671
 10
143.785327649
 20
79.0693975822
  0
LINE
  5
5D7
100
AcDbEntity
  8
0
100
AcDbLine
 62
7
  6
CONTINUOUS
 10
150.1322516974
 20
82.5916734446
 11
150.625497137
 21
82.8266626772
  0
LINE
  5
5D8
100
AcDbEntity
  8
0
100
AcDbLine
 62
7
  6
CONTINUOUS
 10
156.309192507
 20
86.5123147663
 11
156.3061359711
 21
86.510859018
  0
LINE
  5
5D9
100
AcDbEntity
  8
0
100
AcDbLine
 62
7
  6
CONTINUOUS
 10
149.5517532783
 20
82.3392204464
 11
150.1322516974
 21
82.5916734446
  0
LWPOLYLINE
  5
5DA
100
AcDbEntity
  8
0
100
AcDbPolyline
 62
7
  6
CONTINUOUS
 90
4
 70
0
 10
147.4618224298
 20
122.3882188177
 10
147.4793328504
 20
122.3867399907
 10
147.4974723544
 20
122.3820874065
 10
147.5159350678
 20
122.3743429046
  0
LINE
  5
5DB
100
AcDbEntity
  8
0
100
AcDbLine
 62
7
  6
CONTINUOUS
 10
174.6562186861
 20
115.693757315
 11
174.7974936016
 21
115.6654845705
  0
LINE
  5
5DC
100
AcDbEntity
  8
RACCORDO
100
AcDbLine
 62
250
  6
CONTINUOUS
 10
175.2369740297
 20
115.5139103583
 11
174.8550466494
 21
115.5943433334
  0
LWPOLYLINE
  5
5DD
100
AcDbEntity
  8
0
100
AcDbPolyline
 62
7
  6
CONTINUOUS
 90
5
 70
0
 10
165.1390083713
 20
115.2200156298
 10
165.1455675649
 20
115.2173200171
 10
165.1591636378
 20
115.214214255
 10
165.1736665863
 20
115.2144261408
 10
165.1773406281
 20
115.2152129958
  0
LWPOLYLINE
  5
5DE
100
AcDbEntity
  8
0
100
AcDbPolyline
 62
7
  6
CONTINUOUS
 90
6
 70
0
 10
165.2732047119
 20
115.4883276604
 10
165.2666455183
 20
115.4910232731
 10
165.2530494455
 20
115.4941290353
 10
165.238546497
 20
115.4939171494
 10
165.2228988623
 20
115.4905659576
 10
165.2061065416
 20
115.4840754598
  0
LWPOLYLINE
  5
5DF
100
AcDbEntity
  8
0
100
AcDbPolyline
 62
7
  6
CONTINUOUS
 90
6
 70
0
 10
134.9294343627
 20
128.6675932571
 10
134.9109830943
 20
128.6753434816
 10
134.8928406973
 20
128.6799946193
 10
134.8753217247
 20
128.6814691703
 10
134.8587305261
 20
128.6797442284
 10
134.8420952113
 20
128.6742830371
  0
LWPOLYLINE
  5
5E0
100
AcDbEntity
  8
0
100
AcDbPolyline
 62
250
  6
CONTINUOUS
 90
6
 70
0
 10
148.0586611305
 20
122.6249917857
 10
148.0405091983
 20
122.632880764
 10
148.0226255161
 20
122.6376517167
 10
148.0053159603
 20
122.639223043
 10
147.9888765874
 20
122.6375678675
 10
147.972577728
 20
122.6322610717
  0
LWPOLYLINE
  5
5E1
100
AcDbEntity
  8
0
100
AcDbPolyline
 62
250
  6
CONTINUOUS
 90
12
 70
0
 10
148.1677589418
 20
122.6303928225
 10
148.1592637038
 20
122.6341312011
 10
148.1503761462
 20
122.6370458411
 10
148.1411278548
 20
122.6391219556
 10
148.1315491778
 20
122.6403483257
 10
148.1216837597
 20
122.6407160098
 10
148.1115669013
 20
122.640221797
 10
148.1012356449
 20
122.6388656541
 10
148.090739287
 20
122.6366534055
 10
148.0801205326
 20
122.6335953255
 10
148.0694146838
 20
122.6297030358
 10
148.0586611305
 20
122.6249917857
  0
LWPOLYLINE
  5
5E2
100
AcDbEntity
  8
0
100
AcDbPolyline
 62
250
  6
CONTINUOUS
 90
14
 70
0
 10
142.8149473052
 20
124.0726361838
 10
142.8064055794
 20
124.076543917
 10
142.7976264394
 20
124.0800500808
 10
142.7886346788
 20
124.0830984059
 10
142.7794389147
 20
124.0856361925
 10
142.7700926286
 20
124.0875966156
 10
142.760691626
 20
124.0889133754
 10
142.7512737032
 20
124.0895400082
 10
142.7418803998
 20
124.0894309969
 10
142.7326111341
 20
124.0885496566
 10
142.7235074057
 20
124.0868679619
 10
142.7146131422
 20
124.0843606457
 10
142.7060232076
 20
124.0810274806
 10
142.699590329
 20
124.0778679392
  0
LWPOLYLINE
  5
5E3
100
AcDbEntity
  8
0
100
AcDbPolyline
 62
7
  6
CONTINUOUS
 90
10
 70
0
 10
135.5815344357
 20
128.923504147
 10
135.5672462869
 20
128.9300436879
 10
135.5460168411
 20
128.9376047541
 10
135.52397475
 20
128.9429830413
 10
135.5013488369
 20
128.9460855466
 10
135.4782906777
 20
128.9468477743
 10
135.4550291357
 20
128.9452066907
 10
135.4319074971
 20
128.9411532937
 10
135.4091850891
 20
128.9347211842
 10
135.3860535326
 20
128.9255005457
  0
LWPOLYLINE
  5
5E4
100
AcDbEntity
  8
0
100
AcDbPolyline
 62
7
  6
CONTINUOUS
 90
11
 70
0
 10
148.1680197067
 20
122.6302613044
 10
148.1560934423
 20
122.6358040002
 10
148.1350467015
 20
122.6435804479
 10
148.1131675181
 20
122.6492030457
 10
148.0906831926
 20
122.6525765522
 10
148.0677497371
 20
122.6536323759
 10
148.0446096172
 20
122.6523128274
 10
148.0215838514
 20
122.6486052773
 10
147.9988929319
 20
122.6425308637
 10
147.9767400456
 20
122.634130012
 10
147.9725777615
 20
122.6322609984
  0
LINE
  5
5E5
100
AcDbEntity
  8
0
100
AcDbLine
 62
250
  6
CONTINUOUS
 10
135.5787650502
 20
128.9248444248
 11
135.5812581838
 21
128.9236432015
  0
LWPOLYLINE
  5
5E6
100
AcDbEntity
  8
0
100
AcDbPolyline
 62
250
  6
CONTINUOUS
 90
13
 70
0
 10
150.2697415852
 20
121.5794015008
 10
150.267597769
 20
121.5804393455
 10
150.2592341576
 20
121.5838738191
 10
150.2505126651
 20
121.586510239
 10
150.2414632067
 20
121.588338128
 10
150.2321174031
 20
121.5893497109
 10
150.2225115806
 20
121.5895404068
 10
150.2126795909
 20
121.5889093008
 10
150.2026560001
 20
121.5874583643
 10
150.1924799887
 20
121.5851937232
 10
150.1821888581
 20
121.5821246185
 10
150.1718176639
 20
121.5782622452
 10
150.1614029562
 20
121.5736208728
  0
LINE
  5
5E7
100
AcDbEntity
  8
0
100
AcDbLine
 62
7
  6
CONTINUOUS
 10
167.757550415
 20
112.1860552866
 11
167.5572365932
 21
112.2862121975
  0
LINE
  5
5E8
100
AcDbEntity
  8
0
100
AcDbLine
 62
7
  6
CONTINUOUS
 10
134.9294343627
 20
128.6675932571
 11
137.0507977846
 21
127.6069115462
  0
LINE
  5
5E9
100
AcDbEntity
  8
0
100
AcDbLine
 62
7
  6
CONTINUOUS
 10
147.5159350678
 20
122.3743429046
 11
149.6372984897
 21
121.3136611936
  0
LINE
  5
5EA
100
AcDbEntity
  8
0
100
AcDbLine
 62
7
  6
CONTINUOUS
 10
145.6690334915
 20
123.5153916959
 11
143.7022294547
 21
124.4987937143
  0
LINE
  5
5EB
100
AcDbEntity
  8
0
100
AcDbLine
 62
7
  6
CONTINUOUS
 10
142.1941499944
 20
125.2528334444
 11
140.2273459576
 21
126.2362354629
  0
LINE
  5
5EC
100
AcDbEntity
  8
0
100
AcDbLine
 62
7
  6
CONTINUOUS
 10
163.8521406869
 20
114.5470330433
 11
163.3322735756
 21
114.806966599
  0
LINE
  5
5ED
100
AcDbEntity
  8
0
100
AcDbLine
 62
250
  6
CONTINUOUS
 10
150.1614029562
 20
121.5736208728
 11
148.0586611305
 21
122.6249917857
  0
LINE
  5
5EE
100
AcDbEntity
  8
0
100
AcDbLine
 62
250
  6
CONTINUOUS
 10
137.5749042498
 20
127.8668722167
 11
135.4721604254
 21
128.9182421382
  0
LINE
  5
5EF
100
AcDbEntity
  8
0
100
AcDbLine
 62
7
  6
CONTINUOUS
 10
150.2697417206
 20
121.5794014331
 11
148.1677587906
 21
122.6303928981
  0
LINE
  5
5F0
100
AcDbEntity
  8
0
100
AcDbLine
 62
7
  6
CONTINUOUS
 10
137.6832409527
 20
127.872651817
 11
135.5812582656
 21
128.9236431606
  0
LINE
  5
5F1
100
AcDbEntity
  8
0
100
AcDbLine
 62
7
  6
CONTINUOUS
 10
163.9686696786
 20
115.0949863301
 11
163.6573275416
 21
115.2506573987
  0
LINE
  5
5F2
100
AcDbEntity
  8
0
100
AcDbLine
 62
7
  6
CONTINUOUS
 10
168.2289880353
 20
113.2052706099
 11
168.1006275942
 21
113.2694508304
  0
LINE
  5
5F3
100
AcDbEntity
  8
0
100
AcDbLine
 62
7
  6
CONTINUOUS
 10
164.564533424
 20
115.3929182028
 11
165.0491818675
 21
115.150593981
  0
LINE
  5
5F4
100
AcDbEntity
  8
0
100
AcDbLine
 62
7
  6
CONTINUOUS
 10
169.496744907
 20
113.0629757095
 11
169.1305491813
 21
113.2460735724
  0
LINE
  5
5F5
100
AcDbEntity
  8
RACCORDO
100
AcDbLine
 62
7
  6
CONTINUOUS
 10
147.5445285532
 20
124.4745541524
 11
145.4213920129
 21
125.5361224225
  0
LINE
  5
5F6
100
AcDbEntity
  8
RACCORDO
100
AcDbLine
 62
7
  6
CONTINUOUS
 10
147.8914474042
 20
124.640752396
 11
145.7481358061
 21
125.712408195
  0
LWPOLYLINE
  5
5F7
100
AcDbEntity
  8
0
100
AcDbPolyline
 62
250
  6
CONTINUOUS
 90
13
 70
0
 10
143.5424261881
 20
127.8214236124
 10
143.5650802275
 20
127.8082703407
 10
143.5873087472
 20
127.7917277723
 10
143.6087439853
 20
127.7720694534
 10
143.6290312608
 20
127.7496205197
 10
143.647834905
 20
127.7247522548
 10
143.6648438
 20
127.6978759295
 10
143.6797764723
 20
127.6694360604
 10
143.6923856953
 20
127.6399032148
 10
143.7024626728
 20
127.6097661595
 10
143.7098405657
 20
127.5795236027
 10
143.7143972173
 20
127.5496759292
 10
143.716057131
 20
127.5207170651
  0
LINE
  5
5F8
100
AcDbEntity
  8
RACCORDO
100
AcDbLine
 62
250
  6
CONTINUOUS
 10
162.4229384295
 20
112.7499403732
 11
162.0342348363
 21
113.2110162798
  0
LWPOLYLINE
  5
5F9
100
AcDbEntity
  8
0
100
AcDbPolyline
 62
250
  6
CONTINUOUS
 90
11
 70
0
 10
156.2564528063
 20
123.7587494896
 10
156.2030446139
 20
123.8261141103
 10
156.1489696022
 20
123.8887463446
 10
156.0938958714
 20
123.9466706923
 10
156.0381553213
 20
123.9998626535
 10
155.982743652
 20
124.0482487286
 10
155.9277809054
 20
124.0917249799
 10
155.8731470396
 20
124.1303953451
 10
155.8194776294
 20
124.1644981372
 10
155.7668642035
 20
124.194001532
 10
155.7152152331
 20
124.2189373538
  0
LWPOLYLINE
  5
5FA
100
AcDbEntity
  8
0
100
AcDbPolyline
 62
7
  6
CONTINUOUS
 90
11
 70
0
 10
156.3442405205
 20
123.7672275154
 10
156.3067307404
 20
123.8174811631
 10
156.2487353012
 20
123.8895875703
 10
156.18905738
 20
123.957491252
 10
156.1279137205
 20
124.0210888649
 10
156.0654883153
 20
124.0803004672
 10
156.001950431
 20
124.135079515
 10
155.9374986992
 20
124.1853009027
 10
155.8723272436
 20
124.2307981978
 10
155.8066086231
 20
124.2714600109
 10
155.7384123723
 20
124.3082309481
  0
LINE
  5
5FB
100
AcDbEntity
  8
0
100
AcDbLine
 62
250
  6
CONTINUOUS
 10
156.3091941796
 20
123.6866524825
 11
156.2564528063
 21
123.7587494896
  0
LWPOLYLINE
  5
5FC
100
AcDbEntity
  8
0
100
AcDbPolyline
 62
7
  6
CONTINUOUS
 90
3
 70
0
 10
156.3442352325
 20
123.7672455562
 10
156.346433688
 20
123.7635988112
 10
156.3483319439
 20
123.7583923601
  0
LWPOLYLINE
  5
5FD
100
AcDbEntity
  8
0
100
AcDbPolyline
 62
250
  6
CONTINUOUS
 90
10
 70
0
 10
155.280426828
 20
124.245470437
 10
155.2715228909
 20
124.2603195255
 10
155.2619163395
 20
124.2744993963
 10
155.2516802808
 20
124.2879021388
 10
155.2408926131
 20
124.300425756
 10
155.2296354312
 20
124.3119749425
 10
155.2179944014
 20
124.3224618091
 10
155.2060581123
 20
124.3318065495
 10
155.1939174011
 20
124.3399380481
 10
155.1816646601
 20
124.3467944225
  0
LINE
  5
5FE
100
AcDbEntity
  8
RACCORDO
100
AcDbLine
 62
7
  6
CONTINUOUS
 10
157.8998320951
 20
121.1800451902
 11
156.9400627734
 21
122.8354024057
  0
LWPOLYLINE
  5
5FF
100
AcDbEntity
  8
0
100
AcDbPolyline
 62
250
  6
CONTINUOUS
 90
31
 70
0
 10
167.3152929339
 20
121.4342731849
 10
167.3189362963
 20
121.3868221992
 10
167.3237450595
 20
121.3385265002
 10
167.3300987996
 20
121.2894493171
 10
167.3379708615
 20
121.2395346797
 10
167.3473879003
 20
121.1888385582
 10
167.3588094572
 20
121.1375920923
 10
167.3721947979
 20
121.0857205217
 10
167.3875846568
 20
121.0332986067
 10
167.405560778
 20
120.9807817687
 10
167.4260633323
 20
120.928081444
 10
167.4491521491
 20
120.8752861963
 10
167.4755884605
 20
120.8231171376
 10
167.5053343104
 20
120.7714488127
 10
167.5384276549
 20
120.720406677
 10
167.5757435952
 20
120.6710882078
 10
167.6172345114
 20
120.6233094893
 10
167.6629480233
 20
120.5772544374
 10
167.7139020911
 20
120.5345722775
 10
167.7700054175
 20
120.4949942847
 10
167.8313492997
 20
120.4587891838
 10
167.8992255902
 20
120.4284123745
 10
167.9746131791
 20
120.4036670779
 10
168.0565331761
 20
120.3847500729
 10
168.1433407624
 20
120.3747070953
 10
168.2358881794
 20
120.3744886134
 10
168.3333231856
 20
120.3831441589
 10
168.4314442375
 20
120.4008680628
 10
168.5288508204
 20
120.427725102
 10
168.6269434489
 20
120.4636504996
 10
168.725722123
 20
120.5086442556
  0
LINE
  5
600
100
AcDbEntity
  8
0
100
AcDbLine
 62
7
  6
CONTINUOUS
 10
168.2289880353
 20
113.2052706099
 11
168.2289880353
 21
112.4237591658
  0
LINE
  5
601
100
AcDbEntity
  8
0
100
AcDbLine
 62
7
  6
CONTINUOUS
 10
168.4093002645
 20
117.6696577157
 11
168.4093002645
 21
117.6370712891
  0
LINE
  5
602
100
AcDbEntity
  8
0
100
AcDbLine
 62
7
  6
CONTINUOUS
 10
168.7628536551
 20
117.833876764
 11
168.7628536551
 21
117.8138479844
  0
LINE
  5
603
100
AcDbEntity
  8
0
100
AcDbLine
 62
7
  6
CONTINUOUS
 10
169.0711522117
 20
123.3235210647
 11
169.0711522117
 21
123.8777773232
  0
LINE
  5
604
100
AcDbEntity
  8
0
100
AcDbLine
 62
7
  6
CONTINUOUS
 10
169.1305491813
 20
113.8139118954
 11
169.1305491813
 21
113.2460735724
  0
LINE
  5
605
100
AcDbEntity
  8
0
100
AcDbLine
 62
7
  6
CONTINUOUS
 10
169.3539949242
 20
123.4967261455
 11
169.3539949242
 21
123.7045722424
  0
LINE
  5
606
100
AcDbEntity
  8
0
100
AcDbLine
 62
7
  6
CONTINUOUS
 10
169.519457911
 20
118.3496328777
 11
169.519457911
 21
118.2366554356
  0
LINE
  5
607
100
AcDbEntity
  8
0
100
AcDbLine
 62
7
  6
CONTINUOUS
 10
169.5237005516
 20
123.5497952347
 11
169.5237005516
 21
124.1040514931
  0
LINE
  5
608
100
AcDbEntity
  8
0
100
AcDbLine
 62
7
  6
CONTINUOUS
 10
169.7669452844
 20
113.1992136233
 11
169.7669452844
 21
114.150338381
  0
LINE
  5
609
100
AcDbEntity
  8
0
100
AcDbLine
 62
7
  6
CONTINUOUS
 10
169.7669452844
 20
117.7343165118
 11
169.7669452844
 21
118.4804653999
  0
LINE
  5
60A
100
AcDbEntity
  8
0
100
AcDbLine
 62
7
  6
CONTINUOUS
 10
170.4033413874
 20
118.8168918855
 11
170.4033413874
 21
118.0525145634
  0
LINE
  5
60B
100
AcDbEntity
  8
0
100
AcDbLine
 62
7
  6
CONTINUOUS
 10
170.4033413874
 20
114.4867648666
 11
170.4033413874
 21
113.5200913299
  0
LINE
  5
60C
100
AcDbEntity
  8
0
100
AcDbLine
 62
7
  6
CONTINUOUS
 10
170.721539439
 20
118.9556811135
 11
170.721539439
 21
118.9851051283
  0
LINE
  5
60D
100
AcDbEntity
  8
0
100
AcDbLine
 62
7
  6
CONTINUOUS
 10
170.8276054562
 20
118.8788103115
 11
170.8276054562
 21
118.8907292082
  0
LINE
  5
60E
100
AcDbEntity
  8
0
100
AcDbLine
 62
7
  6
CONTINUOUS
 10
170.8672034359
 20
124.2215466768
 11
170.8672034359
 21
124.7758029353
  0
LWPOLYLINE
  5
60F
100
AcDbEntity
  8
0
100
AcDbPolyline
 62
250
  6
CONTINUOUS
 90
3
 70
0
 10
175.6221453744
 20
128.2025051065
 10
175.6325343619
 20
128.2453262768
 10
175.6355412099
 20
128.2838835435
  0
LINE
  5
610
100
AcDbEntity
  8
0
100
AcDbLine
 62
250
  6
CONTINUOUS
 10
175.0056585614
 20
96.7919581499
 11
174.9407306053
 21
96.7394819024
  0
LWPOLYLINE
  5
611
100
AcDbEntity
  8
0
100
AcDbPolyline
 62
7
  6
CONTINUOUS
 90
15
 70
0
 10
175.0157160629
 20
96.7861471456
 10
175.0940696288
 20
96.8473907079
 10
175.1685158121
 20
96.9146936568
 10
175.238748317
 20
96.9879599893
 10
175.3043410089
 20
97.0669695173
 10
175.3649756173
 20
97.1516105806
 10
175.4202845332
 20
97.2416538657
 10
175.469882767
 20
97.3367459295
 10
175.513498011
 20
97.436682405
 10
175.5508649019
 20
97.5412625006
 10
175.5817090213
 20
97.6501506027
 10
175.6058016064
 20
97.7631010859
 10
175.6229249839
 20
97.8799412182
 10
175.6328784197
 20
98.0004020012
 10
175.6355412778
 20
98.1042564362
  0
LINE
  5
612
100
AcDbEntity
  8
0
100
AcDbLine
 62
250
  6
CONTINUOUS
 10
174.9407306053
 20
96.7394819024
 11
174.9003459122
 21
96.7102133031
  0
LINE
  5
613
100
AcDbEntity
  8
0
100
AcDbLine
 62
7
  6
CONTINUOUS
 10
175.0157160633
 20
96.7861471459
 11
174.9749135063
 21
96.756575436
  0
LWPOLYLINE
  5
614
100
AcDbEntity
  8
0
100
AcDbPolyline
 62
250
  6
CONTINUOUS
 90
3
 70
0
 10
174.9749135063
 20
96.756575436
 10
174.9585710286
 20
96.7451286166
 10
174.9003459122
 20
96.7102133031
  0
LINE
  5
615
100
AcDbEntity
  8
0
100
AcDbLine
 62
250
  6
CONTINUOUS
 10
175.0152981994
 20
96.7858440352
 11
174.99900831
 21
96.7744328046
  0
LWPOLYLINE
  5
616
100
AcDbEntity
  8
0
100
AcDbPolyline
 62
7
  6
CONTINUOUS
 90
5
 70
0
 10
149.7288019891
 20
78.8738090949
 10
149.7372858714
 20
78.8791423852
 10
149.7494798836
 20
78.8900758403
 10
149.7597544182
 20
78.9037734667
 10
149.7679365504
 20
78.9200019028
  0
LWPOLYLINE
  5
617
100
AcDbEntity
  8
0
100
AcDbPolyline
 62
250
  6
CONTINUOUS
 90
7
 70
0
 10
150.3369347173
 20
79.6645721854
 10
150.3536649622
 20
79.6744389313
 10
150.3677079522
 20
79.6853029266
 10
150.3788287126
 20
79.696982386
 10
150.3868411661
 20
79.7092818798
 10
150.3916112463
 20
79.7219956036
 10
150.3930667572
 20
79.7340380917
  0
LWPOLYLINE
  5
618
100
AcDbEntity
  8
0
100
AcDbPolyline
 62
250
  6
CONTINUOUS
 90
7
 70
0
 10
150.3369347173
 20
79.3246285905
 10
150.3536649324
 20
79.3344952956
 10
150.3677079082
 20
79.3453592544
 10
150.3788286678
 20
79.3570386838
 10
150.3868411311
 20
79.3693381554
 10
150.3916112279
 20
79.382051866
 10
150.3930667572
 20
79.3940944276
  0
LWPOLYLINE
  5
619
100
AcDbEntity
  8
0
100
AcDbPolyline
 62
250
  6
CONTINUOUS
 90
8
 70
0
 10
148.1017222482
 20
78.1222104406
 10
148.1143461418
 20
78.1296150461
 10
148.1265711613
 20
78.1405624938
 10
148.1369369328
 20
78.1543015869
 10
148.1452661653
 20
78.1705973361
 10
148.1514163997
 20
78.1891710239
 10
148.1552824454
 20
78.2097049719
 10
148.1567981801
 20
78.231847974
  0
LWPOLYLINE
  5
61A
100
AcDbEntity
  8
0
100
AcDbPolyline
 62
7
  6
CONTINUOUS
 90
12
 70
0
 10
150.2537993133
 20
79.1570574757
 10
150.2655097151
 20
79.1637964287
 10
150.2877359278
 20
79.1791538681
 10
150.3085676532
 20
79.197149094
 10
150.3276924783
 20
79.2175791817
 10
150.3444061275
 20
79.2395750783
 10
150.35900957
 20
79.2634017412
 10
150.3714352962
 20
79.289147735
 10
150.3810457423
 20
79.315541841
 10
150.3878434418
 20
79.3422667856
 10
150.3919384587
 20
79.3700607981
 10
150.3930666713
 20
79.3941256497
  0
LINE
  5
61B
100
AcDbEntity
  8
0
100
AcDbLine
 62
7
  6
CONTINUOUS
 10
150.0063995643
 20
80.6142246942
 11
150.0144500355
 21
80.6188264344
  0
LWPOLYLINE
  5
61C
100
AcDbEntity
  8
0
100
AcDbPolyline
 62
250
  6
CONTINUOUS
 90
28
 70
0
 10
150.3028027733
 20
79.263661584
 10
150.3045602276
 20
79.2646536762
 10
150.3063381729
 20
79.2657846487
 10
150.3081366093
 20
79.2670545015
 10
150.3099658749
 20
79.268465119
 10
150.3118156316
 20
79.2700146168
 10
150.3136548649
 20
79.2716973417
 10
150.3154839337
 20
79.2735179822
 10
150.3173024792
 20
79.2754718498
 10
150.3190784102
 20
79.2775392251
 10
150.3208103886
 20
79.2797234067
 10
150.3224997527
 20
79.282021096
 10
150.3241184263
 20
79.2844026785
 10
150.3256636776
 20
79.2868685272
 10
150.3271382385
 20
79.289418269
 10
150.3285222286
 20
79.2920211697
 10
150.329813533
 20
79.2946766391
 10
150.3310142666
 20
79.2973852674
 10
150.3321108946
 20
79.3001180916
 10
150.3331022217
 20
79.3028755397
 10
150.3339894431
 20
79.3056571836
 10
150.3347626097
 20
79.3084327754
 10
150.3354203251
 20
79.3112022375
 10
150.3359639856
 20
79.3139656474
 10
150.3363878311
 20
79.3166929892
 10
150.3366899415
 20
79.3193742577
 10
150.3368722369
 20
79.3220194582
 10
150.3369347173
 20
79.3246285905
  0
LINE
  5
61D
100
AcDbEntity
  8
0
100
AcDbLine
 62
250
  6
CONTINUOUS
 10
150.1322516974
 20
80.8825399043
 11
150.8270158838
 21
81.2573811219
  0
LINE
  5
61E
100
AcDbEntity
  8
0
100
AcDbLine
 62
7
  6
CONTINUOUS
 10
150.0063976309
 20
80.6142238956
 11
150.7022764876
 21
80.9896665034
  0
LINE
  5
61F
100
AcDbEntity
  8
0
100
AcDbLine
 62
250
  6
CONTINUOUS
 10
149.7786983068
 20
78.9808952004
 11
150.3028027733
 21
79.263661584
  0
LINE
  5
620
100
AcDbEntity
  8
0
100
AcDbLine
 62
7
  6
CONTINUOUS
 10
149.7288025483
 20
78.8738093531
 11
150.2538995774
 21
79.1571112469
  0
LINE
  5
621
100
AcDbEntity
  8
0
100
AcDbLine
 62
7
  6
CONTINUOUS
 10
149.7246356071
 20
78.8717256112
 11
149.7288019891
 21
78.8738090949
  0
LINE
  5
622
100
AcDbEntity
  8
0
100
AcDbLine
 62
7
  6
CONTINUOUS
 10
149.9887103809
 20
80.6058374789
 11
150.0063995643
 21
80.6142246942
  0
LINE
  5
623
100
AcDbEntity
  8
0
100
AcDbLine
 62
250
  6
CONTINUOUS
 10
149.7786983068
 20
78.9808952004
 11
148.1567981801
 21
78.231847974
  0
LINE
  5
624
100
AcDbEntity
  8
0
100
AcDbLine
 62
7
  6
CONTINUOUS
 10
149.7246366394
 20
78.871726088
 11
148.1017222482
 21
78.1222104406
  0
LWPOLYLINE
  5
625
100
AcDbEntity
  8
0
100
AcDbPolyline
 62
250
  6
CONTINUOUS
 90
28
 70
0
 10
148.1567981801
 20
78.231847974
 10
148.1550763384
 20
78.2310882358
 10
148.1533216203
 20
78.2304337245
 10
148.1515340259
 20
78.2298844403
 10
148.1497028935
 20
78.2294299565
 10
148.1478388848
 20
78.2290806997
 10
148.1459739845
 20
78.2288679497
 10
148.1441073185
 20
78.2287957014
 10
148.142239761
 20
78.22885996
 10
148.1404059188
 20
78.2290800207
 10
148.1386063277
 20
78.2294608185
 10
148.136840452
 20
78.2299974184
 10
148.1351412912
 20
78.2306943112
 10
148.1335114025
 20
78.2315555891
 10
148.1319482287
 20
78.2325771599
 10
148.1304770974
 20
78.2337512377
 10
148.1291005722
 20
78.2350802556
 10
148.1278160896
 20
78.2365617805
 10
148.1266412863
 20
78.2381807267
 10
148.1255779163
 20
78.239939137
 10
148.1246242258
 20
78.2418349687
 10
148.1237925897
 20
78.2438470076
 10
148.1230848057
 20
78.2459770894
 10
148.1224990762
 20
78.2482233784
 10
148.1220423844
 20
78.2505591538
 10
148.1217170578
 20
78.2529755086
 10
148.1215207688
 20
78.2554813498
 10
148.1214535175
 20
78.2580766772
  0
LINE
  5
626
100
AcDbEntity
  8
0
100
AcDbLine
 62
250
  6
CONTINUOUS
 10
144.9411468328
 20
78.7442134215
 11
150.1322516974
 21
80.8826060578
  0
LINE
  5
627
100
AcDbEntity
  8
0
100
AcDbLine
 62
7
  6
CONTINUOUS
 10
144.7874113714
 20
78.4632455276
 11
149.9887103836
 21
80.60583748
  0
LWPOLYLINE
  5
628
100
AcDbEntity
  8
0
100
AcDbPolyline
 62
7
  6
CONTINUOUS
 90
5
 70
0
 10
142.9539174607
 20
124.2036321212
 10
142.9713434343
 20
124.2030971548
 10
142.9892332989
 20
124.1999957546
 10
143.0074522142
 20
124.1943980013
 10
143.0258016225
 20
124.1863969253
  0
LWPOLYLINE
  5
629
100
AcDbEntity
  8
0
100
AcDbPolyline
 62
250
  6
CONTINUOUS
 90
12
 70
0
 10
135.3725045967
 20
126.0156720872
 10
135.3816027125
 20
126.014108265
 10
135.4017439641
 20
126.0131499582
 10
135.4220927242
 20
126.0155448551
 10
135.442304672
 20
126.0212524314
 10
135.4620378017
 20
126.0301761092
 10
135.4809582097
 20
126.0421648911
 10
135.4987457444
 20
126.0570159151
 10
135.5150994239
 20
126.0744778875
 10
135.5297425281
 20
126.0942553347
 10
135.5424272818
 20
126.1160136031
 10
135.5529390468
 20
126.1393845219
  0
LWPOLYLINE
  5
62A
100
AcDbEntity
  8
RACCORDO
100
AcDbPolyline
 62
7
  6
CONTINUOUS
 90
3
 70
0
 10
145.6392194297
 20
125.745808654
 10
145.6750146535
 20
125.7396136008
 10
145.711457001
 20
125.7284203528
  0
LINE
  5
62B
100
AcDbEntity
  8
0
100
AcDbLine
 62
7
  6
CONTINUOUS
 10
174.6562186861
 20
120.023884334
 11
174.7974936016
 21
119.9956115894
  0
LINE
  5
62C
100
AcDbEntity
  8
RACCORDO
100
AcDbLine
 62
250
  6
CONTINUOUS
 10
175.2369740297
 20
119.8440373772
 11
174.8550466494
 21
119.9244703523
  0
LINE
  5
62D
100
AcDbEntity
  8
0
100
AcDbLine
 62
7
  6
CONTINUOUS
 10
136.0123234526
 20
125.8799463256
 11
135.3725045967
 21
126.0156720872
  0
LINE
  5
62E
100
AcDbEntity
  8
0
100
AcDbLine
 62
250
  6
CONTINUOUS
 10
136.289746851
 20
125.9830843449
 11
135.5529390468
 21
126.1393845219
  0
LWPOLYLINE
  5
62F
100
AcDbEntity
  8
0
100
AcDbPolyline
 62
250
  6
CONTINUOUS
 90
22
 70
0
 10
135.5529390468
 20
126.1393845219
 10
135.5516421155
 20
126.1396920907
 10
135.5503572734
 20
126.1401028626
 10
135.5490845205
 20
126.1406168376
 10
135.5478160999
 20
126.1412305199
 10
135.5465597686
 20
126.1419474052
 10
135.545338797
 20
126.142777981
 10
135.5441534446
 20
126.1437249289
 10
135.5430034519
 20
126.1447855672
 10
135.5419113109
 20
126.1459623378
 10
135.5408779577
 20
126.1472581926
 10
135.5399024562
 20
126.1486701797
 10
135.5390044899
 20
126.1501918859
 10
135.5381856371
 20
126.1518261737
 10
135.5374443195
 20
126.1535701806
 10
135.5367954856
 20
126.1554089057
 10
135.5362412192
 20
126.1573447694
 10
135.5357794365
 20
126.1593753512
 10
135.5354188347
 20
126.1614783884
 10
135.535162313
 20
126.1636464601
 10
135.5350069722
 20
126.1658869871
 10
135.5349528124
 20
126.1681999696
  0
LWPOLYLINE
  5
630
100
AcDbEntity
  8
0
100
AcDbPolyline
 62
250
  6
CONTINUOUS
 90
6
 70
0
 10
143.3629620372
 20
127.912732136
 10
143.340272122
 20
127.9225933589
 10
143.3179175194
 20
127.9285570498
 10
143.2962805749
 20
127.9305212078
 10
143.2757313592
 20
127.9284522387
 10
143.2550571823
 20
127.9216805632
  0
LINE
  5
631
100
AcDbEntity
  8
RACCORDO
100
AcDbLine
 62
7
  6
CONTINUOUS
 10
145.711457001
 20
125.7284203528
 11
145.7481358061
 21
125.712408195
  0
LWPOLYLINE
  5
632
100
AcDbEntity
  8
RACCORDO
100
AcDbPolyline
 62
250
  6
CONTINUOUS
 90
7
 70
0
 10
146.6874917104
 20
125.8466977771
 10
146.6852785156
 20
125.8477594712
 10
146.6701797604
 20
125.8528600316
 10
146.6538740747
 20
125.8548642531
 10
146.6366342954
 20
125.8537386044
 10
146.6187488921
 20
125.8495019252
 10
146.6005171349
 20
125.8422251109
  0
LWPOLYLINE
  5
633
100
AcDbEntity
  8
RACCORDO
100
AcDbPolyline
 62
7
  6
CONTINUOUS
 90
53
 70
0
 10
146.6874968106
 20
125.846695245
 10
146.6821672497
 20
125.8493246629
 10
146.6585782846
 20
125.8601548972
 10
146.6345862491
 20
125.8699364757
 10
146.610237093
 20
125.8787367304
 10
146.5856540185
 20
125.8865971263
 10
146.5609055158
 20
125.8935809559
 10
146.5359734314
 20
125.8997676167
 10
146.5109077337
 20
125.9052083021
 10
146.4857604718
 20
125.9099488299
 10
146.4605389027
 20
125.9140372361
 10
146.4352352551
 20
125.9175153048
 10
146.4099092049
 20
125.920409883
 10
146.3846679581
 20
125.9227425291
 10
146.3595494054
 20
125.9245426009
 10
146.3345512183
 20
125.92583843
 10
146.3097338041
 20
125.9266527785
 10
146.2851154576
 20
125.9270087657
 10
146.2607042831
 20
125.9269278245
 10
146.2365476362
 20
125.9264300948
 10
146.2126580356
 20
125.9255348305
 10
146.189043986
 20
125.9242601858
 10
146.165747922
 20
125.9226252056
 10
146.1427820492
 20
125.9206476813
 10
146.1201501669
 20
125.9183439124
 10
146.0978830955
 20
125.9157323218
 10
146.0759917221
 20
125.9128299816
 10
146.0544767413
 20
125.9096519839
 10
146.0333550317
 20
125.906215322
 10
146.0126292115
 20
125.9025353314
 10
145.9923051084
 20
125.8986273358
 10
145.9724063118
 20
125.8945102703
 10
145.9529429616
 20
125.8902016821
 10
145.9339107403
 20
125.8857155427
 10
145.9153143847
 20
125.8810675424
 10
145.8971745132
 20
125.8762785922
 10
145.8794756264
 20
125.8713599234
 10
145.8621739257
 20
125.8663130806
 10
145.8452711901
 20
125.861152489
 10
145.828775594
 20
125.8558943971
 10
145.8126614232
 20
125.8505433936
 10
145.7969437089
 20
125.8451186306
 10
145.7816240116
 20
125.8396350393
 10
145.7666686789
 20
125.8340931583
 10
145.7521186937
 20
125.828523193
 10
145.7379634052
 20
125.8229369794
 10
145.7241161478
 20
125.8173125156
 10
145.7106397103
 20
125.8116904825
 10
145.6975417349
 20
125.8060912715
 10
145.6847046849
 20
125.8004776667
 10
145.6722715067
 20
125.7949307034
 10
145.6602885653
 20
125.7894933983
 10
145.6485811204
 20
125.7841061691
  0
LINE
  5
634
100
AcDbEntity
  8
RACCORDO
100
AcDbLine
 62
250
  6
CONTINUOUS
 10
146.6005171349
 20
125.8422251109
 11
148.4593412823
 21
124.9128130372
  0
LINE
  5
635
100
AcDbEntity
  8
0
100
AcDbLine
 62
7
  6
CONTINUOUS
 10
166.284444387
 20
116.0045836088
 11
165.7894696402
 21
116.2520709823
  0
LINE
  5
636
100
AcDbEntity
  8
RACCORDO
100
AcDbLine
 62
7
  6
CONTINUOUS
 10
146.6874917104
 20
125.8466977771
 11
148.5083265214
 21
124.9362803716
  0
LINE
  5
637
100
AcDbEntity
  8
0
100
AcDbLine
 62
7
  6
CONTINUOUS
 10
149.8418958398
 20
124.5455339282
 11
149.44604059
 21
124.7434615531
  0
LINE
  5
638
100
AcDbEntity
  8
0
100
AcDbLine
 62
7
  6
CONTINUOUS
 10
148.7902658661
 20
125.0713489151
 11
146.242922093
 21
126.3450208016
  0
LINE
  5
639
100
AcDbEntity
  8
0
100
AcDbLine
 62
7
  6
CONTINUOUS
 10
167.3993451852
 20
116.335571406
 11
167.3274268893
 21
116.371530554
  0
LINE
  5
63A
100
AcDbEntity
  8
0
100
AcDbLine
 62
7
  6
CONTINUOUS
 10
150.834142777
 20
125.0271653706
 11
146.8523798595
 21
127.0180468294
  0
LINE
  5
63B
100
AcDbEntity
  8
0
100
AcDbLine
 62
7
  6
CONTINUOUS
 10
166.9397785339
 20
116.9859028633
 11
167.0233709734
 21
116.9441066435
  0
LINE
  5
63C
100
AcDbEntity
  8
0
100
AcDbLine
 62
7
  6
CONTINUOUS
 10
167.1923516476
 20
117.1194239276
 11
167.2001476687
 21
117.115525917
  0
LINE
  5
63D
100
AcDbEntity
  8
0
100
AcDbLine
 62
7
  6
CONTINUOUS
 10
167.4334929065
 20
117.1817540367
 11
167.3701593994
 21
117.2134207902
  0
LINE
  5
63E
100
AcDbEntity
  8
0
100
AcDbLine
 62
7
  6
CONTINUOUS
 10
168.5295084173
 20
116.972571318
 11
168.5963863658
 21
116.9391323437
  0
LINE
  5
63F
100
AcDbEntity
  8
DRAFT
100
AcDbLine
 62
7
  6
CONTINUOUS
 10
156.1017396251
 20
123.2545639799
 11
156.9400627734
 21
122.8354024057
  0
LINE
  5
640
100
AcDbEntity
  8
0
100
AcDbLine
 62
7
  6
CONTINUOUS
 10
148.5076790867
 20
127.1594582754
 11
151.8240712764
 21
125.5012621805
  0
LINE
  5
641
100
AcDbEntity
  8
0
100
AcDbLine
 62
7
  6
CONTINUOUS
 10
168.4093002645
 20
117.6370712891
 11
168.3767138379
 21
117.6533645024
  0
LINE
  5
642
100
AcDbEntity
  8
0
100
AcDbLine
 62
7
  6
CONTINUOUS
 10
167.4334929065
 20
117.1936729334
 11
167.3868426386
 21
117.2222402715
  0
LWPOLYLINE
  5
643
100
AcDbEntity
  8
0
100
AcDbPolyline
 62
7
  6
CONTINUOUS
 90
5
 70
0
 10
166.8481155257
 20
112.4756470567
 10
166.8563033181
 20
112.4674404393
 10
166.8631283586
 20
112.4567622488
 10
166.8679788883
 20
112.4441711904
 10
166.8710565185
 20
112.4295196496
  0
LINE
  5
644
100
AcDbEntity
  8
0
100
AcDbLine
 62
7
  6
CONTINUOUS
 10
155.3648418782
 20
130.261982181
 11
155.258775861
 21
130.4449190002
  0
LINE
  5
645
100
AcDbEntity
  8
0
100
AcDbLine
 62
7
  6
CONTINUOUS
 10
155.859816625
 20
130.0144948076
 11
155.7537506078
 21
130.1974316268
  0
LINE
  5
646
100
AcDbEntity
  8
0
100
AcDbLine
 62
7
  6
CONTINUOUS
 10
156.3020081719
 20
129.8580449875
 11
156.2487253546
 21
129.9499442533
  0
LINE
  5
647
100
AcDbEntity
  8
0
100
AcDbLine
 62
7
  6
CONTINUOUS
 10
170.9336714733
 20
118.9556811135
 11
170.9336714733
 21
119.0972472902
  0
LINE
  5
648
100
AcDbEntity
  8
0
100
AcDbLine
 62
7
  6
CONTINUOUS
 10
171.1500461484
 20
124.3947517576
 11
171.1500461484
 21
124.6025978545
  0
LINE
  5
649
100
AcDbEntity
  8
0
100
AcDbLine
 62
7
  6
CONTINUOUS
 10
171.1599456433
 20
119.0449804051
 11
171.1599456433
 21
119.0123939785
  0
LINE
  5
64A
100
AcDbEntity
  8
0
100
AcDbLine
 62
7
  6
CONTINUOUS
 10
171.3197517759
 20
124.4478208468
 11
171.3197517759
 21
125.0020771052
  0
LINE
  5
64B
100
AcDbEntity
  8
0
100
AcDbLine
 62
7
  6
CONTINUOUS
 10
171.5134990339
 20
119.2091994534
 11
171.5134990339
 21
119.1891706738
  0
LINE
  5
64C
100
AcDbEntity
  8
0
100
AcDbLine
 62
7
  6
CONTINUOUS
 10
172.6307277482
 20
114.6431633029
 11
172.6307277482
 21
115.6642575663
  0
LINE
  5
64D
100
AcDbEntity
  8
0
100
AcDbLine
 62
7
  6
CONTINUOUS
 10
172.6307277482
 20
118.9732903218
 11
172.6307277482
 21
119.7803714575
  0
LINE
  5
64E
100
AcDbEntity
  8
0
100
AcDbLine
 62
7
  6
CONTINUOUS
 10
172.6307277482
 20
123.8170098217
 11
172.6307277482
 21
125.1358357449
  0
LINE
  5
64F
100
AcDbEntity
  8
0
100
AcDbLine
 62
7
  6
CONTINUOUS
 10
172.6307277482
 20
126.1426403433
 11
172.6307277482
 21
126.201118857
  0
LINE
  5
650
100
AcDbEntity
  8
0
100
AcDbLine
 62
7
  6
CONTINUOUS
 10
172.6632546601
 20
125.1195722889
 11
172.6632546601
 21
125.6738285474
  0
LINE
  5
651
100
AcDbEntity
  8
0
100
AcDbLine
 62
7
  6
CONTINUOUS
 10
172.9135704607
 20
119.9337117105
 11
172.9135704607
 21
120.1439074677
  0
LINE
  5
652
100
AcDbEntity
  8
0
100
AcDbLine
 62
7
  6
CONTINUOUS
 10
172.9460973726
 20
125.5006234666
 11
172.9460973726
 21
125.2927773697
  0
LINE
  5
653
100
AcDbEntity
  8
0
100
AcDbLine
 62
7
  6
CONTINUOUS
 10
173.1158030001
 20
125.9001027173
 11
173.1158030001
 21
125.3458464589
  0
LWPOLYLINE
  5
654
100
AcDbEntity
  8
0
100
AcDbPolyline
 62
250
  6
CONTINUOUS
 90
21
 70
0
 10
175.6346069055
 20
128.1193723567
 10
175.6311624835
 20
128.0940968967
 10
175.6254298709
 20
128.0697663702
 10
175.6176418367
 20
128.0463611927
 10
175.6080605996
 20
128.0239771719
 10
175.596915064
 20
128.0026162928
 10
175.5844380401
 20
127.9823011199
 10
175.5708443424
 20
127.9630283963
 10
175.5563042209
 20
127.9447519825
 10
175.5410165008
 20
127.9274775433
 10
175.5251503958
 20
127.911182847
 10
175.5087891811
 20
127.8957781496
 10
175.4920843986
 20
127.8812570937
 10
175.4751638839
 20
127.8675932651
 10
175.458028158
 20
127.8546719689
 10
175.4407631808
 20
127.842463721
 10
175.4234814986
 20
127.8309632504
 10
175.4061871522
 20
127.8200987838
 10
175.3889272725
 20
127.8098359423
 10
175.3718025501
 20
127.8001740179
 10
168.7257220705
 20
124.2145276316
  0
LINE
  5
655
100
AcDbEntity
  8
0
100
AcDbLine
 62
250
  6
CONTINUOUS
 10
175.065447651
 20
96.8515385156
 11
175.0056585614
 21
96.7919581499
  0
LWPOLYLINE
  5
656
100
AcDbEntity
  8
RACCORDO
100
AcDbPolyline
 62
7
  6
CONTINUOUS
 90
7
 70
0
 10
145.2220317773
 20
125.5621329378
 10
145.2494875187
 20
125.5697046387
 10
145.2796028786
 20
125.5725407335
 10
145.3122146745
 20
125.5706216156
 10
145.3470168058
 20
125.563908146
 10
145.3835481613
 20
125.5523862681
 10
145.4213920129
 20
125.5361224225
  0
LINE
  5
657
100
AcDbEntity
  8
0
100
AcDbLine
 62
7
  6
CONTINUOUS
 10
146.8523798595
 20
127.0180468294
 11
148.4340723382
 21
127.0982868216
  0
LWPOLYLINE
  5
658
100
AcDbEntity
  8
0
100
AcDbPolyline
 62
7
  6
CONTINUOUS
 90
5
 70
0
 10
139.2416068594
 20
126.0597874218
 10
139.2590328331
 20
126.0592524555
 10
139.2769226976
 20
126.0561510552
 10
139.295141613
 20
126.050553302
 10
139.3134910213
 20
126.042552226
  0
LWPOLYLINE
  5
659
100
AcDbEntity
  8
0
100
AcDbPolyline
 62
7
  6
CONTINUOUS
 90
6
 70
0
 10
167.6138821128
 20
121.7402074787
 10
167.6204413064
 20
121.737511866
 10
167.6340373793
 20
121.7344061039
 10
167.6485403278
 20
121.7346179897
 10
167.6641879624
 20
121.7379691816
 10
167.6809802831
 20
121.7444596793
  0
LWPOLYLINE
  5
65A
100
AcDbEntity
  8
0
100
AcDbPolyline
 62
250
  6
CONTINUOUS
 90
11
 70
0
 10
155.7152152331
 20
124.2189373538
 10
155.6648917067
 20
124.2396393872
 10
155.6159634295
 20
124.2561285633
 10
155.5683605964
 20
124.2683839512
 10
155.5222347807
 20
124.2766765433
 10
155.4775021948
 20
124.2810331494
 10
155.4342466262
 20
124.2814269597
 10
155.3928710116
 20
124.2780485374
 10
155.3535096631
 20
124.2709614033
 10
155.3160282686
 20
124.2601020365
 10
155.280426828
 20
124.245470437
  0
LWPOLYLINE
  5
65B
100
AcDbEntity
  8
0
100
AcDbPolyline
 62
250
  6
CONTINUOUS
 90
10
 70
0
 10
148.1630709803
 20
128.0958910323
 10
148.1200399466
 20
128.1142181777
 10
148.0757061278
 20
128.1271013273
 10
148.0294456099
 20
128.1349019785
 10
147.9815104965
 20
128.1375781303
 10
147.9321605701
 20
128.1351164347
 10
147.8816680513
 20
128.1275291513
 10
147.8303092445
 20
128.1148576698
 10
147.7783630538
 20
128.0971723592
 10
147.726113064
 20
128.0745702205
  0
LWPOLYLINE
  5
65C
100
AcDbEntity
  8
0
100
AcDbPolyline
 62
250
  6
CONTINUOUS
 90
9
 70
0
 10
144.9660988082
 20
129.4545773484
 10
144.9537012746
 20
129.460046107
 10
144.9413793075
 20
129.4641459453
 10
144.9292266783
 20
129.4668456634
 10
144.9173358712
 20
129.4681247167
 10
144.9057973753
 20
129.4679733718
 10
144.894698997
 20
129.4663927797
 10
144.8841251952
 20
129.4633949683
 10
144.8765504532
 20
129.460211894
  0
LWPOLYLINE
  5
65D
100
AcDbEntity
  8
0
100
AcDbPolyline
 62
7
  6
CONTINUOUS
 90
11
 70
0
 10
152.8552618326
 20
125.7497929181
 10
152.8124992316
 20
125.7689239387
 10
152.7622915392
 20
125.7858804677
 10
152.7095081331
 20
125.7979952374
 10
152.6545869576
 20
125.8049527749
 10
152.5981611485
 20
125.8065194823
 10
152.5405835608
 20
125.8025981006
 10
152.4821355643
 20
125.793139594
 10
152.423248217
 20
125.7781464383
 10
152.364191098
 20
125.7576298056
 10
152.310622544
 20
125.7342643678
  0
LWPOLYLINE
  5
65E
100
AcDbEntity
  8
0
100
AcDbPolyline
 62
250
  6
CONTINUOUS
 90
8
 70
0
 10
148.4240586224
 20
130.2451784073
 10
148.4113263396
 20
130.2509550667
 10
148.3808563006
 20
130.2605453896
 10
148.3484541796
 20
130.2651790689
 10
148.3144671429
 20
130.2648064581
 10
148.279259338
 20
130.2594315493
 10
148.243207992
 20
130.2491119309
 10
148.2066993703
 20
130.2339581706
  0
LWPOLYLINE
  5
65F
100
AcDbEntity
  8
0
100
AcDbPolyline
 62
7
  6
CONTINUOUS
 90
21
 70
0
 10
145.2777535983
 20
129.5385614132
 10
145.2641104586
 20
129.5447817721
 10
145.2390733589
 20
129.5533794509
 10
145.2148015665
 20
129.5586299007
 10
145.1918838984
 20
129.5610868663
 10
145.1701156178
 20
129.5613567295
 10
145.1499368243
 20
129.5599516065
 10
145.1316830374
 20
129.5574293995
 10
145.1146854078
 20
129.5541258998
 10
145.0979276891
 20
129.5500807179
 10
145.0812216443
 20
129.5453801331
 10
145.0644451524
 20
129.5400931216
 10
145.0468474234
 20
129.5340361063
 10
145.0281959293
 20
129.5271415614
 10
145.0084768745
 20
129.5194134306
 10
144.9873561564
 20
129.5107197549
 10
144.9646822805
 20
129.5009844022
 10
144.9404165056
 20
129.4901740909
 10
144.9144994478
 20
129.4782501327
 10
144.8869670437
 20
129.465222228
 10
137.8691524277
 20
126.0710711282
  0
LWPOLYLINE
  5
660
100
AcDbEntity
  8
RACCORDO
100
AcDbPolyline
 62
250
  6
CONTINUOUS
 90
3
 70
0
 10
175.2646077886
 20
115.5043234994
 10
175.2575151157
 20
115.5075617332
 10
175.2369740309
 20
115.5139103577
  0
LWPOLYLINE
  5
661
100
AcDbEntity
  8
0
100
AcDbPolyline
 62
250
  6
CONTINUOUS
 90
11
 70
0
 10
155.7384829663
 20
124.3081840947
 10
155.701161451
 20
124.3258233469
 10
155.6367190394
 20
124.3517385571
 10
155.5738646196
 20
124.3713886728
 10
155.5123004995
 20
124.3850680502
 10
155.4521023792
 20
124.3928730284
 10
155.3936888092
 20
124.3948572037
 10
155.3372127452
 20
124.3911224132
 10
155.2828799538
 20
124.3817742652
 10
155.2309545129
 20
124.3669484002
 10
155.1816646601
 20
124.3467944225
  0
LWPOLYLINE
  5
662
100
AcDbEntity
  8
0
100
AcDbPolyline
 62
250
  6
CONTINUOUS
 90
13
 70
0
 10
145.2777507548
 20
129.538551015
 10
145.2760642512
 20
129.5393497387
 10
145.2618376624
 20
129.543717935
 10
145.2444711549
 20
129.5455040368
 10
145.2241906522
 20
129.5447643266
 10
145.2011291591
 20
129.5415961545
 10
145.1751602338
 20
129.5360487208
 10
145.1463115989
 20
129.5280922739
 10
145.1148360736
 20
129.5177632641
 10
145.0809219224
 20
129.5051608735
 10
145.0447349407
 20
129.490381836
 10
145.0064115454
 20
129.4734899718
 10
144.9660988082
 20
129.4545773484
  0
LINE
  5
663
100
AcDbEntity
  8
0
100
AcDbLine
 62
250
  6
CONTINUOUS
 10
144.9660988082
 20
129.4545773484
 11
147.726113064
 21
128.0745702205
  0
LINE
  5
664
100
AcDbEntity
  8
0
100
AcDbLine
 62
250
  6
CONTINUOUS
 10
152.4216504044
 20
125.7268015503
 11
155.1816646601
 21
124.3467944225
  0
LINE
  5
665
100
AcDbEntity
  8
0
100
AcDbLine
 62
7
  6
CONTINUOUS
 10
145.2777507548
 20
129.538551015
 11
148.1630709378
 21
128.0958910535
  0
LINE
  5
666
100
AcDbEntity
  8
0
100
AcDbLine
 62
7
  6
CONTINUOUS
 10
152.8544382917
 20
125.7502073766
 11
155.7396407739
 21
124.3076061355
  0
LINE
  5
667
100
AcDbEntity
  8
0
100
AcDbLine
 62
7
  6
CONTINUOUS
 10
174.1208589755
 20
115.3945033699
 11
174.1031715796
 21
115.4033470679
  0
LINE
  5
668
100
AcDbEntity
  8
0
100
AcDbLine
 62
7
  6
CONTINUOUS
 10
169.7669452844
 20
117.7343165118
 11
169.1527815706
 21
118.0413983687
  0
LINE
  5
669
100
AcDbEntity
  8
0
100
AcDbLine
 62
7
  6
CONTINUOUS
 10
174.6562186861
 20
115.693757315
 11
174.8550466494
 21
115.5943433334
  0
LINE
  5
66A
100
AcDbEntity
  8
0
100
AcDbLine
 62
250
  6
CONTINUOUS
 10
174.931798913
 20
115.6664979166
 11
175.2369740297
 21
115.5139103583
  0
LINE
  5
66B
100
AcDbEntity
  8
0
100
AcDbLine
 62
7
  6
CONTINUOUS
 10
170.8276054562
 20
118.8788103115
 11
170.6697607394
 21
118.9577326699
  0
LINE
  5
66C
100
AcDbEntity
  8
0
100
AcDbLine
 62
7
  6
CONTINUOUS
 10
170.721539439
 20
118.9556811135
 11
170.6929347544
 21
118.9699834558
  0
LINE
  5
66D
100
AcDbEntity
  8
0
100
AcDbLine
 62
250
  6
CONTINUOUS
 10
148.2066993703
 20
130.2339581706
 11
152.6067972834
 21
128.0339092141
  0
LINE
  5
66E
100
AcDbEntity
  8
0
100
AcDbLine
 62
7
  6
CONTINUOUS
 10
148.4240586224
 20
130.2451784073
 11
152.6092256704
 21
128.1525949055
  0
LINE
  5
66F
100
AcDbEntity
  8
0
100
AcDbLine
 62
7
  6
CONTINUOUS
 10
171.1599456433
 20
119.0123939785
 11
171.1273592167
 21
119.0286871918
  0
LWPOLYLINE
  5
670
100
AcDbEntity
  8
RACCORDO
100
AcDbPolyline
 62
250
  6
CONTINUOUS
 90
3
 70
0
 10
175.2369740297
 20
115.5139103583
 10
175.2642686712
 20
115.4996133772
 10
175.291236965
 20
115.4840744013
  0
LWPOLYLINE
  5
671
100
AcDbEntity
  8
0
100
AcDbPolyline
 62
7
  6
CONTINUOUS
 90
19
 70
0
 10
174.8550466494
 20
115.5943433334
 10
174.8731286171
 20
115.5844533898
 10
174.8892436305
 20
115.5740089576
 10
174.9033916897
 20
115.5630100367
 10
174.9156483125
 20
115.5513668996
 10
174.925937981
 20
115.539169274
 10
174.9340341413
 20
115.5266863422
 10
174.9398880514
 20
115.5139117694
 10
174.9435484532
 20
115.5008518904
 10
174.9449350188
 20
115.4877948922
 10
174.9439965752
 20
115.4747403211
 10
174.9407842955
 20
115.4616886308
 10
174.9353713704
 20
115.4489293692
 10
174.9277090581
 20
115.436470066
 10
174.9178461005
 20
115.4243031916
 10
174.9060019145
 20
115.4126957047
 10
174.8922496389
 20
115.4017365913
 10
174.876516135
 20
115.3913368654
 10
174.8588014025
 20
115.3814965268
  0
LINE
  5
672
100
AcDbEntity
  8
0
100
AcDbLine
 62
7
  6
CONTINUOUS
 10
158.8896609405
 20
132.0482295056
 11
158.7943097669
 21
132.2126859531
  0
LINE
  5
673
100
AcDbEntity
  8
0
100
AcDbLine
 62
7
  6
CONTINUOUS
 10
159.3846356873
 20
131.8007421322
 11
159.2892845137
 21
131.9651985797
  0
LINE
  5
674
100
AcDbEntity
  8
0
100
AcDbLine
 62
7
  6
CONTINUOUS
 10
159.8796104341
 20
131.5532547587
 11
159.7842592606
 21
131.7177112063
  0
LINE
  5
675
100
AcDbEntity
  8
0
100
AcDbLine
 62
7
  6
CONTINUOUS
 10
160.374585181
 20
131.3057673853
 11
160.2792340074
 21
131.4702238329
  0
LINE
  5
676
100
AcDbEntity
  8
0
100
AcDbLine
 62
7
  6
CONTINUOUS
 10
160.8695599278
 20
131.0582800119
 11
160.7742087542
 21
131.2227364595
  0
LINE
  5
677
100
AcDbEntity
  8
0
100
AcDbLine
 62
7
  6
CONTINUOUS
 10
167.5040342682
 20
121.1092011951
 11
167.504424198
 21
121.1083704217
  0
LWPOLYLINE
  5
678
100
AcDbEntity
  8
0
100
AcDbPolyline
 62
7
  6
CONTINUOUS
 90
10
 70
0
 10
167.5040637683
 20
121.1091595884
 10
167.5001621673
 20
121.1176032008
 10
167.4734264507
 20
121.1827711461
 10
167.4503893527
 20
121.252715202
 10
167.4312275708
 20
121.3268671247
 10
167.4160893016
 20
121.4047044011
 10
167.4050835715
 20
121.4855926498
 10
167.3981840071
 20
121.5690205649
 10
167.3952879761
 20
121.6545596688
 10
167.3951737066
 20
121.6756272458
  0
LWPOLYLINE
  5
679
100
AcDbEntity
  8
RACCORDO
100
AcDbPolyline
 62
250
  6
CONTINUOUS
 90
10
 70
0
 10
175.354881081
 20
114.64304662
 10
175.3535163538
 20
114.6739620214
 10
175.3492501537
 20
114.7058676548
 10
175.3421385963
 20
114.7383312517
 10
175.3322762758
 20
114.7709129981
 10
175.3197949856
 20
114.8031714822
 10
175.3048619368
 20
114.8346696638
 10
175.2876774957
 20
114.8649807845
 10
175.268472475
 20
114.8936941389
 10
175.2475050122
 20
114.9204206285
  0
LWPOLYLINE
  5
67A
100
AcDbEntity
  8
RACCORDO
100
AcDbPolyline
 62
250
  6
CONTINUOUS
 90
10
 70
0
 10
175.354881081
 20
118.9731736389
 10
175.3535163538
 20
119.0040890403
 10
175.3492501537
 20
119.0359946737
 10
175.3421385963
 20
119.0684582707
 10
175.3322762758
 20
119.101040017
 10
175.3197949856
 20
119.1332985011
 10
175.3048619368
 20
119.1647966827
 10
175.2876774957
 20
119.1951078035
 10
175.268472475
 20
119.2238211579
 10
175.2475050122
 20
119.2505476474
  0
LWPOLYLINE
  5
67B
100
AcDbEntity
  8
0
100
AcDbPolyline
 62
250
  6
CONTINUOUS
 90
13
 70
0
 10
175.354881081
 20
127.936742397
 10
175.3518930858
 20
128.0569431858
 10
175.3425197218
 20
128.1771815486
 10
175.327225289
 20
128.2967660775
 10
175.3067171311
 20
128.4139028931
 10
175.281351715
 20
128.5291840481
 10
175.2505906198
 20
128.6456486932
 10
175.214306209
 20
128.7632653373
 10
175.172646085
 20
128.8811455194
 10
175.1247428737
 20
129.0010280517
 10
175.070066115
 20
129.1230396567
 10
175.00875694
 20
129.2457427823
 10
174.9407306053
 20
129.3683759716
  0
LWPOLYLINE
  5
67C
100
AcDbEntity
  8
0
100
AcDbPolyline
 62
7
  6
CONTINUOUS
 90
14
 70
0
 10
175.6355410784
 20
124.1411377398
 10
175.635228145
 20
124.1586171808
 10
175.6304439935
 20
124.2106711723
 10
175.6198720155
 20
124.2623665986
 10
175.6035416853
 20
124.3131965561
 10
175.5815451019
 20
124.3627062466
 10
175.5540248562
 20
124.4104972199
 10
175.5210682104
 20
124.4563316813
 10
175.482783681
 20
124.4999746956
 10
175.4392255659
 20
124.5412673425
 10
175.3902129937
 20
124.5802371401
 10
175.3355699273
 20
124.6168005294
 10
175.275252228
 20
124.6507377074
 10
175.2646570409
 20
124.6561155563
  0
LINE
  5
67D
100
AcDbEntity
  8
0
100
AcDbLine
 62
7
  6
CONTINUOUS
 10
174.9318048296
 20
124.8184233224
 11
174.9317972196
 21
124.8189066821
  0
LWPOLYLINE
  5
67E
100
AcDbEntity
  8
RACCORDO
100
AcDbPolyline
 62
7
  6
CONTINUOUS
 90
14
 70
0
 10
175.6355389486
 20
114.9887005188
 10
175.6354343138
 20
114.9989487757
 10
175.6312640597
 20
115.0525337878
 10
175.621015651
 20
115.1056780836
 10
175.6047489484
 20
115.1578474338
 10
175.5825895154
 20
115.2085499956
 10
175.5547225419
 20
115.2573773594
 10
175.5212554207
 20
115.3041181083
 10
175.4823091547
 20
115.3485360269
 10
175.4379910769
 20
115.3904561794
 10
175.3881324942
 20
115.4299046704
 10
175.3325577625
 20
115.466815094
 10
175.2712034297
 20
115.500995217
 10
174.9332713638
 20
115.6699917443
  0
LWPOLYLINE
  5
67F
100
AcDbEntity
  8
RACCORDO
100
AcDbPolyline
 62
7
  6
CONTINUOUS
 90
14
 70
0
 10
175.6355389486
 20
119.3188275377
 10
175.6354343138
 20
119.3290757947
 10
175.6312640597
 20
119.3826608068
 10
175.621015651
 20
119.4358051026
 10
175.6047489484
 20
119.4879744528
 10
175.5825895154
 20
119.5386770145
 10
175.5547225419
 20
119.5875043783
 10
175.5212554207
 20
119.6342451272
 10
175.4823091547
 20
119.6786630458
 10
175.4379910769
 20
119.7205831983
 10
175.3881324942
 20
119.7600316893
 10
175.3325577625
 20
119.7969421129
 10
175.2712034297
 20
119.831122236
 10
174.9332713638
 20
120.0001187632
  0
LWPOLYLINE
  5
680
100
AcDbEntity
  8
0
100
AcDbPolyline
 62
7
  6
CONTINUOUS
 90
13
 70
0
 10
175.6355412099
 20
128.2838835435
 10
175.6352101894
 20
128.3209718076
 10
175.629870034
 20
128.4381527945
 10
175.6181948358
 20
128.5552806738
 10
175.6003413258
 20
128.6722971994
 10
175.5764708637
 20
128.7888946653
 10
175.5468504417
 20
128.9044399318
 10
175.5116211239
 20
129.0188104392
 10
175.4708917339
 20
129.1318801311
 10
175.4249618392
 20
129.2429523706
 10
175.3740553093
 20
129.3516620215
 10
175.3182472918
 20
129.4579609325
 10
175.2935740783
 20
129.5014739425
  0
LINE
  5
681
100
AcDbEntity
  8
RACCORDO
100
AcDbLine
 62
7
  6
CONTINUOUS
 10
175.6355412806
 20
117.5740898351
 11
175.6355411314
 21
117.5743637551
  0
LINE
  5
682
100
AcDbEntity
  8
RACCORDO
100
AcDbLine
 62
7
  6
CONTINUOUS
 10
175.6355412806
 20
121.904216854
 11
175.6355411314
 21
121.904490774
  0
LINE
  5
683
100
AcDbEntity
  8
0
100
AcDbLine
 62
7
  6
CONTINUOUS
 10
174.1031715796
 20
126.9955360844
 11
174.1031715796
 21
124.5610244688
  0
LINE
  5
684
100
AcDbEntity
  8
0
100
AcDbLine
 62
7
  6
CONTINUOUS
 10
174.1031715796
 20
120.7727820346
 11
174.1031715796
 21
119.7334740868
  0
LINE
  5
685
100
AcDbEntity
  8
0
100
AcDbLine
 62
7
  6
CONTINUOUS
 10
174.1031715796
 20
116.4426550157
 11
174.1031715796
 21
115.4033470679
  0
LINE
  5
686
100
AcDbEntity
  8
0
100
AcDbLine
 62
250
  6
CONTINUOUS
 10
174.7974936016
 20
115.6654845705
 11
174.7974936016
 21
116.8097036457
  0
LINE
  5
687
100
AcDbEntity
  8
0
100
AcDbLine
 62
250
  6
CONTINUOUS
 10
174.7974936016
 20
119.9956115894
 11
174.7974936016
 21
121.1398306646
  0
LINE
  5
688
100
AcDbEntity
  8
0
100
AcDbLine
 62
250
  6
CONTINUOUS
 10
174.7974936016
 20
124.8181194712
 11
174.7974936016
 21
127.3701387442
  0
LINE
  5
689
100
AcDbEntity
  8
0
100
AcDbLine
 62
7
  6
CONTINUOUS
 10
174.9318167508
 20
115.6670825184
 11
174.9318167508
 21
116.8807126679
  0
LINE
  5
68A
100
AcDbEntity
  8
0
100
AcDbLine
 62
7
  6
CONTINUOUS
 10
174.9318167508
 20
119.9972095373
 11
174.9318167508
 21
121.2108396868
  0
LINE
  5
68B
100
AcDbEntity
  8
0
100
AcDbLine
 62
7
  6
CONTINUOUS
 10
174.9318167508
 20
124.8188991723
 11
174.9318167508
 21
127.4426091648
  0
LINE
  5
68C
100
AcDbEntity
  8
0
100
AcDbLine
 62
250
  6
CONTINUOUS
 10
175.354881081
 20
123.7967559833
 11
175.354881081
 21
121.5555489262
  0
LINE
  5
68D
100
AcDbEntity
  8
RACCORDO
100
AcDbLine
 62
250
  6
CONTINUOUS
 10
175.354881081
 20
118.9731736389
 11
175.354881081
 21
117.2254219073
  0
LINE
  5
68E
100
AcDbEntity
  8
RACCORDO
100
AcDbLine
 62
250
  6
CONTINUOUS
 10
175.354881081
 20
114.64304662
 11
175.354881081
 21
97.7569650014
  0
LINE
  5
68F
100
AcDbEntity
  8
0
100
AcDbLine
 62
250
  6
CONTINUOUS
 10
175.354881081
 20
127.7911109882
 11
175.354881081
 21
127.936742397
  0
LINE
  5
690
100
AcDbEntity
  8
0
100
AcDbLine
 62
7
  6
CONTINUOUS
 10
175.6355412806
 20
124.1414244554
 11
175.6355412806
 21
121.9042172795
  0
LINE
  5
691
100
AcDbEntity
  8
0
100
AcDbLine
 62
7
  6
CONTINUOUS
 10
175.6355412806
 20
119.3191655119
 11
175.6355412806
 21
117.5740902606
  0
LINE
  5
692
100
AcDbEntity
  8
0
100
AcDbLine
 62
7
  6
CONTINUOUS
 10
175.6355412806
 20
114.989038493
 11
175.6355412806
 21
98.1042941807
  0
LINE
  5
693
100
AcDbEntity
  8
0
100
AcDbLine
 62
7
  6
CONTINUOUS
 10
175.6355412806
 20
128.141101097
 11
175.6355412806
 21
128.2840715861
  0
LINE
  5
694
100
AcDbEntity
  8
RACCORDO
100
AcDbLine
 62
7
  6
CONTINUOUS
 10
175.6355412806
 20
119.3191660032
 11
175.6355411147
 21
119.3188788074
  0
LINE
  5
695
100
AcDbEntity
  8
RACCORDO
100
AcDbLine
 62
7
  6
CONTINUOUS
 10
175.6355412806
 20
114.9890389843
 11
175.6355411147
 21
114.9887517885
  0
LWPOLYLINE
  5
696
100
AcDbEntity
  8
0
100
AcDbPolyline
 62
250
  6
CONTINUOUS
 90
11
 70
0
 10
175.354881081
 20
97.7569650014
 10
175.3522023388
 20
97.6462826244
 10
175.3435306155
 20
97.5390188016
 10
175.3289014052
 20
97.4356245624
 10
175.3083962491
 20
97.3366225371
 10
175.2820908417
 20
97.2423328946
 10
175.2500017862
 20
97.1529161085
 10
175.2122211434
 20
97.0687995061
 10
175.1688616591
 20
96.9903796471
 10
175.1199146307
 20
96.9178387079
 10
175.065447651
 20
96.8515385156
  0
LINE
  5
697
100
AcDbEntity
  8
0
100
AcDbLine
 62
7
  6
CONTINUOUS
 10
174.9318167506
 20
119.9971696805
 11
174.931798913
 21
119.9966249355
  0
LINE
  5
698
100
AcDbEntity
  8
0
100
AcDbLine
 62
7
  6
CONTINUOUS
 10
174.9318167506
 20
115.6670426615
 11
174.931798913
 21
115.6664979166
  0
LWPOLYLINE
  5
699
100
AcDbEntity
  8
RACCORDO
100
AcDbPolyline
 62
250
  6
CONTINUOUS
 90
8
 70
0
 10
175.354881081
 20
121.5555489262
 10
175.353489388
 20
121.5261249238
 10
175.349201521
 20
121.498510352
 10
175.342073723
 20
121.4730776054
 10
175.3321991426
 20
121.4501688364
 10
175.3197112872
 20
121.4300935395
 10
175.304782105
 20
121.4131245322
 10
175.2876134801
 20
121.3994912938
  0
LWPOLYLINE
  5
69A
100
AcDbEntity
  8
RACCORDO
100
AcDbPolyline
 62
250
  6
CONTINUOUS
 90
8
 70
0
 10
175.354881081
 20
117.2254219073
 10
175.353489388
 20
117.1959979049
 10
175.349201521
 20
117.1683833331
 10
175.342073723
 20
117.1429505865
 10
175.3321991426
 20
117.1200418175
 10
175.3197112872
 20
117.0999665206
 10
175.304782105
 20
117.0829975133
 10
175.2876134801
 20
117.0693642749
  0
LWPOLYLINE
  5
69B
100
AcDbEntity
  8
RACCORDO
100
AcDbPolyline
 62
250
  6
CONTINUOUS
 90
15
 70
0
 10
175.6355411147
 20
119.3188788074
 10
175.6343156554
 20
119.2944891068
 10
175.628507191
 20
119.2601389988
 10
175.6184982631
 20
119.2275253655
 10
175.6047074191
 20
119.1963451527
 10
175.5877138893
 20
119.1668733267
 10
175.5681558778
 20
119.1393183998
 10
175.5464347854
 20
119.1135347258
 10
175.5227198613
 20
119.089240424
 10
175.4972779737
 20
119.0663711861
 10
175.4705059839
 20
119.0449907941
 10
175.4426238504
 20
119.0250156478
 10
175.4138746281
 20
119.0064009539
 10
175.3845464567
 20
118.98913507
 10
175.354881081
 20
118.9731774376
  0
LWPOLYLINE
  5
69C
100
AcDbEntity
  8
RACCORDO
100
AcDbPolyline
 62
250
  6
CONTINUOUS
 90
15
 70
0
 10
175.6355411147
 20
114.9887517885
 10
175.6343156554
 20
114.9643620878
 10
175.628507191
 20
114.9300119799
 10
175.6184982631
 20
114.8973983465
 10
175.6047074191
 20
114.8662181337
 10
175.5877138893
 20
114.8367463078
 10
175.5681558778
 20
114.8091913808
 10
175.5464347854
 20
114.7834077068
 10
175.5227198613
 20
114.7591134051
 10
175.4972779736
 20
114.7362441672
 10
175.4705059839
 20
114.7148637751
 10
175.4426238504
 20
114.6948886289
 10
175.4138746281
 20
114.6762739349
 10
175.3845464567
 20
114.6590080511
 10
175.354881081
 20
114.6430504187
  0
LWPOLYLINE
  5
69D
100
AcDbEntity
  8
0
100
AcDbPolyline
 62
250
  6
CONTINUOUS
 90
10
 70
0
 10
175.6355412778
 20
98.1042564362
 10
175.6325343595
 20
98.0655488564
 10
175.6221453696
 20
98.0227276875
 10
175.6044135287
 20
97.9805135624
 10
175.5794707969
 20
97.9392206621
 10
175.5475028025
 20
97.8991563133
 10
175.508747466
 20
97.8606187044
 10
175.4634932226
 20
97.823894657
 10
175.4120768727
 20
97.7892574925
 10
175.354881081
 20
97.7569650026
  0
LWPOLYLINE
  5
69E
100
AcDbEntity
  8
0
100
AcDbPolyline
 62
250
  6
CONTINUOUS
 90
7
 70
0
 10
153.4628124799
 20
130.4903292349
 10
153.4852917
 20
130.4965156984
 10
153.5197024665
 20
130.5012419491
 10
153.5552251754
 20
130.5006678924
 10
153.5914716743
 20
130.4947997794
 10
153.6280459139
 20
130.4837017074
 10
153.6645482539
 20
130.4674949205
  0
LINE
  5
69F
100
AcDbEntity
  8
0
100
AcDbLine
 62
7
  6
CONTINUOUS
 10
174.6584360265
 20
124.8464486097
 11
174.7974936016
 21
124.8181194712
  0
LINE
  5
6A0
100
AcDbEntity
  8
0
100
AcDbLine
 62
250
  6
CONTINUOUS
 10
175.2373623601
 20
124.6656445571
 11
174.8573442228
 21
124.7469945115
  0
LWPOLYLINE
  5
6A1
100
AcDbEntity
  8
0
100
AcDbPolyline
 62
7
  6
CONTINUOUS
 90
6
 70
0
 10
167.7480746792
 20
122.0085213978
 10
167.7414091761
 20
122.0112531694
 10
167.7278205728
 20
122.014331624
 10
167.7133393401
 20
122.0141075371
 10
167.6977259102
 20
122.0107527653
 10
167.6809802831
 20
122.0042673087
  0
LWPOLYLINE
  5
6A2
100
AcDbEntity
  8
0
100
AcDbPolyline
 62
7
  6
CONTINUOUS
 90
11
 70
0
 10
148.4240586224
 20
130.2451784073
 10
148.3592290891
 20
130.2743848002
 10
148.2916131759
 20
130.2983106489
 10
148.2232036892
 20
130.3160287774
 10
148.1544389587
 20
130.3274091929
 10
148.0859266315
 20
130.3323760466
 10
148.0181840687
 20
130.3309825908
 10
147.9516883691
 20
130.3233356365
 10
147.8871093246
 20
130.3096367531
 10
147.825028039
 20
130.2902044711
 10
147.7665786947
 20
130.2657523001
  0
LWPOLYLINE
  5
6A3
100
AcDbEntity
  8
0
100
AcDbPolyline
 62
7
  6
CONTINUOUS
 90
10
 70
0
 10
154.0291650034
 20
130.4574657074
 10
153.9814701491
 20
130.479148044
 10
153.9198214533
 20
130.5010944396
 10
153.8556429508
 20
130.5173379678
 10
153.7895552756
 20
130.5275939859
 10
153.7220604284
 20
130.531689575
 10
153.6537055747
 20
130.5295082729
 10
153.5851154953
 20
130.5210442953
 10
153.5167792366
 20
130.5063803411
 10
153.4628124799
 20
130.4903292349
  0
LWPOLYLINE
  5
6A4
100
AcDbEntity
  8
RACCORDO
100
AcDbPolyline
 62
250
  6
CONTINUOUS
 90
3
 70
0
 10
175.2646077886
 20
119.8344505183
 10
175.2575151157
 20
119.8376887521
 10
175.2369740309
 20
119.8440373766
  0
LINE
  5
6A5
100
AcDbEntity
  8
0
100
AcDbLine
 62
250
  6
CONTINUOUS
 10
168.2340768429
 20
121.2495442306
 11
167.8330796991
 21
121.4500428025
  0
LINE
  5
6A6
100
AcDbEntity
  8
0
100
AcDbLine
 62
7
  6
CONTINUOUS
 10
174.1208589755
 20
119.7246303889
 11
174.1031715796
 21
119.7334740868
  0
LINE
  5
6A7
100
AcDbEntity
  8
0
100
AcDbLine
 62
250
  6
CONTINUOUS
 10
153.6645482544
 20
130.4674949207
 11
155.5645829399
 21
129.5174775779
  0
LINE
  5
6A8
100
AcDbEntity
  8
0
100
AcDbLine
 62
7
  6
CONTINUOUS
 10
174.6562186861
 20
120.023884334
 11
174.8550466494
 21
119.9244703523
  0
LINE
  5
6A9
100
AcDbEntity
  8
0
100
AcDbLine
 62
250
  6
CONTINUOUS
 10
174.931798913
 20
119.9966249355
 11
175.2369740297
 21
119.8440373772
  0
LINE
  5
6AA
100
AcDbEntity
  8
0
100
AcDbLine
 62
7
  6
CONTINUOUS
 10
154.028737965
 20
130.4576892333
 11
155.7437087788
 21
129.6002038264
  0
LINE
  5
6AB
100
AcDbEntity
  8
0
100
AcDbLine
 62
7
  6
CONTINUOUS
 10
168.2387560483
 20
123.7397191464
 11
169.0711522117
 21
123.3235210647
  0
LWPOLYLINE
  5
6AC
100
AcDbEntity
  8
RACCORDO
100
AcDbPolyline
 62
250
  6
CONTINUOUS
 90
3
 70
0
 10
175.2369740297
 20
119.8440373772
 10
175.2642686712
 20
119.8297403961
 10
175.291236965
 20
119.8142014202
  0
LWPOLYLINE
  5
6AD
100
AcDbEntity
  8
0
100
AcDbPolyline
 62
7
  6
CONTINUOUS
 90
19
 70
0
 10
174.8550466494
 20
119.9244703523
 10
174.8731286171
 20
119.9145804087
 10
174.8892436305
 20
119.9041359765
 10
174.9033916897
 20
119.8931370556
 10
174.9156483125
 20
119.8814939186
 10
174.925937981
 20
119.8692962929
 10
174.9340341413
 20
119.8568133611
 10
174.9398880514
 20
119.8440387883
 10
174.9435484532
 20
119.8309789093
 10
174.9449350188
 20
119.8179219111
 10
174.9439965752
 20
119.80486734
 10
174.9407842955
 20
119.7918156497
 10
174.9353713704
 20
119.7790563881
 10
174.9277090581
 20
119.766597085
 10
174.9178461005
 20
119.7544302106
 10
174.9060019145
 20
119.7428227236
 10
174.8922496389
 20
119.7318636102
 10
174.876516135
 20
119.7214638843
 10
174.8588014025
 20
119.7116235457
  0
LWPOLYLINE
  5
6AE
100
AcDbEntity
  8
0
100
AcDbPolyline
 62
7
  6
CONTINUOUS
 90
5
 70
0
 10
167.5961917121
 20
121.2087872576
 10
167.5388154347
 20
121.2420271183
 10
167.485032399
 20
121.2826507332
 10
167.4354280498
 20
121.3303051583
 10
167.4290670996
 20
121.3379757391
  0
LINE
  5
6AF
100
AcDbEntity
  8
0
100
AcDbLine
 62
7
  6
CONTINUOUS
 10
170.8276054562
 20
118.8907292082
 11
170.721539439
 21
118.9556811135
  0
LWPOLYLINE
  5
6B0
100
AcDbEntity
  8
RACCORDO
100
AcDbPolyline
 62
250
  6
CONTINUOUS
 90
3
 70
0
 10
175.291236965
 20
115.4840744013
 10
175.3176376612
 20
115.4672621176
 10
175.3431502236
 20
115.4491935172
  0
LWPOLYLINE
  5
6B1
100
AcDbEntity
  8
RACCORDO
100
AcDbPolyline
 62
250
  6
CONTINUOUS
 90
24
 70
0
 10
175.3431502236
 20
115.4491935172
 10
175.3675485428
 20
115.4298165035
 10
175.3906625085
 20
115.4089964586
 10
175.4121606208
 20
115.3867167915
 10
175.431676828
 20
115.3629920066
 10
175.4488980842
 20
115.3377330554
 10
175.4635033352
 20
115.3107022054
 10
175.4748377027
 20
115.2822222285
 10
175.4823050864
 20
115.2531017799
 10
175.48573543
 20
115.2233037695
 10
175.4848980257
 20
115.1931399461
 10
175.4799629932
 20
115.163981758
 10
175.4714686536
 20
115.1363021095
 10
175.4597671686
 20
115.109844712
 10
175.4453382898
 20
115.0848381051
 10
175.4287216103
 20
115.0614454659
 10
175.4102604257
 20
115.0395462426
 10
175.3901074965
 20
115.0189159792
 10
175.3684981006
 20
114.9995090442
 10
175.3457618423
 20
114.981369132
 10
175.3220728181
 20
114.9644148176
 10
175.297635665
 20
114.9486098026
 10
175.2727107225
 20
114.9339550231
 10
175.2475037568
 20
114.9204221141
  0
LINE
  5
6B2
100
AcDbEntity
  8
0
100
AcDbLine
 62
250
  6
CONTINUOUS
 10
168.6210107582
 20
120.7873599488
 11
168.2340768429
 21
121.2495442306
  0
LWPOLYLINE
  5
6B3
100
AcDbEntity
  8
0
100
AcDbPolyline
 62
250
  6
CONTINUOUS
 90
10
 70
0
 10
168.6210107409
 20
120.7873599402
 10
168.6417410836
 20
120.7605139365
 10
168.660689168
 20
120.7316711323
 10
168.6775986944
 20
120.7012215474
 10
168.6922408674
 20
120.6695768992
 10
168.7044176768
 20
120.6371651273
 10
168.7139645756
 20
120.6044246064
 10
168.7207524582
 20
120.5717980958
 10
168.7246894073
 20
120.5397267521
 10
168.725722123
 20
120.5086442556
  0
LWPOLYLINE
  5
6B4
100
AcDbEntity
  8
0
100
AcDbPolyline
 62
250
  6
CONTINUOUS
 90
20
 70
0
 10
167.504424198
 20
121.1083704217
 10
167.5279067734
 20
121.0616613204
 10
167.553866768
 20
121.0164339251
 10
167.5829269718
 20
120.9720961714
 10
167.6154730527
 20
120.9287623059
 10
167.651701462
 20
120.886912732
 10
167.6918266406
 20
120.8470267774
 10
167.7363284107
 20
120.8093944557
 10
167.7853429036
 20
120.7747111076
 10
167.8391211398
 20
120.7436176744
 10
167.8984124291
 20
120.7166271143
 10
167.9640746588
 20
120.6944891088
 10
168.0356650565
 20
120.6785054842
 10
168.1118283584
 20
120.6698207332
 10
168.1927313261
 20
120.6690453296
 10
168.2777301654
 20
120.6767673316
 10
168.3638037442
 20
120.6929052376
 10
168.449548667
 20
120.7168949214
 10
168.5354124917
 20
120.748499449
 10
168.6210107489
 20
120.7873599599
  0
LWPOLYLINE
  5
6B5
100
AcDbEntity
  8
0
100
AcDbPolyline
 62
250
  6
CONTINUOUS
 90
3
 70
0
 10
175.2373623612
 20
124.6656445565
 10
175.2578348137
 20
124.6592450075
 10
175.2646570414
 20
124.656115556
  0
LWPOLYLINE
  5
6B6
100
AcDbEntity
  8
0
100
AcDbPolyline
 62
250
  6
CONTINUOUS
 90
7
 70
0
 10
159.6304222755
 20
130.8659699614
 10
159.5999522362
 20
130.8755602844
 10
159.5675501151
 20
130.8801939638
 10
159.5335630783
 20
130.8798213529
 10
159.4983552734
 20
130.8744464441
 10
159.4623039278
 20
130.8641268257
 10
159.4257953064
 20
130.8489730652
  0
LWPOLYLINE
  5
6B7
100
AcDbEntity
  8
0
100
AcDbPolyline
 62
250
  6
CONTINUOUS
 90
3
 70
0
 10
153.9723013172
 20
130.480503655
 10
154.0163658772
 20
130.4635999598
 10
154.028738084
 20
130.4576891738
  0
LWPOLYLINE
  5
6B8
100
AcDbEntity
  8
0
100
AcDbPolyline
 62
7
  6
CONTINUOUS
 90
17
 70
0
 10
159.6437233316
 20
130.8599080357
 10
159.5761794297
 20
130.890735476
 10
159.5089727518
 20
130.9161413997
 10
159.4397899951
 20
130.9375750646
 10
159.3687981148
 20
130.955179587
 10
159.296512721
 20
130.9689911914
 10
159.2230879815
 20
130.9791060161
 10
159.1486707795
 20
130.9855577468
 10
159.0740315713
 20
130.9883176912
 10
158.9993756133
 20
130.9874113341
 10
158.9248975223
 20
130.9828090416
 10
158.8513601322
 20
130.9745322003
 10
158.7789135326
 20
130.96253514
 10
158.7076979186
 20
130.9467277858
 10
158.6382282719
 20
130.9270620112
 10
158.5706683263
 20
130.9034005944
 10
158.5086011748
 20
130.8771218551
  0
LINE
  5
6B9
100
AcDbEntity
  8
0
100
AcDbLine
 62
7
  6
CONTINUOUS
 10
154.4102477235
 20
130.8691830689
 11
155.258775861
 21
130.4449190002
  0
LINE
  5
6BA
100
AcDbEntity
  8
0
100
AcDbLine
 62
7
  6
CONTINUOUS
 10
155.4709078953
 20
130.338852983
 11
155.7537506078
 21
130.1974316268
  0
LINE
  5
6BB
100
AcDbEntity
  8
0
100
AcDbLine
 62
7
  6
CONTINUOUS
 10
155.9658826422
 20
130.0913656096
 11
156.2487253546
 21
129.9499442533
  0
LINE
  5
6BC
100
AcDbEntity
  8
0
100
AcDbLine
 62
7
  6
CONTINUOUS
 10
169.0711522117
 20
123.8777773232
 11
168.6836005252
 21
124.0715531664
  0
LINE
  5
6BD
100
AcDbEntity
  8
0
100
AcDbLine
 62
7
  6
CONTINUOUS
 10
169.1189428556
 20
124.3064303411
 11
169.5237005516
 21
124.1040514931
  0
LINE
  5
6BE
100
AcDbEntity
  8
0
100
AcDbLine
 62
7
  6
CONTINUOUS
 10
169.8781821126
 20
124.7160573385
 11
170.8672034359
 21
124.2215466768
  0
LINE
  5
6BF
100
AcDbEntity
  8
0
100
AcDbLine
 62
7
  6
CONTINUOUS
 10
170.8672034359
 20
124.7758029353
 11
170.411365399
 21
125.0037219537
  0
LINE
  5
6C0
100
AcDbEntity
  8
0
100
AcDbLine
 62
250
  6
CONTINUOUS
 10
159.4257953064
 20
130.8489730652
 11
160.2439315845
 21
130.4399049262
  0
LINE
  5
6C1
100
AcDbEntity
  8
0
100
AcDbLine
 62
7
  6
CONTINUOUS
 10
170.8467077295
 20
125.2385991284
 11
171.3197517759
 21
125.0020771052
  0
LINE
  5
6C2
100
AcDbEntity
  8
0
100
AcDbLine
 62
7
  6
CONTINUOUS
 10
159.6432317473
 20
130.8601547297
 11
160.2463599715
 21
130.5585906176
  0
LINE
  5
6C3
100
AcDbEntity
  8
0
100
AcDbLine
 62
7
  6
CONTINUOUS
 10
169.3539949242
 20
123.7045722424
 11
169.0711522117
 21
123.8777773232
  0
LINE
  5
6C4
100
AcDbEntity
  8
0
100
AcDbLine
 62
7
  6
CONTINUOUS
 10
171.1500461484
 20
124.6025978545
 11
170.8672034359
 21
124.7758029353
  0
LWPOLYLINE
  5
6C5
100
AcDbEntity
  8
RACCORDO
100
AcDbPolyline
 62
250
  6
CONTINUOUS
 90
3
 70
0
 10
175.291236965
 20
119.8142014202
 10
175.3176376612
 20
119.7973891366
 10
175.3431502236
 20
119.7793205361
  0
LWPOLYLINE
  5
6C6
100
AcDbEntity
  8
RACCORDO
100
AcDbPolyline
 62
250
  6
CONTINUOUS
 90
24
 70
0
 10
175.3431502236
 20
119.7793205361
 10
175.3675485428
 20
119.7599435224
 10
175.3906625084
 20
119.7391234775
 10
175.4121606208
 20
119.7168438104
 10
175.431676828
 20
119.6931190255
 10
175.4488980842
 20
119.6678600744
 10
175.4635033352
 20
119.6408292243
 10
175.4748377027
 20
119.6123492475
 10
175.4823050864
 20
119.5832287988
 10
175.48573543
 20
119.5534307885
 10
175.4848980257
 20
119.523266965
 10
175.4799629932
 20
119.4941087769
 10
175.4714686536
 20
119.4664291285
 10
175.4597671686
 20
119.4399717309
 10
175.4453382898
 20
119.414965124
 10
175.4287216103
 20
119.3915724849
 10
175.4102604257
 20
119.3696732615
 10
175.3901074965
 20
119.3490429981
 10
175.3684981006
 20
119.3296360631
 10
175.3457618423
 20
119.3114961509
 10
175.3220728181
 20
119.2945418365
 10
175.297635665
 20
119.2787368215
 10
175.2727107225
 20
119.264082042
 10
175.2475037568
 20
119.250549133
  0
LINE
  5
6C7
100
AcDbEntity
  8
RACCORDO
100
AcDbLine
 62
250
  6
CONTINUOUS
 10
175.2475050101
 20
114.9204206275
 11
174.8588014025
 21
115.3814965268
  0
LWPOLYLINE
  5
6C8
100
AcDbEntity
  8
0
100
AcDbPolyline
 62
250
  6
CONTINUOUS
 90
7
 70
0
 10
161.6900732468
 20
131.7581177957
 10
161.6596032075
 20
131.7677081187
 10
161.6272010863
 20
131.7723417981
 10
161.5932140496
 20
131.7719691873
 10
161.5580062447
 20
131.7665942784
 10
161.5219548991
 20
131.75627466
 10
161.4854462777
 20
131.7411208995
  0
LWPOLYLINE
  5
6C9
100
AcDbEntity
  8
0
100
AcDbPolyline
 62
7
  6
CONTINUOUS
 90
17
 70
0
 10
161.7033734417
 20
131.7520563037
 10
161.6357554477
 20
131.7829146699
 10
161.5685181509
 20
131.8083257756
 10
161.4993078811
 20
131.8297598303
 10
161.4282907429
 20
131.8473620269
 10
161.3559839402
 20
131.8611684088
 10
161.2825445576
 20
131.8712758585
 10
161.2081182561
 20
131.877717936
 10
161.1334759505
 20
131.8804682487
 10
161.0588230184
 20
131.8795514067
 10
160.9843534859
 20
131.8749397632
 10
160.9108308212
 20
131.866655171
 10
160.8384052612
 20
131.8546522294
 10
160.7672147783
 20
131.8388419078
 10
160.6977730849
 20
131.8191759317
 10
160.6302441156
 20
131.7955191295
 10
160.5682513472
 20
131.7692693176
  0
LINE
  5
6CA
100
AcDbEntity
  8
0
100
AcDbLine
 62
7
  6
CONTINUOUS
 10
171.6059469864
 20
125.6482261258
 11
172.6632546601
 21
125.1195722889
  0
LINE
  5
6CB
100
AcDbEntity
  8
0
100
AcDbLine
 62
7
  6
CONTINUOUS
 10
157.9457816295
 20
132.6369500219
 11
158.7943097669
 21
132.2126859531
  0
LINE
  5
6CC
100
AcDbEntity
  8
0
100
AcDbLine
 62
7
  6
CONTINUOUS
 10
159.0064418013
 20
132.106619936
 11
159.2892845137
 21
131.9651985797
  0
LINE
  5
6CD
100
AcDbEntity
  8
0
100
AcDbLine
 62
7
  6
CONTINUOUS
 10
159.5014165481
 20
131.8591325625
 11
159.7842592606
 21
131.7177112063
  0
LINE
  5
6CE
100
AcDbEntity
  8
0
100
AcDbLine
 62
7
  6
CONTINUOUS
 10
159.9963912949
 20
131.6116451891
 11
160.2792340074
 21
131.4702238329
  0
LINE
  5
6CF
100
AcDbEntity
  8
0
100
AcDbLine
 62
7
  6
CONTINUOUS
 10
160.4913660418
 20
131.3641578157
 11
160.7742087542
 21
131.2227364595
  0
LINE
  5
6D0
100
AcDbEntity
  8
0
100
AcDbLine
 62
7
  6
CONTINUOUS
 10
160.9863407886
 20
131.1166704423
 11
161.2112565294
 21
131.0042125719
  0
LINE
  5
6D1
100
AcDbEntity
  8
0
100
AcDbLine
 62
7
  6
CONTINUOUS
 10
174.1208589755
 20
124.5521807708
 11
174.1031715796
 21
124.5610244688
  0
LINE
  5
6D2
100
AcDbEntity
  8
0
100
AcDbLine
 62
7
  6
CONTINUOUS
 10
172.6632546601
 20
125.6738285474
 11
172.1391302729
 21
125.935890741
  0
LINE
  5
6D3
100
AcDbEntity
  8
0
100
AcDbLine
 62
7
  6
CONTINUOUS
 10
174.6584360265
 20
124.8464486097
 11
174.8573442228
 21
124.7469945115
  0
LINE
  5
6D4
100
AcDbEntity
  8
0
100
AcDbLine
 62
250
  6
CONTINUOUS
 10
175.2373623601
 20
124.6656445571
 11
174.9318048296
 21
124.8184233224
  0
LINE
  5
6D5
100
AcDbEntity
  8
0
100
AcDbLine
 62
7
  6
CONTINUOUS
 10
175.2646801062
 20
124.6561040269
 11
174.9332713638
 21
124.8218083981
  0
LINE
  5
6D6
100
AcDbEntity
  8
0
100
AcDbLine
 62
7
  6
CONTINUOUS
 10
173.1158030001
 20
125.9001027173
 11
172.5744726033
 21
126.1707679157
  0
LINE
  5
6D7
100
AcDbEntity
  8
0
100
AcDbLine
 62
250
  6
CONTINUOUS
 10
161.4854462777
 20
131.7411208995
 11
162.1199413797
 21
131.4238733485
  0
LINE
  5
6D8
100
AcDbEntity
  8
0
100
AcDbLine
 62
7
  6
CONTINUOUS
 10
161.7028827186
 20
131.752302564
 11
162.2445990569
 21
131.4814443949
  0
LINE
  5
6D9
100
AcDbEntity
  8
0
100
AcDbLine
 62
250
  6
CONTINUOUS
 10
175.271588828
 20
124.6474993191
 11
175.2373623618
 21
124.6656445568
  0
LWPOLYLINE
  5
6DA
100
AcDbEntity
  8
0
100
AcDbPolyline
 62
7
  6
CONTINUOUS
 90
19
 70
0
 10
174.8573442228
 20
124.7469945115
 10
174.8754117147
 20
124.7371216629
 10
174.8915138448
 20
124.7267113679
 10
174.9056506131
 20
124.7157636268
 10
174.9178974812
 20
124.7041893472
 10
174.9281789874
 20
124.6920776215
 10
174.9362687479
 20
124.6796957259
 10
174.9421180626
 20
124.6670376611
 10
174.9457756314
 20
124.6541094265
 10
174.9471611703
 20
124.6411962973
 10
174.9462235469
 20
124.6282980981
 10
174.9430138935
 20
124.6154150043
 10
174.9376053231
 20
124.6028328182
 10
174.9299491279
 20
124.5905592438
 10
174.9200940157
 20
124.5785865772
 10
174.9082592224
 20
124.5671775088
 10
174.8945178269
 20
124.5564196023
 10
174.8787967504
 20
124.546225294
 10
174.8610959929
 20
124.5365945841
  0
LINE
  5
6DB
100
AcDbEntity
  8
0
100
AcDbLine
 62
7
  6
CONTINUOUS
 10
172.9460973726
 20
125.5006234666
 11
172.6632546601
 21
125.6738285474
  0
LINE
  5
6DC
100
AcDbEntity
  8
RACCORDO
100
AcDbLine
 62
250
  6
CONTINUOUS
 10
175.2475050101
 20
119.2505476464
 11
174.8588014025
 21
119.7116235457
  0
LWPOLYLINE
  5
6DD
100
AcDbEntity
  8
0
100
AcDbPolyline
 62
250
  6
CONTINUOUS
 90
10
 70
0
 10
167.5048244368
 20
133.628572574
 10
167.46406363
 20
133.6435842437
 10
167.4226817813
 20
133.6538563153
 10
167.3799669304
 20
133.6598273321
 10
167.3364873796
 20
133.6615551088
 10
167.2921332568
 20
133.6591772913
 10
167.2448943649
 20
133.6523669157
 10
167.1941291572
 20
133.6404106589
 10
167.1407428797
 20
133.6228869245
 10
167.0849787176
 20
133.5993271968
  0
LWPOLYLINE
  5
6DE
100
AcDbEntity
  8
0
100
AcDbPolyline
 62
250
  6
CONTINUOUS
 90
8
 70
0
 10
167.0849787176
 20
133.5993271968
 10
167.0486459581
 20
133.6157198537
 10
167.0126435363
 20
133.6271575727
 10
166.9773657497
 20
133.6335150883
 10
166.9431989592
 20
133.6347227731
 10
166.9105173583
 20
133.6307674006
 10
166.8796788745
 20
133.6216922899
 10
166.8692910324
 20
133.6172803528
  0
LWPOLYLINE
  5
6DF
100
AcDbEntity
  8
0
100
AcDbPolyline
 62
7
  6
CONTINUOUS
 90
11
 70
0
 10
167.5244336581
 20
133.6193964394
 10
167.4795485767
 20
133.6399487065
 10
167.4173120387
 20
133.6624025694
 10
167.3522833968
 20
133.6790814725
 10
167.285045502
 20
133.6896349095
 10
167.2162741225
 20
133.6938028875
 10
167.1464665702
 20
133.6914495612
 10
167.0761936781
 20
133.6825059621
 10
167.0061029018
 20
133.6670041005
 10
166.9366641312
 20
133.6450635238
 10
166.8692910324
 20
133.6172803528
  0
LINE
  5
6E0
100
AcDbEntity
  8
0
100
AcDbLine
 62
250
  6
CONTINUOUS
 10
174.4004220646
 20
129.9416055233
 11
167.0849787176
 21
133.5993271968
  0
LWPOLYLINE
  5
6E1
100
AcDbEntity
  8
0
100
AcDbPolyline
 62
250
  6
CONTINUOUS
 90
4
 70
0
 10
175.3552471154
 20
124.5919740512
 10
175.3305202019
 20
124.610428043
 10
175.3026071629
 20
124.6290382249
 10
175.271588828
 20
124.6474993191
  0
LINE
  5
6E2
100
AcDbEntity
  8
0
100
AcDbLine
 62
250
  6
CONTINUOUS
 10
175.2480271269
 20
124.0744135917
 11
174.8610959929
 21
124.5365945841
  0
LWPOLYLINE
  5
6E3
100
AcDbEntity
  8
0
100
AcDbPolyline
 62
250
  6
CONTINUOUS
 90
10
 70
0
 10
175.248027129
 20
124.0744135927
 10
175.2689213459
 20
124.0476503134
 10
175.2880542686
 20
124.0189007088
 10
175.3051696329
 20
123.9885547648
 10
175.3200417362
 20
123.9570264047
 10
175.3324696368
 20
123.9247412927
 10
175.3422793495
 20
123.8921309435
 10
175.3493381092
 20
123.8596358355
 10
175.3535566184
 20
123.827699527
 10
175.354881081
 20
123.7967559833
  0
LINE
  5
6E4
100
AcDbEntity
  8
0
100
AcDbLine
 62
250
  6
CONTINUOUS
 10
167.5236453688
 20
133.6197936411
 11
167.5048244368
 21
133.628572574
  0
LINE
  5
6E5
100
AcDbEntity
  8
0
100
AcDbLine
 62
250
  6
CONTINUOUS
 10
174.8349629423
 20
129.964134649
 11
174.8352949452
 21
129.9639688529
  0
LINE
  5
6E6
100
AcDbEntity
  8
0
100
AcDbLine
 62
7
  6
CONTINUOUS
 10
174.8352949452
 20
129.9639688529
 11
167.5236465826
 21
133.6197930341
  0
LWPOLYLINE
  5
6E7
100
AcDbEntity
  8
0
100
AcDbPolyline
 62
250
  6
CONTINUOUS
 90
10
 70
0
 10
174.9003459122
 20
129.438029264
 10
174.8552673324
 20
129.5119929076
 10
174.8066343266
 20
129.5825903114
 10
174.7548169025
 20
129.6492843589
 10
174.7002092954
 20
129.7115676313
 10
174.6432269687
 20
129.7689662672
 10
174.5843034534
 20
129.8210435684
 10
174.523887049
 20
129.8674033225
 10
174.4624374132
 20
129.9076928171
 10
174.4004220646
 20
129.9416055233
  0
LINE
  5
6E8
100
AcDbEntity
  8
0
100
AcDbLine
 62
250
  6
CONTINUOUS
 10
174.9407306053
 20
129.3683759716
 11
174.9003459122
 21
129.438029264
  0
LINE
  5
6E9
100
AcDbEntity
  8
0
100
AcDbLine
 62
7
  6
CONTINUOUS
 10
175.2935738541
 20
129.5014743291
 11
175.253189161
 21
129.5711276214
  0
ARC
  5
6EA
100
AcDbEntity
  8
0
100
AcDbCircle
 62
7
  6
CONTINUOUS
 10
174.3880813497
 20
129.0695416619
 40
1.0
100
AcDbArc
 50
30.1039870598
 51
63.4562112153
  0
ARC
  5
6EB
100
AcDbEntity
  8
0
100
AcDbCircle
 62
7
  6
CONTINUOUS
 10
174.3880813497
 20
97.5662840379
 40
1.0
100
AcDbArc
 50
297.8706235728
 51
305.9327615174
  0
ARC
  5
6EC
100
AcDbEntity
  8
0
100
AcDbCircle
 62
7
  6
CONTINUOUS
 10
149.416021901
 20
115.9425755258
 40
0.3
100
AcDbArc
 50
350.2953813509
 51
360.0
  0
ARC
  5
6ED
100
AcDbEntity
  8
0
100
AcDbCircle
 62
7
  6
CONTINUOUS
 10
149.416021901
 20
84.0295393963
 40
0.3
100
AcDbArc
 50
350.2953813509
 51
360.0
  0
ARC
  5
6EE
100
AcDbEntity
  8
0
100
AcDbCircle
 62
7
  6
CONTINUOUS
 10
156.1737718719
 20
123.5188700972
 40
0.2
100
AcDbArc
 50
297.8140096236
 51
359.9744494535
  0
ELLIPSE
  5
6EF
100
AcDbEntity
  8
0
100
AcDbEllipse
 62
7
  6
CONTINUOUS
 10
146.3516058521
 20
96.0723288426
 30
0.0
 11
0.132308947
 21
0.2692527733
 31
0.0
 40
0.607010042
 41
0.6892518406
 42
2.2513082869
  0
ELLIPSE
  5
6F0
100
AcDbEntity
  8
0
100
AcDbEllipse
 62
7
  6
CONTINUOUS
 10
148.5946009042
 20
97.9306043263
 30
0.0
 11
0.2205149116
 21
0.4487546221
 31
0.0
 40
0.607010042
 41
-2.452340813
 42
-0.8902711325
  0
ELLIPSE
  5
6F1
100
AcDbEntity
  8
0
100
AcDbEllipse
 62
7
  6
CONTINUOUS
 10
148.5946009042
 20
100.4757437363
 30
0.0
 11
0.2205149116
 21
0.4487546221
 31
0.0
 40
0.607010042
 41
5.3929141747
 42
6.4833077502
  0
ELLIPSE
  5
6F2
100
AcDbEntity
  8
0
100
AcDbEllipse
 62
7
  6
CONTINUOUS
 10
146.3516058521
 20
100.0515308726
 30
0.0
 11
0.132308947
 21
0.2692527733
 31
0.0
 40
0.607010042
 41
2.2513347556
 42
3.8133912016
  0
ELLIPSE
  5
6F3
100
AcDbEntity
  8
0
100
AcDbEllipse
 62
7
  6
CONTINUOUS
 10
142.1986471755
 20
125.0385783855
 30
0.0
 11
-0.1172693628
 21
0.2208586762
 31
0.0
 40
0.5994421146
 41
-2.2699607138
 42
-0.6994689735
  0
ELLIPSE
  5
6F4
100
AcDbEntity
  8
0
100
AcDbEllipse
 62
7
  6
CONTINUOUS
 10
150.6185866279
 20
117.637319084
 30
0.0
 11
0.1304891768
 21
0.2701542511
 31
0.0
 40
0.6016116119
 41
-2.4319415046
 42
-0.8943064336
  0
ELLIPSE
  5
6F5
100
AcDbEntity
  8
0
100
AcDbEllipse
 62
7
  6
CONTINUOUS
 10
151.365810838
 20
86.043205382
 30
0.0
 11
0.139956047
 21
0.2654012004
 31
0.0
 40
0.6282300278
 41
-2.410122179
 42
-0.8724871079
  0
ELLIPSE
  5
6F6
100
AcDbEntity
  8
0
100
AcDbEllipse
 62
7
  6
CONTINUOUS
 10
150.4734086371
 20
81.4343166552
 30
0.0
 11
-0.2237009107
 21
0.4473351135
 31
0.0
 40
0.6121897086
 41
-3.1225762268
 42
-2.2557347926
  0
ELLIPSE
  5
6F7
100
AcDbEntity
  8
0
100
AcDbEllipse
 62
7
  6
CONTINUOUS
 10
150.4734086371
 20
119.3358643617
 30
0.0
 11
-0.2235807756
 21
0.4472283268
 31
0.0
 40
0.6125552124
 41
-2.255296188
 42
-0.6848044477
  0
ELLIPSE
  5
6F8
100
AcDbEntity
  8
0
100
AcDbEllipse
 62
7
  6
CONTINUOUS
 10
143.7069960394
 20
124.2844039535
 30
0.0
 11
-0.1174113663
 21
0.2209958577
 31
0.0
 40
0.5985429242
 41
-0.6989839728
 42
-0.0333665111
  0
ELLIPSE
  5
6F9
100
AcDbEntity
  8
0
100
AcDbEllipse
 62
7
  6
CONTINUOUS
 10
150.3034735199
 20
115.3556915866
 30
0.0
 11
0.139956047
 21
0.2654012004
 31
0.0
 40
0.6282300278
 41
0.0135900788
 42
0.6651479631
  0
ELLIPSE
  5
6FA
100
AcDbEntity
  8
0
100
AcDbEllipse
 62
7
  6
CONTINUOUS
 10
151.34619139
 20
175.9239866298
 30
0.0
 11
3.5378457856
 21
99.5794032239
 31
0.0
 40
0.0069684374
 41
-2.1126796178
 42
-2.1122241571
  0
ELLIPSE
  5
6FB
100
AcDbEntity
  8
0
100
AcDbEllipse
 62
7
  6
CONTINUOUS
 10
149.1553569501
 20
124.690096745
 30
0.0
 11
1.000203771
 21
-0.0143477891
 31
0.0
 40
0.4891226537
 41
-0.7775824994
 42
-0.0732257619
  0
ELLIPSE
  5
6FC
100
AcDbEntity
  8
0
100
AcDbEllipse
 62
7
  6
CONTINUOUS
 10
146.5041365779
 20
100.3316882744
 30
0.0
 11
0.2332600784
 21
0.442335334
 31
0.0
 40
0.6282300278
 41
2.2691055456
 42
3.8311752262
  0
ELLIPSE
  5
6FD
100
AcDbEntity
  8
0
100
AcDbEllipse
 62
7
  6
CONTINUOUS
 10
148.7172868008
 20
100.4926795128
 30
0.0
 11
0.2332600784
 21
0.442335334
 31
0.0
 40
0.6282300278
 41
-0.8724871079
 42
0.6895825726
  0
ELLIPSE
  5
6FE
100
AcDbEntity
  8
0
100
AcDbEllipse
 62
7
  6
CONTINUOUS
 10
161.5121867161
 20
130.6182818886
 30
0.0
 11
18.2927339069
 21
9.4748417608
 31
0.0
 40
0.0170707209
 41
-2.6536573066
 42
-2.3141694431
  0
ELLIPSE
  5
6FF
100
AcDbEntity
  8
0
100
AcDbEllipse
 62
7
  6
CONTINUOUS
 10
161.5121867161
 20
130.6182818886
 30
0.0
 11
18.2927339069
 21
9.4748417608
 31
0.0
 40
0.0170707209
 41
2.2964861198
 42
2.6359739833
  0
ELLIPSE
  5
700
100
AcDbEntity
  8
0
100
AcDbEllipse
 62
7
  6
CONTINUOUS
 10
148.2572687149
 20
127.1866886333
 30
0.0
 11
0.2503214863
 21
-0.0601325557
 31
0.0
 40
0.261363135
 41
-0.7257858084
 42
0.0666112963
  0
ELLIPSE
  5
701
100
AcDbEntity
  8
0
100
AcDbEllipse
 62
7
  6
CONTINUOUS
 10
145.7876504799
 20
79.4160389849
 30
0.0
 11
-0.2236507175
 21
0.4481039483
 31
0.0
 40
0.6114248242
 41
-3.185772875
 42
-2.25539606
  0
ELLIPSE
  5
702
100
AcDbEntity
  8
0
100
AcDbEllipse
 62
7
  6
CONTINUOUS
 10
145.7876504799
 20
116.8475120338
 30
0.0
 11
-0.2231080361
 21
0.4476242326
 31
0.0
 40
0.6130677323
 41
-2.2534169372
 42
-0.6839906064
  0
ELLIPSE
  5
703
100
AcDbEntity
  8
0
100
AcDbEllipse
 62
7
  6
CONTINUOUS
 10
149.7928218833
 20
118.9984114676
 30
0.0
 11
41.2152542262
 21
22.501943358
 31
0.0
 40
0.0081048063
 41
1.5667140536
 42
1.5886117747
  0
ELLIPSE
  5
704
100
AcDbEntity
  8
0
100
AcDbEllipse
 62
7
  6
CONTINUOUS
 10
147.0824086641
 20
79.3826913863
 30
0.0
 11
0.220014872
 21
0.1791173313
 31
0.0
 40
0.6627826692
 41
-1.8038058062
 42
-1.2976603231
  0
ELLIPSE
  5
705
100
AcDbEntity
  8
0
100
AcDbEllipse
 62
7
  6
CONTINUOUS
 10
145.5360576197
 20
178.829053515
 30
0.0
 11
0.7093717925
 21
100.9935570732
 31
0.0
 40
0.0069790045
 41
-2.1156864167
 42
-2.1124724433
  0
ELLIPSE
  5
706
100
AcDbEntity
  8
0
100
AcDbEllipse
 62
7
  6
CONTINUOUS
 10
145.5360576197
 20
125.9911038662
 30
0.0
 11
1.0
 21
0.0
 31
0.0
 40
0.5003427338
 41
0.7857407797
 42
1.3334966153
  0
ELLIPSE
  5
707
100
AcDbEntity
  8
0
100
AcDbEllipse
 62
7
  6
CONTINUOUS
 10
145.5360576197
 20
126.4997464102
 30
0.0
 11
0.9999753489
 21
-0.014348771
 31
0.0
 40
0.4893460778
 41
1.6585167088
 42
2.3628734463
  0
ELLIPSE
  5
708
100
AcDbEntity
  8
0
100
AcDbEllipse
 62
7
  6
CONTINUOUS
 10
149.134061969
 20
124.1921016915
 30
0.0
 11
1.0006854676
 21
-0.0
 31
0.0
 40
0.499657501
 41
0.4960493912
 42
0.7850555471
  0
ELLIPSE
  5
709
100
AcDbEntity
  8
0
100
AcDbEllipse
 62
7
  6
CONTINUOUS
 10
147.0824086641
 20
119.0793429473
 30
0.0
 11
0.249929385
 21
0.0111824824
 31
0.0
 40
0.5313301283
 41
-2.3799630874
 42
-0.8266200532
  0
ELLIPSE
  5
70A
100
AcDbEntity
  8
0
100
AcDbEllipse
 62
7
  6
CONTINUOUS
 10
134.495907959
 20
125.3725932999
 30
0.0
 11
0.249929385
 21
0.0111824824
 31
0.0
 40
0.5313301283
 41
-2.3799630874
 42
-0.8266200532
  0
ELLIPSE
  5
70B
100
AcDbEntity
  8
0
100
AcDbEllipse
 62
7
  6
CONTINUOUS
 10
148.7025829635
 20
119.0217490471
 30
0.0
 11
0.249929385
 21
0.0111824824
 31
0.0
 40
0.5313301283
 41
-2.3799630874
 42
-1.125412988
  0
ELLIPSE
  5
70C
100
AcDbEntity
  8
0
100
AcDbEllipse
 62
7
  6
CONTINUOUS
 10
146.6828836411
 20
120.0315987083
 30
0.0
 11
0.249929385
 21
0.0111824824
 31
0.0
 40
0.5313301283
 41
3.1178239796
 42
3.9032222197
  0
ELLIPSE
  5
70D
100
AcDbEntity
  8
0
100
AcDbEllipse
 62
7
  6
CONTINUOUS
 10
134.096382936
 20
126.3248490608
 30
0.0
 11
0.249929385
 21
0.0111824824
 31
0.0
 40
0.5313301283
 41
3.1178240764
 42
3.9032222197
  0
ELLIPSE
  5
70E
100
AcDbEntity
  8
0
100
AcDbEllipse
 62
7
  6
CONTINUOUS
 10
136.1160822584
 20
125.3149993996
 30
0.0
 11
0.249929385
 21
0.0111824824
 31
0.0
 40
0.5313301283
 41
-2.3799630874
 42
-0.8266200532
  0
ELLIPSE
  5
70F
100
AcDbEntity
  8
0
100
AcDbEllipse
 62
7
  6
CONTINUOUS
 10
148.7025829635
 20
79.7797110179
 30
0.0
 11
0.220014872
 21
0.1791173313
 31
0.0
 40
0.6627826692
 41
-2.8510033574
 42
-2.6599685648
  0
ELLIPSE
  5
710
100
AcDbEntity
  8
0
100
AcDbEllipse
 62
7
  6
CONTINUOUS
 10
146.888844378
 20
119.1761250904
 30
0.0
 11
0.249929385
 21
0.0111824824
 31
0.0
 40
0.5313301283
 41
3.1178239796
 42
3.9032222197
  0
ELLIPSE
  5
711
100
AcDbEntity
  8
0
100
AcDbEllipse
 62
7
  6
CONTINUOUS
 10
134.3023436729
 20
125.4693754429
 30
0.0
 11
0.249929385
 21
0.0111824824
 31
0.0
 40
0.5313301283
 41
3.1178239796
 42
3.9032222197
  0
ELLIPSE
  5
712
100
AcDbEntity
  8
0
100
AcDbEllipse
 62
7
  6
CONTINUOUS
 10
150.6185866279
 20
82.5634198733
 30
0.0
 11
0.1304891768
 21
0.2701542511
 31
0.0
 40
0.6016116119
 41
5.3888788736
 42
6.9265139446
  0
ELLIPSE
  5
713
100
AcDbEntity
  8
0
100
AcDbEllipse
 62
7
  6
CONTINUOUS
 10
151.365810838
 20
114.8245229276
 30
0.0
 11
0.139956047
 21
0.2654012004
 31
0.0
 40
0.6282300278
 41
5.4106981992
 42
6.9483332702
  0
ELLIPSE
  5
714
100
AcDbEntity
  8
0
100
AcDbEllipse
 62
7
  6
CONTINUOUS
 10
131.0009077795
 20
124.240883384
 30
0.0
 11
-0.2236507175
 21
0.4481039483
 31
0.0
 40
0.6114248242
 41
-0.6832297371
 42
0.0441802473
  0
ELLIPSE
  5
715
100
AcDbEntity
  8
0
100
AcDbEllipse
 62
7
  6
CONTINUOUS
 10
146.5041365779
 20
95.9224834274
 30
0.0
 11
0.2332600784
 21
0.442335334
 31
0.0
 40
0.6282300278
 41
0.7070358651
 42
2.2691055456
  0
ELLIPSE
  5
716
100
AcDbEntity
  8
0
100
AcDbEllipse
 62
7
  6
CONTINUOUS
 10
141.3604032898
 20
123.4077074708
 30
0.0
 11
0.199943508
 21
0.008945986
 31
0.0
 40
0.5313301283
 41
-2.3799630874
 42
-0.8266200532
  0
ELLIPSE
  5
717
100
AcDbEntity
  8
0
100
AcDbEllipse
 62
7
  6
CONTINUOUS
 10
139.0697548927
 20
124.5530316694
 30
0.0
 11
0.199943508
 21
0.008945986
 31
0.0
 40
0.5313301283
 41
3.1178240623
 42
3.9032222197
  0
ELLIPSE
  5
718
100
AcDbEntity
  8
0
100
AcDbEllipse
 62
7
  6
CONTINUOUS
 10
142.7820654939
 20
122.6968763688
 30
0.0
 11
0.199943508
 21
0.008945986
 31
0.0
 40
0.5313301283
 41
3.1178240623
 42
3.9032222197
  0
ELLIPSE
  5
719
100
AcDbEntity
  8
0
100
AcDbEllipse
 62
7
  6
CONTINUOUS
 10
145.072713891
 20
121.5515521702
 30
0.0
 11
0.199943508
 21
0.008945986
 31
0.0
 40
0.5313301283
 41
-2.3799630874
 42
-0.8266200532
  0
ELLIPSE
  5
71A
100
AcDbEntity
  8
0
100
AcDbEllipse
 62
7
  6
CONTINUOUS
 10
148.7172868008
 20
97.8616933313
 30
0.0
 11
0.2332600784
 21
0.442335334
 31
0.0
 40
0.6282300278
 41
-2.4345567885
 42
-0.8724871079
  0
ELLIPSE
  5
71B
100
AcDbEntity
  8
0
100
AcDbEllipse
 62
7
  6
CONTINUOUS
 10
167.8513161341
 20
122.7582759133
 30
0.0
 11
0.6551573906
 21
1.3494307875
 31
0.0
 40
0.6032348528
 41
-2.8833976749
 42
-2.4813618104
  0
ELLIPSE
  5
71C
100
AcDbEntity
  8
RACCORDO
100
AcDbEllipse
 62
7
  6
CONTINUOUS
 10
150.167391612
 20
116.5491275508
 30
0.0
 11
-0.894612936
 21
1.7887945813
 31
0.0
 40
0.6124635976
 41
-2.2555607096
 42
-1.470288718
  0
ELLIPSE
  5
71D
100
AcDbEntity
  8
RACCORDO
100
AcDbEllipse
 62
7
  6
CONTINUOUS
 10
150.167391612
 20
85.9412840534
 30
0.0
 11
-0.894811907
 21
1.788971565
 31
0.0
 40
0.6123121697
 41
-3.0410143285
 42
-2.2557423369
  0
ELLIPSE
  5
71E
100
AcDbEntity
  8
0
100
AcDbEllipse
 62
7
  6
CONTINUOUS
 10
174.4318167508
 20
124.9974298363
 30
0.0
 11
0.4994715891
 21
-0.1816140031
 31
0.0
 40
0.1265382399
 41
-0.7045131476
 42
0.0390729785
  0
ELLIPSE
  5
71F
100
AcDbEntity
  8
0
100
AcDbEllipse
 62
7
  6
CONTINUOUS
 10
174.4318167508
 20
115.8447521069
 30
0.0
 11
0.4994623022
 21
-0.1808128221
 31
0.0
 40
0.1282103573
 41
-0.7041107982
 42
0.0379337938
  0
ELLIPSE
  5
720
100
AcDbEntity
  8
0
100
AcDbEllipse
 62
7
  6
CONTINUOUS
 10
174.4318167508
 20
120.1748791258
 30
0.0
 11
0.4994623022
 21
-0.1808128221
 31
0.0
 40
0.1282103573
 41
-0.7041107982
 42
0.0379337938
  0
ENDSEC
  0
SECTION
  2
OBJECTS
  0
DICTIONARY
  5
C
100
AcDbDictionary
280
0
281
1
  3
ACAD_GROUP
350
D
  3
ACAD_MLINESTYLE
350
17
  3
ACAD_LAYOUT
350
1A
  3
ACAD_PLOTSETTINGS
350
19
  3
ACAD_PLOTSTYLENAME
350
E
  0
DICTIONARY
  5
D
102
{ACAD_REACTORS
330
C
102
}
100
AcDbDictionary
280
0
281
1
  0
ACDBDICTIONARYWDFLT
  5
E
102
{ACAD_REACTORS
330
C
102
}
100
AcDbDictionary
281
1
  3
Normal
350
F
100
AcDbDictionaryWithDefault
340
F
  0
DICTIONARY
  5
17
102
{ACAD_REACTORS
330
C
102
}
100
AcDbDictionary
280
0
281
1
  3
Standard
350
18
  0
DICTIONARY
  5
19
102
{ACAD_REACTORS
330
C
102
}
100
AcDbDictionary
281
1
  0
DICTIONARY
  5
1A
102
{ACAD_REACTORS
330
C
102
}
100
AcDbDictionary
281
1
  3
Model
350
721
  3
Layout1
350
722
  0
ACDBPLACEHOLDER
  5
F
102
{ACAD_REACTORS
330
E
102
}
  0
MLINESTYLE
  5
18
102
{ACAD_REACTORS
330
17
102
}
100
AcDbMlineStyle
  2
STANDARD
 70
0
  3

 62
256
 51
90.0
 52
90.0
 71
2
 49
0.5
 62
256
  6
BYLAYER
 49
-0.5
 62
256
  6
BYLAYER
  0
LAYOUT
  5
721
102
{ACAD_REACTORS
330
1A
102
}
100
AcDbPlotSettings
  1

  2
none_device
  4
ISO_A4_(297.00_x_210.00_MM)
  6

 40
0.0
 41
0.0
 42
0.0
 43
0.0
 44
297.0
 45
210.0
 46
0.0
 47
0.0
 48
0.0
 49
0.0
140
0.0
141
0.0
142
1.0
143
1.0
 70
1024
 72
1
 73
0
 74
0
  7

 75
0
147
1.0
148
0.0
149
0.0
100
AcDbLayout
  1
Model
 70
0
 71
0
 10
0.0
 20
0.0
 11
297.0
 21
210.0
 12
0.0
 22
0.0
 32
0.0
 14
0.0
 24
0.0
 34
0.0
 15
0.0
 25
0.0
 35
0.0
146
0.0
 13
0.0
 23
0.0
 33
0.0
 16
1.0
 26
0.0
 36
0.0
 17
0.0
 27
1.0
 37
0.0
 76
0
330
308
345
0
346
0
  0
LAYOUT
  5
722
102
{ACAD_REACTORS
330
1A
102
}
100
AcDbPlotSettings
  1

  2
none_device
  4
ISO_A4_(297.00_x_210.00_MM)
  6

 40
0.0
 41
0.0
 42
0.0
 43
0.0
 44
297.0
 45
210.0
 46
0.0
 47
0.0
 48
0.0
 49
0.0
140
0.0
141
0.0
142
1.0
143
1.0
 70
0
 72
1
 73
0
 74
0
  7

 75
0
147
1.0
148
0.0
149
0.0
100
AcDbLayout
  1
Layout1
 70
0
 71
1
 10
0.0
 20
0.0
 11
297.0
 21
210.0
 12
0.0
 22
0.0
 32
0.0
 14
0.0
 24
0.0
 34
0.0
 15
0.0
 25
0.0
 35
0.0
146
0.0
 13
0.0
 23
0.0
 33
0.0
 16
1.0
 26
0.0
 36
0.0
 17
0.0
 27
1.0
 37
0.0
 76
0
330
309
345
0
346
0
  0
ENDSEC
  0
EOF
