  0
SECTION
  2
HEADER
  9
$ACADVER
  1
AC1015
  9
$DWGCODEPAGE
  3
ANSI_1252
  9
$EXTMAX
 10
297.0
 20
210.0
 30
0.0
  9
$EXTMIN
 10
0.0
 20
0.0
 30
0.0
  9
$LIMMIN
 10
0.0
 20
0.0
  9
$LIMMAX
 10
297.0
 20
210.0
  9
$VIEWCTR
 10
148.5
 20
105.0
  9
$VIEWSIZE
 40
210.0
  9
$CLAYER
  8
0
  9
$LTSCALE
 40
16.335
  9
$CELTYPE
  6
BYLAYER
  9
$DIMSCALE
 40
1.0
  9
$DIMASZ
 40
3.0
  9
$DIMEXO
 40
1.85625
  9
$DIMDLI
 40
11.286
  9
$DIMEXE
 40
5.346
  9
$DIMCEN
 40
2.673
  9
$DIMLFAC
 40
1.0
  9
$DIMBLK
  1
_FILLED
  9
$DIMTXT
 40
3.0
  9
$DIMTOL
 70
1
  9
$DIMLIM
 70
0
  9
$DIMTFAC
 40
1.0
  9
$DIMTP
 40
0.01
  9
$DIMTM
 40
0.01
  9
$PDMODE
 70
3
  9
$PDSIZE
 40
3.0
  9
$HANDSEED
  5
512
  9
$TILEMODE
 70
1
  9
$MEASUREMENT
 70
1
  9
$INSUNITS
 70
4
  0
ENDSEC
  0
SECTION
  2
CLASSES
  0
CLASS
  1
ACDBDICTIONARYWDFLT
  2
AcDbDictionaryWithDefault
  3
AutoCAD 2000
 90
0
280
0
281
0
  0
CLASS
  1
ACDBPLACEHOLDER
  2
AcDbPlaceHolder
  3
AutoCAD 2000
 90
0
280
0
281
0
  0
CLASS
  1
LAYOUT
  2
AcDbLayout
  3
AutoCAD 2000
 90
0
280
0
281
0
  0
ENDSEC
  0
SECTION
  2
TABLES
  0
TABLE
  2
VPORT
  5
8
100
AcDbSymbolTable
 70
2
  0
VPORT
  5
1F4
100
AcDbSymbolTableRecord
100
AcDbViewportTableRecord
  2
*ACTIVE
 70
0
 10
0.0
 20
0.0
 11
1.0
 21
1.0
 12
148.5
 22
105.0
 13
0.0
 23
0.0
 14
1.0
 24
1.0
 15
0.0
 25
0.0
 16
0.0
 26
0.0
 36
1.0
 17
0.0
 27
0.0
 37
0.0
 40
210.0
 41
1.4142857143
 42
50.0
 43
0.0
 44
0.0
 50
0.0
 51
0.0
 71
0
 72
100
 73
1
 74
1
 75
0
 76
0
 77
0
 78
0
  0
ENDTAB
  0
TABLE
  2
LTYPE
  5
5
100
AcDbSymbolTable
 70
6
  0
LTYPE
  5
14
100
AcDbSymbolTableRecord
100
AcDbLinetypeTableRecord
  2
BYBLOCK
 70
0
  3

 72
65
 73
0
 40
0.0
  0
LTYPE
  5
15
100
AcDbSymbolTableRecord
100
AcDbLinetypeTableRecord
  2
BYLAYER
 70
0
  3

 72
65
 73
0
 40
0.0
  0
LTYPE
  5
16
100
AcDbSymbolTableRecord
100
AcDbLinetypeTableRecord
  2
CONTINUOUS
 70
64
  3
Solid line
 72
65
 73
0
 40
0.0
  0
LTYPE
  5
1F5
100
AcDbSymbolTableRecord
100
AcDbLinetypeTableRecord
  2
CENTER
 70
64
  3
____ _ ____ _ ____ _ ____ _ ____ _ ____ _ ____
 72
65
 73
4
 40
0.6
 49
0.375
 74
0
 49
-0.075
 74
0
 49
0.075
 74
0
 49
-0.075
 74
0
  0
LTYPE
  5
1F6
100
AcDbSymbolTableRecord
100
AcDbLinetypeTableRecord
  2
HIDDEN
 70
64
  3
- - - - - - - - - - - - - - - - - - - -
 72
65
 73
2
 40
0.2
 49
0.1
 74
0
 49
-0.1
 74
0
  0
LTYPE
  5
1F7
100
AcDbSymbolTableRecord
100
AcDbLinetypeTableRecord
  2
PHANTOM
 70
64
  3
_____ _ _ _____ _ _ _____ _ _ _____
 72
65
 73
6
 40
0.8
 49
0.45
 74
0
 49
-0.05
 74
0
 49
0.1
 74
0
 49
-0.05
 74
0
 49
0.1
 74
0
 49
-0.05
 74
0
  0
LTYPE
  5
1F8
100
AcDbSymbolTableRecord
100
AcDbLinetypeTableRecord
  2
DOT
 70
64
  3
. . . . . . . . . . . . . . . . . . . .
 72
65
 73
2
 40
0.2
 49
0.1
 74
0
 49
-0.1
 74
0
  0
LTYPE
  5
1F9
100
AcDbSymbolTableRecord
100
AcDbLinetypeTableRecord
  2
DASHED
 70
64
  3
- - - - - - - - - - - - - - - - - - - -
 72
65
 73
2
 40
0.2
 49
0.1
 74
0
 49
-0.1
 74
0
  0
ENDTAB
  0
TABLE
  2
LAYER
  5
2
100
AcDbSymbolTable
 70
36
  0
LAYER
  5
10
100
AcDbSymbolTableRecord
100
AcDbLayerTableRecord
  2
0
 70
0
 62
7
  6
CONTINUOUS
370
-3
390
F
  0
LAYER
  5
1FA
100
AcDbSymbolTableRecord
100
AcDbLayerTableRecord
  2
DEFAULT_1
 70
0
 62
7
  6
CENTER
370
-3
390
F
  0
LAYER
  5
1FB
100
AcDbSymbolTableRecord
100
AcDbLayerTableRecord
  2
DEFAULT_2
 70
0
 62
7
  6
HIDDEN
370
-3
390
F
  0
LAYER
  5
1FC
100
AcDbSymbolTableRecord
100
AcDbLayerTableRecord
  2
DEFAULT_3
 70
0
 62
7
  6
PHANTOM
370
-3
390
F
  0
LAYER
  5
1FD
100
AcDbSymbolTableRecord
100
AcDbLayerTableRecord
  2
ASSI
 70
0
 62
7
  6
CONTINUOUS
370
-3
390
F
  0
LAYER
  5
1FE
100
AcDbSymbolTableRecord
100
AcDbLayerTableRecord
  2
COORDINATE
 70
0
 62
7
  6
CONTINUOUS
370
-3
390
F
  0
LAYER
  5
1FF
100
AcDbSymbolTableRecord
100
AcDbLayerTableRecord
  2
COORD_ORIGINE
 70
0
 62
7
  6
CONTINUOUS
370
-3
390
F
  0
LAYER
  5
200
100
AcDbSymbolTableRecord
100
AcDbLayerTableRecord
  2
COPY_PUBLISH
 70
0
 62
7
  6
CONTINUOUS
370
-3
390
F
  0
LAYER
  5
201
100
AcDbSymbolTableRecord
100
AcDbLayerTableRecord
  2
COSMETIC
 70
0
 62
7
  6
CONTINUOUS
370
-3
390
F
  0
LAYER
  5
202
100
AcDbSymbolTableRecord
100
AcDbLayerTableRecord
  2
COSMETICHE
 70
0
 62
7
  6
CONTINUOUS
370
-3
390
F
  0
LAYER
  5
203
100
AcDbSymbolTableRecord
100
AcDbLayerTableRecord
  2
CURVE
 70
0
 62
7
  6
CONTINUOUS
370
-3
390
F
  0
LAYER
  5
204
100
AcDbSymbolTableRecord
100
AcDbLayerTableRecord
  2
DRAFT
 70
0
 62
7
  6
CONTINUOUS
370
-3
390
F
  0
LAYER
  5
205
100
AcDbSymbolTableRecord
100
AcDbLayerTableRecord
  2
IMPORT
 70
0
 62
7
  6
CONTINUOUS
370
-3
390
F
  0
LAYER
  5
206
100
AcDbSymbolTableRecord
100
AcDbLayerTableRecord
  2
IMPORT_IGES
 70
0
 62
7
  6
CONTINUOUS
370
-3
390
F
  0
LAYER
  5
207
100
AcDbSymbolTableRecord
100
AcDbLayerTableRecord
  2
INTFCLR_1
 70
0
 62
7
  6
CONTINUOUS
370
-3
390
F
  0
LAYER
  5
208
100
AcDbSymbolTableRecord
100
AcDbLayerTableRecord
  2
INTF_1
 70
0
 62
7
  6
CONTINUOUS
370
-3
390
F
  0
LAYER
  5
209
100
AcDbSymbolTableRecord
100
AcDbLayerTableRecord
  2
INTF_15
 70
0
 62
7
  6
CONTINUOUS
370
-3
390
F
  0
LAYER
  5
20A
100
AcDbSymbolTableRecord
100
AcDbLayerTableRecord
  2
INTF_16
 70
0
 62
7
  6
CONTINUOUS
370
-3
390
F
  0
LAYER
  5
20B
100
AcDbSymbolTableRecord
100
AcDbLayerTableRecord
  2
INTF_4
 70
0
 62
7
  6
CONTINUOUS
370
-3
390
F
  0
LAYER
  5
20C
100
AcDbSymbolTableRecord
100
AcDbLayerTableRecord
  2
LAY0001
 70
0
 62
7
  6
CONTINUOUS
370
-3
390
F
  0
LAYER
  5
20D
100
AcDbSymbolTableRecord
100
AcDbLayerTableRecord
  2
NOTE
 70
0
 62
7
  6
CONTINUOUS
370
-3
390
F
  0
LAYER
  5
20E
100
AcDbSymbolTableRecord
100
AcDbLayerTableRecord
  2
PIANI
 70
0
 62
7
  6
CONTINUOUS
370
-3
390
F
  0
LAYER
  5
20F
100
AcDbSymbolTableRecord
100
AcDbLayerTableRecord
  2
PIANI_ORIGINE
 70
0
 62
7
  6
CONTINUOUS
370
-3
390
F
  0
LAYER
  5
210
100
AcDbSymbolTableRecord
100
AcDbLayerTableRecord
  2
PIANI_SFORMO
 70
0
 62
7
  6
CONTINUOUS
370
-3
390
F
  0
LAYER
  5
211
100
AcDbSymbolTableRecord
100
AcDbLayerTableRecord
  2
PUNTI
 70
0
 62
7
  6
CONTINUOUS
370
-3
390
F
  0
LAYER
  5
212
100
AcDbSymbolTableRecord
100
AcDbLayerTableRecord
  2
RACCORDO
 70
0
 62
7
  6
CONTINUOUS
370
-3
390
F
  0
LAYER
  5
213
100
AcDbSymbolTableRecord
100
AcDbLayerTableRecord
  2
SMUSSO
 70
0
 62
7
  6
CONTINUOUS
370
-3
390
F
  0
LAYER
  5
214
100
AcDbSymbolTableRecord
100
AcDbLayerTableRecord
  2
SNAPLINE
 70
0
 62
7
  6
CONTINUOUS
370
-3
390
F
  0
LAYER
  5
215
100
AcDbSymbolTableRecord
100
AcDbLayerTableRecord
  2
SUPERFICI
 70
0
 62
7
  6
CONTINUOUS
370
-3
390
F
  0
LAYER
  5
216
100
AcDbSymbolTableRecord
100
AcDbLayerTableRecord
  2
SUPERFICI_SKEL
 70
0
 62
7
  6
CONTINUOUS
370
-3
390
F
  0
LAYER
  5
217
100
AcDbSymbolTableRecord
100
AcDbLayerTableRecord
  2
TRASH
 70
0
 62
7
  6
CONTINUOUS
370
-3
390
F
  0
ENDTAB
  0
TABLE
  2
STYLE
  5
3
100
AcDbSymbolTable
 70
1
  0
STYLE
  5
11
100
AcDbSymbolTableRecord
100
AcDbTextStyleTableRecord
  2
STANDARD
 70
0
 40
0.0
 41
0.8
 50
0.0
 71
0
 42
0.2
  3
txt
  4

  0
STYLE
  5
218
100
AcDbSymbolTableRecord
100
AcDbTextStyleTableRecord
  2
TEXTSTYLE_1
 70
0
 40
0.0
 41
0.8
 50
0.0
 71
0
 42
0.2
  3
gdt
  4

  0
ENDTAB
  0
TABLE
  2
VIEW
  5
6
100
AcDbSymbolTable
 70
0
  0
ENDTAB
  0
TABLE
  2
UCS
  5
7
100
AcDbSymbolTable
 70
0
  0
ENDTAB
  0
TABLE
  2
APPID
  5
9
100
AcDbSymbolTable
 70
1
  0
APPID
  5
219
100
AcDbSymbolTableRecord
100
AcDbRegAppTableRecord
  2
ACAD
 70
0
  0
ENDTAB
  0
TABLE
  2
BLOCK_RECORD
  5
1
100
AcDbSymbolTable
 70
0
  0
BLOCK_RECORD
  5
21A
100
AcDbSymbolTableRecord
100
AcDbBlockTableRecord
  2
*Model_Space
  0
BLOCK_RECORD
  5
21B
100
AcDbSymbolTableRecord
100
AcDbBlockTableRecord
  2
*Paper_Space
  0
ENDTAB
  0
TABLE
  2
DIMSTYLE
  5
A
100
AcDbSymbolTable
 70
1
100
AcDbDimStyleTable
 71
0
  0
DIMSTYLE
105
21C
100
AcDbSymbolTableRecord
100
AcDbDimStyleTableRecord
  2
STANDARD
 70
0
  3

  4

 40
1.0
 41
3.0
 42
0.0625
 43
0.38
 44
0.18
 45
0.0
 46
0.0
 47
0.01
 48
0.01
140
3.0
141
0.09
142
0.0
143
25.4
144
1.0
145
0.0
146
1.0
147
0.09
 71
1.0
 72
0.0
 73
0
 74
0
 75
0
 76
0
 77
1
 78
8
170
0
171
2
172
0
173
0
174
0
175
0
176
0
177
0
178
0
270
2
271
2
272
2
273
2
274
2
275
0
280
0
281
0
282
0
283
1
284
8
285
0
286
0
287
3
288
0
340
11
  0
ENDTAB
  0
ENDSEC
  0
SECTION
  2
BLOCKS
  0
BLOCK
  5
20
100
AcDbEntity
  8
0
100
AcDbBlockBegin
  2
*Model_Space
 70
0
 10
0.0
 20
0.0
 30
0.0
  3
*Model_Space
  1

  0
ENDBLK
  5
21
100
AcDbEntity
  8
0
100
AcDbBlockEnd
  0
BLOCK
  5
1C
100
AcDbEntity
  8
0
100
AcDbBlockBegin
  2
*Paper_Space
 70
0
 10
0.0
 20
0.0
 30
0.0
  3
*Paper_Space
  1

  0
ENDBLK
  5
1D
100
AcDbEntity
  8
0
100
AcDbBlockEnd
  0
ENDSEC
  0
SECTION
  2
ENTITIES
  0
LINE
  5
21D
100
AcDbEntity
  8
0
100
AcDbLine
 62
253
  6
CONTINUOUS
 10
-3.3955160018
 20
-21.4000831465
 11
-3.4051967523
 21
-21.0803721181
  0
LINE
  5
21E
100
AcDbEntity
  8
0
100
AcDbLine
 62
253
  6
CONTINUOUS
 10
-3.151672244
 20
-21.1724205038
 11
-3.1420600071
 21
-21.4921876552
  0
LINE
  5
21F
100
AcDbEntity
  8
0
100
AcDbLine
 62
253
  6
CONTINUOUS
 10
-3.4883912998
 20
-17.9538093566
 11
-3.4957754272
 21
-17.6322170447
  0
LINE
  5
220
100
AcDbEntity
  8
0
100
AcDbLine
 62
253
  6
CONTINUOUS
 10
-3.2416101061
 20
-17.7237405073
 11
-3.2342782029
 21
-18.0453755988
  0
ARC
  5
221
100
AcDbEntity
  8
0
100
AcDbCircle
 62
253
  6
CONTINUOUS
 10
486.9407836696
 20
-7.3669033397
 40
489.4056255237
100
AcDbArc
 50
181.3200870617
 51
181.6215195464
  0
ARC
  5
222
100
AcDbEntity
  8
0
100
AcDbCircle
 62
253
  6
CONTINUOUS
 10
482.3136550479
 20
-7.2807474453
 40
485.0349652694
100
AcDbArc
 50
181.3314696986
 51
181.6355659689
  0
ARC
  5
223
100
AcDbEntity
  8
0
100
AcDbCircle
 62
253
  6
CONTINUOUS
 10
471.7551748504
 20
-7.062977081
 40
475.1163980562
100
AcDbArc
 50
181.3536127063
 51
181.6727963977
  0
ARC
  5
224
100
AcDbEntity
  8
0
100
AcDbCircle
 62
253
  6
CONTINUOUS
 10
456.0658246234
 20
-6.6637115886
 40
460.5720569942
100
AcDbArc
 50
181.3989914785
 51
181.7189127129
  0
ARC
  5
225
100
AcDbEntity
  8
0
100
AcDbCircle
 62
253
  6
CONTINUOUS
 10
59.502647114
 20
151.8503630285
 40
184.0175547507
100
AcDbArc
 50
250.0938720329
 51
250.2863266139
  0
ARC
  5
226
100
AcDbEntity
  8
0
100
AcDbCircle
 62
253
  6
CONTINUOUS
 10
59.0835532511
 20
151.0690471905
 40
182.9169734564
100
AcDbArc
 50
250.1062962444
 51
250.2999341492
  0
ARC
  5
227
100
AcDbEntity
  8
0
100
AcDbCircle
 62
253
  6
CONTINUOUS
 10
58.9948570915
 20
150.4509361036
 40
182.5287502835
100
AcDbArc
 50
249.8159377462
 51
250.0095047933
  0
ARC
  5
228
100
AcDbEntity
  8
0
100
AcDbCircle
 62
253
  6
CONTINUOUS
 10
58.575533462
 20
149.6680608749
 40
181.426620789
100
AcDbArc
 50
249.826643467
 51
250.021408447
  0
ARC
  5
229
100
AcDbEntity
  8
0
100
AcDbCircle
 62
253
  6
CONTINUOUS
 10
55.2351536236
 20
144.3523566892
 40
172.8277975703
100
AcDbArc
 50
250.2280226798
 51
250.4332316567
  0
ARC
  5
22A
100
AcDbEntity
  8
0
100
AcDbCircle
 62
253
  6
CONTINUOUS
 10
54.946478922
 20
143.8925188806
 40
172.0723642842
100
AcDbArc
 50
250.2377488587
 51
250.4438805493
  0
ARC
  5
22B
100
AcDbEntity
  8
0
100
AcDbCircle
 62
253
  6
CONTINUOUS
 10
54.4357240969
 20
142.4740431482
 40
170.5646045729
100
AcDbArc
 50
249.9399410173
 51
250.1473596535
  0
SPLINE
  5
22C
100
AcDbEntity
  8
0
100
AcDbSpline
 62
253
  6
CONTINUOUS
 70
0
 71
3
 72
22
 73
18
 74
16
 42
0.0000001
 43
0.0000001
 44
0.0000000001
 12
-0.0075334419
 22
0.3329988094
 32
0.0
 13
0.0079397439
 23
-0.3535045591
 33
0.0
 40
0.0
 40
0.0
 40
0.0
 40
0.0
 40
0.1111111111
 40
0.2222222222
 40
0.3333333333
 40
0.3888888889
 40
0.4444444444
 40
0.5
 40
0.5555555556
 40
0.6111111111
 40
0.6666666667
 40
0.7222222222
 40
0.7777777778
 40
0.8333333333
 40
0.8888888889
 40
0.9444444444
 40
1.0
 40
1.0
 40
1.0
 40
1.0
 10
-3.4957754272
 20
-17.6322170447
 30
0.0
 10
-3.4960544436
 20
-17.6198837555
 30
0.0
 10
-3.4908934027
 20
-17.5982347276
 30
0.0
 10
-3.4714970428
 20
-17.5723050267
 30
0.0
 10
-3.4459705873
 20
-17.5571001442
 30
0.0
 10
-3.421474984
 20
-17.5511854192
 30
0.0
 10
-3.4014981603
 20
-17.5503753939
 30
0.0
 10
-3.3803132213
 20
-17.553756019
 30
0.0
 10
-3.3584726476
 20
-17.5620556407
 30
0.0
 10
-3.3362583876
 20
-17.5753715204
 30
0.0
 10
-3.3147941584
 20
-17.5926283637
 30
0.0
 10
-3.2944527898
 20
-17.6133036013
 30
0.0
 10
-3.2764526986
 20
-17.6360664046
 30
0.0
 10
-3.261830051
 20
-17.6591714754
 30
0.0
 10
-3.2506548673
 20
-17.6822955373
 30
0.0
 10
-3.243664084
 20
-17.7038940221
 30
0.0
 10
-3.2417571384
 20
-17.7171941266
 30
0.0
 10
-3.2416101061
 20
-17.7237405073
 30
0.0
 11
-3.4957754272
 21
-17.6322170447
 31
0.0
 11
-3.4889509363
 21
-17.5993253678
 31
0.0
 11
-3.4696244783
 21
-17.573585667
 31
0.0
 11
-3.4395071499
 21
-17.556142228
 31
0.0
 11
-3.4212074638
 21
-17.5517897556
 31
0.0
 11
-3.4012968077
 21
-17.5510738357
 31
0.0
 11
-3.3802039488
 21
-17.5545758518
 31
0.0
 11
-3.3584103665
 21
-17.5628916837
 31
0.0
 11
-3.3363833927
 21
-17.5760283476
 31
0.0
 11
-3.3149813018
 21
-17.5931980961
 31
0.0
 11
-3.2948430027
 21
-17.6136515289
 31
0.0
 11
-3.2770156059
 21
-17.6361234492
 31
0.0
 11
-3.2624046283
 21
-17.6591746406
 31
0.0
 11
-3.2513522674
 21
-17.6820412745
 31
0.0
 11
-3.2443524782
 21
-17.7036193007
 31
0.0
 11
-3.2416101061
 21
-17.7237405073
 31
0.0
  0
SPLINE
  5
22D
100
AcDbEntity
  8
0
100
AcDbSpline
 62
253
  6
CONTINUOUS
 70
0
 71
3
 72
17
 73
13
 74
11
 42
0.0000001
 43
0.0000001
 44
0.0000000001
 12
0.505780554
 22
-0.1797583621
 32
0.0
 13
0.0094591931
 23
-0.4103834963
 33
0.0
 40
0.0
 40
0.0
 40
0.0
 40
0.0
 40
0.1666666667
 40
0.25
 40
0.3333333333
 40
0.4166666667
 40
0.5
 40
0.6666666667
 40
0.75
 40
0.8333333333
 40
0.9166666667
 40
1.0
 40
1.0
 40
1.0
 40
1.0
 10
-2.6513001741
 20
-18.2537469183
 30
0.0
 10
-2.6232012544
 20
-18.263733494
 30
0.0
 10
-2.5827608665
 20
-18.2833351112
 30
0.0
 10
-2.5317858308
 20
-18.3168382162
 30
0.0
 10
-2.4955707759
 20
-18.3452587257
 30
0.0
 10
-2.4606108966
 20
-18.3779195544
 30
0.0
 10
-2.4183699741
 20
-18.425384691
 30
0.0
 10
-2.3839503994
 20
-18.478103703
 30
0.0
 10
-2.3592658211
 20
-18.5311526558
 30
0.0
 10
-2.3457085587
 20
-18.5703682669
 30
0.0
 10
-2.3374442518
 20
-18.6072534451
 30
0.0
 10
-2.3352134378
 20
-18.6303460779
 30
0.0
 10
-2.3349506825
 20
-18.6417456194
 30
0.0
 11
-2.6513001741
 21
-18.2537469183
 31
0.0
 11
-2.5702625644
 21
-18.2923248554
 31
0.0
 11
-2.5321218678
 21
-18.3173870796
 31
0.0
 11
-2.4957799718
 21
-18.3459654455
 31
0.0
 11
-2.4611574279
 21
-18.378409225
 31
0.0
 11
-2.4295819837
 21
-18.4139562298
 31
0.0
 11
-2.3785905045
 21
-18.4913934363
 31
0.0
 11
-2.3600918496
 21
-18.5310574719
 31
0.0
 11
-2.346590718
 21
-18.5699798614
 31
0.0
 11
-2.3382639328
 21
-18.6068790736
 31
0.0
 11
-2.3349506825
 21
-18.6417456194
 31
0.0
  0
SPLINE
  5
22E
100
AcDbEntity
  8
0
100
AcDbSpline
 62
253
  6
CONTINUOUS
 70
0
 71
3
 72
16
 73
12
 74
10
 42
0.0000001
 43
0.0000001
 44
0.0000000001
 12
-0.0015746137
 22
0.0677296433
 32
0.0
 13
-0.0728664373
 23
0.0259124506
 33
0.0
 40
0.0
 40
0.0
 40
0.0
 40
0.0
 40
0.125
 40
0.25
 40
0.3125
 40
0.375
 40
0.5
 40
0.625
 40
0.75
 40
0.875
 40
1.0
 40
1.0
 40
1.0
 40
1.0
 10
-2.590349573
 20
-18.5512326377
 30
0.0
 10
-2.5904151819
 20
-18.5484105693
 30
0.0
 10
-2.5916888921
 20
-18.5426588029
 30
0.0
 10
-2.595343485
 20
-18.5355507595
 30
0.0
 10
-2.5991780509
 20
-18.5299812824
 30
0.0
 10
-2.6036118609
 20
-18.5244392063
 30
0.0
 10
-2.6099672806
 20
-18.5178313387
 30
0.0
 10
-2.6185800039
 20
-18.5104767343
 30
0.0
 10
-2.6277482311
 20
-18.5039748127
 30
0.0
 10
-2.6368798779
 20
-18.4986969345
 30
0.0
 10
-2.6427230423
 20
-18.4960889852
 30
0.0
 10
-2.6457591439
 20
-18.4950092997
 30
0.0
 11
-2.590349573
 21
-18.5512326377
 31
0.0
 11
-2.5921013831
 21
-18.5426751358
 31
0.0
 11
-2.5963780341
 21
-18.5341681367
 31
0.0
 11
-2.5992529564
 21
-18.5299847075
 31
0.0
 11
-2.6025576189
 21
-18.5258460405
 31
0.0
 11
-2.6101316506
 21
-18.5179271449
 31
0.0
 11
-2.6186725879
 21
-18.5106188481
 31
0.0
 11
-2.6277421344
 21
-18.5041788199
 31
0.0
 11
-2.6368187279
 21
-18.4989245936
 31
0.0
 11
-2.6457591439
 21
-18.4950092997
 31
0.0
  0
SPLINE
  5
22F
100
AcDbEntity
  8
0
100
AcDbSpline
 62
253
  6
CONTINUOUS
 70
0
 71
3
 72
19
 73
15
 74
13
 42
0.0000001
 43
0.0000001
 44
0.0000000001
 12
0.0118500916
 22
-0.4185219359
 32
0.0
 13
-0.4632858307
 23
0.1660700198
 33
0.0
 40
0.0
 40
0.0
 40
0.0
 40
0.0
 40
0.0833333333
 40
0.1666666667
 40
0.25
 40
0.3333333333
 40
0.4166666667
 40
0.5
 40
0.5833333333
 40
0.6666666667
 40
0.75
 40
0.8333333333
 40
0.9166666667
 40
1.0
 40
1.0
 40
1.0
 40
1.0
 10
-2.2688630578
 20
-21.2156521304
 30
0.0
 10
-2.2685338886
 20
-21.2272777397
 30
0.0
 10
-2.2696775898
 20
-21.2494874052
 30
0.0
 10
-2.2764042866
 20
-21.2812520399
 30
0.0
 10
-2.288367637
 20
-21.3112606726
 30
0.0
 10
-2.3053189423
 20
-21.3381693898
 30
0.0
 10
-2.3268212059
 20
-21.3610989777
 30
0.0
 10
-2.3527785074
 20
-21.3796500515
 30
0.0
 10
-2.3838490981
 20
-21.3932571799
 30
0.0
 10
-2.4185285947
 20
-21.4012565135
 30
0.0
 10
-2.4553256803
 20
-21.4038446734
 30
0.0
 10
-2.4937481358
 20
-21.4013242336
 30
0.0
 10
-2.5319732231
 20
-21.3941686017
 30
0.0
 10
-2.5572707369
 20
-21.3865890232
 30
0.0
 10
-2.5701397878
 20
-21.3819759671
 30
0.0
 11
-2.2688630578
 21
-21.2156521304
 31
0.0
 11
-2.2705127806
 21
-21.2492290946
 31
0.0
 11
-2.2772770622
 21
-21.2809593729
 31
0.0
 11
-2.2891989628
 21
-21.31074402
 31
0.0
 11
-2.3060774353
 21
-21.3375062016
 31
0.0
 11
-2.3275637122
 21
-21.3603692253
 31
0.0
 11
-2.3536307223
 21
-21.3788260606
 31
0.0
 11
-2.3844505824
 21
-21.3923225474
 31
0.0
 11
-2.4188815262
 21
-21.4003546512
 31
0.0
 11
-2.4555965753
 21
-21.4029932401
 31
0.0
 11
-2.4937152411
 21
-21.4005517016
 31
0.0
 11
-2.5319267536
 21
-21.3934663124
 31
0.0
 11
-2.5701397878
 21
-21.3819759671
 31
0.0
  0
SPLINE
  5
230
100
AcDbEntity
  8
0
100
AcDbSpline
 62
253
  6
CONTINUOUS
 70
0
 71
3
 72
13
 73
9
 74
7
 42
0.0000001
 43
0.0000001
 44
0.0000000001
 12
0.0578645383
 22
-0.0207270288
 32
0.0
 13
-0.0022896815
 23
0.0801720345
 33
0.0
 40
0.0
 40
0.0
 40
0.0
 40
0.0
 40
0.1666666667
 40
0.3333333333
 40
0.5
 40
0.6666666667
 40
0.8333333333
 40
1.0
 40
1.0
 40
1.0
 40
1.0
 10
-2.5770879167
 20
-21.1418662134
 30
0.0
 10
-2.5738732202
 20
-21.143017715
 30
0.0
 10
-2.5672117583
 20
-21.144783314
 30
0.0
 10
-2.5562969851
 20
-21.1459497142
 30
0.0
 10
-2.5451376289
 20
-21.1452544861
 30
0.0
 10
-2.5347216513
 20
-21.1422853663
 30
0.0
 10
-2.5261690272
 20
-21.1361023538
 30
0.0
 10
-2.5235750607
 20
-21.1291346851
 30
0.0
 10
-2.5237022652
 20
-21.1246806831
 30
0.0
 11
-2.5770879167
 21
-21.1418662134
 31
0.0
 11
-2.5670579949
 21
-21.1445363143
 31
0.0
 11
-2.5562562213
 21
-21.1456394428
 31
0.0
 11
-2.5452615254
 21
-21.1448755042
 31
0.0
 11
-2.5350322102
 21
-21.1417497175
 31
0.0
 11
-2.5269459729
 21
-21.1353909387
 31
0.0
 11
-2.5237022652
 21
-21.1246806831
 31
0.0
  0
SPLINE
  5
231
100
AcDbEntity
  8
0
100
AcDbSpline
 62
253
  6
CONTINUOUS
 70
0
 71
3
 72
22
 73
18
 74
16
 42
0.0000001
 43
0.0000001
 44
0.0000000001
 12
0.0100655488
 22
-0.3311009593
 32
0.0
 13
-0.0107511893
 23
0.3510893976
 33
0.0
 40
0.0
 40
0.0
 40
0.0
 40
0.0
 40
0.1111111111
 40
0.2222222222
 40
0.3333333333
 40
0.3888888889
 40
0.4444444444
 40
0.5
 40
0.5555555556
 40
0.6111111111
 40
0.6666666667
 40
0.7222222222
 40
0.7777777778
 40
0.8333333333
 40
0.8888888889
 40
0.9444444444
 40
1.0
 40
1.0
 40
1.0
 40
1.0
 10
-3.1420600071
 20
-21.4921876552
 30
0.0
 10
-3.141687209
 20
-21.5044506537
 30
0.0
 10
-3.146664037
 20
-21.5259547107
 30
0.0
 10
-3.1657909013
 20
-21.5516568246
 30
0.0
 10
-3.1910943406
 20
-21.566654475
 30
0.0
 10
-3.2154258761
 20
-21.5724111748
 30
0.0
 10
-3.2352927336
 20
-21.5731128195
 30
0.0
 10
-3.2563841802
 20
-21.5696409384
 30
0.0
 10
-3.2781589049
 20
-21.561276764
 30
0.0
 10
-3.3003361491
 20
-21.5479321839
 30
0.0
 10
-3.3217943156
 20
-21.5306797965
 30
0.0
 10
-3.3421616077
 20
-21.5100386171
 30
0.0
 10
-3.3602173911
 20
-21.4873374758
 30
0.0
 10
-3.3749213092
 20
-21.4643137539
 30
0.0
 10
-3.3862018394
 20
-21.4412897189
 30
0.0
 10
-3.3933161063
 20
-21.4198032993
 30
0.0
 10
-3.3953169057
 20
-21.406584802
 30
0.0
 10
-3.3955160018
 20
-21.4000831465
 30
0.0
 11
-3.1420600071
 21
-21.4921876552
 31
0.0
 11
-3.1486076407
 21
-21.5248623821
 31
0.0
 11
-3.1676637784
 21
-21.550372669
 31
0.0
 11
-3.1975179565
 21
-21.5675735316
 31
0.0
 11
-3.2156955771
 21
-21.5718085281
 31
0.0
 11
-3.2354968318
 21
-21.5724172319
 31
0.0
 11
-3.2564980599
 21
-21.5688255562
 31
0.0
 11
-3.2782259915
 21
-21.5604466964
 31
0.0
 11
-3.3002163028
 21
-21.5472808827
 31
0.0
 11
-3.3216125032
 21
-21.5301149979
 31
0.0
 11
-3.3417763563
 21
-21.5096952901
 31
0.0
 11
-3.3596587469
 21
-21.4872837124
 31
0.0
 11
-3.3743507446
 21
-21.4643137017
 31
0.0
 11
-3.3855074622
 21
-21.4415459881
 31
0.0
 11
-3.392630595
 21
-21.4200797449
 31
0.0
 11
-3.3955160018
 21
-21.4000831465
 31
0.0
  0
SPLINE
  5
232
100
AcDbEntity
  8
0
100
AcDbSpline
 62
253
  6
CONTINUOUS
 70
0
 71
3
 72
8
 73
4
 74
2
 42
0.0000001
 43
0.0000001
 44
0.0000000001
 12
0.0631318619
 22
-2.6517708025
 32
0.0
 13
0.0776521038
 23
-2.6390971088
 33
0.0
 40
0.0
 40
0.0
 40
0.0
 40
0.0
 40
1.0
 40
1.0
 40
1.0
 40
1.0
 10
-3.4827114318
 20
-18.1949580088
 30
0.0
 10
-3.4616674779
 20
-19.0788816096
 30
0.0
 10
-3.4382031096
 20
-19.9607060193
 30
0.0
 10
-3.412319075
 20
-20.8404050556
 30
0.0
 11
-3.4827114318
 21
-18.1949580088
 31
0.0
 11
-3.412319075
 21
-20.8404050556
 31
0.0
  0
SPLINE
  5
233
100
AcDbEntity
  8
0
100
AcDbSpline
 62
253
  6
CONTINUOUS
 70
0
 71
3
 72
17
 73
13
 74
11
 42
0.0000001
 43
0.0000001
 44
0.0000000001
 12
-0.5003673317
 22
0.183996777
 32
0.0
 13
-0.0122532971
 23
0.4082234427
 33
0.0
 40
0.0
 40
0.0
 40
0.0
 40
0.0
 40
0.1666666667
 40
0.25
 40
0.3333333333
 40
0.4166666667
 40
0.5
 40
0.6666666667
 40
0.75
 40
0.8333333333
 40
0.9166666667
 40
1.0
 40
1.0
 40
1.0
 40
1.0
 10
-3.9843398046
 20
-20.86851486
 30
0.0
 10
-4.0121379897
 20
-20.8582928168
 30
0.0
 10
-4.0521702231
 20
-20.8383717437
 30
0.0
 10
-4.1026783486
 20
-20.8044943062
 30
0.0
 10
-4.1385869241
 20
-20.7758246465
 30
0.0
 10
-4.1732818145
 20
-20.7429440222
 30
0.0
 10
-4.2152509561
 20
-20.6952509888
 30
0.0
 10
-4.2495382229
 20
-20.642422834
 30
0.0
 10
-4.2742347467
 20
-20.5893810152
 30
0.0
 10
-4.2878707975
 20
-20.5502258517
 30
0.0
 10
-4.2962772288
 20
-20.5134477705
 30
0.0
 10
-4.2986406369
 20
-20.4904563497
 30
0.0
 10
-4.2989810063
 20
-20.4791168096
 30
0.0
 11
-3.9843398046
 21
-20.86851486
 31
0.0
 11
-4.064558239
 21
-20.8292927171
 31
0.0
 11
-4.1023495955
 21
-20.8039507093
 31
0.0
 11
-4.1383846433
 21
-20.7751228191
 31
0.0
 11
-4.1727454754
 21
-20.7424624971
 31
0.0
 11
-4.2041185144
 21
-20.7067463204
 31
0.0
 11
-4.2549131252
 21
-20.629144574
 31
0.0
 11
-4.2734203563
 21
-20.589485382
 31
0.0
 11
-4.2869991943
 21
-20.5506220321
 31
0.0
 11
-4.2954670089
 21
-20.5138295955
 31
0.0
 11
-4.2989810063
 21
-20.4791168096
 31
0.0
  0
SPLINE
  5
234
100
AcDbEntity
  8
0
100
AcDbSpline
 62
253
  6
CONTINUOUS
 70
0
 71
3
 72
16
 73
12
 74
10
 42
0.0000001
 43
0.0000001
 44
0.0000000001
 12
-0.0720735737
 22
0.026488187
 32
0.0
 13
-0.0020105083
 23
0.0673842754
 33
0.0
 40
0.0
 40
0.0
 40
0.0
 40
0.0
 40
0.125
 40
0.25
 40
0.375
 40
0.5
 40
0.625
 40
0.6875
 40
0.75
 40
0.875
 40
1.0
 40
1.0
 40
1.0
 40
1.0
 10
-3.9915690905
 20
-20.6286354166
 30
0.0
 10
-3.9945721561
 20
-20.6275317421
 30
0.0
 10
-4.0003556778
 20
-20.6248809924
 30
0.0
 10
-4.0094045821
 20
-20.6195417291
 30
0.0
 10
-4.0185000453
 20
-20.6129827208
 30
0.0
 10
-4.0270541833
 20
-20.6055793699
 30
0.0
 10
-4.0333759763
 20
-20.5989394935
 30
0.0
 10
-4.0377927557
 20
-20.5933791733
 30
0.0
 10
-4.0416175192
 20
-20.5877980097
 30
0.0
 10
-4.0452743321
 20
-20.5806885509
 30
0.0
 10
-4.0465706523
 20
-20.5749541566
 30
0.0
 10
-4.0466544235
 20
-20.5721464784
 30
0.0
 11
-3.9915690905
 21
-20.6286354166
 31
0.0
 11
-4.0004179481
 21
-20.6246538026
 31
0.0
 11
-4.0094123419
 21
-20.6193384383
 31
0.0
 11
-4.0184098244
 21
-20.6128419971
 31
0.0
 11
-4.0268928523
 21
-20.6054852865
 31
0.0
 11
-4.0344267832
 21
-20.5975287118
 31
0.0
 11
-4.0377187537
 21
-20.5933765679
 31
0.0
 11
-4.0405863856
 21
-20.5891844337
 31
0.0
 11
-4.0448670496
 21
-20.5806768441
 31
0.0
 11
-4.0466544235
 21
-20.5721464784
 31
0.0
  0
SPLINE
  5
235
100
AcDbEntity
  8
0
100
AcDbSpline
 62
253
  6
CONTINUOUS
 70
0
 71
3
 72
8
 73
4
 74
2
 42
0.0000001
 43
0.0000001
 44
0.0000000001
 12
-0.0765293471
 22
2.5649605673
 32
0.0
 13
-0.0625802613
 23
2.5771467655
 33
0.0
 40
0.0
 40
0.0
 40
0.0
 40
0.0
 40
1.0
 40
1.0
 40
1.0
 40
1.0
 10
-4.0466544235
 20
-20.5721464784
 30
0.0
 10
-4.0721642058
 20
-19.7171596226
 30
0.0
 10
-4.0953494996
 20
-18.8601293306
 30
0.0
 10
-4.1162095867
 20
-18.0010804088
 30
0.0
 11
-4.0466544235
 21
-20.5721464784
 31
0.0
 11
-4.1162095867
 21
-18.0010804088
 31
0.0
  0
SPLINE
  5
236
100
AcDbEntity
  8
0
100
AcDbSpline
 62
253
  6
CONTINUOUS
 70
0
 71
3
 72
19
 73
15
 74
13
 42
0.0000001
 43
0.0000001
 44
0.0000000001
 12
-0.0102546835
 22
0.4197873313
 32
0.0
 13
0.4606333429
 23
-0.1682717952
 33
0.0
 40
0.0
 40
0.0
 40
0.0
 40
0.0
 40
0.0833333333
 40
0.1666666667
 40
0.25
 40
0.3333333333
 40
0.4166666667
 40
0.5
 40
0.5833333333
 40
0.6666666667
 40
0.75
 40
0.8333333333
 40
0.9166666667
 40
1.0
 40
1.0
 40
1.0
 40
1.0
 10
-4.3689449056
 20
-17.9083855569
 30
0.0
 10
-4.3692297579
 20
-17.8967247977
 30
0.0
 10
-4.368015063
 20
-17.8744588669
 30
0.0
 10
-4.3612244026
 20
-17.84264329
 30
0.0
 10
-4.3492403164
 20
-17.8126183211
 30
0.0
 10
-4.3323115676
 20
-17.7857266459
 30
0.0
 10
-4.3108716853
 20
-17.7628451661
 30
0.0
 10
-4.2850149873
 20
-17.7443724969
 30
0.0
 10
-4.2540833754
 20
-17.7308765972
 30
0.0
 10
-4.2195725917
 20
-17.723015749
 30
0.0
 10
-4.1829660611
 20
-17.7205840128
 30
0.0
 10
-4.1447492539
 20
-17.7232739516
 30
0.0
 10
-4.1067335206
 20
-17.7306033782
 30
0.0
 10
-4.0815787752
 20
-17.7383010458
 30
0.0
 10
-4.0687834046
 20
-17.7429752623
 30
0.0
 11
-4.3689449056
 21
-17.9083855569
 31
0.0
 11
-4.36718696
 21
-17.8747227534
 31
0.0
 11
-4.3603588316
 21
-17.8429417246
 31
0.0
 11
-4.348416206
 21
-17.8131405367
 31
0.0
 11
-4.331559712
 21
-17.7863950118
 31
0.0
 11
-4.3101355493
 21
-17.7635799679
 31
0.0
 11
-4.2841691683
 21
-17.7452019585
 31
0.0
 11
-4.2534868468
 21
-17.7318157724
 31
0.0
 11
-4.2192233005
 21
-17.723920601
 31
0.0
 11
-4.1826976816
 21
-17.7214376253
 31
0.0
 11
-4.1447827662
 21
-17.7240471996
 31
0.0
 11
-4.1067807898
 21
-17.731306224
 31
0.0
 11
-4.0687834046
 21
-17.7429752623
 31
0.0
  0
SPLINE
  5
237
100
AcDbEntity
  8
0
100
AcDbSpline
 62
253
  6
CONTINUOUS
 70
0
 71
3
 72
8
 73
4
 74
2
 42
0.0000001
 43
0.0000001
 44
0.0000000001
 12
0.5793544301
 22
-0.2116530169
 32
0.0
 13
0.5812532867
 23
-0.2099755256
 33
0.0
 40
0.0
 40
0.0
 40
0.0
 40
0.0
 40
1.0
 40
1.0
 40
1.0
 40
1.0
 10
-4.0630172331
 20
-17.9840976513
 30
0.0
 10
-3.8698990897
 20
-18.0546486569
 30
0.0
 10
-3.6764636168
 20
-18.124920406
 30
0.0
 10
-3.4827125213
 20
-18.1949122479
 30
0.0
 11
-4.0630172331
 21
-17.9840976513
 31
0.0
 11
-3.4827125213
 21
-18.1949122479
 31
0.0
  0
SPLINE
  5
238
100
AcDbEntity
  8
0
100
AcDbSpline
 62
253
  6
CONTINUOUS
 70
0
 71
3
 72
13
 73
9
 74
7
 42
0.0000001
 43
0.0000001
 44
0.0000000001
 12
-0.0019537832
 22
0.0804596513
 32
0.0
 13
0.0575129223
 23
-0.0210192485
 33
0.0
 40
0.0
 40
0.0
 40
0.0
 40
0.0
 40
0.1666666667
 40
0.3333333333
 40
0.5
 40
0.6666666667
 40
0.8333333333
 40
1.0
 40
1.0
 40
1.0
 40
1.0
 10
-4.1162095867
 20
-18.0010804088
 30
0.0
 10
-4.1163181302
 20
-17.9966104282
 30
0.0
 10
-4.1137092365
 20
-17.9896308535
 30
0.0
 10
-4.105174606
 20
-17.9834635551
 30
0.0
 10
-4.0947997826
 20
-17.9805283977
 30
0.0
 10
-4.0836933275
 20
-17.9798760173
 30
0.0
 10
-4.0728365046
 20
-17.9810891816
 30
0.0
 10
-4.0662134486
 20
-17.9828863455
 30
0.0
 10
-4.0630182862
 20
-17.9840540815
 30
0.0
 11
-4.1162095867
 21
-18.0010804088
 31
0.0
 11
-4.1129390215
 21
-17.9903478641
 31
0.0
 11
-4.1048679072
 21
-17.9840022453
 31
0.0
 11
-4.094677844
 21
-17.9809088606
 31
0.0
 11
-4.0837349329
 21
-17.9801869414
 31
0.0
 11
-4.0729902111
 21
-17.9813362785
 31
0.0
 11
-4.0630182862
 21
-17.9840540815
 31
0.0
  0
HATCH
  5
239
100
AcDbEntity
  8
0
100
AcDbHatch
 62
7
  6
CONTINUOUS
 10
0.0
 20
0.0
 30
0.0
210
0.0
220
0.0
230
1.0
  2
XSEC0003
 70
1
 71
1
 91
3
 92
1
 93
16
 72
2
 10
58.9948570915
 20
150.4509361036
 40
182.5287502835
 50
249.8159377462
 51
250.0095047933
 73
1
 72
4
 94
3
 73
0
 74
0
 95
17
 96
13
 40
0.0
 40
0.0
 40
0.0
 40
0.0
 40
0.1666666667
 40
0.25
 40
0.3333333333
 40
0.4166666667
 40
0.5
 40
0.6666666667
 40
0.75
 40
0.8333333333
 40
0.9166666667
 40
1.0
 40
1.0
 40
1.0
 40
1.0
 10
-3.9843398046
 20
-20.86851486
 10
-4.0121379897
 20
-20.8582928168
 10
-4.0521702231
 20
-20.8383717437
 10
-4.1026783486
 20
-20.8044943062
 10
-4.1385869241
 20
-20.7758246465
 10
-4.1732818145
 20
-20.7429440222
 10
-4.2152509561
 20
-20.6952509888
 10
-4.2495382229
 20
-20.642422834
 10
-4.2742347467
 20
-20.5893810152
 10
-4.2878707975
 20
-20.5502258517
 10
-4.2962772288
 20
-20.5134477705
 10
-4.2986406369
 20
-20.4904563497
 10
-4.2989810063
 20
-20.4791168096
 72
2
 10
456.0658246234
 20
-6.6637115886
 40
460.5720569942
 50
181.3989914785
 51
181.7189127129
 73
1
 72
4
 94
3
 73
0
 74
0
 95
19
 96
15
 40
0.0
 40
0.0
 40
0.0
 40
0.0
 40
0.0833333333
 40
0.1666666667
 40
0.25
 40
0.3333333333
 40
0.4166666667
 40
0.5
 40
0.5833333333
 40
0.6666666667
 40
0.75
 40
0.8333333333
 40
0.9166666667
 40
1.0
 40
1.0
 40
1.0
 40
1.0
 10
-4.3689449056
 20
-17.9083855569
 10
-4.3692297579
 20
-17.8967247977
 10
-4.368015063
 20
-17.8744588669
 10
-4.3612244026
 20
-17.84264329
 10
-4.3492403164
 20
-17.8126183211
 10
-4.3323115676
 20
-17.7857266459
 10
-4.3108716853
 20
-17.7628451661
 10
-4.2850149873
 20
-17.7443724969
 10
-4.2540833754
 20
-17.7308765972
 10
-4.2195725917
 20
-17.723015749
 10
-4.1829660611
 20
-17.7205840128
 10
-4.1447492539
 20
-17.7232739516
 10
-4.1067335206
 20
-17.7306033782
 10
-4.0815787752
 20
-17.7383010458
 10
-4.0687834046
 20
-17.7429752623
 72
2
 10
54.4357240969
 20
142.4740431482
 40
170.5646045729
 50
249.9399410173
 51
250.1473596535
 73
1
 72
1
 10
-3.4883912998
 20
-17.9538093566
 11
-3.4957754272
 21
-17.6322170447
 72
4
 94
3
 73
0
 74
0
 95
22
 96
18
 40
0.0
 40
0.0
 40
0.0
 40
0.0
 40
0.1111111111
 40
0.2222222222
 40
0.3333333333
 40
0.3888888889
 40
0.4444444444
 40
0.5
 40
0.5555555556
 40
0.6111111111
 40
0.6666666667
 40
0.7222222222
 40
0.7777777778
 40
0.8333333333
 40
0.8888888889
 40
0.9444444444
 40
1.0
 40
1.0
 40
1.0
 40
1.0
 10
-3.4957754272
 20
-17.6322170447
 10
-3.4960544436
 20
-17.6198837555
 10
-3.4908934027
 20
-17.5982347276
 10
-3.4714970428
 20
-17.5723050267
 10
-3.4459705873
 20
-17.5571001442
 10
-3.421474984
 20
-17.5511854192
 10
-3.4014981603
 20
-17.5503753939
 10
-3.3803132213
 20
-17.553756019
 10
-3.3584726476
 20
-17.5620556407
 10
-3.3362583876
 20
-17.5753715204
 10
-3.3147941584
 20
-17.5926283637
 10
-3.2944527898
 20
-17.6133036013
 10
-3.2764526986
 20
-17.6360664046
 10
-3.261830051
 20
-17.6591714754
 10
-3.2506548673
 20
-17.6822955373
 10
-3.243664084
 20
-17.7038940221
 10
-3.2417571384
 20
-17.7171941266
 10
-3.2416101061
 20
-17.7237405073
 72
1
 10
-3.2416101061
 20
-17.7237405073
 11
-3.2342782029
 21
-18.0453755988
 72
2
 10
54.946478922
 20
143.8925188806
 40
172.0723642842
 50
250.2377488587
 51
250.4438805493
 73
1
 72
4
 94
3
 73
0
 74
0
 95
17
 96
13
 40
0.0
 40
0.0
 40
0.0
 40
0.0
 40
0.1666666667
 40
0.25
 40
0.3333333333
 40
0.4166666667
 40
0.5
 40
0.6666666667
 40
0.75
 40
0.8333333333
 40
0.9166666667
 40
1.0
 40
1.0
 40
1.0
 40
1.0
 10
-2.6513001741
 20
-18.2537469183
 10
-2.6232012544
 20
-18.263733494
 10
-2.5827608665
 20
-18.2833351112
 10
-2.5317858308
 20
-18.3168382162
 10
-2.4955707759
 20
-18.3452587257
 10
-2.4606108966
 20
-18.3779195544
 10
-2.4183699741
 20
-18.425384691
 10
-2.3839503994
 20
-18.478103703
 10
-2.3592658211
 20
-18.5311526558
 10
-2.3457085587
 20
-18.5703682669
 10
-2.3374442518
 20
-18.6072534451
 10
-2.3352134378
 20
-18.6303460779
 10
-2.3349506825
 20
-18.6417456194
 72
2
 10
486.9407836696
 20
-7.3669033397
 40
489.4056255237
 50
181.3200870617
 51
181.6215195464
 73
1
 72
4
 94
3
 73
0
 74
0
 95
19
 96
15
 40
0.0
 40
0.0
 40
0.0
 40
0.0
 40
0.0833333333
 40
0.1666666667
 40
0.25
 40
0.3333333333
 40
0.4166666667
 40
0.5
 40
0.5833333333
 40
0.6666666667
 40
0.75
 40
0.8333333333
 40
0.9166666667
 40
1.0
 40
1.0
 40
1.0
 40
1.0
 10
-2.2688630578
 20
-21.2156521304
 10
-2.2685338886
 20
-21.2272777397
 10
-2.2696775898
 20
-21.2494874052
 10
-2.2764042866
 20
-21.2812520399
 10
-2.288367637
 20
-21.3112606726
 10
-2.3053189423
 20
-21.3381693898
 10
-2.3268212059
 20
-21.3610989777
 10
-2.3527785074
 20
-21.3796500515
 10
-2.3838490981
 20
-21.3932571799
 10
-2.4185285947
 20
-21.4012565135
 10
-2.4553256803
 20
-21.4038446734
 10
-2.4937481358
 20
-21.4013242336
 10
-2.5319732231
 20
-21.3941686017
 10
-2.5572707369
 20
-21.3865890232
 10
-2.5701397878
 20
-21.3819759671
 72
2
 10
59.502647114
 20
151.8503630285
 40
184.0175547507
 50
250.0938720329
 51
250.2863266139
 73
1
 72
1
 10
-3.151672244
 20
-21.1724205038
 11
-3.1420600071
 21
-21.4921876552
 72
4
 94
3
 73
0
 74
0
 95
22
 96
18
 40
0.0
 40
0.0
 40
0.0
 40
0.0
 40
0.1111111111
 40
0.2222222222
 40
0.3333333333
 40
0.3888888889
 40
0.4444444444
 40
0.5
 40
0.5555555556
 40
0.6111111111
 40
0.6666666667
 40
0.7222222222
 40
0.7777777778
 40
0.8333333333
 40
0.8888888889
 40
0.9444444444
 40
1.0
 40
1.0
 40
1.0
 40
1.0
 10
-3.1420600071
 20
-21.4921876552
 10
-3.141687209
 20
-21.5044506537
 10
-3.146664037
 20
-21.5259547107
 10
-3.1657909013
 20
-21.5516568246
 10
-3.1910943406
 20
-21.566654475
 10
-3.2154258761
 20
-21.5724111748
 10
-3.2352927336
 20
-21.5731128195
 10
-3.2563841802
 20
-21.5696409384
 10
-3.2781589049
 20
-21.561276764
 10
-3.3003361491
 20
-21.5479321839
 10
-3.3217943156
 20
-21.5306797965
 10
-3.3421616077
 20
-21.5100386171
 10
-3.3602173911
 20
-21.4873374758
 10
-3.3749213092
 20
-21.4643137539
 10
-3.3862018394
 20
-21.4412897189
 10
-3.3933161063
 20
-21.4198032993
 10
-3.3953169057
 20
-21.406584802
 10
-3.3955160018
 20
-21.4000831465
 72
1
 10
-3.3955160018
 20
-21.4000831465
 11
-3.4051967523
 21
-21.0803721181
 97
28
330
21D
330
21E
330
21F
330
220
330
221
330
222
330
223
330
224
330
225
330
226
330
227
330
228
330
229
330
22A
330
22B
330
22C
330
22D
330
22E
330
22F
330
230
330
231
330
232
330
233
330
234
330
235
330
236
330
237
330
238
 92
1
 93
6
 72
4
 94
3
 73
0
 74
0
 95
13
 96
9
 40
0.0
 40
0.0
 40
0.0
 40
0.0
 40
0.1666666667
 40
0.3333333333
 40
0.5
 40
0.6666666667
 40
0.8333333333
 40
1.0
 40
1.0
 40
1.0
 40
1.0
 10
-2.5770879167
 20
-21.1418662134
 10
-2.5738732202
 20
-21.143017715
 10
-2.5672117583
 20
-21.144783314
 10
-2.5562969851
 20
-21.1459497142
 10
-2.5451376289
 20
-21.1452544861
 10
-2.5347216513
 20
-21.1422853663
 10
-2.5261690272
 20
-21.1361023538
 10
-2.5235750607
 20
-21.1291346851
 10
-2.5237022652
 20
-21.1246806831
 72
2
 10
59.0835532511
 20
151.0690471905
 40
182.9169734564
 50
250.1062962444
 51
250.2999341492
 73
1
 72
2
 10
471.7551748504
 20
-7.062977081
 40
475.1163980562
 50
181.3536127063
 51
181.6727963977
 73
1
 72
2
 10
55.2351536236
 20
144.3523566892
 40
172.8277975703
 50
250.2280226798
 51
250.4332316567
 73
1
 72
4
 94
3
 73
0
 74
0
 95
16
 96
12
 40
0.0
 40
0.0
 40
0.0
 40
0.0
 40
0.125
 40
0.25
 40
0.3125
 40
0.375
 40
0.5
 40
0.625
 40
0.75
 40
0.875
 40
1.0
 40
1.0
 40
1.0
 40
1.0
 10
-2.590349573
 20
-18.5512326377
 10
-2.5904151819
 20
-18.5484105693
 10
-2.5916888921
 20
-18.5426588029
 10
-2.595343485
 20
-18.5355507595
 10
-2.5991780509
 20
-18.5299812824
 10
-2.6036118609
 20
-18.5244392063
 10
-2.6099672806
 20
-18.5178313387
 10
-2.6185800039
 20
-18.5104767343
 10
-2.6277482311
 20
-18.5039748127
 10
-2.6368798779
 20
-18.4986969345
 10
-2.6427230423
 20
-18.4960889852
 10
-2.6457591439
 20
-18.4950092997
 72
2
 10
482.3136550479
 20
-7.2807474453
 40
485.0349652694
 50
181.3314696986
 51
181.6355659689
 73
1
 97
28
330
21D
330
21E
330
21F
330
220
330
221
330
222
330
223
330
224
330
225
330
226
330
227
330
228
330
229
330
22A
330
22B
330
22C
330
22D
330
22E
330
22F
330
230
330
231
330
232
330
233
330
234
330
235
330
236
330
237
330
238
 92
1
 93
6
 72
4
 94
3
 73
0
 74
0
 95
8
 96
4
 40
0.0
 40
0.0
 40
0.0
 40
0.0
 40
1.0
 40
1.0
 40
1.0
 40
1.0
 10
-3.4827114318
 20
-18.1949580088
 10
-3.4616674779
 20
-19.0788816096
 10
-3.4382031096
 20
-19.9607060193
 10
-3.412319075
 20
-20.8404050556
 72
4
 94
3
 73
0
 74
0
 95
8
 96
4
 40
0.0
 40
0.0
 40
0.0
 40
0.0
 40
1.0
 40
1.0
 40
1.0
 40
1.0
 10
-4.0630172331
 20
-17.9840976513
 10
-3.8698990897
 20
-18.0546486569
 10
-3.6764636168
 20
-18.124920406
 10
-3.4827125213
 20
-18.1949122479
 72
4
 94
3
 73
0
 74
0
 95
13
 96
9
 40
0.0
 40
0.0
 40
0.0
 40
0.0
 40
0.1666666667
 40
0.3333333333
 40
0.5
 40
0.6666666667
 40
0.8333333333
 40
1.0
 40
1.0
 40
1.0
 40
1.0
 10
-4.1162095867
 20
-18.0010804088
 10
-4.1163181302
 20
-17.9966104282
 10
-4.1137092365
 20
-17.9896308535
 10
-4.105174606
 20
-17.9834635551
 10
-4.0947997826
 20
-17.9805283977
 10
-4.0836933275
 20
-17.9798760173
 10
-4.0728365046
 20
-17.9810891816
 10
-4.0662134486
 20
-17.9828863455
 10
-4.0630182862
 20
-17.9840540815
 72
4
 94
3
 73
0
 74
0
 95
8
 96
4
 40
0.0
 40
0.0
 40
0.0
 40
0.0
 40
1.0
 40
1.0
 40
1.0
 40
1.0
 10
-4.0466544235
 20
-20.5721464784
 10
-4.0721642058
 20
-19.7171596226
 10
-4.0953494996
 20
-18.8601293306
 10
-4.1162095867
 20
-18.0010804088
 72
4
 94
3
 73
0
 74
0
 95
16
 96
12
 40
0.0
 40
0.0
 40
0.0
 40
0.0
 40
0.125
 40
0.25
 40
0.375
 40
0.5
 40
0.625
 40
0.6875
 40
0.75
 40
0.875
 40
1.0
 40
1.0
 40
1.0
 40
1.0
 10
-3.9915690905
 20
-20.6286354166
 10
-3.9945721561
 20
-20.6275317421
 10
-4.0003556778
 20
-20.6248809924
 10
-4.0094045821
 20
-20.6195417291
 10
-4.0185000453
 20
-20.6129827208
 10
-4.0270541833
 20
-20.6055793699
 10
-4.0333759763
 20
-20.5989394935
 10
-4.0377927557
 20
-20.5933791733
 10
-4.0416175192
 20
-20.5877980097
 10
-4.0452743321
 20
-20.5806885509
 10
-4.0465706523
 20
-20.5749541566
 10
-4.0466544235
 20
-20.5721464784
 72
2
 10
58.575533462
 20
149.6680608749
 40
181.426620789
 50
249.826643467
 51
250.021408447
 73
1
 97
28
330
21D
330
21E
330
21F
330
220
330
221
330
222
330
223
330
224
330
225
330
226
330
227
330
228
330
229
330
22A
330
22B
330
22C
330
22D
330
22E
330
22F
330
230
330
231
330
232
330
233
330
234
330
235
330
236
330
237
330
238
 75
0
 76
1
 98
1
 10
0.0
 20
0.0
  0
LWPOLYLINE
  5
23A
100
AcDbEntity
  8
ASSI
100
AcDbPolyline
 62
7
  6
CONTINUOUS
 90
12
 70
0
 10
-13.7625175424
 20
22.2288796081
 10
-13.7649360687
 20
22.2267342554
 10
-13.7826898034
 20
22.2090950207
 10
-13.7983792476
 20
22.1902072575
 10
-13.8125187326
 20
22.1696783041
 10
-13.8250151154
 20
22.1476753986
 10
-13.83542163
 20
22.1251993246
 10
-13.8440251081
 20
22.1018497464
 10
-13.8508515496
 20
22.0772592709
 10
-13.8554843525
 20
22.0526044784
 10
-13.8578994252
 20
22.0280572002
 10
-13.8582719525
 20
22.0138953772
  0
LINE
  5
23B
100
AcDbEntity
  8
ASSI
100
AcDbLine
 62
7
  6
CONTINUOUS
 10
-12.5010171407
 20
23.333862985
 11
-13.7625763486
 21
22.2288282459
  0
LINE
  5
23C
100
AcDbEntity
  8
ASSI
100
AcDbLine
 62
253
  6
CONTINUOUS
 10
-12.3719825729
 20
23.344931201
 11
-13.6327984496
 21
22.2405475664
  0
LINE
  5
23D
100
AcDbEntity
  8
ASSI
100
AcDbLine
 62
7
  6
CONTINUOUS
 10
-12.4963593739
 20
23.3376803528
 11
-12.5009734659
 21
23.333901241
  0
LINE
  5
23E
100
AcDbEntity
  8
ASSI
100
AcDbLine
 62
7
  6
CONTINUOUS
 10
-12.4963243007
 20
23.3377072321
 11
-12.0520469224
 21
23.6776407956
  0
LINE
  5
23F
100
AcDbEntity
  8
ASSI
100
AcDbLine
 62
253
  6
CONTINUOUS
 10
-12.3719825729
 20
23.344931201
 11
-11.9285115242
 21
23.684247811
  0
LINE
  5
240
100
AcDbEntity
  8
RACCORDO
100
AcDbLine
 62
7
  6
CONTINUOUS
 10
3.4225317996
 20
31.3523644712
 11
3.1166054471
 21
31.1693050388
  0
LINE
  5
241
100
AcDbEntity
  8
RACCORDO
100
AcDbLine
 62
253
  6
CONTINUOUS
 10
3.4246762242
 20
31.348780739
 11
3.0609476167
 21
31.1311337403
  0
LWPOLYLINE
  5
242
100
AcDbEntity
  8
ASSI
100
AcDbPolyline
 62
7
  6
CONTINUOUS
 90
4
 70
0
 10
-11.9746833777
 20
23.7165230306
 10
-12.001678034
 20
23.707067218
 10
-12.0271354255
 20
23.6943257683
 10
-12.0520347232
 20
23.6776499375
  0
LWPOLYLINE
  5
243
100
AcDbEntity
  8
RACCORDO
100
AcDbPolyline
 62
7
  6
CONTINUOUS
 90
3
 70
0
 10
-14.1507606047
 20
20.4371713208
 10
-14.1718642064
 20
20.4072720405
 10
-14.1771998057
 20
20.3978622376
  0
LWPOLYLINE
  5
244
100
AcDbEntity
  8
RACCORDO
100
AcDbPolyline
 62
7
  6
CONTINUOUS
 90
3
 70
0
 10
-14.1135457888
 20
20.4779495395
 10
-14.1271549027
 20
20.4644457566
 10
-14.1507606047
 20
20.4371713208
  0
LWPOLYLINE
  5
245
100
AcDbEntity
  8
ASSI
100
AcDbPolyline
 62
7
  6
CONTINUOUS
 90
19
 70
0
 10
-16.8212011648
 20
17.9210087236
 10
-16.8338598908
 20
17.9088873146
 10
-16.8907641194
 20
17.8498560815
 10
-16.9438774269
 20
17.787515607
 10
-16.9933672983
 20
17.7223998103
 10
-17.0395586631
 20
17.6547088699
 10
-17.0826971548
 20
17.5845303077
 10
-17.1227876712
 20
17.5122334356
 10
-17.159849841
 20
17.4380574141
 10
-17.1939189132
 20
17.3621154841
 10
-17.2249179709
 20
17.2846939578
 10
-17.2527411597
 20
17.2060498248
 10
-17.2773212296
 20
17.1262988225
 10
-17.2985064902
 20
17.04566424
 10
-17.3160975965
 20
16.96442013
 10
-17.3299257786
 20
16.8825762801
 10
-17.3397197297
 20
16.8001702286
 10
-17.3451340849
 20
16.7175070703
 10
-17.3455688094
 20
16.7042752357
  0
LINE
  5
246
100
AcDbEntity
  8
ASSI
100
AcDbLine
 62
7
  6
CONTINUOUS
 10
-16.8216205728
 20
17.9206256354
 11
-14.244964129
 21
20.3538481736
  0
LINE
  5
247
100
AcDbEntity
  8
ASSI
100
AcDbLine
 62
7
  6
CONTINUOUS
 10
-14.1140775353
 20
20.4774487454
 11
-13.2800664289
 21
21.2650332238
  0
LINE
  5
248
100
AcDbEntity
  8
ASSI
100
AcDbLine
 62
253
  6
CONTINUOUS
 10
-13.9165244027
 20
20.3871910333
 11
-16.4933394942
 21
17.9538186787
  0
LINE
  5
249
100
AcDbEntity
  8
0
100
AcDbLine
 62
253
  6
CONTINUOUS
 10
-16.4933394943
 20
17.9538186787
 11
-13.9165244027
 21
20.3871910333
  0
LINE
  5
24A
100
AcDbEntity
  8
RACCORDO
100
AcDbLine
 62
253
  6
CONTINUOUS
 10
-13.7857168693
 20
20.5107169458
 11
-13.2800664289
 21
20.9882195058
  0
LINE
  5
24B
100
AcDbEntity
  8
RACCORDO
100
AcDbLine
 62
7
  6
CONTINUOUS
 10
-14.1140167976
 20
20.477506102
 11
-14.1135617639
 21
20.4779345759
  0
LINE
  5
24C
100
AcDbEntity
  8
ASSI
100
AcDbLine
 62
7
  6
CONTINUOUS
 10
-11.6759333912
 20
20.2304566479
 11
-12.1194044399
 21
19.8479691263
  0
LINE
  5
24D
100
AcDbEntity
  8
ASSI
100
AcDbLine
 62
253
  6
CONTINUOUS
 10
-9.9144765358
 20
22.3579413733
 11
-9.4925777855
 21
22.7059219047
  0
LINE
  5
24E
100
AcDbEntity
  8
ASSI
100
AcDbLine
 62
253
  6
CONTINUOUS
 10
-9.7506710791
 20
22.1283479523
 11
-9.3287723288
 21
22.4763284837
  0
LINE
  5
24F
100
AcDbEntity
  8
ASSI
100
AcDbLine
 62
253
  6
CONTINUOUS
 10
-11.2397597672
 20
21.2794492818
 11
-9.9144765358
 21
22.3579413733
  0
LINE
  5
250
100
AcDbEntity
  8
ASSI
100
AcDbLine
 62
253
  6
CONTINUOUS
 10
-11.0759543106
 20
21.0498558608
 11
-9.7506710791
 21
22.1283479523
  0
LINE
  5
251
100
AcDbEntity
  8
RACCORDO
100
AcDbLine
 62
7
  6
CONTINUOUS
 10
3.4246762242
 20
31.348780739
 11
-5.2779225438
 21
24.5433320424
  0
LINE
  5
252
100
AcDbEntity
  8
RACCORDO
100
AcDbLine
 62
7
  6
CONTINUOUS
 10
-9.6632742713
 20
21.2227427737
 11
2.9694791064
 21
31.0685299992
  0
LINE
  5
253
100
AcDbEntity
  8
RACCORDO
100
AcDbLine
 62
253
  6
CONTINUOUS
 10
-9.6559199559
 20
21.2197891149
 11
3.0609476167
 21
31.1311337403
  0
LINE
  5
254
100
AcDbEntity
  8
RACCORDO
100
AcDbLine
 62
7
  6
CONTINUOUS
 10
2.9890614111
 20
31.083493407
 11
2.9692381188
 21
31.0683112803
  0
LINE
  5
255
100
AcDbEntity
  8
RACCORDO
100
AcDbLine
 62
7
  6
CONTINUOUS
 10
3.0345158382
 20
31.1163377038
 11
2.9890614111
 21
31.083493407
  0
LINE
  5
256
100
AcDbEntity
  8
RACCORDO
100
AcDbLine
 62
253
  6
CONTINUOUS
 10
3.0609476167
 20
31.1311337403
 11
3.1164672447
 21
31.1692223138
  0
LINE
  5
257
100
AcDbEntity
  8
RACCORDO
100
AcDbLine
 62
7
  6
CONTINUOUS
 10
3.4246762242
 20
31.348780739
 11
3.4794994106
 21
31.3862662545
  0
LWPOLYLINE
  5
258
100
AcDbEntity
  8
RACCORDO
100
AcDbPolyline
 62
7
  6
CONTINUOUS
 90
3
 70
0
 10
3.1164731848
 20
31.1692123383
 10
3.0812445045
 20
31.147434009
 10
3.0345158382
 20
31.1163377038
  0
LINE
  5
259
100
AcDbEntity
  8
DRAFT
100
AcDbLine
 62
7
  6
CONTINUOUS
 10
-5.2779225438
 20
24.5433320424
 11
-4.4059596182
 21
25.0650949992
  0
LWPOLYLINE
  5
25A
100
AcDbEntity
  8
ASSI
100
AcDbPolyline
 62
7
  6
CONTINUOUS
 90
4
 70
0
 10
-4.064114419
 20
23.4630201074
 10
-4.1001189226
 20
23.444821211
 10
-4.1329256951
 20
23.4234833231
 10
-4.1387039346
 20
23.4191577169
  0
LINE
  5
25B
100
AcDbEntity
  8
ASSI
100
AcDbLine
 62
253
  6
CONTINUOUS
 10
5.2656279743
 20
-22.759518546
 11
4.8302353093
 21
-22.7615824782
  0
LWPOLYLINE
  5
25C
100
AcDbEntity
  8
ASSI
100
AcDbPolyline
 62
7
  6
CONTINUOUS
 90
12
 70
0
 10
0.1717033262
 20
-25.0898728578
 10
0.2076749964
 20
-25.1013836563
 10
0.2747836387
 20
-25.1170984281
 10
0.3438779713
 20
-25.1259664337
 10
0.4144522335
 20
-25.1277977414
 10
0.4863541652
 20
-25.1223958583
 10
0.5591668839
 20
-25.1095237276
 10
0.6322262947
 20
-25.0890667928
 10
0.7053139441
 20
-25.0608571804
 10
0.7782706807
 20
-25.0246429314
 10
0.8507390565
 20
-24.9802741836
 10
0.8681730794
 20
-24.9682945695
  0
LINE
  5
25D
100
AcDbEntity
  8
ASSI
100
AcDbLine
 62
7
  6
CONTINUOUS
 10
-1.7304509529
 20
-24.4141990912
 11
0.1725529777
 21
-25.0901728795
  0
LINE
  5
25E
100
AcDbEntity
  8
ASSI
100
AcDbLine
 62
7
  6
CONTINUOUS
 10
-3.7115606288
 20
-23.6885855064
 11
-1.7304509529
 21
-24.4141990912
  0
LINE
  5
25F
100
AcDbEntity
  8
ASSI
100
AcDbLine
 62
7
  6
CONTINUOUS
 10
-5.6736028934
 20
-22.9472934537
 11
-3.7115606288
 21
-23.6885855064
  0
LWPOLYLINE
  5
260
100
AcDbEntity
  8
ASSI
100
AcDbPolyline
 62
7
  6
CONTINUOUS
 90
3
 70
0
 10
-9.538664357
 20
-21.41830883
 10
-7.6161211963
 20
-22.1904804731
 10
-5.6736028934
 20
-22.9472934537
  0
LINE
  5
261
100
AcDbEntity
  8
ASSI
100
AcDbLine
 62
7
  6
CONTINUOUS
 10
-11.4407926566
 20
-20.6309498481
 11
-9.538664357
 21
-21.41830883
  0
LWPOLYLINE
  5
262
100
AcDbEntity
  8
ASSI
100
AcDbPolyline
 62
7
  6
CONTINUOUS
 90
3
 70
0
 10
-15.1821018429
 20
-19.0113979758
 10
-13.3220791983
 20
-19.8285843352
 10
-11.4407926604
 20
-20.6309498466
  0
LINE
  5
263
100
AcDbEntity
  8
ASSI
100
AcDbLine
 62
7
  6
CONTINUOUS
 10
-16.9254660634
 20
-18.2231629813
 11
-15.1821018429
 21
-19.0113979758
  0
LWPOLYLINE
  5
264
100
AcDbEntity
  8
ASSI
100
AcDbPolyline
 62
7
  6
CONTINUOUS
 90
9
 70
0
 10
-7.6246689303
 20
20.7327624378
 10
-7.6389666294
 20
20.7191252516
 10
-7.6552476262
 20
20.7001283362
 10
-7.6693951533
 20
20.6792788346
 10
-7.6811900917
 20
20.6568250243
 10
-7.6904894532
 20
20.632933605
 10
-7.6971313445
 20
20.6078186497
 10
-7.7009503118
 20
20.5819247559
 10
-7.7019303738
 20
20.5602442894
  0
LINE
  5
265
100
AcDbEntity
  8
ASSI
100
AcDbLine
 62
7
  6
CONTINUOUS
 10
-7.454499714
 20
20.8818195733
 11
-7.6250097919
 21
20.7324650617
  0
LINE
  5
266
100
AcDbEntity
  8
ASSI
100
AcDbLine
 62
253
  6
CONTINUOUS
 10
-7.2932461364
 20
20.8956201285
 11
-7.4629817114
 21
20.7469440255
  0
LINE
  5
267
100
AcDbEntity
  8
ASSI
100
AcDbLine
 62
7
  6
CONTINUOUS
 10
-9.7506710791
 20
20.571934116
 11
-10.4880795221
 21
19.9359297397
  0
LINE
  5
268
100
AcDbEntity
  8
ASSI
100
AcDbLine
 62
7
  6
CONTINUOUS
 10
-7.4544514706
 20
20.8818618357
 11
-7.4486751136
 21
20.8865887613
  0
LINE
  5
269
100
AcDbEntity
  8
ASSI
100
AcDbLine
 62
7
  6
CONTINUOUS
 10
-3.8031198466
 20
25.3972806764
 11
-9.2222409053
 21
21.0456138311
  0
LINE
  5
26A
100
AcDbEntity
  8
ASSI
100
AcDbLine
 62
7
  6
CONTINUOUS
 10
-3.8677066197
 20
25.4696553834
 11
-9.3546871319
 21
21.0988072216
  0
LINE
  5
26B
100
AcDbEntity
  8
ASSI
100
AcDbLine
 62
253
  6
CONTINUOUS
 10
-3.7758911028
 20
23.3420961723
 11
-6.4654761741
 21
21.2080623244
  0
LINE
  5
26C
100
AcDbEntity
  8
ASSI
100
AcDbLine
 62
253
  6
CONTINUOUS
 10
-3.5736758398
 20
23.0584307914
 11
-6.0938550696
 21
21.0588109108
  0
LINE
  5
26D
100
AcDbEntity
  8
DRAFT
100
AcDbLine
 62
7
  6
CONTINUOUS
 10
-9.4361094978
 20
21.1315082794
 11
-4.4059596182
 21
25.0650949992
  0
LINE
  5
26E
100
AcDbEntity
  8
ASSI
100
AcDbLine
 62
7
  6
CONTINUOUS
 10
-7.4486837165
 20
20.8865821943
 11
-4.1387711546
 21
23.4191225102
  0
LINE
  5
26F
100
AcDbEntity
  8
ASSI
100
AcDbLine
 62
253
  6
CONTINUOUS
 10
-7.2932461364
 20
20.8956201285
 11
-3.9843518674
 21
23.4273813096
  0
LWPOLYLINE
  5
270
100
AcDbEntity
  8
RACCORDO
100
AcDbPolyline
 62
7
  6
CONTINUOUS
 90
3
 70
0
 10
-2.6907634598
 20
21.5132852149
 10
-2.7607609271
 20
21.4762870802
 10
-2.825597122
 20
21.4350405887
  0
LINE
  5
271
100
AcDbEntity
  8
ASSI
100
AcDbLine
 62
7
  6
CONTINUOUS
 10
0.10024377
 20
23.2568129032
 11
-1.1862290706
 21
22.8798174228
  0
LINE
  5
272
100
AcDbEntity
  8
ASSI
100
AcDbLine
 62
253
  6
CONTINUOUS
 10
5.1571686009
 20
-22.5065046895
 11
4.8302353093
 21
-22.5080544816
  0
LWPOLYLINE
  5
273
100
AcDbEntity
  8
ASSI
100
AcDbPolyline
 62
7
  6
CONTINUOUS
 90
10
 70
0
 10
3.2496545338
 20
-24.6754043542
 10
3.2760858604
 20
-24.6841054033
 10
3.3025850318
 20
-24.6891636695
 10
3.3300870911
 20
-24.69082488
 10
3.3579354438
 20
-24.6888894677
 10
3.3852312363
 20
-24.6834010307
 10
3.4116253154
 20
-24.6744932005
 10
3.4365620219
 20
-24.662462107
 10
3.4592337653
 20
-24.6479950842
 10
3.4646361665
 20
-24.6439817671
  0
LINE
  5
274
100
AcDbEntity
  8
ASSI
100
AcDbLine
 62
7
  6
CONTINUOUS
 10
1.9992040825
 20
-24.1731971366
 11
3.2500262652
 21
-24.6755555243
  0
LINE
  5
275
100
AcDbEntity
  8
ASSI
100
AcDbLine
 62
253
  6
CONTINUOUS
 10
2.0846247526
 20
-24.1131467349
 11
3.1995526437
 21
-24.5609269114
  0
LINE
  5
276
100
AcDbEntity
  8
ASSI
100
AcDbLine
 62
253
  6
CONTINUOUS
 10
2.3562959509
 20
-23.9221629303
 11
3.1995526437
 21
-24.2608465991
  0
LINE
  5
277
100
AcDbEntity
  8
ASSI
100
AcDbLine
 62
7
  6
CONTINUOUS
 10
3.7471785086
 20
-23.1893894761
 11
3.5253719955
 21
-23.1003069799
  0
LINE
  5
278
100
AcDbEntity
  8
ASSI
100
AcDbLine
 62
253
  6
CONTINUOUS
 10
3.2715641203
 20
-24.0249599406
 11
2.596070372
 21
-23.7536024371
  0
LINE
  5
279
100
AcDbEntity
  8
ASSI
100
AcDbLine
 62
253
  6
CONTINUOUS
 10
3.2496491662
 20
-24.6754024816
 11
3.2500155731
 21
-24.675551229
  0
LWPOLYLINE
  5
27A
100
AcDbEntity
  8
ASSI
100
AcDbPolyline
 62
7
  6
CONTINUOUS
 90
14
 70
0
 10
-17.3455311615
 20
-17.492815885
 10
-17.3442583987
 20
-17.5230943228
 10
-17.3361280431
 20
-17.6117745061
 10
-17.3218886783
 20
-17.6947508609
 10
-17.3019054235
 20
-17.7721141459
 10
-17.2764385499
 20
-17.8442363875
 10
-17.2456510354
 20
-17.9113730837
 10
-17.2098850509
 20
-17.9733209923
 10
-17.1694312243
 20
-18.0300442757
 10
-17.1244580116
 20
-18.0815820297
 10
-17.0754656198
 20
-18.1275635835
 10
-17.022906538
 20
-18.167797742
 10
-16.9669355689
 20
-18.202305408
 10
-16.9249060824
 20
-18.2234137886
  0
LINE
  5
27B
100
AcDbEntity
  8
ASSI
100
AcDbLine
 62
7
  6
CONTINUOUS
 10
-17.4200485045
 20
-14.7640248718
 11
-17.3455437306
 21
-17.4926063576
  0
LWPOLYLINE
  5
27C
100
AcDbEntity
  8
ASSI
100
AcDbPolyline
 62
7
  6
CONTINUOUS
 90
11
 70
0
 10
-17.4201935652
 20
13.8416847276
 10
-17.482709549
 20
10.9279417503
 10
-17.5313414395
 20
8.0256030716
 10
-17.5660794847
 20
5.1348445657
 10
-17.5869193005
 20
2.2558162965
 10
-17.5938577852
 20
-0.6113407728
 10
-17.5868926929
 20
-3.4664800716
 10
-17.5660256638
 20
-6.3094583066
 10
-17.5312592312
 20
-9.1401392818
 10
-17.4825971628
 20
-11.9583801018
 10
-17.42004854
 20
-14.7640235721
  0
LINE
  5
27D
100
AcDbEntity
  8
ASSI
100
AcDbLine
 62
7
  6
CONTINUOUS
 10
-17.345564975
 20
16.7046316035
 11
-17.4201935652
 21
13.8416847276
  0
LWPOLYLINE
  5
27E
100
AcDbEntity
  8
ASSI
100
AcDbPolyline
 62
7
  6
CONTINUOUS
 90
6
 70
0
 10
-9.3088086457
 20
22.0523951892
 10
-9.3069967014
 20
22.0555113083
 10
-9.2968204734
 20
22.0748628022
 10
-9.2879432126
 20
22.0951808484
 10
-9.2806999151
 20
22.1156003542
 10
-9.274975625
 20
22.1362415661
  0
LINE
  5
27F
100
AcDbEntity
  8
ASSI
100
AcDbLine
 62
253
  6
CONTINUOUS
 10
-9.3152784141
 20
22.0898372563
 11
-9.7506710791
 21
21.3514184015
  0
LINE
  5
280
100
AcDbEntity
  8
ASSI
100
AcDbLine
 62
7
  6
CONTINUOUS
 10
-9.3088040587
 20
22.0524029623
 11
-9.7506710791
 21
21.3030037064
  0
LINE
  5
281
100
AcDbEntity
  8
RACCORDO
100
AcDbLine
 62
7
  6
CONTINUOUS
 10
-7.7799194642
 20
17.9225921435
 11
-9.0407353409
 21
16.7536625147
  0
LINE
  5
282
100
AcDbEntity
  8
ASSI
100
AcDbLine
 62
7
  6
CONTINUOUS
 10
-7.7799194642
 20
17.9225921435
 11
-9.0407353409
 21
16.7536625147
  0
LINE
  5
283
100
AcDbEntity
  8
ASSI
100
AcDbLine
 62
253
  6
CONTINUOUS
 10
-4.7128548165
 20
19.8592768009
 11
-4.1870203731
 21
20.2929831082
  0
LINE
  5
284
100
AcDbEntity
  8
RACCORDO
100
AcDbLine
 62
7
  6
CONTINUOUS
 10
-7.7799194642
 20
17.1750190678
 11
-8.6852142717
 21
16.4283352532
  0
LINE
  5
285
100
AcDbEntity
  8
ASSI
100
AcDbLine
 62
7
  6
CONTINUOUS
 10
-7.7799194642
 20
17.1750190678
 11
-8.6852142717
 21
16.4283352532
  0
LINE
  5
286
100
AcDbEntity
  8
ASSI
100
AcDbLine
 62
253
  6
CONTINUOUS
 10
-4.5080979956
 20
19.5722850246
 11
-3.9786011329
 21
20.0090120819
  0
LINE
  5
287
100
AcDbEntity
  8
ASSI
100
AcDbLine
 62
7
  6
CONTINUOUS
 10
-1.1862290706
 20
22.8798174228
 11
-2.0632899832
 21
22.1613711833
  0
LINE
  5
288
100
AcDbEntity
  8
RACCORDO
100
AcDbLine
 62
7
  6
CONTINUOUS
 10
-2.923872424
 20
21.3577576422
 11
-2.8763450162
 21
21.3966898154
  0
LINE
  5
289
100
AcDbEntity
  8
RACCORDO
100
AcDbLine
 62
253
  6
CONTINUOUS
 10
-2.8031737093
 20
21.3619235404
 11
-2.7496075566
 21
21.4058023638
  0
LINE
  5
28A
100
AcDbEntity
  8
ASSI
100
AcDbLine
 62
253
  6
CONTINUOUS
 10
-4.891269219
 20
19.7140863106
 11
-4.7128548165
 21
19.8592768009
  0
LINE
  5
28B
100
AcDbEntity
  8
ASSI
100
AcDbLine
 62
253
  6
CONTINUOUS
 10
-4.6865123981
 20
19.4270945344
 11
-4.5080979956
 21
19.5722850246
  0
LINE
  5
28C
100
AcDbEntity
  8
ASSI
100
AcDbLine
 62
253
  6
CONTINUOUS
 10
-0.5401248186
 20
24.0867883107
 11
-2.3820555999
 21
22.6248413856
  0
LINE
  5
28D
100
AcDbEntity
  8
ASSI
100
AcDbLine
 62
253
  6
CONTINUOUS
 10
-0.33787057
 20
23.8013205908
 11
-2.0620725352
 21
22.4328154403
  0
LINE
  5
28E
100
AcDbEntity
  8
ASSI
100
AcDbLine
 62
7
  6
CONTINUOUS
 10
-2.9486934007
 20
22.4083609556
 11
-3.5548605668
 21
21.9274015452
  0
LINE
  5
28F
100
AcDbEntity
  8
RACCORDO
100
AcDbLine
 62
7
  6
CONTINUOUS
 10
-2.825597122
 20
21.4350405887
 11
-2.8765077897
 21
21.3965522052
  0
LWPOLYLINE
  5
290
100
AcDbEntity
  8
ASSI
100
AcDbPolyline
 62
7
  6
CONTINUOUS
 90
4
 70
0
 10
2.44672583
 20
20.8486362288
 10
2.4109744313
 20
20.8306638248
 10
2.37833843
 20
20.8095850768
 10
2.3666144676
 20
20.8006735663
  0
LWPOLYLINE
  5
291
100
AcDbEntity
  8
ASSI
100
AcDbPolyline
 62
7
  6
CONTINUOUS
 90
3
 70
0
 10
4.9122890697
 20
21.9936815547
 10
4.8683986704
 20
21.973401458
 10
4.8243103993
 20
21.9487962699
  0
LINE
  5
292
100
AcDbEntity
  8
RACCORDO
100
AcDbLine
 62
253
  6
CONTINUOUS
 10
11.657433158
 20
23.9170215214
 11
11.6588492609
 21
23.9175582744
  0
LINE
  5
293
100
AcDbEntity
  8
RACCORDO
100
AcDbLine
 62
253
  6
CONTINUOUS
 10
11.0393990534
 20
23.6829343312
 11
11.0389639103
 21
23.6827694903
  0
LINE
  5
294
100
AcDbEntity
  8
0
100
AcDbLine
 62
7
  6
CONTINUOUS
 10
11.0393989574
 20
23.6829342948
 11
11.6588492609
 21
23.9175582744
  0
LINE
  5
295
100
AcDbEntity
  8
ASSI
100
AcDbLine
 62
253
  6
CONTINUOUS
 10
4.8302353093
 20
-22.3751995488
 11
5.1571686009
 21
-22.5065046895
  0
LINE
  5
296
100
AcDbEntity
  8
ASSI
100
AcDbLine
 62
7
  6
CONTINUOUS
 10
4.8302353093
 20
-22.3706654567
 11
5.1785535467
 21
-22.5105579135
  0
LINE
  5
297
100
AcDbEntity
  8
RACCORDO
100
AcDbLine
 62
7
  6
CONTINUOUS
 10
-2.9339934567
 20
21.3475927173
 11
-3.9848172696
 21
20.0564802854
  0
LINE
  5
298
100
AcDbEntity
  8
0
100
AcDbLine
 62
253
  6
CONTINUOUS
 10
-2.8031737093
 20
21.3619235404
 11
-3.9769798394
 21
19.9197068066
  0
LWPOLYLINE
  5
299
100
AcDbEntity
  8
ASSI
100
AcDbPolyline
 62
7
  6
CONTINUOUS
 90
9
 70
0
 10
-3.3241206978
 20
19.0055653141
 10
-3.3384183968
 20
18.9919281279
 10
-3.3546993937
 20
18.9729312124
 10
-3.3688469208
 20
18.9520817108
 10
-3.3806418591
 20
18.9296279006
 10
-3.3899412207
 20
18.9057364812
 10
-3.396583112
 20
18.8806215259
 10
-3.4004020793
 20
18.8547276321
 10
-3.4013821413
 20
18.8330471656
  0
LINE
  5
29A
100
AcDbEntity
  8
ASSI
100
AcDbLine
 62
7
  6
CONTINUOUS
 10
-3.1539514815
 20
19.1546224496
 11
-3.3244615593
 21
19.0052679379
  0
LINE
  5
29B
100
AcDbEntity
  8
ASSI
100
AcDbLine
 62
253
  6
CONTINUOUS
 10
-2.9926979039
 20
19.1684230047
 11
-3.1624334788
 21
19.0197469017
  0
LINE
  5
29C
100
AcDbEntity
  8
ASSI
100
AcDbLine
 62
7
  6
CONTINUOUS
 10
-4.5080979956
 20
18.4663985746
 11
-4.6865123981
 21
18.3125186701
  0
LINE
  5
29D
100
AcDbEntity
  8
ASSI
100
AcDbLine
 62
7
  6
CONTINUOUS
 10
-3.9590464665
 20
18.9318876022
 11
-4.5080979956
 21
18.4663985746
  0
LINE
  5
29E
100
AcDbEntity
  8
ASSI
100
AcDbLine
 62
7
  6
CONTINUOUS
 10
-3.1539032381
 20
19.154664712
 11
-3.148126881
 21
19.1593916375
  0
LINE
  5
29F
100
AcDbEntity
  8
ASSI
100
AcDbLine
 62
7
  6
CONTINUOUS
 10
-2.5940442118
 20
19.5833414317
 11
-3.148135484
 21
19.1593850706
  0
LINE
  5
2A0
100
AcDbEntity
  8
ASSI
100
AcDbLine
 62
253
  6
CONTINUOUS
 10
-2.4399767785
 20
19.5913310144
 11
-2.9926979039
 21
19.1684230047
  0
LWPOLYLINE
  5
2A1
100
AcDbEntity
  8
ASSI
100
AcDbPolyline
 62
7
  6
CONTINUOUS
 90
3
 70
0
 10
4.8243103993
 20
21.9487962699
 10
4.7799603724
 20
21.9196771943
 10
4.7416421416
 20
21.8909226439
  0
LINE
  5
2A2
100
AcDbEntity
  8
0
100
AcDbLine
 62
7
  6
CONTINUOUS
 10
13.4050603833
 20
23.3606216998
 11
13.0044309326
 21
23.1782853293
  0
LWPOLYLINE
  5
2A3
100
AcDbEntity
  8
ASSI
100
AcDbPolyline
 62
7
  6
CONTINUOUS
 90
5
 70
0
 10
2.6100934039
 20
17.8615444095
 10
2.5835898278
 20
17.8528428895
 10
2.5584863486
 20
17.8409704655
 10
2.5355290226
 20
17.8265436255
 10
2.5289317243
 20
17.821675165
  0
LWPOLYLINE
  5
2A4
100
AcDbEntity
  8
ASSI
100
AcDbPolyline
 62
7
  6
CONTINUOUS
 90
6
 70
0
 10
-13.8582722485
 20
21.7139874471
 10
-13.8568586003
 20
21.6871649962
 10
-13.8527409749
 20
21.6616333552
 10
-13.8457425813
 20
21.636411978
 10
-13.8358500575
 20
21.6120881259
 10
-13.8229367858
 20
21.5887811214
  0
LINE
  5
2A5
100
AcDbEntity
  8
ASSI
100
AcDbLine
 62
7
  6
CONTINUOUS
 10
-13.8582722585
 20
22.0140663013
 11
-13.8582722585
 21
21.7139695775
  0
LINE
  5
2A6
100
AcDbEntity
  8
ASSI
100
AcDbLine
 62
253
  6
CONTINUOUS
 10
-13.7729875458
 20
21.9200970392
 11
-13.7729875458
 21
21.6199989751
  0
LINE
  5
2A7
100
AcDbEntity
  8
ASSI
100
AcDbLine
 62
7
  6
CONTINUOUS
 10
-13.2800664289
 20
20.9539651474
 11
-13.2800664289
 21
21.3276748137
  0
LINE
  5
2A8
100
AcDbEntity
  8
ASSI
100
AcDbLine
 62
253
  6
CONTINUOUS
 10
-13.173460538
 20
20.831897311
 11
-13.173460538
 21
21.2848594845
  0
LINE
  5
2A9
100
AcDbEntity
  8
ASSI
100
AcDbLine
 62
7
  6
CONTINUOUS
 10
-12.7958943837
 20
21.131624611
 11
-12.7958943837
 21
19.9843563237
  0
LINE
  5
2AA
100
AcDbEntity
  8
RACCORDO
100
AcDbLine
 62
253
  6
CONTINUOUS
 10
-12.6892884928
 20
21.1847623443
 11
-12.6892884928
 21
19.8943054245
  0
LINE
  5
2AB
100
AcDbEntity
  8
RACCORDO
100
AcDbLine
 62
253
  6
CONTINUOUS
 10
-12.4650527976
 20
19.8042473141
 11
-12.4650527976
 21
21.0947042338
  0
LWPOLYLINE
  5
2AC
100
AcDbEntity
  8
ASSI
100
AcDbPolyline
 62
7
  6
CONTINUOUS
 90
3
 70
0
 10
-9.274975625
 20
22.1362415661
 10
-9.2707073921
 20
22.1574752858
 10
-9.2680785433
 20
22.1786601166
  0
LINE
  5
2AD
100
AcDbEntity
  8
RACCORDO
100
AcDbLine
 62
7
  6
CONTINUOUS
 10
-2.7935154379
 20
15.9199398707
 11
-4.1187986694
 21
14.776901785
  0
LINE
  5
2AE
100
AcDbEntity
  8
ASSI
100
AcDbLine
 62
7
  6
CONTINUOUS
 10
-2.7935154379
 20
15.9199398707
 11
-4.1187986694
 21
14.776901785
  0
LINE
  5
2AF
100
AcDbEntity
  8
ASSI
100
AcDbLine
 62
7
  6
CONTINUOUS
 10
-0.2075497631
 20
16.7392014508
 11
-0.3859641656
 21
16.5853215463
  0
LINE
  5
2B0
100
AcDbEntity
  8
ASSI
100
AcDbLine
 62
253
  6
CONTINUOUS
 10
-0.412306584
 20
18.1320796771
 11
2.7356291397
 21
20.7284854387
  0
LINE
  5
2B1
100
AcDbEntity
  8
ASSI
100
AcDbLine
 62
253
  6
CONTINUOUS
 10
-0.2075497631
 20
17.8450879008
 11
2.9404430937
 21
20.4415407856
  0
LINE
  5
2B2
100
AcDbEntity
  8
ASSI
100
AcDbLine
 62
7
  6
CONTINUOUS
 10
-0.2075497631
 20
16.7392014508
 11
2.93059184
 21
19.327529058
  0
LINE
  5
2B3
100
AcDbEntity
  8
ASSI
100
AcDbLine
 62
7
  6
CONTINUOUS
 10
2.8896645828
 20
19.7476843733
 11
1.9769507094
 21
18.9964358633
  0
LINE
  5
2B4
100
AcDbEntity
  8
ASSI
100
AcDbLine
 62
253
  6
CONTINUOUS
 10
-0.5907209864
 20
17.9868891868
 11
-0.412306584
 21
18.1320796771
  0
LINE
  5
2B5
100
AcDbEntity
  8
ASSI
100
AcDbLine
 62
253
  6
CONTINUOUS
 10
-0.3859641656
 20
17.6998974106
 11
-0.2075497631
 21
17.8450879008
  0
LINE
  5
2B6
100
AcDbEntity
  8
ASSI
100
AcDbLine
 62
7
  6
CONTINUOUS
 10
2.3664754583
 20
20.8005813078
 11
-0.2572569876
 21
18.7147015381
  0
LINE
  5
2B7
100
AcDbEntity
  8
ASSI
100
AcDbLine
 62
253
  6
CONTINUOUS
 10
2.5245550044
 20
20.8116949754
 11
-0.1615209775
 21
18.6762517981
  0
LINE
  5
2B8
100
AcDbEntity
  8
ASSI
100
AcDbLine
 62
7
  6
CONTINUOUS
 10
3.0047035642
 20
20.510516323
 11
4.7416495366
 21
21.8909440598
  0
LINE
  5
2B9
100
AcDbEntity
  8
ASSI
100
AcDbLine
 62
253
  6
CONTINUOUS
 10
3.0593693093
 20
20.439442468
 11
4.8996978398
 21
21.9020328932
  0
LINE
  5
2BA
100
AcDbEntity
  8
RACCORDO
100
AcDbLine
 62
7
  6
CONTINUOUS
 10
12.9911159557
 20
27.5066828725
 11
10.0913107223
 21
25.2102678711
  0
LINE
  5
2BB
100
AcDbEntity
  8
ASSI
100
AcDbLine
 62
7
  6
CONTINUOUS
 10
2.5288594659
 20
17.8216200712
 11
2.0845820876
 21
17.4816865077
  0
LINE
  5
2BC
100
AcDbEntity
  8
ASSI
100
AcDbLine
 62
253
  6
CONTINUOUS
 10
2.6523948642
 20
17.8282270866
 11
2.2089238154
 21
17.4889104766
  0
LWPOLYLINE
  5
2BD
100
AcDbEntity
  8
ASSI
100
AcDbPolyline
 62
7
  6
CONTINUOUS
 90
5
 70
0
 10
5.2462987468
 20
-22.5544238488
 10
5.2263930202
 20
-22.5374838155
 10
5.2049213238
 20
-22.5233458565
 10
5.1824183625
 20
-22.5121563045
 10
5.1783121915
 20
-22.5104629245
  0
LINE
  5
2BE
100
AcDbEntity
  8
ASSI
100
AcDbLine
 62
253
  6
CONTINUOUS
 10
-12.1194044399
 20
20.8615267924
 11
-12.1194044399
 21
19.8479691263
  0
LINE
  5
2BF
100
AcDbEntity
  8
ASSI
100
AcDbLine
 62
7
  6
CONTINUOUS
 10
-11.6759333912
 20
20.2304566479
 11
-11.6759333912
 21
20.6834188214
  0
LINE
  5
2C0
100
AcDbEntity
  8
ASSI
100
AcDbLine
 62
253
  6
CONTINUOUS
 10
-11.3813537446
 20
20.6594645595
 11
-11.3813537446
 21
20.9595629865
  0
LINE
  5
2C1
100
AcDbEntity
  8
ASSI
100
AcDbLine
 62
253
  6
CONTINUOUS
 10
-11.1048350585
 20
20.6860075707
 11
-11.1048350585
 21
20.9861042945
  0
LINE
  5
2C2
100
AcDbEntity
  8
ASSI
100
AcDbLine
 62
253
  6
CONTINUOUS
 10
-10.8337278798
 20
19.8922079274
 11
-10.8337278798
 21
20.5232607974
  0
LINE
  5
2C3
100
AcDbEntity
  8
ASSI
100
AcDbLine
 62
253
  6
CONTINUOUS
 10
-10.4880795221
 20
20.6530928191
 11
-10.4880795221
 21
19.9359297397
  0
LINE
  5
2C4
100
AcDbEntity
  8
ASSI
100
AcDbLine
 62
7
  6
CONTINUOUS
 10
-9.2680785433
 20
22.1786601166
 11
-9.2671040276
 21
22.2013577112
  0
LWPOLYLINE
  5
2C5
100
AcDbEntity
  8
ASSI
100
AcDbPolyline
 62
7
  6
CONTINUOUS
 90
12
 70
0
 10
0.8183888459
 20
16.3728588837
 10
0.8159703197
 20
16.370713531
 10
0.7982165849
 20
16.3530742963
 10
0.7825271407
 20
16.3341865331
 10
0.7683876557
 20
16.3136575797
 10
0.755891273
 20
16.2916546742
 10
0.7454847583
 20
16.2691786002
 10
0.7368812802
 20
16.245829022
 10
0.7300548387
 20
16.2212385465
 10
0.7254220358
 20
16.196583754
 10
0.7230069631
 20
16.1720364758
 10
0.7226344359
 20
16.1578746528
  0
LINE
  5
2C6
100
AcDbEntity
  8
ASSI
100
AcDbLine
 62
7
  6
CONTINUOUS
 10
2.0798892477
 20
17.4778422606
 11
0.8183300398
 21
16.3728075215
  0
LINE
  5
2C7
100
AcDbEntity
  8
ASSI
100
AcDbLine
 62
253
  6
CONTINUOUS
 10
2.2089238154
 20
17.4889104766
 11
0.9481079388
 21
16.384526842
  0
LINE
  5
2C8
100
AcDbEntity
  8
RACCORDO
100
AcDbLine
 62
7
  6
CONTINUOUS
 10
10.5133182352
 20
24.3173823061
 11
13.913918195
 21
27.1553832459
  0
LINE
  5
2C9
100
AcDbEntity
  8
DRAFT
100
AcDbLine
 62
7
  6
CONTINUOUS
 10
10.5133182352
 20
23.9401466788
 11
13.9254781827
 21
26.7447317669
  0
LINE
  5
2CA
100
AcDbEntity
  8
ASSI
100
AcDbLine
 62
7
  6
CONTINUOUS
 10
2.0799346054
 20
17.4778818952
 11
2.0845478197
 21
17.481660288
  0
LINE
  5
2CB
100
AcDbEntity
  8
RACCORDO
100
AcDbLine
 62
253
  6
CONTINUOUS
 10
10.0755064617
 20
23.3362123191
 11
10.9262676203
 21
24.0315673233
  0
LINE
  5
2CC
100
AcDbEntity
  8
RACCORDO
100
AcDbLine
 62
253
  6
CONTINUOUS
 10
12.0463044529
 20
24.0381946445
 11
12.0841510403
 21
24.0691279019
  0
LINE
  5
2CD
100
AcDbEntity
  8
ASSI
100
AcDbLine
 62
253
  6
CONTINUOUS
 10
3.3411466211
 20
15.4234285574
 11
4.6664298526
 21
16.5019206489
  0
LINE
  5
2CE
100
AcDbEntity
  8
ASSI
100
AcDbLine
 62
7
  6
CONTINUOUS
 10
8.1626928678
 20
20.5915405274
 11
4.0228065086
 21
17.3394361306
  0
LWPOLYLINE
  5
2CF
100
AcDbEntity
  8
ASSI
100
AcDbPolyline
 62
7
  6
CONTINUOUS
 90
12
 70
0
 10
-9.2672028064
 20
22.5300388285
 10
-9.2689244234
 20
22.5532558271
 10
-9.2729657341
 20
22.5767229278
 10
-9.2793906439
 20
22.5997283454
 10
-9.2881452087
 20
22.6218210747
 10
-9.2992672784
 20
22.6429396649
 10
-9.3126693526
 20
22.6627663054
 10
-9.3281695445
 20
22.6809597451
 10
-9.3455911081
 20
22.6972905999
 10
-9.3647421711
 20
22.7115613166
 10
-9.3853550093
 20
22.7235630845
 10
-9.4023413451
 20
22.7312774945
  0
LINE
  5
2D0
100
AcDbEntity
  8
ASSI
100
AcDbLine
 62
7
  6
CONTINUOUS
 10
-9.2671040206
 20
22.5228965258
 11
-9.2672028064
 21
22.5300388285
  0
LINE
  5
2D1
100
AcDbEntity
  8
ASSI
100
AcDbLine
 62
7
  6
CONTINUOUS
 10
-9.7506710791
 20
20.571934116
 11
-9.7506710791
 21
22.1283479523
  0
LINE
  5
2D2
100
AcDbEntity
  8
ASSI
100
AcDbLine
 62
253
  6
CONTINUOUS
 10
-9.301296462
 20
22.4587415536
 11
-9.301296462
 21
22.1371973016
  0
LINE
  5
2D3
100
AcDbEntity
  8
ASSI
100
AcDbLine
 62
7
  6
CONTINUOUS
 10
-9.2671039765
 20
22.5228895282
 11
-9.2671039765
 21
22.2013452762
  0
LINE
  5
2D4
100
AcDbEntity
  8
RACCORDO
100
AcDbLine
 62
253
  6
CONTINUOUS
 10
-9.0407353409
 20
16.7536625147
 11
-9.0407353409
 21
16.5838427767
  0
LINE
  5
2D5
100
AcDbEntity
  8
ASSI
100
AcDbLine
 62
253
  6
CONTINUOUS
 10
-9.0407353409
 20
16.7536625147
 11
-9.0407353409
 21
16.5838427767
  0
LINE
  5
2D6
100
AcDbEntity
  8
DRAFT
100
AcDbLine
 62
7
  6
CONTINUOUS
 10
-7.7799194642
 20
17.9225921435
 11
-7.7799194642
 21
17.1750190678
  0
LINE
  5
2D7
100
AcDbEntity
  8
ASSI
100
AcDbLine
 62
7
  6
CONTINUOUS
 10
-7.7799194642
 20
17.9225921435
 11
-7.7799194642
 21
17.1750190678
  0
LINE
  5
2D8
100
AcDbEntity
  8
ASSI
100
AcDbLine
 62
7
  6
CONTINUOUS
 10
-7.7019310177
 20
20.5602741854
 11
-7.7019310177
 21
19.441014834
  0
LINE
  5
2D9
100
AcDbEntity
  8
ASSI
100
AcDbLine
 62
253
  6
CONTINUOUS
 10
-7.616646305
 20
20.4663049234
 11
-7.616646305
 21
19.3432929174
  0
LINE
  5
2DA
100
AcDbEntity
  8
ASSI
100
AcDbLine
 62
7
  6
CONTINUOUS
 10
9.3369259739
 20
19.8010697586
 11
5.3130053267
 21
16.3278470847
  0
LINE
  5
2DB
100
AcDbEntity
  8
ASSI
100
AcDbLine
 62
7
  6
CONTINUOUS
 10
2.9049729972
 20
14.3744359235
 11
2.4615019484
 21
13.9919484019
  0
LINE
  5
2DC
100
AcDbEntity
  8
ASSI
100
AcDbLine
 62
7
  6
CONTINUOUS
 10
9.3202906031
 20
20.1730583823
 11
5.3056273732
 21
16.7290737393
  0
LINE
  5
2DD
100
AcDbEntity
  8
RACCORDO
100
AcDbLine
 62
253
  6
CONTINUOUS
 10
4.0406093656
 20
14.0463439746
 11
3.4840608498
 21
13.5747848757
  0
LINE
  5
2DE
100
AcDbEntity
  8
0
100
AcDbLine
 62
253
  6
CONTINUOUS
 10
3.3430895006
 20
13.4553409809
 11
0.566054511
 21
11.1023814817
  0
LINE
  5
2DF
100
AcDbEntity
  8
ASSI
100
AcDbLine
 62
253
  6
CONTINUOUS
 10
0.566054511
 20
11.1023814817
 11
3.3430895006
 21
13.4553409809
  0
LINE
  5
2E0
100
AcDbEntity
  8
RACCORDO
100
AcDbLine
 62
253
  6
CONTINUOUS
 10
5.2398113314
 20
14.1418422126
 11
3.8971072888
 21
13.004179834
  0
LINE
  5
2E1
100
AcDbEntity
  8
0
100
AcDbLine
 62
253
  6
CONTINUOUS
 10
3.7522446126
 20
12.881438849
 11
0.9829922664
 21
10.5350735211
  0
LINE
  5
2E2
100
AcDbEntity
  8
ASSI
100
AcDbLine
 62
253
  6
CONTINUOUS
 10
3.7522446126
 20
12.881438849
 11
0.9829922664
 21
10.5350735211
  0
LINE
  5
2E3
100
AcDbEntity
  8
ASSI
100
AcDbLine
 62
253
  6
CONTINUOUS
 10
5.0883286029
 20
16.8499011803
 11
4.6664298526
 21
16.5019206489
  0
LINE
  5
2E4
100
AcDbEntity
  8
ASSI
100
AcDbLine
 62
253
  6
CONTINUOUS
 10
5.2521340596
 20
16.6203077593
 11
4.8302353093
 21
16.2723272279
  0
LINE
  5
2E5
100
AcDbEntity
  8
ASSI
100
AcDbLine
 62
253
  6
CONTINUOUS
 10
5.3895757739
 20
15.177178837
 11
4.8302374842
 21
14.7159150557
  0
LINE
  5
2E6
100
AcDbEntity
  8
ASSI
100
AcDbLine
 62
253
  6
CONTINUOUS
 10
5.7990894157
 20
14.6031952845
 11
5.2398113314
 21
14.1419047857
  0
LINE
  5
2E7
100
AcDbEntity
  8
0
100
AcDbLine
 62
7
  6
CONTINUOUS
 10
13.9785250085
 20
23.8303764199
 11
13.4050603833
 21
23.3606216998
  0
LINE
  5
2E8
100
AcDbEntity
  8
0
100
AcDbLine
 62
7
  6
CONTINUOUS
 10
14.5519314395
 20
23.60008347
 11
13.9784668143
 21
23.1303287499
  0
LINE
  5
2E9
100
AcDbEntity
  8
ASSI
100
AcDbLine
 62
253
  6
CONTINUOUS
 10
3.5049520778
 20
15.1938351364
 11
4.8302353093
 21
16.2723272279
  0
LINE
  5
2EA
100
AcDbEntity
  8
DRAFT
100
AcDbLine
 62
7
  6
CONTINUOUS
 10
4.9653329065
 20
15.3475643369
 11
9.8926649339
 21
19.3224450241
  0
LINE
  5
2EB
100
AcDbEntity
  8
RACCORDO
100
AcDbLine
 62
7
  6
CONTINUOUS
 10
19.2893427602
 20
24.9771729976
 11
10.7646278595
 21
18.1002821297
  0
LINE
  5
2EC
100
AcDbEntity
  8
RACCORDO
100
AcDbLine
 62
7
  6
CONTINUOUS
 10
18.3239994938
 20
25.3648766166
 11
15.4353643122
 21
23.0639754705
  0
LINE
  5
2ED
100
AcDbEntity
  8
ASSI
100
AcDbLine
 62
253
  6
CONTINUOUS
 10
-4.9630310842
 20
18.2775412203
 11
-4.9630310842
 21
19.4005532263
  0
LINE
  5
2EE
100
AcDbEntity
  8
RACCORDO
100
AcDbLine
 62
253
  6
CONTINUOUS
 10
19.6530713677
 20
24.4673627812
 11
5.7990894157
 21
12.8331715903
  0
LINE
  5
2EF
100
AcDbEntity
  8
ASSI
100
AcDbLine
 62
7
  6
CONTINUOUS
 10
6.0787284578
 20
12.1224033997
 11
5.7990894157
 21
11.8875702599
  0
LINE
  5
2F0
100
AcDbEntity
  8
RACCORDO
100
AcDbLine
 62
253
  6
CONTINUOUS
 10
20.1328464424
 20
23.1163948027
 11
6.1411335882
 21
11.3665410063
  0
LWPOLYLINE
  5
2F1
100
AcDbEntity
  8
ASSI
100
AcDbPolyline
 62
7
  6
CONTINUOUS
 90
16
 70
0
 10
-3.5052853192
 20
23.1822621226
 10
-3.506069736
 20
23.1985406742
 10
-3.5109324404
 20
23.2337526191
 10
-3.5201629981
 20
23.2684849761
 10
-3.5337213397
 20
23.3022022521
 10
-3.5514176543
 20
23.334301915
 10
-3.5731350351
 20
23.3644680535
 10
-3.5987985287
 20
23.3924099239
 10
-3.6279972319
 20
23.417594086
 10
-3.6602557536
 20
23.4396526014
 10
-3.6958014656
 20
23.4586753537
 10
-3.7341709192
 20
23.4743208032
 10
-3.773995906
 20
23.4861194576
 10
-3.8155141407
 20
23.4942574106
 10
-3.8586126307
 20
23.4986418356
 10
-3.9013472965
 20
23.4991034414
  0
LINE
  5
2F2
100
AcDbEntity
  8
0
100
AcDbLine
 62
253
  6
CONTINUOUS
 10
-3.3955160018
 20
-21.4000831465
 11
-3.4051967523
 21
-21.0803721181
  0
LINE
  5
2F3
100
AcDbEntity
  8
0
100
AcDbLine
 62
253
  6
CONTINUOUS
 10
-3.151672244
 20
-21.1724205038
 11
-3.1420600071
 21
-21.4921876552
  0
LINE
  5
2F4
100
AcDbEntity
  8
0
100
AcDbLine
 62
253
  6
CONTINUOUS
 10
-3.4883912998
 20
-17.9538093566
 11
-3.4957754272
 21
-17.6322170447
  0
LINE
  5
2F5
100
AcDbEntity
  8
0
100
AcDbLine
 62
253
  6
CONTINUOUS
 10
-3.2416101061
 20
-17.7237405073
 11
-3.2342782029
 21
-18.0453755988
  0
LINE
  5
2F6
100
AcDbEntity
  8
ASSI
100
AcDbLine
 62
7
  6
CONTINUOUS
 10
-3.4832118859
 20
22.0568863644
 11
-3.5052687958
 21
23.1820682795
  0
LINE
  5
2F7
100
AcDbEntity
  8
ASSI
100
AcDbLine
 62
7
  6
CONTINUOUS
 10
-3.9590464665
 20
18.9318876022
 11
-3.9786011329
 21
20.0090120819
  0
LINE
  5
2F8
100
AcDbEntity
  8
ASSI
100
AcDbLine
 62
253
  6
CONTINUOUS
 10
-3.5548605668
 20
21.9274015452
 11
-3.5736758398
 21
23.0584307914
  0
LINE
  5
2F9
100
AcDbEntity
  8
ASSI
100
AcDbLine
 62
253
  6
CONTINUOUS
 10
-2.9486934007
 20
22.4083609556
 11
-2.940574417
 21
21.3477302082
  0
LINE
  5
2FA
100
AcDbEntity
  8
ASSI
100
AcDbLine
 62
253
  6
CONTINUOUS
 10
-4.6865123981
 20
18.3125186701
 11
-4.6865123981
 21
19.4270945344
  0
LINE
  5
2FB
100
AcDbEntity
  8
ASSI
100
AcDbLine
 62
7
  6
CONTINUOUS
 10
-4.5080979956
 20
19.5722850246
 11
-4.5080979956
 21
18.4663985746
  0
LINE
  5
2FC
100
AcDbEntity
  8
ASSI
100
AcDbLine
 62
7
  6
CONTINUOUS
 10
-3.4013827852
 20
18.8330770616
 11
-3.4013827852
 21
17.7138177103
  0
LINE
  5
2FD
100
AcDbEntity
  8
ASSI
100
AcDbLine
 62
253
  6
CONTINUOUS
 10
-3.3160980725
 20
18.7391077996
 11
-3.3160980725
 21
17.6160957936
  0
LWPOLYLINE
  5
2FE
100
AcDbEntity
  8
ASSI
100
AcDbPolyline
 62
7
  6
CONTINUOUS
 90
5
 70
0
 10
5.2721015094
 20
16.1963850221
 10
5.2807550704
 20
16.2121238427
 10
5.2901392705
 20
16.2322529692
 10
5.29791811
 20
16.2526201642
 10
5.3042152617
 20
16.273427795
  0
LINE
  5
2FF
100
AcDbEntity
  8
ASSI
100
AcDbLine
 62
253
  6
CONTINUOUS
 10
4.8302353093
 20
15.4953976771
 11
5.2656279743
 21
16.2338165319
  0
LINE
  5
300
100
AcDbEntity
  8
ASSI
100
AcDbLine
 62
7
  6
CONTINUOUS
 10
4.8302353126
 20
15.4469829875
 11
5.2721023067
 21
16.196382199
  0
LINE
  5
301
100
AcDbEntity
  8
ASSI
100
AcDbLine
 62
253
  6
CONTINUOUS
 10
-1.5526883177
 20
22.0587807646
 11
-1.5487170387
 21
21.5399891585
  0
LINE
  5
302
100
AcDbEntity
  8
ASSI
100
AcDbLine
 62
253
  6
CONTINUOUS
 10
-0.6624828517
 20
16.5503440966
 11
-0.6624828517
 21
17.6733561026
  0
LINE
  5
303
100
AcDbEntity
  8
ASSI
100
AcDbLine
 62
253
  6
CONTINUOUS
 10
-0.3859641656
 20
16.5853215463
 11
-0.3859641656
 21
17.6998974106
  0
LINE
  5
304
100
AcDbEntity
  8
ASSI
100
AcDbLine
 62
7
  6
CONTINUOUS
 10
-0.2075497631
 20
16.7392014508
 11
-0.2075497631
 21
17.8450879008
  0
LINE
  5
305
100
AcDbEntity
  8
0
100
AcDbLine
 62
7
  6
CONTINUOUS
 10
12.316139209
 20
22.6144697568
 11
12.1567258718
 21
22.3401074952
  0
LWPOLYLINE
  5
306
100
AcDbEntity
  8
ASSI
100
AcDbPolyline
 62
7
  6
CONTINUOUS
 90
6
 70
0
 10
5.3084243814
 20
-22.6673296047
 10
5.3016145354
 20
-22.6424044374
 10
5.2919662429
 20
-22.6183154632
 10
5.2793595855
 20
-22.5951967806
 10
5.264045853
 20
-22.5737582501
 10
5.2462987468
 20
-22.5544238488
  0
LWPOLYLINE
  5
307
100
AcDbEntity
  8
ASSI
100
AcDbPolyline
 62
7
  6
CONTINUOUS
 90
12
 70
0
 10
0.1405465634
 20
23.6203041478
 10
0.1361200837
 20
23.6944634489
 10
0.1266643273
 20
23.7646939996
 10
0.1121842075
 20
23.830935363
 10
0.0926899713
 20
23.8930571161
 10
0.0682018751
 20
23.9507850634
 10
0.0386317023
 20
24.0040639802
 10
0.0040425439
 20
24.0525139448
 10
-0.0350312189
 20
24.0952987664
 10
-0.0783095113
 20
24.1321515252
 10
-0.1251955776
 20
24.1626619542
 10
-0.1750504816
 20
24.1865518592
  0
LWPOLYLINE
  5
308
100
AcDbEntity
  8
ASSI
100
AcDbPolyline
 62
7
  6
CONTINUOUS
 90
6
 70
0
 10
0.7226341398
 20
15.8579667227
 10
0.7240477881
 20
15.8311442718
 10
0.7281654134
 20
15.8056126308
 10
0.735163807
 20
15.7803912536
 10
0.7450563308
 20
15.7560674015
 10
0.7579696026
 20
15.732760397
  0
LINE
  5
309
100
AcDbEntity
  8
ASSI
100
AcDbLine
 62
253
  6
CONTINUOUS
 10
0.10024377
 20
23.2568129032
 11
0.0955261713
 21
23.52897865
  0
LINE
  5
30A
100
AcDbEntity
  8
ASSI
100
AcDbLine
 62
7
  6
CONTINUOUS
 10
0.1461918602
 20
23.2969729111
 11
0.1405465634
 21
23.6203041478
  0
LINE
  5
30B
100
AcDbEntity
  8
ASSI
100
AcDbLine
 62
7
  6
CONTINUOUS
 10
0.7226341298
 20
16.1580455769
 11
0.7226341298
 21
15.8579488531
  0
LINE
  5
30C
100
AcDbEntity
  8
ASSI
100
AcDbLine
 62
253
  6
CONTINUOUS
 10
0.8079188425
 20
16.0640763148
 11
0.8079188425
 21
15.7639782507
  0
LINE
  5
30D
100
AcDbEntity
  8
ASSI
100
AcDbLine
 62
7
  6
CONTINUOUS
 10
1.3008399594
 20
15.4716540893
 11
1.3008399594
 21
15.0979362431
  0
LINE
  5
30E
100
AcDbEntity
  8
ASSI
100
AcDbLine
 62
253
  6
CONTINUOUS
 10
1.4074458504
 20
15.4288387601
 11
1.4074458504
 21
14.9758765866
  0
LINE
  5
30F
100
AcDbEntity
  8
ASSI
100
AcDbLine
 62
7
  6
CONTINUOUS
 10
1.7850120046
 20
15.2756038866
 11
1.7850120046
 21
14.1283355993
  0
LINE
  5
310
100
AcDbEntity
  8
RACCORDO
100
AcDbLine
 62
253
  6
CONTINUOUS
 10
1.8916178955
 20
15.3287416199
 11
1.8916178955
 21
14.0382847001
  0
LINE
  5
311
100
AcDbEntity
  8
RACCORDO
100
AcDbLine
 62
253
  6
CONTINUOUS
 10
2.1158535907
 20
13.9482265897
 11
2.1158535907
 21
15.2386835094
  0
LINE
  5
312
100
AcDbEntity
  8
ASSI
100
AcDbLine
 62
253
  6
CONTINUOUS
 10
2.4615019484
 20
15.005506068
 11
2.4615019484
 21
13.9919484019
  0
LINE
  5
313
100
AcDbEntity
  8
ASSI
100
AcDbLine
 62
7
  6
CONTINUOUS
 10
2.998250886
 20
19.4505665159
 11
3.0050044994
 21
20.5599494778
  0
LWPOLYLINE
  5
314
100
AcDbEntity
  8
ASSI
100
AcDbPolyline
 62
7
  6
CONTINUOUS
 90
3
 70
0
 10
5.3042152617
 20
16.273427795
 10
5.3090750126
 20
16.2950093262
 10
5.3122497757
 20
16.3166440028
  0
LINE
  5
315
100
AcDbEntity
  8
0
100
AcDbLine
 62
7
  6
CONTINUOUS
 10
13.8167677351
 20
22.8520325557
 11
13.9784668143
 21
23.1303287499
  0
LINE
  5
316
100
AcDbEntity
  8
RACCORDO
100
AcDbLine
 62
7
  6
CONTINUOUS
 10
20.3419005949
 20
17.8375484411
 11
20.3415715301
 21
17.8372061235
  0
LINE
  5
317
100
AcDbEntity
  8
DRAFT
100
AcDbLine
 62
7
  6
CONTINUOUS
 10
20.3409496816
 20
17.836560529
 11
21.2431489884
 21
18.773210342
  0
LWPOLYLINE
  5
318
100
AcDbEntity
  8
ASSI
100
AcDbPolyline
 62
7
  6
CONTINUOUS
 90
4
 70
0
 10
-13.8229367858
 20
21.5887811214
 10
-13.8072535205
 20
21.5672136504
 10
-13.7890780393
 20
21.5478201295
 10
-13.7687041924
 20
21.5309038205
  0
LWPOLYLINE
  5
319
100
AcDbEntity
  8
ASSI
100
AcDbPolyline
 62
7
  6
CONTINUOUS
 90
3
 70
0
 10
5.3137996735
 20
-22.7190005262
 10
5.3124313452
 20
-22.6925454806
 10
5.3084243814
 20
-22.6673296047
  0
LWPOLYLINE
  5
31A
100
AcDbEntity
  8
ASSI
100
AcDbPolyline
 62
7
  6
CONTINUOUS
 90
16
 70
0
 10
3.0049938746
 20
20.5601595711
 10
3.0035162707
 20
20.5910979166
 10
2.9978841941
 20
20.625701548
 10
2.9880078076
 20
20.6597762932
 10
2.9739323457
 20
20.6928213805
 10
2.9558401699
 20
20.7242460996
 10
2.9338657088
 20
20.753705747
 10
2.9081005313
 20
20.7809265788
 10
2.8789457768
 20
20.8054299046
 10
2.8468510412
 20
20.8268693729
 10
2.8115960178
 20
20.8453338541
 10
2.7736194682
 20
20.8605125182
 10
2.7342033935
 20
20.8719578861
 10
2.69309671
 20
20.879842988
 10
2.6504259236
 20
20.8840546925
 10
2.6081007167
 20
20.8844250296
  0
LINE
  5
31B
100
AcDbEntity
  8
ASSI
100
AcDbLine
 62
7
  6
CONTINUOUS
 10
2.9049729972
 20
14.3744359235
 11
2.9049729972
 21
14.827398097
  0
LINE
  5
31C
100
AcDbEntity
  8
ASSI
100
AcDbLine
 62
253
  6
CONTINUOUS
 10
3.1995526437
 20
-24.2608465991
 11
3.1995526437
 21
-24.5609269114
  0
LINE
  5
31D
100
AcDbEntity
  8
ASSI
100
AcDbLine
 62
253
  6
CONTINUOUS
 10
3.1995526437
 20
14.8034438351
 11
3.1995526437
 21
15.1035422621
  0
LINE
  5
31E
100
AcDbEntity
  8
ASSI
100
AcDbLine
 62
253
  6
CONTINUOUS
 10
3.4760713299
 20
-24.2342888796
 11
3.4760713299
 21
-24.5343856034
  0
LINE
  5
31F
100
AcDbEntity
  8
ASSI
100
AcDbLine
 62
253
  6
CONTINUOUS
 10
3.4760713299
 20
14.8299868463
 11
3.4760713299
 21
15.1300835701
  0
LINE
  5
320
100
AcDbEntity
  8
ASSI
100
AcDbLine
 62
253
  6
CONTINUOUS
 10
3.7471785086
 20
14.667240073
 11
3.7471785086
 21
14.036187203
  0
LINE
  5
321
100
AcDbEntity
  8
ASSI
100
AcDbLine
 62
253
  6
CONTINUOUS
 10
3.7471785086
 20
-22.9401092828
 11
3.7471785086
 21
-23.1893894761
  0
LINE
  5
322
100
AcDbEntity
  8
0
100
AcDbLine
 62
7
  6
CONTINUOUS
 10
3.7522446126
 20
-22.782770608
 11
3.7522446126
 21
12.881438849
  0
LINE
  5
323
100
AcDbEntity
  8
ASSI
100
AcDbLine
 62
7
  6
CONTINUOUS
 10
3.7522446126
 20
-22.782770608
 11
3.7522446126
 21
12.881438849
  0
LINE
  5
324
100
AcDbEntity
  8
RACCORDO
100
AcDbLine
 62
253
  6
CONTINUOUS
 10
3.8971072888
 20
13.004179834
 11
3.8971072888
 21
-22.6809327054
  0
LINE
  5
325
100
AcDbEntity
  8
ASSI
100
AcDbLine
 62
253
  6
CONTINUOUS
 10
4.0928268663
 20
14.7970720947
 11
4.0928268663
 21
14.0798196964
  0
LINE
  5
326
100
AcDbEntity
  8
ASSI
100
AcDbLine
 62
253
  6
CONTINUOUS
 10
4.0928268663
 20
-22.7013883944
 11
4.0928268663
 21
-23.2275661841
  0
LINE
  5
327
100
AcDbEntity
  8
ASSI
100
AcDbLine
 62
7
  6
CONTINUOUS
 10
4.8302353093
 20
-22.182993103
 11
4.8302353093
 21
-23.5385120289
  0
LINE
  5
328
100
AcDbEntity
  8
ASSI
100
AcDbLine
 62
7
  6
CONTINUOUS
 10
4.8302353622
 20
14.7159133127
 11
4.8302353093
 21
16.2723272279
  0
LINE
  5
329
100
AcDbEntity
  8
ASSI
100
AcDbLine
 62
7
  6
CONTINUOUS
 10
5.2398113314
 20
14.1419047857
 11
5.2398113314
 21
11.3567254547
  0
LINE
  5
32A
100
AcDbEntity
  8
ASSI
100
AcDbLine
 62
7
  6
CONTINUOUS
 10
5.2398113314
 20
-21.737079515
 11
5.2398113314
 21
-18.951900184
  0
LINE
  5
32B
100
AcDbEntity
  8
ASSI
100
AcDbLine
 62
253
  6
CONTINUOUS
 10
5.2796099264
 20
-23.1046434007
 11
5.2796099264
 21
-22.7830991487
  0
LINE
  5
32C
100
AcDbEntity
  8
ASSI
100
AcDbLine
 62
253
  6
CONTINUOUS
 10
5.2796099264
 20
16.2811765772
 11
5.2796099264
 21
16.6027208292
  0
LINE
  5
32D
100
AcDbEntity
  8
ASSI
100
AcDbLine
 62
7
  6
CONTINUOUS
 10
5.3138024118
 20
-23.0404954262
 11
5.3138024118
 21
-22.7189512117
  0
LINE
  5
32E
100
AcDbEntity
  8
ASSI
100
AcDbLine
 62
7
  6
CONTINUOUS
 10
5.3138024118
 20
16.3453245518
 11
5.3138024118
 21
16.6668688037
  0
LINE
  5
32F
100
AcDbEntity
  8
ASSI
100
AcDbLine
 62
7
  6
CONTINUOUS
 10
3.005004497
 20
20.5599490708
 11
3.0050053124
 21
20.5600979497
  0
LINE
  5
330
100
AcDbEntity
  8
ASSI
100
AcDbLine
 62
7
  6
CONTINUOUS
 10
5.3137058968
 20
16.3382349265
 11
5.3138026687
 21
16.3454179348
  0
LINE
  5
331
100
AcDbEntity
  8
ASSI
100
AcDbLine
 62
7
  6
CONTINUOUS
 10
5.3122497757
 20
16.3166440028
 11
5.3137058968
 21
16.3382349265
  0
LINE
  5
332
100
AcDbEntity
  8
RACCORDO
100
AcDbLine
 62
7
  6
CONTINUOUS
 10
20.340782583
 20
17.8363230635
 11
20.3415033204
 21
17.8371399428
  0
LWPOLYLINE
  5
333
100
AcDbEntity
  8
ASSI
100
AcDbPolyline
 62
7
  6
CONTINUOUS
 90
13
 70
0
 10
5.3138023476
 20
16.6668671072
 10
5.31274439
 20
16.6900963878
 10
5.3094541358
 20
16.7134205786
 10
5.3038299077
 20
16.7364261728
 10
5.2958792992
 20
16.7586849693
 10
5.2855263473
 20
16.7801518804
 10
5.2728513131
 20
16.8004395604
 10
5.2580206152
 20
16.8191896408
 10
5.2411843694
 20
16.8361730585
 10
5.2225482284
 20
16.8511523825
 10
5.2023769909
 20
16.8639098288
 10
5.1809704258
 20
16.8742735011
 10
5.1785846095
 20
16.8752493233
  0
LINE
  5
334
100
AcDbEntity
  8
ASSI
100
AcDbLine
 62
7
  6
CONTINUOUS
 10
5.7990894157
 20
-21.247192312
 11
5.7990894157
 21
-18.5315672874
  0
LINE
  5
335
100
AcDbEntity
  8
ASSI
100
AcDbLine
 62
7
  6
CONTINUOUS
 10
5.7990894157
 20
11.8875702599
 11
5.7990894157
 21
14.6031952845
  0
LINE
  5
336
100
AcDbEntity
  8
ASSI
100
AcDbLine
 62
7
  6
CONTINUOUS
 10
6.0787284578
 20
-18.2908115763
 11
6.0787284578
 21
-17.6348324977
  0
LINE
  5
337
100
AcDbEntity
  8
ASSI
100
AcDbLine
 62
7
  6
CONTINUOUS
 10
6.0787284578
 20
11.3607022512
 11
6.0787284578
 21
12.1224033997
  0
LINE
  5
338
100
AcDbEntity
  8
ASSI
100
AcDbLine
 62
7
  6
CONTINUOUS
 10
6.1323513627
 20
11.3391660836
 11
6.1323513627
 21
-17.5506465952
  0
LINE
  5
339
100
AcDbEntity
  8
RACCORDO
100
AcDbLine
 62
7
  6
CONTINUOUS
 10
6.1411335882
 20
11.3665410063
 11
6.1411335882
 21
-17.5850757973
  0
LINE
  5
33A
100
AcDbEntity
  8
ASSI
100
AcDbLine
 62
7
  6
CONTINUOUS
 10
5.3134324164
 20
-23.0544311096
 11
5.3138018743
 21
-23.0403306727
  0
LINE
  5
33B
100
AcDbEntity
  8
ASSI
100
AcDbLine
 62
7
  6
CONTINUOUS
 10
5.3110249775
 20
-23.0789600769
 11
5.3134324164
 21
-23.0544311096
  0
LINE
  5
33C
100
AcDbEntity
  8
0
100
AcDbLine
 62
7
  6
CONTINUOUS
 10
13.9785250085
 20
23.8303764199
 11
13.5778979
 21
22.3546368982
  0
LINE
  5
33D
100
AcDbEntity
  8
ASSI
100
AcDbLine
 62
7
  6
CONTINUOUS
 10
9.3369259739
 20
19.8010697586
 11
9.3369259739
 21
19.9889019877
  0
LINE
  5
33E
100
AcDbEntity
  8
RACCORDO
100
AcDbLine
 62
7
  6
CONTINUOUS
 10
10.3783533829
 20
23.1680796192
 11
10.3783533829
 21
23.296472256
  0
LINE
  5
33F
100
AcDbEntity
  8
0
100
AcDbLine
 62
253
  6
CONTINUOUS
 10
10.5133182352
 20
23.9401466788
 11
10.5133182352
 21
24.3173823061
  0
LWPOLYLINE
  5
340
100
AcDbEntity
  8
ASSI
100
AcDbPolyline
 62
7
  6
CONTINUOUS
 90
4
 70
0
 10
0.7579696026
 20
15.732760397
 10
0.7736528678
 20
15.711192926
 10
0.7918283491
 20
15.6917994051
 10
0.812202196
 20
15.6748830961
  0
LINE
  5
341
100
AcDbEntity
  8
DRAFT
100
AcDbLine
 62
7
  6
CONTINUOUS
 10
11.0650177686
 20
24.3936096783
 11
11.0650177686
 21
23.9758421357
  0
LINE
  5
342
100
AcDbEntity
  8
RACCORDO
100
AcDbLine
 62
7
  6
CONTINUOUS
 10
12.0841510403
 20
24.0470890264
 11
12.0841510403
 21
24.0691279019
  0
LINE
  5
343
100
AcDbEntity
  8
0
100
AcDbLine
 62
7
  6
CONTINUOUS
 10
12.316139209
 20
22.6144697568
 11
12.316139209
 21
22.3239886236
  0
LINE
  5
344
100
AcDbEntity
  8
0
100
AcDbLine
 62
7
  6
CONTINUOUS
 10
13.0044309326
 20
23.1782853293
 11
13.0044309326
 21
22.3064152811
  0
LWPOLYLINE
  5
345
100
AcDbEntity
  8
ASSI
100
AcDbPolyline
 62
7
  6
CONTINUOUS
 90
3
 70
0
 10
5.2995843385
 20
-23.1281888347
 10
5.3064012868
 20
-23.1036038013
 10
5.3110249775
 20
-23.0789600769
  0
LINE
  5
346
100
AcDbEntity
  8
ASSI
100
AcDbLine
 62
7
  6
CONTINUOUS
 10
5.2398113314
 20
11.3567254547
 11
6.0787284578
 21
11.3607022512
  0
LINE
  5
347
100
AcDbEntity
  8
ASSI
100
AcDbLine
 62
7
  6
CONTINUOUS
 10
5.2398113314
 20
11.3567254547
 11
6.1323513627
 21
11.3391660836
  0
LINE
  5
348
100
AcDbEntity
  8
ASSI
100
AcDbLine
 62
7
  6
CONTINUOUS
 10
-8.9768700568
 20
16.5454707918
 11
-4.4644470271
 21
14.7331799728
  0
LINE
  5
349
100
AcDbEntity
  8
RACCORDO
100
AcDbLine
 62
7
  6
CONTINUOUS
 10
-4.4644470271
 20
14.7331799728
 11
-8.9768700568
 21
16.5454707918
  0
LINE
  5
34A
100
AcDbEntity
  8
ASSI
100
AcDbLine
 62
7
  6
CONTINUOUS
 10
6.1323513627
 20
11.3391660836
 11
6.0787284578
 21
11.3607022512
  0
LINE
  5
34B
100
AcDbEntity
  8
DRAFT
100
AcDbLine
 62
7
  6
CONTINUOUS
 10
-3.384899101
 20
15.4098798065
 11
-7.7799194642
 21
17.1750190678
  0
LINE
  5
34C
100
AcDbEntity
  8
ASSI
100
AcDbLine
 62
7
  6
CONTINUOUS
 10
-3.384899101
 20
15.4098798065
 11
-7.7799194642
 21
17.1750190678
  0
LWPOLYLINE
  5
34D
100
AcDbEntity
  8
ASSI
100
AcDbPolyline
 62
7
  6
CONTINUOUS
 90
3
 70
0
 10
-13.7687041924
 20
21.5309038205
 10
-13.7467567991
 20
21.5168776995
 10
-13.7227752697
 20
21.5054779134
  0
LINE
  5
34E
100
AcDbEntity
  8
ASSI
100
AcDbLine
 62
7
  6
CONTINUOUS
 10
5.7990894157
 20
12.5143517855
 11
6.0787284578
 21
12.1224033997
  0
LINE
  5
34F
100
AcDbEntity
  8
0
100
AcDbLine
 62
7
  6
CONTINUOUS
 10
13.4050603833
 20
22.3335642604
 11
13.4050603833
 21
23.3606216998
  0
LINE
  5
350
100
AcDbEntity
  8
0
100
AcDbLine
 62
7
  6
CONTINUOUS
 10
13.8167677351
 20
22.8520325557
 11
13.8167677351
 21
22.3925150333
  0
LINE
  5
351
100
AcDbEntity
  8
RACCORDO
100
AcDbLine
 62
7
  6
CONTINUOUS
 10
13.9254781827
 20
27.0003818856
 11
13.9254781827
 21
26.7447317669
  0
LINE
  5
352
100
AcDbEntity
  8
ASSI
100
AcDbLine
 62
253
  6
CONTINUOUS
 10
3.7886712104
 20
-23.2007184983
 11
3.2715641203
 21
-24.0249599406
  0
LINE
  5
353
100
AcDbEntity
  8
ASSI
100
AcDbLine
 62
7
  6
CONTINUOUS
 10
6.1323513627
 20
-17.5506465952
 11
5.2398113314
 21
-18.951900184
  0
LINE
  5
354
100
AcDbEntity
  8
ASSI
100
AcDbLine
 62
7
  6
CONTINUOUS
 10
3.8535642909
 20
14.6656414339
 11
3.3259597777
 21
14.6735696473
  0
LINE
  5
355
100
AcDbEntity
  8
ASSI
100
AcDbLine
 62
253
  6
CONTINUOUS
 10
4.0928268663
 20
14.7970720947
 11
3.4907681996
 21
14.8061191166
  0
LWPOLYLINE
  5
356
100
AcDbEntity
  8
ASSI
100
AcDbPolyline
 62
7
  6
CONTINUOUS
 90
6
 70
0
 10
3.2500047403
 20
14.6888255771
 10
3.2544851582
 20
14.6870844539
 10
3.2744248647
 20
14.6807015397
 10
3.2949359785
 20
14.6763112438
 10
3.3157921541
 20
14.6739649584
 10
3.3261132556
 20
14.6735675446
  0
LWPOLYLINE
  5
357
100
AcDbEntity
  8
ASSI
100
AcDbPolyline
 62
7
  6
CONTINUOUS
 90
6
 70
0
 10
-11.3309016481
 20
20.5448463015
 10
-11.3264212301
 20
20.5431051783
 10
-11.3064815237
 20
20.5367222641
 10
-11.2859704098
 20
20.5323319682
 10
-11.2651142343
 20
20.5299856828
 10
-11.2547931328
 20
20.529588269
  0
LINE
  5
358
100
AcDbEntity
  8
RACCORDO
100
AcDbLine
 62
253
  6
CONTINUOUS
 10
-7.7799194642
 20
17.7282555773
 11
-2.9472495331
 21
15.787346383
  0
LINE
  5
359
100
AcDbEntity
  8
DRAFT
100
AcDbLine
 62
7
  6
CONTINUOUS
 10
3.3430895006
 20
13.4553409809
 11
-2.7935154379
 21
15.9199398707
  0
LINE
  5
35A
100
AcDbEntity
  8
ASSI
100
AcDbLine
 62
7
  6
CONTINUOUS
 10
3.3430895006
 20
13.4553409809
 11
-2.7935154379
 21
15.9199398707
  0
LINE
  5
35B
100
AcDbEntity
  8
DRAFT
100
AcDbLine
 62
7
  6
CONTINUOUS
 10
-7.7799194642
 20
17.9225921435
 11
-13.9165244027
 21
20.3871910333
  0
LINE
  5
35C
100
AcDbEntity
  8
ASSI
100
AcDbLine
 62
7
  6
CONTINUOUS
 10
-7.7799194642
 20
17.9225921435
 11
-13.9165244027
 21
20.3871910333
  0
LINE
  5
35D
100
AcDbEntity
  8
RACCORDO
100
AcDbLine
 62
253
  6
CONTINUOUS
 10
-13.7857168693
 20
20.5107169458
 11
-12.7958943837
 21
20.1131819205
  0
LINE
  5
35E
100
AcDbEntity
  8
RACCORDO
100
AcDbLine
 62
253
  6
CONTINUOUS
 10
-12.1246560001
 20
19.8435974529
 11
1.7850120046
 21
14.2571611961
  0
LINE
  5
35F
100
AcDbEntity
  8
RACCORDO
100
AcDbLine
 62
253
  6
CONTINUOUS
 10
2.4562503882
 20
13.9875767285
 11
3.4840608498
 21
13.5747848757
  0
LINE
  5
360
100
AcDbEntity
  8
ASSI
100
AcDbLine
 62
7
  6
CONTINUOUS
 10
3.7471785086
 20
14.036187203
 11
2.9049729972
 21
14.3744359235
  0
LINE
  5
361
100
AcDbEntity
  8
ASSI
100
AcDbLine
 62
7
  6
CONTINUOUS
 10
1.7850120046
 20
14.824237507
 11
1.4074458504
 21
14.9758765866
  0
LINE
  5
362
100
AcDbEntity
  8
ASSI
100
AcDbLine
 62
7
  6
CONTINUOUS
 10
-10.8337278798
 20
19.8922079274
 11
-11.6759333912
 21
20.2304566479
  0
LINE
  5
363
100
AcDbEntity
  8
ASSI
100
AcDbLine
 62
7
  6
CONTINUOUS
 10
-12.7958943837
 20
20.6802582315
 11
-13.173460538
 21
20.831897311
  0
LINE
  5
364
100
AcDbEntity
  8
ASSI
100
AcDbLine
 62
7
  6
CONTINUOUS
 10
-13.7230226073
 20
21.5055760016
 11
-12.7919210163
 21
21.131624611
  0
LINE
  5
365
100
AcDbEntity
  8
ASSI
100
AcDbLine
 62
7
  6
CONTINUOUS
 10
-12.2619762001
 20
20.9187868255
 11
-11.3308802545
 21
20.5448377026
  0
LINE
  5
366
100
AcDbEntity
  8
ASSI
100
AcDbLine
 62
7
  6
CONTINUOUS
 10
0.857883781
 20
15.6495552772
 11
1.788985372
 21
15.2756038866
  0
LINE
  5
367
100
AcDbEntity
  8
ASSI
100
AcDbLine
 62
7
  6
CONTINUOUS
 10
2.3189301882
 20
15.0627661011
 11
3.2500261339
 21
14.6888169782
  0
LINE
  5
368
100
AcDbEntity
  8
ASSI
100
AcDbLine
 62
253
  6
CONTINUOUS
 10
-12.4650527976
 20
21.0947042338
 11
-11.3813537446
 21
20.6594645595
  0
LINE
  5
369
100
AcDbEntity
  8
ASSI
100
AcDbLine
 62
253
  6
CONTINUOUS
 10
2.1158535907
 20
15.2386835094
 11
3.1995526437
 21
14.8034438351
  0
LINE
  5
36A
100
AcDbEntity
  8
ASSI
100
AcDbLine
 62
253
  6
CONTINUOUS
 10
0.8079188425
 20
15.7639782507
 11
1.8916178955
 21
15.3287416199
  0
LINE
  5
36B
100
AcDbEntity
  8
ASSI
100
AcDbLine
 62
253
  6
CONTINUOUS
 10
-13.7729875458
 20
21.6199989751
 11
-12.6892884928
 21
21.1847623443
  0
LINE
  5
36C
100
AcDbEntity
  8
ASSI
100
AcDbLine
 62
7
  6
CONTINUOUS
 10
-7.616646305
 20
19.3432929174
 11
-4.9630310842
 21
18.2775412203
  0
LINE
  5
36D
100
AcDbEntity
  8
ASSI
100
AcDbLine
 62
7
  6
CONTINUOUS
 10
-3.3160980725
 20
17.6160957936
 11
-0.6624828517
 21
16.5503440966
  0
LINE
  5
36E
100
AcDbEntity
  8
ASSI
100
AcDbLine
 62
253
  6
CONTINUOUS
 10
-13.7729875458
 20
21.9200970392
 11
-11.3813537446
 21
20.9595629865
  0
LINE
  5
36F
100
AcDbEntity
  8
ASSI
100
AcDbLine
 62
253
  6
CONTINUOUS
 10
0.8079188425
 20
16.0640763148
 11
3.1995526437
 21
15.1035422621
  0
LINE
  5
370
100
AcDbEntity
  8
ASSI
100
AcDbLine
 62
7
  6
CONTINUOUS
 10
0.7871224886
 20
16.3397186502
 11
-0.2075497631
 21
16.7392014508
  0
LINE
  5
371
100
AcDbEntity
  8
ASSI
100
AcDbLine
 62
7
  6
CONTINUOUS
 10
-3.4013827852
 20
18.0219167958
 11
-4.5080979956
 21
18.4663985746
  0
LINE
  5
372
100
AcDbEntity
  8
ASSI
100
AcDbLine
 62
7
  6
CONTINUOUS
 10
-7.7019310177
 20
19.7491139196
 11
-9.7506710791
 21
20.571934116
  0
LINE
  5
373
100
AcDbEntity
  8
ASSI
100
AcDbLine
 62
253
  6
CONTINUOUS
 10
-13.6327984496
 20
22.2405475664
 11
-11.2397597672
 21
21.2794492818
  0
LINE
  5
374
100
AcDbEntity
  8
ASSI
100
AcDbLine
 62
253
  6
CONTINUOUS
 10
0.9481079388
 20
16.384526842
 11
3.3411466211
 21
15.4234285574
  0
LWPOLYLINE
  5
375
100
AcDbEntity
  8
ASSI
100
AcDbPolyline
 62
7
  6
CONTINUOUS
 90
3
 70
0
 10
0.812202196
 20
15.6748830961
 10
0.8341495892
 20
15.6608569751
 10
0.8581311187
 20
15.649457189
  0
LWPOLYLINE
  5
376
100
AcDbEntity
  8
ASSI
100
AcDbPolyline
 62
7
  6
CONTINUOUS
 90
4
 70
0
 10
5.2680951163
 20
-23.1960336187
 10
5.2805884869
 20
-23.1740203217
 10
5.2909892314
 20
-23.1515381384
 10
5.2995843385
 20
-23.1281888347
  0
LINE
  5
377
100
AcDbEntity
  8
ASSI
100
AcDbLine
 62
253
  6
CONTINUOUS
 10
4.0928268663
 20
-23.2275661841
 11
3.4907681996
 21
-24.1872159614
  0
LWPOLYLINE
  5
378
100
AcDbEntity
  8
RACCORDO
100
AcDbPolyline
 62
7
  6
CONTINUOUS
 90
12
 70
0
 10
19.7782427335
 20
-6.4142753431
 10
19.8252343776
 20
-6.3720949085
 10
19.9170566845
 20
-6.2778130441
 10
20.0001464855
 20
-6.1754417839
 10
20.0740540256
 20
-6.0655789031
 10
20.1386432359
 20
-5.9482103336
 10
20.1932824252
 20
-5.8239986188
 10
20.2374011897
 20
-5.6938289211
 10
20.2707423858
 20
-5.5576808821
 10
20.2927974692
 20
-5.4159166782
 10
20.3030599729
 20
-5.2696208118
 10
20.3037985001
 20
-5.218635544
  0
LINE
  5
379
100
AcDbEntity
  8
RACCORDO
100
AcDbLine
 62
253
  6
CONTINUOUS
 10
6.1411335882
 20
-17.5850757973
 11
20.1328464424
 21
-5.5388867063
  0
LINE
  5
37A
100
AcDbEntity
  8
RACCORDO
100
AcDbLine
 62
7
  6
CONTINUOUS
 10
6.0787284578
 20
-18.2089206585
 11
19.7793251924
 21
-6.413368488
  0
LINE
  5
37B
100
AcDbEntity
  8
ASSI
100
AcDbLine
 62
7
  6
CONTINUOUS
 10
6.0787284578
 20
-18.2908115763
 11
5.7990894157
 21
-18.5315672874
  0
LWPOLYLINE
  5
37C
100
AcDbEntity
  8
ASSI
100
AcDbPolyline
 62
7
  6
CONTINUOUS
 90
6
 70
0
 10
2.7438968739
 20
17.8530728417
 10
2.7192126769
 20
17.8613175359
 10
2.6927113406
 20
17.8666084749
 10
2.6652423639
 20
17.868497534
 10
2.6374320669
 20
17.8668012952
 10
2.6100934039
 20
17.8615444095
  0
LINE
  5
37D
100
AcDbEntity
  8
ASSI
100
AcDbLine
 62
7
  6
CONTINUOUS
 10
-9.7506710791
 20
21.257843302
 11
-9.2222409053
 21
21.0456138311
  0
LINE
  5
37E
100
AcDbEntity
  8
ASSI
100
AcDbLine
 62
7
  6
CONTINUOUS
 10
4.8302353156
 20
15.4018225751
 11
5.3895757739
 21
15.177178837
  0
LINE
  5
37F
100
AcDbEntity
  8
ASSI
100
AcDbLine
 62
7
  6
CONTINUOUS
 10
-3.9590464665
 20
18.9318876022
 11
-3.4013827852
 21
18.7079172955
  0
LINE
  5
380
100
AcDbEntity
  8
ASSI
100
AcDbLine
 62
253
  6
CONTINUOUS
 10
-0.7034342159
 20
17.7307544578
 11
-3.2751467083
 21
18.7636121727
  0
LINE
  5
381
100
AcDbEntity
  8
ASSI
100
AcDbLine
 62
253
  6
CONTINUOUS
 10
-5.0039824484
 20
19.4579515816
 11
-7.5756949408
 21
20.4908092964
  0
LINE
  5
382
100
AcDbEntity
  8
ASSI
100
AcDbLine
 62
253
  6
CONTINUOUS
 10
-0.5907209864
 20
17.9868891868
 11
-3.1624334788
 21
19.0197469017
  0
LINE
  5
383
100
AcDbEntity
  8
ASSI
100
AcDbLine
 62
253
  6
CONTINUOUS
 10
-4.891269219
 20
19.7140863106
 11
-7.4629817114
 21
20.7469440255
  0
LINE
  5
384
100
AcDbEntity
  8
ASSI
100
AcDbLine
 62
7
  6
CONTINUOUS
 10
-0.412306584
 20
18.1320796771
 11
-2.9926979039
 21
19.1684230047
  0
LINE
  5
385
100
AcDbEntity
  8
ASSI
100
AcDbLine
 62
7
  6
CONTINUOUS
 10
-4.7128548165
 20
19.8592768009
 11
-7.2932461364
 21
20.8956201285
  0
LINE
  5
386
100
AcDbEntity
  8
ASSI
100
AcDbLine
 62
7
  6
CONTINUOUS
 10
4.6664298526
 20
16.5019206489
 11
2.2089238154
 21
17.4889104766
  0
LINE
  5
387
100
AcDbEntity
  8
ASSI
100
AcDbLine
 62
7
  6
CONTINUOUS
 10
-9.9144765358
 20
22.3579413733
 11
-12.3719825729
 21
23.344931201
  0
LINE
  5
388
100
AcDbEntity
  8
ASSI
100
AcDbLine
 62
7
  6
CONTINUOUS
 10
-0.1615209775
 20
18.6762517981
 11
-2.4399767785
 21
19.5913310144
  0
LINE
  5
389
100
AcDbEntity
  8
ASSI
100
AcDbLine
 62
7
  6
CONTINUOUS
 10
-4.1870203731
 20
20.2929831082
 11
-6.4654761741
 21
21.2080623244
  0
LINE
  5
38A
100
AcDbEntity
  8
ASSI
100
AcDbLine
 62
253
  6
CONTINUOUS
 10
-11.9285115242
 20
23.684247811
 11
-9.4925777855
 21
22.7059219047
  0
LINE
  5
38B
100
AcDbEntity
  8
ASSI
100
AcDbLine
 62
253
  6
CONTINUOUS
 10
2.6523948642
 20
17.8282270866
 11
5.0883286029
 21
16.8499011803
  0
LINE
  5
38C
100
AcDbEntity
  8
ASSI
100
AcDbLine
 62
7
  6
CONTINUOUS
 10
-11.8373909078
 20
23.7092489728
 11
-9.4023588759
 21
22.7312852123
  0
LINE
  5
38D
100
AcDbEntity
  8
ASSI
100
AcDbLine
 62
7
  6
CONTINUOUS
 10
2.7435152755
 20
17.8532283308
 11
5.1785472466
 21
16.8752645947
  0
LINE
  5
38E
100
AcDbEntity
  8
RACCORDO
100
AcDbLine
 62
7
  6
CONTINUOUS
 10
20.3038086525
 20
17.7138688158
 11
20.303808839
 21
17.7136961741
  0
LINE
  5
38F
100
AcDbEntity
  8
RACCORDO
100
AcDbLine
 62
253
  6
CONTINUOUS
 10
20.1328464424
 20
-5.5388867063
 11
20.1328464424
 21
17.6946207711
  0
LINE
  5
390
100
AcDbEntity
  8
RACCORDO
100
AcDbLine
 62
253
  6
CONTINUOUS
 10
20.1328464424
 20
19.7063466458
 11
20.1328464424
 21
23.1163948027
  0
LINE
  5
391
100
AcDbEntity
  8
RACCORDO
100
AcDbLine
 62
7
  6
CONTINUOUS
 10
20.3038088699
 20
20.3297085464
 11
20.3037422636
 21
23.4512617181
  0
LINE
  5
392
100
AcDbEntity
  8
RACCORDO
100
AcDbLine
 62
7
  6
CONTINUOUS
 10
20.3038088606
 20
20.3291443463
 11
20.3038084525
 21
20.3274967144
  0
LINE
  5
393
100
AcDbEntity
  8
RACCORDO
100
AcDbLine
 62
7
  6
CONTINUOUS
 10
20.3038085069
 20
-5.2186355474
 11
20.3038088699
 21
17.7127716581
  0
LWPOLYLINE
  5
394
100
AcDbEntity
  8
RACCORDO
100
AcDbPolyline
 62
7
  6
CONTINUOUS
 90
9
 70
0
 10
20.3038135253
 20
17.7136484925
 10
20.3044383182
 20
17.7311997439
 10
20.3078392517
 20
17.7578956966
 10
20.3134002214
 20
17.7810257521
 10
20.320100117
 20
17.8000746063
 10
20.3268583026
 20
17.8147222283
 10
20.3328853923
 20
17.8253039042
 10
20.3377340446
 20
17.832453773
 10
20.340782583
 20
17.8363230635
  0
LINE
  5
395
100
AcDbEntity
  8
ASSI
100
AcDbLine
 62
253
  6
CONTINUOUS
 10
5.2398113314
 20
-21.737079515
 11
5.7990894157
 21
-21.247192312
  0
LINE
  5
396
100
AcDbEntity
  8
ASSI
100
AcDbLine
 62
7
  6
CONTINUOUS
 10
5.152107596
 20
-21.9551328753
 11
5.7121089126
 21
-21.4646121729
  0
LINE
  5
397
100
AcDbEntity
  8
ASSI
100
AcDbLine
 62
7
  6
CONTINUOUS
 10
5.1329618674
 20
-21.9701774847
 11
5.1519986302
 21
-21.9552286907
  0
LWPOLYLINE
  5
398
100
AcDbEntity
  8
ASSI
100
AcDbPolyline
 62
7
  6
CONTINUOUS
 90
5
 70
0
 10
2.6081007167
 20
20.8844250296
 10
2.566079039
 20
20.8810510423
 10
2.5242457618
 20
20.8738070464
 10
2.4844009982
 20
20.8629651168
 10
2.44672583
 20
20.8486362288
  0
LINE
  5
399
100
AcDbEntity
  8
ASSI
100
AcDbLine
 62
7
  6
CONTINUOUS
 10
-10.727341863
 20
20.5216621548
 11
-11.2549466106
 21
20.5295903717
  0
LINE
  5
39A
100
AcDbEntity
  8
ASSI
100
AcDbLine
 62
253
  6
CONTINUOUS
 10
-10.4880795221
 20
20.6530928191
 11
-11.0901381888
 21
20.662139841
  0
LWPOLYLINE
  5
39B
100
AcDbEntity
  8
RACCORDO
100
AcDbPolyline
 62
7
  6
CONTINUOUS
 90
3
 70
0
 10
-1.6436881369
 20
21.5780127398
 10
-1.6894506136
 20
21.5913889904
 10
-1.7712566099
 20
21.6109958138
  0
LWPOLYLINE
  5
39C
100
AcDbEntity
  8
ASSI
100
AcDbPolyline
 62
7
  6
CONTINUOUS
 90
6
 70
0
 10
-11.836980726
 20
23.7090816642
 10
-11.8635252477
 20
23.7178177884
 10
-11.8903112251
 20
23.7229029074
 10
-11.9183012329
 20
23.7245125834
 10
-11.9467728292
 20
23.7223793232
 10
-11.9746833777
 20
23.7165230306
  0
LINE
  5
39D
100
AcDbEntity
  8
RACCORDO
100
AcDbLine
 62
7
  6
CONTINUOUS
 10
-1.6409909299
 20
21.5770484334
 11
-1.6436909349
 21
21.5780138582
  0
LINE
  5
39E
100
AcDbEntity
  8
RACCORDO
100
AcDbLine
 62
7
  6
CONTINUOUS
 10
1.1004961337
 20
19.7941217253
 11
-2.8031737093
 21
21.3619235404
  0
LINE
  5
39F
100
AcDbEntity
  8
RACCORDO
100
AcDbLine
 62
253
  6
CONTINUOUS
 10
1.6271319415
 20
20.2127996965
 11
-1.7093383087
 21
21.552801368
  0
LINE
  5
3A0
100
AcDbEntity
  8
RACCORDO
100
AcDbLine
 62
7
  6
CONTINUOUS
 10
1.6703341263
 20
20.2471456388
 11
-1.6409111814
 21
21.5770164046
  0
LINE
  5
3A1
100
AcDbEntity
  8
ASSI
100
AcDbLine
 62
7
  6
CONTINUOUS
 10
2.1025461035
 20
20.5907562158
 11
-1.5526883177
 21
22.0587807646
  0
LINE
  5
3A2
100
AcDbEntity
  8
DRAFT
100
AcDbLine
 62
7
  6
CONTINUOUS
 10
10.7646278595
 20
18.1002821297
 11
9.8926649339
 21
19.3224450241
  0
LINE
  5
3A3
100
AcDbEntity
  8
0
100
AcDbLine
 62
253
  6
CONTINUOUS
 10
10.5133182352
 20
24.3173823061
 11
10.0913107223
 21
25.2102678711
  0
LINE
  5
3A4
100
AcDbEntity
  8
RACCORDO
100
AcDbLine
 62
7
  6
CONTINUOUS
 10
21.6873534738
 20
20.4357059414
 11
21.6864572498
 21
20.4481011152
  0
LWPOLYLINE
  5
3A5
100
AcDbEntity
  8
RACCORDO
100
AcDbPolyline
 62
7
  6
CONTINUOUS
 90
12
 70
0
 10
20.3037422636
 20
23.4512617181
 10
20.298628333
 20
23.5750358687
 10
20.2853395453
 20
23.6991089692
 10
20.2639766787
 20
23.8232505417
 10
20.2346891413
 20
23.9470360517
 10
20.1977265793
 20
24.0698227478
 10
20.1531876975
 20
24.191444029
 10
20.1011878265
 20
24.3116201226
 10
20.0420810819
 20
24.4295553808
 10
19.97607792
 20
24.544823291
 10
19.9032397557
 20
24.6573014078
 10
19.8779656667
 20
24.6934094494
  0
LINE
  5
3A6
100
AcDbEntity
  8
RACCORDO
100
AcDbLine
 62
253
  6
CONTINUOUS
 10
21.6360647459
 20
20.346825874
 11
21.6360647459
 21
19.6107212515
  0
LINE
  5
3A7
100
AcDbEntity
  8
RACCORDO
100
AcDbLine
 62
7
  6
CONTINUOUS
 10
21.6873534742
 20
20.4354429844
 11
21.6873534742
 21
19.7145480648
  0
LWPOLYLINE
  5
3A8
100
AcDbEntity
  8
ASSI
100
AcDbPolyline
 62
7
  6
CONTINUOUS
 90
5
 70
0
 10
5.2180447344
 20
-23.2553113243
 10
5.2204904324
 20
-23.2531416082
 10
5.2382588411
 20
-23.235481531
 10
5.2539549076
 20
-23.2165762539
 10
5.2680951163
 20
-23.1960336187
  0
LINE
  5
3A9
100
AcDbEntity
  8
ASSI
100
AcDbLine
 62
253
  6
CONTINUOUS
 10
4.8302353093
 20
-23.5385120289
 11
5.2521340596
 21
-23.168959199
  0
LINE
  5
3AA
100
AcDbEntity
  8
ASSI
100
AcDbLine
 62
7
  6
CONTINUOUS
 10
4.7954644203
 20
-23.6254613053
 11
5.2181065019
 21
-23.2552573708
  0
LINE
  5
3AB
100
AcDbEntity
  8
ASSI
100
AcDbLine
 62
7
  6
CONTINUOUS
 10
4.7908058483
 20
-23.6292793327
 11
4.7954190626
 21
-23.6255009399
  0
LINE
  5
3AC
100
AcDbEntity
  8
ASSI
100
AcDbLine
 62
253
  6
CONTINUOUS
 10
3.5049520778
 20
-24.5525367655
 11
4.8302353093
 21
-23.5385120289
  0
LINE
  5
3AD
100
AcDbEntity
  8
ASSI
100
AcDbLine
 62
7
  6
CONTINUOUS
 10
3.4646820194
 20
-24.6439472424
 11
4.7907715804
 21
-23.6293055524
  0
LINE
  5
3AE
100
AcDbEntity
  8
0
100
AcDbLine
 62
253
  6
CONTINUOUS
 10
0.9829922525
 20
-24.7295443365
 11
3.7522446126
 21
-22.782770608
  0
LINE
  5
3AF
100
AcDbEntity
  8
ASSI
100
AcDbLine
 62
253
  6
CONTINUOUS
 10
0.9829922524
 20
-24.7295443365
 11
3.7522446126
 21
-22.782770608
  0
LINE
  5
3B0
100
AcDbEntity
  8
RACCORDO
100
AcDbLine
 62
253
  6
CONTINUOUS
 10
3.8971072888
 20
-22.6809327054
 11
5.2398113314
 21
-21.737016942
  0
LINE
  5
3B1
100
AcDbEntity
  8
ASSI
100
AcDbLine
 62
7
  6
CONTINUOUS
 10
3.7869042278
 20
-22.9164508293
 11
5.1328811992
 21
-21.9702342097
  0
LINE
  5
3B2
100
AcDbEntity
  8
RACCORDO
100
AcDbLine
 62
7
  6
CONTINUOUS
 10
3.7869456432
 20
-22.9164217145
 11
3.7868905914
 21
-22.9164604035
  0
LINE
  5
3B3
100
AcDbEntity
  8
ASSI
100
AcDbLine
 62
7
  6
CONTINUOUS
 10
3.6462139994
 20
-23.0153555173
 11
0.868178834
 21
-24.9683027837
  0
LWPOLYLINE
  5
3B4
100
AcDbEntity
  8
RACCORDO
100
AcDbPolyline
 62
7
  6
CONTINUOUS
 90
3
 70
0
 10
3.723308397
 20
-22.9522177865
 10
3.7604551362
 20
-22.9333744967
 10
3.7869162993
 20
-22.9164369657
  0
LINE
  5
3B5
100
AcDbEntity
  8
RACCORDO
100
AcDbLine
 62
7
  6
CONTINUOUS
 10
3.700694103
 20
-22.960629241
 11
3.723308397
 21
-22.9522177865
  0
LWPOLYLINE
  5
3B6
100
AcDbEntity
  8
RACCORDO
100
AcDbPolyline
 62
7
  6
CONTINUOUS
 90
12
 70
0
 10
-1.7712566099
 20
21.6109958138
 10
-1.8552159561
 20
21.625883609
 10
-1.9407913748
 20
21.6360372707
 10
-2.0274619236
 20
21.6414436788
 10
-2.114626531
 20
21.6420827953
 10
-2.2016955224
 20
21.6379528983
 10
-2.2881407478
 20
21.6290508717
 10
-2.3734274048
 20
21.6153746203
 10
-2.4569019252
 20
21.5969422383
 10
-2.53792912
 20
21.5737961282
 10
-2.6161406998
 20
21.5458812706
 10
-2.6907634598
 20
21.5132852149
  0
LWPOLYLINE
  5
3B7
100
AcDbEntity
  8
ASSI
100
AcDbPolyline
 62
7
  6
CONTINUOUS
 90
10
 70
0
 10
5.2602941189
 20
22.003593963
 10
5.2525798263
 20
22.006614385
 10
5.2131100989
 20
22.0193588242
 10
5.1721703982
 20
22.0281285305
 10
5.1300914794
 20
22.0328042613
 10
5.0872177669
 20
22.0333215068
 10
5.0438045214
 20
22.0296608685
 10
5.0000728617
 20
22.0218223666
 10
4.9561815526
 20
22.0098158679
 10
4.9122890697
 20
21.9936815547
  0
LINE
  5
3B8
100
AcDbEntity
  8
ASSI
100
AcDbLine
 62
7
  6
CONTINUOUS
 10
3.5782133802
 20
20.9663099227
 11
-1.1862290706
 21
22.8798174228
  0
LINE
  5
3B9
100
AcDbEntity
  8
DRAFT
100
AcDbLine
 62
7
  6
CONTINUOUS
 10
-4.4059596182
 20
25.0650949992
 11
-4.3857594035
 21
25.0569821375
  0
LINE
  5
3BA
100
AcDbEntity
  8
DRAFT
100
AcDbLine
 62
7
  6
CONTINUOUS
 10
9.1349697671
 20
19.6267524849
 11
9.8926649339
 21
19.3224450241
  0
LINE
  5
3BB
100
AcDbEntity
  8
ASSI
100
AcDbLine
 62
7
  6
CONTINUOUS
 10
0.1454604695
 20
23.3391680015
 11
4.4092186928
 21
21.6267465749
  0
LINE
  5
3BC
100
AcDbEntity
  8
ASSI
100
AcDbLine
 62
253
  6
CONTINUOUS
 10
-3.8031198466
 20
25.3972806764
 11
-0.5401248186
 21
24.0867883107
  0
LINE
  5
3BD
100
AcDbEntity
  8
ASSI
100
AcDbLine
 62
253
  6
CONTINUOUS
 10
4.8996978398
 20
21.9020328932
 11
8.1626928678
 21
20.5915405274
  0
LINE
  5
3BE
100
AcDbEntity
  8
ASSI
100
AcDbLine
 62
7
  6
CONTINUOUS
 10
-3.630745039
 20
25.5744400899
 11
-0.1748578257
 21
24.1864778739
  0
LINE
  5
3BF
100
AcDbEntity
  8
ASSI
100
AcDbLine
 62
7
  6
CONTINUOUS
 10
5.2597868453
 20
22.0038020528
 11
8.7156740586
 21
20.6158398368
  0
LWPOLYLINE
  5
3C0
100
AcDbEntity
  8
ASSI
100
AcDbPolyline
 62
7
  6
CONTINUOUS
 90
5
 70
0
 10
-3.9013472965
 20
23.4991034414
 10
-3.9437569881
 20
23.4957512792
 10
-3.9859655454
 20
23.4884629493
 10
-4.0261428882
 20
23.4775141633
 10
-4.064114419
 20
23.4630201074
  0
LINE
  5
3C1
100
AcDbEntity
  8
0
100
AcDbLine
 62
7
  6
CONTINUOUS
 10
12.5145285521
 20
22.3101435123
 11
12.316139209
 21
22.3898211451
  0
LINE
  5
3C2
100
AcDbEntity
  8
0
100
AcDbLine
 62
7
  6
CONTINUOUS
 10
10.4606197318
 20
23.1350395988
 11
10.3783533829
 21
23.1680796192
  0
LINE
  5
3C3
100
AcDbEntity
  8
RACCORDO
100
AcDbLine
 62
7
  6
CONTINUOUS
 10
10.7968656
 20
23.2246442894
 11
12.316139209
 21
22.6144697568
  0
LINE
  5
3C4
100
AcDbEntity
  8
0
100
AcDbLine
 62
7
  6
CONTINUOUS
 10
15.0935079868
 20
23.6829342948
 11
14.4740576832
 21
23.9175582744
  0
LINE
  5
3C5
100
AcDbEntity
  8
RACCORDO
100
AcDbLine
 62
253
  6
CONTINUOUS
 10
14.4740576832
 20
23.9175582744
 11
14.474242715
 21
23.9174881848
  0
LINE
  5
3C6
100
AcDbEntity
  8
RACCORDO
100
AcDbLine
 62
7
  6
CONTINUOUS
 10
11.4851543461
 20
23.7884610577
 11
13.0044309326
 21
23.1782853293
  0
LINE
  5
3C7
100
AcDbEntity
  8
RACCORDO
100
AcDbLine
 62
7
  6
CONTINUOUS
 10
13.8167677351
 20
22.8520325557
 11
14.5081706873
 21
22.5743495428
  0
LINE
  5
3C8
100
AcDbEntity
  8
DRAFT
100
AcDbLine
 62
7
  6
CONTINUOUS
 10
10.7235819256
 20
24.1129704678
 11
11.0650177686
 21
23.9758421357
  0
LINE
  5
3C9
100
AcDbEntity
  8
0
100
AcDbLine
 62
7
  6
CONTINUOUS
 10
14.5519314395
 20
23.60008347
 11
13.9785250085
 21
23.8303764199
  0
LINE
  5
3CA
100
AcDbEntity
  8
DRAFT
100
AcDbLine
 62
7
  6
CONTINUOUS
 10
14.7257436164
 20
24.405805194
 11
15.0780525204
 21
24.2643099956
  0
LINE
  5
3CB
100
AcDbEntity
  8
DRAFT
100
AcDbLine
 62
7
  6
CONTINUOUS
 10
13.9254781827
 20
26.7447317669
 11
18.0012623585
 21
25.1078049555
  0
LINE
  5
3CC
100
AcDbEntity
  8
RACCORDO
100
AcDbLine
 62
253
  6
CONTINUOUS
 10
19.2893427602
 20
24.9771729976
 11
18.3239994938
 21
25.3648766166
  0
LINE
  5
3CD
100
AcDbEntity
  8
RACCORDO
100
AcDbLine
 62
253
  6
CONTINUOUS
 10
12.9911159557
 20
27.5066828725
 11
3.4246762242
 21
31.348780739
  0
LINE
  5
3CE
100
AcDbEntity
  8
RACCORDO
100
AcDbLine
 62
7
  6
CONTINUOUS
 10
19.5685329539
 20
25.1114329439
 11
18.5773575492
 21
25.509511332
  0
LINE
  5
3CF
100
AcDbEntity
  8
RACCORDO
100
AcDbLine
 62
7
  6
CONTINUOUS
 10
13.4630902459
 20
27.5635163794
 11
3.870842029
 21
31.4159795155
  0
LINE
  5
3D0
100
AcDbEntity
  8
RACCORDO
100
AcDbLine
 62
253
  6
CONTINUOUS
 10
19.6530713677
 20
24.4673627812
 11
19.2893427602
 21
24.9771729976
  0
LINE
  5
3D1
100
AcDbEntity
  8
RACCORDO
100
AcDbLine
 62
7
  6
CONTINUOUS
 10
19.8779730468
 20
24.6934110601
 11
19.5930095254
 21
25.0928223561
  0
ARC
  5
3D2
100
AcDbEntity
  8
RACCORDO
100
AcDbCircle
 62
253
  6
CONTINUOUS
 10
13.5181569411
 20
19.5221807116
 40
4.4489978081
100
AcDbArc
 50
67.7562159782
 51
69.2622677613
  0
ARC
  5
3D3
100
AcDbEntity
  8
RACCORDO
100
AcDbCircle
 62
253
  6
CONTINUOUS
 10
13.5771998989
 20
19.6663191117
 40
4.2932353555
100
AcDbArc
 50
66.731819447
 51
67.7573602511
  0
ARC
  5
3D4
100
AcDbEntity
  8
RACCORDO
100
AcDbCircle
 62
253
  6
CONTINUOUS
 10
13.6335934664
 20
19.7967359252
 40
4.1511484309
100
AcDbArc
 50
65.5555888159
 51
66.7357889126
  0
ARC
  5
3D5
100
AcDbEntity
  8
RACCORDO
100
AcDbCircle
 62
253
  6
CONTINUOUS
 10
13.6894683147
 20
19.9193320688
 40
4.016419836
100
AcDbArc
 50
64.574386101
 51
65.5575127946
  0
ARC
  5
3D6
100
AcDbEntity
  8
RACCORDO
100
AcDbCircle
 62
253
  6
CONTINUOUS
 10
13.7522954691
 20
20.050445812
 40
3.871031201
100
AcDbArc
 50
63.103270695
 51
64.5810421775
  0
ARC
  5
3D7
100
AcDbEntity
  8
RACCORDO
100
AcDbCircle
 62
253
  6
CONTINUOUS
 10
13.8021447826
 20
20.1489174297
 40
3.7606608917
100
AcDbArc
 50
62.376849933
 51
63.1018967123
  0
ARC
  5
3D8
100
AcDbEntity
  8
RACCORDO
100
AcDbCircle
 62
253
  6
CONTINUOUS
 10
13.8802279961
 20
20.2963413726
 40
3.5938373696
100
AcDbArc
 50
60.4244311746
 51
62.3900711392
  0
ARC
  5
3D9
100
AcDbEntity
  8
RACCORDO
100
AcDbCircle
 62
253
  6
CONTINUOUS
 10
13.931523328
 20
20.3873192676
 40
3.4893955173
100
AcDbArc
 50
60.1539088835
 51
60.4196328356
  0
ARC
  5
3DA
100
AcDbEntity
  8
RACCORDO
100
AcDbCircle
 62
253
  6
CONTINUOUS
 10
14.0121402205
 20
20.5253182523
 40
3.3295794485
100
AcDbArc
 50
57.8111028637
 51
60.1753517357
  0
ARC
  5
3DB
100
AcDbEntity
  8
0
100
AcDbCircle
 62
7
  6
CONTINUOUS
 10
12.011779066
 20
20.3908208836
 40
3.2219940326
100
AcDbArc
 50
120.4616222052
 51
124.7280101324
  0
ARC
  5
3DC
100
AcDbEntity
  8
RACCORDO
100
AcDbCircle
 62
253
  6
CONTINUOUS
 10
18.708715624
 20
19.9293449242
 40
2.968839265
100
AcDbArc
 50
9.6339584866
 51
9.8725207288
  0
ARC
  5
3DD
100
AcDbEntity
  8
RACCORDO
100
AcDbCircle
 62
253
  6
CONTINUOUS
 10
18.7681769519
 20
19.9392216263
 40
2.9085636299
100
AcDbArc
 50
8.1782881104
 51
9.638166716
  0
ARC
  5
3DE
100
AcDbEntity
  8
RACCORDO
100
AcDbCircle
 62
7
  6
CONTINUOUS
 10
19.6663835269
 20
20.0260661841
 40
2.0462487389
100
AcDbArc
 50
347.2979431662
 51
350.7283802959
  0
ARC
  5
3DF
100
AcDbEntity
  8
RACCORDO
100
AcDbCircle
 62
253
  6
CONTINUOUS
 10
14.5557029168
 20
22.6940904691
 40
0.9426904777
100
AcDbArc
 50
22.6145406162
 51
24.1768387491
  0
ARC
  5
3E0
100
AcDbEntity
  8
RACCORDO
100
AcDbCircle
 62
253
  6
CONTINUOUS
 10
19.186132982
 20
-5.7243441117
 40
0.9091721458
100
AcDbArc
 50
310.7220605609
 51
312.3221250293
  0
ARC
  5
3E1
100
AcDbEntity
  8
RACCORDO
100
AcDbCircle
 62
253
  6
CONTINUOUS
 10
3.5234323013
 20
30.3575464647
 40
0.9012931579
100
AcDbArc
 50
120.8728489303
 51
126.4519764562
  0
ARC
  5
3E2
100
AcDbEntity
  8
RACCORDO
100
AcDbCircle
 62
253
  6
CONTINUOUS
 10
3.5216280832
 20
30.3601085345
 40
0.8981603574
100
AcDbArc
 50
126.4566481703
 51
127.9374162237
  0
ARC
  5
3E3
100
AcDbEntity
  8
ASSI
100
AcDbCircle
 62
253
  6
CONTINUOUS
 10
-16.8097528623
 20
-17.9708920188
 40
0.277541556
100
AcDbArc
 50
242.0469198849
 51
245.3601374059
  0
ARC
  5
3E4
100
AcDbEntity
  8
ASSI
100
AcDbCircle
 62
7
  6
CONTINUOUS
 10
5.0025060682
 20
-21.7842653664
 40
0.2270994672
100
AcDbArc
 50
311.1656033075
 51
314.0808462451
  0
ARC
  5
3E5
100
AcDbEntity
  8
ASSI
100
AcDbCircle
 62
253
  6
CONTINUOUS
 10
5.0490687585
 20
-22.6953881179
 40
0.225723909
100
AcDbArc
 50
3.2533237159
 51
16.4061249748
  0
ARC
  5
3E6
100
AcDbEntity
  8
ASSI
100
AcDbCircle
 62
253
  6
CONTINUOUS
 10
5.0572800995
 20
-22.6930257823
 40
0.2171796817
100
AcDbArc
 50
16.4201320503
 51
23.172926014
  0
ARC
  5
3E7
100
AcDbEntity
  8
ASSI
100
AcDbCircle
 62
253
  6
CONTINUOUS
 10
5.1802157766
 20
21.8056677516
 40
0.2135150192
100
AcDbArc
 50
68.114211889
 51
71.2043214086
  0
ARC
  5
3E8
100
AcDbEntity
  8
RACCORDO
100
AcDbCircle
 62
7
  6
CONTINUOUS
 10
-2.882632321
 20
21.1647674434
 40
0.2125657488
100
AcDbArc
 50
68.049389043
 51
74.1416448384
  0
ARC
  5
3E9
100
AcDbEntity
  8
ASSI
100
AcDbCircle
 62
253
  6
CONTINUOUS
 10
5.0968633521
 20
-22.657690109
 40
0.1627725835
100
AcDbArc
 50
60.8551832013
 51
68.2506973724
  0
ARC
  5
3EA
100
AcDbEntity
  8
RACCORDO
100
AcDbCircle
 62
7
  6
CONTINUOUS
 10
10.4746994416
 20
23.3111622439
 40
0.0945536995
100
AcDbArc
 50
113.0657258625
 51
120.3809177605
  0
ARC
  5
3EB
100
AcDbEntity
  8
RACCORDO
100
AcDbCircle
 62
253
  6
CONTINUOUS
 10
-2.8189952747
 20
21.3267068529
 40
0.0904755312
100
AcDbArc
 50
120.8959225852
 51
129.3339682808
  0
ARC
  5
3EC
100
AcDbEntity
  8
RACCORDO
100
AcDbCircle
 62
7
  6
CONTINUOUS
 10
-2.8798043442
 20
21.3037689944
 40
0.0696865925
100
AcDbArc
 50
129.3755742957
 51
140.8440660692
  0
ARC
  5
3ED
100
AcDbEntity
  8
ASSI
100
AcDbCircle
 62
253
  6
CONTINUOUS
 10
0.7889730165
 20
15.8579653825
 40
0.0663330902
100
AcDbArc
 50
180.0142770058
 51
185.5574434955
  0
ARC
  5
3EE
100
AcDbEntity
  8
ASSI
100
AcDbCircle
 62
253
  6
CONTINUOUS
 10
-13.7919333718
 20
21.7139861069
 40
0.0663330902
100
AcDbArc
 50
180.0142770058
 51
185.5574434955
  0
ARC
  5
3EF
100
AcDbEntity
  8
ASSI
100
AcDbCircle
 62
253
  6
CONTINUOUS
 10
2.722653275
 20
17.8012503063
 40
0.0560081619
100
AcDbArc
 50
68.1168238406
 51
73.432090918
  0
ARC
  5
3F0
100
AcDbEntity
  8
ASSI
100
AcDbCircle
 62
253
  6
CONTINUOUS
 10
-11.8582317333
 20
23.6573474992
 40
0.0559292771
100
AcDbArc
 50
68.1315730179
 51
73.9669109909
  0
ARC
  5
3F1
100
AcDbEntity
  8
ASSI
100
AcDbCircle
 62
253
  6
CONTINUOUS
 10
0.8783598077
 20
15.7004968411
 40
0.0549028543
100
AcDbArc
 50
242.2640277522
 51
248.1023131597
  0
ARC
  5
3F2
100
AcDbEntity
  8
ASSI
100
AcDbCircle
 62
253
  6
CONTINUOUS
 10
-13.7025465807
 20
21.5565175655
 40
0.0549028543
100
AcDbArc
 50
242.2640277523
 51
248.1023131597
  0
ARC
  5
3F3
100
AcDbEntity
  8
RACCORDO
100
AcDbCircle
 62
7
  6
CONTINUOUS
 10
56.4979411322
 20
-84.5346376451
 40
117.3500666731
100
AcDbArc
 50
112.7858570159
 51
113.1103510031
  0
ARC
  5
3F4
100
AcDbEntity
  8
RACCORDO
100
AcDbCircle
 62
7
  6
CONTINUOUS
 10
42.4863837992
 20
-53.4548106201
 40
83.0159898577
100
AcDbArc
 50
112.5217788448
 51
112.8893298631
  0
ARC
  5
3F5
100
AcDbEntity
  8
RACCORDO
100
AcDbCircle
 62
7
  6
CONTINUOUS
 10
38.533996411
 20
-41.7699238624
 40
70.9655428018
100
AcDbArc
 50
112.4999811584
 51
112.7860546722
  0
ARC
  5
3F6
100
AcDbEntity
  8
RACCORDO
100
AcDbCircle
 62
253
  6
CONTINUOUS
 10
20.1354307045
 20
17.7135588057
 40
0.1683790264
100
AcDbArc
 50
0.0858838491
 51
3.1464230421
  0
ARC
  5
3F7
100
AcDbEntity
  8
RACCORDO
100
AcDbCircle
 62
7
  6
CONTINUOUS
 10
21.5763519426
 20
19.7142476163
 40
0.1109965184
100
AcDbArc
 50
350.7389418951
 51
0.0268778116
  0
ARC
  5
3F8
100
AcDbEntity
  8
0
100
AcDbCircle
 62
253
  6
CONTINUOUS
 10
59.502647114
 20
151.8503630285
 40
184.0175547507
100
AcDbArc
 50
250.0938720329
 51
250.2863266139
  0
ARC
  5
3F9
100
AcDbEntity
  8
0
100
AcDbCircle
 62
253
  6
CONTINUOUS
 10
59.0835532511
 20
151.0690471905
 40
182.9169734564
100
AcDbArc
 50
250.1062962444
 51
250.2999341492
  0
ARC
  5
3FA
100
AcDbEntity
  8
0
100
AcDbCircle
 62
253
  6
CONTINUOUS
 10
58.9948570915
 20
150.4509361036
 40
182.5287502835
100
AcDbArc
 50
249.8159377462
 51
250.0095047933
  0
ARC
  5
3FB
100
AcDbEntity
  8
0
100
AcDbCircle
 62
253
  6
CONTINUOUS
 10
58.575533462
 20
149.6680608749
 40
181.426620789
100
AcDbArc
 50
249.826643467
 51
250.021408447
  0
ARC
  5
3FC
100
AcDbEntity
  8
0
100
AcDbCircle
 62
253
  6
CONTINUOUS
 10
55.2351536236
 20
144.3523566892
 40
172.8277975703
100
AcDbArc
 50
250.2280226798
 51
250.4332316567
  0
ARC
  5
3FD
100
AcDbEntity
  8
0
100
AcDbCircle
 62
253
  6
CONTINUOUS
 10
54.946478922
 20
143.8925188806
 40
172.0723642842
100
AcDbArc
 50
250.2377488587
 51
250.4438805493
  0
ARC
  5
3FE
100
AcDbEntity
  8
0
100
AcDbCircle
 62
253
  6
CONTINUOUS
 10
54.7246233088
 20
142.93524651
 40
171.321399731
100
AcDbArc
 50
249.9315563476
 51
250.1380399753
  0
ARC
  5
3FF
100
AcDbEntity
  8
0
100
AcDbCircle
 62
253
  6
CONTINUOUS
 10
54.4357240969
 20
142.4740431482
 40
170.5646045729
100
AcDbArc
 50
249.9399410173
 51
250.1473596535
  0
ARC
  5
400
100
AcDbEntity
  8
ASSI
100
AcDbCircle
 62
253
  6
CONTINUOUS
 10
584.7869086251
 20
-8.1760744306
 40
584.4727208103
100
AcDbArc
 50
178.2493078407
 51
178.4848298642
  0
ARC
  5
401
100
AcDbEntity
  8
ASSI
100
AcDbCircle
 62
253
  6
CONTINUOUS
 10
555.0072732342
 20
-0.6167839587
 40
572.4218714956
100
AcDbArc
 50
178.2879784976
 51
181.7120214986
  0
ARC
  5
402
100
AcDbEntity
  8
ASSI
100
AcDbCircle
 62
253
  6
CONTINUOUS
 10
569.7300246392
 20
-7.4787891509
 40
570.0599748864
100
AcDbArc
 50
178.2808830523
 51
181.7191169431
  0
ARC
  5
403
100
AcDbEntity
  8
ASSI
100
AcDbCircle
 62
253
  6
CONTINUOUS
 10
556.9373396651
 20
-7.5418418161
 40
556.6161284725
100
AcDbArc
 50
178.4742915948
 51
180.9924241708
  0
ARC
  5
404
100
AcDbEntity
  8
ASSI
100
AcDbCircle
 62
253
  6
CONTINUOUS
 10
517.3281300487
 20
-7.9388814818
 40
517.0060644805
100
AcDbArc
 50
181.0244583905
 51
181.834354298
  0
ARC
  5
405
100
AcDbEntity
  8
0
100
AcDbCircle
 62
253
  6
CONTINUOUS
 10
486.9407836696
 20
-7.3669033397
 40
489.4056255237
100
AcDbArc
 50
181.3200870617
 51
181.6215195464
  0
ARC
  5
406
100
AcDbEntity
  8
0
100
AcDbCircle
 62
253
  6
CONTINUOUS
 10
482.3136550479
 20
-7.2807474453
 40
485.0349652694
100
AcDbArc
 50
181.3314696986
 51
181.6355659689
  0
ARC
  5
407
100
AcDbEntity
  8
0
100
AcDbCircle
 62
253
  6
CONTINUOUS
 10
471.7551748504
 20
-7.062977081
 40
475.1163980562
100
AcDbArc
 50
181.3536127063
 51
181.6727963977
  0
ARC
  5
408
100
AcDbEntity
  8
0
100
AcDbCircle
 62
253
  6
CONTINUOUS
 10
467.9193992619
 20
-6.9751405342
 40
471.53561294
100
AcDbArc
 50
181.3634364948
 51
181.6849960871
  0
ARC
  5
409
100
AcDbEntity
  8
0
100
AcDbCircle
 62
253
  6
CONTINUOUS
 10
459.2079149179
 20
-6.7532264003
 40
463.4606332449
100
AcDbArc
 50
181.3906636239
 51
181.7086309105
  0
ARC
  5
40A
100
AcDbEntity
  8
0
100
AcDbCircle
 62
253
  6
CONTINUOUS
 10
456.0658246234
 20
-6.6637115886
 40
460.5720569942
100
AcDbArc
 50
181.3989914785
 51
181.7189127129
  0
SPLINE
  5
40B
100
AcDbEntity
  8
RACCORDO
100
AcDbSpline
 62
7
  6
CONTINUOUS
 70
0
 71
3
 72
15
 73
11
 74
9
 42
0.0000001
 43
0.0000001
 44
0.0000000001
 12
-2.6851013184
 22
1.0170132345
 32
0.0
 13
-2.6851013184
 23
-1.0170132345
 33
0.0
 40
0.0
 40
0.0
 40
0.0
 40
0.0
 40
0.1194969489
 40
0.2436249186
 40
0.3709751681
 40
0.5000004751
 40
0.6290256973
 40
0.7563757748
 40
0.8805032631
 40
1.0
 40
1.0
 40
1.0
 40
1.0
 10
14.4740576832
 20
23.9175582744
 30
0.0
 10
14.3671038782
 20
23.9580682672
 30
0.0
 10
14.1445262742
 20
24.0290695546
 30
0.0
 10
13.7971533362
 20
24.1046998928
 30
0.0
 10
13.435420995
 20
24.150595186
 30
0.0
 10
13.0664521846
 20
24.1659930897
 30
0.0
 10
12.6974835424
 20
24.1505950222
 30
0.0
 10
12.3357519391
 20
24.1046995551
 30
0.0
 10
11.9883798231
 20
24.0290693548
 30
0.0
 10
11.7658028762
 20
23.9580681953
 30
0.0
 10
11.6588492609
 20
23.9175582744
 30
0.0
 11
14.4740576832
 21
23.9175582744
 31
0.0
 11
14.1474225893
 21
24.0225873121
 31
0.0
 11
13.7992950994
 21
24.0989422407
 31
0.0
 11
13.4365898074
 21
24.1452903946
 31
0.0
 11
13.0664521039
 21
24.1608381193
 31
0.0
 11
12.696314652
 21
24.1452902122
 31
0.0
 11
12.333609878
 21
24.0989419019
 31
0.0
 11
11.9854837575
 21
24.0225871812
 31
0.0
 11
11.6588492609
 21
23.9175582744
 31
0.0
  0
SPLINE
  5
40C
100
AcDbEntity
  8
RACCORDO
100
AcDbSpline
 62
7
  6
CONTINUOUS
 70
0
 71
3
 72
10
 73
6
 74
4
 42
0.0000001
 43
0.0000001
 44
0.0000000001
 12
-0.0968376601
 22
-0.0568331969
 32
0.0
 13
0.0
 23
-0.1122833232
 33
0.0
 40
0.0
 40
0.0
 40
0.0
 40
0.0
 40
0.2347133986
 40
0.4743258647
 40
1.0
 40
1.0
 40
1.0
 40
1.0
 10
10.4268792411
 20
23.3927320331
 30
0.0
 10
10.4193028757
 20
23.3882855289
 30
0.0
 10
10.4052040886
 20
23.3769945286
 30
0.0
 10
10.3838173076
 20
23.3457410739
 30
0.0
 10
10.3783533829
 20
23.3161470689
 30
0.0
 10
10.3783533829
 20
23.296472256
 30
0.0
 11
10.4268792411
 21
23.3927320331
 31
0.0
 11
10.4063180122
 21
23.3762459698
 31
0.0
 11
10.3910041045
 21
23.354125041
 31
0.0
 11
10.3783533829
 21
23.296472256
 31
0.0
  0
SPLINE
  5
40D
100
AcDbEntity
  8
RACCORDO
100
AcDbSpline
 62
7
  6
CONTINUOUS
 70
0
 71
3
 72
9
 73
5
 74
3
 42
0.0000001
 43
0.0000001
 44
0.0000000001
 12
-0.6226598091
 22
-0.2359094503
 32
0.0
 13
-0.5754650926
 23
-0.3349603467
 33
0.0
 40
0.0
 40
0.0
 40
0.0
 40
0.0
 40
0.2578784322
 40
1.0
 40
1.0
 40
1.0
 40
1.0
 10
11.0389649784
 20
23.6827720412
 30
0.0
 10
10.9854414666
 20
23.6624933881
 30
0.0
 10
10.7793948208
 20
23.5799918576
 30
0.0
 10
10.579536585
 20
23.481615216
 30
0.0
 10
10.4371815661
 20
23.3987547835
 30
0.0
 11
11.0389649784
 21
23.6827720412
 31
0.0
 11
10.8795830319
 21
23.6188869421
 31
0.0
 11
10.4371815661
 21
23.3987547835
 31
0.0
  0
SPLINE
  5
40E
100
AcDbEntity
  8
RACCORDO
100
AcDbSpline
 62
7
  6
CONTINUOUS
 70
0
 71
3
 72
9
 73
5
 74
3
 42
0.0000001
 43
0.0000001
 44
0.0000000001
 12
-0.6557060108
 22
0.4094479537
 32
0.0
 13
-0.7229511323
 23
0.2737510908
 33
0.0
 40
0.0
 40
0.0
 40
0.0
 40
0.0
 40
0.2406763686
 40
1.0
 40
1.0
 40
1.0
 40
1.0
 10
15.7868688815
 20
23.3438040625
 30
0.0
 10
15.7342645676
 20
23.3766522114
 30
0.0
 10
15.5119069027
 20
23.5070389205
 30
0.0
 10
15.2760436814
 20
23.6138147753
 30
0.0
 10
15.093059055
 20
23.6831033328
 30
0.0
 11
15.7868688815
 21
23.3438040625
 31
0.0
 11
15.626449786
 21
23.4380465492
 31
0.0
 11
15.093059055
 21
23.6831033328
 31
0.0
  0
SPLINE
  5
40F
100
AcDbEntity
  8
RACCORDO
100
AcDbSpline
 62
7
  6
CONTINUOUS
 70
0
 71
3
 72
9
 73
5
 74
3
 42
0.0000001
 43
0.0000001
 44
0.0000000001
 12
0.1022459636
 22
0.0423299696
 32
0.0
 13
0.1026894704
 23
-0.0412424064
 33
0.0
 40
0.0
 40
0.0
 40
0.0
 40
0.0
 40
0.4660640846
 40
1.0
 40
1.0
 40
1.0
 40
1.0
 10
10.6883887488
 20
23.2298820039
 30
0.0
 10
10.7042731393
 20
23.2364581634
 30
0.0
 10
10.7422628315
 20
23.2414090799
 30
0.0
 10
10.7786195649
 20
23.2319723084
 30
0.0
 10
10.7968960971
 20
23.2246320411
 30
0.0
 11
10.6883887488
 21
23.2298820039
 31
0.0
 11
10.7393296972
 21
23.23794782
 31
0.0
 11
10.7968960971
 21
23.2246320411
 31
0.0
  0
SPLINE
  5
410
100
AcDbEntity
  8
RACCORDO
100
AcDbSpline
 62
253
  6
CONTINUOUS
 70
0
 71
3
 72
9
 73
5
 74
3
 42
0.0000001
 43
0.0000001
 44
0.0000000001
 12
0.0665715822
 22
0.4383666387
 32
0.0
 13
0.2502688139
 23
0.3660090248
 33
0.0
 40
0.0
 40
0.0
 40
0.0
 40
0.0
 40
0.4854866439
 40
1.0
 40
1.0
 40
1.0
 40
1.0
 10
10.5216682117
 20
22.8220693472
 30
0.0
 10
10.5324414163
 20
22.89300973
 30
0.0
 10
10.5732979651
 20
23.0367396279
 30
0.0
 10
10.645466533
 20
23.1671098266
 30
0.0
 10
10.6883887488
 20
23.2298820039
 30
0.0
 11
10.5216682117
 21
22.8220693472
 31
0.0
 11
10.5794921916
 21
23.0294187768
 31
0.0
 11
10.6883887488
 21
23.2298820039
 31
0.0
  0
SPLINE
  5
411
100
AcDbEntity
  8
RACCORDO
100
AcDbSpline
 62
253
  6
CONTINUOUS
 70
0
 71
3
 72
9
 73
5
 74
3
 42
0.0000001
 43
0.0000001
 44
0.0000000001
 12
0.2736904233
 22
0.1384718904
 32
0.0
 13
0.2867884792
 23
0.1087808828
 33
0.0
 40
0.0
 40
0.0
 40
0.0
 40
0.0
 40
0.244377623
 40
1.0
 40
1.0
 40
1.0
 40
1.0
 10
11.3766804724
 20
23.7936975763
 30
0.0
 10
11.3989750775
 20
23.8049773868
 30
0.0
 10
11.490857217
 20
23.8498396934
 30
0.0
 10
11.5851986343
 20
23.8896223676
 30
0.0
 10
11.6574332318
 20
23.9170214573
 30
0.0
 11
11.3766804724
 21
23.7936975763
 31
0.0
 11
11.4440298243
 21
23.8266007167
 31
0.0
 11
11.6574332318
 21
23.9170214573
 31
0.0
  0
SPLINE
  5
412
100
AcDbEntity
  8
RACCORDO
100
AcDbSpline
 62
253
  6
CONTINUOUS
 70
0
 71
3
 72
21
 73
17
 74
15
 42
0.0000001
 43
0.0000001
 44
0.0000000001
 12
3.8774438779
 22
1.9116115066
 32
0.0
 13
1.7703391743
 23
-3.9439483752
 33
0.0
 40
0.0
 40
0.0
 40
0.0
 40
0.0
 40
0.0618088843
 40
0.1267260845
 40
0.1942101443
 40
0.2636206922
 40
0.4052543288
 40
0.5457102527
 40
0.6136819073
 40
0.6792124201
 40
0.7417303364
 40
0.8007878307
 40
0.8560966001
 40
0.9075716548
 40
0.9553819341
 40
1.0
 40
1.0
 40
1.0
 40
1.0
 10
11.4851543461
 20
23.7884610577
 30
0.0
 10
11.5650411728
 20
23.8278459159
 30
0.0
 10
11.7331304993
 20
23.9000761178
 30
0.0
 10
11.9994923519
 20
23.9869839674
 30
0.0
 10
12.2828214403
 20
24.0539887939
 30
0.0
 10
12.6797415539
 20
24.1157494723
 30
0.0
 10
13.1876799264
 20
24.1375128654
 30
0.0
 10
13.6915559868
 20
24.0868602624
 30
0.0
 10
14.0775108704
 20
24.0021410048
 30
0.0
 10
14.3478574927
 20
23.919076018
 30
0.0
 10
14.5978886417
 20
23.8171370205
 30
0.0
 10
14.8236911539
 20
23.6978795891
 30
0.0
 10
15.0217236782
 20
23.5631072216
 30
0.0
 10
15.1888778737
 20
23.4147502176
 30
0.0
 10
15.3223881574
 20
23.2550030185
 30
0.0
 10
15.3893763019
 20
23.1388305096
 30
0.0
 10
15.4157060052
 20
23.0801733935
 30
0.0
 11
11.4851543461
 21
23.7884610577
 31
0.0
 11
11.7303676824
 21
23.8946122183
 31
0.0
 11
11.9970035727
 21
23.9821597428
 31
0.0
 11
12.2808198978
 21
24.0496805625
 31
0.0
 11
12.5772756418
 21
24.0960862348
 31
0.0
 11
13.1889789528
 21
24.1228930817
 31
0.0
 11
13.7929945964
 21
24.0607976852
 31
0.0
 11
14.0799245007
 21
23.9974230204
 31
0.0
 11
14.3505747016
 21
23.9137394508
 31
0.0
 11
14.600591873
 21
23.8110919235
 31
0.0
 11
14.8259622456
 21
23.691129997
 31
0.0
 11
15.0230683417
 21
23.555780681
 31
0.0
 11
15.1887446999
 21
23.4072182842
 31
0.0
 11
15.3203289933
 21
23.2478290542
 31
0.0
 11
15.4157060052
 21
23.0801733935
 31
0.0
  0
SPLINE
  5
413
100
AcDbEntity
  8
RACCORDO
100
AcDbSpline
 62
253
  6
CONTINUOUS
 70
0
 71
3
 72
9
 73
5
 74
3
 42
0.0000001
 43
0.0000001
 44
0.0000000001
 12
-0.6225103952
 22
-0.2358518365
 32
0.0
 13
-0.5743484785
 23
-0.3365547595
 33
0.0
 40
0.0
 40
0.0
 40
0.0
 40
0.0
 40
0.2589788209
 40
1.0
 40
1.0
 40
1.0
 40
1.0
 10
11.038963786
 20
23.6827695983
 30
0.0
 10
10.9852247833
 20
23.6624093881
 30
0.0
 10
10.7792490418
 20
23.5798789842
 30
0.0
 10
10.579522678
 20
23.4812883466
 30
0.0
 10
10.4376545491
 20
23.3981569451
 30
0.0
 11
11.038963786
 21
23.6827695983
 31
0.0
 11
10.8789572199
 21
23.6185849743
 31
0.0
 11
10.4376545491
 21
23.3981569451
 31
0.0
  0
SPLINE
  5
414
100
AcDbEntity
  8
RACCORDO
100
AcDbSpline
 62
253
  6
CONTINUOUS
 70
0
 71
3
 72
10
 73
6
 74
4
 42
0.0000001
 43
0.0000001
 44
0.0000000001
 12
0.0165356123
 22
0.4952720662
 32
0.0
 13
0.2724218084
 23
0.4139495192
 33
0.0
 40
0.0
 40
0.0
 40
0.0
 40
0.0
 40
0.2408066671
 40
0.4858789421
 40
1.0
 40
1.0
 40
1.0
 40
1.0
 10
10.6410334067
 20
22.7598899797
 30
0.0
 10
10.642360702
 20
22.7996449183
 30
0.0
 10
10.6510880521
 20
22.8797948361
 30
0.0
 10
10.6928194387
 20
23.0400610828
 30
0.0
 10
10.7501796706
 20
23.1537042345
 30
0.0
 10
10.7968656
 20
23.2246442894
 30
0.0
 11
10.6410334067
 21
22.7598899797
 31
0.0
 11
10.6538482233
 21
22.8785311704
 31
0.0
 11
10.6842674096
 21
22.9961048965
 31
0.0
 11
10.7968656
 21
23.2246442894
 31
0.0
  0
SPLINE
  5
415
100
AcDbEntity
  8
RACCORDO
100
AcDbSpline
 62
253
  6
CONTINUOUS
 70
0
 71
3
 72
11
 73
7
 74
5
 42
0.0000001
 43
0.0000001
 44
0.0000000001
 12
1.2386282791
 22
-0.469263321
 32
0.0
 13
0.6291107865
 23
-1.1656018602
 33
0.0
 40
0.0
 40
0.0
 40
0.0
 40
0.0
 40
0.2848304678
 40
0.5467578975
 40
0.7845862083
 40
1.0
 40
1.0
 40
1.0
 40
1.0
 10
14.4742415407
 20
23.9174871651
 30
0.0
 10
14.5918412314
 20
23.872933668
 30
0.0
 10
14.8128839788
 20
23.7739292845
 30
0.0
 10
15.1069180927
 20
23.5881876364
 30
0.0
 10
15.3427345248
 20
23.3756418132
 30
0.0
 10
15.4614622715
 20
23.2118742885
 30
0.0
 10
15.5066353181
 20
23.1281787164
 30
0.0
 11
14.4742415407
 21
23.9174871651
 31
0.0
 11
14.8177636287
 21
23.7615227869
 31
0.0
 11
15.1097681187
 21
23.574182827
 31
0.0
 11
15.3416664219
 21
23.3609774271
 31
0.0
 11
15.5066353181
 21
23.1281787164
 31
0.0
  0
SPLINE
  5
416
100
AcDbEntity
  8
RACCORDO
100
AcDbSpline
 62
7
  6
CONTINUOUS
 70
0
 71
3
 72
9
 73
5
 74
3
 42
0.0000001
 43
0.0000001
 44
0.0000000001
 12
-0.1026894704
 22
0.0412424064
 32
0.0
 13
-0.1022459636
 23
-0.0423299696
 33
0.0
 40
0.0
 40
0.0
 40
0.0
 40
0.0
 40
0.5339359154
 40
1.0
 40
1.0
 40
1.0
 40
1.0
 10
11.4851878207
 20
23.7884476136
 30
0.0
 10
11.4669112886
 20
23.7957878809
 30
0.0
 10
11.4305545551
 20
23.8052246524
 30
0.0
 10
11.3925648629
 20
23.8002737358
 30
0.0
 10
11.3766804724
 20
23.7936975763
 30
0.0
 11
11.4851878207
 21
23.7884476136
 31
0.0
 11
11.4276214208
 21
23.8017633925
 31
0.0
 11
11.3766804724
 21
23.7936975763
 31
0.0
  0
SPLINE
  5
417
100
AcDbEntity
  8
ASSI
100
AcDbSpline
 62
253
  6
CONTINUOUS
 70
0
 71
3
 72
11
 73
7
 74
5
 42
0.0000001
 43
0.0000001
 44
0.0000000001
 12
0.0096351901
 22
-0.3068963783
 32
0.0
 13
0.2783185983
 23
-0.1296803059
 33
0.0
 40
0.0
 40
0.0
 40
0.0
 40
0.0
 40
0.2163720424
 40
0.4491757926
 40
0.7094207699
 40
1.0
 40
1.0
 40
1.0
 40
1.0
 10
-17.3455359801
 20
-17.4928160312
 30
0.0
 10
-17.3448410515
 20
-17.51495063
 30
0.0
 10
-17.3346217666
 20
-17.5609672615
 30
0.0
 10
-17.2953874969
 20
-17.6233752926
 30
0.0
 10
-17.2353187447
 20
-17.6776813111
 30
0.0
 10
-17.1860348354
 20
-17.7058794938
 30
0.0
 10
-17.1590769674
 20
-17.7184402949
 30
0.0
 11
-17.3455359801
 21
-17.4928160312
 31
0.0
 11
-17.3316026134
 21
-17.557775032
 31
0.0
 11
-17.294558257
 21
-17.6189090471
 31
0.0
 11
-17.2360679077
 21
-17.6733526195
 31
0.0
 11
-17.1590769674
 21
-17.7184402949
 31
0.0
  0
SPLINE
  5
418
100
AcDbEntity
  8
ASSI
100
AcDbSpline
 62
253
  6
CONTINUOUS
 70
0
 71
3
 72
9
 73
5
 74
3
 42
0.0000001
 43
0.0000001
 44
0.0000000001
 12
-17.4073149871
 22
6.0128757802
 32
0.0
 13
-16.7097715002
 23
7.7429210649
 33
0.0
 40
0.0
 40
0.0
 40
0.0
 40
0.0
 40
0.2549828826
 40
1.0
 40
1.0
 40
1.0
 40
1.0
 10
-0.0733698041
 20
9.6228671553
 30
0.0
 10
-1.5528922551
 20
10.1339272883
 30
0.0
 10
-7.3310796619
 20
12.2073823114
 30
0.0
 10
-13.009388382
 20
14.5620027664
 30
0.0
 10
-17.1590769807
 20
16.4848723438
 30
0.0
 11
-0.0733698041
 21
9.6228671553
 31
0.0
 11
-4.4930762773
 21
11.2095986933
 31
0.0
 11
-17.1590769807
 21
16.4848723438
 31
0.0
  0
SPLINE
  5
419
100
AcDbEntity
  8
ASSI
100
AcDbSpline
 62
253
  6
CONTINUOUS
 70
0
 71
3
 72
11
 73
7
 74
5
 42
0.0000001
 43
0.0000001
 44
0.0000000001
 12
-0.5004959153
 22
0.2655648242
 32
0.0
 13
-0.0186065867
 23
0.5662814071
 33
0.0
 40
0.0
 40
0.0
 40
0.0
 40
0.0
 40
0.2014397931
 40
0.4290168902
 40
0.6942563967
 40
1.0
 40
1.0
 40
1.0
 40
1.0
 10
-16.9398500097
 20
-18.2160532872
 30
0.0
 10
-16.9734566076
 20
-18.1982215128
 30
0.0
 10
-17.0372815757
 20
-18.1446675696
 30
0.0
 10
-17.1042611016
 20
-18.0299055896
 30
0.0
 10
-17.1464843745
 20
-17.8839854792
 30
0.0
 10
-17.157180694
 20
-17.7761525178
 30
0.0
 10
-17.1590769756
 20
-17.7184402118
 30
0.0
 11
-16.9398500097
 21
-18.2160532872
 31
0.0
 11
-17.0284469962
 21
-18.1441022317
 31
0.0
 11
-17.096045274
 21
-18.0342998155
 31
0.0
 11
-17.1401361575
 21
-17.8906319674
 31
0.0
 11
-17.1590769756
 21
-17.7184402118
 31
0.0
  0
SPLINE
  5
41A
100
AcDbEntity
  8
ASSI
100
AcDbSpline
 62
253
  6
CONTINUOUS
 70
0
 71
3
 72
12
 73
8
 74
6
 42
0.0000001
 43
0.0000001
 44
0.0000000001
 12
0.0172308346
 22
-0.5971369199
 32
0.0
 13
0.5631445787
 23
-0.199342886
 33
0.0
 40
0.0
 40
0.0
 40
0.0
 40
0.0
 40
0.3132787557
 40
0.5792218182
 40
0.8021350371
 40
0.9027123589
 40
1.0
 40
1.0
 40
1.0
 40
1.0
 10
-0.0733698046
 20
-24.5804454171
 30
0.0
 10
-0.0715704531
 20
-24.6428021875
 30
0.0
 10
-0.0602419963
 20
-24.7582483283
 30
0.0
 10
-0.0136510416
 20
-24.9123271457
 30
0.0
 10
0.0520319371
 20
-25.0128192708
 30
0.0
 10
0.1176639318
 20
-25.0658795036
 30
0.0
 10
0.153406767
 20
-25.0833973622
 30
0.0
 10
0.1716691029
 20
-25.0898618953
 30
0.0
 11
-0.0733698046
 21
-24.5804454171
 31
0.0
 11
-0.0527884058
 21
-24.7664584445
 31
0.0
 11
-0.003433197
 21
-24.9174680672
 31
0.0
 11
0.0725065161
 21
-25.0268577778
 31
0.0
 11
0.1194380361
 21
-25.0643737891
 31
0.0
 11
0.1716691029
 21
-25.0898618953
 31
0.0
  0
SPLINE
  5
41B
100
AcDbEntity
  8
ASSI
100
AcDbSpline
 62
253
  6
CONTINUOUS
 70
0
 71
3
 72
11
 73
7
 74
5
 42
0.0000001
 43
0.0000001
 44
0.0000000001
 12
-0.5553862165
 22
-0.3975310648
 32
0.0
 13
-0.6445030672
 23
0.2260544034
 33
0.0
 40
0.0
 40
0.0
 40
0.0
 40
0.0
 40
0.218784649
 40
0.4731475101
 40
0.7419382768
 40
1.0
 40
1.0
 40
1.0
 40
1.0
 10
0.5870069134
 20
9.6799108787
 30
0.0
 10
0.5465035872
 20
9.6509196472
 30
0.0
 10
0.4464796968
 20
9.6057660966
 30
0.0
 10
0.2793286318
 20
9.5750003691
 30
0.0
 10
0.1004063644
 20
9.5778393137
 30
0.0
 10
-0.017929272
 20
9.6034219135
 30
0.0
 10
-0.0733697961
 20
9.6228672432
 30
0.0
 11
0.5870069134
 21
9.6799108787
 31
0.0
 11
0.4525959018
 21
9.6146209225
 31
0.0
 11
0.2821164336
 21
9.581176428
 31
0.0
 11
0.0985554822
 21
9.5840387528
 31
0.0
 11
-0.0733697961
 21
9.6228672432
 31
0.0
  0
SPLINE
  5
41C
100
AcDbEntity
  8
ASSI
100
AcDbSpline
 62
253
  6
CONTINUOUS
 70
0
 71
3
 72
11
 73
7
 74
5
 42
0.0000001
 43
0.0000001
 44
0.0000000001
 12
-0.0078028981
 22
-0.3032486846
 32
0.0
 13
0.2758498888
 23
-0.1262041551
 33
0.0
 40
0.0
 40
0.0
 40
0.0
 40
0.0
 40
0.2059892516
 40
0.43428841
 40
0.6982028168
 40
1.0
 40
1.0
 40
1.0
 40
1.0
 10
-17.3455702206
 20
16.7042752747
 30
0.0
 10
-17.3461059917
 20
16.6834532849
 30
0.0
 10
-17.3373842372
 20
16.6389432473
 30
0.0
 10
-17.2983374319
 20
16.5786616451
 30
0.0
 10
-17.2371559246
 20
16.5255164588
 30
0.0
 10
-17.1868192638
 20
16.497573669
 30
0.0
 10
-17.159069024
 20
16.4848776495
 30
0.0
 11
-17.3455702206
 21
16.7042752747
 31
0.0
 11
-17.3343304018
 21
16.6428078257
 31
0.0
 11
-17.2980918527
 21
16.583791469
 31
0.0
 11
-17.2386066441
 21
16.530211406
 31
0.0
 11
-17.159069024
 21
16.4848776495
 31
0.0
  0
SPLINE
  5
41D
100
AcDbEntity
  8
ASSI
100
AcDbSpline
 62
253
  6
CONTINUOUS
 70
0
 71
3
 72
15
 73
11
 74
9
 42
0.0000001
 43
0.0000001
 44
0.0000000001
 12
0.0198417543
 22
-0.6155409822
 32
0.0
 13
0.5038601757
 23
0.3541317824
 33
0.0
 40
0.0
 40
0.0
 40
0.0
 40
0.0
 40
0.1580902622
 40
0.2963746706
 40
0.4161549374
 40
0.5226264154
 40
0.6249511601
 40
0.7338213836
 40
0.8574912785
 40
1.0
 40
1.0
 40
1.0
 40
1.0
 10
0.5870069056
 20
-24.4882730818
 30
0.0
 10
0.5880525016
 20
-24.5207100936
 30
0.0
 10
0.5939918081
 20
-24.5815469924
 30
0.0
 10
0.6173000265
 20
-24.6643233942
 30
0.0
 10
0.6543017747
 20
-24.7304360463
 30
0.0
 10
0.7050503672
 20
-24.7770498613
 30
0.0
 10
0.7677891979
 20
-24.8002345981
 30
0.0
 10
0.8378386205
 20
-24.7987037284
 30
0.0
 10
0.9117451338
 20
-24.7744462863
 30
0.0
 10
0.9590574293
 20
-24.7463666257
 30
0.0
 10
0.9829922524
 20
-24.7295443365
 30
0.0
 11
0.5870069056
 21
-24.4882730818
 31
0.0
 11
0.5974218607
 21
-24.585076004
 31
0.0
 11
0.6217076027
 21
-24.6667038058
 31
0.0
 11
0.659010146
 21
-24.7303452385
 31
0.0
 11
0.7080281014
 21
-24.7738983621
 31
0.0
 11
0.7670759275
 21
-24.7959119007
 31
0.0
 11
0.8341245081
 21
-24.7957077189
 31
0.0
 11
0.9069231481
 21
-24.7733196483
 31
0.0
 11
0.9829922524
 21
-24.7295443365
 31
0.0
  0
SPLINE
  5
41E
100
AcDbEntity
  8
ASSI
100
AcDbSpline
 62
253
  6
CONTINUOUS
 70
0
 71
3
 72
10
 73
6
 74
4
 42
0.0000001
 43
0.0000001
 44
0.0000000001
 12
-0.0100755256
 22
-0.2726586087
 32
0.0
 13
-0.223271158
 23
-0.1568254543
 33
0.0
 40
0.0
 40
0.0
 40
0.0
 40
0.0
 40
0.5267928112
 40
0.7675596177
 40
1.0
 40
1.0
 40
1.0
 40
1.0
 10
0.9829922524
 20
-24.7295443365
 30
0.0
 10
0.9812230143
 20
-24.7774225349
 30
0.0
 10
0.9667474285
 20
-24.8484748692
 30
0.0
 10
0.9179013456
 20
-24.9261271305
 30
0.0
 10
0.8859047124
 20
-24.9558286198
 30
0.0
 10
0.8686056346
 20
-24.9679794759
 30
0.0
 11
0.9829922524
 21
-24.7295443365
 31
0.0
 11
0.950511472
 21
-24.8695588629
 31
0.0
 11
0.9151952206
 21
-24.924950148
 31
0.0
 11
0.8686056346
 21
-24.9679794759
 31
0.0
  0
SPLINE
  5
41F
100
AcDbEntity
  8
ASSI
100
AcDbSpline
 62
253
  6
CONTINUOUS
 70
0
 71
3
 72
11
 73
7
 74
5
 42
0.0000001
 43
0.0000001
 44
0.0000000001
 12
-0.5303305576
 22
-0.4425528991
 32
0.0
 13
-0.6533472769
 23
0.2241448294
 33
0.0
 40
0.0
 40
0.0
 40
0.0
 40
0.0
 40
0.2250061829
 40
0.4800713183
 40
0.7459146387
 40
1.0
 40
1.0
 40
1.0
 40
1.0
 10
0.5870069055
 20
-24.4882730818
 30
0.0
 10
0.5472310207
 20
-24.5214654613
 30
0.0
 10
0.4484529975
 20
-24.5756817648
 30
0.0
 10
0.2805314246
 20
-24.6175788971
 30
0.0
 10
0.1008489585
 20
-24.6225584351
 30
0.0
 10
-0.0180279059
 20
-24.5994227906
 30
0.0
 10
-0.0733632322
 20
-24.5804388172
 30
0.0
 11
0.5870069055
 21
-24.4882730818
 31
0.0
 11
0.4525956545
 21
-24.5663007131
 31
0.0
 11
0.2821174813
 21
-24.6107608407
 31
0.0
 11
0.0985591304
 21
-24.6157121422
 31
0.0
 11
-0.0733632322
 21
-24.5804388172
 31
0.0
  0
SPLINE
  5
420
100
AcDbEntity
  8
ASSI
100
AcDbSpline
 62
253
  6
CONTINUOUS
 70
0
 71
3
 72
11
 73
7
 74
5
 42
0.0000001
 43
0.0000001
 44
0.0000000001
 12
-0.0287754872
 22
0.7340971417
 32
0.0
 13
-0.6759473725
 23
0.2877877546
 33
0.0
 40
0.0
 40
0.0
 40
0.0
 40
0.0
 40
0.2297087889
 40
0.4876014716
 40
0.7522934491
 40
1.0
 40
1.0
 40
1.0
 40
1.0
 10
0.9829922664
 20
10.5350735211
 30
0.0
 10
0.980788939
 20
10.5912830429
 30
0.0
 10
0.9515397076
 20
10.709725746
 30
0.0
 10
0.8595929073
 20
10.871318249
 30
0.0
 10
0.7293322541
 20
11.0100627026
 30
0.0
 10
0.621866699
 20
11.0786191696
 30
0.0
 10
0.5660545016
 20
11.1023814737
 30
0.0
 11
0.9829922664
 21
10.5350735211
 31
0.0
 11
0.9464954281
 21
10.6998377943
 31
0.0
 11
0.8544571014
 21
10.8654440414
 31
0.0
 11
0.7209051813
 21
11.0067880468
 31
0.0
 11
0.5660545016
 21
11.1023814737
 31
0.0
  0
SPLINE
  5
421
100
AcDbEntity
  8
ASSI
100
AcDbSpline
 62
253
  6
CONTINUOUS
 70
0
 71
3
 72
9
 73
5
 74
3
 42
0.0000001
 43
0.0000001
 44
0.0000000001
 12
16.7277342261
 22
-7.7033553399
 32
0.0
 13
17.3930136851
 23
-6.0532512569
 33
0.0
 40
0.0
 40
0.0
 40
0.0
 40
0.0
 40
0.2447875228
 40
1.0
 40
1.0
 40
1.0
 40
1.0
 10
-17.1590769818
 20
-17.7184402252
 30
0.0
 10
-15.7941634406
 20
-18.3470019822
 30
0.0
 10
-10.1853438074
 20
-20.8429763485
 30
0.0
 10
-4.4518434557
 20
-23.0566151216
 30
0.0
 10
-0.0733698054
 20
-24.5804454138
 30
0.0
 11
-17.1590769818
 21
-17.7184402252
 31
0.0
 11
-13.0407543278
 21
-19.5520509348
 31
0.0
 11
-0.0733698054
 21
-24.5804454138
 31
0.0
  0
SPLINE
  5
422
100
AcDbEntity
  8
ASSI
100
AcDbSpline
 62
253
  6
CONTINUOUS
 70
0
 71
3
 72
9
 73
5
 74
3
 42
0.0000001
 43
0.0000001
 44
0.0000000001
 12
-17.3941929204
 22
5.9650789902
 32
0.0
 13
-16.6666849086
 23
7.7692811037
 33
0.0
 40
0.0
 40
0.0
 40
0.0
 40
0.0
 40
0.2548886694
 40
1.0
 40
1.0
 40
1.0
 40
1.0
 10
0.566054511
 20
11.1023814817
 30
0.0
 10
-0.9118063853
 20
11.6091918306
 30
0.0
 10
-6.684725103
 20
13.6697437214
 30
0.0
 10
-12.3538275713
 20
16.0241588851
 30
0.0
 10
-16.4933394942
 20
17.9538186787
 30
0.0
 11
0.566054511
 21
11.1023814817
 31
0.0
 11
-3.8479647682
 21
12.6787062678
 31
0.0
 11
-16.4933394942
 21
17.9538186787
 31
0.0
  0
SPLINE
  5
423
100
AcDbEntity
  8
ASSI
100
AcDbSpline
 62
253
  6
CONTINUOUS
 70
0
 71
3
 72
11
 73
7
 74
5
 42
0.0000001
 43
0.0000001
 44
0.0000000001
 12
0.2523837347
 22
0.2368314665
 32
0.0
 13
0.3237068576
 23
-0.1224767874
 33
0.0
 40
0.0
 40
0.0
 40
0.0
 40
0.0
 40
0.2202818147
 40
0.4551538172
 40
0.7143611407
 40
1.0
 40
1.0
 40
1.0
 40
1.0
 10
-16.8212058801
 20
17.9210137278
 30
0.0
 10
-16.8026740311
 20
17.9384036162
 30
0.0
 10
-16.7574114168
 20
17.967474916
 30
0.0
 10
-16.6759793878
 20
17.9867303658
 30
0.0
 10
-16.5852016733
 20
17.9824753704
 30
0.0
 10
-16.5241605801
 20
17.9654800553
 30
0.0
 10
-16.4933394943
 20
17.9538186787
 30
0.0
 11
-16.8212058801
 21
17.9210137278
 31
0.0
 11
-16.7573113507
 21
17.9626073324
 31
0.0
 11
-16.6784820197
 21
17.9824555673
 31
0.0
 11
-16.5888203058
 21
17.9794459683
 31
0.0
 11
-16.4933394943
 21
17.9538186787
 31
0.0
  0
SPLINE
  5
424
100
AcDbEntity
  8
ASSI
100
AcDbSpline
 62
253
  6
CONTINUOUS
 70
0
 71
3
 72
11
 73
7
 74
5
 42
0.0000001
 43
0.0000001
 44
0.0000000001
 12
-0.73543174
 22
-0.6232421509
 32
0.0
 13
-0.0295812205
 23
-0.9635432394
 33
0.0
 40
0.0
 40
0.0
 40
0.0
 40
0.0
 40
0.2302416709
 40
0.4908564397
 40
0.7564255535
 40
1.0
 40
1.0
 40
1.0
 40
1.0
 10
0.9829922664
 20
10.5350735211
 30
0.0
 10
0.9265499222
 20
10.4872414164
 30
0.0
 10
0.8219439821
 20
10.3667436496
 30
0.0
 10
0.7007206234
 20
10.1547818805
 30
0.0
 10
0.6162032903
 20
9.921096811
 30
0.0
 10
0.5894086565
 20
9.7581423824
 30
0.0
 10
0.5870069134
 20
9.6799108787
 30
0.0
 11
0.9829922664
 21
10.5350735211
 31
0.0
 11
0.8341245223
 21
10.3704490062
 31
0.0
 11
0.708028116
 21
10.1531538864
 31
0.0
 11
0.6217076182
 21
9.9121376859
 31
0.0
 11
0.5870069134
 21
9.6799108787
 31
0.0
  0
SPLINE
  5
425
100
AcDbEntity
  8
ASSI
100
AcDbSpline
 62
253
  6
CONTINUOUS
 70
0
 71
3
 72
12
 73
8
 74
6
 42
0.0000001
 43
0.0000001
 44
0.0000000001
 12
0.0516321688
 22
1.6482195444
 32
0.0
 13
1.2436344446
 23
1.0828974632
 33
0.0
 40
0.0
 40
0.0
 40
0.0
 40
0.0
 40
0.2437484345
 40
0.5095258554
 40
0.7700942412
 40
0.8902944366
 40
1.0
 40
1.0
 40
1.0
 40
1.0
 10
-17.1590769905
 20
16.4848723398
 30
0.0
 10
-17.1548819037
 20
16.6187893177
 30
0.0
 10
-17.109679348
 20
16.8977879435
 30
0.0
 10
-16.9678929101
 20
17.2983633767
 30
0.0
 10
-16.7936157396
 20
17.6107609618
 30
0.0
 10
-16.627854734
 20
17.8239103905
 30
0.0
 10
-16.5388173668
 20
17.9142187199
 30
0.0
 10
-16.4933394943
 20
17.9538186787
 30
0.0
 11
-17.1590769905
 21
16.4848723398
 31
0.0
 11
-17.100509436
 21
16.8825305386
 31
0.0
 11
-16.9554680875
 21
17.2961094053
 31
0.0
 11
-16.7435810289
 21
17.6699177956
 31
0.0
 11
-16.6212087109
 21
17.8258460018
 31
0.0
 11
-16.4933394943
 21
17.9538186787
 31
0.0
  0
SPLINE
  5
426
100
AcDbEntity
  8
ASSI
100
AcDbSpline
 62
253
  6
CONTINUOUS
 70
0
 71
3
 72
12
 73
8
 74
6
 42
0.0000001
 43
0.0000001
 44
0.0000000001
 12
-1.2122683539
 22
-1.1131994736
 32
0.0
 13
-0.0451179659
 23
-1.6452270357
 33
0.0
 40
0.0
 40
0.0
 40
0.0
 40
0.0
 40
0.1087571184
 40
0.2283925169
 40
0.4888107117
 40
0.7553044801
 40
1.0
 40
1.0
 40
1.0
 40
1.0
 10
0.5660545005
 20
11.1023814727
 30
0.0
 10
0.5221068962
 20
11.0620253504
 30
0.0
 10
0.4361978687
 20
10.9702207013
 30
0.0
 10
0.2764520002
 20
10.7543327349
 30
0.0
 10
0.108950103
 20
10.4391720389
 30
0.0
 10
-0.0268241352
 20
10.0366279462
 30
0.0
 10
-0.0696897352
 20
9.757060387
 30
0.0
 10
-0.0733697899
 20
9.6228671587
 30
0.0
 11
0.5660545005
 21
11.1023814727
 31
0.0
 11
0.4428450051
 21
10.9725373468
 31
0.0
 11
0.325011368
 21
10.8147863042
 31
0.0
 11
0.1212208175
 21
10.4377261739
 31
0.0
 11
-0.0178633352
 21
10.0217547637
 31
0.0
 11
-0.0733697899
 21
9.6228671587
 31
0.0
  0
SPLINE
  5
427
100
AcDbEntity
  8
0
100
AcDbSpline
 62
253
  6
CONTINUOUS
 70
0
 71
3
 72
22
 73
18
 74
16
 42
0.0000001
 43
0.0000001
 44
0.0000000001
 12
0.0100655488
 22
-0.3311009593
 32
0.0
 13
-0.0107511893
 23
0.3510893976
 33
0.0
 40
0.0
 40
0.0
 40
0.0
 40
0.0
 40
0.1111111111
 40
0.2222222222
 40
0.3333333333
 40
0.3888888889
 40
0.4444444444
 40
0.5
 40
0.5555555556
 40
0.6111111111
 40
0.6666666667
 40
0.7222222222
 40
0.7777777778
 40
0.8333333333
 40
0.8888888889
 40
0.9444444444
 40
1.0
 40
1.0
 40
1.0
 40
1.0
 10
-3.1420600071
 20
-21.4921876552
 30
0.0
 10
-3.141687209
 20
-21.5044506537
 30
0.0
 10
-3.146664037
 20
-21.5259547107
 30
0.0
 10
-3.1657909013
 20
-21.5516568246
 30
0.0
 10
-3.1910943406
 20
-21.566654475
 30
0.0
 10
-3.2154258761
 20
-21.5724111748
 30
0.0
 10
-3.2352927336
 20
-21.5731128195
 30
0.0
 10
-3.2563841802
 20
-21.5696409384
 30
0.0
 10
-3.2781589049
 20
-21.561276764
 30
0.0
 10
-3.3003361491
 20
-21.5479321839
 30
0.0
 10
-3.3217943156
 20
-21.5306797965
 30
0.0
 10
-3.3421616077
 20
-21.5100386171
 30
0.0
 10
-3.3602173911
 20
-21.4873374758
 30
0.0
 10
-3.3749213092
 20
-21.4643137539
 30
0.0
 10
-3.3862018394
 20
-21.4412897189
 30
0.0
 10
-3.3933161063
 20
-21.4198032993
 30
0.0
 10
-3.3953169057
 20
-21.406584802
 30
0.0
 10
-3.3955160018
 20
-21.4000831465
 30
0.0
 11
-3.1420600071
 21
-21.4921876552
 31
0.0
 11
-3.1486076407
 21
-21.5248623821
 31
0.0
 11
-3.1676637784
 21
-21.550372669
 31
0.0
 11
-3.1975179565
 21
-21.5675735316
 31
0.0
 11
-3.2156955771
 21
-21.5718085281
 31
0.0
 11
-3.2354968318
 21
-21.5724172319
 31
0.0
 11
-3.2564980599
 21
-21.5688255562
 31
0.0
 11
-3.2782259915
 21
-21.5604466964
 31
0.0
 11
-3.3002163028
 21
-21.5472808827
 31
0.0
 11
-3.3216125032
 21
-21.5301149979
 31
0.0
 11
-3.3417763563
 21
-21.5096952901
 31
0.0
 11
-3.3596587469
 21
-21.4872837124
 31
0.0
 11
-3.3743507446
 21
-21.4643137017
 31
0.0
 11
-3.3855074622
 21
-21.4415459881
 31
0.0
 11
-3.392630595
 21
-21.4200797449
 31
0.0
 11
-3.3955160018
 21
-21.4000831465
 31
0.0
  0
SPLINE
  5
428
100
AcDbEntity
  8
0
100
AcDbSpline
 62
253
  6
CONTINUOUS
 70
0
 71
3
 72
17
 73
13
 74
11
 42
0.0000001
 43
0.0000001
 44
0.0000000001
 12
-0.5003673317
 22
0.183996777
 32
0.0
 13
-0.0122532971
 23
0.4082234427
 33
0.0
 40
0.0
 40
0.0
 40
0.0
 40
0.0
 40
0.1666666667
 40
0.25
 40
0.3333333333
 40
0.4166666667
 40
0.5
 40
0.6666666667
 40
0.75
 40
0.8333333333
 40
0.9166666667
 40
1.0
 40
1.0
 40
1.0
 40
1.0
 10
-3.9843398046
 20
-20.86851486
 30
0.0
 10
-4.0121379897
 20
-20.8582928168
 30
0.0
 10
-4.0521702231
 20
-20.8383717437
 30
0.0
 10
-4.1026783486
 20
-20.8044943062
 30
0.0
 10
-4.1385869241
 20
-20.7758246465
 30
0.0
 10
-4.1732818145
 20
-20.7429440222
 30
0.0
 10
-4.2152509561
 20
-20.6952509888
 30
0.0
 10
-4.2495382229
 20
-20.642422834
 30
0.0
 10
-4.2742347467
 20
-20.5893810152
 30
0.0
 10
-4.2878707975
 20
-20.5502258517
 30
0.0
 10
-4.2962772288
 20
-20.5134477705
 30
0.0
 10
-4.2986406369
 20
-20.4904563497
 30
0.0
 10
-4.2989810063
 20
-20.4791168096
 30
0.0
 11
-3.9843398046
 21
-20.86851486
 31
0.0
 11
-4.064558239
 21
-20.8292927171
 31
0.0
 11
-4.1023495955
 21
-20.8039507093
 31
0.0
 11
-4.1383846433
 21
-20.7751228191
 31
0.0
 11
-4.1727454754
 21
-20.7424624971
 31
0.0
 11
-4.2041185144
 21
-20.7067463204
 31
0.0
 11
-4.2549131252
 21
-20.629144574
 31
0.0
 11
-4.2734203563
 21
-20.589485382
 31
0.0
 11
-4.2869991943
 21
-20.5506220321
 31
0.0
 11
-4.2954670089
 21
-20.5138295955
 31
0.0
 11
-4.2989810063
 21
-20.4791168096
 31
0.0
  0
SPLINE
  5
429
100
AcDbEntity
  8
0
100
AcDbSpline
 62
253
  6
CONTINUOUS
 70
0
 71
3
 72
19
 73
15
 74
13
 42
0.0000001
 43
0.0000001
 44
0.0000000001
 12
-0.0102546835
 22
0.4197873313
 32
0.0
 13
0.4606333429
 23
-0.1682717952
 33
0.0
 40
0.0
 40
0.0
 40
0.0
 40
0.0
 40
0.0833333333
 40
0.1666666667
 40
0.25
 40
0.3333333333
 40
0.4166666667
 40
0.5
 40
0.5833333333
 40
0.6666666667
 40
0.75
 40
0.8333333333
 40
0.9166666667
 40
1.0
 40
1.0
 40
1.0
 40
1.0
 10
-4.3689449056
 20
-17.9083855569
 30
0.0
 10
-4.3692297579
 20
-17.8967247977
 30
0.0
 10
-4.368015063
 20
-17.8744588669
 30
0.0
 10
-4.3612244026
 20
-17.84264329
 30
0.0
 10
-4.3492403164
 20
-17.8126183211
 30
0.0
 10
-4.3323115676
 20
-17.7857266459
 30
0.0
 10
-4.3108716853
 20
-17.7628451661
 30
0.0
 10
-4.2850149873
 20
-17.7443724969
 30
0.0
 10
-4.2540833754
 20
-17.7308765972
 30
0.0
 10
-4.2195725917
 20
-17.723015749
 30
0.0
 10
-4.1829660611
 20
-17.7205840128
 30
0.0
 10
-4.1447492539
 20
-17.7232739516
 30
0.0
 10
-4.1067335206
 20
-17.7306033782
 30
0.0
 10
-4.0815787752
 20
-17.7383010458
 30
0.0
 10
-4.0687834046
 20
-17.7429752623
 30
0.0
 11
-4.3689449056
 21
-17.9083855569
 31
0.0
 11
-4.36718696
 21
-17.8747227534
 31
0.0
 11
-4.3603588316
 21
-17.8429417246
 31
0.0
 11
-4.348416206
 21
-17.8131405367
 31
0.0
 11
-4.331559712
 21
-17.7863950118
 31
0.0
 11
-4.3101355493
 21
-17.7635799679
 31
0.0
 11
-4.2841691683
 21
-17.7452019585
 31
0.0
 11
-4.2534868468
 21
-17.7318157724
 31
0.0
 11
-4.2192233005
 21
-17.723920601
 31
0.0
 11
-4.1826976816
 21
-17.7214376253
 31
0.0
 11
-4.1447827662
 21
-17.7240471996
 31
0.0
 11
-4.1067807898
 21
-17.731306224
 31
0.0
 11
-4.0687834046
 21
-17.7429752623
 31
0.0
  0
SPLINE
  5
42A
100
AcDbEntity
  8
0
100
AcDbSpline
 62
253
  6
CONTINUOUS
 70
0
 71
3
 72
16
 73
12
 74
10
 42
0.0000001
 43
0.0000001
 44
0.0000000001
 12
-0.0015746137
 22
0.0677296433
 32
0.0
 13
-0.0728664373
 23
0.0259124506
 33
0.0
 40
0.0
 40
0.0
 40
0.0
 40
0.0
 40
0.125
 40
0.25
 40
0.3125
 40
0.375
 40
0.5
 40
0.625
 40
0.75
 40
0.875
 40
1.0
 40
1.0
 40
1.0
 40
1.0
 10
-2.590349573
 20
-18.5512326377
 30
0.0
 10
-2.5904151819
 20
-18.5484105693
 30
0.0
 10
-2.5916888921
 20
-18.5426588029
 30
0.0
 10
-2.595343485
 20
-18.5355507595
 30
0.0
 10
-2.5991780509
 20
-18.5299812824
 30
0.0
 10
-2.6036118609
 20
-18.5244392063
 30
0.0
 10
-2.6099672806
 20
-18.5178313387
 30
0.0
 10
-2.6185800039
 20
-18.5104767343
 30
0.0
 10
-2.6277482311
 20
-18.5039748127
 30
0.0
 10
-2.6368798779
 20
-18.4986969345
 30
0.0
 10
-2.6427230423
 20
-18.4960889852
 30
0.0
 10
-2.6457591439
 20
-18.4950092997
 30
0.0
 11
-2.590349573
 21
-18.5512326377
 31
0.0
 11
-2.5921013831
 21
-18.5426751358
 31
0.0
 11
-2.5963780341
 21
-18.5341681367
 31
0.0
 11
-2.5992529564
 21
-18.5299847075
 31
0.0
 11
-2.6025576189
 21
-18.5258460405
 31
0.0
 11
-2.6101316506
 21
-18.5179271449
 31
0.0
 11
-2.6186725879
 21
-18.5106188481
 31
0.0
 11
-2.6277421344
 21
-18.5041788199
 31
0.0
 11
-2.6368187279
 21
-18.4989245936
 31
0.0
 11
-2.6457591439
 21
-18.4950092997
 31
0.0
  0
SPLINE
  5
42B
100
AcDbEntity
  8
0
100
AcDbSpline
 62
253
  6
CONTINUOUS
 70
0
 71
3
 72
22
 73
18
 74
16
 42
0.0000001
 43
0.0000001
 44
0.0000000001
 12
-0.0075334419
 22
0.3329988094
 32
0.0
 13
0.0079397439
 23
-0.3535045591
 33
0.0
 40
0.0
 40
0.0
 40
0.0
 40
0.0
 40
0.1111111111
 40
0.2222222222
 40
0.3333333333
 40
0.3888888889
 40
0.4444444444
 40
0.5
 40
0.5555555556
 40
0.6111111111
 40
0.6666666667
 40
0.7222222222
 40
0.7777777778
 40
0.8333333333
 40
0.8888888889
 40
0.9444444444
 40
1.0
 40
1.0
 40
1.0
 40
1.0
 10
-3.4957754272
 20
-17.6322170447
 30
0.0
 10
-3.4960544436
 20
-17.6198837555
 30
0.0
 10
-3.4908934027
 20
-17.5982347276
 30
0.0
 10
-3.4714970428
 20
-17.5723050267
 30
0.0
 10
-3.4459705873
 20
-17.5571001442
 30
0.0
 10
-3.421474984
 20
-17.5511854192
 30
0.0
 10
-3.4014981603
 20
-17.5503753939
 30
0.0
 10
-3.3803132213
 20
-17.553756019
 30
0.0
 10
-3.3584726476
 20
-17.5620556407
 30
0.0
 10
-3.3362583876
 20
-17.5753715204
 30
0.0
 10
-3.3147941584
 20
-17.5926283637
 30
0.0
 10
-3.2944527898
 20
-17.6133036013
 30
0.0
 10
-3.2764526986
 20
-17.6360664046
 30
0.0
 10
-3.261830051
 20
-17.6591714754
 30
0.0
 10
-3.2506548673
 20
-17.6822955373
 30
0.0
 10
-3.243664084
 20
-17.7038940221
 30
0.0
 10
-3.2417571384
 20
-17.7171941266
 30
0.0
 10
-3.2416101061
 20
-17.7237405073
 30
0.0
 11
-3.4957754272
 21
-17.6322170447
 31
0.0
 11
-3.4889509363
 21
-17.5993253678
 31
0.0
 11
-3.4696244783
 21
-17.573585667
 31
0.0
 11
-3.4395071499
 21
-17.556142228
 31
0.0
 11
-3.4212074638
 21
-17.5517897556
 31
0.0
 11
-3.4012968077
 21
-17.5510738357
 31
0.0
 11
-3.3802039488
 21
-17.5545758518
 31
0.0
 11
-3.3584103665
 21
-17.5628916837
 31
0.0
 11
-3.3363833927
 21
-17.5760283476
 31
0.0
 11
-3.3149813018
 21
-17.5931980961
 31
0.0
 11
-3.2948430027
 21
-17.6136515289
 31
0.0
 11
-3.2770156059
 21
-17.6361234492
 31
0.0
 11
-3.2624046283
 21
-17.6591746406
 31
0.0
 11
-3.2513522674
 21
-17.6820412745
 31
0.0
 11
-3.2443524782
 21
-17.7036193007
 31
0.0
 11
-3.2416101061
 21
-17.7237405073
 31
0.0
  0
SPLINE
  5
42C
100
AcDbEntity
  8
0
100
AcDbSpline
 62
253
  6
CONTINUOUS
 70
0
 71
3
 72
17
 73
13
 74
11
 42
0.0000001
 43
0.0000001
 44
0.0000000001
 12
0.505780554
 22
-0.1797583621
 32
0.0
 13
0.0094591931
 23
-0.4103834963
 33
0.0
 40
0.0
 40
0.0
 40
0.0
 40
0.0
 40
0.1666666667
 40
0.25
 40
0.3333333333
 40
0.4166666667
 40
0.5
 40
0.6666666667
 40
0.75
 40
0.8333333333
 40
0.9166666667
 40
1.0
 40
1.0
 40
1.0
 40
1.0
 10
-2.6513001741
 20
-18.2537469183
 30
0.0
 10
-2.6232012544
 20
-18.263733494
 30
0.0
 10
-2.5827608665
 20
-18.2833351112
 30
0.0
 10
-2.5317858308
 20
-18.3168382162
 30
0.0
 10
-2.4955707759
 20
-18.3452587257
 30
0.0
 10
-2.4606108966
 20
-18.3779195544
 30
0.0
 10
-2.4183699741
 20
-18.425384691
 30
0.0
 10
-2.3839503994
 20
-18.478103703
 30
0.0
 10
-2.3592658211
 20
-18.5311526558
 30
0.0
 10
-2.3457085587
 20
-18.5703682669
 30
0.0
 10
-2.3374442518
 20
-18.6072534451
 30
0.0
 10
-2.3352134378
 20
-18.6303460779
 30
0.0
 10
-2.3349506825
 20
-18.6417456194
 30
0.0
 11
-2.6513001741
 21
-18.2537469183
 31
0.0
 11
-2.5702625644
 21
-18.2923248554
 31
0.0
 11
-2.5321218678
 21
-18.3173870796
 31
0.0
 11
-2.4957799718
 21
-18.3459654455
 31
0.0
 11
-2.4611574279
 21
-18.378409225
 31
0.0
 11
-2.4295819837
 21
-18.4139562298
 31
0.0
 11
-2.3785905045
 21
-18.4913934363
 31
0.0
 11
-2.3600918496
 21
-18.5310574719
 31
0.0
 11
-2.346590718
 21
-18.5699798614
 31
0.0
 11
-2.3382639328
 21
-18.6068790736
 31
0.0
 11
-2.3349506825
 21
-18.6417456194
 31
0.0
  0
SPLINE
  5
42D
100
AcDbEntity
  8
0
100
AcDbSpline
 62
253
  6
CONTINUOUS
 70
0
 71
3
 72
13
 73
9
 74
7
 42
0.0000001
 43
0.0000001
 44
0.0000000001
 12
-0.0575129223
 22
0.0210192485
 32
0.0
 13
0.0019537832
 23
-0.0804596513
 33
0.0
 40
0.0
 40
0.0
 40
0.0
 40
0.0
 40
0.1666666667
 40
0.3333333333
 40
0.5
 40
0.6666666667
 40
0.8333333333
 40
1.0
 40
1.0
 40
1.0
 40
1.0
 10
-4.0630182862
 20
-17.9840540815
 30
0.0
 10
-4.0662134486
 20
-17.9828863455
 30
0.0
 10
-4.0728365046
 20
-17.9810891816
 30
0.0
 10
-4.0836933275
 20
-17.9798760173
 30
0.0
 10
-4.0947997826
 20
-17.9805283977
 30
0.0
 10
-4.105174606
 20
-17.9834635551
 30
0.0
 10
-4.1137092365
 20
-17.9896308535
 30
0.0
 10
-4.1163181302
 20
-17.9966104282
 30
0.0
 10
-4.1162095867
 20
-18.0010804088
 30
0.0
 11
-4.0630182862
 21
-17.9840540815
 31
0.0
 11
-4.0729902111
 21
-17.9813362785
 31
0.0
 11
-4.0837349329
 21
-17.9801869414
 31
0.0
 11
-4.094677844
 21
-17.9809088606
 31
0.0
 11
-4.1048679072
 21
-17.9840022453
 31
0.0
 11
-4.1129390215
 21
-17.9903478641
 31
0.0
 11
-4.1162095867
 21
-18.0010804088
 31
0.0
  0
SPLINE
  5
42E
100
AcDbEntity
  8
0
100
AcDbSpline
 62
253
  6
CONTINUOUS
 70
0
 71
3
 72
16
 73
12
 74
10
 42
0.0000001
 43
0.0000001
 44
0.0000000001
 12
0.0020105083
 22
-0.0673842754
 32
0.0
 13
0.0720735737
 23
-0.026488187
 33
0.0
 40
0.0
 40
0.0
 40
0.0
 40
0.0
 40
0.125
 40
0.25
 40
0.3125
 40
0.375
 40
0.5
 40
0.625
 40
0.75
 40
0.875
 40
1.0
 40
1.0
 40
1.0
 40
1.0
 10
-4.0466544235
 20
-20.5721464784
 30
0.0
 10
-4.0465706523
 20
-20.5749541566
 30
0.0
 10
-4.0452743321
 20
-20.5806885509
 30
0.0
 10
-4.0416175192
 20
-20.5877980097
 30
0.0
 10
-4.0377927557
 20
-20.5933791733
 30
0.0
 10
-4.0333759763
 20
-20.5989394935
 30
0.0
 10
-4.0270541833
 20
-20.6055793699
 30
0.0
 10
-4.0185000453
 20
-20.6129827208
 30
0.0
 10
-4.0094045821
 20
-20.6195417291
 30
0.0
 10
-4.0003556778
 20
-20.6248809924
 30
0.0
 10
-3.9945721561
 20
-20.6275317421
 30
0.0
 10
-3.9915690905
 20
-20.6286354166
 30
0.0
 11
-4.0466544235
 21
-20.5721464784
 31
0.0
 11
-4.0448670496
 21
-20.5806768441
 31
0.0
 11
-4.0405863856
 21
-20.5891844337
 31
0.0
 11
-4.0377187537
 21
-20.5933765679
 31
0.0
 11
-4.0344267832
 21
-20.5975287118
 31
0.0
 11
-4.0268928523
 21
-20.6054852865
 31
0.0
 11
-4.0184098244
 21
-20.6128419971
 31
0.0
 11
-4.0094123419
 21
-20.6193384383
 31
0.0
 11
-4.0004179481
 21
-20.6246538026
 31
0.0
 11
-3.9915690905
 21
-20.6286354166
 31
0.0
  0
SPLINE
  5
42F
100
AcDbEntity
  8
0
100
AcDbSpline
 62
253
  6
CONTINUOUS
 70
0
 71
3
 72
13
 73
9
 74
7
 42
0.0000001
 43
0.0000001
 44
0.0000000001
 12
0.0578645383
 22
-0.0207270288
 32
0.0
 13
-0.0022896815
 23
0.0801720345
 33
0.0
 40
0.0
 40
0.0
 40
0.0
 40
0.0
 40
0.1666666667
 40
0.3333333333
 40
0.5
 40
0.6666666667
 40
0.8333333333
 40
1.0
 40
1.0
 40
1.0
 40
1.0
 10
-2.5770879167
 20
-21.1418662134
 30
0.0
 10
-2.5738732202
 20
-21.143017715
 30
0.0
 10
-2.5672117583
 20
-21.144783314
 30
0.0
 10
-2.5562969851
 20
-21.1459497142
 30
0.0
 10
-2.5451376289
 20
-21.1452544861
 30
0.0
 10
-2.5347216513
 20
-21.1422853663
 30
0.0
 10
-2.5261690272
 20
-21.1361023538
 30
0.0
 10
-2.5235750607
 20
-21.1291346851
 30
0.0
 10
-2.5237022652
 20
-21.1246806831
 30
0.0
 11
-2.5770879167
 21
-21.1418662134
 31
0.0
 11
-2.5670579949
 21
-21.1445363143
 31
0.0
 11
-2.5562562213
 21
-21.1456394428
 31
0.0
 11
-2.5452615254
 21
-21.1448755042
 31
0.0
 11
-2.5350322102
 21
-21.1417497175
 31
0.0
 11
-2.5269459729
 21
-21.1353909387
 31
0.0
 11
-2.5237022652
 21
-21.1246806831
 31
0.0
  0
SPLINE
  5
430
100
AcDbEntity
  8
0
100
AcDbSpline
 62
253
  6
CONTINUOUS
 70
0
 71
3
 72
19
 73
15
 74
13
 42
0.0000001
 43
0.0000001
 44
0.0000000001
 12
0.0118500916
 22
-0.4185219359
 32
0.0
 13
-0.4632858307
 23
0.1660700198
 33
0.0
 40
0.0
 40
0.0
 40
0.0
 40
0.0
 40
0.0833333333
 40
0.1666666667
 40
0.25
 40
0.3333333333
 40
0.4166666667
 40
0.5
 40
0.5833333333
 40
0.6666666667
 40
0.75
 40
0.8333333333
 40
0.9166666667
 40
1.0
 40
1.0
 40
1.0
 40
1.0
 10
-2.2688630578
 20
-21.2156521304
 30
0.0
 10
-2.2685338886
 20
-21.2272777397
 30
0.0
 10
-2.2696775898
 20
-21.2494874052
 30
0.0
 10
-2.2764042866
 20
-21.2812520399
 30
0.0
 10
-2.288367637
 20
-21.3112606726
 30
0.0
 10
-2.3053189423
 20
-21.3381693898
 30
0.0
 10
-2.3268212059
 20
-21.3610989777
 30
0.0
 10
-2.3527785074
 20
-21.3796500515
 30
0.0
 10
-2.3838490981
 20
-21.3932571799
 30
0.0
 10
-2.4185285947
 20
-21.4012565135
 30
0.0
 10
-2.4553256803
 20
-21.4038446734
 30
0.0
 10
-2.4937481358
 20
-21.4013242336
 30
0.0
 10
-2.5319732231
 20
-21.3941686017
 30
0.0
 10
-2.5572707369
 20
-21.3865890232
 30
0.0
 10
-2.5701397878
 20
-21.3819759671
 30
0.0
 11
-2.2688630578
 21
-21.2156521304
 31
0.0
 11
-2.2705127806
 21
-21.2492290946
 31
0.0
 11
-2.2772770622
 21
-21.2809593729
 31
0.0
 11
-2.2891989628
 21
-21.31074402
 31
0.0
 11
-2.3060774353
 21
-21.3375062016
 31
0.0
 11
-2.3275637122
 21
-21.3603692253
 31
0.0
 11
-2.3536307223
 21
-21.3788260606
 31
0.0
 11
-2.3844505824
 21
-21.3923225474
 31
0.0
 11
-2.4188815262
 21
-21.4003546512
 31
0.0
 11
-2.4555965753
 21
-21.4029932401
 31
0.0
 11
-2.4937152411
 21
-21.4005517016
 31
0.0
 11
-2.5319267536
 21
-21.3934663124
 31
0.0
 11
-2.5701397878
 21
-21.3819759671
 31
0.0
  0
SPLINE
  5
431
100
AcDbEntity
  8
ASSI
100
AcDbSpline
 62
7
  6
CONTINUOUS
 70
0
 71
3
 72
12
 73
8
 74
6
 42
0.0000001
 43
0.0000001
 44
0.0000000001
 12
0.3344098288
 22
-0.4831193341
 32
0.0
 13
-0.4524592385
 23
-0.3748531207
 33
0.0
 40
0.0
 40
0.0
 40
0.0
 40
0.0
 40
0.2930080724
 40
0.5602021558
 40
0.7925389184
 40
0.8982109277
 40
1.0
 40
1.0
 40
1.0
 40
1.0
 10
2.8684797002
 20
20.2882656654
 30
0.0
 10
2.9011412933
 20
20.2410797105
 30
0.0
 10
2.9532356773
 20
20.1429544506
 30
0.0
 10
2.9880546294
 20
19.9896418824
 30
0.0
 10
2.9734843491
 20
19.8682545624
 30
0.0
 10
2.9333108336
 20
19.791104909
 30
0.0
 10
2.9054277822
 20
19.7607614358
 30
0.0
 10
2.8900759802
 20
19.7480427854
 30
0.0
 11
2.8684797002
 21
20.2882656654
 31
0.0
 11
2.9481176901
 21
20.135630687
 31
0.0
 11
2.9798662981
 21
19.981880169
 31
0.0
 11
2.9596917377
 21
19.8468658781
 31
0.0
 11
2.9306386628
 21
19.7919932784
 31
0.0
 11
2.8900759802
 21
19.7480427854
 31
0.0
  0
SPLINE
  5
432
100
AcDbEntity
  8
RACCORDO
100
AcDbSpline
 62
253
  6
CONTINUOUS
 70
0
 71
3
 72
10
 73
6
 74
4
 42
0.0000001
 43
0.0000001
 44
0.0000000001
 12
-0.0049993524
 22
-0.2685518904
 32
0.0
 13
-0.2196958554
 23
-0.154527805
 33
0.0
 40
0.0
 40
0.0
 40
0.0
 40
0.0
 40
0.5265227053
 40
0.7670277232
 40
1.0
 40
1.0
 40
1.0
 40
1.0
 10
3.8971072888
 20
-22.6809327054
 30
0.0
 10
3.8962298646
 20
-22.7280655946
 30
0.0
 10
3.8830685264
 20
-22.7982938304
 30
0.0
 10
3.8354878367
 20
-22.8751019214
 30
0.0
 10
3.8040045117
 20
-22.9044196938
 30
0.0
 10
3.7869434971
 20
-22.9164199253
 30
0.0
 11
3.8971072888
 21
-22.6809327054
 31
0.0
 11
3.8671654553
 21
-22.8191499211
 31
0.0
 11
3.8328188859
 21
-22.8738616985
 31
0.0
 11
3.7869434971
 21
-22.9164199253
 31
0.0
  0
SPLINE
  5
433
100
AcDbEntity
  8
ASSI
100
AcDbSpline
 62
253
  6
CONTINUOUS
 70
0
 71
3
 72
11
 73
7
 74
5
 42
0.0000001
 43
0.0000001
 44
0.0000000001
 12
-0.3668281251
 22
0.1471115192
 32
0.0
 13
-0.3095597612
 23
-0.2457181855
 33
0.0
 40
0.0
 40
0.0
 40
0.0
 40
0.0
 40
0.2102381766
 40
0.4392194562
 40
0.7005395608
 40
1.0
 40
1.0
 40
1.0
 40
1.0
 10
-0.1750014389
 20
24.1865352869
 30
0.0
 10
-0.2007085309
 20
24.1968447727
 30
0.0
 10
-0.2589229916
 20
24.2082410943
 30
0.0
 10
-0.3515437664
 20
24.1946839145
 30
0.0
 10
-0.4479395235
 20
24.1532985049
 30
0.0
 10
-0.5092245179
 20
24.1113159359
 30
0.0
 10
-0.5401248186
 20
24.0867883107
 30
0.0
 11
-0.1750014389
 21
24.1865352869
 31
0.0
 11
-0.2564058369
 21
24.2031961606
 31
0.0
 11
-0.3461819845
 21
24.1917754208
 31
0.0
 11
-0.4417289988
 21
24.1525618578
 31
0.0
 11
-0.5401248186
 21
24.0867883107
 31
0.0
  0
SPLINE
  5
434
100
AcDbEntity
  8
RACCORDO
100
AcDbSpline
 62
253
  6
CONTINUOUS
 70
0
 71
3
 72
11
 73
7
 74
5
 42
0.0000001
 43
0.0000001
 44
0.0000000001
 12
0.6811643519
 22
-0.2816711098
 32
0.0
 13
0.0141290156
 23
-0.7369693748
 33
0.0
 40
0.0
 40
0.0
 40
0.0
 40
0.0
 40
0.2473899216
 40
0.5112026896
 40
0.7688422844
 40
1.0
 40
1.0
 40
1.0
 40
1.0
 10
3.4840608498
 20
13.5747848757
 30
0.0
 10
3.540231915
 20
13.5515573445
 30
0.0
 10
3.6483320058
 20
13.4835345482
 30
0.0
 10
3.7784733222
 20
13.3441214208
 30
0.0
 10
3.8688986044
 20
13.1807128793
 30
0.0
 10
3.8960186118
 20
13.0609652197
 30
0.0
 10
3.8971072888
 20
13.004179834
 30
0.0
 11
3.4840608498
 21
13.5747848757
 31
0.0
 11
3.6398077877
 21
13.4799415718
 31
0.0
 11
3.7729622666
 21
13.338224722
 31
0.0
 11
3.8632988289
 21
13.1711794605
 31
0.0
 11
3.8971072888
 21
13.004179834
 31
0.0
  0
SPLINE
  5
435
100
AcDbEntity
  8
ASSI
100
AcDbSpline
 62
7
  6
CONTINUOUS
 70
0
 71
3
 72
11
 73
7
 74
5
 42
0.0000001
 43
0.0000001
 44
0.0000000001
 12
0.6835135922
 22
-0.2816562264
 32
0.0
 13
-0.0
 23
-0.7392706275
 33
0.0
 40
0.0
 40
0.0
 40
0.0
 40
0.0
 40
0.2468028128
 40
0.5099829925
 40
0.7674334943
 40
1.0
 40
1.0
 40
1.0
 40
1.0
 10
4.8302374842
 20
14.7159150509
 30
0.0
 10
4.8864685099
 20
14.6927438679
 30
0.0
 10
4.9947400258
 20
14.6248016525
 30
0.0
 10
5.1246877404
 20
14.4848546876
 30
0.0
 10
5.2145049634
 20
14.32018958
 30
0.0
 10
5.2398113314
 20
14.1992146479
 30
0.0
 10
5.2398113314
 20
14.1419047857
 30
0.0
 11
4.8302374842
 21
14.7159150509
 31
0.0
 11
4.98612999
 21
14.6211151861
 31
0.0
 11
5.1189954162
 21
14.4789852885
 31
0.0
 11
5.2083280526
 21
14.3109272277
 31
0.0
 11
5.2398113314
 21
14.1419047857
 31
0.0
  0
SPLINE
  5
436
100
AcDbEntity
  8
ASSI
100
AcDbSpline
 62
253
  6
CONTINUOUS
 70
0
 71
3
 72
9
 73
5
 74
3
 42
0.0000001
 43
0.0000001
 44
0.0000000001
 12
0.0000148631
 22
0.0272000952
 32
0.0
 13
-0.0264015906
 23
0.0065422789
 33
0.0
 40
0.0
 40
0.0
 40
0.0
 40
0.0
 40
0.5915438918
 40
1.0
 40
1.0
 40
1.0
 40
1.0
 10
5.2796099264
 20
-22.7830991487
 30
0.0
 10
5.2796128571
 20
-22.7777357987
 30
0.0
 10
5.2790040966
 20
-22.7684161542
 30
0.0
 10
5.2719963695
 20
-22.760734579
 30
0.0
 10
5.2684017392
 20
-22.7598438344
 30
0.0
 11
5.2796099264
 21
-22.7830991487
 31
0.0
 11
5.2766534869
 21
-22.7672830412
 31
0.0
 11
5.2684017392
 21
-22.7598438344
 31
0.0
  0
LINE
  5
437
100
AcDbEntity
  8
ASSI
100
AcDbLine
 62
253
  6
CONTINUOUS
 10
5.2684017392
 20
-22.7598438344
 11
5.2656279743
 21
-22.759518546
  0
SPLINE
  5
438
100
AcDbEntity
  8
ASSI
100
AcDbSpline
 62
253
  6
CONTINUOUS
 70
0
 71
3
 72
9
 73
5
 74
3
 42
0.0000001
 43
0.0000001
 44
0.0000000001
 12
0.0535354503
 22
0.0468916511
 32
0.0
 13
0.0000013479
 23
0.0711679098
 33
0.0
 40
0.0
 40
0.0
 40
0.0
 40
0.0
 40
0.488169059
 40
1.0
 40
1.0
 40
1.0
 40
1.0
 10
5.2521340596
 20
-23.168959199
 30
0.0
 10
5.2608455097
 20
-23.1613288479
 30
0.0
 10
5.2733958039
 20
-23.1402400236
 30
0.0
 10
5.2796096964
 20
-23.1167853801
 30
0.0
 10
5.2796099264
 20
-23.1046434007
 30
0.0
 11
5.2521340596
 21
-23.168959199
 31
0.0
 11
5.2715888186
 21
-23.1401752288
 31
0.0
 11
5.2796099264
 21
-23.1046434007
 31
0.0
  0
SPLINE
  5
439
100
AcDbEntity
  8
ASSI
100
AcDbSpline
 62
253
  6
CONTINUOUS
 70
0
 71
3
 72
11
 73
7
 74
5
 42
0.0000001
 43
0.0000001
 44
0.0000000001
 12
0.0000004127
 22
0.0308532346
 32
0.0
 13
-0.0308172002
 23
-0.0014907241
 33
0.0
 40
0.0
 40
0.0
 40
0.0
 40
0.0
 40
0.3249546319
 40
0.5880895213
 40
0.8003726574
 40
1.0
 40
1.0
 40
1.0
 40
1.0
 10
5.2796099264
 20
16.6027208292
 30
0.0
 10
5.2796099711
 20
16.6060627964
 30
0.0
 10
5.2791185118
 20
16.6121384843
 30
0.0
 10
5.2764406759
 20
16.6200516069
 30
0.0
 10
5.2715598376
 20
16.6254351366
 30
0.0
 10
5.2671282361
 20
16.6263856945
 30
0.0
 10
5.2650775842
 20
16.6262864981
 30
0.0
 11
5.2796099264
 21
16.6027208292
 31
0.0
 11
5.2786161533
 21
16.6126973574
 31
0.0
 11
5.2757047783
 21
16.6202759425
 31
0.0
 11
5.2710823294
 21
16.6249160402
 31
0.0
 11
5.2650775842
 21
16.6262864981
 31
0.0
  0
SPLINE
  5
43A
100
AcDbEntity
  8
ASSI
100
AcDbSpline
 62
253
  6
CONTINUOUS
 70
0
 71
3
 72
9
 73
5
 74
3
 42
0.0000001
 43
0.0000001
 44
0.0000000001
 12
-0.0143876067
 22
-0.0006959734
 32
0.0
 13
-0.0111125251
 23
-0.0091651182
 33
0.0
 40
0.0
 40
0.0
 40
0.0
 40
0.0
 40
0.2148389885
 40
1.0
 40
1.0
 40
1.0
 40
1.0
 10
5.2650775842
 20
16.6262864981
 30
0.0
 10
5.2640472446
 20
16.6262366573
 30
0.0
 10
5.2592752263
 20
16.6254202805
 30
0.0
 10
5.2550424334
 20
16.6227064571
 30
0.0
 10
5.2521340596
 20
16.6203077593
 30
0.0
 11
5.2650775842
 21
16.6262864981
 31
0.0
 11
5.2620217018
 21
16.6257983
 31
0.0
 11
5.2521340596
 21
16.6203077593
 31
0.0
  0
SPLINE
  5
43B
100
AcDbEntity
  8
ASSI
100
AcDbSpline
 62
253
  6
CONTINUOUS
 70
0
 71
3
 72
8
 73
4
 74
2
 42
0.0000001
 43
0.0000001
 44
0.0000000001
 12
0.0058264542
 22
0.0098724658
 32
0.0
 13
0.0046788243
 23
0.0104652641
 33
0.0
 40
0.0
 40
0.0
 40
0.0
 40
0.0
 40
1.0
 40
1.0
 40
1.0
 40
1.0
 10
5.2656279743
 20
16.2338165319
 30
0.0
 10
5.2675701256
 20
16.2371073539
 30
0.0
 10
5.2693134244
 20
16.2405213688
 30
0.0
 10
5.2708730325
 20
16.2440097902
 30
0.0
 11
5.2656279743
 21
16.2338165319
 31
0.0
 11
5.2708730325
 21
16.2440097902
 31
0.0
  0
SPLINE
  5
43C
100
AcDbEntity
  8
ASSI
100
AcDbSpline
 62
253
  6
CONTINUOUS
 70
0
 71
3
 72
9
 73
5
 74
3
 42
0.0000001
 43
0.0000001
 44
0.0000000001
 12
0.0136061185
 22
0.0304332058
 32
0.0
 13
0.0025524541
 23
0.0332384033
 33
0.0
 40
0.0
 40
0.0
 40
0.0
 40
0.0
 40
0.2598459633
 40
1.0
 40
1.0
 40
1.0
 40
1.0
 10
5.2708730325
 20
16.2440097902
 30
0.0
 10
5.2720515308
 20
16.2466457721
 30
0.0
 10
5.2761719867
 20
16.2569624499
 30
0.0
 10
5.2787800778
 20
16.267945584
 30
0.0
 10
5.2794098142
 20
16.2761460968
 30
0.0
 11
5.2708730325
 21
16.2440097902
 31
0.0
 11
5.2740907837
 21
16.2520522653
 31
0.0
 11
5.2794098142
 21
16.2761460968
 31
0.0
  0
LINE
  5
43D
100
AcDbEntity
  8
ASSI
100
AcDbLine
 62
253
  6
CONTINUOUS
 10
5.2794098142
 20
16.2761460968
 11
5.2796099264
 21
16.2811765772
  0
SPLINE
  5
43E
100
AcDbEntity
  8
ASSI
100
AcDbSpline
 62
253
  6
CONTINUOUS
 70
0
 71
3
 72
10
 73
6
 74
4
 42
0.0000001
 43
0.0000001
 44
0.0000000001
 12
0.2243812582
 22
-0.0034054728
 32
0.0
 13
0.0668654117
 23
0.2142138254
 33
0.0
 40
0.0
 40
0.0
 40
0.0
 40
0.0
 40
0.2377697348
 40
0.4824429286
 40
1.0
 40
1.0
 40
1.0
 40
1.0
 10
-11.2547929561
 20
20.5295999025
 30
0.0
 10
-11.2370092653
 20
20.5293299964
 30
0.0
 10
-11.2005053985
 20
20.5355849338
 30
0.0
 10
-11.1345391524
 20
20.5732244404
 30
0.0
 10
-11.1016737443
 20
20.6251838809
 30
0.0
 10
-11.0901381888
 20
20.662139841
 30
0.0
 11
-11.2547929561
 21
20.5295999025
 31
0.0
 11
-11.202164239
 21
20.5383868638
 31
0.0
 11
-11.1543348058
 21
20.565350882
 31
0.0
 11
-11.0901381888
 21
20.662139841
 31
0.0
  0
SPLINE
  5
43F
100
AcDbEntity
  8
ASSI
100
AcDbSpline
 62
253
  6
CONTINUOUS
 70
0
 71
3
 72
11
 73
7
 74
5
 42
0.0000001
 43
0.0000001
 44
0.0000000001
 12
-0.1224319984
 22
0.049231024
 32
0.0
 13
0.0000004478
 23
0.1319594179
 33
0.0
 40
0.0
 40
0.0
 40
0.0
 40
0.0
 40
0.1964542742
 40
0.4203920634
 40
0.6871821934
 40
1.0
 40
1.0
 40
1.0
 40
1.0
 10
-11.3309023596
 20
20.5448466469
 30
0.0
 10
-11.3389197894
 20
20.5480705286
 30
0.0
 10
-11.3544913211
 20
20.5593141985
 30
0.0
 10
-11.370280266
 20
20.5857303535
 30
0.0
 10
-11.3795924404
 20
20.620130071
 30
0.0
 10
-11.3813537908
 20
20.6457048074
 30
0.0
 10
-11.3813537441
 20
20.6594645593
 30
0.0
 11
-11.3309023596
 21
20.5448466469
 31
0.0
 11
-11.3521821534
 21
20.5596528524
 31
0.0
 11
-11.3681319711
 21
20.5845294921
 31
0.0
 11
-11.3780090772
 21
20.6183210282
 31
0.0
 11
-11.3813537441
 21
20.6594645593
 31
0.0
  0
SPLINE
  5
440
100
AcDbEntity
  8
ASSI
100
AcDbSpline
 62
253
  6
CONTINUOUS
 70
0
 71
3
 72
11
 73
7
 74
5
 42
0.0000001
 43
0.0000001
 44
0.0000000001
 12
-0.0908214189
 22
0.03648628
 32
0.0
 13
-0.0764202162
 23
-0.0611533263
 33
0.0
 40
0.0
 40
0.0
 40
0.0
 40
0.0
 40
0.2083322519
 40
0.436623914
 40
0.6985374643
 40
1.0
 40
1.0
 40
1.0
 40
1.0
 10
5.1785554778
 20
16.8752610548
 30
0.0
 10
5.1722484675
 20
16.8777948111
 30
0.0
 10
5.1578948964
 20
16.8805527443
 30
0.0
 10
5.1350484804
 20
16.8770143495
 30
0.0
 10
5.1111974696
 20
16.8665707384
 30
0.0
 10
5.0960078803
 20
16.8560463259
 30
0.0
 10
5.0883286029
 20
16.8499011803
 30
0.0
 11
5.1785554778
 21
16.8752610548
 31
0.0
 11
5.158567734
 21
16.8792952572
 31
0.0
 11
5.1364222604
 21
16.8763206772
 31
0.0
 11
5.1127744666
 21
16.8664240974
 31
0.0
 11
5.0883286029
 21
16.8499011803
 31
0.0
  0
SPLINE
  5
441
100
AcDbEntity
  8
ASSI
100
AcDbSpline
 62
253
  6
CONTINUOUS
 70
0
 71
3
 72
9
 73
5
 74
3
 42
0.0000001
 43
0.0000001
 44
0.0000000001
 12
-0.0889718255
 22
0.0264759777
 32
0.0
 13
-0.0729010297
 23
-0.0574665381
 33
0.0
 40
0.0
 40
0.0
 40
0.0
 40
0.0
 40
0.43788842
 40
1.0
 40
1.0
 40
1.0
 40
1.0
 10
2.7386240905
 20
17.8549331458
 30
0.0
 10
2.7256375131
 20
17.8587976538
 30
0.0
 10
2.6927005632
 20
17.8559221939
 30
0.0
 10
2.6660543685
 20
17.8389946221
 30
0.0
 10
2.6523948642
 20
17.8282270866
 30
0.0
 11
2.7386240905
 21
17.8549331458
 31
0.0
 11
2.697998324
 21
17.8535849526
 31
0.0
 11
2.6523948642
 21
17.8282270866
 31
0.0
  0
SPLINE
  5
442
100
AcDbEntity
  8
ASSI
100
AcDbSpline
 62
7
  6
CONTINUOUS
 70
0
 71
3
 72
9
 73
5
 74
3
 42
0.0000001
 43
0.0000001
 44
0.0000000001
 12
-0.2519289914
 22
0.1032197111
 32
0.0
 13
-0.1581233566
 23
0.2216292615
 33
0.0
 40
0.0
 40
0.0
 40
0.0
 40
0.0
 40
0.4849626645
 40
1.0
 40
1.0
 40
1.0
 40
1.0
 10
2.3200741303
 20
15.0623293308
 30
0.0
 10
2.2793487453
 20
15.0790152328
 30
0.0
 10
2.2032021479
 20
15.1319984773
 30
0.0
 10
2.1430000681
 20
15.2006343946
 30
0.0
 10
2.1158535907
 20
15.2386835094
 30
0.0
 11
2.3200741303
 21
15.0623293308
 31
0.0
 11
2.2092422035
 21
15.1340863568
 31
0.0
 11
2.1158535907
 21
15.2386835094
 31
0.0
  0
SPLINE
  5
443
100
AcDbEntity
  8
ASSI
100
AcDbSpline
 62
253
  6
CONTINUOUS
 70
0
 71
3
 72
9
 73
5
 74
3
 42
0.0000001
 43
0.0000001
 44
0.0000000001
 12
0.000011221
 22
-0.074460079
 32
0.0
 13
-0.0567239272
 23
-0.0482358743
 33
0.0
 40
0.0
 40
0.0
 40
0.0
 40
0.0
 40
0.4658379783
 40
1.0
 40
1.0
 40
1.0
 40
1.0
 10
-9.2671097751
 20
22.2013452749
 30
0.0
 10
-9.2671080327
 20
22.189783164
 30
0.0
 10
-9.2742140866
 20
22.1647630141
 30
0.0
 10
-9.2911965394
 20
22.1457858923
 30
0.0
 10
-9.301296462
 20
22.1371973016
 30
0.0
 11
-9.2671097751
 21
22.2013452749
 31
0.0
 11
-9.2758718004
 21
22.1677838594
 31
0.0
 11
-9.301296462
 21
22.1371973016
 31
0.0
  0
SPLINE
  5
444
100
AcDbEntity
  8
ASSI
100
AcDbSpline
 62
253
  6
CONTINUOUS
 70
0
 71
3
 72
9
 73
5
 74
3
 42
0.0000001
 43
0.0000001
 44
0.0000000001
 12
0.0000112222
 22
-0.0744600799
 32
0.0
 13
-0.0567239279
 23
-0.0482358749
 33
0.0
 40
0.0
 40
0.0
 40
0.0
 40
0.0
 40
0.4658379785
 40
1.0
 40
1.0
 40
1.0
 40
1.0
 10
-9.267109775
 20
22.5228895279
 30
0.0
 10
-9.2671080325
 20
22.5113274168
 30
0.0
 10
-9.2742140863
 20
22.4863072665
 30
0.0
 10
-9.2911965393
 20
22.4673301444
 30
0.0
 10
-9.301296462
 20
22.4587415536
 30
0.0
 11
-9.267109775
 21
22.5228895279
 31
0.0
 11
-9.2758718002
 21
22.4893281118
 31
0.0
 11
-9.301296462
 21
22.4587415536
 31
0.0
  0
SPLINE
  5
445
100
AcDbEntity
  8
ASSI
100
AcDbSpline
 62
253
  6
CONTINUOUS
 70
0
 71
3
 72
11
 73
7
 74
5
 42
0.0000001
 43
0.0000001
 44
0.0000000001
 12
-0.0309830488
 22
0.0004645948
 32
0.0
 13
0.000000292
 23
0.0309865319
 33
0.0
 40
0.0
 40
0.0
 40
0.0
 40
0.0
 40
0.2039503059
 40
0.4199656349
 40
0.6817096471
 40
1.0
 40
1.0
 40
1.0
 40
1.0
 10
-11.0901381888
 20
20.662139841
 30
0.0
 10
-11.0922445229
 20
20.6621714257
 30
0.0
 10
-11.0966873386
 20
20.6633668382
 30
0.0
 10
-11.1015910064
 20
20.668814145
 30
0.0
 10
-11.1043319576
 20
20.6767004307
 30
0.0
 10
-11.1048350895
 20
20.6827199993
 30
0.0
 10
-11.1048350585
 20
20.6860075707
 30
0.0
 11
-11.0901381888
 21
20.662139841
 31
0.0
 11
-11.0962243536
 21
20.663842006
 31
0.0
 11
-11.1008958098
 21
20.6686358898
 31
0.0
 11
-11.1038330239
 21
20.676195891
 31
0.0
 11
-11.1048350585
 21
20.6860075707
 31
0.0
  0
SPLINE
  5
446
100
AcDbEntity
  8
ASSI
100
AcDbSpline
 62
253
  6
CONTINUOUS
 70
0
 71
3
 72
10
 73
6
 74
4
 42
0.0000001
 43
0.0000001
 44
0.0000000001
 12
-0.000000639
 22
-0.0454461769
 32
0.0
 13
0.0360936704
 23
0.0276152486
 33
0.0
 40
0.0
 40
0.0
 40
0.0
 40
0.0
 40
0.5194766104
 40
0.7282373377
 40
1.0
 40
1.0
 40
1.0
 40
1.0
 10
3.4760713299
 20
-24.5343856034
 30
0.0
 10
3.4760712192
 20
-24.5422550121
 30
0.0
 10
3.4785164023
 20
-24.5567691217
 30
0.0
 10
3.4952036886
 20
-24.5590950433
 30
0.0
 10
3.5016824405
 20
-24.5550383633
 30
0.0
 10
3.5049520778
 20
-24.5525367655
 30
0.0
 11
3.4760713299
 21
-24.5343856034
 31
0.0
 11
3.484499112
 21
-24.5564382863
 31
0.0
 11
3.4938617173
 21
-24.5579718905
 31
0.0
 11
3.5049520778
 21
-24.5525367655
 31
0.0
  0
SPLINE
  5
447
100
AcDbEntity
  8
ASSI
100
AcDbSpline
 62
7
  6
CONTINUOUS
 70
0
 71
3
 72
9
 73
5
 74
3
 42
0.0000001
 43
0.0000001
 44
0.0000000001
 12
0.0312477327
 22
0.023860948
 32
0.0
 13
0.0373569897
 23
0.012256466
 33
0.0
 40
0.0
 40
0.0
 40
0.0
 40
0.0
 40
0.7456165304
 40
1.0
 40
1.0
 40
1.0
 40
1.0
 10
-3.1481226144
 20
19.1593870297
 30
0.0
 10
-3.1403563391
 20
19.1653174021
 30
0.0
 10
-3.128824335
 20
19.1719382597
 30
0.0
 10
-3.116540195
 20
19.1765162675
 30
0.0
 10
-3.1133725281
 20
19.1775555483
 30
0.0
 11
-3.1481226144
 21
19.1593870297
 31
0.0
 11
-3.1227412879
 21
19.1740549338
 31
0.0
 11
-3.1133725281
 21
19.1775555483
 31
0.0
  0
SPLINE
  5
448
100
AcDbEntity
  8
ASSI
100
AcDbSpline
 62
7
  6
CONTINUOUS
 70
0
 71
3
 72
9
 73
5
 74
3
 42
0.0000001
 43
0.0000001
 44
0.0000000001
 12
0.1167386469
 22
0.0383008177
 32
0.0
 13
0.1140098223
 23
-0.0457889149
 33
0.0
 40
0.0
 40
0.0
 40
0.0
 40
0.0
 40
0.4684845188
 40
1.0
 40
1.0
 40
1.0
 40
1.0
 10
-3.1133725281
 20
19.1775555483
 30
0.0
 10
-3.0951424452
 20
19.1835366617
 30
0.0
 10
-3.0531065125
 20
19.1872111185
 30
0.0
 10
-3.0128972324
 20
19.1765355104
 30
0.0
 10
-2.9926979039
 20
19.1684230047
 30
0.0
 11
-3.1133725281
 21
19.1775555483
 31
0.0
 11
-3.0561569874
 21
19.1838299941
 31
0.0
 11
-2.9926979039
 21
19.1684230047
 31
0.0
  0
SPLINE
  5
449
100
AcDbEntity
  8
ASSI
100
AcDbSpline
 62
253
  6
CONTINUOUS
 70
0
 71
3
 72
10
 73
6
 74
4
 42
0.0000001
 43
0.0000001
 44
0.0000000001
 12
0.0201238507
 22
0.034042888
 32
0.0
 13
-0.0201626371
 23
0.0340199302
 33
0.0
 40
0.0
 40
0.0
 40
0.0
 40
0.0
 40
0.1946884778
 40
0.5428983518
 40
1.0
 40
1.0
 40
1.0
 40
1.0
 10
-9.3088049786
 20
22.0524035048
 30
0.0
 10
-9.3074990179
 20
22.0546127574
 30
0.0
 10
-9.3052473386
 20
22.0616520865
 30
0.0
 10
-9.3074809572
 20
22.075081936
 30
0.0
 10
-9.3122062892
 20
22.0846537343
 30
0.0
 10
-9.3152784141
 20
22.0898372563
 30
0.0
 11
-9.3088049786
 21
22.0524035048
 31
0.0
 11
-9.3063295834
 21
22.0596938679
 31
0.0
 11
-9.3077848938
 21
22.0733870641
 31
0.0
 11
-9.3152784141
 21
22.0898372563
 31
0.0
  0
SPLINE
  5
44A
100
AcDbEntity
  8
RACCORDO
100
AcDbSpline
 62
7
  6
CONTINUOUS
 70
0
 71
3
 72
9
 73
5
 74
3
 42
0.0000001
 43
0.0000001
 44
0.0000000001
 12
0.0000339832
 22
-0.0498443053
 32
0.0
 13
0.0077362044
 23
-0.0492402992
 33
0.0
 40
0.0
 40
0.0
 40
0.0
 40
0.0
 40
0.2460893124
 40
1.0
 40
1.0
 40
1.0
 40
1.0
 10
-12.7958959176
 20
19.9850810162
 30
0.0
 10
-12.79589313
 20
19.9809922993
 30
0.0
 10
-12.7955112774
 20
19.9643783685
 30
0.0
 10
-12.7937505734
 20
19.9478082075
 30
0.0
 10
-12.7918064377
 20
19.9354339449
 30
0.0
 11
-12.7958959176
 21
19.9850810162
 31
0.0
 11
-12.7956216871
 21
19.9728179284
 31
0.0
 11
-12.7918064377
 21
19.9354339449
 31
0.0
  0
SPLINE
  5
44B
100
AcDbEntity
  8
ASSI
100
AcDbSpline
 62
253
  6
CONTINUOUS
 70
0
 71
3
 72
9
 73
5
 74
3
 42
0.0000001
 43
0.0000001
 44
0.0000000001
 12
-0.0263921682
 22
-0.0420284867
 32
0.0
 13
-0.0000047446
 23
-0.0496280185
 33
0.0
 40
0.0
 40
0.0
 40
0.0
 40
0.0
 40
0.2587490315
 40
1.0
 40
1.0
 40
1.0
 40
1.0
 10
3.4907681996
 20
-24.1872159614
 30
0.0
 10
3.4884918836
 20
-24.1908409048
 30
0.0
 10
3.4807341558
 20
-24.2054286523
 30
0.0
 10
3.4760725022
 20
-24.2220266074
 30
0.0
 10
3.4760713299
 20
-24.2342888796
 30
0.0
 11
3.4907681996
 21
-24.1872159614
 31
0.0
 11
3.4846845599
 21
-24.1985246214
 31
0.0
 11
3.4760713299
 21
-24.2342888796
 31
0.0
  0
SPLINE
  5
44C
100
AcDbEntity
  8
RACCORDO
100
AcDbSpline
 62
7
  6
CONTINUOUS
 70
0
 71
3
 72
9
 73
5
 74
3
 42
0.0000001
 43
0.0000001
 44
0.0000000001
 12
0.0000339832
 22
-0.0498443053
 32
0.0
 13
0.0077362044
 23
-0.0492402992
 33
0.0
 40
0.0
 40
0.0
 40
0.0
 40
0.0
 40
0.2460893124
 40
1.0
 40
1.0
 40
1.0
 40
1.0
 10
1.7850104707
 20
14.1290602918
 30
0.0
 10
1.7850132584
 20
14.1249715749
 30
0.0
 10
1.785395111
 20
14.1083576441
 30
0.0
 10
1.7871558149
 20
14.0917874831
 30
0.0
 10
1.7890999506
 20
14.0794132205
 30
0.0
 11
1.7850104707
 21
14.1290602918
 31
0.0
 11
1.7852847012
 21
14.116797204
 31
0.0
 11
1.7890999506
 21
14.0794132205
 31
0.0
  0
SPLINE
  5
44D
100
AcDbEntity
  8
ASSI
100
AcDbSpline
 62
253
  6
CONTINUOUS
 70
0
 71
3
 72
11
 73
7
 74
5
 42
0.0000001
 43
0.0000001
 44
0.0000000001
 12
-0.0309830488
 22
0.0004645948
 32
0.0
 13
0.000000292
 23
0.0309865319
 33
0.0
 40
0.0
 40
0.0
 40
0.0
 40
0.0
 40
0.2039503059
 40
0.4199656349
 40
0.6817096471
 40
1.0
 40
1.0
 40
1.0
 40
1.0
 10
3.4907681996
 20
14.8061191166
 30
0.0
 10
3.4886618655
 20
14.8061507013
 30
0.0
 10
3.4842190498
 20
14.8073461138
 30
0.0
 10
3.4793153819
 20
14.8127934206
 30
0.0
 10
3.4765744308
 20
14.8206797063
 30
0.0
 10
3.4760712989
 20
14.8266992749
 30
0.0
 10
3.4760713299
 20
14.8299868463
 30
0.0
 11
3.4907681996
 21
14.8061191166
 31
0.0
 11
3.4846820347
 21
14.8078212816
 31
0.0
 11
3.4800105786
 21
14.8126151654
 31
0.0
 11
3.4770733644
 21
14.8201751666
 31
0.0
 11
3.4760713299
 21
14.8299868463
 31
0.0
  0
SPLINE
  5
44E
100
AcDbEntity
  8
ASSI
100
AcDbSpline
 62
253
  6
CONTINUOUS
 70
0
 71
3
 72
9
 73
5
 74
3
 42
0.0000001
 43
0.0000001
 44
0.0000000001
 12
-0.000000276
 22
0.0713418863
 32
0.0
 13
0.0553354136
 23
0.0450295097
 33
0.0
 40
0.0
 40
0.0
 40
0.0
 40
0.0
 40
0.5095135595
 40
1.0
 40
1.0
 40
1.0
 40
1.0
 10
3.4760713299
 20
15.1300835701
 30
0.0
 10
3.476071283
 20
15.1422001229
 30
0.0
 10
3.482631244
 20
15.1657070605
 30
0.0
 10
3.4959049878
 20
15.1864730151
 30
0.0
 10
3.5049520778
 20
15.1938351364
 30
0.0
 11
3.4760713299
 21
15.1300835701
 31
0.0
 11
3.4844989865
 21
15.1654427595
 31
0.0
 11
3.5049520778
 21
15.1938351364
 31
0.0
  0
SPLINE
  5
44F
100
AcDbEntity
  8
ASSI
100
AcDbSpline
 62
7
  6
CONTINUOUS
 70
0
 71
3
 72
9
 73
5
 74
3
 42
0.0000001
 43
0.0000001
 44
0.0000000001
 12
0.036890209
 22
0.0282513008
 32
0.0
 13
0.0457609183
 23
0.0080598928
 33
0.0
 40
0.0
 40
0.0
 40
0.0
 40
0.0
 40
0.2449299241
 40
1.0
 40
1.0
 40
1.0
 40
1.0
 10
2.0845493573
 20
17.481657517
 30
0.0
 10
2.087561196
 20
17.4839640466
 30
0.0
 10
2.1004455587
 20
17.4926097619
 30
0.0
 10
2.1155024528
 20
17.4978314076
 30
0.0
 10
2.1270200195
 20
17.4998600023
 30
0.0
 11
2.0845493573
 21
17.481657517
 31
0.0
 11
2.0940030596
 21
17.4879938232
 31
0.0
 11
2.1270200195
 21
17.4998600023
 31
0.0
  0
SPLINE
  5
450
100
AcDbEntity
  8
ASSI
100
AcDbSpline
 62
7
  6
CONTINUOUS
 70
0
 71
3
 72
9
 73
5
 74
3
 42
0.0000001
 43
0.0000001
 44
0.0000000001
 12
0.0819977194
 22
0.0144422982
 32
0.0
 13
0.0772615454
 23
-0.0310299785
 33
0.0
 40
0.0
 40
0.0
 40
0.0
 40
0.0
 40
0.2319060719
 40
1.0
 40
1.0
 40
1.0
 40
1.0
 10
2.1270200195
 20
17.4998600023
 30
0.0
 10
2.1333586092
 20
17.5009764211
 30
0.0
 10
2.1611182489
 20
17.5034055223
 30
0.0
 10
2.1891424408
 20
17.4968551226
 30
0.0
 10
2.2089238154
 20
17.4889104766
 30
0.0
 11
2.1270200195
 21
17.4998600023
 31
0.0
 11
2.1462480949
 21
17.5016201464
 31
0.0
 11
2.2089238154
 21
17.4889104766
 31
0.0
  0
SPLINE
  5
451
100
AcDbEntity
  8
ASSI
100
AcDbSpline
 62
253
  6
CONTINUOUS
 70
0
 71
3
 72
9
 73
5
 74
3
 42
0.0000001
 43
0.0000001
 44
0.0000000001
 12
-0.000000276
 22
0.0713418863
 32
0.0
 13
0.0553354136
 23
0.0450295097
 33
0.0
 40
0.0
 40
0.0
 40
0.0
 40
0.0
 40
0.5095135595
 40
1.0
 40
1.0
 40
1.0
 40
1.0
 10
-11.1048350585
 20
20.9861042945
 30
0.0
 10
-11.1048351054
 20
20.9982208473
 30
0.0
 10
-11.0982751443
 20
21.0217277849
 30
0.0
 10
-11.0850014006
 20
21.0424937395
 30
0.0
 10
-11.0759543106
 20
21.0498558608
 30
0.0
 11
-11.1048350585
 21
20.9861042945
 31
0.0
 11
-11.0964074019
 21
21.0214634839
 31
0.0
 11
-11.0759543106
 21
21.0498558608
 31
0.0
  0
SPLINE
  5
452
100
AcDbEntity
  8
ASSI
100
AcDbSpline
 62
253
  6
CONTINUOUS
 70
0
 71
3
 72
10
 73
6
 74
4
 42
0.0000001
 43
0.0000001
 44
0.0000000001
 12
0.1278385474
 22
0.0977666298
 32
0.0
 13
0.1485713874
 23
-0.0618672042
 33
0.0
 40
0.0
 40
0.0
 40
0.0
 40
0.0
 40
0.2260592259
 40
0.4640593356
 40
1.0
 40
1.0
 40
1.0
 40
1.0
 10
-4.1387094023
 20
23.4191648585
 30
0.0
 10
-4.1290763746
 20
23.4265318748
 30
0.0
 10
-4.1066409705
 20
23.4384446952
 30
0.0
 10
-4.0532421817
 20
23.4482042724
 30
0.0
 10
-4.0108936835
 20
23.4384336931
 30
0.0
 10
-3.9843518674
 20
23.4273813096
 30
0.0
 11
-4.1387094023
 21
23.4191648585
 31
0.0
 11
-4.106661843
 21
23.436385988
 31
0.0
 11
-4.0690552939
 21
23.4436582308
 31
0.0
 11
-3.9843518674
 21
23.4273813096
 31
0.0
  0
SPLINE
  5
453
100
AcDbEntity
  8
ASSI
100
AcDbSpline
 62
253
  6
CONTINUOUS
 70
0
 71
3
 72
10
 73
6
 74
4
 42
0.0000001
 43
0.0000001
 44
0.0000000001
 12
0.1022668733
 22
0.0782901261
 32
0.0
 13
0.1188972707
 23
-0.0495105669
 33
0.0
 40
0.0
 40
0.0
 40
0.0
 40
0.0
 40
0.2260608849
 40
0.4640553948
 40
1.0
 40
1.0
 40
1.0
 40
1.0
 10
-12.0520329239
 20
23.6776475869
 30
0.0
 10
-12.044326744
 20
23.683547032
 30
0.0
 10
-12.0263763204
 20
23.6930884049
 30
0.0
 10
-11.9836443393
 20
23.700910286
 30
0.0
 10
-11.9497523078
 20
23.6930927848
 30
0.0
 10
-11.9285115242
 20
23.684247811
 30
0.0
 11
-12.0520329239
 21
23.6776475869
 31
0.0
 11
-12.0263918938
 21
23.6914401764
 31
0.0
 11
-11.9962987881
 21
23.6972680601
 31
0.0
 11
-11.9285115242
 21
23.684247811
 31
0.0
  0
LINE
  5
454
100
AcDbEntity
  8
ASSI
100
AcDbLine
 62
253
  6
CONTINUOUS
 10
2.9404430937
 20
20.4415407856
 11
2.937972144
 21
20.1615058455
  0
LINE
  5
455
100
AcDbEntity
  8
ASSI
100
AcDbLine
 62
253
  6
CONTINUOUS
 10
2.9347568074
 20
19.7987602226
 11
2.9343004713
 21
19.7472868594
  0
LINE
  5
456
100
AcDbEntity
  8
ASSI
100
AcDbLine
 62
253
  6
CONTINUOUS
 10
2.9343004713
 20
19.7472868594
 11
2.93059184
 21
19.327529058
  0
SPLINE
  5
457
100
AcDbEntity
  8
ASSI
100
AcDbSpline
 62
7
  6
CONTINUOUS
 70
0
 71
3
 72
9
 73
5
 74
3
 42
0.0000001
 43
0.0000001
 44
0.0000000001
 12
0.0278162613
 22
0.0243792458
 32
0.0
 13
0.0164323092
 23
0.0331371579
 33
0.0
 40
0.0
 40
0.0
 40
0.0
 40
0.0
 40
0.7439380091
 40
1.0
 40
1.0
 40
1.0
 40
1.0
 10
4.7954164589
 20
-23.6254961713
 30
0.0
 10
4.8023143169
 20
-23.6194506221
 30
0.0
 10
4.8103878168
 20
-23.6098090793
 30
0.0
 10
4.8163657256
 20
-23.5990204877
 30
0.0
 10
4.8177682888
 20
-23.5961920988
 30
0.0
 11
4.7954164589
 21
-23.6254961713
 31
0.0
 11
4.8131668919
 21
-23.6044703748
 31
0.0
 11
4.8177682888
 21
-23.5961920988
 31
0.0
  0
SPLINE
  5
458
100
AcDbEntity
  8
ASSI
100
AcDbSpline
 62
7
  6
CONTINUOUS
 70
0
 71
3
 72
9
 73
5
 74
3
 42
0.0000001
 43
0.0000001
 44
0.0000000001
 12
0.0263514377
 22
0.0531399295
 32
0.0
 13
0.0
 23
0.0593148411
 33
0.0
 40
0.0
 40
0.0
 40
0.0
 40
0.0
 40
0.2373553626
 40
1.0
 40
1.0
 40
1.0
 40
1.0
 10
4.8177682888
 20
-23.5961920988
 30
0.0
 10
4.8198531739
 20
-23.5919877497
 30
0.0
 10
4.827421813
 20
-23.5736739463
 30
0.0
 10
4.8302353093
 20
-23.5535907441
 30
0.0
 10
4.8302353093
 20
-23.5385120289
 30
0.0
 11
4.8177682888
 21
-23.5961920988
 31
0.0
 11
4.8231781948
 21
-23.5831943072
 31
0.0
 11
4.8302353093
 21
-23.5385120289
 31
0.0
  0
SPLINE
  5
459
100
AcDbEntity
  8
ASSI
100
AcDbSpline
 62
7
  6
CONTINUOUS
 70
0
 71
3
 72
9
 73
5
 74
3
 42
0.0000001
 43
0.0000001
 44
0.0000000001
 12
0.1648593211
 22
0.1596527073
 32
0.0
 13
0.0
 23
0.2294941888
 33
0.0
 40
0.0
 40
0.0
 40
0.0
 40
0.0
 40
0.4738615151
 40
1.0
 40
1.0
 40
1.0
 40
1.0
 10
5.1604929656
 20
-21.9474042895
 30
0.0
 10
5.1865331282
 20
-21.9221865315
 30
0.0
 10
5.2285938837
 20
-21.8547854397
 30
0.0
 10
5.2398113314
 20
-21.7772655169
 30
0.0
 10
5.2398113314
 20
-21.737016942
 30
0.0
 11
5.1604929656
 21
-21.9474042895
 31
0.0
 11
5.2194693725
 21
-21.8560368343
 31
0.0
 11
5.2398113314
 21
-21.737016942
 31
0.0
  0
SPLINE
  5
45A
100
AcDbEntity
  8
ASSI
100
AcDbSpline
 62
7
  6
CONTINUOUS
 70
0
 71
3
 72
9
 73
5
 74
3
 42
0.0000001
 43
0.0000001
 44
0.0000000001
 12
0.0312477327
 22
0.023860948
 32
0.0
 13
0.0373569897
 23
0.012256466
 33
0.0
 40
0.0
 40
0.0
 40
0.0
 40
0.0
 40
0.7456165304
 40
1.0
 40
1.0
 40
1.0
 40
1.0
 10
-7.4486708469
 20
20.8865841535
 30
0.0
 10
-7.4409045716
 20
20.8925145259
 30
0.0
 10
-7.4293725676
 20
20.8991353835
 30
0.0
 10
-7.4170884275
 20
20.9037133913
 30
0.0
 10
-7.4139207606
 20
20.9047526721
 30
0.0
 11
-7.4486708469
 21
20.8865841535
 31
0.0
 11
-7.4232895204
 21
20.9012520575
 31
0.0
 11
-7.4139207606
 21
20.9047526721
 31
0.0
  0
SPLINE
  5
45B
100
AcDbEntity
  8
ASSI
100
AcDbSpline
 62
7
  6
CONTINUOUS
 70
0
 71
3
 72
9
 73
5
 74
3
 42
0.0000001
 43
0.0000001
 44
0.0000000001
 12
0.1167386469
 22
0.0383008177
 32
0.0
 13
0.1140098223
 23
-0.0457889149
 33
0.0
 40
0.0
 40
0.0
 40
0.0
 40
0.0
 40
0.4684845188
 40
1.0
 40
1.0
 40
1.0
 40
1.0
 10
-7.4139207606
 20
20.9047526721
 30
0.0
 10
-7.3956906777
 20
20.9107337855
 30
0.0
 10
-7.353654745
 20
20.9144082423
 30
0.0
 10
-7.3134454649
 20
20.9037326342
 30
0.0
 10
-7.2932461364
 20
20.8956201285
 30
0.0
 11
-7.4139207606
 21
20.9047526721
 31
0.0
 11
-7.3567052199
 21
20.9110271179
 31
0.0
 11
-7.2932461364
 21
20.8956201285
 31
0.0
  0
SPLINE
  5
45C
100
AcDbEntity
  8
RACCORDO
100
AcDbSpline
 62
7
  6
CONTINUOUS
 70
0
 71
3
 72
9
 73
5
 74
3
 42
0.0000001
 43
0.0000001
 44
0.0000000001
 12
0.1585315489
 22
0.10916228
 32
0.0
 13
0.1500249166
 23
0.1205868142
 33
0.0
 40
0.0
 40
0.0
 40
0.0
 40
0.0
 40
0.5204017828
 40
1.0
 40
1.0
 40
1.0
 40
1.0
 10
-12.2798845355
 20
19.7298348
 30
0.0
 10
-12.252384502
 20
19.7487708817
 30
0.0
 10
-12.1999824391
 20
19.7857958762
 30
0.0
 10
-12.1486398943
 20
19.8243197126
 30
0.0
 10
-12.1246560001
 20
19.8435974529
 30
0.0
 11
-12.2798845355
 21
19.7298348
 31
0.0
 11
-12.1981311847
 21
19.7877125414
 31
0.0
 11
-12.1246560001
 21
19.8435974529
 31
0.0
  0
SPLINE
  5
45D
100
AcDbEntity
  8
RACCORDO
100
AcDbSpline
 62
7
  6
CONTINUOUS
 70
0
 71
3
 72
9
 73
5
 74
3
 42
0.0000001
 43
0.0000001
 44
0.0000000001
 12
0.1585315489
 22
0.10916228
 32
0.0
 13
0.1500249166
 23
0.1205868142
 33
0.0
 40
0.0
 40
0.0
 40
0.0
 40
0.0
 40
0.5204017828
 40
1.0
 40
1.0
 40
1.0
 40
1.0
 10
2.3010218528
 20
13.8738140756
 30
0.0
 10
2.3285218864
 20
13.8927501573
 30
0.0
 10
2.3809239493
 20
13.9297751518
 30
0.0
 10
2.432266494
 20
13.9682989882
 30
0.0
 10
2.4562503882
 20
13.9875767285
 30
0.0
 11
2.3010218528
 21
13.8738140756
 31
0.0
 11
2.3827752037
 21
13.931691817
 31
0.0
 11
2.4562503882
 21
13.9875767285
 31
0.0
  0
SPLINE
  5
45E
100
AcDbEntity
  8
RACCORDO
100
AcDbSpline
 62
253
  6
CONTINUOUS
 70
0
 71
3
 72
9
 73
5
 74
3
 42
0.0000001
 43
0.0000001
 44
0.0000000001
 12
-0.1290726089
 22
-0.1153907047
 32
0.0
 13
-0.0684273111
 23
-0.1590360217
 33
0.0
 40
0.0
 40
0.0
 40
0.0
 40
0.0
 40
0.467428569
 40
1.0
 40
1.0
 40
1.0
 40
1.0
 10
3.4840608498
 20
13.5747848757
 30
0.0
 10
3.4639501082
 20
13.5568059051
 30
0.0
 10
3.4270325907
 20
13.511569485
 30
0.0
 10
3.3996968273
 20
13.4604166986
 30
0.0
 10
3.3875493503
 20
13.432184018
 30
0.0
 11
3.4840608498
 21
13.5747848757
 31
0.0
 11
3.4315310158
 21
13.5132236511
 31
0.0
 11
3.3875493503
 21
13.432184018
 31
0.0
  0
SPLINE
  5
45F
100
AcDbEntity
  8
RACCORDO
100
AcDbSpline
 62
253
  6
CONTINUOUS
 70
0
 71
3
 72
9
 73
5
 74
3
 42
0.0000001
 43
0.0000001
 44
0.0000000001
 12
-0.1276250069
 22
-0.0989277668
 32
0.0
 13
-0.1603489045
 23
-0.019054508
 33
0.0
 40
0.0
 40
0.0
 40
0.0
 40
0.0
 40
0.4656509672
 40
1.0
 40
1.0
 40
1.0
 40
1.0
 10
3.8971072888
 20
13.004179834
 30
0.0
 10
3.8772977195
 20
12.9888245639
 30
0.0
 10
3.8283325385
 20
12.9641751713
 30
0.0
 10
3.7753628469
 20
12.952449427
 30
0.0
 10
3.7468020862
 20
12.9490555077
 30
0.0
 11
3.8971072888
 21
13.004179834
 31
0.0
 11
3.8308280504
 21
12.9686707822
 31
0.0
 11
3.7468020862
 21
12.9490555077
 31
0.0
  0
SPLINE
  5
460
100
AcDbEntity
  8
RACCORDO
100
AcDbSpline
 62
253
  6
CONTINUOUS
 70
0
 71
3
 72
9
 73
5
 74
3
 42
0.0000001
 43
0.0000001
 44
0.0000000001
 12
-0.1232282648
 22
-0.0955196588
 32
0.0
 13
-0.1545625111
 23
-0.0204851313
 33
0.0
 40
0.0
 40
0.0
 40
0.0
 40
0.0
 40
0.4660467678
 40
1.0
 40
1.0
 40
1.0
 40
1.0
 10
3.8971072888
 20
-22.6809327054
 30
0.0
 10
3.8779639106
 20
-22.6957715814
 30
0.0
 10
3.8308722053
 20
-22.7198295184
 30
0.0
 10
3.7798701658
 20
-22.7317124795
 30
0.0
 10
3.7523604484
 20
-22.7353585135
 30
0.0
 11
3.8971072888
 21
-22.6809327054
 31
0.0
 11
3.8332207135
 21
-22.7155514292
 31
0.0
 11
3.7523604484
 21
-22.7353585135
 31
0.0
  0
SPLINE
  5
461
100
AcDbEntity
  8
RACCORDO
100
AcDbSpline
 62
253
  6
CONTINUOUS
 70
0
 71
3
 72
9
 73
5
 74
3
 42
0.0000001
 43
0.0000001
 44
0.0000000001
 12
-0.1254069191
 22
-0.1121135463
 32
0.0
 13
-0.0679318645
 23
-0.1538882855
 33
0.0
 40
0.0
 40
0.0
 40
0.0
 40
0.0
 40
0.4675040575
 40
1.0
 40
1.0
 40
1.0
 40
1.0
 10
-13.7857168693
 20
20.5107169458
 30
0.0
 10
-13.8052596172
 20
20.4932457665
 30
0.0
 10
-13.8412856458
 20
20.4494589913
 30
0.0
 10
-13.8681968366
 20
20.3999596416
 30
0.0
 10
-13.8802546507
 20
20.3726446791
 30
0.0
 11
-13.7857168693
 21
20.5107169458
 31
0.0
 11
-13.836952107
 21
20.4510562358
 31
0.0
 11
-13.8802546507
 21
20.3726446791
 31
0.0
  0
SPLINE
  5
462
100
AcDbEntity
  8
ASSI
100
AcDbSpline
 62
253
  6
CONTINUOUS
 70
0
 71
3
 72
8
 73
4
 74
2
 42
0.0000001
 43
0.0000001
 44
0.0000000001
 12
-0.0199790474
 22
0.0079124059
 32
0.0
 13
-0.0214886681
 23
0.0000751283
 33
0.0
 40
0.0
 40
0.0
 40
0.0
 40
0.0
 40
1.0
 40
1.0
 40
1.0
 40
1.0
 10
5.1782863537
 20
-22.5104796001
 30
0.0
 10
5.1716266712
 20
-22.5078421315
 30
0.0
 10
5.1643312897
 20
-22.5065296525
 30
0.0
 10
5.1571684003
 20
-22.5065046097
 30
0.0
 11
5.1782863537
 21
-22.5104796001
 31
0.0
 11
5.1571684003
 21
-22.5065046097
 31
0.0
  0
SPLINE
  5
463
100
AcDbEntity
  8
ASSI
100
AcDbSpline
 62
253
  6
CONTINUOUS
 70
0
 71
3
 72
16
 73
12
 74
10
 42
0.0000001
 43
0.0000001
 44
0.0000000001
 12
0.2447905591
 22
0.2016340309
 32
0.0
 13
-0.2481925581
 23
-0.1974313915
 33
0.0
 40
0.0
 40
0.0
 40
0.0
 40
0.0
 40
0.1009642758
 40
0.1456385622
 40
0.1903044793
 40
0.2911776509
 40
0.4179271785
 40
0.5662689623
 40
0.72295471
 40
0.8720177639
 40
1.0
 40
1.0
 40
1.0
 40
1.0
 10
2.7356291397
 20
20.7284854387
 30
0.0
 10
2.7438675069
 20
20.7352713834
 30
0.0
 10
2.7544400623
 20
20.7478450257
 30
0.0
 10
2.7583687224
 20
20.7679717856
 30
0.0
 10
2.7549533408
 20
20.788227112
 30
0.0
 10
2.735992468
 20
20.8119056915
 30
0.0
 10
2.7004659967
 20
20.8308704433
 30
0.0
 10
2.6556600677
 20
20.8415725993
 30
0.0
 10
2.6072815068
 20
20.8423571556
 30
0.0
 10
2.5620048072
 20
20.833330099
 30
0.0
 10
2.5351430839
 20
20.8201175457
 30
0.0
 10
2.5245550044
 20
20.8116949754
 30
0.0
 11
2.7356291397
 21
20.7284854387
 31
0.0
 11
2.7548902027
 21
20.7540645141
 31
0.0
 11
2.7575066096
 21
20.7679889016
 31
0.0
 11
2.7552541488
 21
20.7819740855
 31
0.0
 11
2.7366831028
 21
20.8080229708
 31
0.0
 11
2.7019645737
 21
20.8282829089
 31
0.0
 11
2.6563262063
 21
20.8397022944
 31
0.0
 11
2.606642071
 21
20.8405604268
 31
0.0
 11
2.5604001914
 21
20.8307356328
 31
0.0
 11
2.5245550044
 21
20.8116949754
 31
0.0
  0
SPLINE
  5
464
100
AcDbEntity
  8
ASSI
100
AcDbSpline
 62
253
  6
CONTINUOUS
 70
0
 71
3
 72
16
 73
12
 74
10
 42
0.0000001
 43
0.0000001
 44
0.0000000001
 12
0.2518151046
 22
0.1927687146
 32
0.0
 13
-0.2485024334
 23
-0.1970207218
 33
0.0
 40
0.0
 40
0.0
 40
0.0
 40
0.0
 40
0.129155885
 40
0.2789050203
 40
0.4355629043
 40
0.5831757588
 40
0.7087487402
 40
0.8085963289
 40
0.8531156107
 40
0.8979716102
 40
1.0
 40
1.0
 40
1.0
 40
1.0
 10
-3.9843518674
 20
23.4273813096
 30
0.0
 10
-3.9735107332
 20
23.435680381
 30
0.0
 10
-3.9463105884
 20
23.4485970456
 30
0.0
 10
-3.9007562774
 20
23.4571911879
 30
0.0
 10
-3.8523959279
 20
23.4559475653
 30
0.0
 10
-3.8079054998
 20
23.4448204175
 30
0.0
 10
-3.7728905064
 20
23.4255110986
 30
0.0
 10
-3.7546344943
 20
23.4015383401
 30
0.0
 10
-3.7518965623
 20
23.381280683
 30
0.0
 10
-3.75649716
 20
23.3611843293
 30
0.0
 10
-3.7674396685
 20
23.3487967413
 30
0.0
 10
-3.7758911028
 20
23.3420961723
 30
0.0
 11
-3.9843518674
 21
23.4273813096
 31
0.0
 11
-3.9478965364
 21
23.4460535303
 31
0.0
 11
-3.9013376885
 21
23.4554103553
 31
0.0
 11
-3.8516754445
 21
23.4540557835
 31
0.0
 11
-3.8063930396
 21
23.4421859507
 31
0.0
 11
-3.772311008
 21
23.4215881251
 31
0.0
 11
-3.7545637541
 21
23.395364511
 31
0.0
 11
-3.7527553227
 21
23.381362469
 31
0.0
 11
-3.7558141911
 21
23.3674701141
 31
0.0
 11
-3.7758911028
 21
23.3420961723
 31
0.0
  0
SPLINE
  5
465
100
AcDbEntity
  8
ASSI
100
AcDbSpline
 62
253
  6
CONTINUOUS
 70
0
 71
3
 72
10
 73
6
 74
4
 42
0.0000001
 43
0.0000001
 44
0.0000000001
 12
0.0230636924
 22
0.0190230305
 32
0.0
 13
0.011560495
 23
-0.0275710818
 33
0.0
 40
0.0
 40
0.0
 40
0.0
 40
0.0
 40
0.5354113937
 40
0.7510095198
 40
1.0
 40
1.0
 40
1.0
 40
1.0
 10
-9.3287723288
 20
22.4763284837
 30
0.0
 10
-9.3246561409
 20
22.4797235328
 30
0.0
 10
-9.3169922478
 20
22.48425631
 30
0.0
 10
-9.3072379246
 20
22.4799767356
 30
0.0
 10
-9.3047444866
 20
22.4758035104
 30
0.0
 10
-9.3037850022
 20
22.4735151981
 30
0.0
 11
-9.3287723288
 21
22.4763284837
 31
0.0
 11
-9.3139005666
 21
22.4822492051
 31
0.0
 11
-9.3080026024
 21
22.4796490957
 31
0.0
 11
-9.3037850022
 21
22.4735151981
 31
0.0
  0
SPLINE
  5
466
100
AcDbEntity
  8
ASSI
100
AcDbSpline
 62
253
  6
CONTINUOUS
 70
0
 71
3
 72
9
 73
5
 74
3
 42
0.0000001
 43
0.0000001
 44
0.0000000001
 12
0.0058154178
 22
-0.0138694199
 32
0.0
 13
-0.0000001962
 23
-0.0150392784
 33
0.0
 40
0.0
 40
0.0
 40
0.0
 40
0.0
 40
0.2204372324
 40
1.0
 40
1.0
 40
1.0
 40
1.0
 10
-9.3037850022
 20
22.4735151981
 30
0.0
 10
-9.3033576907
 20
22.4724960859
 30
0.0
 10
-9.3017518082
 20
22.4677330764
 30
0.0
 10
-9.301296411
 20
22.4626495741
 30
0.0
 10
-9.301296462
 20
22.4587415536
 30
0.0
 11
-9.3037850022
 21
22.4735151981
 31
0.0
 11
-9.3027056031
 21
22.4703806231
 31
0.0
 11
-9.301296462
 21
22.4587415536
 31
0.0
  0
SPLINE
  5
467
100
AcDbEntity
  8
ASSI
100
AcDbSpline
 62
253
  6
CONTINUOUS
 70
0
 71
3
 72
9
 73
5
 74
3
 42
0.0000001
 43
0.0000001
 44
0.0000000001
 12
0.0000005787
 22
-0.049687969
 32
0.0
 13
-0.0252373661
 23
-0.0428015142
 33
0.0
 40
0.0
 40
0.0
 40
0.0
 40
0.0
 40
0.2304080822
 40
1.0
 40
1.0
 40
1.0
 40
1.0
 10
-9.301296462
 20
22.1371973016
 30
0.0
 10
-9.3012964175
 20
22.1333811317
 30
0.0
 10
-9.3028586374
 20
22.1168463817
 30
0.0
 10
-9.3088042564
 20
22.1008171561
 30
0.0
 10
-9.3152784141
 20
22.0898372563
 30
0.0
 11
-9.301296462
 21
22.1371973016
 31
0.0
 11
-9.3022490191
 21
22.1257884889
 31
0.0
 11
-9.3152784141
 21
22.0898372563
 31
0.0
  0
SPLINE
  5
468
100
AcDbEntity
  8
ASSI
100
AcDbSpline
 62
253
  6
CONTINUOUS
 70
0
 71
3
 72
10
 73
6
 74
4
 42
0.0000001
 43
0.0000001
 44
0.0000000001
 12
-0.0527791351
 22
0.0211982943
 32
0.0
 13
-0.0000018668
 23
-0.0568771024
 33
0.0
 40
0.0
 40
0.0
 40
0.0
 40
0.0
 40
0.5091222752
 40
0.740592973
 40
1.0
 40
1.0
 40
1.0
 40
1.0
 10
-3.2751467083
 20
18.7636121727
 30
0.0
 10
-3.2841037194
 20
18.7672096806
 30
0.0
 10
-3.3010850489
 20
18.7686729941
 30
0.0
 10
-3.3144441073
 20
18.7535868068
 30
0.0
 10
-3.316097911
 20
18.7440259063
 30
0.0
 10
-3.3160980725
 20
18.7391077996
 30
0.0
 11
-3.2751467083
 21
18.7636121727
 31
0.0
 11
-3.3041018422
 21
18.7632499249
 31
0.0
 11
-3.3129805102
 21
18.7535289911
 31
0.0
 11
-3.3160980725
 21
18.7391077996
 31
0.0
  0
SPLINE
  5
469
100
AcDbEntity
  8
ASSI
100
AcDbSpline
 62
253
  6
CONTINUOUS
 70
0
 71
3
 72
9
 73
5
 74
3
 42
0.0000001
 43
0.0000001
 44
0.0000000001
 12
0.0000006088
 22
0.0726124046
 32
0.0
 13
-0.0673814836
 23
0.027060986
 33
0.0
 40
0.0
 40
0.0
 40
0.0
 40
0.0
 40
0.236943773
 40
1.0
 40
1.0
 40
1.0
 40
1.0
 10
-0.6624828517
 20
17.6733561026
 30
0.0
 10
-0.6624828036
 20
17.6790911216
 30
0.0
 10
-0.6674027075
 20
17.7030717438
 30
0.0
 10
-0.6862955957
 20
17.7238714399
 30
0.0
 10
-0.7034342159
 20
17.7307544578
 30
0.0
 11
-0.6624828517
 21
17.6733561026
 31
0.0
 11
-0.665598761
 21
17.6902766552
 31
0.0
 11
-0.7034342159
 21
17.7307544578
 31
0.0
  0
SPLINE
  5
46A
100
AcDbEntity
  8
ASSI
100
AcDbSpline
 62
253
  6
CONTINUOUS
 70
0
 71
3
 72
10
 73
6
 74
4
 42
0.0000001
 43
0.0000001
 44
0.0000000001
 12
-0.0527791351
 22
0.0211982943
 32
0.0
 13
-0.0000018668
 23
-0.0568771024
 33
0.0
 40
0.0
 40
0.0
 40
0.0
 40
0.0
 40
0.5091222752
 40
0.740592973
 40
1.0
 40
1.0
 40
1.0
 40
1.0
 10
-7.5756949408
 20
20.4908092964
 30
0.0
 10
-7.5846519519
 20
20.4944068044
 30
0.0
 10
-7.6016332814
 20
20.4958701179
 30
0.0
 10
-7.6149923399
 20
20.4807839305
 30
0.0
 10
-7.6166461436
 20
20.47122303
 30
0.0
 10
-7.616646305
 20
20.4663049234
 30
0.0
 11
-7.5756949408
 21
20.4908092964
 31
0.0
 11
-7.6046500747
 21
20.4904470486
 31
0.0
 11
-7.6135287427
 21
20.4807261149
 31
0.0
 11
-7.616646305
 21
20.4663049234
 31
0.0
  0
SPLINE
  5
46B
100
AcDbEntity
  8
ASSI
100
AcDbSpline
 62
253
  6
CONTINUOUS
 70
0
 71
3
 72
9
 73
5
 74
3
 42
0.0000001
 43
0.0000001
 44
0.0000000001
 12
0.0000006088
 22
0.0726124046
 32
0.0
 13
-0.0673814836
 23
0.027060986
 33
0.0
 40
0.0
 40
0.0
 40
0.0
 40
0.0
 40
0.236943773
 40
1.0
 40
1.0
 40
1.0
 40
1.0
 10
-4.9630310842
 20
19.4005532263
 30
0.0
 10
-4.9630310362
 20
19.4062882454
 30
0.0
 10
-4.96795094
 20
19.4302688676
 30
0.0
 10
-4.9868438282
 20
19.4510685636
 30
0.0
 10
-5.0039824484
 20
19.4579515816
 30
0.0
 11
-4.9630310842
 21
19.4005532263
 31
0.0
 11
-4.9661469935
 21
19.4174737789
 31
0.0
 11
-5.0039824484
 21
19.4579515816
 31
0.0
  0
SPLINE
  5
46C
100
AcDbEntity
  8
ASSI
100
AcDbSpline
 62
253
  6
CONTINUOUS
 70
0
 71
3
 72
10
 73
6
 74
4
 42
0.0000001
 43
0.0000001
 44
0.0000000001
 12
0.1291622996
 22
0.1027278795
 32
0.0
 13
0.1531570383
 23
-0.0614722576
 33
0.0
 40
0.0
 40
0.0
 40
0.0
 40
0.0
 40
0.2265111669
 40
0.4647525887
 40
1.0
 40
1.0
 40
1.0
 40
1.0
 10
4.741652604
 20
21.8909398891
 30
0.0
 10
4.7514048384
 20
21.8986962264
 30
0.0
 10
4.7742123333
 20
21.9113655971
 30
0.0
 10
4.8287895713
 20
21.9223421779
 30
0.0
 10
4.8723722026
 20
21.9130005146
 30
0.0
 10
4.8996978387
 20
21.9020328923
 30
0.0
 11
4.741652604
 21
21.8909398891
 31
0.0
 11
4.7742441645
 21
21.9092481326
 31
0.0
 11
4.8127095622
 21
21.9173903624
 31
0.0
 11
4.8996978387
 21
21.9020328923
 31
0.0
  0
SPLINE
  5
46D
100
AcDbEntity
  8
ASSI
100
AcDbSpline
 62
7
  6
CONTINUOUS
 70
0
 71
3
 72
11
 73
7
 74
5
 42
0.0000001
 43
0.0000001
 44
0.0000000001
 12
0.1900726137
 22
0.3161133867
 32
0.0
 13
-0.1385959482
 23
0.3418280779
 33
0.0
 40
0.0
 40
0.0
 40
0.0
 40
0.0
 40
0.218667899
 40
0.4573836574
 40
0.718606128
 40
1.0
 40
1.0
 40
1.0
 40
1.0
 10
-0.2075497631
 20
17.2159930372
 30
0.0
 10
-0.1936955034
 20
17.2390343206
 30
0.0
 10
-0.1726300107
 20
17.2922231462
 30
0.0
 10
-0.1631309312
 20
17.3808990077
 30
0.0
 10
-0.1744362523
 20
17.4769643461
 30
0.0
 10
-0.1945497463
 20
17.5409903598
 30
0.0
 10
-0.2075497631
 20
17.5730531353
 30
0.0
 11
-0.2075497631
 21
17.2159930372
 31
0.0
 11
-0.176986258
 21
17.2906351394
 31
0.0
 11
-0.1665844504
 21
17.3780704931
 31
0.0
 11
-0.176986258
 21
17.4738610477
 31
0.0
 11
-0.2075497631
 21
17.5730531353
 31
0.0
  0
SPLINE
  5
46E
100
AcDbEntity
  8
RACCORDO
100
AcDbSpline
 62
253
  6
CONTINUOUS
 70
0
 71
3
 72
11
 73
7
 74
5
 42
0.0000001
 43
0.0000001
 44
0.0000000001
 12
0.252630527
 22
0.2371901741
 32
0.0
 13
0.3228499272
 23
-0.125893949
 33
0.0
 40
0.0
 40
0.0
 40
0.0
 40
0.0
 40
0.2224760007
 40
0.457838584
 40
0.7159589258
 40
1.0
 40
1.0
 40
1.0
 40
1.0
 10
-14.1135554299
 20
20.4779298073
 30
0.0
 10
-14.0948206868
 20
20.4955195144
 30
0.0
 10
-14.0493484235
 20
20.5249474529
 30
0.0
 10
-13.967654826
 20
20.5444775761
 30
0.0
 10
-13.8769887517
 20
20.5400680607
 30
0.0
 10
-13.8162844161
 20
20.5226366299
 30
0.0
 10
-13.7857168693
 20
20.5107169458
 30
0.0
 11
-14.1135554299
 21
20.4779298073
 31
0.0
 11
-14.0490300216
 21
20.5201194653
 31
0.0
 11
-13.9699703785
 21
20.5401580629
 31
0.0
 11
-13.8805817208
 21
20.5369608785
 31
0.0
 11
-13.7857168693
 21
20.5107169458
 31
0.0
  0
SPLINE
  5
46F
100
AcDbEntity
  8
ASSI
100
AcDbSpline
 62
253
  6
CONTINUOUS
 70
0
 71
3
 72
9
 73
5
 74
3
 42
0.0000001
 43
0.0000001
 44
0.0000000001
 12
-0.0029065156
 22
0.1662236842
 32
0.0
 13
-0.0442916034
 23
0.1602404908
 33
0.0
 40
0.0
 40
0.0
 40
0.0
 40
0.0
 40
0.2682724691
 40
1.0
 40
1.0
 40
1.0
 40
1.0
 10
0.0955261713
 20
23.52897865
 30
0.0
 10
0.0952662586
 20
23.5438430627
 30
0.0
 10
0.0928763838
 20
23.5991890213
 30
0.0
 10
0.0846451501
 20
23.6544911561
 30
0.0
 10
0.0738420215
 20
23.6935752823
 30
0.0
 11
0.0955261713
 21
23.52897865
 31
0.0
 11
0.0935635801
 21
23.5735355026
 31
0.0
 11
0.0738420215
 21
23.6935752823
 31
0.0
  0
SPLINE
  5
470
100
AcDbEntity
  8
ASSI
100
AcDbSpline
 62
253
  6
CONTINUOUS
 70
0
 71
3
 72
15
 73
11
 74
9
 42
0.0000001
 43
0.0000001
 44
0.0000000001
 12
-0.1420015285
 22
0.513740594
 32
0.0
 13
-0.4175112949
 23
-0.3313278599
 33
0.0
 40
0.0
 40
0.0
 40
0.0
 40
0.0
 40
0.1407691373
 40
0.2650346049
 40
0.3768356355
 40
0.4830483681
 40
0.5921783277
 40
0.7118255894
 40
0.847087039
 40
1.0
 40
1.0
 40
1.0
 40
1.0
 10
0.0738420215
 20
23.6935752823
 30
0.0
 10
0.0671788773
 20
23.7176815557
 30
0.0
 10
0.0511317844
 20
23.7622738312
 30
0.0
 10
0.0155874422
 20
23.8197255512
 30
0.0
 10
-0.0296734212
 20
23.8617011946
 30
0.0
 10
-0.083708568
 20
23.8859553709
 30
0.0
 10
-0.1440015431
 20
23.8911494755
 30
0.0
 10
-0.2080439174
 20
23.8779334507
 30
0.0
 10
-0.2743012597
 20
23.8474881077
 30
0.0
 10
-0.3165896072
 20
23.8182086989
 30
0.0
 10
-0.33787057
 20
23.8013205908
 30
0.0
 11
0.0738420215
 21
23.6935752823
 31
0.0
 11
0.0476071874
 21
23.7638698245
 31
0.0
 11
0.0119319
 21
23.8196750593
 31
0.0
 11
-0.0323008738
 21
23.859606052
 31
0.0
 11
-0.0840026739
 21
23.8826674367
 31
0.0
 11
-0.1418971114
 21
23.8882893971
 31
0.0
 11
-0.2045413931
 21
23.8763466205
 31
0.0
 11
-0.2704353976
 21
23.8470948812
 31
0.0
 11
-0.33787057
 21
23.8013205908
 31
0.0
  0
SPLINE
  5
471
100
AcDbEntity
  8
ASSI
100
AcDbSpline
 62
253
  6
CONTINUOUS
 70
0
 71
3
 72
9
 73
5
 74
3
 42
0.0000001
 43
0.0000001
 44
0.0000000001
 12
0.0028821342
 22
-0.1451562248
 32
0.0
 13
-0.1135195636
 23
-0.090509364
 33
0.0
 40
0.0
 40
0.0
 40
0.0
 40
0.0
 40
0.4614775334
 40
1.0
 40
1.0
 40
1.0
 40
1.0
 10
-3.505268634
 20
23.1820682329
 30
0.0
 10
-3.5048252873
 20
23.159739454
 30
0.0
 10
-3.5188946456
 20
23.1106548107
 30
0.0
 10
-3.553298228
 20
23.0746779001
 30
0.0
 10
-3.5736758398
 20
23.0584307914
 30
0.0
 11
-3.505268634
 21
23.1820682329
 31
0.0
 11
-3.52214108
 21
23.1172279764
 31
0.0
 11
-3.5736758398
 21
23.0584307914
 31
0.0
  0
SPLINE
  5
472
100
AcDbEntity
  8
ASSI
100
AcDbSpline
 62
7
  6
CONTINUOUS
 70
0
 71
3
 72
9
 73
5
 74
3
 42
0.0000001
 43
0.0000001
 44
0.0000000001
 12
0.0030127227
 22
-0.1520570804
 32
0.0
 13
-0.119140023
 23
-0.0945308793
 33
0.0
 40
0.0
 40
0.0
 40
0.0
 40
0.0
 40
0.4623061872
 40
1.0
 40
1.0
 40
1.0
 40
1.0
 10
-3.4832119357
 20
22.0568863637
 30
0.0
 10
-3.4827476689
 20
22.033454054
 30
0.0
 10
-3.4974041195
 20
21.9820087193
 30
0.0
 10
-3.5335069491
 20
21.9443444348
 30
0.0
 10
-3.5548605668
 20
21.9274015452
 30
0.0
 11
-3.4832119357
 21
22.0568863637
 31
0.0
 11
-3.500882875
 21
21.9888324436
 31
0.0
 11
-3.5548605668
 21
21.9274015452
 31
0.0
  0
SPLINE
  5
473
100
AcDbEntity
  8
ASSI
100
AcDbSpline
 62
7
  6
CONTINUOUS
 70
0
 71
3
 72
9
 73
5
 74
3
 42
0.0000001
 43
0.0000001
 44
0.0000000001
 12
-0.0008892565
 22
-0.1439163428
 32
0.0
 13
-0.1110264412
 23
-0.0915741987
 33
0.0
 40
0.0
 40
0.0
 40
0.0
 40
0.0
 40
0.4642739742
 40
1.0
 40
1.0
 40
1.0
 40
1.0
 10
2.9982511087
 20
19.4505666185
 30
0.0
 10
2.9981134892
 20
19.4282944143
 30
0.0
 10
2.9838862113
 20
19.3800091947
 30
0.0
 10
2.9504184247
 20
19.3438819518
 30
0.0
 10
2.93059184
 20
19.327529058
 30
0.0
 11
2.9982511087
 21
19.4505666185
 31
0.0
 11
2.9807554816
 21
19.3860799285
 31
0.0
 11
2.93059184
 21
19.327529058
 31
0.0
  0
SPLINE
  5
474
100
AcDbEntity
  8
ASSI
100
AcDbSpline
 62
253
  6
CONTINUOUS
 70
0
 71
3
 72
10
 73
6
 74
4
 42
0.0000001
 43
0.0000001
 44
0.0000000001
 12
0.2243812582
 22
-0.0034054728
 32
0.0
 13
0.0668654117
 23
0.2142138254
 33
0.0
 40
0.0
 40
0.0
 40
0.0
 40
0.0
 40
0.2377697348
 40
0.4824429286
 40
1.0
 40
1.0
 40
1.0
 40
1.0
 10
3.3261134322
 20
14.6735791781
 30
0.0
 10
3.343897123
 20
14.673309272
 30
0.0
 10
3.3804009898
 20
14.6795642094
 30
0.0
 10
3.446367236
 20
14.717203716
 30
0.0
 10
3.479232644
 20
14.7691631565
 30
0.0
 10
3.4907681996
 20
14.8061191166
 30
0.0
 11
3.3261134322
 21
14.6735791781
 31
0.0
 11
3.3787421494
 21
14.6823661394
 31
0.0
 11
3.4265715825
 21
14.7093301576
 31
0.0
 11
3.4907681996
 21
14.8061191166
 31
0.0
  0
SPLINE
  5
475
100
AcDbEntity
  8
ASSI
100
AcDbSpline
 62
253
  6
CONTINUOUS
 70
0
 71
3
 72
9
 73
5
 74
3
 42
0.0000001
 43
0.0000001
 44
0.0000000001
 12
0.0749010915
 22
0.0613553866
 32
0.0
 13
-0.0014584965
 23
0.0968118266
 33
0.0
 40
0.0
 40
0.0
 40
0.0
 40
0.0
 40
0.5379619164
 40
1.0
 40
1.0
 40
1.0
 40
1.0
 10
0.0955261713
 20
23.52897865
 30
0.0
 10
0.1089574829
 20
23.5399809371
 30
0.0
 10
0.1315665188
 20
23.5642217257
 30
0.0
 10
0.140951552
 20
23.5968809976
 30
0.0
 10
0.140726925
 20
23.6117912478
 30
0.0
 11
0.0955261713
 21
23.52897865
 31
0.0
 11
0.1294560171
 21
23.5684985138
 31
0.0
 11
0.140726925
 21
23.6117912478
 31
0.0
  0
SPLINE
  5
476
100
AcDbEntity
  8
ASSI
100
AcDbSpline
 62
253
  6
CONTINUOUS
 70
0
 71
3
 72
10
 73
6
 74
4
 42
0.0000001
 43
0.0000001
 44
0.0000000001
 12
-0.0018815913
 22
0.3659518808
 32
0.0
 13
-0.3395619803
 23
0.1364623795
 33
0.0
 40
0.0
 40
0.0
 40
0.0
 40
0.0
 40
0.235355925
 40
0.6243388164
 40
1.0
 40
1.0
 40
1.0
 40
1.0
 10
-0.33787057
 20
23.8013205908
 30
0.0
 10
-0.3380181845
 20
23.8300302386
 30
0.0
 10
-0.3537406452
 20
23.9061960458
 30
0.0
 10
-0.4200647907
 20
24.0119848931
 30
0.0
 10
-0.4976047334
 20
24.0697004377
 30
0.0
 10
-0.5401248186
 20
24.0867883107
 30
0.0
 11
-0.33787057
 21
23.8013205908
 31
0.0
 11
-0.3535220727
 21
23.8860166443
 31
0.0
 11
-0.4278904506
 21
24.007396724
 31
0.0
 11
-0.5401248186
 21
24.0867883107
 31
0.0
  0
SPLINE
  5
477
100
AcDbEntity
  8
ASSI
100
AcDbSpline
 62
253
  6
CONTINUOUS
 70
0
 71
3
 72
11
 73
7
 74
5
 42
0.0000001
 43
0.0000001
 44
0.0000000001
 12
0.2968912451
 22
0.2358959626
 32
0.0
 13
0.3589762215
 23
-0.1221776941
 33
0.0
 40
0.0
 40
0.0
 40
0.0
 40
0.0
 40
0.3011274754
 40
0.5638932909
 40
0.7928650762
 40
1.0
 40
1.0
 40
1.0
 40
1.0
 10
4.8996978398
 20
21.9020328932
 30
0.0
 10
4.9294985435
 20
21.925711145
 30
0.0
 10
4.9883794509
 20
21.9664807697
 30
0.0
 10
5.0803815758
 20
22.0079946326
 30
0.0
 10
5.1683496135
 20
22.0241335848
 30
0.0
 10
5.2242235937
 20
22.0162325314
 30
0.0
 10
5.2490090977
 20
22.0077967757
 30
0.0
 11
4.8996978398
 21
21.9020328932
 31
0.0
 11
4.9942535351
 21
21.966047692
 31
0.0
 11
5.0856837375
 21
22.0056547012
 31
0.0
 11
5.1713685735
 21
22.0196836464
 31
0.0
 11
5.2490090977
 21
22.0077967757
 31
0.0
  0
SPLINE
  5
478
100
AcDbEntity
  8
ASSI
100
AcDbSpline
 62
253
  6
CONTINUOUS
 70
0
 71
3
 72
11
 73
7
 74
5
 42
0.0000001
 43
0.0000001
 44
0.0000000001
 12
0.2672068909
 22
-0.1073163089
 32
0.0
 13
0.2260099847
 23
0.1784258937
 33
0.0
 40
0.0
 40
0.0
 40
0.0
 40
0.0
 40
0.2528709452
 40
0.5208296315
 40
0.7774601982
 40
1.0
 40
1.0
 40
1.0
 40
1.0
 10
-4.9630310842
 20
19.4005532263
 30
0.0
 10
-4.9405081312
 20
19.3915075009
 30
0.0
 10
-4.8912989897
 20
19.3796847739
 30
0.0
 10
-4.8161379332
 20
19.3785552701
 30
0.0
 10
-4.7453474338
 20
19.3929811398
 30
0.0
 10
-4.7032778038
 20
19.4138589134
 30
0.0
 10
-4.6865123981
 20
19.4270945344
 30
0.0
 11
-4.9630310842
 21
19.4005532263
 31
0.0
 11
-4.8924552852
 21
19.3826358145
 31
0.0
 11
-4.8153062778
 21
19.3813804527
 31
0.0
 11
-4.7430730133
 21
19.3969740887
 31
0.0
 11
-4.6865123981
 21
19.4270945344
 31
0.0
  0
SPLINE
  5
479
100
AcDbEntity
  8
ASSI
100
AcDbSpline
 62
253
  6
CONTINUOUS
 70
0
 71
3
 72
11
 73
7
 74
5
 42
0.0000001
 43
0.0000001
 44
0.0000000001
 12
0.0
 22
0.2865598572
 32
0.0
 13
0.2189795882
 23
0.1848363917
 33
0.0
 40
0.0
 40
0.0
 40
0.0
 40
0.0
 40
0.2427329153
 40
0.5104359397
 40
0.7725496617
 40
1.0
 40
1.0
 40
1.0
 40
1.0
 10
-5.0039824484
 20
19.4579515816
 30
0.0
 10
-5.0039824484
 20
19.4811374181
 30
0.0
 10
-4.9970992217
 20
19.5299032716
 30
0.0
 10
-4.9733282598
 20
19.6001299022
 30
0.0
 10
-4.9384477547
 20
19.6638698788
 30
0.0
 10
-4.9078715461
 20
19.7000726107
 30
0.0
 10
-4.891269219
 20
19.7140863106
 30
0.0
 11
-5.0039824484
 21
19.4579515816
 31
0.0
 11
-4.9954408059
 21
19.5269826433
 31
0.0
 11
-4.9710878913
 21
19.5997274766
 31
0.0
 11
-4.934550316
 21
19.6653529944
 31
0.0
 11
-4.891269219
 21
19.7140863106
 31
0.0
  0
SPLINE
  5
47A
100
AcDbEntity
  8
ASSI
100
AcDbSpline
 62
253
  6
CONTINUOUS
 70
0
 71
3
 72
11
 73
7
 74
5
 42
0.0000001
 43
0.0000001
 44
0.0000000001
 12
-0.0000000005
 22
0.2865598572
 32
0.0
 13
0.2189795886
 23
0.1848363913
 33
0.0
 40
0.0
 40
0.0
 40
0.0
 40
0.0
 40
0.2427329142
 40
0.5104359379
 40
0.7725496606
 40
1.0
 40
1.0
 40
1.0
 40
1.0
 10
-7.5756949408
 20
20.4908092964
 30
0.0
 10
-7.5756949408
 20
20.5139951329
 30
0.0
 10
-7.5688117143
 20
20.5627609862
 30
0.0
 10
-7.5450407525
 20
20.6329876168
 30
0.0
 10
-7.5101602474
 20
20.6967275934
 30
0.0
 10
-7.4795840386
 20
20.7329303255
 30
0.0
 10
-7.4629817114
 20
20.7469440255
 30
0.0
 11
-7.5756949408
 21
20.4908092964
 31
0.0
 11
-7.5671532985
 21
20.5598403579
 31
0.0
 11
-7.542800384
 21
20.632585191
 31
0.0
 11
-7.5062628087
 21
20.698210709
 31
0.0
 11
-7.4629817114
 21
20.7469440255
 31
0.0
  0
SPLINE
  5
47B
100
AcDbEntity
  8
ASSI
100
AcDbSpline
 62
253
  6
CONTINUOUS
 70
0
 71
3
 72
11
 73
7
 74
5
 42
0.0000001
 43
0.0000001
 44
0.0000000001
 12
-0.1242899804
 22
0.0499176582
 32
0.0
 13
-0.0000807656
 23
0.1339394091
 33
0.0
 40
0.0
 40
0.0
 40
0.0
 40
0.0
 40
0.2988272721
 40
0.5626851152
 40
0.792134496
 40
1.0
 40
1.0
 40
1.0
 40
1.0
 10
-7.616646305
 20
20.4663049234
 30
0.0
 10
-7.6290267169
 20
20.4712771759
 30
0.0
 10
-7.6516405484
 20
20.482616895
 30
0.0
 10
-7.6794338129
 20
20.5050479134
 30
0.0
 10
-7.697539039
 20
20.5312747519
 30
0.0
 10
-7.7019196118
 20
20.550963831
 30
0.0
 10
-7.7019252079
 20
20.560244292
 30
0.0
 11
-7.616646305
 21
20.4663049234
 31
0.0
 11
-7.6522361616
 21
20.4846173006
 31
0.0
 11
-7.67933348
 21
20.5073047309
 31
0.0
 11
-7.696193723
 21
20.5329992381
 31
0.0
 11
-7.7019252079
 21
20.560244292
 31
0.0
  0
SPLINE
  5
47C
100
AcDbEntity
  8
ASSI
100
AcDbSpline
 62
253
  6
CONTINUOUS
 70
0
 71
3
 72
11
 73
7
 74
5
 42
0.0000001
 43
0.0000001
 44
0.0000000001
 12
0.2672068909
 22
-0.1073163089
 32
0.0
 13
0.2260099847
 23
0.1784258937
 33
0.0
 40
0.0
 40
0.0
 40
0.0
 40
0.0
 40
0.2528709452
 40
0.5208296315
 40
0.7774601982
 40
1.0
 40
1.0
 40
1.0
 40
1.0
 10
-0.6624828517
 20
17.6733561026
 30
0.0
 10
-0.6399598987
 20
17.6643103771
 30
0.0
 10
-0.5907507572
 20
17.6524876502
 30
0.0
 10
-0.5155897007
 20
17.6513581464
 30
0.0
 10
-0.4447992013
 20
17.6657840161
 30
0.0
 10
-0.4027295713
 20
17.6866617896
 30
0.0
 10
-0.3859641656
 20
17.6998974106
 30
0.0
 11
-0.6624828517
 21
17.6733561026
 31
0.0
 11
-0.5919070526
 21
17.6554386907
 31
0.0
 11
-0.5147580452
 21
17.6541833289
 31
0.0
 11
-0.4425247808
 21
17.6697769649
 31
0.0
 11
-0.3859641656
 21
17.6998974106
 31
0.0
  0
SPLINE
  5
47D
100
AcDbEntity
  8
ASSI
100
AcDbSpline
 62
253
  6
CONTINUOUS
 70
0
 71
3
 72
11
 73
7
 74
5
 42
0.0000001
 43
0.0000001
 44
0.0000000001
 12
-0.0
 22
0.2865598572
 32
0.0
 13
0.2189795882
 23
0.1848363917
 33
0.0
 40
0.0
 40
0.0
 40
0.0
 40
0.0
 40
0.2427329153
 40
0.5104359397
 40
0.7725496617
 40
1.0
 40
1.0
 40
1.0
 40
1.0
 10
-0.7034342159
 20
17.7307544578
 30
0.0
 10
-0.7034342159
 20
17.7539402943
 30
0.0
 10
-0.6965509892
 20
17.8027061479
 30
0.0
 10
-0.6727800273
 20
17.8729327785
 30
0.0
 10
-0.6378995222
 20
17.936672755
 30
0.0
 10
-0.6073233136
 20
17.9728754869
 30
0.0
 10
-0.5907209864
 20
17.9868891868
 30
0.0
 11
-0.7034342159
 21
17.7307544578
 31
0.0
 11
-0.6948925734
 21
17.7997855195
 31
0.0
 11
-0.6705396588
 21
17.8725303529
 31
0.0
 11
-0.6340020835
 21
17.9381558706
 31
0.0
 11
-0.5907209864
 21
17.9868891868
 31
0.0
  0
SPLINE
  5
47E
100
AcDbEntity
  8
ASSI
100
AcDbSpline
 62
253
  6
CONTINUOUS
 70
0
 71
3
 72
11
 73
7
 74
5
 42
0.0000001
 43
0.0000001
 44
0.0000000001
 12
-0.0000000005
 22
0.2865598572
 32
0.0
 13
0.2189795886
 23
0.1848363913
 33
0.0
 40
0.0
 40
0.0
 40
0.0
 40
0.0
 40
0.2427329142
 40
0.5104359379
 40
0.7725496606
 40
1.0
 40
1.0
 40
1.0
 40
1.0
 10
-3.2751467083
 20
18.7636121727
 30
0.0
 10
-3.2751467083
 20
18.7867980091
 30
0.0
 10
-3.2682634818
 20
18.8355638625
 30
0.0
 10
-3.24449252
 20
18.905790493
 30
0.0
 10
-3.2096120149
 20
18.9695304697
 30
0.0
 10
-3.1790358061
 20
19.0057332017
 30
0.0
 10
-3.1624334788
 20
19.0197469017
 30
0.0
 11
-3.2751467083
 21
18.7636121727
 31
0.0
 11
-3.266605066
 21
18.8326432341
 31
0.0
 11
-3.2422521515
 21
18.9053880673
 31
0.0
 11
-3.2057145762
 21
18.9710135853
 31
0.0
 11
-3.1624334788
 21
19.0197469017
 31
0.0
  0
SPLINE
  5
47F
100
AcDbEntity
  8
ASSI
100
AcDbSpline
 62
253
  6
CONTINUOUS
 70
0
 71
3
 72
11
 73
7
 74
5
 42
0.0000001
 43
0.0000001
 44
0.0000000001
 12
-0.1242899804
 22
0.0499176582
 32
0.0
 13
-0.0000807656
 23
0.1339394091
 33
0.0
 40
0.0
 40
0.0
 40
0.0
 40
0.0
 40
0.2988272721
 40
0.5626851152
 40
0.792134496
 40
1.0
 40
1.0
 40
1.0
 40
1.0
 10
-3.3160980725
 20
18.7391077996
 30
0.0
 10
-3.3284784844
 20
18.7440800521
 30
0.0
 10
-3.3510923159
 20
18.7554197712
 30
0.0
 10
-3.3788855804
 20
18.7778507896
 30
0.0
 10
-3.3969908064
 20
18.8040776281
 30
0.0
 10
-3.4013713792
 20
18.8237667073
 30
0.0
 10
-3.4013769754
 20
18.8330471682
 30
0.0
 11
-3.3160980725
 21
18.7391077996
 31
0.0
 11
-3.3516879291
 21
18.7574201768
 31
0.0
 11
-3.3787852475
 21
18.7801076071
 31
0.0
 11
-3.3956454905
 21
18.8058021144
 31
0.0
 11
-3.4013769754
 21
18.8330471682
 31
0.0
  0
SPLINE
  5
480
100
AcDbEntity
  8
ASSI
100
AcDbSpline
 62
253
  6
CONTINUOUS
 70
0
 71
3
 72
11
 73
7
 74
5
 42
0.0000001
 43
0.0000001
 44
0.0000000001
 12
-0.1224319984
 22
0.049231024
 32
0.0
 13
0.0000004478
 23
0.1319594179
 33
0.0
 40
0.0
 40
0.0
 40
0.0
 40
0.0
 40
0.1964542742
 40
0.4203920634
 40
0.6871821934
 40
1.0
 40
1.0
 40
1.0
 40
1.0
 10
3.2500040288
 20
14.6888259225
 30
0.0
 10
3.241986599
 20
14.6920498042
 30
0.0
 10
3.2264150672
 20
14.7032934741
 30
0.0
 10
3.2106261224
 20
14.7297096291
 30
0.0
 10
3.2013139479
 20
14.7641093466
 30
0.0
 10
3.1995525975
 20
14.789684083
 30
0.0
 10
3.1995526442
 20
14.8034438349
 30
0.0
 11
3.2500040288
 21
14.6888259225
 31
0.0
 11
3.228724235
 21
14.703632128
 31
0.0
 11
3.2127744173
 21
14.7285087677
 31
0.0
 11
3.2028973112
 21
14.7623003038
 31
0.0
 11
3.1995526442
 21
14.8034438349
 31
0.0
  0
SPLINE
  5
481
100
AcDbEntity
  8
ASSI
100
AcDbSpline
 62
7
  6
CONTINUOUS
 70
0
 71
3
 72
10
 73
6
 74
4
 42
0.0000001
 43
0.0000001
 44
0.0000000001
 12
-0.0
 22
0.3688059507
 32
0.0
 13
-0.3422359138
 23
0.1374496585
 33
0.0
 40
0.0
 40
0.0
 40
0.0
 40
0.0
 40
0.2333214056
 40
0.6225912911
 40
1.0
 40
1.0
 40
1.0
 40
1.0
 10
-4.5080979956
 20
19.5722850246
 30
0.0
 10
-4.5080979956
 20
19.6009684655
 30
0.0
 10
-4.5240149331
 20
19.6775628633
 30
0.0
 10
-4.5913963432
 20
19.7838302871
 30
0.0
 10
-4.669800545
 20
19.8419852348
 30
0.0
 10
-4.7128548165
 20
19.8592768009
 30
0.0
 11
-4.5080979956
 21
19.5722850246
 31
0.0
 11
-4.5236843504
 21
19.656911992
 31
0.0
 11
-4.5990901243
 21
19.7790794708
 31
0.0
 11
-4.7128548165
 21
19.8592768009
 31
0.0
  0
SPLINE
  5
482
100
AcDbEntity
  8
ASSI
100
AcDbSpline
 62
253
  6
CONTINUOUS
 70
0
 71
3
 72
11
 73
7
 74
5
 42
0.0000001
 43
0.0000001
 44
0.0000000001
 12
-0.0037236399
 22
0.3691988049
 32
0.0
 13
-0.3411498646
 23
0.1412033743
 33
0.0
 40
0.0
 40
0.0
 40
0.0
 40
0.0
 40
0.2319566143
 40
0.4897297671
 40
0.7531577787
 40
1.0
 40
1.0
 40
1.0
 40
1.0
 10
-4.6865123981
 20
19.4270945344
 30
0.0
 10
-4.6868003057
 20
19.4556405693
 30
0.0
 10
-4.6998110746
 20
19.5158708841
 30
0.0
 10
-4.7444731483
 20
19.5981707228
 30
0.0
 10
-4.8092060341
 20
19.6683185883
 30
0.0
 10
-4.8631991555
 20
19.7024679924
 30
0.0
 10
-4.891269219
 20
19.7140863106
 30
0.0
 11
-4.6865123981
 21
19.4270945344
 31
0.0
 11
-4.7027213389
 21
19.5111891314
 31
0.0
 11
-4.7473228661
 21
19.5952656824
 31
0.0
 11
-4.813531902
 21
19.6665139071
 31
0.0
 11
-4.891269219
 21
19.7140863106
 31
0.0
  0
SPLINE
  5
483
100
AcDbEntity
  8
ASSI
100
AcDbSpline
 62
253
  6
CONTINUOUS
 70
0
 71
3
 72
11
 73
7
 74
5
 42
0.0000001
 43
0.0000001
 44
0.0000000001
 12
-0.1585021933
 22
0.0617491351
 32
0.0
 13
-0.1284016198
 23
-0.1115747508
 33
0.0
 40
0.0
 40
0.0
 40
0.0
 40
0.0
 40
0.2823019593
 40
0.540123389
 40
0.7764577914
 40
1.0
 40
1.0
 40
1.0
 40
1.0
 10
-3.1624334788
 20
19.0197469017
 30
0.0
 10
-3.1773486387
 20
19.0255575356
 30
0.0
 10
-3.2070170702
 20
19.0341114538
 30
0.0
 10
-3.2514200088
 20
19.036559642
 30
0.0
 10
-3.2917242512
 20
19.0276400409
 30
0.0
 10
-3.314552795
 20
19.0138786682
 30
0.0
 10
-3.3241205222
 20
19.0055647794
 30
0.0
 11
-3.1624334788
 21
19.0197469017
 31
0.0
 11
-3.20869486
 21
19.0326276536
 31
0.0
 11
-3.252510376
 21
19.0345314843
 31
0.0
 11
-3.2916511047
 21
19.0253560976
 31
0.0
 11
-3.3241205222
 21
19.0055647794
 31
0.0
  0
SPLINE
  5
484
100
AcDbEntity
  8
ASSI
100
AcDbSpline
 62
7
  6
CONTINUOUS
 70
0
 71
3
 72
9
 73
5
 74
3
 42
0.0000001
 43
0.0000001
 44
0.0000000001
 12
-0.0063289693
 22
0.0376147343
 32
0.0
 13
-0.0139527988
 23
0.0354999084
 33
0.0
 40
0.0
 40
0.0
 40
0.0
 40
0.0
 40
0.268180968
 40
1.0
 40
1.0
 40
1.0
 40
1.0
 10
3.0593693093
 20
20.439442468
 30
0.0
 10
3.0588035396
 20
20.4428049866
 30
0.0
 10
3.0564335695
 20
20.4552930658
 30
0.0
 10
3.0530020676
 20
20.4676168298
 30
0.0
 10
3.0495984264
 20
20.476276666
 30
0.0
 11
3.0593693093
 21
20.439442468
 31
0.0
 11
3.0574560314
 21
20.4494912992
 31
0.0
 11
3.0495984264
 21
20.476276666
 31
0.0
  0
SPLINE
  5
485
100
AcDbEntity
  8
ASSI
100
AcDbSpline
 62
7
  6
CONTINUOUS
 70
0
 71
3
 72
11
 73
7
 74
5
 42
0.0000001
 43
0.0000001
 44
0.0000000001
 12
-0.0202923883
 22
0.0516296361
 32
0.0
 13
-0.0549867036
 23
-0.0073391267
 33
0.0
 40
0.0
 40
0.0
 40
0.0
 40
0.0
 40
0.3140415476
 40
0.5802498671
 40
0.802018585
 40
1.0
 40
1.0
 40
1.0
 40
1.0
 10
3.0495984264
 20
20.476276666
 30
0.0
 10
3.0474742087
 20
20.4816812829
 30
0.0
 10
3.0428833066
 20
20.4914463658
 30
0.0
 10
3.0339702109
 20
20.5034480794
 30
0.0
 10
3.0235486455
 20
20.5112107432
 30
0.0
 10
3.0154487238
 20
20.512431599
 30
0.0
 10
3.011819942
 20
20.5119472621
 30
0.0
 11
3.0495984264
 21
20.476276666
 31
0.0
 11
3.0419607295
 21
20.4919344197
 31
0.0
 11
3.032883908
 21
20.5035833269
 31
0.0
 11
3.0227063584
 21
20.5104947835
 31
0.0
 11
3.011819942
 21
20.5119472621
 31
0.0
  0
SPLINE
  5
486
100
AcDbEntity
  8
ASSI
100
AcDbSpline
 62
7
  6
CONTINUOUS
 70
0
 71
3
 72
8
 73
4
 74
2
 42
0.0000001
 43
0.0000001
 44
0.0000000001
 12
-0.0073995683
 22
-0.0009876273
 32
0.0
 13
-0.0066845999
 23
-0.0033234233
 33
0.0
 40
0.0
 40
0.0
 40
0.0
 40
0.0
 40
1.0
 40
1.0
 40
1.0
 40
1.0
 10
3.011819942
 20
20.5119472621
 30
0.0
 10
3.0093534193
 20
20.511618053
 30
0.0
 10
3.006922605
 20
20.5108289206
 30
0.0
 10
3.004694405
 20
20.5097211128
 30
0.0
 11
3.011819942
 21
20.5119472621
 31
0.0
 11
3.004694405
 21
20.5097211128
 31
0.0
  0
SPLINE
  5
487
100
AcDbEntity
  8
ASSI
100
AcDbSpline
 62
7
  6
CONTINUOUS
 70
0
 71
3
 72
12
 73
8
 74
6
 42
0.0000001
 43
0.0000001
 44
0.0000000001
 12
0.0018764601
 22
0.4196357827
 32
0.0
 13
-0.415696423
 23
-0.0573950794
 33
0.0
 40
0.0
 40
0.0
 40
0.0
 40
0.0
 40
0.1143719122
 40
0.2325678292
 40
0.4793228288
 40
0.7374328955
 40
1.0
 40
1.0
 40
1.0
 40
1.0
 10
-2.0620725352
 20
22.4328154403
 30
0.0
 10
-2.0620009971
 20
22.4488136226
 30
0.0
 10
-2.0671953397
 20
22.4815643139
 30
0.0
 10
-2.0971908308
 20
22.5424684289
 30
0.0
 10
-2.1667291523
 20
22.6011970171
 30
0.0
 10
-2.2718900666
 20
22.6316507329
 30
0.0
 10
-2.3456728646
 20
22.6298647389
 30
0.0
 10
-2.3820555999
 20
22.6248413856
 30
0.0
 11
-2.0620725352
 21
22.4328154403
 31
0.0
 11
-2.0693734908
 21
22.4802519098
 31
0.0
 11
-2.0910225575
 21
22.5248775899
 31
0.0
 11
-2.168527802
 21
22.5935447565
 31
0.0
 11
-2.2718775998
 21
22.6259575758
 31
0.0
 11
-2.3820555999
 21
22.6248413856
 31
0.0
  0
SPLINE
  5
488
100
AcDbEntity
  8
ASSI
100
AcDbSpline
 62
253
  6
CONTINUOUS
 70
0
 71
3
 72
10
 73
6
 74
4
 42
0.0000001
 43
0.0000001
 44
0.0000000001
 12
-0.0049794997
 22
0.3641455568
 32
0.0
 13
-0.3378981181
 23
0.1358368277
 33
0.0
 40
0.0
 40
0.0
 40
0.0
 40
0.0
 40
0.2357798311
 40
0.6247091205
 40
1.0
 40
1.0
 40
1.0
 40
1.0
 10
-3.5736758398
 20
23.0584307914
 30
0.0
 10
-3.574067195
 20
23.0870501841
 30
0.0
 10
-3.590168466
 20
23.1627619245
 30
0.0
 10
-3.6564541358
 20
23.2678148567
 30
0.0
 10
-3.7336210755
 20
23.3251033981
 30
0.0
 10
-3.7758911028
 20
23.3420961723
 30
0.0
 11
-3.5736758398
 21
23.0584307914
 31
0.0
 11
-3.5898262706
 21
23.1427644663
 31
0.0
 11
-3.6642243531
 21
23.263291837
 31
0.0
 11
-3.7758911028
 21
23.3420961723
 31
0.0
  0
SPLINE
  5
489
100
AcDbEntity
  8
ASSI
100
AcDbSpline
 62
253
  6
CONTINUOUS
 70
0
 71
3
 72
10
 73
6
 74
4
 42
0.0000001
 43
0.0000001
 44
0.0000000001
 12
-0.0000002423
 22
-0.1256053675
 32
0.0
 13
0.1111787279
 23
-0.0584465465
 33
0.0
 40
0.0
 40
0.0
 40
0.0
 40
0.0
 40
0.3115849533
 40
0.6967422476
 40
1.0
 40
1.0
 40
1.0
 40
1.0
 10
0.8079188422
 20
15.7639782508
 30
0.0
 10
0.8079188171
 20
15.75093267
 30
0.0
 10
0.8099134933
 20
15.7217597807
 30
0.0
 10
0.821182896
 20
15.68070011
 30
0.0
 10
0.8415695345
 20
15.6578103593
 30
0.0
 10
0.8528081382
 20
15.6519022365
 30
0.0
 11
0.8079188422
 21
15.7639782508
 31
0.0
 11
0.8108742469
 21
15.7249532563
 31
0.0
 11
0.8260588946
 21
15.6790202585
 31
0.0
 11
0.8528081382
 21
15.6519022365
 31
0.0
  0
SPLINE
  5
48A
100
AcDbEntity
  8
ASSI
100
AcDbSpline
 62
253
  6
CONTINUOUS
 70
0
 71
3
 72
11
 73
7
 74
5
 42
0.0000001
 43
0.0000001
 44
0.0000000001
 12
-0.1585021933
 22
0.0617491351
 32
0.0
 13
-0.1284016198
 23
-0.1115747508
 33
0.0
 40
0.0
 40
0.0
 40
0.0
 40
0.0
 40
0.2823019593
 40
0.540123389
 40
0.7764577914
 40
1.0
 40
1.0
 40
1.0
 40
1.0
 10
-7.4629817114
 20
20.7469440255
 30
0.0
 10
-7.4778968713
 20
20.7527546594
 30
0.0
 10
-7.5075653027
 20
20.7613085776
 30
0.0
 10
-7.5519682413
 20
20.7637567658
 30
0.0
 10
-7.5922724838
 20
20.7548371646
 30
0.0
 10
-7.6151010275
 20
20.7410757919
 30
0.0
 10
-7.6246687547
 20
20.7327619032
 30
0.0
 11
-7.4629817114
 21
20.7469440255
 31
0.0
 11
-7.5092430925
 21
20.7598247774
 31
0.0
 11
-7.5530586085
 21
20.761728608
 31
0.0
 11
-7.5921993372
 21
20.7525532214
 31
0.0
 11
-7.6246687547
 21
20.7327619032
 31
0.0
  0
SPLINE
  5
48B
100
AcDbEntity
  8
ASSI
100
AcDbSpline
 62
7
  6
CONTINUOUS
 70
0
 71
3
 72
13
 73
9
 74
7
 42
0.0000001
 43
0.0000001
 44
0.0000000001
 12
-0.10133974
 22
-0.0606394158
 32
0.0
 13
-0.1122891201
 23
0.0365791629
 33
0.0
 40
0.0
 40
0.0
 40
0.0
 40
0.0
 40
0.3747821062
 40
0.6768313048
 40
0.7961080383
 40
0.8911131305
 40
0.9597038618
 40
1.0
 40
1.0
 40
1.0
 40
1.0
 10
1.8916178955
 20
15.3287416199
 30
0.0
 10
1.8789577885
 20
15.3211660972
 30
0.0
 10
1.8559571398
 20
15.3077297095
 30
0.0
 10
1.8284025518
 20
15.2927245358
 30
0.0
 10
1.8101423535
 20
15.2838671848
 30
0.0
 10
1.7998443655
 20
15.2794346353
 30
0.0
 10
1.7923411127
 20
15.2770037665
 30
0.0
 10
1.7878674361
 20
15.2761899608
 30
0.0
 10
1.7863591634
 20
15.2766812938
 30
0.0
 11
1.8916178955
 21
15.3287416199
 31
0.0
 11
1.8533549794
 21
15.306494127
 31
0.0
 11
1.8219133005
 21
15.2896463763
 31
0.0
 11
1.809214947
 21
15.2835493891
 31
0.0
 11
1.7988609511
 21
15.2792274832
 31
0.0
 11
1.7911147076
 21
15.2768586345
 31
0.0
 11
1.7863591634
 21
15.2766812938
 31
0.0
  0
SPLINE
  5
48C
100
AcDbEntity
  8
ASSI
100
AcDbSpline
 62
253
  6
CONTINUOUS
 70
0
 71
3
 72
10
 73
6
 74
4
 42
0.0000001
 43
0.0000001
 44
0.0000000001
 12
-0.0000002423
 22
-0.1256053675
 32
0.0
 13
0.1111787279
 23
-0.0584465465
 33
0.0
 40
0.0
 40
0.0
 40
0.0
 40
0.0
 40
0.3115849533
 40
0.6967422476
 40
1.0
 40
1.0
 40
1.0
 40
1.0
 10
-13.7729875461
 20
21.6199989752
 30
0.0
 10
-13.7729875713
 20
21.6069533944
 30
0.0
 10
-13.7709928951
 20
21.5777805051
 30
0.0
 10
-13.7597234923
 20
21.5367208344
 30
0.0
 10
-13.7393368539
 20
21.5138310837
 30
0.0
 10
-13.7280982502
 20
21.5079229609
 30
0.0
 11
-13.7729875461
 21
21.6199989752
 31
0.0
 11
-13.7700321414
 21
21.5809739807
 31
0.0
 11
-13.7548474938
 21
21.5350409829
 31
0.0
 11
-13.7280982502
 21
21.5079229609
 31
0.0
  0
SPLINE
  5
48D
100
AcDbEntity
  8
ASSI
100
AcDbSpline
 62
7
  6
CONTINUOUS
 70
0
 71
3
 72
10
 73
6
 74
4
 42
0.0000001
 43
0.0000001
 44
0.0000000001
 12
-0.0
 22
0.3688059507
 32
0.0
 13
-0.3422359138
 23
0.1374496585
 33
0.0
 40
0.0
 40
0.0
 40
0.0
 40
0.0
 40
0.2333214056
 40
0.6225912911
 40
1.0
 40
1.0
 40
1.0
 40
1.0
 10
-0.2075497631
 20
17.8450879008
 30
0.0
 10
-0.2075497631
 20
17.8737713418
 30
0.0
 10
-0.2234667006
 20
17.9503657395
 30
0.0
 10
-0.2908481106
 20
18.0566331633
 30
0.0
 10
-0.3692523125
 20
18.114788111
 30
0.0
 10
-0.412306584
 20
18.1320796771
 30
0.0
 11
-0.2075497631
 21
17.8450879008
 31
0.0
 11
-0.2231361178
 21
17.9297148682
 31
0.0
 11
-0.2985418918
 21
18.0518823471
 31
0.0
 11
-0.412306584
 21
18.1320796771
 31
0.0
  0
SPLINE
  5
48E
100
AcDbEntity
  8
ASSI
100
AcDbSpline
 62
7
  6
CONTINUOUS
 70
0
 71
3
 72
13
 73
9
 74
7
 42
0.0000001
 43
0.0000001
 44
0.0000000001
 12
-0.10133974
 22
-0.0606394158
 32
0.0
 13
-0.1122891201
 23
0.0365791629
 33
0.0
 40
0.0
 40
0.0
 40
0.0
 40
0.0
 40
0.3747821062
 40
0.6768313048
 40
0.7961080383
 40
0.8911131305
 40
0.9597038618
 40
1.0
 40
1.0
 40
1.0
 40
1.0
 10
-12.6892884928
 20
21.1847623443
 30
0.0
 10
-12.7019485999
 20
21.1771868216
 30
0.0
 10
-12.7249492486
 20
21.1637504339
 30
0.0
 10
-12.7525038365
 20
21.1487452602
 30
0.0
 10
-12.7707640348
 20
21.1398879092
 30
0.0
 10
-12.7810620229
 20
21.1354553597
 30
0.0
 10
-12.7885652756
 20
21.1330244909
 30
0.0
 10
-12.7930389523
 20
21.1322106852
 30
0.0
 10
-12.7945472249
 20
21.1327020182
 30
0.0
 11
-12.6892884928
 21
21.1847623443
 31
0.0
 11
-12.727551409
 21
21.1625148514
 31
0.0
 11
-12.7589930878
 21
21.1456671007
 31
0.0
 11
-12.7716914413
 21
21.1395701135
 31
0.0
 11
-12.7820454372
 21
21.1352482076
 31
0.0
 11
-12.7897916807
 21
21.1328793589
 31
0.0
 11
-12.7945472249
 21
21.1327020182
 31
0.0
  0
SPLINE
  5
48F
100
AcDbEntity
  8
ASSI
100
AcDbSpline
 62
253
  6
CONTINUOUS
 70
0
 71
3
 72
11
 73
7
 74
5
 42
0.0000001
 43
0.0000001
 44
0.0000000001
 12
-0.0037236399
 22
0.3691988049
 32
0.0
 13
-0.3411498646
 23
0.1412033743
 33
0.0
 40
0.0
 40
0.0
 40
0.0
 40
0.0
 40
0.2319566143
 40
0.4897297671
 40
0.7531577787
 40
1.0
 40
1.0
 40
1.0
 40
1.0
 10
-0.3859641656
 20
17.6998974106
 30
0.0
 10
-0.3862520732
 20
17.7284434455
 30
0.0
 10
-0.399262842
 20
17.7886737604
 30
0.0
 10
-0.4439249157
 20
17.870973599
 30
0.0
 10
-0.5086578016
 20
17.9411214645
 30
0.0
 10
-0.562650923
 20
17.9752708687
 30
0.0
 10
-0.5907209864
 20
17.9868891868
 30
0.0
 11
-0.3859641656
 21
17.6998974106
 31
0.0
 11
-0.4021731064
 21
17.7839920076
 31
0.0
 11
-0.4467746335
 21
17.8680685586
 31
0.0
 11
-0.5129836695
 21
17.9393167833
 31
0.0
 11
-0.5907209864
 21
17.9868891868
 31
0.0
  0
SPLINE
  5
490
100
AcDbEntity
  8
ASSI
100
AcDbSpline
 62
253
  6
CONTINUOUS
 70
0
 71
3
 72
11
 73
7
 74
5
 42
0.0000001
 43
0.0000001
 44
0.0000000001
 12
0.3458286903
 22
-0.1339007175
 32
0.0
 13
-0.0043734771
 23
-0.3708203849
 33
0.0
 40
0.0
 40
0.0
 40
0.0
 40
0.0
 40
0.2473619058
 40
0.5097242199
 40
0.7666972042
 40
1.0
 40
1.0
 40
1.0
 40
1.0
 10
2.7356291397
 20
20.7284854387
 30
0.0
 10
2.7641440877
 20
20.7174447932
 30
0.0
 10
2.8190363467
 20
20.6841933642
 30
0.0
 10
2.8844696427
 20
20.6142091297
 30
0.0
 10
2.9288196299
 20
20.5312153845
 30
0.0
 10
2.9407260777
 20
20.4703314752
 30
0.0
 10
2.9403859629
 20
20.4414936644
 30
0.0
 11
2.7356291397
 21
20.7284854387
 31
0.0
 11
2.8147385419
 21
20.6820453107
 31
0.0
 11
2.8814280407
 21
20.6112001687
 31
0.0
 11
2.9255486548
 21
20.5267313872
 31
0.0
 11
2.9403859629
 21
20.4414936644
 31
0.0
  0
SPLINE
  5
491
100
AcDbEntity
  8
ASSI
100
AcDbSpline
 62
253
  6
CONTINUOUS
 70
0
 71
3
 72
10
 73
6
 74
4
 42
0.0000001
 43
0.0000001
 44
0.0000000001
 12
-0.1530453008
 22
0.0614079047
 32
0.0
 13
-0.1291952253
 23
-0.1024811622
 33
0.0
 40
0.0
 40
0.0
 40
0.0
 40
0.0
 40
0.5352325593
 40
0.7734886664
 40
1.0
 40
1.0
 40
1.0
 40
1.0
 10
2.5245550044
 20
20.8116949754
 30
0.0
 10
2.4972500617
 20
20.822650812
 30
0.0
 10
2.4537066859
 20
20.8319850767
 30
0.0
 10
2.3991664705
 20
20.8210533113
 30
0.0
 10
2.3763636669
 20
20.8084182236
 30
0.0
 10
2.3666089394
 20
20.8006805086
 30
0.0
 11
2.5245550044
 21
20.8116949754
 31
0.0
 11
2.4376382931
 21
20.8270506764
 31
0.0
 11
2.399194908
 21
20.8189396742
 31
0.0
 11
2.3666089394
 21
20.8006805086
 31
0.0
  0
SPLINE
  5
492
100
AcDbEntity
  8
ASSI
100
AcDbSpline
 62
253
  6
CONTINUOUS
 70
0
 71
3
 72
9
 73
5
 74
3
 42
0.0000001
 43
0.0000001
 44
0.0000000001
 12
0.1064121853
 22
0.0882040154
 32
0.0
 13
0.0008503018
 23
0.1382128015
 33
0.0
 40
0.0
 40
0.0
 40
0.0
 40
0.0
 40
0.5345436628
 40
1.0
 40
1.0
 40
1.0
 40
1.0
 10
2.9404430839
 20
20.4415409847
 30
0.0
 10
2.959403737
 20
20.4572572838
 30
0.0
 10
2.9913834479
 20
20.492118729
 30
0.0
 10
3.0048731372
 20
20.5385055344
 30
0.0
 10
3.0050050633
 20
20.5599495425
 30
0.0
 11
2.9404430839
 21
20.4415409847
 31
0.0
 11
2.9883095587
 21
20.497820434
 31
0.0
 11
3.0050050633
 21
20.5599495425
 31
0.0
  0
SPLINE
  5
493
100
AcDbEntity
  8
ASSI
100
AcDbSpline
 62
253
  6
CONTINUOUS
 70
0
 71
3
 72
11
 73
7
 74
5
 42
0.0000001
 43
0.0000001
 44
0.0000000001
 12
0.2724841267
 22
-0.1136344288
 32
0.0
 13
0.003733785
 23
-0.2952057614
 33
0.0
 40
0.0
 40
0.0
 40
0.0
 40
0.0
 40
0.2467658699
 40
0.5102915274
 40
0.768147153
 40
1.0
 40
1.0
 40
1.0
 40
1.0
 10
3.3411466211
 20
15.4234285574
 30
0.0
 10
3.363559882
 20
15.4140815245
 30
0.0
 10
3.406669356
 20
15.3866844004
 30
0.0
 10
3.458390869
 20
15.3305556442
 30
0.0
 10
3.4941530061
 20
15.2647781084
 30
0.0
 10
3.5046635149
 20
15.2166499018
 30
0.0
 10
3.5049520778
 20
15.1938351364
 30
0.0
 11
3.3411466211
 21
15.4234285574
 31
0.0
 11
3.4032072935
 21
15.3852714543
 31
0.0
 11
3.4561280861
 21
15.3282424285
 31
0.0
 11
3.491855372
 21
15.2610203089
 31
0.0
 11
3.5049520778
 21
15.1938351364
 31
0.0
  0
SPLINE
  5
494
100
AcDbEntity
  8
ASSI
100
AcDbSpline
 62
253
  6
CONTINUOUS
 70
0
 71
3
 72
11
 73
7
 74
5
 42
0.0000001
 43
0.0000001
 44
0.0000000001
 12
0.2672068902
 22
-0.1073163118
 32
0.0
 13
0.2260099835
 23
0.1784258959
 33
0.0
 40
0.0
 40
0.0
 40
0.0
 40
0.0
 40
0.252870951
 40
0.5208296406
 40
0.7774602029
 40
1.0
 40
1.0
 40
1.0
 40
1.0
 10
3.1995526437
 20
15.1035422621
 30
0.0
 10
3.2220755972
 20
15.0944965362
 30
0.0
 10
3.2712847397
 20
15.0826738089
 30
0.0
 10
3.3464457968
 20
15.0815443053
 30
0.0
 10
3.4172362956
 20
15.0959701755
 30
0.0
 10
3.4593059246
 20
15.1168479492
 30
0.0
 10
3.4760713299
 20
15.1300835701
 30
0.0
 11
3.1995526437
 21
15.1035422621
 31
0.0
 11
3.2701284444
 21
15.0856248495
 31
0.0
 11
3.3472774529
 21
15.084369488
 31
0.0
 11
3.4195107161
 21
15.0999631244
 31
0.0
 11
3.4760713299
 21
15.1300835701
 31
0.0
  0
SPLINE
  5
495
100
AcDbEntity
  8
ASSI
100
AcDbSpline
 62
253
  6
CONTINUOUS
 70
0
 71
3
 72
11
 73
7
 74
5
 42
0.0000001
 43
0.0000001
 44
0.0000000001
 12
0.2672068904
 22
-0.1073163112
 32
0.0
 13
0.2260099838
 23
0.1784258954
 33
0.0
 40
0.0
 40
0.0
 40
0.0
 40
0.0
 40
0.2528709494
 40
0.5208296381
 40
0.7774602015
 40
1.0
 40
1.0
 40
1.0
 40
1.0
 10
3.1995526437
 20
14.8034455383
 30
0.0
 10
3.2220755971
 20
14.7943998125
 30
0.0
 10
3.2712847393
 20
14.7825770853
 30
0.0
 10
3.3464457962
 20
14.7814475816
 30
0.0
 10
3.4172362952
 20
14.7958734517
 30
0.0
 10
3.4593059244
 20
14.8167512254
 30
0.0
 10
3.4760713299
 20
14.8299868463
 30
0.0
 11
3.1995526437
 21
14.8034455383
 31
0.0
 11
3.270128444
 21
14.7855281259
 31
0.0
 11
3.3472774522
 21
14.7842727643
 31
0.0
 11
3.4195107157
 21
14.7998664006
 31
0.0
 11
3.4760713299
 21
14.8299868463
 31
0.0
  0
SPLINE
  5
496
100
AcDbEntity
  8
ASSI
100
AcDbSpline
 62
7
  6
CONTINUOUS
 70
0
 71
3
 72
9
 73
5
 74
3
 42
0.0000001
 43
0.0000001
 44
0.0000000001
 12
-0.1616071628
 22
-0.2301686439
 32
0.0
 13
-0.2811957914
 23
0.0048380367
 33
0.0
 40
0.0
 40
0.0
 40
0.0
 40
0.0
 40
0.4934431135
 40
1.0
 40
1.0
 40
1.0
 40
1.0
 10
4.0928268663
 20
14.7970720947
 30
0.0
 10
4.0662455524
 20
14.7592137172
 30
0.0
 10
3.9950969415
 20
14.6938038231
 30
0.0
 10
3.9004522263
 20
14.664852371
 30
0.0
 10
3.8529716714
 20
14.6656692846
 30
0.0
 11
4.0928268663
 21
14.7970720947
 31
0.0
 11
3.9903089933
 21
14.7035387177
 31
0.0
 11
3.8529716714
 21
14.6656692846
 31
0.0
  0
SPLINE
  5
497
100
AcDbEntity
  8
ASSI
100
AcDbSpline
 62
7
  6
CONTINUOUS
 70
0
 71
3
 72
10
 73
6
 74
4
 42
0.0000001
 43
0.0000001
 44
0.0000000001
 12
0.2737251843
 22
-0.109934205
 32
0.0
 13
-0.0
 23
-0.2949762803
 33
0.0
 40
0.0
 40
0.0
 40
0.0
 40
0.0
 40
0.2478876795
 40
0.6413979178
 40
1.0
 40
1.0
 40
1.0
 40
1.0
 10
4.6664298526
 20
16.5019206489
 30
0.0
 10
4.6890475528
 20
16.4928368706
 30
0.0
 10
4.7435192448
 20
16.4589585948
 30
0.0
 10
4.80720182
 20
16.3813689672
 30
0.0
 10
4.8302353093
 20
16.3075869306
 30
0.0
 10
4.8302353093
 20
16.2723272279
 30
0.0
 11
4.6664298526
 21
16.5019206489
 31
0.0
 11
4.7291167793
 21
16.4642772197
 31
0.0
 11
4.8026187429
 21
16.3744376828
 31
0.0
 11
4.8302353093
 21
16.2723272279
 31
0.0
  0
SPLINE
  5
498
100
AcDbEntity
  8
ASSI
100
AcDbSpline
 62
253
  6
CONTINUOUS
 70
0
 71
3
 72
10
 73
6
 74
4
 42
0.0000001
 43
0.0000001
 44
0.0000000001
 12
0.0034784879
 22
0.2949278536
 32
0.0
 13
-0.2750510318
 23
0.1064963316
 33
0.0
 40
0.0
 40
0.0
 40
0.0
 40
0.0
 40
0.4872883578
 40
0.7511883143
 40
1.0
 40
1.0
 40
1.0
 40
1.0
 10
5.2521340596
 20
16.6203077593
 30
0.0
 10
5.2526990685
 20
16.6682127291
 30
0.0
 10
5.2225667835
 20
16.742563682
 30
0.0
 10
5.1551262023
 20
16.8143309671
 30
0.0
 10
5.1111405732
 20
16.8410686697
 30
0.0
 10
5.0883286029
 20
16.8499011803
 30
0.0
 11
5.2521340596
 21
16.6203077593
 31
0.0
 11
5.2049677647
 21
16.7560729572
 31
0.0
 11
5.1516161572
 21
16.8127490801
 31
0.0
 11
5.0883286029
 21
16.8499011803
 31
0.0
  0
SPLINE
  5
499
100
AcDbEntity
  8
ASSI
100
AcDbSpline
 62
253
  6
CONTINUOUS
 70
0
 71
3
 72
9
 73
5
 74
3
 42
0.0000001
 43
0.0000001
 44
0.0000000001
 12
0.0567226726
 22
0.0482348073
 32
0.0
 13
-0.0000093111
 23
0.0744584323
 33
0.0
 40
0.0
 40
0.0
 40
0.0
 40
0.0
 40
0.5341617171
 40
1.0
 40
1.0
 40
1.0
 40
1.0
 10
5.2796099264
 20
16.6027208292
 30
0.0
 10
5.2897096198
 20
16.611309225
 30
0.0
 10
5.3066917125
 20
16.6302858516
 30
0.0
 10
5.3137980593
 20
16.6553052445
 30
0.0
 10
5.3137966135
 20
16.6668671073
 30
0.0
 11
5.2796099264
 21
16.6027208292
 31
0.0
 11
5.3050341533
 21
16.6333065748
 31
0.0
 11
5.3137966135
 21
16.6668671073
 31
0.0
  0
SPLINE
  5
49A
100
AcDbEntity
  8
ASSI
100
AcDbSpline
 62
253
  6
CONTINUOUS
 70
0
 71
3
 72
9
 73
5
 74
3
 42
0.0000001
 43
0.0000001
 44
0.0000000001
 12
0.0567239279
 22
0.0482358749
 32
0.0
 13
-0.0000112222
 23
0.0744600799
 33
0.0
 40
0.0
 40
0.0
 40
0.0
 40
0.0
 40
0.5341620215
 40
1.0
 40
1.0
 40
1.0
 40
1.0
 10
5.2796099264
 20
16.2811765772
 30
0.0
 10
5.289709849
 20
16.289765168
 30
0.0
 10
5.306692302
 20
16.3087422902
 30
0.0
 10
5.3137983559
 20
16.3337624404
 30
0.0
 10
5.3137966133
 20
16.3453245515
 30
0.0
 11
5.2796099264
 21
16.2811765772
 31
0.0
 11
5.3050345881
 21
16.3117631354
 31
0.0
 11
5.3137966133
 21
16.3453245515
 31
0.0
  0
SPLINE
  5
49B
100
AcDbEntity
  8
ASSI
100
AcDbSpline
 62
253
  6
CONTINUOUS
 70
0
 71
3
 72
9
 73
5
 74
3
 42
0.0000001
 43
0.0000001
 44
0.0000000001
 12
0.0197757854
 22
-0.0333672963
 32
0.0
 13
-0.0197340638
 23
-0.0333919882
 33
0.0
 40
0.0
 40
0.0
 40
0.0
 40
0.0
 40
0.3244072785
 40
1.0
 40
1.0
 40
1.0
 40
1.0
 10
5.2656279743
 20
16.2338165319
 30
0.0
 10
5.2677664438
 20
16.230208334
 30
0.0
 10
5.2736816242
 20
16.219111852
 30
0.0
 10
5.2765464763
 20
16.2039042755
 30
0.0
 10
5.2721024131
 20
16.1963844807
 30
0.0
 11
5.2656279743
 21
16.2338165319
 31
0.0
 11
5.2712832822
 21
16.222576123
 31
0.0
 11
5.2721024131
 21
16.1963844807
 31
0.0
  0
SPLINE
  5
49C
100
AcDbEntity
  8
ASSI
100
AcDbSpline
 62
7
  6
CONTINUOUS
 70
0
 71
3
 72
10
 73
6
 74
4
 42
0.0000001
 43
0.0000001
 44
0.0000000001
 12
-0.0
 22
0.2950427613
 32
0.0
 13
-0.2737868758
 23
0.1099589817
 33
0.0
 40
0.0
 40
0.0
 40
0.0
 40
0.0
 40
0.2332962063
 40
0.6225412807
 40
1.0
 40
1.0
 40
1.0
 40
1.0
 10
-9.7506710791
 20
22.1283479523
 30
0.0
 10
-9.7506710791
 20
22.1512920712
 30
0.0
 10
-9.7634021456
 20
22.2125628728
 30
0.0
 10
-9.8173093278
 20
22.2975730299
 30
0.0
 10
-9.8800287879
 20
22.3441063811
 30
0.0
 10
-9.9144765358
 20
22.3579413733
 30
0.0
 11
-9.7506710791
 21
22.1283479523
 31
0.0
 11
-9.7631380252
 21
22.1960418856
 31
0.0
 11
-9.8234575165
 21
22.2937695167
 31
0.0
 11
-9.9144765358
 21
22.3579413733
 31
0.0
  0
SPLINE
  5
49D
100
AcDbEntity
  8
ASSI
100
AcDbSpline
 62
253
  6
CONTINUOUS
 70
0
 71
3
 72
11
 73
7
 74
5
 42
0.0000001
 43
0.0000001
 44
0.0000000001
 12
0.2724841267
 22
-0.1136344288
 32
0.0
 13
0.003733785
 23
-0.2952057614
 33
0.0
 40
0.0
 40
0.0
 40
0.0
 40
0.0
 40
0.2467658699
 40
0.5102915274
 40
0.768147153
 40
1.0
 40
1.0
 40
1.0
 40
1.0
 10
-11.2397597672
 20
21.2794492818
 30
0.0
 10
-11.2173465064
 20
21.2701022489
 30
0.0
 10
-11.1742370324
 20
21.2427051248
 30
0.0
 10
-11.1225155193
 20
21.1865763686
 30
0.0
 10
-11.0867533823
 20
21.1207988328
 30
0.0
 10
-11.0762428734
 20
21.0726706262
 30
0.0
 10
-11.0759543106
 20
21.0498558608
 30
0.0
 11
-11.2397597672
 21
21.2794492818
 31
0.0
 11
-11.1776990949
 21
21.2412921787
 31
0.0
 11
-11.1247783022
 21
21.1842631529
 31
0.0
 11
-11.0890510163
 21
21.1170410333
 31
0.0
 11
-11.0759543106
 21
21.0498558608
 31
0.0
  0
SPLINE
  5
49E
100
AcDbEntity
  8
ASSI
100
AcDbSpline
 62
253
  6
CONTINUOUS
 70
0
 71
3
 72
11
 73
7
 74
5
 42
0.0000001
 43
0.0000001
 44
0.0000000001
 12
0.2672068902
 22
-0.1073163118
 32
0.0
 13
0.2260099835
 23
0.1784258959
 33
0.0
 40
0.0
 40
0.0
 40
0.0
 40
0.0
 40
0.252870951
 40
0.5208296406
 40
0.7774602029
 40
1.0
 40
1.0
 40
1.0
 40
1.0
 10
-11.3813537446
 20
20.9595629865
 30
0.0
 10
-11.3588307912
 20
20.9505172606
 30
0.0
 10
-11.3096216487
 20
20.9386945333
 30
0.0
 10
-11.2344605916
 20
20.9375650297
 30
0.0
 10
-11.1636700927
 20
20.9519908999
 30
0.0
 10
-11.1216004638
 20
20.9728686736
 30
0.0
 10
-11.1048350585
 20
20.9861042945
 30
0.0
 11
-11.3813537446
 21
20.9595629865
 31
0.0
 11
-11.3107779439
 21
20.9416455739
 31
0.0
 11
-11.2336289354
 21
20.9403902124
 31
0.0
 11
-11.1613956722
 21
20.9559838488
 31
0.0
 11
-11.1048350585
 21
20.9861042945
 31
0.0
  0
SPLINE
  5
49F
100
AcDbEntity
  8
ASSI
100
AcDbSpline
 62
253
  6
CONTINUOUS
 70
0
 71
3
 72
11
 73
7
 74
5
 42
0.0000001
 43
0.0000001
 44
0.0000000001
 12
0.2672068904
 22
-0.1073163112
 32
0.0
 13
0.2260099838
 23
0.1784258954
 33
0.0
 40
0.0
 40
0.0
 40
0.0
 40
0.0
 40
0.2528709494
 40
0.5208296381
 40
0.7774602015
 40
1.0
 40
1.0
 40
1.0
 40
1.0
 10
-11.3813537446
 20
20.6594662627
 30
0.0
 10
-11.3588307913
 20
20.6504205369
 30
0.0
 10
-11.3096216491
 20
20.6385978097
 30
0.0
 10
-11.2344605922
 20
20.637468306
 30
0.0
 10
-11.1636700932
 20
20.6518941761
 30
0.0
 10
-11.1216004639
 20
20.6727719498
 30
0.0
 10
-11.1048350585
 20
20.6860075707
 30
0.0
 11
-11.3813537446
 21
20.6594662627
 31
0.0
 11
-11.3107779444
 21
20.6415488503
 31
0.0
 11
-11.2336289362
 21
20.6402934887
 31
0.0
 11
-11.1613956726
 21
20.655887125
 31
0.0
 11
-11.1048350585
 21
20.6860075707
 31
0.0
  0
SPLINE
  5
4A0
100
AcDbEntity
  8
ASSI
100
AcDbSpline
 62
7
  6
CONTINUOUS
 70
0
 71
3
 72
9
 73
5
 74
3
 42
0.0000001
 43
0.0000001
 44
0.0000000001
 12
-0.1616073088
 22
-0.2301688518
 32
0.0
 13
-0.2811960382
 23
0.0048384576
 33
0.0
 40
0.0
 40
0.0
 40
0.0
 40
0.0
 40
0.4934424416
 40
1.0
 40
1.0
 40
1.0
 40
1.0
 10
-10.4880795221
 20
20.6530928191
 30
0.0
 10
-10.5146608238
 20
20.615234459
 30
0.0
 10
-10.5858094826
 20
20.5498245021
 30
0.0
 10
-10.6804543271
 20
20.5208730431
 30
0.0
 10
-10.7279349866
 20
20.5216900289
 30
0.0
 11
-10.4880795221
 21
20.6530928191
 31
0.0
 11
-10.5905973388
 21
20.5595594748
 31
0.0
 11
-10.7279349866
 21
20.5216900289
 31
0.0
  0
SPLINE
  5
4A1
100
AcDbEntity
  8
ASSI
100
AcDbSpline
 62
253
  6
CONTINUOUS
 70
0
 71
3
 72
10
 73
6
 74
4
 42
0.0000001
 43
0.0000001
 44
0.0000000001
 12
0.2750510316
 22
-0.106496332
 32
0.0
 13
-0.0034784873
 23
-0.2949278536
 33
0.0
 40
0.0
 40
0.0
 40
0.0
 40
0.0
 40
0.2488116889
 40
0.5127116478
 40
1.0
 40
1.0
 40
1.0
 40
1.0
 10
-9.4925777855
 20
22.7059219047
 30
0.0
 10
-9.4697658149
 20
22.697089394
 30
0.0
 10
-9.4257801854
 20
22.6703516908
 30
0.0
 10
-9.3583396045
 20
22.5985844054
 30
0.0
 10
-9.32820732
 20
22.524233453
 30
0.0
 10
-9.3287723288
 20
22.4763284837
 30
0.0
 11
-9.4925777855
 21
22.7059219047
 31
0.0
 11
-9.4292902305
 21
22.6687698038
 31
0.0
 11
-9.3759386228
 21
22.6120936801
 31
0.0
 11
-9.3287723288
 21
22.4763284837
 31
0.0
  0
SPLINE
  5
4A2
100
AcDbEntity
  8
ASSI
100
AcDbSpline
 62
253
  6
CONTINUOUS
 70
0
 71
3
 72
10
 73
6
 74
4
 42
0.0000001
 43
0.0000001
 44
0.0000000001
 12
-0.1268710187
 22
0.049046524
 32
0.0
 13
-0.1023717306
 23
-0.0895647569
 33
0.0
 40
0.0
 40
0.0
 40
0.0
 40
0.0
 40
0.5389846447
 40
0.7760777373
 40
1.0
 40
1.0
 40
1.0
 40
1.0
 10
0.9481079388
 20
16.384526842
 30
0.0
 10
0.9253140951
 20
16.3933386165
 30
0.0
 10
0.8891330356
 20
16.4006744954
 30
0.0
 10
0.8443161378
 20
16.3906169194
 30
0.0
 10
0.8260334021
 20
16.3795401209
 30
0.0
 10
0.818392299
 20
16.3728549399
 30
0.0
 11
0.9481079388
 21
16.384526842
 31
0.0
 11
0.8757338251
 21
16.3962250371
 31
0.0
 11
0.8443549595
 21
16.3887811191
 31
0.0
 11
0.818392299
 21
16.3728549399
 31
0.0
  0
SPLINE
  5
4A3
100
AcDbEntity
  8
ASSI
100
AcDbSpline
 62
253
  6
CONTINUOUS
 70
0
 71
3
 72
11
 73
7
 74
5
 42
0.0000001
 43
0.0000001
 44
0.0000000001
 12
-0.1241612314
 22
0.0498659497
 32
0.0
 13
-0.000366168
 23
0.1338001877
 33
0.0
 40
0.0
 40
0.0
 40
0.0
 40
0.0
 40
0.2987762187
 40
0.5626421826
 40
0.7921318659
 40
1.0
 40
1.0
 40
1.0
 40
1.0
 10
0.8079188425
 20
16.0640763148
 30
0.0
 10
0.7955533681
 20
16.0690425681
 30
0.0
 10
0.772964111
 20
16.0803674049
 30
0.0
 10
0.7451909301
 20
16.1027623768
 30
0.0
 10
0.7270785379
 20
16.1289436695
 30
0.0
 10
0.7226655467
 20
16.1486037259
 30
0.0
 10
0.7226401751
 20
16.1578746577
 30
0.0
 11
0.8079188425
 21
16.0640763148
 31
0.0
 11
0.7723696398
 21
16.0823621521
 31
0.0
 11
0.7452884733
 21
16.1050135331
 31
0.0
 11
0.7284153793
 21
16.13066796
 31
0.0
 11
0.7226401751
 21
16.1578746577
 31
0.0
  0
SPLINE
  5
4A4
100
AcDbEntity
  8
ASSI
100
AcDbSpline
 62
253
  6
CONTINUOUS
 70
0
 71
3
 72
11
 73
7
 74
5
 42
0.0000001
 43
0.0000001
 44
0.0000000001
 12
-0.1184521421
 22
0.0475730508
 32
0.0
 13
-0.0123566243
 23
0.1270488842
 33
0.0
 40
0.0
 40
0.0
 40
0.0
 40
0.0
 40
0.2963690214
 40
0.5604434841
 40
0.7916893414
 40
1.0
 40
1.0
 40
1.0
 40
1.0
 10
0.8079188425
 20
15.763979591
 30
0.0
 10
0.796216994
 20
15.7686793171
 30
0.0
 10
0.7747257983
 20
15.7793453161
 30
0.0
 10
0.7478785344
 20
15.8001624086
 30
0.0
 10
0.7295369035
 20
15.8243700439
 30
0.0
 10
0.7238097235
 20
15.8427195639
 30
0.0
 10
0.722951718
 20
15.8515414428
 30
0.0
 11
0.8079188425
 21
15.763979591
 31
0.0
 11
0.774182538
 21
15.7810982333
 31
0.0
 11
0.7478696499
 21
15.802167324
 31
0.0
 11
0.7305251581
 21
15.8260522589
 31
0.0
 11
0.722951718
 21
15.8515414428
 31
0.0
  0
SPLINE
  5
4A5
100
AcDbEntity
  8
ASSI
100
AcDbSpline
 62
253
  6
CONTINUOUS
 70
0
 71
3
 72
10
 73
6
 74
4
 42
0.0000001
 43
0.0000001
 44
0.0000000001
 12
-0.1188290512
 22
0.0494821592
 32
0.0
 13
-0.1022735244
 23
-0.0781597959
 33
0.0
 40
0.0
 40
0.0
 40
0.0
 40
0.0
 40
0.5359379742
 40
0.7739419886
 40
1.0
 40
1.0
 40
1.0
 40
1.0
 10
2.6523948642
 20
17.8282270866
 30
0.0
 10
2.6311665305
 20
17.837066876
 30
0.0
 10
2.5972969543
 20
17.844882639
 30
0.0
 10
2.5545869603
 20
17.8370848671
 30
0.0
 10
2.5366401124
 20
17.8275623545
 30
0.0
 10
2.5289335292
 20
17.8216728051
 30
0.0
 11
2.6523948642
 21
17.8282270866
 31
0.0
 11
2.5846492254
 21
17.841249554
 31
0.0
 11
2.5545694772
 21
17.8354387817
 31
0.0
 11
2.5289335292
 21
17.8216728051
 31
0.0
  0
SPLINE
  5
4A6
100
AcDbEntity
  8
ASSI
100
AcDbSpline
 62
7
  6
CONTINUOUS
 70
0
 71
3
 72
9
 73
5
 74
3
 42
0.0000001
 43
0.0000001
 44
0.0000000001
 12
-0.1196106832
 22
0.0480383469
 32
0.0
 13
-0.1023351283
 23
-0.0783704014
 33
0.0
 40
0.0
 40
0.0
 40
0.0
 40
0.0
 40
0.539932886
 40
1.0
 40
1.0
 40
1.0
 40
1.0
 10
-12.3719825729
 20
23.344931201
 30
0.0
 10
-12.3935098201
 20
23.3535770288
 30
0.0
 10
-12.436841378
 20
23.3636272777
 30
0.0
 10
-12.4806633553
 20
23.3496967895
 30
0.0
 10
-12.496357031
 20
23.3376782414
 30
0.0
 11
-12.3719825729
 21
23.344931201
 31
0.0
 11
-12.440445057
 21
23.3574389037
 31
0.0
 11
-12.496357031
 21
23.3376782414
 31
0.0
  0
SPLINE
  5
4A7
100
AcDbEntity
  8
ASSI
100
AcDbSpline
 62
253
  6
CONTINUOUS
 70
0
 71
3
 72
10
 73
6
 74
4
 42
0.0000001
 43
0.0000001
 44
0.0000000001
 12
-0.1268710187
 22
0.049046524
 32
0.0
 13
-0.1023717306
 23
-0.0895647569
 33
0.0
 40
0.0
 40
0.0
 40
0.0
 40
0.0
 40
0.5389846447
 40
0.7760777373
 40
1.0
 40
1.0
 40
1.0
 40
1.0
 10
-13.6327984496
 20
22.2405475664
 30
0.0
 10
-13.6555922932
 20
22.2493593409
 30
0.0
 10
-13.6917733528
 20
22.2566952198
 30
0.0
 10
-13.7365902505
 20
22.2466376438
 30
0.0
 10
-13.7548729862
 20
22.2355608453
 30
0.0
 10
-13.7625140894
 20
22.2288756643
 30
0.0
 11
-13.6327984496
 21
22.2405475664
 31
0.0
 11
-13.7051725632
 21
22.2522457615
 31
0.0
 11
-13.7365514288
 21
22.2448018435
 31
0.0
 11
-13.7625140894
 21
22.2288756643
 31
0.0
  0
SPLINE
  5
4A8
100
AcDbEntity
  8
ASSI
100
AcDbSpline
 62
253
  6
CONTINUOUS
 70
0
 71
3
 72
11
 73
7
 74
5
 42
0.0000001
 43
0.0000001
 44
0.0000000001
 12
-0.1241612314
 22
0.0498659497
 32
0.0
 13
-0.000366168
 23
0.1338001877
 33
0.0
 40
0.0
 40
0.0
 40
0.0
 40
0.0
 40
0.2987762187
 40
0.5626421826
 40
0.7921318659
 40
1.0
 40
1.0
 40
1.0
 40
1.0
 10
-13.7729875458
 20
21.9200970392
 30
0.0
 10
-13.7853530202
 20
21.9250632925
 30
0.0
 10
-13.8079422773
 20
21.9363881293
 30
0.0
 10
-13.8357154582
 20
21.9587831012
 30
0.0
 10
-13.8538278505
 20
21.9849643939
 30
0.0
 10
-13.8582408417
 20
22.0046244503
 30
0.0
 10
-13.8582662132
 20
22.0138953821
 30
0.0
 11
-13.7729875458
 21
21.9200970392
 31
0.0
 11
-13.8085367486
 21
21.9383828765
 31
0.0
 11
-13.8356179151
 21
21.9610342575
 31
0.0
 11
-13.8524910091
 21
21.9866886844
 31
0.0
 11
-13.8582662132
 21
22.0138953821
 31
0.0
  0
SPLINE
  5
4A9
100
AcDbEntity
  8
ASSI
100
AcDbSpline
 62
253
  6
CONTINUOUS
 70
0
 71
3
 72
11
 73
7
 74
5
 42
0.0000001
 43
0.0000001
 44
0.0000000001
 12
-0.1184521421
 22
0.0475730508
 32
0.0
 13
-0.0123566243
 23
0.1270488842
 33
0.0
 40
0.0
 40
0.0
 40
0.0
 40
0.0
 40
0.2963690214
 40
0.5604434841
 40
0.7916893414
 40
1.0
 40
1.0
 40
1.0
 40
1.0
 10
-13.7729875458
 20
21.6200003154
 30
0.0
 10
-13.7846893943
 20
21.6247000415
 30
0.0
 10
-13.8061805901
 20
21.6353660405
 30
0.0
 10
-13.8330278539
 20
21.656183133
 30
0.0
 10
-13.8513694848
 20
21.6803907683
 30
0.0
 10
-13.8570966648
 20
21.6987402883
 30
0.0
 10
-13.8579546703
 20
21.7075621672
 30
0.0
 11
-13.7729875458
 21
21.6200003154
 31
0.0
 11
-13.8067238503
 21
21.6371189577
 31
0.0
 11
-13.8330367385
 21
21.6581880484
 31
0.0
 11
-13.8503812303
 21
21.6820729833
 31
0.0
 11
-13.8579546703
 21
21.7075621672
 31
0.0
  0
SPLINE
  5
4AA
100
AcDbEntity
  8
ASSI
100
AcDbSpline
 62
253
  6
CONTINUOUS
 70
0
 71
3
 72
9
 73
5
 74
3
 42
0.0000001
 43
0.0000001
 44
0.0000000001
 12
0.0011434624
 22
-0.0950051599
 32
0.0
 13
-0.0714530748
 23
-0.0626238454
 33
0.0
 40
0.0
 40
0.0
 40
0.0
 40
0.0
 40
0.526612947
 40
1.0
 40
1.0
 40
1.0
 40
1.0
 10
5.2521340596
 20
-23.168959199
 30
0.0
 10
5.2523347803
 20
-23.1856361814
 30
0.0
 10
5.2478150254
 20
-23.2178840934
 30
0.0
 10
5.229377971
 20
-23.2453715788
 30
0.0
 10
5.2181029842
 20
-23.2552533514
 30
0.0
 11
5.2521340596
 21
-23.168959199
 31
0.0
 11
5.2437148953
 21
-23.2182803501
 31
0.0
 11
5.2181029842
 21
-23.2552533514
 31
0.0
  0
SPLINE
  5
4AB
100
AcDbEntity
  8
ASSI
100
AcDbSpline
 62
253
  6
CONTINUOUS
 70
0
 71
3
 72
9
 73
5
 74
3
 42
0.0000001
 43
0.0000001
 44
0.0000000001
 12
0.0567239279
 22
0.0482358749
 32
0.0
 13
-0.0000112222
 23
0.0744600799
 33
0.0
 40
0.0
 40
0.0
 40
0.0
 40
0.0
 40
0.5341620215
 40
1.0
 40
1.0
 40
1.0
 40
1.0
 10
5.2796099264
 20
-23.1046434007
 30
0.0
 10
5.289709849
 20
-23.0960548099
 30
0.0
 10
5.306692302
 20
-23.0770776878
 30
0.0
 10
5.3137983559
 20
-23.0520575375
 30
0.0
 10
5.3137966133
 20
-23.0404954265
 30
0.0
 11
5.2796099264
 21
-23.1046434007
 31
0.0
 11
5.3050345881
 21
-23.0740568425
 31
0.0
 11
5.3137966133
 21
-23.0404954265
 31
0.0
  0
SPLINE
  5
4AC
100
AcDbEntity
  8
ASSI
100
AcDbSpline
 62
253
  6
CONTINUOUS
 70
0
 71
3
 72
9
 73
5
 74
3
 42
0.0000001
 43
0.0000001
 44
0.0000000001
 12
0.0566874421
 22
0.048204792
 32
0.0
 13
0.0000442936
 23
0.0744121367
 33
0.0
 40
0.0
 40
0.0
 40
0.0
 40
0.0
 40
0.5341531245
 40
1.0
 40
1.0
 40
1.0
 40
1.0
 10
5.2796099264
 20
-22.7830991487
 30
0.0
 10
5.2897031845
 20
-22.7745162353
 30
0.0
 10
5.3066751698
 20
-22.7555535313
 30
0.0
 10
5.3137897238
 20
-22.7305554015
 30
0.0
 10
5.3137966018
 20
-22.7190005144
 30
0.0
 11
5.2796099264
 21
-22.7830991487
 31
0.0
 11
5.3050219445
 21
-22.7525362351
 31
0.0
 11
5.3137966018
 21
-22.7190005144
 31
0.0
  0
SPLINE
  5
4AD
100
AcDbEntity
  8
ASSI
100
AcDbSpline
 62
7
  6
CONTINUOUS
 70
0
 71
3
 72
9
 73
5
 74
3
 42
0.0000001
 43
0.0000001
 44
0.0000000001
 12
-0.0470431457
 22
-0.040586008
 32
0.0
 13
-0.0559830429
 23
-0.0269477367
 33
0.0
 40
0.0
 40
0.0
 40
0.0
 40
0.0
 40
0.2374509981
 40
1.0
 40
1.0
 40
1.0
 40
1.0
 10
4.0928268663
 20
14.0798196964
 30
0.0
 10
4.0891033856
 20
14.0766073003
 30
0.0
 10
4.0728933735
 20
14.063692443
 30
0.0
 10
4.0548393034
 20
14.0531936312
 30
0.0
 10
4.0406093656
 20
14.0463439746
 30
0.0
 11
4.0928268663
 21
14.0798196964
 31
0.0
 11
4.081301245
 21
14.0706102327
 31
0.0
 11
4.0406093656
 21
14.0463439746
 31
0.0
  0
SPLINE
  5
4AE
100
AcDbEntity
  8
ASSI
100
AcDbSpline
 62
253
  6
CONTINUOUS
 70
0
 71
3
 72
8
 73
4
 74
2
 42
0.0000001
 43
0.0000001
 44
0.0000000001
 12
0.0219227669
 22
0.074274332
 32
0.0
 13
-0.0043856177
 23
0.0773178534
 33
0.0
 40
0.0
 40
0.0
 40
0.0
 40
0.0
 40
1.0
 40
1.0
 40
1.0
 40
1.0
 10
5.2656279743
 20
-22.759518546
 30
0.0
 10
5.2729355632
 20
-22.7347604353
 30
0.0
 10
5.275890759
 20
-22.708350745
 30
0.0
 10
5.2744288864
 20
-22.6825781272
 30
0.0
 11
5.2656279743
 21
-22.759518546
 31
0.0
 11
5.2744288864
 21
-22.6825781272
 31
0.0
  0
SPLINE
  5
4AF
100
AcDbEntity
  8
ASSI
100
AcDbSpline
 62
253
  6
CONTINUOUS
 70
0
 71
3
 72
9
 73
5
 74
3
 42
0.0000001
 43
0.0000001
 44
0.0000000001
 12
-0.0489111329
 22
0.1141098322
 32
0.0
 13
-0.1084719583
 23
0.0603919448
 33
0.0
 40
0.0
 40
0.0
 40
0.0
 40
0.0
 40
0.510441268
 40
1.0
 40
1.0
 40
1.0
 40
1.0
 10
5.2569380255
 20
-22.6075639387
 30
0.0
 10
5.2486159386
 20
-22.5881484828
 30
0.0
 10
5.226537931
 20
-22.5522463558
 30
0.0
 10
5.193837775
 20
-22.5253810457
 30
0.0
 10
5.1761366436
 20
-22.5155259111
 30
0.0
 11
5.2569380255
 21
-22.6075639387
 31
0.0
 11
5.2233092824
 21
-22.5538511736
 31
0.0
 11
5.1761366436
 21
-22.5155259111
 31
0.0
  0
SPLINE
  5
4B0
100
AcDbEntity
  8
ASSI
100
AcDbSpline
 62
253
  6
CONTINUOUS
 70
0
 71
3
 72
9
 73
5
 74
3
 42
0.0000001
 43
0.0000001
 44
0.0000000001
 12
-0.0012716046
 22
-0.1025451565
 32
0.0
 13
-0.0814202403
 23
-0.0623527913
 33
0.0
 40
0.0
 40
0.0
 40
0.0
 40
0.0
 40
0.5290446502
 40
1.0
 40
1.0
 40
1.0
 40
1.0
 10
3.5049520778
 20
-24.5525367655
 30
0.0
 10
3.5047278326
 20
-24.570620421
 30
0.0
 10
3.4989067606
 20
-24.60536083
 30
0.0
 10
3.4774618901
 20
-24.6341563063
 30
0.0
 10
3.4646801242
 20
-24.6439447665
 30
0.0
 11
3.5049520778
 21
-24.5525367655
 31
0.0
 11
3.4941957011
 21
-24.6057149593
 31
0.0
 11
3.4646801242
 21
-24.6439447665
 31
0.0
  0
SPLINE
  5
4B1
100
AcDbEntity
  8
ASSI
100
AcDbSpline
 62
253
  6
CONTINUOUS
 70
0
 71
3
 72
11
 73
7
 74
5
 42
0.0000001
 43
0.0000001
 44
0.0000000001
 12
-0.226009984
 22
-0.1784258951
 32
0.0
 13
-0.2672068904
 23
0.1073163109
 33
0.0
 40
0.0
 40
0.0
 40
0.0
 40
0.0
 40
0.2225397974
 40
0.4791703603
 40
0.7471290496
 40
1.0
 40
1.0
 40
1.0
 40
1.0
 10
3.4760713299
 20
-24.5343856034
 30
0.0
 10
3.4593059245
 20
-24.5476212243
 30
0.0
 10
3.4172362954
 20
-24.5684989979
 30
0.0
 10
3.3464457965
 20
-24.582924868
 30
0.0
 10
3.2712847395
 20
-24.5817953645
 30
0.0
 10
3.2220755972
 20
-24.5699726373
 30
0.0
 10
3.1995526437
 20
-24.5609269115
 30
0.0
 11
3.4760713299
 21
-24.5343856034
 31
0.0
 11
3.419510716
 21
-24.564506049
 31
0.0
 11
3.3472774526
 21
-24.5800996853
 31
0.0
 11
3.2701284443
 21
-24.5788443238
 31
0.0
 11
3.1995526437
 21
-24.5609269115
 31
0.0
  0
SPLINE
  5
4B2
100
AcDbEntity
  8
ASSI
100
AcDbSpline
 62
253
  6
CONTINUOUS
 70
0
 71
3
 72
11
 73
7
 74
5
 42
0.0000001
 43
0.0000001
 44
0.0000000001
 12
-0.2728053012
 22
-0.2319697598
 32
0.0
 13
0.0000009449
 23
-0.3580959394
 33
0.0
 40
0.0
 40
0.0
 40
0.0
 40
0.0
 40
0.2271839217
 40
0.4892897407
 40
0.7571268832
 40
1.0
 40
1.0
 40
1.0
 40
1.0
 10
0.9481079388
 20
16.384526842
 30
0.0
 10
0.927448946
 20
16.3669602421
 30
0.0
 10
0.8894186483
 20
16.3216179851
 30
0.0
 10
0.8460448002
 20
16.2418739593
 30
0.0
 10
0.8164821207
 20
16.1540388335
 30
0.0
 10
0.807918766
 20
16.0930669404
 30
0.0
 10
0.8079188425
 20
16.0640763148
 30
0.0
 11
0.9481079388
 21
16.384526842
 31
0.0
 11
0.894288875
 21
16.3235192762
 31
0.0
 11
0.8488406468
 21
16.2413975618
 31
0.0
 11
0.8185451412
 21
16.1503965856
 31
0.0
 11
0.8079188425
 21
16.0640763148
 31
0.0
  0
SPLINE
  5
4B3
100
AcDbEntity
  8
ASSI
100
AcDbSpline
 62
253
  6
CONTINUOUS
 70
0
 71
3
 72
11
 73
7
 74
5
 42
0.0000001
 43
0.0000001
 44
0.0000000001
 12
-0.0000007114
 22
0.3583053066
 32
0.0
 13
0.2746427042
 23
0.2301175303
 33
0.0
 40
0.0
 40
0.0
 40
0.0
 40
0.0
 40
0.2425545385
 40
0.5101566108
 40
0.7723123979
 40
1.0
 40
1.0
 40
1.0
 40
1.0
 10
3.1995526437
 20
15.1035422621
 30
0.0
 10
3.1995525862
 20
15.1325117882
 30
0.0
 10
3.208197021
 20
15.1934540554
 30
0.0
 10
3.2380613072
 20
15.2811896764
 30
0.0
 10
3.2818923679
 20
15.3607986941
 30
0.0
 10
3.3203023748
 20
15.4059635879
 30
0.0
 10
3.3411466211
 20
15.4234285574
 30
0.0
 11
3.1995526437
 21
15.1035422621
 31
0.0
 11
3.2102778711
 21
15.1897865111
 31
0.0
 11
3.2408670677
 21
15.2806594843
 31
0.0
 11
3.2867695499
 21
15.3626115861
 31
0.0
 11
3.3411466211
 21
15.4234285574
 31
0.0
  0
SPLINE
  5
4B4
100
AcDbEntity
  8
ASSI
100
AcDbSpline
 62
253
  6
CONTINUOUS
 70
0
 71
3
 72
11
 73
7
 74
5
 42
0.0000001
 43
0.0000001
 44
0.0000000001
 12
-0.2260099838
 22
-0.1784258954
 32
0.0
 13
-0.2672068904
 23
0.1073163112
 33
0.0
 40
0.0
 40
0.0
 40
0.0
 40
0.0
 40
0.2225397985
 40
0.4791703619
 40
0.7471290506
 40
1.0
 40
1.0
 40
1.0
 40
1.0
 10
3.4760713299
 20
-24.2342888796
 30
0.0
 10
3.4593059244
 20
-24.2475245006
 30
0.0
 10
3.4172362952
 20
-24.2684022742
 30
0.0
 10
3.3464457962
 20
-24.2828281443
 30
0.0
 10
3.2712847393
 20
-24.2816986407
 30
0.0
 10
3.2220755971
 20
-24.2698759135
 30
0.0
 10
3.1995526437
 20
-24.2608301876
 30
0.0
 11
3.4760713299
 21
-24.2342888796
 31
0.0
 11
3.4195107157
 21
-24.2644093253
 31
0.0
 11
3.3472774522
 21
-24.2800029617
 31
0.0
 11
3.270128444
 21
-24.2787476
 31
0.0
 11
3.1995526437
 21
-24.2608301876
 31
0.0
  0
SPLINE
  5
4B5
100
AcDbEntity
  8
ASSI
100
AcDbSpline
 62
253
  6
CONTINUOUS
 70
0
 71
3
 72
11
 73
7
 74
5
 42
0.0000001
 43
0.0000001
 44
0.0000000001
 12
-0.1444705484
 22
0.2347271722
 32
0.0
 13
-0.2540710258
 23
0.1068480162
 33
0.0
 40
0.0
 40
0.0
 40
0.0
 40
0.0
 40
0.195720937
 40
0.450753334
 40
0.7317319235
 40
1.0
 40
1.0
 40
1.0
 40
1.0
 10
3.4907681996
 20
-24.1872159614
 30
0.0
 10
3.4813428959
 20
-24.1719022874
 30
0.0
 10
3.4532308122
 20
-24.1408245034
 30
0.0
 10
3.4014303735
 20
-24.0979188701
 30
0.0
 10
3.339403015
 20
-24.0574446743
 30
0.0
 10
3.2943268696
 20
-24.0344459838
 30
0.0
 10
3.2716071545
 20
-24.0248913465
 30
0.0
 11
3.4907681996
 21
-24.1872159614
 31
0.0
 11
3.4562139245
 21
-24.1457900427
 31
0.0
 11
3.4024990231
 21
-24.1004488711
 31
0.0
 11
3.3377116244
 21
-24.0580197029
 31
0.0
 11
3.2716071545
 21
-24.0248913465
 31
0.0
  0
SPLINE
  5
4B6
100
AcDbEntity
  8
ASSI
100
AcDbSpline
 62
7
  6
CONTINUOUS
 70
0
 71
3
 72
11
 73
7
 74
5
 42
0.0000001
 43
0.0000001
 44
0.0000000001
 12
0.3024894574
 22
-0.0476989228
 32
0.0
 13
0.3026285438
 23
0.0468083703
 33
0.0
 40
0.0
 40
0.0
 40
0.0
 40
0.0
 40
0.2841925947
 40
0.5666737116
 40
0.8114268759
 40
1.0
 40
1.0
 40
1.0
 40
1.0
 10
3.7886712104
 20
-23.2007184983
 30
0.0
 10
3.8173262983
 20
-23.2052370585
 30
0.0
 10
3.8743534655
 20
-23.214890874
 30
0.0
 10
3.9564659416
 20
-23.2261457214
 30
0.0
 10
4.0293250817
 20
-23.2316173216
 30
0.0
 10
4.0738043296
 20
-23.230508451
 30
0.0
 10
4.0928268663
 20
-23.2275661841
 30
0.0
 11
3.7886712104
 21
-23.2007184983
 31
0.0
 11
3.8746055482
 21
-23.2144688672
 31
0.0
 11
3.9603732426
 21
-23.2257266621
 31
0.0
 11
4.0351623276
 21
-23.2306362808
 31
0.0
 11
4.0928268663
 21
-23.2275661841
 31
0.0
  0
SPLINE
  5
4B7
100
AcDbEntity
  8
ASSI
100
AcDbSpline
 62
253
  6
CONTINUOUS
 70
0
 71
3
 72
9
 73
5
 74
3
 42
0.0000001
 43
0.0000001
 44
0.0000000001
 12
0.0725075524
 22
0.0571564263
 32
0.0
 13
0.0887334126
 23
-0.0255065424
 33
0.0
 40
0.0
 40
0.0
 40
0.0
 40
0.0
 40
0.5617751553
 40
1.0
 40
1.0
 40
1.0
 40
1.0
 10
-11.9285115242
 20
23.684247811
 30
0.0
 10
-11.914933877
 20
23.6949508311
 30
0.0
 10
-11.8884460646
 20
23.7117817774
 30
0.0
 10
-11.8557462179
 20
23.7148271258
 30
0.0
 10
-11.8427844892
 20
23.7111012589
 30
0.0
 11
-11.9285115242
 21
23.684247811
 31
0.0
 11
-11.883213023
 21
23.7095106309
 31
0.0
 11
-11.8427844892
 21
23.7111012589
 31
0.0
  0
SPLINE
  5
4B8
100
AcDbEntity
  8
ASSI
100
AcDbSpline
 62
253
  6
CONTINUOUS
 70
0
 71
3
 72
11
 73
7
 74
5
 42
0.0000001
 43
0.0000001
 44
0.0000000001
 12
0.0763835197
 22
0.0611248511
 32
0.0
 13
0.0908025496
 23
-0.0364086047
 33
0.0
 40
0.0
 40
0.0
 40
0.0
 40
0.0
 40
0.3013920837
 40
0.5632870207
 40
0.7916304599
 40
1.0
 40
1.0
 40
1.0
 40
1.0
 10
-9.4925777855
 20
22.7059219047
 30
0.0
 10
-9.4849039894
 20
22.7120627535
 30
0.0
 10
-9.4697248475
 20
22.7225815033
 30
0.0
 10
-9.4458884588
 20
22.7330238494
 30
0.0
 10
-9.4230534592
 20
22.7365722102
 30
0.0
 10
-9.408701334
 20
22.7338278867
 30
0.0
 10
-9.4023945055
 20
22.731299072
 30
0.0
 11
-9.4925777855
 21
22.7059219047
 31
0.0
 11
-9.4681504167
 21
22.7224348747
 31
0.0
 11
-9.4445178094
 21
22.7323315153
 31
0.0
 11
-9.4223793859
 21
22.7353169645
 31
0.0
 11
-9.4023945055
 21
22.731299072
 31
0.0
  0
SPLINE
  5
4B9
100
AcDbEntity
  8
ASSI
100
AcDbSpline
 62
253
  6
CONTINUOUS
 70
0
 71
3
 72
11
 73
7
 74
5
 42
0.0000001
 43
0.0000001
 44
0.0000000001
 12
-0.0000007114
 22
0.3583053066
 32
0.0
 13
0.2746427042
 23
0.2301175303
 33
0.0
 40
0.0
 40
0.0
 40
0.0
 40
0.0
 40
0.2425545385
 40
0.5101566108
 40
0.7723123979
 40
1.0
 40
1.0
 40
1.0
 40
1.0
 10
-11.3813537446
 20
20.9595629865
 30
0.0
 10
-11.3813538022
 20
20.9885325126
 30
0.0
 10
-11.3727093673
 20
21.0494747798
 30
0.0
 10
-11.3428450811
 20
21.1372104008
 30
0.0
 10
-11.2990140205
 20
21.2168194185
 30
0.0
 10
-11.2606040135
 20
21.2619843123
 30
0.0
 10
-11.2397597672
 20
21.2794492818
 30
0.0
 11
-11.3813537446
 21
20.9595629865
 31
0.0
 11
-11.3706285172
 21
21.0458072355
 31
0.0
 11
-11.3400393206
 21
21.1366802087
 31
0.0
 11
-11.2941368385
 21
21.2186323105
 31
0.0
 11
-11.2397597672
 21
21.2794492818
 31
0.0
  0
SPLINE
  5
4BA
100
AcDbEntity
  8
ASSI
100
AcDbSpline
 62
253
  6
CONTINUOUS
 70
0
 71
3
 72
11
 73
7
 74
5
 42
0.0000001
 43
0.0000001
 44
0.0000000001
 12
-0.2728053012
 22
-0.2319697598
 32
0.0
 13
0.0000009449
 23
-0.3580959394
 33
0.0
 40
0.0
 40
0.0
 40
0.0
 40
0.0
 40
0.2271839217
 40
0.4892897407
 40
0.7571268832
 40
1.0
 40
1.0
 40
1.0
 40
1.0
 10
-13.6327984496
 20
22.2405475664
 30
0.0
 10
-13.6534574423
 20
22.2229809665
 30
0.0
 10
-13.6914877401
 20
22.1776387095
 30
0.0
 10
-13.7348615882
 20
22.0978946837
 30
0.0
 10
-13.7644242676
 20
22.0100595579
 30
0.0
 10
-13.7729876223
 20
21.9490876648
 30
0.0
 10
-13.7729875458
 20
21.9200970392
 30
0.0
 11
-13.6327984496
 21
22.2405475664
 31
0.0
 11
-13.6866175134
 21
22.1795400006
 31
0.0
 11
-13.7320657415
 21
22.0974182862
 31
0.0
 11
-13.7623612472
 21
22.00641731
 31
0.0
 11
-13.7729875458
 21
21.9200970392
 31
0.0
  0
SPLINE
  5
4BB
100
AcDbEntity
  8
ASSI
100
AcDbSpline
 62
7
  6
CONTINUOUS
 70
0
 71
3
 72
9
 73
5
 74
3
 42
0.0000001
 43
0.0000001
 44
0.0000000001
 12
0.1581233566
 22
-0.2216292615
 32
0.0
 13
0.2519289914
 23
-0.1032197111
 33
0.0
 40
0.0
 40
0.0
 40
0.0
 40
0.0
 40
0.5150373355
 40
1.0
 40
1.0
 40
1.0
 40
1.0
 10
-12.4650527976
 20
21.0947042338
 30
0.0
 10
-12.4379063202
 20
21.0566551191
 30
0.0
 10
-12.3777042405
 20
20.9880192017
 30
0.0
 10
-12.301557643
 20
20.9350359572
 30
0.0
 10
-12.2608322581
 20
20.9183500552
 30
0.0
 11
-12.4650527976
 21
21.0947042338
 31
0.0
 11
-12.3716641848
 21
20.9901070812
 31
0.0
 11
-12.2608322581
 21
20.9183500552
 31
0.0
  0
SPLINE
  5
4BC
100
AcDbEntity
  8
ASSI
100
AcDbSpline
 62
253
  6
CONTINUOUS
 70
0
 71
3
 72
9
 73
5
 74
3
 42
0.0000001
 43
0.0000001
 44
0.0000000001
 12
-0.1298713786
 22
-0.2121086428
 32
0.0
 13
-0.0000081484
 23
-0.2487099742
 33
0.0
 40
0.0
 40
0.0
 40
0.0
 40
0.0
 40
0.5190199702
 40
1.0
 40
1.0
 40
1.0
 40
1.0
 10
3.2715649867
 20
-24.0249602938
 30
0.0
 10
3.2490963737
 20
-24.061656501
 30
0.0
 10
3.2152276772
 20
-24.1381956044
 30
0.0
 10
3.1995539407
 20
-24.2209717511
 30
0.0
 10
3.1995526343
 20
-24.2608465947
 30
0.0
 11
3.2715649867
 21
-24.0249602938
 31
0.0
 11
3.2188407038
 21
-24.1427872929
 31
0.0
 11
3.1995526343
 21
-24.2608465947
 31
0.0
  0
SPLINE
  5
4BD
100
AcDbEntity
  8
ASSI
100
AcDbSpline
 62
253
  6
CONTINUOUS
 70
0
 71
3
 72
11
 73
7
 74
5
 42
0.0000001
 43
0.0000001
 44
0.0000000001
 12
-0.0000009604
 22
-0.1315850255
 32
0.0
 13
0.1217492509
 23
-0.04991732
 33
0.0
 40
0.0
 40
0.0
 40
0.0
 40
0.0
 40
0.3125197322
 40
0.5793257466
 40
0.8034552989
 40
1.0
 40
1.0
 40
1.0
 40
1.0
 10
3.1995526437
 20
-24.5609269114
 30
0.0
 10
3.1995525437
 20
-24.5746345504
 30
0.0
 10
3.2013016875
 20
-24.6001233741
 30
0.0
 10
3.2105434385
 20
-24.6344303585
 30
0.0
 10
3.2262101326
 20
-24.6608224125
 30
0.0
 10
3.2416728838
 20
-24.6721320003
 30
0.0
 10
3.2496492738
 20
-24.6754023285
 30
0.0
 11
3.1995526437
 21
-24.5609269114
 31
0.0
 11
3.2028698988
 21
-24.6019158138
 31
0.0
 11
3.2126707994
 21
-24.6356277001
 31
0.0
 11
3.2285067743
 21
-24.66050752
 31
0.0
 11
3.2496492738
 21
-24.6754023285
 31
0.0
  0
SPLINE
  5
4BE
100
AcDbEntity
  8
RACCORDO
100
AcDbSpline
 62
7
  6
CONTINUOUS
 70
0
 71
3
 72
11
 73
7
 74
5
 42
0.0000001
 43
0.0000001
 44
0.0000000001
 12
2.1376098111
 22
-1.7906113749
 32
0.0
 13
0.4008007084
 23
-2.75953322
 33
0.0
 40
0.0
 40
0.0
 40
0.0
 40
0.0
 40
0.2560940265
 40
0.512892995
 40
0.762859894
 40
1.0
 40
1.0
 40
1.0
 40
1.0
 10
20.3044568774
 20
22.807128329
 30
0.0
 10
20.4869332452
 20
22.65427337
 30
0.0
 10
20.8259165259
 20
22.3151825708
 30
0.0
 10
21.2385212751
 20
21.734533762
 30
0.0
 10
21.5385128221
 20
21.1077311181
 30
0.0
 10
21.6547751997
 20
20.6662440011
 30
0.0
 10
21.6864571738
 20
20.448112001
 30
0.0
 11
20.3044568774
 21
22.807128329
 31
0.0
 11
20.8100986376
 21
22.3028597694
 31
0.0
 11
21.2243105088
 21
21.7187362694
 31
0.0
 11
21.5225732135
 21
21.0887444229
 31
0.0
 11
21.6864571738
 21
20.448112001
 31
0.0
  0
SPLINE
  5
4BF
100
AcDbEntity
  8
RACCORDO
100
AcDbSpline
 62
7
  6
CONTINUOUS
 70
0
 71
3
 72
9
 73
5
 74
3
 42
0.0000001
 43
0.0000001
 44
0.0000000001
 12
-0.2012953275
 22
-0.8919876549
 32
0.0
 13
-0.634366652
 23
-0.6585899605
 33
0.0
 40
0.0
 40
0.0
 40
0.0
 40
0.0
 40
0.508821902
 40
1.0
 40
1.0
 40
1.0
 40
1.0
 10
21.6625537066
 20
19.5761345059
 30
0.0
 10
21.6284125495
 20
19.4248468875
 30
0.0
 10
21.526025215
 20
19.1337850144
 30
0.0
 10
21.3470113234
 20
18.8810386632
 30
0.0
 10
21.2431489882
 20
18.7732103418
 30
0.0
 11
21.6625537066
 21
19.5761345059
 31
0.0
 11
21.5043801181
 21
19.138569454
 31
0.0
 11
21.2431489882
 21
18.7732103418
 31
0.0
  0
SPLINE
  5
4C0
100
AcDbEntity
  8
RACCORDO
100
AcDbSpline
 62
7
  6
CONTINUOUS
 70
0
 71
3
 72
8
 73
4
 74
2
 42
0.0000001
 43
0.0000001
 44
0.0000000001
 12
0.0258718515
 22
-0.0104622667
 32
0.0
 13
0.0161947854
 23
-0.0227275306
 33
0.0
 40
0.0
 40
0.0
 40
0.0
 40
0.0
 40
1.0
 40
1.0
 40
1.0
 40
1.0
 10
19.5708089737
 20
25.1105008761
 30
0.0
 10
19.5794329242
 20
25.1070134539
 30
0.0
 10
19.5873261793
 20
25.1007988722
 30
0.0
 10
19.5927244412
 20
25.0932230287
 30
0.0
 11
19.5708089737
 21
25.1105008761
 31
0.0
 11
19.5927244412
 21
25.0932230287
 31
0.0
  0
SPLINE
  5
4C1
100
AcDbEntity
  8
RACCORDO
100
AcDbSpline
 62
7
  6
CONTINUOUS
 70
0
 71
3
 72
11
 73
7
 74
5
 42
0.0000001
 43
0.0000001
 44
0.0000000001
 12
0.3478369631
 22
0.2074548006
 32
0.0
 13
0.3757080012
 23
-0.1512334125
 33
0.0
 40
0.0
 40
0.0
 40
0.0
 40
0.0
 40
0.2573409717
 40
0.5045127596
 40
0.7494465655
 40
1.0
 40
1.0
 40
1.0
 40
1.0
 10
3.4793288933
 20
31.386308844
 30
0.0
 10
3.5091664607
 20
31.404104384
 30
0.0
 10
3.571560397
 20
31.4330780864
 30
0.0
 10
3.6717650492
 20
31.4529472829
 30
0.0
 10
3.7728517501
 20
31.4480625807
 30
0.0
 10
3.8377146394
 20
31.429294702
 30
0.0
 10
3.8690929494
 20
31.4166640184
 30
0.0
 11
3.4793288933
 21
31.386308844
 31
0.0
 11
3.5741350344
 21
31.4296037703
 31
0.0
 11
3.6723634359
 21
31.4488986675
 31
0.0
 11
3.7714563518
 21
31.4443097663
 31
0.0
 11
3.8690929494
 21
31.4166640184
 31
0.0
  0
SPLINE
  5
4C2
100
AcDbEntity
  8
0
100
AcDbSpline
 62
7
  6
CONTINUOUS
 70
0
 71
3
 72
9
 73
5
 74
3
 42
0.0000001
 43
0.0000001
 44
0.0000000001
 12
-0.1068381119
 22
0.3015103546
 32
0.0
 13
0.000058439
 23
0.3198794658
 33
0.0
 40
0.0
 40
0.0
 40
0.0
 40
0.0
 40
0.2547658956
 40
1.0
 40
1.0
 40
1.0
 40
1.0
 10
10.0847961136
 20
23.1097557756
 30
0.0
 10
10.0757232112
 20
23.1353606274
 30
0.0
 10
10.0441024834
 20
23.2372229486
 30
0.0
 10
10.0296687889
 20
23.3445081143
 30
0.0
 10
10.0296833058
 20
23.42396981
 30
0.0
 11
10.0847961136
 21
23.1097557756
 31
0.0
 11
10.0607269809
 21
23.1876146917
 31
0.0
 11
10.0296833058
 21
23.42396981
 31
0.0
  0
SPLINE
  5
4C3
100
AcDbEntity
  8
0
100
AcDbSpline
 62
7
  6
CONTINUOUS
 70
0
 71
3
 72
11
 73
7
 74
5
 42
0.0000001
 43
0.0000001
 44
0.0000000001
 12
0.0001913841
 22
1.0475850068
 32
0.0
 13
0.8042921229
 23
0.6712291442
 33
0.0
 40
0.0
 40
0.0
 40
0.0
 40
0.0
 40
0.2277423767
 40
0.4654475639
 40
0.7213197314
 40
1.0
 40
1.0
 40
1.0
 40
1.0
 10
10.0296833058
 20
23.42396981
 30
0.0
 10
10.0296978346
 20
23.5034963098
 30
0.0
 10
10.0515940557
 20
23.6667540911
 30
0.0
 10
10.1479287527
 20
23.9020003472
 30
0.0
 10
10.3039473037
 20
24.124237331
 30
0.0
 10
10.4386047869
 20
24.2550295333
 30
0.0
 10
10.5133182352
 20
24.3173823061
 30
0.0
 11
10.0296833058
 21
23.42396981
 31
0.0
 11
10.0607655121
 21
23.6605159488
 31
0.0
 11
10.1533414597
 21
23.8916844125
 31
0.0
 11
10.3054483054
 21
24.1123949872
 31
0.0
 11
10.5133182352
 21
24.3173823061
 31
0.0
  0
SPLINE
  5
4C4
100
AcDbEntity
  8
RACCORDO
100
AcDbSpline
 62
253
  6
CONTINUOUS
 70
0
 71
3
 72
9
 73
5
 74
3
 42
0.0000001
 43
0.0000001
 44
0.0000000001
 12
0.1020944876
 22
0.0610901793
 32
0.0
 13
0.11040459
 23
-0.0443409619
 33
0.0
 40
0.0
 40
0.0
 40
0.0
 40
0.0
 40
0.4623284615
 40
1.0
 40
1.0
 40
1.0
 40
1.0
 10
-2.8654526674
 20
21.4043440374
 30
0.0
 10
-2.8497189383
 20
21.4137586136
 30
0.0
 10
-2.808992954
 20
21.4233222808
 30
0.0
 10
-2.7693946919
 20
21.4137493216
 30
0.0
 10
-2.7496075566
 20
21.4058023638
 30
0.0
 11
-2.8654526674
 21
21.4043440374
 31
0.0
 11
-2.8123024229
 21
21.4185113166
 31
0.0
 11
-2.7496075566
 21
21.4058023638
 31
0.0
  0
SPLINE
  5
4C5
100
AcDbEntity
  8
RACCORDO
100
AcDbSpline
 62
7
  6
CONTINUOUS
 70
0
 71
3
 72
9
 73
5
 74
3
 42
0.0000001
 43
0.0000001
 44
0.0000000001
 12
0.0343928501
 22
0.0282094403
 32
0.0
 13
0.0440486886
 23
0.0061930358
 33
0.0
 40
0.0
 40
0.0
 40
0.0
 40
0.0
 40
0.2391449442
 40
1.0
 40
1.0
 40
1.0
 40
1.0
 10
-2.9240135904
 20
21.3576370158
 30
0.0
 10
-2.921271965
 20
21.3598857308
 30
0.0
 10
-2.9090921075
 20
21.368423799
 30
0.0
 10
-2.89441827
 20
21.3730261705
 30
0.0
 10
-2.8832467142
 20
21.374596838
 30
0.0
 11
-2.9240135904
 21
21.3576370158
 31
0.0
 11
-2.9153038308
 21
21.3637443188
 31
0.0
 11
-2.8832467142
 21
21.374596838
 31
0.0
  0
SPLINE
  5
4C6
100
AcDbEntity
  8
RACCORDO
100
AcDbSpline
 62
7
  6
CONTINUOUS
 70
0
 71
3
 72
9
 73
5
 74
3
 42
0.0000001
 43
0.0000001
 44
0.0000000001
 12
0.0586169493
 22
0.0082412638
 32
0.0
 13
0.0569612437
 23
-0.0161022325
 33
0.0
 40
0.0
 40
0.0
 40
0.0
 40
0.0
 40
0.2302107636
 40
1.0
 40
1.0
 40
1.0
 40
1.0
 10
-2.8832467142
 20
21.374596838
 30
0.0
 10
-2.87874863
 20
21.3752292472
 30
0.0
 10
-2.8590260267
 20
21.3766920736
 30
0.0
 10
-2.8391626309
 20
21.3733747531
 30
0.0
 10
-2.8245465801
 20
21.369242978
 30
0.0
 11
-2.8832467142
 21
21.374596838
 31
0.0
 11
-2.8696604573
 21
21.3756494305
 31
0.0
 11
-2.8245465801
 21
21.369242978
 31
0.0
  0
SPLINE
  5
4C7
100
AcDbEntity
  8
RACCORDO
100
AcDbSpline
 62
7
  6
CONTINUOUS
 70
0
 71
3
 72
9
 73
5
 74
3
 42
0.0000001
 43
0.0000001
 44
0.0000000001
 12
-0.0693749492
 22
0.0217976255
 32
0.0
 13
-0.0531324887
 23
-0.0496483504
 33
0.0
 40
0.0
 40
0.0
 40
0.0
 40
0.0
 40
0.4264908252
 40
1.0
 40
1.0
 40
1.0
 40
1.0
 10
-1.6436897372
 20
21.5780080847
 30
0.0
 10
-1.6535523303
 20
21.5811069138
 30
0.0
 10
-1.6796810254
 20
21.5775186844
 30
0.0
 10
-1.6991809131
 20
21.5622926004
 30
0.0
 10
-1.7093382363
 20
21.5528013389
 30
0.0
 11
-1.6436897372
 21
21.5780080847
 31
0.0
 11
-1.6746338846
 21
21.5759293591
 31
0.0
 11
-1.7093382363
 21
21.5528013389
 31
0.0
  0
SPLINE
  5
4C8
100
AcDbEntity
  8
RACCORDO
100
AcDbSpline
 62
253
  6
CONTINUOUS
 70
0
 71
3
 72
11
 73
7
 74
5
 42
0.0000001
 43
0.0000001
 44
0.0000000001
 12
0.6998537248
 22
0.6373119509
 32
0.0
 13
-0.002263392
 23
0.9465498592
 33
0.0
 40
0.0
 40
0.0
 40
0.0
 40
0.0
 40
0.2328266089
 40
0.4737247204
 40
0.7283850342
 40
1.0
 40
1.0
 40
1.0
 40
1.0
 10
19.7982768379
 20
-6.3965597694
 30
0.0
 10
19.8525916943
 20
-6.3470987093
 30
0.0
 10
19.9510620909
 20
-6.232402422
 30
0.0
 10
20.0569767681
 20
-6.0263774358
 30
0.0
 10
20.120319487
 20
-5.7911236013
 30
0.0
 10
20.1330513661
 20
-5.6245857422
 30
0.0
 10
20.1328464424
 20
-5.5388867063
 30
0.0
 11
19.7982768379
 21
-6.3965597694
 31
0.0
 11
19.9422377286
 21
-6.2296952649
 31
0.0
 11
20.0476163244
 21
-6.0274832107
 31
0.0
 11
20.1117262971
 21
-5.7951155887
 31
0.0
 11
20.1328464424
 21
-5.5388867063
 31
0.0
  0
SPLINE
  5
4C9
100
AcDbEntity
  8
RACCORDO
100
AcDbSpline
 62
7
  6
CONTINUOUS
 70
0
 71
3
 72
9
 73
5
 74
3
 42
0.0000001
 43
0.0000001
 44
0.0000000001
 12
0.0669281637
 22
0.0657665188
 32
0.0
 13
-0.000049796
 23
0.093832892
 33
0.0
 40
0.0
 40
0.0
 40
0.0
 40
0.0
 40
0.5360621999
 40
1.0
 40
1.0
 40
1.0
 40
1.0
 10
21.6471610953
 20
20.3529760115
 30
0.0
 10
21.6591203149
 20
20.3647276598
 30
0.0
 10
21.6789429865
 20
20.389748955
 30
0.0
 10
21.6873561495
 20
20.4211972482
 30
0.0
 10
21.6873484488
 20
20.4357081233
 30
0.0
 11
21.6471610953
 21
20.3529760115
 31
0.0
 11
21.6770940178
 21
20.3934004803
 31
0.0
 11
21.6873484488
 21
20.4357081233
 31
0.0
  0
SPLINE
  5
4CA
100
AcDbEntity
  8
RACCORDO
100
AcDbSpline
 62
253
  6
CONTINUOUS
 70
0
 71
3
 72
11
 73
7
 74
5
 42
0.0000001
 43
0.0000001
 44
0.0000000001
 12
0.8392938348
 22
0.6875285164
 32
0.0
 13
1.0374398909
 23
-0.3175343679
 33
0.0
 40
0.0
 40
0.0
 40
0.0
 40
0.0
 40
0.2192328408
 40
0.4719839135
 40
0.7400143633
 40
1.0
 40
1.0
 40
1.0
 40
1.0
 10
-2.7496075566
 20
21.4058023638
 30
0.0
 10
-2.6882739661
 20
21.4560453071
 30
0.0
 10
-2.5350071284
 20
21.5382536298
 30
0.0
 10
-2.273393546
 20
21.6029479568
 30
0.0
 10
-1.9893231053
 20
21.6129886901
 30
0.0
 10
-1.7992447989
 20
21.5803194929
 30
0.0
 10
-1.7093383087
 20
21.552801368
 30
0.0
 11
-2.7496075566
 21
21.4058023638
 31
0.0
 11
-2.5429591095
 21
21.5235813237
 31
0.0
 11
-2.2775304806
 21
21.5924657124
 31
0.0
 11
-1.9869198317
 21
21.6029243735
 31
0.0
 11
-1.7093383087
 21
21.552801368
 31
0.0
  0
SPLINE
  5
4CB
100
AcDbEntity
  8
RACCORDO
100
AcDbSpline
 62
7
  6
CONTINUOUS
 70
0
 71
3
 72
9
 73
5
 74
3
 42
0.0000001
 43
0.0000001
 44
0.0000000001
 12
0.0578486297
 22
0.0580964332
 32
0.0
 13
0.013215909
 23
0.0809135296
 33
0.0
 40
0.0
 40
0.0
 40
0.0
 40
0.0
 40
0.2672100846
 40
1.0
 40
1.0
 40
1.0
 40
1.0
 10
21.6471610953
 20
19.6249421068
 30
0.0
 10
21.6523136744
 20
19.6301167577
 30
0.0
 10
21.6703561019
 20
19.6506136188
 30
0.0
 10
21.6826734958
 20
19.6766204016
 30
0.0
 10
21.6859016574
 20
19.6963846077
 30
0.0
 11
21.6471610953
 21
19.6249421068
 31
0.0
 11
21.6615471371
 21
19.6414641089
 31
0.0
 11
21.6859016574
 21
19.6963846077
 31
0.0
  0
SPLINE
  5
4CC
100
AcDbEntity
  8
RACCORDO
100
AcDbSpline
 62
253
  6
CONTINUOUS
 70
0
 71
3
 72
9
 73
5
 74
3
 42
0.0000001
 43
0.0000001
 44
0.0000000001
 12
-0.1528567658
 22
-0.9414037538
 32
0.0
 13
-0.6617233827
 23
-0.6868248564
 33
0.0
 40
0.0
 40
0.0
 40
0.0
 40
0.0
 40
0.517720944
 40
1.0
 40
1.0
 40
1.0
 40
1.0
 10
21.6471610953
 20
19.6249421068
 30
0.0
 10
21.6207820456
 20
19.4624806267
 30
0.0
 10
21.5308609961
 20
19.1527029336
 30
0.0
 10
21.3495226935
 20
18.8836366906
 30
0.0
 10
21.2431442507
 20
18.7732229428
 30
0.0
 11
21.6471610953
 21
19.6249421068
 31
0.0
 11
21.5031710031
 21
19.1526359199
 31
0.0
 11
21.2431442507
 21
18.7732229428
 31
0.0
  0
SPLINE
  5
4CD
100
AcDbEntity
  8
RACCORDO
100
AcDbSpline
 62
7
  6
CONTINUOUS
 70
0
 71
3
 72
9
 73
5
 74
3
 42
0.0000001
 43
0.0000001
 44
0.0000000001
 12
-0.1050951853
 22
-0.0587020284
 32
0.0
 13
-0.1133872187
 23
0.0404260406
 33
0.0
 40
0.0
 40
0.0
 40
0.0
 40
0.0
 40
0.5448901842
 40
1.0
 40
1.0
 40
1.0
 40
1.0
 10
20.2489830094
 20
19.7242526254
 30
0.0
 10
20.2298945644
 20
19.7135905724
 30
0.0
 10
20.1920659877
 20
19.6974224589
 30
0.0
 10
20.1500476545
 20
19.7002138832
 30
0.0
 10
20.1328464424
 20
19.7063466458
 30
0.0
 11
20.2489830094
 21
19.7242526254
 31
0.0
 11
20.1874257632
 21
19.7016000672
 31
0.0
 11
20.1328464424
 21
19.7063466458
 31
0.0
  0
SPLINE
  5
4CE
100
AcDbEntity
  8
RACCORDO
100
AcDbSpline
 62
253
  6
CONTINUOUS
 70
0
 71
3
 72
12
 73
8
 74
6
 42
0.0000001
 43
0.0000001
 44
0.0000000001
 12
0.2940290156
 22
-1.1812382178
 32
0.0
 13
-0.6051906782
 23
-1.0561822912
 33
0.0
 40
0.0
 40
0.0
 40
0.0
 40
0.0
 40
0.2586899972
 40
0.5154238086
 40
0.7669794554
 40
0.8877054734
 40
1.0
 40
1.0
 40
1.0
 40
1.0
 10
20.3038909757
 20
20.918694054
 30
0.0
 10
20.3292450975
 20
20.8168358835
 30
0.0
 10
20.3657891775
 20
20.6101298718
 30
0.0
 10
20.379620914
 20
20.29852823
 30
0.0
 10
20.3557063019
 20
20.0430299249
 30
0.0
 10
20.3082566262
 20
19.851897276
 30
0.0
 10
20.2717556393
 20
19.7638517759
 30
0.0
 10
20.249102439
 20
19.7243172791
 30
0.0
 11
20.3038909757
 21
20.918694054
 31
0.0
 11
20.3590638392
 21
20.6086662802
 31
0.0
 11
20.372445625
 21
20.2964353244
 31
0.0
 11
20.3405503628
 21
19.9918866613
 31
0.0
 11
20.3037580689
 21
19.8496091679
 31
0.0
 11
20.249102439
 21
19.7243172791
 31
0.0
  0
SPLINE
  5
4CF
100
AcDbEntity
  8
RACCORDO
100
AcDbSpline
 62
253
  6
CONTINUOUS
 70
0
 71
3
 72
15
 73
11
 74
9
 42
0.0000001
 43
0.0000001
 44
0.0000000001
 12
0.1692926963
 22
0.1335962251
 32
0.0
 13
-0.1492851936
 23
-0.1556338632
 33
0.0
 40
0.0
 40
0.0
 40
0.0
 40
0.0
 40
0.2628503128
 40
0.4326427357
 40
0.540071745
 40
0.6135204969
 40
0.6813236582
 40
0.7635071203
 40
0.8685922505
 40
1.0
 40
1.0
 40
1.0
 40
1.0
 10
20.2496137856
 20
17.874972082
 30
0.0
 10
20.264446665
 20
17.8866773519
 30
0.0
 10
20.2902932409
 20
17.9044145566
 30
0.0
 10
20.3264775436
 20
17.9192309189
 30
0.0
 10
20.3523541706
 20
17.9214465534
 30
0.0
 10
20.3694100101
 20
17.9123333457
 30
0.0
 10
20.3746676041
 20
17.8958684294
 30
0.0
 10
20.3705648161
 20
17.8775451411
 30
0.0
 10
20.3594138943
 20
17.8573394923
 30
0.0
 10
20.3483656834
 20
17.8442890625
 30
0.0
 10
20.3418266063
 20
17.8374718973
 30
0.0
 11
20.2496137856
 21
17.874972082
 31
0.0
 11
20.297011669
 21
17.9060637132
 31
0.0
 11
20.3313622528
 21
17.9187458789
 31
0.0
 11
20.3545294239
 21
17.9189198816
 31
0.0
 11
20.3680764837
 21
17.9107116784
 31
0.0
 11
20.3731149614
 21
17.8969849392
 31
0.0
 11
20.3702512934
 21
17.879494374
 31
0.0
 11
20.3597874433
 21
17.8593923848
 31
0.0
 11
20.3418266063
 21
17.8374718973
 31
0.0
  0
SPLINE
  5
4D0
100
AcDbEntity
  8
RACCORDO
100
AcDbSpline
 62
7
  6
CONTINUOUS
 70
0
 71
3
 72
9
 73
5
 74
3
 42
0.0000001
 43
0.0000001
 44
0.0000000001
 12
0.0942645417
 22
0.1934540178
 32
0.0
 13
0.1417076919
 23
0.1619542864
 33
0.0
 40
0.0
 40
0.0
 40
0.0
 40
0.0
 40
0.2650428525
 40
1.0
 40
1.0
 40
1.0
 40
1.0
 10
20.1328464424
 20
17.6946207711
 30
0.0
 10
20.1411744901
 20
17.7117119726
 30
0.0
 10
20.1741110795
 20
17.7754160018
 30
0.0
 10
20.2148974253
 20
17.8352955953
 30
0.0
 10
20.2496137856
 20
17.874972082
 30
0.0
 11
20.1328464424
 21
17.6946207711
 31
0.0
 11
20.1591851327
 21
17.74521191
 31
0.0
 11
20.2496137856
 21
17.874972082
 31
0.0
  0
SPLINE
  5
4D1
100
AcDbEntity
  8
RACCORDO
100
AcDbSpline
 62
253
  6
CONTINUOUS
 70
0
 71
3
 72
14
 73
10
 74
8
 42
0.0000001
 43
0.0000001
 44
0.0000000001
 12
0.1562648862
 22
0.1930659018
 32
0.0
 13
0.0137502109
 23
-0.2480001791
 33
0.0
 40
0.0
 40
0.0
 40
0.0
 40
0.0
 40
0.273698036
 40
0.4724413706
 40
0.6844335624
 40
0.7573808753
 40
0.831512255
 40
0.912014693
 40
1.0
 40
1.0
 40
1.0
 40
1.0
 10
20.1328464424
 20
17.6946448368
 30
0.0
 10
20.1471029066
 20
17.7122587562
 30
0.0
 10
20.1734270068
 20
17.7419146475
 30
0.0
 10
20.2148519483
 20
17.7784795045
 30
0.0
 10
20.258126948
 20
17.7957751162
 30
0.0
 10
20.2847450065
 20
17.7793181249
 30
0.0
 10
20.2951839234
 20
17.7632366548
 30
0.0
 10
20.3014497364
 20
17.7439947499
 30
0.0
 10
20.3031526317
 20
17.7300742248
 30
0.0
 10
20.3035559039
 20
17.7228007675
 30
0.0
 11
20.1328464424
 21
17.6946448368
 31
0.0
 11
20.178365333
 21
17.7451374396
 31
0.0
 11
20.2168336379
 21
17.7760728913
 31
0.0
 11
20.2681479297
 21
17.7878786723
 31
0.0
 11
20.2836347338
 21
17.7784740277
 31
0.0
 11
20.2941793805
 21
17.7633795654
 31
0.0
 11
20.3006518854
 21
17.7444608451
 31
0.0
 11
20.3035559039
 21
17.7228007675
 31
0.0
  0
SPLINE
  5
4D2
100
AcDbEntity
  8
DRAFT
100
AcDbSpline
 62
7
  6
CONTINUOUS
 70
0
 71
3
 72
9
 73
5
 74
3
 42
0.0000001
 43
0.0000001
 44
0.0000000001
 12
0.3597537662
 22
-0.1216863982
 32
0.0
 13
0.3433972281
 23
-0.1621995547
 33
0.0
 40
0.0
 40
0.0
 40
0.0
 40
0.0
 40
0.2558777912
 40
1.0
 40
1.0
 40
1.0
 40
1.0
 10
14.7257436164
 20
24.405805194
 30
0.0
 10
14.7564279494
 20
24.3954262451
 30
0.0
 10
14.8757915112
 20
24.3532552033
 30
0.0
 10
14.9928760191
 20
24.3045420926
 30
0.0
 10
15.0780525204
 20
24.2643099956
 30
0.0
 11
14.7257436164
 21
24.405805194
 31
0.0
 11
14.817363701
 21
24.3734166472
 31
0.0
 11
15.0780525204
 21
24.2643099956
 31
0.0
  0
SPLINE
  5
4D3
100
AcDbEntity
  8
RACCORDO
100
AcDbSpline
 62
253
  6
CONTINUOUS
 70
0
 71
3
 72
13
 73
9
 74
7
 42
0.0000001
 43
0.0000001
 44
0.0000000001
 12
0.249317145
 22
0.2052163049
 32
0.0
 13
-0.186761988
 23
0.2634249995
 33
0.0
 40
0.0
 40
0.0
 40
0.0
 40
0.0
 40
0.4134709689
 40
0.7239413447
 40
0.8361814944
 40
0.9187561789
 40
0.9718613876
 40
1.0
 40
1.0
 40
1.0
 40
1.0
 10
19.6530713677
 20
24.4673627812
 30
0.0
 10
19.6874331682
 20
24.4956464427
 30
0.0
 10
19.7469802789
 20
24.5458586419
 30
0.0
 10
19.8135214493
 20
24.60672044
 30
0.0
 10
19.8512305707
 20
24.6457342118
 30
0.0
 10
19.8682211652
 20
24.6667404078
 30
0.0
 10
19.8778329727
 20
24.6808311673
 30
0.0
 10
19.8796921097
 20
24.6909169417
 30
0.0
 10
19.8779403686
 20
24.6933877464
 30
0.0
 11
19.6530713677
 21
24.4673627812
 31
0.0
 11
19.7548204112
 21
24.5538117355
 31
0.0
 11
19.8281677836
 21
24.6221579766
 31
0.0
 11
19.8530502302
 21
24.6485109024
 31
0.0
 11
19.8697453186
 21
24.6693019124
 31
0.0
 11
19.8780554929
 21
24.6843021535
 31
0.0
 11
19.8779403686
 21
24.6933877464
 31
0.0
  0
SPLINE
  5
4D4
100
AcDbEntity
  8
RACCORDO
100
AcDbSpline
 62
7
  6
CONTINUOUS
 70
0
 71
3
 72
12
 73
8
 74
6
 42
0.0000001
 43
0.0000001
 44
0.0000000001
 12
0.2492339408
 22
0.2010571182
 32
0.0
 13
0.2968664707
 23
-0.1200492424
 33
0.0
 40
0.0
 40
0.0
 40
0.0
 40
0.0
 40
0.3623186229
 40
0.6490094149
 40
0.7627775602
 40
0.857789839
 40
1.0
 40
1.0
 40
1.0
 40
1.0
 10
19.2893427602
 20
24.9771729976
 30
0.0
 10
19.3194434596
 20
25.0014552437
 30
0.0
 10
19.3748864679
 20
25.0431198867
 30
0.0
 10
19.4448305401
 20
25.085302464
 30
0.0
 10
19.4938423788
 20
25.1057673655
 30
0.0
 10
19.5297553336
 20
25.1157030166
 30
0.0
 10
19.5567364975
 20
25.1161916168
 30
0.0
 10
19.5708089737
 20
25.1105008761
 30
0.0
 11
19.2893427602
 21
24.9771729976
 31
0.0
 11
19.3826152497
 21
25.0461755983
 31
0.0
 11
19.4621694445
 21
25.0919924391
 31
0.0
 11
19.4959084338
 21
25.1057363502
 31
0.0
 11
19.5253606411
 21
25.1133681235
 31
0.0
 11
19.5708089737
 21
25.1105008761
 31
0.0
  0
SPLINE
  5
4D5
100
AcDbEntity
  8
RACCORDO
100
AcDbSpline
 62
253
  6
CONTINUOUS
 70
0
 71
3
 72
11
 73
7
 74
5
 42
0.0000001
 43
0.0000001
 44
0.0000000001
 12
0.2853263326
 22
0.2426306728
 32
0.0
 13
-0.000042045
 23
0.374540729
 33
0.0
 40
0.0
 40
0.0
 40
0.0
 40
0.0
 40
0.2777737689
 40
0.5337254815
 40
0.77181461
 40
1.0
 40
1.0
 40
1.0
 40
1.0
 10
20.1328464424
 20
23.1163948027
 30
0.0
 10
20.159265166
 20
23.1388602816
 30
0.0
 10
20.2068667723
 20
23.1860150694
 30
0.0
 10
20.2620647308
 20
23.2657943386
 30
0.0
 10
20.2960733103
 20
23.3501826257
 30
0.0
 10
20.3038159321
 20
23.4086464496
 30
0.0
 10
20.303812734
 20
23.4371346903
 30
0.0
 11
20.1328464424
 21
23.1163948027
 31
0.0
 11
20.2062585086
 21
23.190113788
 31
0.0
 11
20.2601029094
 21
23.2694280521
 31
0.0
 11
20.2928337194
 21
23.3523780971
 31
0.0
 11
20.303812734
 21
23.4371346903
 31
0.0
  0
SPLINE
  5
4D6
100
AcDbEntity
  8
RACCORDO
100
AcDbSpline
 62
253
  6
CONTINUOUS
 70
0
 71
3
 72
9
 73
5
 74
3
 42
0.0000001
 43
0.0000001
 44
0.0000000001
 12
0.0034535903
 22
1.450460202
 32
0.0
 13
-0.8454670374
 23
1.178572108
 33
0.0
 40
0.0
 40
0.0
 40
0.0
 40
0.0
 40
0.4749107205
 40
1.0
 40
1.0
 40
1.0
 40
1.0
 10
20.1328464424
 20
23.1163948027
 30
0.0
 10
20.1333931581
 20
23.3460078359
 30
0.0
 10
20.0341940028
 20
23.8304507036
 30
0.0
 10
19.8010532602
 20
24.2610775882
 30
0.0
 10
19.6530713677
 20
24.4673627812
 30
0.0
 11
20.1328464424
 21
23.1163948027
 31
0.0
 11
20.0089624621
 21
23.7940043914
 31
0.0
 11
19.6530713677
 21
24.4673627812
 31
0.0
  0
SPLINE
  5
4D7
100
AcDbEntity
  8
RACCORDO
100
AcDbSpline
 62
253
  6
CONTINUOUS
 70
0
 71
3
 72
11
 73
7
 74
5
 42
0.0000001
 43
0.0000001
 44
0.0000000001
 12
0.2849566561
 22
0.2423163247
 32
0.0
 13
0.0005160665
 23
0.3740551172
 33
0.0
 40
0.0
 40
0.0
 40
0.0
 40
0.0
 40
0.2777518279
 40
0.5337123887
 40
0.7718204273
 40
1.0
 40
1.0
 40
1.0
 40
1.0
 10
20.1328464424
 20
-5.5388867063
 30
0.0
 10
20.1592288531
 20
-5.5164521056
 30
0.0
 10
20.2067716028
 20
-5.4693651662
 30
0.0
 10
20.2619298417
 20
-5.3897133085
 30
0.0
 10
20.295964869
 20
-5.3054632213
 30
0.0
 10
20.3037731722
 20
-5.2470861281
 30
0.0
 10
20.3038124242
 20
-5.2186355492
 30
0.0
 11
20.1328464424
 21
-5.5388867063
 31
0.0
 11
20.2061666859
 21
-5.4652780925
 31
0.0
 11
20.2599778921
 21
-5.3860874235
 31
0.0
 11
20.2927390991
 21
-5.3032660066
 31
0.0
 11
20.3038124242
 21
-5.2186355492
 31
0.0
  0
LINE
  5
4D8
100
AcDbEntity
  8
RACCORDO
100
AcDbLine
 62
7
  6
CONTINUOUS
 10
20.2496137856
 20
17.874972082
 11
20.2705991738
 21
17.8989723931
  0
SPLINE
  5
4D9
100
AcDbEntity
  8
RACCORDO
100
AcDbSpline
 62
7
  6
CONTINUOUS
 70
0
 71
3
 72
11
 73
7
 74
5
 42
0.0000001
 43
0.0000001
 44
0.0000000001
 12
1.4416057328
 22
1.6498685612
 32
0.0
 13
1.2008880176
 23
1.8325286703
 33
0.0
 40
0.0
 40
0.0
 40
0.0
 40
0.0
 40
0.2425346913
 40
0.4884236975
 40
0.7394973422
 40
1.0
 40
1.0
 40
1.0
 40
1.0
 10
20.2705991738
 20
17.8989723931
 30
0.0
 10
20.3871456409
 20
18.0323558471
 30
0.0
 10
20.6202979573
 20
18.3023248569
 30
0.0
 10
20.9667975781
 20
18.7166581809
 30
0.0
 10
21.311146654
 20
19.1496011399
 30
0.0
 10
21.5317865725
 20
19.4515950552
 30
0.0
 10
21.6360647459
 20
19.6107212515
 30
0.0
 11
20.2705991738
 21
17.8989723931
 31
0.0
 11
20.6176374498
 21
18.301380716
 31
0.0
 11
20.9626705951
 21
18.7151253254
 31
0.0
 11
21.3039874837
 21
19.1465225373
 31
0.0
 11
21.6360647459
 21
19.6107212515
 31
0.0
  0
SPLINE
  5
4DA
100
AcDbEntity
  8
RACCORDO
100
AcDbSpline
 62
7
  6
CONTINUOUS
 70
0
 71
3
 72
9
 73
5
 74
3
 42
0.0000001
 43
0.0000001
 44
0.0000000001
 12
-0.0127404692
 22
-0.012795045
 32
0.0
 13
-0.009896901
 23
-0.0151024529
 33
0.0
 40
0.0
 40
0.0
 40
0.0
 40
0.0
 40
0.2236948603
 40
1.0
 40
1.0
 40
1.0
 40
1.0
 10
21.6471610953
 20
19.6249421068
 30
0.0
 10
21.6462111028
 20
19.6239880448
 30
0.0
 10
21.6421360184
 20
19.6195517984
 30
0.0
 10
21.638625751
 20
19.6146292888
 30
0.0
 10
21.6360647459
 20
19.6107212515
 30
0.0
 11
21.6471610953
 21
19.6249421068
 31
0.0
 11
21.644416215
 21
19.6219789815
 31
0.0
 11
21.6360647459
 21
19.6107212515
 31
0.0
  0
SPLINE
  5
4DB
100
AcDbEntity
  8
RACCORDO
100
AcDbSpline
 62
7
  6
CONTINUOUS
 70
0
 71
3
 72
9
 73
5
 74
3
 42
0.0000001
 43
0.0000001
 44
0.0000000001
 12
-0.009126838
 22
-0.0089684271
 32
0.0
 13
-0.0126047712
 23
-0.0022026345
 33
0.0
 40
0.0
 40
0.0
 40
0.0
 40
0.0
 40
0.2838684702
 40
1.0
 40
1.0
 40
1.0
 40
1.0
 10
21.6471610953
 20
20.3529760115
 30
0.0
 10
21.6462974881
 20
20.3521273936
 30
0.0
 10
21.6431020927
 20
20.3493099787
 30
0.0
 10
21.6390736373
 20
20.347351666
 30
0.0
 10
21.6360647459
 20
20.346825874
 30
0.0
 11
21.6471610953
 21
20.3529760115
 31
0.0
 11
21.644416215
 21
20.3505970707
 31
0.0
 11
21.6360647459
 21
20.346825874
 31
0.0
  0
SPLINE
  5
4DC
100
AcDbEntity
  8
RACCORDO
100
AcDbSpline
 62
7
  6
CONTINUOUS
 70
0
 71
3
 72
12
 73
8
 74
6
 42
0.0000001
 43
0.0000001
 44
0.0000000001
 12
-1.5023812385
 22
-0.2625352543
 32
0.0
 13
-1.3318985431
 23
-0.7430480579
 33
0.0
 40
0.0
 40
0.0
 40
0.0
 40
0.0
 40
0.1127437265
 40
0.2314455238
 40
0.4797120554
 40
0.7370010849
 40
1.0
 40
1.0
 40
1.0
 40
1.0
 10
21.6360647459
 20
20.346825874
 30
0.0
 10
21.5796033928
 20
20.336959473
 30
0.0
 10
21.465610923
 20
20.3061828116
 30
0.0
 10
21.2362437118
 20
20.2231541397
 30
0.0
 10
20.9464941997
 20
20.092767445
 30
0.0
 10
20.5980194494
 20
19.9160224296
 30
0.0
 10
20.3657456334
 20
19.7893929032
 30
0.0
 10
20.2489830094
 20
19.7242526254
 30
0.0
 11
21.6360647459
 21
20.346825874
 31
0.0
 11
21.4693356583
 21
20.30477253
 31
0.0
 11
21.2987301165
 21
20.2442051686
 31
0.0
 11
20.9519907783
 21
20.0920790136
 31
0.0
 11
20.6014968173
 21
19.9156289837
 31
0.0
 11
20.2489830094
 21
19.7242526254
 31
0.0
  0
SPLINE
  5
4DD
100
AcDbEntity
  8
RACCORDO
100
AcDbSpline
 62
253
  6
CONTINUOUS
 70
0
 71
3
 72
12
 73
8
 74
6
 42
0.0000001
 43
0.0000001
 44
0.0000000001
 12
-0.0004340927
 22
-0.6643921831
 32
0.0
 13
-0.6024641526
 23
-0.2800966017
 33
0.0
 40
0.0
 40
0.0
 40
0.0
 40
0.0
 40
0.2747587332
 40
0.5459238202
 40
0.677525732
 40
0.8020246058
 40
1.0
 40
1.0
 40
1.0
 40
1.0
 10
20.303809868
 20
20.3274985467
 30
0.0
 10
20.303770111
 20
20.2666493618
 30
0.0
 10
20.2991980373
 20
20.1456644288
 30
0.0
 10
20.280107051
 20
19.9966521166
 30
0.0
 10
20.2518152745
 20
19.8827466439
 30
0.0
 10
20.2175861174
 20
19.7895000624
 30
0.0
 10
20.1726041351
 20
19.7248268098
 30
0.0
 10
20.1328464424
 20
19.7063427314
 30
0.0
 11
20.303809868
 21
20.3274985467
 31
0.0
 11
20.2964295672
 21
20.1451002049
 31
0.0
 11
20.2715227923
 21
19.9666701651
 31
0.0
 11
20.2499650058
 21
19.8819341423
 31
0.0
 11
20.2200435144
 21
19.8048195723
 31
0.0
 11
20.1328464424
 21
19.7063427314
 31
0.0
  0
SPLINE
  5
4DE
100
AcDbEntity
  8
RACCORDO
100
AcDbSpline
 62
253
  6
CONTINUOUS
 70
0
 71
3
 72
11
 73
7
 74
5
 42
0.0000001
 43
0.0000001
 44
0.0000000001
 12
2.0053859922
 22
-1.7681182267
 32
0.0
 13
0.458390896
 23
-2.6339500428
 33
0.0
 40
0.0
 40
0.0
 40
0.0
 40
0.0
 40
0.2571354056
 40
0.5144148805
 40
0.7642027821
 40
1.0
 40
1.0
 40
1.0
 40
1.0
 10
20.3043689241
 20
22.7060480815
 30
0.0
 10
20.4762541709
 20
22.5544994824
 30
0.0
 10
20.7959483945
 20
22.2227874628
 30
0.0
 10
21.1883452754
 20
21.6628460517
 30
0.0
 10
21.4785197349
 20
21.0646362485
 30
0.0
 10
21.5975622401
 20
20.6453980958
 30
0.0
 10
21.6335913395
 20
20.4383720651
 30
0.0
 11
20.3043689241
 21
22.7060480815
 31
0.0
 11
20.7819775169
 21
22.2115850638
 31
0.0
 11
21.1761542459
 21
21.6478847139
 31
0.0
 11
21.4652938442
 21
21.04590545
 31
0.0
 11
21.6335913395
 21
20.4383720651
 31
0.0
  0
ELLIPSE
  5
4DF
100
AcDbEntity
  8
0
100
AcDbEllipse
 62
7
  6
CONTINUOUS
 10
3.3425281909
 20
-22.6176573688
 30
0.0
 11
-0.3166934957
 21
0.3878404978
 31
0.0
 40
0.6702436759
 41
-3.190201757
 42
-2.4542862349
  0
ELLIPSE
  5
4E0
100
AcDbEntity
  8
0
100
AcDbEllipse
 62
7
  6
CONTINUOUS
 10
3.3425281909
 20
13.0454283134
 30
0.0
 11
-0.3165198962
 21
0.3871139532
 31
0.0
 40
0.6720475734
 41
-2.4536186814
 42
-0.8841923507
  0
ELLIPSE
  5
4E1
100
AcDbEntity
  8
0
100
AcDbEllipse
 62
7
  6
CONTINUOUS
 10
-13.915963093
 20
19.9768274965
 30
0.0
 11
-0.3166934957
 21
0.3878404978
 31
0.0
 40
0.6702436759
 41
-0.8821199121
 42
0.0483919792
  0
ELLIPSE
  5
4E2
100
AcDbEntity
  8
RACCORDO
100
AcDbEllipse
 62
7
  6
CONTINUOUS
 10
-4.321052918
 20
14.8613740353
 30
0.0
 11
0.2499293568
 21
0.009771784
 31
0.0
 40
0.6081570881
 41
-2.2054349231
 42
-0.6520918889
  0
ELLIPSE
  5
4E3
100
AcDbEntity
  8
RACCORDO
100
AcDbEllipse
 62
7
  6
CONTINUOUS
 10
-8.8334759477
 20
16.6736648542
 30
0.0
 11
0.2499293568
 21
0.009771784
 31
0.0
 40
0.6081570881
 41
2.5244073498
 42
4.077750384
  0
ELLIPSE
  5
4E4
100
AcDbEntity
  8
ASSI
100
AcDbEllipse
 62
7
  6
CONTINUOUS
 10
3.3425281909
 20
-22.6176573688
 30
0.0
 11
-0.3166934957
 21
0.3878404978
 31
0.0
 40
0.6702436759
 41
-3.190201757
 42
-2.4542862349
  0
ELLIPSE
  5
4E5
100
AcDbEntity
  8
ASSI
100
AcDbEllipse
 62
7
  6
CONTINUOUS
 10
3.3425281909
 20
13.0454283134
 30
0.0
 11
-0.3165198962
 21
0.3871139532
 31
0.0
 40
0.6720475734
 41
-2.4536186814
 42
-0.8841923507
  0
ELLIPSE
  5
4E6
100
AcDbEntity
  8
ASSI
100
AcDbEllipse
 62
7
  6
CONTINUOUS
 10
-13.915963093
 20
19.9768274965
 30
0.0
 11
-0.3166934957
 21
0.3878404978
 31
0.0
 40
0.6702436759
 41
-0.8821199121
 42
0.0483919792
  0
ELLIPSE
  5
4E7
100
AcDbEntity
  8
ASSI
100
AcDbEllipse
 62
7
  6
CONTINUOUS
 10
-4.321052918
 20
14.8613740353
 30
0.0
 11
0.2499293568
 21
0.009771784
 31
0.0
 40
0.6081570881
 41
-2.2054349231
 42
-0.6520918889
  0
ELLIPSE
  5
4E8
100
AcDbEntity
  8
ASSI
100
AcDbEllipse
 62
7
  6
CONTINUOUS
 10
-8.8334759477
 20
16.6736648542
 30
0.0
 11
0.2499293568
 21
0.009771784
 31
0.0
 40
0.6081570881
 41
2.5244073498
 42
4.077750384
  0
ELLIPSE
  5
4E9
100
AcDbEntity
  8
ASSI
100
AcDbEllipse
 62
7
  6
CONTINUOUS
 10
-2.4360635361
 20
19.3894331907
 30
0.0
 11
-0.1625608641
 21
0.1902058938
 31
0.0
 40
0.6553964474
 41
-0.8974928192
 42
-0.0349831269
  0
ELLIPSE
  5
4EA
100
AcDbEntity
  8
ASSI
100
AcDbEllipse
 62
7
  6
CONTINUOUS
 10
5.3894510036
 20
-21.0825475203
 30
0.0
 11
-0.3169109156
 21
0.3869345179
 31
0.0
 40
0.670809718
 41
-3.1194280822
 42
-2.4553554967
  0
ELLIPSE
  5
4EB
100
AcDbEntity
  8
ASSI
100
AcDbEllipse
 62
7
  6
CONTINUOUS
 10
5.3894510036
 20
14.7675905355
 30
0.0
 11
-0.3168729153
 21
0.3867726039
 31
0.0
 40
0.6712104788
 41
-2.4552091068
 42
-0.8847173665
  0
ELLIPSE
  5
4EC
100
AcDbEntity
  8
ASSI
100
AcDbEllipse
 62
7
  6
CONTINUOUS
 10
8.7776478896
 20
19.5133131368
 30
0.0
 11
0.3609241303
 21
0.9326631928
 31
0.0
 40
0.458075675
 41
-0.8693289497
 42
-0.6248171946
  0
ELLIPSE
  5
4ED
100
AcDbEntity
  8
ASSI
100
AcDbEllipse
 62
7
  6
CONTINUOUS
 10
-4.1834192231
 20
20.0912106278
 30
0.0
 11
-0.1625146743
 21
0.1900010152
 31
0.0
 40
0.6563705712
 41
-2.4691737663
 42
-0.898682026
  0
ELLIPSE
  5
4EE
100
AcDbEntity
  8
ASSI
100
AcDbEllipse
 62
7
  6
CONTINUOUS
 10
4.841775933
 20
14.3157289145
 30
0.0
 11
33.6774307551
 21
29.0482172724
 31
0.0
 40
0.006983244
 41
1.5651156649
 42
1.587013386
  0
ELLIPSE
  5
4EF
100
AcDbEntity
  8
ASSI
100
AcDbEllipse
 62
7
  6
CONTINUOUS
 10
8.9718863006
 20
19.4353026119
 30
0.0
 11
-0.7858461616
 21
1.1731918886
 31
0.0
 40
0.5191454105
 41
5.0136960441
 42
6.3225273233
  0
ELLIPSE
  5
4F0
100
AcDbEntity
  8
ASSI
100
AcDbEllipse
 62
7
  6
CONTINUOUS
 10
12.7384532828
 20
28.4033126073
 30
0.0
 11
14.7248791155
 21
12.5261813432
 31
0.0
 40
0.014760238
 41
-2.6573712457
 42
-2.4030044782
  0
ELLIPSE
  5
4F1
100
AcDbEntity
  8
ASSI
100
AcDbEllipse
 62
7
  6
CONTINUOUS
 10
12.7384532828
 20
28.4033126073
 30
0.0
 11
14.7248791155
 21
12.5261813432
 31
0.0
 40
0.014760238
 41
2.2927721807
 42
2.6322600442
  0
ELLIPSE
  5
4F2
100
AcDbEntity
  8
ASSI
100
AcDbEllipse
 62
7
  6
CONTINUOUS
 10
-0.104575436
 20
23.3390729139
 30
0.0
 11
0.2503196748
 21
-0.0475818497
 31
0.0
 40
0.3171006239
 41
-0.5548407301
 42
0.0664496722
  0
ELLIPSE
  5
4F3
100
AcDbEntity
  8
ASSI
100
AcDbEllipse
 62
7
  6
CONTINUOUS
 10
-4.848315797
 20
18.3800964703
 30
0.0
 11
0.1999434854
 21
0.0078174272
 31
0.0
 40
0.6081570881
 41
-2.2054349231
 42
-0.6520918889
  0
ELLIPSE
  5
4F4
100
AcDbEntity
  8
ASSI
100
AcDbEllipse
 62
7
  6
CONTINUOUS
 10
-7.5019310177
 20
19.4458481673
 30
0.0
 11
0.1999434854
 21
0.0078174272
 31
0.0
 40
0.6081570881
 41
3.1179734409
 42
4.077750384
  0
ELLIPSE
  5
4F5
100
AcDbEntity
  8
ASSI
100
AcDbEllipse
 62
7
  6
CONTINUOUS
 10
-0.5477675645
 20
16.6528993466
 30
0.0
 11
0.1999434854
 21
0.0078174272
 31
0.0
 40
0.6081570881
 41
-2.2054349231
 42
-0.6520918889
  0
ELLIPSE
  5
4F6
100
AcDbEntity
  8
ASSI
100
AcDbEllipse
 62
7
  6
CONTINUOUS
 10
-3.2013827852
 20
17.7186510436
 30
0.0
 11
0.1999434854
 21
0.0078174272
 31
0.0
 40
0.6081570881
 41
3.1179734409
 42
4.077750384
  0
ELLIPSE
  5
4F7
100
AcDbEntity
  8
ASSI
100
AcDbEllipse
 62
7
  6
CONTINUOUS
 10
-4.6323338576
 20
24.8990641274
 30
0.0
 11
1.0048735789
 21
0.6729900454
 31
0.0
 40
0.0652557815
 41
-0.6453210963
 42
0.6635101829
  0
ELLIPSE
  5
4F8
100
AcDbEntity
  8
ASSI
100
AcDbEllipse
 62
7
  6
CONTINUOUS
 10
2.0635192166
 20
20.3948734171
 30
0.0
 11
1.000275873
 21
-0.0122714276
 31
0.0
 40
0.561597706
 41
5.9408330456
 42
6.3844305007
  0
ELLIPSE
  5
4F9
100
AcDbEntity
  8
ASSI
100
AcDbEllipse
 62
7
  6
CONTINUOUS
 10
-2.5100321124
 20
71.7700094098
 30
0.0
 11
0.085060811
 21
95.923252966
 31
0.0
 40
0.0059773055
 41
-2.1143322489
 42
-2.1110292369
  0
ELLIPSE
  5
4FA
100
AcDbEntity
  8
ASSI
100
AcDbEllipse
 62
7
  6
CONTINUOUS
 10
-2.1258998696
 20
21.5885478826
 30
0.0
 11
1.0000206696
 21
-0.0002005927
 31
0.0
 40
0.5739458546
 41
0.9605060513
 42
1.5082618869
  0
ELLIPSE
  5
4FB
100
AcDbEntity
  8
ASSI
100
AcDbEllipse
 62
7
  6
CONTINUOUS
 10
-2.1296538021
 20
22.0789462343
 30
0.0
 11
1.0000607388
 21
-0.0124020305
 31
0.0
 40
0.5618375086
 41
1.832903162
 42
2.5373774498
  0
ELLIPSE
  5
4FC
100
AcDbEntity
  8
ASSI
100
AcDbEllipse
 62
7
  6
CONTINUOUS
 10
3.8905726177
 20
-22.9536934852
 30
0.0
 11
0.1997382246
 21
0.198664618
 31
0.0
 40
0.7567950566
 41
-2.8269058184
 42
-2.6358710258
  0
ELLIPSE
  5
4FD
100
AcDbEntity
  8
ASSI
100
AcDbEllipse
 62
7
  6
CONTINUOUS
 10
-13.0300664289
 20
20.9600913735
 30
0.0
 11
0.2499293568
 21
0.009771784
 31
0.0
 40
0.6081570881
 41
3.1176137453
 42
4.077750384
  0
ELLIPSE
  5
4FE
100
AcDbEntity
  8
ASSI
100
AcDbEllipse
 62
7
  6
CONTINUOUS
 10
-10.6903337707
 20
20.0204019899
 30
0.0
 11
0.2499293568
 21
0.009771784
 31
0.0
 40
0.6081570881
 41
-2.2054349231
 42
-0.6520918889
  0
ELLIPSE
  5
4FF
100
AcDbEntity
  8
ASSI
100
AcDbEllipse
 62
7
  6
CONTINUOUS
 10
1.5508399594
 20
15.1040706491
 30
0.0
 11
0.2499293568
 21
0.009771784
 31
0.0
 40
0.6081570881
 41
3.1181633757
 42
4.077750384
  0
ELLIPSE
  5
500
100
AcDbEntity
  8
ASSI
100
AcDbEllipse
 62
7
  6
CONTINUOUS
 10
3.8905726177
 20
14.1643812655
 30
0.0
 11
0.2499293568
 21
0.009771784
 31
0.0
 40
0.6081570881
 41
-2.2054349231
 42
-0.9508848237
  0
ELLIPSE
  5
501
100
AcDbEntity
  8
RACCORDO
100
AcDbEllipse
 62
7
  6
CONTINUOUS
 10
2.2592476998
 20
14.0764206522
 30
0.0
 11
0.2499293568
 21
0.009771784
 31
0.0
 40
0.6081570881
 41
-0.6869984739
 42
-0.6520918889
  0
ELLIPSE
  5
502
100
AcDbEntity
  8
RACCORDO
100
AcDbEllipse
 62
7
  6
CONTINUOUS
 10
-12.3216586885
 20
19.9324413766
 30
0.0
 11
0.2499293568
 21
0.009771784
 31
0.0
 40
0.6081570881
 41
-0.6869984739
 42
-0.6520918889
  0
ELLIPSE
  5
503
100
AcDbEntity
  8
DRAFT
100
AcDbEllipse
 62
7
  6
CONTINUOUS
 10
12.7796652539
 20
23.0465626311
 30
0.0
 11
2.7499837782
 21
-0.0166381883
 31
0.0
 40
0.5677065366
 41
2.542888835
 42
3.028442376
  0
ELLIPSE
  5
504
100
AcDbEntity
  8
DRAFT
100
AcDbEllipse
 62
7
  6
CONTINUOUS
 10
13.3245628684
 20
23.0683578834
 30
0.0
 11
2.7583789687
 21
-0.0166889816
 31
0.0
 40
0.5677065366
 41
1.0737990514
 42
2.5341621888
  0
ELLIPSE
  5
505
100
AcDbEntity
  8
DRAFT
100
AcDbEllipse
 62
7
  6
CONTINUOUS
 10
13.3245628684
 20
23.0683578834
 30
0.0
 11
2.7583789687
 21
-0.0166889816
 31
0.0
 40
0.5677065366
 41
0.2850585294
 42
0.8529326725
  0
ELLIPSE
  5
506
100
AcDbEntity
  8
DRAFT
100
AcDbEllipse
 62
7
  6
CONTINUOUS
 10
13.3245628684
 20
24.9331932314
 30
0.0
 11
2.7583774253
 21
-1.0875888242
 31
0.0
 40
0.0091152074
 41
1.0415643967
 42
1.0739582587
  0
ELLIPSE
  5
507
100
AcDbEntity
  8
DRAFT
100
AcDbEllipse
 62
7
  6
CONTINUOUS
 10
13.3245628684
 20
24.9331932314
 30
0.0
 11
2.7583774253
 21
-1.0875888242
 31
0.0
 40
0.0091152074
 41
0.8530918798
 42
0.8854857418
  0
ELLIPSE
  5
508
100
AcDbEntity
  8
RACCORDO
100
AcDbEllipse
 62
7
  6
CONTINUOUS
 10
17.8409808153
 20
24.7276202172
 30
0.0
 11
0.7426163521
 21
0.7780442769
 31
0.0
 40
0.1249403664
 41
0.0496204843
 42
0.7397086271
  0
ELLIPSE
  5
509
100
AcDbEntity
  8
RACCORDO
100
AcDbEllipse
 62
7
  6
CONTINUOUS
 10
13.3590503779
 20
26.5276645236
 30
0.0
 11
0.3667674849
 21
0.9303298023
 31
0.0
 40
0.4639756799
 41
-0.8664843406
 42
-0.6641065776
  0
ELLIPSE
  5
50A
100
AcDbEntity
  8
RACCORDO
100
AcDbEllipse
 62
7
  6
CONTINUOUS
 10
4.5025799399
 20
12.0244143655
 30
0.0
 11
1.2677055941
 21
-1.5470103314
 31
0.0
 40
0.6710763966
 41
6.9693628111
 42
7.2448881871
  0
ELLIPSE
  5
50B
100
AcDbEntity
  8
RACCORDO
100
AcDbEllipse
 62
7
  6
CONTINUOUS
 10
13.454114056
 20
26.4894848074
 30
0.0
 11
-0.3047210096
 21
1.0986358117
 31
0.0
 40
0.6117276799
 41
5.1847902391
 42
6.5357555103
  0
ELLIPSE
  5
50C
100
AcDbEntity
  8
RACCORDO
100
AcDbEllipse
 62
7
  6
CONTINUOUS
 10
4.5025799399
 20
-16.9267889856
 30
0.0
 11
-1.2677684437
 21
1.5472787173
 31
0.0
 40
0.6709103902
 41
-2.7310010673
 42
-2.4554756913
  0
ELLIPSE
  5
50D
100
AcDbEntity
  8
0
100
AcDbEllipse
 62
7
  6
CONTINUOUS
 10
12.7608091969
 20
24.135113619
 30
0.0
 11
3.2619264357
 21
-0.0389640819
 31
0.0
 40
0.561818812
 41
2.5360631738
 42
5.6803583678
  0
ELLIPSE
  5
50E
100
AcDbEntity
  8
DRAFT
100
AcDbEllipse
 62
7
  6
CONTINUOUS
 10
13.3245628684
 20
23.486125426
 30
0.0
 11
2.7583789687
 21
-0.0166889816
 31
0.0
 40
0.5677065366
 41
0.0675389706
 42
2.5341621888
  0
ELLIPSE
  5
50F
100
AcDbEntity
  8
RACCORDO
100
AcDbEllipse
 62
7
  6
CONTINUOUS
 10
11.6745680867
 20
24.2336117872
 30
0.0
 11
-0.3168468883
 21
0.3867922116
 31
0.0
 40
0.6710323385
 41
-2.4552741111
 42
-1.6124463953
  0
ENDSEC
  0
SECTION
  2
OBJECTS
  0
DICTIONARY
  5
C
100
AcDbDictionary
280
0
281
1
  3
ACAD_GROUP
350
D
  3
ACAD_MLINESTYLE
350
17
  3
ACAD_LAYOUT
350
1A
  3
ACAD_PLOTSETTINGS
350
19
  3
ACAD_PLOTSTYLENAME
350
E
  0
DICTIONARY
  5
D
102
{ACAD_REACTORS
330
C
102
}
100
AcDbDictionary
280
0
281
1
  0
ACDBDICTIONARYWDFLT
  5
E
102
{ACAD_REACTORS
330
C
102
}
100
AcDbDictionary
281
1
  3
Normal
350
F
100
AcDbDictionaryWithDefault
340
F
  0
DICTIONARY
  5
17
102
{ACAD_REACTORS
330
C
102
}
100
AcDbDictionary
280
0
281
1
  3
Standard
350
18
  0
DICTIONARY
  5
19
102
{ACAD_REACTORS
330
C
102
}
100
AcDbDictionary
281
1
  0
DICTIONARY
  5
1A
102
{ACAD_REACTORS
330
C
102
}
100
AcDbDictionary
281
1
  3
Model
350
510
  3
Layout1
350
511
  0
ACDBPLACEHOLDER
  5
F
102
{ACAD_REACTORS
330
E
102
}
  0
MLINESTYLE
  5
18
102
{ACAD_REACTORS
330
17
102
}
100
AcDbMlineStyle
  2
STANDARD
 70
0
  3

 62
256
 51
90.0
 52
90.0
 71
2
 49
0.5
 62
256
  6
BYLAYER
 49
-0.5
 62
256
  6
BYLAYER
  0
LAYOUT
  5
510
102
{ACAD_REACTORS
330
1A
102
}
100
AcDbPlotSettings
  1

  2
none_device
  4
ISO_A4_(297.00_x_210.00_MM)
  6

 40
0.0
 41
0.0
 42
0.0
 43
0.0
 44
297.0
 45
210.0
 46
0.0
 47
0.0
 48
0.0
 49
0.0
140
0.0
141
0.0
142
1.0
143
1.0
 70
1024
 72
1
 73
0
 74
0
  7

 75
0
147
1.0
148
0.0
149
0.0
100
AcDbLayout
  1
Model
 70
0
 71
0
 10
0.0
 20
0.0
 11
297.0
 21
210.0
 12
0.0
 22
0.0
 32
0.0
 14
0.0
 24
0.0
 34
0.0
 15
0.0
 25
0.0
 35
0.0
146
0.0
 13
0.0
 23
0.0
 33
0.0
 16
1.0
 26
0.0
 36
0.0
 17
0.0
 27
1.0
 37
0.0
 76
0
330
21A
345
0
346
0
  0
LAYOUT
  5
511
102
{ACAD_REACTORS
330
1A
102
}
100
AcDbPlotSettings
  1

  2
none_device
  4
ISO_A4_(297.00_x_210.00_MM)
  6

 40
0.0
 41
0.0
 42
0.0
 43
0.0
 44
297.0
 45
210.0
 46
0.0
 47
0.0
 48
0.0
 49
0.0
140
0.0
141
0.0
142
1.0
143
1.0
 70
0
 72
1
 73
0
 74
0
  7

 75
0
147
1.0
148
0.0
149
0.0
100
AcDbLayout
  1
Layout1
 70
0
 71
1
 10
0.0
 20
0.0
 11
297.0
 21
210.0
 12
0.0
 22
0.0
 32
0.0
 14
0.0
 24
0.0
 34
0.0
 15
0.0
 25
0.0
 35
0.0
146
0.0
 13
0.0
 23
0.0
 33
0.0
 16
1.0
 26
0.0
 36
0.0
 17
0.0
 27
1.0
 37
0.0
 76
0
330
21B
345
0
346
0
  0
ENDSEC
  0
EOF
