  0
SECTION
  2
HEADER
  9
$ACADVER
  1
AC1024
  9
$DWGCODEPAGE
  3
ANSI_1252
  9
$EXTMAX
 10
558.8
 20
431.8
 30
0.0
  9
$EXTMIN
 10
0.0
 20
0.0
 30
0.0
  9
$LIMMIN
 10
0.0
 20
0.0
  9
$LIMMAX
 10
558.8
 20
431.8
  9
$VIEWCTR
 10
279.4
 20
215.9
  9
$VIEWSIZE
 40
431.8
  9
$CLAYER
  8
0
  9
$LTSCALE
 40
30.734
  9
$CELTYPE
  6
BYLAYER
  9
$DIMSCALE
 40
1.0
  9
$DIMASZ
 40
3.0
  9
$DIMEXO
 40
0.5
  9
$DIMDLI
 40
21.2344
  9
$DIMEXE
 40
1.5
  9
$DIMCEN
 40
5.0292
  9
$DIMLFAC
 40
1.0
  9
$DIMBLK
  1
_FILLED
  9
$DIMALT
 70
0
  9
$DIMALTF
 40
0.0393700787
  9
$DIMTXT
 40
3.0
  9
$DIMTOL
 70
1
  9
$DIMLIM
 70
0
  9
$DIMTFAC
 40
1.0
  9
$DIMTP
 40
0.01
  9
$DIMTM
 40
0.01
  9
$DIMGAP
 40
0.625
  9
$DIMDSEP
 70
44
  9
$AUNITS
 70
0
  9
$PDMODE
 70
3
  9
$PDSIZE
 40
3.0
  9
$HANDSEED
  5
2A1
  9
$TILEMODE
 70
1
  9
$MEASUREMENT
 70
1
  9
$INSUNITS
 70
4
  0
ENDSEC
  0
SECTION
  2
CLASSES
  0
CLASS
  1
ACDBDICTIONARYWDFLT
  2
AcDbDictionaryWithDefault
  3
AutoCAD 2000
 90
0
 91
1
280
0
281
0
  0
CLASS
  1
ACDBPLACEHOLDER
  2
AcDbPlaceHolder
  3
AutoCAD 2000
 90
0
 91
1
280
0
281
0
  0
CLASS
  1
LAYOUT
  2
AcDbLayout
  3
AutoCAD 2000
 90
0
 91
0
280
0
281
0
  0
ENDSEC
  0
SECTION
  2
TABLES
  0
TABLE
  2
VPORT
  5
8
100
AcDbSymbolTable
 70
2
  0
VPORT
  5
1F4
100
AcDbSymbolTableRecord
100
AcDbViewportTableRecord
  2
*ACTIVE
 70
0
 10
0.0
 20
0.0
 11
1.0
 21
1.0
 12
279.4
 22
215.9
 13
0.0
 23
0.0
 14
1.0
 24
1.0
 15
0.0
 25
0.0
 16
0.0
 26
0.0
 36
1.0
 17
0.0
 27
0.0
 37
0.0
 40
431.8
 41
1.2941176471
 42
50.0
 43
0.0
 44
0.0
 50
0.0
 51
0.0
 71
0
 72
100
 73
1
 74
1
 75
0
 76
0
 77
0
 78
0
  0
ENDTAB
  0
TABLE
  2
LTYPE
  5
5
100
AcDbSymbolTable
 70
6
  0
LTYPE
  5
14
100
AcDbSymbolTableRecord
100
AcDbLinetypeTableRecord
  2
BYBLOCK
 70
0
  3

 72
65
 73
0
 40
0.0
  0
LTYPE
  5
15
100
AcDbSymbolTableRecord
100
AcDbLinetypeTableRecord
  2
BYLAYER
 70
0
  3

 72
65
 73
0
 40
0.0
  0
LTYPE
  5
16
100
AcDbSymbolTableRecord
100
AcDbLinetypeTableRecord
  2
CONTINUOUS
 70
64
  3
Solid line
 72
65
 73
0
 40
0.0
  0
LTYPE
  5
1F5
100
AcDbSymbolTableRecord
100
AcDbLinetypeTableRecord
  2
CENTER
 70
64
  3
____ _ ____ _ ____ _ ____ _ ____ _ ____ _ ____
 72
65
 73
4
 40
0.6
 49
0.375
 74
0
 49
-0.075
 74
0
 49
0.075
 74
0
 49
-0.075
 74
0
  0
LTYPE
  5
1F6
100
AcDbSymbolTableRecord
100
AcDbLinetypeTableRecord
  2
HIDDEN
 70
64
  3
- - - - - - - - - - - - - - - - - - - -
 72
65
 73
2
 40
0.2
 49
0.1
 74
0
 49
-0.1
 74
0
  0
LTYPE
  5
1F7
100
AcDbSymbolTableRecord
100
AcDbLinetypeTableRecord
  2
PHANTOM
 70
64
  3
_____ _ _ _____ _ _ _____ _ _ _____
 72
65
 73
6
 40
0.8
 49
0.45
 74
0
 49
-0.05
 74
0
 49
0.1
 74
0
 49
-0.05
 74
0
 49
0.1
 74
0
 49
-0.05
 74
0
  0
LTYPE
  5
1F8
100
AcDbSymbolTableRecord
100
AcDbLinetypeTableRecord
  2
DOT
 70
64
  3
. . . . . . . . . . . . . . . . . . . .
 72
65
 73
2
 40
0.2
 49
0.1
 74
0
 49
-0.1
 74
0
  0
LTYPE
  5
1F9
100
AcDbSymbolTableRecord
100
AcDbLinetypeTableRecord
  2
DASHED
 70
64
  3
- - - - - - - - - - - - - - - - - - - -
 72
65
 73
2
 40
0.2
 49
0.1
 74
0
 49
-0.1
 74
0
  0
ENDTAB
  0
TABLE
  2
LAYER
  5
2
100
AcDbSymbolTable
 70
36
  0
LAYER
  5
10
100
AcDbSymbolTableRecord
100
AcDbLayerTableRecord
  2
0
 70
0
 62
7
  6
CONTINUOUS
370
-3
390
F
  0
LAYER
  5
1FA
100
AcDbSymbolTableRecord
100
AcDbLayerTableRecord
  2
DEFAULT_1
 70
0
 62
7
  6
CENTER
370
-3
390
F
  0
LAYER
  5
1FB
100
AcDbSymbolTableRecord
100
AcDbLayerTableRecord
  2
DEFAULT_2
 70
0
 62
7
  6
HIDDEN
370
-3
390
F
  0
LAYER
  5
1FC
100
AcDbSymbolTableRecord
100
AcDbLayerTableRecord
  2
DEFAULT_3
 70
0
 62
7
  6
PHANTOM
370
-3
390
F
  0
LAYER
  5
1FD
100
AcDbSymbolTableRecord
100
AcDbLayerTableRecord
  2
ASSI
 70
0
 62
7
  6
CONTINUOUS
370
-3
390
F
  0
LAYER
  5
1FE
100
AcDbSymbolTableRecord
100
AcDbLayerTableRecord
  2
COORDINATE
 70
0
 62
7
  6
CONTINUOUS
370
-3
390
F
  0
LAYER
  5
1FF
100
AcDbSymbolTableRecord
100
AcDbLayerTableRecord
  2
COPY_PUBLISH
 70
0
 62
7
  6
CONTINUOUS
370
-3
390
F
  0
LAYER
  5
200
100
AcDbSymbolTableRecord
100
AcDbLayerTableRecord
  2
COSMETIC
 70
0
 62
7
  6
CONTINUOUS
370
-3
390
F
  0
LAYER
  5
201
100
AcDbSymbolTableRecord
100
AcDbLayerTableRecord
  2
COSMETICI
 70
0
 62
7
  6
CONTINUOUS
370
-3
390
F
  0
LAYER
  5
202
100
AcDbSymbolTableRecord
100
AcDbLayerTableRecord
  2
CURVE
 70
0
 62
7
  6
CONTINUOUS
370
-3
390
F
  0
LAYER
  5
203
100
AcDbSymbolTableRecord
100
AcDbLayerTableRecord
  2
DRAFT
 70
0
 62
7
  6
CONTINUOUS
370
-3
390
F
  0
LAYER
  5
204
100
AcDbSymbolTableRecord
100
AcDbLayerTableRecord
  2
IMPORT_IGES
 70
0
 62
7
  6
CONTINUOUS
370
-3
390
F
  0
LAYER
  5
205
100
AcDbSymbolTableRecord
100
AcDbLayerTableRecord
  2
NOTE
 70
0
 62
7
  6
CONTINUOUS
370
-3
390
F
  0
LAYER
  5
206
100
AcDbSymbolTableRecord
100
AcDbLayerTableRecord
  2
PIANI
 70
0
 62
7
  6
CONTINUOUS
370
-3
390
F
  0
LAYER
  5
207
100
AcDbSymbolTableRecord
100
AcDbLayerTableRecord
  2
PUNTI
 70
0
 62
7
  6
CONTINUOUS
370
-3
390
F
  0
LAYER
  5
208
100
AcDbSymbolTableRecord
100
AcDbLayerTableRecord
  2
RACCORDO
 70
0
 62
7
  6
CONTINUOUS
370
-3
390
F
  0
LAYER
  5
209
100
AcDbSymbolTableRecord
100
AcDbLayerTableRecord
  2
SIMBOLI
 70
0
 62
7
  6
CONTINUOUS
370
-3
390
F
  0
LAYER
  5
20A
100
AcDbSymbolTableRecord
100
AcDbLayerTableRecord
  2
SMUSSO
 70
0
 62
7
  6
CONTINUOUS
370
-3
390
F
  0
LAYER
  5
20B
100
AcDbSymbolTableRecord
100
AcDbLayerTableRecord
  2
SNAPLINE
 70
0
 62
7
  6
CONTINUOUS
370
-3
390
F
  0
LAYER
  5
20C
100
AcDbSymbolTableRecord
100
AcDbLayerTableRecord
  2
SUPERFICI
 70
0
 62
7
  6
CONTINUOUS
370
-3
390
F
  0
LAYER
  5
20D
100
AcDbSymbolTableRecord
100
AcDbLayerTableRecord
  2
TRASH
 70
0
 62
7
  6
CONTINUOUS
370
-3
390
F
  0
ENDTAB
  0
TABLE
  2
STYLE
  5
3
100
AcDbSymbolTable
 70
1
  0
STYLE
  5
11
100
AcDbSymbolTableRecord
100
AcDbTextStyleTableRecord
  2
STANDARD
 70
0
 40
0.0
 41
0.8
 50
0.0
 71
0
 42
0.2
  3
txt
  4

  0
STYLE
  5
20E
100
AcDbSymbolTableRecord
100
AcDbTextStyleTableRecord
  2
TEXTSTYLE_1
 70
0
 40
0.0
 41
0.8
 50
0.0
 71
0
 42
0.2
  3
gdt
  4

  0
ENDTAB
  0
TABLE
  2
VIEW
  5
6
100
AcDbSymbolTable
 70
0
  0
ENDTAB
  0
TABLE
  2
UCS
  5
7
100
AcDbSymbolTable
 70
0
  0
ENDTAB
  0
TABLE
  2
APPID
  5
9
100
AcDbSymbolTable
 70
1
  0
APPID
  5
20F
100
AcDbSymbolTableRecord
100
AcDbRegAppTableRecord
  2
ACAD
 70
0
  0
ENDTAB
  0
TABLE
  2
BLOCK_RECORD
  5
1
100
AcDbSymbolTable
 70
0
  0
BLOCK_RECORD
  5
210
100
AcDbSymbolTableRecord
100
AcDbBlockTableRecord
  2
*Model_Space
  0
BLOCK_RECORD
  5
211
100
AcDbSymbolTableRecord
100
AcDbBlockTableRecord
  2
*Paper_Space
  0
BLOCK_RECORD
  5
212
100
AcDbSymbolTableRecord
100
AcDbBlockTableRecord
  2
_FILLED
  0
ENDTAB
  0
TABLE
  2
DIMSTYLE
  5
A
100
AcDbSymbolTable
 70
1
100
AcDbDimStyleTable
 71
0
  0
DIMSTYLE
105
213
100
AcDbSymbolTableRecord
100
AcDbDimStyleTableRecord
  2
STANDARD
 70
0
  3

  4

 40
1.0
 41
3.0
 42
0.5
 43
0.38
 44
1.5
 45
0.0
 46
0.0
 47
0.01
 48
0.01
140
3.0
141
0.09
142
0.0
143
25.4
144
1.0
145
0.0
146
1.0
147
0.625
 71
1
 72
0
 73
0
 74
0
 75
0
 76
0
 77
1
 78
8
 79
2
170
0
171
1
172
0
173
0
174
0
175
0
176
0
177
0
178
0
270
2
179
2
271
2
272
2
273
2
274
2
275
0
280
0
281
0
282
0
283
1
284
8
285
0
286
0
287
3
288
0
340
11
278
44
341
212
342
212
343
212
344
212
  0
ENDTAB
  0
ENDSEC
  0
SECTION
  2
BLOCKS
  0
BLOCK
  5
20
100
AcDbEntity
  8
0
100
AcDbBlockBegin
  2
*Model_Space
 70
0
 10
0.0
 20
0.0
 30
0.0
  3
*Model_Space
  1

  0
ENDBLK
  5
21
100
AcDbEntity
  8
0
100
AcDbBlockEnd
  0
BLOCK
  5
1C
100
AcDbEntity
  8
0
100
AcDbBlockBegin
  2
*Paper_Space
 70
0
 10
0.0
 20
0.0
 30
0.0
  3
*Paper_Space
  1

  0
ENDBLK
  5
1D
100
AcDbEntity
  8
0
100
AcDbBlockEnd
  0
BLOCK
  5
214
100
AcDbEntity
  8
0
100
AcDbBlockBegin
  2
_FILLED
 70
64
 10
0.0
 20
0.0
  3
_FILLED
  1

  0
SOLID
  5
215
100
AcDbEntity
  8
0
  6
BYBLOCK
 62
0
100
AcDbTrace
 10
0.0
 20
0.0
 11
-1.0
 21
0.3166666667
 12
-1.0
 22
-0.3166666667
 13
-1.0
 23
-0.3166666667
  0
ENDBLK
  5
216
100
AcDbEntity
  8
0
  6
BYBLOCK
 62
0
100
AcDbBlockEnd
  0
ENDSEC
  0
SECTION
  2
ENTITIES
  0
LWPOLYLINE
  5
217
100
AcDbEntity
  8
0
100
AcDbPolyline
 62
7
  6
CONTINUOUS
 90
22
 70
0
 10
-24.4312549258
 20
24.9011382504
 10
-24.4515701797
 20
24.8823115193
 10
-24.520184807
 20
24.8143681485
 10
-24.5857529157
 20
24.7426883121
 10
-24.648086254
 20
24.667675715
 10
-24.707115365
 20
24.5895986185
 10
-24.7628187109
 20
24.5086234873
 10
-24.8150642333
 20
24.4250020784
 10
-24.863689891
 20
24.3390373717
 10
-24.9085475099
 20
24.2509555294
 10
-24.9494631653
 20
24.1610167887
 10
-24.9862429405
 20
24.0695000576
 10
-25.0187020232
 20
23.9766135011
 10
-25.0466887676
 20
23.8823742863
 10
-25.0698635733
 20
23.7872854869
 10
-25.0878813636
 20
23.6921847756
 10
-25.1005817766
 20
23.5970093696
 10
-25.1076870296
 20
23.5022860103
 10
-25.1089699499
 20
23.409571701
 10
-25.1044452803
 20
23.3194602376
 10
-25.0941022889
 20
23.2317345663
 10
-25.0922928286
 20
23.2203088666
  0
LINE
  5
218
100
AcDbEntity
  8
0
100
AcDbLine
 62
7
  6
CONTINUOUS
 10
-24.4313376282
 20
24.9010628576
 11
-19.7006413739
 21
29.2191937465
  0
LINE
  5
219
100
AcDbEntity
  8
0
100
AcDbLine
 62
250
  6
CONTINUOUS
 10
-24.1857604071
 20
24.8732636947
 11
-19.4550641536
 21
29.1913945829
  0
LINE
  5
21A
100
AcDbEntity
  8
0
100
AcDbLine
 62
7
  6
CONTINUOUS
 10
-19.314353419
 20
29.1101499683
 11
-23.7869590657
 21
25.0804163552
  0
LWPOLYLINE
  5
21B
100
AcDbEntity
  8
0
100
AcDbPolyline
 62
7
  6
CONTINUOUS
 90
7
 70
0
 10
-19.5670800553
 20
29.3235588542
 10
-19.5887009819
 20
29.3088976398
 10
-19.6139210177
 20
29.290755123
 10
-19.6386324446
 20
29.2718523758
 10
-19.6628363764
 20
29.25221343
 10
-19.6865176669
 20
29.2318745761
 10
-19.7006486379
 20
29.2191871152
  0
LINE
  5
21C
100
AcDbEntity
  8
0
100
AcDbLine
 62
7
  6
CONTINUOUS
 10
-19.5671022518
 20
29.3235442185
 11
-16.5149306408
 21
31.3364226913
  0
LINE
  5
21D
100
AcDbEntity
  8
0
100
AcDbLine
 62
250
  6
CONTINUOUS
 10
-19.3103328298
 20
29.3031337346
 11
-16.2568165744
 21
31.3168989877
  0
LINE
  5
21E
100
AcDbEntity
  8
0
100
AcDbLine
 62
7
  6
CONTINUOUS
 10
-19.1614973635
 20
29.2171980017
 11
-18.9224617279
 21
29.3428880142
  0
LINE
  5
21F
100
AcDbEntity
  8
0
100
AcDbLine
 62
7
  6
CONTINUOUS
 10
-21.2379872724
 20
23.8725316745
 11
-21.4978300465
 21
23.647695602
  0
LINE
  5
220
100
AcDbEntity
  8
0
100
AcDbLine
 62
7
  6
CONTINUOUS
 10
-6.8431271778
 20
30.0049925392
 11
-10.5407651175
 21
28.0165225154
  0
LINE
  5
221
100
AcDbEntity
  8
0
100
AcDbLine
 62
250
  6
CONTINUOUS
 10
-6.5975460655
 20
29.9777621414
 11
-10.3979186455
 21
27.9340447528
  0
LINE
  5
222
100
AcDbEntity
  8
0
100
AcDbLine
 62
250
  6
CONTINUOUS
 10
-18.9224617279
 20
29.3428880142
 11
-21.2379872724
 21
23.8725316745
  0
LINE
  5
223
100
AcDbEntity
  8
0
100
AcDbLine
 62
250
  6
CONTINUOUS
 10
-18.3122552766
 20
29.4099551441
 11
-20.5415883017
 21
24.1432259232
  0
LINE
  5
224
100
AcDbEntity
  8
0
100
AcDbLine
 62
7
  6
CONTINUOUS
 10
-5.7013464442
 20
29.4603077121
 11
-6.6045398866
 21
28.9388133476
  0
LINE
  5
225
100
AcDbEntity
  8
0
100
AcDbLine
 62
7
  6
CONTINUOUS
 10
-4.0945760843
 20
28.6509055009
 11
-3.9055010047
 21
28.7581861497
  0
LINE
  5
226
100
AcDbEntity
  8
0
100
AcDbLine
 62
7
  6
CONTINUOUS
 10
-1.28694367
 20
27.0298137328
 11
-1.1011401067
 21
27.1389833141
  0
LINE
  5
227
100
AcDbEntity
  8
0
100
AcDbLine
 62
7
  6
CONTINUOUS
 10
-4.3958061441
 20
27.6635181666
 11
-4.1194842872
 21
27.8203023824
  0
LINE
  5
228
100
AcDbEntity
  8
0
100
AcDbLine
 62
250
  6
CONTINUOUS
 10
-0.9652872973
 20
25.682779579
 11
-0.922847747
 21
25.7081465071
  0
LINE
  5
229
100
AcDbEntity
  8
0
100
AcDbLine
 62
7
  6
CONTINUOUS
 10
-1.5829616254
 20
26.0394169948
 11
-1.3114208929
 21
26.1989617718
  0
LINE
  5
22A
100
AcDbEntity
  8
0
100
AcDbLine
 62
7
  6
CONTINUOUS
 10
-6.8891760494
 20
20.4512615597
 11
-9.9866675365
 21
18.0489469576
  0
LWPOLYLINE
  5
22B
100
AcDbEntity
  8
0
100
AcDbPolyline
 62
7
  6
CONTINUOUS
 90
15
 70
0
 10
-0.9125202499
 20
25.6523125471
 10
-0.8980014432
 20
25.6633876798
 10
-0.8658935354
 20
25.6919219482
 10
-0.8354226728
 20
25.7231249
 10
-0.806710616
 20
25.7567806448
 10
-0.7800463881
 20
25.7924833035
 10
-0.7555239004
 20
25.8300288962
 10
-0.7332826991
 20
25.8692191395
 10
-0.7136232185
 20
25.9095136941
 10
-0.6966491766
 20
25.9506923508
 10
-0.6824793182
 20
25.9925773971
 10
-0.6713124321
 20
26.0347174503
 10
-0.6632757948
 20
26.076894004
 10
-0.6584710624
 20
26.1190174925
 10
-0.6570520792
 20
26.1565183189
  0
LWPOLYLINE
  5
22C
100
AcDbEntity
  8
0
100
AcDbPolyline
 62
7
  6
CONTINUOUS
 90
12
 70
0
 10
-18.7471171639
 20
-7.0379914132
 10
-18.7441485957
 20
-7.04917655
 10
-18.7206610904
 20
-7.1248141934
 10
-18.6921976222
 20
-7.1969423553
 10
-18.6588652012
 20
-7.2653951088
 10
-18.620847823
 20
-7.3298513612
 10
-18.5785178296
 20
-7.3898543396
 10
-18.5321847922
 20
-7.4451980912
 10
-18.482188227
 20
-7.4956887025
 10
-18.4291573059
 20
-7.5409565531
 10
-18.3736547562
 20
-7.5808695066
 10
-18.3319531286
 20
-7.6065690113
  0
LINE
  5
22D
100
AcDbEntity
  8
0
100
AcDbLine
 62
250
  6
CONTINUOUS
 10
-18.6050310007
 20
-7.2138160402
 11
-18.6565677263
 21
-7.0150899576
  0
LWPOLYLINE
  5
22E
100
AcDbEntity
  8
0
100
AcDbPolyline
 62
7
  6
CONTINUOUS
 90
13
 70
0
 10
-25.0923227369
 20
23.2204917761
 10
-24.665926063
 20
20.6640508018
 10
-24.2132490976
 20
18.0674817843
 10
-23.7431561555
 20
15.4851541004
 10
-23.255674382
 20
12.9172241687
 10
-22.7508287758
 20
10.3638249784
 10
-22.228642167
 20
7.8250698129
 10
-21.6891385645
 20
5.3010782034
 10
-21.1323446012
 20
2.7919769597
 10
-20.5582872382
 20
0.2978904073
 10
-19.9669941871
 20
-2.1810554614
 10
-19.3584981316
 20
-4.6447238246
 10
-18.7471513787
 20
-7.0378598047
  0
LWPOLYLINE
  5
22F
100
AcDbEntity
  8
0
100
AcDbPolyline
 62
7
  6
CONTINUOUS
 90
14
 70
0
 10
22.6138898487
 20
-31.2481903512
 10
22.6620176867
 20
-31.273986452
 10
22.7304422719
 20
-31.3041907378
 10
22.8019084795
 20
-31.3284962759
 10
22.8761987177
 20
-31.3466941821
 10
22.9529116755
 20
-31.3585527985
 10
23.0316114262
 20
-31.3638947072
 10
23.112133425
 20
-31.3625730901
 10
23.1941328837
 20
-31.3544417706
 10
23.2772835014
 20
-31.3393916877
 10
23.3616108608
 20
-31.3172203677
 10
23.4469651914
 20
-31.2877222094
 10
23.532919285
 20
-31.250796164
 10
23.5583929754
 20
-31.2384378636
  0
LINE
  5
230
100
AcDbEntity
  8
0
100
AcDbLine
 62
7
  6
CONTINUOUS
 10
-18.3327897437
 20
-7.6060910177
 11
22.6144086917
 21
-31.2484902054
  0
LINE
  5
231
100
AcDbEntity
  8
0
100
AcDbLine
 62
7
  6
CONTINUOUS
 10
22.613883315
 20
-31.2481864443
 11
22.6144084291
 21
-31.2484900538
  0
LINE
  5
232
100
AcDbEntity
  8
0
100
AcDbLine
 62
7
  6
CONTINUOUS
 10
-15.4080193123
 20
19.8051059975
 11
-15.4080193123
 21
21.1791675275
  0
LINE
  5
233
100
AcDbEntity
  8
0
100
AcDbLine
 62
250
  6
CONTINUOUS
 10
-18.6050310007
 20
-7.2138160402
 11
22.3357555812
 21
-30.8525131041
  0
LINE
  5
234
100
AcDbEntity
  8
0
100
AcDbLine
 62
7
  6
CONTINUOUS
 10
-5.7013464442
 20
29.4603077121
 11
-5.7013464442
 21
28.4173207737
  0
LINE
  5
235
100
AcDbEntity
  8
0
100
AcDbLine
 62
250
  6
CONTINUOUS
 10
-6.8891760494
 20
20.4512615597
 11
-6.9369776245
 21
18.6803955051
  0
LINE
  5
236
100
AcDbEntity
  8
0
100
AcDbLine
 62
250
  6
CONTINUOUS
 10
-6.5390630875
 20
20.5258801549
 11
-6.5900216059
 21
18.6380613926
  0
LINE
  5
237
100
AcDbEntity
  8
0
100
AcDbLine
 62
7
  6
CONTINUOUS
 10
-4.1194842872
 20
27.8203023824
 11
-4.0945760843
 21
28.6509055009
  0
LINE
  5
238
100
AcDbEntity
  8
0
100
AcDbLine
 62
7
  6
CONTINUOUS
 10
19.2399476949
 20
15.1778439211
 11
19.4290227745
 21
15.2851245698
  0
LINE
  5
239
100
AcDbEntity
  8
0
100
AcDbLine
 62
7
  6
CONTINUOUS
 10
18.938717635
 20
14.1904565868
 11
19.2150394919
 21
14.3472408026
  0
LINE
  5
23A
100
AcDbEntity
  8
0
100
AcDbLine
 62
250
  6
CONTINUOUS
 10
-0.7144019837
 20
26.0755513546
 11
-0.7144019837
 21
26.9157291069
  0
LINE
  5
23B
100
AcDbEntity
  8
0
100
AcDbLine
 62
7
  6
CONTINUOUS
 10
-0.6570520735
 20
26.1564905984
 11
-0.6570520735
 21
26.8826270094
  0
LINE
  5
23C
100
AcDbEntity
  8
0
100
AcDbLine
 62
7
  6
CONTINUOUS
 10
-1.3114208929
 20
26.1989617718
 11
-1.28694367
 21
27.0298137328
  0
LINE
  5
23D
100
AcDbEntity
  8
0
100
AcDbLine
 62
7
  6
CONTINUOUS
 10
22.0475801092
 20
13.556752153
 11
22.2333836724
 21
13.6659217343
  0
LINE
  5
23E
100
AcDbEntity
  8
0
100
AcDbLine
 62
7
  6
CONTINUOUS
 10
21.7515621538
 20
12.5663554149
 11
22.0231028863
 21
12.725900192
  0
LINE
  5
23F
100
AcDbEntity
  8
0
100
AcDbLine
 62
7
  6
CONTINUOUS
 10
23.1099902965
 20
12.8250029689
 11
22.1747061077
 21
12.3220373992
  0
LINE
  5
240
100
AcDbEntity
  8
0
100
AcDbLine
 62
250
  6
CONTINUOUS
 10
7.9500869389
 20
12.1600265214
 11
7.2610212589
 21
10.6406428368
  0
LINE
  5
241
100
AcDbEntity
  8
0
100
AcDbLine
 62
250
  6
CONTINUOUS
 10
8.0353237869
 20
11.8340424022
 11
7.3889465783
 21
10.4087864165
  0
LINE
  5
242
100
AcDbEntity
  8
0
100
AcDbLine
 62
250
  6
CONTINUOUS
 10
20.3362127771
 20
10.1885424585
 11
24.0061899177
 21
12.3075485396
  0
LINE
  5
243
100
AcDbEntity
  8
0
100
AcDbLine
 62
250
  6
CONTINUOUS
 10
21.0431770942
 20
9.7803501222
 11
24.3596894604
 21
11.6952693718
  0
LINE
  5
244
100
AcDbEntity
  8
0
100
AcDbLine
 62
7
  6
CONTINUOUS
 10
7.1221332837
 20
8.1705397876
 11
8.0353237869
 21
11.8340424022
  0
LINE
  5
245
100
AcDbEntity
  8
0
100
AcDbLine
 62
7
  6
CONTINUOUS
 10
24.3596894604
 20
10.9276981177
 11
21.7541525524
 21
9.3698418032
  0
LINE
  5
246
100
AcDbEntity
  8
0
100
AcDbLine
 62
7
  6
CONTINUOUS
 10
7.1221332837
 20
8.1705397876
 11
7.3889465783
 21
10.4087864165
  0
LINE
  5
247
100
AcDbEntity
  8
0
100
AcDbLine
 62
250
  6
CONTINUOUS
 10
24.7559149837
 20
7.6366617963
 11
21.5939063376
 21
5.6855386898
  0
LINE
  5
248
100
AcDbEntity
  8
0
100
AcDbLine
 62
250
  6
CONTINUOUS
 10
25.1091992496
 20
7.0242578995
 11
21.9597390776
 21
5.0808778515
  0
LINE
  5
249
100
AcDbEntity
  8
0
100
AcDbLine
 62
250
  6
CONTINUOUS
 10
-24.9471252201
 20
23.0296517739
 11
15.7685540997
 21
-0.4790711781
  0
LINE
  5
24A
100
AcDbEntity
  8
0
100
AcDbLine
 62
7
  6
CONTINUOUS
 10
21.3059157422
 20
5.6565156461
 11
16.7465402294
 21
1.6768818663
  0
LINE
  5
24B
100
AcDbEntity
  8
0
100
AcDbLine
 62
250
  6
CONTINUOUS
 10
21.4466264767
 20
5.5752710315
 11
16.5478471009
 21
1.3541892316
  0
LINE
  5
24C
100
AcDbEntity
  8
0
100
AcDbLine
 62
250
  6
CONTINUOUS
 10
21.8854620129
 20
5.0261118957
 11
16.9866826371
 21
0.8050300957
  0
LINE
  5
24D
100
AcDbEntity
  8
0
100
AcDbLine
 62
7
  6
CONTINUOUS
 10
21.4450708714
 20
5.7714744227
 11
21.6400165355
 21
5.9226214322
  0
LINE
  5
24E
100
AcDbEntity
  8
0
100
AcDbLine
 62
250
  6
CONTINUOUS
 10
16.5478471009
 20
1.3541892316
 11
16.1357652611
 21
1.5921201213
  0
LINE
  5
24F
100
AcDbEntity
  8
0
100
AcDbLine
 62
7
  6
CONTINUOUS
 10
16.1357652611
 20
1.5921201213
 11
-23.7736785673
 21
24.635332805
  0
LINE
  5
250
100
AcDbEntity
  8
0
100
AcDbLine
 62
250
  6
CONTINUOUS
 10
-23.7736785673
 20
24.635332805
 11
-24.1857604071
 21
24.8732636947
  0
LINE
  5
251
100
AcDbEntity
  8
0
100
AcDbLine
 62
7
  6
CONTINUOUS
 10
17.392398871
 20
2.2406171542
 11
7.1221332837
 21
8.1705397876
  0
LINE
  5
252
100
AcDbEntity
  8
0
100
AcDbLine
 62
7
  6
CONTINUOUS
 10
-9.9866675365
 20
18.0489469576
 11
-20.5415883017
 21
24.1432259232
  0
LINE
  5
253
100
AcDbEntity
  8
0
100
AcDbLine
 62
7
  6
CONTINUOUS
 10
-23.7736785673
 20
24.635332805
 11
-23.7857907058
 21
24.642815142
  0
LINE
  5
254
100
AcDbEntity
  8
0
100
AcDbLine
 62
250
  6
CONTINUOUS
 10
-23.7869590657
 20
25.0804163552
 11
-21.4978300465
 21
23.647695602
  0
LINE
  5
255
100
AcDbEntity
  8
0
100
AcDbLine
 62
250
  6
CONTINUOUS
 10
20.0934564679
 20
4.5982251256
 11
21.7200046588
 21
6.2958299794
  0
LINE
  5
256
100
AcDbEntity
  8
0
100
AcDbLine
 62
7
  6
CONTINUOUS
 10
7.2610212589
 20
10.6406428368
 11
-6.5900216059
 21
18.6380613926
  0
LINE
  5
257
100
AcDbEntity
  8
0
100
AcDbLine
 62
7
  6
CONTINUOUS
 10
7.9500869389
 20
12.1600265214
 11
-6.5390630875
 21
20.5258801549
  0
LINE
  5
258
100
AcDbEntity
  8
0
100
AcDbLine
 62
250
  6
CONTINUOUS
 10
21.4466264767
 20
5.5752710315
 11
21.3059157422
 21
5.6565156461
  0
LINE
  5
259
100
AcDbEntity
  8
0
100
AcDbLine
 62
250
  6
CONTINUOUS
 10
-19.314353419
 20
29.1101499683
 11
-19.4550641536
 21
29.1913945829
  0
LINE
  5
25A
100
AcDbEntity
  8
0
100
AcDbLine
 62
250
  6
CONTINUOUS
 10
21.5939063376
 20
5.6855386898
 11
21.4450708714
 21
5.7714744227
  0
LINE
  5
25B
100
AcDbEntity
  8
0
100
AcDbLine
 62
250
  6
CONTINUOUS
 10
-19.1614973635
 20
29.2171980017
 11
-19.3103328298
 21
29.3031337346
  0
LINE
  5
25C
100
AcDbEntity
  8
0
100
AcDbLine
 62
7
  6
CONTINUOUS
 10
21.7200046588
 20
6.2958299794
 11
-18.3122552766
 21
29.4099551441
  0
LINE
  5
25D
100
AcDbEntity
  8
0
100
AcDbLine
 62
7
  6
CONTINUOUS
 10
19.2150394919
 20
14.3472408026
 11
19.2399476949
 21
15.1778439211
  0
LINE
  5
25E
100
AcDbEntity
  8
0
100
AcDbLine
 62
7
  6
CONTINUOUS
 10
-16.2568165744
 20
31.3168989877
 11
24.7559149837
 21
7.6366617963
  0
LINE
  5
25F
100
AcDbEntity
  8
0
100
AcDbLine
 62
7
  6
CONTINUOUS
 10
22.0231028863
 20
12.725900192
 11
22.0475801092
 21
13.556752153
  0
LWPOLYLINE
  5
260
100
AcDbEntity
  8
0
100
AcDbPolyline
 62
7
  6
CONTINUOUS
 90
4
 70
0
 10
22.668112096
 20
12.5873751724
 10
22.6712479844
 20
12.6038324242
 10
22.6760527168
 20
12.6459559127
 10
22.6774716999
 20
12.6834567391
  0
LINE
  5
261
100
AcDbEntity
  8
0
100
AcDbLine
 62
7
  6
CONTINUOUS
 10
-6.9369776245
 20
18.6803955051
 11
-9.9866675365
 21
18.0489469576
  0
LINE
  5
262
100
AcDbEntity
  8
0
100
AcDbLine
 62
7
  6
CONTINUOUS
 10
22.1747061077
 20
12.3220373992
 11
-6.6045398866
 21
28.9388133476
  0
LINE
  5
263
100
AcDbEntity
  8
0
100
AcDbLine
 62
250
  6
CONTINUOUS
 10
22.6201217955
 20
12.6024897748
 11
22.6201217955
 21
13.4426675271
  0
LINE
  5
264
100
AcDbEntity
  8
0
100
AcDbLine
 62
7
  6
CONTINUOUS
 10
22.6774717057
 20
12.6834290186
 11
22.6774717057
 21
13.4095654296
  0
LINE
  5
265
100
AcDbEntity
  8
0
100
AcDbLine
 62
7
  6
CONTINUOUS
 10
24.3596894604
 20
11.6952693718
 11
24.3596894604
 21
10.9276981177
  0
LINE
  5
266
100
AcDbEntity
  8
0
100
AcDbLine
 62
7
  6
CONTINUOUS
 10
19.2150394919
 20
14.3472408026
 11
22.0231028863
 21
12.725900192
  0
LINE
  5
267
100
AcDbEntity
  8
0
100
AcDbLine
 62
7
  6
CONTINUOUS
 10
-1.3114208929
 20
26.1989617718
 11
-4.1194842872
 21
27.8203023824
  0
LINE
  5
268
100
AcDbEntity
  8
0
100
AcDbLine
 62
7
  6
CONTINUOUS
 10
24.0061899177
 20
12.3075485396
 11
23.1099902965
 21
12.8250029689
  0
LINE
  5
269
100
AcDbEntity
  8
0
100
AcDbLine
 62
7
  6
CONTINUOUS
 10
-5.7013464442
 20
29.4603077121
 11
-6.5975460655
 21
29.9777621414
  0
LINE
  5
26A
100
AcDbEntity
  8
0
100
AcDbLine
 62
7
  6
CONTINUOUS
 10
19.2399476949
 20
15.1778439211
 11
22.0475801092
 21
13.556752153
  0
LINE
  5
26B
100
AcDbEntity
  8
0
100
AcDbLine
 62
7
  6
CONTINUOUS
 10
-1.28694367
 20
27.0298137328
 11
-4.0945760843
 21
28.6509055009
  0
LINE
  5
26C
100
AcDbEntity
  8
0
100
AcDbLine
 62
7
  6
CONTINUOUS
 10
19.4290227745
 20
15.2851245698
 11
22.6774642919
 21
13.4095697099
  0
LINE
  5
26D
100
AcDbEntity
  8
0
100
AcDbLine
 62
7
  6
CONTINUOUS
 10
-3.9055010047
 20
28.7581861497
 11
-0.6570594872
 21
26.8826312897
  0
LINE
  5
26E
100
AcDbEntity
  8
0
100
AcDbLine
 62
7
  6
CONTINUOUS
 10
25.1091992496
 20
-30.2880600481
 11
25.1091992496
 21
7.0242578995
  0
LINE
  5
26F
100
AcDbEntity
  8
0
100
AcDbLine
 62
250
  6
CONTINUOUS
 10
23.6828489718
 20
-30.9985271151
 11
25.1091992496
 21
-30.2880600481
  0
LINE
  5
270
100
AcDbEntity
  8
0
100
AcDbLine
 62
7
  6
CONTINUOUS
 10
23.5584465462
 20
-31.2384111912
 11
24.9965708142
 21
-30.5220794832
  0
ARC
  5
271
100
AcDbEntity
  8
0
100
AcDbCircle
 62
250
  6
CONTINUOUS
 10
-18.0880498384
 20
-7.1823454405
 40
0.4893404208
100
AcDbArc
 50
237.9321297612
 51
239.9910029539
  0
SPLINE
  5
272
100
AcDbEntity
  8
0
100
AcDbSpline
 62
250
  6
CONTINUOUS
 70
0
 71
3
 72
9
 73
5
 74
0
 42
0.0000001
 43
0.0000001
 44
0.0000000001
 40
0.0
 40
0.0
 40
0.0
 40
0.0
 40
0.4719254035
 40
1.0
 40
1.0
 40
1.0
 40
1.0
 10
-25.0922818049
 20
23.2203106656
 30
0.0
 10
-25.0860514497
 20
23.1821632259
 30
0.0
 10
-25.0502027052
 20
23.1042046792
 30
0.0
 10
-24.984536004
 20
23.0513576968
 30
0.0
 10
-24.94712522
 20
23.0296517733
 30
0.0
  0
SPLINE
  5
273
100
AcDbEntity
  8
0
100
AcDbSpline
 62
250
  6
CONTINUOUS
 70
0
 71
3
 72
11
 73
7
 74
0
 42
0.0000001
 43
0.0000001
 44
0.0000000001
 40
0.0
 40
0.0
 40
0.0
 40
0.0
 40
0.183442669
 40
0.4024345657
 40
0.6744260079
 40
1.0
 40
1.0
 40
1.0
 40
1.0
 10
-24.4312492027
 20
24.9011319755
 30
0.0
 10
-24.4194500543
 20
24.9118529713
 30
0.0
 10
-24.3863731854
 20
24.9277880001
 30
0.0
 10
-24.326630601
 20
24.9279553559
 30
0.0
 10
-24.2576343166
 20
24.9093793672
 30
0.0
 10
-24.2105114052
 20
24.8869738782
 30
0.0
 10
-24.1857604071
 20
24.8732636947
 30
0.0
  0
SPLINE
  5
274
100
AcDbEntity
  8
0
100
AcDbSpline
 62
250
  6
CONTINUOUS
 70
0
 71
3
 72
11
 73
7
 74
0
 42
0.0000001
 43
0.0000001
 44
0.0000000001
 40
0.0
 40
0.0
 40
0.0
 40
0.0
 40
0.1834465989
 40
0.3434736072
 40
0.5320275798
 40
1.0
 40
1.0
 40
1.0
 40
1.0
 10
-19.7006357243
 20
29.2191875551
 30
0.0
 10
-19.6888460054
 20
29.2299276151
 30
0.0
 10
-19.6606088412
 20
29.2436101621
 30
0.0
 10
-19.6139994251
 20
29.2466427964
 30
0.0
 10
-19.5435146823
 20
29.2350366562
 30
0.0
 10
-19.4906529602
 20
29.211108094
 30
0.0
 10
-19.4550641536
 20
29.1913945829
 30
0.0
  0
SPLINE
  5
275
100
AcDbEntity
  8
0
100
AcDbSpline
 62
250
  6
CONTINUOUS
 70
0
 71
3
 72
9
 73
5
 74
0
 42
0.0000001
 43
0.0000001
 44
0.0000000001
 40
0.0
 40
0.0
 40
0.0
 40
0.0
 40
0.2544987667
 40
1.0
 40
1.0
 40
1.0
 40
1.0
 10
15.7685540997
 20
-0.4790711781
 30
0.0
 10
16.2062139997
 20
-3.0792496471
 30
0.0
 10
18.0403129709
 20
-13.2763647627
 30
0.0
 10
20.3399315948
 20
-23.3910020959
 30
0.0
 10
22.3357555812
 20
-30.8525131041
 30
0.0
  0
SPLINE
  5
276
100
AcDbEntity
  8
0
100
AcDbSpline
 62
250
  6
CONTINUOUS
 70
0
 71
3
 72
9
 73
5
 74
0
 42
0.0000001
 43
0.0000001
 44
0.0000000001
 40
0.0
 40
0.0
 40
0.0
 40
0.0
 40
0.2453373957
 40
1.0
 40
1.0
 40
1.0
 40
1.0
 10
-18.6565677263
 20
-7.0150899576
 30
0.0
 10
-19.2860558837
 20
-4.5844694059
 30
0.0
 10
-21.7316208969
 20
5.3536922283
 30
0.0
 10
-23.7039345959
 20
15.4070609077
 30
0.0
 10
-24.9471252201
 20
23.0296517739
 30
0.0
  0
SPLINE
  5
277
100
AcDbEntity
  8
0
100
AcDbSpline
 62
250
  6
CONTINUOUS
 70
0
 71
3
 72
11
 73
7
 74
0
 42
0.0000001
 43
0.0000001
 44
0.0000000001
 40
0.0
 40
0.0
 40
0.0
 40
0.0
 40
0.2130255946
 40
0.444040078
 40
0.7052549789
 40
1.0
 40
1.0
 40
1.0
 40
1.0
 10
-19.5670682243
 20
29.3235409083
 30
0.0
 10
-19.5510686716
 20
29.3340804156
 30
0.0
 10
-19.513221777
 20
29.349773875
 30
0.0
 10
-19.4488977405
 20
29.3527781036
 30
0.0
 10
-19.379249885
 20
29.3369790537
 30
0.0
 10
-19.3334953185
 20
29.3160258503
 30
0.0
 10
-19.3103328298
 20
29.3031337346
 30
0.0
  0
SPLINE
  5
278
100
AcDbEntity
  8
0
100
AcDbSpline
 62
250
  6
CONTINUOUS
 70
0
 71
3
 72
9
 73
5
 74
0
 42
0.0000001
 43
0.0000001
 44
0.0000000001
 40
0.0
 40
0.0
 40
0.0
 40
0.0
 40
0.4707965966
 40
1.0
 40
1.0
 40
1.0
 40
1.0
 10
-18.3478521454
 20
-7.5970221925
 30
0.0
 10
-18.4103609002
 20
-7.5578599779
 30
0.0
 10
-18.5241865102
 20
-7.4423275704
 30
0.0
 10
-18.5840911311
 20
-7.2940426477
 30
0.0
 10
-18.6050310007
 20
-7.2138160402
 30
0.0
  0
SPLINE
  5
279
100
AcDbEntity
  8
0
100
AcDbSpline
 62
250
  6
CONTINUOUS
 70
0
 71
3
 72
9
 73
5
 74
0
 42
0.0000001
 43
0.0000001
 44
0.0000000001
 40
0.0
 40
0.0
 40
0.0
 40
0.0
 40
0.26588605
 40
1.0
 40
1.0
 40
1.0
 40
1.0
 10
-0.922847747
 20
25.7081465071
 30
0.0
 10
-0.9228165766
 20
25.7040038723
 30
0.0
 10
-0.923232439
 20
25.6884342886
 30
0.0
 10
-0.9258567155
 20
25.672845875
 30
0.0
 10
-0.9294285306
 20
25.661979686
 30
0.0
  0
SPLINE
  5
27A
100
AcDbEntity
  8
0
100
AcDbSpline
 62
250
  6
CONTINUOUS
 70
0
 71
3
 72
9
 73
5
 74
0
 42
0.0000001
 43
0.0000001
 44
0.0000000001
 40
0.0
 40
0.0
 40
0.0
 40
0.0
 40
0.5500013563
 40
1.0
 40
1.0
 40
1.0
 40
1.0
 10
-0.7144019837
 20
26.0755513546
 30
0.0
 10
-0.6981762203
 20
26.0850848627
 30
0.0
 10
-0.6703138986
 20
26.106776369
 30
0.0
 10
-0.6570530647
 20
26.1410931364
 30
0.0
 10
-0.6570520896
 20
26.1564905985
 30
0.0
  0
SPLINE
  5
27B
100
AcDbEntity
  8
0
100
AcDbSpline
 62
250
  6
CONTINUOUS
 70
0
 71
3
 72
9
 73
5
 74
0
 42
0.0000001
 43
0.0000001
 44
0.0000000001
 40
0.0
 40
0.0
 40
0.0
 40
0.0
 40
0.5500013563
 40
1.0
 40
1.0
 40
1.0
 40
1.0
 10
22.6201217955
 20
12.6024897748
 30
0.0
 10
22.6363475588
 20
12.6120232829
 30
0.0
 10
22.6642098805
 20
12.6337147892
 30
0.0
 10
22.6774707145
 20
12.6680315566
 30
0.0
 10
22.6774716895
 20
12.6834290186
 30
0.0
  0
SPLINE
  5
27C
100
AcDbEntity
  8
0
100
AcDbSpline
 62
250
  6
CONTINUOUS
 70
0
 71
3
 72
9
 73
5
 74
0
 42
0.0000001
 43
0.0000001
 44
0.0000000001
 40
0.0
 40
0.0
 40
0.0
 40
0.0
 40
0.5269609033
 40
1.0
 40
1.0
 40
1.0
 40
1.0
 10
22.3357555812
 20
-30.8525131041
 30
0.0
 10
22.3580491824
 20
-30.9362606203
 30
0.0
 10
22.4230269393
 20
-31.0915052816
 30
0.0
 10
22.546558217
 20
-31.2092055345
 30
0.0
 10
22.613883474
 20
-31.2481867106
 30
0.0
  0
SPLINE
  5
27D
100
AcDbEntity
  8
0
100
AcDbSpline
 62
250
  6
CONTINUOUS
 70
0
 71
3
 72
9
 73
5
 74
0
 42
0.0000001
 43
0.0000001
 44
0.0000000001
 40
0.0
 40
0.0
 40
0.0
 40
0.0
 40
0.2420099679
 40
1.0
 40
1.0
 40
1.0
 40
1.0
 10
21.5939063376
 20
5.6855386898
 30
0.0
 10
21.5813263638
 20
5.6776461392
 30
0.0
 10
21.5300595112
 20
5.6439007502
 30
0.0
 10
21.481647026
 20
5.6058830467
 30
0.0
 10
21.4466264767
 20
5.5752710315
 30
0.0
  0
SPLINE
  5
27E
100
AcDbEntity
  8
0
100
AcDbSpline
 62
250
  6
CONTINUOUS
 70
0
 71
3
 72
9
 73
5
 74
0
 42
0.0000001
 43
0.0000001
 44
0.0000000001
 40
0.0
 40
0.0
 40
0.0
 40
0.0
 40
0.2581613927
 40
1.0
 40
1.0
 40
1.0
 40
1.0
 10
-19.4550641536
 20
29.1913945829
 30
0.0
 10
-19.4433601505
 20
29.2019242608
 30
0.0
 10
-19.3973014066
 20
29.2418934103
 30
0.0
 10
-19.3482880716
 20
29.2785161102
 30
0.0
 10
-19.3103328298
 20
29.3031337346
 30
0.0
  0
SPLINE
  5
27F
100
AcDbEntity
  8
0
100
AcDbSpline
 62
250
  6
CONTINUOUS
 70
0
 71
3
 72
12
 73
8
 74
0
 42
0.0000001
 43
0.0000001
 44
0.0000000001
 40
0.0
 40
0.0
 40
0.0
 40
0.0
 40
0.2501829525
 40
0.3646528678
 40
0.4776074875
 40
0.7172596711
 40
1.0
 40
1.0
 40
1.0
 40
1.0
 10
23.0249127719
 20
-30.7585517299
 30
0.0
 10
23.0425642639
 20
-30.8245319388
 30
0.0
 10
23.0857684994
 20
-30.9190048532
 30
0.0
 10
23.181962062
 20
-31.009041315
 30
0.0
 10
23.2963500413
 20
-31.0689610334
 30
0.0
 10
23.4765653861
 20
-31.0814990071
 30
0.0
 10
23.6137553286
 20
-31.0329389673
 30
0.0
 10
23.6828489718
 20
-30.9985271151
 30
0.0
  0
SPLINE
  5
280
100
AcDbEntity
  8
0
100
AcDbSpline
 62
250
  6
CONTINUOUS
 70
0
 71
3
 72
9
 73
5
 74
0
 42
0.0000001
 43
0.0000001
 44
0.0000000001
 40
0.0
 40
0.0
 40
0.0
 40
0.0
 40
0.2544986274
 40
1.0
 40
1.0
 40
1.0
 40
1.0
 10
16.4641659383
 20
-0.4154182588
 30
0.0
 10
16.9013958715
 20
-3.0130013175
 30
0.0
 10
18.7336928671
 20
-13.1999431795
 30
0.0
 10
21.0310520026
 20
-23.3044869604
 30
0.0
 10
23.0249127719
 20
-30.7585517299
 30
0.0
  0
SPLINE
  5
281
100
AcDbEntity
  8
0
100
AcDbSpline
 62
250
  6
CONTINUOUS
 70
0
 71
3
 72
11
 73
7
 74
0
 42
0.0000001
 43
0.0000001
 44
0.0000000001
 40
0.0
 40
0.0
 40
0.0
 40
0.0
 40
0.2585726729
 40
0.526337167
 40
0.7798451023
 40
1.0
 40
1.0
 40
1.0
 40
1.0
 10
16.9866826371
 20
0.8050300957
 30
0.0
 10
16.8969152856
 20
0.7276769699
 30
0.0
 10
16.7346472592
 20
0.5457419604
 30
0.0
 10
16.5572165103
 20
0.2325613054
 30
0.0
 10
16.4558986211
 20
-0.0944532279
 30
0.0
 10
16.447424919
 20
-0.3159252058
 30
0.0
 10
16.4641659383
 20
-0.4154182588
 30
0.0
  0
SPLINE
  5
282
100
AcDbEntity
  8
0
100
AcDbSpline
 62
250
  6
CONTINUOUS
 70
0
 71
3
 72
9
 73
5
 74
0
 42
0.0000001
 43
0.0000001
 44
0.0000000001
 40
0.0
 40
0.0
 40
0.0
 40
0.0
 40
0.2421537074
 40
1.0
 40
1.0
 40
1.0
 40
1.0
 10
21.9597390776
 20
5.0808778515
 30
0.0
 10
21.9533960158
 20
5.0769638491
 30
0.0
 10
21.9275559526
 20
5.0602293463
 30
0.0
 10
21.9031332162
 20
5.0413384488
 30
0.0
 10
21.8854620129
 20
5.0261118957
 30
0.0
  0
SPLINE
  5
283
100
AcDbEntity
  8
0
100
AcDbSpline
 62
250
  6
CONTINUOUS
 70
0
 71
3
 72
11
 73
7
 74
0
 42
0.0000001
 43
0.0000001
 44
0.0000000001
 40
0.0
 40
0.0
 40
0.0
 40
0.0
 40
0.2372300746
 40
0.4999357123
 40
0.7626725333
 40
1.0
 40
1.0
 40
1.0
 40
1.0
 10
-0.922847747
 20
25.7081465071
 30
0.0
 10
-0.8931612821
 20
25.7258944769
 30
0.0
 10
-0.8371098974
 20
25.7742767622
 30
0.0
 10
-0.7717902215
 20
25.8652501716
 30
0.0
 10
-0.727189061
 20
25.9679964904
 30
0.0
 10
-0.7144060634
 20
26.0409499232
 30
0.0
 10
-0.7144019837
 20
26.0755513546
 30
0.0
  0
SPLINE
  5
284
100
AcDbEntity
  8
0
100
AcDbSpline
 62
250
  6
CONTINUOUS
 70
0
 71
3
 72
11
 73
7
 74
0
 42
0.0000001
 43
0.0000001
 44
0.0000000001
 40
0.0
 40
0.0
 40
0.0
 40
0.0
 40
0.2346294867
 40
0.4977695627
 40
0.7621155452
 40
1.0
 40
1.0
 40
1.0
 40
1.0
 10
21.9597390776
 20
5.0808778515
 30
0.0
 10
21.9570402371
 20
5.1378323796
 30
0.0
 10
21.9302710787
 20
5.2576693388
 30
0.0
 10
21.8501676643
 20
5.4259381569
 30
0.0
 10
21.7377324397
 20
5.5755633328
 30
0.0
 10
21.6435012032
 20
5.6558354781
 30
0.0
 10
21.5939063376
 20
5.6855386898
 30
0.0
  0
SPLINE
  5
285
100
AcDbEntity
  8
0
100
AcDbSpline
 62
250
  6
CONTINUOUS
 70
0
 71
3
 72
11
 73
7
 74
0
 42
0.0000001
 43
0.0000001
 44
0.0000000001
 40
0.0
 40
0.0
 40
0.0
 40
0.0
 40
0.2221299838
 40
0.4845703826
 40
0.7552106206
 40
1.0
 40
1.0
 40
1.0
 40
1.0
 10
21.8854620129
 20
5.0261118957
 30
0.0
 10
21.8715660886
 20
5.0772356686
 30
0.0
 10
21.8232391568
 20
5.1836561155
 30
0.0
 10
21.7211048694
 20
5.3326764141
 30
0.0
 10
21.5942176759
 20
5.4688951462
 30
0.0
 10
21.496653514
 20
5.5451733979
 30
0.0
 10
21.4466264767
 20
5.5752710315
 30
0.0
  0
SPLINE
  5
286
100
AcDbEntity
  8
0
100
AcDbSpline
 62
250
  6
CONTINUOUS
 70
0
 71
3
 72
11
 73
7
 74
0
 42
0.0000001
 43
0.0000001
 44
0.0000000001
 40
0.0
 40
0.0
 40
0.0
 40
0.0
 40
0.222129969
 40
0.4845703639
 40
0.7552106089
 40
1.0
 40
1.0
 40
1.0
 40
1.0
 10
16.9866826371
 20
0.8050300957
 30
0.0
 10
16.972786712
 20
0.8561538647
 30
0.0
 10
16.9244597807
 20
0.962574306
 30
0.0
 10
16.8223254958
 20
1.1115946022
 30
0.0
 10
16.6954383031
 20
1.2478133389
 30
0.0
 10
16.5978741397
 20
1.3240915954
 30
0.0
 10
16.5478471009
 20
1.3541892316
 30
0.0
  0
SPLINE
  5
287
100
AcDbEntity
  8
0
100
AcDbSpline
 62
250
  6
CONTINUOUS
 70
0
 71
3
 72
11
 73
7
 74
0
 42
0.0000001
 43
0.0000001
 44
0.0000000001
 40
0.0
 40
0.0
 40
0.0
 40
0.0
 40
0.2482656074
 40
0.5114501632
 40
0.7683303149
 40
1.0
 40
1.0
 40
1.0
 40
1.0
 10
16.4641659383
 20
-0.4154182588
 30
0.0
 10
16.4158512216
 20
-0.4519353858
 30
0.0
 10
16.3032767484
 20
-0.5104560097
 30
0.0
 10
16.1184589785
 20
-0.5513528131
 30
0.0
 10
15.9332636189
 20
-0.5454742054
 30
0.0
 10
15.8175556259
 20
-0.5072258396
 30
0.0
 10
15.7685540997
 20
-0.4790711781
 30
0.0
  0
SPLINE
  5
288
100
AcDbEntity
  8
0
100
AcDbSpline
 62
250
  6
CONTINUOUS
 70
0
 71
3
 72
10
 73
6
 74
0
 42
0.0000001
 43
0.0000001
 44
0.0000000001
 40
0.0
 40
0.0
 40
0.0
 40
0.0
 40
0.254419873
 40
0.5193554808
 40
1.0
 40
1.0
 40
1.0
 40
1.0
 10
23.0249127719
 20
-30.7585517299
 30
0.0
 10
22.9780171787
 20
-30.7987624205
 30
0.0
 10
22.8677669335
 20
-30.8650641796
 30
0.0
 10
22.6337958225
 20
-30.9310052767
 30
0.0
 10
22.4369821746
 20
-30.9105889585
 30
0.0
 10
22.335755581
 20
-30.8525131035
 30
0.0
  0
SPLINE
  5
289
100
AcDbEntity
  8
0
100
AcDbSpline
 62
250
  6
CONTINUOUS
 70
0
 71
3
 72
11
 73
7
 74
0
 42
0.0000001
 43
0.0000001
 44
0.0000000001
 40
0.0
 40
0.0
 40
0.0
 40
0.0
 40
0.2886533508
 40
0.5481413431
 40
0.7816673406
 40
1.0
 40
1.0
 40
1.0
 40
1.0
 10
23.6828489718
 20
-30.9985271151
 30
0.0
 10
23.6816265479
 20
-31.0256875232
 30
0.0
 10
23.6750271772
 20
-31.0772515754
 30
0.0
 10
23.6504043163
 20
-31.147351254
 30
0.0
 10
23.6118010183
 20
-31.2032762337
 30
0.0
 10
23.5768412415
 20
-31.2292169625
 30
0.0
 10
23.5584370704
 20
-31.2383921733
 30
0.0
  0
SPLINE
  5
28A
100
AcDbEntity
  8
0
100
AcDbSpline
 62
250
  6
CONTINUOUS
 70
0
 71
3
 72
9
 73
5
 74
0
 42
0.0000001
 43
0.0000001
 44
0.0000000001
 40
0.0
 40
0.0
 40
0.0
 40
0.0
 40
0.480123049
 40
1.0
 40
1.0
 40
1.0
 40
1.0
 10
-18.7471172742
 20
-7.0379914419
 30
0.0
 10
-18.7378314393
 20
-7.0737154053
 30
0.0
 10
-18.7009580134
 20
-7.1443032173
 30
0.0
 10
-18.6395882759
 20
-7.193736698
 30
0.0
 10
-18.6050310007
 20
-7.2138160402
 30
0.0
  0
SPLINE
  5
28B
100
AcDbEntity
  8
0
100
AcDbSpline
 62
250
  6
CONTINUOUS
 70
0
 71
3
 72
11
 73
7
 74
0
 42
0.0000001
 43
0.0000001
 44
0.0000000001
 40
0.0
 40
0.0
 40
0.0
 40
0.0
 40
0.2583711529
 40
0.5261771993
 40
0.7798195656
 40
1.0
 40
1.0
 40
1.0
 40
1.0
 10
16.5478471009
 20
1.3541892316
 30
0.0
 10
16.4138646248
 20
1.237629537
 30
0.0
 10
16.1718038223
 20
0.9637781634
 30
0.0
 10
15.9072819258
 20
0.4932336546
 30
0.0
 10
15.7562598783
 20
0.0023970325
 30
0.0
 10
15.7435627773
 20
-0.329810883
 30
0.0
 10
15.7685540997
 20
-0.4790711781
 30
0.0
  0
SPLINE
  5
28C
100
AcDbEntity
  8
0
100
AcDbSpline
 62
250
  6
CONTINUOUS
 70
0
 71
3
 72
11
 73
7
 74
0
 42
0.0000001
 43
0.0000001
 44
0.0000000001
 40
0.0
 40
0.0
 40
0.0
 40
0.0
 40
0.2202068141
 40
0.4743719849
 40
0.7423572429
 40
1.0
 40
1.0
 40
1.0
 40
1.0
 10
-24.9471252201
 20
23.0296517739
 30
0.0
 10
-24.9716050284
 20
23.1789593434
 30
0.0
 10
-24.9590175465
 20
23.5111282971
 30
0.0
 10
-24.8118173494
 20
24.003208611
 30
0.0
 10
-24.553784445
 20
24.4768869885
 30
0.0
 10
-24.3170776672
 20
24.7545504167
 30
0.0
 10
-24.1857604071
 20
24.8732636947
 30
0.0
  0
SPLINE
  5
28D
100
AcDbEntity
  8
0
100
AcDbSpline
 62
250
  6
CONTINUOUS
 70
0
 71
3
 72
9
 73
5
 74
0
 42
0.0000001
 43
0.0000001
 44
0.0000000001
 40
0.0
 40
0.0
 40
0.0
 40
0.0
 40
0.2574911799
 40
1.0
 40
1.0
 40
1.0
 40
1.0
 10
22.617174058
 20
12.5599466869
 30
0.0
 10
22.6176587764
 20
12.5635761775
 30
0.0
 10
22.6193265101
 20
12.5776988295
 30
0.0
 10
22.6201205505
 20
12.5919307512
 30
0.0
 10
22.6201217955
 20
12.6024897748
 30
0.0
  0
ELLIPSE
  5
28E
100
AcDbEntity
  8
0
100
AcDbEllipse
 62
7
  6
CONTINUOUS
 10
24.755592003
 20
-30.0835182666
 30
0.0
 11
-0.2498600223
 21
0.43379745
 31
0.0
 40
0.5768037941
 41
-3.1764860357
 42
-2.355482613
  0
ELLIPSE
  5
28F
100
AcDbEntity
  8
0
100
AcDbEllipse
 62
7
  6
CONTINUOUS
 10
24.755592003
 20
7.2280529031
 30
0.0
 11
-0.2496303025
 21
0.4334023309
 31
0.0
 40
0.5778584463
 41
-2.3545649475
 42
-0.7846820092
  0
ELLIPSE
  5
290
100
AcDbEntity
  8
0
100
AcDbEllipse
 62
7
  6
CONTINUOUS
 10
21.1130103622
 20
5.1905855488
 30
0.0
 11
0.7009987573
 21
0.7487818406
 31
0.0
 40
0.1950293141
 41
0.8831982376
 42
1.0926377479
  0
ELLIPSE
  5
291
100
AcDbEntity
  8
0
100
AcDbEllipse
 62
7
  6
CONTINUOUS
 10
24.0060822137
 20
11.8993134025
 30
0.0
 11
-0.2500120911
 21
0.4330057209
 31
0.0
 40
0.5775075436
 41
-2.3560905478
 42
-0.7855988075
  0
ELLIPSE
  5
292
100
AcDbEntity
  8
0
100
AcDbEllipse
 62
7
  6
CONTINUOUS
 10
-6.5974383615
 20
29.5694026304
 30
0.0
 11
-0.2500882309
 21
0.4331376414
 31
0.0
 40
0.5771558487
 41
-0.7852941622
 42
-0.0174471304
  0
ELLIPSE
  5
293
100
AcDbEntity
  8
0
100
AcDbEllipse
 62
7
  6
CONTINUOUS
 10
-16.2564935937
 20
30.9079171244
 30
0.0
 11
-0.2498600223
 21
0.43379745
 31
0.0
 40
0.5768037941
 41
-0.7837728977
 42
0.0348933813
  0
ELLIPSE
  5
294
100
AcDbEntity
  8
0
100
AcDbEllipse
 62
7
  6
CONTINUOUS
 10
6.8163842276
 20
10.3259000232
 30
0.0
 11
0.5648228186
 21
0.1743596436
 31
0.0
 40
0.5943281464
 41
-0.2581406827
 42
0.50375177
  0
ELLIPSE
  5
295
100
AcDbEntity
  8
0
100
AcDbEllipse
 62
7
  6
CONTINUOUS
 10
-6.9376277175
 20
18.267294142
 30
0.0
 11
0.4681907408
 21
0.2481640843
 31
0.0
 40
0.7396105969
 41
0.4339943343
 42
1.1958867869
  0
ELLIPSE
  5
296
100
AcDbEntity
  8
0
100
AcDbEllipse
 62
7
  6
CONTINUOUS
 10
16.4351565519
 20
1.9858001494
 30
0.0
 11
0.4424202008
 21
0.2509601527
 31
0.0
 40
0.853779547
 41
-2.6766637673
 42
-1.3358126359
  0
ELLIPSE
  5
297
100
AcDbEntity
  8
0
100
AcDbEllipse
 62
7
  6
CONTINUOUS
 10
-21.1829422434
 20
23.3424832939
 30
0.0
 11
0.6662008516
 21
0.783243265
 31
0.0
 40
0.4013586625
 41
0.0733991677
 42
1.2046969342
  0
ELLIPSE
  5
298
100
AcDbEntity
  8
0
100
AcDbEllipse
 62
7
  6
CONTINUOUS
 10
-21.0079689138
 20
23.4938837566
 30
0.0
 11
0.6176432459
 21
0.1197475268
 31
0.0
 40
0.5576070163
 41
2.3715038476
 42
3.0772521835
  0
ELLIPSE
  5
299
100
AcDbEntity
  8
0
100
AcDbEllipse
 62
7
  6
CONTINUOUS
 10
-18.7554226353
 20
28.2101190928
 30
0.0
 11
-0.2260065885
 21
1.0721778172
 31
0.0
 40
0.7908072398
 41
0.2206190686
 42
0.4300585788
  0
ELLIPSE
  5
29A
100
AcDbEntity
  8
0
100
AcDbEllipse
 62
7
  6
CONTINUOUS
 10
7.3510439325
 20
11.5048199086
 30
0.0
 11
0.6405805208
 21
0.6230113239
 31
0.0
 40
0.4556084148
 41
-0.6337177639
 42
0.1281746887
  0
ELLIPSE
  5
29B
100
AcDbEntity
  8
0
100
AcDbEllipse
 62
7
  6
CONTINUOUS
 10
-6.8980879941
 20
19.7320900995
 30
0.0
 11
0.3359755251
 21
0.8052002193
 31
0.0
 40
0.477908955
 41
-0.0615921976
 42
0.7003002551
  0
ELLIPSE
  5
29C
100
AcDbEntity
  8
0
100
AcDbEllipse
 62
7
  6
CONTINUOUS
 10
21.0099785934
 20
5.9757948786
 30
0.0
 11
0.792293723
 21
0.2253637669
 31
0.0
 40
0.3898616163
 41
5.5133468654
 42
6.6446446319
  0
ELLIPSE
  5
29D
100
AcDbEntity
  8
0
100
AcDbEllipse
 62
7
  6
CONTINUOUS
 10
-18.8035824489
 20
28.9636460433
 30
0.0
 11
0.573150186
 21
0.3698534857
 31
0.0
 40
0.568519923
 41
0.2838538993
 42
1.4151516658
  0
ELLIPSE
  5
29E
100
AcDbEntity
  8
0
100
AcDbEllipse
 62
7
  6
CONTINUOUS
 10
-23.2991893138
 20
24.927913464
 30
0.0
 11
0.6100463411
 21
0.1239727098
 31
0.0
 40
0.5699929803
 41
2.3732512972
 42
3.682047192
  0
ENDSEC
  0
SECTION
  2
OBJECTS
  0
DICTIONARY
  5
C
100
AcDbDictionary
280
0
281
1
  3
ACAD_GROUP
350
D
  3
ACAD_MLINESTYLE
350
17
  3
ACAD_LAYOUT
350
1A
  3
ACAD_PLOTSETTINGS
350
19
  3
ACAD_PLOTSTYLENAME
350
E
  0
DICTIONARY
  5
D
102
{ACAD_REACTORS
330
C
102
}
100
AcDbDictionary
280
0
281
1
  0
ACDBDICTIONARYWDFLT
  5
E
102
{ACAD_REACTORS
330
C
102
}
100
AcDbDictionary
281
1
  3
Normal
350
F
100
AcDbDictionaryWithDefault
340
F
  0
DICTIONARY
  5
17
102
{ACAD_REACTORS
330
C
102
}
100
AcDbDictionary
280
0
281
1
  3
Standard
350
18
  0
DICTIONARY
  5
19
102
{ACAD_REACTORS
330
C
102
}
100
AcDbDictionary
281
1
  0
DICTIONARY
  5
1A
102
{ACAD_REACTORS
330
C
102
}
100
AcDbDictionary
281
1
  3
Model
350
29F
  3
Layout1
350
2A0
  0
ACDBPLACEHOLDER
  5
F
102
{ACAD_REACTORS
330
E
102
}
  0
MLINESTYLE
  5
18
102
{ACAD_REACTORS
330
17
102
}
100
AcDbMlineStyle
  2
STANDARD
 70
0
  3

 62
256
 51
90.0
 52
90.0
 71
2
 49
0.5
 62
256
  6
BYLAYER
 49
-0.5
 62
256
  6
BYLAYER
  0
LAYOUT
  5
29F
102
{ACAD_REACTORS
330
1A
102
}
100
AcDbPlotSettings
  1

  2
none_device
  4
ANSI_C_(22.00_x_17.00_Inches)
  6

 40
0.0
 41
0.0
 42
0.0
 43
0.0
 44
558.8
 45
431.8
 46
0.0
 47
0.0
 48
0.0
 49
0.0
140
0.0
141
0.0
142
1.0
143
1.0
 70
1024
 72
1
 73
0
 74
0
  7

 75
0
147
1.0
148
0.0
149
0.0
100
AcDbLayout
  1
Model
 70
0
 71
0
 10
0.0
 20
0.0
 11
558.8
 21
431.8
 12
0.0
 22
0.0
 32
0.0
 14
0.0
 24
0.0
 34
0.0
 15
0.0
 25
0.0
 35
0.0
146
0.0
 13
0.0
 23
0.0
 33
0.0
 16
1.0
 26
0.0
 36
0.0
 17
0.0
 27
1.0
 37
0.0
 76
0
330
210
345
0
346
0
  0
LAYOUT
  5
2A0
102
{ACAD_REACTORS
330
1A
102
}
100
AcDbPlotSettings
  1

  2
none_device
  4
ANSI_C_(22.00_x_17.00_Inches)
  6

 40
0.0
 41
0.0
 42
0.0
 43
0.0
 44
558.8
 45
431.8
 46
0.0
 47
0.0
 48
0.0
 49
0.0
140
0.0
141
0.0
142
1.0
143
1.0
 70
0
 72
1
 73
0
 74
0
  7

 75
0
147
1.0
148
0.0
149
0.0
100
AcDbLayout
  1
Layout1
 70
0
 71
1
 10
0.0
 20
0.0
 11
558.8
 21
431.8
 12
0.0
 22
0.0
 32
0.0
 14
0.0
 24
0.0
 34
0.0
 15
0.0
 25
0.0
 35
0.0
146
0.0
 13
0.0
 23
0.0
 33
0.0
 16
1.0
 26
0.0
 36
0.0
 17
0.0
 27
1.0
 37
0.0
 76
0
330
211
345
0
346
0
  0
ENDSEC
  0
EOF
