  0
SECTION
  2
HEADER
  9
$ACADVER
  1
AC1021
  9
$DWGCODEPAGE
  3
ANSI_1252
  9
$EXTMAX
 10
210.0
 20
297.0
 30
0.0
  9
$EXTMIN
 10
0.0
 20
0.0
 30
0.0
  9
$LIMMIN
 10
0.0
 20
0.0
  9
$LIMMAX
 10
210.0
 20
297.0
  9
$VIEWCTR
 10
105.0
 20
148.5
  9
$VIEWSIZE
 40
297.0
  9
$CLAYER
  8
0
  9
$LTSCALE
 40
19.36
  9
$CELTYPE
  6
BYLAYER
  9
$DIMSCALE
 40
1.0
  9
$DIMASZ
 40
3.0
  9
$DIMEXO
 40
0.5
  9
$DIMDLI
 40
13.376
  9
$DIMEXE
 40
1.5
  9
$DIMCEN
 40
3.168
  9
$DIMLFAC
 40
1.0
  9
$DIMBLK
  1
_FILLED
  9
$DIMALT
 70
0
  9
$DIMALTF
 40
25.4
  9
$DIMTXT
 40
3.0
  9
$DIMTOL
 70
1
  9
$DIMLIM
 70
0
  9
$DIMTFAC
 40
1.0
  9
$DIMTP
 40
0.01
  9
$DIMTM
 40
0.01
  9
$DIMGAP
 40
0.625
  9
$DIMDSEP
 70
44
  9
$AUNITS
 70
0
  9
$PDMODE
 70
3
  9
$PDSIZE
 40
3.0
  9
$HANDSEED
  5
24B
  9
$TILEMODE
 70
1
  9
$MEASUREMENT
 70
1
  9
$INSUNITS
 70
4
  0
ENDSEC
  0
SECTION
  2
CLASSES
  0
CLASS
  1
ACDBDICTIONARYWDFLT
  2
AcDbDictionaryWithDefault
  3
AutoCAD 2000
 90
0
 91
1
280
0
281
0
  0
CLASS
  1
ACDBPLACEHOLDER
  2
AcDbPlaceHolder
  3
AutoCAD 2000
 90
0
 91
1
280
0
281
0
  0
CLASS
  1
LAYOUT
  2
AcDbLayout
  3
AutoCAD 2000
 90
0
 91
0
280
0
281
0
  0
ENDSEC
  0
SECTION
  2
TABLES
  0
TABLE
  2
VPORT
  5
8
100
AcDbSymbolTable
 70
2
  0
VPORT
  5
1F4
100
AcDbSymbolTableRecord
100
AcDbViewportTableRecord
  2
*ACTIVE
 70
0
 10
0.0
 20
0.0
 11
1.0
 21
1.0
 12
105.0
 22
148.5
 13
0.0
 23
0.0
 14
1.0
 24
1.0
 15
0.0
 25
0.0
 16
0.0
 26
0.0
 36
1.0
 17
0.0
 27
0.0
 37
0.0
 40
297.0
 41
0.7070707071
 42
50.0
 43
0.0
 44
0.0
 50
0.0
 51
0.0
 71
0
 72
100
 73
1
 74
1
 75
0
 76
0
 77
0
 78
0
  0
ENDTAB
  0
TABLE
  2
LTYPE
  5
5
100
AcDbSymbolTable
 70
6
  0
LTYPE
  5
14
100
AcDbSymbolTableRecord
100
AcDbLinetypeTableRecord
  2
BYBLOCK
 70
0
  3

 72
65
 73
0
 40
0.0
  0
LTYPE
  5
15
100
AcDbSymbolTableRecord
100
AcDbLinetypeTableRecord
  2
BYLAYER
 70
0
  3

 72
65
 73
0
 40
0.0
  0
LTYPE
  5
16
100
AcDbSymbolTableRecord
100
AcDbLinetypeTableRecord
  2
CONTINUOUS
 70
64
  3
Solid line
 72
65
 73
0
 40
0.0
  0
LTYPE
  5
1F5
100
AcDbSymbolTableRecord
100
AcDbLinetypeTableRecord
  2
CENTER
 70
64
  3
____ _ ____ _ ____ _ ____ _ ____ _ ____ _ ____
 72
65
 73
4
 40
0.6
 49
0.375
 74
0
 49
-0.075
 74
0
 49
0.075
 74
0
 49
-0.075
 74
0
  0
LTYPE
  5
1F6
100
AcDbSymbolTableRecord
100
AcDbLinetypeTableRecord
  2
HIDDEN
 70
64
  3
- - - - - - - - - - - - - - - - - - - -
 72
65
 73
2
 40
0.2
 49
0.1
 74
0
 49
-0.1
 74
0
  0
LTYPE
  5
1F7
100
AcDbSymbolTableRecord
100
AcDbLinetypeTableRecord
  2
PHANTOM
 70
64
  3
_____ _ _ _____ _ _ _____ _ _ _____
 72
65
 73
6
 40
0.8
 49
0.45
 74
0
 49
-0.05
 74
0
 49
0.1
 74
0
 49
-0.05
 74
0
 49
0.1
 74
0
 49
-0.05
 74
0
  0
LTYPE
  5
1F8
100
AcDbSymbolTableRecord
100
AcDbLinetypeTableRecord
  2
DOT
 70
64
  3
. . . . . . . . . . . . . . . . . . . .
 72
65
 73
2
 40
0.2
 49
0.1
 74
0
 49
-0.1
 74
0
  0
LTYPE
  5
1F9
100
AcDbSymbolTableRecord
100
AcDbLinetypeTableRecord
  2
DASHED
 70
64
  3
- - - - - - - - - - - - - - - - - - - -
 72
65
 73
2
 40
0.2
 49
0.1
 74
0
 49
-0.1
 74
0
  0
ENDTAB
  0
TABLE
  2
LAYER
  5
2
100
AcDbSymbolTable
 70
36
  0
LAYER
  5
10
100
AcDbSymbolTableRecord
100
AcDbLayerTableRecord
  2
0
 70
0
 62
7
  6
CONTINUOUS
370
-3
390
F
  0
LAYER
  5
1FA
100
AcDbSymbolTableRecord
100
AcDbLayerTableRecord
  2
DEFAULT_1
 70
0
 62
7
  6
CENTER
370
-3
390
F
  0
LAYER
  5
1FB
100
AcDbSymbolTableRecord
100
AcDbLayerTableRecord
  2
DEFAULT_2
 70
0
 62
7
  6
HIDDEN
370
-3
390
F
  0
LAYER
  5
1FC
100
AcDbSymbolTableRecord
100
AcDbLayerTableRecord
  2
DEFAULT_3
 70
0
 62
7
  6
PHANTOM
370
-3
390
F
  0
LAYER
  5
1FD
100
AcDbSymbolTableRecord
100
AcDbLayerTableRecord
  2
ASSI
 70
0
 62
7
  6
CONTINUOUS
370
-3
390
F
  0
LAYER
  5
1FE
100
AcDbSymbolTableRecord
100
AcDbLayerTableRecord
  2
COORDINATE
 70
0
 62
7
  6
CONTINUOUS
370
-3
390
F
  0
LAYER
  5
1FF
100
AcDbSymbolTableRecord
100
AcDbLayerTableRecord
  2
COORD_ORIGINE
 70
0
 62
7
  6
CONTINUOUS
370
-3
390
F
  0
LAYER
  5
200
100
AcDbSymbolTableRecord
100
AcDbLayerTableRecord
  2
COSMETICI
 70
0
 62
7
  6
CONTINUOUS
370
-3
390
F
  0
LAYER
  5
201
100
AcDbSymbolTableRecord
100
AcDbLayerTableRecord
  2
CURVE
 70
0
 62
7
  6
CONTINUOUS
370
-3
390
F
  0
LAYER
  5
202
100
AcDbSymbolTableRecord
100
AcDbLayerTableRecord
  2
CURVE_LED_TASTO
 70
0
 62
7
  6
CONTINUOUS
370
-3
390
F
  0
LAYER
  5
203
100
AcDbSymbolTableRecord
100
AcDbLayerTableRecord
  2
DRAFT
 70
0
 62
7
  6
CONTINUOUS
370
-3
390
F
  0
LAYER
  5
204
100
AcDbSymbolTableRecord
100
AcDbLayerTableRecord
  2
IGES_SCRITTE
 70
0
 62
7
  6
CONTINUOUS
370
-3
390
F
  0
LAYER
  5
205
100
AcDbSymbolTableRecord
100
AcDbLayerTableRecord
  2
INTF_1
 70
0
 62
7
  6
CONTINUOUS
370
-3
390
F
  0
LAYER
  5
206
100
AcDbSymbolTableRecord
100
AcDbLayerTableRecord
  2
INTF_11
 70
0
 62
7
  6
CONTINUOUS
370
-3
390
F
  0
LAYER
  5
207
100
AcDbSymbolTableRecord
100
AcDbLayerTableRecord
  2
NOTE
 70
0
 62
7
  6
CONTINUOUS
370
-3
390
F
  0
LAYER
  5
208
100
AcDbSymbolTableRecord
100
AcDbLayerTableRecord
  2
PIANI
 70
0
 62
7
  6
CONTINUOUS
370
-3
390
F
  0
LAYER
  5
209
100
AcDbSymbolTableRecord
100
AcDbLayerTableRecord
  2
PIANI_ORIGINE
 70
0
 62
7
  6
CONTINUOUS
370
-3
390
F
  0
LAYER
  5
20A
100
AcDbSymbolTableRecord
100
AcDbLayerTableRecord
  2
PIANI_RIFERIMENTO
 70
0
 62
7
  6
CONTINUOUS
370
-3
390
F
  0
LAYER
  5
20B
100
AcDbSymbolTableRecord
100
AcDbLayerTableRecord
  2
PUNTI
 70
0
 62
7
  6
CONTINUOUS
370
-3
390
F
  0
LAYER
  5
20C
100
AcDbSymbolTableRecord
100
AcDbLayerTableRecord
  2
RACCORDO
 70
0
 62
7
  6
CONTINUOUS
370
-3
390
F
  0
LAYER
  5
20D
100
AcDbSymbolTableRecord
100
AcDbLayerTableRecord
  2
RGB____0____0____0__
 70
0
 62
7
  6
CONTINUOUS
370
-3
390
F
  0
LAYER
  5
20E
100
AcDbSymbolTableRecord
100
AcDbLayerTableRecord
  2
SIMBOLI
 70
0
 62
7
  6
CONTINUOUS
370
-3
390
F
  0
LAYER
  5
20F
100
AcDbSymbolTableRecord
100
AcDbLayerTableRecord
  2
SMUSSO
 70
0
 62
7
  6
CONTINUOUS
370
-3
390
F
  0
LAYER
  5
210
100
AcDbSymbolTableRecord
100
AcDbLayerTableRecord
  2
SUPERFICI
 70
0
 62
7
  6
CONTINUOUS
370
-3
390
F
  0
LAYER
  5
211
100
AcDbSymbolTableRecord
100
AcDbLayerTableRecord
  2
TRASH
 70
0
 62
7
  6
CONTINUOUS
370
-3
390
F
  0
ENDTAB
  0
TABLE
  2
STYLE
  5
3
100
AcDbSymbolTable
 70
1
  0
STYLE
  5
11
100
AcDbSymbolTableRecord
100
AcDbTextStyleTableRecord
  2
STANDARD
 70
0
 40
0.0
 41
0.8
 50
0.0
 71
0
 42
0.2
  3
txt
  4

  0
STYLE
  5
212
100
AcDbSymbolTableRecord
100
AcDbTextStyleTableRecord
  2
TEXTSTYLE_1
 70
0
 40
0.0
 41
0.8
 50
0.0
 71
0
 42
0.2
  3
gdt
  4

  0
ENDTAB
  0
TABLE
  2
VIEW
  5
6
100
AcDbSymbolTable
 70
0
  0
ENDTAB
  0
TABLE
  2
UCS
  5
7
100
AcDbSymbolTable
 70
0
  0
ENDTAB
  0
TABLE
  2
APPID
  5
9
100
AcDbSymbolTable
 70
1
  0
APPID
  5
213
100
AcDbSymbolTableRecord
100
AcDbRegAppTableRecord
  2
ACAD
 70
0
  0
ENDTAB
  0
TABLE
  2
BLOCK_RECORD
  5
1
100
AcDbSymbolTable
 70
0
  0
BLOCK_RECORD
  5
214
100
AcDbSymbolTableRecord
100
AcDbBlockTableRecord
  2
*Model_Space
  0
BLOCK_RECORD
  5
215
100
AcDbSymbolTableRecord
100
AcDbBlockTableRecord
  2
*Paper_Space
  0
ENDTAB
  0
TABLE
  2
DIMSTYLE
  5
A
100
AcDbSymbolTable
 70
1
100
AcDbDimStyleTable
 71
0
  0
DIMSTYLE
105
216
100
AcDbSymbolTableRecord
100
AcDbDimStyleTableRecord
  2
STANDARD
 70
0
  3

  4

 40
1.0
 41
3.0
 42
0.5
 43
0.38
 44
1.5
 45
0.0
 46
0.0
 47
0.01
 48
0.01
140
3.0
141
0.09
142
0.0
143
25.4
144
1.0
145
0.0
146
1.0
147
0.625
 71
1.0
 72
0.0
 73
0
 74
0
 75
0
 76
0
 77
1
 78
8
170
0
171
1
172
0
173
0
174
0
175
0
176
0
177
0
178
0
270
2
271
2
272
2
273
2
274
2
275
0
280
0
281
0
282
0
283
1
284
8
285
0
286
0
287
3
288
0
340
11
278
44
  0
ENDTAB
  0
ENDSEC
  0
SECTION
  2
BLOCKS
  0
BLOCK
  5
20
100
AcDbEntity
  8
0
100
AcDbBlockBegin
  2
*Model_Space
 70
0
 10
0.0
 20
0.0
 30
0.0
  3
*Model_Space
  1

  0
ENDBLK
  5
21
100
AcDbEntity
  8
0
100
AcDbBlockEnd
  0
BLOCK
  5
1C
100
AcDbEntity
  8
0
100
AcDbBlockBegin
  2
*Paper_Space
 70
0
 10
0.0
 20
0.0
 30
0.0
  3
*Paper_Space
  1

  0
ENDBLK
  5
1D
100
AcDbEntity
  8
0
100
AcDbBlockEnd
  0
ENDSEC
  0
SECTION
  2
ENTITIES
  0
LWPOLYLINE
  5
217
100
AcDbEntity
  8
RACCORDO
100
AcDbPolyline
 62
7
  6
CONTINUOUS
 90
19
 70
0
 10
-16.624065155
 20
26.3953361694
 10
-16.6638366172
 20
26.3679703887
 10
-16.7299474929
 20
26.3172720245
 10
-16.7930607794
 20
26.2623455596
 10
-16.8531837438
 20
26.203496836
 10
-16.9103009308
 20
26.141005425
 10
-16.9642604009
 20
26.0752281815
 10
-17.0149855912
 20
26.0064407442
 10
-17.0623721332
 20
25.9348842692
 10
-17.1061672176
 20
25.8609912936
 10
-17.1462574339
 20
25.7850137293
 10
-17.1824889902
 20
25.7071802998
 10
-17.2146159059
 20
25.6279273594
 10
-17.2424938866
 20
25.5474682275
 10
-17.2659204118
 20
25.4660214358
 10
-17.2846628408
 20
25.3839167337
 10
-17.298498216
 20
25.3013153038
 10
-17.3071515327
 20
25.2183571752
 10
-17.3095759515
 20
25.1731953035
  0
LINE
  5
218
100
AcDbEntity
  8
RACCORDO
100
AcDbLine
 62
7
  6
CONTINUOUS
 10
-16.624168948
 20
26.3952766752
 11
-14.3459987455
 21
27.8977084983
  0
LINE
  5
219
100
AcDbEntity
  8
RACCORDO
100
AcDbLine
 62
253
  6
CONTINUOUS
 10
-16.3673995262
 20
26.3748661911
 11
-14.0878846792
 21
27.8781847947
  0
LWPOLYLINE
  5
21A
100
AcDbEntity
  8
RACCORDO
100
AcDbPolyline
 62
253
  6
CONTINUOUS
 90
9
 70
0
 10
-16.624069242
 20
26.3953423752
 10
-16.6031930512
 20
26.406893765
 10
-16.5751621311
 20
26.4167369683
 10
-16.5446550712
 20
26.4217774848
 10
-16.5120057248
 20
26.4219601538
 10
-16.4775713898
 20
26.4172829762
 10
-16.4417288976
 20
26.4077971365
 10
-16.40487049
 20
26.3936064429
 10
-16.3673995263
 20
26.3748661911
  0
LWPOLYLINE
  5
21B
100
AcDbEntity
  8
RACCORDO
100
AcDbPolyline
 62
7
  6
CONTINUOUS
 90
14
 70
0
 10
-17.3095414067
 20
-8.889065558
 10
-17.304285451
 20
-8.963321535
 10
-17.2935719611
 20
-9.0384051995
 10
-17.2778497892
 20
-9.109705252
 10
-17.2574956626
 20
-9.1769781552
 10
-17.2327932759
 20
-9.2403237958
 10
-17.203861426
 20
-9.3000209688
 10
-17.1710159946
 20
-9.3558333308
 10
-17.1345514254
 20
-9.407655371
 10
-17.0944468755
 20
-9.4557359219
 10
-17.051004051
 20
-9.499817174
 10
-17.0045290776
 20
-9.5397046791
 10
-16.9549037415
 20
-9.5755476485
 10
-16.9354163834
 20
-9.5879722435
  0
LWPOLYLINE
  5
21C
100
AcDbEntity
  8
RACCORDO
100
AcDbPolyline
 62
253
  6
CONTINUOUS
 90
9
 70
0
 10
-17.3095525825
 20
-8.8890659791
 10
-17.3092165691
 20
-8.8952559064
 10
-17.304486777
 20
-8.9254928554
 10
-17.2946855025
 20
-8.9551667517
 10
-17.2799132463
 20
-8.9839733233
 10
-17.2603214813
 20
-9.0116171918
 10
-17.2361110986
 20
-9.0378149007
 10
-17.2075303483
 20
-9.0622978223
 10
-17.1748722933
 20
-9.084814912
  0
LWPOLYLINE
  5
21D
100
AcDbEntity
  8
RACCORDO
100
AcDbPolyline
 62
253
  6
CONTINUOUS
 90
10
 70
0
 10
-17.1748722933
 20
-9.084814912
 10
-17.2975826348
 20
-5.3738059131
 10
-17.3896344158
 20
-1.643567348
 10
-17.4510122945
 20
2.1055226486
 10
-17.4817030008
 20
5.8731283067
 10
-17.4817029788
 20
9.6588980587
 10
-17.4510122218
 20
13.4624296123
 10
-17.3896343161
 20
17.2833668016
 10
-17.2975825638
 20
21.121357519
 10
-17.1748722938
 20
24.9760049451
  0
LWPOLYLINE
  5
21E
100
AcDbEntity
  8
RACCORDO
100
AcDbPolyline
 62
7
  6
CONTINUOUS
 90
10
 70
0
 10
-17.3095821748
 20
25.1733205417
 10
-17.4297201464
 20
21.3648980756
 10
-17.5214763636
 20
17.5118332447
 10
-17.5826505936
 20
13.6761529071
 10
-17.6132279399
 20
9.8582505176
 10
-17.6132051696
 20
6.05844859
 10
-17.5825816021
 20
2.2770427201
 10
-17.5213590759
 20
-1.4856477808
 10
-17.4295510926
 20
-5.2292465582
 10
-17.309554031
 20
-8.8890268556
  0
LWPOLYLINE
  5
21F
100
AcDbEntity
  8
RACCORDO
100
AcDbPolyline
 62
253
  6
CONTINUOUS
 90
22
 70
0
 10
-17.1748595266
 20
24.9760112218
 10
-17.1701776889
 20
25.0472922117
 10
-17.161323722
 20
25.1204376323
 10
-17.1483254724
 20
25.1950564937
 10
-17.131255979
 20
25.2707739488
 10
-17.1102040326
 20
25.3472284976
 10
-17.0852636939
 20
25.4240658172
 10
-17.0565549522
 20
25.5009146948
 10
-17.0242276066
 20
25.5773836195
 10
-16.988445945
 20
25.6530801502
 10
-16.9493841712
 20
25.7276160683
 10
-16.9072372671
 20
25.8006383606
 10
-16.8622081462
 20
25.8718092145
 10
-16.8144962687
 20
25.9407796115
 10
-16.7643477764
 20
26.0072006546
 10
-16.7120358361
 20
26.0707341821
 10
-16.6578139004
 20
26.1310459513
 10
-16.6019350954
 20
26.187852097
 10
-16.5446751653
 20
26.2408967391
 10
-16.4863020882
 20
26.28991388
 10
-16.4271019329
 20
26.334644619
 10
-16.3673990771
 20
26.3748565891
  0
LWPOLYLINE
  5
220
100
AcDbEntity
  8
RACCORDO
100
AcDbPolyline
 62
7
  6
CONTINUOUS
 90
14
 70
0
 10
13.7332594965
 20
-27.2956928156
 10
13.7481413145
 20
-27.3035359555
 10
13.8058147814
 20
-27.3300581156
 10
13.8666137586
 20
-27.3519216931
 10
13.930019916
 20
-27.3687199593
 10
13.9956888727
 20
-27.3801939261
 10
14.0632011295
 20
-27.3861146789
 10
14.1319396345
 20
-27.386313638
 10
14.2015795565
 20
-27.3807201671
 10
14.2717651029
 20
-27.3693122779
 10
14.3419744256
 20
-27.3521465315
 10
14.411931856
 20
-27.329280861
 10
14.4814890972
 20
-27.3007701665
 10
14.5187787188
 20
-27.2830664374
  0
LINE
  5
221
100
AcDbEntity
  8
RACCORDO
100
AcDbLine
 62
7
  6
CONTINUOUS
 10
13.7332191102
 20
-27.2956709504
 11
13.7332704296
 21
-27.295698751
  0
LWPOLYLINE
  5
222
100
AcDbEntity
  8
RACCORDO
100
AcDbPolyline
 62
253
  6
CONTINUOUS
 90
9
 70
0
 10
-17.3095759515
 20
25.1731953035
 10
-17.3092053301
 20
25.1560747988
 10
-17.3044747741
 20
25.12812337
 10
-17.2946729176
 20
25.1004542745
 10
-17.2799002648
 20
25.0733512194
 10
-17.2603082882
 20
25.0470921082
 10
-17.2360978757
 20
25.0219461908
 10
-17.2075172707
 20
24.9981713027
 10
-17.1748595266
 20
24.9760112218
  0
LWPOLYLINE
  5
223
100
AcDbEntity
  8
RACCORDO
100
AcDbPolyline
 62
253
  6
CONTINUOUS
 90
16
 70
0
 10
13.4774688415
 20
-26.7830925094
 10
11.3695934137
 20
-25.6390789438
 10
9.2708101394
 20
-24.4898822367
 10
7.181168496
 20
-23.335528865
 10
5.1007493405
 20
-22.1760632129
 10
3.0295598408
 20
-21.0114905581
 10
0.9675404726
 20
-19.8417776391
 10
-1.0852681171
 20
-18.6669469237
 10
-3.1288233235
 20
-17.487023593
 10
-5.1631786643
 20
-16.3019767724
 10
-7.1882903961
 20
-15.1118311694
 10
-9.2041200056
 20
-13.9166100482
 10
-11.2107257131
 20
-12.7162787296
 10
-13.2080987462
 20
-11.5108411662
 10
-15.1961626819
 20
-10.3003438068
 10
-17.1748722766
 20
-9.0848149104
  0
LWPOLYLINE
  5
224
100
AcDbEntity
  8
RACCORDO
100
AcDbPolyline
 62
7
  6
CONTINUOUS
 90
10
 70
0
 10
-16.9355933236
 20
-9.5878717971
 10
-13.6836363007
 20
-11.576386298
 10
-10.3379597636
 20
-13.593258788
 10
-6.9659197466
 20
-15.5969867281
 10
-3.5676954625
 20
-17.5874515512
 10
-0.1434721386
 20
-19.564538623
 10
3.3065553839
 20
-21.5281358327
 10
6.7821871788
 20
-23.4781362644
 10
10.2832157173
 20
-25.4144359834
 10
13.7332703774
 20
-27.2957054021
  0
LWPOLYLINE
  5
225
100
AcDbEntity
  8
RACCORDO
100
AcDbPolyline
 62
253
  6
CONTINUOUS
 90
12
 70
0
 10
-16.9355891565
 20
-9.5878659043
 10
-16.9493841674
 20
-9.5789805426
 10
-16.9884459418
 20
-9.5491261287
 10
-17.0242276038
 20
-9.5143501817
 10
-17.0565549499
 20
-9.4748304219
 10
-17.0852636919
 20
-9.4307880761
 10
-17.1102040309
 20
-9.3824382538
 10
-17.1312559775
 20
-9.3300058777
 10
-17.1483254712
 20
-9.2737497245
 10
-17.1613237213
 20
-9.2139307402
 10
-17.170177689
 20
-9.1508307495
 10
-17.1748595273
 20
-9.0848074252
  0
LINE
  5
226
100
AcDbEntity
  8
RACCORDO
100
AcDbLine
 62
253
  6
CONTINUOUS
 10
16.6379400922
 20
10.1374786567
 11
14.2774333661
 21
8.6809237475
  0
LWPOLYLINE
  5
227
100
AcDbEntity
  8
RACCORDO
100
AcDbPolyline
 62
253
  6
CONTINUOUS
 90
16
 70
0
 10
14.1658882898
 20
7.2635000415
 10
14.1277663384
 20
7.2460528034
 10
14.0864738185
 20
7.2309138751
 10
14.0424341379
 20
7.2182384891
 10
13.9960988735
 20
7.2081566171
 10
13.9479431407
 20
7.2007716371
 10
13.8984607217
 20
7.1961592738
 10
13.8481590024
 20
7.1943668218
 10
13.7975537699
 20
7.1954126604
 10
13.7471639231
 20
7.199286066
 10
13.6975061526
 20
7.205947321
 10
13.6490896424
 20
7.215328122
 10
13.6024108487
 20
7.2273322795
 10
13.5579484095
 20
7.2418367047
 10
13.5161582364
 20
7.2586926711
 10
13.4774688402
 20
7.27772734
  0
LINE
  5
228
100
AcDbEntity
  8
0
100
AcDbLine
 62
253
  6
CONTINUOUS
 10
17.5480227349
 20
-11.1997354273
 11
17.8747315012
 21
-11.3883729744
  0
LINE
  5
229
100
AcDbEntity
  8
0
100
AcDbLine
 62
7
  6
CONTINUOUS
 10
17.5463588856
 20
-11.0917923867
 11
17.9780285111
 21
-11.3410330184
  0
LWPOLYLINE
  5
22A
100
AcDbEntity
  8
RACCORDO
100
AcDbPolyline
 62
253
  6
CONTINUOUS
 90
22
 70
0
 10
14.2774338153
 20
8.6809141449
 10
14.2182293468
 20
8.6404144136
 10
14.1595033846
 20
8.5954098881
 10
14.1015917959
 20
8.5461262942
 10
14.0448027318
 20
8.4928097806
 10
13.9894017208
 20
8.4357277612
 10
13.9356384477
 20
8.3751511642
 10
13.8837739193
 20
8.3113593061
 10
13.8340716906
 20
8.2446805961
 10
13.7867821134
 20
8.1754663684
 10
13.7421584097
 20
8.1040614317
 10
13.7004088168
 20
8.0308097365
 10
13.661715992
 20
7.9560607913
 10
13.6262800097
 20
7.8801646691
 10
13.5942831554
 20
7.8035049221
 10
13.5658736958
 20
7.7264832424
 10
13.541204389
 20
7.6494894324
 10
13.5204019179
 20
7.57289084
 10
13.5035490217
 20
7.497048324
 10
13.4907327766
 20
7.4223243738
 10
13.482033737
 20
7.3490894968
 10
13.4774807565
 20
7.2777341041
  0
LWPOLYLINE
  5
22B
100
AcDbEntity
  8
RACCORDO
100
AcDbPolyline
 62
253
  6
CONTINUOUS
 90
22
 70
0
 10
14.643266106
 20
8.0762629092
 10
14.6078382361
 20
8.0529649859
 10
14.573004361
 20
8.0272702251
 10
14.5387644809
 20
7.9991786266
 10
14.5049398059
 20
7.9685194974
 10
14.4717091259
 20
7.9354635306
 10
14.4396088099
 20
7.9005228058
 10
14.4086673839
 20
7.8636728594
 10
14.3788563219
 20
7.8249381549
 10
14.3506264156
 20
7.784904162
 10
14.324006783
 20
7.7435583219
 10
14.2989683061
 20
7.7009131933
 10
14.2758744224
 20
7.6575919223
 10
14.254752186
 20
7.6135805914
 10
14.2355745428
 20
7.5688931179
 10
14.218623767
 20
7.5241943998
 10
14.2039331942
 20
7.4794688735
 10
14.1914694889
 20
7.4347321025
 10
14.181414919
 20
7.390695675
 10
14.1738302405
 20
7.347596787
 10
14.1686546974
 20
7.3051982425
 10
14.1658882898
 20
7.2635000415
  0
LINE
  5
22C
100
AcDbEntity
  8
RACCORDO
100
AcDbLine
 62
253
  6
CONTINUOUS
 10
16.9912243582
 20
9.52507476
 11
14.643266106
 21
8.0762629092
  0
LWPOLYLINE
  5
22D
100
AcDbEntity
  8
RACCORDO
100
AcDbPolyline
 62
253
  6
CONTINUOUS
 90
22
 70
0
 10
14.1658882898
 20
-26.7627356487
 10
14.1686546974
 20
-26.8013488814
 10
14.1738302404
 20
-26.8379759026
 10
14.1814149189
 20
-26.8726167122
 10
14.1914694888
 20
-26.905440754
 10
14.2039331942
 20
-26.9362785841
 10
14.218623767
 20
-26.9646218712
 10
14.2355745428
 20
-26.9904178777
 10
14.254752186
 20
-27.0137193411
 10
14.2758744224
 20
-27.0341761427
 10
14.2989683061
 20
-27.0517441956
 10
14.324006783
 20
-27.0664675868
 10
14.3506264156
 20
-27.0781284587
 10
14.3788563219
 20
-27.0866817814
 10
14.4086673839
 20
-27.092172585
 10
14.4396088099
 20
-27.0945181014
 10
14.4717091259
 20
-27.0936620565
 10
14.5049398059
 20
-27.0896607244
 10
14.5387644808
 20
-27.0826001594
 10
14.573004361
 20
-27.0725090463
 10
14.6078382361
 20
-27.0593587002
 10
14.643266106
 20
-27.0431491211
  0
LWPOLYLINE
  5
22E
100
AcDbEntity
  8
RACCORDO
100
AcDbPolyline
 62
253
  6
CONTINUOUS
 90
12
 70
0
 10
13.4774807571
 20
-26.7830845421
 10
13.4820337371
 20
-26.8490334642
 10
13.490732776
 20
-26.9120439993
 10
13.5035490206
 20
-26.9717578954
 10
13.5204019165
 20
-27.027888988
 10
13.5412043874
 20
-27.0801773207
 10
13.5658736939
 20
-27.1283706529
 10
13.5942831531
 20
-27.1722401971
 10
13.6262800069
 20
-27.2115691352
 10
13.6617159888
 20
-27.2461454911
 10
13.7004088131
 20
-27.2757868786
 10
13.7332191102
 20
-27.2956709504
  0
LWPOLYLINE
  5
22F
100
AcDbEntity
  8
RACCORDO
100
AcDbPolyline
 62
253
  6
CONTINUOUS
 90
10
 70
0
 10
13.4774688402
 20
7.27772734
 10
13.3530800988
 20
3.4240490424
 10
13.2597684571
 20
-0.4132142316
 10
13.1975500878
 20
-4.2336661487
 10
13.1664389796
 20
-8.0369549973
 10
13.1664389576
 20
-11.8227247491
 10
13.197550014
 20
-15.5905731116
 10
13.2597683553
 20
-19.3401483797
 10
13.3530800261
 20
-23.0711143887
 10
13.4774688406
 20
-26.7830925168
  0
LINE
  5
230
100
AcDbEntity
  8
0
100
AcDbLine
 62
7
  6
CONTINUOUS
 10
17.9780285111
 20
-3.9070822553
 11
17.8747315012
 21
-3.9749342896
  0
LINE
  5
231
100
AcDbEntity
  8
RACCORDO
100
AcDbLine
 62
253
  6
CONTINUOUS
 10
11.3695934141
 20
8.4186954099
 11
13.4774688415
 21
7.2777273483
  0
LWPOLYLINE
  5
232
100
AcDbEntity
  8
RACCORDO
100
AcDbPolyline
 62
253
  6
CONTINUOUS
 90
15
 70
0
 10
-17.1748722766
 20
24.9760049475
 10
-15.1961626816
 20
23.757430572
 10
-13.208098746
 20
22.544321409
 10
-11.2107257133
 20
21.3367063785
 10
-9.2041200059
 20
20.1346324349
 10
-7.1882903962
 20
18.9381038262
 10
-5.1631786644
 20
17.7470863377
 10
-3.1288233235
 20
16.5616036218
 10
-1.0852681171
 20
15.3816802847
 10
0.9675404725
 20
14.207285451
 10
3.0295598406
 20
13.0384444064
 10
5.1007493402
 20
11.8751792337
 10
7.1811684959
 20
10.7174562046
 10
9.2708101396
 20
9.5652803023
 10
11.3695934141
 20
8.4186954099
  0
LWPOLYLINE
  5
233
100
AcDbEntity
  8
RACCORDO
100
AcDbPolyline
 62
253
  6
CONTINUOUS
 90
16
 70
0
 10
14.643266106
 20
8.0762629092
 10
14.6393995139
 20
8.1188913898
 10
14.6317743244
 20
8.1633260362
 10
14.620473958
 20
8.2090805992
 10
14.6056220537
 20
8.2556543834
 10
14.5873811193
 20
8.302537717
 10
14.5659507556
 20
8.3492175293
 10
14.5415654647
 20
8.3951829837
 10
14.514492091
 20
8.4399310501
 10
14.4850269091
 20
8.4829720031
 10
14.4534923603
 20
8.523834815
 10
14.4202335381
 20
8.5620722869
 10
14.3856144256
 20
8.5972659316
 10
14.3500138844
 20
8.6290305871
 10
14.3138215063
 20
8.6570186275
 10
14.2774333676
 20
8.6809237485
  0
LWPOLYLINE
  5
234
100
AcDbEntity
  8
RACCORDO
100
AcDbPolyline
 62
253
  6
CONTINUOUS
 90
7
 70
0
 10
13.883178626
 20
-4.2345571802
 10
13.8517664516
 20
-8.0336844337
 10
13.8517664655
 20
-11.8158485376
 10
13.8831786573
 20
-15.5799460548
 10
13.9460030235
 20
-19.3256091728
 10
14.0402395677
 20
-23.0532057041
 10
14.1658882898
 20
-26.7627356487
  0
LWPOLYLINE
  5
235
100
AcDbEntity
  8
RACCORDO
100
AcDbPolyline
 62
253
  6
CONTINUOUS
 90
4
 70
0
 10
14.1658882898
 20
7.2635000415
 10
14.0402395469
 20
3.4138511513
 10
13.9460029923
 20
-0.4188345893
 10
13.883178626
 20
-4.2345571802
  0
LWPOLYLINE
  5
236
100
AcDbEntity
  8
RACCORDO
100
AcDbPolyline
 62
253
  6
CONTINUOUS
 90
16
 70
0
 10
-16.3673995262
 20
26.3748661911
 10
-14.3893135948
 20
25.1540429849
 10
-12.4019314114
 20
23.9390935054
 10
-10.4052529759
 20
22.7300177526
 10
-8.3992692602
 20
21.5268091647
 10
-6.3839892925
 20
20.3294743035
 10
-4.3594401575
 20
19.1380328547
 10
-2.3256210367
 20
17.9524856749
 10
-0.2825327486
 20
16.7728319075
 10
1.7697951663
 20
15.599088668
 10
3.8313640605
 20
14.4312565062
 10
5.9021725816
 20
13.2693348722
 10
7.9821871324
 20
12.1133392327
 10
10.0713965139
 20
10.9632747432
 10
12.1698119251
 20
9.8191362481
 10
14.2774333661
 20
8.6809237475
  0
LINE
  5
237
100
AcDbEntity
  8
DRAFT
100
AcDbLine
 62
7
  6
CONTINUOUS
 10
16.9912243582
 20
8.6041876511
 11
17.9780285111
 21
-1.5005305609
  0
LINE
  5
238
100
AcDbEntity
  8
RACCORDO
100
AcDbLine
 62
7
  6
CONTINUOUS
 10
16.9912243582
 20
9.52507476
 11
16.9912243582
 21
8.6041876511
  0
LINE
  5
239
100
AcDbEntity
  8
RACCORDO
100
AcDbLine
 62
7
  6
CONTINUOUS
 10
16.9912243582
 20
-24.9527407251
 11
16.9912243582
 21
-25.873627834
  0
LINE
  5
23A
100
AcDbEntity
  8
0
100
AcDbLine
 62
7
  6
CONTINUOUS
 10
17.5463588856
 20
-11.164784179
 11
17.5463588856
 21
-4.5647088552
  0
LINE
  5
23B
100
AcDbEntity
  8
0
100
AcDbLine
 62
7
  6
CONTINUOUS
 10
17.9780285111
 20
-13.7475847128
 11
17.9780285111
 21
-11.3410330184
  0
LINE
  5
23C
100
AcDbEntity
  8
0
100
AcDbLine
 62
7
  6
CONTINUOUS
 10
17.9780285111
 20
-3.9070822553
 11
17.9780285111
 21
-1.5005305609
  0
LWPOLYLINE
  5
23D
100
AcDbEntity
  8
RACCORDO
100
AcDbPolyline
 62
253
  6
CONTINUOUS
 90
9
 70
0
 10
14.643266106
 20
-27.0431491211
 10
14.6393994401
 20
-27.0856981414
 10
14.6317740979
 20
-27.1255089063
 10
14.6204735273
 20
-27.1621457472
 10
14.6056213959
 20
-27.1952077296
 10
14.5873802378
 20
-27.2243330403
 10
14.5659496747
 20
-27.2492029468
 10
14.5415642317
 20
-27.2695452858
 10
14.5188636806
 20
-27.2830331972
  0
LINE
  5
23E
100
AcDbEntity
  8
0
100
AcDbLine
 62
7
  6
CONTINUOUS
 10
17.9780285111
 20
-11.3410330184
 11
17.8747315012
 21
-11.3883729744
  0
LINE
  5
23F
100
AcDbEntity
  8
RACCORDO
100
AcDbLine
 62
7
  6
CONTINUOUS
 10
-14.0878846792
 20
27.8781847947
 11
16.6379400922
 21
10.1374786567
  0
LINE
  5
240
100
AcDbEntity
  8
DRAFT
100
AcDbLine
 62
7
  6
CONTINUOUS
 10
17.9780285111
 20
-13.7475847128
 11
16.9912243582
 21
-24.9527407251
  0
LWPOLYLINE
  5
241
100
AcDbEntity
  8
RACCORDO
100
AcDbPolyline
 62
253
  6
CONTINUOUS
 90
16
 70
0
 10
14.1658882897
 20
-26.7627356486
 10
14.127766571
 20
-26.7836839805
 10
14.0864744533
 20
-26.8022881167
 10
14.0424353285
 20
-26.8183572983
 10
13.9961007554
 20
-26.8317267587
 10
13.947945829
 20
-26.842259413
 10
13.8984643099
 20
-26.849847264
 10
13.8481635605
 20
-26.8544125088
 10
13.7975593436
 20
-26.8559083376
 10
13.7471705335
 20
-26.8543194126
 10
13.6975137959
 20
-26.8496620259
 10
13.6490982901
 20
-26.8419839326
 10
13.6024204482
 20
-26.8313638606
 10
13.5579588851
 20
-26.8179107037
 10
13.5161694912
 20
-26.8017624049
 10
13.4774807571
 20
-26.7830845421
  0
LINE
  5
242
100
AcDbEntity
  8
RACCORDO
100
AcDbLine
 62
253
  6
CONTINUOUS
 10
14.643266106
 20
-27.0431491211
 11
16.9912243582
 21
-25.873627834
  0
LINE
  5
243
100
AcDbEntity
  8
RACCORDO
100
AcDbLine
 62
7
  6
CONTINUOUS
 10
14.5188636806
 20
-27.2830331972
 11
16.8785959227
 21
-26.1076472692
  0
ELLIPSE
  5
244
100
AcDbEntity
  8
RACCORDO
100
AcDbEllipse
 62
7
  6
CONTINUOUS
 10
-14.0875616984
 20
27.4692029314
 30
0.0
 11
-0.2498600223
 21
0.43379745
 31
0.0
 40
0.5768037941
 41
-0.7837728977
 42
0.0348934044
  0
ELLIPSE
  5
245
100
AcDbEntity
  8
0
100
AcDbEllipse
 62
7
  6
CONTINUOUS
 10
17.9060835735
 20
-4.3641347883
 30
0.0
 11
0.2566641185
 21
0.42914135
 31
0.0
 40
0.5873179545
 41
0.881749572
 42
2.3652794362
  0
ELLIPSE
  5
246
100
AcDbEntity
  8
RACCORDO
100
AcDbEllipse
 62
7
  6
CONTINUOUS
 10
16.6376171115
 20
9.7288697635
 30
0.0
 11
-0.2496303025
 21
0.4334023309
 31
0.0
 40
0.5778584463
 41
-2.3545649475
 42
-0.7846820092
  0
ELLIPSE
  5
247
100
AcDbEntity
  8
RACCORDO
100
AcDbEllipse
 62
7
  6
CONTINUOUS
 10
16.6376171115
 20
-25.6690860526
 30
0.0
 11
-0.2498600223
 21
0.43379745
 31
0.0
 40
0.5768037941
 41
-3.1764860511
 42
-2.355482613
  0
ELLIPSE
  5
248
100
AcDbEntity
  8
0
100
AcDbEllipse
 62
7
  6
CONTINUOUS
 10
17.9060835735
 20
-10.9642101121
 30
0.0
 11
0.2566641185
 21
0.42914135
 31
0.0
 40
0.5873179545
 41
2.3652794362
 42
3.8488093004
  0
ENDSEC
  0
SECTION
  2
OBJECTS
  0
DICTIONARY
  5
C
100
AcDbDictionary
280
0
281
1
  3
ACAD_GROUP
350
D
  3
ACAD_MLINESTYLE
350
17
  3
ACAD_LAYOUT
350
1A
  3
ACAD_PLOTSETTINGS
350
19
  3
ACAD_PLOTSTYLENAME
350
E
  0
DICTIONARY
  5
D
102
{ACAD_REACTORS
330
C
102
}
100
AcDbDictionary
280
0
281
1
  0
ACDBDICTIONARYWDFLT
  5
E
102
{ACAD_REACTORS
330
C
102
}
100
AcDbDictionary
281
1
  3
Normal
350
F
100
AcDbDictionaryWithDefault
340
F
  0
DICTIONARY
  5
17
102
{ACAD_REACTORS
330
C
102
}
100
AcDbDictionary
280
0
281
1
  3
Standard
350
18
  0
DICTIONARY
  5
19
102
{ACAD_REACTORS
330
C
102
}
100
AcDbDictionary
281
1
  0
DICTIONARY
  5
1A
102
{ACAD_REACTORS
330
C
102
}
100
AcDbDictionary
281
1
  3
Model
350
249
  3
Layout1
350
24A
  0
ACDBPLACEHOLDER
  5
F
102
{ACAD_REACTORS
330
E
102
}
  0
MLINESTYLE
  5
18
102
{ACAD_REACTORS
330
17
102
}
100
AcDbMlineStyle
  2
STANDARD
 70
0
  3

 62
256
 51
90.0
 52
90.0
 71
2
 49
0.5
 62
256
  6
BYLAYER
 49
-0.5
 62
256
  6
BYLAYER
  0
LAYOUT
  5
249
102
{ACAD_REACTORS
330
1A
102
}
100
AcDbPlotSettings
  1

  2
none_device
  4

  6

 40
0.0
 41
0.0
 42
0.0
 43
0.0
 44
210.0
 45
297.0
 46
0.0
 47
0.0
 48
0.0
 49
0.0
140
0.0
141
0.0
142
1.0
143
1.0
 70
1024
 72
1
 73
0
 74
0
  7

 75
0
147
1.0
148
0.0
149
0.0
100
AcDbLayout
  1
Model
 70
0
 71
0
 10
0.0
 20
0.0
 11
210.0
 21
297.0
 12
0.0
 22
0.0
 32
0.0
 14
0.0
 24
0.0
 34
0.0
 15
0.0
 25
0.0
 35
0.0
146
0.0
 13
0.0
 23
0.0
 33
0.0
 16
1.0
 26
0.0
 36
0.0
 17
0.0
 27
1.0
 37
0.0
 76
0
330
214
345
0
346
0
  0
LAYOUT
  5
24A
102
{ACAD_REACTORS
330
1A
102
}
100
AcDbPlotSettings
  1

  2
none_device
  4

  6

 40
0.0
 41
0.0
 42
0.0
 43
0.0
 44
210.0
 45
297.0
 46
0.0
 47
0.0
 48
0.0
 49
0.0
140
0.0
141
0.0
142
1.0
143
1.0
 70
0
 72
1
 73
0
 74
0
  7

 75
0
147
1.0
148
0.0
149
0.0
100
AcDbLayout
  1
Layout1
 70
0
 71
1
 10
0.0
 20
0.0
 11
210.0
 21
297.0
 12
0.0
 22
0.0
 32
0.0
 14
0.0
 24
0.0
 34
0.0
 15
0.0
 25
0.0
 35
0.0
146
0.0
 13
0.0
 23
0.0
 33
0.0
 16
1.0
 26
0.0
 36
0.0
 17
0.0
 27
1.0
 37
0.0
 76
0
330
215
345
0
346
0
  0
ENDSEC
  0
EOF
