  0
SECTION
  2
HEADER
  9
$ACADVER
  1
AC1021
  9
$DWGCODEPAGE
  3
ANSI_1252
  9
$EXTMAX
 10
297.0
 20
210.0
 30
0.0
  9
$EXTMIN
 10
0.0
 20
0.0
 30
0.0
  9
$LIMMIN
 10
0.0
 20
0.0
  9
$LIMMAX
 10
297.0
 20
210.0
  9
$VIEWCTR
 10
148.5
 20
105.0
  9
$VIEWSIZE
 40
210.0
  9
$CLAYER
  8
0
  9
$LTSCALE
 40
16.335
  9
$CELTYPE
  6
BYLAYER
  9
$DIMSCALE
 40
1.0
  9
$DIMASZ
 40
3.0
  9
$DIMEXO
 40
1.85625
  9
$DIMDLI
 40
11.286
  9
$DIMEXE
 40
5.346
  9
$DIMCEN
 40
2.673
  9
$DIMLFAC
 40
1.0
  9
$DIMBLK
  1
_FILLED
  9
$DIMTXT
 40
3.0
  9
$DIMTOL
 70
1
  9
$DIMLIM
 70
0
  9
$DIMTFAC
 40
1.0
  9
$DIMTP
 40
0.01
  9
$DIMTM
 40
0.01
  9
$PDMODE
 70
3
  9
$PDSIZE
 40
3.0
  9
$HANDSEED
  5
2B0
  9
$TILEMODE
 70
1
  9
$MEASUREMENT
 70
1
  9
$INSUNITS
 70
4
  0
ENDSEC
  0
SECTION
  2
CLASSES
  0
CLASS
  1
ACDBDICTIONARYWDFLT
  2
AcDbDictionaryWithDefault
  3
AutoCAD 2000
 90
0
 91
1
280
0
281
0
  0
CLASS
  1
ACDBPLACEHOLDER
  2
AcDbPlaceHolder
  3
AutoCAD 2000
 90
0
 91
1
280
0
281
0
  0
CLASS
  1
LAYOUT
  2
AcDbLayout
  3
AutoCAD 2000
 90
0
 91
0
280
0
281
0
  0
ENDSEC
  0
SECTION
  2
TABLES
  0
TABLE
  2
VPORT
  5
8
100
AcDbSymbolTable
 70
2
  0
VPORT
  5
1F4
100
AcDbSymbolTableRecord
100
AcDbViewportTableRecord
  2
*ACTIVE
 70
0
 10
0.0
 20
0.0
 11
1.0
 21
1.0
 12
148.5
 22
105.0
 13
0.0
 23
0.0
 14
1.0
 24
1.0
 15
0.0
 25
0.0
 16
0.0
 26
0.0
 36
1.0
 17
0.0
 27
0.0
 37
0.0
 40
210.0
 41
1.4142857143
 42
50.0
 43
0.0
 44
0.0
 50
0.0
 51
0.0
 71
0
 72
100
 73
1
 74
1
 75
0
 76
0
 77
0
 78
0
  0
ENDTAB
  0
TABLE
  2
LTYPE
  5
5
100
AcDbSymbolTable
 70
6
  0
LTYPE
  5
14
100
AcDbSymbolTableRecord
100
AcDbLinetypeTableRecord
  2
BYBLOCK
 70
0
  3

 72
65
 73
0
 40
0.0
  0
LTYPE
  5
15
100
AcDbSymbolTableRecord
100
AcDbLinetypeTableRecord
  2
BYLAYER
 70
0
  3

 72
65
 73
0
 40
0.0
  0
LTYPE
  5
16
100
AcDbSymbolTableRecord
100
AcDbLinetypeTableRecord
  2
CONTINUOUS
 70
64
  3
Solid line
 72
65
 73
0
 40
0.0
  0
LTYPE
  5
1F5
100
AcDbSymbolTableRecord
100
AcDbLinetypeTableRecord
  2
CENTER
 70
64
  3
____ _ ____ _ ____ _ ____ _ ____ _ ____ _ ____
 72
65
 73
4
 40
0.6
 49
0.375
 74
0
 49
-0.075
 74
0
 49
0.075
 74
0
 49
-0.075
 74
0
  0
LTYPE
  5
1F6
100
AcDbSymbolTableRecord
100
AcDbLinetypeTableRecord
  2
HIDDEN
 70
64
  3
- - - - - - - - - - - - - - - - - - - -
 72
65
 73
2
 40
0.2
 49
0.1
 74
0
 49
-0.1
 74
0
  0
LTYPE
  5
1F7
100
AcDbSymbolTableRecord
100
AcDbLinetypeTableRecord
  2
PHANTOM
 70
64
  3
_____ _ _ _____ _ _ _____ _ _ _____
 72
65
 73
6
 40
0.8
 49
0.45
 74
0
 49
-0.05
 74
0
 49
0.1
 74
0
 49
-0.05
 74
0
 49
0.1
 74
0
 49
-0.05
 74
0
  0
LTYPE
  5
1F8
100
AcDbSymbolTableRecord
100
AcDbLinetypeTableRecord
  2
DOT
 70
64
  3
. . . . . . . . . . . . . . . . . . . .
 72
65
 73
2
 40
0.2
 49
0.1
 74
0
 49
-0.1
 74
0
  0
LTYPE
  5
1F9
100
AcDbSymbolTableRecord
100
AcDbLinetypeTableRecord
  2
DASHED
 70
64
  3
- - - - - - - - - - - - - - - - - - - -
 72
65
 73
2
 40
0.2
 49
0.1
 74
0
 49
-0.1
 74
0
  0
ENDTAB
  0
TABLE
  2
LAYER
  5
2
100
AcDbSymbolTable
 70
36
  0
LAYER
  5
10
100
AcDbSymbolTableRecord
100
AcDbLayerTableRecord
  2
0
 70
0
 62
7
  6
CONTINUOUS
370
-3
390
F
  0
LAYER
  5
1FA
100
AcDbSymbolTableRecord
100
AcDbLayerTableRecord
  2
DEFAULT_1
 70
0
 62
7
  6
CENTER
370
-3
390
F
  0
LAYER
  5
1FB
100
AcDbSymbolTableRecord
100
AcDbLayerTableRecord
  2
DEFAULT_2
 70
0
 62
7
  6
HIDDEN
370
-3
390
F
  0
LAYER
  5
1FC
100
AcDbSymbolTableRecord
100
AcDbLayerTableRecord
  2
DEFAULT_3
 70
0
 62
7
  6
PHANTOM
370
-3
390
F
  0
LAYER
  5
1FD
100
AcDbSymbolTableRecord
100
AcDbLayerTableRecord
  2
ASSI
 70
0
 62
7
  6
CONTINUOUS
370
-3
390
F
  0
LAYER
  5
1FE
100
AcDbSymbolTableRecord
100
AcDbLayerTableRecord
  2
COORDINATE
 70
0
 62
7
  6
CONTINUOUS
370
-3
390
F
  0
LAYER
  5
1FF
100
AcDbSymbolTableRecord
100
AcDbLayerTableRecord
  2
COPY_PUBLISH
 70
0
 62
7
  6
CONTINUOUS
370
-3
390
F
  0
LAYER
  5
200
100
AcDbSymbolTableRecord
100
AcDbLayerTableRecord
  2
COSMETICI
 70
0
 62
7
  6
CONTINUOUS
370
-3
390
F
  0
LAYER
  5
201
100
AcDbSymbolTableRecord
100
AcDbLayerTableRecord
  2
CURVE
 70
0
 62
7
  6
CONTINUOUS
370
-3
390
F
  0
LAYER
  5
202
100
AcDbSymbolTableRecord
100
AcDbLayerTableRecord
  2
DRAFT
 70
0
 62
7
  6
CONTINUOUS
370
-3
390
F
  0
LAYER
  5
203
100
AcDbSymbolTableRecord
100
AcDbLayerTableRecord
  2
IMPORT_IGES
 70
0
 62
7
  6
CONTINUOUS
370
-3
390
F
  0
LAYER
  5
204
100
AcDbSymbolTableRecord
100
AcDbLayerTableRecord
  2
INTFCLR_1
 70
0
 62
7
  6
CONTINUOUS
370
-3
390
F
  0
LAYER
  5
205
100
AcDbSymbolTableRecord
100
AcDbLayerTableRecord
  2
INTFCLR_383
 70
0
 62
7
  6
CONTINUOUS
370
-3
390
F
  0
LAYER
  5
206
100
AcDbSymbolTableRecord
100
AcDbLayerTableRecord
  2
INTF_2
 70
0
 62
7
  6
CONTINUOUS
370
-3
390
F
  0
LAYER
  5
207
100
AcDbSymbolTableRecord
100
AcDbLayerTableRecord
  2
INTF_5
 70
0
 62
7
  6
CONTINUOUS
370
-3
390
F
  0
LAYER
  5
208
100
AcDbSymbolTableRecord
100
AcDbLayerTableRecord
  2
INTF_9
 70
0
 62
7
  6
CONTINUOUS
370
-3
390
F
  0
LAYER
  5
209
100
AcDbSymbolTableRecord
100
AcDbLayerTableRecord
  2
NOTE
 70
0
 62
7
  6
CONTINUOUS
370
-3
390
F
  0
LAYER
  5
20A
100
AcDbSymbolTableRecord
100
AcDbLayerTableRecord
  2
PIANI
 70
0
 62
7
  6
CONTINUOUS
370
-3
390
F
  0
LAYER
  5
20B
100
AcDbSymbolTableRecord
100
AcDbLayerTableRecord
  2
PUNTI
 70
0
 62
7
  6
CONTINUOUS
370
-3
390
F
  0
LAYER
  5
20C
100
AcDbSymbolTableRecord
100
AcDbLayerTableRecord
  2
RACCORDO
 70
0
 62
7
  6
CONTINUOUS
370
-3
390
F
  0
LAYER
  5
20D
100
AcDbSymbolTableRecord
100
AcDbLayerTableRecord
  2
SIMBOLI
 70
0
 62
7
  6
CONTINUOUS
370
-3
390
F
  0
LAYER
  5
20E
100
AcDbSymbolTableRecord
100
AcDbLayerTableRecord
  2
SMUSSO
 70
0
 62
7
  6
CONTINUOUS
370
-3
390
F
  0
LAYER
  5
20F
100
AcDbSymbolTableRecord
100
AcDbLayerTableRecord
  2
SNAPLINE
 70
0
 62
7
  6
CONTINUOUS
370
-3
390
F
  0
LAYER
  5
210
100
AcDbSymbolTableRecord
100
AcDbLayerTableRecord
  2
SUPERFICI
 70
0
 62
7
  6
CONTINUOUS
370
-3
390
F
  0
LAYER
  5
211
100
AcDbSymbolTableRecord
100
AcDbLayerTableRecord
  2
TRASH
 70
0
 62
7
  6
CONTINUOUS
370
-3
390
F
  0
ENDTAB
  0
TABLE
  2
STYLE
  5
3
100
AcDbSymbolTable
 70
1
  0
STYLE
  5
11
100
AcDbSymbolTableRecord
100
AcDbTextStyleTableRecord
  2
STANDARD
 70
0
 40
0.0
 41
0.8
 50
0.0
 71
0
 42
0.2
  3
txt
  4

  0
STYLE
  5
212
100
AcDbSymbolTableRecord
100
AcDbTextStyleTableRecord
  2
TEXTSTYLE_1
 70
0
 40
0.0
 41
0.8
 50
0.0
 71
0
 42
0.2
  3
gdt
  4

  0
ENDTAB
  0
TABLE
  2
VIEW
  5
6
100
AcDbSymbolTable
 70
0
  0
ENDTAB
  0
TABLE
  2
UCS
  5
7
100
AcDbSymbolTable
 70
0
  0
ENDTAB
  0
TABLE
  2
APPID
  5
9
100
AcDbSymbolTable
 70
1
  0
APPID
  5
213
100
AcDbSymbolTableRecord
100
AcDbRegAppTableRecord
  2
ACAD
 70
0
  0
ENDTAB
  0
TABLE
  2
BLOCK_RECORD
  5
1
100
AcDbSymbolTable
 70
0
  0
BLOCK_RECORD
  5
214
100
AcDbSymbolTableRecord
100
AcDbBlockTableRecord
  2
*Model_Space
  0
BLOCK_RECORD
  5
215
100
AcDbSymbolTableRecord
100
AcDbBlockTableRecord
  2
*Paper_Space
  0
ENDTAB
  0
TABLE
  2
DIMSTYLE
  5
A
100
AcDbSymbolTable
 70
1
100
AcDbDimStyleTable
 71
0
  0
DIMSTYLE
105
216
100
AcDbSymbolTableRecord
100
AcDbDimStyleTableRecord
  2
STANDARD
 70
0
  3

  4

 40
1.0
 41
3.0
 42
0.0625
 43
0.38
 44
0.18
 45
0.0
 46
0.0
 47
0.01
 48
0.01
140
3.0
141
0.09
142
0.0
143
25.4
144
1.0
145
0.0
146
1.0
147
0.09
 71
1.0
 72
0.0
 73
0
 74
0
 75
0
 76
0
 77
1
 78
8
170
0
171
2
172
0
173
0
174
0
175
0
176
0
177
0
178
0
270
2
271
2
272
2
273
2
274
2
275
0
280
0
281
0
282
0
283
1
284
8
285
0
286
0
287
3
288
0
340
11
  0
ENDTAB
  0
ENDSEC
  0
SECTION
  2
BLOCKS
  0
BLOCK
  5
20
100
AcDbEntity
  8
0
100
AcDbBlockBegin
  2
*Model_Space
 70
0
 10
0.0
 20
0.0
 30
0.0
  3
*Model_Space
  1

  0
ENDBLK
  5
21
100
AcDbEntity
  8
0
100
AcDbBlockEnd
  0
BLOCK
  5
1C
100
AcDbEntity
  8
0
100
AcDbBlockBegin
  2
*Paper_Space
 70
0
 10
0.0
 20
0.0
 30
0.0
  3
*Paper_Space
  1

  0
ENDBLK
  5
1D
100
AcDbEntity
  8
0
100
AcDbBlockEnd
  0
ENDSEC
  0
SECTION
  2
ENTITIES
  0
LWPOLYLINE
  5
217
100
AcDbEntity
  8
RACCORDO
100
AcDbPolyline
 62
7
  6
CONTINUOUS
 90
16
 70
0
 10
127.210857654
 20
124.8674514224
 10
127.1910690888
 20
124.8483497625
 10
127.1241302081
 20
124.7769871175
 10
127.062346596
 20
124.7009527105
 10
127.005504303
 20
124.6210642292
 10
126.9531602498
 20
124.5376333402
 10
126.9050506185
 20
124.4508304513
 10
126.8612413796
 20
124.3612345556
 10
126.821804128
 20
124.2692607736
 10
126.7868152431
 20
124.1751615481
 10
126.756470794
 20
124.0793735619
 10
126.7310687098
 20
123.9823895751
 10
126.7108540072
 20
123.8843665147
 10
126.6962196155
 20
123.7854330243
 10
126.6877064246
 20
123.6860695348
 10
126.6862545286
 20
123.6503306753
  0
LINE
  5
218
100
AcDbEntity
  8
RACCORDO
100
AcDbLine
 62
7
  6
CONTINUOUS
 10
130.3376189647
 20
127.820170931
 11
127.2102130393
 21
124.8668573055
  0
LINE
  5
219
100
AcDbEntity
  8
RACCORDO
100
AcDbLine
 62
253
  6
CONTINUOUS
 10
130.6659614539
 20
127.8534219664
 11
127.5384941657
 21
124.900050394
  0
LWPOLYLINE
  5
21A
100
AcDbEntity
  8
RACCORDO
100
AcDbPolyline
 62
253
  6
CONTINUOUS
 90
19
 70
0
 10
127.5384941361
 20
124.900050366
 10
127.4811696086
 20
124.8467846094
 10
127.4244284825
 20
124.787505404
 10
127.368680011
 20
124.7226026797
 10
127.3143534409
 20
124.6524950877
 10
127.2618118822
 20
124.577654402
 10
127.2113503742
 20
124.4986005749
 10
127.1633262801
 20
124.4158511687
 10
127.1180912584
 20
124.3299553628
 10
127.0759053225
 20
124.2415169172
 10
127.0370664423
 20
124.151124702
 10
127.0018574628
 20
124.0593742865
 10
126.9704785574
 20
123.96690015
 10
126.9431504843
 20
123.8743272656
 10
126.9200705305
 20
123.7822589004
 10
126.9013633069
 20
123.6912992612
 10
126.8871525555
 20
123.6020519833
 10
126.877556187
 20
123.5151154618
 10
126.8726454723
 20
123.4310712879
  0
LWPOLYLINE
  5
21B
100
AcDbEntity
  8
RACCORDO
100
AcDbPolyline
 62
253
  6
CONTINUOUS
 90
13
 70
0
 10
144.0523784472
 20
82.3294834562
 10
144.1068787004
 20
82.3134647168
 10
144.164462306
 20
82.3016650869
 10
144.2242578359
 20
82.2942631333
 10
144.2853603885
 20
82.2913708716
 10
144.3468452828
 20
82.2930320713
 10
144.4077820515
 20
82.299221593
 10
144.4672485225
 20
82.3098457692
 10
144.5243447738
 20
82.3247438213
 10
144.5782067527
 20
82.3436902932
 10
144.6280193517
 20
82.366398463
 10
144.6730287436
 20
82.3925246818
 10
144.7125537892
 20
82.4216735748
  0
LWPOLYLINE
  5
21C
100
AcDbEntity
  8
RACCORDO
100
AcDbPolyline
 62
7
  6
CONTINUOUS
 90
12
 70
0
 10
144.2973668207
 20
81.8199836307
 10
144.3304793157
 20
81.809315626
 10
144.3982914326
 20
81.7931631603
 10
144.4677764209
 20
81.784035222
 10
144.5385090192
 20
81.7820364817
 10
144.6106478806
 20
81.7873270549
 10
144.6837578574
 20
81.8001389375
 10
144.7571779441
 20
81.8206090105
 10
144.8310330515
 20
81.8490985828
 10
144.9052367737
 20
81.8860343745
 10
144.9792322307
 20
81.9315881383
 10
144.9936895492
 20
81.9415547001
  0
LWPOLYLINE
  5
21D
100
AcDbEntity
  8
RACCORDO
100
AcDbPolyline
 62
253
  6
CONTINUOUS
 90
12
 70
0
 10
144.2974191346
 20
81.8199473856
 10
144.2870361894
 20
81.8238755393
 10
144.2465245178
 20
81.8445695044
 10
144.2092602703
 20
81.872619806
 10
144.1754651968
 20
81.9078442635
 10
144.1454037617
 20
81.9499888659
 10
144.1192673109
 20
81.9987662002
 10
144.0972050137
 20
82.0538568196
 10
144.0793846617
 20
82.1148959405
 10
144.0659281944
 20
82.18148113
 10
144.0569075387
 20
82.2531694977
 10
144.0523784332
 20
82.3294834527
  0
LWPOLYLINE
  5
21E
100
AcDbEntity
  8
RACCORDO
100
AcDbPolyline
 62
7
  6
CONTINUOUS
 90
10
 70
0
 10
127.0795509213
 20
88.7351365445
 10
128.8350494933
 20
87.9407621655
 10
130.707663977
 20
87.1175318568
 10
132.6018481388
 20
86.309328091
 10
134.5171711128
 20
85.5163405524
 10
136.4531969722
 20
84.738753692
 10
138.4094767622
 20
83.9767426835
 10
140.3855497767
 20
83.2304730019
 10
142.3809493904
 20
82.500105333
 10
144.2982947408
 20
81.8196395223
  0
LINE
  5
21F
100
AcDbEntity
  8
RACCORDO
100
AcDbLine
 62
7
  6
CONTINUOUS
 10
127.0795539692
 20
88.7351351459
 11
127.079874194
 21
88.7349884458
  0
LWPOLYLINE
  5
220
100
AcDbEntity
  8
RACCORDO
100
AcDbPolyline
 62
253
  6
CONTINUOUS
 90
31
 70
0
 10
126.8459494259
 20
89.2399732703
 10
127.3777662623
 20
88.995905594
 10
127.9112144031
 20
88.7532337594
 10
128.446282399
 20
88.5119605942
 10
128.9828600455
 20
88.2721328203
 10
129.5210339979
 20
88.0337087937
 10
130.0610909837
 20
87.7965609095
 10
130.6031541309
 20
87.5606368702
 10
131.147083701
 20
87.3259991821
 10
131.6927739931
 20
87.0926938401
 10
132.2401666239
 20
86.8607453623
 10
132.7893001447
 20
86.6301369866
 10
133.3402137517
 20
86.4008524025
 10
133.893032822
 20
86.1728405877
 10
134.4476141358
 20
85.9461618909
 10
135.0035911052
 20
85.7209647191
 10
135.5606262742
 20
85.4973804306
 10
136.1190295786
 20
85.2752790293
 10
136.6794077628
 20
85.0544187548
 10
137.2405248356
 20
84.8352838923
 10
137.8035946807
 20
84.6173957863
 10
138.3729425985
 20
84.3991053904
 10
138.9476096772
 20
84.1808276103
 10
139.5286099172
 20
83.9622204444
 10
140.1233305246
 20
83.7405890542
 10
140.732422425
 20
83.5158304309
 10
141.3554296222
 20
83.2882495325
 10
141.9981966566
 20
83.0558701793
 10
142.6627963535
 20
82.8181593609
 10
143.3474719105
 20
82.5759754679
 10
144.052378445
 20
82.32948347
  0
LWPOLYLINE
  5
221
100
AcDbEntity
  8
RACCORDO
100
AcDbPolyline
 62
253
  6
CONTINUOUS
 90
8
 70
0
 10
126.8459619446
 20
89.2399828717
 10
126.8005307223
 20
89.2640984752
 10
126.760531019
 20
89.2914898733
 10
126.7265681417
 20
89.3217425578
 10
126.6991560435
 20
89.3543987211
 10
126.6787095457
 20
89.3889641846
 10
126.6655380608
 20
89.4249158771
 10
126.65984091
 20
89.4617097495
  0
LINE
  5
222
100
AcDbEntity
  8
RACCORDO
100
AcDbLine
 62
7
  6
CONTINUOUS
 10
136.0938219346
 20
123.8488931475
 11
137.4669814655
 21
125.1219790044
  0
LINE
  5
223
100
AcDbEntity
  8
DRAFT
100
AcDbLine
 62
7
  6
CONTINUOUS
 10
137.4669814655
 20
123.9202384522
 11
136.83338506
 21
123.3328175411
  0
LWPOLYLINE
  5
224
100
AcDbEntity
  8
RACCORDO
100
AcDbPolyline
 62
253
  6
CONTINUOUS
 90
10
 70
0
 10
126.4122973022
 20
105.8740388866
 10
126.4145972741
 20
105.8468947249
 10
126.4215990462
 20
105.8192320951
 10
126.4332354116
 20
105.7920991886
 10
126.4493929685
 20
105.7657555043
 10
126.4699195755
 20
105.7404453345
 10
126.4946285565
 20
105.7164010262
 10
126.5232923835
 20
105.6938485278
 10
126.5556405412
 20
105.6730040749
 10
126.5913696036
 20
105.6540658804
  0
LWPOLYLINE
  5
225
100
AcDbEntity
  8
RACCORDO
100
AcDbPolyline
 62
253
  6
CONTINUOUS
 90
11
 70
0
 10
126.8459494218
 20
89.2399732761
 10
126.8508577786
 20
89.1635069987
 10
126.8604528365
 20
89.0915879349
 10
126.8746633206
 20
89.024699915
 10
126.8933712729
 20
88.9633043162
 10
126.9164529462
 20
88.9078042961
 10
126.9437837719
 20
88.8585472764
 10
126.975166398
 20
88.8158720552
 10
127.0103800081
 20
88.7800778821
 10
127.0492244678
 20
88.7513929323
 10
127.0795539692
 20
88.7351351459
  0
LWPOLYLINE
  5
226
100
AcDbEntity
  8
RACCORDO
100
AcDbPolyline
 62
7
  6
CONTINUOUS
 90
14
 70
0
 10
126.659681133
 20
89.4655905286
 10
126.6606016169
 20
89.4421263216
 10
126.6681257326
 20
89.3540354279
 10
126.6817246648
 20
89.2710725709
 10
126.7011742113
 20
89.1932028069
 10
126.7263093292
 20
89.1201497212
 10
126.7570243322
 20
89.0517881965
 10
126.7931268908
 20
88.9883237457
 10
126.834394218
 20
88.9299403025
 10
126.8805094511
 20
88.8769058855
 10
126.9309350654
 20
88.8296522931
 10
126.9852237091
 20
88.7884092645
 10
127.0430040043
 20
88.7533325129
 10
127.0797774596
 20
88.7350431086
  0
LWPOLYLINE
  5
227
100
AcDbEntity
  8
RACCORDO
100
AcDbPolyline
 62
7
  6
CONTINUOUS
 90
8
 70
0
 10
126.4385569525
 20
106.8144794816
 10
126.4397403885
 20
106.7819211538
 10
126.4452895015
 20
106.7378787199
 10
126.4553579332
 20
106.6945160698
 10
126.4699538324
 20
106.6520525706
 10
126.4889831422
 20
106.6109951484
 10
126.5122335528
 20
106.5719132782
 10
126.5388499289
 20
106.5360950811
  0
LWPOLYLINE
  5
228
100
AcDbEntity
  8
RACCORDO
100
AcDbPolyline
 62
7
  6
CONTINUOUS
 90
10
 70
0
 10
126.4122968253
 20
105.8743244211
 10
126.4164701617
 20
104.08342089
 10
126.4265575454
 20
102.231131189
 10
126.4425106971
 20
100.383819574
 10
126.4643305394
 20
98.5415271528
 10
126.492017113
 20
96.7042919414
 10
126.5255703991
 20
94.8721509686
 10
126.5649899414
 20
93.0451450633
 10
126.6102745931
 20
91.223320432
 10
126.6596675944
 20
89.4657155075
  0
LWPOLYLINE
  5
229
100
AcDbEntity
  8
RACCORDO
100
AcDbPolyline
 62
253
  6
CONTINUOUS
 90
10
 70
0
 10
126.5913696021
 20
105.6540658805
 10
126.5953076795
 20
103.9552556091
 10
126.6044686415
 20
102.2341125841
 10
126.6190954057
 20
100.4908711085
 10
126.6392696902
 20
98.7385971744
 10
126.6653239597
 20
96.9646416928
 10
126.6982515938
 20
95.1309889215
 10
126.7389855007
 20
93.2255113771
 10
126.7879881095
 20
91.261622453
 10
126.8459494259
 20
89.2399732703
  0
LWPOLYLINE
  5
22A
100
AcDbEntity
  8
RACCORDO
100
AcDbPolyline
 62
7
  6
CONTINUOUS
 90
10
 70
0
 10
126.686257643
 20
123.650791394
 10
126.6369405698
 20
121.8133139653
 10
126.5915778806
 20
119.9131342041
 10
126.5520876929
 20
118.0179226228
 10
126.5184713182
 20
116.1277266052
 10
126.4907291333
 20
114.242587171
 10
126.4688610923
 20
112.362542224
 10
126.4528670814
 20
110.487630134
 10
126.4427463219
 20
108.6178906066
 10
126.4385438024
 20
106.8143068782
  0
LWPOLYLINE
  5
22B
100
AcDbEntity
  8
RACCORDO
100
AcDbPolyline
 62
253
  6
CONTINUOUS
 90
10
 70
0
 10
126.8726455047
 20
123.4310713028
 10
126.8188170257
 20
121.4763112726
 10
126.77208849
 20
119.5585288532
 10
126.7321502867
 20
117.6775284488
 10
126.6990459187
 20
115.854049264
 10
126.6719981251
 20
114.0668582063
 10
126.6500532294
 20
112.2532574924
 10
126.6333477764
 20
110.392733522
 10
126.6224641893
 20
108.5064496626
 10
126.6177045981
 20
106.5946917041
  0
LINE
  5
22C
100
AcDbEntity
  8
RACCORDO
100
AcDbLine
 62
7
  6
CONTINUOUS
 10
141.2318066014
 20
123.6099403538
 11
139.7884354207
 21
122.3650530783
  0
LWPOLYLINE
  5
22D
100
AcDbEntity
  8
RACCORDO
100
AcDbPolyline
 62
253
  6
CONTINUOUS
 90
16
 70
0
 10
126.826905674
 20
106.232731477
 10
126.8218958561
 20
106.2277976929
 10
126.8177827346
 20
106.222705132
 10
126.8145663095
 20
106.2174537944
 10
126.8122315487
 20
106.2119896227
 10
126.8107934843
 20
106.2063666742
 10
126.810297213
 20
106.2007471209
 10
126.8107710304
 20
106.19513272
 10
126.8121866408
 20
106.1895217142
 10
126.8145042548
 20
106.1840710031
 10
126.8177536895
 20
106.1787828656
 10
126.8219051276
 20
106.1736550227
 10
126.8268293276
 20
106.1688375382
 10
126.8324832089
 20
106.1643804332
 10
126.8389098522
 20
106.1602336866
 10
126.8461092572
 20
106.1563972983
  0
LWPOLYLINE
  5
22E
100
AcDbEntity
  8
RACCORDO
100
AcDbPolyline
 62
7
  6
CONTINUOUS
 90
10
 70
0
 10
126.5641543016
 20
106.2065491363
 10
126.535569377
 20
106.1790851942
 10
126.506045828
 20
106.1449406154
 10
126.4802691031
 20
106.1083259653
 10
126.4584263115
 20
106.0695956746
 10
126.4406610092
 20
106.0290695258
 10
126.4271597767
 20
105.9872696475
 10
126.4179942771
 20
105.944679827
 10
126.4131487387
 20
105.9016145804
 10
126.4123099731
 20
105.8739892123
  0
LINE
  5
22F
100
AcDbEntity
  8
RACCORDO
100
AcDbLine
 62
7
  6
CONTINUOUS
 10
126.7620909335
 20
106.3806573819
 11
126.5647367947
 21
106.2070791029
  0
LINE
  5
230
100
AcDbEntity
  8
RACCORDO
100
AcDbLine
 62
253
  6
CONTINUOUS
 10
126.913170945
 20
106.3086041056
 11
126.826905674
 21
106.232731477
  0
LWPOLYLINE
  5
231
100
AcDbEntity
  8
RACCORDO
100
AcDbPolyline
 62
253
  6
CONTINUOUS
 90
13
 70
0
 10
126.8461092572
 20
106.1563972983
 10
126.812774883
 20
106.130410882
 10
126.7800393712
 20
106.099339872
 10
126.7484575041
 20
106.0637108416
 10
126.7185645126
 20
106.0241276104
 10
126.6908670054
 20
105.9812610118
 10
126.6658343835
 20
105.9358375236
 10
126.6438908851
 20
105.8886269563
 10
126.6254083956
 20
105.8404294068
 10
126.6107001454
 20
105.7920616988
 10
126.6000154012
 20
105.7443435395
 10
126.5935352418
 20
105.6980836283
 10
126.591369489
 20
105.6540659509
  0
LWPOLYLINE
  5
232
100
AcDbEntity
  8
RACCORDO
100
AcDbPolyline
 62
7
  6
CONTINUOUS
 90
6
 70
0
 10
126.5396028473
 20
106.5350818635
 10
126.5709040073
 20
106.5008823929
 10
126.6057217777
 20
106.4697994306
 10
126.6437887513
 20
106.4420735622
 10
126.6849594914
 20
106.4178674143
 10
126.7011420598
 20
106.4097396311
  0
LWPOLYLINE
  5
233
100
AcDbEntity
  8
RACCORDO
100
AcDbPolyline
 62
253
  6
CONTINUOUS
 90
19
 70
0
 10
130.8553017589
 20
103.6955206073
 10
130.8920487918
 20
103.5732086254
 10
130.9355557239
 20
103.4517174832
 10
130.9858270049
 20
103.3310505491
 10
131.0432057231
 20
103.2105621545
 10
131.107361578
 20
103.0909077881
 10
131.1772882582
 20
102.9740420191
 10
131.2530422147
 20
102.8600896913
 10
131.3345806659
 20
102.7489365227
 10
131.4207447499
 20
102.6421754882
 10
131.5115975135
 20
102.5398696312
 10
131.6070890035
 20
102.4419661396
 10
131.705886009
 20
102.3498804162
 10
131.8081235032
 20
102.2636471268
 10
131.9136770038
 20
102.1832399349
 10
132.0208174769
 20
102.1099775356
 10
132.1289682466
 20
102.0442992892
 10
132.2387097071
 20
101.9857689458
 10
132.3500448222
 20
101.9343889628
  0
LWPOLYLINE
  5
234
100
AcDbEntity
  8
RACCORDO
100
AcDbPolyline
 62
253
  6
CONTINUOUS
 90
5
 70
0
 10
131.4086469695
 20
104.6103259992
 10
131.3964170375
 20
104.5826862356
 10
131.3808680542
 20
104.5578613049
 10
131.3621729369
 20
104.5361274289
 10
131.3471340203
 20
104.522732156
  0
LINE
  5
235
100
AcDbEntity
  8
RACCORDO
100
AcDbLine
 62
253
  6
CONTINUOUS
 10
144.662353452
 20
118.0227224839
 11
148.032826613
 21
120.8784973917
  0
LWPOLYLINE
  5
236
100
AcDbEntity
  8
RACCORDO
100
AcDbPolyline
 62
253
  6
CONTINUOUS
 90
19
 70
0
 10
131.4086736802
 20
103.8493565649
 10
131.4372630953
 20
103.7529174778
 10
131.4715344577
 20
103.6561583138
 10
131.5113389448
 20
103.5595501742
 10
131.5565120846
 20
103.4634995103
 10
131.6068393828
 20
103.3685476719
 10
131.6620273717
 20
103.2753594156
 10
131.7217417768
 20
103.1844517911
 10
131.785715543
 20
103.0961971489
 10
131.8537012668
 20
103.0110213024
 10
131.9253521183
 20
102.92934225
 10
132.0003079973
 20
102.8515543161
 10
132.0782849629
 20
102.7780339629
 10
132.1589558808
 20
102.7090983603
 10
132.2418545731
 20
102.6451490906
 10
132.326461988
 20
102.5866380219
 10
132.4123084738
 20
102.5338725631
 10
132.4989871657
 20
102.4870436579
 10
132.5860568049
 20
102.4463583647
  0
LWPOLYLINE
  5
237
100
AcDbEntity
  8
RACCORDO
100
AcDbPolyline
 62
253
  6
CONTINUOUS
 90
13
 70
0
 10
131.0960952552
 20
104.2043183948
 10
131.0643946268
 20
104.1767090435
 10
131.0334805439
 20
104.1449180072
 10
131.0037418396
 20
104.1091723695
 10
130.9757369998
 20
104.069186269
 10
130.9496579779
 20
104.0253509588
 10
130.9256246239
 20
103.9792029232
 10
130.9047876464
 20
103.931619471
 10
130.8876321738
 20
103.8828425781
 10
130.8735262941
 20
103.8340196321
 10
130.86276617
 20
103.7861162395
 10
130.8565076966
 20
103.7397174267
 10
130.8553017589
 20
103.6955206073
  0
LWPOLYLINE
  5
238
100
AcDbEntity
  8
RACCORDO
100
AcDbPolyline
 62
253
  6
CONTINUOUS
 90
7
 70
0
 10
131.6343124966
 20
104.9395470991
 10
131.6069477575
 20
104.9162046874
 10
131.5566002941
 20
104.8656538617
 10
131.5114007246
 20
104.8094654185
 10
131.4715655207
 20
104.7479681737
 10
131.4372635726
 20
104.6814717684
 10
131.4086469698
 20
104.6103260001
  0
LINE
  5
239
100
AcDbEntity
  8
RACCORDO
100
AcDbLine
 62
253
  6
CONTINUOUS
 10
145.0792911908
 20
117.4554145093
 11
148.441981725
 21
120.3045952598
  0
LINE
  5
23A
100
AcDbEntity
  8
RACCORDO
100
AcDbLine
 62
253
  6
CONTINUOUS
 10
131.096095251
 20
104.2043183967
 11
132.1130892597
 21
105.0386627806
  0
LINE
  5
23B
100
AcDbEntity
  8
RACCORDO
100
AcDbLine
 62
7
  6
CONTINUOUS
 10
131.636509863
 20
104.9413119983
 11
131.6343124966
 21
104.9395470991
  0
LINE
  5
23C
100
AcDbEntity
  8
RACCORDO
100
AcDbLine
 62
253
  6
CONTINUOUS
 10
131.9575605233
 20
105.0477181295
 11
131.4086469698
 21
104.6103260001
  0
LINE
  5
23D
100
AcDbEntity
  8
RACCORDO
100
AcDbLine
 62
7
  6
CONTINUOUS
 10
131.3471340203
 20
104.522732156
 11
132.0067887565
 21
105.0476286389
  0
LWPOLYLINE
  5
23E
100
AcDbEntity
  8
RACCORDO
100
AcDbPolyline
 62
253
  6
CONTINUOUS
 90
16
 70
0
 10
131.4086469695
 20
104.6103259992
 10
131.381562742
 20
104.5910176709
 10
131.3517644813
 20
104.5750694851
 10
131.319385463
 20
104.5622738857
 10
131.2842962118
 20
104.5523190402
 10
131.2467457921
 20
104.5454128659
 10
131.2075991435
 20
104.5420563793
 10
131.1673614509
 20
104.5420016603
 10
131.1261757388
 20
104.5450884076
 10
131.0846688051
 20
104.5517292671
 10
131.0434001928
 20
104.5615951957
 10
131.0027240602
 20
104.5743353486
 10
130.9631065124
 20
104.5903050937
 10
130.9250392937
 20
104.6093431606
 10
130.8889644516
 20
104.6307067761
 10
130.855281636
 20
104.6538562077
  0
LWPOLYLINE
  5
23F
100
AcDbEntity
  8
RACCORDO
100
AcDbPolyline
 62
7
  6
CONTINUOUS
 90
14
 70
0
 10
131.6343064587
 20
104.939542839
 10
131.6833957744
 20
104.9739971612
 10
131.7347331222
 20
105.0007335654
 10
131.7894622941
 20
105.0212565707
 10
131.8476872102
 20
105.0359534599
 10
131.908739394
 20
105.0449741318
 10
131.9720460044
 20
105.0485322878
 10
132.0378025299
 20
105.0468219797
 10
132.104461171
 20
105.0401214797
 10
132.1723162088
 20
105.0286496366
 10
132.2449383084
 20
105.0115620825
 10
132.3234819807
 20
104.9878395525
 10
132.4061726992
 20
104.9572838415
 10
132.4317632404
 20
104.9466994864
  0
LWPOLYLINE
  5
240
100
AcDbEntity
  8
RACCORDO
100
AcDbPolyline
 62
253
  6
CONTINUOUS
 90
16
 70
0
 10
143.9921639553
 20
99.2701551594
 10
144.0008958149
 20
99.2675931825
 10
144.0098615603
 20
99.2655579913
 10
144.0190611916
 20
99.2640495856
 10
144.028590852
 20
99.2630620722
 10
144.0383543982
 20
99.2626013445
 10
144.0480634007
 20
99.2626850824
 10
144.0577111578
 20
99.2633302306
 10
144.0673043713
 20
99.2645198446
 10
144.0765747159
 20
99.2662207704
 10
144.085515176
 20
99.2684489471
 10
144.0941327672
 20
99.2711884358
 10
144.1021802118
 20
99.274358265
 10
144.1095750837
 20
99.2779314442
 10
144.1163998089
 20
99.281934964
 10
144.1226543874
 20
99.2863688243
  0
LWPOLYLINE
  5
241
100
AcDbEntity
  8
RACCORDO
100
AcDbPolyline
 62
253
  6
CONTINUOUS
 90
16
 70
0
 10
143.7937447983
 20
98.7452041423
 10
143.8369655523
 20
98.7324343115
 10
143.8821367319
 20
98.722145252
 10
143.9288300211
 20
98.7144326348
 10
143.9765984316
 20
98.7093683889
 10
144.0249947727
 20
98.7069975482
 10
144.0735763417
 20
98.7073405392
 10
144.1218911567
 20
98.7103956995
 10
144.1694759608
 20
98.7161351291
 10
144.2158754806
 20
98.7245032243
 10
144.2606467262
 20
98.7354197132
 10
144.303372543
 20
98.7487822561
 10
144.3436583246
 20
98.7644669198
 10
144.3811248994
 20
98.7823280357
 10
144.4154137877
 20
98.8021978398
 10
144.4461992657
 20
98.8238900014
  0
LWPOLYLINE
  5
242
100
AcDbEntity
  8
RACCORDO
100
AcDbPolyline
 62
7
  6
CONTINUOUS
 90
13
 70
0
 10
143.8381588801
 20
99.5269760903
 10
143.856775692
 20
99.5211491711
 10
143.9018088553
 20
99.509996059
 10
143.9489645603
 20
99.5024808111
 10
143.9977376684
 20
99.4989065662
 10
144.0459928797
 20
99.4994575764
 10
144.0941283954
 20
99.5040681766
 10
144.1425891552
 20
99.512995695
 10
144.1893113916
 20
99.5259694303
 10
144.2340906637
 20
99.5429054127
 10
144.2773560722
 20
99.5640755496
 10
144.3176931924
 20
99.5888888417
 10
144.3374057156
 20
99.6031385358
  0
LWPOLYLINE
  5
243
100
AcDbEntity
  8
RACCORDO
100
AcDbPolyline
 62
253
  6
CONTINUOUS
 90
14
 70
0
 10
137.7874152929
 20
100.3573754823
 10
137.8786126234
 20
100.3264575105
 10
137.9694895374
 20
100.3019612009
 10
138.0596053265
 20
100.2840366224
 10
138.148586517
 20
100.2728096398
 10
138.2359298883
 20
100.2683662151
 10
138.3210162167
 20
100.2707123802
 10
138.4033813823
 20
100.2798235579
 10
138.4826945241
 20
100.2956472774
 10
138.5585643447
 20
100.3180708504
 10
138.6306239022
 20
100.3469844441
 10
138.6985354119
 20
100.3822495754
 10
138.7619676179
 20
100.423683307
 10
138.8018931515
 20
100.4548742258
  0
LWPOLYLINE
  5
244
100
AcDbEntity
  8
RACCORDO
100
AcDbPolyline
 62
253
  6
CONTINUOUS
 90
19
 70
0
 10
137.5687394327
 20
99.8384435545
 10
137.6841840174
 20
99.7987286027
 10
137.7981216963
 20
99.7674068391
 10
137.9105495579
 20
99.7444758431
 10
138.0220699899
 20
99.7298946911
 10
138.1320769778
 20
99.723701275
 10
138.2387515952
 20
99.7260084725
 10
138.3419541827
 20
99.7369536361
 10
138.4418144805
 20
99.7563909164
 10
138.5369113431
 20
99.7840029885
 10
138.6271687052
 20
99.8198862028
 10
138.7126503642
 20
99.8639335999
 10
138.7921403923
 20
99.9155189835
 10
138.8655839156
 20
99.9747961573
 10
138.9330232168
 20
100.0416003651
 10
138.9933846103
 20
100.1148246155
 10
139.0463054485
 20
100.1940958036
 10
139.0921366366
 20
100.2797768284
 10
139.1308741561
 20
100.3718641642
  0
LWPOLYLINE
  5
245
100
AcDbEntity
  8
RACCORDO
100
AcDbPolyline
 62
253
  6
CONTINUOUS
 90
7
 70
0
 10
139.1308741561
 20
100.3718641642
 10
139.8988267897
 20
100.0924714425
 10
140.6704887848
 20
99.8163803445
 10
141.4458360485
 20
99.5435996403
 10
142.2248442438
 20
99.2741378737
 10
143.0074887245
 20
99.0080033042
 10
143.7937448297
 20
98.7452041718
  0
LWPOLYLINE
  5
246
100
AcDbEntity
  8
RACCORDO
100
AcDbPolyline
 62
253
  6
CONTINUOUS
 90
7
 70
0
 10
139.3445438809
 20
100.8915554699
 10
140.1097103299
 20
100.6131667887
 10
140.8786515375
 20
100.3380402259
 10
141.6513675039
 20
100.0661757815
 10
142.427858229
 20
99.7975734557
 10
143.2081237128
 20
99.5322332483
 10
143.9921639553
 20
99.2701551594
  0
LWPOLYLINE
  5
247
100
AcDbEntity
  8
RACCORDO
100
AcDbPolyline
 62
253
  6
CONTINUOUS
 90
10
 70
0
 10
132.3500448222
 20
101.9343889628
 10
132.920464076
 20
101.6936828646
 10
133.4932620336
 20
101.4549245857
 10
134.0684277028
 20
101.2181185896
 10
134.6459422249
 20
100.9832725196
 10
135.2258024093
 20
100.7503876006
 10
135.8080208814
 20
100.5194587609
 10
136.3925945414
 20
100.2904872996
 10
136.9795044162
 20
100.0634807654
 10
137.5687394327
 20
99.8384435545
  0
LWPOLYLINE
  5
248
100
AcDbEntity
  8
RACCORDO
100
AcDbPolyline
 62
253
  6
CONTINUOUS
 90
10
 70
0
 10
132.5860582917
 20
102.446359595
 10
133.1545708763
 20
102.206468333
 10
133.7254474637
 20
101.9685185823
 10
134.2986880539
 20
101.7325103428
 10
134.8743059379
 20
101.4984382779
 10
135.4522878247
 20
101.2663077242
 10
136.0325938416
 20
101.0361346916
 10
136.6152106978
 20
100.8079245165
 10
137.2001516841
 20
100.5816718625
 10
137.7874168006
 20
100.3573767294
  0
LWPOLYLINE
  5
249
100
AcDbEntity
  8
RACCORDO
100
AcDbPolyline
 62
253
  6
CONTINUOUS
 90
13
 70
0
 10
131.0960952552
 20
104.2043183948
 10
131.1304616174
 20
104.1885164104
 10
131.1644681606
 20
104.1692635073
 10
131.1977365752
 20
104.1467737994
 10
131.2298967691
 20
104.1212974002
 10
131.2605909303
 20
104.093117684
 10
131.2894775176
 20
104.0625481493
 10
131.3162352217
 20
104.0299287484
 10
131.3405662447
 20
103.9956224345
 10
131.362199654
 20
103.9600112301
 10
131.3808947701
 20
103.9234914587
 10
131.3964437512
 20
103.8864692831
 10
131.40867368
 20
103.8493565661
  0
LINE
  5
24A
100
AcDbEntity
  8
RACCORDO
100
AcDbLine
 62
253
  6
CONTINUOUS
 10
127.3134438794
 20
106.2638716718
 11
126.6177045981
 21
106.5946917041
  0
LWPOLYLINE
  5
24B
100
AcDbEntity
  8
RACCORDO
100
AcDbPolyline
 62
7
  6
CONTINUOUS
 90
10
 70
0
 10
126.7015545558
 20
106.4095284702
 10
127.1210340183
 20
106.2094697774
 10
127.5992429317
 20
105.9835889535
 10
128.0794453575
 20
105.7590830173
 10
128.5616256097
 20
105.5359590648
 10
129.0457712287
 20
105.3142226924
 10
129.5318730436
 20
105.0938780453
 10
130.0199186846
 20
104.8749307885
 10
130.5098925213
 20
104.6573880588
 10
130.9376814785
 20
104.4692934507
  0
LWPOLYLINE
  5
24C
100
AcDbEntity
  8
RACCORDO
100
AcDbPolyline
 62
253
  6
CONTINUOUS
 90
7
 70
0
 10
126.8461092572
 20
106.1563972983
 10
127.5445061919
 20
105.8230951064
 10
128.2468767522
 20
105.4929751978
 10
128.9532209383
 20
105.1660375726
 10
129.6635387501
 20
104.8422822306
 10
130.3778301877
 20
104.521709172
 10
131.096095251
 20
104.2043183967
  0
LWPOLYLINE
  5
24D
100
AcDbEntity
  8
RACCORDO
100
AcDbPolyline
 62
253
  6
CONTINUOUS
 90
7
 70
0
 10
126.5913696021
 20
105.6540658805
 10
127.291726366
 20
105.3198079069
 10
127.9962319441
 20
104.9886695477
 10
128.7048644035
 20
104.6606612913
 10
129.4176017853
 20
104.3357936112
 10
130.1344217717
 20
104.0140767166
 10
130.8553017589
 20
103.6955206073
  0
LWPOLYLINE
  5
24E
100
AcDbEntity
  8
RACCORDO
100
AcDbPolyline
 62
253
  6
CONTINUOUS
 90
8
 70
0
 10
130.9378499273
 20
104.4692201544
 10
130.9256068347
 20
104.4755985377
 10
130.9047697342
 20
104.4922575447
 10
130.8876137193
 20
104.5145616278
 10
130.8735071859
 20
104.5426204679
 10
130.8627464913
 20
104.5759217629
 10
130.8564876203
 20
104.613341019
 10
130.855281636
 20
104.6538562077
  0
LWPOLYLINE
  5
24F
100
AcDbEntity
  8
RACCORDO
100
AcDbPolyline
 62
253
  6
CONTINUOUS
 90
10
 70
0
 10
126.6177046142
 20
106.5946917199
 10
126.5819626202
 20
106.6135968046
 10
126.5496018807
 20
106.6343892878
 10
126.5209260369
 20
106.6568711382
 10
126.4962058039
 20
106.6808257983
 10
126.4756688891
 20
106.7060282137
 10
126.459502125
 20
106.7322481366
 10
126.4478577876
 20
106.7592415114
 10
126.4408493901
 20
106.7867495423
 10
126.4385438023
 20
106.8143068249
  0
LWPOLYLINE
  5
250
100
AcDbEntity
  8
RACCORDO
100
AcDbPolyline
 62
253
  6
CONTINUOUS
 90
8
 70
0
 10
126.7011420598
 20
106.4097396311
 10
126.6921582812
 20
106.414614335
 10
126.67022214
 20
106.4318018394
 10
126.6517458909
 20
106.4547254338
 10
126.637042655
 20
106.4829966271
 10
126.6263616116
 20
106.5161363016
 10
126.619883775
 20
106.5535828321
 10
126.6177189267
 20
106.5947016045
  0
LINE
  5
251
100
AcDbEntity
  8
RACCORDO
100
AcDbLine
 62
253
  6
CONTINUOUS
 10
136.0938219346
 20
123.8488931475
 11
136.0938219346
 21
123.6451094618
  0
LWPOLYLINE
  5
252
100
AcDbEntity
  8
RACCORDO
100
AcDbPolyline
 62
253
  6
CONTINUOUS
 90
13
 70
0
 10
132.5859322535
 20
102.4464121295
 10
132.5549764261
 20
102.4192506807
 10
132.5245817073
 20
102.3870013713
 10
132.4952655665
 20
102.3502132449
 10
132.4675271104
 20
102.3095126186
 10
132.4418385855
 20
102.2655924197
 10
132.4186373384
 20
102.2192003886
 10
132.3983183698
 20
102.1711263485
 10
132.3812276097
 20
102.1221887589
 10
132.3676560279
 20
102.0732207812
 10
132.3578346802
 20
102.025056094
 10
132.3519307749
 20
101.9785147001
 10
132.3500448259
 20
101.9343889657
  0
LINE
  5
253
100
AcDbEntity
  8
RACCORDO
100
AcDbLine
 62
253
  6
CONTINUOUS
 10
131.4086736802
 20
103.8493565649
 11
132.6419318201
 21
104.858070765
  0
LWPOLYLINE
  5
254
100
AcDbEntity
  8
RACCORDO
100
AcDbPolyline
 62
253
  6
CONTINUOUS
 90
16
 70
0
 10
131.40867368
 20
103.8493565661
 10
131.381591432
 20
103.8299543694
 10
131.3517952264
 20
103.8110801734
 10
131.3194182344
 20
103.7929500706
 10
131.2843309956
 20
103.775911874
 10
131.2467824332
 20
103.7600313185
 10
131.2076370887
 20
103.745230897
 10
131.16739993
 20
103.7320782612
 10
131.1262140197
 20
103.7208256462
 10
131.0847060952
 20
103.7110558101
 10
131.0434356479
 20
103.7032144432
 10
131.0027569716
 20
103.6976757132
 10
130.9631364422
 20
103.6939035363
 10
130.9250660026
 20
103.6919421068
 10
130.8889878264
 20
103.6923967276
 10
130.8553017589
 20
103.6955206073
  0
LWPOLYLINE
  5
255
100
AcDbEntity
  8
RACCORDO
100
AcDbPolyline
 62
253
  6
CONTINUOUS
 90
8
 70
0
 10
126.826905674
 20
106.232731477
 10
126.7833933977
 20
106.2464593903
 10
126.7406592923
 20
106.254376526
 10
126.6994343121
 20
106.2563473442
 10
126.6604236508
 20
106.2523380139
 10
126.6242945939
 20
106.242416991
 10
126.591665125
 20
106.22675381
 10
126.5647370129
 20
106.2070792948
  0
LWPOLYLINE
  5
256
100
AcDbEntity
  8
RACCORDO
100
AcDbPolyline
 62
253
  6
CONTINUOUS
 90
7
 70
0
 10
143.7639945167
 20
99.7083551151
 10
142.9831626875
 20
99.970559301
 10
142.2057303185
 20
100.236024209
 10
141.4317398821
 20
100.5047357151
 10
140.6612337994
 20
100.7766796519
 10
139.894253777
 20
101.0518411914
 10
139.1308409812
 20
101.3302050065
  0
LWPOLYLINE
  5
257
100
AcDbEntity
  8
RACCORDO
100
AcDbPolyline
 62
7
  6
CONTINUOUS
 90
7
 70
0
 10
140.1929644222
 20
100.7894176927
 10
140.718813379
 20
100.6011777022
 10
141.2463019357
 20
100.4144555534
 10
141.7754163931
 20
100.2292558597
 10
142.3061465954
 20
100.0455820437
 10
142.8384789189
 20
99.863438791
 10
143.8381281603
 20
99.5269758337
  0
LINE
  5
258
100
AcDbEntity
  8
RACCORDO
100
AcDbLine
 62
7
  6
CONTINUOUS
 10
139.208516015
 20
101.1475265737
 11
140.1929644222
 21
100.7894176927
  0
LINE
  5
259
100
AcDbEntity
  8
RACCORDO
100
AcDbLine
 62
7
  6
CONTINUOUS
 10
139.2082974449
 20
101.1476073986
 11
139.208221522
 21
101.1476352837
  0
LWPOLYLINE
  5
25A
100
AcDbEntity
  8
RACCORDO
100
AcDbPolyline
 62
253
  6
CONTINUOUS
 90
10
 70
0
 10
137.568729594
 20
103.0361493484
 10
136.9781070761
 20
103.2619823296
 10
136.3901520918
 20
103.4895992999
 10
135.8048795407
 20
103.7189893117
 10
135.222317214
 20
103.9501362207
 10
134.6424667872
 20
104.1830342681
 10
134.0653039591
 20
104.4176881937
 10
133.4908302092
 20
104.6540922432
 10
132.9190726551
 20
104.8922300518
 10
132.3500454463
 20
105.1320905547
  0
LWPOLYLINE
  5
25B
100
AcDbEntity
  8
RACCORDO
100
AcDbPolyline
 62
253
  6
CONTINUOUS
 90
19
 70
0
 10
132.3500454463
 20
105.1320905547
 10
132.2387996207
 20
105.1752458833
 10
132.129128072
 20
105.2100629809
 10
132.0210278295
 20
105.2365395214
 10
131.9139154564
 20
105.2547321804
 10
131.8083706769
 20
105.2645814203
 10
131.7061315755
 20
105.2659077792
 10
131.6073203425
 20
105.2585597704
 10
131.5118041285
 20
105.2426808035
 10
131.4209316589
 20
105.2185285457
 10
131.3347617085
 20
105.1859926099
 10
131.2532220733
 20
105.1451733197
 10
131.1774600798
 20
105.0966406204
 10
131.1075134052
 20
105.0402268377
 10
131.0433304077
 20
104.9760892637
 10
130.9859207159
 20
104.9052823971
 10
130.9356156348
 20
104.8281538027
 10
130.8920707946
 20
104.7443461878
 10
130.855281636
 20
104.6538562077
  0
LWPOLYLINE
  5
25C
100
AcDbEntity
  8
RACCORDO
100
AcDbPolyline
 62
7
  6
CONTINUOUS
 90
18
 70
0
 10
137.6475136757
 20
102.8519332694
 10
137.688294274
 20
102.8358144884
 10
137.7881473777
 20
102.791179036
 10
137.8886974583
 20
102.7387969949
 10
137.9891081534
 20
102.6788746159
 10
138.0885497218
 20
102.6117456073
 10
138.1861941075
 20
102.5378273309
 10
138.2812978141
 20
102.4575540047
 10
138.3731230516
 20
102.3714644051
 10
138.4609168939
 20
102.280193753
 10
138.5440182719
 20
102.1843750825
 10
138.6218338716
 20
102.0847042478
 10
138.6937750587
 20
101.9819717208
 10
138.7593465143
 20
101.8769445605
 10
138.8181570523
 20
101.7703892194
 10
138.8698381062
 20
101.6631585339
 10
138.9141030535
 20
101.5560982161
 10
138.9507916634
 20
101.4500542563
  0
LINE
  5
25D
100
AcDbEntity
  8
DRAFT
100
AcDbLine
 62
7
  6
CONTINUOUS
 10
138.6620438717
 20
102.0272840815
 11
134.2248502283
 21
103.8093610829
  0
LINE
  5
25E
100
AcDbEntity
  8
SMUSSO
100
AcDbLine
 62
7
  6
CONTINUOUS
 10
138.403573715
 20
102.3398078352
 11
134.7984264092
 21
103.7877162693
  0
LWPOLYLINE
  5
25F
100
AcDbEntity
  8
RACCORDO
100
AcDbPolyline
 62
7
  6
CONTINUOUS
 90
12
 70
0
 10
130.9378499273
 20
104.4692201544
 10
130.9519819288
 20
104.4633614947
 10
130.9923173957
 20
104.4499626805
 10
131.0336643835
 20
104.4409489624
 10
131.0762956606
 20
104.4363228211
 10
131.1197432803
 20
104.4363172684
 10
131.1632663148
 20
104.4410785679
 10
131.2066713591
 20
104.4507545046
 10
131.2491639923
 20
104.4653639139
 10
131.2901111231
 20
104.4848445262
 10
131.3294096497
 20
104.5094134561
 10
131.3469718088
 20
104.52260323
  0
LWPOLYLINE
  5
260
100
AcDbEntity
  8
RACCORDO
100
AcDbPolyline
 62
7
  6
CONTINUOUS
 90
10
 70
0
 10
132.4317619147
 20
104.9467083751
 10
132.9559989705
 20
104.7256152568
 10
133.5422119233
 20
104.4812578225
 10
134.1309309962
 20
104.2388717355
 10
134.7221331981
 20
103.9984667925
 10
135.3157989559
 20
103.7600508749
 10
135.9119101135
 20
103.5236311773
 10
136.5104468718
 20
103.2892154323
 10
137.1113851099
 20
103.0568125647
 10
137.6474668309
 20
102.8519603983
  0
LWPOLYLINE
  5
261
100
AcDbEntity
  8
RACCORDO
100
AcDbPolyline
 62
7
  6
CONTINUOUS
 90
9
 70
0
 10
134.7984264092
 20
103.7877162693
 10
134.691682019
 20
103.8338265247
 10
134.5858214276
 20
103.886081122
 10
134.480844635
 20
103.9444800612
 10
134.3762439244
 20
104.0093433532
 10
134.2725270125
 20
104.0803509871
 10
134.1712170499
 20
104.1565429304
 10
134.0724579736
 20
104.2379329404
 10
134.0210753594
 20
104.2841012501
  0
LWPOLYLINE
  5
262
100
AcDbEntity
  8
RACCORDO
100
AcDbPolyline
 62
7
  6
CONTINUOUS
 90
13
 70
0
 10
134.2248502283
 20
103.8093610829
 10
134.1363954647
 20
103.8480221125
 10
134.0483855716
 20
103.8927598557
 10
133.9612623476
 20
103.9433495593
 10
133.8754638727
 20
103.9995365826
 10
133.7914200199
 20
104.0610391481
 10
133.7095504685
 20
104.1275502174
 10
133.6302651188
 20
104.1987372938
 10
133.5539634238
 20
104.2742422488
 10
133.4810300098
 20
104.3536846351
 10
133.41183145
 20
104.436665035
 10
133.3467146176
 20
104.5227673547
 10
133.3084824523
 20
104.5786857855
  0
LWPOLYLINE
  5
263
100
AcDbEntity
  8
RACCORDO
100
AcDbPolyline
 62
253
  6
CONTINUOUS
 90
6
 70
0
 10
130.855281636
 20
104.6538562077
 10
130.1386227082
 20
104.9699225824
 10
129.4260706272
 20
105.2889745066
 10
128.7176645722
 20
105.6109950354
 10
128.0134430878
 20
105.9359667627
 10
127.3134438794
 20
106.2638716718
  0
LWPOLYLINE
  5
264
100
AcDbEntity
  8
RACCORDO
100
AcDbPolyline
 62
253
  6
CONTINUOUS
 90
8
 70
0
 10
143.8381281603
 20
99.5269758337
 10
143.8218382044
 20
99.5349364395
 10
143.8047446542
 20
99.5501777498
 10
143.790358475
 20
99.5714576643
 10
143.7789234763
 20
99.598415542
 10
143.7706334527
 20
99.6305945147
 10
143.7656288992
 20
99.6674492298
 10
143.7639946303
 20
99.7083550925
  0
LWPOLYLINE
  5
265
100
AcDbEntity
  8
RACCORDO
100
AcDbPolyline
 62
253
  6
CONTINUOUS
 90
13
 70
0
 10
144.1226543874
 20
99.2863688243
 10
144.1646352531
 20
99.2657604652
 10
144.2059322702
 20
99.2399281461
 10
144.2458390404
 20
99.2093137367
 10
144.2836729461
 20
99.1744409061
 10
144.3187868266
 20
99.1359061646
 10
144.3505800485
 20
99.094368661
 10
144.3785087784
 20
99.0505389067
 10
144.4020952872
 20
99.0051666236
 10
144.4209361212
 20
98.9590279189
 10
144.4347090021
 20
98.9129120097
 10
144.4431783405
 20
98.8676077225
 10
144.4461992657
 20
98.8238900014
  0
LWPOLYLINE
  5
266
100
AcDbEntity
  8
RACCORDO
100
AcDbPolyline
 62
253
  6
CONTINUOUS
 90
8
 70
0
 10
139.208221522
 20
101.1476352837
 10
139.1931520229
 20
101.1551669536
 10
139.1749472877
 20
101.1707701238
 10
139.1591295793
 20
101.192537677
 10
139.1469447213
 20
101.219825107
 10
139.138662724
 20
101.2521305773
 10
139.133446247
 20
101.2891299833
 10
139.1308409812
 20
101.3302050065
  0
LWPOLYLINE
  5
267
100
AcDbEntity
  8
RACCORDO
100
AcDbPolyline
 62
253
  6
CONTINUOUS
 90
8
 70
0
 10
137.6474668309
 20
102.8519603983
 10
137.6322975836
 20
102.8595953267
 10
137.6134510663
 20
102.875587474
 10
137.5976025551
 20
102.8975433035
 10
137.585021871
 20
102.925089017
 10
137.5759232001
 20
102.9577556486
 10
137.5704614475
 20
102.9949870489
 10
137.5687295994
 20
103.036149353
  0
LWPOLYLINE
  5
268
100
AcDbEntity
  8
RACCORDO
100
AcDbPolyline
 62
253
  6
CONTINUOUS
 90
8
 70
0
 10
132.4317589193
 20
104.9467013191
 10
132.4186353264
 20
104.9535120621
 10
132.3983170839
 20
104.9700967666
 10
132.3812271619
 20
104.9925528914
 10
132.3676565307
 20
105.0204981021
 10
132.3578362415
 20
105.0534566083
 10
132.3519334931
 20
105.0908672637
 10
132.3500487848
 20
105.1320931205
  0
LINE
  5
269
100
AcDbEntity
  8
DRAFT
100
AcDbLine
 62
7
  6
CONTINUOUS
 10
137.4669814655
 20
125.1219790044
 11
137.4669814655
 21
123.9202384522
  0
LINE
  5
26A
100
AcDbEntity
  8
RACCORDO
100
AcDbLine
 62
253
  6
CONTINUOUS
 10
134.2248502283
 20
103.8093610829
 11
132.5860582917
 21
102.446359595
  0
LINE
  5
26B
100
AcDbEntity
  8
DRAFT
100
AcDbLine
 62
253
  6
CONTINUOUS
 10
134.2248502283
 20
103.8093610829
 11
134.7984264092
 21
103.7877162693
  0
LWPOLYLINE
  5
26C
100
AcDbEntity
  8
RACCORDO
100
AcDbPolyline
 62
253
  6
CONTINUOUS
 90
9
 70
0
 10
138.9621089909
 20
101.4123848321
 10
138.9698160035
 20
101.3949102244
 10
138.9814480543
 20
101.3802079161
 10
138.9972206277
 20
101.367163359
 10
139.0170318625
 20
101.3556091614
 10
139.0405742775
 20
101.346211536
 10
139.0675837482
 20
101.3391128917
 10
139.0977964762
 20
101.3338540419
 10
139.1308409812
 20
101.3302050065
  0
LWPOLYLINE
  5
26D
100
AcDbEntity
  8
RACCORDO
100
AcDbPolyline
 62
253
  6
CONTINUOUS
 90
19
 70
0
 10
139.1308409812
 20
101.3302050065
 10
139.0921494438
 20
101.4509208394
 10
139.0463603673
 20
101.5705392617
 10
138.9934776507
 20
101.6890638996
 10
138.9331513669
 20
101.8071350577
 10
138.8657428838
 20
101.9241228453
 10
138.7923223777
 20
102.0381250333
 10
138.7128420104
 20
102.1490242552
 10
138.6273618894
 20
102.2569489827
 10
138.5371106369
 20
102.3603627152
 10
138.4420336212
 20
102.4592095054
 10
138.342197384
 20
102.553555928
 10
138.2390078151
 20
102.6420453084
 10
138.1323329578
 20
102.7246454354
 10
138.0223144938
 20
102.8013970348
 10
137.9107626132
 20
102.8710474296
 10
137.7982804445
 20
102.9331787859
 10
137.6842684729
 20
102.9882119541
 10
137.568729594
 20
103.0361493484
  0
LWPOLYLINE
  5
26E
100
AcDbEntity
  8
RACCORDO
100
AcDbPolyline
 62
7
  6
CONTINUOUS
 90
11
 70
0
 10
138.9507916634
 20
101.4500542563
 10
138.964005495
 20
101.4059930748
 10
138.9783136356
 20
101.3666840762
 10
138.9966930262
 20
101.3290046531
 10
139.0189726164
 20
101.2933737999
 10
139.0449523371
 20
101.260179464
 10
139.0743878885
 20
101.2298041225
 10
139.1069687797
 20
101.2026303309
 10
139.142334891
 20
101.1790065123
 10
139.1800974118
 20
101.1592309775
 10
139.208221522
 20
101.1476352837
  0
LINE
  5
26F
100
AcDbEntity
  8
RACCORDO
100
AcDbLine
 62
7
  6
CONTINUOUS
 10
138.9620800091
 20
101.4124857015
 11
138.9621089909
 21
101.4123848321
  0
LINE
  5
270
100
AcDbEntity
  8
RACCORDO
100
AcDbLine
 62
7
  6
CONTINUOUS
 10
148.441981725
 20
113.2014099742
 11
149.7087837447
 21
114.4750883616
  0
LINE
  5
271
100
AcDbEntity
  8
RACCORDO
100
AcDbLine
 62
7
  6
CONTINUOUS
 10
147.3043471538
 20
101.8672869141
 11
147.368634095
 21
101.8414678292
  0
LWPOLYLINE
  5
272
100
AcDbEntity
  8
RACCORDO
100
AcDbPolyline
 62
253
  6
CONTINUOUS
 90
13
 70
0
 10
138.9708162454
 20
100.7027589994
 10
138.966812798
 20
100.6904452903
 10
138.9609898208
 20
100.6618216935
 10
138.9595056006
 20
100.6318948397
 10
138.9624493505
 20
100.6013995793
 10
138.9698474897
 20
100.5706350441
 10
138.9814816608
 20
100.5395231524
 10
138.9972559421
 20
100.508772751
 10
139.0170682948
 20
100.4789412475
 10
139.0406111455
 20
100.4498031307
 10
139.0676202871
 20
100.421706078
 10
139.0978318005
 20
100.3955388227
 10
139.1308741561
 20
100.3718641642
  0
LINE
  5
273
100
AcDbEntity
  8
RACCORDO
100
AcDbLine
 62
7
  6
CONTINUOUS
 10
138.9710026501
 20
100.703268135
 11
138.9708162454
 21
100.7027589994
  0
LWPOLYLINE
  5
274
100
AcDbEntity
  8
RACCORDO
100
AcDbPolyline
 62
7
  6
CONTINUOUS
 90
9
 70
0
 10
138.965092936
 20
100.6877292249
 10
138.9744024891
 20
100.7122071862
 10
138.9857114102
 20
100.7381692767
 10
138.9987634661
 20
100.7631510637
 10
139.0134996336
 20
100.7870874865
 10
139.0299425384
 20
100.8100103449
 10
139.0480503384
 20
100.8318182884
 10
139.0676850654
 20
100.8523162975
 10
139.0887315255
 20
100.8713766904
  0
LWPOLYLINE
  5
275
100
AcDbEntity
  8
RACCORDO
100
AcDbPolyline
 62
7
  6
CONTINUOUS
 90
7
 70
0
 10
138.965092936
 20
100.6877292249
 10
138.9424443677
 20
100.6364130622
 10
138.9161531017
 20
100.588530977
 10
138.8864172632
 20
100.5444774004
 10
138.8531795536
 20
100.5041345614
 10
138.8159071693
 20
100.467038947
 10
138.8018892561
 20
100.454870385
  0
LWPOLYLINE
  5
276
100
AcDbEntity
  8
RACCORDO
100
AcDbPolyline
 62
253
  6
CONTINUOUS
 90
13
 70
0
 10
137.7875476695
 20
100.3573363642
 10
137.7588152653
 20
100.3292813511
 10
137.7306061465
 20
100.2961534913
 10
137.7034005962
 20
100.2585168134
 10
137.677661811
 20
100.2170121124
 10
137.6538280145
 20
100.1723460395
 10
137.6323049962
 20
100.1252790709
 10
137.6134592027
 20
100.0766125599
 10
137.5976114991
 20
100.0271750934
 10
137.5850317053
 20
99.9778083841
 10
137.5759340026
 20
99.9293529405
 10
137.5704732868
 20
99.8826337555
 10
137.5687425309
 20
99.8384462614
  0
LINE
  5
277
100
AcDbEntity
  8
RACCORDO
100
AcDbLine
 62
253
  6
CONTINUOUS
 10
138.9849263394
 20
101.3531274317
 11
137.7874168006
 21
100.3573767294
  0
LWPOLYLINE
  5
278
100
AcDbEntity
  8
RACCORDO
100
AcDbPolyline
 62
253
  6
CONTINUOUS
 90
10
 70
0
 10
144.052378445
 20
82.32948347
 10
143.9977981325
 20
84.1947593067
 10
143.9504017026
 20
86.0349244082
 10
143.9098814659
 20
87.8496689741
 10
143.8762871924
 20
89.6183244696
 10
143.84883985
 20
91.3608553491
 10
143.8265749887
 20
93.1384062413
 10
143.8096263148
 20
94.9717182147
 10
143.7985818008
 20
96.8405807597
 10
143.7937448297
 20
98.7452041718
  0
LWPOLYLINE
  5
279
100
AcDbEntity
  8
RACCORDO
100
AcDbPolyline
 62
253
  6
CONTINUOUS
 90
19
 70
0
 10
144.0230268702
 20
116.5430915048
 10
144.0275601324
 20
116.6272872819
 10
144.0365851563
 20
116.7144532756
 10
144.0500461593
 20
116.8040016736
 10
144.0678711334
 20
116.8953156432
 10
144.0899381181
 20
116.9877908347
 10
144.116079358
 20
117.0808403734
 10
144.1461456032
 20
117.1738417016
 10
144.1799454586
 20
117.2661580514
 10
144.2172145357
 20
117.3571807332
 10
144.2577309947
 20
117.4462896764
 10
144.3012407897
 20
117.5328783703
 10
144.3474006152
 20
117.6163765064
 10
144.3959274025
 20
117.6962073573
 10
144.446521922
 20
117.771830014
 10
144.4987950232
 20
117.8427623241
 10
144.5523994541
 20
117.9085261455
 10
144.6070311503
 20
117.9686525493
 10
144.6623534249
 20
118.022722461
  0
LINE
  5
27A
100
AcDbEntity
  8
RACCORDO
100
AcDbLine
 62
7
  6
CONTINUOUS
 10
148.441981725
 20
109.8428865926
 11
149.7087837447
 21
111.190878503
  0
LWPOLYLINE
  5
27B
100
AcDbEntity
  8
RACCORDO
100
AcDbPolyline
 62
253
  6
CONTINUOUS
 90
13
 70
0
 10
139.3445438764
 20
100.8915554716
 10
139.3155094094
 20
100.8628777764
 10
139.2882650693
 20
100.8296153752
 10
139.2625288861
 20
100.7922645331
 10
139.2376183721
 20
100.7510376496
 10
139.2140154631
 20
100.7062093594
 10
139.1931873741
 20
100.6587747207
 10
139.1749824576
 20
100.6101337829
 10
139.1591643778
 20
100.5608183959
 10
139.1469790578
 20
100.5112221429
 10
139.1386965656
 20
100.4623213383
 10
139.1334796807
 20
100.4155015684
 10
139.1308741561
 20
100.3718641642
  0
LINE
  5
27C
100
AcDbEntity
  8
RACCORDO
100
AcDbLine
 62
7
  6
CONTINUOUS
 10
139.3534284553
 20
101.0945191235
 11
139.0887315257
 21
100.8713766907
  0
LINE
  5
27D
100
AcDbEntity
  8
RACCORDO
100
AcDbLine
 62
253
  6
CONTINUOUS
 10
139.5151377482
 20
101.0353675607
 11
139.3445438809
 21
100.8915554699
  0
LINE
  5
27E
100
AcDbEntity
  8
RACCORDO
100
AcDbLine
 62
7
  6
CONTINUOUS
 10
138.8018931515
 20
100.4548742258
 11
138.8023113702
 21
100.4552248532
  0
LWPOLYLINE
  5
27F
100
AcDbEntity
  8
RACCORDO
100
AcDbPolyline
 62
253
  6
CONTINUOUS
 90
10
 70
0
 10
139.0887315257
 20
100.8713766906
 10
139.0992203731
 20
100.8795720217
 10
139.1234688186
 20
100.894367726
 10
139.1501988961
 20
100.9055052279
 10
139.179113114
 20
100.9128606562
 10
139.2098898549
 20
100.9163522722
 10
139.2421866579
 20
100.9159412884
 10
139.27564419
 20
100.9116323517
 10
139.3098902545
 20
100.9034734689
 10
139.3445438764
 20
100.8915554716
  0
LWPOLYLINE
  5
280
100
AcDbEntity
  8
RACCORDO
100
AcDbPolyline
 62
253
  6
CONTINUOUS
 90
10
 70
0
 10
144.7125537892
 20
82.4216735748
 10
144.6568659464
 20
84.2861680938
 10
144.6079502693
 20
86.1249019147
 10
144.5658067578
 20
87.9378750376
 10
144.5307673343
 20
89.7047485406
 10
144.5025000764
 20
91.4458613456
 10
144.480009217
 20
93.2222302175
 10
144.4629628339
 20
95.054194078
 10
144.4516928494
 20
96.9214140054
 10
144.4461992635
 20
98.8238899997
  0
LWPOLYLINE
  5
281
100
AcDbEntity
  8
RACCORDO
100
AcDbPolyline
 62
253
  6
CONTINUOUS
 90
10
 70
0
 10
144.4165483124
 20
99.7848399881
 10
144.4202425395
 20
101.4876378452
 10
144.4299252418
 20
103.2217971622
 10
144.4455964193
 20
104.9873179393
 10
144.4665926213
 20
106.7708235469
 10
144.4935772986
 20
108.5856906145
 10
144.5285408027
 20
110.4720490307
 10
144.5721465845
 20
112.4432754251
 10
144.6237311932
 20
114.4859931681
 10
144.6832946289
 20
116.6002022597
  0
LWPOLYLINE
  5
282
100
AcDbEntity
  8
RACCORDO
100
AcDbPolyline
 62
253
  6
CONTINUOUS
 90
10
 70
0
 10
143.7639945167
 20
99.7083551151
 10
143.767994159
 20
101.4131150211
 10
143.7773139157
 20
103.1490105239
 10
143.7921983526
 20
104.916206534
 10
143.8127216465
 20
106.7018050082
 10
143.8392276732
 20
108.5189684894
 10
143.8727394025
 20
110.4072430236
 10
143.914200533
 20
112.3802526554
 10
143.9640659059
 20
114.4253754571
 10
144.0230268604
 20
116.5430915062
  0
LWPOLYLINE
  5
283
100
AcDbEntity
  8
RACCORDO
100
AcDbPolyline
 62
253
  6
CONTINUOUS
 90
19
 70
0
 10
144.6832946289
 20
116.6002022597
 10
144.6862001483
 20
116.6494806531
 10
144.6917967116
 20
116.6998498159
 10
144.7000843188
 20
116.7513097483
 10
144.7111536205
 20
116.804247368
 10
144.7249139662
 20
116.8582757573
 10
144.7410934036
 20
116.9122341623
 10
144.7597405685
 20
116.9660960185
 10
144.7808068251
 20
117.0198878903
 10
144.8038743142
 20
117.0725287179
 10
144.8289860694
 20
117.1239974989
 10
144.8560990571
 20
117.1743152356
 10
144.8846663168
 20
117.2224638753
 10
144.9147360644
 20
117.268413477
 10
144.9462600841
 20
117.3121939817
 10
144.9785467674
 20
117.3528771602
 10
145.0113655782
 20
117.3901536027
 10
145.0449470527
 20
117.4243327191
 10
145.0792911908
 20
117.4554145093
  0
LWPOLYLINE
  5
284
100
AcDbEntity
  8
RACCORDO
100
AcDbPolyline
 62
253
  6
CONTINUOUS
 90
13
 70
0
 10
143.9921639553
 20
99.2701551594
 10
143.9661475236
 20
99.2412310654
 10
143.9406059767
 20
99.2072722908
 10
143.9159721704
 20
99.1688543393
 10
143.892663577
 20
99.126628285
 10
143.87107521
 20
99.0813097384
 10
143.85157293
 20
99.033666719
 10
143.8344872444
 20
98.9845066393
 10
143.8201077061
 20
98.9346626217
 10
143.8086780064
 20
98.8849793795
 10
143.8003918455
 20
98.8362989013
 10
143.7953896496
 20
98.7894461816
 10
143.7937561908
 20
98.7452152399
  0
LWPOLYLINE
  5
285
100
AcDbEntity
  8
RACCORDO
100
AcDbPolyline
 62
253
  6
CONTINUOUS
 90
7
 70
0
 10
144.3376692109
 20
99.603325685
 10
144.3488543409
 20
99.6126158668
 10
144.3724417951
 20
99.6385080492
 10
144.3912835745
 20
99.6692380123
 10
144.4050572668
 20
99.7042801402
 10
144.4135271766
 20
99.7430350969
 10
144.4165483108
 20
99.7848399869
  0
LINE
  5
286
100
AcDbEntity
  8
RACCORDO
100
AcDbLine
 62
253
  6
CONTINUOUS
 10
144.1226543874
 20
99.2863688243
 11
147.368634095
 21
101.8414678292
  0
LINE
  5
287
100
AcDbEntity
  8
RACCORDO
100
AcDbLine
 62
253
  6
CONTINUOUS
 10
144.4461992635
 20
98.8238899997
 11
147.6963323578
 21
101.3822583763
  0
LINE
  5
288
100
AcDbEntity
  8
RACCORDO
100
AcDbLine
 62
253
  6
CONTINUOUS
 10
148.441981725
 20
102.8567693826
 11
144.4165483124
 21
99.7848399881
  0
LINE
  5
289
100
AcDbEntity
  8
RACCORDO
100
AcDbLine
 62
7
  6
CONTINUOUS
 10
148.3628961402
 20
102.6750975058
 11
144.3376693767
 21
99.6033258115
  0
LWPOLYLINE
  5
28A
100
AcDbEntity
  8
RACCORDO
100
AcDbPolyline
 62
253
  6
CONTINUOUS
 90
16
 70
0
 10
144.4165483144
 20
99.7848399896
 10
144.3857576985
 20
99.7633613795
 10
144.3514626187
 20
99.7437011283
 10
144.3139889602
 20
99.7260447568
 10
144.2736953841
 20
99.7105602245
 10
144.2309612545
 20
99.6973914062
 10
144.1861813787
 20
99.6866584567
 10
144.1397731231
 20
99.6784627385
 10
144.0921797003
 20
99.6728840289
 10
144.0438566087
 20
99.669974925
 10
143.9952673276
 20
99.6697624894
 10
143.946864055
 20
99.6722480071
 10
143.899089704
 20
99.6774088057
 10
143.8523916645
 20
99.6851988059
 10
143.8072171085
 20
99.6955462457
 10
143.7639945188
 20
99.7083551192
  0
LINE
  5
28B
100
AcDbEntity
  8
DRAFT
100
AcDbLine
 62
7
  6
CONTINUOUS
 10
148.441981725
 20
114.9145253864
 11
149.206348356
 21
114.9839838173
  0
LINE
  5
28C
100
AcDbEntity
  8
RACCORDO
100
AcDbLine
 62
7
  6
CONTINUOUS
 10
147.6963323578
 20
101.3822583763
 11
147.6963323578
 21
91.0878686081
  0
LINE
  5
28D
100
AcDbEntity
  8
DRAFT
100
AcDbLine
 62
7
  6
CONTINUOUS
 10
148.441981725
 20
113.2014099742
 11
148.441981725
 21
109.8428865926
  0
LINE
  5
28E
100
AcDbEntity
  8
RACCORDO
100
AcDbLine
 62
7
  6
CONTINUOUS
 10
148.441981725
 20
102.8567693826
 11
148.441981725
 21
109.8428865926
  0
LINE
  5
28F
100
AcDbEntity
  8
RACCORDO
100
AcDbLine
 62
7
  6
CONTINUOUS
 10
148.441981725
 20
113.2014099742
 11
148.441981725
 21
120.3045952598
  0
LINE
  5
290
100
AcDbEntity
  8
RACCORDO
100
AcDbLine
 62
7
  6
CONTINUOUS
 10
147.0681667079
 20
83.5579366125
 11
147.6963323578
 21
91.0878686081
  0
LINE
  5
291
100
AcDbEntity
  8
RACCORDO
100
AcDbLine
 62
253
  6
CONTINUOUS
 10
149.7087837447
 20
114.4750883616
 11
149.7087837447
 21
111.190878503
  0
LINE
  5
292
100
AcDbEntity
  8
RACCORDO
100
AcDbLine
 62
7
  6
CONTINUOUS
 10
149.7714738912
 20
114.6108054966
 11
149.7714738912
 21
111.3332367423
  0
LWPOLYLINE
  5
293
100
AcDbEntity
  8
RACCORDO
100
AcDbPolyline
 62
253
  6
CONTINUOUS
 90
13
 70
0
 10
144.0230371871
 20
116.5431006036
 10
144.0775384398
 20
116.526404016
 10
144.135125205
 20
116.5134068535
 10
144.1949257778
 20
116.5043058574
 10
144.2560349422
 20
116.4992387917
 10
144.3175276738
 20
116.4982823578
 10
144.3784731421
 20
116.5014510326
 10
144.4379488005
 20
116.5086968511
 10
144.4950543514
 20
116.5199101317
 10
144.5489253742
 20
116.5349211361
 10
144.5987464099
 20
116.553502639
 10
144.6437633054
 20
116.5753733678
 10
144.6832946287
 20
116.6002022598
  0
LWPOLYLINE
  5
294
100
AcDbEntity
  8
RACCORDO
100
AcDbPolyline
 62
253
  6
CONTINUOUS
 90
31
 70
0
 10
144.0230268604
 20
116.5430915062
 10
143.4420476306
 20
116.7446748307
 10
142.8628635872
 20
116.9476738158
 10
142.2854836995
 20
117.1520831047
 10
141.7100203244
 20
117.3578601504
 10
141.1363783464
 20
117.5650362536
 10
140.5642579087
 20
117.7737190297
 10
139.993537029
 20
117.9839544057
 10
139.4243607082
 20
118.1956904888
 10
138.8568312106
 20
118.4088896562
 10
138.2910043956
 20
118.6235305337
 10
137.726844774
 20
118.8396261696
 10
137.16431718
 20
119.0571902124
 10
136.6032961247
 20
119.2762724161
 10
136.043929247
 20
119.4968162098
 10
135.4865881848
 20
119.7186733587
 10
134.9316102766
 20
119.9417040915
 10
134.3786705597
 20
120.1660333946
 10
133.8271496124
 20
120.3919121017
 10
133.2782574687
 20
120.6188399374
 10
132.7308019054
 20
120.8473070156
 10
132.1806059095
 20
121.0790859164
 10
131.6286526049
 20
121.3138065618
 10
131.0740602891
 20
121.5518931306
 10
130.5099653482
 20
121.796394426
 10
129.93597595
 20
122.0476199747
 10
129.3527471404
 20
122.3054318364
 10
128.7551186414
 20
122.5723059212
 10
128.1415326323
 20
122.8491759135
 10
127.5139695396
 20
123.1353851549
 10
126.8726455047
 20
123.4310713028
  0
LWPOLYLINE
  5
295
100
AcDbEntity
  8
RACCORDO
100
AcDbPolyline
 62
253
  6
CONTINUOUS
 90
9
 70
0
 10
126.8726455055
 20
123.431071307
 10
126.8271984759
 20
123.4545165613
 10
126.7871837572
 20
123.4807189272
 10
126.7532070811
 20
123.5092817606
 10
126.7257827772
 20
123.5397726854
 10
126.7053259868
 20
123.5717301382
 10
126.6921463793
 20
123.604670356
 10
126.6864434638
 20
123.6380946989
 10
126.6862453339
 20
123.6503309152
  0
LWPOLYLINE
  5
296
100
AcDbEntity
  8
RACCORDO
100
AcDbPolyline
 62
253
  6
CONTINUOUS
 90
5
 70
0
 10
144.662353452
 20
118.0227224839
 10
144.0821003469
 20
118.2226536736
 10
143.5037492428
 20
118.4240473591
 10
142.9273001396
 20
118.6269035403
 10
142.3528876549
 20
118.8311746423
  0
LINE
  5
297
100
AcDbEntity
  8
RACCORDO
100
AcDbLine
 62
253
  6
CONTINUOUS
 10
142.3528876549
 20
118.8311746423
 11
141.4063726381
 21
119.1727120624
  0
LWPOLYLINE
  5
298
100
AcDbEntity
  8
RACCORDO
100
AcDbPolyline
 62
253
  6
CONTINUOUS
 90
14
 70
0
 10
141.4063726381
 20
119.1727120624
 10
140.639657908
 20
119.453259526
 10
140.0714491289
 20
119.6638772144
 10
139.504912867
 20
119.8760375584
 10
138.9401134999
 20
120.0897171383
 10
138.3769866501
 20
120.3049393738
 10
137.8155135542
 20
120.5217119599
 10
137.255566273
 20
120.7400869981
 10
136.6972727457
 20
120.9600123868
 10
136.1409980268
 20
121.1813395158
 10
135.5870558984
 20
121.4039411103
 10
135.0351325784
 20
121.627944445
 10
134.4846517741
 20
121.8535827347
 10
133.9367988454
 20
122.0803283866
  0
LINE
  5
299
100
AcDbEntity
  8
RACCORDO
100
AcDbLine
 62
7
  6
CONTINUOUS
 10
149.206348356
 20
114.9839838173
 11
149.5582621094
 21
114.8426473203
  0
LINE
  5
29A
100
AcDbEntity
  8
RACCORDO
100
AcDbLine
 62
253
  6
CONTINUOUS
 10
133.9367988454
 20
122.0803283866
 11
133.1843532997
 21
122.3956975592
  0
LWPOLYLINE
  5
29B
100
AcDbEntity
  8
RACCORDO
100
AcDbPolyline
 62
253
  6
CONTINUOUS
 90
10
 70
0
 10
133.1843532997
 20
122.3956975592
 10
132.2903939944
 20
122.7753454155
 10
131.7368099692
 20
123.0136012307
 10
131.1737158452
 20
123.2585568798
 10
130.600442074
 20
123.5103854978
 10
130.0176582041
 20
123.7689139496
 10
129.420552638
 20
124.036871717
 10
128.8075215101
 20
124.3151686271
 10
128.180168686
 20
124.6028948528
 10
127.5384941657
 20
124.900050394
  0
LWPOLYLINE
  5
29C
100
AcDbEntity
  8
RACCORDO
100
AcDbPolyline
 62
253
  6
CONTINUOUS
 90
16
 70
0
 10
144.6623534249
 20
118.022722461
 10
144.704414146
 20
118.0026803728
 10
144.7461790021
 20
117.9785185136
 10
144.787191206
 20
117.9505011446
 10
144.8270022019
 20
117.9189346952
 10
144.8651765721
 20
117.8841644115
 10
144.9012967994
 20
117.8465705811
 10
144.9349678326
 20
117.8065643723
 10
144.9658214073
 20
117.7645833379
 10
144.993520074
 20
117.7210866298
 10
145.0177608892
 20
117.6765499768
 10
145.038278728
 20
117.6314604817
 10
145.0548491842
 20
117.586311294
 10
145.0672910248
 20
117.541596216
 10
145.0754681719
 20
117.4978043019
 10
145.0792911908
 20
117.4554145093
  0
LWPOLYLINE
  5
29D
100
AcDbEntity
  8
RACCORDO
100
AcDbPolyline
 62
253
  6
CONTINUOUS
 90
10
 70
0
 10
127.5384941361
 20
124.900050366
 10
127.4950329584
 20
124.9143556922
 10
127.4522113861
 20
124.924165399
 10
127.410497775
 20
124.9293722186
 10
127.3703483401
 20
124.9299192274
 10
127.3322022224
 20
124.9258004659
 10
127.2964766765
 20
124.9170610253
 10
127.2635624272
 20
124.9037965415
 10
127.2338194247
 20
124.8861521335
 10
127.2108516103
 20
124.8674578442
  0
LINE
  5
29E
100
AcDbEntity
  8
RACCORDO
100
AcDbLine
 62
7
  6
CONTINUOUS
 10
136.1704602754
 20
123.5990630799
 11
139.3736573915
 21
122.3125869037
  0
LINE
  5
29F
100
AcDbEntity
  8
RACCORDO
100
AcDbLine
 62
7
  6
CONTINUOUS
 10
130.6659614539
 20
127.8534219664
 11
137.4669814655
 21
125.1219790044
  0
LINE
  5
2A0
100
AcDbEntity
  8
RACCORDO
100
AcDbLine
 62
7
  6
CONTINUOUS
 10
141.2318066014
 20
123.6099403538
 11
148.032826613
 21
120.8784973917
  0
LWPOLYLINE
  5
2A1
100
AcDbEntity
  8
RACCORDO
100
AcDbPolyline
 62
253
  6
CONTINUOUS
 90
8
 70
0
 10
144.994184705
 20
81.9418894664
 10
145.0227911787
 20
81.9655516724
 10
145.0470315272
 20
81.9927870192
 10
145.0675488539
 20
82.0239392311
 10
145.0841188126
 20
82.0586675692
 10
145.0965602238
 20
82.0965921853
 10
145.1047370607
 20
82.137298272
 10
145.1085599408
 20
82.1803406132
  0
LINE
  5
2A2
100
AcDbEntity
  8
RACCORDO
100
AcDbLine
 62
253
  6
CONTINUOUS
 10
147.0681667079
 20
83.5579366125
 11
145.1085599408
 21
82.1803406132
  0
LINE
  5
2A3
100
AcDbEntity
  8
RACCORDO
100
AcDbLine
 62
7
  6
CONTINUOUS
 10
146.9379401299
 20
83.3083420333
 11
144.9941845962
 21
81.9418893899
  0
LWPOLYLINE
  5
2A4
100
AcDbEntity
  8
RACCORDO
100
AcDbPolyline
 62
253
  6
CONTINUOUS
 90
19
 70
0
 10
145.1085599408
 20
82.1803406132
 10
145.0742134582
 20
82.1581776443
 10
145.0406297631
 20
82.1402947689
 10
145.0078088557
 20
82.1266919871
 10
144.9755201642
 20
82.1173213132
 10
144.9439942603
 20
82.1122307328
 10
144.9139228589
 20
82.1115642032
 10
144.8853541902
 20
82.115426436
 10
144.8582400241
 20
82.1237127196
 10
144.8331273851
 20
82.1362528764
 10
144.8100593201
 20
82.1531346361
 10
144.7889927823
 20
82.1742702691
 10
144.7703456558
 20
82.1992264089
 10
144.754166588
 20
82.2281050288
 10
144.7404069316
 20
82.2608041554
 10
144.7293386292
 20
82.296584502
 10
144.7210523285
 20
82.3351996397
 10
144.7154573818
 20
82.3768959973
 10
144.7125537892
 20
82.4216735748
  0
ELLIPSE
  5
2A5
100
AcDbEntity
  8
RACCORDO
100
AcDbEllipse
 62
7
  6
CONTINUOUS
 10
147.3685592204
 20
101.513824606
 30
0.0
 11
0.2536322564
 21
-0.3093628868
 31
0.0
 40
0.6711200097
 41
0.6859711218
 42
2.2565390145
  0
ELLIPSE
  5
2A6
100
AcDbEntity
  8
RACCORDO
100
AcDbEllipse
 62
7
  6
CONTINUOUS
 10
146.6585000804
 20
83.7230848569
 30
0.0
 11
-0.269399584
 21
0.4214793685
 31
0.0
 40
0.7373072911
 41
-3.1087872535
 42
-2.3735136114
  0
ELLIPSE
  5
2A7
100
AcDbEntity
  8
RACCORDO
100
AcDbEllipse
 62
7
  6
CONTINUOUS
 10
149.2714738912
 20
111.3291688978
 30
0.0
 11
0.4999866778
 21
0.006236753
 31
0.0
 40
0.5852290915
 41
-0.5134454065
 42
-0.0069185399
  0
ELLIPSE
  5
2A8
100
AcDbEntity
  8
RACCORDO
100
AcDbEllipse
 62
7
  6
CONTINUOUS
 10
148.0322653033
 20
120.4685847242
 30
0.0
 11
-0.3165198962
 21
0.3871139532
 31
0.0
 40
0.6720475734
 41
-2.4536186814
 42
-0.8841923507
  0
ELLIPSE
  5
2A9
100
AcDbEntity
  8
RACCORDO
100
AcDbEllipse
 62
7
  6
CONTINUOUS
 10
148.1142085877
 20
102.9884853158
 30
0.0
 11
-0.2536549561
 21
0.3094601249
 31
0.0
 40
0.6708195125
 41
-3.1644370557
 42
-2.4557308722
  0
ELLIPSE
  5
2AA
100
AcDbEntity
  8
RACCORDO
100
AcDbEllipse
 62
7
  6
CONTINUOUS
 10
130.6665227636
 20
127.4430584297
 30
0.0
 11
-0.3166934957
 21
0.3878404978
 31
0.0
 40
0.6702436759
 41
-0.8821199121
 42
0.0484752164
  0
ELLIPSE
  5
2AB
100
AcDbEntity
  8
RACCORDO
100
AcDbEllipse
 62
7
  6
CONTINUOUS
 10
139.5457303224
 20
122.4664197786
 30
0.0
 11
0.2999152281
 21
0.0117261408
 31
0.0
 40
0.6081570881
 41
-2.2054349231
 42
-0.6520918889
  0
ELLIPSE
  5
2AC
100
AcDbEntity
  8
RACCORDO
100
AcDbEllipse
 62
7
  6
CONTINUOUS
 10
136.3425332063
 20
123.7528959549
 30
0.0
 11
0.2999152281
 21
0.0117261408
 31
0.0
 40
0.6081570881
 41
2.5244073498
 42
4.077750384
  0
ELLIPSE
  5
2AD
100
AcDbEntity
  8
RACCORDO
100
AcDbEllipse
 62
7
  6
CONTINUOUS
 10
149.2714738912
 20
114.6148733411
 30
0.0
 11
0.4999886678
 21
-0.0059919136
 31
0.0
 40
0.5618086952
 41
-0.4994128139
 42
0.9666637578
  0
ENDSEC
  0
SECTION
  2
OBJECTS
  0
DICTIONARY
  5
C
100
AcDbDictionary
280
0
281
1
  3
ACAD_GROUP
350
D
  3
ACAD_MLINESTYLE
350
17
  3
ACAD_LAYOUT
350
1A
  3
ACAD_PLOTSETTINGS
350
19
  3
ACAD_PLOTSTYLENAME
350
E
  0
DICTIONARY
  5
D
102
{ACAD_REACTORS
330
C
102
}
100
AcDbDictionary
280
0
281
1
  0
ACDBDICTIONARYWDFLT
  5
E
102
{ACAD_REACTORS
330
C
102
}
100
AcDbDictionary
281
1
  3
Normal
350
F
100
AcDbDictionaryWithDefault
340
F
  0
DICTIONARY
  5
17
102
{ACAD_REACTORS
330
C
102
}
100
AcDbDictionary
280
0
281
1
  3
Standard
350
18
  0
DICTIONARY
  5
19
102
{ACAD_REACTORS
330
C
102
}
100
AcDbDictionary
281
1
  0
DICTIONARY
  5
1A
102
{ACAD_REACTORS
330
C
102
}
100
AcDbDictionary
281
1
  3
Model
350
2AE
  3
Layout1
350
2AF
  0
ACDBPLACEHOLDER
  5
F
102
{ACAD_REACTORS
330
E
102
}
  0
MLINESTYLE
  5
18
102
{ACAD_REACTORS
330
17
102
}
100
AcDbMlineStyle
  2
STANDARD
 70
0
  3

 62
256
 51
90.0
 52
90.0
 71
2
 49
0.5
 62
256
  6
BYLAYER
 49
-0.5
 62
256
  6
BYLAYER
  0
LAYOUT
  5
2AE
102
{ACAD_REACTORS
330
1A
102
}
100
AcDbPlotSettings
  1

  2
none_device
  4
ISO_A4_(297.00_x_210.00_MM)
  6

 40
0.0
 41
0.0
 42
0.0
 43
0.0
 44
297.0
 45
210.0
 46
0.0
 47
0.0
 48
0.0
 49
0.0
140
0.0
141
0.0
142
1.0
143
1.0
 70
1024
 72
1
 73
0
 74
0
  7

 75
0
147
1.0
148
0.0
149
0.0
100
AcDbLayout
  1
Model
 70
0
 71
0
 10
0.0
 20
0.0
 11
297.0
 21
210.0
 12
0.0
 22
0.0
 32
0.0
 14
0.0
 24
0.0
 34
0.0
 15
0.0
 25
0.0
 35
0.0
146
0.0
 13
0.0
 23
0.0
 33
0.0
 16
1.0
 26
0.0
 36
0.0
 17
0.0
 27
1.0
 37
0.0
 76
0
330
214
345
0
346
0
  0
LAYOUT
  5
2AF
102
{ACAD_REACTORS
330
1A
102
}
100
AcDbPlotSettings
  1

  2
none_device
  4
ISO_A4_(297.00_x_210.00_MM)
  6

 40
0.0
 41
0.0
 42
0.0
 43
0.0
 44
297.0
 45
210.0
 46
0.0
 47
0.0
 48
0.0
 49
0.0
140
0.0
141
0.0
142
1.0
143
1.0
 70
0
 72
1
 73
0
 74
0
  7

 75
0
147
1.0
148
0.0
149
0.0
100
AcDbLayout
  1
Layout1
 70
0
 71
1
 10
0.0
 20
0.0
 11
297.0
 21
210.0
 12
0.0
 22
0.0
 32
0.0
 14
0.0
 24
0.0
 34
0.0
 15
0.0
 25
0.0
 35
0.0
146
0.0
 13
0.0
 23
0.0
 33
0.0
 16
1.0
 26
0.0
 36
0.0
 17
0.0
 27
1.0
 37
0.0
 76
0
330
215
345
0
346
0
  0
ENDSEC
  0
EOF
