  0
SECTION
  2
HEADER
  9
$ACADVER
  1
AC1015
  9
$DWGCODEPAGE
  3
ANSI_1252
  9
$EXTMAX
 10
297.0
 20
210.0
 30
0.0
  9
$EXTMIN
 10
0.0
 20
0.0
 30
0.0
  9
$LIMMIN
 10
0.0
 20
0.0
  9
$LIMMAX
 10
297.0
 20
210.0
  9
$VIEWCTR
 10
148.5
 20
105.0
  9
$VIEWSIZE
 40
210.0
  9
$CLAYER
  8
0
  9
$LTSCALE
 40
16.335
  9
$CELTYPE
  6
BYLAYER
  9
$DIMSCALE
 40
1.0
  9
$DIMASZ
 40
3.0
  9
$DIMEXO
 40
0.5
  9
$DIMDLI
 40
11.286
  9
$DIMEXE
 40
1.5
  9
$DIMCEN
 40
2.673
  9
$DIMLFAC
 40
1.0
  9
$DIMBLK
  1
_FILLED
  9
$DIMTXT
 40
3.0
  9
$DIMTOL
 70
1
  9
$DIMLIM
 70
0
  9
$DIMTFAC
 40
1.0
  9
$DIMTP
 40
0.01
  9
$DIMTM
 40
0.01
  9
$DIMGAP
 40
0.625
  9
$DIMDSEP
 70
44
  9
$PDMODE
 70
3
  9
$PDSIZE
 40
3.0
  9
$HANDSEED
  5
967
  9
$TILEMODE
 70
1
  9
$MEASUREMENT
 70
1
  9
$INSUNITS
 70
4
  0
ENDSEC
  0
SECTION
  2
CLASSES
  0
CLASS
  1
ACDBDICTIONARYWDFLT
  2
AcDbDictionaryWithDefault
  3
AutoCAD 2000
 90
0
280
0
281
0
  0
CLASS
  1
ACDBPLACEHOLDER
  2
AcDbPlaceHolder
  3
AutoCAD 2000
 90
0
280
0
281
0
  0
CLASS
  1
LAYOUT
  2
AcDbLayout
  3
AutoCAD 2000
 90
0
280
0
281
0
  0
ENDSEC
  0
SECTION
  2
TABLES
  0
TABLE
  2
VPORT
  5
8
100
AcDbSymbolTable
 70
2
  0
VPORT
  5
1F4
100
AcDbSymbolTableRecord
100
AcDbViewportTableRecord
  2
*ACTIVE
 70
0
 10
0.0
 20
0.0
 11
1.0
 21
1.0
 12
148.5
 22
105.0
 13
0.0
 23
0.0
 14
1.0
 24
1.0
 15
0.0
 25
0.0
 16
0.0
 26
0.0
 36
1.0
 17
0.0
 27
0.0
 37
0.0
 40
210.0
 41
1.4142857143
 42
50.0
 43
0.0
 44
0.0
 50
0.0
 51
0.0
 71
0
 72
100
 73
1
 74
1
 75
0
 76
0
 77
0
 78
0
  0
ENDTAB
  0
TABLE
  2
LTYPE
  5
5
100
AcDbSymbolTable
 70
6
  0
LTYPE
  5
14
100
AcDbSymbolTableRecord
100
AcDbLinetypeTableRecord
  2
BYBLOCK
 70
0
  3

 72
65
 73
0
 40
0.0
  0
LTYPE
  5
15
100
AcDbSymbolTableRecord
100
AcDbLinetypeTableRecord
  2
BYLAYER
 70
0
  3

 72
65
 73
0
 40
0.0
  0
LTYPE
  5
16
100
AcDbSymbolTableRecord
100
AcDbLinetypeTableRecord
  2
CONTINUOUS
 70
64
  3
Solid line
 72
65
 73
0
 40
0.0
  0
LTYPE
  5
1F5
100
AcDbSymbolTableRecord
100
AcDbLinetypeTableRecord
  2
CENTER
 70
64
  3
____ _ ____ _ ____ _ ____ _ ____ _ ____ _ ____
 72
65
 73
4
 40
0.6
 49
0.375
 74
0
 49
-0.075
 74
0
 49
0.075
 74
0
 49
-0.075
 74
0
  0
LTYPE
  5
1F6
100
AcDbSymbolTableRecord
100
AcDbLinetypeTableRecord
  2
HIDDEN
 70
64
  3
- - - - - - - - - - - - - - - - - - - -
 72
65
 73
2
 40
0.2
 49
0.1
 74
0
 49
-0.1
 74
0
  0
LTYPE
  5
1F7
100
AcDbSymbolTableRecord
100
AcDbLinetypeTableRecord
  2
PHANTOM
 70
64
  3
_____ _ _ _____ _ _ _____ _ _ _____
 72
65
 73
6
 40
0.8
 49
0.45
 74
0
 49
-0.05
 74
0
 49
0.1
 74
0
 49
-0.05
 74
0
 49
0.1
 74
0
 49
-0.05
 74
0
  0
LTYPE
  5
1F8
100
AcDbSymbolTableRecord
100
AcDbLinetypeTableRecord
  2
DOT
 70
64
  3
. . . . . . . . . . . . . . . . . . . .
 72
65
 73
2
 40
0.2
 49
0.1
 74
0
 49
-0.1
 74
0
  0
LTYPE
  5
1F9
100
AcDbSymbolTableRecord
100
AcDbLinetypeTableRecord
  2
DASHED
 70
64
  3
- - - - - - - - - - - - - - - - - - - -
 72
65
 73
2
 40
0.2
 49
0.1
 74
0
 49
-0.1
 74
0
  0
ENDTAB
  0
TABLE
  2
LAYER
  5
2
100
AcDbSymbolTable
 70
36
  0
LAYER
  5
10
100
AcDbSymbolTableRecord
100
AcDbLayerTableRecord
  2
0
 70
0
 62
7
  6
CONTINUOUS
370
-3
390
F
  0
LAYER
  5
1FA
100
AcDbSymbolTableRecord
100
AcDbLayerTableRecord
  2
DEFAULT_1
 70
0
 62
7
  6
CENTER
370
-3
390
F
  0
LAYER
  5
1FB
100
AcDbSymbolTableRecord
100
AcDbLayerTableRecord
  2
DEFAULT_2
 70
0
 62
7
  6
HIDDEN
370
-3
390
F
  0
LAYER
  5
1FC
100
AcDbSymbolTableRecord
100
AcDbLayerTableRecord
  2
DEFAULT_3
 70
0
 62
7
  6
PHANTOM
370
-3
390
F
  0
LAYER
  5
1FD
100
AcDbSymbolTableRecord
100
AcDbLayerTableRecord
  2
ASSI
 70
0
 62
7
  6
CONTINUOUS
370
-3
390
F
  0
LAYER
  5
1FE
100
AcDbSymbolTableRecord
100
AcDbLayerTableRecord
  2
COLOR1
 70
0
 62
7
  6
CONTINUOUS
370
-3
390
F
  0
LAYER
  5
1FF
100
AcDbSymbolTableRecord
100
AcDbLayerTableRecord
  2
COORDINATE
 70
0
 62
7
  6
CONTINUOUS
370
-3
390
F
  0
LAYER
  5
200
100
AcDbSymbolTableRecord
100
AcDbLayerTableRecord
  2
COPY_PUBLISH
 70
0
 62
7
  6
CONTINUOUS
370
-3
390
F
  0
LAYER
  5
201
100
AcDbSymbolTableRecord
100
AcDbLayerTableRecord
  2
COSMETICI
 70
0
 62
7
  6
CONTINUOUS
370
-3
390
F
  0
LAYER
  5
202
100
AcDbSymbolTableRecord
100
AcDbLayerTableRecord
  2
CURVE
 70
0
 62
7
  6
CONTINUOUS
370
-3
390
F
  0
LAYER
  5
203
100
AcDbSymbolTableRecord
100
AcDbLayerTableRecord
  2
DRAFT
 70
0
 62
7
  6
CONTINUOUS
370
-3
390
F
  0
LAYER
  5
204
100
AcDbSymbolTableRecord
100
AcDbLayerTableRecord
  2
IMPORT_IGES
 70
0
 62
7
  6
CONTINUOUS
370
-3
390
F
  0
LAYER
  5
205
100
AcDbSymbolTableRecord
100
AcDbLayerTableRecord
  2
INTFCLR_1
 70
0
 62
7
  6
CONTINUOUS
370
-3
390
F
  0
LAYER
  5
206
100
AcDbSymbolTableRecord
100
AcDbLayerTableRecord
  2
INTF_2
 70
0
 62
7
  6
CONTINUOUS
370
-3
390
F
  0
LAYER
  5
207
100
AcDbSymbolTableRecord
100
AcDbLayerTableRecord
  2
INTF_5
 70
0
 62
7
  6
CONTINUOUS
370
-3
390
F
  0
LAYER
  5
208
100
AcDbSymbolTableRecord
100
AcDbLayerTableRecord
  2
INTF_9
 70
0
 62
7
  6
CONTINUOUS
370
-3
390
F
  0
LAYER
  5
209
100
AcDbSymbolTableRecord
100
AcDbLayerTableRecord
  2
INTF_YELLOW
 70
0
 62
7
  6
CONTINUOUS
370
-3
390
F
  0
LAYER
  5
20A
100
AcDbSymbolTableRecord
100
AcDbLayerTableRecord
  2
NOTE
 70
0
 62
7
  6
CONTINUOUS
370
-3
390
F
  0
LAYER
  5
20B
100
AcDbSymbolTableRecord
100
AcDbLayerTableRecord
  2
PIANI
 70
0
 62
7
  6
CONTINUOUS
370
-3
390
F
  0
LAYER
  5
20C
100
AcDbSymbolTableRecord
100
AcDbLayerTableRecord
  2
PUNTI
 70
0
 62
7
  6
CONTINUOUS
370
-3
390
F
  0
LAYER
  5
20D
100
AcDbSymbolTableRecord
100
AcDbLayerTableRecord
  2
RACCORDO
 70
0
 62
7
  6
CONTINUOUS
370
-3
390
F
  0
LAYER
  5
20E
100
AcDbSymbolTableRecord
100
AcDbLayerTableRecord
  2
SIMBOLI
 70
0
 62
7
  6
CONTINUOUS
370
-3
390
F
  0
LAYER
  5
20F
100
AcDbSymbolTableRecord
100
AcDbLayerTableRecord
  2
SMUSSO
 70
0
 62
7
  6
CONTINUOUS
370
-3
390
F
  0
LAYER
  5
210
100
AcDbSymbolTableRecord
100
AcDbLayerTableRecord
  2
SNAPLINE
 70
0
 62
7
  6
CONTINUOUS
370
-3
390
F
  0
LAYER
  5
211
100
AcDbSymbolTableRecord
100
AcDbLayerTableRecord
  2
SUPERFICI
 70
0
 62
7
  6
CONTINUOUS
370
-3
390
F
  0
LAYER
  5
212
100
AcDbSymbolTableRecord
100
AcDbLayerTableRecord
  2
TRASH
 70
0
 62
7
  6
CONTINUOUS
370
-3
390
F
  0
ENDTAB
  0
TABLE
  2
STYLE
  5
3
100
AcDbSymbolTable
 70
1
  0
STYLE
  5
11
100
AcDbSymbolTableRecord
100
AcDbTextStyleTableRecord
  2
STANDARD
 70
0
 40
0.0
 41
0.8
 50
0.0
 71
0
 42
0.2
  3
txt
  4

  0
STYLE
  5
213
100
AcDbSymbolTableRecord
100
AcDbTextStyleTableRecord
  2
TEXTSTYLE_1
 70
0
 40
0.0
 41
0.8
 50
0.0
 71
0
 42
0.2
  3
gdt
  4

  0
ENDTAB
  0
TABLE
  2
VIEW
  5
6
100
AcDbSymbolTable
 70
0
  0
ENDTAB
  0
TABLE
  2
UCS
  5
7
100
AcDbSymbolTable
 70
0
  0
ENDTAB
  0
TABLE
  2
APPID
  5
9
100
AcDbSymbolTable
 70
1
  0
APPID
  5
214
100
AcDbSymbolTableRecord
100
AcDbRegAppTableRecord
  2
ACAD
 70
0
  0
ENDTAB
  0
TABLE
  2
BLOCK_RECORD
  5
1
100
AcDbSymbolTable
 70
0
  0
BLOCK_RECORD
  5
215
100
AcDbSymbolTableRecord
100
AcDbBlockTableRecord
  2
*Model_Space
  0
BLOCK_RECORD
  5
216
100
AcDbSymbolTableRecord
100
AcDbBlockTableRecord
  2
*Paper_Space
  0
ENDTAB
  0
TABLE
  2
DIMSTYLE
  5
A
100
AcDbSymbolTable
 70
1
100
AcDbDimStyleTable
 71
0
  0
DIMSTYLE
105
217
100
AcDbSymbolTableRecord
100
AcDbDimStyleTableRecord
  2
STANDARD
 70
0
  3

  4

 40
1.0
 41
3.0
 42
0.5
 43
0.38
 44
1.5
 45
0.0
 46
0.0
 47
0.01
 48
0.01
140
3.0
141
0.09
142
0.0
143
25.4
144
1.0
145
0.0
146
1.0
147
0.625
 71
1.0
 72
0.0
 73
0
 74
0
 75
0
 76
0
 77
1
 78
8
170
0
171
2
172
0
173
0
174
0
175
0
176
0
177
0
178
0
270
2
271
2
272
2
273
2
274
2
275
0
280
0
281
0
282
0
283
1
284
8
285
0
286
0
287
3
288
0
340
11
278
44
  0
ENDTAB
  0
ENDSEC
  0
SECTION
  2
BLOCKS
  0
BLOCK
  5
20
100
AcDbEntity
  8
0
100
AcDbBlockBegin
  2
*Model_Space
 70
0
 10
0.0
 20
0.0
 30
0.0
  3
*Model_Space
  1

  0
ENDBLK
  5
21
100
AcDbEntity
  8
0
100
AcDbBlockEnd
  0
BLOCK
  5
1C
100
AcDbEntity
  8
0
100
AcDbBlockBegin
  2
*Paper_Space
 70
0
 10
0.0
 20
0.0
 30
0.0
  3
*Paper_Space
  1

  0
ENDBLK
  5
1D
100
AcDbEntity
  8
0
100
AcDbBlockEnd
  0
ENDSEC
  0
SECTION
  2
ENTITIES
  0
LWPOLYLINE
  5
218
100
AcDbEntity
  8
RACCORDO
100
AcDbPolyline
 62
7
  6
CONTINUOUS
 90
16
 70
0
 10
-22.776912637
 20
40.6558679258
 10
-22.8294513857
 20
40.6186168705
 10
-22.9091342235
 20
40.5540506941
 10
-22.9842380675
 20
40.4833811457
 10
-23.0548001729
 20
40.4071130477
 10
-23.120732003
 20
40.3257483661
 10
-23.1816508846
 20
40.2400474492
 10
-23.2373826109
 20
40.150528301
 10
-23.2876842022
 20
40.0576215921
 10
-23.3320888777
 20
39.9622219326
 10
-23.3703628785
 20
39.8647722732
 10
-23.4021902678
 20
39.7656793492
 10
-23.4271705401
 20
39.665641521
 10
-23.4449294208
 20
39.564991851
 10
-23.4550562662
 20
39.4639983488
 10
-23.4565716093
 20
39.4325452058
  0
LWPOLYLINE
  5
219
100
AcDbEntity
  8
ASSI
100
AcDbPolyline
 62
7
  6
CONTINUOUS
 90
16
 70
0
 10
-22.776912637
 20
40.6558679258
 10
-22.8294513857
 20
40.6186168705
 10
-22.9091342235
 20
40.5540506941
 10
-22.9842380675
 20
40.4833811457
 10
-23.0548001729
 20
40.4071130477
 10
-23.120732003
 20
40.3257483661
 10
-23.1816508846
 20
40.2400474492
 10
-23.2373826109
 20
40.150528301
 10
-23.2876842022
 20
40.0576215921
 10
-23.3320888777
 20
39.9622219326
 10
-23.3703628785
 20
39.8647722732
 10
-23.4021902678
 20
39.7656793492
 10
-23.4271705401
 20
39.665641521
 10
-23.4449294208
 20
39.564991851
 10
-23.4550562662
 20
39.4639983488
 10
-23.4565716093
 20
39.4325452058
  0
LINE
  5
21A
100
AcDbEntity
  8
RACCORDO
100
AcDbLine
 62
7
  6
CONTINUOUS
 10
-20.5279394095
 20
42.1639968933
 11
-22.7770851331
 21
40.6557647847
  0
LINE
  5
21B
100
AcDbEntity
  8
ASSI
100
AcDbLine
 62
7
  6
CONTINUOUS
 10
-20.5279394095
 20
42.1639968933
 11
-22.7770851331
 21
40.6557647847
  0
LWPOLYLINE
  5
21C
100
AcDbEntity
  8
RACCORDO
100
AcDbPolyline
 62
253
  6
CONTINUOUS
 90
19
 70
0
 10
-20.2823705227
 20
42.1360577597
 10
-22.5874242891
 20
40.5903860705
 10
-22.6569949794
 20
40.5372333192
 10
-22.7253353045
 20
40.4783709599
 10
-22.7919390219
 20
40.4141717112
 10
-22.8563613077
 20
40.3450679017
 10
-22.9182210259
 20
40.2715467477
 10
-22.9770882294
 20
40.1940869392
 10
-23.0325419415
 20
40.1131992948
 10
-23.0842462329
 20
40.0294582545
 10
-23.1318417898
 20
39.9434197683
 10
-23.1749911007
 20
39.855648078
 10
-23.2134355517
 20
39.766754536
 10
-23.2469083657
 20
39.6773391173
 10
-23.27517515
 20
39.58798265
 10
-23.2980743483
 20
39.4992742469
 10
-23.3154537393
 20
39.4118026731
 10
-23.3271764109
 20
39.3261522088
 10
-23.3331573665
 20
39.2428951748
  0
LWPOLYLINE
  5
21D
100
AcDbEntity
  8
ASSI
100
AcDbPolyline
 62
253
  6
CONTINUOUS
 90
19
 70
0
 10
-20.2823705227
 20
42.1360577597
 10
-22.5874242891
 20
40.5903860705
 10
-22.6569949794
 20
40.5372333192
 10
-22.7253353045
 20
40.4783709599
 10
-22.7919390219
 20
40.4141717112
 10
-22.8563613077
 20
40.3450679017
 10
-22.9182210259
 20
40.2715467477
 10
-22.9770882294
 20
40.1940869392
 10
-23.0325419415
 20
40.1131992948
 10
-23.0842462329
 20
40.0294582545
 10
-23.1318417898
 20
39.9434197683
 10
-23.1749911007
 20
39.855648078
 10
-23.2134355517
 20
39.766754536
 10
-23.2469083657
 20
39.6773391173
 10
-23.27517515
 20
39.58798265
 10
-23.2980743483
 20
39.4992742469
 10
-23.3154537393
 20
39.4118026731
 10
-23.3271764109
 20
39.3261522088
 10
-23.3331573665
 20
39.2428951748
  0
LWPOLYLINE
  5
21E
100
AcDbEntity
  8
RACCORDO
100
AcDbPolyline
 62
253
  6
CONTINUOUS
 90
13
 70
0
 10
-8.4802582681
 20
-3.424484045
 10
-8.4315368636
 20
-3.4458267625
 10
-8.3785803222
 20
-3.463294608
 10
-8.3221900494
 20
-3.4766232359
 10
-8.2632194141
 20
-3.4856109405
 10
-8.2025608346
 20
-3.4901217087
 10
-8.1411322731
 20
-3.4900872775
 10
-8.0798633444
 20
-3.4855081681
 10
-8.0196812474
 20
-3.4764536773
 10
-7.9614967337
 20
-3.4630608292
 10
-7.9061903249
 20
-3.4455323011
 10
-7.8545989876
 20
-3.424133357
 10
-7.8075034671
 20
-3.3991878327
  0
LWPOLYLINE
  5
21F
100
AcDbEntity
  8
ASSI
100
AcDbPolyline
 62
253
  6
CONTINUOUS
 90
13
 70
0
 10
-8.4802582681
 20
-3.424484045
 10
-8.4315368636
 20
-3.4458267625
 10
-8.3785803222
 20
-3.463294608
 10
-8.3221900494
 20
-3.4766232359
 10
-8.2632194141
 20
-3.4856109405
 10
-8.2025608346
 20
-3.4901217087
 10
-8.1411322731
 20
-3.4900872775
 10
-8.0798633444
 20
-3.4855081681
 10
-8.0196812474
 20
-3.4764536773
 10
-7.9614967337
 20
-3.4630608292
 10
-7.9061903249
 20
-3.4455323011
 10
-7.8545989876
 20
-3.424133357
 10
-7.8075034671
 20
-3.3991878327
  0
LWPOLYLINE
  5
220
100
AcDbEntity
  8
RACCORDO
100
AcDbPolyline
 62
7
  6
CONTINUOUS
 90
12
 70
0
 10
-8.2184061985
 20
-3.9395595527
 10
-8.161646232
 20
-3.9654803866
 10
-8.0983749374
 20
-3.9880349857
 10
-8.0327019504
 20
-4.0050838177
 10
-7.9650131049
 20
-4.0164308212
 10
-7.8957784687
 20
-4.0219136841
 10
-7.8249648773
 20
-4.0214368695
 10
-7.752902476
 20
-4.0148598796
 10
-7.6799715077
 20
-4.0020684191
 10
-7.6060465154
 20
-3.982827962
 10
-7.5312532333
 20
-3.9569063255
 10
-7.4493058183
 20
-3.9209276963
  0
LWPOLYLINE
  5
221
100
AcDbEntity
  8
ASSI
100
AcDbPolyline
 62
7
  6
CONTINUOUS
 90
12
 70
0
 10
-8.2184061985
 20
-3.9395595527
 10
-8.161646232
 20
-3.9654803866
 10
-8.0983749374
 20
-3.9880349857
 10
-8.0327019504
 20
-4.0050838177
 10
-7.9650131049
 20
-4.0164308212
 10
-7.8957784687
 20
-4.0219136841
 10
-7.8249648773
 20
-4.0214368695
 10
-7.752902476
 20
-4.0148598796
 10
-7.6799715077
 20
-4.0020684191
 10
-7.6060465154
 20
-3.982827962
 10
-7.5312532333
 20
-3.9569063255
 10
-7.4493058183
 20
-3.9209276963
  0
LINE
  5
222
100
AcDbEntity
  8
RACCORDO
100
AcDbLine
 62
7
  6
CONTINUOUS
 10
-8.2181579735
 20
-3.9396902746
 11
-8.2183167413
 21
-3.9396096146
  0
LINE
  5
223
100
AcDbEntity
  8
ASSI
100
AcDbLine
 62
7
  6
CONTINUOUS
 10
-8.2181579735
 20
-3.9396902746
 11
-8.2183167413
 21
-3.9396096146
  0
LWPOLYLINE
  5
224
100
AcDbEntity
  8
RACCORDO
100
AcDbPolyline
 62
253
  6
CONTINUOUS
 90
11
 70
0
 10
-8.2183167413
 20
-3.9396096146
 10
-8.2392274379
 20
-3.928160766
 10
-8.2854589274
 20
-3.8962968404
 10
-8.3273837321
 20
-3.8576458782
 10
-8.3646877072
 20
-3.8124885281
 10
-8.3971295152
 20
-3.761131386
 10
-8.4245163556
 20
-3.703908624
 10
-8.4466493617
 20
-3.6412012514
 10
-8.4633778723
 20
-3.5734231525
 10
-8.4746047094
 20
-3.5010234469
 10
-8.4802582876
 20
-3.4244840469
  0
LWPOLYLINE
  5
225
100
AcDbEntity
  8
ASSI
100
AcDbPolyline
 62
253
  6
CONTINUOUS
 90
11
 70
0
 10
-8.2183167413
 20
-3.9396096146
 10
-8.2392274379
 20
-3.928160766
 10
-8.2854589274
 20
-3.8962968404
 10
-8.3273837321
 20
-3.8576458782
 10
-8.3646877072
 20
-3.8124885281
 10
-8.3971295152
 20
-3.761131386
 10
-8.4245163556
 20
-3.703908624
 10
-8.4466493617
 20
-3.6412012514
 10
-8.4633778723
 20
-3.5734231525
 10
-8.4746047094
 20
-3.5010234469
 10
-8.4802582876
 20
-3.4244840469
  0
LINE
  5
226
100
AcDbEntity
  8
CURVE
100
AcDbLine
 62
252
  6
CONTINUOUS
 10
-18.0949260898
 20
30.0797267093
 11
-18.0825636541
 21
30.0840434681
  0
LWPOLYLINE
  5
227
100
AcDbEntity
  8
RACCORDO
100
AcDbPolyline
 62
7
  6
CONTINUOUS
 90
10
 70
0
 10
-23.1017545243
 20
4.6540558632
 10
-21.6152279213
 20
3.690624196
 10
-20.0187394822
 20
2.6849169471
 10
-18.3960202647
 20
1.6920045793
 10
-16.7474378501
 20
0.7121170889
 10
-15.0733641381
 20
-0.2545215599
 10
-13.3741848902
 20
-1.2076962663
 10
-11.6503025077
 20
-2.1471990942
 10
-9.9021289396
 20
-3.0728250042
 10
-8.2181550102
 20
-3.9396917792
  0
LWPOLYLINE
  5
228
100
AcDbEntity
  8
ASSI
100
AcDbPolyline
 62
7
  6
CONTINUOUS
 90
10
 70
0
 10
-23.1017545243
 20
4.6540558632
 10
-21.6152279213
 20
3.690624196
 10
-20.0187394822
 20
2.6849169471
 10
-18.3960202647
 20
1.6920045793
 10
-16.7474378501
 20
0.7121170889
 10
-15.0733641381
 20
-0.2545215599
 10
-13.3741848902
 20
-1.2076962663
 10
-11.6503025077
 20
-2.1471990942
 10
-9.9021289396
 20
-3.0728250042
 10
-8.2181550102
 20
-3.9396917792
  0
LINE
  5
229
100
AcDbEntity
  8
RACCORDO
100
AcDbLine
 62
7
  6
CONTINUOUS
 10
-23.1017578509
 20
4.6540580493
 11
-23.1015460636
 21
4.6539189651
  0
LINE
  5
22A
100
AcDbEntity
  8
ASSI
100
AcDbLine
 62
7
  6
CONTINUOUS
 10
-23.1017578509
 20
4.6540580493
 11
-23.1015460636
 21
4.6539189651
  0
LWPOLYLINE
  5
22B
100
AcDbEntity
  8
RACCORDO
100
AcDbPolyline
 62
253
  6
CONTINUOUS
 90
31
 70
0
 10
-23.3331573439
 20
5.1513937397
 10
-22.8835348087
 20
4.8561197819
 10
-22.4318680611
 20
4.5620657668
 10
-21.9781675222
 20
4.2692356457
 10
-21.5225275385
 20
3.9776867852
 10
-21.0648754204
 20
3.6873692137
 10
-20.6049675519
 20
3.3981276843
 10
-20.1426985588
 20
3.1098980076
 10
-19.6781870882
 20
2.8227561591
 10
-19.2115232926
 20
2.5367583332
 10
-18.7427572381
 20
2.2519346895
 10
-18.2718560437
 20
1.9682647459
 10
-17.7987860537
 20
1.6857284031
 10
-17.3234392393
 20
1.4042625096
 10
-16.8459383798
 20
1.1239412517
 10
-16.3665995829
 20
0.844948508
 10
-15.8857154181
 20
0.5674483351
 10
-15.4030200012
 20
0.2912807862
 10
-14.9179889865
 20
0.0161453578
 10
-14.4316933342
 20
-0.2573539236
 10
-13.9430821487
 20
-0.5298132866
 10
-13.4483940072
 20
-0.8033011992
 10
-12.9484484924
 20
-1.0773101862
 10
-12.4423497401
 20
-1.3522809717
 10
-11.9236351205
 20
-1.6316258072
 10
-11.3916955543
 20
-1.9155120602
 10
-10.8468871386
 20
-2.2035917026
 10
-10.2840468447
 20
-2.4984099078
 10
-9.7012929291
 20
-2.8007029344
 10
-9.1000976063
 20
-3.1094436395
 10
-8.4802582709
 20
-3.4244840309
  0
LWPOLYLINE
  5
22C
100
AcDbEntity
  8
ASSI
100
AcDbPolyline
 62
253
  6
CONTINUOUS
 90
31
 70
0
 10
-23.3331573439
 20
5.1513937397
 10
-22.8835348087
 20
4.8561197819
 10
-22.4318680611
 20
4.5620657668
 10
-21.9781675222
 20
4.2692356457
 10
-21.5225275385
 20
3.9776867852
 10
-21.0648754204
 20
3.6873692137
 10
-20.6049675519
 20
3.3981276843
 10
-20.1426985588
 20
3.1098980076
 10
-19.6781870882
 20
2.8227561591
 10
-19.2115232926
 20
2.5367583332
 10
-18.7427572381
 20
2.2519346895
 10
-18.2718560437
 20
1.9682647459
 10
-17.7987860537
 20
1.6857284031
 10
-17.3234392393
 20
1.4042625096
 10
-16.8459383798
 20
1.1239412517
 10
-16.3665995829
 20
0.844948508
 10
-15.8857154181
 20
0.5674483351
 10
-15.4030200012
 20
0.2912807862
 10
-14.9179889865
 20
0.0161453578
 10
-14.4316933342
 20
-0.2573539236
 10
-13.9430821487
 20
-0.5298132866
 10
-13.4483940072
 20
-0.8033011992
 10
-12.9484484924
 20
-1.0773101862
 10
-12.4423497401
 20
-1.3522809717
 10
-11.9236351205
 20
-1.6316258072
 10
-11.3916955543
 20
-1.9155120602
 10
-10.8468871386
 20
-2.2035917026
 10
-10.2840468447
 20
-2.4984099078
 10
-9.7012929291
 20
-2.8007029344
 10
-9.1000976063
 20
-3.1094436395
 10
-8.4802582709
 20
-3.4244840309
  0
LWPOLYLINE
  5
22D
100
AcDbEntity
  8
RACCORDO
100
AcDbPolyline
 62
253
  6
CONTINUOUS
 90
7
 70
0
 10
-23.333142316
 20
5.1514020066
 10
-23.3706836724
 20
5.1798658732
 10
-23.4019629806
 20
5.2110340231
 10
-23.4265068976
 20
5.2444347953
 10
-23.4439440053
 20
5.2795627428
 10
-23.4540104319
 20
5.3158862821
 10
-23.4565219924
 20
5.339819592
  0
LWPOLYLINE
  5
22E
100
AcDbEntity
  8
ASSI
100
AcDbPolyline
 62
253
  6
CONTINUOUS
 90
7
 70
0
 10
-23.333142316
 20
5.1514020066
 10
-23.3706836724
 20
5.1798658732
 10
-23.4019629806
 20
5.2110340231
 10
-23.4265068976
 20
5.2444347953
 10
-23.4439440053
 20
5.2795627428
 10
-23.4540104319
 20
5.3158862821
 10
-23.4565219924
 20
5.339819592
  0
LINE
  5
22F
100
AcDbEntity
  8
CURVE
100
AcDbLine
 62
252
  6
CONTINUOUS
 10
-18.127059387
 20
30.0580433231
 11
-18.1170974497
 21
30.0667716494
  0
LINE
  5
230
100
AcDbEntity
  8
CURVE
100
AcDbLine
 62
252
  6
CONTINUOUS
 10
-18.1170974497
 20
30.0667716494
 11
-18.1064282662
 21
30.0739707449
  0
LINE
  5
231
100
AcDbEntity
  8
CURVE
100
AcDbLine
 62
252
  6
CONTINUOUS
 10
-18.8158441158
 20
28.580112548
 11
-18.8055251441
 21
28.5870373753
  0
LINE
  5
232
100
AcDbEntity
  8
CURVE
100
AcDbLine
 62
252
  6
CONTINUOUS
 10
-16.5071188742
 20
29.9130018299
 11
-16.4964549135
 21
29.9200128189
  0
LINE
  5
233
100
AcDbEntity
  8
CURVE
100
AcDbLine
 62
252
  6
CONTINUOUS
 10
-16.4964549135
 20
29.9200128189
 11
-16.4852838132
 21
29.9256080927
  0
LINE
  5
234
100
AcDbEntity
  8
CURVE
100
AcDbLine
 62
252
  6
CONTINUOUS
 10
-18.1064282662
 20
30.0739707449
 11
-18.0949260898
 21
30.0797267093
  0
LINE
  5
235
100
AcDbEntity
  8
CURVE
100
AcDbLine
 62
252
  6
CONTINUOUS
 10
-18.8055251441
 20
28.5870373753
 11
-18.794500956
 21
28.5925466976
  0
LINE
  5
236
100
AcDbEntity
  8
CURVE
100
AcDbLine
 62
252
  6
CONTINUOUS
 10
-16.4852838132
 20
29.9256080927
 11
-16.4732603031
 21
29.9298993038
  0
LINE
  5
237
100
AcDbEntity
  8
CURVE
100
AcDbLine
 62
252
  6
CONTINUOUS
 10
-18.794500956
 20
28.5925466976
 11
-18.7827408995
 21
28.5966926528
  0
LINE
  5
238
100
AcDbEntity
  8
CURVE
100
AcDbLine
 62
252
  6
CONTINUOUS
 10
-17.2348027011
 20
28.4397301542
 11
-17.2474172096
 21
28.4354251182
  0
LINE
  5
239
100
AcDbEntity
  8
CURVE
100
AcDbLine
 62
252
  6
CONTINUOUS
 10
-14.8763761919
 20
6.2587826786
 11
-14.887030369
 21
6.2560433745
  0
LINE
  5
23A
100
AcDbEntity
  8
CURVE
100
AcDbLine
 62
252
  6
CONTINUOUS
 10
-15.5277100723
 20
7.2401168544
 11
-15.5171746009
 21
7.242708337
  0
LINE
  5
23B
100
AcDbEntity
  8
CURVE
100
AcDbLine
 62
252
  6
CONTINUOUS
 10
-16.2475833957
 20
6.1424262197
 11
-16.2576180384
 21
6.1406178469
  0
LINE
  5
23C
100
AcDbEntity
  8
CURVE
100
AcDbLine
 62
252
  6
CONTINUOUS
 10
-16.5184552256
 20
7.15968844
 11
-16.5083978718
 21
7.1614783265
  0
LINE
  5
23D
100
AcDbEntity
  8
CURVE
100
AcDbLine
 62
252
  6
CONTINUOUS
 10
-15.5171746009
 20
7.242708337
 11
-15.5065315237
 21
7.2443074209
  0
LINE
  5
23E
100
AcDbEntity
  8
CURVE
100
AcDbLine
 62
252
  6
CONTINUOUS
 10
-14.887030369
 20
6.2560433745
 11
-14.8981818169
 21
6.2544270514
  0
LINE
  5
23F
100
AcDbEntity
  8
CURVE
100
AcDbLine
 62
252
  6
CONTINUOUS
 10
-16.2576180384
 20
6.1406178469
 11
-16.2681922701
 21
6.1396795163
  0
LINE
  5
240
100
AcDbEntity
  8
CURVE
100
AcDbLine
 62
252
  6
CONTINUOUS
 10
-16.5083978718
 20
7.1614783265
 11
-16.497830269
 21
7.1624128298
  0
LINE
  5
241
100
AcDbEntity
  8
CURVE
100
AcDbLine
 62
252
  6
CONTINUOUS
 10
-15.5065315237
 20
7.2443074209
 11
-15.4953089375
 21
7.2449018122
  0
LINE
  5
242
100
AcDbEntity
  8
CURVE
100
AcDbLine
 62
252
  6
CONTINUOUS
 10
-14.8981818169
 20
6.2544270514
 11
-14.9097502994
 21
6.2538426198
  0
LINE
  5
243
100
AcDbEntity
  8
CURVE
100
AcDbLine
 62
252
  6
CONTINUOUS
 10
-16.2681922701
 20
6.1396795163
 11
-16.279221362
 21
6.1396999106
  0
LINE
  5
244
100
AcDbEntity
  8
CURVE
100
AcDbLine
 62
252
  6
CONTINUOUS
 10
-16.497830269
 20
7.1624128298
 11
-16.4868076857
 21
7.1623886775
  0
LINE
  5
245
100
AcDbEntity
  8
CURVE
100
AcDbLine
 62
252
  6
CONTINUOUS
 10
-14.9097502994
 20
6.2538426198
 11
-14.9217077519
 21
6.2542906434
  0
LINE
  5
246
100
AcDbEntity
  8
CURVE
100
AcDbLine
 62
252
  6
CONTINUOUS
 10
-16.279221362
 20
6.1396999106
 11
-16.2906585673
 21
6.1406861256
  0
LINE
  5
247
100
AcDbEntity
  8
CURVE
100
AcDbLine
 62
252
  6
CONTINUOUS
 10
-14.9217077519
 20
6.2542906434
 11
-14.9340250742
 21
6.2557706433
  0
LINE
  5
248
100
AcDbEntity
  8
CURVE
100
AcDbLine
 62
252
  6
CONTINUOUS
 10
-16.2906585673
 20
6.1406861256
 11
-16.3024524424
 21
6.142639879
  0
LINE
  5
249
100
AcDbEntity
  8
CURVE
100
AcDbLine
 62
252
  6
CONTINUOUS
 10
-14.9340250742
 20
6.2557706433
 11
-14.9466722106
 21
6.2582809431
  0
LINE
  5
24A
100
AcDbEntity
  8
CURVE
100
AcDbLine
 62
252
  6
CONTINUOUS
 10
-16.3024524424
 20
6.142639879
 11
-16.3145475943
 21
6.1455569896
  0
LINE
  5
24B
100
AcDbEntity
  8
CURVE
100
AcDbLine
 62
252
  6
CONTINUOUS
 10
-14.9466722106
 20
6.2582809431
 11
-14.9521467703
 21
6.2596610507
  0
LINE
  5
24C
100
AcDbEntity
  8
CURVE
100
AcDbLine
 62
252
  6
CONTINUOUS
 10
-16.3145475943
 20
6.1455569896
 11
-16.3227408762
 21
6.1480292225
  0
LINE
  5
24D
100
AcDbEntity
  8
CURVE
100
AcDbLine
 62
252
  6
CONTINUOUS
 10
-16.3227408762
 20
6.1480292225
 11
-16.3352693385
 21
6.1526172368
  0
LINE
  5
24E
100
AcDbEntity
  8
CURVE
100
AcDbLine
 62
252
  6
CONTINUOUS
 10
-18.1445156003
 20
30.0361930952
 11
-18.1362275427
 21
30.0478289189
  0
LINE
  5
24F
100
AcDbEntity
  8
CURVE
100
AcDbLine
 62
252
  6
CONTINUOUS
 10
-18.8423043433
 20
28.5512092174
 11
-18.8343011929
 21
28.5621507222
  0
LINE
  5
250
100
AcDbEntity
  8
CURVE
100
AcDbLine
 62
252
  6
CONTINUOUS
 10
-18.1362275427
 20
30.0478289189
 11
-18.127059387
 21
30.0580433231
  0
LINE
  5
251
100
AcDbEntity
  8
CURVE
100
AcDbLine
 62
252
  6
CONTINUOUS
 10
-18.8343011929
 20
28.5621507222
 11
-18.8254588027
 21
28.5718036085
  0
LINE
  5
252
100
AcDbEntity
  8
CURVE
100
AcDbLine
 62
252
  6
CONTINUOUS
 10
-16.5261928246
 20
29.8949116323
 11
-16.5170530715
 21
29.9046217671
  0
LINE
  5
253
100
AcDbEntity
  8
CURVE
100
AcDbLine
 62
252
  6
CONTINUOUS
 10
-17.2022741851
 20
28.4614834939
 11
-17.2122968487
 21
28.4527201051
  0
LINE
  5
254
100
AcDbEntity
  8
CURVE
100
AcDbLine
 62
252
  6
CONTINUOUS
 10
-18.8254588027
 20
28.5718036085
 11
-18.8158441158
 21
28.580112548
  0
LINE
  5
255
100
AcDbEntity
  8
CURVE
100
AcDbLine
 62
252
  6
CONTINUOUS
 10
-17.6321399538
 20
27.5529307936
 11
-17.6417607005
 21
27.5446585539
  0
LINE
  5
256
100
AcDbEntity
  8
CURVE
100
AcDbLine
 62
252
  6
CONTINUOUS
 10
-16.5170530715
 20
29.9046217671
 11
-16.5071188742
 21
29.9130018299
  0
LINE
  5
257
100
AcDbEntity
  8
CURVE
100
AcDbLine
 62
252
  6
CONTINUOUS
 10
-16.9321124207
 20
27.7993920645
 11
-16.8865318109
 21
27.8309085065
  0
LINE
  5
258
100
AcDbEntity
  8
CURVE
100
AcDbLine
 62
252
  6
CONTINUOUS
 10
-17.2122968487
 20
28.4527201051
 11
-17.2230335195
 21
28.4454820433
  0
LINE
  5
259
100
AcDbEntity
  8
CURVE
100
AcDbLine
 62
252
  6
CONTINUOUS
 10
-17.6417607005
 20
27.5446585539
 11
-17.6520805609
 21
27.5377725921
  0
LINE
  5
25A
100
AcDbEntity
  8
CURVE
100
AcDbLine
 62
252
  6
CONTINUOUS
 10
-18.2095886142
 20
26.3148067197
 11
-18.1988426943
 21
26.3218942041
  0
LINE
  5
25B
100
AcDbEntity
  8
CURVE
100
AcDbLine
 62
252
  6
CONTINUOUS
 10
-16.2274674795
 20
28.3613723329
 11
-16.2380592808
 21
28.3544787033
  0
LINE
  5
25C
100
AcDbEntity
  8
CURVE
100
AcDbLine
 62
252
  6
CONTINUOUS
 10
-15.562224796
 20
27.8442379964
 11
-14.9080509907
 21
28.2218799413
  0
LINE
  5
25D
100
AcDbEntity
  8
CURVE
100
AcDbLine
 62
252
  6
CONTINUOUS
 10
-18.1988426943
 20
26.3218942041
 11
-17.5678313431
 21
26.6861624383
  0
LINE
  5
25E
100
AcDbEntity
  8
CURVE
100
AcDbLine
 62
252
  6
CONTINUOUS
 10
-16.2380592808
 20
28.3544787033
 11
-16.2491786304
 21
28.3488757544
  0
LINE
  5
25F
100
AcDbEntity
  8
CURVE
100
AcDbLine
 62
252
  6
CONTINUOUS
 10
-14.9080509907
 20
28.2218799413
 11
-14.896254063
 21
28.2278066381
  0
LINE
  5
260
100
AcDbEntity
  8
CURVE
100
AcDbLine
 62
252
  6
CONTINUOUS
 10
-15.2686326656
 20
27.3203608105
 11
-15.2804368606
 21
27.314429962
  0
LINE
  5
261
100
AcDbEntity
  8
CURVE
100
AcDbLine
 62
252
  6
CONTINUOUS
 10
-17.5678313431
 20
26.6861624383
 11
-17.5563633425
 21
26.6918991725
  0
LINE
  5
262
100
AcDbEntity
  8
CURVE
100
AcDbLine
 62
252
  6
CONTINUOUS
 10
-17.6520805609
 20
27.5377725921
 11
-17.6634209247
 21
27.5321950237
  0
LINE
  5
263
100
AcDbEntity
  8
CURVE
100
AcDbLine
 62
252
  6
CONTINUOUS
 10
-17.2230335195
 20
28.4454820433
 11
-17.2348027011
 21
28.4397301542
  0
LINE
  5
264
100
AcDbEntity
  8
CURVE
100
AcDbLine
 62
252
  6
CONTINUOUS
 10
-16.8865318109
 20
27.8309085065
 11
-16.8366981351
 21
27.8544726926
  0
LINE
  5
265
100
AcDbEntity
  8
CURVE
100
AcDbLine
 62
252
  6
CONTINUOUS
 10
-16.2491786304
 20
28.3488757544
 11
-16.2611481976
 21
28.3445768102
  0
LINE
  5
266
100
AcDbEntity
  8
CURVE
100
AcDbLine
 62
252
  6
CONTINUOUS
 10
-14.896254063
 20
28.2278066381
 11
-14.8835734376
 21
28.2323123897
  0
LINE
  5
267
100
AcDbEntity
  8
CURVE
100
AcDbLine
 62
252
  6
CONTINUOUS
 10
-15.2804368606
 20
27.314429962
 11
-15.2930926009
 21
27.3099368473
  0
LINE
  5
268
100
AcDbEntity
  8
CURVE
100
AcDbLine
 62
252
  6
CONTINUOUS
 10
-17.6634209247
 20
27.5321950237
 11
-17.675478243
 21
27.5279898008
  0
LINE
  5
269
100
AcDbEntity
  8
CURVE
100
AcDbLine
 62
252
  6
CONTINUOUS
 10
-17.5563633425
 20
26.6918991725
 11
-17.5440564207
 21
26.6961908845
  0
LINE
  5
26A
100
AcDbEntity
  8
CURVE
100
AcDbLine
 62
252
  6
CONTINUOUS
 10
-17.9222710029
 20
25.7891124426
 11
-17.9344766019
 21
25.7849197111
  0
LINE
  5
26B
100
AcDbEntity
  8
CURVE
100
AcDbLine
 62
252
  6
CONTINUOUS
 10
-16.012473839
 20
26.1448537229
 11
-16.066382588
 21
26.1289225864
  0
LINE
  5
26C
100
AcDbEntity
  8
CURVE
100
AcDbLine
 62
252
  6
CONTINUOUS
 10
-16.5281631254
 20
7.1569303905
 11
-16.5184552256
 21
7.15968844
  0
LINE
  5
26D
100
AcDbEntity
  8
CURVE
100
AcDbLine
 62
252
  6
CONTINUOUS
 10
-16.7193693084
 20
8.7961505463
 11
-16.7025210649
 21
8.8008208485
  0
LINE
  5
26E
100
AcDbEntity
  8
CURVE
100
AcDbLine
 62
252
  6
CONTINUOUS
 10
-16.136217487
 20
7.6427948523
 11
-16.1534290335
 21
7.6383341432
  0
LINE
  5
26F
100
AcDbEntity
  8
CURVE
100
AcDbLine
 62
252
  6
CONTINUOUS
 10
-16.7025210649
 20
8.8008208485
 11
-16.6849381153
 21
8.8042103846
  0
LINE
  5
270
100
AcDbEntity
  8
CURVE
100
AcDbLine
 62
252
  6
CONTINUOUS
 10
-16.3305141778
 20
9.2818900997
 11
-16.3406154413
 21
9.2800430519
  0
LINE
  5
271
100
AcDbEntity
  8
CURVE
100
AcDbLine
 62
252
  6
CONTINUOUS
 10
-15.5564779022
 20
8.570872604
 11
-15.5378558233
 21
8.574168693
  0
LINE
  5
272
100
AcDbEntity
  8
CURVE
100
AcDbLine
 62
252
  6
CONTINUOUS
 10
-16.1534290335
 20
7.6383341432
 11
-16.171121142
 21
7.635209729
  0
LINE
  5
273
100
AcDbEntity
  8
CURVE
100
AcDbLine
 62
252
  6
CONTINUOUS
 10
-16.6849381153
 20
8.8042103846
 11
-16.6666752791
 21
8.8062988233
  0
LINE
  5
274
100
AcDbEntity
  8
CURVE
100
AcDbLine
 62
252
  6
CONTINUOUS
 10
-16.171121142
 20
7.635209729
 11
-16.1893972669
 21
7.6334024425
  0
LINE
  5
275
100
AcDbEntity
  8
CURVE
100
AcDbLine
 62
252
  6
CONTINUOUS
 10
-14.9271731979
 20
8.069636109
 11
-15.3132942341
 21
8.0337903297
  0
LINE
  5
276
100
AcDbEntity
  8
CURVE
100
AcDbLine
 62
252
  6
CONTINUOUS
 10
-16.3406154413
 20
9.2800430519
 11
-16.3513867609
 21
9.2790503509
  0
LINE
  5
277
100
AcDbEntity
  8
CURVE
100
AcDbLine
 62
252
  6
CONTINUOUS
 10
-15.5378558233
 20
8.574168693
 11
-15.171037735
 21
8.6063252582
  0
LINE
  5
278
100
AcDbEntity
  8
CURVE
100
AcDbLine
 62
252
  6
CONTINUOUS
 10
-17.2858323947
 20
7.8745190392
 11
-17.6608622849
 21
7.8452177895
  0
LINE
  5
279
100
AcDbEntity
  8
CURVE
100
AcDbLine
 62
252
  6
CONTINUOUS
 10
-17.8997773025
 20
8.3846240881
 11
-17.5254472164
 21
8.4136619208
  0
LINE
  5
27A
100
AcDbEntity
  8
CURVE
100
AcDbLine
 62
252
  6
CONTINUOUS
 10
-17.3367846579
 20
9.2005538235
 11
-17.3478996806
 21
9.2000611704
  0
LINE
  5
27B
100
AcDbEntity
  8
CURVE
100
AcDbLine
 62
252
  6
CONTINUOUS
 10
-16.6666752791
 20
8.8062988233
 11
-16.6477932939
 21
8.8070713055
  0
LINE
  5
27C
100
AcDbEntity
  8
CURVE
100
AcDbLine
 62
252
  6
CONTINUOUS
 10
-16.1893972669
 20
7.6334024425
 11
-16.2083327616
 21
7.6329082585
  0
LINE
  5
27D
100
AcDbEntity
  8
CURVE
100
AcDbLine
 62
252
  6
CONTINUOUS
 10
-16.3513867609
 20
9.2790503509
 11
-16.3625917739
 21
9.2790218727
  0
LINE
  5
27E
100
AcDbEntity
  8
CURVE
100
AcDbLine
 62
252
  6
CONTINUOUS
 10
-16.6477932939
 20
8.8070713055
 11
-16.6272277509
 21
8.8064871108
  0
LINE
  5
27F
100
AcDbEntity
  8
CURVE
100
AcDbLine
 62
252
  6
CONTINUOUS
 10
-15.4953089375
 20
7.2449018122
 11
-15.4835563792
 21
7.2444743681
  0
LINE
  5
280
100
AcDbEntity
  8
CURVE
100
AcDbLine
 62
252
  6
CONTINUOUS
 10
-16.2083327616
 20
7.6329082585
 11
-16.2278628729
 21
7.6337389582
  0
LINE
  5
281
100
AcDbEntity
  8
CURVE
100
AcDbLine
 62
252
  6
CONTINUOUS
 10
-17.3478996806
 20
9.2000611704
 11
-17.3594850032
 21
9.2006033824
  0
LINE
  5
282
100
AcDbEntity
  8
CURVE
100
AcDbLine
 62
252
  6
CONTINUOUS
 10
-15.3132942341
 20
8.0337903297
 11
-15.3266481943
 21
8.0345692473
  0
LINE
  5
283
100
AcDbEntity
  8
CURVE
100
AcDbLine
 62
252
  6
CONTINUOUS
 10
-15.171037735
 20
8.6063252582
 11
-15.1561728987
 21
8.605438295
  0
LINE
  5
284
100
AcDbEntity
  8
CURVE
100
AcDbLine
 62
252
  6
CONTINUOUS
 10
-17.5254472164
 20
8.4136619208
 11
-17.5116859017
 21
8.4127121142
  0
LINE
  5
285
100
AcDbEntity
  8
CURVE
100
AcDbLine
 62
252
  6
CONTINUOUS
 10
-17.6608622849
 20
7.8452177895
 11
-17.6746392093
 21
7.8462419429
  0
LINE
  5
286
100
AcDbEntity
  8
CURVE
100
AcDbLine
 62
252
  6
CONTINUOUS
 10
-16.4868076857
 20
7.1623886775
 11
-16.4753766452
 21
7.1613989031
  0
LINE
  5
287
100
AcDbEntity
  8
CURVE
100
AcDbLine
 62
252
  6
CONTINUOUS
 10
-15.1561728987
 20
8.605438295
 11
-15.1402337599
 21
8.6040289475
  0
LINE
  5
288
100
AcDbEntity
  8
CURVE
100
AcDbLine
 62
252
  6
CONTINUOUS
 10
-15.3266481943
 20
8.0345692473
 11
-15.3426750979
 21
8.0360018958
  0
LINE
  5
289
100
AcDbEntity
  8
CURVE
100
AcDbLine
 62
252
  6
CONTINUOUS
 10
-16.6272277509
 20
8.8064871108
 11
-16.606101569
 21
8.8043365652
  0
LINE
  5
28A
100
AcDbEntity
  8
CURVE
100
AcDbLine
 62
252
  6
CONTINUOUS
 10
-17.5116859017
 20
8.4127121142
 11
-17.4963360628
 21
8.4111374376
  0
LINE
  5
28B
100
AcDbEntity
  8
CURVE
100
AcDbLine
 62
252
  6
CONTINUOUS
 10
-17.6746392093
 20
7.8462419429
 11
-17.6901051836
 21
7.8478624959
  0
LINE
  5
28C
100
AcDbEntity
  8
CURVE
100
AcDbLine
 62
252
  6
CONTINUOUS
 10
-16.2278628729
 20
7.6337389582
 11
-16.2479166582
 21
7.6358996115
  0
LINE
  5
28D
100
AcDbEntity
  8
CURVE
100
AcDbLine
 62
252
  6
CONTINUOUS
 10
-15.4835563792
 20
7.2444743681
 11
-15.4713329698
 21
7.2430143851
  0
LINE
  5
28E
100
AcDbEntity
  8
CURVE
100
AcDbLine
 62
252
  6
CONTINUOUS
 10
-17.3594850032
 20
9.2006033824
 11
-17.3714692477
 21
9.2021860453
  0
LINE
  5
28F
100
AcDbEntity
  8
CURVE
100
AcDbLine
 62
252
  6
CONTINUOUS
 10
-15.1402337599
 20
8.6040289475
 11
-15.1268628113
 21
8.6021125057
  0
LINE
  5
290
100
AcDbEntity
  8
CURVE
100
AcDbLine
 62
252
  6
CONTINUOUS
 10
-15.3426750979
 20
8.0360018958
 11
-15.3563196399
 21
8.0379756996
  0
LINE
  5
291
100
AcDbEntity
  8
CURVE
100
AcDbLine
 62
252
  6
CONTINUOUS
 10
-17.4963360628
 20
8.4111374376
 11
-17.4832128661
 21
8.4090359312
  0
LINE
  5
292
100
AcDbEntity
  8
CURVE
100
AcDbLine
 62
252
  6
CONTINUOUS
 10
-17.6901051836
 20
7.8478624959
 11
-17.703135998
 21
7.8499688914
  0
LINE
  5
293
100
AcDbEntity
  8
CURVE
100
AcDbLine
 62
252
  6
CONTINUOUS
 10
-16.606101569
 20
8.8043365652
 11
-16.5857621755
 21
8.800988989
  0
LINE
  5
294
100
AcDbEntity
  8
CURVE
100
AcDbLine
 62
252
  6
CONTINUOUS
 10
-16.4753766452
 20
7.1613989031
 11
-16.4635883857
 21
7.1594419072
  0
LINE
  5
295
100
AcDbEntity
  8
CURVE
100
AcDbLine
 62
252
  6
CONTINUOUS
 10
-16.2479166582
 20
7.6358996115
 11
-16.2694906127
 21
7.6395706094
  0
LINE
  5
296
100
AcDbEntity
  8
CURVE
100
AcDbLine
 62
252
  6
CONTINUOUS
 10
-17.3714692477
 20
9.2021860453
 11
-17.3773719416
 21
9.2033210504
  0
LINE
  5
297
100
AcDbEntity
  8
CURVE
100
AcDbLine
 62
252
  6
CONTINUOUS
 10
-15.4713329698
 20
7.2430143851
 11
-15.4587071207
 21
7.2405192233
  0
LINE
  5
298
100
AcDbEntity
  8
CURVE
100
AcDbLine
 62
252
  6
CONTINUOUS
 10
-15.1268628113
 20
8.6021125057
 11
-15.114860127
 21
8.5995830884
  0
LINE
  5
299
100
AcDbEntity
  8
CURVE
100
AcDbLine
 62
252
  6
CONTINUOUS
 10
-15.3563196399
 20
8.0379756996
 11
-15.3686529321
 21
8.0405787293
  0
LINE
  5
29A
100
AcDbEntity
  8
CURVE
100
AcDbLine
 62
252
  6
CONTINUOUS
 10
-16.5857621755
 20
8.800988989
 11
-16.5654187014
 21
8.7964581206
  0
LINE
  5
29B
100
AcDbEntity
  8
CURVE
100
AcDbLine
 62
252
  6
CONTINUOUS
 10
-17.4832128661
 20
8.4090359312
 11
-17.4713271047
 21
8.40631556
  0
LINE
  5
29C
100
AcDbEntity
  8
CURVE
100
AcDbLine
 62
252
  6
CONTINUOUS
 10
-17.703135998
 20
7.8499688914
 11
-17.7148916277
 21
7.8526825975
  0
LINE
  5
29D
100
AcDbEntity
  8
CURVE
100
AcDbLine
 62
252
  6
CONTINUOUS
 10
-16.2694906127
 20
7.6395706094
 11
-16.2914747097
 21
7.6447691996
  0
LINE
  5
29E
100
AcDbEntity
  8
CURVE
100
AcDbLine
 62
252
  6
CONTINUOUS
 10
-16.4635883857
 20
7.1594419072
 11
-16.45149812
 21
7.1565219755
  0
LINE
  5
29F
100
AcDbEntity
  8
CURVE
100
AcDbLine
 62
252
  6
CONTINUOUS
 10
-15.4587071207
 20
7.2405192233
 11
-15.4523670306
 21
7.2389123455
  0
LINE
  5
2A0
100
AcDbEntity
  8
CURVE
100
AcDbLine
 62
252
  6
CONTINUOUS
 10
-16.5654187014
 20
8.7964581206
 11
-16.5446400044
 21
8.7906007183
  0
LINE
  5
2A1
100
AcDbEntity
  8
CURVE
100
AcDbLine
 62
252
  6
CONTINUOUS
 10
-15.3686529321
 20
8.0405787293
 11
-15.3801599413
 21
8.0438521418
  0
LINE
  5
2A2
100
AcDbEntity
  8
CURVE
100
AcDbLine
 62
252
  6
CONTINUOUS
 10
-16.2914747097
 20
7.6447691996
 11
-16.3126097106
 21
7.6509961706
  0
LINE
  5
2A3
100
AcDbEntity
  8
CURVE
100
AcDbLine
 62
252
  6
CONTINUOUS
 10
-16.45149812
 20
7.1565219755
 11
-16.443307612
 21
7.154048141
  0
LINE
  5
2A4
100
AcDbEntity
  8
CURVE
100
AcDbLine
 62
252
  6
CONTINUOUS
 10
-17.4713271047
 20
8.40631556
 11
-17.4602243299
 21
8.4029328466
  0
LINE
  5
2A5
100
AcDbEntity
  8
CURVE
100
AcDbLine
 62
252
  6
CONTINUOUS
 10
-17.7148916277
 20
7.8526825975
 11
-17.7258846061
 21
7.8560626675
  0
LINE
  5
2A6
100
AcDbEntity
  8
CURVE
100
AcDbLine
 62
252
  6
CONTINUOUS
 10
-14.9521467703
 20
6.2596610507
 11
-14.9650926981
 21
6.2636777985
  0
LINE
  5
2A7
100
AcDbEntity
  8
CURVE
100
AcDbLine
 62
252
  6
CONTINUOUS
 10
-15.4523670306
 20
7.2389123455
 11
-15.4396862248
 21
7.2349617888
  0
LINE
  5
2A8
100
AcDbEntity
  8
CURVE
100
AcDbLine
 62
252
  6
CONTINUOUS
 10
-16.3126097106
 20
7.6509961706
 11
-16.3337809668
 21
7.658440322
  0
LINE
  5
2A9
100
AcDbEntity
  8
CURVE
100
AcDbLine
 62
252
  6
CONTINUOUS
 10
-15.3801599413
 20
8.0438521418
 11
-15.3914687126
 21
8.047903388
  0
LINE
  5
2AA
100
AcDbEntity
  8
CURVE
100
AcDbLine
 62
252
  6
CONTINUOUS
 10
-16.443307612
 20
7.154048141
 11
-16.4311539556
 21
7.1496853733
  0
LINE
  5
2AB
100
AcDbEntity
  8
CURVE
100
AcDbLine
 62
252
  6
CONTINUOUS
 10
-14.9650926981
 20
6.2636777985
 11
-14.9713207616
 21
6.2659401462
  0
LINE
  5
2AC
100
AcDbEntity
  8
CURVE
100
AcDbLine
 62
252
  6
CONTINUOUS
 10
-15.4396862248
 20
7.2349617888
 11
-15.4267092083
 21
7.2299816935
  0
LINE
  5
2AD
100
AcDbEntity
  8
CURVE
100
AcDbLine
 62
252
  6
CONTINUOUS
 10
-17.4602243299
 20
8.4029328466
 11
-17.4487744481
 21
8.3984566658
  0
LINE
  5
2AE
100
AcDbEntity
  8
CURVE
100
AcDbLine
 62
252
  6
CONTINUOUS
 10
-17.7258846061
 20
7.8560626675
 11
-17.7372955294
 21
7.8605626377
  0
LINE
  5
2AF
100
AcDbEntity
  8
CURVE
100
AcDbLine
 62
252
  6
CONTINUOUS
 10
-16.3337809668
 20
7.658440322
 11
-16.3552578877
 21
7.6671904468
  0
LINE
  5
2B0
100
AcDbEntity
  8
CURVE
100
AcDbLine
 62
252
  6
CONTINUOUS
 10
-14.9713207616
 20
6.2659401462
 11
-14.9844923223
 21
6.2714094591
  0
LINE
  5
2B1
100
AcDbEntity
  8
CURVE
100
AcDbLine
 62
252
  6
CONTINUOUS
 10
-16.3352693385
 20
6.1526172368
 11
-16.3429739247
 21
6.15586385
  0
LINE
  5
2B2
100
AcDbEntity
  8
CURVE
100
AcDbLine
 62
252
  6
CONTINUOUS
 10
-16.4311539556
 20
7.1496853733
 11
-16.4187658506
 21
7.1443712258
  0
LINE
  5
2B3
100
AcDbEntity
  8
CURVE
100
AcDbLine
 62
252
  6
CONTINUOUS
 10
-15.4267092083
 20
7.2299816935
 11
-15.4135145379
 21
7.2239932154
  0
LINE
  5
2B4
100
AcDbEntity
  8
CURVE
100
AcDbLine
 62
252
  6
CONTINUOUS
 10
-16.3552578877
 20
7.6671904468
 11
-16.3769727352
 21
7.6772252851
  0
LINE
  5
2B5
100
AcDbEntity
  8
CURVE
100
AcDbLine
 62
252
  6
CONTINUOUS
 10
-17.4487744481
 20
8.3984566658
 11
-17.4368929793
 21
8.392892879
  0
LINE
  5
2B6
100
AcDbEntity
  8
CURVE
100
AcDbLine
 62
252
  6
CONTINUOUS
 10
-17.7372955294
 20
7.8605626377
 11
-17.7491350775
 21
7.8661522413
  0
LINE
  5
2B7
100
AcDbEntity
  8
CURVE
100
AcDbLine
 62
252
  6
CONTINUOUS
 10
-16.3429739247
 20
6.15586385
 11
-16.3556910524
 21
6.1619136875
  0
LINE
  5
2B8
100
AcDbEntity
  8
CURVE
100
AcDbLine
 62
252
  6
CONTINUOUS
 10
-14.9844923223
 20
6.2714094591
 11
-14.9977295883
 21
6.2778239505
  0
LINE
  5
2B9
100
AcDbEntity
  8
CURVE
100
AcDbLine
 62
252
  6
CONTINUOUS
 10
-16.4187658506
 20
7.1443712258
 11
-16.4061956861
 21
7.1381214237
  0
LINE
  5
2BA
100
AcDbEntity
  8
CURVE
100
AcDbLine
 62
252
  6
CONTINUOUS
 10
-15.4135145379
 20
7.2239932154
 11
-15.4075656001
 21
7.2209968533
  0
LINE
  5
2BB
100
AcDbEntity
  8
CURVE
100
AcDbLine
 62
252
  6
CONTINUOUS
 10
-16.3769727352
 20
7.6772252851
 11
-16.3988544994
 21
7.6885171914
  0
LINE
  5
2BC
100
AcDbEntity
  8
CURVE
100
AcDbLine
 62
252
  6
CONTINUOUS
 10
-16.3556910524
 20
6.1619136875
 11
-16.3684335919
 21
6.1688265981
  0
LINE
  5
2BD
100
AcDbEntity
  8
CURVE
100
AcDbLine
 62
252
  6
CONTINUOUS
 10
-17.4368929793
 20
8.392892879
 11
-17.4246313315
 21
8.3862425434
  0
LINE
  5
2BE
100
AcDbEntity
  8
CURVE
100
AcDbLine
 62
252
  6
CONTINUOUS
 10
-17.7491350775
 20
7.8661522413
 11
-17.7613653851
 21
7.8728368998
  0
LINE
  5
2BF
100
AcDbEntity
  8
CURVE
100
AcDbLine
 62
252
  6
CONTINUOUS
 10
-14.9977295883
 20
6.2778239505
 11
-15.0109677553
 21
6.2851476448
  0
LINE
  5
2C0
100
AcDbEntity
  8
CURVE
100
AcDbLine
 62
252
  6
CONTINUOUS
 10
-15.4075656001
 20
7.2209968533
 11
-15.3942246778
 21
7.2136186184
  0
LINE
  5
2C1
100
AcDbEntity
  8
CURVE
100
AcDbLine
 62
252
  6
CONTINUOUS
 10
-16.4061956861
 20
7.1381214237
 11
-16.3934990505
 21
7.1309575008
  0
LINE
  5
2C2
100
AcDbEntity
  8
CURVE
100
AcDbLine
 62
252
  6
CONTINUOUS
 10
-16.3988544994
 20
7.6885171914
 11
-16.4217904446
 21
7.7015794182
  0
LINE
  5
2C3
100
AcDbEntity
  8
CURVE
100
AcDbLine
 62
252
  6
CONTINUOUS
 10
-16.3684335919
 20
6.1688265981
 11
-16.3811415459
 21
6.1765652613
  0
LINE
  5
2C4
100
AcDbEntity
  8
CURVE
100
AcDbLine
 62
252
  6
CONTINUOUS
 10
-17.7613653851
 20
7.8728368998
 11
-17.7739360388
 21
7.8806124088
  0
LINE
  5
2C5
100
AcDbEntity
  8
CURVE
100
AcDbLine
 62
252
  6
CONTINUOUS
 10
-16.3934990505
 20
7.1309575008
 11
-16.3850691223
 21
7.1257358785
  0
LINE
  5
2C6
100
AcDbEntity
  8
CURVE
100
AcDbLine
 62
252
  6
CONTINUOUS
 10
-15.0109677553
 20
6.2851476448
 11
-15.0241450109
 21
6.2933410399
  0
LINE
  5
2C7
100
AcDbEntity
  8
CURVE
100
AcDbLine
 62
252
  6
CONTINUOUS
 10
-15.0241450109
 20
6.2933410399
 11
-15.0325360508
 21
6.2989388484
  0
LINE
  5
2C8
100
AcDbEntity
  8
CURVE
100
AcDbLine
 62
252
  6
CONTINUOUS
 10
-16.3850691223
 20
7.1257358785
 11
-16.3723005225
 21
7.1171236946
  0
LINE
  5
2C9
100
AcDbEntity
  8
CURVE
100
AcDbLine
 62
252
  6
CONTINUOUS
 10
-16.3811415459
 20
6.1765652613
 11
-16.3937572556
 21
6.185088946
  0
LINE
  5
2CA
100
AcDbEntity
  8
CURVE
100
AcDbLine
 62
252
  6
CONTINUOUS
 10
-17.7739360388
 20
7.8806124088
 11
-17.7867827622
 21
7.889461636
  0
LINE
  5
2CB
100
AcDbEntity
  8
CURVE
100
AcDbLine
 62
252
  6
CONTINUOUS
 10
-16.3937572556
 20
6.185088946
 11
-16.4063062916
 21
6.1944137912
  0
LINE
  5
2CC
100
AcDbEntity
  8
CURVE
100
AcDbLine
 62
252
  6
CONTINUOUS
 10
-17.7867827622
 20
7.889461636
 11
-17.7961773606
 21
7.896493691
  0
LINE
  5
2CD
100
AcDbEntity
  8
CURVE
100
AcDbLine
 62
252
  6
CONTINUOUS
 10
-16.4063062916
 20
6.1944137912
 11
-16.4187972784
 21
6.2045474578
  0
LWPOLYLINE
  5
2CE
100
AcDbEntity
  8
RACCORDO
100
AcDbPolyline
 62
253
  6
CONTINUOUS
 90
9
 70
0
 10
-23.3331573464
 20
5.1513937459
 10
-23.3271763914
 20
5.0746653163
 10
-23.3154537195
 20
5.001979319
 10
-23.2980743276
 20
4.9338254093
 10
-23.2751751287
 20
4.8706756491
 10
-23.2469083447
 20
4.8129448222
 10
-23.2134355312
 20
4.7609923929
 10
-23.1749910803
 20
4.7151765476
 10
-23.1325706905
 20
4.6764834457
  0
LWPOLYLINE
  5
2CF
100
AcDbEntity
  8
ASSI
100
AcDbPolyline
 62
253
  6
CONTINUOUS
 90
9
 70
0
 10
-23.3331573464
 20
5.1513937459
 10
-23.3271763914
 20
5.0746653163
 10
-23.3154537195
 20
5.001979319
 10
-23.2980743276
 20
4.9338254093
 10
-23.2751751287
 20
4.8706756491
 10
-23.2469083447
 20
4.8129448222
 10
-23.2134355312
 20
4.7609923929
 10
-23.1749910803
 20
4.7151765476
 10
-23.1325706905
 20
4.6764834457
  0
LWPOLYLINE
  5
2D0
100
AcDbEntity
  8
RACCORDO
100
AcDbPolyline
 62
7
  6
CONTINUOUS
 90
13
 70
0
 10
-23.4565219924
 20
5.339819592
 10
-23.4561159633
 20
5.3301073427
 10
-23.4492084551
 20
5.2478144842
 10
-23.4364661183
 20
5.1694562184
 10
-23.4182386196
 20
5.095389565
 10
-23.3948178451
 20
5.0255228536
 10
-23.3663450047
 20
4.9595391204
 10
-23.3331163967
 20
4.8977128205
 10
-23.2954184409
 20
4.8402419905
 10
-23.2532840839
 20
4.7869803346
 10
-23.2070885654
 20
4.7382770674
 10
-23.1571862889
 20
4.6943795225
 10
-23.1014593547
 20
4.6538648262
  0
LWPOLYLINE
  5
2D1
100
AcDbEntity
  8
ASSI
100
AcDbPolyline
 62
7
  6
CONTINUOUS
 90
13
 70
0
 10
-23.4565219924
 20
5.339819592
 10
-23.4561159633
 20
5.3301073427
 10
-23.4492084551
 20
5.2478144842
 10
-23.4364661183
 20
5.1694562184
 10
-23.4182386196
 20
5.095389565
 10
-23.3948178451
 20
5.0255228536
 10
-23.3663450047
 20
4.9595391204
 10
-23.3331163967
 20
4.8977128205
 10
-23.2954184409
 20
4.8402419905
 10
-23.2532840839
 20
4.7869803346
 10
-23.2070885654
 20
4.7382770674
 10
-23.1571862889
 20
4.6943795225
 10
-23.1014593547
 20
4.6538648262
  0
LWPOLYLINE
  5
2D2
100
AcDbEntity
  8
RACCORDO
100
AcDbPolyline
 62
7
  6
CONTINUOUS
 90
5
 70
0
 10
-23.7651178325
 20
22.6745919714
 10
-23.7645476347
 20
22.6516553003
 10
-23.7609441298
 20
22.6138896686
 10
-23.7539752577
 20
22.5762251442
 10
-23.7436390193
 20
22.5390627821
  0
LWPOLYLINE
  5
2D3
100
AcDbEntity
  8
ASSI
100
AcDbPolyline
 62
7
  6
CONTINUOUS
 90
5
 70
0
 10
-23.7651178325
 20
22.6745919714
 10
-23.7645476347
 20
22.6516553003
 10
-23.7609441298
 20
22.6138896686
 10
-23.7539752577
 20
22.5762251442
 10
-23.7436390193
 20
22.5390627821
  0
LWPOLYLINE
  5
2D4
100
AcDbEntity
  8
RACCORDO
100
AcDbPolyline
 62
253
  6
CONTINUOUS
 90
9
 70
0
 10
-23.765121854
 20
21.724053473
 10
-23.7650355703
 20
21.7191692766
 10
-23.7617687539
 20
21.6911039664
 10
-23.7538129755
 20
21.6633677915
 10
-23.7412441578
 20
21.6362181863
 10
-23.724176131
 20
21.6099042108
 10
-23.7027647091
 20
21.5846726742
 10
-23.6772107952
 20
21.5607650639
 10
-23.6477532333
 20
21.5384083011
  0
LWPOLYLINE
  5
2D5
100
AcDbEntity
  8
ASSI
100
AcDbPolyline
 62
253
  6
CONTINUOUS
 90
9
 70
0
 10
-23.765121854
 20
21.724053473
 10
-23.7650355703
 20
21.7191692766
 10
-23.7617687539
 20
21.6911039664
 10
-23.7538129755
 20
21.6633677915
 10
-23.7412441578
 20
21.6362181863
 10
-23.724176131
 20
21.6099042108
 10
-23.7027647091
 20
21.5846726742
 10
-23.6772107952
 20
21.5607650639
 10
-23.6477532333
 20
21.5384083011
  0
LINE
  5
2D6
100
AcDbEntity
  8
RACCORDO
100
AcDbLine
 62
253
  6
CONTINUOUS
 10
-23.7650356152
 20
22.6686913442
 11
-23.7651226161
 21
22.674231855
  0
LINE
  5
2D7
100
AcDbEntity
  8
ASSI
100
AcDbLine
 62
253
  6
CONTINUOUS
 10
-23.7650356152
 20
22.6686913442
 11
-23.7651226161
 21
22.674231855
  0
LWPOLYLINE
  5
2D8
100
AcDbEntity
  8
RACCORDO
100
AcDbPolyline
 62
7
  6
CONTINUOUS
 90
10
 70
0
 10
-23.7651225706
 20
21.7244031098
 10
-23.7599166089
 20
19.9386001753
 10
-23.7473330792
 20
18.0909006647
 10
-23.7274323349
 20
16.2475519908
 10
-23.7002132718
 20
14.4085950401
 10
-23.6656758862
 20
12.5740677146
 10
-23.6238202491
 20
10.7440069407
 10
-23.5746469772
 20
8.918453473
 10
-23.5181575485
 20
7.0974534872
 10
-23.4565434601
 20
5.3400495323
  0
LWPOLYLINE
  5
2D9
100
AcDbEntity
  8
ASSI
100
AcDbPolyline
 62
7
  6
CONTINUOUS
 90
10
 70
0
 10
-23.7651225706
 20
21.7244031098
 10
-23.7599166089
 20
19.9386001753
 10
-23.7473330792
 20
18.0909006647
 10
-23.7274323349
 20
16.2475519908
 10
-23.7002132718
 20
14.4085950401
 10
-23.6656758862
 20
12.5740677146
 10
-23.6238202491
 20
10.7440069407
 10
-23.5746469772
 20
8.918453473
 10
-23.5181575485
 20
7.0974534872
 10
-23.4565434601
 20
5.3400495323
  0
LWPOLYLINE
  5
2DA
100
AcDbEntity
  8
RACCORDO
100
AcDbPolyline
 62
253
  6
CONTINUOUS
 90
10
 70
0
 10
-23.6477532351
 20
21.5384083014
 10
-23.6428877342
 20
19.8447472836
 10
-23.6315666029
 20
18.1282796725
 10
-23.6134903716
 20
16.3892135788
 10
-23.5885600439
 20
14.6405636968
 10
-23.5563640104
 20
12.8696875201
 10
-23.515672392
 20
11.0385896981
 10
-23.4653333507
 20
9.135084777
 10
-23.4047785484
 20
7.1724938676
 10
-23.3331573439
 20
5.1513937397
  0
LWPOLYLINE
  5
2DB
100
AcDbEntity
  8
ASSI
100
AcDbPolyline
 62
253
  6
CONTINUOUS
 90
10
 70
0
 10
-23.6477532351
 20
21.5384083014
 10
-23.6428877342
 20
19.8447472836
 10
-23.6315666029
 20
18.1282796725
 10
-23.6134903716
 20
16.3892135788
 10
-23.5885600439
 20
14.6405636968
 10
-23.5563640104
 20
12.8696875201
 10
-23.515672392
 20
11.0385896981
 10
-23.4653333507
 20
9.135084777
 10
-23.4047785484
 20
7.1724938676
 10
-23.3331573439
 20
5.1513937397
  0
LWPOLYLINE
  5
2DC
100
AcDbEntity
  8
RACCORDO
100
AcDbPolyline
 62
7
  6
CONTINUOUS
 90
10
 70
0
 10
-23.4565723805
 20
39.4328747599
 10
-23.5180033205
 20
37.606239853
 10
-23.5745082694
 20
35.7166772645
 10
-23.6236981127
 20
33.8314466179
 10
-23.6655713222
 20
31.9505948
 10
-23.70012726
 20
30.0741626435
 10
-23.7273656835
 20
28.2021880485
 10
-23.7472864776
 20
26.3347093677
 10
-23.7598907077
 20
24.4717661395
 10
-23.7651226166
 20
22.6742313709
  0
LWPOLYLINE
  5
2DD
100
AcDbEntity
  8
ASSI
100
AcDbPolyline
 62
7
  6
CONTINUOUS
 90
10
 70
0
 10
-23.4565723805
 20
39.4328747599
 10
-23.5180033205
 20
37.606239853
 10
-23.5745082694
 20
35.7166772645
 10
-23.6236981127
 20
33.8314466179
 10
-23.6655713222
 20
31.9505948
 10
-23.70012726
 20
30.0741626435
 10
-23.7273656835
 20
28.2021880485
 10
-23.7472864776
 20
26.3347093677
 10
-23.7598907077
 20
24.4717661395
 10
-23.7651226166
 20
22.6742313709
  0
LWPOLYLINE
  5
2DE
100
AcDbEntity
  8
RACCORDO
100
AcDbPolyline
 62
253
  6
CONTINUOUS
 90
10
 70
0
 10
-23.3331573402
 20
39.2428951836
 10
-23.3995612254
 20
37.3009146258
 10
-23.457215027
 20
35.3948690626
 10
-23.5064980656
 20
33.5245970455
 10
-23.5473536755
 20
31.710772306
 10
-23.5807375591
 20
29.9323083749
 10
-23.6078246201
 20
28.126796458
 10
-23.628445334
 20
26.2737709309
 10
-23.6418795376
 20
24.39427152
 10
-23.6477532193
 20
22.4885522712
  0
LWPOLYLINE
  5
2DF
100
AcDbEntity
  8
ASSI
100
AcDbPolyline
 62
253
  6
CONTINUOUS
 90
10
 70
0
 10
-23.3331573402
 20
39.2428951836
 10
-23.3995612254
 20
37.3009146258
 10
-23.457215027
 20
35.3948690626
 10
-23.5064980656
 20
33.5245970455
 10
-23.5473536755
 20
31.710772306
 10
-23.5807375591
 20
29.9323083749
 10
-23.6078246201
 20
28.126796458
 10
-23.628445334
 20
26.2737709309
 10
-23.6418795376
 20
24.39427152
 10
-23.6477532193
 20
22.4885522712
  0
LINE
  5
2E0
100
AcDbEntity
  8
RACCORDO
100
AcDbLine
 62
7
  6
CONTINUOUS
 10
-14.7455160774
 20
38.5916523483
 11
-14.6244890346
 21
38.8692678985
  0
LINE
  5
2E1
100
AcDbEntity
  8
ASSI
100
AcDbLine
 62
7
  6
CONTINUOUS
 10
-14.7455160774
 20
38.5916523483
 11
-14.6244890346
 21
38.8692678985
  0
LINE
  5
2E2
100
AcDbEntity
  8
CURVE
100
AcDbLine
 62
252
  6
CONTINUOUS
 10
-18.8550814254
 20
28.5268861001
 11
-18.8494050586
 21
28.5390499915
  0
LINE
  5
2E3
100
AcDbEntity
  8
CURVE
100
AcDbLine
 62
252
  6
CONTINUOUS
 10
-18.1551512509
 20
30.0162002666
 11
-18.151841506
 21
30.0232228649
  0
LINE
  5
2E4
100
AcDbEntity
  8
CURVE
100
AcDbLine
 62
252
  6
CONTINUOUS
 10
-18.151841506
 20
30.0232228649
 11
-18.1445156003
 21
30.0361930952
  0
LINE
  5
2E5
100
AcDbEntity
  8
CURVE
100
AcDbLine
 62
252
  6
CONTINUOUS
 10
-18.8494050586
 20
28.5390499915
 11
-18.8423043433
 21
28.5512092174
  0
LINE
  5
2E6
100
AcDbEntity
  8
CURVE
100
AcDbLine
 62
252
  6
CONTINUOUS
 10
-16.5418387906
 20
29.8717217002
 11
-16.5344746972
 21
29.8839232927
  0
LINE
  5
2E7
100
AcDbEntity
  8
CURVE
100
AcDbLine
 62
252
  6
CONTINUOUS
 10
-17.1847202967
 20
28.4833901183
 11
-17.1930529411
 21
28.4717285507
  0
LINE
  5
2E8
100
AcDbEntity
  8
CURVE
100
AcDbLine
 62
252
  6
CONTINUOUS
 10
-18.236678505
 20
26.2849979817
 11
-18.2285639172
 21
26.2963136842
  0
LINE
  5
2E9
100
AcDbEntity
  8
CURVE
100
AcDbLine
 62
252
  6
CONTINUOUS
 10
-17.6152548931
 20
27.573480719
 11
-17.6232829419
 21
27.562554619
  0
LINE
  5
2EA
100
AcDbEntity
  8
CURVE
100
AcDbLine
 62
252
  6
CONTINUOUS
 10
-16.5344746972
 20
29.8839232927
 11
-16.5261928246
 21
29.8949116323
  0
LINE
  5
2EB
100
AcDbEntity
  8
CURVE
100
AcDbLine
 62
252
  6
CONTINUOUS
 10
-16.2002445909
 20
28.3901634019
 11
-16.2084941657
 21
28.3792583459
  0
LINE
  5
2EC
100
AcDbEntity
  8
CURVE
100
AcDbLine
 62
252
  6
CONTINUOUS
 10
-17.0080466455
 20
27.7135050926
 11
-16.972460589
 21
27.7599261729
  0
LINE
  5
2ED
100
AcDbEntity
  8
CURVE
100
AcDbLine
 62
252
  6
CONTINUOUS
 10
-17.1930529411
 20
28.4717285507
 11
-17.2022741851
 21
28.4614834939
  0
LINE
  5
2EE
100
AcDbEntity
  8
CURVE
100
AcDbLine
 62
252
  6
CONTINUOUS
 10
-17.2483139788
 20
26.1861848737
 11
-17.2575222568
 21
26.1760119627
  0
LINE
  5
2EF
100
AcDbEntity
  8
CURVE
100
AcDbLine
 62
252
  6
CONTINUOUS
 10
-18.2285639172
 20
26.2963136842
 11
-18.2195148793
 21
26.3062668617
  0
LINE
  5
2F0
100
AcDbEntity
  8
CURVE
100
AcDbLine
 62
252
  6
CONTINUOUS
 10
-15.5932791637
 20
27.8174005342
 11
-15.58380159
 21
27.8277667995
  0
LINE
  5
2F1
100
AcDbEntity
  8
CURVE
100
AcDbLine
 62
252
  6
CONTINUOUS
 10
-17.6232829419
 20
27.562554619
 11
-17.6321399538
 21
27.5529307936
  0
LINE
  5
2F2
100
AcDbEntity
  8
CURVE
100
AcDbLine
 62
252
  6
CONTINUOUS
 10
-16.2084941657
 20
28.3792583459
 11
-16.2175903369
 21
28.3696445198
  0
LINE
  5
2F3
100
AcDbEntity
  8
CURVE
100
AcDbLine
 62
252
  6
CONTINUOUS
 10
-16.972460589
 20
27.7599261729
 11
-16.9321124207
 21
27.7993920645
  0
LINE
  5
2F4
100
AcDbEntity
  8
CURVE
100
AcDbLine
 62
252
  6
CONTINUOUS
 10
-17.2575222568
 20
26.1760119627
 11
-17.2676103958
 21
26.1672552056
  0
LINE
  5
2F5
100
AcDbEntity
  8
CURVE
100
AcDbLine
 62
252
  6
CONTINUOUS
 10
-15.58380159
 20
27.8277667995
 11
-15.5734263391
 21
27.8367286679
  0
LINE
  5
2F6
100
AcDbEntity
  8
CURVE
100
AcDbLine
 62
252
  6
CONTINUOUS
 10
-18.2195148793
 20
26.3062668617
 11
-18.2095886142
 21
26.3148067197
  0
LINE
  5
2F7
100
AcDbEntity
  8
CURVE
100
AcDbLine
 62
252
  6
CONTINUOUS
 10
-14.5914044673
 20
27.7150051886
 11
-14.6018452923
 21
27.7061686405
  0
LINE
  5
2F8
100
AcDbEntity
  8
CURVE
100
AcDbLine
 62
252
  6
CONTINUOUS
 10
-16.6291792756
 20
25.6309940235
 11
-16.619425312
 21
25.639232449
  0
LINE
  5
2F9
100
AcDbEntity
  8
CURVE
100
AcDbLine
 62
252
  6
CONTINUOUS
 10
-16.2175903369
 20
28.3696445198
 11
-16.2274674795
 21
28.3613723329
  0
LINE
  5
2FA
100
AcDbEntity
  8
CURVE
100
AcDbLine
 62
252
  6
CONTINUOUS
 10
-15.9164158597
 20
26.2003060115
 11
-15.9623191416
 21
26.1686032627
  0
LWPOLYLINE
  5
2FB
100
AcDbEntity
  8
RACCORDO
100
AcDbPolyline
 62
253
  6
CONTINUOUS
 90
16
 70
0
 10
-23.3401289209
 20
22.090220658
 10
-23.3465350621
 20
22.085831464
 10
-23.3521068149
 20
22.0811949725
 10
-23.3568441793
 20
22.0763111836
 10
-23.3607781409
 20
22.0711280115
 10
-23.363877714
 20
22.065697542
 10
-23.3660499418
 20
22.0601760325
 10
-23.3672664666
 20
22.0545623892
 10
-23.3675556461
 20
22.0488577059
 10
-23.3669095958
 20
22.0432215225
 10
-23.3652983051
 20
22.0376531092
 10
-23.3627517846
 20
22.0321531957
 10
-23.3593521814
 20
22.0268835112
 10
-23.3551268781
 20
22.0218979653
 10
-23.3500484922
 20
22.0171426483
 10
-23.3441170238
 20
22.0126175602
  0
LWPOLYLINE
  5
2FC
100
AcDbEntity
  8
ASSI
100
AcDbPolyline
 62
253
  6
CONTINUOUS
 90
16
 70
0
 10
-23.3401289209
 20
22.090220658
 10
-23.3465350621
 20
22.085831464
 10
-23.3521068149
 20
22.0811949725
 10
-23.3568441793
 20
22.0763111836
 10
-23.3607781409
 20
22.0711280115
 10
-23.363877714
 20
22.065697542
 10
-23.3660499418
 20
22.0601760325
 10
-23.3672664666
 20
22.0545623892
 10
-23.3675556461
 20
22.0488577059
 10
-23.3669095958
 20
22.0432215225
 10
-23.3652983051
 20
22.0376531092
 10
-23.3627517846
 20
22.0321531957
 10
-23.3593521814
 20
22.0268835112
 10
-23.3551268781
 20
22.0218979653
 10
-23.3500484922
 20
22.0171426483
 10
-23.3441170238
 20
22.0126175602
  0
LWPOLYLINE
  5
2FD
100
AcDbEntity
  8
RACCORDO
100
AcDbPolyline
 62
7
  6
CONTINUOUS
 90
11
 70
0
 10
-23.5483437406
 20
22.1050769277
 10
-23.5802586874
 20
22.0835246778
 10
-23.6186395062
 20
22.0520890251
 10
-23.6530495059
 20
22.0172374779
 10
-23.683045439
 20
21.9796054491
 10
-23.708518327
 20
21.9395654831
 10
-23.7294961018
 20
21.8972152802
 10
-23.7457395349
 20
21.8531262805
 10
-23.7570945969
 20
21.8079196701
 10
-23.7635476786
 20
21.7617815928
 10
-23.7651173142
 20
21.7241333588
  0
LWPOLYLINE
  5
2FE
100
AcDbEntity
  8
ASSI
100
AcDbPolyline
 62
7
  6
CONTINUOUS
 90
11
 70
0
 10
-23.5483437406
 20
22.1050769277
 10
-23.5802586874
 20
22.0835246778
 10
-23.6186395062
 20
22.0520890251
 10
-23.6530495059
 20
22.0172374779
 10
-23.683045439
 20
21.9796054491
 10
-23.708518327
 20
21.9395654831
 10
-23.7294961018
 20
21.8972152802
 10
-23.7457395349
 20
21.8531262805
 10
-23.7570945969
 20
21.8079196701
 10
-23.7635476786
 20
21.7617815928
 10
-23.7651173142
 20
21.7241333588
  0
LINE
  5
2FF
100
AcDbEntity
  8
CURVE
100
AcDbLine
 62
252
  6
CONTINUOUS
 10
-15.5734263391
 20
27.8367286679
 11
-15.562224796
 21
27.8442379964
  0
LINE
  5
300
100
AcDbEntity
  8
CURVE
100
AcDbLine
 62
252
  6
CONTINUOUS
 10
-17.2676103958
 20
26.1672552056
 11
-17.2785087831
 21
26.1599606968
  0
LINE
  5
301
100
AcDbEntity
  8
CURVE
100
AcDbLine
 62
252
  6
CONTINUOUS
 10
-15.1946945297
 20
26.461972274
 11
-15.1840556219
 21
26.4690805802
  0
LINE
  5
302
100
AcDbEntity
  8
CURVE
100
AcDbLine
 62
252
  6
CONTINUOUS
 10
-15.630188756
 20
25.5500611237
 11
-15.6192865025
 21
25.5572380393
  0
LINE
  5
303
100
AcDbEntity
  8
CURVE
100
AcDbLine
 62
252
  6
CONTINUOUS
 10
-14.6018452923
 20
27.7061686405
 11
-14.6131345437
 21
27.698767399
  0
LINE
  5
304
100
AcDbEntity
  8
CURVE
100
AcDbLine
 62
252
  6
CONTINUOUS
 10
-16.619425312
 20
25.639232449
 11
-16.6089438887
 21
25.646100007
  0
LINE
  5
305
100
AcDbEntity
  8
RACCORDO
100
AcDbLine
 62
7
  6
CONTINUOUS
 10
-23.4034435306
 20
22.1947511645
 11
-23.5481383566
 21
22.1052158884
  0
LINE
  5
306
100
AcDbEntity
  8
ASSI
100
AcDbLine
 62
7
  6
CONTINUOUS
 10
-23.4034435306
 20
22.1947511645
 11
-23.5481383566
 21
22.1052158884
  0
LINE
  5
307
100
AcDbEntity
  8
RACCORDO
100
AcDbLine
 62
253
  6
CONTINUOUS
 10
-23.2929955566
 20
22.1193861707
 11
-23.3401289209
 21
22.090220658
  0
LINE
  5
308
100
AcDbEntity
  8
ASSI
100
AcDbLine
 62
253
  6
CONTINUOUS
 10
-23.2929955566
 20
22.1193861707
 11
-23.3401289209
 21
22.090220658
  0
LINE
  5
309
100
AcDbEntity
  8
RACCORDO
100
AcDbLine
 62
253
  6
CONTINUOUS
 10
-7.687262782
 20
32.0749126674
 11
-5.3323340051
 21
33.5040940425
  0
LINE
  5
30A
100
AcDbEntity
  8
ASSI
100
AcDbLine
 62
253
  6
CONTINUOUS
 10
-7.687262782
 20
32.0749126674
 11
-5.3323340051
 21
33.5040940425
  0
LINE
  5
30B
100
AcDbEntity
  8
RACCORDO
100
AcDbLine
 62
253
  6
CONTINUOUS
 10
-7.3245819394
 20
31.4685096863
 11
-4.9348811041
 21
32.918793856
  0
LINE
  5
30C
100
AcDbEntity
  8
ASSI
100
AcDbLine
 62
253
  6
CONTINUOUS
 10
-7.3245819394
 20
31.4685096863
 11
-4.9348811041
 21
32.918793856
  0
LINE
  5
30D
100
AcDbEntity
  8
CURVE
100
AcDbLine
 62
252
  6
CONTINUOUS
 10
-17.2785087831
 20
26.1599606968
 11
-17.9109381402
 21
25.794733083
  0
LINE
  5
30E
100
AcDbEntity
  8
CURVE
100
AcDbLine
 62
252
  6
CONTINUOUS
 10
-14.6131345437
 20
27.698767399
 11
-15.2686326656
 21
27.3203608105
  0
LWPOLYLINE
  5
30F
100
AcDbEntity
  8
RACCORDO
100
AcDbPolyline
 62
253
  6
CONTINUOUS
 90
13
 70
0
 10
-23.3441170238
 20
22.0126175602
 10
-23.3838596847
 20
21.9901811649
 10
-23.42288698
 20
21.9626145487
 10
-23.460537498
 20
21.9303848944
 10
-23.49617316
 20
21.8940384113
 10
-23.5291900338
 20
21.8541910781
 10
-23.5590285688
 20
21.8115182038
 10
-23.5851830793
 20
21.7667429833
 10
-23.6072103138
 20
21.7206242405
 10
-23.6247369679
 20
21.6739435688
 10
-23.6374660102
 20
21.6274920845
 10
-23.6451817164
 20
21.5820570202
 10
-23.6477533252
 20
21.5384083825
  0
LWPOLYLINE
  5
310
100
AcDbEntity
  8
ASSI
100
AcDbPolyline
 62
253
  6
CONTINUOUS
 90
13
 70
0
 10
-23.3441170238
 20
22.0126175602
 10
-23.3838596847
 20
21.9901811649
 10
-23.42288698
 20
21.9626145487
 10
-23.460537498
 20
21.9303848944
 10
-23.49617316
 20
21.8940384113
 10
-23.5291900338
 20
21.8541910781
 10
-23.5590285688
 20
21.8115182038
 10
-23.5851830793
 20
21.7667429833
 10
-23.6072103138
 20
21.7206242405
 10
-23.6247369679
 20
21.6739435688
 10
-23.6374660102
 20
21.6274920845
 10
-23.6451817164
 20
21.5820570202
 10
-23.6477533252
 20
21.5384083825
  0
LINE
  5
311
100
AcDbEntity
  8
CURVE
100
AcDbLine
 62
252
  6
CONTINUOUS
 10
-15.6192865025
 20
25.5572380393
 11
-15.6076567641
 21
25.5631069006
  0
LINE
  5
312
100
AcDbEntity
  8
CURVE
100
AcDbLine
 62
252
  6
CONTINUOUS
 10
-16.6089438887
 20
25.646100007
 11
-16.5979460148
 21
25.6516327902
  0
LINE
  5
313
100
AcDbEntity
  8
CURVE
100
AcDbLine
 62
252
  6
CONTINUOUS
 10
-17.9109381402
 20
25.794733083
 11
-17.9222710029
 21
25.7891124426
  0
LINE
  5
314
100
AcDbEntity
  8
CURVE
100
AcDbLine
 62
252
  6
CONTINUOUS
 10
-15.1840556219
 20
26.4690805802
 11
-15.1723824077
 21
26.4748119359
  0
LINE
  5
315
100
AcDbEntity
  8
CURVE
100
AcDbLine
 62
252
  6
CONTINUOUS
 10
-15.9623191416
 20
26.1686032627
 11
-16.012473839
 21
26.1448537229
  0
LINE
  5
316
100
AcDbEntity
  8
CURVE
100
AcDbLine
 62
252
  6
CONTINUOUS
 10
-13.9953544673
 20
25.4409905858
 11
-14.0076925765
 21
25.4364724753
  0
LINE
  5
317
100
AcDbEntity
  8
CURVE
100
AcDbLine
 62
252
  6
CONTINUOUS
 10
-16.5979460148
 20
25.6516327902
 11
-16.5860935606
 21
25.6558642607
  0
LINE
  5
318
100
AcDbEntity
  8
CURVE
100
AcDbLine
 62
252
  6
CONTINUOUS
 10
-15.6076567641
 20
25.5631069006
 11
-15.5951383041
 21
25.5675550694
  0
LINE
  5
319
100
AcDbEntity
  8
CURVE
100
AcDbLine
 62
252
  6
CONTINUOUS
 10
-16.3462937439
 20
24.0837365585
 11
-16.3581864474
 21
24.0795207188
  0
LINE
  5
31A
100
AcDbEntity
  8
CURVE
100
AcDbLine
 62
252
  6
CONTINUOUS
 10
-15.1723824077
 20
26.4748119359
 11
-15.1599666255
 21
26.4791851953
  0
LINE
  5
31B
100
AcDbEntity
  8
CURVE
100
AcDbLine
 62
252
  6
CONTINUOUS
 10
-17.3157871573
 20
9.2046685256
 11
-17.3262031487
 21
9.2020669453
  0
LINE
  5
31C
100
AcDbEntity
  8
CURVE
100
AcDbLine
 62
252
  6
CONTINUOUS
 10
-17.943813958
 20
10.1980230864
 11
-17.9381743363
 21
10.199224823
  0
LINE
  5
31D
100
AcDbEntity
  8
CURVE
100
AcDbLine
 62
252
  6
CONTINUOUS
 10
-16.594542776
 20
10.3032466108
 11
-16.5842017252
 21
10.3051976923
  0
LINE
  5
31E
100
AcDbEntity
  8
CURVE
100
AcDbLine
 62
252
  6
CONTINUOUS
 10
-17.3262031487
 20
9.2020669453
 11
-17.3367846579
 21
9.2005538235
  0
LINE
  5
31F
100
AcDbEntity
  8
CURVE
100
AcDbLine
 62
252
  6
CONTINUOUS
 10
-17.9381743363
 20
10.199224823
 11
-17.9275176135
 21
10.2006546438
  0
LINE
  5
320
100
AcDbEntity
  8
CURVE
100
AcDbLine
 62
252
  6
CONTINUOUS
 10
-16.5842017252
 20
10.3051976923
 11
-16.5738608671
 21
10.3062194866
  0
LINE
  5
321
100
AcDbEntity
  8
CURVE
100
AcDbLine
 62
252
  6
CONTINUOUS
 10
-17.9275176135
 20
10.2006546438
 11
-17.9163133218
 21
10.201064988
  0
LINE
  5
322
100
AcDbEntity
  8
CURVE
100
AcDbLine
 62
252
  6
CONTINUOUS
 10
-16.5738608671
 20
10.3062194866
 11
-16.5629373336
 21
10.306294869
  0
LINE
  5
323
100
AcDbEntity
  8
CURVE
100
AcDbLine
 62
252
  6
CONTINUOUS
 10
-17.9163133218
 20
10.201064988
 11
-17.9046441911
 21
10.2004398012
  0
LINE
  5
324
100
AcDbEntity
  8
CURVE
100
AcDbLine
 62
252
  6
CONTINUOUS
 10
-16.3625917739
 20
9.2790218727
 11
-16.369977512
 21
9.2795145803
  0
LINE
  5
325
100
AcDbEntity
  8
CURVE
100
AcDbLine
 62
252
  6
CONTINUOUS
 10
-16.5629373336
 20
10.306294869
 11
-16.5515172215
 21
10.30540413
  0
LINE
  5
326
100
AcDbEntity
  8
CURVE
100
AcDbLine
 62
252
  6
CONTINUOUS
 10
-17.9046441911
 20
10.2004398012
 11
-17.8996516581
 21
10.1998704048
  0
LINE
  5
327
100
AcDbEntity
  8
CURVE
100
AcDbLine
 62
252
  6
CONTINUOUS
 10
-16.369977512
 20
9.2795145803
 11
-16.3817226633
 21
9.2810747846
  0
LINE
  5
328
100
AcDbEntity
  8
CURVE
100
AcDbLine
 62
252
  6
CONTINUOUS
 10
-16.5515172215
 20
10.30540413
 11
-16.5397023341
 21
10.3035413854
  0
LINE
  5
329
100
AcDbEntity
  8
CURVE
100
AcDbLine
 62
252
  6
CONTINUOUS
 10
-17.8996516581
 20
10.1998704048
 11
-17.8874961703
 21
10.1977764524
  0
LINE
  5
32A
100
AcDbEntity
  8
CURVE
100
AcDbLine
 62
252
  6
CONTINUOUS
 10
-16.3817226633
 20
9.2810747846
 11
-16.3936758802
 21
9.2835850016
  0
LINE
  5
32B
100
AcDbEntity
  8
CURVE
100
AcDbLine
 62
252
  6
CONTINUOUS
 10
-16.5397023341
 20
10.3035413854
 11
-16.5312728018
 21
10.3016674205
  0
LINE
  5
32C
100
AcDbEntity
  8
CURVE
100
AcDbLine
 62
252
  6
CONTINUOUS
 10
-17.3773719416
 20
9.2033210504
 11
-17.3897845883
 21
9.2064302481
  0
LINE
  5
32D
100
AcDbEntity
  8
CURVE
100
AcDbLine
 62
252
  6
CONTINUOUS
 10
-17.8874961703
 20
10.1977764524
 11
-17.8751575845
 21
10.1946761446
  0
LINE
  5
32E
100
AcDbEntity
  8
CURVE
100
AcDbLine
 62
252
  6
CONTINUOUS
 10
-16.3936758802
 20
9.2835850016
 11
-16.4057587342
 21
9.2870206668
  0
LINE
  5
32F
100
AcDbEntity
  8
CURVE
100
AcDbLine
 62
252
  6
CONTINUOUS
 10
-16.5312728018
 20
10.3016674205
 11
-16.5190962277
 21
10.2981982548
  0
LINE
  5
330
100
AcDbEntity
  8
CURVE
100
AcDbLine
 62
252
  6
CONTINUOUS
 10
-15.114860127
 20
8.5995830884
 11
-15.1037035861
 21
8.5963932504
  0
LINE
  5
331
100
AcDbEntity
  8
CURVE
100
AcDbLine
 62
252
  6
CONTINUOUS
 10
-17.3897845883
 20
9.2064302481
 11
-17.4024909185
 21
9.2106513677
  0
LINE
  5
332
100
AcDbEntity
  8
CURVE
100
AcDbLine
 62
252
  6
CONTINUOUS
 10
-17.8751575845
 20
10.1946761446
 11
-17.8625870612
 21
10.190443521
  0
LINE
  5
333
100
AcDbEntity
  8
CURVE
100
AcDbLine
 62
252
  6
CONTINUOUS
 10
-16.5446400044
 20
8.7906007183
 11
-16.5234952295
 21
8.7834289102
  0
LINE
  5
334
100
AcDbEntity
  8
CURVE
100
AcDbLine
 62
252
  6
CONTINUOUS
 10
-16.4057587342
 20
9.2870206668
 11
-16.418125887
 21
9.2914617729
  0
LINE
  5
335
100
AcDbEntity
  8
CURVE
100
AcDbLine
 62
252
  6
CONTINUOUS
 10
-16.5190962277
 20
10.2981982548
 11
-16.5067330866
 21
10.2937556012
  0
LINE
  5
336
100
AcDbEntity
  8
CURVE
100
AcDbLine
 62
252
  6
CONTINUOUS
 10
-15.1037035861
 20
8.5963932504
 11
-15.0922190533
 21
8.5922580319
  0
LINE
  5
337
100
AcDbEntity
  8
CURVE
100
AcDbLine
 62
252
  6
CONTINUOUS
 10
-16.5234952295
 20
8.7834289102
 11
-16.5020582244
 21
8.774961818
  0
LINE
  5
338
100
AcDbEntity
  8
CURVE
100
AcDbLine
 62
252
  6
CONTINUOUS
 10
-17.4024909185
 20
9.2106513677
 11
-17.4153660356
 21
9.2158697443
  0
LINE
  5
339
100
AcDbEntity
  8
CURVE
100
AcDbLine
 62
252
  6
CONTINUOUS
 10
-17.8625870612
 20
10.190443521
 11
-17.8497677272
 21
10.1851884514
  0
LINE
  5
33A
100
AcDbEntity
  8
CURVE
100
AcDbLine
 62
252
  6
CONTINUOUS
 10
-16.418125887
 20
9.2914617729
 11
-16.42673391
 21
9.2950635914
  0
LINE
  5
33B
100
AcDbEntity
  8
CURVE
100
AcDbLine
 62
252
  6
CONTINUOUS
 10
-16.5067330866
 20
10.2937556012
 11
-16.4942090312
 21
10.2883814987
  0
LINE
  5
33C
100
AcDbEntity
  8
CURVE
100
AcDbLine
 62
252
  6
CONTINUOUS
 10
-15.3914687126
 20
8.047903388
 11
-15.4032780613
 21
8.0530568363
  0
LINE
  5
33D
100
AcDbEntity
  8
CURVE
100
AcDbLine
 62
252
  6
CONTINUOUS
 10
-15.0922190533
 20
8.5922580319
 11
-15.0802334861
 21
8.5870213213
  0
LINE
  5
33E
100
AcDbEntity
  8
CURVE
100
AcDbLine
 62
252
  6
CONTINUOUS
 10
-16.5020582244
 20
8.774961818
 11
-16.4790178293
 21
8.7646014152
  0
LINE
  5
33F
100
AcDbEntity
  8
CURVE
100
AcDbLine
 62
252
  6
CONTINUOUS
 10
-17.4153660356
 20
9.2158697443
 11
-17.4283808074
 21
9.2220742009
  0
LINE
  5
340
100
AcDbEntity
  8
CURVE
100
AcDbLine
 62
252
  6
CONTINUOUS
 10
-16.42673391
 20
9.2950635914
 11
-16.4392818024
 21
9.3010466163
  0
LINE
  5
341
100
AcDbEntity
  8
CURVE
100
AcDbLine
 62
252
  6
CONTINUOUS
 10
-17.8497677272
 20
10.1851884514
 11
-17.8367604756
 21
10.1789296228
  0
LINE
  5
342
100
AcDbEntity
  8
CURVE
100
AcDbLine
 62
252
  6
CONTINUOUS
 10
-16.4942090312
 20
10.2883814987
 11
-16.4815638847
 21
10.2820908302
  0
LINE
  5
343
100
AcDbEntity
  8
CURVE
100
AcDbLine
 62
252
  6
CONTINUOUS
 10
-15.0802334861
 20
8.5870213213
 11
-15.0677729884
 21
8.5806669468
  0
LINE
  5
344
100
AcDbEntity
  8
CURVE
100
AcDbLine
 62
252
  6
CONTINUOUS
 10
-15.4032780613
 20
8.0530568363
 11
-15.4155811504
 21
8.0593375851
  0
LINE
  5
345
100
AcDbEntity
  8
CURVE
100
AcDbLine
 62
252
  6
CONTINUOUS
 10
-16.4790178293
 20
8.7646014152
 11
-16.4558386614
 21
8.7527689128
  0
LINE
  5
346
100
AcDbEntity
  8
CURVE
100
AcDbLine
 62
252
  6
CONTINUOUS
 10
-16.4392818024
 20
9.3010466163
 11
-16.4518779803
 21
9.3079130672
  0
LINE
  5
347
100
AcDbEntity
  8
CURVE
100
AcDbLine
 62
252
  6
CONTINUOUS
 10
-17.4283808074
 20
9.2220742009
 11
-17.4415052111
 21
9.229252421
  0
LINE
  5
348
100
AcDbEntity
  8
CURVE
100
AcDbLine
 62
252
  6
CONTINUOUS
 10
-17.8367604756
 20
10.1789296228
 11
-17.8236301343
 21
10.1716930114
  0
LINE
  5
349
100
AcDbEntity
  8
CURVE
100
AcDbLine
 62
252
  6
CONTINUOUS
 10
-16.4558386614
 20
8.7527689128
 11
-16.4340425136
 21
8.7404780336
  0
LINE
  5
34A
100
AcDbEntity
  8
CURVE
100
AcDbLine
 62
252
  6
CONTINUOUS
 10
-15.0677729884
 20
8.5806669468
 11
-15.0548789109
 21
8.5731878863
  0
LINE
  5
34B
100
AcDbEntity
  8
CURVE
100
AcDbLine
 62
252
  6
CONTINUOUS
 10
-15.4155811504
 20
8.0593375851
 11
-15.4283605533
 21
8.0667667215
  0
LINE
  5
34C
100
AcDbEntity
  8
CURVE
100
AcDbLine
 62
252
  6
CONTINUOUS
 10
-17.8236301343
 20
10.1716930114
 11
-17.8184516627
 21
10.1685888656
  0
LINE
  5
34D
100
AcDbEntity
  8
CURVE
100
AcDbLine
 62
252
  6
CONTINUOUS
 10
-16.4518779803
 20
9.3079130672
 11
-16.4644818773
 21
9.3156394842
  0
LINE
  5
34E
100
AcDbEntity
  8
CURVE
100
AcDbLine
 62
252
  6
CONTINUOUS
 10
-17.4246313315
 20
8.3862425434
 11
-17.4120562038
 21
8.3785197304
  0
LINE
  5
34F
100
AcDbEntity
  8
CURVE
100
AcDbLine
 62
252
  6
CONTINUOUS
 10
-17.4415052111
 20
9.229252421
 11
-17.4547084279
 21
9.237390832
  0
LINE
  5
350
100
AcDbEntity
  8
CURVE
100
AcDbLine
 62
252
  6
CONTINUOUS
 10
-16.4340425136
 20
8.7404780336
 11
-16.4121543682
 21
8.7269728292
  0
LINE
  5
351
100
AcDbEntity
  8
CURVE
100
AcDbLine
 62
252
  6
CONTINUOUS
 10
-15.3942246778
 20
7.2136186184
 11
-15.3809025549
 21
7.2053461174
  0
LINE
  5
352
100
AcDbEntity
  8
CURVE
100
AcDbLine
 62
252
  6
CONTINUOUS
 10
-16.4217904446
 20
7.7015794182
 11
-16.4447225882
 21
7.7159678305
  0
LINE
  5
353
100
AcDbEntity
  8
CURVE
100
AcDbLine
 62
252
  6
CONTINUOUS
 10
-17.8184516627
 20
10.1685888656
 11
-17.8052753142
 21
10.1600557026
  0
LINE
  5
354
100
AcDbEntity
  8
CURVE
100
AcDbLine
 62
252
  6
CONTINUOUS
 10
-15.0548789109
 20
8.5731878863
 11
-15.0416112515
 21
8.5645912805
  0
LINE
  5
355
100
AcDbEntity
  8
CURVE
100
AcDbLine
 62
252
  6
CONTINUOUS
 10
-15.4283605533
 20
8.0667667215
 11
-15.441585081
 21
8.0753571175
  0
LINE
  5
356
100
AcDbEntity
  8
CURVE
100
AcDbLine
 62
252
  6
CONTINUOUS
 10
-17.4547084279
 20
9.237390832
 11
-17.4597359102
 21
9.2407295114
  0
LINE
  5
357
100
AcDbEntity
  8
CURVE
100
AcDbLine
 62
252
  6
CONTINUOUS
 10
-16.4121543682
 20
8.7269728292
 11
-16.3902540211
 21
8.7122994866
  0
LINE
  5
358
100
AcDbEntity
  8
CURVE
100
AcDbLine
 62
252
  6
CONTINUOUS
 10
-15.3809025549
 20
7.2053461174
 11
-15.3730413538
 21
7.2000428496
  0
LINE
  5
359
100
AcDbEntity
  8
CURVE
100
AcDbLine
 62
252
  6
CONTINUOUS
 10
-16.4447225882
 20
7.7159678305
 11
-16.4666062481
 21
7.7308669033
  0
LINE
  5
35A
100
AcDbEntity
  8
CURVE
100
AcDbLine
 62
252
  6
CONTINUOUS
 10
-16.4644818773
 20
9.3156394842
 11
-16.4770539593
 21
9.3242006974
  0
LINE
  5
35B
100
AcDbEntity
  8
CURVE
100
AcDbLine
 62
252
  6
CONTINUOUS
 10
-17.4120562038
 20
8.3785197304
 11
-17.3992505793
 21
8.3697550605
  0
LINE
  5
35C
100
AcDbEntity
  8
CURVE
100
AcDbLine
 62
252
  6
CONTINUOUS
 10
-15.0416112515
 20
8.5645912805
 11
-15.0315269352
 21
8.5574719152
  0
LINE
  5
35D
100
AcDbEntity
  8
CURVE
100
AcDbLine
 62
252
  6
CONTINUOUS
 10
-17.8052753142
 20
10.1600557026
 11
-17.7976246934
 21
10.1546369143
  0
LINE
  5
35E
100
AcDbEntity
  8
CURVE
100
AcDbLine
 62
252
  6
CONTINUOUS
 10
-15.441585081
 20
8.0753571175
 11
-15.4522863496
 21
8.0829431545
  0
LINE
  5
35F
100
AcDbEntity
  8
CURVE
100
AcDbLine
 62
252
  6
CONTINUOUS
 10
-17.4597359102
 20
9.2407295114
 11
-17.4727358669
 21
9.2500656871
  0
LINE
  5
360
100
AcDbEntity
  8
CURVE
100
AcDbLine
 62
252
  6
CONTINUOUS
 10
-15.0325360508
 20
6.2989388484
 11
-15.0457065885
 21
6.3084551379
  0
LINE
  5
361
100
AcDbEntity
  8
CURVE
100
AcDbLine
 62
252
  6
CONTINUOUS
 10
-16.3902540211
 20
8.7122994866
 11
-16.3683913247
 21
8.6964886124
  0
LINE
  5
362
100
AcDbEntity
  8
CURVE
100
AcDbLine
 62
252
  6
CONTINUOUS
 10
-15.3730413538
 20
7.2000428496
 11
-15.3597768759
 21
7.1903831849
  0
LINE
  5
363
100
AcDbEntity
  8
CURVE
100
AcDbLine
 62
252
  6
CONTINUOUS
 10
-16.4770539593
 20
9.3242006974
 11
-16.489224298
 21
9.3331377751
  0
LINE
  5
364
100
AcDbEntity
  8
CURVE
100
AcDbLine
 62
252
  6
CONTINUOUS
 10
-16.4666062481
 20
7.7308669033
 11
-16.4885030361
 21
7.7470796206
  0
LINE
  5
365
100
AcDbEntity
  8
CURVE
100
AcDbLine
 62
252
  6
CONTINUOUS
 10
-16.3723005225
 20
7.1171236946
 11
-16.3597488266
 21
7.1078003851
  0
LINE
  5
366
100
AcDbEntity
  8
CURVE
100
AcDbLine
 62
252
  6
CONTINUOUS
 10
-17.3992505793
 20
8.3697550605
 11
-17.3899056845
 21
8.3627980814
  0
LINE
  5
367
100
AcDbEntity
  8
CURVE
100
AcDbLine
 62
252
  6
CONTINUOUS
 10
-17.7976246934
 20
10.1546369143
 11
-17.7847092544
 21
10.1447746659
  0
LINE
  5
368
100
AcDbEntity
  8
CURVE
100
AcDbLine
 62
252
  6
CONTINUOUS
 10
-17.4727358669
 20
9.2500656871
 11
-17.4792019513
 21
9.2550526076
  0
LINE
  5
369
100
AcDbEntity
  8
CURVE
100
AcDbLine
 62
252
  6
CONTINUOUS
 10
-16.3683913247
 20
8.6964886124
 11
-16.3466175983
 21
8.679574504
  0
LINE
  5
36A
100
AcDbEntity
  8
CURVE
100
AcDbLine
 62
252
  6
CONTINUOUS
 10
-15.4522863496
 20
8.0829431545
 11
-15.4655219672
 21
8.0932236513
  0
LINE
  5
36B
100
AcDbEntity
  8
CURVE
100
AcDbLine
 62
252
  6
CONTINUOUS
 10
-17.7961773606
 20
7.896493691
 11
-17.8023201686
 21
7.9013206731
  0
LINE
  5
36C
100
AcDbEntity
  8
CURVE
100
AcDbLine
 62
252
  6
CONTINUOUS
 10
-15.0457065885
 20
6.3084551379
 11
-15.0585766231
 21
6.3186501524
  0
LINE
  5
36D
100
AcDbEntity
  8
CURVE
100
AcDbLine
 62
252
  6
CONTINUOUS
 10
-16.4885030361
 20
7.7470796206
 11
-16.5103469034
 21
7.7644322312
  0
LINE
  5
36E
100
AcDbEntity
  8
CURVE
100
AcDbLine
 62
252
  6
CONTINUOUS
 10
-15.3597768759
 20
7.1903831849
 11
-15.3468189704
 21
7.1800505254
  0
LINE
  5
36F
100
AcDbEntity
  8
CURVE
100
AcDbLine
 62
252
  6
CONTINUOUS
 10
-17.3899056845
 20
8.3627980814
 11
-17.37693916
 21
8.3524373922
  0
LINE
  5
370
100
AcDbEntity
  8
CURVE
100
AcDbLine
 62
252
  6
CONTINUOUS
 10
-16.3597488266
 20
7.1078003851
 11
-16.3472541898
 21
7.0976688259
  0
LINE
  5
371
100
AcDbEntity
  8
CURVE
100
AcDbLine
 62
252
  6
CONTINUOUS
 10
-17.4792019513
 20
9.2550526076
 11
-17.4920209665
 21
9.265627963
  0
LINE
  5
372
100
AcDbEntity
  8
CURVE
100
AcDbLine
 62
252
  6
CONTINUOUS
 10
-16.3466175983
 20
8.679574504
 11
-16.3249851877
 21
8.6615950605
  0
LINE
  5
373
100
AcDbEntity
  8
CURVE
100
AcDbLine
 62
252
  6
CONTINUOUS
 10
-17.7847092544
 20
10.1447746659
 11
-17.772095531
 21
10.1342421148
  0
LINE
  5
374
100
AcDbEntity
  8
CURVE
100
AcDbLine
 62
252
  6
CONTINUOUS
 10
-17.8023201686
 20
7.9013206731
 11
-17.8152240304
 21
7.9121279794
  0
LINE
  5
375
100
AcDbEntity
  8
CURVE
100
AcDbLine
 62
252
  6
CONTINUOUS
 10
-15.4655219672
 20
8.0932236513
 11
-15.4786807882
 21
8.1043680491
  0
LINE
  5
376
100
AcDbEntity
  8
CURVE
100
AcDbLine
 62
252
  6
CONTINUOUS
 10
-16.5103469034
 20
7.7644322312
 11
-16.5320498541
 21
7.7828605154
  0
LINE
  5
377
100
AcDbEntity
  8
CURVE
100
AcDbLine
 62
252
  6
CONTINUOUS
 10
-15.0585766231
 20
6.3186501524
 11
-15.0710621015
 21
6.329441272
  0
LINE
  5
378
100
AcDbEntity
  8
CURVE
100
AcDbLine
 62
252
  6
CONTINUOUS
 10
-15.3468189704
 20
7.1800505254
 11
-15.3342612748
 21
7.1691365859
  0
LINE
  5
379
100
AcDbEntity
  8
CURVE
100
AcDbLine
 62
252
  6
CONTINUOUS
 10
-17.37693916
 20
8.3524373922
 11
-17.3640881864
 21
8.3412527988
  0
LINE
  5
37A
100
AcDbEntity
  8
CURVE
100
AcDbLine
 62
252
  6
CONTINUOUS
 10
-16.3472541898
 20
7.0976688259
 11
-16.3348779074
 21
7.0867744127
  0
LINE
  5
37B
100
AcDbEntity
  8
CURVE
100
AcDbLine
 62
252
  6
CONTINUOUS
 10
-16.4187972784
 20
6.2045474578
 11
-16.4311689973
 21
6.215444506
  0
LINE
  5
37C
100
AcDbEntity
  8
CURVE
100
AcDbLine
 62
252
  6
CONTINUOUS
 10
-16.3249851877
 20
8.6615950605
 11
-16.3029276647
 21
8.6420427178
  0
LINE
  5
37D
100
AcDbEntity
  8
CURVE
100
AcDbLine
 62
252
  6
CONTINUOUS
 10
-17.4920209665
 20
9.265627963
 11
-17.5045846964
 21
9.276913719
  0
LINE
  5
37E
100
AcDbEntity
  8
CURVE
100
AcDbLine
 62
252
  6
CONTINUOUS
 10
-16.5320498541
 20
7.7828605154
 11
-16.5539153975
 21
7.8026589429
  0
LINE
  5
37F
100
AcDbEntity
  8
CURVE
100
AcDbLine
 62
252
  6
CONTINUOUS
 10
-17.8152240304
 20
7.9121279794
 11
-17.8278266147
 21
7.9235954866
  0
LINE
  5
380
100
AcDbEntity
  8
CURVE
100
AcDbLine
 62
252
  6
CONTINUOUS
 10
-16.3348779074
 20
7.0867744127
 11
-16.327165414
 21
7.0795381514
  0
LINE
  5
381
100
AcDbEntity
  8
CURVE
100
AcDbLine
 62
252
  6
CONTINUOUS
 10
-16.4311689973
 20
6.215444506
 11
-16.4388781948
 21
6.2226826703
  0
LINE
  5
382
100
AcDbEntity
  8
CURVE
100
AcDbLine
 62
252
  6
CONTINUOUS
 10
-15.0710621015
 20
6.329441272
 11
-15.0830949152
 21
6.3407514727
  0
LINE
  5
383
100
AcDbEntity
  8
CURVE
100
AcDbLine
 62
252
  6
CONTINUOUS
 10
-17.3640881864
 20
8.3412527988
 11
-17.3514053137
 21
8.3292870042
  0
LINE
  5
384
100
AcDbEntity
  8
CURVE
100
AcDbLine
 62
252
  6
CONTINUOUS
 10
-15.3342612748
 20
7.1691365859
 11
-15.3221819081
 21
7.1577291822
  0
LINE
  5
385
100
AcDbEntity
  8
CURVE
100
AcDbLine
 62
252
  6
CONTINUOUS
 10
-16.5539153975
 20
7.8026589429
 11
-16.5750067161
 21
7.8229753296
  0
LINE
  5
386
100
AcDbEntity
  8
CURVE
100
AcDbLine
 62
252
  6
CONTINUOUS
 10
-17.5045846964
 20
9.276913719
 11
-17.5168041618
 21
9.2888191926
  0
LINE
  5
387
100
AcDbEntity
  8
CURVE
100
AcDbLine
 62
252
  6
CONTINUOUS
 10
-17.8278266147
 20
7.9235954866
 11
-17.8400752492
 21
7.9356639504
  0
LINE
  5
388
100
AcDbEntity
  8
CURVE
100
AcDbLine
 62
252
  6
CONTINUOUS
 10
-17.3514053137
 20
8.3292870042
 11
-17.3466138749
 21
8.3245175305
  0
LINE
  5
389
100
AcDbEntity
  8
CURVE
100
AcDbLine
 62
252
  6
CONTINUOUS
 10
-16.327165414
 20
7.0795381514
 11
-16.315135207
 21
7.067533428
  0
LINE
  5
38A
100
AcDbEntity
  8
CURVE
100
AcDbLine
 62
252
  6
CONTINUOUS
 10
-16.4388781948
 20
6.2226826703
 11
-16.4509026204
 21
6.234690732
  0
LINE
  5
38B
100
AcDbEntity
  8
CURVE
100
AcDbLine
 62
252
  6
CONTINUOUS
 10
-15.0830949152
 20
6.3407514727
 11
-15.0946219536
 21
6.3525113371
  0
LINE
  5
38C
100
AcDbEntity
  8
CURVE
100
AcDbLine
 62
252
  6
CONTINUOUS
 10
-16.5750067161
 20
7.8229753296
 11
-16.595670723
 21
7.844100936
  0
LINE
  5
38D
100
AcDbEntity
  8
CURVE
100
AcDbLine
 62
252
  6
CONTINUOUS
 10
-17.3466138749
 20
8.3245175305
 11
-17.3342548751
 21
8.3115551941
  0
LINE
  5
38E
100
AcDbEntity
  8
CURVE
100
AcDbLine
 62
252
  6
CONTINUOUS
 10
-17.8400752492
 20
7.9356639504
 11
-17.8519239382
 21
7.9482762545
  0
LINE
  5
38F
100
AcDbEntity
  8
CURVE
100
AcDbLine
 62
252
  6
CONTINUOUS
 10
-16.315135207
 20
7.067533428
 11
-16.3034013734
 21
7.0549328658
  0
LINE
  5
390
100
AcDbEntity
  8
CURVE
100
AcDbLine
 62
252
  6
CONTINUOUS
 10
-16.4509026204
 20
6.234690732
 11
-16.4626301445
 21
6.247294937
  0
LINE
  5
391
100
AcDbEntity
  8
CURVE
100
AcDbLine
 62
252
  6
CONTINUOUS
 10
-16.595670723
 20
7.844100936
 11
-16.6158321758
 21
7.8659505383
  0
LINE
  5
392
100
AcDbEntity
  8
CURVE
100
AcDbLine
 62
252
  6
CONTINUOUS
 10
-17.3342548751
 20
8.3115551941
 11
-17.3222033607
 21
8.2979473011
  0
LINE
  5
393
100
AcDbEntity
  8
CURVE
100
AcDbLine
 62
252
  6
CONTINUOUS
 10
-17.8519239382
 20
7.9482762545
 11
-17.8633333363
 21
7.9613786167
  0
LINE
  5
394
100
AcDbEntity
  8
CURVE
100
AcDbLine
 62
252
  6
CONTINUOUS
 10
-16.4626301445
 20
6.247294937
 11
-16.4739052757
 21
6.2602512974
  0
LINE
  5
395
100
AcDbEntity
  8
CURVE
100
AcDbLine
 62
252
  6
CONTINUOUS
 10
-16.3034013734
 20
7.0549328658
 11
-16.2919671477
 21
7.0417397495
  0
LINE
  5
396
100
AcDbEntity
  8
CURVE
100
AcDbLine
 62
252
  6
CONTINUOUS
 10
-17.3222033607
 20
8.2979473011
 11
-17.3109157974
 21
8.2841525151
  0
LINE
  5
397
100
AcDbEntity
  8
CURVE
100
AcDbLine
 62
252
  6
CONTINUOUS
 10
-16.2919671477
 20
7.0417397495
 11
-16.2843441858
 21
7.0324041103
  0
LINE
  5
398
100
AcDbEntity
  8
CURVE
100
AcDbLine
 62
252
  6
CONTINUOUS
 10
-17.8633333363
 20
7.9613786167
 11
-17.8747133588
 21
7.9753825342
  0
LINE
  5
399
100
AcDbEntity
  8
CURVE
100
AcDbLine
 62
252
  6
CONTINUOUS
 10
-16.4739052757
 20
6.2602512974
 11
-16.4848921468
 21
6.2738144003
  0
LINE
  5
39A
100
AcDbEntity
  8
CURVE
100
AcDbLine
 62
252
  6
CONTINUOUS
 10
-16.4848921468
 20
6.2738144003
 11
-16.4925384411
 21
6.2838488487
  0
LINE
  5
39B
100
AcDbEntity
  8
CURVE
100
AcDbLine
 62
252
  6
CONTINUOUS
 10
-17.8747133588
 20
7.9753825342
 11
-17.8857812629
 21
7.9900305287
  0
LINE
  5
39C
100
AcDbEntity
  8
CURVE
100
AcDbLine
 62
252
  6
CONTINUOUS
 10
-17.8857812629
 20
7.9900305287
 11
-17.890488613
 21
7.9965939107
  0
LINE
  5
39D
100
AcDbEntity
  8
CURVE
100
AcDbLine
 62
252
  6
CONTINUOUS
 10
-16.4925384411
 20
6.2838488487
 11
-16.5028155628
 21
6.2981897141
  0
LINE
  5
39E
100
AcDbEntity
  8
CURVE
100
AcDbLine
 62
252
  6
CONTINUOUS
 10
-17.890488613
 20
7.9965939107
 11
-17.900966978
 21
8.0119901252
  0
LINE
  5
39F
100
AcDbEntity
  8
CURVE
100
AcDbLine
 62
252
  6
CONTINUOUS
 10
-18.867538052
 20
28.4817333191
 11
-18.864443086
 21
28.497599458
  0
LINE
  5
3A0
100
AcDbEntity
  8
CURVE
100
AcDbLine
 62
252
  6
CONTINUOUS
 10
-18.864443086
 20
28.497599458
 11
-18.8602845103
 21
28.5126886546
  0
LINE
  5
3A1
100
AcDbEntity
  8
CURVE
100
AcDbLine
 62
252
  6
CONTINUOUS
 10
-18.1654790826
 20
29.9857695048
 11
-18.1608801984
 21
30.0014722092
  0
LINE
  5
3A2
100
AcDbEntity
  8
CURVE
100
AcDbLine
 62
252
  6
CONTINUOUS
 10
-18.2527864241
 20
26.2504171032
 11
-18.2498897587
 21
26.258544783
  0
LINE
  5
3A3
100
AcDbEntity
  8
CURVE
100
AcDbLine
 62
252
  6
CONTINUOUS
 10
-17.5971274629
 20
27.6121575981
 11
-17.6019340573
 21
27.5989633818
  0
LINE
  5
3A4
100
AcDbEntity
  8
CURVE
100
AcDbLine
 62
252
  6
CONTINUOUS
 10
-18.8602845103
 20
28.5126886546
 11
-18.8550814254
 21
28.5268861001
  0
LINE
  5
3A5
100
AcDbEntity
  8
CURVE
100
AcDbLine
 62
252
  6
CONTINUOUS
 10
-16.5533351573
 20
29.8448186897
 11
-16.5479213299
 21
29.8591089023
  0
LINE
  5
3A6
100
AcDbEntity
  8
CURVE
100
AcDbLine
 62
252
  6
CONTINUOUS
 10
-18.1608801984
 20
30.0014722092
 11
-18.1551512509
 21
30.0162002666
  0
LINE
  5
3A7
100
AcDbEntity
  8
CURVE
100
AcDbLine
 62
252
  6
CONTINUOUS
 10
-17.168286451
 20
28.518150987
 11
-17.1740353258
 21
28.5034114238
  0
LINE
  5
3A8
100
AcDbEntity
  8
CURVE
100
AcDbLine
 62
252
  6
CONTINUOUS
 10
-18.2498897587
 20
26.258544783
 11
-18.2438038635
 21
26.272383083
  0
LINE
  5
3A9
100
AcDbEntity
  8
CURVE
100
AcDbLine
 62
252
  6
CONTINUOUS
 10
-17.6019340573
 20
27.5989633818
 11
-17.6081190684
 21
27.5856439771
  0
LINE
  5
3AA
100
AcDbEntity
  8
CURVE
100
AcDbLine
 62
252
  6
CONTINUOUS
 10
-17.1740353258
 20
28.5034114238
 11
-17.1773591149
 21
28.4963807167
  0
LINE
  5
3AB
100
AcDbEntity
  8
CURVE
100
AcDbLine
 62
252
  6
CONTINUOUS
 10
-16.1867167048
 20
28.4151378842
 11
-16.1929041104
 21
28.4022953201
  0
LINE
  5
3AC
100
AcDbEntity
  8
CURVE
100
AcDbLine
 62
252
  6
CONTINUOUS
 10
-16.5479213299
 20
29.8591089023
 11
-16.5418387906
 21
29.8717217002
  0
LINE
  5
3AD
100
AcDbEntity
  8
CURVE
100
AcDbLine
 62
252
  6
CONTINUOUS
 10
-17.2294388214
 20
26.2176839095
 11
-17.2361347051
 21
26.2042515895
  0
LINE
  5
3AE
100
AcDbEntity
  8
CURVE
100
AcDbLine
 62
252
  6
CONTINUOUS
 10
-17.0378951447
 20
27.6599887198
 11
-17.0080466455
 21
27.7135050926
  0
LINE
  5
3AF
100
AcDbEntity
  8
CURVE
100
AcDbLine
 62
252
  6
CONTINUOUS
 10
-18.2438038635
 20
26.272383083
 11
-18.236678505
 21
26.2849979817
  0
LINE
  5
3B0
100
AcDbEntity
  8
CURVE
100
AcDbLine
 62
252
  6
CONTINUOUS
 10
-17.1773591149
 20
28.4963807167
 11
-17.1847202967
 21
28.4833901183
  0
LINE
  5
3B1
100
AcDbEntity
  8
CURVE
100
AcDbLine
 62
252
  6
CONTINUOUS
 10
-17.6081190684
 20
27.5856439771
 11
-17.6152548931
 21
27.573480719
  0
LINE
  5
3B2
100
AcDbEntity
  8
CURVE
100
AcDbLine
 62
252
  6
CONTINUOUS
 10
-16.6534337469
 20
25.5984918368
 11
-16.6462458152
 21
25.6105664228
  0
LINE
  5
3B3
100
AcDbEntity
  8
CURVE
100
AcDbLine
 62
252
  6
CONTINUOUS
 10
-17.2361347051
 20
26.2042515895
 11
-17.240052811
 21
26.1977137034
  0
LINE
  5
3B4
100
AcDbEntity
  8
CURVE
100
AcDbLine
 62
252
  6
CONTINUOUS
 10
-16.1929041104
 20
28.4022953201
 11
-16.2002445909
 21
28.3901634019
  0
LINE
  5
3B5
100
AcDbEntity
  8
CURVE
100
AcDbLine
 62
252
  6
CONTINUOUS
 10
-15.6057513594
 20
27.7992050774
 11
-15.6017902159
 21
27.8056922875
  0
LINE
  5
3B6
100
AcDbEntity
  8
CURVE
100
AcDbLine
 62
252
  6
CONTINUOUS
 10
-17.240052811
 20
26.1977137034
 11
-17.2483139788
 21
26.1861848737
  0
LINE
  5
3B7
100
AcDbEntity
  8
CURVE
100
AcDbLine
 62
252
  6
CONTINUOUS
 10
-15.6017902159
 20
27.8056922875
 11
-15.5932791637
 21
27.8174005342
  0
LINE
  5
3B8
100
AcDbEntity
  8
CURVE
100
AcDbLine
 62
252
  6
CONTINUOUS
 10
-14.5733062111
 20
27.7368072213
 11
-14.5818717115
 21
27.725235634
  0
LINE
  5
3B9
100
AcDbEntity
  8
CURVE
100
AcDbLine
 62
252
  6
CONTINUOUS
 10
-15.2219477106
 20
26.4326158658
 11
-15.2137051358
 21
26.4436962846
  0
LINE
  5
3BA
100
AcDbEntity
  8
CURVE
100
AcDbLine
 62
252
  6
CONTINUOUS
 10
-16.6462458152
 20
25.6105664228
 11
-16.6381407803
 21
25.6214218671
  0
LINE
  5
3BB
100
AcDbEntity
  8
CURVE
100
AcDbLine
 62
252
  6
CONTINUOUS
 10
-15.8398776753
 20
26.2869636251
 11
-15.8757584021
 21
26.2400911238
  0
LINE
  5
3BC
100
AcDbEntity
  8
CURVE
100
AcDbLine
 62
252
  6
CONTINUOUS
 10
-15.6496670423
 20
25.5312429659
 11
-15.6403430085
 21
25.5413823449
  0
LINE
  5
3BD
100
AcDbEntity
  8
CURVE
100
AcDbLine
 62
252
  6
CONTINUOUS
 10
-15.2137051358
 20
26.4436962846
 11
-15.2045991919
 21
26.4534986139
  0
LINE
  5
3BE
100
AcDbEntity
  8
CURVE
100
AcDbLine
 62
252
  6
CONTINUOUS
 10
-14.5818717115
 20
27.725235634
 11
-14.5914044673
 21
27.7150051886
  0
LINE
  5
3BF
100
AcDbEntity
  8
CURVE
100
AcDbLine
 62
252
  6
CONTINUOUS
 10
-16.6381407803
 20
25.6214218671
 11
-16.6291792756
 21
25.6309940235
  0
LINE
  5
3C0
100
AcDbEntity
  8
CURVE
100
AcDbLine
 62
252
  6
CONTINUOUS
 10
-16.3061840308
 20
24.1137513566
 11
-16.3151142748
 21
24.1042318526
  0
LINE
  5
3C1
100
AcDbEntity
  8
CURVE
100
AcDbLine
 62
252
  6
CONTINUOUS
 10
-15.8757584021
 20
26.2400911238
 11
-15.9164158597
 21
26.2003060115
  0
LINE
  5
3C2
100
AcDbEntity
  8
CURVE
100
AcDbLine
 62
252
  6
CONTINUOUS
 10
-15.2045991919
 20
26.4534986139
 11
-15.1946945297
 21
26.461972274
  0
LINE
  5
3C3
100
AcDbEntity
  8
CURVE
100
AcDbLine
 62
252
  6
CONTINUOUS
 10
-15.6403430085
 20
25.5413823449
 11
-15.630188756
 21
25.5500611237
  0
LINE
  5
3C4
100
AcDbEntity
  8
CURVE
100
AcDbLine
 62
252
  6
CONTINUOUS
 10
-16.3151142748
 20
24.1042318526
 11
-16.3248290599
 21
24.0960532149
  0
LINE
  5
3C5
100
AcDbEntity
  8
CURVE
100
AcDbLine
 62
252
  6
CONTINUOUS
 10
-13.962996895
 20
25.4621981012
 11
-13.9730227358
 21
25.4538443746
  0
LINE
  5
3C6
100
AcDbEntity
  8
CURVE
100
AcDbLine
 62
252
  6
CONTINUOUS
 10
-14.6912410202
 20
23.9557097646
 11
-14.7021685332
 21
23.9483613991
  0
LINE
  5
3C7
100
AcDbEntity
  8
CURVE
100
AcDbLine
 62
252
  6
CONTINUOUS
 10
-16.3248290599
 20
24.0960532149
 11
-16.3352620086
 21
24.0892513382
  0
LINE
  5
3C8
100
AcDbEntity
  8
CURVE
100
AcDbLine
 62
252
  6
CONTINUOUS
 10
-13.9730227358
 20
25.4538443746
 11
-13.9837871743
 21
25.4468513094
  0
LINE
  5
3C9
100
AcDbEntity
  8
CURVE
100
AcDbLine
 62
252
  6
CONTINUOUS
 10
-13.9837871743
 20
25.4468513094
 11
-13.9953544673
 21
25.4409905858
  0
LINE
  5
3CA
100
AcDbEntity
  8
CURVE
100
AcDbLine
 62
252
  6
CONTINUOUS
 10
-16.3352620086
 20
24.0892513382
 11
-16.3462937439
 21
24.0837365585
  0
LINE
  5
3CB
100
AcDbEntity
  8
CURVE
100
AcDbLine
 62
252
  6
CONTINUOUS
 10
-14.7021685332
 20
23.9483613991
 11
-14.714224783
 21
23.9424448717
  0
LINE
  5
3CC
100
AcDbEntity
  8
CURVE
100
AcDbLine
 62
252
  6
CONTINUOUS
 10
-14.714224783
 20
23.9424448717
 11
-14.727122197
 21
23.9379748536
  0
LINE
  5
3CD
100
AcDbEntity
  8
CURVE
100
AcDbLine
 62
252
  6
CONTINUOUS
 10
-16.4815638847
 20
10.2820908302
 11
-16.4688389147
 21
10.2749016024
  0
LINE
  5
3CE
100
AcDbEntity
  8
CURVE
100
AcDbLine
 62
252
  6
CONTINUOUS
 10
-16.4688389147
 20
10.2749016024
 11
-16.4605689136
 21
10.2697720608
  0
LINE
  5
3CF
100
AcDbEntity
  8
CURVE
100
AcDbLine
 62
252
  6
CONTINUOUS
 10
-16.4605689136
 20
10.2697720608
 11
-16.4478105221
 21
10.2611533687
  0
LINE
  5
3D0
100
AcDbEntity
  8
CURVE
100
AcDbLine
 62
252
  6
CONTINUOUS
 10
-16.4478105221
 20
10.2611533687
 11
-16.435278902
 21
10.2518931454
  0
LINE
  5
3D1
100
AcDbEntity
  8
CURVE
100
AcDbLine
 62
252
  6
CONTINUOUS
 10
-15.0315269352
 20
8.5574719152
 11
-15.0260624016
 21
8.5533760045
  0
LINE
  5
3D2
100
AcDbEntity
  8
CURVE
100
AcDbLine
 62
252
  6
CONTINUOUS
 10
-15.0260624016
 20
8.5533760045
 11
-15.0125777883
 21
8.5426313767
  0
LINE
  5
3D3
100
AcDbEntity
  8
CURVE
100
AcDbLine
 62
252
  6
CONTINUOUS
 10
-16.435278902
 20
10.2518931454
 11
-16.4269127535
 21
10.2452277071
  0
LINE
  5
3D4
100
AcDbEntity
  8
CURVE
100
AcDbLine
 62
252
  6
CONTINUOUS
 10
-16.489224298
 20
9.3331377751
 11
-16.501393788
 21
9.3429329103
  0
LINE
  5
3D5
100
AcDbEntity
  8
CURVE
100
AcDbLine
 62
252
  6
CONTINUOUS
 10
-16.4269127535
 20
10.2452277071
 11
-16.4145901784
 21
10.2346859659
  0
LINE
  5
3D6
100
AcDbEntity
  8
CURVE
100
AcDbLine
 62
252
  6
CONTINUOUS
 10
-15.0125777883
 20
8.5426313767
 11
-14.9994109274
 21
8.5312243383
  0
LINE
  5
3D7
100
AcDbEntity
  8
CURVE
100
AcDbLine
 62
252
  6
CONTINUOUS
 10
-16.501393788
 20
9.3429329103
 11
-16.5135072489
 21
9.3535500882
  0
LINE
  5
3D8
100
AcDbEntity
  8
CURVE
100
AcDbLine
 62
252
  6
CONTINUOUS
 10
-17.772095531
 20
10.1342421148
 11
-17.759874622
 21
10.1231324753
  0
LINE
  5
3D9
100
AcDbEntity
  8
CURVE
100
AcDbLine
 62
252
  6
CONTINUOUS
 10
-15.4786807882
 20
8.1043680491
 11
-15.4916870384
 21
8.1163185839
  0
LINE
  5
3DA
100
AcDbEntity
  8
CURVE
100
AcDbLine
 62
252
  6
CONTINUOUS
 10
-16.4145901784
 20
10.2346859659
 11
-16.4024798326
 21
10.2234524776
  0
LINE
  5
3DB
100
AcDbEntity
  8
CURVE
100
AcDbLine
 62
252
  6
CONTINUOUS
 10
-14.9994109274
 20
8.5312243383
 11
-14.9865991756
 21
8.5191973209
  0
LINE
  5
3DC
100
AcDbEntity
  8
CURVE
100
AcDbLine
 62
252
  6
CONTINUOUS
 10
-16.3029276647
 20
8.6420427178
 11
-16.2811499466
 21
8.6214344939
  0
LINE
  5
3DD
100
AcDbEntity
  8
CURVE
100
AcDbLine
 62
252
  6
CONTINUOUS
 10
-16.5135072489
 20
9.3535500882
 11
-16.5255057483
 21
9.3649454868
  0
LINE
  5
3DE
100
AcDbEntity
  8
CURVE
100
AcDbLine
 62
252
  6
CONTINUOUS
 10
-17.759874622
 20
10.1231324753
 11
-17.7481224891
 21
10.1115348396
  0
LINE
  5
3DF
100
AcDbEntity
  8
CURVE
100
AcDbLine
 62
252
  6
CONTINUOUS
 10
-15.4916870384
 20
8.1163185839
 11
-15.5044619087
 21
8.1290074455
  0
LINE
  5
3E0
100
AcDbEntity
  8
CURVE
100
AcDbLine
 62
252
  6
CONTINUOUS
 10
-16.4024798326
 20
10.2234524776
 11
-16.3906364878
 21
10.2115814204
  0
LINE
  5
3E1
100
AcDbEntity
  8
CURVE
100
AcDbLine
 62
252
  6
CONTINUOUS
 10
-16.2811499466
 20
8.6214344939
 11
-16.2595381147
 21
8.5995591035
  0
LINE
  5
3E2
100
AcDbEntity
  8
CURVE
100
AcDbLine
 62
252
  6
CONTINUOUS
 10
-14.9865991756
 20
8.5191973209
 11
-14.9741747956
 21
8.5065899662
  0
LINE
  5
3E3
100
AcDbEntity
  8
CURVE
100
AcDbLine
 62
252
  6
CONTINUOUS
 10
-15.3221819081
 20
7.1577291822
 11
-15.3106433752
 21
7.1459094457
  0
LINE
  5
3E4
100
AcDbEntity
  8
CURVE
100
AcDbLine
 62
252
  6
CONTINUOUS
 10
-16.5255057483
 20
9.3649454868
 11
-16.5373276599
 21
9.3770675417
  0
LINE
  5
3E5
100
AcDbEntity
  8
CURVE
100
AcDbLine
 62
252
  6
CONTINUOUS
 10
-15.5044619087
 20
8.1290074455
 11
-15.5087471365
 21
8.133485614
  0
LINE
  5
3E6
100
AcDbEntity
  8
CURVE
100
AcDbLine
 62
252
  6
CONTINUOUS
 10
-17.5168041618
 20
9.2888191926
 11
-17.5285998462
 21
9.3012530886
  0
LINE
  5
3E7
100
AcDbEntity
  8
CURVE
100
AcDbLine
 62
252
  6
CONTINUOUS
 10
-17.7481224891
 20
10.1115348396
 11
-17.7368998729
 21
10.099531384
  0
LINE
  5
3E8
100
AcDbEntity
  8
CURVE
100
AcDbLine
 62
252
  6
CONTINUOUS
 10
-16.2595381147
 20
8.5995591035
 11
-16.2382996758
 21
8.5766714579
  0
LINE
  5
3E9
100
AcDbEntity
  8
CURVE
100
AcDbLine
 62
252
  6
CONTINUOUS
 10
-16.3906364878
 20
10.2115814204
 11
-16.3791114249
 21
10.1991283145
  0
LINE
  5
3EA
100
AcDbEntity
  8
CURVE
100
AcDbLine
 62
252
  6
CONTINUOUS
 10
-16.5373276599
 20
9.3770675417
 11
-16.5457222676
 21
9.3862435287
  0
LINE
  5
3EB
100
AcDbEntity
  8
CURVE
100
AcDbLine
 62
252
  6
CONTINUOUS
 10
-14.9741747956
 20
8.5065899662
 11
-14.9621653449
 21
8.4934385337
  0
LINE
  5
3EC
100
AcDbEntity
  8
CURVE
100
AcDbLine
 62
252
  6
CONTINUOUS
 10
-15.5087471365
 20
8.133485614
 11
-15.5210732454
 21
8.1470270483
  0
LINE
  5
3ED
100
AcDbEntity
  8
CURVE
100
AcDbLine
 62
252
  6
CONTINUOUS
 10
-15.3106433752
 20
7.1459094457
 11
-15.2903724453
 21
7.1231543806
  0
LINE
  5
3EE
100
AcDbEntity
  8
CURVE
100
AcDbLine
 62
252
  6
CONTINUOUS
 10
-16.2382996758
 20
8.5766714579
 11
-16.2183335682
 21
8.5538966122
  0
LINE
  5
3EF
100
AcDbEntity
  8
CURVE
100
AcDbLine
 62
252
  6
CONTINUOUS
 10
-16.6158321758
 20
7.8659505383
 11
-16.635463964
 21
7.8886023798
  0
LINE
  5
3F0
100
AcDbEntity
  8
CURVE
100
AcDbLine
 62
252
  6
CONTINUOUS
 10
-16.5457222676
 20
9.3862435287
 11
-16.556894622
 21
9.3991820589
  0
LINE
  5
3F1
100
AcDbEntity
  8
CURVE
100
AcDbLine
 62
252
  6
CONTINUOUS
 10
-16.3791114249
 20
10.1991283145
 11
-16.3678827134
 21
10.1860705488
  0
LINE
  5
3F2
100
AcDbEntity
  8
CURVE
100
AcDbLine
 62
252
  6
CONTINUOUS
 10
-17.5285998462
 20
9.3012530886
 11
-17.5483689646
 21
9.3242978934
  0
LINE
  5
3F3
100
AcDbEntity
  8
CURVE
100
AcDbLine
 62
252
  6
CONTINUOUS
 10
-15.5210732454
 20
8.1470270483
 11
-15.5323553915
 21
8.1603898401
  0
LINE
  5
3F4
100
AcDbEntity
  8
CURVE
100
AcDbLine
 62
252
  6
CONTINUOUS
 10
-14.9621653449
 20
8.4934385337
 11
-14.950304157
 21
8.4793600258
  0
LINE
  5
3F5
100
AcDbEntity
  8
CURVE
100
AcDbLine
 62
252
  6
CONTINUOUS
 10
-15.0946219536
 20
6.3525113371
 11
-15.4938003039
 21
6.8264041202
  0
LINE
  5
3F6
100
AcDbEntity
  8
CURVE
100
AcDbLine
 62
252
  6
CONTINUOUS
 10
-15.2903724453
 20
7.1231543806
 11
-14.9109367426
 21
6.6723216862
  0
LINE
  5
3F7
100
AcDbEntity
  8
CURVE
100
AcDbLine
 62
252
  6
CONTINUOUS
 10
-16.2183335682
 20
8.5538966122
 11
-16.1988973541
 21
8.5304439383
  0
LINE
  5
3F8
100
AcDbEntity
  8
CURVE
100
AcDbLine
 62
252
  6
CONTINUOUS
 10
-16.635463964
 20
7.8886023798
 11
-16.6547070392
 21
7.9121053142
  0
LINE
  5
3F9
100
AcDbEntity
  8
CURVE
100
AcDbLine
 62
252
  6
CONTINUOUS
 10
-17.7368998729
 20
10.099531384
 11
-17.3483248223
 21
9.6195163885
  0
LINE
  5
3FA
100
AcDbEntity
  8
CURVE
100
AcDbLine
 62
252
  6
CONTINUOUS
 10
-17.5483689646
 20
9.3242978934
 11
-17.9166746273
 21
9.7815569333
  0
LINE
  5
3FB
100
AcDbEntity
  8
CURVE
100
AcDbLine
 62
252
  6
CONTINUOUS
 10
-16.556894622
 20
9.3991820589
 11
-16.5677648811
 21
9.4127188661
  0
LINE
  5
3FC
100
AcDbEntity
  8
CURVE
100
AcDbLine
 62
252
  6
CONTINUOUS
 10
-16.3678827134
 20
10.1860705488
 11
-16.3568892139
 21
10.1723348133
  0
LINE
  5
3FD
100
AcDbEntity
  8
CURVE
100
AcDbLine
 62
252
  6
CONTINUOUS
 10
-14.950304157
 20
8.4793600258
 11
-14.9456325616
 21
8.4735221779
  0
LINE
  5
3FE
100
AcDbEntity
  8
CURVE
100
AcDbLine
 62
252
  6
CONTINUOUS
 10
-16.1988973541
 20
8.5304439383
 11
-16.1800678074
 21
8.506412992
  0
LINE
  5
3FF
100
AcDbEntity
  8
CURVE
100
AcDbLine
 62
252
  6
CONTINUOUS
 10
-15.5323553915
 20
8.1603898401
 11
-15.5433712968
 21
8.174465397
  0
LINE
  5
400
100
AcDbEntity
  8
CURVE
100
AcDbLine
 62
252
  6
CONTINUOUS
 10
-16.6547070392
 20
7.9121053142
 11
-16.6741238857
 21
7.9371981602
  0
LINE
  5
401
100
AcDbEntity
  8
CURVE
100
AcDbLine
 62
252
  6
CONTINUOUS
 10
-16.2843441858
 20
7.0324041103
 11
-16.2735334199
 21
7.0183549388
  0
LINE
  5
402
100
AcDbEntity
  8
CURVE
100
AcDbLine
 62
252
  6
CONTINUOUS
 10
-17.3109157974
 20
8.2841525151
 11
-17.299891939
 21
8.2696560134
  0
LINE
  5
403
100
AcDbEntity
  8
CURVE
100
AcDbLine
 62
252
  6
CONTINUOUS
 10
-16.5677648811
 20
9.4127188661
 11
-16.5783068895
 21
9.4268264476
  0
LINE
  5
404
100
AcDbEntity
  8
CURVE
100
AcDbLine
 62
252
  6
CONTINUOUS
 10
-14.9109367426
 20
6.6723216862
 11
-14.897214206
 21
6.6539460256
  0
LINE
  5
405
100
AcDbEntity
  8
CURVE
100
AcDbLine
 62
252
  6
CONTINUOUS
 10
-15.4938003039
 20
6.8264041202
 11
-15.507444696
 21
6.8448249004
  0
LINE
  5
406
100
AcDbEntity
  8
CURVE
100
AcDbLine
 62
252
  6
CONTINUOUS
 10
-16.1800678074
 20
8.506412992
 11
-16.161915098
 21
8.4819026609
  0
LINE
  5
407
100
AcDbEntity
  8
CURVE
100
AcDbLine
 62
252
  6
CONTINUOUS
 10
-16.6741238857
 20
7.9371981602
 11
-16.6929295911
 21
7.9630118198
  0
LINE
  5
408
100
AcDbEntity
  8
CURVE
100
AcDbLine
 62
252
  6
CONTINUOUS
 10
-14.897214206
 20
6.6539460256
 11
-14.8830547452
 21
6.6344832982
  0
LINE
  5
409
100
AcDbEntity
  8
CURVE
100
AcDbLine
 62
252
  6
CONTINUOUS
 10
-15.5433712968
 20
8.174465397
 11
-15.554087188
 21
8.18922414
  0
LINE
  5
40A
100
AcDbEntity
  8
CURVE
100
AcDbLine
 62
252
  6
CONTINUOUS
 10
-15.507444696
 20
6.8448249004
 11
-15.5215194183
 21
6.8643365546
  0
LINE
  5
40B
100
AcDbEntity
  8
CURVE
100
AcDbLine
 62
252
  6
CONTINUOUS
 10
-17.3483248223
 20
9.6195163885
 11
-17.3352349715
 21
9.6013510177
  0
LINE
  5
40C
100
AcDbEntity
  8
CURVE
100
AcDbLine
 62
252
  6
CONTINUOUS
 10
-16.2735334199
 20
7.0183549388
 11
-16.2632058863
 21
7.0039473319
  0
LINE
  5
40D
100
AcDbEntity
  8
CURVE
100
AcDbLine
 62
252
  6
CONTINUOUS
 10
-17.9166746273
 20
9.7815569333
 11
-17.9291490542
 21
9.799113103
  0
LINE
  5
40E
100
AcDbEntity
  8
CURVE
100
AcDbLine
 62
252
  6
CONTINUOUS
 10
-17.299891939
 20
8.2696560134
 11
-17.2892289211
 21
8.2545720931
  0
LINE
  5
40F
100
AcDbEntity
  8
CURVE
100
AcDbLine
 62
252
  6
CONTINUOUS
 10
-17.3352349715
 20
9.6013510177
 11
-17.321412162
 21
9.5816209557
  0
LINE
  5
410
100
AcDbEntity
  8
CURVE
100
AcDbLine
 62
252
  6
CONTINUOUS
 10
-16.161915098
 20
8.4819026609
 11
-16.1445020287
 21
8.4570093869
  0
LINE
  5
411
100
AcDbEntity
  8
CURVE
100
AcDbLine
 62
252
  6
CONTINUOUS
 10
-16.5783068895
 20
9.4268264476
 11
-16.5884920339
 21
9.4414731607
  0
LINE
  5
412
100
AcDbEntity
  8
CURVE
100
AcDbLine
 62
252
  6
CONTINUOUS
 10
-17.9291490542
 20
9.799113103
 11
-17.9430869443
 21
9.8192390489
  0
LINE
  5
413
100
AcDbEntity
  8
CURVE
100
AcDbLine
 62
252
  6
CONTINUOUS
 10
-14.8830547452
 20
6.6344832982
 11
-14.8717128971
 21
6.6180753122
  0
LINE
  5
414
100
AcDbEntity
  8
CURVE
100
AcDbLine
 62
252
  6
CONTINUOUS
 10
-16.6929295911
 20
7.9630118198
 11
-16.7104756616
 21
7.9885069989
  0
LINE
  5
415
100
AcDbEntity
  8
CURVE
100
AcDbLine
 62
252
  6
CONTINUOUS
 10
-15.5215194183
 20
6.8643365546
 11
-15.5327906199
 21
6.8807853311
  0
LINE
  5
416
100
AcDbEntity
  8
CURVE
100
AcDbLine
 62
252
  6
CONTINUOUS
 10
-15.554087188
 20
8.18922414
 11
-15.5644646455
 21
8.2046286097
  0
LINE
  5
417
100
AcDbEntity
  8
CURVE
100
AcDbLine
 62
252
  6
CONTINUOUS
 10
-17.2892289211
 20
8.2545720931
 11
-17.284409596
 21
8.2473764584
  0
LINE
  5
418
100
AcDbEntity
  8
CURVE
100
AcDbLine
 62
252
  6
CONTINUOUS
 10
-16.2632058863
 20
7.0039473319
 11
-16.2534264121
 21
6.9892821984
  0
LINE
  5
419
100
AcDbEntity
  8
CURVE
100
AcDbLine
 62
252
  6
CONTINUOUS
 10
-16.5028155628
 20
6.2981897141
 11
-16.5125699212
 21
6.3128260096
  0
LINE
  5
41A
100
AcDbEntity
  8
CURVE
100
AcDbLine
 62
252
  6
CONTINUOUS
 10
-17.321412162
 20
9.5816209557
 11
-17.3102495349
 21
9.5648498233
  0
LINE
  5
41B
100
AcDbEntity
  8
CURVE
100
AcDbLine
 62
252
  6
CONTINUOUS
 10
-16.1445020287
 20
8.4570093869
 11
-16.12765144
 21
8.4314785778
  0
LINE
  5
41C
100
AcDbEntity
  8
CURVE
100
AcDbLine
 62
252
  6
CONTINUOUS
 10
-17.9430869443
 20
9.8192390489
 11
-17.9542435153
 21
9.836178598
  0
LINE
  5
41D
100
AcDbEntity
  8
CURVE
100
AcDbLine
 62
252
  6
CONTINUOUS
 10
-16.7104756616
 20
7.9885069989
 11
-16.7273157949
 21
8.0144317307
  0
LINE
  5
41E
100
AcDbEntity
  8
CURVE
100
AcDbLine
 62
252
  6
CONTINUOUS
 10
-14.8717128971
 20
6.6180753122
 11
-14.8621269997
 21
6.6032602393
  0
LINE
  5
41F
100
AcDbEntity
  8
CURVE
100
AcDbLine
 62
252
  6
CONTINUOUS
 10
-16.5884920339
 20
9.4414731607
 11
-16.5982894966
 21
9.4566227682
  0
LINE
  5
420
100
AcDbEntity
  8
CURVE
100
AcDbLine
 62
252
  6
CONTINUOUS
 10
-15.5327906199
 20
6.8807853311
 11
-15.5423150351
 21
6.895635903
  0
LINE
  5
421
100
AcDbEntity
  8
CURVE
100
AcDbLine
 62
252
  6
CONTINUOUS
 10
-17.284409596
 20
8.2473764584
 11
-17.2744745122
 21
8.2317061941
  0
LINE
  5
422
100
AcDbEntity
  8
CURVE
100
AcDbLine
 62
252
  6
CONTINUOUS
 10
-17.900966978
 20
8.0119901252
 11
-17.9109334958
 21
8.0277604409
  0
LINE
  5
423
100
AcDbEntity
  8
CURVE
100
AcDbLine
 62
252
  6
CONTINUOUS
 10
-17.3102495349
 20
9.5648498233
 11
-17.3007938939
 21
9.5496845374
  0
LINE
  5
424
100
AcDbEntity
  8
CURVE
100
AcDbLine
 62
252
  6
CONTINUOUS
 10
-16.12765144
 20
8.4314785778
 11
-16.1113833187
 21
8.4053348563
  0
LINE
  5
425
100
AcDbEntity
  8
CURVE
100
AcDbLine
 62
252
  6
CONTINUOUS
 10
-16.2534264121
 20
6.9892821984
 11
-16.2442506692
 21
6.9744568865
  0
LINE
  5
426
100
AcDbEntity
  8
CURVE
100
AcDbLine
 62
252
  6
CONTINUOUS
 10
-16.5125699212
 20
6.3128260096
 11
-16.5217402981
 21
6.3276536889
  0
LINE
  5
427
100
AcDbEntity
  8
CURVE
100
AcDbLine
 62
252
  6
CONTINUOUS
 10
-17.9542435153
 20
9.836178598
 11
-17.9636558239
 21
9.8514261102
  0
LINE
  5
428
100
AcDbEntity
  8
CURVE
100
AcDbLine
 62
252
  6
CONTINUOUS
 10
-16.7273157949
 20
8.0144317307
 11
-16.7433908384
 21
8.0406857374
  0
LINE
  5
429
100
AcDbEntity
  8
CURVE
100
AcDbLine
 62
252
  6
CONTINUOUS
 10
-15.5423150351
 20
6.895635903
 11
-15.5505526741
 21
6.9095303102
  0
LINE
  5
42A
100
AcDbEntity
  8
CURVE
100
AcDbLine
 62
252
  6
CONTINUOUS
 10
-17.2744745122
 20
8.2317061941
 11
-17.265157525
 21
8.2158342371
  0
LINE
  5
42B
100
AcDbEntity
  8
CURVE
100
AcDbLine
 62
252
  6
CONTINUOUS
 10
-17.9109334958
 20
8.0277604409
 11
-17.9203276536
 21
8.0438027358
  0
LINE
  5
42C
100
AcDbEntity
  8
CURVE
100
AcDbLine
 62
252
  6
CONTINUOUS
 10
-16.2442506692
 20
6.9744568865
 11
-16.2352945902
 21
6.9589749958
  0
LINE
  5
42D
100
AcDbEntity
  8
CURVE
100
AcDbLine
 62
252
  6
CONTINUOUS
 10
-16.5217402981
 20
6.3276536889
 11
-16.5306011797
 21
6.34298609
  0
LINE
  5
42E
100
AcDbEntity
  8
CURVE
100
AcDbLine
 62
252
  6
CONTINUOUS
 10
-17.3007938939
 20
9.5496845374
 11
-17.2926130661
 21
9.5355080518
  0
LINE
  5
42F
100
AcDbEntity
  8
CURVE
100
AcDbLine
 62
252
  6
CONTINUOUS
 10
-16.7433908384
 20
8.0406857374
 11
-16.7587556742
 21
8.0674125085
  0
LINE
  5
430
100
AcDbEntity
  8
CURVE
100
AcDbLine
 62
252
  6
CONTINUOUS
 10
-17.9636558239
 20
9.8514261102
 11
-17.9717766236
 21
9.8656360285
  0
LINE
  5
431
100
AcDbEntity
  8
CURVE
100
AcDbLine
 62
252
  6
CONTINUOUS
 10
-17.265157525
 20
8.2158342371
 11
-17.25639641
 21
8.1997396286
  0
LINE
  5
432
100
AcDbEntity
  8
CURVE
100
AcDbLine
 62
252
  6
CONTINUOUS
 10
-16.7587556742
 20
8.0674125085
 11
-16.7734514424
 21
8.0946299723
  0
LINE
  5
433
100
AcDbEntity
  8
CURVE
100
AcDbLine
 62
252
  6
CONTINUOUS
 10
-17.9203276536
 20
8.0438027358
 11
-17.9289459065
 21
8.0598340532
  0
LINE
  5
434
100
AcDbEntity
  8
CURVE
100
AcDbLine
 62
252
  6
CONTINUOUS
 10
-16.2352945902
 20
6.9589749958
 11
-16.2268756968
 21
6.943224393
  0
LINE
  5
435
100
AcDbEntity
  8
CURVE
100
AcDbLine
 62
252
  6
CONTINUOUS
 10
-16.5306011797
 20
6.34298609
 11
-16.5389843185
 21
6.3586845818
  0
LINE
  5
436
100
AcDbEntity
  8
CURVE
100
AcDbLine
 62
252
  6
CONTINUOUS
 10
-17.2926130661
 20
9.5355080518
 11
-17.2850392655
 21
9.5211537462
  0
LINE
  5
437
100
AcDbEntity
  8
CURVE
100
AcDbLine
 62
252
  6
CONTINUOUS
 10
-17.9717766236
 20
9.8656360285
 11
-17.9794408923
 21
9.8802938341
  0
LINE
  5
438
100
AcDbEntity
  8
CURVE
100
AcDbLine
 62
252
  6
CONTINUOUS
 10
-16.7734514424
 20
8.0946299723
 11
-16.7874146244
 21
8.1222304368
  0
LINE
  5
439
100
AcDbEntity
  8
CURVE
100
AcDbLine
 62
252
  6
CONTINUOUS
 10
-17.25639641
 20
8.1997396286
 11
-17.2482149205
 21
8.1833805135
  0
LINE
  5
43A
100
AcDbEntity
  8
CURVE
100
AcDbLine
 62
252
  6
CONTINUOUS
 10
-16.2268756968
 20
6.943224393
 11
-16.2217063904
 21
6.9328674441
  0
LINE
  5
43B
100
AcDbEntity
  8
CURVE
100
AcDbLine
 62
252
  6
CONTINUOUS
 10
-17.9289459065
 20
8.0598340532
 11
-17.9370665479
 21
8.0762742864
  0
LINE
  5
43C
100
AcDbEntity
  8
CURVE
100
AcDbLine
 62
252
  6
CONTINUOUS
 10
-16.5389843185
 20
6.3586845818
 11
-16.5468365384
 21
6.3746608124
  0
LINE
  5
43D
100
AcDbEntity
  8
CURVE
100
AcDbLine
 62
252
  6
CONTINUOUS
 10
-17.9794408923
 20
9.8802938341
 11
-17.9867178938
 21
9.8955754587
  0
LINE
  5
43E
100
AcDbEntity
  8
CURVE
100
AcDbLine
 62
252
  6
CONTINUOUS
 10
-17.2482149205
 20
8.1833805135
 11
-17.2406471764
 21
8.1668195
  0
LINE
  5
43F
100
AcDbEntity
  8
CURVE
100
AcDbLine
 62
252
  6
CONTINUOUS
 10
-17.9370665479
 20
8.0762742864
 11
-17.9446274839
 21
8.0930159947
  0
LINE
  5
440
100
AcDbEntity
  8
CURVE
100
AcDbLine
 62
252
  6
CONTINUOUS
 10
-16.5468365384
 20
6.3746608124
 11
-16.5541062806
 21
6.3908189593
  0
LINE
  5
441
100
AcDbEntity
  8
CURVE
100
AcDbLine
 62
252
  6
CONTINUOUS
 10
-17.9446274839
 20
8.0930159947
 11
-17.9515685581
 21
8.1099412635
  0
LINE
  5
442
100
AcDbEntity
  8
CURVE
100
AcDbLine
 62
252
  6
CONTINUOUS
 10
-17.9515685581
 20
8.1099412635
 11
-17.954360371
 21
8.1172764281
  0
LWPOLYLINE
  5
443
100
AcDbEntity
  8
RACCORDO
100
AcDbPolyline
 62
7
  6
CONTINUOUS
 90
9
 70
0
 10
-23.7436390193
 20
22.5390627821
 10
-23.7299592989
 20
22.5027150909
 10
-23.7129392202
 20
22.4673944435
 10
-23.6926494558
 20
22.4334098606
 10
-23.6692651855
 20
22.4011430465
 10
-23.6429356159
 20
22.3708509812
 10
-23.6138144708
 20
22.3427641153
 10
-23.5821341364
 20
22.3171313604
 10
-23.5681088251
 20
22.3071291093
  0
LWPOLYLINE
  5
444
100
AcDbEntity
  8
ASSI
100
AcDbPolyline
 62
7
  6
CONTINUOUS
 90
9
 70
0
 10
-23.7436390193
 20
22.5390627821
 10
-23.7299592989
 20
22.5027150909
 10
-23.7129392202
 20
22.4673944435
 10
-23.6926494558
 20
22.4334098606
 10
-23.6692651855
 20
22.4011430465
 10
-23.6429356159
 20
22.3708509812
 10
-23.6138144708
 20
22.3427641153
 10
-23.5821341364
 20
22.3171313604
 10
-23.5681088251
 20
22.3071291093
  0
LINE
  5
445
100
AcDbEntity
  8
CURVE
100
AcDbLine
 62
252
  6
CONTINUOUS
 10
-17.954360371
 20
8.1172764281
 11
-17.9603094776
 21
8.1342193379
  0
LINE
  5
446
100
AcDbEntity
  8
CURVE
100
AcDbLine
 62
252
  6
CONTINUOUS
 10
-17.9783793278
 20
8.2141860645
 11
-17.9792571784
 21
8.2229955421
  0
LINE
  5
447
100
AcDbEntity
  8
CURVE
100
AcDbLine
 62
252
  6
CONTINUOUS
 10
-18.8705117472
 20
28.4481197264
 11
-18.8695607829
 21
28.4652038164
  0
LINE
  5
448
100
AcDbEntity
  8
CURVE
100
AcDbLine
 62
252
  6
CONTINUOUS
 10
-18.1722955787
 20
29.9342632491
 11
-18.1711924357
 21
29.9520235874
  0
LINE
  5
449
100
AcDbEntity
  8
CURVE
100
AcDbLine
 62
252
  6
CONTINUOUS
 10
-18.2625085348
 20
26.2011047337
 11
-18.2604129243
 21
26.2184185447
  0
LINE
  5
44A
100
AcDbEntity
  8
CURVE
100
AcDbLine
 62
252
  6
CONTINUOUS
 10
-18.8695607829
 20
28.4652038164
 11
-18.867538052
 21
28.4817333191
  0
LINE
  5
44B
100
AcDbEntity
  8
CURVE
100
AcDbLine
 62
252
  6
CONTINUOUS
 10
-17.5877220949
 20
27.6600616802
 11
-17.589777015
 21
27.643374437
  0
LINE
  5
44C
100
AcDbEntity
  8
CURVE
100
AcDbLine
 62
252
  6
CONTINUOUS
 10
-18.1711924357
 20
29.9520235874
 11
-18.1689205796
 21
29.9692383447
  0
LINE
  5
44D
100
AcDbEntity
  8
CURVE
100
AcDbLine
 62
252
  6
CONTINUOUS
 10
-17.589777015
 20
27.643374437
 11
-17.5929161567
 21
27.6273659511
  0
LINE
  5
44E
100
AcDbEntity
  8
CURVE
100
AcDbLine
 62
252
  6
CONTINUOUS
 10
-18.2604129243
 20
26.2184185447
 11
-18.2571671645
 21
26.2348916936
  0
LINE
  5
44F
100
AcDbEntity
  8
CURVE
100
AcDbLine
 62
252
  6
CONTINUOUS
 10
-17.2160614133
 20
26.2642142062
 11
-17.219374778
 21
26.2477725247
  0
LINE
  5
450
100
AcDbEntity
  8
CURVE
100
AcDbLine
 62
252
  6
CONTINUOUS
 10
-16.5609742799
 20
29.8135787062
 11
-16.5576932003
 21
29.8296079957
  0
LINE
  5
451
100
AcDbEntity
  8
CURVE
100
AcDbLine
 62
252
  6
CONTINUOUS
 10
-18.1689205796
 20
29.9692383447
 11
-18.1654790826
 21
29.9857695048
  0
LINE
  5
452
100
AcDbEntity
  8
CURVE
100
AcDbLine
 62
252
  6
CONTINUOUS
 10
-17.1602387678
 20
28.5503890676
 11
-17.1636784186
 21
28.5338589736
  0
LINE
  5
453
100
AcDbEntity
  8
CURVE
100
AcDbLine
 62
252
  6
CONTINUOUS
 10
-17.0798228755
 20
27.5348042336
 11
-17.0619879973
 21
27.6002313449
  0
LINE
  5
454
100
AcDbEntity
  8
CURVE
100
AcDbLine
 62
252
  6
CONTINUOUS
 10
-16.668817005
 20
25.5565087192
 11
-16.6646498537
 21
25.571622542
  0
LINE
  5
455
100
AcDbEntity
  8
CURVE
100
AcDbLine
 62
252
  6
CONTINUOUS
 10
-17.5929161567
 20
27.6273659511
 11
-17.5971274629
 21
27.6121575981
  0
LINE
  5
456
100
AcDbEntity
  8
CURVE
100
AcDbLine
 62
252
  6
CONTINUOUS
 10
-18.2571671645
 20
26.2348916936
 11
-18.2527864241
 21
26.2504171032
  0
LINE
  5
457
100
AcDbEntity
  8
CURVE
100
AcDbLine
 62
252
  6
CONTINUOUS
 10
-16.177013777
 20
28.4446085788
 11
-16.1813365995
 21
28.4294102846
  0
LINE
  5
458
100
AcDbEntity
  8
CURVE
100
AcDbLine
 62
252
  6
CONTINUOUS
 10
-16.5576932003
 20
29.8296079957
 11
-16.5533351573
 21
29.8448186897
  0
LINE
  5
459
100
AcDbEntity
  8
CURVE
100
AcDbLine
 62
252
  6
CONTINUOUS
 10
-17.219374778
 20
26.2477725247
 11
-17.2238412989
 21
26.2322262329
  0
LINE
  5
45A
100
AcDbEntity
  8
CURVE
100
AcDbLine
 62
252
  6
CONTINUOUS
 10
-17.1636784186
 20
28.5338589736
 11
-17.168286451
 21
28.518150987
  0
LINE
  5
45B
100
AcDbEntity
  8
CURVE
100
AcDbLine
 62
252
  6
CONTINUOUS
 10
-16.6646498537
 20
25.571622542
 11
-16.6594246442
 21
25.5858144852
  0
LINE
  5
45C
100
AcDbEntity
  8
CURVE
100
AcDbLine
 62
252
  6
CONTINUOUS
 10
-16.1813365995
 20
28.4294102846
 11
-16.1867167048
 21
28.4151378842
  0
LINE
  5
45D
100
AcDbEntity
  8
CURVE
100
AcDbLine
 62
252
  6
CONTINUOUS
 10
-17.2238412989
 20
26.2322262329
 11
-17.2294388214
 21
26.2176839095
  0
LINE
  5
45E
100
AcDbEntity
  8
CURVE
100
AcDbLine
 62
252
  6
CONTINUOUS
 10
-15.6184789098
 20
27.7709721941
 11
-15.6126751993
 21
27.7856341016
  0
LINE
  5
45F
100
AcDbEntity
  8
CURVE
100
AcDbLine
 62
252
  6
CONTINUOUS
 10
-15.7859781662
 20
26.4003539086
 11
-15.8097816464
 21
26.3404822775
  0
LWPOLYLINE
  5
460
100
AcDbEntity
  8
RACCORDO
100
AcDbPolyline
 62
253
  6
CONTINUOUS
 90
6
 70
0
 10
-19.4791091458
 20
20.0253298672
 10
-19.4897193245
 20
19.9989813265
 10
-19.5031857468
 20
19.9757638579
 10
-19.519358655
 20
19.9559358065
 10
-19.5380582474
 20
19.9397177679
 10
-19.5510161242
 20
19.9314524631
  0
LWPOLYLINE
  5
461
100
AcDbEntity
  8
ASSI
100
AcDbPolyline
 62
253
  6
CONTINUOUS
 90
6
 70
0
 10
-19.4791091458
 20
20.0253298672
 10
-19.4897193245
 20
19.9989813265
 10
-19.5031857468
 20
19.9757638579
 10
-19.519358655
 20
19.9559358065
 10
-19.5380582474
 20
19.9397177679
 10
-19.5510161242
 20
19.9314524631
  0
LINE
  5
462
100
AcDbEntity
  8
CURVE
100
AcDbLine
 62
252
  6
CONTINUOUS
 10
-17.0619879973
 20
27.6002313449
 11
-17.0378951447
 21
27.6599887198
  0
LINE
  5
463
100
AcDbEntity
  8
CURVE
100
AcDbLine
 62
252
  6
CONTINUOUS
 10
-14.5592988592
 20
27.7637030321
 11
-14.5657645988
 21
27.7496552049
  0
LINE
  5
464
100
AcDbEntity
  8
CURVE
100
AcDbLine
 62
252
  6
CONTINUOUS
 10
-16.2848920395
 20
24.1494214286
 11
-16.290937055
 21
24.1365998542
  0
LINE
  5
465
100
AcDbEntity
  8
CURVE
100
AcDbLine
 62
252
  6
CONTINUOUS
 10
-15.2355983676
 20
26.4068971475
 11
-15.229264592
 21
26.4203227693
  0
LINE
  5
466
100
AcDbEntity
  8
CURVE
100
AcDbLine
 62
252
  6
CONTINUOUS
 10
-16.6594246442
 20
25.5858144852
 11
-16.6534337469
 21
25.5984918368
  0
LINE
  5
467
100
AcDbEntity
  8
CURVE
100
AcDbLine
 62
252
  6
CONTINUOUS
 10
-15.669172867
 20
25.4991537191
 11
-15.6654984114
 21
25.5068463335
  0
LINE
  5
468
100
AcDbEntity
  8
CURVE
100
AcDbLine
 62
252
  6
CONTINUOUS
 10
-15.6126751993
 20
27.7856341016
 11
-15.6057513594
 21
27.7992050774
  0
LINE
  5
469
100
AcDbEntity
  8
CURVE
100
AcDbLine
 62
252
  6
CONTINUOUS
 10
-15.8097816464
 20
26.3404822775
 11
-15.8398776753
 21
26.2869636251
  0
LINE
  5
46A
100
AcDbEntity
  8
CURVE
100
AcDbLine
 62
252
  6
CONTINUOUS
 10
-15.6654984114
 20
25.5068463335
 11
-15.6580784571
 21
25.5197038001
  0
LINE
  5
46B
100
AcDbEntity
  8
CURVE
100
AcDbLine
 62
252
  6
CONTINUOUS
 10
-14.5657645988
 20
27.7496552049
 11
-14.5733062111
 21
27.7368072213
  0
LINE
  5
46C
100
AcDbEntity
  8
CURVE
100
AcDbLine
 62
252
  6
CONTINUOUS
 10
-15.229264592
 20
26.4203227693
 11
-15.2219477106
 21
26.4326158658
  0
LINE
  5
46D
100
AcDbEntity
  8
CURVE
100
AcDbLine
 62
252
  6
CONTINUOUS
 10
-16.290937055
 20
24.1365998542
 11
-16.2981040824
 21
24.1245620396
  0
LINE
  5
46E
100
AcDbEntity
  8
CURVE
100
AcDbLine
 62
252
  6
CONTINUOUS
 10
-14.6632850866
 20
23.986599384
 11
-14.6717110717
 21
23.9748836548
  0
LINE
  5
46F
100
AcDbEntity
  8
CURVE
100
AcDbLine
 62
252
  6
CONTINUOUS
 10
-15.6580784571
 20
25.5197038001
 11
-15.6496670423
 21
25.5312429659
  0
LINE
  5
470
100
AcDbEntity
  8
CURVE
100
AcDbLine
 62
252
  6
CONTINUOUS
 10
-16.2981040824
 20
24.1245620396
 11
-16.3061840308
 21
24.1137513566
  0
LINE
  5
471
100
AcDbEntity
  8
CURVE
100
AcDbLine
 62
252
  6
CONTINUOUS
 10
-13.9454124532
 20
25.4828371208
 11
-13.9537722461
 21
25.4718782307
  0
LINE
  5
472
100
AcDbEntity
  8
CURVE
100
AcDbLine
 62
252
  6
CONTINUOUS
 10
-14.6717110717
 20
23.9748836548
 11
-14.6810590439
 21
23.9645653024
  0
LINE
  5
473
100
AcDbEntity
  8
CURVE
100
AcDbLine
 62
252
  6
CONTINUOUS
 10
-13.9537722461
 20
25.4718782307
 11
-13.962996895
 21
25.4621981012
  0
LINE
  5
474
100
AcDbEntity
  8
CURVE
100
AcDbLine
 62
252
  6
CONTINUOUS
 10
-14.6810590439
 20
23.9645653024
 11
-14.6912410202
 21
23.9557097646
  0
LWPOLYLINE
  5
475
100
AcDbEntity
  8
RACCORDO
100
AcDbPolyline
 62
253
  6
CONTINUOUS
 90
8
 70
0
 10
-19.2194953406
 20
20.3783081101
 10
-19.2633282197
 20
20.3498431607
 10
-19.3103374582
 20
20.3107960563
 10
-19.353196959
 20
20.2653400772
 10
-19.3916712715
 20
20.2137605789
 10
-19.4255789443
 20
20.1563641376
 10
-19.4547686818
 20
20.0934426661
 10
-19.4791091456
 20
20.025329868
  0
LWPOLYLINE
  5
476
100
AcDbEntity
  8
ASSI
100
AcDbPolyline
 62
253
  6
CONTINUOUS
 90
8
 70
0
 10
-19.2194953406
 20
20.3783081101
 10
-19.2633282197
 20
20.3498431607
 10
-19.3103374582
 20
20.3107960563
 10
-19.353196959
 20
20.2653400772
 10
-19.3916712715
 20
20.2137605789
 10
-19.4255789443
 20
20.1563641376
 10
-19.4547686818
 20
20.0934426661
 10
-19.4791091456
 20
20.025329868
  0
LWPOLYLINE
  5
477
100
AcDbEntity
  8
RACCORDO
100
AcDbPolyline
 62
253
  6
CONTINUOUS
 90
13
 70
0
 10
-19.7489324654
 20
19.6512953027
 10
-19.787520753
 20
19.6270855527
 10
-19.8249538093
 20
19.5986221891
 10
-19.8608762623
 20
19.566093056
 10
-19.8948289851
 20
19.5291588462
 10
-19.9265217512
 20
19.4881884896
 10
-19.955557773
 20
19.4446964748
 10
-19.9807591329
 20
19.3994410723
 10
-20.0016611529
 20
19.3526150581
 10
-20.0186958632
 20
19.3054220417
 10
-20.0315029891
 20
19.2587935567
 10
-20.039025878
 20
19.2131982715
 10
-20.0407711513
 20
19.169276956
  0
LWPOLYLINE
  5
478
100
AcDbEntity
  8
ASSI
100
AcDbPolyline
 62
253
  6
CONTINUOUS
 90
13
 70
0
 10
-19.7489324654
 20
19.6512953027
 10
-19.787520753
 20
19.6270855527
 10
-19.8249538093
 20
19.5986221891
 10
-19.8608762623
 20
19.566093056
 10
-19.8948289851
 20
19.5291588462
 10
-19.9265217512
 20
19.4881884896
 10
-19.955557773
 20
19.4446964748
 10
-19.9807591329
 20
19.3994410723
 10
-20.0016611529
 20
19.3526150581
 10
-20.0186958632
 20
19.3054220417
 10
-20.0315029891
 20
19.2587935567
 10
-20.039025878
 20
19.2131982715
 10
-20.0407711513
 20
19.169276956
  0
LINE
  5
479
100
AcDbEntity
  8
RACCORDO
100
AcDbLine
 62
253
  6
CONTINUOUS
 10
-19.748932469
 20
19.651295305
 11
-18.6838124291
 21
20.2690983128
  0
LINE
  5
47A
100
AcDbEntity
  8
ASSI
100
AcDbLine
 62
253
  6
CONTINUOUS
 10
-19.748932469
 20
19.651295305
 11
-18.6838124291
 21
20.2690983128
  0
LINE
  5
47B
100
AcDbEntity
  8
RACCORDO
100
AcDbLine
 62
253
  6
CONTINUOUS
 10
-19.4791091455
 20
19.2668305058
 11
-18.2224676697
 21
19.9933281748
  0
LINE
  5
47C
100
AcDbEntity
  8
ASSI
100
AcDbLine
 62
253
  6
CONTINUOUS
 10
-19.4791091455
 20
19.2668305058
 11
-18.2224676697
 21
19.9933281748
  0
LINE
  5
47D
100
AcDbEntity
  8
RACCORDO
100
AcDbLine
 62
253
  6
CONTINUOUS
 10
-19.216198361
 20
20.3801823979
 11
-19.2194953406
 21
20.3783081101
  0
LINE
  5
47E
100
AcDbEntity
  8
ASSI
100
AcDbLine
 62
253
  6
CONTINUOUS
 10
-19.216198361
 20
20.3801823979
 11
-19.2194953406
 21
20.3783081101
  0
LINE
  5
47F
100
AcDbEntity
  8
RACCORDO
100
AcDbLine
 62
253
  6
CONTINUOUS
 10
-18.8727945107
 20
20.365480461
 11
-19.4791091456
 21
20.025329868
  0
LINE
  5
480
100
AcDbEntity
  8
ASSI
100
AcDbLine
 62
253
  6
CONTINUOUS
 10
-18.8727945107
 20
20.365480461
 11
-19.4791091456
 21
20.025329868
  0
LINE
  5
481
100
AcDbEntity
  8
RACCORDO
100
AcDbLine
 62
7
  6
CONTINUOUS
 10
-19.5510161244
 20
19.9314524629
 11
-18.8173019547
 21
20.3423413876
  0
LINE
  5
482
100
AcDbEntity
  8
ASSI
100
AcDbLine
 62
7
  6
CONTINUOUS
 10
-19.5510161244
 20
19.9314524629
 11
-18.8173019547
 21
20.3423413876
  0
LWPOLYLINE
  5
483
100
AcDbEntity
  8
RACCORDO
100
AcDbPolyline
 62
253
  6
CONTINUOUS
 90
16
 70
0
 10
-19.4791091458
 20
19.266830507
 10
-19.5116395201
 20
19.2503111899
 10
-19.5462541664
 20
19.2345798049
 10
-19.5828206217
 20
19.2198383618
 10
-19.6214608976
 20
19.2064464174
 10
-19.6618884247
 20
19.1944437983
 10
-19.7031877013
 20
19.1836654324
 10
-19.7448129959
 20
19.1746256238
 10
-19.786609462
 20
19.1675611902
 10
-19.8279605727
 20
19.1619934298
 10
-19.8682976537
 20
19.158310164
 10
-19.9072682267
 20
19.1568487498
 10
-19.9444403478
 20
19.1570285842
 10
-19.9793472666
 20
19.158844708
 10
-20.0115743316
 20
19.1628564784
 10
-20.0407711513
 20
19.169276956
  0
LWPOLYLINE
  5
484
100
AcDbEntity
  8
ASSI
100
AcDbPolyline
 62
253
  6
CONTINUOUS
 90
16
 70
0
 10
-19.4791091458
 20
19.266830507
 10
-19.5116395201
 20
19.2503111899
 10
-19.5462541664
 20
19.2345798049
 10
-19.5828206217
 20
19.2198383618
 10
-19.6214608976
 20
19.2064464174
 10
-19.6618884247
 20
19.1944437983
 10
-19.7031877013
 20
19.1836654324
 10
-19.7448129959
 20
19.1746256238
 10
-19.786609462
 20
19.1675611902
 10
-19.8279605727
 20
19.1619934298
 10
-19.8682976537
 20
19.158310164
 10
-19.9072682267
 20
19.1568487498
 10
-19.9444403478
 20
19.1570285842
 10
-19.9793472666
 20
19.158844708
 10
-20.0115743316
 20
19.1628564784
 10
-20.0407711513
 20
19.169276956
  0
LWPOLYLINE
  5
485
100
AcDbEntity
  8
RACCORDO
100
AcDbPolyline
 62
253
  6
CONTINUOUS
 90
16
 70
0
 10
-19.4791091458
 20
20.0253298672
 10
-19.5116423469
 20
20.0089038805
 10
-19.5462598289
 20
19.9960887972
 10
-19.5828290197
 20
19.9866643522
 10
-19.621471937
 20
19.9803326066
 10
-19.6619018659
 20
19.9772750917
 10
-19.7032029076
 20
19.9779033454
 10
-19.7448291059
 20
19.9819187423
 10
-19.7866256662
 20
19.9891469028
 10
-19.8279760434
 20
19.999936305
 10
-19.8683115326
 20
20.0139025577
 10
-19.9072798025
 20
20.0306603724
 10
-19.9444492017
 20
20.0505177153
 10
-19.9793531858
 20
20.0732648466
 10
-20.0115772335
 20
20.0981174426
 10
-20.0407711513
 20
20.1244982146
  0
LWPOLYLINE
  5
486
100
AcDbEntity
  8
ASSI
100
AcDbPolyline
 62
253
  6
CONTINUOUS
 90
16
 70
0
 10
-19.4791091458
 20
20.0253298672
 10
-19.5116423469
 20
20.0089038805
 10
-19.5462598289
 20
19.9960887972
 10
-19.5828290197
 20
19.9866643522
 10
-19.621471937
 20
19.9803326066
 10
-19.6619018659
 20
19.9772750917
 10
-19.7032029076
 20
19.9779033454
 10
-19.7448291059
 20
19.9819187423
 10
-19.7866256662
 20
19.9891469028
 10
-19.8279760434
 20
19.999936305
 10
-19.8683115326
 20
20.0139025577
 10
-19.9072798025
 20
20.0306603724
 10
-19.9444492017
 20
20.0505177153
 10
-19.9793531858
 20
20.0732648466
 10
-20.0115772335
 20
20.0981174426
 10
-20.0407711513
 20
20.1244982146
  0
LWPOLYLINE
  5
487
100
AcDbEntity
  8
RACCORDO
100
AcDbPolyline
 62
7
  6
CONTINUOUS
 90
9
 70
0
 10
-19.2195410719
 20
20.3782679108
 10
-19.1953934455
 20
20.3904061761
 10
-19.1587074229
 20
20.4023528261
 10
-19.1188583583
 20
20.4087626098
 10
-19.0758215055
 20
20.4100797625
 10
-19.0285590473
 20
20.4063321988
 10
-18.9779385805
 20
20.3974091124
 10
-18.9247901695
 20
20.3834158841
 10
-18.8671072448
 20
20.363518691
  0
LWPOLYLINE
  5
488
100
AcDbEntity
  8
ASSI
100
AcDbPolyline
 62
7
  6
CONTINUOUS
 90
9
 70
0
 10
-19.2195410719
 20
20.3782679108
 10
-19.1953934455
 20
20.3904061761
 10
-19.1587074229
 20
20.4023528261
 10
-19.1188583583
 20
20.4087626098
 10
-19.0758215055
 20
20.4100797625
 10
-19.0285590473
 20
20.4063321988
 10
-18.9779385805
 20
20.3974091124
 10
-18.9247901695
 20
20.3834158841
 10
-18.8671072448
 20
20.363518691
  0
LINE
  5
489
100
AcDbEntity
  8
CURVE
100
AcDbLine
 62
252
  6
CONTINUOUS
 10
-14.9456325616
 20
8.4735221779
 11
-14.934324339
 21
8.4586453436
  0
LINE
  5
48A
100
AcDbEntity
  8
CURVE
100
AcDbLine
 62
252
  6
CONTINUOUS
 10
-16.3568892139
 20
10.1723348133
 11
-16.3462038153
 21
10.1580007687
  0
LINE
  5
48B
100
AcDbEntity
  8
CURVE
100
AcDbLine
 62
252
  6
CONTINUOUS
 10
-14.934324339
 20
8.4586453436
 11
-14.923511163
 21
8.4433309057
  0
LINE
  5
48C
100
AcDbEntity
  8
CURVE
100
AcDbLine
 62
252
  6
CONTINUOUS
 10
-16.3462038153
 20
10.1580007687
 11
-16.3359008771
 21
10.1431590586
  0
LINE
  5
48D
100
AcDbEntity
  8
CURVE
100
AcDbLine
 62
252
  6
CONTINUOUS
 10
-14.923511163
 20
8.4433309057
 11
-14.9132567276
 21
8.4276748275
  0
LINE
  5
48E
100
AcDbEntity
  8
CURVE
100
AcDbLine
 62
252
  6
CONTINUOUS
 10
-16.3359008771
 20
10.1431590586
 11
-16.3296207047
 21
10.1335631383
  0
LINE
  5
48F
100
AcDbEntity
  8
CURVE
100
AcDbLine
 62
252
  6
CONTINUOUS
 10
-15.5644646455
 20
8.2046286097
 11
-15.5744609558
 21
8.220632359
  0
LINE
  5
490
100
AcDbEntity
  8
CURVE
100
AcDbLine
 62
252
  6
CONTINUOUS
 10
-16.3296207047
 20
10.1335631383
 11
-16.3201164973
 21
10.1181404415
  0
LINE
  5
491
100
AcDbEntity
  8
CURVE
100
AcDbLine
 62
252
  6
CONTINUOUS
 10
-16.5982894966
 20
9.4566227682
 11
-16.6046703597
 21
9.467117803
  0
LINE
  5
492
100
AcDbEntity
  8
CURVE
100
AcDbLine
 62
252
  6
CONTINUOUS
 10
-14.9132567276
 20
8.4276748275
 11
-14.9036169931
 21
8.4117710535
  0
LINE
  5
493
100
AcDbEntity
  8
CURVE
100
AcDbLine
 62
252
  6
CONTINUOUS
 10
-14.8621269997
 20
6.6032602393
 11
-14.8538349668
 21
6.5893972385
  0
LINE
  5
494
100
AcDbEntity
  8
CURVE
100
AcDbLine
 62
252
  6
CONTINUOUS
 10
-15.5744609558
 20
8.220632359
 11
-15.5793180135
 21
8.2288698139
  0
LINE
  5
495
100
AcDbEntity
  8
CURVE
100
AcDbLine
 62
252
  6
CONTINUOUS
 10
-16.1113833187
 20
8.4053348563
 11
-16.0957318318
 21
8.3786235048
  0
LINE
  5
496
100
AcDbEntity
  8
CURVE
100
AcDbLine
 62
252
  6
CONTINUOUS
 10
-16.3201164973
 20
10.1181404415
 11
-16.313931042
 21
10.1073956232
  0
LINE
  5
497
100
AcDbEntity
  8
CURVE
100
AcDbLine
 62
252
  6
CONTINUOUS
 10
-16.6046703597
 20
9.467117803
 11
-16.6134405723
 21
9.4825020501
  0
LINE
  5
498
100
AcDbEntity
  8
CURVE
100
AcDbLine
 62
252
  6
CONTINUOUS
 10
-15.5793180135
 20
8.2288698139
 11
-15.5836525632
 21
8.2365820165
  0
LINE
  5
499
100
AcDbEntity
  8
CURVE
100
AcDbLine
 62
252
  6
CONTINUOUS
 10
-14.9036169931
 20
8.4117710535
 11
-14.8946918451
 21
8.3956360151
  0
LINE
  5
49A
100
AcDbEntity
  8
CURVE
100
AcDbLine
 62
252
  6
CONTINUOUS
 10
-16.0957318318
 20
8.3786235048
 11
-16.0807322389
 21
8.3513939788
  0
LINE
  5
49B
100
AcDbEntity
  8
CURVE
100
AcDbLine
 62
252
  6
CONTINUOUS
 10
-14.8538349668
 20
6.5893972385
 11
-14.845813313
 21
6.5747992801
  0
LINE
  5
49C
100
AcDbEntity
  8
CURVE
100
AcDbLine
 62
252
  6
CONTINUOUS
 10
-15.5505526741
 20
6.9095303102
 11
-15.5583660434
 21
6.923884596
  0
LINE
  5
49D
100
AcDbEntity
  8
CURVE
100
AcDbLine
 62
252
  6
CONTINUOUS
 10
-16.313931042
 20
10.1073956232
 11
-16.3053834778
 21
10.0915391203
  0
LINE
  5
49E
100
AcDbEntity
  8
CURVE
100
AcDbLine
 62
252
  6
CONTINUOUS
 10
-15.5836525632
 20
8.2365820165
 11
-15.592460393
 21
8.2532212183
  0
LINE
  5
49F
100
AcDbEntity
  8
CURVE
100
AcDbLine
 62
252
  6
CONTINUOUS
 10
-16.6134405723
 20
9.4825020501
 11
-16.6217137674
 21
9.4982327405
  0
LINE
  5
4A0
100
AcDbEntity
  8
CURVE
100
AcDbLine
 62
252
  6
CONTINUOUS
 10
-16.0807322389
 20
8.3513939788
 11
-16.0664205124
 21
8.3236998758
  0
LINE
  5
4A1
100
AcDbEntity
  8
CURVE
100
AcDbLine
 62
252
  6
CONTINUOUS
 10
-14.8946918451
 20
8.3956360151
 11
-14.8863281675
 21
8.3791578002
  0
LINE
  5
4A2
100
AcDbEntity
  8
CURVE
100
AcDbLine
 62
252
  6
CONTINUOUS
 10
-14.845813313
 20
6.5747992801
 11
-14.8382165939
 21
6.5596246163
  0
LINE
  5
4A3
100
AcDbEntity
  8
CURVE
100
AcDbLine
 62
252
  6
CONTINUOUS
 10
-16.3053834778
 20
10.0915391203
 11
-16.2974866779
 21
10.0756251873
  0
LINE
  5
4A4
100
AcDbEntity
  8
CURVE
100
AcDbLine
 62
252
  6
CONTINUOUS
 10
-15.5583660434
 20
6.923884596
 11
-15.565807669
 21
6.9389029253
  0
LINE
  5
4A5
100
AcDbEntity
  8
CURVE
100
AcDbLine
 62
252
  6
CONTINUOUS
 10
-15.592460393
 20
8.2532212183
 11
-15.6005583902
 21
8.2699009627
  0
LINE
  5
4A6
100
AcDbEntity
  8
CURVE
100
AcDbLine
 62
252
  6
CONTINUOUS
 10
-16.0664205124
 20
8.3236998758
 11
-16.0528329158
 21
8.2955987899
  0
LINE
  5
4A7
100
AcDbEntity
  8
CURVE
100
AcDbLine
 62
252
  6
CONTINUOUS
 10
-16.6217137674
 20
9.4982327405
 11
-16.6294417302
 21
9.5142278015
  0
LINE
  5
4A8
100
AcDbEntity
  8
CURVE
100
AcDbLine
 62
252
  6
CONTINUOUS
 10
-17.2850392655
 20
9.5211537462
 11
-17.2778070179
 21
9.506091295
  0
LINE
  5
4A9
100
AcDbEntity
  8
CURVE
100
AcDbLine
 62
252
  6
CONTINUOUS
 10
-16.7874146244
 20
8.1222304368
 11
-16.8010877133
 21
8.1511661737
  0
LINE
  5
4AA
100
AcDbEntity
  8
CURVE
100
AcDbLine
 62
252
  6
CONTINUOUS
 10
-16.2217063904
 20
6.9328674441
 11
-16.2142701571
 21
6.9168518159
  0
LINE
  5
4AB
100
AcDbEntity
  8
CURVE
100
AcDbLine
 62
252
  6
CONTINUOUS
 10
-14.8863281675
 20
8.3791578002
 11
-14.8785812833
 21
8.3624330508
  0
LINE
  5
4AC
100
AcDbEntity
  8
CURVE
100
AcDbLine
 62
252
  6
CONTINUOUS
 10
-14.8382165939
 20
6.5596246163
 11
-14.8311056004
 21
6.5439576598
  0
LINE
  5
4AD
100
AcDbEntity
  8
CURVE
100
AcDbLine
 62
252
  6
CONTINUOUS
 10
-16.2974866779
 20
10.0756251873
 11
-16.2902497627
 21
10.0596829911
  0
LINE
  5
4AE
100
AcDbEntity
  8
CURVE
100
AcDbLine
 62
252
  6
CONTINUOUS
 10
-16.0528329158
 20
8.2955987899
 11
-16.0400055508
 21
8.267152046
  0
LINE
  5
4AF
100
AcDbEntity
  8
CURVE
100
AcDbLine
 62
252
  6
CONTINUOUS
 10
-15.565807669
 20
6.9389029253
 11
-15.5728443996
 21
6.9545634585
  0
LINE
  5
4B0
100
AcDbEntity
  8
CURVE
100
AcDbLine
 62
252
  6
CONTINUOUS
 10
-15.6005583902
 20
8.2699009627
 11
-15.6079092882
 21
8.2865265693
  0
LINE
  5
4B1
100
AcDbEntity
  8
CURVE
100
AcDbLine
 62
252
  6
CONTINUOUS
 10
-16.6294417302
 20
9.5142278015
 11
-16.6365782721
 21
9.5303995504
  0
LINE
  5
4B2
100
AcDbEntity
  8
CURVE
100
AcDbLine
 62
252
  6
CONTINUOUS
 10
-16.8010877133
 20
8.1511661737
 11
-16.8137907673
 21
8.1802263826
  0
LINE
  5
4B3
100
AcDbEntity
  8
CURVE
100
AcDbLine
 62
252
  6
CONTINUOUS
 10
-17.2778070179
 20
9.506091295
 11
-17.2709517267
 21
9.4903442818
  0
LINE
  5
4B4
100
AcDbEntity
  8
CURVE
100
AcDbLine
 62
252
  6
CONTINUOUS
 10
-17.9867178938
 20
9.8955754587
 11
-17.9935452319
 21
9.9113921459
  0
LINE
  5
4B5
100
AcDbEntity
  8
CURVE
100
AcDbLine
 62
252
  6
CONTINUOUS
 10
-16.0400055508
 20
8.267152046
 11
-16.0351027738
 21
8.2556399949
  0
LINE
  5
4B6
100
AcDbEntity
  8
CURVE
100
AcDbLine
 62
252
  6
CONTINUOUS
 10
-16.2142701571
 20
6.9168518159
 11
-16.2074787352
 21
6.900783642
  0
LINE
  5
4B7
100
AcDbEntity
  8
CURVE
100
AcDbLine
 62
252
  6
CONTINUOUS
 10
-16.5541062806
 20
6.3908189593
 11
-16.5584168133
 21
6.4011744949
  0
LINE
  5
4B8
100
AcDbEntity
  8
CURVE
100
AcDbLine
 62
252
  6
CONTINUOUS
 10
-17.2406471764
 20
8.1668195
 11
-17.2337261705
 21
8.1501226963
  0
LINE
  5
4B9
100
AcDbEntity
  8
CURVE
100
AcDbLine
 62
252
  6
CONTINUOUS
 10
-16.2902497627
 20
10.0596829911
 11
-16.2836804731
 21
10.0437383777
  0
LINE
  5
4BA
100
AcDbEntity
  8
CURVE
100
AcDbLine
 62
252
  6
CONTINUOUS
 10
-14.8311056004
 20
6.5439576598
 11
-14.8245450828
 21
6.5279037739
  0
LINE
  5
4BB
100
AcDbEntity
  8
CURVE
100
AcDbLine
 62
252
  6
CONTINUOUS
 10
-16.6365782721
 20
9.5303995504
 11
-16.6409294394
 21
9.5410898145
  0
LINE
  5
4BC
100
AcDbEntity
  8
CURVE
100
AcDbLine
 62
252
  6
CONTINUOUS
 10
-15.5728443996
 20
6.9545634585
 11
-15.5794358981
 21
6.9708278323
  0
LINE
  5
4BD
100
AcDbEntity
  8
CURVE
100
AcDbLine
 62
252
  6
CONTINUOUS
 10
-16.8137907673
 20
8.1802263826
 11
-16.8251062905
 21
8.2082004965
  0
LINE
  5
4BE
100
AcDbEntity
  8
CURVE
100
AcDbLine
 62
252
  6
CONTINUOUS
 10
-16.0351027738
 20
8.2556399949
 11
-16.0236876947
 21
8.2273373595
  0
LINE
  5
4BF
100
AcDbEntity
  8
CURVE
100
AcDbLine
 62
252
  6
CONTINUOUS
 10
-15.6079092882
 20
8.2865265693
 11
-15.614485456
 21
8.3030139268
  0
LINE
  5
4C0
100
AcDbEntity
  8
CURVE
100
AcDbLine
 62
252
  6
CONTINUOUS
 10
-17.2709517267
 20
9.4903442818
 11
-17.2645166437
 21
9.4739556312
  0
LINE
  5
4C1
100
AcDbEntity
  8
CURVE
100
AcDbLine
 62
252
  6
CONTINUOUS
 10
-17.9935452319
 20
9.9113921459
 11
-17.9998554264
 21
9.9276299246
  0
LINE
  5
4C2
100
AcDbEntity
  8
CURVE
100
AcDbLine
 62
252
  6
CONTINUOUS
 10
-16.5584168133
 20
6.4011744949
 11
-16.5646199748
 21
6.4173818388
  0
LINE
  5
4C3
100
AcDbEntity
  8
CURVE
100
AcDbLine
 62
252
  6
CONTINUOUS
 10
-16.2074787352
 20
6.900783642
 11
-16.2013600156
 21
6.8847350744
  0
LINE
  5
4C4
100
AcDbEntity
  8
CURVE
100
AcDbLine
 62
252
  6
CONTINUOUS
 10
-16.6409294394
 20
9.5410898145
 11
-16.6469803925
 21
9.5573154992
  0
LINE
  5
4C5
100
AcDbEntity
  8
CURVE
100
AcDbLine
 62
252
  6
CONTINUOUS
 10
-17.2337261705
 20
8.1501226963
 11
-17.2274830394
 21
8.1333588266
  0
LINE
  5
4C6
100
AcDbEntity
  8
CURVE
100
AcDbLine
 62
252
  6
CONTINUOUS
 10
-16.8251062905
 20
8.2082004965
 11
-16.8354628772
 21
8.2360470315
  0
LINE
  5
4C7
100
AcDbEntity
  8
CURVE
100
AcDbLine
 62
252
  6
CONTINUOUS
 10
-16.0236876947
 20
8.2273373595
 11
-16.0133510348
 21
8.1994887962
  0
LINE
  5
4C8
100
AcDbEntity
  8
CURVE
100
AcDbLine
 62
252
  6
CONTINUOUS
 10
-16.2836804731
 20
10.0437383777
 11
-16.2777856744
 21
10.0278141082
  0
LINE
  5
4C9
100
AcDbEntity
  8
CURVE
100
AcDbLine
 62
252
  6
CONTINUOUS
 10
-15.5794358981
 20
6.9708278323
 11
-15.5855351021
 21
6.98763703
  0
LINE
  5
4CA
100
AcDbEntity
  8
CURVE
100
AcDbLine
 62
252
  6
CONTINUOUS
 10
-17.2645166437
 20
9.4739556312
 11
-17.2585524764
 21
9.4569926954
  0
LINE
  5
4CB
100
AcDbEntity
  8
CURVE
100
AcDbLine
 62
252
  6
CONTINUOUS
 10
-17.9998554264
 20
9.9276299246
 11
-18.005578595
 21
9.9441493042
  0
LINE
  5
4CC
100
AcDbEntity
  8
CURVE
100
AcDbLine
 62
252
  6
CONTINUOUS
 10
-16.2013600156
 20
6.8847350744
 11
-16.196888712
 21
6.8717182024
  0
LINE
  5
4CD
100
AcDbEntity
  8
CURVE
100
AcDbLine
 62
252
  6
CONTINUOUS
 10
-16.5646199748
 20
6.4173818388
 11
-16.5690126107
 21
6.4301943274
  0
LINE
  5
4CE
100
AcDbEntity
  8
CURVE
100
AcDbLine
 62
252
  6
CONTINUOUS
 10
-17.2274830394
 20
8.1333588266
 11
-17.2247191806
 21
8.125259274
  0
LINE
  5
4CF
100
AcDbEntity
  8
CURVE
100
AcDbLine
 62
252
  6
CONTINUOUS
 10
-16.8354628772
 20
8.2360470315
 11
-16.8448051587
 21
8.263599962
  0
LINE
  5
4D0
100
AcDbEntity
  8
CURVE
100
AcDbLine
 62
252
  6
CONTINUOUS
 10
-16.0133510348
 20
8.1994887962
 11
-16.0041139449
 21
8.1721961178
  0
LINE
  5
4D1
100
AcDbEntity
  8
CURVE
100
AcDbLine
 62
252
  6
CONTINUOUS
 10
-16.6469803925
 20
9.5573154992
 11
-16.6513642586
 21
9.5703888178
  0
LINE
  5
4D2
100
AcDbEntity
  8
CURVE
100
AcDbLine
 62
252
  6
CONTINUOUS
 10
-15.5855351021
 20
6.98763703
 11
-15.5895649739
 21
6.999943922
  0
LINE
  5
4D3
100
AcDbEntity
  8
CURVE
100
AcDbLine
 62
252
  6
CONTINUOUS
 10
-17.2247191806
 20
8.125259274
 11
-17.2221941156
 21
8.1173997015
  0
LINE
  5
4D4
100
AcDbEntity
  8
CURVE
100
AcDbLine
 62
252
  6
CONTINUOUS
 10
-17.2585524764
 20
9.4569926954
 11
-17.2545586837
 21
9.4444007094
  0
LINE
  5
4D5
100
AcDbEntity
  8
CURVE
100
AcDbLine
 62
252
  6
CONTINUOUS
 10
-17.9603094776
 20
8.1342193379
 11
-17.965334574
 21
8.1502385878
  0
LINE
  5
4D6
100
AcDbEntity
  8
CURVE
100
AcDbLine
 62
252
  6
CONTINUOUS
 10
-18.005578595
 20
9.9441493042
 11
-18.0095296792
 21
9.9569173533
  0
LINE
  5
4D7
100
AcDbEntity
  8
CURVE
100
AcDbLine
 62
252
  6
CONTINUOUS
 10
-16.5690126107
 20
6.4301943274
 11
-16.5740404277
 21
6.4465261844
  0
LINE
  5
4D8
100
AcDbEntity
  8
CURVE
100
AcDbLine
 62
252
  6
CONTINUOUS
 10
-16.196888712
 20
6.8717182024
 11
-16.1919025423
 21
6.8555104554
  0
LINE
  5
4D9
100
AcDbEntity
  8
CURVE
100
AcDbLine
 62
252
  6
CONTINUOUS
 10
-16.8448051587
 20
8.263599962
 11
-16.8532673986
 21
8.2912439985
  0
LINE
  5
4DA
100
AcDbEntity
  8
CURVE
100
AcDbLine
 62
252
  6
CONTINUOUS
 10
-16.6513642586
 20
9.5703888178
 11
-16.6562378902
 21
9.5866601388
  0
LINE
  5
4DB
100
AcDbEntity
  8
CURVE
100
AcDbLine
 62
252
  6
CONTINUOUS
 10
-17.2221941156
 20
8.1173997015
 11
-17.2173294593
 21
8.1006455898
  0
LINE
  5
4DC
100
AcDbEntity
  8
CURVE
100
AcDbLine
 62
252
  6
CONTINUOUS
 10
-18.0095296792
 20
9.9569173533
 11
-18.0118051904
 21
9.9649216225
  0
LINE
  5
4DD
100
AcDbEntity
  8
CURVE
100
AcDbLine
 62
252
  6
CONTINUOUS
 10
-17.2545586837
 20
9.4444007094
 11
-17.2498741389
 21
9.4274703775
  0
LINE
  5
4DE
100
AcDbEntity
  8
CURVE
100
AcDbLine
 62
252
  6
CONTINUOUS
 10
-16.8532673986
 20
8.2912439985
 11
-16.8608150116
 21
8.3188875981
  0
LINE
  5
4DF
100
AcDbEntity
  8
CURVE
100
AcDbLine
 62
252
  6
CONTINUOUS
 10
-17.965334574
 20
8.1502385878
 11
-17.9696751762
 21
8.1662981219
  0
LINE
  5
4E0
100
AcDbEntity
  8
CURVE
100
AcDbLine
 62
252
  6
CONTINUOUS
 10
-16.5740404277
 20
6.4465261844
 11
-16.5782694314
 21
6.4623669318
  0
LINE
  5
4E1
100
AcDbEntity
  8
CURVE
100
AcDbLine
 62
252
  6
CONTINUOUS
 10
-16.1919025423
 20
6.8555104554
 11
-16.1877045981
 21
6.8397465778
  0
LINE
  5
4E2
100
AcDbEntity
  8
CURVE
100
AcDbLine
 62
252
  6
CONTINUOUS
 10
-18.0118051904
 20
9.9649216225
 11
-18.0161831875
 21
9.9820918063
  0
LWPOLYLINE
  5
4E3
100
AcDbEntity
  8
RACCORDO
100
AcDbPolyline
 62
253
  6
CONTINUOUS
 90
19
 70
0
 10
-20.0407711513
 20
19.169276956
 10
-20.0094100726
 20
19.0437667736
 10
-19.9722761995
 20
18.9184126826
 10
-19.9293641233
 20
18.7932175761
 10
-19.8803789105
 20
18.6675042629
 10
-19.8255999179
 20
18.541958387
 10
-19.765884006
 20
18.4186266317
 10
-19.701180805
 20
18.2976278651
 10
-19.6315240258
 20
18.1788523191
 10
-19.5579011799
 20
18.064001214
 10
-19.4802562536
 20
17.9531311735
 10
-19.3986292781
 20
17.8461944041
 10
-19.314157758
 20
17.7447322306
 10
-19.2267246164
 20
17.6487659538
 10
-19.1364340936
 20
17.5582814786
 10
-19.0447637853
 20
17.474762542
 10
-18.9522066186
 20
17.3987035536
 10
-18.8582650824
 20
17.3296128147
 10
-18.762935524
 20
17.2674924648
  0
LWPOLYLINE
  5
4E4
100
AcDbEntity
  8
ASSI
100
AcDbPolyline
 62
253
  6
CONTINUOUS
 90
19
 70
0
 10
-20.0407711513
 20
19.169276956
 10
-20.0094100726
 20
19.0437667736
 10
-19.9722761995
 20
18.9184126826
 10
-19.9293641233
 20
18.7932175761
 10
-19.8803789105
 20
18.6675042629
 10
-19.8255999179
 20
18.541958387
 10
-19.765884006
 20
18.4186266317
 10
-19.701180805
 20
18.2976278651
 10
-19.6315240258
 20
18.1788523191
 10
-19.5579011799
 20
18.064001214
 10
-19.4802562536
 20
17.9531311735
 10
-19.3986292781
 20
17.8461944041
 10
-19.314157758
 20
17.7447322306
 10
-19.2267246164
 20
17.6487659538
 10
-19.1364340936
 20
17.5582814786
 10
-19.0447637853
 20
17.474762542
 10
-18.9522066186
 20
17.3987035536
 10
-18.8582650824
 20
17.3296128147
 10
-18.762935524
 20
17.2674924648
  0
LINE
  5
4E5
100
AcDbEntity
  8
CURVE
100
AcDbLine
 62
252
  6
CONTINUOUS
 10
-17.2173294593
 20
8.1006455898
 11
-17.2132319612
 21
8.0840958387
  0
LWPOLYLINE
  5
4E6
100
AcDbEntity
  8
RACCORDO
100
AcDbPolyline
 62
253
  6
CONTINUOUS
 90
19
 70
0
 10
-19.4791091455
 20
19.2668305058
 10
-19.4547916712
 20
19.1679088379
 10
-19.4256279526
 20
19.0681117607
 10
-19.3917464558
 20
18.9679234331
 10
-19.3532946115
 20
18.8677652081
 10
-19.3104521196
 20
18.7681976087
 10
-19.2634559411
 20
18.6699117152
 10
-19.2125950066
 20
18.5734556845
 10
-19.158099464
 20
18.4792268407
 10
-19.1001653743
 20
18.3876735634
 10
-19.0390921057
 20
18.2992465074
 10
-18.9751905248
 20
18.2143740336
 10
-18.9086882972
 20
18.133458918
 10
-18.8398678466
 20
18.0568493855
 10
-18.7691315508
 20
17.984991437
 10
-18.6969099196
 20
17.9183860705
 10
-18.6236025168
 20
17.8573856591
 10
-18.5495664037
 20
17.8022205402
 10
-18.4751824827
 20
17.7531403833
  0
LWPOLYLINE
  5
4E7
100
AcDbEntity
  8
ASSI
100
AcDbPolyline
 62
253
  6
CONTINUOUS
 90
19
 70
0
 10
-19.4791091455
 20
19.2668305058
 10
-19.4547916712
 20
19.1679088379
 10
-19.4256279526
 20
19.0681117607
 10
-19.3917464558
 20
18.9679234331
 10
-19.3532946115
 20
18.8677652081
 10
-19.3104521196
 20
18.7681976087
 10
-19.2634559411
 20
18.6699117152
 10
-19.2125950066
 20
18.5734556845
 10
-19.158099464
 20
18.4792268407
 10
-19.1001653743
 20
18.3876735634
 10
-19.0390921057
 20
18.2992465074
 10
-18.9751905248
 20
18.2143740336
 10
-18.9086882972
 20
18.133458918
 10
-18.8398678466
 20
18.0568493855
 10
-18.7691315508
 20
17.984991437
 10
-18.6969099196
 20
17.9183860705
 10
-18.6236025168
 20
17.8573856591
 10
-18.5495664037
 20
17.8022205402
 10
-18.4751824827
 20
17.7531403833
  0
LINE
  5
4E8
100
AcDbEntity
  8
CURVE
100
AcDbLine
 62
252
  6
CONTINUOUS
 10
-16.8608150116
 20
8.3188875981
 11
-16.8674160881
 21
8.3464346684
  0
LINE
  5
4E9
100
AcDbEntity
  8
CURVE
100
AcDbLine
 62
252
  6
CONTINUOUS
 10
-17.2498741389
 20
9.4274703775
 11
-17.2459390038
 21
9.4106735777
  0
LINE
  5
4EA
100
AcDbEntity
  8
CURVE
100
AcDbLine
 62
252
  6
CONTINUOUS
 10
-17.9696751762
 20
8.1662981219
 11
-17.9733102226
 21
8.1823483053
  0
LINE
  5
4EB
100
AcDbEntity
  8
CURVE
100
AcDbLine
 62
252
  6
CONTINUOUS
 10
-16.5782694314
 20
6.4623669318
 11
-16.5817008343
 21
6.477662357
  0
LINE
  5
4EC
100
AcDbEntity
  8
CURVE
100
AcDbLine
 62
252
  6
CONTINUOUS
 10
-18.0161831875
 20
9.9820918063
 11
-18.0197340808
 21
9.99873356
  0
LINE
  5
4ED
100
AcDbEntity
  8
CURVE
100
AcDbLine
 62
252
  6
CONTINUOUS
 10
-17.2459390038
 20
9.4106735777
 11
-17.2447442782
 21
9.4048485438
  0
LINE
  5
4EE
100
AcDbEntity
  8
CURVE
100
AcDbLine
 62
252
  6
CONTINUOUS
 10
-17.2132319612
 20
8.0840958387
 11
-17.2099198648
 21
8.0678388503
  0
LINE
  5
4EF
100
AcDbEntity
  8
CURVE
100
AcDbLine
 62
252
  6
CONTINUOUS
 10
-17.9733102226
 20
8.1823483053
 11
-17.9762184364
 21
8.1983322731
  0
LINE
  5
4F0
100
AcDbEntity
  8
CURVE
100
AcDbLine
 62
252
  6
CONTINUOUS
 10
-18.0197340808
 20
9.99873356
 11
-18.0224586936
 21
10.0147813675
  0
LINE
  5
4F1
100
AcDbEntity
  8
CURVE
100
AcDbLine
 62
252
  6
CONTINUOUS
 10
-17.9762184364
 20
8.1983322731
 11
-17.9783793278
 21
8.2141860645
  0
LINE
  5
4F2
100
AcDbEntity
  8
CURVE
100
AcDbLine
 62
252
  6
CONTINUOUS
 10
-18.0224586936
 20
10.0147813675
 11
-18.0243635548
 21
10.0301843397
  0
LINE
  5
4F3
100
AcDbEntity
  8
CURVE
100
AcDbLine
 62
252
  6
CONTINUOUS
 10
-15.9708954502
 20
8.0183258252
 11
-15.9678104182
 21
7.9869181156
  0
LINE
  5
4F4
100
AcDbEntity
  8
CURVE
100
AcDbLine
 62
252
  6
CONTINUOUS
 10
-16.8815012794
 20
8.4294322286
 11
-16.8838598091
 21
8.4551838977
  0
LINE
  5
4F5
100
AcDbEntity
  8
CURVE
100
AcDbLine
 62
252
  6
CONTINUOUS
 10
-17.239758868
 20
9.37222988
 11
-17.2384639761
 21
9.3565090598
  0
LINE
  5
4F6
100
AcDbEntity
  8
CURVE
100
AcDbLine
 62
252
  6
CONTINUOUS
 10
-15.9678104182
 20
7.9869181156
 11
-15.9652272137
 21
7.9547608364
  0
LINE
  5
4F7
100
AcDbEntity
  8
CURVE
100
AcDbLine
 62
252
  6
CONTINUOUS
 10
-18.0243635548
 20
10.0301843397
 11
-18.0254590247
 21
10.0449044808
  0
LINE
  5
4F8
100
AcDbEntity
  8
CURVE
100
AcDbLine
 62
252
  6
CONTINUOUS
 10
-17.2056947242
 20
8.0365273876
 11
-17.205124292
 21
8.0288216824
  0
LINE
  5
4F9
100
AcDbEntity
  8
CURVE
100
AcDbLine
 62
252
  6
CONTINUOUS
 10
-18.2618461966
 20
26.1452125859
 11
-18.2632257295
 21
26.1645005362
  0
LINE
  5
4FA
100
AcDbEntity
  8
CURVE
100
AcDbLine
 62
252
  6
CONTINUOUS
 10
-17.9792571784
 20
8.2229955421
 11
-17.9802651554
 21
8.23767892
  0
LINE
  5
4FB
100
AcDbEntity
  8
CURVE
100
AcDbLine
 62
252
  6
CONTINUOUS
 10
-16.2569257605
 20
9.9384540554
 11
-16.2551903134
 21
9.9123122327
  0
LINE
  5
4FC
100
AcDbEntity
  8
CURVE
100
AcDbLine
 62
252
  6
CONTINUOUS
 10
-17.5880603667
 20
27.7135496369
 11
-17.5868660522
 21
27.695049215
  0
LINE
  5
4FD
100
AcDbEntity
  8
CURVE
100
AcDbLine
 62
252
  6
CONTINUOUS
 10
-18.8692131
 20
28.4122056025
 11
-18.8703955991
 21
28.4305649771
  0
LINE
  5
4FE
100
AcDbEntity
  8
CURVE
100
AcDbLine
 62
252
  6
CONTINUOUS
 10
-18.1710367385
 20
29.8962309495
 11
-18.1722469048
 21
29.9156245245
  0
LINE
  5
4FF
100
AcDbEntity
  8
CURVE
100
AcDbLine
 62
252
  6
CONTINUOUS
 10
-16.8838598091
 20
8.4551838977
 11
-16.8851932735
 21
8.4804890247
  0
LINE
  5
500
100
AcDbEntity
  8
CURVE
100
AcDbLine
 62
252
  6
CONTINUOUS
 10
-17.2384639761
 20
9.3565090598
 11
-17.2382141211
 21
9.3500095428
  0
LINE
  5
501
100
AcDbEntity
  8
CURVE
100
AcDbLine
 62
252
  6
CONTINUOUS
 10
-17.205124292
 20
8.0288216824
 11
-17.2045737661
 21
8.0136585092
  0
LINE
  5
502
100
AcDbEntity
  8
CURVE
100
AcDbLine
 62
252
  6
CONTINUOUS
 10
-16.5862009196
 20
6.5064662185
 11
-16.6024743268
 21
7.0146291584
  0
LINE
  5
503
100
AcDbEntity
  8
CURVE
100
AcDbLine
 62
252
  6
CONTINUOUS
 10
-18.0254590247
 20
10.0449044808
 11
-18.0258925739
 21
10.0593269547
  0
LINE
  5
504
100
AcDbEntity
  8
CURVE
100
AcDbLine
 62
252
  6
CONTINUOUS
 10
-16.6678880008
 20
9.6467886549
 11
-16.6797936009
 21
10.1574735119
  0
LINE
  5
505
100
AcDbEntity
  8
CURVE
100
AcDbLine
 62
252
  6
CONTINUOUS
 10
-17.0947175376
 20
27.3084930136
 11
-17.0962043782
 21
27.3882222018
  0
LINE
  5
506
100
AcDbEntity
  8
CURVE
100
AcDbLine
 62
252
  6
CONTINUOUS
 10
-17.9802651554
 20
8.23767892
 11
-17.9804896393
 21
8.2520717548
  0
LINE
  5
507
100
AcDbEntity
  8
CURVE
100
AcDbLine
 62
252
  6
CONTINUOUS
 10
-16.8851932735
 20
8.4804890247
 11
-16.8854934467
 21
8.5052670466
  0
LINE
  5
508
100
AcDbEntity
  8
CURVE
100
AcDbLine
 62
252
  6
CONTINUOUS
 10
-18.2632257295
 20
26.1645005362
 11
-18.2634471114
 21
26.1830565837
  0
LINE
  5
509
100
AcDbEntity
  8
CURVE
100
AcDbLine
 62
252
  6
CONTINUOUS
 10
-17.2131285006
 20
26.3177378836
 11
-17.2129354723
 21
26.2993577444
  0
LINE
  5
50A
100
AcDbEntity
  8
CURVE
100
AcDbLine
 62
252
  6
CONTINUOUS
 10
-18.8703955991
 20
28.4305649771
 11
-18.8705117472
 21
28.4481197264
  0
LINE
  5
50B
100
AcDbEntity
  8
CURVE
100
AcDbLine
 62
252
  6
CONTINUOUS
 10
-17.5868660522
 20
27.695049215
 11
-17.5867531582
 21
27.6773089917
  0
LINE
  5
50C
100
AcDbEntity
  8
CURVE
100
AcDbLine
 62
252
  6
CONTINUOUS
 10
-17.1569878065
 20
28.6038018892
 11
-17.1569004868
 21
28.5853429626
  0
LINE
  5
50D
100
AcDbEntity
  8
CURVE
100
AcDbLine
 62
252
  6
CONTINUOUS
 10
-18.1722469048
 20
29.9156245245
 11
-18.1722955787
 21
29.9342632491
  0
LINE
  5
50E
100
AcDbEntity
  8
CURVE
100
AcDbLine
 62
252
  6
CONTINUOUS
 10
-17.2382141211
 20
9.3500095428
 11
-17.2381967136
 21
9.335011403
  0
LINE
  5
50F
100
AcDbEntity
  8
CURVE
100
AcDbLine
 62
252
  6
CONTINUOUS
 10
-17.2045737661
 20
8.0136585092
 11
-17.2048247097
 21
7.9991065264
  0
LINE
  5
510
100
AcDbEntity
  8
CURVE
100
AcDbLine
 62
252
  6
CONTINUOUS
 10
-16.6945440575
 20
24.4738047898
 11
-16.6748074436
 21
25.5066760172
  0
LINE
  5
511
100
AcDbEntity
  8
CURVE
100
AcDbLine
 62
252
  6
CONTINUOUS
 10
-18.0258925739
 20
10.0593269547
 11
-18.0255386038
 21
10.0734719526
  0
LINE
  5
512
100
AcDbEntity
  8
CURVE
100
AcDbLine
 62
252
  6
CONTINUOUS
 10
-16.5954150767
 20
28.7400037083
 11
-16.5642646471
 21
29.7794651298
  0
LINE
  5
513
100
AcDbEntity
  8
CURVE
100
AcDbLine
 62
252
  6
CONTINUOUS
 10
-17.9804896393
 20
8.2520717548
 11
-17.9799195633
 21
8.2660751942
  0
LINE
  5
514
100
AcDbEntity
  8
CURVE
100
AcDbLine
 62
252
  6
CONTINUOUS
 10
-18.2634471114
 20
26.1830565837
 11
-18.2625085348
 21
26.2011047337
  0
LINE
  5
515
100
AcDbEntity
  8
CURVE
100
AcDbLine
 62
252
  6
CONTINUOUS
 10
-16.6748074436
 20
25.5066760172
 11
-16.6739031244
 21
25.5239331434
  0
LINE
  5
516
100
AcDbEntity
  8
CURVE
100
AcDbLine
 62
252
  6
CONTINUOUS
 10
-17.2381967136
 20
9.335011403
 11
-17.2389805288
 21
9.3205986502
  0
LINE
  5
517
100
AcDbEntity
  8
CURVE
100
AcDbLine
 62
252
  6
CONTINUOUS
 10
-17.2129354723
 20
26.2993577444
 11
-17.2139136257
 21
26.2814437261
  0
LINE
  5
518
100
AcDbEntity
  8
CURVE
100
AcDbLine
 62
252
  6
CONTINUOUS
 10
-17.5867531582
 20
27.6773089917
 11
-17.5877220949
 21
27.6600616802
  0
LINE
  5
519
100
AcDbEntity
  8
CURVE
100
AcDbLine
 62
252
  6
CONTINUOUS
 10
-17.1569004868
 20
28.5853429626
 11
-17.1579798007
 21
28.5675963831
  0
LINE
  5
51A
100
AcDbEntity
  8
CURVE
100
AcDbLine
 62
252
  6
CONTINUOUS
 10
-16.1705676097
 20
28.4947021061
 11
-16.1716206458
 21
28.4773585382
  0
LINE
  5
51B
100
AcDbEntity
  8
CURVE
100
AcDbLine
 62
252
  6
CONTINUOUS
 10
-16.5642646471
 20
29.7794651298
 11
-16.5631662097
 21
29.7968319331
  0
LINE
  5
51C
100
AcDbEntity
  8
CURVE
100
AcDbLine
 62
252
  6
CONTINUOUS
 10
-17.0962043782
 20
27.3882222018
 11
-17.0909077981
 21
27.4638507541
  0
LINE
  5
51D
100
AcDbEntity
  8
CURVE
100
AcDbLine
 62
252
  6
CONTINUOUS
 10
-18.0255386038
 20
10.0734719526
 11
-18.0243861401
 21
10.0872787718
  0
LINE
  5
51E
100
AcDbEntity
  8
CURVE
100
AcDbLine
 62
252
  6
CONTINUOUS
 10
-17.9799195633
 20
8.2660751942
 11
-17.9785512795
 21
8.2795860493
  0
LINE
  5
51F
100
AcDbEntity
  8
CURVE
100
AcDbLine
 62
252
  6
CONTINUOUS
 10
-16.2705556728
 20
24.2112691013
 11
-16.2725122408
 21
24.194638288
  0
LINE
  5
520
100
AcDbEntity
  8
CURVE
100
AcDbLine
 62
252
  6
CONTINUOUS
 10
-16.6739031244
 20
25.5239331434
 11
-16.6719052433
 21
25.5405775583
  0
LINE
  5
521
100
AcDbEntity
  8
CURVE
100
AcDbLine
 62
252
  6
CONTINUOUS
 10
-17.2139136257
 20
26.2814437261
 11
-17.2160614133
 21
26.2642142062
  0
LINE
  5
522
100
AcDbEntity
  8
CURVE
100
AcDbLine
 62
252
  6
CONTINUOUS
 10
-16.1716206458
 20
28.4773585382
 11
-16.1737708233
 21
28.4606266003
  0
LINE
  5
523
100
AcDbEntity
  8
CURVE
100
AcDbLine
 62
252
  6
CONTINUOUS
 10
-16.5631662097
 20
29.7968319331
 11
-16.5609742799
 21
29.8135787062
  0
LINE
  5
524
100
AcDbEntity
  8
CURVE
100
AcDbLine
 62
252
  6
CONTINUOUS
 10
-17.1579798007
 20
28.5675963831
 11
-17.1602387678
 21
28.5503890676
  0
LINE
  5
525
100
AcDbEntity
  8
CURVE
100
AcDbLine
 62
252
  6
CONTINUOUS
 10
-15.6288915821
 20
27.7215232465
 11
-15.6266044364
 21
27.738807752
  0
LINE
  5
526
100
AcDbEntity
  8
CURVE
100
AcDbLine
 62
252
  6
CONTINUOUS
 10
-18.0243861401
 20
10.0872787718
 11
-18.0224278222
 21
10.10067967
  0
LINE
  5
527
100
AcDbEntity
  8
CURVE
100
AcDbLine
 62
252
  6
CONTINUOUS
 10
-17.0909077981
 20
27.4638507541
 11
-17.0798228755
 21
27.5348042336
  0
LINE
  5
528
100
AcDbEntity
  8
CURVE
100
AcDbLine
 62
252
  6
CONTINUOUS
 10
-15.7563192768
 20
26.5368799037
 11
-15.7679863351
 21
26.4660122836
  0
LINE
  5
529
100
AcDbEntity
  8
CURVE
100
AcDbLine
 62
252
  6
CONTINUOUS
 10
-16.2725122408
 20
24.194638288
 11
-16.2755633219
 21
24.1787149156
  0
LINE
  5
52A
100
AcDbEntity
  8
CURVE
100
AcDbLine
 62
252
  6
CONTINUOUS
 10
-16.6719052433
 20
25.5405775583
 11
-16.668817005
 21
25.5565087192
  0
LINE
  5
52B
100
AcDbEntity
  8
CURVE
100
AcDbLine
 62
252
  6
CONTINUOUS
 10
-15.2479904991
 20
26.3624435208
 11
-15.2447796913
 21
26.3784984993
  0
LINE
  5
52C
100
AcDbEntity
  8
CURVE
100
AcDbLine
 62
252
  6
CONTINUOUS
 10
-16.1737708233
 20
28.4606266003
 11
-16.177013777
 21
28.4446085788
  0
LINE
  5
52D
100
AcDbEntity
  8
CURVE
100
AcDbLine
 62
252
  6
CONTINUOUS
 10
-15.6828556775
 20
25.4523490908
 11
-15.6794724066
 21
25.4688299209
  0
LINE
  5
52E
100
AcDbEntity
  8
CURVE
100
AcDbLine
 62
252
  6
CONTINUOUS
 10
-15.6266044364
 20
27.738807752
 11
-15.6231294256
 21
27.7553268433
  0
LINE
  5
52F
100
AcDbEntity
  8
CURVE
100
AcDbLine
 62
252
  6
CONTINUOUS
 10
-14.5479982018
 20
27.8041771458
 11
-14.5515281945
 21
27.787557643
  0
LINE
  5
530
100
AcDbEntity
  8
CURVE
100
AcDbLine
 62
252
  6
CONTINUOUS
 10
-16.2755633219
 20
24.1787149156
 11
-16.2796971598
 21
24.163606665
  0
LINE
  5
531
100
AcDbEntity
  8
CURVE
100
AcDbLine
 62
252
  6
CONTINUOUS
 10
-15.7679863351
 20
26.4660122836
 11
-15.7859781662
 21
26.4003539086
  0
LINE
  5
532
100
AcDbEntity
  8
CURVE
100
AcDbLine
 62
252
  6
CONTINUOUS
 10
-15.2447796913
 20
26.3784984993
 11
-15.2404686671
 21
26.3937642014
  0
LINE
  5
533
100
AcDbEntity
  8
CURVE
100
AcDbLine
 62
252
  6
CONTINUOUS
 10
-15.6794724066
 20
25.4688299209
 11
-15.6749023686
 21
25.4844785185
  0
LINE
  5
534
100
AcDbEntity
  8
CURVE
100
AcDbLine
 62
252
  6
CONTINUOUS
 10
-15.6231294256
 20
27.7553268433
 11
-15.6184789098
 21
27.7709721941
  0
LINE
  5
535
100
AcDbEntity
  8
CURVE
100
AcDbLine
 62
252
  6
CONTINUOUS
 10
-14.5515281945
 20
27.787557643
 11
-14.5562334626
 21
27.7718652691
  0
LINE
  5
536
100
AcDbEntity
  8
CURVE
100
AcDbLine
 62
252
  6
CONTINUOUS
 10
-16.2796971598
 20
24.163606665
 11
-16.2848920395
 21
24.1494214286
  0
LINE
  5
537
100
AcDbEntity
  8
CURVE
100
AcDbLine
 62
252
  6
CONTINUOUS
 10
-15.2404686671
 20
26.3937642014
 11
-15.2355983676
 21
26.4068971475
  0
LINE
  5
538
100
AcDbEntity
  8
CURVE
100
AcDbLine
 62
252
  6
CONTINUOUS
 10
-14.5562334626
 20
27.7718652691
 11
-14.5592988592
 21
27.7637030321
  0
LINE
  5
539
100
AcDbEntity
  8
CURVE
100
AcDbLine
 62
252
  6
CONTINUOUS
 10
-13.9262647847
 20
25.5222573078
 11
-13.9315326594
 21
25.5083266618
  0
LINE
  5
53A
100
AcDbEntity
  8
CURVE
100
AcDbLine
 62
252
  6
CONTINUOUS
 10
-14.6467499732
 20
24.0214638587
 11
-14.6525034633
 21
24.0067121013
  0
LINE
  5
53B
100
AcDbEntity
  8
CURVE
100
AcDbLine
 62
252
  6
CONTINUOUS
 10
-15.6749023686
 20
25.4844785185
 11
-15.669172867
 21
25.4991537191
  0
LINE
  5
53C
100
AcDbEntity
  8
CURVE
100
AcDbLine
 62
252
  6
CONTINUOUS
 10
-14.6525034633
 20
24.0067121013
 11
-14.6558644656
 21
23.9996252377
  0
LINE
  5
53D
100
AcDbEntity
  8
CURVE
100
AcDbLine
 62
252
  6
CONTINUOUS
 10
-13.9315326594
 20
25.5083266618
 11
-13.9379798173
 21
25.495012413
  0
LINE
  5
53E
100
AcDbEntity
  8
CURVE
100
AcDbLine
 62
252
  6
CONTINUOUS
 10
-14.6558644656
 20
23.9996252377
 11
-14.6632850866
 21
23.986599384
  0
LINE
  5
53F
100
AcDbEntity
  8
CURVE
100
AcDbLine
 62
252
  6
CONTINUOUS
 10
-13.9379798173
 20
25.495012413
 11
-13.9454124532
 21
25.4828371208
  0
LWPOLYLINE
  5
540
100
AcDbEntity
  8
RACCORDO
100
AcDbPolyline
 62
253
  6
CONTINUOUS
 90
13
 70
0
 10
-18.4752888743
 20
17.7532061711
 10
-18.5130403802
 20
17.7293663478
 10
-18.5501071459
 20
17.7003967163
 10
-18.5858581104
 20
17.6667904839
 10
-18.6196846144
 20
17.629119796
 10
-18.6510107625
 20
17.5880259952
 10
-18.6793032276
 20
17.5442087024
 10
-18.7040803312
 20
17.4984139062
 10
-18.7249202436
 20
17.4514212618
 10
-18.7414681659
 20
17.4040308181
 10
-18.75344237
 20
17.3570493961
 10
-18.7606389953
 20
17.3112768537
 10
-18.7629355195
 20
17.2674924673
  0
LWPOLYLINE
  5
541
100
AcDbEntity
  8
ASSI
100
AcDbPolyline
 62
253
  6
CONTINUOUS
 90
13
 70
0
 10
-18.4752888743
 20
17.7532061711
 10
-18.5130403802
 20
17.7293663478
 10
-18.5501071459
 20
17.7003967163
 10
-18.5858581104
 20
17.6667904839
 10
-18.6196846144
 20
17.629119796
 10
-18.6510107625
 20
17.5880259952
 10
-18.6793032276
 20
17.5442087024
 10
-18.7040803312
 20
17.4984139062
 10
-18.7249202436
 20
17.4514212618
 10
-18.7414681659
 20
17.4040308181
 10
-18.75344237
 20
17.3570493961
 10
-18.7606389953
 20
17.3112768537
 10
-18.7629355195
 20
17.2674924673
  0
LINE
  5
542
100
AcDbEntity
  8
RACCORDO
100
AcDbLine
 62
253
  6
CONTINUOUS
 10
-16.4548258877
 20
18.9401553061
 11
-18.4751806497
 21
17.7531414539
  0
LINE
  5
543
100
AcDbEntity
  8
ASSI
100
AcDbLine
 62
253
  6
CONTINUOUS
 10
-16.4548258877
 20
18.9401553061
 11
-18.4751806497
 21
17.7531414539
  0
LWPOLYLINE
  5
544
100
AcDbEntity
  8
RACCORDO
100
AcDbPolyline
 62
253
  6
CONTINUOUS
 90
16
 70
0
 10
-8.5433341576
 20
13.4668310035
 10
-8.5355134749
 20
13.46341576
 10
-8.5273048763
 20
13.4604993297
 10
-8.5187083618
 20
13.4580817128
 10
-8.5096311332
 20
13.4561474291
 10
-8.5001659886
 20
13.4547119587
 10
-8.490591323
 20
13.453821742
 10
-8.4809086497
 20
13.4534942498
 10
-8.4711164553
 20
13.4537120114
 10
-8.4614885946
 20
13.4544690548
 10
-8.4520271911
 20
13.4557818856
 10
-8.4427301213
 20
13.4576339982
 10
-8.4338648683
 20
13.4599699046
 10
-8.4255205935
 20
13.4627711086
 10
-8.4176081355
 20
13.4660561064
 10
-8.4101274945
 20
13.4698248978
  0
LWPOLYLINE
  5
545
100
AcDbEntity
  8
ASSI
100
AcDbPolyline
 62
253
  6
CONTINUOUS
 90
16
 70
0
 10
-8.5433341576
 20
13.4668310035
 10
-8.5355134749
 20
13.46341576
 10
-8.5273048763
 20
13.4604993297
 10
-8.5187083618
 20
13.4580817128
 10
-8.5096311332
 20
13.4561474291
 10
-8.5001659886
 20
13.4547119587
 10
-8.490591323
 20
13.453821742
 10
-8.4809086497
 20
13.4534942498
 10
-8.4711164553
 20
13.4537120114
 10
-8.4614885946
 20
13.4544690548
 10
-8.4520271911
 20
13.4557818856
 10
-8.4427301213
 20
13.4576339982
 10
-8.4338648683
 20
13.4599699046
 10
-8.4255205935
 20
13.4627711086
 10
-8.4176081355
 20
13.4660561064
 10
-8.4101274945
 20
13.4698248978
  0
LWPOLYLINE
  5
546
100
AcDbEntity
  8
RACCORDO
100
AcDbPolyline
 62
253
  6
CONTINUOUS
 90
16
 70
0
 10
-8.7983535085
 20
12.9645509575
 10
-8.7596601686
 20
12.9475582445
 10
-8.7182979958
 20
12.9328293462
 10
-8.6746597991
 20
12.9205020495
 10
-8.6291640376
 20
12.910692478
 10
-8.5822373265
 20
12.9034901098
 10
-8.5343091269
 20
12.8989595753
 10
-8.4858250058
 20
12.8971445423
 10
-8.4372495057
 20
12.898063797
 10
-8.3890473627
 20
12.9017078553
 10
-8.3416790623
 20
12.9080415536
 10
-8.2955862525
 20
12.9170052592
 10
-8.2511944871
 20
12.9285156649
 10
-8.2089209978
 20
12.9424663734
 10
-8.1691696275
 20
12.9587270142
 10
-8.1323174273
 20
12.9771455234
  0
LWPOLYLINE
  5
547
100
AcDbEntity
  8
ASSI
100
AcDbPolyline
 62
253
  6
CONTINUOUS
 90
16
 70
0
 10
-8.7983535085
 20
12.9645509575
 10
-8.7596601686
 20
12.9475582445
 10
-8.7182979958
 20
12.9328293462
 10
-8.6746597991
 20
12.9205020495
 10
-8.6291640376
 20
12.910692478
 10
-8.5822373265
 20
12.9034901098
 10
-8.5343091269
 20
12.8989595753
 10
-8.4858250058
 20
12.8971445423
 10
-8.4372495057
 20
12.898063797
 10
-8.3890473627
 20
12.9017078553
 10
-8.3416790623
 20
12.9080415536
 10
-8.2955862525
 20
12.9170052592
 10
-8.2511944871
 20
12.9285156649
 10
-8.2089209978
 20
12.9424663734
 10
-8.1691696275
 20
12.9587270142
 10
-8.1323174273
 20
12.9771455234
  0
LWPOLYLINE
  5
548
100
AcDbEntity
  8
RACCORDO
100
AcDbPolyline
 62
7
  6
CONTINUOUS
 90
13
 70
0
 10
-8.7158778641
 20
13.7313782663
 10
-8.7084754729
 20
13.7278490143
 10
-8.6649248108
 20
13.7098783484
 10
-8.6205196839
 20
13.6960221402
 10
-8.574551206
 20
13.6858988861
 10
-8.5273503985
 20
13.6796256423
 10
-8.4804813395
 20
13.6773078985
 10
-8.4335599378
 20
13.67883111
 10
-8.3862061576
 20
13.6843182767
 10
-8.3400121519
 20
13.693674112
 10
-8.2953265577
 20
13.7068028809
 10
-8.2513981084
 20
13.7240641774
 10
-8.218077211
 20
13.7404495885
  0
LWPOLYLINE
  5
549
100
AcDbEntity
  8
ASSI
100
AcDbPolyline
 62
7
  6
CONTINUOUS
 90
13
 70
0
 10
-8.7158778641
 20
13.7313782663
 10
-8.7084754729
 20
13.7278490143
 10
-8.6649248108
 20
13.7098783484
 10
-8.6205196839
 20
13.6960221402
 10
-8.574551206
 20
13.6858988861
 10
-8.5273503985
 20
13.6796256423
 10
-8.4804813395
 20
13.6773078985
 10
-8.4335599378
 20
13.67883111
 10
-8.3862061576
 20
13.6843182767
 10
-8.3400121519
 20
13.693674112
 10
-8.2953265577
 20
13.7068028809
 10
-8.2513981084
 20
13.7240641774
 10
-8.218077211
 20
13.7404495885
  0
LWPOLYLINE
  5
54A
100
AcDbEntity
  8
RACCORDO
100
AcDbPolyline
 62
253
  6
CONTINUOUS
 90
13
 70
0
 10
-13.9852762789
 20
15.1607247527
 10
-13.9057775846
 20
15.1209474506
 10
-13.826545025
 20
15.0876020356
 10
-13.7479590278
 20
15.0608813205
 10
-13.6703361242
 20
15.040947293
 10
-13.5941165613
 20
15.0279351053
 10
-13.5198524371
 20
15.0219118299
 10
-13.4479443912
 20
15.0228985017
 10
-13.378678026
 20
15.0308752803
 10
-13.3124086812
 20
15.0457685457
 10
-13.249453166
 20
15.0675048244
 10
-13.190103004
 20
15.0959792232
 10
-13.178527041
 20
15.1025665074
  0
LWPOLYLINE
  5
54B
100
AcDbEntity
  8
ASSI
100
AcDbPolyline
 62
253
  6
CONTINUOUS
 90
13
 70
0
 10
-13.9852762789
 20
15.1607247527
 10
-13.9057775846
 20
15.1209474506
 10
-13.826545025
 20
15.0876020356
 10
-13.7479590278
 20
15.0608813205
 10
-13.6703361242
 20
15.040947293
 10
-13.5941165613
 20
15.0279351053
 10
-13.5198524371
 20
15.0219118299
 10
-13.4479443912
 20
15.0228985017
 10
-13.378678026
 20
15.0308752803
 10
-13.3124086812
 20
15.0457685457
 10
-13.249453166
 20
15.0675048244
 10
-13.190103004
 20
15.0959792232
 10
-13.1784090183
 20
15.1026355509
  0
LWPOLYLINE
  5
54C
100
AcDbEntity
  8
RACCORDO
100
AcDbPolyline
 62
253
  6
CONTINUOUS
 90
19
 70
0
 10
-14.2580644518
 20
14.666436367
 10
-14.1576343327
 20
14.6155121296
 10
-14.0584925576
 20
14.5731012144
 10
-13.9606427166
 20
14.5392015134
 10
-13.8635612793
 20
14.5137130778
 10
-13.7677762464
 20
14.4967332144
 10
-13.6748727505
 20
14.4885531405
 10
-13.584974541
 20
14.4893235171
 10
-13.497970193
 20
14.4988862541
 10
-13.4150999368
 20
14.5170647242
 10
-13.3364326078
 20
14.543962481
 10
-13.2619146545
 20
14.5794666835
 10
-13.1926084204
 20
14.6230726983
 10
-13.128564435
 20
14.6749392651
 10
-13.0697478843
 20
14.734898049
 10
-13.0170974359
 20
14.8019512251
 10
-12.9709319072
 20
14.8757625897
 10
-12.9309471449
 20
14.9566594064
 10
-12.8971481803
 20
15.0446385832
  0
LWPOLYLINE
  5
54D
100
AcDbEntity
  8
ASSI
100
AcDbPolyline
 62
253
  6
CONTINUOUS
 90
19
 70
0
 10
-14.2580644518
 20
14.666436367
 10
-14.1576343327
 20
14.6155121296
 10
-14.0584925576
 20
14.5731012144
 10
-13.9606427166
 20
14.5392015134
 10
-13.8635612793
 20
14.5137130778
 10
-13.7677762464
 20
14.4967332144
 10
-13.6748727505
 20
14.4885531405
 10
-13.584974541
 20
14.4893235171
 10
-13.497970193
 20
14.4988862541
 10
-13.4150999368
 20
14.5170647242
 10
-13.3364326078
 20
14.543962481
 10
-13.2619146545
 20
14.5794666835
 10
-13.1926084204
 20
14.6230726983
 10
-13.128564435
 20
14.6749392651
 10
-13.0697478843
 20
14.734898049
 10
-13.0170974359
 20
14.8019512251
 10
-12.9709319072
 20
14.8757625897
 10
-12.9309471449
 20
14.9566594064
 10
-12.8971481803
 20
15.0446385832
  0
LWPOLYLINE
  5
54E
100
AcDbEntity
  8
RACCORDO
100
AcDbPolyline
 62
253
  6
CONTINUOUS
 90
7
 70
0
 10
-12.8971481803
 20
15.0446385832
 10
-12.2255386189
 20
14.6906672229
 10
-11.5492914964
 20
14.3395972883
 10
-10.8684278831
 20
13.9914398892
 10
-10.1829691578
 20
13.6462059356
 10
-9.4929370897
 20
13.3039060866
 10
-8.7983534681
 20
12.9645509835
  0
LWPOLYLINE
  5
54F
100
AcDbEntity
  8
ASSI
100
AcDbPolyline
 62
253
  6
CONTINUOUS
 90
7
 70
0
 10
-12.8971481803
 20
15.0446385832
 10
-12.2255386189
 20
14.6906672229
 10
-11.5492914964
 20
14.3395972883
 10
-10.8684278831
 20
13.9914398892
 10
-10.1829691578
 20
13.6462059356
 10
-9.4929370897
 20
13.3039060866
 10
-8.7983534681
 20
12.9645509835
  0
LWPOLYLINE
  5
550
100
AcDbEntity
  8
RACCORDO
100
AcDbPolyline
 62
253
  6
CONTINUOUS
 90
10
 70
0
 10
-18.762935524
 20
17.2674924648
 10
-18.2740164857
 20
16.9716759784
 10
-17.7821748434
 20
16.677552142
 10
-17.2874200713
 20
16.3851264826
 10
-16.7897684276
 20
16.0944084684
 10
-16.2892226836
 20
15.8053996335
 10
-15.7857719412
 20
15.5180936841
 10
-15.2794188598
 20
15.232492219
 10
-14.7701798388
 20
14.9486046239
 10
-14.2580644518
 20
14.666436367
  0
LWPOLYLINE
  5
551
100
AcDbEntity
  8
ASSI
100
AcDbPolyline
 62
253
  6
CONTINUOUS
 90
10
 70
0
 10
-18.762935524
 20
17.2674924648
 10
-18.2740164857
 20
16.9716759784
 10
-17.7821748434
 20
16.677552142
 10
-17.2874200713
 20
16.3851264826
 10
-16.7897684276
 20
16.0944084684
 10
-16.2892226836
 20
15.8053996335
 10
-15.7857719412
 20
15.5180936841
 10
-15.2794188598
 20
15.232492219
 10
-14.7701798388
 20
14.9486046239
 10
-14.2580644518
 20
14.666436367
  0
LWPOLYLINE
  5
552
100
AcDbEntity
  8
RACCORDO
100
AcDbPolyline
 62
253
  6
CONTINUOUS
 90
10
 70
0
 10
-18.4751806497
 20
17.7531414539
 10
-17.9878958743
 20
17.4583239809
 10
-17.4977040703
 20
17.1651943641
 10
-17.0046052376
 20
16.8737526033
 10
-16.508587903
 20
16.5839920756
 10
-16.0096635397
 20
16.295919404
 10
-15.5078665677
 20
16.0095544576
 10
-15.0032084605
 20
15.7249038592
 10
-14.4956777447
 20
15.441960986
 10
-13.9852744203
 20
15.1607258379
  0
LWPOLYLINE
  5
553
100
AcDbEntity
  8
ASSI
100
AcDbPolyline
 62
253
  6
CONTINUOUS
 90
10
 70
0
 10
-18.4751806497
 20
17.7531414539
 10
-17.9878958743
 20
17.4583239809
 10
-17.4977040703
 20
17.1651943641
 10
-17.0046052376
 20
16.8737526033
 10
-16.508587903
 20
16.5839920756
 10
-16.0096635397
 20
16.295919404
 10
-15.5078665677
 20
16.0095544576
 10
-15.0032084605
 20
15.7249038592
 10
-14.4956777447
 20
15.441960986
 10
-13.9852744203
 20
15.1607258379
  0
LWPOLYLINE
  5
554
100
AcDbEntity
  8
RACCORDO
100
AcDbPolyline
 62
253
  6
CONTINUOUS
 90
7
 70
0
 10
-23.6477532351
 20
21.5384083014
 10
-23.059065843
 20
21.1368189639
 10
-22.4653632083
 20
20.7379065563
 10
-21.8666637575
 20
20.3416836755
 10
-21.262985947
 20
19.9481629059
 10
-20.6543486667
 20
19.5573566062
 10
-20.0407711513
 20
19.169276956
  0
LWPOLYLINE
  5
555
100
AcDbEntity
  8
ASSI
100
AcDbPolyline
 62
253
  6
CONTINUOUS
 90
7
 70
0
 10
-23.6477532351
 20
21.5384083014
 10
-23.059065843
 20
21.1368189639
 10
-22.4653632083
 20
20.7379065563
 10
-21.8666637575
 20
20.3416836755
 10
-21.262985947
 20
19.9481629059
 10
-20.6543486667
 20
19.5573566062
 10
-20.0407711513
 20
19.169276956
  0
LWPOLYLINE
  5
556
100
AcDbEntity
  8
RACCORDO
100
AcDbPolyline
 62
253
  6
CONTINUOUS
 90
6
 70
0
 10
-23.3441170238
 20
22.0126175602
 10
-22.757074755
 20
21.6121723136
 10
-22.1651704235
 20
21.214483682
 10
-21.5684040291
 20
20.8195516653
 10
-20.9667755719
 20
20.4273762636
 10
-20.3602850518
 20
20.0379574768
  0
LWPOLYLINE
  5
557
100
AcDbEntity
  8
ASSI
100
AcDbPolyline
 62
253
  6
CONTINUOUS
 90
6
 70
0
 10
-23.3441170238
 20
22.0126175602
 10
-22.757074755
 20
21.6121723136
 10
-22.1651704235
 20
21.214483682
 10
-21.5684040291
 20
20.8195516653
 10
-20.9667755719
 20
20.4273762636
 10
-20.3602850518
 20
20.0379574768
  0
LWPOLYLINE
  5
558
100
AcDbEntity
  8
RACCORDO
100
AcDbPolyline
 62
253
  6
CONTINUOUS
 90
8
 70
0
 10
-23.6477532672
 20
22.4885522463
 10
-23.6772108348
 20
22.5108775785
 10
-23.7027647522
 20
22.5347339652
 10
-23.7241761759
 20
22.5598947222
 10
-23.7412442032
 20
22.5861181111
 10
-23.7538130205
 20
22.6131582965
 10
-23.7617687988
 20
22.6407684061
 10
-23.7649537496
 20
22.667991602
  0
LWPOLYLINE
  5
559
100
AcDbEntity
  8
ASSI
100
AcDbPolyline
 62
253
  6
CONTINUOUS
 90
8
 70
0
 10
-23.6477532672
 20
22.4885522463
 10
-23.6772108348
 20
22.5108775785
 10
-23.7027647522
 20
22.5347339652
 10
-23.7241761759
 20
22.5598947222
 10
-23.7412442032
 20
22.5861181111
 10
-23.7538130205
 20
22.6131582965
 10
-23.7617687988
 20
22.6407684061
 10
-23.7649537496
 20
22.667991602
  0
LWPOLYLINE
  5
55A
100
AcDbEntity
  8
RACCORDO
100
AcDbPolyline
 62
253
  6
CONTINUOUS
 90
7
 70
0
 10
-19.9591054296
 20
19.9416536481
 10
-19.9807544904
 20
19.9582664752
 10
-20.001657772
 20
19.9822889278
 10
-20.0186937671
 20
20.0117261521
 10
-20.0315019677
 20
20.046036578
 10
-20.0390256219
 20
20.0839849511
 10
-20.0407711513
 20
20.1244982146
  0
LWPOLYLINE
  5
55B
100
AcDbEntity
  8
ASSI
100
AcDbPolyline
 62
253
  6
CONTINUOUS
 90
7
 70
0
 10
-19.9591054296
 20
19.9416536481
 10
-19.9807544904
 20
19.9582664752
 10
-20.001657772
 20
19.9822889278
 10
-20.0186937671
 20
20.0117261521
 10
-20.0315019677
 20
20.046036578
 10
-20.0390256219
 20
20.0839849511
 10
-20.0407711513
 20
20.1244982146
  0
LWPOLYLINE
  5
55C
100
AcDbEntity
  8
RACCORDO
100
AcDbPolyline
 62
253
  6
CONTINUOUS
 90
7
 70
0
 10
-23.5681088251
 20
22.3071291093
 10
-23.5851697209
 20
22.3207297845
 10
-23.6071956574
 20
22.3455015419
 10
-23.6247212696
 20
22.3752105786
 10
-23.6374495483
 20
22.4093534115
 10
-23.6451647853
 20
22.4473514173
 10
-23.6477362291
 20
22.4885606384
  0
LWPOLYLINE
  5
55D
100
AcDbEntity
  8
ASSI
100
AcDbPolyline
 62
253
  6
CONTINUOUS
 90
7
 70
0
 10
-23.5681088251
 20
22.3071291093
 10
-23.5851697209
 20
22.3207297845
 10
-23.6071956574
 20
22.3455015419
 10
-23.6247212696
 20
22.3752105786
 10
-23.6374495483
 20
22.4093534115
 10
-23.6451647853
 20
22.4473514173
 10
-23.6477362291
 20
22.4885606384
  0
LINE
  5
55E
100
AcDbEntity
  8
CURVE
100
AcDbLine
 62
252
  6
CONTINUOUS
 10
-14.8785812833
 20
8.3624330508
 11
-14.875510312
 21
8.3553268211
  0
LINE
  5
55F
100
AcDbEntity
  8
CURVE
100
AcDbLine
 62
252
  6
CONTINUOUS
 10
-14.875510312
 20
8.3553268211
 11
-14.8687359374
 21
8.3384471701
  0
LINE
  5
560
100
AcDbEntity
  8
CURVE
100
AcDbLine
 62
252
  6
CONTINUOUS
 10
-14.8245450828
 20
6.5279037739
 11
-14.8186012121
 21
6.5115890275
  0
LINE
  5
561
100
AcDbEntity
  8
CURVE
100
AcDbLine
 62
252
  6
CONTINUOUS
 10
-14.8687359374
 20
8.3384471701
 11
-14.8627059998
 21
8.3216096601
  0
LINE
  5
562
100
AcDbEntity
  8
CURVE
100
AcDbLine
 62
252
  6
CONTINUOUS
 10
-15.614485456
 20
8.3030139268
 11
-15.6202677923
 21
8.3192901223
  0
LINE
  5
563
100
AcDbEntity
  8
CURVE
100
AcDbLine
 62
252
  6
CONTINUOUS
 10
-16.2777856744
 20
10.0278141082
 11
-16.2734231551
 21
10.014841737
  0
LINE
  5
564
100
AcDbEntity
  8
CURVE
100
AcDbLine
 62
252
  6
CONTINUOUS
 10
-14.8186012121
 20
6.5115890275
 11
-14.8145479671
 21
6.4991422349
  0
LINE
  5
565
100
AcDbEntity
  8
CURVE
100
AcDbLine
 62
252
  6
CONTINUOUS
 10
-14.8627059998
 20
8.3216096601
 11
-14.8574250842
 21
8.3048282921
  0
LINE
  5
566
100
AcDbEntity
  8
CURVE
100
AcDbLine
 62
252
  6
CONTINUOUS
 10
-15.6202677923
 20
8.3192901223
 11
-15.625344356
 21
8.3354689267
  0
LINE
  5
567
100
AcDbEntity
  8
CURVE
100
AcDbLine
 62
252
  6
CONTINUOUS
 10
-16.0041139449
 20
8.1721961178
 11
-15.9959869924
 21
8.1455430745
  0
LINE
  5
568
100
AcDbEntity
  8
CURVE
100
AcDbLine
 62
252
  6
CONTINUOUS
 10
-16.2734231551
 20
10.014841737
 11
-16.2685675345
 21
9.9986466891
  0
LINE
  5
569
100
AcDbEntity
  8
CURVE
100
AcDbLine
 62
252
  6
CONTINUOUS
 10
-14.8145479671
 20
6.4991422349
 11
-14.8121668915
 21
6.4911917362
  0
LINE
  5
56A
100
AcDbEntity
  8
CURVE
100
AcDbLine
 62
252
  6
CONTINUOUS
 10
-15.5895649739
 20
6.999943922
 11
-15.5944113333
 21
7.0169538707
  0
LINE
  5
56B
100
AcDbEntity
  8
CURVE
100
AcDbLine
 62
252
  6
CONTINUOUS
 10
-14.8574250842
 20
8.3048282921
 11
-14.8552870108
 21
8.2972706212
  0
LINE
  5
56C
100
AcDbEntity
  8
CURVE
100
AcDbLine
 62
252
  6
CONTINUOUS
 10
-15.9959869924
 20
8.1455430745
 11
-15.9889721463
 21
8.1195967349
  0
LINE
  5
56D
100
AcDbEntity
  8
CURVE
100
AcDbLine
 62
252
  6
CONTINUOUS
 10
-15.625344356
 20
8.3354689267
 11
-15.6297183399
 21
8.3517136895
  0
LINE
  5
56E
100
AcDbEntity
  8
CURVE
100
AcDbLine
 62
252
  6
CONTINUOUS
 10
-14.8121668915
 20
6.4911917362
 11
-14.8075821133
 21
6.4741426577
  0
LINE
  5
56F
100
AcDbEntity
  8
CURVE
100
AcDbLine
 62
252
  6
CONTINUOUS
 10
-16.6562378902
 20
9.5866601388
 11
-16.6603253474
 21
9.6024865002
  0
LINE
  5
570
100
AcDbEntity
  8
CURVE
100
AcDbLine
 62
252
  6
CONTINUOUS
 10
-16.2685675345
 20
9.9986466891
 11
-16.2644811772
 21
9.9828180716
  0
LINE
  5
571
100
AcDbEntity
  8
CURVE
100
AcDbLine
 62
252
  6
CONTINUOUS
 10
-15.5944113333
 20
7.0169538707
 11
-15.5958985286
 21
7.022764506
  0
LINE
  5
572
100
AcDbEntity
  8
CURVE
100
AcDbLine
 62
252
  6
CONTINUOUS
 10
-14.8552870108
 20
8.2972706212
 11
-14.8511318627
 21
8.2806981519
  0
LINE
  5
573
100
AcDbEntity
  8
CURVE
100
AcDbLine
 62
252
  6
CONTINUOUS
 10
-15.9889721463
 20
8.1195967349
 11
-15.9830647216
 21
8.0944091799
  0
LINE
  5
574
100
AcDbEntity
  8
CURVE
100
AcDbLine
 62
252
  6
CONTINUOUS
 10
-15.5958985286
 20
7.022764506
 11
-15.5996879319
 21
7.0394916557
  0
LINE
  5
575
100
AcDbEntity
  8
CURVE
100
AcDbLine
 62
252
  6
CONTINUOUS
 10
-14.8075821133
 20
6.4741426577
 11
-14.8038518244
 21
6.4576060749
  0
LINE
  5
576
100
AcDbEntity
  8
CURVE
100
AcDbLine
 62
252
  6
CONTINUOUS
 10
-15.6297183399
 20
8.3517136895
 11
-15.6333608211
 21
8.3679498409
  0
LINE
  5
577
100
AcDbEntity
  8
CURVE
100
AcDbLine
 62
252
  6
CONTINUOUS
 10
-16.1877045981
 20
6.8397465778
 11
-16.1842962308
 21
6.8244833573
  0
LINE
  5
578
100
AcDbEntity
  8
CURVE
100
AcDbLine
 62
252
  6
CONTINUOUS
 10
-16.6603253474
 20
9.6024865002
 11
-16.6636258692
 21
9.6178107872
  0
LINE
  5
579
100
AcDbEntity
  8
CURVE
100
AcDbLine
 62
252
  6
CONTINUOUS
 10
-16.2644811772
 20
9.9828180716
 11
-16.2611776976
 21
9.9674572683
  0
LINE
  5
57A
100
AcDbEntity
  8
CURVE
100
AcDbLine
 62
252
  6
CONTINUOUS
 10
-16.8674160881
 20
8.3464346684
 11
-16.8730421903
 21
8.3737858671
  0
LINE
  5
57B
100
AcDbEntity
  8
CURVE
100
AcDbLine
 62
252
  6
CONTINUOUS
 10
-14.8511318627
 20
8.2806981519
 11
-14.8477893406
 21
8.2644289363
  0
LINE
  5
57C
100
AcDbEntity
  8
CURVE
100
AcDbLine
 62
252
  6
CONTINUOUS
 10
-15.9830647216
 20
8.0944091799
 11
-15.9782552112
 21
8.0700193652
  0
LINE
  5
57D
100
AcDbEntity
  8
CURVE
100
AcDbLine
 62
252
  6
CONTINUOUS
 10
-15.5996879319
 20
7.0394916557
 11
-15.6026774351
 21
7.0559404035
  0
LINE
  5
57E
100
AcDbEntity
  8
CURVE
100
AcDbLine
 62
252
  6
CONTINUOUS
 10
-14.8038518244
 20
6.4576060749
 11
-14.8009756215
 21
6.4416472429
  0
LINE
  5
57F
100
AcDbEntity
  8
CURVE
100
AcDbLine
 62
252
  6
CONTINUOUS
 10
-16.5817008343
 20
6.477662357
 11
-16.5843412739
 21
6.4923717933
  0
LINE
  5
580
100
AcDbEntity
  8
CURVE
100
AcDbLine
 62
252
  6
CONTINUOUS
 10
-15.6333608211
 20
8.3679498409
 11
-15.6362450081
 21
8.3840957515
  0
LINE
  5
581
100
AcDbEntity
  8
CURVE
100
AcDbLine
 62
252
  6
CONTINUOUS
 10
-16.1842962308
 20
6.8244833573
 11
-16.1816733238
 21
6.8097645078
  0
LINE
  5
582
100
AcDbEntity
  8
CURVE
100
AcDbLine
 62
252
  6
CONTINUOUS
 10
-17.2447442782
 20
9.4048485438
 11
-17.2418546605
 21
9.3883677028
  0
LINE
  5
583
100
AcDbEntity
  8
CURVE
100
AcDbLine
 62
252
  6
CONTINUOUS
 10
-16.8730421903
 20
8.3737858671
 11
-16.877840752
 21
8.4018442153
  0
LINE
  5
584
100
AcDbEntity
  8
CURVE
100
AcDbLine
 62
252
  6
CONTINUOUS
 10
-16.6636258692
 20
9.6178107872
 11
-16.6661440428
 21
9.632589024
  0
LINE
  5
585
100
AcDbEntity
  8
CURVE
100
AcDbLine
 62
252
  6
CONTINUOUS
 10
-16.2611776976
 20
9.9674572683
 11
-16.2586606807
 21
9.952647409
  0
LINE
  5
586
100
AcDbEntity
  8
CURVE
100
AcDbLine
 62
252
  6
CONTINUOUS
 10
-18.8636230491
 20
28.3735169703
 11
-18.866955389
 21
28.393147636
  0
LINE
  5
587
100
AcDbEntity
  8
CURVE
100
AcDbLine
 62
252
  6
CONTINUOUS
 10
-15.9782552112
 20
8.0700193652
 11
-15.974318464
 21
8.0453964506
  0
LINE
  5
588
100
AcDbEntity
  8
CURVE
100
AcDbLine
 62
252
  6
CONTINUOUS
 10
-17.2099198648
 20
8.0678388503
 11
-17.2074053258
 21
8.0519574319
  0
LINE
  5
589
100
AcDbEntity
  8
CURVE
100
AcDbLine
 62
252
  6
CONTINUOUS
 10
-15.6026774351
 20
7.0559404035
 11
-15.6048589958
 21
7.0720567848
  0
LINE
  5
58A
100
AcDbEntity
  8
CURVE
100
AcDbLine
 62
252
  6
CONTINUOUS
 10
-16.877840752
 20
8.4018442153
 11
-16.8815012794
 21
8.4294322286
  0
LINE
  5
58B
100
AcDbEntity
  8
CURVE
100
AcDbLine
 62
252
  6
CONTINUOUS
 10
-16.5843412739
 20
6.4923717933
 11
-16.5862009196
 21
6.5064662185
  0
LINE
  5
58C
100
AcDbEntity
  8
CURVE
100
AcDbLine
 62
252
  6
CONTINUOUS
 10
-15.6362450081
 20
8.3840957515
 11
-15.6383474951
 21
8.4000640559
  0
LINE
  5
58D
100
AcDbEntity
  8
CURVE
100
AcDbLine
 62
252
  6
CONTINUOUS
 10
-16.1816733238
 20
6.8097645078
 11
-16.1798281042
 21
6.7956223834
  0
LINE
  5
58E
100
AcDbEntity
  8
CURVE
100
AcDbLine
 62
252
  6
CONTINUOUS
 10
-17.2418546605
 20
9.3883677028
 11
-17.239758868
 21
9.37222988
  0
LINE
  5
58F
100
AcDbEntity
  8
CURVE
100
AcDbLine
 62
252
  6
CONTINUOUS
 10
-18.259307184
 20
26.1253124662
 11
-18.2618461966
 21
26.1452125859
  0
LINE
  5
590
100
AcDbEntity
  8
CURVE
100
AcDbLine
 62
252
  6
CONTINUOUS
 10
-15.974318464
 20
8.0453964506
 11
-15.9708954502
 21
8.0183258252
  0
LINE
  5
591
100
AcDbEntity
  8
CURVE
100
AcDbLine
 62
252
  6
CONTINUOUS
 10
-16.6661440428
 20
9.632589024
 11
-16.6678880008
 21
9.6467886549
  0
LINE
  5
592
100
AcDbEntity
  8
CURVE
100
AcDbLine
 62
252
  6
CONTINUOUS
 10
-16.2586606807
 20
9.952647409
 11
-16.2569257605
 21
9.9384540554
  0
LINE
  5
593
100
AcDbEntity
  8
CURVE
100
AcDbLine
 62
252
  6
CONTINUOUS
 10
-18.866955389
 20
28.393147636
 11
-18.8692131
 21
28.4122056025
  0
LINE
  5
594
100
AcDbEntity
  8
CURVE
100
AcDbLine
 62
252
  6
CONTINUOUS
 10
-17.2074053258
 20
8.0519574319
 11
-17.2056947242
 21
8.0365273876
  0
LINE
  5
595
100
AcDbEntity
  8
CURVE
100
AcDbLine
 62
252
  6
CONTINUOUS
 10
-14.8452739746
 20
8.2485679506
 11
-14.8435918917
 21
8.2332108194
  0
LINE
  5
596
100
AcDbEntity
  8
CURVE
100
AcDbLine
 62
252
  6
CONTINUOUS
 10
-15.7609513573
 20
26.7731555925
 11
-15.7530280452
 21
26.6913757545
  0
LINE
  5
597
100
AcDbEntity
  8
CURVE
100
AcDbLine
 62
252
  6
CONTINUOUS
 10
-15.6383474951
 20
8.4000640559
 11
-15.6390802833
 21
8.4077224446
  0
LINE
  5
598
100
AcDbEntity
  8
CURVE
100
AcDbLine
 62
252
  6
CONTINUOUS
 10
-17.0868993505
 20
27.2262305549
 11
-17.0947175376
 21
27.3084930136
  0
LINE
  5
599
100
AcDbEntity
  8
CURVE
100
AcDbLine
 62
252
  6
CONTINUOUS
 10
-15.6048589958
 20
7.0720567848
 11
-15.6062270873
 21
7.0877892407
  0
LINE
  5
59A
100
AcDbEntity
  8
CURVE
100
AcDbLine
 62
252
  6
CONTINUOUS
 10
-14.7989471265
 20
6.4263169507
 11
-14.7977559236
 21
6.4116532183
  0
LINE
  5
59B
100
AcDbEntity
  8
CURVE
100
AcDbLine
 62
252
  6
CONTINUOUS
 10
-15.6844203273
 20
25.3799371831
 11
-15.6858191343
 21
25.3990914234
  0
LINE
  5
59C
100
AcDbEntity
  8
CURVE
100
AcDbLine
 62
252
  6
CONTINUOUS
 10
-16.6929849567
 20
24.4374547429
 11
-16.6943107127
 21
24.4559492759
  0
LINE
  5
59D
100
AcDbEntity
  8
CURVE
100
AcDbLine
 62
252
  6
CONTINUOUS
 10
-17.2144906621
 20
26.336884187
 11
-17.2131285006
 21
26.3177378836
  0
LINE
  5
59E
100
AcDbEntity
  8
CURVE
100
AcDbLine
 62
252
  6
CONTINUOUS
 10
-16.2514320413
 20
25.2977747155
 11
-16.2501480463
 21
25.2792560701
  0
LINE
  5
59F
100
AcDbEntity
  8
CURVE
100
AcDbLine
 62
252
  6
CONTINUOUS
 10
-15.6286026173
 20
27.6659520401
 11
-15.6298897965
 21
27.68514164
  0
LINE
  5
5A0
100
AcDbEntity
  8
CURVE
100
AcDbLine
 62
252
  6
CONTINUOUS
 10
-15.249707576
 20
26.2922348253
 11
-15.2509458961
 21
26.3106988296
  0
LINE
  5
5A1
100
AcDbEntity
  8
CURVE
100
AcDbLine
 62
252
  6
CONTINUOUS
 10
-17.1582464926
 20
28.6230508006
 11
-17.1569878065
 21
28.6038018892
  0
LINE
  5
5A2
100
AcDbEntity
  8
CURVE
100
AcDbLine
 62
252
  6
CONTINUOUS
 10
-16.5942434369
 20
28.7034446672
 11
-16.5953754892
 21
28.7220388224
  0
LINE
  5
5A3
100
AcDbEntity
  8
CURVE
100
AcDbLine
 62
252
  6
CONTINUOUS
 10
-15.6390802833
 20
8.4077224446
 11
-15.639952373
 21
8.4227927806
  0
LINE
  5
5A4
100
AcDbEntity
  8
CURVE
100
AcDbLine
 62
252
  6
CONTINUOUS
 10
-16.1404924611
 20
29.571105885
 11
-16.139406269
 21
29.5523456439
  0
LINE
  5
5A5
100
AcDbEntity
  8
CURVE
100
AcDbLine
 62
252
  6
CONTINUOUS
 10
-14.8435918917
 20
8.2332108194
 11
-14.8427274122
 21
8.2180586498
  0
LINE
  5
5A6
100
AcDbEntity
  8
CURVE
100
AcDbLine
 62
252
  6
CONTINUOUS
 10
-14.7977559236
 20
6.4116532183
 11
-14.7972479892
 21
6.3972720175
  0
LINE
  5
5A7
100
AcDbEntity
  8
CURVE
100
AcDbLine
 62
252
  6
CONTINUOUS
 10
-16.1798281042
 20
6.7956223834
 11
-16.1635847207
 21
6.2874421083
  0
LINE
  5
5A8
100
AcDbEntity
  8
CURVE
100
AcDbLine
 62
252
  6
CONTINUOUS
 10
-15.6062270873
 20
7.0877892407
 11
-15.6066386988
 21
7.1029059737
  0
LINE
  5
5A9
100
AcDbEntity
  8
CURVE
100
AcDbLine
 62
252
  6
CONTINUOUS
 10
-16.2551903134
 20
9.9123122327
 11
-16.2450497021
 21
9.4277521415
  0
LINE
  5
5AA
100
AcDbEntity
  8
CURVE
100
AcDbLine
 62
252
  6
CONTINUOUS
 10
-15.7530280452
 20
26.6913757545
 11
-15.751489686
 21
26.6123795176
  0
LINE
  5
5AB
100
AcDbEntity
  8
CURVE
100
AcDbLine
 62
252
  6
CONTINUOUS
 10
-16.6943107127
 20
24.4559492759
 11
-16.6945440575
 21
24.4738047898
  0
LINE
  5
5AC
100
AcDbEntity
  8
CURVE
100
AcDbLine
 62
252
  6
CONTINUOUS
 10
-15.6858191343
 20
25.3990914234
 11
-15.6860242389
 21
25.417449949
  0
LINE
  5
5AD
100
AcDbEntity
  8
CURVE
100
AcDbLine
 62
252
  6
CONTINUOUS
 10
-16.2501480463
 20
25.2792560701
 11
-16.2499599766
 21
25.261374415
  0
LINE
  5
5AE
100
AcDbEntity
  8
CURVE
100
AcDbLine
 62
252
  6
CONTINUOUS
 10
-15.2509458961
 20
26.3106988296
 11
-15.2510734864
 21
26.3284274881
  0
LINE
  5
5AF
100
AcDbEntity
  8
CURVE
100
AcDbLine
 62
252
  6
CONTINUOUS
 10
-15.6298897965
 20
27.68514164
 11
-15.6299870166
 21
27.7035770997
  0
LINE
  5
5B0
100
AcDbEntity
  8
CURVE
100
AcDbLine
 62
252
  6
CONTINUOUS
 10
-15.639952373
 20
8.4227927806
 11
-15.6400179539
 21
8.4375762976
  0
LINE
  5
5B1
100
AcDbEntity
  8
CURVE
100
AcDbLine
 62
252
  6
CONTINUOUS
 10
-14.8427274122
 20
8.2180586498
 11
-14.842684243
 21
8.2033097494
  0
LINE
  5
5B2
100
AcDbEntity
  8
CURVE
100
AcDbLine
 62
252
  6
CONTINUOUS
 10
-16.5953754892
 20
28.7220388224
 11
-16.5954150767
 21
28.7400037083
  0
LINE
  5
5B3
100
AcDbEntity
  8
CURVE
100
AcDbLine
 62
252
  6
CONTINUOUS
 10
-16.139406269
 20
29.5523456439
 11
-16.1394171801
 21
29.5341635276
  0
LINE
  5
5B4
100
AcDbEntity
  8
CURVE
100
AcDbLine
 62
252
  6
CONTINUOUS
 10
-15.6066386988
 20
7.1029059737
 11
-15.6065735301
 21
7.1088420814
  0
LINE
  5
5B5
100
AcDbEntity
  8
CURVE
100
AcDbLine
 62
252
  6
CONTINUOUS
 10
-16.2499599766
 20
25.261374415
 11
-16.2696965904
 21
24.2285031876
  0
LINE
  5
5B6
100
AcDbEntity
  8
CURVE
100
AcDbLine
 62
252
  6
CONTINUOUS
 10
-16.8854934467
 20
8.5052670466
 11
-16.8847241457
 21
8.5304845313
  0
LINE
  5
5B7
100
AcDbEntity
  8
CURVE
100
AcDbLine
 62
252
  6
CONTINUOUS
 10
-16.1394171801
 20
29.5341635276
 11
-16.1705676097
 21
28.4947021061
  0
LINE
  5
5B8
100
AcDbEntity
  8
CURVE
100
AcDbLine
 62
252
  6
CONTINUOUS
 10
-16.2696965904
 20
24.2285031876
 11
-16.2705556728
 21
24.2112691013
  0
LINE
  5
5B9
100
AcDbEntity
  8
CURVE
100
AcDbLine
 62
252
  6
CONTINUOUS
 10
-15.6065735301
 20
7.1088420814
 11
-15.6058374545
 21
7.1232723608
  0
LINE
  5
5BA
100
AcDbEntity
  8
CURVE
100
AcDbLine
 62
252
  6
CONTINUOUS
 10
-15.6400179539
 20
8.4375762976
 11
-15.6392671285
 21
8.4519920798
  0
LINE
  5
5BB
100
AcDbEntity
  8
CURVE
100
AcDbLine
 62
252
  6
CONTINUOUS
 10
-14.635675705
 20
24.0885707009
 11
-14.6366288408
 21
24.0708612717
  0
LINE
  5
5BC
100
AcDbEntity
  8
CURVE
100
AcDbLine
 62
252
  6
CONTINUOUS
 10
-15.6860242389
 20
25.417449949
 11
-15.685039511
 21
25.4351771666
  0
LINE
  5
5BD
100
AcDbEntity
  8
CURVE
100
AcDbLine
 62
252
  6
CONTINUOUS
 10
-15.2510734864
 20
26.3284274881
 11
-15.2500891402
 21
26.3457153869
  0
LINE
  5
5BE
100
AcDbEntity
  8
CURVE
100
AcDbLine
 62
252
  6
CONTINUOUS
 10
-16.6024743268
 20
7.0146291584
 11
-16.6012791213
 21
7.03437728
  0
LINE
  5
5BF
100
AcDbEntity
  8
CURVE
100
AcDbLine
 62
252
  6
CONTINUOUS
 10
-15.6299870166
 20
27.7035770997
 11
-15.6288915821
 21
27.7215232465
  0
LINE
  5
5C0
100
AcDbEntity
  8
CURVE
100
AcDbLine
 62
252
  6
CONTINUOUS
 10
-14.5445228062
 20
27.8397781551
 11
-14.5456602529
 21
27.8216186729
  0
LINE
  5
5C1
100
AcDbEntity
  8
CURVE
100
AcDbLine
 62
252
  6
CONTINUOUS
 10
-15.751489686
 20
26.6123795176
 11
-15.7563192768
 21
26.5368799037
  0
LINE
  5
5C2
100
AcDbEntity
  8
CURVE
100
AcDbLine
 62
252
  6
CONTINUOUS
 10
-16.1635847207
 20
6.2874421083
 11
-16.1648859448
 21
6.2675309462
  0
LINE
  5
5C3
100
AcDbEntity
  8
CURVE
100
AcDbLine
 62
252
  6
CONTINUOUS
 10
-15.9652272137
 20
7.9547608364
 11
-15.9680281561
 21
7.914290082
  0
LINE
  5
5C4
100
AcDbEntity
  8
CURVE
100
AcDbLine
 62
252
  6
CONTINUOUS
 10
-16.6797936009
 20
10.1574735119
 11
-16.6784226823
 21
10.1771861021
  0
LINE
  5
5C5
100
AcDbEntity
  8
CURVE
100
AcDbLine
 62
252
  6
CONTINUOUS
 10
-16.2450497021
 20
9.4277521415
 11
-16.2465223648
 21
9.4078859735
  0
LINE
  5
5C6
100
AcDbEntity
  8
CURVE
100
AcDbLine
 62
252
  6
CONTINUOUS
 10
-17.2048247097
 20
7.9991065264
 11
-17.2058673442
 21
7.9852361043
  0
LINE
  5
5C7
100
AcDbEntity
  8
CURVE
100
AcDbLine
 62
252
  6
CONTINUOUS
 10
-16.8847241457
 20
8.5304845313
 11
-16.88278039
 21
8.5549063418
  0
LINE
  5
5C8
100
AcDbEntity
  8
CURVE
100
AcDbLine
 62
252
  6
CONTINUOUS
 10
-16.1648859448
 20
6.2675309462
 11
-16.1663986257
 21
6.2502892711
  0
LINE
  5
5C9
100
AcDbEntity
  8
CURVE
100
AcDbLine
 62
252
  6
CONTINUOUS
 10
-16.6012791213
 20
7.03437728
 11
-16.5997851251
 21
7.0512894541
  0
LINE
  5
5CA
100
AcDbEntity
  8
CURVE
100
AcDbLine
 62
252
  6
CONTINUOUS
 10
-15.9680281561
 20
7.914290082
 11
-15.9708416925
 21
7.8828501805
  0
LINE
  5
5CB
100
AcDbEntity
  8
CURVE
100
AcDbLine
 62
252
  6
CONTINUOUS
 10
-16.2465223648
 20
9.4078859735
 11
-16.2481936399
 21
9.3905695663
  0
LINE
  5
5CC
100
AcDbEntity
  8
CURVE
100
AcDbLine
 62
252
  6
CONTINUOUS
 10
-16.6784226823
 20
10.1771861021
 11
-16.6767705269
 21
10.1941858765
  0
LINE
  5
5CD
100
AcDbEntity
  8
CURVE
100
AcDbLine
 62
252
  6
CONTINUOUS
 10
-15.6392671285
 20
8.4519920798
 11
-15.6376956377
 21
8.4659543408
  0
LINE
  5
5CE
100
AcDbEntity
  8
CURVE
100
AcDbLine
 62
252
  6
CONTINUOUS
 10
-17.2389805288
 20
9.3205986502
 11
-17.2405542805
 21
9.3068592538
  0
LINE
  5
5CF
100
AcDbEntity
  8
CURVE
100
AcDbLine
 62
252
  6
CONTINUOUS
 10
-15.9708416925
 20
7.8828501805
 11
-15.9740256071
 21
7.8567749321
  0
LINE
  5
5D0
100
AcDbEntity
  8
CURVE
100
AcDbLine
 62
252
  6
CONTINUOUS
 10
-15.2500891402
 20
26.3457153869
 11
-15.2479904991
 21
26.3624435208
  0
LINE
  5
5D1
100
AcDbEntity
  8
CURVE
100
AcDbLine
 62
252
  6
CONTINUOUS
 10
-14.6366288408
 20
24.0708612717
 11
-14.6387933439
 21
24.0536819342
  0
LINE
  5
5D2
100
AcDbEntity
  8
CURVE
100
AcDbLine
 62
252
  6
CONTINUOUS
 10
-13.9165593708
 20
25.5702349158
 11
-13.918672616
 21
25.5535317472
  0
LINE
  5
5D3
100
AcDbEntity
  8
CURVE
100
AcDbLine
 62
252
  6
CONTINUOUS
 10
-15.685039511
 20
25.4351771666
 11
-15.6828556775
 21
25.4523490908
  0
LINE
  5
5D4
100
AcDbEntity
  8
CURVE
100
AcDbLine
 62
252
  6
CONTINUOUS
 10
-16.88278039
 20
8.5549063418
 11
-16.8798894958
 21
8.5775223256
  0
LINE
  5
5D5
100
AcDbEntity
  8
CURVE
100
AcDbLine
 62
252
  6
CONTINUOUS
 10
-16.1663986257
 20
6.2502892711
 11
-16.1682134385
 21
6.2364037274
  0
LINE
  5
5D6
100
AcDbEntity
  8
CURVE
100
AcDbLine
 62
252
  6
CONTINUOUS
 10
-16.5997851251
 20
7.0512894541
 11
-16.5979283886
 21
7.0652424623
  0
LINE
  5
5D7
100
AcDbEntity
  8
CURVE
100
AcDbLine
 62
252
  6
CONTINUOUS
 10
-14.5456602529
 20
27.8216186729
 11
-14.5479982018
 21
27.8041771458
  0
LINE
  5
5D8
100
AcDbEntity
  8
CURVE
100
AcDbLine
 62
252
  6
CONTINUOUS
 10
-17.2058673442
 20
7.9852361043
 11
-17.2076873555
 21
7.9721073851
  0
LINE
  5
5D9
100
AcDbEntity
  8
CURVE
100
AcDbLine
 62
252
  6
CONTINUOUS
 10
-16.2481936399
 20
9.3905695663
 11
-16.2501402551
 21
9.3766167112
  0
LINE
  5
5DA
100
AcDbEntity
  8
CURVE
100
AcDbLine
 62
252
  6
CONTINUOUS
 10
-16.6767705269
 20
10.1941858765
 11
-16.6747806216
 21
10.208216075
  0
LINE
  5
5DB
100
AcDbEntity
  8
CURVE
100
AcDbLine
 62
252
  6
CONTINUOUS
 10
-17.9785512795
 20
8.2795860493
 11
-17.97638975
 21
8.2925000641
  0
LINE
  5
5DC
100
AcDbEntity
  8
CURVE
100
AcDbLine
 62
252
  6
CONTINUOUS
 10
-16.8798894958
 20
8.5775223256
 11
-16.8759828777
 21
8.5992769502
  0
LINE
  5
5DD
100
AcDbEntity
  8
CURVE
100
AcDbLine
 62
252
  6
CONTINUOUS
 10
-17.2405542805
 20
9.3068592538
 11
-17.2429002135
 21
9.2938710437
  0
LINE
  5
5DE
100
AcDbEntity
  8
CURVE
100
AcDbLine
 62
252
  6
CONTINUOUS
 10
-16.5979283886
 20
7.0652424623
 11
-16.5956362677
 21
7.0772150713
  0
LINE
  5
5DF
100
AcDbEntity
  8
CURVE
100
AcDbLine
 62
252
  6
CONTINUOUS
 10
-16.2501402551
 20
9.3766167112
 11
-16.2524818787
 21
9.3647724826
  0
LINE
  5
5E0
100
AcDbEntity
  8
CURVE
100
AcDbLine
 62
252
  6
CONTINUOUS
 10
-16.6747806216
 20
10.208216075
 11
-16.6723712601
 21
10.220257277
  0
LINE
  5
5E1
100
AcDbEntity
  8
CURVE
100
AcDbLine
 62
252
  6
CONTINUOUS
 10
-13.918672616
 20
25.5535317472
 11
-13.9219121526
 21
25.5374992684
  0
LINE
  5
5E2
100
AcDbEntity
  8
CURVE
100
AcDbLine
 62
252
  6
CONTINUOUS
 10
-14.6387933439
 20
24.0536819342
 11
-14.6421709383
 21
24.0371685537
  0
LINE
  5
5E3
100
AcDbEntity
  8
CURVE
100
AcDbLine
 62
252
  6
CONTINUOUS
 10
-17.2076873555
 20
7.9721073851
 11
-17.2102670735
 21
7.9597703267
  0
LINE
  5
5E4
100
AcDbEntity
  8
CURVE
100
AcDbLine
 62
252
  6
CONTINUOUS
 10
-18.0224278222
 20
10.10067967
 11
-18.0196613503
 21
10.1136008878
  0
LINE
  5
5E5
100
AcDbEntity
  8
CURVE
100
AcDbLine
 62
252
  6
CONTINUOUS
 10
-17.97638975
 20
8.2925000641
 11
-17.97477135
 21
8.299702647
  0
LINE
  5
5E6
100
AcDbEntity
  8
CURVE
100
AcDbLine
 62
252
  6
CONTINUOUS
 10
-16.8759828777
 20
8.5992769502
 11
-16.8710864351
 21
8.6201183373
  0
LINE
  5
5E7
100
AcDbEntity
  8
CURVE
100
AcDbLine
 62
252
  6
CONTINUOUS
 10
-17.2429002135
 20
9.2938710437
 11
-17.2459952561
 21
9.2817005143
  0
LINE
  5
5E8
100
AcDbEntity
  8
CURVE
100
AcDbLine
 62
252
  6
CONTINUOUS
 10
-18.0196613503
 20
10.1136008878
 11
-18.0179381796
 21
10.1199882834
  0
LINE
  5
5E9
100
AcDbEntity
  8
CURVE
100
AcDbLine
 62
252
  6
CONTINUOUS
 10
-17.97477135
 20
8.299702647
 11
-17.9715741642
 21
8.3114789373
  0
LINE
  5
5EA
100
AcDbEntity
  8
CURVE
100
AcDbLine
 62
252
  6
CONTINUOUS
 10
-16.6723712601
 20
10.220257277
 11
-16.6695007785
 21
10.2307821635
  0
LINE
  5
5EB
100
AcDbEntity
  8
CURVE
100
AcDbLine
 62
252
  6
CONTINUOUS
 10
-13.9219121526
 20
25.5374992684
 11
-13.9262647847
 21
25.5222573078
  0
LINE
  5
5EC
100
AcDbEntity
  8
CURVE
100
AcDbLine
 62
252
  6
CONTINUOUS
 10
-14.6421709383
 20
24.0371685537
 11
-14.6467499732
 21
24.0214638587
  0
LINE
  5
5ED
100
AcDbEntity
  8
CURVE
100
AcDbLine
 62
252
  6
CONTINUOUS
 10
-17.2459952561
 20
9.2817005143
 11
-17.2497389001
 21
9.2704221092
  0
LINE
  5
5EE
100
AcDbEntity
  8
CURVE
100
AcDbLine
 62
252
  6
CONTINUOUS
 10
-18.0179381796
 20
10.1199882834
 11
-18.0140791217
 21
10.1315397639
  0
LINE
  5
5EF
100
AcDbEntity
  8
CURVE
100
AcDbLine
 62
252
  6
CONTINUOUS
 10
-17.9715741642
 20
8.3114789373
 11
-17.9675907433
 21
8.3225911761
  0
LINE
  5
5F0
100
AcDbEntity
  8
CURVE
100
AcDbLine
 62
252
  6
CONTINUOUS
 10
-18.0140791217
 20
10.1315397639
 11
-18.0118189741
 21
10.1371381314
  0
LINE
  5
5F1
100
AcDbEntity
  8
CURVE
100
AcDbLine
 62
252
  6
CONTINUOUS
 10
-18.0118189741
 20
10.1371381314
 11
-18.006826407
 21
10.1475110905
  0
LINE
  5
5F2
100
AcDbEntity
  8
DRAFT
100
AcDbLine
 62
253
  6
CONTINUOUS
 10
-16.4548258877
 20
18.9401553061
 11
-16.4290850688
 21
18.9371845481
  0
LINE
  5
5F3
100
AcDbEntity
  8
ASSI
100
AcDbLine
 62
253
  6
CONTINUOUS
 10
-16.4548258877
 20
18.9401553061
 11
-16.4290850688
 21
18.9371845481
  0
LWPOLYLINE
  5
5F4
100
AcDbEntity
  8
RACCORDO
100
AcDbPolyline
 62
7
  6
CONTINUOUS
 90
4
 70
0
 10
-18.8671072448
 20
20.363518691
 10
-18.8042203241
 20
20.3367790535
 10
-18.7376165474
 20
20.303182608
 10
-18.6806673372
 20
20.2703926037
  0
LWPOLYLINE
  5
5F5
100
AcDbEntity
  8
ASSI
100
AcDbPolyline
 62
7
  6
CONTINUOUS
 90
4
 70
0
 10
-18.8671072448
 20
20.363518691
 10
-18.8042203241
 20
20.3367790535
 10
-18.7376165474
 20
20.303182608
 10
-18.6806673372
 20
20.2703926037
  0
LWPOLYLINE
  5
5F6
100
AcDbEntity
  8
RACCORDO
100
AcDbPolyline
 62
253
  6
CONTINUOUS
 90
8
 70
0
 10
-23.3401289209
 20
22.090220658
 10
-23.3779728109
 20
22.1081773671
 10
-23.4151274711
 20
22.1202656701
 10
-23.4509573818
 20
22.1262786809
 10
-23.484849637
 20
22.1261134234
 10
-23.5162245021
 20
22.1197725998
 10
-23.5445453128
 20
22.1073645067
 10
-23.5481383093
 20
22.1052159177
  0
LWPOLYLINE
  5
5F7
100
AcDbEntity
  8
ASSI
100
AcDbPolyline
 62
253
  6
CONTINUOUS
 90
8
 70
0
 10
-23.3401289209
 20
22.090220658
 10
-23.3779728109
 20
22.1081773671
 10
-23.4151274711
 20
22.1202656701
 10
-23.4509573818
 20
22.1262786809
 10
-23.484849637
 20
22.1261134234
 10
-23.5162245021
 20
22.1197725998
 10
-23.5445453128
 20
22.1073645067
 10
-23.5481383093
 20
22.1052159177
  0
LINE
  5
5F8
100
AcDbEntity
  8
RACCORDO
100
AcDbLine
 62
7
  6
CONTINUOUS
 10
-9.1310187622
 20
13.9342280122
 11
-8.7158517267
 21
13.7313529599
  0
LINE
  5
5F9
100
AcDbEntity
  8
ASSI
100
AcDbLine
 62
7
  6
CONTINUOUS
 10
-9.1310187622
 20
13.9342280122
 11
-8.7158517267
 21
13.7313529599
  0
LWPOLYLINE
  5
5FA
100
AcDbEntity
  8
RACCORDO
100
AcDbPolyline
 62
253
  6
CONTINUOUS
 90
6
 70
0
 10
-8.7983534493
 20
13.914694955
 10
-9.4929352051
 20
14.255142214
 10
-10.1829661749
 20
14.5984358483
 10
-10.8684245544
 20
14.944565211
 10
-11.5492885596
 20
15.2935196391
 10
-12.2255367968
 20
15.6452882197
  0
LWPOLYLINE
  5
5FB
100
AcDbEntity
  8
ASSI
100
AcDbPolyline
 62
253
  6
CONTINUOUS
 90
6
 70
0
 10
-8.7983534493
 20
13.914694955
 10
-9.4929352051
 20
14.255142214
 10
-10.1829661749
 20
14.5984358483
 10
-10.8684245544
 20
14.944565211
 10
-11.5492885596
 20
15.2935196391
 10
-12.2255367968
 20
15.6452882197
  0
LWPOLYLINE
  5
5FC
100
AcDbEntity
  8
RACCORDO
100
AcDbPolyline
 62
253
  6
CONTINUOUS
 90
7
 70
0
 10
-12.6287232219
 20
15.5401757229
 10
-11.9595510119
 20
15.1874790235
 10
-11.285688415
 20
14.8376380225
 10
-10.6071354311
 20
14.49065272
 10
-9.9238920602
 20
14.146523116
 10
-9.2359583024
 20
13.8052492105
 10
-8.5433341576
 20
13.4668310035
  0
LWPOLYLINE
  5
5FD
100
AcDbEntity
  8
ASSI
100
AcDbPolyline
 62
253
  6
CONTINUOUS
 90
7
 70
0
 10
-12.6287232219
 20
15.5401757229
 10
-11.9595510119
 20
15.1874790235
 10
-11.285688415
 20
14.8376380225
 10
-10.6071354311
 20
14.49065272
 10
-9.9238920602
 20
14.146523116
 10
-9.2359583024
 20
13.8052492105
 10
-8.5433341576
 20
13.4668310035
  0
LINE
  5
5FE
100
AcDbEntity
  8
RACCORDO
100
AcDbLine
 62
253
  6
CONTINUOUS
 10
-12.2255367968
 20
15.6452882197
 11
-12.8971481803
 21
15.9998598418
  0
LINE
  5
5FF
100
AcDbEntity
  8
ASSI
100
AcDbLine
 62
253
  6
CONTINUOUS
 10
-12.2255367968
 20
15.6452882197
 11
-12.8971481803
 21
15.9998598418
  0
LWPOLYLINE
  5
600
100
AcDbEntity
  8
RACCORDO
100
AcDbPolyline
 62
7
  6
CONTINUOUS
 90
9
 70
0
 10
-12.8140836438
 20
15.8161735812
 10
-12.4089950211
 20
15.6016873775
 10
-11.9472607837
 20
15.3595329677
 10
-11.4833225622
 20
15.1186826849
 10
-11.0171954202
 20
14.8791443947
 10
-10.5488912393
 20
14.6409243199
 10
-10.0784186518
 20
14.4040270891
 10
-9.6057894717
 20
14.1684590083
 10
-9.1310187622
 20
13.9342280122
  0
LWPOLYLINE
  5
601
100
AcDbEntity
  8
ASSI
100
AcDbPolyline
 62
7
  6
CONTINUOUS
 90
9
 70
0
 10
-12.8140836438
 20
15.8161735812
 10
-12.4089950211
 20
15.6016873775
 10
-11.9472607837
 20
15.3595329677
 10
-11.4833225622
 20
15.1186826849
 10
-11.0171954202
 20
14.8791443947
 10
-10.5488912393
 20
14.6409243199
 10
-10.0784186518
 20
14.4040270891
 10
-9.6057894717
 20
14.1684590083
 10
-9.1310187622
 20
13.9342280122
  0
LWPOLYLINE
  5
602
100
AcDbEntity
  8
RACCORDO
100
AcDbPolyline
 62
253
  6
CONTINUOUS
 90
8
 70
0
 10
-8.7158828208
 20
13.7313680928
 10
-8.7239964479
 20
13.7357463636
 10
-8.7459584763
 20
13.7527396977
 10
-8.7644447164
 20
13.7754664679
 10
-8.7791418741
 20
13.8035415146
 10
-8.7898008708
 20
13.8364890382
 10
-8.796241064
 20
13.8737506637
 10
-8.7983533091
 20
13.9146949029
  0
LWPOLYLINE
  5
603
100
AcDbEntity
  8
ASSI
100
AcDbPolyline
 62
253
  6
CONTINUOUS
 90
8
 70
0
 10
-8.7158828208
 20
13.7313680928
 10
-8.7239964479
 20
13.7357463636
 10
-8.7459584763
 20
13.7527396977
 10
-8.7644447164
 20
13.7754664679
 10
-8.7791418741
 20
13.8035415146
 10
-8.7898008708
 20
13.8364890382
 10
-8.796241064
 20
13.8737506637
 10
-8.7983533091
 20
13.9146949029
  0
LINE
  5
604
100
AcDbEntity
  8
RACCORDO
100
AcDbLine
 62
7
  6
CONTINUOUS
 10
-14.6413003145
 20
17.9258919052
 11
-14.1750029621
 21
17.6688790356
  0
LINE
  5
605
100
AcDbEntity
  8
ASSI
100
AcDbLine
 62
7
  6
CONTINUOUS
 10
-14.6413003145
 20
17.9258919052
 11
-14.1750029621
 21
17.6688790356
  0
LWPOLYLINE
  5
606
100
AcDbEntity
  8
RACCORDO
100
AcDbPolyline
 62
253
  6
CONTINUOUS
 90
9
 70
0
 10
-14.2580644518
 20
17.8536746103
 10
-14.7701803605
 20
18.1360975144
 10
-15.2794197677
 20
18.4201760994
 10
-15.7857731019
 20
18.7059048944
 10
-16.2892239659
 20
18.9932745115
 10
-16.7897697025
 20
19.2822833507
 10
-17.287421212
 20
19.5729377045
 10
-17.7821757254
 20
19.8652360374
 10
-18.2740169867
 20
20.1591688809
  0
LWPOLYLINE
  5
607
100
AcDbEntity
  8
ASSI
100
AcDbPolyline
 62
253
  6
CONTINUOUS
 90
9
 70
0
 10
-14.2580644518
 20
17.8536746103
 10
-14.7701803605
 20
18.1360975144
 10
-15.2794197677
 20
18.4201760994
 10
-15.7857731019
 20
18.7059048944
 10
-16.2892239659
 20
18.9932745115
 10
-16.7897697025
 20
19.2822833507
 10
-17.287421212
 20
19.5729377045
 10
-17.7821757254
 20
19.8652360374
 10
-18.2740169867
 20
20.1591688809
  0
LWPOLYLINE
  5
608
100
AcDbEntity
  8
ASSI
100
AcDbPolyline
 62
7
  6
CONTINUOUS
 90
22
 70
0
 10
-14.1749373662
 20
17.6688343464
 10
-14.1536250479
 20
17.6569180401
 10
-14.0815317632
 20
17.6132920002
 10
-14.0080058331
 20
17.5635676112
 10
-13.933475408
 20
17.5077423397
 10
-13.8585464263
 20
17.446009811
 10
-13.783961527
 20
17.3787894047
 10
-13.7102130901
 20
17.3063660894
 10
-13.6377375799
 20
17.2290154662
 10
-13.5671317362
 20
17.1472633631
 10
-13.498843591
 20
17.0615467143
 10
-13.433261066
 20
16.9722709191
 10
-13.3708238116
 20
16.8799829485
 10
-13.3118727788
 20
16.7851736695
 10
-13.2567357855
 20
16.6883602838
 10
-13.205765411
 20
16.5901765308
 10
-13.1592052771
 20
16.4911681034
 10
-13.1172519064
 20
16.391851676
 10
-13.0801149832
 20
16.2928466391
 10
-13.0479377588
 20
16.1947507236
 10
-13.0207941848
 20
16.0981242909
 10
-13.0147769455
 20
16.0741660051
  0
LINE
  5
609
100
AcDbEntity
  8
ASSI
100
AcDbLine
 62
7
  6
CONTINUOUS
 10
-12.830437291
 20
15.8253699843
 11
-12.814053083
 21
15.8161576372
  0
LWPOLYLINE
  5
60A
100
AcDbEntity
  8
RACCORDO
100
AcDbPolyline
 62
7
  6
CONTINUOUS
 90
19
 70
0
 10
-14.1749080713
 20
17.6688183102
 10
-14.1413656925
 20
17.6498597269
 10
-14.0566062018
 20
17.5970265983
 10
-13.9703075419
 20
17.5360182931
 10
-13.8832034494
 20
17.4669543953
 10
-13.7961704529
 20
17.3901980621
 10
-13.7101838528
 20
17.3063361497
 10
-13.6259666009
 20
17.2158407441
 10
-13.5442316282
 20
17.1192848083
 10
-13.4658245265
 20
17.0175100733
 10
-13.3913801107
 20
16.9112223812
 10
-13.3214732884
 20
16.8011808639
 10
-13.2567504995
 20
16.6883873252
 10
-13.1976787419
 20
16.5736880352
 10
-13.1446303918
 20
16.4579097847
 10
-13.0980025627
 20
16.3420915798
 10
-13.0580639325
 20
16.227178546
 10
-13.0249455525
 20
16.1140246647
 10
-13.014779507
 20
16.0741764871
  0
LWPOLYLINE
  5
60B
100
AcDbEntity
  8
RACCORDO
100
AcDbPolyline
 62
253
  6
CONTINUOUS
 90
19
 70
0
 10
-18.762935524
 20
20.454730708
 10
-18.8581868817
 20
20.5086450974
 10
-18.9520668773
 20
20.5540940981
 10
-19.0445791043
 20
20.5910756705
 10
-19.1362234861
 20
20.6197033939
 10
-19.2265045649
 20
20.6398611714
 10
-19.3139372957
 20
20.6511999966
 10
-19.3984192291
 20
20.6535569099
 10
-19.4800655872
 20
20.6470878091
 10
-19.5577260159
 20
20.6319174281
 10
-19.6313528558
 20
20.6079299865
 10
-19.701009796
 20
20.575232472
 10
-19.7657194385
 20
20.5342804716
 10
-19.8254523431
 20
20.4849030688
 10
-19.8802545652
 20
20.427262108
 10
-19.9292664457
 20
20.3623097953
 10
-19.9722076827
 20
20.2903600964
 10
-20.0093741205
 20
20.211090545
 10
-20.0407711513
 20
20.1244982146
  0
LWPOLYLINE
  5
60C
100
AcDbEntity
  8
ASSI
100
AcDbPolyline
 62
253
  6
CONTINUOUS
 90
19
 70
0
 10
-18.762935524
 20
20.454730708
 10
-18.8581868817
 20
20.5086450974
 10
-18.9520668773
 20
20.5540940981
 10
-19.0445791043
 20
20.5910756705
 10
-19.1362234861
 20
20.6197033939
 10
-19.2265045649
 20
20.6398611714
 10
-19.3139372957
 20
20.6511999966
 10
-19.3984192291
 20
20.6535569099
 10
-19.4800655872
 20
20.6470878091
 10
-19.5577260159
 20
20.6319174281
 10
-19.6313528558
 20
20.6079299865
 10
-19.701009796
 20
20.575232472
 10
-19.7657194385
 20
20.5342804716
 10
-19.8254523431
 20
20.4849030688
 10
-19.8802545652
 20
20.427262108
 10
-19.9292664457
 20
20.3623097953
 10
-19.9722076827
 20
20.2903600964
 10
-20.0093741205
 20
20.211090545
 10
-20.0407711513
 20
20.1244982146
  0
LWPOLYLINE
  5
60D
100
AcDbEntity
  8
RACCORDO
100
AcDbPolyline
 62
253
  6
CONTINUOUS
 90
8
 70
0
 10
-14.1750029621
 20
17.6688790356
 10
-14.1787706873
 20
17.6710298383
 10
-14.2022763478
 20
17.6889467717
 10
-14.2220435995
 20
17.7124933484
 10
-14.2377359054
 20
17.7412686885
 10
-14.2490861042
 20
17.7747828925
 10
-14.2559009592
 20
17.8124653818
 10
-14.2580644476
 20
17.8536746128
  0
LWPOLYLINE
  5
60E
100
AcDbEntity
  8
ASSI
100
AcDbPolyline
 62
253
  6
CONTINUOUS
 90
8
 70
0
 10
-14.1750029621
 20
17.6688790356
 10
-14.1787706873
 20
17.6710298383
 10
-14.2022763478
 20
17.6889467717
 10
-14.2220435995
 20
17.7124933484
 10
-14.2377359054
 20
17.7412686885
 10
-14.2490861042
 20
17.7747828925
 10
-14.2559009592
 20
17.8124653818
 10
-14.2580644476
 20
17.8536746128
  0
LINE
  5
60F
100
AcDbEntity
  8
DRAFT
100
AcDbLine
 62
7
  6
CONTINUOUS
 10
-13.8433746464
 20
17.4323360886
 11
-16.4548258877
 21
18.9401553061
  0
LINE
  5
610
100
AcDbEntity
  8
ASSI
100
AcDbLine
 62
7
  6
CONTINUOUS
 10
-13.8433746464
 20
17.4323360886
 11
-16.4548258877
 21
18.9401553061
  0
LWPOLYLINE
  5
611
100
AcDbEntity
  8
RACCORDO
100
AcDbPolyline
 62
7
  6
CONTINUOUS
 90
11
 70
0
 10
-19.9591054296
 20
19.9416536481
 10
-19.9358862124
 20
19.9281453735
 10
-19.8963723543
 20
19.909604024
 10
-19.8549808262
 20
19.8954522052
 10
-19.8119873595
 20
19.8858541757
 10
-19.7680743236
 20
19.881035272
 10
-19.7237824547
 20
19.8810946986
 10
-19.6792737306
 20
19.8861346669
 10
-19.6350865768
 20
19.8962704237
 10
-19.5920980599
 20
19.9114379326
 10
-19.5510161242
 20
19.9314524631
  0
LWPOLYLINE
  5
612
100
AcDbEntity
  8
ASSI
100
AcDbPolyline
 62
7
  6
CONTINUOUS
 90
11
 70
0
 10
-19.9591054296
 20
19.9416536481
 10
-19.9358862124
 20
19.9281453735
 10
-19.8963723543
 20
19.909604024
 10
-19.8549808262
 20
19.8954522052
 10
-19.8119873595
 20
19.8858541757
 10
-19.7680743236
 20
19.881035272
 10
-19.7237824547
 20
19.8810946986
 10
-19.6792737306
 20
19.8861346669
 10
-19.6350865768
 20
19.8962704237
 10
-19.5920980599
 20
19.9114379326
 10
-19.5510161242
 20
19.9314524631
  0
LINE
  5
613
100
AcDbEntity
  8
RACCORDO
100
AcDbLine
 62
253
  6
CONTINUOUS
 10
-18.2740169867
 20
20.1591688809
 11
-18.762935524
 21
20.454730708
  0
LINE
  5
614
100
AcDbEntity
  8
ASSI
100
AcDbLine
 62
253
  6
CONTINUOUS
 10
-18.2740169867
 20
20.1591688809
 11
-18.762935524
 21
20.454730708
  0
LWPOLYLINE
  5
615
100
AcDbEntity
  8
RACCORDO
100
AcDbPolyline
 62
7
  6
CONTINUOUS
 90
9
 70
0
 10
-18.6806331123
 20
20.2703794963
 10
-18.2309944431
 20
19.9984280581
 10
-17.7273185053
 20
19.6971782936
 10
-17.2205667367
 20
19.3976351703
 10
-16.7107587828
 20
19.0998107877
 10
-16.1979115127
 20
18.8037149191
 10
-15.6820405733
 20
18.5093564719
 10
-15.1631631131
 20
18.21674506
 10
-14.6413003145
 20
17.9258919052
  0
LWPOLYLINE
  5
616
100
AcDbEntity
  8
ASSI
100
AcDbPolyline
 62
7
  6
CONTINUOUS
 90
9
 70
0
 10
-18.6806331123
 20
20.2703794963
 10
-18.2309944431
 20
19.9984280581
 10
-17.7273185053
 20
19.6971782936
 10
-17.2205667367
 20
19.3976351703
 10
-16.7107587828
 20
19.0998107877
 10
-16.1979115127
 20
18.8037149191
 10
-15.6820405733
 20
18.5093564719
 10
-15.1631631131
 20
18.21674506
 10
-14.6413003145
 20
17.9258919052
  0
LWPOLYLINE
  5
617
100
AcDbEntity
  8
RACCORDO
100
AcDbPolyline
 62
7
  6
CONTINUOUS
 90
3
 70
0
 10
-16.4548258877
 20
18.9401553061
 10
-16.531181631
 20
18.9873674923
 10
-16.6022898401
 20
19.0371855039
  0
LWPOLYLINE
  5
618
100
AcDbEntity
  8
ASSI
100
AcDbPolyline
 62
7
  6
CONTINUOUS
 90
3
 70
0
 10
-16.4548258877
 20
18.9401553061
 10
-16.531181631
 20
18.9873674923
 10
-16.6022898401
 20
19.0371855039
  0
LINE
  5
619
100
AcDbEntity
  8
RACCORDO
100
AcDbLine
 62
7
  6
CONTINUOUS
 10
-20.3257701262
 20
20.1725196453
 11
-19.9589161631
 21
19.9415346995
  0
LINE
  5
61A
100
AcDbEntity
  8
ASSI
100
AcDbLine
 62
7
  6
CONTINUOUS
 10
-20.3257701262
 20
20.1725196453
 11
-19.9589161631
 21
19.9415346995
  0
LWPOLYLINE
  5
61B
100
AcDbEntity
  8
RACCORDO
100
AcDbPolyline
 62
253
  6
CONTINUOUS
 90
6
 70
0
 10
-20.0407711513
 20
20.1244982146
 10
-20.6543470144
 20
20.511977505
 10
-21.2629833235
 20
20.9020850758
 10
-21.8666608282
 20
21.2948087667
 10
-22.4653606225
 20
21.6901362398
 10
-23.0590642337
 20
22.0880549324
  0
LWPOLYLINE
  5
61C
100
AcDbEntity
  8
ASSI
100
AcDbPolyline
 62
253
  6
CONTINUOUS
 90
6
 70
0
 10
-20.0407711513
 20
20.1244982146
 10
-20.6543470144
 20
20.511977505
 10
-21.2629833235
 20
20.9020850758
 10
-21.8666608282
 20
21.2948087667
 10
-22.4653606225
 20
21.6901362398
 10
-23.0590642337
 20
22.0880549324
  0
LINE
  5
61D
100
AcDbEntity
  8
RACCORDO
100
AcDbLine
 62
253
  6
CONTINUOUS
 10
-20.3602850518
 20
20.0379574768
 11
-19.748932469
 21
19.651295305
  0
LINE
  5
61E
100
AcDbEntity
  8
ASSI
100
AcDbLine
 62
253
  6
CONTINUOUS
 10
-20.3602850518
 20
20.0379574768
 11
-19.748932469
 21
19.651295305
  0
LWPOLYLINE
  5
61F
100
AcDbEntity
  8
RACCORDO
100
AcDbPolyline
 62
253
  6
CONTINUOUS
 90
13
 70
0
 10
-19.7489324654
 20
19.6512953027
 10
-19.7193198867
 20
19.6321745318
 10
-19.6900090886
 20
19.6096492827
 10
-19.6613261422
 20
19.5839700733
 10
-19.6335901286
 20
19.5554224986
 10
-19.6071096365
 20
19.5243241028
 10
-19.5821793206
 20
19.4910208616
 10
-19.5590764839
 20
19.4558831348
 10
-19.5380582474
 20
19.4193019034
 10
-19.519358655
 20
19.3816845218
 10
-19.5031857468
 20
19.3434496323
 10
-19.4897193244
 20
19.305022465
 10
-19.4791091458
 20
19.266830507
  0
LWPOLYLINE
  5
620
100
AcDbEntity
  8
ASSI
100
AcDbPolyline
 62
253
  6
CONTINUOUS
 90
13
 70
0
 10
-19.7489324654
 20
19.6512953027
 10
-19.7193198867
 20
19.6321745318
 10
-19.6900090886
 20
19.6096492827
 10
-19.6613261422
 20
19.5839700733
 10
-19.6335901286
 20
19.5554224986
 10
-19.6071096365
 20
19.5243241028
 10
-19.5821793206
 20
19.4910208616
 10
-19.5590764839
 20
19.4558831348
 10
-19.5380582474
 20
19.4193019034
 10
-19.519358655
 20
19.3816845218
 10
-19.5031857468
 20
19.3434496323
 10
-19.4897193244
 20
19.305022465
 10
-19.4791091458
 20
19.266830507
  0
LWPOLYLINE
  5
621
100
AcDbEntity
  8
RACCORDO
100
AcDbPolyline
 62
7
  6
CONTINUOUS
 90
3
 70
0
 10
-12.8661695213
 20
15.8492674216
 10
-12.8304373771
 20
15.8253700354
 10
-12.8140530824
 20
15.8161576369
  0
LINE
  5
622
100
AcDbEntity
  8
RACCORDO
100
AcDbLine
 62
253
  6
CONTINUOUS
 10
-23.0590642337
 20
22.0880549324
 11
-23.6477532193
 21
22.4885522712
  0
LINE
  5
623
100
AcDbEntity
  8
ASSI
100
AcDbLine
 62
253
  6
CONTINUOUS
 10
-23.0590642337
 20
22.0880549324
 11
-23.6477532193
 21
22.4885522712
  0
LWPOLYLINE
  5
624
100
AcDbEntity
  8
RACCORDO
100
AcDbPolyline
 62
7
  6
CONTINUOUS
 90
9
 70
0
 10
-23.5678014417
 20
22.3069020035
 10
-23.2123702079
 20
22.0643708665
 10
-22.8069457949
 20
21.7903828775
 10
-22.3991858493
 20
21.5176240081
 10
-21.9891043577
 20
21.2461028399
 10
-21.5767124457
 20
20.9758260522
 10
-21.1620183003
 20
20.7067984658
 10
-20.7450329065
 20
20.4390268034
 10
-20.3257701262
 20
20.1725196453
  0
LWPOLYLINE
  5
625
100
AcDbEntity
  8
ASSI
100
AcDbPolyline
 62
7
  6
CONTINUOUS
 90
9
 70
0
 10
-23.5678014417
 20
22.3069020035
 10
-23.2123702079
 20
22.0643708665
 10
-22.8069457949
 20
21.7903828775
 10
-22.3991858493
 20
21.5176240081
 10
-21.9891043577
 20
21.2461028399
 10
-21.5767124457
 20
20.9758260522
 10
-21.1620183003
 20
20.7067984658
 10
-20.7450329065
 20
20.4390268034
 10
-20.3257701262
 20
20.1725196453
  0
LWPOLYLINE
  5
626
100
AcDbEntity
  8
RACCORDO
100
AcDbPolyline
 62
253
  6
CONTINUOUS
 90
13
 70
0
 10
-8.4101274945
 20
13.4698248978
 10
-8.374172186
 20
13.4451705654
 10
-8.3387896843
 20
13.4153761526
 10
-8.3045852182
 20
13.380951302
 10
-8.2721438654
 20
13.3424848612
 10
-8.2420205454
 20
13.3006348107
 10
-8.2147305267
 20
13.2561170084
 10
-8.1907406137
 20
13.2096929448
 10
-8.1704611611
 20
13.162156718
 10
-8.1542390542
 20
13.1143214504
 10
-8.1423517769
 20
13.067005379
 10
-8.1350026649
 20
13.0210178598
 10
-8.1323174273
 20
12.9771455234
  0
LWPOLYLINE
  5
627
100
AcDbEntity
  8
ASSI
100
AcDbPolyline
 62
253
  6
CONTINUOUS
 90
13
 70
0
 10
-8.4101274945
 20
13.4698248978
 10
-8.374172186
 20
13.4451705654
 10
-8.3387896843
 20
13.4153761526
 10
-8.3045852182
 20
13.380951302
 10
-8.2721438654
 20
13.3424848612
 10
-8.2420205454
 20
13.3006348107
 10
-8.2147305267
 20
13.2561170084
 10
-8.1907406137
 20
13.2096929448
 10
-8.1704611611
 20
13.162156718
 10
-8.1542390542
 20
13.1143214504
 10
-8.1423517769
 20
13.067005379
 10
-8.1350026649
 20
13.0210178598
 10
-8.1323174273
 20
12.9771455234
  0
LWPOLYLINE
  5
628
100
AcDbEntity
  8
RACCORDO
100
AcDbPolyline
 62
253
  6
CONTINUOUS
 90
7
 70
0
 10
-18.6806673372
 20
20.2703926037
 10
-18.7040812304
 20
20.2882262783
 10
-18.7249205842
 20
20.3123936759
 10
-18.7414677272
 20
20.3416646217
 10
-18.753440931
 20
20.375540754
 10
-18.760636342
 20
20.4134453043
 10
-18.7629314525
 20
20.4547329169
  0
LWPOLYLINE
  5
629
100
AcDbEntity
  8
ASSI
100
AcDbPolyline
 62
253
  6
CONTINUOUS
 90
7
 70
0
 10
-18.6806673372
 20
20.2703926037
 10
-18.7040812304
 20
20.2882262783
 10
-18.7249205842
 20
20.3123936759
 10
-18.7414677272
 20
20.3416646217
 10
-18.753440931
 20
20.375540754
 10
-18.760636342
 20
20.4134453043
 10
-18.7629314525
 20
20.4547329169
  0
LWPOLYLINE
  5
62A
100
AcDbEntity
  8
RACCORDO
100
AcDbPolyline
 62
253
  6
CONTINUOUS
 90
7
 70
0
 10
-12.818890512
 20
15.818877578
 10
-12.8417809798
 20
15.8363142404
 10
-12.8615277962
 20
15.859670126
 10
-12.8769039158
 20
15.8881495353
 10
-12.8875716509
 20
15.9212239298
 10
-12.8941949623
 20
15.9586513762
 10
-12.8971481803
 20
15.9998598418
  0
LWPOLYLINE
  5
62B
100
AcDbEntity
  8
ASSI
100
AcDbPolyline
 62
253
  6
CONTINUOUS
 90
7
 70
0
 10
-12.818890512
 20
15.818877578
 10
-12.8417809798
 20
15.8363142404
 10
-12.8615277962
 20
15.859670126
 10
-12.8769039158
 20
15.8881495353
 10
-12.8875716509
 20
15.9212239298
 10
-12.8941949623
 20
15.9586513762
 10
-12.8971481803
 20
15.9998598418
  0
LWPOLYLINE
  5
62C
100
AcDbEntity
  8
ASSI
100
AcDbPolyline
 62
7
  6
CONTINUOUS
 90
4
 70
0
 10
-12.9287237934
 20
15.9075823475
 10
-12.8990521292
 20
15.8767879824
 10
-12.8661694016
 20
15.8492673319
 10
-12.830437291
 20
15.8253699843
  0
LWPOLYLINE
  5
62D
100
AcDbEntity
  8
RACCORDO
100
AcDbPolyline
 62
7
  6
CONTINUOUS
 90
3
 70
0
 10
-12.9287239551
 20
15.9075825343
 10
-12.8990522744
 20
15.8767881178
 10
-12.8661695213
 20
15.8492674216
  0
LINE
  5
62E
100
AcDbEntity
  8
CURVE
100
AcDbLine
 62
252
  6
CONTINUOUS
 10
-18.225140228
 20
26.0105185065
 11
-18.2335860426
 21
26.0309389731
  0
LINE
  5
62F
100
AcDbEntity
  8
CURVE
100
AcDbLine
 62
252
  6
CONTINUOUS
 10
-18.2335860426
 20
26.0309389731
 11
-18.2410939066
 21
26.0516523445
  0
LINE
  5
630
100
AcDbEntity
  8
CURVE
100
AcDbLine
 62
252
  6
CONTINUOUS
 10
-18.8406668537
 20
28.294120686
 11
-18.8479402561
 21
28.3144114879
  0
LINE
  5
631
100
AcDbEntity
  8
CURVE
100
AcDbLine
 62
252
  6
CONTINUOUS
 10
-18.8479402561
 20
28.3144114879
 11
-18.8537962654
 21
28.333130533
  0
LINE
  5
632
100
AcDbEntity
  8
CURVE
100
AcDbLine
 62
252
  6
CONTINUOUS
 10
-18.2410939066
 20
26.0516523445
 11
-18.2475996014
 21
26.0725048106
  0
LINE
  5
633
100
AcDbEntity
  8
CURVE
100
AcDbLine
 62
252
  6
CONTINUOUS
 10
-17.231578609
 20
26.418721366
 11
-17.2255927856
 21
26.3977587638
  0
LINE
  5
634
100
AcDbEntity
  8
CURVE
100
AcDbLine
 62
252
  6
CONTINUOUS
 10
-16.6768584675
 20
24.3591223237
 11
-16.6824842561
 21
24.3791281375
  0
LINE
  5
635
100
AcDbEntity
  8
CURVE
100
AcDbLine
 62
252
  6
CONTINUOUS
 10
-18.2475996014
 20
26.0725048106
 11
-18.2507962327
 21
26.0842323329
  0
LINE
  5
636
100
AcDbEntity
  8
CURVE
100
AcDbLine
 62
252
  6
CONTINUOUS
 10
-17.6034311309
 20
27.7919461376
 11
-17.5981370453
 21
27.7723399229
  0
LINE
  5
637
100
AcDbEntity
  8
CURVE
100
AcDbLine
 62
252
  6
CONTINUOUS
 10
-18.8537962654
 20
28.333130533
 11
-18.8592282619
 21
28.3534579941
  0
LINE
  5
638
100
AcDbEntity
  8
CURVE
100
AcDbLine
 62
252
  6
CONTINUOUS
 10
-18.1574159579
 20
29.823349097
 11
-18.1626928208
 21
29.8442557389
  0
LINE
  5
639
100
AcDbEntity
  8
CURVE
100
AcDbLine
 62
252
  6
CONTINUOUS
 10
-17.0517314896
 20
27.0558224968
 11
-17.0722545779
 21
27.1415800751
  0
LINE
  5
63A
100
AcDbEntity
  8
CURVE
100
AcDbLine
 62
252
  6
CONTINUOUS
 10
-17.2255927856
 20
26.3977587638
 11
-17.2207326986
 21
26.3770289059
  0
LINE
  5
63B
100
AcDbEntity
  8
CURVE
100
AcDbLine
 62
252
  6
CONTINUOUS
 10
-18.2507962327
 20
26.0842323329
 11
-18.2556172298
 21
26.104935933
  0
LINE
  5
63C
100
AcDbEntity
  8
CURVE
100
AcDbLine
 62
252
  6
CONTINUOUS
 10
-16.6824842561
 20
24.3791281375
 11
-16.6870613204
 21
24.3989336784
  0
LINE
  5
63D
100
AcDbEntity
  8
CURVE
100
AcDbLine
 62
252
  6
CONTINUOUS
 10
-17.169059425
 20
28.6842609567
 11
-17.1642924835
 21
28.6634250075
  0
LINE
  5
63E
100
AcDbEntity
  8
CURVE
100
AcDbLine
 62
252
  6
CONTINUOUS
 10
-17.5981370453
 20
27.7723399229
 11
-17.5937064851
 21
27.7523385157
  0
LINE
  5
63F
100
AcDbEntity
  8
CURVE
100
AcDbLine
 62
252
  6
CONTINUOUS
 10
-18.8592282619
 20
28.3534579941
 11
-18.8636230491
 21
28.3735169703
  0
LINE
  5
640
100
AcDbEntity
  8
CURVE
100
AcDbLine
 62
252
  6
CONTINUOUS
 10
-18.1626928208
 20
29.8442557389
 11
-18.1651291855
 21
29.8557099424
  0
LINE
  5
641
100
AcDbEntity
  8
CURVE
100
AcDbLine
 62
252
  6
CONTINUOUS
 10
-17.2207326986
 20
26.3770289059
 11
-17.2170268061
 21
26.3566897018
  0
LINE
  5
642
100
AcDbEntity
  8
CURVE
100
AcDbLine
 62
252
  6
CONTINUOUS
 10
-18.2556172298
 20
26.104935933
 11
-18.259307184
 21
26.1253124662
  0
LINE
  5
643
100
AcDbEntity
  8
CURVE
100
AcDbLine
 62
252
  6
CONTINUOUS
 10
-16.6870613204
 20
24.3989336784
 11
-16.6905663662
 21
24.4184144912
  0
LINE
  5
644
100
AcDbEntity
  8
CURVE
100
AcDbLine
 62
252
  6
CONTINUOUS
 10
-16.2572832262
 20
25.3363376124
 11
-16.2538125302
 21
25.3168369664
  0
LINE
  5
645
100
AcDbEntity
  8
CURVE
100
AcDbLine
 62
252
  6
CONTINUOUS
 10
-17.1642924835
 20
28.6634250075
 11
-17.1606827571
 21
28.6429707944
  0
LINE
  5
646
100
AcDbEntity
  8
CURVE
100
AcDbLine
 62
252
  6
CONTINUOUS
 10
-17.0722545779
 20
27.1415800751
 11
-17.0868993505
 21
27.2262305549
  0
LINE
  5
647
100
AcDbEntity
  8
CURVE
100
AcDbLine
 62
252
  6
CONTINUOUS
 10
-18.1651291855
 20
29.8557099424
 11
-18.1686617239
 21
29.8762115303
  0
LINE
  5
648
100
AcDbEntity
  8
CURVE
100
AcDbLine
 62
252
  6
CONTINUOUS
 10
-17.5937064851
 20
27.7523385157
 11
-17.5903420419
 21
27.7326914695
  0
LINE
  5
649
100
AcDbEntity
  8
CURVE
100
AcDbLine
 62
252
  6
CONTINUOUS
 10
-16.588704791
 20
28.6647524672
 11
-16.5920179928
 21
28.6843143241
  0
LINE
  5
64A
100
AcDbEntity
  8
CURVE
100
AcDbLine
 62
252
  6
CONTINUOUS
 10
-14.8477893406
 20
8.2644289363
 11
-14.8452739746
 21
8.2485679506
  0
LINE
  5
64B
100
AcDbEntity
  8
CURVE
100
AcDbLine
 62
252
  6
CONTINUOUS
 10
-14.8009756215
 20
6.4416472429
 11
-14.7989471265
 21
6.4263169507
  0
LINE
  5
64C
100
AcDbEntity
  8
CURVE
100
AcDbLine
 62
252
  6
CONTINUOUS
 10
-15.6818213498
 20
25.360110651
 11
-15.6844203273
 21
25.3799371831
  0
LINE
  5
64D
100
AcDbEntity
  8
CURVE
100
AcDbLine
 62
252
  6
CONTINUOUS
 10
-17.2170268061
 20
26.3566897018
 11
-17.2144906621
 21
26.336884187
  0
LINE
  5
64E
100
AcDbEntity
  8
CURVE
100
AcDbLine
 62
252
  6
CONTINUOUS
 10
-16.6905663662
 20
24.4184144912
 11
-16.6929849567
 21
24.4374547429
  0
LINE
  5
64F
100
AcDbEntity
  8
CURVE
100
AcDbLine
 62
252
  6
CONTINUOUS
 10
-16.2538125302
 20
25.3168369664
 11
-16.2514320413
 21
25.2977747155
  0
LINE
  5
650
100
AcDbEntity
  8
CURVE
100
AcDbLine
 62
252
  6
CONTINUOUS
 10
-17.1606827571
 20
28.6429707944
 11
-17.1582464926
 21
28.6230508006
  0
LINE
  5
651
100
AcDbEntity
  8
CURVE
100
AcDbLine
 62
252
  6
CONTINUOUS
 10
-17.5903420419
 20
27.7326914695
 11
-17.5880603667
 21
27.7135496369
  0
LINE
  5
652
100
AcDbEntity
  8
CURVE
100
AcDbLine
 62
252
  6
CONTINUOUS
 10
-18.1686617239
 20
29.8762115303
 11
-18.1710367385
 21
29.8962309495
  0
LINE
  5
653
100
AcDbEntity
  8
CURVE
100
AcDbLine
 62
252
  6
CONTINUOUS
 10
-16.5920179928
 20
28.6843143241
 11
-16.5942434369
 21
28.7034446672
  0
LINE
  5
654
100
AcDbEntity
  8
CURVE
100
AcDbLine
 62
252
  6
CONTINUOUS
 10
-16.1426736647
 20
29.590345808
 11
-16.1404924611
 21
29.571105885
  0
LINE
  5
655
100
AcDbEntity
  8
CURVE
100
AcDbLine
 62
252
  6
CONTINUOUS
 10
-14.6373721403
 20
24.1264120114
 11
-14.6359206769
 21
24.1071321374
  0
LINE
  5
656
100
AcDbEntity
  8
CURVE
100
AcDbLine
 62
252
  6
CONTINUOUS
 10
-13.9169821909
 20
25.6236736383
 11
-13.9157162299
 21
25.6052145842
  0
LINE
  5
657
100
AcDbEntity
  8
CURVE
100
AcDbLine
 62
252
  6
CONTINUOUS
 10
-14.5458613034
 20
27.8777757898
 11
-14.5445912107
 21
27.8584187695
  0
LINE
  5
658
100
AcDbEntity
  8
CURVE
100
AcDbLine
 62
252
  6
CONTINUOUS
 10
-14.6359206769
 20
24.1071321374
 11
-14.635675705
 21
24.0885707009
  0
LINE
  5
659
100
AcDbEntity
  8
CURVE
100
AcDbLine
 62
252
  6
CONTINUOUS
 10
-13.9157162299
 20
25.6052145842
 11
-13.9155751324
 21
25.5874906452
  0
LINE
  5
65A
100
AcDbEntity
  8
CURVE
100
AcDbLine
 62
252
  6
CONTINUOUS
 10
-14.5445912107
 20
27.8584187695
 11
-14.5445228062
 21
27.8397781551
  0
LINE
  5
65B
100
AcDbEntity
  8
CURVE
100
AcDbLine
 62
252
  6
CONTINUOUS
 10
-14.7972479892
 20
6.3972720175
 11
-14.797552367
 21
6.383130624
  0
LINE
  5
65C
100
AcDbEntity
  8
CURVE
100
AcDbLine
 62
252
  6
CONTINUOUS
 10
-14.842684243
 20
8.2033097494
 11
-14.8434659593
 21
8.1890356995
  0
LINE
  5
65D
100
AcDbEntity
  8
CURVE
100
AcDbLine
 62
252
  6
CONTINUOUS
 10
-13.9155751324
 20
25.5874906452
 11
-13.9165593708
 21
25.5702349158
  0
LINE
  5
65E
100
AcDbEntity
  8
CURVE
100
AcDbLine
 62
252
  6
CONTINUOUS
 10
-14.797552367
 20
6.383130624
 11
-14.7986812478
 21
6.3693168776
  0
LINE
  5
65F
100
AcDbEntity
  8
CURVE
100
AcDbLine
 62
252
  6
CONTINUOUS
 10
-15.6058374545
 20
7.1232723608
 11
-15.6042889127
 21
7.1371025327
  0
LINE
  5
660
100
AcDbEntity
  8
CURVE
100
AcDbLine
 62
252
  6
CONTINUOUS
 10
-14.8434659593
 20
8.1890356995
 11
-14.8450713718
 21
8.1753081537
  0
LINE
  5
661
100
AcDbEntity
  8
CURVE
100
AcDbLine
 62
252
  6
CONTINUOUS
 10
-14.7986812478
 20
6.3693168776
 11
-14.800639828
 21
6.3559266116
  0
LINE
  5
662
100
AcDbEntity
  8
CURVE
100
AcDbLine
 62
252
  6
CONTINUOUS
 10
-15.9740256071
 20
7.8567749321
 11
-15.9777346062
 21
7.8341725469
  0
LINE
  5
663
100
AcDbEntity
  8
CURVE
100
AcDbLine
 62
252
  6
CONTINUOUS
 10
-14.8450713718
 20
8.1753081537
 11
-14.8461359801
 21
8.1689169269
  0
LINE
  5
664
100
AcDbEntity
  8
CURVE
100
AcDbLine
 62
252
  6
CONTINUOUS
 10
-15.6376956377
 20
8.4659543408
 11
-15.6353060099
 21
8.4793745109
  0
LINE
  5
665
100
AcDbEntity
  8
CURVE
100
AcDbLine
 62
252
  6
CONTINUOUS
 10
-15.6042889127
 20
7.1371025327
 11
-15.6019407941
 21
7.1502577329
  0
LINE
  5
666
100
AcDbEntity
  8
CURVE
100
AcDbLine
 62
252
  6
CONTINUOUS
 10
-16.1682134385
 20
6.2364037274
 11
-16.1704366822
 21
6.224633993
  0
LINE
  5
667
100
AcDbEntity
  8
CURVE
100
AcDbLine
 62
252
  6
CONTINUOUS
 10
-15.9777346062
 20
7.8341725469
 11
-15.9820422307
 21
7.8141535062
  0
LINE
  5
668
100
AcDbEntity
  8
CURVE
100
AcDbLine
 62
252
  6
CONTINUOUS
 10
-14.8461359801
 20
8.1689169269
 11
-14.8489439299
 21
8.156144244
  0
LINE
  5
669
100
AcDbEntity
  8
CURVE
100
AcDbLine
 62
252
  6
CONTINUOUS
 10
-15.6353060099
 20
8.4793745109
 11
-15.6340861085
 21
8.4847230623
  0
LINE
  5
66A
100
AcDbEntity
  8
CURVE
100
AcDbLine
 62
252
  6
CONTINUOUS
 10
-15.6019407941
 20
7.1502577329
 11
-15.5988110846
 21
7.1626718675
  0
LINE
  5
66B
100
AcDbEntity
  8
CURVE
100
AcDbLine
 62
252
  6
CONTINUOUS
 10
-16.1704366822
 20
6.224633993
 11
-16.1731167561
 21
6.2144320845
  0
LINE
  5
66C
100
AcDbEntity
  8
CURVE
100
AcDbLine
 62
252
  6
CONTINUOUS
 10
-16.5956362677
 20
7.0772150713
 11
-16.5928708989
 21
7.0876804033
  0
LINE
  5
66D
100
AcDbEntity
  8
CURVE
100
AcDbLine
 62
252
  6
CONTINUOUS
 10
-16.2524818787
 20
9.3647724826
 11
-16.2552739704
 21
9.3544830721
  0
LWPOLYLINE
  5
66E
100
AcDbEntity
  8
RACCORDO
100
AcDbPolyline
 62
253
  6
CONTINUOUS
 90
11
 70
0
 10
-13.0058464284
 20
15.3411610644
 10
-13.0116379829
 20
15.3200361485
 10
-13.0159886427
 20
15.28947429
 10
-13.0158462366
 20
15.2581955429
 10
-13.0113237768
 20
15.2261421626
 10
-13.0024183868
 20
15.1940285646
 10
-12.989171554
 20
15.1624195145
 10
-12.9718194849
 20
15.1311198936
 10
-12.9505481978
 20
15.1005014138
 10
-12.9255525922
 20
15.0714752061
 10
-12.8971481803
 20
15.0446385832
  0
LWPOLYLINE
  5
66F
100
AcDbEntity
  8
ASSI
100
AcDbPolyline
 62
253
  6
CONTINUOUS
 90
11
 70
0
 10
-13.0058175642
 20
15.3412480545
 10
-13.0116379829
 20
15.3200361485
 10
-13.0159886427
 20
15.28947429
 10
-13.0158462366
 20
15.2581955429
 10
-13.0113237768
 20
15.2261421626
 10
-13.0024183868
 20
15.1940285646
 10
-12.989171554
 20
15.1624195145
 10
-12.9718194849
 20
15.1311198936
 10
-12.9505481978
 20
15.1005014138
 10
-12.9255525922
 20
15.0714752061
 10
-12.8971481803
 20
15.0446385832
  0
LINE
  5
670
100
AcDbEntity
  8
CURVE
100
AcDbLine
 62
252
  6
CONTINUOUS
 10
-15.9820422307
 20
7.8141535062
 11
-15.986994311
 21
7.7962103422
  0
LINE
  5
671
100
AcDbEntity
  8
CURVE
100
AcDbLine
 62
252
  6
CONTINUOUS
 10
-17.2102670735
 20
7.9597703267
 11
-17.2137114055
 21
7.9477867983
  0
LINE
  5
672
100
AcDbEntity
  8
CURVE
100
AcDbLine
 62
252
  6
CONTINUOUS
 10
-16.8710864351
 20
8.6201183373
 11
-16.8651723304
 21
8.6401127266
  0
LINE
  5
673
100
AcDbEntity
  8
CURVE
100
AcDbLine
 62
252
  6
CONTINUOUS
 10
-15.6340861085
 20
8.4847230623
 11
-15.6305164561
 21
8.4967791439
  0
LINE
  5
674
100
AcDbEntity
  8
RACCORDO
100
AcDbLine
 62
7
  6
CONTINUOUS
 10
-13.0057807684
 20
15.3413587619
 11
-13.0058464284
 21
15.3411610644
  0
LINE
  5
675
100
AcDbEntity
  8
ASSI
100
AcDbLine
 62
7
  6
CONTINUOUS
 10
-13.0057807684
 20
15.3413587619
 11
-13.0058175642
 21
15.3412480545
  0
LINE
  5
676
100
AcDbEntity
  8
CURVE
100
AcDbLine
 62
252
  6
CONTINUOUS
 10
-15.986994311
 20
7.7962103422
 11
-15.9927810199
 21
7.7793435313
  0
LWPOLYLINE
  5
677
100
AcDbEntity
  8
ASSI
100
AcDbPolyline
 62
7
  6
CONTINUOUS
 90
8
 70
0
 10
-13.0026471013
 20
15.3504096833
 10
-13.0116140762
 20
15.3245759367
 10
-13.0319747541
 20
15.2749284963
 10
-13.0551188863
 20
15.2305721587
 10
-13.0804682185
 20
15.1920997155
 10
-13.1077891284
 20
15.1592322165
 10
-13.1376277328
 20
15.1310866547
 10
-13.1700239172
 20
15.1077409768
  0
LINE
  5
678
100
AcDbEntity
  8
RACCORDO
100
AcDbLine
 62
7
  6
CONTINUOUS
 10
-13.0026471013
 20
15.3504096833
 11
-13.0110239233
 21
15.3262768393
  0
LINE
  5
679
100
AcDbEntity
  8
CURVE
100
AcDbLine
 62
252
  6
CONTINUOUS
 10
-16.5928708989
 20
7.0876804033
 11
-16.5894081674
 21
7.0975278222
  0
LINE
  5
67A
100
AcDbEntity
  8
CURVE
100
AcDbLine
 62
252
  6
CONTINUOUS
 10
-16.2552739704
 20
9.3544830721
 11
-16.2588507636
 21
9.3445997879
  0
LINE
  5
67B
100
AcDbEntity
  8
CURVE
100
AcDbLine
 62
252
  6
CONTINUOUS
 10
-16.6695007785
 20
10.2307821635
 11
-16.6659192196
 21
10.2406681993
  0
LINE
  5
67C
100
AcDbEntity
  8
CURVE
100
AcDbLine
 62
252
  6
CONTINUOUS
 10
-16.8651723304
 20
8.6401127266
 11
-16.858253356
 21
8.6592023161
  0
LINE
  5
67D
100
AcDbEntity
  8
CURVE
100
AcDbLine
 62
252
  6
CONTINUOUS
 10
-17.2137114055
 20
7.9477867983
 11
-17.2179402864
 21
7.9364961874
  0
LINE
  5
67E
100
AcDbEntity
  8
CURVE
100
AcDbLine
 62
252
  6
CONTINUOUS
 10
-17.2497389001
 20
9.2704221092
 11
-17.2542888049
 21
9.2597512658
  0
LINE
  5
67F
100
AcDbEntity
  8
CURVE
100
AcDbLine
 62
252
  6
CONTINUOUS
 10
-16.858253356
 20
8.6592023161
 11
-16.8503461555
 21
8.6773305093
  0
LINE
  5
680
100
AcDbEntity
  8
CURVE
100
AcDbLine
 62
252
  6
CONTINUOUS
 10
-17.9675907433
 20
8.3225911761
 11
-17.9628388932
 21
8.3329679892
  0
LINE
  5
681
100
AcDbEntity
  8
CURVE
100
AcDbLine
 62
252
  6
CONTINUOUS
 10
-16.2588507636
 20
9.3445997879
 11
-16.2632356669
 21
9.3351557134
  0
LINE
  5
682
100
AcDbEntity
  8
CURVE
100
AcDbLine
 62
252
  6
CONTINUOUS
 10
-16.6659192196
 20
10.2406681993
 11
-16.6615318184
 21
10.250113716
  0
LINE
  5
683
100
AcDbEntity
  8
CURVE
100
AcDbLine
 62
252
  6
CONTINUOUS
 10
-17.2179402864
 20
7.9364961874
 11
-17.2229402721
 21
7.9259494379
  0
LINE
  5
684
100
AcDbEntity
  8
CURVE
100
AcDbLine
 62
252
  6
CONTINUOUS
 10
-16.8503461555
 20
8.6773305093
 11
-16.841135514
 21
8.6950900632
  0
LINE
  5
685
100
AcDbEntity
  8
CURVE
100
AcDbLine
 62
252
  6
CONTINUOUS
 10
-17.2542888049
 20
9.2597512658
 11
-17.2596360632
 21
9.2497446685
  0
LINE
  5
686
100
AcDbEntity
  8
CURVE
100
AcDbLine
 62
252
  6
CONTINUOUS
 10
-17.9628388932
 20
8.3329679892
 11
-17.9597961749
 21
8.3385267174
  0
LINE
  5
687
100
AcDbEntity
  8
CURVE
100
AcDbLine
 62
252
  6
CONTINUOUS
 10
-16.6615318184
 20
10.250113716
 11
-16.6563347447
 21
10.2590646453
  0
LINE
  5
688
100
AcDbEntity
  8
CURVE
100
AcDbLine
 62
252
  6
CONTINUOUS
 10
-18.006826407
 20
10.1475110905
 11
-18.0011214872
 21
10.1570250443
  0
LINE
  5
689
100
AcDbEntity
  8
CURVE
100
AcDbLine
 62
252
  6
CONTINUOUS
 10
-17.9597961749
 20
8.3385267174
 11
-17.9538957636
 21
8.3476068189
  0
LINE
  5
68A
100
AcDbEntity
  8
CURVE
100
AcDbLine
 62
252
  6
CONTINUOUS
 10
-17.2596360632
 20
9.2497446685
 11
-17.2657642791
 21
9.2404627308
  0
LINE
  5
68B
100
AcDbEntity
  8
CURVE
100
AcDbLine
 62
252
  6
CONTINUOUS
 10
-16.6563347447
 20
10.2590646453
 11
-16.6503327788
 21
10.2674591541
  0
LINE
  5
68C
100
AcDbEntity
  8
CURVE
100
AcDbLine
 62
252
  6
CONTINUOUS
 10
-18.0011214872
 20
10.1570250443
 11
-17.9947370238
 21
10.1656346849
  0
LINE
  5
68D
100
AcDbEntity
  8
CURVE
100
AcDbLine
 62
252
  6
CONTINUOUS
 10
-17.9947370238
 20
10.1656346849
 11
-17.987708678
 21
10.1733022571
  0
LWPOLYLINE
  5
68E
100
AcDbEntity
  8
RACCORDO
100
AcDbPolyline
 62
253
  6
CONTINUOUS
 90
13
 70
0
 10
-12.6287232258
 20
15.540175725
 10
-12.6650094
 20
15.5146395576
 10
-12.6992741764
 20
15.4843496225
 10
-12.7317412432
 20
15.4498278727
 10
-12.7630226996
 20
15.4113533742
 10
-12.792577999
 20
15.3691503723
 10
-12.8188472943
 20
15.3240615207
 10
-12.8417768806
 20
15.2774938849
 10
-12.8615247923
 20
15.2299999427
 10
-12.876901996
 20
15.1818477437
 10
-12.8875706904
 20
15.1339820529
 10
-12.8941946774
 20
15.0878650091
 10
-12.8971481803
 20
15.0446385832
  0
LWPOLYLINE
  5
68F
100
AcDbEntity
  8
ASSI
100
AcDbPolyline
 62
253
  6
CONTINUOUS
 90
13
 70
0
 10
-12.6287232258
 20
15.540175725
 10
-12.6650094
 20
15.5146395576
 10
-12.6992741764
 20
15.4843496225
 10
-12.7317412432
 20
15.4498278727
 10
-12.7630226996
 20
15.4113533742
 10
-12.792577999
 20
15.3691503723
 10
-12.8188472943
 20
15.3240615207
 10
-12.8417768806
 20
15.2774938849
 10
-12.8615247923
 20
15.2299999427
 10
-12.876901996
 20
15.1818477437
 10
-12.8875706904
 20
15.1339820529
 10
-12.8941946774
 20
15.0878650091
 10
-12.8971481803
 20
15.0446385832
  0
LWPOLYLINE
  5
690
100
AcDbEntity
  8
RACCORDO
100
AcDbPolyline
 62
253
  6
CONTINUOUS
 90
13
 70
0
 10
-13.9851608934
 20
15.1606727562
 10
-14.0209932259
 20
15.1357241706
 10
-14.0561734541
 20
15.1056644519
 10
-14.090102606
 20
15.0710053911
 10
-14.1222030104
 20
15.032337087
 10
-14.1519281318
 20
14.9903178986
 10
-14.1787718763
 20
14.945663237
 10
-14.2022772074
 20
14.8991333841
 10
-14.2220439277
 20
14.8515205481
 10
-14.2377354929
 20
14.8036353763
 10
-14.2490847411
 20
14.7562931524
 10
-14.2558984424
 20
14.7102999163
 10
-14.2580605879
 20
14.66643874
  0
LWPOLYLINE
  5
691
100
AcDbEntity
  8
ASSI
100
AcDbPolyline
 62
253
  6
CONTINUOUS
 90
13
 70
0
 10
-13.9851608934
 20
15.1606727562
 10
-14.0209932259
 20
15.1357241706
 10
-14.0561734541
 20
15.1056644519
 10
-14.090102606
 20
15.0710053911
 10
-14.1222030104
 20
15.032337087
 10
-14.1519281318
 20
14.9903178986
 10
-14.1787718763
 20
14.945663237
 10
-14.2022772074
 20
14.8991333841
 10
-14.2220439277
 20
14.8515205481
 10
-14.2377354929
 20
14.8036353763
 10
-14.2490847411
 20
14.7562931524
 10
-14.2558984424
 20
14.7102999163
 10
-14.2580605879
 20
14.66643874
  0
LINE
  5
692
100
AcDbEntity
  8
RACCORDO
100
AcDbLine
 62
7
  6
CONTINUOUS
 10
-13.1679799115
 20
15.108981593
 11
-13.1784874821
 21
15.1026039876
  0
LINE
  5
693
100
AcDbEntity
  8
ASSI
100
AcDbLine
 62
7
  6
CONTINUOUS
 10
-13.1705009296
 20
15.1073972271
 11
-13.1783691511
 21
15.1026731954
  0
LINE
  5
694
100
AcDbEntity
  8
RACCORDO
100
AcDbLine
 62
7
  6
CONTINUOUS
 10
-12.5940163302
 20
15.6996524053
 11
-12.830781323
 21
15.5587823251
  0
LINE
  5
695
100
AcDbEntity
  8
ASSI
100
AcDbLine
 62
7
  6
CONTINUOUS
 10
-12.5940163302
 20
15.6996524053
 11
-12.830781323
 21
15.5587823251
  0
LINE
  5
696
100
AcDbEntity
  8
RACCORDO
100
AcDbLine
 62
253
  6
CONTINUOUS
 10
-12.4705552486
 20
15.6342822685
 11
-12.6287232219
 21
15.5401757229
  0
LINE
  5
697
100
AcDbEntity
  8
ASSI
100
AcDbLine
 62
253
  6
CONTINUOUS
 10
-12.4705552486
 20
15.6342822685
 11
-12.6287232219
 21
15.5401757229
  0
LINE
  5
698
100
AcDbEntity
  8
ASSI
100
AcDbLine
 62
7
  6
CONTINUOUS
 10
-13.1784090183
 20
15.1026355509
 11
-13.1760602634
 21
15.1040176205
  0
LINE
  5
699
100
AcDbEntity
  8
RACCORDO
100
AcDbLine
 62
7
  6
CONTINUOUS
 10
-13.178527041
 20
15.1025665074
 11
-13.1760602634
 21
15.1040176205
  0
LINE
  5
69A
100
AcDbEntity
  8
RACCORDO
100
AcDbLine
 62
253
  6
CONTINUOUS
 10
-12.8413487006
 20
15.8326674471
 11
-13.9852744203
 21
15.1607258379
  0
LINE
  5
69B
100
AcDbEntity
  8
ASSI
100
AcDbLine
 62
253
  6
CONTINUOUS
 10
-12.8413487006
 20
15.8326674471
 11
-13.9852744203
 21
15.1607258379
  0
LWPOLYLINE
  5
69C
100
AcDbEntity
  8
RACCORDO
100
AcDbPolyline
 62
253
  6
CONTINUOUS
 90
9
 70
0
 10
-12.8307813231
 20
15.5587823251
 10
-12.8197319908
 20
15.5646700884
 10
-12.7966632123
 20
15.5731489031
 10
-12.7716988333
 20
15.5776435729
 10
-12.7451165366
 20
15.5781041795
 10
-12.717212111
 20
15.5745256619
 10
-12.6882960199
 20
15.5669479089
 10
-12.6586899391
 20
15.5554552905
 10
-12.6287232258
 20
15.540175725
  0
LWPOLYLINE
  5
69D
100
AcDbEntity
  8
ASSI
100
AcDbPolyline
 62
253
  6
CONTINUOUS
 90
9
 70
0
 10
-12.8307813231
 20
15.5587823251
 10
-12.8197319908
 20
15.5646700884
 10
-12.7966632123
 20
15.5731489031
 10
-12.7716988333
 20
15.5776435729
 10
-12.7451165366
 20
15.5781041795
 10
-12.717212111
 20
15.5745256619
 10
-12.6882960199
 20
15.5669479089
 10
-12.6586899391
 20
15.5554552905
 10
-12.6287232258
 20
15.540175725
  0
LINE
  5
69E
100
AcDbEntity
  8
CURVE
100
AcDbLine
 62
252
  6
CONTINUOUS
 10
-18.1573982287
 20
25.8984712286
 11
-18.170724218
 21
25.9158654205
  0
LINE
  5
69F
100
AcDbEntity
  8
CURVE
100
AcDbLine
 62
252
  6
CONTINUOUS
 10
-16.6008681041
 20
24.2092302222
 11
-16.6131933645
 21
24.2265383908
  0
LINE
  5
6A0
100
AcDbEntity
  8
CURVE
100
AcDbLine
 62
252
  6
CONTINUOUS
 10
-18.170724218
 20
25.9158654205
 11
-18.1832742094
 21
25.9338686603
  0
LINE
  5
6A1
100
AcDbEntity
  8
CURVE
100
AcDbLine
 62
252
  6
CONTINUOUS
 10
-16.6131933645
 20
24.2265383908
 11
-16.6247203453
 21
24.2443000079
  0
LINE
  5
6A2
100
AcDbEntity
  8
CURVE
100
AcDbLine
 62
252
  6
CONTINUOUS
 10
-18.1832742094
 20
25.9338686603
 11
-18.1949599697
 21
25.952329723
  0
LINE
  5
6A3
100
AcDbEntity
  8
CURVE
100
AcDbLine
 62
252
  6
CONTINUOUS
 10
-18.792476408
 20
28.1992213625
 11
-18.8036553656
 21
28.2172452198
  0
LINE
  5
6A4
100
AcDbEntity
  8
CURVE
100
AcDbLine
 62
252
  6
CONTINUOUS
 10
-16.6247203453
 20
24.2443000079
 11
-16.635386076
 21
24.2623957284
  0
LINE
  5
6A5
100
AcDbEntity
  8
CURVE
100
AcDbLine
 62
252
  6
CONTINUOUS
 10
-17.2820797015
 20
26.5302776599
 11
-17.2709234707
 21
26.5111610573
  0
LINE
  5
6A6
100
AcDbEntity
  8
CURVE
100
AcDbLine
 62
252
  6
CONTINUOUS
 10
-18.1949599697
 20
25.952329723
 11
-18.2057107246
 21
25.9711079933
  0
LINE
  5
6A7
100
AcDbEntity
  8
CURVE
100
AcDbLine
 62
252
  6
CONTINUOUS
 10
-18.8036553656
 20
28.2172452198
 11
-18.8139944335
 21
28.2356078996
  0
LINE
  5
6A8
100
AcDbEntity
  8
CURVE
100
AcDbLine
 62
252
  6
CONTINUOUS
 10
-16.635386076
 20
24.2623957284
 11
-16.6454684518
 21
24.2813519968
  0
LINE
  5
6A9
100
AcDbEntity
  8
CURVE
100
AcDbLine
 62
252
  6
CONTINUOUS
 10
-16.3088193106
 20
25.4729559117
 11
-16.2987474869
 21
25.4539935507
  0
LINE
  5
6AA
100
AcDbEntity
  8
CURVE
100
AcDbLine
 62
252
  6
CONTINUOUS
 10
-17.6439744438
 20
27.889414354
 11
-17.6343007896
 21
27.8708443375
  0
LINE
  5
6AB
100
AcDbEntity
  8
CURVE
100
AcDbLine
 62
252
  6
CONTINUOUS
 10
-18.2057107246
 20
25.9711079933
 11
-18.2158250971
 21
25.9905326392
  0
LINE
  5
6AC
100
AcDbEntity
  8
CURVE
100
AcDbLine
 62
252
  6
CONTINUOUS
 10
-17.2709234707
 20
26.5111610573
 11
-17.2606616854
 21
26.4914337567
  0
LINE
  5
6AD
100
AcDbEntity
  8
CURVE
100
AcDbLine
 62
252
  6
CONTINUOUS
 10
-16.9133852691
 20
26.7165755002
 11
-16.9561582282
 21
26.7993335983
  0
LINE
  5
6AE
100
AcDbEntity
  8
CURVE
100
AcDbLine
 62
252
  6
CONTINUOUS
 10
-18.8139944335
 20
28.2356078996
 11
-18.8236182458
 21
28.254571279
  0
LWPOLYLINE
  5
6AF
100
AcDbEntity
  8
ASSI
100
AcDbPolyline
 62
7
  6
CONTINUOUS
 90
4
 70
0
 10
-12.9955345834
 20
16.0156026098
 10
-12.977208386
 20
15.977415609
 10
-12.9548686295
 20
15.9412677548
 10
-12.9287237934
 20
15.9075823475
  0
LWPOLYLINE
  5
6B0
100
AcDbEntity
  8
RACCORDO
100
AcDbPolyline
 62
7
  6
CONTINUOUS
 90
4
 70
0
 10
-12.9955347503
 20
16.0156030107
 10
-12.9772085611
 20
15.9774159292
 10
-12.9548687979
 20
15.9412679974
 10
-12.9287239551
 20
15.9075825343
  0
LINE
  5
6B1
100
AcDbEntity
  8
CURVE
100
AcDbLine
 62
252
  6
CONTINUOUS
 10
-16.6454684518
 20
24.2813519968
 11
-16.6547582704
 21
24.3007612523
  0
LINE
  5
6B2
100
AcDbEntity
  8
CURVE
100
AcDbLine
 62
252
  6
CONTINUOUS
 10
-16.2987474869
 20
25.4539935507
 11
-16.2894710313
 21
25.4345765795
  0
LINE
  5
6B3
100
AcDbEntity
  8
CURVE
100
AcDbLine
 62
252
  6
CONTINUOUS
 10
-17.6343007896
 20
27.8708443375
 11
-17.625341468
 21
27.8516864017
  0
LINE
  5
6B4
100
AcDbEntity
  8
CURVE
100
AcDbLine
 62
252
  6
CONTINUOUS
 10
-18.2158250971
 20
25.9905326392
 11
-18.225140228
 21
26.0105185065
  0
LINE
  5
6B5
100
AcDbEntity
  8
CURVE
100
AcDbLine
 62
252
  6
CONTINUOUS
 10
-17.2606616854
 20
26.4914337567
 11
-17.2512102715
 21
26.4711412739
  0
LINE
  5
6B6
100
AcDbEntity
  8
CURVE
100
AcDbLine
 62
252
  6
CONTINUOUS
 10
-18.1262089166
 20
29.740974938
 11
-18.1354099614
 21
29.7610925254
  0
LINE
  5
6B7
100
AcDbEntity
  8
CURVE
100
AcDbLine
 62
252
  6
CONTINUOUS
 10
-18.8236182458
 20
28.254571279
 11
-18.83253471
 21
28.2741220015
  0
LINE
  5
6B8
100
AcDbEntity
  8
CURVE
100
AcDbLine
 62
252
  6
CONTINUOUS
 10
-16.9561582282
 20
26.7993335983
 11
-16.9934583844
 21
26.8839852573
  0
LINE
  5
6B9
100
AcDbEntity
  8
CURVE
100
AcDbLine
 62
252
  6
CONTINUOUS
 10
-16.6547582704
 20
24.3007612523
 11
-16.6631961773
 21
24.320512292
  0
LINE
  5
6BA
100
AcDbEntity
  8
CURVE
100
AcDbLine
 62
252
  6
CONTINUOUS
 10
-16.2894710313
 20
25.4345765795
 11
-16.2810495849
 21
25.4148160356
  0
LINE
  5
6BB
100
AcDbEntity
  8
CURVE
100
AcDbLine
 62
252
  6
CONTINUOUS
 10
-15.6468897197
 20
25.2458787714
 11
-15.6555913462
 21
25.2663890609
  0
LINE
  5
6BC
100
AcDbEntity
  8
CURVE
100
AcDbLine
 62
252
  6
CONTINUOUS
 10
-17.625341468
 20
27.8516864017
 11
-17.6171650569
 21
27.8320583674
  0
LINE
  5
6BD
100
AcDbEntity
  8
CURVE
100
AcDbLine
 62
252
  6
CONTINUOUS
 10
-17.2512102715
 20
26.4711412739
 11
-17.2426504184
 21
26.4504322161
  0
LINE
  5
6BE
100
AcDbEntity
  8
CURVE
100
AcDbLine
 62
252
  6
CONTINUOUS
 10
-17.1943346468
 20
28.757813336
 11
-17.1858801711
 21
28.7370979085
  0
LINE
  5
6BF
100
AcDbEntity
  8
CURVE
100
AcDbLine
 62
252
  6
CONTINUOUS
 10
-18.83253471
 20
28.2741220015
 11
-18.8406668537
 21
28.294120686
  0
LINE
  5
6C0
100
AcDbEntity
  8
CURVE
100
AcDbLine
 62
252
  6
CONTINUOUS
 10
-18.1354099614
 20
29.7610925254
 11
-18.1437187074
 21
29.7816172742
  0
LINE
  5
6C1
100
AcDbEntity
  8
CURVE
100
AcDbLine
 62
252
  6
CONTINUOUS
 10
-16.6631961773
 20
24.320512292
 11
-16.6707251697
 21
24.3404843084
  0
LINE
  5
6C2
100
AcDbEntity
  8
CURVE
100
AcDbLine
 62
252
  6
CONTINUOUS
 10
-16.2810495849
 20
25.4148160356
 11
-16.2735404067
 21
25.3948325788
  0
LINE
  5
6C3
100
AcDbEntity
  8
CURVE
100
AcDbLine
 62
252
  6
CONTINUOUS
 10
-16.9934583844
 20
26.8839852573
 11
-17.0253103689
 21
26.9696724093
  0
LINE
  5
6C4
100
AcDbEntity
  8
CURVE
100
AcDbLine
 62
252
  6
CONTINUOUS
 10
-15.6555913462
 20
25.2663890609
 11
-15.6633189759
 21
25.2871901744
  0
LINE
  5
6C5
100
AcDbEntity
  8
CURVE
100
AcDbLine
 62
252
  6
CONTINUOUS
 10
-16.5655351861
 20
28.586025689
 11
-16.5728929196
 21
28.606052899
  0
LINE
  5
6C6
100
AcDbEntity
  8
CURVE
100
AcDbLine
 62
252
  6
CONTINUOUS
 10
-17.6171650569
 20
27.8320583674
 11
-17.609839906
 21
27.8120951097
  0
LINE
  5
6C7
100
AcDbEntity
  8
CURVE
100
AcDbLine
 62
252
  6
CONTINUOUS
 10
-17.2426504184
 20
26.4504322161
 11
-17.2350589323
 21
26.4294689414
  0
LINE
  5
6C8
100
AcDbEntity
  8
CURVE
100
AcDbLine
 62
252
  6
CONTINUOUS
 10
-17.1858801711
 20
28.7370979085
 11
-17.178395661
 21
28.7161224722
  0
LINE
  5
6C9
100
AcDbEntity
  8
RACCORDO
100
AcDbLine
 62
7
  6
CONTINUOUS
 10
-13.0096942745
 20
16.055426693
 11
-12.9955347503
 21
16.0156030107
  0
LINE
  5
6CA
100
AcDbEntity
  8
CURVE
100
AcDbLine
 62
252
  6
CONTINUOUS
 10
-18.1437187074
 20
29.7816172742
 11
-18.1510735951
 21
29.802417801
  0
LWPOLYLINE
  5
6CB
100
AcDbEntity
  8
RACCORDO
100
AcDbPolyline
 62
253
  6
CONTINUOUS
 90
8
 70
0
 10
-13.0147107934
 20
16.0739267202
 10
-13.0113263355
 20
16.0640924932
 10
-13.0024222561
 20
16.0496267378
 10
-12.9891761978
 20
16.0362351396
 10
-12.9718242375
 20
16.0246113927
 10
-12.9505522874
 20
16.0149226089
 10
-12.925555119
 20
16.0067363868
 10
-12.8971481803
 20
15.9998598418
  0
LWPOLYLINE
  5
6CC
100
AcDbEntity
  8
ASSI
100
AcDbPolyline
 62
253
  6
CONTINUOUS
 90
8
 70
0
 10
-13.014710793
 20
16.0739267186
 10
-13.0113263355
 20
16.0640924932
 10
-13.0024222561
 20
16.0496267378
 10
-12.9891761978
 20
16.0362351396
 10
-12.9718242375
 20
16.0246113927
 10
-12.9505522874
 20
16.0149226089
 10
-12.925555119
 20
16.0067363868
 10
-12.8971481803
 20
15.9998598418
  0
LINE
  5
6CD
100
AcDbEntity
  8
CURVE
100
AcDbLine
 62
252
  6
CONTINUOUS
 10
-16.6707251697
 20
24.3404843084
 11
-16.6768584675
 21
24.3591223237
  0
LINE
  5
6CE
100
AcDbEntity
  8
CURVE
100
AcDbLine
 62
252
  6
CONTINUOUS
 10
-15.2273511688
 20
26.1943337483
 11
-15.2339441429
 21
26.2143955745
  0
LINE
  5
6CF
100
AcDbEntity
  8
CURVE
100
AcDbLine
 62
252
  6
CONTINUOUS
 10
-16.2735404067
 20
25.3948325788
 11
-16.2674287075
 21
25.3761820928
  0
LINE
  5
6D0
100
AcDbEntity
  8
CURVE
100
AcDbLine
 62
252
  6
CONTINUOUS
 10
-14.6589619643
 20
24.2193792992
 11
-14.6522006438
 21
24.1986942299
  0
LINE
  5
6D1
100
AcDbEntity
  8
CURVE
100
AcDbLine
 62
252
  6
CONTINUOUS
 10
-17.2350589323
 20
26.4294689414
 11
-17.231578609
 21
26.418721366
  0
LWPOLYLINE
  5
6D2
100
AcDbEntity
  8
RACCORDO
100
AcDbPolyline
 62
253
  6
CONTINUOUS
 90
18
 70
0
 10
-12.9309083938
 20
16.1239847939
 10
-12.9708581702
 20
16.2477130176
 10
-13.0169924619
 20
16.3710476573
 10
-13.0696143838
 20
16.4946611802
 10
-13.1284061227
 20
16.6178901466
 10
-13.1924320589
 20
16.7387333479
 10
-13.2617316199
 20
16.8570782339
 10
-13.3362496209
 20
16.9730469713
 10
-13.4149128969
 20
17.0849877953
 10
-13.4977668515
 20
17.1928502081
 10
-13.5847508435
 20
17.2966939033
 10
-13.6746383261
 20
17.395028968
 10
-13.767542604
 20
17.4878362792
 10
-13.8633379867
 20
17.5751423173
 10
-13.9604472284
 20
17.6555208819
 10
-14.0583449112
 20
17.7284963233
 10
-14.1575518683
 20
17.7945468741
 10
-14.2580644518
 20
17.8536746103
  0
LWPOLYLINE
  5
6D3
100
AcDbEntity
  8
ASSI
100
AcDbPolyline
 62
253
  6
CONTINUOUS
 90
18
 70
0
 10
-12.9309083938
 20
16.1239847939
 10
-12.9708581702
 20
16.2477130176
 10
-13.0169924619
 20
16.3710476573
 10
-13.0696143838
 20
16.4946611802
 10
-13.1284061227
 20
16.6178901466
 10
-13.1924320589
 20
16.7387333479
 10
-13.2617316199
 20
16.8570782339
 10
-13.3362496209
 20
16.9730469713
 10
-13.4149128969
 20
17.0849877953
 10
-13.4977668515
 20
17.1928502081
 10
-13.5847508435
 20
17.2966939033
 10
-13.6746383261
 20
17.395028968
 10
-13.767542604
 20
17.4878362792
 10
-13.8633379867
 20
17.5751423173
 10
-13.9604472284
 20
17.6555208819
 10
-14.0583449112
 20
17.7284963233
 10
-14.1575518683
 20
17.7945468741
 10
-14.2580644518
 20
17.8536746103
  0
LINE
  5
6D4
100
AcDbEntity
  8
CURVE
100
AcDbLine
 62
252
  6
CONTINUOUS
 10
-15.6633189759
 20
25.2871901744
 11
-15.670003042
 21
25.30811631
  0
LINE
  5
6D5
100
AcDbEntity
  8
CURVE
100
AcDbLine
 62
252
  6
CONTINUOUS
 10
-16.5728929196
 20
28.606052899
 11
-16.5788775159
 21
28.6248030839
  0
LINE
  5
6D6
100
AcDbEntity
  8
CURVE
100
AcDbLine
 62
252
  6
CONTINUOUS
 10
-17.609839906
 20
27.8120951097
 11
-17.6034311309
 21
27.7919461376
  0
LINE
  5
6D7
100
AcDbEntity
  8
CURVE
100
AcDbLine
 62
252
  6
CONTINUOUS
 10
-15.8221729008
 20
27.0289412966
 11
-15.7955014099
 21
26.9429357695
  0
LINE
  5
6D8
100
AcDbEntity
  8
CURVE
100
AcDbLine
 62
252
  6
CONTINUOUS
 10
-17.0253103689
 20
26.9696724093
 11
-17.0517314896
 21
27.0558224968
  0
LINE
  5
6D9
100
AcDbEntity
  8
CURVE
100
AcDbLine
 62
252
  6
CONTINUOUS
 10
-17.178395661
 20
28.7161224722
 11
-17.1719463793
 21
28.6950499748
  0
LINE
  5
6DA
100
AcDbEntity
  8
CURVE
100
AcDbLine
 62
252
  6
CONTINUOUS
 10
-18.1510735951
 20
29.802417801
 11
-18.1574159579
 21
29.823349097
  0
LINE
  5
6DB
100
AcDbEntity
  8
CURVE
100
AcDbLine
 62
252
  6
CONTINUOUS
 10
-15.6115909785
 20
27.5840707893
 11
-15.6175925989
 21
27.6050242737
  0
LINE
  5
6DC
100
AcDbEntity
  8
CURVE
100
AcDbLine
 62
252
  6
CONTINUOUS
 10
-15.670003042
 20
25.30811631
 11
-15.6730554118
 21
25.3190261407
  0
LINE
  5
6DD
100
AcDbEntity
  8
CURVE
100
AcDbLine
 62
252
  6
CONTINUOUS
 10
-16.2674287075
 20
25.3761820928
 11
-16.2618297258
 21
25.356160801
  0
LINE
  5
6DE
100
AcDbEntity
  8
CURVE
100
AcDbLine
 62
252
  6
CONTINUOUS
 10
-15.2339441429
 20
26.2143955745
 11
-15.239322078
 21
26.2336649058
  0
LINE
  5
6DF
100
AcDbEntity
  8
CURVE
100
AcDbLine
 62
252
  6
CONTINUOUS
 10
-14.6522006438
 20
24.1986942299
 11
-14.6465375752
 21
24.1780113445
  0
LINE
  5
6E0
100
AcDbEntity
  8
RACCORDO
100
AcDbLine
 62
253
  6
CONTINUOUS
 10
-12.8971481803
 20
15.9998598418
 11
-12.9309083938
 21
16.1239847939
  0
LINE
  5
6E1
100
AcDbEntity
  8
ASSI
100
AcDbLine
 62
253
  6
CONTINUOUS
 10
-12.8971481803
 20
15.9998598418
 11
-12.9309083938
 21
16.1239847939
  0
LINE
  5
6E2
100
AcDbEntity
  8
RACCORDO
100
AcDbLine
 62
7
  6
CONTINUOUS
 10
-13.0147107934
 20
16.0739267202
 11
-13.0096942745
 21
16.055426693
  0
LWPOLYLINE
  5
6E3
100
AcDbEntity
  8
ASSI
100
AcDbPolyline
 62
7
  6
CONTINUOUS
 90
3
 70
0
 10
-13.014710793
 20
16.0739267186
 10
-13.0096941955
 20
16.0554264015
 10
-12.9955345834
 20
16.0156026098
  0
LINE
  5
6E4
100
AcDbEntity
  8
CURVE
100
AcDbLine
 62
252
  6
CONTINUOUS
 10
-16.5788775159
 20
28.6248030839
 11
-16.584317276
 21
28.6448742067
  0
LINE
  5
6E5
100
AcDbEntity
  8
CURVE
100
AcDbLine
 62
252
  6
CONTINUOUS
 10
-17.1719463793
 20
28.6950499748
 11
-17.169059425
 21
28.6842609567
  0
LINE
  5
6E6
100
AcDbEntity
  8
CURVE
100
AcDbLine
 62
252
  6
CONTINUOUS
 10
-16.1554551341
 20
29.6491349499
 11
-16.1501132038
 21
29.6291487011
  0
LINE
  5
6E7
100
AcDbEntity
  8
ASSI
100
AcDbLine
 62
7
  6
CONTINUOUS
 10
-13.0147423836
 20
16.0740555955
 11
-13.014710793
 21
16.0739267186
  0
LINE
  5
6E8
100
AcDbEntity
  8
RACCORDO
100
AcDbLine
 62
7
  6
CONTINUOUS
 10
-13.0147449436
 20
16.0740660946
 11
-13.0147107934
 21
16.0739267202
  0
LINE
  5
6E9
100
AcDbEntity
  8
CURVE
100
AcDbLine
 62
252
  6
CONTINUOUS
 10
-15.7955014099
 20
26.9429357695
 11
-15.774774543
 21
26.8571552095
  0
LINE
  5
6EA
100
AcDbEntity
  8
CURVE
100
AcDbLine
 62
252
  6
CONTINUOUS
 10
-15.6730554118
 20
25.3190261407
 11
-15.6780270407
 21
25.3397541368
  0
LINE
  5
6EB
100
AcDbEntity
  8
CURVE
100
AcDbLine
 62
252
  6
CONTINUOUS
 10
-15.6175925989
 20
27.6050242737
 11
-15.6224448547
 21
27.6257586566
  0
LINE
  5
6EC
100
AcDbEntity
  8
CURVE
100
AcDbLine
 62
252
  6
CONTINUOUS
 10
-14.6465375752
 20
24.1780113445
 11
-14.6438892235
 21
24.1666039547
  0
LINE
  5
6ED
100
AcDbEntity
  8
CURVE
100
AcDbLine
 62
252
  6
CONTINUOUS
 10
-16.2618297258
 20
25.356160801
 11
-16.2572832262
 21
25.3363376124
  0
LINE
  5
6EE
100
AcDbEntity
  8
CURVE
100
AcDbLine
 62
252
  6
CONTINUOUS
 10
-15.239322078
 20
26.2336649058
 11
-15.2438853745
 21
26.2535787449
  0
LINE
  5
6EF
100
AcDbEntity
  8
CURVE
100
AcDbLine
 62
252
  6
CONTINUOUS
 10
-16.584317276
 20
28.6448742067
 11
-16.588704791
 21
28.6647524672
  0
LINE
  5
6F0
100
AcDbEntity
  8
CURVE
100
AcDbLine
 62
252
  6
CONTINUOUS
 10
-16.1501132038
 20
29.6291487011
 11
-16.1459411032
 21
29.6099584021
  0
LINE
  5
6F1
100
AcDbEntity
  8
CURVE
100
AcDbLine
 62
252
  6
CONTINUOUS
 10
-14.6438892235
 20
24.1666039547
 11
-14.6400315224
 21
24.1462830335
  0
LINE
  5
6F2
100
AcDbEntity
  8
CURVE
100
AcDbLine
 62
252
  6
CONTINUOUS
 10
-15.6780270407
 20
25.3397541368
 11
-15.6818213498
 21
25.360110651
  0
LINE
  5
6F3
100
AcDbEntity
  8
CURVE
100
AcDbLine
 62
252
  6
CONTINUOUS
 10
-15.6224448547
 20
27.6257586566
 11
-15.6261198178
 21
27.646115722
  0
LINE
  5
6F4
100
AcDbEntity
  8
CURVE
100
AcDbLine
 62
252
  6
CONTINUOUS
 10
-14.5520096411
 20
27.9181607125
 11
-14.5483363043
 21
27.8977338127
  0
LINE
  5
6F5
100
AcDbEntity
  8
CURVE
100
AcDbLine
 62
252
  6
CONTINUOUS
 10
-15.2438853745
 20
26.2535787449
 11
-15.2473526125
 21
26.2731507885
  0
LINE
  5
6F6
100
AcDbEntity
  8
CURVE
100
AcDbLine
 62
252
  6
CONTINUOUS
 10
-16.1459411032
 20
29.6099584021
 11
-16.1426736647
 21
29.590345808
  0
LINE
  5
6F7
100
AcDbEntity
  8
CURVE
100
AcDbLine
 62
252
  6
CONTINUOUS
 10
-15.774774543
 20
26.8571552095
 11
-15.7609513573
 21
26.7731555925
  0
LINE
  5
6F8
100
AcDbEntity
  8
CURVE
100
AcDbLine
 62
252
  6
CONTINUOUS
 10
-14.6400315224
 20
24.1462830335
 11
-14.6373721403
 21
24.1264120114
  0
LINE
  5
6F9
100
AcDbEntity
  8
CURVE
100
AcDbLine
 62
252
  6
CONTINUOUS
 10
-13.9193789974
 20
25.6427489955
 11
-13.9169821909
 21
25.6236736383
  0
LINE
  5
6FA
100
AcDbEntity
  8
CURVE
100
AcDbLine
 62
252
  6
CONTINUOUS
 10
-15.6261198178
 20
27.646115722
 11
-15.6286026173
 21
27.6659520401
  0
LINE
  5
6FB
100
AcDbEntity
  8
CURVE
100
AcDbLine
 62
252
  6
CONTINUOUS
 10
-14.5483363043
 20
27.8977338127
 11
-14.5458613034
 21
27.8777757898
  0
LINE
  5
6FC
100
AcDbEntity
  8
CURVE
100
AcDbLine
 62
252
  6
CONTINUOUS
 10
-15.2473526125
 20
26.2731507885
 11
-15.249707576
 21
26.2922348253
  0
LINE
  5
6FD
100
AcDbEntity
  8
CURVE
100
AcDbLine
 62
252
  6
CONTINUOUS
 10
-14.800639828
 20
6.3559266116
 11
-14.8034245445
 21
6.3430612161
  0
LINE
  5
6FE
100
AcDbEntity
  8
CURVE
100
AcDbLine
 62
252
  6
CONTINUOUS
 10
-14.8034245445
 20
6.3430612161
 11
-14.8051936966
 21
6.3366173806
  0
LINE
  5
6FF
100
AcDbEntity
  8
CURVE
100
AcDbLine
 62
252
  6
CONTINUOUS
 10
-14.8489439299
 20
8.156144244
 11
-14.8525522968
 21
8.1440658093
  0
LINE
  5
700
100
AcDbEntity
  8
CURVE
100
AcDbLine
 62
252
  6
CONTINUOUS
 10
-15.5988110846
 20
7.1626718675
 11
-15.5971597778
 21
7.1677811602
  0
LINE
  5
701
100
AcDbEntity
  8
CURVE
100
AcDbLine
 62
252
  6
CONTINUOUS
 10
-14.8051936966
 20
6.3366173806
 11
-14.8091416995
 21
6.3249631133
  0
LINE
  5
702
100
AcDbEntity
  8
CURVE
100
AcDbLine
 62
252
  6
CONTINUOUS
 10
-16.1731167561
 20
6.2144320845
 11
-16.1765747927
 21
6.2045884825
  0
LINE
  5
703
100
AcDbEntity
  8
CURVE
100
AcDbLine
 62
252
  6
CONTINUOUS
 10
-15.6305164561
 20
8.4967791439
 11
-15.6261519088
 21
8.5081353996
  0
LINE
  5
704
100
AcDbEntity
  8
CURVE
100
AcDbLine
 62
252
  6
CONTINUOUS
 10
-15.5971597778
 20
7.1677811602
 11
-15.5927434204
 21
7.179198049
  0
LINE
  5
705
100
AcDbEntity
  8
CURVE
100
AcDbLine
 62
252
  6
CONTINUOUS
 10
-14.8525522968
 20
8.1440658093
 11
-14.8569605412
 21
8.1326843234
  0
LWPOLYLINE
  5
706
100
AcDbEntity
  8
RACCORDO
100
AcDbPolyline
 62
7
  6
CONTINUOUS
 90
7
 70
0
 10
-13.0110239233
 20
15.3262768393
 10
-13.0303858258
 20
15.2783872053
 10
-13.0528155844
 20
15.2345397778
 10
-13.0776391188
 20
15.1959691112
 10
-13.1047131588
 20
15.1625603189
 10
-13.1346374835
 20
15.1335955891
 10
-13.1679799115
 20
15.108981593
  0
LINE
  5
707
100
AcDbEntity
  8
CURVE
100
AcDbLine
 62
252
  6
CONTINUOUS
 10
-14.8091416995
 20
6.3249631133
 11
-14.811393956
 21
6.3194514414
  0
LWPOLYLINE
  5
708
100
AcDbEntity
  8
RACCORDO
100
AcDbPolyline
 62
7
  6
CONTINUOUS
 90
8
 70
0
 10
-13.0026471013
 20
15.3504096833
 10
-12.9875758689
 20
15.3866270964
 10
-12.9691260566
 20
15.4210334775
 10
-12.9474141442
 20
15.4534717936
 10
-12.9224919208
 20
15.4838070173
 10
-12.8945289511
 20
15.5117219432
 10
-12.8638498693
 20
15.5368147019
 10
-12.8307813233
 20
15.558782325
  0
LWPOLYLINE
  5
709
100
AcDbEntity
  8
ASSI
100
AcDbPolyline
 62
7
  6
CONTINUOUS
 90
8
 70
0
 10
-13.0026471013
 20
15.3504096833
 10
-12.9875758689
 20
15.3866270964
 10
-12.9691260566
 20
15.4210334775
 10
-12.9474141442
 20
15.4534717936
 10
-12.9224919208
 20
15.4838070173
 10
-12.8945289511
 20
15.5117219432
 10
-12.8638498693
 20
15.5368147019
 10
-12.8307813233
 20
15.558782325
  0
LINE
  5
70A
100
AcDbEntity
  8
CURVE
100
AcDbLine
 62
252
  6
CONTINUOUS
 10
-15.9927810199
 20
7.7793435313
 11
-15.9996889009
 21
7.7630340261
  0
LINE
  5
70B
100
AcDbEntity
  8
CURVE
100
AcDbLine
 62
252
  6
CONTINUOUS
 10
-16.5894081674
 20
7.0975278222
 11
-16.5851461707
 21
7.1069192386
  0
LINE
  5
70C
100
AcDbEntity
  8
CURVE
100
AcDbLine
 62
252
  6
CONTINUOUS
 10
-16.1765747927
 20
6.2045884825
 11
-16.180823362
 21
6.1952362096
  0
LINE
  5
70D
100
AcDbEntity
  8
CURVE
100
AcDbLine
 62
252
  6
CONTINUOUS
 10
-15.6261519088
 20
8.5081353996
 11
-15.6239263554
 21
8.5130158252
  0
LINE
  5
70E
100
AcDbEntity
  8
CURVE
100
AcDbLine
 62
252
  6
CONTINUOUS
 10
-14.8569605412
 20
8.1326843234
 11
-14.8592073519
 21
8.1277916241
  0
LINE
  5
70F
100
AcDbEntity
  8
CURVE
100
AcDbLine
 62
252
  6
CONTINUOUS
 10
-15.5927434204
 20
7.179198049
 11
-15.5875846369
 21
7.1897785998
  0
LINE
  5
710
100
AcDbEntity
  8
CURVE
100
AcDbLine
 62
252
  6
CONTINUOUS
 10
-15.9996889009
 20
7.7630340261
 11
-16.0077294268
 21
7.7473331706
  0
LINE
  5
711
100
AcDbEntity
  8
CURVE
100
AcDbLine
 62
252
  6
CONTINUOUS
 10
-15.6239263554
 20
8.5130158252
 11
-15.6184432281
 21
8.5232505796
  0
LINE
  5
712
100
AcDbEntity
  8
CURVE
100
AcDbLine
 62
252
  6
CONTINUOUS
 10
-14.8592073519
 20
8.1277916241
 11
-14.8647407259
 21
8.1175278579
  0
LINE
  5
713
100
AcDbEntity
  8
CURVE
100
AcDbLine
 62
252
  6
CONTINUOUS
 10
-16.5851461707
 20
7.1069192386
 11
-16.5800796129
 21
7.1158067504
  0
LINE
  5
714
100
AcDbEntity
  8
CURVE
100
AcDbLine
 62
252
  6
CONTINUOUS
 10
-16.180823362
 20
6.1952362096
 11
-16.1858646403
 21
6.186422856
  0
LINE
  5
715
100
AcDbEntity
  8
CURVE
100
AcDbLine
 62
252
  6
CONTINUOUS
 10
-16.2632356669
 20
9.3351557134
 11
-16.2684323698
 21
9.3262049982
  0
LINE
  5
716
100
AcDbEntity
  8
CURVE
100
AcDbLine
 62
252
  6
CONTINUOUS
 10
-17.2229402721
 20
7.9259494379
 11
-17.2286938337
 21
7.9161954755
  0
LINE
  5
717
100
AcDbEntity
  8
CURVE
100
AcDbLine
 62
252
  6
CONTINUOUS
 10
-15.5875846369
 20
7.1897785998
 11
-15.5816992966
 21
7.1995005893
  0
LINE
  5
718
100
AcDbEntity
  8
CURVE
100
AcDbLine
 62
252
  6
CONTINUOUS
 10
-16.0077294268
 20
7.7473331706
 11
-16.016908287
 21
7.7323000959
  0
LINE
  5
719
100
AcDbEntity
  8
CURVE
100
AcDbLine
 62
252
  6
CONTINUOUS
 10
-16.841135514
 20
8.6950900632
 11
-16.8308768618
 21
8.7116499789
  0
LINE
  5
71A
100
AcDbEntity
  8
CURVE
100
AcDbLine
 62
252
  6
CONTINUOUS
 10
-15.6184432281
 20
8.5232505796
 11
-15.6122272623
 21
8.5326381698
  0
LINE
  5
71B
100
AcDbEntity
  8
CURVE
100
AcDbLine
 62
252
  6
CONTINUOUS
 10
-17.2286938337
 20
7.9161954755
 11
-17.2314085825
 21
7.9122367008
  0
LINE
  5
71C
100
AcDbEntity
  8
CURVE
100
AcDbLine
 62
252
  6
CONTINUOUS
 10
-16.5800796129
 20
7.1158067504
 11
-16.5742103953
 21
7.1241349635
  0
LINE
  5
71D
100
AcDbEntity
  8
CURVE
100
AcDbLine
 62
252
  6
CONTINUOUS
 10
-16.2684323698
 20
9.3262049982
 11
-16.2744359111
 21
9.31780958
  0
LINE
  5
71E
100
AcDbEntity
  8
CURVE
100
AcDbLine
 62
252
  6
CONTINUOUS
 10
-16.016908287
 20
7.7323000959
 11
-16.0272231265
 21
7.7180012802
  0
LINE
  5
71F
100
AcDbEntity
  8
CURVE
100
AcDbLine
 62
252
  6
CONTINUOUS
 10
-16.8308768618
 20
8.7116499789
 11
-16.8200896989
 21
8.7264749287
  0
LINE
  5
720
100
AcDbEntity
  8
CURVE
100
AcDbLine
 62
252
  6
CONTINUOUS
 10
-17.2314085825
 20
7.9122367008
 11
-17.2381947268
 21
7.9037065778
  0
LINE
  5
721
100
AcDbEntity
  8
CURVE
100
AcDbLine
 62
252
  6
CONTINUOUS
 10
-17.9538957636
 20
8.3476068189
 11
-17.9473211644
 21
8.3557720212
  0
LINE
  5
722
100
AcDbEntity
  8
CURVE
100
AcDbLine
 62
252
  6
CONTINUOUS
 10
-17.2657642791
 20
9.2404627308
 11
-17.2726480824
 21
9.2319678091
  0
LINE
  5
723
100
AcDbEntity
  8
CURVE
100
AcDbLine
 62
252
  6
CONTINUOUS
 10
-16.8200896989
 20
8.7264749287
 11
-16.8076229069
 21
8.7408820162
  0
LINE
  5
724
100
AcDbEntity
  8
CURVE
100
AcDbLine
 62
252
  6
CONTINUOUS
 10
-16.6503327788
 20
10.2674591541
 11
-16.6435423139
 21
10.2752289705
  0
LINE
  5
725
100
AcDbEntity
  8
CURVE
100
AcDbLine
 62
252
  6
CONTINUOUS
 10
-16.2744359111
 20
9.31780958
 11
-16.2812296754
 21
9.3100378585
  0
LINE
  5
726
100
AcDbEntity
  8
CURVE
100
AcDbLine
 62
252
  6
CONTINUOUS
 10
-17.9473211644
 20
8.3557720212
 11
-17.9427306196
 21
8.3606640581
  0
LINE
  5
727
100
AcDbEntity
  8
CURVE
100
AcDbLine
 62
252
  6
CONTINUOUS
 10
-17.2726480824
 20
9.2319678091
 11
-17.2763844254
 21
9.2280130685
  0
LINE
  5
728
100
AcDbEntity
  8
CURVE
100
AcDbLine
 62
252
  6
CONTINUOUS
 10
-17.2381947268
 20
7.9037065778
 11
-17.2453811987
 21
7.8962542285
  0
LINE
  5
729
100
AcDbEntity
  8
CURVE
100
AcDbLine
 62
252
  6
CONTINUOUS
 10
-16.8076229069
 20
8.7408820162
 11
-16.7941242169
 21
8.7538843248
  0
LINE
  5
72A
100
AcDbEntity
  8
CURVE
100
AcDbLine
 62
252
  6
CONTINUOUS
 10
-16.6435423139
 20
10.2752289705
 11
-16.6363990724
 21
10.2819569605
  0
LINE
  5
72B
100
AcDbEntity
  8
CURVE
100
AcDbLine
 62
252
  6
CONTINUOUS
 10
-16.2812296754
 20
9.3100378585
 11
-16.2883774063
 21
9.3033072762
  0
LINE
  5
72C
100
AcDbEntity
  8
CURVE
100
AcDbLine
 62
252
  6
CONTINUOUS
 10
-17.987708678
 20
10.1733022571
 11
-17.9802176969
 21
10.1801308875
  0
LINE
  5
72D
100
AcDbEntity
  8
CURVE
100
AcDbLine
 62
252
  6
CONTINUOUS
 10
-17.9427306196
 20
8.3606640581
 11
-17.9350198767
 21
8.3675738582
  0
LINE
  5
72E
100
AcDbEntity
  8
CURVE
100
AcDbLine
 62
252
  6
CONTINUOUS
 10
-17.2763844254
 20
9.2280130685
 11
-17.2842878336
 21
9.221077181
  0
LINE
  5
72F
100
AcDbEntity
  8
CURVE
100
AcDbLine
 62
252
  6
CONTINUOUS
 10
-16.6363990724
 20
10.2819569605
 11
-16.6316174665
 21
10.285804704
  0
LINE
  5
730
100
AcDbEntity
  8
CURVE
100
AcDbLine
 62
252
  6
CONTINUOUS
 10
-17.9802176969
 20
10.1801308875
 11
-17.9720503067
 21
10.1860481345
  0
LINE
  5
731
100
AcDbEntity
  8
CURVE
100
AcDbLine
 62
252
  6
CONTINUOUS
 10
-17.2842878336
 20
9.221077181
 11
-17.2928509446
 21
9.215070392
  0
LINE
  5
732
100
AcDbEntity
  8
CURVE
100
AcDbLine
 62
252
  6
CONTINUOUS
 10
-16.6316174665
 20
10.285804704
 11
-16.6230757688
 21
10.291592223
  0
LINE
  5
733
100
AcDbEntity
  8
CURVE
100
AcDbLine
 62
252
  6
CONTINUOUS
 10
-17.9720503067
 20
10.1860481345
 11
-17.9632364315
 21
10.1910214927
  0
LINE
  5
734
100
AcDbEntity
  8
CURVE
100
AcDbLine
 62
252
  6
CONTINUOUS
 10
-16.6230757688
 20
10.291592223
 11
-16.6140217007
 21
10.2964371408
  0
LINE
  5
735
100
AcDbEntity
  8
CURVE
100
AcDbLine
 62
252
  6
CONTINUOUS
 10
-17.9632364315
 20
10.1910214927
 11
-17.9538110454
 21
10.195021565
  0
LINE
  5
736
100
AcDbEntity
  8
CURVE
100
AcDbLine
 62
252
  6
CONTINUOUS
 10
-16.3581864474
 20
24.0795207188
 11
-16.3708705177
 21
24.076653808
  0
LINE
  5
737
100
AcDbEntity
  8
CURVE
100
AcDbLine
 62
252
  6
CONTINUOUS
 10
-14.727122197
 20
23.9379748536
 11
-14.7407796491
 21
23.9349932001
  0
LINE
  5
738
100
AcDbEntity
  8
CURVE
100
AcDbLine
 62
252
  6
CONTINUOUS
 10
-14.7407796491
 20
23.9349932001
 11
-14.7551042249
 21
23.9335313314
  0
LINE
  5
739
100
AcDbEntity
  8
CURVE
100
AcDbLine
 62
252
  6
CONTINUOUS
 10
-14.7551042249
 20
23.9335313314
 11
-14.7625576099
 21
23.9333770813
  0
LINE
  5
73A
100
AcDbEntity
  8
CURVE
100
AcDbLine
 62
252
  6
CONTINUOUS
 10
-16.4416334144
 20
24.0831558396
 11
-16.4567238721
 21
24.0885864673
  0
LINE
  5
73B
100
AcDbEntity
  8
CURVE
100
AcDbLine
 62
252
  6
CONTINUOUS
 10
-16.4567238721
 20
24.0885864673
 11
-16.4717812249
 21
24.0952999959
  0
LINE
  5
73C
100
AcDbEntity
  8
CURVE
100
AcDbLine
 62
252
  6
CONTINUOUS
 10
-16.4717812249
 20
24.0952999959
 11
-16.4867006115
 21
24.103231491
  0
LINE
  5
73D
100
AcDbEntity
  8
RACCORDO
100
AcDbLine
 62
7
  6
CONTINUOUS
 10
-4.5319842081
 20
15.7239285624
 11
-4.4517208209
 21
15.6775854885
  0
LINE
  5
73E
100
AcDbEntity
  8
ASSI
100
AcDbLine
 62
7
  6
CONTINUOUS
 10
-4.5319842081
 20
15.7239285624
 11
-4.4517208209
 21
15.6775854885
  0
LINE
  5
73F
100
AcDbEntity
  8
CURVE
100
AcDbLine
 62
252
  6
CONTINUOUS
 10
-16.4867006115
 20
24.103231491
 11
-16.5015550733
 21
24.1124532459
  0
LINE
  5
740
100
AcDbEntity
  8
CURVE
100
AcDbLine
 62
252
  6
CONTINUOUS
 10
-18.0598329802
 20
25.8103226136
 11
-18.0750255512
 21
25.8201101091
  0
LINE
  5
741
100
AcDbEntity
  8
CURVE
100
AcDbLine
 62
252
  6
CONTINUOUS
 10
-16.5015550733
 20
24.1124532459
 11
-16.5165059861
 21
24.1230298206
  0
LINE
  5
742
100
AcDbEntity
  8
CURVE
100
AcDbLine
 62
252
  6
CONTINUOUS
 10
-18.0750255512
 20
25.8201101091
 11
-18.0902979141
 21
25.8313482174
  0
LINE
  5
743
100
AcDbEntity
  8
CURVE
100
AcDbLine
 62
252
  6
CONTINUOUS
 10
-14.8882197569
 20
23.9811504886
 11
-14.90401491
 21
23.993401312
  0
LINE
  5
744
100
AcDbEntity
  8
CURVE
100
AcDbLine
 62
252
  6
CONTINUOUS
 10
-16.5165059861
 20
24.1230298206
 11
-16.5314461733
 21
24.1349042921
  0
LINE
  5
745
100
AcDbEntity
  8
CURVE
100
AcDbLine
 62
252
  6
CONTINUOUS
 10
-18.0902979141
 20
25.8313482174
 11
-18.1055338328
 21
25.843971042
  0
LINE
  5
746
100
AcDbEntity
  8
CURVE
100
AcDbLine
 62
252
  6
CONTINUOUS
 10
-14.90401491
 20
23.993401312
 11
-14.9195931285
 21
24.0069137849
  0
LINE
  5
747
100
AcDbEntity
  8
CURVE
100
AcDbLine
 62
252
  6
CONTINUOUS
 10
-16.5314461733
 20
24.1349042921
 11
-16.5462592964
 21
24.148000792
  0
LINE
  5
748
100
AcDbEntity
  8
CURVE
100
AcDbLine
 62
252
  6
CONTINUOUS
 10
-18.1055338328
 20
25.843971042
 11
-18.1206062294
 21
25.8578904084
  0
LINE
  5
749
100
AcDbEntity
  8
CURVE
100
AcDbLine
 62
252
  6
CONTINUOUS
 10
-14.9195931285
 20
24.0069137849
 11
-14.9348385889
 21
24.0215963088
  0
LINE
  5
74A
100
AcDbEntity
  8
CURVE
100
AcDbLine
 62
252
  6
CONTINUOUS
 10
-16.5462592964
 20
24.148000792
 11
-16.5599510111
 21
24.1613337081
  0
LINE
  5
74B
100
AcDbEntity
  8
CURVE
100
AcDbLine
 62
252
  6
CONTINUOUS
 10
-16.397828266
 20
25.5873125
 11
-16.3839853762
 21
25.573828339
  0
LINE
  5
74C
100
AcDbEntity
  8
CURVE
100
AcDbLine
 62
252
  6
CONTINUOUS
 10
-17.3569180457
 20
26.6241600827
 11
-17.3420597572
 21
26.60912765
  0
LINE
  5
74D
100
AcDbEntity
  8
CURVE
100
AcDbLine
 62
252
  6
CONTINUOUS
 10
-18.7274801183
 20
28.1195041622
 11
-18.7415768246
 21
28.1338853562
  0
LINE
  5
74E
100
AcDbEntity
  8
CURVE
100
AcDbLine
 62
252
  6
CONTINUOUS
 10
-18.1206062294
 20
25.8578904084
 11
-18.1353811121
 21
25.8729960884
  0
LINE
  5
74F
100
AcDbEntity
  8
CURVE
100
AcDbLine
 62
252
  6
CONTINUOUS
 10
-14.9348385889
 20
24.0215963088
 11
-14.9432761394
 21
24.0303859347
  0
LINE
  5
750
100
AcDbEntity
  8
CURVE
100
AcDbLine
 62
252
  6
CONTINUOUS
 10
-16.5599510111
 20
24.1613337081
 11
-16.574148192
 21
24.1764936272
  0
LINE
  5
751
100
AcDbEntity
  8
CURVE
100
AcDbLine
 62
252
  6
CONTINUOUS
 10
-16.3839853762
 20
25.573828339
 11
-16.3698201367
 21
25.5586881472
  0
LINE
  5
752
100
AcDbEntity
  8
CURVE
100
AcDbLine
 62
252
  6
CONTINUOUS
 10
-18.1353811121
 20
25.8729960884
 11
-18.1434012326
 21
25.8818428457
  0
LINE
  5
753
100
AcDbEntity
  8
CURVE
100
AcDbLine
 62
252
  6
CONTINUOUS
 10
-17.3420597572
 20
26.60912765
 11
-17.3275964886
 21
26.5929968379
  0
LINE
  5
754
100
AcDbEntity
  8
CURVE
100
AcDbLine
 62
252
  6
CONTINUOUS
 10
-18.7415768246
 20
28.1338853562
 11
-18.7546141726
 21
28.148473158
  0
LINE
  5
755
100
AcDbEntity
  8
CURVE
100
AcDbLine
 62
252
  6
CONTINUOUS
 10
-14.9432761394
 20
24.0303859347
 11
-14.9577318068
 21
24.0466418161
  0
LINE
  5
756
100
AcDbEntity
  8
CURVE
100
AcDbLine
 62
252
  6
CONTINUOUS
 10
-16.6998938679
 20
26.4195831057
 11
-16.7588807973
 21
26.4873555604
  0
LINE
  5
757
100
AcDbEntity
  8
CURVE
100
AcDbLine
 62
252
  6
CONTINUOUS
 10
-16.574148192
 20
24.1764936272
 11
-16.5878223022
 21
24.1925040046
  0
LINE
  5
758
100
AcDbEntity
  8
CURVE
100
AcDbLine
 62
252
  6
CONTINUOUS
 10
-16.3698201367
 20
25.5586881472
 11
-16.3561868385
 21
25.542707255
  0
LINE
  5
759
100
AcDbEntity
  8
CURVE
100
AcDbLine
 62
252
  6
CONTINUOUS
 10
-18.1434012326
 20
25.8818428457
 11
-18.1573982287
 21
25.8984712286
  0
LINE
  5
75A
100
AcDbEntity
  8
CURVE
100
AcDbLine
 62
252
  6
CONTINUOUS
 10
-17.3275964886
 20
26.5929968379
 11
-17.3205992895
 21
26.5846176797
  0
LINE
  5
75B
100
AcDbEntity
  8
CURVE
100
AcDbLine
 62
252
  6
CONTINUOUS
 10
-17.7038357174
 20
27.9759593261
 11
-17.6904652564
 21
27.9598477621
  0
LINE
  5
75C
100
AcDbEntity
  8
CURVE
100
AcDbLine
 62
252
  6
CONTINUOUS
 10
-18.7546141726
 20
28.148473158
 11
-18.767872096
 21
28.1647020573
  0
LINE
  5
75D
100
AcDbEntity
  8
CURVE
100
AcDbLine
 62
252
  6
CONTINUOUS
 10
-14.9577318068
 20
24.0466418161
 11
-14.9715335808
 21
24.0637279376
  0
LINE
  5
75E
100
AcDbEntity
  8
CURVE
100
AcDbLine
 62
252
  6
CONTINUOUS
 10
-15.3659592392
 20
25.458321851
 11
-15.3523004826
 21
25.4412082946
  0
LINE
  5
75F
100
AcDbEntity
  8
CURVE
100
AcDbLine
 62
252
  6
CONTINUOUS
 10
-16.5878223022
 20
24.1925040046
 11
-16.6008681041
 21
24.2092302222
  0
LINE
  5
760
100
AcDbEntity
  8
CURVE
100
AcDbLine
 62
252
  6
CONTINUOUS
 10
-16.3561868385
 20
25.542707255
 11
-16.3431879254
 21
25.526017079
  0
LINE
  5
761
100
AcDbEntity
  8
CURVE
100
AcDbLine
 62
252
  6
CONTINUOUS
 10
-17.3205992895
 20
26.5846176797
 11
-17.3070038699
 21
26.5671516213
  0
LINE
  5
762
100
AcDbEntity
  8
CURVE
100
AcDbLine
 62
252
  6
CONTINUOUS
 10
-17.4719180358
 20
28.5473853955
 11
-17.4852111294
 21
28.564710081
  0
LINE
  5
763
100
AcDbEntity
  8
CURVE
100
AcDbLine
 62
252
  6
CONTINUOUS
 10
-16.7588807973
 20
26.4873555604
 11
-16.8142760936
 21
26.5598735777
  0
LINE
  5
764
100
AcDbEntity
  8
CURVE
100
AcDbLine
 62
252
  6
CONTINUOUS
 10
-17.6904652564
 20
27.9598477621
 11
-17.6777119816
 21
27.9430095095
  0
LINE
  5
765
100
AcDbEntity
  8
CURVE
100
AcDbLine
 62
252
  6
CONTINUOUS
 10
-18.767872096
 20
28.1647020573
 11
-18.7805226882
 21
28.1816628363
  0
LINE
  5
766
100
AcDbEntity
  8
CURVE
100
AcDbLine
 62
252
  6
CONTINUOUS
 10
-14.9715335808
 20
24.0637279376
 11
-14.9845875208
 21
24.0815152135
  0
LINE
  5
767
100
AcDbEntity
  8
CURVE
100
AcDbLine
 62
252
  6
CONTINUOUS
 10
-15.3523004826
 20
25.4412082946
 11
-15.3393633041
 21
25.4233664191
  0
LINE
  5
768
100
AcDbEntity
  8
CURVE
100
AcDbLine
 62
252
  6
CONTINUOUS
 10
-16.3431879254
 20
25.526017079
 11
-16.3309127409
 21
25.5087474449
  0
LINE
  5
769
100
AcDbEntity
  8
CURVE
100
AcDbLine
 62
252
  6
CONTINUOUS
 10
-17.3070038699
 20
26.5671516213
 11
-17.2941327544
 21
26.5489887305
  0
LINE
  5
76A
100
AcDbEntity
  8
CURVE
100
AcDbLine
 62
252
  6
CONTINUOUS
 10
-17.4852111294
 20
28.564710081
 11
-17.4977891854
 21
28.5827593093
  0
LINE
  5
76B
100
AcDbEntity
  8
CURVE
100
AcDbLine
 62
252
  6
CONTINUOUS
 10
-17.8457938241
 20
29.9536462643
 11
-17.8333147249
 21
29.9355961381
  0
LINE
  5
76C
100
AcDbEntity
  8
CURVE
100
AcDbLine
 62
252
  6
CONTINUOUS
 10
-17.6777119816
 20
27.9430095095
 11
-17.6656637449
 21
27.9255741127
  0
LINE
  5
76D
100
AcDbEntity
  8
CURVE
100
AcDbLine
 62
252
  6
CONTINUOUS
 10
-16.0357076745
 20
27.4391248134
 11
-15.9835763322
 21
27.3626129957
  0
LINE
  5
76E
100
AcDbEntity
  8
CURVE
100
AcDbLine
 62
252
  6
CONTINUOUS
 10
-18.7805226882
 20
28.1816628363
 11
-18.792476408
 21
28.1992213625
  0
LINE
  5
76F
100
AcDbEntity
  8
CURVE
100
AcDbLine
 62
252
  6
CONTINUOUS
 10
-16.8142760936
 20
26.5598735777
 11
-16.8660972229
 21
26.6365645084
  0
LINE
  5
770
100
AcDbEntity
  8
CURVE
100
AcDbLine
 62
252
  6
CONTINUOUS
 10
-14.9845875208
 20
24.0815152135
 11
-14.9968120369
 21
24.0998770279
  0
LINE
  5
771
100
AcDbEntity
  8
CURVE
100
AcDbLine
 62
252
  6
CONTINUOUS
 10
-15.3393633041
 20
25.4233664191
 11
-15.3272231973
 21
25.404910906
  0
LINE
  5
772
100
AcDbEntity
  8
CURVE
100
AcDbLine
 62
252
  6
CONTINUOUS
 10
-15.1697443454
 20
26.081430924
 11
-15.1813850662
 21
26.099188165
  0
LINE
  5
773
100
AcDbEntity
  8
CURVE
100
AcDbLine
 62
252
  6
CONTINUOUS
 10
-16.3309127409
 20
25.5087474449
 11
-16.3194363136
 21
25.4910222293
  0
LINE
  5
774
100
AcDbEntity
  8
CURVE
100
AcDbLine
 62
252
  6
CONTINUOUS
 10
-17.2941327544
 20
26.5489887305
 11
-17.2820797015
 21
26.5302776599
  0
LINE
  5
775
100
AcDbEntity
  8
CURVE
100
AcDbLine
 62
252
  6
CONTINUOUS
 10
-16.5164106285
 20
28.4918348973
 11
-16.5277259888
 21
28.5096228231
  0
LINE
  5
776
100
AcDbEntity
  8
CURVE
100
AcDbLine
 62
252
  6
CONTINUOUS
 10
-17.4977891854
 20
28.5827593093
 11
-17.5095792985
 21
28.6014169045
  0
LINE
  5
777
100
AcDbEntity
  8
CURVE
100
AcDbLine
 62
252
  6
CONTINUOUS
 10
-17.6656637449
 20
27.9255741127
 11
-17.6543967058
 21
27.907668747
  0
LINE
  5
778
100
AcDbEntity
  8
CURVE
100
AcDbLine
 62
252
  6
CONTINUOUS
 10
-17.8333147249
 20
29.9355961381
 11
-17.8216459253
 21
29.9169817894
  0
LINE
  5
779
100
AcDbEntity
  8
CURVE
100
AcDbLine
 62
252
  6
CONTINUOUS
 10
-14.9968120369
 20
24.0998770279
 11
-15.008138589
 21
24.1186930074
  0
LINE
  5
77A
100
AcDbEntity
  8
CURVE
100
AcDbLine
 62
252
  6
CONTINUOUS
 10
-15.3272231973
 20
25.404910906
 11
-15.3159448836
 21
25.3859514229
  0
LINE
  5
77B
100
AcDbEntity
  8
CURVE
100
AcDbLine
 62
252
  6
CONTINUOUS
 10
-15.1813850662
 20
26.099188165
 11
-15.1921521727
 21
26.1173037007
  0
LINE
  5
77C
100
AcDbEntity
  8
CURVE
100
AcDbLine
 62
252
  6
CONTINUOUS
 10
-15.9835763322
 20
27.3626129957
 11
-15.9359794012
 21
27.2823584272
  0
LINE
  5
77D
100
AcDbEntity
  8
CURVE
100
AcDbLine
 62
252
  6
CONTINUOUS
 10
-16.8660972229
 20
26.6365645084
 11
-16.9133852691
 21
26.7165755002
  0
LINE
  5
77E
100
AcDbEntity
  8
CURVE
100
AcDbLine
 62
252
  6
CONTINUOUS
 10
-15.5608665693
 20
27.4731550866
 11
-15.5718808891
 21
27.4918419931
  0
LINE
  5
77F
100
AcDbEntity
  8
CURVE
100
AcDbLine
 62
252
  6
CONTINUOUS
 10
-16.3194363136
 20
25.4910222293
 11
-16.3088193106
 21
25.4729559117
  0
LINE
  5
780
100
AcDbEntity
  8
CURVE
100
AcDbLine
 62
252
  6
CONTINUOUS
 10
-16.5277259888
 20
28.5096228231
 11
-16.5381808859
 21
28.5277651563
  0
LINE
  5
781
100
AcDbEntity
  8
CURVE
100
AcDbLine
 62
252
  6
CONTINUOUS
 10
-17.5095792985
 20
28.6014169045
 11
-17.520519125
 21
28.6205718258
  0
LINE
  5
782
100
AcDbEntity
  8
CURVE
100
AcDbLine
 62
252
  6
CONTINUOUS
 10
-17.6543967058
 20
27.907668747
 11
-17.6439744438
 21
27.889414354
  0
LINE
  5
783
100
AcDbEntity
  8
CURVE
100
AcDbLine
 62
252
  6
CONTINUOUS
 10
-15.008138589
 20
24.1186930074
 11
-15.4207128581
 21
24.8424175727
  0
LWPOLYLINE
  5
784
100
AcDbEntity
  8
CURVE
100
AcDbPolyline
 62
252
  6
CONTINUOUS
 90
3
 70
0
 10
-15.3159448836
 20
25.3859514229
 10
-15.2126424688
 20
25.2039849369
 10
-14.6957999329
 20
24.2992812227
  0
LINE
  5
785
100
AcDbEntity
  8
CURVE
100
AcDbLine
 62
252
  6
CONTINUOUS
 10
-17.8216459253
 20
29.9169817894
 11
-17.8108505416
 21
29.897920017
  0
LINE
  5
786
100
AcDbEntity
  8
CURVE
100
AcDbLine
 62
252
  6
CONTINUOUS
 10
-15.4207128581
 20
24.8424175727
 11
-15.6268655339
 21
25.2063225874
  0
LINE
  5
787
100
AcDbEntity
  8
CURVE
100
AcDbLine
 62
252
  6
CONTINUOUS
 10
-14.6957999329
 20
24.2992812227
 11
-14.6852490338
 21
24.2799863847
  0
LINE
  5
788
100
AcDbEntity
  8
CURVE
100
AcDbLine
 62
252
  6
CONTINUOUS
 10
-17.520519125
 20
28.6205718258
 11
-17.9170699593
 21
29.3519924886
  0
LINE
  5
789
100
AcDbEntity
  8
CURVE
100
AcDbLine
 62
252
  6
CONTINUOUS
 10
-17.8108505416
 20
29.897920017
 11
-17.213868045
 21
28.7978761059
  0
LINE
  5
78A
100
AcDbEntity
  8
CURVE
100
AcDbLine
 62
252
  6
CONTINUOUS
 10
-15.1921521727
 20
26.1173037007
 11
-15.2021403928
 21
26.1358131777
  0
LINE
  5
78B
100
AcDbEntity
  8
CURVE
100
AcDbLine
 62
252
  6
CONTINUOUS
 10
-17.9170699593
 20
29.3519924886
 11
-18.1161773049
 21
29.7213803806
  0
LINE
  5
78C
100
AcDbEntity
  8
CURVE
100
AcDbLine
 62
252
  6
CONTINUOUS
 10
-15.6268655339
 20
25.2063225874
 11
-15.6372889176
 21
25.2258115359
  0
LINE
  5
78D
100
AcDbEntity
  8
CURVE
100
AcDbLine
 62
252
  6
CONTINUOUS
 10
-15.5718808891
 20
27.4918419931
 11
-15.582264129
 21
27.5114991703
  0
LINE
  5
78E
100
AcDbEntity
  8
CURVE
100
AcDbLine
 62
252
  6
CONTINUOUS
 10
-16.1963333083
 20
29.746726366
 11
-16.1864208163
 21
29.7278703694
  0
LINE
  5
78F
100
AcDbEntity
  8
CURVE
100
AcDbLine
 62
252
  6
CONTINUOUS
 10
-15.9359794012
 20
27.2823584272
 11
-15.8924054315
 21
27.1990782811
  0
LINE
  5
790
100
AcDbEntity
  8
CURVE
100
AcDbLine
 62
252
  6
CONTINUOUS
 10
-16.5381808859
 20
28.5277651563
 11
-16.5481225045
 21
28.5467665053
  0
LINE
  5
791
100
AcDbEntity
  8
CURVE
100
AcDbLine
 62
252
  6
CONTINUOUS
 10
-17.213868045
 20
28.7978761059
 11
-17.2036883012
 21
28.7781178562
  0
LINE
  5
792
100
AcDbEntity
  8
CURVE
100
AcDbLine
 62
252
  6
CONTINUOUS
 10
-18.1161773049
 20
29.7213803806
 11
-18.1262089166
 21
29.740974938
  0
LINE
  5
793
100
AcDbEntity
  8
CURVE
100
AcDbLine
 62
252
  6
CONTINUOUS
 10
-13.96524423
 20
25.779801083
 11
-13.955908629
 21
25.7608604062
  0
LINE
  5
794
100
AcDbEntity
  8
CURVE
100
AcDbLine
 62
252
  6
CONTINUOUS
 10
-14.6852490338
 20
24.2799863847
 11
-14.6755493342
 21
24.2601600194
  0
LINE
  5
795
100
AcDbEntity
  8
CURVE
100
AcDbLine
 62
252
  6
CONTINUOUS
 10
-15.2021403928
 20
26.1358131777
 11
-15.2113824159
 21
26.1549022647
  0
LINE
  5
796
100
AcDbEntity
  8
CURVE
100
AcDbLine
 62
252
  6
CONTINUOUS
 10
-15.6372889176
 20
25.2258115359
 11
-15.6468897197
 21
25.2458787714
  0
LINE
  5
797
100
AcDbEntity
  8
CURVE
100
AcDbLine
 62
252
  6
CONTINUOUS
 10
-15.582264129
 20
27.5114991703
 11
-15.5918144171
 21
27.5317345674
  0
LINE
  5
798
100
AcDbEntity
  8
CURVE
100
AcDbLine
 62
252
  6
CONTINUOUS
 10
-16.1864208163
 20
29.7278703694
 11
-16.1773290431
 21
29.708586127
  0
LINE
  5
799
100
AcDbEntity
  8
CURVE
100
AcDbLine
 62
252
  6
CONTINUOUS
 10
-16.5481225045
 20
28.5467665053
 11
-16.5572599036
 21
28.566223553
  0
LINE
  5
79A
100
AcDbEntity
  8
CURVE
100
AcDbLine
 62
252
  6
CONTINUOUS
 10
-17.2036883012
 20
28.7781178562
 11
-17.1943346468
 21
28.757813336
  0
LINE
  5
79B
100
AcDbEntity
  8
CURVE
100
AcDbLine
 62
252
  6
CONTINUOUS
 10
-15.8924054315
 20
27.1990782811
 11
-15.8547962752
 21
27.114745676
  0
LINE
  5
79C
100
AcDbEntity
  8
CURVE
100
AcDbLine
 62
252
  6
CONTINUOUS
 10
-13.955908629
 20
25.7608604062
 11
-13.9473858746
 21
25.7414323462
  0
LINE
  5
79D
100
AcDbEntity
  8
CURVE
100
AcDbLine
 62
252
  6
CONTINUOUS
 10
-14.6755493342
 20
24.2601600194
 11
-14.6667654505
 21
24.2399149965
  0
LINE
  5
79E
100
AcDbEntity
  8
CURVE
100
AcDbLine
 62
252
  6
CONTINUOUS
 10
-15.2113824159
 20
26.1549022647
 11
-15.2198089059
 21
26.1744536106
  0
LINE
  5
79F
100
AcDbEntity
  8
CURVE
100
AcDbLine
 62
252
  6
CONTINUOUS
 10
-14.5825186404
 20
28.0115872724
 11
-14.5739129635
 21
27.9911040461
  0
LINE
  5
7A0
100
AcDbEntity
  8
CURVE
100
AcDbLine
 62
252
  6
CONTINUOUS
 10
-16.1773290431
 20
29.708586127
 11
-16.1691062134
 21
29.6889662987
  0
LINE
  5
7A1
100
AcDbEntity
  8
CURVE
100
AcDbLine
 62
252
  6
CONTINUOUS
 10
-16.5572599036
 20
28.566223553
 11
-16.5655351861
 21
28.586025689
  0
LINE
  5
7A2
100
AcDbEntity
  8
CURVE
100
AcDbLine
 62
252
  6
CONTINUOUS
 10
-15.5918144171
 20
27.5317345674
 11
-15.600449914
 21
27.5523999524
  0
LINE
  5
7A3
100
AcDbEntity
  8
CURVE
100
AcDbLine
 62
252
  6
CONTINUOUS
 10
-13.9473858746
 20
25.7414323462
 11
-13.9397471771
 21
25.7216501264
  0
LINE
  5
7A4
100
AcDbEntity
  8
CURVE
100
AcDbLine
 62
252
  6
CONTINUOUS
 10
-15.8547962752
 20
27.114745676
 11
-15.8221729008
 21
27.0289412966
  0
LINE
  5
7A5
100
AcDbEntity
  8
CURVE
100
AcDbLine
 62
252
  6
CONTINUOUS
 10
-14.6667654505
 20
24.2399149965
 11
-14.6589619643
 21
24.2193792992
  0
LINE
  5
7A6
100
AcDbEntity
  8
CURVE
100
AcDbLine
 62
252
  6
CONTINUOUS
 10
-15.2198089059
 20
26.1744536106
 11
-15.2273511688
 21
26.1943337483
  0
LINE
  5
7A7
100
AcDbEntity
  8
CURVE
100
AcDbLine
 62
252
  6
CONTINUOUS
 10
-16.1691062134
 20
29.6889662987
 11
-16.1617998552
 21
29.6691126847
  0
LINE
  5
7A8
100
AcDbEntity
  8
CURVE
100
AcDbLine
 62
252
  6
CONTINUOUS
 10
-14.5739129635
 20
27.9911040461
 11
-14.5662966817
 21
27.9703229585
  0
LINE
  5
7A9
100
AcDbEntity
  8
CURVE
100
AcDbLine
 62
252
  6
CONTINUOUS
 10
-15.600449914
 20
27.5523999524
 11
-15.6080933546
 21
27.5733332319
  0
LINE
  5
7AA
100
AcDbEntity
  8
CURVE
100
AcDbLine
 62
252
  6
CONTINUOUS
 10
-13.9397471771
 20
25.7216501264
 11
-13.9330604119
 21
25.7016616623
  0
LINE
  5
7AB
100
AcDbEntity
  8
CURVE
100
AcDbLine
 62
252
  6
CONTINUOUS
 10
-14.5662966817
 20
27.9703229585
 11
-14.5628658125
 21
27.9598221887
  0
LINE
  5
7AC
100
AcDbEntity
  8
CURVE
100
AcDbLine
 62
252
  6
CONTINUOUS
 10
-15.6080933546
 20
27.5733332319
 11
-15.6115909785
 21
27.5840707893
  0
LINE
  5
7AD
100
AcDbEntity
  8
CURVE
100
AcDbLine
 62
252
  6
CONTINUOUS
 10
-16.1617998552
 20
29.6691126847
 11
-16.1554551341
 21
29.6491349499
  0
LINE
  5
7AE
100
AcDbEntity
  8
CURVE
100
AcDbLine
 62
252
  6
CONTINUOUS
 10
-14.5628658125
 20
27.9598221887
 11
-14.5568631136
 21
27.9389095974
  0
LINE
  5
7AF
100
AcDbEntity
  8
CURVE
100
AcDbLine
 62
252
  6
CONTINUOUS
 10
-13.9330604119
 20
25.7016616623
 11
-13.927532654
 21
25.682190367
  0
LINE
  5
7B0
100
AcDbEntity
  8
CURVE
100
AcDbLine
 62
252
  6
CONTINUOUS
 10
-14.5568631136
 20
27.9389095974
 11
-14.5520096411
 21
27.9181607125
  0
LINE
  5
7B1
100
AcDbEntity
  8
CURVE
100
AcDbLine
 62
252
  6
CONTINUOUS
 10
-13.927532654
 20
25.682190367
 11
-13.9229016634
 21
25.6623046858
  0
LINE
  5
7B2
100
AcDbEntity
  8
CURVE
100
AcDbLine
 62
252
  6
CONTINUOUS
 10
-13.9229016634
 20
25.6623046858
 11
-13.9193789974
 21
25.6427489955
  0
LINE
  5
7B3
100
AcDbEntity
  8
RACCORDO
100
AcDbLine
 62
253
  6
CONTINUOUS
 10
-14.7455160774
 20
38.5916523483
 11
-14.7322744368
 21
38.4747738061
  0
LINE
  5
7B4
100
AcDbEntity
  8
ASSI
100
AcDbLine
 62
253
  6
CONTINUOUS
 10
-14.7455160774
 20
38.5916523483
 11
-14.7322744368
 21
38.4747738061
  0
LINE
  5
7B5
100
AcDbEntity
  8
DRAFT
100
AcDbLine
 62
7
  6
CONTINUOUS
 10
-14.6244890346
 20
38.8692678985
 11
-14.5667218183
 21
38.3593803197
  0
LINE
  5
7B6
100
AcDbEntity
  8
ASSI
100
AcDbLine
 62
7
  6
CONTINUOUS
 10
-14.6244890346
 20
38.8692678985
 11
-14.5667218183
 21
38.3593803197
  0
LWPOLYLINE
  5
7B7
100
AcDbEntity
  8
RACCORDO
100
AcDbPolyline
 62
253
  6
CONTINUOUS
 90
4
 70
0
 10
-7.8075034671
 20
-3.3991878327
 10
-7.8754136662
 20
-1.5349819494
 10
-7.9350653462
 20
0.3028403635
 10
-7.986458507
 20
2.1142791062
  0
LWPOLYLINE
  5
7B8
100
AcDbEntity
  8
ASSI
100
AcDbPolyline
 62
253
  6
CONTINUOUS
 90
4
 70
0
 10
-7.8075034671
 20
-3.3991878327
 10
-7.8754136662
 20
-1.5349819494
 10
-7.9350653462
 20
0.3028403635
 10
-7.986458507
 20
2.1142791062
  0
LWPOLYLINE
  5
7B9
100
AcDbEntity
  8
RACCORDO
100
AcDbPolyline
 62
253
  6
CONTINUOUS
 90
10
 70
0
 10
-8.4802582709
 20
-3.4244840309
 10
-8.5473893693
 20
-1.5596048991
 10
-8.6056828863
 20
0.2794941356
 10
-8.6555181423
 20
2.0925364915
 10
-8.696834608
 20
3.8589161045
 10
-8.7305918493
 20
5.5986135916
 10
-8.7579763617
 20
7.3726743046
 10
-8.7788224844
 20
9.2017574
 10
-8.7924061904
 20
11.0656570085
 10
-8.7983534681
 20
12.9645509835
  0
LWPOLYLINE
  5
7BA
100
AcDbEntity
  8
ASSI
100
AcDbPolyline
 62
253
  6
CONTINUOUS
 90
10
 70
0
 10
-8.4802582709
 20
-3.4244840309
 10
-8.5473893693
 20
-1.5596048991
 10
-8.6056828863
 20
0.2794941356
 10
-8.6555181423
 20
2.0925364915
 10
-8.696834608
 20
3.8589161045
 10
-8.7305918493
 20
5.5986135916
 10
-8.7579763617
 20
7.3726743046
 10
-8.7788224844
 20
9.2017574
 10
-8.7924061904
 20
11.0656570085
 10
-8.7983534681
 20
12.9645509835
  0
LWPOLYLINE
  5
7BB
100
AcDbEntity
  8
RACCORDO
100
AcDbPolyline
 62
253
  6
CONTINUOUS
 90
10
 70
0
 10
-8.7983534493
 20
13.914694955
 10
-8.7934383064
 20
15.614003194
 10
-8.7819888577
 20
17.3436182526
 10
-8.7637056337
 20
19.1036778401
 10
-8.7384977937
 20
20.8812768717
 10
-8.7059455725
 20
22.6895378792
 10
-8.6647946242
 20
24.5678905735
 10
-8.6138849552
 20
26.529855231
 10
-8.5526563828
 20
28.5627623346
 10
-8.4802582663
 20
30.6670174134
  0
LWPOLYLINE
  5
7BC
100
AcDbEntity
  8
ASSI
100
AcDbPolyline
 62
253
  6
CONTINUOUS
 90
10
 70
0
 10
-8.7983534493
 20
13.914694955
 10
-8.7934383064
 20
15.614003194
 10
-8.7819888577
 20
17.3436182526
 10
-8.7637056337
 20
19.1036778401
 10
-8.7384977937
 20
20.8812768717
 10
-8.7059455725
 20
22.6895378792
 10
-8.6647946242
 20
24.5678905735
 10
-8.6138849552
 20
26.529855231
 10
-8.5526563828
 20
28.5627623346
 10
-8.4802582663
 20
30.6670174134
  0
LWPOLYLINE
  5
7BD
100
AcDbEntity
  8
RACCORDO
100
AcDbPolyline
 62
253
  6
CONTINUOUS
 90
19
 70
0
 10
-8.4802582564
 20
30.6670174117
 10
-8.4746046754
 20
30.7504634764
 10
-8.4633778355
 20
30.8364002343
 10
-8.4466493227
 20
30.9242476206
 10
-8.4245163159
 20
31.013398412
 10
-8.3971294765
 20
31.1032629435
 10
-8.36468767
 20
31.1932736484
 10
-8.3273836957
 20
31.282825685
 10
-8.2854588919
 20
31.3713043886
 10
-8.2392274035
 20
31.4581304691
 10
-8.1889739139
 20
31.5427091821
 10
-8.1350196869
 20
31.6244626084
 10
-8.0777726819
 20
31.7028578967
 10
-8.0175944734
 20
31.7773499292
 10
-7.9548646539
 20
31.8474309433
 10
-7.8900457456
 20
31.9126607171
 10
-7.8235687954
 20
31.972598968
 10
-7.7558316645
 20
32.0268103979
 10
-7.6872627821
 20
32.0749126674
  0
LWPOLYLINE
  5
7BE
100
AcDbEntity
  8
ASSI
100
AcDbPolyline
 62
253
  6
CONTINUOUS
 90
19
 70
0
 10
-8.4802582564
 20
30.6670174117
 10
-8.4746046754
 20
30.7504634764
 10
-8.4633778355
 20
30.8364002343
 10
-8.4466493227
 20
30.9242476206
 10
-8.4245163159
 20
31.013398412
 10
-8.3971294765
 20
31.1032629435
 10
-8.36468767
 20
31.1932736484
 10
-8.3273836957
 20
31.282825685
 10
-8.2854588919
 20
31.3713043886
 10
-8.2392274035
 20
31.4581304691
 10
-8.1889739139
 20
31.5427091821
 10
-8.1350196869
 20
31.6244626084
 10
-8.0777726819
 20
31.7028578967
 10
-8.0175944734
 20
31.7773499292
 10
-7.9548646539
 20
31.8474309433
 10
-7.8900457456
 20
31.9126607171
 10
-7.8235687954
 20
31.972598968
 10
-7.7558316645
 20
32.0268103979
 10
-7.6872627821
 20
32.0749126674
  0
LWPOLYLINE
  5
7BF
100
AcDbEntity
  8
RACCORDO
100
AcDbPolyline
 62
253
  6
CONTINUOUS
 90
19
 70
0
 10
-7.8075034541
 20
30.6574074568
 10
-7.803962576
 20
30.7062218929
 10
-7.7971396473
 20
30.7558428556
 10
-7.7870346681
 20
30.8062703451
 10
-7.7735370959
 20
30.8578805868
 10
-7.7567574731
 20
30.9102973552
 10
-7.7370274271
 20
30.9623919739
 10
-7.7142876331
 20
31.0141328937
 10
-7.6885974158
 20
31.0655516638
 10
-7.6604663766
 20
31.1156142555
 10
-7.6298420207
 20
31.1642952474
 10
-7.5967768429
 20
31.211620061
 10
-7.5619379285
 20
31.2566309316
 10
-7.5252664621
 20
31.2992929795
 10
-7.4868212592
 20
31.3396410843
 10
-7.4474458523
 20
31.37682212
 10
-7.4074214188
 20
31.4105517112
 10
-7.3664667811
 20
31.4411142333
 10
-7.3245819394
 20
31.4685096863
  0
LWPOLYLINE
  5
7C0
100
AcDbEntity
  8
ASSI
100
AcDbPolyline
 62
253
  6
CONTINUOUS
 90
19
 70
0
 10
-7.8075034541
 20
30.6574074568
 10
-7.803962576
 20
30.7062218929
 10
-7.7971396473
 20
30.7558428556
 10
-7.7870346681
 20
30.8062703451
 10
-7.7735370959
 20
30.8578805868
 10
-7.7567574731
 20
30.9102973552
 10
-7.7370274271
 20
30.9623919739
 10
-7.7142876331
 20
31.0141328937
 10
-7.6885974158
 20
31.0655516638
 10
-7.6604663766
 20
31.1156142555
 10
-7.6298420207
 20
31.1642952474
 10
-7.5967768429
 20
31.211620061
 10
-7.5619379285
 20
31.2566309316
 10
-7.5252664621
 20
31.2992929795
 10
-7.4868212592
 20
31.3396410843
 10
-7.4474458523
 20
31.37682212
 10
-7.4074214188
 20
31.4105517112
 10
-7.3664667811
 20
31.4411142333
 10
-7.3245819394
 20
31.4685096863
  0
LINE
  5
7C1
100
AcDbEntity
  8
CURVE
100
AcDbLine
 62
252
  6
CONTINUOUS
 10
-14.811393956
 20
6.3194514414
 11
-14.8165086717
 21
6.3089288445
  0
LINE
  5
7C2
100
AcDbEntity
  8
CURVE
100
AcDbLine
 62
252
  6
CONTINUOUS
 10
-14.8165086717
 20
6.3089288445
 11
-14.8223598446
 21
6.2992502428
  0
LINE
  5
7C3
100
AcDbEntity
  8
CURVE
100
AcDbLine
 62
252
  6
CONTINUOUS
 10
-14.8647407259
 20
8.1175278579
 11
-14.8710108604
 21
8.1081089914
  0
LINE
  5
7C4
100
AcDbEntity
  8
CURVE
100
AcDbLine
 62
252
  6
CONTINUOUS
 10
-16.1858646403
 20
6.186422856
 11
-16.1916942616
 21
6.1782019462
  0
LINE
  5
7C5
100
AcDbEntity
  8
CURVE
100
AcDbLine
 62
252
  6
CONTINUOUS
 10
-14.8223598446
 20
6.2992502428
 11
-14.8289095836
 21
6.290467114
  0
LINE
  5
7C6
100
AcDbEntity
  8
CURVE
100
AcDbLine
 62
252
  6
CONTINUOUS
 10
-15.5816992966
 20
7.1995005893
 11
-15.5751034971
 21
7.2083435811
  0
LINE
  5
7C7
100
AcDbEntity
  8
CURVE
100
AcDbLine
 62
252
  6
CONTINUOUS
 10
-15.6122272623
 20
8.5326381698
 11
-15.6053099442
 21
8.5411360898
  0
LINE
  5
7C8
100
AcDbEntity
  8
CURVE
100
AcDbLine
 62
252
  6
CONTINUOUS
 10
-14.8710108604
 20
8.1081089914
 11
-14.8779857919
 21
8.0995778061
  0
LINE
  5
7C9
100
AcDbEntity
  8
CURVE
100
AcDbLine
 62
252
  6
CONTINUOUS
 10
-16.0272231265
 20
7.7180012802
 11
-16.0386611159
 21
7.7045097621
  0
LINE
  5
7CA
100
AcDbEntity
  8
CURVE
100
AcDbLine
 62
252
  6
CONTINUOUS
 10
-16.5742103953
 20
7.1241349635
 11
-16.5675504946
 21
7.1318420335
  0
LINE
  5
7CB
100
AcDbEntity
  8
CURVE
100
AcDbLine
 62
252
  6
CONTINUOUS
 10
-16.1916942616
 20
6.1782019462
 11
-16.1982991103
 21
6.1706316703
  0
LINE
  5
7CC
100
AcDbEntity
  8
CURVE
100
AcDbLine
 62
252
  6
CONTINUOUS
 10
-15.5751034971
 20
7.2083435811
 11
-15.567813311
 21
7.2162887636
  0
LINE
  5
7CD
100
AcDbEntity
  8
CURVE
100
AcDbLine
 62
252
  6
CONTINUOUS
 10
-14.8779857919
 20
8.0995778061
 11
-14.8828320672
 21
8.0944779885
  0
LINE
  5
7CE
100
AcDbEntity
  8
CURVE
100
AcDbLine
 62
252
  6
CONTINUOUS
 10
-15.6053099442
 20
8.5411360898
 11
-15.5979943236
 21
8.5486299732
  0
LINE
  5
7CF
100
AcDbEntity
  8
CURVE
100
AcDbLine
 62
252
  6
CONTINUOUS
 10
-16.0386611159
 20
7.7045097621
 11
-16.0511964384
 21
7.6919039262
  0
LINE
  5
7D0
100
AcDbEntity
  8
CURVE
100
AcDbLine
 62
252
  6
CONTINUOUS
 10
-16.5675504946
 20
7.1318420335
 11
-16.5603792821
 21
7.1386435833
  0
LINE
  5
7D1
100
AcDbEntity
  8
CURVE
100
AcDbLine
 62
252
  6
CONTINUOUS
 10
-15.567813311
 20
7.2162887636
 11
-15.5600975975
 21
7.2231997923
  0
LINE
  5
7D2
100
AcDbEntity
  8
CURVE
100
AcDbLine
 62
252
  6
CONTINUOUS
 10
-16.0511964384
 20
7.6919039262
 11
-16.0587996337
 21
7.6851434779
  0
LINE
  5
7D3
100
AcDbEntity
  8
CURVE
100
AcDbLine
 62
252
  6
CONTINUOUS
 10
-14.8828320672
 20
8.0944779885
 11
-14.8908020234
 21
8.0874142615
  0
LINE
  5
7D4
100
AcDbEntity
  8
CURVE
100
AcDbLine
 62
252
  6
CONTINUOUS
 10
-17.2453811987
 20
7.8962542285
 11
-17.2500505118
 21
7.8921911186
  0
LINE
  5
7D5
100
AcDbEntity
  8
CURVE
100
AcDbLine
 62
252
  6
CONTINUOUS
 10
-15.5979943236
 20
8.5486299732
 11
-15.5899545878
 21
8.5552548029
  0
LINE
  5
7D6
100
AcDbEntity
  8
CURVE
100
AcDbLine
 62
252
  6
CONTINUOUS
 10
-16.7941242169
 20
8.7538843248
 11
-16.780603881
 21
8.7648999936
  0
LINE
  5
7D7
100
AcDbEntity
  8
CURVE
100
AcDbLine
 62
252
  6
CONTINUOUS
 10
-16.2883774063
 20
9.3033072762
 11
-16.2936373964
 21
9.2990956892
  0
LINE
  5
7D8
100
AcDbEntity
  8
CURVE
100
AcDbLine
 62
252
  6
CONTINUOUS
 10
-16.5603792821
 20
7.1386435833
 11
-16.5552335291
 21
7.1426883693
  0
LINE
  5
7D9
100
AcDbEntity
  8
CURVE
100
AcDbLine
 62
252
  6
CONTINUOUS
 10
-16.0587996337
 20
7.6851434779
 11
-16.0731141909
 21
7.6739289862
  0
LWPOLYLINE
  5
7DA
100
AcDbEntity
  8
RACCORDO
100
AcDbPolyline
 62
253
  6
CONTINUOUS
 90
13
 70
0
 10
-8.5433341576
 20
13.4668310035
 10
-8.5767592711
 20
13.4407486217
 10
-8.6095760325
 20
13.4095979312
 10
-8.6412282919
 20
13.3739068469
 10
-8.6711796344
 20
13.3342802302
 10
-8.6989224709
 20
13.2913896387
 10
-8.7239866401
 20
13.245961945
 10
-8.7459473767
 20
13.1987670182
 10
-8.7644325094
 20
13.1506046772
 10
-8.7791287689
 20
13.1022911356
 10
-8.7897870961
 20
13.0546451695
 10
-8.7962268635
 20
13.0084742416
 10
-8.7983389359
 20
12.9645608169
  0
LWPOLYLINE
  5
7DB
100
AcDbEntity
  8
ASSI
100
AcDbPolyline
 62
253
  6
CONTINUOUS
 90
13
 70
0
 10
-8.5433341576
 20
13.4668310035
 10
-8.5767592711
 20
13.4407486217
 10
-8.6095760325
 20
13.4095979312
 10
-8.6412282919
 20
13.3739068469
 10
-8.6711796344
 20
13.3342802302
 10
-8.6989224709
 20
13.2913896387
 10
-8.7239866401
 20
13.245961945
 10
-8.7459473767
 20
13.1987670182
 10
-8.7644325094
 20
13.1506046772
 10
-8.7791287689
 20
13.1022911356
 10
-8.7897870961
 20
13.0546451695
 10
-8.7962268635
 20
13.0084742416
 10
-8.7983389359
 20
12.9645608169
  0
LINE
  5
7DC
100
AcDbEntity
  8
CURVE
100
AcDbLine
 62
252
  6
CONTINUOUS
 10
-17.2500505118
 20
7.8921911186
 11
-17.2583008925
 21
7.8862151949
  0
LINE
  5
7DD
100
AcDbEntity
  8
CURVE
100
AcDbLine
 62
252
  6
CONTINUOUS
 10
-17.9350198767
 20
8.3675738582
 11
-17.9268227797
 21
8.3734298416
  0
LINE
  5
7DE
100
AcDbEntity
  8
CURVE
100
AcDbLine
 62
252
  6
CONTINUOUS
 10
-15.5899545878
 20
8.5552548029
 11
-15.5848710825
 21
8.5587443876
  0
LINE
  5
7DF
100
AcDbEntity
  8
CURVE
100
AcDbLine
 62
252
  6
CONTINUOUS
 10
-16.780603881
 20
8.7648999936
 11
-16.7663192673
 21
8.7746572209
  0
LINE
  5
7E0
100
AcDbEntity
  8
CURVE
100
AcDbLine
 62
252
  6
CONTINUOUS
 10
-16.2936373964
 20
9.2990956892
 11
-16.302226198
 21
9.2933307575
  0
LINE
  5
7E1
100
AcDbEntity
  8
CURVE
100
AcDbLine
 62
252
  6
CONTINUOUS
 10
-16.0731141909
 20
7.6739289862
 11
-16.0879317787
 21
7.6641710167
  0
LINE
  5
7E2
100
AcDbEntity
  8
CURVE
100
AcDbLine
 62
252
  6
CONTINUOUS
 10
-16.7663192673
 20
8.7746572209
 11
-16.7513187563
 21
8.7831302529
  0
LINE
  5
7E3
100
AcDbEntity
  8
CURVE
100
AcDbLine
 62
252
  6
CONTINUOUS
 10
-17.2583008925
 20
7.8862151949
 11
-17.2670788955
 21
7.8812579698
  0
LINE
  5
7E4
100
AcDbEntity
  8
CURVE
100
AcDbLine
 62
252
  6
CONTINUOUS
 10
-15.5848710825
 20
8.5587443876
 11
-15.5758561204
 21
8.563827564
  0
LWPOLYLINE
  5
7E5
100
AcDbEntity
  8
RACCORDO
100
AcDbPolyline
 62
253
  6
CONTINUOUS
 90
8
 70
0
 10
-8.2180728048
 20
13.7404414069
 10
-8.2147340846
 20
13.7423042173
 10
-8.1907435359
 20
13.7601104065
 10
-8.1704632768
 20
13.783605245
 10
-8.1542403637
 20
13.8123868973
 10
-8.142352395
 20
13.8459630853
 10
-8.1350027975
 20
13.8837595572
 10
-8.1323173845
 20
13.9251298236
  0
LWPOLYLINE
  5
7E6
100
AcDbEntity
  8
ASSI
100
AcDbPolyline
 62
253
  6
CONTINUOUS
 90
8
 70
0
 10
-8.2180728048
 20
13.7404414069
 10
-8.2147340846
 20
13.7423042173
 10
-8.1907435359
 20
13.7601104065
 10
-8.1704632768
 20
13.783605245
 10
-8.1542403637
 20
13.8123868973
 10
-8.142352395
 20
13.8459630853
 10
-8.1350027975
 20
13.8837595572
 10
-8.1323173845
 20
13.9251298236
  0
LINE
  5
7E7
100
AcDbEntity
  8
RACCORDO
100
AcDbLine
 62
253
  6
CONTINUOUS
 10
-8.4101274945
 20
13.4698248978
 11
-4.4517208209
 21
15.6775854885
  0
LINE
  5
7E8
100
AcDbEntity
  8
ASSI
100
AcDbLine
 62
253
  6
CONTINUOUS
 10
-8.4101274945
 20
13.4698248978
 11
-4.4517208209
 21
15.6775854885
  0
LINE
  5
7E9
100
AcDbEntity
  8
RACCORDO
100
AcDbLine
 62
253
  6
CONTINUOUS
 10
-8.1323174299
 20
12.9771455219
 11
-4.1688457851
 21
15.1877310482
  0
LINE
  5
7EA
100
AcDbEntity
  8
ASSI
100
AcDbLine
 62
253
  6
CONTINUOUS
 10
-8.1323174299
 20
12.9771455219
 11
-4.1688457851
 21
15.1877310482
  0
LINE
  5
7EB
100
AcDbEntity
  8
CURVE
100
AcDbLine
 62
252
  6
CONTINUOUS
 10
-17.9268227797
 20
8.3734298416
 11
-17.9181876859
 21
8.3782229399
  0
LINE
  5
7EC
100
AcDbEntity
  8
CURVE
100
AcDbLine
 62
252
  6
CONTINUOUS
 10
-17.2928509446
 20
9.215070392
 11
-17.3020306227
 21
9.2100303381
  0
LINE
  5
7ED
100
AcDbEntity
  8
RACCORDO
100
AcDbLine
 62
253
  6
CONTINUOUS
 10
-4.1688457851
 20
16.0578770021
 11
-8.1323173826
 21
13.9251298246
  0
LINE
  5
7EE
100
AcDbEntity
  8
ASSI
100
AcDbLine
 62
253
  6
CONTINUOUS
 10
-4.1688457851
 20
16.0578770021
 11
-8.1323173826
 21
13.9251298246
  0
LINE
  5
7EF
100
AcDbEntity
  8
RACCORDO
100
AcDbLine
 62
7
  6
CONTINUOUS
 10
-4.2552305047
 20
15.8728499474
 11
-8.218117715
 21
13.7404172292
  0
LINE
  5
7F0
100
AcDbEntity
  8
ASSI
100
AcDbLine
 62
7
  6
CONTINUOUS
 10
-4.2552305047
 20
15.8728499474
 11
-8.218117715
 21
13.7404172292
  0
LINE
  5
7F1
100
AcDbEntity
  8
CURVE
100
AcDbLine
 62
252
  6
CONTINUOUS
 10
-16.302226198
 20
9.2933307575
 11
-16.3112702326
 21
9.2885347349
  0
LWPOLYLINE
  5
7F2
100
AcDbEntity
  8
RACCORDO
100
AcDbPolyline
 62
253
  6
CONTINUOUS
 90
16
 70
0
 10
-8.1323173801
 20
13.9251298259
 10
-8.1691695803
 20
13.906927292
 10
-8.2089209506
 20
13.8908780397
 10
-8.2511944398
 20
13.8771332439
 10
-8.2955862053
 20
13.865823401
 10
-8.341679015
 20
13.8570530653
 10
-8.3890473154
 20
13.8509017379
 10
-8.4372494583
 20
13.8474280506
 10
-8.4858249584
 20
13.8466666632
 10
-8.5343090794
 20
13.8486240684
 10
-8.5822372796
 20
13.8532806679
 10
-8.6291639913
 20
13.8605924556
 10
-8.6746597516
 20
13.8704926142
 10
-8.718297945
 20
13.8828906914
 10
-8.7596601132
 20
13.8976708138
 10
-8.7983534478
 20
13.9146949572
  0
LWPOLYLINE
  5
7F3
100
AcDbEntity
  8
ASSI
100
AcDbPolyline
 62
253
  6
CONTINUOUS
 90
16
 70
0
 10
-8.1323173801
 20
13.9251298259
 10
-8.1691695803
 20
13.906927292
 10
-8.2089209506
 20
13.8908780397
 10
-8.2511944398
 20
13.8771332439
 10
-8.2955862053
 20
13.865823401
 10
-8.341679015
 20
13.8570530653
 10
-8.3890473154
 20
13.8509017379
 10
-8.4372494583
 20
13.8474280506
 10
-8.4858249584
 20
13.8466666632
 10
-8.5343090794
 20
13.8486240684
 10
-8.5822372796
 20
13.8532806679
 10
-8.6291639913
 20
13.8605924556
 10
-8.6746597516
 20
13.8704926142
 10
-8.718297945
 20
13.8828906914
 10
-8.7596601132
 20
13.8976708138
 10
-8.7983534478
 20
13.9146949572
  0
LINE
  5
7F4
100
AcDbEntity
  8
CURVE
100
AcDbLine
 62
252
  6
CONTINUOUS
 10
-16.7513187563
 20
8.7831302529
 11
-16.735652039
 21
8.7902993364
  0
LINE
  5
7F5
100
AcDbEntity
  8
CURVE
100
AcDbLine
 62
252
  6
CONTINUOUS
 10
-17.3020306227
 20
9.2100303381
 11
-17.3058414025
 21
9.2083021259
  0
LINE
  5
7F6
100
AcDbEntity
  8
CURVE
100
AcDbLine
 62
252
  6
CONTINUOUS
 10
-17.9181876859
 20
8.3782229399
 11
-17.9091592008
 21
8.3819524948
  0
LINE
  5
7F7
100
AcDbEntity
  8
CURVE
100
AcDbLine
 62
252
  6
CONTINUOUS
 10
-16.6140217007
 20
10.2964371408
 11
-16.6044966927
 21
10.300324999
  0
LINE
  5
7F8
100
AcDbEntity
  8
CURVE
100
AcDbLine
 62
252
  6
CONTINUOUS
 10
-16.3112702326
 20
9.2885347349
 11
-16.3207165321
 21
9.2847198019
  0
LINE
  5
7F9
100
AcDbEntity
  8
CURVE
100
AcDbLine
 62
252
  6
CONTINUOUS
 10
-17.3058414025
 20
9.2083021259
 11
-17.3157871573
 21
9.2046685256
  0
LINE
  5
7FA
100
AcDbEntity
  8
CURVE
100
AcDbLine
 62
252
  6
CONTINUOUS
 10
-16.735652039
 20
8.7902993364
 11
-16.7193693084
 21
8.7961505463
  0
LINE
  5
7FB
100
AcDbEntity
  8
CURVE
100
AcDbLine
 62
252
  6
CONTINUOUS
 10
-17.9538110454
 20
10.195021565
 11
-17.943813958
 21
10.1980230864
  0
LINE
  5
7FC
100
AcDbEntity
  8
CURVE
100
AcDbLine
 62
252
  6
CONTINUOUS
 10
-16.6044966927
 20
10.300324999
 11
-16.594542776
 21
10.3032466108
  0
LINE
  5
7FD
100
AcDbEntity
  8
CURVE
100
AcDbLine
 62
252
  6
CONTINUOUS
 10
-16.3207165321
 20
9.2847198019
 11
-16.3305141778
 21
9.2818900997
  0
LINE
  5
7FE
100
AcDbEntity
  8
CURVE
100
AcDbLine
 62
252
  6
CONTINUOUS
 10
-17.9091592008
 20
8.3819524948
 11
-17.8997773025
 21
8.3846240881
  0
LINE
  5
7FF
100
AcDbEntity
  8
CURVE
100
AcDbLine
 62
252
  6
CONTINUOUS
 10
-14.0076925765
 20
25.4364724753
 11
-14.0207385886
 21
25.433330087
  0
LINE
  5
800
100
AcDbEntity
  8
CURVE
100
AcDbLine
 62
252
  6
CONTINUOUS
 10
-16.5860935606
 20
25.6558642607
 11
-16.5734528169
 21
25.6587461828
  0
LINE
  5
801
100
AcDbEntity
  8
CURVE
100
AcDbLine
 62
252
  6
CONTINUOUS
 10
-15.1599666255
 20
26.4791851953
 11
-15.146873113
 21
26.4821698212
  0
LINE
  5
802
100
AcDbEntity
  8
CURVE
100
AcDbLine
 62
252
  6
CONTINUOUS
 10
-15.5951383041
 20
25.5675550694
 11
-15.5818043127
 21
25.5705351515
  0
LINE
  5
803
100
AcDbEntity
  8
CURVE
100
AcDbLine
 62
252
  6
CONTINUOUS
 10
-17.9344766019
 20
25.7849197111
 11
-17.9474839605
 21
25.7822022459
  0
LINE
  5
804
100
AcDbEntity
  8
CURVE
100
AcDbLine
 62
252
  6
CONTINUOUS
 10
-14.0207385886
 20
25.433330087
 11
-14.0344201358
 21
25.4315901623
  0
LINE
  5
805
100
AcDbEntity
  8
CURVE
100
AcDbLine
 62
252
  6
CONTINUOUS
 10
-16.066382588
 20
26.1289225864
 11
-16.1245099957
 21
26.1219480593
  0
LINE
  5
806
100
AcDbEntity
  8
CURVE
100
AcDbLine
 62
252
  6
CONTINUOUS
 10
-16.5734528169
 20
25.6587461828
 11
-16.5601054411
 21
25.6602385982
  0
LINE
  5
807
100
AcDbEntity
  8
CURVE
100
AcDbLine
 62
252
  6
CONTINUOUS
 10
-16.3708705177
 20
24.076653808
 11
-16.3842606016
 21
24.0751768095
  0
LINE
  5
808
100
AcDbEntity
  8
CURVE
100
AcDbLine
 62
252
  6
CONTINUOUS
 10
-15.5818043127
 20
25.5705351515
 11
-15.5677426285
 21
25.572008793
  0
LINE
  5
809
100
AcDbEntity
  8
CURVE
100
AcDbLine
 62
252
  6
CONTINUOUS
 10
-17.9474839605
 20
25.7822022459
 11
-17.9612056335
 21
25.7809985969
  0
LINE
  5
80A
100
AcDbEntity
  8
CURVE
100
AcDbLine
 62
252
  6
CONTINUOUS
 10
-14.0344201358
 20
25.4315901623
 11
-14.0486560583
 21
25.4312710538
  0
LINE
  5
80B
100
AcDbEntity
  8
CURVE
100
AcDbLine
 62
252
  6
CONTINUOUS
 10
-16.5601054411
 20
25.6602385982
 11
-16.5461479053
 21
25.6603132895
  0
LINE
  5
80C
100
AcDbEntity
  8
CURVE
100
AcDbLine
 62
252
  6
CONTINUOUS
 10
-16.3842606016
 20
24.0751768095
 11
-16.398256439
 21
24.0751182022
  0
LINE
  5
80D
100
AcDbEntity
  8
CURVE
100
AcDbLine
 62
252
  6
CONTINUOUS
 10
-15.5677426285
 20
25.572008793
 11
-15.5530547945
 21
25.5719499721
  0
LINE
  5
80E
100
AcDbEntity
  8
CURVE
100
AcDbLine
 62
252
  6
CONTINUOUS
 10
-17.9612056335
 20
25.7809985969
 11
-17.9755380347
 21
25.781334503
  0
LINE
  5
80F
100
AcDbEntity
  8
CURVE
100
AcDbLine
 62
252
  6
CONTINUOUS
 10
-14.7625576099
 20
23.9333770813
 11
-14.7776639113
 21
23.9342302339
  0
LINE
  5
810
100
AcDbEntity
  8
CURVE
100
AcDbLine
 62
252
  6
CONTINUOUS
 10
-14.0486560583
 20
25.4312710538
 11
-14.0626708867
 21
25.4322985071
  0
LINE
  5
811
100
AcDbEntity
  8
CURVE
100
AcDbLine
 62
252
  6
CONTINUOUS
 10
-15.5530547945
 20
25.5719499721
 11
-15.5447699372
 21
25.5712618953
  0
LINE
  5
812
100
AcDbEntity
  8
CURVE
100
AcDbLine
 62
252
  6
CONTINUOUS
 10
-16.5461479053
 20
25.6603132895
 11
-16.5324487062
 21
25.6590620539
  0
LINE
  5
813
100
AcDbEntity
  8
CURVE
100
AcDbLine
 62
252
  6
CONTINUOUS
 10
-16.398256439
 20
24.0751182022
 11
-16.411823744
 21
24.0763628947
  0
LINE
  5
814
100
AcDbEntity
  8
CURVE
100
AcDbLine
 62
252
  6
CONTINUOUS
 10
-17.9755380347
 20
25.781334503
 11
-17.9903632199
 21
25.7832195058
  0
LINE
  5
815
100
AcDbEntity
  8
CURVE
100
AcDbLine
 62
252
  6
CONTINUOUS
 10
-14.7776639113
 20
23.9342302339
 11
-14.7931297833
 21
23.9366104809
  0
LINE
  5
816
100
AcDbEntity
  8
CURVE
100
AcDbLine
 62
252
  6
CONTINUOUS
 10
-15.5447699372
 20
25.5712618953
 11
-15.5293634493
 21
25.5688187588
  0
LINE
  5
817
100
AcDbEntity
  8
CURVE
100
AcDbLine
 62
252
  6
CONTINUOUS
 10
-14.0626708867
 20
25.4322985071
 11
-14.0777030259
 21
25.4347641625
  0
LINE
  5
818
100
AcDbEntity
  8
CURVE
100
AcDbLine
 62
252
  6
CONTINUOUS
 10
-16.411823744
 20
24.0763628947
 11
-16.4266255589
 21
24.0790657761
  0
LINE
  5
819
100
AcDbEntity
  8
CURVE
100
AcDbLine
 62
252
  6
CONTINUOUS
 10
-16.5324487062
 20
25.6590620539
 11
-16.517652115
 21
25.6563565778
  0
LINE
  5
81A
100
AcDbEntity
  8
CURVE
100
AcDbLine
 62
252
  6
CONTINUOUS
 10
-17.9903632199
 20
25.7832195058
 11
-17.9985771077
 21
25.7848902856
  0
LINE
  5
81B
100
AcDbEntity
  8
CURVE
100
AcDbLine
 62
252
  6
CONTINUOUS
 10
-14.7931297833
 20
23.9366104809
 11
-14.8088423932
 21
23.9404910358
  0
LINE
  5
81C
100
AcDbEntity
  8
CURVE
100
AcDbLine
 62
252
  6
CONTINUOUS
 10
-15.5293634493
 20
25.5688187588
 11
-15.5136761238
 21
25.564864341
  0
LINE
  5
81D
100
AcDbEntity
  8
CURVE
100
AcDbLine
 62
252
  6
CONTINUOUS
 10
-14.0777030259
 20
25.4347641625
 11
-14.0929843118
 21
25.4386301292
  0
LINE
  5
81E
100
AcDbEntity
  8
CURVE
100
AcDbLine
 62
252
  6
CONTINUOUS
 10
-16.4266255589
 20
24.0790657761
 11
-16.4416334144
 21
24.0831558396
  0
LINE
  5
81F
100
AcDbEntity
  8
CURVE
100
AcDbLine
 62
252
  6
CONTINUOUS
 10
-16.517652115
 20
25.6563565778
 11
-16.5026375378
 21
25.6522600141
  0
LINE
  5
820
100
AcDbEntity
  8
CURVE
100
AcDbLine
 62
252
  6
CONTINUOUS
 10
-17.9985771077
 20
25.7848902856
 11
-18.0138581597
 21
25.7891256147
  0
LINE
  5
821
100
AcDbEntity
  8
CURVE
100
AcDbLine
 62
252
  6
CONTINUOUS
 10
-14.8088423932
 20
23.9404910358
 11
-14.8246934225
 21
23.9458341729
  0
LINE
  5
822
100
AcDbEntity
  8
CURVE
100
AcDbLine
 62
252
  6
CONTINUOUS
 10
-14.0929843118
 20
25.4386301292
 11
-14.1084190453
 21
25.4438657946
  0
LINE
  5
823
100
AcDbEntity
  8
CURVE
100
AcDbLine
 62
252
  6
CONTINUOUS
 10
-15.5136761238
 20
25.564864341
 11
-15.497831126
 21
25.5594391433
  0
LINE
  5
824
100
AcDbEntity
  8
CURVE
100
AcDbLine
 62
252
  6
CONTINUOUS
 10
-16.5026375378
 20
25.6522600141
 11
-16.4875282242
 21
25.6468180196
  0
LINE
  5
825
100
AcDbEntity
  8
CURVE
100
AcDbLine
 62
252
  6
CONTINUOUS
 10
-17.4643353344
 20
26.6924218399
 11
-17.4488525157
 21
26.6867849247
  0
LINE
  5
826
100
AcDbEntity
  8
CURVE
100
AcDbLine
 62
252
  6
CONTINUOUS
 10
-18.0138581597
 20
25.7891256147
 11
-18.0292461042
 21
25.7948213653
  0
LINE
  5
827
100
AcDbEntity
  8
CURVE
100
AcDbLine
 62
252
  6
CONTINUOUS
 10
-16.3118811918
 20
26.1503453468
 11
-16.3774961899
 21
26.1765996492
  0
LINE
  5
828
100
AcDbEntity
  8
CURVE
100
AcDbLine
 62
252
  6
CONTINUOUS
 10
-14.1084190453
 20
25.4438657946
 11
-14.123915586
 21
25.4504328468
  0
LINE
  5
829
100
AcDbEntity
  8
CURVE
100
AcDbLine
 62
252
  6
CONTINUOUS
 10
-14.8246934225
 20
23.9458341729
 11
-14.840581846
 21
23.9525940426
  0
LINE
  5
82A
100
AcDbEntity
  8
CURVE
100
AcDbLine
 62
252
  6
CONTINUOUS
 10
-15.497831126
 20
25.5594391433
 11
-15.481945608
 21
25.5525950466
  0
LINE
  5
82B
100
AcDbEntity
  8
CURVE
100
AcDbLine
 62
252
  6
CONTINUOUS
 10
-16.4875282242
 20
25.6468180196
 11
-16.4724406687
 21
25.6400876435
  0
LINE
  5
82C
100
AcDbEntity
  8
CURVE
100
AcDbLine
 62
252
  6
CONTINUOUS
 10
-17.4488525157
 20
26.6867849247
 11
-17.4333357018
 21
26.6797288792
  0
LINE
  5
82D
100
AcDbEntity
  8
CURVE
100
AcDbLine
 62
252
  6
CONTINUOUS
 10
-18.0292461042
 20
25.7948213653
 11
-18.0446110026
 21
25.8019121899
  0
LINE
  5
82E
100
AcDbEntity
  8
CURVE
100
AcDbLine
 62
252
  6
CONTINUOUS
 10
-14.123915586
 20
25.4504328468
 11
-14.1393882763
 21
25.4582874465
  0
LINE
  5
82F
100
AcDbEntity
  8
CURVE
100
AcDbLine
 62
252
  6
CONTINUOUS
 10
-14.840581846
 20
23.9525940426
 11
-14.8564159216
 21
23.9607197945
  0
LINE
  5
830
100
AcDbEntity
  8
CURVE
100
AcDbLine
 62
252
  6
CONTINUOUS
 10
-16.3774961899
 20
26.1765996492
 11
-16.4438683521
 21
26.2109959838
  0
LINE
  5
831
100
AcDbEntity
  8
CURVE
100
AcDbLine
 62
252
  6
CONTINUOUS
 10
-15.481945608
 20
25.5525950466
 11
-15.466127568
 21
25.5443918253
  0
LINE
  5
832
100
AcDbEntity
  8
CURVE
100
AcDbLine
 62
252
  6
CONTINUOUS
 10
-16.4724406687
 20
25.6400876435
 11
-16.4574813356
 21
25.6321336827
  0
LINE
  5
833
100
AcDbEntity
  8
CURVE
100
AcDbLine
 62
252
  6
CONTINUOUS
 10
-17.4333357018
 20
26.6797288792
 11
-17.4178924223
 21
26.6713163877
  0
LINE
  5
834
100
AcDbEntity
  8
CURVE
100
AcDbLine
 62
252
  6
CONTINUOUS
 10
-17.7873618604
 20
27.5447149993
 11
-17.8022369534
 21
27.5529150545
  0
LINE
  5
835
100
AcDbEntity
  8
CURVE
100
AcDbLine
 62
252
  6
CONTINUOUS
 10
-18.0446110026
 20
25.8019121899
 11
-18.0598329802
 21
25.8103226136
  0
LWPOLYLINE
  5
836
100
AcDbEntity
  8
CURVE
100
AcDbPolyline
 62
252
  6
CONTINUOUS
 90
3
 70
0
 10
-14.1393891699
 20
25.4582494732
 10
-14.816912263
 20
25.8333848676
 10
-15.0417021114
 20
25.9590478401
  0
LINE
  5
837
100
AcDbEntity
  8
CURVE
100
AcDbLine
 62
252
  6
CONTINUOUS
 10
-14.8564159216
 20
23.9607197945
 11
-14.8723188725
 21
23.9702368618
  0
LWPOLYLINE
  5
838
100
AcDbEntity
  8
CURVE
100
AcDbPolyline
 62
252
  6
CONTINUOUS
 90
3
 70
0
 10
-17.8022362262
 20
27.552945636
 10
-18.4534713234
 20
27.9431814173
 10
-18.6694714501
 20
28.0738621994
  0
LINE
  5
839
100
AcDbEntity
  8
CURVE
100
AcDbLine
 62
252
  6
CONTINUOUS
 10
-15.0417028386
 20
25.9590172585
 11
-15.0568469155
 21
25.9681512729
  0
LINE
  5
83A
100
AcDbEntity
  8
CURVE
100
AcDbLine
 62
252
  6
CONTINUOUS
 10
-15.466127568
 20
25.5443918253
 11
-15.4502644715
 21
25.5347298216
  0
LINE
  5
83B
100
AcDbEntity
  8
CURVE
100
AcDbLine
 62
252
  6
CONTINUOUS
 10
-16.4574813356
 20
25.6321336827
 11
-16.4425868503
 21
25.6228884689
  0
LINE
  5
83C
100
AcDbEntity
  8
CURVE
100
AcDbLine
 62
252
  6
CONTINUOUS
 10
-16.4438683521
 20
26.2109959838
 11
-16.510022048
 21
26.252972431
  0
LINE
  5
83D
100
AcDbEntity
  8
CURVE
100
AcDbLine
 62
252
  6
CONTINUOUS
 10
-17.4178924223
 20
26.6713163877
 11
-17.4026408704
 21
26.6616236918
  0
LINE
  5
83E
100
AcDbEntity
  8
CURVE
100
AcDbLine
 62
252
  6
CONTINUOUS
 10
-17.790099234
 20
28.0501977336
 11
-17.7753616212
 21
28.040783345
  0
LINE
  5
83F
100
AcDbEntity
  8
CURVE
100
AcDbLine
 62
252
  6
CONTINUOUS
 10
-18.6694705565
 20
28.0739001727
 11
-18.6840225735
 21
28.0833760351
  0
LINE
  5
840
100
AcDbEntity
  8
CURVE
100
AcDbLine
 62
252
  6
CONTINUOUS
 10
-14.8723188725
 20
23.9702368618
 11
-14.8882197569
 21
23.9811504886
  0
LINE
  5
841
100
AcDbEntity
  8
CURVE
100
AcDbLine
 62
252
  6
CONTINUOUS
 10
-15.0568469155
 20
25.9681512729
 11
-15.072020687
 21
25.9786049522
  0
LINE
  5
842
100
AcDbEntity
  8
CURVE
100
AcDbLine
 62
252
  6
CONTINUOUS
 10
-15.4502644715
 20
25.5347298216
 11
-15.4344493303
 21
25.5236997507
  0
LINE
  5
843
100
AcDbEntity
  8
CURVE
100
AcDbLine
 62
252
  6
CONTINUOUS
 10
-16.4425868503
 20
25.6228884689
 11
-16.4276059935
 21
25.6122942013
  0
LINE
  5
844
100
AcDbEntity
  8
CURVE
100
AcDbLine
 62
252
  6
CONTINUOUS
 10
-17.4026408704
 20
26.6616236918
 11
-17.387325056
 21
26.6504930391
  0
LINE
  5
845
100
AcDbEntity
  8
CURVE
100
AcDbLine
 62
252
  6
CONTINUOUS
 10
-17.7753616212
 20
28.040783345
 11
-17.760602544
 21
28.0300558849
  0
LINE
  5
846
100
AcDbEntity
  8
CURVE
100
AcDbLine
 62
252
  6
CONTINUOUS
 10
-18.6840225735
 20
28.0833760351
 11
-18.6986021899
 21
28.0941727721
  0
LINE
  5
847
100
AcDbEntity
  8
CURVE
100
AcDbLine
 62
252
  6
CONTINUOUS
 10
-16.510022048
 20
26.252972431
 11
-16.5749840534
 21
26.3019656814
  0
LINE
  5
848
100
AcDbEntity
  8
CURVE
100
AcDbLine
 62
252
  6
CONTINUOUS
 10
-14.096699953
 20
25.9360367935
 11
-14.0814196223
 21
25.9243908033
  0
LINE
  5
849
100
AcDbEntity
  8
CURVE
100
AcDbLine
 62
252
  6
CONTINUOUS
 10
-15.072020687
 20
25.9786049522
 11
-15.0871316587
 21
25.9903282726
  0
LINE
  5
84A
100
AcDbEntity
  8
CURVE
100
AcDbLine
 62
252
  6
CONTINUOUS
 10
-15.4344493303
 20
25.5236997507
 11
-15.4187780931
 21
25.5113606095
  0
LINE
  5
84B
100
AcDbEntity
  8
CURVE
100
AcDbLine
 62
252
  6
CONTINUOUS
 10
-16.4276059935
 20
25.6122942013
 11
-16.4126474269
 21
25.6004097461
  0
LINE
  5
84C
100
AcDbEntity
  8
CURVE
100
AcDbLine
 62
252
  6
CONTINUOUS
 10
-17.760602544
 20
28.0300558849
 11
-17.7459130808
 21
28.0180687351
  0
LINE
  5
84D
100
AcDbEntity
  8
CURVE
100
AcDbLine
 62
252
  6
CONTINUOUS
 10
-17.387325056
 20
26.6504930391
 11
-17.3720466328
 21
26.6379801811
  0
LINE
  5
84E
100
AcDbEntity
  8
CURVE
100
AcDbLine
 62
252
  6
CONTINUOUS
 10
-17.4050922699
 20
28.4810465351
 11
-17.420405114
 21
28.4935926082
  0
LINE
  5
84F
100
AcDbEntity
  8
CURVE
100
AcDbLine
 62
252
  6
CONTINUOUS
 10
-18.6986021899
 20
28.0941727721
 11
-18.7131205554
 21
28.1062382559
  0
LINE
  5
850
100
AcDbEntity
  8
CURVE
100
AcDbLine
 62
252
  6
CONTINUOUS
 10
-14.0814196223
 20
25.9243908033
 11
-14.0663133488
 21
25.9115513405
  0
LINE
  5
851
100
AcDbEntity
  8
CURVE
100
AcDbLine
 62
252
  6
CONTINUOUS
 10
-15.0871316587
 20
25.9903282726
 11
-15.1020782722
 21
26.0032552233
  0
LINE
  5
852
100
AcDbEntity
  8
CURVE
100
AcDbLine
 62
252
  6
CONTINUOUS
 10
-16.2758984516
 20
27.6962325082
 11
-16.2119703046
 21
27.6404542258
  0
LINE
  5
853
100
AcDbEntity
  8
CURVE
100
AcDbLine
 62
252
  6
CONTINUOUS
 10
-16.5749840534
 20
26.3019656814
 11
-16.6387590673
 21
26.357832381
  0
LINE
  5
854
100
AcDbEntity
  8
CURVE
100
AcDbLine
 62
252
  6
CONTINUOUS
 10
-15.4187780931
 20
25.5113606095
 11
-15.4033524862
 21
25.4977849779
  0
LINE
  5
855
100
AcDbEntity
  8
CURVE
100
AcDbLine
 62
252
  6
CONTINUOUS
 10
-16.4126474269
 20
25.6004097461
 11
-16.397828266
 21
25.5873125
  0
LINE
  5
856
100
AcDbEntity
  8
CURVE
100
AcDbLine
 62
252
  6
CONTINUOUS
 10
-15.4693286117
 20
27.3660829126
 11
-15.484822496
 21
27.379828395
  0
LINE
  5
857
100
AcDbEntity
  8
CURVE
100
AcDbLine
 62
252
  6
CONTINUOUS
 10
-16.4350483945
 20
28.3996052149
 11
-16.4497972476
 21
28.4127171537
  0
LINE
  5
858
100
AcDbEntity
  8
CURVE
100
AcDbLine
 62
252
  6
CONTINUOUS
 10
-17.7459130808
 20
28.0180687351
 11
-17.7313925446
 21
28.0048910752
  0
LINE
  5
859
100
AcDbEntity
  8
CURVE
100
AcDbLine
 62
252
  6
CONTINUOUS
 10
-17.3720466328
 20
26.6379801811
 11
-17.3569180457
 21
26.6241600827
  0
LINE
  5
85A
100
AcDbEntity
  8
CURVE
100
AcDbLine
 62
252
  6
CONTINUOUS
 10
-17.420405114
 20
28.4935926082
 11
-17.4354655248
 21
28.5073790994
  0
LINE
  5
85B
100
AcDbEntity
  8
CURVE
100
AcDbLine
 62
252
  6
CONTINUOUS
 10
-18.7131205554
 20
28.1062382559
 11
-18.7274801183
 21
28.1195041622
  0
LINE
  5
85C
100
AcDbEntity
  8
CURVE
100
AcDbLine
 62
252
  6
CONTINUOUS
 10
-14.0663133488
 20
25.9115513405
 11
-14.0514905384
 21
25.8976013145
  0
LINE
  5
85D
100
AcDbEntity
  8
CURVE
100
AcDbLine
 62
252
  6
CONTINUOUS
 10
-15.1020782722
 20
26.0032552233
 11
-15.116752193
 21
26.0173031407
  0
LINE
  5
85E
100
AcDbEntity
  8
CURVE
100
AcDbLine
 62
252
  6
CONTINUOUS
 10
-15.4033524862
 20
25.4977849779
 11
-15.3882775382
 21
25.4830587573
  0
LINE
  5
85F
100
AcDbEntity
  8
CURVE
100
AcDbLine
 62
252
  6
CONTINUOUS
 10
-16.4497972476
 20
28.4127171537
 11
-16.4639060375
 21
28.4265791104
  0
LINE
  5
860
100
AcDbEntity
  8
CURVE
100
AcDbLine
 62
252
  6
CONTINUOUS
 10
-15.484822496
 20
27.379828395
 11
-15.5000067997
 21
27.3947761269
  0
LINE
  5
861
100
AcDbEntity
  8
CURVE
100
AcDbLine
 62
252
  6
CONTINUOUS
 10
-17.8957906409
 20
30.0116745814
 11
-17.8872812115
 21
30.0031611318
  0
LINE
  5
862
100
AcDbEntity
  8
CURVE
100
AcDbLine
 62
252
  6
CONTINUOUS
 10
-16.2119703046
 20
27.6404542258
 11
-16.1506282562
 21
27.5789638045
  0
LINE
  5
863
100
AcDbEntity
  8
CURVE
100
AcDbLine
 62
252
  6
CONTINUOUS
 10
-17.7313925446
 20
28.0048910752
 11
-17.7171461433
 21
27.9906082376
  0
LINE
  5
864
100
AcDbEntity
  8
CURVE
100
AcDbLine
 62
252
  6
CONTINUOUS
 10
-16.6387590673
 20
26.357832381
 11
-16.6998938679
 21
26.4195831057
  0
LINE
  5
865
100
AcDbEntity
  8
CURVE
100
AcDbLine
 62
252
  6
CONTINUOUS
 10
-17.4354655248
 20
28.5073790994
 11
-17.4501710948
 21
28.5223185941
  0
LINE
  5
866
100
AcDbEntity
  8
CURVE
100
AcDbLine
 62
252
  6
CONTINUOUS
 10
-14.0514905384
 20
25.8976013145
 11
-14.037639876
 21
25.8832643288
  0
LINE
  5
867
100
AcDbEntity
  8
CURVE
100
AcDbLine
 62
252
  6
CONTINUOUS
 10
-15.116752193
 20
26.0173031407
 11
-15.1303242114
 21
26.0315822307
  0
LINE
  5
868
100
AcDbEntity
  8
CURVE
100
AcDbLine
 62
252
  6
CONTINUOUS
 10
-15.3882775382
 20
25.4830587573
 11
-15.3802538679
 21
25.4745904926
  0
LINE
  5
869
100
AcDbEntity
  8
CURVE
100
AcDbLine
 62
252
  6
CONTINUOUS
 10
-15.5000067997
 20
27.3947761269
 11
-15.5078936475
 21
27.4031566744
  0
LINE
  5
86A
100
AcDbEntity
  8
CURVE
100
AcDbLine
 62
252
  6
CONTINUOUS
 10
-16.4639060375
 20
28.4265791104
 11
-16.4779480457
 21
28.4417569306
  0
LINE
  5
86B
100
AcDbEntity
  8
CURVE
100
AcDbLine
 62
252
  6
CONTINUOUS
 10
-17.8872812115
 20
30.0031611318
 11
-17.8728695391
 21
29.9875555729
  0
LINE
  5
86C
100
AcDbEntity
  8
CURVE
100
AcDbLine
 62
252
  6
CONTINUOUS
 10
-17.4501710948
 20
28.5223185941
 11
-17.4579928603
 21
28.5309034363
  0
LINE
  5
86D
100
AcDbEntity
  8
CURVE
100
AcDbLine
 62
252
  6
CONTINUOUS
 10
-17.7171461433
 20
27.9906082376
 11
-17.7038357174
 21
27.9759593261
  0
LINE
  5
86E
100
AcDbEntity
  8
CURVE
100
AcDbLine
 62
252
  6
CONTINUOUS
 10
-14.037639876
 20
25.8832643288
 11
-14.0237248968
 21
25.8674671627
  0
LINE
  5
86F
100
AcDbEntity
  8
CURVE
100
AcDbLine
 62
252
  6
CONTINUOUS
 10
-15.3802538679
 20
25.4745904926
 11
-15.3659592392
 21
25.458321851
  0
LINE
  5
870
100
AcDbEntity
  8
CURVE
100
AcDbLine
 62
252
  6
CONTINUOUS
 10
-16.1506282562
 20
27.5789638045
 11
-16.0913905266
 21
27.5113361584
  0
LINE
  5
871
100
AcDbEntity
  8
CURVE
100
AcDbLine
 62
252
  6
CONTINUOUS
 10
-15.5078936475
 20
27.4031566744
 11
-15.5222890569
 21
27.4196381851
  0
LINE
  5
872
100
AcDbEntity
  8
CURVE
100
AcDbLine
 62
252
  6
CONTINUOUS
 10
-15.1303242114
 20
26.0315822307
 11
-15.1441267238
 21
26.0474966911
  0
LINE
  5
873
100
AcDbEntity
  8
CURVE
100
AcDbLine
 62
252
  6
CONTINUOUS
 10
-17.4579928603
 20
28.5309034363
 11
-17.4719180358
 21
28.5473853955
  0
LINE
  5
874
100
AcDbEntity
  8
CURVE
100
AcDbLine
 62
252
  6
CONTINUOUS
 10
-16.2568062474
 20
29.8330932586
 11
-16.2433145756
 21
29.8170847066
  0
LINE
  5
875
100
AcDbEntity
  8
CURVE
100
AcDbLine
 62
252
  6
CONTINUOUS
 10
-16.4779480457
 20
28.4417569306
 11
-16.4914430826
 21
28.4577779138
  0
LINE
  5
876
100
AcDbEntity
  8
CURVE
100
AcDbLine
 62
252
  6
CONTINUOUS
 10
-17.8728695391
 20
29.9875555729
 11
-17.8590078418
 21
29.9710084569
  0
LINE
  5
877
100
AcDbEntity
  8
CURVE
100
AcDbLine
 62
252
  6
CONTINUOUS
 10
-14.0237248968
 20
25.8674671627
 11
-14.0104502717
 21
25.8509299312
  0
LINE
  5
878
100
AcDbEntity
  8
CURVE
100
AcDbLine
 62
252
  6
CONTINUOUS
 10
-14.6527505519
 20
28.1235390344
 11
-14.6388962151
 21
28.1062744016
  0
LINE
  5
879
100
AcDbEntity
  8
CURVE
100
AcDbLine
 62
252
  6
CONTINUOUS
 10
-15.5222890569
 20
27.4196381851
 11
-15.5359870456
 21
27.4369038482
  0
LINE
  5
87A
100
AcDbEntity
  8
CURVE
100
AcDbLine
 62
252
  6
CONTINUOUS
 10
-15.1441267238
 20
26.0474966911
 11
-15.1572978544
 21
26.0641569177
  0
LINE
  5
87B
100
AcDbEntity
  8
CURVE
100
AcDbLine
 62
252
  6
CONTINUOUS
 10
-16.0913905266
 20
27.5113361584
 11
-16.0357076745
 21
27.4391248134
  0
LINE
  5
87C
100
AcDbEntity
  8
CURVE
100
AcDbLine
 62
252
  6
CONTINUOUS
 10
-16.4914430826
 20
28.4577779138
 11
-16.5042924744
 21
28.4745129408
  0
LINE
  5
87D
100
AcDbEntity
  8
CURVE
100
AcDbLine
 62
252
  6
CONTINUOUS
 10
-16.2433145756
 20
29.8170847066
 11
-16.2304445661
 21
29.8003267224
  0
LINE
  5
87E
100
AcDbEntity
  8
CURVE
100
AcDbLine
 62
252
  6
CONTINUOUS
 10
-17.8590078418
 20
29.9710084569
 11
-17.8457938241
 21
29.9536462643
  0
LINE
  5
87F
100
AcDbEntity
  8
CURVE
100
AcDbLine
 62
252
  6
CONTINUOUS
 10
-14.0104502717
 20
25.8509299312
 11
-13.9979074408
 21
25.8337801069
  0
LINE
  5
880
100
AcDbEntity
  8
CURVE
100
AcDbLine
 62
252
  6
CONTINUOUS
 10
-14.6388962151
 20
28.1062744016
 11
-14.6258262085
 21
28.0883436278
  0
LINE
  5
881
100
AcDbEntity
  8
CURVE
100
AcDbLine
 62
252
  6
CONTINUOUS
 10
-15.1572978544
 20
26.0641569177
 11
-15.1697443454
 21
26.081430924
  0
LINE
  5
882
100
AcDbEntity
  8
CURVE
100
AcDbLine
 62
252
  6
CONTINUOUS
 10
-15.5359870456
 20
27.4369038482
 11
-15.5488771683
 21
27.4547943071
  0
LINE
  5
883
100
AcDbEntity
  8
CURVE
100
AcDbLine
 62
252
  6
CONTINUOUS
 10
-16.2304445661
 20
29.8003267224
 11
-16.2182788502
 21
29.7829383582
  0
LINE
  5
884
100
AcDbEntity
  8
CURVE
100
AcDbLine
 62
252
  6
CONTINUOUS
 10
-16.5042924744
 20
28.4745129408
 11
-16.5164106285
 21
28.4918348973
  0
LINE
  5
885
100
AcDbEntity
  8
CURVE
100
AcDbLine
 62
252
  6
CONTINUOUS
 10
-13.9979074408
 20
25.8337801069
 11
-13.9861756971
 21
25.8161430559
  0
LINE
  5
886
100
AcDbEntity
  8
CURVE
100
AcDbLine
 62
252
  6
CONTINUOUS
 10
-14.6258262085
 20
28.0883436278
 11
-14.6136359194
 21
28.0698985158
  0
LINE
  5
887
100
AcDbEntity
  8
CURVE
100
AcDbLine
 62
252
  6
CONTINUOUS
 10
-15.5488771683
 20
27.4547943071
 11
-15.5608665693
 21
27.4731550866
  0
LINE
  5
888
100
AcDbEntity
  8
CURVE
100
AcDbLine
 62
252
  6
CONTINUOUS
 10
-16.2182788502
 20
29.7829383582
 11
-16.2068886249
 21
29.7650352309
  0
LINE
  5
889
100
AcDbEntity
  8
CURVE
100
AcDbLine
 62
252
  6
CONTINUOUS
 10
-13.9861756971
 20
25.8161430559
 11
-13.9753212587
 21
25.7981381961
  0
LINE
  5
88A
100
AcDbEntity
  8
CURVE
100
AcDbLine
 62
252
  6
CONTINUOUS
 10
-14.6136359194
 20
28.0698985158
 11
-14.6024026512
 21
28.0510812961
  0
LINE
  5
88B
100
AcDbEntity
  8
CURVE
100
AcDbLine
 62
252
  6
CONTINUOUS
 10
-16.2068886249
 20
29.7650352309
 11
-16.1963333083
 21
29.746726366
  0
LINE
  5
88C
100
AcDbEntity
  8
CURVE
100
AcDbLine
 62
252
  6
CONTINUOUS
 10
-13.9753212587
 20
25.7981381961
 11
-13.96524423
 21
25.779801083
  0
LINE
  5
88D
100
AcDbEntity
  8
CURVE
100
AcDbLine
 62
252
  6
CONTINUOUS
 10
-14.6024026512
 20
28.0510812961
 11
-14.5920405371
 21
28.0316242794
  0
LINE
  5
88E
100
AcDbEntity
  8
CURVE
100
AcDbLine
 62
252
  6
CONTINUOUS
 10
-14.5920405371
 20
28.0316242794
 11
-14.5825186404
 21
28.0115872724
  0
LWPOLYLINE
  5
88F
100
AcDbEntity
  8
RACCORDO
100
AcDbPolyline
 62
253
  6
CONTINUOUS
 90
7
 70
0
 10
-7.986458507
 20
2.1142791062
 10
-8.0291883761
 20
3.8790272809
 10
-8.0636597261
 20
5.6173918853
 10
-8.0910868747
 20
7.3902939123
 10
-8.1118745945
 20
9.2180403596
 10
-8.1256181129
 20
11.0803242294
 10
-8.1323174299
 20
12.9771455219
  0
LWPOLYLINE
  5
890
100
AcDbEntity
  8
ASSI
100
AcDbPolyline
 62
253
  6
CONTINUOUS
 90
7
 70
0
 10
-7.986458507
 20
2.1142791062
 10
-8.0291883761
 20
3.8790272809
 10
-8.0636597261
 20
5.6173918853
 10
-8.0910868747
 20
7.3902939123
 10
-8.1118745945
 20
9.2180403596
 10
-8.1256181129
 20
11.0803242294
 10
-8.1323174299
 20
12.9771455219
  0
LWPOLYLINE
  5
891
100
AcDbEntity
  8
RACCORDO
100
AcDbPolyline
 62
253
  6
CONTINUOUS
 90
4
 70
0
 10
-8.1323173826
 20
13.9251298246
 10
-8.1278158826
 20
15.6225199484
 10
-8.1160225656
 20
17.3503708938
 10
-8.0969374318
 20
19.1086826608
  0
LWPOLYLINE
  5
892
100
AcDbEntity
  8
ASSI
100
AcDbPolyline
 62
253
  6
CONTINUOUS
 90
4
 70
0
 10
-8.1323173826
 20
13.9251298246
 10
-8.1278158826
 20
15.6225199484
 10
-8.1160225656
 20
17.3503708938
 10
-8.0969374318
 20
19.1086826608
  0
LINE
  5
893
100
AcDbEntity
  8
RACCORDO
100
AcDbLine
 62
253
  6
CONTINUOUS
 10
-8.0969374318
 20
19.1086826608
 11
-8.0658734588
 21
21.1860927102
  0
LINE
  5
894
100
AcDbEntity
  8
ASSI
100
AcDbLine
 62
253
  6
CONTINUOUS
 10
-8.0969374318
 20
19.1086826608
 11
-8.0658734588
 21
21.1860927102
  0
LWPOLYLINE
  5
895
100
AcDbEntity
  8
RACCORDO
100
AcDbPolyline
 62
253
  6
CONTINUOUS
 90
6
 70
0
 10
-8.0658734588
 20
21.1860927102
 10
-8.038506159
 20
22.6900829607
 10
-7.9959311284
 20
24.5663828919
 10
-7.9428353893
 20
26.5263550431
 10
-7.8800261645
 20
28.5566965647
 10
-7.8075034541
 20
30.6574074568
  0
LWPOLYLINE
  5
896
100
AcDbEntity
  8
ASSI
100
AcDbPolyline
 62
253
  6
CONTINUOUS
 90
6
 70
0
 10
-8.0658734588
 20
21.1860927102
 10
-8.038506159
 20
22.6900829607
 10
-7.9959311284
 20
24.5663828919
 10
-7.9428353893
 20
26.5263550431
 10
-7.8800261645
 20
28.5566965647
 10
-7.8075034541
 20
30.6574074568
  0
LINE
  5
897
100
AcDbEntity
  8
CURVE
100
AcDbLine
 62
252
  6
CONTINUOUS
 10
-14.8289095836
 20
6.290467114
 11
-14.8361167631
 21
6.2826216692
  0
LINE
  5
898
100
AcDbEntity
  8
CURVE
100
AcDbLine
 62
252
  6
CONTINUOUS
 10
-16.1982991103
 20
6.1706316703
 11
-16.205655204
 21
6.1637730864
  0
LINE
  5
899
100
AcDbEntity
  8
CURVE
100
AcDbLine
 62
252
  6
CONTINUOUS
 10
-14.8361167631
 20
6.2826216692
 11
-14.8441832773
 21
6.2755917297
  0
LINE
  5
89A
100
AcDbEntity
  8
CURVE
100
AcDbLine
 62
252
  6
CONTINUOUS
 10
-16.205655204
 20
6.1637730864
 11
-16.2110413243
 21
6.1594391982
  0
LINE
  5
89B
100
AcDbEntity
  8
CURVE
100
AcDbLine
 62
252
  6
CONTINUOUS
 10
-15.5600975975
 20
7.2231997923
 11
-15.5516818272
 21
7.229212526
  0
LINE
  5
89C
100
AcDbEntity
  8
CURVE
100
AcDbLine
 62
252
  6
CONTINUOUS
 10
-14.8908020234
 20
8.0874142615
 11
-14.899290707
 21
8.0813793515
  0
LINE
  5
89D
100
AcDbEntity
  8
CURVE
100
AcDbLine
 62
252
  6
CONTINUOUS
 10
-14.8441832773
 20
6.2755917297
 11
-14.8529283989
 21
6.2694797845
  0
LINE
  5
89E
100
AcDbEntity
  8
CURVE
100
AcDbLine
 62
252
  6
CONTINUOUS
 10
-16.2110413243
 20
6.1594391982
 11
-16.2195367982
 21
6.1537277614
  0
LINE
  5
89F
100
AcDbEntity
  8
CURVE
100
AcDbLine
 62
252
  6
CONTINUOUS
 10
-16.5552335291
 20
7.1426883693
 11
-16.5465513662
 21
7.1484510324
  0
LINE
  5
8A0
100
AcDbEntity
  8
CURVE
100
AcDbLine
 62
252
  6
CONTINUOUS
 10
-15.5516818272
 20
7.229212526
 11
-15.5426022013
 21
7.2342895478
  0
LINE
  5
8A1
100
AcDbEntity
  8
CURVE
100
AcDbLine
 62
252
  6
CONTINUOUS
 10
-14.899290707
 20
8.0813793515
 11
-14.9082257493
 21
8.0763995344
  0
LINE
  5
8A2
100
AcDbEntity
  8
CURVE
100
AcDbLine
 62
252
  6
CONTINUOUS
 10
-16.0879317787
 20
7.6641710167
 11
-16.1034208159
 21
7.655720273
  0
LINE
  5
8A3
100
AcDbEntity
  8
CURVE
100
AcDbLine
 62
252
  6
CONTINUOUS
 10
-16.2195367982
 20
6.1537277614
 11
-16.2284937049
 21
6.1489818088
  0
LINE
  5
8A4
100
AcDbEntity
  8
CURVE
100
AcDbLine
 62
252
  6
CONTINUOUS
 10
-16.5465513662
 20
7.1484510324
 11
-16.537527618
 21
7.1531907362
  0
LINE
  5
8A5
100
AcDbEntity
  8
CURVE
100
AcDbLine
 62
252
  6
CONTINUOUS
 10
-16.1034208159
 20
7.655720273
 11
-16.1195322542
 21
7.648591726
  0
LINE
  5
8A6
100
AcDbEntity
  8
CURVE
100
AcDbLine
 62
252
  6
CONTINUOUS
 10
-15.5758561204
 20
8.563827564
 11
-15.5663604416
 21
8.567877141
  0
LINE
  5
8A7
100
AcDbEntity
  8
CURVE
100
AcDbLine
 62
252
  6
CONTINUOUS
 10
-17.2670788955
 20
7.8812579698
 11
-17.2762879973
 21
7.8773541071
  0
LINE
  5
8A8
100
AcDbEntity
  8
CURVE
100
AcDbLine
 62
252
  6
CONTINUOUS
 10
-15.5426022013
 20
7.2342895478
 11
-15.5329006848
 21
7.2383979862
  0
LINE
  5
8A9
100
AcDbEntity
  8
CURVE
100
AcDbLine
 62
252
  6
CONTINUOUS
 10
-14.9082257493
 20
8.0763995344
 11
-14.9175399871
 21
8.0724856004
  0
LINE
  5
8AA
100
AcDbEntity
  8
CURVE
100
AcDbLine
 62
252
  6
CONTINUOUS
 10
-16.537527618
 20
7.1531907362
 11
-16.5281631254
 21
7.1569303905
  0
LINE
  5
8AB
100
AcDbEntity
  8
CURVE
100
AcDbLine
 62
252
  6
CONTINUOUS
 10
-16.1195322542
 20
7.648591726
 11
-16.136217487
 21
7.6427948523
  0
LINE
  5
8AC
100
AcDbEntity
  8
CURVE
100
AcDbLine
 62
252
  6
CONTINUOUS
 10
-15.5329006848
 20
7.2383979862
 11
-15.5277100723
 21
7.2401168544
  0
LINE
  5
8AD
100
AcDbEntity
  8
CURVE
100
AcDbLine
 62
252
  6
CONTINUOUS
 10
-15.5663604416
 20
8.567877141
 11
-15.5564779022
 21
8.570872604
  0
LINE
  5
8AE
100
AcDbEntity
  8
CURVE
100
AcDbLine
 62
252
  6
CONTINUOUS
 10
-17.2762879973
 20
7.8773541071
 11
-17.2858323947
 21
7.8745190392
  0
LINE
  5
8AF
100
AcDbEntity
  8
CURVE
100
AcDbLine
 62
252
  6
CONTINUOUS
 10
-14.9175399871
 20
8.0724856004
 11
-14.9271731979
 21
8.069636109
  0
LINE
  5
8B0
100
AcDbEntity
  8
CURVE
100
AcDbLine
 62
252
  6
CONTINUOUS
 10
-16.8366981351
 20
27.8544726926
 11
-16.782614234
 21
27.8698017002
  0
LINE
  5
8B1
100
AcDbEntity
  8
CURVE
100
AcDbLine
 62
252
  6
CONTINUOUS
 10
-16.2611481976
 20
28.3445768102
 11
-16.2739012263
 21
28.3416308747
  0
LINE
  5
8B2
100
AcDbEntity
  8
CURVE
100
AcDbLine
 62
252
  6
CONTINUOUS
 10
-14.8835734376
 20
28.2323123897
 11
-14.8700804269
 21
28.2353507638
  0
LINE
  5
8B3
100
AcDbEntity
  8
CURVE
100
AcDbLine
 62
252
  6
CONTINUOUS
 10
-15.2930926009
 20
27.3099368473
 11
-15.3065291805
 21
27.3069235326
  0
LINE
  5
8B4
100
AcDbEntity
  8
CURVE
100
AcDbLine
 62
252
  6
CONTINUOUS
 10
-17.675478243
 20
27.5279898008
 11
-17.688190028
 21
27.5251859837
  0
LINE
  5
8B5
100
AcDbEntity
  8
CURVE
100
AcDbLine
 62
252
  6
CONTINUOUS
 10
-17.5440564207
 20
26.6961908845
 11
-17.5309787821
 21
26.6989969522
  0
LINE
  5
8B6
100
AcDbEntity
  8
CURVE
100
AcDbLine
 62
252
  6
CONTINUOUS
 10
-16.782614234
 20
27.8698017002
 11
-16.7252608728
 21
27.876891921
  0
LINE
  5
8B7
100
AcDbEntity
  8
CURVE
100
AcDbLine
 62
252
  6
CONTINUOUS
 10
-15.146873113
 20
26.4821698212
 11
-15.133175434
 21
26.4837423043
  0
LINE
  5
8B8
100
AcDbEntity
  8
CURVE
100
AcDbLine
 62
252
  6
CONTINUOUS
 10
-14.8700804269
 20
28.2353507638
 11
-14.8558619903
 21
28.2368833017
  0
LINE
  5
8B9
100
AcDbEntity
  8
CURVE
100
AcDbLine
 62
252
  6
CONTINUOUS
 10
-15.3065291805
 20
27.3069235326
 11
-15.3206622077
 21
27.3054243146
  0
LINE
  5
8BA
100
AcDbEntity
  8
CURVE
100
AcDbLine
 62
252
  6
CONTINUOUS
 10
-17.688190028
 20
27.5251859837
 11
-17.7014854744
 21
27.5238057171
  0
LINE
  5
8BB
100
AcDbEntity
  8
CURVE
100
AcDbLine
 62
252
  6
CONTINUOUS
 10
-17.5309787821
 20
26.6989969522
 11
-17.5172120354
 21
26.7002846859
  0
LINE
  5
8BC
100
AcDbEntity
  8
CURVE
100
AcDbLine
 62
252
  6
CONTINUOUS
 10
-15.133175434
 20
26.4837423043
 11
-15.118954977
 21
26.4838879304
  0
LINE
  5
8BD
100
AcDbEntity
  8
CURVE
100
AcDbLine
 62
252
  6
CONTINUOUS
 10
-15.3206622077
 20
27.3054243146
 11
-15.3353941362
 21
27.3054625159
  0
LINE
  5
8BE
100
AcDbEntity
  8
CURVE
100
AcDbLine
 62
252
  6
CONTINUOUS
 10
-17.7014854744
 20
27.5238057171
 11
-17.7152862783
 21
27.5238624745
  0
LINE
  5
8BF
100
AcDbEntity
  8
CURVE
100
AcDbLine
 62
252
  6
CONTINUOUS
 10
-16.1245099957
 20
26.1219480593
 11
-16.1848921815
 21
26.1229542291
  0
LINE
  5
8C0
100
AcDbEntity
  8
CURVE
100
AcDbLine
 62
252
  6
CONTINUOUS
 10
-17.5172120354
 20
26.7002846859
 11
-17.5028507154
 21
26.7000325019
  0
LINE
  5
8C1
100
AcDbEntity
  8
CURVE
100
AcDbLine
 62
252
  6
CONTINUOUS
 10
-16.7252608728
 20
27.876891921
 11
-16.6651348325
 21
27.8754565739
  0
LINE
  5
8C2
100
AcDbEntity
  8
CURVE
100
AcDbLine
 62
252
  6
CONTINUOUS
 10
-15.118954977
 20
26.4838879304
 11
-15.1056370767
 21
26.4827767314
  0
LINE
  5
8C3
100
AcDbEntity
  8
CURVE
100
AcDbLine
 62
252
  6
CONTINUOUS
 10
-17.7152862783
 20
27.5238624745
 11
-17.7283910418
 21
27.5251920784
  0
LINE
  5
8C4
100
AcDbEntity
  8
CURVE
100
AcDbLine
 62
252
  6
CONTINUOUS
 10
-15.3353941362
 20
27.3054625159
 11
-15.3506159317
 21
27.3070478338
  0
LINE
  5
8C5
100
AcDbEntity
  8
CURVE
100
AcDbLine
 62
252
  6
CONTINUOUS
 10
-17.5028507154
 20
26.7000325019
 11
-17.4880006959
 21
26.6982325275
  0
LINE
  5
8C6
100
AcDbEntity
  8
CURVE
100
AcDbLine
 62
252
  6
CONTINUOUS
 10
-16.1848921815
 20
26.1229542291
 11
-16.2475130833
 21
26.132512934
  0
LINE
  5
8C7
100
AcDbEntity
  8
CURVE
100
AcDbLine
 62
252
  6
CONTINUOUS
 10
-16.6651348325
 20
27.8754565739
 11
-16.6027223458
 21
27.8656368918
  0
LINE
  5
8C8
100
AcDbEntity
  8
CURVE
100
AcDbLine
 62
252
  6
CONTINUOUS
 10
-15.1056370767
 20
26.4827767314
 11
-15.0907048272
 21
26.4802020504
  0
LINE
  5
8C9
100
AcDbEntity
  8
CURVE
100
AcDbLine
 62
252
  6
CONTINUOUS
 10
-15.3506159317
 20
27.3070478338
 11
-15.3591514269
 21
27.3085772223
  0
LINE
  5
8CA
100
AcDbEntity
  8
CURVE
100
AcDbLine
 62
252
  6
CONTINUOUS
 10
-17.7283910418
 20
27.5251920784
 11
-17.742887774
 21
27.5280036932
  0
LINE
  5
8CB
100
AcDbEntity
  8
CURVE
100
AcDbLine
 62
252
  6
CONTINUOUS
 10
-17.4880006959
 20
26.6982325275
 11
-17.4796689239
 21
26.6965854983
  0
LINE
  5
8CC
100
AcDbEntity
  8
CURVE
100
AcDbLine
 62
252
  6
CONTINUOUS
 10
-18.7305154534
 20
28.5992516874
 11
-18.7161976101
 21
28.5963591685
  0
LINE
  5
8CD
100
AcDbEntity
  8
CURVE
100
AcDbLine
 62
252
  6
CONTINUOUS
 10
-15.3591514269
 20
27.3085772223
 11
-15.3748512066
 21
27.312529448
  0
LINE
  5
8CE
100
AcDbEntity
  8
CURVE
100
AcDbLine
 62
252
  6
CONTINUOUS
 10
-15.0907048272
 20
26.4802020504
 11
-15.0755430258
 21
26.4762322277
  0
LINE
  5
8CF
100
AcDbEntity
  8
CURVE
100
AcDbLine
 62
252
  6
CONTINUOUS
 10
-17.3122578923
 20
28.4349359658
 11
-17.3276642965
 21
28.439047158
  0
LINE
  5
8D0
100
AcDbEntity
  8
CURVE
100
AcDbLine
 62
252
  6
CONTINUOUS
 10
-17.4796689239
 20
26.6965854983
 11
-17.4643353344
 21
26.6924218399
  0
LINE
  5
8D1
100
AcDbEntity
  8
CURVE
100
AcDbLine
 62
252
  6
CONTINUOUS
 10
-16.2475130833
 20
26.132512934
 11
-16.3118811918
 21
26.1503453468
  0
LINE
  5
8D2
100
AcDbEntity
  8
CURVE
100
AcDbLine
 62
252
  6
CONTINUOUS
 10
-16.6027223458
 20
27.8656368918
 11
-16.5380238533
 21
27.8472919791
  0
LINE
  5
8D3
100
AcDbEntity
  8
CURVE
100
AcDbLine
 62
252
  6
CONTINUOUS
 10
-17.742887774
 20
27.5280036932
 11
-17.7576064211
 21
27.5322176094
  0
LINE
  5
8D4
100
AcDbEntity
  8
CURVE
100
AcDbLine
 62
252
  6
CONTINUOUS
 10
-18.7161976101
 20
28.5963591685
 11
-18.7016439857
 21
28.592061322
  0
LINE
  5
8D5
100
AcDbEntity
  8
CURVE
100
AcDbLine
 62
252
  6
CONTINUOUS
 10
-15.3748512066
 20
27.312529448
 11
-15.3906925391
 21
27.3179593631
  0
LINE
  5
8D6
100
AcDbEntity
  8
CURVE
100
AcDbLine
 62
252
  6
CONTINUOUS
 10
-15.0755430258
 20
26.4762322277
 11
-15.0602425625
 21
26.4708989109
  0
LINE
  5
8D7
100
AcDbEntity
  8
CURVE
100
AcDbLine
 62
252
  6
CONTINUOUS
 10
-16.3449612643
 20
28.3478189392
 11
-16.3601413221
 21
28.3532209763
  0
LINE
  5
8D8
100
AcDbEntity
  8
CURVE
100
AcDbLine
 62
252
  6
CONTINUOUS
 10
-17.3276642965
 20
28.439047158
 11
-17.3431774815
 21
28.4446244479
  0
LINE
  5
8D9
100
AcDbEntity
  8
CURVE
100
AcDbLine
 62
252
  6
CONTINUOUS
 10
-17.7576064211
 20
27.5322176094
 11
-17.7724590328
 21
27.5378011774
  0
LINE
  5
8DA
100
AcDbEntity
  8
CURVE
100
AcDbLine
 62
252
  6
CONTINUOUS
 10
-18.7016439857
 20
28.592061322
 11
-18.6869460008
 21
28.5863919476
  0
LINE
  5
8DB
100
AcDbEntity
  8
CURVE
100
AcDbLine
 62
252
  6
CONTINUOUS
 10
-16.5380238533
 20
27.8472919791
 11
-16.4724998324
 21
27.8211257888
  0
LINE
  5
8DC
100
AcDbEntity
  8
CURVE
100
AcDbLine
 62
252
  6
CONTINUOUS
 10
-15.3906925391
 20
27.3179593631
 11
-15.4065575206
 21
27.3248143825
  0
LINE
  5
8DD
100
AcDbEntity
  8
CURVE
100
AcDbLine
 62
252
  6
CONTINUOUS
 10
-15.0602425625
 20
26.4708989109
 11
-15.0448898368
 21
26.4642404878
  0
LINE
  5
8DE
100
AcDbEntity
  8
CURVE
100
AcDbLine
 62
252
  6
CONTINUOUS
 10
-16.3601413221
 20
28.3532209763
 11
-16.3752894753
 21
28.3599218305
  0
LINE
  5
8DF
100
AcDbEntity
  8
CURVE
100
AcDbLine
 62
252
  6
CONTINUOUS
 10
-17.3431774815
 20
28.4446244479
 11
-17.3586890885
 21
28.4516144498
  0
LINE
  5
8E0
100
AcDbEntity
  8
CURVE
100
AcDbLine
 62
252
  6
CONTINUOUS
 10
-17.7724590328
 20
27.5378011774
 11
-17.7873618604
 21
27.5447149993
  0
LINE
  5
8E1
100
AcDbEntity
  8
CURVE
100
AcDbLine
 62
252
  6
CONTINUOUS
 10
-18.6869460008
 20
28.5863919476
 11
-18.6721910365
 21
28.5793923535
  0
LINE
  5
8E2
100
AcDbEntity
  8
CURVE
100
AcDbLine
 62
252
  6
CONTINUOUS
 10
-14.7687799961
 20
28.2175053706
 11
-14.7529345842
 21
28.2093200467
  0
LINE
  5
8E3
100
AcDbEntity
  8
CURVE
100
AcDbLine
 62
252
  6
CONTINUOUS
 10
-15.0448898368
 20
26.4642404878
 11
-15.0295651191
 21
26.4562999377
  0
LINE
  5
8E4
100
AcDbEntity
  8
CURVE
100
AcDbLine
 62
252
  6
CONTINUOUS
 10
-16.4724998324
 20
27.8211257888
 11
-16.4066475285
 21
27.7869919128
  0
LINE
  5
8E5
100
AcDbEntity
  8
CURVE
100
AcDbLine
 62
252
  6
CONTINUOUS
 10
-15.4065575206
 20
27.3248143825
 11
-15.4223363
 21
27.3330331625
  0
LINE
  5
8E6
100
AcDbEntity
  8
CURVE
100
AcDbLine
 62
252
  6
CONTINUOUS
 10
-16.3752894753
 20
28.3599218305
 11
-16.3902978512
 21
28.367856324
  0
LINE
  5
8E7
100
AcDbEntity
  8
CURVE
100
AcDbLine
 62
252
  6
CONTINUOUS
 10
-17.3586890885
 20
28.4516144498
 11
-17.3741011542
 21
28.4599577249
  0
LINE
  5
8E8
100
AcDbEntity
  8
CURVE
100
AcDbLine
 62
252
  6
CONTINUOUS
 10
-17.9720625322
 20
30.0676018921
 11
-17.9568301611
 21
30.0592091937
  0
LWPOLYLINE
  5
8E9
100
AcDbEntity
  8
CURVE
100
AcDbPolyline
 62
252
  6
CONTINUOUS
 90
3
 70
0
 10
-15.0295643414
 20
26.4563309999
 10
-14.804800644
 20
26.3306527212
 10
-14.1273792852
 20
25.9554577813
  0
LINE
  5
8EA
100
AcDbEntity
  8
CURVE
100
AcDbLine
 62
252
  6
CONTINUOUS
 10
-18.6721910365
 20
28.5793923535
 11
-18.6574606099
 21
28.5711090774
  0
LINE
  5
8EB
100
AcDbEntity
  8
CURVE
100
AcDbLine
 62
252
  6
CONTINUOUS
 10
-14.1273783296
 20
25.9554963512
 11
-14.1120510828
 21
25.9464224098
  0
LINE
  5
8EC
100
AcDbEntity
  8
CURVE
100
AcDbLine
 62
252
  6
CONTINUOUS
 10
-14.7529345842
 20
28.2093200467
 11
-14.7373366519
 21
28.1999088606
  0
LWPOLYLINE
  5
8ED
100
AcDbEntity
  8
CURVE
100
AcDbPolyline
 62
252
  6
CONTINUOUS
 90
3
 70
0
 10
-18.6574615655
 20
28.5710705075
 10
-18.441423647
 20
28.4404118451
 10
-17.7900984563
 20
28.0502287959
  0
LINE
  5
8EE
100
AcDbEntity
  8
CURVE
100
AcDbLine
 62
252
  6
CONTINUOUS
 10
-15.4223363
 20
27.3330331625
 11
-15.4379601279
 21
27.3426106942
  0
LINE
  5
8EF
100
AcDbEntity
  8
CURVE
100
AcDbLine
 62
252
  6
CONTINUOUS
 10
-16.3902978512
 20
28.367856324
 11
-16.4051860301
 21
28.3771061626
  0
LINE
  5
8F0
100
AcDbEntity
  8
CURVE
100
AcDbLine
 62
252
  6
CONTINUOUS
 10
-17.3741011542
 20
28.4599577249
 11
-17.3896263355
 21
28.4698148366
  0
LINE
  5
8F1
100
AcDbEntity
  8
CURVE
100
AcDbLine
 62
252
  6
CONTINUOUS
 10
-16.4066475285
 20
27.7869919128
 11
-16.3409537112
 21
27.7451719148
  0
LINE
  5
8F2
100
AcDbEntity
  8
CURVE
100
AcDbLine
 62
252
  6
CONTINUOUS
 10
-17.9568301611
 20
30.0592091937
 11
-17.9414315686
 21
30.0493523913
  0
LINE
  5
8F3
100
AcDbEntity
  8
CURVE
100
AcDbLine
 62
252
  6
CONTINUOUS
 10
-14.1120510828
 20
25.9464224098
 11
-14.096699953
 21
25.9360367935
  0
LINE
  5
8F4
100
AcDbEntity
  8
CURVE
100
AcDbLine
 62
252
  6
CONTINUOUS
 10
-14.7373366519
 20
28.1999088606
 11
-14.7216312695
 21
28.1890224292
  0
LINE
  5
8F5
100
AcDbEntity
  8
CURVE
100
AcDbLine
 62
252
  6
CONTINUOUS
 10
-15.4379601279
 20
27.3426106942
 11
-15.4536640758
 21
27.3536483629
  0
LINE
  5
8F6
100
AcDbEntity
  8
CURVE
100
AcDbLine
 62
252
  6
CONTINUOUS
 10
-16.329219439
 20
29.8973688954
 11
-16.3142490203
 21
29.8867593249
  0
LINE
  5
8F7
100
AcDbEntity
  8
CURVE
100
AcDbLine
 62
252
  6
CONTINUOUS
 10
-16.4051860301
 20
28.3771061626
 11
-16.4201391603
 21
28.3877089693
  0
LINE
  5
8F8
100
AcDbEntity
  8
CURVE
100
AcDbLine
 62
252
  6
CONTINUOUS
 10
-17.3896263355
 20
28.4698148366
 11
-17.4050922699
 21
28.4810465351
  0
LINE
  5
8F9
100
AcDbEntity
  8
CURVE
100
AcDbLine
 62
252
  6
CONTINUOUS
 10
-17.9414315686
 20
30.0493523913
 11
-17.926056769
 21
30.0380995128
  0
LINE
  5
8FA
100
AcDbEntity
  8
CURVE
100
AcDbLine
 62
252
  6
CONTINUOUS
 10
-16.3409537112
 20
27.7451719148
 11
-16.2758984516
 21
27.6962325082
  0
LINE
  5
8FB
100
AcDbEntity
  8
CURVE
100
AcDbLine
 62
252
  6
CONTINUOUS
 10
-14.7216312695
 20
28.1890224292
 11
-14.7059376406
 21
28.1767204142
  0
LINE
  5
8FC
100
AcDbEntity
  8
CURVE
100
AcDbLine
 62
252
  6
CONTINUOUS
 10
-15.4536640758
 20
27.3536483629
 11
-15.4693286117
 21
27.3660829126
  0
LINE
  5
8FD
100
AcDbEntity
  8
CURVE
100
AcDbLine
 62
252
  6
CONTINUOUS
 10
-16.3142490203
 20
29.8867593249
 11
-16.2993604728
 21
29.874884177
  0
LINE
  5
8FE
100
AcDbEntity
  8
CURVE
100
AcDbLine
 62
252
  6
CONTINUOUS
 10
-16.4201391603
 20
28.3877089693
 11
-16.4350483945
 21
28.3996052149
  0
LINE
  5
8FF
100
AcDbEntity
  8
CURVE
100
AcDbLine
 62
252
  6
CONTINUOUS
 10
-17.926056769
 20
30.0380995128
 11
-17.9108071708
 21
30.0255138422
  0
LINE
  5
900
100
AcDbEntity
  8
CURVE
100
AcDbLine
 62
252
  6
CONTINUOUS
 10
-14.7059376406
 20
28.1767204142
 11
-14.6903869868
 21
28.1630850147
  0
LINE
  5
901
100
AcDbEntity
  8
CURVE
100
AcDbLine
 62
252
  6
CONTINUOUS
 10
-16.2993604728
 20
29.874884177
 11
-16.2846560557
 21
29.8618131385
  0
LINE
  5
902
100
AcDbEntity
  8
CURVE
100
AcDbLine
 62
252
  6
CONTINUOUS
 10
-17.9108071708
 20
30.0255138422
 11
-17.8957906409
 21
30.0116745814
  0
LINE
  5
903
100
AcDbEntity
  8
CURVE
100
AcDbLine
 62
252
  6
CONTINUOUS
 10
-14.6903869868
 20
28.1630850147
 11
-14.6751185427
 21
28.1482210458
  0
LINE
  5
904
100
AcDbEntity
  8
CURVE
100
AcDbLine
 62
252
  6
CONTINUOUS
 10
-16.2846560557
 20
29.8618131385
 11
-16.2702421769
 21
29.847630788
  0
LINE
  5
905
100
AcDbEntity
  8
CURVE
100
AcDbLine
 62
252
  6
CONTINUOUS
 10
-14.6751185427
 20
28.1482210458
 11
-14.6672767149
 21
28.1399814297
  0
LINE
  5
906
100
AcDbEntity
  8
CURVE
100
AcDbLine
 62
252
  6
CONTINUOUS
 10
-16.2702421769
 20
29.847630788
 11
-16.2568062474
 21
29.8330932586
  0
LINE
  5
907
100
AcDbEntity
  8
CURVE
100
AcDbLine
 62
252
  6
CONTINUOUS
 10
-14.6672767149
 20
28.1399814297
 11
-14.6527505519
 21
28.1235390344
  0
LINE
  5
908
100
AcDbEntity
  8
CURVE
100
AcDbLine
 62
252
  6
CONTINUOUS
 10
-14.8529283989
 20
6.2694797845
 11
-14.8623081126
 21
6.2643239761
  0
LINE
  5
909
100
AcDbEntity
  8
CURVE
100
AcDbLine
 62
252
  6
CONTINUOUS
 10
-14.8623081126
 20
6.2643239761
 11
-14.866207053
 21
6.2625452679
  0
LINE
  5
90A
100
AcDbEntity
  8
CURVE
100
AcDbLine
 62
252
  6
CONTINUOUS
 10
-16.2284937049
 20
6.1489818088
 11
-16.2378594469
 21
6.1452133049
  0
LINE
  5
90B
100
AcDbEntity
  8
CURVE
100
AcDbLine
 62
252
  6
CONTINUOUS
 10
-14.866207053
 20
6.2625452679
 11
-14.8763761919
 21
6.2587826786
  0
LINE
  5
90C
100
AcDbEntity
  8
CURVE
100
AcDbLine
 62
252
  6
CONTINUOUS
 10
-16.2378594469
 20
6.1452133049
 11
-16.2475833957
 21
6.1424262197
  0
LINE
  5
90D
100
AcDbEntity
  8
CURVE
100
AcDbLine
 62
252
  6
CONTINUOUS
 10
-16.4732603031
 20
29.9298993038
 11
-16.4604537585
 21
29.9328360871
  0
LINE
  5
90E
100
AcDbEntity
  8
CURVE
100
AcDbLine
 62
252
  6
CONTINUOUS
 10
-18.7827408995
 20
28.5966926528
 11
-18.7703053907
 21
28.5994434119
  0
LINE
  5
90F
100
AcDbEntity
  8
CURVE
100
AcDbLine
 62
252
  6
CONTINUOUS
 10
-18.0825636541
 20
30.0840434681
 11
-18.0694211813
 21
30.0868711793
  0
LINE
  5
910
100
AcDbEntity
  8
CURVE
100
AcDbLine
 62
252
  6
CONTINUOUS
 10
-17.2474172096
 20
28.4354251182
 11
-17.2607960074
 21
28.4326136431
  0
LINE
  5
911
100
AcDbEntity
  8
CURVE
100
AcDbLine
 62
252
  6
CONTINUOUS
 10
-16.2739012263
 20
28.3416308747
 11
-16.2873555225
 21
28.3400788711
  0
LINE
  5
912
100
AcDbEntity
  8
CURVE
100
AcDbLine
 62
252
  6
CONTINUOUS
 10
-16.4604537585
 20
29.9328360871
 11
-16.4469493822
 21
29.9343768863
  0
LINE
  5
913
100
AcDbEntity
  8
CURVE
100
AcDbLine
 62
252
  6
CONTINUOUS
 10
-18.7703053907
 20
28.5994434119
 11
-18.7572640082
 21
28.6007740379
  0
LINE
  5
914
100
AcDbEntity
  8
CURVE
100
AcDbLine
 62
252
  6
CONTINUOUS
 10
-18.0694211813
 20
30.0868711793
 11
-18.0555935703
 21
30.0881714071
  0
LINE
  5
915
100
AcDbEntity
  8
CURVE
100
AcDbLine
 62
252
  6
CONTINUOUS
 10
-17.2607960074
 20
28.4326136431
 11
-17.2748442999
 21
28.4313313119
  0
LINE
  5
916
100
AcDbEntity
  8
CURVE
100
AcDbLine
 62
252
  6
CONTINUOUS
 10
-16.2873555225
 20
28.3400788711
 11
-16.3014139714
 21
28.3399501147
  0
LINE
  5
917
100
AcDbEntity
  8
CURVE
100
AcDbLine
 62
252
  6
CONTINUOUS
 10
-16.4469493822
 20
29.9343768863
 11
-16.4328474284
 21
29.9344925003
  0
LINE
  5
918
100
AcDbEntity
  8
CURVE
100
AcDbLine
 62
252
  6
CONTINUOUS
 10
-17.2748442999
 20
28.4313313119
 11
-17.2822352914
 21
28.4312737221
  0
LINE
  5
919
100
AcDbEntity
  8
CURVE
100
AcDbLine
 62
252
  6
CONTINUOUS
 10
-18.0555935703
 20
30.0881714071
 11
-18.0476438821
 21
30.0882240331
  0
LINE
  5
91A
100
AcDbEntity
  8
CURVE
100
AcDbLine
 62
252
  6
CONTINUOUS
 10
-14.8558619903
 20
28.2368833017
 11
-14.8410203752
 21
28.2368831987
  0
LINE
  5
91B
100
AcDbEntity
  8
CURVE
100
AcDbLine
 62
252
  6
CONTINUOUS
 10
-18.7572640082
 20
28.6007740379
 11
-18.7436948046
 21
28.6006684938
  0
LINE
  5
91C
100
AcDbEntity
  8
CURVE
100
AcDbLine
 62
252
  6
CONTINUOUS
 10
-17.2822352914
 20
28.4312737221
 11
-17.2970745858
 21
28.4323345646
  0
LINE
  5
91D
100
AcDbEntity
  8
CURVE
100
AcDbLine
 62
252
  6
CONTINUOUS
 10
-18.0476438821
 20
30.0882240331
 11
-18.0329826906
 21
30.0871075737
  0
LINE
  5
91E
100
AcDbEntity
  8
CURVE
100
AcDbLine
 62
252
  6
CONTINUOUS
 10
-16.3014139714
 20
28.3399501147
 11
-16.3149839339
 21
28.3411273778
  0
LINE
  5
91F
100
AcDbEntity
  8
CURVE
100
AcDbLine
 62
252
  6
CONTINUOUS
 10
-16.4328474284
 20
29.9344925003
 11
-16.4194069524
 21
29.93332314
  0
LINE
  5
920
100
AcDbEntity
  8
CURVE
100
AcDbLine
 62
252
  6
CONTINUOUS
 10
-14.8410203752
 20
28.2368831987
 11
-14.8256714148
 21
28.2353384276
  0
LINE
  5
921
100
AcDbEntity
  8
CURVE
100
AcDbLine
 62
252
  6
CONTINUOUS
 10
-18.7436948046
 20
28.6006684938
 11
-18.7305154534
 21
28.5992516874
  0
LINE
  5
922
100
AcDbEntity
  8
CURVE
100
AcDbLine
 62
252
  6
CONTINUOUS
 10
-17.2970745858
 20
28.4323345646
 11
-17.3122578923
 21
28.4349359658
  0
LINE
  5
923
100
AcDbEntity
  8
CURVE
100
AcDbLine
 62
252
  6
CONTINUOUS
 10
-14.8256714148
 20
28.2353384276
 11
-14.8165584698
 21
28.2337302719
  0
LINE
  5
924
100
AcDbEntity
  8
CURVE
100
AcDbLine
 62
252
  6
CONTINUOUS
 10
-18.0329826906
 20
30.0871075737
 11
-18.0179732073
 21
30.084448978
  0
LINE
  5
925
100
AcDbEntity
  8
CURVE
100
AcDbLine
 62
252
  6
CONTINUOUS
 10
-16.4194069524
 20
29.93332314
 11
-16.4045156986
 21
29.9306818406
  0
LINE
  5
926
100
AcDbEntity
  8
CURVE
100
AcDbLine
 62
252
  6
CONTINUOUS
 10
-16.3149839339
 20
28.3411273778
 11
-16.3298672496
 21
28.3437726956
  0
LINE
  5
927
100
AcDbEntity
  8
CURVE
100
AcDbLine
 62
252
  6
CONTINUOUS
 10
-14.8165584698
 20
28.2337302719
 11
-14.800715063
 21
28.2297731839
  0
LINE
  5
928
100
AcDbEntity
  8
CURVE
100
AcDbLine
 62
252
  6
CONTINUOUS
 10
-16.4045156986
 20
29.9306818406
 11
-16.3894264772
 21
29.9266431234
  0
LINE
  5
929
100
AcDbEntity
  8
CURVE
100
AcDbLine
 62
252
  6
CONTINUOUS
 10
-16.3298672496
 20
28.3437726956
 11
-16.3449612643
 21
28.3478189392
  0
LINE
  5
92A
100
AcDbEntity
  8
CURVE
100
AcDbLine
 62
252
  6
CONTINUOUS
 10
-18.0179732073
 20
30.084448978
 11
-18.0027389484
 21
30.0802800258
  0
LINE
  5
92B
100
AcDbEntity
  8
CURVE
100
AcDbLine
 62
252
  6
CONTINUOUS
 10
-14.800715063
 20
28.2297731839
 11
-14.7847463268
 21
28.2243456016
  0
LINE
  5
92C
100
AcDbEntity
  8
CURVE
100
AcDbLine
 62
252
  6
CONTINUOUS
 10
-16.3894264772
 20
29.9266431234
 11
-16.3742639109
 21
29.9212532474
  0
LINE
  5
92D
100
AcDbEntity
  8
CURVE
100
AcDbLine
 62
252
  6
CONTINUOUS
 10
-18.0027389484
 20
30.0802800258
 11
-17.9873986102
 21
30.074645934
  0
LINE
  5
92E
100
AcDbEntity
  8
CURVE
100
AcDbLine
 62
252
  6
CONTINUOUS
 10
-14.7847463268
 20
28.2243456016
 11
-14.7687799961
 21
28.2175053706
  0
LINE
  5
92F
100
AcDbEntity
  8
CURVE
100
AcDbLine
 62
252
  6
CONTINUOUS
 10
-16.3742639109
 20
29.9212532474
 11
-16.3591450746
 21
29.9145698811
  0
LINE
  5
930
100
AcDbEntity
  8
CURVE
100
AcDbLine
 62
252
  6
CONTINUOUS
 10
-17.9873986102
 20
30.074645934
 11
-17.9720625322
 21
30.0676018921
  0
LINE
  5
931
100
AcDbEntity
  8
CURVE
100
AcDbLine
 62
252
  6
CONTINUOUS
 10
-16.3591450746
 20
29.9145698811
 11
-16.3441762806
 21
29.9066583298
  0
LINE
  5
932
100
AcDbEntity
  8
CURVE
100
AcDbLine
 62
252
  6
CONTINUOUS
 10
-16.3441762806
 20
29.9066583298
 11
-16.329219439
 21
29.8973688954
  0
LINE
  5
933
100
AcDbEntity
  8
RACCORDO
100
AcDbLine
 62
7
  6
CONTINUOUS
 10
-4.1688457851
 20
26.3185646511
 11
-4.1688457851
 21
16.0578770021
  0
LINE
  5
934
100
AcDbEntity
  8
ASSI
100
AcDbLine
 62
7
  6
CONTINUOUS
 10
-4.1688457851
 20
26.3185646511
 11
-4.1688457851
 21
16.0578770021
  0
LINE
  5
935
100
AcDbEntity
  8
RACCORDO
100
AcDbLine
 62
7
  6
CONTINUOUS
 10
-4.1688457851
 20
15.1877310482
 11
-4.1688457851
 21
4.9270433991
  0
LINE
  5
936
100
AcDbEntity
  8
ASSI
100
AcDbLine
 62
7
  6
CONTINUOUS
 10
-4.1688457851
 20
15.1877310482
 11
-4.1688457851
 21
4.9270433991
  0
LINE
  5
937
100
AcDbEntity
  8
RACCORDO
100
AcDbLine
 62
7
  6
CONTINUOUS
 10
-4.9348811041
 20
-2.512638329
 11
-4.1688457851
 21
4.9270433991
  0
LINE
  5
938
100
AcDbEntity
  8
ASSI
100
AcDbLine
 62
7
  6
CONTINUOUS
 10
-4.9348811041
 20
-2.512638329
 11
-4.1688457851
 21
4.9270433991
  0
LWPOLYLINE
  5
939
100
AcDbEntity
  8
RACCORDO
100
AcDbPolyline
 62
253
  6
CONTINUOUS
 90
7
 70
0
 10
-23.3331573371
 20
39.242895201
 10
-23.3706989711
 20
39.270692978
 10
-23.4019782689
 20
39.3006769922
 10
-23.4265218726
 20
39.3323934877
 10
-23.4439583573
 20
39.3653624904
 10
-23.4540238522
 20
39.3990850715
 10
-23.4565836928
 20
39.4325456283
  0
LWPOLYLINE
  5
93A
100
AcDbEntity
  8
ASSI
100
AcDbPolyline
 62
253
  6
CONTINUOUS
 90
7
 70
0
 10
-23.3331573371
 20
39.242895201
 10
-23.3706989711
 20
39.270692978
 10
-23.4019782689
 20
39.3006769922
 10
-23.4265218726
 20
39.3323934877
 10
-23.4439583573
 20
39.3653624904
 10
-23.4540238522
 20
39.3990850715
 10
-23.4565836928
 20
39.4325456283
  0
LINE
  5
93B
100
AcDbEntity
  8
RACCORDO
100
AcDbLine
 62
7
  6
CONTINUOUS
 10
-4.9348811041
 20
32.918793856
 11
-4.1688457851
 21
26.3185646511
  0
LINE
  5
93C
100
AcDbEntity
  8
ASSI
100
AcDbLine
 62
7
  6
CONTINUOUS
 10
-4.9348811041
 20
32.918793856
 11
-4.1688457851
 21
26.3185646511
  0
LWPOLYLINE
  5
93D
100
AcDbEntity
  8
RACCORDO
100
AcDbPolyline
 62
253
  6
CONTINUOUS
 90
13
 70
0
 10
-8.4802451308
 20
30.6670254078
 10
-8.4315247609
 20
30.6450161635
 10
-8.3785694224
 20
30.6263634818
 10
-8.3221804771
 20
30.6113496299
 10
-8.263211247
 20
30.6002018093
 10
-8.202554101
 20
30.5930887173
 10
-8.1411269508
 20
30.5901179943
 10
-8.0798593603
 20
30.5913345953
 10
-8.0196784791
 20
30.59672011
 10
-7.9614950116
 20
30.6061930404
 10
-7.9061894359
 20
30.6196100347
 10
-7.8545986794
 20
30.6367680565
 10
-7.8075034542
 20
30.6574074569
  0
LWPOLYLINE
  5
93E
100
AcDbEntity
  8
ASSI
100
AcDbPolyline
 62
253
  6
CONTINUOUS
 90
13
 70
0
 10
-8.4802451308
 20
30.6670254078
 10
-8.4315247609
 20
30.6450161635
 10
-8.3785694224
 20
30.6263634818
 10
-8.3221804771
 20
30.6113496299
 10
-8.263211247
 20
30.6002018093
 10
-8.202554101
 20
30.5930887173
 10
-8.1411269508
 20
30.5901179943
 10
-8.0798593603
 20
30.5913345953
 10
-8.0196784791
 20
30.59672011
 10
-7.9614950116
 20
30.6061930404
 10
-7.9061894359
 20
30.6196100347
 10
-7.8545986794
 20
30.6367680565
 10
-7.8075034542
 20
30.6574074569
  0
LWPOLYLINE
  5
93F
100
AcDbEntity
  8
RACCORDO
100
AcDbPolyline
 62
253
  6
CONTINUOUS
 90
31
 70
0
 10
-8.4802582663
 20
30.6670174134
 10
-8.9929332565
 20
30.925885674
 10
-9.5034092499
 20
31.1859839676
 10
-10.0116794133
 20
31.4473062714
 10
-10.51764417
 20
31.7097982387
 10
-11.0213903045
 20
31.9735017029
 10
-11.5231874006
 20
32.2385569172
 10
-12.0231469161
 20
32.5050245587
 10
-12.5211370111
 20
32.7728362691
 10
-13.0170602582
 20
33.0419400544
 10
-13.5108643808
 20
33.3123070313
 10
-14.0025849086
 20
33.5839561528
 10
-14.4922566939
 20
33.856906827
 10
-14.979989092
 20
34.1312214398
 10
-15.4656536488
 20
34.4068290812
 10
-15.9489320056
 20
34.6835471723
 10
-16.4295400735
 20
34.9612067601
 10
-16.9077547988
 20
35.2399614042
 10
-17.3840965696
 20
35.5201138931
 10
-17.8575213138
 20
35.8010446755
 10
-18.3290595848
 20
36.0833617254
 10
-18.8022877053
 20
36.3692403852
 10
-19.2763316065
 20
36.6582046392
 10
-19.7519499865
 20
36.9507744098
 10
-20.2350326749
 20
37.2506926757
 10
-20.7258739415
 20
37.5583085718
 10
-21.2238673365
 20
37.8734186204
 10
-21.7333892347
 20
38.1990221991
 10
-22.2557046664
 20
38.5362116487
 10
-22.7890459501
 20
38.8841304257
 10
-23.3331573402
 20
39.2428951836
  0
LWPOLYLINE
  5
940
100
AcDbEntity
  8
ASSI
100
AcDbPolyline
 62
253
  6
CONTINUOUS
 90
31
 70
0
 10
-8.4802582663
 20
30.6670174134
 10
-8.9929332565
 20
30.925885674
 10
-9.5034092499
 20
31.1859839676
 10
-10.0116794133
 20
31.4473062714
 10
-10.51764417
 20
31.7097982387
 10
-11.0213903045
 20
31.9735017029
 10
-11.5231874006
 20
32.2385569172
 10
-12.0231469161
 20
32.5050245587
 10
-12.5211370111
 20
32.7728362691
 10
-13.0170602582
 20
33.0419400544
 10
-13.5108643808
 20
33.3123070313
 10
-14.0025849086
 20
33.5839561528
 10
-14.4922566939
 20
33.856906827
 10
-14.979989092
 20
34.1312214398
 10
-15.4656536488
 20
34.4068290812
 10
-15.9489320056
 20
34.6835471723
 10
-16.4295400735
 20
34.9612067601
 10
-16.9077547988
 20
35.2399614042
 10
-17.3840965696
 20
35.5201138931
 10
-17.8575213138
 20
35.8010446755
 10
-18.3290595848
 20
36.0833617254
 10
-18.8022877053
 20
36.3692403852
 10
-19.2763316065
 20
36.6582046392
 10
-19.7519499865
 20
36.9507744098
 10
-20.2350326749
 20
37.2506926757
 10
-20.7258739415
 20
37.5583085718
 10
-21.2238673365
 20
37.8734186204
 10
-21.7333892347
 20
38.1990221991
 10
-22.2557046664
 20
38.5362116487
 10
-22.7890459501
 20
38.8841304257
 10
-23.3331573402
 20
39.2428951836
  0
LINE
  5
941
100
AcDbEntity
  8
RACCORDO
100
AcDbLine
 62
7
  6
CONTINUOUS
 10
-11.4410610749
 20
36.6837014445
 11
-10.9902154932
 21
36.7708839038
  0
LINE
  5
942
100
AcDbEntity
  8
ASSI
100
AcDbLine
 62
7
  6
CONTINUOUS
 10
-11.4410610749
 20
36.6837014445
 11
-10.9902154932
 21
36.7708839038
  0
LWPOLYLINE
  5
943
100
AcDbEntity
  8
RACCORDO
100
AcDbPolyline
 62
253
  6
CONTINUOUS
 90
9
 70
0
 10
-22.5171145142
 20
40.6374831645
 10
-22.5548896302
 20
40.6560099453
 10
-22.5920491252
 20
40.6699919495
 10
-22.6281865716
 20
40.6792762755
 10
-22.6629067408
 20
40.6837614044
 10
-22.6958298754
 20
40.6833983029
 10
-22.7265958517
 20
40.6781909814
 10
-22.7548681878
 20
40.6681964454
 10
-22.7769183562
 20
40.655876468
  0
LWPOLYLINE
  5
944
100
AcDbEntity
  8
ASSI
100
AcDbPolyline
 62
253
  6
CONTINUOUS
 90
9
 70
0
 10
-22.5171145142
 20
40.6374831645
 10
-22.5548896302
 20
40.6560099453
 10
-22.5920491252
 20
40.6699919495
 10
-22.6281865716
 20
40.6792762755
 10
-22.6629067408
 20
40.6837614044
 10
-22.6958298754
 20
40.6833983029
 10
-22.7265958517
 20
40.6781909814
 10
-22.7548681878
 20
40.6681964454
 10
-22.7769183562
 20
40.655876468
  0
LWPOLYLINE
  5
945
100
AcDbEntity
  8
RACCORDO
100
AcDbPolyline
 62
253
  6
CONTINUOUS
 90
31
 70
0
 10
-7.687262782
 20
32.0749126674
 10
-8.1993603818
 20
32.3320530338
 10
-8.7091642103
 20
32.5904601646
 10
-9.2166742675
 20
32.8501340598
 10
-9.7217696818
 20
33.1110125478
 10
-10.2245713247
 20
33.3731578002
 10
-10.7254418112
 20
33.636756332
 10
-11.2245558611
 20
33.9018983424
 10
-11.7217387545
 20
34.1684936322
 10
-12.2168289471
 20
34.4364581186
 10
-12.7097653004
 20
34.7057595441
 10
-13.2006089528
 20
34.9764301663
 10
-13.6893817754
 20
35.2484826743
 10
-14.1761944795
 20
35.5219817263
 10
-14.6609363537
 20
35.7968626641
 10
-15.1432971359
 20
36.0729442028
 10
-15.6230121647
 20
36.3500721602
 10
-16.1003461015
 20
36.6284007184
 10
-16.5757826677
 20
36.9082111388
 10
-17.0483101368
 20
37.1888596344
 10
-17.5189402353
 20
37.4709899922
 10
-17.9911918641
 20
37.756814835
 10
-18.4643068957
 20
38.0457586581
 10
-18.9390434577
 20
38.3383969663
 10
-19.421194833
 20
38.6386688969
 10
-19.911369385
 20
38.9468134824
 10
-20.4089587505
 20
39.2625916904
 10
-20.917931123
 20
39.5892255611
 10
-21.4396092339
 20
39.9277891079
 10
-21.9726703519
 20
40.2772083173
 10
-22.517114477
 20
40.6374831895
  0
LWPOLYLINE
  5
946
100
AcDbEntity
  8
ASSI
100
AcDbPolyline
 62
253
  6
CONTINUOUS
 90
31
 70
0
 10
-7.687262782
 20
32.0749126674
 10
-8.1993603818
 20
32.3320530338
 10
-8.7091642103
 20
32.5904601646
 10
-9.2166742675
 20
32.8501340598
 10
-9.7217696818
 20
33.1110125478
 10
-10.2245713247
 20
33.3731578002
 10
-10.7254418112
 20
33.636756332
 10
-11.2245558611
 20
33.9018983424
 10
-11.7217387545
 20
34.1684936322
 10
-12.2168289471
 20
34.4364581186
 10
-12.7097653004
 20
34.7057595441
 10
-13.2006089528
 20
34.9764301663
 10
-13.6893817754
 20
35.2484826743
 10
-14.1761944795
 20
35.5219817263
 10
-14.6609363537
 20
35.7968626641
 10
-15.1432971359
 20
36.0729442028
 10
-15.6230121647
 20
36.3500721602
 10
-16.1003461015
 20
36.6284007184
 10
-16.5757826677
 20
36.9082111388
 10
-17.0483101368
 20
37.1888596344
 10
-17.5189402353
 20
37.4709899922
 10
-17.9911918641
 20
37.756814835
 10
-18.4643068957
 20
38.0457586581
 10
-18.9390434577
 20
38.3383969663
 10
-19.421194833
 20
38.6386688969
 10
-19.911369385
 20
38.9468134824
 10
-20.4089587505
 20
39.2625916904
 10
-20.917931123
 20
39.5892255611
 10
-21.4396092339
 20
39.9277891079
 10
-21.9726703519
 20
40.2772083173
 10
-22.517114477
 20
40.6374831895
  0
LWPOLYLINE
  5
947
100
AcDbEntity
  8
RACCORDO
100
AcDbPolyline
 62
253
  6
CONTINUOUS
 90
16
 70
0
 10
-7.6872627821
 20
32.0749126674
 10
-7.6512138504
 20
32.0508144796
 10
-7.6153568154
 20
32.0226379062
 10
-7.5800838498
 20
31.990691118
 10
-7.5457807387
 20
31.9553235206
 10
-7.5128226591
 20
31.9169219342
 10
-7.4815700771
 20
31.875906362
 10
-7.4523648058
 20
31.8327253964
 10
-7.4255262671
 20
31.787851313
 10
-7.4013479973
 20
31.7417749052
 10
-7.3800944371
 20
31.6950001163
 10
-7.3619980394
 20
31.6480385281
 10
-7.3472567267
 20
31.6014037651
 10
-7.3360317265
 20
31.5556058776
 10
-7.328445808
 20
31.5111457628
 10
-7.3245819394
 20
31.4685096863
  0
LWPOLYLINE
  5
948
100
AcDbEntity
  8
ASSI
100
AcDbPolyline
 62
253
  6
CONTINUOUS
 90
16
 70
0
 10
-7.6872627821
 20
32.0749126674
 10
-7.6512138504
 20
32.0508144796
 10
-7.6153568154
 20
32.0226379062
 10
-7.5800838498
 20
31.990691118
 10
-7.5457807387
 20
31.9553235206
 10
-7.5128226591
 20
31.9169219342
 10
-7.4815700771
 20
31.875906362
 10
-7.4523648058
 20
31.8327253964
 10
-7.4255262671
 20
31.787851313
 10
-7.4013479973
 20
31.7417749052
 10
-7.3800944371
 20
31.6950001163
 10
-7.3619980394
 20
31.6480385281
 10
-7.3472567267
 20
31.6014037651
 10
-7.3360317265
 20
31.5556058776
 10
-7.328445808
 20
31.5111457628
 10
-7.3245819394
 20
31.4685096863
  0
LINE
  5
949
100
AcDbEntity
  8
RACCORDO
100
AcDbLine
 62
7
  6
CONTINUOUS
 10
-14.6679836515
 20
38.4178476331
 11
-11.7309521104
 21
36.7220424309
  0
LINE
  5
94A
100
AcDbEntity
  8
ASSI
100
AcDbLine
 62
7
  6
CONTINUOUS
 10
-14.6679836515
 20
38.4178476331
 11
-11.7309521104
 21
36.7220424309
  0
LINE
  5
94B
100
AcDbEntity
  8
RACCORDO
100
AcDbLine
 62
7
  6
CONTINUOUS
 10
-20.2823705227
 20
42.1360577597
 11
-14.6244890346
 21
38.8692678985
  0
LINE
  5
94C
100
AcDbEntity
  8
ASSI
100
AcDbLine
 62
7
  6
CONTINUOUS
 10
-20.2823705227
 20
42.1360577597
 11
-14.6244890346
 21
38.8692678985
  0
LINE
  5
94D
100
AcDbEntity
  8
RACCORDO
100
AcDbLine
 62
7
  6
CONTINUOUS
 10
-10.9902154932
 20
36.7708839038
 11
-5.3323340051
 21
33.5040940425
  0
LINE
  5
94E
100
AcDbEntity
  8
ASSI
100
AcDbLine
 62
7
  6
CONTINUOUS
 10
-10.9902154932
 20
36.7708839038
 11
-5.3323340051
 21
33.5040940425
  0
LWPOLYLINE
  5
94F
100
AcDbEntity
  8
RACCORDO
100
AcDbPolyline
 62
253
  6
CONTINUOUS
 90
9
 70
0
 10
-7.4491315668
 20
-3.9208552038
 10
-7.4255239332
 20
-3.9069313804
 10
-7.4013459711
 20
-3.8867082426
 10
-7.3800928101
 20
-3.8619459555
 10
-7.361996853
 20
-3.8329153893
 10
-7.3472559712
 20
-3.7999340833
 10
-7.3360313462
 20
-3.7633627831
 10
-7.3284457033
 20
-3.723601499
 10
-7.3245819659
 20
-3.6810851185
  0
LWPOLYLINE
  5
950
100
AcDbEntity
  8
ASSI
100
AcDbPolyline
 62
253
  6
CONTINUOUS
 90
9
 70
0
 10
-7.4491315668
 20
-3.9208552038
 10
-7.4255239332
 20
-3.9069313804
 10
-7.4013459711
 20
-3.8867082426
 10
-7.3800928101
 20
-3.8619459555
 10
-7.361996853
 20
-3.8329153893
 10
-7.3472559712
 20
-3.7999340833
 10
-7.3360313462
 20
-3.7633627831
 10
-7.3284457033
 20
-3.723601499
 10
-7.3245819659
 20
-3.6810851185
  0
LINE
  5
951
100
AcDbEntity
  8
RACCORDO
100
AcDbLine
 62
253
  6
CONTINUOUS
 10
-4.9348811041
 20
-2.512638329
 11
-7.3245819659
 21
-3.6810851185
  0
LINE
  5
952
100
AcDbEntity
  8
ASSI
100
AcDbLine
 62
253
  6
CONTINUOUS
 10
-4.9348811041
 20
-2.512638329
 11
-7.3245819659
 21
-3.6810851185
  0
LWPOLYLINE
  5
953
100
AcDbEntity
  8
RACCORDO
100
AcDbPolyline
 62
253
  6
CONTINUOUS
 90
19
 70
0
 10
-7.3245819659
 20
-3.6810851185
 10
-7.3664668075
 20
-3.699588771
 10
-7.4074214451
 20
-3.7139059991
 10
-7.4474458786
 20
-3.7240368029
 10
-7.4868212856
 20
-3.7300049327
 10
-7.5252664885
 20
-3.7317866382
 10
-7.5619379549
 20
-3.7293106683
 10
-7.5967768692
 20
-3.7224776908
 10
-7.629842047
 20
-3.711387038
 10
-7.6604664028
 20
-3.6962654553
 10
-7.6885974421
 20
-3.6770299956
 10
-7.7142876594
 20
-3.6537636059
 10
-7.7370274533
 20
-3.6269418732
 10
-7.7567574997
 20
-3.5964682381
 10
-7.7735371227
 20
-3.5624392599
 10
-7.7870346938
 20
-3.5256202037
 10
-7.7971396701
 20
-3.486266158
 10
-7.8039625946
 20
-3.4441220343
 10
-7.8075034671
 20
-3.3991878327
  0
LWPOLYLINE
  5
954
100
AcDbEntity
  8
ASSI
100
AcDbPolyline
 62
253
  6
CONTINUOUS
 90
19
 70
0
 10
-7.3245819659
 20
-3.6810851185
 10
-7.3664668075
 20
-3.699588771
 10
-7.4074214451
 20
-3.7139059991
 10
-7.4474458786
 20
-3.7240368029
 10
-7.4868212856
 20
-3.7300049327
 10
-7.5252664885
 20
-3.7317866382
 10
-7.5619379549
 20
-3.7293106683
 10
-7.5967768692
 20
-3.7224776908
 10
-7.629842047
 20
-3.711387038
 10
-7.6604664028
 20
-3.6962654553
 10
-7.6885974421
 20
-3.6770299956
 10
-7.7142876594
 20
-3.6537636059
 10
-7.7370274533
 20
-3.6269418732
 10
-7.7567574997
 20
-3.5964682381
 10
-7.7735371227
 20
-3.5624392599
 10
-7.7870346938
 20
-3.5256202037
 10
-7.7971396701
 20
-3.486266158
 10
-7.8039625946
 20
-3.4441220343
 10
-7.8075034671
 20
-3.3991878327
  0
LINE
  5
955
100
AcDbEntity
  8
RACCORDO
100
AcDbLine
 62
7
  6
CONTINUOUS
 10
-5.0809484918
 20
-2.7629295591
 11
-7.4491316686
 21
-3.9208552535
  0
LINE
  5
956
100
AcDbEntity
  8
ASSI
100
AcDbLine
 62
7
  6
CONTINUOUS
 10
-5.0809484918
 20
-2.7629295591
 11
-7.4491316686
 21
-3.9208552535
  0
ELLIPSE
  5
957
100
AcDbEntity
  8
RACCORDO
100
AcDbEllipse
 62
7
  6
CONTINUOUS
 10
-4.4517854539
 20
15.3510222602
 30
0.0
 11
-0.2001163506
 21
0.3463781804
 31
0.0
 40
0.577463496
 41
-2.3564333972
 42
-0.7858655045
  0
ELLIPSE
  5
958
100
AcDbEntity
  8
RACCORDO
100
AcDbEllipse
 62
7
  6
CONTINUOUS
 10
-5.288494967
 20
-2.3078413171
 30
0.0
 11
-0.1986325935
 21
0.4591965712
 31
0.0
 40
0.6443702346
 41
-3.1119437239
 42
-2.2866936238
  0
ELLIPSE
  5
959
100
AcDbEntity
  8
ASSI
100
AcDbEllipse
 62
7
  6
CONTINUOUS
 10
-4.4517854539
 20
15.3510222602
 30
0.0
 11
-0.2001163506
 21
0.3463781804
 31
0.0
 40
0.577463496
 41
-2.3564333972
 42
-0.7858655045
  0
ELLIPSE
  5
95A
100
AcDbEntity
  8
ASSI
100
AcDbEllipse
 62
7
  6
CONTINUOUS
 10
-5.288494967
 20
-2.3078413171
 30
0.0
 11
-0.1986325935
 21
0.4591965712
 31
0.0
 40
0.6443702346
 41
-3.1119437239
 42
-2.2866936238
  0
ELLIPSE
  5
95B
100
AcDbEntity
  8
RACCORDO
100
AcDbEllipse
 62
7
  6
CONTINUOUS
 10
-4.4517854539
 20
16.2213174275
 30
0.0
 11
-0.2001619724
 21
0.3464573699
 31
0.0
 40
0.5771997317
 41
-3.1591815424
 42
-2.3566615088
  0
ELLIPSE
  5
95C
100
AcDbEntity
  8
RACCORDO
100
AcDbEllipse
 62
7
  6
CONTINUOUS
 10
-20.2398244919
 20
41.7551882172
 30
0.0
 11
-0.2915193446
 21
0.4064499665
 31
0.0
 40
0.5036892638
 41
-0.8388284279
 42
-0.0155848751
  0
ELLIPSE
  5
95D
100
AcDbEntity
  8
RACCORDO
100
AcDbEllipse
 62
7
  6
CONTINUOUS
 10
-5.288494967
 20
33.1224779337
 30
0.0
 11
-0.2919450902
 21
0.4072646212
 31
0.0
 40
0.5018612249
 41
-2.4061064663
 42
-0.8366801356
  0
ELLIPSE
  5
95E
100
AcDbEntity
  8
RACCORDO
100
AcDbEllipse
 62
7
  6
CONTINUOUS
 10
-11.5185935007
 20
36.8575061597
 30
0.0
 11
0.3000279497
 21
0.0146872682
 31
0.0
 40
0.6067258704
 41
-2.3864205708
 42
-1.3392230196
  0
ELLIPSE
  5
95F
100
AcDbEntity
  8
RACCORDO
100
AcDbEllipse
 62
7
  6
CONTINUOUS
 10
-14.4556250418
 20
38.5533113619
 30
0.0
 11
0.3000279497
 21
0.0146872682
 31
0.0
 40
0.6067258704
 41
2.8495671852
 42
3.8967647364
  0
ELLIPSE
  5
960
100
AcDbEntity
  8
ASSI
100
AcDbEllipse
 62
7
  6
CONTINUOUS
 10
-4.4517854539
 20
16.2213174275
 30
0.0
 11
-0.2001619724
 21
0.3464573699
 31
0.0
 40
0.5771997317
 41
-3.1591815424
 42
-2.3566615088
  0
ELLIPSE
  5
961
100
AcDbEntity
  8
ASSI
100
AcDbEllipse
 62
7
  6
CONTINUOUS
 10
-5.288494967
 20
33.1224779337
 30
0.0
 11
-0.2919450902
 21
0.4072646212
 31
0.0
 40
0.5018612249
 41
-2.4061064663
 42
-0.8366801356
  0
ELLIPSE
  5
962
100
AcDbEntity
  8
ASSI
100
AcDbEllipse
 62
7
  6
CONTINUOUS
 10
-11.5185935007
 20
36.8575061597
 30
0.0
 11
0.3000279497
 21
0.0146872682
 31
0.0
 40
0.6067258704
 41
-2.3864205708
 42
-1.3392230196
  0
ELLIPSE
  5
963
100
AcDbEntity
  8
ASSI
100
AcDbEllipse
 62
7
  6
CONTINUOUS
 10
-20.2398244919
 20
41.7551882172
 30
0.0
 11
-0.2915193446
 21
0.4064499665
 31
0.0
 40
0.5036892638
 41
-0.8388284279
 42
-0.0155848751
  0
ELLIPSE
  5
964
100
AcDbEntity
  8
ASSI
100
AcDbEllipse
 62
7
  6
CONTINUOUS
 10
-14.4556250418
 20
38.5533113619
 30
0.0
 11
0.3000279497
 21
0.0146872682
 31
0.0
 40
0.6067258704
 41
2.8495671852
 42
3.8967647364
  0
ENDSEC
  0
SECTION
  2
OBJECTS
  0
DICTIONARY
  5
C
100
AcDbDictionary
280
0
281
1
  3
ACAD_GROUP
350
D
  3
ACAD_MLINESTYLE
350
17
  3
ACAD_LAYOUT
350
1A
  3
ACAD_PLOTSETTINGS
350
19
  3
ACAD_PLOTSTYLENAME
350
E
  0
DICTIONARY
  5
D
102
{ACAD_REACTORS
330
C
102
}
100
AcDbDictionary
280
0
281
1
  0
ACDBDICTIONARYWDFLT
  5
E
102
{ACAD_REACTORS
330
C
102
}
100
AcDbDictionary
281
1
  3
Normal
350
F
100
AcDbDictionaryWithDefault
340
F
  0
DICTIONARY
  5
17
102
{ACAD_REACTORS
330
C
102
}
100
AcDbDictionary
280
0
281
1
  3
Standard
350
18
  0
DICTIONARY
  5
19
102
{ACAD_REACTORS
330
C
102
}
100
AcDbDictionary
281
1
  0
DICTIONARY
  5
1A
102
{ACAD_REACTORS
330
C
102
}
100
AcDbDictionary
281
1
  3
Model
350
965
  3
Layout1
350
966
  0
ACDBPLACEHOLDER
  5
F
102
{ACAD_REACTORS
330
E
102
}
  0
MLINESTYLE
  5
18
102
{ACAD_REACTORS
330
17
102
}
100
AcDbMlineStyle
  2
STANDARD
 70
0
  3

 62
256
 51
90.0
 52
90.0
 71
2
 49
0.5
 62
256
  6
BYLAYER
 49
-0.5
 62
256
  6
BYLAYER
  0
LAYOUT
  5
965
102
{ACAD_REACTORS
330
1A
102
}
100
AcDbPlotSettings
  1

  2
none_device
  4
ISO_A4_(297.00_x_210.00_MM)
  6

 40
0.0
 41
0.0
 42
0.0
 43
0.0
 44
297.0
 45
210.0
 46
0.0
 47
0.0
 48
0.0
 49
0.0
140
0.0
141
0.0
142
1.0
143
1.0
 70
1024
 72
1
 73
0
 74
0
  7

 75
0
147
1.0
148
0.0
149
0.0
100
AcDbLayout
  1
Model
 70
0
 71
0
 10
0.0
 20
0.0
 11
297.0
 21
210.0
 12
0.0
 22
0.0
 32
0.0
 14
0.0
 24
0.0
 34
0.0
 15
0.0
 25
0.0
 35
0.0
146
0.0
 13
0.0
 23
0.0
 33
0.0
 16
1.0
 26
0.0
 36
0.0
 17
0.0
 27
1.0
 37
0.0
 76
0
330
215
345
0
346
0
  0
LAYOUT
  5
966
102
{ACAD_REACTORS
330
1A
102
}
100
AcDbPlotSettings
  1

  2
none_device
  4
ISO_A4_(297.00_x_210.00_MM)
  6

 40
0.0
 41
0.0
 42
0.0
 43
0.0
 44
297.0
 45
210.0
 46
0.0
 47
0.0
 48
0.0
 49
0.0
140
0.0
141
0.0
142
1.0
143
1.0
 70
0
 72
1
 73
0
 74
0
  7

 75
0
147
1.0
148
0.0
149
0.0
100
AcDbLayout
  1
Layout1
 70
0
 71
1
 10
0.0
 20
0.0
 11
297.0
 21
210.0
 12
0.0
 22
0.0
 32
0.0
 14
0.0
 24
0.0
 34
0.0
 15
0.0
 25
0.0
 35
0.0
146
0.0
 13
0.0
 23
0.0
 33
0.0
 16
1.0
 26
0.0
 36
0.0
 17
0.0
 27
1.0
 37
0.0
 76
0
330
216
345
0
346
0
  0
ENDSEC
  0
EOF
