  0
SECTION
  2
HEADER
  9
$ACADVER
  1
AC1021
  9
$DWGCODEPAGE
  3
ANSI_1252
  9
$EXTMAX
 10
297.0
 20
210.0
 30
0.0
  9
$EXTMIN
 10
0.0
 20
0.0
 30
0.0
  9
$LIMMIN
 10
0.0
 20
0.0
  9
$LIMMAX
 10
297.0
 20
210.0
  9
$VIEWCTR
 10
148.5
 20
105.0
  9
$VIEWSIZE
 40
210.0
  9
$CLAYER
  8
0
  9
$LTSCALE
 40
16.335
  9
$CELTYPE
  6
BYLAYER
  9
$DIMSCALE
 40
1.0
  9
$DIMASZ
 40
3.0
  9
$DIMEXO
 40
1.85625
  9
$DIMDLI
 40
11.286
  9
$DIMEXE
 40
5.346
  9
$DIMCEN
 40
2.673
  9
$DIMLFAC
 40
1.0
  9
$DIMBLK
  1
_FILLED
  9
$DIMTXT
 40
3.0
  9
$DIMTOL
 70
1
  9
$DIMLIM
 70
0
  9
$DIMTFAC
 40
1.0
  9
$DIMTP
 40
0.01
  9
$DIMTM
 40
0.01
  9
$PDMODE
 70
3
  9
$PDSIZE
 40
3.0
  9
$HANDSEED
  5
74C
  9
$TILEMODE
 70
1
  9
$MEASUREMENT
 70
1
  9
$INSUNITS
 70
4
  0
ENDSEC
  0
SECTION
  2
CLASSES
  0
CLASS
  1
ACDBDICTIONARYWDFLT
  2
AcDbDictionaryWithDefault
  3
AutoCAD 2000
 90
0
 91
1
280
0
281
0
  0
CLASS
  1
ACDBPLACEHOLDER
  2
AcDbPlaceHolder
  3
AutoCAD 2000
 90
0
 91
1
280
0
281
0
  0
CLASS
  1
LAYOUT
  2
AcDbLayout
  3
AutoCAD 2000
 90
0
 91
0
280
0
281
0
  0
ENDSEC
  0
SECTION
  2
TABLES
  0
TABLE
  2
VPORT
  5
8
100
AcDbSymbolTable
 70
2
  0
VPORT
  5
1F4
100
AcDbSymbolTableRecord
100
AcDbViewportTableRecord
  2
*ACTIVE
 70
0
 10
0.0
 20
0.0
 11
1.0
 21
1.0
 12
148.5
 22
105.0
 13
0.0
 23
0.0
 14
1.0
 24
1.0
 15
0.0
 25
0.0
 16
0.0
 26
0.0
 36
1.0
 17
0.0
 27
0.0
 37
0.0
 40
210.0
 41
1.4142857143
 42
50.0
 43
0.0
 44
0.0
 50
0.0
 51
0.0
 71
0
 72
100
 73
1
 74
1
 75
0
 76
0
 77
0
 78
0
  0
ENDTAB
  0
TABLE
  2
LTYPE
  5
5
100
AcDbSymbolTable
 70
6
  0
LTYPE
  5
14
100
AcDbSymbolTableRecord
100
AcDbLinetypeTableRecord
  2
BYBLOCK
 70
0
  3

 72
65
 73
0
 40
0.0
  0
LTYPE
  5
15
100
AcDbSymbolTableRecord
100
AcDbLinetypeTableRecord
  2
BYLAYER
 70
0
  3

 72
65
 73
0
 40
0.0
  0
LTYPE
  5
16
100
AcDbSymbolTableRecord
100
AcDbLinetypeTableRecord
  2
CONTINUOUS
 70
64
  3
Solid line
 72
65
 73
0
 40
0.0
  0
LTYPE
  5
1F5
100
AcDbSymbolTableRecord
100
AcDbLinetypeTableRecord
  2
CENTER
 70
64
  3
____ _ ____ _ ____ _ ____ _ ____ _ ____ _ ____
 72
65
 73
4
 40
0.6
 49
0.375
 74
0
 49
-0.075
 74
0
 49
0.075
 74
0
 49
-0.075
 74
0
  0
LTYPE
  5
1F6
100
AcDbSymbolTableRecord
100
AcDbLinetypeTableRecord
  2
HIDDEN
 70
64
  3
- - - - - - - - - - - - - - - - - - - -
 72
65
 73
2
 40
0.2
 49
0.1
 74
0
 49
-0.1
 74
0
  0
LTYPE
  5
1F7
100
AcDbSymbolTableRecord
100
AcDbLinetypeTableRecord
  2
PHANTOM
 70
64
  3
_____ _ _ _____ _ _ _____ _ _ _____
 72
65
 73
6
 40
0.8
 49
0.45
 74
0
 49
-0.05
 74
0
 49
0.1
 74
0
 49
-0.05
 74
0
 49
0.1
 74
0
 49
-0.05
 74
0
  0
LTYPE
  5
1F8
100
AcDbSymbolTableRecord
100
AcDbLinetypeTableRecord
  2
DOT
 70
64
  3
. . . . . . . . . . . . . . . . . . . .
 72
65
 73
2
 40
0.2
 49
0.1
 74
0
 49
-0.1
 74
0
  0
LTYPE
  5
1F9
100
AcDbSymbolTableRecord
100
AcDbLinetypeTableRecord
  2
DASHED
 70
64
  3
- - - - - - - - - - - - - - - - - - - -
 72
65
 73
2
 40
0.2
 49
0.1
 74
0
 49
-0.1
 74
0
  0
ENDTAB
  0
TABLE
  2
LAYER
  5
2
100
AcDbSymbolTable
 70
36
  0
LAYER
  5
10
100
AcDbSymbolTableRecord
100
AcDbLayerTableRecord
  2
0
 70
0
 62
7
  6
CONTINUOUS
370
-3
390
F
  0
LAYER
  5
1FA
100
AcDbSymbolTableRecord
100
AcDbLayerTableRecord
  2
DEFAULT_1
 70
0
 62
7
  6
CENTER
370
-3
390
F
  0
LAYER
  5
1FB
100
AcDbSymbolTableRecord
100
AcDbLayerTableRecord
  2
DEFAULT_2
 70
0
 62
7
  6
HIDDEN
370
-3
390
F
  0
LAYER
  5
1FC
100
AcDbSymbolTableRecord
100
AcDbLayerTableRecord
  2
DEFAULT_3
 70
0
 62
7
  6
PHANTOM
370
-3
390
F
  0
LAYER
  5
1FD
100
AcDbSymbolTableRecord
100
AcDbLayerTableRecord
  2
ASSI
 70
0
 62
7
  6
CONTINUOUS
370
-3
390
F
  0
LAYER
  5
1FE
100
AcDbSymbolTableRecord
100
AcDbLayerTableRecord
  2
COORDINATE
 70
0
 62
7
  6
CONTINUOUS
370
-3
390
F
  0
LAYER
  5
1FF
100
AcDbSymbolTableRecord
100
AcDbLayerTableRecord
  2
COPY_PUBLISH
 70
0
 62
7
  6
CONTINUOUS
370
-3
390
F
  0
LAYER
  5
200
100
AcDbSymbolTableRecord
100
AcDbLayerTableRecord
  2
COSMETICI
 70
0
 62
7
  6
CONTINUOUS
370
-3
390
F
  0
LAYER
  5
201
100
AcDbSymbolTableRecord
100
AcDbLayerTableRecord
  2
CURVE
 70
0
 62
7
  6
CONTINUOUS
370
-3
390
F
  0
LAYER
  5
202
100
AcDbSymbolTableRecord
100
AcDbLayerTableRecord
  2
DRAFT
 70
0
 62
7
  6
CONTINUOUS
370
-3
390
F
  0
LAYER
  5
203
100
AcDbSymbolTableRecord
100
AcDbLayerTableRecord
  2
IMPORT_IGES
 70
0
 62
7
  6
CONTINUOUS
370
-3
390
F
  0
LAYER
  5
204
100
AcDbSymbolTableRecord
100
AcDbLayerTableRecord
  2
INTFCLR_1
 70
0
 62
7
  6
CONTINUOUS
370
-3
390
F
  0
LAYER
  5
205
100
AcDbSymbolTableRecord
100
AcDbLayerTableRecord
  2
INTF_1
 70
0
 62
7
  6
CONTINUOUS
370
-3
390
F
  0
LAYER
  5
206
100
AcDbSymbolTableRecord
100
AcDbLayerTableRecord
  2
INTF_10
 70
0
 62
7
  6
CONTINUOUS
370
-3
390
F
  0
LAYER
  5
207
100
AcDbSymbolTableRecord
100
AcDbLayerTableRecord
  2
INTF_2
 70
0
 62
7
  6
CONTINUOUS
370
-3
390
F
  0
LAYER
  5
208
100
AcDbSymbolTableRecord
100
AcDbLayerTableRecord
  2
INTF_5
 70
0
 62
7
  6
CONTINUOUS
370
-3
390
F
  0
LAYER
  5
209
100
AcDbSymbolTableRecord
100
AcDbLayerTableRecord
  2
INTF_9
 70
0
 62
7
  6
CONTINUOUS
370
-3
390
F
  0
LAYER
  5
20A
100
AcDbSymbolTableRecord
100
AcDbLayerTableRecord
  2
NOTE
 70
0
 62
7
  6
CONTINUOUS
370
-3
390
F
  0
LAYER
  5
20B
100
AcDbSymbolTableRecord
100
AcDbLayerTableRecord
  2
PIANI
 70
0
 62
7
  6
CONTINUOUS
370
-3
390
F
  0
LAYER
  5
20C
100
AcDbSymbolTableRecord
100
AcDbLayerTableRecord
  2
PUNTI
 70
0
 62
7
  6
CONTINUOUS
370
-3
390
F
  0
LAYER
  5
20D
100
AcDbSymbolTableRecord
100
AcDbLayerTableRecord
  2
RACCORDO
 70
0
 62
7
  6
CONTINUOUS
370
-3
390
F
  0
LAYER
  5
20E
100
AcDbSymbolTableRecord
100
AcDbLayerTableRecord
  2
SIMBOLI
 70
0
 62
7
  6
CONTINUOUS
370
-3
390
F
  0
LAYER
  5
20F
100
AcDbSymbolTableRecord
100
AcDbLayerTableRecord
  2
SMUSSO
 70
0
 62
7
  6
CONTINUOUS
370
-3
390
F
  0
LAYER
  5
210
100
AcDbSymbolTableRecord
100
AcDbLayerTableRecord
  2
SNAPLINE
 70
0
 62
7
  6
CONTINUOUS
370
-3
390
F
  0
LAYER
  5
211
100
AcDbSymbolTableRecord
100
AcDbLayerTableRecord
  2
SUPERFICI
 70
0
 62
7
  6
CONTINUOUS
370
-3
390
F
  0
LAYER
  5
212
100
AcDbSymbolTableRecord
100
AcDbLayerTableRecord
  2
TRASH
 70
0
 62
7
  6
CONTINUOUS
370
-3
390
F
  0
LAYER
  5
213
100
AcDbSymbolTableRecord
100
AcDbLayerTableRecord
  2
XSEC_DATUMS
 70
0
 62
7
  6
CONTINUOUS
370
-3
390
F
  0
ENDTAB
  0
TABLE
  2
STYLE
  5
3
100
AcDbSymbolTable
 70
1
  0
STYLE
  5
11
100
AcDbSymbolTableRecord
100
AcDbTextStyleTableRecord
  2
STANDARD
 70
0
 40
0.0
 41
0.8
 50
0.0
 71
0
 42
0.2
  3
txt
  4

  0
STYLE
  5
214
100
AcDbSymbolTableRecord
100
AcDbTextStyleTableRecord
  2
TEXTSTYLE_1
 70
0
 40
0.0
 41
0.8
 50
0.0
 71
0
 42
0.2
  3
gdt
  4

  0
ENDTAB
  0
TABLE
  2
VIEW
  5
6
100
AcDbSymbolTable
 70
0
  0
ENDTAB
  0
TABLE
  2
UCS
  5
7
100
AcDbSymbolTable
 70
0
  0
ENDTAB
  0
TABLE
  2
APPID
  5
9
100
AcDbSymbolTable
 70
1
  0
APPID
  5
215
100
AcDbSymbolTableRecord
100
AcDbRegAppTableRecord
  2
ACAD
 70
0
  0
ENDTAB
  0
TABLE
  2
BLOCK_RECORD
  5
1
100
AcDbSymbolTable
 70
0
  0
BLOCK_RECORD
  5
216
100
AcDbSymbolTableRecord
100
AcDbBlockTableRecord
  2
*Model_Space
  0
BLOCK_RECORD
  5
217
100
AcDbSymbolTableRecord
100
AcDbBlockTableRecord
  2
*Paper_Space
  0
ENDTAB
  0
TABLE
  2
DIMSTYLE
  5
A
100
AcDbSymbolTable
 70
1
100
AcDbDimStyleTable
 71
0
  0
DIMSTYLE
105
218
100
AcDbSymbolTableRecord
100
AcDbDimStyleTableRecord
  2
STANDARD
 70
0
  3

  4

 40
1.0
 41
3.0
 42
0.0625
 43
0.38
 44
0.18
 45
0.0
 46
0.0
 47
0.01
 48
0.01
140
3.0
141
0.09
142
0.0
143
25.4
144
1.0
145
0.0
146
1.0
147
0.09
 71
1.0
 72
0.0
 73
0
 74
0
 75
0
 76
0
 77
1
 78
8
170
0
171
2
172
0
173
0
174
0
175
0
176
0
177
0
178
0
270
2
271
2
272
2
273
2
274
2
275
0
280
0
281
0
282
0
283
1
284
8
285
0
286
0
287
3
288
0
340
11
  0
ENDTAB
  0
ENDSEC
  0
SECTION
  2
BLOCKS
  0
BLOCK
  5
20
100
AcDbEntity
  8
0
100
AcDbBlockBegin
  2
*Model_Space
 70
0
 10
0.0
 20
0.0
 30
0.0
  3
*Model_Space
  1

  0
ENDBLK
  5
21
100
AcDbEntity
  8
0
100
AcDbBlockEnd
  0
BLOCK
  5
1C
100
AcDbEntity
  8
0
100
AcDbBlockBegin
  2
*Paper_Space
 70
0
 10
0.0
 20
0.0
 30
0.0
  3
*Paper_Space
  1

  0
ENDBLK
  5
1D
100
AcDbEntity
  8
0
100
AcDbBlockEnd
  0
ENDSEC
  0
SECTION
  2
ENTITIES
  0
LWPOLYLINE
  5
219
100
AcDbEntity
  8
RACCORDO
100
AcDbPolyline
 62
7
  6
CONTINUOUS
 90
18
 70
0
 10
125.5387147775
 20
134.3774969021
 10
125.4817821437
 20
134.3190412277
 10
125.4285688761
 20
134.2572153555
 10
125.3789277277
 20
134.1925387124
 10
125.3325405808
 20
134.1252152188
 10
125.2891683669
 20
134.0553338711
 10
125.248804694
 20
133.9832402433
 10
125.2114316536
 20
133.9091790231
 10
125.1770353803
 20
133.8332818946
 10
125.1456939098
 20
133.7558346976
 10
125.1175146647
 20
133.6770957433
 10
125.0925822869
 20
133.5972076219
 10
125.0710436289
 20
133.5163959814
 10
125.0531033443
 20
133.4349432136
 10
125.0389355942
 20
133.352899468
 10
125.0288044173
 20
133.2703148962
 10
125.023052345
 20
133.1874763538
 10
125.0223847457
 20
133.1683185025
  0
LWPOLYLINE
  5
21A
100
AcDbEntity
  8
ASSI
100
AcDbPolyline
 62
7
  6
CONTINUOUS
 90
18
 70
0
 10
125.5387147775
 20
134.3774969021
 10
125.4817821437
 20
134.3190412277
 10
125.4285688761
 20
134.2572153555
 10
125.3789277277
 20
134.1925387124
 10
125.3325405808
 20
134.1252152188
 10
125.2891683669
 20
134.0553338711
 10
125.248804694
 20
133.9832402433
 10
125.2114316536
 20
133.9091790231
 10
125.1770353803
 20
133.8332818946
 10
125.1456939098
 20
133.7558346976
 10
125.1175146647
 20
133.6770957433
 10
125.0925822869
 20
133.5972076219
 10
125.0710436289
 20
133.5163959814
 10
125.0531033443
 20
133.4349432136
 10
125.0389355942
 20
133.352899468
 10
125.0288044173
 20
133.2703148962
 10
125.023052345
 20
133.1874763538
 10
125.0223847457
 20
133.1683185025
  0
LINE
  5
21B
100
AcDbEntity
  8
RACCORDO
100
AcDbLine
 62
7
  6
CONTINUOUS
 10
127.3517640898
 20
136.0896948511
 11
125.5387147775
 21
134.3774969021
  0
LINE
  5
21C
100
AcDbEntity
  8
ASSI
100
AcDbLine
 62
7
  6
CONTINUOUS
 10
127.3517640898
 20
136.0896948511
 11
125.5387147775
 21
134.3774969021
  0
LINE
  5
21D
100
AcDbEntity
  8
RACCORDO
100
AcDbLine
 62
253
  6
CONTINUOUS
 10
127.6664942795
 20
136.1100913385
 11
125.8746333181
 21
134.417977325
  0
LINE
  5
21E
100
AcDbEntity
  8
ASSI
100
AcDbLine
 62
253
  6
CONTINUOUS
 10
127.6664942795
 20
136.1100913385
 11
125.8746333181
 21
134.417977325
  0
LINE
  5
21F
100
AcDbEntity
  8
RACCORDO
100
AcDbLine
 62
7
  6
CONTINUOUS
 10
125.5467978511
 20
134.3852038757
 11
125.546352194
 21
134.3847842386
  0
LINE
  5
220
100
AcDbEntity
  8
ASSI
100
AcDbLine
 62
7
  6
CONTINUOUS
 10
125.5467978511
 20
134.3852038757
 11
125.546352194
 21
134.3847842386
  0
LWPOLYLINE
  5
221
100
AcDbEntity
  8
RACCORDO
100
AcDbPolyline
 62
253
  6
CONTINUOUS
 90
22
 70
0
 10
125.8746332917
 20
134.4179773
 10
125.8254533858
 20
134.3727080354
 10
125.7766666468
 20
134.3229772293
 10
125.7285317641
 20
134.2690249538
 10
125.681321812
 20
134.2111064549
 10
125.6352684872
 20
134.1495079873
 10
125.5905612527
 20
134.0845442038
 10
125.5474331308
 20
134.0165261041
 10
125.506116273
 20
133.9457858837
 10
125.4667861163
 20
133.8726921528
 10
125.4296484584
 20
133.7976030295
 10
125.3949008336
 20
133.7208809162
 10
125.3626883437
 20
133.642916262
 10
125.3331776706
 20
133.5640895123
 10
125.3065270743
 20
133.4847840702
 10
125.2828473937
 20
133.4054015022
 10
125.2622610142
 20
133.3263365927
 10
125.2448770095
 20
133.247967876
 10
125.2307637778
 20
133.1706711341
 10
125.2199899085
 20
133.0948228219
 10
125.2126213621
 20
133.0207976433
 10
125.2086984486
 20
132.9489595723
  0
LWPOLYLINE
  5
222
100
AcDbEntity
  8
ASSI
100
AcDbPolyline
 62
253
  6
CONTINUOUS
 90
22
 70
0
 10
125.8746332917
 20
134.4179773
 10
125.8254533858
 20
134.3727080354
 10
125.7766666468
 20
134.3229772293
 10
125.7285317641
 20
134.2690249538
 10
125.681321812
 20
134.2111064549
 10
125.6352684872
 20
134.1495079873
 10
125.5905612527
 20
134.0845442038
 10
125.5474331308
 20
134.0165261041
 10
125.506116273
 20
133.9457858837
 10
125.4667861163
 20
133.8726921528
 10
125.4296484584
 20
133.7976030295
 10
125.3949008336
 20
133.7208809162
 10
125.3626883437
 20
133.642916262
 10
125.3331776706
 20
133.5640895123
 10
125.3065270743
 20
133.4847840702
 10
125.2828473937
 20
133.4054015022
 10
125.2622610142
 20
133.3263365927
 10
125.2448770095
 20
133.247967876
 10
125.2307637778
 20
133.1706711341
 10
125.2199899085
 20
133.0948228219
 10
125.2126213621
 20
133.0207976433
 10
125.2086984486
 20
132.9489595723
  0
LWPOLYLINE
  5
223
100
AcDbEntity
  8
ASSI
100
AcDbPolyline
 62
253
  6
CONTINUOUS
 90
12
 70
0
 10
125.2086984513
 20
98.7454889234
 10
125.2126213622
 20
98.679683855
 10
125.2199899071
 20
98.6171677632
 10
125.2307637759
 20
98.5582495713
 10
125.2448770079
 20
98.5032276565
 10
125.2622610133
 20
98.4523674804
 10
125.2828473934
 20
98.4059032131
 10
125.3065270748
 20
98.3640676972
 10
125.333177672
 20
98.3270753
 10
125.3626883459
 20
98.295101776
 10
125.3949008367
 20
98.2683130816
 10
125.429024928
 20
98.2472323742
  0
LWPOLYLINE
  5
224
100
AcDbEntity
  8
RACCORDO
100
AcDbPolyline
 62
253
  6
CONTINUOUS
 90
12
 70
0
 10
125.2086984513
 20
98.7454889234
 10
125.2126213622
 20
98.679683855
 10
125.2199899071
 20
98.6171677632
 10
125.2307637759
 20
98.5582495713
 10
125.2448770079
 20
98.5032276565
 10
125.2622610133
 20
98.4523674804
 10
125.2828473934
 20
98.4059032131
 10
125.3065270748
 20
98.3640676972
 10
125.333177672
 20
98.3270753
 10
125.3626883459
 20
98.295101776
 10
125.3949008367
 20
98.2683130816
 10
125.429024928
 20
98.2472323742
  0
LWPOLYLINE
  5
225
100
AcDbEntity
  8
ASSI
100
AcDbPolyline
 62
7
  6
CONTINUOUS
 90
14
 70
0
 10
125.0224206948
 20
98.9710518772
 10
125.0234341006
 20
98.9456821016
 10
125.0312961057
 20
98.8560583928
 10
125.0454189463
 20
98.7720213298
 10
125.0654918899
 20
98.6934480474
 10
125.0912952047
 20
98.6200361004
 10
125.1226540888
 20
98.5516768099
 10
125.1592427102
 20
98.4885847412
 10
125.2007772283
 20
98.4308380569
 10
125.2469789308
 20
98.378557209
 10
125.2973007429
 20
98.3321205948
 10
125.351240454
 20
98.2917161686
 10
125.4084540697
 20
98.2574012226
 10
125.4428139618
 20
98.2404160035
  0
LWPOLYLINE
  5
226
100
AcDbEntity
  8
RACCORDO
100
AcDbPolyline
 62
7
  6
CONTINUOUS
 90
14
 70
0
 10
125.0224206948
 20
98.9710518772
 10
125.0234341006
 20
98.9456821016
 10
125.0312961057
 20
98.8560583928
 10
125.0454189463
 20
98.7720213298
 10
125.0654918899
 20
98.6934480474
 10
125.0912952047
 20
98.6200361004
 10
125.1226540888
 20
98.5516768099
 10
125.1592427102
 20
98.4885847412
 10
125.2007772283
 20
98.4308380569
 10
125.2469789308
 20
98.378557209
 10
125.2973007429
 20
98.3321205948
 10
125.351240454
 20
98.2917161686
 10
125.4084540697
 20
98.2574012226
 10
125.4428139618
 20
98.2404160035
  0
LWPOLYLINE
  5
227
100
AcDbEntity
  8
ASSI
100
AcDbPolyline
 62
7
  6
CONTINUOUS
 90
10
 70
0
 10
124.7750219376
 20
115.3798236322
 10
124.7792036193
 20
113.588968293
 10
124.7892983946
 20
111.7367162178
 10
124.8052569903
 20
109.8894304526
 10
124.8270800109
 20
108.0471517808
 10
124.8547677248
 20
106.209918355
 10
124.8883203892
 20
104.3777673753
 10
124.927737869
 20
102.5507399544
 10
124.9730194197
 20
100.7288826734
 10
125.022408861
 20
98.9712344849
  0
LWPOLYLINE
  5
228
100
AcDbEntity
  8
RACCORDO
100
AcDbPolyline
 62
7
  6
CONTINUOUS
 90
10
 70
0
 10
124.7750219376
 20
115.3798236322
 10
124.7792036193
 20
113.588968293
 10
124.7892983946
 20
111.7367162178
 10
124.8052569903
 20
109.8894304526
 10
124.8270800109
 20
108.0471517808
 10
124.8547677248
 20
106.209918355
 10
124.8883203892
 20
104.3777673753
 10
124.927737869
 20
102.5507399544
 10
124.9730194197
 20
100.7288826734
 10
125.022408861
 20
98.9712344849
  0
LWPOLYLINE
  5
229
100
AcDbEntity
  8
RACCORDO
100
AcDbPolyline
 62
7
  6
CONTINUOUS
 90
10
 70
0
 10
125.0223878199
 20
133.1686507114
 10
124.9731460746
 20
131.3312183054
 10
124.9278523951
 20
129.4310816677
 10
124.8884215068
 20
127.5359084262
 10
124.8548543168
 20
125.6457454795
 10
124.827151103
 20
123.760633622
 10
124.8053118583
 20
121.880610635
 10
124.789336539
 20
120.0057147914
 10
124.7792246995
 20
118.1359859354
 10
124.7750219515
 20
116.3324075359
  0
LWPOLYLINE
  5
22A
100
AcDbEntity
  8
ASSI
100
AcDbPolyline
 62
7
  6
CONTINUOUS
 90
10
 70
0
 10
125.0223878199
 20
133.1686507114
 10
124.9731460746
 20
131.3312183054
 10
124.9278523951
 20
129.4310816677
 10
124.8884215068
 20
127.5359084262
 10
124.8548543168
 20
125.6457454795
 10
124.827151103
 20
123.760633622
 10
124.8053118583
 20
121.880610635
 10
124.789336539
 20
120.0057147914
 10
124.7792246995
 20
118.1359859354
 10
124.7750219515
 20
116.3324075359
  0
LWPOLYLINE
  5
22B
100
AcDbEntity
  8
RACCORDO
100
AcDbPolyline
 62
253
  6
CONTINUOUS
 90
10
 70
0
 10
125.2086983359
 20
132.9489595368
 10
125.1549591568
 20
130.9943842521
 10
125.1083050352
 20
129.0767394323
 10
125.0684267616
 20
127.1958295968
 10
125.0353678617
 20
125.3723838404
 10
125.0083528412
 20
123.5851802277
 10
124.986429862
 20
121.7715521266
 10
124.9697353107
 20
119.910995641
 10
124.9588511333
 20
118.0246636817
 10
124.9540795667
 20
116.1128419781
  0
LWPOLYLINE
  5
22C
100
AcDbEntity
  8
ASSI
100
AcDbPolyline
 62
253
  6
CONTINUOUS
 90
10
 70
0
 10
125.2086983359
 20
132.9489595368
 10
125.1549591568
 20
130.9943842521
 10
125.1083050352
 20
129.0767394323
 10
125.0684267616
 20
127.1958295968
 10
125.0353678617
 20
125.3723838404
 10
125.0083528412
 20
123.5851802277
 10
124.986429862
 20
121.7715521266
 10
124.9697353107
 20
119.910995641
 10
124.9588511333
 20
118.0246636817
 10
124.9540795667
 20
116.1128419781
  0
LINE
  5
22D
100
AcDbEntity
  8
RACCORDO
100
AcDbLine
 62
7
  6
CONTINUOUS
 10
138.0080662833
 20
131.656176651
 11
138.4310463822
 21
131.7868045329
  0
LINE
  5
22E
100
AcDbEntity
  8
ASSI
100
AcDbLine
 62
7
  6
CONTINUOUS
 10
138.0080662833
 20
131.656176651
 11
138.4310463822
 21
131.7868045329
  0
LWPOLYLINE
  5
22F
100
AcDbEntity
  8
ASSI
100
AcDbPolyline
 62
253
  6
CONTINUOUS
 90
16
 70
0
 10
160.8460325839
 20
84.4327319913
 10
160.8893591108
 20
84.4195856267
 10
160.9347682883
 20
84.4091129153
 10
160.9818201035
 20
84.4014153374
 10
161.0300586266
 20
84.3965674819
 10
161.0790164284
 20
84.3946163245
 10
161.1282191103
 20
84.3955807718
 10
161.1771899004
 20
84.3994514783
 10
161.2254542741
 20
84.406190937
 10
161.2725445518
 20
84.415733843
 10
161.318004431
 20
84.4279877259
 10
161.3613934075
 20
84.4428338461
 10
161.4022910442
 20
84.4601283455
 10
161.4403010449
 20
84.4797036412
 10
161.4750550944
 20
84.5013700494
 10
161.5062164276
 20
84.5249176236
  0
LWPOLYLINE
  5
230
100
AcDbEntity
  8
RACCORDO
100
AcDbPolyline
 62
253
  6
CONTINUOUS
 90
16
 70
0
 10
160.8460325839
 20
84.4327319913
 10
160.8893591108
 20
84.4195856267
 10
160.9347682883
 20
84.4091129153
 10
160.9818201035
 20
84.4014153374
 10
161.0300586266
 20
84.3965674819
 10
161.0790164284
 20
84.3946163245
 10
161.1282191103
 20
84.3955807718
 10
161.1771899004
 20
84.3994514783
 10
161.2254542741
 20
84.406190937
 10
161.2725445518
 20
84.415733843
 10
161.318004431
 20
84.4279877259
 10
161.3613934075
 20
84.4428338461
 10
161.4022910442
 20
84.4601283455
 10
161.4403010449
 20
84.4797036412
 10
161.4750550944
 20
84.5013700494
 10
161.5062164276
 20
84.5249176236
  0
LWPOLYLINE
  5
231
100
AcDbEntity
  8
ASSI
100
AcDbPolyline
 62
7
  6
CONTINUOUS
 90
12
 70
0
 10
161.0910556048
 20
83.9231981905
 10
161.1231837631
 20
83.9128208299
 10
161.1908731228
 20
83.8965969904
 10
161.2606495654
 20
83.8873462193
 10
161.331988563
 20
83.8852808762
 10
161.4047209088
 20
83.8906169372
 10
161.4784062476
 20
83.9036027478
 10
161.5523643675
 20
83.9243596952
 10
161.6263844229
 20
83.9530814057
 10
161.7003040506
 20
83.9900448763
 10
161.7737274231
 20
84.0353878178
 10
161.7873923675
 20
84.0448201637
  0
LWPOLYLINE
  5
232
100
AcDbEntity
  8
RACCORDO
100
AcDbPolyline
 62
7
  6
CONTINUOUS
 90
12
 70
0
 10
161.0910556048
 20
83.9231981905
 10
161.1231837631
 20
83.9128208299
 10
161.1908731228
 20
83.8965969904
 10
161.2606495654
 20
83.8873462193
 10
161.331988563
 20
83.8852808762
 10
161.4047209088
 20
83.8906169372
 10
161.4784062476
 20
83.9036027478
 10
161.5523643675
 20
83.9243596952
 10
161.6263844229
 20
83.9530814057
 10
161.7003040506
 20
83.9900448763
 10
161.7737274231
 20
84.0353878178
 10
161.7873923675
 20
84.0448201637
  0
LWPOLYLINE
  5
233
100
AcDbEntity
  8
ASSI
100
AcDbPolyline
 62
253
  6
CONTINUOUS
 90
10
 70
0
 10
124.7750224159
 20
115.3795380857
 10
124.7773215112
 20
115.3523997895
 10
124.7843221549
 20
115.3247376495
 10
124.7959571623
 20
115.2976051642
 10
124.8121131533
 20
115.2712618112
 10
124.832638008
 20
115.245951871
 10
124.8573450656
 20
115.221907685
 10
124.8860068191
 20
115.1993551895
 10
124.9183527864
 20
115.1785106031
 10
124.9540795749
 20
115.1595721268
  0
LWPOLYLINE
  5
234
100
AcDbEntity
  8
RACCORDO
100
AcDbPolyline
 62
253
  6
CONTINUOUS
 90
10
 70
0
 10
124.7750224159
 20
115.3795380857
 10
124.7773215112
 20
115.3523997895
 10
124.7843221549
 20
115.3247376495
 10
124.7959571623
 20
115.2976051642
 10
124.8121131533
 20
115.2712618112
 10
124.832638008
 20
115.245951871
 10
124.8573450656
 20
115.221907685
 10
124.8860068191
 20
115.1993551895
 10
124.9183527864
 20
115.1785106031
 10
124.9540795749
 20
115.1595721268
  0
LWPOLYLINE
  5
235
100
AcDbEntity
  8
RACCORDO
100
AcDbPolyline
 62
7
  6
CONTINUOUS
 90
8
 70
0
 10
124.7750350891
 20
116.3325797813
 10
124.7762172603
 20
116.3000377576
 10
124.7817636091
 20
116.2560009053
 10
124.791828117
 20
116.2126434506
 10
124.8064189176
 20
116.1701846562
 10
124.8254420125
 20
116.1291312778
 10
124.8486852419
 20
116.0900525511
 10
124.8752583763
 20
116.054284086
  0
LWPOLYLINE
  5
236
100
AcDbEntity
  8
ASSI
100
AcDbPolyline
 62
7
  6
CONTINUOUS
 90
8
 70
0
 10
124.7750350891
 20
116.3325797813
 10
124.7762172603
 20
116.3000377576
 10
124.7817636091
 20
116.2560009053
 10
124.791828117
 20
116.2126434506
 10
124.8064189176
 20
116.1701846562
 10
124.8254420125
 20
116.1291312778
 10
124.8486852419
 20
116.0900525511
 10
124.8752583763
 20
116.054284086
  0
LWPOLYLINE
  5
237
100
AcDbEntity
  8
ASSI
100
AcDbPolyline
 62
253
  6
CONTINUOUS
 90
10
 70
0
 10
124.9540795682
 20
115.1595721255
 10
124.9580366198
 20
113.4612061447
 10
124.967211737
 20
111.7403684103
 10
124.9818484131
 20
109.9972936714
 10
125.0020296452
 20
108.2450126403
 10
125.0280886377
 20
106.4709131818
 10
125.0610174922
 20
104.6370874888
 10
125.1017484645
 20
102.7314438748
 10
125.1507452301
 20
100.7673604692
 10
125.2086983287
 20
98.7454888632
  0
LWPOLYLINE
  5
238
100
AcDbEntity
  8
RACCORDO
100
AcDbPolyline
 62
253
  6
CONTINUOUS
 90
10
 70
0
 10
124.9540795682
 20
115.1595721255
 10
124.9580366198
 20
113.4612061447
 10
124.967211737
 20
111.7403684103
 10
124.9818484131
 20
109.9972936714
 10
125.0020296452
 20
108.2450126403
 10
125.0280886377
 20
106.4709131818
 10
125.0610174922
 20
104.6370874888
 10
125.1017484645
 20
102.7314438748
 10
125.1507452301
 20
100.7673604692
 10
125.2086983287
 20
98.7454888632
  0
LWPOLYLINE
  5
239
100
AcDbEntity
  8
ASSI
100
AcDbPolyline
 62
253
  6
CONTINUOUS
 90
10
 70
0
 10
152.0390138206
 20
87.7269151796
 10
153.0337432118
 20
87.3308261399
 10
154.0169770432
 20
86.9455233224
 10
154.9884173926
 20
86.5708121376
 10
155.9371929693
 20
86.2104802875
 10
156.8735044242
 20
85.8602664796
 10
157.8291203977
 20
85.5082997099
 10
158.8149457058
 20
85.1509411051
 10
159.8205249281
 20
84.7923448438
 10
160.8460325827
 20
84.4327320022
  0
LWPOLYLINE
  5
23A
100
AcDbEntity
  8
RACCORDO
100
AcDbPolyline
 62
253
  6
CONTINUOUS
 90
10
 70
0
 10
152.0390138206
 20
87.7269151796
 10
153.0337432118
 20
87.3308261399
 10
154.0169770432
 20
86.9455233224
 10
154.9884173926
 20
86.5708121376
 10
155.9371929693
 20
86.2104802875
 10
156.8735044242
 20
85.8602664796
 10
157.8291203977
 20
85.5082997099
 10
158.8149457058
 20
85.1509411051
 10
159.8205249281
 20
84.7923448438
 10
160.8460325827
 20
84.4327320022
  0
LWPOLYLINE
  5
23B
100
AcDbEntity
  8
ASSI
100
AcDbPolyline
 62
7
  6
CONTINUOUS
 90
10
 70
0
 10
152.2791036898
 20
87.2277170777
 10
153.1930234261
 20
86.8634038156
 10
154.1774930412
 20
86.4767381041
 10
155.1663769723
 20
86.0942811436
 10
156.1596070241
 20
85.7160558912
 10
157.1571216822
 20
85.342081511
 10
158.1588633244
 20
84.9723750624
 10
159.1647735208
 20
84.606953809
 10
160.1747899871
 20
84.2458353731
 10
161.0919519091
 20
83.9228830175
  0
LWPOLYLINE
  5
23C
100
AcDbEntity
  8
RACCORDO
100
AcDbPolyline
 62
7
  6
CONTINUOUS
 90
10
 70
0
 10
152.2791036898
 20
87.2277170777
 10
153.1930234261
 20
86.8634038156
 10
154.1774930412
 20
86.4767381041
 10
155.1663769723
 20
86.0942811436
 10
156.1596070241
 20
85.7160558912
 10
157.1571216822
 20
85.342081511
 10
158.1588633244
 20
84.9723750624
 10
159.1647735208
 20
84.606953809
 10
160.1747899871
 20
84.2458353731
 10
161.0919519091
 20
83.9228830175
  0
LINE
  5
23D
100
AcDbEntity
  8
ASSI
100
AcDbLine
 62
7
  6
CONTINUOUS
 10
133.8482595574
 20
94.6299595924
 11
152.2791036703
 21
87.227717083
  0
LINE
  5
23E
100
AcDbEntity
  8
RACCORDO
100
AcDbLine
 62
7
  6
CONTINUOUS
 10
133.8482595574
 20
94.6299595924
 11
152.2791036703
 21
87.227717083
  0
LWPOLYLINE
  5
23F
100
AcDbEntity
  8
ASSI
100
AcDbPolyline
 62
253
  6
CONTINUOUS
 90
3
 70
0
 10
133.6080928241
 20
95.1291885672
 10
145.8954670924
 20
90.1941152333
 10
152.0390138206
 20
87.7269151796
  0
LWPOLYLINE
  5
240
100
AcDbEntity
  8
RACCORDO
100
AcDbPolyline
 62
253
  6
CONTINUOUS
 90
3
 70
0
 10
133.6080928241
 20
95.1291885672
 10
145.8954670924
 20
90.1941152333
 10
152.0390138206
 20
87.7269151796
  0
LWPOLYLINE
  5
241
100
AcDbEntity
  8
ASSI
100
AcDbPolyline
 62
253
  6
CONTINUOUS
 90
13
 70
0
 10
161.0910490869
 20
83.9232005175
 10
161.0571678729
 20
83.9380321587
 10
161.0237890251
 20
83.9589483327
 10
160.9928854534
 20
83.985211336
 10
160.9645987825
 20
84.0166932731
 10
160.9390530061
 20
84.0532419499
 10
160.9163951898
 20
84.0946670625
 10
160.8967312644
 20
84.1407608525
 10
160.8801432683
 20
84.1913013353
 10
160.8667238084
 20
84.2460446167
 10
160.8565403458
 20
84.3047256875
 10
160.8496328437
 20
84.3670566118
 10
160.84603261
 20
84.4327320814
  0
LWPOLYLINE
  5
242
100
AcDbEntity
  8
RACCORDO
100
AcDbPolyline
 62
253
  6
CONTINUOUS
 90
13
 70
0
 10
161.0910490869
 20
83.9232005175
 10
161.0571678729
 20
83.9380321587
 10
161.0237890251
 20
83.9589483327
 10
160.9928854534
 20
83.985211336
 10
160.9645987825
 20
84.0166932731
 10
160.9390530061
 20
84.0532419499
 10
160.9163951898
 20
84.0946670625
 10
160.8967312644
 20
84.1407608525
 10
160.8801432683
 20
84.1913013353
 10
160.8667238084
 20
84.2460446167
 10
160.8565403458
 20
84.3047256875
 10
160.8496328437
 20
84.3670566118
 10
160.84603261
 20
84.4327320814
  0
LWPOLYLINE
  5
243
100
AcDbEntity
  8
ASSI
100
AcDbPolyline
 62
7
  6
CONTINUOUS
 90
10
 70
0
 10
125.4422941678
 20
98.240650767
 10
126.2740657834
 20
97.8615148689
 10
127.2071746271
 20
97.4421568511
 10
128.1464531798
 20
97.0262833516
 10
129.0918510827
 20
96.6139201741
 10
130.0433205772
 20
96.2050912707
 10
131.0008153432
 20
95.7998199507
 10
131.964280337
 20
95.3981321608
 10
132.9336519377
 20
95.0000563894
 10
133.8482595591
 20
94.6299595946
  0
LWPOLYLINE
  5
244
100
AcDbEntity
  8
RACCORDO
100
AcDbPolyline
 62
7
  6
CONTINUOUS
 90
10
 70
0
 10
125.4422941678
 20
98.240650767
 10
126.2740657834
 20
97.8615148689
 10
127.2071746271
 20
97.4421568511
 10
128.1464531798
 20
97.0262833516
 10
129.0918510827
 20
96.6139201741
 10
130.0433205772
 20
96.2050912707
 10
131.0008153432
 20
95.7998199507
 10
131.964280337
 20
95.3981321608
 10
132.9336519377
 20
95.0000563894
 10
133.8482595591
 20
94.6299595946
  0
LWPOLYLINE
  5
245
100
AcDbEntity
  8
ASSI
100
AcDbPolyline
 62
253
  6
CONTINUOUS
 90
10
 70
0
 10
125.2086983287
 20
98.7454888632
 10
126.0499636786
 20
98.3604534792
 10
126.9090214972
 20
97.9727557923
 10
127.7860491758
 20
97.5825659784
 10
128.6750054752
 20
97.1927829822
 10
129.5822154088
 20
96.8008056143
 10
130.5267144979
 20
96.3987945031
 10
131.5153178378
 20
95.9845355034
 10
132.5422747349
 20
95.5611779718
 10
133.6080928241
 20
95.1291885672
  0
LWPOLYLINE
  5
246
100
AcDbEntity
  8
RACCORDO
100
AcDbPolyline
 62
253
  6
CONTINUOUS
 90
10
 70
0
 10
125.2086983287
 20
98.7454888632
 10
126.0499636786
 20
98.3604534792
 10
126.9090214972
 20
97.9727557923
 10
127.7860491758
 20
97.5825659784
 10
128.6750054752
 20
97.1927829822
 10
129.5822154088
 20
96.8008056143
 10
130.5267144979
 20
96.3987945031
 10
131.5153178378
 20
95.9845355034
 10
132.5422747349
 20
95.5611779718
 10
133.6080928241
 20
95.1291885672
  0
LWPOLYLINE
  5
247
100
AcDbEntity
  8
ASSI
100
AcDbPolyline
 62
253
  6
CONTINUOUS
 90
10
 70
0
 10
125.2087064766
 20
98.745495069
 10
125.1719465998
 20
98.7645130166
 10
125.1385805285
 20
98.7856779291
 10
125.1089315719
 20
98.8087847234
 10
125.0832870213
 20
98.8336095003
 10
125.0618953662
 20
98.8599117137
 10
125.0449638866
 20
98.8874365017
 10
125.0326566443
 20
98.9159171559
 10
125.0250928937
 20
98.9450777054
 10
125.0224206948
 20
98.9710518772
  0
LWPOLYLINE
  5
248
100
AcDbEntity
  8
RACCORDO
100
AcDbPolyline
 62
253
  6
CONTINUOUS
 90
10
 70
0
 10
125.2087064766
 20
98.745495069
 10
125.1719465998
 20
98.7645130166
 10
125.1385805285
 20
98.7856779291
 10
125.1089315719
 20
98.8087847234
 10
125.0832870213
 20
98.8336095003
 10
125.0618953662
 20
98.8599117137
 10
125.0449638866
 20
98.8874365017
 10
125.0326566443
 20
98.9159171559
 10
125.0250928937
 20
98.9450777054
 10
125.0224206948
 20
98.9710518772
  0
LWPOLYLINE
  5
249
100
AcDbEntity
  8
ASSI
100
AcDbPolyline
 62
253
  6
CONTINUOUS
 90
16
 70
0
 10
125.1896307829
 20
115.7382328066
 10
125.1846210939
 20
115.7332991673
 10
125.1805080499
 20
115.7282067552
 10
125.1772916512
 20
115.7229555702
 10
125.1749568653
 20
115.7174915595
 10
125.1735187247
 20
115.7118687759
 10
125.1730223259
 20
115.7062493786
 10
125.1734959617
 20
115.7006351248
 10
125.1749113394
 20
115.6950242572
 10
125.1772286781
 20
115.6895736631
 10
125.1804777903
 20
115.6842856213
 10
125.1846288635
 20
115.6791578529
 10
125.1895526791
 20
115.6743404089
 10
125.1952061644
 20
115.6698833061
 10
125.2016323922
 20
115.6657365276
 10
125.2088313625
 20
115.6619000733
  0
LWPOLYLINE
  5
24A
100
AcDbEntity
  8
RACCORDO
100
AcDbPolyline
 62
253
  6
CONTINUOUS
 90
16
 70
0
 10
125.1896307829
 20
115.7382328066
 10
125.1846210939
 20
115.7332991673
 10
125.1805080499
 20
115.7282067552
 10
125.1772916512
 20
115.7229555702
 10
125.1749568653
 20
115.7174915595
 10
125.1735187247
 20
115.7118687759
 10
125.1730223259
 20
115.7062493786
 10
125.1734959617
 20
115.7006351248
 10
125.1749113394
 20
115.6950242572
 10
125.1772286781
 20
115.6895736631
 10
125.1804777903
 20
115.6842856213
 10
125.1846288635
 20
115.6791578529
 10
125.1895526791
 20
115.6743404089
 10
125.1952061644
 20
115.6698833061
 10
125.2016323922
 20
115.6657365276
 10
125.2088313625
 20
115.6619000733
  0
LWPOLYLINE
  5
24B
100
AcDbEntity
  8
ASSI
100
AcDbPolyline
 62
7
  6
CONTINUOUS
 90
10
 70
0
 10
124.926879409
 20
115.7120504636
 10
124.8982944713
 20
115.6845865078
 10
124.868770918
 20
115.6504419208
 10
124.8429941925
 20
115.6138272633
 10
124.8211514028
 20
115.5750969671
 10
124.8033861041
 20
115.5345708161
 10
124.7898848762
 20
115.4927709411
 10
124.7807193822
 20
115.4501811275
 10
124.7758738484
 20
115.4071158871
 10
124.7750350881
 20
115.3794884154
  0
LWPOLYLINE
  5
24C
100
AcDbEntity
  8
RACCORDO
100
AcDbPolyline
 62
7
  6
CONTINUOUS
 90
10
 70
0
 10
124.926879409
 20
115.7120504636
 10
124.8982944713
 20
115.6845865078
 10
124.868770918
 20
115.6504419208
 10
124.8429941925
 20
115.6138272633
 10
124.8211514028
 20
115.5750969671
 10
124.8033861041
 20
115.5345708161
 10
124.7898848762
 20
115.4927709411
 10
124.7807193822
 20
115.4501811275
 10
124.7758738484
 20
115.4071158871
 10
124.7750350881
 20
115.3794884154
  0
LINE
  5
24D
100
AcDbEntity
  8
ASSI
100
AcDbLine
 62
7
  6
CONTINUOUS
 10
125.1248600224
 20
115.8861973931
 11
124.9274619059
 21
115.7125804345
  0
LINE
  5
24E
100
AcDbEntity
  8
RACCORDO
100
AcDbLine
 62
7
  6
CONTINUOUS
 10
125.1248600224
 20
115.8861973931
 11
124.9274619059
 21
115.7125804345
  0
LINE
  5
24F
100
AcDbEntity
  8
ASSI
100
AcDbLine
 62
253
  6
CONTINUOUS
 10
125.2759130347
 20
115.8141203703
 11
125.1896307829
 21
115.7382328066
  0
LINE
  5
250
100
AcDbEntity
  8
RACCORDO
100
AcDbLine
 62
253
  6
CONTINUOUS
 10
125.2759130347
 20
115.8141203703
 11
125.1896307829
 21
115.7382328066
  0
LWPOLYLINE
  5
251
100
AcDbEntity
  8
ASSI
100
AcDbPolyline
 62
253
  6
CONTINUOUS
 90
16
 70
0
 10
125.2088313625
 20
115.6619000733
 10
125.182132572
 20
115.6415335936
 10
125.1557452431
 20
115.6178502986
 10
125.1299557301
 20
115.5911071985
 10
125.1050439001
 20
115.5615945087
 10
125.0812800954
 20
115.5296325
 10
125.0589222002
 20
115.495568023
 10
125.0382128416
 20
115.4597707445
 10
125.019376757
 20
115.4226291354
 10
125.0026183548
 20
115.3845462552
 10
124.9881194969
 20
115.3459353782
 10
124.9760375242
 20
115.3072155084
 10
124.9665035501
 20
115.2688068327
 10
124.959621037
 20
115.2311261607
 10
124.9554646735
 20
115.1945824019
 10
124.9540795645
 20
115.1595721282
  0
LWPOLYLINE
  5
252
100
AcDbEntity
  8
RACCORDO
100
AcDbPolyline
 62
253
  6
CONTINUOUS
 90
16
 70
0
 10
125.2088313625
 20
115.6619000733
 10
125.182132572
 20
115.6415335936
 10
125.1557452431
 20
115.6178502986
 10
125.1299557301
 20
115.5911071985
 10
125.1050439001
 20
115.5615945087
 10
125.0812800954
 20
115.5296325
 10
125.0589222002
 20
115.495568023
 10
125.0382128416
 20
115.4597707445
 10
125.019376757
 20
115.4226291354
 10
125.0026183548
 20
115.3845462552
 10
124.9881194969
 20
115.3459353782
 10
124.9760375242
 20
115.3072155084
 10
124.9665035501
 20
115.2688068327
 10
124.959621037
 20
115.2311261607
 10
124.9554646735
 20
115.1945824019
 10
124.9540795645
 20
115.1595721282
  0
LINE
  5
253
100
AcDbEntity
  8
RACCORDO
100
AcDbLine
 62
7
  6
CONTINUOUS
 10
134.1800007881
 20
133.1936140556
 11
134.2209006444
 21
133.4776939768
  0
LINE
  5
254
100
AcDbEntity
  8
ASSI
100
AcDbLine
 62
7
  6
CONTINUOUS
 10
134.1800007881
 20
133.1936140556
 11
134.2209006444
 21
133.4776939768
  0
LWPOLYLINE
  5
255
100
AcDbEntity
  8
RACCORDO
100
AcDbPolyline
 62
253
  6
CONTINUOUS
 90
5
 70
0
 10
129.7714640896
 20
114.1159016842
 10
129.7592341672
 20
114.0882618999
 10
129.7436851905
 20
114.0634369494
 10
129.7249900769
 20
114.0417030548
 10
129.7100741984
 20
114.0284057621
  0
LWPOLYLINE
  5
256
100
AcDbEntity
  8
ASSI
100
AcDbPolyline
 62
253
  6
CONTINUOUS
 90
5
 70
0
 10
129.7714640896
 20
114.1159016842
 10
129.7592341672
 20
114.0882618999
 10
129.7436851905
 20
114.0634369494
 10
129.7249900769
 20
114.0417030548
 10
129.7100741984
 20
114.0284057621
  0
LINE
  5
257
100
AcDbEntity
  8
0
100
AcDbLine
 62
253
  6
CONTINUOUS
 10
146.6212890055
 20
97.0712557387
 11
146.6355339006
 21
97.073048971
  0
LINE
  5
258
100
AcDbEntity
  8
0
100
AcDbLine
 62
253
  6
CONTINUOUS
 10
145.2007793769
 20
96.2038860292
 11
145.2149866409
 21
96.2056652551
  0
LINE
  5
259
100
AcDbEntity
  8
0
100
AcDbLine
 62
253
  6
CONTINUOUS
 10
142.3127278167
 20
97.3595068313
 11
142.3281625885
 21
97.3578871145
  0
LINE
  5
25A
100
AcDbEntity
  8
0
100
AcDbLine
 62
253
  6
CONTINUOUS
 10
145.1853467439
 20
96.205508498
 11
145.2007793769
 21
96.2038860292
  0
LINE
  5
25B
100
AcDbEntity
  8
0
100
AcDbLine
 62
253
  6
CONTINUOUS
 10
139.9442049485
 20
98.284783637
 11
140.0131123785
 21
98.2641671671
  0
LINE
  5
25C
100
AcDbEntity
  8
0
100
AcDbLine
 62
253
  6
CONTINUOUS
 10
142.2965074946
 20
97.3644761281
 11
142.3127278167
 21
97.3595068313
  0
LINE
  5
25D
100
AcDbEntity
  8
0
100
AcDbLine
 62
253
  6
CONTINUOUS
 10
145.1691294945
 20
96.2104803118
 11
145.1853467439
 21
96.205508498
  0
LINE
  5
25E
100
AcDbEntity
  8
0
100
AcDbLine
 62
253
  6
CONTINUOUS
 10
139.8731294983
 20
98.3094394896
 11
139.9442049485
 21
98.284783637
  0
LINE
  5
25F
100
AcDbEntity
  8
0
100
AcDbLine
 62
253
  6
CONTINUOUS
 10
139.8229767454
 20
98.3287921713
 11
139.8731294983
 21
98.3094394896
  0
LINE
  5
260
100
AcDbEntity
  8
0
100
AcDbLine
 62
253
  6
CONTINUOUS
 10
141.9650403406
 20
97.4975805095
 11
142.2965074798
 21
97.3644767377
  0
LINE
  5
261
100
AcDbEntity
  8
0
100
AcDbLine
 62
253
  6
CONTINUOUS
 10
144.8377291981
 20
96.343641007
 11
145.1691295405
 21
96.2104784239
  0
LINE
  5
262
100
AcDbEntity
  8
0
100
AcDbLine
 62
253
  6
CONTINUOUS
 10
139.7713841966
 20
98.3503307668
 11
139.8229767454
 21
98.3287921713
  0
LINE
  5
263
100
AcDbEntity
  8
0
100
AcDbLine
 62
253
  6
CONTINUOUS
 10
139.7003824073
 20
98.3827709469
 11
139.7713841966
 21
98.3503307668
  0
LINE
  5
264
100
AcDbEntity
  8
0
100
AcDbLine
 62
253
  6
CONTINUOUS
 10
139.6314854488
 20
98.4175241562
 11
139.7003824073
 21
98.3827709469
  0
LINE
  5
265
100
AcDbEntity
  8
0
100
AcDbLine
 62
253
  6
CONTINUOUS
 10
139.564707981
 20
98.4544948392
 11
139.6314854488
 21
98.4175241562
  0
LINE
  5
266
100
AcDbEntity
  8
0
100
AcDbLine
 62
253
  6
CONTINUOUS
 10
139.5000588482
 20
98.4935954107
 11
139.564707981
 21
98.4544948392
  0
LINE
  5
267
100
AcDbEntity
  8
0
100
AcDbLine
 62
253
  6
CONTINUOUS
 10
139.4375402348
 20
98.534747383
 11
139.5000588482
 21
98.4935954107
  0
LWPOLYLINE
  5
268
100
AcDbEntity
  8
ASSI
100
AcDbPolyline
 62
253
  6
CONTINUOUS
 90
22
 70
0
 10
129.2181021119
 20
113.2010104728
 10
129.248442705
 20
113.0981051648
 10
129.2839316474
 20
112.9952046238
 10
129.3245720496
 20
112.8923111457
 10
129.370526339
 20
112.7889818867
 10
129.4216404746
 20
112.6856659592
 10
129.4774426819
 20
112.583703432
 10
129.5380364798
 20
112.4830990799
 10
129.6033278851
 20
112.3838552682
 10
129.672546952
 20
112.2873069505
 10
129.7457633333
 20
112.1935149403
 10
129.8229166449
 20
112.1024254146
 10
129.9030389421
 20
112.0151991054
 10
129.9861970275
 20
111.9318997866
 10
130.07233172
 20
111.8524695034
 10
130.1602821999
 20
111.7778834007
 10
130.2500648634
 20
111.7082476084
 10
130.3416678199
 20
111.643459514
 10
130.433883267
 20
111.5841776443
 10
130.5263077662
 20
111.5306208929
 10
130.6193450474
 20
111.4825706972
 10
130.712995861
 20
111.4400277096
  0
LWPOLYLINE
  5
269
100
AcDbEntity
  8
RACCORDO
100
AcDbPolyline
 62
253
  6
CONTINUOUS
 90
22
 70
0
 10
129.2181021119
 20
113.2010104728
 10
129.248442705
 20
113.0981051648
 10
129.2839316474
 20
112.9952046238
 10
129.3245720496
 20
112.8923111457
 10
129.370526339
 20
112.7889818867
 10
129.4216404746
 20
112.6856659592
 10
129.4774426819
 20
112.583703432
 10
129.5380364798
 20
112.4830990799
 10
129.6033278851
 20
112.3838552682
 10
129.672546952
 20
112.2873069505
 10
129.7457633333
 20
112.1935149403
 10
129.8229166449
 20
112.1024254146
 10
129.9030389421
 20
112.0151991054
 10
129.9861970275
 20
111.9318997866
 10
130.07233172
 20
111.8524695034
 10
130.1602821999
 20
111.7778834007
 10
130.2500648634
 20
111.7082476084
 10
130.3416678199
 20
111.643459514
 10
130.433883267
 20
111.5841776443
 10
130.5263077662
 20
111.5306208929
 10
130.6193450474
 20
111.4825706972
 10
130.712995861
 20
111.4400277096
  0
LWPOLYLINE
  5
26A
100
AcDbEntity
  8
ASSI
100
AcDbPolyline
 62
253
  6
CONTINUOUS
 90
22
 70
0
 10
129.7714640899
 20
113.3549120811
 10
129.795226727
 20
113.2736020336
 10
129.8231575361
 20
113.1916893067
 10
129.8552180701
 20
113.1094602514
 10
129.8913700955
 20
113.0271497991
 10
129.9315271648
 20
112.9451201907
 10
129.9755290593
 20
112.8638538619
 10
130.0232436641
 20
112.7836494787
 10
130.0745236877
 20
112.7048170923
 10
130.129117555
 20
112.6278398353
 10
130.1868169524
 20
112.5530132914
 10
130.24741842
 20
112.480607429
 10
130.3106233915
 20
112.4110323048
 10
130.3761950827
 20
112.344525664
 10
130.4438691522
 20
112.2813325398
 10
130.5132668494
 20
112.2218209291
 10
130.5841066858
 20
112.166179801
 10
130.6561129539
 20
112.114570021
 10
130.7288932069
 20
112.0672483313
 10
130.8021263699
 20
112.0243555511
 10
130.8755715901
 20
111.9859416279
 10
130.9489567714
 20
111.9520760267
  0
LWPOLYLINE
  5
26B
100
AcDbEntity
  8
RACCORDO
100
AcDbPolyline
 62
253
  6
CONTINUOUS
 90
22
 70
0
 10
129.7714640899
 20
113.3549120811
 10
129.795226727
 20
113.2736020336
 10
129.8231575361
 20
113.1916893067
 10
129.8552180701
 20
113.1094602514
 10
129.8913700955
 20
113.0271497991
 10
129.9315271648
 20
112.9451201907
 10
129.9755290593
 20
112.8638538619
 10
130.0232436641
 20
112.7836494787
 10
130.0745236877
 20
112.7048170923
 10
130.129117555
 20
112.6278398353
 10
130.1868169524
 20
112.5530132914
 10
130.24741842
 20
112.480607429
 10
130.3106233915
 20
112.4110323048
 10
130.3761950827
 20
112.344525664
 10
130.4438691522
 20
112.2813325398
 10
130.5132668494
 20
112.2218209291
 10
130.5841066858
 20
112.166179801
 10
130.6561129539
 20
112.114570021
 10
130.7288932069
 20
112.0672483313
 10
130.8021263699
 20
112.0243555511
 10
130.8755715901
 20
111.9859416279
 10
130.9489567714
 20
111.9520760267
  0
LWPOLYLINE
  5
26C
100
AcDbEntity
  8
ASSI
100
AcDbPolyline
 62
253
  6
CONTINUOUS
 90
11
 70
0
 10
133.6080928241
 20
95.1291885672
 10
133.6132961303
 20
95.053744324
 10
133.6230244358
 20
94.9828739972
 10
133.6372132257
 20
94.9170475763
 10
133.6557684043
 20
94.8567016015
 10
133.6785669196
 20
94.8022362681
 10
133.705457579
 20
94.7540127732
 10
133.7362620522
 20
94.7123509197
 10
133.7707760536
 20
94.6775269958
 10
133.8087706972
 20
94.6497719429
 10
133.8482595574
 20
94.6299595924
  0
LWPOLYLINE
  5
26D
100
AcDbEntity
  8
RACCORDO
100
AcDbPolyline
 62
253
  6
CONTINUOUS
 90
11
 70
0
 10
133.6080928241
 20
95.1291885672
 10
133.6132961303
 20
95.053744324
 10
133.6230244358
 20
94.9828739972
 10
133.6372132257
 20
94.9170475763
 10
133.6557684043
 20
94.8567016015
 10
133.6785669196
 20
94.8022362681
 10
133.705457579
 20
94.7540127732
 10
133.7362620522
 20
94.7123509197
 10
133.7707760536
 20
94.6775269958
 10
133.8087706972
 20
94.6497719429
 10
133.8482595574
 20
94.6299595924
  0
LWPOLYLINE
  5
26E
100
AcDbEntity
  8
ASSI
100
AcDbPolyline
 62
253
  6
CONTINUOUS
 90
10
 70
0
 10
133.2983262674
 20
110.3721067706
 10
133.3073853404
 20
108.6569468793
 10
133.3227861532
 20
106.9470313577
 10
133.344528239
 20
105.2424074262
 10
133.3726116555
 20
103.5430938431
 10
133.4070356242
 20
101.8491664952
 10
133.4477974664
 20
100.1607574828
 10
133.4948949144
 20
98.4779414117
 10
133.548327175
 20
96.8007363077
 10
133.6080928241
 20
95.1291885672
  0
LWPOLYLINE
  5
26F
100
AcDbEntity
  8
RACCORDO
100
AcDbPolyline
 62
253
  6
CONTINUOUS
 90
10
 70
0
 10
133.2983262674
 20
110.3721067706
 10
133.3073853404
 20
108.6569468793
 10
133.3227861532
 20
106.9470313577
 10
133.344528239
 20
105.2424074262
 10
133.3726116555
 20
103.5430938431
 10
133.4070356242
 20
101.8491664952
 10
133.4477974664
 20
100.1607574828
 10
133.4948949144
 20
98.4779414117
 10
133.548327175
 20
96.8007363077
 10
133.6080928241
 20
95.1291885672
  0
LWPOLYLINE
  5
270
100
AcDbEntity
  8
RACCORDO
100
AcDbPolyline
 62
253
  6
CONTINUOUS
 90
10
 70
0
 10
133.2983262674
 20
113.5704600824
 10
133.3073853404
 20
115.30046149
 10
133.3227861532
 20
117.0356082262
 10
133.344528239
 20
118.7758523058
 10
133.3726116555
 20
120.5211750649
 10
133.4070356242
 20
122.2714993415
 10
133.4477974664
 20
124.0266886466
 10
133.4948949144
 20
125.7866646594
 10
133.548327175
 20
127.5514080543
 10
133.6080928241
 20
129.3208701022
  0
LWPOLYLINE
  5
271
100
AcDbEntity
  8
ASSI
100
AcDbPolyline
 62
253
  6
CONTINUOUS
 90
10
 70
0
 10
133.2983262674
 20
113.5704600824
 10
133.3073853404
 20
115.30046149
 10
133.3227861532
 20
117.0356082262
 10
133.344528239
 20
118.7758523058
 10
133.3726116555
 20
120.5211750649
 10
133.4070356242
 20
122.2714993415
 10
133.4477974664
 20
124.0266886466
 10
133.4948949144
 20
125.7866646594
 10
133.548327175
 20
127.5514080543
 10
133.6080928241
 20
129.3208701022
  0
LWPOLYLINE
  5
272
100
AcDbEntity
  8
RACCORDO
100
AcDbPolyline
 62
253
  6
CONTINUOUS
 90
19
 70
0
 10
133.6080928264
 20
129.3208701039
 10
133.6132961325
 20
129.4048337526
 10
133.6230244379
 20
129.4916339399
 10
133.6372132277
 20
129.5806950344
 10
133.6557684062
 20
129.671426411
 10
133.6785669214
 20
129.7632263679
 10
133.7054575807
 20
129.8554861167
 10
133.7362620537
 20
129.9475938198
 10
133.7707760549
 20
130.0389386481
 10
133.8087706983
 20
130.1289148314
 10
133.8499940155
 20
130.2169256762
 10
133.8941726264
 20
130.3023875221
 10
133.9410135524
 20
130.3847336134
 10
133.9902061592
 20
130.4634178566
 10
134.041424217
 20
130.5379184427
 10
134.0943280639
 20
130.6077413072
 10
134.1485668581
 20
130.6724234071
 10
134.2037809052
 20
130.731535791
 10
134.259604043
 20
130.7846864442
  0
LWPOLYLINE
  5
273
100
AcDbEntity
  8
ASSI
100
AcDbPolyline
 62
253
  6
CONTINUOUS
 90
19
 70
0
 10
133.6080928264
 20
129.3208701039
 10
133.6132961325
 20
129.4048337526
 10
133.6230244379
 20
129.4916339399
 10
133.6372132277
 20
129.5806950344
 10
133.6557684062
 20
129.671426411
 10
133.6785669214
 20
129.7632263679
 10
133.7054575807
 20
129.8554861167
 10
133.7362620537
 20
129.9475938198
 10
133.7707760549
 20
130.0389386481
 10
133.8087706983
 20
130.1289148314
 10
133.8499940155
 20
130.2169256762
 10
133.8941726264
 20
130.3023875221
 10
133.9410135524
 20
130.3847336134
 10
133.9902061592
 20
130.4634178566
 10
134.041424217
 20
130.5379184427
 10
134.0943280639
 20
130.6077413072
 10
134.1485668581
 20
130.6724234071
 10
134.2037809052
 20
130.731535791
 10
134.259604043
 20
130.7846864442
  0
LWPOLYLINE
  5
274
100
AcDbEntity
  8
ASSI
100
AcDbPolyline
 62
253
  6
CONTINUOUS
 90
16
 70
0
 10
129.4588856354
 20
113.7098740164
 10
129.4334474887
 20
113.6884070528
 10
129.4085287971
 20
113.6641126076
 10
129.3842861111
 20
113.637083083
 10
129.3608845851
 20
113.6071032146
 10
129.338425296
 20
113.5743715103
 10
129.3171194465
 20
113.5397277919
 10
129.2975447145
 20
113.5035241663
 10
129.2798736653
 20
113.4658075467
 10
129.2639016118
 20
113.4272553959
 10
129.2501211104
 20
113.3883240754
 10
129.2388826638
 20
113.3492567276
 10
129.2297936202
 20
113.3105774228
 10
129.2229638236
 20
113.2727502019
 10
129.2189769827
 20
113.2361084136
 10
129.2181021119
 20
113.2010104728
  0
LWPOLYLINE
  5
275
100
AcDbEntity
  8
RACCORDO
100
AcDbPolyline
 62
253
  6
CONTINUOUS
 90
16
 70
0
 10
129.4588856354
 20
113.7098740164
 10
129.4334474887
 20
113.6884070528
 10
129.4085287971
 20
113.6641126076
 10
129.3842861111
 20
113.637083083
 10
129.3608845851
 20
113.6071032146
 10
129.338425296
 20
113.5743715103
 10
129.3171194465
 20
113.5397277919
 10
129.2975447145
 20
113.5035241663
 10
129.2798736653
 20
113.4658075467
 10
129.2639016118
 20
113.4272553959
 10
129.2501211104
 20
113.3883240754
 10
129.2388826638
 20
113.3492567276
 10
129.2297936202
 20
113.3105774228
 10
129.2229638236
 20
113.2727502019
 10
129.2189769827
 20
113.2361084136
 10
129.2181021119
 20
113.2010104728
  0
LWPOLYLINE
  5
276
100
AcDbEntity
  8
RACCORDO
100
AcDbPolyline
 62
253
  6
CONTINUOUS
 90
8
 70
0
 10
129.9975986033
 20
114.4455005274
 10
129.97562023
 20
114.4269898341
 10
129.9316019967
 20
114.384469745
 10
129.8914280374
 20
114.3378506083
 10
129.8552588807
 20
114.2874270311
 10
129.8231817095
 20
114.2334717419
 10
129.7952357829
 20
114.1762080802
 10
129.7714604283
 20
114.1158911929
  0
LWPOLYLINE
  5
277
100
AcDbEntity
  8
ASSI
100
AcDbPolyline
 62
253
  6
CONTINUOUS
 90
8
 70
0
 10
129.9975986033
 20
114.4455005274
 10
129.97562023
 20
114.4269898341
 10
129.9316019967
 20
114.384469745
 10
129.8914280374
 20
114.3378506083
 10
129.8552588807
 20
114.2874270311
 10
129.8231817095
 20
114.2334717419
 10
129.7952357829
 20
114.1762080802
 10
129.7714604283
 20
114.1158911929
  0
LINE
  5
278
100
AcDbEntity
  8
ASSI
100
AcDbLine
 62
253
  6
CONTINUOUS
 10
129.4588856312
 20
113.7098740183
 11
130.4760620329
 21
114.5443680286
  0
LINE
  5
279
100
AcDbEntity
  8
RACCORDO
100
AcDbLine
 62
253
  6
CONTINUOUS
 10
129.4588856312
 20
113.7098740183
 11
130.4760620329
 21
114.5443680286
  0
LINE
  5
27A
100
AcDbEntity
  8
ASSI
100
AcDbLine
 62
253
  6
CONTINUOUS
 10
129.7714640899
 20
113.3549120811
 11
131.0046695285
 21
114.3635831702
  0
LINE
  5
27B
100
AcDbEntity
  8
RACCORDO
100
AcDbLine
 62
253
  6
CONTINUOUS
 10
129.7714640899
 20
113.3549120811
 11
131.0046695285
 21
114.3635831702
  0
LINE
  5
27C
100
AcDbEntity
  8
RACCORDO
100
AcDbLine
 62
7
  6
CONTINUOUS
 10
129.9993264721
 20
114.4468874894
 11
129.9975986033
 21
114.4455005274
  0
LINE
  5
27D
100
AcDbEntity
  8
ASSI
100
AcDbLine
 62
7
  6
CONTINUOUS
 10
129.9993264721
 20
114.4468874894
 11
129.9975986033
 21
114.4455005274
  0
LINE
  5
27E
100
AcDbEntity
  8
RACCORDO
100
AcDbLine
 62
253
  6
CONTINUOUS
 10
130.3207055091
 20
114.553554812
 11
129.7714604283
 21
114.1158911929
  0
LINE
  5
27F
100
AcDbEntity
  8
ASSI
100
AcDbLine
 62
253
  6
CONTINUOUS
 10
130.3207055091
 20
114.553554812
 11
129.7714604283
 21
114.1158911929
  0
LINE
  5
280
100
AcDbEntity
  8
RACCORDO
100
AcDbLine
 62
7
  6
CONTINUOUS
 10
129.7099510951
 20
114.028307717
 11
130.3697001904
 21
114.5532792777
  0
LINE
  5
281
100
AcDbEntity
  8
ASSI
100
AcDbLine
 62
7
  6
CONTINUOUS
 10
129.7099510951
 20
114.028307717
 11
130.3697001904
 21
114.5532792777
  0
LWPOLYLINE
  5
282
100
AcDbEntity
  8
RACCORDO
100
AcDbPolyline
 62
253
  6
CONTINUOUS
 90
16
 70
0
 10
129.7714640896
 20
114.1159016842
 10
129.7443806698
 20
114.0965980294
 10
129.7145832661
 20
114.080654666
 10
129.6822050911
 20
114.0678639006
 10
129.6471163787
 20
114.0579138528
 10
129.6095661729
 20
114.0510125126
 10
129.5704197538
 20
114.0476608154
 10
129.5301822274
 20
114.0476106584
 10
129.488996422
 20
114.0507017954
 10
129.4474894117
 20
114.0573468643
 10
129.4062207488
 20
114.0672166613
 10
129.3655444661
 20
114.0799602996
 10
129.3259268328
 20
114.0959331971
 10
129.2878596466
 20
114.1149740209
 10
129.2517848647
 20
114.1363398533
 10
129.2181021119
 20
114.1594908726
  0
LWPOLYLINE
  5
283
100
AcDbEntity
  8
ASSI
100
AcDbPolyline
 62
253
  6
CONTINUOUS
 90
16
 70
0
 10
129.7714640896
 20
114.1159016842
 10
129.7443806698
 20
114.0965980294
 10
129.7145832661
 20
114.080654666
 10
129.6822050911
 20
114.0678639006
 10
129.6471163787
 20
114.0579138528
 10
129.6095661729
 20
114.0510125126
 10
129.5704197538
 20
114.0476608154
 10
129.5301822274
 20
114.0476106584
 10
129.488996422
 20
114.0507017954
 10
129.4474894117
 20
114.0573468643
 10
129.4062207488
 20
114.0672166613
 10
129.3655444661
 20
114.0799602996
 10
129.3259268328
 20
114.0959331971
 10
129.2878596466
 20
114.1149740209
 10
129.2517848647
 20
114.1363398533
 10
129.2181021119
 20
114.1594908726
  0
LWPOLYLINE
  5
284
100
AcDbEntity
  8
RACCORDO
100
AcDbPolyline
 62
7
  6
CONTINUOUS
 90
14
 70
0
 10
129.9975450995
 20
114.4454493453
 10
130.04356376
 20
114.477981619
 10
130.093213808
 20
114.5044012064
 10
130.1459417721
 20
114.5248651548
 10
130.2029127732
 20
114.5400557228
 10
130.2642405915
 20
114.5498686377
 10
130.3291344734
 20
114.5541050763
 10
130.3975145192
 20
114.5527130597
 10
130.4688612037
 20
114.5456157288
 10
130.5425523554
 20
114.5328471348
 10
130.6185422573
 20
114.5143596378
 10
130.6965155315
 20
114.4901219369
 10
130.7756906842
 20
114.4603190648
 10
130.7946059064
 20
114.4524445253
  0
LWPOLYLINE
  5
285
100
AcDbEntity
  8
ASSI
100
AcDbPolyline
 62
7
  6
CONTINUOUS
 90
14
 70
0
 10
129.9975450995
 20
114.4454493453
 10
130.04356376
 20
114.477981619
 10
130.093213808
 20
114.5044012064
 10
130.1459417721
 20
114.5248651548
 10
130.2029127732
 20
114.5400557228
 10
130.2642405915
 20
114.5498686377
 10
130.3291344734
 20
114.5541050763
 10
130.3975145192
 20
114.5527130597
 10
130.4688612037
 20
114.5456157288
 10
130.5425523554
 20
114.5328471348
 10
130.6185422573
 20
114.5143596378
 10
130.6965155315
 20
114.4901219369
 10
130.7756906842
 20
114.4603190648
 10
130.7946059064
 20
114.4524445253
  0
LINE
  5
286
100
AcDbEntity
  8
0
100
AcDbLine
 62
253
  6
CONTINUOUS
 10
140.4408950085
 20
98.2267995271
 11
140.4963652221
 21
98.2361881258
  0
LINE
  5
287
100
AcDbEntity
  8
0
100
AcDbLine
 62
253
  6
CONTINUOUS
 10
146.8424109333
 20
98.4885779304
 11
146.856636778
 21
98.4903958127
  0
LINE
  5
288
100
AcDbEntity
  8
0
100
AcDbLine
 62
253
  6
CONTINUOUS
 10
143.748814907
 20
98.2254359853
 11
143.76306933
 21
98.2272374906
  0
LINE
  5
289
100
AcDbEntity
  8
0
100
AcDbLine
 62
253
  6
CONTINUOUS
 10
142.3281625885
 20
97.3578871145
 11
142.3423726152
 21
97.3596686035
  0
LINE
  5
28A
100
AcDbEntity
  8
0
100
AcDbLine
 62
253
  6
CONTINUOUS
 10
140.1832339186
 20
98.7092416219
 11
140.145637814
 21
98.7046913108
  0
LINE
  5
28B
100
AcDbEntity
  8
0
100
AcDbLine
 62
253
  6
CONTINUOUS
 10
140.3838470546
 20
98.2210555522
 11
140.4408950085
 21
98.2267995271
  0
LINE
  5
28C
100
AcDbEntity
  8
0
100
AcDbLine
 62
253
  6
CONTINUOUS
 10
140.145637814
 20
98.7046913108
 11
140.1102466857
 21
98.7026977665
  0
LINE
  5
28D
100
AcDbEntity
  8
0
100
AcDbLine
 62
253
  6
CONTINUOUS
 10
140.3252459532
 20
98.2189543571
 11
140.3838470546
 21
98.2210555522
  0
LINE
  5
28E
100
AcDbEntity
  8
0
100
AcDbLine
 62
253
  6
CONTINUOUS
 10
140.1102466857
 20
98.7026977665
 11
140.0724308483
 21
98.7030104582
  0
LINE
  5
28F
100
AcDbEntity
  8
0
100
AcDbLine
 62
253
  6
CONTINUOUS
 10
140.2671093268
 20
98.2205109612
 11
140.3252459532
 21
98.2189543571
  0
LINE
  5
290
100
AcDbEntity
  8
0
100
AcDbLine
 62
253
  6
CONTINUOUS
 10
140.0724308483
 20
98.7030104582
 11
140.0335191602
 21
98.7058904367
  0
LINE
  5
291
100
AcDbEntity
  8
0
100
AcDbLine
 62
253
  6
CONTINUOUS
 10
140.206839082
 20
98.2257487972
 11
140.2671093268
 21
98.2205109612
  0
LINE
  5
292
100
AcDbEntity
  8
0
100
AcDbLine
 62
253
  6
CONTINUOUS
 10
143.9545335021
 20
99.6443399238
 11
143.9699908579
 21
99.6427391535
  0
LINE
  5
293
100
AcDbEntity
  8
0
100
AcDbLine
 62
253
  6
CONTINUOUS
 10
146.8269539229
 20
98.4901789836
 11
146.8424109333
 21
98.4885779304
  0
LINE
  5
294
100
AcDbEntity
  8
0
100
AcDbLine
 62
253
  6
CONTINUOUS
 10
143.7333697771
 20
98.2270417598
 11
143.748814907
 21
98.2254359853
  0
LINE
  5
295
100
AcDbEntity
  8
0
100
AcDbLine
 62
253
  6
CONTINUOUS
 10
146.6058348001
 20
97.0728693556
 11
146.6212890055
 21
97.0712557387
  0
LINE
  5
296
100
AcDbEntity
  8
0
100
AcDbLine
 62
253
  6
CONTINUOUS
 10
140.0335191602
 20
98.7058904367
 11
139.9935207977
 21
98.7113536974
  0
LINE
  5
297
100
AcDbEntity
  8
0
100
AcDbLine
 62
253
  6
CONTINUOUS
 10
140.1444237101
 20
98.2347253208
 11
140.206839082
 21
98.2257487972
  0
LINE
  5
298
100
AcDbEntity
  8
0
100
AcDbLine
 62
253
  6
CONTINUOUS
 10
139.9935207977
 20
98.7113536974
 11
139.9524464545
 21
98.7194220323
  0
LINE
  5
299
100
AcDbEntity
  8
0
100
AcDbLine
 62
253
  6
CONTINUOUS
 10
140.0798507166
 20
98.247507191
 11
140.1444237101
 21
98.2347253208
  0
LINE
  5
29A
100
AcDbEntity
  8
0
100
AcDbLine
 62
253
  6
CONTINUOUS
 10
140.0131123785
 20
98.2641671671
 11
140.0798507166
 21
98.247507191
  0
LINE
  5
29B
100
AcDbEntity
  8
0
100
AcDbLine
 62
253
  6
CONTINUOUS
 10
139.9524464545
 20
98.7194220323
 11
139.9103067416
 21
98.7301220804
  0
LINE
  5
29C
100
AcDbEntity
  8
0
100
AcDbLine
 62
253
  6
CONTINUOUS
 10
143.7171866912
 20
98.2319933778
 11
143.7333697771
 21
98.2270417598
  0
LINE
  5
29D
100
AcDbEntity
  8
0
100
AcDbLine
 62
253
  6
CONTINUOUS
 10
146.810692556
 20
98.4951556583
 11
146.8269539229
 21
98.4901789836
  0
LINE
  5
29E
100
AcDbEntity
  8
0
100
AcDbLine
 62
253
  6
CONTINUOUS
 10
146.5896124476
 20
97.0778378083
 11
146.6058348001
 21
97.0728693556
  0
LINE
  5
29F
100
AcDbEntity
  8
0
100
AcDbLine
 62
253
  6
CONTINUOUS
 10
139.9103067416
 20
98.7301220804
 11
139.8671138082
 21
98.7434854745
  0
LINE
  5
2A0
100
AcDbEntity
  8
0
100
AcDbLine
 62
253
  6
CONTINUOUS
 10
139.8671138082
 20
98.7434854745
 11
139.8228813242
 21
98.7595496468
  0
LINE
  5
2A1
100
AcDbEntity
  8
0
100
AcDbLine
 62
253
  6
CONTINUOUS
 10
139.8228813242
 20
98.7595496468
 11
139.8125819325
 21
98.7636219852
  0
LINE
  5
2A2
100
AcDbEntity
  8
0
100
AcDbLine
 62
253
  6
CONTINUOUS
 10
142.3465666062
 20
98.7825319983
 11
143.7171867538
 21
98.2319904022
  0
LINE
  5
2A3
100
AcDbEntity
  8
0
100
AcDbLine
 62
253
  6
CONTINUOUS
 10
145.2191617571
 20
97.6285226302
 11
146.5896126145
 21
97.0778298855
  0
LINE
  5
2A4
100
AcDbEntity
  8
0
100
AcDbLine
 62
253
  6
CONTINUOUS
 10
143.7082363256
 20
98.6675807435
 11
142.3376163365
 21
99.2181224319
  0
LINE
  5
2A5
100
AcDbEntity
  8
0
100
AcDbLine
 62
253
  6
CONTINUOUS
 10
146.5806609634
 20
97.51341929
 11
145.2102107585
 21
98.0641123572
  0
LINE
  5
2A6
100
AcDbEntity
  8
0
100
AcDbLine
 62
253
  6
CONTINUOUS
 10
139.8125819325
 20
98.7636219852
 11
139.8021853681
 21
98.7678583312
  0
LINE
  5
2A7
100
AcDbEntity
  8
0
100
AcDbLine
 62
253
  6
CONTINUOUS
 10
139.8021853681
 20
98.7678583312
 11
139.7579177889
 21
98.7873275236
  0
LINE
  5
2A8
100
AcDbEntity
  8
0
100
AcDbLine
 62
253
  6
CONTINUOUS
 10
139.7579177889
 20
98.7873275236
 11
139.7145704082
 21
98.8087100075
  0
LINE
  5
2A9
100
AcDbEntity
  8
0
100
AcDbLine
 62
253
  6
CONTINUOUS
 10
141.9487100667
 20
97.5056829472
 11
141.9650403258
 21
97.4975811191
  0
LINE
  5
2AA
100
AcDbEntity
  8
0
100
AcDbLine
 62
253
  6
CONTINUOUS
 10
144.8214416997
 20
96.3517279371
 11
144.837729244
 21
96.3436391191
  0
LINE
  5
2AB
100
AcDbEntity
  8
0
100
AcDbLine
 62
253
  6
CONTINUOUS
 10
143.7244836236
 20
98.6595039452
 11
143.7082362666
 21
98.6675836828
  0
LINE
  5
2AC
100
AcDbEntity
  8
0
100
AcDbLine
 62
253
  6
CONTINUOUS
 10
146.5969474362
 20
97.5053305495
 11
146.5806608063
 21
97.5134271166
  0
LINE
  5
2AD
100
AcDbEntity
  8
0
100
AcDbLine
 62
253
  6
CONTINUOUS
 10
139.7145704082
 20
98.8087100075
 11
139.6721688643
 21
98.8319533693
  0
LINE
  5
2AE
100
AcDbEntity
  8
0
100
AcDbLine
 62
253
  6
CONTINUOUS
 10
139.6721688643
 20
98.8319533693
 11
139.6307346563
 21
98.8570100818
  0
LINE
  5
2AF
100
AcDbEntity
  8
0
100
AcDbLine
 62
253
  6
CONTINUOUS
 10
139.6307346563
 20
98.8570100818
 11
139.5902891632
 21
98.8838390722
  0
LINE
  5
2B0
100
AcDbEntity
  8
0
100
AcDbLine
 62
253
  6
CONTINUOUS
 10
141.933059109
 20
97.5165405575
 11
141.9487100667
 21
97.5056829472
  0
LINE
  5
2B1
100
AcDbEntity
  8
0
100
AcDbLine
 62
253
  6
CONTINUOUS
 10
144.8058045429
 20
96.362587129
 11
144.8214416997
 21
96.3517279371
  0
LINE
  5
2B2
100
AcDbEntity
  8
0
100
AcDbLine
 62
253
  6
CONTINUOUS
 10
139.3771500805
 20
98.5778819832
 11
139.4375402348
 21
98.534747383
  0
LINE
  5
2B3
100
AcDbEntity
  8
0
100
AcDbLine
 62
253
  6
CONTINUOUS
 10
139.5902891632
 20
98.8838390722
 11
139.5508512605
 21
98.912403494
  0
LINE
  5
2B4
100
AcDbEntity
  8
0
100
AcDbLine
 62
253
  6
CONTINUOUS
 10
139.3188820966
 20
98.6229393467
 11
139.3771500805
 21
98.5778819832
  0
LINE
  5
2B5
100
AcDbEntity
  8
0
100
AcDbLine
 62
253
  6
CONTINUOUS
 10
139.5508512605
 20
98.912403494
 11
139.5124380632
 21
98.9426736113
  0
LINE
  5
2B6
100
AcDbEntity
  8
0
100
AcDbLine
 62
253
  6
CONTINUOUS
 10
139.2590788993
 20
98.6728550367
 11
139.3188820966
 21
98.6229393467
  0
LINE
  5
2B7
100
AcDbEntity
  8
0
100
AcDbLine
 62
253
  6
CONTINUOUS
 10
139.5124380632
 20
98.9426736113
 11
139.4760109689
 21
98.9736282718
  0
LINE
  5
2B8
100
AcDbEntity
  8
0
100
AcDbLine
 62
253
  6
CONTINUOUS
 10
139.2006412377
 20
98.7252626496
 11
139.2590788993
 21
98.6728550367
  0
LINE
  5
2B9
100
AcDbEntity
  8
0
100
AcDbLine
 62
253
  6
CONTINUOUS
 10
139.4760109689
 20
98.9736282718
 11
139.4373850548
 21
99.0088446076
  0
LINE
  5
2BA
100
AcDbEntity
  8
0
100
AcDbLine
 62
253
  6
CONTINUOUS
 10
141.9185191551
 20
97.5298518772
 11
141.933059109
 21
97.5165405575
  0
LINE
  5
2BB
100
AcDbEntity
  8
0
100
AcDbLine
 62
253
  6
CONTINUOUS
 10
139.1436084713
 20
98.7801367779
 11
139.2006412377
 21
98.7252626496
  0
LINE
  5
2BC
100
AcDbEntity
  8
0
100
AcDbLine
 62
253
  6
CONTINUOUS
 10
139.4373850548
 20
99.0088446076
 11
139.4007627469
 21
99.0448187395
  0
LINE
  5
2BD
100
AcDbEntity
  8
0
100
AcDbLine
 62
253
  6
CONTINUOUS
 10
139.0880199999
 20
98.8374528663
 11
139.1436084713
 21
98.7801367779
  0
LINE
  5
2BE
100
AcDbEntity
  8
0
100
AcDbLine
 62
253
  6
CONTINUOUS
 10
139.4007627469
 20
99.0448187395
 11
139.3661747855
 21
99.0814597524
  0
LWPOLYLINE
  5
2BF
100
AcDbEntity
  8
RACCORDO
100
AcDbPolyline
 62
7
  6
CONTINUOUS
 90
6
 70
0
 10
124.8760465081
 20
116.0532232301
 10
124.9073388153
 20
116.0190247843
 10
124.9421471833
 20
115.9879415841
 10
124.9802045803
 20
115.9602140298
 10
125.0213656315
 20
115.9360048237
 10
125.0375233567
 20
115.9278857392
  0
LWPOLYLINE
  5
2C0
100
AcDbEntity
  8
ASSI
100
AcDbPolyline
 62
7
  6
CONTINUOUS
 90
6
 70
0
 10
124.8760465081
 20
116.0532232301
 10
124.9073388153
 20
116.0190247843
 10
124.9421471833
 20
115.9879415841
 10
124.9802045803
 20
115.9602140298
 10
125.0213656315
 20
115.9360048237
 10
125.0375233567
 20
115.9278857392
  0
LINE
  5
2C1
100
AcDbEntity
  8
0
100
AcDbLine
 62
253
  6
CONTINUOUS
 10
139.0339208256
 20
98.8971921402
 11
139.0880199999
 21
98.8374528663
  0
LINE
  5
2C2
100
AcDbEntity
  8
0
100
AcDbLine
 62
253
  6
CONTINUOUS
 10
139.3661747855
 20
99.0814597524
 11
139.3336411107
 21
99.1186874375
  0
LINE
  5
2C3
100
AcDbEntity
  8
0
100
AcDbLine
 62
253
  6
CONTINUOUS
 10
141.9060816439
 20
97.5445485003
 11
141.9185191551
 21
97.5298518772
  0
LINE
  5
2C4
100
AcDbEntity
  8
0
100
AcDbLine
 62
253
  6
CONTINUOUS
 10
138.9813617661
 20
98.9593327692
 11
139.0339208256
 21
98.8971921402
  0
LINE
  5
2C5
100
AcDbEntity
  8
0
100
AcDbLine
 62
253
  6
CONTINUOUS
 10
139.3336411107
 20
99.1186874375
 11
139.3031799296
 21
99.1564262621
  0
LINE
  5
2C6
100
AcDbEntity
  8
0
100
AcDbLine
 62
253
  6
CONTINUOUS
 10
138.9303968817
 20
99.0238556754
 11
138.9813617661
 21
98.9593327692
  0
LINE
  5
2C7
100
AcDbEntity
  8
0
100
AcDbLine
 62
253
  6
CONTINUOUS
 10
138.9077181767
 20
99.0540416097
 11
138.9303968817
 21
99.0238556754
  0
LINE
  5
2C8
100
AcDbEntity
  8
0
100
AcDbLine
 62
253
  6
CONTINUOUS
 10
139.3031799296
 20
99.1564262621
 11
139.2748019251
 21
99.1946100832
  0
LINE
  5
2C9
100
AcDbEntity
  8
0
100
AcDbLine
 62
253
  6
CONTINUOUS
 10
138.8756316634
 20
99.0985375002
 11
138.9077181767
 21
99.0540416097
  0
LINE
  5
2CA
100
AcDbEntity
  8
0
100
AcDbLine
 62
253
  6
CONTINUOUS
 10
139.2748019251
 20
99.1946100832
 11
139.2568816573
 21
99.220806893
  0
LINE
  5
2CB
100
AcDbEntity
  8
0
100
AcDbLine
 62
253
  6
CONTINUOUS
 10
138.8340664117
 20
99.1600911911
 11
138.8756316634
 21
99.0985375002
  0
LINE
  5
2CC
100
AcDbEntity
  8
0
100
AcDbLine
 62
253
  6
CONTINUOUS
 10
139.2568816573
 20
99.220806893
 11
139.230116516
 21
99.2627161241
  0
LINE
  5
2CD
100
AcDbEntity
  8
0
100
AcDbLine
 62
253
  6
CONTINUOUS
 10
138.7966363077
 20
99.2203145915
 11
138.8340664117
 21
99.1600911911
  0
LINE
  5
2CE
100
AcDbEntity
  8
0
100
AcDbLine
 62
253
  6
CONTINUOUS
 10
139.230116516
 20
99.2627161241
 11
139.2055559941
 21
99.3047709799
  0
LINE
  5
2CF
100
AcDbEntity
  8
0
100
AcDbLine
 62
253
  6
CONTINUOUS
 10
138.763259522
 20
99.2791355428
 11
138.7966363077
 21
99.2203145915
  0
LINE
  5
2D0
100
AcDbEntity
  8
0
100
AcDbLine
 62
253
  6
CONTINUOUS
 10
138.7338480578
 20
99.336501036
 11
138.763259522
 21
99.2791355428
  0
LINE
  5
2D1
100
AcDbEntity
  8
DRAFT
100
AcDbLine
 62
7
  6
CONTINUOUS
 10
134.2209006444
 20
133.4776939768
 11
134.2599937017
 21
133.0550128012
  0
LINE
  5
2D2
100
AcDbEntity
  8
ASSI
100
AcDbLine
 62
7
  6
CONTINUOUS
 10
134.2209006444
 20
133.4776939768
 11
134.2599937017
 21
133.0550128012
  0
LINE
  5
2D3
100
AcDbEntity
  8
0
100
AcDbLine
 62
253
  6
CONTINUOUS
 10
139.7940053563
 20
119.9928244183
 11
139.769733018
 21
119.9413193395
  0
LINE
  5
2D4
100
AcDbEntity
  8
0
100
AcDbLine
 62
253
  6
CONTINUOUS
 10
139.8208730202
 20
120.0406666132
 11
139.7940053563
 21
119.9928244183
  0
LINE
  5
2D5
100
AcDbEntity
  8
0
100
AcDbLine
 62
253
  6
CONTINUOUS
 10
140.2599823182
 20
119.6424549023
 11
140.2756952975
 21
119.6689233851
  0
LINE
  5
2D6
100
AcDbEntity
  8
0
100
AcDbLine
 62
253
  6
CONTINUOUS
 10
139.8463473724
 20
120.0785244031
 11
139.8208730202
 21
120.0406666132
  0
LINE
  5
2D7
100
AcDbEntity
  8
0
100
AcDbLine
 62
253
  6
CONTINUOUS
 10
140.2756952975
 20
119.6689233851
 11
140.2958035435
 21
119.6966633026
  0
LINE
  5
2D8
100
AcDbEntity
  8
0
100
AcDbLine
 62
253
  6
CONTINUOUS
 10
139.8757356404
 20
120.1148361257
 11
139.8463473724
 21
120.0785244031
  0
LINE
  5
2D9
100
AcDbEntity
  8
0
100
AcDbLine
 62
253
  6
CONTINUOUS
 10
140.2958035435
 20
119.6966633026
 11
140.3183247717
 21
119.7227999023
  0
LINE
  5
2DA
100
AcDbEntity
  8
0
100
AcDbLine
 62
253
  6
CONTINUOUS
 10
139.9091342634
 20
120.1494788639
 11
139.8757356404
 21
120.1148361257
  0
LINE
  5
2DB
100
AcDbEntity
  8
0
100
AcDbLine
 62
253
  6
CONTINUOUS
 10
140.3183247717
 20
119.7227999023
 11
140.3431373626
 21
119.7471083347
  0
LINE
  5
2DC
100
AcDbEntity
  8
0
100
AcDbLine
 62
253
  6
CONTINUOUS
 10
139.9466318772
 20
120.1823151069
 11
139.9091342634
 21
120.1494788639
  0
LWPOLYLINE
  5
2DD
100
AcDbEntity
  8
ASSI
100
AcDbPolyline
 62
253
  6
CONTINUOUS
 90
16
 70
0
 10
130.9488878755
 20
111.9521057582
 10
130.9240918658
 20
111.9307973812
 10
130.8995880627
 20
111.9061665614
 10
130.8756436551
 20
111.878481873
 10
130.8525197325
 20
111.8480451893
 10
130.8304684377
 20
111.8151883914
 10
130.8097302177
 20
111.7802697493
 10
130.7905312018
 20
111.7436700152
 10
130.7730807355
 20
111.7057882721
 10
130.7575690986
 20
111.6670375818
 10
130.7441654297
 20
111.6278404812
 10
130.7330158821
 20
111.5886243748
 10
130.7242420303
 20
111.5498168744
 10
130.7179395443
 20
111.5118411363
 10
130.7141771462
 20
111.4751112474
 10
130.7129958612
 20
111.4400277097
  0
LWPOLYLINE
  5
2DE
100
AcDbEntity
  8
RACCORDO
100
AcDbPolyline
 62
253
  6
CONTINUOUS
 90
16
 70
0
 10
130.9488878755
 20
111.9521057582
 10
130.9240918658
 20
111.9307973812
 10
130.8995880627
 20
111.9061665614
 10
130.8756436551
 20
111.878481873
 10
130.8525197325
 20
111.8480451893
 10
130.8304684377
 20
111.8151883914
 10
130.8097302177
 20
111.7802697493
 10
130.7905312018
 20
111.7436700152
 10
130.7730807355
 20
111.7057882721
 10
130.7575690986
 20
111.6670375818
 10
130.7441654297
 20
111.6278404812
 10
130.7330158821
 20
111.5886243748
 10
130.7242420303
 20
111.5498168744
 10
130.7179395443
 20
111.5118411363
 10
130.7141771462
 20
111.4751112474
 10
130.7129958612
 20
111.4400277097
  0
LINE
  5
2DF
100
AcDbEntity
  8
0
100
AcDbLine
 62
253
  6
CONTINUOUS
 10
140.3431373626
 20
119.7471083347
 11
140.3594021843
 21
119.7610026976
  0
LINE
  5
2E0
100
AcDbEntity
  8
ASSI
100
AcDbLine
 62
253
  6
CONTINUOUS
 10
132.5875877445
 20
113.3148734972
 11
130.9489573686
 21
111.9520765215
  0
LINE
  5
2E1
100
AcDbEntity
  8
RACCORDO
100
AcDbLine
 62
253
  6
CONTINUOUS
 10
132.5875877445
 20
113.3148734972
 11
130.9489573686
 21
111.9520765215
  0
LINE
  5
2E2
100
AcDbEntity
  8
0
100
AcDbLine
 62
253
  6
CONTINUOUS
 10
140.3594021843
 20
119.7610026976
 11
140.387509318
 21
119.7818857048
  0
LINE
  5
2E3
100
AcDbEntity
  8
0
100
AcDbLine
 62
253
  6
CONTINUOUS
 10
139.9883068105
 20
120.2131920595
 11
139.9466318772
 21
120.1823151069
  0
LWPOLYLINE
  5
2E4
100
AcDbEntity
  8
ASSI
100
AcDbPolyline
 62
253
  6
CONTINUOUS
 90
16
 70
0
 10
129.7714640896
 20
113.3549120823
 10
129.7443828306
 20
113.3355018858
 10
129.7145877109
 20
113.3166203067
 10
129.682211839
 20
113.2984833015
 10
129.6471254485
 20
113.2814383312
 10
129.6095774464
 20
113.265551124
 10
129.5704327429
 20
113.2507446325
 10
129.530196218
 20
113.2375865983
 10
129.4890107207
 20
113.2263290727
 10
129.4475032815
 20
113.2165550081
 10
129.4062333834
 20
113.2087101801
 10
129.3655551643
 20
113.2031687189
 10
129.3259351573
 20
113.1993945864
 10
129.2878653306
 20
113.1974319926
 10
129.2517877215
 20
113.1978862257
 10
129.2181021119
 20
113.2010104728
  0
LWPOLYLINE
  5
2E5
100
AcDbEntity
  8
RACCORDO
100
AcDbPolyline
 62
253
  6
CONTINUOUS
 90
16
 70
0
 10
129.7714640896
 20
113.3549120823
 10
129.7443828306
 20
113.3355018858
 10
129.7145877109
 20
113.3166203067
 10
129.682211839
 20
113.2984833015
 10
129.6471254485
 20
113.2814383312
 10
129.6095774464
 20
113.265551124
 10
129.5704327429
 20
113.2507446325
 10
129.530196218
 20
113.2375865983
 10
129.4890107207
 20
113.2263290727
 10
129.4475032815
 20
113.2165550081
 10
129.4062333834
 20
113.2087101801
 10
129.3655551643
 20
113.2031687189
 10
129.3259351573
 20
113.1993945864
 10
129.2878653306
 20
113.1974319926
 10
129.2517877215
 20
113.1978862257
 10
129.2181021119
 20
113.2010104728
  0
LINE
  5
2E6
100
AcDbEntity
  8
0
100
AcDbLine
 62
253
  6
CONTINUOUS
 10
140.0201407284
 20
120.23363615
 11
139.9883068105
 21
120.2131920595
  0
LINE
  5
2E7
100
AcDbEntity
  8
0
100
AcDbLine
 62
253
  6
CONTINUOUS
 10
140.387509318
 20
119.7818857048
 11
140.4162023488
 21
119.7989385949
  0
LINE
  5
2E8
100
AcDbEntity
  8
0
100
AcDbLine
 62
253
  6
CONTINUOUS
 10
140.042936084
 20
120.2468839033
 11
140.0201407284
 21
120.23363615
  0
LINE
  5
2E9
100
AcDbEntity
  8
0
100
AcDbLine
 62
253
  6
CONTINUOUS
 10
140.0940252772
 20
120.2730830629
 11
140.042936084
 21
120.2468839033
  0
LINE
  5
2EA
100
AcDbEntity
  8
0
100
AcDbLine
 62
253
  6
CONTINUOUS
 10
140.4162023488
 20
119.7989385949
 11
140.446838584
 21
119.81371927
  0
LINE
  5
2EB
100
AcDbEntity
  8
0
100
AcDbLine
 62
253
  6
CONTINUOUS
 10
140.146649335
 20
120.2954302321
 11
140.0940252772
 21
120.2730830629
  0
LINE
  5
2EC
100
AcDbEntity
  8
0
100
AcDbLine
 62
253
  6
CONTINUOUS
 10
140.446838584
 20
119.81371927
 11
140.4794327797
 21
119.826196243
  0
LINE
  5
2ED
100
AcDbEntity
  8
0
100
AcDbLine
 62
253
  6
CONTINUOUS
 10
140.2007651155
 20
120.3139559966
 11
140.146649335
 21
120.2954302321
  0
LINE
  5
2EE
100
AcDbEntity
  8
RACCORDO
100
AcDbLine
 62
7
  6
CONTINUOUS
 10
156.4389872798
 20
124.2539032634
 11
156.8619673787
 21
124.3845311454
  0
LINE
  5
2EF
100
AcDbEntity
  8
ASSI
100
AcDbLine
 62
7
  6
CONTINUOUS
 10
156.4389872798
 20
124.2539032634
 11
156.8619673787
 21
124.3845311454
  0
LINE
  5
2F0
100
AcDbEntity
  8
0
100
AcDbLine
 62
253
  6
CONTINUOUS
 10
140.4794327797
 20
119.826196243
 11
140.5140027353
 21
119.8363258708
  0
LINE
  5
2F1
100
AcDbEntity
  8
0
100
AcDbLine
 62
253
  6
CONTINUOUS
 10
140.2521709613
 20
98.7254632872
 11
140.2187366196
 21
98.7161840063
  0
LINE
  5
2F2
100
AcDbEntity
  8
0
100
AcDbLine
 62
253
  6
CONTINUOUS
 10
140.4963652221
 20
98.2361881258
 11
140.5502289888
 21
98.2492280993
  0
LINE
  5
2F3
100
AcDbEntity
  8
0
100
AcDbLine
 62
253
  6
CONTINUOUS
 10
140.2187366196
 20
98.7161840063
 11
140.1832339186
 21
98.7092416219
  0
LINE
  5
2F4
100
AcDbEntity
  8
0
100
AcDbLine
 62
253
  6
CONTINUOUS
 10
144.7363036566
 20
99.7562816202
 11
144.7220605412
 21
99.7544527607
  0
LINE
  5
2F5
100
AcDbEntity
  8
0
100
AcDbLine
 62
253
  6
CONTINUOUS
 10
141.8635613648
 20
100.9102449949
 11
141.8493256857
 21
100.9084190566
  0
LINE
  5
2F6
100
AcDbEntity
  8
0
100
AcDbLine
 62
253
  6
CONTINUOUS
 10
143.9699908579
 20
99.6427391535
 11
143.9842177816
 21
99.6445569197
  0
LINE
  5
2F7
100
AcDbEntity
  8
0
100
AcDbLine
 62
253
  6
CONTINUOUS
 10
139.4260845682
 20
101.4144355349
 11
139.4617765113
 21
101.4164754711
  0
LINE
  5
2F8
100
AcDbEntity
  8
0
100
AcDbLine
 62
253
  6
CONTINUOUS
 10
139.4617765113
 20
101.4164754711
 11
139.4993457439
 21
101.4163049746
  0
LINE
  5
2F9
100
AcDbEntity
  8
0
100
AcDbLine
 62
253
  6
CONTINUOUS
 10
139.3090185562
 20
101.9002122975
 11
139.2517415923
 21
101.9013574368
  0
LINE
  5
2FA
100
AcDbEntity
  8
0
100
AcDbLine
 62
253
  6
CONTINUOUS
 10
139.4993457439
 20
101.4163049746
 11
139.538056631
 21
101.4135601052
  0
LINE
  5
2FB
100
AcDbEntity
  8
0
100
AcDbLine
 62
253
  6
CONTINUOUS
 10
139.3685482262
 20
101.895371637
 11
139.3090185562
 21
101.9002122975
  0
LINE
  5
2FC
100
AcDbEntity
  8
0
100
AcDbLine
 62
253
  6
CONTINUOUS
 10
144.7517541765
 20
99.754692346
 11
144.7363036566
 21
99.7562816202
  0
LINE
  5
2FD
100
AcDbEntity
  8
0
100
AcDbLine
 62
253
  6
CONTINUOUS
 10
141.8790259074
 20
100.9086501117
 11
141.8635613648
 21
100.9102449949
  0
LINE
  5
2FE
100
AcDbEntity
  8
0
100
AcDbLine
 62
253
  6
CONTINUOUS
 10
139.538056631
 20
101.4135601052
 11
139.5779004178
 21
101.4082192978
  0
LINE
  5
2FF
100
AcDbEntity
  8
0
100
AcDbLine
 62
253
  6
CONTINUOUS
 10
139.4303403444
 20
101.8867660844
 11
139.3685482262
 21
101.895371637
  0
LINE
  5
300
100
AcDbEntity
  8
0
100
AcDbLine
 62
253
  6
CONTINUOUS
 10
139.4944023198
 20
101.8743224424
 11
139.4303403444
 21
101.8867660844
  0
LINE
  5
301
100
AcDbEntity
  8
0
100
AcDbLine
 62
253
  6
CONTINUOUS
 10
139.5779004178
 20
101.4082192978
 11
139.6188667815
 21
101.4002592453
  0
LINE
  5
302
100
AcDbEntity
  8
0
100
AcDbLine
 62
253
  6
CONTINUOUS
 10
139.5607352414
 20
101.8579588688
 11
139.4944023198
 21
101.8743224424
  0
LINE
  5
303
100
AcDbEntity
  8
0
100
AcDbLine
 62
253
  6
CONTINUOUS
 10
139.6188667815
 20
101.4002592453
 11
139.660944751
 21
101.389648918
  0
LINE
  5
304
100
AcDbEntity
  8
0
100
AcDbLine
 62
253
  6
CONTINUOUS
 10
139.6293362065
 20
101.8375919748
 11
139.5607352414
 21
101.8579588688
  0
LINE
  5
305
100
AcDbEntity
  8
0
100
AcDbLine
 62
253
  6
CONTINUOUS
 10
144.7679775914
 20
99.7497325828
 11
144.7517541765
 21
99.754692346
  0
LINE
  5
306
100
AcDbEntity
  8
0
100
AcDbLine
 62
253
  6
CONTINUOUS
 10
141.8952921097
 20
100.9036773979
 11
141.8790259074
 21
100.9086501117
  0
LINE
  5
307
100
AcDbEntity
  8
0
100
AcDbLine
 62
253
  6
CONTINUOUS
 10
143.9382717099
 20
99.6493162502
 11
143.9545335021
 21
99.6443399238
  0
LINE
  5
308
100
AcDbEntity
  8
0
100
AcDbLine
 62
253
  6
CONTINUOUS
 10
139.660944751
 20
101.389648918
 11
139.7041185972
 21
101.3763520163
  0
LINE
  5
309
100
AcDbEntity
  8
0
100
AcDbLine
 62
253
  6
CONTINUOUS
 10
139.7001943229
 20
101.8131328164
 11
139.6293362065
 21
101.8375919748
  0
LINE
  5
30A
100
AcDbEntity
  8
0
100
AcDbLine
 62
253
  6
CONTINUOUS
 10
139.7041185972
 20
101.3763520163
 11
139.7483726509
 21
101.3603306514
  0
LINE
  5
30B
100
AcDbEntity
  8
0
100
AcDbLine
 62
253
  6
CONTINUOUS
 10
139.752029461
 20
101.7931694237
 11
139.7001943229
 21
101.8131328164
  0
LINE
  5
30C
100
AcDbEntity
  8
0
100
AcDbLine
 62
253
  6
CONTINUOUS
 10
139.7483726509
 20
101.3603306514
 11
139.7594940043
 21
101.3559384544
  0
LINE
  5
30D
100
AcDbEntity
  8
0
100
AcDbLine
 62
253
  6
CONTINUOUS
 10
142.3172201469
 20
100.3004654222
 11
143.9382717813
 21
99.6493122044
  0
LINE
  5
30E
100
AcDbEntity
  8
0
100
AcDbLine
 62
253
  6
CONTINUOUS
 10
145.1898180035
 20
99.146459128
 11
146.8106927067
 21
98.4951471101
  0
LINE
  5
30F
100
AcDbEntity
  8
0
100
AcDbLine
 62
253
  6
CONTINUOUS
 10
143.9307834727
 20
100.0861032986
 11
141.8952921278
 21
100.9036763141
  0
LINE
  5
310
100
AcDbEntity
  8
0
100
AcDbLine
 62
253
  6
CONTINUOUS
 10
146.8032103855
 20
98.9319380091
 11
144.7679774107
 21
99.7497434306
  0
LINE
  5
311
100
AcDbEntity
  8
0
100
AcDbLine
 62
253
  6
CONTINUOUS
 10
139.7594940043
 20
101.3559384544
 11
139.7705031808
 21
101.3514485585
  0
LINE
  5
312
100
AcDbEntity
  8
0
100
AcDbLine
 62
253
  6
CONTINUOUS
 10
139.8024909963
 20
101.7721164947
 11
139.752029461
 21
101.7931694237
  0
LINE
  5
313
100
AcDbEntity
  8
0
100
AcDbLine
 62
253
  6
CONTINUOUS
 10
139.7705031808
 20
101.3514485585
 11
139.8148859031
 21
101.3318979303
  0
LINE
  5
314
100
AcDbEntity
  8
0
100
AcDbLine
 62
253
  6
CONTINUOUS
 10
139.8737473362
 20
101.7395898943
 11
139.8024909963
 21
101.7721164947
  0
LINE
  5
315
100
AcDbEntity
  8
0
100
AcDbLine
 62
253
  6
CONTINUOUS
 10
139.8148859031
 20
101.3318979303
 11
139.8582317507
 21
101.3104750842
  0
LINE
  5
316
100
AcDbEntity
  8
0
100
AcDbLine
 62
253
  6
CONTINUOUS
 10
143.9470990627
 20
100.0779904646
 11
143.930783456
 21
100.0861042953
  0
LINE
  5
317
100
AcDbEntity
  8
0
100
AcDbLine
 62
253
  6
CONTINUOUS
 10
146.819525355
 20
98.923834334
 11
146.8032102101
 21
98.9319485429
  0
LINE
  5
318
100
AcDbEntity
  8
0
100
AcDbLine
 62
253
  6
CONTINUOUS
 10
139.9429458028
 20
101.7046927194
 11
139.8737473362
 21
101.7395898943
  0
LINE
  5
319
100
AcDbEntity
  8
0
100
AcDbLine
 62
253
  6
CONTINUOUS
 10
139.8582317507
 20
101.3104750842
 11
139.9005432956
 21
101.2872223612
  0
LINE
  5
31A
100
AcDbEntity
  8
0
100
AcDbLine
 62
253
  6
CONTINUOUS
 10
140.0100826776
 20
101.6675109348
 11
139.9429458028
 21
101.7046927194
  0
LINE
  5
31B
100
AcDbEntity
  8
0
100
AcDbLine
 62
253
  6
CONTINUOUS
 10
140.075160104
 20
101.6281242116
 11
140.0100826776
 21
101.6675109348
  0
LINE
  5
31C
100
AcDbEntity
  8
0
100
AcDbLine
 62
253
  6
CONTINUOUS
 10
139.9005432956
 20
101.2872223612
 11
139.941828143
 21
101.2621753104
  0
LINE
  5
31D
100
AcDbEntity
  8
0
100
AcDbLine
 62
253
  6
CONTINUOUS
 10
140.1381829132
 20
101.5866007735
 11
140.075160104
 21
101.6281242116
  0
LINE
  5
31E
100
AcDbEntity
  8
0
100
AcDbLine
 62
253
  6
CONTINUOUS
 10
139.941828143
 20
101.2621753104
 11
139.9820916269
 21
101.2353616098
  0
LINE
  5
31F
100
AcDbEntity
  8
0
100
AcDbLine
 62
253
  6
CONTINUOUS
 10
146.6125856851
 20
97.4944447947
 11
146.5969474362
 21
97.5053305495
  0
LINE
  5
320
100
AcDbEntity
  8
0
100
AcDbLine
 62
253
  6
CONTINUOUS
 10
143.7401121025
 20
98.6486190916
 11
143.7244836236
 21
98.6595039452
  0
LINE
  5
321
100
AcDbEntity
  8
0
100
AcDbLine
 62
253
  6
CONTINUOUS
 10
143.9627156772
 20
100.0671015412
 11
143.9470990627
 21
100.0779904646
  0
LINE
  5
322
100
AcDbEntity
  8
0
100
AcDbLine
 62
253
  6
CONTINUOUS
 10
146.8351415036
 20
98.9129450289
 11
146.819525355
 21
98.923834334
  0
LINE
  5
323
100
AcDbEntity
  8
0
100
AcDbLine
 62
253
  6
CONTINUOUS
 10
140.1991626357
 20
101.5430005978
 11
140.1381829132
 21
101.5866007735
  0
LINE
  5
324
100
AcDbEntity
  8
0
100
AcDbLine
 62
253
  6
CONTINUOUS
 10
139.9820916269
 20
101.2353616098
 11
140.0213425309
 21
101.2067995716
  0
LINE
  5
325
100
AcDbEntity
  8
0
100
AcDbLine
 62
253
  6
CONTINUOUS
 10
140.2581085541
 20
101.4973749909
 11
140.1991626357
 21
101.5430005978
  0
LINE
  5
326
100
AcDbEntity
  8
0
100
AcDbLine
 62
253
  6
CONTINUOUS
 10
140.0213425309
 20
101.2067995716
 11
140.0595865331
 21
101.1765007726
  0
LINE
  5
327
100
AcDbEntity
  8
0
100
AcDbLine
 62
253
  6
CONTINUOUS
 10
140.3178276609
 20
101.4475029828
 11
140.2581085541
 21
101.4973749909
  0
LINE
  5
328
100
AcDbEntity
  8
0
100
AcDbLine
 62
253
  6
CONTINUOUS
 10
140.0595865331
 20
101.1765007726
 11
140.0941584671
 21
101.1470176485
  0
LINE
  5
329
100
AcDbEntity
  8
0
100
AcDbLine
 62
253
  6
CONTINUOUS
 10
140.3761427356
 20
101.395140528
 11
140.3178276609
 21
101.4475029828
  0
LINE
  5
32A
100
AcDbEntity
  8
0
100
AcDbLine
 62
253
  6
CONTINUOUS
 10
140.0941584671
 20
101.1470176485
 11
140.1325938703
 21
101.1118630324
  0
LINE
  5
32B
100
AcDbEntity
  8
0
100
AcDbLine
 62
253
  6
CONTINUOUS
 10
144.7912574593
 20
96.3759160765
 11
144.8058045429
 21
96.362587129
  0
LINE
  5
32C
100
AcDbEntity
  8
0
100
AcDbLine
 62
253
  6
CONTINUOUS
 10
146.627129192
 20
97.4810748216
 11
146.6125856851
 21
97.4944447947
  0
LINE
  5
32D
100
AcDbEntity
  8
0
100
AcDbLine
 62
253
  6
CONTINUOUS
 10
143.7546663624
 20
98.6352352779
 11
143.7401121025
 21
98.6486190916
  0
LINE
  5
32E
100
AcDbEntity
  8
0
100
AcDbLine
 62
253
  6
CONTINUOUS
 10
143.9772028704
 20
100.0537390025
 11
143.9627156772
 21
100.0671015412
  0
LINE
  5
32F
100
AcDbEntity
  8
0
100
AcDbLine
 62
253
  6
CONTINUOUS
 10
140.4330188971
 20
101.3403167983
 11
140.3761427356
 21
101.395140528
  0
LINE
  5
330
100
AcDbEntity
  8
0
100
AcDbLine
 62
253
  6
CONTINUOUS
 10
140.1325938703
 20
101.1118630324
 11
140.1691682271
 21
101.0757948341
  0
LINE
  5
331
100
AcDbEntity
  8
0
100
AcDbLine
 62
253
  6
CONTINUOUS
 10
140.4884140184
 20
101.2830599341
 11
140.4330188971
 21
101.3403167983
  0
LINE
  5
332
100
AcDbEntity
  8
0
100
AcDbLine
 62
253
  6
CONTINUOUS
 10
140.1691682271
 20
101.0757948341
 11
140.2038494199
 21
101.0388943724
  0
LINE
  5
333
100
AcDbEntity
  8
0
100
AcDbLine
 62
253
  6
CONTINUOUS
 10
140.5422819768
 20
101.2233973457
 11
140.4884140184
 21
101.2830599341
  0
LINE
  5
334
100
AcDbEntity
  8
0
100
AcDbLine
 62
253
  6
CONTINUOUS
 10
140.2038494199
 20
101.0388943724
 11
140.2366086551
 21
101.0012392315
  0
LINE
  5
335
100
AcDbEntity
  8
0
100
AcDbLine
 62
253
  6
CONTINUOUS
 10
144.7787931673
 20
96.3906519749
 11
144.7912574593
 21
96.3759160765
  0
LINE
  5
336
100
AcDbEntity
  8
0
100
AcDbLine
 62
253
  6
CONTINUOUS
 10
140.5945726823
 20
101.1613540973
 11
140.5422819768
 21
101.2233973457
  0
LINE
  5
337
100
AcDbEntity
  8
0
100
AcDbLine
 62
253
  6
CONTINUOUS
 10
143.767193786
 20
98.6203509128
 11
143.7546663624
 21
98.6352352779
  0
LINE
  5
338
100
AcDbEntity
  8
0
100
AcDbLine
 62
253
  6
CONTINUOUS
 10
140.2366086551
 20
101.0012392315
 11
140.2674220859
 21
100.9629034092
  0
LINE
  5
339
100
AcDbEntity
  8
0
100
AcDbLine
 62
253
  6
CONTINUOUS
 10
140.6452328418
 20
101.0969558104
 11
140.5945726823
 21
101.1613540973
  0
LINE
  5
33A
100
AcDbEntity
  8
0
100
AcDbLine
 62
253
  6
CONTINUOUS
 10
140.6700100892
 20
101.0637759468
 11
140.6452328418
 21
101.0969558104
  0
LINE
  5
33B
100
AcDbEntity
  8
0
100
AcDbLine
 62
253
  6
CONTINUOUS
 10
140.2674220859
 20
100.9629034092
 11
140.2962668158
 21
100.9239533098
  0
LINE
  5
33C
100
AcDbEntity
  8
0
100
AcDbLine
 62
253
  6
CONTINUOUS
 10
140.700211676
 20
101.0214999789
 11
140.6700100892
 21
101.0637759468
  0
LINE
  5
33D
100
AcDbEntity
  8
0
100
AcDbLine
 62
253
  6
CONTINUOUS
 10
140.2962668158
 20
100.9239533098
 11
140.3134099736
 21
100.8986789848
  0
LINE
  5
33E
100
AcDbEntity
  8
0
100
AcDbLine
 62
253
  6
CONTINUOUS
 10
140.7417354469
 20
100.9595045106
 11
140.700211676
 21
101.0214999789
  0
LINE
  5
33F
100
AcDbEntity
  8
0
100
AcDbLine
 62
253
  6
CONTINUOUS
 10
141.8953333959
 20
97.5611496734
 11
141.9060816439
 21
97.5445485003
  0
LINE
  5
340
100
AcDbEntity
  8
0
100
AcDbLine
 62
253
  6
CONTINUOUS
 10
140.3134099736
 20
100.8986789848
 11
140.3402915232
 21
100.8562937152
  0
LINE
  5
341
100
AcDbEntity
  8
0
100
AcDbLine
 62
253
  6
CONTINUOUS
 10
140.7792020024
 20
100.8987200537
 11
140.7417354469
 21
100.9595045106
  0
LINE
  5
342
100
AcDbEntity
  8
0
100
AcDbLine
 62
253
  6
CONTINUOUS
 10
140.3402915232
 20
100.8562937152
 11
140.3649272773
 21
100.8138272405
  0
LINE
  5
343
100
AcDbEntity
  8
0
100
AcDbLine
 62
253
  6
CONTINUOUS
 10
140.8126799203
 20
100.8392322844
 11
140.7792020024
 21
100.8987200537
  0
LINE
  5
344
100
AcDbEntity
  8
0
100
AcDbLine
 62
253
  6
CONTINUOUS
 10
139.2055559941
 20
99.3047709799
 11
139.1832581607
 21
99.3468193251
  0
LINE
  5
345
100
AcDbEntity
  8
0
100
AcDbLine
 62
253
  6
CONTINUOUS
 10
140.3649272773
 20
100.8138272405
 11
140.3872659485
 21
100.7714277939
  0
LINE
  5
346
100
AcDbEntity
  8
0
100
AcDbLine
 62
253
  6
CONTINUOUS
 10
139.1832581607
 20
99.3468193251
 11
139.1632703286
 21
99.3887164901
  0
LINE
  5
347
100
AcDbEntity
  8
0
100
AcDbLine
 62
253
  6
CONTINUOUS
 10
140.3872659485
 20
100.7714277939
 11
140.4072660628
 21
100.7292388278
  0
LINE
  5
348
100
AcDbEntity
  8
0
100
AcDbLine
 62
253
  6
CONTINUOUS
 10
138.7083061019
 20
99.3923786814
 11
138.7338480578
 21
99.336501036
  0
LINE
  5
349
100
AcDbEntity
  8
0
100
AcDbLine
 62
253
  6
CONTINUOUS
 10
139.1632703286
 20
99.3887164901
 11
139.1477255908
 21
99.4255517758
  0
LINE
  5
34A
100
AcDbEntity
  8
0
100
AcDbLine
 62
253
  6
CONTINUOUS
 10
138.6816014087
 20
99.4580263726
 11
138.7083061019
 21
99.3923786814
  0
LINE
  5
34B
100
AcDbEntity
  8
0
100
AcDbLine
 62
253
  6
CONTINUOUS
 10
139.1477255908
 20
99.4255517758
 11
139.1329665045
 21
99.465861421
  0
LINE
  5
34C
100
AcDbEntity
  8
0
100
AcDbLine
 62
253
  6
CONTINUOUS
 10
138.6574657013
 20
99.5251755274
 11
138.6816014087
 21
99.4580263726
  0
LINE
  5
34D
100
AcDbEntity
  8
0
100
AcDbLine
 62
253
  6
CONTINUOUS
 10
139.1329665045
 20
99.465861421
 11
139.1191465753
 21
99.5097562877
  0
LINE
  5
34E
100
AcDbEntity
  8
0
100
AcDbLine
 62
253
  6
CONTINUOUS
 10
138.6360354693
 20
99.5936506213
 11
138.6574657013
 21
99.5251755274
  0
LINE
  5
34F
100
AcDbEntity
  8
0
100
AcDbLine
 62
253
  6
CONTINUOUS
 10
139.1191465753
 20
99.5097562877
 11
139.1064342589
 21
99.5573031651
  0
LINE
  5
350
100
AcDbEntity
  8
0
100
AcDbLine
 62
253
  6
CONTINUOUS
 10
138.6174435322
 20
99.6632576446
 11
138.6360354693
 21
99.5936506213
  0
LINE
  5
351
100
AcDbEntity
  8
0
100
AcDbLine
 62
253
  6
CONTINUOUS
 10
138.6021646859
 20
99.7320468396
 11
138.6174435322
 21
99.6632576446
  0
LINE
  5
352
100
AcDbEntity
  8
0
100
AcDbLine
 62
253
  6
CONTINUOUS
 10
139.0734246433
 20
99.7438803188
 11
139.065186224
 21
99.8193721353
  0
LINE
  5
353
100
AcDbEntity
  8
0
100
AcDbLine
 62
253
  6
CONTINUOUS
 10
138.5656305133
 20
99.9884893887
 11
138.5752489938
 21
99.8981552092
  0
LINE
  5
354
100
AcDbEntity
  8
0
100
AcDbLine
 62
253
  6
CONTINUOUS
 10
139.065186224
 20
99.8193721353
 11
139.0584154771
 21
99.9033148082
  0
LINE
  5
355
100
AcDbEntity
  8
0
100
AcDbLine
 62
253
  6
CONTINUOUS
 10
138.5589247935
 20
100.083154679
 11
138.5656305133
 21
99.9884893887
  0
LINE
  5
356
100
AcDbEntity
  8
0
100
AcDbLine
 62
253
  6
CONTINUOUS
 10
139.0584154771
 20
99.9033148082
 11
139.0572755128
 21
99.9208809856
  0
LINE
  5
357
100
AcDbEntity
  8
0
100
AcDbLine
 62
253
  6
CONTINUOUS
 10
139.0572755128
 20
99.9208809856
 11
139.0507204607
 21
100.040523176
  0
LINE
  5
358
100
AcDbEntity
  8
0
100
AcDbLine
 62
253
  6
CONTINUOUS
 10
138.5576964648
 20
100.1082304698
 11
138.5589247935
 21
100.083154679
  0
LINE
  5
359
100
AcDbEntity
  8
0
100
AcDbLine
 62
253
  6
CONTINUOUS
 10
138.5493512162
 20
100.3247272297
 11
138.5576964648
 21
100.1082304698
  0
LINE
  5
35A
100
AcDbEntity
  8
0
100
AcDbLine
 62
253
  6
CONTINUOUS
 10
139.0507204607
 20
100.040523176
 11
139.044954505
 21
100.1911826867
  0
LINE
  5
35B
100
AcDbEntity
  8
0
100
AcDbLine
 62
253
  6
CONTINUOUS
 10
138.5433953481
 20
100.5563319771
 11
138.5493512162
 21
100.3247272297
  0
LINE
  5
35C
100
AcDbEntity
  8
0
100
AcDbLine
 62
253
  6
CONTINUOUS
 10
139.044954505
 20
100.1911826867
 11
139.0407199808
 21
100.3566904666
  0
LINE
  5
35D
100
AcDbEntity
  8
0
100
AcDbLine
 62
253
  6
CONTINUOUS
 10
139.0407199808
 20
100.3566904666
 11
139.038191876
 21
100.5211915832
  0
LINE
  5
35E
100
AcDbEntity
  8
0
100
AcDbLine
 62
253
  6
CONTINUOUS
 10
138.5398838428
 20
100.7869182626
 11
138.5433953481
 21
100.5563319771
  0
LINE
  5
35F
100
AcDbEntity
  8
0
100
AcDbLine
 62
253
  6
CONTINUOUS
 10
138.5394133416
 20
101.0009692988
 11
138.5398838428
 21
100.7869182626
  0
LINE
  5
360
100
AcDbEntity
  8
0
100
AcDbLine
 62
253
  6
CONTINUOUS
 10
138.5396169922
 20
101.0248184146
 11
138.5394133416
 21
101.0009692988
  0
LINE
  5
361
100
AcDbEntity
  8
0
100
AcDbLine
 62
253
  6
CONTINUOUS
 10
138.5425033185
 20
101.1158866768
 11
138.5396169922
 21
101.0248184146
  0
LINE
  5
362
100
AcDbEntity
  8
0
100
AcDbLine
 62
253
  6
CONTINUOUS
 10
139.6879109372
 20
119.6177868829
 11
139.6782445573
 21
119.5306415881
  0
LINE
  5
363
100
AcDbEntity
  8
0
100
AcDbLine
 62
253
  6
CONTINUOUS
 10
139.7001615793
 20
119.6974447064
 11
139.6879109372
 21
119.6177868829
  0
LINE
  5
364
100
AcDbEntity
  8
0
100
AcDbLine
 62
253
  6
CONTINUOUS
 10
140.1951821424
 20
119.4306064757
 11
140.2056953386
 21
119.4856404839
  0
LINE
  5
365
100
AcDbEntity
  8
0
100
AcDbLine
 62
253
  6
CONTINUOUS
 10
139.7147309869
 20
119.7696418527
 11
139.7001615793
 21
119.6974447064
  0
LINE
  5
366
100
AcDbEntity
  8
0
100
AcDbLine
 62
253
  6
CONTINUOUS
 10
140.2056953386
 20
119.4856404839
 11
140.2070772173
 21
119.4918472543
  0
LINE
  5
367
100
AcDbEntity
  8
0
100
AcDbLine
 62
253
  6
CONTINUOUS
 10
140.2070772173
 20
119.4918472543
 11
140.218483425
 21
119.536611238
  0
LINE
  5
368
100
AcDbEntity
  8
0
100
AcDbLine
 62
253
  6
CONTINUOUS
 10
139.7295541796
 20
119.8277756765
 11
139.7147309869
 21
119.7696418527
  0
LINE
  5
369
100
AcDbEntity
  8
0
100
AcDbLine
 62
253
  6
CONTINUOUS
 10
139.7482023261
 20
119.8862604279
 11
139.7295541796
 21
119.8277756765
  0
LINE
  5
36A
100
AcDbEntity
  8
0
100
AcDbLine
 62
253
  6
CONTINUOUS
 10
140.218483425
 20
119.536611238
 11
140.231218517
 21
119.5765136895
  0
LWPOLYLINE
  5
36B
100
AcDbEntity
  8
ASSI
100
AcDbPolyline
 62
253
  6
CONTINUOUS
 90
13
 70
0
 10
137.2734599992
 20
110.1561004289
 10
137.2705938285
 20
110.1474375072
 10
137.2643206292
 20
110.1193250236
 10
137.2621831561
 20
110.0899748076
 10
137.264268434
 20
110.0600604779
 10
137.2706030761
 20
110.0298294141
 10
137.2809973476
 20
109.9992411485
 10
137.2953732973
 20
109.9689593724
 10
137.3136497402
 20
109.9394854053
 10
137.3355485511
 20
109.9106240906
 10
137.3608338712
 20
109.882705762
 10
137.389278171
 20
109.8565557535
 10
137.4205512833
 20
109.8327049906
  0
LWPOLYLINE
  5
36C
100
AcDbEntity
  8
RACCORDO
100
AcDbPolyline
 62
253
  6
CONTINUOUS
 90
13
 70
0
 10
137.2734599992
 20
110.1561004289
 10
137.2705938285
 20
110.1474375072
 10
137.2643206292
 20
110.1193250236
 10
137.2621831561
 20
110.0899748076
 10
137.264268434
 20
110.0600604779
 10
137.2706030761
 20
110.0298294141
 10
137.2809973476
 20
109.9992411485
 10
137.2953732973
 20
109.9689593724
 10
137.3136497402
 20
109.9394854053
 10
137.3355485511
 20
109.9106240906
 10
137.3608338712
 20
109.882705762
 10
137.389278171
 20
109.8565557535
 10
137.4205512833
 20
109.8327049906
  0
LINE
  5
36D
100
AcDbEntity
  8
ASSI
100
AcDbLine
 62
7
  6
CONTINUOUS
 10
137.2736233898
 20
110.1565551045
 11
137.2734599992
 21
110.1561004289
  0
LINE
  5
36E
100
AcDbEntity
  8
RACCORDO
100
AcDbLine
 62
7
  6
CONTINUOUS
 10
137.2736233898
 20
110.1565551045
 11
137.2734599992
 21
110.1561004289
  0
LWPOLYLINE
  5
36F
100
AcDbEntity
  8
ASSI
100
AcDbPolyline
 62
7
  6
CONTINUOUS
 90
8
 70
0
 10
137.2735759206
 20
110.156449358
 10
137.2687964984
 20
110.1435487941
 10
137.2478878934
 20
110.094678072
 10
137.2236144141
 20
110.0489525142
 10
137.1961340328
 20
110.0068107026
 10
137.1653706085
 20
109.9681929079
 10
137.1307811993
 20
109.9327159991
 10
137.1128191327
 20
109.9169232806
  0
LWPOLYLINE
  5
370
100
AcDbEntity
  8
RACCORDO
100
AcDbPolyline
 62
7
  6
CONTINUOUS
 90
8
 70
0
 10
137.2735759206
 20
110.156449358
 10
137.2687964984
 20
110.1435487941
 10
137.2478878934
 20
110.094678072
 10
137.2236144141
 20
110.0489525142
 10
137.1961340328
 20
110.0068107026
 10
137.1653706085
 20
109.9681929079
 10
137.1307811993
 20
109.9327159991
 10
137.1128191327
 20
109.9169232806
  0
LWPOLYLINE
  5
371
100
AcDbEntity
  8
ASSI
100
AcDbPolyline
 62
7
  6
CONTINUOUS
 90
9
 70
0
 10
137.2734599992
 20
110.1561004289
 10
137.2779165601
 20
110.1679345086
 10
137.2892280304
 20
110.1938649036
 10
137.302277167
 20
110.2188133581
 10
137.3170049146
 20
110.2427159606
 10
137.3334349804
 20
110.2656067718
 10
137.3515262382
 20
110.2873855116
 10
137.371140647
 20
110.3078571173
 10
137.3921633979
 20
110.3268943609
  0
LWPOLYLINE
  5
372
100
AcDbEntity
  8
RACCORDO
100
AcDbPolyline
 62
7
  6
CONTINUOUS
 90
9
 70
0
 10
137.2734599992
 20
110.1561004289
 10
137.2779165601
 20
110.1679345086
 10
137.2892280304
 20
110.1938649036
 10
137.302277167
 20
110.2188133581
 10
137.3170049146
 20
110.2427159606
 10
137.3334349804
 20
110.2656067718
 10
137.3515262382
 20
110.2873855116
 10
137.371140647
 20
110.3078571173
 10
137.3921633979
 20
110.3268943609
  0
LINE
  5
373
100
AcDbEntity
  8
0
100
AcDbLine
 62
253
  6
CONTINUOUS
 10
139.769733018
 20
119.9413193395
 11
139.7482023261
 21
119.8862604279
  0
LINE
  5
374
100
AcDbEntity
  8
0
100
AcDbLine
 62
253
  6
CONTINUOUS
 10
140.231218517
 20
119.5765136895
 11
140.2451057353
 21
119.6117275728
  0
LINE
  5
375
100
AcDbEntity
  8
0
100
AcDbLine
 62
253
  6
CONTINUOUS
 10
140.2451057353
 20
119.6117275728
 11
140.2599823182
 21
119.6424549023
  0
LINE
  5
376
100
AcDbEntity
  8
0
100
AcDbLine
 62
253
  6
CONTINUOUS
 10
141.5351517308
 20
117.2631014158
 11
141.5196542202
 21
117.2370289039
  0
LINE
  5
377
100
AcDbEntity
  8
0
100
AcDbLine
 62
253
  6
CONTINUOUS
 10
141.5196542202
 20
117.2370289039
 11
141.4996301447
 21
117.2092986896
  0
LINE
  5
378
100
AcDbEntity
  8
0
100
AcDbLine
 62
253
  6
CONTINUOUS
 10
143.0083825264
 20
119.3457110506
 11
142.9999216617
 21
119.3340223136
  0
LINE
  5
379
100
AcDbEntity
  8
0
100
AcDbLine
 62
253
  6
CONTINUOUS
 10
141.4996301447
 20
117.2092986896
 11
141.4772741728
 21
117.1832713643
  0
LINE
  5
37A
100
AcDbEntity
  8
0
100
AcDbLine
 62
253
  6
CONTINUOUS
 10
141.8920459417
 20
116.7549590132
 11
141.9253851556
 21
116.7894988424
  0
LINE
  5
37B
100
AcDbEntity
  8
0
100
AcDbLine
 62
253
  6
CONTINUOUS
 10
141.4772741728
 20
117.1832713643
 11
141.4526799269
 21
117.159119226
  0
LWPOLYLINE
  5
37C
100
AcDbEntity
  8
ASSI
100
AcDbPolyline
 62
253
  6
CONTINUOUS
 90
16
 70
0
 10
133.5258265498
 20
110.8876208782
 10
133.5019070639
 20
110.8659523991
 10
133.4782701932
 20
110.8409657988
 10
133.4551736432
 20
110.8129334984
 10
133.4328692282
 20
110.7821611252
 10
133.4116001262
 20
110.7489841807
 10
133.3915982277
 20
110.7137643828
 10
133.3730816069
 20
110.6768857217
 10
133.3562521448
 20
110.638750274
 10
133.3412933277
 20
110.5997738183
 10
133.3283682469
 20
110.5603813028
 10
133.3176178205
 20
110.5210022116
 10
133.3091592569
 20
110.4820658826
 10
133.3030847773
 20
110.4439968262
 10
133.2994606097
 20
110.4072100975
 10
133.2983262674
 20
110.3721067706
  0
LWPOLYLINE
  5
37D
100
AcDbEntity
  8
RACCORDO
100
AcDbPolyline
 62
253
  6
CONTINUOUS
 90
16
 70
0
 10
133.5258265498
 20
110.8876208782
 10
133.5019070639
 20
110.8659523991
 10
133.4782701932
 20
110.8409657988
 10
133.4551736432
 20
110.8129334984
 10
133.4328692282
 20
110.7821611252
 10
133.4116001262
 20
110.7489841807
 10
133.3915982277
 20
110.7137643828
 10
133.3730816069
 20
110.6768857217
 10
133.3562521448
 20
110.638750274
 10
133.3412933277
 20
110.5997738183
 10
133.3283682469
 20
110.5603813028
 10
133.3176178205
 20
110.5210022116
 10
133.3091592569
 20
110.4820658826
 10
133.3030847773
 20
110.4439968262
 10
133.2994606097
 20
110.4072100975
 10
133.2983262674
 20
110.3721067706
  0
LINE
  5
37E
100
AcDbEntity
  8
0
100
AcDbLine
 62
253
  6
CONTINUOUS
 10
141.8547114833
 20
116.7223377383
 11
141.8920459417
 21
116.7549590132
  0
LINE
  5
37F
100
AcDbEntity
  8
0
100
AcDbLine
 62
253
  6
CONTINUOUS
 10
141.4526799269
 20
117.159119226
 11
141.4259656695
 21
117.1370113102
  0
LINE
  5
380
100
AcDbEntity
  8
0
100
AcDbLine
 62
253
  6
CONTINUOUS
 10
143.0167234197
 20
119.3525948354
 11
143.0083825264
 21
119.3457110506
  0
LINE
  5
381
100
AcDbEntity
  8
0
100
AcDbLine
 62
253
  6
CONTINUOUS
 10
141.8133350019
 20
116.6918016891
 11
141.8547114833
 21
116.7223377383
  0
LINE
  5
382
100
AcDbEntity
  8
0
100
AcDbLine
 62
253
  6
CONTINUOUS
 10
141.4259656695
 20
117.1370113102
 11
141.4085144735
 21
117.1244782037
  0
LINE
  5
383
100
AcDbEntity
  8
0
100
AcDbLine
 62
253
  6
CONTINUOUS
 10
141.7823776473
 20
116.6720178104
 11
141.8133350019
 21
116.6918016891
  0
LINE
  5
384
100
AcDbEntity
  8
0
100
AcDbLine
 62
253
  6
CONTINUOUS
 10
141.4085144735
 20
117.1244782037
 11
141.3800084979
 21
117.1075661468
  0
LINE
  5
385
100
AcDbEntity
  8
0
100
AcDbLine
 62
253
  6
CONTINUOUS
 10
141.7579869987
 20
116.6579304549
 11
141.7823776473
 21
116.6720178104
  0
LINE
  5
386
100
AcDbEntity
  8
0
100
AcDbLine
 62
253
  6
CONTINUOUS
 10
141.707480135
 20
116.632345803
 11
141.7579869987
 21
116.6579304549
  0
LINE
  5
387
100
AcDbEntity
  8
0
100
AcDbLine
 62
253
  6
CONTINUOUS
 10
141.3800084979
 20
117.1075661468
 11
141.3495112974
 21
117.092898192
  0
LINE
  5
388
100
AcDbEntity
  8
0
100
AcDbLine
 62
253
  6
CONTINUOUS
 10
143.0298182749
 20
119.3586483524
 11
143.0167234197
 21
119.3525948354
  0
LINE
  5
389
100
AcDbEntity
  8
0
100
AcDbLine
 62
253
  6
CONTINUOUS
 10
145.1314152857
 20
118.5143136485
 11
145.1213224613
 21
118.510053975
  0
LINE
  5
38A
100
AcDbEntity
  8
0
100
AcDbLine
 62
253
  6
CONTINUOUS
 10
141.6552854885
 20
116.6105431969
 11
141.707480135
 21
116.632345803
  0
LINE
  5
38B
100
AcDbEntity
  8
0
100
AcDbLine
 62
253
  6
CONTINUOUS
 10
141.3495112974
 20
117.092898192
 11
141.3170208866
 21
117.0805166708
  0
LINE
  5
38C
100
AcDbEntity
  8
0
100
AcDbLine
 62
253
  6
CONTINUOUS
 10
141.3170208866
 20
117.0805166708
 11
141.2825354139
 21
117.0704713961
  0
LINE
  5
38D
100
AcDbEntity
  8
0
100
AcDbLine
 62
253
  6
CONTINUOUS
 10
139.3193421949
 20
101.393445671
 11
139.3528862957
 21
101.4028112975
  0
LINE
  5
38E
100
AcDbEntity
  8
0
100
AcDbLine
 62
253
  6
CONTINUOUS
 10
139.0800378075
 20
101.8826718251
 11
139.0258642626
 21
101.8691041162
  0
LINE
  5
38F
100
AcDbEntity
  8
0
100
AcDbLine
 62
253
  6
CONTINUOUS
 10
139.3528862957
 20
101.4028112975
 11
139.3884670898
 21
101.4098272475
  0
LINE
  5
390
100
AcDbEntity
  8
0
100
AcDbLine
 62
253
  6
CONTINUOUS
 10
139.1357662624
 20
101.8925653683
 11
139.0800378075
 21
101.8826718251
  0
LINE
  5
391
100
AcDbEntity
  8
0
100
AcDbLine
 62
253
  6
CONTINUOUS
 10
139.3884670898
 20
101.4098272475
 11
139.4260845682
 21
101.4144355349
  0
LINE
  5
392
100
AcDbEntity
  8
0
100
AcDbLine
 62
253
  6
CONTINUOUS
 10
139.1930122052
 20
101.898792538
 11
139.1357662624
 21
101.8925653683
  0
LINE
  5
393
100
AcDbEntity
  8
0
100
AcDbLine
 62
253
  6
CONTINUOUS
 10
139.2517415923
 20
101.9013574368
 11
139.1930122052
 21
101.898792538
  0
LINE
  5
394
100
AcDbEntity
  8
0
100
AcDbLine
 62
253
  6
CONTINUOUS
 10
146.8496274165
 20
98.8995824415
 11
146.8351415036
 21
98.9129450289
  0
LINE
  5
395
100
AcDbEntity
  8
0
100
AcDbLine
 62
253
  6
CONTINUOUS
 10
146.6396268553
 20
97.466226472
 11
146.627129192
 21
97.4810748216
  0
LINE
  5
396
100
AcDbEntity
  8
0
100
AcDbLine
 62
253
  6
CONTINUOUS
 10
143.9900318338
 20
100.0383498664
 11
143.9772028704
 21
100.0537390025
  0
LINE
  5
397
100
AcDbEntity
  8
0
100
AcDbLine
 62
253
  6
CONTINUOUS
 10
146.862456753
 20
98.884192611
 11
146.8496274165
 21
98.8995824415
  0
LINE
  5
398
100
AcDbEntity
  8
0
100
AcDbLine
 62
253
  6
CONTINUOUS
 10
144.7680386225
 20
96.4072678199
 11
144.7787931673
 21
96.3906519749
  0
LINE
  5
399
100
AcDbEntity
  8
0
100
AcDbLine
 62
253
  6
CONTINUOUS
 10
143.7779173293
 20
98.6036743856
 11
143.767193786
 21
98.6203509128
  0
LINE
  5
39A
100
AcDbEntity
  8
0
100
AcDbLine
 62
253
  6
CONTINUOUS
 10
144.0002002795
 20
100.0223547914
 11
143.9900318338
 21
100.0383498664
  0
LINE
  5
39B
100
AcDbEntity
  8
0
100
AcDbLine
 62
253
  6
CONTINUOUS
 10
140.8422445596
 20
100.7811088695
 11
140.8126799203
 21
100.8392322844
  0
LINE
  5
39C
100
AcDbEntity
  8
0
100
AcDbLine
 62
253
  6
CONTINUOUS
 10
144.7599978833
 20
96.4244345948
 11
144.7680386225
 21
96.4072678199
  0
LINE
  5
39D
100
AcDbEntity
  8
0
100
AcDbLine
 62
253
  6
CONTINUOUS
 10
141.8872951371
 20
97.5783167568
 11
141.8953333959
 21
97.5611496734
  0
LINE
  5
39E
100
AcDbEntity
  8
0
100
AcDbLine
 62
253
  6
CONTINUOUS
 10
143.7859082793
 20
98.5864702937
 11
143.7779173293
 21
98.6036743856
  0
LINE
  5
39F
100
AcDbEntity
  8
0
100
AcDbLine
 62
253
  6
CONTINUOUS
 10
140.8679789161
 20
100.7243975297
 11
140.8422445596
 21
100.7811088695
  0
LINE
  5
3A0
100
AcDbEntity
  8
0
100
AcDbLine
 62
253
  6
CONTINUOUS
 10
140.4072660628
 20
100.7292388278
 11
140.4229681634
 21
100.691433624
  0
LWPOLYLINE
  5
3A1
100
AcDbEntity
  8
RACCORDO
100
AcDbPolyline
 62
253
  6
CONTINUOUS
 90
9
 70
0
 10
137.2646197749
 20
110.8727604134
 10
137.2706002329
 20
110.8581471453
 10
137.2809932598
 20
110.8437887533
 10
137.2953683657
 20
110.8309336379
 10
137.3136445033
 20
110.8194261142
 10
137.3355435978
 20
110.8098941675
 10
137.3608298367
 20
110.8024733575
 10
137.3892757787
 20
110.7967368548
 10
137.4205512833
 20
110.7924758725
  0
LWPOLYLINE
  5
3A2
100
AcDbEntity
  8
ASSI
100
AcDbPolyline
 62
253
  6
CONTINUOUS
 90
9
 70
0
 10
137.2646197749
 20
110.8727604134
 10
137.2706002329
 20
110.8581471453
 10
137.2809932598
 20
110.8437887533
 10
137.2953683657
 20
110.8309336379
 10
137.3136445033
 20
110.8194261142
 10
137.3355435978
 20
110.8098941675
 10
137.3608298367
 20
110.8024733575
 10
137.3892757787
 20
110.7967368548
 10
137.4205512833
 20
110.7924758725
  0
LINE
  5
3A3
100
AcDbEntity
  8
0
100
AcDbLine
 62
253
  6
CONTINUOUS
 10
140.8939730439
 20
100.6590849598
 11
140.8679789161
 21
100.7243975297
  0
LINE
  5
3A4
100
AcDbEntity
  8
0
100
AcDbLine
 62
253
  6
CONTINUOUS
 10
140.4229681634
 20
100.691433624
 11
140.4377609703
 21
100.6503809181
  0
LINE
  5
3A5
100
AcDbEntity
  8
0
100
AcDbLine
 62
253
  6
CONTINUOUS
 10
140.9172218859
 20
100.5927034899
 11
140.8939730439
 21
100.6590849598
  0
LINE
  5
3A6
100
AcDbEntity
  8
0
100
AcDbLine
 62
253
  6
CONTINUOUS
 10
140.4377609703
 20
100.6503809181
 11
140.4514989809
 21
100.6059936165
  0
LINE
  5
3A7
100
AcDbEntity
  8
0
100
AcDbLine
 62
253
  6
CONTINUOUS
 10
140.9376245554
 20
100.5253907766
 11
140.9172218859
 21
100.5927034899
  0
LWPOLYLINE
  5
3A8
100
AcDbEntity
  8
RACCORDO
100
AcDbPolyline
 62
253
  6
CONTINUOUS
 90
22
 70
0
 10
137.4205512833
 20
110.7924758725
 10
137.3894797573
 20
110.8950336314
 10
137.3531556959
 20
110.9974509048
 10
137.3115777914
 20
111.0997266373
 10
137.26457863
 20
111.2023033242
 10
137.2123232528
 20
111.3047365655
 10
137.1553085064
 20
111.4056945327
 10
137.0934321356
 20
111.5051693541
 10
137.0267930466
 20
111.6031662101
 10
136.9561889169
 20
111.6983721025
 10
136.8815527082
 20
111.7907240034
 10
136.8029478303
 20
111.8802820279
 10
136.7213671103
 20
111.9659174582
 10
136.6367459747
 20
112.0475651436
 10
136.5491457325
 20
112.1252876201
 10
136.4597478952
 20
112.1981475748
 10
136.3685382534
 20
112.2660386695
 10
136.2755286063
 20
112.3290653182
 10
136.1819396243
 20
112.3866064377
 10
136.0881777752
 20
112.4384546607
 10
135.9938353494
 20
112.4848163686
 10
135.8989120326
 20
112.5256913218
  0
LWPOLYLINE
  5
3A9
100
AcDbEntity
  8
ASSI
100
AcDbPolyline
 62
253
  6
CONTINUOUS
 90
22
 70
0
 10
137.4205512833
 20
110.7924758725
 10
137.3894797573
 20
110.8950336314
 10
137.3531556959
 20
110.9974509048
 10
137.3115777914
 20
111.0997266373
 10
137.26457863
 20
111.2023033242
 10
137.2123232528
 20
111.3047365655
 10
137.1553085064
 20
111.4056945327
 10
137.0934321356
 20
111.5051693541
 10
137.0267930466
 20
111.6031662101
 10
136.9561889169
 20
111.6983721025
 10
136.8815527082
 20
111.7907240034
 10
136.8029478303
 20
111.8802820279
 10
136.7213671103
 20
111.9659174582
 10
136.6367459747
 20
112.0475651436
 10
136.5491457325
 20
112.1252876201
 10
136.4597478952
 20
112.1981475748
 10
136.3685382534
 20
112.2660386695
 10
136.2755286063
 20
112.3290653182
 10
136.1819396243
 20
112.3866064377
 10
136.0881777752
 20
112.4384546607
 10
135.9938353494
 20
112.4848163686
 10
135.8989120326
 20
112.5256913218
  0
LINE
  5
3AA
100
AcDbEntity
  8
0
100
AcDbLine
 62
253
  6
CONTINUOUS
 10
141.8822169687
 20
97.5954428216
 11
141.8872951371
 21
97.5783167568
  0
LWPOLYLINE
  5
3AB
100
AcDbEntity
  8
RACCORDO
100
AcDbPolyline
 62
7
  6
CONTINUOUS
 90
6
 70
0
 10
137.2646197749
 20
110.8727604134
 10
137.2674900015
 20
110.8629347302
 10
137.2818031272
 20
110.8236387976
 10
137.3001849577
 20
110.7859727242
 10
137.3224644471
 20
110.7503550461
 10
137.3484416992
 20
110.7171731636
  0
LWPOLYLINE
  5
3AC
100
AcDbEntity
  8
ASSI
100
AcDbPolyline
 62
7
  6
CONTINUOUS
 90
6
 70
0
 10
137.2646197749
 20
110.8727604134
 10
137.2674900015
 20
110.8629347302
 10
137.2818031272
 20
110.8236387976
 10
137.3001849577
 20
110.7859727242
 10
137.3224644471
 20
110.7503550461
 10
137.3484416992
 20
110.7171731636
  0
LINE
  5
3AD
100
AcDbEntity
  8
RACCORDO
100
AcDbLine
 62
7
  6
CONTINUOUS
 10
137.264593072
 20
110.8728564737
 11
137.2646197749
 21
110.8727604134
  0
LINE
  5
3AE
100
AcDbEntity
  8
ASSI
100
AcDbLine
 62
7
  6
CONTINUOUS
 10
137.264593072
 20
110.8728564737
 11
137.2646197749
 21
110.8727604134
  0
LINE
  5
3AF
100
AcDbEntity
  8
0
100
AcDbLine
 62
253
  6
CONTINUOUS
 10
140.4514989809
 20
100.6059936165
 11
140.4640249138
 21
100.5582135515
  0
LINE
  5
3B0
100
AcDbEntity
  8
0
100
AcDbLine
 62
253
  6
CONTINUOUS
 10
140.9550824229
 20
100.4572931555
 11
140.9376245554
 21
100.5253907766
  0
LINE
  5
3B1
100
AcDbEntity
  8
0
100
AcDbLine
 62
253
  6
CONTINUOUS
 10
139.1064342589
 20
99.5573031651
 11
139.0950113897
 21
99.6085222058
  0
LINE
  5
3B2
100
AcDbEntity
  8
0
100
AcDbLine
 62
253
  6
CONTINUOUS
 10
140.4640249138
 20
100.5582135515
 11
140.475172014
 21
100.5070185613
  0
LINE
  5
3B3
100
AcDbEntity
  8
0
100
AcDbLine
 62
253
  6
CONTINUOUS
 10
139.0950113897
 20
99.6085222058
 11
139.0932668053
 21
99.6173099659
  0
LINE
  5
3B4
100
AcDbEntity
  8
0
100
AcDbLine
 62
253
  6
CONTINUOUS
 10
140.475172014
 20
100.5070185613
 11
140.4765256056
 21
100.500036738
  0
LINE
  5
3B5
100
AcDbEntity
  8
0
100
AcDbLine
 62
253
  6
CONTINUOUS
 10
138.5875192768
 20
99.8125679415
 11
138.6021646859
 21
99.7320468396
  0
LINE
  5
3B6
100
AcDbEntity
  8
0
100
AcDbLine
 62
253
  6
CONTINUOUS
 10
139.0932668053
 20
99.6173099659
 11
139.0828692391
 21
99.6766350571
  0
LINE
  5
3B7
100
AcDbEntity
  8
0
100
AcDbLine
 62
253
  6
CONTINUOUS
 10
140.4765256056
 20
100.500036738
 11
140.4867625055
 21
100.4400292048
  0
LINE
  5
3B8
100
AcDbEntity
  8
0
100
AcDbLine
 62
253
  6
CONTINUOUS
 10
138.5752489938
 20
99.8981552092
 11
138.5875192768
 21
99.8125679415
  0
LINE
  5
3B9
100
AcDbEntity
  8
0
100
AcDbLine
 62
253
  6
CONTINUOUS
 10
139.0828692391
 20
99.6766350571
 11
139.0734246433
 21
99.7438803188
  0
LINE
  5
3BA
100
AcDbEntity
  8
0
100
AcDbLine
 62
253
  6
CONTINUOUS
 10
140.4960719986
 20
100.3718316852
 11
140.5041977886
 21
100.2951459235
  0
LINE
  5
3BB
100
AcDbEntity
  8
0
100
AcDbLine
 62
253
  6
CONTINUOUS
 10
139.6611874634
 20
118.2686478226
 11
139.6701147596
 21
118.1809212808
  0
LINE
  5
3BC
100
AcDbEntity
  8
0
100
AcDbLine
 62
253
  6
CONTINUOUS
 10
140.1678258786
 20
118.04905339
 11
140.1609614715
 21
118.1193942008
  0
LINE
  5
3BD
100
AcDbEntity
  8
0
100
AcDbLine
 62
253
  6
CONTINUOUS
 10
141.0048336732
 20
100.1151337111
 11
140.9957362738
 21
100.2109183411
  0
LINE
  5
3BE
100
AcDbEntity
  8
0
100
AcDbLine
 62
253
  6
CONTINUOUS
 10
140.5041977886
 20
100.2951459235
 11
140.5108781919
 21
100.209824794
  0
LINE
  5
3BF
100
AcDbEntity
  8
0
100
AcDbLine
 62
253
  6
CONTINUOUS
 10
140.1609614715
 20
118.1193942008
 11
140.1557010307
 21
118.1980411604
  0
LINE
  5
3C0
100
AcDbEntity
  8
0
100
AcDbLine
 62
253
  6
CONTINUOUS
 10
139.6550963488
 20
118.3617300354
 11
139.6611874634
 21
118.2686478226
  0
LINE
  5
3C1
100
AcDbEntity
  8
0
100
AcDbLine
 62
253
  6
CONTINUOUS
 10
140.5108781919
 20
100.209824794
 11
140.5117666945
 21
100.1958493683
  0
LINE
  5
3C2
100
AcDbEntity
  8
0
100
AcDbLine
 62
253
  6
CONTINUOUS
 10
141.0111248561
 20
100.013837284
 11
141.0048336732
 21
100.1151337111
  0
LINE
  5
3C3
100
AcDbEntity
  8
0
100
AcDbLine
 62
253
  6
CONTINUOUS
 10
140.5117666945
 20
100.1958493683
 11
140.5183654451
 21
100.0669576088
  0
LINE
  5
3C4
100
AcDbEntity
  8
0
100
AcDbLine
 62
253
  6
CONTINUOUS
 10
141.0113598952
 20
100.0086533715
 11
141.0111248561
 21
100.013837284
  0
LINE
  5
3C5
100
AcDbEntity
  8
0
100
AcDbLine
 62
253
  6
CONTINUOUS
 10
140.1557010307
 20
118.1980411604
 11
140.1523308629
 21
118.2848987231
  0
LINE
  5
3C6
100
AcDbEntity
  8
0
100
AcDbLine
 62
253
  6
CONTINUOUS
 10
140.5183654451
 20
100.0669576088
 11
140.5241042093
 21
99.9073976945
  0
LINE
  5
3C7
100
AcDbEntity
  8
0
100
AcDbLine
 62
253
  6
CONTINUOUS
 10
141.0200461657
 20
99.7637412137
 11
141.0113598952
 21
100.0086533715
  0
LINE
  5
3C8
100
AcDbEntity
  8
0
100
AcDbLine
 62
253
  6
CONTINUOUS
 10
139.6520886564
 20
118.4599574037
 11
139.6550963488
 21
118.3617300354
  0
LINE
  5
3C9
100
AcDbEntity
  8
0
100
AcDbLine
 62
253
  6
CONTINUOUS
 10
140.5241042093
 20
99.9073976945
 11
140.527763772
 21
99.7597554281
  0
LINE
  5
3CA
100
AcDbEntity
  8
0
100
AcDbLine
 62
253
  6
CONTINUOUS
 10
141.0250796555
 20
99.5601067507
 11
141.0200461657
 21
99.7637412137
  0
LINE
  5
3CB
100
AcDbEntity
  8
0
100
AcDbLine
 62
253
  6
CONTINUOUS
 10
140.1523308629
 20
118.2848987231
 11
140.1519687136
 21
118.3002991775
  0
LINE
  5
3CC
100
AcDbEntity
  8
0
100
AcDbLine
 62
253
  6
CONTINUOUS
 10
141.0283722593
 20
99.3570344812
 11
141.0250796555
 21
99.5601067507
  0
LINE
  5
3CD
100
AcDbEntity
  8
0
100
AcDbLine
 62
253
  6
CONTINUOUS
 10
140.527763772
 20
99.7597554281
 11
140.5301450564
 21
99.6122553537
  0
LINE
  5
3CE
100
AcDbEntity
  8
0
100
AcDbLine
 62
253
  6
CONTINUOUS
 10
140.1519687136
 20
118.3002991775
 11
140.1503327208
 21
118.4269169857
  0
LINE
  5
3CF
100
AcDbEntity
  8
0
100
AcDbLine
 62
253
  6
CONTINUOUS
 10
139.6518373336
 20
118.4870553237
 11
139.6520886564
 21
118.4599574037
  0
LINE
  5
3D0
100
AcDbEntity
  8
0
100
AcDbLine
 62
253
  6
CONTINUOUS
 10
141.0296410395
 20
99.1159129215
 11
141.0283722593
 21
99.3570344812
  0
LINE
  5
3D1
100
AcDbEntity
  8
0
100
AcDbLine
 62
253
  6
CONTINUOUS
 10
140.5301450564
 20
99.6122553537
 11
140.5308915594
 21
99.4550073379
  0
LINE
  5
3D2
100
AcDbEntity
  8
0
100
AcDbLine
 62
253
  6
CONTINUOUS
 10
139.038191876
 20
100.5211915832
 11
139.0378233134
 21
100.6699943374
  0
LINE
  5
3D3
100
AcDbEntity
  8
0
100
AcDbLine
 62
253
  6
CONTINUOUS
 10
139.6525153411
 20
118.7198692172
 11
139.6518373336
 21
118.4870553237
  0
LINE
  5
3D4
100
AcDbEntity
  8
0
100
AcDbLine
 62
253
  6
CONTINUOUS
 10
140.1503327208
 20
118.4269169857
 11
140.1508141944
 21
118.5861809234
  0
LINE
  5
3D5
100
AcDbEntity
  8
0
100
AcDbLine
 62
253
  6
CONTINUOUS
 10
141.0296139224
 20
99.1104851873
 11
141.0296410395
 21
99.1159129215
  0
LINE
  5
3D6
100
AcDbEntity
  8
0
100
AcDbLine
 62
253
  6
CONTINUOUS
 10
140.5308915594
 20
99.4550073379
 11
140.5294998403
 21
99.3298935531
  0
LINE
  5
3D7
100
AcDbEntity
  8
0
100
AcDbLine
 62
253
  6
CONTINUOUS
 10
139.0378233134
 20
100.6699943374
 11
139.039541181
 21
100.7868358293
  0
LINE
  5
3D8
100
AcDbEntity
  8
0
100
AcDbLine
 62
253
  6
CONTINUOUS
 10
139.6559601552
 20
118.9502177319
 11
139.6525153411
 21
118.7198692172
  0
LINE
  5
3D9
100
AcDbEntity
  8
0
100
AcDbLine
 62
253
  6
CONTINUOUS
 10
140.1508141944
 20
118.5861809234
 11
140.1532892375
 21
118.7505788663
  0
LINE
  5
3DA
100
AcDbEntity
  8
0
100
AcDbLine
 62
253
  6
CONTINUOUS
 10
140.1532892375
 20
118.7505788663
 11
140.1573178484
 21
118.9144214174
  0
LINE
  5
3DB
100
AcDbEntity
  8
0
100
AcDbLine
 62
253
  6
CONTINUOUS
 10
140.5294998403
 20
99.3298935531
 11
140.5291104982
 21
99.314058454
  0
LINE
  5
3DC
100
AcDbEntity
  8
0
100
AcDbLine
 62
253
  6
CONTINUOUS
 10
139.6616232602
 20
119.1796654699
 11
139.6559601552
 21
118.9502177319
  0
LINE
  5
3DD
100
AcDbEntity
  8
0
100
AcDbLine
 62
253
  6
CONTINUOUS
 10
139.039541181
 20
100.7868358293
 11
139.0399747893
 21
100.8038413106
  0
LINE
  5
3DE
100
AcDbEntity
  8
0
100
AcDbLine
 62
253
  6
CONTINUOUS
 10
140.1573178484
 20
118.9144214174
 11
140.1631092221
 21
119.0717489707
  0
LINE
  5
3DF
100
AcDbEntity
  8
0
100
AcDbLine
 62
253
  6
CONTINUOUS
 10
139.670122513
 20
119.4098900466
 11
139.6616232602
 21
119.1796654699
  0
LINE
  5
3E0
100
AcDbEntity
  8
0
100
AcDbLine
 62
253
  6
CONTINUOUS
 10
140.5291104982
 20
99.314058454
 11
140.5258003953
 21
99.2335196151
  0
LINE
  5
3E1
100
AcDbEntity
  8
0
100
AcDbLine
 62
253
  6
CONTINUOUS
 10
139.0399747893
 20
100.8038413106
 11
139.043393532
 21
100.8839330226
  0
LINE
  5
3E2
100
AcDbEntity
  8
0
100
AcDbLine
 62
253
  6
CONTINUOUS
 10
139.6714205095
 20
119.4360919764
 11
139.670122513
 21
119.4098900466
  0
LINE
  5
3E3
100
AcDbEntity
  8
0
100
AcDbLine
 62
253
  6
CONTINUOUS
 10
140.1631092221
 20
119.0717489707
 11
140.1697021361
 21
119.1953075047
  0
LINE
  5
3E4
100
AcDbEntity
  8
0
100
AcDbLine
 62
253
  6
CONTINUOUS
 10
141.624147458
 20
117.7092744056
 11
141.6230090118
 21
117.6912539148
  0
LINE
  5
3E5
100
AcDbEntity
  8
0
100
AcDbLine
 62
253
  6
CONTINUOUS
 10
140.1697021361
 20
119.1953075047
 11
140.1706409326
 21
119.2098610344
  0
LINE
  5
3E6
100
AcDbEntity
  8
0
100
AcDbLine
 62
253
  6
CONTINUOUS
 10
138.5485371181
 20
101.2003510603
 11
138.5425033185
 21
101.1158866768
  0
LINE
  5
3E7
100
AcDbEntity
  8
0
100
AcDbLine
 62
253
  6
CONTINUOUS
 10
139.6782445573
 20
119.5306415881
 11
139.6714205095
 21
119.4360919764
  0
LINE
  5
3E8
100
AcDbEntity
  8
0
100
AcDbLine
 62
253
  6
CONTINUOUS
 10
139.043393532
 20
100.8839330226
 11
139.048650504
 21
100.9542635634
  0
LINE
  5
3E9
100
AcDbEntity
  8
0
100
AcDbLine
 62
253
  6
CONTINUOUS
 10
141.6230090118
 20
117.6912539148
 11
141.6164063907
 21
117.6085959841
  0
LINE
  5
3EA
100
AcDbEntity
  8
0
100
AcDbLine
 62
253
  6
CONTINUOUS
 10
140.1706409326
 20
119.2098610344
 11
140.1773724091
 21
119.2929405395
  0
LINE
  5
3EB
100
AcDbEntity
  8
0
100
AcDbLine
 62
253
  6
CONTINUOUS
 10
141.6164063907
 20
117.6085959841
 11
141.6083496648
 21
117.5360676792
  0
LINE
  5
3EC
100
AcDbEntity
  8
0
100
AcDbLine
 62
253
  6
CONTINUOUS
 10
139.048650504
 20
100.9542635634
 11
139.0554701169
 21
101.0151943126
  0
LINE
  5
3ED
100
AcDbEntity
  8
0
100
AcDbLine
 62
253
  6
CONTINUOUS
 10
140.1773724091
 20
119.2929405395
 11
140.1856466208
 21
119.3664782782
  0
LINE
  5
3EE
100
AcDbEntity
  8
0
100
AcDbLine
 62
253
  6
CONTINUOUS
 10
138.55747652
 20
101.2779757645
 11
138.5485371181
 21
101.2003510603
  0
LINE
  5
3EF
100
AcDbEntity
  8
0
100
AcDbLine
 62
253
  6
CONTINUOUS
 10
141.6083496648
 20
117.5360676792
 11
141.599098848
 21
117.4732810325
  0
LINE
  5
3F0
100
AcDbEntity
  8
0
100
AcDbLine
 62
253
  6
CONTINUOUS
 10
140.1856466208
 20
119.3664782782
 11
140.1951821424
 21
119.4306064757
  0
LINE
  5
3F1
100
AcDbEntity
  8
0
100
AcDbLine
 62
253
  6
CONTINUOUS
 10
139.0554701169
 20
101.0151943126
 11
139.0635731469
 21
101.0672298429
  0
LINE
  5
3F2
100
AcDbEntity
  8
0
100
AcDbLine
 62
253
  6
CONTINUOUS
 10
138.5690572455
 20
101.3486348468
 11
138.55747652
 21
101.2779757645
  0
LINE
  5
3F3
100
AcDbEntity
  8
0
100
AcDbLine
 62
253
  6
CONTINUOUS
 10
142.082643218
 20
117.1344454613
 11
142.0964546783
 21
117.2102745875
  0
LINE
  5
3F4
100
AcDbEntity
  8
0
100
AcDbLine
 62
253
  6
CONTINUOUS
 10
139.0635731469
 20
101.0672298429
 11
139.0649762373
 21
101.0748007721
  0
LINE
  5
3F5
100
AcDbEntity
  8
0
100
AcDbLine
 62
253
  6
CONTINUOUS
 10
141.599098848
 20
117.4732810325
 11
141.588907808
 21
117.4197005946
  0
LINE
  5
3F6
100
AcDbEntity
  8
0
100
AcDbLine
 62
253
  6
CONTINUOUS
 10
142.0817096142
 20
117.1299585202
 11
142.082643218
 21
117.1344454613
  0
LINE
  5
3F7
100
AcDbEntity
  8
0
100
AcDbLine
 62
253
  6
CONTINUOUS
 10
141.588907808
 20
117.4197005946
 11
141.5872209793
 21
117.4120217837
  0
LINE
  5
3F8
100
AcDbEntity
  8
0
100
AcDbLine
 62
253
  6
CONTINUOUS
 10
138.5817328172
 20
101.4059998203
 11
138.5690572455
 21
101.3486348468
  0
LINE
  5
3F9
100
AcDbEntity
  8
0
100
AcDbLine
 62
253
  6
CONTINUOUS
 10
142.0672346108
 20
117.0700202072
 11
142.0817096142
 21
117.1299585202
  0
LINE
  5
3FA
100
AcDbEntity
  8
0
100
AcDbLine
 62
253
  6
CONTINUOUS
 10
141.5872209793
 20
117.4120217837
 11
141.5759982553
 21
117.3676429531
  0
LINE
  5
3FB
100
AcDbEntity
  8
0
100
AcDbLine
 62
253
  6
CONTINUOUS
 10
142.0497489245
 20
117.0133395031
 11
142.0672346108
 21
117.0700202072
  0
LINE
  5
3FC
100
AcDbEntity
  8
0
100
AcDbLine
 62
253
  6
CONTINUOUS
 10
141.5759982553
 20
117.3676429531
 11
141.5634703391
 21
117.3281700411
  0
LINE
  5
3FD
100
AcDbEntity
  8
0
100
AcDbLine
 62
253
  6
CONTINUOUS
 10
142.9999216617
 20
119.3340223136
 11
142.9945786162
 21
119.3197922418
  0
LINE
  5
3FE
100
AcDbEntity
  8
0
100
AcDbLine
 62
253
  6
CONTINUOUS
 10
142.0293615625
 20
116.9600139574
 11
142.0497489245
 21
117.0133395031
  0
LINE
  5
3FF
100
AcDbEntity
  8
0
100
AcDbLine
 62
253
  6
CONTINUOUS
 10
141.5634703391
 20
117.3281700411
 11
141.5498031881
 21
117.2933992894
  0
LINE
  5
400
100
AcDbEntity
  8
0
100
AcDbLine
 62
253
  6
CONTINUOUS
 10
142.0061853343
 20
116.9101253084
 11
142.0293615625
 21
116.9600139574
  0
LINE
  5
401
100
AcDbEntity
  8
0
100
AcDbLine
 62
253
  6
CONTINUOUS
 10
141.5498031881
 20
117.2933992894
 11
141.5351517308
 21
117.2631014158
  0
LINE
  5
402
100
AcDbEntity
  8
0
100
AcDbLine
 62
253
  6
CONTINUOUS
 10
141.9803335901
 20
116.8637408119
 11
142.0061853343
 21
116.9101253084
  0
LINE
  5
403
100
AcDbEntity
  8
0
100
AcDbLine
 62
253
  6
CONTINUOUS
 10
141.9547909636
 20
116.8258061893
 11
141.9803335901
 21
116.8637408119
  0
LINE
  5
404
100
AcDbEntity
  8
0
100
AcDbLine
 62
253
  6
CONTINUOUS
 10
143.4077609436
 20
115.7097968375
 11
143.4161263459
 21
115.7214058445
  0
LINE
  5
405
100
AcDbEntity
  8
0
100
AcDbLine
 62
253
  6
CONTINUOUS
 10
145.1100264342
 20
118.501379603
 11
145.1015662145
 21
118.4896848411
  0
LINE
  5
406
100
AcDbEntity
  8
0
100
AcDbLine
 62
253
  6
CONTINUOUS
 10
141.9253851556
 20
116.7894988424
 11
141.9547909636
 21
116.8258061893
  0
LWPOLYLINE
  5
407
100
AcDbEntity
  8
ASSI
100
AcDbPolyline
 62
253
  6
CONTINUOUS
 90
16
 70
0
 10
136.1263461024
 20
109.8429364633
 10
136.1024359869
 20
109.8212675903
 10
136.0788083307
 20
109.7962812462
 10
136.05572069
 20
109.7682497979
 10
136.0334247345
 20
109.7374788055
 10
136.0121635038
 20
109.7043036918
 10
135.9921687586
 20
109.6690860862
 10
135.973658454
 20
109.6322098825
 10
135.9568343638
 20
109.5940770542
 10
135.941879881
 20
109.5551032727
 10
135.9289580188
 20
109.5157133765
 10
135.9182096336
 20
109.4763367398
 10
135.9097518892
 20
109.4374025925
 10
135.9036769805
 20
109.399335341
 10
135.9000511277
 20
109.3625499417
 10
135.8989138549
 20
109.3274473786
  0
LWPOLYLINE
  5
408
100
AcDbEntity
  8
RACCORDO
100
AcDbPolyline
 62
253
  6
CONTINUOUS
 90
16
 70
0
 10
136.1263461024
 20
109.8429364633
 10
136.1024359869
 20
109.8212675903
 10
136.0788083307
 20
109.7962812462
 10
136.05572069
 20
109.7682497979
 10
136.0334247345
 20
109.7374788055
 10
136.0121635038
 20
109.7043036918
 10
135.9921687586
 20
109.6690860862
 10
135.973658454
 20
109.6322098825
 10
135.9568343638
 20
109.5940770542
 10
135.941879881
 20
109.5551032727
 10
135.9289580188
 20
109.5157133765
 10
135.9182096336
 20
109.4763367398
 10
135.9097518892
 20
109.4374025925
 10
135.9036769805
 20
109.399335341
 10
135.9000511277
 20
109.3625499417
 10
135.8989138549
 20
109.3274473786
  0
LWPOLYLINE
  5
409
100
AcDbEntity
  8
ASSI
100
AcDbPolyline
 62
253
  6
CONTINUOUS
 90
16
 70
0
 10
137.6479750109
 20
110.3470725201
 10
137.6235735689
 20
110.3252339038
 10
137.6001248649
 20
110.3003264477
 10
137.5775033139
 20
110.2725784705
 10
137.5553545698
 20
110.2420677262
 10
137.5339408831
 20
110.2089352671
 10
137.5140592959
 20
110.173695465
 10
137.4956698592
 20
110.136980796
 10
137.4786869461
 20
110.0990036842
 10
137.4637950266
 20
110.0600120398
 10
137.4509524597
 20
110.0206822885
 10
137.4400196471
 20
109.9814983626
 10
137.4315845554
 20
109.9425519045
 10
137.4257725232
 20
109.904293644
 10
137.4221693257
 20
109.8674888523
 10
137.4205512833
 20
109.8327049906
  0
LWPOLYLINE
  5
40A
100
AcDbEntity
  8
RACCORDO
100
AcDbPolyline
 62
253
  6
CONTINUOUS
 90
16
 70
0
 10
137.6479750109
 20
110.3470725201
 10
137.6235735689
 20
110.3252339038
 10
137.6001248649
 20
110.3003264477
 10
137.5775033139
 20
110.2725784705
 10
137.5553545698
 20
110.2420677262
 10
137.5339408831
 20
110.2089352671
 10
137.5140592959
 20
110.173695465
 10
137.4956698592
 20
110.136980796
 10
137.4786869461
 20
110.0990036842
 10
137.4637950266
 20
110.0600120398
 10
137.4509524597
 20
110.0206822885
 10
137.4400196471
 20
109.9814983626
 10
137.4315845554
 20
109.9425519045
 10
137.4257725232
 20
109.904293644
 10
137.4221693257
 20
109.8674888523
 10
137.4205512833
 20
109.8327049906
  0
LINE
  5
40B
100
AcDbEntity
  8
ASSI
100
AcDbLine
 62
7
  6
CONTINUOUS
 10
137.6537625018
 20
110.5474242225
 11
137.3921633981
 21
110.3268943611
  0
LINE
  5
40C
100
AcDbEntity
  8
RACCORDO
100
AcDbLine
 62
7
  6
CONTINUOUS
 10
137.6537625018
 20
110.5474242225
 11
137.3921633981
 21
110.3268943611
  0
LINE
  5
40D
100
AcDbEntity
  8
ASSI
100
AcDbLine
 62
253
  6
CONTINUOUS
 10
137.8108175705
 20
110.484349568
 11
137.6479750154
 21
110.3470725183
  0
LINE
  5
40E
100
AcDbEntity
  8
RACCORDO
100
AcDbLine
 62
253
  6
CONTINUOUS
 10
137.8108175705
 20
110.484349568
 11
137.6479750154
 21
110.3470725183
  0
LINE
  5
40F
100
AcDbEntity
  8
ASSI
100
AcDbLine
 62
7
  6
CONTINUOUS
 10
137.1127578771
 20
109.9168652341
 11
137.1135544743
 21
109.9175326746
  0
LINE
  5
410
100
AcDbEntity
  8
RACCORDO
100
AcDbLine
 62
7
  6
CONTINUOUS
 10
137.1127578771
 20
109.9168652341
 11
137.1135544743
 21
109.9175326746
  0
LINE
  5
411
100
AcDbEntity
  8
ASSI
100
AcDbLine
 62
253
  6
CONTINUOUS
 10
137.2886713919
 20
110.809565087
 11
136.12627228
 21
109.8429598712
  0
LINE
  5
412
100
AcDbEntity
  8
RACCORDO
100
AcDbLine
 62
253
  6
CONTINUOUS
 10
137.2886713919
 20
110.809565087
 11
136.12627228
 21
109.8429598712
  0
LINE
  5
413
100
AcDbEntity
  8
0
100
AcDbLine
 62
253
  6
CONTINUOUS
 10
143.3994677829
 20
115.7029567593
 11
143.4077609436
 21
115.7097968375
  0
LWPOLYLINE
  5
414
100
AcDbEntity
  8
ASSI
100
AcDbPolyline
 62
253
  6
CONTINUOUS
 90
10
 70
0
 10
137.3921633981
 20
110.3268943611
 10
137.4027015158
 20
110.335125272
 10
137.4269486714
 20
110.3499096666
 10
137.4536755762
 20
110.361037565
 10
137.4825849381
 20
110.3683852689
 10
137.5133553666
 20
110.3718711674
 10
137.5456446578
 20
110.3714565559
 10
137.579093758
 20
110.3671461175
 10
137.6133307651
 20
110.3589878475
 10
137.6479750109
 20
110.3470725201
  0
LWPOLYLINE
  5
415
100
AcDbEntity
  8
RACCORDO
100
AcDbPolyline
 62
253
  6
CONTINUOUS
 90
10
 70
0
 10
137.3921633981
 20
110.3268943611
 10
137.4027015158
 20
110.335125272
 10
137.4269486714
 20
110.3499096666
 10
137.4536755762
 20
110.361037565
 10
137.4825849381
 20
110.3683852689
 10
137.5133553666
 20
110.3718711674
 10
137.5456446578
 20
110.3714565559
 10
137.579093758
 20
110.3671461175
 10
137.6133307651
 20
110.3589878475
 10
137.6479750109
 20
110.3470725201
  0
LINE
  5
416
100
AcDbEntity
  8
0
100
AcDbLine
 62
253
  6
CONTINUOUS
 10
145.1213224613
 20
118.510053975
 11
145.1100264342
 21
118.501379603
  0
LINE
  5
417
100
AcDbEntity
  8
0
100
AcDbLine
 62
253
  6
CONTINUOUS
 10
143.3864431339
 20
115.696963922
 11
143.3994677829
 21
115.7029567593
  0
LINE
  5
418
100
AcDbEntity
  8
0
100
AcDbLine
 62
253
  6
CONTINUOUS
 10
141.6014547269
 20
116.5925050562
 11
141.6552854885
 21
116.6105431969
  0
LINE
  5
419
100
AcDbEntity
  8
ASSI
100
AcDbLine
 62
253
  6
CONTINUOUS
 10
151.018508741
 20
105.9126001096
 11
151.5920850563
 21
105.8909552421
  0
LINE
  5
41A
100
AcDbEntity
  8
DRAFT
100
AcDbLine
 62
253
  6
CONTINUOUS
 10
151.018508741
 20
105.9126001096
 11
151.5920850563
 21
105.8909552421
  0
LWPOLYLINE
  5
41B
100
AcDbEntity
  8
ASSI
100
AcDbPolyline
 62
253
  6
CONTINUOUS
 90
16
 70
0
 10
160.7858125097
 20
101.3733823899
 10
160.7945443348
 20
101.3708206818
 10
160.8035099948
 20
101.3687857343
 10
160.8127094897
 20
101.3672775475
 10
160.8222389521
 20
101.3662902299
 10
160.8320022494
 20
101.365829673
 10
160.8417109832
 20
101.3659135514
 10
160.8513584548
 20
101.3665588079
 10
160.8609513629
 20
101.3677484998
 10
160.8702214057
 20
101.3694494726
 10
160.8791615682
 20
101.3716776641
 10
160.8877788653
 20
101.3744171365
 10
160.8958260401
 20
101.3775869231
 10
160.9032206734
 20
101.3811600348
 10
160.9100451844
 20
101.3851634607
 10
160.9162995729
 20
101.3895972006
  0
LWPOLYLINE
  5
41C
100
AcDbEntity
  8
RACCORDO
100
AcDbPolyline
 62
253
  6
CONTINUOUS
 90
16
 70
0
 10
160.7858125097
 20
101.3733823899
 10
160.7945443348
 20
101.3708206818
 10
160.8035099948
 20
101.3687857343
 10
160.8127094897
 20
101.3672775475
 10
160.8222389521
 20
101.3662902299
 10
160.8320022494
 20
101.365829673
 10
160.8417109832
 20
101.3659135514
 10
160.8513584548
 20
101.3665588079
 10
160.8609513629
 20
101.3677484998
 10
160.8702214057
 20
101.3694494726
 10
160.8791615682
 20
101.3716776641
 10
160.8877788653
 20
101.3744171365
 10
160.8958260401
 20
101.3775869231
 10
160.9032206734
 20
101.3811600348
 10
160.9100451844
 20
101.3851634607
 10
160.9162995729
 20
101.3895972006
  0
LWPOLYLINE
  5
41D
100
AcDbEntity
  8
ASSI
100
AcDbPolyline
 62
253
  6
CONTINUOUS
 90
16
 70
0
 10
160.5874070931
 20
100.8484244744
 10
160.6306274608
 20
100.8356559919
 10
160.6757980046
 20
100.8253681992
 10
160.7224904411
 20
100.8176567529
 10
160.7702578239
 20
100.81259357
 10
160.8186529908
 20
100.8102236763
 10
160.8672332524
 20
100.8105674913
 10
160.9155466564
 20
100.8136233436
 10
160.963129991
 20
100.8193633279
 10
161.0095280208
 20
100.8277318388
 10
161.0542977934
 20
100.838648604
 10
161.0970221911
 20
100.8520112863
 10
161.1373066434
 20
100.8676959595
 10
161.1747720118
 20
100.8855569632
 10
161.2090598466
 20
100.9054265423
 10
161.2398444512
 20
100.9271183777
  0
LWPOLYLINE
  5
41E
100
AcDbEntity
  8
RACCORDO
100
AcDbPolyline
 62
253
  6
CONTINUOUS
 90
16
 70
0
 10
160.5874070931
 20
100.8484244744
 10
160.6306274608
 20
100.8356559919
 10
160.6757980046
 20
100.8253681992
 10
160.7224904411
 20
100.8176567529
 10
160.7702578239
 20
100.81259357
 10
160.8186529908
 20
100.8102236763
 10
160.8672332524
 20
100.8105674913
 10
160.9155466564
 20
100.8136233436
 10
160.963129991
 20
100.8193633279
 10
161.0095280208
 20
100.8277318388
 10
161.0542977934
 20
100.838648604
 10
161.0970221911
 20
100.8520112863
 10
161.1373066434
 20
100.8676959595
 10
161.1747720118
 20
100.8855569632
 10
161.2090598466
 20
100.9054265423
 10
161.2398444512
 20
100.9271183777
  0
LWPOLYLINE
  5
41F
100
AcDbEntity
  8
RACCORDO
100
AcDbPolyline
 62
7
  6
CONTINUOUS
 90
13
 70
0
 10
160.6615477741
 20
101.6203219219
 10
160.6801671486
 20
101.6144979447
 10
160.7251969215
 20
101.6033540891
 10
160.7723476383
 20
101.5958474078
 10
160.8211144892
 20
101.5922808238
 10
160.8693627858
 20
101.592838226
 10
160.9174901791
 20
101.5974540237
 10
160.9659416571
 20
101.606385398
 10
161.0126547249
 20
101.6193615812
 10
161.0574248451
 20
101.6362985625
 10
161.1006807954
 20
101.6574680041
 10
161.1410091783
 20
101.6822791535
 10
161.1607021899
 20
101.6965155087
  0
LWPOLYLINE
  5
420
100
AcDbEntity
  8
ASSI
100
AcDbPolyline
 62
7
  6
CONTINUOUS
 90
13
 70
0
 10
160.6615477741
 20
101.6203219219
 10
160.6801671486
 20
101.6144979447
 10
160.7251969215
 20
101.6033540891
 10
160.7723476383
 20
101.5958474078
 10
160.8211144892
 20
101.5922808238
 10
160.8693627858
 20
101.592838226
 10
160.9174901791
 20
101.5974540237
 10
160.9659416571
 20
101.606385398
 10
161.0126547249
 20
101.6193615812
 10
161.0574248451
 20
101.6362985625
 10
161.1006807954
 20
101.6574680041
 10
161.1410091783
 20
101.6822791535
 10
161.1607021899
 20
101.6965155087
  0
LINE
  5
421
100
AcDbEntity
  8
ASSI
100
AcDbLine
 62
253
  6
CONTINUOUS
 10
159.8005465439
 20
101.1114073488
 11
160.5874070745
 21
100.8484244619
  0
LINE
  5
422
100
AcDbEntity
  8
RACCORDO
100
AcDbLine
 62
253
  6
CONTINUOUS
 10
159.8005465439
 20
101.1114073488
 11
160.5874070745
 21
100.8484244619
  0
LINE
  5
423
100
AcDbEntity
  8
ASSI
100
AcDbLine
 62
253
  6
CONTINUOUS
 10
159.01755001
 20
101.3776613973
 11
159.8005465439
 21
101.1114073488
  0
LINE
  5
424
100
AcDbEntity
  8
RACCORDO
100
AcDbLine
 62
253
  6
CONTINUOUS
 10
159.01755001
 20
101.3776613973
 11
159.8005465439
 21
101.1114073488
  0
LWPOLYLINE
  5
425
100
AcDbEntity
  8
ASSI
100
AcDbPolyline
 62
253
  6
CONTINUOUS
 90
16
 70
0
 10
154.5813488253
 20
102.4607745044
 10
154.6582228994
 20
102.4342896576
 10
154.7352217372
 20
102.4122756191
 10
154.8120735045
 20
102.3948818524
 10
154.8885568659
 20
102.3822444134
 10
154.9643316039
 20
102.3744886559
 10
155.0389474016
 20
102.3716973245
 10
155.1121324816
 20
102.3739304631
 10
155.1836012181
 20
102.3812273556
 10
155.2529047668
 20
102.3935526416
 10
155.3197782118
 20
102.4108741587
 10
155.3839848739
 20
102.4331450006
 10
155.4451570462
 20
102.4602233871
 10
155.5030889148
 20
102.4920041283
 10
155.5575736214
 20
102.5283588493
 10
155.5955173118
 20
102.5580845214
  0
LWPOLYLINE
  5
426
100
AcDbEntity
  8
RACCORDO
100
AcDbPolyline
 62
253
  6
CONTINUOUS
 90
16
 70
0
 10
154.5813488253
 20
102.4607745044
 10
154.6582228994
 20
102.4342896576
 10
154.7352217372
 20
102.4122756191
 10
154.8120735045
 20
102.3948818524
 10
154.8885568659
 20
102.3822444134
 10
154.9643316039
 20
102.3744886559
 10
155.0389474016
 20
102.3716973245
 10
155.1121324816
 20
102.3739304631
 10
155.1836012181
 20
102.3812273556
 10
155.2529047668
 20
102.3935526416
 10
155.3197782118
 20
102.4108741587
 10
155.3839848739
 20
102.4331450006
 10
155.4451570462
 20
102.4602233871
 10
155.5030889148
 20
102.4920041283
 10
155.5575736214
 20
102.5283588493
 10
155.5955173118
 20
102.5580845214
  0
LINE
  5
427
100
AcDbEntity
  8
ASSI
100
AcDbLine
 62
253
  6
CONTINUOUS
 10
158.2384471103
 20
101.6471668218
 11
159.01755001
 21
101.3776613973
  0
LINE
  5
428
100
AcDbEntity
  8
RACCORDO
100
AcDbLine
 62
253
  6
CONTINUOUS
 10
158.2384471103
 20
101.6471668218
 11
159.01755001
 21
101.3776613973
  0
LWPOLYLINE
  5
429
100
AcDbEntity
  8
ASSI
100
AcDbPolyline
 62
253
  6
CONTINUOUS
 90
22
 70
0
 10
154.3626212026
 20
101.9418050041
 10
154.4597585573
 20
101.9077184097
 10
154.5563519531
 20
101.8796009888
 10
154.6524006195
 20
101.8574521092
 10
154.7483239172
 20
101.8411588541
 10
154.8437021218
 20
101.8308338612
 10
154.9372738176
 20
101.8268130684
 10
155.0290217776
 20
101.8292111235
 10
155.1189590832
 20
101.8379097434
 10
155.2058655924
 20
101.85289182
 10
155.289670795
 20
101.8742672899
 10
155.3704383263
 20
101.9019201154
 10
155.4471456773
 20
101.9354911021
 10
155.5197195411
 20
101.9750878909
 10
155.5882249655
 20
102.0205954577
 10
155.6518442482
 20
102.0713182517
 10
155.7104685859
 20
102.1273358638
 10
155.7641983365
 20
102.1885611327
 10
155.8125277164
 20
102.2540468324
 10
155.8552852457
 20
102.3234746636
 10
155.8926349608
 20
102.3971562775
 10
155.9245741411
 20
102.4750892226
  0
LWPOLYLINE
  5
42A
100
AcDbEntity
  8
RACCORDO
100
AcDbPolyline
 62
253
  6
CONTINUOUS
 90
22
 70
0
 10
154.3626212026
 20
101.9418050041
 10
154.4597585573
 20
101.9077184097
 10
154.5563519531
 20
101.8796009888
 10
154.6524006195
 20
101.8574521092
 10
154.7483239172
 20
101.8411588541
 10
154.8437021218
 20
101.8308338612
 10
154.9372738176
 20
101.8268130684
 10
155.0290217776
 20
101.8292111235
 10
155.1189590832
 20
101.8379097434
 10
155.2058655924
 20
101.85289182
 10
155.289670795
 20
101.8742672899
 10
155.3704383263
 20
101.9019201154
 10
155.4471456773
 20
101.9354911021
 10
155.5197195411
 20
101.9750878909
 10
155.5882249655
 20
102.0205954577
 10
155.6518442482
 20
102.0713182517
 10
155.7104685859
 20
102.1273358638
 10
155.7641983365
 20
102.1885611327
 10
155.8125277164
 20
102.2540468324
 10
155.8552852457
 20
102.3234746636
 10
155.8926349608
 20
102.3971562775
 10
155.9245741411
 20
102.4750892226
  0
LINE
  5
42B
100
AcDbEntity
  8
ASSI
100
AcDbLine
 62
253
  6
CONTINUOUS
 10
157.4632456987
 20
101.9199129611
 11
158.2384471103
 21
101.6471668218
  0
LINE
  5
42C
100
AcDbEntity
  8
RACCORDO
100
AcDbLine
 62
253
  6
CONTINUOUS
 10
157.4632456987
 20
101.9199129611
 11
158.2384471103
 21
101.6471668218
  0
LINE
  5
42D
100
AcDbEntity
  8
ASSI
100
AcDbLine
 62
253
  6
CONTINUOUS
 10
156.691945177
 20
102.1958930076
 11
157.4632456987
 21
101.9199129611
  0
LINE
  5
42E
100
AcDbEntity
  8
RACCORDO
100
AcDbLine
 62
253
  6
CONTINUOUS
 10
156.691945177
 20
102.1958930076
 11
157.4632456987
 21
101.9199129611
  0
LINE
  5
42F
100
AcDbEntity
  8
ASSI
100
AcDbLine
 62
253
  6
CONTINUOUS
 10
155.9245741411
 20
102.4750892226
 11
156.691945177
 21
102.1958930076
  0
LINE
  5
430
100
AcDbEntity
  8
RACCORDO
100
AcDbLine
 62
253
  6
CONTINUOUS
 10
155.9245741411
 20
102.4750892226
 11
156.691945177
 21
102.1958930076
  0
LWPOLYLINE
  5
431
100
AcDbEntity
  8
ASSI
100
AcDbPolyline
 62
253
  6
CONTINUOUS
 90
22
 70
0
 10
135.8989120326
 20
109.3274458735
 10
135.9937925653
 20
109.2920618517
 10
136.088097371
 20
109.2625814413
 10
136.1818267636
 20
109.2390048851
 10
136.2753882875
 20
109.2212111088
 10
136.3683756387
 20
109.2093221849
 10
136.4595686398
 20
109.2037032977
 10
136.5489561059
 20
109.2044702315
 10
136.6365516309
 20
109.211509147
 10
136.7211723527
 20
109.2248408935
 10
136.8027568894
 20
109.244580304
 10
136.8813698874
 20
109.2706151848
 10
136.9560173882
 20
109.3026257161
 10
137.0266361481
 20
109.3407266925
 10
137.093293042
 20
109.3848062543
 10
137.1551887696
 20
109.4342041608
 10
137.2122248456
 20
109.4890090856
 10
137.2645031101
 20
109.5491350592
 10
137.3115238403
 20
109.6136591196
 10
137.3531210386
 20
109.6822740683
 10
137.3894630825
 20
109.7552890074
 10
137.4205512833
 20
109.8327049907
  0
LWPOLYLINE
  5
432
100
AcDbEntity
  8
RACCORDO
100
AcDbPolyline
 62
253
  6
CONTINUOUS
 90
22
 70
0
 10
135.8989120326
 20
109.3274458735
 10
135.9937925653
 20
109.2920618517
 10
136.088097371
 20
109.2625814413
 10
136.1818267636
 20
109.2390048851
 10
136.2753882875
 20
109.2212111088
 10
136.3683756387
 20
109.2093221849
 10
136.4595686398
 20
109.2037032977
 10
136.5489561059
 20
109.2044702315
 10
136.6365516309
 20
109.211509147
 10
136.7211723527
 20
109.2248408935
 10
136.8027568894
 20
109.244580304
 10
136.8813698874
 20
109.2706151848
 10
136.9560173882
 20
109.3026257161
 10
137.0266361481
 20
109.3407266925
 10
137.093293042
 20
109.3848062543
 10
137.1551887696
 20
109.4342041608
 10
137.2122248456
 20
109.4890090856
 10
137.2645031101
 20
109.5491350592
 10
137.3115238403
 20
109.6136591196
 10
137.3531210386
 20
109.6822740683
 10
137.3894630825
 20
109.7552890074
 10
137.4205512833
 20
109.8327049907
  0
LINE
  5
433
100
AcDbEntity
  8
ASSI
100
AcDbLine
 62
253
  6
CONTINUOUS
 10
153.4801366901
 20
102.2798832329
 11
154.3626212026
 21
101.9418050041
  0
LINE
  5
434
100
AcDbEntity
  8
RACCORDO
100
AcDbLine
 62
253
  6
CONTINUOUS
 10
153.4801366901
 20
102.2798832329
 11
154.3626212026
 21
101.9418050041
  0
LINE
  5
435
100
AcDbEntity
  8
ASSI
100
AcDbLine
 62
253
  6
CONTINUOUS
 10
153.7018083036
 20
102.7977317626
 11
154.5813494497
 21
102.4607750216
  0
LINE
  5
436
100
AcDbEntity
  8
RACCORDO
100
AcDbLine
 62
253
  6
CONTINUOUS
 10
153.7018083036
 20
102.7977317626
 11
154.5813494497
 21
102.4607750216
  0
LINE
  5
437
100
AcDbEntity
  8
ASSI
100
AcDbLine
 62
253
  6
CONTINUOUS
 10
152.6023377387
 20
102.6225605616
 11
153.4801366901
 21
102.2798832329
  0
LINE
  5
438
100
AcDbEntity
  8
RACCORDO
100
AcDbLine
 62
253
  6
CONTINUOUS
 10
152.6023377387
 20
102.6225605616
 11
153.4801366901
 21
102.2798832329
  0
LINE
  5
439
100
AcDbEntity
  8
ASSI
100
AcDbLine
 62
253
  6
CONTINUOUS
 10
152.8268571522
 20
103.1392879135
 11
153.7018083036
 21
102.7977317626
  0
LINE
  5
43A
100
AcDbEntity
  8
RACCORDO
100
AcDbLine
 62
253
  6
CONTINUOUS
 10
152.8268571522
 20
103.1392879135
 11
153.7018083036
 21
102.7977317626
  0
LINE
  5
43B
100
AcDbEntity
  8
ASSI
100
AcDbLine
 62
253
  6
CONTINUOUS
 10
151.7292472639
 20
102.969833383
 11
152.6023377387
 21
102.6225605616
  0
LINE
  5
43C
100
AcDbEntity
  8
RACCORDO
100
AcDbLine
 62
253
  6
CONTINUOUS
 10
151.7292472639
 20
102.969833383
 11
152.6023377387
 21
102.6225605616
  0
LINE
  5
43D
100
AcDbEntity
  8
ASSI
100
AcDbLine
 62
253
  6
CONTINUOUS
 10
151.9565983834
 20
103.4854073978
 11
152.8268571522
 21
103.1392879135
  0
LINE
  5
43E
100
AcDbEntity
  8
RACCORDO
100
AcDbLine
 62
253
  6
CONTINUOUS
 10
151.9565983834
 20
103.4854073978
 11
152.8268571522
 21
103.1392879135
  0
LINE
  5
43F
100
AcDbEntity
  8
ASSI
100
AcDbLine
 62
253
  6
CONTINUOUS
 10
149.1282339723
 20
104.0142519344
 11
151.7292472639
 21
102.969833383
  0
LINE
  5
440
100
AcDbEntity
  8
RACCORDO
100
AcDbLine
 62
253
  6
CONTINUOUS
 10
149.1282339723
 20
104.0142519344
 11
151.7292472639
 21
102.969833383
  0
LINE
  5
441
100
AcDbEntity
  8
ASSI
100
AcDbLine
 62
253
  6
CONTINUOUS
 10
149.3557222831
 20
104.5297144989
 11
151.9565983834
 21
103.4854073978
  0
LINE
  5
442
100
AcDbEntity
  8
RACCORDO
100
AcDbLine
 62
253
  6
CONTINUOUS
 10
149.3557222831
 20
104.5297144989
 11
151.9565983834
 21
103.4854073978
  0
LINE
  5
443
100
AcDbEntity
  8
ASSI
100
AcDbLine
 62
253
  6
CONTINUOUS
 10
132.7193098553
 20
110.6061852148
 11
135.8989120326
 21
109.3274458735
  0
LINE
  5
444
100
AcDbEntity
  8
RACCORDO
100
AcDbLine
 62
253
  6
CONTINUOUS
 10
132.7193098553
 20
110.6061852148
 11
135.8989120326
 21
109.3274458735
  0
LINE
  5
445
100
AcDbEntity
  8
ASSI
100
AcDbLine
 62
253
  6
CONTINUOUS
 10
132.9486841399
 20
111.1209618934
 11
136.12627228
 21
109.8429598712
  0
LINE
  5
446
100
AcDbEntity
  8
RACCORDO
100
AcDbLine
 62
253
  6
CONTINUOUS
 10
132.9486841399
 20
111.1209618934
 11
136.12627228
 21
109.8429598712
  0
LINE
  5
447
100
AcDbEntity
  8
ASSI
100
AcDbLine
 62
253
  6
CONTINUOUS
 10
131.8555958352
 20
110.9607772002
 11
132.7193098553
 21
110.6061852148
  0
LINE
  5
448
100
AcDbEntity
  8
RACCORDO
100
AcDbLine
 62
253
  6
CONTINUOUS
 10
131.8555958352
 20
110.9607772002
 11
132.7193098553
 21
110.6061852148
  0
LINE
  5
449
100
AcDbEntity
  8
ASSI
100
AcDbLine
 62
253
  6
CONTINUOUS
 10
132.0877687694
 20
111.4744199528
 11
132.9486841399
 21
111.1209618934
  0
LINE
  5
44A
100
AcDbEntity
  8
RACCORDO
100
AcDbLine
 62
253
  6
CONTINUOUS
 10
132.0877687694
 20
111.4744199528
 11
132.9486841399
 21
111.1209618934
  0
LWPOLYLINE
  5
44B
100
AcDbEntity
  8
ASSI
100
AcDbPolyline
 62
253
  6
CONTINUOUS
 90
3
 70
0
 10
130.712995861
 20
111.4400277096
 10
130.9976746513
 20
111.3195252421
 10
131.8555958352
 20
110.9607772002
  0
LWPOLYLINE
  5
44C
100
AcDbEntity
  8
RACCORDO
100
AcDbPolyline
 62
253
  6
CONTINUOUS
 90
3
 70
0
 10
130.712995861
 20
111.4400277096
 10
130.9976746513
 20
111.3195252421
 10
131.8555958352
 20
110.9607772002
  0
LWPOLYLINE
  5
44D
100
AcDbEntity
  8
ASSI
100
AcDbPolyline
 62
253
  6
CONTINUOUS
 90
3
 70
0
 10
130.9489573686
 20
111.9520765215
 10
131.2326832524
 20
111.831980983
 10
132.0877687694
 20
111.4744199528
  0
LWPOLYLINE
  5
44E
100
AcDbEntity
  8
RACCORDO
100
AcDbPolyline
 62
253
  6
CONTINUOUS
 90
3
 70
0
 10
130.9489573686
 20
111.9520765215
 10
131.2326832524
 20
111.831980983
 10
132.0877687694
 20
111.4744199528
  0
LINE
  5
44F
100
AcDbEntity
  8
ASSI
100
AcDbLine
 62
253
  6
CONTINUOUS
 10
128.4977342043
 20
113.5193236491
 11
129.2181021119
 21
113.2010104728
  0
LINE
  5
450
100
AcDbEntity
  8
RACCORDO
100
AcDbLine
 62
253
  6
CONTINUOUS
 10
128.4977342043
 20
113.5193236491
 11
129.2181021119
 21
113.2010104728
  0
LINE
  5
451
100
AcDbEntity
  8
ASSI
100
AcDbLine
 62
253
  6
CONTINUOUS
 10
127.7812061028
 20
113.8408890244
 11
128.4977342043
 21
113.5193236491
  0
LINE
  5
452
100
AcDbEntity
  8
RACCORDO
100
AcDbLine
 62
253
  6
CONTINUOUS
 10
127.7812061028
 20
113.8408890244
 11
128.4977342043
 21
113.5193236491
  0
LINE
  5
453
100
AcDbEntity
  8
ASSI
100
AcDbLine
 62
253
  6
CONTINUOUS
 10
127.0685574238
 20
114.1656969576
 11
127.7812061028
 21
113.8408890244
  0
LINE
  5
454
100
AcDbEntity
  8
RACCORDO
100
AcDbLine
 62
253
  6
CONTINUOUS
 10
127.0685574238
 20
114.1656969576
 11
127.7812061028
 21
113.8408890244
  0
LINE
  5
455
100
AcDbEntity
  8
ASSI
100
AcDbLine
 62
253
  6
CONTINUOUS
 10
126.3598021592
 20
114.4937488698
 11
127.0685574238
 21
114.1656969576
  0
LINE
  5
456
100
AcDbEntity
  8
RACCORDO
100
AcDbLine
 62
253
  6
CONTINUOUS
 10
126.3598021592
 20
114.4937488698
 11
127.0685574238
 21
114.1656969576
  0
LINE
  5
457
100
AcDbEntity
  8
ASSI
100
AcDbLine
 62
253
  6
CONTINUOUS
 10
125.6549618748
 20
114.8250437023
 11
126.3598021592
 21
114.4937488698
  0
LINE
  5
458
100
AcDbEntity
  8
RACCORDO
100
AcDbLine
 62
253
  6
CONTINUOUS
 10
125.6549618748
 20
114.8250437023
 11
126.3598021592
 21
114.4937488698
  0
LINE
  5
459
100
AcDbEntity
  8
ASSI
100
AcDbLine
 62
253
  6
CONTINUOUS
 10
124.9540795682
 20
115.1595721255
 11
125.6549618748
 21
114.8250437023
  0
LINE
  5
45A
100
AcDbEntity
  8
RACCORDO
100
AcDbLine
 62
253
  6
CONTINUOUS
 10
124.9540795682
 20
115.1595721255
 11
125.6549618748
 21
114.8250437023
  0
LWPOLYLINE
  5
45B
100
AcDbEntity
  8
ASSI
100
AcDbPolyline
 62
253
  6
CONTINUOUS
 90
3
 70
0
 10
125.2088313625
 20
115.6619000733
 10
125.557640928
 20
115.4947879806
 10
126.2581979709
 20
115.1629875562
  0
LWPOLYLINE
  5
45C
100
AcDbEntity
  8
RACCORDO
100
AcDbPolyline
 62
253
  6
CONTINUOUS
 90
3
 70
0
 10
125.2088313625
 20
115.6619000733
 10
125.557640928
 20
115.4947879806
 10
126.2581979709
 20
115.1629875562
  0
LINE
  5
45D
100
AcDbEntity
  8
RACCORDO
100
AcDbLine
 62
7
  6
CONTINUOUS
 10
125.0379407564
 20
115.9276845386
 11
125.0375233567
 21
115.9278857392
  0
LINE
  5
45E
100
AcDbEntity
  8
ASSI
100
AcDbLine
 62
7
  6
CONTINUOUS
 10
125.0379407564
 20
115.9276845386
 11
125.0375233567
 21
115.9278857392
  0
LWPOLYLINE
  5
45F
100
AcDbEntity
  8
RACCORDO
100
AcDbPolyline
 62
253
  6
CONTINUOUS
 90
10
 70
0
 10
124.9540795906
 20
116.1128420004
 10
124.9183528016
 20
116.1317488632
 10
124.8860068341
 20
116.1525419338
 10
124.8573450804
 20
116.1750232508
 10
124.8326380228
 20
116.1989763462
 10
124.8121131681
 20
116.2241762631
 10
124.7959571771
 20
116.2503928557
 10
124.7843221697
 20
116.2773821869
 10
124.777321526
 20
116.3048855968
 10
124.7750219515
 20
116.3324074812
  0
LWPOLYLINE
  5
460
100
AcDbEntity
  8
ASSI
100
AcDbPolyline
 62
253
  6
CONTINUOUS
 90
10
 70
0
 10
124.9540795906
 20
116.1128420004
 10
124.9183528016
 20
116.1317488632
 10
124.8860068341
 20
116.1525419338
 10
124.8573450804
 20
116.1750232508
 10
124.8326380228
 20
116.1989763462
 10
124.8121131681
 20
116.2241762631
 10
124.7959571771
 20
116.2503928557
 10
124.7843221697
 20
116.2773821869
 10
124.777321526
 20
116.3048855968
 10
124.7750219515
 20
116.3324074812
  0
LWPOLYLINE
  5
461
100
AcDbEntity
  8
RACCORDO
100
AcDbPolyline
 62
253
  6
CONTINUOUS
 90
9
 70
0
 10
125.0375233567
 20
115.9278857392
 10
125.0193872901
 20
115.9389191144
 10
125.002629871
 20
115.9540804513
 10
124.988131869
 20
115.972869531
 10
124.9760506137
 20
115.9950824582
 10
124.9665172086
 20
116.0204781829
 10
124.9596351083
 20
116.0487811159
 10
124.9554789963
 20
116.0796841198
 10
124.954093974
 20
116.1128518415
  0
LWPOLYLINE
  5
462
100
AcDbEntity
  8
ASSI
100
AcDbPolyline
 62
253
  6
CONTINUOUS
 90
9
 70
0
 10
125.0375233567
 20
115.9278857392
 10
125.0193872901
 20
115.9389191144
 10
125.002629871
 20
115.9540804513
 10
124.988131869
 20
115.972869531
 10
124.9760506137
 20
115.9950824582
 10
124.9665172086
 20
116.0204781829
 10
124.9596351083
 20
116.0487811159
 10
124.9554789963
 20
116.0796841198
 10
124.954093974
 20
116.1128518415
  0
LWPOLYLINE
  5
463
100
AcDbEntity
  8
RACCORDO
100
AcDbPolyline
 62
7
  6
CONTINUOUS
 90
6
 70
0
 10
137.3484416992
 20
110.7171731636
 10
137.377872596
 20
110.686809162
 10
137.410446804
 20
110.6596453043
 10
137.4458044706
 20
110.6360296861
 10
137.4835570831
 20
110.6162603494
 10
137.5010675514
 20
110.6087478688
  0
LWPOLYLINE
  5
464
100
AcDbEntity
  8
ASSI
100
AcDbPolyline
 62
7
  6
CONTINUOUS
 90
6
 70
0
 10
137.3484416992
 20
110.7171731636
 10
137.377872596
 20
110.686809162
 10
137.410446804
 20
110.6596453043
 10
137.4458044706
 20
110.6360296861
 10
137.4835570831
 20
110.6162603494
 10
137.5010675514
 20
110.6087478688
  0
LINE
  5
465
100
AcDbEntity
  8
0
100
AcDbLine
 62
253
  6
CONTINUOUS
 10
146.6503415264
 20
97.4495625069
 11
146.6396268553
 21
97.466226472
  0
LINE
  5
466
100
AcDbEntity
  8
0
100
AcDbLine
 62
253
  6
CONTINUOUS
 10
146.8726247991
 20
98.8681972088
 11
146.862456753
 21
98.884192611
  0
LINE
  5
467
100
AcDbEntity
  8
0
100
AcDbLine
 62
253
  6
CONTINUOUS
 10
146.6583280838
 20
97.4323573595
 11
146.6503415264
 21
97.4495625069
  0
LINE
  5
468
100
AcDbEntity
  8
0
100
AcDbLine
 62
253
  6
CONTINUOUS
 10
144.008139616
 20
100.0051175161
 11
144.0002002795
 21
100.0223547914
  0
LINE
  5
469
100
AcDbEntity
  8
0
100
AcDbLine
 62
253
  6
CONTINUOUS
 10
144.7549201991
 20
96.4415448541
 11
144.7599978833
 21
96.4244345948
  0
LINE
  5
46A
100
AcDbEntity
  8
0
100
AcDbLine
 62
253
  6
CONTINUOUS
 10
143.7909261827
 20
98.5693485651
 11
143.7859082793
 21
98.5864702937
  0
LINE
  5
46B
100
AcDbEntity
  8
0
100
AcDbLine
 62
253
  6
CONTINUOUS
 10
144.013107595
 20
99.9879276789
 11
144.008139616
 21
100.0051175161
  0
LINE
  5
46C
100
AcDbEntity
  8
0
100
AcDbLine
 62
253
  6
CONTINUOUS
 10
140.9698289128
 20
100.3869968469
 11
140.9550824229
 21
100.4572931555
  0
LINE
  5
46D
100
AcDbEntity
  8
0
100
AcDbLine
 62
253
  6
CONTINUOUS
 10
139.6816221122
 20
118.0986709024
 11
139.6942064119
 21
118.0283361788
  0
LINE
  5
46E
100
AcDbEntity
  8
0
100
AcDbLine
 62
253
  6
CONTINUOUS
 10
140.9840877766
 20
100.3009347928
 11
140.9698289128
 21
100.3869968469
  0
LINE
  5
46F
100
AcDbEntity
  8
0
100
AcDbLine
 62
253
  6
CONTINUOUS
 10
139.6701147596
 20
118.1809212808
 11
139.6816221122
 21
118.0986709024
  0
LINE
  5
470
100
AcDbEntity
  8
0
100
AcDbLine
 62
253
  6
CONTINUOUS
 10
140.4867625055
 20
100.4400292048
 11
140.4960719986
 21
100.3718316852
  0
LINE
  5
471
100
AcDbEntity
  8
0
100
AcDbLine
 62
253
  6
CONTINUOUS
 10
140.1760001239
 20
117.9869303768
 11
140.1678258786
 21
118.04905339
  0
LINE
  5
472
100
AcDbEntity
  8
0
100
AcDbLine
 62
253
  6
CONTINUOUS
 10
140.9957362738
 20
100.2109183411
 11
140.9840877766
 21
100.3009347928
  0
LINE
  5
473
100
AcDbEntity
  8
0
100
AcDbLine
 62
253
  6
CONTINUOUS
 10
141.8802393483
 20
97.6120579648
 11
141.8822169687
 21
97.5954428216
  0
LINE
  5
474
100
AcDbEntity
  8
0
100
AcDbLine
 62
253
  6
CONTINUOUS
 10
141.6265565678
 20
118.8567599568
 11
141.6332031085
 21
118.7869195976
  0
LINE
  5
475
100
AcDbEntity
  8
0
100
AcDbLine
 62
253
  6
CONTINUOUS
 10
142.1344411851
 20
118.6276600012
 11
142.1263666532
 21
118.7200274869
  0
LINE
  5
476
100
AcDbEntity
  8
0
100
AcDbLine
 62
253
  6
CONTINUOUS
 10
142.9260948218
 20
115.9514686327
 11
142.9274951576
 21
115.9339120829
  0
LWPOLYLINE
  5
477
100
AcDbEntity
  8
ASSI
100
AcDbPolyline
 62
253
  6
CONTINUOUS
 90
11
 70
0
 10
142.8235533224
 20
91.4280518717
 10
142.8287545023
 20
91.3526084829
 10
142.8384795061
 20
91.2817394825
 10
142.8526638408
 20
91.2159148515
 10
142.8712134402
 20
91.155571118
 10
142.8940052892
 20
91.1011084627
 10
142.9208882396
 20
91.0528880646
 10
142.9516840121
 20
91.0112297062
 10
142.9861883789
 20
90.9764096527
 10
143.0241725178
 20
90.9486588196
 10
143.0636815955
 20
90.9288383479
  0
LWPOLYLINE
  5
478
100
AcDbEntity
  8
RACCORDO
100
AcDbPolyline
 62
253
  6
CONTINUOUS
 90
11
 70
0
 10
142.8235533224
 20
91.4280518717
 10
142.8287545023
 20
91.3526084829
 10
142.8384795061
 20
91.2817394825
 10
142.8526638408
 20
91.2159148515
 10
142.8712134402
 20
91.155571118
 10
142.8940052892
 20
91.1011084627
 10
142.9208882396
 20
91.0528880646
 10
142.9516840121
 20
91.0112297062
 10
142.9861883789
 20
90.9764096527
 10
143.0241725178
 20
90.9486588196
 10
143.0636815955
 20
90.9288383479
  0
LINE
  5
479
100
AcDbEntity
  8
0
100
AcDbLine
 62
253
  6
CONTINUOUS
 10
141.6332031085
 20
118.7869195976
 11
141.6382724487
 21
118.7085938227
  0
LINE
  5
47A
100
AcDbEntity
  8
0
100
AcDbLine
 62
253
  6
CONTINUOUS
 10
142.1397236414
 20
118.5289126086
 11
142.1344411851
 21
118.6276600012
  0
LINE
  5
47B
100
AcDbEntity
  8
0
100
AcDbLine
 62
253
  6
CONTINUOUS
 10
141.6382724487
 20
118.7085938227
 11
141.6414995992
 21
118.6216295328
  0
LINE
  5
47C
100
AcDbEntity
  8
0
100
AcDbLine
 62
253
  6
CONTINUOUS
 10
141.6414995992
 20
118.6216295328
 11
141.6418799259
 21
118.6042819507
  0
LINE
  5
47D
100
AcDbEntity
  8
0
100
AcDbLine
 62
253
  6
CONTINUOUS
 10
142.3775108738
 20
97.4123720545
 11
142.3465666877
 21
98.7825320972
  0
LINE
  5
47E
100
AcDbEntity
  8
0
100
AcDbLine
 62
253
  6
CONTINUOUS
 10
141.8441254419
 20
99.2312142086
 11
141.880237788
 21
97.6120585914
  0
LINE
  5
47F
100
AcDbEntity
  8
0
100
AcDbLine
 62
253
  6
CONTINUOUS
 10
142.1419584389
 20
118.4239168839
 11
142.1397236414
 21
118.5289126086
  0
LINE
  5
480
100
AcDbEntity
  8
0
100
AcDbLine
 62
253
  6
CONTINUOUS
 10
143.7984473323
 20
98.2798169595
 11
143.7928380031
 21
98.5527719993
  0
LINE
  5
481
100
AcDbEntity
  8
0
100
AcDbLine
 62
253
  6
CONTINUOUS
 10
142.3376162675
 20
99.2181225896
 11
142.3172202111
 21
100.3004655201
  0
LINE
  5
482
100
AcDbEntity
  8
0
100
AcDbLine
 62
253
  6
CONTINUOUS
 10
141.8138265613
 20
100.8553707961
 11
141.8441254419
 21
99.2312142086
  0
LINE
  5
483
100
AcDbEntity
  8
0
100
AcDbLine
 62
253
  6
CONTINUOUS
 10
141.6418799259
 20
118.6042819507
 11
141.6433160456
 21
118.4775004161
  0
LINE
  5
484
100
AcDbEntity
  8
0
100
AcDbLine
 62
253
  6
CONTINUOUS
 10
142.1419897836
 20
118.4175081746
 11
142.1419584389
 21
118.4239168839
  0
LWPOLYLINE
  5
485
100
AcDbEntity
  8
ASSI
100
AcDbPolyline
 62
253
  6
CONTINUOUS
 90
10
 70
0
 10
142.5112998089
 20
107.7881638875
 10
142.5168401019
 20
105.9457623094
 10
142.5296711502
 20
104.1093535127
 10
142.5497924353
 20
102.2789957434
 10
142.5772039966
 20
100.4547145337
 10
142.6119050193
 20
98.6366010984
 10
142.6538925243
 20
96.8248112131
 10
142.7031638635
 20
95.019434522
 10
142.7597180285
 20
93.2204956617
 10
142.8235533224
 20
91.4280518717
  0
LWPOLYLINE
  5
486
100
AcDbEntity
  8
RACCORDO
100
AcDbPolyline
 62
253
  6
CONTINUOUS
 90
10
 70
0
 10
142.5112998089
 20
107.7881638875
 10
142.5168401019
 20
105.9457623094
 10
142.5296711502
 20
104.1093535127
 10
142.5497924353
 20
102.2789957434
 10
142.5772039966
 20
100.4547145337
 10
142.6119050193
 20
98.6366010984
 10
142.6538925243
 20
96.8248112131
 10
142.7031638635
 20
95.019434522
 10
142.7597180285
 20
93.2204956617
 10
142.8235533224
 20
91.4280518717
  0
LWPOLYLINE
  5
487
100
AcDbEntity
  8
RACCORDO
100
AcDbPolyline
 62
253
  6
CONTINUOUS
 90
10
 70
0
 10
142.5112998089
 20
108.7480551865
 10
142.5168401019
 20
110.5995334492
 10
142.5296711502
 20
112.4569634048
 10
142.5497924353
 20
114.3202859577
 10
142.5772039966
 20
116.1894756405
 10
142.6119050193
 20
118.0644399031
 10
142.6538925243
 20
119.9450180896
 10
142.7031638635
 20
121.8311162171
 10
142.7597180285
 20
123.7227079972
 10
142.8235533224
 20
125.6197334102
  0
LWPOLYLINE
  5
488
100
AcDbEntity
  8
ASSI
100
AcDbPolyline
 62
253
  6
CONTINUOUS
 90
10
 70
0
 10
142.5112998089
 20
108.7480551865
 10
142.5168401019
 20
110.5995334492
 10
142.5296711502
 20
112.4569634048
 10
142.5497924353
 20
114.3202859577
 10
142.5772039966
 20
116.1894756405
 10
142.6119050193
 20
118.0644399031
 10
142.6538925243
 20
119.9450180896
 10
142.7031638635
 20
121.8311162171
 10
142.7597180285
 20
123.7227079972
 10
142.8235533224
 20
125.6197334102
  0
LINE
  5
489
100
AcDbEntity
  8
0
100
AcDbLine
 62
253
  6
CONTINUOUS
 10
142.1413654447
 20
118.2245736271
 11
142.1419897836
 21
118.4175081746
  0
LINE
  5
48A
100
AcDbEntity
  8
0
100
AcDbLine
 62
253
  6
CONTINUOUS
 10
141.6433160456
 20
118.4775004161
 11
141.642674843
 21
118.318105636
  0
LINE
  5
48B
100
AcDbEntity
  8
0
100
AcDbLine
 62
253
  6
CONTINUOUS
 10
142.1375664477
 20
117.9539275995
 11
142.1413654447
 21
118.2245736271
  0
LINE
  5
48C
100
AcDbEntity
  8
0
100
AcDbLine
 62
253
  6
CONTINUOUS
 10
141.642674843
 20
118.318105636
 11
141.640144065
 21
118.1536620378
  0
LINE
  5
48D
100
AcDbEntity
  8
0
100
AcDbLine
 62
253
  6
CONTINUOUS
 10
143.4233116174
 20
115.7517404981
 11
143.4449442115
 21
116.9776434065
  0
LINE
  5
48E
100
AcDbEntity
  8
0
100
AcDbLine
 62
253
  6
CONTINUOUS
 10
142.9563948529
 20
117.6251959276
 11
142.9260944755
 21
115.9514687718
  0
LINE
  5
48F
100
AcDbEntity
  8
0
100
AcDbLine
 62
253
  6
CONTINUOUS
 10
143.4449442115
 20
116.9776434065
 11
143.4696978796
 21
118.2059807098
  0
LINE
  5
490
100
AcDbEntity
  8
0
100
AcDbLine
 62
253
  6
CONTINUOUS
 10
142.9925067435
 20
119.3034448641
 11
142.9563948529
 21
117.6251959276
  0
LINE
  5
491
100
AcDbEntity
  8
0
100
AcDbLine
 62
253
  6
CONTINUOUS
 10
141.0273887874
 20
99.0128685903
 11
141.0296139224
 21
99.1104851873
  0
LINE
  5
492
100
AcDbEntity
  8
0
100
AcDbLine
 62
253
  6
CONTINUOUS
 10
141.640144065
 20
118.1536620378
 11
141.636171542
 21
117.9898654313
  0
LINE
  5
493
100
AcDbEntity
  8
0
100
AcDbLine
 62
253
  6
CONTINUOUS
 10
142.1306703197
 20
117.6847564232
 11
142.1375664477
 21
117.9539275995
  0
LINE
  5
494
100
AcDbEntity
  8
0
100
AcDbLine
 62
253
  6
CONTINUOUS
 10
141.636171542
 20
117.9898654313
 11
141.6305402356
 21
117.8326689974
  0
LINE
  5
495
100
AcDbEntity
  8
0
100
AcDbLine
 62
253
  6
CONTINUOUS
 10
142.1237061835
 20
117.4946747453
 11
142.1306703197
 21
117.6847564232
  0
LINE
  5
496
100
AcDbEntity
  8
0
100
AcDbLine
 62
253
  6
CONTINUOUS
 10
142.1234236856
 20
117.4884069512
 11
142.1237061835
 21
117.4946747453
  0
LINE
  5
497
100
AcDbEntity
  8
0
100
AcDbLine
 62
253
  6
CONTINUOUS
 10
141.6305402356
 20
117.8326689974
 11
141.624147458
 21
117.7092744056
  0
LINE
  5
498
100
AcDbEntity
  8
0
100
AcDbLine
 62
253
  6
CONTINUOUS
 10
141.0220851843
 20
98.9232288818
 11
141.0273887874
 21
99.0128685903
  0
LWPOLYLINE
  5
499
100
AcDbEntity
  8
RACCORDO
100
AcDbPolyline
 62
253
  6
CONTINUOUS
 90
19
 70
0
 10
142.8235533224
 20
125.6197334102
 10
142.8287545023
 20
125.7036979133
 10
142.8384795061
 20
125.7904994271
 10
142.8526638408
 20
125.8795623116
 10
142.8712134402
 20
125.9702959296
 10
142.8940052892
 20
126.0620985645
 10
142.9208882396
 20
126.1543614101
 10
142.9516840121
 20
126.2464726085
 10
142.9861883789
 20
126.3378213071
 10
143.0241725178
 20
126.4278017103
 10
143.06538453
 20
126.5158170963
 10
143.1095511105
 20
126.601283775
 10
143.1563793605
 20
126.6836349582
 10
143.2055587297
 20
126.7623245189
 10
143.2567630762
 20
126.8368306128
 10
143.3096528288
 20
126.906659139
 10
143.3638772394
 20
126.9713470167
 10
143.4190767088
 20
127.0304652563
 10
143.4748851715
 20
127.0836218042
  0
LWPOLYLINE
  5
49A
100
AcDbEntity
  8
ASSI
100
AcDbPolyline
 62
253
  6
CONTINUOUS
 90
19
 70
0
 10
142.8235533224
 20
125.6197334102
 10
142.8287545023
 20
125.7036979133
 10
142.8384795061
 20
125.7904994271
 10
142.8526638408
 20
125.8795623116
 10
142.8712134402
 20
125.9702959296
 10
142.8940052892
 20
126.0620985645
 10
142.9208882396
 20
126.1543614101
 10
142.9516840121
 20
126.2464726085
 10
142.9861883789
 20
126.3378213071
 10
143.0241725178
 20
126.4278017103
 10
143.06538453
 20
126.5158170963
 10
143.1095511105
 20
126.601283775
 10
143.1563793605
 20
126.6836349582
 10
143.2055587297
 20
126.7623245189
 10
143.2567630762
 20
126.8368306128
 10
143.3096528288
 20
126.906659139
 10
143.3638772394
 20
126.9713470167
 10
143.4190767088
 20
127.0304652563
 10
143.4748851715
 20
127.0836218042
  0
LINE
  5
49B
100
AcDbEntity
  8
0
100
AcDbLine
 62
253
  6
CONTINUOUS
 10
142.1171018702
 20
117.3871180594
 11
142.1234236856
 21
117.4884069512
  0
LINE
  5
49C
100
AcDbEntity
  8
0
100
AcDbLine
 62
253
  6
CONTINUOUS
 10
140.5258003953
 20
99.2335196151
 11
140.5206818534
 21
99.1630470004
  0
LINE
  5
49D
100
AcDbEntity
  8
0
100
AcDbLine
 62
253
  6
CONTINUOUS
 10
142.376304565
 20
97.3970943034
 11
142.3775109581
 21
97.4123720206
  0
LINE
  5
49E
100
AcDbEntity
  8
0
100
AcDbLine
 62
253
  6
CONTINUOUS
 10
141.8151471506
 20
100.8707568876
 11
141.813825001
 21
100.8553714227
  0
LINE
  5
49F
100
AcDbEntity
  8
0
100
AcDbLine
 62
253
  6
CONTINUOUS
 10
142.1080266986
 20
117.2944355866
 11
142.1171018702
 21
117.3871180594
  0
LINE
  5
4A0
100
AcDbEntity
  8
0
100
AcDbLine
 62
253
  6
CONTINUOUS
 10
141.0139580189
 20
98.8415965817
 11
141.0220851843
 21
98.9232288818
  0
LINE
  5
4A1
100
AcDbEntity
  8
0
100
AcDbLine
 62
253
  6
CONTINUOUS
 10
140.5206818534
 20
99.1630470004
 11
140.5140203756
 21
99.1021344362
  0
LINE
  5
4A2
100
AcDbEntity
  8
0
100
AcDbLine
 62
253
  6
CONTINUOUS
 10
143.4213599513
 20
115.7355304383
 11
143.4233130187
 21
115.7517399351
  0
LINE
  5
4A3
100
AcDbEntity
  8
0
100
AcDbLine
 62
253
  6
CONTINUOUS
 10
142.9945786162
 20
119.3197922418
 11
142.9925063971
 21
119.3034450033
  0
LINE
  5
4A4
100
AcDbEntity
  8
0
100
AcDbLine
 62
253
  6
CONTINUOUS
 10
142.0964546783
 20
117.2102745875
 11
142.1080266986
 21
117.2944355866
  0
LINE
  5
4A5
100
AcDbEntity
  8
0
100
AcDbLine
 62
253
  6
CONTINUOUS
 10
141.003268976
 20
98.7678897199
 11
141.0139580189
 21
98.8415965817
  0
LINE
  5
4A6
100
AcDbEntity
  8
0
100
AcDbLine
 62
253
  6
CONTINUOUS
 10
140.5140203756
 20
99.1021344362
 11
140.5060764396
 21
99.0501718661
  0
LINE
  5
4A7
100
AcDbEntity
  8
0
100
AcDbLine
 62
253
  6
CONTINUOUS
 10
141.0025882319
 20
98.7639017193
 11
141.003268976
 21
98.7678897199
  0
LINE
  5
4A8
100
AcDbEntity
  8
0
100
AcDbLine
 62
253
  6
CONTINUOUS
 10
140.5060764396
 20
99.0501718661
 11
140.5048142266
 21
99.0432146585
  0
LINE
  5
4A9
100
AcDbEntity
  8
0
100
AcDbLine
 62
253
  6
CONTINUOUS
 10
140.9907241021
 20
98.706004385
 11
141.0025882319
 21
98.7639017193
  0
LINE
  5
4AA
100
AcDbEntity
  8
0
100
AcDbLine
 62
253
  6
CONTINUOUS
 10
140.5048142266
 20
99.0432146585
 11
140.4956193967
 21
99.000536546
  0
LINE
  5
4AB
100
AcDbEntity
  8
0
100
AcDbLine
 62
253
  6
CONTINUOUS
 10
139.0649762373
 20
101.0748007721
 11
139.0743815657
 21
101.117634464
  0
LINE
  5
4AC
100
AcDbEntity
  8
0
100
AcDbLine
 62
253
  6
CONTINUOUS
 10
139.0743815657
 20
101.117634464
 11
139.0852931477
 21
101.155784512
  0
LINE
  5
4AD
100
AcDbEntity
  8
0
100
AcDbLine
 62
253
  6
CONTINUOUS
 10
138.5978823944
 20
101.4623517998
 11
138.5817328172
 21
101.4059998203
  0
LINE
  5
4AE
100
AcDbEntity
  8
0
100
AcDbLine
 62
253
  6
CONTINUOUS
 10
138.6169059198
 20
101.5151044598
 11
138.5978823944
 21
101.4623517998
  0
LINE
  5
4AF
100
AcDbEntity
  8
0
100
AcDbLine
 62
253
  6
CONTINUOUS
 10
139.0852931477
 20
101.155784512
 11
139.0975263447
 21
101.1894084993
  0
LINE
  5
4B0
100
AcDbEntity
  8
0
100
AcDbLine
 62
253
  6
CONTINUOUS
 10
143.4161263459
 20
115.7214058445
 11
143.4213599513
 21
115.7355304383
  0
LINE
  5
4B1
100
AcDbEntity
  8
0
100
AcDbLine
 62
253
  6
CONTINUOUS
 10
145.1015662145
 20
118.4896848411
 11
145.0962243109
 21
118.4754506091
  0
LINE
  5
4B2
100
AcDbEntity
  8
0
100
AcDbLine
 62
253
  6
CONTINUOUS
 10
138.6386695682
 20
101.5641812934
 11
138.6169059198
 21
101.5151044598
  0
LINE
  5
4B3
100
AcDbEntity
  8
0
100
AcDbLine
 62
253
  6
CONTINUOUS
 10
145.5093518309
 20
114.8654113091
 11
145.5177172096
 21
114.8770192967
  0
LINE
  5
4B4
100
AcDbEntity
  8
0
100
AcDbLine
 62
253
  6
CONTINUOUS
 10
145.5010602911
 20
114.8585715586
 11
145.5093518309
 21
114.8654113091
  0
LINE
  5
4B5
100
AcDbEntity
  8
0
100
AcDbLine
 62
253
  6
CONTINUOUS
 10
145.488036872
 20
114.8525797288
 11
145.5010602911
 21
114.8585715586
  0
LINE
  5
4B6
100
AcDbEntity
  8
ASSI
100
AcDbLine
 62
253
  6
CONTINUOUS
 10
160.0015177346
 20
101.6355296067
 11
160.7858125097
 21
101.3733823899
  0
LINE
  5
4B7
100
AcDbEntity
  8
RACCORDO
100
AcDbLine
 62
253
  6
CONTINUOUS
 10
160.0015177346
 20
101.6355296067
 11
160.7858125097
 21
101.3733823899
  0
LINE
  5
4B8
100
AcDbEntity
  8
RACCORDO
100
AcDbLine
 62
253
  6
CONTINUOUS
 10
160.5874070728
 20
101.8016943144
 11
159.8005427544
 21
102.0657903968
  0
LINE
  5
4B9
100
AcDbEntity
  8
ASSI
100
AcDbLine
 62
253
  6
CONTINUOUS
 10
160.5874070728
 20
101.8016943144
 11
159.8005427544
 21
102.0657903968
  0
LINE
  5
4BA
100
AcDbEntity
  8
ASSI
100
AcDbLine
 62
253
  6
CONTINUOUS
 10
159.2210967008
 20
101.90092708
 11
160.0015177346
 21
101.6355296067
  0
LINE
  5
4BB
100
AcDbEntity
  8
RACCORDO
100
AcDbLine
 62
253
  6
CONTINUOUS
 10
159.2210967008
 20
101.90092708
 11
160.0015177346
 21
101.6355296067
  0
LINE
  5
4BC
100
AcDbEntity
  8
RACCORDO
100
AcDbLine
 62
253
  6
CONTINUOUS
 10
159.8005427544
 20
102.0657903968
 11
159.0175446238
 21
102.3330620698
  0
LINE
  5
4BD
100
AcDbEntity
  8
ASSI
100
AcDbLine
 62
253
  6
CONTINUOUS
 10
159.8005427544
 20
102.0657903968
 11
159.0175446238
 21
102.3330620698
  0
LINE
  5
4BE
100
AcDbEntity
  8
ASSI
100
AcDbLine
 62
253
  6
CONTINUOUS
 10
158.4445517283
 20
102.1695703691
 11
159.2210967008
 21
101.90092708
  0
LINE
  5
4BF
100
AcDbEntity
  8
RACCORDO
100
AcDbLine
 62
253
  6
CONTINUOUS
 10
158.4445517283
 20
102.1695703691
 11
159.2210967008
 21
101.90092708
  0
LINE
  5
4C0
100
AcDbEntity
  8
RACCORDO
100
AcDbLine
 62
253
  6
CONTINUOUS
 10
159.0175446238
 20
102.3330620698
 11
158.2384419725
 21
102.6034887764
  0
LINE
  5
4C1
100
AcDbEntity
  8
ASSI
100
AcDbLine
 62
253
  6
CONTINUOUS
 10
159.0175446238
 20
102.3330620698
 11
158.2384419725
 21
102.6034887764
  0
LINE
  5
4C2
100
AcDbEntity
  8
ASSI
100
AcDbLine
 62
253
  6
CONTINUOUS
 10
157.6718898701
 20
102.4414446255
 11
158.4445517283
 21
102.1695703691
  0
LINE
  5
4C3
100
AcDbEntity
  8
RACCORDO
100
AcDbLine
 62
253
  6
CONTINUOUS
 10
157.6718898701
 20
102.4414446255
 11
158.4445517283
 21
102.1695703691
  0
LINE
  5
4C4
100
AcDbEntity
  8
RACCORDO
100
AcDbLine
 62
253
  6
CONTINUOUS
 10
158.2384419725
 20
102.6034887764
 11
157.4632413339
 21
102.8770571439
  0
LINE
  5
4C5
100
AcDbEntity
  8
ASSI
100
AcDbLine
 62
253
  6
CONTINUOUS
 10
158.2384419725
 20
102.6034887764
 11
157.4632413339
 21
102.8770571439
  0
LINE
  5
4C6
100
AcDbEntity
  8
ASSI
100
AcDbLine
 62
253
  6
CONTINUOUS
 10
156.9031229472
 20
102.7165353223
 11
157.6718898701
 21
102.4414446255
  0
LINE
  5
4C7
100
AcDbEntity
  8
RACCORDO
100
AcDbLine
 62
253
  6
CONTINUOUS
 10
156.9031229472
 20
102.7165353223
 11
157.6718898701
 21
102.4414446255
  0
LINE
  5
4C8
100
AcDbEntity
  8
RACCORDO
100
AcDbLine
 62
253
  6
CONTINUOUS
 10
157.4632413339
 20
102.8770571439
 11
156.6919425125
 21
103.1537569721
  0
LINE
  5
4C9
100
AcDbEntity
  8
ASSI
100
AcDbLine
 62
253
  6
CONTINUOUS
 10
157.4632413339
 20
102.8770571439
 11
156.6919425125
 21
103.1537569721
  0
LINE
  5
4CA
100
AcDbEntity
  8
ASSI
100
AcDbLine
 62
253
  6
CONTINUOUS
 10
156.1382543017
 20
102.9948380879
 11
156.9031229472
 21
102.7165353223
  0
LINE
  5
4CB
100
AcDbEntity
  8
RACCORDO
100
AcDbLine
 62
253
  6
CONTINUOUS
 10
156.1382543017
 20
102.9948380879
 11
156.9031229472
 21
102.7165353223
  0
LWPOLYLINE
  5
4CC
100
AcDbEntity
  8
RACCORDO
100
AcDbPolyline
 62
7
  6
CONTINUOUS
 90
9
 70
0
 10
156.0022500047
 20
103.2508306125
 10
156.4661048645
 20
103.0811579762
 10
156.9938179757
 20
102.8901439958
 10
157.5231120256
 20
102.7006952939
 10
158.0539726627
 20
102.5128163572
 10
158.5863860734
 20
102.3265115253
 10
159.1203388272
 20
102.14178503
 10
159.6558170845
 20
101.9586412496
 10
160.6615172015
 20
101.6203216
  0
LWPOLYLINE
  5
4CD
100
AcDbEntity
  8
ASSI
100
AcDbPolyline
 62
7
  6
CONTINUOUS
 90
9
 70
0
 10
156.0022500047
 20
103.2508306125
 10
156.4661048645
 20
103.0811579762
 10
156.9938179757
 20
102.8901439958
 10
157.5231120256
 20
102.7006952939
 10
158.0539726627
 20
102.5128163572
 10
158.5863860734
 20
102.3265115253
 10
159.1203388272
 20
102.14178503
 10
159.6558170845
 20
101.9586412496
 10
160.6615172015
 20
101.6203216
  0
LINE
  5
4CE
100
AcDbEntity
  8
RACCORDO
100
AcDbLine
 62
253
  6
CONTINUOUS
 10
156.6919425125
 20
103.1537569721
 11
155.9245741411
 21
103.4335696224
  0
LINE
  5
4CF
100
AcDbEntity
  8
ASSI
100
AcDbLine
 62
253
  6
CONTINUOUS
 10
156.6919425125
 20
103.1537569721
 11
155.9245741411
 21
103.4335696224
  0
LWPOLYLINE
  5
4D0
100
AcDbEntity
  8
RACCORDO
100
AcDbPolyline
 62
7
  6
CONTINUOUS
 90
13
 70
0
 10
147.6822335912
 20
106.5197620335
 10
147.702774347
 20
106.5121557897
 10
147.7373013829
 20
106.5021410002
 10
147.7729865325
 20
106.4952077242
 10
147.8096485349
 20
106.4915156499
 10
147.8467671454
 20
106.4912233106
 10
147.8842445644
 20
106.4944383572
 10
147.9216457759
 20
106.5012500997
 10
147.9585495237
 20
106.5116882705
 10
147.9948163747
 20
106.525850558
 10
148.0299888675
 20
106.543731143
 10
148.0635427735
 20
106.5652137314
 10
148.0805415528
 20
106.5780271321
  0
LWPOLYLINE
  5
4D1
100
AcDbEntity
  8
ASSI
100
AcDbPolyline
 62
7
  6
CONTINUOUS
 90
13
 70
0
 10
147.6822335912
 20
106.5197620335
 10
147.702774347
 20
106.5121557897
 10
147.7373013829
 20
106.5021410002
 10
147.7729865325
 20
106.4952077242
 10
147.8096485349
 20
106.4915156499
 10
147.8467671454
 20
106.4912233106
 10
147.8842445644
 20
106.4944383572
 10
147.9216457759
 20
106.5012500997
 10
147.9585495237
 20
106.5116882705
 10
147.9948163747
 20
106.525850558
 10
148.0299888675
 20
106.543731143
 10
148.0635427735
 20
106.5652137314
 10
148.0805415528
 20
106.5780271321
  0
LWPOLYLINE
  5
4D2
100
AcDbEntity
  8
ASSI
100
AcDbPolyline
 62
253
  6
CONTINUOUS
 90
16
 70
0
 10
136.1262723054
 20
109.8429598945
 10
136.2012426298
 20
109.8150473073
 10
136.2763012785
 20
109.7915448192
 10
136.351177875
 20
109.77260297
 10
136.4256398718
 20
109.7583502987
 10
136.4993607274
 20
109.7489221728
 10
136.5719282879
 20
109.7444300468
 10
136.643069062
 20
109.7449347379
 10
136.7124992988
 20
109.7504806579
 10
136.7798124736
 20
109.7610696329
 10
136.8447423189
 20
109.7766730023
 10
136.907050774
 20
109.7972479747
 10
136.9664111052
 20
109.8226919803
 10
137.0226160797
 20
109.8529047189
 10
137.0754546899
 20
109.8877608022
 10
137.1127578771
 20
109.9168652341
  0
LWPOLYLINE
  5
4D3
100
AcDbEntity
  8
RACCORDO
100
AcDbPolyline
 62
253
  6
CONTINUOUS
 90
16
 70
0
 10
136.1262723054
 20
109.8429598945
 10
136.2012426298
 20
109.8150473073
 10
136.2763012785
 20
109.7915448192
 10
136.351177875
 20
109.77260297
 10
136.4256398718
 20
109.7583502987
 10
136.4993607274
 20
109.7489221728
 10
136.5719282879
 20
109.7444300468
 10
136.643069062
 20
109.7449347379
 10
136.7124992988
 20
109.7504806579
 10
136.7798124736
 20
109.7610696329
 10
136.8447423189
 20
109.7766730023
 10
136.907050774
 20
109.7972479747
 10
136.9664111052
 20
109.8226919803
 10
137.0226160797
 20
109.8529047189
 10
137.0754546899
 20
109.8877608022
 10
137.1127578771
 20
109.9168652341
  0
LWPOLYLINE
  5
4D4
100
AcDbEntity
  8
RACCORDO
100
AcDbPolyline
 62
253
  6
CONTINUOUS
 90
22
 70
0
 10
149.1282339723
 20
107.2124973828
 10
149.0333324504
 20
107.2478642112
 10
148.9389700731
 20
107.2772974617
 10
148.8451471278
 20
107.3007973842
 10
148.751456807
 20
107.3184856561
 10
148.6583071184
 20
107.330241601
 10
148.5669208391
 20
107.335702164
 10
148.4773106511
 20
107.334752787
 10
148.3894662171
 20
107.3275099773
 10
148.3045759015
 20
107.3139573925
 10
148.2227036414
 20
107.2939822928
 10
148.1437886871
 20
107.2677000638
 10
148.068832212
 20
107.2354364356
 10
147.9979004919
 20
107.1970790972
 10
147.9309308012
 20
107.1527433072
 10
147.8687302756
 20
107.1030957248
 10
147.8114004438
 20
107.0480501694
 10
147.7588430533
 20
106.9876955492
 10
147.7115646481
 20
106.9229604138
 10
147.6697346284
 20
106.8541547489
 10
147.6331859044
 20
106.7809705074
 10
147.6019197579
 20
106.7034087595
  0
LWPOLYLINE
  5
4D5
100
AcDbEntity
  8
ASSI
100
AcDbPolyline
 62
253
  6
CONTINUOUS
 90
22
 70
0
 10
149.1282339723
 20
107.2124973828
 10
149.0333324504
 20
107.2478642112
 10
148.9389700731
 20
107.2772974617
 10
148.8451471278
 20
107.3007973842
 10
148.751456807
 20
107.3184856561
 10
148.6583071184
 20
107.330241601
 10
148.5669208391
 20
107.335702164
 10
148.4773106511
 20
107.334752787
 10
148.3894662171
 20
107.3275099773
 10
148.3045759015
 20
107.3139573925
 10
148.2227036414
 20
107.2939822928
 10
148.1437886871
 20
107.2677000638
 10
148.068832212
 20
107.2354364356
 10
147.9979004919
 20
107.1970790972
 10
147.9309308012
 20
107.1527433072
 10
147.8687302756
 20
107.1030957248
 10
147.8114004438
 20
107.0480501694
 10
147.7588430533
 20
106.9876955492
 10
147.7115646481
 20
106.9229604138
 10
147.6697346284
 20
106.8541547489
 10
147.6331859044
 20
106.7809705074
 10
147.6019197579
 20
106.7034087595
  0
LINE
  5
4D6
100
AcDbEntity
  8
RACCORDO
100
AcDbLine
 62
253
  6
CONTINUOUS
 10
154.3626212026
 20
105.1396207136
 11
153.7737819119
 21
105.3647400657
  0
LINE
  5
4D7
100
AcDbEntity
  8
ASSI
100
AcDbLine
 62
253
  6
CONTINUOUS
 10
154.3626212026
 20
105.1396207136
 11
153.7737819119
 21
105.3647400657
  0
LINE
  5
4D8
100
AcDbEntity
  8
RACCORDO
100
AcDbLine
 62
7
  6
CONTINUOUS
 10
153.5836125055
 20
105.2842193196
 11
154.4413561775
 21
104.955375719
  0
LINE
  5
4D9
100
AcDbEntity
  8
ASSI
100
AcDbLine
 62
7
  6
CONTINUOUS
 10
153.5836125055
 20
105.2842193196
 11
154.4413561775
 21
104.955375719
  0
LINE
  5
4DA
100
AcDbEntity
  8
RACCORDO
100
AcDbLine
 62
253
  6
CONTINUOUS
 10
153.7737819119
 20
105.3647400657
 11
153.1870157513
 21
105.5918347189
  0
LINE
  5
4DB
100
AcDbEntity
  8
ASSI
100
AcDbLine
 62
253
  6
CONTINUOUS
 10
153.7737819119
 20
105.3647400657
 11
153.1870157513
 21
105.5918347189
  0
LWPOLYLINE
  5
4DC
100
AcDbEntity
  8
RACCORDO
100
AcDbPolyline
 62
7
  6
CONTINUOUS
 90
13
 70
0
 10
129.3004310794
 20
113.9748988522
 10
129.3318698329
 20
113.9626836192
 10
129.3664205195
 20
113.9526203692
 10
129.4021344731
 20
113.9456437178
 10
129.438829321
 20
113.9419139438
 10
129.4759841792
 20
113.9415902398
 10
129.5135017577
 20
113.9447806415
 10
129.5509459989
 20
113.951575205
 10
129.5878941755
 20
113.9620041094
 10
129.6242064411
 20
113.9761655402
 10
129.6594237177
 20
113.9940539433
 10
129.6930200942
 20
114.0155529675
 10
129.7100741984
 20
114.0284057621
  0
LWPOLYLINE
  5
4DD
100
AcDbEntity
  8
ASSI
100
AcDbPolyline
 62
7
  6
CONTINUOUS
 90
13
 70
0
 10
129.3004310794
 20
113.9748988522
 10
129.3318698329
 20
113.9626836192
 10
129.3664205195
 20
113.9526203692
 10
129.4021344731
 20
113.9456437178
 10
129.438829321
 20
113.9419139438
 10
129.4759841792
 20
113.9415902398
 10
129.5135017577
 20
113.9447806415
 10
129.5509459989
 20
113.951575205
 10
129.5878941755
 20
113.9620041094
 10
129.6242064411
 20
113.9761655402
 10
129.6594237177
 20
113.9940539433
 10
129.6930200942
 20
114.0155529675
 10
129.7100741984
 20
114.0284057621
  0
LWPOLYLINE
  5
4DE
100
AcDbEntity
  8
RACCORDO
100
AcDbPolyline
 62
7
  6
CONTINUOUS
 90
22
 70
0
 10
154.4413898729
 20
104.955357332
 10
154.4678647565
 20
104.9450355783
 10
154.5531186137
 20
104.908285369
 10
154.6390990344
 20
104.8657968667
 10
154.7252901717
 20
104.8176686278
 10
154.8111597747
 20
104.7640770806
 10
154.8961560816
 20
104.705257913
 10
154.9797968049
 20
104.6414472904
 10
155.0615947256
 20
104.5729437616
 10
155.1410286332
 20
104.50011846
 10
155.2176459388
 20
104.4233321562
 10
155.2910313375
 20
104.3429781818
 10
155.3607559383
 20
104.2595126355
 10
155.4264511933
 20
104.1733726605
 10
155.4877836998
 20
104.08503086
 10
155.5444146225
 20
103.9950319053
 10
155.5960741074
 20
103.9038795289
 10
155.6425541588
 20
103.8120679023
 10
155.6836525247
 20
103.7201623678
 10
155.7192229068
 20
103.6287031036
 10
155.7491939691
 20
103.5382105978
 10
155.7577536675
 20
103.5092580966
  0
LWPOLYLINE
  5
4DF
100
AcDbEntity
  8
ASSI
100
AcDbPolyline
 62
7
  6
CONTINUOUS
 90
22
 70
0
 10
154.4413898729
 20
104.955357332
 10
154.4678647565
 20
104.9450355783
 10
154.5531186137
 20
104.908285369
 10
154.6390990344
 20
104.8657968667
 10
154.7252901717
 20
104.8176686278
 10
154.8111597747
 20
104.7640770806
 10
154.8961560816
 20
104.705257913
 10
154.9797968049
 20
104.6414472904
 10
155.0615947256
 20
104.5729437616
 10
155.1410286332
 20
104.50011846
 10
155.2176459388
 20
104.4233321562
 10
155.2910313375
 20
104.3429781818
 10
155.3607559383
 20
104.2595126355
 10
155.4264511933
 20
104.1733726605
 10
155.4877836998
 20
104.08503086
 10
155.5444146225
 20
103.9950319053
 10
155.5960741074
 20
103.9038795289
 10
155.6425541588
 20
103.8120679023
 10
155.6836525247
 20
103.7201623678
 10
155.7192229068
 20
103.6287031036
 10
155.7491939691
 20
103.5382105978
 10
155.7577536675
 20
103.5092580966
  0
LINE
  5
4E0
100
AcDbEntity
  8
RACCORDO
100
AcDbLine
 62
7
  6
CONTINUOUS
 10
152.6637264692
 20
105.6435049028
 11
153.5836125055
 21
105.2842193196
  0
LINE
  5
4E1
100
AcDbEntity
  8
ASSI
100
AcDbLine
 62
7
  6
CONTINUOUS
 10
152.6637264692
 20
105.6435049028
 11
153.5836125055
 21
105.2842193196
  0
LINE
  5
4E2
100
AcDbEntity
  8
RACCORDO
100
AcDbLine
 62
253
  6
CONTINUOUS
 10
153.1870157513
 20
105.5918347189
 11
152.6023385672
 21
105.8208991378
  0
LINE
  5
4E3
100
AcDbEntity
  8
ASSI
100
AcDbLine
 62
253
  6
CONTINUOUS
 10
153.1870157513
 20
105.5918347189
 11
152.6023385672
 21
105.8208991378
  0
LINE
  5
4E4
100
AcDbEntity
  8
RACCORDO
100
AcDbLine
 62
253
  6
CONTINUOUS
 10
152.6023385672
 20
105.8208991378
 11
152.0197501001
 21
106.0519334994
  0
LINE
  5
4E5
100
AcDbEntity
  8
ASSI
100
AcDbLine
 62
253
  6
CONTINUOUS
 10
152.6023385672
 20
105.8208991378
 11
152.0197501001
 21
106.0519334994
  0
LINE
  5
4E6
100
AcDbEntity
  8
RACCORDO
100
AcDbLine
 62
7
  6
CONTINUOUS
 10
151.8095867467
 20
105.9833460873
 11
152.6637264692
 21
105.6435049028
  0
LINE
  5
4E7
100
AcDbEntity
  8
ASSI
100
AcDbLine
 62
7
  6
CONTINUOUS
 10
151.8095867467
 20
105.9833460873
 11
152.6637264692
 21
105.6435049028
  0
LINE
  5
4E8
100
AcDbEntity
  8
ASSI
100
AcDbLine
 62
253
  6
CONTINUOUS
 10
137.4205512833
 20
109.8327049907
 11
147.6019197579
 21
105.7436378777
  0
LINE
  5
4E9
100
AcDbEntity
  8
RACCORDO
100
AcDbLine
 62
253
  6
CONTINUOUS
 10
137.4205512833
 20
109.8327049907
 11
147.6019197579
 21
105.7436378777
  0
LINE
  5
4EA
100
AcDbEntity
  8
ASSI
100
AcDbLine
 62
253
  6
CONTINUOUS
 10
137.6479750154
 20
110.3470725183
 11
147.8293525314
 21
106.2580017741
  0
LINE
  5
4EB
100
AcDbEntity
  8
RACCORDO
100
AcDbLine
 62
253
  6
CONTINUOUS
 10
137.6479750154
 20
110.3470725183
 11
147.8293525314
 21
106.2580017741
  0
LINE
  5
4EC
100
AcDbEntity
  8
RACCORDO
100
AcDbLine
 62
7
  6
CONTINUOUS
 10
137.5010268281
 20
110.608764193
 11
147.6822757604
 21
106.5197450673
  0
LINE
  5
4ED
100
AcDbEntity
  8
ASSI
100
AcDbLine
 62
7
  6
CONTINUOUS
 10
137.5010268281
 20
110.608764193
 11
147.6822757604
 21
106.5197450673
  0
LINE
  5
4EE
100
AcDbEntity
  8
ASSI
100
AcDbLine
 62
7
  6
CONTINUOUS
 10
155.4563925122
 20
104.1302459373
 11
151.018508741
 21
105.9126001096
  0
LINE
  5
4EF
100
AcDbEntity
  8
DRAFT
100
AcDbLine
 62
7
  6
CONTINUOUS
 10
155.4563925122
 20
104.1302459373
 11
151.018508741
 21
105.9126001096
  0
LINE
  5
4F0
100
AcDbEntity
  8
ASSI
100
AcDbLine
 62
7
  6
CONTINUOUS
 10
136.9166472413
 20
111.5762256069
 11
132.5875877445
 21
113.3148734972
  0
LINE
  5
4F1
100
AcDbEntity
  8
DRAFT
100
AcDbLine
 62
7
  6
CONTINUOUS
 10
136.9166472413
 20
111.5762256069
 11
132.5875877445
 21
113.3148734972
  0
LINE
  5
4F2
100
AcDbEntity
  8
ASSI
100
AcDbLine
 62
7
  6
CONTINUOUS
 10
155.1984710781
 20
104.4425493116
 11
151.5920850563
 21
105.8909552421
  0
LINE
  5
4F3
100
AcDbEntity
  8
SMUSSO
100
AcDbLine
 62
7
  6
CONTINUOUS
 10
155.1984710781
 20
104.4425493116
 11
151.5920850563
 21
105.8909552421
  0
LINE
  5
4F4
100
AcDbEntity
  8
ASSI
100
AcDbLine
 62
7
  6
CONTINUOUS
 10
136.641155736
 20
111.8955855179
 11
133.1611640598
 21
113.2932286296
  0
LINE
  5
4F5
100
AcDbEntity
  8
SMUSSO
100
AcDbLine
 62
7
  6
CONTINUOUS
 10
136.641155736
 20
111.8955855179
 11
133.1611640598
 21
113.2932286296
  0
LINE
  5
4F6
100
AcDbEntity
  8
RACCORDO
100
AcDbLine
 62
7
  6
CONTINUOUS
 10
149.2085852576
 20
107.0277088618
 11
151.8095867453
 21
105.9833460878
  0
LINE
  5
4F7
100
AcDbEntity
  8
ASSI
100
AcDbLine
 62
7
  6
CONTINUOUS
 10
149.2085852576
 20
107.0277088618
 11
151.8095867453
 21
105.9833460878
  0
LINE
  5
4F8
100
AcDbEntity
  8
RACCORDO
100
AcDbLine
 62
253
  6
CONTINUOUS
 10
152.0197501001
 20
106.0519334994
 11
149.1282339723
 21
107.2124973828
  0
LINE
  5
4F9
100
AcDbEntity
  8
ASSI
100
AcDbLine
 62
253
  6
CONTINUOUS
 10
152.0197501001
 20
106.0519334994
 11
149.1282339723
 21
107.2124973828
  0
LINE
  5
4FA
100
AcDbEntity
  8
RACCORDO
100
AcDbLine
 62
253
  6
CONTINUOUS
 10
147.6019197579
 20
106.7034087595
 11
137.4205512833
 21
110.7924758725
  0
LINE
  5
4FB
100
AcDbEntity
  8
ASSI
100
AcDbLine
 62
253
  6
CONTINUOUS
 10
147.6019197579
 20
106.7034087595
 11
137.4205512833
 21
110.7924758725
  0
LINE
  5
4FC
100
AcDbEntity
  8
RACCORDO
100
AcDbLine
 62
7
  6
CONTINUOUS
 10
132.8377278022
 20
113.6042072293
 11
135.9792661782
 21
112.3409016521
  0
LINE
  5
4FD
100
AcDbEntity
  8
ASSI
100
AcDbLine
 62
7
  6
CONTINUOUS
 10
132.8377278022
 20
113.6042072293
 11
135.9792661782
 21
112.3409016521
  0
LINE
  5
4FE
100
AcDbEntity
  8
RACCORDO
100
AcDbLine
 62
253
  6
CONTINUOUS
 10
135.8989120326
 20
112.5256913218
 11
132.7193104762
 21
113.8045470941
  0
LINE
  5
4FF
100
AcDbEntity
  8
ASSI
100
AcDbLine
 62
253
  6
CONTINUOUS
 10
135.8989120326
 20
112.5256913218
 11
132.7193104762
 21
113.8045470941
  0
LINE
  5
500
100
AcDbEntity
  8
RACCORDO
100
AcDbLine
 62
7
  6
CONTINUOUS
 10
132.2335028545
 20
113.8513032056
 11
132.8377278022
 21
113.6042072293
  0
LINE
  5
501
100
AcDbEntity
  8
ASSI
100
AcDbLine
 62
7
  6
CONTINUOUS
 10
132.2335028545
 20
113.8513032056
 11
132.8377278022
 21
113.6042072293
  0
LINE
  5
502
100
AcDbEntity
  8
RACCORDO
100
AcDbLine
 62
253
  6
CONTINUOUS
 10
132.7193104762
 20
113.8045470941
 11
132.1428567085
 21
114.0404148174
  0
LINE
  5
503
100
AcDbEntity
  8
ASSI
100
AcDbLine
 62
253
  6
CONTINUOUS
 10
132.7193104762
 20
113.8045470941
 11
132.1428567085
 21
114.0404148174
  0
LWPOLYLINE
  5
504
100
AcDbEntity
  8
RACCORDO
100
AcDbPolyline
 62
7
  6
CONTINUOUS
 90
22
 70
0
 10
135.97930523
 20
112.3408801584
 10
136.0051231948
 20
112.3302462041
 10
136.0883909668
 20
112.2924070047
 10
136.1723644631
 20
112.2487697085
 10
136.2565130121
 20
112.1994511711
 10
136.3403372705
 20
112.1446238156
 10
136.4233662127
 20
112.0844786227
 10
136.5051525283
 20
112.0192240181
 10
136.5851877641
 20
111.9491767652
 10
136.6629478165
 20
111.8747188555
 10
136.7380050333
 20
111.796193509
 10
136.8099270407
 20
111.7140199866
 10
136.8782311602
 20
111.6287382514
 10
136.9425486841
 20
111.5408197765
 10
137.0025723778
 20
111.4507371099
 10
137.0579653446
 20
111.3590708229
 10
137.1084642856
 20
111.266357395
 10
137.1538863848
 20
111.1730865753
 10
137.1940589098
 20
111.0797977787
 10
137.2288471368
 20
110.9870284231
 10
137.2581769055
 20
110.8953219559
 10
137.2646138296
 20
110.8727615751
  0
LWPOLYLINE
  5
505
100
AcDbEntity
  8
ASSI
100
AcDbPolyline
 62
7
  6
CONTINUOUS
 90
22
 70
0
 10
135.97930523
 20
112.3408801584
 10
136.0051231948
 20
112.3302462041
 10
136.0883909668
 20
112.2924070047
 10
136.1723644631
 20
112.2487697085
 10
136.2565130121
 20
112.1994511711
 10
136.3403372705
 20
112.1446238156
 10
136.4233662127
 20
112.0844786227
 10
136.5051525283
 20
112.0192240181
 10
136.5851877641
 20
111.9491767652
 10
136.6629478165
 20
111.8747188555
 10
136.7380050333
 20
111.796193509
 10
136.8099270407
 20
111.7140199866
 10
136.8782311602
 20
111.6287382514
 10
136.9425486841
 20
111.5408197765
 10
137.0025723778
 20
111.4507371099
 10
137.0579653446
 20
111.3590708229
 10
137.1084642856
 20
111.266357395
 10
137.1538863848
 20
111.1730865753
 10
137.1940589098
 20
111.0797977787
 10
137.2288471368
 20
110.9870284231
 10
137.2581769055
 20
110.8953219559
 10
137.2646138296
 20
110.8727615751
  0
LWPOLYLINE
  5
506
100
AcDbEntity
  8
RACCORDO
100
AcDbPolyline
 62
253
  6
CONTINUOUS
 90
10
 70
0
 10
160.6615172015
 20
101.6203216
 10
160.6527513873
 20
101.623940567
 10
160.6380814954
 20
101.633635687
 10
160.6250365029
 20
101.6473050555
 10
160.6137579735
 20
101.664800333
 10
160.6043683016
 20
101.6859316612
 10
160.5969693835
 20
101.7104697237
 10
160.5916415121
 20
101.7381482342
 10
160.5884425053
 20
101.7686668263
 10
160.5874070786
 20
101.8016943133
  0
LWPOLYLINE
  5
507
100
AcDbEntity
  8
ASSI
100
AcDbPolyline
 62
253
  6
CONTINUOUS
 90
10
 70
0
 10
160.6615172015
 20
101.6203216
 10
160.6527513873
 20
101.623940567
 10
160.6380814954
 20
101.633635687
 10
160.6250365029
 20
101.6473050555
 10
160.6137579735
 20
101.664800333
 10
160.6043683016
 20
101.6859316612
 10
160.5969693835
 20
101.7104697237
 10
160.5916415121
 20
101.7381482342
 10
160.5884425053
 20
101.7686668263
 10
160.5874070786
 20
101.8016943133
  0
LINE
  5
508
100
AcDbEntity
  8
RACCORDO
100
AcDbLine
 62
7
  6
CONTINUOUS
 10
131.6320855907
 20
114.1003666288
 11
132.2335028545
 21
113.8513032056
  0
LINE
  5
509
100
AcDbEntity
  8
ASSI
100
AcDbLine
 62
7
  6
CONTINUOUS
 10
131.6320855907
 20
114.1003666288
 11
132.2335028545
 21
113.8513032056
  0
LINE
  5
50A
100
AcDbEntity
  8
RACCORDO
100
AcDbLine
 62
253
  6
CONTINUOUS
 10
132.1428567085
 20
114.0404148174
 11
131.5689789365
 21
114.2780564839
  0
LINE
  5
50B
100
AcDbEntity
  8
ASSI
100
AcDbLine
 62
253
  6
CONTINUOUS
 10
132.1428567085
 20
114.0404148174
 11
131.5689789365
 21
114.2780564839
  0
LWPOLYLINE
  5
50C
100
AcDbEntity
  8
RACCORDO
100
AcDbPolyline
 62
253
  6
CONTINUOUS
 90
3
 70
0
 10
131.5689789365
 20
114.2780564839
 10
130.9976750948
 20
114.5174730186
 10
130.712995861
 20
114.6378434191
  0
LWPOLYLINE
  5
50D
100
AcDbEntity
  8
ASSI
100
AcDbPolyline
 62
253
  6
CONTINUOUS
 90
3
 70
0
 10
131.5689789365
 20
114.2780564839
 10
130.9976750948
 20
114.5174730186
 10
130.712995861
 20
114.6378434191
  0
LINE
  5
50E
100
AcDbEntity
  8
RACCORDO
100
AcDbLine
 62
7
  6
CONTINUOUS
 10
130.794713593
 20
114.4524037916
 11
131.6320855907
 21
114.1003666288
  0
LINE
  5
50F
100
AcDbEntity
  8
ASSI
100
AcDbLine
 62
7
  6
CONTINUOUS
 10
130.794713593
 20
114.4524037916
 11
131.6320855907
 21
114.1003666288
  0
LINE
  5
510
100
AcDbEntity
  8
RACCORDO
100
AcDbLine
 62
7
  6
CONTINUOUS
 10
130.7947117922
 20
114.4523995382
 11
130.7946059064
 21
114.4524445253
  0
LINE
  5
511
100
AcDbEntity
  8
ASSI
100
AcDbLine
 62
7
  6
CONTINUOUS
 10
130.7947117922
 20
114.4523995382
 11
130.7946059064
 21
114.4524445253
  0
LWPOLYLINE
  5
512
100
AcDbEntity
  8
RACCORDO
100
AcDbPolyline
 62
253
  6
CONTINUOUS
 90
10
 70
0
 10
156.0023697657
 20
103.2507866133
 10
155.995079957
 20
103.2538864824
 10
155.9791062567
 20
103.2640429367
 10
155.9651299552
 20
103.2780628312
 10
155.953078545
 20
103.2958338886
 10
155.9427976621
 20
103.3172736337
 10
155.9348917033
 20
103.3420314475
 10
155.9294787476
 20
103.3698299928
 10
155.9261181832
 20
103.4004531391
 10
155.9245741411
 20
103.4335696224
  0
LWPOLYLINE
  5
513
100
AcDbEntity
  8
ASSI
100
AcDbPolyline
 62
253
  6
CONTINUOUS
 90
10
 70
0
 10
156.0023697657
 20
103.2507866133
 10
155.995079957
 20
103.2538864824
 10
155.9791062567
 20
103.2640429367
 10
155.9651299552
 20
103.2780628312
 10
155.953078545
 20
103.2958338886
 10
155.9427976621
 20
103.3172736337
 10
155.9348917033
 20
103.3420314475
 10
155.9294787476
 20
103.3698299928
 10
155.9261181832
 20
103.4004531391
 10
155.9245741411
 20
103.4335696224
  0
LWPOLYLINE
  5
514
100
AcDbEntity
  8
ASSI
100
AcDbPolyline
 62
7
  6
CONTINUOUS
 90
15
 70
0
 10
132.5875877445
 20
113.3148734972
 10
132.5119444881
 20
113.3475458443
 10
132.4364780108
 20
113.3847356979
 10
132.3614676982
 20
113.4263239169
 10
132.2871133735
 20
113.4722259877
 10
132.2137761729
 20
113.5222455813
 10
132.1419639741
 20
113.5760321972
 10
132.0720794388
 20
113.6332409065
 10
132.0042168965
 20
113.6937502481
 10
131.9384146215
 20
113.7575202966
 10
131.8748377491
 20
113.8244199662
 10
131.8138198797
 20
113.894128307
 10
131.7556517512
 20
113.9663245251
 10
131.7005388008
 20
114.0407585321
 10
131.6710771335
 20
114.0841683723
  0
LWPOLYLINE
  5
515
100
AcDbEntity
  8
RACCORDO
100
AcDbPolyline
 62
7
  6
CONTINUOUS
 90
15
 70
0
 10
132.5875877445
 20
113.3148734972
 10
132.5119444881
 20
113.3475458443
 10
132.4364780108
 20
113.3847356979
 10
132.3614676982
 20
113.4263239169
 10
132.2871133735
 20
113.4722259877
 10
132.2137761729
 20
113.5222455813
 10
132.1419639741
 20
113.5760321972
 10
132.0720794388
 20
113.6332409065
 10
132.0042168965
 20
113.6937502481
 10
131.9384146215
 20
113.7575202966
 10
131.8748377491
 20
113.8244199662
 10
131.8138198797
 20
113.894128307
 10
131.7556517512
 20
113.9663245251
 10
131.7005388008
 20
114.0407585321
 10
131.6710771335
 20
114.0841683723
  0
LWPOLYLINE
  5
516
100
AcDbEntity
  8
ASSI
100
AcDbPolyline
 62
7
  6
CONTINUOUS
 90
15
 70
0
 10
151.018508741
 20
105.9126001096
 10
150.9428654846
 20
105.9452724567
 10
150.8673990073
 20
105.9824623103
 10
150.7923886947
 20
106.0240505293
 10
150.71803437
 20
106.0699526001
 10
150.6446971694
 20
106.1199721937
 10
150.5728849706
 20
106.1737588096
 10
150.5030004353
 20
106.2309675189
 10
150.435137893
 20
106.2914768605
 10
150.369335618
 20
106.355246909
 10
150.3057587456
 20
106.4221465786
 10
150.2447408762
 20
106.4918549194
 10
150.1865727477
 20
106.5640511376
 10
150.1314597973
 20
106.6384851445
 10
150.1140897877
 20
106.6640787178
  0
LWPOLYLINE
  5
517
100
AcDbEntity
  8
RACCORDO
100
AcDbPolyline
 62
7
  6
CONTINUOUS
 90
15
 70
0
 10
151.018508741
 20
105.9126001096
 10
150.9428654846
 20
105.9452724567
 10
150.8673990073
 20
105.9824623103
 10
150.7923886947
 20
106.0240505293
 10
150.71803437
 20
106.0699526001
 10
150.6446971694
 20
106.1199721937
 10
150.5728849706
 20
106.1737588096
 10
150.5030004353
 20
106.2309675189
 10
150.435137893
 20
106.2914768605
 10
150.369335618
 20
106.355246909
 10
150.3057587456
 20
106.4221465786
 10
150.2447408762
 20
106.4918549194
 10
150.1865727477
 20
106.5640511376
 10
150.1314597973
 20
106.6384851445
 10
150.1140897877
 20
106.6640787178
  0
LWPOLYLINE
  5
518
100
AcDbEntity
  8
ASSI
100
AcDbPolyline
 62
7
  6
CONTINUOUS
 90
9
 70
0
 10
133.1611640598
 20
113.2932286296
 10
133.0542377986
 20
113.3394394887
 10
132.9482495222
 20
113.3917690751
 10
132.8431992306
 20
113.4502173889
 10
132.738593319
 20
113.5151012861
 10
132.6349253922
 20
113.5861039106
 10
132.5336762644
 20
113.6622746949
 10
132.4349880695
 20
113.7436181511
 10
132.3837430993
 20
113.7896689769
  0
LWPOLYLINE
  5
519
100
AcDbEntity
  8
RACCORDO
100
AcDbPolyline
 62
7
  6
CONTINUOUS
 90
9
 70
0
 10
133.1611640598
 20
113.2932286296
 10
133.0542377986
 20
113.3394394887
 10
132.9482495222
 20
113.3917690751
 10
132.8431992306
 20
113.4502173889
 10
132.738593319
 20
113.5151012861
 10
132.6349253922
 20
113.5861039106
 10
132.5336762644
 20
113.6622746949
 10
132.4349880695
 20
113.7436181511
 10
132.3837430993
 20
113.7896689769
  0
LWPOLYLINE
  5
51A
100
AcDbEntity
  8
ASSI
100
AcDbPolyline
 62
7
  6
CONTINUOUS
 90
9
 70
0
 10
151.5920850563
 20
105.8909552421
 10
151.4851587957
 20
105.9371661008
 10
151.3791705198
 20
105.989495687
 10
151.2741202286
 20
106.0479440004
 10
151.1695143175
 20
106.1128278972
 10
151.0658463912
 20
106.1838305213
 10
150.9645972638
 20
106.2600013051
 10
150.8659090693
 20
106.3413447607
 10
150.8239534311
 20
106.3790478128
  0
LWPOLYLINE
  5
51B
100
AcDbEntity
  8
RACCORDO
100
AcDbPolyline
 62
7
  6
CONTINUOUS
 90
9
 70
0
 10
151.5920850563
 20
105.8909552421
 10
151.4851587957
 20
105.9371661008
 10
151.3791705198
 20
105.989495687
 10
151.2741202286
 20
106.0479440004
 10
151.1695143175
 20
106.1128278972
 10
151.0658463912
 20
106.1838305213
 10
150.9645972638
 20
106.2600013051
 10
150.8659090693
 20
106.3413447607
 10
150.8239534311
 20
106.3790478128
  0
LWPOLYLINE
  5
51C
100
AcDbEntity
  8
RACCORDO
100
AcDbPolyline
 62
253
  6
CONTINUOUS
 90
10
 70
0
 10
137.5010268281
 20
110.608764193
 10
137.495665401
 20
110.6111219975
 10
137.4786829106
 20
110.6216636069
 10
137.4637916211
 20
110.6360213274
 10
137.4509498539
 20
110.6540857502
 10
137.4400178429
 20
110.6757669996
 10
137.4315834522
 20
110.7007093617
 10
137.4257719737
 20
110.7286380005
 10
137.4221691515
 20
110.7593371213
 10
137.4205512833
 20
110.7924758725
  0
LWPOLYLINE
  5
51D
100
AcDbEntity
  8
ASSI
100
AcDbPolyline
 62
253
  6
CONTINUOUS
 90
10
 70
0
 10
137.5010268281
 20
110.608764193
 10
137.495665401
 20
110.6111219975
 10
137.4786829106
 20
110.6216636069
 10
137.4637916211
 20
110.6360213274
 10
137.4509498539
 20
110.6540857502
 10
137.4400178429
 20
110.6757669996
 10
137.4315834522
 20
110.7007093617
 10
137.4257719737
 20
110.7286380005
 10
137.4221691515
 20
110.7593371213
 10
137.4205512833
 20
110.7924758725
  0
LWPOLYLINE
  5
51E
100
AcDbEntity
  8
RACCORDO
100
AcDbPolyline
 62
253
  6
CONTINUOUS
 90
10
 70
0
 10
147.6822204946
 20
106.5197672862
 10
147.6769176872
 20
106.5221011963
 10
147.6602515068
 20
106.5325145844
 10
147.6451652533
 20
106.546949547
 10
147.6321377693
 20
106.5650877934
 10
147.6215396559
 20
106.5866346171
 10
147.6129534893
 20
106.6116380768
 10
147.6064804847
 20
106.6398330241
 10
147.6027124662
 20
106.6705996692
 10
147.6019197578
 20
106.7034087595
  0
LWPOLYLINE
  5
51F
100
AcDbEntity
  8
ASSI
100
AcDbPolyline
 62
253
  6
CONTINUOUS
 90
10
 70
0
 10
147.6822204946
 20
106.5197672862
 10
147.6769176872
 20
106.5221011963
 10
147.6602515068
 20
106.5325145844
 10
147.6451652533
 20
106.546949547
 10
147.6321377693
 20
106.5650877934
 10
147.6215396559
 20
106.5866346171
 10
147.6129534893
 20
106.6116380768
 10
147.6064804847
 20
106.6398330241
 10
147.6027124662
 20
106.6705996692
 10
147.6019197578
 20
106.7034087595
  0
LWPOLYLINE
  5
520
100
AcDbEntity
  8
RACCORDO
100
AcDbPolyline
 62
253
  6
CONTINUOUS
 90
10
 70
0
 10
142.5916547554
 20
108.5643308367
 10
142.5863031909
 20
108.5666886515
 10
142.569486849
 20
108.5771757594
 10
142.5545293936
 20
108.591552708
 10
142.5415931915
 20
108.6096634321
 10
142.5308186682
 20
108.6313113355
 10
142.5223227838
 20
108.656261425
 10
142.5161977631
 20
108.6842428616
 10
142.5125100947
 20
108.7149519001
 10
142.5112998089
 20
108.7480551865
  0
LWPOLYLINE
  5
521
100
AcDbEntity
  8
ASSI
100
AcDbPolyline
 62
253
  6
CONTINUOUS
 90
10
 70
0
 10
142.5916547554
 20
108.5643308367
 10
142.5863031909
 20
108.5666886515
 10
142.569486849
 20
108.5771757594
 10
142.5545293936
 20
108.591552708
 10
142.5415931915
 20
108.6096634321
 10
142.5308186682
 20
108.6313113355
 10
142.5223227838
 20
108.656261425
 10
142.5161977631
 20
108.6842428616
 10
142.5125100947
 20
108.7149519001
 10
142.5112998089
 20
108.7480551865
  0
LWPOLYLINE
  5
522
100
AcDbEntity
  8
RACCORDO
100
AcDbPolyline
 62
253
  6
CONTINUOUS
 90
10
 70
0
 10
135.9792661782
 20
112.3409016521
 10
135.9736591741
 20
112.3433828434
 10
135.9568350014
 20
112.3539535672
 10
135.9418803722
 20
112.3684279879
 10
135.9289582961
 20
112.3866483301
 10
135.9182096273
 20
112.4084159871
 10
135.9097515296
 20
112.4334936851
 10
135.9036761984
 20
112.4616080701
 10
135.9000498567
 20
112.4924526874
 10
135.8989120326
 20
112.5256913218
  0
LWPOLYLINE
  5
523
100
AcDbEntity
  8
ASSI
100
AcDbPolyline
 62
253
  6
CONTINUOUS
 90
10
 70
0
 10
135.9792661782
 20
112.3409016521
 10
135.9736591741
 20
112.3433828434
 10
135.9568350014
 20
112.3539535672
 10
135.9418803722
 20
112.3684279879
 10
135.9289582961
 20
112.3866483301
 10
135.9182096273
 20
112.4084159871
 10
135.9097515296
 20
112.4334936851
 10
135.9036761984
 20
112.4616080701
 10
135.9000498567
 20
112.4924526874
 10
135.8989120326
 20
112.5256913218
  0
LINE
  5
524
100
AcDbEntity
  8
RACCORDO
100
AcDbLine
 62
253
  6
CONTINUOUS
 10
129.2181021119
 20
114.1594908726
 11
128.497731716
 21
114.4771877579
  0
LINE
  5
525
100
AcDbEntity
  8
ASSI
100
AcDbLine
 62
253
  6
CONTINUOUS
 10
129.2181021119
 20
114.1594908726
 11
128.497731716
 21
114.4771877579
  0
LWPOLYLINE
  5
526
100
AcDbEntity
  8
RACCORDO
100
AcDbPolyline
 62
253
  6
CONTINUOUS
 90
10
 70
0
 10
133.3786918177
 20
113.3856090056
 10
133.373081607
 20
113.3880926182
 10
133.3562521449
 20
113.3986697599
 10
133.3412933278
 20
113.4131511222
 10
133.328368247
 20
113.4313788194
 10
133.3176178205
 20
113.4531541206
 10
133.309159257
 20
113.4782396165
 10
133.3030847773
 20
113.506361808
 10
133.2994606098
 20
113.5372140875
 10
133.2983262675
 20
113.5704600824
  0
LWPOLYLINE
  5
527
100
AcDbEntity
  8
ASSI
100
AcDbPolyline
 62
253
  6
CONTINUOUS
 90
10
 70
0
 10
133.3786918177
 20
113.3856090056
 10
133.373081607
 20
113.3880926182
 10
133.3562521449
 20
113.3986697599
 10
133.3412933278
 20
113.4131511222
 10
133.328368247
 20
113.4313788194
 10
133.3176178205
 20
113.4531541206
 10
133.309159257
 20
113.4782396165
 10
133.3030847773
 20
113.506361808
 10
133.2994606098
 20
113.5372140875
 10
133.2983262675
 20
113.5704600824
  0
LWPOLYLINE
  5
528
100
AcDbEntity
  8
RACCORDO
100
AcDbPolyline
 62
253
  6
CONTINUOUS
 90
10
 70
0
 10
149.2084951829
 20
107.0277398035
 10
149.2029749371
 20
107.0301862718
 10
149.1861520618
 20
107.0407571196
 10
149.1711986612
 20
107.0552317972
 10
149.1582777365
 20
107.0734525217
 10
149.147530134
 20
107.095220676
 10
149.139073009
 20
107.1202989735
 10
149.1329985496
 20
107.1484140454
 10
149.1293729711
 20
107.1792594199
 10
149.1282357946
 20
107.2124988632
  0
LWPOLYLINE
  5
529
100
AcDbEntity
  8
ASSI
100
AcDbPolyline
 62
253
  6
CONTINUOUS
 90
10
 70
0
 10
149.2084951829
 20
107.0277398035
 10
149.2029749371
 20
107.0301862718
 10
149.1861520618
 20
107.0407571196
 10
149.1711986612
 20
107.0552317972
 10
149.1582777365
 20
107.0734525217
 10
149.147530134
 20
107.095220676
 10
149.139073009
 20
107.1202989735
 10
149.1329985496
 20
107.1484140454
 10
149.1293729711
 20
107.1792594199
 10
149.1282357946
 20
107.2124988632
  0
LINE
  5
52A
100
AcDbEntity
  8
ASSI
100
AcDbLine
 62
253
  6
CONTINUOUS
 10
128.740864921
 20
114.0271329319
 11
129.4588856312
 21
113.7098740183
  0
LINE
  5
52B
100
AcDbEntity
  8
RACCORDO
100
AcDbLine
 62
253
  6
CONTINUOUS
 10
128.740864921
 20
114.0271329319
 11
129.4588856312
 21
113.7098740183
  0
LINE
  5
52C
100
AcDbEntity
  8
RACCORDO
100
AcDbLine
 62
253
  6
CONTINUOUS
 10
128.497731716
 20
114.4771877579
 11
127.7812020691
 21
114.7980334785
  0
LINE
  5
52D
100
AcDbEntity
  8
ASSI
100
AcDbLine
 62
253
  6
CONTINUOUS
 10
128.497731716
 20
114.4771877579
 11
127.7812020691
 21
114.7980334785
  0
LINE
  5
52E
100
AcDbEntity
  8
ASSI
100
AcDbLine
 62
253
  6
CONTINUOUS
 10
128.0266930694
 20
114.3476237898
 11
128.740864921
 21
114.0271329319
  0
LINE
  5
52F
100
AcDbEntity
  8
RACCORDO
100
AcDbLine
 62
253
  6
CONTINUOUS
 10
128.0266930694
 20
114.3476237898
 11
128.740864921
 21
114.0271329319
  0
LWPOLYLINE
  5
530
100
AcDbEntity
  8
RACCORDO
100
AcDbPolyline
 62
253
  6
CONTINUOUS
 90
10
 70
0
 10
130.7946059064
 20
114.4524445253
 10
130.7905305766
 20
114.4542934135
 10
130.7730802121
 20
114.4651298782
 10
130.7575687419
 20
114.4798430129
 10
130.7441653078
 20
114.4982723808
 10
130.733016065
 20
114.5202170226
 10
130.7242425883
 20
114.5454376471
 10
130.7179405463
 20
114.5736592409
 10
130.7141786584
 20
114.604574067
 10
130.7129979455
 20
114.6378450207
  0
LWPOLYLINE
  5
531
100
AcDbEntity
  8
ASSI
100
AcDbPolyline
 62
253
  6
CONTINUOUS
 90
10
 70
0
 10
130.7946059064
 20
114.4524445253
 10
130.7905305766
 20
114.4542934135
 10
130.7730802121
 20
114.4651298782
 10
130.7575687419
 20
114.4798430129
 10
130.7441653078
 20
114.4982723808
 10
130.733016065
 20
114.5202170226
 10
130.7242425883
 20
114.5454376471
 10
130.7179405463
 20
114.5736592409
 10
130.7141786584
 20
114.604574067
 10
130.7129979455
 20
114.6378450207
  0
LINE
  5
532
100
AcDbEntity
  8
RACCORDO
100
AcDbLine
 62
253
  6
CONTINUOUS
 10
127.7812020691
 20
114.7980334785
 11
127.0685527253
 21
115.122019272
  0
LINE
  5
533
100
AcDbEntity
  8
ASSI
100
AcDbLine
 62
253
  6
CONTINUOUS
 10
127.7812020691
 20
114.7980334785
 11
127.0685527253
 21
115.122019272
  0
LWPOLYLINE
  5
534
100
AcDbEntity
  8
RACCORDO
100
AcDbPolyline
 62
253
  6
CONTINUOUS
 90
10
 70
0
 10
129.3004310794
 20
113.9748988522
 10
129.2975495074
 20
113.9762162347
 10
129.2798779347
 20
113.9870534142
 10
129.2639052012
 20
114.0018740649
 10
129.2501239257
 20
114.0203391125
 10
129.2388846199
 20
114.0421634596
 10
129.229794782
 20
114.0673968884
 10
129.2229643529
 20
114.095765346
 10
129.2189770964
 20
114.1266413602
 10
129.2181021119
 20
114.1594908726
  0
LWPOLYLINE
  5
535
100
AcDbEntity
  8
ASSI
100
AcDbPolyline
 62
253
  6
CONTINUOUS
 90
10
 70
0
 10
129.3004310794
 20
113.9748988522
 10
129.2975495074
 20
113.9762162347
 10
129.2798779347
 20
113.9870534142
 10
129.2639052012
 20
114.0018740649
 10
129.2501239257
 20
114.0203391125
 10
129.2388846199
 20
114.0421634596
 10
129.229794782
 20
114.0673968884
 10
129.2229643529
 20
114.095765346
 10
129.2189770964
 20
114.1266413602
 10
129.2181021119
 20
114.1594908726
  0
LINE
  5
536
100
AcDbEntity
  8
ASSI
100
AcDbLine
 62
253
  6
CONTINUOUS
 10
127.316378315
 20
114.6713463224
 11
128.0266930694
 21
114.3476237898
  0
LINE
  5
537
100
AcDbEntity
  8
RACCORDO
100
AcDbLine
 62
253
  6
CONTINUOUS
 10
127.316378315
 20
114.6713463224
 11
128.0266930694
 21
114.3476237898
  0
LWPOLYLINE
  5
538
100
AcDbEntity
  8
ASSI
100
AcDbPolyline
 62
253
  6
CONTINUOUS
 90
13
 70
0
 10
147.8293525359
 20
106.2580017723
 10
147.8637097042
 20
106.2422045762
 10
147.8977073447
 20
106.2229582734
 10
147.930967451
 20
106.2004767905
 10
147.9631202234
 20
106.1750100164
 10
147.9938081271
 20
106.1468410662
 10
148.0226898768
 20
106.116283149
 10
148.0494443899
 20
106.0836759075
 10
148.0737740682
 20
106.0493819613
 10
148.0954081474
 20
106.0137829791
 10
148.1141060708
 20
105.9772749298
 10
148.1296600744
 20
105.9402636293
 10
148.141897277
 20
105.9031605966
  0
LWPOLYLINE
  5
539
100
AcDbEntity
  8
RACCORDO
100
AcDbPolyline
 62
253
  6
CONTINUOUS
 90
13
 70
0
 10
147.8293525359
 20
106.2580017723
 10
147.8637097042
 20
106.2422045762
 10
147.8977073447
 20
106.2229582734
 10
147.930967451
 20
106.2004767905
 10
147.9631202234
 20
106.1750100164
 10
147.9938081271
 20
106.1468410662
 10
148.0226898768
 20
106.116283149
 10
148.0494443899
 20
106.0836759075
 10
148.0737740682
 20
106.0493819613
 10
148.0954081474
 20
106.0137829791
 10
148.1141060708
 20
105.9772749298
 10
148.1296600744
 20
105.9402636293
 10
148.141897277
 20
105.9031605966
  0
LWPOLYLINE
  5
53A
100
AcDbEntity
  8
ASSI
100
AcDbPolyline
 62
253
  6
CONTINUOUS
 90
13
 70
0
 10
129.4588856354
 20
113.7098740164
 10
129.4932520054
 20
113.694072028
 10
129.5272585562
 20
113.6748191193
 10
129.5605269779
 20
113.6523294043
 10
129.5926871783
 20
113.6268529968
 10
129.6233813451
 20
113.5986732712
 10
129.6522679366
 20
113.5681037263
 10
129.6790256437
 20
113.5354843147
 10
129.703356668
 20
113.5011779897
 10
129.7249900769
 20
113.4655667745
 10
129.7436851905
 20
113.4290469927
 10
129.7592341672
 20
113.3920248077
 10
129.7714640896
 20
113.3549120823
  0
LWPOLYLINE
  5
53B
100
AcDbEntity
  8
RACCORDO
100
AcDbPolyline
 62
253
  6
CONTINUOUS
 90
13
 70
0
 10
129.4588856354
 20
113.7098740164
 10
129.4932520054
 20
113.694072028
 10
129.5272585562
 20
113.6748191193
 10
129.5605269779
 20
113.6523294043
 10
129.5926871783
 20
113.6268529968
 10
129.6233813451
 20
113.5986732712
 10
129.6522679366
 20
113.5681037263
 10
129.6790256437
 20
113.5354843147
 10
129.703356668
 20
113.5011779897
 10
129.7249900769
 20
113.4655667745
 10
129.7436851905
 20
113.4290469927
 10
129.7592341672
 20
113.3920248077
 10
129.7714640896
 20
113.3549120823
  0
LINE
  5
53C
100
AcDbEntity
  8
RACCORDO
100
AcDbLine
 62
253
  6
CONTINUOUS
 10
127.0685527253
 20
115.122019272
 11
126.359797285
 21
115.4491499617
  0
LINE
  5
53D
100
AcDbEntity
  8
ASSI
100
AcDbLine
 62
253
  6
CONTINUOUS
 10
127.0685527253
 20
115.122019272
 11
126.359797285
 21
115.4491499617
  0
LWPOLYLINE
  5
53E
100
AcDbEntity
  8
ASSI
100
AcDbPolyline
 62
253
  6
CONTINUOUS
 90
3
 70
0
 10
126.2581979709
 20
115.1629875562
 10
126.6099481697
 20
114.9982993
 10
127.316378315
 20
114.6713463224
  0
LWPOLYLINE
  5
53F
100
AcDbEntity
  8
RACCORDO
100
AcDbPolyline
 62
253
  6
CONTINUOUS
 90
3
 70
0
 10
126.2581979709
 20
115.1629875562
 10
126.6099481697
 20
114.9982993
 10
127.316378315
 20
114.6713463224
  0
LINE
  5
540
100
AcDbEntity
  8
RACCORDO
100
AcDbLine
 62
253
  6
CONTINUOUS
 10
126.359797285
 20
115.4491499617
 11
125.6549584815
 21
115.7794270749
  0
LINE
  5
541
100
AcDbEntity
  8
ASSI
100
AcDbLine
 62
253
  6
CONTINUOUS
 10
126.359797285
 20
115.4491499617
 11
125.6549584815
 21
115.7794270749
  0
LWPOLYLINE
  5
542
100
AcDbEntity
  8
RACCORDO
100
AcDbPolyline
 62
7
  6
CONTINUOUS
 90
10
 70
0
 10
125.0379358983
 20
115.9276744346
 10
125.4599191677
 20
115.7263193128
 10
125.9407322072
 20
115.4991084534
 10
126.4236481878
 20
115.2732496814
 10
126.9086534454
 20
115.0487495591
 10
127.3957359427
 20
114.8256139046
 10
127.884884088
 20
114.6038483358
 10
128.3760859438
 20
114.383458658
 10
128.8693291026
 20
114.1644509377
 10
129.3005018457
 20
113.9748678683
  0
LWPOLYLINE
  5
543
100
AcDbEntity
  8
ASSI
100
AcDbPolyline
 62
7
  6
CONTINUOUS
 90
10
 70
0
 10
125.0379358983
 20
115.9276744346
 10
125.4599191677
 20
115.7263193128
 10
125.9407322072
 20
115.4991084534
 10
126.4236481878
 20
115.2732496814
 10
126.9086534454
 20
115.0487495591
 10
127.3957359427
 20
114.8256139046
 10
127.884884088
 20
114.6038483358
 10
128.3760859438
 20
114.383458658
 10
128.8693291026
 20
114.1644509377
 10
129.3005018457
 20
113.9748678683
  0
LINE
  5
544
100
AcDbEntity
  8
RACCORDO
100
AcDbLine
 62
253
  6
CONTINUOUS
 10
125.6549584815
 20
115.7794270749
 11
124.9540795667
 21
116.1128419781
  0
LINE
  5
545
100
AcDbEntity
  8
ASSI
100
AcDbLine
 62
253
  6
CONTINUOUS
 10
125.6549584815
 20
115.7794270749
 11
124.9540795667
 21
116.1128419781
  0
LINE
  5
546
100
AcDbEntity
  8
0
100
AcDbLine
 62
253
  6
CONTINUOUS
 10
139.7992675386
 20
117.6911899607
 11
139.8269083212
 21
117.6320666369
  0
LINE
  5
547
100
AcDbEntity
  8
0
100
AcDbLine
 62
253
  6
CONTINUOUS
 10
146.8805629403
 20
98.8509599542
 11
146.8726247991
 21
98.8681972088
  0
LINE
  5
548
100
AcDbEntity
  8
0
100
AcDbLine
 62
253
  6
CONTINUOUS
 10
140.2493801283
 20
117.7239734227
 11
140.2377048568
 21
117.751538749
  0
LINE
  5
549
100
AcDbEntity
  8
0
100
AcDbLine
 62
253
  6
CONTINUOUS
 10
139.7754642312
 20
117.7489275692
 11
139.7992675386
 21
117.6911899607
  0
LINE
  5
54A
100
AcDbEntity
  8
0
100
AcDbLine
 62
253
  6
CONTINUOUS
 10
140.2377048568
 20
117.751538749
 11
140.2233898517
 21
117.7895037348
  0
LINE
  5
54B
100
AcDbEntity
  8
0
100
AcDbLine
 62
253
  6
CONTINUOUS
 10
139.7509855637
 20
117.8166527571
 11
139.7754642312
 21
117.7489275692
  0
LINE
  5
54C
100
AcDbEntity
  8
0
100
AcDbLine
 62
253
  6
CONTINUOUS
 10
140.2233898517
 20
117.7895037348
 11
140.210043389
 21
117.831009108
  0
LINE
  5
54D
100
AcDbEntity
  8
0
100
AcDbLine
 62
253
  6
CONTINUOUS
 10
139.7291978572
 20
117.8859212822
 11
139.7509855637
 21
117.8166527571
  0
LINE
  5
54E
100
AcDbEntity
  8
0
100
AcDbLine
 62
253
  6
CONTINUOUS
 10
146.663346145
 20
97.4152177387
 11
146.6583280838
 21
97.4323573595
  0
LINE
  5
54F
100
AcDbEntity
  8
0
100
AcDbLine
 62
253
  6
CONTINUOUS
 10
146.8855305915
 20
98.8337698485
 11
146.8805629403
 21
98.8509599542
  0
LINE
  5
550
100
AcDbEntity
  8
0
100
AcDbLine
 62
253
  6
CONTINUOUS
 10
140.210043389
 20
117.831009108
 11
140.1978179696
 21
117.8761806418
  0
LINE
  5
551
100
AcDbEntity
  8
0
100
AcDbLine
 62
253
  6
CONTINUOUS
 10
139.7102291811
 20
117.9565498076
 11
139.7291978572
 21
117.8859212822
  0
LINE
  5
552
100
AcDbEntity
  8
0
100
AcDbLine
 62
253
  6
CONTINUOUS
 10
140.1978179696
 20
117.8761806418
 11
140.1868813251
 21
117.9251105537
  0
LINE
  5
553
100
AcDbEntity
  8
0
100
AcDbLine
 62
253
  6
CONTINUOUS
 10
139.6942064119
 20
118.0283361788
 11
139.7102291811
 21
117.9565498076
  0
LINE
  5
554
100
AcDbEntity
  8
0
100
AcDbLine
 62
253
  6
CONTINUOUS
 10
141.5972599612
 20
119.0286873758
 11
141.6080441201
 21
118.9795723952
  0
LINE
  5
555
100
AcDbEntity
  8
0
100
AcDbLine
 62
253
  6
CONTINUOUS
 10
140.1868813251
 20
117.9251105537
 11
140.1774113067
 21
117.9778486695
  0
LINE
  5
556
100
AcDbEntity
  8
0
100
AcDbLine
 62
253
  6
CONTINUOUS
 10
141.6080441201
 20
118.9795723952
 11
141.6173408479
 21
118.9267029557
  0
LINE
  5
557
100
AcDbEntity
  8
0
100
AcDbLine
 62
253
  6
CONTINUOUS
 10
142.11501999
 20
118.8111558134
 11
142.1031143571
 21
118.8820216086
  0
LINE
  5
558
100
AcDbEntity
  8
0
100
AcDbLine
 62
253
  6
CONTINUOUS
 10
140.1774113067
 20
117.9778486695
 11
140.1760001239
 21
117.9869303768
  0
LINE
  5
559
100
AcDbEntity
  8
0
100
AcDbLine
 62
253
  6
CONTINUOUS
 10
141.6173408479
 20
118.9267029557
 11
141.6186014848
 21
118.918409442
  0
LINE
  5
55A
100
AcDbEntity
  8
0
100
AcDbLine
 62
253
  6
CONTINUOUS
 10
142.1157606546
 20
118.8059870017
 11
142.11501999
 21
118.8111558134
  0
LINE
  5
55B
100
AcDbEntity
  8
0
100
AcDbLine
 62
253
  6
CONTINUOUS
 10
141.6186014848
 20
118.918409442
 11
141.6265565678
 21
118.8567599568
  0
LINE
  5
55C
100
AcDbEntity
  8
0
100
AcDbLine
 62
253
  6
CONTINUOUS
 10
142.1263666532
 20
118.7200274869
 11
142.1157606546
 21
118.8059870017
  0
LINE
  5
55D
100
AcDbEntity
  8
0
100
AcDbLine
 62
253
  6
CONTINUOUS
 10
144.7529451599
 20
96.4581298031
 11
144.7549201991
 21
96.4415448541
  0
LINE
  5
55E
100
AcDbEntity
  8
0
100
AcDbLine
 62
253
  6
CONTINUOUS
 10
143.7928383069
 20
98.5527718772
 11
143.7909261827
 21
98.5693485651
  0
LINE
  5
55F
100
AcDbEntity
  8
0
100
AcDbLine
 62
253
  6
CONTINUOUS
 10
144.0149677414
 20
99.9712639983
 11
144.013107595
 21
99.9879276789
  0
LINE
  5
560
100
AcDbEntity
  8
0
100
AcDbLine
 62
253
  6
CONTINUOUS
 10
145.2501226388
 20
96.2583603645
 11
145.2191558791
 21
97.6285168954
  0
LINE
  5
561
100
AcDbEntity
  8
0
100
AcDbLine
 62
253
  6
CONTINUOUS
 10
144.7168246951
 20
98.077280298
 11
144.7529552292
 21
96.4581257571
  0
LINE
  5
562
100
AcDbEntity
  8
0
100
AcDbLine
 62
253
  6
CONTINUOUS
 10
145.2102156843
 20
98.0641023766
 11
145.189813399
 21
99.146452
  0
LINE
  5
563
100
AcDbEntity
  8
0
100
AcDbLine
 62
253
  6
CONTINUOUS
 10
144.6865178125
 20
99.7014449061
 11
144.7168246951
 21
98.077280298
  0
LINE
  5
564
100
AcDbEntity
  8
0
100
AcDbLine
 62
253
  6
CONTINUOUS
 10
144.0196604846
 20
99.6975575314
 11
144.0149673102
 21
99.9712641715
  0
LINE
  5
565
100
AcDbEntity
  8
0
100
AcDbLine
 62
253
  6
CONTINUOUS
 10
145.5248856628
 20
114.9073596288
 11
145.5551957879
 21
116.5810747779
  0
LINE
  5
566
100
AcDbEntity
  8
0
100
AcDbLine
 62
253
  6
CONTINUOUS
 10
145.5551957879
 20
116.5810747779
 11
145.5913377625
 21
118.2593268629
  0
LWPOLYLINE
  5
567
100
AcDbEntity
  8
0
100
AcDbPolyline
 62
253
  6
CONTINUOUS
 90
3
 70
0
 10
145.0941615738
 20
118.4590995899
 10
145.0802748707
 20
117.8449897542
 10
145.0432875822
 20
116.006282481
  0
LINE
  5
568
100
AcDbEntity
  8
0
100
AcDbLine
 62
253
  6
CONTINUOUS
 10
143.7971878746
 20
98.2646147416
 11
143.7984470285
 21
98.2798170816
  0
LINE
  5
569
100
AcDbEntity
  8
0
100
AcDbLine
 62
253
  6
CONTINUOUS
 10
144.0183492052
 20
99.6821804973
 11
144.0196600534
 21
99.6975577046
  0
LINE
  5
56A
100
AcDbEntity
  8
0
100
AcDbLine
 62
253
  6
CONTINUOUS
 10
144.6878486216
 20
99.7167976807
 11
144.6865278818
 21
99.7014408601
  0
LINE
  5
56B
100
AcDbEntity
  8
0
100
AcDbLine
 62
253
  6
CONTINUOUS
 10
145.5229494158
 20
114.8911437444
 11
145.5249029983
 21
114.9073526632
  0
LINE
  5
56C
100
AcDbEntity
  8
0
100
AcDbLine
 62
253
  6
CONTINUOUS
 10
145.0962243109
 20
118.4754506091
 11
145.0941521158
 21
118.4591033901
  0
LINE
  5
56D
100
AcDbEntity
  8
0
100
AcDbLine
 62
253
  6
CONTINUOUS
 10
140.9757648751
 20
98.6512923201
 11
140.9907241021
 21
98.706004385
  0
LINE
  5
56E
100
AcDbEntity
  8
0
100
AcDbLine
 62
253
  6
CONTINUOUS
 10
140.4956193967
 20
99.000536546
 11
140.4848740956
 21
98.9623915685
  0
LINE
  5
56F
100
AcDbEntity
  8
0
100
AcDbLine
 62
253
  6
CONTINUOUS
 10
141.8196024438
 20
100.8841618174
 11
141.8151471506
 21
100.8707568876
  0
LINE
  5
570
100
AcDbEntity
  8
0
100
AcDbLine
 62
253
  6
CONTINUOUS
 10
140.9578138011
 20
98.5998657303
 11
140.9757648751
 21
98.6512923201
  0
LINE
  5
571
100
AcDbEntity
  8
0
100
AcDbLine
 62
253
  6
CONTINUOUS
 10
140.4848740956
 20
98.9623915685
 11
140.4727730206
 21
98.9286993937
  0
LINE
  5
572
100
AcDbEntity
  8
0
100
AcDbLine
 62
253
  6
CONTINUOUS
 10
145.5177172096
 20
114.8770192967
 11
145.5229494158
 21
114.8911437444
  0
LINE
  5
573
100
AcDbEntity
  8
0
100
AcDbLine
 62
253
  6
CONTINUOUS
 10
140.4727730206
 20
98.9286993937
 11
140.4595073245
 21
98.8993254448
  0
LINE
  5
574
100
AcDbEntity
  8
0
100
AcDbLine
 62
253
  6
CONTINUOUS
 10
139.0975263447
 20
101.1894084993
 11
139.1109082913
 21
101.2186946955
  0
LINE
  5
575
100
AcDbEntity
  8
0
100
AcDbLine
 62
253
  6
CONTINUOUS
 10
138.6630390989
 20
101.609527571
 11
138.6386695682
 21
101.5641812934
  0
LINE
  5
576
100
AcDbEntity
  8
0
100
AcDbLine
 62
253
  6
CONTINUOUS
 10
139.1109082913
 20
101.2186946955
 11
139.1252779439
 21
101.2438596395
  0
LINE
  5
577
100
AcDbEntity
  8
0
100
AcDbLine
 62
253
  6
CONTINUOUS
 10
138.6867382991
 20
101.6460240615
 11
138.6630390989
 21
101.609527571
  0
LINE
  5
578
100
AcDbEntity
  8
0
100
AcDbLine
 62
253
  6
CONTINUOUS
 10
139.1252779439
 20
101.2438596395
 11
139.1439091599
 21
101.2703391124
  0
LWPOLYLINE
  5
579
100
AcDbEntity
  8
ASSI
100
AcDbPolyline
 62
253
  6
CONTINUOUS
 90
16
 70
0
 10
142.7387280032
 20
108.3025905607
 10
142.7148682157
 20
108.2809699106
 10
142.6912891656
 20
108.2560450604
 10
142.6682468089
 20
108.2280865752
 10
142.6459912759
 20
108.1973979511
 10
142.6247641558
 20
108.1643123204
 10
142.604795874
 20
108.1291888354
 10
142.5863031909
 20
108.0924087699
 10
142.569486849
 20
108.0543713803
 10
142.5545293936
 20
108.0154895714
 10
142.5415931915
 20
107.9761854145
 10
142.5308186682
 20
107.9368855656
 10
142.5223227838
 20
107.8980166339
 10
142.5161977631
 20
107.8600005508
 10
142.5125100947
 20
107.82324999
 10
142.5112998089
 20
107.7881638875
  0
LWPOLYLINE
  5
57A
100
AcDbEntity
  8
RACCORDO
100
AcDbPolyline
 62
253
  6
CONTINUOUS
 90
16
 70
0
 10
142.7387280032
 20
108.3025905607
 10
142.7148682157
 20
108.2809699106
 10
142.6912891656
 20
108.2560450604
 10
142.6682468089
 20
108.2280865752
 10
142.6459912759
 20
108.1973979511
 10
142.6247641558
 20
108.1643123204
 10
142.604795874
 20
108.1291888354
 10
142.5863031909
 20
108.0924087699
 10
142.569486849
 20
108.0543713803
 10
142.5545293936
 20
108.0154895714
 10
142.5415931915
 20
107.9761854145
 10
142.5308186682
 20
107.9368855656
 10
142.5223227838
 20
107.8980166339
 10
142.5161977631
 20
107.8600005508
 10
142.5125100947
 20
107.82324999
 10
142.5112998089
 20
107.7881638875
  0
LWPOLYLINE
  5
57B
100
AcDbEntity
  8
ASSI
100
AcDbPolyline
 62
253
  6
CONTINUOUS
 90
10
 70
0
 10
125.1896307829
 20
115.7382328066
 10
125.1547823695
 20
115.7496739044
 10
125.1203373754
 20
115.7574192409
 10
125.0866730592
 20
115.7613839318
 10
125.054158163
 20
115.761524499
 10
125.0231487979
 20
115.7578393507
 10
124.9939845557
 20
115.7503687702
 10
124.9669848855
 20
115.7391944879
 10
124.9424455877
 20
115.7244388197
 10
124.927461973
 20
115.7125804935
  0
LWPOLYLINE
  5
57C
100
AcDbEntity
  8
RACCORDO
100
AcDbPolyline
 62
253
  6
CONTINUOUS
 90
10
 70
0
 10
125.1896307829
 20
115.7382328066
 10
125.1547823695
 20
115.7496739044
 10
125.1203373754
 20
115.7574192409
 10
125.0866730592
 20
115.7613839318
 10
125.054158163
 20
115.761524499
 10
125.0231487979
 20
115.7578393507
 10
124.9939845557
 20
115.7503687702
 10
124.9669848855
 20
115.7391944879
 10
124.9424455877
 20
115.7244388197
 10
124.927461973
 20
115.7125804935
  0
LWPOLYLINE
  5
57D
100
AcDbEntity
  8
RACCORDO
100
AcDbPolyline
 62
253
  6
CONTINUOUS
 90
22
 70
0
 10
130.712995861
 20
114.6378434191
 10
130.619386635
 20
114.6748200872
 10
130.5263859126
 20
114.705880454
 10
130.4339929538
 20
114.7310239139
 10
130.3418042127
 20
114.7503763387
 10
130.250222963
 20
114.7638116149
 10
130.1604564949
 20
114.7709494677
 10
130.0725161017
 20
114.7716703888
 10
129.9863860074
 20
114.7660904538
 10
129.9032283469
 20
114.7541792543
 10
129.8231023957
 20
114.7358176507
 10
129.7459412724
 20
114.7111190216
 10
129.6727139725
 20
114.6803987259
 10
129.603480713
 20
114.6435384
 10
129.5381720193
 20
114.6006494417
 10
129.4775594033
 20
114.5523895648
 10
129.4217364417
 20
114.4986667057
 10
129.3706000282
 20
114.4395657742
 10
129.3246247251
 20
114.3760084213
 10
129.2839655011
 20
114.3082994213
 10
129.2484590001
 20
114.2361276799
 10
129.2181021119
 20
114.1594908726
  0
LWPOLYLINE
  5
57E
100
AcDbEntity
  8
ASSI
100
AcDbPolyline
 62
253
  6
CONTINUOUS
 90
22
 70
0
 10
130.712995861
 20
114.6378434191
 10
130.619386635
 20
114.6748200872
 10
130.5263859126
 20
114.705880454
 10
130.4339929538
 20
114.7310239139
 10
130.3418042127
 20
114.7503763387
 10
130.250222963
 20
114.7638116149
 10
130.1604564949
 20
114.7709494677
 10
130.0725161017
 20
114.7716703888
 10
129.9863860074
 20
114.7660904538
 10
129.9032283469
 20
114.7541792543
 10
129.8231023957
 20
114.7358176507
 10
129.7459412724
 20
114.7111190216
 10
129.6727139725
 20
114.6803987259
 10
129.603480713
 20
114.6435384
 10
129.5381720193
 20
114.6006494417
 10
129.4775594033
 20
114.5523895648
 10
129.4217364417
 20
114.4986667057
 10
129.3706000282
 20
114.4395657742
 10
129.3246247251
 20
114.3760084213
 10
129.2839655011
 20
114.3082994213
 10
129.2484590001
 20
114.2361276799
 10
129.2181021119
 20
114.1594908726
  0
LWPOLYLINE
  5
57F
100
AcDbEntity
  8
RACCORDO
100
AcDbPolyline
 62
253
  6
CONTINUOUS
 90
10
 70
0
 10
154.4413561775
 20
104.955375719
 10
154.4344801898
 20
104.958355077
 10
154.4182938979
 20
104.968683201
 10
154.403908209
 20
104.9829434358
 10
154.3914799844
 20
105.000980288
 10
154.3811447413
 20
105.0225970841
 10
154.3730151749
 20
105.0475581149
 10
154.3671799299
 20
105.0755912058
 10
154.3637026337
 20
105.1063906844
 10
154.3626212027
 20
105.1396207137
  0
LWPOLYLINE
  5
580
100
AcDbEntity
  8
ASSI
100
AcDbPolyline
 62
253
  6
CONTINUOUS
 90
10
 70
0
 10
154.4413561775
 20
104.955375719
 10
154.4344801898
 20
104.958355077
 10
154.4182938979
 20
104.968683201
 10
154.403908209
 20
104.9829434358
 10
154.3914799844
 20
105.000980288
 10
154.3811447413
 20
105.0225970841
 10
154.3730151749
 20
105.0475581149
 10
154.3671799299
 20
105.0755912058
 10
154.3637026337
 20
105.1063906844
 10
154.3626212027
 20
105.1396207137
  0
LWPOLYLINE
  5
581
100
AcDbEntity
  8
RACCORDO
100
AcDbPolyline
 62
253
  6
CONTINUOUS
 90
10
 70
0
 10
151.8095867453
 20
105.9833460878
 10
151.8039530517
 20
105.9858391316
 10
151.787134624
 20
105.9964118417
 10
151.772185635
 20
106.0108892568
 10
151.7592690687
 20
106.0291135344
 10
151.7485257506
 20
106.0508859807
 10
151.7400728114
 20
106.0759692177
 10
151.7340024111
 20
106.1040897708
 10
151.7303807333
 20
106.1349410504
 10
151.7292472639
 20
106.1681866948
  0
LWPOLYLINE
  5
582
100
AcDbEntity
  8
ASSI
100
AcDbPolyline
 62
253
  6
CONTINUOUS
 90
10
 70
0
 10
151.8095867453
 20
105.9833460878
 10
151.8039530517
 20
105.9858391316
 10
151.787134624
 20
105.9964118417
 10
151.772185635
 20
106.0108892568
 10
151.7592690687
 20
106.0291135344
 10
151.7485257506
 20
106.0508859807
 10
151.7400728114
 20
106.0759692177
 10
151.7340024111
 20
106.1040897708
 10
151.7303807333
 20
106.1349410504
 10
151.7292472639
 20
106.1681866948
  0
LWPOLYLINE
  5
583
100
AcDbEntity
  8
ASSI
100
AcDbPolyline
 62
253
  6
CONTINUOUS
 90
16
 70
0
 10
160.9162995729
 20
101.3895972006
 10
160.9499160853
 20
101.3735410402
 10
160.9831863244
 20
101.354089966
 10
161.0157458806
 20
101.3314570262
 10
161.0472381281
 20
101.30589012
 10
161.0773181316
 20
101.2776692824
 10
161.105656424
 20
101.2471036169
 10
161.1319426153
 20
101.21452791
 10
161.155888792
 20
101.1802989644
 10
161.1772326714
 20
101.1447916904
 10
161.195740473
 20
101.1083950001
 10
161.2112094806
 20
101.0715075475
 10
161.2234702625
 20
101.0345333623
 10
161.2323885263
 20
100.997877424
 10
161.2378665896
 20
100.9619412257
 10
161.2398444512
 20
100.9271183777
  0
LWPOLYLINE
  5
584
100
AcDbEntity
  8
RACCORDO
100
AcDbPolyline
 62
253
  6
CONTINUOUS
 90
16
 70
0
 10
160.9162995729
 20
101.3895972006
 10
160.9499160853
 20
101.3735410402
 10
160.9831863244
 20
101.354089966
 10
161.0157458806
 20
101.3314570262
 10
161.0472381281
 20
101.30589012
 10
161.0773181316
 20
101.2776692824
 10
161.105656424
 20
101.2471036169
 10
161.1319426153
 20
101.21452791
 10
161.155888792
 20
101.1802989644
 10
161.1772326714
 20
101.1447916904
 10
161.195740473
 20
101.1083950001
 10
161.2112094806
 20
101.0715075475
 10
161.2234702625
 20
101.0345333623
 10
161.2323885263
 20
100.997877424
 10
161.2378665896
 20
100.9619412257
 10
161.2398444512
 20
100.9271183777
  0
LINE
  5
585
100
AcDbEntity
  8
0
100
AcDbLine
 62
253
  6
CONTINUOUS
 10
140.1387412871
 20
117.1801709491
 11
140.1928229824
 21
117.1217377311
  0
LINE
  5
586
100
AcDbEntity
  8
0
100
AcDbLine
 62
253
  6
CONTINUOUS
 10
140.0862560736
 20
117.241147802
 11
140.1387412871
 21
117.1801709491
  0
LINE
  5
587
100
AcDbEntity
  8
0
100
AcDbLine
 62
253
  6
CONTINUOUS
 10
140.4316907565
 20
117.4362666967
 11
140.4001001497
 21
117.4744070683
  0
LINE
  5
588
100
AcDbEntity
  8
0
100
AcDbLine
 62
253
  6
CONTINUOUS
 10
140.0354067395
 20
117.3046592965
 11
140.0862560736
 21
117.241147802
  0
LINE
  5
589
100
AcDbEntity
  8
0
100
AcDbLine
 62
253
  6
CONTINUOUS
 10
140.4001001497
 20
117.4744070683
 11
140.3705956235
 21
117.5131593902
  0
LINE
  5
58A
100
AcDbEntity
  8
0
100
AcDbLine
 62
253
  6
CONTINUOUS
 10
139.9862418567
 20
117.3706986883
 11
140.0354067395
 21
117.3046592965
  0
LINE
  5
58B
100
AcDbEntity
  8
0
100
AcDbLine
 62
253
  6
CONTINUOUS
 10
139.9641760385
 20
117.4019662456
 11
139.9862418567
 21
117.3706986883
  0
LINE
  5
58C
100
AcDbEntity
  8
0
100
AcDbLine
 62
253
  6
CONTINUOUS
 10
140.3705956235
 20
117.5131593902
 11
140.3431934932
 21
117.5524521332
  0
LINE
  5
58D
100
AcDbEntity
  8
0
100
AcDbLine
 62
253
  6
CONTINUOUS
 10
139.9335336389
 20
117.4472428073
 11
139.9641760385
 21
117.4019662456
  0
LINE
  5
58E
100
AcDbEntity
  8
0
100
AcDbLine
 62
253
  6
CONTINUOUS
 10
140.3431934932
 20
117.5524521332
 11
140.3166445659
 21
117.5945665355
  0
LINE
  5
58F
100
AcDbEntity
  8
0
100
AcDbLine
 62
253
  6
CONTINUOUS
 10
139.8939823332
 20
117.5099868209
 11
139.9335336389
 21
117.4472428073
  0
LINE
  5
590
100
AcDbEntity
  8
0
100
AcDbLine
 62
253
  6
CONTINUOUS
 10
142.9400829344
 20
115.8976594402
 11
142.9480473765
 21
115.8842888106
  0
LINE
  5
591
100
AcDbEntity
  8
0
100
AcDbLine
 62
253
  6
CONTINUOUS
 10
139.8584587698
 20
117.5716331271
 11
139.8939823332
 21
117.5099868209
  0
LINE
  5
592
100
AcDbEntity
  8
0
100
AcDbLine
 62
253
  6
CONTINUOUS
 10
140.3166445659
 20
117.5945665355
 11
140.2921180592
 21
117.6372769642
  0
LINE
  5
593
100
AcDbEntity
  8
0
100
AcDbLine
 62
253
  6
CONTINUOUS
 10
139.8269083212
 20
117.6320666369
 11
139.8584587698
 21
117.5716331271
  0
LINE
  5
594
100
AcDbEntity
  8
0
100
AcDbLine
 62
253
  6
CONTINUOUS
 10
140.2921180592
 20
117.6372769642
 11
140.2696763684
 21
117.6804565937
  0
LINE
  5
595
100
AcDbEntity
  8
0
100
AcDbLine
 62
253
  6
CONTINUOUS
 10
141.5178836271
 20
119.2414488003
 11
141.5389725622
 21
119.1977032569
  0
LINE
  5
596
100
AcDbEntity
  8
0
100
AcDbLine
 62
253
  6
CONTINUOUS
 10
140.2696763684
 20
117.6804565937
 11
140.2493801283
 21
117.7239734227
  0
LINE
  5
597
100
AcDbEntity
  8
0
100
AcDbLine
 62
253
  6
CONTINUOUS
 10
142.0020634717
 20
119.213528548
 11
141.974551932
 21
119.2729933056
  0
LINE
  5
598
100
AcDbEntity
  8
0
100
AcDbLine
 62
253
  6
CONTINUOUS
 10
142.9322013863
 20
115.9157947245
 11
142.9400829344
 21
115.8976594402
  0
LINE
  5
599
100
AcDbEntity
  8
0
100
AcDbLine
 62
253
  6
CONTINUOUS
 10
141.5389725622
 20
119.1977032569
 11
141.5576403009
 21
119.1542682553
  0
LINE
  5
59A
100
AcDbEntity
  8
0
100
AcDbLine
 62
253
  6
CONTINUOUS
 10
142.0257388309
 20
119.1554769494
 11
142.0020634717
 21
119.213528548
  0
LINE
  5
59B
100
AcDbEntity
  8
0
100
AcDbLine
 62
253
  6
CONTINUOUS
 10
141.5576403009
 20
119.1542682553
 11
141.5719049489
 21
119.115923827
  0
LINE
  5
59C
100
AcDbEntity
  8
0
100
AcDbLine
 62
253
  6
CONTINUOUS
 10
142.0493074432
 20
119.0890328138
 11
142.0257388309
 21
119.1554769494
  0
LINE
  5
59D
100
AcDbEntity
  8
0
100
AcDbLine
 62
253
  6
CONTINUOUS
 10
141.5719049489
 20
119.115923827
 11
141.5851603195
 21
119.0741052602
  0
LINE
  5
59E
100
AcDbEntity
  8
0
100
AcDbLine
 62
253
  6
CONTINUOUS
 10
142.0701417798
 20
119.0211778069
 11
142.0493074432
 21
119.0890328138
  0
LINE
  5
59F
100
AcDbEntity
  8
0
100
AcDbLine
 62
253
  6
CONTINUOUS
 10
141.5851603195
 20
119.0741052602
 11
141.5972599612
 21
119.0286873758
  0
LINE
  5
5A0
100
AcDbEntity
  8
0
100
AcDbLine
 62
253
  6
CONTINUOUS
 10
142.0881172044
 20
118.9521044502
 11
142.0701417798
 21
119.0211778069
  0
LINE
  5
5A1
100
AcDbEntity
  8
0
100
AcDbLine
 62
253
  6
CONTINUOUS
 10
142.9274951576
 20
115.9339120829
 11
142.9322013863
 21
115.9157947245
  0
LINE
  5
5A2
100
AcDbEntity
  8
0
100
AcDbLine
 62
253
  6
CONTINUOUS
 10
142.1031143571
 20
118.8820216086
 11
142.0881172044
 21
118.9521044502
  0
LINE
  5
5A3
100
AcDbEntity
  8
0
100
AcDbLine
 62
253
  6
CONTINUOUS
 10
146.6652588033
 20
97.398611999
 11
146.663346145
 21
97.4152177387
  0
LINE
  5
5A4
100
AcDbEntity
  8
0
100
AcDbLine
 62
253
  6
CONTINUOUS
 10
146.887390464
 20
98.8171059436
 11
146.8855305915
 21
98.8337698485
  0
LINE
  5
5A5
100
AcDbEntity
  8
0
100
AcDbLine
 62
253
  6
CONTINUOUS
 10
145.5913204269
 20
118.2593338284
 11
145.5900387811
 21
118.2770287418
  0
LINE
  5
5A6
100
AcDbEntity
  8
0
100
AcDbLine
 62
253
  6
CONTINUOUS
 10
146.6708696951
 20
97.1256572716
 11
146.6652579274
 21
97.3986123509
  0
LINE
  5
5A7
100
AcDbEntity
  8
0
100
AcDbLine
 62
253
  6
CONTINUOUS
 10
146.8920814973
 20
98.5433956231
 11
146.8873880238
 21
98.817106924
  0
LINE
  5
5A8
100
AcDbEntity
  8
0
100
AcDbLine
 62
253
  6
CONTINUOUS
 10
145.2489114967
 20
96.243085144
 11
145.2501165889
 21
96.2583627955
  0
LINE
  5
5A9
100
AcDbEntity
  8
0
100
AcDbLine
 62
253
  6
CONTINUOUS
 10
146.6696098884
 20
97.1104266167
 11
146.670868295
 21
97.1256578342
  0
LINE
  5
5AA
100
AcDbEntity
  8
0
100
AcDbLine
 62
253
  6
CONTINUOUS
 10
146.8907680477
 20
98.5280192642
 11
146.8920790571
 21
98.5433966036
  0
LINE
  5
5AB
100
AcDbEntity
  8
0
100
AcDbLine
 62
253
  6
CONTINUOUS
 10
142.3719619384
 20
97.3837878562
 11
142.376304565
 21
97.3970943034
  0
LINE
  5
5AC
100
AcDbEntity
  8
0
100
AcDbLine
 62
253
  6
CONTINUOUS
 10
143.7927911142
 20
98.2513484082
 11
143.7971878746
 21
98.2646147416
  0
LINE
  5
5AD
100
AcDbEntity
  8
0
100
AcDbLine
 62
253
  6
CONTINUOUS
 10
144.0139055731
 20
99.6687851197
 11
144.0183492052
 21
99.6821804973
  0
LINE
  5
5AE
100
AcDbEntity
  8
0
100
AcDbLine
 62
253
  6
CONTINUOUS
 10
140.9369817671
 20
98.5518081517
 11
140.9578138011
 21
98.5998657303
  0
LINE
  5
5AF
100
AcDbEntity
  8
0
100
AcDbLine
 62
253
  6
CONTINUOUS
 10
140.9133823973
 20
98.5071884367
 11
140.9369817671
 21
98.5518081517
  0
LINE
  5
5B0
100
AcDbEntity
  8
0
100
AcDbLine
 62
253
  6
CONTINUOUS
 10
140.4595073245
 20
98.8993254448
 11
140.4452562237
 21
98.8740938568
  0
LINE
  5
5B1
100
AcDbEntity
  8
0
100
AcDbLine
 62
253
  6
CONTINUOUS
 10
141.8270685099
 20
100.8952114599
 11
141.8196024438
 21
100.8841618174
  0
LINE
  5
5B2
100
AcDbEntity
  8
0
100
AcDbLine
 62
253
  6
CONTINUOUS
 10
138.7143176056
 20
101.6809142467
 11
138.6867382991
 21
101.6460240615
  0
LINE
  5
5B3
100
AcDbEntity
  8
0
100
AcDbLine
 62
253
  6
CONTINUOUS
 10
139.1439091599
 20
101.2703391124
 11
139.1650099851
 21
101.2952871857
  0
LINE
  5
5B4
100
AcDbEntity
  8
0
100
AcDbLine
 62
253
  6
CONTINUOUS
 10
138.7458550407
 20
101.7140633681
 11
138.7143176056
 21
101.6809142467
  0
LINE
  5
5B5
100
AcDbEntity
  8
0
100
AcDbLine
 62
253
  6
CONTINUOUS
 10
139.1650099851
 20
101.2952871857
 11
139.1885007326
 21
101.3185169552
  0
LINE
  5
5B6
100
AcDbEntity
  8
0
100
AcDbLine
 62
253
  6
CONTINUOUS
 10
138.7814198562
 20
101.7453240998
 11
138.7458550407
 21
101.7140633681
  0
LINE
  5
5B7
100
AcDbEntity
  8
ASSI
100
AcDbLine
 62
253
  6
CONTINUOUS
 10
132.5875877445
 20
113.3148734972
 11
133.1611640598
 21
113.2932286296
  0
LINE
  5
5B8
100
AcDbEntity
  8
DRAFT
100
AcDbLine
 62
253
  6
CONTINUOUS
 10
132.5875877445
 20
113.3148734972
 11
133.1611640598
 21
113.2932286296
  0
LINE
  5
5B9
100
AcDbEntity
  8
ASSI
100
AcDbLine
 62
7
  6
CONTINUOUS
 10
164.1258911274
 20
103.9593265111
 11
164.1622927421
 21
103.944706802
  0
LINE
  5
5BA
100
AcDbEntity
  8
RACCORDO
100
AcDbLine
 62
7
  6
CONTINUOUS
 10
164.1258911274
 20
103.9593265111
 11
164.1622927421
 21
103.944706802
  0
LINE
  5
5BB
100
AcDbEntity
  8
0
100
AcDbLine
 62
253
  6
CONTINUOUS
 10
140.5429104337
 20
116.830733725
 11
140.6069567179
 21
116.7912329034
  0
LINE
  5
5BC
100
AcDbEntity
  8
0
100
AcDbLine
 62
253
  6
CONTINUOUS
 10
140.4811322052
 20
116.8723726957
 11
140.5429104337
 21
116.830733725
  0
LINE
  5
5BD
100
AcDbEntity
  8
0
100
AcDbLine
 62
253
  6
CONTINUOUS
 10
140.6908649147
 20
117.208082777
 11
140.6509128306
 21
117.2352656891
  0
LINE
  5
5BE
100
AcDbEntity
  8
0
100
AcDbLine
 62
253
  6
CONTINUOUS
 10
142.9752360925
 20
115.853863675
 11
142.9910510651
 21
115.8424450233
  0
LINE
  5
5BF
100
AcDbEntity
  8
0
100
AcDbLine
 62
253
  6
CONTINUOUS
 10
140.4216040281
 20
116.9160872585
 11
140.4811322052
 21
116.8723726957
  0
LINE
  5
5C0
100
AcDbEntity
  8
0
100
AcDbLine
 62
253
  6
CONTINUOUS
 10
140.6509128306
 20
117.2352656891
 11
140.612023527
 21
117.2642808907
  0
LINE
  5
5C1
100
AcDbEntity
  8
0
100
AcDbLine
 62
253
  6
CONTINUOUS
 10
140.3643047993
 20
116.9618245094
 11
140.4216040281
 21
116.9160872585
  0
LINE
  5
5C2
100
AcDbEntity
  8
0
100
AcDbLine
 62
253
  6
CONTINUOUS
 10
140.612023527
 20
117.2642808907
 11
140.5741977586
 21
117.295113255
  0
LINE
  5
5C3
100
AcDbEntity
  8
0
100
AcDbLine
 62
253
  6
CONTINUOUS
 10
140.3056327482
 20
117.0125494501
 11
140.3643047993
 21
116.9618245094
  0
LINE
  5
5C4
100
AcDbEntity
  8
0
100
AcDbLine
 62
253
  6
CONTINUOUS
 10
140.5741977586
 20
117.295113255
 11
140.5387715054
 21
117.3263373943
  0
LINE
  5
5C5
100
AcDbEntity
  8
0
100
AcDbLine
 62
253
  6
CONTINUOUS
 10
140.2484635194
 20
117.0658598574
 11
140.3056327482
 21
117.0125494501
  0
LINE
  5
5C6
100
AcDbEntity
  8
0
100
AcDbLine
 62
253
  6
CONTINUOUS
 10
140.5387715054
 20
117.3263373943
 11
140.501053187
 21
117.362143593
  0
LINE
  5
5C7
100
AcDbEntity
  8
0
100
AcDbLine
 62
253
  6
CONTINUOUS
 10
145.0622544315
 20
115.0226181365
 11
145.0751018342
 21
115.0103064478
  0
LINE
  5
5C8
100
AcDbEntity
  8
0
100
AcDbLine
 62
253
  6
CONTINUOUS
 10
142.9607098744
 20
115.8679776522
 11
142.9752360925
 21
115.853863675
  0
LINE
  5
5C9
100
AcDbEntity
  8
0
100
AcDbLine
 62
253
  6
CONTINUOUS
 10
140.1928229824
 20
117.1217377311
 11
140.2484635194
 21
117.0658598574
  0
LINE
  5
5CA
100
AcDbEntity
  8
0
100
AcDbLine
 62
253
  6
CONTINUOUS
 10
140.501053187
 20
117.362143593
 11
140.4653496038
 21
117.3988171086
  0
LINE
  5
5CB
100
AcDbEntity
  8
0
100
AcDbLine
 62
253
  6
CONTINUOUS
 10
140.4653496038
 20
117.3988171086
 11
140.4316907565
 21
117.4362666967
  0
LINE
  5
5CC
100
AcDbEntity
  8
0
100
AcDbLine
 62
253
  6
CONTINUOUS
 10
141.3301322604
 20
119.509074222
 11
141.3638781765
 21
119.47138935
  0
LINE
  5
5CD
100
AcDbEntity
  8
0
100
AcDbLine
 62
253
  6
CONTINUOUS
 10
141.3638781765
 20
119.47138935
 11
141.3956159926
 21
119.4329278944
  0
LINE
  5
5CE
100
AcDbEntity
  8
0
100
AcDbLine
 62
253
  6
CONTINUOUS
 10
145.0494376611
 20
115.0386336869
 11
145.0622544315
 21
115.0226181365
  0
LINE
  5
5CF
100
AcDbEntity
  8
0
100
AcDbLine
 62
253
  6
CONTINUOUS
 10
141.7663294556
 20
119.6028652409
 11
141.7158369388
 21
119.6662185323
  0
LINE
  5
5D0
100
AcDbEntity
  8
0
100
AcDbLine
 62
253
  6
CONTINUOUS
 10
142.9480473765
 20
115.8842888106
 11
142.9607098744
 21
115.8679776522
  0
LINE
  5
5D1
100
AcDbEntity
  8
0
100
AcDbLine
 62
253
  6
CONTINUOUS
 10
141.3956159926
 20
119.4329278944
 11
141.4253213214
 21
119.3937715066
  0
LINE
  5
5D2
100
AcDbEntity
  8
0
100
AcDbLine
 62
253
  6
CONTINUOUS
 10
141.8150392278
 20
119.5370868968
 11
141.7663294556
 21
119.6028652409
  0
LINE
  5
5D3
100
AcDbEntity
  8
0
100
AcDbLine
 62
253
  6
CONTINUOUS
 10
141.8384795718
 20
119.5036281308
 11
141.8150392278
 21
119.5370868968
  0
LINE
  5
5D4
100
AcDbEntity
  8
0
100
AcDbLine
 62
253
  6
CONTINUOUS
 10
141.4253213214
 20
119.3937715066
 11
141.4529721213
 21
119.353995844
  0
LINE
  5
5D5
100
AcDbEntity
  8
0
100
AcDbLine
 62
253
  6
CONTINUOUS
 10
141.8681540476
 20
119.4592875038
 11
141.8384795718
 21
119.5036281308
  0
LINE
  5
5D6
100
AcDbEntity
  8
0
100
AcDbLine
 62
253
  6
CONTINUOUS
 10
141.4529721213
 20
119.353995844
 11
141.4685912078
 21
119.3292361186
  0
LINE
  5
5D7
100
AcDbEntity
  8
0
100
AcDbLine
 62
253
  6
CONTINUOUS
 10
141.907676355
 20
119.3959497777
 11
141.8681540476
 21
119.4592875038
  0
LINE
  5
5D8
100
AcDbEntity
  8
0
100
AcDbLine
 62
253
  6
CONTINUOUS
 10
145.03911385
 20
115.0560536886
 11
145.0494376611
 21
115.0386336869
  0
LINE
  5
5D9
100
AcDbEntity
  8
0
100
AcDbLine
 62
253
  6
CONTINUOUS
 10
141.4685912078
 20
119.3292361186
 11
141.4944070921
 21
119.2853481504
  0
LINE
  5
5DA
100
AcDbEntity
  8
0
100
AcDbLine
 62
253
  6
CONTINUOUS
 10
143.4788129967
 20
119.154996849
 11
143.468468752
 21
119.1725878043
  0
LINE
  5
5DB
100
AcDbEntity
  8
0
100
AcDbLine
 62
253
  6
CONTINUOUS
 10
141.943117097
 20
119.3338227657
 11
141.907676355
 21
119.3959497777
  0
LINE
  5
5DC
100
AcDbEntity
  8
0
100
AcDbLine
 62
253
  6
CONTINUOUS
 10
141.4944070921
 20
119.2853481504
 11
141.5178836271
 21
119.2414488003
  0
LINE
  5
5DD
100
AcDbEntity
  8
0
100
AcDbLine
 62
253
  6
CONTINUOUS
 10
141.974551932
 20
119.2729933056
 11
141.943117097
 21
119.3338227657
  0
LINE
  5
5DE
100
AcDbEntity
  8
0
100
AcDbLine
 62
253
  6
CONTINUOUS
 10
143.9929522872
 20
117.1517313407
 11
145.03911385
 21
115.0560536886
  0
LINE
  5
5DF
100
AcDbEntity
  8
0
100
AcDbLine
 62
253
  6
CONTINUOUS
 10
145.0432970401
 20
116.0062786808
 11
144.2610598062
 21
117.5761025501
  0
LINE
  5
5E0
100
AcDbEntity
  8
0
100
AcDbLine
 62
253
  6
CONTINUOUS
 10
143.4696964783
 20
118.2059812727
 11
143.9929522872
 21
117.1517313407
  0
LINE
  5
5E1
100
AcDbEntity
  8
0
100
AcDbLine
 62
253
  6
CONTINUOUS
 10
144.2610598062
 20
117.5761025501
 11
143.4788129967
 21
119.154996849
  0
LWPOLYLINE
  5
5E2
100
AcDbEntity
  8
ASSI
100
AcDbPolyline
 62
253
  6
CONTINUOUS
 90
22
 70
0
 10
148.1418972773
 20
105.9031605954
 10
148.1666493888
 20
105.8223559339
 10
148.1957172222
 20
105.74108324
 10
148.2290582815
 20
105.6596309327
 10
148.2666404731
 20
105.578243718
 10
148.3083631156
 20
105.4972768886
 10
148.3540314138
 20
105.4171890632
 10
148.4035122088
 20
105.3382818145
 10
148.4566517582
 20
105.2608619354
 10
148.5131562647
 20
105.185378563
 10
148.5728148968
 20
105.1121269883
 10
148.635421149
 20
105.0413740717
 10
148.7006344716
 20
104.9734910597
 10
148.7682157847
 20
104.9087130585
 10
148.8379003175
 20
104.8472823322
 10
148.9092714385
 20
104.789527934
 10
148.9820445241
 20
104.735634253
 10
149.0559471636
 20
104.6857607176
 10
149.130559902
 20
104.6401308025
 10
149.2055536168
 20
104.5988730348
 10
149.2806979655
 20
104.5620451984
 10
149.3557223074
 20
104.5297145211
  0
LWPOLYLINE
  5
5E3
100
AcDbEntity
  8
RACCORDO
100
AcDbPolyline
 62
253
  6
CONTINUOUS
 90
22
 70
0
 10
148.1418972773
 20
105.9031605954
 10
148.1666493888
 20
105.8223559339
 10
148.1957172222
 20
105.74108324
 10
148.2290582815
 20
105.6596309327
 10
148.2666404731
 20
105.578243718
 10
148.3083631156
 20
105.4972768886
 10
148.3540314138
 20
105.4171890632
 10
148.4035122088
 20
105.3382818145
 10
148.4566517582
 20
105.2608619354
 10
148.5131562647
 20
105.185378563
 10
148.5728148968
 20
105.1121269883
 10
148.635421149
 20
105.0413740717
 10
148.7006344716
 20
104.9734910597
 10
148.7682157847
 20
104.9087130585
 10
148.8379003175
 20
104.8472823322
 10
148.9092714385
 20
104.789527934
 10
148.9820445241
 20
104.735634253
 10
149.0559471636
 20
104.6857607176
 10
149.130559902
 20
104.6401308025
 10
149.2055536168
 20
104.5988730348
 10
149.2806979655
 20
104.5620451984
 10
149.3557223074
 20
104.5297145211
  0
LWPOLYLINE
  5
5E4
100
AcDbEntity
  8
ASSI
100
AcDbPolyline
 62
253
  6
CONTINUOUS
 90
22
 70
0
 10
147.6019197579
 20
105.7436378777
 10
147.6331691425
 20
105.6412258121
 10
147.669699782
 20
105.5389777575
 10
147.7115103984
 20
105.4368926514
 10
147.7587671253
 20
105.3345269498
 10
147.8113015259
 20
105.2323222711
 10
147.8686099384
 20
105.1316048612
 10
147.9307910387
 20
105.0323796595
 10
147.9977428806
 20
104.9346389958
 10
148.0686599484
 20
104.8396894472
 10
148.1436051343
 20
104.7475906456
 10
148.2225119987
 20
104.658279994
 10
148.3043804898
 20
104.5728802919
 10
148.3892712843
 20
104.4914534982
 10
148.4771205184
 20
104.4139349838
 10
148.5667411668
 20
104.3412575454
 10
148.6581441833
 20
104.273524854
 10
148.7513162684
 20
104.2106312667
 10
148.8450341329
 20
104.1531957215
 10
148.9388895975
 20
104.1014241839
 10
149.0332896399
 20
104.0551096727
 10
149.1282339723
 20
104.0142519344
  0
LWPOLYLINE
  5
5E5
100
AcDbEntity
  8
RACCORDO
100
AcDbPolyline
 62
253
  6
CONTINUOUS
 90
22
 70
0
 10
147.6019197579
 20
105.7436378777
 10
147.6331691425
 20
105.6412258121
 10
147.669699782
 20
105.5389777575
 10
147.7115103984
 20
105.4368926514
 10
147.7587671253
 20
105.3345269498
 10
147.8113015259
 20
105.2323222711
 10
147.8686099384
 20
105.1316048612
 10
147.9307910387
 20
105.0323796595
 10
147.9977428806
 20
104.9346389958
 10
148.0686599484
 20
104.8396894472
 10
148.1436051343
 20
104.7475906456
 10
148.2225119987
 20
104.658279994
 10
148.3043804898
 20
104.5728802919
 10
148.3892712843
 20
104.4914534982
 10
148.4771205184
 20
104.4139349838
 10
148.5667411668
 20
104.3412575454
 10
148.6581441833
 20
104.273524854
 10
148.7513162684
 20
104.2106312667
 10
148.8450341329
 20
104.1531957215
 10
148.9388895975
 20
104.1014241839
 10
149.0332896399
 20
104.0551096727
 10
149.1282339723
 20
104.0142519344
  0
LINE
  5
5E6
100
AcDbEntity
  8
0
100
AcDbLine
 62
253
  6
CONTINUOUS
 10
145.5900387811
 20
118.2770287418
 11
145.5854516201
 21
118.2952484646
  0
LWPOLYLINE
  5
5E7
100
AcDbEntity
  8
ASSI
100
AcDbPolyline
 62
253
  6
CONTINUOUS
 90
11
 70
0
 10
152.0390138229
 20
87.7269151816
 10
152.044212876
 20
87.6514726467
 10
152.0539345774
 20
87.5806049723
 10
152.068114456
 20
87.5147821305
 10
152.0866584753
 20
87.4544406376
 10
152.1094436571
 20
87.3999806593
 10
152.1363188973
 20
87.351763357
 10
152.1671059678
 20
87.3101084926
 10
152.2016006985
 20
87.2752923082
 10
152.2395743312
 20
87.2475456935
 10
152.2791036712
 20
87.2277170852
  0
LWPOLYLINE
  5
5E8
100
AcDbEntity
  8
RACCORDO
100
AcDbPolyline
 62
253
  6
CONTINUOUS
 90
11
 70
0
 10
152.0390138229
 20
87.7269151816
 10
152.044212876
 20
87.6514726467
 10
152.0539345774
 20
87.5806049723
 10
152.068114456
 20
87.5147821305
 10
152.0866584753
 20
87.4544406376
 10
152.1094436571
 20
87.3999806593
 10
152.1363188973
 20
87.351763357
 10
152.1671059678
 20
87.3101084926
 10
152.2016006985
 20
87.2752923082
 10
152.2395743312
 20
87.2475456935
 10
152.2791036712
 20
87.2277170852
  0
LINE
  5
5E9
100
AcDbEntity
  8
RACCORDO
100
AcDbLine
 62
7
  6
CONTINUOUS
 10
152.6109217846
 20
125.791340668
 11
152.6518216409
 21
126.0754205892
  0
LINE
  5
5EA
100
AcDbEntity
  8
ASSI
100
AcDbLine
 62
7
  6
CONTINUOUS
 10
152.6109217846
 20
125.791340668
 11
152.6518216409
 21
126.0754205892
  0
LINE
  5
5EB
100
AcDbEntity
  8
0
100
AcDbLine
 62
253
  6
CONTINUOUS
 10
145.2445699153
 20
96.2297795529
 11
145.2489114967
 21
96.243085144
  0
LINE
  5
5EC
100
AcDbEntity
  8
0
100
AcDbLine
 62
253
  6
CONTINUOUS
 10
144.6923040887
 20
99.7301837317
 11
144.6878486216
 21
99.7167976807
  0
LWPOLYLINE
  5
5ED
100
AcDbEntity
  8
RACCORDO
100
AcDbPolyline
 62
253
  6
CONTINUOUS
 90
5
 70
0
 10
148.141897277
 20
106.6654290138
 10
148.1296600744
 20
106.637804993
 10
148.1141060708
 20
106.612995154
 10
148.0954081474
 20
106.5912754001
 10
148.0805415528
 20
106.5780271321
  0
LWPOLYLINE
  5
5EE
100
AcDbEntity
  8
ASSI
100
AcDbPolyline
 62
253
  6
CONTINUOUS
 90
5
 70
0
 10
148.141897277
 20
106.6654290138
 10
148.1296600744
 20
106.637804993
 10
148.1141060708
 20
106.612995154
 10
148.0954081474
 20
106.5912754001
 10
148.0805415528
 20
106.5780271321
  0
LINE
  5
5EF
100
AcDbEntity
  8
0
100
AcDbLine
 62
253
  6
CONTINUOUS
 10
140.8892421795
 20
98.4702880866
 11
140.9133823973
 21
98.5071884367
  0
LINE
  5
5F0
100
AcDbEntity
  8
0
100
AcDbLine
 62
253
  6
CONTINUOUS
 10
142.3645982701
 20
97.3728175399
 11
142.3719619384
 21
97.3837878562
  0
LINE
  5
5F1
100
AcDbEntity
  8
0
100
AcDbLine
 62
253
  6
CONTINUOUS
 10
140.4452562237
 20
98.8740938568
 11
140.4264893787
 21
98.8474701007
  0
LINE
  5
5F2
100
AcDbEntity
  8
0
100
AcDbLine
 62
253
  6
CONTINUOUS
 10
140.8613742977
 20
98.4352406397
 11
140.8892421795
 21
98.4702880866
  0
LINE
  5
5F3
100
AcDbEntity
  8
0
100
AcDbLine
 62
253
  6
CONTINUOUS
 10
140.4264893787
 20
98.8474701007
 11
140.4053470048
 21
98.822509194
  0
LINE
  5
5F4
100
AcDbEntity
  8
0
100
AcDbLine
 62
253
  6
CONTINUOUS
 10
140.4053470048
 20
98.822509194
 11
140.3819308731
 21
98.7994043334
  0
LWPOLYLINE
  5
5F5
100
AcDbEntity
  8
ASSI
100
AcDbPolyline
 62
253
  6
CONTINUOUS
 90
16
 70
0
 10
147.8293525359
 20
106.2580017723
 10
147.8054038226
 20
106.2359794342
 10
147.7818466142
 20
106.2111135804
 10
147.7588746262
 20
106.1835043988
 10
147.7367465118
 20
106.152983496
 10
147.7155640965
 20
106.1197564553
 10
147.6954268242
 20
106.0846180565
 10
147.67691314
 20
106.047952618
 10
147.6602474565
 20
106.0098480382
 10
147.6451618511
 20
105.9709346829
 10
147.6321351016
 20
105.9316800118
 10
147.6215378006
 20
105.8923629824
 10
147.6129523886
 20
105.8534788142
 10
147.6064799885
 20
105.8154878111
 10
147.602712365
 20
105.7787511747
 10
147.6019197579
 20
105.7436378777
  0
LWPOLYLINE
  5
5F6
100
AcDbEntity
  8
RACCORDO
100
AcDbPolyline
 62
253
  6
CONTINUOUS
 90
16
 70
0
 10
147.8293525359
 20
106.2580017723
 10
147.8054038226
 20
106.2359794342
 10
147.7818466142
 20
106.2111135804
 10
147.7588746262
 20
106.1835043988
 10
147.7367465118
 20
106.152983496
 10
147.7155640965
 20
106.1197564553
 10
147.6954268242
 20
106.0846180565
 10
147.67691314
 20
106.047952618
 10
147.6602474565
 20
106.0098480382
 10
147.6451618511
 20
105.9709346829
 10
147.6321351016
 20
105.9316800118
 10
147.6215378006
 20
105.8923629824
 10
147.6129523886
 20
105.8534788142
 10
147.6064799885
 20
105.8154878111
 10
147.602712365
 20
105.7787511747
 10
147.6019197579
 20
105.7436378777
  0
LINE
  5
5F7
100
AcDbEntity
  8
RACCORDO
100
AcDbLine
 62
253
  6
CONTINUOUS
 10
161.4852842074
 20
120.11593709
 11
163.4163737436
 21
121.7521337836
  0
LINE
  5
5F8
100
AcDbEntity
  8
ASSI
100
AcDbLine
 62
253
  6
CONTINUOUS
 10
161.4852842074
 20
120.11593709
 11
163.4163737436
 21
121.7521337836
  0
LINE
  5
5F9
100
AcDbEntity
  8
RACCORDO
100
AcDbLine
 62
253
  6
CONTINUOUS
 10
161.9022219733
 20
119.5486291383
 11
163.861825355
 21
121.2089853848
  0
LINE
  5
5FA
100
AcDbEntity
  8
ASSI
100
AcDbLine
 62
253
  6
CONTINUOUS
 10
161.9022219733
 20
119.5486291383
 11
163.861825355
 21
121.2089853848
  0
LWPOLYLINE
  5
5FB
100
AcDbEntity
  8
RACCORDO
100
AcDbPolyline
 62
253
  6
CONTINUOUS
 90
8
 70
0
 10
148.3765119024
 20
107.0016396343
 10
148.3541264596
 20
106.9828531626
 10
148.308441129
 20
106.9390904783
 10
148.2667008471
 20
106.8912883796
 10
148.2291008083
 20
106.8397633562
 10
148.1957424564
 20
106.7847942507
 10
148.1666588797
 20
106.726594621
 10
148.141893454
 20
106.6654184322
  0
LWPOLYLINE
  5
5FC
100
AcDbEntity
  8
ASSI
100
AcDbPolyline
 62
253
  6
CONTINUOUS
 90
8
 70
0
 10
148.3765119024
 20
107.0016396343
 10
148.3541264596
 20
106.9828531626
 10
148.308441129
 20
106.9390904783
 10
148.2667008471
 20
106.8912883796
 10
148.2291008083
 20
106.8397633562
 10
148.1957424564
 20
106.7847942507
 10
148.1666588797
 20
106.726594621
 10
148.141893454
 20
106.6654184322
  0
LINE
  5
5FD
100
AcDbEntity
  8
0
100
AcDbLine
 62
253
  6
CONTINUOUS
 10
139.1885007326
 20
101.3185169552
 11
139.2142722477
 21
101.3398484631
  0
LINE
  5
5FE
100
AcDbEntity
  8
RACCORDO
100
AcDbLine
 62
7
  6
CONTINUOUS
 10
148.3780065802
 20
107.0028385586
 11
148.3765119024
 21
107.0016396343
  0
LINE
  5
5FF
100
AcDbEntity
  8
ASSI
100
AcDbLine
 62
7
  6
CONTINUOUS
 10
148.3780065802
 20
107.0028385586
 11
148.3765119024
 21
107.0016396343
  0
LINE
  5
600
100
AcDbEntity
  8
RACCORDO
100
AcDbLine
 62
253
  6
CONTINUOUS
 10
148.7131840646
 20
107.1206495758
 11
148.141893454
 21
106.6654184322
  0
LINE
  5
601
100
AcDbEntity
  8
ASSI
100
AcDbLine
 62
253
  6
CONTINUOUS
 10
148.7131840646
 20
107.1206495758
 11
148.141893454
 21
106.6654184322
  0
LINE
  5
602
100
AcDbEntity
  8
RACCORDO
100
AcDbLine
 62
7
  6
CONTINUOUS
 10
148.0804187431
 20
106.5779293207
 11
148.764041177
 21
107.1218993714
  0
LINE
  5
603
100
AcDbEntity
  8
ASSI
100
AcDbLine
 62
7
  6
CONTINUOUS
 10
148.0804187431
 20
106.5779293207
 11
148.764041177
 21
107.1218993714
  0
LINE
  5
604
100
AcDbEntity
  8
0
100
AcDbLine
 62
253
  6
CONTINUOUS
 10
138.8210700823
 20
101.7745367215
 11
138.7814198562
 21
101.7453240998
  0
LINE
  5
605
100
AcDbEntity
  8
0
100
AcDbLine
 62
253
  6
CONTINUOUS
 10
139.2142722477
 20
101.3398484631
 11
139.2309047575
 21
101.351752696
  0
LWPOLYLINE
  5
606
100
AcDbEntity
  8
RACCORDO
100
AcDbPolyline
 62
7
  6
CONTINUOUS
 90
14
 70
0
 10
148.3764623796
 20
107.0015916394
 10
148.4239231664
 20
107.0353816294
 10
148.4774434513
 20
107.064526883
 10
148.5341674513
 20
107.0873785506
 10
148.5950096756
 20
107.1046026624
 10
148.6599155641
 20
107.1161521786
 10
148.7280937868
 20
107.1219083862
 10
148.799497748
 20
107.1218904797
 10
148.8735809827
 20
107.1160655853
 10
148.9497251613
 20
107.1045048357
 10
149.0279695095
 20
107.0871829012
 10
149.1080222862
 20
107.0640777544
 10
149.1890795485
 20
107.0353857058
 10
149.2084951829
 20
107.0277398035
  0
LWPOLYLINE
  5
607
100
AcDbEntity
  8
ASSI
100
AcDbPolyline
 62
7
  6
CONTINUOUS
 90
14
 70
0
 10
148.3764623796
 20
107.0015916394
 10
148.4239231664
 20
107.0353816294
 10
148.4774434513
 20
107.064526883
 10
148.5341674513
 20
107.0873785506
 10
148.5950096756
 20
107.1046026624
 10
148.6599155641
 20
107.1161521786
 10
148.7280937868
 20
107.1219083862
 10
148.799497748
 20
107.1218904797
 10
148.8735809827
 20
107.1160655853
 10
148.9497251613
 20
107.1045048357
 10
149.0279695095
 20
107.0871829012
 10
149.1080222862
 20
107.0640777544
 10
149.1890795485
 20
107.0353857058
 10
149.2084951829
 20
107.0277398035
  0
LWPOLYLINE
  5
608
100
AcDbEntity
  8
RACCORDO
100
AcDbPolyline
 62
253
  6
CONTINUOUS
 90
16
 70
0
 10
148.141897277
 20
106.6654290138
 10
148.1156511114
 20
106.6469340363
 10
148.086819823
 20
106.6316154691
 10
148.0555189536
 20
106.619274579
 10
148.021601114
 20
106.6096211281
 10
147.9852949499
 20
106.6028546392
 10
147.9474281643
 20
106.5994352849
 10
147.9084499695
 20
106.5991287062
 10
147.8684704891
 20
106.601799532
 10
147.8280978077
 20
106.6078309219
 10
147.7878459914
 20
106.6169164288
 10
147.7480257702
 20
106.628742766
 10
147.7090867376
 20
106.6436455483
 10
147.6714911526
 20
106.6614798981
 10
147.6356432326
 20
106.6815652161
 10
147.6019197578
 20
106.7034087595
  0
LWPOLYLINE
  5
609
100
AcDbEntity
  8
ASSI
100
AcDbPolyline
 62
253
  6
CONTINUOUS
 90
16
 70
0
 10
148.141897277
 20
106.6654290138
 10
148.1156511114
 20
106.6469340363
 10
148.086819823
 20
106.6316154691
 10
148.0555189536
 20
106.619274579
 10
148.021601114
 20
106.6096211281
 10
147.9852949499
 20
106.6028546392
 10
147.9474281643
 20
106.5994352849
 10
147.9084499695
 20
106.5991287062
 10
147.8684704891
 20
106.601799532
 10
147.8280978077
 20
106.6078309219
 10
147.7878459914
 20
106.6169164288
 10
147.7480257702
 20
106.628742766
 10
147.7090867376
 20
106.6436455483
 10
147.6714911526
 20
106.6614798981
 10
147.6356432326
 20
106.6815652161
 10
147.6019197578
 20
106.7034087595
  0
LINE
  5
60A
100
AcDbEntity
  8
0
100
AcDbLine
 62
253
  6
CONTINUOUS
 10
138.8514687762
 20
101.7937911127
 11
138.8210700823
 21
101.7745367215
  0
LINE
  5
60B
100
AcDbEntity
  8
0
100
AcDbLine
 62
253
  6
CONTINUOUS
 10
138.8731248572
 20
101.8061750514
 11
138.8514687762
 21
101.7937911127
  0
LINE
  5
60C
100
AcDbEntity
  8
0
100
AcDbLine
 62
253
  6
CONTINUOUS
 10
145.4732454014
 20
114.850244107
 11
145.488036872
 21
114.8525797288
  0
LINE
  5
60D
100
AcDbEntity
  8
0
100
AcDbLine
 62
253
  6
CONTINUOUS
 10
145.4572690813
 20
114.8515975529
 11
145.4732454014
 21
114.850244107
  0
LINE
  5
60E
100
AcDbEntity
  8
0
100
AcDbLine
 62
253
  6
CONTINUOUS
 10
143.3556725005
 20
115.6959794174
 11
143.3716502895
 21
115.6946271749
  0
LINE
  5
60F
100
AcDbEntity
  8
0
100
AcDbLine
 62
253
  6
CONTINUOUS
 10
141.1226623439
 20
116.5840079121
 11
141.1877392561
 21
116.5716661681
  0
LINE
  5
610
100
AcDbEntity
  8
0
100
AcDbLine
 62
253
  6
CONTINUOUS
 10
141.0555094787
 20
116.6003357954
 11
141.1226623439
 21
116.5840079121
  0
LINE
  5
611
100
AcDbEntity
  8
0
100
AcDbLine
 62
253
  6
CONTINUOUS
 10
141.0126397777
 20
117.0700428553
 11
140.9703443163
 21
117.0804751195
  0
LINE
  5
612
100
AcDbEntity
  8
0
100
AcDbLine
 62
253
  6
CONTINUOUS
 10
140.9862768376
 20
116.6207329638
 11
141.0555094787
 21
116.6003357954
  0
LINE
  5
613
100
AcDbEntity
  8
0
100
AcDbLine
 62
253
  6
CONTINUOUS
 10
143.3389796801
 20
115.7009754744
 11
143.3556725005
 21
115.6959794174
  0
LINE
  5
614
100
AcDbEntity
  8
0
100
AcDbLine
 62
253
  6
CONTINUOUS
 10
145.4405777852
 20
114.8565948585
 11
145.4572690813
 21
114.8515975529
  0
LINE
  5
615
100
AcDbEntity
  8
0
100
AcDbLine
 62
253
  6
CONTINUOUS
 10
140.9703443163
 20
117.0804751195
 11
140.9270703794
 21
117.0936506807
  0
LINE
  5
616
100
AcDbEntity
  8
0
100
AcDbLine
 62
253
  6
CONTINUOUS
 10
140.9149640685
 20
116.6452895969
 11
140.9862768376
 21
116.6207329638
  0
LINE
  5
617
100
AcDbEntity
  8
0
100
AcDbLine
 62
253
  6
CONTINUOUS
 10
140.9270703794
 20
117.0936506807
 11
140.8828219444
 21
117.1096130312
  0
LINE
  5
618
100
AcDbEntity
  8
0
100
AcDbLine
 62
253
  6
CONTINUOUS
 10
140.8645828785
 20
116.6646928774
 11
140.9149640685
 21
116.6452895969
  0
LINE
  5
619
100
AcDbEntity
  8
0
100
AcDbLine
 62
253
  6
CONTINUOUS
 10
140.8828219444
 20
117.1096130312
 11
140.8720450081
 21
117.1138684539
  0
LINE
  5
61A
100
AcDbEntity
  8
0
100
AcDbLine
 62
253
  6
CONTINUOUS
 10
145.1076277707
 20
114.9903783582
 11
145.440577815
 21
114.8565966982
  0
LINE
  5
61B
100
AcDbEntity
  8
0
100
AcDbLine
 62
253
  6
CONTINUOUS
 10
143.0076892758
 20
115.8340516184
 11
143.3389796907
 21
115.7009761272
  0
LINE
  5
61C
100
AcDbEntity
  8
0
100
AcDbLine
 62
253
  6
CONTINUOUS
 10
140.8720450081
 20
117.1138684539
 11
140.861271297
 21
117.1182647743
  0
LINE
  5
61D
100
AcDbEntity
  8
0
100
AcDbLine
 62
253
  6
CONTINUOUS
 10
140.8128368372
 20
116.6863383775
 11
140.8645828785
 21
116.6646928774
  0
LINE
  5
61E
100
AcDbEntity
  8
0
100
AcDbLine
 62
253
  6
CONTINUOUS
 10
140.861271297
 20
117.1182647743
 11
140.8170838394
 21
117.1378059816
  0
LINE
  5
61F
100
AcDbEntity
  8
0
100
AcDbLine
 62
253
  6
CONTINUOUS
 10
140.7419125161
 20
116.7189473775
 11
140.8128368372
 21
116.6863383775
  0
LINE
  5
620
100
AcDbEntity
  8
0
100
AcDbLine
 62
253
  6
CONTINUOUS
 10
140.8170838394
 20
117.1378059816
 11
140.7739520157
 21
117.159318965
  0
LINE
  5
621
100
AcDbEntity
  8
0
100
AcDbLine
 62
253
  6
CONTINUOUS
 10
142.9910510651
 20
115.8424450233
 11
143.0076892863
 21
115.8340522711
  0
LINE
  5
622
100
AcDbEntity
  8
0
100
AcDbLine
 62
253
  6
CONTINUOUS
 10
145.0910187625
 20
114.9987786002
 11
145.1076278005
 21
114.9903801979
  0
LINE
  5
623
100
AcDbEntity
  8
0
100
AcDbLine
 62
253
  6
CONTINUOUS
 10
140.6732876173
 20
116.7539426152
 11
140.7419125161
 21
116.7189473775
  0
LINE
  5
624
100
AcDbEntity
  8
0
100
AcDbLine
 62
253
  6
CONTINUOUS
 10
140.7739520157
 20
117.159318965
 11
140.7318784056
 21
117.1827576035
  0
LINE
  5
625
100
AcDbEntity
  8
0
100
AcDbLine
 62
253
  6
CONTINUOUS
 10
140.6069567179
 20
116.7912329034
 11
140.6732876173
 21
116.7539426152
  0
LINE
  5
626
100
AcDbEntity
  8
0
100
AcDbLine
 62
253
  6
CONTINUOUS
 10
140.7318784056
 20
117.1827576035
 11
140.6908649147
 21
117.208082777
  0
LINE
  5
627
100
AcDbEntity
  8
0
100
AcDbLine
 62
253
  6
CONTINUOUS
 10
141.1061972136
 20
119.699129868
 11
141.1460872634
 21
119.6718979595
  0
LINE
  5
628
100
AcDbEntity
  8
0
100
AcDbLine
 62
253
  6
CONTINUOUS
 10
145.0751018342
 20
115.0103064478
 11
145.0910187625
 21
114.9987786002
  0
LINE
  5
629
100
AcDbEntity
  8
0
100
AcDbLine
 62
253
  6
CONTINUOUS
 10
141.3800623472
 20
119.992378114
 11
141.3201592405
 21
120.0364449462
  0
LINE
  5
62A
100
AcDbEntity
  8
0
100
AcDbLine
 62
253
  6
CONTINUOUS
 10
141.1460872634
 20
119.6718979595
 11
141.1849044648
 21
119.6428226953
  0
LINE
  5
62B
100
AcDbEntity
  8
0
100
AcDbLine
 62
253
  6
CONTINUOUS
 10
141.4377750834
 20
119.9462262586
 11
141.3800623472
 21
119.992378114
  0
LINE
  5
62C
100
AcDbEntity
  8
0
100
AcDbLine
 62
253
  6
CONTINUOUS
 10
141.1849044648
 20
119.6428226953
 11
141.2226460879
 21
119.6119214032
  0
LINE
  5
62D
100
AcDbEntity
  8
0
100
AcDbLine
 62
253
  6
CONTINUOUS
 10
141.4674430827
 20
119.9210211948
 11
141.4377750834
 21
119.9462262586
  0
LINE
  5
62E
100
AcDbEntity
  8
0
100
AcDbLine
 62
253
  6
CONTINUOUS
 10
141.4967089145
 20
119.8951840535
 11
141.4674430827
 21
119.9210211948
  0
LINE
  5
62F
100
AcDbEntity
  8
0
100
AcDbLine
 62
253
  6
CONTINUOUS
 10
141.2226460879
 20
119.6119214032
 11
141.2567412003
 21
119.5817614128
  0
LINE
  5
630
100
AcDbEntity
  8
0
100
AcDbLine
 62
253
  6
CONTINUOUS
 10
141.5540076506
 20
119.8416388176
 11
141.4967089145
 21
119.8951840535
  0
LINE
  5
631
100
AcDbEntity
  8
0
100
AcDbLine
 62
253
  6
CONTINUOUS
 10
141.2567412003
 20
119.5817614128
 11
141.2944083108
 21
119.5458960544
  0
LINE
  5
632
100
AcDbEntity
  8
0
100
AcDbLine
 62
253
  6
CONTINUOUS
 10
143.4556377196
 20
119.1887200549
 11
143.4429188323
 21
119.2009753042
  0
LINE
  5
633
100
AcDbEntity
  8
0
100
AcDbLine
 62
253
  6
CONTINUOUS
 10
141.6096452405
 20
119.7856185942
 11
141.5540076506
 21
119.8416388176
  0
LINE
  5
634
100
AcDbEntity
  8
0
100
AcDbLine
 62
253
  6
CONTINUOUS
 10
141.2944083108
 20
119.5458960544
 11
141.3301322604
 21
119.509074222
  0
LINE
  5
635
100
AcDbEntity
  8
0
100
AcDbLine
 62
253
  6
CONTINUOUS
 10
141.6635979164
 20
119.727140467
 11
141.6096452405
 21
119.7856185942
  0
LINE
  5
636
100
AcDbEntity
  8
0
100
AcDbLine
 62
253
  6
CONTINUOUS
 10
141.7158369388
 20
119.6662185323
 11
141.6635979164
 21
119.727140467
  0
LINE
  5
637
100
AcDbEntity
  8
0
100
AcDbLine
 62
253
  6
CONTINUOUS
 10
143.468468752
 20
119.1725878043
 11
143.4556377196
 21
119.1887200549
  0
LINE
  5
638
100
AcDbEntity
  8
0
100
AcDbLine
 62
253
  6
CONTINUOUS
 10
145.5670018466
 20
118.3309567715
 11
145.5572519731
 21
118.3432148331
  0
LINE
  5
639
100
AcDbEntity
  8
0
100
AcDbLine
 62
253
  6
CONTINUOUS
 10
145.5776885122
 20
118.3134553013
 11
145.5670018466
 21
118.3309567715
  0
LINE
  5
63A
100
AcDbEntity
  8
0
100
AcDbLine
 62
253
  6
CONTINUOUS
 10
145.5854516201
 20
118.2952484646
 11
145.5776885122
 21
118.3134553013
  0
LWPOLYLINE
  5
63B
100
AcDbEntity
  8
ASSI
100
AcDbPolyline
 62
253
  6
CONTINUOUS
 90
4
 70
0
 10
151.8787184629
 20
92.7584840953
 10
151.9258159109
 20
91.0756680241
 10
151.9792481715
 20
89.3984629201
 10
152.0390138206
 20
87.7269151796
  0
LWPOLYLINE
  5
63C
100
AcDbEntity
  8
RACCORDO
100
AcDbPolyline
 62
253
  6
CONTINUOUS
 90
4
 70
0
 10
151.8787184629
 20
92.7584840953
 10
151.9258159109
 20
91.0756680241
 10
151.9792481715
 20
89.3984629201
 10
152.0390138206
 20
87.7269151796
  0
LINE
  5
63D
100
AcDbEntity
  8
ASSI
100
AcDbLine
 62
253
  6
CONTINUOUS
 10
151.8356325467
 20
94.5612556463
 11
151.8787184629
 21
92.7584840953
  0
LINE
  5
63E
100
AcDbEntity
  8
RACCORDO
100
AcDbLine
 62
253
  6
CONTINUOUS
 10
151.8356325467
 20
94.5612556463
 11
151.8787184629
 21
92.7584840953
  0
LINE
  5
63F
100
AcDbEntity
  8
ASSI
100
AcDbLine
 62
253
  6
CONTINUOUS
 10
151.8029997291
 20
96.1730673548
 11
151.8356325467
 21
94.5612556463
  0
LINE
  5
640
100
AcDbEntity
  8
RACCORDO
100
AcDbLine
 62
253
  6
CONTINUOUS
 10
151.8029997291
 20
96.1730673548
 11
151.8356325467
 21
94.5612556463
  0
LINE
  5
641
100
AcDbEntity
  8
ASSI
100
AcDbLine
 62
253
  6
CONTINUOUS
 10
151.7537071497
 20
99.5447579701
 11
151.7714315798
 21
98.1551264495
  0
LINE
  5
642
100
AcDbEntity
  8
ASSI
100
AcDbLine
 62
253
  6
CONTINUOUS
 10
151.7714315798
 20
98.1551264495
 11
151.8029997291
 21
96.1730673548
  0
LINE
  5
643
100
AcDbEntity
  8
RACCORDO
100
AcDbLine
 62
253
  6
CONTINUOUS
 10
151.7537071497
 20
99.5447579701
 11
151.7714315798
 21
98.1551264495
  0
LINE
  5
644
100
AcDbEntity
  8
RACCORDO
100
AcDbLine
 62
253
  6
CONTINUOUS
 10
151.7714315798
 20
98.1551264495
 11
151.8029997291
 21
96.1730673548
  0
LWPOLYLINE
  5
645
100
AcDbEntity
  8
ASSI
100
AcDbPolyline
 62
253
  6
CONTINUOUS
 90
3
 70
0
 10
151.7292472639
 20
102.969833383
 10
151.7383063369
 20
101.2546734918
 10
151.7537071497
 20
99.5447579701
  0
LWPOLYLINE
  5
646
100
AcDbEntity
  8
RACCORDO
100
AcDbPolyline
 62
253
  6
CONTINUOUS
 90
3
 70
0
 10
151.7292472639
 20
102.969833383
 10
151.7383063369
 20
101.2546734918
 10
151.7537071497
 20
99.5447579701
  0
LWPOLYLINE
  5
647
100
AcDbEntity
  8
RACCORDO
100
AcDbPolyline
 62
253
  6
CONTINUOUS
 90
4
 70
0
 10
151.7292472639
 20
106.1681866948
 10
151.7383063369
 20
107.8981881025
 10
151.7537071497
 20
109.6333348386
 10
151.7754492355
 20
111.3735789182
  0
LWPOLYLINE
  5
648
100
AcDbEntity
  8
ASSI
100
AcDbPolyline
 62
253
  6
CONTINUOUS
 90
4
 70
0
 10
151.7292472639
 20
106.1681866948
 10
151.7383063369
 20
107.8981881025
 10
151.7537071497
 20
109.6333348386
 10
151.7754492355
 20
111.3735789182
  0
LINE
  5
649
100
AcDbEntity
  8
RACCORDO
100
AcDbLine
 62
253
  6
CONTINUOUS
 10
151.7754492355
 20
111.3735789182
 11
151.8037156928
 21
113.1282085854
  0
LINE
  5
64A
100
AcDbEntity
  8
ASSI
100
AcDbLine
 62
253
  6
CONTINUOUS
 10
151.7754492355
 20
111.3735789182
 11
151.8037156928
 21
113.1282085854
  0
LINE
  5
64B
100
AcDbEntity
  8
RACCORDO
100
AcDbLine
 62
253
  6
CONTINUOUS
 10
151.8037156928
 20
113.1282085854
 11
151.8464735731
 21
115.2359626609
  0
LINE
  5
64C
100
AcDbEntity
  8
ASSI
100
AcDbLine
 62
253
  6
CONTINUOUS
 10
151.8037156928
 20
113.1282085854
 11
151.8464735731
 21
115.2359626609
  0
LINE
  5
64D
100
AcDbEntity
  8
RACCORDO
100
AcDbLine
 62
253
  6
CONTINUOUS
 10
151.8464735731
 20
115.2359626609
 11
151.8909120599
 21
117.0800755775
  0
LINE
  5
64E
100
AcDbEntity
  8
ASSI
100
AcDbLine
 62
253
  6
CONTINUOUS
 10
151.8464735731
 20
115.2359626609
 11
151.8909120599
 21
117.0800755775
  0
LWPOLYLINE
  5
64F
100
AcDbEntity
  8
RACCORDO
100
AcDbPolyline
 62
253
  6
CONTINUOUS
 90
4
 70
0
 10
151.8909120599
 20
117.0800755775
 10
151.9258159109
 20
118.3843912718
 10
151.9792481715
 20
120.1491346667
 10
152.0390138206
 20
121.9185967146
  0
LWPOLYLINE
  5
650
100
AcDbEntity
  8
ASSI
100
AcDbPolyline
 62
253
  6
CONTINUOUS
 90
4
 70
0
 10
151.8909120599
 20
117.0800755775
 10
151.9258159109
 20
118.3843912718
 10
151.9792481715
 20
120.1491346667
 10
152.0390138206
 20
121.9185967146
  0
LWPOLYLINE
  5
651
100
AcDbEntity
  8
RACCORDO
100
AcDbPolyline
 62
253
  6
CONTINUOUS
 90
19
 70
0
 10
152.0390138206
 20
121.9185967146
 10
152.0442128738
 20
122.0025620717
 10
152.0539345753
 20
122.0893649116
 10
152.068114454
 20
122.1784295853
 10
152.0866584733
 20
122.269165444
 10
152.1094436552
 20
122.3609707561
 10
152.1363188956
 20
122.4532366977
 10
152.1671059663
 20
122.5453513903
 10
152.2016006971
 20
122.6367039582
 10
152.23957433
 20
122.7266885801
 10
152.2807750357
 20
122.8147085063
 10
152.3249295842
 20
122.9001800164
 10
152.3717451565
 20
122.9825362904
 10
152.4209112864
 20
123.0612311674
 10
152.4721019196
 20
123.1357427678
 10
152.5249775762
 20
123.2055769542
 10
152.5791876012
 20
123.2702706084
 10
152.6343724911
 20
123.3293947023
 10
152.690166277
 20
123.3825571437
  0
LWPOLYLINE
  5
652
100
AcDbEntity
  8
ASSI
100
AcDbPolyline
 62
253
  6
CONTINUOUS
 90
19
 70
0
 10
152.0390138206
 20
121.9185967146
 10
152.0442128738
 20
122.0025620717
 10
152.0539345753
 20
122.0893649116
 10
152.068114454
 20
122.1784295853
 10
152.0866584733
 20
122.269165444
 10
152.1094436552
 20
122.3609707561
 10
152.1363188956
 20
122.4532366977
 10
152.1671059663
 20
122.5453513903
 10
152.2016006971
 20
122.6367039582
 10
152.23957433
 20
122.7266885801
 10
152.2807750357
 20
122.8147085063
 10
152.3249295842
 20
122.9001800164
 10
152.3717451565
 20
122.9825362904
 10
152.4209112864
 20
123.0612311674
 10
152.4721019196
 20
123.1357427678
 10
152.5249775762
 20
123.2055769542
 10
152.5791876012
 20
123.2702706084
 10
152.6343724911
 20
123.3293947023
 10
152.690166277
 20
123.3825571437
  0
LINE
  5
653
100
AcDbEntity
  8
0
100
AcDbLine
 62
253
  6
CONTINUOUS
 10
146.665213784
 20
97.0971427994
 11
146.6696098884
 21
97.1104266167
  0
LINE
  5
654
100
AcDbEntity
  8
0
100
AcDbLine
 62
253
  6
CONTINUOUS
 10
146.8863243289
 20
98.5146238155
 11
146.8907680477
 21
98.5280192642
  0
LINE
  5
655
100
AcDbEntity
  8
0
100
AcDbLine
 62
253
  6
CONTINUOUS
 10
144.0064510089
 20
99.6577458991
 11
144.0139055731
 21
99.6687851197
  0
LINE
  5
656
100
AcDbEntity
  8
0
100
AcDbLine
 62
253
  6
CONTINUOUS
 10
144.6997718884
 20
99.7412275176
 11
144.6923040887
 21
99.7301837317
  0
LINE
  5
657
100
AcDbEntity
  8
0
100
AcDbLine
 62
253
  6
CONTINUOUS
 10
143.7853667147
 20
98.2403866632
 11
143.7927911142
 21
98.2513484082
  0
LINE
  5
658
100
AcDbEntity
  8
0
100
AcDbLine
 62
253
  6
CONTINUOUS
 10
140.8296962691
 20
98.4021324135
 11
140.8613742977
 21
98.4352406397
  0
LWPOLYLINE
  5
659
100
AcDbEntity
  8
ASSI
100
AcDbPolyline
 62
253
  6
CONTINUOUS
 90
16
 70
0
 10
149.3556516569
 20
104.5297428608
 10
149.3317434284
 20
104.5080734902
 10
149.3081176303
 20
104.483086739
 10
149.2850317904
 20
104.4550549699
 10
149.2627375509
 20
104.424283737
 10
149.2414779254
 20
104.3911084555
 10
149.2214846498
 20
104.3558907455
 10
149.2029756566
 20
104.31901449
 10
149.1861526989
 20
104.2808816507
 10
149.1711991519
 20
104.2419078863
 10
149.1582780133
 20
104.2025180219
 10
149.1475301274
 20
104.1631414183
 10
149.1390726491
 20
104.1242072915
 10
149.1329977673
 20
104.0861400347
 10
149.1293717
 20
104.0493545918
 10
149.1282339723
 20
104.0142519344
  0
LWPOLYLINE
  5
65A
100
AcDbEntity
  8
RACCORDO
100
AcDbPolyline
 62
253
  6
CONTINUOUS
 90
16
 70
0
 10
149.3556516569
 20
104.5297428608
 10
149.3317434284
 20
104.5080734902
 10
149.3081176303
 20
104.483086739
 10
149.2850317904
 20
104.4550549699
 10
149.2627375509
 20
104.424283737
 10
149.2414779254
 20
104.3911084555
 10
149.2214846498
 20
104.3558907455
 10
149.2029756566
 20
104.31901449
 10
149.1861526989
 20
104.2808816507
 10
149.1711991519
 20
104.2419078863
 10
149.1582780133
 20
104.2025180219
 10
149.1475301274
 20
104.1631414183
 10
149.1390726491
 20
104.1242072915
 10
149.1329977673
 20
104.0861400347
 10
149.1293717
 20
104.0493545918
 10
149.1282339723
 20
104.0142519344
  0
LINE
  5
65B
100
AcDbEntity
  8
0
100
AcDbLine
 62
253
  6
CONTINUOUS
 10
140.7941220486
 20
98.371062275
 11
140.8296962691
 21
98.4021324135
  0
LINE
  5
65C
100
AcDbEntity
  8
0
100
AcDbLine
 62
253
  6
CONTINUOUS
 10
140.3819308731
 20
98.7994043334
 11
140.3670287049
 21
98.7866573847
  0
LINE
  5
65D
100
AcDbEntity
  8
ASSI
100
AcDbLine
 62
253
  6
CONTINUOUS
 10
147.8293525314
 20
106.2580017741
 11
148.8749932611
 21
107.1158511632
  0
LINE
  5
65E
100
AcDbEntity
  8
RACCORDO
100
AcDbLine
 62
253
  6
CONTINUOUS
 10
147.8293525314
 20
106.2580017741
 11
148.8749932611
 21
107.1158511632
  0
LINE
  5
65F
100
AcDbEntity
  8
ASSI
100
AcDbLine
 62
253
  6
CONTINUOUS
 10
148.1418972773
 20
105.9031605954
 11
149.4152824772
 21
106.9447004143
  0
LINE
  5
660
100
AcDbEntity
  8
RACCORDO
100
AcDbLine
 62
253
  6
CONTINUOUS
 10
148.1418972773
 20
105.9031605954
 11
149.4152824772
 21
106.9447004143
  0
LINE
  5
661
100
AcDbEntity
  8
0
100
AcDbLine
 62
253
  6
CONTINUOUS
 10
141.8368377331
 20
100.903198517
 11
141.8270685099
 21
100.8952114599
  0
LWPOLYLINE
  5
662
100
AcDbEntity
  8
ASSI
100
AcDbPolyline
 62
253
  6
CONTINUOUS
 90
16
 70
0
 10
148.141897277
 20
105.9031605966
 10
148.1156532295
 20
105.883742747
 10
148.0868241587
 20
105.8648679595
 10
148.0555255064
 20
105.846722872
 10
148.0216098805
 20
105.8295947976
 10
147.9853058012
 20
105.8135445317
 10
147.9474406337
 20
105.7985441011
 10
147.9084633787
 20
105.7851215557
 10
147.8684841809
 20
105.7734906875
 10
147.8281110921
 20
105.7632908504
 10
147.7878581096
 20
105.7549480504
 10
147.748036054
 20
105.7488061912
 10
147.7090947663
 20
105.7443779906
 10
147.6714966601
 20
105.7417135093
 10
147.6356460173
 20
105.7413844362
 10
147.6019197579
 20
105.7436378777
  0
LWPOLYLINE
  5
663
100
AcDbEntity
  8
RACCORDO
100
AcDbPolyline
 62
253
  6
CONTINUOUS
 90
16
 70
0
 10
148.141897277
 20
105.9031605966
 10
148.1156532295
 20
105.883742747
 10
148.0868241587
 20
105.8648679595
 10
148.0555255064
 20
105.846722872
 10
148.0216098805
 20
105.8295947976
 10
147.9853058012
 20
105.8135445317
 10
147.9474406337
 20
105.7985441011
 10
147.9084633787
 20
105.7851215557
 10
147.8684841809
 20
105.7734906875
 10
147.8281110921
 20
105.7632908504
 10
147.7878581096
 20
105.7549480504
 10
147.748036054
 20
105.7488061912
 10
147.7090947663
 20
105.7443779906
 10
147.6714966601
 20
105.7417135093
 10
147.6356460173
 20
105.7413844362
 10
147.6019197579
 20
105.7436378777
  0
LINE
  5
664
100
AcDbEntity
  8
0
100
AcDbLine
 62
253
  6
CONTINUOUS
 10
140.3670287049
 20
98.7866573847
 11
140.3403002368
 21
98.7668912034
  0
LINE
  5
665
100
AcDbEntity
  8
0
100
AcDbLine
 62
253
  6
CONTINUOUS
 10
140.7545636421
 20
98.3421417825
 11
140.7941220486
 21
98.371062275
  0
LINE
  5
666
100
AcDbEntity
  8
0
100
AcDbLine
 62
253
  6
CONTINUOUS
 10
139.2309047575
 20
101.351752696
 11
139.2583540138
 21
101.3678717561
  0
LINE
  5
667
100
AcDbEntity
  8
0
100
AcDbLine
 62
253
  6
CONTINUOUS
 10
138.9223577628
 20
101.8308776186
 11
138.8731248572
 21
101.8061750514
  0
LINE
  5
668
100
AcDbEntity
  8
0
100
AcDbLine
 62
253
  6
CONTINUOUS
 10
139.2583540138
 20
101.3678717561
 11
139.2878324583
 21
101.3817828861
  0
LINE
  5
669
100
AcDbEntity
  8
0
100
AcDbLine
 62
253
  6
CONTINUOUS
 10
138.9732881365
 20
101.8518460625
 11
138.9223577628
 21
101.8308776186
  0
LINE
  5
66A
100
AcDbEntity
  8
0
100
AcDbLine
 62
253
  6
CONTINUOUS
 10
139.2878324583
 20
101.3817828861
 11
139.3193421949
 21
101.393445671
  0
LINE
  5
66B
100
AcDbEntity
  8
0
100
AcDbLine
 62
253
  6
CONTINUOUS
 10
139.0258642626
 20
101.8691041162
 11
138.9732881365
 21
101.8518460625
  0
LINE
  5
66C
100
AcDbEntity
  8
0
100
AcDbLine
 62
253
  6
CONTINUOUS
 10
141.5460338698
 20
116.5782178119
 11
141.6014547269
 21
116.5925050562
  0
LINE
  5
66D
100
AcDbEntity
  8
0
100
AcDbLine
 62
253
  6
CONTINUOUS
 10
141.2825354139
 20
117.0704713961
 11
141.2460531609
 21
117.0628196629
  0
LINE
  5
66E
100
AcDbEntity
  8
0
100
AcDbLine
 62
253
  6
CONTINUOUS
 10
141.4890658005
 20
116.5676742411
 11
141.5460338698
 21
116.5782178119
  0
LINE
  5
66F
100
AcDbEntity
  8
0
100
AcDbLine
 62
253
  6
CONTINUOUS
 10
143.3716502895
 20
115.6946271749
 11
143.3864431339
 21
115.696963922
  0
LINE
  5
670
100
AcDbEntity
  8
0
100
AcDbLine
 62
253
  6
CONTINUOUS
 10
141.2460531609
 20
117.0628196629
 11
141.2075765814
 21
117.0576212792
  0
LINE
  5
671
100
AcDbEntity
  8
0
100
AcDbLine
 62
253
  6
CONTINUOUS
 10
141.4305894321
 20
116.560872964
 11
141.4890658005
 21
116.5676742411
  0
LINE
  5
672
100
AcDbEntity
  8
0
100
AcDbLine
 62
253
  6
CONTINUOUS
 10
141.2075765814
 20
117.0576212792
 11
141.1719881961
 21
117.0551235139
  0
LINE
  5
673
100
AcDbEntity
  8
0
100
AcDbLine
 62
253
  6
CONTINUOUS
 10
141.3706404988
 20
116.5578164549
 11
141.4305894321
 21
116.560872964
  0
LINE
  5
674
100
AcDbEntity
  8
0
100
AcDbLine
 62
253
  6
CONTINUOUS
 10
141.1719881961
 20
117.0551235139
 11
141.133629355
 21
117.054876371
  0
LINE
  5
675
100
AcDbEntity
  8
0
100
AcDbLine
 62
253
  6
CONTINUOUS
 10
141.3117142083
 20
116.5586362574
 11
141.3706404988
 21
116.5578164549
  0
LINE
  5
676
100
AcDbEntity
  8
0
100
AcDbLine
 62
253
  6
CONTINUOUS
 10
141.133629355
 20
117.054876371
 11
141.0942834258
 21
117.0572696186
  0
LINE
  5
677
100
AcDbEntity
  8
0
100
AcDbLine
 62
253
  6
CONTINUOUS
 10
141.2507524191
 20
116.5632324752
 11
141.3117142083
 21
116.5586362574
  0
LINE
  5
678
100
AcDbEntity
  8
0
100
AcDbLine
 62
253
  6
CONTINUOUS
 10
141.0942834258
 20
117.0572696186
 11
141.0539537511
 21
117.0623167396
  0
LINE
  5
679
100
AcDbEntity
  8
0
100
AcDbLine
 62
253
  6
CONTINUOUS
 10
141.1877392561
 20
116.5716661681
 11
141.2507524191
 21
116.5632324752
  0
LINE
  5
67A
100
AcDbEntity
  8
0
100
AcDbLine
 62
253
  6
CONTINUOUS
 10
141.0539537511
 20
117.0623167396
 11
141.0126397777
 21
117.0700428553
  0
LINE
  5
67B
100
AcDbEntity
  8
0
100
AcDbLine
 62
253
  6
CONTINUOUS
 10
145.1789382288
 20
118.5104117418
 11
145.1622507159
 21
118.5153913272
  0
LINE
  5
67C
100
AcDbEntity
  8
0
100
AcDbLine
 62
253
  6
CONTINUOUS
 10
140.8268038276
 20
119.8268088045
 11
140.8701011197
 21
119.8136515557
  0
LINE
  5
67D
100
AcDbEntity
  8
0
100
AcDbLine
 62
253
  6
CONTINUOUS
 10
140.8701011197
 20
119.8136515557
 11
140.914359581
 21
119.7976982374
  0
LINE
  5
67E
100
AcDbEntity
  8
0
100
AcDbLine
 62
253
  6
CONTINUOUS
 10
140.9355210821
 20
120.2450133099
 11
140.8826552821
 21
120.2653240401
  0
LINE
  5
67F
100
AcDbEntity
  8
0
100
AcDbLine
 62
253
  6
CONTINUOUS
 10
140.914359581
 20
119.7976982374
 11
140.9251360753
 21
119.7934434526
  0
LINE
  5
680
100
AcDbEntity
  8
0
100
AcDbLine
 62
253
  6
CONTINUOUS
 10
145.5103372761
 20
118.3772529541
 11
145.1789381809
 21
118.5104096973
  0
LINE
  5
681
100
AcDbEntity
  8
0
100
AcDbLine
 62
253
  6
CONTINUOUS
 10
143.410426774
 20
119.2209476876
 11
143.0774428977
 21
119.3547028259
  0
LINE
  5
682
100
AcDbEntity
  8
0
100
AcDbLine
 62
253
  6
CONTINUOUS
 10
140.9251360753
 20
119.7934434526
 11
140.9359101855
 21
119.7890464591
  0
LINE
  5
683
100
AcDbEntity
  8
0
100
AcDbLine
 62
253
  6
CONTINUOUS
 10
140.9869527674
 20
120.2235026875
 11
140.9355210821
 21
120.2450133099
  0
LINE
  5
684
100
AcDbEntity
  8
0
100
AcDbLine
 62
253
  6
CONTINUOUS
 10
140.9359101855
 20
119.7890464591
 11
140.9800874412
 21
119.7694960758
  0
LINE
  5
685
100
AcDbEntity
  8
0
100
AcDbLine
 62
253
  6
CONTINUOUS
 10
141.0581511068
 20
120.1907699056
 11
140.9869527674
 21
120.2235026875
  0
LINE
  5
686
100
AcDbEntity
  8
0
100
AcDbLine
 62
253
  6
CONTINUOUS
 10
140.9800874412
 20
119.7694960758
 11
141.0231957393
 21
119.7479646405
  0
LINE
  5
687
100
AcDbEntity
  8
0
100
AcDbLine
 62
253
  6
CONTINUOUS
 10
145.5269913479
 20
118.3688333616
 11
145.5103372282
 21
118.3772509097
  0
LINE
  5
688
100
AcDbEntity
  8
0
100
AcDbLine
 62
253
  6
CONTINUOUS
 10
143.4270263459
 20
119.2125388117
 11
143.4104267568
 21
119.2209469542
  0
LINE
  5
689
100
AcDbEntity
  8
0
100
AcDbLine
 62
253
  6
CONTINUOUS
 10
141.127055567
 20
120.1556151499
 11
141.0581511068
 21
120.1907699056
  0
LINE
  5
68A
100
AcDbEntity
  8
0
100
AcDbLine
 62
253
  6
CONTINUOUS
 10
141.0231957393
 20
119.7479646405
 11
141.0652328281
 21
119.7244960855
  0
LINE
  5
68B
100
AcDbEntity
  8
0
100
AcDbLine
 62
253
  6
CONTINUOUS
 10
141.1936790967
 20
120.1181253151
 11
141.127055567
 21
120.1556151499
  0
LINE
  5
68C
100
AcDbEntity
  8
0
100
AcDbLine
 62
253
  6
CONTINUOUS
 10
141.2580403006
 20
120.0783791948
 11
141.1936790967
 21
120.1181253151
  0
LINE
  5
68D
100
AcDbEntity
  8
0
100
AcDbLine
 62
253
  6
CONTINUOUS
 10
141.0652328281
 20
119.7244960855
 11
141.1061972136
 21
119.699129868
  0
LINE
  5
68E
100
AcDbEntity
  8
0
100
AcDbLine
 62
253
  6
CONTINUOUS
 10
141.3201592405
 20
120.0364449462
 11
141.2580403006
 21
120.0783791948
  0
LINE
  5
68F
100
AcDbEntity
  8
0
100
AcDbLine
 62
253
  6
CONTINUOUS
 10
145.5427856684
 20
118.3573757927
 11
145.5269913479
 21
118.3688333616
  0
LINE
  5
690
100
AcDbEntity
  8
0
100
AcDbLine
 62
253
  6
CONTINUOUS
 10
143.4429188323
 20
119.2009753042
 11
143.4270263459
 21
119.2125388117
  0
LINE
  5
691
100
AcDbEntity
  8
0
100
AcDbLine
 62
253
  6
CONTINUOUS
 10
145.5572519731
 20
118.3432148331
 11
145.5427856684
 21
118.3573757927
  0
LWPOLYLINE
  5
692
100
AcDbEntity
  8
RACCORDO
100
AcDbPolyline
 62
253
  6
CONTINUOUS
 90
9
 70
0
 10
155.7558308827
 20
103.5157388398
 10
155.7635415443
 20
103.4982561823
 10
155.7751739526
 20
103.4835580543
 10
155.7909471903
 20
103.4705172407
 10
155.8107593645
 20
103.4589662387
 10
155.8343029823
 20
103.4495713641
 10
155.8613138519
 20
103.4424749906
 10
155.8915280889
 20
103.4372177642
 10
155.9245741411
 20
103.4335696224
  0
LWPOLYLINE
  5
693
100
AcDbEntity
  8
ASSI
100
AcDbPolyline
 62
253
  6
CONTINUOUS
 90
9
 70
0
 10
155.7558308827
 20
103.5157388398
 10
155.7635415443
 20
103.4982561823
 10
155.7751739526
 20
103.4835580543
 10
155.7909471903
 20
103.4705172407
 10
155.8107593645
 20
103.4589662387
 10
155.8343029823
 20
103.4495713641
 10
155.8613138519
 20
103.4424749906
 10
155.8915280889
 20
103.4372177642
 10
155.9245741411
 20
103.4335696224
  0
LWPOLYLINE
  5
694
100
AcDbEntity
  8
RACCORDO
100
AcDbPolyline
 62
7
  6
CONTINUOUS
 90
10
 70
0
 10
155.7577536675
 20
103.5092580966
 10
155.7720733996
 20
103.469932341
 10
155.7904678823
 20
103.4322384819
 10
155.8127657306
 20
103.396595994
 10
155.8387665953
 20
103.3633931619
 10
155.8682257878
 20
103.3330129052
 10
155.9008322341
 20
103.3058382837
 10
155.9362251869
 20
103.2822180921
 10
155.9740151621
 20
103.2624509165
 10
156.0024029545
 20
103.25077444
  0
LWPOLYLINE
  5
695
100
AcDbEntity
  8
ASSI
100
AcDbPolyline
 62
7
  6
CONTINUOUS
 90
10
 70
0
 10
155.7577536675
 20
103.5092580966
 10
155.7720733996
 20
103.469932341
 10
155.7904678823
 20
103.4322384819
 10
155.8127657306
 20
103.396595994
 10
155.8387665953
 20
103.3633931619
 10
155.8682257878
 20
103.3330129052
 10
155.9008322341
 20
103.3058382837
 10
155.9362251869
 20
103.2822180921
 10
155.9740151621
 20
103.2624509165
 10
156.0024029545
 20
103.25077444
  0
LINE
  5
696
100
AcDbEntity
  8
DRAFT
100
AcDbLine
 62
7
  6
CONTINUOUS
 10
152.6518216409
 20
126.0754205892
 11
152.6909146982
 21
125.6527394136
  0
LINE
  5
697
100
AcDbEntity
  8
ASSI
100
AcDbLine
 62
7
  6
CONTINUOUS
 10
152.6518216409
 20
126.0754205892
 11
152.6909146982
 21
125.6527394136
  0
LINE
  5
698
100
AcDbEntity
  8
0
100
AcDbLine
 62
253
  6
CONTINUOUS
 10
145.2372078296
 20
96.2188105331
 11
145.2445699153
 21
96.2297795529
  0
LINE
  5
699
100
AcDbEntity
  8
0
100
AcDbLine
 62
253
  6
CONTINUOUS
 10
146.8788705777
 20
98.5035842609
 11
146.8863243289
 21
98.5146238155
  0
LINE
  5
69A
100
AcDbEntity
  8
0
100
AcDbLine
 62
253
  6
CONTINUOUS
 10
146.6577931364
 20
97.0861776703
 11
146.665213784
 21
97.0971427994
  0
LINE
  5
69B
100
AcDbEntity
  8
ASSI
100
AcDbLine
 62
253
  6
CONTINUOUS
 10
151.018508741
 20
105.9126001096
 11
149.3557222831
 21
104.5297144989
  0
LINE
  5
69C
100
AcDbEntity
  8
RACCORDO
100
AcDbLine
 62
253
  6
CONTINUOUS
 10
151.018508741
 20
105.9126001096
 11
149.3557222831
 21
104.5297144989
  0
LINE
  5
69D
100
AcDbEntity
  8
0
100
AcDbLine
 62
253
  6
CONTINUOUS
 10
143.9966935538
 20
99.6497684817
 11
144.0064510089
 21
99.6577458991
  0
LINE
  5
69E
100
AcDbEntity
  8
0
100
AcDbLine
 62
253
  6
CONTINUOUS
 10
142.3544344964
 20
97.3646011351
 11
142.3645982701
 21
97.3728175399
  0
LINE
  5
69F
100
AcDbEntity
  8
0
100
AcDbLine
 62
253
  6
CONTINUOUS
 10
144.7100279742
 20
99.7495036145
 11
144.6997718884
 21
99.7412275176
  0
LINE
  5
6A0
100
AcDbEntity
  8
0
100
AcDbLine
 62
253
  6
CONTINUOUS
 10
143.7751328723
 20
98.2321631487
 11
143.7853667147
 21
98.2403866632
  0
LINE
  5
6A1
100
AcDbEntity
  8
0
100
AcDbLine
 62
253
  6
CONTINUOUS
 10
140.7261107252
 20
98.3242174773
 11
140.7545636421
 21
98.3421417825
  0
LINE
  5
6A2
100
AcDbEntity
  8
0
100
AcDbLine
 62
253
  6
CONTINUOUS
 10
140.3403002368
 20
98.7668912034
 11
140.3129322675
 21
98.7508503041
  0
LINE
  5
6A3
100
AcDbEntity
  8
0
100
AcDbLine
 62
253
  6
CONTINUOUS
 10
140.7018076772
 20
98.3104329833
 11
140.7261107252
 21
98.3242174773
  0
LINE
  5
6A4
100
AcDbEntity
  8
0
100
AcDbLine
 62
253
  6
CONTINUOUS
 10
140.6529925349
 20
98.2863277784
 11
140.7018076772
 21
98.3104329833
  0
LINE
  5
6A5
100
AcDbEntity
  8
0
100
AcDbLine
 62
253
  6
CONTINUOUS
 10
140.3129322675
 20
98.7508503041
 11
140.283562647
 21
98.7370312003
  0
LINE
  5
6A6
100
AcDbEntity
  8
0
100
AcDbLine
 62
253
  6
CONTINUOUS
 10
141.8493256857
 20
100.9084190566
 11
141.8368377331
 21
100.903198517
  0
LINE
  5
6A7
100
AcDbEntity
  8
0
100
AcDbLine
 62
253
  6
CONTINUOUS
 10
140.283562647
 20
98.7370312003
 11
140.2521709613
 21
98.7254632872
  0
LINE
  5
6A8
100
AcDbEntity
  8
0
100
AcDbLine
 62
253
  6
CONTINUOUS
 10
145.1462505083
 20
118.5167075673
 11
145.1314152857
 21
118.5143136485
  0
LINE
  5
6A9
100
AcDbEntity
  8
0
100
AcDbLine
 62
253
  6
CONTINUOUS
 10
143.0446737848
 20
119.3610293364
 11
143.0298182749
 21
119.3586483524
  0
LINE
  5
6AA
100
AcDbEntity
  8
0
100
AcDbLine
 62
253
  6
CONTINUOUS
 10
140.5505653257
 20
119.8440598381
 11
140.5891397039
 21
119.849340504
  0
LINE
  5
6AB
100
AcDbEntity
  8
0
100
AcDbLine
 62
253
  6
CONTINUOUS
 10
140.5891397039
 20
119.849340504
 11
140.6248567812
 21
119.8519120706
  0
LINE
  5
6AC
100
AcDbEntity
  8
0
100
AcDbLine
 62
253
  6
CONTINUOUS
 10
140.6248567812
 20
119.8519120706
 11
140.6632996363
 21
119.8522280338
  0
LINE
  5
6AD
100
AcDbEntity
  8
0
100
AcDbLine
 62
253
  6
CONTINUOUS
 10
140.4892921331
 20
120.3498743718
 11
140.4314418885
 21
120.3502363647
  0
LINE
  5
6AE
100
AcDbEntity
  8
0
100
AcDbLine
 62
253
  6
CONTINUOUS
 10
140.6632996363
 20
119.8522280338
 11
140.7027175274
 21
119.8498947338
  0
LINE
  5
6AF
100
AcDbEntity
  8
0
100
AcDbLine
 62
253
  6
CONTINUOUS
 10
140.5493190423
 20
120.3457247702
 11
140.4892921331
 21
120.3498743718
  0
LINE
  5
6B0
100
AcDbEntity
  8
0
100
AcDbLine
 62
253
  6
CONTINUOUS
 10
145.1622507159
 20
118.5153913272
 11
145.1462505083
 21
118.5167075673
  0
LINE
  5
6B1
100
AcDbEntity
  8
0
100
AcDbLine
 62
253
  6
CONTINUOUS
 10
143.0607068436
 20
119.3597003681
 11
143.0446737848
 21
119.3610293364
  0
LINE
  5
6B2
100
AcDbEntity
  8
0
100
AcDbLine
 62
253
  6
CONTINUOUS
 10
140.7027175274
 20
119.8498947338
 11
140.7431090873
 21
119.8448964871
  0
LINE
  5
6B3
100
AcDbEntity
  8
0
100
AcDbLine
 62
253
  6
CONTINUOUS
 10
140.6115420426
 20
120.3377143988
 11
140.5493190423
 21
120.3457247702
  0
LINE
  5
6B4
100
AcDbEntity
  8
0
100
AcDbLine
 62
253
  6
CONTINUOUS
 10
140.67597873
 20
120.3257607666
 11
140.6115420426
 21
120.3377143988
  0
LINE
  5
6B5
100
AcDbEntity
  8
0
100
AcDbLine
 62
253
  6
CONTINUOUS
 10
140.7431090873
 20
119.8448964871
 11
140.7844720091
 21
119.8372112867
  0
LINE
  5
6B6
100
AcDbEntity
  8
0
100
AcDbLine
 62
253
  6
CONTINUOUS
 10
140.7426399957
 20
120.3097756993
 11
140.67597873
 21
120.3257607666
  0
LINE
  5
6B7
100
AcDbEntity
  8
0
100
AcDbLine
 62
253
  6
CONTINUOUS
 10
140.7844720091
 20
119.8372112867
 11
140.8268038276
 21
119.8268088045
  0
LINE
  5
6B8
100
AcDbEntity
  8
0
100
AcDbLine
 62
253
  6
CONTINUOUS
 10
140.811532449
 20
120.2896626849
 11
140.7426399957
 21
120.3097756993
  0
LINE
  5
6B9
100
AcDbEntity
  8
0
100
AcDbLine
 62
253
  6
CONTINUOUS
 10
143.0774429149
 20
119.3547035593
 11
143.0607068436
 21
119.3597003681
  0
LINE
  5
6BA
100
AcDbEntity
  8
0
100
AcDbLine
 62
253
  6
CONTINUOUS
 10
140.8826552821
 20
120.2653240401
 11
140.811532449
 21
120.2896626849
  0
LWPOLYLINE
  5
6BB
100
AcDbEntity
  8
RACCORDO
100
AcDbPolyline
 62
253
  6
CONTINUOUS
 90
22
 70
0
 10
155.9245741411
 20
103.4335696224
 10
155.892652114
 20
103.5351794955
 10
155.8553208603
 20
103.6365709034
 10
155.8125831012
 20
103.7377463274
 10
155.764275783
 20
103.839148098
 10
155.7105694026
 20
103.9403405828
 10
155.6519667987
 20
104.0400091594
 10
155.5883671864
 20
104.1381512925
 10
155.5198798022
 20
104.2347771116
 10
155.4473206989
 20
104.3285894317
 10
155.3706246521
 20
104.4195310668
 10
155.2898651555
 20
104.5076665786
 10
155.2060636171
 20
104.5918790299
 10
155.1191564985
 20
104.6721073205
 10
155.029214227
 20
104.7484186175
 10
154.9374555776
 20
104.8198852504
 10
154.8438668442
 20
104.8864032928
 10
154.7484658996
 20
104.9480802575
 10
154.6525146978
 20
105.0043019761
 10
154.5564331481
 20
105.0548630471
 10
154.4598017229
 20
105.0999690924
 10
154.3626212026
 20
105.1396207136
  0
LWPOLYLINE
  5
6BC
100
AcDbEntity
  8
ASSI
100
AcDbPolyline
 62
253
  6
CONTINUOUS
 90
22
 70
0
 10
155.9245741411
 20
103.4335696224
 10
155.892652114
 20
103.5351794955
 10
155.8553208603
 20
103.6365709034
 10
155.8125831012
 20
103.7377463274
 10
155.764275783
 20
103.839148098
 10
155.7105694026
 20
103.9403405828
 10
155.6519667987
 20
104.0400091594
 10
155.5883671864
 20
104.1381512925
 10
155.5198798022
 20
104.2347771116
 10
155.4473206989
 20
104.3285894317
 10
155.3706246521
 20
104.4195310668
 10
155.2898651555
 20
104.5076665786
 10
155.2060636171
 20
104.5918790299
 10
155.1191564985
 20
104.6721073205
 10
155.029214227
 20
104.7484186175
 10
154.9374555776
 20
104.8198852504
 10
154.8438668442
 20
104.8864032928
 10
154.7484658996
 20
104.9480802575
 10
154.6525146978
 20
105.0043019761
 10
154.5564331481
 20
105.0548630471
 10
154.4598017229
 20
105.0999690924
 10
154.3626212026
 20
105.1396207136
  0
LINE
  5
6BD
100
AcDbEntity
  8
RACCORDO
100
AcDbLine
 62
7
  6
CONTINUOUS
 10
155.7558061317
 20
103.5158249911
 11
155.7558308827
 21
103.5157388398
  0
LINE
  5
6BE
100
AcDbEntity
  8
ASSI
100
AcDbLine
 62
7
  6
CONTINUOUS
 10
155.7558061317
 20
103.5158249911
 11
155.7558308827
 21
103.5157388398
  0
LWPOLYLINE
  5
6BF
100
AcDbEntity
  8
ASSI
100
AcDbPolyline
 62
253
  6
CONTINUOUS
 90
16
 70
0
 10
151.9565983834
 20
103.4854073978
 10
151.9326944513
 20
103.4637326719
 10
151.9090729649
 20
103.4387398929
 10
151.8859914619
 20
103.4107015493
 10
151.8637015925
 20
103.3799233343
 10
151.8424463762
 20
103.346740813
 10
151.822457552
 20
103.3115157641
 10
151.8039530517
 20
103.2746322352
 10
151.787134624
 20
103.2364923558
 10
151.772185635
 20
103.197511953
 10
151.7592690688
 20
103.1581160178
 10
151.7485257506
 20
103.1187340718
 10
151.7400728115
 20
103.0797954839
 10
151.7340024112
 20
103.0417247892
 10
151.7303807333
 20
103.0049370606
 10
151.729247264
 20
102.9698333831
  0
LWPOLYLINE
  5
6C0
100
AcDbEntity
  8
RACCORDO
100
AcDbPolyline
 62
253
  6
CONTINUOUS
 90
16
 70
0
 10
151.9565983834
 20
103.4854073978
 10
151.9326944513
 20
103.4637326719
 10
151.9090729649
 20
103.4387398929
 10
151.8859914619
 20
103.4107015493
 10
151.8637015925
 20
103.3799233343
 10
151.8424463762
 20
103.346740813
 10
151.822457552
 20
103.3115157641
 10
151.8039530517
 20
103.2746322352
 10
151.787134624
 20
103.2364923558
 10
151.772185635
 20
103.197511953
 10
151.7592690688
 20
103.1581160178
 10
151.7485257506
 20
103.1187340718
 10
151.7400728115
 20
103.0797954839
 10
151.7340024112
 20
103.0417247892
 10
151.7303807333
 20
103.0049370606
 10
151.729247264
 20
102.9698333831
  0
LINE
  5
6C1
100
AcDbEntity
  8
0
100
AcDbLine
 62
253
  6
CONTINUOUS
 10
146.8691131993
 20
98.4956069064
 11
146.8788705777
 21
98.5035842609
  0
LINE
  5
6C2
100
AcDbEntity
  8
0
100
AcDbLine
 62
253
  6
CONTINUOUS
 10
145.227045312
 20
96.210596157
 11
145.2372078296
 21
96.2188105331
  0
LINE
  5
6C3
100
AcDbEntity
  8
0
100
AcDbLine
 62
253
  6
CONTINUOUS
 10
146.6475686578
 20
97.077960656
 11
146.6577931364
 21
97.0861776703
  0
LINE
  5
6C4
100
AcDbEntity
  8
0
100
AcDbLine
 62
253
  6
CONTINUOUS
 10
143.9842177816
 20
99.6445569197
 11
143.9966935538
 21
99.6497684817
  0
LINE
  5
6C5
100
AcDbEntity
  8
0
100
AcDbLine
 62
253
  6
CONTINUOUS
 10
146.856636778
 20
98.4903958127
 11
146.8691131993
 21
98.4956069064
  0
LINE
  5
6C6
100
AcDbEntity
  8
0
100
AcDbLine
 62
253
  6
CONTINUOUS
 10
144.7220605412
 20
99.7544527607
 11
144.7100279742
 21
99.7495036145
  0
LINE
  5
6C7
100
AcDbEntity
  8
0
100
AcDbLine
 62
253
  6
CONTINUOUS
 10
142.3423726152
 20
97.3596686035
 11
142.3544344964
 21
97.3646011351
  0
LINE
  5
6C8
100
AcDbEntity
  8
0
100
AcDbLine
 62
253
  6
CONTINUOUS
 10
143.76306933
 20
98.2272374906
 11
143.7751328723
 21
98.2321631487
  0
LINE
  5
6C9
100
AcDbEntity
  8
0
100
AcDbLine
 62
253
  6
CONTINUOUS
 10
140.6024509747
 20
98.2659345035
 11
140.6529925349
 21
98.2863277784
  0
LINE
  5
6CA
100
AcDbEntity
  8
0
100
AcDbLine
 62
253
  6
CONTINUOUS
 10
140.5502289888
 20
98.2492280993
 11
140.6024509747
 21
98.2659345035
  0
LINE
  5
6CB
100
AcDbEntity
  8
0
100
AcDbLine
 62
253
  6
CONTINUOUS
 10
140.2563327254
 20
120.3286855077
 11
140.2007651155
 21
120.3139559966
  0
LINE
  5
6CC
100
AcDbEntity
  8
0
100
AcDbLine
 62
253
  6
CONTINUOUS
 10
140.5140027353
 20
119.8363258708
 11
140.5505653257
 21
119.8440598381
  0
LINE
  5
6CD
100
AcDbEntity
  8
0
100
AcDbLine
 62
253
  6
CONTINUOUS
 10
140.3133195756
 20
120.3396351656
 11
140.2563327254
 21
120.3286855077
  0
LINE
  5
6CE
100
AcDbEntity
  8
0
100
AcDbLine
 62
253
  6
CONTINUOUS
 10
140.3716971977
 20
120.3468181079
 11
140.3133195756
 21
120.3396351656
  0
LINE
  5
6CF
100
AcDbEntity
  8
0
100
AcDbLine
 62
253
  6
CONTINUOUS
 10
140.4314418885
 20
120.3502363647
 11
140.3716971977
 21
120.3468181079
  0
LWPOLYLINE
  5
6D0
100
AcDbEntity
  8
RACCORDO
100
AcDbPolyline
 62
253
  6
CONTINUOUS
 90
11
 70
0
 10
125.2086983373
 20
132.9489595499
 10
125.1719382229
 20
132.9674848047
 10
125.138572017
 20
132.9878225408
 10
125.1089230365
 20
133.0097756864
 10
125.0832785786
 20
133.0331315165
 10
125.061887137
 20
133.0576637143
 10
125.0449559938
 20
133.0831345639
 10
125.0326492109
 20
133.1092972539
 10
125.0250860405
 20
133.135898269
 10
125.0223397694
 20
133.1626798467
 10
125.0223788136
 20
133.1683186666
  0
LWPOLYLINE
  5
6D1
100
AcDbEntity
  8
ASSI
100
AcDbPolyline
 62
253
  6
CONTINUOUS
 90
11
 70
0
 10
125.2086983373
 20
132.9489595499
 10
125.1719382229
 20
132.9674848047
 10
125.138572017
 20
132.9878225408
 10
125.1089230365
 20
133.0097756864
 10
125.0832785786
 20
133.0331315165
 10
125.061887137
 20
133.0576637143
 10
125.0449559938
 20
133.0831345639
 10
125.0326492109
 20
133.1092972539
 10
125.0250860405
 20
133.135898269
 10
125.0223397694
 20
133.1626798467
 10
125.0223788136
 20
133.1683186666
  0
LWPOLYLINE
  5
6D2
100
AcDbEntity
  8
ASSI
100
AcDbPolyline
 62
253
  6
CONTINUOUS
 90
13
 70
0
 10
155.7645133891
 20
102.8060052537
 10
155.7605148481
 20
102.7937046508
 10
155.7546902478
 20
102.76507543
 10
155.7532047294
 20
102.7351433924
 10
155.7561474593
 20
102.7046434408
 10
155.7635448315
 20
102.6738744395
 10
155.7751785565
 20
102.6427586079
 10
155.79095267
 20
102.6120048986
 10
155.8107651337
 20
102.5821706203
 10
155.8343084049
 20
102.5530303764
 10
155.861318246
 20
102.5249319056
 10
155.8915306822
 20
102.4987639208
 10
155.9245741411
 20
102.4750892225
  0
LWPOLYLINE
  5
6D3
100
AcDbEntity
  8
RACCORDO
100
AcDbPolyline
 62
253
  6
CONTINUOUS
 90
13
 70
0
 10
155.7645133891
 20
102.8060052537
 10
155.7605148481
 20
102.7937046508
 10
155.7546902478
 20
102.76507543
 10
155.7532047294
 20
102.7351433924
 10
155.7561474593
 20
102.7046434408
 10
155.7635448315
 20
102.6738744395
 10
155.7751785565
 20
102.6427586079
 10
155.79095267
 20
102.6120048986
 10
155.8107651337
 20
102.5821706203
 10
155.8343084049
 20
102.5530303764
 10
155.861318246
 20
102.5249319056
 10
155.8915306822
 20
102.4987639208
 10
155.9245741411
 20
102.4750892225
  0
LINE
  5
6D4
100
AcDbEntity
  8
ASSI
100
AcDbLine
 62
7
  6
CONTINUOUS
 10
155.7647007157
 20
102.8065170521
 11
155.7645133891
 21
102.8060052537
  0
LINE
  5
6D5
100
AcDbEntity
  8
RACCORDO
100
AcDbLine
 62
7
  6
CONTINUOUS
 10
155.7647007157
 20
102.8065170521
 11
155.7645133891
 21
102.8060052537
  0
LWPOLYLINE
  5
6D6
100
AcDbEntity
  8
ASSI
100
AcDbPolyline
 62
7
  6
CONTINUOUS
 90
9
 70
0
 10
155.7588112089
 20
102.7910017852
 10
155.7681170222
 20
102.815500238
 10
155.7794277607
 20
102.841464289
 10
155.7924803888
 20
102.8664451246
 10
155.8072156812
 20
102.8903785633
 10
155.8236572906
 20
102.9132985724
 10
155.8417639318
 20
102.935104463
 10
155.8613972079
 20
102.9556005897
 10
155.8824419456
 20
102.9746593079
  0
LWPOLYLINE
  5
6D7
100
AcDbEntity
  8
RACCORDO
100
AcDbPolyline
 62
7
  6
CONTINUOUS
 90
9
 70
0
 10
155.7588112089
 20
102.7910017852
 10
155.7681170222
 20
102.815500238
 10
155.7794277607
 20
102.841464289
 10
155.7924803888
 20
102.8664451246
 10
155.8072156812
 20
102.8903785633
 10
155.8236572906
 20
102.9132985724
 10
155.8417639318
 20
102.935104463
 10
155.8613972079
 20
102.9556005897
 10
155.8824419456
 20
102.9746593079
  0
LWPOLYLINE
  5
6D8
100
AcDbEntity
  8
ASSI
100
AcDbPolyline
 62
7
  6
CONTINUOUS
 90
7
 70
0
 10
155.7588112089
 20
102.7910017852
 10
155.7361973057
 20
102.7397303539
 10
155.7099391131
 20
102.691902576
 10
155.6802333222
 20
102.6478840126
 10
155.6470243195
 20
102.6075464151
 10
155.609774842
 20
102.5704604866
 10
155.5955746826
 20
102.5581393434
  0
LWPOLYLINE
  5
6D9
100
AcDbEntity
  8
RACCORDO
100
AcDbPolyline
 62
7
  6
CONTINUOUS
 90
7
 70
0
 10
155.7588112089
 20
102.7910017852
 10
155.7361973057
 20
102.7397303539
 10
155.7099391131
 20
102.691902576
 10
155.6802333222
 20
102.6478840126
 10
155.6470243195
 20
102.6075464151
 10
155.609774842
 20
102.5704604866
 10
155.5955746826
 20
102.5581393434
  0
LWPOLYLINE
  5
6DA
100
AcDbEntity
  8
ASSI
100
AcDbPolyline
 62
253
  6
CONTINUOUS
 90
16
 70
0
 10
156.1382542972
 20
102.9948380896
 10
156.1152836353
 20
102.9723820299
 10
156.0932456924
 20
102.9469325761
 10
156.0719972311
 20
102.9187024314
 10
156.0511684856
 20
102.887691136
 10
156.0310284872
 20
102.8540296482
 10
156.0123618195
 20
102.8183272582
 10
155.9950841256
 20
102.7812017549
 10
155.9791100343
 20
102.7428036609
 10
155.9651331425
 20
102.7034497134
 10
155.953080978
 20
102.6638231507
 10
155.9427993465
 20
102.6243698838
 10
155.9348927344
 20
102.5852137782
 10
155.9294792601
 20
102.5468157021
 10
155.9261183451
 20
102.5099204182
 10
155.9245741411
 20
102.4750892225
  0
LWPOLYLINE
  5
6DB
100
AcDbEntity
  8
RACCORDO
100
AcDbPolyline
 62
253
  6
CONTINUOUS
 90
16
 70
0
 10
156.1382542972
 20
102.9948380896
 10
156.1152836353
 20
102.9723820299
 10
156.0932456924
 20
102.9469325761
 10
156.0719972311
 20
102.9187024314
 10
156.0511684856
 20
102.887691136
 10
156.0310284872
 20
102.8540296482
 10
156.0123618195
 20
102.8183272582
 10
155.9950841256
 20
102.7812017549
 10
155.9791100343
 20
102.7428036609
 10
155.9651331425
 20
102.7034497134
 10
155.953080978
 20
102.6638231507
 10
155.9427993465
 20
102.6243698838
 10
155.9348927344
 20
102.5852137782
 10
155.9294792601
 20
102.5468157021
 10
155.9261183451
 20
102.5099204182
 10
155.9245741411
 20
102.4750892225
  0
LWPOLYLINE
  5
6DC
100
AcDbEntity
  8
ASSI
100
AcDbPolyline
 62
253
  6
CONTINUOUS
 90
16
 70
0
 10
154.5814243141
 20
102.4607525763
 10
154.5584101841
 20
102.4387282863
 10
154.5356688409
 20
102.4133892804
 10
154.5134482632
 20
102.3850118632
 10
154.4919907509
 20
102.3539054706
 10
154.4715302835
 20
102.3204092964
 10
154.452289968
 20
102.284888593
 10
154.434479607
 20
102.2477306893
 10
154.4182934099
 20
102.2093407663
 10
154.403907876
 20
102.1701374397
 10
154.3914798697
 20
102.1305481945
 10
154.3811449098
 20
102.0910047241
 10
154.3730156918
 20
102.0519382227
 10
154.3671808592
 20
102.0137746833
 10
154.3637040369
 20
101.9769302529
 10
154.3626231371
 20
101.9418066946
  0
LWPOLYLINE
  5
6DD
100
AcDbEntity
  8
RACCORDO
100
AcDbPolyline
 62
253
  6
CONTINUOUS
 90
16
 70
0
 10
154.5814243141
 20
102.4607525763
 10
154.5584101841
 20
102.4387282863
 10
154.5356688409
 20
102.4133892804
 10
154.5134482632
 20
102.3850118632
 10
154.4919907509
 20
102.3539054706
 10
154.4715302835
 20
102.3204092964
 10
154.452289968
 20
102.284888593
 10
154.434479607
 20
102.2477306893
 10
154.4182934099
 20
102.2093407663
 10
154.403907876
 20
102.1701374397
 10
154.3914798697
 20
102.1305481945
 10
154.3811449098
 20
102.0910047241
 10
154.3730156918
 20
102.0519382227
 10
154.3671808592
 20
102.0137746833
 10
154.3637040369
 20
101.9769302529
 10
154.3626231371
 20
101.9418066946
  0
LINE
  5
6DE
100
AcDbEntity
  8
ASSI
100
AcDbLine
 62
7
  6
CONTINUOUS
 10
156.1471638842
 20
103.1978228247
 11
155.8824419459
 21
102.9746593081
  0
LINE
  5
6DF
100
AcDbEntity
  8
RACCORDO
100
AcDbLine
 62
7
  6
CONTINUOUS
 10
156.1471638842
 20
103.1978228247
 11
155.8824419459
 21
102.9746593081
  0
LINE
  5
6E0
100
AcDbEntity
  8
ASSI
100
AcDbLine
 62
253
  6
CONTINUOUS
 10
156.3088733543
 20
103.138671408
 11
156.1382543017
 21
102.9948380879
  0
LINE
  5
6E1
100
AcDbEntity
  8
RACCORDO
100
AcDbLine
 62
253
  6
CONTINUOUS
 10
156.3088733543
 20
103.138671408
 11
156.1382543017
 21
102.9948380879
  0
LINE
  5
6E2
100
AcDbEntity
  8
ASSI
100
AcDbLine
 62
7
  6
CONTINUOUS
 10
155.5955173118
 20
102.5580845214
 11
155.5961540405
 21
102.5586182269
  0
LINE
  5
6E3
100
AcDbEntity
  8
RACCORDO
100
AcDbLine
 62
7
  6
CONTINUOUS
 10
155.5955173118
 20
102.5580845214
 11
155.5961540405
 21
102.5586182269
  0
LINE
  5
6E4
100
AcDbEntity
  8
ASSI
100
AcDbLine
 62
253
  6
CONTINUOUS
 10
155.7786686085
 20
103.4564174801
 11
154.5813494497
 21
102.4607750216
  0
LINE
  5
6E5
100
AcDbEntity
  8
RACCORDO
100
AcDbLine
 62
253
  6
CONTINUOUS
 10
155.7786686085
 20
103.4564174801
 11
154.5813494497
 21
102.4607750216
  0
LWPOLYLINE
  5
6E6
100
AcDbEntity
  8
ASSI
100
AcDbPolyline
 62
253
  6
CONTINUOUS
 90
10
 70
0
 10
155.8824419459
 20
102.9746593081
 10
155.8929307503
 20
102.9828546081
 10
155.917179197
 20
102.9976503223
 10
155.9439092774
 20
103.0087878326
 10
155.9728234997
 20
103.0161432676
 10
156.0036002463
 20
103.0196348886
 10
156.0358970557
 20
103.0192239079
 10
156.0693545951
 20
103.0149149725
 10
156.1036006674
 20
103.0067560891
 10
156.1382542972
 20
102.9948380896
  0
LWPOLYLINE
  5
6E7
100
AcDbEntity
  8
RACCORDO
100
AcDbPolyline
 62
253
  6
CONTINUOUS
 90
10
 70
0
 10
155.8824419459
 20
102.9746593081
 10
155.8929307503
 20
102.9828546081
 10
155.917179197
 20
102.9976503223
 10
155.9439092774
 20
103.0087878326
 10
155.9728234997
 20
103.0161432676
 10
156.0036002463
 20
103.0196348886
 10
156.0358970557
 20
103.0192239079
 10
156.0693545951
 20
103.0149149725
 10
156.1036006674
 20
103.0067560891
 10
156.1382542972
 20
102.9948380896
  0
LINE
  5
6E8
100
AcDbEntity
  8
0
100
AcDbLine
 62
253
  6
CONTINUOUS
 10
145.2149866409
 20
96.2056652551
 11
145.227045312
 21
96.210596157
  0
LINE
  5
6E9
100
AcDbEntity
  8
0
100
AcDbLine
 62
253
  6
CONTINUOUS
 10
146.6355339006
 20
97.073048971
 11
146.6475686578
 21
97.077960656
  0
LWPOLYLINE
  5
6EA
100
AcDbEntity
  8
RACCORDO
100
AcDbPolyline
 62
253
  6
CONTINUOUS
 90
16
 70
0
 10
160.8460392497
 20
118.6362085997
 10
160.8893652362
 20
118.6225692943
 10
160.9347738221
 20
118.6112690324
 10
160.9818250091
 20
118.6024173107
 10
161.0300628826
 20
118.5960999004
 10
161.0790200291
 20
118.5923780156
 10
161.1282220657
 20
118.5912877203
 10
161.1771922365
 20
118.592839579
 10
161.2254560323
 20
118.5970185547
 10
161.2725457887
 20
118.6037841542
 10
161.3180052171
 20
118.6130708203
 10
161.3613938267
 20
118.6247885675
 10
161.4022911924
 20
118.6388238537
 10
161.4403010284
 20
118.6550406804
 10
161.4750550286
 20
118.6732819103
 10
161.5062164352
 20
118.6933707903
  0
LWPOLYLINE
  5
6EB
100
AcDbEntity
  8
ASSI
100
AcDbPolyline
 62
253
  6
CONTINUOUS
 90
16
 70
0
 10
160.8460392497
 20
118.6362085997
 10
160.8893652362
 20
118.6225692943
 10
160.9347738221
 20
118.6112690324
 10
160.9818250091
 20
118.6024173107
 10
161.0300628826
 20
118.5960999004
 10
161.0790200291
 20
118.5923780156
 10
161.1282220657
 20
118.5912877203
 10
161.1771922365
 20
118.592839579
 10
161.2254560323
 20
118.5970185547
 10
161.2725457887
 20
118.6037841542
 10
161.3180052171
 20
118.6130708203
 10
161.3613938267
 20
118.6247885675
 10
161.4022911924
 20
118.6388238537
 10
161.4403010284
 20
118.6550406804
 10
161.4750550286
 20
118.6732819103
 10
161.5062164352
 20
118.6933707903
  0
LWPOLYLINE
  5
6EC
100
AcDbEntity
  8
RACCORDO
100
AcDbPolyline
 62
253
  6
CONTINUOUS
 90
4
 70
0
 10
161.4852842074
 20
120.11593709
 10
160.5647670945
 20
120.4335406846
 10
159.6347984091
 20
120.7603911671
 10
158.6953781512
 20
121.0964885376
  0
LWPOLYLINE
  5
6ED
100
AcDbEntity
  8
ASSI
100
AcDbPolyline
 62
253
  6
CONTINUOUS
 90
4
 70
0
 10
161.4852842074
 20
120.11593709
 10
160.5647670945
 20
120.4335406846
 10
159.6347984091
 20
120.7603911671
 10
158.6953781512
 20
121.0964885376
  0
LWPOLYLINE
  5
6EE
100
AcDbEntity
  8
RACCORDO
100
AcDbPolyline
 62
253
  6
CONTINUOUS
 90
10
 70
0
 10
160.8460325906
 20
118.6362026764
 10
159.9255525084
 20
118.9563491505
 10
158.9948249521
 20
119.2853384252
 10
158.0540682982
 20
119.6233245187
 10
157.1100746122
 20
119.9680235272
 10
156.1564435313
 20
120.3219749174
 10
155.1738928053
 20
120.6928159525
 10
154.1564876232
 20
121.0834818642
 10
153.1113308505
 20
121.4919309305
 10
152.0390138206
 20
121.9185967146
  0
LWPOLYLINE
  5
6EF
100
AcDbEntity
  8
ASSI
100
AcDbPolyline
 62
253
  6
CONTINUOUS
 90
10
 70
0
 10
160.8460325906
 20
118.6362026764
 10
159.9255525084
 20
118.9563491505
 10
158.9948249521
 20
119.2853384252
 10
158.0540682982
 20
119.6233245187
 10
157.1100746122
 20
119.9680235272
 10
156.1564435313
 20
120.3219749174
 10
155.1738928053
 20
120.6928159525
 10
154.1564876232
 20
121.0834818642
 10
153.1113308505
 20
121.4919309305
 10
152.0390138206
 20
121.9185967146
  0
LWPOLYLINE
  5
6F0
100
AcDbEntity
  8
RACCORDO
100
AcDbPolyline
 62
253
  6
CONTINUOUS
 90
7
 70
0
 10
158.6953781512
 20
121.0964885376
 10
157.7528102952
 20
121.439043917
 10
156.8007908668
 20
121.7908461842
 10
155.820407943
 20
122.1602619768
 10
154.8053575496
 20
122.5500801738
 10
153.761943661
 20
122.9575118961
 10
152.690166277
 20
123.3825571437
  0
LWPOLYLINE
  5
6F1
100
AcDbEntity
  8
ASSI
100
AcDbPolyline
 62
253
  6
CONTINUOUS
 90
7
 70
0
 10
158.6953781512
 20
121.0964885376
 10
157.7528102952
 20
121.439043917
 10
156.8007908668
 20
121.7908461842
 10
155.820407943
 20
122.1602619768
 10
154.8053575496
 20
122.5500801738
 10
153.761943661
 20
122.9575118961
 10
152.690166277
 20
123.3825571437
  0
LINE
  5
6F2
100
AcDbEntity
  8
RACCORDO
100
AcDbLine
 62
253
  6
CONTINUOUS
 10
152.0390138206
 20
121.9185967146
 11
133.6080928241
 21
129.3208701022
  0
LINE
  5
6F3
100
AcDbEntity
  8
ASSI
100
AcDbLine
 62
253
  6
CONTINUOUS
 10
152.0390138206
 20
121.9185967146
 11
133.6080928241
 21
129.3208701022
  0
LINE
  5
6F4
100
AcDbEntity
  8
RACCORDO
100
AcDbLine
 62
253
  6
CONTINUOUS
 10
152.690166277
 20
123.3825571437
 11
134.259604043
 21
130.7846864442
  0
LINE
  5
6F5
100
AcDbEntity
  8
ASSI
100
AcDbLine
 62
253
  6
CONTINUOUS
 10
152.690166277
 20
123.3825571437
 11
134.259604043
 21
130.7846864442
  0
LWPOLYLINE
  5
6F6
100
AcDbEntity
  8
RACCORDO
100
AcDbPolyline
 62
253
  6
CONTINUOUS
 90
10
 70
0
 10
133.6080928241
 20
129.3208701022
 10
132.6189748559
 20
129.7215557505
 10
131.6517267131
 20
130.1199532775
 10
130.706130745
 20
130.5158349401
 10
129.7921103033
 20
130.90463653
 10
128.8991946693
 20
131.2903981133
 10
127.9970677058
 20
131.686180515
 10
127.0760356723
 20
132.0966146631
 10
126.1464790226
 20
132.5174849701
 10
125.2086983359
 20
132.9489595368
  0
LWPOLYLINE
  5
6F7
100
AcDbEntity
  8
ASSI
100
AcDbPolyline
 62
253
  6
CONTINUOUS
 90
10
 70
0
 10
133.6080928241
 20
129.3208701022
 10
132.6189748559
 20
129.7215557505
 10
131.6517267131
 20
130.1199532775
 10
130.706130745
 20
130.5158349401
 10
129.7921103033
 20
130.90463653
 10
128.8991946693
 20
131.2903981133
 10
127.9970677058
 20
131.686180515
 10
127.0760356723
 20
132.0966146631
 10
126.1464790226
 20
132.5174849701
 10
125.2086983359
 20
132.9489595368
  0
LWPOLYLINE
  5
6F8
100
AcDbEntity
  8
RACCORDO
100
AcDbPolyline
 62
253
  6
CONTINUOUS
 90
3
 70
0
 10
134.259604043
 20
130.7846864442
 10
133.2729471355
 20
131.1851573011
 10
132.3076637439
 20
131.5831369492
  0
LWPOLYLINE
  5
6F9
100
AcDbEntity
  8
ASSI
100
AcDbPolyline
 62
253
  6
CONTINUOUS
 90
3
 70
0
 10
134.259604043
 20
130.7846864442
 10
133.2729471355
 20
131.1851573011
 10
132.3076637439
 20
131.5831369492
  0
LWPOLYLINE
  5
6FA
100
AcDbEntity
  8
RACCORDO
100
AcDbPolyline
 62
253
  6
CONTINUOUS
 90
8
 70
0
 10
132.3076637439
 20
131.5831369492
 10
131.3637538682
 20
131.9786253884
 10
130.4513843651
 20
132.3672249637
 10
129.5603883779
 20
132.7533333301
 10
128.6602653366
 20
133.1501434529
 10
127.7408483845
 20
133.5620529872
 10
126.8123043784
 20
133.9846642779
 10
125.8746333181
 20
134.417977325
  0
LWPOLYLINE
  5
6FB
100
AcDbEntity
  8
ASSI
100
AcDbPolyline
 62
253
  6
CONTINUOUS
 90
8
 70
0
 10
132.3076637439
 20
131.5831369492
 10
131.3637538682
 20
131.9786253884
 10
130.4513843651
 20
132.3672249637
 10
129.5603883779
 20
132.7533333301
 10
128.6602653366
 20
133.1501434529
 10
127.7408483845
 20
133.5620529872
 10
126.8123043784
 20
133.9846642779
 10
125.8746333181
 20
134.417977325
  0
LWPOLYLINE
  5
6FC
100
AcDbEntity
  8
ASSI
100
AcDbPolyline
 62
253
  6
CONTINUOUS
 90
10
 70
0
 10
161.5062164276
 20
84.5249176236
 10
161.4505208956
 20
86.3899647226
 10
161.4015999801
 20
88.2291252417
 10
161.3594536811
 20
90.042399181
 10
161.3244152722
 20
91.8094645503
 10
161.2961514798
 20
93.5506433399
 10
161.2736624833
 20
95.3269015201
 10
161.2566150092
 20
97.1585610813
 10
161.2453423311
 20
99.0253000333
 10
161.239844449
 20
100.927118376
  0
LWPOLYLINE
  5
6FD
100
AcDbEntity
  8
RACCORDO
100
AcDbPolyline
 62
253
  6
CONTINUOUS
 90
10
 70
0
 10
161.5062164276
 20
84.5249176236
 10
161.4505208956
 20
86.3899647226
 10
161.4015999801
 20
88.2291252417
 10
161.3594536811
 20
90.042399181
 10
161.3244152722
 20
91.8094645504
 10
161.2961514798
 20
93.5506433399
 10
161.2736624833
 20
95.3269015201
 10
161.2566150092
 20
97.1585610813
 10
161.2453423311
 20
99.0253000333
 10
161.239844449
 20
100.927118376
  0
LWPOLYLINE
  5
6FE
100
AcDbEntity
  8
ASSI
100
AcDbPolyline
 62
253
  6
CONTINUOUS
 90
10
 70
0
 10
160.8460325827
 20
84.4327320022
 10
160.7914329017
 20
86.2985612882
 10
160.744025535
 20
88.1391554476
 10
160.703501236
 20
89.9542033514
 10
160.6699079605
 20
91.7230508419
 10
160.6424657106
 20
93.4656456703
 10
160.6202092209
 20
95.2430840692
 10
160.6032703903
 20
97.0760897013
 10
160.5922356047
 20
98.9444666972
 10
160.5874070745
 20
100.8484244619
  0
LWPOLYLINE
  5
6FF
100
AcDbEntity
  8
RACCORDO
100
AcDbPolyline
 62
253
  6
CONTINUOUS
 90
10
 70
0
 10
160.8460325827
 20
84.4327320022
 10
160.7914329017
 20
86.2985612882
 10
160.744025535
 20
88.1391554476
 10
160.703501236
 20
89.9542033514
 10
160.6699079605
 20
91.7230508419
 10
160.6424657106
 20
93.4656456703
 10
160.6202092209
 20
95.2430840692
 10
160.6032703903
 20
97.0760897013
 10
160.5922356047
 20
98.9444666972
 10
160.5874070745
 20
100.8484244619
  0
LWPOLYLINE
  5
700
100
AcDbEntity
  8
RACCORDO
100
AcDbPolyline
 62
253
  6
CONTINUOUS
 90
10
 70
0
 10
161.2398444333
 20
101.8782167014
 10
161.243541298
 20
103.5811286565
 10
161.2532165355
 20
105.3153652231
 10
161.2688701458
 20
107.0809264009
 10
161.2898399509
 20
108.8644321722
 10
161.3167881287
 20
110.6792625548
 10
161.3517012128
 20
112.5655576025
 10
161.3952413808
 20
114.5366973333
 10
161.4467464549
 20
116.5793017292
 10
161.5062164353
 20
118.6933707903
  0
LWPOLYLINE
  5
701
100
AcDbEntity
  8
ASSI
100
AcDbPolyline
 62
253
  6
CONTINUOUS
 90
10
 70
0
 10
161.2398444333
 20
101.8782167014
 10
161.243541298
 20
103.5811286565
 10
161.2532165355
 20
105.3153652231
 10
161.2688701458
 20
107.0809264009
 10
161.2898399509
 20
108.8644321722
 10
161.3167881287
 20
110.6792625548
 10
161.3517012128
 20
112.5655576025
 10
161.3952413808
 20
114.5366973333
 10
161.4467464549
 20
116.5793017292
 10
161.5062164353
 20
118.6933707903
  0
LWPOLYLINE
  5
702
100
AcDbEntity
  8
RACCORDO
100
AcDbPolyline
 62
253
  6
CONTINUOUS
 90
4
 70
0
 10
160.5874070728
 20
101.8016943144
 10
160.5913953804
 20
103.5065687523
 10
160.6006977716
 20
105.2425423756
 10
160.6155577677
 20
107.0097793737
  0
LWPOLYLINE
  5
703
100
AcDbEntity
  8
ASSI
100
AcDbPolyline
 62
253
  6
CONTINUOUS
 90
4
 70
0
 10
160.5874070728
 20
101.8016943144
 10
160.5913953804
 20
103.5065687523
 10
160.6006977716
 20
105.2425423756
 10
160.6155577677
 20
107.0097793737
  0
LINE
  5
704
100
AcDbEntity
  8
RACCORDO
100
AcDbLine
 62
253
  6
CONTINUOUS
 10
160.6155577677
 20
107.0097793737
 11
160.6406286309
 21
109.1098569466
  0
LINE
  5
705
100
AcDbEntity
  8
ASSI
100
AcDbLine
 62
253
  6
CONTINUOUS
 10
160.6155577677
 20
107.0097793737
 11
160.6406286309
 21
109.1098569466
  0
LWPOLYLINE
  5
706
100
AcDbEntity
  8
RACCORDO
100
AcDbPolyline
 62
253
  6
CONTINUOUS
 90
6
 70
0
 10
160.6406286309
 20
109.1098569466
 10
160.6625131715
 20
110.6125012528
 10
160.6959733769
 20
112.5007096801
 10
160.7373713169
 20
114.4736293604
 10
160.7871608577
 20
116.5186337709
 10
160.8460325906
 20
118.6362026764
  0
LWPOLYLINE
  5
707
100
AcDbEntity
  8
ASSI
100
AcDbPolyline
 62
253
  6
CONTINUOUS
 90
6
 70
0
 10
160.6406286309
 20
109.1098569466
 10
160.6625131715
 20
110.6125012528
 10
160.6959733769
 20
112.5007096801
 10
160.7373713169
 20
114.4736293604
 10
160.7871608577
 20
116.5186337709
 10
160.8460325906
 20
118.6362026764
  0
LWPOLYLINE
  5
708
100
AcDbEntity
  8
RACCORDO
100
AcDbPolyline
 62
253
  6
CONTINUOUS
 90
22
 70
0
 10
160.8460326381
 20
118.6362027555
 10
160.8496328754
 20
118.7081704261
 10
160.8565403804
 20
118.7823807734
 10
160.866723845
 20
118.8584662079
 10
160.8801433052
 20
118.9360415837
 10
160.8967313002
 20
119.0147299934
 10
160.9163952242
 20
119.0941653796
 10
160.9390530396
 20
119.1739583508
 10
160.9645988151
 20
119.2537075133
 10
160.9928854849
 20
119.3330258496
 10
161.0237890554
 20
119.4115161945
 10
161.0571679016
 20
119.4887880391
 10
161.0928306582
 20
119.5644695151
 10
161.1306205178
 20
119.6381818634
 10
161.1703636021
 20
119.709554146
 10
161.211828215
 20
119.7782403476
 10
161.2548261139
 20
119.8438906373
 10
161.2991635777
 20
119.9061782317
 10
161.3445903575
 20
119.9648128925
 10
161.3908846169
 20
120.0195044049
 10
161.4378534644
 20
120.0699653193
 10
161.4852842074
 20
120.1159370899
  0
LWPOLYLINE
  5
709
100
AcDbEntity
  8
ASSI
100
AcDbPolyline
 62
253
  6
CONTINUOUS
 90
22
 70
0
 10
160.8460326381
 20
118.6362027555
 10
160.8496328754
 20
118.7081704261
 10
160.8565403804
 20
118.7823807734
 10
160.866723845
 20
118.8584662079
 10
160.8801433052
 20
118.9360415837
 10
160.8967313002
 20
119.0147299934
 10
160.9163952242
 20
119.0941653796
 10
160.9390530396
 20
119.1739583508
 10
160.9645988151
 20
119.2537075133
 10
160.9928854849
 20
119.3330258496
 10
161.0237890554
 20
119.4115161945
 10
161.0571679016
 20
119.4887880391
 10
161.0928306582
 20
119.5644695151
 10
161.1306205178
 20
119.6381818634
 10
161.1703636021
 20
119.709554146
 10
161.211828215
 20
119.7782403476
 10
161.2548261139
 20
119.8438906373
 10
161.2991635777
 20
119.9061782317
 10
161.3445903575
 20
119.9648128925
 10
161.3908846169
 20
120.0195044049
 10
161.4378534644
 20
120.0699653193
 10
161.4852842074
 20
120.1159370899
  0
LWPOLYLINE
  5
70A
100
AcDbEntity
  8
RACCORDO
100
AcDbPolyline
 62
253
  6
CONTINUOUS
 90
22
 70
0
 10
161.5062164353
 20
118.6933707903
 10
161.5085203247
 20
118.7354199397
 10
161.5128202452
 20
118.7783724934
 10
161.519116197
 20
118.8222284512
 10
161.5274584454
 20
118.8672306474
 10
161.537796725
 20
118.9131362478
 10
161.5499802395
 20
118.9592167496
 10
161.5640353791
 20
119.0054567081
 10
161.5799357536
 20
119.0518715681
 10
161.5974513964
 20
119.0977791612
 10
161.6166080892
 20
119.1431751615
 10
161.6373800504
 20
119.1880638949
 10
161.6594599684
 20
119.23177617
 10
161.6828673034
 20
119.2742929479
 10
161.7075825952
 20
119.3156332674
 10
161.7332401529
 20
119.3551850542
 10
161.7598669579
 20
119.3929325542
 10
161.7874360286
 20
119.4288915215
 10
161.8155007291
 20
119.4624971447
 10
161.8439121808
 20
119.4935611533
 10
161.8728192622
 20
119.5222718179
 10
161.9022219733
 20
119.5486291383
  0
LWPOLYLINE
  5
70B
100
AcDbEntity
  8
ASSI
100
AcDbPolyline
 62
253
  6
CONTINUOUS
 90
22
 70
0
 10
161.5062164353
 20
118.6933707903
 10
161.5085203247
 20
118.7354199397
 10
161.5128202452
 20
118.7783724934
 10
161.519116197
 20
118.8222284512
 10
161.5274584454
 20
118.8672306474
 10
161.537796725
 20
118.9131362478
 10
161.5499802395
 20
118.9592167496
 10
161.5640353791
 20
119.0054567081
 10
161.5799357536
 20
119.0518715681
 10
161.5974513964
 20
119.0977791612
 10
161.6166080892
 20
119.1431751615
 10
161.6373800504
 20
119.1880638949
 10
161.6594599684
 20
119.23177617
 10
161.6828673034
 20
119.2742929479
 10
161.7075825952
 20
119.3156332674
 10
161.7332401529
 20
119.3551850542
 10
161.7598669579
 20
119.3929325542
 10
161.7874360286
 20
119.4288915215
 10
161.8155007291
 20
119.4624971447
 10
161.8439121808
 20
119.4935611533
 10
161.8728192622
 20
119.5222718179
 10
161.9022219733
 20
119.5486291383
  0
LWPOLYLINE
  5
70C
100
AcDbEntity
  8
RACCORDO
100
AcDbPolyline
 62
253
  6
CONTINUOUS
 90
16
 70
0
 10
161.2398444353
 20
101.8782167029
 10
161.2090598307
 20
101.8567420082
 10
161.1747719959
 20
101.8370849659
 10
161.1373066274
 20
101.8194309979
 10
161.0970221751
 20
101.803947979
 10
161.0542977775
 20
101.7907797171
 10
161.0095280049
 20
101.7800463179
 10
160.963129975
 20
101.7718491101
 10
160.9155466404
 20
101.7662678558
 10
160.8672332364
 20
101.7633551576
 10
160.8186529748
 20
101.763138103
 10
160.7702578079
 20
101.76561802
 10
160.7224904252
 20
101.7707722935
 10
160.6757979889
 20
101.7785549184
 10
160.6306274454
 20
101.7888942269
 10
160.5874070781
 20
101.8016943228
  0
LWPOLYLINE
  5
70D
100
AcDbEntity
  8
ASSI
100
AcDbPolyline
 62
253
  6
CONTINUOUS
 90
16
 70
0
 10
161.2398444353
 20
101.8782167029
 10
161.2090598307
 20
101.8567420082
 10
161.1747719959
 20
101.8370849659
 10
161.1373066274
 20
101.8194309979
 10
161.0970221751
 20
101.803947979
 10
161.0542977775
 20
101.7907797171
 10
161.0095280049
 20
101.7800463179
 10
160.963129975
 20
101.7718491101
 10
160.9155466404
 20
101.7662678558
 10
160.8672332364
 20
101.7633551576
 10
160.8186529748
 20
101.763138103
 10
160.7702578079
 20
101.76561802
 10
160.7224904252
 20
101.7707722935
 10
160.6757979889
 20
101.7785549184
 10
160.6306274454
 20
101.7888942269
 10
160.5874070781
 20
101.8016943228
  0
LWPOLYLINE
  5
70E
100
AcDbEntity
  8
RACCORDO
100
AcDbPolyline
 62
253
  6
CONTINUOUS
 90
10
 70
0
 10
125.8746332917
 20
134.4179773
 10
125.8311724011
 20
134.4322825478
 10
125.7883510764
 20
134.4420922412
 10
125.7466376672
 20
134.4472991052
 10
125.7064883902
 20
134.4478462073
 10
125.6683423772
 20
134.4437275793
 10
125.6326168657
 20
134.4349882957
 10
125.5997025835
 20
134.4217239731
 10
125.5699594938
 20
134.4040797137
 10
125.5467978511
 20
134.3852038757
  0
LWPOLYLINE
  5
70F
100
AcDbEntity
  8
ASSI
100
AcDbPolyline
 62
253
  6
CONTINUOUS
 90
10
 70
0
 10
125.8746332917
 20
134.4179773
 10
125.8311724011
 20
134.4322825478
 10
125.7883510764
 20
134.4420922412
 10
125.7466376672
 20
134.4472991052
 10
125.7064883902
 20
134.4478462073
 10
125.6683423772
 20
134.4437275793
 10
125.6326168657
 20
134.4349882957
 10
125.5997025835
 20
134.4217239731
 10
125.5699594938
 20
134.4040797137
 10
125.5467978511
 20
134.3852038757
  0
LINE
  5
710
100
AcDbEntity
  8
RACCORDO
100
AcDbLine
 62
7
  6
CONTINUOUS
 10
134.3066943722
 20
133.0311413741
 11
137.7091159795
 21
131.6646521508
  0
LINE
  5
711
100
AcDbEntity
  8
ASSI
100
AcDbLine
 62
7
  6
CONTINUOUS
 10
134.3066943722
 20
133.0311413741
 11
137.7091159795
 21
131.6646521508
  0
LINE
  5
712
100
AcDbEntity
  8
RACCORDO
100
AcDbLine
 62
7
  6
CONTINUOUS
 10
152.7376153687
 20
125.6288679865
 11
156.1400369761
 21
124.2623787632
  0
LINE
  5
713
100
AcDbEntity
  8
ASSI
100
AcDbLine
 62
7
  6
CONTINUOUS
 10
152.7376153687
 20
125.6288679865
 11
156.1400369761
 21
124.2623787632
  0
LWPOLYLINE
  5
714
100
AcDbEntity
  8
RACCORDO
100
AcDbPolyline
 62
253
  6
CONTINUOUS
 90
16
 70
0
 10
161.4852842074
 20
120.1159370899
 10
161.5273449273
 20
120.0958950008
 10
161.5691097826
 20
120.071733141
 10
161.610121986
 20
120.0437157717
 10
161.6499329818
 20
120.0121493223
 10
161.6881073524
 20
119.9773790389
 10
161.7242275801
 20
119.9397852088
 10
161.7578986136
 20
119.8997790003
 10
161.7887521885
 20
119.8577979662
 10
161.8164508556
 20
119.8143012582
 10
161.840691671
 20
119.7697646054
 10
161.86120951
 20
119.7246751105
 10
161.8777799665
 20
119.6795259229
 10
161.8902218072
 20
119.6348108449
 10
161.8983989543
 20
119.5910189309
 10
161.9022219733
 20
119.5486291383
  0
LWPOLYLINE
  5
715
100
AcDbEntity
  8
ASSI
100
AcDbPolyline
 62
253
  6
CONTINUOUS
 90
16
 70
0
 10
161.4852842074
 20
120.1159370899
 10
161.5273449273
 20
120.0958950008
 10
161.5691097826
 20
120.071733141
 10
161.610121986
 20
120.0437157717
 10
161.6499329818
 20
120.0121493223
 10
161.6881073524
 20
119.9773790389
 10
161.7242275801
 20
119.9397852088
 10
161.7578986136
 20
119.8997790003
 10
161.7887521885
 20
119.8577979662
 10
161.8164508556
 20
119.8143012582
 10
161.840691671
 20
119.7697646054
 10
161.86120951
 20
119.7246751105
 10
161.8777799665
 20
119.6795259229
 10
161.8902218072
 20
119.6348108449
 10
161.8983989543
 20
119.5910189309
 10
161.9022219733
 20
119.5486291383
  0
LINE
  5
716
100
AcDbEntity
  8
RACCORDO
100
AcDbLine
 62
7
  6
CONTINUOUS
 10
164.4899910049
 20
114.6528911412
 11
164.4899910049
 21
104.3585013729
  0
LINE
  5
717
100
AcDbEntity
  8
ASSI
100
AcDbLine
 62
7
  6
CONTINUOUS
 10
164.4899910049
 20
114.6528911412
 11
164.4899910049
 21
104.3585013729
  0
LINE
  5
718
100
AcDbEntity
  8
ASSI
100
AcDbLine
 62
7
  6
CONTINUOUS
 10
164.4899910049
 20
103.4854973491
 11
164.4899910049
 21
93.1911075808
  0
LINE
  5
719
100
AcDbEntity
  8
RACCORDO
100
AcDbLine
 62
7
  6
CONTINUOUS
 10
164.4899910049
 20
103.4854973491
 11
164.4899910049
 21
93.1911075808
  0
LWPOLYLINE
  5
71A
100
AcDbEntity
  8
ASSI
100
AcDbPolyline
 62
253
  6
CONTINUOUS
 90
16
 70
0
 10
160.7858125097
 20
101.3733823899
 10
160.7649767296
 20
101.3506622777
 10
160.7443888144
 20
101.3246509751
 10
160.7242721795
 20
101.2956307512
 10
160.7048451266
 20
101.2639165273
 10
160.6863184736
 20
101.2298524595
 10
160.6688932679
 20
101.1938082038
 10
160.6527586038
 20
101.156174905
 10
160.6380895712
 20
101.1173609515
 10
160.6250453552
 20
101.0777875442
 10
160.6137675085
 20
101.0378841255
 10
160.6043784157
 20
100.9980837187
 10
160.596979965
 20
100.9588182296
 10
160.5916524423
 20
100.9205137591
 10
160.5884536608
 20
100.8835859791
 10
160.5874183324
 20
100.8484356222
  0
LWPOLYLINE
  5
71B
100
AcDbEntity
  8
RACCORDO
100
AcDbPolyline
 62
253
  6
CONTINUOUS
 90
16
 70
0
 10
160.7858125097
 20
101.3733823899
 10
160.7649767296
 20
101.3506622777
 10
160.7443888144
 20
101.3246509751
 10
160.7242721795
 20
101.2956307512
 10
160.7048451266
 20
101.2639165273
 10
160.6863184736
 20
101.2298524595
 10
160.6688932679
 20
101.1938082038
 10
160.6527586038
 20
101.156174905
 10
160.6380895712
 20
101.1173609515
 10
160.6250453552
 20
101.0777875442
 10
160.6137675085
 20
101.0378841255
 10
160.6043784157
 20
100.9980837187
 10
160.596979965
 20
100.9588182296
 10
160.5916524423
 20
100.9205137591
 10
160.5884536608
 20
100.8835859791
 10
160.5874183324
 20
100.8484356222
  0
LWPOLYLINE
  5
71C
100
AcDbEntity
  8
RACCORDO
100
AcDbPolyline
 62
253
  6
CONTINUOUS
 90
8
 70
0
 10
161.1609653648
 20
101.6967024234
 10
161.1772293319
 20
101.7107614618
 10
161.1957378944
 20
101.7318847334
 10
161.2112076917
 20
101.756105825
 10
161.2234691809
 20
101.7831594159
 10
161.2323880059
 20
101.8127491779
 10
161.237866441
 20
101.8445510475
 10
161.2398444317
 20
101.8782167002
  0
LWPOLYLINE
  5
71D
100
AcDbEntity
  8
ASSI
100
AcDbPolyline
 62
253
  6
CONTINUOUS
 90
8
 70
0
 10
161.1609653648
 20
101.6967024234
 10
161.1772293319
 20
101.7107614618
 10
161.1957378944
 20
101.7318847334
 10
161.2112076917
 20
101.756105825
 10
161.2234691809
 20
101.7831594159
 10
161.2323880059
 20
101.8127491779
 10
161.237866441
 20
101.8445510475
 10
161.2398444317
 20
101.8782167002
  0
LINE
  5
71E
100
AcDbEntity
  8
ASSI
100
AcDbLine
 62
253
  6
CONTINUOUS
 10
160.9162995729
 20
101.3895972006
 11
164.1622927421
 21
103.944706802
  0
LINE
  5
71F
100
AcDbEntity
  8
RACCORDO
100
AcDbLine
 62
253
  6
CONTINUOUS
 10
160.9162995729
 20
101.3895972006
 11
164.1622927421
 21
103.944706802
  0
LINE
  5
720
100
AcDbEntity
  8
ASSI
100
AcDbLine
 62
253
  6
CONTINUOUS
 10
161.239844449
 20
100.927118376
 11
164.4899910049
 21
103.4854973491
  0
LINE
  5
721
100
AcDbEntity
  8
RACCORDO
100
AcDbLine
 62
253
  6
CONTINUOUS
 10
161.239844449
 20
100.927118376
 11
164.4899910049
 21
103.4854973491
  0
LINE
  5
722
100
AcDbEntity
  8
RACCORDO
100
AcDbLine
 62
253
  6
CONTINUOUS
 10
164.4899910049
 20
104.3585013729
 11
161.2398444333
 21
101.8782167014
  0
LINE
  5
723
100
AcDbEntity
  8
ASSI
100
AcDbLine
 62
253
  6
CONTINUOUS
 10
164.4899910049
 20
104.3585013729
 11
161.2398444333
 21
101.8782167014
  0
LINE
  5
724
100
AcDbEntity
  8
RACCORDO
100
AcDbLine
 62
7
  6
CONTINUOUS
 10
164.41090542
 20
104.1768294961
 11
161.1609654978
 21
101.6967025249
  0
LINE
  5
725
100
AcDbEntity
  8
ASSI
100
AcDbLine
 62
7
  6
CONTINUOUS
 10
164.41090542
 20
104.1768294961
 11
161.1609654978
 21
101.6967025249
  0
LINE
  5
726
100
AcDbEntity
  8
RACCORDO
100
AcDbLine
 62
7
  6
CONTINUOUS
 10
127.6664942795
 20
136.1100913385
 11
134.2209006444
 21
133.4776939768
  0
LINE
  5
727
100
AcDbEntity
  8
ASSI
100
AcDbLine
 62
7
  6
CONTINUOUS
 10
127.6664942795
 20
136.1100913385
 11
134.2209006444
 21
133.4776939768
  0
LINE
  5
728
100
AcDbEntity
  8
DRAFT
100
AcDbLine
 62
7
  6
CONTINUOUS
 10
138.4310463822
 20
131.7868045329
 11
152.6518216409
 21
126.0754205892
  0
LINE
  5
729
100
AcDbEntity
  8
ASSI
100
AcDbLine
 62
7
  6
CONTINUOUS
 10
138.4310463822
 20
131.7868045329
 11
152.6518216409
 21
126.0754205892
  0
LINE
  5
72A
100
AcDbEntity
  8
RACCORDO
100
AcDbLine
 62
7
  6
CONTINUOUS
 10
156.8619673787
 20
124.3845311454
 11
163.4163737436
 21
121.7521337836
  0
LINE
  5
72B
100
AcDbEntity
  8
ASSI
100
AcDbLine
 62
7
  6
CONTINUOUS
 10
156.8619673787
 20
124.3845311454
 11
163.4163737436
 21
121.7521337836
  0
LINE
  5
72C
100
AcDbEntity
  8
RACCORDO
100
AcDbLine
 62
7
  6
CONTINUOUS
 10
163.861825355
 20
121.2089853848
 11
164.4899910049
 21
114.6528911412
  0
LINE
  5
72D
100
AcDbEntity
  8
ASSI
100
AcDbLine
 62
7
  6
CONTINUOUS
 10
163.861825355
 20
121.2089853848
 11
164.4899910049
 21
114.6528911412
  0
LINE
  5
72E
100
AcDbEntity
  8
ASSI
100
AcDbLine
 62
7
  6
CONTINUOUS
 10
163.861825355
 20
85.6611755852
 11
164.4899910049
 21
93.1911075808
  0
LINE
  5
72F
100
AcDbEntity
  8
RACCORDO
100
AcDbLine
 62
7
  6
CONTINUOUS
 10
163.861825355
 20
85.6611755852
 11
164.4899910049
 21
93.1911075808
  0
LWPOLYLINE
  5
730
100
AcDbEntity
  8
ASSI
100
AcDbPolyline
 62
253
  6
CONTINUOUS
 90
8
 70
0
 10
161.7878466926
 20
84.0451307875
 10
161.816452383
 20
84.0687922256
 10
161.8406928918
 20
84.0960275054
 10
161.8612103948
 20
84.12717972
 10
161.8777805252
 20
84.1619081394
 10
161.8902220849
 20
84.1998329218
 10
161.8983990289
 20
84.2405392653
 10
161.9022219565
 20
84.2835819541
  0
LWPOLYLINE
  5
731
100
AcDbEntity
  8
RACCORDO
100
AcDbPolyline
 62
253
  6
CONTINUOUS
 90
8
 70
0
 10
161.7878466926
 20
84.0451307875
 10
161.816452383
 20
84.0687922256
 10
161.8406928918
 20
84.0960275054
 10
161.8612103948
 20
84.12717972
 10
161.8777805252
 20
84.1619081394
 10
161.8902220849
 20
84.1998329218
 10
161.8983990289
 20
84.2405392653
 10
161.9022219565
 20
84.2835819541
  0
LINE
  5
732
100
AcDbEntity
  8
ASSI
100
AcDbLine
 62
253
  6
CONTINUOUS
 10
163.861825355
 20
85.6611755852
 11
161.9022219565
 21
84.2835819541
  0
LINE
  5
733
100
AcDbEntity
  8
RACCORDO
100
AcDbLine
 62
253
  6
CONTINUOUS
 10
163.861825355
 20
85.6611755852
 11
161.9022219565
 21
84.2835819541
  0
LINE
  5
734
100
AcDbEntity
  8
ASSI
100
AcDbLine
 62
7
  6
CONTINUOUS
 10
163.731598777
 20
85.4115810061
 11
161.7878466212
 21
84.0451307373
  0
LINE
  5
735
100
AcDbEntity
  8
RACCORDO
100
AcDbLine
 62
7
  6
CONTINUOUS
 10
163.731598777
 20
85.4115810061
 11
161.7878466212
 21
84.0451307373
  0
LWPOLYLINE
  5
736
100
AcDbEntity
  8
ASSI
100
AcDbPolyline
 62
253
  6
CONTINUOUS
 90
22
 70
0
 10
161.9022219565
 20
84.2835819541
 10
161.8728192455
 20
84.2643566005
 10
161.8439121642
 20
84.2482529599
 10
161.8155007126
 20
84.2352710324
 10
161.7874360122
 20
84.2253682834
 10
161.7598669415
 20
84.2185872475
 10
161.7332401366
 20
84.2150555277
 10
161.7075825791
 20
84.2148307075
 10
161.6828672873
 20
84.2178552035
 10
161.6594599524
 20
84.2240838678
 10
161.6373800345
 20
84.233565908
 10
161.6166080734
 20
84.2462521167
 10
161.5974513807
 20
84.2619497236
 10
161.5799357379
 20
84.2807030234
 10
161.5640353634
 20
84.3024677214
 10
161.5499802238
 20
84.3269181639
 10
161.5377967091
 20
84.3541107077
 10
161.5274584294
 20
84.3839889958
 10
161.5191161817
 20
84.4160583039
 10
161.5128202316
 20
84.4501537239
 10
161.5085203136
 20
84.4864401638
 10
161.5062164276
 20
84.5249176236
  0
LWPOLYLINE
  5
737
100
AcDbEntity
  8
RACCORDO
100
AcDbPolyline
 62
253
  6
CONTINUOUS
 90
22
 70
0
 10
161.9022219565
 20
84.2835819541
 10
161.8728192455
 20
84.2643566005
 10
161.8439121642
 20
84.2482529599
 10
161.8155007126
 20
84.2352710324
 10
161.7874360122
 20
84.2253682834
 10
161.7598669415
 20
84.2185872475
 10
161.7332401366
 20
84.2150555277
 10
161.7075825791
 20
84.2148307075
 10
161.6828672873
 20
84.2178552035
 10
161.6594599524
 20
84.2240838678
 10
161.6373800345
 20
84.233565908
 10
161.6166080734
 20
84.2462521167
 10
161.5974513807
 20
84.2619497236
 10
161.5799357379
 20
84.2807030234
 10
161.5640353634
 20
84.3024677214
 10
161.5499802238
 20
84.3269181639
 10
161.5377967091
 20
84.3541107077
 10
161.5274584294
 20
84.3839889958
 10
161.5191161817
 20
84.4160583039
 10
161.5128202316
 20
84.4501537239
 10
161.5085203136
 20
84.4864401638
 10
161.5062164276
 20
84.5249176236
  0
ELLIPSE
  5
738
100
AcDbEntity
  8
ASSI
100
AcDbEllipse
 62
7
  6
CONTINUOUS
 10
163.4521587275
 20
85.8263238296
 30
0.0
 11
-0.269399584
 21
0.4214793685
 31
0.0
 40
0.7373072911
 41
-3.1087872535
 42
-2.3735136114
  0
ELLIPSE
  5
739
100
AcDbEntity
  8
ASSI
100
AcDbEllipse
 62
7
  6
CONTINUOUS
 10
164.1622178675
 20
103.6170635788
 30
0.0
 11
0.2536322564
 21
-0.3093628868
 31
0.0
 40
0.6711200097
 41
0.6859711218
 42
2.2565390145
  0
ELLIPSE
  5
73A
100
AcDbEntity
  8
RACCORDO
100
AcDbEllipse
 62
7
  6
CONTINUOUS
 10
164.1622178675
 20
103.6170635788
 30
0.0
 11
0.2536322564
 21
-0.3093628868
 31
0.0
 40
0.6711200097
 41
0.6859711218
 42
2.2565390145
  0
ELLIPSE
  5
73B
100
AcDbEntity
  8
RACCORDO
100
AcDbEllipse
 62
7
  6
CONTINUOUS
 10
163.4521587275
 20
85.8263238296
 30
0.0
 11
-0.269399584
 21
0.4214793685
 31
0.0
 40
0.7373072911
 41
-3.1087872535
 42
-2.3735136114
  0
ELLIPSE
  5
73C
100
AcDbEntity
  8
RACCORDO
100
AcDbEllipse
 62
7
  6
CONTINUOUS
 10
127.7007813714
 20
135.7315761816
 30
0.0
 11
-0.3521807721
 21
0.3550572353
 31
0.0
 40
0.5975353003
 41
-0.9451119823
 42
-0.0145193823
  0
ELLIPSE
  5
73D
100
AcDbEntity
  8
RACCORDO
100
AcDbEllipse
 62
7
  6
CONTINUOUS
 10
164.1622178675
 20
104.4902173061
 30
0.0
 11
-0.2536549561
 21
0.3094601249
 31
0.0
 40
0.6708195125
 41
-3.1644370557
 42
-2.4557308722
  0
ELLIPSE
  5
73E
100
AcDbEntity
  8
RACCORDO
100
AcDbEllipse
 62
7
  6
CONTINUOUS
 10
137.8813726992
 20
131.8186493325
 30
0.0
 11
0.3000162675
 21
0.0120259097
 31
0.0
 40
0.60834923
 41
-2.2065435809
 42
-1.1593460297
  0
ELLIPSE
  5
73F
100
AcDbEntity
  8
RACCORDO
100
AcDbEllipse
 62
7
  6
CONTINUOUS
 10
156.3122936957
 20
124.4163759449
 30
0.0
 11
0.3000162675
 21
0.0120259097
 31
0.0
 40
0.60834923
 41
-2.2065435809
 42
-1.1593460297
  0
ELLIPSE
  5
740
100
AcDbEntity
  8
RACCORDO
100
AcDbEllipse
 62
7
  6
CONTINUOUS
 10
163.4521587275
 20
121.3730170395
 30
0.0
 11
-0.3524182847
 21
0.3560459941
 31
0.0
 40
0.595462796
 41
-2.5115132766
 42
-0.9420869459
  0
ELLIPSE
  5
741
100
AcDbEntity
  8
RACCORDO
100
AcDbEllipse
 62
7
  6
CONTINUOUS
 10
134.4789510919
 20
133.1851385558
 30
0.0
 11
0.3000162675
 21
0.0120259097
 31
0.0
 40
0.60834923
 41
3.0294441751
 42
4.0766417263
  0
ELLIPSE
  5
742
100
AcDbEntity
  8
RACCORDO
100
AcDbEllipse
 62
7
  6
CONTINUOUS
 10
152.9098720884
 20
125.7828651683
 30
0.0
 11
0.3000162675
 21
0.0120259097
 31
0.0
 40
0.60834923
 41
3.0294441751
 42
4.0766417263
  0
ELLIPSE
  5
743
100
AcDbEntity
  8
ASSI
100
AcDbEllipse
 62
7
  6
CONTINUOUS
 10
127.7007813714
 20
135.7315761816
 30
0.0
 11
-0.3521807721
 21
0.3550572353
 31
0.0
 40
0.5975353003
 41
-0.9451119823
 42
-0.0145193823
  0
ELLIPSE
  5
744
100
AcDbEntity
  8
ASSI
100
AcDbEllipse
 62
7
  6
CONTINUOUS
 10
163.4521587275
 20
121.3730170395
 30
0.0
 11
-0.3524182847
 21
0.3560459941
 31
0.0
 40
0.595462796
 41
-2.5115132766
 42
-0.9420869459
  0
ELLIPSE
  5
745
100
AcDbEntity
  8
ASSI
100
AcDbEllipse
 62
7
  6
CONTINUOUS
 10
164.1622178675
 20
104.4902173061
 30
0.0
 11
-0.2536549561
 21
0.3094601249
 31
0.0
 40
0.6708195125
 41
-3.1644370557
 42
-2.4557308722
  0
ELLIPSE
  5
746
100
AcDbEntity
  8
ASSI
100
AcDbEllipse
 62
7
  6
CONTINUOUS
 10
137.8813726992
 20
131.8186493325
 30
0.0
 11
0.3000162675
 21
0.0120259097
 31
0.0
 40
0.60834923
 41
-2.2065435809
 42
-1.1593460297
  0
ELLIPSE
  5
747
100
AcDbEntity
  8
ASSI
100
AcDbEllipse
 62
7
  6
CONTINUOUS
 10
156.3122936957
 20
124.4163759449
 30
0.0
 11
0.3000162675
 21
0.0120259097
 31
0.0
 40
0.60834923
 41
-2.2065435809
 42
-1.1593460297
  0
ELLIPSE
  5
748
100
AcDbEntity
  8
ASSI
100
AcDbEllipse
 62
7
  6
CONTINUOUS
 10
134.4789510919
 20
133.1851385558
 30
0.0
 11
0.3000162675
 21
0.0120259097
 31
0.0
 40
0.60834923
 41
3.0294441751
 42
4.0766417263
  0
ELLIPSE
  5
749
100
AcDbEntity
  8
ASSI
100
AcDbEllipse
 62
7
  6
CONTINUOUS
 10
152.9098720884
 20
125.7828651683
 30
0.0
 11
0.3000162675
 21
0.0120259097
 31
0.0
 40
0.60834923
 41
3.0294441751
 42
4.0766417263
  0
ENDSEC
  0
SECTION
  2
OBJECTS
  0
DICTIONARY
  5
C
100
AcDbDictionary
280
0
281
1
  3
ACAD_GROUP
350
D
  3
ACAD_MLINESTYLE
350
17
  3
ACAD_LAYOUT
350
1A
  3
ACAD_PLOTSETTINGS
350
19
  3
ACAD_PLOTSTYLENAME
350
E
  0
DICTIONARY
  5
D
102
{ACAD_REACTORS
330
C
102
}
100
AcDbDictionary
280
0
281
1
  0
ACDBDICTIONARYWDFLT
  5
E
102
{ACAD_REACTORS
330
C
102
}
100
AcDbDictionary
281
1
  3
Normal
350
F
100
AcDbDictionaryWithDefault
340
F
  0
DICTIONARY
  5
17
102
{ACAD_REACTORS
330
C
102
}
100
AcDbDictionary
280
0
281
1
  3
Standard
350
18
  0
DICTIONARY
  5
19
102
{ACAD_REACTORS
330
C
102
}
100
AcDbDictionary
281
1
  0
DICTIONARY
  5
1A
102
{ACAD_REACTORS
330
C
102
}
100
AcDbDictionary
281
1
  3
Model
350
74A
  3
Layout1
350
74B
  0
ACDBPLACEHOLDER
  5
F
102
{ACAD_REACTORS
330
E
102
}
  0
MLINESTYLE
  5
18
102
{ACAD_REACTORS
330
17
102
}
100
AcDbMlineStyle
  2
STANDARD
 70
0
  3

 62
256
 51
90.0
 52
90.0
 71
2
 49
0.5
 62
256
  6
BYLAYER
 49
-0.5
 62
256
  6
BYLAYER
  0
LAYOUT
  5
74A
102
{ACAD_REACTORS
330
1A
102
}
100
AcDbPlotSettings
  1

  2
none_device
  4
ISO_A4_(297.00_x_210.00_MM)
  6

 40
0.0
 41
0.0
 42
0.0
 43
0.0
 44
297.0
 45
210.0
 46
0.0
 47
0.0
 48
0.0
 49
0.0
140
0.0
141
0.0
142
1.0
143
1.0
 70
1024
 72
1
 73
0
 74
0
  7

 75
0
147
1.0
148
0.0
149
0.0
100
AcDbLayout
  1
Model
 70
0
 71
0
 10
0.0
 20
0.0
 11
297.0
 21
210.0
 12
0.0
 22
0.0
 32
0.0
 14
0.0
 24
0.0
 34
0.0
 15
0.0
 25
0.0
 35
0.0
146
0.0
 13
0.0
 23
0.0
 33
0.0
 16
1.0
 26
0.0
 36
0.0
 17
0.0
 27
1.0
 37
0.0
 76
0
330
216
345
0
346
0
  0
LAYOUT
  5
74B
102
{ACAD_REACTORS
330
1A
102
}
100
AcDbPlotSettings
  1

  2
none_device
  4
ISO_A4_(297.00_x_210.00_MM)
  6

 40
0.0
 41
0.0
 42
0.0
 43
0.0
 44
297.0
 45
210.0
 46
0.0
 47
0.0
 48
0.0
 49
0.0
140
0.0
141
0.0
142
1.0
143
1.0
 70
0
 72
1
 73
0
 74
0
  7

 75
0
147
1.0
148
0.0
149
0.0
100
AcDbLayout
  1
Layout1
 70
0
 71
1
 10
0.0
 20
0.0
 11
297.0
 21
210.0
 12
0.0
 22
0.0
 32
0.0
 14
0.0
 24
0.0
 34
0.0
 15
0.0
 25
0.0
 35
0.0
146
0.0
 13
0.0
 23
0.0
 33
0.0
 16
1.0
 26
0.0
 36
0.0
 17
0.0
 27
1.0
 37
0.0
 76
0
330
217
345
0
346
0
  0
ENDSEC
  0
EOF
