  0
SECTION
  2
HEADER
  9
$ACADVER
  1
AC1021
  9
$DWGCODEPAGE
  3
ANSI_1252
  9
$EXTMAX
 10
297.0
 20
210.0
 30
0.0
  9
$EXTMIN
 10
0.0
 20
0.0
 30
0.0
  9
$LIMMIN
 10
0.0
 20
0.0
  9
$LIMMAX
 10
297.0
 20
210.0
  9
$VIEWCTR
 10
148.5
 20
105.0
  9
$VIEWSIZE
 40
210.0
  9
$CLAYER
  8
0
  9
$LTSCALE
 40
16.335
  9
$CELTYPE
  6
BYLAYER
  9
$DIMSCALE
 40
1.0
  9
$DIMASZ
 40
3.0
  9
$DIMEXO
 40
0.5
  9
$DIMDLI
 40
11.286
  9
$DIMEXE
 40
1.5
  9
$DIMCEN
 40
2.673
  9
$DIMLFAC
 40
1.0
  9
$DIMBLK
  1
_FILLED
  9
$DIMALT
 70
0
  9
$DIMALTF
 40
25.4
  9
$DIMTXT
 40
3.0
  9
$DIMTOL
 70
1
  9
$DIMLIM
 70
0
  9
$DIMTFAC
 40
1.0
  9
$DIMTP
 40
0.01
  9
$DIMTM
 40
0.01
  9
$DIMGAP
 40
0.625
  9
$DIMDSEP
 70
44
  9
$AUNITS
 70
0
  9
$PDMODE
 70
3
  9
$PDSIZE
 40
3.0
  9
$HANDSEED
  5
3C1
  9
$TILEMODE
 70
1
  9
$MEASUREMENT
 70
1
  9
$INSUNITS
 70
4
  0
ENDSEC
  0
SECTION
  2
CLASSES
  0
CLASS
  1
ACDBDICTIONARYWDFLT
  2
AcDbDictionaryWithDefault
  3
AutoCAD 2000
 90
0
 91
1
280
0
281
0
  0
CLASS
  1
ACDBPLACEHOLDER
  2
AcDbPlaceHolder
  3
AutoCAD 2000
 90
0
 91
1
280
0
281
0
  0
CLASS
  1
LAYOUT
  2
AcDbLayout
  3
AutoCAD 2000
 90
0
 91
0
280
0
281
0
  0
ENDSEC
  0
SECTION
  2
TABLES
  0
TABLE
  2
VPORT
  5
8
100
AcDbSymbolTable
 70
2
  0
VPORT
  5
1F4
100
AcDbSymbolTableRecord
100
AcDbViewportTableRecord
  2
*ACTIVE
 70
0
 10
0.0
 20
0.0
 11
1.0
 21
1.0
 12
148.5
 22
105.0
 13
0.0
 23
0.0
 14
1.0
 24
1.0
 15
0.0
 25
0.0
 16
0.0
 26
0.0
 36
1.0
 17
0.0
 27
0.0
 37
0.0
 40
210.0
 41
1.4142857143
 42
50.0
 43
0.0
 44
0.0
 50
0.0
 51
0.0
 71
0
 72
100
 73
1
 74
1
 75
0
 76
0
 77
0
 78
0
  0
ENDTAB
  0
TABLE
  2
LTYPE
  5
5
100
AcDbSymbolTable
 70
6
  0
LTYPE
  5
14
100
AcDbSymbolTableRecord
100
AcDbLinetypeTableRecord
  2
BYBLOCK
 70
0
  3

 72
65
 73
0
 40
0.0
  0
LTYPE
  5
15
100
AcDbSymbolTableRecord
100
AcDbLinetypeTableRecord
  2
BYLAYER
 70
0
  3

 72
65
 73
0
 40
0.0
  0
LTYPE
  5
16
100
AcDbSymbolTableRecord
100
AcDbLinetypeTableRecord
  2
CONTINUOUS
 70
64
  3
Solid line
 72
65
 73
0
 40
0.0
  0
LTYPE
  5
1F5
100
AcDbSymbolTableRecord
100
AcDbLinetypeTableRecord
  2
CENTER
 70
64
  3
____ _ ____ _ ____ _ ____ _ ____ _ ____ _ ____
 72
65
 73
4
 40
0.6
 49
0.375
 74
0
 49
-0.075
 74
0
 49
0.075
 74
0
 49
-0.075
 74
0
  0
LTYPE
  5
1F6
100
AcDbSymbolTableRecord
100
AcDbLinetypeTableRecord
  2
HIDDEN
 70
64
  3
- - - - - - - - - - - - - - - - - - - -
 72
65
 73
2
 40
0.2
 49
0.1
 74
0
 49
-0.1
 74
0
  0
LTYPE
  5
1F7
100
AcDbSymbolTableRecord
100
AcDbLinetypeTableRecord
  2
PHANTOM
 70
64
  3
_____ _ _ _____ _ _ _____ _ _ _____
 72
65
 73
6
 40
0.8
 49
0.45
 74
0
 49
-0.05
 74
0
 49
0.1
 74
0
 49
-0.05
 74
0
 49
0.1
 74
0
 49
-0.05
 74
0
  0
LTYPE
  5
1F8
100
AcDbSymbolTableRecord
100
AcDbLinetypeTableRecord
  2
DOT
 70
64
  3
. . . . . . . . . . . . . . . . . . . .
 72
65
 73
2
 40
0.2
 49
0.1
 74
0
 49
-0.1
 74
0
  0
LTYPE
  5
1F9
100
AcDbSymbolTableRecord
100
AcDbLinetypeTableRecord
  2
DASHED
 70
64
  3
- - - - - - - - - - - - - - - - - - - -
 72
65
 73
2
 40
0.2
 49
0.1
 74
0
 49
-0.1
 74
0
  0
ENDTAB
  0
TABLE
  2
LAYER
  5
2
100
AcDbSymbolTable
 70
36
  0
LAYER
  5
10
100
AcDbSymbolTableRecord
100
AcDbLayerTableRecord
  2
0
 70
0
 62
7
  6
CONTINUOUS
370
-3
390
F
  0
LAYER
  5
1FA
100
AcDbSymbolTableRecord
100
AcDbLayerTableRecord
  2
DEFAULT_1
 70
0
 62
7
  6
CENTER
370
-3
390
F
  0
LAYER
  5
1FB
100
AcDbSymbolTableRecord
100
AcDbLayerTableRecord
  2
DEFAULT_2
 70
0
 62
7
  6
HIDDEN
370
-3
390
F
  0
LAYER
  5
1FC
100
AcDbSymbolTableRecord
100
AcDbLayerTableRecord
  2
DEFAULT_3
 70
0
 62
7
  6
PHANTOM
370
-3
390
F
  0
LAYER
  5
1FD
100
AcDbSymbolTableRecord
100
AcDbLayerTableRecord
  2
ASSI
 70
0
 62
7
  6
CONTINUOUS
370
-3
390
F
  0
LAYER
  5
1FE
100
AcDbSymbolTableRecord
100
AcDbLayerTableRecord
  2
COORDINATE
 70
0
 62
7
  6
CONTINUOUS
370
-3
390
F
  0
LAYER
  5
1FF
100
AcDbSymbolTableRecord
100
AcDbLayerTableRecord
  2
COPY_PUBLISH
 70
0
 62
7
  6
CONTINUOUS
370
-3
390
F
  0
LAYER
  5
200
100
AcDbSymbolTableRecord
100
AcDbLayerTableRecord
  2
COSMETIC
 70
0
 62
7
  6
CONTINUOUS
370
-3
390
F
  0
LAYER
  5
201
100
AcDbSymbolTableRecord
100
AcDbLayerTableRecord
  2
COSMETICI
 70
0
 62
7
  6
CONTINUOUS
370
-3
390
F
  0
LAYER
  5
202
100
AcDbSymbolTableRecord
100
AcDbLayerTableRecord
  2
CURVE
 70
0
 62
7
  6
CONTINUOUS
370
-3
390
F
  0
LAYER
  5
203
100
AcDbSymbolTableRecord
100
AcDbLayerTableRecord
  2
DRAFT
 70
0
 62
7
  6
CONTINUOUS
370
-3
390
F
  0
LAYER
  5
204
100
AcDbSymbolTableRecord
100
AcDbLayerTableRecord
  2
IMPORT_IGES
 70
0
 62
7
  6
CONTINUOUS
370
-3
390
F
  0
LAYER
  5
205
100
AcDbSymbolTableRecord
100
AcDbLayerTableRecord
  2
INTFCLR_1
 70
0
 62
7
  6
CONTINUOUS
370
-3
390
F
  0
LAYER
  5
206
100
AcDbSymbolTableRecord
100
AcDbLayerTableRecord
  2
NOTE
 70
0
 62
7
  6
CONTINUOUS
370
-3
390
F
  0
LAYER
  5
207
100
AcDbSymbolTableRecord
100
AcDbLayerTableRecord
  2
PIANI
 70
0
 62
7
  6
CONTINUOUS
370
-3
390
F
  0
LAYER
  5
208
100
AcDbSymbolTableRecord
100
AcDbLayerTableRecord
  2
PUNTI
 70
0
 62
7
  6
CONTINUOUS
370
-3
390
F
  0
LAYER
  5
209
100
AcDbSymbolTableRecord
100
AcDbLayerTableRecord
  2
RACCORDO
 70
0
 62
7
  6
CONTINUOUS
370
-3
390
F
  0
LAYER
  5
20A
100
AcDbSymbolTableRecord
100
AcDbLayerTableRecord
  2
SIMBOLI
 70
0
 62
7
  6
CONTINUOUS
370
-3
390
F
  0
LAYER
  5
20B
100
AcDbSymbolTableRecord
100
AcDbLayerTableRecord
  2
SMUSSO
 70
0
 62
7
  6
CONTINUOUS
370
-3
390
F
  0
LAYER
  5
20C
100
AcDbSymbolTableRecord
100
AcDbLayerTableRecord
  2
SNAPLINE
 70
0
 62
7
  6
CONTINUOUS
370
-3
390
F
  0
LAYER
  5
20D
100
AcDbSymbolTableRecord
100
AcDbLayerTableRecord
  2
SUPERFICI
 70
0
 62
7
  6
CONTINUOUS
370
-3
390
F
  0
LAYER
  5
20E
100
AcDbSymbolTableRecord
100
AcDbLayerTableRecord
  2
TRASH
 70
0
 62
7
  6
CONTINUOUS
370
-3
390
F
  0
LAYER
  5
20F
100
AcDbSymbolTableRecord
100
AcDbLayerTableRecord
  2
XSEC_DATUMS
 70
0
 62
7
  6
CONTINUOUS
370
-3
390
F
  0
ENDTAB
  0
TABLE
  2
STYLE
  5
3
100
AcDbSymbolTable
 70
1
  0
STYLE
  5
11
100
AcDbSymbolTableRecord
100
AcDbTextStyleTableRecord
  2
STANDARD
 70
0
 40
0.0
 41
0.8
 50
0.0
 71
0
 42
0.2
  3
txt
  4

  0
STYLE
  5
210
100
AcDbSymbolTableRecord
100
AcDbTextStyleTableRecord
  2
TEXTSTYLE_1
 70
0
 40
0.0
 41
0.8
 50
0.0
 71
0
 42
0.2
  3
gdt
  4

  0
ENDTAB
  0
TABLE
  2
VIEW
  5
6
100
AcDbSymbolTable
 70
0
  0
ENDTAB
  0
TABLE
  2
UCS
  5
7
100
AcDbSymbolTable
 70
0
  0
ENDTAB
  0
TABLE
  2
APPID
  5
9
100
AcDbSymbolTable
 70
1
  0
APPID
  5
211
100
AcDbSymbolTableRecord
100
AcDbRegAppTableRecord
  2
ACAD
 70
0
  0
ENDTAB
  0
TABLE
  2
BLOCK_RECORD
  5
1
100
AcDbSymbolTable
 70
0
  0
BLOCK_RECORD
  5
212
100
AcDbSymbolTableRecord
100
AcDbBlockTableRecord
  2
*Model_Space
  0
BLOCK_RECORD
  5
213
100
AcDbSymbolTableRecord
100
AcDbBlockTableRecord
  2
*Paper_Space
  0
BLOCK_RECORD
  5
214
100
AcDbSymbolTableRecord
100
AcDbBlockTableRecord
  2
_FILLED
  0
ENDTAB
  0
TABLE
  2
DIMSTYLE
  5
A
100
AcDbSymbolTable
 70
1
100
AcDbDimStyleTable
 71
0
  0
DIMSTYLE
105
215
100
AcDbSymbolTableRecord
100
AcDbDimStyleTableRecord
  2
STANDARD
 70
0
  3

  4

 40
1.0
 41
3.0
 42
0.5
 43
0.38
 44
1.5
 45
0.0
 46
0.0
 47
0.01
 48
0.01
140
3.0
141
0.09
142
0.0
143
25.4
144
1.0
145
0.0
146
1.0
147
0.625
 71
1.0
 72
0.0
 73
0
 74
0
 75
0
 76
0
 77
1
 78
8
 79
2
170
0
171
1
172
0
173
0
174
0
175
0
176
0
177
0
178
0
270
2
179
2
271
2
272
2
273
2
274
2
275
0
280
0
281
0
282
0
283
1
284
8
285
0
286
0
287
3
288
0
340
11
278
44
341
214
342
214
343
214
344
214
  0
ENDTAB
  0
ENDSEC
  0
SECTION
  2
BLOCKS
  0
BLOCK
  5
20
100
AcDbEntity
  8
0
100
AcDbBlockBegin
  2
*Model_Space
 70
0
 10
0.0
 20
0.0
 30
0.0
  3
*Model_Space
  1

  0
ENDBLK
  5
21
100
AcDbEntity
  8
0
100
AcDbBlockEnd
  0
BLOCK
  5
1C
100
AcDbEntity
  8
0
100
AcDbBlockBegin
  2
*Paper_Space
 70
0
 10
0.0
 20
0.0
 30
0.0
  3
*Paper_Space
  1

  0
ENDBLK
  5
1D
100
AcDbEntity
  8
0
100
AcDbBlockEnd
  0
BLOCK
  5
216
100
AcDbEntity
  8
0
100
AcDbBlockBegin
  2
_FILLED
 70
64
 10
0.0
 20
0.0
  3
_FILLED
  1

  0
SOLID
  5
217
100
AcDbEntity
  8
0
  6
BYBLOCK
 62
0
100
AcDbTrace
 10
0.0
 20
0.0
 11
-1.0
 21
0.1333333333
 12
-1.0
 22
-0.1333333333
 13
-1.0
 23
-0.1333333333
  0
ENDBLK
  5
218
100
AcDbEntity
  8
0
  6
BYBLOCK
 62
0
100
AcDbBlockEnd
  0
ENDSEC
  0
SECTION
  2
ENTITIES
  0
LINE
  5
219
100
AcDbEntity
  8
RACCORDO
100
AcDbLine
 62
7
  6
CONTINUOUS
 10
-31.7184750086
 20
-7.1980489037
 11
-31.5352680101
 21
-9.0249316334
  0
LWPOLYLINE
  5
21A
100
AcDbEntity
  8
0
100
AcDbPolyline
 62
7
  6
CONTINUOUS
 90
39
 70
0
 10
2.9829535989
 20
-23.4082087954
 10
2.9819569488
 20
-23.3978630716
 10
2.9806556427
 20
-23.3875490201
 10
2.9790634223
 20
-23.3772702291
 10
2.9771940293
 20
-23.3670302868
 10
2.9750612053
 20
-23.3568327815
 10
2.972678692
 20
-23.3466813013
 10
2.9700602311
 20
-23.3365794347
 10
2.9672195642
 20
-23.3265307696
 10
2.964170433
 20
-23.3165388945
 10
2.9609265791
 20
-23.3066073975
 10
2.9575017442
 20
-23.2967398668
 10
2.9525324557
 20
-23.2833227648
 10
2.9472523102
 20
-23.2700378982
 10
2.9416647336
 20
-23.256890551
 10
2.9357731517
 20
-23.2438860072
 10
2.9295809904
 20
-23.2310295511
 10
2.9230916756
 20
-23.2183264665
 10
2.9163086331
 20
-23.2057820376
 10
2.9092352889
 20
-23.1934015485
 10
2.9018750688
 20
-23.1811902832
 10
2.8940986454
 20
-23.1689484408
 10
2.8860365178
 20
-23.1568902386
 10
2.8776962276
 20
-23.145018778
 10
2.8690853165
 20
-23.1333371602
 10
2.8602113262
 20
-23.1218484867
 10
2.8510817984
 20
-23.1105558589
 10
2.8417042748
 20
-23.099462378
 10
2.832086297
 20
-23.0885711455
 10
2.8222354068
 20
-23.0778852628
 10
2.8128826047
 20
-23.0681482814
 10
2.8033348723
 20
-23.0586031613
 10
2.793591707
 20
-23.0492619329
 10
2.7836526061
 20
-23.0401366264
 10
2.7735170668
 20
-23.0312392722
 10
2.7631845864
 20
-23.0225819007
 10
2.7526546622
 20
-23.0141765423
 10
2.7419267915
 20
-23.0060352272
 10
2.7310004716
 20
-22.9981699858
  0
LWPOLYLINE
  5
21B
100
AcDbEntity
  8
0
100
AcDbPolyline
 62
7
  6
CONTINUOUS
 90
39
 70
0
 10
3.0893241587
 20
-23.3467917689
 10
3.0883268754
 20
-23.336446323
 10
3.087024951
 20
-23.3261325678
 10
3.0854321276
 20
-23.31585409
 10
3.0835621475
 20
-23.3056144762
 10
3.0814287528
 20
-23.2954173133
 10
3.0790456856
 20
-23.2852661879
 10
3.076426688
 20
-23.2751646867
 10
3.0735855021
 20
-23.2651163964
 10
3.0705358702
 20
-23.2551249037
 10
3.0672915344
 20
-23.2451937953
 10
3.0638662368
 20
-23.2353266579
 10
3.0588962632
 20
-23.2219098848
 10
3.0536154599
 20
-23.2086253554
 10
3.0480272534
 20
-23.1954783521
 10
3.0421350702
 20
-23.1824741576
 10
3.0359423365
 20
-23.1696180542
 10
3.029452479
 20
-23.1569153245
 10
3.0226689238
 20
-23.1443712508
 10
3.0155950975
 20
-23.1319911157
 10
3.0082344266
 20
-23.1197802016
 10
3.0004574987
 20
-23.1075385918
 10
2.9923948933
 20
-23.09548062
 10
2.9840541515
 20
-23.0836093864
 10
2.9754428146
 20
-23.0719279912
 10
2.966568424
 20
-23.0604395345
 10
2.957438521
 20
-23.0491471166
 10
2.9480606468
 20
-23.0380538376
 10
2.9384423428
 20
-23.0271627976
 10
2.9285911503
 20
-23.0164770969
 10
2.9192380672
 20
-23.0067402527
 10
2.9096900729
 20
-22.9971952593
 10
2.8999466642
 20
-22.9878541462
 10
2.890007338
 20
-22.9787289425
 10
2.879871591
 20
-22.9698316774
 10
2.8695389202
 20
-22.9611743803
 10
2.8590088223
 20
-22.9527690803
 10
2.8482807944
 20
-22.9446278068
 10
2.8373543331
 20
-22.936762589
  0
LINE
  5
21C
100
AcDbEntity
  8
RACCORDO
100
AcDbLine
 62
7
  6
CONTINUOUS
 10
-31.8788215082
 20
-5.353581117
 11
-31.7184750086
 21
-7.1980489037
  0
LINE
  5
21D
100
AcDbEntity
  8
RACCORDO
100
AcDbLine
 62
7
  6
CONTINUOUS
 10
-32.0162765819
 20
-3.4918843093
 11
-31.8788215082
 21
-5.353581117
  0
LINE
  5
21E
100
AcDbEntity
  8
0
100
AcDbLine
 62
7
  6
CONTINUOUS
 10
3.1278815917
 20
-24.0054689936
 11
3.1269473545
 21
-23.9925008823
  0
LINE
  5
21F
100
AcDbEntity
  8
RACCORDO
100
AcDbLine
 62
7
  6
CONTINUOUS
 10
-32.1308137482
 20
-1.6133943149
 11
-32.0162765819
 21
-3.4918843093
  0
LINE
  5
220
100
AcDbEntity
  8
RACCORDO
100
AcDbLine
 62
7
  6
CONTINUOUS
 10
-32.2196994272
 20
0.2174201718
 11
-32.1308137482
 21
-1.6133943149
  0
LWPOLYLINE
  5
221
100
AcDbEntity
  8
RACCORDO
100
AcDbPolyline
 62
7
  6
CONTINUOUS
 90
15
 70
0
 10
-32.131834892
 20
0.0955450926
 10
-32.0769624456
 20
-1.086969373
 10
-32.012834488
 20
-2.2690775374
 10
-31.9393063724
 20
-3.4506833999
 10
-31.8562334519
 20
-4.63169096
 10
-31.7634710798
 20
-5.8120042172
 10
-31.660874609
 20
-6.9915271707
 10
-31.5482993929
 20
-8.1701638201
 10
-31.4302734275
 20
-9.3046831595
 10
-31.3027038217
 20
-10.4381699621
 10
-31.1654421028
 20
-11.5705033343
 10
-31.0183397983
 20
-12.7015623821
 10
-30.8612484355
 20
-13.8312262118
 10
-30.6940195421
 20
-14.9593739295
 10
-30.5165046453
 20
-16.0858846414
  0
LINE
  5
222
100
AcDbEntity
  8
RACCORDO
100
AcDbLine
 62
7
  6
CONTINUOUS
 10
-32.1371229508
 20
0.220350112
 11
-32.131834964
 21
0.0955451341
  0
LWPOLYLINE
  5
223
100
AcDbEntity
  8
RACCORDO
100
AcDbPolyline
 62
7
  6
CONTINUOUS
 90
13
 70
0
 10
-9.2152264659
 20
-12.517520725
 10
-9.3365513255
 20
-9.5946092842
 10
-9.4353843857
 20
-6.6708068959
 10
-9.5119903979
 20
-3.74621328
 10
-9.5676439252
 20
-0.7526803192
 10
-9.6005509682
 20
2.2413588084
 10
-9.6109642384
 20
5.2356861141
 10
-9.5991364471
 20
8.230083609
 10
-9.5653203057
 20
11.2243333041
 10
-9.5097685255
 20
14.2182172107
 10
-9.4327338179
 20
17.2115173398
 10
-9.3344688942
 20
20.2040157027
 10
-9.2152264659
 20
23.1954943103
  0
LWPOLYLINE
  5
224
100
AcDbEntity
  8
RACCORDO
100
AcDbPolyline
 62
7
  6
CONTINUOUS
 90
13
 70
0
 10
-8.5275247042
 20
-12.5083510175
 10
-8.6487214888
 20
-9.5886813768
 10
-8.7474504067
 20
-6.6681216889
 10
-8.8239757873
 20
-3.7467715672
 10
-8.8795706671
 20
-0.7565629094
 10
-8.9124430458
 20
2.234151411
 10
-8.9228453713
 20
5.2251536226
 10
-8.9110300914
 20
8.2162259543
 10
-8.8772496538
 20
11.2071506347
 10
-8.8217565063
 20
14.1977098928
 10
-8.7448030969
 20
17.1876859572
 10
-8.6466418731
 20
20.1768610567
 10
-8.5275252829
 20
23.16501742
  0
LINE
  5
225
100
AcDbEntity
  8
RACCORDO
100
AcDbLine
 62
7
  6
CONTINUOUS
 10
-32.334928913
 20
3.1764548616
 11
-32.2196994272
 21
0.2174200839
  0
LINE
  5
226
100
AcDbEntity
  8
RACCORDO
100
AcDbLine
 62
7
  6
CONTINUOUS
 10
-32.4312615942
 20
6.2090078454
 11
-32.334928913
 21
3.1764548616
  0
LWPOLYLINE
  5
227
100
AcDbEntity
  8
RACCORDO
100
AcDbPolyline
 62
7
  6
CONTINUOUS
 90
43
 70
0
 10
-8.2485350903
 20
-14.0813234542
 10
-8.2490080092
 20
-14.0658506589
 10
-8.2489695263
 20
-14.0503633165
 10
-8.2484392705
 20
-14.0348727688
 10
-8.2474368707
 20
-14.0193903576
 10
-8.2459819557
 20
-14.0039274247
 10
-8.2440941544
 20
-13.9884953121
 10
-8.2417930958
 20
-13.9731053616
 10
-8.2390984086
 20
-13.9577689149
 10
-8.2360297219
 20
-13.942497314
 10
-8.2326066644
 20
-13.9273019006
 10
-8.2288488651
 20
-13.9121940166
 10
-8.223769953
 20
-13.8936670452
 10
-8.2182218896
 20
-13.8752954673
 10
-8.2122163298
 20
-13.8570838165
 10
-8.2057649284
 20
-13.8390366263
 10
-8.1988793404
 20
-13.8211584304
 10
-8.1915712206
 20
-13.8034537622
 10
-8.183852224
 20
-13.7859271555
 10
-8.1757340054
 20
-13.7685831437
 10
-8.1672282198
 20
-13.7514262605
 10
-8.158346522
 20
-13.7344610395
 10
-8.1489670563
 20
-13.7174602874
 10
-8.1392135761
 20
-13.7006714029
 10
-8.1290865627
 20
-13.6841045428
 10
-8.1185864976
 20
-13.6677698644
 10
-8.1077138622
 20
-13.6516775245
 10
-8.0964691378
 20
-13.6358376802
 10
-8.0848528059
 20
-13.6202604885
 10
-8.072865348
 20
-13.6049561065
 10
-8.0605072453
 20
-13.5899346911
 10
-8.0477789793
 20
-13.5752063995
 10
-8.0369088489
 20
-13.5631871886
 10
-8.0257822208
 20
-13.5513967796
 10
-8.0143984207
 20
-13.5398541011
 10
-8.0027567743
 20
-13.5285780818
 10
-7.9908566072
 20
-13.5175876504
 10
-7.9786972452
 20
-13.5069017356
 10
-7.9662780139
 20
-13.4965392661
 10
-7.953598239
 20
-13.4865191707
 10
-7.9406572462
 20
-13.476860378
 10
-7.9274543611
 20
-13.4675818166
 10
-7.9139889095
 20
-13.4587024154
  0
LINE
  5
228
100
AcDbEntity
  8
RACCORDO
100
AcDbLine
 62
7
  6
CONTINUOUS
 10
-32.506189883
 20
9.2561423866
 11
-32.4312615942
 21
6.2090078454
  0
LINE
  5
229
100
AcDbEntity
  8
RACCORDO
100
AcDbLine
 62
7
  6
CONTINUOUS
 10
-32.5597070639
 20
12.3176173053
 11
-32.506189883
 21
9.2561423866
  0
LINE
  5
22A
100
AcDbEntity
  8
RACCORDO
100
AcDbLine
 62
7
  6
CONTINUOUS
 10
-32.5918108635
 20
15.393216968
 11
-32.5597070639
 21
12.3176173053
  0
LINE
  5
22B
100
AcDbEntity
  8
RACCORDO
100
AcDbLine
 62
7
  6
CONTINUOUS
 10
-32.6025
 20
18.4827365828
 11
-32.5918108635
 21
15.393216968
  0
LINE
  5
22C
100
AcDbEntity
  8
0
100
AcDbLine
 62
7
  6
CONTINUOUS
 10
-6.4689690645
 20
-11.3197520633
 11
-6.4689690645
 21
22.5309487783
  0
LINE
  5
22D
100
AcDbEntity
  8
RACCORDO
100
AcDbLine
 62
7
  6
CONTINUOUS
 10
-32.5917736135
 20
21.585962307
 11
-32.6025
 21
18.4827365828
  0
LINE
  5
22E
100
AcDbEntity
  8
RACCORDO
100
AcDbLine
 62
7
  6
CONTINUOUS
 10
-32.5596332837
 20
24.7026787255
 11
-32.5917736135
 21
21.585962307
  0
LINE
  5
22F
100
AcDbEntity
  8
RACCORDO
100
AcDbLine
 62
7
  6
CONTINUOUS
 10
-32.5060810133
 20
27.8326788942
 11
-32.5596332837
 21
24.7026787255
  0
LINE
  5
230
100
AcDbEntity
  8
RACCORDO
100
AcDbLine
 62
7
  6
CONTINUOUS
 10
-32.4311197981
 20
30.9757437579
 11
-32.5060810133
 21
27.8326788942
  0
LINE
  5
231
100
AcDbEntity
  8
RACCORDO
100
AcDbLine
 62
7
  6
CONTINUOUS
 10
-32.3347570761
 20
34.131623068
 11
-32.4311197981
 21
30.9757437579
  0
LINE
  5
232
100
AcDbEntity
  8
RACCORDO
100
AcDbLine
 62
7
  6
CONTINUOUS
 10
-32.2197266794
 20
37.2325891497
 11
-32.3347570761
 21
34.131623068
  0
LINE
  5
233
100
AcDbEntity
  8
RACCORDO
100
AcDbLine
 62
7
  6
CONTINUOUS
 10
-32.1305859033
 20
39.1823314966
 11
-32.2197266786
 21
37.2325891003
  0
LINE
  5
234
100
AcDbEntity
  8
RACCORDO
100
AcDbLine
 62
7
  6
CONTINUOUS
 10
-32.0160348277
 20
41.2068861271
 11
-32.1305859033
 21
39.1823314966
  0
LINE
  5
235
100
AcDbEntity
  8
RACCORDO
100
AcDbLine
 62
7
  6
CONTINUOUS
 10
-31.8785866492
 20
43.243876065
 11
-32.0160348277
 21
41.2068861271
  0
LINE
  5
236
100
AcDbEntity
  8
RACCORDO
100
AcDbLine
 62
7
  6
CONTINUOUS
 10
-31.7182712545
 20
45.292829943
 11
-31.8785866492
 21
43.243876065
  0
LINE
  5
237
100
AcDbEntity
  8
RACCORDO
100
AcDbLine
 62
7
  6
CONTINUOUS
 10
-31.5351230514
 20
47.353349579
 11
-31.7182712545
 21
45.292829943
  0
LINE
  5
238
100
AcDbEntity
  8
RACCORDO
100
AcDbLine
 62
7
  6
CONTINUOUS
 10
-31.3291760581
 20
49.425066839
 11
-31.5351230514
 21
47.353349579
  0
LINE
  5
239
100
AcDbEntity
  8
RACCORDO
100
AcDbLine
 62
7
  6
CONTINUOUS
 10
-31.1004688011
 20
51.5075837938
 11
-31.3291760581
 21
49.425066839
  0
LINE
  5
23A
100
AcDbEntity
  8
RACCORDO
100
AcDbLine
 62
7
  6
CONTINUOUS
 10
-30.8490583611
 20
53.600418048
 11
-31.1004688011
 21
51.5075837938
  0
LINE
  5
23B
100
AcDbEntity
  8
RACCORDO
100
AcDbLine
 62
7
  6
CONTINUOUS
 10
-30.5845952647
 20
55.6321655811
 11
-30.8490583611
 21
53.600418048
  0
LWPOLYLINE
  5
23C
100
AcDbEntity
  8
RACCORDO
100
AcDbPolyline
 62
7
  6
CONTINUOUS
 90
13
 70
0
 10
-30.4960648579
 20
55.5149048981
 10
-30.6995541069
 20
53.9657162744
 10
-30.8915910075
 20
52.4150098209
 10
-31.0720007919
 20
50.8628657507
 10
-31.2406086925
 20
49.3093642772
 10
-31.3972399417
 20
47.7545856136
 10
-31.5417197717
 20
46.1986099733
 10
-31.6702696755
 20
44.6859685112
 10
-31.7869955898
 20
43.1723735006
 10
-31.8917062915
 20
41.6579253319
 10
-31.9842105577
 20
40.1427243956
 10
-32.0643171654
 20
38.626871082
 10
-32.1318348915
 20
37.1104657817
  0
LINE
  5
23D
100
AcDbEntity
  8
RACCORDO
100
AcDbLine
 62
7
  6
CONTINUOUS
 10
-30.5770346782
 20
55.6798396253
 11
-30.5845910831
 21
55.6321626131
  0
LWPOLYLINE
  5
23E
100
AcDbEntity
  8
RACCORDO
100
AcDbPolyline
 62
7
  6
CONTINUOUS
 90
38
 70
0
 10
-29.9153445554
 20
55.8622024662
 10
-29.9136945441
 20
55.8724747245
 10
-29.9117640196
 20
55.88270311
 10
-29.9095624612
 20
55.8928826216
 10
-29.9070993483
 20
55.903008258
 10
-29.9043841604
 20
55.913075018
 10
-29.9014263769
 20
55.9230779006
 10
-29.8982354771
 20
55.9330119046
 10
-29.8948209405
 20
55.9428720287
 10
-29.8911922466
 20
55.9526532718
 10
-29.8871156418
 20
55.9629440453
 10
-29.8828122452
 20
55.9731371395
 10
-29.8782858656
 20
55.9832293808
 10
-29.8735403121
 20
55.9932175959
 10
-29.8685793936
 20
56.0030986113
 10
-29.863406919
 20
56.0128692536
 10
-29.8580266973
 20
56.0225263494
 10
-29.8524425374
 20
56.0320667253
 10
-29.8466582483
 20
56.0414872078
 10
-29.8407642435
 20
56.0506513733
 10
-29.834678909
 20
56.0596897525
 10
-29.8284016335
 20
56.0685961146
 10
-29.8219318059
 20
56.0773642285
 10
-29.8152688151
 20
56.0859878633
 10
-29.8084120497
 20
56.0944607879
 10
-29.8013608987
 20
56.1027767714
 10
-29.7941147509
 20
56.1109295827
 10
-29.786672995
 20
56.118912991
 10
-29.7803941265
 20
56.1253579838
 10
-29.7739817501
 20
56.1316739107
 10
-29.7674355624
 20
56.1378509359
 10
-29.76075526
 20
56.1438792235
 10
-29.7539405396
 20
56.149748938
 10
-29.7469910978
 20
56.1554502434
 10
-29.7399066312
 20
56.1609733042
 10
-29.7326868365
 20
56.1663082845
 10
-29.7253314103
 20
56.1714453485
 10
-29.7178400493
 20
56.1763746606
  0
LINE
  5
23F
100
AcDbEntity
  8
RACCORDO
100
AcDbLine
 62
7
  6
CONTINUOUS
 10
-30.5651486464
 20
55.7359248178
 11
-30.5770346782
 21
55.6798396253
  0
LINE
  5
240
100
AcDbEntity
  8
RACCORDO
100
AcDbLine
 62
7
  6
CONTINUOUS
 10
-30.5503972466
 20
55.7898362485
 11
-30.5651486464
 21
55.7359248178
  0
LINE
  5
241
100
AcDbEntity
  8
RACCORDO
100
AcDbLine
 62
7
  6
CONTINUOUS
 10
32.5289760869
 20
-53.0534579104
 11
32.5706720129
 21
-53.055
  0
LINE
  5
242
100
AcDbEntity
  8
RACCORDO
100
AcDbLine
 62
7
  6
CONTINUOUS
 10
32.4868935708
 20
-53.0488606622
 11
32.5289760869
 21
-53.0534579104
  0
LINE
  5
243
100
AcDbEntity
  8
RACCORDO
100
AcDbLine
 62
7
  6
CONTINUOUS
 10
32.444412854
 20
-53.0412611574
 11
32.4868935708
 21
-53.0488606622
  0
LINE
  5
244
100
AcDbEntity
  8
RACCORDO
100
AcDbLine
 62
7
  6
CONTINUOUS
 10
32.4015601969
 20
-53.0306956537
 11
32.444412854
 21
-53.0412611574
  0
LWPOLYLINE
  5
245
100
AcDbEntity
  8
RACCORDO
100
AcDbPolyline
 62
7
  6
CONTINUOUS
 90
65
 70
0
 10
32.2744391278
 20
-52.9068505366
 10
32.2829206714
 20
-52.9091113669
 10
32.2914546181
 20
-52.9111914558
 10
32.3000370562
 20
-52.9130781939
 10
32.308664074
 20
-52.9147589714
 10
32.3173317597
 20
-52.9162211788
 10
32.3260362015
 20
-52.9174522067
 10
32.3347734878
 20
-52.9184394453
 10
32.3435397069
 20
-52.9191702852
 10
32.3511899016
 20
-52.9195872212
 10
32.3588503693
 20
-52.919787915
 10
32.3665124243
 20
-52.9197599554
 10
32.3741673807
 20
-52.9194909314
 10
32.3818065529
 20
-52.9189684319
 10
32.3894212552
 20
-52.9181800458
 10
32.3970028017
 20
-52.9171133618
 10
32.4045425067
 20
-52.9157559691
 10
32.4112488834
 20
-52.9142846652
 10
32.4179005424
 20
-52.9125661862
 10
32.4244832668
 20
-52.9105963283
 10
32.4309828399
 20
-52.9083708873
 10
32.4373850448
 20
-52.9058856593
 10
32.4436756648
 20
-52.9031364402
 10
32.449840483
 20
-52.900119026
 10
32.4558652827
 20
-52.8968292128
 10
32.4615196242
 20
-52.893403537
 10
32.4670212941
 20
-52.8897314292
 10
32.4723605305
 20
-52.8858227488
 10
32.4775275711
 20
-52.8816873552
 10
32.4825126541
 20
-52.8773351079
 10
32.4873060173
 20
-52.8727758663
 10
32.4918978986
 20
-52.8680194898
 10
32.4962785359
 20
-52.8630758379
 10
32.5006042821
 20
-52.8577440669
 10
32.5046955661
 20
-52.8522316958
 10
32.5085571747
 20
-52.8465501853
 10
32.5121938947
 20
-52.8407109961
 10
32.5156105129
 20
-52.8347255889
 10
32.5188118163
 20
-52.8286054246
 10
32.5218025914
 20
-52.8223619637
 10
32.5245876253
 20
-52.8160066671
 10
32.5271717046
 20
-52.8095509955
 10
32.5295596162
 20
-52.8030064096
 10
32.531756147
 20
-52.7963843701
 10
32.5337660836
 20
-52.7896963377
 10
32.535594213
 20
-52.7829537733
 10
32.5372453219
 20
-52.7761681375
 10
32.5387241971
 20
-52.769350891
 10
32.5400356255
 20
-52.7625134946
 10
32.5411843938
 20
-52.755667409
 10
32.5424356453
 20
-52.7468263192
 10
32.5434364012
 20
-52.7379890832
 10
32.5441995464
 20
-52.7291549313
 10
32.5447379656
 20
-52.7203230934
 10
32.5450645437
 20
-52.7114927997
 10
32.5451921655
 20
-52.7026632804
 10
32.5451337157
 20
-52.6938337654
 10
32.5449020793
 20
-52.685003485
 10
32.5443635408
 20
-52.6735781399
 10
32.5435673987
 20
-52.6621575519
 10
32.542524374
 20
-52.6507490482
 10
32.5412451878
 20
-52.6393599559
 10
32.5397405612
 20
-52.6279976022
 10
32.5380212151
 20
-52.6166693142
 10
32.5360978706
 20
-52.6053824191
  0
LINE
  5
246
100
AcDbEntity
  8
RACCORDO
100
AcDbLine
 62
7
  6
CONTINUOUS
 10
32.358325944
 20
-53.0171759542
 11
32.4015601969
 21
-53.0306956537
  0
LINE
  5
247
100
AcDbEntity
  8
RACCORDO
100
AcDbLine
 62
7
  6
CONTINUOUS
 10
32.3147131243
 20
-53.0007145551
 11
32.358325944
 21
-53.0171759542
  0
LWPOLYLINE
  5
248
100
AcDbEntity
  8
0
100
AcDbPolyline
 62
7
  6
CONTINUOUS
 90
26
 70
0
 10
1.9875015904
 20
-22.2449155204
 10
2.0384919464
 20
-22.2664301468
 10
2.0893198475
 20
-22.2883316365
 10
2.1399548762
 20
-22.3106767629
 10
2.1903666149
 20
-22.3335222993
 10
2.2405246459
 20
-22.3569250193
 10
2.2924154146
 20
-22.3819233296
 10
2.3439691235
 20
-22.407614012
 10
2.3951563489
 20
-22.4340246773
 10
2.4459476669
 20
-22.4611829367
 10
2.4963136539
 20
-22.4891164011
 10
2.5402916753
 20
-22.5143803413
 10
2.5838927845
 20
-22.5402900441
 10
2.6270927439
 20
-22.5668686665
 10
2.6698673159
 20
-22.5941393651
 10
2.712192263
 20
-22.622125297
 10
2.7540433477
 20
-22.6508496188
 10
2.7837814297
 20
-22.6719424022
 10
2.8132323693
 20
-22.6934455282
 10
2.8423657788
 20
-22.7153767872
 10
2.87115127
 20
-22.737753969
 10
2.8995584551
 20
-22.760594864
 10
2.9275569461
 20
-22.783917262
 10
2.9551163551
 20
-22.8077389534
 10
2.9822062942
 20
-22.8320777281
 10
3.0087963753
 20
-22.8569513762
  0
LINE
  5
249
100
AcDbEntity
  8
RACCORDO
100
AcDbLine
 62
7
  6
CONTINUOUS
 10
32.2707483622
 20
-52.9813223802
 11
32.3147131243
 21
-53.0007145551
  0
LINE
  5
24A
100
AcDbEntity
  8
RACCORDO
100
AcDbLine
 62
7
  6
CONTINUOUS
 10
32.2264457501
 20
-52.9589892067
 11
32.2707483622
 21
-52.9813223802
  0
LWPOLYLINE
  5
24B
100
AcDbEntity
  8
RACCORDO
100
AcDbPolyline
 62
7
  6
CONTINUOUS
 90
43
 70
0
 10
32.5360979186
 20
-52.6053823814
 10
32.5440059968
 20
-52.6096916478
 10
32.5520677092
 20
-52.6137205856
 10
32.5602707053
 20
-52.6174751575
 10
32.5686026343
 20
-52.6209613263
 10
32.5770511459
 20
-52.6241850547
 10
32.5856038892
 20
-52.6271523054
 10
32.5942485137
 20
-52.6298690411
 10
32.6029726688
 20
-52.6323412246
 10
32.611764004
 20
-52.6345748185
 10
32.6206101685
 20
-52.6365757856
 10
32.6294988118
 20
-52.6383500887
 10
32.6403937086
 20
-52.6402170315
 10
32.651326617
 20
-52.6417612075
 10
32.662290635
 20
-52.6429888596
 10
32.673278861
 20
-52.6439062304
 10
32.6842843929
 20
-52.6445195626
 10
32.6953003289
 20
-52.6448350991
 10
32.7063197673
 20
-52.6448590826
 10
32.717335806
 20
-52.6445977558
 10
32.7283415433
 20
-52.6440573614
 10
32.7393300773
 20
-52.6432441422
 10
32.7506160157
 20
-52.642127558
 10
32.76186981
 20
-52.6407285464
 10
32.7730848569
 20
-52.6390471391
 10
32.7842545531
 20
-52.6370833679
 10
32.7953722954
 20
-52.6348372648
 10
32.8064314804
 20
-52.6323088614
 10
32.8174255049
 20
-52.6294981897
 10
32.8283477656
 20
-52.6264052814
 10
32.8391916592
 20
-52.6230301684
 10
32.8499505825
 20
-52.6193728824
 10
32.8591747987
 20
-52.6159844207
 10
32.8683213051
 20
-52.6123834924
 10
32.8773807937
 20
-52.6085683783
 10
32.8863439563
 20
-52.6045373594
 10
32.8952014849
 20
-52.6002887168
 10
32.9039440714
 20
-52.5958207315
 10
32.9125624078
 20
-52.5911316844
 10
32.921047186
 20
-52.5862198565
 10
32.9293890979
 20
-52.5810835289
 10
32.9375788355
 20
-52.5757209825
 10
32.9456070906
 20
-52.5701304984
  0
LWPOLYLINE
  5
24C
100
AcDbEntity
  8
0
100
AcDbPolyline
 62
7
  6
CONTINUOUS
 90
43
 70
0
 10
2.6856570687
 20
-23.5642098865
 10
2.6945615729
 20
-23.5690770945
 10
2.7035224068
 20
-23.5738436661
 10
2.7125421465
 20
-23.5784996927
 10
2.7216233679
 20
-23.5830352658
 10
2.7307686474
 20
-23.5874404765
 10
2.7399805608
 20
-23.5917054164
 10
2.7492616843
 20
-23.5958201768
 10
2.7559689798
 20
-23.598675571
 10
2.7627141428
 20
-23.6014413979
 10
2.7694980407
 20
-23.6041106031
 10
2.7763215409
 20
-23.6066761322
 10
2.7831855108
 20
-23.6091309309
 10
2.7900908177
 20
-23.6114679449
 10
2.797038329
 20
-23.6136801198
 10
2.804028912
 20
-23.6157604013
 10
2.811063434
 20
-23.617701735
 10
2.8157629161
 20
-23.6189104312
 10
2.8204817515
 20
-23.6200458527
 10
2.8252195053
 20
-23.6210992053
 10
2.8299757424
 20
-23.6220616948
 10
2.8347500279
 20
-23.6229245272
 10
2.8395419266
 20
-23.6236789081
 10
2.8443510036
 20
-23.6243160436
 10
2.849176824
 20
-23.6248271393
 10
2.8540189525
 20
-23.6252034011
 10
2.8588769544
 20
-23.6254360348
 10
2.8637503945
 20
-23.6255162464
 10
2.8686388378
 20
-23.6254352415
 10
2.8722602818
 20
-23.6252665753
 10
2.8758832825
 20
-23.6250013577
 10
2.8795014385
 20
-23.6246359113
 10
2.883108348
 20
-23.6241665583
 10
2.8866976095
 20
-23.6235896214
 10
2.8902628214
 20
-23.6229014229
 10
2.8937975821
 20
-23.6220982854
 10
2.8972954899
 20
-23.6211765312
 10
2.9007501435
 20
-23.6201324828
 10
2.904155141
 20
-23.6189624628
 10
2.9075040809
 20
-23.6176627935
 10
2.9107905617
 20
-23.6162297974
 10
2.9140081817
 20
-23.6146597969
 10
2.9171505393
 20
-23.6129491146
  0
LWPOLYLINE
  5
24D
100
AcDbEntity
  8
RACCORDO
100
AcDbPolyline
 62
7
  6
CONTINUOUS
 90
43
 70
0
 10
-9.2152264562
 20
-12.5175207189
 10
-9.2019363959
 20
-12.5248727665
 10
-9.188412951
 20
-12.5318035701
 10
-9.174673529
 20
-12.5383230755
 10
-9.1607355376
 20
-12.5444412287
 10
-9.1466163843
 20
-12.5501679754
 10
-9.1323334767
 20
-12.5555132617
 10
-9.1179042225
 20
-12.5604870335
 10
-9.1033460293
 20
-12.5650992366
 10
-9.0886763046
 20
-12.5693598169
 10
-9.0739124561
 20
-12.5732787203
 10
-9.0590718914
 20
-12.5768658927
 10
-9.0408953457
 20
-12.5808033759
 10
-9.0226400445
 20
-12.5842696726
 10
-9.0043153986
 20
-12.5872719516
 10
-8.9859308189
 20
-12.5898173816
 10
-8.9674957161
 20
-12.5919131312
 10
-8.949019501
 20
-12.5935663692
 10
-8.9305115844
 20
-12.5947842642
 10
-8.9119813771
 20
-12.595573985
 10
-8.8934382899
 20
-12.5959427003
 10
-8.8748917336
 20
-12.5958975787
 10
-8.8561126392
 20
-12.5954355263
 10
-8.8373488159
 20
-12.5945527195
 10
-8.8186094393
 20
-12.5932456
 10
-8.7999036851
 20
-12.5915106096
 10
-8.7812407288
 20
-12.58934419
 10
-8.7626297461
 20
-12.5867427829
 10
-8.7440799125
 20
-12.5837028301
 10
-8.7256004038
 20
-12.5802207731
 10
-8.7072003954
 20
-12.5762930539
 10
-8.6888890631
 20
-12.5719161141
 10
-8.673570966
 20
-12.5678851442
 10
-8.6583371776
 20
-12.5635266416
 10
-8.6432028409
 20
-12.5588331164
 10
-8.628183099
 20
-12.5537970792
 10
-8.6132930948
 20
-12.5484110403
 10
-8.5985479715
 20
-12.54266751
 10
-8.5839628719
 20
-12.5365589988
 10
-8.5695529392
 20
-12.5300780169
 10
-8.5553333164
 20
-12.5232170748
 10
-8.5413191466
 20
-12.5159686829
 10
-8.5275255726
 20
-12.5083253514
  0
LWPOLYLINE
  5
24E
100
AcDbEntity
  8
RACCORDO
100
AcDbPolyline
 62
7
  6
CONTINUOUS
 90
31
 70
0
 10
-7.9139950301
 20
-13.4586991154
 10
-7.9313248455
 20
-13.4490889466
 10
-7.9484333417
 20
-13.4390750002
 10
-7.9653194759
 20
-13.4286754483
 10
-7.9819822056
 20
-13.4179084629
 10
-7.9984204879
 20
-13.4067922162
 10
-8.0146332802
 20
-13.3953448801
 10
-8.0306195395
 20
-13.3835846267
 10
-8.0463782234
 20
-13.371529628
 10
-8.0631823247
 20
-13.3581647547
 10
-8.0797214831
 20
-13.3444850921
 10
-8.095998727
 20
-13.3305000316
 10
-8.1120170845
 20
-13.3162189644
 10
-8.1277795838
 20
-13.3016512819
 10
-8.143289253
 20
-13.2868063753
 10
-8.1585491204
 20
-13.2716936359
 10
-8.173562214
 20
-13.2563224549
 10
-8.1912425172
 20
-13.2375613366
 10
-8.2085667044
 20
-13.2184529058
 10
-8.2255291674
 20
-13.1990079858
 10
-8.2421242981
 20
-13.1792374002
 10
-8.2583464882
 20
-13.1591519726
 10
-8.2741901297
 20
-13.1387625264
 10
-8.2896496144
 20
-13.1180798852
 10
-8.304719334
 20
-13.0971148724
 10
-8.3193936804
 20
-13.0758783115
 10
-8.3336670455
 20
-13.0543810262
 10
-8.3475338211
 20
-13.0326338398
 10
-8.360988399
 20
-13.0106475759
 10
-8.3740251709
 20
-12.988433058
 10
-8.3866385289
 20
-12.9660011096
  0
LWPOLYLINE
  5
24F
100
AcDbEntity
  8
0
100
AcDbPolyline
 62
7
  6
CONTINUOUS
 90
40
 70
0
 10
-4.3804974493
 20
-4.0201225485
 10
-4.3852701771
 20
-4.0174737045
 10
-4.3901345602
 20
-4.0149825682
 10
-4.3950836633
 20
-4.0126497709
 10
-4.4001105508
 20
-4.0104759441
 10
-4.4052082874
 20
-4.0084617194
 10
-4.4103699377
 20
-4.0066077282
 10
-4.4155885663
 20
-4.0049146019
 10
-4.4208572379
 20
-4.0033829721
 10
-4.4261690169
 20
-4.0020134702
 10
-4.431516968
 20
-4.0008067276
 10
-4.4372449084
 20
-3.9997004116
 10
-4.4430013009
 20
-3.9987750286
 10
-4.4487814394
 20
-3.9980262039
 10
-4.4545806175
 20
-3.9974495629
 10
-4.460394129
 20
-3.9970407309
 10
-4.4662172676
 20
-3.9967953334
 10
-4.4720453271
 20
-3.9967089957
 10
-4.4778736012
 20
-3.9967773432
 10
-4.4836973836
 20
-3.9969960012
 10
-4.4895119682
 20
-3.9973605952
 10
-4.4959216974
 20
-3.9979280416
 10
-4.5023121859
 20
-3.9986629346
 10
-4.5086811715
 20
-3.9995598549
 10
-4.5150263926
 20
-4.0006133835
 10
-4.521345587
 20
-4.001818101
 10
-4.5276364929
 20
-4.0031685883
 10
-4.5338968483
 20
-4.0046594261
 10
-4.5401243914
 20
-4.0062851954
 10
-4.5463168602
 20
-4.0080404768
 10
-4.5524719927
 20
-4.0099198512
 10
-4.5600279018
 20
-4.0124076279
 10
-4.5675220808
 20
-4.0150700331
 10
-4.5749533358
 20
-4.0179002716
 10
-4.5823204729
 20
-4.0208915481
 10
-4.5896222979
 20
-4.0240370676
 10
-4.5968576169
 20
-4.0273300348
 10
-4.6040252359
 20
-4.0307636546
 10
-4.6111239609
 20
-4.0343311318
 10
-4.618152598
 20
-4.0380256712
  0
LINE
  5
250
100
AcDbEntity
  8
RACCORDO
100
AcDbLine
 62
7
  6
CONTINUOUS
 10
32.1963097491
 20
-52.9422193765
 11
32.2264457501
 21
-52.9589892067
  0
LWPOLYLINE
  5
251
100
AcDbEntity
  8
RACCORDO
100
AcDbPolyline
 62
7
  6
CONTINUOUS
 90
22
 70
0
 10
32.1377668619
 20
-52.8473706949
 10
32.1447528195
 20
-52.8513570458
 10
32.1517791659
 20
-52.8552703291
 10
32.1588474077
 20
-52.8591092709
 10
32.1659590516
 20
-52.8628725971
 10
32.1731156044
 20
-52.8665590338
 10
32.1792146786
 20
-52.8696207206
 10
32.1853466858
 20
-52.8726234186
 10
32.1915112447
 20
-52.8755642404
 10
32.1977079737
 20
-52.878440299
 10
32.2039364914
 20
-52.8812487071
 10
32.2101964162
 20
-52.8839865776
 10
32.2164873667
 20
-52.8866510234
 10
32.2228089613
 20
-52.8892391571
 10
32.2291608186
 20
-52.8917480918
 10
32.235542557
 20
-52.8941749402
 10
32.2419537951
 20
-52.8965168151
 10
32.2483941513
 20
-52.8987708293
 10
32.2548632442
 20
-52.9009340958
 10
32.2613606922
 20
-52.9030037273
 10
32.2678861139
 20
-52.9049768366
 10
32.2744391278
 20
-52.9068505366
  0
LINE
  5
252
100
AcDbEntity
  8
RACCORDO
100
AcDbLine
 62
7
  6
CONTINUOUS
 10
-29.8567451642
 20
-17.1135686158
 11
32.196366319
 21
-52.942257478
  0
LINE
  5
253
100
AcDbEntity
  8
RACCORDO
100
AcDbLine
 62
7
  6
CONTINUOUS
 10
-29.9153445554
 20
-17.0186818707
 11
32.1377668619
 21
-52.8473706949
  0
LINE
  5
254
100
AcDbEntity
  8
0
100
AcDbLine
 62
7
  6
CONTINUOUS
 10
3.5848364461
 20
-25.2468522229
 11
3.1873486797
 21
-25.0173477683
  0
LINE
  5
255
100
AcDbEntity
  8
0
100
AcDbLine
 62
7
  6
CONTINUOUS
 10
2.5545303411
 20
-24.6519663907
 11
2.1429542128
 21
-24.4143274925
  0
LINE
  5
256
100
AcDbEntity
  8
0
100
AcDbLine
 62
7
  6
CONTINUOUS
 10
1.9296831472
 20
-24.2911871882
 11
1.4941463822
 21
-24.0397137186
  0
LINE
  5
257
100
AcDbEntity
  8
0
100
AcDbLine
 62
7
  6
CONTINUOUS
 10
0.7103050803
 20
-23.5871335747
 11
0.3015499846
 21
-23.3511235054
  0
LINE
  5
258
100
AcDbEntity
  8
0
100
AcDbLine
 62
7
  6
CONTINUOUS
 10
0.0881677854
 20
-23.2279192979
 11
-0.316089404
 21
-22.9945062632
  0
LINE
  5
259
100
AcDbEntity
  8
0
100
AcDbLine
 62
7
  6
CONTINUOUS
 10
-0.8923319332
 20
-22.6617910489
 11
-0.9502885263
 21
-22.6283276384
  0
LINE
  5
25A
100
AcDbEntity
  8
0
100
AcDbLine
 62
7
  6
CONTINUOUS
 10
-1.5242442722
 20
-22.2969327841
 11
-1.9195798954
 21
-22.06867095
  0
LINE
  5
25B
100
AcDbEntity
  8
0
100
AcDbLine
 62
7
  6
CONTINUOUS
 10
-2.1349681564
 20
-21.9443084675
 11
-2.5482070162
 21
-21.7057095289
  0
LINE
  5
25C
100
AcDbEntity
  8
0
100
AcDbLine
 62
7
  6
CONTINUOUS
 10
-3.3944808972
 20
-21.2170815963
 11
-3.7586479606
 21
-21.006816098
  0
LINE
  5
25D
100
AcDbEntity
  8
0
100
AcDbLine
 62
7
  6
CONTINUOUS
 10
3.5438610804
 20
-25.1002395746
 11
3.2938230949
 21
-24.9558707754
  0
LINE
  5
25E
100
AcDbEntity
  8
0
100
AcDbLine
 62
7
  6
CONTINUOUS
 10
2.5443516456
 20
-24.5231353537
 11
2.249428628
 21
-24.3528504996
  0
LINE
  5
25F
100
AcDbEntity
  8
0
100
AcDbLine
 62
7
  6
CONTINUOUS
 10
1.8837736288
 20
-24.1417256219
 11
1.6006207974
 21
-23.9782367258
  0
LINE
  5
260
100
AcDbEntity
  8
0
100
AcDbLine
 62
7
  6
CONTINUOUS
 10
0.7337841969
 20
-23.4777361367
 11
0.4080243997
 21
-23.2896465125
  0
LINE
  5
261
100
AcDbEntity
  8
0
100
AcDbLine
 62
7
  6
CONTINUOUS
 10
0.0671337872
 20
-23.0928205452
 11
-0.2096149889
 21
-22.9330292704
  0
LINE
  5
262
100
AcDbEntity
  8
0
100
AcDbLine
 62
7
  6
CONTINUOUS
 10
-1.526331055
 20
-22.1727739161
 11
-1.8131054802
 21
-22.0071939571
  0
LINE
  5
263
100
AcDbEntity
  8
0
100
AcDbLine
 62
7
  6
CONTINUOUS
 10
-2.1450973328
 20
-21.8155060222
 11
-2.4417326011
 21
-21.6442325361
  0
LINE
  5
264
100
AcDbEntity
  8
0
100
AcDbLine
 62
7
  6
CONTINUOUS
 10
-3.3671253862
 20
-21.1099223399
 11
-3.6521735455
 21
-20.9453391052
  0
LINE
  5
265
100
AcDbEntity
  8
0
100
AcDbLine
 62
7
  6
CONTINUOUS
 10
1.35306354
 20
-23.541212602
 11
0.7903005873
 21
-23.2162803262
  0
LINE
  5
266
100
AcDbEntity
  8
0
100
AcDbLine
 62
7
  6
CONTINUOUS
 10
1.459507212
 20
-23.4797533598
 11
0.8967442594
 21
-23.154821084
  0
LINE
  5
267
100
AcDbEntity
  8
0
100
AcDbLine
 62
7
  6
CONTINUOUS
 10
1.245058639
 20
-23.1550900025
 11
0.8494118888
 21
-22.9266485276
  0
LINE
  5
268
100
AcDbEntity
  8
0
100
AcDbLine
 62
7
  6
CONTINUOUS
 10
2.7106403497
 20
-23.9231273442
 11
2.4890715388
 21
-23.7951962897
  0
LINE
  5
269
100
AcDbEntity
  8
0
100
AcDbLine
 62
7
  6
CONTINUOUS
 10
2.8170556489
 20
-23.8616844842
 11
2.5954868379
 21
-23.7337534296
  0
LINE
  5
26A
100
AcDbEntity
  8
0
100
AcDbLine
 62
7
  6
CONTINUOUS
 10
2.6856570665
 20
-23.5642098852
 11
2.4494951472
 21
-23.4278529528
  0
LINE
  5
26B
100
AcDbEntity
  8
0
100
AcDbLine
 62
7
  6
CONTINUOUS
 10
1.1651705316
 20
-21.7453024583
 11
0.7654112484
 21
-21.5144864583
  0
LINE
  5
26C
100
AcDbEntity
  8
0
100
AcDbLine
 62
7
  6
CONTINUOUS
 10
-0.254050761
 20
-20.925861871
 11
-0.6629098014
 21
-20.6897917852
  0
LINE
  5
26D
100
AcDbEntity
  8
0
100
AcDbLine
 62
7
  6
CONTINUOUS
 10
-1.4850232579
 20
-20.215113779
 11
-1.8979205851
 21
-19.9767120371
  0
LINE
  5
26E
100
AcDbEntity
  8
0
100
AcDbLine
 62
7
  6
CONTINUOUS
 10
-2.9152245046
 20
-19.3893335038
 11
-3.3281812287
 21
-19.1508974668
  0
LINE
  5
26F
100
AcDbEntity
  8
0
100
AcDbLine
 62
7
  6
CONTINUOUS
 10
-4.0944381993
 20
-18.7084702954
 11
-4.5433435251
 21
-18.4492779864
  0
LINE
  5
270
100
AcDbEntity
  8
0
100
AcDbLine
 62
7
  6
CONTINUOUS
 10
-2.2920717438
 20
-19.7490066595
 11
-2.7053106036
 21
-19.510407721
  0
LINE
  5
271
100
AcDbEntity
  8
RACCORDO
100
AcDbLine
 62
7
  6
CONTINUOUS
 10
6.8731493981
 20
-22.8123945587
 11
-8.2485350903
 21
-14.0813234542
  0
LINE
  5
272
100
AcDbEntity
  8
RACCORDO
100
AcDbLine
 62
7
  6
CONTINUOUS
 10
7.207722722
 20
-22.1897891919
 11
-7.9139948276
 21
-13.4586989984
  0
LINE
  5
273
100
AcDbEntity
  8
0
100
AcDbLine
 62
7
  6
CONTINUOUS
 10
7.5235978807
 20
-20.0511659155
 11
-5.9040588918
 21
-12.2982051832
  0
LINE
  5
274
100
AcDbEntity
  8
0
100
AcDbLine
 62
7
  6
CONTINUOUS
 10
-5.3170038926
 20
-3.6345176924
 11
-4.618152598
 21
-4.0380256712
  0
LINE
  5
275
100
AcDbEntity
  8
0
100
AcDbLine
 62
7
  6
CONTINUOUS
 10
-5.0793306479
 20
-3.6166227067
 11
-4.3804793534
 21
-4.0201306855
  0
LINE
  5
276
100
AcDbEntity
  8
DRAFT
100
AcDbLine
 62
7
  6
CONTINUOUS
 10
35.3563970427
 20
-16.9770354472
 11
35.7099504333
 21
-17.1811727439
  0
LWPOLYLINE
  5
277
100
AcDbEntity
  8
RACCORDO
100
AcDbPolyline
 62
7
  6
CONTINUOUS
 90
41
 70
0
 10
-32.1318329823
 20
0.0954994211
 10
-32.1354616912
 20
0.0976434078
 10
-32.1390646554
 20
0.0998506954
 10
-32.1426382405
 20
0.1021215531
 10
-32.1461788124
 20
0.1044562503
 10
-32.1496827366
 20
0.1068550562
 10
-32.1531463789
 20
0.1093182403
 10
-32.156566105
 20
0.1118460718
 10
-32.1599382805
 20
0.1144388201
 10
-32.1632592713
 20
0.1170967543
 10
-32.166525443
 20
0.119820144
 10
-32.1697331613
 20
0.1226092583
 10
-32.1728787918
 20
0.1254643666
 10
-32.1759587004
 20
0.1283857381
 10
-32.1789692527
 20
0.1313736423
 10
-32.1819068144
 20
0.1344283484
 10
-32.1847677512
 20
0.1375501257
 10
-32.1875484289
 20
0.1407392436
 10
-32.1902452131
 20
0.1439959714
 10
-32.1928544695
 20
0.1473205783
 10
-32.1953725638
 20
0.1507133337
 10
-32.1974961481
 20
0.1537350752
 10
-32.1995438829
 20
0.1568081397
 10
-32.2015123621
 20
0.1599315652
 10
-32.2033981794
 20
0.1631043898
 10
-32.2051979287
 20
0.1663256517
 10
-32.2069082037
 20
0.169594389
 10
-32.2085255983
 20
0.1729096397
 10
-32.2100467062
 20
0.1762704421
 10
-32.2114681212
 20
0.1796758342
 10
-32.2127864372
 20
0.1831248542
 10
-32.2139355404
 20
0.1864257468
 10
-32.214987558
 20
0.1897610551
 10
-32.2159406791
 20
0.1931270277
 10
-32.2167930922
 20
0.1965199134
 10
-32.2175429864
 20
0.199935961
 10
-32.2181885503
 20
0.2033714192
 10
-32.2187279728
 20
0.2068225367
 10
-32.2191594429
 20
0.2102855623
 10
-32.2194811491
 20
0.2137567448
 10
-32.2196912805
 20
0.2172323329
  0
LWPOLYLINE
  5
278
100
AcDbEntity
  8
RACCORDO
100
AcDbPolyline
 62
7
  6
CONTINUOUS
 90
40
 70
0
 10
7.747261491
 20
-22.3114457688
 10
7.7401743229
 20
-22.3072464514
 10
7.7331634862
 20
-22.3029123049
 10
7.726235527
 20
-22.2984411307
 10
7.7193969917
 20
-22.2938307297
 10
7.7126544265
 20
-22.2890789033
 10
7.7060143777
 20
-22.2841834526
 10
7.6994833914
 20
-22.2791421789
 10
7.6930680139
 20
-22.2739528833
 10
7.6867747914
 20
-22.2686133669
 10
7.6817331243
 20
-22.264141925
 10
7.6767830094
 20
-22.2595682739
 10
7.6719302397
 20
-22.2548917684
 10
7.6671806079
 20
-22.2501117632
 10
7.662539907
 20
-22.2452276131
 10
7.6580139299
 20
-22.2402386726
 10
7.6536084694
 20
-22.2351442966
 10
7.6493293185
 20
-22.2299438397
 10
7.64518227
 20
-22.2246366567
 10
7.6411731168
 20
-22.2192221022
 10
7.6376376692
 20
-22.2141837198
 10
7.6342279663
 20
-22.2090572264
 10
7.630949932
 20
-22.2038445855
 10
7.6278094903
 20
-22.1985477605
 10
7.624812565
 20
-22.1931687148
 10
7.6219650801
 20
-22.1877094121
 10
7.6192729597
 20
-22.1821718156
 10
7.6167421275
 20
-22.176557889
 10
7.6143785077
 20
-22.1708695956
 10
7.612188024
 20
-22.1651088989
 10
7.6102811076
 20
-22.1595979059
 10
7.6085372517
 20
-22.1540301537
 10
7.606959431
 20
-22.1484118587
 10
7.6055506203
 20
-22.1427492374
 10
7.6043137943
 20
-22.1370485061
 10
7.6032519278
 20
-22.1313158812
 10
7.6023679955
 20
-22.125557579
 10
7.6016649722
 20
-22.119779816
 10
7.6011458327
 20
-22.1139888085
 10
7.6008135516
 20
-22.1081907729
  0
LWPOLYLINE
  5
279
100
AcDbEntity
  8
RACCORDO
100
AcDbPolyline
 62
7
  6
CONTINUOUS
 90
30
 70
0
 10
-8.2485350903
 20
-14.0813234542
 10
-8.2758816383
 20
-14.06509611
 10
-8.302852264
 20
-14.0482290668
 10
-8.3294472372
 20
-14.030752772
 10
-8.3556668279
 20
-14.0126976729
 10
-8.3815113057
 20
-13.994094217
 10
-8.4069809407
 20
-13.9749728517
 10
-8.4320760027
 20
-13.9553640243
 10
-8.4567967616
 20
-13.9352981823
 10
-8.4870376855
 20
-13.9097308152
 10
-8.5167087107
 20
-13.8835264269
 10
-8.5458191117
 20
-13.8567085156
 10
-8.5743781629
 20
-13.8293005797
 10
-8.6023951387
 20
-13.8013261175
 10
-8.6298793137
 20
-13.7728086273
 10
-8.6568399622
 20
-13.7437716074
 10
-8.6847156243
 20
-13.7126072713
 10
-8.7120123184
 20
-13.6809086173
 10
-8.7387231373
 20
-13.6486931194
 10
-8.7648411736
 20
-13.6159782517
 10
-8.7903595202
 20
-13.5827814882
 10
-8.8152712697
 20
-13.5491203029
 10
-8.8395695149
 20
-13.5150121699
 10
-8.8632473486
 20
-13.4804745631
 10
-8.8862978635
 20
-13.4455249566
 10
-8.9087141524
 20
-13.4101808244
 10
-8.9304893079
 20
-13.3744596405
 10
-8.951616423
 20
-13.338378879
 10
-8.9720885902
 20
-13.3019560138
 10
-8.9918989024
 20
-13.2652085191
  0
LWPOLYLINE
  5
27A
100
AcDbEntity
  8
RACCORDO
100
AcDbPolyline
 62
7
  6
CONTINUOUS
 90
39
 70
0
 10
-30.4960648147
 20
-16.2114016043
 10
-30.4996061627
 20
-16.2092864258
 10
-30.5031166607
 20
-16.2071084491
 10
-30.5065933903
 20
-16.2048673107
 10
-30.5100334328
 20
-16.2025626472
 10
-30.5134338697
 20
-16.200194095
 10
-30.5167917823
 20
-16.1977612906
 10
-30.520104252
 20
-16.1952638707
 10
-30.5233683603
 20
-16.1927014717
 10
-30.5265811885
 20
-16.1900737301
 10
-30.5297398181
 20
-16.1873802824
 10
-30.5328413305
 20
-16.1846207653
 10
-30.5358828071
 20
-16.1817948151
 10
-30.5388613292
 20
-16.1789020684
 10
-30.5417739784
 20
-16.1759421617
 10
-30.544617836
 20
-16.1729147316
 10
-30.5473899834
 20
-16.1698194145
 10
-30.550087502
 20
-16.166655847
 10
-30.5527074733
 20
-16.1634236657
 10
-30.5552469786
 20
-16.1601225069
 10
-30.5574529772
 20
-16.1571043246
 10
-30.5595899014
 20
-16.1540326388
 10
-30.5616557017
 20
-16.1509096823
 10
-30.5636483286
 20
-16.1477376883
 10
-30.5655657324
 20
-16.1445188895
 10
-30.5674058636
 20
-16.1412555188
 10
-30.5691666726
 20
-16.1379498093
 10
-30.5708461099
 20
-16.1346039937
 10
-30.5724421259
 20
-16.1312203051
 10
-30.573952671
 20
-16.1278009764
 10
-30.5753756958
 20
-16.1243482404
 10
-30.5767091505
 20
-16.1208643301
 10
-30.5779509857
 20
-16.1173514785
 10
-30.5790991518
 20
-16.1138119183
 10
-30.5801515992
 20
-16.1102478826
 10
-30.5811062784
 20
-16.1066616043
 10
-30.5819611398
 20
-16.1030553163
 10
-30.5827141338
 20
-16.0994312516
 10
-30.5833632109
 20
-16.0957916429
  0
LINE
  5
27B
100
AcDbEntity
  8
RACCORDO
100
AcDbLine
 62
7
  6
CONTINUOUS
 10
-29.8964961674
 20
-17.0895100283
 11
-29.8566403955
 21
-17.1136240933
  0
LINE
  5
27C
100
AcDbEntity
  8
RACCORDO
100
AcDbLine
 62
7
  6
CONTINUOUS
 10
-29.9436978135
 20
-17.0580815675
 11
-29.8964961674
 21
-17.0895100283
  0
LINE
  5
27D
100
AcDbEntity
  8
RACCORDO
100
AcDbLine
 62
7
  6
CONTINUOUS
 10
7.0094278915
 20
14.7474396082
 11
7.0373061643
 21
14.728407918
  0
LWPOLYLINE
  5
27E
100
AcDbEntity
  8
0
100
AcDbPolyline
 62
7
  6
CONTINUOUS
 90
21
 70
0
 10
2.7310004716
 20
-22.9981699858
 10
2.7152643843
 20
-22.9872695698
 10
2.6994085916
 20
-22.976534621
 10
2.6834329854
 20
-22.9659722577
 10
2.6673374577
 20
-22.9555895981
 10
2.6511219005
 20
-22.9453937603
 10
2.6347862057
 20
-22.9353918627
 10
2.6183302653
 20
-22.9255910234
 10
2.6017539714
 20
-22.9159983607
 10
2.5850572158
 20
-22.9066209927
 10
2.5682398907
 20
-22.8974660378
 10
2.5523382557
 20
-22.8890778299
 10
2.5363311901
 20
-22.8808962496
 10
2.5202196734
 20
-22.8729255296
 10
2.5040046856
 20
-22.8651699029
 10
2.4876872064
 20
-22.857633602
 10
2.4719251893
 20
-22.8506042402
 10
2.4560792694
 20
-22.8437644236
 10
2.4401591351
 20
-22.8370975828
 10
2.4241744746
 20
-22.8305871481
 10
2.4081349762
 20
-22.8242165499
  0
LWPOLYLINE
  5
27F
100
AcDbEntity
  8
0
100
AcDbPolyline
 62
7
  6
CONTINUOUS
 90
21
 70
0
 10
2.8373543331
 20
-22.936762589
 10
2.8216181607
 20
-22.9258622566
 10
2.8057622935
 20
-22.915127379
 10
2.7897866232
 20
-22.9045650742
 10
2.7736910413
 20
-22.8941824601
 10
2.7574754395
 20
-22.8839866545
 10
2.7411397093
 20
-22.8739847752
 10
2.7246837422
 20
-22.8641839402
 10
2.70810743
 20
-22.8545912674
 10
2.6914106641
 20
-22.8452138745
 10
2.6745933362
 20
-22.8360588794
 10
2.6586917719
 20
-22.8276706546
 10
2.6426847837
 20
-22.819489042
 10
2.6265733509
 20
-22.8115182747
 10
2.6103584528
 20
-22.8037625854
 10
2.5940410688
 20
-22.7962262071
 10
2.5782792014
 20
-22.7891967805
 10
2.5624334358
 20
-22.7823568855
 10
2.5465134595
 20
-22.775689954
 10
2.5305289599
 20
-22.7691794179
 10
2.5144896244
 20
-22.762808709
  0
LINE
  5
280
100
AcDbEntity
  8
RACCORDO
100
AcDbLine
 62
7
  6
CONTINUOUS
 10
-29.990361728
 20
-17.0239132031
 11
-29.9436978135
 21
-17.0580815675
  0
LINE
  5
281
100
AcDbEntity
  8
RACCORDO
100
AcDbLine
 62
7
  6
CONTINUOUS
 10
7.0373061643
 20
14.728407918
 11
7.0662385731
 21
14.7068762429
  0
LINE
  5
282
100
AcDbEntity
  8
RACCORDO
100
AcDbLine
 62
7
  6
CONTINUOUS
 10
-30.0364085073
 20
-16.9871219729
 11
-29.990361728
 21
-17.0239132031
  0
LINE
  5
283
100
AcDbEntity
  8
RACCORDO
100
AcDbLine
 62
7
  6
CONTINUOUS
 10
7.0662385731
 20
14.7068762429
 11
7.0959246092
 21
14.6829098398
  0
LINE
  5
284
100
AcDbEntity
  8
RACCORDO
100
AcDbLine
 62
7
  6
CONTINUOUS
 10
-30.0816857644
 20
-16.9478653762
 11
-30.0364085073
 21
-16.9871219729
  0
LINE
  5
285
100
AcDbEntity
  8
RACCORDO
100
AcDbLine
 62
7
  6
CONTINUOUS
 10
7.0959246092
 20
14.6829098398
 11
7.1261773626
 21
14.6565193995
  0
LINE
  5
286
100
AcDbEntity
  8
RACCORDO
100
AcDbLine
 62
7
  6
CONTINUOUS
 10
-30.1260849271
 20
-16.906268408
 11
-30.0816857644
 21
-16.9478653762
  0
LINE
  5
287
100
AcDbEntity
  8
RACCORDO
100
AcDbLine
 62
7
  6
CONTINUOUS
 10
7.1261773626
 20
14.6565193995
 11
7.1568255727
 21
14.6277205858
  0
LWPOLYLINE
  5
288
100
AcDbEntity
  8
0
100
AcDbPolyline
 62
7
  6
CONTINUOUS
 90
49
 70
0
 10
3.0087963753
 20
-22.8569513762
 10
3.0249807037
 20
-22.8728670522
 10
3.0407114779
 20
-22.8892381478
 10
3.0560165975
 20
-22.9060223866
 10
3.0709239624
 20
-22.9231774918
 10
3.0854614724
 20
-22.9406611871
 10
3.0996570273
 20
-22.9584311956
 10
3.113538527
 20
-22.976445241
 10
3.1329209257
 20
-23.0026177793
 10
3.1517025465
 20
-23.0292013111
 10
3.169870101
 20
-23.0561926075
 10
3.1874103008
 20
-23.0835884397
 10
3.2043098574
 20
-23.1113855788
 10
3.2203314632
 20
-23.1391817025
 10
3.2356975623
 20
-23.1673518155
 10
3.2503883989
 20
-23.1958828966
 10
3.2643842173
 20
-23.2247619246
 10
3.2776652615
 20
-23.2539758783
 10
3.2876836389
 20
-23.2773948056
 10
3.2972201245
 20
-23.301012956
 10
3.3062556117
 20
-23.3248267389
 10
3.3147709938
 20
-23.3488325639
 10
3.3227471642
 20
-23.3730268406
 10
3.3301650162
 20
-23.3974059785
 10
3.337723174
 20
-23.4246689355
 10
3.3445610358
 20
-23.4521238241
 10
3.3506694597
 20
-23.4797393238
 10
3.3560393037
 20
-23.507484114
 10
3.3606614258
 20
-23.535326874
 10
3.3636653204
 20
-23.5565465504
 10
3.3662020947
 20
-23.5778205362
 10
3.3682421227
 20
-23.5991646153
 10
3.3697557785
 20
-23.6205945713
 10
3.3707134362
 20
-23.6421261881
 10
3.3710854697
 20
-23.6637752494
 10
3.3709739208
 20
-23.6792819632
 10
3.3705217362
 20
-23.6948273293
 10
3.369700905
 20
-23.7103823034
 10
3.3684834163
 20
-23.7259178408
 10
3.3668412592
 20
-23.7414048971
 10
3.3647464229
 20
-23.7568144279
 10
3.3621708964
 20
-23.7721173886
 10
3.3590866689
 20
-23.7872847348
 10
3.3554657294
 20
-23.802287422
 10
3.351280067
 20
-23.8170964058
 10
3.346501671
 20
-23.8316826416
 10
3.3411025303
 20
-23.846017085
 10
3.3350546341
 20
-23.8600706915
 10
3.3283299715
 20
-23.8738144166
  0
LINE
  5
289
100
AcDbEntity
  8
RACCORDO
100
AcDbLine
 62
7
  6
CONTINUOUS
 10
-30.1694700528
 20
-16.8624788775
 11
-30.1260849271
 21
-16.906268408
  0
LINE
  5
28A
100
AcDbEntity
  8
RACCORDO
100
AcDbLine
 62
7
  6
CONTINUOUS
 10
7.1568255727
 20
14.6277205858
 11
7.187612741
 21
14.5966334518
  0
LINE
  5
28B
100
AcDbEntity
  8
RACCORDO
100
AcDbLine
 62
7
  6
CONTINUOUS
 10
7.187612741
 20
14.5966334518
 11
7.2183588073
 21
14.5633336423
  0
LINE
  5
28C
100
AcDbEntity
  8
RACCORDO
100
AcDbLine
 62
7
  6
CONTINUOUS
 10
-30.2115897997
 20
-16.8167562991
 11
-30.1694700528
 21
-16.8624788775
  0
LWPOLYLINE
  5
28D
100
AcDbEntity
  8
0
100
AcDbPolyline
 62
7
  6
CONTINUOUS
 90
28
 70
0
 10
3.1482896217
 20
-24.0268119366
 10
3.1587794997
 20
-24.03871443
 10
3.1689574051
 20
-24.0508913276
 10
3.1788325759
 20
-24.0633250873
 10
3.1884142502
 20
-24.0759981669
 10
3.197711666
 20
-24.0888930243
 10
3.2067340613
 20
-24.1019921174
 10
3.2154906743
 20
-24.1152779039
 10
3.2239907428
 20
-24.1287328417
 10
3.232243505
 20
-24.1423393887
 10
3.2402581988
 20
-24.1560800028
 10
3.2497578979
 20
-24.173060279
 10
3.25892891
 20
-24.1902050761
 10
3.2677854267
 20
-24.2075043145
 10
3.2763416398
 20
-24.2249479143
 10
3.2846117412
 20
-24.2425257958
 10
3.2926099226
 20
-24.2602278793
 10
3.3003503758
 20
-24.278044085
 10
3.3078472925
 20
-24.2959643333
 10
3.3170615374
 20
-24.3189218248
 10
3.3259162638
 20
-24.3420209714
 10
3.3344238946
 20
-24.3652510432
 10
3.3425968527
 20
-24.3886013104
 10
3.350447561
 20
-24.4120610434
 10
3.3579884422
 20
-24.4356195123
 10
3.3663588177
 20
-24.4629945097
 10
3.3744261415
 20
-24.4904589294
 10
3.3822857923
 20
-24.5179842921
  0
LINE
  5
28E
100
AcDbEntity
  8
RACCORDO
100
AcDbLine
 62
7
  6
CONTINUOUS
 10
7.2183588073
 20
14.5633336423
 11
7.2488973902
 21
14.5279008796
  0
LINE
  5
28F
100
AcDbEntity
  8
RACCORDO
100
AcDbLine
 62
7
  6
CONTINUOUS
 10
-30.2523047848
 20
-16.769274397
 11
-30.2115897997
 21
-16.8167562991
  0
LINE
  5
290
100
AcDbEntity
  8
RACCORDO
100
AcDbLine
 62
7
  6
CONTINUOUS
 10
7.2488973902
 20
14.5279008796
 11
7.2790159752
 21
14.4904917927
  0
LINE
  5
291
100
AcDbEntity
  8
RACCORDO
100
AcDbLine
 62
7
  6
CONTINUOUS
 10
-30.2914802666
 20
-16.7201927589
 11
-30.2523047848
 21
-16.769274397
  0
LINE
  5
292
100
AcDbEntity
  8
RACCORDO
100
AcDbLine
 62
7
  6
CONTINUOUS
 10
7.2790159752
 20
14.4904917927
 11
7.3085480629
 21
14.4512353737
  0
LINE
  5
293
100
AcDbEntity
  8
RACCORDO
100
AcDbLine
 62
7
  6
CONTINUOUS
 10
-30.3288812955
 20
-16.6698022328
 11
-30.2914802666
 21
-16.7201927589
  0
LINE
  5
294
100
AcDbEntity
  8
RACCORDO
100
AcDbLine
 62
7
  6
CONTINUOUS
 10
7.3085480629
 20
14.4512353737
 11
7.3373442633
 21
14.4102584327
  0
LWPOLYLINE
  5
295
100
AcDbEntity
  8
RACCORDO
100
AcDbPolyline
 62
7
  6
CONTINUOUS
 90
48
 70
0
 10
7.5798052435
 20
-22.8334980251
 10
7.5710264444
 20
-22.8208408962
 10
7.5625718214
 20
-22.8079452693
 10
7.554451038
 20
-22.7948208079
 10
7.5466737577
 20
-22.7814771757
 10
7.5392496439
 20
-22.7679240363
 10
7.53218836
 20
-22.7541710533
 10
7.5254995696
 20
-22.7402278902
 10
7.5191929361
 20
-22.7261042108
 10
7.5132781229
 20
-22.7118096787
 10
7.5077647935
 20
-22.6973539574
 10
7.5026626114
 20
-22.6827467105
 10
7.4985445665
 20
-22.6698537775
 10
7.4947551885
 20
-22.6568608371
 10
7.4913011982
 20
-22.643776415
 10
7.4881893164
 20
-22.6306090371
 10
7.4854262639
 20
-22.617367229
 10
7.4830187615
 20
-22.6040595165
 10
7.4809735299
 20
-22.5906944254
 10
7.4792972901
 20
-22.5772804812
 10
7.4779967628
 20
-22.5638262099
 10
7.4770786688
 20
-22.5503401372
 10
7.4765497288
 20
-22.5368307887
 10
7.4764166638
 20
-22.5233066902
 10
7.4766583473
 20
-22.5105909651
 10
7.4772604072
 20
-22.4978824536
 10
7.4782275879
 20
-22.4851938671
 10
7.479564634
 20
-22.4725379175
 10
7.48127629
 20
-22.4599273164
 10
7.4833673005
 20
-22.4473747754
 10
7.4858424099
 20
-22.4348930063
 10
7.4887063628
 20
-22.4224947205
 10
7.4919639038
 20
-22.41019263
 10
7.4956197774
 20
-22.3979994462
 10
7.499678728
 20
-22.3859278809
 10
7.5041455002
 20
-22.3739906457
 10
7.5087824432
 20
-22.3627564711
 10
7.5137872266
 20
-22.3516713553
 10
7.5191533021
 20
-22.340750922
 10
7.5248741214
 20
-22.330010795
 10
7.5309431362
 20
-22.3194665979
 10
7.5373537981
 20
-22.3091339546
 10
7.5440995589
 20
-22.2990284887
 10
7.5511738704
 20
-22.289165824
 10
7.5585701841
 20
-22.2795615842
 10
7.5662819518
 20
-22.270231393
 10
7.5743026252
 20
-22.2611908742
 10
7.582625656
 20
-22.2524556516
  0
LINE
  5
296
100
AcDbEntity
  8
RACCORDO
100
AcDbLine
 62
7
  6
CONTINUOUS
 10
-30.3643849273
 20
-16.6182776286
 11
-30.3288812955
 21
-16.6698022328
  0
LWPOLYLINE
  5
297
100
AcDbEntity
  8
RACCORDO
100
AcDbPolyline
 62
7
  6
CONTINUOUS
 90
48
 70
0
 10
-8.9918949657
 20
23.7498081022
 10
-8.9823947851
 20
23.7353826216
 10
-8.9724903846
 20
23.7212104611
 10
-8.9621912777
 20
23.7073033043
 10
-8.9515069777
 20
23.6936728346
 10
-8.9404469982
 20
23.6803307356
 10
-8.9290208525
 20
23.6672886909
 10
-8.9172380541
 20
23.6545583839
 10
-8.9051081164
 20
23.6421514981
 10
-8.8926405529
 20
23.6300797171
 10
-8.8798448769
 20
23.6183547244
 10
-8.866730602
 20
23.6069882035
 10
-8.8536735546
 20
23.5962840953
 10
-8.8403316129
 20
23.5859427203
 10
-8.8267124997
 20
23.575976379
 10
-8.8128239373
 20
23.566397372
 10
-8.7986736484
 20
23.5572179999
 10
-8.7842693557
 20
23.5484505632
 10
-8.7696187815
 20
23.5401073624
 10
-8.7547296486
 20
23.5322006981
 10
-8.7396096795
 20
23.5247428708
 10
-8.7242665968
 20
23.5177461812
 10
-8.708708123
 20
23.5112229297
 10
-8.6952925995
 20
23.5060501947
 10
-8.6817362831
 20
23.5012434824
 10
-8.6680490482
 20
23.4968164032
 10
-8.6542407693
 20
23.4927825674
 10
-8.6403213206
 20
23.4891555855
 10
-8.6263005767
 20
23.485949068
 10
-8.6121884119
 20
23.4831766251
 10
-8.5979947005
 20
23.4808518674
 10
-8.583729317
 20
23.4789884053
 10
-8.5694021358
 20
23.4775998492
 10
-8.5550230312
 20
23.4766998094
 10
-8.5406018777
 20
23.4763018964
 10
-8.5284020546
 20
23.4763662375
 10
-8.5161969338
 20
23.4768022409
 10
-8.5040041553
 20
23.4776138968
 10
-8.4918413588
 20
23.4788051955
 10
-8.4797261841
 20
23.4803801271
 10
-8.4676762711
 20
23.4823426818
 10
-8.4557092595
 20
23.4846968499
 10
-8.4438427893
 20
23.4874466215
 10
-8.4320945002
 20
23.4905959869
 10
-8.420482032
 20
23.4941489363
 10
-8.4090230246
 20
23.4981094598
 10
-8.3977351178
 20
23.5024815476
 10
-8.3866359514
 20
23.5072691901
  0
LINE
  5
298
100
AcDbEntity
  8
RACCORDO
100
AcDbLine
 62
7
  6
CONTINUOUS
 10
7.3373442633
 20
14.4102584327
 11
7.3652393878
 21
14.3677320433
  0
LINE
  5
299
100
AcDbEntity
  8
RACCORDO
100
AcDbLine
 62
7
  6
CONTINUOUS
 10
-30.3978569694
 20
-16.5657912085
 11
-30.3643849273
 21
-16.6182776286
  0
LINE
  5
29A
100
AcDbEntity
  8
RACCORDO
100
AcDbLine
 62
7
  6
CONTINUOUS
 10
7.3652393878
 20
14.3677320433
 11
7.3920904701
 21
14.3238194661
  0
LINE
  5
29B
100
AcDbEntity
  8
RACCORDO
100
AcDbLine
 62
7
  6
CONTINUOUS
 10
-30.4291027156
 20
-16.5126315282
 11
-30.3978569694
 21
-16.5657912085
  0
LINE
  5
29C
100
AcDbEntity
  8
RACCORDO
100
AcDbLine
 62
7
  6
CONTINUOUS
 10
7.3920904701
 20
14.3238194661
 11
7.4177649802
 21
14.2786899034
  0
LWPOLYLINE
  5
29D
100
AcDbEntity
  8
RACCORDO
100
AcDbPolyline
 62
7
  6
CONTINUOUS
 90
28
 70
0
 10
-8.3866385289
 20
-12.9660011096
 10
-8.3959409503
 20
-12.9488084874
 10
-8.4050003725
 20
-12.9314796789
 10
-8.4138100324
 20
-12.9140166793
 10
-8.4223631666
 20
-12.8964214835
 10
-8.430653012
 20
-12.8786960866
 10
-8.4386728053
 20
-12.8608424837
 10
-8.4464157833
 20
-12.8428626697
 10
-8.4538751827
 20
-12.8247586398
 10
-8.4610442403
 20
-12.8065323889
 10
-8.4679161929
 20
-12.7881859122
 10
-8.4744842773
 20
-12.7697212046
 10
-8.4807417302
 20
-12.7511402612
 10
-8.4866817884
 20
-12.732445077
 10
-8.491378776
 20
-12.7167967099
 10
-8.4958412888
 20
-12.7010750861
 10
-8.5000594966
 20
-12.6852847364
 10
-8.5040235697
 20
-12.6694301915
 10
-8.5077236779
 20
-12.6535159822
 10
-8.5111499914
 20
-12.6375466394
 10
-8.5142926802
 20
-12.6215266937
 10
-8.5171419144
 20
-12.6054606761
 10
-8.519687864
 20
-12.5893531172
 10
-8.521920699
 20
-12.5732085478
 10
-8.5238305896
 20
-12.5570314988
 10
-8.5254077057
 20
-12.5408265009
 10
-8.5266422174
 20
-12.5245980849
 10
-8.5275242947
 20
-12.5083507816
  0
LINE
  5
29E
100
AcDbEntity
  8
RACCORDO
100
AcDbLine
 62
7
  6
CONTINUOUS
 10
-30.4580214514
 20
-16.458949018
 11
-30.4291027156
 21
-16.5126315282
  0
LINE
  5
29F
100
AcDbEntity
  8
RACCORDO
100
AcDbLine
 62
7
  6
CONTINUOUS
 10
7.4177649802
 20
14.2786899034
 11
7.4421317193
 21
14.2325349704
  0
LWPOLYLINE
  5
2A0
100
AcDbEntity
  8
RACCORDO
100
AcDbPolyline
 62
7
  6
CONTINUOUS
 90
28
 70
0
 10
-8.9918989024
 20
-13.2652085191
 10
-9.0065880668
 20
-13.2369476548
 10
-9.0208927138
 20
-13.2084802178
 10
-9.0348027376
 20
-13.1798092769
 10
-9.0483080326
 20
-13.1509379009
 10
-9.0613984929
 20
-13.1218691585
 10
-9.0740640129
 20
-13.0926061185
 10
-9.0862944868
 20
-13.0631518497
 10
-9.0980798088
 20
-13.0335094209
 10
-9.1094098732
 20
-13.0036819007
 10
-9.1202745743
 20
-12.973672358
 10
-9.1306638062
 20
-12.9434838615
 10
-9.1405674634
 20
-12.91311948
 10
-9.14997544
 20
-12.8825822822
 10
-9.157414438
 20
-12.8570529628
 10
-9.1644879968
 20
-12.8314128716
 10
-9.1711806218
 20
-12.8056686819
 10
-9.1774768188
 20
-12.7798270675
 10
-9.1833610931
 20
-12.7538947016
 10
-9.1888179505
 20
-12.7278782579
 10
-9.1938318964
 20
-12.7017844098
 10
-9.1983874365
 20
-12.6756198309
 10
-9.2024690763
 20
-12.6493911946
 10
-9.2060613214
 20
-12.6231051744
 10
-9.2091486773
 20
-12.5967684438
 10
-9.2117156496
 20
-12.5703876764
 10
-9.213746744
 20
-12.5439695457
 10
-9.2152264659
 20
-12.517520725
  0
LINE
  5
2A1
100
AcDbEntity
  8
RACCORDO
100
AcDbLine
 62
7
  6
CONTINUOUS
 10
-30.4844966484
 20
-16.4048999985
 11
-30.4580214514
 21
-16.458949018
  0
LINE
  5
2A2
100
AcDbEntity
  8
RACCORDO
100
AcDbLine
 62
7
  6
CONTINUOUS
 10
7.4421317193
 20
14.2325349704
 11
7.4650746319
 21
14.1855450104
  0
LINE
  5
2A3
100
AcDbEntity
  8
RACCORDO
100
AcDbLine
 62
7
  6
CONTINUOUS
 10
7.4650746319
 20
14.1855450104
 11
7.4766663124
 21
14.1602665643
  0
LINE
  5
2A4
100
AcDbEntity
  8
RACCORDO
100
AcDbLine
 62
7
  6
CONTINUOUS
 10
-30.5083834063
 20
-16.3507268283
 11
-30.4844966484
 21
-16.4048999985
  0
LWPOLYLINE
  5
2A5
100
AcDbEntity
  8
RACCORDO
100
AcDbPolyline
 62
7
  6
CONTINUOUS
 90
28
 70
0
 10
7.5798013067
 20
14.1815140501
 10
7.5927644523
 20
14.1519876274
 10
7.6052862216
 20
14.1222593062
 10
7.6173575649
 20
14.0923347628
 10
7.6289694323
 20
14.0622196735
 10
7.6401127739
 20
14.0319197144
 10
7.6507785399
 20
14.001440562
 10
7.6609576804
 20
13.9707878923
 10
7.6706411456
 20
13.9399673818
 10
7.6798198857
 20
13.9089847065
 10
7.6884848507
 20
13.8778455429
 10
7.6966269908
 20
13.846555567
 10
7.7042372563
 20
13.8151204553
 10
7.7113065971
 20
13.7835458839
 10
7.7168822043
 20
13.7566030732
 10
7.7220473878
 20
13.7295724334
 10
7.7267890778
 20
13.7024627932
 10
7.7310942041
 20
13.6752829813
 10
7.734949697
 20
13.6480418266
 10
7.7383424865
 20
13.6207481576
 10
7.7412595026
 20
13.5934108032
 10
7.7436876753
 20
13.5660385921
 10
7.7456139349
 20
13.538640353
 10
7.7470252112
 20
13.5112249146
 10
7.7479084344
 20
13.4838011056
 10
7.7482505345
 20
13.4563777548
 10
7.7480384416
 20
13.4289636909
 10
7.7472590858
 20
13.4015677427
  0
LINE
  5
2A6
100
AcDbEntity
  8
RACCORDO
100
AcDbLine
 62
7
  6
CONTINUOUS
 10
7.4766664126
 20
14.1602656005
 11
7.4883150078
 21
14.1336525656
  0
LINE
  5
2A7
100
AcDbEntity
  8
RACCORDO
100
AcDbLine
 62
7
  6
CONTINUOUS
 10
7.4883150078
 20
14.1336525656
 11
7.509209376
 21
14.0822998513
  0
LINE
  5
2A8
100
AcDbEntity
  8
RACCORDO
100
AcDbLine
 62
7
  6
CONTINUOUS
 10
-30.5295864733
 20
-16.2965595415
 11
-30.5083834063
 21
-16.3507268283
  0
LINE
  5
2A9
100
AcDbEntity
  8
RACCORDO
100
AcDbLine
 62
7
  6
CONTINUOUS
 10
7.509209376
 20
14.0822998513
 11
7.5279821882
 21
14.0311489498
  0
LWPOLYLINE
  5
2AA
100
AcDbEntity
  8
0
100
AcDbPolyline
 62
7
  6
CONTINUOUS
 90
34
 70
0
 10
2.9554247531
 20
-24.2492404584
 10
2.9503935067
 20
-24.2351985924
 10
2.9450663056
 20
-24.2212623791
 10
2.9394517904
 20
-24.2074351122
 10
2.9335586022
 20
-24.1937200851
 10
2.9273953817
 20
-24.1801205917
 10
2.9209707697
 20
-24.1666399256
 10
2.9142934072
 20
-24.1532813804
 10
2.9080005009
 20
-24.1412307567
 10
2.9015003911
 20
-24.1292921728
 10
2.8947881627
 20
-24.1174737405
 10
2.8878589008
 20
-24.105783571
 10
2.8807076904
 20
-24.0942297761
 10
2.8733296166
 20
-24.0828204673
 10
2.8657197643
 20
-24.0715637559
 10
2.8578732186
 20
-24.0604677536
 10
2.8508378834
 20
-24.0509352067
 10
2.8436164694
 20
-24.0415402242
 10
2.8362064192
 20
-24.0322921373
 10
2.8286051753
 20
-24.0232002775
 10
2.8208101804
 20
-24.014273976
 10
2.8128188768
 20
-24.0055225642
 10
2.8046287073
 20
-23.9969553734
 10
2.7962371143
 20
-23.988581735
 10
2.7876415404
 20
-23.9804109804
 10
2.7797193812
 20
-23.973229712
 10
2.7716322953
 20
-23.9662303144
 10
2.7633830875
 20
-23.9594223165
 10
2.7549745626
 20
-23.9528152474
 10
2.7464095258
 20
-23.946418636
 10
2.7376907817
 20
-23.9402420114
 10
2.7288211354
 20
-23.9342949024
 10
2.7198033918
 20
-23.9285868382
 10
2.7106403557
 20
-23.9231273476
  0
LWPOLYLINE
  5
2AB
100
AcDbEntity
  8
0
100
AcDbPolyline
 62
7
  6
CONTINUOUS
 90
34
 70
0
 10
3.0618529319
 20
-24.1877901255
 10
3.0568208909
 20
-24.1737486841
 10
3.0514929228
 20
-24.1598129055
 10
3.0458776689
 20
-24.1459860819
 10
3.0399837702
 20
-24.1322715052
 10
3.0338198681
 20
-24.1186724675
 10
3.0273946036
 20
-24.1051922608
 10
3.020716618
 20
-24.0918341772
 10
3.0144231129
 20
-24.079783866
 10
3.0079224264
 20
-24.0678455959
 10
3.0012096444
 20
-24.0560274774
 10
2.994279853
 20
-24.044337621
 10
2.9871281383
 20
-24.0327841371
 10
2.9797495862
 20
-24.0213751362
 10
2.9721392829
 20
-24.0101187286
 10
2.9642923144
 20
-23.9990230249
 10
2.9572565875
 20
-23.9894906707
 10
2.9500348019
 20
-23.9800958766
 10
2.9426244006
 20
-23.9708479725
 10
2.9350228263
 20
-23.9617562886
 10
2.927227522
 20
-23.9528301549
 10
2.9192359305
 20
-23.9440789014
 10
2.9110454947
 20
-23.9355118584
 10
2.9026536574
 20
-23.9271383558
 10
2.8940578616
 20
-23.9189677237
 10
2.8861355268
 20
-23.9117865581
 10
2.8780482828
 20
-23.9047872504
 10
2.8697989336
 20
-23.8979793288
 10
2.8613902831
 20
-23.8913723215
 10
2.8528251352
 20
-23.8849757566
 10
2.844106294
 20
-23.8787991623
 10
2.8352365632
 20
-23.8728520667
 10
2.8262187469
 20
-23.8671439979
 10
2.8170556489
 20
-23.8616844842
  0
LINE
  5
2AC
100
AcDbEntity
  8
RACCORDO
100
AcDbLine
 62
7
  6
CONTINUOUS
 10
-30.548013106
 20
-16.2424893807
 11
-30.5295864733
 21
-16.2965595415
  0
LINE
  5
2AD
100
AcDbEntity
  8
RACCORDO
100
AcDbLine
 62
7
  6
CONTINUOUS
 10
7.5279821882
 20
14.0311489498
 11
7.5445924574
 21
13.9804704792
  0
LWPOLYLINE
  5
2AE
100
AcDbEntity
  8
0
100
AcDbPolyline
 62
7
  6
CONTINUOUS
 90
6
 70
0
 10
3.1873486797
 20
-25.0173477683
 10
3.1588675728
 20
-24.921557055
 10
3.1302950532
 20
-24.8257955246
 10
3.1019374598
 20
-24.7300516289
 10
3.0738377729
 20
-24.6342210866
 10
3.048791595
 20
-24.5482666636
  0
LWPOLYLINE
  5
2AF
100
AcDbEntity
  8
0
100
AcDbPolyline
 62
7
  6
CONTINUOUS
 90
6
 70
0
 10
3.2938230949
 20
-24.9558707754
 10
3.2653360402
 20
-24.8600835144
 10
3.2367576337
 20
-24.7643254245
 10
3.2083941874
 20
-24.6685849226
 10
3.1802886751
 20
-24.5727577494
 10
3.1552372632
 20
-24.4868061867
  0
LWPOLYLINE
  5
2B0
100
AcDbEntity
  8
0
100
AcDbPolyline
 62
7
  6
CONTINUOUS
 90
8
 70
0
 10
3.048791595
 20
-24.5482666636
 10
3.0361888793
 20
-24.5053110261
 10
3.0234477233
 20
-24.46239858
 10
3.0105041104
 20
-24.4195509323
 10
2.9972940236
 20
-24.3767896895
 10
2.9837534464
 20
-24.3341364585
 10
2.9698183618
 20
-24.2916128459
 10
2.9554247531
 20
-24.2492404584
  0
LWPOLYLINE
  5
2B1
100
AcDbEntity
  8
0
100
AcDbPolyline
 62
7
  6
CONTINUOUS
 90
8
 70
0
 10
3.1552372632
 20
-24.4868061867
 10
3.1426319526
 20
-24.4438519787
 10
3.1298882242
 20
-24.4009409649
 10
3.1169420672
 20
-24.3580947543
 10
3.1037294704
 20
-24.3153349561
 10
3.0901864229
 20
-24.2726831791
 10
3.0762489137
 20
-24.2301610326
 10
3.0618529319
 20
-24.1877901255
  0
LINE
  5
2B2
100
AcDbEntity
  8
RACCORDO
100
AcDbLine
 62
7
  6
CONTINUOUS
 10
7.5445924574
 20
13.9804704792
 11
7.5590167451
 21
13.930538915
  0
LINE
  5
2B3
100
AcDbEntity
  8
RACCORDO
100
AcDbLine
 62
7
  6
CONTINUOUS
 10
-30.5635670175
 20
-16.1885926879
 11
-30.548013106
 21
-16.2424893807
  0
LINE
  5
2B4
100
AcDbEntity
  8
0
100
AcDbLine
 62
7
  6
CONTINUOUS
 10
3.3822857923
 20
-24.5179842921
 11
3.3977635911
 21
-24.5731039302
  0
LWPOLYLINE
  5
2B5
100
AcDbEntity
  8
0
100
AcDbPolyline
 62
7
  6
CONTINUOUS
 90
8
 70
0
 10
3.3977635911
 20
-24.5731039302
 10
3.4292003516
 20
-24.6854318359
 10
3.4603707385
 20
-24.7978341881
 10
3.4913544391
 20
-24.9102889711
 10
3.514492038
 20
-24.9944952272
 10
3.5376988097
 20
-25.0786821249
 10
3.5611038978
 20
-25.1628132587
 10
3.5848364461
 20
-25.2468522229
  0
LINE
  5
2B6
100
AcDbEntity
  8
RACCORDO
100
AcDbLine
 62
7
  6
CONTINUOUS
 10
7.5590167451
 20
13.930538915
 11
7.5712595921
 21
13.8815918176
  0
LINE
  5
2B7
100
AcDbEntity
  8
RACCORDO
100
AcDbLine
 62
7
  6
CONTINUOUS
 10
-30.5761375601
 20
-16.1349014732
 11
-30.5635670175
 21
-16.1885926879
  0
LINE
  5
2B8
100
AcDbEntity
  8
RACCORDO
100
AcDbLine
 62
7
  6
CONTINUOUS
 10
7.5712595921
 20
13.8815918176
 11
7.5813353436
 21
13.8338941237
  0
LINE
  5
2B9
100
AcDbEntity
  8
RACCORDO
100
AcDbLine
 62
7
  6
CONTINUOUS
 10
-30.5833959178
 20
-16.0956076054
 11
-30.5761375601
 21
-16.1349014732
  0
LWPOLYLINE
  5
2BA
100
AcDbEntity
  8
RACCORDO
100
AcDbPolyline
 62
7
  6
CONTINUOUS
 90
39
 70
0
 10
-29.9153445554
 20
-17.0186818707
 10
-29.9147624522
 20
-17.0218490378
 10
-29.9141315285
 20
-17.0250117588
 10
-29.9134503096
 20
-17.0281680275
 10
-29.9127173211
 20
-17.0313158378
 10
-29.9119310883
 20
-17.0344531834
 10
-29.9110901368
 20
-17.0375780581
 10
-29.910192992
 20
-17.0406884558
 10
-29.9092381793
 20
-17.0437823702
 10
-29.9082242241
 20
-17.0468577952
 10
-29.907149652
 20
-17.0499127245
 10
-29.9060129884
 20
-17.052945152
 10
-29.9048127586
 20
-17.0559530715
 10
-29.9035474883
 20
-17.0589344767
 10
-29.9022157027
 20
-17.0618873615
 10
-29.9008159275
 20
-17.0648097197
 10
-29.8993466879
 20
-17.0676995451
 10
-29.8978065095
 20
-17.0705548314
 10
-29.8961939177
 20
-17.0733735726
 10
-29.8945074379
 20
-17.0761537623
 10
-29.8929800714
 20
-17.0785381989
 10
-29.8913965992
 20
-17.0808896453
 10
-29.8897578978
 20
-17.083205777
 10
-29.8880648438
 20
-17.0854842698
 10
-29.8863183138
 20
-17.0877227994
 10
-29.8845191841
 20
-17.0899190414
 10
-29.8826683314
 20
-17.0920706714
 10
-29.8807666322
 20
-17.0941753651
 10
-29.8788149629
 20
-17.0962307983
 10
-29.8768142002
 20
-17.0982346465
 10
-29.8747652205
 20
-17.1001845855
 10
-29.8726689005
 20
-17.1020782909
 10
-29.8705261165
 20
-17.1039134383
 10
-29.8683377451
 20
-17.1056877035
 10
-29.8661046629
 20
-17.107398762
 10
-29.8638277463
 20
-17.1090442897
 10
-29.861507872
 20
-17.1106219621
 10
-29.8591459164
 20
-17.1121294549
 10
-29.856742756
 20
-17.1135644437
  0
LWPOLYLINE
  5
2BB
100
AcDbEntity
  8
RACCORDO
100
AcDbPolyline
 62
7
  6
CONTINUOUS
 90
39
 70
0
 10
-30.4960648579
 20
-16.2114016382
 10
-30.491993375
 20
-16.2339455114
 10
-30.4871914763
 20
-16.2563525467
 10
-30.4816974548
 20
-16.2786159275
 10
-30.4755496035
 20
-16.3007288376
 10
-30.4687862152
 20
-16.3226844604
 10
-30.4614455828
 20
-16.3444759796
 10
-30.4535659993
 20
-16.3660965786
 10
-30.4451857577
 20
-16.3875394411
 10
-30.4363431507
 20
-16.4087977505
 10
-30.4270764713
 20
-16.4298646906
 10
-30.4145292716
 20
-16.4567879239
 10
-30.4013577882
 20
-16.4833799118
 10
-30.3875815512
 20
-16.5096401544
 10
-30.3732200909
 20
-16.5355681518
 10
-30.3582929373
 20
-16.561163404
 10
-30.3428196206
 20
-16.5864254112
 10
-30.3268196709
 20
-16.6113536734
 10
-30.3103126186
 20
-16.6359476907
 10
-30.2933179936
 20
-16.6602069632
 10
-30.275300623
 20
-16.6848687869
 10
-30.2567867882
 20
-16.709160777
 10
-30.2377776843
 20
-16.7330695581
 10
-30.2182745066
 20
-16.7565817551
 10
-30.19827845
 20
-16.7796839925
 10
-30.1777907097
 20
-16.8023628953
 10
-30.1568124808
 20
-16.8246050879
 10
-30.1353449585
 20
-16.8463971954
 10
-30.1133893379
 20
-16.8677258422
 10
-30.095112567
 20
-16.8847726768
 10
-30.0765074367
 20
-16.9014703587
 10
-30.0575697729
 20
-16.9177872177
 10
-30.0382954014
 20
-16.9336915832
 10
-30.018680148
 20
-16.9491517849
 10
-29.9987198385
 20
-16.9641361523
 10
-29.9784102987
 20
-16.978613015
 10
-29.9577473543
 20
-16.9925507026
 10
-29.9367268313
 20
-17.0059175446
 10
-29.9153445554
 20
-17.0186818707
  0
LINE
  5
2BC
100
AcDbEntity
  8
RACCORDO
100
AcDbLine
 62
7
  6
CONTINUOUS
 10
7.5813353436
 20
13.8338941237
 11
7.5892704431
 21
13.7877688213
  0
LINE
  5
2BD
100
AcDbEntity
  8
RACCORDO
100
AcDbLine
 62
7
  6
CONTINUOUS
 10
-30.5165046453
 20
-16.0858846414
 11
-30.4960648579
 21
-16.2114016382
  0
LINE
  5
2BE
100
AcDbEntity
  8
RACCORDO
100
AcDbLine
 62
7
  6
CONTINUOUS
 10
-30.5833659151
 20
-16.0957920849
 11
-30.5833959178
 21
-16.0956076054
  0
LINE
  5
2BF
100
AcDbEntity
  8
RACCORDO
100
AcDbLine
 62
7
  6
CONTINUOUS
 10
-30.8488241481
 20
-14.3966598688
 11
-30.5833700108
 21
-16.0957927529
  0
LINE
  5
2C0
100
AcDbEntity
  8
RACCORDO
100
AcDbLine
 62
7
  6
CONTINUOUS
 10
-31.1003984714
 20
-12.6246175059
 11
-30.8488241481
 21
-14.3966598688
  0
LINE
  5
2C1
100
AcDbEntity
  8
RACCORDO
100
AcDbLine
 62
7
  6
CONTINUOUS
 10
-31.3292309058
 20
-10.8339043317
 11
-31.1003984714
 21
-12.6246175059
  0
LINE
  5
2C2
100
AcDbEntity
  8
RACCORDO
100
AcDbLine
 62
7
  6
CONTINUOUS
 10
-31.5352680101
 20
-9.0249316334
 11
-31.3292309058
 21
-10.8339043317
  0
LINE
  5
2C3
100
AcDbEntity
  8
RACCORDO
100
AcDbLine
 62
7
  6
CONTINUOUS
 10
7.5951344554
 20
13.7434324268
 11
7.5990128104
 21
13.7011163334
  0
LINE
  5
2C4
100
AcDbEntity
  8
RACCORDO
100
AcDbLine
 62
7
  6
CONTINUOUS
 10
7.5990128104
 20
13.7011163334
 11
7.6010109854
 21
13.6611584687
  0
LINE
  5
2C5
100
AcDbEntity
  8
RACCORDO
100
AcDbLine
 62
7
  6
CONTINUOUS
 10
7.4936071267
 20
-19.2522199733
 11
7.6008140328
 21
-22.1081842695
  0
LWPOLYLINE
  5
2C6
100
AcDbEntity
  8
RACCORDO
100
AcDbPolyline
 62
7
  6
CONTINUOUS
 90
39
 70
0
 10
7.7472590858
 20
-22.3114472927
 10
7.7478636859
 20
-22.3295441436
 10
7.7481874883
 20
-22.3476550857
 10
7.7482201379
 20
-22.3657735996
 10
7.7479512798
 20
-22.3838931661
 10
7.7473705589
 20
-22.4020072659
 10
7.7464676202
 20
-22.4201093799
 10
7.7452321086
 20
-22.4381929887
 10
7.7436536692
 20
-22.456251573
 10
7.7417219467
 20
-22.4742786137
 10
7.7396671642
 20
-22.4905074678
 10
7.7373058948
 20
-22.5066957518
 10
7.7346275725
 20
-22.5228338703
 10
7.7316216309
 20
-22.538912228
 10
7.7282775039
 20
-22.5549212296
 10
7.7245846252
 20
-22.5708512798
 10
7.7205324287
 20
-22.5866927832
 10
7.716110348
 20
-22.6024361444
 10
7.7113078171
 20
-22.6180717682
 10
7.7071227101
 20
-22.6306758646
 10
7.7026738185
 20
-22.6431922327
 10
7.6979549556
 20
-22.655610442
 10
7.6929599349
 20
-22.667920062
 10
7.6876825701
 20
-22.6801106622
 10
7.6821166745
 20
-22.692171812
 10
7.6762560617
 20
-22.7040930811
 10
7.6700945451
 20
-22.7158640388
 10
7.6636259384
 20
-22.7274742548
 10
7.6568440549
 20
-22.7389132984
 10
7.6503212145
 20
-22.7492803753
 10
7.6435299641
 20
-22.7594805226
 10
7.6364725046
 20
-22.7695006427
 10
7.6291510368
 20
-22.779327638
 10
7.6215677617
 20
-22.7889484111
 10
7.6137248801
 20
-22.7983498643
 10
7.6056245929
 20
-22.8075189
 10
7.597269101
 20
-22.8164424209
 10
7.5886606053
 20
-22.8251073293
 10
7.5798013067
 20
-22.8335005276
  0
LWPOLYLINE
  5
2C7
100
AcDbEntity
  8
RACCORDO
100
AcDbPolyline
 62
7
  6
CONTINUOUS
 90
43
 70
0
 10
6.8731493981
 20
-22.8123945587
 10
6.8726764792
 20
-22.7969217634
 10
6.8727149621
 20
-22.781434421
 10
6.8732452179
 20
-22.7659438733
 10
6.8742476178
 20
-22.7504614621
 10
6.8757025328
 20
-22.7349985293
 10
6.877590334
 20
-22.7195664167
 10
6.8798913927
 20
-22.7041764661
 10
6.8825860798
 20
-22.6888400194
 10
6.8856547666
 20
-22.6735684185
 10
6.889077824
 20
-22.6583730051
 10
6.8928356233
 20
-22.6432651212
 10
6.8979145354
 20
-22.6247381498
 10
6.9034625987
 20
-22.6063665719
 10
6.9094681586
 20
-22.588154921
 10
6.9159195599
 20
-22.5701077309
 10
6.9228051479
 20
-22.5522295349
 10
6.9301132676
 20
-22.5345248668
 10
6.9378322642
 20
-22.51699826
 10
6.9459504828
 20
-22.4996542483
 10
6.9544562684
 20
-22.4824973651
 10
6.9633379663
 20
-22.4655321441
 10
6.9727174319
 20
-22.448531392
 10
6.9824709122
 20
-22.4317425074
 10
6.9925979255
 20
-22.4151756474
 10
7.0030979906
 20
-22.3988409689
 10
7.0139706261
 20
-22.382748629
 10
7.0252153504
 20
-22.3669087847
 10
7.0368316823
 20
-22.351331593
 10
7.0488191403
 20
-22.336027211
 10
7.061177243
 20
-22.3210057957
 10
7.073905509
 20
-22.306277504
 10
7.0847756394
 20
-22.2942582932
 10
7.0959022675
 20
-22.2824678841
 10
7.1072860676
 20
-22.2709252056
 10
7.1189277141
 20
-22.2596491862
 10
7.1308278811
 20
-22.2486587548
 10
7.1429872432
 20
-22.2379728401
 10
7.1554064745
 20
-22.2276103706
 10
7.1680862494
 20
-22.2175902752
 10
7.1810272422
 20
-22.2079314824
 10
7.1942301273
 20
-22.1986529211
 10
7.207695579
 20
-22.1897735199
  0
LINE
  5
2C8
100
AcDbEntity
  8
RACCORDO
100
AcDbLine
 62
7
  6
CONTINUOUS
 10
7.4039118824
 20
-16.3237411158
 11
7.4936071267
 21
-19.2522199733
  0
LINE
  5
2C9
100
AcDbEntity
  8
RACCORDO
100
AcDbLine
 62
7
  6
CONTINUOUS
 10
7.334147263
 20
-13.3817316537
 11
7.4039118824
 21
-16.3237411158
  0
LINE
  5
2CA
100
AcDbEntity
  8
RACCORDO
100
AcDbLine
 62
7
  6
CONTINUOUS
 10
7.6008135459
 20
-22.1081907731
 11
7.6013647415
 21
-22.1322238035
  0
LWPOLYLINE
  5
2CB
100
AcDbEntity
  8
0
100
AcDbPolyline
 62
7
  6
CONTINUOUS
 90
43
 70
0
 10
-4.2769380428
 20
-4.248999116
 10
-4.2769994163
 20
-4.2413950299
 10
-4.2771864558
 20
-4.2337891084
 10
-4.2775035395
 20
-4.2261847456
 10
-4.2779550456
 20
-4.2185853357
 10
-4.2785453526
 20
-4.2109942726
 10
-4.2792788388
 20
-4.2034149507
 10
-4.2801598823
 20
-4.1958507639
 10
-4.2811928616
 20
-4.1883051063
 10
-4.2823821548
 20
-4.1807813722
 10
-4.2837321404
 20
-4.1732829555
 10
-4.2850800149
 20
-4.1665984171
 10
-4.286564255
 20
-4.1599419303
 10
-4.2881890742
 20
-4.1533185604
 10
-4.2899586858
 20
-4.1467333733
 10
-4.2918773035
 20
-4.1401914344
 10
-4.2939491407
 20
-4.1336978093
 10
-4.296178411
 20
-4.1272575635
 10
-4.2985693277
 20
-4.1208757628
 10
-4.3011261044
 20
-4.1145574726
 10
-4.3038529546
 20
-4.1083077586
 10
-4.3062113303
 20
-4.1032534793
 10
-4.3086876654
 20
-4.0982537859
 10
-4.3112834397
 20
-4.0933140484
 10
-4.3140001332
 20
-4.0884396364
 10
-4.3168392257
 20
-4.0836359198
 10
-4.3198021971
 20
-4.0789082684
 10
-4.3228905273
 20
-4.0742620519
 10
-4.3261056962
 20
-4.06970264
 10
-4.3294491836
 20
-4.0652354027
 10
-4.3329224696
 20
-4.0608657096
 10
-4.3365270338
 20
-4.0565989306
 10
-4.3400128578
 20
-4.0527114938
 10
-4.343611118
 20
-4.0489234757
 10
-4.3473184346
 20
-4.0452398301
 10
-4.3511314282
 20
-4.0416655111
 10
-4.355046719
 20
-4.0382054724
 10
-4.3590609276
 20
-4.0348646681
 10
-4.3631706742
 20
-4.031648052
 10
-4.3673725793
 20
-4.028560578
 10
-4.3716632633
 20
-4.0256072002
 10
-4.3760393465
 20
-4.0227928724
 10
-4.3804974493
 20
-4.0201225485
  0
LINE
  5
2CC
100
AcDbEntity
  8
0
100
AcDbLine
 62
7
  6
CONTINUOUS
 10
-4.2769380428
 20
-4.248999116
 11
-4.2769380428
 21
-7.3661213427
  0
LWPOLYLINE
  5
2CD
100
AcDbEntity
  8
RACCORDO
100
AcDbPolyline
 62
7
  6
CONTINUOUS
 90
43
 70
0
 10
-8.2485350903
 20
23.7498970826
 10
-8.2488418696
 20
23.7415840758
 10
-8.2490098667
 20
23.7332627234
 10
-8.2490339068
 20
23.7249366231
 10
-8.2489088152
 20
23.7166093725
 10
-8.2486294172
 20
23.7082845693
 10
-8.248190538
 20
23.6999658111
 10
-8.2475870029
 20
23.6916566958
 10
-8.2468136372
 20
23.6833608209
 10
-8.2458652662
 20
23.6750817841
 10
-8.2447367151
 20
23.6668231831
 10
-8.2435767381
 20
23.6594962678
 10
-8.242264749
 20
23.6521940006
 10
-8.2407954499
 20
23.6449220064
 10
-8.239163543
 20
23.6376859098
 10
-8.2373637305
 20
23.6304913358
 10
-8.2353907146
 20
23.6233439092
 10
-8.2332391975
 20
23.6162492548
 10
-8.2309038814
 20
23.6092129973
 10
-8.2283794684
 20
23.6022407617
 10
-8.2256606609
 20
23.5953381727
 10
-8.2233128157
 20
23.5898035482
 10
-8.2208317699
 20
23.5843247265
 10
-8.2182152944
 20
23.5789081424
 10
-8.21546116
 20
23.5735602307
 10
-8.2125671376
 20
23.5682874262
 10
-8.2095309982
 20
23.5630961638
 10
-8.2063505125
 20
23.5579928782
 10
-8.2030234516
 20
23.5529840042
 10
-8.1995475864
 20
23.5480759767
 10
-8.1959206876
 20
23.5432752304
 10
-8.1921405262
 20
23.5385882001
 10
-8.18850203
 20
23.5343547275
 10
-8.1847340925
 20
23.5302304582
 10
-8.180840632
 20
23.5262215464
 10
-8.1768255669
 20
23.5223341464
 10
-8.1726928154
 20
23.5185744124
 10
-8.168446296
 20
23.5149484987
 10
-8.1640899268
 20
23.5114625594
 10
-8.1596276264
 20
23.5081227489
 10
-8.1550633129
 20
23.5049352214
 10
-8.1504009047
 20
23.5019061312
 10
-8.1456443201
 20
23.4990416324
  0
LWPOLYLINE
  5
2CE
100
AcDbEntity
  8
RACCORDO
100
AcDbPolyline
 62
7
  6
CONTINUOUS
 90
37
 70
0
 10
-8.5275251468
 20
23.1650174829
 10
-8.5269707977
 20
23.1763132144
 10
-8.5262388622
 20
23.1876189069
 10
-8.5253248179
 20
23.1989276683
 10
-8.5242241421
 20
23.2102326064
 10
-8.5229323121
 20
23.221526829
 10
-8.5214448053
 20
23.2328034439
 10
-8.5197570992
 20
23.2440555589
 10
-8.517864671
 20
23.2552762818
 10
-8.5157629981
 20
23.2664587203
 10
-8.513447558
 20
23.2775959824
 10
-8.5109138279
 20
23.2886811758
 10
-8.5081572853
 20
23.2997074083
 10
-8.5051734075
 20
23.3106677877
 10
-8.501957672
 20
23.3215554218
 10
-8.498505556
 20
23.3323634184
 10
-8.494812537
 20
23.3430848854
 10
-8.4908740923
 20
23.3537129305
 10
-8.4866856993
 20
23.3642406614
 10
-8.4827384429
 20
23.3735330218
 10
-8.4785859146
 20
23.3827328311
 10
-8.474224979
 20
23.3918326966
 10
-8.4696525008
 20
23.4008252257
 10
-8.4648653447
 20
23.4097030256
 10
-8.4598603751
 20
23.4184587035
 10
-8.4546344569
 20
23.4270848667
 10
-8.4491844546
 20
23.4355741225
 10
-8.4435072329
 20
23.4439190782
 10
-8.4379651337
 20
23.4516197661
 10
-8.4322224876
 20
23.4591771501
 10
-8.4262820312
 20
23.4665817922
 10
-8.4201465011
 20
23.4738242547
 10
-8.4138186341
 20
23.4808950994
 10
-8.4073011667
 20
23.4877848886
 10
-8.4005968356
 20
23.4944841842
 10
-8.3937083774
 20
23.5009835485
 10
-8.3866385289
 20
23.5072735434
  0
LWPOLYLINE
  5
2CF
100
AcDbEntity
  8
RACCORDO
100
AcDbPolyline
 62
7
  6
CONTINUOUS
 90
36
 70
0
 10
-9.2152264659
 20
23.1954943103
 10
-9.2141057161
 20
23.2170413582
 10
-9.2126028005
 20
23.2385737014
 10
-9.2107060193
 20
23.2600806805
 10
-9.2084036729
 20
23.2815516363
 10
-9.2056840613
 20
23.3029759096
 10
-9.202535485
 20
23.3243428411
 10
-9.198946244
 20
23.3456417716
 10
-9.1949046387
 20
23.3668620418
 10
-9.1912571722
 20
23.3841384853
 10
-9.1872918859
 20
23.4013455407
 10
-9.1830009318
 20
23.4184734811
 10
-9.1783764614
 20
23.4355125793
 10
-9.1734106267
 20
23.4524531084
 10
-9.1680955794
 20
23.4692853413
 10
-9.1624234712
 20
23.4859995508
 10
-9.156386454
 20
23.50258601
 10
-9.1499766795
 20
23.5190349917
 10
-9.1437509592
 20
23.5340205771
 10
-9.1371980597
 20
23.5488687816
 10
-9.1303122232
 20
23.5635665383
 10
-9.1230876918
 20
23.5781007805
 10
-9.1155187078
 20
23.5924584414
 10
-9.1075995133
 20
23.6066264543
 10
-9.0993243504
 20
23.6205917523
 10
-9.0906874614
 20
23.6343412688
 10
-9.0816830883
 20
23.6478619369
 10
-9.0729596605
 20
23.6602403036
 10
-9.0639155093
 20
23.6723928413
 10
-9.0545538811
 20
23.6843037007
 10
-9.0448780224
 20
23.6959570327
 10
-9.03489118
 20
23.707336988
 10
-9.0245966002
 20
23.7184277175
 10
-9.0139975296
 20
23.7292133719
 10
-9.0030972148
 20
23.739678102
 10
-8.9918989024
 20
23.7498060586
  0
LINE
  5
2D0
100
AcDbEntity
  8
RACCORDO
100
AcDbLine
 62
7
  6
CONTINUOUS
 10
-30.5328834334
 20
55.8415017728
 11
-30.5503972466
 21
55.7898362485
  0
LINE
  5
2D1
100
AcDbEntity
  8
RACCORDO
100
AcDbLine
 62
7
  6
CONTINUOUS
 10
-30.5126886395
 20
55.8908821867
 11
-30.5328834334
 21
55.8415017728
  0
LINE
  5
2D2
100
AcDbEntity
  8
RACCORDO
100
AcDbLine
 62
7
  6
CONTINUOUS
 10
32.5706720129
 20
-53.055
 11
32.611835309
 21
-53.0534252393
  0
LWPOLYLINE
  5
2D3
100
AcDbEntity
  8
RACCORDO
100
AcDbPolyline
 62
7
  6
CONTINUOUS
 90
39
 70
0
 10
-9.2152239629
 20
23.1954956149
 10
-9.2005277581
 20
23.1872783828
 10
-9.1855739862
 20
23.1795226105
 10
-9.1703826383
 20
23.1722155081
 10
-9.1549737055
 20
23.1653442859
 10
-9.139367179
 20
23.1588961543
 10
-9.12358305
 20
23.1528583235
 10
-9.1076413094
 20
23.1472180037
 10
-9.0915619484
 20
23.1419624052
 10
-9.0753649582
 20
23.1370787383
 10
-9.0590703299
 20
23.1325542133
 10
-9.0389316257
 20
23.1274684949
 10
-9.0186863624
 20
23.1228991716
 10
-8.998345308
 20
23.1188392891
 10
-8.9779192305
 20
23.1152818933
 10
-8.957418898
 20
23.11222003
 10
-8.9368550784
 20
23.1096467451
 10
-8.9162385397
 20
23.1075550845
 10
-8.89558005
 20
23.105938094
 10
-8.8748903773
 20
23.1047888193
 10
-8.8541703701
 20
23.1041025368
 10
-8.8334400343
 20
23.103885178
 10
-8.8127094758
 20
23.1041444684
 10
-8.7919888002
 20
23.1048881338
 10
-8.7712881134
 20
23.1061238996
 10
-8.7506175211
 20
23.1078594915
 10
-8.7299871292
 20
23.1101026351
 10
-8.7094070434
 20
23.112861056
 10
-8.6888873695
 20
23.1161424797
 10
-8.6722324563
 20
23.1192078562
 10
-8.6556429739
 20
23.1226395294
 10
-8.6391375963
 20
23.1264518963
 10
-8.6227349974
 20
23.1306593538
 10
-8.6064538513
 20
23.1352762987
 10
-8.5903128318
 20
23.140317128
 10
-8.5743306131
 20
23.1457962387
 10
-8.5585258691
 20
23.1517280276
 10
-8.5429172737
 20
23.1581268917
 10
-8.527523501
 20
23.1650072278
  0
LINE
  5
2D4
100
AcDbEntity
  8
RACCORDO
100
AcDbLine
 62
7
  6
CONTINUOUS
 10
-8.1611633768
 20
23.5077148303
 11
-8.1456456025
 21
23.4990394115
  0
LINE
  5
2D5
100
AcDbEntity
  8
RACCORDO
100
AcDbLine
 62
7
  6
CONTINUOUS
 10
-8.1454974348
 20
23.4989552475
 11
6.9761870536
 21
14.7678841431
  0
LINE
  5
2D6
100
AcDbEntity
  8
RACCORDO
100
AcDbLine
 62
7
  6
CONTINUOUS
 10
-8.2485350903
 20
23.7498970826
 11
6.8731493981
 21
15.0188259782
  0
LWPOLYLINE
  5
2D7
100
AcDbEntity
  8
RACCORDO
100
AcDbPolyline
 62
7
  6
CONTINUOUS
 90
43
 70
0
 10
-32.1318329854
 20
37.1105139958
 10
-32.1358600723
 20
37.1128684084
 10
-32.1398508022
 20
37.1152883763
 10
-32.1438019821
 20
37.1177754139
 10
-32.1477104191
 20
37.1203310356
 10
-32.1515729204
 20
37.1229567559
 10
-32.1553862929
 20
37.1256540891
 10
-32.1591473438
 20
37.1284245498
 10
-32.16285288
 20
37.1312696522
 10
-32.1664997088
 20
37.1341909109
 10
-32.1700846372
 20
37.1371898403
 10
-32.1731945602
 20
37.1399026112
 10
-32.1762494282
 20
37.1426781299
 10
-32.179244899
 20
37.1455174525
 10
-32.1821766307
 20
37.148421635
 10
-32.1850402813
 20
37.1513917336
 10
-32.1878315087
 20
37.1544288042
 10
-32.190545971
 20
37.1575339031
 10
-32.1931793262
 20
37.1607080862
 10
-32.1957272323
 20
37.1639524096
 10
-32.1981853472
 20
37.1672679293
 10
-32.2000895101
 20
37.1699801442
 10
-32.201929217
 20
37.1727381357
 10
-32.2037006128
 20
37.1755411658
 10
-32.2053998426
 20
37.1783884967
 10
-32.2070230512
 20
37.1812793903
 10
-32.2085663836
 20
37.1842131087
 10
-32.2100259848
 20
37.1871889138
 10
-32.2113979996
 20
37.1902060677
 10
-32.2126785732
 20
37.1932638325
 10
-32.2138638503
 20
37.1963614701
 10
-32.214949976
 20
37.1994982425
 10
-32.2158587723
 20
37.2024183793
 10
-32.2166784056
 20
37.2053673113
 10
-32.2174069513
 20
37.2083413145
 10
-32.2180424846
 20
37.2113366652
 10
-32.2185830808
 20
37.2143496394
 10
-32.2190268151
 20
37.2173765132
 10
-32.219371763
 20
37.2204135628
 10
-32.2196159996
 20
37.2234570641
 10
-32.2197576002
 20
37.2265032935
 10
-32.2197946402
 20
37.2295485268
 10
-32.2197251948
 20
37.2325890403
  0
LWPOLYLINE
  5
2D8
100
AcDbEntity
  8
RACCORDO
100
AcDbPolyline
 62
7
  6
CONTINUOUS
 90
43
 70
0
 10
7.7472590954
 20
13.4015677477
 10
7.7405525556
 20
13.4054895736
 10
7.7339066515
 20
13.4095207041
 10
7.7273266981
 20
13.4136636469
 10
7.7208180102
 20
13.4179209095
 10
7.714385903
 20
13.4222949999
 10
7.7080356913
 20
13.4267884257
 10
7.7017726901
 20
13.4314036946
 10
7.6956022143
 20
13.4361433143
 10
7.6895295789
 20
13.4410097925
 10
7.6835600989
 20
13.4460056371
 10
7.6783790418
 20
13.4505270569
 10
7.6732897912
 20
13.4551530583
 10
7.6682995607
 20
13.4598853779
 10
7.6634155638
 20
13.4647257525
 10
7.6586450143
 20
13.4696759188
 10
7.6539951255
 20
13.4747376135
 10
7.6494731112
 20
13.4799125733
 10
7.6450861849
 20
13.4852025349
 10
7.6408415601
 20
13.4906092351
 10
7.6367464505
 20
13.4961344106
 10
7.6335720057
 20
13.5006571653
 10
7.6305049818
 20
13.5052561766
 10
7.6275517636
 20
13.5099302054
 10
7.6247187361
 20
13.5146780132
 10
7.6220122842
 20
13.5194983609
 10
7.6194387928
 20
13.5243900099
 10
7.6170046467
 20
13.5293517213
 10
7.6147162309
 20
13.5343822562
 10
7.6125799302
 20
13.539480376
 10
7.6106021296
 20
13.5446448417
 10
7.608789214
 20
13.5498744146
 10
7.6072708731
 20
13.5547455134
 10
7.6059009383
 20
13.559664589
 10
7.6046825965
 20
13.5646254642
 10
7.6036190348
 20
13.5696219622
 10
7.6027134404
 20
13.5746479058
 10
7.6019690002
 20
13.5796971181
 10
7.6013889014
 20
13.5847634221
 10
7.6009763309
 20
13.5898406407
 10
7.6007344758
 20
13.5949225971
 10
7.6006665233
 20
13.6000031141
 10
7.6007756603
 20
13.6050760148
  0
LINE
  5
2D9
100
AcDbEntity
  8
RACCORDO
100
AcDbLine
 62
7
  6
CONTINUOUS
 10
6.9762240606
 20
14.767862722
 11
6.9828185624
 21
14.7640047449
  0
LWPOLYLINE
  5
2DA
100
AcDbEntity
  8
RACCORDO
100
AcDbPolyline
 62
7
  6
CONTINUOUS
 90
31
 70
0
 10
6.8731493981
 20
15.0188259782
 10
6.8983349495
 20
15.0038670789
 10
6.9231622498
 20
14.98829775
 10
6.9476293923
 20
14.9721454822
 10
6.9717344701
 20
14.9554377664
 10
6.9954755764
 20
14.9382020933
 10
7.0188508045
 20
14.9204659538
 10
7.0418582475
 20
14.9022568386
 10
7.0644959987
 20
14.8836022386
 10
7.0885481113
 20
14.8629663917
 10
7.1121714353
 20
14.8418579947
 10
7.135371324
 20
14.8202928441
 10
7.1581531311
 20
14.7982867361
 10
7.18052221
 20
14.7758554672
 10
7.2024839144
 20
14.7530148338
 10
7.2240435976
 20
14.7297806322
 10
7.2452066134
 20
14.7061686588
 10
7.2704027344
 20
14.6769798215
 10
7.2950174359
 20
14.6472758107
 10
7.3190474873
 20
14.6170762922
 10
7.3424896581
 20
14.5864009322
 10
7.365340718
 20
14.5552693966
 10
7.3875974363
 20
14.5237013514
 10
7.4092565826
 20
14.4917164627
 10
7.4303149265
 20
14.4593343963
 10
7.4507692373
 20
14.4265748184
 10
7.4706162847
 20
14.3934573949
 10
7.4898528382
 20
14.3600017919
 10
7.5084756672
 20
14.3262276752
 10
7.5264815413
 20
14.2921547111
 10
7.54386723
 20
14.2578025653
  0
LINE
  5
2DB
100
AcDbEntity
  8
RACCORDO
100
AcDbLine
 62
7
  6
CONTINUOUS
 10
6.9828185624
 20
14.7640047449
 11
7.0094278915
 21
14.7474396082
  0
LINE
  5
2DC
100
AcDbEntity
  8
RACCORDO
100
AcDbLine
 62
7
  6
CONTINUOUS
 10
7.5892704431
 20
13.7877688213
 11
7.5951344554
 21
13.7434324268
  0
LINE
  5
2DD
100
AcDbEntity
  8
RACCORDO
100
AcDbLine
 62
7
  6
CONTINUOUS
 10
7.2843188308
 20
-10.4264081324
 11
7.334147263
 21
-13.3817316537
  0
LINE
  5
2DE
100
AcDbEntity
  8
RACCORDO
100
AcDbLine
 62
7
  6
CONTINUOUS
 10
7.2544282954
 20
-7.4579640461
 11
7.2843188308
 21
-10.4264081324
  0
LINE
  5
2DF
100
AcDbEntity
  8
RACCORDO
100
AcDbLine
 62
7
  6
CONTINUOUS
 10
7.6010109854
 20
13.6611584687
 11
7.6012763747
 21
13.6237827146
  0
LINE
  5
2E0
100
AcDbEntity
  8
RACCORDO
100
AcDbLine
 62
7
  6
CONTINUOUS
 10
7.2444765399
 20
-4.4765832753
 11
7.2544282954
 21
-7.4579640461
  0
LINE
  5
2E1
100
AcDbEntity
  8
RACCORDO
100
AcDbLine
 62
7
  6
CONTINUOUS
 10
7.2544640764
 20
-1.4824578761
 11
7.2444765399
 21
-4.4765832753
  0
LINE
  5
2E2
100
AcDbEntity
  8
RACCORDO
100
AcDbLine
 62
7
  6
CONTINUOUS
 10
7.2843893039
 20
1.5242188362
 11
7.2544640764
 21
-1.4824578761
  0
LINE
  5
2E3
100
AcDbEntity
  8
RACCORDO
100
AcDbLine
 62
7
  6
CONTINUOUS
 10
7.3342502701
 20
4.5432612575
 11
7.2843893039
 21
1.5242188362
  0
LINE
  5
2E4
100
AcDbEntity
  8
RACCORDO
100
AcDbLine
 62
7
  6
CONTINUOUS
 10
7.6013647415
 20
-22.1322238035
 11
7.6009535008
 21
-22.1566612251
  0
LINE
  5
2E5
100
AcDbEntity
  8
RACCORDO
100
AcDbLine
 62
7
  6
CONTINUOUS
 10
7.4040441659
 20
7.5744728281
 11
7.3342502701
 21
4.5432612575
  0
LINE
  5
2E6
100
AcDbEntity
  8
RACCORDO
100
AcDbLine
 62
7
  6
CONTINUOUS
 10
7.6012763747
 20
13.6237827146
 11
7.6007747869
 21
13.6051316867
  0
LINE
  5
2E7
100
AcDbEntity
  8
RACCORDO
100
AcDbLine
 62
7
  6
CONTINUOUS
 10
7.4937643285
 20
10.6176289561
 11
7.4040441659
 21
7.5744728281
  0
LINE
  5
2E8
100
AcDbEntity
  8
RACCORDO
100
AcDbLine
 62
7
  6
CONTINUOUS
 10
7.6007732421
 20
13.6050761091
 11
7.4937643285
 21
10.6176289561
  0
LWPOLYLINE
  5
2E9
100
AcDbEntity
  8
RACCORDO
100
AcDbPolyline
 62
7
  6
CONTINUOUS
 90
43
 70
0
 10
6.8731493981
 20
15.0188259782
 10
6.8728424592
 20
15.0105074493
 10
6.8726744879
 20
15.0021805608
 10
6.8726506703
 20
14.9938489186
 10
6.8727761926
 20
14.9855161286
 10
6.8730562408
 20
14.9771857967
 10
6.8734960012
 20
14.9688615285
 10
6.8741006599
 20
14.9605469301
 10
6.8748754029
 20
14.9522456072
 10
6.8758254166
 20
14.9439611657
 10
6.8769558869
 20
14.9356972115
 10
6.8781177017
 20
14.9283662477
 10
6.8794317409
 20
14.9210599904
 10
6.8809033129
 20
14.9137840793
 10
6.8825377261
 20
14.9065441541
 10
6.8843402892
 20
14.8993458542
 10
6.8863163107
 20
14.8921948194
 10
6.888471099
 20
14.8850966891
 10
6.8908099627
 20
14.878057103
 10
6.8933382103
 20
14.8710817006
 10
6.8960611504
 20
14.8641761216
 10
6.8984124383
 20
14.8586395094
 10
6.9008971136
 20
14.8531588372
 10
6.9035174035
 20
14.8477405568
 10
6.9062755354
 20
14.8423911199
 10
6.9091737366
 20
14.8371169783
 10
6.9122142346
 20
14.8319245836
 10
6.9153992566
 20
14.8268203876
 10
6.9187310301
 20
14.821810842
 10
6.9222117822
 20
14.8169023985
 10
6.9258437405
 20
14.8121015089
 10
6.9296291323
 20
14.8074146248
 10
6.9332729026
 20
14.8031812403
 10
6.9370462578
 20
14.7990573417
 10
6.9409452581
 20
14.7950490872
 10
6.9449659634
 20
14.7911626351
 10
6.9491044338
 20
14.7874041437
 10
6.9533567292
 20
14.7837797711
 10
6.9577189096
 20
14.7802956757
 10
6.9621870352
 20
14.7769580157
 10
6.9667571658
 20
14.7737729494
 10
6.9714253615
 20
14.770746635
 10
6.9761876823
 20
14.7678852308
  0
LINE
  5
2EA
100
AcDbEntity
  8
RACCORDO
100
AcDbLine
 62
7
  6
CONTINUOUS
 10
-30.4899046622
 20
55.9378819459
 11
-30.5126886395
 21
55.8908821867
  0
LINE
  5
2EB
100
AcDbEntity
  8
RACCORDO
100
AcDbLine
 62
7
  6
CONTINUOUS
 10
32.611835309
 20
-53.0534252393
 11
32.6521277225
 21
-53.0487244285
  0
LINE
  5
2EC
100
AcDbEntity
  8
RACCORDO
100
AcDbLine
 62
7
  6
CONTINUOUS
 10
-8.2133923719
 20
23.5325669722
 11
-8.1881013833
 21
23.5214026007
  0
LINE
  5
2ED
100
AcDbEntity
  8
RACCORDO
100
AcDbLine
 62
7
  6
CONTINUOUS
 10
-8.1881013833
 20
23.5214026007
 11
-8.1611633768
 21
23.5077148303
  0
LWPOLYLINE
  5
2EE
100
AcDbEntity
  8
RACCORDO
100
AcDbPolyline
 62
7
  6
CONTINUOUS
 90
39
 70
0
 10
32.1377668619
 20
-52.8473706949
 10
32.13834861
 20
-52.8505359875
 10
32.1389791209
 20
-52.8536968317
 10
32.1396598662
 20
-52.8568512259
 10
32.1403923178
 20
-52.8599971688
 10
32.1411779474
 20
-52.863132659
 10
32.1420182267
 20
-52.8662556951
 10
32.1429146276
 20
-52.8693642757
 10
32.1438686217
 20
-52.8724563993
 10
32.1448816808
 20
-52.8755300646
 10
32.1459552767
 20
-52.8785832702
 10
32.1470908811
 20
-52.8816140146
 10
32.1482899659
 20
-52.8846202965
 10
32.1495540026
 20
-52.8876001145
 10
32.1508844632
 20
-52.8905514671
 10
32.1522828193
 20
-52.8934723529
 10
32.1537505427
 20
-52.8963607706
 10
32.1552891052
 20
-52.8992147188
 10
32.1568999786
 20
-52.902032196
 10
32.1585846345
 20
-52.9048112008
 10
32.1601103721
 20
-52.9071947418
 10
32.1616921411
 20
-52.9095453577
 10
32.1633290693
 20
-52.9118607274
 10
32.1650202843
 20
-52.9141385301
 10
32.1667649139
 20
-52.9163764447
 10
32.1685620859
 20
-52.9185721504
 10
32.170410928
 20
-52.9207233263
 10
32.1723105679
 20
-52.9228276513
 10
32.1742601334
 20
-52.9248828047
 10
32.1762587523
 20
-52.9268864653
 10
32.1783055523
 20
-52.9288363124
 10
32.1803996611
 20
-52.9307300249
 10
32.1825402065
 20
-52.932565282
 10
32.1847263162
 20
-52.9343397627
 10
32.186957118
 20
-52.9360511461
 10
32.1892317396
 20
-52.9376971112
 10
32.1915493088
 20
-52.9392753371
 10
32.1939089533
 20
-52.9407835029
 10
32.1963098009
 20
-52.9422192876
  0
LWPOLYLINE
  5
2EF
100
AcDbEntity
  8
RACCORDO
100
AcDbPolyline
 62
7
  6
CONTINUOUS
 90
15
 70
0
 10
32.5360978706
 20
-52.6053824191
 10
32.3624007454
 20
-51.6130267605
 10
32.1973145858
 20
-50.6191873295
 10
32.0407400536
 20
-49.623924203
 10
31.8925778107
 20
-48.6272974578
 10
31.7204492241
 20
-47.3900880216
 10
31.5609344994
 20
-46.151051896
 10
31.4138737823
 20
-44.9103654197
 10
31.2791072183
 20
-43.6682049315
 10
31.156474953
 20
-42.4247467702
 10
31.0458171318
 20
-41.1801672746
 10
30.9469739004
 20
-39.9346427833
 10
30.8597854043
 20
-38.6883496351
 10
30.7840917891
 20
-37.4414641689
 10
30.7197332003
 20
-36.1941627234
  0
LWPOLYLINE
  5
2F0
100
AcDbEntity
  8
RACCORDO
100
AcDbPolyline
 62
7
  6
CONTINUOUS
 90
15
 70
0
 10
32.9456070906
 20
-52.5701304984
 10
32.772206518
 20
-51.5795476725
 10
32.6074019338
 20
-50.5874835377
 10
32.4510942462
 20
-49.5939980563
 10
32.3031843635
 20
-48.5991511908
 10
32.1313496328
 20
-47.3641569512
 10
31.9721070607
 20
-46.1273390089
 10
31.8252970898
 20
-44.8888734125
 10
31.6907601629
 20
-43.6489362103
 10
31.5683367225
 20
-42.4077034508
 10
31.4578672113
 20
-41.1653511825
 10
31.3591920718
 20
-39.9220554537
 10
31.2721517469
 20
-38.677992313
 10
31.196586679
 20
-37.4333378087
 10
31.1323373108
 20
-36.1882679893
  0
LWPOLYLINE
  5
2F1
100
AcDbEntity
  8
RACCORDO
100
AcDbPolyline
 62
7
  6
CONTINUOUS
 90
13
 70
0
 10
30.7197332721
 20
-36.1941627649
 10
30.5914111048
 20
-33.2187907682
 10
30.486453209
 20
-30.2424563144
 10
30.4045791805
 20
-27.2652660049
 10
30.3443840965
 20
-24.216478557
 10
30.3078232457
 20
-21.1671366773
 10
30.2946292852
 20
-18.1174712688
 10
30.3045348726
 20
-15.0677132346
 10
30.3372726651
 20
-12.0180934779
 10
30.3925753201
 20
-8.9688429018
 10
30.4701754949
 20
-5.9201924094
 10
30.5698058469
 20
-2.8723729037
 10
30.6911990333
 20
0.174384712
  0
LWPOLYLINE
  5
2F2
100
AcDbEntity
  8
RACCORDO
100
AcDbPolyline
 62
7
  6
CONTINUOUS
 90
13
 70
0
 10
31.1323373108
 20
-36.1882679893
 10
31.0020630109
 20
-33.1628909432
 10
30.8959564177
 20
-30.1365207717
 10
30.8137226108
 20
-27.1092700179
 10
30.7539431133
 20
-24.0080007702
 10
30.7186150129
 20
-20.9061682589
 10
30.7074571177
 20
-17.8040148745
 10
30.7201882359
 20
-14.7017830071
 10
30.7565271754
 20
-11.5997150472
 10
30.8161927446
 20
-8.498053385
 10
30.8989037514
 20
-5.3970404108
 10
31.0043790041
 20
-2.2969185151
 10
31.1323373108
 20
0.802069912
  0
LINE
  5
2F3
100
AcDbEntity
  8
RACCORDO
100
AcDbLine
 62
7
  6
CONTINUOUS
 10
7.6009535008
 20
-22.1566612251
 11
7.5996408188
 21
-22.178279457
  0
LINE
  5
2F4
100
AcDbEntity
  8
RACCORDO
100
AcDbLine
 62
7
  6
CONTINUOUS
 10
7.5996408188
 20
-22.178279457
 11
7.5976441104
 21
-22.197016918
  0
LINE
  5
2F5
100
AcDbEntity
  8
RACCORDO
100
AcDbLine
 62
7
  6
CONTINUOUS
 10
-30.4646345451
 20
55.9824083636
 11
-30.4899046622
 21
55.9378819459
  0
LINE
  5
2F6
100
AcDbEntity
  8
RACCORDO
100
AcDbLine
 62
7
  6
CONTINUOUS
 10
32.6521277225
 20
-53.0487244285
 11
32.6914314642
 21
-53.0409070203
  0
LINE
  5
2F7
100
AcDbEntity
  8
RACCORDO
100
AcDbLine
 62
7
  6
CONTINUOUS
 10
-8.2575080051
 20
23.5475652054
 11
-8.2367043659
 21
23.5412665134
  0
LINE
  5
2F8
100
AcDbEntity
  8
RACCORDO
100
AcDbLine
 62
7
  6
CONTINUOUS
 10
-8.2367043659
 20
23.5412665134
 11
-8.2133923719
 21
23.5325669722
  0
LWPOLYLINE
  5
2F9
100
AcDbEntity
  8
RACCORDO
100
AcDbPolyline
 62
7
  6
CONTINUOUS
 90
43
 70
0
 10
-29.717840049
 20
56.1763746605
 10
-29.7322482191
 20
56.1842417365
 10
-29.7468201242
 20
56.1918270108
 10
-29.7615515446
 20
56.1991168797
 10
-29.7764382609
 20
56.2060977398
 10
-29.7914760534
 20
56.2127559873
 10
-29.8066607027
 20
56.2190780187
 10
-29.8219879892
 20
56.2250502302
 10
-29.8374536933
 20
56.2306590184
 10
-29.8530535956
 20
56.2358907796
 10
-29.8687834765
 20
56.2407319101
 10
-29.8819035739
 20
56.2444350681
 10
-29.8951033253
 20
56.2478517358
 10
-29.908376152
 20
56.2509726058
 10
-29.9217154754
 20
56.2537883705
 10
-29.9351147166
 20
56.2562897225
 10
-29.9485672971
 20
56.2584673542
 10
-29.962066638
 20
56.2603119581
 10
-29.9756061608
 20
56.2618142267
 10
-29.9891792865
 20
56.2629648525
 10
-30.0027794367
 20
56.263754528
 10
-30.0164000324
 20
56.2641739457
 10
-30.0290713051
 20
56.2642241581
 10
-30.0417438775
 20
56.2639421842
 10
-30.05440707
 20
56.2633237325
 10
-30.067050203
 20
56.2623645112
 10
-30.0796625971
 20
56.2610602288
 10
-30.0922335728
 20
56.2594065936
 10
-30.1047524504
 20
56.2573993139
 10
-30.1172085504
 20
56.2550340981
 10
-30.1295911933
 20
56.2523066546
 10
-30.1418896996
 20
56.2492126917
 10
-30.1540933898
 20
56.2457479178
 10
-30.1670532648
 20
56.2416208623
 10
-30.1798769925
 20
56.2370715212
 10
-30.192549571
 20
56.2321083553
 10
-30.2050559981
 20
56.2267398255
 10
-30.217381272
 20
56.2209743926
 10
-30.2295103904
 20
56.2148205172
 10
-30.2414283514
 20
56.2082866603
 10
-30.2531201529
 20
56.2013812826
 10
-30.264570793
 20
56.1941128449
 10
-30.2757652696
 20
56.186489808
  0
LWPOLYLINE
  5
2FA
100
AcDbEntity
  8
RACCORDO
100
AcDbPolyline
 62
7
  6
CONTINUOUS
 90
61
 70
0
 10
-29.9153445554
 20
55.8622024662
 10
-29.9274285721
 20
55.8689679954
 10
-29.9397371135
 20
55.8754318674
 10
-29.9522552538
 20
55.881575115
 10
-29.9649680667
 20
55.8873787712
 10
-29.9778606264
 20
55.8928238688
 10
-29.9909180068
 20
55.8978914405
 10
-30.004125282
 20
55.9025625192
 10
-30.0174675258
 20
55.9068181378
 10
-30.0309298124
 20
55.910639329
 10
-30.0444972156
 20
55.9140071258
 10
-30.0581548095
 20
55.916902561
 10
-30.071887668
 20
55.9193066673
 10
-30.0856808652
 20
55.9212004777
 10
-30.0995194751
 20
55.9225650249
 10
-30.1133885715
 20
55.9233813419
 10
-30.125280334
 20
55.9236317124
 10
-30.1371682234
 20
55.9234625196
 10
-30.1490369497
 20
55.922870357
 10
-30.160871223
 20
55.9218518179
 10
-30.1726557531
 20
55.9204034956
 10
-30.1843752501
 20
55.9185219835
 10
-30.1960144239
 20
55.9162038748
 10
-30.2075579847
 20
55.913445763
 10
-30.21881087
 20
55.9103002479
 10
-30.2299413848
 20
55.9067336934
 10
-30.2409345844
 20
55.9027545676
 10
-30.2517755244
 20
55.8983713387
 10
-30.2624492602
 20
55.8935924747
 10
-30.2729408473
 20
55.8884264438
 10
-30.2832353409
 20
55.8828817142
 10
-30.2933177967
 20
55.876966754
 10
-30.303474195
 20
55.8704927215
 10
-30.3133842254
 20
55.8636507583
 10
-30.3230426654
 20
55.8564572692
 10
-30.3324442927
 20
55.8489286587
 10
-30.3415838847
 20
55.8410813316
 10
-30.350456219
 20
55.8329316924
 10
-30.3590560731
 20
55.8244961459
 10
-30.3673782245
 20
55.8157910966
 10
-30.3771299974
 20
55.8048520599
 10
-30.3864667532
 20
55.793561809
 10
-30.3953928296
 20
55.7819442744
 10
-30.4039125641
 20
55.7700233866
 10
-30.4120302942
 20
55.757823076
 10
-30.4197503575
 20
55.7453672733
 10
-30.4270770915
 20
55.7326799088
 10
-30.434549782
 20
55.718751008
 10
-30.4415791772
 20
55.7045978789
 10
-30.4481751842
 20
55.6902381976
 10
-30.4543477099
 20
55.6756896407
 10
-30.4601066613
 20
55.6609698844
 10
-30.4654619452
 20
55.6460966051
 10
-30.4704234687
 20
55.631087479
 10
-30.475338478
 20
55.614786904
 10
-30.4798186214
 20
55.5983635145
 10
-30.4838744279
 20
55.5818316119
 10
-30.487516426
 20
55.5652054975
 10
-30.4907551445
 20
55.5484994729
 10
-30.4936011123
 20
55.5317278392
 10
-30.4960648579
 20
55.5149048981
  0
LWPOLYLINE
  5
2FB
100
AcDbEntity
  8
RACCORDO
100
AcDbPolyline
 62
7
  6
CONTINUOUS
 90
39
 70
0
 10
32.5360979138
 20
19.1209241331
 10
32.5449477961
 20
19.1158656855
 10
32.5539319635
 20
19.1110429763
 10
32.5630409082
 20
19.1064489773
 10
32.5722651224
 20
19.1020766602
 10
32.5815950985
 20
19.0979189969
 10
32.5910213287
 20
19.0939689592
 10
32.6005343053
 20
19.0902195188
 10
32.6101245206
 20
19.0866636476
 10
32.6197824667
 20
19.0832943174
 10
32.629498636
 20
19.0801044999
 10
32.6414732057
 20
19.0764316927
 10
32.6535161462
 20
19.0730156147
 10
32.6656226672
 20
19.0698539565
 10
32.6777879784
 20
19.0669444089
 10
32.6900072895
 20
19.0642846624
 10
32.70227581
 20
19.0618724078
 10
32.7145887497
 20
19.0597053355
 10
32.7269413182
 20
19.0577811364
 10
32.7393287252
 20
19.056097501
 10
32.7515539226
 20
19.0546740506
 10
32.7638044407
 20
19.0534875196
 10
32.7760764753
 20
19.0525438907
 10
32.788366222
 20
19.0518491465
 10
32.8006698762
 20
19.0514092698
 10
32.8129836337
 20
19.0512302433
 10
32.82530369
 20
19.0513180496
 10
32.8376262407
 20
19.0516786715
 10
32.8499474815
 20
19.0523180916
 10
32.8596763113
 20
19.0530257091
 10
32.8693929205
 20
19.0539226612
 10
32.87908828
 20
19.0550205629
 10
32.888753361
 20
19.0563310293
 10
32.8983791344
 20
19.0578656753
 10
32.9079565712
 20
19.0596361159
 10
32.9174766425
 20
19.061653966
 10
32.9269303193
 20
19.0639308407
 10
32.9363085726
 20
19.0664783548
 10
32.9456023735
 20
19.0693081234
  0
LWPOLYLINE
  5
2FC
100
AcDbEntity
  8
RACCORDO
100
AcDbPolyline
 62
7
  6
CONTINUOUS
 90
46
 70
0
 10
-30.4960648099
 20
55.5149049158
 10
-30.5002899037
 20
55.5173303864
 10
-30.5044818401
 20
55.5198168483
 10
-30.5086373311
 20
55.5223664425
 10
-30.512753089
 20
55.5249813104
 10
-30.5168258261
 20
55.5276635932
 10
-30.5208522544
 20
55.5304154321
 10
-30.5248290864
 20
55.5332389683
 10
-30.528753034
 20
55.536136343
 10
-30.5326208096
 20
55.5391096974
 10
-30.5364291254
 20
55.5421611728
 10
-30.5393289689
 20
55.5445743013
 10
-30.5421875694
 20
55.5470370044
 10
-30.545001157
 20
55.5495509238
 10
-30.5477659621
 20
55.5521177013
 10
-30.5504782148
 20
55.5547389784
 10
-30.5531341453
 20
55.5574163969
 10
-30.5557299838
 20
55.5601515984
 10
-30.5582619605
 20
55.5629462247
 10
-30.5607263056
 20
55.5658019173
 10
-30.5631192493
 20
55.5687203179
 10
-30.5654370219
 20
55.5717030683
 10
-30.5671561319
 20
55.5740286332
 10
-30.5688245673
 20
55.5763928147
 10
-30.5704378287
 20
55.5787956287
 10
-30.5719914167
 20
55.5812370912
 10
-30.573480832
 20
55.5837172184
 10
-30.5749015751
 20
55.586236026
 10
-30.5762491466
 20
55.5887935302
 10
-30.5775190473
 20
55.5913897468
 10
-30.5787067776
 20
55.594024692
 10
-30.5798078382
 20
55.5966983816
 10
-30.5808177298
 20
55.5994108318
 10
-30.5817319528
 20
55.6021620584
 10
-30.5824479715
 20
55.6045933112
 10
-30.5830853021
 20
55.6070501629
 10
-30.583641496
 20
55.6095286867
 10
-30.5841141044
 20
55.6120249561
 10
-30.5845006788
 20
55.6145350443
 10
-30.5847987704
 20
55.6170550245
 10
-30.5850059306
 20
55.6195809702
 10
-30.5851197107
 20
55.6221089545
 10
-30.5851376621
 20
55.6246350509
 10
-30.5850573361
 20
55.6271553325
 10
-30.584876284
 20
55.6296658728
 10
-30.5845920572
 20
55.6321627449
  0
LINE
  5
2FD
100
AcDbEntity
  8
RACCORDO
100
AcDbLine
 62
7
  6
CONTINUOUS
 10
32.1377668619
 20
20.033513642
 11
-29.9153445554
 21
55.8622024662
  0
LINE
  5
2FE
100
AcDbEntity
  8
RACCORDO
100
AcDbLine
 62
7
  6
CONTINUOUS
 10
32.3352713683
 20
20.3476858363
 11
-29.717840049
 21
56.1763746605
  0
LINE
  5
2FF
100
AcDbEntity
  8
RACCORDO
100
AcDbLine
 62
7
  6
CONTINUOUS
 10
-28.1427609731
 20
57.286984739
 11
34.0845739018
 21
21.3577014739
  0
LINE
  5
300
100
AcDbEntity
  8
RACCORDO
100
AcDbLine
 62
7
  6
CONTINUOUS
 10
-25.5270801319
 20
56.8383352804
 11
35.4250396947
 21
21.645365633
  0
LWPOLYLINE
  5
301
100
AcDbEntity
  8
RACCORDO
100
AcDbPolyline
 62
7
  6
CONTINUOUS
 90
41
 70
0
 10
35.4250396947
 20
21.645365633
 10
35.4376770997
 20
21.6378211367
 10
35.4501032684
 20
21.6299072901
 10
35.4623125471
 20
21.6216338484
 10
35.4742992821
 20
21.6130105671
 10
35.4860578197
 20
21.6040472016
 10
35.4975825062
 20
21.5947535072
 10
35.5088676879
 20
21.5851392394
 10
35.5199077111
 20
21.5752141536
 10
35.530696922
 20
21.5649880051
 10
35.5412296671
 20
21.5544705493
 10
35.5515002925
 20
21.5436715417
 10
35.5615031447
 20
21.5326007376
 10
35.5712325698
 20
21.5212678924
 10
35.5806829142
 20
21.5096827615
 10
35.5898485242
 20
21.4978551002
 10
35.5987237461
 20
21.4857946641
 10
35.6073029262
 20
21.4735112085
 10
35.6155804107
 20
21.4610144887
 10
35.6235505461
 20
21.4483142602
 10
35.6312076785
 20
21.4354202783
 10
35.6385465744
 20
21.4223415397
 10
35.6455611502
 20
21.4090885591
 10
35.6522457793
 20
21.3956711138
 10
35.6585948351
 20
21.3820989811
 10
35.6646026909
 20
21.3683819383
 10
35.6702637201
 20
21.3545297627
 10
35.6755722962
 20
21.3405522316
 10
35.6805227926
 20
21.3264591223
 10
35.6851095826
 20
21.312260212
 10
35.6893270396
 20
21.297965278
 10
35.6931695371
 20
21.2835840977
 10
35.6966314483
 20
21.2691264482
 10
35.6997071468
 20
21.254602107
 10
35.7023910059
 20
21.2400208513
 10
35.704677399
 20
21.2253924584
 10
35.7065606995
 20
21.2107267055
 10
35.7080352807
 20
21.19603337
 10
35.7090955162
 20
21.1813222291
 10
35.7097357792
 20
21.1666030602
 10
35.7099504432
 20
21.1518856405
  0
LINE
  5
302
100
AcDbEntity
  8
RACCORDO
100
AcDbLine
 62
7
  6
CONTINUOUS
 10
34.7907116177
 20
-51.716987172
 11
34.7907116177
 21
20.1346350741
  0
LINE
  5
303
100
AcDbEntity
  8
DRAFT
100
AcDbLine
 62
7
  6
CONTINUOUS
 10
34.9287672362
 20
-12.3600023147
 11
34.9287672362
 21
-18.0752942523
  0
LINE
  5
304
100
AcDbEntity
  8
DRAFT
100
AcDbLine
 62
7
  6
CONTINUOUS
 10
35.7099504432
 20
21.1518856405
 11
35.7099504333
 21
-10.8900178514
  0
LINE
  5
305
100
AcDbEntity
  8
DRAFT
100
AcDbLine
 62
7
  6
CONTINUOUS
 10
35.7099504333
 20
-17.1811727439
 11
35.7099504561
 21
-49.2230761039
  0
LINE
  5
306
100
AcDbEntity
  8
RACCORDO
100
AcDbLine
 62
7
  6
CONTINUOUS
 10
30.6911990333
 20
0.174384712
 11
30.6987292843
 21
0.3471165469
  0
LINE
  5
307
100
AcDbEntity
  8
RACCORDO
100
AcDbLine
 62
7
  6
CONTINUOUS
 10
30.6987292843
 20
0.3471165469
 11
30.7096548284
 21
0.5949534248
  0
LINE
  5
308
100
AcDbEntity
  8
RACCORDO
100
AcDbLine
 62
7
  6
CONTINUOUS
 10
30.7096548284
 20
0.5949534248
 11
30.7189563739
 21
0.8034457938
  0
LINE
  5
309
100
AcDbEntity
  8
RACCORDO
100
AcDbLine
 62
7
  6
CONTINUOUS
 10
7.5976441104
 20
-22.197016918
 11
7.5951749615
 21
-22.2129714383
  0
LINE
  5
30A
100
AcDbEntity
  8
RACCORDO
100
AcDbLine
 62
7
  6
CONTINUOUS
 10
-30.4369638329
 20
56.0243978017
 11
-30.4646345451
 21
55.9824083636
  0
LINE
  5
30B
100
AcDbEntity
  8
RACCORDO
100
AcDbLine
 62
7
  6
CONTINUOUS
 10
-30.4070011281
 20
56.0637394972
 11
-30.4369638329
 21
56.0243978017
  0
LINE
  5
30C
100
AcDbEntity
  8
RACCORDO
100
AcDbLine
 62
7
  6
CONTINUOUS
 10
-8.2754551585
 20
23.5516894861
 11
-8.2575080051
 21
23.5475652054
  0
LWPOLYLINE
  5
30D
100
AcDbEntity
  8
RACCORDO
100
AcDbPolyline
 62
7
  6
CONTINUOUS
 90
17
 70
0
 10
35.7099504561
 20
-49.2230761039
 10
35.7099348089
 20
-49.2270061076
 10
35.7098874472
 20
-49.2309358293
 10
35.7098077293
 20
-49.2348653367
 10
35.7096950133
 20
-49.2387946975
 10
35.7095550379
 20
-49.2425686202
 10
35.7093831658
 20
-49.246341916
 10
35.7091785343
 20
-49.2501140307
 10
35.7089402806
 20
-49.2538844101
 10
35.7086675419
 20
-49.2576525001
 10
35.7083594555
 20
-49.2614177467
 10
35.7080151585
 20
-49.2651795955
 10
35.7076337881
 20
-49.2689374926
 10
35.7072144816
 20
-49.2726908838
 10
35.7067563761
 20
-49.2764392148
 10
35.706258609
 20
-49.2801819316
 10
35.7057203173
 20
-49.2839184801
  0
LWPOLYLINE
  5
30E
100
AcDbEntity
  8
RACCORDO
100
AcDbPolyline
 62
7
  6
CONTINUOUS
 90
13
 70
0
 10
30.7197331896
 20
0.82075796
 10
30.794060175
 20
2.3208262322
 10
30.882190047
 20
3.8201793622
 10
30.9839193323
 20
5.3187598005
 10
31.1024038476
 20
6.8576933686
 10
31.2348370998
 20
8.3956113666
 10
31.3810246052
 20
9.9323747792
 10
31.5407718802
 20
11.4678445915
 10
31.713884441
 20
13.0018817882
 10
31.9001678042
 20
14.5343473542
 10
32.0994274859
 20
16.0651022745
 10
32.3114690026
 20
17.5940075338
 10
32.5360978706
 20
19.1209241172
  0
LWPOLYLINE
  5
30F
100
AcDbEntity
  8
RACCORDO
100
AcDbPolyline
 62
7
  6
CONTINUOUS
 90
13
 70
0
 10
31.1323373108
 20
0.802069912
 10
31.2065379087
 20
2.2994422603
 10
31.2945178805
 20
3.7961006153
 10
31.396074119
 20
5.2919875183
 10
31.5143568308
 20
6.828151701
 10
31.6465644918
 20
8.3633019468
 10
31.7925029401
 20
9.8972994659
 10
31.9519780135
 20
11.4300054687
 10
32.1247955503
 20
12.9612811655
 10
32.3107613883
 20
14.4909877665
 10
32.5096813657
 20
16.0189864821
 10
32.7213613204
 20
17.5451385227
 10
32.9456070906
 20
19.0693050984
  0
LWPOLYLINE
  5
310
100
AcDbEntity
  8
RACCORDO
100
AcDbPolyline
 62
7
  6
CONTINUOUS
 90
44
 70
0
 10
32.9456070906
 20
19.0693050984
 10
32.9482443322
 20
19.1019591725
 10
32.9499012224
 20
19.134696716
 10
32.9506050923
 20
19.1674931081
 10
32.9503832735
 20
19.2003237281
 10
32.9492630971
 20
19.2331639549
 10
32.9472718946
 20
19.2659891679
 10
32.9444369973
 20
19.2987747461
 10
32.9407857365
 20
19.3314960687
 10
32.9363454435
 20
19.3641285148
 10
32.9311434497
 20
19.3966474637
 10
32.9252070864
 20
19.4290282944
 10
32.9172295637
 20
19.4673021425
 10
32.9082684705
 20
19.5053291376
 10
32.8983388891
 20
19.543092287
 10
32.8874559019
 20
19.5805745977
 10
32.8756345912
 20
19.6177590769
 10
32.8628900396
 20
19.6546287317
 10
32.8492373292
 20
19.6911665691
 10
32.8346915427
 20
19.7273555962
 10
32.8192677623
 20
19.7631788203
 10
32.8029810704
 20
19.7986192482
 10
32.7860879367
 20
19.8331716192
 10
32.7683641653
 20
19.8673060204
 10
32.7498034524
 20
19.9009931921
 10
32.7303994942
 20
19.9342038744
 10
32.7101459871
 20
19.9669088076
 10
32.6890366274
 20
19.9990787318
 10
32.6670651112
 20
20.0306843873
 10
32.6442251349
 20
20.0616965144
 10
32.6205103947
 20
20.0920858531
 10
32.5959145869
 20
20.1218231437
 10
32.5769181452
 20
20.1436405742
 10
32.5574247271
 20
20.1650384952
 10
32.5374348531
 20
20.1859793664
 10
32.5169490439
 20
20.2064256478
 10
32.4959678199
 20
20.226339799
 10
32.4744917018
 20
20.2456842798
 10
32.4525212102
 20
20.2644215501
 10
32.4300568655
 20
20.2825140697
 10
32.4070991884
 20
20.2999242983
 10
32.3836486995
 20
20.3166146957
 10
32.3597059192
 20
20.3325477218
 10
32.3352713683
 20
20.3476858363
  0
LWPOLYLINE
  5
311
100
AcDbEntity
  8
RACCORDO
100
AcDbPolyline
 62
7
  6
CONTINUOUS
 90
46
 70
0
 10
32.5360978706
 20
19.1209241172
 10
32.5389583638
 20
19.1417457872
 10
32.5412611576
 20
19.162645774
 10
32.5430197166
 20
19.1836064621
 10
32.5442475056
 20
19.2046102359
 10
32.5449579892
 20
19.2256394796
 10
32.5451646321
 20
19.2466765778
 10
32.544725717
 20
19.2732045174
 10
32.5435230855
 20
19.299702648
 10
32.5415735288
 20
19.326156697
 10
32.5388938378
 20
19.352552392
 10
32.5355008038
 20
19.3788754604
 10
32.5315383581
 20
19.4043525397
 10
32.5269291486
 20
19.4297291752
 10
32.5216832172
 20
19.4549868637
 10
32.5158106054
 20
19.480107102
 10
32.5093213549
 20
19.5050713868
 10
32.5022255075
 20
19.5298612148
 10
32.4945331049
 20
19.5544580828
 10
32.4862541887
 20
19.5788434875
 10
32.4773747618
 20
19.6030563049
 10
32.4679081278
 20
19.6270323495
 10
32.4578462039
 20
19.6507658733
 10
32.4471809073
 20
19.6742511284
 10
32.4359041554
 20
19.6974823666
 10
32.4240078655
 20
19.7204538401
 10
32.4114839547
 20
19.7431598007
 10
32.3983243404
 20
19.7655945005
 10
32.3872689829
 20
19.7834425852
 10
32.3757990507
 20
19.8010845692
 10
32.3639168341
 20
19.8184937211
 10
32.3516246234
 20
19.8356433091
 10
32.3389247089
 20
19.8525066017
 10
32.325819381
 20
19.8690568673
 10
32.3123109298
 20
19.8852673742
 10
32.2984016457
 20
19.9011113909
 10
32.2840938191
 20
19.9165621858
 10
32.2693897401
 20
19.9315930272
 10
32.2542916992
 20
19.9461771836
 10
32.2388019865
 20
19.9602879233
 10
32.2229228925
 20
19.9738985148
 10
32.2066567074
 20
19.9869822264
 10
32.1900057214
 20
19.9995123265
 10
32.172972225
 20
20.0114620836
 10
32.1555585084
 20
20.0228047659
 10
32.1377668619
 20
20.033513642
  0
LINE
  5
312
100
AcDbEntity
  8
RACCORDO
100
AcDbLine
 62
7
  6
CONTINUOUS
 10
7.5951749615
 20
-22.2129714383
 11
7.5924280027
 21
-22.226294318
  0
LINE
  5
313
100
AcDbEntity
  8
RACCORDO
100
AcDbLine
 62
7
  6
CONTINUOUS
 10
7.5924280027
 20
-22.226294318
 11
7.5896179836
 21
-22.2370285239
  0
LINE
  5
314
100
AcDbEntity
  8
RACCORDO
100
AcDbLine
 62
7
  6
CONTINUOUS
 10
-8.290331916
 20
23.5539718299
 11
-8.2754551585
 21
23.5516894861
  0
LINE
  5
315
100
AcDbEntity
  8
RACCORDO
100
AcDbLine
 62
7
  6
CONTINUOUS
 10
-25.6844684023
 20
56.9034998389
 11
-25.8815496377
 21
56.9716197971
  0
LINE
  5
316
100
AcDbEntity
  8
RACCORDO
100
AcDbLine
 62
7
  6
CONTINUOUS
 10
-25.5782581673
 20
56.8630174279
 11
-25.6844684023
 21
56.9034998389
  0
LWPOLYLINE
  5
317
100
AcDbEntity
  8
RACCORDO
100
AcDbPolyline
 62
7
  6
CONTINUOUS
 90
15
 70
0
 10
-25.5782581084
 20
56.8630168968
 10
-25.5748259106
 20
56.8616442854
 10
-25.571408512
 20
56.8602349542
 10
-25.5680057672
 20
56.8587900437
 10
-25.564617531
 20
56.8573106945
 10
-25.5607801064
 20
56.8555870778
 10
-25.5569612754
 20
56.8538215727
 10
-25.553161039
 20
56.8520153938
 10
-25.5493793985
 20
56.8501697553
 10
-25.5456163549
 20
56.8482858718
 10
-25.5418719094
 20
56.8463649574
 10
-25.5381460632
 20
56.8444082268
 10
-25.5344388175
 20
56.8424168941
 10
-25.5307501733
 20
56.8403921739
 10
-25.5270801319
 20
56.8383352804
  0
LWPOLYLINE
  5
318
100
AcDbEntity
  8
RACCORDO
100
AcDbPolyline
 62
7
  6
CONTINUOUS
 90
38
 70
0
 10
32.1377668619
 20
20.033513642
 10
32.1394168811
 20
20.0437858981
 10
32.1413474131
 20
20.0540142813
 10
32.1435489785
 20
20.0641937904
 10
32.1460120977
 20
20.0743194242
 10
32.1487272916
 20
20.0843861817
 10
32.1516850806
 20
20.0943890617
 10
32.1548759853
 20
20.104323063
 10
32.1582905263
 20
20.1141831845
 10
32.1619192242
 20
20.123964425
 10
32.1659958331
 20
20.134255197
 10
32.1702992333
 20
20.1444482896
 10
32.174825616
 20
20.1545405295
 10
32.1795711722
 20
20.1645287433
 10
32.184532093
 20
20.1744097576
 10
32.1897045693
 20
20.184180399
 10
32.1950847924
 20
20.1938374941
 10
32.2006689531
 20
20.2033778695
 10
32.2064532427
 20
20.2127983518
 10
32.2123472471
 20
20.2219625168
 10
32.2184325808
 20
20.2310008958
 10
32.224709855
 20
20.2399072579
 10
32.231179681
 20
20.2486753722
 10
32.2378426698
 20
20.2572990076
 10
32.2446994327
 20
20.2657719333
 10
32.2517505809
 20
20.2740879182
 10
32.2589967257
 20
20.2822407314
 10
32.2664384781
 20
20.290224142
 10
32.2727173419
 20
20.2966691354
 10
32.2791297134
 20
20.3029850633
 10
32.285675896
 20
20.3091620898
 10
32.292356193
 20
20.3151903793
 10
32.2991709079
 20
20.3210600959
 10
32.306120344
 20
20.326761404
 10
32.3132048047
 20
20.3322844678
 10
32.3204245934
 20
20.3376194516
 10
32.3277800134
 20
20.3427565197
 10
32.3352713683
 20
20.3476858363
  0
LINE
  5
319
100
AcDbEntity
  8
RACCORDO
100
AcDbLine
 62
7
  6
CONTINUOUS
 10
7.5896179836
 20
-22.2370285239
 11
7.5869982005
 21
-22.2451494561
  0
LINE
  5
31A
100
AcDbEntity
  8
RACCORDO
100
AcDbLine
 62
7
  6
CONTINUOUS
 10
-30.3748718967
 20
56.1003254005
 11
-30.4070011281
 21
56.0637394972
  0
LINE
  5
31B
100
AcDbEntity
  8
RACCORDO
100
AcDbLine
 62
7
  6
CONTINUOUS
 10
-8.3017615895
 20
23.5547964426
 11
-8.290331916
 21
23.5539718299
  0
LINE
  5
31C
100
AcDbEntity
  8
RACCORDO
100
AcDbLine
 62
7
  6
CONTINUOUS
 10
-25.8815496377
 20
56.9716197971
 11
-26.0751669675
 21
57.0295574826
  0
LINE
  5
31D
100
AcDbEntity
  8
RACCORDO
100
AcDbLine
 62
7
  6
CONTINUOUS
 10
35.6887099383
 20
-49.390112155
 11
35.7057207797
 21
-49.2839188208
  0
LWPOLYLINE
  5
31E
100
AcDbEntity
  8
RACCORDO
100
AcDbPolyline
 62
7
  6
CONTINUOUS
 90
24
 70
0
 10
35.6927847248
 20
-49.3295796289
 10
35.6816232115
 20
-49.3918370284
 10
35.6696314824
 20
-49.4539579218
 10
35.6567945636
 20
-49.5159241089
 10
35.6430974815
 20
-49.5777173894
 10
35.6285252621
 20
-49.6393195631
 10
35.6130629318
 20
-49.70071243
 10
35.5966955166
 20
-49.7618777896
 10
35.5794080428
 20
-49.8227974418
 10
35.5611855367
 20
-49.8834531865
 10
35.5420130243
 20
-49.9438268234
 10
35.5218755319
 20
-50.0039001523
 10
35.5031690084
 20
-50.0569885115
 10
35.4836825005
 20
-50.1098038854
 10
35.4634090863
 20
-50.1623245521
 10
35.4423418441
 20
-50.2145287899
 10
35.420473852
 20
-50.2663948771
 10
35.3977981882
 20
-50.3179010918
 10
35.3743079309
 20
-50.3690257125
 10
35.3499961584
 20
-50.4197470172
 10
35.3248559487
 20
-50.4700432843
 10
35.2988803801
 20
-50.5198927921
 10
35.2720625307
 20
-50.5692738187
 10
35.2443954788
 20
-50.6181646425
  0
LINE
  5
31F
100
AcDbEntity
  8
RACCORDO
100
AcDbLine
 62
7
  6
CONTINUOUS
 10
35.6494218621
 20
-49.5948792928
 11
35.6887099383
 21
-49.390112155
  0
LINE
  5
320
100
AcDbEntity
  8
RACCORDO
100
AcDbLine
 62
7
  6
CONTINUOUS
 10
7.5869982005
 20
-22.2451494561
 11
7.5848737038
 21
-22.2506014699
  0
LINE
  5
321
100
AcDbEntity
  8
RACCORDO
100
AcDbLine
 62
7
  6
CONTINUOUS
 10
-30.3407056192
 20
56.1340705928
 11
-30.3748718967
 21
56.1003254005
  0
LINE
  5
322
100
AcDbEntity
  8
RACCORDO
100
AcDbLine
 62
7
  6
CONTINUOUS
 10
-26.2649418954
 20
57.0775232237
 11
-26.4505214827
 21
57.1157770058
  0
LINE
  5
323
100
AcDbEntity
  8
RACCORDO
100
AcDbLine
 62
7
  6
CONTINUOUS
 10
-26.0751669675
 20
57.0295574826
 11
-26.2649418954
 21
57.0775232237
  0
LINE
  5
324
100
AcDbEntity
  8
RACCORDO
100
AcDbLine
 62
7
  6
CONTINUOUS
 10
35.6030497526
 20
-49.7915821398
 11
35.6494218621
 21
-49.5948792928
  0
LINE
  5
325
100
AcDbEntity
  8
RACCORDO
100
AcDbLine
 62
7
  6
CONTINUOUS
 10
7.5848737038
 20
-22.2506014699
 11
7.5835729298
 21
-22.2534118869
  0
LINE
  5
326
100
AcDbEntity
  8
RACCORDO
100
AcDbLine
 62
7
  6
CONTINUOUS
 10
-30.3046562339
 20
56.1648725077
 11
-30.3407056192
 21
56.1340705928
  0
LINE
  5
327
100
AcDbEntity
  8
RACCORDO
100
AcDbLine
 62
7
  6
CONTINUOUS
 10
-8.3093574121
 20
23.5546931656
 11
-8.3017615895
 21
23.5547964426
  0
LINE
  5
328
100
AcDbEntity
  8
RACCORDO
100
AcDbLine
 62
7
  6
CONTINUOUS
 10
-26.4505214827
 20
57.1157770058
 11
-26.6315900094
 21
57.144620081
  0
LINE
  5
329
100
AcDbEntity
  8
RACCORDO
100
AcDbLine
 62
7
  6
CONTINUOUS
 10
35.5499630008
 20
-49.9800017451
 11
35.6030497526
 21
-49.7915821398
  0
LWPOLYLINE
  5
32A
100
AcDbEntity
  8
0
100
AcDbPolyline
 62
7
  6
CONTINUOUS
 90
29
 70
0
 10
3.3283299715
 20
-23.8738144166
 10
3.326427836
 20
-23.8774054514
 10
3.3244737408
 20
-23.8809715969
 10
3.3224668648
 20
-23.8845107506
 10
3.3204063865
 20
-23.88802081
 10
3.3182914846
 20
-23.8914996726
 10
3.3161213378
 20
-23.8949452358
 10
3.3138951248
 20
-23.8983553972
 10
3.3116120242
 20
-23.9017280543
 10
3.3092712148
 20
-23.9050611045
 10
3.3068718751
 20
-23.9083524454
 10
3.304413184
 20
-23.9115999744
 10
3.30189432
 20
-23.914801589
 10
3.2993144619
 20
-23.9179551867
 10
3.2966727882
 20
-23.921058665
 10
3.2941017715
 20
-23.9239628318
 10
3.2914752008
 20
-23.9268183358
 10
3.2887942147
 20
-23.9296237804
 10
3.2860599516
 20
-23.9323777686
 10
3.2832735498
 20
-23.9350789035
 10
3.2804361478
 20
-23.9377257884
 10
3.2775488839
 20
-23.9403170262
 10
3.2746128966
 20
-23.9428512202
 10
3.2716293242
 20
-23.9453269735
 10
3.2685993053
 20
-23.9477428892
 10
3.2655239781
 20
-23.9500975705
 10
3.2624044811
 20
-23.9523896205
 10
3.2592419526
 20
-23.9546176423
 10
3.2560375312
 20
-23.9567802391
  0
LINE
  5
32B
100
AcDbEntity
  8
RACCORDO
100
AcDbLine
 62
7
  6
CONTINUOUS
 10
-30.2759506096
 20
56.1863590276
 11
-30.3046562339
 21
56.1648725077
  0
LINE
  5
32C
100
AcDbEntity
  8
RACCORDO
100
AcDbLine
 62
7
  6
CONTINUOUS
 10
-30.2759228458
 20
56.1863799301
 11
-28.667812789
 21
57.3202806489
  0
LINE
  5
32D
100
AcDbEntity
  8
RACCORDO
100
AcDbLine
 62
7
  6
CONTINUOUS
 10
-29.717840049
 20
56.1763746605
 11
-28.1427609731
 21
57.286984739
  0
LINE
  5
32E
100
AcDbEntity
  8
RACCORDO
100
AcDbLine
 62
7
  6
CONTINUOUS
 10
-8.3134971902
 20
23.5542796961
 11
-8.3093574121
 21
23.5546931656
  0
LINE
  5
32F
100
AcDbEntity
  8
RACCORDO
100
AcDbLine
 62
7
  6
CONTINUOUS
 10
-26.6315900094
 20
57.144620081
 11
-26.8078215652
 21
57.164391952
  0
LINE
  5
330
100
AcDbEntity
  8
RACCORDO
100
AcDbLine
 62
7
  6
CONTINUOUS
 10
35.4905630106
 20
-50.1599524938
 11
35.5499630008
 21
-49.9800017451
  0
LINE
  5
331
100
AcDbEntity
  8
RACCORDO
100
AcDbLine
 62
7
  6
CONTINUOUS
 10
-8.3150795314
 20
23.5539812103
 11
-8.3134971902
 21
23.5542796961
  0
LINE
  5
332
100
AcDbEntity
  8
RACCORDO
100
AcDbLine
 62
7
  6
CONTINUOUS
 10
-26.9788581978
 20
57.1754788251
 11
-27.0723749405
 21
57.178051896
  0
LINE
  5
333
100
AcDbEntity
  8
RACCORDO
100
AcDbLine
 62
7
  6
CONTINUOUS
 10
-26.8078215652
 20
57.164391952
 11
-26.9788581978
 21
57.1754788251
  0
LINE
  5
334
100
AcDbEntity
  8
RACCORDO
100
AcDbLine
 62
7
  6
CONTINUOUS
 10
35.4252611111
 20
-50.3313195009
 11
35.4905630106
 21
-50.1599524938
  0
LINE
  5
335
100
AcDbEntity
  8
RACCORDO
100
AcDbLine
 62
7
  6
CONTINUOUS
 10
35.3545155841
 20
-50.4939855997
 11
35.4252611111
 21
-50.3313195009
  0
LWPOLYLINE
  5
336
100
AcDbEntity
  8
RACCORDO
100
AcDbPolyline
 62
7
  6
CONTINUOUS
 90
46
 70
0
 10
-8.9918989024
 20
23.7498060586
 10
-8.9795062809
 20
23.7603431874
 10
-8.9667447145
 20
23.770477498
 10
-8.9536326749
 20
23.7801954395
 10
-8.9401886338
 20
23.7894834609
 10
-8.9264310628
 20
23.7983280113
 10
-8.9123784334
 20
23.8067155398
 10
-8.8980492173
 20
23.8146324956
 10
-8.8834618861
 20
23.8220653276
 10
-8.8686349114
 20
23.8290004851
 10
-8.8535867649
 20
23.8354244171
 10
-8.8383359182
 20
23.8413235727
 10
-8.8237656325
 20
23.8464029367
 10
-8.8090457186
 20
23.8510087256
 10
-8.7941908101
 20
23.8551473478
 10
-8.7792155407
 20
23.8588252116
 10
-8.764134544
 20
23.8620487252
 10
-8.7489624536
 20
23.8648242969
 10
-8.7337139033
 20
23.867158335
 10
-8.7184035266
 20
23.8690572479
 10
-8.7030459572
 20
23.8705274437
 10
-8.6876558287
 20
23.8715753308
 10
-8.6722477748
 20
23.8722073175
 10
-8.6568364292
 20
23.872429812
 10
-8.6383690934
 20
23.8721667157
 10
-8.6199280856
 20
23.8713412731
 10
-8.6015234234
 20
23.8699707891
 10
-8.5831651245
 20
23.868072569
 10
-8.5648632069
 20
23.8656639176
 10
-8.5466276882
 20
23.8627621402
 10
-8.5284685862
 20
23.8593845418
 10
-8.5103959186
 20
23.8555484275
 10
-8.4924197033
 20
23.8512711023
 10
-8.474549958
 20
23.8465698713
 10
-8.4567967005
 20
23.8414620396
 10
-8.436993605
 20
23.8352563355
 10
-8.4173538662
 20
23.8285759111
 10
-8.3978810467
 20
23.8214377808
 10
-8.378578709
 20
23.8138589593
 10
-8.3594504158
 20
23.8058564613
 10
-8.3404997295
 20
23.7974473013
 10
-8.3217302126
 20
23.7886484939
 10
-8.3031454277
 20
23.7794770537
 10
-8.2847489373
 20
23.7699499954
 10
-8.266544304
 20
23.7600843335
 10
-8.2485350903
 20
23.7498970826
  0
LINE
  5
337
100
AcDbEntity
  8
RACCORDO
100
AcDbLine
 62
7
  6
CONTINUOUS
 10
-27.1404715405
 20
57.178331342
 11
-27.271552989
 21
57.1749903162
  0
LINE
  5
338
100
AcDbEntity
  8
RACCORDO
100
AcDbLine
 62
7
  6
CONTINUOUS
 10
-27.0724088667
 20
57.1780523455
 11
-27.1404715405
 21
57.178331342
  0
LWPOLYLINE
  5
339
100
AcDbEntity
  8
RACCORDO
100
AcDbPolyline
 62
7
  6
CONTINUOUS
 90
24
 70
0
 10
-26.9643361408
 20
57.130552011
 10
-26.9079988023
 20
57.1300660555
 10
-26.851661519
 20
57.1285938986
 10
-26.7953397663
 20
57.1261525348
 10
-26.7390490196
 20
57.1227589583
 10
-26.6828047544
 20
57.1184301635
 10
-26.626622446
 20
57.1131831446
 10
-26.5705175698
 20
57.107034896
 10
-26.5145056013
 20
57.100002412
 10
-26.4586020159
 20
57.092102687
 10
-26.4028222888
 20
57.0833527152
 10
-26.3471818957
 20
57.0737694909
 10
-26.2916963118
 20
57.0633700085
 10
-26.2294266676
 20
57.0507050633
 10
-26.1673811991
 20
57.0370491581
 10
-26.1055682158
 20
57.0224245431
 10
-26.0439960271
 20
57.0068534684
 10
-25.9826729423
 20
56.9903581842
 10
-25.9216072709
 20
56.9729609408
 10
-25.8608073223
 20
56.9546839883
 10
-25.8002814058
 20
56.9355495768
 10
-25.7400378309
 20
56.9155799565
 10
-25.6800849071
 20
56.8947973777
 10
-25.6204309436
 20
56.8732240905
  0
LINE
  5
33A
100
AcDbEntity
  8
RACCORDO
100
AcDbLine
 62
7
  6
CONTINUOUS
 10
35.2788361038
 20
-50.6478312953
 11
35.3545155841
 21
-50.4939855997
  0
LINE
  5
33B
100
AcDbEntity
  8
RACCORDO
100
AcDbLine
 62
7
  6
CONTINUOUS
 10
-27.271552989
 20
57.1749903162
 11
-27.4005581698
 21
57.1665702162
  0
LINE
  5
33C
100
AcDbEntity
  8
RACCORDO
100
AcDbLine
 62
7
  6
CONTINUOUS
 10
35.2315135012
 20
-50.7354509406
 11
35.2788361038
 21
-50.6478312953
  0
LINE
  5
33D
100
AcDbEntity
  8
RACCORDO
100
AcDbLine
 62
7
  6
CONTINUOUS
 10
35.2007184397
 20
-50.7894097419
 11
35.2314953624
 21
-50.7354823774
  0
LINE
  5
33E
100
AcDbEntity
  8
RACCORDO
100
AcDbLine
 62
7
  6
CONTINUOUS
 10
-27.5273160379
 20
57.1531407182
 11
-27.6516726561
 21
57.1347789816
  0
LINE
  5
33F
100
AcDbEntity
  8
RACCORDO
100
AcDbLine
 62
7
  6
CONTINUOUS
 10
-27.4005581698
 20
57.1665702162
 11
-27.5273160379
 21
57.1531407182
  0
LINE
  5
340
100
AcDbEntity
  8
RACCORDO
100
AcDbLine
 62
7
  6
CONTINUOUS
 10
35.1325425954
 20
-50.9013045216
 11
35.2007184397
 21
-50.7894097419
  0
LWPOLYLINE
  5
341
100
AcDbEntity
  8
RACCORDO
100
AcDbPolyline
 62
7
  6
CONTINUOUS
 90
19
 70
0
 10
35.1718785631
 20
-50.7374937207
 10
35.1551611944
 20
-50.7633686917
 10
35.1381831559
 20
-50.7890729236
 10
35.1209419874
 20
-50.8146039899
 10
35.103435229
 20
-50.8399594642
 10
35.0856604208
 20
-50.8651369199
 10
35.0650562977
 20
-50.8936343081
 10
35.0441026761
 20
-50.9218890436
 10
35.02280201
 20
-50.9498932456
 10
35.0011567533
 20
-50.9776390332
 10
34.9791693599
 20
-51.0051185256
 10
34.9568422839
 20
-51.0323238419
 10
34.9341779791
 20
-51.0592471014
 10
34.9111788995
 20
-51.0858804231
 10
34.8878474992
 20
-51.1122159263
 10
34.864186232
 20
-51.1382457301
 10
34.8401975519
 20
-51.1639619536
 10
34.8158839129
 20
-51.1893567161
 10
34.7912477689
 20
-51.2144221367
  0
LINE
  5
342
100
AcDbEntity
  8
RACCORDO
100
AcDbLine
 62
7
  6
CONTINUOUS
 10
-27.6516726561
 20
57.1347789816
 11
-27.7734767807
 21
57.111594188
  0
LINE
  5
343
100
AcDbEntity
  8
RACCORDO
100
AcDbLine
 62
7
  6
CONTINUOUS
 10
35.0609991481
 20
-51.0088935395
 11
35.1325425954
 21
-50.9013045216
  0
LINE
  5
344
100
AcDbEntity
  8
RACCORDO
100
AcDbLine
 62
7
  6
CONTINUOUS
 10
34.9862222431
 20
-51.1120636597
 11
35.0609991481
 21
-51.0088935395
  0
LWPOLYLINE
  5
345
100
AcDbEntity
  8
RACCORDO
100
AcDbPolyline
 62
7
  6
CONTINUOUS
 90
19
 70
0
 10
-27.7077648774
 20
57.0360770941
 10
-27.6769165205
 20
57.0440879131
 10
-27.6459751969
 20
57.0517339826
 10
-27.6149435803
 20
57.0590159794
 10
-27.5838243445
 20
57.0659345802
 10
-27.552620163
 20
57.072490462
 10
-27.5161826319
 20
57.0796684231
 10
-27.4796423507
 20
57.0863585785
 10
-27.4430081198
 20
57.092564007
 10
-27.4062887397
 20
57.0982877874
 10
-27.3694930106
 20
57.1035329987
 10
-27.332629733
 20
57.1083027196
 10
-27.2957077072
 20
57.1126000289
 10
-27.2587357335
 20
57.1164280055
 10
-27.2217226124
 20
57.1197897283
 10
-27.1846771441
 20
57.122688276
 10
-27.1476081291
 20
57.1251267275
 10
-27.1105243678
 20
57.1271081617
 10
-27.0734346604
 20
57.1286356573
  0
LINE
  5
346
100
AcDbEntity
  8
RACCORDO
100
AcDbLine
 62
7
  6
CONTINUOUS
 10
-27.7734767807
 20
57.111594188
 11
-27.8200962329
 21
57.1006821619
  0
LINE
  5
347
100
AcDbEntity
  8
RACCORDO
100
AcDbLine
 62
7
  6
CONTINUOUS
 10
34.9083609257
 20
-51.2107197446
 11
34.9862222431
 21
-51.1120636597
  0
LWPOLYLINE
  5
348
100
AcDbEntity
  8
RACCORDO
100
AcDbPolyline
 62
7
  6
CONTINUOUS
 90
46
 70
0
 10
7.5798013067
 20
-22.8335005276
 10
7.5697271195
 20
-22.842471431
 10
7.5593455339
 20
-22.8511023232
 10
7.5486704678
 20
-22.8593800892
 10
7.5377158394
 20
-22.8672916141
 10
7.5264955664
 20
-22.8748237828
 10
7.5150235671
 20
-22.8819634805
 10
7.503267035
 20
-22.8887249888
 10
7.4912854409
 20
-22.8950737723
 10
7.4790934177
 20
-22.9010059101
 10
7.4667055987
 20
-22.9065174814
 10
7.4541366169
 20
-22.9116045652
 10
7.4414011054
 20
-22.9162632409
 10
7.4277853488
 20
-22.9207164997
 10
7.4140167389
 20
-22.9246971299
 10
7.4001118658
 20
-22.9282147743
 10
7.3860873197
 20
-22.9312790755
 10
7.3719596907
 20
-22.9338996764
 10
7.3577455688
 20
-22.9360862196
 10
7.3434615442
 20
-22.9378483479
 10
7.3291242071
 20
-22.939195704
 10
7.3147501475
 20
-22.9401379306
 10
7.3003559555
 20
-22.9406846704
 10
7.2859582214
 20
-22.9408455662
 10
7.2715735351
 20
-22.9406302607
 10
7.2536973373
 20
-22.9398510597
 10
7.2358736208
 20
-22.9385243013
 10
7.2181088946
 20
-22.9366710059
 10
7.2004096679
 20
-22.9343121937
 10
7.1827824498
 20
-22.9314688852
 10
7.1652337492
 20
-22.9281621006
 10
7.1477700753
 20
-22.9244128603
 10
7.1303979371
 20
-22.9202421847
 10
7.1131238438
 20
-22.9156710941
 10
7.0959543043
 20
-22.9107206089
 10
7.0788958279
 20
-22.9054117493
 10
7.0574326784
 20
-22.898193823
 10
7.0361608717
 20
-22.8904550899
 10
7.0150826963
 20
-22.8822172033
 10
6.9942004411
 20
-22.8735018161
 10
6.9735163946
 20
-22.8643305816
 10
6.9530328456
 20
-22.8547251529
 10
6.9327520828
 20
-22.8447071831
 10
6.9126763948
 20
-22.8342983254
 10
6.8928080703
 20
-22.8235202328
 10
6.8731493981
 20
-22.8123945587
  0
LWPOLYLINE
  5
349
100
AcDbEntity
  8
RACCORDO
100
AcDbPolyline
 62
7
  6
CONTINUOUS
 90
18
 70
0
 10
35.2444050601
 20
20.826001942
 10
35.2815932013
 20
20.8497218233
 10
35.3187054309
 20
20.873566917
 10
35.3557198526
 20
20.8975659963
 10
35.3926145705
 20
20.9217478346
 10
35.4293676885
 20
20.9461412052
 10
35.4659573106
 20
20.9707748814
 10
35.5023615406
 20
20.9956776366
 10
35.5385584824
 20
21.020878244
 10
35.5639241701
 20
21.0388362041
 10
35.5891426102
 20
21.0570010326
 10
35.6141803536
 20
21.0754174157
 10
35.6390039515
 20
21.0941300398
 10
35.6534994872
 20
21.1053069491
 10
35.6678755588
 20
21.1166364941
 10
35.6820985104
 20
21.1281531565
 10
35.696134686
 20
21.1398914176
 10
35.7099504297
 20
21.151885759
  0
LINE
  5
34A
100
AcDbEntity
  8
RACCORDO
100
AcDbLine
 62
7
  6
CONTINUOUS
 10
-8.313840878
 20
23.5544098426
 11
-8.3130989922
 21
23.5547540708
  0
LINE
  5
34B
100
AcDbEntity
  8
0
100
AcDbLine
 62
7
  6
CONTINUOUS
 10
-8.5275252829
 20
23.16501742
 11
-7.994216565
 21
23.4116075692
  0
LINE
  5
34C
100
AcDbEntity
  8
RACCORDO
100
AcDbLine
 62
7
  6
CONTINUOUS
 10
-8.3151305255
 20
23.5539583281
 11
-8.3150795314
 21
23.5539812103
  0
LINE
  5
34D
100
AcDbEntity
  8
RACCORDO
100
AcDbLine
 62
7
  6
CONTINUOUS
 10
34.82759004
 20
-51.3047820881
 11
34.9083609257
 21
-51.2107197446
  0
LWPOLYLINE
  5
34E
100
AcDbEntity
  8
0
100
AcDbPolyline
 62
7
  6
CONTINUOUS
 90
43
 70
0
 10
-4.618152598
 20
-7.971120803
 10
-4.6049712539
 20
-7.9627015138
 10
-4.5920375986
 20
-7.953893609
 10
-4.5793510531
 20
-7.9447154635
 10
-4.5669110385
 20
-7.9351854521
 10
-4.554716976
 20
-7.9253219496
 10
-4.5427682865
 20
-7.9151433308
 10
-4.5310643913
 20
-7.9046679705
 10
-4.5196047115
 20
-7.8939142436
 10
-4.508388668
 20
-7.8829005249
 10
-4.4974156821
 20
-7.8716451892
 10
-4.4866851748
 20
-7.8601666113
 10
-4.4740482604
 20
-7.8460285082
 10
-4.4617640223
 20
-7.8316016418
 10
-4.4498323025
 20
-7.8168960679
 10
-4.4382529428
 20
-7.8019218423
 10
-4.4270257851
 20
-7.7866890209
 10
-4.4161506712
 20
-7.7712076595
 10
-4.4056274429
 20
-7.755487814
 10
-4.3954559422
 20
-7.7395395401
 10
-4.3856360109
 20
-7.7233728939
 10
-4.3761674908
 20
-7.706997931
 10
-4.3670918396
 20
-7.6904983159
 10
-4.3583740494
 20
-7.673806803
 10
-4.3500238606
 20
-7.6569279869
 10
-4.3420510139
 20
-7.6398664625
 10
-4.3344652498
 20
-7.6226268244
 10
-4.3272763087
 20
-7.6052136674
 10
-4.3204939313
 20
-7.5876315862
 10
-4.314127858
 20
-7.5698851755
 10
-4.3081878294
 20
-7.55197903
 10
-4.302683586
 20
-7.5339177446
 10
-4.2985004226
 20
-7.5189825219
 10
-4.2946344783
 20
-7.5039552917
 10
-4.2911028573
 20
-7.4888454569
 10
-4.2879226638
 20
-7.4736624202
 10
-4.2851110023
 20
-7.4584155843
 10
-4.282684977
 20
-7.4431143521
 10
-4.2806616921
 20
-7.4277681263
 10
-4.279058252
 20
-7.4123863097
 10
-4.2778917608
 20
-7.396978305
 10
-4.277179323
 20
-7.3815535151
 10
-4.2769380428
 20
-7.3661213427
  0
LINE
  5
34F
100
AcDbEntity
  8
0
100
AcDbLine
 62
7
  6
CONTINUOUS
 10
-6.4689690645
 20
-9.1143871606
 11
-4.618152598
 21
-7.971120803
  0
LWPOLYLINE
  5
350
100
AcDbEntity
  8
RACCORDO
100
AcDbPolyline
 62
7
  6
CONTINUOUS
 90
9
 70
0
 10
34.7271591975
 20
20.5091104224
 10
34.8002152213
 20
20.5527682716
 10
34.8731454634
 20
20.5966372917
 10
34.9353655702
 20
20.6343067904
 10
34.997472027
 20
20.6721647427
 10
35.059447019
 20
20.7102371914
 10
35.1212727317
 20
20.748550179
 10
35.1829313503
 20
20.7871297483
 10
35.2444050601
 20
20.826001942
  0
LINE
  5
351
100
AcDbEntity
  8
RACCORDO
100
AcDbLine
 62
7
  6
CONTINUOUS
 10
32.3352713683
 20
20.3476858363
 11
34.0845739018
 21
21.3577014739
  0
LINE
  5
352
100
AcDbEntity
  8
RACCORDO
100
AcDbLine
 62
7
  6
CONTINUOUS
 10
32.9456070906
 20
19.0693050984
 11
34.7907116177
 21
20.1346350741
  0
LWPOLYLINE
  5
353
100
AcDbEntity
  8
RACCORDO
100
AcDbPolyline
 62
7
  6
CONTINUOUS
 90
9
 70
0
 10
34.3770675682
 20
21.1154601264
 10
34.451402472
 20
21.1569068456
 10
34.5258571323
 20
21.1981395059
 10
34.5895876876
 20
21.2331957605
 10
34.6534244565
 20
21.2680597097
 10
34.7173810691
 20
21.3027029526
 10
34.7814711554
 20
21.3370970881
 10
34.8457083453
 20
21.3712137151
 10
34.9101062689
 20
21.4050244327
  0
LWPOLYLINE
  5
354
100
AcDbEntity
  8
RACCORDO
100
AcDbPolyline
 62
7
  6
CONTINUOUS
 90
18
 70
0
 10
34.9101062689
 20
21.4050244327
 10
34.9492391833
 20
21.4253754427
 10
34.988442411
 20
21.445598444
 10
35.0277299156
 20
21.4656601364
 10
35.0671156605
 20
21.4855272199
 10
35.1066136092
 20
21.5051663944
 10
35.1462377252
 20
21.5245443599
 10
35.1860019721
 20
21.5436278162
 10
35.2259203133
 20
21.5623834634
 10
35.2541514333
 20
21.5753779932
 10
35.2824879467
 20
21.5881420107
 10
35.3109518027
 20
21.6006243019
 10
35.3395649504
 20
21.6127736528
 10
35.3564890941
 20
21.6197434344
 10
35.3734856107
 20
21.6265338059
 10
35.3905675303
 20
21.6330984842
 10
35.4077478828
 20
21.6393911866
 10
35.4250396983
 20
21.6453656303
  0
LINE
  5
355
100
AcDbEntity
  8
RACCORDO
100
AcDbLine
 62
7
  6
CONTINUOUS
 10
34.7907116177
 20
-51.3442630115
 11
34.82759004
 21
-51.3047820881
  0
LINE
  5
356
100
AcDbEntity
  8
0
100
AcDbLine
 62
7
  6
CONTINUOUS
 10
7.207722722
 20
-22.1897891919
 11
7.5936618052
 21
-21.9176507735
  0
LINE
  5
357
100
AcDbEntity
  8
0
100
AcDbLine
 62
7
  6
CONTINUOUS
 10
-8.5275247042
 20
-12.5083510175
 11
-6.4689690645
 21
-11.3197520633
  0
LINE
  5
358
100
AcDbEntity
  8
0
100
AcDbLine
 62
7
  6
CONTINUOUS
 10
-7.9139948276
 20
-13.4586989984
 11
-5.9040588918
 21
-12.2982051832
  0
LINE
  5
359
100
AcDbEntity
  8
0
100
AcDbLine
 62
7
  6
CONTINUOUS
 10
-6.4689690645
 20
-5.0320357767
 11
-4.618152598
 21
-4.0380256712
  0
LWPOLYLINE
  5
35A
100
AcDbEntity
  8
0
100
AcDbPolyline
 62
7
  6
CONTINUOUS
 90
40
 70
0
 10
-5.3170038926
 20
-3.6345176924
 10
-5.3099746464
 20
-3.6308228396
 10
-5.3028752997
 20
-3.6272550709
 10
-5.295707047
 20
-3.6238211836
 10
-5.2884710825
 20
-3.6205279746
 10
-5.2811686007
 20
-3.6173822413
 10
-5.273800796
 20
-3.6143907806
 10
-5.2663688627
 20
-3.6115603897
 10
-5.2588739951
 20
-3.6088978658
 10
-5.2513173876
 20
-3.606410006
 10
-5.2451617461
 20
-3.6045306103
 10
-5.2389687638
 20
-3.6027753313
 10
-5.2327407036
 20
-3.6011495896
 10
-5.2264798283
 20
-3.5996588059
 10
-5.2201884008
 20
-3.598308401
 10
-5.2138686839
 20
-3.5971037955
 10
-5.2075229404
 20
-3.5960504101
 10
-5.2011534332
 20
-3.5951536655
 10
-5.194762425
 20
-3.5944189824
 10
-5.1883521787
 20
-3.5938517814
 10
-5.182537158
 20
-3.5934874429
 10
-5.1767129445
 20
-3.59326907
 10
-5.1708842463
 20
-3.5932010379
 10
-5.1650557715
 20
-3.5932877218
 10
-5.1592322283
 20
-3.5935334971
 10
-5.1534183249
 20
-3.5939427389
 10
-5.1476187696
 20
-3.5945198227
 10
-5.1418382703
 20
-3.5952691235
 10
-5.1360815355
 20
-3.5961950168
 10
-5.1303532731
 20
-3.5973018777
 10
-5.1250049935
 20
-3.5985091748
 10
-5.1196929077
 20
-3.5998792633
 10
-5.1144239529
 20
-3.6014115096
 10
-5.1092050661
 20
-3.6031052803
 10
-5.1040431844
 20
-3.6049599419
 10
-5.0989452448
 20
-3.6069748608
 10
-5.0939181844
 20
-3.6091494035
 10
-5.0889689402
 20
-3.6114829367
 10
-5.0841044493
 20
-3.6139748266
 10
-5.0793316487
 20
-3.61662444
  0
LINE
  5
35B
100
AcDbEntity
  8
0
100
AcDbLine
 62
7
  6
CONTINUOUS
 10
-6.4689690645
 20
-4.0768068488
 11
-5.5593011722
 21
-3.6056474502
  0
LINE
  5
35C
100
AcDbEntity
  8
0
100
AcDbLine
 62
7
  6
CONTINUOUS
 10
-6.4689690645
 20
-4.231174145
 11
-5.3170038926
 21
-3.6345176924
  0
LWPOLYLINE
  5
35D
100
AcDbEntity
  8
0
100
AcDbPolyline
 62
7
  6
CONTINUOUS
 90
45
 70
0
 10
2.9171505393
 20
-23.6129491146
 10
2.9202616541
 20
-23.6110690332
 10
2.9232915269
 20
-23.6090542897
 10
2.9262395083
 20
-23.606912071
 10
2.9291049493
 20
-23.6046495642
 10
2.9318872006
 20
-23.6022739562
 10
2.9345856129
 20
-23.5997924342
 10
2.9371995371
 20
-23.5972121851
 10
2.939728324
 20
-23.594540396
 10
2.9421713243
 20
-23.5917842538
 10
2.9445278889
 20
-23.5889509457
 10
2.9467973685
 20
-23.5860476586
 10
2.9489791139
 20
-23.5830815796
 10
2.9510724759
 20
-23.5800598956
 10
2.9534663659
 20
-23.5763715812
 10
2.9557365757
 20
-23.5726177813
 10
2.9578874697
 20
-23.5688026438
 10
2.9599234119
 20
-23.5649303167
 10
2.9618487666
 20
-23.5610049478
 10
2.963667898
 20
-23.557030685
 10
2.9653851702
 20
-23.5530116763
 10
2.9670049475
 20
-23.5489520694
 10
2.9685315942
 20
-23.5448560123
 10
2.9699694743
 20
-23.5407276529
 10
2.9713229521
 20
-23.536571139
 10
2.9725963917
 20
-23.5323906186
 10
2.9742005492
 20
-23.5266950985
 10
2.9756700097
 20
-23.5209660813
 10
2.9770089564
 20
-23.5152065155
 10
2.9782215722
 20
-23.5094193494
 10
2.9793120405
 20
-23.5036075315
 10
2.9802845442
 20
-23.4977740102
 10
2.9811432666
 20
-23.4919217339
 10
2.9818923907
 20
-23.486053651
 10
2.9825360996
 20
-23.4801727099
 10
2.9830785766
 20
-23.4742818591
 10
2.9836174364
 20
-23.4669476949
 10
2.9840098223
 20
-23.4596054512
 10
2.9842592859
 20
-23.4522578099
 10
2.984369379
 20
-23.4449074528
 10
2.9843436534
 20
-23.4375570617
 10
2.9841856608
 20
-23.4302093186
 10
2.983898953
 20
-23.4228669053
 10
2.9834870818
 20
-23.4155325036
 10
2.9829535989
 20
-23.4082087954
  0
LWPOLYLINE
  5
35E
100
AcDbEntity
  8
0
100
AcDbPolyline
 62
7
  6
CONTINUOUS
 90
45
 70
0
 10
3.0235368659
 20
-23.5515229738
 10
3.0266477254
 20
-23.549643041
 10
3.0296773419
 20
-23.5476284451
 10
3.0326250661
 20
-23.5454863735
 10
3.0354902486
 20
-23.5432240137
 10
3.0382722401
 20
-23.5408485531
 10
3.0409703912
 20
-23.5383671792
 10
3.0435840526
 20
-23.5357870793
 10
3.0461125749
 20
-23.5331154409
 10
3.0485553086
 20
-23.5303594515
 10
3.0509116046
 20
-23.5275262985
 10
3.0531808135
 20
-23.5246231693
 10
3.0553622858
 20
-23.5216572514
 10
3.0574553722
 20
-23.5186357321
 10
3.0598489542
 20
-23.514947579
 10
3.0621188503
 20
-23.5111939448
 10
3.0642694252
 20
-23.5073789775
 10
3.066305044
 20
-23.5035068252
 10
3.0682300715
 20
-23.4995816359
 10
3.0700488728
 20
-23.4956075576
 10
3.0717658126
 20
-23.4915887383
 10
3.073385256
 20
-23.4875293261
 10
3.0749115679
 20
-23.483433469
 10
3.0763491132
 20
-23.479305315
 10
3.0777022568
 20
-23.4751490121
 10
3.0789753637
 20
-23.4709687084
 10
3.0805791004
 20
-23.4652733914
 10
3.0820481397
 20
-23.4595445866
 10
3.0833866652
 20
-23.4537852419
 10
3.0845988606
 20
-23.4479983057
 10
3.0856889096
 20
-23.4421867259
 10
3.0866609957
 20
-23.4363534509
 10
3.0875193027
 20
-23.4305014286
 10
3.0882680143
 20
-23.4246336073
 10
3.088911314
 20
-23.418752935
 10
3.0894533856
 20
-23.41286236
 10
3.0899917548
 20
-23.405528435
 10
3.0903836529
 20
-23.3981864402
 10
3.0906326325
 20
-23.390839057
 10
3.0907422459
 20
-23.3834889671
 10
3.0907160457
 20
-23.3761388519
 10
3.0905575844
 20
-23.368791393
 10
3.0902704145
 20
-23.3614492719
 10
3.0898580884
 20
-23.35411517
 10
3.0893241587
 20
-23.3467917689
  0
LINE
  5
35F
100
AcDbEntity
  8
0
100
AcDbLine
 62
7
  6
CONTINUOUS
 10
-3.5060986695
 20
-20.377979328
 11
-3.612525624
 21
-20.4394289177
  0
LINE
  5
360
100
AcDbEntity
  8
0
100
AcDbLine
 62
7
  6
CONTINUOUS
 10
-3.6521735455
 20
-20.9453391052
 11
-3.7586479606
 21
-21.006816098
  0
LINE
  5
361
100
AcDbEntity
  8
0
100
AcDbLine
 62
7
  6
CONTINUOUS
 10
-1.4350546277
 20
-20.8557814994
 11
-1.5414330172
 21
-20.9172030483
  0
LINE
  5
362
100
AcDbEntity
  8
0
100
AcDbLine
 62
7
  6
CONTINUOUS
 10
-2.4417326011
 20
-21.6442325361
 11
-2.5482070162
 21
-21.7057095289
  0
LINE
  5
363
100
AcDbEntity
  8
0
100
AcDbLine
 62
7
  6
CONTINUOUS
 10
-1.8131054802
 20
-22.0071939571
 11
-1.9195798954
 21
-22.06867095
  0
LINE
  5
364
100
AcDbEntity
  8
0
100
AcDbLine
 62
7
  6
CONTINUOUS
 10
-0.8866478185
 20
-21.6109020993
 11
-0.9930554072
 21
-21.6723405074
  0
LINE
  5
365
100
AcDbEntity
  8
0
100
AcDbLine
 62
7
  6
CONTINUOUS
 10
-0.4005638856
 20
-21.4588282599
 11
-0.5069426484
 21
-21.5202500243
  0
LINE
  5
366
100
AcDbEntity
  8
0
100
AcDbLine
 62
7
  6
CONTINUOUS
 10
-0.8646955791
 20
-22.5789073434
 11
-0.9502885263
 21
-22.6283276384
  0
LINE
  5
367
100
AcDbEntity
  8
0
100
AcDbLine
 62
7
  6
CONTINUOUS
 10
1.1037322661
 20
-22.1690939943
 11
0.9973637004
 21
-22.2305098711
  0
LINE
  5
368
100
AcDbEntity
  8
0
100
AcDbLine
 62
7
  6
CONTINUOUS
 10
-0.2096149889
 20
-22.9330292704
 11
-0.316089404
 21
-22.9945062632
  0
LINE
  5
369
100
AcDbEntity
  8
0
100
AcDbLine
 62
7
  6
CONTINUOUS
 10
0.4080243997
 20
-23.2896465125
 11
0.3015499846
 21
-23.3511235054
  0
LINE
  5
36A
100
AcDbEntity
  8
0
100
AcDbLine
 62
7
  6
CONTINUOUS
 10
0.8967442594
 20
-23.154821084
 11
0.7903005873
 21
-23.2162803262
  0
LINE
  5
36B
100
AcDbEntity
  8
0
100
AcDbLine
 62
7
  6
CONTINUOUS
 10
1.3514793605
 20
-23.0936440116
 11
1.245058639
 21
-23.1550900025
  0
LINE
  5
36C
100
AcDbEntity
  8
0
100
AcDbLine
 62
7
  6
CONTINUOUS
 10
2.5144896244
 20
-22.762808709
 11
2.4081349762
 21
-22.8242165499
  0
LINE
  5
36D
100
AcDbEntity
  8
0
100
AcDbLine
 62
7
  6
CONTINUOUS
 10
1.459507212
 20
-23.4797533598
 11
1.35306354
 21
-23.541212602
  0
LINE
  5
36E
100
AcDbEntity
  8
0
100
AcDbLine
 62
7
  6
CONTINUOUS
 10
2.8373543322
 20
-22.9367625882
 11
2.7310004584
 21
-22.998169982
  0
LINE
  5
36F
100
AcDbEntity
  8
0
100
AcDbLine
 62
7
  6
CONTINUOUS
 10
1.6006207974
 20
-23.9782367258
 11
1.4941463822
 21
-24.0397137186
  0
LINE
  5
370
100
AcDbEntity
  8
0
100
AcDbLine
 62
7
  6
CONTINUOUS
 10
3.0893241601
 20
-23.3467918638
 11
2.9829535964
 21
-23.4082088941
  0
LINE
  5
371
100
AcDbEntity
  8
0
100
AcDbLine
 62
7
  6
CONTINUOUS
 10
2.5954868379
 20
-23.7337534296
 11
2.4890715388
 21
-23.7951962897
  0
LINE
  5
372
100
AcDbEntity
  8
0
100
AcDbLine
 62
7
  6
CONTINUOUS
 10
2.9171440602
 20
-23.6129390141
 11
3.0235303907
 21
-23.5515128803
  0
LINE
  5
373
100
AcDbEntity
  8
0
100
AcDbLine
 62
7
  6
CONTINUOUS
 10
2.8170556489
 20
-23.8616844842
 11
2.7106403497
 21
-23.9231273442
  0
LINE
  5
374
100
AcDbEntity
  8
0
100
AcDbLine
 62
7
  6
CONTINUOUS
 10
2.249428628
 20
-24.3528504996
 11
2.1429542128
 21
-24.4143274925
  0
LINE
  5
375
100
AcDbEntity
  8
0
100
AcDbLine
 62
7
  6
CONTINUOUS
 10
3.2333509528
 20
-23.9310647782
 11
3.1269473545
 21
-23.9925008823
  0
LINE
  5
376
100
AcDbEntity
  8
0
100
AcDbLine
 62
7
  6
CONTINUOUS
 10
3.0618530219
 20
-24.1877903987
 11
2.9554248314
 21
-24.2492407021
  0
LINE
  5
377
100
AcDbEntity
  8
0
100
AcDbLine
 62
7
  6
CONTINUOUS
 10
3.2938230949
 20
-24.9558707754
 11
3.1873486797
 21
-25.0173477683
  0
LWPOLYLINE
  5
378
100
AcDbEntity
  8
0
100
AcDbPolyline
 62
7
  6
CONTINUOUS
 90
13
 70
0
 10
3.2443924702
 20
-23.9639722442
 10
3.2425887184
 20
-23.9650049088
 10
3.2407761782
 20
-23.9660225945
 10
3.2389551479
 20
-23.9670254828
 10
3.237125926
 20
-23.9680137557
 10
3.2352888105
 20
-23.9689875947
 10
3.2334441
 20
-23.9699471817
 10
3.2315920926
 20
-23.9708926983
 10
3.2297330866
 20
-23.9718243262
 10
3.2278673804
 20
-23.9727422471
 10
3.2259952723
 20
-23.9736466429
 10
3.2241170606
 20
-23.9745376951
 10
3.2222330435
 20
-23.9754155856
  0
LWPOLYLINE
  5
379
100
AcDbEntity
  8
0
100
AcDbPolyline
 62
7
  6
CONTINUOUS
 90
40
 70
0
 10
-5.555767376
 20
-3.603870205
 10
-5.5507696259
 20
-3.6015261212
 10
-5.5456924085
 20
-3.5993435388
 10
-5.5405424331
 20
-3.5973224604
 10
-5.5353264096
 20
-3.5954628882
 10
-5.5300510474
 20
-3.5937648248
 10
-5.5247230562
 20
-3.5922282725
 10
-5.5193491456
 20
-3.5908532338
 10
-5.5139360253
 20
-3.589639711
 10
-5.5084904047
 20
-3.5885877065
 10
-5.5030189935
 20
-3.5876972229
 10
-5.4971715688
 20
-3.5869258614
 10
-5.4913067574
 20
-3.5863332217
 10
-5.4854288068
 20
-3.5859148904
 10
-5.4795419646
 20
-3.585666454
 10
-5.473650478
 20
-3.585583499
 10
-5.4677585946
 20
-3.5856616119
 10
-5.4618705617
 20
-3.5858963792
 10
-5.4559906269
 20
-3.5862833876
 10
-5.4501230375
 20
-3.5868182234
 10
-5.444272041
 20
-3.5874964733
 10
-5.4378517632
 20
-3.588404235
 10
-5.4314587188
 20
-3.5894753394
 10
-5.4250948627
 20
-3.5907045285
 10
-5.4187621501
 20
-3.592086544
 10
-5.412462536
 20
-3.593616128
 10
-5.4061979753
 20
-3.5952880223
 10
-5.3999704233
 20
-3.5970969688
 10
-5.3937818348
 20
-3.5990377094
 10
-5.387634165
 20
-3.6011049861
 10
-5.3815293689
 20
-3.6032935406
 10
-5.374075551
 20
-3.6061470046
 10
-5.366690611
 20
-3.6091697326
 10
-5.3593754927
 20
-3.6123551707
 10
-5.3521311399
 20
-3.615696765
 10
-5.3449584965
 20
-3.6191879616
 10
-5.3378585062
 20
-3.6228222066
 10
-5.3308321129
 20
-3.6265929459
 10
-5.3238802603
 20
-3.6304936258
 10
-5.3170038924
 20
-3.6345176923
  0
LWPOLYLINE
  5
37A
100
AcDbEntity
  8
RACCORDO
100
AcDbPolyline
 62
7
  6
CONTINUOUS
 90
38
 70
0
 10
7.5798046474
 20
14.1815157845
 10
7.5727916951
 20
14.1791828518
 10
7.5657646089
 20
14.176887278
 10
7.5587234703
 20
14.174634922
 10
7.5516683606
 20
14.1724316429
 10
7.5445993613
 20
14.1702832998
 10
7.5375165536
 20
14.1681957514
 10
7.5330095047
 20
14.1669046883
 10
7.5284937852
 20
14.1656468978
 10
7.5239662641
 20
14.1644287548
 10
7.5194238103
 20
14.1632566339
 10
7.5148632928
 20
14.1621369098
 10
7.5102815806
 20
14.161075957
 10
7.5056755426
 20
14.1600801503
 10
7.5034174672
 20
14.1596206859
 10
7.501153742
 20
14.1591854243
 10
7.4988852601
 20
14.1587815244
 10
7.4966129149
 20
14.1584161455
 10
7.4943375996
 20
14.1580964464
 10
7.4920602073
 20
14.1578295863
 10
7.4897816314
 20
14.1576227242
 10
7.4875027651
 20
14.157483019
 10
7.4852245016
 20
14.15741763
 10
7.484396813
 20
14.1574151934
 10
7.483569442
 20
14.1574329715
 10
7.4827425086
 20
14.1574804169
 10
7.4819161328
 20
14.1575669819
 10
7.4810904345
 20
14.157702119
 10
7.4802655337
 20
14.1578952808
 10
7.4794415505
 20
14.1581559196
 10
7.479012535
 20
14.1583223376
 10
7.4785916026
 20
14.1585120678
 10
7.4781865531
 20
14.1587274021
 10
7.4778051859
 20
14.1589706321
 10
7.4774553009
 20
14.1592440497
 10
7.4771446975
 20
14.1595499466
 10
7.4768811756
 20
14.1598906146
 10
7.4766725346
 20
14.1602683455
  0
LWPOLYLINE
  5
37B
100
AcDbEntity
  8
0
100
AcDbPolyline
 62
7
  6
CONTINUOUS
 90
38
 70
0
 10
3.2222330435
 20
-23.9754155856
 10
3.2179840016
 20
-23.9773404999
 10
3.2137092603
 20
-23.9792084503
 10
3.2094126384
 20
-23.981026551
 10
3.2050979547
 20
-23.9828019165
 10
3.2007690279
 20
-23.9845416611
 10
3.1966770668
 20
-23.9861538469
 10
3.1925735405
 20
-23.9877354928
 10
3.1884561502
 20
-23.9892813993
 10
3.1843225971
 20
-23.9907863666
 10
3.1819215738
 20
-23.9916355732
 10
3.1795124076
 20
-23.9924616245
 10
3.1770931402
 20
-23.9932568219
 10
3.1746618134
 20
-23.994013467
 10
3.172216469
 20
-23.9947238611
 10
3.1697551487
 20
-23.9953803056
 10
3.1672758943
 20
-23.9959751021
 10
3.1654237117
 20
-23.9963721544
 10
3.1635618531
 20
-23.9967282783
 10
3.1616915966
 20
-23.9970407321
 10
3.1598142203
 20
-23.9973067744
 10
3.1579310023
 20
-23.9975236638
 10
3.1560432206
 20
-23.9976886586
 10
3.1541521534
 20
-23.9977990173
 10
3.1522590786
 20
-23.9978519985
 10
3.1503652745
 20
-23.9978448606
 10
3.148472019
 20
-23.9977748622
 10
3.1464549919
 20
-23.9976287302
 10
3.1444425352
 20
-23.9974099653
 10
3.1424371414
 20
-23.997120557
 10
3.1404413031
 20
-23.9967624949
 10
3.1384575126
 20
-23.9963377687
 10
3.1364882625
 20
-23.995848368
 10
3.1345360452
 20
-23.9952962823
 10
3.1326033533
 20
-23.9946835013
 10
3.1306926793
 20
-23.9940120145
 10
3.1288065155
 20
-23.9932838117
 10
3.1269473545
 20
-23.9925008823
  0
LWPOLYLINE
  5
37C
100
AcDbEntity
  8
RACCORDO
100
AcDbPolyline
 62
7
  6
CONTINUOUS
 90
23
 70
0
 10
-8.991895776
 20
-13.265206532
 10
-8.9737123698
 20
-13.2592617416
 10
-8.9556467284
 20
-13.2529658388
 10
-8.9376887397
 20
-13.2463572424
 10
-8.9198282914
 20
-13.2394743713
 10
-8.9020552712
 20
-13.2323556446
 10
-8.8843595668
 20
-13.2250394809
 10
-8.8667310659
 20
-13.2175642993
 10
-8.8347907961
 20
-13.2036404729
 10
-8.8030290437
 20
-13.1893410821
 10
-8.7714351673
 20
-13.1746901404
 10
-8.7399985253
 20
-13.159711661
 10
-8.708708476
 20
-13.1444296573
 10
-8.6747612676
 20
-13.1274516109
 10
-8.6409763049
 20
-13.1101478039
 10
-8.6073543293
 20
-13.0925245227
 10
-8.5738960824
 20
-13.0745880537
 10
-8.5406023054
 20
-13.0563446834
 10
-8.509439659
 20
-13.0389053328
 10
-8.4784424695
 20
-13.0211756264
 10
-8.4476300226
 20
-13.0031311777
 10
-8.4170216041
 20
-12.9847476005
 10
-8.3866364999
 20
-12.9660005081
  0
LINE
  5
37D
100
AcDbEntity
  8
DRAFT
100
AcDbLine
 62
7
  6
CONTINUOUS
 10
34.9287672362
 20
-17.1299007655
 11
35.3563970427
 21
-16.9770354472
  0
LWPOLYLINE
  5
37E
100
AcDbEntity
  8
0
100
AcDbPolyline
 62
7
  6
CONTINUOUS
 90
38
 70
0
 10
3.2880166319
 20
-23.9302908714
 10
3.2865871567
 20
-23.9307746595
 10
3.2851534417
 20
-23.9312521711
 10
3.2837154036
 20
-23.9317213191
 10
3.2822729592
 20
-23.9321800165
 10
3.2808260253
 20
-23.932626176
 10
3.2793745185
 20
-23.9330577105
 10
3.2779183556
 20
-23.9334725329
 10
3.2764574534
 20
-23.9338685561
 10
3.2749917287
 20
-23.934243693
 10
3.2735210981
 20
-23.9345958565
 10
3.2720454785
 20
-23.9349229593
 10
3.2705647866
 20
-23.9352229144
 10
3.2690789391
 20
-23.9354936347
 10
3.2675878528
 20
-23.9357330331
 10
3.2660914445
 20
-23.9359390224
 10
3.2645896309
 20
-23.9361095154
 10
3.2630823287
 20
-23.9362424251
 10
3.2615686484
 20
-23.9363361241
 10
3.2600505936
 20
-23.936390472
 10
3.2585293689
 20
-23.9364058417
 10
3.2570061792
 20
-23.9363826061
 10
3.2554822291
 20
-23.9363211381
 10
3.2539587233
 20
-23.9362218105
 10
3.2524368667
 20
-23.9360849962
 10
3.2509178638
 20
-23.9359110681
 10
3.2494029196
 20
-23.9357003991
 10
3.2478932387
 20
-23.9354533619
 10
3.2463900258
 20
-23.9351703296
 10
3.2448944857
 20
-23.934851675
 10
3.2434078231
 20
-23.9344977708
 10
3.2419312427
 20
-23.9341089901
 10
3.2404659493
 20
-23.9336857057
 10
3.2390131476
 20
-23.9332282904
 10
3.2375740424
 20
-23.9327371171
 10
3.2361498384
 20
-23.9322125588
 10
3.2347417403
 20
-23.9316549882
 10
3.2333509528
 20
-23.9310647782
  0
LWPOLYLINE
  5
37F
100
AcDbEntity
  8
RACCORDO
100
AcDbPolyline
 62
7
  6
CONTINUOUS
 90
39
 70
0
 10
7.5402496165
 20
-22.2638345262
 10
7.5330978948
 20
-22.265877506
 10
7.5258803767
 20
-22.2676989451
 10
7.5186048421
 20
-22.269302855
 10
7.5112790708
 20
-22.2706932472
 10
7.5039108427
 20
-22.2718741332
 10
7.4965079376
 20
-22.2728495245
 10
7.4890781353
 20
-22.2736234325
 10
7.4816292158
 20
-22.2741998688
 10
7.4741689588
 20
-22.2745828448
 10
7.4667051442
 20
-22.274776372
 10
7.4584847607
 20
-22.2747753194
 10
7.4502727481
 20
-22.274556196
 10
7.4420723509
 20
-22.2741260862
 10
7.4338868135
 20
-22.2734920745
 10
7.4257193801
 20
-22.2726612453
 10
7.4175732952
 20
-22.2716406831
 10
7.4094518032
 20
-22.2704374724
 10
7.4013581483
 20
-22.2690586977
 10
7.3932955751
 20
-22.2675114433
 10
7.3852673279
 20
-22.2658027938
 10
7.375335621
 20
-22.2634626896
 10
7.3654634443
 20
-22.2608926774
 10
7.3556522263
 20
-22.2581014851
 10
7.3459033961
 20
-22.2550978408
 10
7.3362183824
 20
-22.2518904725
 10
7.326598614
 20
-22.2484881082
 10
7.3170455198
 20
-22.2448994759
 10
7.3075605286
 20
-22.2411333036
 10
7.2981450692
 20
-22.2371983193
 10
7.2877450147
 20
-22.2326282941
 10
7.2774330162
 20
-22.2278670317
 10
7.2672091605
 20
-22.222921749
 10
7.2570735345
 20
-22.217799663
 10
7.2470262252
 20
-22.2125079906
 10
7.2370673193
 20
-22.2070539488
 10
7.227196904
 20
-22.2014447545
 10
7.2174150659
 20
-22.1956876247
 10
7.2077218921
 20
-22.1897897763
  0
LWPOLYLINE
  5
380
100
AcDbEntity
  8
RACCORDO
100
AcDbPolyline
 62
7
  6
CONTINUOUS
 90
46
 70
0
 10
32.7783720748
 20
-53.0107035961
 10
32.7862723564
 20
-53.0068715735
 10
32.7940443832
 20
-53.0027490767
 10
32.8016785555
 20
-52.9983452628
 10
32.8091652733
 20
-52.9936692887
 10
32.8164949366
 20
-52.9887303116
 10
32.8236579455
 20
-52.9835374885
 10
32.8306447001
 20
-52.9780999764
 10
32.8374456006
 20
-52.9724269323
 10
32.8440510469
 20
-52.9665275133
 10
32.8504514391
 20
-52.9604108765
 10
32.8566371774
 20
-52.9540861788
 10
32.8625986618
 20
-52.9475625773
 10
32.8687509206
 20
-52.9403360072
 10
32.874637092
 20
-52.9329023508
 10
32.8802615195
 20
-52.9252739467
 10
32.8856285463
 20
-52.9174631335
 10
32.8907425156
 20
-52.9094822497
 10
32.8956077709
 20
-52.9013436338
 10
32.9002286554
 20
-52.8930596245
 10
32.9046095124
 20
-52.8846425603
 10
32.9087546852
 20
-52.8761047797
 10
32.9126685171
 20
-52.8674586214
 10
32.9163553514
 20
-52.8587164238
 10
32.9198195315
 20
-52.8498905256
 10
32.9238737376
 20
-52.8386694471
 10
32.9275926379
 20
-52.8273440932
 10
32.9309873784
 20
-52.8159234375
 10
32.9340691053
 20
-52.8044164538
 10
32.9368489647
 20
-52.7928321159
 10
32.9393381029
 20
-52.7811793974
 10
32.9415476658
 20
-52.7694672721
 10
32.9434887997
 20
-52.7577047138
 10
32.9451726506
 20
-52.7459006961
 10
32.9466103648
 20
-52.7340641929
 10
32.9478130883
 20
-52.7222041778
 10
32.9490256199
 20
-52.7070032124
 10
32.949884639
 20
-52.6917845403
 10
32.9504032851
 20
-52.6765542681
 10
32.9505946978
 20
-52.661318502
 10
32.9504720167
 20
-52.6460833487
 10
32.9500483815
 20
-52.6308549146
 10
32.9493369316
 20
-52.615639306
 10
32.9483508068
 20
-52.6004426295
 10
32.9471031466
 20
-52.5852709915
 10
32.9456070906
 20
-52.5701304984
  0
LINE
  5
381
100
AcDbEntity
  8
RACCORDO
100
AcDbLine
 62
7
  6
CONTINUOUS
 10
32.9456070906
 20
-52.5701304984
 11
34.7907116177
 21
-51.716987172
  0
LINE
  5
382
100
AcDbEntity
  8
RACCORDO
100
AcDbLine
 62
7
  6
CONTINUOUS
 10
32.7783193158
 20
-53.0107294969
 11
34.5570471405
 21
-52.188277571
  0
LINE
  5
383
100
AcDbEntity
  8
RACCORDO
100
AcDbLine
 62
7
  6
CONTINUOUS
 10
32.766001244
 20
-53.0162043704
 11
32.778344702
 21
-53.0107138743
  0
LINE
  5
384
100
AcDbEntity
  8
RACCORDO
100
AcDbLine
 62
7
  6
CONTINUOUS
 10
32.7295549564
 20
-53.030004366
 11
32.766001244
 21
-53.0162043704
  0
LINE
  5
385
100
AcDbEntity
  8
RACCORDO
100
AcDbLine
 62
7
  6
CONTINUOUS
 10
32.6914314642
 20
-53.0409070203
 11
32.7295549564
 21
-53.030004366
  0
ARC
  5
386
100
AcDbEntity
  8
RACCORDO
100
AcDbCircle
 62
7
  6
CONTINUOUS
 10
415.1217056835
 20
18.6012963494
 40
447.636369139
100
AcDbArc
 50
177.6302199956
 51
182.3533539593
  0
ARC
  5
387
100
AcDbEntity
  8
RACCORDO
100
AcDbCircle
 62
7
  6
CONTINUOUS
 10
454.90350221
 20
-4.454939775
 40
447.5126373922
100
AcDbArc
 50
177.7131948584
 51
182.2868051416
  0
ARC
  5
388
100
AcDbEntity
  8
0
100
AcDbCircle
 62
7
  6
CONTINUOUS
 10
142.3737995885
 20
-13.5372351629
 40
140.2734304623
100
AcDbArc
 50
183.796116852
 51
184.0432551452
  0
ARC
  5
389
100
AcDbEntity
  8
0
100
AcDbCircle
 62
7
  6
CONTINUOUS
 10
136.6603737554
 20
-10.908348939
 40
139.2333987919
100
AcDbArc
 50
183.640458099
 51
184.5461640299
  0
ARC
  5
38A
100
AcDbEntity
  8
0
100
AcDbCircle
 62
7
  6
CONTINUOUS
 10
136.2471348956
 20
-10.6697500005
 40
139.2333987919
100
AcDbArc
 50
183.640458099
 51
184.5461640299
  0
ARC
  5
38B
100
AcDbEntity
  8
0
100
AcDbCircle
 62
7
  6
CONTINUOUS
 10
140.9199889491
 20
-13.379765497
 40
139.2150384427
100
AcDbArc
 50
183.6510394402
 51
184.5461878729
  0
ARC
  5
38C
100
AcDbEntity
  8
0
100
AcDbCircle
 62
7
  6
CONTINUOUS
 10
136.1220596971
 20
-10.615994902
 40
139.0019660341
100
AcDbArc
 50
183.6960686536
 51
184.5505561861
  0
ARC
  5
38D
100
AcDbEntity
  8
0
100
AcDbCircle
 62
7
  6
CONTINUOUS
 10
140.8073773807
 20
-13.3250601769
 40
138.9961054201
100
AcDbArc
 50
183.6994519818
 51
184.5505634897
  0
ARC
  5
38E
100
AcDbEntity
  8
0
100
AcDbCircle
 62
7
  6
CONTINUOUS
 10
140.4019767261
 20
-13.6892837948
 40
138.2826774565
100
AcDbArc
 50
184.1910007012
 51
184.5470283358
  0
ARC
  5
38F
100
AcDbEntity
  8
RACCORDO
100
AcDbCircle
 62
7
  6
CONTINUOUS
 10
-27.3225556191
 20
52.262253327
 40
4.9151073023
100
AcDbArc
 50
68.5283883158
 51
69.7385411844
  0
ARC
  5
390
100
AcDbEntity
  8
RACCORDO
100
AcDbCircle
 62
7
  6
CONTINUOUS
 10
30.8514170989
 20
-48.4946352409
 40
4.9128375324
100
AcDbArc
 50
350.2149975074
 51
351.4731422387
  0
ARC
  5
391
100
AcDbEntity
  8
RACCORDO
100
AcDbCircle
 62
7
  6
CONTINUOUS
 10
-26.9639246313
 20
54.0006628227
 40
3.1298892153
100
AcDbArc
 50
90.0075330961
 51
92.0051008042
  0
ARC
  5
392
100
AcDbEntity
  8
RACCORDO
100
AcDbCircle
 62
7
  6
CONTINUOUS
 10
32.5342350245
 20
-49.0530203953
 40
3.1296399477
100
AcDbArc
 50
328.0335003899
 51
329.9931447403
  0
ARC
  5
393
100
AcDbEntity
  8
RACCORDO
100
AcDbCircle
 62
7
  6
CONTINUOUS
 10
32.5796243398
 20
-49.081098297
 40
3.0762684795
100
AcDbArc
 50
327.4222858113
 51
328.0295880852
  0
ARC
  5
394
100
AcDbEntity
  8
RACCORDO
100
AcDbCircle
 62
7
  6
CONTINUOUS
 10
5.6098086695
 20
13.3001738042
 40
2.1581555457
100
AcDbArc
 50
24.7360803721
 51
26.341828752
  0
ARC
  5
395
100
AcDbEntity
  8
RACCORDO
100
AcDbCircle
 62
7
  6
CONTINUOUS
 10
5.6197190837
 20
13.3047591116
 40
2.1472357912
100
AcDbArc
 50
24.0992154097
 51
24.7356086872
  0
ARC
  5
396
100
AcDbEntity
  8
0
100
AcDbCircle
 62
7
  6
CONTINUOUS
 10
2.7541600445
 20
-24.3832484301
 40
0.5313991885
100
AcDbArc
 50
42.1250474874
 51
45.3093777278
  0
ARC
  5
397
100
AcDbEntity
  8
0
100
AcDbCircle
 62
7
  6
CONTINUOUS
 10
-5.3282403429
 20
-4.0530471066
 40
0.5035379838
100
AcDbArc
 50
97.9574419644
 51
117.3181502243
  0
ARC
  5
398
100
AcDbEntity
  8
0
100
AcDbCircle
 62
7
  6
CONTINUOUS
 10
-5.3293434044
 20
-4.0496318954
 40
0.500003336
100
AcDbArc
 50
59.998532774
 51
97.8864361041
  0
ARC
  5
399
100
AcDbEntity
  8
RACCORDO
100
AcDbCircle
 62
7
  6
CONTINUOUS
 10
-8.1799250367
 20
23.2678028277
 40
0.3163490028
100
AcDbArc
 50
115.0444675052
 51
130.8010852301
  0
ARC
  5
39A
100
AcDbEntity
  8
RACCORDO
100
AcDbCircle
 62
7
  6
CONTINUOUS
 10
7.4730108304
 20
-22.0414803438
 40
0.2322981635
100
AcDbArc
 50
286.8250524965
 51
293.2306044663
  0
ARC
  5
39B
100
AcDbEntity
  8
0
100
AcDbCircle
 62
7
  6
CONTINUOUS
 10
3.1291171842
 20
-23.7642985913
 40
0.230560099
100
AcDbArc
 50
299.9986331378
 51
303.4004325513
  0
ARC
  5
39C
100
AcDbEntity
  8
RACCORDO
100
AcDbCircle
 62
7
  6
CONTINUOUS
 10
7.4756318159
 20
-22.0478317162
 40
0.2254279481
100
AcDbArc
 50
293.2551824605
 51
299.7545121003
  0
ARC
  5
39D
100
AcDbEntity
  8
0
100
AcDbCircle
 62
7
  6
CONTINUOUS
 10
-5.4799448781
 20
-3.75883315
 40
0.1725183048
100
AcDbArc
 50
116.072243401
 51
117.3853805942
  0
ELLIPSE
  5
39E
100
AcDbEntity
  8
RACCORDO
100
AcDbEllipse
 62
7
  6
CONTINUOUS
 10
34.0826344414
 20
-51.3059128608
 30
0.0
 11
-0.5013954353
 21
0.868386877
 31
0.0
 40
0.5757524875
 41
-3.1936911674
 42
-2.3576120761
  0
ELLIPSE
  5
39F
100
AcDbEntity
  8
RACCORDO
100
AcDbEllipse
 62
7
  6
CONTINUOUS
 10
34.0826344414
 20
20.5412305376
 30
0.0
 11
-0.5000243598
 21
0.8660113392
 31
0.0
 40
0.5789151826
 41
-2.3548735497
 42
-0.7868162787
  0
ELLIPSE
  5
3A0
100
AcDbEntity
  8
0
100
AcDbEllipse
 62
7
  6
CONTINUOUS
 10
117.8735063477
 20
56.9143765441
 30
0.0
 11
114.8996317544
 21
126.3505868295
 31
0.0
 40
0.3765254089
 41
-3.7743605251
 42
-3.7575864559
  0
ELLIPSE
  5
3A1
100
AcDbEntity
  8
0
100
AcDbEllipse
 62
7
  6
CONTINUOUS
 10
111.6827835784
 20
60.4888222831
 30
0.0
 11
34.8790515577
 21
168.2218372011
 31
0.0
 40
0.7002280922
 41
-4.083553027
 42
-4.0720093448
  0
ELLIPSE
  5
3A2
100
AcDbEntity
  8
0
100
AcDbEllipse
 62
7
  6
CONTINUOUS
 10
117.1295728896
 20
57.3439143991
 30
0.0
 11
91.793176838
 21
140.2511436908
 31
0.0
 40
0.5363054271
 41
-3.8203221232
 42
-3.8093664661
  0
ELLIPSE
  5
3A3
100
AcDbEntity
  8
0
100
AcDbEllipse
 62
7
  6
CONTINUOUS
 10
120.9994397193
 20
55.1095017925
 30
0.0
 11
119.630873242
 21
123.5739552196
 31
0.0
 40
0.3382731367
 41
-3.7657029519
 42
-3.7547929514
  0
ELLIPSE
  5
3A4
100
AcDbEntity
  8
0
100
AcDbEllipse
 62
7
  6
CONTINUOUS
 10
117.0593392071
 20
57.3844664472
 30
0.0
 11
70.634700218
 21
152.2499801326
 31
0.0
 40
0.6282888553
 41
-3.9123018102
 42
-3.8955277411
  0
ELLIPSE
  5
3A5
100
AcDbEntity
  8
0
100
AcDbEllipse
 62
7
  6
CONTINUOUS
 10
113.4959547279
 20
59.4419199857
 30
0.0
 11
11.1145125674
 21
175.7752122584
 31
0.0
 40
0.7158559188
 41
-4.1973507117
 42
-4.188040463
  0
ELLIPSE
  5
3A6
100
AcDbEntity
  8
0
100
AcDbEllipse
 62
7
  6
CONTINUOUS
 10
116.6919985802
 20
57.5965643212
 30
0.0
 11
27.6951435486
 21
170.7397539322
 31
0.0
 40
0.7069483398
 41
-4.1183397783
 42
-4.1015657091
  0
ELLIPSE
  5
3A7
100
AcDbEntity
  8
0
100
AcDbEllipse
 62
7
  6
CONTINUOUS
 10
121.6374119998
 20
54.7411445934
 30
0.0
 11
112.236268736
 21
127.9318388222
 31
0.0
 40
0.3975597956
 41
-3.7637364601
 42
-3.7603859388
  0
ELLIPSE
  5
3A8
100
AcDbEntity
  8
0
100
AcDbEllipse
 62
7
  6
CONTINUOUS
 10
121.5520469834
 20
54.790433284
 30
0.0
 11
111.5409348807
 21
128.3466174189
 31
0.0
 40
0.4029729773
 41
-3.7734299492
 42
-3.7672052666
  0
ELLIPSE
  5
3A9
100
AcDbEntity
  8
DRAFT
100
AcDbEllipse
 62
7
  6
CONTINUOUS
 10
30.5822784214
 20
-10.8795665033
 30
0.0
 11
5.1478346794
 21
0.9575482268
 31
0.0
 40
0.6665647798
 41
-0.7006982462
 42
-0.2750682551
  0
ELLIPSE
  5
3AA
100
AcDbEntity
  8
0
100
AcDbEllipse
 62
7
  6
CONTINUOUS
 10
-5.9025073234
 20
-11.6450284341
 30
0.0
 11
-0.4000194878
 21
0.6928090714
 31
0.0
 40
0.5789151826
 41
0.7867191038
 42
2.3547763749
  0
ELLIPSE
  5
3AB
100
AcDbEntity
  8
RACCORDO
100
AcDbEllipse
 62
7
  6
CONTINUOUS
 10
-28.1408215127
 20
56.4682741624
 30
0.0
 11
-0.5013954353
 21
0.868386877
 31
0.0
 40
0.5757524875
 41
-0.7840766935
 42
0.0520985859
  0
ELLIPSE
  5
3AC
100
AcDbEntity
  8
0
100
AcDbEllipse
 62
7
  6
CONTINUOUS
 10
121.4890112998
 20
54.8268292976
 30
0.0
 11
114.2761852079
 21
126.7196181975
 31
0.0
 40
0.3814884295
 41
-3.7749362596
 42
-3.7581621904
  0
ELLIPSE
  5
3AD
100
AcDbEntity
  8
0
100
AcDbEllipse
 62
7
  6
CONTINUOUS
 10
116.7488160909
 20
57.5637586027
 30
0.0
 11
39.144967187
 21
166.622327116
 31
0.0
 40
0.6952787603
 41
-4.0582033802
 42
-4.0519786976
  0
ELLIPSE
  5
3AE
100
AcDbEntity
  8
0
100
AcDbEllipse
 62
7
  6
CONTINUOUS
 10
117.1585999851
 20
57.327154518
 30
0.0
 11
111.9792925869
 21
128.0850400428
 31
0.0
 40
0.3995644544
 41
-3.7774770381
 42
-3.7659333559
  0
ELLIPSE
  5
3AF
100
AcDbEntity
  8
0
100
AcDbEllipse
 62
7
  6
CONTINUOUS
 10
110.8980983188
 20
60.9418897176
 30
0.0
 11
25.1749394473
 21
171.5727221992
 31
0.0
 40
0.7088651675
 41
-4.1304804737
 42
-4.1137064045
  0
ELLIPSE
  5
3B0
100
AcDbEntity
  8
0
100
AcDbEllipse
 62
7
  6
CONTINUOUS
 10
116.7488160909
 20
57.5637586027
 30
0.0
 11
39.1098980172
 21
166.4730536049
 31
0.0
 40
0.6952787603
 41
-4.0581356351
 42
-4.0519053363
  0
ELLIPSE
  5
3B1
100
AcDbEntity
  8
0
100
AcDbEllipse
 62
7
  6
CONTINUOUS
 10
116.628821284
 20
57.6330421003
 30
0.0
 11
36.2622945329
 21
167.5495560783
 31
0.0
 40
0.6986691259
 41
-4.0631746043
 42
-4.0598210564
  0
ELLIPSE
  5
3B2
100
AcDbEntity
  8
0
100
AcDbEllipse
 62
7
  6
CONTINUOUS
 10
121.4890112998
 20
54.8268292976
 30
0.0
 11
114.1738075272
 21
126.6060927015
 31
0.0
 40
0.3814884295
 41
-3.7739014683
 42
-3.7580834622
  0
ELLIPSE
  5
3B3
100
AcDbEntity
  8
0
100
AcDbEllipse
 62
7
  6
CONTINUOUS
 10
113.1059410289
 20
59.6671090075
 30
0.0
 11
10.3174595334
 21
175.8321184433
 31
0.0
 40
0.7160762854
 41
-4.1951584555
 42
-4.1843514627
  0
ELLIPSE
  5
3B4
100
AcDbEntity
  8
0
100
AcDbEllipse
 62
7
  6
CONTINUOUS
 10
116.9404513446
 20
57.4531108089
 30
0.0
 11
74.7266798953
 21
149.8826902858
 31
0.0
 40
0.6139811386
 41
-3.8877681049
 42
-3.8768482551
  0
ELLIPSE
  5
3B5
100
AcDbEntity
  8
0
100
AcDbEllipse
 62
7
  6
CONTINUOUS
 10
120.5825175747
 20
55.3502274135
 30
0.0
 11
119.0820080186
 21
123.7206245819
 31
0.0
 40
0.3418816387
 41
-3.7706765582
 42
-3.7623289378
  0
ELLIPSE
  5
3B6
100
AcDbEntity
  8
0
100
AcDbEllipse
 62
7
  6
CONTINUOUS
 10
116.9548950332
 20
57.4447712041
 30
0.0
 11
93.9929009386
 21
138.7583599347
 31
0.0
 40
0.5232362147
 41
-3.8175129253
 42
-3.8016949217
  0
ELLIPSE
  5
3B7
100
AcDbEntity
  8
0
100
AcDbEllipse
 62
7
  6
CONTINUOUS
 10
117.1585999851
 20
57.327154518
 30
0.0
 11
111.878972645
 21
127.9702912935
 31
0.0
 40
0.3995644544
 41
-3.7764422127
 42
-3.7658593517
  0
ELLIPSE
  5
3B8
100
AcDbEntity
  8
0
100
AcDbEllipse
 62
7
  6
CONTINUOUS
 10
110.8980983188
 20
60.9418897176
 30
0.0
 11
25.1523857375
 21
171.4190137311
 31
0.0
 40
0.7088651675
 41
-4.1294456824
 42
-4.1136276763
  0
ELLIPSE
  5
3B9
100
AcDbEntity
  8
DRAFT
100
AcDbEllipse
 62
7
  6
CONTINUOUS
 10
30.5822784214
 20
-16.2863456742
 30
0.0
 11
5.1774686765
 21
-0.6785096723
 31
0.0
 40
0.4693271057
 41
-0.5159119978
 42
-0.0902820066
  0
ELLIPSE
  5
3BA
100
AcDbEntity
  8
0
100
AcDbEllipse
 62
7
  6
CONTINUOUS
 10
116.9548950332
 20
57.4447712041
 30
0.0
 11
94.077182749
 21
138.8827821588
 31
0.0
 40
0.5232362147
 41
-3.8185477191
 42
-3.8017736499
  0
ELLIPSE
  5
3BB
100
AcDbEntity
  8
0
100
AcDbEllipse
 62
7
  6
CONTINUOUS
 10
113.1059410289
 20
59.6671090075
 30
0.0
 11
10.3267110211
 21
175.9897840662
 31
0.0
 40
0.7160762854
 41
-4.1952272933
 42
-4.1842716361
  0
ELLIPSE
  5
3BC
100
AcDbEntity
  8
0
100
AcDbEllipse
 62
7
  6
CONTINUOUS
 10
116.9404513446
 20
57.4531108089
 30
0.0
 11
74.7936860181
 21
150.0170875047
 31
0.0
 40
0.6139811386
 41
-3.8878369839
 42
-3.8769269833
  0
ELLIPSE
  5
3BD
100
AcDbEntity
  8
0
100
AcDbEllipse
 62
7
  6
CONTINUOUS
 10
120.5825175747
 20
55.3502274135
 30
0.0
 11
119.1887867979
 21
123.8315627285
 31
0.0
 40
0.3418816387
 41
-3.7717111746
 42
-3.7624009259
  0
ELLIPSE
  5
3BE
100
AcDbEntity
  8
0
100
AcDbEllipse
 62
7
  6
CONTINUOUS
 10
116.628821284
 20
57.6330421003
 30
0.0
 11
36.2948103059
 21
167.6997948705
 31
0.0
 40
0.6986691259
 41
-4.0632503059
 42
-4.0598997846
  0
ENDSEC
  0
SECTION
  2
OBJECTS
  0
DICTIONARY
  5
C
100
AcDbDictionary
280
0
281
1
  3
ACAD_GROUP
350
D
  3
ACAD_MLINESTYLE
350
17
  3
ACAD_LAYOUT
350
1A
  3
ACAD_PLOTSETTINGS
350
19
  3
ACAD_PLOTSTYLENAME
350
E
  0
DICTIONARY
  5
D
102
{ACAD_REACTORS
330
C
102
}
100
AcDbDictionary
280
0
281
1
  0
ACDBDICTIONARYWDFLT
  5
E
102
{ACAD_REACTORS
330
C
102
}
100
AcDbDictionary
281
1
  3
Normal
350
F
100
AcDbDictionaryWithDefault
340
F
  0
DICTIONARY
  5
17
102
{ACAD_REACTORS
330
C
102
}
100
AcDbDictionary
280
0
281
1
  3
Standard
350
18
  0
DICTIONARY
  5
19
102
{ACAD_REACTORS
330
C
102
}
100
AcDbDictionary
281
1
  0
DICTIONARY
  5
1A
102
{ACAD_REACTORS
330
C
102
}
100
AcDbDictionary
281
1
  3
Model
350
3BF
  3
Layout1
350
3C0
  0
ACDBPLACEHOLDER
  5
F
102
{ACAD_REACTORS
330
E
102
}
  0
MLINESTYLE
  5
18
102
{ACAD_REACTORS
330
17
102
}
100
AcDbMlineStyle
  2
STANDARD
 70
0
  3

 62
256
 51
90.0
 52
90.0
 71
2
 49
0.5
 62
256
  6
BYLAYER
 49
-0.5
 62
256
  6
BYLAYER
  0
LAYOUT
  5
3BF
102
{ACAD_REACTORS
330
1A
102
}
100
AcDbPlotSettings
  1

  2
none_device
  4
ISO_A4_(297.00_x_210.00_MM)
  6

 40
0.0
 41
0.0
 42
0.0
 43
0.0
 44
297.0
 45
210.0
 46
0.0
 47
0.0
 48
0.0
 49
0.0
140
0.0
141
0.0
142
1.0
143
1.0
 70
1024
 72
1
 73
0
 74
0
  7

 75
0
147
1.0
148
0.0
149
0.0
100
AcDbLayout
  1
Model
 70
0
 71
0
 10
0.0
 20
0.0
 11
297.0
 21
210.0
 12
0.0
 22
0.0
 32
0.0
 14
0.0
 24
0.0
 34
0.0
 15
0.0
 25
0.0
 35
0.0
146
0.0
 13
0.0
 23
0.0
 33
0.0
 16
1.0
 26
0.0
 36
0.0
 17
0.0
 27
1.0
 37
0.0
 76
0
330
212
345
0
346
0
  0
LAYOUT
  5
3C0
102
{ACAD_REACTORS
330
1A
102
}
100
AcDbPlotSettings
  1

  2
none_device
  4
ISO_A4_(297.00_x_210.00_MM)
  6

 40
0.0
 41
0.0
 42
0.0
 43
0.0
 44
297.0
 45
210.0
 46
0.0
 47
0.0
 48
0.0
 49
0.0
140
0.0
141
0.0
142
1.0
143
1.0
 70
0
 72
1
 73
0
 74
0
  7

 75
0
147
1.0
148
0.0
149
0.0
100
AcDbLayout
  1
Layout1
 70
0
 71
1
 10
0.0
 20
0.0
 11
297.0
 21
210.0
 12
0.0
 22
0.0
 32
0.0
 14
0.0
 24
0.0
 34
0.0
 15
0.0
 25
0.0
 35
0.0
146
0.0
 13
0.0
 23
0.0
 33
0.0
 16
1.0
 26
0.0
 36
0.0
 17
0.0
 27
1.0
 37
0.0
 76
0
330
213
345
0
346
0
  0
ENDSEC
  0
EOF
