  0
SECTION
  2
HEADER
  9
$ACADVER
  1
AC1021
  9
$DWGCODEPAGE
  3
ANSI_1252
  9
$EXTMAX
 10
297.0
 20
210.0
 30
0.0
  9
$EXTMIN
 10
0.0
 20
0.0
 30
0.0
  9
$LIMMIN
 10
0.0
 20
0.0
  9
$LIMMAX
 10
297.0
 20
210.0
  9
$VIEWCTR
 10
148.5
 20
105.0
  9
$VIEWSIZE
 40
210.0
  9
$CLAYER
  8
0
  9
$LTSCALE
 40
16.335
  9
$CELTYPE
  6
BYLAYER
  9
$DIMSCALE
 40
1.0
  9
$DIMASZ
 40
3.0
  9
$DIMEXO
 40
0.5
  9
$DIMDLI
 40
11.286
  9
$DIMEXE
 40
1.5
  9
$DIMCEN
 40
2.673
  9
$DIMLFAC
 40
1.0
  9
$DIMBLK
  1
_FILLED
  9
$DIMALT
 70
0
  9
$DIMALTF
 40
25.4
  9
$DIMTXT
 40
3.0
  9
$DIMTOL
 70
1
  9
$DIMLIM
 70
0
  9
$DIMTFAC
 40
1.0
  9
$DIMTP
 40
0.01
  9
$DIMTM
 40
0.01
  9
$DIMGAP
 40
0.625
  9
$DIMDSEP
 70
44
  9
$AUNITS
 70
0
  9
$PDMODE
 70
3
  9
$PDSIZE
 40
3.0
  9
$HANDSEED
  5
435
  9
$TILEMODE
 70
1
  9
$MEASUREMENT
 70
1
  9
$INSUNITS
 70
4
  0
ENDSEC
  0
SECTION
  2
CLASSES
  0
CLASS
  1
ACDBDICTIONARYWDFLT
  2
AcDbDictionaryWithDefault
  3
AutoCAD 2000
 90
0
 91
1
280
0
281
0
  0
CLASS
  1
ACDBPLACEHOLDER
  2
AcDbPlaceHolder
  3
AutoCAD 2000
 90
0
 91
1
280
0
281
0
  0
CLASS
  1
LAYOUT
  2
AcDbLayout
  3
AutoCAD 2000
 90
0
 91
0
280
0
281
0
  0
ENDSEC
  0
SECTION
  2
TABLES
  0
TABLE
  2
VPORT
  5
8
100
AcDbSymbolTable
 70
2
  0
VPORT
  5
1F4
100
AcDbSymbolTableRecord
100
AcDbViewportTableRecord
  2
*ACTIVE
 70
0
 10
0.0
 20
0.0
 11
1.0
 21
1.0
 12
148.5
 22
105.0
 13
0.0
 23
0.0
 14
1.0
 24
1.0
 15
0.0
 25
0.0
 16
0.0
 26
0.0
 36
1.0
 17
0.0
 27
0.0
 37
0.0
 40
210.0
 41
1.4142857143
 42
50.0
 43
0.0
 44
0.0
 50
0.0
 51
0.0
 71
0
 72
100
 73
1
 74
1
 75
0
 76
0
 77
0
 78
0
  0
ENDTAB
  0
TABLE
  2
LTYPE
  5
5
100
AcDbSymbolTable
 70
6
  0
LTYPE
  5
14
100
AcDbSymbolTableRecord
100
AcDbLinetypeTableRecord
  2
BYBLOCK
 70
0
  3

 72
65
 73
0
 40
0.0
  0
LTYPE
  5
15
100
AcDbSymbolTableRecord
100
AcDbLinetypeTableRecord
  2
BYLAYER
 70
0
  3

 72
65
 73
0
 40
0.0
  0
LTYPE
  5
16
100
AcDbSymbolTableRecord
100
AcDbLinetypeTableRecord
  2
CONTINUOUS
 70
64
  3
Solid line
 72
65
 73
0
 40
0.0
  0
LTYPE
  5
1F5
100
AcDbSymbolTableRecord
100
AcDbLinetypeTableRecord
  2
CENTER
 70
64
  3
____ _ ____ _ ____ _ ____ _ ____ _ ____ _ ____
 72
65
 73
4
 40
0.6
 49
0.375
 74
0
 49
-0.075
 74
0
 49
0.075
 74
0
 49
-0.075
 74
0
  0
LTYPE
  5
1F6
100
AcDbSymbolTableRecord
100
AcDbLinetypeTableRecord
  2
HIDDEN
 70
64
  3
- - - - - - - - - - - - - - - - - - - -
 72
65
 73
2
 40
0.2
 49
0.1
 74
0
 49
-0.1
 74
0
  0
LTYPE
  5
1F7
100
AcDbSymbolTableRecord
100
AcDbLinetypeTableRecord
  2
PHANTOM
 70
64
  3
_____ _ _ _____ _ _ _____ _ _ _____
 72
65
 73
6
 40
0.8
 49
0.45
 74
0
 49
-0.05
 74
0
 49
0.1
 74
0
 49
-0.05
 74
0
 49
0.1
 74
0
 49
-0.05
 74
0
  0
LTYPE
  5
1F8
100
AcDbSymbolTableRecord
100
AcDbLinetypeTableRecord
  2
DOT
 70
64
  3
. . . . . . . . . . . . . . . . . . . .
 72
65
 73
2
 40
0.2
 49
0.1
 74
0
 49
-0.1
 74
0
  0
LTYPE
  5
1F9
100
AcDbSymbolTableRecord
100
AcDbLinetypeTableRecord
  2
DASHED
 70
64
  3
- - - - - - - - - - - - - - - - - - - -
 72
65
 73
2
 40
0.2
 49
0.1
 74
0
 49
-0.1
 74
0
  0
ENDTAB
  0
TABLE
  2
LAYER
  5
2
100
AcDbSymbolTable
 70
36
  0
LAYER
  5
10
100
AcDbSymbolTableRecord
100
AcDbLayerTableRecord
  2
0
 70
0
 62
7
  6
CONTINUOUS
370
-3
390
F
  0
LAYER
  5
1FA
100
AcDbSymbolTableRecord
100
AcDbLayerTableRecord
  2
DEFAULT_1
 70
0
 62
7
  6
CENTER
370
-3
390
F
  0
LAYER
  5
1FB
100
AcDbSymbolTableRecord
100
AcDbLayerTableRecord
  2
DEFAULT_2
 70
0
 62
7
  6
HIDDEN
370
-3
390
F
  0
LAYER
  5
1FC
100
AcDbSymbolTableRecord
100
AcDbLayerTableRecord
  2
DEFAULT_3
 70
0
 62
7
  6
PHANTOM
370
-3
390
F
  0
LAYER
  5
1FD
100
AcDbSymbolTableRecord
100
AcDbLayerTableRecord
  2
ASSI
 70
0
 62
7
  6
CONTINUOUS
370
-3
390
F
  0
LAYER
  5
1FE
100
AcDbSymbolTableRecord
100
AcDbLayerTableRecord
  2
COORDINATE
 70
0
 62
7
  6
CONTINUOUS
370
-3
390
F
  0
LAYER
  5
1FF
100
AcDbSymbolTableRecord
100
AcDbLayerTableRecord
  2
COPY_PUBLISH
 70
0
 62
7
  6
CONTINUOUS
370
-3
390
F
  0
LAYER
  5
200
100
AcDbSymbolTableRecord
100
AcDbLayerTableRecord
  2
COSMETIC
 70
0
 62
7
  6
CONTINUOUS
370
-3
390
F
  0
LAYER
  5
201
100
AcDbSymbolTableRecord
100
AcDbLayerTableRecord
  2
COSMETICI
 70
0
 62
7
  6
CONTINUOUS
370
-3
390
F
  0
LAYER
  5
202
100
AcDbSymbolTableRecord
100
AcDbLayerTableRecord
  2
CURVE
 70
0
 62
7
  6
CONTINUOUS
370
-3
390
F
  0
LAYER
  5
203
100
AcDbSymbolTableRecord
100
AcDbLayerTableRecord
  2
DRAFT
 70
0
 62
7
  6
CONTINUOUS
370
-3
390
F
  0
LAYER
  5
204
100
AcDbSymbolTableRecord
100
AcDbLayerTableRecord
  2
IMPORT_IGES
 70
0
 62
7
  6
CONTINUOUS
370
-3
390
F
  0
LAYER
  5
205
100
AcDbSymbolTableRecord
100
AcDbLayerTableRecord
  2
INTFCLR_1
 70
0
 62
7
  6
CONTINUOUS
370
-3
390
F
  0
LAYER
  5
206
100
AcDbSymbolTableRecord
100
AcDbLayerTableRecord
  2
NOTE
 70
0
 62
7
  6
CONTINUOUS
370
-3
390
F
  0
LAYER
  5
207
100
AcDbSymbolTableRecord
100
AcDbLayerTableRecord
  2
PIANI
 70
0
 62
7
  6
CONTINUOUS
370
-3
390
F
  0
LAYER
  5
208
100
AcDbSymbolTableRecord
100
AcDbLayerTableRecord
  2
PUNTI
 70
0
 62
7
  6
CONTINUOUS
370
-3
390
F
  0
LAYER
  5
209
100
AcDbSymbolTableRecord
100
AcDbLayerTableRecord
  2
RACCORDO
 70
0
 62
7
  6
CONTINUOUS
370
-3
390
F
  0
LAYER
  5
20A
100
AcDbSymbolTableRecord
100
AcDbLayerTableRecord
  2
SIMBOLI
 70
0
 62
7
  6
CONTINUOUS
370
-3
390
F
  0
LAYER
  5
20B
100
AcDbSymbolTableRecord
100
AcDbLayerTableRecord
  2
SMUSSO
 70
0
 62
7
  6
CONTINUOUS
370
-3
390
F
  0
LAYER
  5
20C
100
AcDbSymbolTableRecord
100
AcDbLayerTableRecord
  2
SNAPLINE
 70
0
 62
7
  6
CONTINUOUS
370
-3
390
F
  0
LAYER
  5
20D
100
AcDbSymbolTableRecord
100
AcDbLayerTableRecord
  2
SUPERFICI
 70
0
 62
7
  6
CONTINUOUS
370
-3
390
F
  0
LAYER
  5
20E
100
AcDbSymbolTableRecord
100
AcDbLayerTableRecord
  2
TRASH
 70
0
 62
7
  6
CONTINUOUS
370
-3
390
F
  0
LAYER
  5
20F
100
AcDbSymbolTableRecord
100
AcDbLayerTableRecord
  2
XSEC_DATUMS
 70
0
 62
7
  6
CONTINUOUS
370
-3
390
F
  0
ENDTAB
  0
TABLE
  2
STYLE
  5
3
100
AcDbSymbolTable
 70
1
  0
STYLE
  5
11
100
AcDbSymbolTableRecord
100
AcDbTextStyleTableRecord
  2
STANDARD
 70
0
 40
0.0
 41
0.8
 50
0.0
 71
0
 42
0.2
  3
txt
  4

  0
STYLE
  5
210
100
AcDbSymbolTableRecord
100
AcDbTextStyleTableRecord
  2
TEXTSTYLE_1
 70
0
 40
0.0
 41
0.8
 50
0.0
 71
0
 42
0.2
  3
gdt
  4

  0
ENDTAB
  0
TABLE
  2
VIEW
  5
6
100
AcDbSymbolTable
 70
0
  0
ENDTAB
  0
TABLE
  2
UCS
  5
7
100
AcDbSymbolTable
 70
0
  0
ENDTAB
  0
TABLE
  2
APPID
  5
9
100
AcDbSymbolTable
 70
1
  0
APPID
  5
211
100
AcDbSymbolTableRecord
100
AcDbRegAppTableRecord
  2
ACAD
 70
0
  0
ENDTAB
  0
TABLE
  2
BLOCK_RECORD
  5
1
100
AcDbSymbolTable
 70
0
  0
BLOCK_RECORD
  5
212
100
AcDbSymbolTableRecord
100
AcDbBlockTableRecord
  2
*Model_Space
  0
BLOCK_RECORD
  5
213
100
AcDbSymbolTableRecord
100
AcDbBlockTableRecord
  2
*Paper_Space
  0
BLOCK_RECORD
  5
214
100
AcDbSymbolTableRecord
100
AcDbBlockTableRecord
  2
_FILLED
  0
ENDTAB
  0
TABLE
  2
DIMSTYLE
  5
A
100
AcDbSymbolTable
 70
1
100
AcDbDimStyleTable
 71
0
  0
DIMSTYLE
105
215
100
AcDbSymbolTableRecord
100
AcDbDimStyleTableRecord
  2
STANDARD
 70
0
  3

  4

 40
1.0
 41
3.0
 42
0.5
 43
0.38
 44
1.5
 45
0.0
 46
0.0
 47
0.01
 48
0.01
140
3.0
141
0.09
142
0.0
143
25.4
144
1.0
145
0.0
146
1.0
147
0.625
 71
1.0
 72
0.0
 73
0
 74
0
 75
0
 76
0
 77
1
 78
8
 79
2
170
0
171
1
172
0
173
0
174
0
175
0
176
0
177
0
178
0
270
2
179
2
271
2
272
2
273
2
274
2
275
0
280
0
281
0
282
0
283
1
284
8
285
0
286
0
287
3
288
0
340
11
278
44
341
214
342
214
343
214
344
214
  0
ENDTAB
  0
ENDSEC
  0
SECTION
  2
BLOCKS
  0
BLOCK
  5
20
100
AcDbEntity
  8
0
100
AcDbBlockBegin
  2
*Model_Space
 70
0
 10
0.0
 20
0.0
 30
0.0
  3
*Model_Space
  1

  0
ENDBLK
  5
21
100
AcDbEntity
  8
0
100
AcDbBlockEnd
  0
BLOCK
  5
1C
100
AcDbEntity
  8
0
100
AcDbBlockBegin
  2
*Paper_Space
 70
0
 10
0.0
 20
0.0
 30
0.0
  3
*Paper_Space
  1

  0
ENDBLK
  5
1D
100
AcDbEntity
  8
0
100
AcDbBlockEnd
  0
BLOCK
  5
216
100
AcDbEntity
  8
0
100
AcDbBlockBegin
  2
_FILLED
 70
64
 10
0.0
 20
0.0
  3
_FILLED
  1

  0
SOLID
  5
217
100
AcDbEntity
  8
0
  6
BYBLOCK
 62
0
100
AcDbTrace
 10
0.0
 20
0.0
 11
-1.0
 21
0.1333333333
 12
-1.0
 22
-0.1333333333
 13
-1.0
 23
-0.1333333333
  0
ENDBLK
  5
218
100
AcDbEntity
  8
0
  6
BYBLOCK
 62
0
100
AcDbBlockEnd
  0
ENDSEC
  0
SECTION
  2
ENTITIES
  0
LINE
  5
219
100
AcDbEntity
  8
RACCORDO
100
AcDbLine
 62
7
  6
CONTINUOUS
 10
-30.5439750086
 20
-8.2510489037
 11
-30.3607680101
 21
-10.0779316334
  0
LWPOLYLINE
  5
21A
100
AcDbEntity
  8
0
100
AcDbPolyline
 62
7
  6
CONTINUOUS
 90
39
 70
0
 10
4.1574535989
 20
-24.4612087954
 10
4.1564569488
 20
-24.4508630716
 10
4.1551556427
 20
-24.4405490201
 10
4.1535634223
 20
-24.4302702291
 10
4.1516940293
 20
-24.4200302868
 10
4.1495612053
 20
-24.4098327815
 10
4.147178692
 20
-24.3996813013
 10
4.1445602311
 20
-24.3895794347
 10
4.1417195642
 20
-24.3795307696
 10
4.138670433
 20
-24.3695388945
 10
4.1354265791
 20
-24.3596073975
 10
4.1320017442
 20
-24.3497398668
 10
4.1270324557
 20
-24.3363227648
 10
4.1217523102
 20
-24.3230378982
 10
4.1161647336
 20
-24.309890551
 10
4.1102731517
 20
-24.2968860072
 10
4.1040809904
 20
-24.2840295511
 10
4.0975916756
 20
-24.2713264665
 10
4.0908086331
 20
-24.2587820376
 10
4.0837352889
 20
-24.2464015485
 10
4.0763750688
 20
-24.2341902832
 10
4.0685986454
 20
-24.2219484408
 10
4.0605365178
 20
-24.2098902386
 10
4.0521962276
 20
-24.198018778
 10
4.0435853165
 20
-24.1863371602
 10
4.0347113262
 20
-24.1748484867
 10
4.0255817984
 20
-24.1635558589
 10
4.0162042748
 20
-24.152462378
 10
4.006586297
 20
-24.1415711455
 10
3.9967354068
 20
-24.1308852628
 10
3.9873826047
 20
-24.1211482814
 10
3.9778348723
 20
-24.1116031613
 10
3.968091707
 20
-24.1022619329
 10
3.9581526061
 20
-24.0931366264
 10
3.9480170668
 20
-24.0842392722
 10
3.9376845864
 20
-24.0755819007
 10
3.9271546622
 20
-24.0671765423
 10
3.9164267915
 20
-24.0590352272
 10
3.9055004716
 20
-24.0511699858
  0
LWPOLYLINE
  5
21B
100
AcDbEntity
  8
0
100
AcDbPolyline
 62
7
  6
CONTINUOUS
 90
39
 70
0
 10
4.2638241587
 20
-24.3997917689
 10
4.2628268754
 20
-24.389446323
 10
4.261524951
 20
-24.3791325678
 10
4.2599321276
 20
-24.36885409
 10
4.2580621475
 20
-24.3586144762
 10
4.2559287528
 20
-24.3484173133
 10
4.2535456856
 20
-24.3382661879
 10
4.250926688
 20
-24.3281646867
 10
4.2480855021
 20
-24.3181163964
 10
4.2450358702
 20
-24.3081249037
 10
4.2417915344
 20
-24.2981937953
 10
4.2383662368
 20
-24.2883266579
 10
4.2333962632
 20
-24.2749098848
 10
4.2281154599
 20
-24.2616253554
 10
4.2225272534
 20
-24.2484783521
 10
4.2166350702
 20
-24.2354741576
 10
4.2104423365
 20
-24.2226180542
 10
4.203952479
 20
-24.2099153245
 10
4.1971689238
 20
-24.1973712508
 10
4.1900950975
 20
-24.1849911157
 10
4.1827344266
 20
-24.1727802016
 10
4.1749574987
 20
-24.1605385918
 10
4.1668948933
 20
-24.14848062
 10
4.1585541515
 20
-24.1366093864
 10
4.1499428146
 20
-24.1249279912
 10
4.141068424
 20
-24.1134395345
 10
4.131938521
 20
-24.1021471166
 10
4.1225606468
 20
-24.0910538376
 10
4.1129423428
 20
-24.0801627976
 10
4.1030911503
 20
-24.0694770969
 10
4.0937380672
 20
-24.0597402527
 10
4.0841900729
 20
-24.0501952593
 10
4.0744466642
 20
-24.0408541462
 10
4.064507338
 20
-24.0317289425
 10
4.054371591
 20
-24.0228316774
 10
4.0440389202
 20
-24.0141743803
 10
4.0335088223
 20
-24.0057690803
 10
4.0227807944
 20
-23.9976278068
 10
4.0118543331
 20
-23.989762589
  0
LINE
  5
21C
100
AcDbEntity
  8
RACCORDO
100
AcDbLine
 62
7
  6
CONTINUOUS
 10
-30.7043215082
 20
-6.406581117
 11
-30.5439750086
 21
-8.2510489037
  0
LINE
  5
21D
100
AcDbEntity
  8
RACCORDO
100
AcDbLine
 62
7
  6
CONTINUOUS
 10
-30.8417765819
 20
-4.5448843093
 11
-30.7043215082
 21
-6.406581117
  0
LINE
  5
21E
100
AcDbEntity
  8
0
100
AcDbLine
 62
7
  6
CONTINUOUS
 10
-0.8932704455
 20
-14.1287310751
 11
-0.8951100963
 21
-14.0988672041
  0
LINE
  5
21F
100
AcDbEntity
  8
RACCORDO
100
AcDbLine
 62
7
  6
CONTINUOUS
 10
-30.9563137482
 20
-2.6663943149
 11
-30.8417765819
 21
-4.5448843093
  0
LINE
  5
220
100
AcDbEntity
  8
RACCORDO
100
AcDbLine
 62
7
  6
CONTINUOUS
 10
-31.0451994272
 20
-0.8355798282
 11
-30.9563137482
 21
-2.6663943149
  0
LWPOLYLINE
  5
221
100
AcDbEntity
  8
RACCORDO
100
AcDbPolyline
 62
7
  6
CONTINUOUS
 90
15
 70
0
 10
-30.957334892
 20
-0.9574549074
 10
-30.9024624456
 20
-2.139969373
 10
-30.838334488
 20
-3.3220775374
 10
-30.7648063724
 20
-4.5036833999
 10
-30.6817334519
 20
-5.68469096
 10
-30.5889710798
 20
-6.8650042172
 10
-30.486374609
 20
-8.0445271707
 10
-30.3737993929
 20
-9.2231638201
 10
-30.2557734275
 20
-10.3576831595
 10
-30.1282038217
 20
-11.4911699621
 10
-29.9909421028
 20
-12.6235033343
 10
-29.8438397983
 20
-13.7545623821
 10
-29.6867484355
 20
-14.8842262118
 10
-29.5195195421
 20
-16.0123739295
 10
-29.3420046453
 20
-17.1388846414
  0
LINE
  5
222
100
AcDbEntity
  8
RACCORDO
100
AcDbLine
 62
7
  6
CONTINUOUS
 10
-30.9626229508
 20
-0.832649888
 11
-30.957334964
 21
-0.9574548659
  0
LWPOLYLINE
  5
223
100
AcDbEntity
  8
RACCORDO
100
AcDbPolyline
 62
7
  6
CONTINUOUS
 90
13
 70
0
 10
-15.3079759925
 20
-8.9682618425
 10
-15.4291727772
 20
-6.0485922018
 10
-15.5279016951
 20
-3.1280325139
 10
-15.6044270756
 20
-0.2066823922
 10
-15.6600219554
 20
2.7835262656
 10
-15.6928943341
 20
5.7742405859
 10
-15.7032966596
 20
8.7652427976
 10
-15.6914813797
 20
11.7563151292
 10
-15.6577009421
 20
14.7472398097
 10
-15.6022077946
 20
17.7377990677
 10
-15.5252543852
 20
20.7277751321
 10
-15.4270931614
 20
23.7169502316
 10
-15.3079765712
 20
26.7051065949
  0
LINE
  5
224
100
AcDbEntity
  8
0
100
AcDbLine
 62
7
  6
CONTINUOUS
 10
-11.7754044873
 20
23.05658505
 11
-11.7769124062
 21
23.0943508879
  0
LINE
  5
225
100
AcDbEntity
  8
RACCORDO
100
AcDbLine
 62
7
  6
CONTINUOUS
 10
-31.160428913
 20
2.1234548616
 11
-31.0451994272
 21
-0.8355799161
  0
LINE
  5
226
100
AcDbEntity
  8
RACCORDO
100
AcDbLine
 62
7
  6
CONTINUOUS
 10
-31.2567615942
 20
5.1560078454
 11
-31.160428913
 21
2.1234548616
  0
LWPOLYLINE
  5
227
100
AcDbEntity
  8
RACCORDO
100
AcDbPolyline
 62
7
  6
CONTINUOUS
 90
43
 70
0
 10
-15.0289863787
 20
-10.5412342793
 10
-15.0294592976
 20
-10.525761484
 10
-15.0294208147
 20
-10.5102741416
 10
-15.0288905589
 20
-10.4947835939
 10
-15.027888159
 20
-10.4793011827
 10
-15.026433244
 20
-10.4638382498
 10
-15.0245454427
 20
-10.4484061372
 10
-15.0222443841
 20
-10.4330161866
 10
-15.0195496969
 20
-10.41767974
 10
-15.0164810102
 20
-10.402408139
 10
-15.0130579527
 20
-10.3872127256
 10
-15.0093001534
 20
-10.3721048416
 10
-15.0042212413
 20
-10.3535778702
 10
-14.9986731779
 20
-10.3352062923
 10
-14.9926676181
 20
-10.3169946415
 10
-14.9862162167
 20
-10.2989474513
 10
-14.9793306287
 20
-10.2810692554
 10
-14.972022509
 20
-10.2633645872
 10
-14.9643035124
 20
-10.2458379805
 10
-14.9561852938
 20
-10.2284939687
 10
-14.9476795081
 20
-10.2113370855
 10
-14.9387978103
 20
-10.1943718645
 10
-14.9294183446
 20
-10.1773711124
 10
-14.9196648644
 20
-10.1605822279
 10
-14.909537851
 20
-10.1440153679
 10
-14.8990377859
 20
-10.1276806894
 10
-14.8881651505
 20
-10.1115883495
 10
-14.8769204261
 20
-10.0957485052
 10
-14.8653040943
 20
-10.0801713135
 10
-14.8533166363
 20
-10.0648669315
 10
-14.8409585336
 20
-10.0498455162
 10
-14.8282302676
 20
-10.0351172245
 10
-14.8173601372
 20
-10.0230980137
 10
-14.8062335091
 20
-10.0113076046
 10
-14.794849709
 20
-9.9997649261
 10
-14.7832080626
 20
-9.9884889068
 10
-14.7713078955
 20
-9.9774984755
 10
-14.7591485335
 20
-9.9668125607
 10
-14.7467293023
 20
-9.9564500912
 10
-14.7340495274
 20
-9.9464299958
 10
-14.7211085346
 20
-9.9367712031
 10
-14.7079056495
 20
-9.9274926417
 10
-14.6944401979
 20
-9.9186132405
  0
LINE
  5
228
100
AcDbEntity
  8
RACCORDO
100
AcDbLine
 62
7
  6
CONTINUOUS
 10
-31.331689883
 20
8.2031423866
 11
-31.2567615942
 21
5.1560078454
  0
LWPOLYLINE
  5
229
100
AcDbEntity
  8
0
100
AcDbPolyline
 62
7
  6
CONTINUOUS
 90
44
 70
0
 10
-12.035691369
 20
20.7873555382
 10
-12.0356301649
 20
20.784752927
 10
-12.0356061056
 20
20.7821430671
 10
-12.0356206522
 20
20.7795276456
 10
-12.0356752656
 20
20.7769083497
 10
-12.0357714071
 20
20.7742868668
 10
-12.0359105376
 20
20.7716648839
 10
-12.0360941183
 20
20.7690440883
 10
-12.0363236102
 20
20.7664261673
 10
-12.0366004743
 20
20.763812808
 10
-12.0369261718
 20
20.7612056977
 10
-12.0373021638
 20
20.7586065236
 10
-12.0377299112
 20
20.7560169729
 10
-12.0382108753
 20
20.7534387329
 10
-12.0387465169
 20
20.7508734907
 10
-12.0393382973
 20
20.7483229335
 10
-12.0399876775
 20
20.7457887487
 10
-12.0406961185
 20
20.7432726234
 10
-12.0414650815
 20
20.7407762449
 10
-12.0422960274
 20
20.7383013002
 10
-12.0431904175
 20
20.7358494768
 10
-12.0441497127
 20
20.7334224618
 10
-12.0449769003
 20
20.7314724936
 10
-12.0458485619
 20
20.7295419426
 10
-12.046765466
 20
20.7276327777
 10
-12.0477283816
 20
20.7257469676
 10
-12.0487380772
 20
20.7238864808
 10
-12.0497953216
 20
20.7220532863
 10
-12.0509008835
 20
20.7202493526
 10
-12.0520555316
 20
20.7184766485
 10
-12.0532600346
 20
20.7167371427
 10
-12.0545151613
 20
20.715032804
 10
-12.0558216804
 20
20.713365601
 10
-12.0570864043
 20
20.7118465067
 10
-12.0583952208
 20
20.7103633293
 10
-12.0597468849
 20
20.7089179967
 10
-12.0611401519
 20
20.7075124368
 10
-12.0625737769
 20
20.7061485774
 10
-12.0640465148
 20
20.7048283466
 10
-12.0655571209
 20
20.7035536723
 10
-12.0671043502
 20
20.7023264824
 10
-12.0686869579
 20
20.7011487047
 10
-12.070303699
 20
20.7000222673
 10
-12.0719533287
 20
20.6989490981
  0
LINE
  5
22A
100
AcDbEntity
  8
RACCORDO
100
AcDbLine
 62
7
  6
CONTINUOUS
 10
-16.3189073023
 20
1.0671834903
 11
-16.3318331965
 21
1.7754787057
  0
LINE
  5
22B
100
AcDbEntity
  8
RACCORDO
100
AcDbLine
 62
7
  6
CONTINUOUS
 10
-31.3852070639
 20
11.2646173053
 11
-31.331689883
 21
8.2031423866
  0
LWPOLYLINE
  5
22C
100
AcDbEntity
  8
0
100
AcDbPolyline
 62
7
  6
CONTINUOUS
 90
63
 70
0
 10
-11.8327492765
 20
22.9756355028
 10
-11.832820391
 20
22.9820133424
 10
-11.8330399795
 20
22.9883916435
 10
-11.8334151229
 20
22.9947649308
 10
-11.8339529026
 20
23.0011277296
 10
-11.8346603995
 20
23.0074745646
 10
-11.8355446949
 20
23.013799961
 10
-11.8366128697
 20
23.0200984437
 10
-11.8375833167
 20
23.025011611
 10
-11.8386758492
 20
23.0298995153
 10
-11.8398952739
 20
23.0347567849
 10
-11.8412463976
 20
23.0395780483
 10
-11.8427340269
 20
23.044357934
 10
-11.8443629686
 20
23.0490910704
 10
-11.8461380294
 20
23.053772086
 10
-11.848064016
 20
23.0583956092
 10
-11.8499266614
 20
23.0624949886
 10
-11.851917283
 20
23.0665357049
 10
-11.8540381785
 20
23.0705098273
 10
-11.8562916454
 20
23.0744094247
 10
-11.8586799813
 20
23.0782265664
 10
-11.8612054837
 20
23.0819533213
 10
-11.8638704503
 20
23.0855817586
 10
-11.8666771786
 20
23.0891039474
 10
-11.8694139829
 20
23.0922751196
 10
-11.8722718137
 20
23.0953404783
 10
-11.875247262
 20
23.098292836
 10
-11.8783369188
 20
23.1011250051
 10
-11.8815373751
 20
23.1038297981
 10
-11.884845222
 20
23.1064000274
 10
-11.8882570503
 20
23.1088285053
 10
-11.8917694512
 20
23.1111080444
 10
-11.8953479134
 20
23.1132155012
 10
-11.8990141815
 20
23.1151684904
 10
-11.902760505
 20
23.1169660887
 10
-11.9065791335
 20
23.1186073728
 10
-11.9104623163
 20
23.1200914193
 10
-11.9144023029
 20
23.1214173049
 10
-11.9183913428
 20
23.1225841063
 10
-11.9224216854
 20
23.1235909002
 10
-11.9267414977
 20
23.1244854196
 10
-11.9310927704
 20
23.1252034763
 10
-11.9354690778
 20
23.1257503258
 10
-11.9398639942
 20
23.1261312238
 10
-11.9442710937
 20
23.1263514259
 10
-11.9486839508
 20
23.1264161878
 10
-11.9530961397
 20
23.1263307652
 10
-11.9575012346
 20
23.1261004137
 10
-11.9623674725
 20
23.1256822133
 10
-11.9672143168
 20
23.1250994831
 10
-11.9720389746
 20
23.1243591973
 10
-11.976838653
 20
23.1234683306
 10
-11.9816105591
 20
23.1224338572
 10
-11.9863519001
 20
23.1212627517
 10
-11.9910598832
 20
23.1199619884
 10
-11.9957317154
 20
23.1185385418
 10
-12.0016438517
 20
23.1165517613
 10
-12.0074908108
 20
23.1143854655
 10
-12.0132709761
 20
23.1120489895
 10
-12.0189827311
 20
23.1095516685
 10
-12.0246244593
 20
23.1069028374
 10
-12.0301945441
 20
23.1041118315
 10
-12.035691369
 20
23.1011879858
  0
LINE
  5
22D
100
AcDbEntity
  8
RACCORDO
100
AcDbLine
 62
7
  6
CONTINUOUS
 10
-31.4173108635
 20
14.340216968
 11
-31.3852070639
 21
11.2646173053
  0
LINE
  5
22E
100
AcDbEntity
  8
RACCORDO
100
AcDbLine
 62
7
  6
CONTINUOUS
 10
-31.428
 20
17.4297365828
 11
-31.4173108635
 21
14.340216968
  0
LINE
  5
22F
100
AcDbEntity
  8
0
100
AcDbLine
 62
7
  6
CONTINUOUS
 10
-13.2494203529
 20
-7.7796628884
 11
-13.2494203529
 21
26.0710379532
  0
LINE
  5
230
100
AcDbEntity
  8
0
100
AcDbLine
 62
7
  6
CONTINUOUS
 10
-13.211586007
 20
5.642087157
 11
-13.211586007
 21
3.0065737236
  0
LINE
  5
231
100
AcDbEntity
  8
0
100
AcDbLine
 62
7
  6
CONTINUOUS
 10
-11.8327492765
 20
21.1513867983
 11
-11.8327492765
 21
22.9756355028
  0
LINE
  5
232
100
AcDbEntity
  8
0
100
AcDbLine
 62
7
  6
CONTINUOUS
 10
-11.7753993663
 20
21.2323260433
 11
-11.7753993663
 21
23.056574739
  0
LINE
  5
233
100
AcDbEntity
  8
RACCORDO
100
AcDbLine
 62
7
  6
CONTINUOUS
 10
-31.4172736135
 20
20.532962307
 11
-31.428
 21
17.4297365828
  0
LINE
  5
234
100
AcDbEntity
  8
RACCORDO
100
AcDbLine
 62
7
  6
CONTINUOUS
 10
-31.3851332837
 20
23.6496787255
 11
-31.4172736135
 21
20.532962307
  0
LWPOLYLINE
  5
235
100
AcDbEntity
  8
0
100
AcDbPolyline
 62
7
  6
CONTINUOUS
 90
43
 70
0
 10
-12.035691369
 20
23.1011879858
 10
-12.0356060119
 20
23.1075776092
 10
-12.0357216469
 20
23.1139701759
 10
-12.036031415
 20
23.1203611975
 10
-12.0365284576
 20
23.1267461854
 10
-12.0372059161
 20
23.1331206513
 10
-12.0380569316
 20
23.1394801065
 10
-12.0390746454
 20
23.1458200626
 10
-12.0402521988
 20
23.1521360312
 10
-12.0415827331
 20
23.1584235238
 10
-12.0430593896
 20
23.1646780518
 10
-12.0446753096
 20
23.1708951269
 10
-12.0468047212
 20
23.1783502152
 10
-12.0491233535
 20
23.1857416828
 10
-12.0516271985
 20
23.1930671178
 10
-12.0543122482
 20
23.2003241081
 10
-12.0571744945
 20
23.2075102416
 10
-12.0602099295
 20
23.2146231063
 10
-12.063414545
 20
23.22166029
 10
-12.0667843331
 20
23.2286193808
 10
-12.0703152857
 20
23.2354979665
 10
-12.0740033948
 20
23.2422936351
 10
-12.0778320687
 20
23.2489809027
 10
-12.0818132213
 20
23.2555785191
 10
-12.085947222
 20
23.2620815834
 10
-12.0902344399
 20
23.2684851946
 10
-12.0946752443
 20
23.2747844518
 10
-12.0992700044
 20
23.2809744542
 10
-12.1040190895
 20
23.2870503008
 10
-12.1089228688
 20
23.2930070906
 10
-12.1139817117
 20
23.2988399229
 10
-12.1191959872
 20
23.3045438967
 10
-12.1236006026
 20
23.3091335678
 10
-12.1281104176
 20
23.313624221
 10
-12.1327252697
 20
23.3180072941
 10
-12.1374449965
 20
23.3222742248
 10
-12.1422694354
 20
23.326416451
 10
-12.147198424
 20
23.3304254103
 10
-12.1522317997
 20
23.3342925407
 10
-12.1573694002
 20
23.3380092797
 10
-12.1626110628
 20
23.3415670654
 10
-12.1679566252
 20
23.3449573353
 10
-12.1734059247
 20
23.3481715274
  0
LINE
  5
236
100
AcDbEntity
  8
RACCORDO
100
AcDbLine
 62
7
  6
CONTINUOUS
 10
-31.3315810133
 20
26.7796788942
 11
-31.3851332837
 21
23.6496787255
  0
LINE
  5
237
100
AcDbEntity
  8
RACCORDO
100
AcDbLine
 62
7
  6
CONTINUOUS
 10
-31.2566197981
 20
29.9227437579
 11
-31.3315810133
 21
26.7796788942
  0
LINE
  5
238
100
AcDbEntity
  8
0
100
AcDbLine
 62
7
  6
CONTINUOUS
 10
-11.7763172345
 20
21.2021839696
 11
-11.7754044902
 21
21.2323456821
  0
LINE
  5
239
100
AcDbEntity
  8
RACCORDO
100
AcDbLine
 62
7
  6
CONTINUOUS
 10
-31.1602570761
 20
33.078623068
 11
-31.2566197981
 21
29.9227437579
  0
LWPOLYLINE
  5
23A
100
AcDbEntity
  8
RACCORDO
100
AcDbPolyline
 62
7
  6
CONTINUOUS
 90
43
 70
0
 10
-15.0289863787
 20
27.2899862576
 10
-15.029293158
 20
27.2816732508
 10
-15.029461155
 20
27.2733518984
 10
-15.0294851951
 20
27.2650257981
 10
-15.0293601035
 20
27.2566985474
 10
-15.0290807055
 20
27.2483737442
 10
-15.0286418263
 20
27.2400549861
 10
-15.0280382912
 20
27.2317458707
 10
-15.0272649255
 20
27.2234499958
 10
-15.0263165545
 20
27.215170959
 10
-15.0251880034
 20
27.206912358
 10
-15.0240280265
 20
27.1995854427
 10
-15.0227160374
 20
27.1922831755
 10
-15.0212467383
 20
27.1850111813
 10
-15.0196148314
 20
27.1777750847
 10
-15.0178150189
 20
27.1705805107
 10
-15.015842003
 20
27.1634330841
 10
-15.0136904859
 20
27.1563384297
 10
-15.0113551698
 20
27.1493021722
 10
-15.0088307568
 20
27.1423299366
 10
-15.0061119492
 20
27.1354273476
 10
-15.0037641041
 20
27.1298927231
 10
-15.0012830583
 20
27.1244139014
 10
-14.9986665827
 20
27.1189973173
 10
-14.9959124483
 20
27.1136494056
 10
-14.993018426
 20
27.1083766011
 10
-14.9899822865
 20
27.1031853387
 10
-14.9868018009
 20
27.0980820531
 10
-14.98347474
 20
27.0930731791
 10
-14.9799988747
 20
27.0881651516
 10
-14.9763719759
 20
27.0833644053
 10
-14.9725918145
 20
27.078677375
 10
-14.9689533183
 20
27.0744439024
 10
-14.9651853808
 20
27.0703196331
 10
-14.9612919203
 20
27.0663107213
 10
-14.9572768552
 20
27.0624233213
 10
-14.9531441037
 20
27.0586635873
 10
-14.9488975843
 20
27.0550376736
 10
-14.9445412151
 20
27.0515517343
 10
-14.9400789147
 20
27.0482119238
 10
-14.9355146012
 20
27.0450243963
 10
-14.930852193
 20
27.0419953061
 10
-14.9260956084
 20
27.0391308073
  0
LINE
  5
23B
100
AcDbEntity
  8
RACCORDO
100
AcDbLine
 62
7
  6
CONTINUOUS
 10
-31.0452266794
 20
36.1795891497
 11
-31.1602570761
 21
33.078623068
  0
LINE
  5
23C
100
AcDbEntity
  8
RACCORDO
100
AcDbLine
 62
7
  6
CONTINUOUS
 10
-30.9560859033
 20
38.1293314966
 11
-31.0452266786
 21
36.1795891003
  0
LWPOLYLINE
  5
23D
100
AcDbEntity
  8
RACCORDO
100
AcDbPolyline
 62
7
  6
CONTINUOUS
 90
37
 70
0
 10
-15.3079764351
 20
26.7051066578
 10
-15.307422086
 20
26.7164023893
 10
-15.3066901505
 20
26.7277080818
 10
-15.3057761062
 20
26.7390168433
 10
-15.3046754304
 20
26.7503217814
 10
-15.3033836004
 20
26.761616004
 10
-15.3018960937
 20
26.7728926189
 10
-15.3002083875
 20
26.7841447339
 10
-15.2983159593
 20
26.7953654567
 10
-15.2962142864
 20
26.8065478953
 10
-15.2938988463
 20
26.8176851574
 10
-15.2913651162
 20
26.8287703508
 10
-15.2886085736
 20
26.8397965833
 10
-15.2856246959
 20
26.8507569627
 10
-15.2824089603
 20
26.8616445968
 10
-15.2789568443
 20
26.8724525934
 10
-15.2752638253
 20
26.8831740604
 10
-15.2713253806
 20
26.8938021054
 10
-15.2671369876
 20
26.9043298364
 10
-15.2631897312
 20
26.9136221967
 10
-15.2590372029
 20
26.922822006
 10
-15.2546762673
 20
26.9319218716
 10
-15.2501037892
 20
26.9409144006
 10
-15.245316633
 20
26.9497922005
 10
-15.2403116635
 20
26.9585478784
 10
-15.2350857452
 20
26.9671740416
 10
-15.2296357429
 20
26.9756632975
 10
-15.2239585212
 20
26.9840082531
 10
-15.218416422
 20
26.991708941
 10
-15.2126737759
 20
26.999266325
 10
-15.2067333195
 20
27.0066709672
 10
-15.2005977894
 20
27.0139134296
 10
-15.1942699224
 20
27.0209842744
 10
-15.187752455
 20
27.0278740635
 10
-15.1810481239
 20
27.0345733592
 10
-15.1741596658
 20
27.0410727234
 10
-15.1670898173
 20
27.0473627183
  0
LWPOLYLINE
  5
23E
100
AcDbEntity
  8
RACCORDO
100
AcDbPolyline
 62
7
  6
CONTINUOUS
 90
36
 70
0
 10
-15.9956777542
 20
26.7355834853
 10
-15.9945570044
 20
26.7571305332
 10
-15.9930540888
 20
26.7786628763
 10
-15.9911573077
 20
26.8001698554
 10
-15.9888549612
 20
26.8216408112
 10
-15.9861353497
 20
26.8430650845
 10
-15.9829867733
 20
26.864432016
 10
-15.9793975324
 20
26.8857309465
 10
-15.9753559271
 20
26.9069512167
 10
-15.9717084605
 20
26.9242276602
 10
-15.9677431743
 20
26.9414347156
 10
-15.9634522201
 20
26.958562656
 10
-15.9588277497
 20
26.9756017542
 10
-15.953861915
 20
26.9925422833
 10
-15.9485468677
 20
27.0093745162
 10
-15.9428747595
 20
27.0260887257
 10
-15.9368377423
 20
27.0426751849
 10
-15.9304279678
 20
27.0591241666
 10
-15.9242022475
 20
27.074109752
 10
-15.917649348
 20
27.0889579565
 10
-15.9107635115
 20
27.1036557132
 10
-15.9035389801
 20
27.1181899554
 10
-15.8959699961
 20
27.1325476163
 10
-15.8880508016
 20
27.1467156292
 10
-15.8797756387
 20
27.1606809272
 10
-15.8711387497
 20
27.1744304437
 10
-15.8621343767
 20
27.1879511118
 10
-15.8534109489
 20
27.2003294785
 10
-15.8443667976
 20
27.2124820162
 10
-15.8350051694
 20
27.2243928756
 10
-15.8253293108
 20
27.2360462076
 10
-15.8153424683
 20
27.2474261629
 10
-15.8050478885
 20
27.2585168924
 10
-15.794448818
 20
27.2693025468
 10
-15.7835485032
 20
27.2797672769
 10
-15.7723501907
 20
27.2898952335
  0
LINE
  5
23F
100
AcDbEntity
  8
RACCORDO
100
AcDbLine
 62
7
  6
CONTINUOUS
 10
-30.8415348277
 20
40.1538861271
 11
-30.9560859033
 21
38.1293314966
  0
LINE
  5
240
100
AcDbEntity
  8
RACCORDO
100
AcDbLine
 62
7
  6
CONTINUOUS
 10
-30.7040866492
 20
42.190876065
 11
-30.8415348277
 21
40.1538861271
  0
LINE
  5
241
100
AcDbEntity
  8
RACCORDO
100
AcDbLine
 62
7
  6
CONTINUOUS
 10
-30.5437712545
 20
44.239829943
 11
-30.7040866492
 21
42.190876065
  0
LINE
  5
242
100
AcDbEntity
  8
RACCORDO
100
AcDbLine
 62
7
  6
CONTINUOUS
 10
-30.3606230514
 20
46.300349579
 11
-30.5437712545
 21
44.239829943
  0
LINE
  5
243
100
AcDbEntity
  8
RACCORDO
100
AcDbLine
 62
7
  6
CONTINUOUS
 10
-30.1546760581
 20
48.372066839
 11
-30.3606230514
 21
46.300349579
  0
LINE
  5
244
100
AcDbEntity
  8
RACCORDO
100
AcDbLine
 62
7
  6
CONTINUOUS
 10
-29.9259688011
 20
50.4545837938
 11
-30.1546760581
 21
48.372066839
  0
LINE
  5
245
100
AcDbEntity
  8
RACCORDO
100
AcDbLine
 62
7
  6
CONTINUOUS
 10
-29.6745583611
 20
52.547418048
 11
-29.9259688011
 21
50.4545837938
  0
LINE
  5
246
100
AcDbEntity
  8
RACCORDO
100
AcDbLine
 62
7
  6
CONTINUOUS
 10
-29.4100952647
 20
54.5791655811
 11
-29.6745583611
 21
52.547418048
  0
LWPOLYLINE
  5
247
100
AcDbEntity
  8
RACCORDO
100
AcDbPolyline
 62
7
  6
CONTINUOUS
 90
13
 70
0
 10
-29.3215648579
 20
54.4619048981
 10
-29.5250541069
 20
52.9127162744
 10
-29.7170910075
 20
51.3620098209
 10
-29.8975007919
 20
49.8098657507
 10
-30.0661086925
 20
48.2563642772
 10
-30.2227399417
 20
46.7015856136
 10
-30.3672197717
 20
45.1456099733
 10
-30.4957696755
 20
43.6329685112
 10
-30.6124955898
 20
42.1193735006
 10
-30.7172062915
 20
40.6049253319
 10
-30.8097105577
 20
39.0897243956
 10
-30.8898171654
 20
37.573871082
 10
-30.9573348915
 20
36.0574657817
  0
LINE
  5
248
100
AcDbEntity
  8
RACCORDO
100
AcDbLine
 62
7
  6
CONTINUOUS
 10
-29.4025346782
 20
54.6268396253
 11
-29.4100910831
 21
54.5791626131
  0
LWPOLYLINE
  5
249
100
AcDbEntity
  8
RACCORDO
100
AcDbPolyline
 62
7
  6
CONTINUOUS
 90
38
 70
0
 10
-28.7408445554
 20
54.8092024662
 10
-28.7391945441
 20
54.8194747245
 10
-28.7372640196
 20
54.82970311
 10
-28.7350624612
 20
54.8398826216
 10
-28.7325993483
 20
54.850008258
 10
-28.7298841604
 20
54.860075018
 10
-28.7269263769
 20
54.8700779006
 10
-28.7237354771
 20
54.8800119046
 10
-28.7203209405
 20
54.8898720287
 10
-28.7166922466
 20
54.8996532718
 10
-28.7126156418
 20
54.9099440453
 10
-28.7083122452
 20
54.9201371395
 10
-28.7037858656
 20
54.9302293808
 10
-28.6990403121
 20
54.9402175959
 10
-28.6940793936
 20
54.9500986113
 10
-28.688906919
 20
54.9598692536
 10
-28.6835266973
 20
54.9695263494
 10
-28.6779425374
 20
54.9790667253
 10
-28.6721582483
 20
54.9884872078
 10
-28.6662642435
 20
54.9976513733
 10
-28.660178909
 20
55.0066897525
 10
-28.6539016335
 20
55.0155961146
 10
-28.6474318059
 20
55.0243642285
 10
-28.6407688151
 20
55.0329878633
 10
-28.6339120497
 20
55.0414607879
 10
-28.6268608987
 20
55.0497767714
 10
-28.6196147509
 20
55.0579295827
 10
-28.612172995
 20
55.065912991
 10
-28.6058941265
 20
55.0723579838
 10
-28.5994817501
 20
55.0786739107
 10
-28.5929355624
 20
55.0848509359
 10
-28.58625526
 20
55.0908792235
 10
-28.5794405396
 20
55.096748938
 10
-28.5724910978
 20
55.1024502434
 10
-28.5654066312
 20
55.1079733042
 10
-28.5581868365
 20
55.1133082845
 10
-28.5508314103
 20
55.1184453485
 10
-28.5433400493
 20
55.1233746606
  0
LINE
  5
24A
100
AcDbEntity
  8
RACCORDO
100
AcDbLine
 62
7
  6
CONTINUOUS
 10
-29.3906486464
 20
54.6829248178
 11
-29.4025346782
 21
54.6268396253
  0
LINE
  5
24B
100
AcDbEntity
  8
RACCORDO
100
AcDbLine
 62
7
  6
CONTINUOUS
 10
-29.3758972466
 20
54.7368362485
 11
-29.3906486464
 21
54.6829248178
  0
LINE
  5
24C
100
AcDbEntity
  8
RACCORDO
100
AcDbLine
 62
7
  6
CONTINUOUS
 10
33.7451720129
 20
-54.108
 11
33.786335309
 21
-54.1064252393
  0
LINE
  5
24D
100
AcDbEntity
  8
RACCORDO
100
AcDbLine
 62
7
  6
CONTINUOUS
 10
33.7034760869
 20
-54.1064579104
 11
33.7451720129
 21
-54.108
  0
LINE
  5
24E
100
AcDbEntity
  8
RACCORDO
100
AcDbLine
 62
7
  6
CONTINUOUS
 10
33.6613935708
 20
-54.1018606622
 11
33.7034760869
 21
-54.1064579104
  0
LINE
  5
24F
100
AcDbEntity
  8
RACCORDO
100
AcDbLine
 62
7
  6
CONTINUOUS
 10
33.618912854
 20
-54.0942611574
 11
33.6613935708
 21
-54.1018606622
  0
LINE
  5
250
100
AcDbEntity
  8
RACCORDO
100
AcDbLine
 62
7
  6
CONTINUOUS
 10
33.5760601969
 20
-54.0836956537
 11
33.618912854
 21
-54.0942611574
  0
LWPOLYLINE
  5
251
100
AcDbEntity
  8
RACCORDO
100
AcDbPolyline
 62
7
  6
CONTINUOUS
 90
65
 70
0
 10
33.4489391278
 20
-53.9598505366
 10
33.4574206714
 20
-53.9621113669
 10
33.4659546181
 20
-53.9641914558
 10
33.4745370562
 20
-53.9660781939
 10
33.483164074
 20
-53.9677589714
 10
33.4918317597
 20
-53.9692211788
 10
33.5005362015
 20
-53.9704522067
 10
33.5092734878
 20
-53.9714394453
 10
33.5180397069
 20
-53.9721702852
 10
33.5256899016
 20
-53.9725872212
 10
33.5333503693
 20
-53.972787915
 10
33.5410124243
 20
-53.9727599554
 10
33.5486673807
 20
-53.9724909314
 10
33.5563065529
 20
-53.9719684319
 10
33.5639212552
 20
-53.9711800458
 10
33.5715028017
 20
-53.9701133618
 10
33.5790425067
 20
-53.9687559691
 10
33.5857488834
 20
-53.9672846652
 10
33.5924005424
 20
-53.9655661862
 10
33.5989832668
 20
-53.9635963283
 10
33.6054828399
 20
-53.9613708873
 10
33.6118850448
 20
-53.9588856593
 10
33.6181756648
 20
-53.9561364402
 10
33.624340483
 20
-53.953119026
 10
33.6303652827
 20
-53.9498292128
 10
33.6360196242
 20
-53.946403537
 10
33.6415212941
 20
-53.9427314292
 10
33.6468605305
 20
-53.9388227488
 10
33.6520275711
 20
-53.9346873552
 10
33.6570126541
 20
-53.9303351079
 10
33.6618060173
 20
-53.9257758663
 10
33.6663978986
 20
-53.9210194898
 10
33.6707785359
 20
-53.9160758379
 10
33.6751042821
 20
-53.9107440669
 10
33.6791955661
 20
-53.9052316958
 10
33.6830571747
 20
-53.8995501853
 10
33.6866938947
 20
-53.8937109961
 10
33.6901105129
 20
-53.8877255889
 10
33.6933118163
 20
-53.8816054246
 10
33.6963025914
 20
-53.8753619637
 10
33.6990876253
 20
-53.8690066671
 10
33.7016717046
 20
-53.8625509955
 10
33.7040596162
 20
-53.8560064096
 10
33.706256147
 20
-53.8493843701
 10
33.7082660836
 20
-53.8426963377
 10
33.710094213
 20
-53.8359537733
 10
33.7117453219
 20
-53.8291681375
 10
33.7132241971
 20
-53.822350891
 10
33.7145356255
 20
-53.8155134946
 10
33.7156843938
 20
-53.808667409
 10
33.7169356453
 20
-53.7998263192
 10
33.7179364012
 20
-53.7909890832
 10
33.7186995464
 20
-53.7821549313
 10
33.7192379656
 20
-53.7733230934
 10
33.7195645437
 20
-53.7644927997
 10
33.7196921655
 20
-53.7556632804
 10
33.7196337157
 20
-53.7468337654
 10
33.7194020793
 20
-53.738003485
 10
33.7188635408
 20
-53.7265781399
 10
33.7180673987
 20
-53.7151575519
 10
33.717024374
 20
-53.7037490482
 10
33.7157451878
 20
-53.6923599559
 10
33.7142405612
 20
-53.6809976022
 10
33.7125212151
 20
-53.6696693142
 10
33.7105978706
 20
-53.6583824191
  0
LINE
  5
252
100
AcDbEntity
  8
RACCORDO
100
AcDbLine
 62
7
  6
CONTINUOUS
 10
33.532825944
 20
-54.0701759542
 11
33.5760601969
 21
-54.0836956537
  0
LINE
  5
253
100
AcDbEntity
  8
0
100
AcDbLine
 62
7
  6
CONTINUOUS
 10
-2.7516861279
 20
-12.8835165363
 11
-2.7856831521
 21
-12.8726996487
  0
LINE
  5
254
100
AcDbEntity
  8
RACCORDO
100
AcDbLine
 62
7
  6
CONTINUOUS
 10
33.4892131243
 20
-54.0537145551
 11
33.532825944
 21
-54.0701759542
  0
LINE
  5
255
100
AcDbEntity
  8
0
100
AcDbLine
 62
7
  6
CONTINUOUS
 10
-2.7188396102
 20
-12.8961823073
 11
-2.7516861279
 21
-12.8835165363
  0
LWPOLYLINE
  5
256
100
AcDbEntity
  8
0
100
AcDbPolyline
 62
7
  6
CONTINUOUS
 90
26
 70
0
 10
3.1620015904
 20
-23.2979155204
 10
3.2129919464
 20
-23.3194301468
 10
3.2638198475
 20
-23.3413316365
 10
3.3144548762
 20
-23.3636767629
 10
3.3648666149
 20
-23.3865222993
 10
3.4150246459
 20
-23.4099250193
 10
3.4669154146
 20
-23.4349233296
 10
3.5184691235
 20
-23.460614012
 10
3.5696563489
 20
-23.4870246773
 10
3.6204476669
 20
-23.5141829367
 10
3.6708136539
 20
-23.5421164011
 10
3.7147916753
 20
-23.5673803413
 10
3.7583927845
 20
-23.5932900441
 10
3.8015927439
 20
-23.6198686665
 10
3.8443673159
 20
-23.6471393651
 10
3.886692263
 20
-23.675125297
 10
3.9285433477
 20
-23.7038496188
 10
3.9582814297
 20
-23.7249424022
 10
3.9877323693
 20
-23.7464455282
 10
4.0168657788
 20
-23.7683767872
 10
4.04565127
 20
-23.790753969
 10
4.0740584551
 20
-23.813594864
 10
4.1020569461
 20
-23.836917262
 10
4.1296163551
 20
-23.8607389534
 10
4.1567062942
 20
-23.8850777281
 10
4.1832963753
 20
-23.9099513762
  0
LINE
  5
257
100
AcDbEntity
  8
RACCORDO
100
AcDbLine
 62
7
  6
CONTINUOUS
 10
33.4452483622
 20
-54.0343223802
 11
33.4892131243
 21
-54.0537145551
  0
LINE
  5
258
100
AcDbEntity
  8
0
100
AcDbLine
 62
7
  6
CONTINUOUS
 10
-2.6871984133
 20
-12.9107444292
 11
-2.7188396102
 21
-12.8961823073
  0
LINE
  5
259
100
AcDbEntity
  8
RACCORDO
100
AcDbLine
 62
7
  6
CONTINUOUS
 10
33.4009457501
 20
-54.0119892067
 11
33.4452483622
 21
-54.0343223802
  0
LINE
  5
25A
100
AcDbEntity
  8
0
100
AcDbLine
 62
7
  6
CONTINUOUS
 10
-2.6609950696
 20
-12.924848815
 11
-2.6871984133
 21
-12.9107444292
  0
LWPOLYLINE
  5
25B
100
AcDbEntity
  8
RACCORDO
100
AcDbPolyline
 62
7
  6
CONTINUOUS
 90
43
 70
0
 10
33.7105979186
 20
-53.6583823814
 10
33.7185059968
 20
-53.6626916478
 10
33.7265677092
 20
-53.6667205856
 10
33.7347707053
 20
-53.6704751575
 10
33.7431026343
 20
-53.6739613263
 10
33.7515511459
 20
-53.6771850547
 10
33.7601038892
 20
-53.6801523054
 10
33.7687485137
 20
-53.6828690411
 10
33.7774726688
 20
-53.6853412246
 10
33.786264004
 20
-53.6875748185
 10
33.7951101685
 20
-53.6895757856
 10
33.8039988118
 20
-53.6913500887
 10
33.8148937086
 20
-53.6932170315
 10
33.825826617
 20
-53.6947612075
 10
33.836790635
 20
-53.6959888596
 10
33.847778861
 20
-53.6969062304
 10
33.8587843929
 20
-53.6975195626
 10
33.8698003289
 20
-53.6978350991
 10
33.8808197673
 20
-53.6978590826
 10
33.891835806
 20
-53.6975977558
 10
33.9028415433
 20
-53.6970573614
 10
33.9138300773
 20
-53.6962441422
 10
33.9251160157
 20
-53.695127558
 10
33.93636981
 20
-53.6937285464
 10
33.9475848569
 20
-53.6920471391
 10
33.9587545531
 20
-53.6900833679
 10
33.9698722954
 20
-53.6878372648
 10
33.9809314804
 20
-53.6853088614
 10
33.9919255049
 20
-53.6824981897
 10
34.0028477656
 20
-53.6794052814
 10
34.0136916592
 20
-53.6760301684
 10
34.0244505825
 20
-53.6723728824
 10
34.0336747987
 20
-53.6689844207
 10
34.0428213051
 20
-53.6653834924
 10
34.0518807937
 20
-53.6615683783
 10
34.0608439563
 20
-53.6575373594
 10
34.0697014849
 20
-53.6532887168
 10
34.0784440714
 20
-53.6488207315
 10
34.0870624078
 20
-53.6441316844
 10
34.095547186
 20
-53.6392198565
 10
34.1038890979
 20
-53.6340835289
 10
34.1120788355
 20
-53.6287209825
 10
34.1201070906
 20
-53.6231304984
  0
LWPOLYLINE
  5
25C
100
AcDbEntity
  8
0
100
AcDbPolyline
 62
7
  6
CONTINUOUS
 90
43
 70
0
 10
3.8601570687
 20
-24.6172098865
 10
3.8690615729
 20
-24.6220770945
 10
3.8780224068
 20
-24.6268436661
 10
3.8870421465
 20
-24.6314996927
 10
3.8961233679
 20
-24.6360352658
 10
3.9052686474
 20
-24.6404404765
 10
3.9144805608
 20
-24.6447054164
 10
3.9237616843
 20
-24.6488201768
 10
3.9304689798
 20
-24.651675571
 10
3.9372141428
 20
-24.6544413979
 10
3.9439980407
 20
-24.6571106031
 10
3.9508215409
 20
-24.6596761322
 10
3.9576855108
 20
-24.6621309309
 10
3.9645908177
 20
-24.6644679449
 10
3.971538329
 20
-24.6666801198
 10
3.978528912
 20
-24.6687604013
 10
3.985563434
 20
-24.670701735
 10
3.9902629161
 20
-24.6719104312
 10
3.9949817515
 20
-24.6730458527
 10
3.9997195053
 20
-24.6740992053
 10
4.0044757424
 20
-24.6750616948
 10
4.0092500279
 20
-24.6759245272
 10
4.0140419266
 20
-24.6766789081
 10
4.0188510036
 20
-24.6773160436
 10
4.023676824
 20
-24.6778271393
 10
4.0285189525
 20
-24.6782034011
 10
4.0333769544
 20
-24.6784360348
 10
4.0382503945
 20
-24.6785162464
 10
4.0431388378
 20
-24.6784352415
 10
4.0467602818
 20
-24.6782665753
 10
4.0503832825
 20
-24.6780013577
 10
4.0540014385
 20
-24.6776359113
 10
4.057608348
 20
-24.6771665583
 10
4.0611976095
 20
-24.6765896214
 10
4.0647628214
 20
-24.6759014229
 10
4.0682975821
 20
-24.6750982854
 10
4.0717954899
 20
-24.6741765312
 10
4.0752501435
 20
-24.6731324828
 10
4.078655141
 20
-24.6719624628
 10
4.0820040809
 20
-24.6706627935
 10
4.0852905617
 20
-24.6692297974
 10
4.0885081817
 20
-24.6676597969
 10
4.0916505393
 20
-24.6659491146
  0
LWPOLYLINE
  5
25D
100
AcDbEntity
  8
RACCORDO
100
AcDbPolyline
 62
7
  6
CONTINUOUS
 90
43
 70
0
 10
-15.9956777446
 20
-8.977431544
 10
-15.9823876843
 20
-8.9847835916
 10
-15.9688642394
 20
-8.9917143952
 10
-15.9551248174
 20
-8.9982339006
 10
-15.9411868259
 20
-9.0043520538
 10
-15.9270676726
 20
-9.0100788005
 10
-15.912784765
 20
-9.0154240868
 10
-15.8983555108
 20
-9.0203978586
 10
-15.8837973176
 20
-9.0250100617
 10
-15.8691275929
 20
-9.0292706419
 10
-15.8543637444
 20
-9.0331895454
 10
-15.8395231797
 20
-9.0367767178
 10
-15.821346634
 20
-9.040714201
 10
-15.8030913328
 20
-9.0441804977
 10
-15.7847666869
 20
-9.0471827767
 10
-15.7663821072
 20
-9.0497282066
 10
-15.7479470044
 20
-9.0518239562
 10
-15.7294707893
 20
-9.0534771942
 10
-15.7109628727
 20
-9.0546950893
 10
-15.6924326654
 20
-9.0554848101
 10
-15.6738895782
 20
-9.0558535253
 10
-15.6553430219
 20
-9.0558084037
 10
-15.6365639275
 20
-9.0553463513
 10
-15.6178001042
 20
-9.0544635445
 10
-15.5990607276
 20
-9.0531564251
 10
-15.5803549734
 20
-9.0514214347
 10
-15.5616920171
 20
-9.0492550151
 10
-15.5430810344
 20
-9.046653608
 10
-15.5245312009
 20
-9.0436136551
 10
-15.5060516921
 20
-9.0401315982
 10
-15.4876516838
 20
-9.036203879
 10
-15.4693403515
 20
-9.0318269392
 10
-15.4540222544
 20
-9.0277959693
 10
-15.438788466
 20
-9.0234374666
 10
-15.4236541293
 20
-9.0187439415
 10
-15.4086343873
 20
-9.0137079043
 10
-15.3937443832
 20
-9.0083218654
 10
-15.3789992598
 20
-9.0025783351
 10
-15.3644141603
 20
-8.9964698239
 10
-15.3500042276
 20
-8.989988842
 10
-15.3357846048
 20
-8.9831278999
 10
-15.3217704349
 20
-8.975879508
 10
-15.307976861
 20
-8.9682361765
  0
LWPOLYLINE
  5
25E
100
AcDbEntity
  8
RACCORDO
100
AcDbPolyline
 62
7
  6
CONTINUOUS
 90
31
 70
0
 10
-14.6944463185
 20
-9.9186099404
 10
-14.7117761338
 20
-9.9089997716
 10
-14.72888463
 20
-9.8989858252
 10
-14.7457707643
 20
-9.8885862733
 10
-14.7624334939
 20
-9.877819288
 10
-14.7788717762
 20
-9.8667030412
 10
-14.7950845685
 20
-9.8552557051
 10
-14.8110708279
 20
-9.8434954517
 10
-14.8268295117
 20
-9.8314404531
 10
-14.843633613
 20
-9.8180755797
 10
-14.8601727715
 20
-9.8043959172
 10
-14.8764500154
 20
-9.7904108567
 10
-14.8924683729
 20
-9.7761297895
 10
-14.9082308721
 20
-9.761562107
 10
-14.9237405414
 20
-9.7467172004
 10
-14.9390004087
 20
-9.731604461
 10
-14.9540135024
 20
-9.71623328
 10
-14.9716938056
 20
-9.6974721617
 10
-14.9890179927
 20
-9.6783637308
 10
-15.0059804558
 20
-9.6589188109
 10
-15.0225755864
 20
-9.6391482253
 10
-15.0387977766
 20
-9.6190627977
 10
-15.0546414181
 20
-9.5986733515
 10
-15.0701009028
 20
-9.5779907103
 10
-15.0851706224
 20
-9.5570256975
 10
-15.0998449688
 20
-9.5357891366
 10
-15.1141183339
 20
-9.5142918512
 10
-15.1279851095
 20
-9.4925446648
 10
-15.1414396874
 20
-9.4705584009
 10
-15.1544764593
 20
-9.448343883
 10
-15.1670898173
 20
-9.4259119346
  0
LINE
  5
25F
100
AcDbEntity
  8
RACCORDO
100
AcDbLine
 62
7
  6
CONTINUOUS
 10
33.3708097491
 20
-53.9952193765
 11
33.4009457501
 21
-54.0119892067
  0
LWPOLYLINE
  5
260
100
AcDbEntity
  8
0
100
AcDbPolyline
 62
7
  6
CONTINUOUS
 90
43
 70
0
 10
-2.7597813838
 20
-12.9340357789
 10
-2.7678761526
 20
-12.9295266596
 10
-2.7761074498
 20
-12.9252627845
 10
-2.7844653703
 20
-12.9212380504
 10
-2.792940009
 20
-12.9174463544
 10
-2.8015214608
 20
-12.9138815931
 10
-2.8101998206
 20
-12.9105376636
 10
-2.8189651834
 20
-12.9074084626
 10
-2.8278076441
 20
-12.904487887
 10
-2.8367172975
 20
-12.9017698338
 10
-2.8456842386
 20
-12.8992481998
 10
-2.8546985624
 20
-12.8969168819
 10
-2.8657323943
 20
-12.8943262326
 10
-2.8768166403
 20
-12.8920054581
 10
-2.8879460892
 20
-12.8899510196
 10
-2.89911553
 20
-12.8881593779
 10
-2.9103197516
 20
-12.8866269943
 10
-2.9215535428
 20
-12.8853503297
 10
-2.9328116925
 20
-12.8843258452
 10
-2.9440889896
 20
-12.8835500017
 10
-2.9553802232
 20
-12.8830192604
 10
-2.9666801819
 20
-12.8827300823
 10
-2.9780220191
 20
-12.8826802805
 10
-2.9893623329
 20
-12.882873293
 10
-3.0006960621
 20
-12.8833122929
 10
-3.0120181454
 20
-12.8840004533
 10
-3.0233235214
 20
-12.8849409471
 10
-3.0346071287
 20
-12.8861369476
 10
-3.0458639061
 20
-12.8875916278
 10
-3.0570887923
 20
-12.8893081607
 10
-3.0682767258
 20
-12.8912897195
 10
-3.0794226455
 20
-12.8935394771
 10
-3.0885964808
 20
-12.8956038654
 10
-3.0977288359
 20
-12.8978596146
 10
-3.1068103742
 20
-12.900312787
 10
-3.1158317597
 20
-12.9029694445
 10
-3.1247836559
 20
-12.9058356494
 10
-3.1336567266
 20
-12.9089174637
 10
-3.1424416354
 20
-12.9122209495
 10
-3.151129046
 20
-12.915752169
 10
-3.1597096222
 20
-12.9195171841
 10
-3.1681740277
 20
-12.9235220571
 10
-3.1765129261
 20
-12.9277728501
  0
LWPOLYLINE
  5
261
100
AcDbEntity
  8
0
100
AcDbPolyline
 62
7
  6
CONTINUOUS
 90
43
 70
0
 10
-1.172610689
 20
-14.084800887
 10
-1.1670343204
 20
-14.0879220331
 10
-1.161555897
 20
-14.091218702
 10
-1.1561758765
 20
-14.0946827109
 10
-1.1508947171
 20
-14.098305877
 10
-1.1457128765
 20
-14.1020800177
 10
-1.1406308126
 20
-14.1059969502
 10
-1.1356489835
 20
-14.1100484918
 10
-1.1307678469
 20
-14.1142264596
 10
-1.1259878608
 20
-14.1185226711
 10
-1.1213094832
 20
-14.1229289434
 10
-1.1167331718
 20
-14.1274370937
 10
-1.1113415543
 20
-14.133008853
 10
-1.1060996374
 20
-14.1387126667
 10
-1.1010075072
 20
-14.1445438586
 10
-1.0960652498
 20
-14.1504977524
 10
-1.091272951
 20
-14.1565696718
 10
-1.0866306969
 20
-14.1627549408
 10
-1.0821385735
 20
-14.1690488829
 10
-1.0777966668
 20
-14.175446822
 10
-1.0736050628
 20
-14.1819440819
 10
-1.0695638474
 20
-14.1885359862
 10
-1.0656868895
 20
-14.1951952595
 10
-1.0619638084
 20
-14.2019417563
 10
-1.0583990341
 20
-14.2087733464
 10
-1.0549969969
 20
-14.2156878997
 10
-1.0517621271
 20
-14.2226832862
 10
-1.0486988548
 20
-14.2297573759
 10
-1.0458116102
 20
-14.2369080385
 10
-1.0431048236
 20
-14.2441331441
 10
-1.0405829252
 20
-14.2514305626
 10
-1.0382503451
 20
-14.2587981638
 10
-1.0364779848
 20
-14.2649072968
 10
-1.0348439771
 20
-14.2710580264
 10
-1.033355657
 20
-14.2772459301
 10
-1.0320203597
 20
-14.2834665857
 10
-1.0308454204
 20
-14.2897155708
 10
-1.0298381741
 20
-14.2959884631
 10
-1.0290059559
 20
-14.3022808402
 10
-1.028356101
 20
-14.3085882798
 10
-1.0278959444
 20
-14.3149063596
 10
-1.0276328214
 20
-14.3212306572
 10
-1.0275740669
 20
-14.3275567502
  0
LWPOLYLINE
  5
262
100
AcDbEntity
  8
RACCORDO
100
AcDbPolyline
 62
7
  6
CONTINUOUS
 90
22
 70
0
 10
33.3122668619
 20
-53.9003706949
 10
33.3192528195
 20
-53.9043570458
 10
33.3262791659
 20
-53.9082703291
 10
33.3333474077
 20
-53.9121092709
 10
33.3404590516
 20
-53.9158725971
 10
33.3476156044
 20
-53.9195590338
 10
33.3537146786
 20
-53.9226207206
 10
33.3598466858
 20
-53.9256234186
 10
33.3660112447
 20
-53.9285642404
 10
33.3722079737
 20
-53.931440299
 10
33.3784364914
 20
-53.9342487071
 10
33.3846964162
 20
-53.9369865776
 10
33.3909873667
 20
-53.9396510234
 10
33.3973089613
 20
-53.9422391571
 10
33.4036608186
 20
-53.9447480918
 10
33.410042557
 20
-53.9471749402
 10
33.4164537951
 20
-53.9495168151
 10
33.4228941513
 20
-53.9517708293
 10
33.4293632442
 20
-53.9539340958
 10
33.4358606922
 20
-53.9560037273
 10
33.4423861139
 20
-53.9579768366
 10
33.4489391278
 20
-53.9598505366
  0
LINE
  5
263
100
AcDbEntity
  8
RACCORDO
100
AcDbLine
 62
7
  6
CONTINUOUS
 10
-28.6822451642
 20
-18.1665686158
 11
33.370866319
 21
-53.995257478
  0
LINE
  5
264
100
AcDbEntity
  8
RACCORDO
100
AcDbLine
 62
7
  6
CONTINUOUS
 10
-28.7408445554
 20
-18.0716818707
 11
33.3122668619
 21
-53.9003706949
  0
LINE
  5
265
100
AcDbEntity
  8
0
100
AcDbLine
 62
7
  6
CONTINUOUS
 10
4.7593364461
 20
-26.2998522229
 11
4.3618486797
 21
-26.0703477683
  0
LINE
  5
266
100
AcDbEntity
  8
0
100
AcDbLine
 62
7
  6
CONTINUOUS
 10
3.7290303411
 20
-25.7049663907
 11
3.3174542128
 21
-25.4673274925
  0
LINE
  5
267
100
AcDbEntity
  8
0
100
AcDbLine
 62
7
  6
CONTINUOUS
 10
3.1041831472
 20
-25.3441871882
 11
2.6686463822
 21
-25.0927137186
  0
LINE
  5
268
100
AcDbEntity
  8
0
100
AcDbLine
 62
7
  6
CONTINUOUS
 10
1.8848050803
 20
-24.6401335747
 11
1.4760499846
 21
-24.4041235054
  0
LINE
  5
269
100
AcDbEntity
  8
0
100
AcDbLine
 62
7
  6
CONTINUOUS
 10
1.2626677854
 20
-24.2809192979
 11
0.858410596
 21
-24.0475062632
  0
LINE
  5
26A
100
AcDbEntity
  8
0
100
AcDbLine
 62
7
  6
CONTINUOUS
 10
0.2821680668
 20
-23.7147910489
 11
0.2242114737
 21
-23.6813276384
  0
LINE
  5
26B
100
AcDbEntity
  8
0
100
AcDbLine
 62
7
  6
CONTINUOUS
 10
-0.3497442722
 20
-23.3499327841
 11
-0.7450798954
 21
-23.12167095
  0
LINE
  5
26C
100
AcDbEntity
  8
0
100
AcDbLine
 62
7
  6
CONTINUOUS
 10
-0.9604681564
 20
-22.9973084675
 11
-1.3737070162
 21
-22.7587095289
  0
LINE
  5
26D
100
AcDbEntity
  8
0
100
AcDbLine
 62
7
  6
CONTINUOUS
 10
-2.2199808972
 20
-22.2700815963
 11
-2.5841479606
 21
-22.059816098
  0
LINE
  5
26E
100
AcDbEntity
  8
0
100
AcDbLine
 62
7
  6
CONTINUOUS
 10
4.7183610804
 20
-26.1532395746
 11
4.4683230949
 21
-26.0088707754
  0
LINE
  5
26F
100
AcDbEntity
  8
0
100
AcDbLine
 62
7
  6
CONTINUOUS
 10
3.7188516456
 20
-25.5761353537
 11
3.423928628
 21
-25.4058504996
  0
LINE
  5
270
100
AcDbEntity
  8
0
100
AcDbLine
 62
7
  6
CONTINUOUS
 10
3.0582736288
 20
-25.1947256219
 11
2.7751207974
 21
-25.0312367258
  0
LINE
  5
271
100
AcDbEntity
  8
0
100
AcDbLine
 62
7
  6
CONTINUOUS
 10
1.9082841969
 20
-24.5307361367
 11
1.5825243997
 21
-24.3426465125
  0
LINE
  5
272
100
AcDbEntity
  8
0
100
AcDbLine
 62
7
  6
CONTINUOUS
 10
1.2416337872
 20
-24.1458205452
 11
0.9648850111
 21
-23.9860292704
  0
LINE
  5
273
100
AcDbEntity
  8
0
100
AcDbLine
 62
7
  6
CONTINUOUS
 10
-0.351831055
 20
-23.2257739161
 11
-0.6386054802
 21
-23.0601939571
  0
LINE
  5
274
100
AcDbEntity
  8
0
100
AcDbLine
 62
7
  6
CONTINUOUS
 10
-0.9705973328
 20
-22.8685060222
 11
-1.2672326011
 21
-22.6972325361
  0
LINE
  5
275
100
AcDbEntity
  8
0
100
AcDbLine
 62
7
  6
CONTINUOUS
 10
-2.1926253862
 20
-22.1629223399
 11
-2.4776735455
 21
-21.9983391052
  0
LINE
  5
276
100
AcDbEntity
  8
0
100
AcDbLine
 62
7
  6
CONTINUOUS
 10
2.52756354
 20
-24.594212602
 11
1.9648005873
 21
-24.2692803262
  0
LINE
  5
277
100
AcDbEntity
  8
0
100
AcDbLine
 62
7
  6
CONTINUOUS
 10
2.634007212
 20
-24.5327533598
 11
2.0712442594
 21
-24.207821084
  0
LINE
  5
278
100
AcDbEntity
  8
0
100
AcDbLine
 62
7
  6
CONTINUOUS
 10
2.419558639
 20
-24.2080900025
 11
2.0239118888
 21
-23.9796485276
  0
LINE
  5
279
100
AcDbEntity
  8
0
100
AcDbLine
 62
7
  6
CONTINUOUS
 10
3.8851403497
 20
-24.9761273442
 11
3.6635715388
 21
-24.8481962897
  0
LINE
  5
27A
100
AcDbEntity
  8
0
100
AcDbLine
 62
7
  6
CONTINUOUS
 10
3.9915556489
 20
-24.9146844842
 11
3.7699868379
 21
-24.7867534296
  0
LINE
  5
27B
100
AcDbEntity
  8
0
100
AcDbLine
 62
7
  6
CONTINUOUS
 10
3.8601570665
 20
-24.6172098852
 11
3.6239951472
 21
-24.4808529528
  0
LINE
  5
27C
100
AcDbEntity
  8
0
100
AcDbLine
 62
7
  6
CONTINUOUS
 10
2.3396705316
 20
-22.7983024583
 11
1.9399112484
 21
-22.5674864583
  0
LINE
  5
27D
100
AcDbEntity
  8
0
100
AcDbLine
 62
7
  6
CONTINUOUS
 10
0.920449239
 20
-21.978861871
 11
0.5115901986
 21
-21.7427917852
  0
LINE
  5
27E
100
AcDbEntity
  8
0
100
AcDbLine
 62
7
  6
CONTINUOUS
 10
-0.3105232579
 20
-21.268113779
 11
-0.7234205851
 21
-21.0297120371
  0
LINE
  5
27F
100
AcDbEntity
  8
0
100
AcDbLine
 62
7
  6
CONTINUOUS
 10
-1.7407245046
 20
-20.4423335038
 11
-2.1536812287
 21
-20.2038974668
  0
LINE
  5
280
100
AcDbEntity
  8
0
100
AcDbLine
 62
7
  6
CONTINUOUS
 10
-2.9199381993
 20
-19.7614702954
 11
-3.3688435251
 21
-19.5022779864
  0
LINE
  5
281
100
AcDbEntity
  8
0
100
AcDbLine
 62
7
  6
CONTINUOUS
 10
-1.1175717438
 20
-20.8020066595
 11
-1.5308106036
 21
-20.563407721
  0
LINE
  5
282
100
AcDbEntity
  8
RACCORDO
100
AcDbLine
 62
7
  6
CONTINUOUS
 10
16.0026006865
 20
-28.4584837336
 11
-15.0289863787
 21
-10.5412342793
  0
LINE
  5
283
100
AcDbEntity
  8
RACCORDO
100
AcDbLine
 62
7
  6
CONTINUOUS
 10
16.3371740103
 20
-27.8358783668
 11
-14.6944461159
 21
-9.9186098235
  0
LINE
  5
284
100
AcDbEntity
  8
0
100
AcDbLine
 62
7
  6
CONTINUOUS
 10
16.653049169
 20
-25.6972550904
 11
-12.6845101801
 21
-8.7581160082
  0
LINE
  5
285
100
AcDbEntity
  8
0
100
AcDbLine
 62
7
  6
CONTINUOUS
 10
-1.1798847651
 20
-13.8462482857
 11
-2.7597813838
 21
-12.9340357789
  0
LINE
  5
286
100
AcDbEntity
  8
0
100
AcDbLine
 62
7
  6
CONTINUOUS
 10
-1.0811140516
 20
-13.837046397
 11
-2.6610106626
 21
-12.9248338946
  0
LINE
  5
287
100
AcDbEntity
  8
0
100
AcDbLine
 62
7
  6
CONTINUOUS
 10
-13.2494203529
 20
5.6641122522
 11
-13.2114258863
 21
5.6421747234
  0
LINE
  5
288
100
AcDbEntity
  8
DRAFT
100
AcDbLine
 62
7
  6
CONTINUOUS
 10
36.5308970427
 20
-18.0300354472
 11
36.8844504333
 21
-18.2341727439
  0
LINE
  5
289
100
AcDbEntity
  8
0
100
AcDbLine
 62
7
  6
CONTINUOUS
 10
-1.0753556697
 20
-13.8404296162
 11
-1.0810991299
 21
-13.8370609299
  0
LWPOLYLINE
  5
28A
100
AcDbEntity
  8
RACCORDO
100
AcDbPolyline
 62
7
  6
CONTINUOUS
 90
41
 70
0
 10
-30.9573329823
 20
-0.9575005789
 10
-30.9609616912
 20
-0.9553565922
 10
-30.9645646554
 20
-0.9531493046
 10
-30.9681382405
 20
-0.9508784469
 10
-30.9716788124
 20
-0.9485437497
 10
-30.9751827366
 20
-0.9461449438
 10
-30.9786463789
 20
-0.9436817597
 10
-30.982066105
 20
-0.9411539282
 10
-30.9854382805
 20
-0.9385611799
 10
-30.9887592713
 20
-0.9359032457
 10
-30.992025443
 20
-0.933179856
 10
-30.9952331613
 20
-0.9303907417
 10
-30.9983787918
 20
-0.9275356334
 10
-31.0014587004
 20
-0.9246142619
 10
-31.0044692527
 20
-0.9216263577
 10
-31.0074068144
 20
-0.9185716516
 10
-31.0102677512
 20
-0.9154498743
 10
-31.0130484289
 20
-0.9122607564
 10
-31.0157452131
 20
-0.9090040286
 10
-31.0183544695
 20
-0.9056794217
 10
-31.0208725638
 20
-0.9022866663
 10
-31.0229961481
 20
-0.8992649248
 10
-31.0250438829
 20
-0.8961918603
 10
-31.0270123621
 20
-0.8930684348
 10
-31.0288981794
 20
-0.8898956102
 10
-31.0306979287
 20
-0.8866743483
 10
-31.0324082037
 20
-0.883405611
 10
-31.0340255983
 20
-0.8800903603
 10
-31.0355467062
 20
-0.8767295579
 10
-31.0369681212
 20
-0.8733241658
 10
-31.0382864372
 20
-0.8698751458
 10
-31.0394355404
 20
-0.8665742532
 10
-31.040487558
 20
-0.8632389449
 10
-31.0414406791
 20
-0.8598729723
 10
-31.0422930922
 20
-0.8564800866
 10
-31.0430429864
 20
-0.853064039
 10
-31.0436885503
 20
-0.8496285808
 10
-31.0442279728
 20
-0.8461774633
 10
-31.0446594429
 20
-0.8427144377
 10
-31.0449811491
 20
-0.8392432552
 10
-31.0451912805
 20
-0.8357676671
  0
LWPOLYLINE
  5
28B
100
AcDbEntity
  8
RACCORDO
100
AcDbPolyline
 62
7
  6
CONTINUOUS
 90
40
 70
0
 10
16.8767127793
 20
-27.9575349437
 10
16.8696256112
 20
-27.9533356263
 10
16.8626147745
 20
-27.9490014798
 10
16.8556868154
 20
-27.9445303056
 10
16.8488482801
 20
-27.9399199046
 10
16.8421057149
 20
-27.9351680782
 10
16.835465666
 20
-27.9302726275
 10
16.8289346797
 20
-27.9252313538
 10
16.8225193022
 20
-27.9200420582
 10
16.8162260798
 20
-27.9147025418
 10
16.8111844127
 20
-27.9102310999
 10
16.8062342978
 20
-27.9056574488
 10
16.801381528
 20
-27.9009809433
 10
16.7966318963
 20
-27.8962009381
 10
16.7919911954
 20
-27.891316788
 10
16.7874652183
 20
-27.8863278475
 10
16.7830597578
 20
-27.8812334715
 10
16.7787806069
 20
-27.8760330146
 10
16.7746335584
 20
-27.8707258316
 10
16.7706244052
 20
-27.8653112771
 10
16.7670889576
 20
-27.8602728947
 10
16.7636792547
 20
-27.8551464013
 10
16.7604012204
 20
-27.8499337604
 10
16.7572607786
 20
-27.8446369354
 10
16.7542638533
 20
-27.8392578897
 10
16.7514163685
 20
-27.833798587
 10
16.748724248
 20
-27.8282609905
 10
16.7461934159
 20
-27.8226470639
 10
16.743829796
 20
-27.8169587705
 10
16.7416393124
 20
-27.8111980738
 10
16.739732396
 20
-27.8056870808
 10
16.73798854
 20
-27.8001193286
 10
16.7364107194
 20
-27.7945010336
 10
16.7350019086
 20
-27.7888384123
 10
16.7337650827
 20
-27.783137681
 10
16.7327032162
 20
-27.7774050561
 10
16.7318192839
 20
-27.7716467539
 10
16.7311162606
 20
-27.7658689909
 10
16.7305971211
 20
-27.7600779834
 10
16.73026484
 20
-27.7542799478
  0
LWPOLYLINE
  5
28C
100
AcDbEntity
  8
RACCORDO
100
AcDbPolyline
 62
7
  6
CONTINUOUS
 90
30
 70
0
 10
-15.0289863787
 20
-10.5412342793
 10
-15.0563329267
 20
-10.5250069351
 10
-15.0833035524
 20
-10.5081398919
 10
-15.1098985256
 20
-10.4906635971
 10
-15.1361181163
 20
-10.472608498
 10
-15.1619625941
 20
-10.4540050421
 10
-15.1874322291
 20
-10.4348836768
 10
-15.2125272911
 20
-10.4152748494
 10
-15.2372480499
 20
-10.3952090074
 10
-15.2674889738
 20
-10.3696416402
 10
-15.2971599991
 20
-10.3434372519
 10
-15.3262704
 20
-10.3166193406
 10
-15.3548294512
 20
-10.2892114047
 10
-15.3828464271
 20
-10.2612369425
 10
-15.410330602
 20
-10.2327194523
 10
-15.4372912505
 20
-10.2036824324
 10
-15.4651669127
 20
-10.1725180963
 10
-15.4924636068
 20
-10.1408194423
 10
-15.5191744256
 20
-10.1086039445
 10
-15.545292462
 20
-10.0758890768
 10
-15.5708108085
 20
-10.0426923133
 10
-15.595722558
 20
-10.009031128
 10
-15.6200208033
 20
-9.9749229949
 10
-15.6436986369
 20
-9.9403853881
 10
-15.6667491519
 20
-9.9054357816
 10
-15.6891654407
 20
-9.8700916494
 10
-15.7109405963
 20
-9.8343704655
 10
-15.7320677113
 20
-9.798289704
 10
-15.7525398785
 20
-9.7618668388
 10
-15.7723501907
 20
-9.7251193441
  0
LWPOLYLINE
  5
28D
100
AcDbEntity
  8
RACCORDO
100
AcDbPolyline
 62
7
  6
CONTINUOUS
 90
39
 70
0
 10
-29.3215648147
 20
-17.2644016043
 10
-29.3251061627
 20
-17.2622864258
 10
-29.3286166607
 20
-17.2601084491
 10
-29.3320933903
 20
-17.2578673107
 10
-29.3355334328
 20
-17.2555626472
 10
-29.3389338697
 20
-17.253194095
 10
-29.3422917823
 20
-17.2507612906
 10
-29.345604252
 20
-17.2482638707
 10
-29.3488683603
 20
-17.2457014717
 10
-29.3520811885
 20
-17.2430737301
 10
-29.3552398181
 20
-17.2403802824
 10
-29.3583413305
 20
-17.2376207653
 10
-29.3613828071
 20
-17.2347948151
 10
-29.3643613292
 20
-17.2319020684
 10
-29.3672739784
 20
-17.2289421617
 10
-29.370117836
 20
-17.2259147316
 10
-29.3728899834
 20
-17.2228194145
 10
-29.375587502
 20
-17.219655847
 10
-29.3782074733
 20
-17.2164236657
 10
-29.3807469786
 20
-17.2131225069
 10
-29.3829529772
 20
-17.2101043246
 10
-29.3850899014
 20
-17.2070326388
 10
-29.3871557017
 20
-17.2039096823
 10
-29.3891483286
 20
-17.2007376883
 10
-29.3910657324
 20
-17.1975188895
 10
-29.3929058636
 20
-17.1942555188
 10
-29.3946666726
 20
-17.1909498093
 10
-29.3963461099
 20
-17.1876039937
 10
-29.3979421259
 20
-17.1842203051
 10
-29.399452671
 20
-17.1808009764
 10
-29.4008756958
 20
-17.1773482404
 10
-29.4022091505
 20
-17.1738643301
 10
-29.4034509857
 20
-17.1703514785
 10
-29.4045991518
 20
-17.1668119183
 10
-29.4056515992
 20
-17.1632478826
 10
-29.4066062784
 20
-17.1596616043
 10
-29.4074611398
 20
-17.1560553163
 10
-29.4082141338
 20
-17.1524312516
 10
-29.4088632109
 20
-17.1487916429
  0
LINE
  5
28E
100
AcDbEntity
  8
RACCORDO
100
AcDbLine
 62
7
  6
CONTINUOUS
 10
-28.7219961674
 20
-18.1425100283
 11
-28.6821403955
 21
-18.1666240933
  0
LWPOLYLINE
  5
28F
100
AcDbEntity
  8
0
100
AcDbPolyline
 62
7
  6
CONTINUOUS
 90
43
 70
0
 10
-3.1765129261
 20
-12.9277728501
 10
-3.1787365884
 20
-12.92641825
 10
-3.1809851065
 20
-12.9250921977
 10
-3.1832577495
 20
-12.9237968028
 10
-3.1855537869
 20
-12.9225341748
 10
-3.1878724878
 20
-12.9213064233
 10
-3.1902131214
 20
-12.920115658
 10
-3.1925749571
 20
-12.9189639883
 10
-3.1949572642
 20
-12.9178535239
 10
-3.1973593117
 20
-12.9167863743
 10
-3.1997803691
 20
-12.9157646492
 10
-3.2022197056
 20
-12.914790458
 10
-3.2046765904
 20
-12.9138659104
 10
-3.2071502927
 20
-12.912993116
 10
-3.209640082
 20
-12.9121741844
 10
-3.2121452273
 20
-12.911411225
 10
-3.214664998
 20
-12.9107063475
 10
-3.2171986632
 20
-12.9100616616
 10
-3.2197454924
 20
-12.9094792766
 10
-3.2223047547
 20
-12.9089613024
 10
-3.2248757194
 20
-12.9085098483
 10
-3.2274576557
 20
-12.908127024
 10
-3.2295602768
 20
-12.9078683494
 10
-3.2316683207
 20
-12.9076579087
 10
-3.2337804663
 20
-12.9074973526
 10
-3.2358953926
 20
-12.907388332
 10
-3.2380117785
 20
-12.9073324978
 10
-3.2401283031
 20
-12.9073315008
 10
-3.2422436452
 20
-12.9073869918
 10
-3.2443564839
 20
-12.9075006216
 10
-3.2464654981
 20
-12.9076740411
 10
-3.2485693668
 20
-12.9079089012
 10
-3.2506667689
 20
-12.9082068526
 10
-3.2528093149
 20
-12.9085793398
 10
-3.254940619
 20
-12.909019763
 10
-3.2570576293
 20
-12.9095279703
 10
-3.259157294
 20
-12.9101038094
 10
-3.2612365612
 20
-12.9107471284
 10
-3.2632923792
 20
-12.9114577751
 10
-3.2653216959
 20
-12.9122355975
 10
-3.2673214597
 20
-12.9130804436
 10
-3.2692886185
 20
-12.9139921613
 10
-3.2712201207
 20
-12.9149705984
  0
LINE
  5
290
100
AcDbEntity
  8
0
100
AcDbLine
 62
7
  6
CONTINUOUS
 10
-1.0451389599
 20
-13.8600546446
 11
-1.0753556697
 21
-13.8404296162
  0
LINE
  5
291
100
AcDbEntity
  8
RACCORDO
100
AcDbLine
 62
7
  6
CONTINUOUS
 10
-28.7691978135
 20
-18.1110815675
 11
-28.7219961674
 21
-18.1425100283
  0
LINE
  5
292
100
AcDbEntity
  8
0
100
AcDbLine
 62
7
  6
CONTINUOUS
 10
-11.9077087465
 20
23.3475066677
 11
-11.9328209606
 21
23.3643396716
  0
LWPOLYLINE
  5
293
100
AcDbEntity
  8
0
100
AcDbPolyline
 62
7
  6
CONTINUOUS
 90
21
 70
0
 10
3.9055004716
 20
-24.0511699858
 10
3.8897643843
 20
-24.0402695698
 10
3.8739085916
 20
-24.029534621
 10
3.8579329854
 20
-24.0189722577
 10
3.8418374577
 20
-24.0085895981
 10
3.8256219005
 20
-23.9983937603
 10
3.8092862057
 20
-23.9883918627
 10
3.7928302653
 20
-23.9785910234
 10
3.7762539714
 20
-23.9689983607
 10
3.7595572158
 20
-23.9596209927
 10
3.7427398907
 20
-23.9504660378
 10
3.7268382557
 20
-23.9420778299
 10
3.7108311901
 20
-23.9338962496
 10
3.6947196734
 20
-23.9259255296
 10
3.6785046856
 20
-23.9181699029
 10
3.6621872064
 20
-23.910633602
 10
3.6464251893
 20
-23.9036042402
 10
3.6305792694
 20
-23.8967644236
 10
3.6146591351
 20
-23.8900975828
 10
3.5986744746
 20
-23.8835871481
 10
3.5826349762
 20
-23.8772165499
  0
LWPOLYLINE
  5
294
100
AcDbEntity
  8
0
100
AcDbPolyline
 62
7
  6
CONTINUOUS
 90
21
 70
0
 10
4.0118543331
 20
-23.989762589
 10
3.9961181607
 20
-23.9788622566
 10
3.9802622935
 20
-23.968127379
 10
3.9642866232
 20
-23.9575650742
 10
3.9481910413
 20
-23.9471824601
 10
3.9319754395
 20
-23.9369866545
 10
3.9156397093
 20
-23.9269847752
 10
3.8991837422
 20
-23.9171839402
 10
3.88260743
 20
-23.9075912674
 10
3.8659106641
 20
-23.8982138745
 10
3.8490933362
 20
-23.8890588794
 10
3.8331917719
 20
-23.8806706546
 10
3.8171847837
 20
-23.872489042
 10
3.8010733509
 20
-23.8645182747
 10
3.7848584528
 20
-23.8567625854
 10
3.7685410688
 20
-23.8492262071
 10
3.7527792014
 20
-23.8421967805
 10
3.7369334358
 20
-23.8353568855
 10
3.7210134595
 20
-23.828689954
 10
3.7050289599
 20
-23.8221794179
 10
3.6889896244
 20
-23.815808709
  0
LINE
  5
295
100
AcDbEntity
  8
RACCORDO
100
AcDbLine
 62
7
  6
CONTINUOUS
 10
-28.815861728
 20
-18.0769132031
 11
-28.7691978135
 21
-18.1110815675
  0
LINE
  5
296
100
AcDbEntity
  8
RACCORDO
100
AcDbLine
 62
7
  6
CONTINUOUS
 10
16.1667574527
 20
9.082318743
 11
16.1956898614
 21
9.060787068
  0
LINE
  5
297
100
AcDbEntity
  8
0
100
AcDbLine
 62
7
  6
CONTINUOUS
 10
-1.0175208655
 20
-13.8813213001
 11
-1.0451389599
 21
-13.8600546446
  0
LINE
  5
298
100
AcDbEntity
  8
RACCORDO
100
AcDbLine
 62
7
  6
CONTINUOUS
 10
-28.8619085073
 20
-18.0401219729
 11
-28.815861728
 21
-18.0769132031
  0
LINE
  5
299
100
AcDbEntity
  8
RACCORDO
100
AcDbLine
 62
7
  6
CONTINUOUS
 10
16.1956898614
 20
9.060787068
 11
16.2253758976
 21
9.0368206649
  0
LINE
  5
29A
100
AcDbEntity
  8
0
100
AcDbLine
 62
7
  6
CONTINUOUS
 10
-11.8840875132
 20
23.3279314711
 11
-11.9077087465
 21
23.3475066677
  0
LINE
  5
29B
100
AcDbEntity
  8
RACCORDO
100
AcDbLine
 62
7
  6
CONTINUOUS
 10
-28.9071857644
 20
-18.0008653762
 11
-28.8619085073
 21
-18.0401219729
  0
LINE
  5
29C
100
AcDbEntity
  8
RACCORDO
100
AcDbLine
 62
7
  6
CONTINUOUS
 10
16.2253758976
 20
9.0368206649
 11
16.2556286509
 21
9.0104302245
  0
LINE
  5
29D
100
AcDbEntity
  8
0
100
AcDbLine
 62
7
  6
CONTINUOUS
 10
-0.992486267
 20
-13.9041661865
 11
-1.0175208655
 21
-13.8813213001
  0
LINE
  5
29E
100
AcDbEntity
  8
RACCORDO
100
AcDbLine
 62
7
  6
CONTINUOUS
 10
-28.9515849271
 20
-17.959268408
 11
-28.9071857644
 21
-18.0008653762
  0
LINE
  5
29F
100
AcDbEntity
  8
RACCORDO
100
AcDbLine
 62
7
  6
CONTINUOUS
 10
16.2556286509
 20
9.0104302245
 11
16.286276861
 21
8.9816314109
  0
LWPOLYLINE
  5
2A0
100
AcDbEntity
  8
0
100
AcDbPolyline
 62
7
  6
CONTINUOUS
 90
49
 70
0
 10
4.1832963753
 20
-23.9099513762
 10
4.1994807037
 20
-23.9258670522
 10
4.2152114779
 20
-23.9422381478
 10
4.2305165975
 20
-23.9590223866
 10
4.2454239624
 20
-23.9761774918
 10
4.2599614724
 20
-23.9936611871
 10
4.2741570273
 20
-24.0114311956
 10
4.288038527
 20
-24.029445241
 10
4.3074209257
 20
-24.0556177793
 10
4.3262025465
 20
-24.0822013111
 10
4.344370101
 20
-24.1091926075
 10
4.3619103008
 20
-24.1365884397
 10
4.3788098574
 20
-24.1643855788
 10
4.3948314632
 20
-24.1921817025
 10
4.4101975623
 20
-24.2203518155
 10
4.4248883989
 20
-24.2488828966
 10
4.4388842173
 20
-24.2777619246
 10
4.4521652615
 20
-24.3069758783
 10
4.4621836389
 20
-24.3303948056
 10
4.4717201245
 20
-24.354012956
 10
4.4807556117
 20
-24.3778267389
 10
4.4892709938
 20
-24.4018325639
 10
4.4972471642
 20
-24.4260268406
 10
4.5046650162
 20
-24.4504059785
 10
4.512223174
 20
-24.4776689355
 10
4.5190610358
 20
-24.5051238241
 10
4.5251694597
 20
-24.5327393238
 10
4.5305393037
 20
-24.560484114
 10
4.5351614258
 20
-24.588326874
 10
4.5381653204
 20
-24.6095465504
 10
4.5407020947
 20
-24.6308205362
 10
4.5427421227
 20
-24.6521646153
 10
4.5442557785
 20
-24.6735945713
 10
4.5452134362
 20
-24.6951261881
 10
4.5455854697
 20
-24.7167752494
 10
4.5454739208
 20
-24.7322819632
 10
4.5450217362
 20
-24.7478273293
 10
4.544200905
 20
-24.7633823034
 10
4.5429834163
 20
-24.7789178408
 10
4.5413412592
 20
-24.7944048971
 10
4.5392464229
 20
-24.8098144279
 10
4.5366708964
 20
-24.8251173886
 10
4.5335866689
 20
-24.8402847348
 10
4.5299657294
 20
-24.855287422
 10
4.525780067
 20
-24.8700964058
 10
4.521001671
 20
-24.8846826416
 10
4.5156025303
 20
-24.899017085
 10
4.5095546341
 20
-24.9130706915
 10
4.5028299715
 20
-24.9268144166
  0
LINE
  5
2A1
100
AcDbEntity
  8
RACCORDO
100
AcDbLine
 62
7
  6
CONTINUOUS
 10
-28.9949700528
 20
-17.9154788775
 11
-28.9515849271
 21
-17.959268408
  0
LINE
  5
2A2
100
AcDbEntity
  8
RACCORDO
100
AcDbLine
 62
7
  6
CONTINUOUS
 10
16.286276861
 20
8.9816314109
 11
16.3170640293
 21
8.9505442768
  0
LINE
  5
2A3
100
AcDbEntity
  8
0
100
AcDbLine
 62
7
  6
CONTINUOUS
 10
-11.8622722347
 20
23.3057514747
 11
-11.8840875132
 21
23.3279314711
  0
LINE
  5
2A4
100
AcDbEntity
  8
RACCORDO
100
AcDbLine
 62
7
  6
CONTINUOUS
 10
16.3170640293
 20
8.9505442768
 11
16.3478100956
 21
8.9172444674
  0
LINE
  5
2A5
100
AcDbEntity
  8
RACCORDO
100
AcDbLine
 62
7
  6
CONTINUOUS
 10
-29.0370897997
 20
-17.8697562991
 11
-28.9949700528
 21
-17.9154788775
  0
LINE
  5
2A6
100
AcDbEntity
  8
0
100
AcDbLine
 62
7
  6
CONTINUOUS
 10
-0.9700237553
 20
-13.9285740276
 11
-0.992486267
 21
-13.9041661865
  0
LWPOLYLINE
  5
2A7
100
AcDbEntity
  8
0
100
AcDbPolyline
 62
7
  6
CONTINUOUS
 90
28
 70
0
 10
4.3227896217
 20
-25.0798119366
 10
4.3332794997
 20
-25.09171443
 10
4.3434574051
 20
-25.1038913276
 10
4.3533325759
 20
-25.1163250873
 10
4.3629142502
 20
-25.1289981669
 10
4.372211666
 20
-25.1418930243
 10
4.3812340613
 20
-25.1549921174
 10
4.3899906743
 20
-25.1682779039
 10
4.3984907428
 20
-25.1817328417
 10
4.406743505
 20
-25.1953393887
 10
4.4147581988
 20
-25.2090800028
 10
4.4242578979
 20
-25.226060279
 10
4.43342891
 20
-25.2432050761
 10
4.4422854267
 20
-25.2605043145
 10
4.4508416398
 20
-25.2779479143
 10
4.4591117412
 20
-25.2955257958
 10
4.4671099226
 20
-25.3132278793
 10
4.4748503758
 20
-25.331044085
 10
4.4823472925
 20
-25.3489643333
 10
4.4915615374
 20
-25.3719218248
 10
4.5004162638
 20
-25.3950209714
 10
4.5089238946
 20
-25.4182510432
 10
4.5170968527
 20
-25.4416013104
 10
4.524947561
 20
-25.4650610434
 10
4.5324884422
 20
-25.4886195123
 10
4.5408588177
 20
-25.5159945097
 10
4.5489261415
 20
-25.5434589294
 10
4.5567857923
 20
-25.5709842921
  0
LINE
  5
2A8
100
AcDbEntity
  8
RACCORDO
100
AcDbLine
 62
7
  6
CONTINUOUS
 10
16.3478100956
 20
8.9172444674
 11
16.3783486785
 21
8.8818117047
  0
LINE
  5
2A9
100
AcDbEntity
  8
RACCORDO
100
AcDbLine
 62
7
  6
CONTINUOUS
 10
-29.0778047848
 20
-17.822274397
 11
-29.0370897997
 21
-17.8697562991
  0
LINE
  5
2AA
100
AcDbEntity
  8
RACCORDO
100
AcDbLine
 62
7
  6
CONTINUOUS
 10
16.3783486785
 20
8.8818117047
 11
16.4084672636
 21
8.8444026178
  0
LINE
  5
2AB
100
AcDbEntity
  8
0
100
AcDbLine
 62
7
  6
CONTINUOUS
 10
-11.84256825
 20
23.2811805486
 11
-11.8622722347
 21
23.3057514747
  0
LINE
  5
2AC
100
AcDbEntity
  8
RACCORDO
100
AcDbLine
 62
7
  6
CONTINUOUS
 10
-29.1169802666
 20
-17.7731927589
 11
-29.0778047848
 21
-17.822274397
  0
LINE
  5
2AD
100
AcDbEntity
  8
0
100
AcDbLine
 62
7
  6
CONTINUOUS
 10
-0.9502065271
 20
-13.9544828176
 11
-0.9700237553
 21
-13.9285740276
  0
LINE
  5
2AE
100
AcDbEntity
  8
RACCORDO
100
AcDbLine
 62
7
  6
CONTINUOUS
 10
16.4084672636
 20
8.8444026178
 11
16.4379993512
 21
8.8051461987
  0
LINE
  5
2AF
100
AcDbEntity
  8
RACCORDO
100
AcDbLine
 62
7
  6
CONTINUOUS
 10
-29.1543812955
 20
-17.7228022328
 11
-29.1169802666
 21
-17.7731927589
  0
LINE
  5
2B0
100
AcDbEntity
  8
RACCORDO
100
AcDbLine
 62
7
  6
CONTINUOUS
 10
16.4379993512
 20
8.8051461987
 11
16.4667955516
 21
8.7641692578
  0
LWPOLYLINE
  5
2B1
100
AcDbEntity
  8
RACCORDO
100
AcDbPolyline
 62
7
  6
CONTINUOUS
 90
48
 70
0
 10
16.7092565319
 20
-28.4795872
 10
16.7004777328
 20
-28.4669300711
 10
16.6920231098
 20
-28.4540344442
 10
16.6839023264
 20
-28.4409099828
 10
16.676125046
 20
-28.4275663506
 10
16.6687009322
 20
-28.4140132112
 10
16.6616396484
 20
-28.4002602282
 10
16.654950858
 20
-28.3863170652
 10
16.6486442244
 20
-28.3721933858
 10
16.6427294113
 20
-28.3578988536
 10
16.6372160819
 20
-28.3434431323
 10
16.6321138998
 20
-28.3288358855
 10
16.6279958549
 20
-28.3159429524
 10
16.6242064769
 20
-28.302950012
 10
16.6207524865
 20
-28.28986559
 10
16.6176406047
 20
-28.276698212
 10
16.6148775522
 20
-28.263456404
 10
16.6124700498
 20
-28.2501486915
 10
16.6104248183
 20
-28.2367836003
 10
16.6087485785
 20
-28.2233696562
 10
16.6074480511
 20
-28.2099153849
 10
16.6065299571
 20
-28.1964293121
 10
16.6060010172
 20
-28.1829199636
 10
16.6058679521
 20
-28.1693958651
 10
16.6061096356
 20
-28.15668014
 10
16.6067116955
 20
-28.1439716285
 10
16.6076788762
 20
-28.131283042
 10
16.6090159223
 20
-28.1186270924
 10
16.6107275783
 20
-28.1060164913
 10
16.6128185888
 20
-28.0934639503
 10
16.6152936982
 20
-28.0809821812
 10
16.6181576512
 20
-28.0685838955
 10
16.6214151921
 20
-28.0562818049
 10
16.6250710657
 20
-28.0440886211
 10
16.6291300163
 20
-28.0320170558
 10
16.6335967886
 20
-28.0200798206
 10
16.6382337316
 20
-28.0088456461
 10
16.643238515
 20
-27.9977605303
 10
16.6486045905
 20
-27.986840097
 10
16.6543254097
 20
-27.97609997
 10
16.6603944245
 20
-27.9655557729
 10
16.6668050865
 20
-27.9552231295
 10
16.6735508473
 20
-27.9451176636
 10
16.6806251587
 20
-27.9352549989
 10
16.6880214724
 20
-27.9256507591
 10
16.6957332401
 20
-27.916320568
 10
16.7037539135
 20
-27.9072800492
 10
16.7120769443
 20
-27.8985448265
  0
LINE
  5
2B2
100
AcDbEntity
  8
RACCORDO
100
AcDbLine
 62
7
  6
CONTINUOUS
 10
-29.1898849273
 20
-17.6712776286
 11
-29.1543812955
 21
-17.7228022328
  0
LWPOLYLINE
  5
2B3
100
AcDbEntity
  8
RACCORDO
100
AcDbPolyline
 62
7
  6
CONTINUOUS
 90
48
 70
0
 10
-15.772346254
 20
27.2898972771
 10
-15.7628460734
 20
27.2754717965
 10
-15.7529416729
 20
27.261299636
 10
-15.742642566
 20
27.2473924792
 10
-15.7319582661
 20
27.2337620096
 10
-15.7208982866
 20
27.2204199106
 10
-15.7094721409
 20
27.2073778658
 10
-15.6976893425
 20
27.1946475588
 10
-15.6855594048
 20
27.182240673
 10
-15.6730918413
 20
27.170168892
 10
-15.6602961653
 20
27.1584438993
 10
-15.6471818904
 20
27.1470773784
 10
-15.634124843
 20
27.1363732702
 10
-15.6207829013
 20
27.1260318952
 10
-15.6071637881
 20
27.1160655539
 10
-15.5932752257
 20
27.1064865469
 10
-15.5791249368
 20
27.0973071748
 10
-15.5647206441
 20
27.0885397381
 10
-15.5500700699
 20
27.0801965373
 10
-15.535180937
 20
27.072289873
 10
-15.5200609679
 20
27.0648320457
 10
-15.5047178852
 20
27.0578353561
 10
-15.4891594114
 20
27.0513121046
 10
-15.4757438879
 20
27.0461393696
 10
-15.4621875714
 20
27.0413326573
 10
-15.4485003366
 20
27.0369055781
 10
-15.4346920576
 20
27.0328717423
 10
-15.420772609
 20
27.0292447605
 10
-15.4067518651
 20
27.0260382429
 10
-15.3926397002
 20
27.0232658001
 10
-15.3784459889
 20
27.0209410424
 10
-15.3641806054
 20
27.0190775803
 10
-15.3498534241
 20
27.0176890241
 10
-15.3354743195
 20
27.0167889843
 10
-15.321053166
 20
27.0163910714
 10
-15.3088533429
 20
27.0164554124
 10
-15.2966482221
 20
27.0168914158
 10
-15.2844554436
 20
27.0177030718
 10
-15.2722926471
 20
27.0188943704
 10
-15.2601774724
 20
27.020469302
 10
-15.2481275594
 20
27.0224318567
 10
-15.2361605478
 20
27.0247860248
 10
-15.2242940776
 20
27.0275357964
 10
-15.2125457885
 20
27.0306851618
 10
-15.2009333203
 20
27.0342381112
 10
-15.189474313
 20
27.0381986347
 10
-15.1781864062
 20
27.0425707225
 10
-15.1670872398
 20
27.047358365
  0
LINE
  5
2B4
100
AcDbEntity
  8
RACCORDO
100
AcDbLine
 62
7
  6
CONTINUOUS
 10
16.4667955516
 20
8.7641692578
 11
16.4946906762
 21
8.7216428683
  0
LINE
  5
2B5
100
AcDbEntity
  8
0
100
AcDbLine
 62
7
  6
CONTINUOUS
 10
-11.8251582939
 20
23.2543829838
 11
-11.84256825
 21
23.2811805486
  0
LINE
  5
2B6
100
AcDbEntity
  8
RACCORDO
100
AcDbLine
 62
7
  6
CONTINUOUS
 10
-29.2233569694
 20
-17.6187912085
 11
-29.1898849273
 21
-17.6712776286
  0
LINE
  5
2B7
100
AcDbEntity
  8
0
100
AcDbLine
 62
7
  6
CONTINUOUS
 10
-0.9331724227
 20
-13.9817215335
 11
-0.9502065271
 21
-13.9544828176
  0
LINE
  5
2B8
100
AcDbEntity
  8
RACCORDO
100
AcDbLine
 62
7
  6
CONTINUOUS
 10
16.4946906762
 20
8.7216428683
 11
16.5215417585
 21
8.6777302912
  0
LINE
  5
2B9
100
AcDbEntity
  8
RACCORDO
100
AcDbLine
 62
7
  6
CONTINUOUS
 10
-29.2546027156
 20
-17.5656315282
 11
-29.2233569694
 21
-17.6187912085
  0
LINE
  5
2BA
100
AcDbEntity
  8
RACCORDO
100
AcDbLine
 62
7
  6
CONTINUOUS
 10
16.5215417585
 20
8.6777302912
 11
16.5472162685
 21
8.6326007285
  0
LWPOLYLINE
  5
2BB
100
AcDbEntity
  8
RACCORDO
100
AcDbPolyline
 62
7
  6
CONTINUOUS
 90
28
 70
0
 10
-15.1670898173
 20
-9.4259119346
 10
-15.1763922387
 20
-9.4087193124
 10
-15.1854516609
 20
-9.391390504
 10
-15.1942613208
 20
-9.3739275044
 10
-15.202814455
 20
-9.3563323086
 10
-15.2111043004
 20
-9.3386069117
 10
-15.2191240937
 20
-9.3207533088
 10
-15.2268670717
 20
-9.3027734948
 10
-15.2343264711
 20
-9.2846694648
 10
-15.2414955287
 20
-9.266443214
 10
-15.2483674813
 20
-9.2480967372
 10
-15.2549355657
 20
-9.2296320296
 10
-15.2611930186
 20
-9.2110510862
 10
-15.2671330768
 20
-9.1923559021
 10
-15.2718300644
 20
-9.176707535
 10
-15.2762925772
 20
-9.1609859111
 10
-15.280510785
 20
-9.1451955614
 10
-15.2844748581
 20
-9.1293410165
 10
-15.2881749663
 20
-9.1134268072
 10
-15.2916012798
 20
-9.0974574644
 10
-15.2947439686
 20
-9.0814375187
 10
-15.2975932028
 20
-9.0653715011
 10
-15.3001391524
 20
-9.0492639422
 10
-15.3023719874
 20
-9.0331193729
 10
-15.304281878
 20
-9.0169423238
 10
-15.3058589941
 20
-9.0007373259
 10
-15.3070935058
 20
-8.9845089099
 10
-15.3079755831
 20
-8.9682616066
  0
LINE
  5
2BC
100
AcDbEntity
  8
RACCORDO
100
AcDbLine
 62
7
  6
CONTINUOUS
 10
-29.2835214514
 20
-17.511949018
 11
-29.2546027156
 21
-17.5656315282
  0
LINE
  5
2BD
100
AcDbEntity
  8
RACCORDO
100
AcDbLine
 62
7
  6
CONTINUOUS
 10
16.5472162685
 20
8.6326007285
 11
16.5715830077
 21
8.5864457955
  0
LWPOLYLINE
  5
2BE
100
AcDbEntity
  8
RACCORDO
100
AcDbPolyline
 62
7
  6
CONTINUOUS
 90
28
 70
0
 10
-15.7723501907
 20
-9.7251193441
 10
-15.7870393551
 20
-9.6968584798
 10
-15.8013440021
 20
-9.6683910428
 10
-15.8152540259
 20
-9.6397201019
 10
-15.8287593209
 20
-9.6108487259
 10
-15.8418497812
 20
-9.5817799835
 10
-15.8545153012
 20
-9.5525169435
 10
-15.8667457751
 20
-9.5230626747
 10
-15.8785310971
 20
-9.4934202459
 10
-15.8898611615
 20
-9.4635927257
 10
-15.9007258626
 20
-9.433583183
 10
-15.9111150946
 20
-9.4033946865
 10
-15.9210187517
 20
-9.373030305
 10
-15.9304267283
 20
-9.3424931072
 10
-15.9378657263
 20
-9.3169637878
 10
-15.9449392851
 20
-9.2913236966
 10
-15.9516319102
 20
-9.2655795069
 10
-15.9579281071
 20
-9.2397378925
 10
-15.9638123815
 20
-9.2138055266
 10
-15.9692692388
 20
-9.1877890829
 10
-15.9742831848
 20
-9.1616952348
 10
-15.9788387248
 20
-9.1355306559
 10
-15.9829203646
 20
-9.1093020196
 10
-15.9865126097
 20
-9.0830159994
 10
-15.9895999656
 20
-9.0566792689
 10
-15.992166938
 20
-9.0302985015
 10
-15.9941980323
 20
-9.0038803707
 10
-15.9956777542
 20
-8.9774315501
  0
LINE
  5
2BF
100
AcDbEntity
  8
0
100
AcDbLine
 62
7
  6
CONTINUOUS
 10
-11.8102029955
 20
23.2255661311
 11
-11.8251582939
 21
23.2543829838
  0
LINE
  5
2C0
100
AcDbEntity
  8
0
100
AcDbLine
 62
7
  6
CONTINUOUS
 10
-0.9190740658
 20
-14.01003053
 11
-0.9331724227
 21
-13.9817215335
  0
LINE
  5
2C1
100
AcDbEntity
  8
RACCORDO
100
AcDbLine
 62
7
  6
CONTINUOUS
 10
-29.3099966484
 20
-17.4578999985
 11
-29.2835214514
 21
-17.511949018
  0
LINE
  5
2C2
100
AcDbEntity
  8
RACCORDO
100
AcDbLine
 62
7
  6
CONTINUOUS
 10
16.5715830077
 20
8.5864457955
 11
16.5945259202
 21
8.5394558355
  0
LINE
  5
2C3
100
AcDbEntity
  8
RACCORDO
100
AcDbLine
 62
7
  6
CONTINUOUS
 10
16.5945259202
 20
8.5394558355
 11
16.6061176007
 21
8.5141773894
  0
LINE
  5
2C4
100
AcDbEntity
  8
RACCORDO
100
AcDbLine
 62
7
  6
CONTINUOUS
 10
-29.3338834063
 20
-17.4037268283
 11
-29.3099966484
 21
-17.4578999985
  0
LWPOLYLINE
  5
2C5
100
AcDbEntity
  8
RACCORDO
100
AcDbPolyline
 62
7
  6
CONTINUOUS
 90
28
 70
0
 10
16.709252595
 20
8.5354248751
 10
16.7222157406
 20
8.5058984524
 10
16.73473751
 20
8.4761701312
 10
16.7468088533
 20
8.4462455879
 10
16.7584207206
 20
8.4161304985
 10
16.7695640622
 20
8.3858305395
 10
16.7802298282
 20
8.355351387
 10
16.7904089688
 20
8.3246987174
 10
16.800092434
 20
8.2938782068
 10
16.809271174
 20
8.2628955316
 10
16.817936139
 20
8.2317563679
 10
16.8260782792
 20
8.2004663921
 10
16.8336885446
 20
8.1690312804
 10
16.8407578855
 20
8.137456709
 10
16.8463334927
 20
8.1105138983
 10
16.8514986762
 20
8.0834832584
 10
16.8562403661
 20
8.0563736182
 10
16.8605454925
 20
8.0291938064
 10
16.8644009854
 20
8.0019526517
 10
16.8677937749
 20
7.9746589827
 10
16.8707107909
 20
7.9473216283
 10
16.8731389637
 20
7.9199494172
 10
16.8750652232
 20
7.8925511781
 10
16.8764764996
 20
7.8651357397
 10
16.8773597227
 20
7.8377119307
 10
16.8777018229
 20
7.8102885799
 10
16.87748973
 20
7.782874516
 10
16.8767103741
 20
7.7554785678
  0
LINE
  5
2C6
100
AcDbEntity
  8
RACCORDO
100
AcDbLine
 62
7
  6
CONTINUOUS
 10
16.6061177009
 20
8.5141764256
 11
16.6177662961
 21
8.4875633907
  0
LINE
  5
2C7
100
AcDbEntity
  8
RACCORDO
100
AcDbLine
 62
7
  6
CONTINUOUS
 10
16.6177662961
 20
8.4875633907
 11
16.6386606644
 21
8.4362106763
  0
LINE
  5
2C8
100
AcDbEntity
  8
0
100
AcDbLine
 62
7
  6
CONTINUOUS
 10
-11.7978502366
 20
23.1950010653
 11
-11.8102029955
 21
23.2255661311
  0
LINE
  5
2C9
100
AcDbEntity
  8
RACCORDO
100
AcDbLine
 62
7
  6
CONTINUOUS
 10
-29.3550864733
 20
-17.3495595415
 11
-29.3338834063
 21
-17.4037268283
  0
LINE
  5
2CA
100
AcDbEntity
  8
0
100
AcDbLine
 62
7
  6
CONTINUOUS
 10
-0.9080044309
 20
-14.0391698035
 11
-0.9190740658
 21
-14.01003053
  0
LWPOLYLINE
  5
2CB
100
AcDbEntity
  8
0
100
AcDbPolyline
 62
7
  6
CONTINUOUS
 90
37
 70
0
 10
-1.0980503309
 20
-13.933824902
 10
-1.0990905585
 20
-13.9310175648
 10
-1.1002055287
 20
-13.9282376821
 10
-1.1013927872
 20
-13.9254862199
 10
-1.1026498798
 20
-13.9227641444
 10
-1.1039743523
 20
-13.9200724217
 10
-1.1053637502
 20
-13.9174120179
 10
-1.1068156195
 20
-13.9147838991
 10
-1.1083275057
 20
-13.9121890314
 10
-1.1098969546
 20
-13.909628381
 10
-1.111800336
 20
-13.906681247
 10
-1.1137765476
 20
-13.9037819292
 10
-1.1158232076
 20
-13.9009302257
 10
-1.1179379341
 20
-13.8981259342
 10
-1.1201183454
 20
-13.8953688529
 10
-1.1223620595
 20
-13.8926587796
 10
-1.1246666945
 20
-13.8899955124
 10
-1.1270298688
 20
-13.8873788491
 10
-1.1294492004
 20
-13.8848085878
 10
-1.1319223074
 20
-13.8822845263
 10
-1.1344468081
 20
-13.8798064627
 10
-1.1370203205
 20
-13.8773741949
 10
-1.1396404628
 20
-13.8749875208
 10
-1.1423048533
 20
-13.8726462385
 10
-1.14501111
 20
-13.8703501458
 10
-1.1477568511
 20
-13.8680990408
 10
-1.1505396947
 20
-13.8658927214
 10
-1.153357259
 20
-13.8637309856
 10
-1.1562071622
 20
-13.8616136312
 10
-1.1590870224
 20
-13.8595404563
 10
-1.1619944578
 20
-13.8575112589
 10
-1.1649270865
 20
-13.8555258368
 10
-1.1678825266
 20
-13.853583988
 10
-1.1708583964
 20
-13.8516855106
 10
-1.173852314
 20
-13.8498302024
 10
-1.1768618975
 20
-13.8480178615
 10
-1.1798847651
 20
-13.8462482857
  0
LINE
  5
2CC
100
AcDbEntity
  8
RACCORDO
100
AcDbLine
 62
7
  6
CONTINUOUS
 10
16.6386606644
 20
8.4362106763
 11
16.6574334765
 21
8.3850597749
  0
LWPOLYLINE
  5
2CD
100
AcDbEntity
  8
0
100
AcDbPolyline
 62
7
  6
CONTINUOUS
 90
34
 70
0
 10
4.1299247531
 20
-25.3022404584
 10
4.1248935067
 20
-25.2881985924
 10
4.1195663056
 20
-25.2742623791
 10
4.1139517904
 20
-25.2604351122
 10
4.1080586022
 20
-25.2467200851
 10
4.1018953817
 20
-25.2331205917
 10
4.0954707697
 20
-25.2196399256
 10
4.0887934072
 20
-25.2062813804
 10
4.0825005009
 20
-25.1942307567
 10
4.0760003911
 20
-25.1822921728
 10
4.0692881627
 20
-25.1704737405
 10
4.0623589008
 20
-25.158783571
 10
4.0552076904
 20
-25.1472297761
 10
4.0478296166
 20
-25.1358204673
 10
4.0402197643
 20
-25.1245637559
 10
4.0323732186
 20
-25.1134677536
 10
4.0253378834
 20
-25.1039352067
 10
4.0181164694
 20
-25.0945402242
 10
4.0107064192
 20
-25.0852921373
 10
4.0031051753
 20
-25.0762002775
 10
3.9953101804
 20
-25.067273976
 10
3.9873188768
 20
-25.0585225642
 10
3.9791287073
 20
-25.0499553734
 10
3.9707371143
 20
-25.041581735
 10
3.9621415404
 20
-25.0334109804
 10
3.9542193812
 20
-25.026229712
 10
3.9461322953
 20
-25.0192303144
 10
3.9378830875
 20
-25.0124223165
 10
3.9294745626
 20
-25.0058152474
 10
3.9209095258
 20
-24.999418636
 10
3.9121907817
 20
-24.9932420114
 10
3.9033211354
 20
-24.9872949024
 10
3.8943033918
 20
-24.9815868382
 10
3.8851403557
 20
-24.9761273476
  0
LWPOLYLINE
  5
2CE
100
AcDbEntity
  8
0
100
AcDbPolyline
 62
7
  6
CONTINUOUS
 90
34
 70
0
 10
4.2363529319
 20
-25.2407901255
 10
4.2313208909
 20
-25.2267486841
 10
4.2259929228
 20
-25.2128129055
 10
4.2203776689
 20
-25.1989860819
 10
4.2144837702
 20
-25.1852715052
 10
4.2083198681
 20
-25.1716724675
 10
4.2018946036
 20
-25.1581922608
 10
4.195216618
 20
-25.1448341772
 10
4.1889231129
 20
-25.132783866
 10
4.1824224264
 20
-25.1208455959
 10
4.1757096444
 20
-25.1090274774
 10
4.168779853
 20
-25.097337621
 10
4.1616281383
 20
-25.0857841371
 10
4.1542495862
 20
-25.0743751362
 10
4.1466392829
 20
-25.0631187286
 10
4.1387923144
 20
-25.0520230249
 10
4.1317565875
 20
-25.0424906707
 10
4.1245348019
 20
-25.0330958766
 10
4.1171244006
 20
-25.0238479725
 10
4.1095228263
 20
-25.0147562886
 10
4.101727522
 20
-25.0058301549
 10
4.0937359305
 20
-24.9970789014
 10
4.0855454947
 20
-24.9885118584
 10
4.0771536574
 20
-24.9801383558
 10
4.0685578616
 20
-24.9719677237
 10
4.0606355268
 20
-24.9647865581
 10
4.0525482828
 20
-24.9577872504
 10
4.0442989336
 20
-24.9509793288
 10
4.0358902831
 20
-24.9443723215
 10
4.0273251352
 20
-24.9379757566
 10
4.018606294
 20
-24.9317991623
 10
4.0097365632
 20
-24.9258520667
 10
4.0007187469
 20
-24.9201439979
 10
3.9915556489
 20
-24.9146844842
  0
LINE
  5
2CF
100
AcDbEntity
  8
RACCORDO
100
AcDbLine
 62
7
  6
CONTINUOUS
 10
-29.373513106
 20
-17.2954893807
 11
-29.3550864733
 21
-17.3495595415
  0
LINE
  5
2D0
100
AcDbEntity
  8
RACCORDO
100
AcDbLine
 62
7
  6
CONTINUOUS
 10
16.6574334765
 20
8.3850597749
 11
16.6740437458
 21
8.3343813042
  0
LINE
  5
2D1
100
AcDbEntity
  8
0
100
AcDbLine
 62
7
  6
CONTINUOUS
 10
-11.7881745621
 20
23.1628958494
 11
-11.7978502366
 21
23.1950010653
  0
LWPOLYLINE
  5
2D2
100
AcDbEntity
  8
0
100
AcDbPolyline
 62
7
  6
CONTINUOUS
 90
6
 70
0
 10
4.3618486797
 20
-26.0703477683
 10
4.3333675728
 20
-25.974557055
 10
4.3047950532
 20
-25.8787955246
 10
4.2764374598
 20
-25.7830516289
 10
4.2483377729
 20
-25.6872210866
 10
4.223291595
 20
-25.6012666636
  0
LWPOLYLINE
  5
2D3
100
AcDbEntity
  8
0
100
AcDbPolyline
 62
7
  6
CONTINUOUS
 90
6
 70
0
 10
4.4683230949
 20
-26.0088707754
 10
4.4398360402
 20
-25.9130835144
 10
4.4112576337
 20
-25.8173254245
 10
4.3828941874
 20
-25.7215849226
 10
4.3547886751
 20
-25.6257577494
 10
4.3297372632
 20
-25.5398061867
  0
LWPOLYLINE
  5
2D4
100
AcDbEntity
  8
0
100
AcDbPolyline
 62
7
  6
CONTINUOUS
 90
8
 70
0
 10
4.223291595
 20
-25.6012666636
 10
4.2106888793
 20
-25.5583110261
 10
4.1979477233
 20
-25.51539858
 10
4.1850041104
 20
-25.4725509323
 10
4.1717940236
 20
-25.4297896895
 10
4.1582534464
 20
-25.3871364585
 10
4.1443183618
 20
-25.3446128459
 10
4.1299247531
 20
-25.3022404584
  0
LWPOLYLINE
  5
2D5
100
AcDbEntity
  8
0
100
AcDbPolyline
 62
7
  6
CONTINUOUS
 90
8
 70
0
 10
4.3297372632
 20
-25.5398061867
 10
4.3171319526
 20
-25.4968519787
 10
4.3043882242
 20
-25.4539409649
 10
4.2914420672
 20
-25.4110947543
 10
4.2782294704
 20
-25.3683349561
 10
4.2646864229
 20
-25.3256831791
 10
4.2507489137
 20
-25.2831610326
 10
4.2363529319
 20
-25.2407901255
  0
LINE
  5
2D6
100
AcDbEntity
  8
RACCORDO
100
AcDbLine
 62
7
  6
CONTINUOUS
 10
-29.3890670175
 20
-17.2415926879
 11
-29.373513106
 21
-17.2954893807
  0
LINE
  5
2D7
100
AcDbEntity
  8
0
100
AcDbLine
 62
7
  6
CONTINUOUS
 10
4.5567857923
 20
-25.5709842921
 11
4.5722635911
 21
-25.6261039302
  0
LWPOLYLINE
  5
2D8
100
AcDbEntity
  8
0
100
AcDbPolyline
 62
7
  6
CONTINUOUS
 90
8
 70
0
 10
4.5722635911
 20
-25.6261039302
 10
4.6037003516
 20
-25.7384318359
 10
4.6348707385
 20
-25.8508341881
 10
4.6658544391
 20
-25.9632889711
 10
4.688992038
 20
-26.0474952272
 10
4.7121988097
 20
-26.1316821249
 10
4.7356038978
 20
-26.2158132587
 10
4.7593364461
 20
-26.2998522229
  0
LINE
  5
2D9
100
AcDbEntity
  8
0
100
AcDbLine
 62
7
  6
CONTINUOUS
 10
-0.9000076828
 20
-14.0689021693
 11
-0.9080044309
 21
-14.0391698035
  0
LINE
  5
2DA
100
AcDbEntity
  8
RACCORDO
100
AcDbLine
 62
7
  6
CONTINUOUS
 10
-29.4016375601
 20
-17.1879014732
 11
-29.3890670175
 21
-17.2415926879
  0
LINE
  5
2DB
100
AcDbEntity
  8
0
100
AcDbLine
 62
7
  6
CONTINUOUS
 10
-11.7811887961
 20
23.1293457747
 11
-11.7881745621
 21
23.1628958494
  0
LINE
  5
2DC
100
AcDbEntity
  8
RACCORDO
100
AcDbLine
 62
7
  6
CONTINUOUS
 10
-29.4088959178
 20
-17.1486076054
 11
-29.4016375601
 21
-17.1879014732
  0
LWPOLYLINE
  5
2DD
100
AcDbEntity
  8
RACCORDO
100
AcDbPolyline
 62
7
  6
CONTINUOUS
 90
39
 70
0
 10
-28.7408445554
 20
-18.0716818707
 10
-28.7402624522
 20
-18.0748490378
 10
-28.7396315285
 20
-18.0780117588
 10
-28.7389503096
 20
-18.0811680275
 10
-28.7382173211
 20
-18.0843158378
 10
-28.7374310883
 20
-18.0874531834
 10
-28.7365901368
 20
-18.0905780581
 10
-28.735692992
 20
-18.0936884558
 10
-28.7347381793
 20
-18.0967823702
 10
-28.7337242241
 20
-18.0998577952
 10
-28.732649652
 20
-18.1029127245
 10
-28.7315129884
 20
-18.105945152
 10
-28.7303127586
 20
-18.1089530715
 10
-28.7290474883
 20
-18.1119344767
 10
-28.7277157027
 20
-18.1148873615
 10
-28.7263159275
 20
-18.1178097197
 10
-28.7248466879
 20
-18.1206995451
 10
-28.7233065095
 20
-18.1235548314
 10
-28.7216939177
 20
-18.1263735726
 10
-28.7200074379
 20
-18.1291537623
 10
-28.7184800714
 20
-18.1315381989
 10
-28.7168965992
 20
-18.1338896453
 10
-28.7152578978
 20
-18.136205777
 10
-28.7135648438
 20
-18.1384842698
 10
-28.7118183138
 20
-18.1407227994
 10
-28.7100191841
 20
-18.1429190414
 10
-28.7081683314
 20
-18.1450706714
 10
-28.7062666322
 20
-18.1471753651
 10
-28.7043149629
 20
-18.1492307983
 10
-28.7023142002
 20
-18.1512346465
 10
-28.7002652205
 20
-18.1531845855
 10
-28.6981689005
 20
-18.1550782909
 10
-28.6960261165
 20
-18.1569134383
 10
-28.6938377451
 20
-18.1586877035
 10
-28.6916046629
 20
-18.160398762
 10
-28.6893277463
 20
-18.1620442897
 10
-28.687007872
 20
-18.1636219621
 10
-28.6846459164
 20
-18.1651294549
 10
-28.682242756
 20
-18.1665644437
  0
LWPOLYLINE
  5
2DE
100
AcDbEntity
  8
RACCORDO
100
AcDbPolyline
 62
7
  6
CONTINUOUS
 90
39
 70
0
 10
-29.3215648579
 20
-17.2644016382
 10
-29.317493375
 20
-17.2869455114
 10
-29.3126914763
 20
-17.3093525467
 10
-29.3071974548
 20
-17.3316159275
 10
-29.3010496035
 20
-17.3537288376
 10
-29.2942862152
 20
-17.3756844604
 10
-29.2869455828
 20
-17.3974759796
 10
-29.2790659993
 20
-17.4190965786
 10
-29.2706857577
 20
-17.4405394411
 10
-29.2618431507
 20
-17.4617977505
 10
-29.2525764713
 20
-17.4828646906
 10
-29.2400292716
 20
-17.5097879239
 10
-29.2268577882
 20
-17.5363799118
 10
-29.2130815512
 20
-17.5626401544
 10
-29.1987200909
 20
-17.5885681518
 10
-29.1837929373
 20
-17.614163404
 10
-29.1683196206
 20
-17.6394254112
 10
-29.1523196709
 20
-17.6643536734
 10
-29.1358126186
 20
-17.6889476907
 10
-29.1188179936
 20
-17.7132069632
 10
-29.100800623
 20
-17.7378687869
 10
-29.0822867882
 20
-17.762160777
 10
-29.0632776843
 20
-17.7860695581
 10
-29.0437745066
 20
-17.8095817551
 10
-29.02377845
 20
-17.8326839925
 10
-29.0032907097
 20
-17.8553628953
 10
-28.9823124808
 20
-17.8776050879
 10
-28.9608449585
 20
-17.8993971954
 10
-28.9388893379
 20
-17.9207258422
 10
-28.920612567
 20
-17.9377726768
 10
-28.9020074367
 20
-17.9544703587
 10
-28.8830697729
 20
-17.9707872177
 10
-28.8637954014
 20
-17.9866915832
 10
-28.844180148
 20
-18.0021517849
 10
-28.8242198385
 20
-18.0171361523
 10
-28.8039102987
 20
-18.031613015
 10
-28.7832473543
 20
-18.0455507026
 10
-28.7622268313
 20
-18.0589175446
 10
-28.7408445554
 20
-18.0716818707
  0
LINE
  5
2DF
100
AcDbEntity
  8
0
100
AcDbLine
 62
7
  6
CONTINUOUS
 10
-0.8951100963
 20
-14.0988672041
 11
-0.9000076828
 21
-14.0689021693
  0
LINE
  5
2E0
100
AcDbEntity
  8
RACCORDO
100
AcDbLine
 62
7
  6
CONTINUOUS
 10
-29.3420046453
 20
-17.1388846414
 11
-29.3215648579
 21
-17.2644016382
  0
LINE
  5
2E1
100
AcDbEntity
  8
RACCORDO
100
AcDbLine
 62
7
  6
CONTINUOUS
 10
-29.4088659151
 20
-17.1487920849
 11
-29.4088959178
 21
-17.1486076054
  0
LINE
  5
2E2
100
AcDbEntity
  8
RACCORDO
100
AcDbLine
 62
7
  6
CONTINUOUS
 10
-29.6743241481
 20
-15.4496598688
 11
-29.4088700108
 21
-17.1487927529
  0
LINE
  5
2E3
100
AcDbEntity
  8
RACCORDO
100
AcDbLine
 62
7
  6
CONTINUOUS
 10
-29.9258984714
 20
-13.6776175059
 11
-29.6743241481
 21
-15.4496598688
  0
LINE
  5
2E4
100
AcDbEntity
  8
RACCORDO
100
AcDbLine
 62
7
  6
CONTINUOUS
 10
-30.1547309058
 20
-11.8869043317
 11
-29.9258984714
 21
-13.6776175059
  0
LINE
  5
2E5
100
AcDbEntity
  8
0
100
AcDbLine
 62
7
  6
CONTINUOUS
 10
-11.7769124062
 20
23.0943508879
 11
-11.7811887961
 21
23.1293457747
  0
LINE
  5
2E6
100
AcDbEntity
  8
RACCORDO
100
AcDbLine
 62
7
  6
CONTINUOUS
 10
-30.3607680101
 20
-10.0779316334
 11
-30.1547309058
 21
-11.8869043317
  0
LINE
  5
2E7
100
AcDbEntity
  8
0
100
AcDbLine
 62
7
  6
CONTINUOUS
 10
4.3023815917
 20
-25.0584689936
 11
4.3014473545
 21
-25.0455008823
  0
LWPOLYLINE
  5
2E8
100
AcDbEntity
  8
0
100
AcDbPolyline
 62
7
  6
CONTINUOUS
 90
42
 70
0
 10
-1.0275740672
 20
-14.9164255764
 10
-1.0275146615
 20
-14.9189915259
 10
-1.0274898186
 20
-14.9215626014
 10
-1.0275013393
 20
-14.9241374675
 10
-1.0275510244
 20
-14.926714789
 10
-1.0276406748
 20
-14.9292932303
 10
-1.0277720911
 20
-14.931871456
 10
-1.0279470742
 20
-14.9344481308
 10
-1.0281674249
 20
-14.9370219193
 10
-1.0284349439
 20
-14.9395914861
 10
-1.0287514321
 20
-14.9421554957
 10
-1.0291186902
 20
-14.9447126128
 10
-1.0295385191
 20
-14.947261502
 10
-1.0300127195
 20
-14.9498008278
 10
-1.0305430922
 20
-14.952329255
 10
-1.031131438
 20
-14.954845448
 10
-1.0317795576
 20
-14.9573480715
 10
-1.032489252
 20
-14.9598357901
 10
-1.0332623219
 20
-14.9623072684
 10
-1.034100568
 20
-14.964761171
 10
-1.0350057911
 20
-14.9671961625
 10
-1.0359797921
 20
-14.9696109075
 10
-1.0368362175
 20
-14.9715867329
 10
-1.0377403352
 20
-14.9735455662
 10
-1.0386917944
 20
-14.9754851064
 10
-1.0396902446
 20
-14.9774030522
 10
-1.0407353351
 20
-14.9792971023
 10
-1.0418267153
 20
-14.9811649557
 10
-1.0429640345
 20
-14.983004311
 10
-1.0441469421
 20
-14.9848128671
 10
-1.0453750876
 20
-14.9865883228
 10
-1.0466481202
 20
-14.9883283769
 10
-1.0479656893
 20
-14.9900307281
 10
-1.0493274443
 20
-14.9916930753
 10
-1.0507330346
 20
-14.9933131172
 10
-1.0521821096
 20
-14.9948885527
 10
-1.0536743185
 20
-14.9964170806
 10
-1.0552093108
 20
-14.9978963996
 10
-1.0567867358
 20
-14.9993242085
 10
-1.058406243
 20
-15.0006982062
 10
-1.0600674816
 20
-15.0020160913
 10
-1.0617701011
 20
-15.0032755629
  0
LINE
  5
2E9
100
AcDbEntity
  8
0
100
AcDbLine
 62
7
  6
CONTINUOUS
 10
-0.8932511812
 20
-14.1322539244
 11
-0.8932704455
 21
-14.1287310751
  0
LINE
  5
2EA
100
AcDbEntity
  8
0
100
AcDbLine
 62
7
  6
CONTINUOUS
 10
-0.893250918
 20
-14.132096023
 11
-0.893250918
 21
-14.7138231377
  0
LINE
  5
2EB
100
AcDbEntity
  8
0
100
AcDbLine
 62
7
  6
CONTINUOUS
 10
-1.0275395002
 20
-14.3275357084
 11
-1.0275740672
 21
-14.9164255764
  0
LINE
  5
2EC
100
AcDbEntity
  8
0
100
AcDbLine
 62
7
  6
CONTINUOUS
 10
-0.8945169591
 20
-14.7416291457
 11
-0.8932514177
 21
-14.7137171788
  0
LINE
  5
2ED
100
AcDbEntity
  8
0
100
AcDbLine
 62
7
  6
CONTINUOUS
 10
-11.7795580965
 20
21.1674780159
 11
-11.7763172345
 21
21.2021839696
  0
LINE
  5
2EE
100
AcDbEntity
  8
0
100
AcDbLine
 62
7
  6
CONTINUOUS
 10
-11.7850453499
 20
21.1326777826
 11
-11.7795580965
 21
21.1674780159
  0
LINE
  5
2EF
100
AcDbEntity
  8
RACCORDO
100
AcDbLine
 62
7
  6
CONTINUOUS
 10
-29.3583834334
 20
54.7885017728
 11
-29.3758972466
 21
54.7368362485
  0
LINE
  5
2F0
100
AcDbEntity
  8
RACCORDO
100
AcDbLine
 62
7
  6
CONTINUOUS
 10
-29.3381886395
 20
54.8378821867
 11
-29.3583834334
 21
54.7885017728
  0
LINE
  5
2F1
100
AcDbEntity
  8
RACCORDO
100
AcDbLine
 62
7
  6
CONTINUOUS
 10
33.786335309
 20
-54.1064252393
 11
33.8266277225
 21
-54.1017244285
  0
LINE
  5
2F2
100
AcDbEntity
  8
0
100
AcDbLine
 62
7
  6
CONTINUOUS
 10
-2.8207028547
 20
-12.8637361177
 11
-2.8564648738
 21
-12.8566548966
  0
LINE
  5
2F3
100
AcDbEntity
  8
0
100
AcDbLine
 62
7
  6
CONTINUOUS
 10
-2.7856831521
 20
-12.8726996487
 11
-2.8207028547
 21
-12.8637361177
  0
LWPOLYLINE
  5
2F4
100
AcDbEntity
  8
0
100
AcDbPolyline
 62
7
  6
CONTINUOUS
 90
40
 70
0
 10
-11.9370883851
 20
23.366846863
 10
-11.9418337483
 20
23.3694759689
 10
-11.9466705603
 20
23.3719475237
 10
-11.9515918626
 20
23.3742608788
 10
-11.9565906968
 20
23.3764153857
 10
-11.9616601047
 20
23.3784103957
 10
-11.9667931278
 20
23.3802452605
 10
-11.9719828077
 20
23.3819193313
 10
-11.9772221861
 20
23.3834319596
 10
-11.9825043045
 20
23.384782497
 10
-11.9878222046
 20
23.3859702948
 10
-11.9935189489
 20
23.3870566686
 10
-11.9992436837
 20
23.3879620803
 10
-12.0049916954
 20
23.3886909542
 10
-12.0107582706
 20
23.3892477145
 10
-12.0165386958
 20
23.3896367853
 10
-12.0223282574
 20
23.3898625906
 10
-12.0281222419
 20
23.3899295548
 10
-12.0339159359
 20
23.3898421019
 10
-12.0397046257
 20
23.3896046561
 10
-12.045483598
 20
23.3892216415
 10
-12.0518590465
 20
23.3886337207
 10
-12.0582146113
 20
23.3878786016
 10
-12.0645480625
 20
23.3869617507
 10
-12.0708571705
 20
23.3858886347
 10
-12.0771397053
 20
23.38466472
 10
-12.0833934371
 20
23.3832954733
 10
-12.0896161361
 20
23.3817863609
 10
-12.0958055724
 20
23.3801428496
 10
-12.1019595162
 20
23.3783704057
 10
-12.1080757377
 20
23.3764744959
 10
-12.1155910091
 20
23.3739644284
 10
-12.1230439112
 20
23.3712803751
 10
-12.1304332819
 20
23.3684291274
 10
-12.1377579595
 20
23.3654174767
 10
-12.1450167819
 20
23.3622522143
 10
-12.1522085872
 20
23.3589401315
 10
-12.1593322134
 20
23.3554880198
 10
-12.1663864986
 20
23.3519026705
 10
-12.1733702809
 20
23.3481908749
  0
LINE
  5
2F5
100
AcDbEntity
  8
0
100
AcDbLine
 62
7
  6
CONTINUOUS
 10
-12.4407121761
 20
23.6576350704
 11
-12.4488156169
 21
23.6621536691
  0
LWPOLYLINE
  5
2F6
100
AcDbEntity
  8
RACCORDO
100
AcDbPolyline
 62
7
  6
CONTINUOUS
 90
39
 70
0
 10
-15.9956752513
 20
26.7355847898
 10
-15.9809790465
 20
26.7273675577
 10
-15.9660252745
 20
26.7196117854
 10
-15.9508339266
 20
26.712304683
 10
-15.9354249939
 20
26.7054334608
 10
-15.9198184674
 20
26.6989853292
 10
-15.9040343383
 20
26.6929474984
 10
-15.8880925977
 20
26.6873071786
 10
-15.8720132368
 20
26.6820515801
 10
-15.8558162466
 20
26.6771679132
 10
-15.8395216183
 20
26.6726433882
 10
-15.8193829141
 20
26.6675576698
 10
-15.7991376508
 20
26.6629883465
 10
-15.7787965964
 20
26.658928464
 10
-15.7583705189
 20
26.6553710682
 10
-15.7378701864
 20
26.652309205
 10
-15.7173063668
 20
26.6497359201
 10
-15.6966898281
 20
26.6476442595
 10
-15.6760313384
 20
26.6460272689
 10
-15.6553416657
 20
26.6448779943
 10
-15.6346216585
 20
26.6441917118
 10
-15.6138913227
 20
26.643974353
 10
-15.5931607642
 20
26.6442336434
 10
-15.5724400886
 20
26.6449773087
 10
-15.5517394018
 20
26.6462130745
 10
-15.5310688095
 20
26.6479486664
 10
-15.5104384176
 20
26.65019181
 10
-15.4898583318
 20
26.6529502309
 10
-15.4693386579
 20
26.6562316546
 10
-15.4526837447
 20
26.6592970311
 10
-15.4360942623
 20
26.6627287043
 10
-15.4195888846
 20
26.6665410712
 10
-15.4031862857
 20
26.6707485287
 10
-15.3869051396
 20
26.6753654736
 10
-15.3707641201
 20
26.6804063029
 10
-15.3547819014
 20
26.6858854136
 10
-15.3389771574
 20
26.6918172025
 10
-15.323368562
 20
26.6982160666
 10
-15.3079747893
 20
26.7050964027
  0
LINE
  5
2F7
100
AcDbEntity
  8
RACCORDO
100
AcDbLine
 62
7
  6
CONTINUOUS
 10
-14.9416146651
 20
27.0478040052
 11
-14.9260968908
 21
27.0391285864
  0
LINE
  5
2F8
100
AcDbEntity
  8
0
100
AcDbLine
 62
7
  6
CONTINUOUS
 10
-12.6833607498
 20
23.6426528607
 11
-12.1733704081
 21
23.3481909506
  0
LINE
  5
2F9
100
AcDbEntity
  8
0
100
AcDbLine
 62
7
  6
CONTINUOUS
 10
-12.4407756978
 20
23.6576720219
 11
-11.9369694016
 21
23.3667805806
  0
LINE
  5
2FA
100
AcDbEntity
  8
RACCORDO
100
AcDbLine
 62
7
  6
CONTINUOUS
 10
-14.9259487232
 20
27.0390444224
 11
16.1056383419
 21
9.1217949682
  0
LINE
  5
2FB
100
AcDbEntity
  8
RACCORDO
100
AcDbLine
 62
7
  6
CONTINUOUS
 10
-15.0289863787
 20
27.2899862576
 11
16.0026006865
 21
9.3727368033
  0
LWPOLYLINE
  5
2FC
100
AcDbEntity
  8
RACCORDO
100
AcDbPolyline
 62
7
  6
CONTINUOUS
 90
43
 70
0
 10
-30.9573329854
 20
36.0575139958
 10
-30.9613600723
 20
36.0598684084
 10
-30.9653508022
 20
36.0622883763
 10
-30.9693019821
 20
36.0647754139
 10
-30.9732104191
 20
36.0673310356
 10
-30.9770729204
 20
36.0699567559
 10
-30.9808862929
 20
36.0726540891
 10
-30.9846473438
 20
36.0754245498
 10
-30.98835288
 20
36.0782696522
 10
-30.9919997088
 20
36.0811909109
 10
-30.9955846372
 20
36.0841898403
 10
-30.9986945602
 20
36.0869026112
 10
-31.0017494282
 20
36.0896781299
 10
-31.004744899
 20
36.0925174525
 10
-31.0076766307
 20
36.095421635
 10
-31.0105402813
 20
36.0983917336
 10
-31.0133315087
 20
36.1014288042
 10
-31.016045971
 20
36.1045339031
 10
-31.0186793262
 20
36.1077080862
 10
-31.0212272323
 20
36.1109524096
 10
-31.0236853472
 20
36.1142679293
 10
-31.0255895101
 20
36.1169801442
 10
-31.027429217
 20
36.1197381357
 10
-31.0292006128
 20
36.1225411658
 10
-31.0308998426
 20
36.1253884967
 10
-31.0325230512
 20
36.1282793903
 10
-31.0340663836
 20
36.1312131087
 10
-31.0355259848
 20
36.1341889138
 10
-31.0368979996
 20
36.1372060677
 10
-31.0381785732
 20
36.1402638325
 10
-31.0393638503
 20
36.1433614701
 10
-31.040449976
 20
36.1464982425
 10
-31.0413587723
 20
36.1494183793
 10
-31.0421784056
 20
36.1523673113
 10
-31.0429069513
 20
36.1553413145
 10
-31.0435424846
 20
36.1583366652
 10
-31.0440830808
 20
36.1613496394
 10
-31.0445268151
 20
36.1643765132
 10
-31.044871763
 20
36.1674135628
 10
-31.0451159996
 20
36.1704570641
 10
-31.0452576002
 20
36.1735032935
 10
-31.0452946402
 20
36.1765485268
 10
-31.0452251948
 20
36.1795890403
  0
LWPOLYLINE
  5
2FD
100
AcDbEntity
  8
RACCORDO
100
AcDbPolyline
 62
7
  6
CONTINUOUS
 90
43
 70
0
 10
16.8767103837
 20
7.7554785728
 10
16.8700038439
 20
7.7594003987
 10
16.8633579398
 20
7.7634315292
 10
16.8567779864
 20
7.7675744719
 10
16.8502692985
 20
7.7718317346
 10
16.8438371913
 20
7.7762058249
 10
16.8374869796
 20
7.7806992507
 10
16.8312239784
 20
7.7853145196
 10
16.8250535026
 20
7.7900541393
 10
16.8189808672
 20
7.7949206176
 10
16.8130113872
 20
7.7999164621
 10
16.8078303301
 20
7.804437882
 10
16.8027410795
 20
7.8090638833
 10
16.797750849
 20
7.813796203
 10
16.7928668522
 20
7.8186365776
 10
16.7880963026
 20
7.8235867439
 10
16.7834464139
 20
7.8286484385
 10
16.7789243996
 20
7.8338233983
 10
16.7745374733
 20
7.83911336
 10
16.7702928485
 20
7.8445200602
 10
16.7661977389
 20
7.8500452357
 10
16.7630232941
 20
7.8545679904
 10
16.7599562702
 20
7.8591670016
 10
16.757003052
 20
7.8638410305
 10
16.7541700245
 20
7.8685888382
 10
16.7514635726
 20
7.873409186
 10
16.7488900812
 20
7.878300835
 10
16.7464559351
 20
7.8832625464
 10
16.7441675193
 20
7.8882930813
 10
16.7420312186
 20
7.8933912011
 10
16.740053418
 20
7.8985556668
 10
16.7382405024
 20
7.9037852396
 10
16.7367221615
 20
7.9086563385
 10
16.7353522266
 20
7.9135754141
 10
16.7341338848
 20
7.9185362893
 10
16.7330703232
 20
7.9235327872
 10
16.7321647287
 20
7.9285587308
 10
16.7314202886
 20
7.9336079431
 10
16.7308401897
 20
7.9386742471
 10
16.7304276192
 20
7.9437514657
 10
16.7301857642
 20
7.9488334221
 10
16.7301178117
 20
7.9539139391
 10
16.7302269487
 20
7.9589868398
  0
LINE
  5
2FE
100
AcDbEntity
  8
RACCORDO
100
AcDbLine
 62
7
  6
CONTINUOUS
 10
16.105675349
 20
9.121773547
 11
16.1122698507
 21
9.1179155699
  0
LINE
  5
2FF
100
AcDbEntity
  8
0
100
AcDbLine
 62
7
  6
CONTINUOUS
 10
-11.9328209606
 20
23.3643396716
 11
-11.9371008498
 21
23.3668561765
  0
LWPOLYLINE
  5
300
100
AcDbEntity
  8
RACCORDO
100
AcDbPolyline
 62
7
  6
CONTINUOUS
 90
31
 70
0
 10
16.0026006865
 20
9.3727368033
 10
16.0277862379
 20
9.357777904
 10
16.0526135382
 20
9.3422085751
 10
16.0770806806
 20
9.3260563073
 10
16.1011857584
 20
9.3093485915
 10
16.1249268647
 20
9.2921129184
 10
16.1483020928
 20
9.2743767789
 10
16.1713095358
 20
9.2561676637
 10
16.193947287
 20
9.2375130636
 10
16.2179993996
 20
9.2168772167
 10
16.2416227236
 20
9.1957688197
 10
16.2648226123
 20
9.1742036691
 10
16.2876044194
 20
9.1521975611
 10
16.3099734984
 20
9.1297662922
 10
16.3319352027
 20
9.1069256588
 10
16.353494886
 20
9.0836914572
 10
16.3746579017
 20
9.0600794838
 10
16.3998540228
 20
9.0308906465
 10
16.4244687242
 20
9.0011866357
 10
16.4484987756
 20
8.9709871173
 10
16.4719409465
 20
8.9403117573
 10
16.4947920064
 20
8.9091802217
 10
16.5170487247
 20
8.8776121765
 10
16.538707871
 20
8.8456272877
 10
16.5597662149
 20
8.8132452214
 10
16.5802205257
 20
8.7804856435
 10
16.6000675731
 20
8.74736822
 10
16.6193041266
 20
8.713912617
 10
16.6379269556
 20
8.6801385003
 10
16.6559328297
 20
8.6460655362
 10
16.6733185184
 20
8.6117133904
  0
LINE
  5
301
100
AcDbEntity
  8
RACCORDO
100
AcDbLine
 62
7
  6
CONTINUOUS
 10
16.1122698507
 20
9.1179155699
 11
16.1388791798
 21
9.1013504332
  0
LINE
  5
302
100
AcDbEntity
  8
RACCORDO
100
AcDbLine
 62
7
  6
CONTINUOUS
 10
16.1388791798
 20
9.1013504332
 11
16.1667574527
 21
9.082318743
  0
LINE
  5
303
100
AcDbEntity
  8
RACCORDO
100
AcDbLine
 62
7
  6
CONTINUOUS
 10
16.6740437458
 20
8.3343813042
 11
16.6884680335
 21
8.2844497401
  0
LINE
  5
304
100
AcDbEntity
  8
RACCORDO
100
AcDbLine
 62
7
  6
CONTINUOUS
 10
16.6884680335
 20
8.2844497401
 11
16.7007108804
 21
8.2355026426
  0
LINE
  5
305
100
AcDbEntity
  8
RACCORDO
100
AcDbLine
 62
7
  6
CONTINUOUS
 10
16.7007108804
 20
8.2355026426
 11
16.7107866319
 21
8.1878049488
  0
LINE
  5
306
100
AcDbEntity
  8
RACCORDO
100
AcDbLine
 62
7
  6
CONTINUOUS
 10
16.7107866319
 20
8.1878049488
 11
16.7187217314
 21
8.1416796464
  0
LINE
  5
307
100
AcDbEntity
  8
RACCORDO
100
AcDbLine
 62
7
  6
CONTINUOUS
 10
16.7245857437
 20
8.0973432519
 11
16.7284640987
 21
8.0550271585
  0
LINE
  5
308
100
AcDbEntity
  8
RACCORDO
100
AcDbLine
 62
7
  6
CONTINUOUS
 10
16.7284640987
 20
8.0550271585
 11
16.7304622737
 21
8.0150692937
  0
LINE
  5
309
100
AcDbEntity
  8
RACCORDO
100
AcDbLine
 62
7
  6
CONTINUOUS
 10
16.623058415
 20
-24.8983091482
 11
16.7302653211
 21
-27.7542734444
  0
LWPOLYLINE
  5
30A
100
AcDbEntity
  8
RACCORDO
100
AcDbPolyline
 62
7
  6
CONTINUOUS
 90
39
 70
0
 10
16.8767103741
 20
-27.9575364676
 10
16.8773149742
 20
-27.9756333185
 10
16.8776387766
 20
-27.9937442606
 10
16.8776714262
 20
-28.0118627745
 10
16.8774025681
 20
-28.029982341
 10
16.8768218473
 20
-28.0480964408
 10
16.8759189086
 20
-28.0661985548
 10
16.874683397
 20
-28.0842821636
 10
16.8731049575
 20
-28.1023407479
 10
16.8711732351
 20
-28.1203677886
 10
16.8691184525
 20
-28.1365966427
 10
16.8667571832
 20
-28.1527849267
 10
16.8640788608
 20
-28.1689230452
 10
16.8610729192
 20
-28.1850014029
 10
16.8577287922
 20
-28.2010104045
 10
16.8540359136
 20
-28.2169404547
 10
16.849983717
 20
-28.2327819581
 10
16.8455616364
 20
-28.2485253193
 10
16.8407591054
 20
-28.2641609431
 10
16.8365739985
 20
-28.2767650396
 10
16.8321251068
 20
-28.2892814077
 10
16.8274062439
 20
-28.301699617
 10
16.8224112233
 20
-28.3140092369
 10
16.8171338584
 20
-28.3261998371
 10
16.8115679628
 20
-28.338260987
 10
16.80570735
 20
-28.3501822561
 10
16.7995458335
 20
-28.3619532138
 10
16.7930772268
 20
-28.3735634297
 10
16.7862953433
 20
-28.3850024734
 10
16.7797725029
 20
-28.3953695503
 10
16.7729812525
 20
-28.4055696976
 10
16.7659237929
 20
-28.4155898177
 10
16.7586023251
 20
-28.425416813
 10
16.75101905
 20
-28.4350375861
 10
16.7431761684
 20
-28.4444390392
 10
16.7350758812
 20
-28.453608075
 10
16.7267203893
 20
-28.4625315958
 10
16.7181118936
 20
-28.4711965042
 10
16.709252595
 20
-28.4795897025
  0
LWPOLYLINE
  5
30B
100
AcDbEntity
  8
RACCORDO
100
AcDbPolyline
 62
7
  6
CONTINUOUS
 90
43
 70
0
 10
16.0026006865
 20
-28.4584837336
 10
16.0021277676
 20
-28.4430109383
 10
16.0021662505
 20
-28.4275235959
 10
16.0026965063
 20
-28.4120330482
 10
16.0036989061
 20
-28.3965506371
 10
16.0051538211
 20
-28.3810877042
 10
16.0070416224
 20
-28.3656555916
 10
16.009342681
 20
-28.3502656411
 10
16.0120373681
 20
-28.3349291944
 10
16.0151060549
 20
-28.3196575935
 10
16.0185291123
 20
-28.3044621801
 10
16.0222869116
 20
-28.2893542962
 10
16.0273658237
 20
-28.2708273248
 10
16.0329138871
 20
-28.2524557469
 10
16.0389194469
 20
-28.234244096
 10
16.0453708482
 20
-28.2161969058
 10
16.0522564363
 20
-28.1983187099
 10
16.059564556
 20
-28.1806140417
 10
16.0672835526
 20
-28.163087435
 10
16.0754017712
 20
-28.1457434232
 10
16.0839075568
 20
-28.12858654
 10
16.0927892546
 20
-28.111621319
 10
16.1021687203
 20
-28.0946205669
 10
16.1119222005
 20
-28.0778316823
 10
16.1220492139
 20
-28.0612648223
 10
16.132549279
 20
-28.0449301438
 10
16.1434219145
 20
-28.0288378039
 10
16.1546666388
 20
-28.0129979596
 10
16.1662829707
 20
-27.9974207679
 10
16.1782704287
 20
-27.9821163859
 10
16.1906285314
 20
-27.9670949706
 10
16.2033567973
 20
-27.952366679
 10
16.2142269278
 20
-27.9403474681
 10
16.2253535559
 20
-27.928557059
 10
16.236737356
 20
-27.9170143805
 10
16.2483790024
 20
-27.9057383612
 10
16.2602791695
 20
-27.8947479298
 10
16.2724385315
 20
-27.884062015
 10
16.2848577628
 20
-27.8736995456
 10
16.2975375377
 20
-27.8636794501
 10
16.3104785305
 20
-27.8540206574
 10
16.3236814156
 20
-27.844742096
 10
16.3371468673
 20
-27.8358626948
  0
LINE
  5
30C
100
AcDbEntity
  8
RACCORDO
100
AcDbLine
 62
7
  6
CONTINUOUS
 10
16.5333631707
 20
-21.9698302908
 11
16.623058415
 21
-24.8983091482
  0
LINE
  5
30D
100
AcDbEntity
  8
RACCORDO
100
AcDbLine
 62
7
  6
CONTINUOUS
 10
16.4635985514
 20
-19.0278208286
 11
16.5333631707
 21
-21.9698302908
  0
LINE
  5
30E
100
AcDbEntity
  8
RACCORDO
100
AcDbLine
 62
7
  6
CONTINUOUS
 10
16.7302648342
 20
-27.7542799481
 11
16.7308160298
 21
-27.7783129785
  0
LINE
  5
30F
100
AcDbEntity
  8
RACCORDO
100
AcDbLine
 62
7
  6
CONTINUOUS
 10
16.4137701191
 20
-16.0724973074
 11
16.4635985514
 21
-19.0278208286
  0
LINE
  5
310
100
AcDbEntity
  8
0
100
AcDbLine
 62
7
  6
CONTINUOUS
 10
-11.7927107224
 20
21.0978068797
 11
-11.7850453499
 21
21.1326777826
  0
LINE
  5
311
100
AcDbEntity
  8
RACCORDO
100
AcDbLine
 62
7
  6
CONTINUOUS
 10
-29.3154046622
 20
54.8848819459
 11
-29.3381886395
 21
54.8378821867
  0
LINE
  5
312
100
AcDbEntity
  8
RACCORDO
100
AcDbLine
 62
7
  6
CONTINUOUS
 10
33.8266277225
 20
-54.1017244285
 11
33.8659314642
 21
-54.0939070203
  0
LINE
  5
313
100
AcDbEntity
  8
0
100
AcDbLine
 62
7
  6
CONTINUOUS
 10
-2.8564648738
 20
-12.8566548966
 11
-2.8928461048
 21
-12.8514533637
  0
LINE
  5
314
100
AcDbEntity
  8
RACCORDO
100
AcDbLine
 62
7
  6
CONTINUOUS
 10
-14.9938436603
 20
27.0726561472
 11
-14.9685526717
 21
27.0614917757
  0
LINE
  5
315
100
AcDbEntity
  8
0
100
AcDbLine
 62
7
  6
CONTINUOUS
 10
-12.4488156169
 20
23.6621536691
 11
-12.4734541258
 21
23.6740263988
  0
LINE
  5
316
100
AcDbEntity
  8
RACCORDO
100
AcDbLine
 62
7
  6
CONTINUOUS
 10
-14.9685526717
 20
27.0614917757
 11
-14.9416146651
 21
27.0478040052
  0
LWPOLYLINE
  5
317
100
AcDbEntity
  8
RACCORDO
100
AcDbPolyline
 62
7
  6
CONTINUOUS
 90
39
 70
0
 10
33.3122668619
 20
-53.9003706949
 10
33.31284861
 20
-53.9035359875
 10
33.3134791209
 20
-53.9066968317
 10
33.3141598662
 20
-53.9098512259
 10
33.3148923178
 20
-53.9129971688
 10
33.3156779474
 20
-53.916132659
 10
33.3165182267
 20
-53.9192556951
 10
33.3174146276
 20
-53.9223642757
 10
33.3183686217
 20
-53.9254563993
 10
33.3193816808
 20
-53.9285300646
 10
33.3204552767
 20
-53.9315832702
 10
33.3215908811
 20
-53.9346140146
 10
33.3227899659
 20
-53.9376202965
 10
33.3240540026
 20
-53.9406001145
 10
33.3253844632
 20
-53.9435514671
 10
33.3267828193
 20
-53.9464723529
 10
33.3282505427
 20
-53.9493607706
 10
33.3297891052
 20
-53.9522147188
 10
33.3313999786
 20
-53.955032196
 10
33.3330846345
 20
-53.9578112008
 10
33.3346103721
 20
-53.9601947418
 10
33.3361921411
 20
-53.9625453577
 10
33.3378290693
 20
-53.9648607274
 10
33.3395202843
 20
-53.9671385301
 10
33.3412649139
 20
-53.9693764447
 10
33.3430620859
 20
-53.9715721504
 10
33.344910928
 20
-53.9737233263
 10
33.3468105679
 20
-53.9758276513
 10
33.3487601334
 20
-53.9778828047
 10
33.3507587523
 20
-53.9798864653
 10
33.3528055523
 20
-53.9818363124
 10
33.3548996611
 20
-53.9837300249
 10
33.3570402065
 20
-53.985565282
 10
33.3592263162
 20
-53.9873397627
 10
33.361457118
 20
-53.9890511461
 10
33.3637317396
 20
-53.9906971112
 10
33.3660493088
 20
-53.9922753371
 10
33.3684089533
 20
-53.9937835029
 10
33.3708098009
 20
-53.9952192876
  0
LWPOLYLINE
  5
318
100
AcDbEntity
  8
RACCORDO
100
AcDbPolyline
 62
7
  6
CONTINUOUS
 90
15
 70
0
 10
33.7105978706
 20
-53.6583824191
 10
33.5369007454
 20
-52.6660267605
 10
33.3718145858
 20
-51.6721873295
 10
33.2152400536
 20
-50.676924203
 10
33.0670778107
 20
-49.6802974578
 10
32.8949492241
 20
-48.4430880216
 10
32.7354344994
 20
-47.204051896
 10
32.5883737823
 20
-45.9633654197
 10
32.4536072183
 20
-44.7212049315
 10
32.330974953
 20
-43.4777467702
 10
32.2203171318
 20
-42.2331672746
 10
32.1214739004
 20
-40.9876427833
 10
32.0342854043
 20
-39.7413496351
 10
31.9585917891
 20
-38.4944641689
 10
31.8942332003
 20
-37.2471627234
  0
LWPOLYLINE
  5
319
100
AcDbEntity
  8
RACCORDO
100
AcDbPolyline
 62
7
  6
CONTINUOUS
 90
15
 70
0
 10
34.1201070906
 20
-53.6231304984
 10
33.946706518
 20
-52.6325476725
 10
33.7819019338
 20
-51.6404835377
 10
33.6255942462
 20
-50.6469980563
 10
33.4776843635
 20
-49.6521511908
 10
33.3058496328
 20
-48.4171569512
 10
33.1466070607
 20
-47.1803390089
 10
32.9997970898
 20
-45.9418734125
 10
32.8652601629
 20
-44.7019362103
 10
32.7428367225
 20
-43.4607034508
 10
32.6323672113
 20
-42.2183511825
 10
32.5336920718
 20
-40.9750554537
 10
32.4466517469
 20
-39.730992313
 10
32.371086679
 20
-38.4863378087
 10
32.3068373108
 20
-37.2412679893
  0
LINE
  5
31A
100
AcDbEntity
  8
RACCORDO
100
AcDbLine
 62
7
  6
CONTINUOUS
 10
16.7187217314
 20
8.1416796464
 11
16.7245857437
 21
8.0973432519
  0
LINE
  5
31B
100
AcDbEntity
  8
RACCORDO
100
AcDbLine
 62
7
  6
CONTINUOUS
 10
16.3838795838
 20
-13.104053221
 11
16.4137701191
 21
-16.0724973074
  0
LINE
  5
31C
100
AcDbEntity
  8
RACCORDO
100
AcDbLine
 62
7
  6
CONTINUOUS
 10
16.7304622737
 20
8.0150692937
 11
16.7307276631
 21
7.9776935397
  0
LINE
  5
31D
100
AcDbEntity
  8
RACCORDO
100
AcDbLine
 62
7
  6
CONTINUOUS
 10
16.3739278282
 20
-10.1226724502
 11
16.3838795838
 21
-13.104053221
  0
LINE
  5
31E
100
AcDbEntity
  8
RACCORDO
100
AcDbLine
 62
7
  6
CONTINUOUS
 10
16.3839153647
 20
-7.128547051
 11
16.3739278282
 21
-10.1226724502
  0
LINE
  5
31F
100
AcDbEntity
  8
RACCORDO
100
AcDbLine
 62
7
  6
CONTINUOUS
 10
16.4138405922
 20
-4.1218703387
 11
16.3839153647
 21
-7.128547051
  0
LINE
  5
320
100
AcDbEntity
  8
RACCORDO
100
AcDbLine
 62
7
  6
CONTINUOUS
 10
16.4637015584
 20
-1.1028279174
 11
16.4138405922
 21
-4.1218703387
  0
LINE
  5
321
100
AcDbEntity
  8
RACCORDO
100
AcDbLine
 62
7
  6
CONTINUOUS
 10
16.7308160298
 20
-27.7783129785
 11
16.7304047892
 21
-27.8027504001
  0
LINE
  5
322
100
AcDbEntity
  8
RACCORDO
100
AcDbLine
 62
7
  6
CONTINUOUS
 10
16.5334954543
 20
1.9283836532
 11
16.4637015584
 21
-1.1028279174
  0
LINE
  5
323
100
AcDbEntity
  8
RACCORDO
100
AcDbLine
 62
7
  6
CONTINUOUS
 10
16.7307276631
 20
7.9776935397
 11
16.7302260752
 21
7.9590425117
  0
LINE
  5
324
100
AcDbEntity
  8
RACCORDO
100
AcDbLine
 62
7
  6
CONTINUOUS
 10
16.6232156169
 20
4.9715397811
 11
16.5334954543
 21
1.9283836532
  0
LINE
  5
325
100
AcDbEntity
  8
RACCORDO
100
AcDbLine
 62
7
  6
CONTINUOUS
 10
16.7302245304
 20
7.9589869342
 11
16.6232156169
 21
4.9715397811
  0
LWPOLYLINE
  5
326
100
AcDbEntity
  8
RACCORDO
100
AcDbPolyline
 62
7
  6
CONTINUOUS
 90
43
 70
0
 10
16.0026006865
 20
9.3727368033
 10
16.0022937476
 20
9.3644182744
 10
16.0021257763
 20
9.3560913859
 10
16.0021019587
 20
9.3477597437
 10
16.0022274809
 20
9.3394269537
 10
16.0025075292
 20
9.3310966218
 10
16.0029472896
 20
9.3227723536
 10
16.0035519482
 20
9.3144577552
 10
16.0043266913
 20
9.3061564323
 10
16.0052767049
 20
9.2978719908
 10
16.0064071752
 20
9.2896080366
 10
16.0075689901
 20
9.2822770727
 10
16.0088830293
 20
9.2749708155
 10
16.0103546012
 20
9.2676949044
 10
16.0119890145
 20
9.2604549792
 10
16.0137915776
 20
9.2532566793
 10
16.015767599
 20
9.2461056444
 10
16.0179223874
 20
9.2390075141
 10
16.0202612511
 20
9.231967928
 10
16.0227894987
 20
9.2249925257
 10
16.0255124387
 20
9.2180869467
 10
16.0278637266
 20
9.2125503344
 10
16.0303484019
 20
9.2070696622
 10
16.0329686918
 20
9.2016513818
 10
16.0357268237
 20
9.1963019449
 10
16.038625025
 20
9.1910278033
 10
16.041665523
 20
9.1858354086
 10
16.044850545
 20
9.1807312126
 10
16.0481823184
 20
9.175721667
 10
16.0516630706
 20
9.1708132236
 10
16.0552950289
 20
9.1660123339
 10
16.0590804207
 20
9.1613254499
 10
16.0627241909
 20
9.1570920654
 10
16.0664975462
 20
9.1529681668
 10
16.0703965465
 20
9.1489599123
 10
16.0744172518
 20
9.1450734602
 10
16.0785557222
 20
9.1413149687
 10
16.0828080176
 20
9.1376905961
 10
16.087170198
 20
9.1342065007
 10
16.0916383236
 20
9.1308688408
 10
16.0962084542
 20
9.1276837744
 10
16.1008766499
 20
9.1246574601
 10
16.1056389707
 20
9.1217960559
  0
LINE
  5
327
100
AcDbEntity
  8
RACCORDO
100
AcDbLine
 62
7
  6
CONTINUOUS
 10
16.7304047892
 20
-27.8027504001
 11
16.7290921072
 21
-27.824368632
  0
LINE
  5
328
100
AcDbEntity
  8
0
100
AcDbLine
 62
7
  6
CONTINUOUS
 10
-0.8983380371
 20
-14.7695254352
 11
-0.8945169591
 21
-14.7416291457
  0
LINE
  5
329
100
AcDbEntity
  8
0
100
AcDbLine
 62
7
  6
CONTINUOUS
 10
-11.8024939927
 20
21.0629787154
 11
-11.7927107224
 21
21.0978068797
  0
LINE
  5
32A
100
AcDbEntity
  8
0
100
AcDbLine
 62
7
  6
CONTINUOUS
 10
-11.814279634
 20
21.0284514775
 11
-11.8024939927
 21
21.0629787154
  0
LINE
  5
32B
100
AcDbEntity
  8
RACCORDO
100
AcDbLine
 62
7
  6
CONTINUOUS
 10
-29.2901345451
 20
54.9294083636
 11
-29.3154046622
 21
54.8848819459
  0
LINE
  5
32C
100
AcDbEntity
  8
0
100
AcDbLine
 62
7
  6
CONTINUOUS
 10
-2.9297261483
 20
-12.848139201
 11
-2.9667678666
 21
-12.8467260968
  0
LINE
  5
32D
100
AcDbEntity
  8
0
100
AcDbLine
 62
7
  6
CONTINUOUS
 10
-2.8928461048
 20
-12.8514533637
 11
-2.9297261483
 21
-12.848139201
  0
LINE
  5
32E
100
AcDbEntity
  8
RACCORDO
100
AcDbLine
 62
7
  6
CONTINUOUS
 10
-15.0171556542
 20
27.0813556884
 11
-14.9938436603
 21
27.0726561472
  0
LINE
  5
32F
100
AcDbEntity
  8
0
100
AcDbLine
 62
7
  6
CONTINUOUS
 10
-12.4734541258
 20
23.6740263988
 11
-12.4991373301
 21
23.683708316
  0
LWPOLYLINE
  5
330
100
AcDbEntity
  8
RACCORDO
100
AcDbPolyline
 62
7
  6
CONTINUOUS
 90
43
 70
0
 10
-28.543340049
 20
55.1233746605
 10
-28.5577482191
 20
55.1312417365
 10
-28.5723201242
 20
55.1388270108
 10
-28.5870515446
 20
55.1461168797
 10
-28.6019382609
 20
55.1530977398
 10
-28.6169760534
 20
55.1597559873
 10
-28.6321607027
 20
55.1660780187
 10
-28.6474879892
 20
55.1720502302
 10
-28.6629536933
 20
55.1776590184
 10
-28.6785535956
 20
55.1828907796
 10
-28.6942834765
 20
55.1877319101
 10
-28.7074035739
 20
55.1914350681
 10
-28.7206033253
 20
55.1948517358
 10
-28.733876152
 20
55.1979726058
 10
-28.7472154754
 20
55.2007883705
 10
-28.7606147166
 20
55.2032897225
 10
-28.7740672971
 20
55.2054673542
 10
-28.787566638
 20
55.2073119581
 10
-28.8011061608
 20
55.2088142267
 10
-28.8146792865
 20
55.2099648525
 10
-28.8282794367
 20
55.210754528
 10
-28.8419000324
 20
55.2111739457
 10
-28.8545713051
 20
55.2112241581
 10
-28.8672438775
 20
55.2109421842
 10
-28.87990707
 20
55.2103237325
 10
-28.892550203
 20
55.2093645112
 10
-28.9051625971
 20
55.2080602288
 10
-28.9177335728
 20
55.2064065936
 10
-28.9302524504
 20
55.2043993139
 10
-28.9427085504
 20
55.2020340981
 10
-28.9550911933
 20
55.1993066546
 10
-28.9673896996
 20
55.1962126917
 10
-28.9795933898
 20
55.1927479178
 10
-28.9925532648
 20
55.1886208623
 10
-29.0053769925
 20
55.1840715212
 10
-29.018049571
 20
55.1791083553
 10
-29.0305559981
 20
55.1737398255
 10
-29.042881272
 20
55.1679743926
 10
-29.0550103904
 20
55.1618205172
 10
-29.0669283514
 20
55.1552866603
 10
-29.0786201529
 20
55.1483812826
 10
-29.090070793
 20
55.1411128449
 10
-29.1012652696
 20
55.133489808
  0
LWPOLYLINE
  5
331
100
AcDbEntity
  8
RACCORDO
100
AcDbPolyline
 62
7
  6
CONTINUOUS
 90
61
 70
0
 10
-28.7408445554
 20
54.8092024662
 10
-28.7529285721
 20
54.8159679954
 10
-28.7652371135
 20
54.8224318674
 10
-28.7777552538
 20
54.828575115
 10
-28.7904680667
 20
54.8343787712
 10
-28.8033606264
 20
54.8398238688
 10
-28.8164180068
 20
54.8448914405
 10
-28.829625282
 20
54.8495625192
 10
-28.8429675258
 20
54.8538181378
 10
-28.8564298124
 20
54.857639329
 10
-28.8699972156
 20
54.8610071258
 10
-28.8836548095
 20
54.863902561
 10
-28.897387668
 20
54.8663066673
 10
-28.9111808652
 20
54.8682004777
 10
-28.9250194751
 20
54.8695650249
 10
-28.9388885715
 20
54.8703813419
 10
-28.950780334
 20
54.8706317124
 10
-28.9626682234
 20
54.8704625196
 10
-28.9745369497
 20
54.869870357
 10
-28.986371223
 20
54.8688518179
 10
-28.9981557531
 20
54.8674034956
 10
-29.0098752501
 20
54.8655219835
 10
-29.0215144239
 20
54.8632038748
 10
-29.0330579847
 20
54.860445763
 10
-29.04431087
 20
54.8573002479
 10
-29.0554413848
 20
54.8537336934
 10
-29.0664345844
 20
54.8497545676
 10
-29.0772755244
 20
54.8453713387
 10
-29.0879492602
 20
54.8405924747
 10
-29.0984408473
 20
54.8354264438
 10
-29.1087353409
 20
54.8298817142
 10
-29.1188177967
 20
54.823966754
 10
-29.128974195
 20
54.8174927215
 10
-29.1388842254
 20
54.8106507583
 10
-29.1485426654
 20
54.8034572692
 10
-29.1579442927
 20
54.7959286587
 10
-29.1670838847
 20
54.7880813316
 10
-29.175956219
 20
54.7799316924
 10
-29.1845560731
 20
54.7714961459
 10
-29.1928782245
 20
54.7627910966
 10
-29.2026299974
 20
54.7518520599
 10
-29.2119667532
 20
54.740561809
 10
-29.2208928296
 20
54.7289442744
 10
-29.2294125641
 20
54.7170233866
 10
-29.2375302942
 20
54.704823076
 10
-29.2452503575
 20
54.6923672733
 10
-29.2525770915
 20
54.6796799088
 10
-29.260049782
 20
54.665751008
 10
-29.2670791772
 20
54.6515978789
 10
-29.2736751842
 20
54.6372381976
 10
-29.2798477099
 20
54.6226896407
 10
-29.2856066613
 20
54.6079698844
 10
-29.2909619452
 20
54.5930966051
 10
-29.2959234687
 20
54.578087479
 10
-29.300838478
 20
54.561786904
 10
-29.3053186214
 20
54.5453635145
 10
-29.3093744279
 20
54.5288316119
 10
-29.313016426
 20
54.5122054975
 10
-29.3162551445
 20
54.4954994729
 10
-29.3191011123
 20
54.4787278392
 10
-29.3215648579
 20
54.4619048981
  0
LWPOLYLINE
  5
332
100
AcDbEntity
  8
RACCORDO
100
AcDbPolyline
 62
7
  6
CONTINUOUS
 90
39
 70
0
 10
33.7105979138
 20
18.0679241331
 10
33.7194477961
 20
18.0628656855
 10
33.7284319635
 20
18.0580429763
 10
33.7375409082
 20
18.0534489773
 10
33.7467651224
 20
18.0490766602
 10
33.7560950985
 20
18.0449189969
 10
33.7655213287
 20
18.0409689592
 10
33.7750343053
 20
18.0372195188
 10
33.7846245206
 20
18.0336636476
 10
33.7942824667
 20
18.0302943174
 10
33.803998636
 20
18.0271044999
 10
33.8159732057
 20
18.0234316927
 10
33.8280161462
 20
18.0200156147
 10
33.8401226672
 20
18.0168539565
 10
33.8522879784
 20
18.0139444089
 10
33.8645072895
 20
18.0112846624
 10
33.87677581
 20
18.0088724078
 10
33.8890887497
 20
18.0067053355
 10
33.9014413182
 20
18.0047811364
 10
33.9138287252
 20
18.003097501
 10
33.9260539226
 20
18.0016740506
 10
33.9383044407
 20
18.0004875196
 10
33.9505764753
 20
17.9995438907
 10
33.962866222
 20
17.9988491465
 10
33.9751698762
 20
17.9984092698
 10
33.9874836337
 20
17.9982302433
 10
33.99980369
 20
17.9983180496
 10
34.0121262407
 20
17.9986786715
 10
34.0244474815
 20
17.9993180916
 10
34.0341763113
 20
18.0000257091
 10
34.0438929205
 20
18.0009226612
 10
34.05358828
 20
18.0020205629
 10
34.063253361
 20
18.0033310293
 10
34.0728791344
 20
18.0048656753
 10
34.0824565712
 20
18.0066361159
 10
34.0919766425
 20
18.008653966
 10
34.1014303193
 20
18.0109308407
 10
34.1108085726
 20
18.0134783548
 10
34.1201023735
 20
18.0163081234
  0
LWPOLYLINE
  5
333
100
AcDbEntity
  8
RACCORDO
100
AcDbPolyline
 62
7
  6
CONTINUOUS
 90
46
 70
0
 10
-29.3215648099
 20
54.4619049158
 10
-29.3257899037
 20
54.4643303864
 10
-29.3299818401
 20
54.4668168483
 10
-29.3341373311
 20
54.4693664425
 10
-29.338253089
 20
54.4719813104
 10
-29.3423258261
 20
54.4746635932
 10
-29.3463522544
 20
54.4774154321
 10
-29.3503290864
 20
54.4802389683
 10
-29.354253034
 20
54.483136343
 10
-29.3581208096
 20
54.4861096974
 10
-29.3619291254
 20
54.4891611728
 10
-29.3648289689
 20
54.4915743013
 10
-29.3676875694
 20
54.4940370044
 10
-29.370501157
 20
54.4965509238
 10
-29.3732659621
 20
54.4991177013
 10
-29.3759782148
 20
54.5017389784
 10
-29.3786341453
 20
54.5044163969
 10
-29.3812299838
 20
54.5071515984
 10
-29.3837619605
 20
54.5099462247
 10
-29.3862263056
 20
54.5128019173
 10
-29.3886192493
 20
54.5157203179
 10
-29.3909370219
 20
54.5187030683
 10
-29.3926561319
 20
54.5210286332
 10
-29.3943245673
 20
54.5233928147
 10
-29.3959378287
 20
54.5257956287
 10
-29.3974914167
 20
54.5282370912
 10
-29.398980832
 20
54.5307172184
 10
-29.4004015751
 20
54.533236026
 10
-29.4017491466
 20
54.5357935302
 10
-29.4030190473
 20
54.5383897468
 10
-29.4042067776
 20
54.541024692
 10
-29.4053078382
 20
54.5436983816
 10
-29.4063177298
 20
54.5464108318
 10
-29.4072319528
 20
54.5491620584
 10
-29.4079479715
 20
54.5515933112
 10
-29.4085853021
 20
54.5540501629
 10
-29.409141496
 20
54.5565286867
 10
-29.4096141044
 20
54.5590249561
 10
-29.4100006788
 20
54.5615350443
 10
-29.4102987704
 20
54.5640550245
 10
-29.4105059306
 20
54.5665809702
 10
-29.4106197107
 20
54.5691089545
 10
-29.4106376621
 20
54.5716350509
 10
-29.4105573361
 20
54.5741553325
 10
-29.410376284
 20
54.5766658728
 10
-29.4100920572
 20
54.5791627449
  0
LINE
  5
334
100
AcDbEntity
  8
RACCORDO
100
AcDbLine
 62
7
  6
CONTINUOUS
 10
33.3122668619
 20
18.980513642
 11
-28.7408445554
 21
54.8092024662
  0
LINE
  5
335
100
AcDbEntity
  8
RACCORDO
100
AcDbLine
 62
7
  6
CONTINUOUS
 10
33.5097713683
 20
19.2946858363
 11
-28.543340049
 21
55.1233746605
  0
LINE
  5
336
100
AcDbEntity
  8
RACCORDO
100
AcDbLine
 62
7
  6
CONTINUOUS
 10
-26.9682609731
 20
56.233984739
 11
35.2590739018
 21
20.3047014739
  0
LINE
  5
337
100
AcDbEntity
  8
RACCORDO
100
AcDbLine
 62
7
  6
CONTINUOUS
 10
-24.3525801319
 20
55.7853352804
 11
36.5995396947
 21
20.592365633
  0
LWPOLYLINE
  5
338
100
AcDbEntity
  8
RACCORDO
100
AcDbPolyline
 62
7
  6
CONTINUOUS
 90
41
 70
0
 10
36.5995396947
 20
20.592365633
 10
36.6121770997
 20
20.5848211367
 10
36.6246032684
 20
20.5769072901
 10
36.6368125471
 20
20.5686338484
 10
36.6487992821
 20
20.5600105671
 10
36.6605578197
 20
20.5510472016
 10
36.6720825062
 20
20.5417535072
 10
36.6833676879
 20
20.5321392394
 10
36.6944077111
 20
20.5222141536
 10
36.705196922
 20
20.5119880051
 10
36.7157296671
 20
20.5014705493
 10
36.7260002925
 20
20.4906715417
 10
36.7360031447
 20
20.4796007376
 10
36.7457325698
 20
20.4682678924
 10
36.7551829142
 20
20.4566827615
 10
36.7643485242
 20
20.4448551002
 10
36.7732237461
 20
20.4327946641
 10
36.7818029262
 20
20.4205112085
 10
36.7900804107
 20
20.4080144887
 10
36.7980505461
 20
20.3953142602
 10
36.8057076785
 20
20.3824202783
 10
36.8130465744
 20
20.3693415397
 10
36.8200611502
 20
20.3560885591
 10
36.8267457793
 20
20.3426711138
 10
36.8330948351
 20
20.3290989811
 10
36.8391026909
 20
20.3153819383
 10
36.8447637201
 20
20.3015297627
 10
36.8500722962
 20
20.2875522316
 10
36.8550227926
 20
20.2734591223
 10
36.8596095826
 20
20.259260212
 10
36.8638270396
 20
20.244965278
 10
36.8676695371
 20
20.2305840977
 10
36.8711314483
 20
20.2161264482
 10
36.8742071468
 20
20.201602107
 10
36.8768910059
 20
20.1870208513
 10
36.879177399
 20
20.1723924584
 10
36.8810606995
 20
20.1577267055
 10
36.8825352807
 20
20.14303337
 10
36.8835955162
 20
20.1283222291
 10
36.8842357792
 20
20.1136030602
 10
36.8844504432
 20
20.0988856405
  0
LWPOLYLINE
  5
339
100
AcDbEntity
  8
RACCORDO
100
AcDbPolyline
 62
7
  6
CONTINUOUS
 90
13
 70
0
 10
31.8942332721
 20
-37.2471627649
 10
31.7659111048
 20
-34.2717907682
 10
31.660953209
 20
-31.2954563144
 10
31.5790791805
 20
-28.3182660049
 10
31.5188840965
 20
-25.269478557
 10
31.4823232457
 20
-22.2201366773
 10
31.4691292852
 20
-19.1704712688
 10
31.4790348726
 20
-16.1207132346
 10
31.5117726651
 20
-13.0710934779
 10
31.5670753201
 20
-10.0218429018
 10
31.6446754949
 20
-6.9731924094
 10
31.7443058469
 20
-3.9253729037
 10
31.8656990333
 20
-0.878615288
  0
LWPOLYLINE
  5
33A
100
AcDbEntity
  8
RACCORDO
100
AcDbPolyline
 62
7
  6
CONTINUOUS
 90
13
 70
0
 10
32.3068373108
 20
-37.2412679893
 10
32.1765630109
 20
-34.2158909432
 10
32.0704564177
 20
-31.1895207717
 10
31.9882226108
 20
-28.1622700179
 10
31.9284431133
 20
-25.0610007702
 10
31.8931150129
 20
-21.9591682589
 10
31.8819571177
 20
-18.8570148745
 10
31.8946882359
 20
-15.7547830071
 10
31.9310271754
 20
-12.6527150472
 10
31.9906927446
 20
-9.551053385
 10
32.0734037514
 20
-6.4500404108
 10
32.1788790041
 20
-3.3499185151
 10
32.3068373108
 20
-0.250930088
  0
LINE
  5
33B
100
AcDbEntity
  8
RACCORDO
100
AcDbLine
 62
7
  6
CONTINUOUS
 10
16.7290921072
 20
-27.824368632
 11
16.7270953987
 21
-27.8431060929
  0
LINE
  5
33C
100
AcDbEntity
  8
0
100
AcDbLine
 62
7
  6
CONTINUOUS
 10
-0.9047386076
 20
-14.7972589079
 11
-0.8983380371
 21
-14.7695254352
  0
LINE
  5
33D
100
AcDbEntity
  8
0
100
AcDbLine
 62
7
  6
CONTINUOUS
 10
-11.8280038966
 20
20.9943307477
 11
-11.814279634
 21
21.0284514775
  0
LINE
  5
33E
100
AcDbEntity
  8
RACCORDO
100
AcDbLine
 62
7
  6
CONTINUOUS
 10
-29.2624638329
 20
54.9713978017
 11
-29.2901345451
 21
54.9294083636
  0
LINE
  5
33F
100
AcDbEntity
  8
0
100
AcDbLine
 62
7
  6
CONTINUOUS
 10
-2.9667678666
 20
-12.8467260968
 11
-3.0038394489
 21
-12.8472148045
  0
LINE
  5
340
100
AcDbEntity
  8
0
100
AcDbLine
 62
7
  6
CONTINUOUS
 10
-12.4991373301
 20
23.683708316
 11
-12.5258738
 21
23.6911781319
  0
LINE
  5
341
100
AcDbEntity
  8
RACCORDO
100
AcDbLine
 62
7
  6
CONTINUOUS
 10
-15.0379592934
 20
27.0876543803
 11
-15.0171556542
 21
27.0813556884
  0
LINE
  5
342
100
AcDbEntity
  8
RACCORDO
100
AcDbLine
 62
7
  6
CONTINUOUS
 10
35.9652116177
 20
-52.769987172
 11
35.9652116177
 21
19.0816350741
  0
LINE
  5
343
100
AcDbEntity
  8
DRAFT
100
AcDbLine
 62
7
  6
CONTINUOUS
 10
36.1032672362
 20
-13.4130023147
 11
36.1032672362
 21
-19.1282942523
  0
LINE
  5
344
100
AcDbEntity
  8
DRAFT
100
AcDbLine
 62
7
  6
CONTINUOUS
 10
36.8844504432
 20
20.0988856405
 11
36.8844504333
 21
-11.9430178514
  0
LINE
  5
345
100
AcDbEntity
  8
DRAFT
100
AcDbLine
 62
7
  6
CONTINUOUS
 10
36.8844504333
 20
-18.2341727439
 11
36.8844504561
 21
-50.2760761039
  0
LWPOLYLINE
  5
346
100
AcDbEntity
  8
RACCORDO
100
AcDbPolyline
 62
7
  6
CONTINUOUS
 90
17
 70
0
 10
36.8844504561
 20
-50.2760761039
 10
36.8844348089
 20
-50.2800061076
 10
36.8843874472
 20
-50.2839358293
 10
36.8843077293
 20
-50.2878653367
 10
36.8841950133
 20
-50.2917946975
 10
36.8840550379
 20
-50.2955686202
 10
36.8838831658
 20
-50.299341916
 10
36.8836785343
 20
-50.3031140307
 10
36.8834402806
 20
-50.3068844101
 10
36.8831675419
 20
-50.3106525001
 10
36.8828594555
 20
-50.3144177467
 10
36.8825151585
 20
-50.3181795955
 10
36.8821337881
 20
-50.3219374926
 10
36.8817144816
 20
-50.3256908838
 10
36.8812563761
 20
-50.3294392148
 10
36.880758609
 20
-50.3331819316
 10
36.8802203173
 20
-50.3369184801
  0
LINE
  5
347
100
AcDbEntity
  8
RACCORDO
100
AcDbLine
 62
7
  6
CONTINUOUS
 10
31.8656990333
 20
-0.878615288
 11
31.8732292843
 21
-0.7058834531
  0
LINE
  5
348
100
AcDbEntity
  8
RACCORDO
100
AcDbLine
 62
7
  6
CONTINUOUS
 10
31.8732292843
 20
-0.7058834531
 11
31.8841548284
 21
-0.4580465752
  0
LINE
  5
349
100
AcDbEntity
  8
RACCORDO
100
AcDbLine
 62
7
  6
CONTINUOUS
 10
31.8841548284
 20
-0.4580465752
 11
31.8934563739
 21
-0.2495542062
  0
LWPOLYLINE
  5
34A
100
AcDbEntity
  8
RACCORDO
100
AcDbPolyline
 62
7
  6
CONTINUOUS
 90
13
 70
0
 10
31.8942331896
 20
-0.23224204
 10
31.968560175
 20
1.2678262322
 10
32.056690047
 20
2.7671793622
 10
32.1584193323
 20
4.2657598005
 10
32.2769038476
 20
5.8046933686
 10
32.4093370998
 20
7.3426113666
 10
32.5555246052
 20
8.8793747792
 10
32.7152718802
 20
10.4148445915
 10
32.888384441
 20
11.9488817882
 10
33.0746678042
 20
13.4813473542
 10
33.2739274859
 20
15.0121022745
 10
33.4859690026
 20
16.5410075338
 10
33.7105978706
 20
18.0679241172
  0
LWPOLYLINE
  5
34B
100
AcDbEntity
  8
RACCORDO
100
AcDbPolyline
 62
7
  6
CONTINUOUS
 90
13
 70
0
 10
32.3068373108
 20
-0.250930088
 10
32.3810379087
 20
1.2464422603
 10
32.4690178805
 20
2.7431006153
 10
32.570574119
 20
4.2389875183
 10
32.6888568308
 20
5.775151701
 10
32.8210644918
 20
7.3103019468
 10
32.9670029401
 20
8.8442994659
 10
33.1264780135
 20
10.3770054687
 10
33.2992955503
 20
11.9082811655
 10
33.4852613883
 20
13.4379877665
 10
33.6841813657
 20
14.9659864821
 10
33.8958613204
 20
16.4921385227
 10
34.1201070906
 20
18.0163050984
  0
LWPOLYLINE
  5
34C
100
AcDbEntity
  8
RACCORDO
100
AcDbPolyline
 62
7
  6
CONTINUOUS
 90
44
 70
0
 10
34.1201070906
 20
18.0163050984
 10
34.1227443322
 20
18.0489591725
 10
34.1244012224
 20
18.081696716
 10
34.1251050923
 20
18.1144931081
 10
34.1248832735
 20
18.1473237281
 10
34.1237630971
 20
18.1801639549
 10
34.1217718946
 20
18.2129891679
 10
34.1189369973
 20
18.2457747461
 10
34.1152857365
 20
18.2784960687
 10
34.1108454435
 20
18.3111285148
 10
34.1056434497
 20
18.3436474637
 10
34.0997070864
 20
18.3760282944
 10
34.0917295637
 20
18.4143021425
 10
34.0827684705
 20
18.4523291376
 10
34.0728388891
 20
18.490092287
 10
34.0619559019
 20
18.5275745977
 10
34.0501345912
 20
18.5647590769
 10
34.0373900396
 20
18.6016287317
 10
34.0237373292
 20
18.6381665691
 10
34.0091915427
 20
18.6743555962
 10
33.9937677623
 20
18.7101788203
 10
33.9774810704
 20
18.7456192482
 10
33.9605879367
 20
18.7801716192
 10
33.9428641653
 20
18.8143060204
 10
33.9243034524
 20
18.8479931921
 10
33.9048994942
 20
18.8812038744
 10
33.8846459871
 20
18.9139088076
 10
33.8635366274
 20
18.9460787318
 10
33.8415651112
 20
18.9776843873
 10
33.8187251349
 20
19.0086965144
 10
33.7950103947
 20
19.0390858531
 10
33.7704145869
 20
19.0688231437
 10
33.7514181452
 20
19.0906405742
 10
33.7319247271
 20
19.1120384952
 10
33.7119348531
 20
19.1329793664
 10
33.6914490439
 20
19.1534256478
 10
33.6704678199
 20
19.173339799
 10
33.6489917018
 20
19.1926842798
 10
33.6270212102
 20
19.2114215501
 10
33.6045568655
 20
19.2295140697
 10
33.5815991884
 20
19.2469242983
 10
33.5581486995
 20
19.2636146957
 10
33.5342059192
 20
19.2795477218
 10
33.5097713683
 20
19.2946858363
  0
LINE
  5
34D
100
AcDbEntity
  8
RACCORDO
100
AcDbLine
 62
7
  6
CONTINUOUS
 10
16.7270953987
 20
-27.8431060929
 11
16.7246262499
 21
-27.8590606132
  0
LINE
  5
34E
100
AcDbEntity
  8
0
100
AcDbLine
 62
7
  6
CONTINUOUS
 10
-0.913724484
 20
-14.8246303399
 11
-0.9047386076
 21
-14.7972589079
  0
LINE
  5
34F
100
AcDbEntity
  8
0
100
AcDbLine
 62
7
  6
CONTINUOUS
 10
-11.8436128722
 20
20.9607248746
 11
-11.8280038966
 21
20.9943307477
  0
LINE
  5
350
100
AcDbEntity
  8
0
100
AcDbLine
 62
7
  6
CONTINUOUS
 10
-11.8609493986
 20
20.9279334012
 11
-11.8436128722
 21
20.9607248746
  0
LINE
  5
351
100
AcDbEntity
  8
RACCORDO
100
AcDbLine
 62
7
  6
CONTINUOUS
 10
-29.2325011281
 20
55.0107394972
 11
-29.2624638329
 21
54.9713978017
  0
LINE
  5
352
100
AcDbEntity
  8
0
100
AcDbLine
 62
7
  6
CONTINUOUS
 10
-3.0038394489
 20
-12.8472148045
 11
-3.0408093122
 21
-12.8496082079
  0
LINE
  5
353
100
AcDbEntity
  8
0
100
AcDbLine
 62
7
  6
CONTINUOUS
 10
-12.5258738
 20
23.6911781319
 11
-12.5535112741
 21
23.6963444684
  0
LINE
  5
354
100
AcDbEntity
  8
RACCORDO
100
AcDbLine
 62
7
  6
CONTINUOUS
 10
-15.0559064469
 20
27.091778661
 11
-15.0379592934
 21
27.0876543803
  0
LINE
  5
355
100
AcDbEntity
  8
RACCORDO
100
AcDbLine
 62
7
  6
CONTINUOUS
 10
-24.5099684023
 20
55.8504998389
 11
-24.7070496377
 21
55.9186197971
  0
LINE
  5
356
100
AcDbEntity
  8
RACCORDO
100
AcDbLine
 62
7
  6
CONTINUOUS
 10
-24.4037581673
 20
55.8100174279
 11
-24.5099684023
 21
55.8504998389
  0
LWPOLYLINE
  5
357
100
AcDbEntity
  8
RACCORDO
100
AcDbPolyline
 62
7
  6
CONTINUOUS
 90
15
 70
0
 10
-24.4037581084
 20
55.8100168968
 10
-24.4003259106
 20
55.8086442854
 10
-24.396908512
 20
55.8072349542
 10
-24.3935057672
 20
55.8057900437
 10
-24.390117531
 20
55.8043106945
 10
-24.3862801064
 20
55.8025870778
 10
-24.3824612754
 20
55.8008215727
 10
-24.378661039
 20
55.7990153938
 10
-24.3748793985
 20
55.7971697553
 10
-24.3711163549
 20
55.7952858718
 10
-24.3673719094
 20
55.7933649574
 10
-24.3636460632
 20
55.7914082268
 10
-24.3599388175
 20
55.7894168941
 10
-24.3562501733
 20
55.7873921739
 10
-24.3525801319
 20
55.7853352804
  0
LWPOLYLINE
  5
358
100
AcDbEntity
  8
RACCORDO
100
AcDbPolyline
 62
7
  6
CONTINUOUS
 90
46
 70
0
 10
33.7105978706
 20
18.0679241172
 10
33.7134583638
 20
18.0887457872
 10
33.7157611576
 20
18.109645774
 10
33.7175197166
 20
18.1306064621
 10
33.7187475056
 20
18.1516102359
 10
33.7194579892
 20
18.1726394796
 10
33.7196646321
 20
18.1936765778
 10
33.719225717
 20
18.2202045174
 10
33.7180230855
 20
18.246702648
 10
33.7160735288
 20
18.273156697
 10
33.7133938378
 20
18.299552392
 10
33.7100008038
 20
18.3258754604
 10
33.7060383581
 20
18.3513525397
 10
33.7014291486
 20
18.3767291752
 10
33.6961832172
 20
18.4019868637
 10
33.6903106054
 20
18.427107102
 10
33.6838213549
 20
18.4520713868
 10
33.6767255075
 20
18.4768612148
 10
33.6690331049
 20
18.5014580828
 10
33.6607541887
 20
18.5258434875
 10
33.6518747618
 20
18.5500563049
 10
33.6424081278
 20
18.5740323495
 10
33.6323462039
 20
18.5977658733
 10
33.6216809073
 20
18.6212511284
 10
33.6104041554
 20
18.6444823666
 10
33.5985078655
 20
18.6674538401
 10
33.5859839547
 20
18.6901598007
 10
33.5728243404
 20
18.7125945005
 10
33.5617689829
 20
18.7304425852
 10
33.5502990507
 20
18.7480845692
 10
33.5384168341
 20
18.7654937211
 10
33.5261246234
 20
18.7826433091
 10
33.5134247089
 20
18.7995066017
 10
33.500319381
 20
18.8160568673
 10
33.4868109298
 20
18.8322673742
 10
33.4729016457
 20
18.8481113909
 10
33.4585938191
 20
18.8635621858
 10
33.4438897401
 20
18.8785930272
 10
33.4287916992
 20
18.8931771836
 10
33.4133019865
 20
18.9072879233
 10
33.3974228925
 20
18.9208985148
 10
33.3811567074
 20
18.9339822264
 10
33.3645057214
 20
18.9465123265
 10
33.347472225
 20
18.9584620836
 10
33.3300585084
 20
18.9698047659
 10
33.3122668619
 20
18.980513642
  0
LWPOLYLINE
  5
359
100
AcDbEntity
  8
RACCORDO
100
AcDbPolyline
 62
7
  6
CONTINUOUS
 90
38
 70
0
 10
33.3122668619
 20
18.980513642
 10
33.3139168811
 20
18.9907858981
 10
33.3158474131
 20
19.0010142813
 10
33.3180489785
 20
19.0111937904
 10
33.3205120977
 20
19.0213194242
 10
33.3232272916
 20
19.0313861817
 10
33.3261850806
 20
19.0413890617
 10
33.3293759853
 20
19.051323063
 10
33.3327905263
 20
19.0611831845
 10
33.3364192242
 20
19.070964425
 10
33.3404958331
 20
19.081255197
 10
33.3447992333
 20
19.0914482896
 10
33.349325616
 20
19.1015405295
 10
33.3540711722
 20
19.1115287433
 10
33.359032093
 20
19.1214097576
 10
33.3642045693
 20
19.131180399
 10
33.3695847924
 20
19.1408374941
 10
33.3751689531
 20
19.1503778695
 10
33.3809532427
 20
19.1597983518
 10
33.3868472471
 20
19.1689625168
 10
33.3929325808
 20
19.1780008958
 10
33.399209855
 20
19.1869072579
 10
33.405679681
 20
19.1956753722
 10
33.4123426698
 20
19.2042990076
 10
33.4191994327
 20
19.2127719333
 10
33.4262505809
 20
19.2210879182
 10
33.4334967257
 20
19.2292407314
 10
33.4409384781
 20
19.237224142
 10
33.4472173419
 20
19.2436691354
 10
33.4536297134
 20
19.2499850633
 10
33.460175896
 20
19.2561620898
 10
33.466856193
 20
19.2621903793
 10
33.4736709079
 20
19.2680600959
 10
33.480620344
 20
19.273761404
 10
33.4877048047
 20
19.2792844678
 10
33.4949245934
 20
19.2846194516
 10
33.5022800134
 20
19.2897565197
 10
33.5097713683
 20
19.2946858363
  0
LINE
  5
35A
100
AcDbEntity
  8
RACCORDO
100
AcDbLine
 62
7
  6
CONTINUOUS
 10
16.7246262499
 20
-27.8590606132
 11
16.721879291
 21
-27.8723834929
  0
LINE
  5
35B
100
AcDbEntity
  8
RACCORDO
100
AcDbLine
 62
7
  6
CONTINUOUS
 10
16.721879291
 20
-27.8723834929
 11
16.7190692719
 21
-27.8831176989
  0
LINE
  5
35C
100
AcDbEntity
  8
0
100
AcDbLine
 62
7
  6
CONTINUOUS
 10
-11.8799481539
 20
20.8960711018
 11
-11.8609493986
 21
20.9279334012
  0
LINE
  5
35D
100
AcDbEntity
  8
RACCORDO
100
AcDbLine
 62
7
  6
CONTINUOUS
 10
-29.2003718967
 20
55.0473254005
 11
-29.2325011281
 21
55.0107394972
  0
LINE
  5
35E
100
AcDbEntity
  8
0
100
AcDbLine
 62
7
  6
CONTINUOUS
 10
-3.0408093122
 20
-12.8496082079
 11
-3.0773381955
 21
-12.8538908413
  0
LINE
  5
35F
100
AcDbEntity
  8
0
100
AcDbLine
 62
7
  6
CONTINUOUS
 10
-12.5535112741
 20
23.6963444684
 11
-12.5818666281
 21
23.6991291493
  0
LINE
  5
360
100
AcDbEntity
  8
RACCORDO
100
AcDbLine
 62
7
  6
CONTINUOUS
 10
-15.0707832043
 20
27.0940610048
 11
-15.0559064469
 21
27.091778661
  0
LINE
  5
361
100
AcDbEntity
  8
RACCORDO
100
AcDbLine
 62
7
  6
CONTINUOUS
 10
-24.7070496377
 20
55.9186197971
 11
-24.9006669675
 21
55.9765574826
  0
LINE
  5
362
100
AcDbEntity
  8
RACCORDO
100
AcDbLine
 62
7
  6
CONTINUOUS
 10
36.8632099383
 20
-50.443112155
 11
36.8802207797
 21
-50.3369188208
  0
LWPOLYLINE
  5
363
100
AcDbEntity
  8
RACCORDO
100
AcDbPolyline
 62
7
  6
CONTINUOUS
 90
24
 70
0
 10
36.8672847248
 20
-50.3825796289
 10
36.8561232115
 20
-50.4448370284
 10
36.8441314824
 20
-50.5069579218
 10
36.8312945636
 20
-50.5689241089
 10
36.8175974815
 20
-50.6307173894
 10
36.8030252621
 20
-50.6923195631
 10
36.7875629318
 20
-50.75371243
 10
36.7711955166
 20
-50.8148777896
 10
36.7539080428
 20
-50.8757974418
 10
36.7356855367
 20
-50.9364531865
 10
36.7165130243
 20
-50.9968268234
 10
36.6963755319
 20
-51.0569001523
 10
36.6776690084
 20
-51.1099885115
 10
36.6581825005
 20
-51.1628038854
 10
36.6379090863
 20
-51.2153245521
 10
36.6168418441
 20
-51.2675287899
 10
36.594973852
 20
-51.3193948771
 10
36.5722981882
 20
-51.3709010918
 10
36.5488079309
 20
-51.4220257125
 10
36.5244961584
 20
-51.4727470172
 10
36.4993559487
 20
-51.5230432843
 10
36.4733803801
 20
-51.5728927921
 10
36.4465625307
 20
-51.6222738187
 10
36.4188954788
 20
-51.6711646425
  0
LINE
  5
364
100
AcDbEntity
  8
RACCORDO
100
AcDbLine
 62
7
  6
CONTINUOUS
 10
16.7190692719
 20
-27.8831176989
 11
16.7164494889
 21
-27.891238631
  0
LINE
  5
365
100
AcDbEntity
  8
0
100
AcDbLine
 62
7
  6
CONTINUOUS
 10
-0.9252678902
 20
-14.8514283278
 11
-0.913724484
 21
-14.8246303399
  0
LINE
  5
366
100
AcDbEntity
  8
0
100
AcDbLine
 62
7
  6
CONTINUOUS
 10
-11.9005455339
 20
20.8652534336
 11
-11.8799481539
 21
20.8960711018
  0
LINE
  5
367
100
AcDbEntity
  8
RACCORDO
100
AcDbLine
 62
7
  6
CONTINUOUS
 10
-29.1662056192
 20
55.0810705928
 11
-29.2003718967
 21
55.0473254005
  0
LINE
  5
368
100
AcDbEntity
  8
0
100
AcDbLine
 62
7
  6
CONTINUOUS
 10
-3.0773381955
 20
-12.8538908413
 11
-3.1133018822
 21
-12.8600634412
  0
LINE
  5
369
100
AcDbEntity
  8
0
100
AcDbLine
 62
7
  6
CONTINUOUS
 10
-12.5818666281
 20
23.6991291493
 11
-12.6109504426
 21
23.6994841467
  0
LINE
  5
36A
100
AcDbEntity
  8
RACCORDO
100
AcDbLine
 62
7
  6
CONTINUOUS
 10
-15.0822128779
 20
27.0948856175
 11
-15.0707832043
 21
27.0940610048
  0
LINE
  5
36B
100
AcDbEntity
  8
RACCORDO
100
AcDbLine
 62
7
  6
CONTINUOUS
 10
-25.0904418954
 20
56.0245232237
 11
-25.2760214827
 21
56.0627770058
  0
LINE
  5
36C
100
AcDbEntity
  8
RACCORDO
100
AcDbLine
 62
7
  6
CONTINUOUS
 10
-24.9006669675
 20
55.9765574826
 11
-25.0904418954
 21
56.0245232237
  0
LINE
  5
36D
100
AcDbEntity
  8
RACCORDO
100
AcDbLine
 62
7
  6
CONTINUOUS
 10
36.8239218621
 20
-50.6478792928
 11
36.8632099383
 21
-50.443112155
  0
LINE
  5
36E
100
AcDbEntity
  8
RACCORDO
100
AcDbLine
 62
7
  6
CONTINUOUS
 10
36.7775497526
 20
-50.8445821398
 11
36.8239218621
 21
-50.6478792928
  0
LINE
  5
36F
100
AcDbEntity
  8
RACCORDO
100
AcDbLine
 62
7
  6
CONTINUOUS
 10
16.7164494889
 20
-27.891238631
 11
16.7143249921
 21
-27.8966906449
  0
LINE
  5
370
100
AcDbEntity
  8
0
100
AcDbLine
 62
7
  6
CONTINUOUS
 10
-0.9394197577
 20
-14.8776465138
 11
-0.9252678902
 21
-14.8514283278
  0
LINE
  5
371
100
AcDbEntity
  8
0
100
AcDbLine
 62
7
  6
CONTINUOUS
 10
-11.9225582975
 20
20.8357668951
 11
-11.9005455339
 21
20.8652534336
  0
LINE
  5
372
100
AcDbEntity
  8
RACCORDO
100
AcDbLine
 62
7
  6
CONTINUOUS
 10
-29.1301562339
 20
55.1118725077
 11
-29.1662056192
 21
55.0810705928
  0
LINE
  5
373
100
AcDbEntity
  8
0
100
AcDbLine
 62
7
  6
CONTINUOUS
 10
-3.1133018822
 20
-12.8600634412
 11
-3.1485806002
 21
-12.8681258664
  0
LINE
  5
374
100
AcDbEntity
  8
RACCORDO
100
AcDbLine
 62
7
  6
CONTINUOUS
 10
-15.0898087004
 20
27.0947823405
 11
-15.0822128779
 21
27.0948856175
  0
LINE
  5
375
100
AcDbEntity
  8
RACCORDO
100
AcDbLine
 62
7
  6
CONTINUOUS
 10
-25.2760214827
 20
56.0627770058
 11
-25.4570900094
 21
56.091620081
  0
LINE
  5
376
100
AcDbEntity
  8
RACCORDO
100
AcDbLine
 62
7
  6
CONTINUOUS
 10
36.7244630008
 20
-51.0330017451
 11
36.7775497526
 21
-50.8445821398
  0
LINE
  5
377
100
AcDbEntity
  8
RACCORDO
100
AcDbLine
 62
7
  6
CONTINUOUS
 10
16.7143249921
 20
-27.8966906449
 11
16.7130242182
 21
-27.8995010618
  0
LWPOLYLINE
  5
378
100
AcDbEntity
  8
0
100
AcDbPolyline
 62
7
  6
CONTINUOUS
 90
29
 70
0
 10
4.5028299715
 20
-24.9268144166
 10
4.500927836
 20
-24.9304054514
 10
4.4989737408
 20
-24.9339715969
 10
4.4969668648
 20
-24.9375107506
 10
4.4949063865
 20
-24.94102081
 10
4.4927914846
 20
-24.9444996726
 10
4.4906213378
 20
-24.9479452358
 10
4.4883951248
 20
-24.9513553972
 10
4.4861120242
 20
-24.9547280543
 10
4.4837712148
 20
-24.9580611045
 10
4.4813718751
 20
-24.9613524454
 10
4.478913184
 20
-24.9645999744
 10
4.47639432
 20
-24.967801589
 10
4.4738144619
 20
-24.9709551867
 10
4.4711727882
 20
-24.974058665
 10
4.4686017715
 20
-24.9769628318
 10
4.4659752008
 20
-24.9798183358
 10
4.4632942147
 20
-24.9826237804
 10
4.4605599516
 20
-24.9853777686
 10
4.4577735498
 20
-24.9880789035
 10
4.4549361478
 20
-24.9907257884
 10
4.4520488839
 20
-24.9933170262
 10
4.4491128966
 20
-24.9958512202
 10
4.4461293242
 20
-24.9983269735
 10
4.4430993053
 20
-25.0007428892
 10
4.4400239781
 20
-25.0030975705
 10
4.4369044811
 20
-25.0053896205
 10
4.4337419526
 20
-25.0076176423
 10
4.4305375312
 20
-25.0097802391
  0
LINE
  5
379
100
AcDbEntity
  8
0
100
AcDbLine
 62
7
  6
CONTINUOUS
 10
-11.9459248481
 20
20.8077194313
 11
-11.9225582975
 21
20.8357668951
  0
LINE
  5
37A
100
AcDbEntity
  8
RACCORDO
100
AcDbLine
 62
7
  6
CONTINUOUS
 10
-29.1014506096
 20
55.1333590276
 11
-29.1301562339
 21
55.1118725077
  0
LINE
  5
37B
100
AcDbEntity
  8
RACCORDO
100
AcDbLine
 62
7
  6
CONTINUOUS
 10
-29.1014228458
 20
55.1333799301
 11
-27.493312789
 21
56.2672806489
  0
LINE
  5
37C
100
AcDbEntity
  8
RACCORDO
100
AcDbLine
 62
7
  6
CONTINUOUS
 10
-28.543340049
 20
55.1233746605
 11
-26.9682609731
 21
56.233984739
  0
LINE
  5
37D
100
AcDbEntity
  8
RACCORDO
100
AcDbLine
 62
7
  6
CONTINUOUS
 10
-15.0939484785
 20
27.0943688711
 11
-15.0898087004
 21
27.0947823405
  0
LINE
  5
37E
100
AcDbEntity
  8
0
100
AcDbLine
 62
7
  6
CONTINUOUS
 10
-12.6109504426
 20
23.6994841467
 11
-12.6406332525
 21
23.697341339
  0
LINE
  5
37F
100
AcDbEntity
  8
RACCORDO
100
AcDbLine
 62
7
  6
CONTINUOUS
 10
-25.4570900094
 20
56.091620081
 11
-25.6333215652
 21
56.111391952
  0
LINE
  5
380
100
AcDbEntity
  8
RACCORDO
100
AcDbLine
 62
7
  6
CONTINUOUS
 10
36.6650630106
 20
-51.2129524938
 11
36.7244630008
 21
-51.0330017451
  0
LINE
  5
381
100
AcDbEntity
  8
0
100
AcDbLine
 62
7
  6
CONTINUOUS
 10
-0.9561823801
 20
-14.9031249329
 11
-0.9394197577
 21
-14.8776465138
  0
LINE
  5
382
100
AcDbEntity
  8
0
100
AcDbLine
 62
7
  6
CONTINUOUS
 10
-11.9705850926
 20
20.7812147724
 11
-11.9459248481
 21
20.8077194313
  0
LINE
  5
383
100
AcDbEntity
  8
0
100
AcDbLine
 62
7
  6
CONTINUOUS
 10
-12.6406332525
 20
23.697341339
 11
-12.6707498957
 21
23.6926432552
  0
LWPOLYLINE
  5
384
100
AcDbEntity
  8
RACCORDO
100
AcDbPolyline
 62
7
  6
CONTINUOUS
 90
24
 70
0
 10
-25.7898361408
 20
56.077552011
 10
-25.7334988023
 20
56.0770660555
 10
-25.677161519
 20
56.0755938986
 10
-25.6208397663
 20
56.0731525348
 10
-25.5645490196
 20
56.0697589583
 10
-25.5083047544
 20
56.0654301635
 10
-25.452122446
 20
56.0601831446
 10
-25.3960175698
 20
56.054034896
 10
-25.3400056013
 20
56.047002412
 10
-25.2841020159
 20
56.039102687
 10
-25.2283222888
 20
56.0303527152
 10
-25.1726818957
 20
56.0207694909
 10
-25.1171963118
 20
56.0103700085
 10
-25.0549266676
 20
55.9977050633
 10
-24.9928811991
 20
55.9840491581
 10
-24.9310682158
 20
55.9694245431
 10
-24.8694960271
 20
55.9538534684
 10
-24.8081729423
 20
55.9373581842
 10
-24.7471072709
 20
55.9199609408
 10
-24.6863073223
 20
55.9016839883
 10
-24.6257814058
 20
55.8825495768
 10
-24.5655378309
 20
55.8625799565
 10
-24.5055849071
 20
55.8417973777
 10
-24.4459309436
 20
55.8202240905
  0
LINE
  5
385
100
AcDbEntity
  8
RACCORDO
100
AcDbLine
 62
7
  6
CONTINUOUS
 10
-25.8043581978
 20
56.1224788251
 11
-25.8978749405
 21
56.125051896
  0
LINE
  5
386
100
AcDbEntity
  8
RACCORDO
100
AcDbLine
 62
7
  6
CONTINUOUS
 10
-25.6333215652
 20
56.111391952
 11
-25.8043581978
 21
56.1224788251
  0
LINE
  5
387
100
AcDbEntity
  8
RACCORDO
100
AcDbLine
 62
7
  6
CONTINUOUS
 10
36.5997611111
 20
-51.3843195009
 11
36.6650630106
 21
-51.2129524938
  0
LINE
  5
388
100
AcDbEntity
  8
RACCORDO
100
AcDbLine
 62
7
  6
CONTINUOUS
 10
36.5290155841
 20
-51.5469855997
 11
36.5997611111
 21
-51.3843195009
  0
LINE
  5
389
100
AcDbEntity
  8
0
100
AcDbLine
 62
7
  6
CONTINUOUS
 10
-0.9755235422
 20
-14.9276688701
 11
-0.9561823801
 21
-14.9031249329
  0
LINE
  5
38A
100
AcDbEntity
  8
0
100
AcDbLine
 62
7
  6
CONTINUOUS
 10
-11.9963697096
 20
20.7564840248
 11
-11.9705850926
 21
20.7812147724
  0
LWPOLYLINE
  5
38B
100
AcDbEntity
  8
RACCORDO
100
AcDbPolyline
 62
7
  6
CONTINUOUS
 90
46
 70
0
 10
-15.7723501907
 20
27.2898952335
 10
-15.7599575692
 20
27.3004323623
 10
-15.7471960028
 20
27.3105666729
 10
-15.7340839632
 20
27.3202846144
 10
-15.7206399221
 20
27.3295726358
 10
-15.7068823511
 20
27.3384171862
 10
-15.6928297217
 20
27.3468047147
 10
-15.6785005056
 20
27.3547216705
 10
-15.6639131744
 20
27.3621545026
 10
-15.6490861997
 20
27.36908966
 10
-15.6340380532
 20
27.375513592
 10
-15.6187872065
 20
27.3814127476
 10
-15.6042169208
 20
27.3864921116
 10
-15.5894970069
 20
27.3910979005
 10
-15.5746420985
 20
27.3952365227
 10
-15.559666829
 20
27.3989143865
 10
-15.5445858323
 20
27.4021379001
 10
-15.529413742
 20
27.4049134718
 10
-15.5141651916
 20
27.40724751
 10
-15.4988548149
 20
27.4091464228
 10
-15.4834972455
 20
27.4106166187
 10
-15.4681071171
 20
27.4116645058
 10
-15.4526990632
 20
27.4122964925
 10
-15.4372877175
 20
27.412518987
 10
-15.4188203818
 20
27.4122558907
 10
-15.400379374
 20
27.4114304481
 10
-15.3819747117
 20
27.4100599641
 10
-15.3636164129
 20
27.4081617439
 10
-15.3453144953
 20
27.4057530926
 10
-15.3270789766
 20
27.4028513152
 10
-15.3089198746
 20
27.3994737168
 10
-15.290847207
 20
27.3956376024
 10
-15.2728709917
 20
27.3913602772
 10
-15.2550012464
 20
27.3866590462
 10
-15.2372479889
 20
27.3815512145
 10
-15.2174448934
 20
27.3753455104
 10
-15.1978051546
 20
27.368665086
 10
-15.1783323351
 20
27.3615269557
 10
-15.1590299974
 20
27.3539481343
 10
-15.1399017042
 20
27.3459456362
 10
-15.1209510179
 20
27.3375364762
 10
-15.102181501
 20
27.3287376688
 10
-15.0835967161
 20
27.3195662287
 10
-15.0652002257
 20
27.3100391704
 10
-15.0469955924
 20
27.3001735085
 10
-15.0289863787
 20
27.2899862576
  0
LINE
  5
38C
100
AcDbEntity
  8
0
100
AcDbLine
 62
7
  6
CONTINUOUS
 10
-12.6707498957
 20
23.6926432552
 11
-12.7013206446
 21
23.685297962
  0
LINE
  5
38D
100
AcDbEntity
  8
RACCORDO
100
AcDbLine
 62
7
  6
CONTINUOUS
 10
-15.0955308197
 20
27.0940703852
 11
-15.0939484785
 21
27.0943688711
  0
LINE
  5
38E
100
AcDbEntity
  8
RACCORDO
100
AcDbLine
 62
7
  6
CONTINUOUS
 10
-25.9659715405
 20
56.125331342
 11
-26.097052989
 21
56.1219903162
  0
LINE
  5
38F
100
AcDbEntity
  8
RACCORDO
100
AcDbLine
 62
7
  6
CONTINUOUS
 10
-25.8979088667
 20
56.1250523455
 11
-25.9659715405
 21
56.125331342
  0
LINE
  5
390
100
AcDbEntity
  8
RACCORDO
100
AcDbLine
 62
7
  6
CONTINUOUS
 10
36.4533361038
 20
-51.7008312953
 11
36.5290155841
 21
-51.5469855997
  0
LINE
  5
391
100
AcDbEntity
  8
0
100
AcDbLine
 62
7
  6
CONTINUOUS
 10
-12.0232079408
 20
20.7336467082
 11
-11.9963697096
 21
20.7564840248
  0
LINE
  5
392
100
AcDbEntity
  8
RACCORDO
100
AcDbLine
 62
7
  6
CONTINUOUS
 10
-26.2260581698
 20
56.1135702162
 11
-26.3528160379
 21
56.1001407182
  0
LINE
  5
393
100
AcDbEntity
  8
RACCORDO
100
AcDbLine
 62
7
  6
CONTINUOUS
 10
-26.097052989
 20
56.1219903162
 11
-26.2260581698
 21
56.1135702162
  0
LINE
  5
394
100
AcDbEntity
  8
RACCORDO
100
AcDbLine
 62
7
  6
CONTINUOUS
 10
36.4060135012
 20
-51.7884509406
 11
36.4533361038
 21
-51.7008312953
  0
LINE
  5
395
100
AcDbEntity
  8
RACCORDO
100
AcDbLine
 62
7
  6
CONTINUOUS
 10
36.3752184397
 20
-51.8424097419
 11
36.4059953624
 21
-51.7884823774
  0
LINE
  5
396
100
AcDbEntity
  8
0
100
AcDbLine
 62
7
  6
CONTINUOUS
 10
-0.9975341562
 20
-14.9512500289
 11
-0.9755235422
 21
-14.9276688701
  0
LINE
  5
397
100
AcDbEntity
  8
0
100
AcDbLine
 62
7
  6
CONTINUOUS
 10
-12.0511115239
 20
20.7127616778
 11
-12.0232079408
 21
20.7336467082
  0
LINE
  5
398
100
AcDbEntity
  8
RACCORDO
100
AcDbLine
 62
7
  6
CONTINUOUS
 10
-26.3528160379
 20
56.1001407182
 11
-26.4771726561
 21
56.0817789816
  0
LINE
  5
399
100
AcDbEntity
  8
RACCORDO
100
AcDbLine
 62
7
  6
CONTINUOUS
 10
36.3070425954
 20
-51.9543045216
 11
36.3752184397
 21
-51.8424097419
  0
LWPOLYLINE
  5
39A
100
AcDbEntity
  8
RACCORDO
100
AcDbPolyline
 62
7
  6
CONTINUOUS
 90
19
 70
0
 10
36.3463785631
 20
-51.7904937207
 10
36.3296611944
 20
-51.8163686917
 10
36.3126831559
 20
-51.8420729236
 10
36.2954419874
 20
-51.8676039899
 10
36.277935229
 20
-51.8929594642
 10
36.2601604208
 20
-51.9181369199
 10
36.2395562977
 20
-51.9466343081
 10
36.2186026761
 20
-51.9748890436
 10
36.19730201
 20
-52.0028932456
 10
36.1756567533
 20
-52.0306390332
 10
36.1536693599
 20
-52.0581185256
 10
36.1313422839
 20
-52.0853238419
 10
36.1086779791
 20
-52.1122471014
 10
36.0856788995
 20
-52.1388804231
 10
36.0623474992
 20
-52.1652159263
 10
36.038686232
 20
-52.1912457301
 10
36.0146975519
 20
-52.2169619536
 10
35.9903839129
 20
-52.2423567161
 10
35.9657477689
 20
-52.2674221367
  0
LINE
  5
39B
100
AcDbEntity
  8
0
100
AcDbLine
 62
7
  6
CONTINUOUS
 10
-1.0222781021
 20
-14.973764531
 11
-0.9975341562
 21
-14.9512500289
  0
LINE
  5
39C
100
AcDbEntity
  8
0
100
AcDbLine
 62
7
  6
CONTINUOUS
 10
-12.0719877644
 20
20.6989181017
 11
-12.0511115239
 21
20.7127616778
  0
LWPOLYLINE
  5
39D
100
AcDbEntity
  8
0
100
AcDbPolyline
 62
7
  6
CONTINUOUS
 90
43
 70
0
 10
-12.035691369
 20
20.7873555382
 10
-12.0278408349
 20
20.7924522833
 10
-12.0201405176
 20
20.7977806498
 10
-12.0125898342
 20
20.8033295227
 10
-12.0051882017
 20
20.8090877869
 10
-11.9979350372
 20
20.8150443272
 10
-11.9908297578
 20
20.8211880287
 10
-11.9838717805
 20
20.8275077762
 10
-11.9770605225
 20
20.8339924546
 10
-11.9703954007
 20
20.8406309488
 10
-11.9638758323
 20
20.8474121438
 10
-11.9575012343
 20
20.8543249246
 10
-11.9499800854
 20
20.8628528967
 10
-11.9426701753
 20
20.8715513301
 10
-11.9355712871
 20
20.8804142564
 10
-11.9286832037
 20
20.8894357074
 10
-11.9220057081
 20
20.8986097147
 10
-11.9155385833
 20
20.9079303101
 10
-11.9092816122
 20
20.9173915253
 10
-11.9032345778
 20
20.9269873919
 10
-11.897397263
 20
20.9367119417
 10
-11.8917694509
 20
20.9465592063
 10
-11.8863699338
 20
20.9564897522
 10
-11.8811839555
 20
20.9665335117
 10
-11.8762171868
 20
20.9766877428
 10
-11.8714752983
 20
20.9869497033
 10
-11.866963961
 20
20.9973166512
 10
-11.8626888454
 20
21.0077858444
 10
-11.8586556223
 20
21.0183545406
 10
-11.8548699626
 20
21.0290199979
 10
-11.851337537
 20
21.039779474
 10
-11.8480640161
 20
21.050630227
 10
-11.8455757341
 20
21.0596021849
 10
-11.843275941
 20
21.0686282651
 10
-11.8411748762
 20
21.077702942
 10
-11.8392827787
 20
21.0868206904
 10
-11.8376098879
 20
21.0959759849
 10
-11.8361664428
 20
21.1051633
 10
-11.8349626827
 20
21.1143771105
 10
-11.8340088469
 20
21.123611891
 10
-11.8333151744
 20
21.132862116
 10
-11.8328919046
 20
21.1421222602
 10
-11.8327492765
 20
21.1513867983
  0
LINE
  5
39E
100
AcDbEntity
  8
0
100
AcDbLine
 62
7
  6
CONTINUOUS
 10
-13.2494203529
 20
20.0248540111
 11
-12.035691369
 21
20.7873555382
  0
LINE
  5
39F
100
AcDbEntity
  8
0
100
AcDbLine
 62
7
  6
CONTINUOUS
 10
-13.2494203529
 20
19.9592177961
 11
-12.071948546
 21
20.6989414599
  0
LWPOLYLINE
  5
3A0
100
AcDbEntity
  8
0
100
AcDbPolyline
 62
7
  6
CONTINUOUS
 90
43
 70
0
 10
-11.8327492765
 20
22.9756355028
 10
-11.8304375734
 20
22.9770161712
 10
-11.8281404929
 20
22.9784341665
 10
-11.8258602999
 20
22.9798897786
 10
-11.8235992594
 20
22.9813832973
 10
-11.8213596361
 20
22.9829150126
 10
-11.8191436952
 20
22.9844852142
 10
-11.8169537014
 20
22.9860941921
 10
-11.8147919198
 20
22.9877422362
 10
-11.8126606152
 20
22.9894296362
 10
-11.8105620526
 20
22.9911566822
 10
-11.8084984969
 20
22.9929236639
 10
-11.806472213
 20
22.9947308713
 10
-11.8044854658
 20
22.9965785942
 10
-11.8025405204
 20
22.9984671226
 10
-11.8006396415
 20
23.0003967461
 10
-11.7987850942
 20
23.0023677549
 10
-11.7969791433
 20
23.0043804386
 10
-11.7952240538
 20
23.0064350873
 10
-11.7935220906
 20
23.0085319907
 10
-11.7918755187
 20
23.0106714388
 10
-11.7902866029
 20
23.0128537214
 10
-11.7890333024
 20
23.0146680522
 10
-11.787822056
 20
23.0165107026
 10
-11.7866549426
 20
23.0183812227
 10
-11.785534041
 20
23.0202791625
 10
-11.78446143
 20
23.0222040718
 10
-11.7834391886
 20
23.0241555007
 10
-11.7824693955
 20
23.0261329992
 10
-11.7815541295
 20
23.0281361173
 10
-11.7806954695
 20
23.0301644048
 10
-11.7798954944
 20
23.0322174119
 10
-11.779156283
 20
23.0342946885
 10
-11.7784612529
 20
23.0364561471
 10
-11.7778340011
 20
23.0386399722
 10
-11.777275798
 20
23.0408433216
 10
-11.7767879138
 20
23.043063353
 10
-11.7763716189
 20
23.0452972242
 10
-11.7760281836
 20
23.047542093
 10
-11.7757588783
 20
23.049795117
 10
-11.7755649734
 20
23.0520534541
 10
-11.7754477391
 20
23.0543142619
 10
-11.7754084459
 20
23.0565746983
  0
LWPOLYLINE
  5
3A1
100
AcDbEntity
  8
0
100
AcDbPolyline
 62
7
  6
CONTINUOUS
 90
43
 70
0
 10
-11.8327492765
 20
21.1513867983
 10
-11.8304375724
 20
21.1527674677
 10
-11.8281404909
 20
21.1541854641
 10
-11.8258602968
 20
21.1556410773
 10
-11.8235992553
 20
21.1571345971
 10
-11.821359631
 20
21.1586663135
 10
-11.8191436891
 20
21.1602365163
 10
-11.8169536944
 20
21.1618454954
 10
-11.8147919119
 20
21.1634935407
 10
-11.8126606064
 20
21.165180942
 10
-11.8105620429
 20
21.1669079893
 10
-11.8084984864
 20
21.1686749723
 10
-11.8064722018
 20
21.170482181
 10
-11.804485454
 20
21.1723299053
 10
-11.8025405079
 20
21.1742184351
 10
-11.8006396284
 20
21.1761480601
 10
-11.7987850806
 20
21.1781190703
 10
-11.7969791293
 20
21.1801317556
 10
-11.7952240394
 20
21.1821864058
 10
-11.7935220759
 20
21.1842833108
 10
-11.7918755038
 20
21.1864227605
 10
-11.7902865878
 20
21.1886050447
 10
-11.7890332874
 20
21.1904193766
 10
-11.7878220412
 20
21.1922620282
 10
-11.7866549281
 20
21.1941325494
 10
-11.7855340268
 20
21.1960304903
 10
-11.7844614162
 20
21.1979554008
 10
-11.7834391751
 20
21.1999068309
 10
-11.7824693824
 20
21.2018843305
 10
-11.7815541169
 20
21.2038874497
 10
-11.7806954575
 20
21.2059157385
 10
-11.7798954829
 20
21.2079687467
 10
-11.7791562721
 20
21.2100460244
 10
-11.7784612428
 20
21.212207484
 10
-11.7778339919
 20
21.2143913101
 10
-11.7772757896
 20
21.2165946605
 10
-11.7767879063
 20
21.2188146929
 10
-11.7763716124
 20
21.221048565
 10
-11.7760281782
 20
21.2232934346
 10
-11.7757588741
 20
21.2255464595
 10
-11.7755649704
 20
21.2278047974
 10
-11.7754477375
 20
21.230065606
 10
-11.7754084458
 20
21.2323260431
  0
LINE
  5
3A2
100
AcDbEntity
  8
RACCORDO
100
AcDbLine
 62
7
  6
CONTINUOUS
 10
-26.4771726561
 20
56.0817789816
 11
-26.5989767807
 21
56.058594188
  0
LINE
  5
3A3
100
AcDbEntity
  8
RACCORDO
100
AcDbLine
 62
7
  6
CONTINUOUS
 10
36.2354991481
 20
-52.0618935395
 11
36.3070425954
 21
-51.9543045216
  0
LINE
  5
3A4
100
AcDbEntity
  8
RACCORDO
100
AcDbLine
 62
7
  6
CONTINUOUS
 10
36.1607222431
 20
-52.1650636597
 11
36.2354991481
 21
-52.0618935395
  0
LINE
  5
3A5
100
AcDbEntity
  8
0
100
AcDbLine
 62
7
  6
CONTINUOUS
 10
-13.2114258863
 20
3.0066743163
 11
-13.2494203529
 21
2.9828050348
  0
LINE
  5
3A6
100
AcDbEntity
  8
0
100
AcDbLine
 62
7
  6
CONTINUOUS
 10
-12.1733704081
 20
23.3481909506
 11
-13.2494203529
 21
22.7597239392
  0
LINE
  5
3A7
100
AcDbEntity
  8
0
100
AcDbLine
 62
7
  6
CONTINUOUS
 10
-12.035691369
 20
23.1011879858
 11
-13.2494203529
 21
22.4374274687
  0
LINE
  5
3A8
100
AcDbEntity
  8
0
100
AcDbLine
 62
7
  6
CONTINUOUS
 10
-13.2494203529
 20
23.4199074214
 11
-12.7776988638
 21
23.655514071
  0
LINE
  5
3A9
100
AcDbEntity
  8
0
100
AcDbLine
 62
7
  6
CONTINUOUS
 10
-13.2494203529
 20
23.3599279696
 11
-12.6761729411
 21
23.6462689772
  0
LWPOLYLINE
  5
3AA
100
AcDbEntity
  8
RACCORDO
100
AcDbPolyline
 62
7
  6
CONTINUOUS
 90
19
 70
0
 10
-26.5332648774
 20
55.9830770941
 10
-26.5024165205
 20
55.9910879131
 10
-26.4714751969
 20
55.9987339826
 10
-26.4404435803
 20
56.0060159794
 10
-26.4093243445
 20
56.0129345802
 10
-26.378120163
 20
56.019490462
 10
-26.3416826319
 20
56.0266684231
 10
-26.3051423507
 20
56.0333585785
 10
-26.2685081198
 20
56.039564007
 10
-26.2317887397
 20
56.0452877874
 10
-26.1949930106
 20
56.0505329987
 10
-26.158129733
 20
56.0553027196
 10
-26.1212077072
 20
56.0596000289
 10
-26.0842357335
 20
56.0634280055
 10
-26.0472226124
 20
56.0667897283
 10
-26.0101771441
 20
56.069688276
 10
-25.9731081291
 20
56.0721267275
 10
-25.9360243678
 20
56.0741081617
 10
-25.8989346604
 20
56.0756356573
  0
LINE
  5
3AB
100
AcDbEntity
  8
RACCORDO
100
AcDbLine
 62
7
  6
CONTINUOUS
 10
-26.5989767807
 20
56.058594188
 11
-26.6455962329
 21
56.0476821619
  0
LINE
  5
3AC
100
AcDbEntity
  8
RACCORDO
100
AcDbLine
 62
7
  6
CONTINUOUS
 10
36.0828609257
 20
-52.2637197446
 11
36.1607222431
 21
-52.1650636597
  0
LINE
  5
3AD
100
AcDbEntity
  8
0
100
AcDbLine
 62
7
  6
CONTINUOUS
 10
-1.0497341932
 20
-14.9950138982
 11
-1.0222781021
 21
-14.973764531
  0
LWPOLYLINE
  5
3AE
100
AcDbEntity
  8
RACCORDO
100
AcDbPolyline
 62
7
  6
CONTINUOUS
 90
18
 70
0
 10
36.4189050601
 20
19.773001942
 10
36.4560932013
 20
19.7967218233
 10
36.4932054309
 20
19.820566917
 10
36.5302198526
 20
19.8445659963
 10
36.5671145705
 20
19.8687478346
 10
36.6038676885
 20
19.8931412052
 10
36.6404573106
 20
19.9177748814
 10
36.6768615406
 20
19.9426776366
 10
36.7130584824
 20
19.967878244
 10
36.7384241701
 20
19.9858362041
 10
36.7636426102
 20
20.0040010326
 10
36.7886803536
 20
20.0224174157
 10
36.8135039515
 20
20.0411300398
 10
36.8279994872
 20
20.0523069491
 10
36.8423755588
 20
20.0636364941
 10
36.8565985104
 20
20.0751531565
 10
36.870634686
 20
20.0868914176
 10
36.8844504297
 20
20.098885759
  0
LINE
  5
3AF
100
AcDbEntity
  8
0
100
AcDbLine
 62
7
  6
CONTINUOUS
 10
-13.211586007
 20
5.642087157
 11
-13.2494203529
 21
5.6213964219
  0
LWPOLYLINE
  5
3B0
100
AcDbEntity
  8
0
100
AcDbPolyline
 62
7
  6
CONTINUOUS
 90
38
 70
0
 10
-12.6761729411
 20
23.6462689772
 10
-12.6689158594
 20
23.6497545287
 10
-12.661591443
 20
23.6531032524
 10
-12.6542011229
 20
23.6563085948
 10
-12.6467463298
 20
23.6593640021
 10
-12.6392284945
 20
23.6622629207
 10
-12.6316490477
 20
23.6649987968
 10
-12.6240094202
 20
23.6675650768
 10
-12.6163110429
 20
23.669955207
 10
-12.6100152122
 20
23.6717623729
 10
-12.6036839006
 20
23.6734437744
 10
-12.5973194535
 20
23.6749942177
 10
-12.5909242162
 20
23.6764085091
 10
-12.5845005341
 20
23.6776814547
 10
-12.5780507526
 20
23.6788078605
 10
-12.5715772171
 20
23.6797825329
 10
-12.5650822729
 20
23.680600278
 10
-12.5585682655
 20
23.6812559019
 10
-12.5520375402
 20
23.6817442107
 10
-12.5460938488
 20
23.6820383177
 10
-12.540142934
 20
23.6821859312
 10
-12.5341894287
 20
23.6821828693
 10
-12.5282379661
 20
23.68202495
 10
-12.5222931793
 20
23.6817079915
 10
-12.5163597015
 20
23.6812278117
 10
-12.5104421656
 20
23.6805802287
 10
-12.504545205
 20
23.6797610606
 10
-12.4986734525
 20
23.6787661254
 10
-12.4928315415
 20
23.6775912411
 10
-12.4873738027
 20
23.6763201552
 10
-12.4819533035
 20
23.6748870161
 10
-12.4765768422
 20
23.6732923601
 10
-12.4712512172
 20
23.6715367237
 10
-12.4659832267
 20
23.6696206431
 10
-12.4607796689
 20
23.6675446549
 10
-12.4556473424
 20
23.6653092954
 10
-12.4505930452
 20
23.6629151009
 10
-12.4456235757
 20
23.6603626078
  0
LINE
  5
3B1
100
AcDbEntity
  8
0
100
AcDbLine
 62
7
  6
CONTINUOUS
 10
-12.7634947482
 20
23.6623136794
 11
-12.7776519996
 21
23.6555361761
  0
LINE
  5
3B2
100
AcDbEntity
  8
RACCORDO
100
AcDbLine
 62
7
  6
CONTINUOUS
 10
-15.0942921663
 20
27.0944990175
 11
-15.0935502805
 21
27.0948432457
  0
LINE
  5
3B3
100
AcDbEntity
  8
0
100
AcDbLine
 62
7
  6
CONTINUOUS
 10
-15.3079765712
 20
26.7051065949
 11
-14.7746678533
 21
26.9516967441
  0
LINE
  5
3B4
100
AcDbEntity
  8
RACCORDO
100
AcDbLine
 62
7
  6
CONTINUOUS
 10
-15.0955818139
 20
27.094047503
 11
-15.0955308197
 21
27.0940703852
  0
LWPOLYLINE
  5
3B5
100
AcDbEntity
  8
0
100
AcDbPolyline
 62
7
  6
CONTINUOUS
 90
42
 70
0
 10
-12.7757384337
 20
23.6564410535
 10
-12.7737960602
 20
23.6572866102
 10
-12.7718237518
 20
23.6580670899
 10
-12.7698236788
 20
23.6587833394
 10
-12.7677980119
 20
23.6594362059
 10
-12.7657489213
 20
23.6600265362
 10
-12.7636785775
 20
23.6605551773
 10
-12.7615891509
 20
23.6610229761
 10
-12.759482812
 20
23.6614307797
 10
-12.7573617313
 20
23.661779435
 10
-12.755228079
 20
23.662069789
 10
-12.7530840258
 20
23.6623026886
 10
-12.7509317419
 20
23.6624789807
 10
-12.7487733979
 20
23.6625995124
 10
-12.7466111642
 20
23.6626651307
 10
-12.7444472112
 20
23.6626766823
 10
-12.7422837093
 20
23.6626350145
 10
-12.740122829
 20
23.662540974
 10
-12.7379667408
 20
23.6623954079
 10
-12.7358176149
 20
23.6621991631
 10
-12.733677622
 20
23.6619530865
 10
-12.7310984712
 20
23.661589343
 10
-12.7285361837
 20
23.6611558599
 10
-12.7259910159
 20
23.6606548667
 10
-12.7234632242
 20
23.660088593
 10
-12.7209530649
 20
23.6594592682
 10
-12.7184607944
 20
23.6587691219
 10
-12.7159866691
 20
23.6580203835
 10
-12.7135309452
 20
23.6572152826
 10
-12.7110938793
 20
23.6563560485
 10
-12.7086757275
 20
23.6554449109
 10
-12.7062767464
 20
23.6544840992
 10
-12.7038971922
 20
23.653475843
 10
-12.7015373213
 20
23.6524223716
 10
-12.6991973901
 20
23.6513259146
 10
-12.696877655
 20
23.6501887016
 10
-12.6945783722
 20
23.6490129619
 10
-12.6922997982
 20
23.6478009251
 10
-12.6900421894
 20
23.6465548208
 10
-12.687805802
 20
23.6452768783
 10
-12.6855908925
 20
23.6439693271
 10
-12.6833977172
 20
23.6426343969
  0
LINE
  5
3B6
100
AcDbEntity
  8
RACCORDO
100
AcDbLine
 62
7
  6
CONTINUOUS
 10
36.00209004
 20
-52.3577820881
 11
36.0828609257
 21
-52.2637197446
  0
LWPOLYLINE
  5
3B7
100
AcDbEntity
  8
RACCORDO
100
AcDbPolyline
 62
7
  6
CONTINUOUS
 90
46
 70
0
 10
16.709252595
 20
-28.4795897025
 10
16.6991784078
 20
-28.4885606059
 10
16.6887968222
 20
-28.4971914981
 10
16.6781217562
 20
-28.5054692641
 10
16.6671671278
 20
-28.513380789
 10
16.6559468548
 20
-28.5209129577
 10
16.6444748554
 20
-28.5280526554
 10
16.6327183234
 20
-28.5348141637
 10
16.6207367293
 20
-28.5411629472
 10
16.6085447061
 20
-28.547095085
 10
16.596156887
 20
-28.5526066563
 10
16.5835879052
 20
-28.5576937401
 10
16.5708523938
 20
-28.5623524158
 10
16.5572366371
 20
-28.5668056746
 10
16.5434680272
 20
-28.5707863048
 10
16.5295631541
 20
-28.5743039492
 10
16.515538608
 20
-28.5773682505
 10
16.501410979
 20
-28.5799888513
 10
16.4871968571
 20
-28.5821753946
 10
16.4729128325
 20
-28.5839375229
 10
16.4585754954
 20
-28.5852848789
 10
16.4442014358
 20
-28.5862271055
 10
16.4298072439
 20
-28.5867738454
 10
16.4154095097
 20
-28.5869347412
 10
16.4010248234
 20
-28.5867194357
 10
16.3831486256
 20
-28.5859402347
 10
16.3653249091
 20
-28.5846134763
 10
16.347560183
 20
-28.5827601809
 10
16.3298609563
 20
-28.5804013687
 10
16.3122337381
 20
-28.5775580602
 10
16.2946850375
 20
-28.5742512756
 10
16.2772213636
 20
-28.5705020353
 10
16.2598492255
 20
-28.5663313597
 10
16.2425751321
 20
-28.5617602691
 10
16.2254055927
 20
-28.5568097839
 10
16.2083471162
 20
-28.5515009243
 10
16.1868839668
 20
-28.544282998
 10
16.1656121601
 20
-28.5365442649
 10
16.1445339847
 20
-28.5283063782
 10
16.1236517295
 20
-28.5195909911
 10
16.102967683
 20
-28.5104197566
 10
16.082484134
 20
-28.5008143278
 10
16.0622033712
 20
-28.490796358
 10
16.0421276832
 20
-28.4803875003
 10
16.0222593587
 20
-28.4696094078
 10
16.0026006865
 20
-28.4584837336
  0
LINE
  5
3B8
100
AcDbEntity
  8
0
100
AcDbLine
 62
7
  6
CONTINUOUS
 10
-1.0635137508
 20
-15.0044743195
 11
-1.0497341932
 21
-14.9950138982
  0
LINE
  5
3B9
100
AcDbEntity
  8
0
100
AcDbLine
 62
7
  6
CONTINUOUS
 10
-1.4377639223
 20
-15.2518463426
 11
-1.0635656373
 21
-15.004518863
  0
LWPOLYLINE
  5
3BA
100
AcDbEntity
  8
0
100
AcDbPolyline
 62
7
  6
CONTINUOUS
 90
40
 70
0
 10
-1.4896919276
 20
-15.2218637632
 10
-1.0211077652
 20
-14.9121810813
 10
-1.0147138626
 20
-14.9078217195
 10
-1.0083979753
 20
-14.9033456653
 10
-1.0021657191
 20
-14.8987510933
 10
-0.99602271
 20
-14.8940361778
 10
-0.989974564
 20
-14.8891990932
 10
-0.9840268968
 20
-14.884238014
 10
-0.9781853245
 20
-14.8791511147
 10
-0.9724554629
 20
-14.8739365695
 10
-0.967867249
 20
-14.8695860707
 10
-0.9633620966
 20
-14.865148789
 10
-0.9589449569
 20
-14.8606241369
 10
-0.9546207811
 20
-14.8560115271
 10
-0.9503945205
 20
-14.8513103722
 10
-0.9462711263
 20
-14.8465200849
 10
-0.9422555498
 20
-14.8416400777
 10
-0.938352742
 20
-14.8366697633
 10
-0.9345676544
 20
-14.8316085543
 10
-0.930905238
 20
-14.8264558633
 10
-0.9276820127
 20
-14.821684999
 10
-0.9245698563
 20
-14.8168392195
 10
-0.9215740558
 20
-14.8119199226
 10
-0.918699898
 20
-14.8069285064
 10
-0.9159526698
 20
-14.8018663689
 10
-0.9133376581
 20
-14.7967349079
 10
-0.9108601499
 20
-14.7915355215
 10
-0.908525432
 20
-14.7862696076
 10
-0.9063387912
 20
-14.7809385641
 10
-0.9043055145
 20
-14.7755437891
 10
-0.902544205
 20
-14.7704335304
 10
-0.9009253554
 20
-14.7652736853
 10
-0.8994521661
 20
-14.7600693823
 10
-0.8981278376
 20
-14.7548257497
 10
-0.8969555704
 20
-14.7495479159
 10
-0.895938565
 20
-14.7442410094
 10
-0.8950800218
 20
-14.7389101584
 10
-0.8943831413
 20
-14.7335604915
 10
-0.8938511239
 20
-14.7281971369
 10
-0.8934871702
 20
-14.7228252231
  0
LWPOLYLINE
  5
3BB
100
AcDbEntity
  8
0
100
AcDbPolyline
 62
7
  6
CONTINUOUS
 90
41
 70
0
 10
-1.0275395021
 20
-14.3275355604
 10
-1.0215012187
 20
-14.3237680484
 10
-1.0155225596
 20
-14.3199000735
 10
-1.009608235
 20
-14.3159298952
 10
-1.0037629551
 20
-14.3118557728
 10
-0.9979914301
 20
-14.3076759656
 10
-0.9922983702
 20
-14.3033887332
 10
-0.9866884854
 20
-14.2989923347
 10
-0.9811664861
 20
-14.2944850296
 10
-0.9757370823
 20
-14.2898650773
 10
-0.9704049842
 20
-14.2851307371
 10
-0.9657054467
 20
-14.2807818568
 10
-0.9610939702
 20
-14.2763385885
 10
-0.9565764018
 20
-14.2718001312
 10
-0.9521585886
 20
-14.267165684
 10
-0.9478463777
 20
-14.2624344459
 10
-0.9436456164
 20
-14.2576056161
 10
-0.9395621516
 20
-14.2526783935
 10
-0.9356018307
 20
-14.2476519772
 10
-0.9317705006
 20
-14.2425255664
 10
-0.9280740085
 20
-14.2372983599
 10
-0.9248530485
 20
-14.23248511
 10
-0.9217532843
 20
-14.2275906746
 10
-0.9187809011
 20
-14.2226169237
 10
-0.9159420843
 20
-14.2175657271
 10
-0.9132430189
 20
-14.212438955
 10
-0.9106898903
 20
-14.2072384772
 10
-0.9082888837
 20
-14.2019661636
 10
-0.9060461844
 20
-14.1966238844
 10
-0.9039679776
 20
-14.1912135094
 10
-0.9020604485
 20
-14.1857369085
 10
-0.9004301085
 20
-14.1805375779
 10
-0.8989585681
 20
-14.1752878734
 10
-0.8976487439
 20
-14.1699941429
 10
-0.8965035523
 20
-14.1646627343
 10
-0.8955259099
 20
-14.1592999955
 10
-0.8947187332
 20
-14.1539122745
 10
-0.8940849389
 20
-14.1485059192
 10
-0.8936274434
 20
-14.1430872774
 10
-0.8933491633
 20
-14.137662697
 10
-0.8932530152
 20
-14.132238526
  0
LWPOLYLINE
  5
3BC
100
AcDbEntity
  8
RACCORDO
100
AcDbPolyline
 62
7
  6
CONTINUOUS
 90
9
 70
0
 10
35.9016591975
 20
19.4561104224
 10
35.9747152213
 20
19.4997682716
 10
36.0476454634
 20
19.5436372917
 10
36.1098655702
 20
19.5813067904
 10
36.171972027
 20
19.6191647427
 10
36.233947019
 20
19.6572371914
 10
36.2957727317
 20
19.695550179
 10
36.3574313503
 20
19.7341297483
 10
36.4189050601
 20
19.773001942
  0
LINE
  5
3BD
100
AcDbEntity
  8
RACCORDO
100
AcDbLine
 62
7
  6
CONTINUOUS
 10
33.5097713683
 20
19.2946858363
 11
35.2590739018
 21
20.3047014739
  0
LINE
  5
3BE
100
AcDbEntity
  8
0
100
AcDbLine
 62
7
  6
CONTINUOUS
 10
-15.3079759925
 20
-8.9682618425
 11
-13.2494203529
 21
-7.7796628884
  0
LINE
  5
3BF
100
AcDbEntity
  8
0
100
AcDbLine
 62
7
  6
CONTINUOUS
 10
-14.6944461159
 20
-9.9186098235
 11
-12.6845101801
 21
-8.7581160082
  0
LINE
  5
3C0
100
AcDbEntity
  8
RACCORDO
100
AcDbLine
 62
7
  6
CONTINUOUS
 10
34.1201070906
 20
18.0163050984
 11
35.9652116177
 21
19.0816350741
  0
LWPOLYLINE
  5
3C1
100
AcDbEntity
  8
RACCORDO
100
AcDbPolyline
 62
7
  6
CONTINUOUS
 90
9
 70
0
 10
35.5515675682
 20
20.0624601264
 10
35.625902472
 20
20.1039068456
 10
35.7003571323
 20
20.1451395059
 10
35.7640876876
 20
20.1801957605
 10
35.8279244565
 20
20.2150597097
 10
35.8918810691
 20
20.2497029526
 10
35.9559711554
 20
20.2840970881
 10
36.0202083453
 20
20.3182137151
 10
36.0846062689
 20
20.3520244327
  0
LINE
  5
3C2
100
AcDbEntity
  8
0
100
AcDbLine
 62
7
  6
CONTINUOUS
 10
-12.7322914131
 20
23.6752099566
 11
-12.7634947482
 21
23.6623136794
  0
LINE
  5
3C3
100
AcDbEntity
  8
RACCORDO
100
AcDbLine
 62
7
  6
CONTINUOUS
 10
35.9652116177
 20
-52.3972630115
 11
36.00209004
 21
-52.3577820881
  0
LINE
  5
3C4
100
AcDbEntity
  8
0
100
AcDbLine
 62
7
  6
CONTINUOUS
 10
16.3371740103
 20
-27.8358783668
 11
16.7231130935
 21
-27.5637399484
  0
LWPOLYLINE
  5
3C5
100
AcDbEntity
  8
0
100
AcDbPolyline
 62
7
  6
CONTINUOUS
 90
48
 70
0
 10
-1.172610689
 20
-14.084800887
 10
-1.1684976217
 20
-14.082246897
 10
-1.1644295427
 20
-14.0796146632
 10
-1.1604109535
 20
-14.0769025344
 10
-1.156446355
 20
-14.0741088597
 10
-1.1525402485
 20
-14.071231988
 10
-1.1486971352
 20
-14.0682702683
 10
-1.1449215162
 20
-14.0652220496
 10
-1.1412178928
 20
-14.0620856808
 10
-1.1375907661
 20
-14.0588595109
 10
-1.1340446373
 20
-14.055541889
 10
-1.1305840077
 20
-14.0521311638
 10
-1.1278852241
 20
-14.0493396191
 10
-1.1252483569
 20
-14.0464876604
 10
-1.1226779274
 20
-14.0435753004
 10
-1.1201784568
 20
-14.040602552
 10
-1.1177544664
 20
-14.0375694279
 10
-1.1154104774
 20
-14.0344759409
 10
-1.1131510111
 20
-14.0313221037
 10
-1.1109805889
 20
-14.0281079292
 10
-1.1089037318
 20
-14.0248334301
 10
-1.1069249613
 20
-14.0214986192
 10
-1.1050487985
 20
-14.0181035093
 10
-1.1032797648
 20
-14.0146481131
 10
-1.1017848088
 20
-14.011491305
 10
-1.1003833139
 20
-14.0082889655
 10
-1.0990785345
 20
-14.0050442606
 10
-1.0978737251
 20
-14.001760356
 10
-1.0967721403
 20
-13.9984404177
 10
-1.0957770344
 20
-13.9950876115
 10
-1.094891662
 20
-13.9917051034
 10
-1.0941192776
 20
-13.9882960592
 10
-1.0934631356
 20
-13.9848636448
 10
-1.0929264906
 20
-13.9814110261
 10
-1.092512597
 20
-13.977941369
 10
-1.0922247093
 20
-13.9744578394
 10
-1.0920666725
 20
-13.9710171403
 10
-1.0920320626
 20
-13.9675707459
 10
-1.0921189518
 20
-13.9641233443
 10
-1.0923254123
 20
-13.9606796231
 10
-1.0926495165
 20
-13.9572442705
 10
-1.0930893364
 20
-13.9538219741
 10
-1.0936429442
 20
-13.9504174221
 10
-1.0943084123
 20
-13.9470353021
 10
-1.0950838128
 20
-13.9436803023
 10
-1.0959672179
 20
-13.9403571104
 10
-1.0969566999
 20
-13.9370704143
 10
-1.0980503309
 20
-13.933824902
  0
LINE
  5
3C6
100
AcDbEntity
  8
0
100
AcDbLine
 62
7
  6
CONTINUOUS
 10
-2.2856036971
 20
-14.7623142826
 11
-1.172610689
 21
-14.084800887
  0
LINE
  5
3C7
100
AcDbEntity
  8
0
100
AcDbLine
 62
7
  6
CONTINUOUS
 10
-2.0065049776
 20
-14.9234623853
 11
-1.0275395002
 21
-14.3275357084
  0
LWPOLYLINE
  5
3C8
100
AcDbEntity
  8
0
100
AcDbPolyline
 62
7
  6
CONTINUOUS
 90
43
 70
0
 10
-2.7597813838
 20
-12.9340357789
 10
-2.7574298177
 20
-12.9327239325
 10
-2.7550532349
 20
-12.9314434096
 10
-2.7526525167
 20
-12.9301963173
 10
-2.7502285442
 20
-12.9289847625
 10
-2.7477821988
 20
-12.9278108522
 10
-2.7453143616
 20
-12.9266766935
 10
-2.7428259139
 20
-12.9255843932
 10
-2.7403177369
 20
-12.9245360585
 10
-2.7377907119
 20
-12.9235337963
 10
-2.7352457201
 20
-12.9225797136
 10
-2.7326836428
 20
-12.9216759174
 10
-2.7301053612
 20
-12.9208245146
 10
-2.7275117565
 20
-12.9200276124
 10
-2.72490371
 20
-12.9192873176
 10
-2.7222821029
 20
-12.9186057373
 10
-2.7196478164
 20
-12.9179849785
 10
-2.7170017319
 20
-12.9174271481
 10
-2.7143447304
 20
-12.9169343532
 10
-2.7116776934
 20
-12.9165087008
 10
-2.7090015019
 20
-12.9161522978
 10
-2.7063170373
 20
-12.9158672512
 10
-2.7041191501
 20
-12.91568892
 10
-2.7019177614
 20
-12.9155611704
 10
-2.6997143006
 20
-12.9154855784
 10
-2.6975101971
 20
-12.9154637203
 10
-2.6953068802
 20
-12.9154971722
 10
-2.6931057795
 20
-12.9155875103
 10
-2.6909083243
 20
-12.9157363107
 10
-2.688715944
 20
-12.9159451497
 10
-2.686530068
 20
-12.9162156034
 10
-2.6843521257
 20
-12.9165492479
 10
-2.6821835466
 20
-12.9169476594
 10
-2.6799642098
 20
-12.9174264203
 10
-2.6777593921
 20
-12.9179750696
 10
-2.6755721908
 20
-12.9185932863
 10
-2.6734057036
 20
-12.9192807496
 10
-2.671263028
 20
-12.9200371386
 10
-2.6691472615
 20
-12.9208621324
 10
-2.6670615017
 20
-12.9217554101
 10
-2.665008846
 20
-12.9227166509
 10
-2.662992392
 20
-12.9237455337
 10
-2.6610152372
 20
-12.9248417379
  0
LWPOLYLINE
  5
3C9
100
AcDbEntity
  8
0
100
AcDbPolyline
 62
7
  6
CONTINUOUS
 90
43
 70
0
 10
-1.1798847651
 20
-13.8462482857
 10
-1.1775331983
 20
-13.8449364385
 10
-1.1751566148
 20
-13.8436559149
 10
-1.1727558958
 20
-13.8424088219
 10
-1.1703319225
 20
-13.8411972664
 10
-1.1678855763
 20
-13.8400233555
 10
-1.1654177382
 20
-13.8388891961
 10
-1.1629292896
 20
-13.8377968953
 10
-1.1604211118
 20
-13.83674856
 10
-1.1578940859
 20
-13.8357462973
 10
-1.1553490932
 20
-13.8347922142
 10
-1.1527870149
 20
-13.8338884176
 10
-1.1502087323
 20
-13.8330370145
 10
-1.1476151266
 20
-13.8322401121
 10
-1.1450070791
 20
-13.8314998171
 10
-1.1423854709
 20
-13.8308182367
 10
-1.1397511835
 20
-13.8301974779
 10
-1.1371050979
 20
-13.8296396476
 10
-1.1344480954
 20
-13.8291468529
 10
-1.1317810573
 20
-13.8287212007
 10
-1.1291048648
 20
-13.8283647981
 10
-1.1264203992
 20
-13.828079752
 10
-1.1242225114
 20
-13.8279014212
 10
-1.1220211221
 20
-13.8277736721
 10
-1.1198176607
 20
-13.8276980807
 10
-1.1176135566
 20
-13.8276762233
 10
-1.1154102392
 20
-13.8277096759
 10
-1.1132091379
 20
-13.8278000147
 10
-1.1110116821
 20
-13.8279488159
 10
-1.1088193013
 20
-13.8281576558
 10
-1.1066334249
 20
-13.8284281103
 10
-1.1044554821
 20
-13.8287617558
 10
-1.1022869026
 20
-13.8291601683
 10
-1.1000675654
 20
-13.8296389303
 10
-1.0978627473
 20
-13.8301875807
 10
-1.0956755458
 20
-13.8308057986
 10
-1.0935090583
 20
-13.8314932631
 10
-1.0913663825
 20
-13.8322496534
 10
-1.0892506159
 20
-13.8330746486
 10
-1.087164856
 20
-13.8339679277
 10
-1.0851122003
 20
-13.8349291699
 10
-1.0830957464
 20
-13.8359580544
 10
-1.0811185918
 20
-13.8370542601
  0
LWPOLYLINE
  5
3CA
100
AcDbEntity
  8
RACCORDO
100
AcDbPolyline
 62
7
  6
CONTINUOUS
 90
18
 70
0
 10
36.0846062689
 20
20.3520244327
 10
36.1237391833
 20
20.3723754427
 10
36.162942411
 20
20.392598444
 10
36.2022299156
 20
20.4126601364
 10
36.2416156605
 20
20.4325272199
 10
36.2811136092
 20
20.4521663944
 10
36.3207377252
 20
20.4715443599
 10
36.3605019721
 20
20.4906278162
 10
36.4004203133
 20
20.5093834634
 10
36.4286514333
 20
20.5223779932
 10
36.4569879467
 20
20.5351420107
 10
36.4854518027
 20
20.5476243019
 10
36.5140649504
 20
20.5597736528
 10
36.5309890941
 20
20.5667434344
 10
36.5479856107
 20
20.5735338059
 10
36.5650675303
 20
20.5800984842
 10
36.5822478828
 20
20.5863911866
 10
36.5995396983
 20
20.5923656303
  0
LINE
  5
3CB
100
AcDbEntity
  8
0
100
AcDbLine
 62
7
  6
CONTINUOUS
 10
-12.7013206446
 20
23.685297962
 11
-12.7322914131
 21
23.6752099566
  0
LWPOLYLINE
  5
3CC
100
AcDbEntity
  8
0
100
AcDbPolyline
 62
7
  6
CONTINUOUS
 90
45
 70
0
 10
4.0916505393
 20
-24.6659491146
 10
4.0947616541
 20
-24.6640690332
 10
4.0977915269
 20
-24.6620542897
 10
4.1007395083
 20
-24.659912071
 10
4.1036049493
 20
-24.6576495642
 10
4.1063872006
 20
-24.6552739562
 10
4.1090856129
 20
-24.6527924342
 10
4.1116995371
 20
-24.6502121851
 10
4.114228324
 20
-24.647540396
 10
4.1166713243
 20
-24.6447842538
 10
4.1190278889
 20
-24.6419509457
 10
4.1212973685
 20
-24.6390476586
 10
4.1234791139
 20
-24.6360815796
 10
4.1255724759
 20
-24.6330598956
 10
4.1279663659
 20
-24.6293715812
 10
4.1302365757
 20
-24.6256177813
 10
4.1323874697
 20
-24.6218026438
 10
4.1344234119
 20
-24.6179303167
 10
4.1363487666
 20
-24.6140049478
 10
4.138167898
 20
-24.610030685
 10
4.1398851702
 20
-24.6060116763
 10
4.1415049475
 20
-24.6019520694
 10
4.1430315942
 20
-24.5978560123
 10
4.1444694743
 20
-24.5937276529
 10
4.1458229521
 20
-24.589571139
 10
4.1470963917
 20
-24.5853906186
 10
4.1487005492
 20
-24.5796950985
 10
4.1501700097
 20
-24.5739660813
 10
4.1515089564
 20
-24.5682065155
 10
4.1527215722
 20
-24.5624193494
 10
4.1538120405
 20
-24.5566075315
 10
4.1547845442
 20
-24.5507740102
 10
4.1556432666
 20
-24.5449217339
 10
4.1563923907
 20
-24.539053651
 10
4.1570360996
 20
-24.5331727099
 10
4.1575785766
 20
-24.5272818591
 10
4.1581174364
 20
-24.5199476949
 10
4.1585098223
 20
-24.5126054512
 10
4.1587592859
 20
-24.5052578099
 10
4.158869379
 20
-24.4979074528
 10
4.1588436534
 20
-24.4905570617
 10
4.1586856608
 20
-24.4832093186
 10
4.158398953
 20
-24.4758669053
 10
4.1579870818
 20
-24.4685325036
 10
4.1574535989
 20
-24.4612087954
  0
LWPOLYLINE
  5
3CD
100
AcDbEntity
  8
0
100
AcDbPolyline
 62
7
  6
CONTINUOUS
 90
45
 70
0
 10
4.1980368659
 20
-24.6045229738
 10
4.2011477254
 20
-24.602643041
 10
4.2041773419
 20
-24.6006284451
 10
4.2071250661
 20
-24.5984863735
 10
4.2099902486
 20
-24.5962240137
 10
4.2127722401
 20
-24.5938485531
 10
4.2154703912
 20
-24.5913671792
 10
4.2180840526
 20
-24.5887870793
 10
4.2206125749
 20
-24.5861154409
 10
4.2230553087
 20
-24.5833594515
 10
4.2254116046
 20
-24.5805262985
 10
4.2276808135
 20
-24.5776231693
 10
4.2298622858
 20
-24.5746572514
 10
4.2319553722
 20
-24.5716357321
 10
4.2343489542
 20
-24.567947579
 10
4.2366188503
 20
-24.5641939448
 10
4.2387694252
 20
-24.5603789775
 10
4.240805044
 20
-24.5565068252
 10
4.2427300715
 20
-24.5525816359
 10
4.2445488728
 20
-24.5486075576
 10
4.2462658126
 20
-24.5445887383
 10
4.247885256
 20
-24.5405293261
 10
4.2494115679
 20
-24.536433469
 10
4.2508491132
 20
-24.532305315
 10
4.2522022568
 20
-24.5281490121
 10
4.2534753637
 20
-24.5239687084
 10
4.2550791004
 20
-24.5182733914
 10
4.2565481397
 20
-24.5125445866
 10
4.2578866652
 20
-24.5067852419
 10
4.2590988606
 20
-24.5009983057
 10
4.2601889096
 20
-24.4951867259
 10
4.2611609957
 20
-24.4893534509
 10
4.2620193027
 20
-24.4835014286
 10
4.2627680143
 20
-24.4776336073
 10
4.263411314
 20
-24.471752935
 10
4.2639533856
 20
-24.46586236
 10
4.2644917548
 20
-24.458528435
 10
4.2648836529
 20
-24.4511864402
 10
4.2651326325
 20
-24.443839057
 10
4.2652422459
 20
-24.4364889671
 10
4.2652160457
 20
-24.4291388519
 10
4.2650575844
 20
-24.421791393
 10
4.2647704145
 20
-24.4144492719
 10
4.2643580884
 20
-24.40711517
 10
4.2638241587
 20
-24.3997917689
  0
LINE
  5
3CE
100
AcDbEntity
  8
0
100
AcDbLine
 62
7
  6
CONTINUOUS
 10
-2.3315986695
 20
-21.430979328
 11
-2.438025624
 21
-21.4924289177
  0
LINE
  5
3CF
100
AcDbEntity
  8
0
100
AcDbLine
 62
7
  6
CONTINUOUS
 10
-2.4776735455
 20
-21.9983391052
 11
-2.5841479606
 21
-22.059816098
  0
LINE
  5
3D0
100
AcDbEntity
  8
0
100
AcDbLine
 62
7
  6
CONTINUOUS
 10
-0.2605546277
 20
-21.9087814994
 11
-0.3669330172
 21
-21.9702030483
  0
LINE
  5
3D1
100
AcDbEntity
  8
0
100
AcDbLine
 62
7
  6
CONTINUOUS
 10
-1.2672326011
 20
-22.6972325361
 11
-1.3737070162
 21
-22.7587095289
  0
LINE
  5
3D2
100
AcDbEntity
  8
0
100
AcDbLine
 62
7
  6
CONTINUOUS
 10
-0.6386054802
 20
-23.0601939571
 11
-0.7450798954
 21
-23.12167095
  0
LINE
  5
3D3
100
AcDbEntity
  8
0
100
AcDbLine
 62
7
  6
CONTINUOUS
 10
0.2878521815
 20
-22.6639020993
 11
0.1814445928
 21
-22.7253405074
  0
LINE
  5
3D4
100
AcDbEntity
  8
0
100
AcDbLine
 62
7
  6
CONTINUOUS
 10
0.7739361144
 20
-22.5118282599
 11
0.6675573516
 21
-22.5732500243
  0
LINE
  5
3D5
100
AcDbEntity
  8
0
100
AcDbLine
 62
7
  6
CONTINUOUS
 10
0.3098044209
 20
-23.6319073434
 11
0.2242114737
 21
-23.6813276384
  0
LINE
  5
3D6
100
AcDbEntity
  8
0
100
AcDbLine
 62
7
  6
CONTINUOUS
 10
2.2782322661
 20
-23.2220939943
 11
2.1718637004
 21
-23.2835098711
  0
LINE
  5
3D7
100
AcDbEntity
  8
0
100
AcDbLine
 62
7
  6
CONTINUOUS
 10
0.9648850111
 20
-23.9860292704
 11
0.858410596
 21
-24.0475062632
  0
LINE
  5
3D8
100
AcDbEntity
  8
0
100
AcDbLine
 62
7
  6
CONTINUOUS
 10
1.5825243997
 20
-24.3426465125
 11
1.4760499846
 21
-24.4041235054
  0
LINE
  5
3D9
100
AcDbEntity
  8
0
100
AcDbLine
 62
7
  6
CONTINUOUS
 10
2.0712442594
 20
-24.207821084
 11
1.9648005873
 21
-24.2692803262
  0
LINE
  5
3DA
100
AcDbEntity
  8
0
100
AcDbLine
 62
7
  6
CONTINUOUS
 10
2.5259793605
 20
-24.1466440116
 11
2.419558639
 21
-24.2080900025
  0
LINE
  5
3DB
100
AcDbEntity
  8
0
100
AcDbLine
 62
7
  6
CONTINUOUS
 10
3.6889896244
 20
-23.815808709
 11
3.5826349762
 21
-23.8772165499
  0
LINE
  5
3DC
100
AcDbEntity
  8
0
100
AcDbLine
 62
7
  6
CONTINUOUS
 10
2.634007212
 20
-24.5327533598
 11
2.52756354
 21
-24.594212602
  0
LINE
  5
3DD
100
AcDbEntity
  8
0
100
AcDbLine
 62
7
  6
CONTINUOUS
 10
4.0118543322
 20
-23.9897625882
 11
3.9055004584
 21
-24.051169982
  0
LINE
  5
3DE
100
AcDbEntity
  8
0
100
AcDbLine
 62
7
  6
CONTINUOUS
 10
2.7751207974
 20
-25.0312367258
 11
2.6686463822
 21
-25.0927137186
  0
LINE
  5
3DF
100
AcDbEntity
  8
0
100
AcDbLine
 62
7
  6
CONTINUOUS
 10
4.2638241601
 20
-24.3997918638
 11
4.1574535964
 21
-24.4612088941
  0
LINE
  5
3E0
100
AcDbEntity
  8
0
100
AcDbLine
 62
7
  6
CONTINUOUS
 10
3.7699868379
 20
-24.7867534296
 11
3.6635715388
 21
-24.8481962897
  0
LINE
  5
3E1
100
AcDbEntity
  8
0
100
AcDbLine
 62
7
  6
CONTINUOUS
 10
4.0916440602
 20
-24.6659390141
 11
4.1980303907
 21
-24.6045128803
  0
LINE
  5
3E2
100
AcDbEntity
  8
0
100
AcDbLine
 62
7
  6
CONTINUOUS
 10
3.9915556489
 20
-24.9146844842
 11
3.8851403497
 21
-24.9761273442
  0
LINE
  5
3E3
100
AcDbEntity
  8
0
100
AcDbLine
 62
7
  6
CONTINUOUS
 10
3.423928628
 20
-25.4058504996
 11
3.3174542128
 21
-25.4673274925
  0
LINE
  5
3E4
100
AcDbEntity
  8
0
100
AcDbLine
 62
7
  6
CONTINUOUS
 10
4.4078509528
 20
-24.9840647782
 11
4.3014473545
 21
-25.0455008823
  0
LINE
  5
3E5
100
AcDbEntity
  8
0
100
AcDbLine
 62
7
  6
CONTINUOUS
 10
4.2363530219
 20
-25.2407903987
 11
4.1299248314
 21
-25.3022407021
  0
LINE
  5
3E6
100
AcDbEntity
  8
0
100
AcDbLine
 62
7
  6
CONTINUOUS
 10
4.4683230949
 20
-26.0088707754
 11
4.3618486797
 21
-26.0703477683
  0
LWPOLYLINE
  5
3E7
100
AcDbEntity
  8
0
100
AcDbPolyline
 62
7
  6
CONTINUOUS
 90
13
 70
0
 10
4.4188924702
 20
-25.0169722442
 10
4.4170887184
 20
-25.0180049088
 10
4.4152761782
 20
-25.0190225945
 10
4.4134551479
 20
-25.0200254828
 10
4.411625926
 20
-25.0210137557
 10
4.4097888105
 20
-25.0219875947
 10
4.4079441
 20
-25.0229471817
 10
4.4060920926
 20
-25.0238926983
 10
4.4042330866
 20
-25.0248243262
 10
4.4023673804
 20
-25.0257422471
 10
4.4004952723
 20
-25.0266466429
 10
4.3986170606
 20
-25.0275376951
 10
4.3967330435
 20
-25.0284155856
  0
LINE
  5
3E8
100
AcDbEntity
  8
0
100
AcDbLine
 62
7
  6
CONTINUOUS
 10
-3.2712243344
 20
-12.9149626296
 11
-4.4269040963
 21
-13.5259542689
  0
LINE
  5
3E9
100
AcDbEntity
  8
0
100
AcDbLine
 62
7
  6
CONTINUOUS
 10
-3.1765129261
 20
-12.9277728501
 11
-4.3700518024
 21
-13.5587800709
  0
LINE
  5
3EA
100
AcDbEntity
  8
0
100
AcDbLine
 62
7
  6
CONTINUOUS
 10
-3.2481362571
 20
-12.9034989049
 11
-3.2712619508
 21
-12.9149837413
  0
LINE
  5
3EB
100
AcDbEntity
  8
0
100
AcDbLine
 62
7
  6
CONTINUOUS
 10
-3.216089806
 20
-12.88982478
 11
-3.2481362571
 21
-12.9034989049
  0
LWPOLYLINE
  5
3EC
100
AcDbEntity
  8
RACCORDO
100
AcDbPolyline
 62
7
  6
CONTINUOUS
 90
38
 70
0
 10
16.7092559358
 20
8.5354266096
 10
16.7022429834
 20
8.5330936769
 10
16.6952158972
 20
8.5307981031
 10
16.6881747586
 20
8.5285457471
 10
16.6811196489
 20
8.526342468
 10
16.6740506496
 20
8.5241941249
 10
16.6669678419
 20
8.5221065765
 10
16.662460793
 20
8.5208155134
 10
16.6579450735
 20
8.5195577229
 10
16.6534175524
 20
8.5183395799
 10
16.6488750986
 20
8.517167459
 10
16.6443145811
 20
8.5160477349
 10
16.6397328689
 20
8.5149867821
 10
16.6351268309
 20
8.5139909754
 10
16.6328687555
 20
8.513531511
 10
16.6306050303
 20
8.5130962494
 10
16.6283365484
 20
8.5126923495
 10
16.6260642032
 20
8.5123269706
 10
16.6237888879
 20
8.5120072715
 10
16.6215114956
 20
8.5117404114
 10
16.6192329197
 20
8.5115335492
 10
16.6169540534
 20
8.5113938441
 10
16.6146757899
 20
8.511328455
 10
16.6138481013
 20
8.5113260184
 10
16.6130207303
 20
8.5113437966
 10
16.6121937969
 20
8.5113912419
 10
16.6113674211
 20
8.5114778069
 10
16.6105417228
 20
8.5116129441
 10
16.609716822
 20
8.5118061058
 10
16.6088928388
 20
8.5120667446
 10
16.6084638233
 20
8.5122331626
 10
16.608042891
 20
8.5124228929
 10
16.6076378414
 20
8.5126382271
 10
16.6072564743
 20
8.5128814572
 10
16.6069065892
 20
8.5131548747
 10
16.6065959859
 20
8.5134607716
 10
16.6063324639
 20
8.5138014396
 10
16.6061238229
 20
8.5141791705
  0
LWPOLYLINE
  5
3ED
100
AcDbEntity
  8
0
100
AcDbPolyline
 62
7
  6
CONTINUOUS
 90
38
 70
0
 10
4.3967330435
 20
-25.0284155856
 10
4.3924840016
 20
-25.0303404999
 10
4.3882092603
 20
-25.0322084503
 10
4.3839126384
 20
-25.034026551
 10
4.3795979547
 20
-25.0358019165
 10
4.3752690279
 20
-25.0375416611
 10
4.3711770668
 20
-25.0391538469
 10
4.3670735405
 20
-25.0407354928
 10
4.3629561502
 20
-25.0422813993
 10
4.3588225971
 20
-25.0437863666
 10
4.3564215738
 20
-25.0446355732
 10
4.3540124076
 20
-25.0454616245
 10
4.3515931402
 20
-25.0462568219
 10
4.3491618134
 20
-25.047013467
 10
4.346716469
 20
-25.0477238611
 10
4.3442551487
 20
-25.0483803056
 10
4.3417758943
 20
-25.0489751021
 10
4.3399237117
 20
-25.0493721544
 10
4.3380618531
 20
-25.0497282783
 10
4.3361915966
 20
-25.0500407321
 10
4.3343142203
 20
-25.0503067744
 10
4.3324310023
 20
-25.0505236638
 10
4.3305432206
 20
-25.0506886586
 10
4.3286521534
 20
-25.0507990173
 10
4.3267590786
 20
-25.0508519985
 10
4.3248652745
 20
-25.0508448606
 10
4.322972019
 20
-25.0507748622
 10
4.3209549919
 20
-25.0506287302
 10
4.3189425352
 20
-25.0504099653
 10
4.3169371414
 20
-25.050120557
 10
4.3149413031
 20
-25.0497624949
 10
4.3129575126
 20
-25.0493377687
 10
4.3109882625
 20
-25.048848368
 10
4.3090360452
 20
-25.0482962823
 10
4.3071033533
 20
-25.0476835013
 10
4.3051926793
 20
-25.0470120145
 10
4.3033065155
 20
-25.0462838117
 10
4.3014473545
 20
-25.0455008823
  0
LINE
  5
3EE
100
AcDbEntity
  8
0
100
AcDbLine
 62
7
  6
CONTINUOUS
 10
-3.1828896645
 20
-12.8780468331
 11
-3.216089806
 21
-12.88982478
  0
LWPOLYLINE
  5
3EF
100
AcDbEntity
  8
RACCORDO
100
AcDbPolyline
 62
7
  6
CONTINUOUS
 90
23
 70
0
 10
-15.7723470643
 20
-9.7251173571
 10
-15.7541636581
 20
-9.7191725667
 10
-15.7360980168
 20
-9.7128766638
 10
-15.7181400281
 20
-9.7062680674
 10
-15.7002795798
 20
-9.6993851964
 10
-15.6825065596
 20
-9.6922664696
 10
-15.6648108552
 20
-9.684950306
 10
-15.6471823543
 20
-9.6774751244
 10
-15.6152420845
 20
-9.6635512979
 10
-15.5834803321
 20
-9.6492519072
 10
-15.5518864557
 20
-9.6346009654
 10
-15.5204498136
 20
-9.619622486
 10
-15.4891597644
 20
-9.6043404824
 10
-15.4552125559
 20
-9.587362436
 10
-15.4214275932
 20
-9.570058629
 10
-15.3878056176
 20
-9.5524353477
 10
-15.3543473707
 20
-9.5344988788
 10
-15.3210535937
 20
-9.5162555085
 10
-15.2898909473
 20
-9.4988161578
 10
-15.2588937578
 20
-9.4810864514
 10
-15.2280813109
 20
-9.4630420028
 10
-15.1974728924
 20
-9.4446584255
 10
-15.1670877882
 20
-9.4259113331
  0
LINE
  5
3F0
100
AcDbEntity
  8
0
100
AcDbLine
 62
7
  6
CONTINUOUS
 10
-3.1485806002
 20
-12.8681258664
 11
-3.1828896645
 21
-12.8780468331
  0
LINE
  5
3F1
100
AcDbEntity
  8
DRAFT
100
AcDbLine
 62
7
  6
CONTINUOUS
 10
36.1032672362
 20
-18.1829007655
 11
36.5308970427
 21
-18.0300354472
  0
LWPOLYLINE
  5
3F2
100
AcDbEntity
  8
0
100
AcDbPolyline
 62
7
  6
CONTINUOUS
 90
38
 70
0
 10
4.4625166319
 20
-24.9832908714
 10
4.4610871567
 20
-24.9837746595
 10
4.4596534417
 20
-24.9842521711
 10
4.4582154036
 20
-24.9847213191
 10
4.4567729592
 20
-24.9851800165
 10
4.4553260253
 20
-24.985626176
 10
4.4538745185
 20
-24.9860577105
 10
4.4524183556
 20
-24.9864725329
 10
4.4509574534
 20
-24.9868685561
 10
4.4494917287
 20
-24.987243693
 10
4.4480210981
 20
-24.9875958565
 10
4.4465454785
 20
-24.9879229593
 10
4.4450647866
 20
-24.9882229144
 10
4.4435789391
 20
-24.9884936347
 10
4.4420878528
 20
-24.9887330331
 10
4.4405914445
 20
-24.9889390224
 10
4.4390896309
 20
-24.9891095154
 10
4.4375823287
 20
-24.9892424251
 10
4.4360686484
 20
-24.9893361241
 10
4.4345505936
 20
-24.989390472
 10
4.4330293689
 20
-24.9894058417
 10
4.4315061792
 20
-24.9893826061
 10
4.4299822291
 20
-24.9893211381
 10
4.4284587233
 20
-24.9892218105
 10
4.4269368667
 20
-24.9890849962
 10
4.4254178638
 20
-24.9889110681
 10
4.4239029196
 20
-24.9887003991
 10
4.4223932387
 20
-24.9884533619
 10
4.4208900258
 20
-24.9881703296
 10
4.4193944857
 20
-24.987851675
 10
4.4179078231
 20
-24.9874977708
 10
4.4164312427
 20
-24.9871089901
 10
4.4149659493
 20
-24.9866857057
 10
4.4135131476
 20
-24.9862282904
 10
4.4120740424
 20
-24.9857371171
 10
4.4106498384
 20
-24.9852125588
 10
4.4092417403
 20
-24.9846549882
 10
4.4078509528
 20
-24.9840647782
  0
LWPOLYLINE
  5
3F3
100
AcDbEntity
  8
RACCORDO
100
AcDbPolyline
 62
7
  6
CONTINUOUS
 90
46
 70
0
 10
33.9528720748
 20
-54.0637035961
 10
33.9607723564
 20
-54.0598715735
 10
33.9685443832
 20
-54.0557490767
 10
33.9761785555
 20
-54.0513452628
 10
33.9836652733
 20
-54.0466692887
 10
33.9909949366
 20
-54.0417303116
 10
33.9981579455
 20
-54.0365374885
 10
34.0051447001
 20
-54.0310999764
 10
34.0119456006
 20
-54.0254269323
 10
34.0185510469
 20
-54.0195275133
 10
34.0249514391
 20
-54.0134108765
 10
34.0311371774
 20
-54.0070861788
 10
34.0370986618
 20
-54.0005625773
 10
34.0432509206
 20
-53.9933360072
 10
34.049137092
 20
-53.9859023508
 10
34.0547615195
 20
-53.9782739467
 10
34.0601285463
 20
-53.9704631335
 10
34.0652425156
 20
-53.9624822497
 10
34.0701077709
 20
-53.9543436338
 10
34.0747286554
 20
-53.9460596245
 10
34.0791095124
 20
-53.9376425603
 10
34.0832546852
 20
-53.9291047797
 10
34.0871685171
 20
-53.9204586214
 10
34.0908553514
 20
-53.9117164238
 10
34.0943195315
 20
-53.9028905256
 10
34.0983737376
 20
-53.8916694471
 10
34.1020926379
 20
-53.8803440932
 10
34.1054873784
 20
-53.8689234375
 10
34.1085691053
 20
-53.8574164538
 10
34.1113489647
 20
-53.8458321159
 10
34.1138381029
 20
-53.8341793974
 10
34.1160476658
 20
-53.8224672721
 10
34.1179887997
 20
-53.8107047138
 10
34.1196726506
 20
-53.7989006961
 10
34.1211103648
 20
-53.7870641929
 10
34.1223130883
 20
-53.7752041778
 10
34.1235256199
 20
-53.7600032124
 10
34.124384639
 20
-53.7447845403
 10
34.1249032851
 20
-53.7295542681
 10
34.1250946978
 20
-53.714318502
 10
34.1249720167
 20
-53.6990833487
 10
34.1245483815
 20
-53.6838549146
 10
34.1238369316
 20
-53.668639306
 10
34.1228508068
 20
-53.6534426295
 10
34.1216031466
 20
-53.6382709915
 10
34.1201070906
 20
-53.6231304984
  0
LWPOLYLINE
  5
3F4
100
AcDbEntity
  8
RACCORDO
100
AcDbPolyline
 62
7
  6
CONTINUOUS
 90
39
 70
0
 10
16.6697009049
 20
-27.9099237011
 10
16.6625491832
 20
-27.9119666809
 10
16.6553316651
 20
-27.9137881201
 10
16.6480561305
 20
-27.91539203
 10
16.6407303592
 20
-27.9167824222
 10
16.6333621311
 20
-27.9179633082
 10
16.625959226
 20
-27.9189386995
 10
16.6185294237
 20
-27.9197126075
 10
16.6110805042
 20
-27.9202890437
 10
16.6036202472
 20
-27.9206720197
 10
16.5961564326
 20
-27.920865547
 10
16.5879360491
 20
-27.9208644944
 10
16.5797240365
 20
-27.920645371
 10
16.5715236393
 20
-27.9202152612
 10
16.5633381019
 20
-27.9195812495
 10
16.5551706685
 20
-27.9187504203
 10
16.5470245836
 20
-27.9177298581
 10
16.5389030916
 20
-27.9165266474
 10
16.5308094367
 20
-27.9151478726
 10
16.5227468635
 20
-27.9136006183
 10
16.5147186163
 20
-27.9118919688
 10
16.5047869094
 20
-27.9095518646
 10
16.4949147327
 20
-27.9069818523
 10
16.4851035147
 20
-27.9041906601
 10
16.4753546845
 20
-27.9011870158
 10
16.4656696708
 20
-27.8979796474
 10
16.4560499024
 20
-27.8945772831
 10
16.4464968082
 20
-27.8909886508
 10
16.437011817
 20
-27.8872224785
 10
16.4275963576
 20
-27.8832874943
 10
16.4171963031
 20
-27.8787174691
 10
16.4068843046
 20
-27.8739562066
 10
16.3966604489
 20
-27.8690109239
 10
16.3865248229
 20
-27.8638888379
 10
16.3764775135
 20
-27.8585971655
 10
16.3665186077
 20
-27.8531431237
 10
16.3566481923
 20
-27.8475339294
 10
16.3468663542
 20
-27.8417767996
 10
16.3371731804
 20
-27.8358789512
  0
LINE
  5
3F5
100
AcDbEntity
  8
RACCORDO
100
AcDbLine
 62
7
  6
CONTINUOUS
 10
34.1201070906
 20
-53.6231304984
 11
35.9652116177
 21
-52.769987172
  0
LINE
  5
3F6
100
AcDbEntity
  8
RACCORDO
100
AcDbLine
 62
7
  6
CONTINUOUS
 10
33.9528193158
 20
-54.0637294969
 11
35.7315471405
 21
-53.241277571
  0
LINE
  5
3F7
100
AcDbEntity
  8
RACCORDO
100
AcDbLine
 62
7
  6
CONTINUOUS
 10
33.940501244
 20
-54.0692043704
 11
33.952844702
 21
-54.0637138743
  0
LINE
  5
3F8
100
AcDbEntity
  8
RACCORDO
100
AcDbLine
 62
7
  6
CONTINUOUS
 10
33.9040549564
 20
-54.083004366
 11
33.940501244
 21
-54.0692043704
  0
LINE
  5
3F9
100
AcDbEntity
  8
RACCORDO
100
AcDbLine
 62
7
  6
CONTINUOUS
 10
33.8659314642
 20
-54.0939070203
 11
33.9040549564
 21
-54.083004366
  0
ARC
  5
3FA
100
AcDbEntity
  8
RACCORDO
100
AcDbCircle
 62
7
  6
CONTINUOUS
 10
416.2962056836
 20
17.5482963494
 40
447.636369139
100
AcDbArc
 50
177.6302199956
 51
182.3533539593
  0
ARC
  5
3FB
100
AcDbEntity
  8
RACCORDO
100
AcDbCircle
 62
7
  6
CONTINUOUS
 10
464.0329534984
 20
-10.1010289499
 40
447.5126373922
100
AcDbArc
 50
177.7131948584
 51
182.2868051416
  0
ARC
  5
3FC
100
AcDbEntity
  8
RACCORDO
100
AcDbCircle
 62
7
  6
CONTINUOUS
 10
392.0102110777
 20
8.7583626556
 40
408.401745577
100
AcDbArc
 50
177.4771121468
 51
180.9796953124
  0
ARC
  5
3FD
100
AcDbEntity
  8
RACCORDO
100
AcDbCircle
 62
7
  6
CONTINUOUS
 10
365.7751947251
 20
8.3352290335
 40
382.1632207449
100
AcDbArc
 50
181.089726639
 51
182.5964873874
  0
ARC
  5
3FE
100
AcDbEntity
  8
0
100
AcDbCircle
 62
7
  6
CONTINUOUS
 10
143.5482995885
 20
-14.5902351629
 40
140.2734304623
100
AcDbArc
 50
183.796116852
 51
184.0432551452
  0
ARC
  5
3FF
100
AcDbEntity
  8
0
100
AcDbCircle
 62
7
  6
CONTINUOUS
 10
137.8348737554
 20
-11.961348939
 40
139.2333987919
100
AcDbArc
 50
183.640458099
 51
184.5461640299
  0
ARC
  5
400
100
AcDbEntity
  8
0
100
AcDbCircle
 62
7
  6
CONTINUOUS
 10
137.4216348956
 20
-11.7227500005
 40
139.2333987919
100
AcDbArc
 50
183.640458099
 51
184.5461640299
  0
ARC
  5
401
100
AcDbEntity
  8
0
100
AcDbCircle
 62
7
  6
CONTINUOUS
 10
142.0944889491
 20
-14.432765497
 40
139.2150384427
100
AcDbArc
 50
183.6510394402
 51
184.5461878729
  0
ARC
  5
402
100
AcDbEntity
  8
0
100
AcDbCircle
 62
7
  6
CONTINUOUS
 10
137.2965596971
 20
-11.668994902
 40
139.0019660341
100
AcDbArc
 50
183.6960686536
 51
184.5505561861
  0
ARC
  5
403
100
AcDbEntity
  8
0
100
AcDbCircle
 62
7
  6
CONTINUOUS
 10
141.9818773807
 20
-14.3780601769
 40
138.9961054201
100
AcDbArc
 50
183.6994519818
 51
184.5505634897
  0
ARC
  5
404
100
AcDbEntity
  8
0
100
AcDbCircle
 62
7
  6
CONTINUOUS
 10
141.5764767261
 20
-14.7422837948
 40
138.2826774565
100
AcDbArc
 50
184.1910007012
 51
184.5470283358
  0
ARC
  5
405
100
AcDbEntity
  8
RACCORDO
100
AcDbCircle
 62
7
  6
CONTINUOUS
 10
-26.1480556191
 20
51.209253327
 40
4.9151073023
100
AcDbArc
 50
68.5283883158
 51
69.7385411844
  0
ARC
  5
406
100
AcDbEntity
  8
RACCORDO
100
AcDbCircle
 62
7
  6
CONTINUOUS
 10
32.0259170989
 20
-49.5476352409
 40
4.9128375324
100
AcDbArc
 50
350.2149975074
 51
351.4731422387
  0
ARC
  5
407
100
AcDbEntity
  8
RACCORDO
100
AcDbCircle
 62
7
  6
CONTINUOUS
 10
-25.7894246313
 20
52.9476628227
 40
3.1298892153
100
AcDbArc
 50
90.0075330961
 51
92.0051008042
  0
ARC
  5
408
100
AcDbEntity
  8
RACCORDO
100
AcDbCircle
 62
7
  6
CONTINUOUS
 10
33.7087350245
 20
-50.1060203953
 40
3.1296399477
100
AcDbArc
 50
328.0335003899
 51
329.9931447403
  0
ARC
  5
409
100
AcDbEntity
  8
RACCORDO
100
AcDbCircle
 62
7
  6
CONTINUOUS
 10
33.7541243398
 20
-50.134098297
 40
3.0762684795
100
AcDbArc
 50
327.4222858113
 51
328.0295880852
  0
ARC
  5
40A
100
AcDbEntity
  8
RACCORDO
100
AcDbCircle
 62
7
  6
CONTINUOUS
 10
14.7392599578
 20
7.6540846293
 40
2.1581555458
100
AcDbArc
 50
24.7360803723
 51
26.341828752
  0
ARC
  5
40B
100
AcDbEntity
  8
RACCORDO
100
AcDbCircle
 62
7
  6
CONTINUOUS
 10
14.7491703718
 20
7.6586699365
 40
2.1472357915
100
AcDbArc
 50
24.0992154097
 51
24.7356086873
  0
ARC
  5
40C
100
AcDbEntity
  8
0
100
AcDbCircle
 62
7
  6
CONTINUOUS
 10
3.9286600445
 20
-25.4362484301
 40
0.5313991885
100
AcDbArc
 50
42.1250474874
 51
45.3093777278
  0
ARC
  5
40D
100
AcDbEntity
  8
RACCORDO
100
AcDbCircle
 62
7
  6
CONTINUOUS
 10
-14.960376325
 20
26.8078920027
 40
0.3163490028
100
AcDbArc
 50
115.0444675052
 51
130.8010852301
  0
ARC
  5
40E
100
AcDbEntity
  8
RACCORDO
100
AcDbCircle
 62
7
  6
CONTINUOUS
 10
16.6024621188
 20
-27.6875695188
 40
0.2322981635
100
AcDbArc
 50
286.8250524965
 51
293.2306044663
  0
ARC
  5
40F
100
AcDbEntity
  8
0
100
AcDbCircle
 62
7
  6
CONTINUOUS
 10
4.3036171842
 20
-24.8172985913
 40
0.230560099
100
AcDbArc
 50
299.9986331378
 51
303.4004325513
  0
ARC
  5
410
100
AcDbEntity
  8
RACCORDO
100
AcDbCircle
 62
7
  6
CONTINUOUS
 10
16.6050831043
 20
-27.6939208911
 40
0.2254279481
100
AcDbArc
 50
293.2551824604
 51
299.7545121003
  0
ARC
  5
411
100
AcDbEntity
  8
0
100
AcDbCircle
 62
7
  6
CONTINUOUS
 10
-1.0675413649
 20
-14.7137925331
 40
0.1742884166
100
AcDbArc
 50
357.0292519559
 51
0.0018584391
  0
ELLIPSE
  5
412
100
AcDbEntity
  8
RACCORDO
100
AcDbEllipse
 62
7
  6
CONTINUOUS
 10
35.2571344414
 20
-52.3589128608
 30
0.0
 11
-0.5013954353
 21
0.868386877
 31
0.0
 40
0.5757524875
 41
-3.1936911674
 42
-2.3576120761
  0
ELLIPSE
  5
413
100
AcDbEntity
  8
RACCORDO
100
AcDbEllipse
 62
7
  6
CONTINUOUS
 10
35.2571344414
 20
19.4882305376
 30
0.0
 11
-0.5000243598
 21
0.8660113392
 31
0.0
 40
0.5789151826
 41
-2.3548735497
 42
-0.7868162787
  0
ELLIPSE
  5
414
100
AcDbEntity
  8
0
100
AcDbEllipse
 62
7
  6
CONTINUOUS
 10
119.0480063477
 20
55.8613765441
 30
0.0
 11
114.8996317544
 21
126.3505868295
 31
0.0
 40
0.3765254089
 41
-3.7743605251
 42
-3.7575864559
  0
ELLIPSE
  5
415
100
AcDbEntity
  8
0
100
AcDbEllipse
 62
7
  6
CONTINUOUS
 10
112.8572835784
 20
59.4358222831
 30
0.0
 11
34.8790515577
 21
168.2218372011
 31
0.0
 40
0.7002280922
 41
-4.083553027
 42
-4.0720093448
  0
ELLIPSE
  5
416
100
AcDbEntity
  8
0
100
AcDbEllipse
 62
7
  6
CONTINUOUS
 10
118.3040728896
 20
56.2909143991
 30
0.0
 11
91.793176838
 21
140.2511436908
 31
0.0
 40
0.5363054271
 41
-3.8203221232
 42
-3.8093664661
  0
ELLIPSE
  5
417
100
AcDbEntity
  8
0
100
AcDbEllipse
 62
7
  6
CONTINUOUS
 10
122.1739397193
 20
54.0565017925
 30
0.0
 11
119.630873242
 21
123.5739552196
 31
0.0
 40
0.3382731367
 41
-3.7657029519
 42
-3.7547929514
  0
ELLIPSE
  5
418
100
AcDbEntity
  8
0
100
AcDbEllipse
 62
7
  6
CONTINUOUS
 10
118.2338392071
 20
56.3314664472
 30
0.0
 11
70.634700218
 21
152.2499801326
 31
0.0
 40
0.6282888553
 41
-3.9123018102
 42
-3.8955277411
  0
ELLIPSE
  5
419
100
AcDbEntity
  8
0
100
AcDbEllipse
 62
7
  6
CONTINUOUS
 10
114.6704547279
 20
58.3889199857
 30
0.0
 11
11.1145125674
 21
175.7752122584
 31
0.0
 40
0.7158559188
 41
-4.1973507117
 42
-4.188040463
  0
ELLIPSE
  5
41A
100
AcDbEntity
  8
0
100
AcDbEllipse
 62
7
  6
CONTINUOUS
 10
122.8119119998
 20
53.6881445934
 30
0.0
 11
112.236268736
 21
127.9318388222
 31
0.0
 40
0.3975597956
 41
-3.7637364601
 42
-3.7603859388
  0
ELLIPSE
  5
41B
100
AcDbEntity
  8
0
100
AcDbEllipse
 62
7
  6
CONTINUOUS
 10
117.8664985802
 20
56.5435643212
 30
0.0
 11
27.6951435486
 21
170.7397539322
 31
0.0
 40
0.7069483398
 41
-4.1183397783
 42
-4.1015657091
  0
ELLIPSE
  5
41C
100
AcDbEntity
  8
0
100
AcDbEllipse
 62
7
  6
CONTINUOUS
 10
122.7265469834
 20
53.737433284
 30
0.0
 11
111.5409348807
 21
128.3466174189
 31
0.0
 40
0.4029729773
 41
-3.7734299492
 42
-3.7672052666
  0
ELLIPSE
  5
41D
100
AcDbEntity
  8
DRAFT
100
AcDbEllipse
 62
7
  6
CONTINUOUS
 10
31.7567784214
 20
-11.9325665033
 30
0.0
 11
5.1478346794
 21
0.9575482268
 31
0.0
 40
0.6665647798
 41
-0.7006982462
 42
-0.2750682551
  0
ELLIPSE
  5
41E
100
AcDbEntity
  8
0
100
AcDbEllipse
 62
7
  6
CONTINUOUS
 10
-12.6829586118
 20
-8.1049392591
 30
0.0
 11
-0.4000194878
 21
0.6928090714
 31
0.0
 40
0.5789151826
 41
0.7867191038
 42
2.3547763749
  0
ELLIPSE
  5
41F
100
AcDbEntity
  8
RACCORDO
100
AcDbEllipse
 62
7
  6
CONTINUOUS
 10
-26.9663215127
 20
55.4152741624
 30
0.0
 11
-0.5013954353
 21
0.868386877
 31
0.0
 40
0.5757524875
 41
-0.7840766935
 42
0.0520985859
  0
ELLIPSE
  5
420
100
AcDbEntity
  8
0
100
AcDbEllipse
 62
7
  6
CONTINUOUS
 10
114.2804410289
 20
58.6141090075
 30
0.0
 11
10.3267110211
 21
175.9897840662
 31
0.0
 40
0.7160762854
 41
-4.1952272933
 42
-4.1842716361
  0
ELLIPSE
  5
421
100
AcDbEntity
  8
0
100
AcDbEllipse
 62
7
  6
CONTINUOUS
 10
118.1149513446
 20
56.4001108089
 30
0.0
 11
74.7936860181
 21
150.0170875047
 31
0.0
 40
0.6139811386
 41
-3.8878369839
 42
-3.8769269833
  0
ELLIPSE
  5
422
100
AcDbEntity
  8
0
100
AcDbEllipse
 62
7
  6
CONTINUOUS
 10
121.7570175747
 20
54.2972274135
 30
0.0
 11
119.1887867979
 21
123.8315627285
 31
0.0
 40
0.3418816387
 41
-3.7717111746
 42
-3.7624009259
  0
ELLIPSE
  5
423
100
AcDbEntity
  8
0
100
AcDbEllipse
 62
7
  6
CONTINUOUS
 10
122.6635112998
 20
53.7738292976
 30
0.0
 11
114.2761852079
 21
126.7196181975
 31
0.0
 40
0.3814884295
 41
-3.7749362596
 42
-3.7581621904
  0
ELLIPSE
  5
424
100
AcDbEntity
  8
0
100
AcDbEllipse
 62
7
  6
CONTINUOUS
 10
117.803321284
 20
56.5800421003
 30
0.0
 11
36.2948103059
 21
167.6997948705
 31
0.0
 40
0.6986691259
 41
-4.0632503059
 42
-4.0598997846
  0
ELLIPSE
  5
425
100
AcDbEntity
  8
0
100
AcDbEllipse
 62
7
  6
CONTINUOUS
 10
117.9233160909
 20
56.5107586027
 30
0.0
 11
39.144967187
 21
166.622327116
 31
0.0
 40
0.6952787603
 41
-4.0582033802
 42
-4.0519786976
  0
ELLIPSE
  5
426
100
AcDbEntity
  8
0
100
AcDbEllipse
 62
7
  6
CONTINUOUS
 10
117.9233160909
 20
56.5107586027
 30
0.0
 11
39.1098980172
 21
166.4730536049
 31
0.0
 40
0.6952787603
 41
-4.0581356351
 42
-4.0519053363
  0
ELLIPSE
  5
427
100
AcDbEntity
  8
0
100
AcDbEllipse
 62
7
  6
CONTINUOUS
 10
117.803321284
 20
56.5800421003
 30
0.0
 11
36.2622945329
 21
167.5495560783
 31
0.0
 40
0.6986691259
 41
-4.0631746043
 42
-4.0598210564
  0
ELLIPSE
  5
428
100
AcDbEntity
  8
0
100
AcDbEllipse
 62
7
  6
CONTINUOUS
 10
122.6635112998
 20
53.7738292976
 30
0.0
 11
114.1738075272
 21
126.6060927015
 31
0.0
 40
0.3814884295
 41
-3.7739014683
 42
-3.7580834622
  0
ELLIPSE
  5
429
100
AcDbEntity
  8
0
100
AcDbEllipse
 62
7
  6
CONTINUOUS
 10
114.2804410289
 20
58.6141090075
 30
0.0
 11
10.3174595334
 21
175.8321184433
 31
0.0
 40
0.7160762854
 41
-4.1951584555
 42
-4.1843514627
  0
ELLIPSE
  5
42A
100
AcDbEntity
  8
0
100
AcDbEllipse
 62
7
  6
CONTINUOUS
 10
118.1149513446
 20
56.4001108089
 30
0.0
 11
74.7266798953
 21
149.8826902858
 31
0.0
 40
0.6139811386
 41
-3.8877681049
 42
-3.8768482551
  0
ELLIPSE
  5
42B
100
AcDbEntity
  8
0
100
AcDbEllipse
 62
7
  6
CONTINUOUS
 10
121.7570175747
 20
54.2972274135
 30
0.0
 11
119.0820080186
 21
123.7206245819
 31
0.0
 40
0.3418816387
 41
-3.7706765582
 42
-3.7623289378
  0
ELLIPSE
  5
42C
100
AcDbEntity
  8
0
100
AcDbEllipse
 62
7
  6
CONTINUOUS
 10
118.1293950332
 20
56.3917712041
 30
0.0
 11
93.9929009386
 21
138.7583599347
 31
0.0
 40
0.5232362147
 41
-3.8175129253
 42
-3.8016949217
  0
ELLIPSE
  5
42D
100
AcDbEntity
  8
0
100
AcDbEllipse
 62
7
  6
CONTINUOUS
 10
118.3330999851
 20
56.274154518
 30
0.0
 11
111.878972645
 21
127.9702912935
 31
0.0
 40
0.3995644544
 41
-3.7764422127
 42
-3.7658593517
  0
ELLIPSE
  5
42E
100
AcDbEntity
  8
0
100
AcDbEllipse
 62
7
  6
CONTINUOUS
 10
112.0725983188
 20
59.8888897176
 30
0.0
 11
25.1523857375
 21
171.4190137311
 31
0.0
 40
0.7088651675
 41
-4.1294456824
 42
-4.1136276763
  0
ELLIPSE
  5
42F
100
AcDbEntity
  8
0
100
AcDbEllipse
 62
7
  6
CONTINUOUS
 10
118.3330999851
 20
56.274154518
 30
0.0
 11
111.9792925869
 21
128.0850400428
 31
0.0
 40
0.3995644544
 41
-3.7774770381
 42
-3.7659333559
  0
ELLIPSE
  5
430
100
AcDbEntity
  8
0
100
AcDbEllipse
 62
7
  6
CONTINUOUS
 10
112.0725983188
 20
59.8888897176
 30
0.0
 11
25.1749394473
 21
171.5727221992
 31
0.0
 40
0.7088651675
 41
-4.1304804737
 42
-4.1137064045
  0
ELLIPSE
  5
431
100
AcDbEntity
  8
DRAFT
100
AcDbEllipse
 62
7
  6
CONTINUOUS
 10
31.7567784214
 20
-17.3393456742
 30
0.0
 11
5.1774686765
 21
-0.6785096723
 31
0.0
 40
0.4693271057
 41
-0.5159119978
 42
-0.0902820066
  0
ELLIPSE
  5
432
100
AcDbEntity
  8
0
100
AcDbEllipse
 62
7
  6
CONTINUOUS
 10
118.1293950332
 20
56.3917712041
 30
0.0
 11
94.077182749
 21
138.8827821588
 31
0.0
 40
0.5232362147
 41
-3.8185477191
 42
-3.8017736499
  0
ENDSEC
  0
SECTION
  2
OBJECTS
  0
DICTIONARY
  5
C
100
AcDbDictionary
280
0
281
1
  3
ACAD_GROUP
350
D
  3
ACAD_MLINESTYLE
350
17
  3
ACAD_LAYOUT
350
1A
  3
ACAD_PLOTSETTINGS
350
19
  3
ACAD_PLOTSTYLENAME
350
E
  0
DICTIONARY
  5
D
102
{ACAD_REACTORS
330
C
102
}
100
AcDbDictionary
280
0
281
1
  0
ACDBDICTIONARYWDFLT
  5
E
102
{ACAD_REACTORS
330
C
102
}
100
AcDbDictionary
281
1
  3
Normal
350
F
100
AcDbDictionaryWithDefault
340
F
  0
DICTIONARY
  5
17
102
{ACAD_REACTORS
330
C
102
}
100
AcDbDictionary
280
0
281
1
  3
Standard
350
18
  0
DICTIONARY
  5
19
102
{ACAD_REACTORS
330
C
102
}
100
AcDbDictionary
281
1
  0
DICTIONARY
  5
1A
102
{ACAD_REACTORS
330
C
102
}
100
AcDbDictionary
281
1
  3
Model
350
433
  3
Layout1
350
434
  0
ACDBPLACEHOLDER
  5
F
102
{ACAD_REACTORS
330
E
102
}
  0
MLINESTYLE
  5
18
102
{ACAD_REACTORS
330
17
102
}
100
AcDbMlineStyle
  2
STANDARD
 70
0
  3

 62
256
 51
90.0
 52
90.0
 71
2
 49
0.5
 62
256
  6
BYLAYER
 49
-0.5
 62
256
  6
BYLAYER
  0
LAYOUT
  5
433
102
{ACAD_REACTORS
330
1A
102
}
100
AcDbPlotSettings
  1

  2
none_device
  4
ISO_A4_(297.00_x_210.00_MM)
  6

 40
0.0
 41
0.0
 42
0.0
 43
0.0
 44
297.0
 45
210.0
 46
0.0
 47
0.0
 48
0.0
 49
0.0
140
0.0
141
0.0
142
1.0
143
1.0
 70
1024
 72
1
 73
0
 74
0
  7

 75
0
147
1.0
148
0.0
149
0.0
100
AcDbLayout
  1
Model
 70
0
 71
0
 10
0.0
 20
0.0
 11
297.0
 21
210.0
 12
0.0
 22
0.0
 32
0.0
 14
0.0
 24
0.0
 34
0.0
 15
0.0
 25
0.0
 35
0.0
146
0.0
 13
0.0
 23
0.0
 33
0.0
 16
1.0
 26
0.0
 36
0.0
 17
0.0
 27
1.0
 37
0.0
 76
0
330
212
345
0
346
0
  0
LAYOUT
  5
434
102
{ACAD_REACTORS
330
1A
102
}
100
AcDbPlotSettings
  1

  2
none_device
  4
ISO_A4_(297.00_x_210.00_MM)
  6

 40
0.0
 41
0.0
 42
0.0
 43
0.0
 44
297.0
 45
210.0
 46
0.0
 47
0.0
 48
0.0
 49
0.0
140
0.0
141
0.0
142
1.0
143
1.0
 70
0
 72
1
 73
0
 74
0
  7

 75
0
147
1.0
148
0.0
149
0.0
100
AcDbLayout
  1
Layout1
 70
0
 71
1
 10
0.0
 20
0.0
 11
297.0
 21
210.0
 12
0.0
 22
0.0
 32
0.0
 14
0.0
 24
0.0
 34
0.0
 15
0.0
 25
0.0
 35
0.0
146
0.0
 13
0.0
 23
0.0
 33
0.0
 16
1.0
 26
0.0
 36
0.0
 17
0.0
 27
1.0
 37
0.0
 76
0
330
213
345
0
346
0
  0
ENDSEC
  0
EOF
