  0
SECTION
  2
HEADER
  9
$ACADVER
  1
AC1024
  9
$DWGCODEPAGE
  3
ANSI_1252
  9
$EXTMAX
 10
297.0
 20
210.0
 30
0.0
  9
$EXTMIN
 10
0.0
 20
0.0
 30
0.0
  9
$LIMMIN
 10
0.0
 20
0.0
  9
$LIMMAX
 10
297.0
 20
210.0
  9
$VIEWCTR
 10
148.5
 20
105.0
  9
$VIEWSIZE
 40
210.0
  9
$CLAYER
  8
0
  9
$LTSCALE
 40
16.335
  9
$CELTYPE
  6
BYLAYER
  9
$DIMSCALE
 40
1.0
  9
$DIMASZ
 40
3.0
  9
$DIMEXO
 40
0.5
  9
$DIMDLI
 40
11.286
  9
$DIMEXE
 40
1.5
  9
$DIMCEN
 40
2.673
  9
$DIMLFAC
 40
1.0
  9
$DIMBLK
  1
_FILLED
  9
$DIMALT
 70
0
  9
$DIMALTF
 40
0.0393700787
  9
$DIMTXT
 40
3.0
  9
$DIMTOL
 70
1
  9
$DIMLIM
 70
0
  9
$DIMTFAC
 40
1.0
  9
$DIMTP
 40
0.01
  9
$DIMTM
 40
0.01
  9
$DIMGAP
 40
0.625
  9
$DIMDSEP
 70
44
  9
$AUNITS
 70
0
  9
$PDMODE
 70
3
  9
$PDSIZE
 40
3.0
  9
$HANDSEED
  5
567
  9
$TILEMODE
 70
1
  9
$MEASUREMENT
 70
1
  9
$INSUNITS
 70
4
  0
ENDSEC
  0
SECTION
  2
CLASSES
  0
CLASS
  1
ACDBDICTIONARYWDFLT
  2
AcDbDictionaryWithDefault
  3
AutoCAD 2000
 90
0
 91
1
280
0
281
0
  0
CLASS
  1
ACDBPLACEHOLDER
  2
AcDbPlaceHolder
  3
AutoCAD 2000
 90
0
 91
1
280
0
281
0
  0
CLASS
  1
LAYOUT
  2
AcDbLayout
  3
AutoCAD 2000
 90
0
 91
0
280
0
281
0
  0
ENDSEC
  0
SECTION
  2
TABLES
  0
TABLE
  2
VPORT
  5
8
100
AcDbSymbolTable
 70
2
  0
VPORT
  5
1F4
100
AcDbSymbolTableRecord
100
AcDbViewportTableRecord
  2
*ACTIVE
 70
0
 10
0.0
 20
0.0
 11
1.0
 21
1.0
 12
148.5
 22
105.0
 13
0.0
 23
0.0
 14
1.0
 24
1.0
 15
0.0
 25
0.0
 16
0.0
 26
0.0
 36
1.0
 17
0.0
 27
0.0
 37
0.0
 40
210.0
 41
1.4142857143
 42
50.0
 43
0.0
 44
0.0
 50
0.0
 51
0.0
 71
0
 72
100
 73
1
 74
1
 75
0
 76
0
 77
0
 78
0
  0
ENDTAB
  0
TABLE
  2
LTYPE
  5
5
100
AcDbSymbolTable
 70
6
  0
LTYPE
  5
14
100
AcDbSymbolTableRecord
100
AcDbLinetypeTableRecord
  2
BYBLOCK
 70
0
  3

 72
65
 73
0
 40
0.0
  0
LTYPE
  5
15
100
AcDbSymbolTableRecord
100
AcDbLinetypeTableRecord
  2
BYLAYER
 70
0
  3

 72
65
 73
0
 40
0.0
  0
LTYPE
  5
16
100
AcDbSymbolTableRecord
100
AcDbLinetypeTableRecord
  2
CONTINUOUS
 70
64
  3
Solid line
 72
65
 73
0
 40
0.0
  0
LTYPE
  5
1F5
100
AcDbSymbolTableRecord
100
AcDbLinetypeTableRecord
  2
CENTER
 70
64
  3
____ _ ____ _ ____ _ ____ _ ____ _ ____ _ ____
 72
65
 73
4
 40
0.6
 49
0.375
 74
0
 49
-0.075
 74
0
 49
0.075
 74
0
 49
-0.075
 74
0
  0
LTYPE
  5
1F6
100
AcDbSymbolTableRecord
100
AcDbLinetypeTableRecord
  2
HIDDEN
 70
64
  3
- - - - - - - - - - - - - - - - - - - -
 72
65
 73
2
 40
0.2
 49
0.1
 74
0
 49
-0.1
 74
0
  0
LTYPE
  5
1F7
100
AcDbSymbolTableRecord
100
AcDbLinetypeTableRecord
  2
PHANTOM
 70
64
  3
_____ _ _ _____ _ _ _____ _ _ _____
 72
65
 73
6
 40
0.8
 49
0.45
 74
0
 49
-0.05
 74
0
 49
0.1
 74
0
 49
-0.05
 74
0
 49
0.1
 74
0
 49
-0.05
 74
0
  0
LTYPE
  5
1F8
100
AcDbSymbolTableRecord
100
AcDbLinetypeTableRecord
  2
DOT
 70
64
  3
. . . . . . . . . . . . . . . . . . . .
 72
65
 73
2
 40
0.2
 49
0.1
 74
0
 49
-0.1
 74
0
  0
LTYPE
  5
1F9
100
AcDbSymbolTableRecord
100
AcDbLinetypeTableRecord
  2
DASHED
 70
64
  3
- - - - - - - - - - - - - - - - - - - -
 72
65
 73
2
 40
0.2
 49
0.1
 74
0
 49
-0.1
 74
0
  0
ENDTAB
  0
TABLE
  2
LAYER
  5
2
100
AcDbSymbolTable
 70
36
  0
LAYER
  5
10
100
AcDbSymbolTableRecord
100
AcDbLayerTableRecord
  2
0
 70
0
 62
7
  6
CONTINUOUS
370
-3
390
F
  0
LAYER
  5
1FA
100
AcDbSymbolTableRecord
100
AcDbLayerTableRecord
  2
DEFAULT_1
 70
0
 62
7
  6
CENTER
370
-3
390
F
  0
LAYER
  5
1FB
100
AcDbSymbolTableRecord
100
AcDbLayerTableRecord
  2
DEFAULT_2
 70
0
 62
7
  6
HIDDEN
370
-3
390
F
  0
LAYER
  5
1FC
100
AcDbSymbolTableRecord
100
AcDbLayerTableRecord
  2
DEFAULT_3
 70
0
 62
7
  6
PHANTOM
370
-3
390
F
  0
LAYER
  5
1FD
100
AcDbSymbolTableRecord
100
AcDbLayerTableRecord
  2
ASSI
 70
0
 62
7
  6
CONTINUOUS
370
-3
390
F
  0
LAYER
  5
1FE
100
AcDbSymbolTableRecord
100
AcDbLayerTableRecord
  2
COORDINATE
 70
0
 62
7
  6
CONTINUOUS
370
-3
390
F
  0
LAYER
  5
1FF
100
AcDbSymbolTableRecord
100
AcDbLayerTableRecord
  2
COPY_PUBLISH
 70
0
 62
7
  6
CONTINUOUS
370
-3
390
F
  0
LAYER
  5
200
100
AcDbSymbolTableRecord
100
AcDbLayerTableRecord
  2
COSMETIC
 70
0
 62
7
  6
CONTINUOUS
370
-3
390
F
  0
LAYER
  5
201
100
AcDbSymbolTableRecord
100
AcDbLayerTableRecord
  2
COSMETICI
 70
0
 62
7
  6
CONTINUOUS
370
-3
390
F
  0
LAYER
  5
202
100
AcDbSymbolTableRecord
100
AcDbLayerTableRecord
  2
CURVE
 70
0
 62
7
  6
CONTINUOUS
370
-3
390
F
  0
LAYER
  5
203
100
AcDbSymbolTableRecord
100
AcDbLayerTableRecord
  2
CURVE_VERN
 70
0
 62
7
  6
CONTINUOUS
370
-3
390
F
  0
LAYER
  5
204
100
AcDbSymbolTableRecord
100
AcDbLayerTableRecord
  2
DRAFT
 70
0
 62
7
  6
CONTINUOUS
370
-3
390
F
  0
LAYER
  5
205
100
AcDbSymbolTableRecord
100
AcDbLayerTableRecord
  2
IMPORT_IGES
 70
0
 62
7
  6
CONTINUOUS
370
-3
390
F
  0
LAYER
  5
206
100
AcDbSymbolTableRecord
100
AcDbLayerTableRecord
  2
INTFCLR_1
 70
0
 62
7
  6
CONTINUOUS
370
-3
390
F
  0
LAYER
  5
207
100
AcDbSymbolTableRecord
100
AcDbLayerTableRecord
  2
INTF_1
 70
0
 62
7
  6
CONTINUOUS
370
-3
390
F
  0
LAYER
  5
208
100
AcDbSymbolTableRecord
100
AcDbLayerTableRecord
  2
INTF_CYAN
 70
0
 62
7
  6
CONTINUOUS
370
-3
390
F
  0
LAYER
  5
209
100
AcDbSymbolTableRecord
100
AcDbLayerTableRecord
  2
NOTE
 70
0
 62
7
  6
CONTINUOUS
370
-3
390
F
  0
LAYER
  5
20A
100
AcDbSymbolTableRecord
100
AcDbLayerTableRecord
  2
PIANI
 70
0
 62
7
  6
CONTINUOUS
370
-3
390
F
  0
LAYER
  5
20B
100
AcDbSymbolTableRecord
100
AcDbLayerTableRecord
  2
PUNTI
 70
0
 62
7
  6
CONTINUOUS
370
-3
390
F
  0
LAYER
  5
20C
100
AcDbSymbolTableRecord
100
AcDbLayerTableRecord
  2
RACCORDO
 70
0
 62
7
  6
CONTINUOUS
370
-3
390
F
  0
LAYER
  5
20D
100
AcDbSymbolTableRecord
100
AcDbLayerTableRecord
  2
RGB____0____0____0__
 70
0
 62
7
  6
CONTINUOUS
370
-3
390
F
  0
LAYER
  5
20E
100
AcDbSymbolTableRecord
100
AcDbLayerTableRecord
  2
SIMBOLI
 70
0
 62
7
  6
CONTINUOUS
370
-3
390
F
  0
LAYER
  5
20F
100
AcDbSymbolTableRecord
100
AcDbLayerTableRecord
  2
SMUSSO
 70
0
 62
7
  6
CONTINUOUS
370
-3
390
F
  0
LAYER
  5
210
100
AcDbSymbolTableRecord
100
AcDbLayerTableRecord
  2
SNAPLINE
 70
0
 62
7
  6
CONTINUOUS
370
-3
390
F
  0
LAYER
  5
211
100
AcDbSymbolTableRecord
100
AcDbLayerTableRecord
  2
SUPERFICI
 70
0
 62
7
  6
CONTINUOUS
370
-3
390
F
  0
LAYER
  5
212
100
AcDbSymbolTableRecord
100
AcDbLayerTableRecord
  2
TRASH
 70
0
 62
7
  6
CONTINUOUS
370
-3
390
F
  0
LAYER
  5
213
100
AcDbSymbolTableRecord
100
AcDbLayerTableRecord
  2
XSEC_DATUMS
 70
0
 62
7
  6
CONTINUOUS
370
-3
390
F
  0
ENDTAB
  0
TABLE
  2
STYLE
  5
3
100
AcDbSymbolTable
 70
1
  0
STYLE
  5
11
100
AcDbSymbolTableRecord
100
AcDbTextStyleTableRecord
  2
STANDARD
 70
0
 40
0.0
 41
0.8
 50
0.0
 71
0
 42
0.2
  3
txt
  4

  0
STYLE
  5
214
100
AcDbSymbolTableRecord
100
AcDbTextStyleTableRecord
  2
TEXTSTYLE_1
 70
0
 40
0.0
 41
0.8
 50
0.0
 71
0
 42
0.2
  3
gdt
  4

  0
ENDTAB
  0
TABLE
  2
VIEW
  5
6
100
AcDbSymbolTable
 70
0
  0
ENDTAB
  0
TABLE
  2
UCS
  5
7
100
AcDbSymbolTable
 70
0
  0
ENDTAB
  0
TABLE
  2
APPID
  5
9
100
AcDbSymbolTable
 70
1
  0
APPID
  5
215
100
AcDbSymbolTableRecord
100
AcDbRegAppTableRecord
  2
ACAD
 70
0
  0
ENDTAB
  0
TABLE
  2
BLOCK_RECORD
  5
1
100
AcDbSymbolTable
 70
0
  0
BLOCK_RECORD
  5
216
100
AcDbSymbolTableRecord
100
AcDbBlockTableRecord
  2
*Model_Space
  0
BLOCK_RECORD
  5
217
100
AcDbSymbolTableRecord
100
AcDbBlockTableRecord
  2
*Paper_Space
  0
BLOCK_RECORD
  5
218
100
AcDbSymbolTableRecord
100
AcDbBlockTableRecord
  2
_FILLED
  0
ENDTAB
  0
TABLE
  2
DIMSTYLE
  5
A
100
AcDbSymbolTable
 70
1
100
AcDbDimStyleTable
 71
0
  0
DIMSTYLE
105
219
100
AcDbSymbolTableRecord
100
AcDbDimStyleTableRecord
  2
STANDARD
 70
0
  3

  4

 40
1.0
 41
3.0
 42
0.5
 43
0.38
 44
1.5
 45
0.0
 46
0.0
 47
0.01
 48
0.01
140
3.0
141
0.09
142
0.0
143
25.4
144
1.0
145
0.0
146
1.0
147
0.625
 71
1
 72
0
 73
0
 74
0
 75
0
 76
0
 77
1
 78
8
 79
2
170
0
171
1
172
0
173
0
174
0
175
0
176
0
177
0
178
0
270
2
179
2
271
2
272
2
273
2
274
2
275
0
280
0
281
0
282
0
283
1
284
8
285
0
286
0
287
3
288
0
340
11
278
44
341
218
342
218
343
218
344
218
  0
ENDTAB
  0
ENDSEC
  0
SECTION
  2
BLOCKS
  0
BLOCK
  5
20
100
AcDbEntity
  8
0
100
AcDbBlockBegin
  2
*Model_Space
 70
0
 10
0.0
 20
0.0
 30
0.0
  3
*Model_Space
  1

  0
ENDBLK
  5
21
100
AcDbEntity
  8
0
100
AcDbBlockEnd
  0
BLOCK
  5
1C
100
AcDbEntity
  8
0
100
AcDbBlockBegin
  2
*Paper_Space
 70
0
 10
0.0
 20
0.0
 30
0.0
  3
*Paper_Space
  1

  0
ENDBLK
  5
1D
100
AcDbEntity
  8
0
100
AcDbBlockEnd
  0
BLOCK
  5
21A
100
AcDbEntity
  8
0
100
AcDbBlockBegin
  2
_FILLED
 70
64
 10
0.0
 20
0.0
  3
_FILLED
  1

  0
SOLID
  5
21B
100
AcDbEntity
  8
0
  6
BYBLOCK
 62
0
100
AcDbTrace
 10
0.0
 20
0.0
 11
-1.0
 21
0.3166666667
 12
-1.0
 22
-0.3166666667
 13
-1.0
 23
-0.3166666667
  0
ENDBLK
  5
21C
100
AcDbEntity
  8
0
  6
BYBLOCK
 62
0
100
AcDbBlockEnd
  0
ENDSEC
  0
SECTION
  2
ENTITIES
  0
LWPOLYLINE
  5
21D
100
AcDbEntity
  8
RACCORDO
100
AcDbPolyline
 62
7
  6
CONTINUOUS
 90
6
 70
0
 10
-30.4373867085
 20
54.4932176986
 10
-30.5021417181
 20
54.4409292638
 10
-30.5983999318
 20
54.3312564727
 10
-30.6741247384
 20
54.1977408577
 10
-30.7265847453
 20
54.0427834888
 10
-30.746027182
 20
53.9390212841
  0
LWPOLYLINE
  5
21E
100
AcDbEntity
  8
ASSI
100
AcDbPolyline
 62
7
  6
CONTINUOUS
 90
6
 70
0
 10
-30.4373867085
 20
54.4932176986
 10
-30.5021417181
 20
54.4409292638
 10
-30.5983999318
 20
54.3312564727
 10
-30.6741247384
 20
54.1977408577
 10
-30.7265847453
 20
54.0427834888
 10
-30.746027182
 20
53.9390212841
  0
LINE
  5
21F
100
AcDbEntity
  8
RACCORDO
100
AcDbLine
 62
7
  6
CONTINUOUS
 10
-30.4373589447
 20
54.4932386011
 11
-28.8292488879
 21
55.6271393199
  0
LINE
  5
220
100
AcDbEntity
  8
ASSI
100
AcDbLine
 62
7
  6
CONTINUOUS
 10
-30.4373589447
 20
54.4932386011
 11
-28.8292488879
 21
55.6271393199
  0
LINE
  5
221
100
AcDbEntity
  8
RACCORDO
100
AcDbLine
 62
250
  6
CONTINUOUS
 10
-29.8792761479
 20
54.4832333315
 11
-28.304197072
 21
55.59384341
  0
LINE
  5
222
100
AcDbEntity
  8
ASSI
100
AcDbLine
 62
250
  6
CONTINUOUS
 10
-29.8792761479
 20
54.4832333315
 11
-28.304197072
 21
55.59384341
  0
LWPOLYLINE
  5
223
100
AcDbEntity
  8
RACCORDO
100
AcDbPolyline
 62
7
  6
CONTINUOUS
 90
4
 70
0
 10
-30.7460313636
 20
53.9390242521
 10
-31.490612157
 20
47.73192551
 10
-32.0400227481
 20
41.550734736
 10
-32.3811627775
 20
35.5394477713
  0
LWPOLYLINE
  5
224
100
AcDbEntity
  8
ASSI
100
AcDbPolyline
 62
7
  6
CONTINUOUS
 90
4
 70
0
 10
-30.7460313636
 20
53.9390242521
 10
-31.490612157
 20
47.73192551
 10
-32.0400227481
 20
41.550734736
 10
-32.3811627775
 20
35.5394477713
  0
LWPOLYLINE
  5
225
100
AcDbEntity
  8
RACCORDO
100
AcDbPolyline
 62
7
  6
CONTINUOUS
 90
4
 70
0
 10
-32.3811355261
 20
-1.4757211572
 10
-32.0402576071
 20
-7.046722446
 10
-31.4906670047
 20
-12.5270456607
 10
-30.7448061097
 20
-17.7889340819
  0
LWPOLYLINE
  5
226
100
AcDbEntity
  8
ASSI
100
AcDbPolyline
 62
7
  6
CONTINUOUS
 90
4
 70
0
 10
-32.3811355261
 20
-1.4757211572
 10
-32.0402576071
 20
-7.046722446
 10
-31.4906670047
 20
-12.5270456607
 10
-30.7448061097
 20
-17.7889340819
  0
LWPOLYLINE
  5
227
100
AcDbEntity
  8
RACCORDO
100
AcDbPolyline
 62
7
  6
CONTINUOUS
 90
5
 70
0
 10
-32.3811627783
 20
35.5394478207
 10
-32.6675171122
 20
26.1395375652
 10
-32.7639360989
 20
16.7895952538
 10
-32.6676259819
 20
7.5630010576
 10
-32.3811355261
 20
-1.4757212451
  0
LWPOLYLINE
  5
228
100
AcDbEntity
  8
ASSI
100
AcDbPolyline
 62
7
  6
CONTINUOUS
 90
5
 70
0
 10
-32.3811627783
 20
35.5394478207
 10
-32.6675171122
 20
26.1395375652
 10
-32.7639360989
 20
16.7895952538
 10
-32.6676259819
 20
7.5630010576
 10
-32.3811355261
 20
-1.4757212451
  0
LINE
  5
229
100
AcDbEntity
  8
RACCORDO
100
AcDbLine
 62
250
  6
CONTINUOUS
 10
-16.5030259162
 20
26.4072213893
 11
-16.4302282652
 21
26.4543576885
  0
LINE
  5
22A
100
AcDbEntity
  8
ASSI
100
AcDbLine
 62
250
  6
CONTINUOUS
 10
-16.5030259162
 20
26.4072213893
 11
-16.4302282652
 21
26.4543576885
  0
LINE
  5
22B
100
AcDbEntity
  8
0
100
AcDbLine
 62
250
  6
CONTINUOUS
 10
-16.6439126701
 20
26.0649652659
 11
-16.1106039522
 21
26.3115554151
  0
LINE
  5
22C
100
AcDbEntity
  8
ASSI
100
AcDbLine
 62
250
  6
CONTINUOUS
 10
-16.6439126701
 20
26.0649652659
 11
-16.1106039522
 21
26.3115554151
  0
LWPOLYLINE
  5
22D
100
AcDbEntity
  8
RACCORDO
100
AcDbPolyline
 62
7
  6
CONTINUOUS
 90
6
 70
0
 10
-16.4315179128
 20
26.453906174
 10
-16.4314669186
 20
26.4539290562
 10
-16.4181489768
 20
26.4547442885
 10
-16.3738953923
 20
26.4475130513
 10
-16.3044887706
 20
26.4213504467
 10
-16.2620329897
 20
26.3989872574
  0
LWPOLYLINE
  5
22E
100
AcDbEntity
  8
ASSI
100
AcDbPolyline
 62
7
  6
CONTINUOUS
 90
6
 70
0
 10
-16.4315179128
 20
26.453906174
 10
-16.4314669186
 20
26.4539290562
 10
-16.4181489768
 20
26.4547442885
 10
-16.3738953923
 20
26.4475130513
 10
-16.3044887706
 20
26.4213504467
 10
-16.2620329897
 20
26.3989872574
  0
LWPOLYLINE
  5
22F
100
AcDbEntity
  8
RACCORDO
100
AcDbPolyline
 62
7
  6
CONTINUOUS
 90
7
 70
0
 10
32.0348736502
 20
-54.6353607055
 10
32.1093122633
 20
-54.6744637092
 10
32.240124098
 20
-54.7238369827
 10
32.367539988
 20
-54.7465992394
 10
32.4906916236
 20
-54.7418657575
 10
32.6045651451
 20
-54.7093456994
 10
32.6169086031
 20
-54.7038552033
  0
LWPOLYLINE
  5
230
100
AcDbEntity
  8
ASSI
100
AcDbPolyline
 62
7
  6
CONTINUOUS
 90
7
 70
0
 10
32.0348736502
 20
-54.6353607055
 10
32.1093122633
 20
-54.6744637092
 10
32.240124098
 20
-54.7238369827
 10
32.367539988
 20
-54.7465992394
 10
32.4906916236
 20
-54.7418657575
 10
32.6045651451
 20
-54.7093456994
 10
32.6169086031
 20
-54.7038552033
  0
LINE
  5
231
100
AcDbEntity
  8
RACCORDO
100
AcDbLine
 62
7
  6
CONTINUOUS
 10
-30.0181812631
 20
-18.8067099448
 11
32.0349302201
 21
-54.635398807
  0
LINE
  5
232
100
AcDbEntity
  8
ASSI
100
AcDbLine
 62
7
  6
CONTINUOUS
 10
-30.0181812631
 20
-18.8067099448
 11
32.0349302201
 21
-54.635398807
  0
LINE
  5
233
100
AcDbEntity
  8
RACCORDO
100
AcDbLine
 62
250
  6
CONTINUOUS
 10
-30.0767806543
 20
-18.7118231997
 11
31.976330763
 21
-54.5405120239
  0
LINE
  5
234
100
AcDbEntity
  8
ASSI
100
AcDbLine
 62
250
  6
CONTINUOUS
 10
-30.0767806543
 20
-18.7118231997
 11
31.976330763
 21
-54.5405120239
  0
LINE
  5
235
100
AcDbEntity
  8
RACCORDO
100
AcDbLine
 62
7
  6
CONTINUOUS
 10
32.0348713066
 20
-54.6353647643
 11
32.0349301966
 21
-54.6353987934
  0
LINE
  5
236
100
AcDbEntity
  8
ASSI
100
AcDbLine
 62
7
  6
CONTINUOUS
 10
32.0348713066
 20
-54.6353647643
 11
32.0349301966
 21
-54.6353987934
  0
LWPOLYLINE
  5
237
100
AcDbEntity
  8
RACCORDO
100
AcDbPolyline
 62
7
  6
CONTINUOUS
 90
3
 70
0
 10
-30.2431218633
 20
-18.6410067052
 10
-30.1051339124
 20
-18.7512228965
 10
-30.0180764944
 20
-18.8067654223
  0
LWPOLYLINE
  5
238
100
AcDbEntity
  8
ASSI
100
AcDbPolyline
 62
7
  6
CONTINUOUS
 90
3
 70
0
 10
-30.2431218633
 20
-18.6410067052
 10
-30.1051339124
 20
-18.7512228965
 10
-30.0180764944
 20
-18.8067654223
  0
LWPOLYLINE
  5
239
100
AcDbEntity
  8
RACCORDO
100
AcDbPolyline
 62
7
  6
CONTINUOUS
 90
6
 70
0
 10
-30.7250031164
 20
-17.8817340169
 10
-30.6698195052
 20
-18.0438681573
 10
-30.5905388145
 20
-18.2057728572
 10
-30.4903173944
 20
-18.3629435618
 10
-30.3730258986
 20
-18.5098976281
 10
-30.2431218633
 20
-18.6410067052
  0
LWPOLYLINE
  5
23A
100
AcDbEntity
  8
ASSI
100
AcDbPolyline
 62
7
  6
CONTINUOUS
 90
6
 70
0
 10
-30.7250031164
 20
-17.8817340169
 10
-30.6698195052
 20
-18.0438681573
 10
-30.5905388145
 20
-18.2057728572
 10
-30.4903173944
 20
-18.3629435618
 10
-30.3730258986
 20
-18.5098976281
 10
-30.2431218633
 20
-18.6410067052
  0
LINE
  5
23B
100
AcDbEntity
  8
RACCORDO
100
AcDbLine
 62
7
  6
CONTINUOUS
 10
-30.7448320167
 20
-17.7887489344
 11
-30.7250031164
 21
-17.8817340169
  0
LINE
  5
23C
100
AcDbEntity
  8
ASSI
100
AcDbLine
 62
7
  6
CONTINUOUS
 10
-30.7448320167
 20
-17.7887489344
 11
-30.7250031164
 21
-17.8817340169
  0
LINE
  5
23D
100
AcDbEntity
  8
RACCORDO
100
AcDbLine
 62
7
  6
CONTINUOUS
 10
-30.744802014
 20
-17.7889334139
 11
-30.7448320167
 21
-17.7887489344
  0
LINE
  5
23E
100
AcDbEntity
  8
ASSI
100
AcDbLine
 62
7
  6
CONTINUOUS
 10
-30.744802014
 20
-17.7889334139
 11
-30.7448320167
 21
-17.7887489344
  0
LINE
  5
23F
100
AcDbEntity
  8
0
100
AcDbLine
 62
7
  6
CONTINUOUS
 10
-13.4079238633
 20
20.0587767727
 11
-13.3323058085
 21
20.1163426958
  0
LINE
  5
240
100
AcDbEntity
  8
ASSI
100
AcDbLine
 62
7
  6
CONTINUOUS
 10
-13.4079238633
 20
20.0587767727
 11
-13.3323058085
 21
20.1163426958
  0
LINE
  5
241
100
AcDbEntity
  8
0
100
AcDbLine
 62
250
  6
CONTINUOUS
 10
-14.5853564518
 20
19.3847126821
 11
-13.3716274679
 21
20.1472142092
  0
LINE
  5
242
100
AcDbEntity
  8
ASSI
100
AcDbLine
 62
250
  6
CONTINUOUS
 10
-14.5853564518
 20
19.3847126821
 11
-13.3716274679
 21
20.1472142092
  0
LINE
  5
243
100
AcDbEntity
  8
0
100
AcDbLine
 62
7
  6
CONTINUOUS
 10
-14.5853564518
 20
19.3190764671
 11
-13.4078846449
 21
20.0588001309
  0
LINE
  5
244
100
AcDbEntity
  8
ASSI
100
AcDbLine
 62
7
  6
CONTINUOUS
 10
-14.5853564518
 20
19.3190764671
 11
-13.4078846449
 21
20.0588001309
  0
LINE
  5
245
100
AcDbEntity
  8
0
100
AcDbLine
 62
250
  6
CONTINUOUS
 10
-13.509306507
 20
22.7080496216
 11
-14.5853564518
 21
22.1195826102
  0
LINE
  5
246
100
AcDbEntity
  8
ASSI
100
AcDbLine
 62
250
  6
CONTINUOUS
 10
-13.509306507
 20
22.7080496216
 11
-14.5853564518
 21
22.1195826102
  0
LINE
  5
247
100
AcDbEntity
  8
0
100
AcDbLine
 62
250
  6
CONTINUOUS
 10
-13.3716274679
 20
22.4610466568
 11
-14.5853564518
 21
21.7972861397
  0
LINE
  5
248
100
AcDbEntity
  8
ASSI
100
AcDbLine
 62
250
  6
CONTINUOUS
 10
-13.3716274679
 20
22.4610466568
 11
-14.5853564518
 21
21.7972861397
  0
LINE
  5
249
100
AcDbEntity
  8
0
100
AcDbLine
 62
7
  6
CONTINUOUS
 10
-14.5853564518
 20
22.7797660924
 11
-14.1136349627
 21
23.015372742
  0
LINE
  5
24A
100
AcDbEntity
  8
ASSI
100
AcDbLine
 62
7
  6
CONTINUOUS
 10
-14.5853564518
 20
22.7797660924
 11
-14.1136349627
 21
23.015372742
  0
LINE
  5
24B
100
AcDbEntity
  8
0
100
AcDbLine
 62
250
  6
CONTINUOUS
 10
-14.5853564518
 20
22.7197866406
 11
-14.0192968487
 21
23.0025115317
  0
LINE
  5
24C
100
AcDbEntity
  8
ASSI
100
AcDbLine
 62
250
  6
CONTINUOUS
 10
-14.5853564518
 20
22.7197866406
 11
-14.0192968487
 21
23.0025115317
  0
LWPOLYLINE
  5
24D
100
AcDbEntity
  8
0
100
AcDbPolyline
 62
7
  6
CONTINUOUS
 90
5
 70
0
 10
-13.3323058085
 20
20.1163426958
 10
-13.2584943964
 20
20.1956255661
 10
-13.1968854975
 20
20.2877920722
 10
-13.1502157329
 20
20.3883101485
 10
-13.1209814488
 20
20.4925364536
  0
LWPOLYLINE
  5
24E
100
AcDbEntity
  8
ASSI
100
AcDbPolyline
 62
7
  6
CONTINUOUS
 90
5
 70
0
 10
-13.3323058085
 20
20.1163426958
 10
-13.2584943964
 20
20.1956255661
 10
-13.1968854975
 20
20.2877920722
 10
-13.1502157329
 20
20.3883101485
 10
-13.1209814488
 20
20.4925364536
  0
LINE
  5
24F
100
AcDbEntity
  8
0
100
AcDbLine
 62
7
  6
CONTINUOUS
 10
3.4234003472
 20
-26.9399935519
 11
3.0259125808
 21
-26.7104890973
  0
LINE
  5
250
100
AcDbEntity
  8
ASSI
100
AcDbLine
 62
7
  6
CONTINUOUS
 10
3.4234003472
 20
-26.9399935519
 11
3.0259125808
 21
-26.7104890973
  0
LINE
  5
251
100
AcDbEntity
  8
0
100
AcDbLine
 62
7
  6
CONTINUOUS
 10
2.3930942422
 20
-26.3451077197
 11
1.9815181139
 21
-26.1074688215
  0
LINE
  5
252
100
AcDbEntity
  8
ASSI
100
AcDbLine
 62
7
  6
CONTINUOUS
 10
2.3930942422
 20
-26.3451077197
 11
1.9815181139
 21
-26.1074688215
  0
LINE
  5
253
100
AcDbEntity
  8
0
100
AcDbLine
 62
7
  6
CONTINUOUS
 10
1.7682470483
 20
-25.9843285172
 11
1.3327102833
 21
-25.7328550476
  0
LINE
  5
254
100
AcDbEntity
  8
ASSI
100
AcDbLine
 62
7
  6
CONTINUOUS
 10
1.7682470483
 20
-25.9843285172
 11
1.3327102833
 21
-25.7328550476
  0
LINE
  5
255
100
AcDbEntity
  8
0
100
AcDbLine
 62
7
  6
CONTINUOUS
 10
0.5488689814
 20
-25.2802749037
 11
0.1401138857
 21
-25.0442648344
  0
LINE
  5
256
100
AcDbEntity
  8
ASSI
100
AcDbLine
 62
7
  6
CONTINUOUS
 10
0.5488689814
 20
-25.2802749037
 11
0.1401138857
 21
-25.0442648344
  0
LINE
  5
257
100
AcDbEntity
  8
0
100
AcDbLine
 62
7
  6
CONTINUOUS
 10
-0.0732683135
 20
-24.9210606269
 11
-0.4775255029
 21
-24.6876475922
  0
LINE
  5
258
100
AcDbEntity
  8
ASSI
100
AcDbLine
 62
7
  6
CONTINUOUS
 10
-0.0732683135
 20
-24.9210606269
 11
-0.4775255029
 21
-24.6876475922
  0
LINE
  5
259
100
AcDbEntity
  8
0
100
AcDbLine
 62
7
  6
CONTINUOUS
 10
-1.0537680321
 20
-24.3549323779
 11
-1.1117246252
 21
-24.3214689674
  0
LINE
  5
25A
100
AcDbEntity
  8
ASSI
100
AcDbLine
 62
7
  6
CONTINUOUS
 10
-1.0537680321
 20
-24.3549323779
 11
-1.1117246252
 21
-24.3214689674
  0
LINE
  5
25B
100
AcDbEntity
  8
0
100
AcDbLine
 62
7
  6
CONTINUOUS
 10
-1.6856803711
 20
-23.9900741131
 11
-2.0810159943
 21
-23.761812279
  0
LINE
  5
25C
100
AcDbEntity
  8
ASSI
100
AcDbLine
 62
7
  6
CONTINUOUS
 10
-1.6856803711
 20
-23.9900741131
 11
-2.0810159943
 21
-23.761812279
  0
LINE
  5
25D
100
AcDbEntity
  8
0
100
AcDbLine
 62
7
  6
CONTINUOUS
 10
-2.2964042553
 20
-23.6374497965
 11
-2.7096431151
 21
-23.3988508579
  0
LINE
  5
25E
100
AcDbEntity
  8
ASSI
100
AcDbLine
 62
7
  6
CONTINUOUS
 10
-2.2964042553
 20
-23.6374497965
 11
-2.7096431151
 21
-23.3988508579
  0
LINE
  5
25F
100
AcDbEntity
  8
0
100
AcDbLine
 62
7
  6
CONTINUOUS
 10
-3.5559169961
 20
-22.9102229253
 11
-3.9200840595
 21
-22.699957427
  0
LINE
  5
260
100
AcDbEntity
  8
ASSI
100
AcDbLine
 62
7
  6
CONTINUOUS
 10
-3.5559169961
 20
-22.9102229253
 11
-3.9200840595
 21
-22.699957427
  0
LINE
  5
261
100
AcDbEntity
  8
0
100
AcDbLine
 62
7
  6
CONTINUOUS
 10
3.3825159461
 20
-26.7934334254
 11
3.132386996
 21
-26.6490121044
  0
LINE
  5
262
100
AcDbEntity
  8
ASSI
100
AcDbLine
 62
7
  6
CONTINUOUS
 10
3.3825159461
 20
-26.7934334254
 11
3.132386996
 21
-26.6490121044
  0
LINE
  5
263
100
AcDbEntity
  8
0
100
AcDbLine
 62
7
  6
CONTINUOUS
 10
2.3830563262
 20
-26.216357967
 11
2.0879925291
 21
-26.0459918286
  0
LINE
  5
264
100
AcDbEntity
  8
ASSI
100
AcDbLine
 62
7
  6
CONTINUOUS
 10
2.3830563262
 20
-26.216357967
 11
2.0879925291
 21
-26.0459918286
  0
LINE
  5
265
100
AcDbEntity
  8
0
100
AcDbLine
 62
7
  6
CONTINUOUS
 10
1.7226502493
 20
-25.8350475112
 11
1.4391846985
 21
-25.6713780548
  0
LINE
  5
266
100
AcDbEntity
  8
ASSI
100
AcDbLine
 62
7
  6
CONTINUOUS
 10
1.7226502493
 20
-25.8350475112
 11
1.4391846985
 21
-25.6713780548
  0
LINE
  5
267
100
AcDbEntity
  8
0
100
AcDbLine
 62
7
  6
CONTINUOUS
 10
0.5723769744
 20
-25.1708941385
 11
0.2465883008
 21
-24.9827878415
  0
LINE
  5
268
100
AcDbEntity
  8
ASSI
100
AcDbLine
 62
7
  6
CONTINUOUS
 10
0.5723769744
 20
-25.1708941385
 11
0.2465883008
 21
-24.9827878415
  0
LINE
  5
269
100
AcDbEntity
  8
0
100
AcDbLine
 62
7
  6
CONTINUOUS
 10
-0.0940406453
 20
-24.7861129571
 11
-0.3710510878
 21
-24.6261705994
  0
LINE
  5
26A
100
AcDbEntity
  8
ASSI
100
AcDbLine
 62
7
  6
CONTINUOUS
 10
-0.0940406453
 20
-24.7861129571
 11
-0.3710510878
 21
-24.6261705994
  0
LINE
  5
26B
100
AcDbEntity
  8
0
100
AcDbLine
 62
7
  6
CONTINUOUS
 10
-1.6875488816
 20
-23.8660412728
 11
-1.9745415791
 21
-23.7003352861
  0
LINE
  5
26C
100
AcDbEntity
  8
ASSI
100
AcDbLine
 62
7
  6
CONTINUOUS
 10
-1.6875488816
 20
-23.8660412728
 11
-1.9745415791
 21
-23.7003352861
  0
LINE
  5
26D
100
AcDbEntity
  8
0
100
AcDbLine
 62
7
  6
CONTINUOUS
 10
-2.3062941298
 20
-23.5087855212
 11
-2.6031687
 21
-23.3373738651
  0
LINE
  5
26E
100
AcDbEntity
  8
ASSI
100
AcDbLine
 62
7
  6
CONTINUOUS
 10
-2.3062941298
 20
-23.5087855212
 11
-2.6031687
 21
-23.3373738651
  0
LINE
  5
26F
100
AcDbEntity
  8
0
100
AcDbLine
 62
7
  6
CONTINUOUS
 10
-3.5283991185
 20
-22.8031574173
 11
-3.8136096444
 21
-22.6384804342
  0
LINE
  5
270
100
AcDbEntity
  8
ASSI
100
AcDbLine
 62
7
  6
CONTINUOUS
 10
-3.5283991185
 20
-22.8031574173
 11
-3.8136096444
 21
-22.6384804342
  0
LINE
  5
271
100
AcDbEntity
  8
0
100
AcDbLine
 62
7
  6
CONTINUOUS
 10
1.1916274411
 20
-25.234353931
 11
0.6288644884
 21
-24.9094216552
  0
LINE
  5
272
100
AcDbEntity
  8
ASSI
100
AcDbLine
 62
7
  6
CONTINUOUS
 10
1.1916274411
 20
-25.234353931
 11
0.6288644884
 21
-24.9094216552
  0
LINE
  5
273
100
AcDbEntity
  8
0
100
AcDbLine
 62
7
  6
CONTINUOUS
 10
1.2980711131
 20
-25.1728946888
 11
0.7353081605
 21
-24.847962413
  0
LINE
  5
274
100
AcDbEntity
  8
ASSI
100
AcDbLine
 62
7
  6
CONTINUOUS
 10
1.2980711131
 20
-25.1728946888
 11
0.7353081605
 21
-24.847962413
  0
LINE
  5
275
100
AcDbEntity
  8
0
100
AcDbLine
 62
7
  6
CONTINUOUS
 10
1.0836225401
 20
-24.8482313315
 11
0.6879757899
 21
-24.6197898566
  0
LINE
  5
276
100
AcDbEntity
  8
ASSI
100
AcDbLine
 62
7
  6
CONTINUOUS
 10
1.0836225401
 20
-24.8482313315
 11
0.6879757899
 21
-24.6197898566
  0
LINE
  5
277
100
AcDbEntity
  8
0
100
AcDbLine
 62
7
  6
CONTINUOUS
 10
2.5492042508
 20
-25.6162686732
 11
2.3276354399
 21
-25.4883376187
  0
LINE
  5
278
100
AcDbEntity
  8
ASSI
100
AcDbLine
 62
7
  6
CONTINUOUS
 10
2.5492042508
 20
-25.6162686732
 11
2.3276354399
 21
-25.4883376187
  0
LINE
  5
279
100
AcDbEntity
  8
0
100
AcDbLine
 62
7
  6
CONTINUOUS
 10
2.65561955
 20
-25.5548258132
 11
2.434050739
 21
-25.4268947586
  0
LINE
  5
27A
100
AcDbEntity
  8
ASSI
100
AcDbLine
 62
7
  6
CONTINUOUS
 10
2.65561955
 20
-25.5548258132
 11
2.434050739
 21
-25.4268947586
  0
LINE
  5
27B
100
AcDbEntity
  8
0
100
AcDbLine
 62
7
  6
CONTINUOUS
 10
2.5242209676
 20
-25.2573512142
 11
2.2880590483
 21
-25.1209942818
  0
LINE
  5
27C
100
AcDbEntity
  8
ASSI
100
AcDbLine
 62
7
  6
CONTINUOUS
 10
2.5242209676
 20
-25.2573512142
 11
2.2880590483
 21
-25.1209942818
  0
LINE
  5
27D
100
AcDbEntity
  8
0
100
AcDbLine
 62
7
  6
CONTINUOUS
 10
1.0037344327
 20
-23.4384437873
 11
0.6039751495
 21
-23.2076277873
  0
LINE
  5
27E
100
AcDbEntity
  8
ASSI
100
AcDbLine
 62
7
  6
CONTINUOUS
 10
1.0037344327
 20
-23.4384437873
 11
0.6039751495
 21
-23.2076277873
  0
LINE
  5
27F
100
AcDbEntity
  8
0
100
AcDbLine
 62
7
  6
CONTINUOUS
 10
-0.4154868599
 20
-22.6190032
 11
-0.8243459003
 21
-22.3829331142
  0
LINE
  5
280
100
AcDbEntity
  8
ASSI
100
AcDbLine
 62
7
  6
CONTINUOUS
 10
-0.4154868599
 20
-22.6190032
 11
-0.8243459003
 21
-22.3829331142
  0
LINE
  5
281
100
AcDbEntity
  8
0
100
AcDbLine
 62
7
  6
CONTINUOUS
 10
-1.6464593568
 20
-21.908255108
 11
-2.059356684
 21
-21.6698533661
  0
LINE
  5
282
100
AcDbEntity
  8
ASSI
100
AcDbLine
 62
7
  6
CONTINUOUS
 10
-1.6464593568
 20
-21.908255108
 11
-2.059356684
 21
-21.6698533661
  0
LINE
  5
283
100
AcDbEntity
  8
0
100
AcDbLine
 62
7
  6
CONTINUOUS
 10
-3.0766606035
 20
-21.0824748328
 11
-3.4896173276
 21
-20.8440387958
  0
LINE
  5
284
100
AcDbEntity
  8
ASSI
100
AcDbLine
 62
7
  6
CONTINUOUS
 10
-3.0766606035
 20
-21.0824748328
 11
-3.4896173276
 21
-20.8440387958
  0
LINE
  5
285
100
AcDbEntity
  8
0
100
AcDbLine
 62
7
  6
CONTINUOUS
 10
-4.2558742982
 20
-20.4016116244
 11
-4.704779624
 21
-20.1424193154
  0
LINE
  5
286
100
AcDbEntity
  8
ASSI
100
AcDbLine
 62
7
  6
CONTINUOUS
 10
-4.2558742982
 20
-20.4016116244
 11
-4.704779624
 21
-20.1424193154
  0
LINE
  5
287
100
AcDbEntity
  8
0
100
AcDbLine
 62
7
  6
CONTINUOUS
 10
-2.4535078427
 20
-21.4421479885
 11
-2.8667467025
 21
-21.20354905
  0
LINE
  5
288
100
AcDbEntity
  8
ASSI
100
AcDbLine
 62
7
  6
CONTINUOUS
 10
-2.4535078427
 20
-21.4421479885
 11
-2.8667467025
 21
-21.20354905
  0
LINE
  5
289
100
AcDbEntity
  8
RACCORDO
100
AcDbLine
 62
250
  6
CONTINUOUS
 10
14.6666645876
 20
-29.0986250626
 11
-16.3649224776
 21
-11.1813756083
  0
LINE
  5
28A
100
AcDbEntity
  8
ASSI
100
AcDbLine
 62
250
  6
CONTINUOUS
 10
14.6666645876
 20
-29.0986250626
 11
-16.3649224776
 21
-11.1813756083
  0
LINE
  5
28B
100
AcDbEntity
  8
RACCORDO
100
AcDbLine
 62
250
  6
CONTINUOUS
 10
30.5582971732
 20
-37.8873040939
 11
15.3733164961
 21
-29.1197310315
  0
LINE
  5
28C
100
AcDbEntity
  8
ASSI
100
AcDbLine
 62
250
  6
CONTINUOUS
 10
30.5582971732
 20
-37.8873040939
 11
15.3733164961
 21
-29.1197310315
  0
LINE
  5
28D
100
AcDbEntity
  8
RACCORDO
100
AcDbLine
 62
250
  6
CONTINUOUS
 10
-17.1082862896
 20
-10.3652606731
 11
-32.2932710629
 21
-1.5975961949
  0
LINE
  5
28E
100
AcDbEntity
  8
ASSI
100
AcDbLine
 62
250
  6
CONTINUOUS
 10
-17.1082862896
 20
-10.3652606731
 11
-32.2932710629
 21
-1.5975961949
  0
LWPOLYLINE
  5
28F
100
AcDbEntity
  8
0
100
AcDbPolyline
 62
7
  6
CONTINUOUS
 90
6
 70
0
 10
-13.1113405862
 20
22.416443721
 10
-13.1128485051
 20
22.4542095589
 10
-13.1337863355
 20
22.5548597363
 10
-13.1785043489
 20
22.6410392196
 10
-13.2436448454
 20
22.7073653387
 10
-13.2730369487
 20
22.7267148475
  0
LWPOLYLINE
  5
290
100
AcDbEntity
  8
ASSI
100
AcDbPolyline
 62
7
  6
CONTINUOUS
 90
6
 70
0
 10
-13.1113405862
 20
22.416443721
 10
-13.1128485051
 20
22.4542095589
 10
-13.1337863355
 20
22.5548597363
 10
-13.1785043489
 20
22.6410392196
 10
-13.2436448454
 20
22.7073653387
 10
-13.2730369487
 20
22.7267148475
  0
LINE
  5
291
100
AcDbEntity
  8
0
100
AcDbLine
 62
7
  6
CONTINUOUS
 10
-14.5853564518
 20
-8.4198042174
 11
-14.5853564518
 21
25.4308966242
  0
LINE
  5
292
100
AcDbEntity
  8
ASSI
100
AcDbLine
 62
7
  6
CONTINUOUS
 10
-14.5853564518
 20
-8.4198042174
 11
-14.5853564518
 21
25.4308966242
  0
LINE
  5
293
100
AcDbEntity
  8
0
100
AcDbLine
 62
7
  6
CONTINUOUS
 10
-14.5475221059
 20
5.001945828
 11
-14.5475221059
 21
2.3664323946
  0
LINE
  5
294
100
AcDbEntity
  8
ASSI
100
AcDbLine
 62
7
  6
CONTINUOUS
 10
-14.5475221059
 20
5.001945828
 11
-14.5475221059
 21
2.3664323946
  0
LINE
  5
295
100
AcDbEntity
  8
0
100
AcDbLine
 62
250
  6
CONTINUOUS
 10
-13.1686853754
 20
20.5112454693
 11
-13.1686853754
 21
22.3354941738
  0
LINE
  5
296
100
AcDbEntity
  8
ASSI
100
AcDbLine
 62
250
  6
CONTINUOUS
 10
-13.1686853754
 20
20.5112454693
 11
-13.1686853754
 21
22.3354941738
  0
LINE
  5
297
100
AcDbEntity
  8
0
100
AcDbLine
 62
7
  6
CONTINUOUS
 10
-13.1113354652
 20
20.5921847143
 11
-13.1113354652
 21
22.41643341
  0
LINE
  5
298
100
AcDbEntity
  8
ASSI
100
AcDbLine
 62
7
  6
CONTINUOUS
 10
-13.1113354652
 20
20.5921847143
 11
-13.1113354652
 21
22.41643341
  0
LINE
  5
299
100
AcDbEntity
  8
0
100
AcDbLine
 62
7
  6
CONTINUOUS
 10
-13.1209814488
 20
20.4925364536
 11
-13.1113405891
 21
20.5922043531
  0
LINE
  5
29A
100
AcDbEntity
  8
ASSI
100
AcDbLine
 62
7
  6
CONTINUOUS
 10
-13.1209814488
 20
20.4925364536
 11
-13.1113405891
 21
20.5922043531
  0
LINE
  5
29B
100
AcDbEntity
  8
0
100
AcDbLine
 62
7
  6
CONTINUOUS
 10
-4.4132742944
 20
-13.4940321703
 11
-4.5188257634
 21
-13.5181881621
  0
LINE
  5
29C
100
AcDbEntity
  8
ASSI
100
AcDbLine
 62
7
  6
CONTINUOUS
 10
-4.4132742944
 20
-13.4940321703
 11
-4.5188257634
 21
-13.5181881621
  0
LWPOLYLINE
  5
29D
100
AcDbEntity
  8
0
100
AcDbPolyline
 62
7
  6
CONTINUOUS
 90
3
 70
0
 10
-4.1924009727
 20
-13.4967962256
 10
-4.3027039655
 20
-13.4868674258
 10
-4.4132742944
 20
-13.4940321703
  0
LWPOLYLINE
  5
29E
100
AcDbEntity
  8
ASSI
100
AcDbPolyline
 62
7
  6
CONTINUOUS
 90
3
 70
0
 10
-4.1924009727
 20
-13.4967962256
 10
-4.3027039655
 20
-13.4868674258
 10
-4.4132742944
 20
-13.4940321703
  0
LINE
  5
29F
100
AcDbEntity
  8
0
100
AcDbLine
 62
7
  6
CONTINUOUS
 10
-4.0876222268
 20
-13.5236578653
 11
-4.1924009727
 21
-13.4967962256
  0
LINE
  5
2A0
100
AcDbEntity
  8
ASSI
100
AcDbLine
 62
7
  6
CONTINUOUS
 10
-4.0876222268
 20
-13.5236578653
 11
-4.1924009727
 21
-13.4967962256
  0
LINE
  5
2A1
100
AcDbEntity
  8
0
100
AcDbLine
 62
7
  6
CONTINUOUS
 10
-3.9969311685
 20
-13.564990144
 11
-4.0876222268
 21
-13.5236578653
  0
LINE
  5
2A2
100
AcDbEntity
  8
ASSI
100
AcDbLine
 62
7
  6
CONTINUOUS
 10
-3.9969311685
 20
-13.564990144
 11
-4.0876222268
 21
-13.5236578653
  0
LINE
  5
2A3
100
AcDbEntity
  8
RACCORDO
100
AcDbLine
 62
250
  6
CONTINUOUS
 10
15.0012379114
 20
-28.4760196958
 11
-16.0303822148
 21
-10.5587511525
  0
LINE
  5
2A4
100
AcDbEntity
  8
ASSI
100
AcDbLine
 62
250
  6
CONTINUOUS
 10
15.0012379114
 20
-28.4760196958
 11
-16.0303822148
 21
-10.5587511525
  0
LINE
  5
2A5
100
AcDbEntity
  8
0
100
AcDbLine
 62
7
  6
CONTINUOUS
 10
15.3317278158
 20
-26.3458347905
 11
-14.020446279
 21
-9.3982573372
  0
LINE
  5
2A6
100
AcDbEntity
  8
ASSI
100
AcDbLine
 62
7
  6
CONTINUOUS
 10
15.3317278158
 20
-26.3458347905
 11
-14.020446279
 21
-9.3982573372
  0
LINE
  5
2A7
100
AcDbEntity
  8
0
100
AcDbLine
 62
250
  6
CONTINUOUS
 10
-2.515820864
 20
-14.4863896147
 11
-4.0957174827
 21
-13.5741771079
  0
LINE
  5
2A8
100
AcDbEntity
  8
ASSI
100
AcDbLine
 62
250
  6
CONTINUOUS
 10
-2.515820864
 20
-14.4863896147
 11
-4.0957174827
 21
-13.5741771079
  0
LINE
  5
2A9
100
AcDbEntity
  8
0
100
AcDbLine
 62
7
  6
CONTINUOUS
 10
-2.4170501505
 20
-14.477187726
 11
-3.9969467615
 21
-13.5649752236
  0
LINE
  5
2AA
100
AcDbEntity
  8
ASSI
100
AcDbLine
 62
7
  6
CONTINUOUS
 10
-2.4170501505
 20
-14.477187726
 11
-3.9969467615
 21
-13.5649752236
  0
LINE
  5
2AB
100
AcDbEntity
  8
0
100
AcDbLine
 62
7
  6
CONTINUOUS
 10
-14.5473619852
 20
2.3665329873
 11
-14.5853564518
 21
2.3426637058
  0
LINE
  5
2AC
100
AcDbEntity
  8
ASSI
100
AcDbLine
 62
7
  6
CONTINUOUS
 10
-14.5473619852
 20
2.3665329873
 11
-14.5853564518
 21
2.3426637058
  0
LINE
  5
2AD
100
AcDbEntity
  8
0
100
AcDbLine
 62
7
  6
CONTINUOUS
 10
-14.5475221059
 20
5.001945828
 11
-14.5853564518
 21
4.9812550929
  0
LINE
  5
2AE
100
AcDbEntity
  8
ASSI
100
AcDbLine
 62
7
  6
CONTINUOUS
 10
-14.5475221059
 20
5.001945828
 11
-14.5853564518
 21
4.9812550929
  0
LWPOLYLINE
  5
2AF
100
AcDbEntity
  8
0
100
AcDbPolyline
 62
7
  6
CONTINUOUS
 90
6
 70
0
 10
-2.2291872801
 20
-14.7723952534
 10
-2.2310461952
 20
-14.7390085331
 10
-2.2550101647
 20
-14.650171859
 10
-2.3059598542
 20
-14.5687153566
 10
-2.3810750588
 20
-14.5001959736
 10
-2.4170352288
 20
-14.4772022589
  0
LWPOLYLINE
  5
2B0
100
AcDbEntity
  8
ASSI
100
AcDbPolyline
 62
7
  6
CONTINUOUS
 90
6
 70
0
 10
-2.2291872801
 20
-14.7723952534
 10
-2.2310461952
 20
-14.7390085331
 10
-2.2550101647
 20
-14.650171859
 10
-2.3059598542
 20
-14.5687153566
 10
-2.3810750588
 20
-14.5001959736
 10
-2.4170352288
 20
-14.4772022589
  0
LINE
  5
2B1
100
AcDbEntity
  8
0
100
AcDbLine
 62
7
  6
CONTINUOUS
 10
-2.2291870169
 20
-14.772237352
 11
-2.2291870169
 21
-15.3539644667
  0
LINE
  5
2B2
100
AcDbEntity
  8
ASSI
100
AcDbLine
 62
7
  6
CONTINUOUS
 10
-2.2291870169
 20
-14.772237352
 11
-2.2291870169
 21
-15.3539644667
  0
LINE
  5
2B3
100
AcDbEntity
  8
0
100
AcDbLine
 62
250
  6
CONTINUOUS
 10
-2.3634755991
 20
-14.9676770374
 11
-2.3635101661
 21
-15.5565669054
  0
LINE
  5
2B4
100
AcDbEntity
  8
ASSI
100
AcDbLine
 62
250
  6
CONTINUOUS
 10
-2.3634755991
 20
-14.9676770374
 11
-2.3635101661
 21
-15.5565669054
  0
LINE
  5
2B5
100
AcDbEntity
  8
RACCORDO
100
AcDbLine
 62
250
  6
CONTINUOUS
 10
32.1738352694
 20
18.6545445073
 11
33.9231378029
 21
19.6645601449
  0
LINE
  5
2B6
100
AcDbEntity
  8
ASSI
100
AcDbLine
 62
250
  6
CONTINUOUS
 10
32.1738352694
 20
18.6545445073
 11
33.9231378029
 21
19.6645601449
  0
LINE
  5
2B7
100
AcDbEntity
  8
0
100
AcDbLine
 62
250
  6
CONTINUOUS
 10
-16.6439120914
 20
-9.6084031715
 11
-14.5853564518
 21
-8.4198042174
  0
LINE
  5
2B8
100
AcDbEntity
  8
ASSI
100
AcDbLine
 62
250
  6
CONTINUOUS
 10
-16.6439120914
 20
-9.6084031715
 11
-14.5853564518
 21
-8.4198042174
  0
LINE
  5
2B9
100
AcDbEntity
  8
0
100
AcDbLine
 62
7
  6
CONTINUOUS
 10
-14.5853564518
 20
5.0239709232
 11
-14.5473619852
 21
5.0020333944
  0
LINE
  5
2BA
100
AcDbEntity
  8
ASSI
100
AcDbLine
 62
7
  6
CONTINUOUS
 10
-14.5853564518
 20
5.0239709232
 11
-14.5473619852
 21
5.0020333944
  0
LWPOLYLINE
  5
2BB
100
AcDbEntity
  8
0
100
AcDbPolyline
 62
7
  6
CONTINUOUS
 90
3
 70
0
 10
-2.2753558566
 20
-15.5177878428
 10
-2.2406747065
 20
-15.4374002369
 10
-2.2291875166
 20
-15.3538585078
  0
LWPOLYLINE
  5
2BC
100
AcDbEntity
  8
ASSI
100
AcDbPolyline
 62
7
  6
CONTINUOUS
 90
3
 70
0
 10
-2.2753558566
 20
-15.5177878428
 10
-2.2406747065
 20
-15.4374002369
 10
-2.2291875166
 20
-15.3538585078
  0
LINE
  5
2BD
100
AcDbEntity
  8
0
100
AcDbLine
 62
250
  6
CONTINUOUS
 10
-16.0303822148
 20
-10.5587511525
 11
-14.020446279
 21
-9.3982573372
  0
LINE
  5
2BE
100
AcDbEntity
  8
ASSI
100
AcDbLine
 62
250
  6
CONTINUOUS
 10
-16.0303822148
 20
-10.5587511525
 11
-14.020446279
 21
-9.3982573372
  0
LINE
  5
2BF
100
AcDbEntity
  8
RACCORDO
100
AcDbLine
 62
250
  6
CONTINUOUS
 10
32.7841709917
 20
17.3761637694
 11
34.6292755188
 21
18.4414937451
  0
LINE
  5
2C0
100
AcDbEntity
  8
ASSI
100
AcDbLine
 62
250
  6
CONTINUOUS
 10
32.7841709917
 20
17.3761637694
 11
34.6292755188
 21
18.4414937451
  0
LINE
  5
2C1
100
AcDbEntity
  8
DRAFT
100
AcDbLine
 62
7
  6
CONTINUOUS
 10
35.1949609438
 20
-18.6701767762
 11
35.5485143344
 21
-18.8743140729
  0
LINE
  5
2C2
100
AcDbEntity
  8
ASSI
100
AcDbLine
 62
7
  6
CONTINUOUS
 10
35.1949609438
 20
-18.6701767762
 11
35.5485143344
 21
-18.8743140729
  0
LWPOLYLINE
  5
2C3
100
AcDbEntity
  8
0
100
AcDbPolyline
 62
7
  6
CONTINUOUS
 90
3
 70
0
 10
-2.3994477086
 20
-15.6446188931
 10
-2.3334702551
 20
-15.5913913579
 10
-2.2753558566
 20
-15.5177878428
  0
LWPOLYLINE
  5
2C4
100
AcDbEntity
  8
ASSI
100
AcDbPolyline
 62
7
  6
CONTINUOUS
 90
3
 70
0
 10
-2.3994477086
 20
-15.6446188931
 10
-2.3334702551
 20
-15.5913913579
 10
-2.2753558566
 20
-15.5177878428
  0
LINE
  5
2C5
100
AcDbEntity
  8
0
100
AcDbLine
 62
250
  6
CONTINUOUS
 10
-2.8256280265
 20
-15.8620050922
 11
-2.3635101661
 21
-15.5565669054
  0
LINE
  5
2C6
100
AcDbEntity
  8
ASSI
100
AcDbLine
 62
250
  6
CONTINUOUS
 10
-2.8256280265
 20
-15.8620050922
 11
-2.3635101661
 21
-15.5565669054
  0
LINE
  5
2C7
100
AcDbEntity
  8
0
100
AcDbLine
 62
7
  6
CONTINUOUS
 10
-2.7737000212
 20
-15.8919876716
 11
-2.3995017362
 21
-15.644660192
  0
LINE
  5
2C8
100
AcDbEntity
  8
ASSI
100
AcDbLine
 62
7
  6
CONTINUOUS
 10
-2.7737000212
 20
-15.8919876716
 11
-2.3995017362
 21
-15.644660192
  0
LINE
  5
2C9
100
AcDbEntity
  8
0
100
AcDbLine
 62
250
  6
CONTINUOUS
 10
-3.621539796
 20
-15.4024556116
 11
-2.5085467879
 21
-14.724942216
  0
LINE
  5
2CA
100
AcDbEntity
  8
ASSI
100
AcDbLine
 62
250
  6
CONTINUOUS
 10
-3.621539796
 20
-15.4024556116
 11
-2.5085467879
 21
-14.724942216
  0
LINE
  5
2CB
100
AcDbEntity
  8
0
100
AcDbLine
 62
250
  6
CONTINUOUS
 10
-3.3424410765
 20
-15.5636037143
 11
-2.3634755991
 21
-14.9676770374
  0
LINE
  5
2CC
100
AcDbEntity
  8
ASSI
100
AcDbLine
 62
250
  6
CONTINUOUS
 10
-3.3424410765
 20
-15.5636037143
 11
-2.3634755991
 21
-14.9676770374
  0
LINE
  5
2CD
100
AcDbEntity
  8
0
100
AcDbLine
 62
7
  6
CONTINUOUS
 10
-4.6071604333
 20
-13.5551039586
 11
-5.7628401952
 21
-14.1660955979
  0
LINE
  5
2CE
100
AcDbEntity
  8
ASSI
100
AcDbLine
 62
7
  6
CONTINUOUS
 10
-4.6071604333
 20
-13.5551039586
 11
-5.7628401952
 21
-14.1660955979
  0
LINE
  5
2CF
100
AcDbEntity
  8
0
100
AcDbLine
 62
250
  6
CONTINUOUS
 10
-4.512449025
 20
-13.5679141791
 11
-5.7059879013
 21
-14.1989213999
  0
LINE
  5
2D0
100
AcDbEntity
  8
ASSI
100
AcDbLine
 62
250
  6
CONTINUOUS
 10
-4.512449025
 20
-13.5679141791
 11
-5.7059879013
 21
-14.1989213999
  0
LINE
  5
2D1
100
AcDbEntity
  8
0
100
AcDbLine
 62
7
  6
CONTINUOUS
 10
-4.5188257634
 20
-13.5181881621
 11
-4.6071980497
 21
-13.5551250703
  0
LINE
  5
2D2
100
AcDbEntity
  8
ASSI
100
AcDbLine
 62
7
  6
CONTINUOUS
 10
-4.5188257634
 20
-13.5181881621
 11
-4.6071980497
 21
-13.5551250703
  0
LINE
  5
2D3
100
AcDbEntity
  8
0
100
AcDbLine
 62
250
  6
CONTINUOUS
 10
-14.0192968487
 20
23.0025115317
 11
-13.509306507
 21
22.7080496216
  0
LINE
  5
2D4
100
AcDbEntity
  8
ASSI
100
AcDbLine
 62
250
  6
CONTINUOUS
 10
-14.0192968487
 20
23.0025115317
 11
-13.509306507
 21
22.7080496216
  0
LWPOLYLINE
  5
2D5
100
AcDbEntity
  8
RACCORDO
100
AcDbPolyline
 62
7
  6
CONTINUOUS
 90
4
 70
0
 10
15.3943287353
 20
-28.3944212771
 10
15.3931560083
 20
-28.464509961
 10
15.3859431921
 20
-28.5125248219
 10
15.3783888932
 20
-28.5368319739
  0
LWPOLYLINE
  5
2D6
100
AcDbEntity
  8
ASSI
100
AcDbPolyline
 62
7
  6
CONTINUOUS
 90
4
 70
0
 10
15.3943287353
 20
-28.3944212771
 10
15.3931560083
 20
-28.464509961
 10
15.3859431921
 20
-28.5125248219
 10
15.3783888932
 20
-28.5368319739
  0
LWPOLYLINE
  5
2D7
100
AcDbEntity
  8
RACCORDO
100
AcDbPolyline
 62
7
  6
CONTINUOUS
 90
5
 70
0
 10
15.3942884315
 20
7.3188456052
 10
15.1277654595
 20
-1.7429692464
 10
15.0379917293
 20
-10.7628137792
 10
15.1276624525
 20
-19.6679621576
 10
15.3943292222
 20
-28.3944147734
  0
LWPOLYLINE
  5
2D8
100
AcDbEntity
  8
ASSI
100
AcDbPolyline
 62
7
  6
CONTINUOUS
 90
5
 70
0
 10
15.3942884315
 20
7.3188456052
 10
15.1277654595
 20
-1.7429692464
 10
15.0379917293
 20
-10.7628137792
 10
15.1276624525
 20
-19.6679621576
 10
15.3943292222
 20
-28.3944147734
  0
LINE
  5
2D9
100
AcDbEntity
  8
RACCORDO
100
AcDbLine
 62
7
  6
CONTINUOUS
 10
15.3942884315
 20
7.3188456052
 11
15.3942906049
 21
7.3189011584
  0
LINE
  5
2DA
100
AcDbEntity
  8
ASSI
100
AcDbLine
 62
7
  6
CONTINUOUS
 10
15.3942884315
 20
7.3188456052
 11
15.3942906049
 21
7.3189011584
  0
LINE
  5
2DB
100
AcDbEntity
  8
0
100
AcDbLine
 62
7
  6
CONTINUOUS
 10
-3.6675347684
 20
-22.071120657
 11
-3.7739617229
 21
-22.1325702467
  0
LINE
  5
2DC
100
AcDbEntity
  8
ASSI
100
AcDbLine
 62
7
  6
CONTINUOUS
 10
-3.6675347684
 20
-22.071120657
 11
-3.7739617229
 21
-22.1325702467
  0
LINE
  5
2DD
100
AcDbEntity
  8
0
100
AcDbLine
 62
7
  6
CONTINUOUS
 10
-3.8136096444
 20
-22.6384804342
 11
-3.9200840595
 21
-22.699957427
  0
LINE
  5
2DE
100
AcDbEntity
  8
ASSI
100
AcDbLine
 62
7
  6
CONTINUOUS
 10
-3.8136096444
 20
-22.6384804342
 11
-3.9200840595
 21
-22.699957427
  0
LINE
  5
2DF
100
AcDbEntity
  8
0
100
AcDbLine
 62
7
  6
CONTINUOUS
 10
-1.5964907266
 20
-22.5489228284
 11
-1.7028691161
 21
-22.6103443773
  0
LINE
  5
2E0
100
AcDbEntity
  8
ASSI
100
AcDbLine
 62
7
  6
CONTINUOUS
 10
-1.5964907266
 20
-22.5489228284
 11
-1.7028691161
 21
-22.6103443773
  0
LINE
  5
2E1
100
AcDbEntity
  8
0
100
AcDbLine
 62
7
  6
CONTINUOUS
 10
-2.6031687
 20
-23.3373738651
 11
-2.7096431151
 21
-23.3988508579
  0
LINE
  5
2E2
100
AcDbEntity
  8
ASSI
100
AcDbLine
 62
7
  6
CONTINUOUS
 10
-2.6031687
 20
-23.3373738651
 11
-2.7096431151
 21
-23.3988508579
  0
LWPOLYLINE
  5
2E3
100
AcDbEntity
  8
0
100
AcDbPolyline
 62
7
  6
CONTINUOUS
 90
4
 70
0
 10
-13.776648275
 20
23.0174937414
 10
-13.7847517158
 20
23.0220123401
 10
-13.8618098989
 20
23.0510368029
 10
-13.9468865415
 20
23.0593428177
  0
LWPOLYLINE
  5
2E4
100
AcDbEntity
  8
ASSI
100
AcDbPolyline
 62
7
  6
CONTINUOUS
 90
4
 70
0
 10
-13.776648275
 20
23.0174937414
 10
-13.7847517158
 20
23.0220123401
 10
-13.8618098989
 20
23.0510368029
 10
-13.9468865415
 20
23.0593428177
  0
LINE
  5
2E5
100
AcDbEntity
  8
0
100
AcDbLine
 62
7
  6
CONTINUOUS
 10
-13.7767117967
 20
23.0175306929
 11
-13.2729055005
 21
22.7266392516
  0
LINE
  5
2E6
100
AcDbEntity
  8
ASSI
100
AcDbLine
 62
7
  6
CONTINUOUS
 10
-13.7767117967
 20
23.0175306929
 11
-13.2729055005
 21
22.7266392516
  0
LINE
  5
2E7
100
AcDbEntity
  8
RACCORDO
100
AcDbLine
 62
250
  6
CONTINUOUS
 10
15.3733164961
 20
7.8952835461
 11
30.5582971629
 21
-0.8723834107
  0
LINE
  5
2E8
100
AcDbEntity
  8
ASSI
100
AcDbLine
 62
250
  6
CONTINUOUS
 10
15.3733164961
 20
7.8952835461
 11
30.5582971629
 21
-0.8723834107
  0
LINE
  5
2E9
100
AcDbEntity
  8
RACCORDO
100
AcDbLine
 62
250
  6
CONTINUOUS
 10
-32.2932710624
 20
35.4173244942
 11
-17.1082862896
 21
26.6497539045
  0
LINE
  5
2EA
100
AcDbEntity
  8
ASSI
100
AcDbLine
 62
250
  6
CONTINUOUS
 10
-32.2932710624
 20
35.4173244942
 11
-17.1082862896
 21
26.6497539045
  0
LINE
  5
2EB
100
AcDbEntity
  8
RACCORDO
100
AcDbLine
 62
7
  6
CONTINUOUS
 10
-16.2618848221
 20
26.3989030934
 11
14.769702243
 21
8.4816536392
  0
LINE
  5
2EC
100
AcDbEntity
  8
ASSI
100
AcDbLine
 62
7
  6
CONTINUOUS
 10
-16.2618848221
 20
26.3989030934
 11
14.769702243
 21
8.4816536392
  0
LINE
  5
2ED
100
AcDbEntity
  8
RACCORDO
100
AcDbLine
 62
250
  6
CONTINUOUS
 10
-16.3649224776
 20
26.6498449286
 11
14.6666645876
 21
8.7325954743
  0
LINE
  5
2EE
100
AcDbEntity
  8
ASSI
100
AcDbLine
 62
250
  6
CONTINUOUS
 10
-16.3649224776
 20
26.6498449286
 11
14.6666645876
 21
8.7325954743
  0
LINE
  5
2EF
100
AcDbEntity
  8
0
100
AcDbLine
 62
250
  6
CONTINUOUS
 10
-17.7995834384
 20
29.3249691474
 11
-16.5985342863
 21
28.6314984197
  0
LINE
  5
2F0
100
AcDbEntity
  8
0
100
AcDbLine
 62
250
  6
CONTINUOUS
 10
-17.7242318478
 20
29.3684683272
 11
-16.6644824295
 21
28.7565822949
  0
LINE
  5
2F1
100
AcDbEntity
  8
0
100
AcDbLine
 62
250
  6
CONTINUOUS
 10
-17.648837767
 20
29.4119928568
 11
-16.7303880826
 21
28.88169152
  0
LINE
  5
2F2
100
AcDbEntity
  8
0
100
AcDbLine
 62
250
  6
CONTINUOUS
 10
-9.0454657194
 20
24.7932249197
 11
-8.0563661681
 21
24.2221312351
  0
LINE
  5
2F3
100
AcDbEntity
  8
0
100
AcDbLine
 62
250
  6
CONTINUOUS
 10
-7.1909042375
 20
23.7224243632
 11
-6.9436297032
 21
23.5796511462
  0
LINE
  5
2F4
100
AcDbEntity
  8
0
100
AcDbLine
 62
250
  6
CONTINUOUS
 10
-5.7896802267
 20
22.9133751808
 11
-5.5424049853
 21
22.7706015555
  0
LINE
  5
2F5
100
AcDbEntity
  8
0
100
AcDbLine
 62
250
  6
CONTINUOUS
 10
-4.5533061411
 20
22.1995082792
 11
-4.182393279
 21
21.9853478413
  0
LINE
  5
2F6
100
AcDbEntity
  8
0
100
AcDbLine
 62
250
  6
CONTINUOUS
 10
-2.616319343
 20
21.0811163781
 11
-2.3690441016
 21
20.9383427528
  0
LINE
  5
2F7
100
AcDbEntity
  8
0
100
AcDbLine
 62
250
  6
CONTINUOUS
 10
-1.3799452574
 20
20.3672494765
 11
0.1037040695
 21
19.5106089496
  0
LINE
  5
2F8
100
AcDbEntity
  8
0
100
AcDbLine
 62
250
  6
CONTINUOUS
 10
2.3291784135
 20
18.2256479551
 11
2.5764529478
 21
18.0828747381
  0
LINE
  5
2F9
100
AcDbEntity
  8
0
100
AcDbLine
 62
250
  6
CONTINUOUS
 10
2.9061527983
 20
17.8925101766
 11
3.1534273325
 21
17.7497369596
  0
LINE
  5
2FA
100
AcDbEntity
  8
0
100
AcDbLine
 62
250
  6
CONTINUOUS
 10
4.3073768091
 20
17.0834609942
 11
4.5546520504
 21
16.9406873689
  0
LINE
  5
2FB
100
AcDbEntity
  8
0
100
AcDbLine
 62
250
  6
CONTINUOUS
 10
4.8843511938
 20
16.7503232157
 11
6.3680005207
 21
15.8936826888
  0
LINE
  5
2FC
100
AcDbEntity
  8
0
100
AcDbLine
 62
250
  6
CONTINUOUS
 10
1.9994785631
 20
18.4160125167
 11
1.7109910172
 21
18.5825816101
  0
LINE
  5
2FD
100
AcDbEntity
  8
0
100
AcDbLine
 62
250
  6
CONTINUOUS
 10
0.6806784543
 20
19.1774711711
 11
0.43340392
 21
19.3202443881
  0
LINE
  5
2FE
100
AcDbEntity
  8
0
100
AcDbLine
 62
250
  6
CONTINUOUS
 10
-8.7581847575
 20
24.9396312114
 11
-7.975148143
 21
24.487515684
  0
LINE
  5
2FF
100
AcDbEntity
  8
0
100
AcDbLine
 62
250
  6
CONTINUOUS
 10
6.4080069484
 20
16.1828621975
 11
5.1716328628
 21
16.8967290991
  0
LINE
  5
300
100
AcDbEntity
  8
0
100
AcDbLine
 62
250
  6
CONTINUOUS
 10
0.1437104972
 20
19.7997884583
 11
-1.0926635884
 21
20.5136553599
  0
LINE
  5
301
100
AcDbEntity
  8
0
100
AcDbLine
 62
250
  6
CONTINUOUS
 10
-4.1423875584
 20
22.2745277583
 11
-4.5132997134
 21
22.4886877879
  0
LINE
  5
302
100
AcDbEntity
  8
0
100
AcDbLine
 62
250
  6
CONTINUOUS
 10
-18.5554249351
 20
30.7649163329
 11
-17.7429500512
 21
30.2958035176
  0
LINE
  5
303
100
AcDbEntity
  8
0
100
AcDbLine
 62
250
  6
CONTINUOUS
 10
-16.541900899
 20
29.6023327898
 11
-15.7294260151
 21
29.1332199745
  0
LINE
  5
304
100
AcDbEntity
  8
0
100
AcDbLine
 62
250
  6
CONTINUOUS
 10
-18.4795849374
 20
30.8086975128
 11
-17.6671100535
 21
30.3395846975
  0
LINE
  5
305
100
AcDbEntity
  8
0
100
AcDbLine
 62
250
  6
CONTINUOUS
 10
-16.6073606352
 20
29.7276986652
 11
-15.7948857512
 21
29.2585858499
  0
LINE
  5
306
100
AcDbEntity
  8
0
100
AcDbLine
 62
250
  6
CONTINUOUS
 10
-6.6982240605
 20
24.0631413246
 11
-5.8739744345
 21
23.5872299208
  0
LINE
  5
307
100
AcDbEntity
  8
0
100
AcDbLine
 62
250
  6
CONTINUOUS
 10
3.3988329752
 20
18.233227138
 11
4.2230818942
 21
17.7573161424
  0
LINE
  5
308
100
AcDbEntity
  8
0
100
AcDbLine
 62
250
  6
CONTINUOUS
 10
-3.5248631769
 20
22.2308825219
 11
-3.7721384183
 21
22.3736561472
  0
LINE
  5
309
100
AcDbEntity
  8
0
100
AcDbLine
 62
250
  6
CONTINUOUS
 10
-18.4037017285
 20
30.8525028259
 11
-17.5912275517
 21
30.3833904188
  0
LINE
  5
30A
100
AcDbEntity
  8
0
100
AcDbLine
 62
250
  6
CONTINUOUS
 10
-16.6727778673
 20
29.853089082
 11
-15.8603036904
 21
29.3839766749
  0
LINE
  5
30B
100
AcDbEntity
  8
0
100
AcDbLine
 62
250
  6
CONTINUOUS
 10
-14.067871739
 20
28.3928770021
 11
-14.8214714982
 21
28.8279960582
  0
LINE
  5
30C
100
AcDbEntity
  8
0
100
AcDbLine
 62
250
  6
CONTINUOUS
 10
-6.62967767
 20
24.2325153532
 11
-5.8878526529
 21
23.8041948857
  0
LINE
  5
30D
100
AcDbEntity
  8
0
100
AcDbLine
 62
250
  6
CONTINUOUS
 10
3.4673800729
 20
18.4026007584
 11
4.2092043828
 21
17.9742806991
  0
LINE
  5
30E
100
AcDbEntity
  8
0
100
AcDbLine
 62
250
  6
CONTINUOUS
 10
1.5236885371
 20
19.7864464909
 11
0.8230758246
 21
20.1909714903
  0
LINE
  5
30F
100
AcDbEntity
  8
0
100
AcDbLine
 62
250
  6
CONTINUOUS
 10
-7.8727564932
 20
25.2118360863
 11
-8.6557938148
 21
25.663952022
  0
LINE
  5
310
100
AcDbEntity
  8
0
100
AcDbLine
 62
250
  6
CONTINUOUS
 10
-0.9833262907
 20
21.2863338974
 11
0.0881978697
 21
20.6676492766
  0
LINE
  5
311
100
AcDbEntity
  8
0
100
AcDbLine
 62
250
  6
CONTINUOUS
 10
1.6480207218
 20
20.0291327623
 11
0.8649834002
 21
20.481248698
  0
LINE
  5
312
100
AcDbEntity
  8
0
100
AcDbLine
 62
250
  6
CONTINUOUS
 10
-7.8308496247
 20
25.5021137022
 11
-8.6138862392
 21
25.9542292296
  0
LINE
  5
313
100
AcDbEntity
  8
0
100
AcDbLine
 62
250
  6
CONTINUOUS
 10
0.1301960566
 20
20.9579788021
 11
-0.9413281038
 21
21.576663423
  0
LINE
  5
314
100
AcDbEntity
  8
0
100
AcDbLine
 62
250
  6
CONTINUOUS
 10
-15.7884088112
 20
30.4859880561
 11
-16.6008829881
 21
30.9551004632
  0
LINE
  5
315
100
AcDbEntity
  8
0
100
AcDbLine
 62
250
  6
CONTINUOUS
 10
-17.5193326724
 20
31.4854018
 11
-18.3318068493
 21
31.9545142071
  0
LINE
  5
316
100
AcDbEntity
  8
0
100
AcDbLine
 62
250
  6
CONTINUOUS
 10
-3.611666758
 20
23.4862854957
 11
-3.3643915166
 21
23.3435118704
  0
LINE
  5
317
100
AcDbEntity
  8
0
100
AcDbLine
 62
250
  6
CONTINUOUS
 10
-15.7119299291
 20
30.5301373034
 11
-16.524404813
 21
30.9992501187
  0
LINE
  5
318
100
AcDbEntity
  8
0
100
AcDbLine
 62
250
  6
CONTINUOUS
 10
-17.5841542313
 20
31.611136151
 11
-18.3966291153
 21
32.0802489663
  0
LINE
  5
319
100
AcDbEntity
  8
0
100
AcDbLine
 62
250
  6
CONTINUOUS
 10
-15.6354091602
 20
30.5743115521
 11
-16.4478840442
 21
31.0434243674
  0
LINE
  5
31A
100
AcDbEntity
  8
0
100
AcDbLine
 62
250
  6
CONTINUOUS
 10
-17.6489331963
 20
31.7368950952
 11
-18.4614080803
 21
32.2060079105
  0
LINE
  5
31B
100
AcDbEntity
  8
0
100
AcDbLine
 62
250
  6
CONTINUOUS
 10
-8.5139876651
 20
26.6327639892
 11
-7.7309503435
 21
26.1806480535
  0
LINE
  5
31C
100
AcDbEntity
  8
0
100
AcDbLine
 62
250
  6
CONTINUOUS
 10
-4.269101914
 20
24.1818201574
 11
-3.898189759
 21
23.9676601277
  0
LINE
  5
31D
100
AcDbEntity
  8
0
100
AcDbLine
 62
250
  6
CONTINUOUS
 10
-0.848466496
 20
22.2067881377
 11
0.3879082967
 21
21.4929208278
  0
LINE
  5
31E
100
AcDbEntity
  8
0
100
AcDbLine
 62
250
  6
CONTINUOUS
 10
-2.9842662414
 20
23.4926896046
 11
-2.3248665405
 21
23.1119604815
  0
LINE
  5
31F
100
AcDbEntity
  8
0
100
AcDbLine
 62
250
  6
CONTINUOUS
 10
-2.0775920063
 20
22.9691872645
 11
-1.4181923054
 21
22.5884581414
  0
LINE
  5
320
100
AcDbEntity
  8
0
100
AcDbLine
 62
250
  6
CONTINUOUS
 10
0.9721312567
 20
21.2083152745
 11
1.7551685783
 21
20.7561993388
  0
LINE
  5
321
100
AcDbEntity
  8
0
100
AcDbLine
 62
250
  6
CONTINUOUS
 10
0.761328745
 20
21.5938811068
 11
1.7504282963
 21
21.0227874222
  0
LINE
  5
322
100
AcDbEntity
  8
0
100
AcDbLine
 62
250
  6
CONTINUOUS
 10
5.4595512602
 20
18.8811863091
 11
5.2122760188
 21
19.0239599344
  0
LINE
  5
323
100
AcDbEntity
  8
0
100
AcDbLine
 62
250
  6
CONTINUOUS
 10
4.2231764675
 20
19.595053619
 11
3.8934773241
 21
19.7854177723
  0
LINE
  5
324
100
AcDbEntity
  8
0
100
AcDbLine
 62
250
  6
CONTINUOUS
 10
2.9043777728
 20
20.3565114569
 11
2.6571032386
 21
20.4992846739
  0
LINE
  5
325
100
AcDbEntity
  8
0
100
AcDbLine
 62
250
  6
CONTINUOUS
 10
0.4316288946
 20
21.7842456684
 11
-1.0520204324
 21
22.6408861953
  0
LINE
  5
326
100
AcDbEntity
  8
0
100
AcDbLine
 62
250
  6
CONTINUOUS
 10
-1.3817202828
 20
22.8312507568
 11
-2.9477942189
 21
23.7354822199
  0
LINE
  5
327
100
AcDbEntity
  8
0
100
AcDbLine
 62
250
  6
CONTINUOUS
 10
-3.8544691611
 20
24.2589849683
 11
-4.2253813161
 21
24.4731449979
  0
LINE
  5
328
100
AcDbEntity
  8
0
100
AcDbLine
 62
250
  6
CONTINUOUS
 10
-5.8738798612
 20
25.4249673973
 11
-6.2035797116
 21
25.6153319589
  0
LINE
  5
329
100
AcDbEntity
  8
0
100
AcDbLine
 62
250
  6
CONTINUOUS
 10
-7.7284413431
 20
26.4957679539
 11
-8.7175408944
 21
27.0668616385
  0
LINE
  5
32A
100
AcDbEntity
  8
0
100
AcDbLine
 62
250
  6
CONTINUOUS
 10
-10.5155607039
 20
28.105015742
 11
-11.645959282
 21
28.7576937138
  0
LWPOLYLINE
  5
32B
100
AcDbEntity
  8
RACCORDO
100
AcDbPolyline
 62
7
  6
CONTINUOUS
 90
8
 70
0
 10
14.7697392501
 20
8.481632218
 10
14.8029430809
 20
8.4612091042
 10
14.8894397987
 20
8.3966793359
 10
14.9811279304
 20
8.3104029478
 10
15.0725311647
 20
8.2042612888
 10
15.1587545773
 20
8.0815015393
 10
15.2356469088
 20
7.9463044665
 10
15.2701815018
 20
7.8740360604
  0
LWPOLYLINE
  5
32C
100
AcDbEntity
  8
ASSI
100
AcDbPolyline
 62
7
  6
CONTINUOUS
 90
8
 70
0
 10
14.7697392501
 20
8.481632218
 10
14.8029430809
 20
8.4612091042
 10
14.8894397987
 20
8.3966793359
 10
14.9811279304
 20
8.3104029478
 10
15.0725311647
 20
8.2042612888
 10
15.1587545773
 20
8.0815015393
 10
15.2356469088
 20
7.9463044665
 10
15.2701815018
 20
7.8740360604
  0
LINE
  5
32D
100
AcDbEntity
  8
RACCORDO
100
AcDbLine
 62
7
  6
CONTINUOUS
 10
15.270181602
 20
7.8740350966
 11
15.3027245655
 21
7.7960693473
  0
LINE
  5
32E
100
AcDbEntity
  8
ASSI
100
AcDbLine
 62
7
  6
CONTINUOUS
 10
15.270181602
 20
7.8740350966
 11
15.3027245655
 21
7.7960693473
  0
LWPOLYLINE
  5
32F
100
AcDbEntity
  8
RACCORDO
100
AcDbPolyline
 62
7
  6
CONTINUOUS
 90
5
 70
0
 10
15.3027245655
 20
7.7960693473
 10
15.3525319346
 20
7.6443084111
 10
15.3827856325
 20
7.5015383174
 10
15.3945261748
 20
7.3749279647
 10
15.3942899763
 20
7.3189011827
  0
LWPOLYLINE
  5
330
100
AcDbEntity
  8
ASSI
100
AcDbPolyline
 62
7
  6
CONTINUOUS
 90
5
 70
0
 10
15.3027245655
 20
7.7960693473
 10
15.3525319346
 20
7.6443084111
 10
15.3827856325
 20
7.5015383174
 10
15.3945261748
 20
7.3749279647
 10
15.3942899763
 20
7.3189011827
  0
LINE
  5
331
100
AcDbEntity
  8
0
100
AcDbLine
 62
7
  6
CONTINUOUS
 10
-1.9745415791
 20
-23.7003352861
 11
-2.0810159943
 21
-23.761812279
  0
LINE
  5
332
100
AcDbEntity
  8
ASSI
100
AcDbLine
 62
7
  6
CONTINUOUS
 10
-1.9745415791
 20
-23.7003352861
 11
-2.0810159943
 21
-23.761812279
  0
LINE
  5
333
100
AcDbEntity
  8
0
100
AcDbLine
 62
7
  6
CONTINUOUS
 10
-1.0480839174
 20
-23.3040434283
 11
-1.1544915061
 21
-23.3654818364
  0
LINE
  5
334
100
AcDbEntity
  8
ASSI
100
AcDbLine
 62
7
  6
CONTINUOUS
 10
-1.0480839174
 20
-23.3040434283
 11
-1.1544915061
 21
-23.3654818364
  0
LINE
  5
335
100
AcDbEntity
  8
0
100
AcDbLine
 62
7
  6
CONTINUOUS
 10
-0.5619999845
 20
-23.1519695889
 11
-0.6683787473
 21
-23.2133913533
  0
LINE
  5
336
100
AcDbEntity
  8
ASSI
100
AcDbLine
 62
7
  6
CONTINUOUS
 10
-0.5619999845
 20
-23.1519695889
 11
-0.6683787473
 21
-23.2133913533
  0
LINE
  5
337
100
AcDbEntity
  8
0
100
AcDbLine
 62
7
  6
CONTINUOUS
 10
-1.0259599501
 20
-24.2719495189
 11
-1.1117246252
 21
-24.3214689674
  0
LINE
  5
338
100
AcDbEntity
  8
ASSI
100
AcDbLine
 62
7
  6
CONTINUOUS
 10
-1.0259599501
 20
-24.2719495189
 11
-1.1117246252
 21
-24.3214689674
  0
LINE
  5
339
100
AcDbEntity
  8
0
100
AcDbLine
 62
7
  6
CONTINUOUS
 10
0.9422961672
 20
-23.8622353233
 11
0.8359276015
 21
-23.9236512001
  0
LINE
  5
33A
100
AcDbEntity
  8
ASSI
100
AcDbLine
 62
7
  6
CONTINUOUS
 10
0.9422961672
 20
-23.8622353233
 11
0.8359276015
 21
-23.9236512001
  0
LINE
  5
33B
100
AcDbEntity
  8
0
100
AcDbLine
 62
7
  6
CONTINUOUS
 10
-0.3710510878
 20
-24.6261705994
 11
-0.4775255029
 21
-24.6876475922
  0
LINE
  5
33C
100
AcDbEntity
  8
ASSI
100
AcDbLine
 62
7
  6
CONTINUOUS
 10
-0.3710510878
 20
-24.6261705994
 11
-0.4775255029
 21
-24.6876475922
  0
LINE
  5
33D
100
AcDbEntity
  8
0
100
AcDbLine
 62
7
  6
CONTINUOUS
 10
0.2465883008
 20
-24.9827878415
 11
0.1401138857
 21
-25.0442648344
  0
LINE
  5
33E
100
AcDbEntity
  8
ASSI
100
AcDbLine
 62
7
  6
CONTINUOUS
 10
0.2465883008
 20
-24.9827878415
 11
0.1401138857
 21
-25.0442648344
  0
LINE
  5
33F
100
AcDbEntity
  8
0
100
AcDbLine
 62
7
  6
CONTINUOUS
 10
0.7353081605
 20
-24.847962413
 11
0.6288644884
 21
-24.9094216552
  0
LINE
  5
340
100
AcDbEntity
  8
ASSI
100
AcDbLine
 62
7
  6
CONTINUOUS
 10
0.7353081605
 20
-24.847962413
 11
0.6288644884
 21
-24.9094216552
  0
LINE
  5
341
100
AcDbEntity
  8
0
100
AcDbLine
 62
7
  6
CONTINUOUS
 10
1.1900432616
 20
-24.7867853406
 11
1.0836225401
 21
-24.8482313315
  0
LINE
  5
342
100
AcDbEntity
  8
ASSI
100
AcDbLine
 62
7
  6
CONTINUOUS
 10
1.1900432616
 20
-24.7867853406
 11
1.0836225401
 21
-24.8482313315
  0
LINE
  5
343
100
AcDbEntity
  8
0
100
AcDbLine
 62
7
  6
CONTINUOUS
 10
2.3530535255
 20
-24.455950038
 11
2.2466988773
 21
-24.5173578789
  0
LINE
  5
344
100
AcDbEntity
  8
ASSI
100
AcDbLine
 62
7
  6
CONTINUOUS
 10
2.3530535255
 20
-24.455950038
 11
2.2466988773
 21
-24.5173578789
  0
LINE
  5
345
100
AcDbEntity
  8
0
100
AcDbLine
 62
7
  6
CONTINUOUS
 10
1.2980711131
 20
-25.1728946888
 11
1.1916274411
 21
-25.234353931
  0
LINE
  5
346
100
AcDbEntity
  8
ASSI
100
AcDbLine
 62
7
  6
CONTINUOUS
 10
1.2980711131
 20
-25.1728946888
 11
1.1916274411
 21
-25.234353931
  0
LINE
  5
347
100
AcDbEntity
  8
0
100
AcDbLine
 62
250
  6
CONTINUOUS
 10
2.6759182333
 20
-24.6299039172
 11
2.56956436
 21
-24.6913113108
  0
LINE
  5
348
100
AcDbEntity
  8
ASSI
100
AcDbLine
 62
250
  6
CONTINUOUS
 10
2.6759182333
 20
-24.6299039172
 11
2.56956436
 21
-24.6913113108
  0
LINE
  5
349
100
AcDbEntity
  8
0
100
AcDbLine
 62
7
  6
CONTINUOUS
 10
1.4391846985
 20
-25.6713780548
 11
1.3327102833
 21
-25.7328550476
  0
LINE
  5
34A
100
AcDbEntity
  8
ASSI
100
AcDbLine
 62
7
  6
CONTINUOUS
 10
1.4391846985
 20
-25.6713780548
 11
1.3327102833
 21
-25.7328550476
  0
LINE
  5
34B
100
AcDbEntity
  8
0
100
AcDbLine
 62
250
  6
CONTINUOUS
 10
2.9278880612
 20
-25.0399331928
 11
2.8215174976
 21
-25.101350223
  0
LINE
  5
34C
100
AcDbEntity
  8
ASSI
100
AcDbLine
 62
250
  6
CONTINUOUS
 10
2.9278880612
 20
-25.0399331928
 11
2.8215174976
 21
-25.101350223
  0
LINE
  5
34D
100
AcDbEntity
  8
0
100
AcDbLine
 62
7
  6
CONTINUOUS
 10
2.434050739
 20
-25.4268947586
 11
2.3276354399
 21
-25.4883376187
  0
LINE
  5
34E
100
AcDbEntity
  8
ASSI
100
AcDbLine
 62
7
  6
CONTINUOUS
 10
2.434050739
 20
-25.4268947586
 11
2.3276354399
 21
-25.4883376187
  0
LINE
  5
34F
100
AcDbEntity
  8
0
100
AcDbLine
 62
7
  6
CONTINUOUS
 10
2.7557079613
 20
-25.3060803431
 11
2.8620942918
 21
-25.2446542093
  0
LINE
  5
350
100
AcDbEntity
  8
ASSI
100
AcDbLine
 62
7
  6
CONTINUOUS
 10
2.7557079613
 20
-25.3060803431
 11
2.8620942918
 21
-25.2446542093
  0
LINE
  5
351
100
AcDbEntity
  8
0
100
AcDbLine
 62
250
  6
CONTINUOUS
 10
2.65561955
 20
-25.5548258132
 11
2.5492042508
 21
-25.6162686732
  0
LINE
  5
352
100
AcDbEntity
  8
ASSI
100
AcDbLine
 62
250
  6
CONTINUOUS
 10
2.65561955
 20
-25.5548258132
 11
2.5492042508
 21
-25.6162686732
  0
LINE
  5
353
100
AcDbEntity
  8
0
100
AcDbLine
 62
7
  6
CONTINUOUS
 10
2.0879925291
 20
-26.0459918286
 11
1.9815181139
 21
-26.1074688215
  0
LINE
  5
354
100
AcDbEntity
  8
ASSI
100
AcDbLine
 62
7
  6
CONTINUOUS
 10
2.0879925291
 20
-26.0459918286
 11
1.9815181139
 21
-26.1074688215
  0
LINE
  5
355
100
AcDbEntity
  8
0
100
AcDbLine
 62
7
  6
CONTINUOUS
 10
3.0719148539
 20
-25.6242061072
 11
2.9655112556
 21
-25.6856422113
  0
LINE
  5
356
100
AcDbEntity
  8
ASSI
100
AcDbLine
 62
7
  6
CONTINUOUS
 10
3.0719148539
 20
-25.6242061072
 11
2.9655112556
 21
-25.6856422113
  0
LINE
  5
357
100
AcDbEntity
  8
0
100
AcDbLine
 62
250
  6
CONTINUOUS
 10
2.900416923
 20
-25.8809317277
 11
2.7939887322
 21
-25.9423820312
  0
LINE
  5
358
100
AcDbEntity
  8
ASSI
100
AcDbLine
 62
250
  6
CONTINUOUS
 10
2.900416923
 20
-25.8809317277
 11
2.7939887322
 21
-25.9423820312
  0
LINE
  5
359
100
AcDbEntity
  8
0
100
AcDbLine
 62
7
  6
CONTINUOUS
 10
3.132386996
 20
-26.6490121044
 11
3.0259125808
 21
-26.7104890973
  0
LINE
  5
35A
100
AcDbEntity
  8
ASSI
100
AcDbLine
 62
7
  6
CONTINUOUS
 10
3.132386996
 20
-26.6490121044
 11
3.0259125808
 21
-26.7104890973
  0
LWPOLYLINE
  5
35B
100
AcDbEntity
  8
0
100
AcDbPolyline
 62
7
  6
CONTINUOUS
 90
3
 70
0
 10
-13.9468865415
 20
23.0593428177
 10
-14.0372567435
 20
23.045156633
 10
-14.1135880985
 20
23.0153948471
  0
LWPOLYLINE
  5
35C
100
AcDbEntity
  8
ASSI
100
AcDbPolyline
 62
7
  6
CONTINUOUS
 90
3
 70
0
 10
-13.9468865415
 20
23.0593428177
 10
-14.0372567435
 20
23.045156633
 10
-14.1135880985
 20
23.0153948471
  0
LINE
  5
35D
100
AcDbEntity
  8
0
100
AcDbLine
 62
250
  6
CONTINUOUS
 10
-16.5312845448
 20
31.9334198777
 11
-17.4497342292
 21
32.4637212146
  0
LINE
  5
35E
100
AcDbEntity
  8
0
100
AcDbLine
 62
250
  6
CONTINUOUS
 10
-16.4543160839
 20
31.9778534347
 11
-17.5140655021
 21
32.589739467
  0
LINE
  5
35F
100
AcDbEntity
  8
0
100
AcDbLine
 62
250
  6
CONTINUOUS
 10
-16.3773050162
 20
32.0223107758
 11
-17.5783541683
 21
32.7157815035
  0
LINE
  5
360
100
AcDbEntity
  8
RACCORDO
100
AcDbLine
 62
7
  6
CONTINUOUS
 10
15.3783888932
 20
-28.5368319739
 11
15.3770881193
 21
-28.5396423908
  0
LINE
  5
361
100
AcDbEntity
  8
ASSI
100
AcDbLine
 62
7
  6
CONTINUOUS
 10
15.3783888932
 20
-28.5368319739
 11
15.3770881193
 21
-28.5396423908
  0
LINE
  5
362
100
AcDbEntity
  8
DRAFT
100
AcDbLine
 62
7
  6
CONTINUOUS
 10
34.7673311373
 20
-18.8230420945
 11
35.1949609438
 21
-18.6701767762
  0
LINE
  5
363
100
AcDbEntity
  8
ASSI
100
AcDbLine
 62
7
  6
CONTINUOUS
 10
34.7673311373
 20
-18.8230420945
 11
35.1949609438
 21
-18.6701767762
  0
LINE
  5
364
100
AcDbEntity
  8
RACCORDO
100
AcDbLine
 62
7
  6
CONTINUOUS
 10
34.6292755188
 20
-53.410128501
 11
34.6292755188
 21
18.4414937451
  0
LINE
  5
365
100
AcDbEntity
  8
ASSI
100
AcDbLine
 62
7
  6
CONTINUOUS
 10
34.6292755188
 20
-53.410128501
 11
34.6292755188
 21
18.4414937451
  0
LINE
  5
366
100
AcDbEntity
  8
DRAFT
100
AcDbLine
 62
7
  6
CONTINUOUS
 10
34.7673311373
 20
-14.0531436437
 11
34.7673311373
 21
-19.7684355813
  0
LINE
  5
367
100
AcDbEntity
  8
ASSI
100
AcDbLine
 62
7
  6
CONTINUOUS
 10
34.7673311373
 20
-14.0531436437
 11
34.7673311373
 21
-19.7684355813
  0
LINE
  5
368
100
AcDbEntity
  8
DRAFT
100
AcDbLine
 62
7
  6
CONTINUOUS
 10
35.5485143443
 20
19.4587443115
 11
35.5485143344
 21
-12.5831591804
  0
LINE
  5
369
100
AcDbEntity
  8
ASSI
100
AcDbLine
 62
7
  6
CONTINUOUS
 10
35.5485143443
 20
19.4587443115
 11
35.5485143344
 21
-12.5831591804
  0
LINE
  5
36A
100
AcDbEntity
  8
DRAFT
100
AcDbLine
 62
7
  6
CONTINUOUS
 10
35.5485143344
 20
-18.8743140729
 11
35.5485143572
 21
-50.9162174329
  0
LINE
  5
36B
100
AcDbEntity
  8
ASSI
100
AcDbLine
 62
7
  6
CONTINUOUS
 10
35.5485143344
 20
-18.8743140729
 11
35.5485143572
 21
-50.9162174329
  0
LINE
  5
36C
100
AcDbEntity
  8
0
100
AcDbLine
 62
250
  6
CONTINUOUS
 10
15.0012379114
 20
-28.4760196958
 11
15.3884787658
 21
-28.2029633556
  0
LINE
  5
36D
100
AcDbEntity
  8
ASSI
100
AcDbLine
 62
250
  6
CONTINUOUS
 10
15.0012379114
 20
-28.4760196958
 11
15.3884787658
 21
-28.2029633556
  0
LINE
  5
36E
100
AcDbEntity
  8
RACCORDO
100
AcDbLine
 62
250
  6
CONTINUOUS
 10
31.976330763
 20
18.340372313
 11
-30.0767806543
 21
54.1690611372
  0
LINE
  5
36F
100
AcDbEntity
  8
ASSI
100
AcDbLine
 62
250
  6
CONTINUOUS
 10
31.976330763
 20
18.340372313
 11
-30.0767806543
 21
54.1690611372
  0
LINE
  5
370
100
AcDbEntity
  8
RACCORDO
100
AcDbLine
 62
250
  6
CONTINUOUS
 10
32.1738352694
 20
18.6545445073
 11
-29.8792761479
 21
54.4832333315
  0
LINE
  5
371
100
AcDbEntity
  8
ASSI
100
AcDbLine
 62
250
  6
CONTINUOUS
 10
32.1738352694
 20
18.6545445073
 11
-29.8792761479
 21
54.4832333315
  0
LINE
  5
372
100
AcDbEntity
  8
RACCORDO
100
AcDbLine
 62
7
  6
CONTINUOUS
 10
-28.304197072
 20
55.59384341
 11
33.9231378029
 21
19.6645601449
  0
LINE
  5
373
100
AcDbEntity
  8
ASSI
100
AcDbLine
 62
7
  6
CONTINUOUS
 10
-28.304197072
 20
55.59384341
 11
33.9231378029
 21
19.6645601449
  0
LINE
  5
374
100
AcDbEntity
  8
RACCORDO
100
AcDbLine
 62
7
  6
CONTINUOUS
 10
-25.6848647933
 20
55.1431060992
 11
35.2636035958
 21
19.952224304
  0
LINE
  5
375
100
AcDbEntity
  8
ASSI
100
AcDbLine
 62
7
  6
CONTINUOUS
 10
-25.6848647933
 20
55.1431060992
 11
35.2636035958
 21
19.952224304
  0
LINE
  5
376
100
AcDbEntity
  8
RACCORDO
100
AcDbLine
 62
7
  6
CONTINUOUS
 10
35.5485143572
 20
-50.9162174329
 11
35.5442730746
 21
-50.9770513277
  0
LINE
  5
377
100
AcDbEntity
  8
ASSI
100
AcDbLine
 62
7
  6
CONTINUOUS
 10
35.5485143572
 20
-50.9162174329
 11
35.5442730746
 21
-50.9770513277
  0
LINE
  5
378
100
AcDbEntity
  8
RACCORDO
100
AcDbLine
 62
7
  6
CONTINUOUS
 10
-25.739692435
 20
55.1698616867
 11
-25.6848647933
 21
55.1431060992
  0
LINE
  5
379
100
AcDbEntity
  8
ASSI
100
AcDbLine
 62
7
  6
CONTINUOUS
 10
-25.739692435
 20
55.1698616867
 11
-25.6848647933
 21
55.1431060992
  0
LWPOLYLINE
  5
37A
100
AcDbEntity
  8
RACCORDO
100
AcDbPolyline
 62
7
  6
CONTINUOUS
 90
3
 70
0
 10
-25.7396942662
 20
55.1698760989
 10
-26.2366030664
 20
55.3364161536
 10
-26.7930261083
 20
55.451478752
  0
LWPOLYLINE
  5
37B
100
AcDbEntity
  8
ASSI
100
AcDbPolyline
 62
7
  6
CONTINUOUS
 90
3
 70
0
 10
-25.7396942662
 20
55.1698760989
 10
-26.2366030664
 20
55.3364161536
 10
-26.7930261083
 20
55.451478752
  0
LWPOLYLINE
  5
37C
100
AcDbEntity
  8
RACCORDO
100
AcDbPolyline
 62
7
  6
CONTINUOUS
 90
4
 70
0
 10
35.0700774023
 20
-52.4285922696
 10
35.2638250122
 20
-52.0244608299
 10
35.4416136537
 20
-51.4847234688
 10
35.5442846808
 20
-50.9770601498
  0
LWPOLYLINE
  5
37D
100
AcDbEntity
  8
ASSI
100
AcDbPolyline
 62
7
  6
CONTINUOUS
 90
4
 70
0
 10
35.0700774023
 20
-52.4285922696
 10
35.2638250122
 20
-52.0244608299
 10
35.4416136537
 20
-51.4847234688
 10
35.5442846808
 20
-50.9770601498
  0
LINE
  5
37E
100
AcDbEntity
  8
RACCORDO
100
AcDbLine
 62
7
  6
CONTINUOUS
 10
-26.7930261083
 20
55.451478752
 11
-27.2338110394
 21
55.484910567
  0
LINE
  5
37F
100
AcDbEntity
  8
ASSI
100
AcDbLine
 62
7
  6
CONTINUOUS
 10
-26.7930261083
 20
55.451478752
 11
-27.2338110394
 21
55.484910567
  0
LWPOLYLINE
  5
380
100
AcDbEntity
  8
RACCORDO
100
AcDbPolyline
 62
7
  6
CONTINUOUS
 90
4
 70
0
 10
-27.2338449656
 20
55.4849110165
 10
-27.5619942687
 20
55.4734288872
 10
-27.9349128796
 20
55.418452859
 10
-27.9791016706
 20
55.4061373997
  0
LWPOLYLINE
  5
381
100
AcDbEntity
  8
ASSI
100
AcDbPolyline
 62
7
  6
CONTINUOUS
 90
4
 70
0
 10
-27.2338449656
 20
55.4849110165
 10
-27.5619942687
 20
55.4734288872
 10
-27.9349128796
 20
55.418452859
 10
-27.9791016706
 20
55.4061373997
  0
LWPOLYLINE
  5
382
100
AcDbEntity
  8
RACCORDO
100
AcDbPolyline
 62
7
  6
CONTINUOUS
 90
4
 70
0
 10
34.6292755188
 20
-53.0342298914
 10
34.6661539411
 20
-52.9979234171
 10
34.8995630492
 20
-52.7020348685
 10
35.0700592635
 20
-52.4286237064
  0
LWPOLYLINE
  5
383
100
AcDbEntity
  8
ASSI
100
AcDbPolyline
 62
7
  6
CONTINUOUS
 90
4
 70
0
 10
34.6292755188
 20
-53.0342298914
 10
34.6661539411
 20
-52.9979234171
 10
34.8995630492
 20
-52.7020348685
 10
35.0700592635
 20
-52.4286237064
  0
LINE
  5
384
100
AcDbEntity
  8
RACCORDO
100
AcDbLine
 62
250
  6
CONTINUOUS
 10
32.7841709917
 20
-54.2632718274
 11
34.6292755188
 21
-53.410128501
  0
LINE
  5
385
100
AcDbEntity
  8
ASSI
100
AcDbLine
 62
250
  6
CONTINUOUS
 10
32.7841709917
 20
-54.2632718274
 11
34.6292755188
 21
-53.410128501
  0
LINE
  5
386
100
AcDbEntity
  8
RACCORDO
100
AcDbLine
 62
7
  6
CONTINUOUS
 10
32.6168832169
 20
-54.7038708259
 11
34.3956110416
 21
-53.8814189
  0
LINE
  5
387
100
AcDbEntity
  8
ASSI
100
AcDbLine
 62
7
  6
CONTINUOUS
 10
32.6168832169
 20
-54.7038708259
 11
34.3956110416
 21
-53.8814189
  0
ARC
  5
388
100
AcDbEntity
  8
0
100
AcDbCircle
 62
7
  6
CONTINUOUS
 10
142.2123634896
 20
-15.2303764919
 40
140.2734304623
100
AcDbArc
 50
183.796116852
 51
184.0432551452
  0
ARC
  5
389
100
AcDbEntity
  8
ASSI
100
AcDbCircle
 62
7
  6
CONTINUOUS
 10
142.2123634896
 20
-15.2303764919
 40
140.2734304623
100
AcDbArc
 50
183.796116852
 51
184.0432551452
  0
ARC
  5
38A
100
AcDbEntity
  8
0
100
AcDbCircle
 62
7
  6
CONTINUOUS
 10
136.4989376567
 20
-12.601490268
 40
139.2333987921
100
AcDbArc
 50
183.640458099
 51
184.5461640299
  0
ARC
  5
38B
100
AcDbEntity
  8
0
100
AcDbCircle
 62
7
  6
CONTINUOUS
 10
136.0856987969
 20
-12.3628913295
 40
139.2333987921
100
AcDbArc
 50
183.640458099
 51
184.5461640299
  0
ARC
  5
38C
100
AcDbEntity
  8
ASSI
100
AcDbCircle
 62
7
  6
CONTINUOUS
 10
136.4989376567
 20
-12.601490268
 40
139.2333987921
100
AcDbArc
 50
183.640458099
 51
184.5461640299
  0
ARC
  5
38D
100
AcDbEntity
  8
ASSI
100
AcDbCircle
 62
7
  6
CONTINUOUS
 10
136.0856987969
 20
-12.3628913295
 40
139.2333987921
100
AcDbArc
 50
183.640458099
 51
184.5461640299
  0
ARC
  5
38E
100
AcDbEntity
  8
0
100
AcDbCircle
 62
7
  6
CONTINUOUS
 10
140.7585528498
 20
-15.072906826
 40
139.2150384424
100
AcDbArc
 50
183.6510394402
 51
184.5461878729
  0
ARC
  5
38F
100
AcDbEntity
  8
ASSI
100
AcDbCircle
 62
7
  6
CONTINUOUS
 10
140.7585528498
 20
-15.072906826
 40
139.2150384424
100
AcDbArc
 50
183.6510394402
 51
184.5461878729
  0
ARC
  5
390
100
AcDbEntity
  8
0
100
AcDbCircle
 62
7
  6
CONTINUOUS
 10
135.9604287902
 20
-12.3091511517
 40
139.0017706565
100
AcDbArc
 50
183.6961814709
 51
184.5505564261
  0
ARC
  5
391
100
AcDbEntity
  8
ASSI
100
AcDbCircle
 62
7
  6
CONTINUOUS
 10
135.9604287902
 20
-12.3091511517
 40
139.0017706565
100
AcDbArc
 50
183.6961814709
 51
184.5505564261
  0
ARC
  5
392
100
AcDbEntity
  8
0
100
AcDbCircle
 62
7
  6
CONTINUOUS
 10
140.6457166937
 20
-15.0182187102
 40
138.995880175
100
AcDbArc
 50
183.6995820537
 51
184.5505637652
  0
ARC
  5
393
100
AcDbEntity
  8
ASSI
100
AcDbCircle
 62
7
  6
CONTINUOUS
 10
140.6457166937
 20
-15.0182187102
 40
138.995880175
100
AcDbArc
 50
183.6995820537
 51
184.5505637652
  0
ARC
  5
394
100
AcDbEntity
  8
0
100
AcDbCircle
 62
7
  6
CONTINUOUS
 10
140.2405406281
 20
-15.3824251237
 40
138.2826774574
100
AcDbArc
 50
184.1910007012
 51
184.5470283358
  0
ARC
  5
395
100
AcDbEntity
  8
ASSI
100
AcDbCircle
 62
7
  6
CONTINUOUS
 10
140.2405406281
 20
-15.3824251237
 40
138.2826774574
100
AcDbArc
 50
184.1910007012
 51
184.5470283358
  0
ARC
  5
396
100
AcDbEntity
  8
RACCORDO
100
AcDbCircle
 62
250
  6
CONTINUOUS
 10
30.6564147452
 20
-50.1825470767
 40
4.9468081581
100
AcDbArc
 50
350.7651855739
 51
351.4708869253
  0
ARC
  5
397
100
AcDbEntity
  8
ASSI
100
AcDbCircle
 62
250
  6
CONTINUOUS
 10
30.6564147452
 20
-50.1825470767
 40
4.9468081581
100
AcDbArc
 50
350.7651855739
 51
351.4708869253
  0
ARC
  5
398
100
AcDbEntity
  8
RACCORDO
100
AcDbCircle
 62
250
  6
CONTINUOUS
 10
32.372206639
 20
-50.7458107617
 40
3.1303283652
100
AcDbArc
 50
328.0669159465
 51
329.9930034965
  0
ARC
  5
399
100
AcDbEntity
  8
ASSI
100
AcDbCircle
 62
250
  6
CONTINUOUS
 10
32.372206639
 20
-50.7458107617
 40
3.1303283652
100
AcDbArc
 50
328.0669159465
 51
329.9930034965
  0
ARC
  5
39A
100
AcDbEntity
  8
RACCORDO
100
AcDbCircle
 62
250
  6
CONTINUOUS
 10
15.6251021074
 20
-28.7845477338
 40
0.3498993815
100
AcDbArc
 50
135.2305501561
 51
142.8006461438
  0
ARC
  5
39B
100
AcDbEntity
  8
ASSI
100
AcDbCircle
 62
250
  6
CONTINUOUS
 10
15.6251021074
 20
-28.7845477338
 40
0.3498993815
100
AcDbArc
 50
135.230550156
 51
142.8006461438
  0
ARC
  5
39C
100
AcDbEntity
  8
RACCORDO
100
AcDbCircle
 62
250
  6
CONTINUOUS
 10
15.2691525616
 20
-28.3340754666
 40
0.2254135841
100
AcDbArc
 50
293.2552143018
 51
299.926086265
  0
ARC
  5
39D
100
AcDbEntity
  8
ASSI
100
AcDbCircle
 62
250
  6
CONTINUOUS
 10
15.2691525616
 20
-28.3340754666
 40
0.2254135841
100
AcDbArc
 50
293.2552143018
 51
299.926086265
  0
ARC
  5
39E
100
AcDbEntity
  8
0
100
AcDbCircle
 62
250
  6
CONTINUOUS
 10
-2.4061035575
 20
-15.3537730655
 40
0.1769145782
100
AcDbArc
 50
348.5317960037
 51
359.9497550272
  0
ARC
  5
39F
100
AcDbEntity
  8
ASSI
100
AcDbCircle
 62
250
  6
CONTINUOUS
 10
-2.4061035575
 20
-15.3537730655
 40
0.1769145782
100
AcDbArc
 50
348.5317960037
 51
359.9497550272
  0
ARC
  5
3A0
100
AcDbEntity
  8
0
100
AcDbCircle
 62
7
  6
CONTINUOUS
 10
2.99276136
 20
-25.6235871849
 40
0.0677745859
100
AcDbArc
 50
246.2923733962
 51
249.6117410807
  0
ARC
  5
3A1
100
AcDbEntity
  8
ASSI
100
AcDbCircle
 62
7
  6
CONTINUOUS
 10
2.99276136
 20
-25.6235871849
 40
0.0677745859
100
AcDbArc
 50
246.2923733962
 51
249.6117410807
  0
ARC
  5
3A2
100
AcDbEntity
  8
RACCORDO
100
AcDbCircle
 62
250
  6
CONTINUOUS
 10
-27.4951785849
 20
50.5401976062
 40
4.9461098535
100
AcDbArc
 50
68.530396308
 51
69.2363553319
  0
ARC
  5
3A3
100
AcDbEntity
  8
ASSI
100
AcDbCircle
 62
250
  6
CONTINUOUS
 10
-27.4951768633
 20
50.540202037
 40
4.9461051001
100
AcDbArc
 50
68.5303960818
 51
69.2364320014
  0
ARC
  5
3A4
100
AcDbEntity
  8
RACCORDO
100
AcDbCircle
 62
250
  6
CONTINUOUS
 10
-27.1253460913
 20
52.3062469738
 40
3.1311637372
100
AcDbArc
 50
90.0077979008
 51
91.9459231833
  0
ARC
  5
3A5
100
AcDbEntity
  8
ASSI
100
AcDbCircle
 62
250
  6
CONTINUOUS
 10
-27.1253460913
 20
52.3062469738
 40
3.1311637372
100
AcDbArc
 50
90.0077979008
 51
91.9459231833
  0
ARC
  5
3A6
100
AcDbEntity
  8
RACCORDO
100
AcDbCircle
 62
250
  6
CONTINUOUS
 10
13.4129461355
 20
7.018398415
 40
2.1475519747
100
AcDbArc
 50
24.0992472427
 51
24.7836551753
  0
ARC
  5
3A7
100
AcDbEntity
  8
ASSI
100
AcDbCircle
 62
250
  6
CONTINUOUS
 10
13.4129461355
 20
7.018398415
 40
2.1475519747
100
AcDbArc
 50
24.0992472427
 51
24.7836551753
  0
ARC
  5
3A8
100
AcDbEntity
  8
0
100
AcDbCircle
 62
250
  6
CONTINUOUS
 10
-13.8652431591
 20
22.863495529
 40
0.1776776914
100
AcDbArc
 50
65.263262312
 51
70.6669038064
  0
ARC
  5
3A9
100
AcDbEntity
  8
ASSI
100
AcDbCircle
 62
250
  6
CONTINUOUS
 10
-13.8652431591
 20
22.863495529
 40
0.1776776914
100
AcDbArc
 50
65.263262312
 51
70.6669038064
  0
ARC
  5
3AA
100
AcDbEntity
  8
0
100
AcDbCircle
 62
250
  6
CONTINUOUS
 10
-13.8640183143
 20
22.8662335905
 40
0.1746783417
100
AcDbArc
 50
60.0010179486
 51
65.252343782
  0
ARC
  5
3AB
100
AcDbEntity
  8
ASSI
100
AcDbCircle
 62
250
  6
CONTINUOUS
 10
-13.8640183143
 20
22.8662335905
 40
0.1746783417
100
AcDbArc
 50
60.0010179486
 51
65.252343782
  0
ARC
  5
3AC
100
AcDbEntity
  8
RACCORDO
100
AcDbCircle
 62
250
  6
CONTINUOUS
 10
462.6970173995
 20
-10.7411702789
 40
447.5126373922
100
AcDbArc
 50
177.7131948584
 51
182.2868051416
  0
ARC
  5
3AD
100
AcDbEntity
  8
ASSI
100
AcDbCircle
 62
250
  6
CONTINUOUS
 10
462.6970173995
 20
-10.7411702789
 40
447.5126373922
100
AcDbArc
 50
177.7131948584
 51
182.2868051416
  0
ARC
  5
3AE
100
AcDbEntity
  8
RACCORDO
100
AcDbCircle
 62
250
  6
CONTINUOUS
 10
414.9590893801
 20
16.9081712645
 40
447.6351892721
100
AcDbArc
 50
177.6302158268
 51
182.3535137031
  0
ARC
  5
3AF
100
AcDbEntity
  8
ASSI
100
AcDbCircle
 62
250
  6
CONTINUOUS
 10
414.9590893801
 20
16.9081712645
 40
447.6351892721
100
AcDbArc
 50
177.6302158268
 51
182.3535137031
  0
ARC
  5
3B0
100
AcDbEntity
  8
RACCORDO
100
AcDbCircle
 62
250
  6
CONTINUOUS
 10
392.6808319896
 20
8.0802404144
 40
410.4080326208
100
AcDbArc
 50
177.4841457468
 51
180.6671367872
  0
ARC
  5
3B1
100
AcDbEntity
  8
ASSI
100
AcDbCircle
 62
250
  6
CONTINUOUS
 10
392.6808319896
 20
8.0802404144
 40
410.4080326208
100
AcDbArc
 50
177.4841457468
 51
180.6671367872
  0
ARC
  5
3B2
100
AcDbEntity
  8
RACCORDO
100
AcDbCircle
 62
250
  6
CONTINUOUS
 10
376.0564584534
 20
7.9639093058
 40
393.7834390872
100
AcDbArc
 50
180.6783755809
 51
180.9947110068
  0
ARC
  5
3B3
100
AcDbEntity
  8
ASSI
100
AcDbCircle
 62
250
  6
CONTINUOUS
 10
376.0564584534
 20
7.9639093058
 40
393.7834390872
100
AcDbArc
 50
180.6783755809
 51
180.9947110068
  0
ARC
  5
3B4
100
AcDbEntity
  8
RACCORDO
100
AcDbCircle
 62
250
  6
CONTINUOUS
 10
364.4361474293
 20
7.6949630075
 40
382.1601070931
100
AcDbArc
 50
181.0904484425
 51
182.5964898423
  0
ARC
  5
3B5
100
AcDbEntity
  8
ASSI
100
AcDbCircle
 62
250
  6
CONTINUOUS
 10
364.4361474293
 20
7.6949630075
 40
382.1601070931
100
AcDbArc
 50
181.0904484425
 51
182.5964898423
  0
SPLINE
  5
3B6
100
AcDbEntity
  8
0
100
AcDbSpline
 62
7
  6
CONTINUOUS
 70
0
 71
3
 72
9
 73
5
 74
0
 42
0.0000001
 43
0.0000001
 44
0.0000000001
 40
0.0
 40
0.0
 40
0.0
 40
0.0
 40
0.5004492332
 40
1.0
 40
1.0
 40
1.0
 40
1.0
 10
3.2363275408
 20
-26.2662454321
 30
0.0
 10
3.2679240425
 20
-26.378528747
 30
0.0
 10
3.3300230679
 20
-26.6031829193
 30
0.0
 10
3.3914812535
 20
-26.8280192548
 30
0.0
 10
3.4234003472
 20
-26.9399935519
 30
0.0
  0
SPLINE
  5
3B7
100
AcDbEntity
  8
0
100
AcDbSpline
 62
7
  6
CONTINUOUS
 70
0
 71
3
 72
9
 73
5
 74
0
 42
0.0000001
 43
0.0000001
 44
0.0000000001
 40
0.0
 40
0.0
 40
0.0
 40
0.0
 40
0.2466441146
 40
1.0
 40
1.0
 40
1.0
 40
1.0
 10
2.9664454928
 20
-25.6986103226
 30
0.0
 10
2.9690483549
 20
-25.7011817713
 30
0.0
 10
2.9794852646
 20
-25.7117248178
 30
0.0
 10
2.9894735565
 20
-25.7227092589
 30
0.0
 10
2.9967614752
 20
-25.7311817219
 30
0.0
  0
SPLINE
  5
3B8
100
AcDbEntity
  8
0
100
AcDbSpline
 62
7
  6
CONTINUOUS
 70
0
 71
3
 72
11
 73
7
 74
0
 42
0.0000001
 43
0.0000001
 44
0.0000000001
 40
0.0
 40
0.0
 40
0.0
 40
0.0
 40
0.2625870779
 40
0.5187007866
 40
0.7635377617
 40
1.0
 40
1.0
 40
1.0
 40
1.0
 10
2.9967614752
 20
-25.7311817219
 30
0.0
 10
3.0304725191
 20
-25.7703720016
 30
0.0
 10
3.0872316741
 20
-25.8562847624
 30
0.0
 10
3.1505102131
 20
-25.99288184
 30
0.0
 10
3.1987121826
 20
-26.1300216951
 30
0.0
 10
3.2237177547
 20
-26.2214345031
 30
0.0
 10
3.2363275408
 20
-26.2662454321
 30
0.0
  0
LINE
  5
3B9
100
AcDbEntity
  8
0
100
AcDbLine
 62
7
  6
CONTINUOUS
 10
2.9664454928
 20
-25.6986103226
 11
2.9655112556
 21
-25.6856422113
  0
SPLINE
  5
3BA
100
AcDbEntity
  8
0
100
AcDbSpline
 62
7
  6
CONTINUOUS
 70
0
 71
3
 72
15
 73
11
 74
0
 42
0.0000001
 43
0.0000001
 44
0.0000000001
 40
0.0
 40
0.0
 40
0.0
 40
0.0
 40
0.0706203632
 40
0.1430884221
 40
0.2893743996
 40
0.4333698953
 40
0.5701189002
 40
0.6961904643
 40
0.8108408363
 40
1.0
 40
1.0
 40
1.0
 40
1.0
 10
2.8473599616
 20
-24.5500923641
 30
0.0
 10
2.8666646809
 20
-24.5685194203
 30
0.0
 10
2.9035878409
 20
-24.6081578466
 30
0.0
 10
2.9721769542
 20
-24.6933859757
 30
0.0
 10
3.0484824861
 20
-24.8076865703
 30
0.0
 10
3.1219164144
 20
-24.9518311355
 30
0.0
 10
3.1741812075
 20
-25.0968269666
 30
0.0
 10
3.2034882502
 20
-25.2371758104
 30
0.0
 10
3.2156993971
 20
-25.3984568267
 30
0.0
 10
3.1960746572
 20
-25.518389473
 30
0.0
 10
3.1596956868
 20
-25.5799239559
 30
0.0
  0
SPLINE
  5
3BB
100
AcDbEntity
  8
0
100
AcDbSpline
 62
7
  6
CONTINUOUS
 70
0
 71
3
 72
9
 73
5
 74
0
 42
0.0000001
 43
0.0000001
 44
0.0000000001
 40
0.0
 40
0.0
 40
0.0
 40
0.0
 40
0.2577605141
 40
1.0
 40
1.0
 40
1.0
 40
1.0
 10
3.1596956868
 20
-25.5799239559
 30
0.0
 10
3.1564134065
 20
-25.5854758838
 30
0.0
 10
3.1429182437
 20
-25.6065406851
 30
0.0
 10
3.1259815559
 20
-25.625517966
 30
0.0
 10
3.1116594856
 20
-25.6373416582
 30
0.0
  0
SPLINE
  5
3BC
100
AcDbEntity
  8
0
100
AcDbSpline
 62
7
  6
CONTINUOUS
 70
0
 71
3
 72
8
 73
4
 74
0
 42
0.0000001
 43
0.0000001
 44
0.0000000001
 40
0.0
 40
0.0
 40
0.0
 40
0.0
 40
1.0
 40
1.0
 40
1.0
 40
1.0
 10
3.1116594856
 20
-25.6373416582
 30
0.0
 10
3.1027001376
 20
-25.6447381149
 30
0.0
 10
3.0930144175
 20
-25.6512986617
 30
0.0
 10
3.0829563713
 20
-25.6571135732
 30
0.0
  0
SPLINE
  5
3BD
100
AcDbEntity
  8
0
100
AcDbSpline
 62
7
  6
CONTINUOUS
 70
0
 71
3
 72
11
 73
7
 74
0
 42
0.0000001
 43
0.0000001
 44
0.0000000001
 40
0.0
 40
0.0
 40
0.0
 40
0.0
 40
0.2312458147
 40
0.4718691036
 40
0.726152173
 40
1.0
 40
1.0
 40
1.0
 40
1.0
 10
1.8260654915
 20
-23.9380568494
 30
0.0
 10
1.9111678705
 20
-23.9736237032
 30
0.0
 10
2.0837010772
 20
-24.0490062388
 30
0.0
 10
2.3416240381
 20
-24.1814031081
 30
0.0
 10
2.6022279351
 20
-24.3435480985
 30
0.0
 10
2.7683699304
 20
-24.474651355
 30
0.0
 10
2.8473599616
 20
-24.5500923641
 30
0.0
  0
SPLINE
  5
3BE
100
AcDbEntity
  8
0
100
AcDbSpline
 62
7
  6
CONTINUOUS
 70
0
 71
3
 72
11
 73
7
 74
0
 42
0.0000001
 43
0.0000001
 44
0.0000000001
 40
0.0
 40
0.0
 40
0.0
 40
0.0
 40
0.2901729653
 40
0.5580176791
 40
0.7953498356
 40
1.0
 40
1.0
 40
1.0
 40
1.0
 10
2.5242209676
 20
-25.2573512142
 30
0.0
 10
2.54493443
 20
-25.2688177353
 30
0.0
 10
2.5856116896
 20
-25.2894435794
 30
0.0
 10
2.6466796543
 20
-25.3119506381
 30
0.0
 10
2.7042045298
 20
-25.3221855848
 30
0.0
 10
2.7412356749
 20
-25.3144076062
 30
0.0
 10
2.7557144404
 20
-25.3060904436
 30
0.0
  0
SPLINE
  5
3BF
100
AcDbEntity
  8
RACCORDO
100
AcDbSpline
 62
7
  6
CONTINUOUS
 70
0
 71
3
 72
9
 73
5
 74
0
 42
0.0000001
 43
0.0000001
 44
0.0000000001
 40
0.0
 40
0.0
 40
0.0
 40
0.0
 40
0.4999855286
 40
1.0
 40
1.0
 40
1.0
 40
1.0
 10
35.2636035958
 20
19.952224304
 30
0.0
 10
35.3485445197
 20
19.9031805089
 30
0.0
 10
35.491019478
 20
19.7545411775
 30
0.0
 10
35.548514418
 20
19.5568328848
 30
0.0
 10
35.5485143443
 20
19.4587443115
 30
0.0
  0
SPLINE
  5
3C0
100
AcDbEntity
  8
0
100
AcDbSpline
 62
7
  6
CONTINUOUS
 70
0
 71
3
 72
11
 73
7
 74
0
 42
0.0000001
 43
0.0000001
 44
0.0000000001
 40
0.0
 40
0.0
 40
0.0
 40
0.0
 40
0.2512772613
 40
0.5126969244
 40
0.769014259
 40
1.0
 40
1.0
 40
1.0
 40
1.0
 10
2.7939886422
 20
-25.9423817579
 30
0.0
 10
2.7826010692
 20
-25.9094967059
 30
0.0
 10
2.7542908127
 20
-25.8441048553
 30
0.0
 10
2.6993786002
 20
-25.7524166544
 30
0.0
 10
2.6312971055
 20
-25.673362057
 30
0.0
 10
2.5769084909
 20
-25.6322647542
 30
0.0
 10
2.5492042508
 20
-25.6162686732
 30
0.0
  0
SPLINE
  5
3C1
100
AcDbEntity
  8
RACCORDO
100
AcDbSpline
 62
250
  6
CONTINUOUS
 70
0
 71
3
 72
11
 73
7
 74
0
 42
0.0000001
 43
0.0000001
 44
0.0000000001
 40
0.0
 40
0.0
 40
0.0
 40
0.0
 40
0.2109477116
 40
0.4430008394
 40
0.7050470324
 40
1.0
 40
1.0
 40
1.0
 40
1.0
 10
15.3581520369
 20
-28.5411753876
 30
0.0
 10
15.3338745982
 20
-28.5516103344
 30
0.0
 10
15.2786911178
 20
-28.564439291
 30
0.0
 10
15.1896317562
 20
-28.5579880599
 30
0.0
 10
15.0946889917
 20
-28.5281570573
 30
0.0
 10
15.032663454
 20
-28.4954510146
 30
0.0
 10
15.0012370815
 20
-28.4760202802
 30
0.0
  0
SPLINE
  5
3C2
100
AcDbEntity
  8
0
100
AcDbSpline
 62
7
  6
CONTINUOUS
 70
0
 71
3
 72
10
 73
6
 74
0
 42
0.0000001
 43
0.0000001
 44
0.0000000001
 40
0.0
 40
0.0
 40
0.0
 40
0.0
 40
0.249097961
 40
0.498011314
 40
1.0
 40
1.0
 40
1.0
 40
1.0
 10
3.0259125808
 20
-26.7104890973
 30
0.0
 10
3.0070313521
 20
-26.6465978058
 30
0.0
 10
2.9687069832
 20
-26.519027938
 30
0.0
 10
2.8930858908
 20
-26.2625178048
 30
0.0
 10
2.8379212731
 20
-26.0692504811
 30
0.0
 10
2.7939886422
 20
-25.9423817579
 30
0.0
  0
SPLINE
  5
3C3
100
AcDbEntity
  8
RACCORDO
100
AcDbSpline
 62
250
  6
CONTINUOUS
 70
0
 71
3
 72
11
 73
7
 74
0
 42
0.0000001
 43
0.0000001
 44
0.0000000001
 40
0.0
 40
0.0
 40
0.0
 40
0.0
 40
0.2254759758
 40
0.4577382633
 40
0.7130530067
 40
1.0
 40
1.0
 40
1.0
 40
1.0
 10
-17.1082862896
 20
26.6497539045
 30
0.0
 10
-17.0635456525
 20
26.6891119815
 30
0.0
 10
-16.9568568409
 20
26.7530760004
 30
0.0
 10
-16.7668074608
 20
26.7830197283
 30
0.0
 10
-16.5622798013
 20
26.7478232245
 30
0.0
 10
-16.4305936377
 20
26.6877669659
 30
0.0
 10
-16.3649224776
 20
26.6498449286
 30
0.0
  0
SPLINE
  5
3C4
100
AcDbEntity
  8
RACCORDO
100
AcDbSpline
 62
250
  6
CONTINUOUS
 70
0
 71
3
 72
12
 73
8
 74
0
 42
0.0000001
 43
0.0000001
 44
0.0000000001
 40
0.0
 40
0.0
 40
0.0
 40
0.0
 40
0.1071022731
 40
0.2146285857
 40
0.4417631463
 40
0.7010723291
 40
1.0
 40
1.0
 40
1.0
 40
1.0
 10
15.3733164961
 20
-29.1197310315
 30
0.0
 10
15.3534847988
 20
-29.1380041063
 30
0.0
 10
15.3098794569
 20
-29.1706920818
 30
0.0
 10
15.2083340547
 20
-29.2178579798
 30
0.0
 10
15.0561328623
 20
-29.2366776064
 30
0.0
 10
14.8601537059
 20
-29.1964144622
 30
0.0
 10
14.7318415316
 20
-29.1362658869
 30
0.0
 10
14.6666645876
 20
-29.0986250626
 30
0.0
  0
SPLINE
  5
3C5
100
AcDbEntity
  8
RACCORDO
100
AcDbSpline
 62
250
  6
CONTINUOUS
 70
0
 71
3
 72
9
 73
5
 74
0
 42
0.0000001
 43
0.0000001
 44
0.0000000001
 40
0.0
 40
0.0
 40
0.0
 40
0.0
 40
0.243962173
 40
1.0
 40
1.0
 40
1.0
 40
1.0
 10
32.3746617717
 20
-54.2985237481
 30
0.0
 10
32.1372808107
 20
-52.9763987523
 30
0.0
 10
31.2594665103
 20
-47.5401382431
 30
0.0
 10
30.7541116361
 20
-42.0454729044
 30
0.0
 10
30.5582971014
 20
-37.8873040524
 30
0.0
  0
SPLINE
  5
3C6
100
AcDbEntity
  8
RACCORDO
100
AcDbSpline
 62
250
  6
CONTINUOUS
 70
0
 71
3
 72
11
 73
7
 74
0
 42
0.0000001
 43
0.0000001
 44
0.0000000001
 40
0.0
 40
0.0
 40
0.0
 40
0.0
 40
0.20999682
 40
0.4358199463
 40
0.6965935411
 40
1.0
 40
1.0
 40
1.0
 40
1.0
 10
32.6169359759
 20
-54.7038449251
 30
0.0
 10
32.6487808116
 20
-54.6891099924
 30
0.0
 10
32.7089604082
 20
-54.6436053802
 30
0.0
 10
32.7665103734
 20
-54.5395223451
 30
0.0
 10
32.7922819622
 20
-54.4085718942
 30
0.0
 10
32.7895572385
 20
-54.3136814445
 30
0.0
 10
32.7841709917
 20
-54.2632718274
 30
0.0
  0
SPLINE
  5
3C7
100
AcDbEntity
  8
RACCORDO
100
AcDbSpline
 62
250
  6
CONTINUOUS
 70
0
 71
3
 72
10
 73
6
 74
0
 42
0.0000001
 43
0.0000001
 44
0.0000000001
 40
0.0
 40
0.0
 40
0.0
 40
0.0
 40
0.5364074332
 40
0.7754460783
 40
1.0
 40
1.0
 40
1.0
 40
1.0
 10
-16.643912534
 20
26.0649653288
 30
0.0
 10
-16.6411101527
 20
26.13269605
 30
0.0
 10
-16.6235489161
 20
26.2319251703
 30
0.0
 10
-16.5638688589
 20
26.3442872445
 30
0.0
 10
-16.5245048107
 20
26.3886748966
 30
0.0
 10
-16.5030259162
 20
26.4072213893
 30
0.0
  0
SPLINE
  5
3C8
100
AcDbEntity
  8
RACCORDO
100
AcDbSpline
 62
250
  6
CONTINUOUS
 70
0
 71
3
 72
9
 73
5
 74
0
 42
0.0000001
 43
0.0000001
 44
0.0000000001
 40
0.0
 40
0.0
 40
0.0
 40
0.0
 40
0.2607204997
 40
1.0
 40
1.0
 40
1.0
 40
1.0
 10
31.976330763
 20
-54.5405120239
 30
0.0
 10
31.9833589123
 20
-54.5445702168
 30
0.0
 10
32.0105502626
 20
-54.5597199828
 30
0.0
 10
32.038709004
 20
-54.573175949
 30
0.0
 10
32.0600360789
 20
-54.5818196884
 30
0.0
  0
SPLINE
  5
3C9
100
AcDbEntity
  8
RACCORDO
100
AcDbSpline
 62
250
  6
CONTINUOUS
 70
0
 71
3
 72
15
 73
11
 74
0
 42
0.0000001
 43
0.0000001
 44
0.0000000001
 40
0.0
 40
0.0
 40
0.0
 40
0.0
 40
0.1487362475
 40
0.2766544839
 40
0.3876232344
 40
0.48990754
 40
0.5945789695
 40
0.7113437602
 40
0.8458466563
 40
1.0
 40
1.0
 40
1.0
 40
1.0
 10
32.0600360789
 20
-54.5818196884
 30
0.0
 10
32.0858938855
 20
-54.592299707
 30
0.0
 10
32.1355817615
 20
-54.6083509511
 30
0.0
 10
32.2085706976
 20
-54.6160318597
 30
0.0
 10
32.2726929867
 20
-54.6043945344
 30
0.0
 10
32.3248112929
 20
-54.5723645256
 30
0.0
 10
32.361163561
 20
-54.5220302344
 30
0.0
 10
32.3811821975
 20
-54.4574315735
 30
0.0
 10
32.385959385
 20
-54.3810275015
 30
0.0
 10
32.3797705405
 20
-54.3269859005
 30
0.0
 10
32.3746617717
 20
-54.2985237481
 30
0.0
  0
SPLINE
  5
3CA
100
AcDbEntity
  8
RACCORDO
100
AcDbSpline
 62
250
  6
CONTINUOUS
 70
0
 71
3
 72
10
 73
6
 74
0
 42
0.0000001
 43
0.0000001
 44
0.0000000001
 40
0.0
 40
0.0
 40
0.0
 40
0.0
 40
0.2296399137
 40
0.4782597368
 40
1.0
 40
1.0
 40
1.0
 40
1.0
 10
-16.0303824174
 20
-10.5587512694
 30
0.0
 10
-16.0768894236
 20
-10.5336786755
 30
0.0
 10
-16.1688538468
 20
-10.4720876337
 30
0.0
 10
-16.33902744
 20
-10.316550878
 30
0.0
 10
-16.445160269
 20
-10.1712261908
 30
0.0
 10
-16.5030259162
 20
-10.0660532636
 30
0.0
  0
SPLINE
  5
3CB
100
AcDbEntity
  8
RACCORDO
100
AcDbSpline
 62
250
  6
CONTINUOUS
 70
0
 71
3
 72
9
 73
5
 74
0
 42
0.0000001
 43
0.0000001
 44
0.0000000001
 40
0.0
 40
0.0
 40
0.0
 40
0.0
 40
0.5272845802
 40
1.0
 40
1.0
 40
1.0
 40
1.0
 10
-16.5030259162
 20
-10.0660532636
 30
0.0
 10
-16.543853138
 20
-9.9918498527
 30
0.0
 10
-16.6086630045
 20
-9.8437409946
 30
0.0
 10
-16.640632959
 20
-9.684260707
 30
0.0
 10
-16.643911682
 20
-9.6084029356
 30
0.0
  0
SPLINE
  5
3CC
100
AcDbEntity
  8
RACCORDO
100
AcDbSpline
 62
250
  6
CONTINUOUS
 70
0
 71
3
 72
9
 73
5
 74
0
 42
0.0000001
 43
0.0000001
 44
0.0000000001
 40
0.0
 40
0.0
 40
0.0
 40
0.0
 40
0.2760065775
 40
1.0
 40
1.0
 40
1.0
 40
1.0
 10
15.5407766804
 20
-28.5976762727
 30
0.0
 10
15.5263346129
 20
-28.5892974247
 30
0.0
 10
15.4758554415
 20
-28.5562344109
 30
0.0
 10
15.4325532061
 20
-28.5096537576
 30
0.0
 10
15.4136210993
 20
-28.4701600112
 30
0.0
  0
SPLINE
  5
3CD
100
AcDbEntity
  8
RACCORDO
100
AcDbSpline
 62
250
  6
CONTINUOUS
 70
0
 71
3
 72
9
 73
5
 74
0
 42
0.0000001
 43
0.0000001
 44
0.0000000001
 40
0.0
 40
0.0
 40
0.0
 40
0.0
 40
0.2563938424
 40
1.0
 40
1.0
 40
1.0
 40
1.0
 10
15.4136210993
 20
-28.4701600112
 30
0.0
 10
15.4107225413
 20
-28.4641134091
 30
0.0
 10
15.4005194147
 20
-28.4400232926
 30
0.0
 10
15.3951256913
 20
-28.4138524143
 30
0.0
 10
15.3943287411
 20
-28.3944212768
 30
0.0
  0
SPLINE
  5
3CE
100
AcDbEntity
  8
RACCORDO
100
AcDbSpline
 62
250
  6
CONTINUOUS
 70
0
 71
3
 72
11
 73
7
 74
0
 42
0.0000001
 43
0.0000001
 44
0.0000000001
 40
0.0
 40
0.0
 40
0.0
 40
0.0
 40
0.2682474415
 40
0.5256138449
 40
0.7688436806
 40
1.0
 40
1.0
 40
1.0
 40
1.0
 10
15.373320433
 20
-29.119728529
 30
0.0
 10
15.3430672395
 20
-29.07729984
 30
0.0
 10
15.2944072559
 20
-28.9858627507
 30
0.0
 10
15.2630278418
 20
-28.8376911587
 30
0.0
 10
15.2776263303
 20
-28.693772403
 30
0.0
 10
15.3192474204
 20
-28.6087716544
 30
0.0
 10
15.346394396
 20
-28.5730020205
 30
0.0
  0
SPLINE
  5
3CF
100
AcDbEntity
  8
RACCORDO
100
AcDbSpline
 62
250
  6
CONTINUOUS
 70
0
 71
3
 72
11
 73
7
 74
0
 42
0.0000001
 43
0.0000001
 44
0.0000000001
 40
0.0
 40
0.0
 40
0.0
 40
0.0
 40
0.2323706358
 40
0.4933105248
 40
0.7578922962
 40
1.0
 40
1.0
 40
1.0
 40
1.0
 10
14.6666645876
 20
-29.0986250626
 30
0.0
 10
14.6639689907
 20
-29.041932012
 30
0.0
 10
14.6809812727
 20
-28.9204672961
 30
0.0
 10
14.7511192334
 20
-28.7476623434
 30
0.0
 10
14.8581264577
 20
-28.5920103884
 30
0.0
 10
14.9513552494
 20
-28.5078068997
 30
0.0
 10
15.0012107684
 20
-28.4760040238
 30
0.0
  0
SPLINE
  5
3D0
100
AcDbEntity
  8
RACCORDO
100
AcDbSpline
 62
250
  6
CONTINUOUS
 70
0
 71
3
 72
11
 73
7
 74
0
 42
0.0000001
 43
0.0000001
 44
0.0000000001
 40
0.0
 40
0.0
 40
0.0
 40
0.0
 40
0.2323706361
 40
0.4933105252
 40
0.7578922965
 40
1.0
 40
1.0
 40
1.0
 40
1.0
 10
-16.3649224776
 20
-11.1813756083
 30
0.0
 10
-16.3676180744
 20
-11.1246825576
 30
0.0
 10
-16.3506057923
 20
-11.0032178416
 30
0.0
 10
-16.2804678316
 20
-10.830412889
 30
0.0
 10
-16.1734606073
 20
-10.674760934
 30
0.0
 10
-16.0802318156
 20
-10.5905574454
 30
0.0
 10
-16.0303762968
 20
-10.5587545695
 30
0.0
  0
SPLINE
  5
3D1
100
AcDbEntity
  8
RACCORDO
100
AcDbSpline
 62
250
  6
CONTINUOUS
 70
0
 71
3
 72
11
 73
7
 74
0
 42
0.0000001
 43
0.0000001
 44
0.0000000001
 40
0.0
 40
0.0
 40
0.0
 40
0.0
 40
0.1980113152
 40
0.455459978
 40
0.7360621752
 40
1.0
 40
1.0
 40
1.0
 40
1.0
 10
-17.1082831632
 20
-10.3652586861
 30
0.0
 10
-17.0657099579
 20
-10.351827021
 30
0.0
 10
-16.9701864244
 20
-10.3136146457
 30
0.0
 10
-16.8197988145
 20
-10.2434389987
 30
0.0
 10
-16.6596294411
 20
-10.159395719
 30
0.0
 10
-16.5534689179
 20
-10.0976142933
 30
0.0
 10
-16.5030238871
 20
-10.0660526621
 30
0.0
  0
SPLINE
  5
3D2
100
AcDbEntity
  8
RACCORDO
100
AcDbSpline
 62
250
  6
CONTINUOUS
 70
0
 71
3
 72
11
 73
7
 74
0
 42
0.0000001
 43
0.0000001
 44
0.0000000001
 40
0.0
 40
0.0
 40
0.0
 40
0.0
 40
0.2342290573
 40
0.4938503752
 40
0.7568107979
 40
1.0
 40
1.0
 40
1.0
 40
1.0
 10
-17.3316138435
 20
-9.617572873
 30
0.0
 10
-17.2833327703
 20
-9.6453148179
 30
0.0
 10
-17.1708730019
 20
-9.6854721448
 30
0.0
 10
-16.9903837612
 20
-9.7028040048
 30
0.0
 10
-16.8083455813
 20
-9.6801007515
 30
0.0
 10
-16.6940664636
 20
-9.637136264
 30
0.0
 10
-16.6439129599
 20
-9.6083775055
 30
0.0
  0
SPLINE
  5
3D3
100
AcDbEntity
  8
RACCORDO
100
AcDbSpline
 62
250
  6
CONTINUOUS
 70
0
 71
3
 72
11
 73
7
 74
0
 42
0.0000001
 43
0.0000001
 44
0.0000000001
 40
0.0
 40
0.0
 40
0.0
 40
0.0
 40
0.2372718374
 40
0.4997695639
 40
0.7623915462
 40
1.0
 40
1.0
 40
1.0
 40
1.0
 10
-17.3316113502
 20
26.0954434608
 30
0.0
 10
-17.2830754916
 20
26.0672693769
 30
0.0
 10
-17.1710998592
 20
26.0245744981
 30
0.0
 10
-16.9915241
 20
25.9985121338
 30
0.0
 10
-16.8102670591
 20
26.0085948309
 30
0.0
 10
-16.6948446772
 20
26.0412021699
 30
0.0
 10
-16.6439108882
 20
26.0649550737
 30
0.0
  0
SPLINE
  5
3D4
100
AcDbEntity
  8
0
100
AcDbSpline
 62
250
  6
CONTINUOUS
 70
0
 71
3
 72
9
 73
5
 74
0
 42
0.0000001
 43
0.0000001
 44
0.0000000001
 40
0.0
 40
0.0
 40
0.0
 40
0.0
 40
0.4520568817
 40
1.0
 40
1.0
 40
1.0
 40
1.0
 10
-14.1135848007
 20
23.0153882438
 30
0.0
 10
-14.1003303569
 20
23.022001319
 30
0.0
 10
-14.0654371489
 20
23.0257738728
 30
0.0
 10
-14.0346093753
 20
23.0119282044
 30
0.0
 10
-14.0193338161
 20
23.0024930679
 30
0.0
  0
SPLINE
  5
3D5
100
AcDbEntity
  8
RACCORDO
100
AcDbSpline
 62
250
  6
CONTINUOUS
 70
0
 71
3
 72
11
 73
7
 74
0
 42
0.0000001
 43
0.0000001
 44
0.0000000001
 40
0.0
 40
0.0
 40
0.0
 40
0.0
 40
0.2699711448
 40
0.532651516
 40
0.7767360831
 40
1.0
 40
1.0
 40
1.0
 40
1.0
 10
-17.1082823529
 20
26.6497559481
 30
0.0
 10
-17.0742010547
 20
26.5964123789
 30
0.0
 10
-16.9904969316
 20
26.5007802342
 30
0.0
 10
-16.8330528528
 20
26.4036992566
 30
0.0
 10
-16.6626221903
 20
26.3649764361
 30
0.0
 10
-16.550685309
 20
26.3855644535
 30
0.0
 10
-16.5030233387
 20
26.407217036
 30
0.0
  0
SPLINE
  5
3D6
100
AcDbEntity
  8
RACCORDO
100
AcDbSpline
 62
250
  6
CONTINUOUS
 70
0
 71
3
 72
11
 73
7
 74
0
 42
0.0000001
 43
0.0000001
 44
0.0000000001
 40
0.0
 40
0.0
 40
0.0
 40
0.0
 40
0.2927193663
 40
0.5531462819
 40
0.7851453376
 40
1.0
 40
1.0
 40
1.0
 40
1.0
 10
-16.3649224776
 20
26.6498449286
 30
0.0
 10
-16.3661706292
 20
26.6221528128
 30
0.0
 10
-16.3643213116
 20
26.5694473917
 30
0.0
 10
-16.3460382331
 20
26.4966666753
 30
0.0
 10
-16.3124771786
 20
26.4375460798
 30
0.0
 10
-16.279640385
 20
26.4091833676
 30
0.0
 10
-16.2620317073
 20
26.3989894783
 30
0.0
  0
SPLINE
  5
3D7
100
AcDbEntity
  8
RACCORDO
100
AcDbSpline
 62
250
  6
CONTINUOUS
 70
0
 71
3
 72
11
 73
7
 74
0
 42
0.0000001
 43
0.0000001
 44
0.0000000001
 40
0.0
 40
0.0
 40
0.0
 40
0.0
 40
0.2927402536
 40
0.5531621829
 40
0.7851444849
 40
1.0
 40
1.0
 40
1.0
 40
1.0
 10
14.6666645876
 20
8.7325954743
 30
0.0
 10
14.6654156077
 20
8.7048849836
 30
0.0
 10
14.6672687593
 20
8.6521463914
 30
0.0
 10
14.6855797281
 20
8.579325627
 30
0.0
 10
14.7191912361
 20
8.5201869824
 30
0.0
 10
14.7520732817
 20
8.4918366801
 30
0.0
 10
14.7697028718
 20
8.4816547269
 30
0.0
  0
SPLINE
  5
3D8
100
AcDbEntity
  8
RACCORDO
100
AcDbSpline
 62
250
  6
CONTINUOUS
 70
0
 71
3
 72
12
 73
8
 74
0
 42
0.0000001
 43
0.0000001
 44
0.0000000001
 40
0.0
 40
0.0
 40
0.0
 40
0.0
 40
0.4138489095
 40
0.7205650807
 40
0.9130725623
 40
0.9674905822
 40
1.0
 40
1.0
 40
1.0
 40
1.0
 10
15.3733198369
 20
7.8952852806
 30
0.0
 10
15.3593081202
 20
7.8905859623
 30
0.0
 10
15.3347633857
 20
7.882732907
 30
0.0
 10
15.303344848
 20
7.8743180991
 30
0.0
 10
15.283635424
 20
7.8709318191
 30
0.0
 10
15.2737252562
 20
7.8712705966
 30
0.0
 10
15.2706639923
 20
7.8729791049
 30
0.0
 10
15.270187724
 20
7.8740378415
 30
0.0
  0
SPLINE
  5
3D9
100
AcDbEntity
  8
RACCORDO
100
AcDbSpline
 62
250
  6
CONTINUOUS
 70
0
 71
3
 72
11
 73
7
 74
0
 42
0.0000001
 43
0.0000001
 44
0.0000000001
 40
0.0
 40
0.0
 40
0.0
 40
0.0
 40
0.2957489977
 40
0.556925979
 40
0.7875960849
 40
1.0
 40
1.0
 40
1.0
 40
1.0
 10
15.5407742848
 20
7.1153372438
 30
0.0
 10
15.5183239981
 20
7.128230609
 30
0.0
 10
15.4777840292
 20
7.1558619748
 30
0.0
 10
15.4295190001
 20
7.2059598732
 30
0.0
 10
15.3996258027
 20
7.260930133
 30
0.0
 10
15.3935621212
 20
7.3002663878
 30
0.0
 10
15.3942908498
 20
7.3188455108
 30
0.0
  0
SPLINE
  5
3DA
100
AcDbEntity
  8
0
100
AcDbSpline
 62
7
  6
CONTINUOUS
 70
0
 71
3
 72
10
 73
6
 74
0
 42
0.0000001
 43
0.0000001
 44
0.0000000001
 40
0.0
 40
0.0
 40
0.0
 40
0.0
 40
0.5207413622
 40
0.7652368852
 40
1.0
 40
1.0
 40
1.0
 40
1.0
 10
2.5695643609
 20
-24.6913113115
 30
0.0
 10
2.5173101271
 20
-24.6547087228
 30
0.0
 10
2.437592616
 20
-24.6047989594
 30
0.0
 10
2.3277431691
 20
-24.5503731302
 30
0.0
 10
2.2734716896
 20
-24.5278682171
 30
0.0
 10
2.2466988773
 20
-24.5173578789
 30
0.0
  0
SPLINE
  5
3DB
100
AcDbEntity
  8
0
100
AcDbSpline
 62
7
  6
CONTINUOUS
 70
0
 71
3
 72
11
 73
7
 74
0
 42
0.0000001
 43
0.0000001
 44
0.0000000001
 40
0.0
 40
0.0
 40
0.0
 40
0.0
 40
0.231371748
 40
0.490880088
 40
0.7548346023
 40
1.0
 40
1.0
 40
1.0
 40
1.0
 10
2.8215174962
 20
-25.1013501281
 30
0.0
 10
2.8184384436
 20
-25.0633621269
 30
0.0
 10
2.798283027
 20
-24.9839680851
 30
0.0
 10
2.7439454794
 20
-24.87131218
 30
0.0
 10
2.6657532186
 20
-24.7706726255
 30
0.0
 10
2.6026414975
 20
-24.7144808949
 30
0.0
 10
2.5695643609
 20
-24.6913113115
 30
0.0
  0
SPLINE
  5
3DC
100
AcDbEntity
  8
RACCORDO
100
AcDbSpline
 62
250
  6
CONTINUOUS
 70
0
 71
3
 72
11
 73
7
 74
0
 42
0.0000001
 43
0.0000001
 44
0.0000000001
 40
0.0
 40
0.0
 40
0.0
 40
0.0
 40
0.2247952417
 40
0.4861559178
 40
0.7556589687
 40
1.0
 40
1.0
 40
1.0
 40
1.0
 10
-30.6575009568
 20
-17.9045429672
 30
0.0
 10
-30.6451892542
 20
-17.9799097006
 30
0.0
 10
-30.5908556103
 20
-18.1382158601
 30
0.0
 10
-30.4596589959
 20
-18.3602667382
 30
0.0
 10
-30.2870027994
 20
-18.5607955802
 30
0.0
 10
-30.1486624668
 20
-18.6703148288
 30
0.0
 10
-30.0767806543
 20
-18.7118231997
 30
0.0
  0
SPLINE
  5
3DD
100
AcDbEntity
  8
RACCORDO
100
AcDbSpline
 62
250
  6
CONTINUOUS
 70
0
 71
3
 72
9
 73
5
 74
0
 42
0.0000001
 43
0.0000001
 44
0.0000000001
 40
0.0
 40
0.0
 40
0.0
 40
0.0
 40
0.5093318892
 40
1.0
 40
1.0
 40
1.0
 40
1.0
 10
-32.2932709909
 20
-1.5975962364
 30
0.0
 10
-32.175905534
 20
-4.3575567875
 30
0.0
 10
-31.7993528656
 20
-9.771366376
 30
0.0
 10
-31.104021906
 20
-15.1542416206
 30
0.0
 10
-30.6776065017
 20
-17.7810851125
 30
0.0
  0
LINE
  5
3DE
100
AcDbEntity
  8
RACCORDO
100
AcDbLine
 62
250
  6
CONTINUOUS
 10
-30.6776065017
 20
-17.7810851125
 11
-30.6575009568
 21
-17.9045429672
  0
SPLINE
  5
3DF
100
AcDbEntity
  8
0
100
AcDbSpline
 62
250
  6
CONTINUOUS
 70
0
 71
3
 72
11
 73
7
 74
0
 42
0.0000001
 43
0.0000001
 44
0.0000000001
 40
0.0
 40
0.0
 40
0.0
 40
0.0
 40
0.2195025491
 40
0.4533151831
 40
0.7119206741
 40
1.0
 40
1.0
 40
1.0
 40
1.0
 10
-13.273024484
 20
22.726705534
 30
0.0
 10
-13.2886822153
 20
22.7357310851
 30
0.0
 10
-13.324405618
 20
22.7489700226
 30
0.0
 10
-13.3837260683
 20
22.7515215815
 30
0.0
 10
-13.4470697458
 20
22.7377809373
 30
0.0
 10
-13.4884619493
 20
22.7193678106
 30
0.0
 10
-13.5093063798
 20
22.7080495459
 30
0.0
  0
SPLINE
  5
3E0
100
AcDbEntity
  8
RACCORDO
100
AcDbSpline
 62
250
  6
CONTINUOUS
 70
0
 71
3
 72
10
 73
6
 74
0
 42
0.0000001
 43
0.0000001
 44
0.0000000001
 40
0.0
 40
0.0
 40
0.0
 40
0.0
 40
0.2280186105
 40
0.4762904283
 40
1.0
 40
1.0
 40
1.0
 40
1.0
 10
-16.3649224776
 20
-11.1813756083
 30
0.0
 10
-16.4383480753
 20
-11.1389826868
 30
0.0
 10
-16.5833392703
 20
-11.0355000131
 30
0.0
 10
-16.8512083247
 20
-10.7765501026
 30
0.0
 10
-17.0173932392
 20
-10.5374792691
 30
0.0
 10
-17.1082862896
 20
-10.3652606731
 30
0.0
  0
SPLINE
  5
3E1
100
AcDbEntity
  8
RACCORDO
100
AcDbSpline
 62
250
  6
CONTINUOUS
 70
0
 71
3
 72
11
 73
7
 74
0
 42
0.0000001
 43
0.0000001
 44
0.0000000001
 40
0.0
 40
0.0
 40
0.0
 40
0.0
 40
0.2815654214
 40
0.5404485338
 40
0.7783535256
 40
1.0
 40
1.0
 40
1.0
 40
1.0
 10
-17.3316138531
 20
26.0954421563
 30
0.0
 10
-17.3291243416
 20
26.1529110822
 30
0.0
 10
-17.3167609283
 20
26.2631365314
 30
0.0
 10
-17.2726900361
 20
26.4168278231
 30
0.0
 10
-17.2046490403
 20
26.548104777
 30
0.0
 10
-17.142324977
 20
26.6198910441
 30
0.0
 10
-17.1082862896
 20
26.6497539045
 30
0.0
  0
LINE
  5
3E2
100
AcDbEntity
  8
RACCORDO
100
AcDbLine
 62
250
  6
CONTINUOUS
 10
-17.6547499181
 20
0.4221631565
 11
-17.6676382312
 21
1.1277854565
  0
SPLINE
  5
3E3
100
AcDbEntity
  8
RACCORDO
100
AcDbSpline
 62
250
  6
CONTINUOUS
 70
0
 71
3
 72
9
 73
5
 74
0
 42
0.0000001
 43
0.0000001
 44
0.0000000001
 40
0.0
 40
0.0
 40
0.0
 40
0.0
 40
0.5274876045
 40
1.0
 40
1.0
 40
1.0
 40
1.0
 10
-17.1082862896
 20
-10.3652606731
 30
0.0
 10
-17.1727578591
 20
-10.2432489344
 30
0.0
 10
-17.2749889653
 20
-10.0007472384
 30
0.0
 10
-17.3260191224
 20
-9.7410619374
 30
0.0
 10
-17.3316138531
 20
-9.6175728791
 30
0.0
  0
LINE
  5
3E4
100
AcDbEntity
  8
RACCORDO
100
AcDbLine
 62
250
  6
CONTINUOUS
 10
-32.2985091338
 20
-1.4739735033
 11
-32.2932710629
 21
-1.5975961949
  0
SPLINE
  5
3E5
100
AcDbEntity
  8
RACCORDO
100
AcDbSpline
 62
250
  6
CONTINUOUS
 70
0
 71
3
 72
9
 73
5
 74
0
 42
0.0000001
 43
0.0000001
 44
0.0000000001
 40
0.0
 40
0.0
 40
0.0
 40
0.0
 40
0.4918664365
 40
1.0
 40
1.0
 40
1.0
 40
1.0
 10
-27.1257722397
 20
55.437410682
 30
0.0
 10
-26.893548481
 20
55.4374634895
 30
0.0
 10
-26.4206168731
 20
55.3855689285
 30
0.0
 10
-25.9660386704
 20
55.2501067695
 30
0.0
 10
-25.7417147558
 20
55.1650616348
 30
0.0
  0
SPLINE
  5
3E6
100
AcDbEntity
  8
RACCORDO
100
AcDbSpline
 62
250
  6
CONTINUOUS
 70
0
 71
3
 72
10
 73
6
 74
0
 42
0.0000001
 43
0.0000001
 44
0.0000000001
 40
0.0
 40
0.0
 40
0.0
 40
0.0
 40
0.6205098285
 40
0.8391287006
 40
1.0
 40
1.0
 40
1.0
 40
1.0
 10
34.74867017
 20
19.7118831037
 30
0.0
 10
34.8529432692
 20
19.766293542
 30
0.0
 10
34.9947668426
 20
19.8385077903
 30
0.0
 10
35.1676865178
 20
19.9161718254
 30
0.0
 10
35.2346837823
 20
19.9425578235
 30
0.0
 10
35.2636035994
 20
19.9522243013
 30
0.0
  0
SPLINE
  5
3E7
100
AcDbEntity
  8
RACCORDO
100
AcDbSpline
 62
250
  6
CONTINUOUS
 70
0
 71
3
 72
9
 73
5
 74
0
 42
0.0000001
 43
0.0000001
 44
0.0000000001
 40
0.0
 40
0.0
 40
0.0
 40
0.0
 40
0.2805678417
 40
1.0
 40
1.0
 40
1.0
 40
1.0
 10
34.2164581314
 20
19.422781211
 30
0.0
 10
34.265894249
 20
19.4504335454
 30
0.0
 10
34.4423617161
 20
19.5485091643
 30
0.0
 10
34.6199001517
 20
19.6446886054
 30
0.0
 10
34.74867017
 20
19.7118831037
 30
0.0
  0
SPLINE
  5
3E8
100
AcDbEntity
  8
RACCORDO
100
AcDbSpline
 62
250
  6
CONTINUOUS
 70
0
 71
3
 72
9
 73
5
 74
0
 42
0.0000001
 43
0.0000001
 44
0.0000000001
 40
0.0
 40
0.0
 40
0.0
 40
0.0
 40
0.2482869198
 40
1.0
 40
1.0
 40
1.0
 40
1.0
 10
-27.8659077984
 20
55.3438095507
 30
0.0
 10
-27.8145729924
 20
55.3573954499
 30
0.0
 10
-27.6062215725
 20
55.405986536
 30
0.0
 10
-27.3923474983
 20
55.4301334292
 30
0.0
 10
-27.2316686316
 20
55.4356050336
 30
0.0
  0
SPLINE
  5
3E9
100
AcDbEntity
  8
RACCORDO
100
AcDbSpline
 62
250
  6
CONTINUOUS
 70
0
 71
3
 72
9
 73
5
 74
0
 42
0.0000001
 43
0.0000001
 44
0.0000000001
 40
0.0
 40
0.0
 40
0.0
 40
0.0
 40
0.50815045
 40
1.0
 40
1.0
 40
1.0
 40
1.0
 10
35.5391070004
 20
-50.9764156392
 30
0.0
 10
35.5005993228
 20
-51.2132299723
 30
0.0
 10
35.3906301881
 20
-51.6746647585
 30
0.0
 10
35.1991122995
 20
-52.1102128694
 30
0.0
 10
35.0829593799
 20
-52.3113059715
 30
0.0
  0
SPLINE
  5
3EA
100
AcDbEntity
  8
RACCORDO
100
AcDbSpline
 62
250
  6
CONTINUOUS
 70
0
 71
3
 72
9
 73
5
 74
0
 42
0.0000001
 43
0.0000001
 44
0.0000000001
 40
0.0
 40
0.0
 40
0.0
 40
0.0
 40
0.252307973
 40
1.0
 40
1.0
 40
1.0
 40
1.0
 10
35.0288111819
 20
-52.4015305377
 30
0.0
 10
35.0002373221
 20
-52.4473698947
 30
0.0
 10
34.8822785396
 20
-52.6260510613
 30
0.0
 10
34.7447043781
 20
-52.7919506635
 30
0.0
 10
34.6318722558
 20
-52.9054921841
 30
0.0
  0
SPLINE
  5
3EB
100
AcDbEntity
  8
RACCORDO
100
AcDbSpline
 62
250
  6
CONTINUOUS
 70
0
 71
3
 72
9
 73
5
 74
0
 42
0.0000001
 43
0.0000001
 44
0.0000000001
 40
0.0
 40
0.0
 40
0.0
 40
0.0
 40
0.280567166
 40
1.0
 40
1.0
 40
1.0
 40
1.0
 10
34.5665349271
 20
18.8164527175
 30
0.0
 10
34.6151973475
 20
18.8454429678
 30
0.0
 10
34.7883551096
 20
18.9492442675
 30
0.0
 10
34.9604041107
 20
19.0549243752
 30
0.0
 10
35.0829689612
 20
19.132860613
 30
0.0
  0
SPLINE
  5
3EC
100
AcDbEntity
  8
RACCORDO
100
AcDbSpline
 62
250
  6
CONTINUOUS
 70
0
 71
3
 72
10
 73
6
 74
0
 42
0.0000001
 43
0.0000001
 44
0.0000000001
 40
0.0
 40
0.0
 40
0.0
 40
0.0
 40
0.6205029154
 40
0.8391230024
 40
1.0
 40
1.0
 40
1.0
 40
1.0
 10
35.0829689612
 20
19.132860613
 30
0.0
 10
35.1822190903
 20
19.1959722564
 30
0.0
 10
35.3156585784
 20
19.2827109674
 30
0.0
 10
35.4693532969
 20
19.39367232
 30
0.0
 10
35.5256904822
 20
19.4385213044
 30
0.0
 10
35.5485143308
 20
19.45874443
 30
0.0
  0
SPLINE
  5
3ED
100
AcDbEntity
  8
RACCORDO
100
AcDbSpline
 62
250
  6
CONTINUOUS
 70
0
 71
3
 72
11
 73
7
 74
0
 42
0.0000001
 43
0.0000001
 44
0.0000000001
 40
0.0
 40
0.0
 40
0.0
 40
0.0
 40
0.2886491619
 40
0.5490385363
 40
0.7838691067
 40
1.0
 40
1.0
 40
1.0
 40
1.0
 10
15.5407742752
 20
-28.5976777966
 30
0.0
 10
15.5429989169
 20
-28.6519406934
 30
0.0
 10
15.5402858921
 20
-28.7556831946
 30
0.0
 10
15.5110548363
 20
-28.9011433954
 30
0.0
 10
15.4571019217
 20
-29.0249168149
 30
0.0
 10
15.4032630509
 20
-29.0922211067
 30
0.0
 10
15.3733164961
 20
-29.1197310315
 30
0.0
  0
SPLINE
  5
3EE
100
AcDbEntity
  8
0
100
AcDbSpline
 62
7
  6
CONTINUOUS
 70
0
 71
3
 72
11
 73
7
 74
0
 42
0.0000001
 43
0.0000001
 44
0.0000000001
 40
0.0
 40
0.0
 40
0.0
 40
0.0
 40
0.2102945683
 40
0.4430910476
 40
0.7059057684
 40
1.0
 40
1.0
 40
1.0
 40
1.0
 10
2.862100767
 20
-25.2446643028
 30
0.0
 10
2.8757562466
 20
-25.2368200791
 30
0.0
 10
2.8997453609
 20
-25.2118738509
 30
0.0
 10
2.9202263296
 20
-25.1624863288
 30
0.0
 10
2.930022721
 20
-25.103794885
 30
0.0
 10
2.9296687019
 20
-25.0618845684
 30
0.0
 10
2.9278880598
 20
-25.0399330979
 30
0.0
  0
SPLINE
  5
3EF
100
AcDbEntity
  8
0
100
AcDbSpline
 62
7
  6
CONTINUOUS
 70
0
 71
3
 72
8
 73
4
 74
0
 42
0.0000001
 43
0.0000001
 44
0.0000000001
 40
0.0
 40
0.0
 40
0.0
 40
0.0
 40
1.0
 40
1.0
 40
1.0
 40
1.0
 10
2.7557144404
 20
-25.3060904436
 30
0.0
 10
2.765190728
 20
-25.3006468977
 30
0.0
 10
2.7736693536
 20
-25.2932540657
 30
0.0
 10
2.7807735243
 20
-25.2849496706
 30
0.0
  0
SPLINE
  5
3F0
100
AcDbEntity
  8
0
100
AcDbSpline
 62
7
  6
CONTINUOUS
 70
0
 71
3
 72
9
 73
5
 74
0
 42
0.0000001
 43
0.0000001
 44
0.0000000001
 40
0.0
 40
0.0
 40
0.0
 40
0.0
 40
0.4507110103
 40
1.0
 40
1.0
 40
1.0
 40
1.0
 10
2.7807735243
 20
-25.2849496706
 30
0.0
 10
2.7994544052
 20
-25.2631127216
 30
0.0
 10
2.8227058588
 20
-25.2003640362
 30
0.0
 10
2.8243469082
 20
-25.1362581729
 30
0.0
 10
2.8215174962
 20
-25.1013501281
 30
0.0
  0
SPLINE
  5
3F1
100
AcDbEntity
  8
0
100
AcDbSpline
 62
7
  6
CONTINUOUS
 70
0
 71
3
 72
9
 73
5
 74
0
 42
0.0000001
 43
0.0000001
 44
0.0000000001
 40
0.0
 40
0.0
 40
0.0
 40
0.0
 40
0.4590754338
 40
1.0
 40
1.0
 40
1.0
 40
1.0
 10
3.1256052358
 20
-25.623762115
 30
0.0
 10
3.1176559583
 20
-25.6264320377
 30
0.0
 10
3.0998792133
 20
-25.6317190697
 30
0.0
 10
3.0809626181
 20
-25.628176934
 30
0.0
 10
3.0719148539
 20
-25.6242061072
 30
0.0
  0
SPLINE
  5
3F2
100
AcDbEntity
  8
0
100
AcDbSpline
 62
7
  6
CONTINUOUS
 70
0
 71
3
 72
8
 73
4
 74
0
 42
0.0000001
 43
0.0000001
 44
0.0000000001
 40
0.0
 40
0.0
 40
0.0
 40
0.0
 40
1.0
 40
1.0
 40
1.0
 40
1.0
 10
3.0829563713
 20
-25.6571135732
 30
0.0
 10
3.0757593384
 20
-25.6612744319
 30
0.0
 10
3.0683442258
 20
-25.665071434
 30
0.0
 10
3.0607969446
 20
-25.6685569146
 30
0.0
  0
SPLINE
  5
3F3
100
AcDbEntity
  8
0
100
AcDbSpline
 62
7
  6
CONTINUOUS
 70
0
 71
3
 72
9
 73
5
 74
0
 42
0.0000001
 43
0.0000001
 44
0.0000000001
 40
0.0
 40
0.0
 40
0.0
 40
0.0
 40
0.4926712087
 40
1.0
 40
1.0
 40
1.0
 40
1.0
 10
3.0607969446
 20
-25.6685569146
 30
0.0
 10
3.0498930782
 20
-25.6735925313
 30
0.0
 10
3.0274368968
 20
-25.6825865967
 30
0.0
 10
3.0037819017
 20
-25.6907998395
 30
0.0
 10
2.9914158023
 20
-25.6910056163
 30
0.0
  0
SPLINE
  5
3F4
100
AcDbEntity
  8
0
100
AcDbSpline
 62
7
  6
CONTINUOUS
 70
0
 71
3
 72
9
 73
5
 74
0
 42
0.0000001
 43
0.0000001
 44
0.0000000001
 40
0.0
 40
0.0
 40
0.0
 40
0.0
 40
0.2330374094
 40
1.0
 40
1.0
 40
1.0
 40
1.0
 10
2.9914158023
 20
-25.6910056163
 30
0.0
 10
2.9896546671
 20
-25.6910349223
 30
0.0
 10
2.9820944063
 20
-25.6908269396
 30
0.0
 10
2.9745843361
 20
-25.689134205
 30
0.0
 10
2.9691500517
 20
-25.6871159234
 30
0.0
  0
SPLINE
  5
3F5
100
AcDbEntity
  8
RACCORDO
100
AcDbSpline
 62
250
  6
CONTINUOUS
 70
0
 71
3
 72
9
 73
5
 74
0
 42
0.0000001
 43
0.0000001
 44
0.0000000001
 40
0.0
 40
0.0
 40
0.0
 40
0.0
 40
0.2439630597
 40
1.0
 40
1.0
 40
1.0
 40
1.0
 10
32.7841709917
 20
-54.2632718274
 30
0.0
 10
32.5471955286
 20
-52.9435089154
 30
0.0
 10
31.6708801418
 20
-47.5169784792
 30
0.0
 10
31.1663835589
 20
-42.032138632
 30
0.0
 10
30.9709012119
 20
-37.8814093183
 30
0.0
  0
SPLINE
  5
3F6
100
AcDbEntity
  8
RACCORDO
100
AcDbSpline
 62
250
  6
CONTINUOUS
 70
0
 71
3
 72
9
 73
5
 74
0
 42
0.0000001
 43
0.0000001
 44
0.0000000001
 40
0.0
 40
0.0
 40
0.0
 40
0.0
 40
0.245544339
 40
1.0
 40
1.0
 40
1.0
 40
1.0
 10
30.9709012119
 20
-37.8814093183
 30
0.0
 10
30.828444752
 20
-34.8565663492
 30
0.0
 10
30.3977179835
 20
-22.5308842176
 30
0.0
 10
30.5535829028
 20
-10.1860941049
 30
0.0
 10
30.9709012119
 20
-0.891071417
 30
0.0
  0
SPLINE
  5
3F7
100
AcDbEntity
  8
RACCORDO
100
AcDbSpline
 62
250
  6
CONTINUOUS
 70
0
 71
3
 72
9
 73
5
 74
0
 42
0.0000001
 43
0.0000001
 44
0.0000000001
 40
0.0
 40
0.0
 40
0.0
 40
0.0
 40
0.2449458894
 40
1.0
 40
1.0
 40
1.0
 40
1.0
 10
30.9709012119
 20
-0.891071417
 30
0.0
 10
31.0381444205
 20
0.606638775
 30
0.0
 10
31.3982930655
 20
6.7170715482
 30
0.0
 10
32.0927791201
 20
12.8067810291
 30
0.0
 10
32.7841709917
 20
17.3761637694
 30
0.0
  0
SPLINE
  5
3F8
100
AcDbEntity
  8
RACCORDO
100
AcDbSpline
 62
250
  6
CONTINUOUS
 70
0
 71
3
 72
9
 73
5
 74
0
 42
0.0000001
 43
0.0000001
 44
0.0000000001
 40
0.0
 40
0.0
 40
0.0
 40
0.0
 40
0.5220892298
 40
1.0
 40
1.0
 40
1.0
 40
1.0
 10
15.3733164961
 20
7.8952835461
 30
0.0
 10
15.4304333701
 20
7.7677813601
 30
0.0
 10
15.5165099998
 20
7.5123674072
 30
0.0
 10
15.5457552138
 20
7.2431289939
 30
0.0
 10
15.5407742752
 20
7.1153372388
 30
0.0
  0
SPLINE
  5
3F9
100
AcDbEntity
  8
RACCORDO
100
AcDbSpline
 62
250
  6
CONTINUOUS
 70
0
 71
3
 72
9
 73
5
 74
0
 42
0.0000001
 43
0.0000001
 44
0.0000000001
 40
0.0
 40
0.0
 40
0.0
 40
0.0
 40
0.2456169915
 40
1.0
 40
1.0
 40
1.0
 40
1.0
 10
30.5582971732
 20
-37.8873040939
 30
0.0
 10
30.4182083689
 20
-34.9126392579
 30
0.0
 10
29.9922348611
 20
-22.7951216462
 30
0.0
 10
30.1331799153
 20
-10.6589761818
 30
0.0
 10
30.529660258
 20
-1.5211228947
 30
0.0
  0
LINE
  5
3FA
100
AcDbEntity
  8
RACCORDO
100
AcDbLine
 62
250
  6
CONTINUOUS
 10
30.529660258
 20
-1.5211228947
 11
30.5371973263
 21
-1.3482136841
  0
LINE
  5
3FB
100
AcDbEntity
  8
RACCORDO
100
AcDbLine
 62
250
  6
CONTINUOUS
 10
30.5371973263
 20
-1.3482136841
 11
30.5481662444
 21
-1.0993707989
  0
LINE
  5
3FC
100
AcDbEntity
  8
RACCORDO
100
AcDbLine
 62
250
  6
CONTINUOUS
 10
30.5481662444
 20
-1.0993707989
 11
30.5575480226
 21
-0.8890769422
  0
LINE
  5
3FD
100
AcDbEntity
  8
RACCORDO
100
AcDbLine
 62
250
  6
CONTINUOUS
 10
30.5575480226
 20
-0.8890769422
 11
30.5582971629
 21
-0.8723834107
  0
SPLINE
  5
3FE
100
AcDbEntity
  8
RACCORDO
100
AcDbSpline
 62
250
  6
CONTINUOUS
 70
0
 71
3
 72
9
 73
5
 74
0
 42
0.0000001
 43
0.0000001
 44
0.0000000001
 40
0.0
 40
0.0
 40
0.0
 40
0.0
 40
0.5072370183
 40
1.0
 40
1.0
 40
1.0
 40
1.0
 10
-30.6575009568
 20
53.8217635691
 30
0.0
 10
-31.0758152916
 20
50.7249576272
 30
0.0
 10
-31.7671072069
 20
44.6008103569
 30
0.0
 10
-32.1709519017
 20
38.4506201131
 30
0.0
 10
-32.2932709904
 20
35.4173244527
 30
0.0
  0
SPLINE
  5
3FF
100
AcDbEntity
  8
RACCORDO
100
AcDbSpline
 62
250
  6
CONTINUOUS
 70
0
 71
3
 72
9
 73
5
 74
0
 42
0.0000001
 43
0.0000001
 44
0.0000000001
 40
0.0
 40
0.0
 40
0.0
 40
0.0
 40
0.2457003809
 40
1.0
 40
1.0
 40
1.0
 40
1.0
 10
-16.6439120914
 20
-9.6084031715
 30
0.0
 10
-16.7764309193
 20
-6.6892117589
 30
0.0
 10
-17.1770022706
 20
5.1979326274
 30
0.0
 10
-17.0324430426
 20
17.1022420514
 30
0.0
 10
-16.6439126701
 20
26.0649652659
 30
0.0
  0
SPLINE
  5
400
100
AcDbEntity
  8
0
100
AcDbSpline
 62
7
  6
CONTINUOUS
 70
0
 71
3
 72
11
 73
7
 74
0
 42
0.0000001
 43
0.0000001
 44
0.0000000001
 40
0.0
 40
0.0
 40
0.0
 40
0.0
 40
0.2313675911
 40
0.4908754464
 40
0.7548320786
 40
1.0
 40
1.0
 40
1.0
 40
1.0
 10
2.9278880598
 20
-25.0399330979
 30
0.0
 10
2.9248066588
 20
-25.0019460804
 30
0.0
 10
2.9046466971
 20
-24.9225543053
 30
0.0
 10
2.8503041945
 20
-24.80990179
 30
0.0
 10
2.7721086769
 20
-24.7092645054
 30
0.0
 10
2.7089957711
 20
-24.6530734587
 30
0.0
 10
2.6759182342
 20
-24.629903918
 30
0.0
  0
SPLINE
  5
401
100
AcDbEntity
  8
0
100
AcDbSpline
 62
7
  6
CONTINUOUS
 70
0
 71
3
 72
10
 73
6
 74
0
 42
0.0000001
 43
0.0000001
 44
0.0000000001
 40
0.0
 40
0.0
 40
0.0
 40
0.0
 40
0.5207428188
 40
0.7652380069
 40
1.0
 40
1.0
 40
1.0
 40
1.0
 10
2.6759182342
 20
-24.629903918
 30
0.0
 10
2.6236636969
 20
-24.5933016271
 30
0.0
 10
2.5439461156
 20
-24.5433920787
 30
0.0
 10
2.4340970961
 20
-24.4889658449
 30
0.0
 10
2.3798260659
 20
-24.466460568
 30
0.0
 10
2.3530535255
 20
-24.455950038
 30
0.0
  0
SPLINE
  5
402
100
AcDbEntity
  8
0
100
AcDbSpline
 62
7
  6
CONTINUOUS
 70
0
 71
3
 72
11
 73
7
 74
0
 42
0.0000001
 43
0.0000001
 44
0.0000000001
 40
0.0
 40
0.0
 40
0.0
 40
0.0
 40
0.2512747937
 40
0.5126942485
 40
0.7690130678
 40
1.0
 40
1.0
 40
1.0
 40
1.0
 10
2.900416833
 20
-25.8809314545
 30
0.0
 10
2.8890273732
 20
-25.8480473783
 30
0.0
 10
2.8607135949
 20
-25.7826574142
 30
0.0
 10
2.8057973036
 20
-25.6909717916
 30
0.0
 10
2.7377132374
 20
-25.611918967
 30
0.0
 10
2.6833239624
 20
-25.5708219937
 30
0.0
 10
2.65561955
 20
-25.5548258132
 30
0.0
  0
SPLINE
  5
403
100
AcDbEntity
  8
0
100
AcDbSpline
 62
7
  6
CONTINUOUS
 70
0
 71
3
 72
10
 73
6
 74
0
 42
0.0000001
 43
0.0000001
 44
0.0000000001
 40
0.0
 40
0.0
 40
0.0
 40
0.0
 40
0.2490977147
 40
0.4980108708
 40
1.0
 40
1.0
 40
1.0
 40
1.0
 10
3.132386996
 20
-26.6490121044
 30
0.0
 10
3.1135017758
 20
-26.585123117
 30
0.0
 10
3.0751695447
 20
-26.4575578498
 30
0.0
 10
2.9995327609
 20
-26.2010565733
 30
0.0
 10
2.9443564985
 20
-26.0077957077
 30
0.0
 10
2.900416833
 20
-25.8809314545
 30
0.0
  0
SPLINE
  5
404
100
AcDbEntity
  8
RACCORDO
100
AcDbSpline
 62
250
  6
CONTINUOUS
 70
0
 71
3
 72
14
 73
10
 74
0
 42
0.0000001
 43
0.0000001
 44
0.0000000001
 40
0.0
 40
0.0
 40
0.0
 40
0.0
 40
0.2518608402
 40
0.3669198409
 40
0.4801607485
 40
0.5968811317
 40
0.7212208046
 40
0.8554310021
 40
1.0
 40
1.0
 40
1.0
 40
1.0
 10
-30.0767806543
 20
54.1690611372
 30
0.0
 10
-30.1366145491
 20
54.203611314
 30
0.0
 10
-30.2368642138
 20
54.2385015097
 30
0.0
 10
-30.3696741753
 20
54.2250849397
 30
0.0
 10
-30.4580664642
 20
54.187303202
 30
0.0
 10
-30.5334533972
 20
54.1239878758
 30
0.0
 10
-30.5932630971
 20
54.0389988152
 30
0.0
 10
-30.6360950079
 20
53.9362714602
 30
0.0
 10
-30.6521899537
 20
53.8610658339
 30
0.0
 10
-30.6575009568
 20
53.8217635691
 30
0.0
  0
SPLINE
  5
405
100
AcDbEntity
  8
RACCORDO
100
AcDbSpline
 62
250
  6
CONTINUOUS
 70
0
 71
3
 72
12
 73
8
 74
0
 42
0.0000001
 43
0.0000001
 44
0.0000000001
 40
0.0
 40
0.0
 40
0.0
 40
0.0
 40
0.1206825646
 40
0.2475608226
 40
0.4446890308
 40
0.6422702548
 40
1.0
 40
1.0
 40
1.0
 40
1.0
 10
32.3746617717
 20
17.4277827882
 30
0.0
 10
32.380949434
 20
17.4693360675
 30
0.0
 10
32.3868176528
 20
17.5557566605
 30
0.0
 10
32.3751188873
 20
17.7105497133
 30
0.0
 10
32.3309287422
 20
17.8883095252
 30
0.0
 10
32.2201846062
 20
18.1259971712
 30
0.0
 10
32.0842098511
 20
18.2780739386
 30
0.0
 10
31.976330763
 20
18.340372313
 30
0.0
  0
SPLINE
  5
406
100
AcDbEntity
  8
RACCORDO
100
AcDbSpline
 62
250
  6
CONTINUOUS
 70
0
 71
3
 72
11
 73
7
 74
0
 42
0.0000001
 43
0.0000001
 44
0.0000000001
 40
0.0
 40
0.0
 40
0.0
 40
0.0
 40
0.2791547501
 40
0.5334300797
 40
0.769765107
 40
1.0
 40
1.0
 40
1.0
 40
1.0
 10
-29.8792761479
 20
54.4832333315
 30
0.0
 10
-29.9270258018
 20
54.5099114724
 30
0.0
 10
-30.0236184657
 20
54.5523485349
 30
0.0
 10
-30.1740504825
 20
54.5780873112
 30
0.0
 10
-30.3164519171
 20
54.5603215015
 30
0.0
 10
-30.4003300547
 20
54.5193401998
 30
0.0
 10
-30.4372013685
 20
54.493348479
 30
0.0
  0
SPLINE
  5
407
100
AcDbEntity
  8
RACCORDO
100
AcDbSpline
 62
250
  6
CONTINUOUS
 70
0
 71
3
 72
11
 73
7
 74
0
 42
0.0000001
 43
0.0000001
 44
0.0000000001
 40
0.0
 40
0.0
 40
0.0
 40
0.0
 40
0.2437245053
 40
0.5070496853
 40
0.7667005964
 40
1.0
 40
1.0
 40
1.0
 40
1.0
 10
32.7841709917
 20
17.3761637694
 30
0.0
 10
32.7956715937
 20
17.4957122548
 30
0.0
 10
32.7773201927
 20
17.7489584334
 30
0.0
 10
32.6562556351
 20
18.1104088845
 30
0.0
 10
32.4562374043
 20
18.428938177
 30
0.0
 10
32.2725563205
 20
18.595631926
 30
0.0
 10
32.1738352694
 20
18.6545445073
 30
0.0
  0
SPLINE
  5
408
100
AcDbEntity
  8
RACCORDO
100
AcDbSpline
 62
250
  6
CONTINUOUS
 70
0
 71
3
 72
11
 73
7
 74
0
 42
0.0000001
 43
0.0000001
 44
0.0000000001
 40
0.0
 40
0.0
 40
0.0
 40
0.0
 40
0.2459794376
 40
0.5070714977
 40
0.7644116438
 40
1.0
 40
1.0
 40
1.0
 40
1.0
 10
-30.0767806543
 20
54.1690611372
 30
0.0
 10
-30.0722608699
 20
54.1999387202
 30
0.0
 10
-30.0548732831
 20
54.2625091853
 30
0.0
 10
-30.0109602068
 20
54.3495799163
 30
0.0
 10
-29.9524460546
 20
54.4259399088
 30
0.0
 10
-29.9044742468
 20
54.4671594732
 30
0.0
 10
-29.8792761482
 20
54.4832333316
 30
0.0
  0
SPLINE
  5
409
100
AcDbEntity
  8
RACCORDO
100
AcDbSpline
 62
250
  6
CONTINUOUS
 70
0
 71
3
 72
11
 73
7
 74
0
 42
0.0000001
 43
0.0000001
 44
0.0000000001
 40
0.0
 40
0.0
 40
0.0
 40
0.0
 40
0.3146559746
 40
0.5821354381
 40
0.8053036157
 40
1.0
 40
1.0
 40
1.0
 40
1.0
 10
-30.6575009088
 20
53.8217635868
 30
0.0
 10
-30.6716361644
 20
53.829749216
 30
0.0
 10
-30.6968663524
 20
53.8463377951
 30
0.0
 10
-30.7268170789
 20
53.875619696
 30
0.0
 10
-30.7448240041
 20
53.9067945871
 30
0.0
 10
-30.7473746777
 20
53.9290664991
 30
0.0
 10
-30.7460281561
 20
53.9390214159
 30
0.0
  0
SPLINE
  5
40A
100
AcDbEntity
  8
RACCORDO
100
AcDbSpline
 62
250
  6
CONTINUOUS
 70
0
 71
3
 72
11
 73
7
 74
0
 42
0.0000001
 43
0.0000001
 44
0.0000000001
 40
0.0
 40
0.0
 40
0.0
 40
0.0
 40
0.2959796839
 40
0.5572281439
 40
0.7878045642
 40
1.0
 40
1.0
 40
1.0
 40
1.0
 10
-32.2932690843
 20
35.4173726668
 30
0.0
 10
-32.3067497546
 20
35.4251131326
 30
0.0
 10
-32.3310886192
 20
35.4416952224
 30
0.0
 10
-32.3600622835
 20
35.4717521686
 30
0.0
 10
-32.3779951699
 20
35.5047217856
 30
0.0
 10
-32.3816135025
 20
35.5283123663
 30
0.0
 10
-32.3811612937
 20
35.5394477113
 30
0.0
  0
SPLINE
  5
40B
100
AcDbEntity
  8
RACCORDO
100
AcDbSpline
 62
250
  6
CONTINUOUS
 70
0
 71
3
 72
10
 73
6
 74
0
 42
0.0000001
 43
0.0000001
 44
0.0000000001
 40
0.0
 40
0.0
 40
0.0
 40
0.0
 40
0.5403953916
 40
0.776598005
 40
1.0
 40
1.0
 40
1.0
 40
1.0
 10
-32.2932690812
 20
-1.5976419079
 30
0.0
 10
-32.3175382135
 20
-1.5835590676
 30
0.0
 10
-32.3502968789
 20
-1.5572819187
 30
0.0
 10
-32.3756727967
 20
-1.5113159671
 30
0.0
 10
-32.3806149121
 20
-1.4874974643
 30
0.0
 10
-32.3811273794
 20
-1.4759089961
 30
0.0
  0
SPLINE
  5
40C
100
AcDbEntity
  8
RACCORDO
100
AcDbSpline
 62
250
  6
CONTINUOUS
 70
0
 71
3
 72
9
 73
5
 74
0
 42
0.0000001
 43
0.0000001
 44
0.0000000001
 40
0.0
 40
0.0
 40
0.0
 40
0.0
 40
0.5272729655
 40
1.0
 40
1.0
 40
1.0
 40
1.0
 10
-30.6575009136
 20
-17.9045429333
 30
0.0
 10
-30.6800209806
 20
-17.8913448964
 30
0.0
 10
-30.7195442161
 20
-17.8591897756
 30
0.0
 10
-30.7410218853
 20
-17.812028335
 30
0.0
 10
-30.7447993098
 20
-17.7889329719
 30
0.0
  0
SPLINE
  5
40D
100
AcDbEntity
  8
RACCORDO
100
AcDbSpline
 62
250
  6
CONTINUOUS
 70
0
 71
3
 72
9
 73
5
 74
0
 42
0.0000001
 43
0.0000001
 44
0.0000000001
 40
0.0
 40
0.0
 40
0.0
 40
0.0
 40
0.5348895626
 40
1.0
 40
1.0
 40
1.0
 40
1.0
 10
-30.0767806543
 20
-18.7118231997
 30
0.0
 10
-30.0732454863
 20
-18.7318917685
 30
0.0
 10
-30.0613106495
 20
-18.7691364084
 30
0.0
 10
-30.0335275019
 20
-18.7978520127
 30
0.0
 10
-30.0181788549
 20
-18.8067057727
 30
0.0
  0
SPLINE
  5
40E
100
AcDbEntity
  8
RACCORDO
100
AcDbSpline
 62
250
  6
CONTINUOUS
 70
0
 71
3
 72
9
 73
5
 74
0
 42
0.0000001
 43
0.0000001
 44
0.0000000001
 40
0.0
 40
0.0
 40
0.0
 40
0.0
 40
0.5348825492
 40
1.0
 40
1.0
 40
1.0
 40
1.0
 10
31.976330763
 20
-54.5405120239
 30
0.0
 10
31.9798638596
 20
-54.5605687391
 30
0.0
 10
31.9917887891
 20
-54.597790894
 30
0.0
 10
32.0195396991
 20
-54.6265014197
 30
0.0
 10
32.034873702
 20
-54.6353606166
 30
0.0
  0
SPLINE
  5
40F
100
AcDbEntity
  8
RACCORDO
100
AcDbSpline
 62
250
  6
CONTINUOUS
 70
0
 71
3
 72
11
 73
7
 74
0
 42
0.0000001
 43
0.0000001
 44
0.0000000001
 40
0.0
 40
0.0
 40
0.0
 40
0.0
 40
0.2304832009
 40
0.4863113269
 40
0.7496476391
 40
1.0
 40
1.0
 40
1.0
 40
1.0
 10
32.3746618197
 20
-54.2985237104
 30
0.0
 10
32.4033613484
 20
-54.3148455773
 30
0.0
 10
32.470979142
 20
-54.337102168
 30
0.0
 10
32.5793814475
 20
-54.3408662046
 30
0.0
 10
32.6882045537
 20
-54.3176089795
 30
0.0
 10
32.7550414839
 20
-54.2841902561
 30
0.0
 10
32.7841709917
 20
-54.2632718274
 30
0.0
  0
SPLINE
  5
410
100
AcDbEntity
  8
RACCORDO
100
AcDbSpline
 62
250
  6
CONTINUOUS
 70
0
 71
3
 72
11
 73
7
 74
0
 42
0.0000001
 43
0.0000001
 44
0.0000000001
 40
0.0
 40
0.0
 40
0.0
 40
0.0
 40
0.2341749793
 40
0.4937439205
 40
0.7567102334
 40
1.0
 40
1.0
 40
1.0
 40
1.0
 10
30.5582993068
 20
-37.8873497846
 30
0.0
 10
30.5872647761
 20
-37.9039903395
 30
0.0
 10
30.6547445284
 20
-37.928058015
 30
0.0
 10
30.7630443724
 20
-37.9383634331
 30
0.0
 10
30.872269749
 20
-37.924605751
 30
0.0
 10
30.9408196956
 20
-37.8987173585
 30
0.0
 10
30.9709012119
 20
-37.8814093183
 30
0.0
  0
SPLINE
  5
411
100
AcDbEntity
  8
RACCORDO
100
AcDbSpline
 62
250
  6
CONTINUOUS
 70
0
 71
3
 72
11
 73
7
 74
0
 42
0.0000001
 43
0.0000001
 44
0.0000000001
 40
0.0
 40
0.0
 40
0.0
 40
0.0
 40
0.2373292082
 40
0.4998794602
 40
0.7624946699
 40
1.0
 40
1.0
 40
1.0
 40
1.0
 10
30.5582993106
 20
-0.8723352059
 30
0.0
 10
30.5874234817
 20
-0.8892442863
 30
0.0
 10
30.6546024726
 20
-0.9148895591
 30
0.0
 10
30.7623343871
 20
-0.9306237176
 30
0.0
 10
30.8710738942
 20
-0.9247139996
 30
0.0
 10
30.9403345325
 20
-0.9052663585
 30
0.0
 10
30.9709012119
 20
-0.891071417
 30
0.0
  0
SPLINE
  5
412
100
AcDbEntity
  8
RACCORDO
100
AcDbSpline
 62
250
  6
CONTINUOUS
 70
0
 71
3
 72
11
 73
7
 74
0
 42
0.0000001
 43
0.0000001
 44
0.0000000001
 40
0.0
 40
0.0
 40
0.0
 40
0.0
 40
0.2414342659
 40
0.5077203884
 40
0.7698852893
 40
1.0
 40
1.0
 40
1.0
 40
1.0
 10
32.3746618149
 20
17.4277828041
 30
0.0
 10
32.4039270501
 20
17.4105206057
 30
0.0
 10
32.470509695
 20
17.3827280401
 30
0.0
 10
32.5769173728
 20
17.3598621397
 30
0.0
 10
32.6840538013
 20
17.3555158549
 30
0.0
 10
32.7533377247
 20
17.3662509028
 30
0.0
 10
32.7841662746
 20
17.3761667944
 30
0.0
  0
SPLINE
  5
413
100
AcDbEntity
  8
RACCORDO
100
AcDbSpline
 62
250
  6
CONTINUOUS
 70
0
 71
3
 72
11
 73
7
 74
0
 42
0.0000001
 43
0.0000001
 44
0.0000000001
 40
0.0
 40
0.0
 40
0.0
 40
0.0
 40
0.2459794421
 40
0.5070715314
 40
0.7644116895
 40
1.0
 40
1.0
 40
1.0
 40
1.0
 10
31.976330763
 20
18.340372313
 30
0.0
 10
31.9808505721
 20
18.3712498897
 30
0.0
 10
31.9982381959
 20
18.4338203398
 30
0.0
 10
32.042151289
 20
18.5208910549
 30
0.0
 10
32.100665419
 20
18.5972510481
 30
0.0
 10
32.1486371915
 20
18.638470633
 30
0.0
 10
32.1738352694
 20
18.6545445073
 30
0.0
  0
SPLINE
  5
414
100
AcDbEntity
  8
0
100
AcDbSpline
 62
250
  6
CONTINUOUS
 70
0
 71
3
 72
10
 73
6
 74
0
 42
0.0000001
 43
0.0000001
 44
0.0000000001
 40
0.0
 40
0.0
 40
0.0
 40
0.0
 40
0.5490360992
 40
0.7824180798
 40
1.0
 40
1.0
 40
1.0
 40
1.0
 10
-13.3716274679
 20
20.1472142092
 30
0.0
 10
-13.3710724418
 20
20.1290252387
 30
0.0
 10
-13.3740191084
 20
20.1021685916
 30
0.0
 10
-13.3904463133
 20
20.0728981402
 30
0.0
 10
-13.4017820113
 20
20.0626427083
 30
0.0
 10
-13.4078894276
 20
20.0588077691
 30
0.0
  0
SPLINE
  5
415
100
AcDbEntity
  8
0
100
AcDbSpline
 62
250
  6
CONTINUOUS
 70
0
 71
3
 72
10
 73
6
 74
0
 42
0.0000001
 43
0.0000001
 44
0.0000000001
 40
0.0
 40
0.0
 40
0.0
 40
0.0
 40
0.547056766
 40
0.7811084586
 40
1.0
 40
1.0
 40
1.0
 40
1.0
 10
-13.1686853754
 20
20.5112454693
 30
0.0
 10
-13.1524575525
 20
20.5207801876
 30
0.0
 10
-13.1305837364
 20
20.5382811141
 30
0.0
 10
-13.1140753162
 20
20.5689592511
 30
0.0
 10
-13.1113442038
 20
20.584653701
 30
0.0
 10
-13.1113445447
 20
20.5921847141
 30
0.0
  0
SPLINE
  5
416
100
AcDbEntity
  8
RACCORDO
100
AcDbSpline
 62
250
  6
CONTINUOUS
 70
0
 71
3
 72
9
 73
5
 74
0
 42
0.0000001
 43
0.0000001
 44
0.0000000001
 40
0.0
 40
0.0
 40
0.0
 40
0.0
 40
0.2449455102
 40
1.0
 40
1.0
 40
1.0
 40
1.0
 10
30.5582970907
 20
-0.872383369
 30
0.0
 10
30.6256548085
 20
0.6280232913
 30
0.0
 10
30.9864177277
 20
6.7494674831
 30
0.0
 10
31.6820886244
 20
12.8501550673
 30
0.0
 10
32.3746617717
 20
17.4277827882
 30
0.0
  0
SPLINE
  5
417
100
AcDbEntity
  8
0
100
AcDbSpline
 62
250
  6
CONTINUOUS
 70
0
 71
3
 72
10
 73
6
 74
0
 42
0.0000001
 43
0.0000001
 44
0.0000000001
 40
0.0
 40
0.0
 40
0.0
 40
0.0
 40
0.547056722
 40
0.7811084287
 40
1.0
 40
1.0
 40
1.0
 40
1.0
 10
-13.1686853754
 20
22.3354941738
 30
0.0
 10
-13.1524575598
 20
22.345028885
 30
0.0
 10
-13.130583753
 20
22.3625297993
 30
0.0
 10
-13.1140753279
 20
22.3932079158
 30
0.0
 10
-13.111344209
 20
22.4089023585
 30
0.0
 10
-13.1113445448
 20
22.4164333693
 30
0.0
  0
SPLINE
  5
418
100
AcDbEntity
  8
0
100
AcDbSpline
 62
250
  6
CONTINUOUS
 70
0
 71
3
 72
11
 73
7
 74
0
 42
0.0000001
 43
0.0000001
 44
0.0000000001
 40
0.0
 40
0.0
 40
0.0
 40
0.0
 40
0.239075458
 40
0.5016341886
 40
0.7633008085
 40
1.0
 40
1.0
 40
1.0
 40
1.0
 10
-13.3716274679
 20
22.4610466568
 30
0.0
 10
-13.3709376239
 20
22.484464394
 30
0.0
 10
-13.3782852134
 20
22.5339145545
 30
0.0
 10
-13.4073530461
 20
22.6034931389
 30
0.0
 10
-13.4510999644
 20
22.6646260023
 30
0.0
 10
-13.4891712723
 20
22.6965781019
 30
0.0
 10
-13.5093420236
 20
22.7080301984
 30
0.0
  0
SPLINE
  5
419
100
AcDbEntity
  8
0
100
AcDbSpline
 62
250
  6
CONTINUOUS
 70
0
 71
3
 72
11
 73
7
 74
0
 42
0.0000001
 43
0.0000001
 44
0.0000000001
 40
0.0
 40
0.0
 40
0.0
 40
0.0
 40
0.2390840561
 40
0.5016460277
 40
0.7633094263
 40
1.0
 40
1.0
 40
1.0
 40
1.0
 10
-2.5085467879
 20
-14.724942216
 30
0.0
 10
-2.4879210967
 20
-14.7360546256
 30
0.0
 10
-2.4487693271
 20
-14.7671439339
 30
0.0
 10
-2.4030458613
 20
-14.8271072551
 30
0.0
 10
-2.3719769642
 20
-14.8955587426
 30
0.0
 10
-2.3633419579
 20
-14.9445045181
 30
0.0
 10
-2.3635101658
 20
-14.9676980792
 30
0.0
  0
SPLINE
  5
41A
100
AcDbEntity
  8
0
100
AcDbSpline
 62
250
  6
CONTINUOUS
 70
0
 71
3
 72
10
 73
6
 74
0
 42
0.0000001
 43
0.0000001
 44
0.0000000001
 40
0.0
 40
0.0
 40
0.0
 40
0.0
 40
0.5470711245
 40
0.7811182353
 40
1.0
 40
1.0
 40
1.0
 40
1.0
 10
-2.515820864
 20
-14.4863896147
 30
0.0
 10
-2.4994495114
 20
-14.4771019684
 30
0.0
 10
-2.4733563379
 20
-14.4669070178
 30
0.0
 10
-2.4385334523
 20
-14.4679477918
 30
0.0
 10
-2.4235762654
 20
-14.4734297243
 30
0.0
 10
-2.4170546907
 20
-14.4771955891
 30
0.0
  0
SPLINE
  5
41B
100
AcDbEntity
  8
0
100
AcDbSpline
 62
250
  6
CONTINUOUS
 70
0
 71
3
 72
10
 73
6
 74
0
 42
0.0000001
 43
0.0000001
 44
0.0000000001
 40
0.0
 40
0.0
 40
0.0
 40
0.0
 40
0.5470710994
 40
0.7811182242
 40
1.0
 40
1.0
 40
1.0
 40
1.0
 10
-4.0957174827
 20
-13.5741771079
 30
0.0
 10
-4.0793461348
 20
-13.564889467
 30
0.0
 10
-4.0532529712
 20
-13.5546945221
 30
0.0
 10
-4.0184300969
 20
-13.555735284
 30
0.0
 10
-4.0034729116
 20
-13.5612172075
 30
0.0
 10
-3.9969513361
 20
-13.5649830669
 30
0.0
  0
SPLINE
  5
41C
100
AcDbEntity
  8
0
100
AcDbSpline
 62
250
  6
CONTINUOUS
 70
0
 71
3
 72
10
 73
6
 74
0
 42
0.0000001
 43
0.0000001
 44
0.0000000001
 40
0.0
 40
0.0
 40
0.0
 40
0.0
 40
0.5490434474
 40
0.7824232367
 40
1.0
 40
1.0
 40
1.0
 40
1.0
 10
-4.512449025
 20
-13.5679141791
 30
0.0
 10
-4.5279259609
 20
-13.5583369836
 30
0.0
 10
-4.5526616091
 20
-13.5474580467
 30
0.0
 10
-4.5862294442
 20
-13.5470490113
 30
0.0
 10
-4.6007806979
 20
-13.5517394401
 30
0.0
 10
-4.6071562196
 20
-13.5551119274
 30
0.0
  0
SPLINE
  5
41D
100
AcDbEntity
  8
0
100
AcDbSpline
 62
250
  6
CONTINUOUS
 70
0
 71
3
 72
9
 73
5
 74
0
 42
0.0000001
 43
0.0000001
 44
0.0000000001
 40
0.0
 40
0.0
 40
0.0
 40
0.0
 40
0.5479316467
 40
1.0
 40
1.0
 40
1.0
 40
1.0
 10
-2.3635101661
 20
-15.5565669054
 30
0.0
 10
-2.3629775579
 20
-15.5745074945
 30
0.0
 10
-2.366400251
 20
-15.6081166241
 30
0.0
 10
-2.3871015142
 20
-15.6364422236
 30
0.0
 10
-2.3994498497
 20
-15.6446156485
 30
0.0
  0
SPLINE
  5
41E
100
AcDbEntity
  8
0
100
AcDbSpline
 62
250
  6
CONTINUOUS
 70
0
 71
3
 72
9
 73
5
 74
0
 42
0.0000001
 43
0.0000001
 44
0.0000000001
 40
0.0
 40
0.0
 40
0.0
 40
0.0
 40
0.5418714429
 40
1.0
 40
1.0
 40
1.0
 40
1.0
 10
-14.0192973565
 20
23.0025118227
 30
0.0
 10
-13.9840808558
 20
23.0206224631
 30
0.0
 10
-13.9141916717
 20
23.0464151411
 30
0.0
 10
-13.8380117232
 20
23.0422437927
 30
0.0
 10
-13.8064212692
 20
23.0311539535
 30
0.0
  0
SPLINE
  5
41F
100
AcDbEntity
  8
0
100
AcDbSpline
 62
250
  6
CONTINUOUS
 70
0
 71
3
 72
11
 73
7
 74
0
 42
0.0000001
 43
0.0000001
 44
0.0000000001
 40
0.0
 40
0.0
 40
0.0
 40
0.0
 40
0.2880675324
 40
0.5466700948
 40
0.7804878848
 40
1.0
 40
1.0
 40
1.0
 40
1.0
 10
-2.363475601
 20
-14.9676768894
 30
0.0
 10
-2.3432538491
 20
-14.9552840199
 30
0.0
 10
-2.306615584
 20
-14.9286434419
 30
0.0
 10
-2.263048838
 20
-14.880656803
 30
0.0
 10
-2.2356003844
 20
-14.8280087527
 30
0.0
 10
-2.229202814
 20
-14.7904526895
 30
0.0
 10
-2.2291891141
 20
-14.772379855
 30
0.0
  0
SPLINE
  5
420
100
AcDbEntity
  8
0
100
AcDbSpline
 62
250
  6
CONTINUOUS
 70
0
 71
3
 72
9
 73
5
 74
0
 42
0.0000001
 43
0.0000001
 44
0.0000000001
 40
0.0
 40
0.0
 40
0.0
 40
0.0
 40
0.5414690738
 40
1.0
 40
1.0
 40
1.0
 40
1.0
 10
-2.3635101661
 20
-15.5565669054
 30
0.0
 10
-2.3306059271
 20
-15.5353701736
 30
0.0
 10
-2.273926986
 20
-15.4883566736
 30
0.0
 10
-2.2392971186
 20
-15.421434428
 30
0.0
 10
-2.2327210448
 20
-15.3889479472
 30
0.0
  0
SPLINE
  5
421
100
AcDbEntity
  8
0
100
AcDbSpline
 62
250
  6
CONTINUOUS
 70
0
 71
3
 72
11
 73
7
 74
0
 42
0.0000001
 43
0.0000001
 44
0.0000000001
 40
0.0
 40
0.0
 40
0.0
 40
0.0
 40
0.2388624052
 40
0.5016472009
 40
0.7635405143
 40
1.0
 40
1.0
 40
1.0
 40
1.0
 10
-13.3716274679
 20
20.1472142092
 30
0.0
 10
-13.3425660663
 20
20.1654640502
 30
0.0
 10
-13.2879195533
 20
20.2140721106
 30
0.0
 10
-13.2242917459
 20
20.3043666766
 30
0.0
 10
-13.1810359385
 20
20.4056295655
 30
0.0
 10
-13.1686813204
 20
20.4772741942
 30
0.0
 10
-13.1686853754
 20
20.5112454693
 30
0.0
  0
SPLINE
  5
422
100
AcDbEntity
  8
0
100
AcDbSpline
 62
250
  6
CONTINUOUS
 70
0
 71
3
 72
15
 73
11
 74
0
 42
0.0000001
 43
0.0000001
 44
0.0000000001
 40
0.0
 40
0.0
 40
0.0
 40
0.0
 40
0.1464800571
 40
0.2776723419
 40
0.395527727
 40
0.5050622308
 40
0.6136871573
 40
0.729114665
 40
0.8570204639
 40
1.0
 40
1.0
 40
1.0
 40
1.0
 10
-13.1686853754
 20
22.3354941738
 30
0.0
 10
-13.1686835972
 20
22.350371003
 30
0.0
 10
-13.1708691283
 20
22.3786639037
 30
0.0
 10
-13.1819648293
 20
22.417611543
 30
0.0
 10
-13.2006432139
 20
22.4494419102
 30
0.0
 10
-13.2265988784
 20
22.4725694587
 30
0.0
 10
-13.2586535607
 20
22.4854283896
 30
0.0
 10
-13.2948653942
 20
22.4875232019
 30
0.0
 10
-13.3335944006
 20
22.4793110051
 30
0.0
 10
-13.3588882704
 20
22.4680166825
 30
0.0
 10
-13.3716274679
 20
22.4610466568
 30
0.0
  0
SPLINE
  5
423
100
AcDbEntity
  8
RACCORDO
100
AcDbSpline
 62
250
  6
CONTINUOUS
 70
0
 71
3
 72
10
 73
6
 74
0
 42
0.0000001
 43
0.0000001
 44
0.0000000001
 40
0.0
 40
0.0
 40
0.0
 40
0.0
 40
0.2280873426
 40
0.4753036476
 40
1.0
 40
1.0
 40
1.0
 40
1.0
 10
14.6666645876
 20
8.7325954743
 30
0.0
 10
14.7380806576
 20
8.6913617404
 30
0.0
 10
14.8780800789
 20
8.589641034
 30
0.0
 10
15.1323063925
 20
8.3312371571
 30
0.0
 10
15.28318047
 20
8.0908694524
 30
0.0
 10
15.3627023435
 20
7.9186373907
 30
0.0
  0
SPLINE
  5
424
100
AcDbEntity
  8
0
100
AcDbSpline
 62
250
  6
CONTINUOUS
 70
0
 71
3
 72
11
 73
7
 74
0
 42
0.0000001
 43
0.0000001
 44
0.0000000001
 40
0.0
 40
0.0
 40
0.0
 40
0.0
 40
0.2907486828
 40
0.539218897
 40
0.7649154359
 40
1.0
 40
1.0
 40
1.0
 40
1.0
 10
-2.5085467879
 20
-14.724942216
 30
0.0
 10
-2.4912496037
 20
-14.7144175399
 30
0.0
 10
-2.4610728305
 20
-14.6911785162
 30
0.0
 10
-2.4309427454
 20
-14.6455447647
 30
0.0
 10
-2.4247185658
 20
-14.5945500173
 30
0.0
 10
-2.4371435328
 20
-14.5635536766
 30
0.0
 10
-2.4458739697
 20
-14.5497047649
 30
0.0
  0
SPLINE
  5
425
100
AcDbEntity
  8
0
100
AcDbSpline
 62
250
  6
CONTINUOUS
 70
0
 71
3
 72
9
 73
5
 74
0
 42
0.0000001
 43
0.0000001
 44
0.0000000001
 40
0.0
 40
0.0
 40
0.0
 40
0.0
 40
0.2275717351
 40
1.0
 40
1.0
 40
1.0
 40
1.0
 10
-2.4458739697
 20
-14.5497047649
 30
0.0
 10
-2.4497126652
 20
-14.5436155215
 30
0.0
 10
-2.4687171143
 20
-14.518196074
 30
0.0
 10
-2.4946607053
 20
-14.4986038581
 30
0.0
 10
-2.515820864
 20
-14.4863896147
 30
0.0
  0
SPLINE
  5
426
100
AcDbEntity
  8
0
100
AcDbSpline
 62
250
  6
CONTINUOUS
 70
0
 71
3
 72
11
 73
7
 74
0
 42
0.0000001
 43
0.0000001
 44
0.0000000001
 40
0.0
 40
0.0
 40
0.0
 40
0.0
 40
0.2364653795
 40
0.4983590758
 40
0.7611408611
 40
1.0
 40
1.0
 40
1.0
 40
1.0
 10
-4.0957174827
 20
-13.5741771079
 30
0.0
 10
-4.1251358935
 20
-13.5571865967
 30
0.0
 10
-4.1933599339
 20
-13.5320612519
 30
0.0
 10
-4.3026852712
 20
-13.518888972
 30
0.0
 10
-4.4126965198
 20
-13.5288459726
 30
0.0
 10
-4.4821145715
 20
-13.5518696758
 30
0.0
 10
-4.512449025
 20
-13.5679141791
 30
0.0
  0
SPLINE
  5
427
100
AcDbEntity
  8
ASSI
100
AcDbSpline
 62
7
  6
CONTINUOUS
 70
0
 71
3
 72
9
 73
5
 74
0
 42
0.0000001
 43
0.0000001
 44
0.0000000001
 40
0.0
 40
0.0
 40
0.0
 40
0.0
 40
0.5004492332
 40
1.0
 40
1.0
 40
1.0
 40
1.0
 10
3.2363275408
 20
-26.2662454321
 30
0.0
 10
3.2679240425
 20
-26.378528747
 30
0.0
 10
3.3300230679
 20
-26.6031829193
 30
0.0
 10
3.3914812535
 20
-26.8280192548
 30
0.0
 10
3.4234003472
 20
-26.9399935519
 30
0.0
  0
SPLINE
  5
428
100
AcDbEntity
  8
ASSI
100
AcDbSpline
 62
7
  6
CONTINUOUS
 70
0
 71
3
 72
9
 73
5
 74
0
 42
0.0000001
 43
0.0000001
 44
0.0000000001
 40
0.0
 40
0.0
 40
0.0
 40
0.0
 40
0.2466441146
 40
1.0
 40
1.0
 40
1.0
 40
1.0
 10
2.9664454928
 20
-25.6986103226
 30
0.0
 10
2.9690483549
 20
-25.7011817713
 30
0.0
 10
2.9794852646
 20
-25.7117248178
 30
0.0
 10
2.9894735565
 20
-25.7227092589
 30
0.0
 10
2.9967614752
 20
-25.7311817219
 30
0.0
  0
SPLINE
  5
429
100
AcDbEntity
  8
ASSI
100
AcDbSpline
 62
7
  6
CONTINUOUS
 70
0
 71
3
 72
11
 73
7
 74
0
 42
0.0000001
 43
0.0000001
 44
0.0000000001
 40
0.0
 40
0.0
 40
0.0
 40
0.0
 40
0.2625870779
 40
0.5187007866
 40
0.7635377617
 40
1.0
 40
1.0
 40
1.0
 40
1.0
 10
2.9967614752
 20
-25.7311817219
 30
0.0
 10
3.0304725191
 20
-25.7703720016
 30
0.0
 10
3.0872316741
 20
-25.8562847624
 30
0.0
 10
3.1505102131
 20
-25.99288184
 30
0.0
 10
3.1987121826
 20
-26.1300216951
 30
0.0
 10
3.2237177547
 20
-26.2214345031
 30
0.0
 10
3.2363275408
 20
-26.2662454321
 30
0.0
  0
LINE
  5
42A
100
AcDbEntity
  8
ASSI
100
AcDbLine
 62
7
  6
CONTINUOUS
 10
2.9664454928
 20
-25.6986103226
 11
2.9655112556
 21
-25.6856422113
  0
SPLINE
  5
42B
100
AcDbEntity
  8
ASSI
100
AcDbSpline
 62
7
  6
CONTINUOUS
 70
0
 71
3
 72
15
 73
11
 74
0
 42
0.0000001
 43
0.0000001
 44
0.0000000001
 40
0.0
 40
0.0
 40
0.0
 40
0.0
 40
0.0706203632
 40
0.1430884221
 40
0.2893743996
 40
0.4333698953
 40
0.5701189002
 40
0.6961904643
 40
0.8108408363
 40
1.0
 40
1.0
 40
1.0
 40
1.0
 10
2.8473599616
 20
-24.5500923641
 30
0.0
 10
2.8666646809
 20
-24.5685194203
 30
0.0
 10
2.9035878409
 20
-24.6081578466
 30
0.0
 10
2.9721769542
 20
-24.6933859757
 30
0.0
 10
3.0484824861
 20
-24.8076865703
 30
0.0
 10
3.1219164144
 20
-24.9518311355
 30
0.0
 10
3.1741812075
 20
-25.0968269666
 30
0.0
 10
3.2034882502
 20
-25.2371758104
 30
0.0
 10
3.2156993971
 20
-25.3984568267
 30
0.0
 10
3.1960746572
 20
-25.518389473
 30
0.0
 10
3.1596956868
 20
-25.5799239559
 30
0.0
  0
SPLINE
  5
42C
100
AcDbEntity
  8
ASSI
100
AcDbSpline
 62
7
  6
CONTINUOUS
 70
0
 71
3
 72
9
 73
5
 74
0
 42
0.0000001
 43
0.0000001
 44
0.0000000001
 40
0.0
 40
0.0
 40
0.0
 40
0.0
 40
0.2577605141
 40
1.0
 40
1.0
 40
1.0
 40
1.0
 10
3.1596956868
 20
-25.5799239559
 30
0.0
 10
3.1564134065
 20
-25.5854758838
 30
0.0
 10
3.1429182437
 20
-25.6065406851
 30
0.0
 10
3.1259815559
 20
-25.625517966
 30
0.0
 10
3.1116594856
 20
-25.6373416582
 30
0.0
  0
SPLINE
  5
42D
100
AcDbEntity
  8
ASSI
100
AcDbSpline
 62
7
  6
CONTINUOUS
 70
0
 71
3
 72
8
 73
4
 74
0
 42
0.0000001
 43
0.0000001
 44
0.0000000001
 40
0.0
 40
0.0
 40
0.0
 40
0.0
 40
1.0
 40
1.0
 40
1.0
 40
1.0
 10
3.1116594856
 20
-25.6373416582
 30
0.0
 10
3.1027001376
 20
-25.6447381149
 30
0.0
 10
3.0930144175
 20
-25.6512986617
 30
0.0
 10
3.0829563713
 20
-25.6571135732
 30
0.0
  0
SPLINE
  5
42E
100
AcDbEntity
  8
ASSI
100
AcDbSpline
 62
7
  6
CONTINUOUS
 70
0
 71
3
 72
11
 73
7
 74
0
 42
0.0000001
 43
0.0000001
 44
0.0000000001
 40
0.0
 40
0.0
 40
0.0
 40
0.0
 40
0.2312458147
 40
0.4718691036
 40
0.726152173
 40
1.0
 40
1.0
 40
1.0
 40
1.0
 10
1.8260654915
 20
-23.9380568494
 30
0.0
 10
1.9111678705
 20
-23.9736237032
 30
0.0
 10
2.0837010772
 20
-24.0490062388
 30
0.0
 10
2.3416240381
 20
-24.1814031081
 30
0.0
 10
2.6022279351
 20
-24.3435480985
 30
0.0
 10
2.7683699304
 20
-24.474651355
 30
0.0
 10
2.8473599616
 20
-24.5500923641
 30
0.0
  0
SPLINE
  5
42F
100
AcDbEntity
  8
ASSI
100
AcDbSpline
 62
7
  6
CONTINUOUS
 70
0
 71
3
 72
11
 73
7
 74
0
 42
0.0000001
 43
0.0000001
 44
0.0000000001
 40
0.0
 40
0.0
 40
0.0
 40
0.0
 40
0.2901729653
 40
0.5580176791
 40
0.7953498356
 40
1.0
 40
1.0
 40
1.0
 40
1.0
 10
2.5242209676
 20
-25.2573512142
 30
0.0
 10
2.54493443
 20
-25.2688177353
 30
0.0
 10
2.5856116896
 20
-25.2894435794
 30
0.0
 10
2.6466796543
 20
-25.3119506381
 30
0.0
 10
2.7042045298
 20
-25.3221855848
 30
0.0
 10
2.7412356749
 20
-25.3144076062
 30
0.0
 10
2.7557144404
 20
-25.3060904436
 30
0.0
  0
SPLINE
  5
430
100
AcDbEntity
  8
ASSI
100
AcDbSpline
 62
7
  6
CONTINUOUS
 70
0
 71
3
 72
9
 73
5
 74
0
 42
0.0000001
 43
0.0000001
 44
0.0000000001
 40
0.0
 40
0.0
 40
0.0
 40
0.0
 40
0.4999855286
 40
1.0
 40
1.0
 40
1.0
 40
1.0
 10
35.2636035958
 20
19.952224304
 30
0.0
 10
35.3485445197
 20
19.9031805089
 30
0.0
 10
35.491019478
 20
19.7545411775
 30
0.0
 10
35.548514418
 20
19.5568328848
 30
0.0
 10
35.5485143443
 20
19.4587443115
 30
0.0
  0
SPLINE
  5
431
100
AcDbEntity
  8
ASSI
100
AcDbSpline
 62
7
  6
CONTINUOUS
 70
0
 71
3
 72
11
 73
7
 74
0
 42
0.0000001
 43
0.0000001
 44
0.0000000001
 40
0.0
 40
0.0
 40
0.0
 40
0.0
 40
0.2313675911
 40
0.4908754464
 40
0.7548320786
 40
1.0
 40
1.0
 40
1.0
 40
1.0
 10
2.9278880598
 20
-25.0399330979
 30
0.0
 10
2.9248066588
 20
-25.0019460804
 30
0.0
 10
2.9046466971
 20
-24.9225543053
 30
0.0
 10
2.8503041945
 20
-24.80990179
 30
0.0
 10
2.7721086769
 20
-24.7092645054
 30
0.0
 10
2.7089957711
 20
-24.6530734587
 30
0.0
 10
2.6759182342
 20
-24.629903918
 30
0.0
  0
SPLINE
  5
432
100
AcDbEntity
  8
ASSI
100
AcDbSpline
 62
7
  6
CONTINUOUS
 70
0
 71
3
 72
10
 73
6
 74
0
 42
0.0000001
 43
0.0000001
 44
0.0000000001
 40
0.0
 40
0.0
 40
0.0
 40
0.0
 40
0.5207428188
 40
0.7652380069
 40
1.0
 40
1.0
 40
1.0
 40
1.0
 10
2.6759182342
 20
-24.629903918
 30
0.0
 10
2.6236636969
 20
-24.5933016271
 30
0.0
 10
2.5439461156
 20
-24.5433920787
 30
0.0
 10
2.4340970961
 20
-24.4889658449
 30
0.0
 10
2.3798260659
 20
-24.466460568
 30
0.0
 10
2.3530535255
 20
-24.455950038
 30
0.0
  0
SPLINE
  5
433
100
AcDbEntity
  8
ASSI
100
AcDbSpline
 62
7
  6
CONTINUOUS
 70
0
 71
3
 72
11
 73
7
 74
0
 42
0.0000001
 43
0.0000001
 44
0.0000000001
 40
0.0
 40
0.0
 40
0.0
 40
0.0
 40
0.2512747937
 40
0.5126942485
 40
0.7690130678
 40
1.0
 40
1.0
 40
1.0
 40
1.0
 10
2.900416833
 20
-25.8809314545
 30
0.0
 10
2.8890273732
 20
-25.8480473783
 30
0.0
 10
2.8607135949
 20
-25.7826574142
 30
0.0
 10
2.8057973036
 20
-25.6909717916
 30
0.0
 10
2.7377132374
 20
-25.611918967
 30
0.0
 10
2.6833239624
 20
-25.5708219937
 30
0.0
 10
2.65561955
 20
-25.5548258132
 30
0.0
  0
SPLINE
  5
434
100
AcDbEntity
  8
ASSI
100
AcDbSpline
 62
7
  6
CONTINUOUS
 70
0
 71
3
 72
10
 73
6
 74
0
 42
0.0000001
 43
0.0000001
 44
0.0000000001
 40
0.0
 40
0.0
 40
0.0
 40
0.0
 40
0.2490977147
 40
0.4980108708
 40
1.0
 40
1.0
 40
1.0
 40
1.0
 10
3.132386996
 20
-26.6490121044
 30
0.0
 10
3.1135017758
 20
-26.585123117
 30
0.0
 10
3.0751695447
 20
-26.4575578498
 30
0.0
 10
2.9995327609
 20
-26.2010565733
 30
0.0
 10
2.9443564985
 20
-26.0077957077
 30
0.0
 10
2.900416833
 20
-25.8809314545
 30
0.0
  0
SPLINE
  5
435
100
AcDbEntity
  8
ASSI
100
AcDbSpline
 62
250
  6
CONTINUOUS
 70
0
 71
3
 72
9
 73
5
 74
0
 42
0.0000001
 43
0.0000001
 44
0.0000000001
 40
0.0
 40
0.0
 40
0.0
 40
0.0
 40
0.4520568817
 40
1.0
 40
1.0
 40
1.0
 40
1.0
 10
-14.1135848007
 20
23.0153882438
 30
0.0
 10
-14.1003303569
 20
23.022001319
 30
0.0
 10
-14.0654371489
 20
23.0257738728
 30
0.0
 10
-14.0346093753
 20
23.0119282044
 30
0.0
 10
-14.0193338161
 20
23.0024930679
 30
0.0
  0
SPLINE
  5
436
100
AcDbEntity
  8
ASSI
100
AcDbSpline
 62
250
  6
CONTINUOUS
 70
0
 71
3
 72
11
 73
7
 74
0
 42
0.0000001
 43
0.0000001
 44
0.0000000001
 40
0.0
 40
0.0
 40
0.0
 40
0.0
 40
0.2195025491
 40
0.4533151831
 40
0.7119206741
 40
1.0
 40
1.0
 40
1.0
 40
1.0
 10
-13.273024484
 20
22.726705534
 30
0.0
 10
-13.2886822153
 20
22.7357310851
 30
0.0
 10
-13.324405618
 20
22.7489700226
 30
0.0
 10
-13.3837260683
 20
22.7515215815
 30
0.0
 10
-13.4470697458
 20
22.7377809373
 30
0.0
 10
-13.4884619493
 20
22.7193678106
 30
0.0
 10
-13.5093063798
 20
22.7080495459
 30
0.0
  0
SPLINE
  5
437
100
AcDbEntity
  8
ASSI
100
AcDbSpline
 62
250
  6
CONTINUOUS
 70
0
 71
3
 72
10
 73
6
 74
0
 42
0.0000001
 43
0.0000001
 44
0.0000000001
 40
0.0
 40
0.0
 40
0.0
 40
0.0
 40
0.2280186105
 40
0.4762904283
 40
1.0
 40
1.0
 40
1.0
 40
1.0
 10
-16.3649224776
 20
-11.1813756083
 30
0.0
 10
-16.4383480753
 20
-11.1389826868
 30
0.0
 10
-16.5833392703
 20
-11.0355000131
 30
0.0
 10
-16.8512083247
 20
-10.7765501026
 30
0.0
 10
-17.0173932392
 20
-10.5374792691
 30
0.0
 10
-17.1082862896
 20
-10.3652606731
 30
0.0
  0
SPLINE
  5
438
100
AcDbEntity
  8
ASSI
100
AcDbSpline
 62
250
  6
CONTINUOUS
 70
0
 71
3
 72
11
 73
7
 74
0
 42
0.0000001
 43
0.0000001
 44
0.0000000001
 40
0.0
 40
0.0
 40
0.0
 40
0.0
 40
0.2815654214
 40
0.5404485338
 40
0.7783535256
 40
1.0
 40
1.0
 40
1.0
 40
1.0
 10
-17.3316138531
 20
26.0954421563
 30
0.0
 10
-17.3291243416
 20
26.1529110822
 30
0.0
 10
-17.3167609283
 20
26.2631365314
 30
0.0
 10
-17.2726900361
 20
26.4168278231
 30
0.0
 10
-17.2046490403
 20
26.548104777
 30
0.0
 10
-17.142324977
 20
26.6198910441
 30
0.0
 10
-17.1082862896
 20
26.6497539045
 30
0.0
  0
LINE
  5
439
100
AcDbEntity
  8
ASSI
100
AcDbLine
 62
250
  6
CONTINUOUS
 10
-17.6547499181
 20
0.4221631565
 11
-17.6676382312
 21
1.1277854565
  0
SPLINE
  5
43A
100
AcDbEntity
  8
ASSI
100
AcDbSpline
 62
250
  6
CONTINUOUS
 70
0
 71
3
 72
9
 73
5
 74
0
 42
0.0000001
 43
0.0000001
 44
0.0000000001
 40
0.0
 40
0.0
 40
0.0
 40
0.0
 40
0.5274876045
 40
1.0
 40
1.0
 40
1.0
 40
1.0
 10
-17.1082862896
 20
-10.3652606731
 30
0.0
 10
-17.1727578591
 20
-10.2432489344
 30
0.0
 10
-17.2749889653
 20
-10.0007472384
 30
0.0
 10
-17.3260191224
 20
-9.7410619374
 30
0.0
 10
-17.3316138531
 20
-9.6175728791
 30
0.0
  0
LINE
  5
43B
100
AcDbEntity
  8
ASSI
100
AcDbLine
 62
250
  6
CONTINUOUS
 10
-32.2985091338
 20
-1.4739735033
 11
-32.2932710629
 21
-1.5975961949
  0
SPLINE
  5
43C
100
AcDbEntity
  8
ASSI
100
AcDbSpline
 62
250
  6
CONTINUOUS
 70
0
 71
3
 72
11
 73
7
 74
0
 42
0.0000001
 43
0.0000001
 44
0.0000000001
 40
0.0
 40
0.0
 40
0.0
 40
0.0
 40
0.2886491619
 40
0.5490385363
 40
0.7838691067
 40
1.0
 40
1.0
 40
1.0
 40
1.0
 10
15.5407742752
 20
-28.5976777966
 30
0.0
 10
15.5429989169
 20
-28.6519406934
 30
0.0
 10
15.5402858921
 20
-28.7556831946
 30
0.0
 10
15.5110548363
 20
-28.9011433954
 30
0.0
 10
15.4571019217
 20
-29.0249168149
 30
0.0
 10
15.4032630509
 20
-29.0922211067
 30
0.0
 10
15.3733164961
 20
-29.1197310315
 30
0.0
  0
SPLINE
  5
43D
100
AcDbEntity
  8
ASSI
100
AcDbSpline
 62
250
  6
CONTINUOUS
 70
0
 71
3
 72
9
 73
5
 74
0
 42
0.0000001
 43
0.0000001
 44
0.0000000001
 40
0.0
 40
0.0
 40
0.0
 40
0.0
 40
0.5220892298
 40
1.0
 40
1.0
 40
1.0
 40
1.0
 10
15.3733164961
 20
7.8952835461
 30
0.0
 10
15.4304333701
 20
7.7677813601
 30
0.0
 10
15.5165099998
 20
7.5123674072
 30
0.0
 10
15.5457552138
 20
7.2431289939
 30
0.0
 10
15.5407742752
 20
7.1153372388
 30
0.0
  0
SPLINE
  5
43E
100
AcDbEntity
  8
ASSI
100
AcDbSpline
 62
7
  6
CONTINUOUS
 70
0
 71
3
 72
11
 73
7
 74
0
 42
0.0000001
 43
0.0000001
 44
0.0000000001
 40
0.0
 40
0.0
 40
0.0
 40
0.0
 40
0.2512772613
 40
0.5126969244
 40
0.769014259
 40
1.0
 40
1.0
 40
1.0
 40
1.0
 10
2.7939886422
 20
-25.9423817579
 30
0.0
 10
2.7826010692
 20
-25.9094967059
 30
0.0
 10
2.7542908127
 20
-25.8441048553
 30
0.0
 10
2.6993786002
 20
-25.7524166544
 30
0.0
 10
2.6312971055
 20
-25.673362057
 30
0.0
 10
2.5769084909
 20
-25.6322647542
 30
0.0
 10
2.5492042508
 20
-25.6162686732
 30
0.0
  0
SPLINE
  5
43F
100
AcDbEntity
  8
ASSI
100
AcDbSpline
 62
7
  6
CONTINUOUS
 70
0
 71
3
 72
10
 73
6
 74
0
 42
0.0000001
 43
0.0000001
 44
0.0000000001
 40
0.0
 40
0.0
 40
0.0
 40
0.0
 40
0.249097961
 40
0.498011314
 40
1.0
 40
1.0
 40
1.0
 40
1.0
 10
3.0259125808
 20
-26.7104890973
 30
0.0
 10
3.0070313521
 20
-26.6465978058
 30
0.0
 10
2.9687069832
 20
-26.519027938
 30
0.0
 10
2.8930858908
 20
-26.2625178048
 30
0.0
 10
2.8379212731
 20
-26.0692504811
 30
0.0
 10
2.7939886422
 20
-25.9423817579
 30
0.0
  0
SPLINE
  5
440
100
AcDbEntity
  8
ASSI
100
AcDbSpline
 62
250
  6
CONTINUOUS
 70
0
 71
3
 72
9
 73
5
 74
0
 42
0.0000001
 43
0.0000001
 44
0.0000000001
 40
0.0
 40
0.0
 40
0.0
 40
0.0
 40
0.2456169915
 40
1.0
 40
1.0
 40
1.0
 40
1.0
 10
30.5582971732
 20
-37.8873040939
 30
0.0
 10
30.4182083689
 20
-34.9126392579
 30
0.0
 10
29.9922348611
 20
-22.7951216462
 30
0.0
 10
30.1331799153
 20
-10.6589761818
 30
0.0
 10
30.529660258
 20
-1.5211228947
 30
0.0
  0
LINE
  5
441
100
AcDbEntity
  8
ASSI
100
AcDbLine
 62
250
  6
CONTINUOUS
 10
30.529660258
 20
-1.5211228947
 11
30.5371973263
 21
-1.3482136841
  0
LINE
  5
442
100
AcDbEntity
  8
ASSI
100
AcDbLine
 62
250
  6
CONTINUOUS
 10
30.5371973263
 20
-1.3482136841
 11
30.5481662444
 21
-1.0993707989
  0
LINE
  5
443
100
AcDbEntity
  8
ASSI
100
AcDbLine
 62
250
  6
CONTINUOUS
 10
30.5481662444
 20
-1.0993707989
 11
30.5575480226
 21
-0.8890769422
  0
LINE
  5
444
100
AcDbEntity
  8
ASSI
100
AcDbLine
 62
250
  6
CONTINUOUS
 10
30.5575480226
 20
-0.8890769422
 11
30.5582971629
 21
-0.8723834107
  0
SPLINE
  5
445
100
AcDbEntity
  8
ASSI
100
AcDbSpline
 62
250
  6
CONTINUOUS
 70
0
 71
3
 72
9
 73
5
 74
0
 42
0.0000001
 43
0.0000001
 44
0.0000000001
 40
0.0
 40
0.0
 40
0.0
 40
0.0
 40
0.5072370183
 40
1.0
 40
1.0
 40
1.0
 40
1.0
 10
-30.6575009568
 20
53.8217635691
 30
0.0
 10
-31.0758152916
 20
50.7249576272
 30
0.0
 10
-31.7671072069
 20
44.6008103569
 30
0.0
 10
-32.1709519017
 20
38.4506201131
 30
0.0
 10
-32.2932709904
 20
35.4173244527
 30
0.0
  0
SPLINE
  5
446
100
AcDbEntity
  8
ASSI
100
AcDbSpline
 62
250
  6
CONTINUOUS
 70
0
 71
3
 72
14
 73
10
 74
0
 42
0.0000001
 43
0.0000001
 44
0.0000000001
 40
0.0
 40
0.0
 40
0.0
 40
0.0
 40
0.2518608402
 40
0.3669198409
 40
0.4801607485
 40
0.5968811317
 40
0.7212208046
 40
0.8554310021
 40
1.0
 40
1.0
 40
1.0
 40
1.0
 10
-30.0767806543
 20
54.1690611372
 30
0.0
 10
-30.1366145491
 20
54.203611314
 30
0.0
 10
-30.2368642138
 20
54.2385015097
 30
0.0
 10
-30.3696741753
 20
54.2250849397
 30
0.0
 10
-30.4580664642
 20
54.187303202
 30
0.0
 10
-30.5334533972
 20
54.1239878758
 30
0.0
 10
-30.5932630971
 20
54.0389988152
 30
0.0
 10
-30.6360950079
 20
53.9362714602
 30
0.0
 10
-30.6521899537
 20
53.8610658339
 30
0.0
 10
-30.6575009568
 20
53.8217635691
 30
0.0
  0
SPLINE
  5
447
100
AcDbEntity
  8
ASSI
100
AcDbSpline
 62
7
  6
CONTINUOUS
 70
0
 71
3
 72
10
 73
6
 74
0
 42
0.0000001
 43
0.0000001
 44
0.0000000001
 40
0.0
 40
0.0
 40
0.0
 40
0.0
 40
0.5207413622
 40
0.7652368852
 40
1.0
 40
1.0
 40
1.0
 40
1.0
 10
2.5695643609
 20
-24.6913113115
 30
0.0
 10
2.5173101271
 20
-24.6547087228
 30
0.0
 10
2.437592616
 20
-24.6047989594
 30
0.0
 10
2.3277431691
 20
-24.5503731302
 30
0.0
 10
2.2734716896
 20
-24.5278682171
 30
0.0
 10
2.2466988773
 20
-24.5173578789
 30
0.0
  0
SPLINE
  5
448
100
AcDbEntity
  8
ASSI
100
AcDbSpline
 62
7
  6
CONTINUOUS
 70
0
 71
3
 72
11
 73
7
 74
0
 42
0.0000001
 43
0.0000001
 44
0.0000000001
 40
0.0
 40
0.0
 40
0.0
 40
0.0
 40
0.231371748
 40
0.490880088
 40
0.7548346023
 40
1.0
 40
1.0
 40
1.0
 40
1.0
 10
2.8215174962
 20
-25.1013501281
 30
0.0
 10
2.8184384436
 20
-25.0633621269
 30
0.0
 10
2.798283027
 20
-24.9839680851
 30
0.0
 10
2.7439454794
 20
-24.87131218
 30
0.0
 10
2.6657532186
 20
-24.7706726255
 30
0.0
 10
2.6026414975
 20
-24.7144808949
 30
0.0
 10
2.5695643609
 20
-24.6913113115
 30
0.0
  0
SPLINE
  5
449
100
AcDbEntity
  8
ASSI
100
AcDbSpline
 62
250
  6
CONTINUOUS
 70
0
 71
3
 72
12
 73
8
 74
0
 42
0.0000001
 43
0.0000001
 44
0.0000000001
 40
0.0
 40
0.0
 40
0.0
 40
0.0
 40
0.1206825646
 40
0.2475608226
 40
0.4446890308
 40
0.6422702548
 40
1.0
 40
1.0
 40
1.0
 40
1.0
 10
32.3746617717
 20
17.4277827882
 30
0.0
 10
32.380949434
 20
17.4693360675
 30
0.0
 10
32.3868176528
 20
17.5557566605
 30
0.0
 10
32.3751188873
 20
17.7105497133
 30
0.0
 10
32.3309287422
 20
17.8883095252
 30
0.0
 10
32.2201846062
 20
18.1259971712
 30
0.0
 10
32.0842098511
 20
18.2780739386
 30
0.0
 10
31.976330763
 20
18.340372313
 30
0.0
  0
SPLINE
  5
44A
100
AcDbEntity
  8
ASSI
100
AcDbSpline
 62
250
  6
CONTINUOUS
 70
0
 71
3
 72
9
 73
5
 74
0
 42
0.0000001
 43
0.0000001
 44
0.0000000001
 40
0.0
 40
0.0
 40
0.0
 40
0.0
 40
0.2449455102
 40
1.0
 40
1.0
 40
1.0
 40
1.0
 10
30.5582970907
 20
-0.872383369
 30
0.0
 10
30.6256548085
 20
0.6280232913
 30
0.0
 10
30.9864177277
 20
6.7494674831
 30
0.0
 10
31.6820886244
 20
12.8501550673
 30
0.0
 10
32.3746617717
 20
17.4277827882
 30
0.0
  0
SPLINE
  5
44B
100
AcDbEntity
  8
ASSI
100
AcDbSpline
 62
250
  6
CONTINUOUS
 70
0
 71
3
 72
10
 73
6
 74
0
 42
0.0000001
 43
0.0000001
 44
0.0000000001
 40
0.0
 40
0.0
 40
0.0
 40
0.0
 40
0.2280873426
 40
0.4753036476
 40
1.0
 40
1.0
 40
1.0
 40
1.0
 10
14.6666645876
 20
8.7325954743
 30
0.0
 10
14.7380806576
 20
8.6913617404
 30
0.0
 10
14.8780800789
 20
8.589641034
 30
0.0
 10
15.1323063925
 20
8.3312371571
 30
0.0
 10
15.28318047
 20
8.0908694524
 30
0.0
 10
15.3627023435
 20
7.9186373907
 30
0.0
  0
SPLINE
  5
44C
100
AcDbEntity
  8
ASSI
100
AcDbSpline
 62
250
  6
CONTINUOUS
 70
0
 71
3
 72
9
 73
5
 74
0
 42
0.0000001
 43
0.0000001
 44
0.0000000001
 40
0.0
 40
0.0
 40
0.0
 40
0.0
 40
0.491866473
 40
1.0
 40
1.0
 40
1.0
 40
1.0
 10
-27.1257722397
 20
55.437410682
 30
0.0
 10
-26.8935495387
 20
55.4374634893
 30
0.0
 10
-26.4206201241
 20
55.385569407
 30
0.0
 10
-25.9660438823
 20
55.2501084011
 30
0.0
 10
-25.741720908
 20
55.1650639672
 30
0.0
  0
SPLINE
  5
44D
100
AcDbEntity
  8
ASSI
100
AcDbSpline
 62
250
  6
CONTINUOUS
 70
0
 71
3
 72
11
 73
7
 74
0
 42
0.0000001
 43
0.0000001
 44
0.0000000001
 40
0.0
 40
0.0
 40
0.0
 40
0.0
 40
0.2254759758
 40
0.4577382633
 40
0.7130530067
 40
1.0
 40
1.0
 40
1.0
 40
1.0
 10
-17.1082862896
 20
26.6497539045
 30
0.0
 10
-17.0635456525
 20
26.6891119815
 30
0.0
 10
-16.9568568409
 20
26.7530760004
 30
0.0
 10
-16.7668074608
 20
26.7830197283
 30
0.0
 10
-16.5622798013
 20
26.7478232245
 30
0.0
 10
-16.4305936377
 20
26.6877669659
 30
0.0
 10
-16.3649224776
 20
26.6498449286
 30
0.0
  0
SPLINE
  5
44E
100
AcDbEntity
  8
ASSI
100
AcDbSpline
 62
250
  6
CONTINUOUS
 70
0
 71
3
 72
10
 73
6
 74
0
 42
0.0000001
 43
0.0000001
 44
0.0000000001
 40
0.0
 40
0.0
 40
0.0
 40
0.0
 40
0.6205098285
 40
0.8391287006
 40
1.0
 40
1.0
 40
1.0
 40
1.0
 10
34.74867017
 20
19.7118831037
 30
0.0
 10
34.8529432692
 20
19.766293542
 30
0.0
 10
34.9947668426
 20
19.8385077903
 30
0.0
 10
35.1676865178
 20
19.9161718254
 30
0.0
 10
35.2346837823
 20
19.9425578235
 30
0.0
 10
35.2636035994
 20
19.9522243013
 30
0.0
  0
SPLINE
  5
44F
100
AcDbEntity
  8
ASSI
100
AcDbSpline
 62
250
  6
CONTINUOUS
 70
0
 71
3
 72
9
 73
5
 74
0
 42
0.0000001
 43
0.0000001
 44
0.0000000001
 40
0.0
 40
0.0
 40
0.0
 40
0.0
 40
0.2805678417
 40
1.0
 40
1.0
 40
1.0
 40
1.0
 10
34.2164581314
 20
19.422781211
 30
0.0
 10
34.265894249
 20
19.4504335454
 30
0.0
 10
34.4423617161
 20
19.5485091643
 30
0.0
 10
34.6199001517
 20
19.6446886054
 30
0.0
 10
34.74867017
 20
19.7118831037
 30
0.0
  0
SPLINE
  5
450
100
AcDbEntity
  8
ASSI
100
AcDbSpline
 62
250
  6
CONTINUOUS
 70
0
 71
3
 72
9
 73
5
 74
0
 42
0.0000001
 43
0.0000001
 44
0.0000000001
 40
0.0
 40
0.0
 40
0.0
 40
0.0
 40
0.2482869198
 40
1.0
 40
1.0
 40
1.0
 40
1.0
 10
-27.8659077984
 20
55.3438095507
 30
0.0
 10
-27.8145729924
 20
55.3573954499
 30
0.0
 10
-27.6062215725
 20
55.405986536
 30
0.0
 10
-27.3923474983
 20
55.4301334292
 30
0.0
 10
-27.2316686316
 20
55.4356050336
 30
0.0
  0
SPLINE
  5
451
100
AcDbEntity
  8
ASSI
100
AcDbSpline
 62
250
  6
CONTINUOUS
 70
0
 71
3
 72
9
 73
5
 74
0
 42
0.0000001
 43
0.0000001
 44
0.0000000001
 40
0.0
 40
0.0
 40
0.0
 40
0.0
 40
0.50815045
 40
1.0
 40
1.0
 40
1.0
 40
1.0
 10
35.5391070004
 20
-50.9764156392
 30
0.0
 10
35.5005993228
 20
-51.2132299723
 30
0.0
 10
35.3906301881
 20
-51.6746647585
 30
0.0
 10
35.1991122995
 20
-52.1102128694
 30
0.0
 10
35.0829593799
 20
-52.3113059715
 30
0.0
  0
SPLINE
  5
452
100
AcDbEntity
  8
ASSI
100
AcDbSpline
 62
250
  6
CONTINUOUS
 70
0
 71
3
 72
9
 73
5
 74
0
 42
0.0000001
 43
0.0000001
 44
0.0000000001
 40
0.0
 40
0.0
 40
0.0
 40
0.0
 40
0.252307973
 40
1.0
 40
1.0
 40
1.0
 40
1.0
 10
35.0288111819
 20
-52.4015305377
 30
0.0
 10
35.0002373221
 20
-52.4473698947
 30
0.0
 10
34.8822785396
 20
-52.6260510613
 30
0.0
 10
34.7447043781
 20
-52.7919506635
 30
0.0
 10
34.6318722558
 20
-52.9054921841
 30
0.0
  0
SPLINE
  5
453
100
AcDbEntity
  8
ASSI
100
AcDbSpline
 62
250
  6
CONTINUOUS
 70
0
 71
3
 72
9
 73
5
 74
0
 42
0.0000001
 43
0.0000001
 44
0.0000000001
 40
0.0
 40
0.0
 40
0.0
 40
0.0
 40
0.280567166
 40
1.0
 40
1.0
 40
1.0
 40
1.0
 10
34.5665349271
 20
18.8164527175
 30
0.0
 10
34.6151973475
 20
18.8454429678
 30
0.0
 10
34.7883551096
 20
18.9492442675
 30
0.0
 10
34.9604041107
 20
19.0549243752
 30
0.0
 10
35.0829689612
 20
19.132860613
 30
0.0
  0
SPLINE
  5
454
100
AcDbEntity
  8
ASSI
100
AcDbSpline
 62
250
  6
CONTINUOUS
 70
0
 71
3
 72
10
 73
6
 74
0
 42
0.0000001
 43
0.0000001
 44
0.0000000001
 40
0.0
 40
0.0
 40
0.0
 40
0.0
 40
0.6205029154
 40
0.8391230024
 40
1.0
 40
1.0
 40
1.0
 40
1.0
 10
35.0829689612
 20
19.132860613
 30
0.0
 10
35.1822190903
 20
19.1959722564
 30
0.0
 10
35.3156585784
 20
19.2827109674
 30
0.0
 10
35.4693532969
 20
19.39367232
 30
0.0
 10
35.5256904822
 20
19.4385213044
 30
0.0
 10
35.5485143308
 20
19.45874443
 30
0.0
  0
SPLINE
  5
455
100
AcDbEntity
  8
ASSI
100
AcDbSpline
 62
250
  6
CONTINUOUS
 70
0
 71
3
 72
12
 73
8
 74
0
 42
0.0000001
 43
0.0000001
 44
0.0000000001
 40
0.0
 40
0.0
 40
0.0
 40
0.0
 40
0.1071022731
 40
0.2146285857
 40
0.4417631463
 40
0.7010723291
 40
1.0
 40
1.0
 40
1.0
 40
1.0
 10
15.3733164961
 20
-29.1197310315
 30
0.0
 10
15.3534847988
 20
-29.1380041063
 30
0.0
 10
15.3098794569
 20
-29.1706920818
 30
0.0
 10
15.2083340547
 20
-29.2178579798
 30
0.0
 10
15.0561328623
 20
-29.2366776064
 30
0.0
 10
14.8601537059
 20
-29.1964144622
 30
0.0
 10
14.7318415316
 20
-29.1362658869
 30
0.0
 10
14.6666645876
 20
-29.0986250626
 30
0.0
  0
SPLINE
  5
456
100
AcDbEntity
  8
ASSI
100
AcDbSpline
 62
250
  6
CONTINUOUS
 70
0
 71
3
 72
9
 73
5
 74
0
 42
0.0000001
 43
0.0000001
 44
0.0000000001
 40
0.0
 40
0.0
 40
0.0
 40
0.0
 40
0.243962173
 40
1.0
 40
1.0
 40
1.0
 40
1.0
 10
32.3746617717
 20
-54.2985237481
 30
0.0
 10
32.1372808107
 20
-52.9763987523
 30
0.0
 10
31.2594665103
 20
-47.5401382431
 30
0.0
 10
30.7541116361
 20
-42.0454729044
 30
0.0
 10
30.5582971014
 20
-37.8873040524
 30
0.0
  0
SPLINE
  5
457
100
AcDbEntity
  8
ASSI
100
AcDbSpline
 62
7
  6
CONTINUOUS
 70
0
 71
3
 72
11
 73
7
 74
0
 42
0.0000001
 43
0.0000001
 44
0.0000000001
 40
0.0
 40
0.0
 40
0.0
 40
0.0
 40
0.2102945683
 40
0.4430910476
 40
0.7059057684
 40
1.0
 40
1.0
 40
1.0
 40
1.0
 10
2.862100767
 20
-25.2446643028
 30
0.0
 10
2.8757562466
 20
-25.2368200791
 30
0.0
 10
2.8997453609
 20
-25.2118738509
 30
0.0
 10
2.9202263296
 20
-25.1624863288
 30
0.0
 10
2.930022721
 20
-25.103794885
 30
0.0
 10
2.9296687019
 20
-25.0618845684
 30
0.0
 10
2.9278880598
 20
-25.0399330979
 30
0.0
  0
SPLINE
  5
458
100
AcDbEntity
  8
ASSI
100
AcDbSpline
 62
7
  6
CONTINUOUS
 70
0
 71
3
 72
8
 73
4
 74
0
 42
0.0000001
 43
0.0000001
 44
0.0000000001
 40
0.0
 40
0.0
 40
0.0
 40
0.0
 40
1.0
 40
1.0
 40
1.0
 40
1.0
 10
2.7557144404
 20
-25.3060904436
 30
0.0
 10
2.765190728
 20
-25.3006468977
 30
0.0
 10
2.7736693536
 20
-25.2932540657
 30
0.0
 10
2.7807735243
 20
-25.2849496706
 30
0.0
  0
SPLINE
  5
459
100
AcDbEntity
  8
ASSI
100
AcDbSpline
 62
7
  6
CONTINUOUS
 70
0
 71
3
 72
9
 73
5
 74
0
 42
0.0000001
 43
0.0000001
 44
0.0000000001
 40
0.0
 40
0.0
 40
0.0
 40
0.0
 40
0.4507110103
 40
1.0
 40
1.0
 40
1.0
 40
1.0
 10
2.7807735243
 20
-25.2849496706
 30
0.0
 10
2.7994544052
 20
-25.2631127216
 30
0.0
 10
2.8227058588
 20
-25.2003640362
 30
0.0
 10
2.8243469082
 20
-25.1362581729
 30
0.0
 10
2.8215174962
 20
-25.1013501281
 30
0.0
  0
SPLINE
  5
45A
100
AcDbEntity
  8
ASSI
100
AcDbSpline
 62
7
  6
CONTINUOUS
 70
0
 71
3
 72
9
 73
5
 74
0
 42
0.0000001
 43
0.0000001
 44
0.0000000001
 40
0.0
 40
0.0
 40
0.0
 40
0.0
 40
0.4590754338
 40
1.0
 40
1.0
 40
1.0
 40
1.0
 10
3.1256052358
 20
-25.623762115
 30
0.0
 10
3.1176559583
 20
-25.6264320377
 30
0.0
 10
3.0998792133
 20
-25.6317190697
 30
0.0
 10
3.0809626181
 20
-25.628176934
 30
0.0
 10
3.0719148539
 20
-25.6242061072
 30
0.0
  0
SPLINE
  5
45B
100
AcDbEntity
  8
ASSI
100
AcDbSpline
 62
7
  6
CONTINUOUS
 70
0
 71
3
 72
8
 73
4
 74
0
 42
0.0000001
 43
0.0000001
 44
0.0000000001
 40
0.0
 40
0.0
 40
0.0
 40
0.0
 40
1.0
 40
1.0
 40
1.0
 40
1.0
 10
3.0829563713
 20
-25.6571135732
 30
0.0
 10
3.0757593384
 20
-25.6612744319
 30
0.0
 10
3.0683442258
 20
-25.665071434
 30
0.0
 10
3.0607969446
 20
-25.6685569146
 30
0.0
  0
SPLINE
  5
45C
100
AcDbEntity
  8
ASSI
100
AcDbSpline
 62
7
  6
CONTINUOUS
 70
0
 71
3
 72
9
 73
5
 74
0
 42
0.0000001
 43
0.0000001
 44
0.0000000001
 40
0.0
 40
0.0
 40
0.0
 40
0.0
 40
0.4926712087
 40
1.0
 40
1.0
 40
1.0
 40
1.0
 10
3.0607969446
 20
-25.6685569146
 30
0.0
 10
3.0498930782
 20
-25.6735925313
 30
0.0
 10
3.0274368968
 20
-25.6825865967
 30
0.0
 10
3.0037819017
 20
-25.6907998395
 30
0.0
 10
2.9914158023
 20
-25.6910056163
 30
0.0
  0
SPLINE
  5
45D
100
AcDbEntity
  8
ASSI
100
AcDbSpline
 62
7
  6
CONTINUOUS
 70
0
 71
3
 72
9
 73
5
 74
0
 42
0.0000001
 43
0.0000001
 44
0.0000000001
 40
0.0
 40
0.0
 40
0.0
 40
0.0
 40
0.2330374094
 40
1.0
 40
1.0
 40
1.0
 40
1.0
 10
2.9914158023
 20
-25.6910056163
 30
0.0
 10
2.9896546671
 20
-25.6910349223
 30
0.0
 10
2.9820944063
 20
-25.6908269396
 30
0.0
 10
2.9745843361
 20
-25.689134205
 30
0.0
 10
2.9691500517
 20
-25.6871159234
 30
0.0
  0
SPLINE
  5
45E
100
AcDbEntity
  8
ASSI
100
AcDbSpline
 62
250
  6
CONTINUOUS
 70
0
 71
3
 72
9
 73
5
 74
0
 42
0.0000001
 43
0.0000001
 44
0.0000000001
 40
0.0
 40
0.0
 40
0.0
 40
0.0
 40
0.2439630597
 40
1.0
 40
1.0
 40
1.0
 40
1.0
 10
32.7841709917
 20
-54.2632718274
 30
0.0
 10
32.5471955286
 20
-52.9435089154
 30
0.0
 10
31.6708801418
 20
-47.5169784792
 30
0.0
 10
31.1663835589
 20
-42.032138632
 30
0.0
 10
30.9709012119
 20
-37.8814093183
 30
0.0
  0
SPLINE
  5
45F
100
AcDbEntity
  8
ASSI
100
AcDbSpline
 62
250
  6
CONTINUOUS
 70
0
 71
3
 72
9
 73
5
 74
0
 42
0.0000001
 43
0.0000001
 44
0.0000000001
 40
0.0
 40
0.0
 40
0.0
 40
0.0
 40
0.245544339
 40
1.0
 40
1.0
 40
1.0
 40
1.0
 10
30.9709012119
 20
-37.8814093183
 30
0.0
 10
30.828444752
 20
-34.8565663492
 30
0.0
 10
30.3977179835
 20
-22.5308842176
 30
0.0
 10
30.5535829028
 20
-10.1860941049
 30
0.0
 10
30.9709012119
 20
-0.891071417
 30
0.0
  0
SPLINE
  5
460
100
AcDbEntity
  8
ASSI
100
AcDbSpline
 62
250
  6
CONTINUOUS
 70
0
 71
3
 72
9
 73
5
 74
0
 42
0.0000001
 43
0.0000001
 44
0.0000000001
 40
0.0
 40
0.0
 40
0.0
 40
0.0
 40
0.2449458894
 40
1.0
 40
1.0
 40
1.0
 40
1.0
 10
30.9709012119
 20
-0.891071417
 30
0.0
 10
31.0381444205
 20
0.606638775
 30
0.0
 10
31.3982930655
 20
6.7170715482
 30
0.0
 10
32.0927791201
 20
12.8067810291
 30
0.0
 10
32.7841709917
 20
17.3761637694
 30
0.0
  0
SPLINE
  5
461
100
AcDbEntity
  8
ASSI
100
AcDbSpline
 62
250
  6
CONTINUOUS
 70
0
 71
3
 72
11
 73
7
 74
0
 42
0.0000001
 43
0.0000001
 44
0.0000000001
 40
0.0
 40
0.0
 40
0.0
 40
0.0
 40
0.2957489977
 40
0.556925979
 40
0.7875960849
 40
1.0
 40
1.0
 40
1.0
 40
1.0
 10
15.5407742848
 20
7.1153372438
 30
0.0
 10
15.5183239981
 20
7.128230609
 30
0.0
 10
15.4777840292
 20
7.1558619748
 30
0.0
 10
15.4295190001
 20
7.2059598732
 30
0.0
 10
15.3996258027
 20
7.260930133
 30
0.0
 10
15.3935621212
 20
7.3002663878
 30
0.0
 10
15.3942908498
 20
7.3188455108
 30
0.0
  0
SPLINE
  5
462
100
AcDbEntity
  8
ASSI
100
AcDbSpline
 62
250
  6
CONTINUOUS
 70
0
 71
3
 72
9
 73
5
 74
0
 42
0.0000001
 43
0.0000001
 44
0.0000000001
 40
0.0
 40
0.0
 40
0.0
 40
0.0
 40
0.2607204997
 40
1.0
 40
1.0
 40
1.0
 40
1.0
 10
31.976330763
 20
-54.5405120239
 30
0.0
 10
31.9833589123
 20
-54.5445702168
 30
0.0
 10
32.0105502626
 20
-54.5597199828
 30
0.0
 10
32.038709004
 20
-54.573175949
 30
0.0
 10
32.0600360789
 20
-54.5818196884
 30
0.0
  0
SPLINE
  5
463
100
AcDbEntity
  8
ASSI
100
AcDbSpline
 62
250
  6
CONTINUOUS
 70
0
 71
3
 72
15
 73
11
 74
0
 42
0.0000001
 43
0.0000001
 44
0.0000000001
 40
0.0
 40
0.0
 40
0.0
 40
0.0
 40
0.1487362475
 40
0.2766544839
 40
0.3876232344
 40
0.48990754
 40
0.5945789695
 40
0.7113437602
 40
0.8458466563
 40
1.0
 40
1.0
 40
1.0
 40
1.0
 10
32.0600360789
 20
-54.5818196884
 30
0.0
 10
32.0858938855
 20
-54.592299707
 30
0.0
 10
32.1355817615
 20
-54.6083509511
 30
0.0
 10
32.2085706976
 20
-54.6160318597
 30
0.0
 10
32.2726929867
 20
-54.6043945344
 30
0.0
 10
32.3248112929
 20
-54.5723645256
 30
0.0
 10
32.361163561
 20
-54.5220302344
 30
0.0
 10
32.3811821975
 20
-54.4574315735
 30
0.0
 10
32.385959385
 20
-54.3810275015
 30
0.0
 10
32.3797705405
 20
-54.3269859005
 30
0.0
 10
32.3746617717
 20
-54.2985237481
 30
0.0
  0
SPLINE
  5
464
100
AcDbEntity
  8
ASSI
100
AcDbSpline
 62
250
  6
CONTINUOUS
 70
0
 71
3
 72
9
 73
5
 74
0
 42
0.0000001
 43
0.0000001
 44
0.0000000001
 40
0.0
 40
0.0
 40
0.0
 40
0.0
 40
0.2457003809
 40
1.0
 40
1.0
 40
1.0
 40
1.0
 10
-16.6439120914
 20
-9.6084031715
 30
0.0
 10
-16.7764309193
 20
-6.6892117589
 30
0.0
 10
-17.1770022706
 20
5.1979326274
 30
0.0
 10
-17.0324430426
 20
17.1022420514
 30
0.0
 10
-16.6439126701
 20
26.0649652659
 30
0.0
  0
SPLINE
  5
465
100
AcDbEntity
  8
ASSI
100
AcDbSpline
 62
250
  6
CONTINUOUS
 70
0
 71
3
 72
11
 73
7
 74
0
 42
0.0000001
 43
0.0000001
 44
0.0000000001
 40
0.0
 40
0.0
 40
0.0
 40
0.0
 40
0.2791547501
 40
0.5334300797
 40
0.769765107
 40
1.0
 40
1.0
 40
1.0
 40
1.0
 10
-29.8792761479
 20
54.4832333315
 30
0.0
 10
-29.9270258018
 20
54.5099114724
 30
0.0
 10
-30.0236184657
 20
54.5523485349
 30
0.0
 10
-30.1740504825
 20
54.5780873112
 30
0.0
 10
-30.3164519171
 20
54.5603215015
 30
0.0
 10
-30.4003300547
 20
54.5193401998
 30
0.0
 10
-30.4372013685
 20
54.493348479
 30
0.0
  0
SPLINE
  5
466
100
AcDbEntity
  8
ASSI
100
AcDbSpline
 62
250
  6
CONTINUOUS
 70
0
 71
3
 72
11
 73
7
 74
0
 42
0.0000001
 43
0.0000001
 44
0.0000000001
 40
0.0
 40
0.0
 40
0.0
 40
0.0
 40
0.2437245053
 40
0.5070496853
 40
0.7667005964
 40
1.0
 40
1.0
 40
1.0
 40
1.0
 10
32.7841709917
 20
17.3761637694
 30
0.0
 10
32.7956715937
 20
17.4957122548
 30
0.0
 10
32.7773201927
 20
17.7489584334
 30
0.0
 10
32.6562556351
 20
18.1104088845
 30
0.0
 10
32.4562374043
 20
18.428938177
 30
0.0
 10
32.2725563205
 20
18.595631926
 30
0.0
 10
32.1738352694
 20
18.6545445073
 30
0.0
  0
SPLINE
  5
467
100
AcDbEntity
  8
ASSI
100
AcDbSpline
 62
250
  6
CONTINUOUS
 70
0
 71
3
 72
11
 73
7
 74
0
 42
0.0000001
 43
0.0000001
 44
0.0000000001
 40
0.0
 40
0.0
 40
0.0
 40
0.0
 40
0.2459794376
 40
0.5070714977
 40
0.7644116438
 40
1.0
 40
1.0
 40
1.0
 40
1.0
 10
-30.0767806543
 20
54.1690611372
 30
0.0
 10
-30.0722608699
 20
54.1999387202
 30
0.0
 10
-30.0548732831
 20
54.2625091853
 30
0.0
 10
-30.0109602068
 20
54.3495799163
 30
0.0
 10
-29.9524460546
 20
54.4259399088
 30
0.0
 10
-29.9044742468
 20
54.4671594732
 30
0.0
 10
-29.8792761482
 20
54.4832333316
 30
0.0
  0
SPLINE
  5
468
100
AcDbEntity
  8
ASSI
100
AcDbSpline
 62
250
  6
CONTINUOUS
 70
0
 71
3
 72
11
 73
7
 74
0
 42
0.0000001
 43
0.0000001
 44
0.0000000001
 40
0.0
 40
0.0
 40
0.0
 40
0.0
 40
0.3146559746
 40
0.5821354381
 40
0.8053036157
 40
1.0
 40
1.0
 40
1.0
 40
1.0
 10
-30.6575009088
 20
53.8217635868
 30
0.0
 10
-30.6716361644
 20
53.829749216
 30
0.0
 10
-30.6968663524
 20
53.8463377951
 30
0.0
 10
-30.7268170789
 20
53.875619696
 30
0.0
 10
-30.7448240041
 20
53.9067945871
 30
0.0
 10
-30.7473746777
 20
53.9290664991
 30
0.0
 10
-30.7460281561
 20
53.9390214159
 30
0.0
  0
SPLINE
  5
469
100
AcDbEntity
  8
ASSI
100
AcDbSpline
 62
250
  6
CONTINUOUS
 70
0
 71
3
 72
11
 73
7
 74
0
 42
0.0000001
 43
0.0000001
 44
0.0000000001
 40
0.0
 40
0.0
 40
0.0
 40
0.0
 40
0.2959796839
 40
0.5572281439
 40
0.7878045642
 40
1.0
 40
1.0
 40
1.0
 40
1.0
 10
-32.2932690843
 20
35.4173726668
 30
0.0
 10
-32.3067497546
 20
35.4251131326
 30
0.0
 10
-32.3310886192
 20
35.4416952224
 30
0.0
 10
-32.3600622835
 20
35.4717521686
 30
0.0
 10
-32.3779951699
 20
35.5047217856
 30
0.0
 10
-32.3816135025
 20
35.5283123663
 30
0.0
 10
-32.3811612937
 20
35.5394477113
 30
0.0
  0
SPLINE
  5
46A
100
AcDbEntity
  8
ASSI
100
AcDbSpline
 62
250
  6
CONTINUOUS
 70
0
 71
3
 72
10
 73
6
 74
0
 42
0.0000001
 43
0.0000001
 44
0.0000000001
 40
0.0
 40
0.0
 40
0.0
 40
0.0
 40
0.5403953916
 40
0.776598005
 40
1.0
 40
1.0
 40
1.0
 40
1.0
 10
-32.2932690812
 20
-1.5976419079
 30
0.0
 10
-32.3175382135
 20
-1.5835590676
 30
0.0
 10
-32.3502968789
 20
-1.5572819187
 30
0.0
 10
-32.3756727967
 20
-1.5113159671
 30
0.0
 10
-32.3806149121
 20
-1.4874974643
 30
0.0
 10
-32.3811273794
 20
-1.4759089961
 30
0.0
  0
SPLINE
  5
46B
100
AcDbEntity
  8
ASSI
100
AcDbSpline
 62
250
  6
CONTINUOUS
 70
0
 71
3
 72
9
 73
5
 74
0
 42
0.0000001
 43
0.0000001
 44
0.0000000001
 40
0.0
 40
0.0
 40
0.0
 40
0.0
 40
0.5272729655
 40
1.0
 40
1.0
 40
1.0
 40
1.0
 10
-30.6575009136
 20
-17.9045429333
 30
0.0
 10
-30.6800209806
 20
-17.8913448964
 30
0.0
 10
-30.7195442161
 20
-17.8591897756
 30
0.0
 10
-30.7410218853
 20
-17.812028335
 30
0.0
 10
-30.7447993098
 20
-17.7889329719
 30
0.0
  0
SPLINE
  5
46C
100
AcDbEntity
  8
ASSI
100
AcDbSpline
 62
250
  6
CONTINUOUS
 70
0
 71
3
 72
9
 73
5
 74
0
 42
0.0000001
 43
0.0000001
 44
0.0000000001
 40
0.0
 40
0.0
 40
0.0
 40
0.0
 40
0.5348895626
 40
1.0
 40
1.0
 40
1.0
 40
1.0
 10
-30.0767806543
 20
-18.7118231997
 30
0.0
 10
-30.0732454863
 20
-18.7318917685
 30
0.0
 10
-30.0613106495
 20
-18.7691364084
 30
0.0
 10
-30.0335275019
 20
-18.7978520127
 30
0.0
 10
-30.0181788549
 20
-18.8067057727
 30
0.0
  0
SPLINE
  5
46D
100
AcDbEntity
  8
ASSI
100
AcDbSpline
 62
250
  6
CONTINUOUS
 70
0
 71
3
 72
9
 73
5
 74
0
 42
0.0000001
 43
0.0000001
 44
0.0000000001
 40
0.0
 40
0.0
 40
0.0
 40
0.0
 40
0.5348825492
 40
1.0
 40
1.0
 40
1.0
 40
1.0
 10
31.976330763
 20
-54.5405120239
 30
0.0
 10
31.9798638596
 20
-54.5605687391
 30
0.0
 10
31.9917887891
 20
-54.597790894
 30
0.0
 10
32.0195396991
 20
-54.6265014197
 30
0.0
 10
32.034873702
 20
-54.6353606166
 30
0.0
  0
SPLINE
  5
46E
100
AcDbEntity
  8
ASSI
100
AcDbSpline
 62
250
  6
CONTINUOUS
 70
0
 71
3
 72
11
 73
7
 74
0
 42
0.0000001
 43
0.0000001
 44
0.0000000001
 40
0.0
 40
0.0
 40
0.0
 40
0.0
 40
0.2304832009
 40
0.4863113269
 40
0.7496476391
 40
1.0
 40
1.0
 40
1.0
 40
1.0
 10
32.3746618197
 20
-54.2985237104
 30
0.0
 10
32.4033613484
 20
-54.3148455773
 30
0.0
 10
32.470979142
 20
-54.337102168
 30
0.0
 10
32.5793814475
 20
-54.3408662046
 30
0.0
 10
32.6882045537
 20
-54.3176089795
 30
0.0
 10
32.7550414839
 20
-54.2841902561
 30
0.0
 10
32.7841709917
 20
-54.2632718274
 30
0.0
  0
SPLINE
  5
46F
100
AcDbEntity
  8
ASSI
100
AcDbSpline
 62
250
  6
CONTINUOUS
 70
0
 71
3
 72
11
 73
7
 74
0
 42
0.0000001
 43
0.0000001
 44
0.0000000001
 40
0.0
 40
0.0
 40
0.0
 40
0.0
 40
0.2341749793
 40
0.4937439205
 40
0.7567102334
 40
1.0
 40
1.0
 40
1.0
 40
1.0
 10
30.5582993068
 20
-37.8873497846
 30
0.0
 10
30.5872647761
 20
-37.9039903395
 30
0.0
 10
30.6547445284
 20
-37.928058015
 30
0.0
 10
30.7630443724
 20
-37.9383634331
 30
0.0
 10
30.872269749
 20
-37.924605751
 30
0.0
 10
30.9408196956
 20
-37.8987173585
 30
0.0
 10
30.9709012119
 20
-37.8814093183
 30
0.0
  0
SPLINE
  5
470
100
AcDbEntity
  8
ASSI
100
AcDbSpline
 62
250
  6
CONTINUOUS
 70
0
 71
3
 72
11
 73
7
 74
0
 42
0.0000001
 43
0.0000001
 44
0.0000000001
 40
0.0
 40
0.0
 40
0.0
 40
0.0
 40
0.2373292082
 40
0.4998794602
 40
0.7624946699
 40
1.0
 40
1.0
 40
1.0
 40
1.0
 10
30.5582993106
 20
-0.8723352059
 30
0.0
 10
30.5874234817
 20
-0.8892442863
 30
0.0
 10
30.6546024726
 20
-0.9148895591
 30
0.0
 10
30.7623343871
 20
-0.9306237176
 30
0.0
 10
30.8710738942
 20
-0.9247139996
 30
0.0
 10
30.9403345325
 20
-0.9052663585
 30
0.0
 10
30.9709012119
 20
-0.891071417
 30
0.0
  0
SPLINE
  5
471
100
AcDbEntity
  8
ASSI
100
AcDbSpline
 62
250
  6
CONTINUOUS
 70
0
 71
3
 72
11
 73
7
 74
0
 42
0.0000001
 43
0.0000001
 44
0.0000000001
 40
0.0
 40
0.0
 40
0.0
 40
0.0
 40
0.2414342659
 40
0.5077203884
 40
0.7698852893
 40
1.0
 40
1.0
 40
1.0
 40
1.0
 10
32.3746618149
 20
17.4277828041
 30
0.0
 10
32.4039270501
 20
17.4105206057
 30
0.0
 10
32.470509695
 20
17.3827280401
 30
0.0
 10
32.5769173728
 20
17.3598621397
 30
0.0
 10
32.6840538013
 20
17.3555158549
 30
0.0
 10
32.7533377247
 20
17.3662509028
 30
0.0
 10
32.7841662746
 20
17.3761667944
 30
0.0
  0
SPLINE
  5
472
100
AcDbEntity
  8
ASSI
100
AcDbSpline
 62
250
  6
CONTINUOUS
 70
0
 71
3
 72
11
 73
7
 74
0
 42
0.0000001
 43
0.0000001
 44
0.0000000001
 40
0.0
 40
0.0
 40
0.0
 40
0.0
 40
0.2109477116
 40
0.4430008394
 40
0.7050470324
 40
1.0
 40
1.0
 40
1.0
 40
1.0
 10
15.3581520369
 20
-28.5411753876
 30
0.0
 10
15.3338745982
 20
-28.5516103344
 30
0.0
 10
15.2786911178
 20
-28.564439291
 30
0.0
 10
15.1896317562
 20
-28.5579880599
 30
0.0
 10
15.0946889917
 20
-28.5281570573
 30
0.0
 10
15.032663454
 20
-28.4954510146
 30
0.0
 10
15.0012370815
 20
-28.4760202802
 30
0.0
  0
SPLINE
  5
473
100
AcDbEntity
  8
ASSI
100
AcDbSpline
 62
250
  6
CONTINUOUS
 70
0
 71
3
 72
11
 73
7
 74
0
 42
0.0000001
 43
0.0000001
 44
0.0000000001
 40
0.0
 40
0.0
 40
0.0
 40
0.0
 40
0.2459794421
 40
0.5070715314
 40
0.7644116895
 40
1.0
 40
1.0
 40
1.0
 40
1.0
 10
31.976330763
 20
18.340372313
 30
0.0
 10
31.9808505721
 20
18.3712498897
 30
0.0
 10
31.9982381959
 20
18.4338203398
 30
0.0
 10
32.042151289
 20
18.5208910549
 30
0.0
 10
32.100665419
 20
18.5972510481
 30
0.0
 10
32.1486371915
 20
18.638470633
 30
0.0
 10
32.1738352694
 20
18.6545445073
 30
0.0
  0
SPLINE
  5
474
100
AcDbEntity
  8
ASSI
100
AcDbSpline
 62
250
  6
CONTINUOUS
 70
0
 71
3
 72
11
 73
7
 74
0
 42
0.0000001
 43
0.0000001
 44
0.0000000001
 40
0.0
 40
0.0
 40
0.0
 40
0.0
 40
0.20999682
 40
0.4358199463
 40
0.6965935411
 40
1.0
 40
1.0
 40
1.0
 40
1.0
 10
32.6169359759
 20
-54.7038449251
 30
0.0
 10
32.6487808116
 20
-54.6891099924
 30
0.0
 10
32.7089604082
 20
-54.6436053802
 30
0.0
 10
32.7665103734
 20
-54.5395223451
 30
0.0
 10
32.7922819622
 20
-54.4085718942
 30
0.0
 10
32.7895572385
 20
-54.3136814445
 30
0.0
 10
32.7841709917
 20
-54.2632718274
 30
0.0
  0
SPLINE
  5
475
100
AcDbEntity
  8
ASSI
100
AcDbSpline
 62
250
  6
CONTINUOUS
 70
0
 71
3
 72
11
 73
7
 74
0
 42
0.0000001
 43
0.0000001
 44
0.0000000001
 40
0.0
 40
0.0
 40
0.0
 40
0.0
 40
0.2247952417
 40
0.4861559178
 40
0.7556589687
 40
1.0
 40
1.0
 40
1.0
 40
1.0
 10
-30.6575009568
 20
-17.9045429672
 30
0.0
 10
-30.6451892542
 20
-17.9799097006
 30
0.0
 10
-30.5908556103
 20
-18.1382158601
 30
0.0
 10
-30.4596589959
 20
-18.3602667382
 30
0.0
 10
-30.2870027994
 20
-18.5607955802
 30
0.0
 10
-30.1486624668
 20
-18.6703148288
 30
0.0
 10
-30.0767806543
 20
-18.7118231997
 30
0.0
  0
SPLINE
  5
476
100
AcDbEntity
  8
ASSI
100
AcDbSpline
 62
250
  6
CONTINUOUS
 70
0
 71
3
 72
10
 73
6
 74
0
 42
0.0000001
 43
0.0000001
 44
0.0000000001
 40
0.0
 40
0.0
 40
0.0
 40
0.0
 40
0.5364074332
 40
0.7754460783
 40
1.0
 40
1.0
 40
1.0
 40
1.0
 10
-16.643912534
 20
26.0649653288
 30
0.0
 10
-16.6411101527
 20
26.13269605
 30
0.0
 10
-16.6235489161
 20
26.2319251703
 30
0.0
 10
-16.5638688589
 20
26.3442872445
 30
0.0
 10
-16.5245048107
 20
26.3886748966
 30
0.0
 10
-16.5030259162
 20
26.4072213893
 30
0.0
  0
SPLINE
  5
477
100
AcDbEntity
  8
ASSI
100
AcDbSpline
 62
250
  6
CONTINUOUS
 70
0
 71
3
 72
9
 73
5
 74
0
 42
0.0000001
 43
0.0000001
 44
0.0000000001
 40
0.0
 40
0.0
 40
0.0
 40
0.0
 40
0.5093318892
 40
1.0
 40
1.0
 40
1.0
 40
1.0
 10
-32.2932709909
 20
-1.5975962364
 30
0.0
 10
-32.175905534
 20
-4.3575567875
 30
0.0
 10
-31.7993528656
 20
-9.771366376
 30
0.0
 10
-31.104021906
 20
-15.1542416206
 30
0.0
 10
-30.6776065017
 20
-17.7810851125
 30
0.0
  0
LINE
  5
478
100
AcDbEntity
  8
ASSI
100
AcDbLine
 62
250
  6
CONTINUOUS
 10
-30.6776065017
 20
-17.7810851125
 11
-30.6575009568
 21
-17.9045429672
  0
SPLINE
  5
479
100
AcDbEntity
  8
ASSI
100
AcDbSpline
 62
250
  6
CONTINUOUS
 70
0
 71
3
 72
10
 73
6
 74
0
 42
0.0000001
 43
0.0000001
 44
0.0000000001
 40
0.0
 40
0.0
 40
0.0
 40
0.0
 40
0.2296399137
 40
0.4782597368
 40
1.0
 40
1.0
 40
1.0
 40
1.0
 10
-16.0303824174
 20
-10.5587512694
 30
0.0
 10
-16.0768894236
 20
-10.5336786755
 30
0.0
 10
-16.1688538468
 20
-10.4720876337
 30
0.0
 10
-16.33902744
 20
-10.316550878
 30
0.0
 10
-16.445160269
 20
-10.1712261908
 30
0.0
 10
-16.5030259162
 20
-10.0660532636
 30
0.0
  0
SPLINE
  5
47A
100
AcDbEntity
  8
ASSI
100
AcDbSpline
 62
250
  6
CONTINUOUS
 70
0
 71
3
 72
9
 73
5
 74
0
 42
0.0000001
 43
0.0000001
 44
0.0000000001
 40
0.0
 40
0.0
 40
0.0
 40
0.0
 40
0.5272845802
 40
1.0
 40
1.0
 40
1.0
 40
1.0
 10
-16.5030259162
 20
-10.0660532636
 30
0.0
 10
-16.543853138
 20
-9.9918498527
 30
0.0
 10
-16.6086630045
 20
-9.8437409946
 30
0.0
 10
-16.640632959
 20
-9.684260707
 30
0.0
 10
-16.643911682
 20
-9.6084029356
 30
0.0
  0
SPLINE
  5
47B
100
AcDbEntity
  8
ASSI
100
AcDbSpline
 62
250
  6
CONTINUOUS
 70
0
 71
3
 72
9
 73
5
 74
0
 42
0.0000001
 43
0.0000001
 44
0.0000000001
 40
0.0
 40
0.0
 40
0.0
 40
0.0
 40
0.2760065775
 40
1.0
 40
1.0
 40
1.0
 40
1.0
 10
15.5407766804
 20
-28.5976762727
 30
0.0
 10
15.5263346129
 20
-28.5892974247
 30
0.0
 10
15.4758554415
 20
-28.5562344109
 30
0.0
 10
15.4325532061
 20
-28.5096537576
 30
0.0
 10
15.4136210993
 20
-28.4701600112
 30
0.0
  0
SPLINE
  5
47C
100
AcDbEntity
  8
ASSI
100
AcDbSpline
 62
250
  6
CONTINUOUS
 70
0
 71
3
 72
9
 73
5
 74
0
 42
0.0000001
 43
0.0000001
 44
0.0000000001
 40
0.0
 40
0.0
 40
0.0
 40
0.0
 40
0.2563938424
 40
1.0
 40
1.0
 40
1.0
 40
1.0
 10
15.4136210993
 20
-28.4701600112
 30
0.0
 10
15.4107225413
 20
-28.4641134091
 30
0.0
 10
15.4005194147
 20
-28.4400232926
 30
0.0
 10
15.3951256913
 20
-28.4138524143
 30
0.0
 10
15.3943287411
 20
-28.3944212768
 30
0.0
  0
SPLINE
  5
47D
100
AcDbEntity
  8
ASSI
100
AcDbSpline
 62
250
  6
CONTINUOUS
 70
0
 71
3
 72
11
 73
7
 74
0
 42
0.0000001
 43
0.0000001
 44
0.0000000001
 40
0.0
 40
0.0
 40
0.0
 40
0.0
 40
0.2682474415
 40
0.5256138449
 40
0.7688436806
 40
1.0
 40
1.0
 40
1.0
 40
1.0
 10
15.373320433
 20
-29.119728529
 30
0.0
 10
15.3430672395
 20
-29.07729984
 30
0.0
 10
15.2944072559
 20
-28.9858627507
 30
0.0
 10
15.2630278418
 20
-28.8376911587
 30
0.0
 10
15.2776263303
 20
-28.693772403
 30
0.0
 10
15.3192474204
 20
-28.6087716544
 30
0.0
 10
15.346394396
 20
-28.5730020205
 30
0.0
  0
SPLINE
  5
47E
100
AcDbEntity
  8
ASSI
100
AcDbSpline
 62
250
  6
CONTINUOUS
 70
0
 71
3
 72
11
 73
7
 74
0
 42
0.0000001
 43
0.0000001
 44
0.0000000001
 40
0.0
 40
0.0
 40
0.0
 40
0.0
 40
0.2323706358
 40
0.4933105248
 40
0.7578922962
 40
1.0
 40
1.0
 40
1.0
 40
1.0
 10
14.6666645876
 20
-29.0986250626
 30
0.0
 10
14.6639689907
 20
-29.041932012
 30
0.0
 10
14.6809812727
 20
-28.9204672961
 30
0.0
 10
14.7511192334
 20
-28.7476623434
 30
0.0
 10
14.8581264577
 20
-28.5920103884
 30
0.0
 10
14.9513552494
 20
-28.5078068997
 30
0.0
 10
15.0012107684
 20
-28.4760040238
 30
0.0
  0
SPLINE
  5
47F
100
AcDbEntity
  8
ASSI
100
AcDbSpline
 62
250
  6
CONTINUOUS
 70
0
 71
3
 72
11
 73
7
 74
0
 42
0.0000001
 43
0.0000001
 44
0.0000000001
 40
0.0
 40
0.0
 40
0.0
 40
0.0
 40
0.2323706361
 40
0.4933105252
 40
0.7578922965
 40
1.0
 40
1.0
 40
1.0
 40
1.0
 10
-16.3649224776
 20
-11.1813756083
 30
0.0
 10
-16.3676180744
 20
-11.1246825576
 30
0.0
 10
-16.3506057923
 20
-11.0032178416
 30
0.0
 10
-16.2804678316
 20
-10.830412889
 30
0.0
 10
-16.1734606073
 20
-10.674760934
 30
0.0
 10
-16.0802318156
 20
-10.5905574454
 30
0.0
 10
-16.0303762968
 20
-10.5587545695
 30
0.0
  0
SPLINE
  5
480
100
AcDbEntity
  8
ASSI
100
AcDbSpline
 62
250
  6
CONTINUOUS
 70
0
 71
3
 72
11
 73
7
 74
0
 42
0.0000001
 43
0.0000001
 44
0.0000000001
 40
0.0
 40
0.0
 40
0.0
 40
0.0
 40
0.1980113152
 40
0.455459978
 40
0.7360621752
 40
1.0
 40
1.0
 40
1.0
 40
1.0
 10
-17.1082831632
 20
-10.3652586861
 30
0.0
 10
-17.0657099579
 20
-10.351827021
 30
0.0
 10
-16.9701864244
 20
-10.3136146457
 30
0.0
 10
-16.8197988145
 20
-10.2434389987
 30
0.0
 10
-16.6596294411
 20
-10.159395719
 30
0.0
 10
-16.5534689179
 20
-10.0976142933
 30
0.0
 10
-16.5030238871
 20
-10.0660526621
 30
0.0
  0
SPLINE
  5
481
100
AcDbEntity
  8
ASSI
100
AcDbSpline
 62
250
  6
CONTINUOUS
 70
0
 71
3
 72
11
 73
7
 74
0
 42
0.0000001
 43
0.0000001
 44
0.0000000001
 40
0.0
 40
0.0
 40
0.0
 40
0.0
 40
0.2342290573
 40
0.4938503752
 40
0.7568107979
 40
1.0
 40
1.0
 40
1.0
 40
1.0
 10
-17.3316138435
 20
-9.617572873
 30
0.0
 10
-17.2833327703
 20
-9.6453148179
 30
0.0
 10
-17.1708730019
 20
-9.6854721448
 30
0.0
 10
-16.9903837612
 20
-9.7028040048
 30
0.0
 10
-16.8083455813
 20
-9.6801007515
 30
0.0
 10
-16.6940664636
 20
-9.637136264
 30
0.0
 10
-16.6439129599
 20
-9.6083775055
 30
0.0
  0
SPLINE
  5
482
100
AcDbEntity
  8
ASSI
100
AcDbSpline
 62
250
  6
CONTINUOUS
 70
0
 71
3
 72
11
 73
7
 74
0
 42
0.0000001
 43
0.0000001
 44
0.0000000001
 40
0.0
 40
0.0
 40
0.0
 40
0.0
 40
0.2372718374
 40
0.4997695639
 40
0.7623915462
 40
1.0
 40
1.0
 40
1.0
 40
1.0
 10
-17.3316113502
 20
26.0954434608
 30
0.0
 10
-17.2830754916
 20
26.0672693769
 30
0.0
 10
-17.1710998592
 20
26.0245744981
 30
0.0
 10
-16.9915241
 20
25.9985121338
 30
0.0
 10
-16.8102670591
 20
26.0085948309
 30
0.0
 10
-16.6948446772
 20
26.0412021699
 30
0.0
 10
-16.6439108882
 20
26.0649550737
 30
0.0
  0
SPLINE
  5
483
100
AcDbEntity
  8
ASSI
100
AcDbSpline
 62
250
  6
CONTINUOUS
 70
0
 71
3
 72
11
 73
7
 74
0
 42
0.0000001
 43
0.0000001
 44
0.0000000001
 40
0.0
 40
0.0
 40
0.0
 40
0.0
 40
0.2364653795
 40
0.4983590758
 40
0.7611408611
 40
1.0
 40
1.0
 40
1.0
 40
1.0
 10
-4.0957174827
 20
-13.5741771079
 30
0.0
 10
-4.1251358935
 20
-13.5571865967
 30
0.0
 10
-4.1933599339
 20
-13.5320612519
 30
0.0
 10
-4.3026852712
 20
-13.518888972
 30
0.0
 10
-4.4126965198
 20
-13.5288459726
 30
0.0
 10
-4.4821145715
 20
-13.5518696758
 30
0.0
 10
-4.512449025
 20
-13.5679141791
 30
0.0
  0
SPLINE
  5
484
100
AcDbEntity
  8
ASSI
100
AcDbSpline
 62
250
  6
CONTINUOUS
 70
0
 71
3
 72
11
 73
7
 74
0
 42
0.0000001
 43
0.0000001
 44
0.0000000001
 40
0.0
 40
0.0
 40
0.0
 40
0.0
 40
0.2907486828
 40
0.539218897
 40
0.7649154359
 40
1.0
 40
1.0
 40
1.0
 40
1.0
 10
-2.5085467879
 20
-14.724942216
 30
0.0
 10
-2.4912496037
 20
-14.7144175399
 30
0.0
 10
-2.4610728305
 20
-14.6911785162
 30
0.0
 10
-2.4309427454
 20
-14.6455447647
 30
0.0
 10
-2.4247185658
 20
-14.5945500173
 30
0.0
 10
-2.4371435328
 20
-14.5635536766
 30
0.0
 10
-2.4458739697
 20
-14.5497047649
 30
0.0
  0
SPLINE
  5
485
100
AcDbEntity
  8
ASSI
100
AcDbSpline
 62
250
  6
CONTINUOUS
 70
0
 71
3
 72
9
 73
5
 74
0
 42
0.0000001
 43
0.0000001
 44
0.0000000001
 40
0.0
 40
0.0
 40
0.0
 40
0.0
 40
0.2275717351
 40
1.0
 40
1.0
 40
1.0
 40
1.0
 10
-2.4458739697
 20
-14.5497047649
 30
0.0
 10
-2.4497126652
 20
-14.5436155215
 30
0.0
 10
-2.4687171143
 20
-14.518196074
 30
0.0
 10
-2.4946607053
 20
-14.4986038581
 30
0.0
 10
-2.515820864
 20
-14.4863896147
 30
0.0
  0
SPLINE
  5
486
100
AcDbEntity
  8
ASSI
100
AcDbSpline
 62
250
  6
CONTINUOUS
 70
0
 71
3
 72
10
 73
6
 74
0
 42
0.0000001
 43
0.0000001
 44
0.0000000001
 40
0.0
 40
0.0
 40
0.0
 40
0.0
 40
0.5490360992
 40
0.7824180798
 40
1.0
 40
1.0
 40
1.0
 40
1.0
 10
-13.3716274679
 20
20.1472142092
 30
0.0
 10
-13.3710724418
 20
20.1290252387
 30
0.0
 10
-13.3740191084
 20
20.1021685916
 30
0.0
 10
-13.3904463133
 20
20.0728981402
 30
0.0
 10
-13.4017820113
 20
20.0626427083
 30
0.0
 10
-13.4078894276
 20
20.0588077691
 30
0.0
  0
SPLINE
  5
487
100
AcDbEntity
  8
ASSI
100
AcDbSpline
 62
250
  6
CONTINUOUS
 70
0
 71
3
 72
10
 73
6
 74
0
 42
0.0000001
 43
0.0000001
 44
0.0000000001
 40
0.0
 40
0.0
 40
0.0
 40
0.0
 40
0.547056766
 40
0.7811084586
 40
1.0
 40
1.0
 40
1.0
 40
1.0
 10
-13.1686853754
 20
20.5112454693
 30
0.0
 10
-13.1524575525
 20
20.5207801876
 30
0.0
 10
-13.1305837364
 20
20.5382811141
 30
0.0
 10
-13.1140753162
 20
20.5689592511
 30
0.0
 10
-13.1113442038
 20
20.584653701
 30
0.0
 10
-13.1113445447
 20
20.5921847141
 30
0.0
  0
SPLINE
  5
488
100
AcDbEntity
  8
ASSI
100
AcDbSpline
 62
250
  6
CONTINUOUS
 70
0
 71
3
 72
10
 73
6
 74
0
 42
0.0000001
 43
0.0000001
 44
0.0000000001
 40
0.0
 40
0.0
 40
0.0
 40
0.0
 40
0.547056722
 40
0.7811084287
 40
1.0
 40
1.0
 40
1.0
 40
1.0
 10
-13.1686853754
 20
22.3354941738
 30
0.0
 10
-13.1524575598
 20
22.345028885
 30
0.0
 10
-13.130583753
 20
22.3625297993
 30
0.0
 10
-13.1140753279
 20
22.3932079158
 30
0.0
 10
-13.111344209
 20
22.4089023585
 30
0.0
 10
-13.1113445448
 20
22.4164333693
 30
0.0
  0
SPLINE
  5
489
100
AcDbEntity
  8
ASSI
100
AcDbSpline
 62
250
  6
CONTINUOUS
 70
0
 71
3
 72
11
 73
7
 74
0
 42
0.0000001
 43
0.0000001
 44
0.0000000001
 40
0.0
 40
0.0
 40
0.0
 40
0.0
 40
0.2699711448
 40
0.532651516
 40
0.7767360831
 40
1.0
 40
1.0
 40
1.0
 40
1.0
 10
-17.1082823529
 20
26.6497559481
 30
0.0
 10
-17.0742010547
 20
26.5964123789
 30
0.0
 10
-16.9904969316
 20
26.5007802342
 30
0.0
 10
-16.8330528528
 20
26.4036992566
 30
0.0
 10
-16.6626221903
 20
26.3649764361
 30
0.0
 10
-16.550685309
 20
26.3855644535
 30
0.0
 10
-16.5030233387
 20
26.407217036
 30
0.0
  0
SPLINE
  5
48A
100
AcDbEntity
  8
ASSI
100
AcDbSpline
 62
250
  6
CONTINUOUS
 70
0
 71
3
 72
11
 73
7
 74
0
 42
0.0000001
 43
0.0000001
 44
0.0000000001
 40
0.0
 40
0.0
 40
0.0
 40
0.0
 40
0.239075458
 40
0.5016341886
 40
0.7633008085
 40
1.0
 40
1.0
 40
1.0
 40
1.0
 10
-13.3716274679
 20
22.4610466568
 30
0.0
 10
-13.3709376239
 20
22.484464394
 30
0.0
 10
-13.3782852134
 20
22.5339145545
 30
0.0
 10
-13.4073530461
 20
22.6034931389
 30
0.0
 10
-13.4510999644
 20
22.6646260023
 30
0.0
 10
-13.4891712723
 20
22.6965781019
 30
0.0
 10
-13.5093420236
 20
22.7080301984
 30
0.0
  0
SPLINE
  5
48B
100
AcDbEntity
  8
ASSI
100
AcDbSpline
 62
250
  6
CONTINUOUS
 70
0
 71
3
 72
15
 73
11
 74
0
 42
0.0000001
 43
0.0000001
 44
0.0000000001
 40
0.0
 40
0.0
 40
0.0
 40
0.0
 40
0.1464800571
 40
0.2776723419
 40
0.395527727
 40
0.5050622308
 40
0.6136871573
 40
0.729114665
 40
0.8570204639
 40
1.0
 40
1.0
 40
1.0
 40
1.0
 10
-13.1686853754
 20
22.3354941738
 30
0.0
 10
-13.1686835972
 20
22.350371003
 30
0.0
 10
-13.1708691283
 20
22.3786639037
 30
0.0
 10
-13.1819648293
 20
22.417611543
 30
0.0
 10
-13.2006432139
 20
22.4494419102
 30
0.0
 10
-13.2265988784
 20
22.4725694587
 30
0.0
 10
-13.2586535607
 20
22.4854283896
 30
0.0
 10
-13.2948653942
 20
22.4875232019
 30
0.0
 10
-13.3335944006
 20
22.4793110051
 30
0.0
 10
-13.3588882704
 20
22.4680166825
 30
0.0
 10
-13.3716274679
 20
22.4610466568
 30
0.0
  0
SPLINE
  5
48C
100
AcDbEntity
  8
ASSI
100
AcDbSpline
 62
250
  6
CONTINUOUS
 70
0
 71
3
 72
11
 73
7
 74
0
 42
0.0000001
 43
0.0000001
 44
0.0000000001
 40
0.0
 40
0.0
 40
0.0
 40
0.0
 40
0.2388624052
 40
0.5016472009
 40
0.7635405143
 40
1.0
 40
1.0
 40
1.0
 40
1.0
 10
-13.3716274679
 20
20.1472142092
 30
0.0
 10
-13.3425660663
 20
20.1654640502
 30
0.0
 10
-13.2879195533
 20
20.2140721106
 30
0.0
 10
-13.2242917459
 20
20.3043666766
 30
0.0
 10
-13.1810359385
 20
20.4056295655
 30
0.0
 10
-13.1686813204
 20
20.4772741942
 30
0.0
 10
-13.1686853754
 20
20.5112454693
 30
0.0
  0
SPLINE
  5
48D
100
AcDbEntity
  8
ASSI
100
AcDbSpline
 62
250
  6
CONTINUOUS
 70
0
 71
3
 72
11
 73
7
 74
0
 42
0.0000001
 43
0.0000001
 44
0.0000000001
 40
0.0
 40
0.0
 40
0.0
 40
0.0
 40
0.2390840561
 40
0.5016460277
 40
0.7633094263
 40
1.0
 40
1.0
 40
1.0
 40
1.0
 10
-2.5085467879
 20
-14.724942216
 30
0.0
 10
-2.4879210967
 20
-14.7360546256
 30
0.0
 10
-2.4487693271
 20
-14.7671439339
 30
0.0
 10
-2.4030458613
 20
-14.8271072551
 30
0.0
 10
-2.3719769642
 20
-14.8955587426
 30
0.0
 10
-2.3633419579
 20
-14.9445045181
 30
0.0
 10
-2.3635101658
 20
-14.9676980792
 30
0.0
  0
SPLINE
  5
48E
100
AcDbEntity
  8
ASSI
100
AcDbSpline
 62
250
  6
CONTINUOUS
 70
0
 71
3
 72
10
 73
6
 74
0
 42
0.0000001
 43
0.0000001
 44
0.0000000001
 40
0.0
 40
0.0
 40
0.0
 40
0.0
 40
0.5470711245
 40
0.7811182353
 40
1.0
 40
1.0
 40
1.0
 40
1.0
 10
-2.515820864
 20
-14.4863896147
 30
0.0
 10
-2.4994495114
 20
-14.4771019684
 30
0.0
 10
-2.4733563379
 20
-14.4669070178
 30
0.0
 10
-2.4385334523
 20
-14.4679477918
 30
0.0
 10
-2.4235762654
 20
-14.4734297243
 30
0.0
 10
-2.4170546907
 20
-14.4771955891
 30
0.0
  0
SPLINE
  5
48F
100
AcDbEntity
  8
ASSI
100
AcDbSpline
 62
250
  6
CONTINUOUS
 70
0
 71
3
 72
10
 73
6
 74
0
 42
0.0000001
 43
0.0000001
 44
0.0000000001
 40
0.0
 40
0.0
 40
0.0
 40
0.0
 40
0.5470710994
 40
0.7811182242
 40
1.0
 40
1.0
 40
1.0
 40
1.0
 10
-4.0957174827
 20
-13.5741771079
 30
0.0
 10
-4.0793461348
 20
-13.564889467
 30
0.0
 10
-4.0532529712
 20
-13.5546945221
 30
0.0
 10
-4.0184300969
 20
-13.555735284
 30
0.0
 10
-4.0034729116
 20
-13.5612172075
 30
0.0
 10
-3.9969513361
 20
-13.5649830669
 30
0.0
  0
SPLINE
  5
490
100
AcDbEntity
  8
ASSI
100
AcDbSpline
 62
250
  6
CONTINUOUS
 70
0
 71
3
 72
10
 73
6
 74
0
 42
0.0000001
 43
0.0000001
 44
0.0000000001
 40
0.0
 40
0.0
 40
0.0
 40
0.0
 40
0.5490434474
 40
0.7824232367
 40
1.0
 40
1.0
 40
1.0
 40
1.0
 10
-4.512449025
 20
-13.5679141791
 30
0.0
 10
-4.5279259609
 20
-13.5583369836
 30
0.0
 10
-4.5526616091
 20
-13.5474580467
 30
0.0
 10
-4.5862294442
 20
-13.5470490113
 30
0.0
 10
-4.6007806979
 20
-13.5517394401
 30
0.0
 10
-4.6071562196
 20
-13.5551119274
 30
0.0
  0
SPLINE
  5
491
100
AcDbEntity
  8
ASSI
100
AcDbSpline
 62
250
  6
CONTINUOUS
 70
0
 71
3
 72
9
 73
5
 74
0
 42
0.0000001
 43
0.0000001
 44
0.0000000001
 40
0.0
 40
0.0
 40
0.0
 40
0.0
 40
0.5479316467
 40
1.0
 40
1.0
 40
1.0
 40
1.0
 10
-2.3635101661
 20
-15.5565669054
 30
0.0
 10
-2.3629775579
 20
-15.5745074945
 30
0.0
 10
-2.366400251
 20
-15.6081166241
 30
0.0
 10
-2.3871015142
 20
-15.6364422236
 30
0.0
 10
-2.3994498497
 20
-15.6446156485
 30
0.0
  0
SPLINE
  5
492
100
AcDbEntity
  8
ASSI
100
AcDbSpline
 62
250
  6
CONTINUOUS
 70
0
 71
3
 72
11
 73
7
 74
0
 42
0.0000001
 43
0.0000001
 44
0.0000000001
 40
0.0
 40
0.0
 40
0.0
 40
0.0
 40
0.2927193663
 40
0.5531462819
 40
0.7851453376
 40
1.0
 40
1.0
 40
1.0
 40
1.0
 10
-16.3649224776
 20
26.6498449286
 30
0.0
 10
-16.3661706292
 20
26.6221528128
 30
0.0
 10
-16.3643213116
 20
26.5694473917
 30
0.0
 10
-16.3460382331
 20
26.4966666753
 30
0.0
 10
-16.3124771786
 20
26.4375460798
 30
0.0
 10
-16.279640385
 20
26.4091833676
 30
0.0
 10
-16.2620317073
 20
26.3989894783
 30
0.0
  0
SPLINE
  5
493
100
AcDbEntity
  8
ASSI
100
AcDbSpline
 62
250
  6
CONTINUOUS
 70
0
 71
3
 72
11
 73
7
 74
0
 42
0.0000001
 43
0.0000001
 44
0.0000000001
 40
0.0
 40
0.0
 40
0.0
 40
0.0
 40
0.2927402536
 40
0.5531621829
 40
0.7851444849
 40
1.0
 40
1.0
 40
1.0
 40
1.0
 10
14.6666645876
 20
8.7325954743
 30
0.0
 10
14.6654156077
 20
8.7048849836
 30
0.0
 10
14.6672687593
 20
8.6521463914
 30
0.0
 10
14.6855797281
 20
8.579325627
 30
0.0
 10
14.7191912361
 20
8.5201869824
 30
0.0
 10
14.7520732817
 20
8.4918366801
 30
0.0
 10
14.7697028718
 20
8.4816547269
 30
0.0
  0
SPLINE
  5
494
100
AcDbEntity
  8
ASSI
100
AcDbSpline
 62
250
  6
CONTINUOUS
 70
0
 71
3
 72
9
 73
5
 74
0
 42
0.0000001
 43
0.0000001
 44
0.0000000001
 40
0.0
 40
0.0
 40
0.0
 40
0.0
 40
0.5414690738
 40
1.0
 40
1.0
 40
1.0
 40
1.0
 10
-2.3635101661
 20
-15.5565669054
 30
0.0
 10
-2.3306059271
 20
-15.5353701736
 30
0.0
 10
-2.273926986
 20
-15.4883566736
 30
0.0
 10
-2.2392971186
 20
-15.421434428
 30
0.0
 10
-2.2327210448
 20
-15.3889479472
 30
0.0
  0
SPLINE
  5
495
100
AcDbEntity
  8
ASSI
100
AcDbSpline
 62
250
  6
CONTINUOUS
 70
0
 71
3
 72
11
 73
7
 74
0
 42
0.0000001
 43
0.0000001
 44
0.0000000001
 40
0.0
 40
0.0
 40
0.0
 40
0.0
 40
0.2880675324
 40
0.5466700948
 40
0.7804878848
 40
1.0
 40
1.0
 40
1.0
 40
1.0
 10
-2.363475601
 20
-14.9676768894
 30
0.0
 10
-2.3432538491
 20
-14.9552840199
 30
0.0
 10
-2.306615584
 20
-14.9286434419
 30
0.0
 10
-2.263048838
 20
-14.880656803
 30
0.0
 10
-2.2356003844
 20
-14.8280087527
 30
0.0
 10
-2.229202814
 20
-14.7904526895
 30
0.0
 10
-2.2291891141
 20
-14.772379855
 30
0.0
  0
SPLINE
  5
496
100
AcDbEntity
  8
ASSI
100
AcDbSpline
 62
250
  6
CONTINUOUS
 70
0
 71
3
 72
9
 73
5
 74
0
 42
0.0000001
 43
0.0000001
 44
0.0000000001
 40
0.0
 40
0.0
 40
0.0
 40
0.0
 40
0.5418714429
 40
1.0
 40
1.0
 40
1.0
 40
1.0
 10
-14.0192973565
 20
23.0025118227
 30
0.0
 10
-13.9840808558
 20
23.0206224631
 30
0.0
 10
-13.9141916717
 20
23.0464151411
 30
0.0
 10
-13.8380117232
 20
23.0422437927
 30
0.0
 10
-13.8064212692
 20
23.0311539535
 30
0.0
  0
SPLINE
  5
497
100
AcDbEntity
  8
ASSI
100
AcDbSpline
 62
250
  6
CONTINUOUS
 70
0
 71
3
 72
12
 73
8
 74
0
 42
0.0000001
 43
0.0000001
 44
0.0000000001
 40
0.0
 40
0.0
 40
0.0
 40
0.0
 40
0.4138489095
 40
0.7205650807
 40
0.9130725623
 40
0.9674905822
 40
1.0
 40
1.0
 40
1.0
 40
1.0
 10
15.3733198369
 20
7.8952852806
 30
0.0
 10
15.3593081202
 20
7.8905859623
 30
0.0
 10
15.3347633857
 20
7.882732907
 30
0.0
 10
15.303344848
 20
7.8743180991
 30
0.0
 10
15.283635424
 20
7.8709318191
 30
0.0
 10
15.2737252562
 20
7.8712705966
 30
0.0
 10
15.2706639923
 20
7.8729791049
 30
0.0
 10
15.270187724
 20
7.8740378415
 30
0.0
  0
SPLINE
  5
498
100
AcDbEntity
  8
0
100
AcDbSpline
 62
250
  6
CONTINUOUS
 70
0
 71
3
 72
23
 73
19
 74
0
 42
0.0000001
 43
0.0000001
 44
0.0000000001
 40
0.0
 40
0.0
 40
0.0
 40
0.0
 40
0.125
 40
0.25
 40
0.3125
 40
0.375
 40
0.4375
 40
0.46875
 40
0.484375
 40
0.5
 40
0.515625
 40
0.53125
 40
0.5625
 40
0.625
 40
0.6875
 40
0.75
 40
0.875
 40
1.0
 40
1.0
 40
1.0
 40
1.0
 10
-18.3318068493
 20
31.9545142071
 30
0.0
 10
-18.3345681271
 20
31.9132822637
 30
0.0
 10
-18.3400907841
 20
31.8308163489
 30
0.0
 10
-18.3469935982
 20
31.7277440955
 30
0.0
 10
-18.3525169146
 20
31.6452649987
 30
0.0
 10
-18.356656511
 20
31.5834634742
 30
0.0
 10
-18.3601153672
 20
31.5317784159
 30
0.0
 10
-18.3625185269
 20
31.4959595431
 30
0.0
 10
-18.3639199284
 20
31.4749284641
 30
0.0
 10
-18.3648916314
 20
31.4607415617
 30
0.0
 10
-18.3661666434
 20
31.4404906079
 30
0.0
 10
-18.3677608619
 20
31.4156045452
 30
0.0
 10
-18.3706000373
 20
31.3710684202
 30
0.0
 10
-18.374630231
 20
31.3079606244
 30
0.0
 10
-18.3794774947
 20
31.232010724
 30
0.0
 10
-18.3859366584
 20
31.1308212542
 30
0.0
 10
-18.3940119444
 20
31.0043077995
 30
0.0
 10
-18.4004717674
 20
30.9031051477
 30
0.0
 10
-18.4037017297
 20
30.8525028078
 30
0.0
  0
SPLINE
  5
499
100
AcDbEntity
  8
0
100
AcDbSpline
 62
250
  6
CONTINUOUS
 70
0
 71
3
 72
13
 73
9
 74
0
 42
0.0000001
 43
0.0000001
 44
0.0000000001
 40
0.0
 40
0.0
 40
0.0
 40
0.0
 40
0.25
 40
0.375
 40
0.5
 40
0.625
 40
0.75
 40
1.0
 40
1.0
 40
1.0
 40
1.0
 10
-17.4497342292
 20
32.4637212146
 30
0.0
 10
-17.4557295328
 20
32.3810301695
 30
0.0
 10
-17.4647491382
 20
32.2568348167
 30
0.0
 10
-17.4766686788
 20
32.091876154
 30
0.0
 10
-17.4858748341
 20
31.9665693041
 30
0.0
 10
-17.49406829
 20
31.8472962953
 30
0.0
 10
-17.5053482309
 20
31.6861484797
 30
0.0
 10
-17.5137282367
 20
31.5657639738
 30
0.0
 10
-17.5193326738
 20
31.4854017797
 30
0.0
  0
SPLINE
  5
49A
100
AcDbEntity
  8
0
100
AcDbSpline
 62
250
  6
CONTINUOUS
 70
0
 71
3
 72
11
 73
7
 74
0
 42
0.0000001
 43
0.0000001
 44
0.0000000001
 40
0.0
 40
0.0
 40
0.0
 40
0.0
 40
0.25
 40
0.5
 40
0.75
 40
1.0
 40
1.0
 40
1.0
 40
1.0
 10
-16.6008829881
 20
30.9551004632
 30
0.0
 10
-16.5951208099
 20
31.0376799632
 30
0.0
 10
-16.5835776076
 20
31.202312523
 30
0.0
 10
-16.5663758808
 20
31.4524200041
 30
0.0
 10
-16.5487783852
 20
31.6914722405
 30
0.0
 10
-16.537122106
 20
31.852946159
 30
0.0
 10
-16.5312845433
 20
31.9334198981
 30
0.0
  0
SPLINE
  5
49B
100
AcDbEntity
  8
0
100
AcDbSpline
 62
250
  6
CONTINUOUS
 70
0
 71
3
 72
23
 73
19
 74
0
 42
0.0000001
 43
0.0000001
 44
0.0000000001
 40
0.0
 40
0.0
 40
0.0
 40
0.0
 40
0.125
 40
0.25
 40
0.3125
 40
0.375
 40
0.4375
 40
0.46875
 40
0.484375
 40
0.5
 40
0.515625
 40
0.53125
 40
0.5625
 40
0.625
 40
0.6875
 40
0.75
 40
0.875
 40
1.0
 40
1.0
 40
1.0
 40
1.0
 10
-15.8603036904
 20
29.3839766749
 30
0.0
 10
-15.8576897305
 20
29.4251368742
 30
0.0
 10
-15.8524616455
 20
29.5074593318
 30
0.0
 10
-15.8459273652
 20
29.6103521085
 30
0.0
 10
-15.8406982063
 20
29.6926879499
 30
0.0
 10
-15.8367810454
 20
29.7543811478
 30
0.0
 10
-15.8335017732
 20
29.8059787484
 30
0.0
 10
-15.8312356629
 20
29.8417308779
 30
0.0
 10
-15.829894868
 20
29.8627324412
 30
0.0
 10
-15.8290185018
 20
29.8768729144
 30
0.0
 10
-15.827648153
 20
29.8971702975
 30
0.0
 10
-15.8259933279
 20
29.9220858757
 30
0.0
 10
-15.8230171031
 20
29.9666887441
 30
0.0
 10
-15.8188073253
 20
30.0298839977
 30
0.0
 10
-15.8137376261
 20
30.1059422247
 30
0.0
 10
-15.8069843049
 20
30.2072749497
 30
0.0
 10
-15.7985404851
 20
30.3339678812
 30
0.0
 10
-15.7917860901
 20
30.4353139902
 30
0.0
 10
-15.78840881
 20
30.4859880742
 30
0.0
  0
SPLINE
  5
49C
100
AcDbEntity
  8
0
100
AcDbSpline
 62
250
  6
CONTINUOUS
 70
0
 71
3
 72
13
 73
9
 74
0
 42
0.0000001
 43
0.0000001
 44
0.0000000001
 40
0.0
 40
0.0
 40
0.0
 40
0.0
 40
0.25
 40
0.375
 40
0.5
 40
0.625
 40
0.75
 40
1.0
 40
1.0
 40
1.0
 40
1.0
 10
-16.7303880826
 20
28.88169152
 30
0.0
 10
-16.7256327816
 20
28.9637786868
 30
0.0
 10
-16.7185060416
 20
29.0870645329
 30
0.0
 10
-16.7089788758
 20
29.2508252775
 30
0.0
 10
-16.7018956156
 20
29.375196795
 30
0.0
 10
-16.694576322
 20
29.4936746679
 30
0.0
 10
-16.6849000826
 20
29.6537131105
 30
0.0
 10
-16.6776242689
 20
29.7732766548
 30
0.0
 10
-16.6727778673
 20
29.8530890816
 30
0.0
  0
SPLINE
  5
49D
100
AcDbEntity
  8
0
100
AcDbSpline
 62
250
  6
CONTINUOUS
 70
0
 71
3
 72
13
 73
9
 74
0
 42
0.0000001
 43
0.0000001
 44
0.0000000001
 40
0.0
 40
0.0
 40
0.0
 40
0.0
 40
0.25
 40
0.375
 40
0.5
 40
0.625
 40
0.75
 40
1.0
 40
1.0
 40
1.0
 40
1.0
 10
-17.5912275517
 20
30.3833904188
 30
0.0
 10
-17.596215703
 20
30.3011878715
 30
0.0
 10
-17.6037234709
 20
30.1777132209
 30
0.0
 10
-17.6136316644
 20
30.0137636719
 30
0.0
 10
-17.6213182187
 20
29.889093214
 30
0.0
 10
-17.6280342182
 20
29.7709142815
 30
0.0
 10
-17.6373294298
 20
29.6110646433
 30
0.0
 10
-17.6442242157
 20
29.4916899035
 30
0.0
 10
-17.648837767
 20
29.4119928572
 30
0.0
  0
SPLINE
  5
49E
100
AcDbEntity
  8
0
100
AcDbSpline
 62
250
  6
CONTINUOUS
 70
0
 71
3
 72
24
 73
20
 74
0
 42
0.0000001
 43
0.0000001
 44
0.0000000001
 40
0.0
 40
0.0
 40
0.0
 40
0.0
 40
0.25
 40
0.375
 40
0.4375
 40
0.5
 40
0.5625
 40
0.59375
 40
0.625
 40
0.640625
 40
0.65625
 40
0.6640625
 40
0.671875
 40
0.6875
 40
0.71875
 40
0.75
 40
0.8125
 40
0.875
 40
1.0
 40
1.0
 40
1.0
 40
1.0
 10
-18.3966291153
 20
32.0802489663
 30
0.0
 10
-18.404974611
 20
31.9565232816
 30
0.0
 10
-18.4175278393
 20
31.7709184018
 30
0.0
 10
-18.4320508262
 20
31.5544366101
 30
0.0
 10
-18.4399853222
 20
31.4309129682
 30
0.0
 10
-18.4459856866
 20
31.3382371729
 30
0.0
 10
-18.4509728296
 20
31.2610424567
 30
0.0
 10
-18.4549693835
 20
31.199218944
 30
0.0
 10
-18.4574567112
 20
31.1607310413
 30
0.0
 10
-18.4594701079
 20
31.1295933516
 30
0.0
 10
-18.4606749037
 20
31.1109248181
 30
0.0
 10
-18.4617614418
 20
31.0941747789
 30
0.0
 10
-18.4624000357
 20
31.0840515711
 30
0.0
 10
-18.463309486
 20
31.0694144024
 30
0.0
 10
-18.4647172713
 20
31.046897981
 30
0.0
 10
-18.4669090522
 20
31.0117693338
 30
0.0
 10
-18.4696695626
 20
30.9675510443
 30
0.0
 10
-18.4740747109
 20
30.8969744017
 30
0.0
 10
-18.4773811974
 20
30.8440030801
 30
0.0
 10
-18.4795849384
 20
30.8086974968
 30
0.0
  0
SPLINE
  5
49F
100
AcDbEntity
  8
0
100
AcDbSpline
 62
250
  6
CONTINUOUS
 70
0
 71
3
 72
13
 73
9
 74
0
 42
0.0000001
 43
0.0000001
 44
0.0000000001
 40
0.0
 40
0.0
 40
0.0
 40
0.0
 40
0.25
 40
0.375
 40
0.5
 40
0.625
 40
0.75
 40
1.0
 40
1.0
 40
1.0
 40
1.0
 10
-17.5140655021
 20
32.589739467
 30
0.0
 10
-17.5201019149
 20
32.5070288477
 30
0.0
 10
-17.5291832185
 20
32.3828046901
 30
0.0
 10
-17.5411848857
 20
32.2178053948
 30
0.0
 10
-17.5504529799
 20
32.0924736363
 30
0.0
 10
-17.5587070678
 20
31.9731545683
 30
0.0
 10
-17.5700683101
 20
31.8119527617
 30
0.0
 10
-17.5785091886
 20
31.6915260928
 30
0.0
 10
-17.5841542306
 20
31.6111361611
 30
0.0
  0
SPLINE
  5
4A0
100
AcDbEntity
  8
0
100
AcDbSpline
 62
250
  6
CONTINUOUS
 70
0
 71
3
 72
11
 73
7
 74
0
 42
0.0000001
 43
0.0000001
 44
0.0000000001
 40
0.0
 40
0.0
 40
0.0
 40
0.0
 40
0.25
 40
0.5
 40
0.75
 40
1.0
 40
1.0
 40
1.0
 40
1.0
 10
-16.524404813
 20
30.9992501187
 30
0.0
 10
-16.5186015385
 20
31.0818493493
 30
0.0
 10
-16.506976263
 20
31.2465233329
 30
0.0
 10
-16.4896507082
 20
31.4966811735
 30
0.0
 10
-16.4719318988
 20
31.7358249858
 30
0.0
 10
-16.4601942648
 20
31.8973521042
 30
0.0
 10
-16.4543160846
 20
31.9778534246
 30
0.0
  0
SPLINE
  5
4A1
100
AcDbEntity
  8
0
100
AcDbSpline
 62
250
  6
CONTINUOUS
 70
0
 71
3
 72
24
 73
20
 74
0
 42
0.0000001
 43
0.0000001
 44
0.0000000001
 40
0.0
 40
0.0
 40
0.0
 40
0.0
 40
0.25
 40
0.375
 40
0.4375
 40
0.5
 40
0.5625
 40
0.59375
 40
0.625
 40
0.640625
 40
0.65625
 40
0.6640625
 40
0.671875
 40
0.6875
 40
0.71875
 40
0.75
 40
0.8125
 40
0.875
 40
1.0
 40
1.0
 40
1.0
 40
1.0
 10
-15.7948857512
 20
29.2585858499
 30
0.0
 10
-15.787105517
 20
29.3820362511
 30
0.0
 10
-15.7754702425
 20
29.5671940858
 30
0.0
 10
-15.7617729866
 20
29.7832737449
 30
0.0
 10
-15.7535820067
 20
29.906922295
 30
0.0
 10
-15.7474870565
 20
29.9996441537
 30
0.0
 10
-15.7423986388
 20
30.0768881908
 30
0.0
 10
-15.7383260644
 20
30.1387487257
 30
0.0
 10
-15.7357899524
 20
30.1772603865
 30
0.0
 10
-15.7337393301
 20
30.2084162051
 30
0.0
 10
-15.7325073993
 20
30.2270979535
 30
0.0
 10
-15.7314079884
 20
30.2438542616
 30
0.0
 10
-15.7307242757
 20
30.2539994424
 30
0.0
 10
-15.7297208882
 20
30.2686823587
 30
0.0
 10
-15.7281867223
 20
30.2912603277
 30
0.0
 10
-15.7257883647
 20
30.3264895782
 30
0.0
 10
-15.7227711296
 20
30.3708328931
 30
0.0
 10
-15.7179543819
 20
30.4416099854
 30
0.0
 10
-15.7143393847
 20
30.4947315522
 30
0.0
 10
-15.711929928
 20
30.5301373195
 30
0.0
  0
SPLINE
  5
4A2
100
AcDbEntity
  8
0
100
AcDbSpline
 62
250
  6
CONTINUOUS
 70
0
 71
3
 72
13
 73
9
 74
0
 42
0.0000001
 43
0.0000001
 44
0.0000000001
 40
0.0
 40
0.0
 40
0.0
 40
0.0
 40
0.25
 40
0.375
 40
0.5
 40
0.625
 40
0.75
 40
1.0
 40
1.0
 40
1.0
 40
1.0
 10
-16.6644824295
 20
28.7565822949
 30
0.0
 10
-16.6597682265
 20
28.8386490021
 30
0.0
 10
-16.6527031873
 20
28.961904564
 30
0.0
 10
-16.6432580734
 20
29.1256233085
 30
0.0
 10
-16.6362368923
 20
29.2499673787
 30
0.0
 10
-16.6289776247
 20
29.3684024039
 30
0.0
 10
-16.6193821403
 20
29.52838912
 30
0.0
 10
-16.6121667306
 20
29.6479126534
 30
0.0
 10
-16.6073606345
 20
29.7276986766
 30
0.0
  0
SPLINE
  5
4A3
100
AcDbEntity
  8
0
100
AcDbSpline
 62
250
  6
CONTINUOUS
 70
0
 71
3
 72
13
 73
9
 74
0
 42
0.0000001
 43
0.0000001
 44
0.0000000001
 40
0.0
 40
0.0
 40
0.0
 40
0.0
 40
0.25
 40
0.375
 40
0.5
 40
0.625
 40
0.75
 40
1.0
 40
1.0
 40
1.0
 40
1.0
 10
-17.6671100535
 20
30.3395846975
 30
0.0
 10
-17.6720570971
 20
30.257402453
 30
0.0
 10
-17.6795031482
 20
30.13395783
 30
0.0
 10
-17.689329274
 20
29.9700500245
 30
0.0
 10
-17.6969537239
 20
29.8454066075
 30
0.0
 10
-17.7036097227
 20
29.7272709291
 30
0.0
 10
-17.7128241952
 20
29.5674732741
 30
0.0
 10
-17.7196585929
 20
29.4481388017
 30
0.0
 10
-17.7242318484
 20
29.3684683159
 30
0.0
  0
SPLINE
  5
4A4
100
AcDbEntity
  8
0
100
AcDbSpline
 62
250
  6
CONTINUOUS
 70
0
 71
3
 72
17
 73
13
 74
0
 42
0.0000001
 43
0.0000001
 44
0.0000000001
 40
0.0
 40
0.0
 40
0.0
 40
0.0
 40
0.25
 40
0.375
 40
0.5
 40
0.5625
 40
0.625
 40
0.65625
 40
0.6875
 40
0.75
 40
0.875
 40
1.0
 40
1.0
 40
1.0
 40
1.0
 10
-18.4614080803
 20
32.2060079105
 30
0.0
 10
-18.4698152385
 20
32.0822524141
 30
0.0
 10
-18.4824761888
 20
31.8966088493
 30
0.0
 10
-18.4991566042
 20
31.6491253773
 30
0.0
 10
-18.5091015531
 20
31.4947982307
 30
0.0
 10
-18.5171819692
 20
31.3710093676
 30
0.0
 10
-18.5221612421
 20
31.2942841809
 30
0.0
 10
-18.5262839154
 20
31.2314429716
 30
0.0
 10
-18.5299063585
 20
31.1739317199
 30
0.0
 10
-18.5360134917
 20
31.0757643783
 30
0.0
 10
-18.5448601478
 20
30.9342214511
 30
0.0
 10
-18.5519002368
 20
30.8213844786
 30
0.0
 10
-18.5554249358
 20
30.7649163211
 30
0.0
  0
SPLINE
  5
4A5
100
AcDbEntity
  8
0
100
AcDbSpline
 62
250
  6
CONTINUOUS
 70
0
 71
3
 72
13
 73
9
 74
0
 42
0.0000001
 43
0.0000001
 44
0.0000000001
 40
0.0
 40
0.0
 40
0.0
 40
0.0
 40
0.25
 40
0.375
 40
0.5
 40
0.625
 40
0.75
 40
1.0
 40
1.0
 40
1.0
 40
1.0
 10
-17.5783541683
 20
32.7157815035
 30
0.0
 10
-17.5844316899
 20
32.6330513389
 30
0.0
 10
-17.5935746908
 20
32.5087984149
 30
0.0
 10
-17.6056584846
 20
32.3437585577
 30
0.0
 10
-17.6149885153
 20
32.2184018946
 30
0.0
 10
-17.6233032414
 20
32.0990369583
 30
0.0
 10
-17.6347457901
 20
31.9377813496
 30
0.0
 10
-17.643247546
 20
31.8173126741
 30
0.0
 10
-17.6489331956
 20
31.7368951058
 30
0.0
  0
SPLINE
  5
4A6
100
AcDbEntity
  8
0
100
AcDbSpline
 62
250
  6
CONTINUOUS
 70
0
 71
3
 72
11
 73
7
 74
0
 42
0.0000001
 43
0.0000001
 44
0.0000000001
 40
0.0
 40
0.0
 40
0.0
 40
0.0
 40
0.25
 40
0.5
 40
0.75
 40
1.0
 40
1.0
 40
1.0
 40
1.0
 10
-16.4478840442
 20
31.0434243674
 30
0.0
 10
-16.4420396733
 20
31.1260432999
 30
0.0
 10
-16.4303323241
 20
31.2907586318
 30
0.0
 10
-16.4128829443
 20
31.5409668277
 30
0.0
 10
-16.3950428105
 20
31.7802018307
 30
0.0
 10
-16.3832238173
 20
31.9417819646
 30
0.0
 10
-16.377305017
 20
32.0223107651
 30
0.0
  0
SPLINE
  5
4A7
100
AcDbEntity
  8
0
100
AcDbSpline
 62
250
  6
CONTINUOUS
 70
0
 71
3
 72
16
 73
12
 74
0
 42
0.0000001
 43
0.0000001
 44
0.0000000001
 40
0.0
 40
0.0
 40
0.0
 40
0.0
 40
0.25
 40
0.5
 40
0.5625
 40
0.625
 40
0.65625
 40
0.6875
 40
0.75
 40
0.875
 40
1.0
 40
1.0
 40
1.0
 40
1.0
 10
-15.7294260151
 20
29.1332199745
 30
0.0
 10
-15.7217074264
 20
29.2566401363
 30
0.0
 10
-15.7064529635
 20
29.5034526888
 30
0.0
 10
-15.6884694785
 20
29.7812417807
 30
0.0
 10
-15.6763310864
 20
29.9669114663
 30
0.0
 10
-15.6713013312
 20
30.0436639272
 30
0.0
 10
-15.6672254876
 20
30.1064819797
 30
0.0
 10
-15.6633354754
 20
30.1641236236
 30
0.0
 10
-15.6566141407
 20
30.2625900288
 30
0.0
 10
-15.6469668726
 20
30.4045228859
 30
0.0
 10
-15.6392628825
 20
30.5176831712
 30
0.0
 10
-15.6354091594
 20
30.5743115639
 30
0.0
  0
SPLINE
  5
4A8
100
AcDbEntity
  8
0
100
AcDbSpline
 62
250
  6
CONTINUOUS
 70
0
 71
3
 72
13
 73
9
 74
0
 42
0.0000001
 43
0.0000001
 44
0.0000000001
 40
0.0
 40
0.0
 40
0.0
 40
0.0
 40
0.25
 40
0.375
 40
0.5
 40
0.625
 40
0.75
 40
1.0
 40
1.0
 40
1.0
 40
1.0
 10
-16.5985342863
 20
28.6314984197
 30
0.0
 10
-16.5938611808
 20
28.7135446388
 30
0.0
 10
-16.5868578421
 20
28.8367698798
 30
0.0
 10
-16.577494779
 20
29.0004465523
 30
0.0
 10
-16.5705356772
 20
29.1247631784
 30
0.0
 10
-16.5633364324
 20
29.2431551423
 30
0.0
 10
-16.5538216999
 20
29.4030899229
 30
0.0
 10
-16.546666692
 20
29.5225732718
 30
0.0
 10
-16.5419008997
 20
29.6023327793
 30
0.0
  0
SPLINE
  5
4A9
100
AcDbEntity
  8
0
100
AcDbSpline
 62
250
  6
CONTINUOUS
 70
0
 71
3
 72
13
 73
9
 74
0
 42
0.0000001
 43
0.0000001
 44
0.0000000001
 40
0.0
 40
0.0
 40
0.0
 40
0.0
 40
0.25
 40
0.375
 40
0.5
 40
0.625
 40
0.75
 40
1.0
 40
1.0
 40
1.0
 40
1.0
 10
-17.7429500512
 20
30.2958035176
 30
0.0
 10
-17.7478559872
 20
30.2136416044
 30
0.0
 10
-17.7552403213
 20
30.0902270461
 30
0.0
 10
-17.7649843799
 20
29.9263610562
 30
0.0
 10
-17.7725467245
 20
29.8017446776
 30
0.0
 10
-17.7791427266
 20
29.6836524663
 30
0.0
 10
-17.7882764635
 20
29.523907003
 30
0.0
 10
-17.7950504761
 20
29.4046129714
 30
0.0
 10
-17.7995834378
 20
29.3249691579
 30
0.0
  0
SPLINE
  5
4AA
100
AcDbEntity
  8
0
100
AcDbSpline
 62
250
  6
CONTINUOUS
 70
0
 71
3
 72
22
 73
18
 74
0
 42
0.0000001
 43
0.0000001
 44
0.0000000001
 40
0.0
 40
0.0
 40
0.0
 40
0.0
 40
0.25
 40
0.375
 40
0.5
 40
0.5625
 40
0.625
 40
0.6875
 40
0.75
 40
0.78125
 40
0.796875
 40
0.8125
 40
0.828125
 40
0.84375
 40
0.875
 40
0.9375
 40
1.0
 40
1.0
 40
1.0
 40
1.0
 10
-9.5735608282
 20
27.5611168198
 30
0.0
 10
-9.5881380007
 20
27.354585663
 30
0.0
 10
-9.6100159879
 20
27.0447817766
 30
0.0
 10
-9.6380595119
 20
26.6322574952
 30
0.0
 10
-9.6547901072
 20
26.374802694
 30
0.0
 10
-9.6682111847
 20
26.168854033
 30
0.0
 10
-9.6781058938
 20
26.0143850153
 30
0.0
 10
-9.6875878862
 20
25.860466498
 30
0.0
 10
-9.6956593364
 20
25.7310323372
 30
0.0
 10
-9.7011333564
 20
25.6426419131
 30
0.0
 10
-9.7045121367
 20
25.5886891666
 30
0.0
 10
-9.7063441997
 20
25.5579239796
 30
0.0
 10
-9.7081852485
 20
25.5270353855
 30
0.0
 10
-9.7106368457
 20
25.48589364
 30
0.0
 10
-9.714928602
 20
25.4138755205
 30
0.0
 10
-9.7210589134
 20
25.3110030532
 30
0.0
 10
-9.7259633969
 20
25.2287018608
 30
0.0
 10
-9.7284156094
 20
25.1875516669
 30
0.0
  0
SPLINE
  5
4AB
100
AcDbEntity
  8
0
100
AcDbSpline
 62
250
  6
CONTINUOUS
 70
0
 71
3
 72
22
 73
18
 74
0
 42
0.0000001
 43
0.0000001
 44
0.0000000001
 40
0.0
 40
0.0
 40
0.0
 40
0.0
 40
0.25
 40
0.375
 40
0.5
 40
0.5625
 40
0.625
 40
0.6875
 40
0.75
 40
0.78125
 40
0.796875
 40
0.8125
 40
0.828125
 40
0.84375
 40
0.875
 40
0.9375
 40
1.0
 40
1.0
 40
1.0
 40
1.0
 10
-11.0807596394
 20
28.4313545237
 30
0.0
 10
-11.0953368119
 20
28.224823367
 30
0.0
 10
-11.1172147991
 20
27.9150194806
 30
0.0
 10
-11.1452583231
 20
27.5024951992
 30
0.0
 10
-11.1619889184
 20
27.245040398
 30
0.0
 10
-11.1754099959
 20
27.039091737
 30
0.0
 10
-11.185304705
 20
26.8846227193
 30
0.0
 10
-11.1947866974
 20
26.7307042019
 30
0.0
 10
-11.2028581476
 20
26.6012700411
 30
0.0
 10
-11.2083321676
 20
26.512879617
 30
0.0
 10
-11.2117109479
 20
26.4589268705
 30
0.0
 10
-11.2135430109
 20
26.4281616835
 30
0.0
 10
-11.2153840597
 20
26.3972730895
 30
0.0
 10
-11.2178356569
 20
26.356131344
 30
0.0
 10
-11.2221274132
 20
26.2841132245
 30
0.0
 10
-11.2282577246
 20
26.1812407571
 30
0.0
 10
-11.2331622081
 20
26.0989395648
 30
0.0
 10
-11.2356144206
 20
26.0577893709
 30
0.0
  0
SPLINE
  5
4AC
100
AcDbEntity
  8
0
100
AcDbSpline
 62
250
  6
CONTINUOUS
 70
0
 71
3
 72
22
 73
18
 74
0
 42
0.0000001
 43
0.0000001
 44
0.0000000001
 40
0.0
 40
0.0
 40
0.0
 40
0.0
 40
0.25
 40
0.375
 40
0.5
 40
0.5625
 40
0.625
 40
0.6875
 40
0.75
 40
0.78125
 40
0.796875
 40
0.8125
 40
0.828125
 40
0.84375
 40
0.875
 40
0.9375
 40
1.0
 40
1.0
 40
1.0
 40
1.0
 10
-13.200259183
 20
29.6551269967
 30
0.0
 10
-13.2148363555
 20
29.4485958399
 30
0.0
 10
-13.2367143427
 20
29.1387919535
 30
0.0
 10
-13.2647578667
 20
28.7262676721
 30
0.0
 10
-13.281488462
 20
28.4688128709
 30
0.0
 10
-13.2949095395
 20
28.2628642099
 30
0.0
 10
-13.3048042486
 20
28.1083951922
 30
0.0
 10
-13.314286241
 20
27.9544766749
 30
0.0
 10
-13.3223576912
 20
27.825042514
 30
0.0
 10
-13.3278317112
 20
27.7366520899
 30
0.0
 10
-13.3312104915
 20
27.6826993434
 30
0.0
 10
-13.3330425545
 20
27.6519341564
 30
0.0
 10
-13.3348836033
 20
27.6210455624
 30
0.0
 10
-13.3373352005
 20
27.5799038169
 30
0.0
 10
-13.3416269568
 20
27.5078856974
 30
0.0
 10
-13.3477572682
 20
27.40501323
 30
0.0
 10
-13.3526617517
 20
27.3227120377
 30
0.0
 10
-13.3551139642
 20
27.2815618438
 30
0.0
  0
SPLINE
  5
4AD
100
AcDbEntity
  8
0
100
AcDbSpline
 62
250
  6
CONTINUOUS
 70
0
 71
3
 72
22
 73
18
 74
0
 42
0.0000001
 43
0.0000001
 44
0.0000000001
 40
0.0
 40
0.0
 40
0.0
 40
0.0
 40
0.25
 40
0.375
 40
0.5
 40
0.5625
 40
0.625
 40
0.6875
 40
0.75
 40
0.78125
 40
0.796875
 40
0.8125
 40
0.828125
 40
0.84375
 40
0.875
 40
0.9375
 40
1.0
 40
1.0
 40
1.0
 40
1.0
 10
-12.2111596317
 20
29.0840333121
 30
0.0
 10
-12.2257368042
 20
28.8775021553
 30
0.0
 10
-12.2476147914
 20
28.5676982689
 30
0.0
 10
-12.2756583154
 20
28.1551739875
 30
0.0
 10
-12.2923889106
 20
27.8977191863
 30
0.0
 10
-12.3058099882
 20
27.6917705253
 30
0.0
 10
-12.3157046973
 20
27.5373015076
 30
0.0
 10
-12.3251866897
 20
27.3833829903
 30
0.0
 10
-12.3332581399
 20
27.2539488294
 30
0.0
 10
-12.3387321599
 20
27.1655584053
 30
0.0
 10
-12.3421109402
 20
27.1116056588
 30
0.0
 10
-12.3439430032
 20
27.0808404718
 30
0.0
 10
-12.3457840519
 20
27.0499518778
 30
0.0
 10
-12.3482356492
 20
27.0088101323
 30
0.0
 10
-12.3525274055
 20
26.9367920128
 30
0.0
 10
-12.3586577169
 20
26.8339195454
 30
0.0
 10
-12.3635622004
 20
26.7516183531
 30
0.0
 10
-12.3660144129
 20
26.7104681592
 30
0.0
  0
ELLIPSE
  5
4AE
100
AcDbEntity
  8
RACCORDO
100
AcDbEllipse
 62
7
  6
CONTINUOUS
 10
33.9211983425
 20
-52.9990541898
 30
0.0
 11
-0.5013954353
 21
0.868386877
 31
0.0
 40
0.5757524875
 41
-3.1936911674
 42
-2.3576120761
  0
ELLIPSE
  5
4AF
100
AcDbEntity
  8
RACCORDO
100
AcDbEllipse
 62
7
  6
CONTINUOUS
 10
33.9211983425
 20
18.8480892086
 30
0.0
 11
-0.5000243598
 21
0.8660113392
 31
0.0
 40
0.5789151826
 41
-2.3548735497
 42
-0.7868162787
  0
ELLIPSE
  5
4B0
100
AcDbEntity
  8
0
100
AcDbEllipse
 62
7
  6
CONTINUOUS
 10
117.7120702488
 20
55.2212352151
 30
0.0
 11
114.8996317544
 21
126.3505868295
 31
0.0
 40
0.3765254089
 41
-3.7743605251
 42
-3.7575864559
  0
ELLIPSE
  5
4B1
100
AcDbEntity
  8
0
100
AcDbEllipse
 62
7
  6
CONTINUOUS
 10
111.5213474795
 20
58.7956809541
 30
0.0
 11
34.8790515577
 21
168.2218372011
 31
0.0
 40
0.7002280922
 41
-4.083553027
 42
-4.0720093448
  0
ELLIPSE
  5
4B2
100
AcDbEntity
  8
0
100
AcDbEllipse
 62
7
  6
CONTINUOUS
 10
116.9681367907
 20
55.6507730701
 30
0.0
 11
91.793176838
 21
140.2511436908
 31
0.0
 40
0.5363054271
 41
-3.8203221232
 42
-3.8093664661
  0
ELLIPSE
  5
4B3
100
AcDbEntity
  8
0
100
AcDbEllipse
 62
7
  6
CONTINUOUS
 10
120.8380036204
 20
53.4163604635
 30
0.0
 11
119.630873242
 21
123.5739552196
 31
0.0
 40
0.3382731367
 41
-3.7657029519
 42
-3.7547929514
  0
ELLIPSE
  5
4B4
100
AcDbEntity
  8
0
100
AcDbEllipse
 62
7
  6
CONTINUOUS
 10
116.8979031082
 20
55.6913251182
 30
0.0
 11
70.634700218
 21
152.2499801326
 31
0.0
 40
0.6282888553
 41
-3.9123018102
 42
-3.8955277411
  0
ELLIPSE
  5
4B5
100
AcDbEntity
  8
0
100
AcDbEllipse
 62
7
  6
CONTINUOUS
 10
113.334518629
 20
57.7487786567
 30
0.0
 11
11.1145125674
 21
175.7752122584
 31
0.0
 40
0.7158559188
 41
-4.1973507117
 42
-4.188040463
  0
ELLIPSE
  5
4B6
100
AcDbEntity
  8
0
100
AcDbEllipse
 62
7
  6
CONTINUOUS
 10
121.4759759009
 20
53.0480032644
 30
0.0
 11
112.236268736
 21
127.9318388222
 31
0.0
 40
0.3975597956
 41
-3.7637364601
 42
-3.7603859388
  0
ELLIPSE
  5
4B7
100
AcDbEntity
  8
0
100
AcDbEllipse
 62
7
  6
CONTINUOUS
 10
116.5305624813
 20
55.9034229922
 30
0.0
 11
27.6951435486
 21
170.7397539322
 31
0.0
 40
0.7069483398
 41
-4.1183397783
 42
-4.1015657091
  0
ELLIPSE
  5
4B8
100
AcDbEntity
  8
0
100
AcDbEllipse
 62
7
  6
CONTINUOUS
 10
121.3906108845
 20
53.097291955
 30
0.0
 11
111.5409348807
 21
128.3466174189
 31
0.0
 40
0.4029729773
 41
-3.7734299492
 42
-3.7672052666
  0
ELLIPSE
  5
4B9
100
AcDbEntity
  8
DRAFT
100
AcDbEllipse
 62
7
  6
CONTINUOUS
 10
30.4208423225
 20
-12.5727078323
 30
0.0
 11
5.1478346794
 21
0.9575482268
 31
0.0
 40
0.6665647798
 41
-0.7006982462
 42
-0.2750682551
  0
ELLIPSE
  5
4BA
100
AcDbEntity
  8
0
100
AcDbEllipse
 62
7
  6
CONTINUOUS
 10
-14.0188947107
 20
-8.7450805881
 30
0.0
 11
-0.4000194878
 21
0.6928090714
 31
0.0
 40
0.5789151826
 41
0.7867191038
 42
2.3547763749
  0
ELLIPSE
  5
4BB
100
AcDbEntity
  8
RACCORDO
100
AcDbEllipse
 62
7
  6
CONTINUOUS
 10
-28.3022576116
 20
54.7751328334
 30
0.0
 11
-0.5013954353
 21
0.868386877
 31
0.0
 40
0.5757524875
 41
-0.7840766935
 42
0.0520985859
  0
ELLIPSE
  5
4BC
100
AcDbEntity
  8
0
100
AcDbEllipse
 62
7
  6
CONTINUOUS
 10
116.9971638862
 20
55.634013189
 30
0.0
 11
111.9792925869
 21
128.0850400428
 31
0.0
 40
0.3995644544
 41
-3.7774770381
 42
-3.7659333559
  0
ELLIPSE
  5
4BD
100
AcDbEntity
  8
0
100
AcDbEllipse
 62
7
  6
CONTINUOUS
 10
110.7366622199
 20
59.2487483886
 30
0.0
 11
25.1749394473
 21
171.5727221992
 31
0.0
 40
0.7088651675
 41
-4.1304804737
 42
-4.1137064045
  0
ELLIPSE
  5
4BE
100
AcDbEntity
  8
0
100
AcDbEllipse
 62
7
  6
CONTINUOUS
 10
116.7934589343
 20
55.7516298751
 30
0.0
 11
94.077182749
 21
138.8827821588
 31
0.0
 40
0.5232362147
 41
-3.8185477191
 42
-3.8017736499
  0
ELLIPSE
  5
4BF
100
AcDbEntity
  8
DRAFT
100
AcDbEllipse
 62
7
  6
CONTINUOUS
 10
30.4208423225
 20
-17.9794870032
 30
0.0
 11
5.1774686765
 21
-0.6785096723
 31
0.0
 40
0.4693271057
 41
-0.5159119978
 42
-0.0902820066
  0
ELLIPSE
  5
4C0
100
AcDbEntity
  8
0
100
AcDbEllipse
 62
7
  6
CONTINUOUS
 10
112.94450493
 20
57.9739676785
 30
0.0
 11
10.3267110211
 21
175.9897840662
 31
0.0
 40
0.7160762854
 41
-4.1952272933
 42
-4.1842716361
  0
ELLIPSE
  5
4C1
100
AcDbEntity
  8
0
100
AcDbEllipse
 62
7
  6
CONTINUOUS
 10
116.7790152457
 20
55.7599694799
 30
0.0
 11
74.7936860181
 21
150.0170875047
 31
0.0
 40
0.6139811386
 41
-3.8878369839
 42
-3.8769269833
  0
ELLIPSE
  5
4C2
100
AcDbEntity
  8
0
100
AcDbEllipse
 62
7
  6
CONTINUOUS
 10
120.4210814758
 20
53.6570860845
 30
0.0
 11
119.1887867979
 21
123.8315627285
 31
0.0
 40
0.3418816387
 41
-3.7717111746
 42
-3.7624009259
  0
ELLIPSE
  5
4C3
100
AcDbEntity
  8
0
100
AcDbEllipse
 62
7
  6
CONTINUOUS
 10
121.3275752009
 20
53.1336879686
 30
0.0
 11
114.2761852079
 21
126.7196181975
 31
0.0
 40
0.3814884295
 41
-3.7749362596
 42
-3.7581621904
  0
ELLIPSE
  5
4C4
100
AcDbEntity
  8
0
100
AcDbEllipse
 62
7
  6
CONTINUOUS
 10
116.587379992
 20
55.8706172737
 30
0.0
 11
39.1098980172
 21
166.4730536049
 31
0.0
 40
0.6952787603
 41
-4.0581356351
 42
-4.0519053363
  0
ELLIPSE
  5
4C5
100
AcDbEntity
  8
0
100
AcDbEllipse
 62
7
  6
CONTINUOUS
 10
116.4673851851
 20
55.9399007713
 30
0.0
 11
36.2622945329
 21
167.5495560783
 31
0.0
 40
0.6986691259
 41
-4.0631746043
 42
-4.0598210564
  0
ELLIPSE
  5
4C6
100
AcDbEntity
  8
0
100
AcDbEllipse
 62
7
  6
CONTINUOUS
 10
121.3275752009
 20
53.1336879686
 30
0.0
 11
114.1738075272
 21
126.6060927015
 31
0.0
 40
0.3814884295
 41
-3.7738993826
 42
-3.7580834622
  0
ELLIPSE
  5
4C7
100
AcDbEntity
  8
0
100
AcDbEllipse
 62
7
  6
CONTINUOUS
 10
112.94450493
 20
57.9739676785
 30
0.0
 11
10.3174595334
 21
175.8321184433
 31
0.0
 40
0.7160762854
 41
-4.1951584555
 42
-4.1843498231
  0
ELLIPSE
  5
4C8
100
AcDbEntity
  8
0
100
AcDbEllipse
 62
7
  6
CONTINUOUS
 10
116.7790152457
 20
55.7599694799
 30
0.0
 11
74.7266798953
 21
149.8826902858
 31
0.0
 40
0.6139811386
 41
-3.8877681049
 42
-3.8768482551
  0
ELLIPSE
  5
4C9
100
AcDbEntity
  8
0
100
AcDbEllipse
 62
7
  6
CONTINUOUS
 10
120.4210814758
 20
53.6570860845
 30
0.0
 11
119.0820080186
 21
123.7206245819
 31
0.0
 40
0.3418816387
 41
-3.7706748267
 42
-3.7623289378
  0
ELLIPSE
  5
4CA
100
AcDbEntity
  8
0
100
AcDbEllipse
 62
7
  6
CONTINUOUS
 10
116.7934589343
 20
55.7516298751
 30
0.0
 11
93.9929009386
 21
138.7583599347
 31
0.0
 40
0.5232362147
 41
-3.817510829
 42
-3.8016949217
  0
ELLIPSE
  5
4CB
100
AcDbEntity
  8
0
100
AcDbEllipse
 62
7
  6
CONTINUOUS
 10
116.9971638862
 20
55.634013189
 30
0.0
 11
111.878972645
 21
127.9702912935
 31
0.0
 40
0.3995644544
 41
-3.7764400576
 42
-3.7658593517
  0
ELLIPSE
  5
4CC
100
AcDbEntity
  8
0
100
AcDbEllipse
 62
7
  6
CONTINUOUS
 10
110.7366622199
 20
59.2487483886
 30
0.0
 11
25.1523857375
 21
171.4190137311
 31
0.0
 40
0.7088651675
 41
-4.129443597
 42
-4.1136276763
  0
ELLIPSE
  5
4CD
100
AcDbEntity
  8
0
100
AcDbEllipse
 62
7
  6
CONTINUOUS
 10
116.4673851851
 20
55.9399007713
 30
0.0
 11
36.2948103059
 21
167.6997948705
 31
0.0
 40
0.6986691259
 41
-4.0632503059
 42
-4.0598997846
  0
ELLIPSE
  5
4CE
100
AcDbEntity
  8
0
100
AcDbEllipse
 62
7
  6
CONTINUOUS
 10
116.587379992
 20
55.8706172737
 30
0.0
 11
39.144967187
 21
166.622327116
 31
0.0
 40
0.6952787603
 41
-4.0582033802
 42
-4.0519786976
  0
ELLIPSE
  5
4CF
100
AcDbEntity
  8
ASSI
100
AcDbEllipse
 62
7
  6
CONTINUOUS
 10
33.9211983425
 20
-52.9990541898
 30
0.0
 11
-0.5013954353
 21
0.868386877
 31
0.0
 40
0.5757524875
 41
-3.1936911674
 42
-2.3576120761
  0
ELLIPSE
  5
4D0
100
AcDbEntity
  8
ASSI
100
AcDbEllipse
 62
7
  6
CONTINUOUS
 10
33.9211983425
 20
18.8480892086
 30
0.0
 11
-0.5000243598
 21
0.8660113392
 31
0.0
 40
0.5789151826
 41
-2.3548735497
 42
-0.7868162787
  0
ELLIPSE
  5
4D1
100
AcDbEntity
  8
ASSI
100
AcDbEllipse
 62
7
  6
CONTINUOUS
 10
117.7120702488
 20
55.2212352151
 30
0.0
 11
114.8996317544
 21
126.3505868295
 31
0.0
 40
0.3765254089
 41
-3.7743605251
 42
-3.7575864559
  0
ELLIPSE
  5
4D2
100
AcDbEntity
  8
ASSI
100
AcDbEllipse
 62
7
  6
CONTINUOUS
 10
111.5213474795
 20
58.7956809541
 30
0.0
 11
34.8790515577
 21
168.2218372011
 31
0.0
 40
0.7002280922
 41
-4.083553027
 42
-4.0720093448
  0
ELLIPSE
  5
4D3
100
AcDbEntity
  8
ASSI
100
AcDbEllipse
 62
7
  6
CONTINUOUS
 10
116.9681367907
 20
55.6507730701
 30
0.0
 11
91.793176838
 21
140.2511436908
 31
0.0
 40
0.5363054271
 41
-3.8203221232
 42
-3.8093664661
  0
ELLIPSE
  5
4D4
100
AcDbEntity
  8
ASSI
100
AcDbEllipse
 62
7
  6
CONTINUOUS
 10
120.8380036204
 20
53.4163604635
 30
0.0
 11
119.630873242
 21
123.5739552196
 31
0.0
 40
0.3382731367
 41
-3.7657029519
 42
-3.7547929514
  0
ELLIPSE
  5
4D5
100
AcDbEntity
  8
ASSI
100
AcDbEllipse
 62
7
  6
CONTINUOUS
 10
116.8979031082
 20
55.6913251182
 30
0.0
 11
70.634700218
 21
152.2499801326
 31
0.0
 40
0.6282888553
 41
-3.9123018102
 42
-3.8955277411
  0
ELLIPSE
  5
4D6
100
AcDbEntity
  8
ASSI
100
AcDbEllipse
 62
7
  6
CONTINUOUS
 10
113.334518629
 20
57.7487786567
 30
0.0
 11
11.1145125674
 21
175.7752122584
 31
0.0
 40
0.7158559188
 41
-4.1973507117
 42
-4.188040463
  0
ELLIPSE
  5
4D7
100
AcDbEntity
  8
ASSI
100
AcDbEllipse
 62
7
  6
CONTINUOUS
 10
121.4759759009
 20
53.0480032644
 30
0.0
 11
112.236268736
 21
127.9318388222
 31
0.0
 40
0.3975597956
 41
-3.7637364601
 42
-3.7603859388
  0
ELLIPSE
  5
4D8
100
AcDbEntity
  8
ASSI
100
AcDbEllipse
 62
7
  6
CONTINUOUS
 10
116.5305624813
 20
55.9034229922
 30
0.0
 11
27.6951435486
 21
170.7397539322
 31
0.0
 40
0.7069483398
 41
-4.1183397783
 42
-4.1015657091
  0
ELLIPSE
  5
4D9
100
AcDbEntity
  8
ASSI
100
AcDbEllipse
 62
7
  6
CONTINUOUS
 10
121.3906108845
 20
53.097291955
 30
0.0
 11
111.5409348807
 21
128.3466174189
 31
0.0
 40
0.4029729773
 41
-3.7734299492
 42
-3.7672052666
  0
ELLIPSE
  5
4DA
100
AcDbEntity
  8
ASSI
100
AcDbEllipse
 62
7
  6
CONTINUOUS
 10
30.4208423225
 20
-12.5727078323
 30
0.0
 11
5.1478346794
 21
0.9575482268
 31
0.0
 40
0.6665647798
 41
-0.7006982462
 42
-0.2750682551
  0
ELLIPSE
  5
4DB
100
AcDbEntity
  8
ASSI
100
AcDbEllipse
 62
7
  6
CONTINUOUS
 10
-14.0188947107
 20
-8.7450805881
 30
0.0
 11
-0.4000194878
 21
0.6928090714
 31
0.0
 40
0.5789151826
 41
0.7867191038
 42
2.3547763749
  0
ELLIPSE
  5
4DC
100
AcDbEntity
  8
ASSI
100
AcDbEllipse
 62
7
  6
CONTINUOUS
 10
-28.3022576116
 20
54.7751328334
 30
0.0
 11
-0.5013954353
 21
0.868386877
 31
0.0
 40
0.5757524875
 41
-0.7840766935
 42
0.0520985859
  0
ELLIPSE
  5
4DD
100
AcDbEntity
  8
ASSI
100
AcDbEllipse
 62
7
  6
CONTINUOUS
 10
116.587379992
 20
55.8706172737
 30
0.0
 11
39.1098980172
 21
166.4730536049
 31
0.0
 40
0.6952787603
 41
-4.0581356351
 42
-4.0519053363
  0
ELLIPSE
  5
4DE
100
AcDbEntity
  8
ASSI
100
AcDbEllipse
 62
7
  6
CONTINUOUS
 10
116.4673851851
 20
55.9399007713
 30
0.0
 11
36.2622945329
 21
167.5495560783
 31
0.0
 40
0.6986691259
 41
-4.0631746043
 42
-4.0598210564
  0
ELLIPSE
  5
4DF
100
AcDbEntity
  8
ASSI
100
AcDbEllipse
 62
7
  6
CONTINUOUS
 10
121.3275752009
 20
53.1336879686
 30
0.0
 11
114.1738075272
 21
126.6060927015
 31
0.0
 40
0.3814884295
 41
-3.7738993826
 42
-3.7580834622
  0
ELLIPSE
  5
4E0
100
AcDbEntity
  8
ASSI
100
AcDbEllipse
 62
7
  6
CONTINUOUS
 10
112.94450493
 20
57.9739676785
 30
0.0
 11
10.3174595334
 21
175.8321184433
 31
0.0
 40
0.7160762854
 41
-4.1951584555
 42
-4.1843498231
  0
ELLIPSE
  5
4E1
100
AcDbEntity
  8
ASSI
100
AcDbEllipse
 62
7
  6
CONTINUOUS
 10
116.7790152457
 20
55.7599694799
 30
0.0
 11
74.7266798953
 21
149.8826902858
 31
0.0
 40
0.6139811386
 41
-3.8877681049
 42
-3.8768482551
  0
ELLIPSE
  5
4E2
100
AcDbEntity
  8
ASSI
100
AcDbEllipse
 62
7
  6
CONTINUOUS
 10
120.4210814758
 20
53.6570860845
 30
0.0
 11
119.0820080186
 21
123.7206245819
 31
0.0
 40
0.3418816387
 41
-3.7706748267
 42
-3.7623289378
  0
ELLIPSE
  5
4E3
100
AcDbEntity
  8
ASSI
100
AcDbEllipse
 62
7
  6
CONTINUOUS
 10
116.7934589343
 20
55.7516298751
 30
0.0
 11
93.9929009386
 21
138.7583599347
 31
0.0
 40
0.5232362147
 41
-3.817510829
 42
-3.8016949217
  0
ELLIPSE
  5
4E4
100
AcDbEntity
  8
ASSI
100
AcDbEllipse
 62
7
  6
CONTINUOUS
 10
116.9971638862
 20
55.634013189
 30
0.0
 11
111.878972645
 21
127.9702912935
 31
0.0
 40
0.3995644544
 41
-3.7764400576
 42
-3.7658593517
  0
ELLIPSE
  5
4E5
100
AcDbEntity
  8
ASSI
100
AcDbEllipse
 62
7
  6
CONTINUOUS
 10
110.7366622199
 20
59.2487483886
 30
0.0
 11
25.1523857375
 21
171.4190137311
 31
0.0
 40
0.7088651675
 41
-4.129443597
 42
-4.1136276763
  0
ELLIPSE
  5
4E6
100
AcDbEntity
  8
ASSI
100
AcDbEllipse
 62
7
  6
CONTINUOUS
 10
116.9971638862
 20
55.634013189
 30
0.0
 11
111.9792925869
 21
128.0850400428
 31
0.0
 40
0.3995644544
 41
-3.7774770381
 42
-3.7659333559
  0
ELLIPSE
  5
4E7
100
AcDbEntity
  8
ASSI
100
AcDbEllipse
 62
7
  6
CONTINUOUS
 10
110.7366622199
 20
59.2487483886
 30
0.0
 11
25.1749394473
 21
171.5727221992
 31
0.0
 40
0.7088651675
 41
-4.1304804737
 42
-4.1137064045
  0
ELLIPSE
  5
4E8
100
AcDbEntity
  8
ASSI
100
AcDbEllipse
 62
7
  6
CONTINUOUS
 10
116.7934589343
 20
55.7516298751
 30
0.0
 11
94.077182749
 21
138.8827821588
 31
0.0
 40
0.5232362147
 41
-3.8185477191
 42
-3.8017736499
  0
ELLIPSE
  5
4E9
100
AcDbEntity
  8
ASSI
100
AcDbEllipse
 62
7
  6
CONTINUOUS
 10
112.94450493
 20
57.9739676785
 30
0.0
 11
10.3267110211
 21
175.9897840662
 31
0.0
 40
0.7160762854
 41
-4.1952272933
 42
-4.1842716361
  0
ELLIPSE
  5
4EA
100
AcDbEntity
  8
ASSI
100
AcDbEllipse
 62
7
  6
CONTINUOUS
 10
116.7790152457
 20
55.7599694799
 30
0.0
 11
74.7936860181
 21
150.0170875047
 31
0.0
 40
0.6139811386
 41
-3.8878369839
 42
-3.8769269833
  0
ELLIPSE
  5
4EB
100
AcDbEntity
  8
ASSI
100
AcDbEllipse
 62
7
  6
CONTINUOUS
 10
120.4210814758
 20
53.6570860845
 30
0.0
 11
119.1887867979
 21
123.8315627285
 31
0.0
 40
0.3418816387
 41
-3.7717111746
 42
-3.7624009259
  0
ELLIPSE
  5
4EC
100
AcDbEntity
  8
ASSI
100
AcDbEllipse
 62
7
  6
CONTINUOUS
 10
121.3275752009
 20
53.1336879686
 30
0.0
 11
114.2761852079
 21
126.7196181975
 31
0.0
 40
0.3814884295
 41
-3.7749362596
 42
-3.7581621904
  0
ELLIPSE
  5
4ED
100
AcDbEntity
  8
ASSI
100
AcDbEllipse
 62
7
  6
CONTINUOUS
 10
116.4673851851
 20
55.9399007713
 30
0.0
 11
36.2948103059
 21
167.6997948705
 31
0.0
 40
0.6986691259
 41
-4.0632503059
 42
-4.0598997846
  0
ELLIPSE
  5
4EE
100
AcDbEntity
  8
ASSI
100
AcDbEllipse
 62
7
  6
CONTINUOUS
 10
116.587379992
 20
55.8706172737
 30
0.0
 11
39.144967187
 21
166.622327116
 31
0.0
 40
0.6952787603
 41
-4.0582033802
 42
-4.0519786976
  0
ELLIPSE
  5
4EF
100
AcDbEntity
  8
ASSI
100
AcDbEllipse
 62
7
  6
CONTINUOUS
 10
30.4208423225
 20
-17.9794870032
 30
0.0
 11
5.1774686765
 21
-0.6785096723
 31
0.0
 40
0.4693271057
 41
-0.5159119978
 42
-0.0902820066
  0
ELLIPSE
  5
4F0
100
AcDbEntity
  8
0
100
AcDbEllipse
 62
250
  6
CONTINUOUS
 10
117.4873036697
 20
78.593706793
 30
0.0
 11
93.7812156846
 21
139.0605475051
 31
0.0
 40
0.5249666948
 41
-3.9768082786
 42
-3.9746674414
  0
ELLIPSE
  5
4F1
100
AcDbEntity
  8
0
100
AcDbEllipse
 62
250
  6
CONTINUOUS
 10
116.250909163
 20
79.3075854855
 30
0.0
 11
93.7814245244
 21
139.060422114
 31
0.0
 40
0.5249654776
 41
-3.9746667623
 42
-3.9700295996
  0
ELLIPSE
  5
4F2
100
AcDbEntity
  8
0
100
AcDbEllipse
 62
250
  6
CONTINUOUS
 10
117.3224255555
 20
78.6889053497
 30
0.0
 11
93.7815115889
 21
139.060369839
 31
0.0
 40
0.5249649702
 41
-3.9700293165
 42
-3.967889672
  0
ELLIPSE
  5
4F3
100
AcDbEntity
  8
0
100
AcDbEllipse
 62
250
  6
CONTINUOUS
 10
116.2509171725
 20
79.3075808609
 30
0.0
 11
93.7813298849
 21
139.0604789373
 31
0.0
 40
0.5249660292
 41
-3.9678902629
 42
-3.962186259
  0
ELLIPSE
  5
4F4
100
AcDbEntity
  8
0
100
AcDbEllipse
 62
250
  6
CONTINUOUS
 10
117.4872766386
 20
78.5937224004
 30
0.0
 11
93.7815115889
 21
139.060369839
 31
0.0
 40
0.5249649702
 41
-3.9621856681
 42
-3.9600472797
  0
ELLIPSE
  5
4F5
100
AcDbEntity
  8
0
100
AcDbEllipse
 62
250
  6
CONTINUOUS
 10
116.0036340207
 20
79.4503590536
 30
0.0
 11
93.7814256506
 21
139.0604214378
 31
0.0
 40
0.524965471
 41
-3.9768075958
 42
-3.9600475592
  0
ELLIPSE
  5
4F6
100
AcDbEntity
  8
0
100
AcDbEllipse
 62
250
  6
CONTINUOUS
 10
114.1078643746
 20
80.5449526876
 30
0.0
 11
93.7813828721
 21
139.0604471228
 31
0.0
 40
0.5249657204
 41
-3.9768077349
 42
-3.9750236747
  0
ELLIPSE
  5
4F7
100
AcDbEntity
  8
0
100
AcDbEllipse
 62
250
  6
CONTINUOUS
 10
115.6739383107
 20
79.6407212245
 30
0.0
 11
93.7813828721
 21
139.0604471228
 31
0.0
 40
0.5249657204
 41
-3.9768077349
 42
-3.9750236747
  0
ELLIPSE
  5
4F8
100
AcDbEntity
  8
0
100
AcDbEllipse
 62
250
  6
CONTINUOUS
 10
115.014538079
 20
80.021450654
 30
0.0
 11
93.7813884713
 21
139.060443761
 31
0.0
 40
0.5249656877
 41
-3.9750236565
 42
-3.9600476801
  0
ELLIPSE
  5
4F9
100
AcDbEntity
  8
0
100
AcDbEllipse
 62
250
  6
CONTINUOUS
 10
114.7672595375
 20
80.1642261847
 30
0.0
 11
93.7814307433
 21
139.0604183801
 31
0.0
 40
0.5249654414
 41
-3.9750235191
 42
-3.9600475426
  0
ELLIPSE
  5
4FA
100
AcDbEntity
  8
0
100
AcDbEllipse
 62
250
  6
CONTINUOUS
 10
62.7535649012
 20
110.196281583
 30
0.0
 11
600.9514462195
 21
-191.7993213141
 31
0.0
 40
0.1620323673
 41
-1.631022249
 42
-1.6306654175
  0
ELLIPSE
  5
4FB
100
AcDbEntity
  8
0
100
AcDbEllipse
 62
250
  6
CONTINUOUS
 10
163.278095989
 20
52.1546772012
 30
0.0
 11
575.9883410307
 21
-459.7029806262
 31
0.0
 40
0.1731119233
 41
-1.7250518019
 42
-1.7246949703
  0
ELLIPSE
  5
4FC
100
AcDbEntity
  8
0
100
AcDbEllipse
 62
250
  6
CONTINUOUS
 10
133.3554191131
 20
69.4316558101
 30
0.0
 11
-230.283473573
 21
258.2516823488
 31
0.0
 40
0.388116916
 41
1.4042956861
 42
1.4050093222
  0
ELLIPSE
  5
4FD
100
AcDbEntity
  8
0
100
AcDbEllipse
 62
250
  6
CONTINUOUS
 10
123.4638076885
 20
75.1429482757
 30
0.0
 11
-101.7158281359
 21
199.7500508451
 31
0.0
 40
0.6093591253
 41
1.5174569474
 42
1.5188840831
  0
ELLIPSE
  5
4FE
100
AcDbEntity
  8
0
100
AcDbEllipse
 62
250
  6
CONTINUOUS
 10
115.6823072404
 20
79.6358891093
 30
0.0
 11
68.2785985895
 21
153.4823126798
 31
0.0
 40
0.6356954522
 41
-4.0778745832
 42
-4.0760908998
  0
ELLIPSE
  5
4FF
100
AcDbEntity
  8
0
100
AcDbEllipse
 62
250
  6
CONTINUOUS
 10
116.7044521267
 20
79.0457154625
 30
0.0
 11
43.5084879569
 21
164.902888116
 31
0.0
 40
0.6893966054
 41
-4.1956584687
 42
-4.1945882917
  0
ELLIPSE
  5
500
100
AcDbEntity
  8
0
100
AcDbEllipse
 62
250
  6
CONTINUOUS
 10
127.9561957601
 20
72.549099706
 30
0.0
 11
-170.0841982385
 21
226.799782346
 31
0.0
 40
0.4795811407
 41
1.4291115819
 42
1.4298250883
  0
ELLIPSE
  5
501
100
AcDbEntity
  8
0
100
AcDbEllipse
 62
250
  6
CONTINUOUS
 10
152.2736613757
 20
58.508499829
 30
0.0
 11
461.0244427499
 21
-392.1335419887
 31
0.0
 40
0.2133863435
 41
-1.7310568387
 42
-1.7307000725
  0
ELLIPSE
  5
502
100
AcDbEntity
  8
0
100
AcDbEllipse
 62
250
  6
CONTINUOUS
 10
73.7578279223
 20
103.8425580304
 30
0.0
 11
488.0738691873
 21
-120.9774792929
 31
0.0
 40
0.1923204037
 41
-1.6838915183
 42
-1.6835347521
  0
ELLIPSE
  5
503
100
AcDbEntity
  8
0
100
AcDbEllipse
 62
250
  6
CONTINUOUS
 10
98.0752246943
 20
89.8019979029
 30
0.0
 11
218.7221939969
 21
64.4788583997
 31
0.0
 40
0.1731833699
 41
-2.1096549856
 42
-2.1089414792
  0
ELLIPSE
  5
504
100
AcDbEntity
  8
0
100
AcDbEllipse
 62
250
  6
CONTINUOUS
 10
106.1122041816
 20
85.1615466739
 30
0.0
 11
146.6647555962
 21
108.3636281683
 31
0.0
 40
0.1263825083
 41
2.3279532215
 42
2.3290233985
  0
ELLIPSE
  5
505
100
AcDbEntity
  8
0
100
AcDbEllipse
 62
250
  6
CONTINUOUS
 10
110.0791542891
 20
82.8710793994
 30
0.0
 11
115.7634381698
 21
125.8404559676
 31
0.0
 40
0.3696139229
 41
-3.9266637322
 42
-3.925236978
  0
ELLIPSE
  5
506
100
AcDbEntity
  8
0
100
AcDbEllipse
 62
250
  6
CONTINUOUS
 10
112.4181515122
 20
81.5205717173
 30
0.0
 11
93.7813932274
 21
139.0604409053
 31
0.0
 40
0.52496566
 41
-3.9710996602
 42
-3.9657507683
  0
ELLIPSE
  5
507
100
AcDbEntity
  8
0
100
AcDbEllipse
 62
250
  6
CONTINUOUS
 10
114.602553547
 20
80.2593253594
 30
0.0
 11
59.868152393
 21
157.6785405544
 31
0.0
 40
0.6584582487
 41
-4.1087558034
 42
-4.1073298058
  0
ELLIPSE
  5
508
100
AcDbEntity
  8
0
100
AcDbEllipse
 62
250
  6
CONTINUOUS
 10
118.1746300906
 20
78.1968531317
 30
0.0
 11
-38.3857388891
 21
186.2700464849
 31
0.0
 40
0.7004394024
 41
-4.5580361462
 42
-4.5569667455
  0
ELLIPSE
  5
509
100
AcDbEntity
  8
0
100
AcDbEllipse
 62
250
  6
CONTINUOUS
 10
125.2156486474
 20
74.1314572617
 30
0.0
 11
-170.0852683798
 21
226.8002976472
 31
0.0
 40
0.4795792654
 41
1.440165599
 42
1.4408784883
  0
ELLIPSE
  5
50A
100
AcDbEntity
  8
0
100
AcDbEllipse
 62
250
  6
CONTINUOUS
 10
146.1328136494
 20
62.0541483432
 30
0.0
 11
461.0224715011
 21
-392.132382677
 31
0.0
 40
0.2133871896
 41
-1.7189325996
 42
-1.7185761718
  0
ELLIPSE
  5
50B
100
AcDbEntity
  8
0
100
AcDbEllipse
 62
250
  6
CONTINUOUS
 10
79.8985277976
 20
100.2969948835
 30
0.0
 11
488.0738691873
 21
-120.9774792929
 31
0.0
 40
0.1923204037
 41
-1.6960155631
 42
-1.6956591353
  0
ELLIPSE
  5
50C
100
AcDbEntity
  8
0
100
AcDbEllipse
 62
250
  6
CONTINUOUS
 10
100.8158489139
 20
88.2195958266
 30
0.0
 11
218.7221939969
 21
64.4788583997
 31
0.0
 40
0.1731833699
 41
-2.1207090962
 42
-2.1199962069
  0
ELLIPSE
  5
50D
100
AcDbEntity
  8
0
100
AcDbEllipse
 62
250
  6
CONTINUOUS
 10
110.6732646859
 20
82.5280475022
 30
0.0
 11
122.1032431809
 21
122.1403601987
 31
0.0
 40
0.3180179059
 41
-3.9160145332
 42
-3.9149451326
  0
ELLIPSE
  5
50E
100
AcDbEntity
  8
0
100
AcDbEllipse
 62
250
  6
CONTINUOUS
 10
112.0635685925
 20
81.7253034511
 30
0.0
 11
111.8096486368
 21
128.1862343107
 31
0.0
 40
0.4008852251
 41
-3.9225097897
 42
-3.9207274998
  0
ELLIPSE
  5
50F
100
AcDbEntity
  8
0
100
AcDbEllipse
 62
250
  6
CONTINUOUS
 10
105.3701367075
 20
85.5900071331
 30
0.0
 11
173.0836582371
 21
93.3733779052
 31
0.0
 40
0.0279358986
 41
-2.2682121589
 42
-2.2667864963
  0
ELLIPSE
  5
510
100
AcDbEntity
  8
0
100
AcDbEllipse
 62
250
  6
CONTINUOUS
 10
97.1682315166
 20
90.3256843964
 30
0.0
 11
269.5162448436
 21
28.7278983642
 31
0.0
 40
0.230445878
 41
-1.9799069989
 42
-1.9791942188
  0
ELLIPSE
  5
511
100
AcDbEntity
  8
0
100
AcDbEllipse
 62
250
  6
CONTINUOUS
 10
72.8092963061
 20
104.3902282978
 30
0.0
 11
600.953393456
 21
-191.800521793
 31
0.0
 40
0.1620319101
 41
-1.6474247936
 42
-1.64706842
  0
ELLIPSE
  5
512
100
AcDbEntity
  8
0
100
AcDbEllipse
 62
250
  6
CONTINUOUS
 10
153.2220489239
 20
57.9609127447
 30
0.0
 11
575.9863670803
 21
-459.7018216395
 31
0.0
 40
0.173112487
 41
-1.708648271
 42
-1.7082918974
  0
ELLIPSE
  5
513
100
AcDbEntity
  8
0
100
AcDbEllipse
 62
250
  6
CONTINUOUS
 10
128.8632652138
 20
72.0253691717
 30
0.0
 11
-230.283473573
 21
258.2516823488
 31
0.0
 40
0.388116916
 41
1.4196297375
 42
1.4203425176
  0
ELLIPSE
  5
514
100
AcDbEntity
  8
0
100
AcDbEllipse
 62
250
  6
CONTINUOUS
 10
120.6613186856
 20
76.7610703025
 30
0.0
 11
-101.7151532253
 21
199.749854478
 31
0.0
 40
0.6093603887
 41
1.5306531618
 42
1.5320788243
  0
ELLIPSE
  5
515
100
AcDbEntity
  8
0
100
AcDbEllipse
 62
250
  6
CONTINUOUS
 10
116.4779086538
 20
79.1765188244
 30
0.0
 11
3.2071651049
 21
177.8377483001
 31
0.0
 40
0.7173128606
 41
-4.3786052693
 42
-4.3771794536
  0
ELLIPSE
  5
516
100
AcDbEntity
  8
0
100
AcDbEllipse
 62
250
  6
CONTINUOUS
 10
113.9184464662
 20
80.654320214
 30
0.0
 11
68.2779962659
 21
153.4826246162
 31
0.0
 40
0.6356972842
 41
-4.0693180253
 42
-4.0675355534
  0
ELLIPSE
  5
517
100
AcDbEntity
  8
0
100
AcDbEllipse
 62
250
  6
CONTINUOUS
 10
112.1708662763
 20
81.6633511133
 30
0.0
 11
93.7815115889
 21
139.060369839
 31
0.0
 40
0.5249649702
 41
-3.9710992753
 42
-3.9657503834
  0
ELLIPSE
  5
518
100
AcDbEntity
  8
0
100
AcDbEllipse
 62
250
  6
CONTINUOUS
 10
110.2997050504
 20
82.7437361539
 30
0.0
 11
111.809372219
 21
128.1863992339
 31
0.0
 40
0.4008873755
 41
-3.9310685038
 42
-3.9292850305
  0
ELLIPSE
  5
519
100
AcDbEntity
  8
0
100
AcDbEllipse
 62
250
  6
CONTINUOUS
 10
107.4310884878
 20
84.400039405
 30
0.0
 11
134.3545797076
 21
115.1945301141
 31
0.0
 40
0.2185155878
 41
2.3489917782
 42
2.3504187425
  0
ELLIPSE
  5
51A
100
AcDbEntity
  8
0
100
AcDbEllipse
 62
250
  6
CONTINUOUS
 10
102.5676889099
 20
87.2081053686
 30
0.0
 11
173.0836582371
 21
93.3733779052
 31
0.0
 40
0.0279358986
 41
-2.2550188794
 42
-2.2535917436
  0
ELLIPSE
  5
51B
100
AcDbEntity
  8
0
100
AcDbEllipse
 62
250
  6
CONTINUOUS
 10
92.6760000508
 20
92.9194425439
 30
0.0
 11
269.517141936
 21
28.7272518037
 31
0.0
 40
0.2304463284
 41
-1.9645715973
 42
-1.9638579612
  0
ELLIPSE
  5
51C
100
AcDbEntity
  8
0
100
AcDbEllipse
 62
250
  6
CONTINUOUS
 10
114.3004152818
 20
80.4337762071
 30
0.0
 11
43.5079433679
 21
164.9031080549
 31
0.0
 40
0.6893973944
 41
-4.1974449634
 42
-4.1878152968
  0
ELLIPSE
  5
51D
100
AcDbEntity
  8
0
100
AcDbEllipse
 62
250
  6
CONTINUOUS
 10
107.7334356824
 20
84.2254679241
 30
0.0
 11
122.1032906666
 21
122.1403327789
 31
0.0
 40
0.318017516
 41
-3.9270701973
 42
-3.9174405307
  0
ELLIPSE
  5
51E
100
AcDbEntity
  8
0
100
AcDbEllipse
 62
250
  6
CONTINUOUS
 10
114.5912441359
 20
80.2658552716
 30
0.0
 11
41.9779527662
 21
165.515720652
 31
0.0
 40
0.691558876
 41
-4.2063210484
 42
-4.1895610118
  0
ELLIPSE
  5
51F
100
AcDbEntity
  8
0
100
AcDbEllipse
 62
250
  6
CONTINUOUS
 10
114.286668422
 20
80.4417134716
 30
0.0
 11
43.5081816259
 21
164.9030118317
 31
0.0
 40
0.6893970492
 41
-4.1863881393
 42
-4.1821110332
  0
ELLIPSE
  5
520
100
AcDbEntity
  8
0
100
AcDbEllipse
 62
250
  6
CONTINUOUS
 10
107.7471667861
 20
84.2175397569
 30
0.0
 11
122.1033500238
 21
122.1402985041
 31
0.0
 40
0.3180170286
 41
-3.9160145329
 42
-3.9117374269
  0
ELLIPSE
  5
521
100
AcDbEntity
  8
0
100
AcDbEllipse
 62
250
  6
CONTINUOUS
 10
107.4426051975
 20
84.3933898011
 30
0.0
 11
122.6326329822
 21
121.8349435996
 31
0.0
 40
0.3136701383
 41
-3.9285124884
 42
-3.9117524518
  0
ELLIPSE
  5
522
100
AcDbEntity
  8
0
100
AcDbEllipse
 62
250
  6
CONTINUOUS
 10
136.1994846898
 20
67.7895279907
 30
0.0
 11
346.116982495
 21
-324.6682229078
 31
0.0
 40
0.2767051061
 41
-1.7315283578
 42
-1.7311717911
  0
ELLIPSE
  5
523
100
AcDbEntity
  8
0
100
AcDbEllipse
 62
250
  6
CONTINUOUS
 10
118.3946654996
 20
78.0698074443
 30
0.0
 11
-101.7157550301
 21
199.7500295746
 31
0.0
 40
0.6093592621
 41
1.5260174196
 42
1.5267305116
  0
ELLIPSE
  5
524
100
AcDbEntity
  8
0
100
AcDbEllipse
 62
250
  6
CONTINUOUS
 10
112.5145185845
 20
81.4649305775
 30
0.0
 11
43.5084879569
 21
164.902888116
 31
0.0
 40
0.6893966054
 41
-4.188525705
 42
-4.1874561335
  0
ELLIPSE
  5
525
100
AcDbEntity
  8
0
100
AcDbEllipse
 62
250
  6
CONTINUOUS
 10
109.6157422697
 20
83.1386476915
 30
0.0
 11
93.7809197788
 21
139.0607251721
 31
0.0
 40
0.5249684194
 41
-3.9653957958
 42
-3.9643263104
  0
ELLIPSE
  5
526
100
AcDbEntity
  8
0
100
AcDbEllipse
 62
250
  6
CONTINUOUS
 10
106.7580794923
 20
84.7886263642
 30
0.0
 11
122.1032431809
 21
122.1403601987
 31
0.0
 40
0.3180179059
 41
-3.9160145332
 42
-3.9149451326
  0
ELLIPSE
  5
527
100
AcDbEntity
  8
0
100
AcDbEllipse
 62
250
  6
CONTINUOUS
 10
101.1252540556
 20
88.0409491755
 30
0.0
 11
173.0836342077
 21
93.373392027
 31
0.0
 40
0.0279357855
 41
-2.2667865707
 42
-2.2660736814
  0
ELLIPSE
  5
528
100
AcDbEntity
  8
0
100
AcDbEllipse
 62
250
  6
CONTINUOUS
 10
84.3913812519
 20
97.7028776077
 30
0.0
 11
377.0485461051
 21
-47.5525496774
 31
0.0
 40
0.2269613516
 41
-1.7895681591
 42
-1.7892117313
  0
ELLIPSE
  5
529
100
AcDbEntity
  8
0
100
AcDbEllipse
 62
250
  6
CONTINUOUS
 10
108.585390907
 20
83.7335596549
 30
0.0
 11
93.7813932274
 21
139.0604409053
 31
0.0
 40
0.52496566
 41
-3.9675334864
 42
-3.962186053
  0
ELLIPSE
  5
52A
100
AcDbEntity
  8
0
100
AcDbEllipse
 62
250
  6
CONTINUOUS
 10
108.5853950385
 20
83.7335572695
 30
0.0
 11
93.7813498975
 21
139.0604669213
 31
0.0
 40
0.5249659126
 41
-3.974667005
 42
-3.9696732118
  0
ELLIPSE
  5
52B
100
AcDbEntity
  8
0
100
AcDbEllipse
 62
250
  6
CONTINUOUS
 10
81.7949705874
 20
99.2020125847
 30
0.0
 11
377.0485461051
 21
-47.5525496774
 31
0.0
 40
0.2269613516
 41
-1.7820811413
 42
-1.7817245107
  0
ELLIPSE
  5
52C
100
AcDbEntity
  8
0
100
AcDbEllipse
 62
250
  6
CONTINUOUS
 10
100.2597926435
 20
88.540655748
 30
0.0
 11
173.0836342077
 21
93.373392027
 31
0.0
 40
0.0279357855
 41
-2.2592993501
 42
-2.2585860525
  0
ELLIPSE
  5
52D
100
AcDbEntity
  8
0
100
AcDbEllipse
 62
250
  6
CONTINUOUS
 10
106.4695706051
 20
84.9552077798
 30
0.0
 11
122.103420061
 21
122.1402580623
 31
0.0
 40
0.3180164536
 41
-3.9235027755
 42
-3.9224327611
  0
ELLIPSE
  5
52E
100
AcDbEntity
  8
0
100
AcDbEllipse
 62
250
  6
CONTINUOUS
 10
109.6157219456
 20
83.1386594264
 30
0.0
 11
93.7811897969
 21
139.0605630485
 31
0.0
 40
0.5249668457
 41
-3.9725270759
 42
-3.9718136751
  0
ELLIPSE
  5
52F
100
AcDbEntity
  8
0
100
AcDbEllipse
 62
250
  6
CONTINUOUS
 10
112.7893213842
 20
81.3062628851
 30
0.0
 11
43.5072626278
 21
164.9033829783
 31
0.0
 40
0.6893983807
 41
-4.1956644338
 42
-4.1945942568
  0
ELLIPSE
  5
530
100
AcDbEntity
  8
0
100
AcDbEllipse
 62
250
  6
CONTINUOUS
 10
119.2188430124
 20
77.5939376778
 30
0.0
 11
-101.7145514237
 21
199.7496793835
 31
0.0
 40
0.6093615153
 41
1.5188868481
 42
1.5196003545
  0
ELLIPSE
  5
531
100
AcDbEntity
  8
0
100
AcDbEllipse
 62
250
  6
CONTINUOUS
 10
138.6726808807
 20
66.3615355064
 30
0.0
 11
346.1226067412
 21
-324.6715108661
 31
0.0
 40
0.2767011407
 41
-1.7386614606
 42
-1.7383046943
  0
ELLIPSE
  5
532
100
AcDbEntity
  8
0
100
AcDbEllipse
 62
250
  6
CONTINUOUS
 10
159.4039519674
 20
54.3915594048
 30
0.0
 11
575.9863670803
 21
-459.7018216395
 31
0.0
 40
0.173112487
 41
-1.725051934
 42
-1.7246951025
  0
ELLIPSE
  5
533
100
AcDbEntity
  8
0
100
AcDbEllipse
 62
250
  6
CONTINUOUS
 10
122.83206963
 20
75.5077059131
 30
0.0
 11
-148.857799135
 21
217.0409448996
 31
0.0
 40
0.5183102665
 41
1.44440288
 42
1.4454733149
  0
ELLIPSE
  5
534
100
AcDbEntity
  8
0
100
AcDbEllipse
 62
250
  6
CONTINUOUS
 10
117.0859857289
 20
78.8254227423
 30
0.0
 11
-56.7378376742
 21
189.5072070011
 31
0.0
 40
0.681169693
 41
-4.6373949057
 42
-4.635967807
  0
ELLIPSE
  5
535
100
AcDbEntity
  8
0
100
AcDbEllipse
 62
250
  6
CONTINUOUS
 10
113.0502923151
 20
81.1555815403
 30
0.0
 11
43.5081952279
 21
164.9030063383
 31
0.0
 40
0.6893970295
 41
-4.1960166386
 42
-4.1949464359
  0
ELLIPSE
  5
536
100
AcDbEntity
  8
0
100
AcDbEllipse
 62
250
  6
CONTINUOUS
 10
109.8629557875
 20
82.9959097046
 30
0.0
 11
93.7816336518
 21
139.0602965502
 31
0.0
 40
0.5249642588
 41
-3.9728823516
 42
-3.9714555498
  0
ELLIPSE
  5
537
100
AcDbEntity
  8
0
100
AcDbEllipse
 62
250
  6
CONTINUOUS
 10
106.730604582
 20
84.8044900331
 30
0.0
 11
122.1032431809
 21
122.1403601987
 31
0.0
 40
0.3180179059
 41
-3.9231460942
 42
-3.9220761047
  0
ELLIPSE
  5
538
100
AcDbEntity
  8
0
100
AcDbEllipse
 62
250
  6
CONTINUOUS
 10
102.8666429432
 20
87.0354930565
 30
0.0
 11
152.9957110199
 21
104.8453546306
 31
0.0
 40
0.0837733809
 41
2.3162360592
 42
2.3176625673
  0
ELLIPSE
  5
539
100
AcDbEntity
  8
0
100
AcDbEllipse
 62
250
  6
CONTINUOUS
 10
91.4807567877
 20
93.6095610241
 30
0.0
 11
269.5180801439
 21
28.72657561
 31
0.0
 40
0.2304467995
 41
-1.9717032899
 42
-1.9713466896
  0
ELLIPSE
  5
53A
100
AcDbEntity
  8
0
100
AcDbEllipse
 62
250
  6
CONTINUOUS
 10
127.7503800064
 20
72.6679351427
 30
0.0
 11
-230.2815859862
 21
258.2506410183
 31
0.0
 40
0.3881193532
 41
1.4121436517
 42
1.4125002481
  0
ELLIPSE
  5
53B
100
AcDbEntity
  8
0
100
AcDbEllipse
 62
250
  6
CONTINUOUS
 10
116.467783912
 20
79.1823647235
 30
0.0
 11
-56.7375218097
 21
189.5071495856
 31
0.0
 40
0.6811700822
 41
-4.6302600041
 42
-4.6288337355
  0
ELLIPSE
  5
53C
100
AcDbEntity
  8
0
100
AcDbEllipse
 62
250
  6
CONTINUOUS
 10
112.7755814129
 20
81.3141961723
 30
0.0
 11
43.5072626278
 21
164.9033829783
 31
0.0
 40
0.6893983807
 41
-4.1888882112
 42
-4.1878186107
  0
ELLIPSE
  5
53D
100
AcDbEntity
  8
0
100
AcDbEllipse
 62
250
  6
CONTINUOUS
 10
109.862976276
 20
82.9958978748
 30
0.0
 11
93.781413938
 21
139.0604284703
 31
0.0
 40
0.5249655393
 41
-3.965750701
 42
-3.9639682291
  0
ELLIPSE
  5
53E
100
AcDbEntity
  8
0
100
AcDbEllipse
 62
250
  6
CONTINUOUS
 10
107.019043041
 20
84.6379492818
 30
0.0
 11
122.103670552
 21
122.1401134207
 31
0.0
 40
0.3180143969
 41
-3.9156580578
 42
-3.9145886852
  0
ELLIPSE
  5
53F
100
AcDbEntity
  8
0
100
AcDbEllipse
 62
250
  6
CONTINUOUS
 10
103.5157687607
 20
86.660695945
 30
0.0
 11
152.9954398537
 21
104.8455059189
 31
0.0
 40
0.0837751299
 41
2.3237241592
 42
2.3251498642
  0
ELLIPSE
  5
540
100
AcDbEntity
  8
0
100
AcDbEllipse
 62
250
  6
CONTINUOUS
 10
98.7072141938
 20
89.4370950865
 30
0.0
 11
202.7646449178
 21
75.0424444824
 31
0.0
 40
0.1361336765
 41
-2.1736455873
 42
-2.1725764067
  0
ELLIPSE
  5
541
100
AcDbEntity
  8
0
100
AcDbEllipse
 62
250
  6
CONTINUOUS
 10
68.9354620224
 20
106.6269316626
 30
0.0
 11
600.9514462195
 21
-191.7993213141
 31
0.0
 40
0.1620323673
 41
-1.6474254541
 42
-1.6470690805
  0
ELLIPSE
  5
542
100
AcDbEntity
  8
0
100
AcDbEllipse
 62
250
  6
CONTINUOUS
 10
108.3381135587
 20
83.8763344968
 30
0.0
 11
93.7814256506
 21
139.0604214378
 31
0.0
 40
0.524965471
 41
-3.9768075958
 42
-3.9600475592
  0
ELLIPSE
  5
543
100
AcDbEntity
  8
0
100
AcDbEllipse
 62
250
  6
CONTINUOUS
 10
109.8644696244
 20
82.9950356341
 30
0.0
 11
-22.3413290313
 21
183.3614793488
 31
0.0
 40
0.7115375175
 41
-4.5048370306
 42
-4.488076994
  0
ELLIPSE
  5
544
100
AcDbEntity
  8
0
100
AcDbEllipse
 62
250
  6
CONTINUOUS
 10
100.6974640794
 20
88.2879497463
 30
0.0
 11
112.006102841
 21
128.0690516521
 31
0.0
 40
0.3993555306
 41
-3.9347454556
 42
-3.917985419
  0
ELLIPSE
  5
545
100
AcDbEntity
  8
0
100
AcDbEllipse
 62
250
  6
CONTINUOUS
 10
106.5422679673
 20
84.913233234
 30
0.0
 11
32.8018561849
 21
168.9721845822
 31
0.0
 40
0.7023711659
 41
-4.2509361663
 42
-4.2341761297
  0
ELLIPSE
  5
546
100
AcDbEntity
  8
0
100
AcDbEllipse
 62
250
  6
CONTINUOUS
 10
122.5152069305
 20
75.6906584646
 30
0.0
 11
93.7814130743
 21
139.0604289889
 31
0.0
 40
0.5249655443
 41
-3.9768076367
 42
-3.9621859884
  0
ELLIPSE
  5
547
100
AcDbEntity
  8
0
100
AcDbEllipse
 62
250
  6
CONTINUOUS
 10
123.7515730898
 20
74.9767961395
 30
0.0
 11
93.7815115889
 21
139.060369839
 31
0.0
 40
0.5249649702
 41
-3.9621856681
 42
-3.9600472797
  0
ELLIPSE
  5
548
100
AcDbEntity
  8
0
100
AcDbEllipse
 62
250
  6
CONTINUOUS
 10
122.2679304719
 20
75.8334327927
 30
0.0
 11
93.7814256506
 21
139.0604214378
 31
0.0
 40
0.524965471
 41
-3.9768075958
 42
-3.9600475592
  0
ELLIPSE
  5
549
100
AcDbEntity
  8
0
100
AcDbEllipse
 62
250
  6
CONTINUOUS
 10
124.397466765
 20
74.6038652264
 30
0.0
 11
43.5080795154
 21
164.9030530702
 31
0.0
 40
0.6893971972
 41
-4.1974443006
 42
-4.187814634
  0
ELLIPSE
  5
54A
100
AcDbEntity
  8
0
100
AcDbEllipse
 62
250
  6
CONTINUOUS
 10
117.8304934253
 20
78.3955533293
 30
0.0
 11
122.1032906666
 21
122.1403327789
 31
0.0
 40
0.318017516
 41
-3.9270701973
 42
-3.9174405307
  0
ELLIPSE
  5
54B
100
AcDbEntity
  8
0
100
AcDbEllipse
 62
250
  6
CONTINUOUS
 10
124.6883041207
 20
74.4359393823
 30
0.0
 11
41.977873471
 21
165.5157521285
 31
0.0
 40
0.6915589852
 41
-4.2063214345
 42
-4.1895613978
  0
ELLIPSE
  5
54C
100
AcDbEntity
  8
0
100
AcDbEllipse
 62
250
  6
CONTINUOUS
 10
124.3837370081
 20
74.611792616
 30
0.0
 11
43.5078752941
 21
164.9031355473
 31
0.0
 40
0.6893974931
 41
-4.1863896306
 42
-4.1821125245
  0
ELLIPSE
  5
54D
100
AcDbEntity
  8
0
100
AcDbEllipse
 62
250
  6
CONTINUOUS
 10
117.8442238219
 20
78.3876255703
 30
0.0
 11
122.1033500238
 21
122.1402985041
 31
0.0
 40
0.3180170286
 41
-3.9160145329
 42
-3.9117374269
  0
ELLIPSE
  5
54E
100
AcDbEntity
  8
0
100
AcDbEllipse
 62
250
  6
CONTINUOUS
 10
117.5396622333
 20
78.5634756146
 30
0.0
 11
122.6326329822
 21
121.8349435996
 31
0.0
 40
0.3136701383
 41
-3.9285124884
 42
-3.9117524518
  0
ELLIPSE
  5
54F
100
AcDbEntity
  8
0
100
AcDbEllipse
 62
250
  6
CONTINUOUS
 10
119.9600322259
 20
77.1659843152
 30
0.0
 11
93.7814256506
 21
139.0604214378
 31
0.0
 40
0.524965471
 41
-3.9768075958
 42
-3.9600475592
  0
ELLIPSE
  5
550
100
AcDbEntity
  8
0
100
AcDbEllipse
 62
250
  6
CONTINUOUS
 10
119.7127576916
 20
77.3087575322
 30
0.0
 11
93.7814256506
 21
139.0604214378
 31
0.0
 40
0.524965471
 41
-3.9768075958
 42
-3.9600475592
  0
ELLIPSE
  5
551
100
AcDbEntity
  8
0
100
AcDbEllipse
 62
250
  6
CONTINUOUS
 10
117.8169831981
 20
78.4033539651
 30
0.0
 11
93.7814256506
 21
139.0604214378
 31
0.0
 40
0.524965471
 41
-3.9768075958
 42
-3.9600475592
  0
ELLIPSE
  5
552
100
AcDbEntity
  8
0
100
AcDbEllipse
 62
250
  6
CONTINUOUS
 10
118.0642576235
 20
78.260580811
 30
0.0
 11
93.781427045
 21
139.0604206006
 31
0.0
 40
0.5249654629
 41
-3.9675333764
 42
-3.9600475546
  0
ELLIPSE
  5
553
100
AcDbEntity
  8
0
100
AcDbEllipse
 62
250
  6
CONTINUOUS
 10
122.1720285632
 20
75.8888053528
 30
0.0
 11
32.8464080978
 21
168.9562840178
 31
0.0
 40
0.7023269622
 41
-4.241445895
 42
-4.2339600732
  0
ELLIPSE
  5
554
100
AcDbEntity
  8
0
100
AcDbEllipse
 62
250
  6
CONTINUOUS
 10
122.5441438115
 20
75.6739506722
 30
0.0
 11
30.4147628249
 21
169.8119089774
 31
0.0
 40
0.7046298028
 41
-4.2539391307
 42
-4.245740158
  0
ELLIPSE
  5
555
100
AcDbEntity
  8
0
100
AcDbEllipse
 62
250
  6
CONTINUOUS
 10
100.9598644311
 20
88.1364430718
 30
0.0
 11
269.5153477517
 21
28.728544924
 31
0.0
 40
0.2304454275
 41
-1.9720666059
 42
-1.9713534092
  0
ELLIPSE
  5
556
100
AcDbEntity
  8
0
100
AcDbEllipse
 62
250
  6
CONTINUOUS
 10
112.345473512
 20
81.5625350838
 30
0.0
 11
152.9960409622
 21
104.8451705499
 31
0.0
 40
0.0837712528
 41
2.3162352298
 42
2.3176617379
  0
ELLIPSE
  5
557
100
AcDbEntity
  8
0
100
AcDbEllipse
 62
250
  6
CONTINUOUS
 10
116.2094749285
 20
79.3315090931
 30
0.0
 11
122.1032431809
 21
122.1403601987
 31
0.0
 40
0.3180179059
 41
-3.9231460942
 42
-3.9220761047
  0
ELLIPSE
  5
558
100
AcDbEntity
  8
0
100
AcDbEllipse
 62
250
  6
CONTINUOUS
 10
119.341826134
 20
77.5229287647
 30
0.0
 11
93.7816336518
 21
139.0602965502
 31
0.0
 40
0.5249642588
 41
-3.9728823516
 42
-3.9714555498
  0
ELLIPSE
  5
559
100
AcDbEntity
  8
0
100
AcDbEllipse
 62
250
  6
CONTINUOUS
 10
122.5292173488
 20
75.6825690247
 30
0.0
 11
43.5069698887
 21
164.9035012031
 31
0.0
 40
0.6893988048
 41
-4.1960226038
 42
-4.194952401
  0
ELLIPSE
  5
55A
100
AcDbEntity
  8
0
100
AcDbEllipse
 62
250
  6
CONTINUOUS
 10
126.5648553683
 20
73.3524422106
 30
0.0
 11
-56.7378376742
 21
189.5072070011
 31
0.0
 40
0.681169693
 41
-4.6373949057
 42
-4.635967807
  0
ELLIPSE
  5
55B
100
AcDbEntity
  8
0
100
AcDbEllipse
 62
250
  6
CONTINUOUS
 10
132.3108829326
 20
70.0347579096
 30
0.0
 11
-148.8570529486
 21
217.0406198145
 31
0.0
 40
0.5183116761
 41
1.4444036242
 42
1.445474059
  0
ELLIPSE
  5
55C
100
AcDbEntity
  8
0
100
AcDbEllipse
 62
250
  6
CONTINUOUS
 10
168.8829934464
 20
48.9184796552
 30
0.0
 11
575.9883410307
 21
-459.7029806262
 31
0.0
 40
0.1731119233
 41
-1.7250518019
 42
-1.7246949703
  0
ELLIPSE
  5
55D
100
AcDbEntity
  8
0
100
AcDbEllipse
 62
250
  6
CONTINUOUS
 10
91.2739986313
 20
93.7289405922
 30
0.0
 11
377.0466644618
 21
-47.5512593942
 31
0.0
 40
0.2269618914
 41
-1.7820833616
 42
-1.7817267311
  0
ELLIPSE
  5
55E
100
AcDbEntity
  8
0
100
AcDbEllipse
 62
250
  6
CONTINUOUS
 10
109.7386622829
 20
83.0676752164
 30
0.0
 11
173.0836342077
 21
93.373392027
 31
0.0
 40
0.0279357855
 41
-2.2592993501
 42
-2.2585860525
  0
ELLIPSE
  5
55F
100
AcDbEntity
  8
0
100
AcDbEllipse
 62
250
  6
CONTINUOUS
 10
115.9484402445
 20
79.4822272482
 30
0.0
 11
122.103420061
 21
122.1402580623
 31
0.0
 40
0.3180164536
 41
-3.9235027755
 42
-3.9224327611
  0
ELLIPSE
  5
560
100
AcDbEntity
  8
0
100
AcDbEllipse
 62
250
  6
CONTINUOUS
 10
119.0945669565
 20
77.6656931149
 30
0.0
 11
93.7814598123
 21
139.0604009266
 31
0.0
 40
0.5249652719
 41
-3.9728829169
 42
-3.9718127969
  0
ELLIPSE
  5
561
100
AcDbEntity
  8
0
100
AcDbEllipse
 62
250
  6
CONTINUOUS
 10
122.2819421074
 20
75.82534265
 30
0.0
 11
43.5069698887
 21
164.9035012031
 31
0.0
 40
0.6893988048
 41
-4.1960226038
 42
-4.194952401
  0
ELLIPSE
  5
562
100
AcDbEntity
  8
0
100
AcDbEllipse
 62
250
  6
CONTINUOUS
 10
128.7389249946
 20
72.0971616559
 30
0.0
 11
-101.7145514237
 21
199.7496793835
 31
0.0
 40
0.6093615153
 41
1.5185300819
 42
1.5192436096
  0
ELLIPSE
  5
563
100
AcDbEntity
  8
0
100
AcDbEllipse
 62
250
  6
CONTINUOUS
 10
148.2751881408
 20
60.8171681621
 30
0.0
 11
346.1226067412
 21
-324.6715108661
 31
0.0
 40
0.2767011407
 41
-1.7390182376
 42
-1.7386614606
  0
ELLIPSE
  5
564
100
AcDbEntity
  8
0
100
AcDbEllipse
 62
250
  6
CONTINUOUS
 10
118.0642599095
 20
78.2605794911
 30
0.0
 11
93.7814035827
 21
139.0604346878
 31
0.0
 40
0.5249655997
 41
-3.9750236074
 42
-3.9696730372
  0
ENDSEC
  0
SECTION
  2
OBJECTS
  0
DICTIONARY
  5
C
100
AcDbDictionary
280
0
281
1
  3
ACAD_GROUP
350
D
  3
ACAD_MLINESTYLE
350
17
  3
ACAD_LAYOUT
350
1A
  3
ACAD_PLOTSETTINGS
350
19
  3
ACAD_PLOTSTYLENAME
350
E
  0
DICTIONARY
  5
D
102
{ACAD_REACTORS
330
C
102
}
100
AcDbDictionary
280
0
281
1
  0
ACDBDICTIONARYWDFLT
  5
E
102
{ACAD_REACTORS
330
C
102
}
100
AcDbDictionary
281
1
  3
Normal
350
F
100
AcDbDictionaryWithDefault
340
F
  0
DICTIONARY
  5
17
102
{ACAD_REACTORS
330
C
102
}
100
AcDbDictionary
280
0
281
1
  3
Standard
350
18
  0
DICTIONARY
  5
19
102
{ACAD_REACTORS
330
C
102
}
100
AcDbDictionary
281
1
  0
DICTIONARY
  5
1A
102
{ACAD_REACTORS
330
C
102
}
100
AcDbDictionary
281
1
  3
Model
350
565
  3
Layout1
350
566
  0
ACDBPLACEHOLDER
  5
F
102
{ACAD_REACTORS
330
E
102
}
  0
MLINESTYLE
  5
18
102
{ACAD_REACTORS
330
17
102
}
100
AcDbMlineStyle
  2
STANDARD
 70
0
  3

 62
256
 51
90.0
 52
90.0
 71
2
 49
0.5
 62
256
  6
BYLAYER
 49
-0.5
 62
256
  6
BYLAYER
  0
LAYOUT
  5
565
102
{ACAD_REACTORS
330
1A
102
}
100
AcDbPlotSettings
  1

  2
none_device
  4
ISO_A4_(297.00_x_210.00_MM)
  6

 40
0.0
 41
0.0
 42
0.0
 43
0.0
 44
297.0
 45
210.0
 46
0.0
 47
0.0
 48
0.0
 49
0.0
140
0.0
141
0.0
142
1.0
143
1.0
 70
1024
 72
1
 73
0
 74
0
  7

 75
0
147
1.0
148
0.0
149
0.0
100
AcDbLayout
  1
Model
 70
0
 71
0
 10
0.0
 20
0.0
 11
297.0
 21
210.0
 12
0.0
 22
0.0
 32
0.0
 14
0.0
 24
0.0
 34
0.0
 15
0.0
 25
0.0
 35
0.0
146
0.0
 13
0.0
 23
0.0
 33
0.0
 16
1.0
 26
0.0
 36
0.0
 17
0.0
 27
1.0
 37
0.0
 76
0
330
216
345
0
346
0
  0
LAYOUT
  5
566
102
{ACAD_REACTORS
330
1A
102
}
100
AcDbPlotSettings
  1

  2
none_device
  4
ISO_A4_(297.00_x_210.00_MM)
  6

 40
0.0
 41
0.0
 42
0.0
 43
0.0
 44
297.0
 45
210.0
 46
0.0
 47
0.0
 48
0.0
 49
0.0
140
0.0
141
0.0
142
1.0
143
1.0
 70
0
 72
1
 73
0
 74
0
  7

 75
0
147
1.0
148
0.0
149
0.0
100
AcDbLayout
  1
Layout1
 70
0
 71
1
 10
0.0
 20
0.0
 11
297.0
 21
210.0
 12
0.0
 22
0.0
 32
0.0
 14
0.0
 24
0.0
 34
0.0
 15
0.0
 25
0.0
 35
0.0
146
0.0
 13
0.0
 23
0.0
 33
0.0
 16
1.0
 26
0.0
 36
0.0
 17
0.0
 27
1.0
 37
0.0
 76
0
330
217
345
0
346
0
  0
ENDSEC
  0
EOF
