  0
SECTION
  2
HEADER
  9
$ACADVER
  1
AC1024
  9
$DWGCODEPAGE
  3
ANSI_1252
  9
$EXTMAX
 10
297.0
 20
210.0
 30
0.0
  9
$EXTMIN
 10
0.0
 20
0.0
 30
0.0
  9
$LIMMIN
 10
0.0
 20
0.0
  9
$LIMMAX
 10
297.0
 20
210.0
  9
$VIEWCTR
 10
148.5
 20
105.0
  9
$VIEWSIZE
 40
210.0
  9
$CLAYER
  8
0
  9
$LTSCALE
 40
16.335
  9
$CELTYPE
  6
BYLAYER
  9
$DIMSCALE
 40
1.0
  9
$DIMASZ
 40
3.0
  9
$DIMEXO
 40
0.5
  9
$DIMDLI
 40
11.286
  9
$DIMEXE
 40
1.5
  9
$DIMCEN
 40
2.673
  9
$DIMLFAC
 40
1.0
  9
$DIMBLK
  1
_FILLED
  9
$DIMALT
 70
0
  9
$DIMALTF
 40
0.0393700787
  9
$DIMTXT
 40
3.0
  9
$DIMTOL
 70
1
  9
$DIMLIM
 70
0
  9
$DIMTFAC
 40
1.0
  9
$DIMTP
 40
0.01
  9
$DIMTM
 40
0.01
  9
$DIMGAP
 40
0.625
  9
$DIMDSEP
 70
44
  9
$AUNITS
 70
0
  9
$PDMODE
 70
3
  9
$PDSIZE
 40
3.0
  9
$HANDSEED
  5
59B
  9
$TILEMODE
 70
1
  9
$MEASUREMENT
 70
1
  9
$INSUNITS
 70
4
  0
ENDSEC
  0
SECTION
  2
CLASSES
  0
CLASS
  1
ACDBDICTIONARYWDFLT
  2
AcDbDictionaryWithDefault
  3
AutoCAD 2000
 90
0
 91
1
280
0
281
0
  0
CLASS
  1
ACDBPLACEHOLDER
  2
AcDbPlaceHolder
  3
AutoCAD 2000
 90
0
 91
1
280
0
281
0
  0
CLASS
  1
LAYOUT
  2
AcDbLayout
  3
AutoCAD 2000
 90
0
 91
0
280
0
281
0
  0
ENDSEC
  0
SECTION
  2
TABLES
  0
TABLE
  2
VPORT
  5
8
100
AcDbSymbolTable
 70
2
  0
VPORT
  5
1F4
100
AcDbSymbolTableRecord
100
AcDbViewportTableRecord
  2
*ACTIVE
 70
0
 10
0.0
 20
0.0
 11
1.0
 21
1.0
 12
148.5
 22
105.0
 13
0.0
 23
0.0
 14
1.0
 24
1.0
 15
0.0
 25
0.0
 16
0.0
 26
0.0
 36
1.0
 17
0.0
 27
0.0
 37
0.0
 40
210.0
 41
1.4142857143
 42
50.0
 43
0.0
 44
0.0
 50
0.0
 51
0.0
 71
0
 72
100
 73
1
 74
1
 75
0
 76
0
 77
0
 78
0
  0
ENDTAB
  0
TABLE
  2
LTYPE
  5
5
100
AcDbSymbolTable
 70
6
  0
LTYPE
  5
14
100
AcDbSymbolTableRecord
100
AcDbLinetypeTableRecord
  2
BYBLOCK
 70
0
  3

 72
65
 73
0
 40
0.0
  0
LTYPE
  5
15
100
AcDbSymbolTableRecord
100
AcDbLinetypeTableRecord
  2
BYLAYER
 70
0
  3

 72
65
 73
0
 40
0.0
  0
LTYPE
  5
16
100
AcDbSymbolTableRecord
100
AcDbLinetypeTableRecord
  2
CONTINUOUS
 70
64
  3
Solid line
 72
65
 73
0
 40
0.0
  0
LTYPE
  5
1F5
100
AcDbSymbolTableRecord
100
AcDbLinetypeTableRecord
  2
CENTER
 70
64
  3
____ _ ____ _ ____ _ ____ _ ____ _ ____ _ ____
 72
65
 73
4
 40
0.6
 49
0.375
 74
0
 49
-0.075
 74
0
 49
0.075
 74
0
 49
-0.075
 74
0
  0
LTYPE
  5
1F6
100
AcDbSymbolTableRecord
100
AcDbLinetypeTableRecord
  2
HIDDEN
 70
64
  3
- - - - - - - - - - - - - - - - - - - -
 72
65
 73
2
 40
0.2
 49
0.1
 74
0
 49
-0.1
 74
0
  0
LTYPE
  5
1F7
100
AcDbSymbolTableRecord
100
AcDbLinetypeTableRecord
  2
PHANTOM
 70
64
  3
_____ _ _ _____ _ _ _____ _ _ _____
 72
65
 73
6
 40
0.8
 49
0.45
 74
0
 49
-0.05
 74
0
 49
0.1
 74
0
 49
-0.05
 74
0
 49
0.1
 74
0
 49
-0.05
 74
0
  0
LTYPE
  5
1F8
100
AcDbSymbolTableRecord
100
AcDbLinetypeTableRecord
  2
DOT
 70
64
  3
. . . . . . . . . . . . . . . . . . . .
 72
65
 73
2
 40
0.2
 49
0.1
 74
0
 49
-0.1
 74
0
  0
LTYPE
  5
1F9
100
AcDbSymbolTableRecord
100
AcDbLinetypeTableRecord
  2
DASHED
 70
64
  3
- - - - - - - - - - - - - - - - - - - -
 72
65
 73
2
 40
0.2
 49
0.1
 74
0
 49
-0.1
 74
0
  0
ENDTAB
  0
TABLE
  2
LAYER
  5
2
100
AcDbSymbolTable
 70
36
  0
LAYER
  5
10
100
AcDbSymbolTableRecord
100
AcDbLayerTableRecord
  2
0
 70
0
 62
7
  6
CONTINUOUS
370
-3
390
F
  0
LAYER
  5
1FA
100
AcDbSymbolTableRecord
100
AcDbLayerTableRecord
  2
DEFAULT_1
 70
0
 62
7
  6
CENTER
370
-3
390
F
  0
LAYER
  5
1FB
100
AcDbSymbolTableRecord
100
AcDbLayerTableRecord
  2
DEFAULT_2
 70
0
 62
7
  6
HIDDEN
370
-3
390
F
  0
LAYER
  5
1FC
100
AcDbSymbolTableRecord
100
AcDbLayerTableRecord
  2
DEFAULT_3
 70
0
 62
7
  6
PHANTOM
370
-3
390
F
  0
LAYER
  5
1FD
100
AcDbSymbolTableRecord
100
AcDbLayerTableRecord
  2
ASSI
 70
0
 62
7
  6
CONTINUOUS
370
-3
390
F
  0
LAYER
  5
1FE
100
AcDbSymbolTableRecord
100
AcDbLayerTableRecord
  2
COORDINATE
 70
0
 62
7
  6
CONTINUOUS
370
-3
390
F
  0
LAYER
  5
1FF
100
AcDbSymbolTableRecord
100
AcDbLayerTableRecord
  2
COPY_PUBLISH
 70
0
 62
7
  6
CONTINUOUS
370
-3
390
F
  0
LAYER
  5
200
100
AcDbSymbolTableRecord
100
AcDbLayerTableRecord
  2
COSMETIC
 70
0
 62
7
  6
CONTINUOUS
370
-3
390
F
  0
LAYER
  5
201
100
AcDbSymbolTableRecord
100
AcDbLayerTableRecord
  2
COSMETICI
 70
0
 62
7
  6
CONTINUOUS
370
-3
390
F
  0
LAYER
  5
202
100
AcDbSymbolTableRecord
100
AcDbLayerTableRecord
  2
CURVE
 70
0
 62
7
  6
CONTINUOUS
370
-3
390
F
  0
LAYER
  5
203
100
AcDbSymbolTableRecord
100
AcDbLayerTableRecord
  2
CURVE_VERN
 70
0
 62
7
  6
CONTINUOUS
370
-3
390
F
  0
LAYER
  5
204
100
AcDbSymbolTableRecord
100
AcDbLayerTableRecord
  2
DRAFT
 70
0
 62
7
  6
CONTINUOUS
370
-3
390
F
  0
LAYER
  5
205
100
AcDbSymbolTableRecord
100
AcDbLayerTableRecord
  2
IMPORT_IGES
 70
0
 62
7
  6
CONTINUOUS
370
-3
390
F
  0
LAYER
  5
206
100
AcDbSymbolTableRecord
100
AcDbLayerTableRecord
  2
INTFCLR_1
 70
0
 62
7
  6
CONTINUOUS
370
-3
390
F
  0
LAYER
  5
207
100
AcDbSymbolTableRecord
100
AcDbLayerTableRecord
  2
INTF_1
 70
0
 62
7
  6
CONTINUOUS
370
-3
390
F
  0
LAYER
  5
208
100
AcDbSymbolTableRecord
100
AcDbLayerTableRecord
  2
INTF_CYAN
 70
0
 62
7
  6
CONTINUOUS
370
-3
390
F
  0
LAYER
  5
209
100
AcDbSymbolTableRecord
100
AcDbLayerTableRecord
  2
NOTE
 70
0
 62
7
  6
CONTINUOUS
370
-3
390
F
  0
LAYER
  5
20A
100
AcDbSymbolTableRecord
100
AcDbLayerTableRecord
  2
PIANI
 70
0
 62
7
  6
CONTINUOUS
370
-3
390
F
  0
LAYER
  5
20B
100
AcDbSymbolTableRecord
100
AcDbLayerTableRecord
  2
PUNTI
 70
0
 62
7
  6
CONTINUOUS
370
-3
390
F
  0
LAYER
  5
20C
100
AcDbSymbolTableRecord
100
AcDbLayerTableRecord
  2
RACCORDO
 70
0
 62
7
  6
CONTINUOUS
370
-3
390
F
  0
LAYER
  5
20D
100
AcDbSymbolTableRecord
100
AcDbLayerTableRecord
  2
RGB____0____0____0__
 70
0
 62
7
  6
CONTINUOUS
370
-3
390
F
  0
LAYER
  5
20E
100
AcDbSymbolTableRecord
100
AcDbLayerTableRecord
  2
SIMBOLI
 70
0
 62
7
  6
CONTINUOUS
370
-3
390
F
  0
LAYER
  5
20F
100
AcDbSymbolTableRecord
100
AcDbLayerTableRecord
  2
SMUSSO
 70
0
 62
7
  6
CONTINUOUS
370
-3
390
F
  0
LAYER
  5
210
100
AcDbSymbolTableRecord
100
AcDbLayerTableRecord
  2
SNAPLINE
 70
0
 62
7
  6
CONTINUOUS
370
-3
390
F
  0
LAYER
  5
211
100
AcDbSymbolTableRecord
100
AcDbLayerTableRecord
  2
SUPERFICI
 70
0
 62
7
  6
CONTINUOUS
370
-3
390
F
  0
LAYER
  5
212
100
AcDbSymbolTableRecord
100
AcDbLayerTableRecord
  2
TRASH
 70
0
 62
7
  6
CONTINUOUS
370
-3
390
F
  0
LAYER
  5
213
100
AcDbSymbolTableRecord
100
AcDbLayerTableRecord
  2
XSEC_DATUMS
 70
0
 62
7
  6
CONTINUOUS
370
-3
390
F
  0
ENDTAB
  0
TABLE
  2
STYLE
  5
3
100
AcDbSymbolTable
 70
1
  0
STYLE
  5
11
100
AcDbSymbolTableRecord
100
AcDbTextStyleTableRecord
  2
STANDARD
 70
0
 40
0.0
 41
0.8
 50
0.0
 71
0
 42
0.2
  3
txt
  4

  0
STYLE
  5
214
100
AcDbSymbolTableRecord
100
AcDbTextStyleTableRecord
  2
TEXTSTYLE_1
 70
0
 40
0.0
 41
0.8
 50
0.0
 71
0
 42
0.2
  3
gdt
  4

  0
ENDTAB
  0
TABLE
  2
VIEW
  5
6
100
AcDbSymbolTable
 70
0
  0
ENDTAB
  0
TABLE
  2
UCS
  5
7
100
AcDbSymbolTable
 70
0
  0
ENDTAB
  0
TABLE
  2
APPID
  5
9
100
AcDbSymbolTable
 70
1
  0
APPID
  5
215
100
AcDbSymbolTableRecord
100
AcDbRegAppTableRecord
  2
ACAD
 70
0
  0
ENDTAB
  0
TABLE
  2
BLOCK_RECORD
  5
1
100
AcDbSymbolTable
 70
0
  0
BLOCK_RECORD
  5
216
100
AcDbSymbolTableRecord
100
AcDbBlockTableRecord
  2
*Model_Space
  0
BLOCK_RECORD
  5
217
100
AcDbSymbolTableRecord
100
AcDbBlockTableRecord
  2
*Paper_Space
  0
BLOCK_RECORD
  5
218
100
AcDbSymbolTableRecord
100
AcDbBlockTableRecord
  2
_FILLED
  0
ENDTAB
  0
TABLE
  2
DIMSTYLE
  5
A
100
AcDbSymbolTable
 70
1
100
AcDbDimStyleTable
 71
0
  0
DIMSTYLE
105
219
100
AcDbSymbolTableRecord
100
AcDbDimStyleTableRecord
  2
STANDARD
 70
0
  3

  4

 40
1.0
 41
3.0
 42
0.5
 43
0.38
 44
1.5
 45
0.0
 46
0.0
 47
0.01
 48
0.01
140
3.0
141
0.09
142
0.0
143
25.4
144
1.0
145
0.0
146
1.0
147
0.625
 71
1
 72
0
 73
0
 74
0
 75
0
 76
0
 77
1
 78
8
 79
2
170
0
171
1
172
0
173
0
174
0
175
0
176
0
177
0
178
0
270
2
179
2
271
2
272
2
273
2
274
2
275
0
280
0
281
0
282
0
283
1
284
8
285
0
286
0
287
3
288
0
340
11
278
44
341
218
342
218
343
218
344
218
  0
ENDTAB
  0
ENDSEC
  0
SECTION
  2
BLOCKS
  0
BLOCK
  5
20
100
AcDbEntity
  8
0
100
AcDbBlockBegin
  2
*Model_Space
 70
0
 10
0.0
 20
0.0
 30
0.0
  3
*Model_Space
  1

  0
ENDBLK
  5
21
100
AcDbEntity
  8
0
100
AcDbBlockEnd
  0
BLOCK
  5
1C
100
AcDbEntity
  8
0
100
AcDbBlockBegin
  2
*Paper_Space
 70
0
 10
0.0
 20
0.0
 30
0.0
  3
*Paper_Space
  1

  0
ENDBLK
  5
1D
100
AcDbEntity
  8
0
100
AcDbBlockEnd
  0
BLOCK
  5
21A
100
AcDbEntity
  8
0
100
AcDbBlockBegin
  2
_FILLED
 70
64
 10
0.0
 20
0.0
  3
_FILLED
  1

  0
SOLID
  5
21B
100
AcDbEntity
  8
0
  6
BYBLOCK
 62
0
100
AcDbTrace
 10
0.0
 20
0.0
 11
-1.0
 21
0.3166666667
 12
-1.0
 22
-0.3166666667
 13
-1.0
 23
-0.3166666667
  0
ENDBLK
  5
21C
100
AcDbEntity
  8
0
  6
BYBLOCK
 62
0
100
AcDbBlockEnd
  0
ENDSEC
  0
SECTION
  2
ENTITIES
  0
LWPOLYLINE
  5
21D
100
AcDbEntity
  8
ASSI
100
AcDbPolyline
 62
7
  6
CONTINUOUS
 90
14
 70
0
 10
-30.4373867085
 20
54.4932176986
 10
-30.4660923328
 20
54.4717311787
 10
-30.5021417181
 20
54.4409292638
 10
-30.5363079956
 20
54.4071840715
 10
-30.568437227
 20
54.3705981682
 10
-30.5983999318
 20
54.3312564727
 10
-30.626070644
 20
54.2892670346
 10
-30.6513407611
 20
54.2447406169
 10
-30.6741247384
 20
54.1977408577
 10
-30.6943195323
 20
54.1483604438
 10
-30.7118333455
 20
54.0966949195
 10
-30.7265847453
 20
54.0427834888
 10
-30.7384707771
 20
53.9866982963
 10
-30.746027182
 20
53.9390212841
  0
LWPOLYLINE
  5
21E
100
AcDbEntity
  8
RACCORDO
100
AcDbPolyline
 62
7
  6
CONTINUOUS
 90
14
 70
0
 10
-30.4373867085
 20
54.4932176986
 10
-30.4660923328
 20
54.4717311787
 10
-30.5021417181
 20
54.4409292638
 10
-30.5363079956
 20
54.4071840715
 10
-30.568437227
 20
54.3705981682
 10
-30.5983999318
 20
54.3312564727
 10
-30.626070644
 20
54.2892670346
 10
-30.6513407611
 20
54.2447406169
 10
-30.6741247384
 20
54.1977408577
 10
-30.6943195323
 20
54.1483604438
 10
-30.7118333455
 20
54.0966949195
 10
-30.7265847453
 20
54.0427834888
 10
-30.7384707771
 20
53.9866982963
 10
-30.746027182
 20
53.9390212841
  0
LINE
  5
21F
100
AcDbEntity
  8
ASSI
100
AcDbLine
 62
7
  6
CONTINUOUS
 10
-30.4373589447
 20
54.4932386011
 11
-28.8292488879
 21
55.6271393199
  0
LINE
  5
220
100
AcDbEntity
  8
RACCORDO
100
AcDbLine
 62
7
  6
CONTINUOUS
 10
-30.4373589447
 20
54.4932386011
 11
-28.8292488879
 21
55.6271393199
  0
LINE
  5
221
100
AcDbEntity
  8
ASSI
100
AcDbLine
 62
250
  6
CONTINUOUS
 10
-29.8792761479
 20
54.4832333315
 11
-28.304197072
 21
55.59384341
  0
LINE
  5
222
100
AcDbEntity
  8
RACCORDO
100
AcDbLine
 62
250
  6
CONTINUOUS
 10
-29.8792761479
 20
54.4832333315
 11
-28.304197072
 21
55.59384341
  0
LWPOLYLINE
  5
223
100
AcDbEntity
  8
ASSI
100
AcDbPolyline
 62
250
  6
CONTINUOUS
 90
23
 70
0
 10
32.1130020796
 20
-54.5999894762
 10
32.1383564236
 20
-54.6061626453
 10
32.1628936558
 20
-54.6103523115
 10
32.1866020993
 20
-54.6125721818
 10
32.2092141096
 20
-54.612780251
 10
32.2307084455
 20
-54.6109536929
 10
32.2511074335
 20
-54.6071144771
 10
32.2702087603
 20
-54.6012878071
 10
32.2880039862
 20
-54.5934543556
 10
32.3045028077
 20
-54.5836324591
 10
32.3195300155
 20
-54.5719038978
 10
32.3330729213
 20
-54.5582475168
 10
32.3451454946
 20
-54.5426834625
 10
32.3556123123
 20
-54.5253556243
 10
32.3644572259
 20
-54.5062432316
 10
32.3716975309
 20
-54.4853661542
 10
32.3772476702
 20
-54.462929479
 10
32.3810882574
 20
-54.4389062054
 10
32.3832395485
 20
-54.4133226534
 10
32.3836750476
 20
-54.3864642072
 10
32.3823859629
 20
-54.358425965
 10
32.3793814648
 20
-54.3291125351
 10
32.3746617717
 20
-54.2985237481
  0
LWPOLYLINE
  5
224
100
AcDbEntity
  8
RACCORDO
100
AcDbPolyline
 62
250
  6
CONTINUOUS
 90
23
 70
0
 10
32.1130020796
 20
-54.5999894762
 10
32.1383564236
 20
-54.6061626453
 10
32.1628936558
 20
-54.6103523115
 10
32.1866020993
 20
-54.6125721818
 10
32.2092141096
 20
-54.612780251
 10
32.2307084455
 20
-54.6109536929
 10
32.2511074335
 20
-54.6071144771
 10
32.2702087603
 20
-54.6012878071
 10
32.2880039862
 20
-54.5934543556
 10
32.3045028077
 20
-54.5836324591
 10
32.3195300155
 20
-54.5719038978
 10
32.3330729213
 20
-54.5582475168
 10
32.3451454946
 20
-54.5426834625
 10
32.3556123123
 20
-54.5253556243
 10
32.3644572259
 20
-54.5062432316
 10
32.3716975309
 20
-54.4853661542
 10
32.3772476702
 20
-54.462929479
 10
32.3810882574
 20
-54.4389062054
 10
32.3832395485
 20
-54.4133226534
 10
32.3836750476
 20
-54.3864642072
 10
32.3823859629
 20
-54.358425965
 10
32.3793814648
 20
-54.3291125351
 10
32.3746617717
 20
-54.2985237481
  0
LWPOLYLINE
  5
225
100
AcDbEntity
  8
ASSI
100
AcDbPolyline
 62
250
  6
CONTINUOUS
 90
10
 70
0
 10
-30.6575009568
 20
53.8217635691
 10
-30.9290466584
 20
51.7336448898
 10
-31.1782490443
 20
49.6553551741
 10
-31.4050552268
 20
47.5873123221
 10
-31.609414725
 20
45.5299347587
 10
-31.7912866551
 20
43.4836339478
 10
-31.9506393201
 20
41.4488144953
 10
-32.087440837
 20
39.4258838609
 10
-32.2016595633
 20
37.4152520884
 10
-32.2932709904
 20
35.4173244527
  0
LWPOLYLINE
  5
226
100
AcDbEntity
  8
RACCORDO
100
AcDbPolyline
 62
250
  6
CONTINUOUS
 90
10
 70
0
 10
-30.6575009568
 20
53.8217635691
 10
-30.9290466584
 20
51.7336448898
 10
-31.1782490443
 20
49.6553551741
 10
-31.4050552268
 20
47.5873123221
 10
-31.609414725
 20
45.5299347587
 10
-31.7912866551
 20
43.4836339478
 10
-31.9506393201
 20
41.4488144953
 10
-32.087440837
 20
39.4258838609
 10
-32.2016595633
 20
37.4152520884
 10
-32.2932709904
 20
35.4173244527
  0
LWPOLYLINE
  5
227
100
AcDbEntity
  8
ASSI
100
AcDbPolyline
 62
7
  6
CONTINUOUS
 90
10
 70
0
 10
-30.7460313636
 20
53.9390242521
 10
-31.01049446
 20
51.907276719
 10
-31.2619049
 20
49.8144424648
 10
-31.490612157
 20
47.73192551
 10
-31.6965591503
 20
45.66020825
 10
-31.8797073534
 20
43.599688614
 10
-32.0400227481
 20
41.550734736
 10
-32.1774709266
 20
39.5137447981
 10
-32.2920220022
 20
37.4891901676
 10
-32.3811627775
 20
35.5394477713
  0
LWPOLYLINE
  5
228
100
AcDbEntity
  8
RACCORDO
100
AcDbPolyline
 62
7
  6
CONTINUOUS
 90
10
 70
0
 10
-30.7460313636
 20
53.9390242521
 10
-31.01049446
 20
51.907276719
 10
-31.2619049
 20
49.8144424648
 10
-31.490612157
 20
47.73192551
 10
-31.6965591503
 20
45.66020825
 10
-31.8797073534
 20
43.599688614
 10
-32.0400227481
 20
41.550734736
 10
-32.1774709266
 20
39.5137447981
 10
-32.2920220022
 20
37.4891901676
 10
-32.3811627775
 20
35.5394477713
  0
LWPOLYLINE
  5
229
100
AcDbEntity
  8
ASSI
100
AcDbPolyline
 62
250
  6
CONTINUOUS
 90
16
 70
0
 10
-30.0767806543
 20
54.1690611372
 10
-30.0725286499
 20
54.1927627522
 10
-30.0666569439
 20
54.2168787503
 10
-30.0592120634
 20
54.2412179931
 10
-30.0502530051
 20
54.2655875714
 10
-30.0398507678
 20
54.2897943317
 10
-30.0280877903
 20
54.3136464078
 10
-30.0150572966
 20
54.3369547455
 10
-30.0008625597
 20
54.3595345956
 10
-29.9856160845
 20
54.3812069772
 10
-29.9694387098
 20
54.4018001068
 10
-29.9524586556
 20
54.4211507514
 10
-29.9348105116
 20
54.4391055191
 10
-29.9166341605
 20
54.4555220869
 10
-29.8980736679
 20
54.4702703269
 10
-29.8792761482
 20
54.4832333316
  0
LWPOLYLINE
  5
22A
100
AcDbEntity
  8
RACCORDO
100
AcDbPolyline
 62
250
  6
CONTINUOUS
 90
16
 70
0
 10
-30.0767806543
 20
54.1690611372
 10
-30.0725286499
 20
54.1927627522
 10
-30.0666569439
 20
54.2168787503
 10
-30.0592120634
 20
54.2412179931
 10
-30.0502530051
 20
54.2655875714
 10
-30.0398507678
 20
54.2897943317
 10
-30.0280877903
 20
54.3136464078
 10
-30.0150572966
 20
54.3369547455
 10
-30.0008625597
 20
54.3595345956
 10
-29.9856160845
 20
54.3812069772
 10
-29.9694387098
 20
54.4018001068
 10
-29.9524586556
 20
54.4211507514
 10
-29.9348105116
 20
54.4391055191
 10
-29.9166341605
 20
54.4555220869
 10
-29.8980736679
 20
54.4702703269
 10
-29.8792761482
 20
54.4832333316
  0
LWPOLYLINE
  5
22B
100
AcDbEntity
  8
ASSI
100
AcDbPolyline
 62
250
  6
CONTINUOUS
 90
9
 70
0
 10
-32.2932709909
 20
-1.5975962364
 10
-32.2016595587
 20
-3.4780474802
 10
-32.0874408297
 20
-5.3422214931
 10
-31.9506393154
 20
-7.1897413042
 10
-31.7912866678
 20
-9.020228709
 10
-31.6094147685
 20
-10.8333177717
 10
-31.4050552929
 20
-12.6286545962
 10
-31.1782491105
 20
-14.4058796271
 10
-30.9290467043
 20
-16.1646280278
  0
LWPOLYLINE
  5
22C
100
AcDbEntity
  8
RACCORDO
100
AcDbPolyline
 62
250
  6
CONTINUOUS
 90
9
 70
0
 10
-32.2932709909
 20
-1.5975962364
 10
-32.2016595587
 20
-3.4780474802
 10
-32.0874408297
 20
-5.3422214931
 10
-31.9506393154
 20
-7.1897413042
 10
-31.7912866678
 20
-9.020228709
 10
-31.6094147685
 20
-10.8333177717
 10
-31.4050552929
 20
-12.6286545962
 10
-31.1782491105
 20
-14.4058796271
 10
-30.9290467043
 20
-16.1646280278
  0
LWPOLYLINE
  5
22D
100
AcDbEntity
  8
ASSI
100
AcDbPolyline
 62
7
  6
CONTINUOUS
 90
10
 70
0
 10
-32.3811355261
 20
-1.4757211572
 10
-32.2922498471
 20
-3.3065356439
 10
-32.1777126808
 20
-5.1850256383
 10
-32.0402576071
 20
-7.046722446
 10
-31.8799111075
 20
-8.8911902327
 10
-31.696704109
 20
-10.7180729624
 10
-31.4906670047
 20
-12.5270456607
 10
-31.2618345703
 20
-14.3177588349
 10
-31.010260247
 20
-16.0898011978
 10
-30.7448061097
 20
-17.7889340819
  0
LWPOLYLINE
  5
22E
100
AcDbEntity
  8
RACCORDO
100
AcDbPolyline
 62
7
  6
CONTINUOUS
 90
10
 70
0
 10
-32.3811355261
 20
-1.4757211572
 10
-32.2922498471
 20
-3.3065356439
 10
-32.1777126808
 20
-5.1850256383
 10
-32.0402576071
 20
-7.046722446
 10
-31.8799111075
 20
-8.8911902327
 10
-31.696704109
 20
-10.7180729624
 10
-31.4906670047
 20
-12.5270456607
 10
-31.2618345703
 20
-14.3177588349
 10
-31.010260247
 20
-16.0898011978
 10
-30.7448061097
 20
-17.7889340819
  0
LINE
  5
22F
100
AcDbEntity
  8
ASSI
100
AcDbLine
 62
250
  6
CONTINUOUS
 10
-32.4102089542
 20
1.4097135118
 11
-32.2932710629
 21
-1.5975961949
  0
LINE
  5
230
100
AcDbEntity
  8
RACCORDO
100
AcDbLine
 62
250
  6
CONTINUOUS
 10
-32.4102089542
 20
1.4097135118
 11
-32.2932710629
 21
-1.5975961949
  0
LWPOLYLINE
  5
231
100
AcDbEntity
  8
ASSI
100
AcDbPolyline
 62
250
  6
CONTINUOUS
 90
12
 70
0
 10
-32.2932710624
 20
35.4173244942
 10
-32.410208962
 20
32.2600495855
 10
-32.5059027906
 20
29.1151939317
 10
-32.5803428996
 20
25.9829804863
 10
-32.6335215716
 20
22.8635923357
 10
-32.6654314085
 20
19.7572901939
 10
-32.6760681414
 20
16.6644108054
 10
-32.6654314026
 20
13.5851726095
 10
-32.6335215615
 20
10.5197926222
 10
-32.5803428874
 20
7.4686011622
 10
-32.5059027788
 20
4.4318499012
 10
-32.4102089542
 20
1.4097135118
  0
LWPOLYLINE
  5
232
100
AcDbEntity
  8
RACCORDO
100
AcDbPolyline
 62
250
  6
CONTINUOUS
 90
12
 70
0
 10
-32.2932710624
 20
35.4173244942
 10
-32.410208962
 20
32.2600495855
 10
-32.5059027906
 20
29.1151939317
 10
-32.5803428996
 20
25.9829804863
 10
-32.6335215716
 20
22.8635923357
 10
-32.6654314085
 20
19.7572901939
 10
-32.6760681414
 20
16.6644108054
 10
-32.6654314026
 20
13.5851726095
 10
-32.6335215615
 20
10.5197926222
 10
-32.5803428874
 20
7.4686011622
 10
-32.5059027788
 20
4.4318499012
 10
-32.4102089542
 20
1.4097135118
  0
LWPOLYLINE
  5
233
100
AcDbEntity
  8
ASSI
100
AcDbPolyline
 62
7
  6
CONTINUOUS
 90
13
 70
0
 10
-32.3811627783
 20
35.5394478207
 10
-32.496193175
 20
32.438481739
 10
-32.592555897
 20
29.2826024289
 10
-32.6675171122
 20
26.1395375652
 10
-32.7210693826
 20
23.0095373965
 10
-32.7532097124
 20
19.892820978
 10
-32.7639360989
 20
16.7895952538
 10
-32.7532469624
 20
13.700075639
 10
-32.7211431628
 20
10.6244759763
 10
-32.6676259819
 20
7.5630010576
 10
-32.5926976931
 20
4.5158665164
 10
-32.4963650119
 20
1.4833135326
 10
-32.3811355261
 20
-1.4757212451
  0
LWPOLYLINE
  5
234
100
AcDbEntity
  8
RACCORDO
100
AcDbPolyline
 62
7
  6
CONTINUOUS
 90
13
 70
0
 10
-32.3811627783
 20
35.5394478207
 10
-32.496193175
 20
32.438481739
 10
-32.592555897
 20
29.2826024289
 10
-32.6675171122
 20
26.1395375652
 10
-32.7210693826
 20
23.0095373965
 10
-32.7532097124
 20
19.892820978
 10
-32.7639360989
 20
16.7895952538
 10
-32.7532469624
 20
13.700075639
 10
-32.7211431628
 20
10.6244759763
 10
-32.6676259819
 20
7.5630010576
 10
-32.5926976931
 20
4.5158665164
 10
-32.4963650119
 20
1.4833135326
 10
-32.3811355261
 20
-1.4757212451
  0
LWPOLYLINE
  5
235
100
AcDbEntity
  8
ASSI
100
AcDbPolyline
 62
250
  6
CONTINUOUS
 90
16
 70
0
 10
-17.1082862896
 20
26.6497539045
 10
-17.0705347605
 20
26.6798718317
 10
-17.03056554
 20
26.7057853681
 10
-16.9883811103
 20
26.7274932211
 10
-16.9438078604
 20
26.7450711754
 10
-16.897023836
 20
26.758441141
 10
-16.8485591521
 20
26.7673709388
 10
-16.7983565155
 20
26.771782566
 10
-16.7464774419
 20
26.7717518383
 10
-16.6936305285
 20
26.7672771673
 10
-16.6397863012
 20
26.7582544158
 10
-16.5849774707
 20
26.7447860486
 10
-16.5300057782
 20
26.7271804498
 10
-16.4751390501
 20
26.7055401151
 10
-16.4201111446
 20
26.6797616795
 10
-16.3649224776
 20
26.6498449286
  0
LWPOLYLINE
  5
236
100
AcDbEntity
  8
RACCORDO
100
AcDbPolyline
 62
250
  6
CONTINUOUS
 90
16
 70
0
 10
-17.1082862896
 20
26.6497539045
 10
-17.0705347605
 20
26.6798718317
 10
-17.03056554
 20
26.7057853681
 10
-16.9883811103
 20
26.7274932211
 10
-16.9438078604
 20
26.7450711754
 10
-16.897023836
 20
26.758441141
 10
-16.8485591521
 20
26.7673709388
 10
-16.7983565155
 20
26.771782566
 10
-16.7464774419
 20
26.7717518383
 10
-16.6936305285
 20
26.7672771673
 10
-16.6397863012
 20
26.7582544158
 10
-16.5849774707
 20
26.7447860486
 10
-16.5300057782
 20
26.7271804498
 10
-16.4751390501
 20
26.7055401151
 10
-16.4201111446
 20
26.6797616795
 10
-16.3649224776
 20
26.6498449286
  0
LWPOLYLINE
  5
237
100
AcDbEntity
  8
ASSI
100
AcDbPolyline
 62
250
  6
CONTINUOUS
 90
4
 70
0
 10
-16.5030259162
 20
26.4072213893
 10
-16.4791404383
 20
26.4259373357
 10
-16.4536930814
 20
26.4422012468
 10
-16.4302282652
 20
26.4543576885
  0
LWPOLYLINE
  5
238
100
AcDbEntity
  8
RACCORDO
100
AcDbPolyline
 62
250
  6
CONTINUOUS
 90
4
 70
0
 10
-16.5030259162
 20
26.4072213893
 10
-16.4791404383
 20
26.4259373357
 10
-16.4536930814
 20
26.4422012468
 10
-16.4302282652
 20
26.4543576885
  0
LINE
  5
239
100
AcDbEntity
  8
ASSI
100
AcDbLine
 62
250
  6
CONTINUOUS
 10
-16.6439126701
 20
26.0649652659
 11
-16.1106039522
 21
26.3115554151
  0
LINE
  5
23A
100
AcDbEntity
  8
0
100
AcDbLine
 62
250
  6
CONTINUOUS
 10
-16.6439126701
 20
26.0649652659
 11
-16.1106039522
 21
26.3115554151
  0
LWPOLYLINE
  5
23B
100
AcDbEntity
  8
ASSI
100
AcDbPolyline
 62
7
  6
CONTINUOUS
 90
13
 70
0
 10
-16.4315179128
 20
26.453906174
 10
-16.4314669186
 20
26.4539290562
 10
-16.4298845774
 20
26.4542275421
 10
-16.4257447993
 20
26.4546410115
 10
-16.4181489768
 20
26.4547442885
 10
-16.4067193032
 20
26.4539196758
 10
-16.3918425458
 20
26.451637332
 10
-16.3738953923
 20
26.4475130513
 10
-16.3530917531
 20
26.4412143594
 10
-16.3297797592
 20
26.4325148182
 10
-16.3044887706
 20
26.4213504467
 10
-16.277550764
 20
26.4076626762
 10
-16.2620329897
 20
26.3989872574
  0
LWPOLYLINE
  5
23C
100
AcDbEntity
  8
RACCORDO
100
AcDbPolyline
 62
7
  6
CONTINUOUS
 90
13
 70
0
 10
-16.4315179128
 20
26.453906174
 10
-16.4314669186
 20
26.4539290562
 10
-16.4298845774
 20
26.4542275421
 10
-16.4257447993
 20
26.4546410115
 10
-16.4181489768
 20
26.4547442885
 10
-16.4067193032
 20
26.4539196758
 10
-16.3918425458
 20
26.451637332
 10
-16.3738953923
 20
26.4475130513
 10
-16.3530917531
 20
26.4412143594
 10
-16.3297797592
 20
26.4325148182
 10
-16.3044887706
 20
26.4213504467
 10
-16.277550764
 20
26.4076626762
 10
-16.2620329897
 20
26.3989872574
  0
LWPOLYLINE
  5
23D
100
AcDbEntity
  8
ASSI
100
AcDbPolyline
 62
250
  6
CONTINUOUS
 90
12
 70
0
 10
15.3337619742
 20
-28.5500660155
 10
15.3080247045
 20
-28.5563514037
 10
15.2810116282
 20
-28.5600112985
 10
15.2528022999
 20
-28.5610145168
 10
15.2235263836
 20
-28.5593370883
 10
15.1933477882
 20
-28.5550059998
 10
15.1623864172
 20
-28.548039153
 10
15.1307743067
 20
-28.5384667172
 10
15.0987122445
 20
-28.5263942221
 10
15.0663591341
 20
-28.5119182321
 10
15.0338240377
 20
-28.4950982005
 10
15.0012370815
 20
-28.4760202802
  0
LWPOLYLINE
  5
23E
100
AcDbEntity
  8
RACCORDO
100
AcDbPolyline
 62
250
  6
CONTINUOUS
 90
12
 70
0
 10
15.3337619742
 20
-28.5500660155
 10
15.3080247045
 20
-28.5563514037
 10
15.2810116282
 20
-28.5600112985
 10
15.2528022999
 20
-28.5610145168
 10
15.2235263836
 20
-28.5593370883
 10
15.1933477882
 20
-28.5550059998
 10
15.1623864172
 20
-28.548039153
 10
15.1307743067
 20
-28.5384667172
 10
15.0987122445
 20
-28.5263942221
 10
15.0663591341
 20
-28.5119182321
 10
15.0338240377
 20
-28.4950982005
 10
15.0012370815
 20
-28.4760202802
  0
LWPOLYLINE
  5
23F
100
AcDbEntity
  8
ASSI
100
AcDbPolyline
 62
250
  6
CONTINUOUS
 90
19
 70
0
 10
32.3746618197
 20
-54.2985237104
 10
32.3932582521
 20
-54.3080933855
 10
32.4132086745
 20
-54.3164274525
 10
32.434371045
 20
-54.323466575
 10
32.4565946923
 20
-54.3291606361
 10
32.4797213897
 20
-54.3334690954
 10
32.5035864805
 20
-54.3363612777
 10
32.5280200511
 20
-54.3378165915
 10
32.5528481404
 20
-54.3378246752
 10
32.5778939784
 20
-54.3363854712
 10
32.6029792448
 20
-54.3335092264
 10
32.6279253385
 20
-54.329216419
 10
32.6525546494
 20
-54.3235376126
 10
32.6766918228
 20
-54.3165132391
 10
32.7001650077
 20
-54.3081933102
 10
32.7228070809
 20
-54.2986370618
 10
32.7444568363
 20
-54.2879125321
 10
32.7649601327
 20
-54.2760960772
 10
32.7841709917
 20
-54.2632718274
  0
LWPOLYLINE
  5
240
100
AcDbEntity
  8
RACCORDO
100
AcDbPolyline
 62
250
  6
CONTINUOUS
 90
19
 70
0
 10
32.3746618197
 20
-54.2985237104
 10
32.3932582521
 20
-54.3080933855
 10
32.4132086745
 20
-54.3164274525
 10
32.434371045
 20
-54.323466575
 10
32.4565946923
 20
-54.3291606361
 10
32.4797213897
 20
-54.3334690954
 10
32.5035864805
 20
-54.3363612777
 10
32.5280200511
 20
-54.3378165915
 10
32.5528481404
 20
-54.3378246752
 10
32.5778939784
 20
-54.3363854712
 10
32.6029792448
 20
-54.3335092264
 10
32.6279253385
 20
-54.329216419
 10
32.6525546494
 20
-54.3235376126
 10
32.6766918228
 20
-54.3165132391
 10
32.7001650077
 20
-54.3081933102
 10
32.7228070809
 20
-54.2986370618
 10
32.7444568363
 20
-54.2879125321
 10
32.7649601327
 20
-54.2760960772
 10
32.7841709917
 20
-54.2632718274
  0
LWPOLYLINE
  5
241
100
AcDbEntity
  8
ASSI
100
AcDbPolyline
 62
250
  6
CONTINUOUS
 90
6
 70
0
 10
31.976330763
 20
-54.5405120239
 10
32.0048311544
 20
-54.5561659842
 10
32.0327328915
 20
-54.5699352333
 10
32.0600360789
 20
-54.5818196884
 10
32.0868181449
 20
-54.5918471446
 10
32.1130020796
 20
-54.5999894762
  0
LWPOLYLINE
  5
242
100
AcDbEntity
  8
RACCORDO
100
AcDbPolyline
 62
250
  6
CONTINUOUS
 90
6
 70
0
 10
31.976330763
 20
-54.5405120239
 10
32.0048311544
 20
-54.5561659842
 10
32.0327328915
 20
-54.5699352333
 10
32.0600360789
 20
-54.5818196884
 10
32.0868181449
 20
-54.5918471446
 10
32.1130020796
 20
-54.5999894762
  0
LWPOLYLINE
  5
243
100
AcDbEntity
  8
ASSI
100
AcDbPolyline
 62
7
  6
CONTINUOUS
 90
16
 70
0
 10
32.0348736502
 20
-54.6353607055
 10
32.0650096512
 20
-54.6521305357
 10
32.1093122633
 20
-54.6744637092
 10
32.1532770254
 20
-54.6938558841
 10
32.1968898451
 20
-54.7103172832
 10
32.240124098
 20
-54.7238369827
 10
32.2829767551
 20
-54.7344024864
 10
32.3254574719
 20
-54.7420019912
 10
32.367539988
 20
-54.7465992394
 10
32.409235914
 20
-54.748141329
 10
32.4503992101
 20
-54.7465665683
 10
32.4906916236
 20
-54.7418657575
 10
32.5299953653
 20
-54.7340483493
 10
32.5681188575
 20
-54.723145695
 10
32.6045651451
 20
-54.7093456994
 10
32.6169086031
 20
-54.7038552033
  0
LWPOLYLINE
  5
244
100
AcDbEntity
  8
RACCORDO
100
AcDbPolyline
 62
7
  6
CONTINUOUS
 90
16
 70
0
 10
32.0348736502
 20
-54.6353607055
 10
32.0650096512
 20
-54.6521305357
 10
32.1093122633
 20
-54.6744637092
 10
32.1532770254
 20
-54.6938558841
 10
32.1968898451
 20
-54.7103172832
 10
32.240124098
 20
-54.7238369827
 10
32.2829767551
 20
-54.7344024864
 10
32.3254574719
 20
-54.7420019912
 10
32.367539988
 20
-54.7465992394
 10
32.409235914
 20
-54.748141329
 10
32.4503992101
 20
-54.7465665683
 10
32.4906916236
 20
-54.7418657575
 10
32.5299953653
 20
-54.7340483493
 10
32.5681188575
 20
-54.723145695
 10
32.6045651451
 20
-54.7093456994
 10
32.6169086031
 20
-54.7038552033
  0
LINE
  5
245
100
AcDbEntity
  8
ASSI
100
AcDbLine
 62
7
  6
CONTINUOUS
 10
-30.0181812631
 20
-18.8067099448
 11
32.0349302201
 21
-54.635398807
  0
LINE
  5
246
100
AcDbEntity
  8
RACCORDO
100
AcDbLine
 62
7
  6
CONTINUOUS
 10
-30.0181812631
 20
-18.8067099448
 11
32.0349302201
 21
-54.635398807
  0
LINE
  5
247
100
AcDbEntity
  8
ASSI
100
AcDbLine
 62
250
  6
CONTINUOUS
 10
-30.0767806543
 20
-18.7118231997
 11
31.976330763
 21
-54.5405120239
  0
LINE
  5
248
100
AcDbEntity
  8
RACCORDO
100
AcDbLine
 62
250
  6
CONTINUOUS
 10
-30.0767806543
 20
-18.7118231997
 11
31.976330763
 21
-54.5405120239
  0
LINE
  5
249
100
AcDbEntity
  8
ASSI
100
AcDbLine
 62
7
  6
CONTINUOUS
 10
32.0348713066
 20
-54.6353647643
 11
32.0349301966
 21
-54.6353987934
  0
LINE
  5
24A
100
AcDbEntity
  8
RACCORDO
100
AcDbLine
 62
7
  6
CONTINUOUS
 10
32.0348713066
 20
-54.6353647643
 11
32.0349301966
 21
-54.6353987934
  0
LINE
  5
24B
100
AcDbEntity
  8
ASSI
100
AcDbLine
 62
7
  6
CONTINUOUS
 10
-30.0579322663
 20
-18.7826513573
 11
-30.0180764944
 21
-18.8067654223
  0
LINE
  5
24C
100
AcDbEntity
  8
RACCORDO
100
AcDbLine
 62
7
  6
CONTINUOUS
 10
-30.0579322663
 20
-18.7826513573
 11
-30.0180764944
 21
-18.8067654223
  0
LWPOLYLINE
  5
24D
100
AcDbEntity
  8
ASSI
100
AcDbPolyline
 62
250
  6
CONTINUOUS
 90
10
 70
0
 10
-30.6575009136
 20
-17.9045429333
 10
-30.6746692705
 20
-17.8934620341
 10
-30.6902290098
 20
-17.8812925966
 10
-30.7040693525
 20
-17.8681212624
 10
-30.7160917611
 20
-17.8540418058
 10
-30.7262106409
 20
-17.8391544667
 10
-30.7343539497
 20
-17.823565237
 10
-30.7404637106
 20
-17.8073851054
 10
-30.7444964244
 20
-17.7907292679
 10
-30.744802014
 20
-17.7889334139
  0
LWPOLYLINE
  5
24E
100
AcDbEntity
  8
RACCORDO
100
AcDbPolyline
 62
250
  6
CONTINUOUS
 90
10
 70
0
 10
-30.6575009136
 20
-17.9045429333
 10
-30.6746692705
 20
-17.8934620341
 10
-30.6902290098
 20
-17.8812925966
 10
-30.7040693525
 20
-17.8681212624
 10
-30.7160917611
 20
-17.8540418058
 10
-30.7262106409
 20
-17.8391544667
 10
-30.7343539497
 20
-17.823565237
 10
-30.7404637106
 20
-17.8073851054
 10
-30.7444964244
 20
-17.7907292679
 10
-30.744802014
 20
-17.7889334139
  0
LWPOLYLINE
  5
24F
100
AcDbEntity
  8
ASSI
100
AcDbPolyline
 62
7
  6
CONTINUOUS
 90
3
 70
0
 10
-30.1517978269
 20
-18.7170545321
 10
-30.1051339124
 20
-18.7512228965
 10
-30.0579322663
 20
-18.7826513573
  0
LWPOLYLINE
  5
250
100
AcDbEntity
  8
RACCORDO
100
AcDbPolyline
 62
7
  6
CONTINUOUS
 90
3
 70
0
 10
-30.1517978269
 20
-18.7170545321
 10
-30.1051339124
 20
-18.7512228965
 10
-30.0579322663
 20
-18.7826513573
  0
LWPOLYLINE
  5
251
100
AcDbEntity
  8
ASSI
100
AcDbPolyline
 62
7
  6
CONTINUOUS
 90
16
 70
0
 10
-30.6910225722
 20
-17.9897008705
 10
-30.6698195052
 20
-18.0438681573
 10
-30.6459327473
 20
-18.0980413275
 10
-30.6194575503
 20
-18.152090347
 10
-30.5905388145
 20
-18.2057728572
 10
-30.5592930683
 20
-18.2589325375
 10
-30.5258210262
 20
-18.3114189576
 10
-30.4903173944
 20
-18.3629435618
 10
-30.4529163655
 20
-18.4133340879
 10
-30.4137408837
 20
-18.462415726
 10
-30.3730258986
 20
-18.5098976281
 10
-30.3309061517
 20
-18.5556202065
 10
-30.287521026
 20
-18.599409737
 10
-30.2431218633
 20
-18.6410067052
 10
-30.1978446062
 20
-18.6802633019
 10
-30.1517978269
 20
-18.7170545321
  0
LWPOLYLINE
  5
252
100
AcDbEntity
  8
RACCORDO
100
AcDbPolyline
 62
7
  6
CONTINUOUS
 90
16
 70
0
 10
-30.6910225722
 20
-17.9897008705
 10
-30.6698195052
 20
-18.0438681573
 10
-30.6459327473
 20
-18.0980413275
 10
-30.6194575503
 20
-18.152090347
 10
-30.5905388145
 20
-18.2057728572
 10
-30.5592930683
 20
-18.2589325375
 10
-30.5258210262
 20
-18.3114189576
 10
-30.4903173944
 20
-18.3629435618
 10
-30.4529163655
 20
-18.4133340879
 10
-30.4137408837
 20
-18.462415726
 10
-30.3730258986
 20
-18.5098976281
 10
-30.3309061517
 20
-18.5556202065
 10
-30.287521026
 20
-18.599409737
 10
-30.2431218633
 20
-18.6410067052
 10
-30.1978446062
 20
-18.6802633019
 10
-30.1517978269
 20
-18.7170545321
  0
LWPOLYLINE
  5
253
100
AcDbEntity
  8
ASSI
100
AcDbPolyline
 62
7
  6
CONTINUOUS
 90
4
 70
0
 10
-30.737573659
 20
-17.8280428022
 10
-30.7250031164
 20
-17.8817340169
 10
-30.7094492049
 20
-17.9356307097
 10
-30.6910225722
 20
-17.9897008705
  0
LWPOLYLINE
  5
254
100
AcDbEntity
  8
RACCORDO
100
AcDbPolyline
 62
7
  6
CONTINUOUS
 90
4
 70
0
 10
-30.737573659
 20
-17.8280428022
 10
-30.7250031164
 20
-17.8817340169
 10
-30.7094492049
 20
-17.9356307097
 10
-30.6910225722
 20
-17.9897008705
  0
LWPOLYLINE
  5
255
100
AcDbEntity
  8
ASSI
100
AcDbPolyline
 62
250
  6
CONTINUOUS
 90
8
 70
0
 10
-30.0767806543
 20
-18.7118231997
 10
-30.0725285537
 20
-18.7306149612
 10
-30.0666567194
 20
-18.7479506318
 10
-30.0592116921
 20
-18.7636928074
 10
-30.0502524818
 20
-18.777716714
 10
-30.0398501001
 20
-18.7899111967
 10
-30.0280869972
 20
-18.8001796009
 10
-30.0181812631
 20
-18.8067099448
  0
LWPOLYLINE
  5
256
100
AcDbEntity
  8
RACCORDO
100
AcDbPolyline
 62
250
  6
CONTINUOUS
 90
8
 70
0
 10
-30.0767806543
 20
-18.7118231997
 10
-30.0725285537
 20
-18.7306149612
 10
-30.0666567194
 20
-18.7479506318
 10
-30.0592116921
 20
-18.7636928074
 10
-30.0502524818
 20
-18.777716714
 10
-30.0398501001
 20
-18.7899111967
 10
-30.0280869972
 20
-18.8001796009
 10
-30.0181812631
 20
-18.8067099448
  0
LWPOLYLINE
  5
257
100
AcDbEntity
  8
ASSI
100
AcDbPolyline
 62
250
  6
CONTINUOUS
 90
28
 70
0
 10
-30.6575009568
 20
-17.9045429672
 10
-30.6515912851
 20
-17.9358395215
 10
-30.6440691293
 20
-17.9677599523
 10
-30.6349347253
 20
-18.0003044429
 10
-30.6241475311
 20
-18.0335822736
 10
-30.6117485091
 20
-18.0674844906
 10
-30.5978603453
 20
-18.1016840777
 10
-30.5824596158
 20
-18.136202497
 10
-30.565570568
 20
-18.1710189312
 10
-30.5473877804
 20
-18.2057432496
 10
-30.5279046915
 20
-18.2403595413
 10
-30.5071290156
 20
-18.2748846228
 10
-30.4852770563
 20
-18.3089777016
 10
-30.4623393064
 20
-18.3426351075
 10
-30.438326547
 20
-18.3758615135
 10
-30.4134857128
 20
-18.4083287976
 10
-30.387810671
 20
-18.4400285778
 10
-30.3613088094
 20
-18.4709702257
 10
-30.3342474488
 20
-18.5008523326
 10
-30.3066218393
 20
-18.5296647694
 10
-30.2784378202
 20
-18.5574185253
 10
-30.2499786166
 20
-18.5838438846
 10
-30.2212370369
 20
-18.6089308687
 10
-30.1922210731
 20
-18.6326900887
 10
-30.1632366769
 20
-18.6548826757
 10
-30.1343859776
 20
-18.6754291217
 10
-30.1055672683
 20
-18.6944092687
 10
-30.0767806543
 20
-18.7118231997
  0
LWPOLYLINE
  5
258
100
AcDbEntity
  8
RACCORDO
100
AcDbPolyline
 62
250
  6
CONTINUOUS
 90
28
 70
0
 10
-30.6575009568
 20
-17.9045429672
 10
-30.6515912851
 20
-17.9358395215
 10
-30.6440691293
 20
-17.9677599523
 10
-30.6349347253
 20
-18.0003044429
 10
-30.6241475311
 20
-18.0335822736
 10
-30.6117485091
 20
-18.0674844906
 10
-30.5978603453
 20
-18.1016840777
 10
-30.5824596158
 20
-18.136202497
 10
-30.565570568
 20
-18.1710189312
 10
-30.5473877804
 20
-18.2057432496
 10
-30.5279046915
 20
-18.2403595413
 10
-30.5071290156
 20
-18.2748846228
 10
-30.4852770563
 20
-18.3089777016
 10
-30.4623393064
 20
-18.3426351075
 10
-30.438326547
 20
-18.3758615135
 10
-30.4134857128
 20
-18.4083287976
 10
-30.387810671
 20
-18.4400285778
 10
-30.3613088094
 20
-18.4709702257
 10
-30.3342474488
 20
-18.5008523326
 10
-30.3066218393
 20
-18.5296647694
 10
-30.2784378202
 20
-18.5574185253
 10
-30.2499786166
 20
-18.5838438846
 10
-30.2212370369
 20
-18.6089308687
 10
-30.1922210731
 20
-18.6326900887
 10
-30.1632366769
 20
-18.6548826757
 10
-30.1343859776
 20
-18.6754291217
 10
-30.1055672683
 20
-18.6944092687
 10
-30.0767806543
 20
-18.7118231997
  0
LINE
  5
259
100
AcDbEntity
  8
ASSI
100
AcDbLine
 62
7
  6
CONTINUOUS
 10
-30.7448320167
 20
-17.7887489344
 11
-30.737573659
 21
-17.8280428022
  0
LINE
  5
25A
100
AcDbEntity
  8
RACCORDO
100
AcDbLine
 62
7
  6
CONTINUOUS
 10
-30.7448320167
 20
-17.7887489344
 11
-30.737573659
 21
-17.8280428022
  0
LINE
  5
25B
100
AcDbEntity
  8
ASSI
100
AcDbLine
 62
7
  6
CONTINUOUS
 10
-30.744802014
 20
-17.7889334139
 11
-30.7448320167
 21
-17.7887489344
  0
LINE
  5
25C
100
AcDbEntity
  8
RACCORDO
100
AcDbLine
 62
7
  6
CONTINUOUS
 10
-30.744802014
 20
-17.7889334139
 11
-30.7448320167
 21
-17.7887489344
  0
LINE
  5
25D
100
AcDbEntity
  8
ASSI
100
AcDbLine
 62
250
  6
CONTINUOUS
 10
-30.9290467043
 20
-16.1646280278
 11
-30.6575009568
 21
-17.9045429672
  0
LINE
  5
25E
100
AcDbEntity
  8
RACCORDO
100
AcDbLine
 62
250
  6
CONTINUOUS
 10
-30.9290467043
 20
-16.1646280278
 11
-30.6575009568
 21
-17.9045429672
  0
LWPOLYLINE
  5
25F
100
AcDbEntity
  8
ASSI
100
AcDbPolyline
 62
7
  6
CONTINUOUS
 90
3
 70
0
 10
-13.3323058085
 20
20.1163426958
 10
-13.3065211915
 20
20.1410734434
 10
-13.281860947
 20
20.1675781023
  0
LWPOLYLINE
  5
260
100
AcDbEntity
  8
0
100
AcDbPolyline
 62
7
  6
CONTINUOUS
 90
3
 70
0
 10
-13.3323058085
 20
20.1163426958
 10
-13.3065211915
 20
20.1410734434
 10
-13.281860947
 20
20.1675781023
  0
LWPOLYLINE
  5
261
100
AcDbEntity
  8
ASSI
100
AcDbPolyline
 62
250
  6
CONTINUOUS
 90
22
 70
0
 10
-13.3716274679
 20
20.1472142092
 10
-13.356169919
 20
20.1576049828
 10
-13.3409875973
 20
20.1691000125
 10
-13.3260805027
 20
20.1816992984
 10
-13.3113697852
 20
20.195483263
 10
-13.2969342948
 20
20.2103714837
 10
-13.283010582
 20
20.2261226931
 10
-13.2696086432
 20
20.2427498867
 10
-13.256718482
 20
20.2602400689
 10
-13.2445466595
 20
20.2783129856
 10
-13.2331054758
 20
20.2969767571
 10
-13.2223826308
 20
20.3162232631
 10
-13.2125477854
 20
20.3357478889
 10
-13.2036140683
 20
20.3555598567
 10
-13.1955683508
 20
20.3756499441
 10
-13.1885409072
 20
20.3956858702
 10
-13.1825505392
 20
20.4156625784
 10
-13.1775784451
 20
20.4355851252
 10
-13.1736984947
 20
20.4551363988
 10
-13.1709353112
 20
20.4742106954
 10
-13.1692642715
 20
20.4929137189
 10
-13.1686853754
 20
20.5112454693
  0
LWPOLYLINE
  5
262
100
AcDbEntity
  8
0
100
AcDbPolyline
 62
250
  6
CONTINUOUS
 90
22
 70
0
 10
-13.3716274679
 20
20.1472142092
 10
-13.356169919
 20
20.1576049828
 10
-13.3409875973
 20
20.1691000125
 10
-13.3260805027
 20
20.1816992984
 10
-13.3113697852
 20
20.195483263
 10
-13.2969342948
 20
20.2103714837
 10
-13.283010582
 20
20.2261226931
 10
-13.2696086432
 20
20.2427498867
 10
-13.256718482
 20
20.2602400689
 10
-13.2445466595
 20
20.2783129856
 10
-13.2331054758
 20
20.2969767571
 10
-13.2223826308
 20
20.3162232631
 10
-13.2125477854
 20
20.3357478889
 10
-13.2036140683
 20
20.3555598567
 10
-13.1955683508
 20
20.3756499441
 10
-13.1885409072
 20
20.3956858702
 10
-13.1825505392
 20
20.4156625784
 10
-13.1775784451
 20
20.4355851252
 10
-13.1736984947
 20
20.4551363988
 10
-13.1709353112
 20
20.4742106954
 10
-13.1692642715
 20
20.4929137189
 10
-13.1686853754
 20
20.5112454693
  0
LWPOLYLINE
  5
263
100
AcDbEntity
  8
ASSI
100
AcDbPolyline
 62
7
  6
CONTINUOUS
 90
4
 70
0
 10
-13.4079238633
 20
20.0587767727
 10
-13.3870476228
 20
20.0726203488
 10
-13.3591440397
 20
20.0935053792
 10
-13.3323058085
 20
20.1163426958
  0
LWPOLYLINE
  5
264
100
AcDbEntity
  8
0
100
AcDbPolyline
 62
7
  6
CONTINUOUS
 90
4
 70
0
 10
-13.4079238633
 20
20.0587767727
 10
-13.3870476228
 20
20.0726203488
 10
-13.3591440397
 20
20.0935053792
 10
-13.3323058085
 20
20.1163426958
  0
LWPOLYLINE
  5
265
100
AcDbEntity
  8
ASSI
100
AcDbPolyline
 62
250
  6
CONTINUOUS
 90
9
 70
0
 10
-13.1686853754
 20
22.3354941738
 10
-13.1548865804
 20
22.3444942133
 10
-13.1427827823
 20
22.35427371
 10
-13.1325051384
 20
22.3647267155
 10
-13.1241650221
 20
22.3757399833
 10
-13.1178528178
 20
22.3871941924
 10
-13.1136369394
 20
22.3989652402
 10
-13.1115630858
 20
22.4109255932
 10
-13.1113354652
 20
22.4164333695
  0
LWPOLYLINE
  5
266
100
AcDbEntity
  8
0
100
AcDbPolyline
 62
250
  6
CONTINUOUS
 90
9
 70
0
 10
-13.1686853754
 20
22.3354941738
 10
-13.1548865804
 20
22.3444942133
 10
-13.1427827823
 20
22.35427371
 10
-13.1325051384
 20
22.3647267155
 10
-13.1241650221
 20
22.3757399833
 10
-13.1178528178
 20
22.3871941924
 10
-13.1136369394
 20
22.3989652402
 10
-13.1115630858
 20
22.4109255932
 10
-13.1113354652
 20
22.4164333695
  0
LWPOLYLINE
  5
267
100
AcDbEntity
  8
ASSI
100
AcDbPolyline
 62
250
  6
CONTINUOUS
 90
9
 70
0
 10
-13.1686853754
 20
20.5112454693
 10
-13.1548862932
 20
20.5202457193
 10
-13.1427823255
 20
20.5300254227
 10
-13.1325046179
 20
20.5404786172
 10
-13.1241645284
 20
20.5514920431
 10
-13.1178524213
 20
20.5629463709
 10
-13.1136366879
 20
20.5747174939
 10
-13.1115630051
 20
20.5866778728
 10
-13.1113354652
 20
20.5921847143
  0
LWPOLYLINE
  5
268
100
AcDbEntity
  8
0
100
AcDbPolyline
 62
250
  6
CONTINUOUS
 90
9
 70
0
 10
-13.1686853754
 20
20.5112454693
 10
-13.1548862932
 20
20.5202457193
 10
-13.1427823255
 20
20.5300254227
 10
-13.1325046179
 20
20.5404786172
 10
-13.1241645284
 20
20.5514920431
 10
-13.1178524213
 20
20.5629463709
 10
-13.1136366879
 20
20.5747174939
 10
-13.1115630051
 20
20.5866778728
 10
-13.1113354652
 20
20.5921847143
  0
LINE
  5
269
100
AcDbEntity
  8
ASSI
100
AcDbLine
 62
250
  6
CONTINUOUS
 10
-14.5853564518
 20
19.3847126821
 11
-13.3716274679
 21
20.1472142092
  0
LINE
  5
26A
100
AcDbEntity
  8
0
100
AcDbLine
 62
250
  6
CONTINUOUS
 10
-14.5853564518
 20
19.3847126821
 11
-13.3716274679
 21
20.1472142092
  0
LINE
  5
26B
100
AcDbEntity
  8
ASSI
100
AcDbLine
 62
7
  6
CONTINUOUS
 10
-14.5853564518
 20
19.3190764671
 11
-13.4078846449
 21
20.0588001309
  0
LINE
  5
26C
100
AcDbEntity
  8
0
100
AcDbLine
 62
7
  6
CONTINUOUS
 10
-14.5853564518
 20
19.3190764671
 11
-13.4078846449
 21
20.0588001309
  0
LINE
  5
26D
100
AcDbEntity
  8
ASSI
100
AcDbLine
 62
250
  6
CONTINUOUS
 10
-13.509306507
 20
22.7080496216
 11
-14.5853564518
 21
22.1195826102
  0
LINE
  5
26E
100
AcDbEntity
  8
0
100
AcDbLine
 62
250
  6
CONTINUOUS
 10
-13.509306507
 20
22.7080496216
 11
-14.5853564518
 21
22.1195826102
  0
LINE
  5
26F
100
AcDbEntity
  8
ASSI
100
AcDbLine
 62
250
  6
CONTINUOUS
 10
-13.3716274679
 20
22.4610466568
 11
-14.5853564518
 21
21.7972861397
  0
LINE
  5
270
100
AcDbEntity
  8
0
100
AcDbLine
 62
250
  6
CONTINUOUS
 10
-13.3716274679
 20
22.4610466568
 11
-14.5853564518
 21
21.7972861397
  0
LINE
  5
271
100
AcDbEntity
  8
ASSI
100
AcDbLine
 62
7
  6
CONTINUOUS
 10
-14.5853564518
 20
22.7797660924
 11
-14.1136349627
 21
23.015372742
  0
LINE
  5
272
100
AcDbEntity
  8
0
100
AcDbLine
 62
7
  6
CONTINUOUS
 10
-14.5853564518
 20
22.7797660924
 11
-14.1136349627
 21
23.015372742
  0
LINE
  5
273
100
AcDbEntity
  8
ASSI
100
AcDbLine
 62
250
  6
CONTINUOUS
 10
-14.5853564518
 20
22.7197866406
 11
-14.0192968487
 21
23.0025115317
  0
LINE
  5
274
100
AcDbEntity
  8
0
100
AcDbLine
 62
250
  6
CONTINUOUS
 10
-14.5853564518
 20
22.7197866406
 11
-14.0192968487
 21
23.0025115317
  0
LWPOLYLINE
  5
275
100
AcDbEntity
  8
ASSI
100
AcDbPolyline
 62
250
  6
CONTINUOUS
 90
11
 70
0
 10
-14.0192973565
 20
23.0025118227
 10
-13.9930194162
 20
23.0149280024
 10
-13.9669381778
 20
23.0250771131
 10
-13.9411903569
 20
23.0328990875
 10
-13.915904227
 20
23.0383453283
 10
-13.8912205345
 20
23.0413806121
 10
-13.8672905836
 20
23.0419876299
 10
-13.8442434496
 20
23.0401615425
 10
-13.8221966754
 20
23.0359100581
 10
-13.8012759874
 20
23.0292590405
 10
-13.7815927991
 20
23.0202440316
  0
LWPOLYLINE
  5
276
100
AcDbEntity
  8
0
100
AcDbPolyline
 62
250
  6
CONTINUOUS
 90
11
 70
0
 10
-14.0192973565
 20
23.0025118227
 10
-13.9930194162
 20
23.0149280024
 10
-13.9669381778
 20
23.0250771131
 10
-13.9411903569
 20
23.0328990875
 10
-13.915904227
 20
23.0383453283
 10
-13.8912205345
 20
23.0413806121
 10
-13.8672905836
 20
23.0419876299
 10
-13.8442434496
 20
23.0401615425
 10
-13.8221966754
 20
23.0359100581
 10
-13.8012759874
 20
23.0292590405
 10
-13.7815927991
 20
23.0202440316
  0
LWPOLYLINE
  5
277
100
AcDbEntity
  8
ASSI
100
AcDbPolyline
 62
250
  6
CONTINUOUS
 90
8
 70
0
 10
-14.1118154987
 20
23.0162472496
 10
-14.100398733
 20
23.0203182023
 10
-14.0881491606
 20
23.0223777598
 10
-14.0752007819
 20
23.0224033885
 10
-14.0616952442
 20
23.0203948051
 10
-14.0477802892
 20
23.0163739801
 10
-14.0336081353
 20
23.0103848963
 10
-14.0193338161
 20
23.0024930679
  0
LWPOLYLINE
  5
278
100
AcDbEntity
  8
0
100
AcDbPolyline
 62
250
  6
CONTINUOUS
 90
8
 70
0
 10
-14.1118154987
 20
23.0162472496
 10
-14.100398733
 20
23.0203182023
 10
-14.0881491606
 20
23.0223777598
 10
-14.0752007819
 20
23.0224033885
 10
-14.0616952442
 20
23.0203948051
 10
-14.0477802892
 20
23.0163739801
 10
-14.0336081353
 20
23.0103848963
 10
-14.0193338161
 20
23.0024930679
  0
LWPOLYLINE
  5
279
100
AcDbEntity
  8
ASSI
100
AcDbPolyline
 62
250
  6
CONTINUOUS
 90
4
 70
0
 10
-17.3316138531
 20
-9.6175728791
 10
-17.4525075635
 20
-6.7061376697
 10
-17.5514309816
 20
-3.7823023995
 10
-17.6283779324
 20
-0.8462588696
  0
LWPOLYLINE
  5
27A
100
AcDbEntity
  8
RACCORDO
100
AcDbPolyline
 62
250
  6
CONTINUOUS
 90
4
 70
0
 10
-17.3316138531
 20
-9.6175728791
 10
-17.4525075635
 20
-6.7061376697
 10
-17.5514309816
 20
-3.7823023995
 10
-17.6283779324
 20
-0.8462588696
  0
LWPOLYLINE
  5
27B
100
AcDbEntity
  8
ASSI
100
AcDbPolyline
 62
250
  6
CONTINUOUS
 90
10
 70
0
 10
-17.6283779324
 20
-0.8462588696
 10
-17.6833437201
 20
2.1018003786
 10
-17.7163248035
 20
5.0616817675
 10
-17.7273187987
 20
8.0331906935
 10
-17.7163248041
 20
11.0161319327
 10
-17.6833437212
 20
14.0103097183
 10
-17.6283779338
 20
17.0155274413
 10
-17.551430983
 20
20.0315876836
 10
-17.4525075644
 20
23.0582922327
 10
-17.3316138531
 20
26.0954421563
  0
LWPOLYLINE
  5
27C
100
AcDbEntity
  8
RACCORDO
100
AcDbPolyline
 62
250
  6
CONTINUOUS
 90
10
 70
0
 10
-17.6283779324
 20
-0.8462588696
 10
-17.6833437201
 20
2.1018003786
 10
-17.7163248035
 20
5.0616817675
 10
-17.7273187987
 20
8.0331906935
 10
-17.7163248041
 20
11.0161319327
 10
-17.6833437212
 20
14.0103097183
 10
-17.6283779338
 20
17.0155274413
 10
-17.551430983
 20
20.0315876836
 10
-17.4525075644
 20
23.0582922327
 10
-17.3316138531
 20
26.0954421563
  0
LINE
  5
27D
100
AcDbEntity
  8
0
100
AcDbLine
 62
250
  6
CONTINUOUS
 10
-17.7429500512
 20
30.2958035176
 11
-17.7995834378
 21
29.3249691579
  0
LINE
  5
27E
100
AcDbEntity
  8
0
100
AcDbLine
 62
250
  6
CONTINUOUS
 10
-16.5985342863
 20
28.6314984197
 11
-16.5419008997
 21
29.6023327793
  0
LINE
  5
27F
100
AcDbEntity
  8
0
100
AcDbLine
 62
250
  6
CONTINUOUS
 10
-17.6671100535
 20
30.3395846975
 11
-17.7242318484
 21
29.3684683159
  0
LINE
  5
280
100
AcDbEntity
  8
0
100
AcDbLine
 62
250
  6
CONTINUOUS
 10
-16.6644824295
 20
28.7565822949
 11
-16.6073606345
 21
29.7276986766
  0
LINE
  5
281
100
AcDbEntity
  8
0
100
AcDbLine
 62
250
  6
CONTINUOUS
 10
-17.5912275517
 20
30.3833904188
 11
-17.648837767
 21
29.4119928572
  0
LINE
  5
282
100
AcDbEntity
  8
0
100
AcDbLine
 62
250
  6
CONTINUOUS
 10
-16.7303880826
 20
28.88169152
 11
-16.6727778673
 21
29.8530890816
  0
LWPOLYLINE
  5
283
100
AcDbEntity
  8
ASSI
100
AcDbPolyline
 62
250
  6
CONTINUOUS
 90
13
 70
0
 10
-17.3316138531
 20
26.0954421563
 10
-17.3278947852
 20
26.1527947599
 10
-17.3213836013
 20
26.2086004909
 10
-17.3120802797
 20
26.2628593595
 10
-17.299964999
 20
26.315877054
 10
-17.2850574556
 20
26.3673479483
 10
-17.2674172708
 20
26.4163548896
 10
-17.2469183792
 20
26.4628531419
 10
-17.2236875151
 20
26.5068870907
 10
-17.1981642397
 20
26.5476728803
 10
-17.1704956916
 20
26.5849489034
 10
-17.1405361627
 20
26.618976022
 10
-17.1082862896
 20
26.6497539045
  0
LWPOLYLINE
  5
284
100
AcDbEntity
  8
RACCORDO
100
AcDbPolyline
 62
250
  6
CONTINUOUS
 90
13
 70
0
 10
-17.3316138531
 20
26.0954421563
 10
-17.3278947852
 20
26.1527947599
 10
-17.3213836013
 20
26.2086004909
 10
-17.3120802797
 20
26.2628593595
 10
-17.299964999
 20
26.315877054
 10
-17.2850574556
 20
26.3673479483
 10
-17.2674172708
 20
26.4163548896
 10
-17.2469183792
 20
26.4628531419
 10
-17.2236875151
 20
26.5068870907
 10
-17.1981642397
 20
26.5476728803
 10
-17.1704956916
 20
26.5849489034
 10
-17.1405361627
 20
26.618976022
 10
-17.1082862896
 20
26.6497539045
  0
LWPOLYLINE
  5
285
100
AcDbEntity
  8
0
100
AcDbPolyline
 62
250
  6
CONTINUOUS
 90
3
 70
0
 10
-15.7294260151
 20
29.1332199745
 10
-15.6662389441
 20
30.1212844223
 10
-15.6354091594
 20
30.5743115639
  0
LWPOLYLINE
  5
286
100
AcDbEntity
  8
ASSI
100
AcDbPolyline
 62
250
  6
CONTINUOUS
 90
13
 70
0
 10
-16.643912534
 20
26.0649653288
 10
-16.6416158363
 20
26.0999967792
 10
-16.6376020117
 20
26.1343632231
 10
-16.6318371414
 20
26.1679315434
 10
-16.6242772666
 20
26.2006264403
 10
-16.6149076404
 20
26.2322437882
 10
-16.6037728237
 20
26.2624798634
 10
-16.5908671954
 20
26.2912538736
 10
-16.5762273839
 20
26.3184225128
 10
-16.5600351627
 20
26.3436659121
 10
-16.5424142932
 20
26.3668681386
 10
-16.5233869973
 20
26.3880645627
 10
-16.5030259162
 20
26.4072213893
  0
LWPOLYLINE
  5
287
100
AcDbEntity
  8
RACCORDO
100
AcDbPolyline
 62
250
  6
CONTINUOUS
 90
13
 70
0
 10
-16.643912534
 20
26.0649653288
 10
-16.6416158363
 20
26.0999967792
 10
-16.6376020117
 20
26.1343632231
 10
-16.6318371414
 20
26.1679315434
 10
-16.6242772666
 20
26.2006264403
 10
-16.6149076404
 20
26.2322437882
 10
-16.6037728237
 20
26.2624798634
 10
-16.5908671954
 20
26.2912538736
 10
-16.5762273839
 20
26.3184225128
 10
-16.5600351627
 20
26.3436659121
 10
-16.5424142932
 20
26.3668681386
 10
-16.5233869973
 20
26.3880645627
 10
-16.5030259162
 20
26.4072213893
  0
LWPOLYLINE
  5
288
100
AcDbEntity
  8
0
100
AcDbPolyline
 62
250
  6
CONTINUOUS
 90
3
 70
0
 10
-15.7948857512
 20
29.2585858499
 10
-15.7312055817
 20
30.2468911811
 10
-15.711929928
 20
30.5301373195
  0
LINE
  5
289
100
AcDbEntity
  8
0
100
AcDbLine
 62
250
  6
CONTINUOUS
 10
-15.8603036904
 20
29.3839766749
 11
-15.78840881
 21
30.4859880742
  0
LINE
  5
28A
100
AcDbEntity
  8
0
100
AcDbLine
 62
250
  6
CONTINUOUS
 10
-18.3318068493
 20
31.9545142071
 11
-18.4037017297
 21
30.8525028078
  0
LWPOLYLINE
  5
28B
100
AcDbEntity
  8
0
100
AcDbPolyline
 62
250
  6
CONTINUOUS
 90
3
 70
0
 10
-18.3966291153
 20
32.0802489663
 10
-18.4300110984
 20
31.5853462275
 10
-18.4795849384
 20
30.8086974968
  0
LWPOLYLINE
  5
28C
100
AcDbEntity
  8
0
100
AcDbPolyline
 62
250
  6
CONTINUOUS
 90
3
 70
0
 10
-18.4614080803
 20
32.2060079105
 10
-18.4950367132
 20
31.710985925
 10
-18.5554249358
 20
30.7649163211
  0
LINE
  5
28D
100
AcDbEntity
  8
0
100
AcDbLine
 62
250
  6
CONTINUOUS
 10
-17.4497342292
 20
32.4637212146
 11
-17.5193326738
 21
31.4854017797
  0
LINE
  5
28E
100
AcDbEntity
  8
0
100
AcDbLine
 62
250
  6
CONTINUOUS
 10
-16.6008829881
 20
30.9551004632
 11
-16.5312845433
 21
31.9334198981
  0
LINE
  5
28F
100
AcDbEntity
  8
0
100
AcDbLine
 62
250
  6
CONTINUOUS
 10
-17.5140655021
 20
32.589739467
 11
-17.5841542306
 21
31.6111361611
  0
LINE
  5
290
100
AcDbEntity
  8
0
100
AcDbLine
 62
250
  6
CONTINUOUS
 10
-16.524404813
 20
30.9992501187
 11
-16.4543160846
 21
31.9778534246
  0
LINE
  5
291
100
AcDbEntity
  8
0
100
AcDbLine
 62
250
  6
CONTINUOUS
 10
-17.5783541683
 20
32.7157815035
 11
-17.6489331956
 21
31.7368951058
  0
LINE
  5
292
100
AcDbEntity
  8
0
100
AcDbLine
 62
250
  6
CONTINUOUS
 10
-16.4478840442
 20
31.0434243674
 11
-16.377305017
 21
32.0223107651
  0
LWPOLYLINE
  5
293
100
AcDbEntity
  8
ASSI
100
AcDbPolyline
 62
7
  6
CONTINUOUS
 90
5
 70
0
 10
-13.1384300916
 20
20.4228373864
 10
-13.1286468213
 20
20.4576655507
 10
-13.1209814488
 20
20.4925364536
 10
-13.1154941954
 20
20.5273366869
 10
-13.1122533334
 20
20.5620426406
  0
LWPOLYLINE
  5
294
100
AcDbEntity
  8
0
100
AcDbPolyline
 62
7
  6
CONTINUOUS
 90
5
 70
0
 10
-13.1384300916
 20
20.4228373864
 10
-13.1286468213
 20
20.4576655507
 10
-13.1209814488
 20
20.4925364536
 10
-13.1154941954
 20
20.5273366869
 10
-13.1122533334
 20
20.5620426406
  0
LWPOLYLINE
  5
295
100
AcDbEntity
  8
ASSI
100
AcDbPolyline
 62
7
  6
CONTINUOUS
 90
9
 70
0
 10
-13.281860947
 20
20.1675781023
 10
-13.2584943964
 20
20.1956255661
 10
-13.2364816328
 20
20.2251121046
 10
-13.2158842528
 20
20.2559297728
 10
-13.1968854975
 20
20.2877920722
 10
-13.1795489711
 20
20.3205835456
 10
-13.1639399955
 20
20.3541894187
 10
-13.1502157329
 20
20.3883101485
 10
-13.1384300916
 20
20.4228373864
  0
LWPOLYLINE
  5
296
100
AcDbEntity
  8
0
100
AcDbPolyline
 62
7
  6
CONTINUOUS
 90
9
 70
0
 10
-13.281860947
 20
20.1675781023
 10
-13.2584943964
 20
20.1956255661
 10
-13.2364816328
 20
20.2251121046
 10
-13.2158842528
 20
20.2559297728
 10
-13.1968854975
 20
20.2877920722
 10
-13.1795489711
 20
20.3205835456
 10
-13.1639399955
 20
20.3541894187
 10
-13.1502157329
 20
20.3883101485
 10
-13.1384300916
 20
20.4228373864
  0
LINE
  5
297
100
AcDbEntity
  8
ASSI
100
AcDbLine
 62
7
  6
CONTINUOUS
 10
2.9745049927
 20
-25.6884881025
 11
2.9655112556
 21
-25.6856422113
  0
LINE
  5
298
100
AcDbEntity
  8
0
100
AcDbLine
 62
7
  6
CONTINUOUS
 10
2.9745049927
 20
-25.6884881025
 11
2.9655112556
 21
-25.6856422113
  0
LWPOLYLINE
  5
299
100
AcDbEntity
  8
ASSI
100
AcDbPolyline
 62
7
  6
CONTINUOUS
 90
25
 70
0
 10
1.8260654915
 20
-23.9380568494
 10
1.8678793049
 20
-23.9555977758
 10
1.9096911361
 20
-23.973521098
 10
1.9515009325
 20
-23.9918268506
 10
1.9932789895
 20
-24.010458776
 10
2.0350549188
 20
-24.0294731931
 10
2.0769176342
 20
-24.0490390068
 10
2.1188753592
 20
-24.0691560179
 10
2.160919774
 20
-24.0898244889
 10
2.2031149624
 20
-24.1112140273
 10
2.2454687337
 20
-24.1333236614
 10
2.2879732043
 20
-24.1561544118
 10
2.3306689155
 20
-24.1798788753
 10
2.3735996047
 20
-24.2045204077
 10
2.4167215159
 20
-24.2300556654
 10
2.4599439673
 20
-24.256587185
 10
2.5032684128
 20
-24.2840641184
 10
2.5466934807
 20
-24.3125372596
 10
2.5901243054
 20
-24.3422615715
 10
2.6336512958
 20
-24.3732216759
 10
2.6771843263
 20
-24.4054327643
 10
2.7203578872
 20
-24.4391955513
 10
2.7630504335
 20
-24.4746100824
 10
2.8053842962
 20
-24.5115757937
 10
2.8473599616
 20
-24.5500923641
  0
LWPOLYLINE
  5
29A
100
AcDbEntity
  8
0
100
AcDbPolyline
 62
7
  6
CONTINUOUS
 90
25
 70
0
 10
1.8260654915
 20
-23.9380568494
 10
1.8678793049
 20
-23.9555977758
 10
1.9096911361
 20
-23.973521098
 10
1.9515009325
 20
-23.9918268506
 10
1.9932789895
 20
-24.010458776
 10
2.0350549188
 20
-24.0294731931
 10
2.0769176342
 20
-24.0490390068
 10
2.1188753592
 20
-24.0691560179
 10
2.160919774
 20
-24.0898244889
 10
2.2031149624
 20
-24.1112140273
 10
2.2454687337
 20
-24.1333236614
 10
2.2879732043
 20
-24.1561544118
 10
2.3306689155
 20
-24.1798788753
 10
2.3735996047
 20
-24.2045204077
 10
2.4167215159
 20
-24.2300556654
 10
2.4599439673
 20
-24.256587185
 10
2.5032684128
 20
-24.2840641184
 10
2.5466934807
 20
-24.3125372596
 10
2.5901243054
 20
-24.3422615715
 10
2.6336512958
 20
-24.3732216759
 10
2.6771843263
 20
-24.4054327643
 10
2.7203578872
 20
-24.4391955513
 10
2.7630504335
 20
-24.4746100824
 10
2.8053842962
 20
-24.5115757937
 10
2.8473599616
 20
-24.5500923641
  0
LWPOLYLINE
  5
29B
100
AcDbEntity
  8
ASSI
100
AcDbPolyline
 62
250
  6
CONTINUOUS
 90
19
 70
0
 10
30.5582993068
 20
-37.8873497846
 10
30.5769248251
 20
-37.8971383126
 10
30.5969247633
 20
-37.9058993981
 10
30.6181568699
 20
-37.913570727
 10
30.6404701292
 20
-37.9200977362
 10
30.6637058357
 20
-37.9254340016
 10
30.6876987232
 20
-37.9295415685
 10
30.7122781397
 20
-37.9323912213
 10
30.7372692614
 20
-37.9339626917
 10
30.7624943365
 20
-37.9342448024
 10
30.7877739489
 20
-37.9332355467
 10
30.8129282948
 20
-37.9309421033
 10
30.8377784611
 20
-37.9273807844
 10
30.8621476986
 20
-37.9225769203
 10
30.8858626784
 20
-37.9165646789
 10
30.9087547252
 20
-37.909386823
 10
30.930661017
 20
-37.9010944058
 10
30.951425743
 20
-37.891746408
 10
30.9709012119
 20
-37.8814093183
  0
LWPOLYLINE
  5
29C
100
AcDbEntity
  8
RACCORDO
100
AcDbPolyline
 62
250
  6
CONTINUOUS
 90
19
 70
0
 10
30.5582993068
 20
-37.8873497846
 10
30.5769248251
 20
-37.8971383126
 10
30.5969247633
 20
-37.9058993981
 10
30.6181568699
 20
-37.913570727
 10
30.6404701292
 20
-37.9200977362
 10
30.6637058357
 20
-37.9254340016
 10
30.6876987232
 20
-37.9295415685
 10
30.7122781397
 20
-37.9323912213
 10
30.7372692614
 20
-37.9339626917
 10
30.7624943365
 20
-37.9342448024
 10
30.7877739489
 20
-37.9332355467
 10
30.8129282948
 20
-37.9309421033
 10
30.8377784611
 20
-37.9273807844
 10
30.8621476986
 20
-37.9225769203
 10
30.8858626784
 20
-37.9165646789
 10
30.9087547252
 20
-37.909386823
 10
30.930661017
 20
-37.9010944058
 10
30.951425743
 20
-37.891746408
 10
30.9709012119
 20
-37.8814093183
  0
LWPOLYLINE
  5
29D
100
AcDbEntity
  8
ASSI
100
AcDbPolyline
 62
7
  6
CONTINUOUS
 90
17
 70
0
 10
2.5242209676
 20
-25.2573512142
 10
2.541459163
 20
-25.2667135093
 10
2.5585537486
 20
-25.2754130217
 10
2.5755047394
 20
-25.2834497414
 10
2.5923682544
 20
-25.2908945731
 10
2.6090882262
 20
-25.2976765776
 10
2.6254964096
 20
-25.3035829662
 10
2.6415908162
 20
-25.3086208026
 10
2.657373556
 20
-25.3127829418
 10
2.6726825712
 20
-25.3158352552
 10
2.6875446277
 20
-25.3177853677
 10
2.7019331931
 20
-25.3186254985
 10
2.7156063211
 20
-25.3180983707
 10
2.7285344187
 20
-25.3161459636
 10
2.7407474659
 20
-25.3128260397
 10
2.7520929251
 20
-25.3080549644
 10
2.7557152876
 20
-25.3060917798
  0
LWPOLYLINE
  5
29E
100
AcDbEntity
  8
0
100
AcDbPolyline
 62
7
  6
CONTINUOUS
 90
17
 70
0
 10
2.5242209676
 20
-25.2573512142
 10
2.541459163
 20
-25.2667135093
 10
2.5585537486
 20
-25.2754130217
 10
2.5755047394
 20
-25.2834497414
 10
2.5923682544
 20
-25.2908945731
 10
2.6090882262
 20
-25.2976765776
 10
2.6254964096
 20
-25.3035829662
 10
2.6415908162
 20
-25.3086208026
 10
2.657373556
 20
-25.3127829418
 10
2.6726825712
 20
-25.3158352552
 10
2.6875446277
 20
-25.3177853677
 10
2.7019331931
 20
-25.3186254985
 10
2.7156063211
 20
-25.3180983707
 10
2.7285344187
 20
-25.3161459636
 10
2.7407474659
 20
-25.3128260397
 10
2.7520929251
 20
-25.3080549644
 10
2.7557152876
 20
-25.3060917798
  0
LINE
  5
29F
100
AcDbEntity
  8
ASSI
100
AcDbLine
 62
7
  6
CONTINUOUS
 10
3.4234003472
 20
-26.9399935519
 11
3.0259125808
 21
-26.7104890973
  0
LINE
  5
2A0
100
AcDbEntity
  8
0
100
AcDbLine
 62
7
  6
CONTINUOUS
 10
3.4234003472
 20
-26.9399935519
 11
3.0259125808
 21
-26.7104890973
  0
LINE
  5
2A1
100
AcDbEntity
  8
ASSI
100
AcDbLine
 62
7
  6
CONTINUOUS
 10
2.3930942422
 20
-26.3451077197
 11
1.9815181139
 21
-26.1074688215
  0
LINE
  5
2A2
100
AcDbEntity
  8
0
100
AcDbLine
 62
7
  6
CONTINUOUS
 10
2.3930942422
 20
-26.3451077197
 11
1.9815181139
 21
-26.1074688215
  0
LINE
  5
2A3
100
AcDbEntity
  8
ASSI
100
AcDbLine
 62
7
  6
CONTINUOUS
 10
1.7682470483
 20
-25.9843285172
 11
1.3327102833
 21
-25.7328550476
  0
LINE
  5
2A4
100
AcDbEntity
  8
0
100
AcDbLine
 62
7
  6
CONTINUOUS
 10
1.7682470483
 20
-25.9843285172
 11
1.3327102833
 21
-25.7328550476
  0
LINE
  5
2A5
100
AcDbEntity
  8
ASSI
100
AcDbLine
 62
7
  6
CONTINUOUS
 10
0.5488689814
 20
-25.2802749037
 11
0.1401138857
 21
-25.0442648344
  0
LINE
  5
2A6
100
AcDbEntity
  8
0
100
AcDbLine
 62
7
  6
CONTINUOUS
 10
0.5488689814
 20
-25.2802749037
 11
0.1401138857
 21
-25.0442648344
  0
LINE
  5
2A7
100
AcDbEntity
  8
ASSI
100
AcDbLine
 62
7
  6
CONTINUOUS
 10
-0.0732683135
 20
-24.9210606269
 11
-0.4775255029
 21
-24.6876475922
  0
LINE
  5
2A8
100
AcDbEntity
  8
0
100
AcDbLine
 62
7
  6
CONTINUOUS
 10
-0.0732683135
 20
-24.9210606269
 11
-0.4775255029
 21
-24.6876475922
  0
LINE
  5
2A9
100
AcDbEntity
  8
ASSI
100
AcDbLine
 62
7
  6
CONTINUOUS
 10
-1.0537680321
 20
-24.3549323779
 11
-1.1117246252
 21
-24.3214689674
  0
LINE
  5
2AA
100
AcDbEntity
  8
0
100
AcDbLine
 62
7
  6
CONTINUOUS
 10
-1.0537680321
 20
-24.3549323779
 11
-1.1117246252
 21
-24.3214689674
  0
LINE
  5
2AB
100
AcDbEntity
  8
ASSI
100
AcDbLine
 62
7
  6
CONTINUOUS
 10
-1.6856803711
 20
-23.9900741131
 11
-2.0810159943
 21
-23.761812279
  0
LINE
  5
2AC
100
AcDbEntity
  8
0
100
AcDbLine
 62
7
  6
CONTINUOUS
 10
-1.6856803711
 20
-23.9900741131
 11
-2.0810159943
 21
-23.761812279
  0
LINE
  5
2AD
100
AcDbEntity
  8
ASSI
100
AcDbLine
 62
7
  6
CONTINUOUS
 10
-2.2964042553
 20
-23.6374497965
 11
-2.7096431151
 21
-23.3988508579
  0
LINE
  5
2AE
100
AcDbEntity
  8
0
100
AcDbLine
 62
7
  6
CONTINUOUS
 10
-2.2964042553
 20
-23.6374497965
 11
-2.7096431151
 21
-23.3988508579
  0
LINE
  5
2AF
100
AcDbEntity
  8
ASSI
100
AcDbLine
 62
7
  6
CONTINUOUS
 10
-3.5559169961
 20
-22.9102229253
 11
-3.9200840595
 21
-22.699957427
  0
LINE
  5
2B0
100
AcDbEntity
  8
0
100
AcDbLine
 62
7
  6
CONTINUOUS
 10
-3.5559169961
 20
-22.9102229253
 11
-3.9200840595
 21
-22.699957427
  0
LINE
  5
2B1
100
AcDbEntity
  8
ASSI
100
AcDbLine
 62
7
  6
CONTINUOUS
 10
3.3824249815
 20
-26.7933809036
 11
3.132386996
 21
-26.6490121044
  0
LINE
  5
2B2
100
AcDbEntity
  8
0
100
AcDbLine
 62
7
  6
CONTINUOUS
 10
3.3824249815
 20
-26.7933809036
 11
3.132386996
 21
-26.6490121044
  0
LINE
  5
2B3
100
AcDbEntity
  8
ASSI
100
AcDbLine
 62
7
  6
CONTINUOUS
 10
2.3829155467
 20
-26.2162766827
 11
2.0879925291
 21
-26.0459918286
  0
LINE
  5
2B4
100
AcDbEntity
  8
0
100
AcDbLine
 62
7
  6
CONTINUOUS
 10
2.3829155467
 20
-26.2162766827
 11
2.0879925291
 21
-26.0459918286
  0
LINE
  5
2B5
100
AcDbEntity
  8
ASSI
100
AcDbLine
 62
7
  6
CONTINUOUS
 10
1.7223375299
 20
-25.8348669509
 11
1.4391846985
 21
-25.6713780548
  0
LINE
  5
2B6
100
AcDbEntity
  8
0
100
AcDbLine
 62
7
  6
CONTINUOUS
 10
1.7223375299
 20
-25.8348669509
 11
1.4391846985
 21
-25.6713780548
  0
LINE
  5
2B7
100
AcDbEntity
  8
ASSI
100
AcDbLine
 62
7
  6
CONTINUOUS
 10
0.572348098
 20
-25.1708774657
 11
0.2465883008
 21
-24.9827878415
  0
LINE
  5
2B8
100
AcDbEntity
  8
0
100
AcDbLine
 62
7
  6
CONTINUOUS
 10
0.572348098
 20
-25.1708774657
 11
0.2465883008
 21
-24.9827878415
  0
LINE
  5
2B9
100
AcDbEntity
  8
ASSI
100
AcDbLine
 62
7
  6
CONTINUOUS
 10
-0.0943023117
 20
-24.7859618742
 11
-0.3710510878
 21
-24.6261705994
  0
LINE
  5
2BA
100
AcDbEntity
  8
0
100
AcDbLine
 62
7
  6
CONTINUOUS
 10
-0.0943023117
 20
-24.7859618742
 11
-0.3710510878
 21
-24.6261705994
  0
LINE
  5
2BB
100
AcDbEntity
  8
ASSI
100
AcDbLine
 62
7
  6
CONTINUOUS
 10
-1.6877671539
 20
-23.8659152451
 11
-1.9745415791
 21
-23.7003352861
  0
LINE
  5
2BC
100
AcDbEntity
  8
0
100
AcDbLine
 62
7
  6
CONTINUOUS
 10
-1.6877671539
 20
-23.8659152451
 11
-1.9745415791
 21
-23.7003352861
  0
LINE
  5
2BD
100
AcDbEntity
  8
ASSI
100
AcDbLine
 62
7
  6
CONTINUOUS
 10
-2.3065334317
 20
-23.5086473512
 11
-2.6031687
 21
-23.3373738651
  0
LINE
  5
2BE
100
AcDbEntity
  8
0
100
AcDbLine
 62
7
  6
CONTINUOUS
 10
-2.3065334317
 20
-23.5086473512
 11
-2.6031687
 21
-23.3373738651
  0
LINE
  5
2BF
100
AcDbEntity
  8
ASSI
100
AcDbLine
 62
7
  6
CONTINUOUS
 10
-3.5285614851
 20
-22.8030636689
 11
-3.8136096444
 21
-22.6384804342
  0
LINE
  5
2C0
100
AcDbEntity
  8
0
100
AcDbLine
 62
7
  6
CONTINUOUS
 10
-3.5285614851
 20
-22.8030636689
 11
-3.8136096444
 21
-22.6384804342
  0
LINE
  5
2C1
100
AcDbEntity
  8
ASSI
100
AcDbLine
 62
7
  6
CONTINUOUS
 10
1.1916274411
 20
-25.234353931
 11
0.6288644884
 21
-24.9094216552
  0
LINE
  5
2C2
100
AcDbEntity
  8
0
100
AcDbLine
 62
7
  6
CONTINUOUS
 10
1.1916274411
 20
-25.234353931
 11
0.6288644884
 21
-24.9094216552
  0
LINE
  5
2C3
100
AcDbEntity
  8
ASSI
100
AcDbLine
 62
7
  6
CONTINUOUS
 10
1.2980711131
 20
-25.1728946888
 11
0.7353081605
 21
-24.847962413
  0
LINE
  5
2C4
100
AcDbEntity
  8
0
100
AcDbLine
 62
7
  6
CONTINUOUS
 10
1.2980711131
 20
-25.1728946888
 11
0.7353081605
 21
-24.847962413
  0
LINE
  5
2C5
100
AcDbEntity
  8
ASSI
100
AcDbLine
 62
7
  6
CONTINUOUS
 10
1.0836225401
 20
-24.8482313315
 11
0.6879757899
 21
-24.6197898566
  0
LINE
  5
2C6
100
AcDbEntity
  8
0
100
AcDbLine
 62
7
  6
CONTINUOUS
 10
1.0836225401
 20
-24.8482313315
 11
0.6879757899
 21
-24.6197898566
  0
LINE
  5
2C7
100
AcDbEntity
  8
ASSI
100
AcDbLine
 62
7
  6
CONTINUOUS
 10
2.5492042508
 20
-25.6162686732
 11
2.3276354399
 21
-25.4883376187
  0
LINE
  5
2C8
100
AcDbEntity
  8
0
100
AcDbLine
 62
7
  6
CONTINUOUS
 10
2.5492042508
 20
-25.6162686732
 11
2.3276354399
 21
-25.4883376187
  0
LINE
  5
2C9
100
AcDbEntity
  8
ASSI
100
AcDbLine
 62
7
  6
CONTINUOUS
 10
2.65561955
 20
-25.5548258132
 11
2.434050739
 21
-25.4268947586
  0
LINE
  5
2CA
100
AcDbEntity
  8
0
100
AcDbLine
 62
7
  6
CONTINUOUS
 10
2.65561955
 20
-25.5548258132
 11
2.434050739
 21
-25.4268947586
  0
LINE
  5
2CB
100
AcDbEntity
  8
ASSI
100
AcDbLine
 62
7
  6
CONTINUOUS
 10
2.5242209676
 20
-25.2573512142
 11
2.2880590483
 21
-25.1209942818
  0
LINE
  5
2CC
100
AcDbEntity
  8
0
100
AcDbLine
 62
7
  6
CONTINUOUS
 10
2.5242209676
 20
-25.2573512142
 11
2.2880590483
 21
-25.1209942818
  0
LINE
  5
2CD
100
AcDbEntity
  8
ASSI
100
AcDbLine
 62
7
  6
CONTINUOUS
 10
1.0037344327
 20
-23.4384437873
 11
0.6039751495
 21
-23.2076277873
  0
LINE
  5
2CE
100
AcDbEntity
  8
0
100
AcDbLine
 62
7
  6
CONTINUOUS
 10
1.0037344327
 20
-23.4384437873
 11
0.6039751495
 21
-23.2076277873
  0
LINE
  5
2CF
100
AcDbEntity
  8
ASSI
100
AcDbLine
 62
7
  6
CONTINUOUS
 10
-0.4154868599
 20
-22.6190032
 11
-0.8243459003
 21
-22.3829331142
  0
LINE
  5
2D0
100
AcDbEntity
  8
0
100
AcDbLine
 62
7
  6
CONTINUOUS
 10
-0.4154868599
 20
-22.6190032
 11
-0.8243459003
 21
-22.3829331142
  0
LINE
  5
2D1
100
AcDbEntity
  8
ASSI
100
AcDbLine
 62
7
  6
CONTINUOUS
 10
-1.6464593568
 20
-21.908255108
 11
-2.059356684
 21
-21.6698533661
  0
LINE
  5
2D2
100
AcDbEntity
  8
0
100
AcDbLine
 62
7
  6
CONTINUOUS
 10
-1.6464593568
 20
-21.908255108
 11
-2.059356684
 21
-21.6698533661
  0
LINE
  5
2D3
100
AcDbEntity
  8
ASSI
100
AcDbLine
 62
7
  6
CONTINUOUS
 10
-3.0766606035
 20
-21.0824748328
 11
-3.4896173276
 21
-20.8440387958
  0
LINE
  5
2D4
100
AcDbEntity
  8
0
100
AcDbLine
 62
7
  6
CONTINUOUS
 10
-3.0766606035
 20
-21.0824748328
 11
-3.4896173276
 21
-20.8440387958
  0
LINE
  5
2D5
100
AcDbEntity
  8
ASSI
100
AcDbLine
 62
7
  6
CONTINUOUS
 10
-4.2558742982
 20
-20.4016116244
 11
-4.704779624
 21
-20.1424193154
  0
LINE
  5
2D6
100
AcDbEntity
  8
0
100
AcDbLine
 62
7
  6
CONTINUOUS
 10
-4.2558742982
 20
-20.4016116244
 11
-4.704779624
 21
-20.1424193154
  0
LINE
  5
2D7
100
AcDbEntity
  8
ASSI
100
AcDbLine
 62
7
  6
CONTINUOUS
 10
-2.4535078427
 20
-21.4421479885
 11
-2.8667467025
 21
-21.20354905
  0
LINE
  5
2D8
100
AcDbEntity
  8
0
100
AcDbLine
 62
7
  6
CONTINUOUS
 10
-2.4535078427
 20
-21.4421479885
 11
-2.8667467025
 21
-21.20354905
  0
LINE
  5
2D9
100
AcDbEntity
  8
ASSI
100
AcDbLine
 62
250
  6
CONTINUOUS
 10
14.6666645876
 20
-29.0986250626
 11
-16.3649224776
 21
-11.1813756083
  0
LINE
  5
2DA
100
AcDbEntity
  8
RACCORDO
100
AcDbLine
 62
250
  6
CONTINUOUS
 10
14.6666645876
 20
-29.0986250626
 11
-16.3649224776
 21
-11.1813756083
  0
LINE
  5
2DB
100
AcDbEntity
  8
ASSI
100
AcDbLine
 62
250
  6
CONTINUOUS
 10
30.5582971732
 20
-37.8873040939
 11
15.3733164961
 21
-29.1197310315
  0
LINE
  5
2DC
100
AcDbEntity
  8
RACCORDO
100
AcDbLine
 62
250
  6
CONTINUOUS
 10
30.5582971732
 20
-37.8873040939
 11
15.3733164961
 21
-29.1197310315
  0
LINE
  5
2DD
100
AcDbEntity
  8
ASSI
100
AcDbLine
 62
250
  6
CONTINUOUS
 10
-17.1082862896
 20
-10.3652606731
 11
-32.2932710629
 21
-1.5975961949
  0
LINE
  5
2DE
100
AcDbEntity
  8
RACCORDO
100
AcDbLine
 62
250
  6
CONTINUOUS
 10
-17.1082862896
 20
-10.3652606731
 11
-32.2932710629
 21
-1.5975961949
  0
LWPOLYLINE
  5
2DF
100
AcDbEntity
  8
ASSI
100
AcDbPolyline
 62
250
  6
CONTINUOUS
 90
31
 70
0
 10
-16.3649224776
 20
-11.1813756083
 10
-16.3947291609
 20
-11.1635743764
 10
-16.4241378219
 20
-11.145057854
 10
-16.4531484295
 20
-11.1258260215
 10
-16.4817550439
 20
-11.1058512469
 10
-16.5099634845
 20
-11.0851610852
 10
-16.5377913401
 20
-11.0638382838
 10
-16.5652348623
 20
-11.0418961017
 10
-16.5922975951
 20
-11.0193211493
 10
-16.6190080603
 20
-10.9961561982
 10
-16.6453649748
 20
-10.9724124567
 10
-16.6713693491
 20
-10.9480785423
 10
-16.6970531396
 20
-10.923163337
 10
-16.7224178549
 20
-10.8976753929
 10
-16.7474616478
 20
-10.8716059419
 10
-16.7722114266
 20
-10.8449378769
 10
-16.7966709871
 20
-10.8176771018
 10
-16.8208361199
 20
-10.7898174491
 10
-16.8447216981
 20
-10.761323688
 10
-16.8683332215
 20
-10.7321995565
 10
-16.891664684
 20
-10.7024409941
 10
-16.914713656
 20
-10.6720010439
 10
-16.9374870029
 20
-10.6408817077
 10
-16.9599772349
 20
-10.6090805862
 10
-16.9821603237
 20
-10.5765440793
 10
-17.0040447266
 20
-10.543272656
 10
-17.0256212113
 20
-10.5092653545
 10
-17.0468391228
 20
-10.4744663699
 10
-17.0676812358
 20
-10.4388568844
 10
-17.0881637969
 20
-10.4024550947
 10
-17.1082862896
 20
-10.3652606731
  0
LWPOLYLINE
  5
2E0
100
AcDbEntity
  8
RACCORDO
100
AcDbPolyline
 62
250
  6
CONTINUOUS
 90
31
 70
0
 10
-16.3649224776
 20
-11.1813756083
 10
-16.3947291609
 20
-11.1635743764
 10
-16.4241378219
 20
-11.145057854
 10
-16.4531484295
 20
-11.1258260215
 10
-16.4817550439
 20
-11.1058512469
 10
-16.5099634845
 20
-11.0851610852
 10
-16.5377913401
 20
-11.0638382838
 10
-16.5652348623
 20
-11.0418961017
 10
-16.5922975951
 20
-11.0193211493
 10
-16.6190080603
 20
-10.9961561982
 10
-16.6453649748
 20
-10.9724124567
 10
-16.6713693491
 20
-10.9480785423
 10
-16.6970531396
 20
-10.923163337
 10
-16.7224178549
 20
-10.8976753929
 10
-16.7474616478
 20
-10.8716059419
 10
-16.7722114266
 20
-10.8449378769
 10
-16.7966709871
 20
-10.8176771018
 10
-16.8208361199
 20
-10.7898174491
 10
-16.8447216981
 20
-10.761323688
 10
-16.8683332215
 20
-10.7321995565
 10
-16.891664684
 20
-10.7024409941
 10
-16.914713656
 20
-10.6720010439
 10
-16.9374870029
 20
-10.6408817077
 10
-16.9599772349
 20
-10.6090805862
 10
-16.9821603237
 20
-10.5765440793
 10
-17.0040447266
 20
-10.543272656
 10
-17.0256212113
 20
-10.5092653545
 10
-17.0468391228
 20
-10.4744663699
 10
-17.0676812358
 20
-10.4388568844
 10
-17.0881637969
 20
-10.4024550947
 10
-17.1082862896
 20
-10.3652606731
  0
LWPOLYLINE
  5
2E1
100
AcDbEntity
  8
ASSI
100
AcDbPolyline
 62
250
  6
CONTINUOUS
 90
10
 70
0
 10
-32.2932690812
 20
-1.5976419079
 10
-32.3103924574
 20
-1.5867894723
 10
-32.3258871459
 20
-1.5750564052
 10
-32.3396429392
 20
-1.5625261594
 10
-32.3515619976
 20
-1.5492878576
 10
-32.3615595457
 20
-1.5354356584
 10
-32.3695644749
 20
-1.5210680872
 10
-32.3755198492
 20
-1.5062873348
 10
-32.3793833105
 20
-1.4911985309
 10
-32.3811273794
 20
-1.4759089961
  0
LWPOLYLINE
  5
2E2
100
AcDbEntity
  8
RACCORDO
100
AcDbPolyline
 62
250
  6
CONTINUOUS
 90
10
 70
0
 10
-32.2932690812
 20
-1.5976419079
 10
-32.3103924574
 20
-1.5867894723
 10
-32.3258871459
 20
-1.5750564052
 10
-32.3396429392
 20
-1.5625261594
 10
-32.3515619976
 20
-1.5492878576
 10
-32.3615595457
 20
-1.5354356584
 10
-32.3695644749
 20
-1.5210680872
 10
-32.3755198492
 20
-1.5062873348
 10
-32.3793833105
 20
-1.4911985309
 10
-32.3811273794
 20
-1.4759089961
  0
LWPOLYLINE
  5
2E3
100
AcDbEntity
  8
ASSI
100
AcDbPolyline
 62
7
  6
CONTINUOUS
 90
10
 70
0
 10
2.5695643609
 20
-24.6913113115
 10
2.5348951053
 20
-24.6675739733
 10
2.4998817938
 20
-24.644902225
 10
2.4645243576
 20
-24.6232961122
 10
2.4287655376
 20
-24.602706748
 10
2.3926625612
 20
-24.5831830404
 10
2.3563871428
 20
-24.5648716909
 10
2.3199965854
 20
-24.5478215571
 10
2.2834337791
 20
-24.5319836537
 10
2.2466988773
 20
-24.5173578789
  0
LWPOLYLINE
  5
2E4
100
AcDbEntity
  8
0
100
AcDbPolyline
 62
7
  6
CONTINUOUS
 90
10
 70
0
 10
2.5695643609
 20
-24.6913113115
 10
2.5348951053
 20
-24.6675739733
 10
2.4998817938
 20
-24.644902225
 10
2.4645243576
 20
-24.6232961122
 10
2.4287655376
 20
-24.602706748
 10
2.3926625612
 20
-24.5831830404
 10
2.3563871428
 20
-24.5648716909
 10
2.3199965854
 20
-24.5478215571
 10
2.2834337791
 20
-24.5319836537
 10
2.2466988773
 20
-24.5173578789
  0
LWPOLYLINE
  5
2E5
100
AcDbEntity
  8
ASSI
100
AcDbPolyline
 62
7
  6
CONTINUOUS
 90
10
 70
0
 10
2.6759182342
 20
-24.629903918
 10
2.6412487751
 20
-24.6061667303
 10
2.6062353315
 20
-24.5834950821
 10
2.5708778344
 20
-24.561889019
 10
2.5351190234
 20
-24.5412996539
 10
2.4990161272
 20
-24.521775895
 10
2.4627408647
 20
-24.5034644452
 10
2.4263505403
 20
-24.4864141623
 10
2.3897880426
 20
-24.4705760605
 10
2.3530535255
 20
-24.455950038
  0
LWPOLYLINE
  5
2E6
100
AcDbEntity
  8
0
100
AcDbPolyline
 62
7
  6
CONTINUOUS
 90
10
 70
0
 10
2.6759182342
 20
-24.629903918
 10
2.6412487751
 20
-24.6061667303
 10
2.6062353315
 20
-24.5834950821
 10
2.5708778344
 20
-24.561889019
 10
2.5351190234
 20
-24.5412996539
 10
2.4990161272
 20
-24.521775895
 10
2.4627408647
 20
-24.5034644452
 10
2.4263505403
 20
-24.4864141623
 10
2.3897880426
 20
-24.4705760605
 10
2.3530535255
 20
-24.455950038
  0
LWPOLYLINE
  5
2E7
100
AcDbEntity
  8
ASSI
100
AcDbPolyline
 62
250
  6
CONTINUOUS
 90
13
 70
0
 10
-16.5030259162
 20
-10.0660532636
 10
-16.5232159359
 20
-10.0279688121
 10
-16.5421209055
 20
-9.9893199512
 10
-16.5596642255
 20
-9.950221812
 10
-16.5758147773
 20
-9.9106962226
 10
-16.5904491968
 20
-9.8709666988
 10
-16.6033900886
 20
-9.8314534537
 10
-16.61459847
 20
-9.7922838658
 10
-16.6240574994
 20
-9.753575094
 10
-16.6316982117
 20
-9.7157127335
 10
-16.637527103
 20
-9.6788829735
 10
-16.6415884682
 20
-9.6430855509
 10
-16.643911682
 20
-9.6084029356
  0
LWPOLYLINE
  5
2E8
100
AcDbEntity
  8
RACCORDO
100
AcDbPolyline
 62
250
  6
CONTINUOUS
 90
13
 70
0
 10
-16.5030259162
 20
-10.0660532636
 10
-16.5232159359
 20
-10.0279688121
 10
-16.5421209055
 20
-9.9893199512
 10
-16.5596642255
 20
-9.950221812
 10
-16.5758147773
 20
-9.9106962226
 10
-16.5904491968
 20
-9.8709666988
 10
-16.6033900886
 20
-9.8314534537
 10
-16.61459847
 20
-9.7922838658
 10
-16.6240574994
 20
-9.753575094
 10
-16.6316982117
 20
-9.7157127335
 10
-16.637527103
 20
-9.6788829735
 10
-16.6415884682
 20
-9.6430855509
 10
-16.643911682
 20
-9.6084029356
  0
LWPOLYLINE
  5
2E9
100
AcDbEntity
  8
ASSI
100
AcDbPolyline
 62
250
  6
CONTINUOUS
 90
13
 70
0
 10
-17.1082862896
 20
-10.3652606731
 10
-17.1402554645
 20
-10.3025902525
 10
-17.1700031912
 20
-10.2393900132
 10
-17.1975288173
 20
-10.1756595415
 10
-17.2229855029
 20
-10.1110211841
 10
-17.2462186282
 20
-10.0458516692
 10
-17.2667661816
 20
-9.9812823532
 10
-17.2845149158
 20
-9.9173625879
 10
-17.2995772884
 20
-9.8540425228
 10
-17.3118305744
 20
-9.7923051743
 10
-17.3212340303
 20
-9.73247832
 10
-17.3278284608
 20
-9.6742342238
 10
-17.3316138531
 20
-9.6175728791
  0
LWPOLYLINE
  5
2EA
100
AcDbEntity
  8
RACCORDO
100
AcDbPolyline
 62
250
  6
CONTINUOUS
 90
13
 70
0
 10
-17.1082862896
 20
-10.3652606731
 10
-17.1402554645
 20
-10.3025902525
 10
-17.1700031912
 20
-10.2393900132
 10
-17.1975288173
 20
-10.1756595415
 10
-17.2229855029
 20
-10.1110211841
 10
-17.2462186282
 20
-10.0458516692
 10
-17.2667661816
 20
-9.9812823532
 10
-17.2845149158
 20
-9.9173625879
 10
-17.2995772884
 20
-9.8540425228
 10
-17.3118305744
 20
-9.7923051743
 10
-17.3212340303
 20
-9.73247832
 10
-17.3278284608
 20
-9.6742342238
 10
-17.3316138531
 20
-9.6175728791
  0
LWPOLYLINE
  5
2EB
100
AcDbEntity
  8
ASSI
100
AcDbPolyline
 62
250
  6
CONTINUOUS
 90
13
 70
0
 10
-16.6439120914
 20
-9.6084031715
 10
-16.7646864164
 20
-6.6998730128
 10
-16.8635035457
 20
-3.779342
 10
-16.9403634792
 20
-0.8468101332
 10
-16.9952683893
 20
2.0979166949
 10
-17.0282161036
 20
5.054644377
 10
-17.039200105
 20
8.0227905919
 10
-17.0282160149
 20
11.0023585349
 10
-16.9952682118
 20
13.9933450108
 10
-16.940363314
 20
16.9951581125
 10
-16.8635035275
 20
20.0076005378
 10
-16.7646866462
 20
23.0308695889
 10
-16.6439126701
 20
26.0649652659
  0
LWPOLYLINE
  5
2EC
100
AcDbEntity
  8
RACCORDO
100
AcDbPolyline
 62
250
  6
CONTINUOUS
 90
13
 70
0
 10
-16.6439120914
 20
-9.6084031715
 10
-16.7646864164
 20
-6.6998730128
 10
-16.8635035457
 20
-3.779342
 10
-16.9403634792
 20
-0.8468101332
 10
-16.9952683893
 20
2.0979166949
 10
-17.0282161036
 20
5.054644377
 10
-17.039200105
 20
8.0227905919
 10
-17.0282160149
 20
11.0023585349
 10
-16.9952682118
 20
13.9933450108
 10
-16.940363314
 20
16.9951581125
 10
-16.8635035275
 20
20.0076005378
 10
-16.7646866462
 20
23.0308695889
 10
-16.6439126701
 20
26.0649652659
  0
LWPOLYLINE
  5
2ED
100
AcDbEntity
  8
ASSI
100
AcDbPolyline
 62
7
  6
CONTINUOUS
 90
13
 70
0
 10
-13.1113405862
 20
22.416443721
 10
-13.1128485051
 20
22.4542095589
 10
-13.117124895
 20
22.4892044457
 10
-13.124110661
 20
22.5227545204
 10
-13.1337863355
 20
22.5548597363
 10
-13.1461390944
 20
22.5854248021
 10
-13.1610943928
 20
22.6142416548
 10
-13.1785043489
 20
22.6410392196
 10
-13.1982083336
 20
22.6656101457
 10
-13.2200236121
 20
22.6877901421
 10
-13.2436448454
 20
22.7073653387
 10
-13.2687570595
 20
22.7241983426
 10
-13.2730369487
 20
22.7267148475
  0
LWPOLYLINE
  5
2EE
100
AcDbEntity
  8
0
100
AcDbPolyline
 62
7
  6
CONTINUOUS
 90
13
 70
0
 10
-13.1113405862
 20
22.416443721
 10
-13.1128485051
 20
22.4542095589
 10
-13.117124895
 20
22.4892044457
 10
-13.124110661
 20
22.5227545204
 10
-13.1337863355
 20
22.5548597363
 10
-13.1461390944
 20
22.5854248021
 10
-13.1610943928
 20
22.6142416548
 10
-13.1785043489
 20
22.6410392196
 10
-13.1982083336
 20
22.6656101457
 10
-13.2200236121
 20
22.6877901421
 10
-13.2436448454
 20
22.7073653387
 10
-13.2687570595
 20
22.7241983426
 10
-13.2730369487
 20
22.7267148475
  0
LWPOLYLINE
  5
2EF
100
AcDbEntity
  8
ASSI
100
AcDbPolyline
 62
250
  6
CONTINUOUS
 90
22
 70
0
 10
-13.1686853754
 20
22.3354941738
 10
-13.1692642722
 20
22.3531456584
 10
-13.1709353124
 20
22.3698850302
 10
-13.1736984959
 20
22.3857122891
 10
-13.1775784458
 20
22.4007042045
 10
-13.1825505389
 20
22.4147840071
 10
-13.1885409064
 20
22.4277213893
 10
-13.1955683502
 20
22.4394993133
 10
-13.2036140683
 20
22.450134817
 10
-13.2125477858
 20
22.4594487063
 10
-13.2223826311
 20
22.4674163315
 10
-13.2331054758
 20
22.4740623423
 10
-13.2445466593
 20
22.4792814932
 10
-13.2567184819
 20
22.4830512097
 10
-13.2696086433
 20
22.4853940662
 10
-13.2830105822
 20
22.4862725406
 10
-13.2969342949
 20
22.4856618908
 10
-13.3113697851
 20
22.4835868589
 10
-13.3260805026
 20
22.4800841492
 10
-13.3409875972
 20
22.4751659963
 10
-13.3561699189
 20
22.4688201655
 10
-13.3716274679
 20
22.4610466568
  0
LWPOLYLINE
  5
2F0
100
AcDbEntity
  8
0
100
AcDbPolyline
 62
250
  6
CONTINUOUS
 90
22
 70
0
 10
-13.1686853754
 20
22.3354941738
 10
-13.1692642722
 20
22.3531456584
 10
-13.1709353124
 20
22.3698850302
 10
-13.1736984959
 20
22.3857122891
 10
-13.1775784458
 20
22.4007042045
 10
-13.1825505389
 20
22.4147840071
 10
-13.1885409064
 20
22.4277213893
 10
-13.1955683502
 20
22.4394993133
 10
-13.2036140683
 20
22.450134817
 10
-13.2125477858
 20
22.4594487063
 10
-13.2223826311
 20
22.4674163315
 10
-13.2331054758
 20
22.4740623423
 10
-13.2445466593
 20
22.4792814932
 10
-13.2567184819
 20
22.4830512097
 10
-13.2696086433
 20
22.4853940662
 10
-13.2830105822
 20
22.4862725406
 10
-13.2969342949
 20
22.4856618908
 10
-13.3113697851
 20
22.4835868589
 10
-13.3260805026
 20
22.4800841492
 10
-13.3409875972
 20
22.4751659963
 10
-13.3561699189
 20
22.4688201655
 10
-13.3716274679
 20
22.4610466568
  0
LWPOLYLINE
  5
2F1
100
AcDbEntity
  8
ASSI
100
AcDbPolyline
 62
250
  6
CONTINUOUS
 90
16
 70
0
 10
-13.3716274679
 20
22.4610466568
 10
-13.3718973535
 20
22.478845458
 10
-13.373726582
 20
22.4973357711
 10
-13.3770951199
 20
22.516315091
 10
-13.3819660751
 20
22.5355755566
 10
-13.3882861011
 20
22.5549062281
 10
-13.395985981
 20
22.5740953967
 10
-13.4049813862
 20
22.5929329031
 10
-13.4151737992
 20
22.6112124399
 10
-13.4264515932
 20
22.6287338099
 10
-13.438691254
 20
22.64530512
 10
-13.4517587334
 20
22.6607448815
 10
-13.4655109168
 20
22.6748839989
 10
-13.4797971908
 20
22.6875676208
 10
-13.4944610926
 20
22.6986568369
 10
-13.5093420236
 20
22.7080301984
  0
LWPOLYLINE
  5
2F2
100
AcDbEntity
  8
0
100
AcDbPolyline
 62
250
  6
CONTINUOUS
 90
16
 70
0
 10
-13.3716274679
 20
22.4610466568
 10
-13.3718973535
 20
22.478845458
 10
-13.373726582
 20
22.4973357711
 10
-13.3770951199
 20
22.516315091
 10
-13.3819660751
 20
22.5355755566
 10
-13.3882861011
 20
22.5549062281
 10
-13.395985981
 20
22.5740953967
 10
-13.4049813862
 20
22.5929329031
 10
-13.4151737992
 20
22.6112124399
 10
-13.4264515932
 20
22.6287338099
 10
-13.438691254
 20
22.64530512
 10
-13.4517587334
 20
22.6607448815
 10
-13.4655109168
 20
22.6748839989
 10
-13.4797971908
 20
22.6875676208
 10
-13.4944610926
 20
22.6986568369
 10
-13.5093420236
 20
22.7080301984
  0
LWPOLYLINE
  5
2F3
100
AcDbEntity
  8
ASSI
100
AcDbPolyline
 62
250
  6
CONTINUOUS
 90
22
 70
0
 10
-16.3649224776
 20
-11.1813756083
 10
-16.3653446845
 20
-11.1510745844
 10
-16.3637875562
 20
-11.119679784
 10
-16.3602598122
 20
-11.0873670085
 10
-16.3547812071
 20
-11.0543171997
 10
-16.3473824197
 20
-11.0207154266
 10
-16.3381048811
 20
-10.9867498488
 10
-16.3270005429
 20
-10.9526106631
 10
-16.3141315862
 20
-10.9184890385
 10
-16.2995700734
 20
-10.8845760456
 10
-16.2833975446
 20
-10.8510615865
 10
-16.2657045612
 20
-10.818133332
 10
-16.2465901984
 20
-10.7859756697
 10
-16.2261614909
 20
-10.7547686727
 10
-16.2045328333
 20
-10.7246870904
 10
-16.1818253393
 20
-10.69589937
 10
-16.1581661639
 20
-10.6685667138
 10
-16.1336877913
 20
-10.6428421761
 10
-16.1085272924
 20
-10.6188698059
 10
-16.0828255584
 20
-10.5967838411
 10
-16.056726511
 20
-10.576707956
 10
-16.0303762968
 20
-10.5587545695
  0
LWPOLYLINE
  5
2F4
100
AcDbEntity
  8
RACCORDO
100
AcDbPolyline
 62
250
  6
CONTINUOUS
 90
22
 70
0
 10
-16.3649224776
 20
-11.1813756083
 10
-16.3653446845
 20
-11.1510745844
 10
-16.3637875562
 20
-11.119679784
 10
-16.3602598122
 20
-11.0873670085
 10
-16.3547812071
 20
-11.0543171997
 10
-16.3473824197
 20
-11.0207154266
 10
-16.3381048811
 20
-10.9867498488
 10
-16.3270005429
 20
-10.9526106631
 10
-16.3141315862
 20
-10.9184890385
 10
-16.2995700734
 20
-10.8845760456
 10
-16.2833975446
 20
-10.8510615865
 10
-16.2657045612
 20
-10.818133332
 10
-16.2465901984
 20
-10.7859756697
 10
-16.2261614909
 20
-10.7547686727
 10
-16.2045328333
 20
-10.7246870904
 10
-16.1818253393
 20
-10.69589937
 10
-16.1581661639
 20
-10.6685667138
 10
-16.1336877913
 20
-10.6428421761
 10
-16.1085272924
 20
-10.6188698059
 10
-16.0828255584
 20
-10.5967838411
 10
-16.056726511
 20
-10.576707956
 10
-16.0303762968
 20
-10.5587545695
  0
LINE
  5
2F5
100
AcDbEntity
  8
ASSI
100
AcDbLine
 62
7
  6
CONTINUOUS
 10
-14.5853564518
 20
-8.4198042174
 11
-14.5853564518
 21
25.4308966242
  0
LINE
  5
2F6
100
AcDbEntity
  8
0
100
AcDbLine
 62
7
  6
CONTINUOUS
 10
-14.5853564518
 20
-8.4198042174
 11
-14.5853564518
 21
25.4308966242
  0
LINE
  5
2F7
100
AcDbEntity
  8
ASSI
100
AcDbLine
 62
7
  6
CONTINUOUS
 10
-14.5475221059
 20
5.001945828
 11
-14.5475221059
 21
2.3664323946
  0
LINE
  5
2F8
100
AcDbEntity
  8
0
100
AcDbLine
 62
7
  6
CONTINUOUS
 10
-14.5475221059
 20
5.001945828
 11
-14.5475221059
 21
2.3664323946
  0
LINE
  5
2F9
100
AcDbEntity
  8
ASSI
100
AcDbLine
 62
250
  6
CONTINUOUS
 10
-13.1686853754
 20
20.5112454693
 11
-13.1686853754
 21
22.3354941738
  0
LINE
  5
2FA
100
AcDbEntity
  8
0
100
AcDbLine
 62
250
  6
CONTINUOUS
 10
-13.1686853754
 20
20.5112454693
 11
-13.1686853754
 21
22.3354941738
  0
LINE
  5
2FB
100
AcDbEntity
  8
ASSI
100
AcDbLine
 62
7
  6
CONTINUOUS
 10
-13.1113354652
 20
20.5921847143
 11
-13.1113354652
 21
22.41643341
  0
LINE
  5
2FC
100
AcDbEntity
  8
0
100
AcDbLine
 62
7
  6
CONTINUOUS
 10
-13.1113354652
 20
20.5921847143
 11
-13.1113354652
 21
22.41643341
  0
LWPOLYLINE
  5
2FD
100
AcDbEntity
  8
ASSI
100
AcDbPolyline
 62
250
  6
CONTINUOUS
 90
13
 70
0
 10
-16.3649224776
 20
26.6498449286
 10
-16.3653446847
 20
26.6190563612
 10
-16.3637875579
 20
26.589459702
 10
-16.3602598164
 20
26.5612206832
 10
-16.3547812146
 20
26.5344974346
 10
-16.3473824309
 20
26.5094395983
 10
-16.3381048963
 20
26.4861874902
 10
-16.3270005622
 20
26.4648713152
 10
-16.3141316092
 20
26.4456104371
 10
-16.2995700997
 20
26.428512711
 10
-16.2833975736
 20
26.413673879
 10
-16.265704592
 20
26.4011770337
 10
-16.2620323463
 20
26.3989883726
  0
LWPOLYLINE
  5
2FE
100
AcDbEntity
  8
RACCORDO
100
AcDbPolyline
 62
250
  6
CONTINUOUS
 90
13
 70
0
 10
-16.3649224776
 20
26.6498449286
 10
-16.3653446847
 20
26.6190563612
 10
-16.3637875579
 20
26.589459702
 10
-16.3602598164
 20
26.5612206832
 10
-16.3547812146
 20
26.5344974346
 10
-16.3473824309
 20
26.5094395983
 10
-16.3381048963
 20
26.4861874902
 10
-16.3270005622
 20
26.4648713152
 10
-16.3141316092
 20
26.4456104371
 10
-16.2995700997
 20
26.428512711
 10
-16.2833975736
 20
26.413673879
 10
-16.265704592
 20
26.4011770337
 10
-16.2620323463
 20
26.3989883726
  0
LWPOLYLINE
  5
2FF
100
AcDbEntity
  8
ASSI
100
AcDbPolyline
 62
250
  6
CONTINUOUS
 90
8
 70
0
 10
-13.3716274679
 20
20.1472142092
 10
-13.3718973475
 20
20.1309027432
 10
-13.3737265524
 20
20.1156563364
 10
-13.3770950537
 20
20.1016419685
 10
-13.3819659639
 20
20.0890131268
 10
-13.3882859415
 20
20.0779081244
 10
-13.3959857759
 20
20.0684485853
 10
-13.404981144
 20
20.0607381144
  0
LWPOLYLINE
  5
300
100
AcDbEntity
  8
0
100
AcDbPolyline
 62
250
  6
CONTINUOUS
 90
8
 70
0
 10
-13.3716274679
 20
20.1472142092
 10
-13.3718973475
 20
20.1309027432
 10
-13.3737265524
 20
20.1156563364
 10
-13.3770950537
 20
20.1016419685
 10
-13.3819659639
 20
20.0890131268
 10
-13.3882859415
 20
20.0779081244
 10
-13.3959857759
 20
20.0684485853
 10
-13.404981144
 20
20.0607381144
  0
LINE
  5
301
100
AcDbEntity
  8
ASSI
100
AcDbLine
 62
7
  6
CONTINUOUS
 10
-13.1122533334
 20
20.5620426406
 11
-13.1113405891
 21
20.5922043531
  0
LINE
  5
302
100
AcDbEntity
  8
0
100
AcDbLine
 62
7
  6
CONTINUOUS
 10
-13.1122533334
 20
20.5620426406
 11
-13.1113405891
 21
20.5922043531
  0
LINE
  5
303
100
AcDbEntity
  8
0
100
AcDbLine
 62
250
  6
CONTINUOUS
 10
-13.3009015679
 20
28.1701845476
 11
-13.3551139642
 21
27.2815618438
  0
LINE
  5
304
100
AcDbEntity
  8
0
100
AcDbLine
 62
250
  6
CONTINUOUS
 10
-12.3118020166
 20
27.599090863
 11
-12.3660144129
 21
26.7104681592
  0
LINE
  5
305
100
AcDbEntity
  8
0
100
AcDbLine
 62
250
  6
CONTINUOUS
 10
-11.1814020243
 20
26.9464120747
 11
-11.2356144206
 21
26.0577893709
  0
LWPOLYLINE
  5
306
100
AcDbEntity
  8
0
100
AcDbPolyline
 62
250
  6
CONTINUOUS
 90
3
 70
0
 10
-13.200259183
 20
29.6551269967
 10
-13.2352443971
 20
29.1594522204
 10
-13.3009015679
 20
28.1701845476
  0
LWPOLYLINE
  5
307
100
AcDbEntity
  8
0
100
AcDbPolyline
 62
250
  6
CONTINUOUS
 90
3
 70
0
 10
-12.2111596317
 20
29.0840333121
 10
-12.2461448458
 20
28.5883585358
 10
-12.3118020166
 20
27.599090863
  0
LWPOLYLINE
  5
308
100
AcDbEntity
  8
0
100
AcDbPolyline
 62
250
  6
CONTINUOUS
 90
3
 70
0
 10
-11.0807596394
 20
28.4313545237
 10
-11.1157448535
 20
27.9356797475
 10
-11.1814020243
 20
26.9464120747
  0
LINE
  5
309
100
AcDbEntity
  8
0
100
AcDbLine
 62
250
  6
CONTINUOUS
 10
-9.5735608282
 20
27.5611168198
 11
-9.6420936402
 21
26.5704592168
  0
LWPOLYLINE
  5
30A
100
AcDbEntity
  8
ASSI
100
AcDbPolyline
 62
7
  6
CONTINUOUS
 90
6
 70
0
 10
-4.4132742944
 20
-13.4940321703
 10
-4.4492379811
 20
-13.5002047702
 10
-4.4845166991
 20
-13.5082671954
 10
-4.5188257634
 20
-13.5181881621
 10
-4.5520259049
 20
-13.529966109
 10
-4.584072356
 20
-13.5436402339
  0
LWPOLYLINE
  5
30B
100
AcDbEntity
  8
0
100
AcDbPolyline
 62
7
  6
CONTINUOUS
 90
6
 70
0
 10
-4.4132742944
 20
-13.4940321703
 10
-4.4492379811
 20
-13.5002047702
 10
-4.4845166991
 20
-13.5082671954
 10
-4.5188257634
 20
-13.5181881621
 10
-4.5520259049
 20
-13.529966109
 10
-4.584072356
 20
-13.5436402339
  0
LWPOLYLINE
  5
30C
100
AcDbEntity
  8
ASSI
100
AcDbPolyline
 62
7
  6
CONTINUOUS
 90
7
 70
0
 10
-4.1924009727
 20
-13.4967962256
 10
-4.2287822037
 20
-13.4915946927
 10
-4.2656622472
 20
-13.48828053
 10
-4.3027039655
 20
-13.4868674258
 10
-4.3397755478
 20
-13.4873561335
 10
-4.3767454111
 20
-13.4897495369
 10
-4.4132742944
 20
-13.4940321703
  0
LWPOLYLINE
  5
30D
100
AcDbEntity
  8
0
100
AcDbPolyline
 62
7
  6
CONTINUOUS
 90
7
 70
0
 10
-4.1924009727
 20
-13.4967962256
 10
-4.2287822037
 20
-13.4915946927
 10
-4.2656622472
 20
-13.48828053
 10
-4.3027039655
 20
-13.4868674258
 10
-4.3397755478
 20
-13.4873561335
 10
-4.3767454111
 20
-13.4897495369
 10
-4.4132742944
 20
-13.4940321703
  0
LWPOLYLINE
  5
30E
100
AcDbEntity
  8
ASSI
100
AcDbPolyline
 62
7
  6
CONTINUOUS
 90
3
 70
0
 10
-4.121619251
 20
-13.5128409777
 10
-4.1566389536
 20
-13.5038774467
 10
-4.1924009727
 20
-13.4967962256
  0
LWPOLYLINE
  5
30F
100
AcDbEntity
  8
0
100
AcDbPolyline
 62
7
  6
CONTINUOUS
 90
3
 70
0
 10
-4.121619251
 20
-13.5128409777
 10
-4.1566389536
 20
-13.5038774467
 10
-4.1924009727
 20
-13.4967962256
  0
LWPOLYLINE
  5
310
100
AcDbEntity
  8
ASSI
100
AcDbPolyline
 62
250
  6
CONTINUOUS
 90
19
 70
0
 10
-17.3316138435
 20
-9.617572873
 10
-17.3005710191
 20
-9.6338925766
 10
-17.2672372899
 20
-9.6485048646
 10
-17.2318497443
 20
-9.6613058064
 10
-17.1946600782
 20
-9.6722043543
 10
-17.1559328054
 20
-9.6811229918
 10
-17.1159433762
 20
-9.6879982846
 10
-17.0749762178
 20
-9.6927813316
 10
-17.0333227116
 20
-9.6954381131
 10
-16.9912791208
 20
-9.6959497328
 10
-16.9491444831
 20
-9.6943125515
 10
-16.9072184836
 20
-9.6905382139
 10
-16.8657993236
 20
-9.6846535652
 10
-16.8251815995
 20
-9.6767004602
 10
-16.7856542073
 20
-9.666735466
 10
-16.7474982881
 20
-9.6548294593
 10
-16.7109852282
 20
-9.6410671221
 10
-16.676374729
 20
-9.62554634
 10
-16.6439129599
 20
-9.6083775055
  0
LWPOLYLINE
  5
311
100
AcDbEntity
  8
RACCORDO
100
AcDbPolyline
 62
250
  6
CONTINUOUS
 90
19
 70
0
 10
-17.3316138435
 20
-9.617572873
 10
-17.3005710191
 20
-9.6338925766
 10
-17.2672372899
 20
-9.6485048646
 10
-17.2318497443
 20
-9.6613058064
 10
-17.1946600782
 20
-9.6722043543
 10
-17.1559328054
 20
-9.6811229918
 10
-17.1159433762
 20
-9.6879982846
 10
-17.0749762178
 20
-9.6927813316
 10
-17.0333227116
 20
-9.6954381131
 10
-16.9912791208
 20
-9.6959497328
 10
-16.9491444831
 20
-9.6943125515
 10
-16.9072184836
 20
-9.6905382139
 10
-16.8657993236
 20
-9.6846535652
 10
-16.8251815995
 20
-9.6767004602
 10
-16.7856542073
 20
-9.666735466
 10
-16.7474982881
 20
-9.6548294593
 10
-16.7109852282
 20
-9.6410671221
 10
-16.676374729
 20
-9.62554634
 10
-16.6439129599
 20
-9.6083775055
  0
LWPOLYLINE
  5
312
100
AcDbEntity
  8
ASSI
100
AcDbPolyline
 62
250
  6
CONTINUOUS
 90
22
 70
0
 10
-4.0957174827
 20
-13.5741771079
 10
-4.1118831758
 20
-13.5655117354
 10
-4.1289164291
 20
-13.5576066254
 10
-4.1468172426
 20
-13.5504617777
 10
-4.1656894718
 20
-13.5440456618
 10
-4.1854292612
 20
-13.5383898082
 10
-4.2057250444
 20
-13.5335888095
 10
-4.2265906007
 20
-13.5296564217
 10
-4.2480121507
 20
-13.5265788886
 10
-4.2696367902
 20
-13.5244095345
 10
-4.291463096
 20
-13.5231643417
 10
-4.3134924914
 20
-13.5228273277
 10
-4.3353763415
 20
-13.5234038701
 10
-4.3571137634
 20
-13.5249086827
 10
-4.3787056401
 20
-13.5273270516
 10
-4.3998059864
 20
-13.5306202124
 10
-4.4204085452
 20
-13.5348033213
 10
-4.4405195735
 20
-13.5398612221
 10
-4.4598118571
 20
-13.5457096815
 10
-4.4781763245
 20
-13.552320622
 10
-4.4957220471
 20
-13.5597221212
 10
-4.512449025
 20
-13.5679141791
  0
LWPOLYLINE
  5
313
100
AcDbEntity
  8
0
100
AcDbPolyline
 62
250
  6
CONTINUOUS
 90
22
 70
0
 10
-4.0957174827
 20
-13.5741771079
 10
-4.1118831758
 20
-13.5655117354
 10
-4.1289164291
 20
-13.5576066254
 10
-4.1468172426
 20
-13.5504617777
 10
-4.1656894718
 20
-13.5440456618
 10
-4.1854292612
 20
-13.5383898082
 10
-4.2057250444
 20
-13.5335888095
 10
-4.2265906007
 20
-13.5296564217
 10
-4.2480121507
 20
-13.5265788886
 10
-4.2696367902
 20
-13.5244095345
 10
-4.291463096
 20
-13.5231643417
 10
-4.3134924914
 20
-13.5228273277
 10
-4.3353763415
 20
-13.5234038701
 10
-4.3571137634
 20
-13.5249086827
 10
-4.3787056401
 20
-13.5273270516
 10
-4.3998059864
 20
-13.5306202124
 10
-4.4204085452
 20
-13.5348033213
 10
-4.4405195735
 20
-13.5398612221
 10
-4.4598118571
 20
-13.5457096815
 10
-4.4781763245
 20
-13.552320622
 10
-4.4957220471
 20
-13.5597221212
 10
-4.512449025
 20
-13.5679141791
  0
LWPOLYLINE
  5
314
100
AcDbEntity
  8
ASSI
100
AcDbPolyline
 62
7
  6
CONTINUOUS
 90
5
 70
0
 10
-3.9969311685
 20
-13.564990144
 10
-4.0231345122
 20
-13.5508857582
 10
-4.0547757091
 20
-13.5363236363
 10
-4.0876222268
 20
-13.5236578653
 10
-4.121619251
 20
-13.5128409777
  0
LWPOLYLINE
  5
315
100
AcDbEntity
  8
0
100
AcDbPolyline
 62
7
  6
CONTINUOUS
 90
5
 70
0
 10
-3.9969311685
 20
-13.564990144
 10
-4.0231345122
 20
-13.5508857582
 10
-4.0547757091
 20
-13.5363236363
 10
-4.0876222268
 20
-13.5236578653
 10
-4.121619251
 20
-13.5128409777
  0
LWPOLYLINE
  5
316
100
AcDbEntity
  8
ASSI
100
AcDbPolyline
 62
250
  6
CONTINUOUS
 90
8
 70
0
 10
-4.512449025
 20
-13.5679141791
 10
-4.5267107169
 20
-13.5599912271
 10
-4.5408297312
 20
-13.5539511737
 10
-4.554651437
 20
-13.5498601693
 10
-4.5680244595
 20
-13.5477630184
 10
-4.5808023378
 20
-13.5476826891
 10
-4.592845129
 20
-13.549620061
 10
-4.6040209409
 20
-13.5535539161
  0
LWPOLYLINE
  5
317
100
AcDbEntity
  8
0
100
AcDbPolyline
 62
250
  6
CONTINUOUS
 90
8
 70
0
 10
-4.512449025
 20
-13.5679141791
 10
-4.5267107169
 20
-13.5599912271
 10
-4.5408297312
 20
-13.5539511737
 10
-4.554651437
 20
-13.5498601693
 10
-4.5680244595
 20
-13.5477630184
 10
-4.5808023378
 20
-13.5476826891
 10
-4.592845129
 20
-13.549620061
 10
-4.6040209409
 20
-13.5535539161
  0
LWPOLYLINE
  5
318
100
AcDbEntity
  8
ASSI
100
AcDbPolyline
 62
250
  6
CONTINUOUS
 90
31
 70
0
 10
-16.0303824174
 20
-10.5587512694
 10
-16.0493231887
 20
-10.5482202382
 10
-16.0680433444
 20
-10.5371756897
 10
-16.0865253183
 20
-10.5256529687
 10
-16.1047350153
 20
-10.5137005399
 10
-16.1226752763
 20
-10.5013400232
 10
-16.1403853835
 20
-10.4885603035
 10
-16.1578515001
 20
-10.4753893925
 10
-16.1750617735
 20
-10.4618544447
 10
-16.1920585362
 20
-10.4479323519
 10
-16.208829762
 20
-10.4336453181
 10
-16.2253645717
 20
-10.419014846
 10
-16.2417058114
 20
-10.4040072588
 10
-16.2578422354
 20
-10.3886397853
 10
-16.2737624997
 20
-10.3729297291
 10
-16.2895069262
 20
-10.3568352835
 10
-16.305063758
 20
-10.3403700686
 10
-16.3204202766
 20
-10.3235483111
 10
-16.3356119119
 20
-10.3063222414
 10
-16.3506250469
 20
-10.2887034932
 10
-16.3654449102
 20
-10.2707042007
 10
-16.3801007081
 20
-10.2522718519
 10
-16.3945757019
 20
-10.2334177868
 10
-16.408852311
 20
-10.2141530636
 10
-16.4229528466
 20
-10.1944206121
 10
-16.4368555221
 20
-10.1742343453
 10
-16.4505396931
 20
-10.1536043429
 10
-16.4640221917
 20
-10.1324649464
 10
-16.47728909
 20
-10.1108028962
 10
-16.4902996978
 20
-10.0886599023
 10
-16.5030259162
 20
-10.0660532636
  0
LWPOLYLINE
  5
319
100
AcDbEntity
  8
RACCORDO
100
AcDbPolyline
 62
250
  6
CONTINUOUS
 90
31
 70
0
 10
-16.0303824174
 20
-10.5587512694
 10
-16.0493231887
 20
-10.5482202382
 10
-16.0680433444
 20
-10.5371756897
 10
-16.0865253183
 20
-10.5256529687
 10
-16.1047350153
 20
-10.5137005399
 10
-16.1226752763
 20
-10.5013400232
 10
-16.1403853835
 20
-10.4885603035
 10
-16.1578515001
 20
-10.4753893925
 10
-16.1750617735
 20
-10.4618544447
 10
-16.1920585362
 20
-10.4479323519
 10
-16.208829762
 20
-10.4336453181
 10
-16.2253645717
 20
-10.419014846
 10
-16.2417058114
 20
-10.4040072588
 10
-16.2578422354
 20
-10.3886397853
 10
-16.2737624997
 20
-10.3729297291
 10
-16.2895069262
 20
-10.3568352835
 10
-16.305063758
 20
-10.3403700686
 10
-16.3204202766
 20
-10.3235483111
 10
-16.3356119119
 20
-10.3063222414
 10
-16.3506250469
 20
-10.2887034932
 10
-16.3654449102
 20
-10.2707042007
 10
-16.3801007081
 20
-10.2522718519
 10
-16.3945757019
 20
-10.2334177868
 10
-16.408852311
 20
-10.2141530636
 10
-16.4229528466
 20
-10.1944206121
 10
-16.4368555221
 20
-10.1742343453
 10
-16.4505396931
 20
-10.1536043429
 10
-16.4640221917
 20
-10.1324649464
 10
-16.47728909
 20
-10.1108028962
 10
-16.4902996978
 20
-10.0886599023
 10
-16.5030259162
 20
-10.0660532636
  0
LINE
  5
31A
100
AcDbEntity
  8
ASSI
100
AcDbLine
 62
250
  6
CONTINUOUS
 10
15.0012379114
 20
-28.4760196958
 11
-16.0303822148
 21
-10.5587511525
  0
LINE
  5
31B
100
AcDbEntity
  8
RACCORDO
100
AcDbLine
 62
250
  6
CONTINUOUS
 10
15.0012379114
 20
-28.4760196958
 11
-16.0303822148
 21
-10.5587511525
  0
LINE
  5
31C
100
AcDbEntity
  8
ASSI
100
AcDbLine
 62
7
  6
CONTINUOUS
 10
15.3171130701
 20
-26.3373964194
 11
-14.020446279
 21
-9.3982573372
  0
LINE
  5
31D
100
AcDbEntity
  8
0
100
AcDbLine
 62
7
  6
CONTINUOUS
 10
15.3171130701
 20
-26.3373964194
 11
-14.020446279
 21
-9.3982573372
  0
LINE
  5
31E
100
AcDbEntity
  8
ASSI
100
AcDbLine
 62
250
  6
CONTINUOUS
 10
-2.515820864
 20
-14.4863896147
 11
-4.0957174827
 21
-13.5741771079
  0
LINE
  5
31F
100
AcDbEntity
  8
0
100
AcDbLine
 62
250
  6
CONTINUOUS
 10
-2.515820864
 20
-14.4863896147
 11
-4.0957174827
 21
-13.5741771079
  0
LINE
  5
320
100
AcDbEntity
  8
ASSI
100
AcDbLine
 62
7
  6
CONTINUOUS
 10
-2.4170501505
 20
-14.477187726
 11
-3.9969467615
 21
-13.5649752236
  0
LINE
  5
321
100
AcDbEntity
  8
0
100
AcDbLine
 62
7
  6
CONTINUOUS
 10
-2.4170501505
 20
-14.477187726
 11
-3.9969467615
 21
-13.5649752236
  0
LWPOLYLINE
  5
322
100
AcDbEntity
  8
ASSI
100
AcDbPolyline
 62
250
  6
CONTINUOUS
 90
16
 70
0
 10
-2.5085467879
 20
-14.724942216
 10
-2.4932671812
 20
-14.7340760327
 10
-2.4781684161
 20
-14.7449059316
 10
-2.4634158527
 20
-14.7573133098
 10
-2.4491710609
 20
-14.7711622869
 10
-2.4355900489
 20
-14.7863011947
 10
-2.4228215548
 20
-14.802564239
 10
-2.4110054202
 20
-14.8197733131
 10
-2.400271059
 20
-14.8377399453
 10
-2.3907360386
 20
-14.8562673651
 10
-2.3825047891
 20
-14.8751526633
 10
-2.3756674641
 20
-14.8941890068
 10
-2.3702989519
 20
-14.9131679018
 10
-2.3664580515
 20
-14.931881488
 10
-2.3641868305
 20
-14.9501248148
 10
-2.3635101658
 20
-14.9676980792
  0
LWPOLYLINE
  5
323
100
AcDbEntity
  8
0
100
AcDbPolyline
 62
250
  6
CONTINUOUS
 90
16
 70
0
 10
-2.5085467879
 20
-14.724942216
 10
-2.4932671812
 20
-14.7340760327
 10
-2.4781684161
 20
-14.7449059316
 10
-2.4634158527
 20
-14.7573133098
 10
-2.4491710609
 20
-14.7711622869
 10
-2.4355900489
 20
-14.7863011947
 10
-2.4228215548
 20
-14.802564239
 10
-2.4110054202
 20
-14.8197733131
 10
-2.400271059
 20
-14.8377399453
 10
-2.3907360386
 20
-14.8562673651
 10
-2.3825047891
 20
-14.8751526633
 10
-2.3756674641
 20
-14.8941890068
 10
-2.3702989519
 20
-14.9131679018
 10
-2.3664580515
 20
-14.931881488
 10
-2.3641868305
 20
-14.9501248148
 10
-2.3635101658
 20
-14.9676980792
  0
LWPOLYLINE
  5
324
100
AcDbEntity
  8
ASSI
100
AcDbPolyline
 62
250
  6
CONTINUOUS
 90
8
 70
0
 10
15.5407766804
 20
-28.5976762727
 10
15.5122378055
 20
-28.5795946017
 10
15.4864136057
 20
-28.5600501757
 10
15.4634877596
 20
-28.5391820074
 10
15.4436233306
 20
-28.5171385247
 10
15.4269616075
 20
-28.4940765153
 10
15.4136210993
 20
-28.4701600112
 10
15.4036966922
 20
-28.4455591219
  0
LWPOLYLINE
  5
325
100
AcDbEntity
  8
RACCORDO
100
AcDbPolyline
 62
250
  6
CONTINUOUS
 90
8
 70
0
 10
15.5407766804
 20
-28.5976762727
 10
15.5122378055
 20
-28.5795946017
 10
15.4864136057
 20
-28.5600501757
 10
15.4634877596
 20
-28.5391820074
 10
15.4436233306
 20
-28.5171385247
 10
15.4269616075
 20
-28.4940765153
 10
15.4136210993
 20
-28.4701600112
 10
15.4036966922
 20
-28.4455591219
  0
LWPOLYLINE
  5
326
100
AcDbEntity
  8
ASSI
100
AcDbPolyline
 62
7
  6
CONTINUOUS
 90
33
 70
0
 10
2.8473599616
 20
-24.5500923641
 10
2.8707922338
 20
-24.5735302882
 10
2.8945114749
 20
-24.5992678979
 10
2.9185182531
 20
-24.6273048181
 10
2.9429255215
 20
-24.6576162745
 10
2.9676217413
 20
-24.6902261074
 10
2.9922710024
 20
-24.7252066923
 10
3.0170579678
 20
-24.7627230614
 10
3.041800329
 20
-24.8026086257
 10
3.065612069
 20
-24.8444380967
 10
3.088605175
 20
-24.8887240566
 10
3.1106711125
 20
-24.9349516363
 10
3.1305924062
 20
-24.9811548156
 10
3.1480466403
 20
-25.0273170622
 10
3.1633582431
 20
-25.0734535697
 10
3.1762776676
 20
-25.1176474535
 10
3.1864893903
 20
-25.1593549817
 10
3.1943078542
 20
-25.1991205962
 10
3.2004264791
 20
-25.2366609881
 10
3.20491356
 20
-25.2717768965
 10
3.2076988561
 20
-25.3046688695
 10
3.2092675238
 20
-25.3356536179
 10
3.2096831565
 20
-25.3647627144
 10
3.2088805847
 20
-25.391965631
 10
3.2071519259
 20
-25.4174858569
 10
3.2045073604
 20
-25.4413279795
 10
3.2009353838
 20
-25.4634882906
 10
3.1966956962
 20
-25.4841777641
 10
3.19180162
 20
-25.503390783
 10
3.186238736
 20
-25.5211336936
 10
3.1802252517
 20
-25.5376353347
 10
3.1737808876
 20
-25.5529110918
 10
3.166885071
 20
-25.5669461469
  0
LWPOLYLINE
  5
327
100
AcDbEntity
  8
0
100
AcDbPolyline
 62
7
  6
CONTINUOUS
 90
33
 70
0
 10
2.8473599616
 20
-24.5500923641
 10
2.8707922338
 20
-24.5735302882
 10
2.8945114749
 20
-24.5992678979
 10
2.9185182531
 20
-24.6273048181
 10
2.9429255215
 20
-24.6576162745
 10
2.9676217413
 20
-24.6902261074
 10
2.9922710024
 20
-24.7252066923
 10
3.0170579678
 20
-24.7627230614
 10
3.041800329
 20
-24.8026086257
 10
3.065612069
 20
-24.8444380967
 10
3.088605175
 20
-24.8887240566
 10
3.1106711125
 20
-24.9349516363
 10
3.1305924062
 20
-24.9811548156
 10
3.1480466403
 20
-25.0273170622
 10
3.1633582431
 20
-25.0734535697
 10
3.1762776676
 20
-25.1176474535
 10
3.1864893903
 20
-25.1593549817
 10
3.1943078542
 20
-25.1991205962
 10
3.2004264791
 20
-25.2366609881
 10
3.20491356
 20
-25.2717768965
 10
3.2076988561
 20
-25.3046688695
 10
3.2092675238
 20
-25.3356536179
 10
3.2096831565
 20
-25.3647627144
 10
3.2088805847
 20
-25.391965631
 10
3.2071519259
 20
-25.4174858569
 10
3.2045073604
 20
-25.4413279795
 10
3.2009353838
 20
-25.4634882906
 10
3.1966956962
 20
-25.4841777641
 10
3.19180162
 20
-25.503390783
 10
3.186238736
 20
-25.5211336936
 10
3.1802252517
 20
-25.5376353347
 10
3.1737808876
 20
-25.5529110918
 10
3.166885071
 20
-25.5669461469
  0
LINE
  5
328
100
AcDbEntity
  8
ASSI
100
AcDbLine
 62
7
  6
CONTINUOUS
 10
2.9664454928
 20
-25.6986103226
 11
2.9867015183
 21
-25.7202326526
  0
LINE
  5
329
100
AcDbEntity
  8
0
100
AcDbLine
 62
7
  6
CONTINUOUS
 10
2.9664454928
 20
-25.6986103226
 11
2.9867015183
 21
-25.7202326526
  0
LINE
  5
32A
100
AcDbEntity
  8
ASSI
100
AcDbLine
 62
7
  6
CONTINUOUS
 10
2.9867015183
 20
-25.7202326526
 11
3.0057532693
 21
-25.7422322393
  0
LINE
  5
32B
100
AcDbEntity
  8
0
100
AcDbLine
 62
7
  6
CONTINUOUS
 10
2.9867015183
 20
-25.7202326526
 11
3.0057532693
 21
-25.7422322393
  0
LWPOLYLINE
  5
32C
100
AcDbEntity
  8
ASSI
100
AcDbPolyline
 62
7
  6
CONTINUOUS
 90
21
 70
0
 10
3.0057532693
 20
-25.7422322393
 10
3.0236010117
 20
-25.7646089045
 10
3.0401781709
 20
-25.7875234007
 10
3.0555519745
 20
-25.8108145377
 10
3.0699232374
 20
-25.8339993264
 10
3.0832658959
 20
-25.8569467383
 10
3.09560631
 20
-25.8797876029
 10
3.1072236563
 20
-25.9024319018
 10
3.1181570016
 20
-25.9248756978
 10
3.1283674344
 20
-25.9471228233
 10
3.1380170127
 20
-25.9690950158
 10
3.147123911
 20
-25.9907877529
 10
3.1556699894
 20
-26.0122055333
 10
3.163762724
 20
-26.0332836993
 10
3.1714034205
 20
-26.0539901054
 10
3.1785907093
 20
-26.0743569393
 10
3.1854279964
 20
-26.0944160818
 10
3.1919076273
 20
-26.1141335314
 10
3.1980371743
 20
-26.1335433441
 10
3.2039428956
 20
-26.1527794793
 10
3.2096150821
 20
-26.1718336916
  0
LWPOLYLINE
  5
32D
100
AcDbEntity
  8
0
100
AcDbPolyline
 62
7
  6
CONTINUOUS
 90
21
 70
0
 10
3.0057532693
 20
-25.7422322393
 10
3.0236010117
 20
-25.7646089045
 10
3.0401781709
 20
-25.7875234007
 10
3.0555519745
 20
-25.8108145377
 10
3.0699232374
 20
-25.8339993264
 10
3.0832658959
 20
-25.8569467383
 10
3.09560631
 20
-25.8797876029
 10
3.1072236563
 20
-25.9024319018
 10
3.1181570016
 20
-25.9248756978
 10
3.1283674344
 20
-25.9471228233
 10
3.1380170127
 20
-25.9690950158
 10
3.147123911
 20
-25.9907877529
 10
3.1556699894
 20
-26.0122055333
 10
3.163762724
 20
-26.0332836993
 10
3.1714034205
 20
-26.0539901054
 10
3.1785907093
 20
-26.0743569393
 10
3.1854279964
 20
-26.0944160818
 10
3.1919076273
 20
-26.1141335314
 10
3.1980371743
 20
-26.1335433441
 10
3.2039428956
 20
-26.1527794793
 10
3.2096150821
 20
-26.1718336916
  0
LWPOLYLINE
  5
32E
100
AcDbEntity
  8
0
100
AcDbPolyline
 62
250
  6
CONTINUOUS
 90
3
 70
0
 10
-9.6420936402
 20
26.5704592168
 10
-9.6742032131
 20
26.0761743707
 10
-9.7284156094
 20
25.1875516669
  0
LINE
  5
32F
100
AcDbEntity
  8
ASSI
100
AcDbLine
 62
7
  6
CONTINUOUS
 10
-14.5473619852
 20
2.3665329873
 11
-14.5853564518
 21
2.3426637058
  0
LINE
  5
330
100
AcDbEntity
  8
0
100
AcDbLine
 62
7
  6
CONTINUOUS
 10
-14.5473619852
 20
2.3665329873
 11
-14.5853564518
 21
2.3426637058
  0
LINE
  5
331
100
AcDbEntity
  8
ASSI
100
AcDbLine
 62
7
  6
CONTINUOUS
 10
-14.5475221059
 20
5.001945828
 11
-14.5853564518
 21
4.9812550929
  0
LINE
  5
332
100
AcDbEntity
  8
0
100
AcDbLine
 62
7
  6
CONTINUOUS
 10
-14.5475221059
 20
5.001945828
 11
-14.5853564518
 21
4.9812550929
  0
LWPOLYLINE
  5
333
100
AcDbEntity
  8
ASSI
100
AcDbPolyline
 62
250
  6
CONTINUOUS
 90
9
 70
0
 10
-2.4339985849
 20
-14.5739675866
 10
-2.4391870356
 20
-14.5616808394
 10
-2.4458739697
 20
-14.5497047649
 10
-2.4540835424
 20
-14.5380471277
 10
-2.4637915986
 20
-14.5267001632
 10
-2.4748356115
 20
-14.5158430153
 10
-2.4871614056
 20
-14.5055353985
 10
-2.5008231565
 20
-14.4957175984
 10
-2.515820864
 20
-14.4863896147
  0
LWPOLYLINE
  5
334
100
AcDbEntity
  8
0
100
AcDbPolyline
 62
250
  6
CONTINUOUS
 90
9
 70
0
 10
-2.4339985849
 20
-14.5739675866
 10
-2.4391870356
 20
-14.5616808394
 10
-2.4458739697
 20
-14.5497047649
 10
-2.4540835424
 20
-14.5380471277
 10
-2.4637915986
 20
-14.5267001632
 10
-2.4748356115
 20
-14.5158430153
 10
-2.4871614056
 20
-14.5055353985
 10
-2.5008231565
 20
-14.4957175984
 10
-2.515820864
 20
-14.4863896147
  0
LWPOLYLINE
  5
335
100
AcDbEntity
  8
ASSI
100
AcDbPolyline
 62
7
  6
CONTINUOUS
 90
19
 70
0
 10
2.900416833
 20
-25.8809314545
 10
2.8924008094
 20
-25.8589920198
 10
2.8836060802
 20
-25.8371479028
 10
2.8740324371
 20
-25.8153992438
 10
2.8636520227
 20
-25.7936483391
 10
2.8524923171
 20
-25.7719931467
 10
2.8406360442
 20
-25.7507273494
 10
2.8280914636
 20
-25.7298449434
 10
2.8148498136
 20
-25.7093522703
 10
2.8009681419
 20
-25.6895616285
 10
2.7863936469
 20
-25.6704540185
 10
2.7711785828
 20
-25.6520488077
 10
2.7555374858
 20
-25.6347159085
 10
2.739450697
 20
-25.6185475655
 10
2.7229374105
 20
-25.6034518463
 10
2.7062704571
 20
-25.5895223889
 10
2.6895407138
 20
-25.5767904505
 10
2.6726570953
 20
-25.5652249137
 10
2.65561955
 20
-25.5548258132
  0
LWPOLYLINE
  5
336
100
AcDbEntity
  8
0
100
AcDbPolyline
 62
7
  6
CONTINUOUS
 90
19
 70
0
 10
2.900416833
 20
-25.8809314545
 10
2.8924008094
 20
-25.8589920198
 10
2.8836060802
 20
-25.8371479028
 10
2.8740324371
 20
-25.8153992438
 10
2.8636520227
 20
-25.7936483391
 10
2.8524923171
 20
-25.7719931467
 10
2.8406360442
 20
-25.7507273494
 10
2.8280914636
 20
-25.7298449434
 10
2.8148498136
 20
-25.7093522703
 10
2.8009681419
 20
-25.6895616285
 10
2.7863936469
 20
-25.6704540185
 10
2.7711785828
 20
-25.6520488077
 10
2.7555374858
 20
-25.6347159085
 10
2.739450697
 20
-25.6185475655
 10
2.7229374105
 20
-25.6034518463
 10
2.7062704571
 20
-25.5895223889
 10
2.6895407138
 20
-25.5767904505
 10
2.6726570953
 20
-25.5652249137
 10
2.65561955
 20
-25.5548258132
  0
LWPOLYLINE
  5
337
100
AcDbEntity
  8
ASSI
100
AcDbPolyline
 62
7
  6
CONTINUOUS
 90
19
 70
0
 10
2.7939886422
 20
-25.9423817579
 10
2.7859748579
 20
-25.9204441907
 10
2.7771823775
 20
-25.8986017295
 10
2.7676109932
 20
-25.8768545143
 10
2.7572329223
 20
-25.8551049162
 10
2.7460755708
 20
-25.833450818
 10
2.7342214394
 20
-25.8121856775
 10
2.7216787959
 20
-25.7913034326
 10
2.7084388712
 20
-25.7708104827
 10
2.6945584679
 20
-25.7510190737
 10
2.6799846959
 20
-25.7319100551
 10
2.6647698983
 20
-25.7135029451
 10
2.649128632
 20
-25.6961680564
 10
2.6330411085
 20
-25.6799976278
 10
2.6165266517
 20
-25.6648997324
 10
2.5998585012
 20
-25.650968425
 10
2.5831276702
 20
-25.6382351018
 10
2.5662429373
 20
-25.6266685063
 10
2.5492042508
 20
-25.6162686732
  0
LWPOLYLINE
  5
338
100
AcDbEntity
  8
0
100
AcDbPolyline
 62
7
  6
CONTINUOUS
 90
19
 70
0
 10
2.7939886422
 20
-25.9423817579
 10
2.7859748579
 20
-25.9204441907
 10
2.7771823775
 20
-25.8986017295
 10
2.7676109932
 20
-25.8768545143
 10
2.7572329223
 20
-25.8551049162
 10
2.7460755708
 20
-25.833450818
 10
2.7342214394
 20
-25.8121856775
 10
2.7216787959
 20
-25.7913034326
 10
2.7084388712
 20
-25.7708104827
 10
2.6945584679
 20
-25.7510190737
 10
2.6799846959
 20
-25.7319100551
 10
2.6647698983
 20
-25.7135029451
 10
2.649128632
 20
-25.6961680564
 10
2.6330411085
 20
-25.6799976278
 10
2.6165266517
 20
-25.6648997324
 10
2.5998585012
 20
-25.650968425
 10
2.5831276702
 20
-25.6382351018
 10
2.5662429373
 20
-25.6266685063
 10
2.5492042508
 20
-25.6162686732
  0
LINE
  5
339
100
AcDbEntity
  8
ASSI
100
AcDbLine
 62
7
  6
CONTINUOUS
 10
-2.6031687
 20
-23.3373738651
 11
-2.6592768736
 21
-22.6081114277
  0
LINE
  5
33A
100
AcDbEntity
  8
0
100
AcDbLine
 62
7
  6
CONTINUOUS
 10
-2.6031687
 20
-23.3373738651
 11
-2.6592768736
 21
-22.6081114277
  0
LINE
  5
33B
100
AcDbEntity
  8
ASSI
100
AcDbLine
 62
7
  6
CONTINUOUS
 10
1.9815181139
 20
-26.1074688215
 11
1.9260969611
 21
-25.3867491017
  0
LINE
  5
33C
100
AcDbEntity
  8
0
100
AcDbLine
 62
7
  6
CONTINUOUS
 10
1.9815181139
 20
-26.1074688215
 11
1.9260969611
 21
-25.3867491017
  0
LINE
  5
33D
100
AcDbEntity
  8
ASSI
100
AcDbLine
 62
7
  6
CONTINUOUS
 10
2.0879925291
 20
-26.0459918286
 11
2.0325213644
 21
-25.3253015934
  0
LINE
  5
33E
100
AcDbEntity
  8
0
100
AcDbLine
 62
7
  6
CONTINUOUS
 10
2.0879925291
 20
-26.0459918286
 11
2.0325213644
 21
-25.3253015934
  0
LINE
  5
33F
100
AcDbEntity
  8
ASSI
100
AcDbLine
 62
7
  6
CONTINUOUS
 10
-2.7096431151
 20
-23.3988508579
 11
-2.7657007032
 21
-22.6695585909
  0
LINE
  5
340
100
AcDbEntity
  8
0
100
AcDbLine
 62
7
  6
CONTINUOUS
 10
-2.7096431151
 20
-23.3988508579
 11
-2.7657007032
 21
-22.6695585909
  0
LINE
  5
341
100
AcDbEntity
  8
ASSI
100
AcDbLine
 62
7
  6
CONTINUOUS
 10
-2.2964042553
 20
-23.6374497965
 11
-2.3524618435
 21
-22.9081575295
  0
LINE
  5
342
100
AcDbEntity
  8
0
100
AcDbLine
 62
7
  6
CONTINUOUS
 10
-2.2964042553
 20
-23.6374497965
 11
-2.3524618435
 21
-22.9081575295
  0
LWPOLYLINE
  5
343
100
AcDbEntity
  8
ASSI
100
AcDbPolyline
 62
7
  6
CONTINUOUS
 90
3
 70
0
 10
2.3930942422
 20
-26.3451077197
 10
2.3381919189
 20
-25.6313711079
 10
2.3276354399
 20
-25.4883376187
  0
LWPOLYLINE
  5
344
100
AcDbEntity
  8
0
100
AcDbPolyline
 62
7
  6
CONTINUOUS
 90
3
 70
0
 10
2.3930942422
 20
-26.3451077197
 10
2.3381919189
 20
-25.6313711079
 10
2.3276354399
 20
-25.4883376187
  0
LINE
  5
345
100
AcDbEntity
  8
ASSI
100
AcDbLine
 62
7
  6
CONTINUOUS
 10
1.9260969611
 20
-25.3867491017
 11
1.8742785551
 21
-24.6635997029
  0
LINE
  5
346
100
AcDbEntity
  8
0
100
AcDbLine
 62
7
  6
CONTINUOUS
 10
1.9260969611
 20
-25.3867491017
 11
1.8742785551
 21
-24.6635997029
  0
LINE
  5
347
100
AcDbEntity
  8
ASSI
100
AcDbLine
 62
7
  6
CONTINUOUS
 10
2.0325213644
 20
-25.3253015934
 11
1.9806561952
 21
-24.6021791724
  0
LINE
  5
348
100
AcDbEntity
  8
0
100
AcDbLine
 62
7
  6
CONTINUOUS
 10
2.0325213644
 20
-25.3253015934
 11
1.9806561952
 21
-24.6021791724
  0
LINE
  5
349
100
AcDbEntity
  8
ASSI
100
AcDbLine
 62
7
  6
CONTINUOUS
 10
-2.7657007032
 20
-22.6695585909
 11
-2.818069457
 21
-21.9377788664
  0
LINE
  5
34A
100
AcDbEntity
  8
0
100
AcDbLine
 62
7
  6
CONTINUOUS
 10
-2.7657007032
 20
-22.6695585909
 11
-2.818069457
 21
-21.9377788664
  0
LINE
  5
34B
100
AcDbEntity
  8
ASSI
100
AcDbLine
 62
7
  6
CONTINUOUS
 10
-2.6592768736
 20
-22.6081114277
 11
-2.7116928866
 21
-21.8763589666
  0
LINE
  5
34C
100
AcDbEntity
  8
0
100
AcDbLine
 62
7
  6
CONTINUOUS
 10
-2.6592768736
 20
-22.6081114277
 11
-2.7116928866
 21
-21.8763589666
  0
LINE
  5
34D
100
AcDbEntity
  8
ASSI
100
AcDbLine
 62
7
  6
CONTINUOUS
 10
-2.3524618435
 20
-22.9081575295
 11
-2.4048305972
 21
-22.1763778049
  0
LINE
  5
34E
100
AcDbEntity
  8
0
100
AcDbLine
 62
7
  6
CONTINUOUS
 10
-2.3524618435
 20
-22.9081575295
 11
-2.4048305972
 21
-22.1763778049
  0
LINE
  5
34F
100
AcDbEntity
  8
ASSI
100
AcDbLine
 62
7
  6
CONTINUOUS
 10
2.2880590483
 20
-25.1209942818
 11
2.2466988773
 21
-24.5173578789
  0
LINE
  5
350
100
AcDbEntity
  8
0
100
AcDbLine
 62
7
  6
CONTINUOUS
 10
2.2880590483
 20
-25.1209942818
 11
2.2466988773
 21
-24.5173578789
  0
LINE
  5
351
100
AcDbEntity
  8
ASSI
100
AcDbLine
 62
7
  6
CONTINUOUS
 10
1.8742785551
 20
-24.6635997029
 11
1.8260654915
 21
-23.9380568494
  0
LINE
  5
352
100
AcDbEntity
  8
0
100
AcDbLine
 62
7
  6
CONTINUOUS
 10
1.8742785551
 20
-24.6635997029
 11
1.8260654915
 21
-23.9380568494
  0
LINE
  5
353
100
AcDbEntity
  8
ASSI
100
AcDbLine
 62
7
  6
CONTINUOUS
 10
1.9806561952
 20
-24.6021791724
 11
1.9395207218
 21
-23.9865815064
  0
LINE
  5
354
100
AcDbEntity
  8
0
100
AcDbLine
 62
7
  6
CONTINUOUS
 10
1.9806561952
 20
-24.6021791724
 11
1.9395207218
 21
-23.9865815064
  0
LINE
  5
355
100
AcDbEntity
  8
ASSI
100
AcDbLine
 62
7
  6
CONTINUOUS
 10
-2.818069457
 20
-21.9377788664
 11
-2.8667467025
 21
-21.20354905
  0
LINE
  5
356
100
AcDbEntity
  8
0
100
AcDbLine
 62
7
  6
CONTINUOUS
 10
-2.818069457
 20
-21.9377788664
 11
-2.8667467025
 21
-21.20354905
  0
LINE
  5
357
100
AcDbEntity
  8
ASSI
100
AcDbLine
 62
7
  6
CONTINUOUS
 10
-2.7116928866
 20
-21.8763589666
 11
-2.7521731965
 21
-21.2697023563
  0
LINE
  5
358
100
AcDbEntity
  8
0
100
AcDbLine
 62
7
  6
CONTINUOUS
 10
-2.7116928866
 20
-21.8763589666
 11
-2.7521731965
 21
-21.2697023563
  0
LINE
  5
359
100
AcDbEntity
  8
ASSI
100
AcDbLine
 62
7
  6
CONTINUOUS
 10
-2.4048305972
 20
-22.1763778049
 11
-2.4535078427
 21
-21.4421479885
  0
LINE
  5
35A
100
AcDbEntity
  8
0
100
AcDbLine
 62
7
  6
CONTINUOUS
 10
-2.4048305972
 20
-22.1763778049
 11
-2.4535078427
 21
-21.4421479885
  0
LWPOLYLINE
  5
35B
100
AcDbEntity
  8
ASSI
100
AcDbPolyline
 62
7
  6
CONTINUOUS
 90
14
 70
0
 10
-2.2291872801
 20
-14.7723952534
 10
-2.2292065444
 20
-14.7688724041
 10
-2.2310461952
 20
-14.7390085331
 10
-2.2359437817
 20
-14.7090434983
 10
-2.2439405298
 20
-14.6793111325
 10
-2.2550101647
 20
-14.650171859
 10
-2.2691085216
 20
-14.6218628625
 10
-2.286142626
 20
-14.5946241466
 10
-2.3059598542
 20
-14.5687153566
 10
-2.3284223659
 20
-14.5443075155
 10
-2.3534569644
 20
-14.5214626291
 10
-2.3810750588
 20
-14.5001959736
 10
-2.4112917686
 20
-14.4805709452
 10
-2.4170352288
 20
-14.4772022589
  0
LWPOLYLINE
  5
35C
100
AcDbEntity
  8
0
100
AcDbPolyline
 62
7
  6
CONTINUOUS
 90
14
 70
0
 10
-2.2291872801
 20
-14.7723952534
 10
-2.2292065444
 20
-14.7688724041
 10
-2.2310461952
 20
-14.7390085331
 10
-2.2359437817
 20
-14.7090434983
 10
-2.2439405298
 20
-14.6793111325
 10
-2.2550101647
 20
-14.650171859
 10
-2.2691085216
 20
-14.6218628625
 10
-2.286142626
 20
-14.5946241466
 10
-2.3059598542
 20
-14.5687153566
 10
-2.3284223659
 20
-14.5443075155
 10
-2.3534569644
 20
-14.5214626291
 10
-2.3810750588
 20
-14.5001959736
 10
-2.4112917686
 20
-14.4805709452
 10
-2.4170352288
 20
-14.4772022589
  0
LINE
  5
35D
100
AcDbEntity
  8
ASSI
100
AcDbLine
 62
7
  6
CONTINUOUS
 10
-2.2291870169
 20
-14.772237352
 11
-2.2291870169
 21
-15.3539644667
  0
LINE
  5
35E
100
AcDbEntity
  8
0
100
AcDbLine
 62
7
  6
CONTINUOUS
 10
-2.2291870169
 20
-14.772237352
 11
-2.2291870169
 21
-15.3539644667
  0
LINE
  5
35F
100
AcDbEntity
  8
ASSI
100
AcDbLine
 62
250
  6
CONTINUOUS
 10
-2.3634755991
 20
-14.9676770374
 11
-2.3635101661
 21
-15.5565669054
  0
LINE
  5
360
100
AcDbEntity
  8
0
100
AcDbLine
 62
250
  6
CONTINUOUS
 10
-2.3634755991
 20
-14.9676770374
 11
-2.3635101661
 21
-15.5565669054
  0
LWPOLYLINE
  5
361
100
AcDbEntity
  8
ASSI
100
AcDbPolyline
 62
250
  6
CONTINUOUS
 90
8
 70
0
 10
-2.3635101661
 20
-15.5565669054
 10
-2.3638133312
 20
-15.5728740201
 10
-2.3657133127
 20
-15.5881411698
 10
-2.3691893183
 20
-15.6022013443
 10
-2.3742033168
 20
-15.6149007414
 10
-2.38070045
 20
-15.6261004394
 10
-2.3886096299
 20
-15.6356779205
 10
-2.3978443249
 20
-15.643528424
  0
LWPOLYLINE
  5
362
100
AcDbEntity
  8
0
100
AcDbPolyline
 62
250
  6
CONTINUOUS
 90
8
 70
0
 10
-2.3635101661
 20
-15.5565669054
 10
-2.3638133312
 20
-15.5728740201
 10
-2.3657133127
 20
-15.5881411698
 10
-2.3691893183
 20
-15.6022013443
 10
-2.3742033168
 20
-15.6149007414
 10
-2.38070045
 20
-15.6261004394
 10
-2.3886096299
 20
-15.6356779205
 10
-2.3978443249
 20
-15.643528424
  0
LWPOLYLINE
  5
363
100
AcDbEntity
  8
ASSI
100
AcDbPolyline
 62
250
  6
CONTINUOUS
 90
3
 70
0
 10
-2.2313103516
 20
-15.3810886568
 10
-2.229277769
 20
-15.3595461775
 10
-2.2291870169
 20
-15.353928902
  0
LWPOLYLINE
  5
364
100
AcDbEntity
  8
0
100
AcDbPolyline
 62
250
  6
CONTINUOUS
 90
3
 70
0
 10
-2.2313103516
 20
-15.3810886568
 10
-2.229277769
 20
-15.3595461775
 10
-2.2291870169
 20
-15.353928902
  0
LINE
  5
365
100
AcDbEntity
  8
ASSI
100
AcDbLine
 62
250
  6
CONTINUOUS
 10
32.1738352694
 20
18.6545445073
 11
33.9231378029
 21
19.6645601449
  0
LINE
  5
366
100
AcDbEntity
  8
RACCORDO
100
AcDbLine
 62
250
  6
CONTINUOUS
 10
32.1738352694
 20
18.6545445073
 11
33.9231378029
 21
19.6645601449
  0
LINE
  5
367
100
AcDbEntity
  8
ASSI
100
AcDbLine
 62
250
  6
CONTINUOUS
 10
-16.6439120914
 20
-9.6084031715
 11
-14.5853564518
 21
-8.4198042174
  0
LINE
  5
368
100
AcDbEntity
  8
0
100
AcDbLine
 62
250
  6
CONTINUOUS
 10
-16.6439120914
 20
-9.6084031715
 11
-14.5853564518
 21
-8.4198042174
  0
LINE
  5
369
100
AcDbEntity
  8
ASSI
100
AcDbLine
 62
250
  6
CONTINUOUS
 10
34.2155041629
 20
19.4222216084
 11
34.2976859209
 21
19.4680337415
  0
LINE
  5
36A
100
AcDbEntity
  8
RACCORDO
100
AcDbLine
 62
250
  6
CONTINUOUS
 10
34.2155041629
 20
19.4222216084
 11
34.2976859209
 21
19.4680337415
  0
LINE
  5
36B
100
AcDbEntity
  8
ASSI
100
AcDbLine
 62
250
  6
CONTINUOUS
 10
34.2976859209
 20
19.4680337415
 11
34.4353322095
 21
19.5439779978
  0
LINE
  5
36C
100
AcDbEntity
  8
RACCORDO
100
AcDbLine
 62
250
  6
CONTINUOUS
 10
34.2976859209
 20
19.4680337415
 11
34.4353322095
 21
19.5439779978
  0
LWPOLYLINE
  5
36D
100
AcDbEntity
  8
ASSI
100
AcDbPolyline
 62
250
  6
CONTINUOUS
 90
5
 70
0
 10
34.4353322095
 20
19.5439779978
 10
34.5661169631
 20
19.6150109059
 10
34.6288530711
 20
19.6486843777
 10
34.6897250481
 20
19.6810000363
 10
34.8195587973
 20
19.7490902799
  0
LWPOLYLINE
  5
36E
100
AcDbEntity
  8
RACCORDO
100
AcDbPolyline
 62
250
  6
CONTINUOUS
 90
5
 70
0
 10
34.4353322095
 20
19.5439779978
 10
34.5661169631
 20
19.6150109059
 10
34.6288530711
 20
19.6486843777
 10
34.6897250481
 20
19.6810000363
 10
34.8195587973
 20
19.7490902799
  0
LWPOLYLINE
  5
36F
100
AcDbEntity
  8
ASSI
100
AcDbPolyline
 62
250
  6
CONTINUOUS
 90
12
 70
0
 10
34.8195587973
 20
19.7490902799
 10
34.8848624187
 20
19.7822102556
 10
34.9446043077
 20
19.811628527
 10
34.9986992024
 20
19.8379674148
 10
35.0473108902
 20
19.8613298477
 10
35.0908894834
 20
19.8814105458
 10
35.1292927592
 20
19.8985108029
 10
35.1628964155
 20
19.9132383952
 10
35.1929355022
 20
19.9257227159
 10
35.2198622901
 20
19.9361558012
 10
35.2433881134
 20
19.9448997683
 10
35.2636035994
 20
19.9522243013
  0
LWPOLYLINE
  5
370
100
AcDbEntity
  8
RACCORDO
100
AcDbPolyline
 62
250
  6
CONTINUOUS
 90
12
 70
0
 10
34.8195587973
 20
19.7490902799
 10
34.8848624187
 20
19.7822102556
 10
34.9446043077
 20
19.811628527
 10
34.9986992024
 20
19.8379674148
 10
35.0473108902
 20
19.8613298477
 10
35.0908894834
 20
19.8814105458
 10
35.1292927592
 20
19.8985108029
 10
35.1628964155
 20
19.9132383952
 10
35.1929355022
 20
19.9257227159
 10
35.2198622901
 20
19.9361558012
 10
35.2433881134
 20
19.9448997683
 10
35.2636035994
 20
19.9522243013
  0
LWPOLYLINE
  5
371
100
AcDbEntity
  8
ASSI
100
AcDbPolyline
 62
250
  6
CONTINUOUS
 90
9
 70
0
 10
15.3733198369
 20
7.8952852806
 10
15.3500542066
 20
7.8877161221
 10
15.3295005564
 20
7.8815224018
 10
15.3118069907
 20
7.87674875
 10
15.2971010053
 20
7.8734295645
 10
15.285488568
 20
7.8715887624
 10
15.277053355
 20
7.8712396083
 10
15.2718561487
 20
7.872384618
 10
15.270181602
 20
7.8740350966
  0
LWPOLYLINE
  5
372
100
AcDbEntity
  8
RACCORDO
100
AcDbPolyline
 62
250
  6
CONTINUOUS
 90
9
 70
0
 10
15.3733198369
 20
7.8952852806
 10
15.3500542066
 20
7.8877161221
 10
15.3295005564
 20
7.8815224018
 10
15.3118069907
 20
7.87674875
 10
15.2971010053
 20
7.8734295645
 10
15.285488568
 20
7.8715887624
 10
15.277053355
 20
7.8712396083
 10
15.2718561487
 20
7.872384618
 10
15.270181602
 20
7.8740350966
  0
LINE
  5
373
100
AcDbEntity
  8
ASSI
100
AcDbLine
 62
7
  6
CONTINUOUS
 10
-14.5853564518
 20
5.0239709232
 11
-14.5473619852
 21
5.0020333944
  0
LINE
  5
374
100
AcDbEntity
  8
0
100
AcDbLine
 62
7
  6
CONTINUOUS
 10
-14.5853564518
 20
5.0239709232
 11
-14.5473619852
 21
5.0020333944
  0
LWPOLYLINE
  5
375
100
AcDbEntity
  8
ASSI
100
AcDbPolyline
 62
250
  6
CONTINUOUS
 90
18
 70
0
 10
15.373320433
 20
-29.119728529
 10
15.3500547055
 20
-29.0845066255
 10
15.3295009578
 20
-29.0479212122
 10
15.3118072956
 20
-29.0102359156
 10
15.2971012157
 20
-28.9717222879
 10
15.2854886869
 20
-28.9326578499
 10
15.2770533867
 20
-28.8933240915
 10
15.271856098
 20
-28.8540044431
 10
15.2699342713
 20
-28.8149822337
 10
15.271301755
 20
-28.7765386488
 10
15.2759486952
 20
-28.7389507046
 10
15.2838416073
 20
-28.7024892516
 10
15.2949236165
 20
-28.6674170232
 10
15.3091148683
 20
-28.6339867422
 10
15.3263131037
 20
-28.6024392999
 10
15.346394396
 20
-28.5730020205
 10
15.3692140437
 20
-28.5458870225
 10
15.3763033594
 20
-28.5388516175
  0
LWPOLYLINE
  5
376
100
AcDbEntity
  8
RACCORDO
100
AcDbPolyline
 62
250
  6
CONTINUOUS
 90
18
 70
0
 10
15.373320433
 20
-29.119728529
 10
15.3500547055
 20
-29.0845066255
 10
15.3295009578
 20
-29.0479212122
 10
15.3118072956
 20
-29.0102359156
 10
15.2971012157
 20
-28.9717222879
 10
15.2854886869
 20
-28.9326578499
 10
15.2770533867
 20
-28.8933240915
 10
15.271856098
 20
-28.8540044431
 10
15.2699342713
 20
-28.8149822337
 10
15.271301755
 20
-28.7765386488
 10
15.2759486952
 20
-28.7389507046
 10
15.2838416073
 20
-28.7024892516
 10
15.2949236165
 20
-28.6674170232
 10
15.3091148683
 20
-28.6339867422
 10
15.3263131037
 20
-28.6024392999
 10
15.346394396
 20
-28.5730020205
 10
15.3692140437
 20
-28.5458870225
 10
15.3763033594
 20
-28.5388516175
  0
LWPOLYLINE
  5
377
100
AcDbEntity
  8
ASSI
100
AcDbPolyline
 62
7
  6
CONTINUOUS
 90
5
 70
0
 10
2.8411819686
 20
-26.0867170859
 10
2.8299055303
 20
-26.0508393504
 10
2.8182555321
 20
-26.0148074374
 10
2.8062832523
 20
-25.9786548951
 10
2.7939886422
 20
-25.9423817579
  0
LWPOLYLINE
  5
378
100
AcDbEntity
  8
0
100
AcDbPolyline
 62
7
  6
CONTINUOUS
 90
5
 70
0
 10
2.8411819686
 20
-26.0867170859
 10
2.8299055303
 20
-26.0508393504
 10
2.8182555321
 20
-26.0148074374
 10
2.8062832523
 20
-25.9786548951
 10
2.7939886422
 20
-25.9423817579
  0
LWPOLYLINE
  5
379
100
AcDbEntity
  8
ASSI
100
AcDbPolyline
 62
7
  6
CONTINUOUS
 90
5
 70
0
 10
2.9476184798
 20
-26.0252620455
 10
2.9363399465
 20
-25.9893855082
 10
2.9246878631
 20
-25.9533547841
 10
2.9127135081
 20
-25.9172034213
 10
2.900416833
 20
-25.8809314545
  0
LWPOLYLINE
  5
37A
100
AcDbEntity
  8
0
100
AcDbPolyline
 62
7
  6
CONTINUOUS
 90
5
 70
0
 10
2.9476184798
 20
-26.0252620455
 10
2.9363399465
 20
-25.9893855082
 10
2.9246878631
 20
-25.9533547841
 10
2.9127135081
 20
-25.9172034213
 10
2.900416833
 20
-25.8809314545
  0
LINE
  5
37B
100
AcDbEntity
  8
ASSI
100
AcDbLine
 62
7
  6
CONTINUOUS
 10
2.9693630569
 20
-26.0967535013
 11
2.9476184798
 21
-26.0252620455
  0
LINE
  5
37C
100
AcDbEntity
  8
0
100
AcDbLine
 62
7
  6
CONTINUOUS
 10
2.9693630569
 20
-26.0967535013
 11
2.9476184798
 21
-26.0252620455
  0
LINE
  5
37D
100
AcDbEntity
  8
ASSI
100
AcDbLine
 62
7
  6
CONTINUOUS
 10
2.8629223238
 20
-26.1582109658
 11
2.8411819686
 21
-26.0867170859
  0
LINE
  5
37E
100
AcDbEntity
  8
0
100
AcDbLine
 62
7
  6
CONTINUOUS
 10
2.8629223238
 20
-26.1582109658
 11
2.8411819686
 21
-26.0867170859
  0
LINE
  5
37F
100
AcDbEntity
  8
ASSI
100
AcDbLine
 62
7
  6
CONTINUOUS
 10
3.132386996
 20
-26.6490121044
 11
3.0429507719
 21
-26.3483201919
  0
LINE
  5
380
100
AcDbEntity
  8
0
100
AcDbLine
 62
7
  6
CONTINUOUS
 10
3.132386996
 20
-26.6490121044
 11
3.0429507719
 21
-26.3483201919
  0
LINE
  5
381
100
AcDbEntity
  8
ASSI
100
AcDbLine
 62
7
  6
CONTINUOUS
 10
3.0259125808
 20
-26.7104890973
 11
2.93649486
 21
-26.4097864281
  0
LINE
  5
382
100
AcDbEntity
  8
0
100
AcDbLine
 62
7
  6
CONTINUOUS
 10
3.0259125808
 20
-26.7104890973
 11
2.93649486
 21
-26.4097864281
  0
LINE
  5
383
100
AcDbEntity
  8
ASSI
100
AcDbLine
 62
7
  6
CONTINUOUS
 10
2.8839900245
 20
-26.2296162051
 11
2.8629223238
 21
-26.1582109658
  0
LINE
  5
384
100
AcDbEntity
  8
0
100
AcDbLine
 62
7
  6
CONTINUOUS
 10
2.8839900245
 20
-26.2296162051
 11
2.8629223238
 21
-26.1582109658
  0
LINE
  5
385
100
AcDbEntity
  8
ASSI
100
AcDbLine
 62
7
  6
CONTINUOUS
 10
2.9904350256
 20
-26.1681562813
 11
2.9693630569
 21
-26.0967535013
  0
LINE
  5
386
100
AcDbEntity
  8
0
100
AcDbLine
 62
7
  6
CONTINUOUS
 10
2.9904350256
 20
-26.1681562813
 11
2.9693630569
 21
-26.0967535013
  0
LINE
  5
387
100
AcDbEntity
  8
ASSI
100
AcDbLine
 62
7
  6
CONTINUOUS
 10
2.93649486
 20
-26.4097864281
 11
2.8839900245
 21
-26.2296162051
  0
LINE
  5
388
100
AcDbEntity
  8
0
100
AcDbLine
 62
7
  6
CONTINUOUS
 10
2.93649486
 20
-26.4097864281
 11
2.8839900245
 21
-26.2296162051
  0
LINE
  5
389
100
AcDbEntity
  8
ASSI
100
AcDbLine
 62
7
  6
CONTINUOUS
 10
3.0429507719
 20
-26.3483201919
 11
2.9904350256
 21
-26.1681562813
  0
LINE
  5
38A
100
AcDbEntity
  8
0
100
AcDbLine
 62
7
  6
CONTINUOUS
 10
3.0429507719
 20
-26.3483201919
 11
2.9904350256
 21
-26.1681562813
  0
LINE
  5
38B
100
AcDbEntity
  8
ASSI
100
AcDbLine
 62
7
  6
CONTINUOUS
 10
3.2096150821
 20
-26.1718336916
 11
3.2204432708
 21
-26.209579838
  0
LINE
  5
38C
100
AcDbEntity
  8
0
100
AcDbLine
 62
7
  6
CONTINUOUS
 10
3.2096150821
 20
-26.1718336916
 11
3.2204432708
 21
-26.209579838
  0
LINE
  5
38D
100
AcDbEntity
  8
ASSI
100
AcDbLine
 62
7
  6
CONTINUOUS
 10
3.2204432708
 20
-26.209579838
 11
3.2311012243
 21
-26.2473718859
  0
LINE
  5
38E
100
AcDbEntity
  8
0
100
AcDbLine
 62
7
  6
CONTINUOUS
 10
3.2204432708
 20
-26.209579838
 11
3.2311012243
 21
-26.2473718859
  0
LWPOLYLINE
  5
38F
100
AcDbEntity
  8
ASSI
100
AcDbPolyline
 62
7
  6
CONTINUOUS
 90
3
 70
0
 10
3.2311012243
 20
-26.2473718859
 10
3.3424748329
 20
-26.6491429942
 10
3.4234003472
 20
-26.9399935519
  0
LWPOLYLINE
  5
390
100
AcDbEntity
  8
0
100
AcDbPolyline
 62
7
  6
CONTINUOUS
 90
3
 70
0
 10
3.2311012243
 20
-26.2473718859
 10
3.3424748329
 20
-26.6491429942
 10
3.4234003472
 20
-26.9399935519
  0
LWPOLYLINE
  5
391
100
AcDbEntity
  8
ASSI
100
AcDbPolyline
 62
7
  6
CONTINUOUS
 90
19
 70
0
 10
2.8215174962
 20
-25.1013501281
 10
2.8190304731
 20
-25.079479033
 10
2.8150345108
 20
-25.0568479019
 10
2.8095295572
 20
-25.03345677
 10
2.8025478484
 20
-25.0091985756
 10
2.7940570825
 20
-24.9841804254
 10
2.7839602317
 20
-24.958723719
 10
2.7721568146
 20
-24.9326296388
 10
2.7587469267
 20
-24.9060972597
 10
2.7439339136
 20
-24.8800451467
 10
2.7275683933
 20
-24.8545400135
 10
2.7097987441
 20
-24.8295158128
 10
2.6912745633
 20
-24.8056922265
 10
2.6720637882
 20
-24.7832392362
 10
2.652097566
 20
-24.7619874674
 10
2.6318202959
 20
-24.7421475767
 10
2.6113799419
 20
-24.7237898949
 10
2.5906280221
 20
-24.7068444344
 10
2.5695643609
 20
-24.6913113115
  0
LWPOLYLINE
  5
392
100
AcDbEntity
  8
0
100
AcDbPolyline
 62
7
  6
CONTINUOUS
 90
19
 70
0
 10
2.8215174962
 20
-25.1013501281
 10
2.8190304731
 20
-25.079479033
 10
2.8150345108
 20
-25.0568479019
 10
2.8095295572
 20
-25.03345677
 10
2.8025478484
 20
-25.0091985756
 10
2.7940570825
 20
-24.9841804254
 10
2.7839602317
 20
-24.958723719
 10
2.7721568146
 20
-24.9326296388
 10
2.7587469267
 20
-24.9060972597
 10
2.7439339136
 20
-24.8800451467
 10
2.7275683933
 20
-24.8545400135
 10
2.7097987441
 20
-24.8295158128
 10
2.6912745633
 20
-24.8056922265
 10
2.6720637882
 20
-24.7832392362
 10
2.652097566
 20
-24.7619874674
 10
2.6318202959
 20
-24.7421475767
 10
2.6113799419
 20
-24.7237898949
 10
2.5906280221
 20
-24.7068444344
 10
2.5695643609
 20
-24.6913113115
  0
LWPOLYLINE
  5
393
100
AcDbEntity
  8
ASSI
100
AcDbPolyline
 62
7
  6
CONTINUOUS
 90
19
 70
0
 10
2.9278880598
 20
-25.0399330979
 10
2.9253997236
 20
-25.0180627284
 10
2.9214024573
 20
-24.9954323211
 10
2.9158962089
 20
-24.9720419114
 10
2.9089132065
 20
-24.9477844429
 10
2.900421156
 20
-24.9227670169
 10
2.8903230535
 20
-24.8973110163
 10
2.8785184076
 20
-24.871217627
 10
2.8651073234
 20
-24.8446859207
 10
2.8502931987
 20
-24.8186344358
 10
2.8339266601
 20
-24.7931298814
 10
2.8161560766
 20
-24.7681062154
 10
2.7976310699
 20
-24.7442831086
 10
2.7784195849
 20
-24.7218305384
 10
2.7584527605
 20
-24.700579135
 10
2.7381749971
 20
-24.6807395571
 10
2.7177342588
 20
-24.6623821363
 10
2.6969820631
 20
-24.6454368844
 10
2.6759182342
 20
-24.629903918
  0
LWPOLYLINE
  5
394
100
AcDbEntity
  8
0
100
AcDbPolyline
 62
7
  6
CONTINUOUS
 90
19
 70
0
 10
2.9278880598
 20
-25.0399330979
 10
2.9253997236
 20
-25.0180627284
 10
2.9214024573
 20
-24.9954323211
 10
2.9158962089
 20
-24.9720419114
 10
2.9089132065
 20
-24.9477844429
 10
2.900421156
 20
-24.9227670169
 10
2.8903230535
 20
-24.8973110163
 10
2.8785184076
 20
-24.871217627
 10
2.8651073234
 20
-24.8446859207
 10
2.8502931987
 20
-24.8186344358
 10
2.8339266601
 20
-24.7931298814
 10
2.8161560766
 20
-24.7681062154
 10
2.7976310699
 20
-24.7442831086
 10
2.7784195849
 20
-24.7218305384
 10
2.7584527605
 20
-24.700579135
 10
2.7381749971
 20
-24.6807395571
 10
2.7177342588
 20
-24.6623821363
 10
2.6969820631
 20
-24.6454368844
 10
2.6759182342
 20
-24.629903918
  0
LINE
  5
395
100
AcDbEntity
  8
ASSI
100
AcDbLine
 62
7
  6
CONTINUOUS
 10
2.9664454928
 20
-25.6986103226
 11
2.9655112556
 21
-25.6856422113
  0
LINE
  5
396
100
AcDbEntity
  8
0
100
AcDbLine
 62
7
  6
CONTINUOUS
 10
2.9664454928
 20
-25.6986103226
 11
2.9655112556
 21
-25.6856422113
  0
LWPOLYLINE
  5
397
100
AcDbEntity
  8
ASSI
100
AcDbPolyline
 62
7
  6
CONTINUOUS
 90
7
 70
0
 10
-2.2753558566
 20
-15.5177878428
 10
-2.2612039891
 20
-15.4915696568
 10
-2.2496605829
 20
-15.4647716689
 10
-2.2406747065
 20
-15.4374002369
 10
-2.234274136
 20
-15.4096667642
 10
-2.230453058
 20
-15.3817704747
 10
-2.2291875166
 20
-15.3538585078
  0
LWPOLYLINE
  5
398
100
AcDbEntity
  8
0
100
AcDbPolyline
 62
7
  6
CONTINUOUS
 90
7
 70
0
 10
-2.2753558566
 20
-15.5177878428
 10
-2.2612039891
 20
-15.4915696568
 10
-2.2496605829
 20
-15.4647716689
 10
-2.2406747065
 20
-15.4374002369
 10
-2.234274136
 20
-15.4096667642
 10
-2.230453058
 20
-15.3817704747
 10
-2.2291875166
 20
-15.3538585078
  0
LWPOLYLINE
  5
399
100
AcDbEntity
  8
ASSI
100
AcDbPolyline
 62
250
  6
CONTINUOUS
 90
13
 70
0
 10
35.0267552971
 20
19.0972466081
 10
35.1506298693
 20
19.1756583923
 10
35.2119586912
 20
19.2156629388
 10
35.2673009238
 20
19.2527016426
 10
35.3171528629
 20
19.2863895364
 10
35.3616855785
 20
19.3168169389
 10
35.4008598411
 20
19.3445261433
 10
35.4348655166
 20
19.3692432455
 10
35.4644167676
 20
19.3909897858
 10
35.4902431413
 20
19.4107707272
 10
35.5127370714
 20
19.4288817511
 10
35.5320678446
 20
19.4448917728
 10
35.5485143308
 20
19.45874443
  0
LWPOLYLINE
  5
39A
100
AcDbEntity
  8
RACCORDO
100
AcDbPolyline
 62
250
  6
CONTINUOUS
 90
13
 70
0
 10
35.0267552971
 20
19.0972466081
 10
35.1506298693
 20
19.1756583923
 10
35.2119586912
 20
19.2156629388
 10
35.2673009238
 20
19.2527016426
 10
35.3171528629
 20
19.2863895364
 10
35.3616855785
 20
19.3168169389
 10
35.4008598411
 20
19.3445261433
 10
35.4348655166
 20
19.3692432455
 10
35.4644167676
 20
19.3909897858
 10
35.4902431413
 20
19.4107707272
 10
35.5127370714
 20
19.4288817511
 10
35.5320678446
 20
19.4448917728
 10
35.5485143308
 20
19.45874443
  0
LINE
  5
39B
100
AcDbEntity
  8
ASSI
100
AcDbLine
 62
250
  6
CONTINUOUS
 10
34.9683374072
 20
19.0606804066
 11
35.0267552971
 21
19.0972466081
  0
LINE
  5
39C
100
AcDbEntity
  8
RACCORDO
100
AcDbLine
 62
250
  6
CONTINUOUS
 10
34.9683374072
 20
19.0606804066
 11
35.0267552971
 21
19.0972466081
  0
LINE
  5
39D
100
AcDbEntity
  8
ASSI
100
AcDbLine
 62
250
  6
CONTINUOUS
 10
34.8453182324
 20
18.9847532205
 11
34.9683374072
 21
19.0606804066
  0
LINE
  5
39E
100
AcDbEntity
  8
RACCORDO
100
AcDbLine
 62
250
  6
CONTINUOUS
 10
34.8453182324
 20
18.9847532205
 11
34.9683374072
 21
19.0606804066
  0
LINE
  5
39F
100
AcDbEntity
  8
ASSI
100
AcDbLine
 62
250
  6
CONTINUOUS
 10
34.7145356501
 20
18.905202388
 11
34.8453182324
 21
18.9847532205
  0
LINE
  5
3A0
100
AcDbEntity
  8
RACCORDO
100
AcDbLine
 62
250
  6
CONTINUOUS
 10
34.7145356501
 20
18.905202388
 11
34.8453182324
 21
18.9847532205
  0
LWPOLYLINE
  5
3A1
100
AcDbEntity
  8
ASSI
100
AcDbPolyline
 62
250
  6
CONTINUOUS
 90
3
 70
0
 10
34.5655753356
 20
18.8159075693
 10
34.5763063751
 20
18.8222887754
 10
34.7145356501
 20
18.905202388
  0
LWPOLYLINE
  5
3A2
100
AcDbEntity
  8
RACCORDO
100
AcDbPolyline
 62
250
  6
CONTINUOUS
 90
3
 70
0
 10
34.5655753356
 20
18.8159075693
 10
34.5763063751
 20
18.8222887754
 10
34.7145356501
 20
18.905202388
  0
LINE
  5
3A3
100
AcDbEntity
  8
ASSI
100
AcDbLine
 62
250
  6
CONTINUOUS
 10
-16.0303822148
 20
-10.5587511525
 11
-14.020446279
 21
-9.3982573372
  0
LINE
  5
3A4
100
AcDbEntity
  8
0
100
AcDbLine
 62
250
  6
CONTINUOUS
 10
-16.0303822148
 20
-10.5587511525
 11
-14.020446279
 21
-9.3982573372
  0
LINE
  5
3A5
100
AcDbEntity
  8
ASSI
100
AcDbLine
 62
250
  6
CONTINUOUS
 10
32.7841709917
 20
17.3761637694
 11
34.6292755188
 21
18.4414937451
  0
LINE
  5
3A6
100
AcDbEntity
  8
RACCORDO
100
AcDbLine
 62
250
  6
CONTINUOUS
 10
32.7841709917
 20
17.3761637694
 11
34.6292755188
 21
18.4414937451
  0
LWPOLYLINE
  5
3A7
100
AcDbEntity
  8
ASSI
100
AcDbPolyline
 62
250
  6
CONTINUOUS
 90
19
 70
0
 10
-17.1082831632
 20
-10.3652586861
 10
-17.084336686
 20
-10.3572964125
 10
-17.0580183743
 20
-10.347774246
 10
-17.0295178713
 20
-10.3367608008
 10
-16.9990405448
 20
-10.3243354372
 10
-16.9668060066
 20
-10.3105876892
 10
-16.933046531
 20
-10.2956166197
 10
-16.8980053803
 20
-10.2795301064
 10
-16.8619350525
 20
-10.2624440648
 10
-16.8250954613
 20
-10.2444816127
 10
-16.7877520638
 20
-10.2257721829
 10
-16.7501739472
 20
-10.2064505911
 10
-16.7126318902
 20
-10.1866560638
 10
-16.6753964115
 20
-10.1665312354
 10
-16.6387358207
 20
-10.1462211204
 10
-16.6029142851
 20
-10.1258720685
 10
-16.5681899256
 20
-10.1056307098
 10
-16.5348129576
 20
-10.0856428987
 10
-16.5030238871
 20
-10.0660526621
  0
LWPOLYLINE
  5
3A8
100
AcDbEntity
  8
RACCORDO
100
AcDbPolyline
 62
250
  6
CONTINUOUS
 90
19
 70
0
 10
-17.1082831632
 20
-10.3652586861
 10
-17.084336686
 20
-10.3572964125
 10
-17.0580183743
 20
-10.347774246
 10
-17.0295178713
 20
-10.3367608008
 10
-16.9990405448
 20
-10.3243354372
 10
-16.9668060066
 20
-10.3105876892
 10
-16.933046531
 20
-10.2956166197
 10
-16.8980053803
 20
-10.2795301064
 10
-16.8619350525
 20
-10.2624440648
 10
-16.8250954613
 20
-10.2444816127
 10
-16.7877520638
 20
-10.2257721829
 10
-16.7501739472
 20
-10.2064505911
 10
-16.7126318902
 20
-10.1866560638
 10
-16.6753964115
 20
-10.1665312354
 10
-16.6387358207
 20
-10.1462211204
 10
-16.6029142851
 20
-10.1258720685
 10
-16.5681899256
 20
-10.1056307098
 10
-16.5348129576
 20
-10.0856428987
 10
-16.5030238871
 20
-10.0660526621
  0
LINE
  5
3A9
100
AcDbEntity
  8
ASSI
100
AcDbLine
 62
7
  6
CONTINUOUS
 10
35.1949609438
 20
-18.6701767762
 11
35.5485143344
 21
-18.8743140729
  0
LINE
  5
3AA
100
AcDbEntity
  8
DRAFT
100
AcDbLine
 62
7
  6
CONTINUOUS
 10
35.1949609438
 20
-18.6701767762
 11
35.5485143344
 21
-18.8743140729
  0
LWPOLYLINE
  5
3AB
100
AcDbEntity
  8
ASSI
100
AcDbPolyline
 62
250
  6
CONTINUOUS
 90
19
 70
0
 10
-17.1082823529
 20
26.6497559481
 10
-17.0843359617
 20
26.6149270513
 10
-17.0580177235
 20
26.5816699826
 10
-17.0295172819
 20
26.550224385
 10
-16.9990400049
 20
26.5208168489
 10
-16.9668055052
 20
26.4936592784
 10
-16.9330460577
 20
26.4689473652
 10
-16.8980049257
 20
26.4468591779
 10
-16.861934608
 20
26.4275538792
 10
-16.8250950195
 20
26.4111705789
 10
-16.7877516184
 20
26.3978273315
 10
-16.7501734933
 20
26.3876202856
 10
-16.7126314238
 20
26.3806229907
 10
-16.6753959302
 20
26.376885868
 10
-16.6387353234
 20
26.3764358463
 10
-16.6029137717
 20
26.3792761683
 10
-16.5681893977
 20
26.3853863672
 10
-16.5348124175
 20
26.3947224143
 10
-16.5030233387
 20
26.407217036
  0
LWPOLYLINE
  5
3AC
100
AcDbEntity
  8
RACCORDO
100
AcDbPolyline
 62
250
  6
CONTINUOUS
 90
19
 70
0
 10
-17.1082823529
 20
26.6497559481
 10
-17.0843359617
 20
26.6149270513
 10
-17.0580177235
 20
26.5816699826
 10
-17.0295172819
 20
26.550224385
 10
-16.9990400049
 20
26.5208168489
 10
-16.9668055052
 20
26.4936592784
 10
-16.9330460577
 20
26.4689473652
 10
-16.8980049257
 20
26.4468591779
 10
-16.861934608
 20
26.4275538792
 10
-16.8250950195
 20
26.4111705789
 10
-16.7877516184
 20
26.3978273315
 10
-16.7501734933
 20
26.3876202856
 10
-16.7126314238
 20
26.3806229907
 10
-16.6753959302
 20
26.376885868
 10
-16.6387353234
 20
26.3764358463
 10
-16.6029137717
 20
26.3792761683
 10
-16.5681893977
 20
26.3853863672
 10
-16.5348124175
 20
26.3947224143
 10
-16.5030233387
 20
26.407217036
  0
LWPOLYLINE
  5
3AD
100
AcDbEntity
  8
ASSI
100
AcDbPolyline
 62
250
  6
CONTINUOUS
 90
10
 70
0
 10
-2.3635101661
 20
-15.5565669054
 10
-2.3395673309
 20
-15.5399808742
 10
-2.3177082903
 20
-15.5224387737
 10
-2.2980499155
 20
-15.5040311273
 10
-2.2806972536
 20
-15.4848499751
 10
-2.2657431386
 20
-15.4649978745
 10
-2.2532676165
 20
-15.4445873897
 10
-2.2433373049
 20
-15.4237250306
 10
-2.2360051784
 20
-15.4025191028
 10
-2.2313103516
 20
-15.3810886568
  0
LWPOLYLINE
  5
3AE
100
AcDbEntity
  8
0
100
AcDbPolyline
 62
250
  6
CONTINUOUS
 90
10
 70
0
 10
-2.3635101661
 20
-15.5565669054
 10
-2.3395673309
 20
-15.5399808742
 10
-2.3177082903
 20
-15.5224387737
 10
-2.2980499155
 20
-15.5040311273
 10
-2.2806972536
 20
-15.4848499751
 10
-2.2657431386
 20
-15.4649978745
 10
-2.2532676165
 20
-15.4445873897
 10
-2.2433373049
 20
-15.4237250306
 10
-2.2360051784
 20
-15.4025191028
 10
-2.2313103516
 20
-15.3810886568
  0
LWPOLYLINE
  5
3AF
100
AcDbEntity
  8
ASSI
100
AcDbPolyline
 62
7
  6
CONTINUOUS
 90
7
 70
0
 10
-2.3994477086
 20
-15.6446188931
 10
-2.3856702921
 20
-15.6351552272
 10
-2.358214201
 20
-15.61390586
 10
-2.3334702551
 20
-15.5913913579
 10
-2.3114596411
 20
-15.5678101991
 10
-2.292118479
 20
-15.5432662619
 10
-2.2753558566
 20
-15.5177878428
  0
LWPOLYLINE
  5
3B0
100
AcDbEntity
  8
0
100
AcDbPolyline
 62
7
  6
CONTINUOUS
 90
7
 70
0
 10
-2.3994477086
 20
-15.6446188931
 10
-2.3856702921
 20
-15.6351552272
 10
-2.358214201
 20
-15.61390586
 10
-2.3334702551
 20
-15.5913913579
 10
-2.3114596411
 20
-15.5678101991
 10
-2.292118479
 20
-15.5432662619
 10
-2.2753558566
 20
-15.5177878428
  0
LINE
  5
3B1
100
AcDbEntity
  8
ASSI
100
AcDbLine
 62
250
  6
CONTINUOUS
 10
-2.8256280265
 20
-15.8620050922
 11
-2.3635101661
 21
-15.5565669054
  0
LINE
  5
3B2
100
AcDbEntity
  8
0
100
AcDbLine
 62
250
  6
CONTINUOUS
 10
-2.8256280265
 20
-15.8620050922
 11
-2.3635101661
 21
-15.5565669054
  0
LINE
  5
3B3
100
AcDbEntity
  8
ASSI
100
AcDbLine
 62
7
  6
CONTINUOUS
 10
-2.7737000212
 20
-15.8919876716
 11
-2.3995017362
 21
-15.644660192
  0
LINE
  5
3B4
100
AcDbEntity
  8
0
100
AcDbLine
 62
7
  6
CONTINUOUS
 10
-2.7737000212
 20
-15.8919876716
 11
-2.3995017362
 21
-15.644660192
  0
LWPOLYLINE
  5
3B5
100
AcDbEntity
  8
ASSI
100
AcDbPolyline
 62
250
  6
CONTINUOUS
 90
12
 70
0
 10
-2.363475601
 20
-14.9676768894
 10
-2.3395876363
 20
-14.95191314
 10
-2.3177606869
 20
-14.9351723398
 10
-2.2981151478
 20
-14.9175428047
 10
-2.2807572924
 20
-14.8991153544
 10
-2.2657880087
 20
-14.8799901515
 10
-2.2532979424
 20
-14.8602773055
 10
-2.2433559057
 20
-14.8400855707
 10
-2.2360140999
 20
-14.8195211403
 10
-2.2313130861
 20
-14.798695291
 10
-2.2292779178
 20
-14.7777216391
 10
-2.2291870709
 20
-14.7723796778
  0
LWPOLYLINE
  5
3B6
100
AcDbEntity
  8
0
100
AcDbPolyline
 62
250
  6
CONTINUOUS
 90
12
 70
0
 10
-2.363475601
 20
-14.9676768894
 10
-2.3395876363
 20
-14.95191314
 10
-2.3177606869
 20
-14.9351723398
 10
-2.2981151478
 20
-14.9175428047
 10
-2.2807572924
 20
-14.8991153544
 10
-2.2657880087
 20
-14.8799901515
 10
-2.2532979424
 20
-14.8602773055
 10
-2.2433559057
 20
-14.8400855707
 10
-2.2360140999
 20
-14.8195211403
 10
-2.2313130861
 20
-14.798695291
 10
-2.2292779178
 20
-14.7777216391
 10
-2.2291870709
 20
-14.7723796778
  0
LWPOLYLINE
  5
3B7
100
AcDbEntity
  8
ASSI
100
AcDbPolyline
 62
250
  6
CONTINUOUS
 90
14
 70
0
 10
-2.5085467879
 20
-14.724942216
 10
-2.494086501
 20
-14.7154413992
 10
-2.4810002592
 20
-14.7054650518
 10
-2.4692880624
 20
-14.6950131736
 10
-2.4588998934
 20
-14.6840235899
 10
-2.4498857694
 20
-14.6725584755
 10
-2.4423957422
 20
-14.6608043551
 10
-2.4364562377
 20
-14.6487575144
 10
-2.43204083
 20
-14.6364216678
 10
-2.4292202929
 20
-14.6239944831
 10
-2.4280203263
 20
-14.6114753254
 10
-2.4284152303
 20
-14.5988648296
 10
-2.4303986792
 20
-14.5863625683
 10
-2.4339985849
 20
-14.5739675866
  0
LWPOLYLINE
  5
3B8
100
AcDbEntity
  8
0
100
AcDbPolyline
 62
250
  6
CONTINUOUS
 90
14
 70
0
 10
-2.5085467879
 20
-14.724942216
 10
-2.494086501
 20
-14.7154413992
 10
-2.4810002592
 20
-14.7054650518
 10
-2.4692880624
 20
-14.6950131736
 10
-2.4588998934
 20
-14.6840235899
 10
-2.4498857694
 20
-14.6725584755
 10
-2.4423957422
 20
-14.6608043551
 10
-2.4364562377
 20
-14.6487575144
 10
-2.43204083
 20
-14.6364216678
 10
-2.4292202929
 20
-14.6239944831
 10
-2.4280203263
 20
-14.6114753254
 10
-2.4284152303
 20
-14.5988648296
 10
-2.4303986792
 20
-14.5863625683
 10
-2.4339985849
 20
-14.5739675866
  0
LINE
  5
3B9
100
AcDbEntity
  8
ASSI
100
AcDbLine
 62
250
  6
CONTINUOUS
 10
-3.621539796
 20
-15.4024556116
 11
-2.5085467879
 21
-14.724942216
  0
LINE
  5
3BA
100
AcDbEntity
  8
0
100
AcDbLine
 62
250
  6
CONTINUOUS
 10
-3.621539796
 20
-15.4024556116
 11
-2.5085467879
 21
-14.724942216
  0
LINE
  5
3BB
100
AcDbEntity
  8
ASSI
100
AcDbLine
 62
250
  6
CONTINUOUS
 10
-3.3424410765
 20
-15.5636037143
 11
-2.3634755991
 21
-14.9676770374
  0
LINE
  5
3BC
100
AcDbEntity
  8
0
100
AcDbLine
 62
250
  6
CONTINUOUS
 10
-3.3424410765
 20
-15.5636037143
 11
-2.3634755991
 21
-14.9676770374
  0
LINE
  5
3BD
100
AcDbEntity
  8
ASSI
100
AcDbLine
 62
7
  6
CONTINUOUS
 10
-4.6071604333
 20
-13.5551039586
 11
-5.7628401952
 21
-14.1660955979
  0
LINE
  5
3BE
100
AcDbEntity
  8
0
100
AcDbLine
 62
7
  6
CONTINUOUS
 10
-4.6071604333
 20
-13.5551039586
 11
-5.7628401952
 21
-14.1660955979
  0
LINE
  5
3BF
100
AcDbEntity
  8
ASSI
100
AcDbLine
 62
250
  6
CONTINUOUS
 10
-4.512449025
 20
-13.5679141791
 11
-5.7059879013
 21
-14.1989213999
  0
LINE
  5
3C0
100
AcDbEntity
  8
0
100
AcDbLine
 62
250
  6
CONTINUOUS
 10
-4.512449025
 20
-13.5679141791
 11
-5.7059879013
 21
-14.1989213999
  0
LWPOLYLINE
  5
3C1
100
AcDbEntity
  8
ASSI
100
AcDbPolyline
 62
250
  6
CONTINUOUS
 90
9
 70
0
 10
-4.0957174827
 20
-13.5741771079
 10
-4.0810243205
 20
-13.5667261532
 10
-4.066503671
 20
-13.5611327618
 10
-4.052312861
 20
-13.5574575554
 10
-4.0386056454
 20
-13.5557403737
 10
-4.0255305445
 20
-13.5559998432
 10
-4.0132292345
 20
-13.5582331724
 10
-4.001835005
 20
-13.5624161833
 10
-3.9969467959
 20
-13.5649752037
  0
LWPOLYLINE
  5
3C2
100
AcDbEntity
  8
0
100
AcDbPolyline
 62
250
  6
CONTINUOUS
 90
9
 70
0
 10
-4.0957174827
 20
-13.5741771079
 10
-4.0810243205
 20
-13.5667261532
 10
-4.066503671
 20
-13.5611327618
 10
-4.052312861
 20
-13.5574575554
 10
-4.0386056454
 20
-13.5557403737
 10
-4.0255305445
 20
-13.5559998432
 10
-4.0132292345
 20
-13.5582331724
 10
-4.001835005
 20
-13.5624161833
 10
-3.9969467959
 20
-13.5649752037
  0
LWPOLYLINE
  5
3C3
100
AcDbEntity
  8
ASSI
100
AcDbPolyline
 62
250
  6
CONTINUOUS
 90
9
 70
0
 10
-2.515820864
 20
-14.4863896147
 10
-2.5011273799
 20
-14.4789385143
 10
-2.4866064702
 20
-14.4733450774
 10
-2.4724154676
 20
-14.4696699085
 10
-2.4587081307
 20
-14.4679528278
 10
-2.4456329774
 20
-14.4682124397
 10
-2.4333316759
 20
-14.4704459314
 10
-2.4219375098
 20
-14.4746291031
 10
-2.4170501505
 20
-14.477187726
  0
LWPOLYLINE
  5
3C4
100
AcDbEntity
  8
0
100
AcDbPolyline
 62
250
  6
CONTINUOUS
 90
9
 70
0
 10
-2.515820864
 20
-14.4863896147
 10
-2.5011273799
 20
-14.4789385143
 10
-2.4866064702
 20
-14.4733450774
 10
-2.4724154676
 20
-14.4696699085
 10
-2.4587081307
 20
-14.4679528278
 10
-2.4456329774
 20
-14.4682124397
 10
-2.4333316759
 20
-14.4704459314
 10
-2.4219375098
 20
-14.4746291031
 10
-2.4170501505
 20
-14.477187726
  0
LINE
  5
3C5
100
AcDbEntity
  8
ASSI
100
AcDbLine
 62
7
  6
CONTINUOUS
 10
-4.584072356
 20
-13.5436402339
 11
-4.6071980497
 21
-13.5551250703
  0
LINE
  5
3C6
100
AcDbEntity
  8
0
100
AcDbLine
 62
7
  6
CONTINUOUS
 10
-4.584072356
 20
-13.5436402339
 11
-4.6071980497
 21
-13.5551250703
  0
LINE
  5
3C7
100
AcDbEntity
  8
ASSI
100
AcDbLine
 62
250
  6
CONTINUOUS
 10
-14.0192968487
 20
23.0025115317
 11
-13.509306507
 21
22.7080496216
  0
LINE
  5
3C8
100
AcDbEntity
  8
0
100
AcDbLine
 62
250
  6
CONTINUOUS
 10
-14.0192968487
 20
23.0025115317
 11
-13.509306507
 21
22.7080496216
  0
LWPOLYLINE
  5
3C9
100
AcDbEntity
  8
ASSI
100
AcDbPolyline
 62
250
  6
CONTINUOUS
 90
11
 70
0
 10
-32.2932690843
 20
35.4173726668
 10
-32.3103924606
 20
35.4280285127
 10
-32.3258871493
 20
35.4393908728
 10
-32.3396429426
 20
35.4513789313
 10
-32.3515620011
 20
35.4639074216
 10
-32.3615595492
 20
35.4768872338
 10
-32.3695644783
 20
35.4902260474
 10
-32.3755198525
 20
35.5038289888
 10
-32.3793833137
 20
35.5175993056
 10
-32.3811273824
 20
35.5314390551
 10
-32.3811627803
 20
35.5394477714
  0
LWPOLYLINE
  5
3CA
100
AcDbEntity
  8
RACCORDO
100
AcDbPolyline
 62
250
  6
CONTINUOUS
 90
11
 70
0
 10
-32.2932690843
 20
35.4173726668
 10
-32.3103924606
 20
35.4280285127
 10
-32.3258871493
 20
35.4393908728
 10
-32.3396429426
 20
35.4513789313
 10
-32.3515620011
 20
35.4639074216
 10
-32.3615595492
 20
35.4768872338
 10
-32.3695644783
 20
35.4902260474
 10
-32.3755198525
 20
35.5038289888
 10
-32.3793833137
 20
35.5175993056
 10
-32.3811273824
 20
35.5314390551
 10
-32.3811627803
 20
35.5394477714
  0
LWPOLYLINE
  5
3CB
100
AcDbEntity
  8
ASSI
100
AcDbPolyline
 62
250
  6
CONTINUOUS
 90
3
 70
0
 10
15.4036966922
 20
-28.4455591219
 10
15.3972589752
 20
-28.420448825
 10
15.3943287353
 20
-28.3944212771
  0
LWPOLYLINE
  5
3CC
100
AcDbEntity
  8
RACCORDO
100
AcDbPolyline
 62
250
  6
CONTINUOUS
 90
3
 70
0
 10
15.4036966922
 20
-28.4455591219
 10
15.3972589752
 20
-28.420448825
 10
15.3943287353
 20
-28.3944212771
  0
LWPOLYLINE
  5
3CD
100
AcDbEntity
  8
ASSI
100
AcDbPolyline
 62
7
  6
CONTINUOUS
 90
10
 70
0
 10
15.3943287353
 20
-28.3944212771
 10
15.3948799309
 20
-28.4184543075
 10
15.3944686903
 20
-28.4428917291
 10
15.3931560083
 20
-28.464509961
 10
15.3911592998
 20
-28.4832474219
 10
15.388690151
 20
-28.4992019422
 10
15.3859431921
 20
-28.5125248219
 10
15.383133173
 20
-28.5232590279
 10
15.38051339
 20
-28.53137996
 10
15.3783888932
 20
-28.5368319739
  0
LWPOLYLINE
  5
3CE
100
AcDbEntity
  8
RACCORDO
100
AcDbPolyline
 62
7
  6
CONTINUOUS
 90
10
 70
0
 10
15.3943287353
 20
-28.3944212771
 10
15.3948799309
 20
-28.4184543075
 10
15.3944686903
 20
-28.4428917291
 10
15.3931560083
 20
-28.464509961
 10
15.3911592998
 20
-28.4832474219
 10
15.388690151
 20
-28.4992019422
 10
15.3859431921
 20
-28.5125248219
 10
15.383133173
 20
-28.5232590279
 10
15.38051339
 20
-28.53137996
 10
15.3783888932
 20
-28.5368319739
  0
LWPOLYLINE
  5
3CF
100
AcDbEntity
  8
ASSI
100
AcDbPolyline
 62
250
  6
CONTINUOUS
 90
13
 70
0
 10
15.5407742752
 20
-28.5976777966
 10
15.541845157
 20
-28.6522714851
 10
15.5401421737
 20
-28.7053084192
 10
15.5356653481
 20
-28.7567885831
 10
15.5284198541
 20
-28.8070052961
 10
15.5184006459
 20
-28.8556651549
 10
15.505592046
 20
-28.9018882955
 10
15.489869537
 20
-28.9456254379
 10
15.471356961
 20
-28.9869262882
 10
15.4504104368
 20
-29.0250599331
 10
15.4271480515
 20
-29.0597831276
 10
15.4014502841
 20
-29.0913400255
 10
15.3733164961
 20
-29.1197310315
  0
LWPOLYLINE
  5
3D0
100
AcDbEntity
  8
RACCORDO
100
AcDbPolyline
 62
250
  6
CONTINUOUS
 90
13
 70
0
 10
15.5407742752
 20
-28.5976777966
 10
15.541845157
 20
-28.6522714851
 10
15.5401421737
 20
-28.7053084192
 10
15.5356653481
 20
-28.7567885831
 10
15.5284198541
 20
-28.8070052961
 10
15.5184006459
 20
-28.8556651549
 10
15.505592046
 20
-28.9018882955
 10
15.489869537
 20
-28.9456254379
 10
15.471356961
 20
-28.9869262882
 10
15.4504104368
 20
-29.0250599331
 10
15.4271480515
 20
-29.0597831276
 10
15.4014502841
 20
-29.0913400255
 10
15.3733164961
 20
-29.1197310315
  0
LWPOLYLINE
  5
3D1
100
AcDbEntity
  8
ASSI
100
AcDbPolyline
 62
250
  6
CONTINUOUS
 90
22
 70
0
 10
14.6666645876
 20
-29.0986250626
 10
14.6662423804
 20
-29.0683240494
 10
14.6677995073
 20
-29.0369292592
 10
14.6713272488
 20
-29.004616493
 10
14.6768058506
 20
-28.9715666924
 10
14.6842046342
 20
-28.9379649261
 10
14.6934821688
 20
-28.9039993536
 10
14.704586503
 20
-28.8698601718
 10
14.717455456
 20
-28.8357385495
 10
14.7320169655
 20
-28.8018255572
 10
14.7481894916
 20
-28.7683110973
 10
14.7658824732
 20
-28.7353828405
 10
14.7849968349
 20
-28.7032251748
 10
14.8054255423
 20
-28.6720181733
 10
14.8270542009
 20
-28.6419365856
 10
14.8497616969
 20
-28.6131488592
 10
14.8734208752
 20
-28.5858161967
 10
14.8978992518
 20
-28.5600916524
 10
14.9230597553
 20
-28.536119276
 10
14.9487614945
 20
-28.5140333053
 10
14.9748605478
 20
-28.4939574149
 10
15.0012107684
 20
-28.4760040238
  0
LWPOLYLINE
  5
3D2
100
AcDbEntity
  8
RACCORDO
100
AcDbPolyline
 62
250
  6
CONTINUOUS
 90
22
 70
0
 10
14.6666645876
 20
-29.0986250626
 10
14.6662423804
 20
-29.0683240494
 10
14.6677995073
 20
-29.0369292592
 10
14.6713272488
 20
-29.004616493
 10
14.6768058506
 20
-28.9715666924
 10
14.6842046342
 20
-28.9379649261
 10
14.6934821688
 20
-28.9039993536
 10
14.704586503
 20
-28.8698601718
 10
14.717455456
 20
-28.8357385495
 10
14.7320169655
 20
-28.8018255572
 10
14.7481894916
 20
-28.7683110973
 10
14.7658824732
 20
-28.7353828405
 10
14.7849968349
 20
-28.7032251748
 10
14.8054255423
 20
-28.6720181733
 10
14.8270542009
 20
-28.6419365856
 10
14.8497616969
 20
-28.6131488592
 10
14.8734208752
 20
-28.5858161967
 10
14.8978992518
 20
-28.5600916524
 10
14.9230597553
 20
-28.536119276
 10
14.9487614945
 20
-28.5140333053
 10
14.9748605478
 20
-28.4939574149
 10
15.0012107684
 20
-28.4760040238
  0
LWPOLYLINE
  5
3D3
100
AcDbEntity
  8
ASSI
100
AcDbPolyline
 62
250
  6
CONTINUOUS
 90
13
 70
0
 10
14.6666645876
 20
8.7325954743
 10
14.6662423806
 20
8.7018068963
 10
14.6677995089
 20
8.6722102287
 10
14.6713272529
 20
8.6439712035
 10
14.6768058579
 20
8.6172479506
 10
14.6842046453
 20
8.5921901117
 10
14.6934821839
 20
8.5689380028
 10
14.704586522
 20
8.5476218285
 10
14.7174554787
 20
8.5283609526
 10
14.7320169915
 20
8.5112632296
 10
14.7481895203
 20
8.4964244015
 10
14.7658825038
 20
8.4839275607
 10
14.7697022435
 20
8.4816536389
  0
LWPOLYLINE
  5
3D4
100
AcDbEntity
  8
RACCORDO
100
AcDbPolyline
 62
250
  6
CONTINUOUS
 90
13
 70
0
 10
14.6666645876
 20
8.7325954743
 10
14.6662423806
 20
8.7018068963
 10
14.6677995089
 20
8.6722102287
 10
14.6713272529
 20
8.6439712035
 10
14.6768058579
 20
8.6172479506
 10
14.6842046453
 20
8.5921901117
 10
14.6934821839
 20
8.5689380028
 10
14.704586522
 20
8.5476218285
 10
14.7174554787
 20
8.5283609526
 10
14.7320169915
 20
8.5112632296
 10
14.7481895203
 20
8.4964244015
 10
14.7658825038
 20
8.4839275607
 10
14.7697022435
 20
8.4816536389
  0
LWPOLYLINE
  5
3D5
100
AcDbEntity
  8
ASSI
100
AcDbPolyline
 62
7
  6
CONTINUOUS
 90
13
 70
0
 10
15.3942884315
 20
7.3188456052
 10
15.287279518
 20
4.3313984521
 10
15.1975593554
 20
1.2882423242
 10
15.1277654595
 20
-1.7429692464
 10
15.0779044933
 20
-4.7620116677
 10
15.0479792658
 20
-7.76868838
 10
15.0379917293
 20
-10.7628137792
 10
15.0479434849
 20
-13.74419455
 10
15.0778340202
 20
-16.7126386364
 10
15.1276624525
 20
-19.6679621576
 10
15.1974270718
 20
-22.6099716198
 10
15.2871223161
 20
-25.5384504772
 10
15.3943292222
 20
-28.3944147734
  0
LWPOLYLINE
  5
3D6
100
AcDbEntity
  8
RACCORDO
100
AcDbPolyline
 62
7
  6
CONTINUOUS
 90
13
 70
0
 10
15.3942884315
 20
7.3188456052
 10
15.287279518
 20
4.3313984521
 10
15.1975593554
 20
1.2882423242
 10
15.1277654595
 20
-1.7429692464
 10
15.0779044933
 20
-4.7620116677
 10
15.0479792658
 20
-7.76868838
 10
15.0379917293
 20
-10.7628137792
 10
15.0479434849
 20
-13.74419455
 10
15.0778340202
 20
-16.7126386364
 10
15.1276624525
 20
-19.6679621576
 10
15.1974270718
 20
-22.6099716198
 10
15.2871223161
 20
-25.5384504772
 10
15.3943292222
 20
-28.3944147734
  0
LWPOLYLINE
  5
3D7
100
AcDbEntity
  8
ASSI
100
AcDbPolyline
 62
250
  6
CONTINUOUS
 90
13
 70
0
 10
15.5407742752
 20
7.1153372388
 10
15.4319091735
 20
4.0712421731
 10
15.3428275205
 20
1.0388551328
 10
15.2735354916
 20
-1.9816249497
 10
15.2240379979
 20
-4.9899999866
 10
15.1943383652
 20
-7.9860724351
 10
15.1844383306
 20
-10.9696453119
 10
15.1943383647
 20
-13.9405226009
 10
15.224037997
 20
-16.8985093275
 10
15.2735354905
 20
-19.8434112622
 10
15.3428275193
 20
-22.7750349517
 10
15.4319091726
 20
-25.6931877303
 10
15.5407742752
 20
-28.5976777966
  0
LWPOLYLINE
  5
3D8
100
AcDbEntity
  8
RACCORDO
100
AcDbPolyline
 62
250
  6
CONTINUOUS
 90
13
 70
0
 10
15.5407742752
 20
7.1153372388
 10
15.4319091735
 20
4.0712421731
 10
15.3428275205
 20
1.0388551328
 10
15.2735354916
 20
-1.9816249497
 10
15.2240379979
 20
-4.9899999866
 10
15.1943383652
 20
-7.9860724351
 10
15.1844383306
 20
-10.9696453119
 10
15.1943383647
 20
-13.9405226009
 10
15.224037997
 20
-16.8985093275
 10
15.2735354905
 20
-19.8434112622
 10
15.3428275193
 20
-22.7750349517
 10
15.4319091726
 20
-25.6931877303
 10
15.5407742752
 20
-28.5976777966
  0
LWPOLYLINE
  5
3D9
100
AcDbEntity
  8
ASSI
100
AcDbPolyline
 62
7
  6
CONTINUOUS
 90
10
 70
0
 10
3.166885071
 20
-25.5669461469
 10
3.1596956868
 20
-25.5799239559
 10
3.1522293907
 20
-25.5918548768
 10
3.144468865
 20
-25.6027289928
 10
3.1365211288
 20
-25.6126992847
 10
3.1283866
 20
-25.6217635966
 10
3.1200643556
 20
-25.6299244213
 10
3.1116594856
 20
-25.6373416582
 10
3.1031661472
 20
-25.6439945547
 10
3.0945898083
 20
-25.6499041136
  0
LWPOLYLINE
  5
3DA
100
AcDbEntity
  8
0
100
AcDbPolyline
 62
7
  6
CONTINUOUS
 90
10
 70
0
 10
3.166885071
 20
-25.5669461469
 10
3.1596956868
 20
-25.5799239559
 10
3.1522293907
 20
-25.5918548768
 10
3.144468865
 20
-25.6027289928
 10
3.1365211288
 20
-25.6126992847
 10
3.1283866
 20
-25.6217635966
 10
3.1200643556
 20
-25.6299244213
 10
3.1116594856
 20
-25.6373416582
 10
3.1031661472
 20
-25.6439945547
 10
3.0945898083
 20
-25.6499041136
  0
LINE
  5
3DB
100
AcDbEntity
  8
ASSI
100
AcDbLine
 62
7
  6
CONTINUOUS
 10
-3.6675347684
 20
-22.071120657
 11
-3.7739617229
 21
-22.1325702467
  0
LINE
  5
3DC
100
AcDbEntity
  8
0
100
AcDbLine
 62
7
  6
CONTINUOUS
 10
-3.6675347684
 20
-22.071120657
 11
-3.7739617229
 21
-22.1325702467
  0
LINE
  5
3DD
100
AcDbEntity
  8
ASSI
100
AcDbLine
 62
7
  6
CONTINUOUS
 10
-3.8136096444
 20
-22.6384804342
 11
-3.9200840595
 21
-22.699957427
  0
LINE
  5
3DE
100
AcDbEntity
  8
0
100
AcDbLine
 62
7
  6
CONTINUOUS
 10
-3.8136096444
 20
-22.6384804342
 11
-3.9200840595
 21
-22.699957427
  0
LINE
  5
3DF
100
AcDbEntity
  8
ASSI
100
AcDbLine
 62
7
  6
CONTINUOUS
 10
-1.5964907266
 20
-22.5489228284
 11
-1.7028691161
 21
-22.6103443773
  0
LINE
  5
3E0
100
AcDbEntity
  8
0
100
AcDbLine
 62
7
  6
CONTINUOUS
 10
-1.5964907266
 20
-22.5489228284
 11
-1.7028691161
 21
-22.6103443773
  0
LINE
  5
3E1
100
AcDbEntity
  8
ASSI
100
AcDbLine
 62
7
  6
CONTINUOUS
 10
-2.6031687
 20
-23.3373738651
 11
-2.7096431151
 21
-23.3988508579
  0
LINE
  5
3E2
100
AcDbEntity
  8
0
100
AcDbLine
 62
7
  6
CONTINUOUS
 10
-2.6031687
 20
-23.3373738651
 11
-2.7096431151
 21
-23.3988508579
  0
LWPOLYLINE
  5
3E3
100
AcDbEntity
  8
ASSI
100
AcDbPolyline
 62
250
  6
CONTINUOUS
 90
19
 70
0
 10
-17.3316113502
 20
26.0954434608
 10
-17.3005687417
 20
26.0788074108
 10
-17.2672351902
 20
26.0635987862
 10
-17.2318477854
 20
26.0499257605
 10
-17.1946582257
 20
26.0378855853
 10
-17.1559310276
 20
26.0275638981
 10
-17.1159416441
 20
26.0190341136
 10
-17.0749745059
 20
26.0123569011
 10
-17.0333209979
 20
26.0075797534
 10
-16.991277387
 20
26.0047366485
 10
-16.9491427149
 20
26.0038478086
 10
-16.9072166709
 20
26.0049195557
 10
-16.8657974603
 20
26.0079442667
 10
-16.8251796837
 20
26.0129004281
 10
-16.785652241
 20
26.0197527882
 10
-16.7474962773
 20
26.0284526087
 10
-16.7109831827
 20
26.0389380108
 10
-16.6763726621
 20
26.0511344153
 10
-16.6439108882
 20
26.0649550737
  0
LWPOLYLINE
  5
3E4
100
AcDbEntity
  8
RACCORDO
100
AcDbPolyline
 62
250
  6
CONTINUOUS
 90
19
 70
0
 10
-17.3316113502
 20
26.0954434608
 10
-17.3005687417
 20
26.0788074108
 10
-17.2672351902
 20
26.0635987862
 10
-17.2318477854
 20
26.0499257605
 10
-17.1946582257
 20
26.0378855853
 10
-17.1559310276
 20
26.0275638981
 10
-17.1159416441
 20
26.0190341136
 10
-17.0749745059
 20
26.0123569011
 10
-17.0333209979
 20
26.0075797534
 10
-16.991277387
 20
26.0047366485
 10
-16.9491427149
 20
26.0038478086
 10
-16.9072166709
 20
26.0049195557
 10
-16.8657974603
 20
26.0079442667
 10
-16.8251796837
 20
26.0129004281
 10
-16.785652241
 20
26.0197527882
 10
-16.7474962773
 20
26.0284526087
 10
-16.7109831827
 20
26.0389380108
 10
-16.6763726621
 20
26.0511344153
 10
-16.6439108882
 20
26.0649550737
  0
LWPOLYLINE
  5
3E5
100
AcDbEntity
  8
ASSI
100
AcDbPolyline
 62
250
  6
CONTINUOUS
 90
19
 70
0
 10
30.5582993106
 20
-0.8723352059
 10
30.5769248287
 20
-0.8823203236
 10
30.5969247667
 20
-0.8914521161
 10
30.6181568729
 20
-0.8996656324
 10
30.6404701319
 20
-0.9069024532
 10
30.6637058381
 20
-0.9131111058
 10
30.6876987253
 20
-0.9182474304
 10
30.7122781414
 20
-0.9222748945
 10
30.7372692629
 20
-0.9251648522
 10
30.7624943377
 20
-0.9268967485
 10
30.7877739498
 20
-0.927458265
 10
30.8129282954
 20
-0.9268454079
 10
30.8377784615
 20
-0.9250625362
 10
30.8621476988
 20
-0.9221223309
 10
30.8858626784
 20
-0.9180457043
 10
30.9087547252
 20
-0.9128616519
 10
30.9306610169
 20
-0.9066070459
 10
30.9514257429
 20
-0.8993263727
 10
30.9709012119
 20
-0.891071417
  0
LWPOLYLINE
  5
3E6
100
AcDbEntity
  8
RACCORDO
100
AcDbPolyline
 62
250
  6
CONTINUOUS
 90
19
 70
0
 10
30.5582993106
 20
-0.8723352059
 10
30.5769248287
 20
-0.8823203236
 10
30.5969247667
 20
-0.8914521161
 10
30.6181568729
 20
-0.8996656324
 10
30.6404701319
 20
-0.9069024532
 10
30.6637058381
 20
-0.9131111058
 10
30.6876987253
 20
-0.9182474304
 10
30.7122781414
 20
-0.9222748945
 10
30.7372692629
 20
-0.9251648522
 10
30.7624943377
 20
-0.9268967485
 10
30.7877739498
 20
-0.927458265
 10
30.8129282954
 20
-0.9268454079
 10
30.8377784615
 20
-0.9250625362
 10
30.8621476988
 20
-0.9221223309
 10
30.8858626784
 20
-0.9180457043
 10
30.9087547252
 20
-0.9128616519
 10
30.9306610169
 20
-0.9066070459
 10
30.9514257429
 20
-0.8993263727
 10
30.9709012119
 20
-0.891071417
  0
LWPOLYLINE
  5
3E7
100
AcDbEntity
  8
ASSI
100
AcDbPolyline
 62
250
  6
CONTINUOUS
 90
12
 70
0
 10
-13.2730233087
 20
22.7267072159
 10
-13.2777121933
 20
22.7293090782
 10
-13.2968923129
 20
22.738031353
 10
-13.3172773621
 20
22.7443710498
 10
-13.3387564258
 20
22.7482930683
 10
-13.3612128615
 20
22.7497769083
 10
-13.3845286087
 20
22.7488146911
 10
-13.4085750832
 20
22.745411643
 10
-13.4332116095
 20
22.739591222
 10
-13.4583010055
 20
22.7313907289
 10
-13.4837114878
 20
22.7208567983
 10
-13.5093063798
 20
22.7080495459
  0
LWPOLYLINE
  5
3E8
100
AcDbEntity
  8
0
100
AcDbPolyline
 62
250
  6
CONTINUOUS
 90
12
 70
0
 10
-13.2730233087
 20
22.7267072159
 10
-13.2777121933
 20
22.7293090782
 10
-13.2968923129
 20
22.738031353
 10
-13.3172773621
 20
22.7443710498
 10
-13.3387564258
 20
22.7482930683
 10
-13.3612128615
 20
22.7497769083
 10
-13.3845286087
 20
22.7488146911
 10
-13.4085750832
 20
22.745411643
 10
-13.4332116095
 20
22.739591222
 10
-13.4583010055
 20
22.7313907289
 10
-13.4837114878
 20
22.7208567983
 10
-13.5093063798
 20
22.7080495459
  0
LWPOLYLINE
  5
3E9
100
AcDbEntity
  8
ASSI
100
AcDbPolyline
 62
7
  6
CONTINUOUS
 90
8
 70
0
 10
-13.776648275
 20
23.0174937414
 10
-13.7847517158
 20
23.0220123401
 10
-13.8093902247
 20
23.0338850698
 10
-13.835073429
 20
23.043566987
 10
-13.8618098989
 20
23.0510368029
 10
-13.889447373
 20
23.0562031394
 10
-13.917802727
 20
23.0589878203
 10
-13.9468865415
 20
23.0593428177
  0
LWPOLYLINE
  5
3EA
100
AcDbEntity
  8
0
100
AcDbPolyline
 62
7
  6
CONTINUOUS
 90
8
 70
0
 10
-13.776648275
 20
23.0174937414
 10
-13.7847517158
 20
23.0220123401
 10
-13.8093902247
 20
23.0338850698
 10
-13.835073429
 20
23.043566987
 10
-13.8618098989
 20
23.0510368029
 10
-13.889447373
 20
23.0562031394
 10
-13.917802727
 20
23.0589878203
 10
-13.9468865415
 20
23.0593428177
  0
LINE
  5
3EB
100
AcDbEntity
  8
ASSI
100
AcDbLine
 62
7
  6
CONTINUOUS
 10
-13.7767117967
 20
23.0175306929
 11
-13.2729055005
 21
22.7266392516
  0
LINE
  5
3EC
100
AcDbEntity
  8
0
100
AcDbLine
 62
7
  6
CONTINUOUS
 10
-13.7767117967
 20
23.0175306929
 11
-13.2729055005
 21
22.7266392516
  0
LINE
  5
3ED
100
AcDbEntity
  8
ASSI
100
AcDbLine
 62
250
  6
CONTINUOUS
 10
15.3733164961
 20
7.8952835461
 11
30.5582971629
 21
-0.8723834107
  0
LINE
  5
3EE
100
AcDbEntity
  8
RACCORDO
100
AcDbLine
 62
250
  6
CONTINUOUS
 10
15.3733164961
 20
7.8952835461
 11
30.5582971629
 21
-0.8723834107
  0
LINE
  5
3EF
100
AcDbEntity
  8
ASSI
100
AcDbLine
 62
250
  6
CONTINUOUS
 10
-32.2932710624
 20
35.4173244942
 11
-17.1082862896
 21
26.6497539045
  0
LINE
  5
3F0
100
AcDbEntity
  8
RACCORDO
100
AcDbLine
 62
250
  6
CONTINUOUS
 10
-32.2932710624
 20
35.4173244942
 11
-17.1082862896
 21
26.6497539045
  0
LINE
  5
3F1
100
AcDbEntity
  8
ASSI
100
AcDbLine
 62
7
  6
CONTINUOUS
 10
-16.2618848221
 20
26.3989030934
 11
14.769702243
 21
8.4816536392
  0
LINE
  5
3F2
100
AcDbEntity
  8
RACCORDO
100
AcDbLine
 62
7
  6
CONTINUOUS
 10
-16.2618848221
 20
26.3989030934
 11
14.769702243
 21
8.4816536392
  0
LINE
  5
3F3
100
AcDbEntity
  8
ASSI
100
AcDbLine
 62
250
  6
CONTINUOUS
 10
-16.3649224776
 20
26.6498449286
 11
14.6666645876
 21
8.7325954743
  0
LINE
  5
3F4
100
AcDbEntity
  8
RACCORDO
100
AcDbLine
 62
250
  6
CONTINUOUS
 10
-16.3649224776
 20
26.6498449286
 11
14.6666645876
 21
8.7325954743
  0
LINE
  5
3F5
100
AcDbEntity
  8
0
100
AcDbLine
 62
250
  6
CONTINUOUS
 10
-17.7995834384
 20
29.3249691474
 11
-16.5985342863
 21
28.6314984197
  0
LINE
  5
3F6
100
AcDbEntity
  8
0
100
AcDbLine
 62
250
  6
CONTINUOUS
 10
-17.7242318478
 20
29.3684683272
 11
-16.6644824295
 21
28.7565822949
  0
LINE
  5
3F7
100
AcDbEntity
  8
0
100
AcDbLine
 62
250
  6
CONTINUOUS
 10
-17.648837767
 20
29.4119928568
 11
-16.7303880826
 21
28.88169152
  0
LINE
  5
3F8
100
AcDbEntity
  8
0
100
AcDbLine
 62
250
  6
CONTINUOUS
 10
-9.0454657194
 20
24.7932249197
 11
-8.0563661681
 21
24.2221312351
  0
LINE
  5
3F9
100
AcDbEntity
  8
0
100
AcDbLine
 62
250
  6
CONTINUOUS
 10
-7.1909042375
 20
23.7224243632
 11
-6.9436297032
 21
23.5796511462
  0
LINE
  5
3FA
100
AcDbEntity
  8
0
100
AcDbLine
 62
250
  6
CONTINUOUS
 10
-5.7896802267
 20
22.9133751808
 11
-5.5424049853
 21
22.7706015555
  0
LINE
  5
3FB
100
AcDbEntity
  8
0
100
AcDbLine
 62
250
  6
CONTINUOUS
 10
-4.5533061411
 20
22.1995082792
 11
-4.182393279
 21
21.9853478413
  0
LINE
  5
3FC
100
AcDbEntity
  8
0
100
AcDbLine
 62
250
  6
CONTINUOUS
 10
-2.616319343
 20
21.0811163781
 11
-2.3690441016
 21
20.9383427528
  0
LINE
  5
3FD
100
AcDbEntity
  8
0
100
AcDbLine
 62
250
  6
CONTINUOUS
 10
-1.3799452574
 20
20.3672494765
 11
0.1037040695
 21
19.5106089496
  0
LINE
  5
3FE
100
AcDbEntity
  8
0
100
AcDbLine
 62
250
  6
CONTINUOUS
 10
2.3291784135
 20
18.2256479551
 11
2.5764529478
 21
18.0828747381
  0
LINE
  5
3FF
100
AcDbEntity
  8
0
100
AcDbLine
 62
250
  6
CONTINUOUS
 10
2.9061527983
 20
17.8925101766
 11
3.1534273325
 21
17.7497369596
  0
LINE
  5
400
100
AcDbEntity
  8
0
100
AcDbLine
 62
250
  6
CONTINUOUS
 10
4.3073768091
 20
17.0834609942
 11
4.5546520504
 21
16.9406873689
  0
LINE
  5
401
100
AcDbEntity
  8
0
100
AcDbLine
 62
250
  6
CONTINUOUS
 10
4.8843511938
 20
16.7503232157
 11
6.3680005207
 21
15.8936826888
  0
LINE
  5
402
100
AcDbEntity
  8
0
100
AcDbLine
 62
250
  6
CONTINUOUS
 10
1.9994785631
 20
18.4160125167
 11
1.7109910172
 21
18.5825816101
  0
LINE
  5
403
100
AcDbEntity
  8
0
100
AcDbLine
 62
250
  6
CONTINUOUS
 10
0.6806784543
 20
19.1774711711
 11
0.43340392
 21
19.3202443881
  0
LINE
  5
404
100
AcDbEntity
  8
0
100
AcDbLine
 62
250
  6
CONTINUOUS
 10
-8.7581847575
 20
24.9396312114
 11
-7.975148143
 21
24.487515684
  0
LINE
  5
405
100
AcDbEntity
  8
0
100
AcDbLine
 62
250
  6
CONTINUOUS
 10
6.4080069484
 20
16.1828621975
 11
5.1716328628
 21
16.8967290991
  0
LINE
  5
406
100
AcDbEntity
  8
0
100
AcDbLine
 62
250
  6
CONTINUOUS
 10
0.1437104972
 20
19.7997884583
 11
-1.0926635884
 21
20.5136553599
  0
LINE
  5
407
100
AcDbEntity
  8
0
100
AcDbLine
 62
250
  6
CONTINUOUS
 10
-4.1423875584
 20
22.2745277583
 11
-4.5132997134
 21
22.4886877879
  0
LINE
  5
408
100
AcDbEntity
  8
0
100
AcDbLine
 62
250
  6
CONTINUOUS
 10
-18.5554249351
 20
30.7649163329
 11
-17.7429500512
 21
30.2958035176
  0
LINE
  5
409
100
AcDbEntity
  8
0
100
AcDbLine
 62
250
  6
CONTINUOUS
 10
-16.541900899
 20
29.6023327898
 11
-15.7294260151
 21
29.1332199745
  0
LINE
  5
40A
100
AcDbEntity
  8
0
100
AcDbLine
 62
250
  6
CONTINUOUS
 10
-18.4795849374
 20
30.8086975128
 11
-17.6671100535
 21
30.3395846975
  0
LINE
  5
40B
100
AcDbEntity
  8
0
100
AcDbLine
 62
250
  6
CONTINUOUS
 10
-16.6073606352
 20
29.7276986652
 11
-15.7948857512
 21
29.2585858499
  0
LINE
  5
40C
100
AcDbEntity
  8
0
100
AcDbLine
 62
250
  6
CONTINUOUS
 10
-6.6982240605
 20
24.0631413246
 11
-5.8739744345
 21
23.5872299208
  0
LINE
  5
40D
100
AcDbEntity
  8
0
100
AcDbLine
 62
250
  6
CONTINUOUS
 10
3.3988329752
 20
18.233227138
 11
4.2230818942
 21
17.7573161424
  0
LINE
  5
40E
100
AcDbEntity
  8
0
100
AcDbLine
 62
250
  6
CONTINUOUS
 10
-3.5248631769
 20
22.2308825219
 11
-3.7721384183
 21
22.3736561472
  0
LINE
  5
40F
100
AcDbEntity
  8
0
100
AcDbLine
 62
250
  6
CONTINUOUS
 10
-18.4037017285
 20
30.8525028259
 11
-17.5912275517
 21
30.3833904188
  0
LINE
  5
410
100
AcDbEntity
  8
0
100
AcDbLine
 62
250
  6
CONTINUOUS
 10
-16.6727778673
 20
29.853089082
 11
-15.8603036904
 21
29.3839766749
  0
LINE
  5
411
100
AcDbEntity
  8
0
100
AcDbLine
 62
250
  6
CONTINUOUS
 10
-14.067871739
 20
28.3928770021
 11
-14.8214714982
 21
28.8279960582
  0
LINE
  5
412
100
AcDbEntity
  8
0
100
AcDbLine
 62
250
  6
CONTINUOUS
 10
-6.62967767
 20
24.2325153532
 11
-5.8878526529
 21
23.8041948857
  0
LINE
  5
413
100
AcDbEntity
  8
0
100
AcDbLine
 62
250
  6
CONTINUOUS
 10
3.4673800729
 20
18.4026007584
 11
4.2092043828
 21
17.9742806991
  0
LINE
  5
414
100
AcDbEntity
  8
0
100
AcDbLine
 62
250
  6
CONTINUOUS
 10
1.5236885371
 20
19.7864464909
 11
0.8230758246
 21
20.1909714903
  0
LINE
  5
415
100
AcDbEntity
  8
0
100
AcDbLine
 62
250
  6
CONTINUOUS
 10
-7.8727564932
 20
25.2118360863
 11
-8.6557938148
 21
25.663952022
  0
LINE
  5
416
100
AcDbEntity
  8
0
100
AcDbLine
 62
250
  6
CONTINUOUS
 10
-0.9833262907
 20
21.2863338974
 11
0.0881978697
 21
20.6676492766
  0
LINE
  5
417
100
AcDbEntity
  8
0
100
AcDbLine
 62
250
  6
CONTINUOUS
 10
1.6480207218
 20
20.0291327623
 11
0.8649834002
 21
20.481248698
  0
LINE
  5
418
100
AcDbEntity
  8
0
100
AcDbLine
 62
250
  6
CONTINUOUS
 10
-7.8308496247
 20
25.5021137022
 11
-8.6138862392
 21
25.9542292296
  0
LINE
  5
419
100
AcDbEntity
  8
0
100
AcDbLine
 62
250
  6
CONTINUOUS
 10
0.1301960566
 20
20.9579788021
 11
-0.9413281038
 21
21.576663423
  0
LINE
  5
41A
100
AcDbEntity
  8
0
100
AcDbLine
 62
250
  6
CONTINUOUS
 10
-15.7884088112
 20
30.4859880561
 11
-16.6008829881
 21
30.9551004632
  0
LINE
  5
41B
100
AcDbEntity
  8
0
100
AcDbLine
 62
250
  6
CONTINUOUS
 10
-17.5193326724
 20
31.4854018
 11
-18.3318068493
 21
31.9545142071
  0
LINE
  5
41C
100
AcDbEntity
  8
0
100
AcDbLine
 62
250
  6
CONTINUOUS
 10
-3.611666758
 20
23.4862854957
 11
-3.3643915166
 21
23.3435118704
  0
LINE
  5
41D
100
AcDbEntity
  8
0
100
AcDbLine
 62
250
  6
CONTINUOUS
 10
-15.7119299291
 20
30.5301373034
 11
-16.524404813
 21
30.9992501187
  0
LINE
  5
41E
100
AcDbEntity
  8
0
100
AcDbLine
 62
250
  6
CONTINUOUS
 10
-17.5841542313
 20
31.611136151
 11
-18.3966291153
 21
32.0802489663
  0
LINE
  5
41F
100
AcDbEntity
  8
0
100
AcDbLine
 62
250
  6
CONTINUOUS
 10
-15.6354091602
 20
30.5743115521
 11
-16.4478840442
 21
31.0434243674
  0
LINE
  5
420
100
AcDbEntity
  8
0
100
AcDbLine
 62
250
  6
CONTINUOUS
 10
-17.6489331963
 20
31.7368950952
 11
-18.4614080803
 21
32.2060079105
  0
LINE
  5
421
100
AcDbEntity
  8
0
100
AcDbLine
 62
250
  6
CONTINUOUS
 10
-8.5139876651
 20
26.6327639892
 11
-7.7309503435
 21
26.1806480535
  0
LINE
  5
422
100
AcDbEntity
  8
0
100
AcDbLine
 62
250
  6
CONTINUOUS
 10
-4.269101914
 20
24.1818201574
 11
-3.898189759
 21
23.9676601277
  0
LINE
  5
423
100
AcDbEntity
  8
0
100
AcDbLine
 62
250
  6
CONTINUOUS
 10
-0.848466496
 20
22.2067881377
 11
0.3879082967
 21
21.4929208278
  0
LINE
  5
424
100
AcDbEntity
  8
0
100
AcDbLine
 62
250
  6
CONTINUOUS
 10
-2.9842662414
 20
23.4926896046
 11
-2.3248665405
 21
23.1119604815
  0
LINE
  5
425
100
AcDbEntity
  8
0
100
AcDbLine
 62
250
  6
CONTINUOUS
 10
-2.0775920063
 20
22.9691872645
 11
-1.4181923054
 21
22.5884581414
  0
LINE
  5
426
100
AcDbEntity
  8
0
100
AcDbLine
 62
250
  6
CONTINUOUS
 10
0.9721312567
 20
21.2083152745
 11
1.7551685783
 21
20.7561993388
  0
LINE
  5
427
100
AcDbEntity
  8
0
100
AcDbLine
 62
250
  6
CONTINUOUS
 10
0.761328745
 20
21.5938811068
 11
1.7504282963
 21
21.0227874222
  0
LINE
  5
428
100
AcDbEntity
  8
0
100
AcDbLine
 62
250
  6
CONTINUOUS
 10
5.4595512602
 20
18.8811863091
 11
5.2122760188
 21
19.0239599344
  0
LINE
  5
429
100
AcDbEntity
  8
0
100
AcDbLine
 62
250
  6
CONTINUOUS
 10
4.2231764675
 20
19.595053619
 11
3.8934773241
 21
19.7854177723
  0
LINE
  5
42A
100
AcDbEntity
  8
0
100
AcDbLine
 62
250
  6
CONTINUOUS
 10
2.9043777728
 20
20.3565114569
 11
2.6571032386
 21
20.4992846739
  0
LINE
  5
42B
100
AcDbEntity
  8
0
100
AcDbLine
 62
250
  6
CONTINUOUS
 10
0.4316288946
 20
21.7842456684
 11
-1.0520204324
 21
22.6408861953
  0
LINE
  5
42C
100
AcDbEntity
  8
0
100
AcDbLine
 62
250
  6
CONTINUOUS
 10
-1.3817202828
 20
22.8312507568
 11
-2.9477942189
 21
23.7354822199
  0
LINE
  5
42D
100
AcDbEntity
  8
0
100
AcDbLine
 62
250
  6
CONTINUOUS
 10
-3.8544691611
 20
24.2589849683
 11
-4.2253813161
 21
24.4731449979
  0
LINE
  5
42E
100
AcDbEntity
  8
0
100
AcDbLine
 62
250
  6
CONTINUOUS
 10
-5.8738798612
 20
25.4249673973
 11
-6.2035797116
 21
25.6153319589
  0
LINE
  5
42F
100
AcDbEntity
  8
0
100
AcDbLine
 62
250
  6
CONTINUOUS
 10
-7.7284413431
 20
26.4957679539
 11
-8.7175408944
 21
27.0668616385
  0
LINE
  5
430
100
AcDbEntity
  8
0
100
AcDbLine
 62
250
  6
CONTINUOUS
 10
-10.5155607039
 20
28.105015742
 11
-11.645959282
 21
28.7576937138
  0
LWPOLYLINE
  5
431
100
AcDbEntity
  8
ASSI
100
AcDbPolyline
 62
7
  6
CONTINUOUS
 90
20
 70
0
 10
14.7697392501
 20
8.481632218
 10
14.7763337518
 20
8.4777742409
 10
14.8029430809
 20
8.4612091042
 10
14.8308213538
 20
8.442177414
 10
14.8597537625
 20
8.420645739
 10
14.8894397987
 20
8.3966793359
 10
14.919692552
 20
8.3702888955
 10
14.9503407621
 20
8.3414900819
 10
14.9811279304
 20
8.3104029478
 10
15.0118739967
 20
8.2771031384
 10
15.0424125796
 20
8.2416703757
 10
15.0725311647
 20
8.2042612888
 10
15.1020632523
 20
8.1650048697
 10
15.1308594527
 20
8.1240279288
 10
15.1587545773
 20
8.0815015393
 10
15.1856056596
 20
8.0375889622
 10
15.2112801696
 20
7.9924593995
 10
15.2356469088
 20
7.9463044665
 10
15.2585898213
 20
7.8993145065
 10
15.2701815018
 20
7.8740360604
  0
LWPOLYLINE
  5
432
100
AcDbEntity
  8
RACCORDO
100
AcDbPolyline
 62
7
  6
CONTINUOUS
 90
20
 70
0
 10
14.7697392501
 20
8.481632218
 10
14.7763337518
 20
8.4777742409
 10
14.8029430809
 20
8.4612091042
 10
14.8308213538
 20
8.442177414
 10
14.8597537625
 20
8.420645739
 10
14.8894397987
 20
8.3966793359
 10
14.919692552
 20
8.3702888955
 10
14.9503407621
 20
8.3414900819
 10
14.9811279304
 20
8.3104029478
 10
15.0118739967
 20
8.2771031384
 10
15.0424125796
 20
8.2416703757
 10
15.0725311647
 20
8.2042612888
 10
15.1020632523
 20
8.1650048697
 10
15.1308594527
 20
8.1240279288
 10
15.1587545773
 20
8.0815015393
 10
15.1856056596
 20
8.0375889622
 10
15.2112801696
 20
7.9924593995
 10
15.2356469088
 20
7.9463044665
 10
15.2585898213
 20
7.8993145065
 10
15.2701815018
 20
7.8740360604
  0
LWPOLYLINE
  5
433
100
AcDbEntity
  8
ASSI
100
AcDbPolyline
 62
250
  6
CONTINUOUS
 90
29
 70
0
 10
14.6666645876
 20
8.7325954743
 10
14.6964134639
 20
8.7147608656
 10
14.7256719356
 20
8.696157626
 10
14.7544400333
 20
8.6767857715
 10
14.7827088891
 20
8.6566159796
 10
14.8104874916
 20
8.6356776349
 10
14.8378026761
 20
8.6140588238
 10
14.8646519762
 20
8.5917735455
 10
14.8910380629
 20
8.5688079063
 10
14.9169954824
 20
8.5452081563
 10
14.942524244
 20
8.5209862498
 10
14.9676246111
 20
8.4961303732
 10
14.9923315176
 20
8.4706511276
 10
15.0166477297
 20
8.4445577911
 10
15.0405708198
 20
8.4178412606
 10
15.0641279444
 20
8.3904845723
 10
15.0873241032
 20
8.3624943252
 10
15.1101547101
 20
8.3338641343
 10
15.1326325691
 20
8.304557574
 10
15.1547643627
 20
8.2745790653
 10
15.1765439148
 20
8.2439244496
 10
15.1979647856
 20
8.2125444543
 10
15.2190350515
 20
8.1804417804
 10
15.2397472606
 20
8.1476140509
 10
15.2600717471
 20
8.1140044101
 10
15.2800182728
 20
8.0796140804
 10
15.2995778511
 20
8.044442242
 10
15.3186927848
 20
8.0084290237
 10
15.3373441822
 20
7.9715546457
  0
LWPOLYLINE
  5
434
100
AcDbEntity
  8
RACCORDO
100
AcDbPolyline
 62
250
  6
CONTINUOUS
 90
29
 70
0
 10
14.6666645876
 20
8.7325954743
 10
14.6964134639
 20
8.7147608656
 10
14.7256719356
 20
8.696157626
 10
14.7544400333
 20
8.6767857715
 10
14.7827088891
 20
8.6566159796
 10
14.8104874916
 20
8.6356776349
 10
14.8378026761
 20
8.6140588238
 10
14.8646519762
 20
8.5917735455
 10
14.8910380629
 20
8.5688079063
 10
14.9169954824
 20
8.5452081563
 10
14.942524244
 20
8.5209862498
 10
14.9676246111
 20
8.4961303732
 10
14.9923315176
 20
8.4706511276
 10
15.0166477297
 20
8.4445577911
 10
15.0405708198
 20
8.4178412606
 10
15.0641279444
 20
8.3904845723
 10
15.0873241032
 20
8.3624943252
 10
15.1101547101
 20
8.3338641343
 10
15.1326325691
 20
8.304557574
 10
15.1547643627
 20
8.2745790653
 10
15.1765439148
 20
8.2439244496
 10
15.1979647856
 20
8.2125444543
 10
15.2190350515
 20
8.1804417804
 10
15.2397472606
 20
8.1476140509
 10
15.2600717471
 20
8.1140044101
 10
15.2800182728
 20
8.0796140804
 10
15.2995778511
 20
8.044442242
 10
15.3186927848
 20
8.0084290237
 10
15.3373441822
 20
7.9715546457
  0
LWPOLYLINE
  5
435
100
AcDbEntity
  8
ASSI
100
AcDbPolyline
 62
250
  6
CONTINUOUS
 90
11
 70
0
 10
15.5407742848
 20
7.1153372438
 10
15.5122357836
 20
7.1331029122
 10
15.4864119629
 20
7.1520513273
 10
15.4634864964
 20
7.1720477173
 10
15.4436224428
 20
7.1929498568
 10
15.4269610865
 20
7.2146090779
 10
15.4136209323
 20
7.236871328
 10
15.403696863
 20
7.2595782656
 10
15.397259464
 20
7.2825683862
 10
15.3943545219
 20
7.305678171
 10
15.3942884315
 20
7.3188456052
  0
LWPOLYLINE
  5
436
100
AcDbEntity
  8
RACCORDO
100
AcDbPolyline
 62
250
  6
CONTINUOUS
 90
11
 70
0
 10
15.5407742848
 20
7.1153372438
 10
15.5122357836
 20
7.1331029122
 10
15.4864119629
 20
7.1520513273
 10
15.4634864964
 20
7.1720477173
 10
15.4436224428
 20
7.1929498568
 10
15.4269610865
 20
7.2146090779
 10
15.4136209323
 20
7.236871328
 10
15.403696863
 20
7.2595782656
 10
15.397259464
 20
7.2825683862
 10
15.3943545219
 20
7.305678171
 10
15.3942884315
 20
7.3188456052
  0
LINE
  5
437
100
AcDbEntity
  8
ASSI
100
AcDbLine
 62
250
  6
CONTINUOUS
 10
15.3373441822
 20
7.9715546457
 11
15.3555519138
 21
7.9338393968
  0
LINE
  5
438
100
AcDbEntity
  8
RACCORDO
100
AcDbLine
 62
250
  6
CONTINUOUS
 10
15.3373441822
 20
7.9715546457
 11
15.3555519138
 21
7.9338393968
  0
LINE
  5
439
100
AcDbEntity
  8
ASSI
100
AcDbLine
 62
250
  6
CONTINUOUS
 10
15.3555519138
 20
7.9338393968
 11
15.3733164961
 21
7.8952835461
  0
LINE
  5
43A
100
AcDbEntity
  8
RACCORDO
100
AcDbLine
 62
250
  6
CONTINUOUS
 10
15.3555519138
 20
7.9338393968
 11
15.3733164961
 21
7.8952835461
  0
LWPOLYLINE
  5
43B
100
AcDbEntity
  8
ASSI
100
AcDbPolyline
 62
7
  6
CONTINUOUS
 90
14
 70
0
 10
15.270181602
 20
7.8740350966
 10
15.2818301972
 20
7.8474220617
 10
15.3027245655
 20
7.7960693473
 10
15.3214973776
 20
7.7449184459
 10
15.3381076469
 20
7.6942399752
 10
15.3525319346
 20
7.6443084111
 10
15.3647747815
 20
7.5953613136
 10
15.374850533
 20
7.5476636198
 10
15.3827856325
 20
7.5015383174
 10
15.3886496448
 20
7.4572019229
 10
15.3925279998
 20
7.4148858295
 10
15.3945261748
 20
7.3749279647
 10
15.3947915642
 20
7.3375522107
 10
15.3942899763
 20
7.3189011827
  0
LWPOLYLINE
  5
43C
100
AcDbEntity
  8
RACCORDO
100
AcDbPolyline
 62
7
  6
CONTINUOUS
 90
14
 70
0
 10
15.270181602
 20
7.8740350966
 10
15.2818301972
 20
7.8474220617
 10
15.3027245655
 20
7.7960693473
 10
15.3214973776
 20
7.7449184459
 10
15.3381076469
 20
7.6942399752
 10
15.3525319346
 20
7.6443084111
 10
15.3647747815
 20
7.5953613136
 10
15.374850533
 20
7.5476636198
 10
15.3827856325
 20
7.5015383174
 10
15.3886496448
 20
7.4572019229
 10
15.3925279998
 20
7.4148858295
 10
15.3945261748
 20
7.3749279647
 10
15.3947915642
 20
7.3375522107
 10
15.3942899763
 20
7.3189011827
  0
LWPOLYLINE
  5
43D
100
AcDbEntity
  8
ASSI
100
AcDbPolyline
 62
250
  6
CONTINUOUS
 90
13
 70
0
 10
15.3733164961
 20
7.8952835461
 10
15.4012365328
 20
7.8302316697
 10
15.426776094
 20
7.7645689112
 10
15.4499358303
 20
7.6982956095
 10
15.4708429266
 20
7.6310206596
 10
15.4893716538
 20
7.563135925
 10
15.5051429809
 20
7.4958160353
 10
15.518043501
 20
7.4291110122
 10
15.5281874065
 20
7.3629712453
 10
15.5355363388
 20
7.2984215373
 10
15.5400773478
 20
7.2358034051
 10
15.5418233224
 20
7.1747753029
 10
15.5407742752
 20
7.1153372388
  0
LWPOLYLINE
  5
43E
100
AcDbEntity
  8
RACCORDO
100
AcDbPolyline
 62
250
  6
CONTINUOUS
 90
13
 70
0
 10
15.3733164961
 20
7.8952835461
 10
15.4012365328
 20
7.8302316697
 10
15.426776094
 20
7.7645689112
 10
15.4499358303
 20
7.6982956095
 10
15.4708429266
 20
7.6310206596
 10
15.4893716538
 20
7.563135925
 10
15.5051429809
 20
7.4958160353
 10
15.518043501
 20
7.4291110122
 10
15.5281874065
 20
7.3629712453
 10
15.5355363388
 20
7.2984215373
 10
15.5400773478
 20
7.2358034051
 10
15.5418233224
 20
7.1747753029
 10
15.5407742752
 20
7.1153372388
  0
LWPOLYLINE
  5
43F
100
AcDbEntity
  8
ASSI
100
AcDbPolyline
 62
7
  6
CONTINUOUS
 90
15
 70
0
 10
2.7625125431
 20
-25.3017272682
 10
2.7720650894
 20
-25.2939480764
 10
2.7807735243
 20
-25.2849496706
 10
2.7886335574
 20
-25.2747334017
 10
2.795649949
 20
-25.2632976059
 10
2.8018591172
 20
-25.2508701215
 10
2.8072699588
 20
-25.2374695413
 10
2.8118739548
 20
-25.2230770215
 10
2.8156812739
 20
-25.2078643287
 10
2.8187066255
 20
-25.1918277099
 10
2.8209355847
 20
-25.1749707295
 10
2.8223344779
 20
-25.1574762242
 10
2.8228920864
 20
-25.139405136
 10
2.8226197378
 20
-25.1206964515
 10
2.8215174962
 20
-25.1013501281
  0
LWPOLYLINE
  5
440
100
AcDbEntity
  8
0
100
AcDbPolyline
 62
7
  6
CONTINUOUS
 90
15
 70
0
 10
2.7625125431
 20
-25.3017272682
 10
2.7720650894
 20
-25.2939480764
 10
2.7807735243
 20
-25.2849496706
 10
2.7886335574
 20
-25.2747334017
 10
2.795649949
 20
-25.2632976059
 10
2.8018591172
 20
-25.2508701215
 10
2.8072699588
 20
-25.2374695413
 10
2.8118739548
 20
-25.2230770215
 10
2.8156812739
 20
-25.2078643287
 10
2.8187066255
 20
-25.1918277099
 10
2.8209355847
 20
-25.1749707295
 10
2.8223344779
 20
-25.1574762242
 10
2.8228920864
 20
-25.139405136
 10
2.8226197378
 20
-25.1206964515
 10
2.8215174962
 20
-25.1013501281
  0
LINE
  5
441
100
AcDbEntity
  8
ASSI
100
AcDbLine
 62
7
  6
CONTINUOUS
 10
2.7557152876
 20
-25.3060917798
 11
2.7625125431
 21
-25.3017272682
  0
LINE
  5
442
100
AcDbEntity
  8
0
100
AcDbLine
 62
7
  6
CONTINUOUS
 10
2.7557152876
 20
-25.3060917798
 11
2.7625125431
 21
-25.3017272682
  0
LWPOLYLINE
  5
443
100
AcDbEntity
  8
ASSI
100
AcDbPolyline
 62
7
  6
CONTINUOUS
 90
16
 70
0
 10
2.8621016331
 20
-25.2446656685
 10
2.868898718
 20
-25.2403013142
 10
2.8784485006
 20
-25.2325243489
 10
2.8871546092
 20
-25.2235282803
 10
2.8950128981
 20
-25.2133144817
 10
2.9020279832
 20
-25.2018812665
 10
2.9082361248
 20
-25.189455913
 10
2.9136462649
 20
-25.1760568634
 10
2.9182498401
 20
-25.1616654237
 10
2.922056727
 20
-25.1464532522
 10
2.9250815927
 20
-25.1304164528
 10
2.9273100552
 20
-25.1135587325
 10
2.9287082762
 20
-25.096063248
 10
2.9292649819
 20
-25.077991048
 10
2.9289915549
 20
-25.0592810121
 10
2.9278880598
 20
-25.0399330979
  0
LWPOLYLINE
  5
444
100
AcDbEntity
  8
0
100
AcDbPolyline
 62
7
  6
CONTINUOUS
 90
16
 70
0
 10
2.8621016331
 20
-25.2446656685
 10
2.868898718
 20
-25.2403013142
 10
2.8784485006
 20
-25.2325243489
 10
2.8871546092
 20
-25.2235282803
 10
2.8950128981
 20
-25.2133144817
 10
2.9020279832
 20
-25.2018812665
 10
2.9082361248
 20
-25.189455913
 10
2.9136462649
 20
-25.1760568634
 10
2.9182498401
 20
-25.1616654237
 10
2.922056727
 20
-25.1464532522
 10
2.9250815927
 20
-25.1304164528
 10
2.9273100552
 20
-25.1135587325
 10
2.9287082762
 20
-25.096063248
 10
2.9292649819
 20
-25.077991048
 10
2.9289915549
 20
-25.0592810121
 10
2.9278880598
 20
-25.0399330979
  0
LWPOLYLINE
  5
445
100
AcDbEntity
  8
ASSI
100
AcDbPolyline
 62
7
  6
CONTINUOUS
 90
3
 70
0
 10
3.0945898083
 20
-25.6499041136
 10
3.0860526071
 20
-25.6552928128
 10
3.0829716985
 20
-25.6571374324
  0
LWPOLYLINE
  5
446
100
AcDbEntity
  8
0
100
AcDbPolyline
 62
7
  6
CONTINUOUS
 90
3
 70
0
 10
3.0945898083
 20
-25.6499041136
 10
3.0860526071
 20
-25.6552928128
 10
3.0829716985
 20
-25.6571374324
  0
LINE
  5
447
100
AcDbEntity
  8
ASSI
100
AcDbLine
 62
7
  6
CONTINUOUS
 10
-1.9745415791
 20
-23.7003352861
 11
-2.0810159943
 21
-23.761812279
  0
LINE
  5
448
100
AcDbEntity
  8
0
100
AcDbLine
 62
7
  6
CONTINUOUS
 10
-1.9745415791
 20
-23.7003352861
 11
-2.0810159943
 21
-23.761812279
  0
LINE
  5
449
100
AcDbEntity
  8
ASSI
100
AcDbLine
 62
7
  6
CONTINUOUS
 10
-1.0480839174
 20
-23.3040434283
 11
-1.1544915061
 21
-23.3654818364
  0
LINE
  5
44A
100
AcDbEntity
  8
0
100
AcDbLine
 62
7
  6
CONTINUOUS
 10
-1.0480839174
 20
-23.3040434283
 11
-1.1544915061
 21
-23.3654818364
  0
LINE
  5
44B
100
AcDbEntity
  8
ASSI
100
AcDbLine
 62
7
  6
CONTINUOUS
 10
-0.5619999845
 20
-23.1519695889
 11
-0.6683787473
 21
-23.2133913533
  0
LINE
  5
44C
100
AcDbEntity
  8
0
100
AcDbLine
 62
7
  6
CONTINUOUS
 10
-0.5619999845
 20
-23.1519695889
 11
-0.6683787473
 21
-23.2133913533
  0
LINE
  5
44D
100
AcDbEntity
  8
ASSI
100
AcDbLine
 62
7
  6
CONTINUOUS
 10
-1.026131678
 20
-24.2720486724
 11
-1.1117246252
 21
-24.3214689674
  0
LINE
  5
44E
100
AcDbEntity
  8
0
100
AcDbLine
 62
7
  6
CONTINUOUS
 10
-1.026131678
 20
-24.2720486724
 11
-1.1117246252
 21
-24.3214689674
  0
LINE
  5
44F
100
AcDbEntity
  8
ASSI
100
AcDbLine
 62
7
  6
CONTINUOUS
 10
0.9422961672
 20
-23.8622353233
 11
0.8359276015
 21
-23.9236512001
  0
LINE
  5
450
100
AcDbEntity
  8
0
100
AcDbLine
 62
7
  6
CONTINUOUS
 10
0.9422961672
 20
-23.8622353233
 11
0.8359276015
 21
-23.9236512001
  0
LINE
  5
451
100
AcDbEntity
  8
ASSI
100
AcDbLine
 62
7
  6
CONTINUOUS
 10
-0.3710510878
 20
-24.6261705994
 11
-0.4775255029
 21
-24.6876475922
  0
LINE
  5
452
100
AcDbEntity
  8
0
100
AcDbLine
 62
7
  6
CONTINUOUS
 10
-0.3710510878
 20
-24.6261705994
 11
-0.4775255029
 21
-24.6876475922
  0
LINE
  5
453
100
AcDbEntity
  8
ASSI
100
AcDbLine
 62
7
  6
CONTINUOUS
 10
0.2465883008
 20
-24.9827878415
 11
0.1401138857
 21
-25.0442648344
  0
LINE
  5
454
100
AcDbEntity
  8
0
100
AcDbLine
 62
7
  6
CONTINUOUS
 10
0.2465883008
 20
-24.9827878415
 11
0.1401138857
 21
-25.0442648344
  0
LINE
  5
455
100
AcDbEntity
  8
ASSI
100
AcDbLine
 62
7
  6
CONTINUOUS
 10
0.7353081605
 20
-24.847962413
 11
0.6288644884
 21
-24.9094216552
  0
LINE
  5
456
100
AcDbEntity
  8
0
100
AcDbLine
 62
7
  6
CONTINUOUS
 10
0.7353081605
 20
-24.847962413
 11
0.6288644884
 21
-24.9094216552
  0
LINE
  5
457
100
AcDbEntity
  8
ASSI
100
AcDbLine
 62
7
  6
CONTINUOUS
 10
1.1900432616
 20
-24.7867853406
 11
1.0836225401
 21
-24.8482313315
  0
LINE
  5
458
100
AcDbEntity
  8
0
100
AcDbLine
 62
7
  6
CONTINUOUS
 10
1.1900432616
 20
-24.7867853406
 11
1.0836225401
 21
-24.8482313315
  0
LINE
  5
459
100
AcDbEntity
  8
ASSI
100
AcDbLine
 62
7
  6
CONTINUOUS
 10
2.3530535255
 20
-24.455950038
 11
2.2466988773
 21
-24.5173578789
  0
LINE
  5
45A
100
AcDbEntity
  8
0
100
AcDbLine
 62
7
  6
CONTINUOUS
 10
2.3530535255
 20
-24.455950038
 11
2.2466988773
 21
-24.5173578789
  0
LINE
  5
45B
100
AcDbEntity
  8
ASSI
100
AcDbLine
 62
7
  6
CONTINUOUS
 10
1.2980711131
 20
-25.1728946888
 11
1.1916274411
 21
-25.234353931
  0
LINE
  5
45C
100
AcDbEntity
  8
0
100
AcDbLine
 62
7
  6
CONTINUOUS
 10
1.2980711131
 20
-25.1728946888
 11
1.1916274411
 21
-25.234353931
  0
LINE
  5
45D
100
AcDbEntity
  8
ASSI
100
AcDbLine
 62
250
  6
CONTINUOUS
 10
2.6759182333
 20
-24.6299039172
 11
2.56956436
 21
-24.6913113108
  0
LINE
  5
45E
100
AcDbEntity
  8
0
100
AcDbLine
 62
250
  6
CONTINUOUS
 10
2.6759182333
 20
-24.6299039172
 11
2.56956436
 21
-24.6913113108
  0
LINE
  5
45F
100
AcDbEntity
  8
ASSI
100
AcDbLine
 62
7
  6
CONTINUOUS
 10
1.4391846985
 20
-25.6713780548
 11
1.3327102833
 21
-25.7328550476
  0
LINE
  5
460
100
AcDbEntity
  8
0
100
AcDbLine
 62
7
  6
CONTINUOUS
 10
1.4391846985
 20
-25.6713780548
 11
1.3327102833
 21
-25.7328550476
  0
LINE
  5
461
100
AcDbEntity
  8
ASSI
100
AcDbLine
 62
250
  6
CONTINUOUS
 10
2.9278880612
 20
-25.0399331928
 11
2.8215174976
 21
-25.101350223
  0
LINE
  5
462
100
AcDbEntity
  8
0
100
AcDbLine
 62
250
  6
CONTINUOUS
 10
2.9278880612
 20
-25.0399331928
 11
2.8215174976
 21
-25.101350223
  0
LINE
  5
463
100
AcDbEntity
  8
ASSI
100
AcDbLine
 62
7
  6
CONTINUOUS
 10
2.434050739
 20
-25.4268947586
 11
2.3276354399
 21
-25.4883376187
  0
LINE
  5
464
100
AcDbEntity
  8
0
100
AcDbLine
 62
7
  6
CONTINUOUS
 10
2.434050739
 20
-25.4268947586
 11
2.3276354399
 21
-25.4883376187
  0
LINE
  5
465
100
AcDbEntity
  8
ASSI
100
AcDbLine
 62
7
  6
CONTINUOUS
 10
2.7557079613
 20
-25.3060803431
 11
2.8620942918
 21
-25.2446542093
  0
LINE
  5
466
100
AcDbEntity
  8
0
100
AcDbLine
 62
7
  6
CONTINUOUS
 10
2.7557079613
 20
-25.3060803431
 11
2.8620942918
 21
-25.2446542093
  0
LINE
  5
467
100
AcDbEntity
  8
ASSI
100
AcDbLine
 62
250
  6
CONTINUOUS
 10
2.65561955
 20
-25.5548258132
 11
2.5492042508
 21
-25.6162686732
  0
LINE
  5
468
100
AcDbEntity
  8
0
100
AcDbLine
 62
250
  6
CONTINUOUS
 10
2.65561955
 20
-25.5548258132
 11
2.5492042508
 21
-25.6162686732
  0
LINE
  5
469
100
AcDbEntity
  8
ASSI
100
AcDbLine
 62
7
  6
CONTINUOUS
 10
2.0879925291
 20
-26.0459918286
 11
1.9815181139
 21
-26.1074688215
  0
LINE
  5
46A
100
AcDbEntity
  8
0
100
AcDbLine
 62
7
  6
CONTINUOUS
 10
2.0879925291
 20
-26.0459918286
 11
1.9815181139
 21
-26.1074688215
  0
LINE
  5
46B
100
AcDbEntity
  8
ASSI
100
AcDbLine
 62
7
  6
CONTINUOUS
 10
3.0719148539
 20
-25.6242061072
 11
2.9655112556
 21
-25.6856422113
  0
LINE
  5
46C
100
AcDbEntity
  8
0
100
AcDbLine
 62
7
  6
CONTINUOUS
 10
3.0719148539
 20
-25.6242061072
 11
2.9655112556
 21
-25.6856422113
  0
LINE
  5
46D
100
AcDbEntity
  8
ASSI
100
AcDbLine
 62
250
  6
CONTINUOUS
 10
2.900416923
 20
-25.8809317277
 11
2.7939887322
 21
-25.9423820312
  0
LINE
  5
46E
100
AcDbEntity
  8
0
100
AcDbLine
 62
250
  6
CONTINUOUS
 10
2.900416923
 20
-25.8809317277
 11
2.7939887322
 21
-25.9423820312
  0
LINE
  5
46F
100
AcDbEntity
  8
ASSI
100
AcDbLine
 62
7
  6
CONTINUOUS
 10
3.132386996
 20
-26.6490121044
 11
3.0259125808
 21
-26.7104890973
  0
LINE
  5
470
100
AcDbEntity
  8
0
100
AcDbLine
 62
7
  6
CONTINUOUS
 10
3.132386996
 20
-26.6490121044
 11
3.0259125808
 21
-26.7104890973
  0
LWPOLYLINE
  5
471
100
AcDbEntity
  8
ASSI
100
AcDbPolyline
 62
7
  6
CONTINUOUS
 90
4
 70
0
 10
3.0829716985
 20
-25.6571374324
 10
3.0775653611
 20
-25.6601759331
 10
3.0691170091
 20
-25.6645383565
 10
3.0607969446
 20
-25.6685569146
  0
LWPOLYLINE
  5
472
100
AcDbEntity
  8
0
100
AcDbPolyline
 62
7
  6
CONTINUOUS
 90
4
 70
0
 10
3.0829716985
 20
-25.6571374324
 10
3.0775653611
 20
-25.6601759331
 10
3.0691170091
 20
-25.6645383565
 10
3.0607969446
 20
-25.6685569146
  0
LWPOLYLINE
  5
473
100
AcDbEntity
  8
ASSI
100
AcDbPolyline
 62
7
  6
CONTINUOUS
 90
3
 70
0
 10
3.0607969446
 20
-25.6685569146
 10
3.0526221096
 20
-25.6722519826
 10
3.0445754017
 20
-25.6756032925
  0
LWPOLYLINE
  5
474
100
AcDbEntity
  8
0
100
AcDbPolyline
 62
7
  6
CONTINUOUS
 90
3
 70
0
 10
3.0607969446
 20
-25.6685569146
 10
3.0526221096
 20
-25.6722519826
 10
3.0445754017
 20
-25.6756032925
  0
LWPOLYLINE
  5
475
100
AcDbEntity
  8
ASSI
100
AcDbPolyline
 62
7
  6
CONTINUOUS
 90
9
 70
0
 10
3.0445754017
 20
-25.6756032925
 10
3.0290523493
 20
-25.6817314638
 10
3.0215759028
 20
-25.6845083934
 10
3.0140915181
 20
-25.6868454369
 10
3.006657871
 20
-25.6888781151
 10
2.9992161686
 20
-25.6904709856
 10
2.9914158023
 20
-25.6910056163
 10
2.9831398212
 20
-25.6902759178
 10
2.9745049927
 20
-25.6884881025
  0
LWPOLYLINE
  5
476
100
AcDbEntity
  8
0
100
AcDbPolyline
 62
7
  6
CONTINUOUS
 90
9
 70
0
 10
3.0445754017
 20
-25.6756032925
 10
3.0290523493
 20
-25.6817314638
 10
3.0215759028
 20
-25.6845083934
 10
3.0140915181
 20
-25.6868454369
 10
3.006657871
 20
-25.6888781151
 10
2.9992161686
 20
-25.6904709856
 10
2.9914158023
 20
-25.6910056163
 10
2.9831398212
 20
-25.6902759178
 10
2.9745049927
 20
-25.6884881025
  0
LWPOLYLINE
  5
477
100
AcDbEntity
  8
ASSI
100
AcDbPolyline
 62
7
  6
CONTINUOUS
 90
7
 70
0
 10
-13.9468865415
 20
23.0593428177
 10
-13.9765693514
 20
23.05720001
 10
-14.0066859946
 20
23.0525019262
 10
-14.0372567435
 20
23.045156633
 10
-14.068227512
 20
23.0350686276
 10
-14.0994308471
 20
23.0221723504
 10
-14.1135880985
 20
23.0153948471
  0
LWPOLYLINE
  5
478
100
AcDbEntity
  8
0
100
AcDbPolyline
 62
7
  6
CONTINUOUS
 90
7
 70
0
 10
-13.9468865415
 20
23.0593428177
 10
-13.9765693514
 20
23.05720001
 10
-14.0066859946
 20
23.0525019262
 10
-14.0372567435
 20
23.045156633
 10
-14.068227512
 20
23.0350686276
 10
-14.0994308471
 20
23.0221723504
 10
-14.1135880985
 20
23.0153948471
  0
LINE
  5
479
100
AcDbEntity
  8
0
100
AcDbLine
 62
250
  6
CONTINUOUS
 10
-16.5312845448
 20
31.9334198777
 11
-17.4497342292
 21
32.4637212146
  0
LINE
  5
47A
100
AcDbEntity
  8
0
100
AcDbLine
 62
250
  6
CONTINUOUS
 10
-16.4543160839
 20
31.9778534347
 11
-17.5140655021
 21
32.589739467
  0
LINE
  5
47B
100
AcDbEntity
  8
0
100
AcDbLine
 62
250
  6
CONTINUOUS
 10
-16.3773050162
 20
32.0223107758
 11
-17.5783541683
 21
32.7157815035
  0
LWPOLYLINE
  5
47C
100
AcDbEntity
  8
ASSI
100
AcDbPolyline
 62
250
  6
CONTINUOUS
 90
8
 70
0
 10
31.976330763
 20
-54.5405120239
 10
31.9805828009
 20
-54.5593035115
 10
31.9864545358
 20
-54.5766389939
 10
31.9938994405
 20
-54.5923810614
 10
32.0028585186
 20
-54.6064049323
 10
32.0132607711
 20
-54.6185994409
 10
32.0250237587
 20
-54.6288679196
 10
32.0348713066
 20
-54.6353647643
  0
LWPOLYLINE
  5
47D
100
AcDbEntity
  8
RACCORDO
100
AcDbPolyline
 62
250
  6
CONTINUOUS
 90
8
 70
0
 10
31.976330763
 20
-54.5405120239
 10
31.9805828009
 20
-54.5593035115
 10
31.9864545358
 20
-54.5766389939
 10
31.9938994405
 20
-54.5923810614
 10
32.0028585186
 20
-54.6064049323
 10
32.0132607711
 20
-54.6185994409
 10
32.0250237587
 20
-54.6288679196
 10
32.0348713066
 20
-54.6353647643
  0
LWPOLYLINE
  5
47E
100
AcDbEntity
  8
ASSI
100
AcDbPolyline
 62
250
  6
CONTINUOUS
 90
10
 70
0
 10
32.3746617717
 20
-54.2985237481
 10
32.0731276477
 20
-52.5412941778
 10
31.7964144185
 20
-50.766661547
 10
31.5445749717
 20
-48.9749826825
 10
31.3176557762
 20
-47.1666200277
 10
31.1157017278
 20
-45.3419355223
 10
30.9387565596
 20
-43.5012902319
 10
30.7868561661
 20
-41.6450524862
 10
30.6600281773
 20
-39.773598102
 10
30.5582971014
 20
-37.8873040524
  0
LWPOLYLINE
  5
47F
100
AcDbEntity
  8
RACCORDO
100
AcDbPolyline
 62
250
  6
CONTINUOUS
 90
10
 70
0
 10
32.3746617717
 20
-54.2985237481
 10
32.0731276477
 20
-52.5412941778
 10
31.7964144185
 20
-50.766661547
 10
31.5445749717
 20
-48.9749826825
 10
31.3176557762
 20
-47.1666200277
 10
31.1157017278
 20
-45.3419355223
 10
30.9387565596
 20
-43.5012902319
 10
30.7868561661
 20
-41.6450524862
 10
30.6600281773
 20
-39.773598102
 10
30.5582971014
 20
-37.8873040524
  0
LWPOLYLINE
  5
480
100
AcDbEntity
  8
ASSI
100
AcDbPolyline
 62
250
  6
CONTINUOUS
 90
10
 70
0
 10
32.7841709917
 20
-54.2632718274
 10
32.4830757747
 20
-52.5086172484
 10
32.2068547075
 20
-50.7372946788
 10
31.9555077899
 20
-48.9493041187
 10
31.7289936227
 20
-47.1442723692
 10
31.5273536052
 20
-45.3225726291
 10
31.3507119355
 20
-43.4853244944
 10
31.1991100131
 20
-41.6329011637
 10
31.0725064386
 20
-39.7649294383
 10
30.9709012119
 20
-37.8814093183
  0
LWPOLYLINE
  5
481
100
AcDbEntity
  8
RACCORDO
100
AcDbPolyline
 62
250
  6
CONTINUOUS
 90
10
 70
0
 10
32.7841709917
 20
-54.2632718274
 10
32.4830757747
 20
-52.5086172484
 10
32.2068547075
 20
-50.7372946788
 10
31.9555077899
 20
-48.9493041187
 10
31.7289936227
 20
-47.1442723692
 10
31.5273536052
 20
-45.3225726291
 10
31.3507119355
 20
-43.4853244944
 10
31.1991100131
 20
-41.6329011637
 10
31.0725064386
 20
-39.7649294383
 10
30.9709012119
 20
-37.8814093183
  0
LWPOLYLINE
  5
482
100
AcDbEntity
  8
ASSI
100
AcDbPolyline
 62
250
  6
CONTINUOUS
 90
12
 70
0
 10
30.5582971732
 20
-37.8873040939
 10
30.4284320728
 20
-34.8725303283
 10
30.3221610951
 20
-31.8442867849
 10
30.239493889
 20
-28.802785275
 10
30.1804377494
 20
-25.7482002313
 10
30.1450004979
 20
-22.6807835658
 10
30.1331876733
 20
-19.6008663171
 10
30.1450004916
 20
-16.5086659811
 10
30.1804377384
 20
-13.404400517
 10
30.2394938753
 20
-10.2884059501
 10
30.3221610804
 20
-7.1609427545
 10
30.4284320592
 20
-4.0221942568
  0
LWPOLYLINE
  5
483
100
AcDbEntity
  8
RACCORDO
100
AcDbPolyline
 62
250
  6
CONTINUOUS
 90
12
 70
0
 10
30.5582971732
 20
-37.8873040939
 10
30.4284320728
 20
-34.8725303283
 10
30.3221610951
 20
-31.8442867849
 10
30.239493889
 20
-28.802785275
 10
30.1804377494
 20
-25.7482002313
 10
30.1450004979
 20
-22.6807835658
 10
30.1331876733
 20
-19.6008663171
 10
30.1450004916
 20
-16.5086659811
 10
30.1804377384
 20
-13.404400517
 10
30.2394938753
 20
-10.2884059501
 10
30.3221610804
 20
-7.1609427545
 10
30.4284320592
 20
-4.0221942568
  0
LWPOLYLINE
  5
484
100
AcDbEntity
  8
ASSI
100
AcDbPolyline
 62
250
  6
CONTINUOUS
 90
13
 70
0
 10
30.9709012119
 20
-37.8814093183
 10
30.8411041119
 20
-34.8682732408
 10
30.7349030304
 20
-31.8421048287
 10
30.6522979674
 20
-28.802904082
 10
30.5932847002
 20
-25.7504181434
 10
30.5578674515
 20
-22.6848998701
 10
30.5460588896
 20
-19.6071078342
 10
30.5578674616
 20
-16.5170375718
 10
30.5932847204
 20
-13.4146935468
 10
30.6522979922
 20
-10.3008477225
 10
30.7349030525
 20
-7.17575742
 10
30.8411041257
 20
-4.0391653182
 10
30.9709012119
 20
-0.891071417
  0
LWPOLYLINE
  5
485
100
AcDbEntity
  8
RACCORDO
100
AcDbPolyline
 62
250
  6
CONTINUOUS
 90
13
 70
0
 10
30.9709012119
 20
-37.8814093183
 10
30.8411041119
 20
-34.8682732408
 10
30.7349030304
 20
-31.8421048287
 10
30.6522979674
 20
-28.802904082
 10
30.5932847002
 20
-25.7504181434
 10
30.5578674515
 20
-22.6848998701
 10
30.5460588896
 20
-19.6071078342
 10
30.5578674616
 20
-16.5170375718
 10
30.5932847204
 20
-13.4146935468
 10
30.6522979922
 20
-10.3008477225
 10
30.7349030525
 20
-7.17575742
 10
30.8411041257
 20
-4.0391653182
 10
30.9709012119
 20
-0.891071417
  0
LINE
  5
486
100
AcDbEntity
  8
ASSI
100
AcDbLine
 62
250
  6
CONTINUOUS
 10
30.4284320592
 20
-4.0221942568
 11
30.5582971629
 21
-0.8723834107
  0
LINE
  5
487
100
AcDbEntity
  8
RACCORDO
100
AcDbLine
 62
250
  6
CONTINUOUS
 10
30.4284320592
 20
-4.0221942568
 11
30.5582971629
 21
-0.8723834107
  0
LWPOLYLINE
  5
488
100
AcDbEntity
  8
ASSI
100
AcDbPolyline
 62
250
  6
CONTINUOUS
 90
10
 70
0
 10
30.5582970907
 20
-0.872383369
 10
30.6600281766
 20
1.1197014693
 10
30.7868561723
 20
3.1230528758
 10
30.9387565658
 20
5.1372655739
 10
31.1157017148
 20
7.1619271195
 10
31.3176557271
 20
9.1966324492
 10
31.5445748966
 20
11.2409841543
 10
31.7964143442
 20
13.2945731731
 10
32.0731275967
 20
15.3569786838
 10
32.3746617717
 20
17.4277827882
  0
LWPOLYLINE
  5
489
100
AcDbEntity
  8
RACCORDO
100
AcDbPolyline
 62
250
  6
CONTINUOUS
 90
10
 70
0
 10
30.5582970907
 20
-0.872383369
 10
30.6600281766
 20
1.1197014693
 10
30.7868561723
 20
3.1230528758
 10
30.9387565658
 20
5.1372655739
 10
31.1157017148
 20
7.1619271195
 10
31.3176557271
 20
9.1966324492
 10
31.5445748966
 20
11.2409841543
 10
31.7964143442
 20
13.2945731731
 10
32.0731275967
 20
15.3569786838
 10
32.3746617717
 20
17.4277827882
  0
LWPOLYLINE
  5
48A
100
AcDbEntity
  8
ASSI
100
AcDbPolyline
 62
250
  6
CONTINUOUS
 90
10
 70
0
 10
30.9709012119
 20
-0.891071417
 10
31.0725066174
 20
1.0980970299
 10
31.1991104196
 20
3.0977093562
 10
31.3507126184
 20
5.1077655617
 10
31.5273547378
 20
7.1286827019
 10
31.7289952538
 20
9.1600437213
 10
31.9555095945
 20
11.2005974544
 10
32.2068562356
 20
13.2499268458
 10
32.4830767014
 20
15.3084489508
 10
32.7841709917
 20
17.3761637694
  0
LWPOLYLINE
  5
48B
100
AcDbEntity
  8
RACCORDO
100
AcDbPolyline
 62
250
  6
CONTINUOUS
 90
10
 70
0
 10
30.9709012119
 20
-0.891071417
 10
31.0725066174
 20
1.0980970299
 10
31.1991104196
 20
3.0977093562
 10
31.3507126184
 20
5.1077655617
 10
31.5273547378
 20
7.1286827019
 10
31.7289952538
 20
9.1600437213
 10
31.9555095945
 20
11.2005974544
 10
32.2068562356
 20
13.2499268458
 10
32.4830767014
 20
15.3084489508
 10
32.7841709917
 20
17.3761637694
  0
LWPOLYLINE
  5
48C
100
AcDbEntity
  8
ASSI
100
AcDbPolyline
 62
250
  6
CONTINUOUS
 90
28
 70
0
 10
32.3746617717
 20
17.4277827882
 10
32.3793772292
 20
17.4652141589
 10
32.3823816351
 20
17.5032124945
 10
32.3836747535
 20
17.5417777057
 10
32.3832483741
 20
17.5810377411
 10
32.3811102868
 20
17.6208644932
 10
32.3772840619
 20
17.6608737178
 10
32.3717482785
 20
17.7010880333
 10
32.364523534
 20
17.741484515
 10
32.3556960409
 20
17.7816104633
 10
32.3452501426
 20
17.8214447155
 10
32.333200343
 20
17.8610080087
 10
32.3196777827
 20
17.899910378
 10
32.304667748
 20
17.9381451474
 10
32.2881836788
 20
17.9757185247
 10
32.2703987489
 20
18.0122597995
 10
32.2513005363
 20
18.0477569586
 10
32.2309002081
 20
18.0822215553
 10
32.2094062162
 20
18.1153181911
 10
32.1868073314
 20
18.1470329958
 10
32.1631136935
 20
18.1773794415
 10
32.1385657889
 20
18.2060631358
 10
32.1131497974
 20
18.2330702729
 10
32.0868787387
 20
18.2584143667
 10
32.0600334074
 20
18.2818420229
 10
32.032707256
 20
18.3032687238
 10
32.0048064097
 20
18.3227788333
 10
31.976330763
 20
18.340372313
  0
LWPOLYLINE
  5
48D
100
AcDbEntity
  8
RACCORDO
100
AcDbPolyline
 62
250
  6
CONTINUOUS
 90
28
 70
0
 10
32.3746617717
 20
17.4277827882
 10
32.3793772292
 20
17.4652141589
 10
32.3823816351
 20
17.5032124945
 10
32.3836747535
 20
17.5417777057
 10
32.3832483741
 20
17.5810377411
 10
32.3811102868
 20
17.6208644932
 10
32.3772840619
 20
17.6608737178
 10
32.3717482785
 20
17.7010880333
 10
32.364523534
 20
17.741484515
 10
32.3556960409
 20
17.7816104633
 10
32.3452501426
 20
17.8214447155
 10
32.333200343
 20
17.8610080087
 10
32.3196777827
 20
17.899910378
 10
32.304667748
 20
17.9381451474
 10
32.2881836788
 20
17.9757185247
 10
32.2703987489
 20
18.0122597995
 10
32.2513005363
 20
18.0477569586
 10
32.2309002081
 20
18.0822215553
 10
32.2094062162
 20
18.1153181911
 10
32.1868073314
 20
18.1470329958
 10
32.1631136935
 20
18.1773794415
 10
32.1385657889
 20
18.2060631358
 10
32.1131497974
 20
18.2330702729
 10
32.0868787387
 20
18.2584143667
 10
32.0600334074
 20
18.2818420229
 10
32.032707256
 20
18.3032687238
 10
32.0048064097
 20
18.3227788333
 10
31.976330763
 20
18.340372313
  0
LWPOLYLINE
  5
48E
100
AcDbEntity
  8
ASSI
100
AcDbPolyline
 62
250
  6
CONTINUOUS
 90
16
 70
0
 10
31.976330763
 20
18.340372313
 10
31.9805828636
 20
18.3640742937
 10
31.9864546979
 20
18.3881906114
 10
31.9938997252
 20
18.4125301179
 10
32.0028589355
 20
18.4368998959
 10
32.0132613172
 20
18.4611067883
 10
32.0250244201
 20
18.4849589288
 10
32.0380550086
 20
18.5082672631
 10
32.0522498011
 20
18.5308470472
 10
32.0674962882
 20
18.5525193113
 10
32.0836736249
 20
18.5731122793
 10
32.100653588
 20
18.5924627291
 10
32.1183015928
 20
18.6104172872
 10
32.1364777594
 20
18.6268336442
 10
32.1550380217
 20
18.6415816823
 10
32.1738352694
 20
18.6545445073
  0
LWPOLYLINE
  5
48F
100
AcDbEntity
  8
RACCORDO
100
AcDbPolyline
 62
250
  6
CONTINUOUS
 90
16
 70
0
 10
31.976330763
 20
18.340372313
 10
31.9805828636
 20
18.3640742937
 10
31.9864546979
 20
18.3881906114
 10
31.9938997252
 20
18.4125301179
 10
32.0028589355
 20
18.4368998959
 10
32.0132613172
 20
18.4611067883
 10
32.0250244201
 20
18.4849589288
 10
32.0380550086
 20
18.5082672631
 10
32.0522498011
 20
18.5308470472
 10
32.0674962882
 20
18.5525193113
 10
32.0836736249
 20
18.5731122793
 10
32.100653588
 20
18.5924627291
 10
32.1183015928
 20
18.6104172872
 10
32.1364777594
 20
18.6268336442
 10
32.1550380217
 20
18.6415816823
 10
32.1738352694
 20
18.6545445073
  0
LINE
  5
490
100
AcDbEntity
  8
ASSI
100
AcDbLine
 62
7
  6
CONTINUOUS
 10
15.3783888932
 20
-28.5368319739
 11
15.3770881193
 21
-28.5396423908
  0
LINE
  5
491
100
AcDbEntity
  8
RACCORDO
100
AcDbLine
 62
7
  6
CONTINUOUS
 10
15.3783888932
 20
-28.5368319739
 11
15.3770881193
 21
-28.5396423908
  0
LINE
  5
492
100
AcDbEntity
  8
ASSI
100
AcDbLine
 62
7
  6
CONTINUOUS
 10
34.7673311373
 20
-18.8230420945
 11
35.1949609438
 21
-18.6701767762
  0
LINE
  5
493
100
AcDbEntity
  8
DRAFT
100
AcDbLine
 62
7
  6
CONTINUOUS
 10
34.7673311373
 20
-18.8230420945
 11
35.1949609438
 21
-18.6701767762
  0
LWPOLYLINE
  5
494
100
AcDbEntity
  8
ASSI
100
AcDbPolyline
 62
7
  6
CONTINUOUS
 90
8
 70
0
 10
3.126617832
 20
-25.6234980572
 10
3.120493321
 20
-25.6254103752
 10
3.1130601048
 20
-25.6274428082
 10
3.1056188037
 20
-25.6290354512
 10
3.0978187777
 20
-25.629569887
 10
3.0895430654
 20
-25.628840031
 10
3.0809084446
 20
-25.6270520907
 10
3.0719148539
 20
-25.6242061072
  0
LWPOLYLINE
  5
495
100
AcDbEntity
  8
0
100
AcDbPolyline
 62
7
  6
CONTINUOUS
 90
8
 70
0
 10
3.126617832
 20
-25.6234980572
 10
3.120493321
 20
-25.6254103752
 10
3.1130601048
 20
-25.6274428082
 10
3.1056188037
 20
-25.6290354512
 10
3.0978187777
 20
-25.629569887
 10
3.0895430654
 20
-25.628840031
 10
3.0809084446
 20
-25.6270520907
 10
3.0719148539
 20
-25.6242061072
  0
LWPOLYLINE
  5
496
100
AcDbEntity
  8
ASSI
100
AcDbPolyline
 62
250
  6
CONTINUOUS
 90
19
 70
0
 10
32.3746618149
 20
17.4277828041
 10
32.3932582681
 20
17.4175264698
 10
32.4132086499
 20
17.4078921343
 10
32.4343709219
 20
17.3989483902
 10
32.4565944172
 20
17.3907589133
 10
32.4797209138
 20
17.3833820091
 10
32.5035857605
 20
17.3768701983
 10
32.5280190494
 20
17.3712698422
 10
32.5528468255
 20
17.366620813
 10
32.5778923253
 20
17.36295621
 10
32.6029772351
 20
17.3603021235
 10
32.6279229607
 20
17.3586774495
 10
32.6525518987
 20
17.3580937551
 10
32.6766887012
 20
17.3585551959
 10
32.7001615241
 20
17.3600584866
 10
32.7228032506
 20
17.3625929245
 10
32.7444526808
 20
17.3661404652
 10
32.7649556798
 20
17.3706758519
 10
32.7841662746
 20
17.3761667944
  0
LWPOLYLINE
  5
497
100
AcDbEntity
  8
RACCORDO
100
AcDbPolyline
 62
250
  6
CONTINUOUS
 90
19
 70
0
 10
32.3746618149
 20
17.4277828041
 10
32.3932582681
 20
17.4175264698
 10
32.4132086499
 20
17.4078921343
 10
32.4343709219
 20
17.3989483902
 10
32.4565944172
 20
17.3907589133
 10
32.4797209138
 20
17.3833820091
 10
32.5035857605
 20
17.3768701983
 10
32.5280190494
 20
17.3712698422
 10
32.5528468255
 20
17.366620813
 10
32.5778923253
 20
17.36295621
 10
32.6029772351
 20
17.3603021235
 10
32.6279229607
 20
17.3586774495
 10
32.6525518987
 20
17.3580937551
 10
32.6766887012
 20
17.3585551959
 10
32.7001615241
 20
17.3600584866
 10
32.7228032506
 20
17.3625929245
 10
32.7444526808
 20
17.3661404652
 10
32.7649556798
 20
17.3706758519
 10
32.7841662746
 20
17.3761667944
  0
LWPOLYLINE
  5
498
100
AcDbEntity
  8
ASSI
100
AcDbPolyline
 62
250
  6
CONTINUOUS
 90
12
 70
0
 10
-30.6575009088
 20
53.8217635868
 10
-30.6746698914
 20
53.8321574535
 10
-30.6902302428
 20
53.8430262925
 10
-30.7040711771
 20
53.8542927205
 10
-30.7160941501
 20
53.865876523
 10
-30.7262135613
 20
53.8776952263
 10
-30.7343573628
 20
53.8896646841
 10
-30.7404675728
 20
53.9016996766
 10
-30.744500688
 20
53.9137145177
 10
-30.7464279936
 20
53.9256236646
 10
-30.7462357678
 20
53.9373423271
 10
-30.7460316823
 20
53.9390218923
  0
LWPOLYLINE
  5
499
100
AcDbEntity
  8
RACCORDO
100
AcDbPolyline
 62
250
  6
CONTINUOUS
 90
12
 70
0
 10
-30.6575009088
 20
53.8217635868
 10
-30.6746698914
 20
53.8321574535
 10
-30.6902302428
 20
53.8430262925
 10
-30.7040711771
 20
53.8542927205
 10
-30.7160941501
 20
53.865876523
 10
-30.7262135613
 20
53.8776952263
 10
-30.7343573628
 20
53.8896646841
 10
-30.7404675728
 20
53.9016996766
 10
-30.744500688
 20
53.9137145177
 10
-30.7464279936
 20
53.9256236646
 10
-30.7462357678
 20
53.9373423271
 10
-30.7460316823
 20
53.9390218923
  0
LINE
  5
49A
100
AcDbEntity
  8
ASSI
100
AcDbLine
 62
7
  6
CONTINUOUS
 10
34.6292755188
 20
-53.410128501
 11
34.6292755188
 21
18.4414937451
  0
LINE
  5
49B
100
AcDbEntity
  8
RACCORDO
100
AcDbLine
 62
7
  6
CONTINUOUS
 10
34.6292755188
 20
-53.410128501
 11
34.6292755188
 21
18.4414937451
  0
LINE
  5
49C
100
AcDbEntity
  8
ASSI
100
AcDbLine
 62
7
  6
CONTINUOUS
 10
34.7673311373
 20
-14.0531436437
 11
34.7673311373
 21
-19.7684355813
  0
LINE
  5
49D
100
AcDbEntity
  8
DRAFT
100
AcDbLine
 62
7
  6
CONTINUOUS
 10
34.7673311373
 20
-14.0531436437
 11
34.7673311373
 21
-19.7684355813
  0
LINE
  5
49E
100
AcDbEntity
  8
ASSI
100
AcDbLine
 62
7
  6
CONTINUOUS
 10
35.5485143443
 20
19.4587443115
 11
35.5485143344
 21
-12.5831591804
  0
LINE
  5
49F
100
AcDbEntity
  8
DRAFT
100
AcDbLine
 62
7
  6
CONTINUOUS
 10
35.5485143443
 20
19.4587443115
 11
35.5485143344
 21
-12.5831591804
  0
LINE
  5
4A0
100
AcDbEntity
  8
ASSI
100
AcDbLine
 62
7
  6
CONTINUOUS
 10
35.5485143344
 20
-18.8743140729
 11
35.5485143572
 21
-50.9162174329
  0
LINE
  5
4A1
100
AcDbEntity
  8
DRAFT
100
AcDbLine
 62
7
  6
CONTINUOUS
 10
35.5485143344
 20
-18.8743140729
 11
35.5485143572
 21
-50.9162174329
  0
LWPOLYLINE
  5
4A2
100
AcDbEntity
  8
ASSI
100
AcDbPolyline
 62
7
  6
CONTINUOUS
 90
4
 70
0
 10
35.5485143572
 20
-50.9162174329
 10
35.547714462
 20
-50.9432132125
 10
35.5454406066
 20
-50.9684664796
 10
35.5442730746
 20
-50.9770513277
  0
LWPOLYLINE
  5
4A3
100
AcDbEntity
  8
RACCORDO
100
AcDbPolyline
 62
7
  6
CONTINUOUS
 90
4
 70
0
 10
35.5485143572
 20
-50.9162174329
 10
35.547714462
 20
-50.9432132125
 10
35.5454406066
 20
-50.9684664796
 10
35.5442730746
 20
-50.9770513277
  0
LWPOLYLINE
  5
4A4
100
AcDbEntity
  8
ASSI
100
AcDbPolyline
 62
250
  6
CONTINUOUS
 90
28
 70
0
 10
32.7841709917
 20
17.3761637694
 10
32.7878948331
 20
17.4276446562
 10
32.7891714218
 20
17.4802806879
 10
32.7880289152
 20
17.5339004926
 10
32.7845271928
 20
17.5883188591
 10
32.7786870817
 20
17.6433703536
 10
32.770480664
 20
17.698913034
 10
32.7599454896
 20
17.7548143874
 10
32.7471458402
 20
17.8108525402
 10
32.7321027438
 20
17.8667513806
 10
32.7148964429
 20
17.9223059847
 10
32.6956065546
 20
17.9773646002
 10
32.6742679125
 20
18.0317322912
 10
32.6509691599
 20
18.0852345317
 10
32.625811139
 20
18.1377024554
 10
32.5988530717
 20
18.1889536221
 10
32.5701986123
 20
18.2388203651
 10
32.5399598259
 20
18.2871491463
 10
32.5082129473
 20
18.3337839493
 10
32.475066585
 20
18.3785772833
 10
32.4406466455
 20
18.4213834649
 10
32.4050587965
 20
18.4620565357
 10
32.3684275278
 20
18.5004585261
 10
32.3308776588
 20
18.5364734116
 10
32.2925174723
 20
18.5699960261
 10
32.2534682841
 20
18.6009183858
 10
32.2138646206
 20
18.62913297
 10
32.1738352694
 20
18.6545445073
  0
LWPOLYLINE
  5
4A5
100
AcDbEntity
  8
RACCORDO
100
AcDbPolyline
 62
250
  6
CONTINUOUS
 90
28
 70
0
 10
32.7841709917
 20
17.3761637694
 10
32.7878948331
 20
17.4276446562
 10
32.7891714218
 20
17.4802806879
 10
32.7880289152
 20
17.5339004926
 10
32.7845271928
 20
17.5883188591
 10
32.7786870817
 20
17.6433703536
 10
32.770480664
 20
17.698913034
 10
32.7599454896
 20
17.7548143874
 10
32.7471458402
 20
17.8108525402
 10
32.7321027438
 20
17.8667513806
 10
32.7148964429
 20
17.9223059847
 10
32.6956065546
 20
17.9773646002
 10
32.6742679125
 20
18.0317322912
 10
32.6509691599
 20
18.0852345317
 10
32.625811139
 20
18.1377024554
 10
32.5988530717
 20
18.1889536221
 10
32.5701986123
 20
18.2388203651
 10
32.5399598259
 20
18.2871491463
 10
32.5082129473
 20
18.3337839493
 10
32.475066585
 20
18.3785772833
 10
32.4406466455
 20
18.4213834649
 10
32.4050587965
 20
18.4620565357
 10
32.3684275278
 20
18.5004585261
 10
32.3308776588
 20
18.5364734116
 10
32.2925174723
 20
18.5699960261
 10
32.2534682841
 20
18.6009183858
 10
32.2138646206
 20
18.62913297
 10
32.1738352694
 20
18.6545445073
  0
LWPOLYLINE
  5
4A6
100
AcDbEntity
  8
ASSI
100
AcDbPolyline
 62
250
  6
CONTINUOUS
 90
16
 70
0
 10
15.3733164961
 20
-29.1197310315
 10
15.3398973642
 20
-29.1473474869
 10
15.3040436322
 20
-29.1708847918
 10
15.2657528181
 20
-29.19034452
 10
15.2248618691
 20
-29.2057963601
 10
15.1815294033
 20
-29.2171734392
 10
15.1362352968
 20
-29.2242725855
 10
15.0889141654
 20
-29.2270204679
 10
15.0396271707
 20
-29.2254931064
 10
14.9890437395
 20
-29.2197115292
 10
14.9371234787
 20
-29.2095779035
 10
14.8839035449
 20
-29.1951921272
 10
14.8301698212
 20
-29.1768717405
 10
14.7761836897
 20
-29.1547229602
 10
14.7216820838
 20
-29.1286406457
 10
14.6666645876
 20
-29.0986250626
  0
LWPOLYLINE
  5
4A7
100
AcDbEntity
  8
RACCORDO
100
AcDbPolyline
 62
250
  6
CONTINUOUS
 90
16
 70
0
 10
15.3733164961
 20
-29.1197310315
 10
15.3398973642
 20
-29.1473474869
 10
15.3040436322
 20
-29.1708847918
 10
15.2657528181
 20
-29.19034452
 10
15.2248618691
 20
-29.2057963601
 10
15.1815294033
 20
-29.2171734392
 10
15.1362352968
 20
-29.2242725855
 10
15.0889141654
 20
-29.2270204679
 10
15.0396271707
 20
-29.2254931064
 10
14.9890437395
 20
-29.2197115292
 10
14.9371234787
 20
-29.2095779035
 10
14.8839035449
 20
-29.1951921272
 10
14.8301698212
 20
-29.1768717405
 10
14.7761836897
 20
-29.1547229602
 10
14.7216820838
 20
-29.1286406457
 10
14.6666645876
 20
-29.0986250626
  0
LINE
  5
4A8
100
AcDbEntity
  8
ASSI
100
AcDbLine
 62
250
  6
CONTINUOUS
 10
15.0012379114
 20
-28.4760196958
 11
15.3871769946
 21
-28.2038812774
  0
LINE
  5
4A9
100
AcDbEntity
  8
0
100
AcDbLine
 62
250
  6
CONTINUOUS
 10
15.0012379114
 20
-28.4760196958
 11
15.3871769946
 21
-28.2038812774
  0
LINE
  5
4AA
100
AcDbEntity
  8
ASSI
100
AcDbLine
 62
250
  6
CONTINUOUS
 10
15.3810355027
 20
-28.5297614893
 11
15.3581520369
 21
-28.5411753876
  0
LINE
  5
4AB
100
AcDbEntity
  8
RACCORDO
100
AcDbLine
 62
250
  6
CONTINUOUS
 10
15.3810355027
 20
-28.5297614893
 11
15.3581520369
 21
-28.5411753876
  0
LINE
  5
4AC
100
AcDbEntity
  8
ASSI
100
AcDbLine
 62
250
  6
CONTINUOUS
 10
15.3581520369
 20
-28.5411753876
 11
15.3337619742
 21
-28.5500660155
  0
LINE
  5
4AD
100
AcDbEntity
  8
RACCORDO
100
AcDbLine
 62
250
  6
CONTINUOUS
 10
15.3581520369
 20
-28.5411753876
 11
15.3337619742
 21
-28.5500660155
  0
LWPOLYLINE
  5
4AE
100
AcDbEntity
  8
ASSI
100
AcDbPolyline
 62
250
  6
CONTINUOUS
 90
16
 70
0
 10
-29.8792761479
 20
54.4832333315
 10
-29.9208514574
 20
54.5049375288
 10
-29.9625159697
 20
54.5236505099
 10
-30.0041288547
 20
54.5393168016
 10
-30.0455241567
 20
54.5518824244
 10
-30.0865931637
 20
54.5613225744
 10
-30.1272798158
 20
54.5676224435
 10
-30.1674907975
 20
54.5707467716
 10
-30.2070458234
 20
54.5706645248
 10
-30.2457605423
 20
54.5673734739
 10
-30.2834966384
 20
54.5608777411
 10
-30.3201479875
 20
54.5511928415
 10
-30.3555866918
 20
54.538354289
 10
-30.3897056619
 20
54.5223880676
 10
-30.4223907936
 20
54.5033369227
 10
-30.437207481
 20
54.4933454375
  0
LWPOLYLINE
  5
4AF
100
AcDbEntity
  8
RACCORDO
100
AcDbPolyline
 62
250
  6
CONTINUOUS
 90
16
 70
0
 10
-29.8792761479
 20
54.4832333315
 10
-29.9208514574
 20
54.5049375288
 10
-29.9625159697
 20
54.5236505099
 10
-30.0041288547
 20
54.5393168016
 10
-30.0455241567
 20
54.5518824244
 10
-30.0865931637
 20
54.5613225744
 10
-30.1272798158
 20
54.5676224435
 10
-30.1674907975
 20
54.5707467716
 10
-30.2070458234
 20
54.5706645248
 10
-30.2457605423
 20
54.5673734739
 10
-30.2834966384
 20
54.5608777411
 10
-30.3201479875
 20
54.5511928415
 10
-30.3555866918
 20
54.538354289
 10
-30.3897056619
 20
54.5223880676
 10
-30.4223907936
 20
54.5033369227
 10
-30.437207481
 20
54.4933454375
  0
LWPOLYLINE
  5
4B0
100
AcDbEntity
  8
ASSI
100
AcDbPolyline
 62
250
  6
CONTINUOUS
 90
28
 70
0
 10
-30.0767806543
 20
54.1690611372
 10
-30.1055955065
 20
54.1845335318
 10
-30.1344152153
 20
54.1977727555
 10
-30.163239676
 20
54.2087788465
 10
-30.1921525038
 20
54.2175760275
 10
-30.2210696653
 20
54.2241402282
 10
-30.2497394892
 20
54.2283990808
 10
-30.2781819558
 20
54.2303339136
 10
-30.3063762831
 20
54.2299636908
 10
-30.334009607
 20
54.2272725164
 10
-30.3610635077
 20
54.2222359353
 10
-30.3875553199
 20
54.2148787991
 10
-30.4132258308
 20
54.2052591646
 10
-30.4380706962
 20
54.1933553396
 10
-30.4620930036
 20
54.1791894767
 10
-30.4850447887
 20
54.1628853637
 10
-30.506917151
 20
54.144419659
 10
-30.5277177098
 20
54.1238161752
 10
-30.5472234806
 20
54.1012693588
 10
-30.5654213151
 20
54.0767567068
 10
-30.5823232146
 20
54.0503011458
 10
-30.5977442177
 20
54.0221651575
 10
-30.6116699336
 20
53.9923188571
 10
-30.6241138837
 20
53.9607924527
 10
-30.6349333776
 20
53.9279384181
 10
-30.6440808116
 20
53.8938742607
 10
-30.6516034108
 20
53.8584826168
 10
-30.6575009568
 20
53.8217635691
  0
LWPOLYLINE
  5
4B1
100
AcDbEntity
  8
RACCORDO
100
AcDbPolyline
 62
250
  6
CONTINUOUS
 90
28
 70
0
 10
-30.0767806543
 20
54.1690611372
 10
-30.1055955065
 20
54.1845335318
 10
-30.1344152153
 20
54.1977727555
 10
-30.163239676
 20
54.2087788465
 10
-30.1921525038
 20
54.2175760275
 10
-30.2210696653
 20
54.2241402282
 10
-30.2497394892
 20
54.2283990808
 10
-30.2781819558
 20
54.2303339136
 10
-30.3063762831
 20
54.2299636908
 10
-30.334009607
 20
54.2272725164
 10
-30.3610635077
 20
54.2222359353
 10
-30.3875553199
 20
54.2148787991
 10
-30.4132258308
 20
54.2052591646
 10
-30.4380706962
 20
54.1933553396
 10
-30.4620930036
 20
54.1791894767
 10
-30.4850447887
 20
54.1628853637
 10
-30.506917151
 20
54.144419659
 10
-30.5277177098
 20
54.1238161752
 10
-30.5472234806
 20
54.1012693588
 10
-30.5654213151
 20
54.0767567068
 10
-30.5823232146
 20
54.0503011458
 10
-30.5977442177
 20
54.0221651575
 10
-30.6116699336
 20
53.9923188571
 10
-30.6241138837
 20
53.9607924527
 10
-30.6349333776
 20
53.9279384181
 10
-30.6440808116
 20
53.8938742607
 10
-30.6516034108
 20
53.8584826168
 10
-30.6575009568
 20
53.8217635691
  0
LINE
  5
4B2
100
AcDbEntity
  8
ASSI
100
AcDbLine
 62
250
  6
CONTINUOUS
 10
31.976330763
 20
18.340372313
 11
-30.0767806543
 21
54.1690611372
  0
LINE
  5
4B3
100
AcDbEntity
  8
RACCORDO
100
AcDbLine
 62
250
  6
CONTINUOUS
 10
31.976330763
 20
18.340372313
 11
-30.0767806543
 21
54.1690611372
  0
LINE
  5
4B4
100
AcDbEntity
  8
ASSI
100
AcDbLine
 62
250
  6
CONTINUOUS
 10
32.1738352694
 20
18.6545445073
 11
-29.8792761479
 21
54.4832333315
  0
LINE
  5
4B5
100
AcDbEntity
  8
RACCORDO
100
AcDbLine
 62
250
  6
CONTINUOUS
 10
32.1738352694
 20
18.6545445073
 11
-29.8792761479
 21
54.4832333315
  0
LINE
  5
4B6
100
AcDbEntity
  8
ASSI
100
AcDbLine
 62
7
  6
CONTINUOUS
 10
-28.304197072
 20
55.59384341
 11
33.9231378029
 21
19.6645601449
  0
LINE
  5
4B7
100
AcDbEntity
  8
RACCORDO
100
AcDbLine
 62
7
  6
CONTINUOUS
 10
-28.304197072
 20
55.59384341
 11
33.9231378029
 21
19.6645601449
  0
LINE
  5
4B8
100
AcDbEntity
  8
ASSI
100
AcDbLine
 62
7
  6
CONTINUOUS
 10
-25.6848647933
 20
55.1431060992
 11
35.2636035958
 21
19.952224304
  0
LINE
  5
4B9
100
AcDbEntity
  8
RACCORDO
100
AcDbLine
 62
7
  6
CONTINUOUS
 10
-25.6848647933
 20
55.1431060992
 11
35.2636035958
 21
19.952224304
  0
LWPOLYLINE
  5
4BA
100
AcDbEntity
  8
ASSI
100
AcDbPolyline
 62
7
  6
CONTINUOUS
 90
22
 70
0
 10
35.2636035958
 20
19.952224304
 10
35.2879665572
 20
19.9370653461
 10
35.3112637611
 20
19.9209188816
 10
35.3334952076
 20
19.9037849104
 10
35.3546229558
 20
19.8856400805
 10
35.3746849465
 20
19.8665077439
 10
35.3937950024
 20
19.8464579571
 10
35.4119850508
 20
19.8255320112
 10
35.4292231642
 20
19.8036886151
 10
35.4455273827
 20
19.7808739518
 10
35.4609826811
 20
19.7569941376
 10
35.4755040846
 20
19.7321430563
 10
35.4888547084
 20
19.7065485424
 10
35.5010373012
 20
19.6801176454
 10
35.5120491144
 20
19.652943316
 10
35.5216450175
 20
19.6255322408
 10
35.5297611419
 20
19.597992693
 10
35.5364613563
 20
19.5702163995
 10
35.5416921361
 20
19.5423852278
 10
35.54543564
 20
19.5145598005
 10
35.5477097094
 20
19.4866794951
 10
35.5485143443
 20
19.4587443115
  0
LWPOLYLINE
  5
4BB
100
AcDbEntity
  8
RACCORDO
100
AcDbPolyline
 62
7
  6
CONTINUOUS
 90
22
 70
0
 10
35.2636035958
 20
19.952224304
 10
35.2879665572
 20
19.9370653461
 10
35.3112637611
 20
19.9209188816
 10
35.3334952076
 20
19.9037849104
 10
35.3546229558
 20
19.8856400805
 10
35.3746849465
 20
19.8665077439
 10
35.3937950024
 20
19.8464579571
 10
35.4119850508
 20
19.8255320112
 10
35.4292231642
 20
19.8036886151
 10
35.4455273827
 20
19.7808739518
 10
35.4609826811
 20
19.7569941376
 10
35.4755040846
 20
19.7321430563
 10
35.4888547084
 20
19.7065485424
 10
35.5010373012
 20
19.6801176454
 10
35.5120491144
 20
19.652943316
 10
35.5216450175
 20
19.6255322408
 10
35.5297611419
 20
19.597992693
 10
35.5364613563
 20
19.5702163995
 10
35.5416921361
 20
19.5423852278
 10
35.54543564
 20
19.5145598005
 10
35.5477097094
 20
19.4866794951
 10
35.5485143443
 20
19.4587443115
  0
LINE
  5
4BC
100
AcDbEntity
  8
ASSI
100
AcDbLine
 62
250
  6
CONTINUOUS
 10
35.5485143261
 20
-50.9162177409
 11
35.5313833957
 21
-51.0229230706
  0
LINE
  5
4BD
100
AcDbEntity
  8
RACCORDO
100
AcDbLine
 62
250
  6
CONTINUOUS
 10
35.5485143261
 20
-50.9162177409
 11
35.5313833957
 21
-51.0229230706
  0
LWPOLYLINE
  5
4BE
100
AcDbEntity
  8
ASSI
100
AcDbPolyline
 62
7
  6
CONTINUOUS
 90
8
 70
0
 10
-25.7396942662
 20
55.1698760989
 10
-25.8459045012
 20
55.2103585099
 10
-26.0429857366
 20
55.2784784681
 10
-26.2366030664
 20
55.3364161536
 10
-26.4263779943
 20
55.3843818947
 10
-26.6119575816
 20
55.4226356768
 10
-26.7930261083
 20
55.451478752
 10
-26.9692576641
 20
55.471250623
  0
LWPOLYLINE
  5
4BF
100
AcDbEntity
  8
RACCORDO
100
AcDbPolyline
 62
7
  6
CONTINUOUS
 90
8
 70
0
 10
-25.7396942662
 20
55.1698760989
 10
-25.8459045012
 20
55.2103585099
 10
-26.0429857366
 20
55.2784784681
 10
-26.2366030664
 20
55.3364161536
 10
-26.4263779943
 20
55.3843818947
 10
-26.6119575816
 20
55.4226356768
 10
-26.7930261083
 20
55.451478752
 10
-26.9692576641
 20
55.471250623
  0
LINE
  5
4C0
100
AcDbEntity
  8
ASSI
100
AcDbLine
 62
250
  6
CONTINUOUS
 10
-25.782003385
 20
55.1801959863
 11
-25.6848649163
 21
55.1431061545
  0
LINE
  5
4C1
100
AcDbEntity
  8
RACCORDO
100
AcDbLine
 62
250
  6
CONTINUOUS
 10
-25.782003385
 20
55.1801959863
 11
-25.6848649163
 21
55.1431061545
  0
LWPOLYLINE
  5
4C2
100
AcDbEntity
  8
ASSI
100
AcDbPolyline
 62
7
  6
CONTINUOUS
 90
4
 70
0
 10
-25.739692435
 20
55.1698616867
 10
-25.7316521038
 20
55.1665713494
 10
-25.7086444672
 20
55.1559125634
 10
-25.6848647933
 20
55.1431060992
  0
LWPOLYLINE
  5
4C3
100
AcDbEntity
  8
RACCORDO
100
AcDbPolyline
 62
7
  6
CONTINUOUS
 90
4
 70
0
 10
-25.739692435
 20
55.1698616867
 10
-25.7316521038
 20
55.1665713494
 10
-25.7086444672
 20
55.1559125634
 10
-25.6848647933
 20
55.1431060992
  0
LWPOLYLINE
  5
4C4
100
AcDbEntity
  8
ASSI
100
AcDbPolyline
 62
250
  6
CONTINUOUS
 90
12
 70
0
 10
35.5313833957
 20
-51.0229230706
 10
35.5111059049
 20
-51.1327330661
 10
35.4873602011
 20
-51.2455830476
 10
35.4597322242
 20
-51.3619637589
 10
35.4279433765
 20
-51.4812211373
 10
35.391932733
 20
-51.6015674418
 10
35.35123764
 20
-51.7233217518
 10
35.3057200348
 20
-51.8459532591
 10
35.2560854664
 20
-51.9664360552
 10
35.2026142483
 20
-52.0837252727
 10
35.1449276817
 20
-52.1987108473
 10
35.0829593799
 20
-52.3113059715
  0
LWPOLYLINE
  5
4C5
100
AcDbEntity
  8
RACCORDO
100
AcDbPolyline
 62
250
  6
CONTINUOUS
 90
12
 70
0
 10
35.5313833957
 20
-51.0229230706
 10
35.5111059049
 20
-51.1327330661
 10
35.4873602011
 20
-51.2455830476
 10
35.4597322242
 20
-51.3619637589
 10
35.4279433765
 20
-51.4812211373
 10
35.391932733
 20
-51.6015674418
 10
35.35123764
 20
-51.7233217518
 10
35.3057200348
 20
-51.8459532591
 10
35.2560854664
 20
-51.9664360552
 10
35.2026142483
 20
-52.0837252727
 10
35.1449276817
 20
-52.1987108473
 10
35.0829593799
 20
-52.3113059715
  0
LWPOLYLINE
  5
4C6
100
AcDbEntity
  8
ASSI
100
AcDbPolyline
 62
7
  6
CONTINUOUS
 90
9
 70
0
 10
35.1174000049
 20
-52.3409726243
 10
35.1930794852
 20
-52.1871269287
 10
35.2638250122
 20
-52.0244608299
 10
35.3291269117
 20
-51.8530938228
 10
35.3885269019
 20
-51.6731430741
 10
35.4416136537
 20
-51.4847234688
 10
35.4879857632
 20
-51.2880206218
 10
35.5272738394
 20
-51.083253484
 10
35.5442846808
 20
-50.9770601498
  0
LWPOLYLINE
  5
4C7
100
AcDbEntity
  8
RACCORDO
100
AcDbPolyline
 62
7
  6
CONTINUOUS
 90
9
 70
0
 10
35.1174000049
 20
-52.3409726243
 10
35.1930794852
 20
-52.1871269287
 10
35.2638250122
 20
-52.0244608299
 10
35.3291269117
 20
-51.8530938228
 10
35.3885269019
 20
-51.6731430741
 10
35.4416136537
 20
-51.4847234688
 10
35.4879857632
 20
-51.2880206218
 10
35.5272738394
 20
-51.083253484
 10
35.5442846808
 20
-50.9770601498
  0
LINE
  5
4C8
100
AcDbEntity
  8
ASSI
100
AcDbLine
 62
7
  6
CONTINUOUS
 10
35.0700774023
 20
-52.4285922696
 11
35.1174000049
 21
-52.3409726243
  0
LINE
  5
4C9
100
AcDbEntity
  8
RACCORDO
100
AcDbLine
 62
7
  6
CONTINUOUS
 10
35.0700774023
 20
-52.4285922696
 11
35.1174000049
 21
-52.3409726243
  0
LWPOLYLINE
  5
4CA
100
AcDbEntity
  8
ASSI
100
AcDbPolyline
 62
7
  6
CONTINUOUS
 90
8
 70
0
 10
-27.2338449656
 20
55.4849110165
 10
-27.3019076394
 20
55.485190013
 10
-27.4329890879
 20
55.4818489872
 10
-27.5619942687
 20
55.4734288872
 10
-27.6887521368
 20
55.4599993892
 10
-27.813108755
 20
55.4416376526
 10
-27.9349128796
 20
55.418452859
 10
-27.9815323318
 20
55.4075408329
  0
LWPOLYLINE
  5
4CB
100
AcDbEntity
  8
RACCORDO
100
AcDbPolyline
 62
7
  6
CONTINUOUS
 90
8
 70
0
 10
-27.2338449656
 20
55.4849110165
 10
-27.3019076394
 20
55.485190013
 10
-27.4329890879
 20
55.4818489872
 10
-27.5619942687
 20
55.4734288872
 10
-27.6887521368
 20
55.4599993892
 10
-27.813108755
 20
55.4416376526
 10
-27.9349128796
 20
55.418452859
 10
-27.9815323318
 20
55.4075408329
  0
LWPOLYLINE
  5
4CC
100
AcDbEntity
  8
ASSI
100
AcDbPolyline
 62
250
  6
CONTINUOUS
 90
12
 70
0
 10
-27.1257722397
 20
55.437410682
 10
-26.9847134562
 20
55.4341025044
 10
-26.8468986907
 20
55.4253554619
 10
-26.7123046696
 20
55.4115550516
 10
-26.5801921327
 20
55.3928475249
 10
-26.451221814
 20
55.3698118821
 10
-26.3274171663
 20
55.3435710546
 10
-26.2096046771
 20
55.3148214231
 10
-26.096724384
 20
55.2837756763
 10
-25.9879620096
 20
55.2508061561
 10
-25.8830055405
 20
55.2161858815
 10
-25.782003385
 20
55.1801959863
  0
LWPOLYLINE
  5
4CD
100
AcDbEntity
  8
RACCORDO
100
AcDbPolyline
 62
250
  6
CONTINUOUS
 90
12
 70
0
 10
-27.1257722397
 20
55.437410682
 10
-26.9847134562
 20
55.4341025044
 10
-26.8468986907
 20
55.4253554619
 10
-26.7123046696
 20
55.4115550516
 10
-26.5801921327
 20
55.3928475249
 10
-26.451221814
 20
55.3698118821
 10
-26.3274171663
 20
55.3435710546
 10
-26.2096046771
 20
55.3148214231
 10
-26.096724384
 20
55.2837756763
 10
-25.9879620096
 20
55.2508061561
 10
-25.8830055405
 20
55.2161858815
 10
-25.782003385
 20
55.1801959863
  0
LINE
  5
4CE
100
AcDbEntity
  8
ASSI
100
AcDbLine
 62
7
  6
CONTINUOUS
 10
-27.1402942967
 20
55.4823374961
 11
-27.2338110394
 21
55.484910567
  0
LINE
  5
4CF
100
AcDbEntity
  8
RACCORDO
100
AcDbLine
 62
7
  6
CONTINUOUS
 10
-27.1402942967
 20
55.4823374961
 11
-27.2338110394
 21
55.484910567
  0
LINE
  5
4D0
100
AcDbEntity
  8
ASSI
100
AcDbLine
 62
7
  6
CONTINUOUS
 10
-26.9692576641
 20
55.471250623
 11
-27.1402942967
 21
55.4823374961
  0
LINE
  5
4D1
100
AcDbEntity
  8
RACCORDO
100
AcDbLine
 62
7
  6
CONTINUOUS
 10
-26.9692576641
 20
55.471250623
 11
-27.1402942967
 21
55.4823374961
  0
LINE
  5
4D2
100
AcDbEntity
  8
ASSI
100
AcDbLine
 62
250
  6
CONTINUOUS
 10
35.0829593799
 20
-52.3113059715
 11
35.0104480926
 21
-52.4306441814
  0
LINE
  5
4D3
100
AcDbEntity
  8
RACCORDO
100
AcDbLine
 62
250
  6
CONTINUOUS
 10
35.0829593799
 20
-52.3113059715
 11
35.0104480926
 21
-52.4306441814
  0
LWPOLYLINE
  5
4D4
100
AcDbEntity
  8
ASSI
100
AcDbPolyline
 62
250
  6
CONTINUOUS
 90
6
 70
0
 10
35.0104480926
 20
-52.4306441814
 10
34.9337327965
 20
-52.5448922051
 10
34.8529161456
 20
-52.6539823445
 10
34.7684749317
 20
-52.7574896513
 10
34.6801809208
 20
-52.8557241773
 10
34.6292755188
 20
-52.9070046382
  0
LWPOLYLINE
  5
4D5
100
AcDbEntity
  8
RACCORDO
100
AcDbPolyline
 62
250
  6
CONTINUOUS
 90
6
 70
0
 10
35.0104480926
 20
-52.4306441814
 10
34.9337327965
 20
-52.5448922051
 10
34.8529161456
 20
-52.6539823445
 10
34.7684749317
 20
-52.7574896513
 10
34.6801809208
 20
-52.8557241773
 10
34.6292755188
 20
-52.9070046382
  0
LWPOLYLINE
  5
4D6
100
AcDbEntity
  8
ASSI
100
AcDbPolyline
 62
7
  6
CONTINUOUS
 90
8
 70
0
 10
34.6292755188
 20
-53.0374043405
 10
34.6661539411
 20
-52.9979234171
 10
34.7469248268
 20
-52.9038610736
 10
34.8247861442
 20
-52.8052049887
 10
34.8995630492
 20
-52.7020348685
 10
34.9711064965
 20
-52.5944458506
 10
35.0392823408
 20
-52.4825510709
 10
35.0700592635
 20
-52.4286237064
  0
LWPOLYLINE
  5
4D7
100
AcDbEntity
  8
RACCORDO
100
AcDbPolyline
 62
7
  6
CONTINUOUS
 90
8
 70
0
 10
34.6292755188
 20
-53.0374043405
 10
34.6661539411
 20
-52.9979234171
 10
34.7469248268
 20
-52.9038610736
 10
34.8247861442
 20
-52.8052049887
 10
34.8995630492
 20
-52.7020348685
 10
34.9711064965
 20
-52.5944458506
 10
35.0392823408
 20
-52.4825510709
 10
35.0700592635
 20
-52.4286237064
  0
LWPOLYLINE
  5
4D8
100
AcDbEntity
  8
ASSI
100
AcDbPolyline
 62
250
  6
CONTINUOUS
 90
8
 70
0
 10
-27.8691116166
 20
55.3426305209
 10
-27.8459938367
 20
55.3490155997
 10
-27.7492496569
 20
55.3719262246
 10
-27.6504837718
 20
55.3915500461
 10
-27.549803536
 20
55.4077970081
 10
-27.4469623799
 20
55.4205857351
 10
-27.3419191392
 20
55.4298315939
 10
-27.2348348511
 20
55.4354648354
  0
LWPOLYLINE
  5
4D9
100
AcDbEntity
  8
RACCORDO
100
AcDbPolyline
 62
250
  6
CONTINUOUS
 90
8
 70
0
 10
-27.8691116166
 20
55.3426305209
 10
-27.8459938367
 20
55.3490155997
 10
-27.7492496569
 20
55.3719262246
 10
-27.6504837718
 20
55.3915500461
 10
-27.549803536
 20
55.4077970081
 10
-27.4469623799
 20
55.4205857351
 10
-27.3419191392
 20
55.4298315939
 10
-27.2348348511
 20
55.4354648354
  0
LINE
  5
4DA
100
AcDbEntity
  8
ASSI
100
AcDbLine
 62
250
  6
CONTINUOUS
 10
-27.2348348511
 20
55.4354648354
 11
-27.1257722397
 21
55.437410682
  0
LINE
  5
4DB
100
AcDbEntity
  8
RACCORDO
100
AcDbLine
 62
250
  6
CONTINUOUS
 10
-27.2348348511
 20
55.4354648354
 11
-27.1257722397
 21
55.437410682
  0
LWPOLYLINE
  5
4DC
100
AcDbEntity
  8
ASSI
100
AcDbPolyline
 62
250
  6
CONTINUOUS
 90
16
 70
0
 10
32.6169409987
 20
-54.7038441049
 10
32.6255884486
 20
-54.6996446813
 10
32.6507624026
 20
-54.6849303963
 10
32.6740778416
 20
-54.6673702484
 10
32.6954343172
 20
-54.6470233438
 10
32.7147425368
 20
-54.6239564944
 10
32.7319665017
 20
-54.5982225527
 10
32.7470226587
 20
-54.5699074347
 10
32.7598366778
 20
-54.5391091564
 10
32.7703961103
 20
-54.5059140004
 10
32.7786367186
 20
-54.4704415815
 10
32.7845066751
 20
-54.4328152426
 10
32.7880242702
 20
-54.393141884
 10
32.7891718973
 20
-54.35155481
 10
32.7878956047
 20
-54.3082126598
 10
32.7841709917
 20
-54.2632718274
  0
LWPOLYLINE
  5
4DD
100
AcDbEntity
  8
RACCORDO
100
AcDbPolyline
 62
250
  6
CONTINUOUS
 90
16
 70
0
 10
32.6169409987
 20
-54.7038441049
 10
32.6255884486
 20
-54.6996446813
 10
32.6507624026
 20
-54.6849303963
 10
32.6740778416
 20
-54.6673702484
 10
32.6954343172
 20
-54.6470233438
 10
32.7147425368
 20
-54.6239564944
 10
32.7319665017
 20
-54.5982225527
 10
32.7470226587
 20
-54.5699074347
 10
32.7598366778
 20
-54.5391091564
 10
32.7703961103
 20
-54.5059140004
 10
32.7786367186
 20
-54.4704415815
 10
32.7845066751
 20
-54.4328152426
 10
32.7880242702
 20
-54.393141884
 10
32.7891718973
 20
-54.35155481
 10
32.7878956047
 20
-54.3082126598
 10
32.7841709917
 20
-54.2632718274
  0
LINE
  5
4DE
100
AcDbEntity
  8
ASSI
100
AcDbLine
 62
250
  6
CONTINUOUS
 10
32.7841709917
 20
-54.2632718274
 11
34.6292755188
 21
-53.410128501
  0
LINE
  5
4DF
100
AcDbEntity
  8
RACCORDO
100
AcDbLine
 62
250
  6
CONTINUOUS
 10
32.7841709917
 20
-54.2632718274
 11
34.6292755188
 21
-53.410128501
  0
LINE
  5
4E0
100
AcDbEntity
  8
ASSI
100
AcDbLine
 62
7
  6
CONTINUOUS
 10
32.6168832169
 20
-54.7038708259
 11
34.3956110416
 21
-53.8814189
  0
LINE
  5
4E1
100
AcDbEntity
  8
RACCORDO
100
AcDbLine
 62
7
  6
CONTINUOUS
 10
32.6168832169
 20
-54.7038708259
 11
34.3956110416
 21
-53.8814189
  0
ELLIPSE
  5
4E2
100
AcDbEntity
  8
ASSI
100
AcDbEllipse
 62
7
  6
CONTINUOUS
 10
33.9211983425
 20
-52.9990541898
 30
0.0
 11
-0.5013954353
 21
0.868386877
 31
0.0
 40
0.5757524875
 41
-3.1936911674
 42
-2.3576120761
  0
ELLIPSE
  5
4E3
100
AcDbEntity
  8
ASSI
100
AcDbEllipse
 62
7
  6
CONTINUOUS
 10
33.9211983425
 20
18.8480892086
 30
0.0
 11
-0.5000243598
 21
0.8660113392
 31
0.0
 40
0.5789151826
 41
-2.3548735497
 42
-0.7868162787
  0
ELLIPSE
  5
4E4
100
AcDbEntity
  8
ASSI
100
AcDbEllipse
 62
7
  6
CONTINUOUS
 10
117.7120702488
 20
55.2212352151
 30
0.0
 11
114.8996317544
 21
126.3505868295
 31
0.0
 40
0.3765254089
 41
-3.7743605251
 42
-3.7575864559
  0
ELLIPSE
  5
4E5
100
AcDbEntity
  8
ASSI
100
AcDbEllipse
 62
7
  6
CONTINUOUS
 10
111.5213474795
 20
58.7956809541
 30
0.0
 11
34.8790515577
 21
168.2218372011
 31
0.0
 40
0.7002280922
 41
-4.083553027
 42
-4.0720093448
  0
ELLIPSE
  5
4E6
100
AcDbEntity
  8
ASSI
100
AcDbEllipse
 62
7
  6
CONTINUOUS
 10
116.9681367907
 20
55.6507730701
 30
0.0
 11
91.793176838
 21
140.2511436908
 31
0.0
 40
0.5363054271
 41
-3.8203221232
 42
-3.8093664661
  0
ELLIPSE
  5
4E7
100
AcDbEntity
  8
ASSI
100
AcDbEllipse
 62
7
  6
CONTINUOUS
 10
120.8380036204
 20
53.4163604635
 30
0.0
 11
119.630873242
 21
123.5739552196
 31
0.0
 40
0.3382731367
 41
-3.7657029519
 42
-3.7547929514
  0
ELLIPSE
  5
4E8
100
AcDbEntity
  8
ASSI
100
AcDbEllipse
 62
7
  6
CONTINUOUS
 10
116.8979031082
 20
55.6913251182
 30
0.0
 11
70.634700218
 21
152.2499801326
 31
0.0
 40
0.6282888553
 41
-3.9123018102
 42
-3.8955277411
  0
ELLIPSE
  5
4E9
100
AcDbEntity
  8
ASSI
100
AcDbEllipse
 62
7
  6
CONTINUOUS
 10
113.334518629
 20
57.7487786567
 30
0.0
 11
11.1145125674
 21
175.7752122584
 31
0.0
 40
0.7158559188
 41
-4.1973507117
 42
-4.188040463
  0
ELLIPSE
  5
4EA
100
AcDbEntity
  8
ASSI
100
AcDbEllipse
 62
7
  6
CONTINUOUS
 10
121.4759759009
 20
53.0480032644
 30
0.0
 11
112.236268736
 21
127.9318388222
 31
0.0
 40
0.3975597956
 41
-3.7637364601
 42
-3.7603859388
  0
ELLIPSE
  5
4EB
100
AcDbEntity
  8
ASSI
100
AcDbEllipse
 62
7
  6
CONTINUOUS
 10
116.5305624813
 20
55.9034229922
 30
0.0
 11
27.6951435486
 21
170.7397539322
 31
0.0
 40
0.7069483398
 41
-4.1183397783
 42
-4.1015657091
  0
ELLIPSE
  5
4EC
100
AcDbEntity
  8
ASSI
100
AcDbEllipse
 62
7
  6
CONTINUOUS
 10
121.3906108845
 20
53.097291955
 30
0.0
 11
111.5409348807
 21
128.3466174189
 31
0.0
 40
0.4029729773
 41
-3.7734299492
 42
-3.7672052666
  0
ELLIPSE
  5
4ED
100
AcDbEntity
  8
ASSI
100
AcDbEllipse
 62
7
  6
CONTINUOUS
 10
30.4208423225
 20
-12.5727078323
 30
0.0
 11
5.1478346794
 21
0.9575482268
 31
0.0
 40
0.6665647798
 41
-0.7006982462
 42
-0.2750682551
  0
ELLIPSE
  5
4EE
100
AcDbEntity
  8
ASSI
100
AcDbEllipse
 62
7
  6
CONTINUOUS
 10
-14.0188947107
 20
-8.7450805881
 30
0.0
 11
-0.4000194878
 21
0.6928090714
 31
0.0
 40
0.5789151826
 41
0.7867191038
 42
2.3547763749
  0
ELLIPSE
  5
4EF
100
AcDbEntity
  8
ASSI
100
AcDbEllipse
 62
7
  6
CONTINUOUS
 10
-28.3022576116
 20
54.7751328334
 30
0.0
 11
-0.5013954353
 21
0.868386877
 31
0.0
 40
0.5757524875
 41
-0.7840766935
 42
0.0520985859
  0
ELLIPSE
  5
4F0
100
AcDbEntity
  8
ASSI
100
AcDbEllipse
 62
7
  6
CONTINUOUS
 10
116.587379992
 20
55.8706172737
 30
0.0
 11
39.1098980172
 21
166.4730536049
 31
0.0
 40
0.6952787603
 41
-4.0581356351
 42
-4.0519053363
  0
ELLIPSE
  5
4F1
100
AcDbEntity
  8
ASSI
100
AcDbEllipse
 62
7
  6
CONTINUOUS
 10
116.4673851851
 20
55.9399007713
 30
0.0
 11
36.2622945329
 21
167.5495560783
 31
0.0
 40
0.6986691259
 41
-4.0631746043
 42
-4.0598210564
  0
ELLIPSE
  5
4F2
100
AcDbEntity
  8
ASSI
100
AcDbEllipse
 62
7
  6
CONTINUOUS
 10
121.3275752009
 20
53.1336879686
 30
0.0
 11
114.1738075272
 21
126.6060927015
 31
0.0
 40
0.3814884295
 41
-3.7739014683
 42
-3.7580834622
  0
ELLIPSE
  5
4F3
100
AcDbEntity
  8
ASSI
100
AcDbEllipse
 62
7
  6
CONTINUOUS
 10
112.94450493
 20
57.9739676785
 30
0.0
 11
10.3174595334
 21
175.8321184433
 31
0.0
 40
0.7160762854
 41
-4.1951584555
 42
-4.1843514627
  0
ELLIPSE
  5
4F4
100
AcDbEntity
  8
ASSI
100
AcDbEllipse
 62
7
  6
CONTINUOUS
 10
116.7790152457
 20
55.7599694799
 30
0.0
 11
74.7266798953
 21
149.8826902858
 31
0.0
 40
0.6139811386
 41
-3.8877681049
 42
-3.8768482551
  0
ELLIPSE
  5
4F5
100
AcDbEntity
  8
ASSI
100
AcDbEllipse
 62
7
  6
CONTINUOUS
 10
120.4210814758
 20
53.6570860845
 30
0.0
 11
119.0820080186
 21
123.7206245819
 31
0.0
 40
0.3418816387
 41
-3.7706765582
 42
-3.7623289378
  0
ELLIPSE
  5
4F6
100
AcDbEntity
  8
ASSI
100
AcDbEllipse
 62
7
  6
CONTINUOUS
 10
116.7934589343
 20
55.7516298751
 30
0.0
 11
93.9929009386
 21
138.7583599347
 31
0.0
 40
0.5232362147
 41
-3.8175129253
 42
-3.8016949217
  0
ELLIPSE
  5
4F7
100
AcDbEntity
  8
ASSI
100
AcDbEllipse
 62
7
  6
CONTINUOUS
 10
116.9971638862
 20
55.634013189
 30
0.0
 11
111.878972645
 21
127.9702912935
 31
0.0
 40
0.3995644544
 41
-3.7764422127
 42
-3.7658593517
  0
ELLIPSE
  5
4F8
100
AcDbEntity
  8
ASSI
100
AcDbEllipse
 62
7
  6
CONTINUOUS
 10
110.7366622199
 20
59.2487483886
 30
0.0
 11
25.1523857375
 21
171.4190137311
 31
0.0
 40
0.7088651675
 41
-4.1294456824
 42
-4.1136276763
  0
ELLIPSE
  5
4F9
100
AcDbEntity
  8
ASSI
100
AcDbEllipse
 62
7
  6
CONTINUOUS
 10
116.9971638862
 20
55.634013189
 30
0.0
 11
111.9792925869
 21
128.0850400428
 31
0.0
 40
0.3995644544
 41
-3.7774770381
 42
-3.7659333559
  0
ELLIPSE
  5
4FA
100
AcDbEntity
  8
ASSI
100
AcDbEllipse
 62
7
  6
CONTINUOUS
 10
110.7366622199
 20
59.2487483886
 30
0.0
 11
25.1749394473
 21
171.5727221992
 31
0.0
 40
0.7088651675
 41
-4.1304804737
 42
-4.1137064045
  0
ELLIPSE
  5
4FB
100
AcDbEntity
  8
ASSI
100
AcDbEllipse
 62
7
  6
CONTINUOUS
 10
116.7934589343
 20
55.7516298751
 30
0.0
 11
94.077182749
 21
138.8827821588
 31
0.0
 40
0.5232362147
 41
-3.8185477191
 42
-3.8017736499
  0
ELLIPSE
  5
4FC
100
AcDbEntity
  8
ASSI
100
AcDbEllipse
 62
7
  6
CONTINUOUS
 10
112.94450493
 20
57.9739676785
 30
0.0
 11
10.3267110211
 21
175.9897840662
 31
0.0
 40
0.7160762854
 41
-4.1952272933
 42
-4.1842716361
  0
ELLIPSE
  5
4FD
100
AcDbEntity
  8
ASSI
100
AcDbEllipse
 62
7
  6
CONTINUOUS
 10
116.7790152457
 20
55.7599694799
 30
0.0
 11
74.7936860181
 21
150.0170875047
 31
0.0
 40
0.6139811386
 41
-3.8878369839
 42
-3.8769269833
  0
ELLIPSE
  5
4FE
100
AcDbEntity
  8
ASSI
100
AcDbEllipse
 62
7
  6
CONTINUOUS
 10
120.4210814758
 20
53.6570860845
 30
0.0
 11
119.1887867979
 21
123.8315627285
 31
0.0
 40
0.3418816387
 41
-3.7717111746
 42
-3.7624009259
  0
ELLIPSE
  5
4FF
100
AcDbEntity
  8
ASSI
100
AcDbEllipse
 62
7
  6
CONTINUOUS
 10
121.3275752009
 20
53.1336879686
 30
0.0
 11
114.2761852079
 21
126.7196181975
 31
0.0
 40
0.3814884295
 41
-3.7749362596
 42
-3.7581621904
  0
ELLIPSE
  5
500
100
AcDbEntity
  8
ASSI
100
AcDbEllipse
 62
7
  6
CONTINUOUS
 10
116.4673851851
 20
55.9399007713
 30
0.0
 11
36.2948103059
 21
167.6997948705
 31
0.0
 40
0.6986691259
 41
-4.0632503059
 42
-4.0598997846
  0
ELLIPSE
  5
501
100
AcDbEntity
  8
ASSI
100
AcDbEllipse
 62
7
  6
CONTINUOUS
 10
116.587379992
 20
55.8706172737
 30
0.0
 11
39.144967187
 21
166.622327116
 31
0.0
 40
0.6952787603
 41
-4.0582033802
 42
-4.0519786976
  0
ELLIPSE
  5
502
100
AcDbEntity
  8
ASSI
100
AcDbEllipse
 62
7
  6
CONTINUOUS
 10
30.4208423225
 20
-17.9794870032
 30
0.0
 11
5.1774686765
 21
-0.6785096723
 31
0.0
 40
0.4693271057
 41
-0.5159119978
 42
-0.0902820066
  0
ELLIPSE
  5
503
100
AcDbEntity
  8
0
100
AcDbEllipse
 62
250
  6
CONTINUOUS
 10
117.4873036697
 20
78.593706793
 30
0.0
 11
93.7812156846
 21
139.0605475051
 31
0.0
 40
0.5249666948
 41
-3.9768082786
 42
-3.9746674414
  0
ELLIPSE
  5
504
100
AcDbEntity
  8
0
100
AcDbEllipse
 62
250
  6
CONTINUOUS
 10
116.250909163
 20
79.3075854855
 30
0.0
 11
93.7814245244
 21
139.060422114
 31
0.0
 40
0.5249654776
 41
-3.9746667623
 42
-3.9700295996
  0
ELLIPSE
  5
505
100
AcDbEntity
  8
0
100
AcDbEllipse
 62
250
  6
CONTINUOUS
 10
117.3224255555
 20
78.6889053497
 30
0.0
 11
93.7815115889
 21
139.060369839
 31
0.0
 40
0.5249649702
 41
-3.9700293165
 42
-3.967889672
  0
ELLIPSE
  5
506
100
AcDbEntity
  8
0
100
AcDbEllipse
 62
250
  6
CONTINUOUS
 10
116.2509171725
 20
79.3075808609
 30
0.0
 11
93.7813298849
 21
139.0604789373
 31
0.0
 40
0.5249660292
 41
-3.9678902629
 42
-3.962186259
  0
ELLIPSE
  5
507
100
AcDbEntity
  8
0
100
AcDbEllipse
 62
250
  6
CONTINUOUS
 10
117.4872766386
 20
78.5937224004
 30
0.0
 11
93.7815115889
 21
139.060369839
 31
0.0
 40
0.5249649702
 41
-3.9621856681
 42
-3.9600472797
  0
ELLIPSE
  5
508
100
AcDbEntity
  8
0
100
AcDbEllipse
 62
250
  6
CONTINUOUS
 10
116.0036340207
 20
79.4503590536
 30
0.0
 11
93.7814256506
 21
139.0604214378
 31
0.0
 40
0.524965471
 41
-3.9768075958
 42
-3.9600475592
  0
ELLIPSE
  5
509
100
AcDbEntity
  8
0
100
AcDbEllipse
 62
250
  6
CONTINUOUS
 10
114.1078643746
 20
80.5449526876
 30
0.0
 11
93.7813828721
 21
139.0604471228
 31
0.0
 40
0.5249657204
 41
-3.9768077349
 42
-3.9750236747
  0
ELLIPSE
  5
50A
100
AcDbEntity
  8
0
100
AcDbEllipse
 62
250
  6
CONTINUOUS
 10
115.6739383107
 20
79.6407212245
 30
0.0
 11
93.7813828721
 21
139.0604471228
 31
0.0
 40
0.5249657204
 41
-3.9768077349
 42
-3.9750236747
  0
ELLIPSE
  5
50B
100
AcDbEntity
  8
0
100
AcDbEllipse
 62
250
  6
CONTINUOUS
 10
115.014538079
 20
80.021450654
 30
0.0
 11
93.7813884713
 21
139.060443761
 31
0.0
 40
0.5249656877
 41
-3.9750236565
 42
-3.9600476801
  0
ELLIPSE
  5
50C
100
AcDbEntity
  8
0
100
AcDbEllipse
 62
250
  6
CONTINUOUS
 10
114.7672595375
 20
80.1642261847
 30
0.0
 11
93.7814307433
 21
139.0604183801
 31
0.0
 40
0.5249654414
 41
-3.9750235191
 42
-3.9600475426
  0
ELLIPSE
  5
50D
100
AcDbEntity
  8
0
100
AcDbEllipse
 62
250
  6
CONTINUOUS
 10
62.7535649012
 20
110.196281583
 30
0.0
 11
600.9514462195
 21
-191.7993213141
 31
0.0
 40
0.1620323673
 41
-1.631022249
 42
-1.6306654175
  0
ELLIPSE
  5
50E
100
AcDbEntity
  8
0
100
AcDbEllipse
 62
250
  6
CONTINUOUS
 10
163.278095989
 20
52.1546772012
 30
0.0
 11
575.9883410307
 21
-459.7029806262
 31
0.0
 40
0.1731119233
 41
-1.7250518019
 42
-1.7246949703
  0
ELLIPSE
  5
50F
100
AcDbEntity
  8
0
100
AcDbEllipse
 62
250
  6
CONTINUOUS
 10
133.3554191131
 20
69.4316558101
 30
0.0
 11
-230.283473573
 21
258.2516823488
 31
0.0
 40
0.388116916
 41
1.4042956861
 42
1.4050093222
  0
ELLIPSE
  5
510
100
AcDbEntity
  8
0
100
AcDbEllipse
 62
250
  6
CONTINUOUS
 10
123.4638076885
 20
75.1429482757
 30
0.0
 11
-101.7158281359
 21
199.7500508451
 31
0.0
 40
0.6093591253
 41
1.5174569474
 42
1.5188840831
  0
ELLIPSE
  5
511
100
AcDbEntity
  8
0
100
AcDbEllipse
 62
250
  6
CONTINUOUS
 10
115.6823072404
 20
79.6358891093
 30
0.0
 11
68.2785985895
 21
153.4823126798
 31
0.0
 40
0.6356954522
 41
-4.0778745832
 42
-4.0760908998
  0
ELLIPSE
  5
512
100
AcDbEntity
  8
0
100
AcDbEllipse
 62
250
  6
CONTINUOUS
 10
116.7044521267
 20
79.0457154625
 30
0.0
 11
43.5084879569
 21
164.902888116
 31
0.0
 40
0.6893966054
 41
-4.1956584687
 42
-4.1945882917
  0
ELLIPSE
  5
513
100
AcDbEntity
  8
0
100
AcDbEllipse
 62
250
  6
CONTINUOUS
 10
127.9561957601
 20
72.549099706
 30
0.0
 11
-170.0841982385
 21
226.799782346
 31
0.0
 40
0.4795811407
 41
1.4291115819
 42
1.4298250883
  0
ELLIPSE
  5
514
100
AcDbEntity
  8
0
100
AcDbEllipse
 62
250
  6
CONTINUOUS
 10
152.2736613757
 20
58.508499829
 30
0.0
 11
461.0244427499
 21
-392.1335419887
 31
0.0
 40
0.2133863435
 41
-1.7310568387
 42
-1.7307000725
  0
ELLIPSE
  5
515
100
AcDbEntity
  8
0
100
AcDbEllipse
 62
250
  6
CONTINUOUS
 10
73.7578279223
 20
103.8425580304
 30
0.0
 11
488.0738691873
 21
-120.9774792929
 31
0.0
 40
0.1923204037
 41
-1.6838915183
 42
-1.6835347521
  0
ELLIPSE
  5
516
100
AcDbEntity
  8
0
100
AcDbEllipse
 62
250
  6
CONTINUOUS
 10
98.0752246943
 20
89.8019979029
 30
0.0
 11
218.7221939969
 21
64.4788583997
 31
0.0
 40
0.1731833699
 41
-2.1096549856
 42
-2.1089414792
  0
ELLIPSE
  5
517
100
AcDbEntity
  8
0
100
AcDbEllipse
 62
250
  6
CONTINUOUS
 10
106.1122041816
 20
85.1615466739
 30
0.0
 11
146.6647555962
 21
108.3636281683
 31
0.0
 40
0.1263825083
 41
2.3279532215
 42
2.3290233985
  0
ELLIPSE
  5
518
100
AcDbEntity
  8
0
100
AcDbEllipse
 62
250
  6
CONTINUOUS
 10
110.0791542891
 20
82.8710793994
 30
0.0
 11
115.7634381698
 21
125.8404559676
 31
0.0
 40
0.3696139229
 41
-3.9266637322
 42
-3.925236978
  0
ELLIPSE
  5
519
100
AcDbEntity
  8
0
100
AcDbEllipse
 62
250
  6
CONTINUOUS
 10
112.4181515122
 20
81.5205717173
 30
0.0
 11
93.7813932274
 21
139.0604409053
 31
0.0
 40
0.52496566
 41
-3.9710996602
 42
-3.9657507683
  0
ELLIPSE
  5
51A
100
AcDbEntity
  8
0
100
AcDbEllipse
 62
250
  6
CONTINUOUS
 10
114.602553547
 20
80.2593253594
 30
0.0
 11
59.868152393
 21
157.6785405544
 31
0.0
 40
0.6584582487
 41
-4.1087558034
 42
-4.1073298058
  0
ELLIPSE
  5
51B
100
AcDbEntity
  8
0
100
AcDbEllipse
 62
250
  6
CONTINUOUS
 10
118.1746300906
 20
78.1968531317
 30
0.0
 11
-38.3857388891
 21
186.2700464849
 31
0.0
 40
0.7004394024
 41
-4.5580361462
 42
-4.5569667455
  0
ELLIPSE
  5
51C
100
AcDbEntity
  8
0
100
AcDbEllipse
 62
250
  6
CONTINUOUS
 10
125.2156486474
 20
74.1314572617
 30
0.0
 11
-170.0852683798
 21
226.8002976472
 31
0.0
 40
0.4795792654
 41
1.440165599
 42
1.4408784883
  0
ELLIPSE
  5
51D
100
AcDbEntity
  8
0
100
AcDbEllipse
 62
250
  6
CONTINUOUS
 10
146.1328136494
 20
62.0541483432
 30
0.0
 11
461.0224715011
 21
-392.132382677
 31
0.0
 40
0.2133871896
 41
-1.7189325996
 42
-1.7185761718
  0
ELLIPSE
  5
51E
100
AcDbEntity
  8
0
100
AcDbEllipse
 62
250
  6
CONTINUOUS
 10
79.8985277976
 20
100.2969948835
 30
0.0
 11
488.0738691873
 21
-120.9774792929
 31
0.0
 40
0.1923204037
 41
-1.6960155631
 42
-1.6956591353
  0
ELLIPSE
  5
51F
100
AcDbEntity
  8
0
100
AcDbEllipse
 62
250
  6
CONTINUOUS
 10
100.8158489139
 20
88.2195958266
 30
0.0
 11
218.7221939969
 21
64.4788583997
 31
0.0
 40
0.1731833699
 41
-2.1207090962
 42
-2.1199962069
  0
ELLIPSE
  5
520
100
AcDbEntity
  8
0
100
AcDbEllipse
 62
250
  6
CONTINUOUS
 10
110.6732646859
 20
82.5280475022
 30
0.0
 11
122.1032431809
 21
122.1403601987
 31
0.0
 40
0.3180179059
 41
-3.9160145332
 42
-3.9149451326
  0
ELLIPSE
  5
521
100
AcDbEntity
  8
0
100
AcDbEllipse
 62
250
  6
CONTINUOUS
 10
112.0635685925
 20
81.7253034511
 30
0.0
 11
111.8096486368
 21
128.1862343107
 31
0.0
 40
0.4008852251
 41
-3.9225097897
 42
-3.9207274998
  0
ELLIPSE
  5
522
100
AcDbEntity
  8
0
100
AcDbEllipse
 62
250
  6
CONTINUOUS
 10
105.3701367075
 20
85.5900071331
 30
0.0
 11
173.0836582371
 21
93.3733779052
 31
0.0
 40
0.0279358986
 41
-2.2682121589
 42
-2.2667864963
  0
ELLIPSE
  5
523
100
AcDbEntity
  8
0
100
AcDbEllipse
 62
250
  6
CONTINUOUS
 10
97.1682315166
 20
90.3256843964
 30
0.0
 11
269.5162448436
 21
28.7278983642
 31
0.0
 40
0.230445878
 41
-1.9799069989
 42
-1.9791942188
  0
ELLIPSE
  5
524
100
AcDbEntity
  8
0
100
AcDbEllipse
 62
250
  6
CONTINUOUS
 10
72.8092963061
 20
104.3902282978
 30
0.0
 11
600.953393456
 21
-191.800521793
 31
0.0
 40
0.1620319101
 41
-1.6474247936
 42
-1.64706842
  0
ELLIPSE
  5
525
100
AcDbEntity
  8
0
100
AcDbEllipse
 62
250
  6
CONTINUOUS
 10
153.2220489239
 20
57.9609127447
 30
0.0
 11
575.9863670803
 21
-459.7018216395
 31
0.0
 40
0.173112487
 41
-1.708648271
 42
-1.7082918974
  0
ELLIPSE
  5
526
100
AcDbEntity
  8
0
100
AcDbEllipse
 62
250
  6
CONTINUOUS
 10
128.8632652138
 20
72.0253691717
 30
0.0
 11
-230.283473573
 21
258.2516823488
 31
0.0
 40
0.388116916
 41
1.4196297375
 42
1.4203425176
  0
ELLIPSE
  5
527
100
AcDbEntity
  8
0
100
AcDbEllipse
 62
250
  6
CONTINUOUS
 10
120.6613186856
 20
76.7610703025
 30
0.0
 11
-101.7151532253
 21
199.749854478
 31
0.0
 40
0.6093603887
 41
1.5306531618
 42
1.5320788243
  0
ELLIPSE
  5
528
100
AcDbEntity
  8
0
100
AcDbEllipse
 62
250
  6
CONTINUOUS
 10
116.4779086538
 20
79.1765188244
 30
0.0
 11
3.2071651049
 21
177.8377483001
 31
0.0
 40
0.7173128606
 41
-4.3786052693
 42
-4.3771794536
  0
ELLIPSE
  5
529
100
AcDbEntity
  8
0
100
AcDbEllipse
 62
250
  6
CONTINUOUS
 10
113.9184464662
 20
80.654320214
 30
0.0
 11
68.2779962659
 21
153.4826246162
 31
0.0
 40
0.6356972842
 41
-4.0693180253
 42
-4.0675355534
  0
ELLIPSE
  5
52A
100
AcDbEntity
  8
0
100
AcDbEllipse
 62
250
  6
CONTINUOUS
 10
112.1708662763
 20
81.6633511133
 30
0.0
 11
93.7815115889
 21
139.060369839
 31
0.0
 40
0.5249649702
 41
-3.9710992753
 42
-3.9657503834
  0
ELLIPSE
  5
52B
100
AcDbEntity
  8
0
100
AcDbEllipse
 62
250
  6
CONTINUOUS
 10
110.2997050504
 20
82.7437361539
 30
0.0
 11
111.809372219
 21
128.1863992339
 31
0.0
 40
0.4008873755
 41
-3.9310685038
 42
-3.9292850305
  0
ELLIPSE
  5
52C
100
AcDbEntity
  8
0
100
AcDbEllipse
 62
250
  6
CONTINUOUS
 10
107.4310884878
 20
84.400039405
 30
0.0
 11
134.3545797076
 21
115.1945301141
 31
0.0
 40
0.2185155878
 41
2.3489917782
 42
2.3504187425
  0
ELLIPSE
  5
52D
100
AcDbEntity
  8
0
100
AcDbEllipse
 62
250
  6
CONTINUOUS
 10
102.5676889099
 20
87.2081053686
 30
0.0
 11
173.0836582371
 21
93.3733779052
 31
0.0
 40
0.0279358986
 41
-2.2550188794
 42
-2.2535917436
  0
ELLIPSE
  5
52E
100
AcDbEntity
  8
0
100
AcDbEllipse
 62
250
  6
CONTINUOUS
 10
92.6760000508
 20
92.9194425439
 30
0.0
 11
269.517141936
 21
28.7272518037
 31
0.0
 40
0.2304463284
 41
-1.9645715973
 42
-1.9638579612
  0
ELLIPSE
  5
52F
100
AcDbEntity
  8
0
100
AcDbEllipse
 62
250
  6
CONTINUOUS
 10
114.3004152818
 20
80.4337762071
 30
0.0
 11
43.5079433679
 21
164.9031080549
 31
0.0
 40
0.6893973944
 41
-4.1974449634
 42
-4.1878152968
  0
ELLIPSE
  5
530
100
AcDbEntity
  8
0
100
AcDbEllipse
 62
250
  6
CONTINUOUS
 10
107.7334356824
 20
84.2254679241
 30
0.0
 11
122.1032906666
 21
122.1403327789
 31
0.0
 40
0.318017516
 41
-3.9270701973
 42
-3.9174405307
  0
ELLIPSE
  5
531
100
AcDbEntity
  8
0
100
AcDbEllipse
 62
250
  6
CONTINUOUS
 10
114.5912441359
 20
80.2658552716
 30
0.0
 11
41.9779527662
 21
165.515720652
 31
0.0
 40
0.691558876
 41
-4.2063210484
 42
-4.1895610118
  0
ELLIPSE
  5
532
100
AcDbEntity
  8
0
100
AcDbEllipse
 62
250
  6
CONTINUOUS
 10
114.286668422
 20
80.4417134716
 30
0.0
 11
43.5081816259
 21
164.9030118317
 31
0.0
 40
0.6893970492
 41
-4.1863881393
 42
-4.1821110332
  0
ELLIPSE
  5
533
100
AcDbEntity
  8
0
100
AcDbEllipse
 62
250
  6
CONTINUOUS
 10
107.7471667861
 20
84.2175397569
 30
0.0
 11
122.1033500238
 21
122.1402985041
 31
0.0
 40
0.3180170286
 41
-3.9160145329
 42
-3.9117374269
  0
ELLIPSE
  5
534
100
AcDbEntity
  8
0
100
AcDbEllipse
 62
250
  6
CONTINUOUS
 10
107.4426051975
 20
84.3933898011
 30
0.0
 11
122.6326329822
 21
121.8349435996
 31
0.0
 40
0.3136701383
 41
-3.9285124884
 42
-3.9117524518
  0
ELLIPSE
  5
535
100
AcDbEntity
  8
0
100
AcDbEllipse
 62
250
  6
CONTINUOUS
 10
136.1994846898
 20
67.7895279907
 30
0.0
 11
346.116982495
 21
-324.6682229078
 31
0.0
 40
0.2767051061
 41
-1.7315283578
 42
-1.7311717911
  0
ELLIPSE
  5
536
100
AcDbEntity
  8
0
100
AcDbEllipse
 62
250
  6
CONTINUOUS
 10
118.3946654996
 20
78.0698074443
 30
0.0
 11
-101.7157550301
 21
199.7500295746
 31
0.0
 40
0.6093592621
 41
1.5260174196
 42
1.5267305116
  0
ELLIPSE
  5
537
100
AcDbEntity
  8
0
100
AcDbEllipse
 62
250
  6
CONTINUOUS
 10
112.5145185845
 20
81.4649305775
 30
0.0
 11
43.5084879569
 21
164.902888116
 31
0.0
 40
0.6893966054
 41
-4.188525705
 42
-4.1874561335
  0
ELLIPSE
  5
538
100
AcDbEntity
  8
0
100
AcDbEllipse
 62
250
  6
CONTINUOUS
 10
109.6157422697
 20
83.1386476915
 30
0.0
 11
93.7809197788
 21
139.0607251721
 31
0.0
 40
0.5249684194
 41
-3.9653957958
 42
-3.9643263104
  0
ELLIPSE
  5
539
100
AcDbEntity
  8
0
100
AcDbEllipse
 62
250
  6
CONTINUOUS
 10
106.7580794923
 20
84.7886263642
 30
0.0
 11
122.1032431809
 21
122.1403601987
 31
0.0
 40
0.3180179059
 41
-3.9160145332
 42
-3.9149451326
  0
ELLIPSE
  5
53A
100
AcDbEntity
  8
0
100
AcDbEllipse
 62
250
  6
CONTINUOUS
 10
101.1252540556
 20
88.0409491755
 30
0.0
 11
173.0836342077
 21
93.373392027
 31
0.0
 40
0.0279357855
 41
-2.2667865707
 42
-2.2660736814
  0
ELLIPSE
  5
53B
100
AcDbEntity
  8
0
100
AcDbEllipse
 62
250
  6
CONTINUOUS
 10
84.3913812519
 20
97.7028776077
 30
0.0
 11
377.0485461051
 21
-47.5525496774
 31
0.0
 40
0.2269613516
 41
-1.7895681591
 42
-1.7892117313
  0
ELLIPSE
  5
53C
100
AcDbEntity
  8
0
100
AcDbEllipse
 62
250
  6
CONTINUOUS
 10
108.585390907
 20
83.7335596549
 30
0.0
 11
93.7813932274
 21
139.0604409053
 31
0.0
 40
0.52496566
 41
-3.9675334864
 42
-3.962186053
  0
ELLIPSE
  5
53D
100
AcDbEntity
  8
0
100
AcDbEllipse
 62
250
  6
CONTINUOUS
 10
108.5853950385
 20
83.7335572695
 30
0.0
 11
93.7813498975
 21
139.0604669213
 31
0.0
 40
0.5249659126
 41
-3.974667005
 42
-3.9696732118
  0
ELLIPSE
  5
53E
100
AcDbEntity
  8
0
100
AcDbEllipse
 62
250
  6
CONTINUOUS
 10
81.7949705874
 20
99.2020125847
 30
0.0
 11
377.0485461051
 21
-47.5525496774
 31
0.0
 40
0.2269613516
 41
-1.7820811413
 42
-1.7817245107
  0
ELLIPSE
  5
53F
100
AcDbEntity
  8
0
100
AcDbEllipse
 62
250
  6
CONTINUOUS
 10
100.2597926435
 20
88.540655748
 30
0.0
 11
173.0836342077
 21
93.373392027
 31
0.0
 40
0.0279357855
 41
-2.2592993501
 42
-2.2585860525
  0
ELLIPSE
  5
540
100
AcDbEntity
  8
0
100
AcDbEllipse
 62
250
  6
CONTINUOUS
 10
106.4695706051
 20
84.9552077798
 30
0.0
 11
122.103420061
 21
122.1402580623
 31
0.0
 40
0.3180164536
 41
-3.9235027755
 42
-3.9224327611
  0
ELLIPSE
  5
541
100
AcDbEntity
  8
0
100
AcDbEllipse
 62
250
  6
CONTINUOUS
 10
109.6157219456
 20
83.1386594264
 30
0.0
 11
93.7811897969
 21
139.0605630485
 31
0.0
 40
0.5249668457
 41
-3.9725270759
 42
-3.9718136751
  0
ELLIPSE
  5
542
100
AcDbEntity
  8
0
100
AcDbEllipse
 62
250
  6
CONTINUOUS
 10
112.7893213842
 20
81.3062628851
 30
0.0
 11
43.5072626278
 21
164.9033829783
 31
0.0
 40
0.6893983807
 41
-4.1956644338
 42
-4.1945942568
  0
ELLIPSE
  5
543
100
AcDbEntity
  8
0
100
AcDbEllipse
 62
250
  6
CONTINUOUS
 10
119.2188430124
 20
77.5939376778
 30
0.0
 11
-101.7145514237
 21
199.7496793835
 31
0.0
 40
0.6093615153
 41
1.5188868481
 42
1.5196003545
  0
ELLIPSE
  5
544
100
AcDbEntity
  8
0
100
AcDbEllipse
 62
250
  6
CONTINUOUS
 10
138.6726808807
 20
66.3615355064
 30
0.0
 11
346.1226067412
 21
-324.6715108661
 31
0.0
 40
0.2767011407
 41
-1.7386614606
 42
-1.7383046943
  0
ELLIPSE
  5
545
100
AcDbEntity
  8
0
100
AcDbEllipse
 62
250
  6
CONTINUOUS
 10
159.4039519674
 20
54.3915594048
 30
0.0
 11
575.9863670803
 21
-459.7018216395
 31
0.0
 40
0.173112487
 41
-1.725051934
 42
-1.7246951025
  0
ELLIPSE
  5
546
100
AcDbEntity
  8
0
100
AcDbEllipse
 62
250
  6
CONTINUOUS
 10
122.83206963
 20
75.5077059131
 30
0.0
 11
-148.857799135
 21
217.0409448996
 31
0.0
 40
0.5183102665
 41
1.44440288
 42
1.4454733149
  0
ELLIPSE
  5
547
100
AcDbEntity
  8
0
100
AcDbEllipse
 62
250
  6
CONTINUOUS
 10
117.0859857289
 20
78.8254227423
 30
0.0
 11
-56.7378376742
 21
189.5072070011
 31
0.0
 40
0.681169693
 41
-4.6373949057
 42
-4.635967807
  0
ELLIPSE
  5
548
100
AcDbEntity
  8
0
100
AcDbEllipse
 62
250
  6
CONTINUOUS
 10
113.0502923151
 20
81.1555815403
 30
0.0
 11
43.5081952279
 21
164.9030063383
 31
0.0
 40
0.6893970295
 41
-4.1960166386
 42
-4.1949464359
  0
ELLIPSE
  5
549
100
AcDbEntity
  8
0
100
AcDbEllipse
 62
250
  6
CONTINUOUS
 10
109.8629557875
 20
82.9959097046
 30
0.0
 11
93.7816336518
 21
139.0602965502
 31
0.0
 40
0.5249642588
 41
-3.9728823516
 42
-3.9714555498
  0
ELLIPSE
  5
54A
100
AcDbEntity
  8
0
100
AcDbEllipse
 62
250
  6
CONTINUOUS
 10
106.730604582
 20
84.8044900331
 30
0.0
 11
122.1032431809
 21
122.1403601987
 31
0.0
 40
0.3180179059
 41
-3.9231460942
 42
-3.9220761047
  0
ELLIPSE
  5
54B
100
AcDbEntity
  8
0
100
AcDbEllipse
 62
250
  6
CONTINUOUS
 10
102.8666429432
 20
87.0354930565
 30
0.0
 11
152.9957110199
 21
104.8453546306
 31
0.0
 40
0.0837733809
 41
2.3162360592
 42
2.3176625673
  0
ELLIPSE
  5
54C
100
AcDbEntity
  8
0
100
AcDbEllipse
 62
250
  6
CONTINUOUS
 10
91.4807567877
 20
93.6095610241
 30
0.0
 11
269.5180801439
 21
28.72657561
 31
0.0
 40
0.2304467995
 41
-1.9717032899
 42
-1.9713466896
  0
ELLIPSE
  5
54D
100
AcDbEntity
  8
0
100
AcDbEllipse
 62
250
  6
CONTINUOUS
 10
127.7503800064
 20
72.6679351427
 30
0.0
 11
-230.2815859862
 21
258.2506410183
 31
0.0
 40
0.3881193532
 41
1.4121436517
 42
1.4125002481
  0
ELLIPSE
  5
54E
100
AcDbEntity
  8
0
100
AcDbEllipse
 62
250
  6
CONTINUOUS
 10
116.467783912
 20
79.1823647235
 30
0.0
 11
-56.7375218097
 21
189.5071495856
 31
0.0
 40
0.6811700822
 41
-4.6302600041
 42
-4.6288337355
  0
ELLIPSE
  5
54F
100
AcDbEntity
  8
0
100
AcDbEllipse
 62
250
  6
CONTINUOUS
 10
112.7755814129
 20
81.3141961723
 30
0.0
 11
43.5072626278
 21
164.9033829783
 31
0.0
 40
0.6893983807
 41
-4.1888882112
 42
-4.1878186107
  0
ELLIPSE
  5
550
100
AcDbEntity
  8
0
100
AcDbEllipse
 62
250
  6
CONTINUOUS
 10
109.862976276
 20
82.9958978748
 30
0.0
 11
93.781413938
 21
139.0604284703
 31
0.0
 40
0.5249655393
 41
-3.965750701
 42
-3.9639682291
  0
ELLIPSE
  5
551
100
AcDbEntity
  8
0
100
AcDbEllipse
 62
250
  6
CONTINUOUS
 10
107.019043041
 20
84.6379492818
 30
0.0
 11
122.103670552
 21
122.1401134207
 31
0.0
 40
0.3180143969
 41
-3.9156580578
 42
-3.9145886852
  0
ELLIPSE
  5
552
100
AcDbEntity
  8
0
100
AcDbEllipse
 62
250
  6
CONTINUOUS
 10
103.5157687607
 20
86.660695945
 30
0.0
 11
152.9954398537
 21
104.8455059189
 31
0.0
 40
0.0837751299
 41
2.3237241592
 42
2.3251498642
  0
ELLIPSE
  5
553
100
AcDbEntity
  8
0
100
AcDbEllipse
 62
250
  6
CONTINUOUS
 10
98.7072141938
 20
89.4370950865
 30
0.0
 11
202.7646449178
 21
75.0424444824
 31
0.0
 40
0.1361336765
 41
-2.1736455873
 42
-2.1725764067
  0
ELLIPSE
  5
554
100
AcDbEntity
  8
0
100
AcDbEllipse
 62
250
  6
CONTINUOUS
 10
68.9354620224
 20
106.6269316626
 30
0.0
 11
600.9514462195
 21
-191.7993213141
 31
0.0
 40
0.1620323673
 41
-1.6474254541
 42
-1.6470690805
  0
ELLIPSE
  5
555
100
AcDbEntity
  8
0
100
AcDbEllipse
 62
250
  6
CONTINUOUS
 10
108.3381135587
 20
83.8763344968
 30
0.0
 11
93.7814256506
 21
139.0604214378
 31
0.0
 40
0.524965471
 41
-3.9768075958
 42
-3.9600475592
  0
ELLIPSE
  5
556
100
AcDbEntity
  8
0
100
AcDbEllipse
 62
250
  6
CONTINUOUS
 10
109.8644696244
 20
82.9950356341
 30
0.0
 11
-22.3413290313
 21
183.3614793488
 31
0.0
 40
0.7115375175
 41
-4.5048370306
 42
-4.488076994
  0
ELLIPSE
  5
557
100
AcDbEntity
  8
0
100
AcDbEllipse
 62
250
  6
CONTINUOUS
 10
100.6974640794
 20
88.2879497463
 30
0.0
 11
112.006102841
 21
128.0690516521
 31
0.0
 40
0.3993555306
 41
-3.9347454556
 42
-3.917985419
  0
ELLIPSE
  5
558
100
AcDbEntity
  8
0
100
AcDbEllipse
 62
250
  6
CONTINUOUS
 10
106.5422679673
 20
84.913233234
 30
0.0
 11
32.8018561849
 21
168.9721845822
 31
0.0
 40
0.7023711659
 41
-4.2509361663
 42
-4.2341761297
  0
ELLIPSE
  5
559
100
AcDbEntity
  8
0
100
AcDbEllipse
 62
250
  6
CONTINUOUS
 10
122.5152069305
 20
75.6906584646
 30
0.0
 11
93.7814130743
 21
139.0604289889
 31
0.0
 40
0.5249655443
 41
-3.9768076367
 42
-3.9621859884
  0
ELLIPSE
  5
55A
100
AcDbEntity
  8
0
100
AcDbEllipse
 62
250
  6
CONTINUOUS
 10
123.7515730898
 20
74.9767961395
 30
0.0
 11
93.7815115889
 21
139.060369839
 31
0.0
 40
0.5249649702
 41
-3.9621856681
 42
-3.9600472797
  0
ELLIPSE
  5
55B
100
AcDbEntity
  8
0
100
AcDbEllipse
 62
250
  6
CONTINUOUS
 10
122.2679304719
 20
75.8334327927
 30
0.0
 11
93.7814256506
 21
139.0604214378
 31
0.0
 40
0.524965471
 41
-3.9768075958
 42
-3.9600475592
  0
ELLIPSE
  5
55C
100
AcDbEntity
  8
0
100
AcDbEllipse
 62
250
  6
CONTINUOUS
 10
124.397466765
 20
74.6038652264
 30
0.0
 11
43.5080795154
 21
164.9030530702
 31
0.0
 40
0.6893971972
 41
-4.1974443006
 42
-4.187814634
  0
ELLIPSE
  5
55D
100
AcDbEntity
  8
0
100
AcDbEllipse
 62
250
  6
CONTINUOUS
 10
117.8304934253
 20
78.3955533293
 30
0.0
 11
122.1032906666
 21
122.1403327789
 31
0.0
 40
0.318017516
 41
-3.9270701973
 42
-3.9174405307
  0
ELLIPSE
  5
55E
100
AcDbEntity
  8
0
100
AcDbEllipse
 62
250
  6
CONTINUOUS
 10
124.6883041207
 20
74.4359393823
 30
0.0
 11
41.977873471
 21
165.5157521285
 31
0.0
 40
0.6915589852
 41
-4.2063214345
 42
-4.1895613978
  0
ELLIPSE
  5
55F
100
AcDbEntity
  8
0
100
AcDbEllipse
 62
250
  6
CONTINUOUS
 10
124.3837370081
 20
74.611792616
 30
0.0
 11
43.5078752941
 21
164.9031355473
 31
0.0
 40
0.6893974931
 41
-4.1863896306
 42
-4.1821125245
  0
ELLIPSE
  5
560
100
AcDbEntity
  8
0
100
AcDbEllipse
 62
250
  6
CONTINUOUS
 10
117.8442238219
 20
78.3876255703
 30
0.0
 11
122.1033500238
 21
122.1402985041
 31
0.0
 40
0.3180170286
 41
-3.9160145329
 42
-3.9117374269
  0
ELLIPSE
  5
561
100
AcDbEntity
  8
0
100
AcDbEllipse
 62
250
  6
CONTINUOUS
 10
117.5396622333
 20
78.5634756146
 30
0.0
 11
122.6326329822
 21
121.8349435996
 31
0.0
 40
0.3136701383
 41
-3.9285124884
 42
-3.9117524518
  0
ELLIPSE
  5
562
100
AcDbEntity
  8
0
100
AcDbEllipse
 62
250
  6
CONTINUOUS
 10
119.9600322259
 20
77.1659843152
 30
0.0
 11
93.7814256506
 21
139.0604214378
 31
0.0
 40
0.524965471
 41
-3.9768075958
 42
-3.9600475592
  0
ELLIPSE
  5
563
100
AcDbEntity
  8
0
100
AcDbEllipse
 62
250
  6
CONTINUOUS
 10
119.7127576916
 20
77.3087575322
 30
0.0
 11
93.7814256506
 21
139.0604214378
 31
0.0
 40
0.524965471
 41
-3.9768075958
 42
-3.9600475592
  0
ELLIPSE
  5
564
100
AcDbEntity
  8
0
100
AcDbEllipse
 62
250
  6
CONTINUOUS
 10
117.8169831981
 20
78.4033539651
 30
0.0
 11
93.7814256506
 21
139.0604214378
 31
0.0
 40
0.524965471
 41
-3.9768075958
 42
-3.9600475592
  0
ELLIPSE
  5
565
100
AcDbEntity
  8
0
100
AcDbEllipse
 62
250
  6
CONTINUOUS
 10
118.0642576235
 20
78.260580811
 30
0.0
 11
93.781427045
 21
139.0604206006
 31
0.0
 40
0.5249654629
 41
-3.9675333764
 42
-3.9600475546
  0
ELLIPSE
  5
566
100
AcDbEntity
  8
0
100
AcDbEllipse
 62
250
  6
CONTINUOUS
 10
122.1720285632
 20
75.8888053528
 30
0.0
 11
32.8464080978
 21
168.9562840178
 31
0.0
 40
0.7023269622
 41
-4.241445895
 42
-4.2339600732
  0
ELLIPSE
  5
567
100
AcDbEntity
  8
0
100
AcDbEllipse
 62
250
  6
CONTINUOUS
 10
122.5441438115
 20
75.6739506722
 30
0.0
 11
30.4147628249
 21
169.8119089774
 31
0.0
 40
0.7046298028
 41
-4.2539391307
 42
-4.245740158
  0
ELLIPSE
  5
568
100
AcDbEntity
  8
0
100
AcDbEllipse
 62
250
  6
CONTINUOUS
 10
100.9598644311
 20
88.1364430718
 30
0.0
 11
269.5153477517
 21
28.728544924
 31
0.0
 40
0.2304454275
 41
-1.9720666059
 42
-1.9713534092
  0
ELLIPSE
  5
569
100
AcDbEntity
  8
0
100
AcDbEllipse
 62
250
  6
CONTINUOUS
 10
112.345473512
 20
81.5625350838
 30
0.0
 11
152.9960409622
 21
104.8451705499
 31
0.0
 40
0.0837712528
 41
2.3162352298
 42
2.3176617379
  0
ELLIPSE
  5
56A
100
AcDbEntity
  8
0
100
AcDbEllipse
 62
250
  6
CONTINUOUS
 10
116.2094749285
 20
79.3315090931
 30
0.0
 11
122.1032431809
 21
122.1403601987
 31
0.0
 40
0.3180179059
 41
-3.9231460942
 42
-3.9220761047
  0
ELLIPSE
  5
56B
100
AcDbEntity
  8
0
100
AcDbEllipse
 62
250
  6
CONTINUOUS
 10
119.341826134
 20
77.5229287647
 30
0.0
 11
93.7816336518
 21
139.0602965502
 31
0.0
 40
0.5249642588
 41
-3.9728823516
 42
-3.9714555498
  0
ELLIPSE
  5
56C
100
AcDbEntity
  8
0
100
AcDbEllipse
 62
250
  6
CONTINUOUS
 10
122.5292173488
 20
75.6825690247
 30
0.0
 11
43.5069698887
 21
164.9035012031
 31
0.0
 40
0.6893988048
 41
-4.1960226038
 42
-4.194952401
  0
ELLIPSE
  5
56D
100
AcDbEntity
  8
0
100
AcDbEllipse
 62
250
  6
CONTINUOUS
 10
126.5648553683
 20
73.3524422106
 30
0.0
 11
-56.7378376742
 21
189.5072070011
 31
0.0
 40
0.681169693
 41
-4.6373949057
 42
-4.635967807
  0
ELLIPSE
  5
56E
100
AcDbEntity
  8
0
100
AcDbEllipse
 62
250
  6
CONTINUOUS
 10
132.3108829326
 20
70.0347579096
 30
0.0
 11
-148.8570529486
 21
217.0406198145
 31
0.0
 40
0.5183116761
 41
1.4444036242
 42
1.445474059
  0
ELLIPSE
  5
56F
100
AcDbEntity
  8
0
100
AcDbEllipse
 62
250
  6
CONTINUOUS
 10
168.8829934464
 20
48.9184796552
 30
0.0
 11
575.9883410307
 21
-459.7029806262
 31
0.0
 40
0.1731119233
 41
-1.7250518019
 42
-1.7246949703
  0
ELLIPSE
  5
570
100
AcDbEntity
  8
0
100
AcDbEllipse
 62
250
  6
CONTINUOUS
 10
91.2739986313
 20
93.7289405922
 30
0.0
 11
377.0466644618
 21
-47.5512593942
 31
0.0
 40
0.2269618914
 41
-1.7820833616
 42
-1.7817267311
  0
ELLIPSE
  5
571
100
AcDbEntity
  8
0
100
AcDbEllipse
 62
250
  6
CONTINUOUS
 10
109.7386622829
 20
83.0676752164
 30
0.0
 11
173.0836342077
 21
93.373392027
 31
0.0
 40
0.0279357855
 41
-2.2592993501
 42
-2.2585860525
  0
ELLIPSE
  5
572
100
AcDbEntity
  8
0
100
AcDbEllipse
 62
250
  6
CONTINUOUS
 10
115.9484402445
 20
79.4822272482
 30
0.0
 11
122.103420061
 21
122.1402580623
 31
0.0
 40
0.3180164536
 41
-3.9235027755
 42
-3.9224327611
  0
ELLIPSE
  5
573
100
AcDbEntity
  8
0
100
AcDbEllipse
 62
250
  6
CONTINUOUS
 10
119.0945669565
 20
77.6656931149
 30
0.0
 11
93.7814598123
 21
139.0604009266
 31
0.0
 40
0.5249652719
 41
-3.9728829169
 42
-3.9718127969
  0
ELLIPSE
  5
574
100
AcDbEntity
  8
0
100
AcDbEllipse
 62
250
  6
CONTINUOUS
 10
122.2819421074
 20
75.82534265
 30
0.0
 11
43.5069698887
 21
164.9035012031
 31
0.0
 40
0.6893988048
 41
-4.1960226038
 42
-4.194952401
  0
ELLIPSE
  5
575
100
AcDbEntity
  8
0
100
AcDbEllipse
 62
250
  6
CONTINUOUS
 10
128.7389249946
 20
72.0971616559
 30
0.0
 11
-101.7145514237
 21
199.7496793835
 31
0.0
 40
0.6093615153
 41
1.5185300819
 42
1.5192436096
  0
ELLIPSE
  5
576
100
AcDbEntity
  8
0
100
AcDbEllipse
 62
250
  6
CONTINUOUS
 10
148.2751881408
 20
60.8171681621
 30
0.0
 11
346.1226067412
 21
-324.6715108661
 31
0.0
 40
0.2767011407
 41
-1.7390182376
 42
-1.7386614606
  0
ELLIPSE
  5
577
100
AcDbEntity
  8
0
100
AcDbEllipse
 62
250
  6
CONTINUOUS
 10
118.0642599095
 20
78.2605794911
 30
0.0
 11
93.7814035827
 21
139.0604346878
 31
0.0
 40
0.5249655997
 41
-3.9750236074
 42
-3.9696730372
  0
ELLIPSE
  5
578
100
AcDbEntity
  8
RACCORDO
100
AcDbEllipse
 62
7
  6
CONTINUOUS
 10
33.9211983425
 20
-52.9990541898
 30
0.0
 11
-0.5013954353
 21
0.868386877
 31
0.0
 40
0.5757524875
 41
-3.1936911674
 42
-2.3576120761
  0
ELLIPSE
  5
579
100
AcDbEntity
  8
RACCORDO
100
AcDbEllipse
 62
7
  6
CONTINUOUS
 10
33.9211983425
 20
18.8480892086
 30
0.0
 11
-0.5000243598
 21
0.8660113392
 31
0.0
 40
0.5789151826
 41
-2.3548735497
 42
-0.7868162787
  0
ELLIPSE
  5
57A
100
AcDbEntity
  8
0
100
AcDbEllipse
 62
7
  6
CONTINUOUS
 10
117.7120702488
 20
55.2212352151
 30
0.0
 11
114.8996317544
 21
126.3505868295
 31
0.0
 40
0.3765254089
 41
-3.7743605251
 42
-3.7575864559
  0
ELLIPSE
  5
57B
100
AcDbEntity
  8
0
100
AcDbEllipse
 62
7
  6
CONTINUOUS
 10
111.5213474795
 20
58.7956809541
 30
0.0
 11
34.8790515577
 21
168.2218372011
 31
0.0
 40
0.7002280922
 41
-4.083553027
 42
-4.0720093448
  0
ELLIPSE
  5
57C
100
AcDbEntity
  8
0
100
AcDbEllipse
 62
7
  6
CONTINUOUS
 10
116.9681367907
 20
55.6507730701
 30
0.0
 11
91.793176838
 21
140.2511436908
 31
0.0
 40
0.5363054271
 41
-3.8203221232
 42
-3.8093664661
  0
ELLIPSE
  5
57D
100
AcDbEntity
  8
0
100
AcDbEllipse
 62
7
  6
CONTINUOUS
 10
120.8380036204
 20
53.4163604635
 30
0.0
 11
119.630873242
 21
123.5739552196
 31
0.0
 40
0.3382731367
 41
-3.7657029519
 42
-3.7547929514
  0
ELLIPSE
  5
57E
100
AcDbEntity
  8
0
100
AcDbEllipse
 62
7
  6
CONTINUOUS
 10
116.8979031082
 20
55.6913251182
 30
0.0
 11
70.634700218
 21
152.2499801326
 31
0.0
 40
0.6282888553
 41
-3.9123018102
 42
-3.8955277411
  0
ELLIPSE
  5
57F
100
AcDbEntity
  8
0
100
AcDbEllipse
 62
7
  6
CONTINUOUS
 10
113.334518629
 20
57.7487786567
 30
0.0
 11
11.1145125674
 21
175.7752122584
 31
0.0
 40
0.7158559188
 41
-4.1973507117
 42
-4.188040463
  0
ELLIPSE
  5
580
100
AcDbEntity
  8
0
100
AcDbEllipse
 62
7
  6
CONTINUOUS
 10
121.4759759009
 20
53.0480032644
 30
0.0
 11
112.236268736
 21
127.9318388222
 31
0.0
 40
0.3975597956
 41
-3.7637364601
 42
-3.7603859388
  0
ELLIPSE
  5
581
100
AcDbEntity
  8
0
100
AcDbEllipse
 62
7
  6
CONTINUOUS
 10
116.5305624813
 20
55.9034229922
 30
0.0
 11
27.6951435486
 21
170.7397539322
 31
0.0
 40
0.7069483398
 41
-4.1183397783
 42
-4.1015657091
  0
ELLIPSE
  5
582
100
AcDbEntity
  8
0
100
AcDbEllipse
 62
7
  6
CONTINUOUS
 10
121.3906108845
 20
53.097291955
 30
0.0
 11
111.5409348807
 21
128.3466174189
 31
0.0
 40
0.4029729773
 41
-3.7734299492
 42
-3.7672052666
  0
ELLIPSE
  5
583
100
AcDbEntity
  8
DRAFT
100
AcDbEllipse
 62
7
  6
CONTINUOUS
 10
30.4208423225
 20
-12.5727078323
 30
0.0
 11
5.1478346794
 21
0.9575482268
 31
0.0
 40
0.6665647798
 41
-0.7006982462
 42
-0.2750682551
  0
ELLIPSE
  5
584
100
AcDbEntity
  8
0
100
AcDbEllipse
 62
7
  6
CONTINUOUS
 10
-14.0188947107
 20
-8.7450805881
 30
0.0
 11
-0.4000194878
 21
0.6928090714
 31
0.0
 40
0.5789151826
 41
0.7867191038
 42
2.3547763749
  0
ELLIPSE
  5
585
100
AcDbEntity
  8
RACCORDO
100
AcDbEllipse
 62
7
  6
CONTINUOUS
 10
-28.3022576116
 20
54.7751328334
 30
0.0
 11
-0.5013954353
 21
0.868386877
 31
0.0
 40
0.5757524875
 41
-0.7840766935
 42
0.0520985859
  0
ELLIPSE
  5
586
100
AcDbEntity
  8
0
100
AcDbEllipse
 62
7
  6
CONTINUOUS
 10
116.9971638862
 20
55.634013189
 30
0.0
 11
111.9792925869
 21
128.0850400428
 31
0.0
 40
0.3995644544
 41
-3.7774770381
 42
-3.7659333559
  0
ELLIPSE
  5
587
100
AcDbEntity
  8
0
100
AcDbEllipse
 62
7
  6
CONTINUOUS
 10
110.7366622199
 20
59.2487483886
 30
0.0
 11
25.1749394473
 21
171.5727221992
 31
0.0
 40
0.7088651675
 41
-4.1304804737
 42
-4.1137064045
  0
ELLIPSE
  5
588
100
AcDbEntity
  8
0
100
AcDbEllipse
 62
7
  6
CONTINUOUS
 10
116.7934589343
 20
55.7516298751
 30
0.0
 11
94.077182749
 21
138.8827821588
 31
0.0
 40
0.5232362147
 41
-3.8185477191
 42
-3.8017736499
  0
ELLIPSE
  5
589
100
AcDbEntity
  8
DRAFT
100
AcDbEllipse
 62
7
  6
CONTINUOUS
 10
30.4208423225
 20
-17.9794870032
 30
0.0
 11
5.1774686765
 21
-0.6785096723
 31
0.0
 40
0.4693271057
 41
-0.5159119978
 42
-0.0902820066
  0
ELLIPSE
  5
58A
100
AcDbEntity
  8
0
100
AcDbEllipse
 62
7
  6
CONTINUOUS
 10
112.94450493
 20
57.9739676785
 30
0.0
 11
10.3267110211
 21
175.9897840662
 31
0.0
 40
0.7160762854
 41
-4.1952272933
 42
-4.1842716361
  0
ELLIPSE
  5
58B
100
AcDbEntity
  8
0
100
AcDbEllipse
 62
7
  6
CONTINUOUS
 10
116.7790152457
 20
55.7599694799
 30
0.0
 11
74.7936860181
 21
150.0170875047
 31
0.0
 40
0.6139811386
 41
-3.8878369839
 42
-3.8769269833
  0
ELLIPSE
  5
58C
100
AcDbEntity
  8
0
100
AcDbEllipse
 62
7
  6
CONTINUOUS
 10
120.4210814758
 20
53.6570860845
 30
0.0
 11
119.1887867979
 21
123.8315627285
 31
0.0
 40
0.3418816387
 41
-3.7717111746
 42
-3.7624009259
  0
ELLIPSE
  5
58D
100
AcDbEntity
  8
0
100
AcDbEllipse
 62
7
  6
CONTINUOUS
 10
121.3275752009
 20
53.1336879686
 30
0.0
 11
114.2761852079
 21
126.7196181975
 31
0.0
 40
0.3814884295
 41
-3.7749362596
 42
-3.7581621904
  0
ELLIPSE
  5
58E
100
AcDbEntity
  8
0
100
AcDbEllipse
 62
7
  6
CONTINUOUS
 10
116.587379992
 20
55.8706172737
 30
0.0
 11
39.1098980172
 21
166.4730536049
 31
0.0
 40
0.6952787603
 41
-4.0581356351
 42
-4.0519053363
  0
ELLIPSE
  5
58F
100
AcDbEntity
  8
0
100
AcDbEllipse
 62
7
  6
CONTINUOUS
 10
116.4673851851
 20
55.9399007713
 30
0.0
 11
36.2622945329
 21
167.5495560783
 31
0.0
 40
0.6986691259
 41
-4.0631746043
 42
-4.0598210564
  0
ELLIPSE
  5
590
100
AcDbEntity
  8
0
100
AcDbEllipse
 62
7
  6
CONTINUOUS
 10
121.3275752009
 20
53.1336879686
 30
0.0
 11
114.1738075272
 21
126.6060927015
 31
0.0
 40
0.3814884295
 41
-3.7739014683
 42
-3.7580834622
  0
ELLIPSE
  5
591
100
AcDbEntity
  8
0
100
AcDbEllipse
 62
7
  6
CONTINUOUS
 10
112.94450493
 20
57.9739676785
 30
0.0
 11
10.3174595334
 21
175.8321184433
 31
0.0
 40
0.7160762854
 41
-4.1951584555
 42
-4.1843514627
  0
ELLIPSE
  5
592
100
AcDbEntity
  8
0
100
AcDbEllipse
 62
7
  6
CONTINUOUS
 10
116.7790152457
 20
55.7599694799
 30
0.0
 11
74.7266798953
 21
149.8826902858
 31
0.0
 40
0.6139811386
 41
-3.8877681049
 42
-3.8768482551
  0
ELLIPSE
  5
593
100
AcDbEntity
  8
0
100
AcDbEllipse
 62
7
  6
CONTINUOUS
 10
120.4210814758
 20
53.6570860845
 30
0.0
 11
119.0820080186
 21
123.7206245819
 31
0.0
 40
0.3418816387
 41
-3.7706765582
 42
-3.7623289378
  0
ELLIPSE
  5
594
100
AcDbEntity
  8
0
100
AcDbEllipse
 62
7
  6
CONTINUOUS
 10
116.7934589343
 20
55.7516298751
 30
0.0
 11
93.9929009386
 21
138.7583599347
 31
0.0
 40
0.5232362147
 41
-3.8175129253
 42
-3.8016949217
  0
ELLIPSE
  5
595
100
AcDbEntity
  8
0
100
AcDbEllipse
 62
7
  6
CONTINUOUS
 10
116.9971638862
 20
55.634013189
 30
0.0
 11
111.878972645
 21
127.9702912935
 31
0.0
 40
0.3995644544
 41
-3.7764422127
 42
-3.7658593517
  0
ELLIPSE
  5
596
100
AcDbEntity
  8
0
100
AcDbEllipse
 62
7
  6
CONTINUOUS
 10
110.7366622199
 20
59.2487483886
 30
0.0
 11
25.1523857375
 21
171.4190137311
 31
0.0
 40
0.7088651675
 41
-4.1294456824
 42
-4.1136276763
  0
ELLIPSE
  5
597
100
AcDbEntity
  8
0
100
AcDbEllipse
 62
7
  6
CONTINUOUS
 10
116.4673851851
 20
55.9399007713
 30
0.0
 11
36.2948103059
 21
167.6997948705
 31
0.0
 40
0.6986691259
 41
-4.0632503059
 42
-4.0598997846
  0
ELLIPSE
  5
598
100
AcDbEntity
  8
0
100
AcDbEllipse
 62
7
  6
CONTINUOUS
 10
116.587379992
 20
55.8706172737
 30
0.0
 11
39.144967187
 21
166.622327116
 31
0.0
 40
0.6952787603
 41
-4.0582033802
 42
-4.0519786976
  0
ENDSEC
  0
SECTION
  2
OBJECTS
  0
DICTIONARY
  5
C
100
AcDbDictionary
280
0
281
1
  3
ACAD_GROUP
350
D
  3
ACAD_MLINESTYLE
350
17
  3
ACAD_LAYOUT
350
1A
  3
ACAD_PLOTSETTINGS
350
19
  3
ACAD_PLOTSTYLENAME
350
E
  0
DICTIONARY
  5
D
102
{ACAD_REACTORS
330
C
102
}
100
AcDbDictionary
280
0
281
1
  0
ACDBDICTIONARYWDFLT
  5
E
102
{ACAD_REACTORS
330
C
102
}
100
AcDbDictionary
281
1
  3
Normal
350
F
100
AcDbDictionaryWithDefault
340
F
  0
DICTIONARY
  5
17
102
{ACAD_REACTORS
330
C
102
}
100
AcDbDictionary
280
0
281
1
  3
Standard
350
18
  0
DICTIONARY
  5
19
102
{ACAD_REACTORS
330
C
102
}
100
AcDbDictionary
281
1
  0
DICTIONARY
  5
1A
102
{ACAD_REACTORS
330
C
102
}
100
AcDbDictionary
281
1
  3
Model
350
599
  3
Layout1
350
59A
  0
ACDBPLACEHOLDER
  5
F
102
{ACAD_REACTORS
330
E
102
}
  0
MLINESTYLE
  5
18
102
{ACAD_REACTORS
330
17
102
}
100
AcDbMlineStyle
  2
STANDARD
 70
0
  3

 62
256
 51
90.0
 52
90.0
 71
2
 49
0.5
 62
256
  6
BYLAYER
 49
-0.5
 62
256
  6
BYLAYER
  0
LAYOUT
  5
599
102
{ACAD_REACTORS
330
1A
102
}
100
AcDbPlotSettings
  1

  2
none_device
  4
ISO_A4_(297.00_x_210.00_MM)
  6

 40
0.0
 41
0.0
 42
0.0
 43
0.0
 44
297.0
 45
210.0
 46
0.0
 47
0.0
 48
0.0
 49
0.0
140
0.0
141
0.0
142
1.0
143
1.0
 70
1024
 72
1
 73
0
 74
0
  7

 75
0
147
1.0
148
0.0
149
0.0
100
AcDbLayout
  1
Model
 70
0
 71
0
 10
0.0
 20
0.0
 11
297.0
 21
210.0
 12
0.0
 22
0.0
 32
0.0
 14
0.0
 24
0.0
 34
0.0
 15
0.0
 25
0.0
 35
0.0
146
0.0
 13
0.0
 23
0.0
 33
0.0
 16
1.0
 26
0.0
 36
0.0
 17
0.0
 27
1.0
 37
0.0
 76
0
330
216
345
0
346
0
  0
LAYOUT
  5
59A
102
{ACAD_REACTORS
330
1A
102
}
100
AcDbPlotSettings
  1

  2
none_device
  4
ISO_A4_(297.00_x_210.00_MM)
  6

 40
0.0
 41
0.0
 42
0.0
 43
0.0
 44
297.0
 45
210.0
 46
0.0
 47
0.0
 48
0.0
 49
0.0
140
0.0
141
0.0
142
1.0
143
1.0
 70
0
 72
1
 73
0
 74
0
  7

 75
0
147
1.0
148
0.0
149
0.0
100
AcDbLayout
  1
Layout1
 70
0
 71
1
 10
0.0
 20
0.0
 11
297.0
 21
210.0
 12
0.0
 22
0.0
 32
0.0
 14
0.0
 24
0.0
 34
0.0
 15
0.0
 25
0.0
 35
0.0
146
0.0
 13
0.0
 23
0.0
 33
0.0
 16
1.0
 26
0.0
 36
0.0
 17
0.0
 27
1.0
 37
0.0
 76
0
330
217
345
0
346
0
  0
ENDSEC
  0
EOF
