  0
SECTION
  2
HEADER
  9
$ACADVER
  1
AC1024
  9
$DWGCODEPAGE
  3
ANSI_1252
  9
$EXTMAX
 10
297.0
 20
210.0
 30
0.0
  9
$EXTMIN
 10
0.0
 20
0.0
 30
0.0
  9
$LIMMIN
 10
0.0
 20
0.0
  9
$LIMMAX
 10
297.0
 20
210.0
  9
$VIEWCTR
 10
148.5
 20
105.0
  9
$VIEWSIZE
 40
210.0
  9
$CLAYER
  8
0
  9
$LTSCALE
 40
16.335
  9
$CELTYPE
  6
BYLAYER
  9
$DIMSCALE
 40
1.0
  9
$DIMASZ
 40
3.0
  9
$DIMEXO
 40
0.5
  9
$DIMDLI
 40
11.286
  9
$DIMEXE
 40
1.5
  9
$DIMCEN
 40
2.673
  9
$DIMLFAC
 40
1.0
  9
$DIMBLK
  1
_FILLED
  9
$DIMALT
 70
0
  9
$DIMALTF
 40
0.0393700787
  9
$DIMTXT
 40
3.0
  9
$DIMTOL
 70
1
  9
$DIMLIM
 70
0
  9
$DIMTFAC
 40
1.0
  9
$DIMTP
 40
0.01
  9
$DIMTM
 40
0.01
  9
$DIMGAP
 40
0.625
  9
$DIMDSEP
 70
44
  9
$AUNITS
 70
0
  9
$PDMODE
 70
3
  9
$PDSIZE
 40
3.0
  9
$HANDSEED
  5
34C
  9
$TILEMODE
 70
1
  9
$MEASUREMENT
 70
1
  9
$INSUNITS
 70
4
  0
ENDSEC
  0
SECTION
  2
CLASSES
  0
CLASS
  1
ACDBDICTIONARYWDFLT
  2
AcDbDictionaryWithDefault
  3
AutoCAD 2000
 90
0
 91
1
280
0
281
0
  0
CLASS
  1
ACDBPLACEHOLDER
  2
AcDbPlaceHolder
  3
AutoCAD 2000
 90
0
 91
1
280
0
281
0
  0
CLASS
  1
LAYOUT
  2
AcDbLayout
  3
AutoCAD 2000
 90
0
 91
0
280
0
281
0
  0
ENDSEC
  0
SECTION
  2
TABLES
  0
TABLE
  2
VPORT
  5
8
100
AcDbSymbolTable
 70
2
  0
VPORT
  5
1F4
100
AcDbSymbolTableRecord
100
AcDbViewportTableRecord
  2
*ACTIVE
 70
0
 10
0.0
 20
0.0
 11
1.0
 21
1.0
 12
148.5
 22
105.0
 13
0.0
 23
0.0
 14
1.0
 24
1.0
 15
0.0
 25
0.0
 16
0.0
 26
0.0
 36
1.0
 17
0.0
 27
0.0
 37
0.0
 40
210.0
 41
1.4142857143
 42
50.0
 43
0.0
 44
0.0
 50
0.0
 51
0.0
 71
0
 72
100
 73
1
 74
1
 75
0
 76
0
 77
0
 78
0
  0
ENDTAB
  0
TABLE
  2
LTYPE
  5
5
100
AcDbSymbolTable
 70
6
  0
LTYPE
  5
14
100
AcDbSymbolTableRecord
100
AcDbLinetypeTableRecord
  2
BYBLOCK
 70
0
  3

 72
65
 73
0
 40
0.0
  0
LTYPE
  5
15
100
AcDbSymbolTableRecord
100
AcDbLinetypeTableRecord
  2
BYLAYER
 70
0
  3

 72
65
 73
0
 40
0.0
  0
LTYPE
  5
16
100
AcDbSymbolTableRecord
100
AcDbLinetypeTableRecord
  2
CONTINUOUS
 70
64
  3
Solid line
 72
65
 73
0
 40
0.0
  0
LTYPE
  5
1F5
100
AcDbSymbolTableRecord
100
AcDbLinetypeTableRecord
  2
CENTER
 70
64
  3
____ _ ____ _ ____ _ ____ _ ____ _ ____ _ ____
 72
65
 73
4
 40
0.6
 49
0.375
 74
0
 49
-0.075
 74
0
 49
0.075
 74
0
 49
-0.075
 74
0
  0
LTYPE
  5
1F6
100
AcDbSymbolTableRecord
100
AcDbLinetypeTableRecord
  2
HIDDEN
 70
64
  3
- - - - - - - - - - - - - - - - - - - -
 72
65
 73
2
 40
0.2
 49
0.1
 74
0
 49
-0.1
 74
0
  0
LTYPE
  5
1F7
100
AcDbSymbolTableRecord
100
AcDbLinetypeTableRecord
  2
PHANTOM
 70
64
  3
_____ _ _ _____ _ _ _____ _ _ _____
 72
65
 73
6
 40
0.8
 49
0.45
 74
0
 49
-0.05
 74
0
 49
0.1
 74
0
 49
-0.05
 74
0
 49
0.1
 74
0
 49
-0.05
 74
0
  0
LTYPE
  5
1F8
100
AcDbSymbolTableRecord
100
AcDbLinetypeTableRecord
  2
DOT
 70
64
  3
. . . . . . . . . . . . . . . . . . . .
 72
65
 73
2
 40
0.2
 49
0.1
 74
0
 49
-0.1
 74
0
  0
LTYPE
  5
1F9
100
AcDbSymbolTableRecord
100
AcDbLinetypeTableRecord
  2
DASHED
 70
64
  3
- - - - - - - - - - - - - - - - - - - -
 72
65
 73
2
 40
0.2
 49
0.1
 74
0
 49
-0.1
 74
0
  0
ENDTAB
  0
TABLE
  2
LAYER
  5
2
100
AcDbSymbolTable
 70
36
  0
LAYER
  5
10
100
AcDbSymbolTableRecord
100
AcDbLayerTableRecord
  2
0
 70
0
 62
7
  6
CONTINUOUS
370
-3
390
F
  0
LAYER
  5
1FA
100
AcDbSymbolTableRecord
100
AcDbLayerTableRecord
  2
DEFAULT_1
 70
0
 62
7
  6
CENTER
370
-3
390
F
  0
LAYER
  5
1FB
100
AcDbSymbolTableRecord
100
AcDbLayerTableRecord
  2
DEFAULT_2
 70
0
 62
7
  6
HIDDEN
370
-3
390
F
  0
LAYER
  5
1FC
100
AcDbSymbolTableRecord
100
AcDbLayerTableRecord
  2
DEFAULT_3
 70
0
 62
7
  6
PHANTOM
370
-3
390
F
  0
LAYER
  5
1FD
100
AcDbSymbolTableRecord
100
AcDbLayerTableRecord
  2
ASSI
 70
0
 62
7
  6
CONTINUOUS
370
-3
390
F
  0
LAYER
  5
1FE
100
AcDbSymbolTableRecord
100
AcDbLayerTableRecord
  2
COORDINATE
 70
0
 62
7
  6
CONTINUOUS
370
-3
390
F
  0
LAYER
  5
1FF
100
AcDbSymbolTableRecord
100
AcDbLayerTableRecord
  2
COPY_PUBLISH
 70
0
 62
7
  6
CONTINUOUS
370
-3
390
F
  0
LAYER
  5
200
100
AcDbSymbolTableRecord
100
AcDbLayerTableRecord
  2
COSMETIC
 70
0
 62
7
  6
CONTINUOUS
370
-3
390
F
  0
LAYER
  5
201
100
AcDbSymbolTableRecord
100
AcDbLayerTableRecord
  2
COSMETICI
 70
0
 62
7
  6
CONTINUOUS
370
-3
390
F
  0
LAYER
  5
202
100
AcDbSymbolTableRecord
100
AcDbLayerTableRecord
  2
CURVE
 70
0
 62
7
  6
CONTINUOUS
370
-3
390
F
  0
LAYER
  5
203
100
AcDbSymbolTableRecord
100
AcDbLayerTableRecord
  2
CURVE_VERN
 70
0
 62
7
  6
CONTINUOUS
370
-3
390
F
  0
LAYER
  5
204
100
AcDbSymbolTableRecord
100
AcDbLayerTableRecord
  2
DRAFT
 70
0
 62
7
  6
CONTINUOUS
370
-3
390
F
  0
LAYER
  5
205
100
AcDbSymbolTableRecord
100
AcDbLayerTableRecord
  2
IMPORT_IGES
 70
0
 62
7
  6
CONTINUOUS
370
-3
390
F
  0
LAYER
  5
206
100
AcDbSymbolTableRecord
100
AcDbLayerTableRecord
  2
INTFCLR_1
 70
0
 62
7
  6
CONTINUOUS
370
-3
390
F
  0
LAYER
  5
207
100
AcDbSymbolTableRecord
100
AcDbLayerTableRecord
  2
INTF_1
 70
0
 62
7
  6
CONTINUOUS
370
-3
390
F
  0
LAYER
  5
208
100
AcDbSymbolTableRecord
100
AcDbLayerTableRecord
  2
NOTE
 70
0
 62
7
  6
CONTINUOUS
370
-3
390
F
  0
LAYER
  5
209
100
AcDbSymbolTableRecord
100
AcDbLayerTableRecord
  2
PIANI
 70
0
 62
7
  6
CONTINUOUS
370
-3
390
F
  0
LAYER
  5
20A
100
AcDbSymbolTableRecord
100
AcDbLayerTableRecord
  2
PUNTI
 70
0
 62
7
  6
CONTINUOUS
370
-3
390
F
  0
LAYER
  5
20B
100
AcDbSymbolTableRecord
100
AcDbLayerTableRecord
  2
RACCORDO
 70
0
 62
7
  6
CONTINUOUS
370
-3
390
F
  0
LAYER
  5
20C
100
AcDbSymbolTableRecord
100
AcDbLayerTableRecord
  2
RGB____0____0____0__
 70
0
 62
7
  6
CONTINUOUS
370
-3
390
F
  0
LAYER
  5
20D
100
AcDbSymbolTableRecord
100
AcDbLayerTableRecord
  2
SIMBOLI
 70
0
 62
7
  6
CONTINUOUS
370
-3
390
F
  0
LAYER
  5
20E
100
AcDbSymbolTableRecord
100
AcDbLayerTableRecord
  2
SMUSSO
 70
0
 62
7
  6
CONTINUOUS
370
-3
390
F
  0
LAYER
  5
20F
100
AcDbSymbolTableRecord
100
AcDbLayerTableRecord
  2
SNAPLINE
 70
0
 62
7
  6
CONTINUOUS
370
-3
390
F
  0
LAYER
  5
210
100
AcDbSymbolTableRecord
100
AcDbLayerTableRecord
  2
SUPERFICI
 70
0
 62
7
  6
CONTINUOUS
370
-3
390
F
  0
LAYER
  5
211
100
AcDbSymbolTableRecord
100
AcDbLayerTableRecord
  2
TRASH
 70
0
 62
7
  6
CONTINUOUS
370
-3
390
F
  0
LAYER
  5
212
100
AcDbSymbolTableRecord
100
AcDbLayerTableRecord
  2
XSEC_DATUMS
 70
0
 62
7
  6
CONTINUOUS
370
-3
390
F
  0
ENDTAB
  0
TABLE
  2
STYLE
  5
3
100
AcDbSymbolTable
 70
1
  0
STYLE
  5
11
100
AcDbSymbolTableRecord
100
AcDbTextStyleTableRecord
  2
STANDARD
 70
0
 40
0.0
 41
0.8
 50
0.0
 71
0
 42
0.2
  3
txt
  4

  0
STYLE
  5
213
100
AcDbSymbolTableRecord
100
AcDbTextStyleTableRecord
  2
TEXTSTYLE_1
 70
0
 40
0.0
 41
0.8
 50
0.0
 71
0
 42
0.2
  3
gdt
  4

  0
ENDTAB
  0
TABLE
  2
VIEW
  5
6
100
AcDbSymbolTable
 70
0
  0
ENDTAB
  0
TABLE
  2
UCS
  5
7
100
AcDbSymbolTable
 70
0
  0
ENDTAB
  0
TABLE
  2
APPID
  5
9
100
AcDbSymbolTable
 70
1
  0
APPID
  5
214
100
AcDbSymbolTableRecord
100
AcDbRegAppTableRecord
  2
ACAD
 70
0
  0
ENDTAB
  0
TABLE
  2
BLOCK_RECORD
  5
1
100
AcDbSymbolTable
 70
0
  0
BLOCK_RECORD
  5
215
100
AcDbSymbolTableRecord
100
AcDbBlockTableRecord
  2
*Model_Space
  0
BLOCK_RECORD
  5
216
100
AcDbSymbolTableRecord
100
AcDbBlockTableRecord
  2
*Paper_Space
  0
BLOCK_RECORD
  5
217
100
AcDbSymbolTableRecord
100
AcDbBlockTableRecord
  2
_FILLED
  0
ENDTAB
  0
TABLE
  2
DIMSTYLE
  5
A
100
AcDbSymbolTable
 70
1
100
AcDbDimStyleTable
 71
0
  0
DIMSTYLE
105
218
100
AcDbSymbolTableRecord
100
AcDbDimStyleTableRecord
  2
STANDARD
 70
0
  3

  4

 40
1.0
 41
3.0
 42
0.5
 43
0.38
 44
1.5
 45
0.0
 46
0.0
 47
0.01
 48
0.01
140
3.0
141
0.09
142
0.0
143
25.4
144
1.0
145
0.0
146
1.0
147
0.625
 71
1.0
 72
0.0
 73
0
 74
0
 75
0
 76
0
 77
1
 78
8
 79
2
170
0
171
1
172
0
173
0
174
0
175
0
176
0
177
0
178
0
270
2
179
2
271
2
272
2
273
2
274
2
275
0
280
0
281
0
282
0
283
1
284
8
285
0
286
0
287
3
288
0
340
11
278
44
341
217
342
217
343
217
344
217
  0
ENDTAB
  0
ENDSEC
  0
SECTION
  2
BLOCKS
  0
BLOCK
  5
20
100
AcDbEntity
  8
0
100
AcDbBlockBegin
  2
*Model_Space
 70
0
 10
0.0
 20
0.0
 30
0.0
  3
*Model_Space
  1

  0
ENDBLK
  5
21
100
AcDbEntity
  8
0
100
AcDbBlockEnd
  0
BLOCK
  5
1C
100
AcDbEntity
  8
0
100
AcDbBlockBegin
  2
*Paper_Space
 70
0
 10
0.0
 20
0.0
 30
0.0
  3
*Paper_Space
  1

  0
ENDBLK
  5
1D
100
AcDbEntity
  8
0
100
AcDbBlockEnd
  0
BLOCK
  5
219
100
AcDbEntity
  8
0
100
AcDbBlockBegin
  2
_FILLED
 70
64
 10
0.0
 20
0.0
  3
_FILLED
  1

  0
SOLID
  5
21A
100
AcDbEntity
  8
0
  6
BYBLOCK
 62
0
100
AcDbTrace
 10
0.0
 20
0.0
 11
-1.0
 21
0.3166666667
 12
-1.0
 22
-0.3166666667
 13
-1.0
 23
-0.3166666667
  0
ENDBLK
  5
21B
100
AcDbEntity
  8
0
  6
BYBLOCK
 62
0
100
AcDbBlockEnd
  0
ENDSEC
  0
SECTION
  2
ENTITIES
  0
LWPOLYLINE
  5
21C
100
AcDbEntity
  8
RACCORDO
100
AcDbPolyline
 62
7
  6
CONTINUOUS
 90
14
 70
0
 10
100.6175753669
 20
165.0396371821
 10
100.5888697426
 20
165.0181506621
 10
100.5528203572
 20
164.9873487473
 10
100.5186540797
 20
164.953603555
 10
100.4865248484
 20
164.9170176517
 10
100.4565621436
 20
164.8776759561
 10
100.4288914313
 20
164.835686518
 10
100.4036213142
 20
164.7911601003
 10
100.3808373369
 20
164.7441603411
 10
100.3606425431
 20
164.6947799272
 10
100.3431287298
 20
164.6431144029
 10
100.32837733
 20
164.5892029722
 10
100.3164912982
 20
164.5331177798
 10
100.3089348933
 20
164.4854407676
  0
LINE
  5
21D
100
AcDbEntity
  8
RACCORDO
100
AcDbLine
 62
7
  6
CONTINUOUS
 10
100.6176031306
 20
165.0396580846
 11
102.2258982806
 21
166.1736893151
  0
LINE
  5
21E
100
AcDbEntity
  8
RACCORDO
100
AcDbLine
 62
250
  6
CONTINUOUS
 10
101.1756859275
 20
165.0296528149
 11
102.7507650033
 21
166.1402628935
  0
LWPOLYLINE
  5
21F
100
AcDbEntity
  8
RACCORDO
100
AcDbPolyline
 62
250
  6
CONTINUOUS
 90
16
 70
0
 10
100.978181421
 20
164.7154806207
 10
100.9824334254
 20
164.7391822356
 10
100.9883051315
 20
164.7632982337
 10
100.9957500119
 20
164.7876374766
 10
101.0047090702
 20
164.8120070548
 10
101.0151113076
 20
164.8362138151
 10
101.026874285
 20
164.8600658912
 10
101.0399047787
 20
164.8833742289
 10
101.0540995156
 20
164.905954079
 10
101.0693459908
 20
164.9276264607
 10
101.0855233655
 20
164.9482195903
 10
101.1025034198
 20
164.9675702349
 10
101.1201515637
 20
164.9855250026
 10
101.1383279149
 20
165.0019415704
 10
101.1568884074
 20
165.0166898104
 10
101.1756859272
 20
165.029652815
  0
LWPOLYLINE
  5
220
100
AcDbEntity
  8
RACCORDO
100
AcDbPolyline
 62
250
  6
CONTINUOUS
 90
10
 70
0
 10
100.3974611186
 20
164.3681830525
 10
100.1259154169
 20
162.2800643732
 10
99.876713031
 20
160.2017746575
 10
99.6499068485
 20
158.1337318056
 10
99.4455473504
 20
156.0763542422
 10
99.2636754202
 20
154.0300534312
 10
99.1043227552
 20
151.9952339788
 10
98.9675212383
 20
149.9723033444
 10
98.853302512
 20
147.9616715718
 10
98.7616910849
 20
145.9637439361
  0
LWPOLYLINE
  5
221
100
AcDbEntity
  8
RACCORDO
100
AcDbPolyline
 62
7
  6
CONTINUOUS
 90
10
 70
0
 10
100.3089307117
 20
164.4854437355
 10
100.0444676153
 20
162.4536962025
 10
99.7930571754
 20
160.3608619482
 10
99.5643499184
 20
158.2783449934
 10
99.3584029251
 20
156.2066277334
 10
99.1752547219
 20
154.1461080975
 10
99.0149393272
 20
152.0971542195
 10
98.8774911488
 20
150.0601642816
 10
98.7629400731
 20
148.0356096511
 10
98.6737992979
 20
146.0858672547
  0
LWPOLYLINE
  5
222
100
AcDbEntity
  8
RACCORDO
100
AcDbPolyline
 62
250
  6
CONTINUOUS
 90
9
 70
0
 10
98.7616910844
 20
108.948823247
 10
98.8533025166
 20
107.0683720032
 10
98.9675212456
 20
105.2041979903
 10
99.1043227599
 20
103.3566781792
 10
99.2636754075
 20
101.5261907745
 10
99.4455473069
 20
99.7131017117
 10
99.6499067824
 20
97.9177648872
 10
99.8767129649
 20
96.1405398563
 10
100.125915371
 20
94.3817914556
  0
LWPOLYLINE
  5
223
100
AcDbEntity
  8
RACCORDO
100
AcDbPolyline
 62
7
  6
CONTINUOUS
 90
10
 70
0
 10
98.6738265492
 20
109.0706983263
 10
98.7627122282
 20
107.2398838396
 10
98.8772493945
 20
105.3613938452
 10
99.0147044682
 20
103.4996970375
 10
99.1750509679
 20
101.6552292508
 10
99.3582579664
 20
99.828346521
 10
99.5642950706
 20
98.0193738227
 10
99.7931275051
 20
96.2286606485
 10
100.0447018283
 20
94.4566182857
 10
100.3101559657
 20
92.7574854015
  0
LINE
  5
224
100
AcDbEntity
  8
RACCORDO
100
AcDbLine
 62
7
  6
CONTINUOUS
 10
98.673834696
 20
109.0705104873
 11
98.6738265492
 21
109.0706983263
  0
LINE
  5
225
100
AcDbEntity
  8
RACCORDO
100
AcDbLine
 62
250
  6
CONTINUOUS
 10
98.6447531211
 20
111.9561329953
 11
98.7616910124
 21
108.9488232886
  0
LWPOLYLINE
  5
226
100
AcDbEntity
  8
RACCORDO
100
AcDbPolyline
 62
250
  6
CONTINUOUS
 90
12
 70
0
 10
98.7616910129
 20
145.9637439777
 10
98.6447531133
 20
142.806469069
 10
98.5490592847
 20
139.6616134152
 10
98.4746191757
 20
136.5293999697
 10
98.4214405037
 20
133.4100118191
 10
98.3895306669
 20
130.3037096773
 10
98.3788939339
 20
127.2108302889
 10
98.3895306727
 20
124.131592093
 10
98.4214405138
 20
121.0662121057
 10
98.474619188
 20
118.0150206457
 10
98.5490592965
 20
114.9782693847
 10
98.6447531211
 20
111.9561329953
  0
LWPOLYLINE
  5
227
100
AcDbEntity
  8
RACCORDO
100
AcDbPolyline
 62
7
  6
CONTINUOUS
 90
13
 70
0
 10
98.673799297
 20
146.0858673041
 10
98.5587689003
 20
142.9849012224
 10
98.4624061783
 20
139.8290219124
 10
98.3874449632
 20
136.6859570486
 10
98.3338926927
 20
133.5559568799
 10
98.301752363
 20
130.4392404614
 10
98.2910259764
 20
127.3360147372
 10
98.301715113
 20
124.2464951224
 10
98.3338189125
 20
121.1708954597
 10
98.3873360935
 20
118.109420541
 10
98.4622643822
 20
115.0622859999
 10
98.5585970634
 20
112.0297330161
 10
98.6738265492
 20
109.0706982383
  0
LWPOLYLINE
  5
228
100
AcDbEntity
  8
RACCORDO
100
AcDbPolyline
 62
250
  6
CONTINUOUS
 90
22
 70
0
 10
113.7852413477
 20
137.2893836092
 10
113.8103009218
 20
137.3252086149
 10
113.8373826412
 20
137.3582741891
 10
113.8664851566
 20
137.3885796268
 10
113.8977022611
 20
137.4162284216
 10
113.9309376772
 20
137.4411157839
 10
113.9659046563
 20
137.4629284333
 10
114.0026191999
 20
137.4816200999
 10
114.0410623525
 20
137.4972355202
 10
114.0808944389
 20
137.5095976725
 10
114.1221322444
 20
137.5186652586
 10
114.1647560912
 20
137.5244780804
 10
114.2083713779
 20
137.5269806473
 10
114.2529989381
 20
137.526126725
 10
114.2986154549
 20
137.5219612665
 10
114.344760078
 20
137.5145655519
 10
114.3914409142
 20
137.5038886512
 10
114.438648066
 20
137.4899805721
 10
114.4858938163
 20
137.4730740724
 10
114.5330152866
 20
137.4532465806
 10
114.580174449
 20
137.4304202019
 10
114.6273710793
 20
137.404594821
  0
LWPOLYLINE
  5
229
100
AcDbEntity
  8
RACCORDO
100
AcDbPolyline
 62
250
  6
CONTINUOUS
 90
8
 70
0
 10
114.4264650585
 20
137.0900038401
 10
114.4423221113
 20
137.1121089975
 10
114.4595311574
 20
137.1326557235
 10
114.478060052
 20
137.1515763893
 10
114.4978862205
 20
137.1688159549
 10
114.5189574675
 20
137.1843041256
 10
114.5411879477
 20
137.1979629555
 10
114.5620167533
 20
137.2085955102
  0
LINE
  5
22A
100
AcDbEntity
  8
RACCORDO
100
AcDbLine
 62
7
  6
CONTINUOUS
 10
114.5620167533
 20
137.2085955102
 11
114.5624911541
 21
137.2088153421
  0
LINE
  5
22B
100
AcDbEntity
  8
0
100
AcDbLine
 62
250
  6
CONTINUOUS
 10
114.3475953006
 20
136.8188632088
 11
114.881665629
 21
137.0658050762
  0
LWPOLYLINE
  5
22C
100
AcDbEntity
  8
RACCORDO
100
AcDbPolyline
 62
250
  6
CONTINUOUS
 90
14
 70
0
 10
196.6750537253
 20
52.8109328387
 10
196.6531458442
 20
52.8050098662
 10
196.6302893642
 20
52.8010390987
 10
196.6065496814
 20
52.7990379541
 10
196.5820025893
 20
52.7990037742
 10
196.5567169843
 20
52.800938726
 10
196.5307740721
 20
52.8048387097
 10
196.504277676
 20
52.8106673191
 10
196.4773073893
 20
52.8184008603
 10
196.4499486374
 20
52.8280094592
 10
196.4223210697
 20
52.8394184134
 10
196.3945218326
 20
52.8525630869
 10
196.3666222705
 20
52.8674019803
 10
196.3387041993
 20
52.8838777148
  0
LWPOLYLINE
  5
22D
100
AcDbEntity
  8
RACCORDO
100
AcDbPolyline
 62
250
  6
CONTINUOUS
 90
23
 70
0
 10
213.3725456191
 20
26.958933881
 10
213.3978999631
 20
26.9527607119
 10
213.4224371954
 20
26.9485710456
 10
213.4461456389
 20
26.9463511753
 10
213.4687576491
 20
26.9461431062
 10
213.4902519851
 20
26.9479696642
 10
213.510650973
 20
26.9518088801
 10
213.5297522999
 20
26.9576355501
 10
213.5475475258
 20
26.9654690016
 10
213.5640463473
 20
26.9752908981
 10
213.579073555
 20
26.9870194594
 10
213.5926164609
 20
27.0006758403
 10
213.6046890342
 20
27.0162398947
 10
213.6151558519
 20
27.0335677328
 10
213.6240007655
 20
27.0526801256
 10
213.6312410705
 20
27.073557203
 10
213.6367912098
 20
27.0959938782
 10
213.640631797
 20
27.1200171517
 10
213.6427830881
 20
27.1456007038
 10
213.6432185872
 20
27.17245915
 10
213.6419295025
 20
27.2004973922
 10
213.6389250044
 20
27.2298108221
 10
213.6342053113
 20
27.2603996091
  0
LWPOLYLINE
  5
22E
100
AcDbEntity
  8
RACCORDO
100
AcDbPolyline
 62
250
  6
CONTINUOUS
 90
8
 70
0
 10
100.978181421
 20
91.8345962838
 10
100.9824335216
 20
91.8158045223
 10
100.988305356
 20
91.7984688516
 10
100.9957503833
 20
91.782726676
 10
101.0047095935
 20
91.7687027694
 10
101.0151119752
 20
91.7565082867
 10
101.0268750781
 20
91.7462398825
 10
101.0367808123
 20
91.7397095387
  0
LWPOLYLINE
  5
22F
100
AcDbEntity
  8
RACCORDO
100
AcDbPolyline
 62
250
  6
CONTINUOUS
 90
28
 70
0
 10
100.3974611186
 20
92.6418765162
 10
100.4033707902
 20
92.610579962
 10
100.4108929461
 20
92.5786595312
 10
100.4200273501
 20
92.5461150406
 10
100.4308145442
 20
92.5128372098
 10
100.4432135662
 20
92.4789349929
 10
100.45710173
 20
92.4447354057
 10
100.4725024595
 20
92.4102169864
 10
100.4893915073
 20
92.3754005523
 10
100.507574295
 20
92.3406762338
 10
100.5270573838
 20
92.3060599421
 10
100.5478330598
 20
92.2715348606
 10
100.569685019
 20
92.2374417819
 10
100.5926227689
 20
92.2037843759
 10
100.6166355284
 20
92.1705579699
 10
100.6414763625
 20
92.1380906859
 10
100.6671514043
 20
92.1063909056
 10
100.6936532659
 20
92.0754492577
 10
100.7207146265
 20
92.0455671509
 10
100.7483402361
 20
92.016754714
 10
100.7765242551
 20
91.9890009582
 10
100.8049834588
 20
91.9625755988
 10
100.8337250384
 20
91.9374886147
 10
100.8627410022
 20
91.9137293947
 10
100.8917253985
 20
91.8915368078
 10
100.9205760977
 20
91.8709903617
 10
100.949394807
 20
91.8520102148
 10
100.978181421
 20
91.8345962838
  0
LWPOLYLINE
  5
230
100
AcDbEntity
  8
RACCORDO
100
AcDbPolyline
 62
7
  6
CONTINUOUS
 90
23
 70
0
 10
100.3101300586
 20
92.757670549
 10
100.3173884163
 20
92.7183766813
 10
100.3299589589
 20
92.6646854665
 10
100.3455128704
 20
92.6107887738
 10
100.3639395031
 20
92.556718613
 10
100.3851425701
 20
92.5025513262
 10
100.409029328
 20
92.4483781559
 10
100.435504525
 20
92.3943291364
 10
100.4644232608
 20
92.3406466263
 10
100.495669007
 20
92.2874869459
 10
100.5291410491
 20
92.2350005259
 10
100.564644681
 20
92.1834759216
 10
100.6020457098
 20
92.1330853956
 10
100.6412211917
 20
92.0840037575
 10
100.6819361768
 20
92.0365218553
 10
100.7240559237
 20
91.9907992769
 10
100.7674410493
 20
91.9470097464
 10
100.811840212
 20
91.9054127782
 10
100.8571174691
 20
91.8661561815
 10
100.9031642485
 20
91.8293649513
 10
100.949828163
 20
91.795196587
 10
100.9970298091
 20
91.7637681261
 10
101.0368855809
 20
91.7396540612
  0
LINE
  5
231
100
AcDbEntity
  8
RACCORDO
100
AcDbLine
 62
7
  6
CONTINUOUS
 10
100.3101600613
 20
92.7574860695
 11
100.3101300586
 21
92.757670549
  0
LINE
  5
232
100
AcDbEntity
  8
RACCORDO
100
AcDbLine
 62
250
  6
CONTINUOUS
 10
100.125915371
 20
94.3817914556
 11
100.3974611186
 21
92.6418765162
  0
LWPOLYLINE
  5
233
100
AcDbEntity
  8
0
100
AcDbPolyline
 62
250
  6
CONTINUOUS
 90
25
 70
0
 10
117.6833346074
 20
130.6936336927
 10
117.6968455539
 20
130.7026383903
 10
117.7101673881
 20
130.7125086423
 10
117.7233001102
 20
130.7232444489
 10
117.7362977864
 20
130.7348983648
 10
117.7491063504
 20
130.7474178353
 10
117.7615636033
 20
130.7606451957
 10
117.7736629911
 20
130.7745873794
 10
117.7854110678
 20
130.7892374532
 10
117.7966652957
 20
130.8044169525
 10
117.8074198593
 20
130.8201326797
 10
117.8176805741
 20
130.8363778325
 10
117.8273223485
 20
130.85295354
 10
117.8363373829
 20
130.8698631035
 10
117.8447334769
 20
130.8871032216
 10
117.8524089377
 20
130.9044651191
 10
117.8593555731
 20
130.921953302
 10
117.8655815754
 20
130.9395632643
 10
117.8710098279
 20
130.9570727125
 10
117.8756292798
 20
130.9744782547
 10
117.879450982
 20
130.9917832828
 10
117.8824309715
 20
131.0087756784
 10
117.8845545938
 20
131.0253847356
 10
117.8858365032
 20
131.0416811604
 10
117.8862766999
 20
131.0576649528
  0
LWPOLYLINE
  5
234
100
AcDbEntity
  8
0
100
AcDbPolyline
 62
7
  6
CONTINUOUS
 90
19
 70
0
 10
117.647042145
 20
130.605197299
 10
117.6679038982
 20
130.6190330008
 10
117.6957961109
 20
130.6399069116
 10
117.7226276145
 20
130.6627371029
 10
117.7484089806
 20
130.6874604769
 10
117.7730664102
 20
130.713954535
 10
117.7964282771
 20
130.7419965459
 10
117.81844151
 20
130.7714747025
 10
117.8390390866
 20
130.8022868457
 10
117.8580395585
 20
130.8341475562
 10
117.8753822586
 20
130.8669367317
 10
117.8909929461
 20
130.9005435694
 10
117.9047243905
 20
130.9346667837
 10
117.9165157203
 20
130.9691998486
 10
117.9263025315
 20
131.0040392792
 10
117.9339751715
 20
131.0389247928
 10
117.9394650655
 20
131.0737363565
 10
117.9427089829
 20
131.10845225
 10
117.9436240132
 20
131.1386270554
  0
LWPOLYLINE
  5
235
100
AcDbEntity
  8
0
100
AcDbPolyline
 62
250
  6
CONTINUOUS
 90
9
 70
0
 10
117.8862766999
 20
132.8819136572
 10
117.9000756367
 20
132.8909138006
 10
117.9121795185
 20
132.9006933992
 10
117.9224571938
 20
132.9111464979
 10
117.9307972969
 20
132.9221598436
 10
117.9371094532
 20
132.9336141113
 10
117.94132526
 20
132.9453851961
 10
117.9433990294
 20
132.9573455619
 10
117.9436266101
 20
132.9628520421
  0
LWPOLYLINE
  5
236
100
AcDbEntity
  8
0
100
AcDbPolyline
 62
250
  6
CONTINUOUS
 90
9
 70
0
 10
117.8862766999
 20
131.0576649528
 10
117.9000757821
 20
131.0666652028
 10
117.9121797498
 20
131.0764449062
 10
117.9224574575
 20
131.0868981006
 10
117.9307975469
 20
131.0979115265
 10
117.937109654
 20
131.1093658544
 10
117.9413253875
 20
131.1211369773
 10
117.9433990702
 20
131.1330973563
 10
117.9436266101
 20
131.1386041977
  0
LINE
  5
237
100
AcDbEntity
  8
0
100
AcDbLine
 62
250
  6
CONTINUOUS
 10
116.3988949455
 20
129.8867095632
 11
117.6833346074
 21
130.6936336927
  0
LINE
  5
238
100
AcDbEntity
  8
0
100
AcDbLine
 62
7
  6
CONTINUOUS
 10
116.3988949455
 20
129.8210733481
 11
117.6470774344
 21
130.6052196169
  0
LINE
  5
239
100
AcDbEntity
  8
0
100
AcDbLine
 62
250
  6
CONTINUOUS
 10
117.5456305753
 20
133.2544554369
 11
116.3988949455
 21
132.6273320471
  0
LINE
  5
23A
100
AcDbEntity
  8
0
100
AcDbLine
 62
250
  6
CONTINUOUS
 10
117.6833346074
 20
133.0074661403
 11
116.3988949455
 21
132.3050355767
  0
LINE
  5
23B
100
AcDbEntity
  8
0
100
AcDbLine
 62
7
  6
CONTINUOUS
 10
116.3988949455
 20
133.2908683254
 11
116.9413271174
 21
133.5617922279
  0
LINE
  5
23C
100
AcDbEntity
  8
0
100
AcDbLine
 62
250
  6
CONTINUOUS
 10
116.3988949455
 20
133.2308888736
 11
117.0356392769
 21
133.5489180542
  0
LWPOLYLINE
  5
23D
100
AcDbEntity
  8
0
100
AcDbPolyline
 62
250
  6
CONTINUOUS
 90
13
 70
0
 10
117.0356391261
 20
133.5489181411
 10
117.0586546233
 20
133.5599144964
 10
117.081531971
 20
133.5691780429
 10
117.1041793186
 20
133.576667248
 10
117.1265111167
 20
133.5823474999
 10
117.1484315101
 20
133.5861914309
 10
117.1698354918
 20
133.588182195
 10
117.190633278
 20
133.5883109717
 10
117.2107455079
 20
133.5865767756
 10
117.2300870737
 20
133.5829886241
 10
117.2485805501
 20
133.5775602028
 10
117.2661514066
 20
133.5703127631
 10
117.2782817663
 20
133.5639319957
  0
LWPOLYLINE
  5
23E
100
AcDbEntity
  8
0
100
AcDbPolyline
 62
250
  6
CONTINUOUS
 90
8
 70
0
 10
116.9431467891
 20
133.5626668314
 10
116.9545635584
 20
133.5667377429
 10
116.9668131218
 20
133.5687972622
 10
116.9797614782
 20
133.5688228602
 10
116.9932669828
 20
133.5668142572
 10
117.0071818958
 20
133.5627934262
 10
117.0213539985
 20
133.5568043521
 10
117.035628259
 20
133.5489125512
  0
LWPOLYLINE
  5
23F
100
AcDbEntity
  8
RACCORDO
100
AcDbPolyline
 62
7
  6
CONTINUOUS
 90
16
 70
0
 10
114.561130488
 20
137.2082503473
 10
114.5608834249
 20
137.2081669141
 10
114.5609993036
 20
137.2081769799
 10
114.5625569479
 20
137.208446373
 10
114.5663510575
 20
137.2088252934
 10
114.5727197192
 20
137.2089676154
 10
114.5815115576
 20
137.2085199169
 10
114.5927076442
 20
137.2071779829
 10
114.6062941848
 20
137.2046545774
 10
114.6220561076
 20
137.2007321099
 10
114.639645978
 20
137.1952873758
 10
114.6588878212
 20
137.1882019026
 10
114.6796003592
 20
137.1793909073
 10
114.7014810668
 20
137.1688594473
 10
114.7243369587
 20
137.156602166
 10
114.7303076332
 20
137.1531969011
  0
LWPOLYLINE
  5
240
100
AcDbEntity
  8
RACCORDO
100
AcDbPolyline
 62
250
  6
CONTINUOUS
 90
13
 70
0
 10
113.65990173
 20
100.8103930424
 10
113.5367889998
 20
103.7478014076
 10
113.436049638
 20
106.6978463666
 10
113.3576900475
 20
109.6603308466
 10
113.3017150969
 20
112.6350569874
 10
113.268128457
 20
115.6218258924
 10
113.2569325985
 20
118.6204376409
 10
113.2681284564
 20
121.6306916102
 10
113.301715096
 20
124.6523866148
 10
113.3576900463
 20
127.6853206553
 10
113.4360496368
 20
130.7292908547
 10
113.5367889989
 20
133.7840934723
 10
113.65990173
 20
136.8495240416
  0
LWPOLYLINE
  5
241
100
AcDbEntity
  8
RACCORDO
100
AcDbPolyline
 62
250
  6
CONTINUOUS
 90
13
 70
0
 10
114.3475958897
 20
100.8197377476
 10
114.2246045668
 20
103.7542217685
 10
114.1239734665
 20
106.700932172
 10
114.0457025889
 20
109.6598689579
 10
113.9897896837
 20
112.631231527
 10
113.9562370011
 20
115.6148204785
 10
113.9450512923
 20
118.6100376106
 10
113.9562370922
 20
121.6168862106
 10
113.9897898658
 20
124.6353629911
 10
114.0457027589
 20
127.6648598876
 10
114.1239734867
 20
130.705174212
 10
114.2246043339
 20
133.7565086524
 10
114.3475953006
 20
136.8188632088
  0
LWPOLYLINE
  5
242
100
AcDbEntity
  8
RACCORDO
100
AcDbPolyline
 62
250
  6
CONTINUOUS
 90
22
 70
0
 10
114.6273710793
 20
99.246732958
 10
114.6269176375
 20
99.2770389205
 10
114.6284466302
 20
99.308442942
 10
114.6319494747
 20
99.3407688948
 10
114.6374065183
 20
99.373835481
 10
114.644787149
 20
99.4074572516
 10
114.6540499675
 20
99.4414456466
 10
114.6651430184
 20
99.4756100483
 10
114.6780040826
 20
99.5097588544
 10
114.6925610278
 20
99.5437005547
 10
114.7087322097
 20
99.5772447969
 10
114.7264269319
 20
99.6102034598
 10
114.7455459574
 20
99.6423917123
 10
114.7659820589
 20
99.6736290384
 10
114.787620624
 20
99.7037402568
 10
114.8103403019
 20
99.7325565081
 10
114.8340136744
 20
99.7599161886
 10
114.8585079761
 20
99.7856658644
 10
114.8836858441
 20
99.8096611369
 10
114.9094060789
 20
99.8317674413
 10
114.935524435
 20
99.8518608027
 10
114.9618944366
 20
99.8698285376
  0
LINE
  5
243
100
AcDbEntity
  8
0
100
AcDbLine
 62
7
  6
CONTINUOUS
 10
116.3988949455
 20
102.0041486701
 11
116.3988949455
 21
136.1897758842
  0
LINE
  5
244
100
AcDbEntity
  8
0
100
AcDbLine
 62
7
  6
CONTINUOUS
 10
116.5074399694
 20
115.5483653115
 11
116.5074399694
 21
112.912851878
  0
LWPOLYLINE
  5
245
100
AcDbEntity
  8
RACCORDO
100
AcDbPolyline
 62
250
  6
CONTINUOUS
 90
13
 70
0
 10
114.6273710793
 20
137.404594821
 10
114.6269176313
 20
137.3737655668
 10
114.6284465775
 20
137.3441274543
 10
114.6319493433
 20
137.3158467004
 10
114.6374062844
 20
137.2890819096
 10
114.6447867971
 20
137.2639831847
 10
114.6540494899
 20
137.2406912847
 10
114.6651424157
 20
137.2193368357
 10
114.6780033628
 20
137.2000395981
 10
114.6925602044
 20
137.1829077948
 10
114.7087313024
 20
137.1680375048
 10
114.726425966
 20
137.1555121239
 10
114.7303078119
 20
137.153197211
  0
LWPOLYLINE
  5
246
100
AcDbEntity
  8
RACCORDO
100
AcDbPolyline
 62
250
  6
CONTINUOUS
 90
10
 70
0
 10
114.347595465
 20
136.8188632848
 10
114.3499129795
 20
136.8538058186
 10
114.353883502
 20
136.8877682345
 10
114.3594982189
 20
136.9206532055
 10
114.3667493843
 20
136.9523806854
 10
114.3756156478
 20
136.9828441523
 10
114.3860558271
 20
137.0119168849
 10
114.398031681
 20
137.0395087677
 10
114.4115142823
 20
137.0655604783
 10
114.4264650585
 20
137.0900038401
  0
LWPOLYLINE
  5
247
100
AcDbEntity
  8
RACCORDO
100
AcDbPolyline
 62
250
  6
CONTINUOUS
 90
10
 70
0
 10
113.65990173
 20
136.8495240416
 10
113.6637508183
 20
136.9066235676
 10
113.6701589221
 20
136.9617977119
 10
113.6791258685
 20
137.0150463831
 10
113.6907036742
 20
137.0665440514
 10
113.7048400318
 20
137.1161160929
 10
113.7213780569
 20
137.1632386583
 10
113.7402650973
 20
137.2077369446
 10
113.7615529854
 20
137.2497853266
 10
113.7852413477
 20
137.2893836092
  0
LWPOLYLINE
  5
248
100
AcDbEntity
  8
0
100
AcDbPolyline
 62
250
  6
CONTINUOUS
 90
25
 70
0
 10
117.8862766999
 20
132.8819136572
 10
117.8858365028
 20
132.8973801708
 10
117.8845545932
 20
132.912170214
 10
117.8824309709
 20
132.9262837867
 10
117.8794509817
 20
132.9397743747
 10
117.8756292799
 20
132.9525884922
 10
117.8710098284
 20
132.9645656821
 10
117.8655815757
 20
132.9756963497
 10
117.8593555732
 20
132.9859900897
 10
117.8524089376
 20
132.995315229
 10
117.8447334768
 20
133.0036576349
 10
117.8363373829
 20
133.01103144
 10
117.8273223486
 20
133.017347369
 10
117.8176805742
 20
133.0225929549
 10
117.8074198594
 20
133.0267806647
 10
117.7966652957
 20
133.0298586234
 10
117.7854110678
 20
133.031813195
 10
117.7736629911
 20
133.0326580156
 10
117.7615636032
 20
133.0323821177
 10
117.7491063504
 20
133.0309708668
 10
117.7362977864
 20
133.0284388976
 10
117.7233001102
 20
133.0248191466
 10
117.7101673881
 20
133.0201225929
 10
117.6968455539
 20
133.0143382574
 10
117.6833346074
 20
133.0074661403
  0
LWPOLYLINE
  5
249
100
AcDbEntity
  8
0
100
AcDbPolyline
 62
7
  6
CONTINUOUS
 90
15
 70
0
 10
117.9436240182
 20
132.9628520405
 10
117.9430988319
 20
132.9852954174
 10
117.9406080833
 20
133.0158664104
 10
117.9361110266
 20
133.0453840204
 10
117.9296226092
 20
133.0738931333
 10
117.9211484322
 20
133.1013513186
 10
117.9107216836
 20
133.1276429916
 10
117.8983922421
 20
133.1526419855
 10
117.8842106426
 20
133.1762386191
 10
117.8682578088
 20
133.1983027023
 10
117.8506945816
 20
133.2186516532
 10
117.8316820928
 20
133.2371606838
 10
117.811356816
 20
133.2537587106
 10
117.7899038132
 20
133.2683629098
 10
117.7820202444
 20
133.2730765148
  0
LWPOLYLINE
  5
24A
100
AcDbEntity
  8
0
100
AcDbPolyline
 62
250
  6
CONTINUOUS
 90
16
 70
0
 10
117.6833346074
 20
133.0074661403
 10
117.6830647219
 20
133.0252649414
 10
117.6812354933
 20
133.0437552546
 10
117.6778669554
 20
133.0627345744
 10
117.6729960002
 20
133.08199504
 10
117.6666759742
 20
133.1013257115
 10
117.6589760942
 20
133.1205148801
 10
117.649980689
 20
133.1393523865
 10
117.639788276
 20
133.1576319232
 10
117.628510482
 20
133.1751532933
 10
117.6162708211
 20
133.1917246033
 10
117.6032033417
 20
133.2071643648
 10
117.5894511583
 20
133.2213034822
 10
117.5751648844
 20
133.2339871042
 10
117.5605009827
 20
133.2450763203
 10
117.5456200517
 20
133.2544496818
  0
LINE
  5
24B
100
AcDbEntity
  8
0
100
AcDbLine
 62
250
  6
CONTINUOUS
 10
117.8862766999
 20
131.0576649528
 11
117.8862766999
 21
132.8819136572
  0
LINE
  5
24C
100
AcDbEntity
  8
0
100
AcDbLine
 62
7
  6
CONTINUOUS
 10
117.9436266101
 20
131.1386041977
 11
117.9436266101
 21
132.9628528972
  0
LWPOLYLINE
  5
24D
100
AcDbEntity
  8
0
100
AcDbPolyline
 62
250
  6
CONTINUOUS
 90
8
 70
0
 10
117.6833346074
 20
130.6936336927
 10
117.6830647212
 20
130.6773221123
 10
117.6812354896
 20
130.6620756231
 10
117.677866947
 20
130.6480612039
 10
117.6729959861
 20
130.6354323397
 10
117.6666759541
 20
130.6243273411
 10
117.6589760683
 20
130.6148678294
 10
117.6499806584
 20
130.6071574042
  0
LINE
  5
24E
100
AcDbEntity
  8
0
100
AcDbLine
 62
7
  6
CONTINUOUS
 10
116.5076000901
 20
112.9129524707
 11
116.3988949455
 21
112.8446605868
  0
LINE
  5
24F
100
AcDbEntity
  8
0
100
AcDbLine
 62
7
  6
CONTINUOUS
 10
116.5074399694
 20
115.5483653115
 11
116.3988949455
 21
115.4890045298
  0
LWPOLYLINE
  5
250
100
AcDbEntity
  8
RACCORDO
100
AcDbPolyline
 62
250
  6
CONTINUOUS
 90
19
 70
0
 10
213.6342053593
 20
27.2603996468
 10
213.6528017916
 20
27.2508299717
 10
213.6727522141
 20
27.2424959046
 10
213.6939145845
 20
27.2354567822
 10
213.7161382319
 20
27.2297627211
 10
213.7392649292
 20
27.2254542618
 10
213.7631300201
 20
27.2225620795
 10
213.7875635907
 20
27.2211067657
 10
213.81239168
 20
27.221098682
 10
213.837437518
 20
27.2225378859
 10
213.8625227843
 20
27.2254141307
 10
213.8874688781
 20
27.2297069382
 10
213.912098189
 20
27.2353857445
 10
213.9362353623
 20
27.2424101181
 10
213.9597085473
 20
27.250730047
 10
213.9823506205
 20
27.2602862954
 10
214.0040003759
 20
27.271010825
 10
214.0245036723
 20
27.2828272799
 10
214.0437145313
 20
27.2956515298
  0
LWPOLYLINE
  5
251
100
AcDbEntity
  8
RACCORDO
100
AcDbPolyline
 62
250
  6
CONTINUOUS
 90
6
 70
0
 10
213.2358743026
 20
27.0184113333
 10
213.264374694
 20
27.0027573729
 10
213.292276431
 20
26.9889881238
 10
213.3195796185
 20
26.9771036688
 10
213.3463616845
 20
26.9670762126
 10
213.3725456191
 20
26.958933881
  0
LWPOLYLINE
  5
252
100
AcDbEntity
  8
RACCORDO
100
AcDbPolyline
 62
7
  6
CONTINUOUS
 90
16
 70
0
 10
213.2944171898
 20
26.9235626517
 10
213.3245531908
 20
26.9067928215
 10
213.3688558029
 20
26.884459648
 10
213.412820565
 20
26.865067473
 10
213.4564333847
 20
26.848606074
 10
213.4996676376
 20
26.8350863745
 10
213.5425202946
 20
26.8245208708
 10
213.5850010114
 20
26.816921366
 10
213.6270835276
 20
26.8123241178
 10
213.6687794535
 20
26.8107820282
 10
213.7099427497
 20
26.8123567889
 10
213.7502351632
 20
26.8170575997
 10
213.7895389049
 20
26.8248750079
 10
213.8276623971
 20
26.8357776622
 10
213.8641086847
 20
26.8495776577
 10
213.8764521426
 20
26.8550681539
  0
LWPOLYLINE
  5
253
100
AcDbEntity
  8
RACCORDO
100
AcDbPolyline
 62
250
  6
CONTINUOUS
 90
10
 70
0
 10
100.3974611617
 20
92.6418765501
 10
100.3802928048
 20
92.6529574494
 10
100.3647330655
 20
92.6651268868
 10
100.3508927228
 20
92.678298221
 10
100.3388703142
 20
92.6923776777
 10
100.3287514344
 20
92.7072650167
 10
100.3206081256
 20
92.7228542464
 10
100.3144983648
 20
92.739034378
 10
100.310465651
 20
92.7556902155
 10
100.3101600613
 20
92.7574860695
  0
LWPOLYLINE
  5
254
100
AcDbEntity
  8
RACCORDO
100
AcDbPolyline
 62
250
  6
CONTINUOUS
 90
10
 70
0
 10
114.4264650585
 20
100.4912413772
 10
114.4115379756
 20
100.5288318203
 10
114.3980671974
 20
100.5664163312
 10
114.3860935036
 20
100.603887029
 10
114.3756459635
 20
100.6411588396
 10
114.3667680973
 20
100.678100152
 10
114.359508326
 20
100.7145364875
 10
114.353888932
 20
100.7503433378
 10
114.3499154457
 20
100.7854430911
 10
114.3475963335
 20
100.8197380032
  0
LWPOLYLINE
  5
255
100
AcDbEntity
  8
RACCORDO
100
AcDbPolyline
 62
250
  6
CONTINUOUS
 90
10
 70
0
 10
113.7852413477
 20
100.2743690316
 10
113.7615996205
 20
100.3360616281
 10
113.7403422715
 20
100.3973894731
 10
113.7214696875
 20
100.4583528113
 10
113.7049241723
 20
100.5191777136
 10
113.6907642721
 20
100.5796386466
 10
113.6791645128
 20
100.6390583062
 10
113.6701830828
 20
100.6972109319
 10
113.6637620954
 20
100.7543224731
 10
113.65990173
 20
100.8103930424
  0
LWPOLYLINE
  5
256
100
AcDbEntity
  8
0
100
AcDbPolyline
 62
7
  6
CONTINUOUS
 90
15
 70
0
 10
128.8257722911
 20
95.7741495596
 10
128.8256752375
 20
95.7817940597
 10
128.8239160461
 20
95.8074319149
 10
128.8199092843
 20
95.8331094849
 10
128.8136316181
 20
95.8586265045
 10
128.8050749047
 20
95.8838309403
 10
128.7942632283
 20
95.9085264793
 10
128.781269114
 20
95.9324870553
 10
128.7661594407
 20
95.9555787946
 10
128.7490018725
 20
95.9777016879
 10
128.7298804337
 20
95.9987473946
 10
128.7088783723
 20
96.0186268573
 10
128.6860285893
 20
96.0373143138
 10
128.6612846987
 20
96.0548220556
 10
128.6379155003
 20
96.069226699
  0
LINE
  5
257
100
AcDbEntity
  8
0
100
AcDbLine
 62
250
  6
CONTINUOUS
 10
128.6914621481
 20
95.5787276368
 11
128.6914519093
 21
94.989852578
  0
LINE
  5
258
100
AcDbEntity
  8
0
100
AcDbLine
 62
7
  6
CONTINUOUS
 10
128.8257750585
 20
95.7741731583
 11
128.8257750585
 21
95.192491257
  0
LWPOLYLINE
  5
259
100
AcDbEntity
  8
0
100
AcDbPolyline
 62
250
  6
CONTINUOUS
 90
8
 70
0
 10
128.6914519093
 20
94.989852578
 10
128.6911487441
 20
94.9735454631
 10
128.6892487625
 20
94.9582783132
 10
128.6857727568
 20
94.9442181385
 10
128.6807587582
 20
94.9315187413
 10
128.6742616249
 20
94.9203190433
 10
128.6663524448
 20
94.9107415622
 10
128.6571177497
 20
94.9028910589
  0
LWPOLYLINE
  5
25A
100
AcDbEntity
  8
0
100
AcDbPolyline
 62
250
  6
CONTINUOUS
 90
3
 70
0
 10
128.8236599978
 20
95.1653837339
 10
128.8256862061
 20
95.1869324136
 10
128.8257750585
 20
95.1924901462
  0
LWPOLYLINE
  5
25B
100
AcDbEntity
  8
RACCORDO
100
AcDbPolyline
 62
250
  6
CONTINUOUS
 90
19
 70
0
 10
163.9898255853
 20
71.286874668
 10
164.0168860785
 20
71.2879347556
 10
164.0462810096
 20
71.2905942154
 10
164.077799915
 20
71.2948340062
 10
164.1112171236
 20
71.3006237715
 10
164.1462933725
 20
71.3079220575
 10
164.1827775207
 20
71.3166766094
 10
164.2204083463
 20
71.3268247458
 10
164.2589164179
 20
71.3382938074
 10
164.2980260228
 20
71.3510016773
 10
164.3374571414
 20
71.3648573689
 10
164.3769274523
 20
71.3797616773
 10
164.4161543533
 20
71.3956078896
 10
164.4548569851
 20
71.4122825492
 10
164.492758242
 20
71.4296662677
 10
164.5295867562
 20
71.4476345801
 10
164.5650788403
 20
71.4660588356
 10
164.5989803759
 20
71.4848071191
 10
164.6310486325
 20
71.5037451954
  0
LINE
  5
25C
100
AcDbEntity
  8
RACCORDO
100
AcDbLine
 62
7
  6
CONTINUOUS
 10
101.0367808123
 20
91.7397095387
 11
213.2944737618
 21
26.9235245489
  0
LINE
  5
25D
100
AcDbEntity
  8
RACCORDO
100
AcDbLine
 62
250
  6
CONTINUOUS
 10
100.978181421
 20
91.8345962838
 11
213.2358743026
 21
27.0184113333
  0
LINE
  5
25E
100
AcDbEntity
  8
RACCORDO
100
AcDbLine
 62
7
  6
CONTINUOUS
 10
213.2944148462
 20
26.9235585928
 11
213.2944737618
 21
26.9235245489
  0
LINE
  5
25F
100
AcDbEntity
  8
0
100
AcDbLine
 62
250
  6
CONTINUOUS
 10
114.3475958897
 20
100.8197377476
 11
116.3988949455
 21
102.0041486701
  0
LINE
  5
260
100
AcDbEntity
  8
0
100
AcDbLine
 62
250
  6
CONTINUOUS
 10
114.9618901184
 20
99.8698310309
 11
116.9638051182
 21
101.0256955502
  0
LWPOLYLINE
  5
261
100
AcDbEntity
  8
RACCORDO
100
AcDbPolyline
 62
250
  6
CONTINUOUS
 90
19
 70
0
 10
211.8178428464
 20
43.6715735726
 10
211.8364683647
 20
43.6617850446
 10
211.8564683029
 20
43.6530239591
 10
211.8777004095
 20
43.6453526302
 10
211.9000136687
 20
43.638825621
 10
211.9232493753
 20
43.6334893556
 10
211.9472422628
 20
43.6293817887
 10
211.9718216792
 20
43.6265321358
 10
211.996812801
 20
43.6249606655
 10
212.0220378761
 20
43.6246785548
 10
212.0473174885
 20
43.6256878104
 10
212.0724718343
 20
43.6279812539
 10
212.0973220007
 20
43.6315425728
 10
212.1216912381
 20
43.6363464369
 10
212.1454062179
 20
43.6423586783
 10
212.1682982648
 20
43.6495365342
 10
212.1902045566
 20
43.6578289514
 10
212.2109692826
 20
43.6671769491
 10
212.2304447515
 20
43.6775140389
  0
LWPOLYLINE
  5
262
100
AcDbEntity
  8
RACCORDO
100
AcDbPolyline
 62
250
  6
CONTINUOUS
 90
22
 70
0
 10
114.6273710793
 20
99.246732958
 10
114.5803104981
 20
99.2751866578
 10
114.53332469
 20
99.3062334565
 10
114.4864138752
 20
99.3398734953
 10
114.4394671575
 20
99.3761667015
 10
114.3925963162
 20
99.4150537132
 10
114.3461358093
 20
99.4563558807
 10
114.3000104645
 20
99.5001799056
 10
114.2542972546
 20
99.5464202381
 10
114.2095590102
 20
99.5945799505
 10
114.1658487904
 20
99.6446571163
 10
114.1231160309
 20
99.6966552559
 10
114.0817681021
 20
99.7500855945
 10
114.0418279533
 20
99.8049623604
 10
114.003275546
 20
99.861273181
 10
113.966453539
 20
99.9184892334
 10
113.9313799825
 20
99.9766354271
 10
113.8980398091
 20
100.0356887488
 10
113.8667255102
 20
100.0950481764
 10
113.8375352843
 20
100.1545138128
 10
113.8103734424
 20
100.2142871439
 10
113.7852413477
 20
100.2743690316
  0
LWPOLYLINE
  5
263
100
AcDbEntity
  8
RACCORDO
100
AcDbPolyline
 62
250
  6
CONTINUOUS
 90
10
 70
0
 10
98.7616929941
 20
108.9487775755
 10
98.7445696179
 20
108.9596300111
 10
98.7290749294
 20
108.9713630782
 10
98.7153191362
 20
108.983893324
 10
98.7034000777
 20
108.9971316259
 10
98.6934025296
 20
109.010983825
 10
98.6853976004
 20
109.0253513962
 10
98.6794422261
 20
109.0401321486
 10
98.6755787649
 20
109.0552209526
 10
98.673834696
 20
109.0705104873
  0
LWPOLYLINE
  5
264
100
AcDbEntity
  8
0
100
AcDbPolyline
 62
250
  6
CONTINUOUS
 90
10
 70
0
 10
128.6204208018
 20
95.9739903757
 10
128.61581771
 20
95.9846699505
 10
128.6100154771
 20
95.9952097244
 10
128.6030895849
 20
96.0054770632
 10
128.595026199
 20
96.0154671929
 10
128.5858391537
 20
96.0251848874
 10
128.5756454339
 20
96.0345118335
 10
128.5644840343
 20
96.0434085936
 10
128.5523159601
 20
96.0519146053
 10
128.5391412113
 20
96.0600298687
  0
LWPOLYLINE
  5
265
100
AcDbEntity
  8
0
100
AcDbPolyline
 62
250
  6
CONTINUOUS
 90
10
 70
0
 10
128.6914519093
 20
94.989852578
 10
128.7154006398
 20
95.0064430055
 10
128.7372644423
 20
95.0239899427
 10
128.7569263699
 20
95.0424027909
 10
128.7742811943
 20
95.0615892912
 10
128.7892361869
 20
95.0814469346
 10
128.8017115147
 20
95.10186352
 10
128.8116405146
 20
95.1227328299
 10
128.8189698018
 20
95.14394615
 10
128.8236599978
 20
95.1653837339
  0
LWPOLYLINE
  5
266
100
AcDbEntity
  8
0
100
AcDbPolyline
 62
7
  6
CONTINUOUS
 90
13
 70
0
 10
128.6555143677
 20
94.9018005975
 10
128.6692917856
 20
94.9112642639
 10
128.6967478795
 20
94.9325136241
 10
128.7214917963
 20
94.9550280939
 10
128.7435023639
 20
94.9786091981
 10
128.7628434819
 20
95.0031530647
 10
128.7796060764
 20
95.028631406
 10
128.7937579293
 20
95.0548495041
 10
128.8053013334
 20
95.0816473943
 10
128.8142872227
 20
95.1090187298
 10
128.8206878203
 20
95.1367521018
 10
128.8245089448
 20
95.1646482932
 10
128.8257745547
 20
95.1925612474
  0
LINE
  5
267
100
AcDbEntity
  8
0
100
AcDbLine
 62
250
  6
CONTINUOUS
 10
128.0974688151
 20
94.5972576692
 11
128.6914519093
 21
94.989852578
  0
LINE
  5
268
100
AcDbEntity
  8
0
100
AcDbLine
 62
7
  6
CONTINUOUS
 10
128.1493968203
 20
94.5672750898
 11
128.6554603388
 21
94.9017592912
  0
LWPOLYLINE
  5
269
100
AcDbEntity
  8
0
100
AcDbPolyline
 62
250
  6
CONTINUOUS
 90
13
 70
0
 10
128.6914621479
 20
95.5787276803
 10
128.7124897984
 20
95.5924749597
 10
128.7319482031
 20
95.6069784705
 10
128.7497554635
 20
95.6221794649
 10
128.7658388001
 20
95.6380183831
 10
128.7801265905
 20
95.6544287285
 10
128.7925517622
 20
95.6713364331
 10
128.8030617381
 20
95.6886685588
 10
128.8116159251
 20
95.7063565125
 10
128.8181795343
 20
95.7243293838
 10
128.8227256279
 20
95.7425135914
 10
128.8252352534
 20
95.7608336726
 10
128.8257750554
 20
95.7741411314
  0
LWPOLYLINE
  5
26A
100
AcDbEntity
  8
0
100
AcDbPolyline
 62
250
  6
CONTINUOUS
 90
16
 70
0
 10
128.5464152874
 20
95.8214772674
 10
128.559121716
 20
95.8297428504
 10
128.5707915208
 20
95.8383885847
 10
128.581424702
 20
95.8474144704
 10
128.5910577983
 20
95.8568618448
 10
128.5996542708
 20
95.8666893705
 10
128.6071045032
 20
95.8767730353
 10
128.6133925444
 20
95.8871144808
 10
128.6185343453
 20
95.8977120654
 10
128.6224681425
 20
95.9084368515
 10
128.6251792192
 20
95.9192906209
 10
128.6266822922
 20
95.9302715917
 10
128.6269597482
 20
95.941245481
 10
128.625996891
 20
95.9522117672
 10
128.623808417
 20
95.9631709719
 10
128.6204208018
 20
95.9739903757
  0
LINE
  5
26B
100
AcDbEntity
  8
0
100
AcDbLine
 62
250
  6
CONTINUOUS
 10
127.2957513352
 20
95.0601592942
 11
128.5464152874
 21
95.8214772674
  0
LINE
  5
26C
100
AcDbEntity
  8
0
100
AcDbLine
 62
250
  6
CONTINUOUS
 10
127.5748500546
 20
94.8990111915
 11
128.6914621481
 21
95.5787276368
  0
LINE
  5
26D
100
AcDbEntity
  8
0
100
AcDbLine
 62
7
  6
CONTINUOUS
 10
126.4478016419
 20
96.9913155248
 11
125.1444878673
 21
96.3022718589
  0
LINE
  5
26E
100
AcDbEntity
  8
0
100
AcDbLine
 62
250
  6
CONTINUOUS
 10
126.5425130503
 20
96.9785053043
 11
125.2013401611
 21
96.2694460569
  0
LWPOLYLINE
  5
26F
100
AcDbEntity
  8
0
100
AcDbPolyline
 62
250
  6
CONTINUOUS
 90
9
 70
0
 10
126.9592445927
 20
96.9722423755
 10
126.9739379138
 20
96.9796934021
 10
126.9884586918
 20
96.9852868159
 10
127.0026495969
 20
96.9889620038
 10
127.0163568724
 20
96.9906791356
 10
127.0294319991
 20
96.9904195959
 10
127.0417333049
 20
96.9881861865
 10
127.0531275031
 20
96.9840030962
 10
127.0580153105
 20
96.9814442618
  0
LWPOLYLINE
  5
270
100
AcDbEntity
  8
0
100
AcDbPolyline
 62
250
  6
CONTINUOUS
 90
9
 70
0
 10
178.8424933823
 20
67.0817356351
 10
178.8376053438
 20
67.0842945786
 10
178.8262111294
 20
67.0884776266
 10
178.8139098223
 20
67.0907109931
 10
178.8008347107
 20
67.0909704948
 10
178.7871274688
 20
67.0892533355
 10
178.7729366164
 20
67.0855781365
 10
178.7584159093
 20
67.0799847329
 10
178.7437226755
 20
67.0725337424
  0
LWPOLYLINE
  5
271
100
AcDbEntity
  8
0
100
AcDbPolyline
 62
250
  6
CONTINUOUS
 90
9
 70
0
 10
177.2625967705
 20
67.993948138
 10
177.2577094112
 20
67.9965067609
 10
177.2463152451
 20
68.0006899326
 10
177.2340139436
 20
68.0029234243
 10
177.2209387902
 20
68.0031830362
 10
177.2072314533
 20
68.0014659555
 10
177.1930404508
 20
67.9977907866
 10
177.178519541
 20
67.9921973497
 10
177.1638260569
 20
67.9847462493
  0
LWPOLYLINE
  5
272
100
AcDbEntity
  8
RACCORDO
100
AcDbPolyline
 62
250
  6
CONTINUOUS
 90
19
 70
0
 10
163.8644832041
 20
71.8228969224
 10
163.8955259559
 20
71.8065785949
 10
163.9288595619
 20
71.7919689329
 10
163.9642469343
 20
71.7791718485
 10
164.0014363778
 20
71.768278362
 10
164.04016338
 20
71.7593659542
 10
164.0801524921
 20
71.752498015
 10
164.1211192887
 20
71.7477233934
 10
164.1627723906
 20
71.745076049
 10
164.2048155368
 20
71.7445748114
 10
164.2469496927
 20
71.7462232456
 10
164.2888751758
 20
71.750009627
 10
164.3302937882
 20
71.7559070247
 10
164.370910937
 20
71.7638734931
 10
164.4104377298
 20
71.77385237
 10
164.4485930293
 20
71.78577268
 10
164.4851054533
 20
71.7995496389
 10
164.5197153044
 20
71.8150852573
 10
164.5521764177
 20
71.8322690368
  0
LWPOLYLINE
  5
273
100
AcDbEntity
  8
RACCORDO
100
AcDbPolyline
 62
250
  6
CONTINUOUS
 90
19
 70
0
 10
113.6599017399
 20
100.8103930486
 10
113.6909444917
 20
100.7940747212
 10
113.7242780976
 20
100.7794650591
 10
113.75966547
 20
100.7666679748
 10
113.7968549136
 20
100.7557744883
 10
113.8355819158
 20
100.7468620804
 10
113.8755710279
 20
100.7399941413
 10
113.9165378245
 20
100.7352195196
 10
113.9581909263
 20
100.7325721753
 10
114.0002340726
 20
100.7320709377
 10
114.0423682284
 20
100.7337193719
 10
114.0842937116
 20
100.7375057533
 10
114.125712324
 20
100.743403151
 10
114.1663294728
 20
100.7513696194
 10
114.2058562655
 20
100.7613484963
 10
114.2440115651
 20
100.7732688062
 10
114.280523989
 20
100.7870457652
 10
114.3151338402
 20
100.8025813835
 10
114.3475949534
 20
100.819765163
  0
LWPOLYLINE
  5
274
100
AcDbEntity
  8
0
100
AcDbPolyline
 62
7
  6
CONTINUOUS
 90
19
 70
0
 10
177.2626141778
 20
67.9939335443
 10
177.2360990084
 20
68.0081935165
 10
177.2044823865
 20
68.0227197371
 10
177.1716561281
 20
68.0353587512
 10
177.1376710451
 20
68.0461542168
 10
177.1026580977
 20
68.0551018918
 10
177.0668976617
 20
68.062169832
 10
177.0305095202
 20
68.0673572149
 10
176.9936160949
 20
68.0706602595
 10
176.9565552862
 20
68.072059678
 10
176.91945874
 20
68.0715546666
 10
176.8824585175
 20
68.0691440127
 10
176.8458946544
 20
68.0648359925
 10
176.8098898732
 20
68.0586356079
 10
176.7745676663
 20
68.0505392526
 10
176.7402126417
 20
68.0405721239
 10
176.7069555326
 20
68.0287384867
 10
176.6748499493
 20
68.0149917481
 10
176.652355203
 20
68.0037997369
  0
LWPOLYLINE
  5
275
100
AcDbEntity
  8
0
100
AcDbPolyline
 62
7
  6
CONTINUOUS
 90
19
 70
0
 10
127.0580350251
 20
96.9814298798
 10
127.0318184359
 20
96.995539279
 10
127.000166389
 20
97.0101039189
 10
126.9673081487
 20
97.0227732023
 10
126.9332942813
 20
97.0335911379
 10
126.8982624532
 20
97.0425571791
 10
126.8624921299
 20
97.0496363959
 10
126.8261047906
 20
97.0548327113
 10
126.7892228331
 20
97.0581457091
 10
126.7521799683
 20
97.0595521636
 10
126.7151089555
 20
97.0590608457
 10
126.6781439121
 20
97.0566644288
 10
126.6416223833
 20
97.0523769388
 10
126.6056661854
 20
97.0462055658
 10
126.5703986206
 20
97.0381403108
 10
126.5360983189
 20
97.0282184109
 10
126.5029082529
 20
97.0164428711
 10
126.4708778189
 20
97.0027732088
 10
126.447767082
 20
96.9912973973
  0
LWPOLYLINE
  5
276
100
AcDbEntity
  8
0
100
AcDbPolyline
 62
250
  6
CONTINUOUS
 90
25
 70
0
 10
126.9592445927
 20
96.9722423755
 10
126.9451816995
 20
96.9798537848
 10
126.9304272351
 20
96.9868925092
 10
126.9149811995
 20
96.9933585487
 10
126.8987750311
 20
96.9992745675
 10
126.8818772915
 20
97.0046179014
 10
126.8644936656
 20
97.0093205577
 10
126.8466156907
 20
97.0133746609
 10
126.8282518296
 20
97.0167880864
 10
126.8096331548
 20
97.0195164684
 10
126.7907594731
 20
97.0215504584
 10
126.7716309778
 20
97.0228994048
 10
126.7524793206
 20
97.0235469872
 10
126.7333034613
 20
97.0234847991
 10
126.7141044402
 20
97.0227212469
 10
126.6951170297
 20
97.0212652286
 10
126.6763442136
 20
97.0191083061
 10
126.6577830083
 20
97.0162589174
 10
126.639659235
 20
97.0127512752
 10
126.621975622
 20
97.0085762362
 10
126.604729441
 20
97.0037429437
 10
126.5881383297
 20
96.99831304
 10
126.5722748336
 20
96.9923070726
 10
126.5570664072
 20
96.9857044941
 10
126.5425130503
 20
96.9785053043
  0
LWPOLYLINE
  5
277
100
AcDbEntity
  8
0
100
AcDbPolyline
 62
250
  6
CONTINUOUS
 90
8
 70
0
 10
126.5425130503
 20
96.9785053043
 10
126.5282513585
 20
96.9864282563
 10
126.5141323441
 20
96.9924683098
 10
126.5003106383
 20
96.9965593142
 10
126.4869376158
 20
96.998656465
 10
126.4741597375
 20
96.9987367943
 10
126.4621169462
 20
96.9967994224
 10
126.4509411343
 20
96.9928655673
  0
LWPOLYLINE
  5
278
100
AcDbEntity
  8
RACCORDO
100
AcDbPolyline
 62
250
  6
CONTINUOUS
 90
22
 70
0
 10
165.1664714349
 20
70.8823348193
 10
165.1365707475
 20
70.8992423051
 10
165.1065937127
 20
70.9178162873
 10
165.0766121528
 20
70.9380180178
 10
165.0467086102
 20
70.9597861051
 10
165.0169469037
 20
70.9830878092
 10
164.9873733807
 20
71.007927436
 10
164.9580098588
 20
71.0343038607
 10
164.9289910698
 20
71.0621142382
 10
164.9005300319
 20
71.0911949252
 10
164.8727242985
 20
71.1214377952
 10
164.84561869
 20
71.1527832227
 10
164.8193370848
 20
71.185116953
 10
164.7939482939
 20
71.218341452
 10
164.7695102984
 20
71.2523647019
 10
164.7461224784
 20
71.2870722204
 10
164.723839488
 20
71.3223670265
 10
164.7027129037
 20
71.3581449247
 10
164.6828274334
 20
71.394276427
 10
164.6642362701
 20
71.4306498228
 10
164.6469646275
 20
71.4671729062
 10
164.6310465227
 20
71.503745251
  0
LWPOLYLINE
  5
279
100
AcDbEntity
  8
RACCORDO
100
AcDbPolyline
 62
250
  6
CONTINUOUS
 90
22
 70
0
 10
114.9618899706
 20
99.8698309456
 10
114.9319892832
 20
99.8867384314
 10
114.9020122485
 20
99.9053124136
 10
114.8720306886
 20
99.9255141441
 10
114.8421271459
 20
99.9472822314
 10
114.8123654395
 20
99.9705839355
 10
114.7827919164
 20
99.9954235623
 10
114.7534283946
 20
100.021799987
 10
114.7244096056
 20
100.0496103645
 10
114.6959485677
 20
100.0786910515
 10
114.6681428342
 20
100.1089339214
 10
114.6410372258
 20
100.1402793489
 10
114.6147556205
 20
100.1726130792
 10
114.5893668296
 20
100.2058375782
 10
114.5649288341
 20
100.2398608282
 10
114.5415410142
 20
100.2745683466
 10
114.5192580238
 20
100.3098631528
 10
114.4981314395
 20
100.345641051
 10
114.4782459691
 20
100.3817725533
 10
114.4596548058
 20
100.4181459491
 10
114.4423831632
 20
100.4546690324
 10
114.4264650585
 20
100.4912413772
  0
LINE
  5
27A
100
AcDbEntity
  8
RACCORDO
100
AcDbLine
 62
250
  6
CONTINUOUS
 10
196.0041622715
 20
52.2607936144
 11
164.8319525435
 21
70.2592368318
  0
LINE
  5
27B
100
AcDbEntity
  8
RACCORDO
100
AcDbLine
 62
250
  6
CONTINUOUS
 10
145.7995808072
 20
81.2482897407
 11
114.6273710793
 21
99.246732958
  0
LINE
  5
27C
100
AcDbEntity
  8
RACCORDO
100
AcDbLine
 62
250
  6
CONTINUOUS
 10
196.7942944737
 20
52.3459821044
 11
211.817840641
 21
43.6716193048
  0
LINE
  5
27D
100
AcDbEntity
  8
RACCORDO
100
AcDbLine
 62
250
  6
CONTINUOUS
 10
98.7616910844
 20
108.948823247
 11
113.7852413477
 21
100.2743690316
  0
LINE
  5
27E
100
AcDbEntity
  8
RACCORDO
100
AcDbLine
 62
250
  6
CONTINUOUS
 10
146.5897130095
 20
81.3334782307
 11
163.9898228119
 21
71.2868729053
  0
LINE
  5
27F
100
AcDbEntity
  8
RACCORDO
100
AcDbLine
 62
250
  6
CONTINUOUS
 10
196.3387047897
 20
52.8838781307
 11
165.1664715826
 21
70.8823349046
  0
LINE
  5
280
100
AcDbEntity
  8
RACCORDO
100
AcDbLine
 62
250
  6
CONTINUOUS
 10
146.1341233255
 20
81.8713742569
 11
114.9618901184
 21
99.8698310309
  0
LINE
  5
281
100
AcDbEntity
  8
0
100
AcDbLine
 62
7
  6
CONTINUOUS
 10
196.6534874822
 20
55.0138716995
 11
167.1683865824
 21
72.0381994239
  0
LINE
  5
282
100
AcDbEntity
  8
0
100
AcDbLine
 62
7
  6
CONTINUOUS
 10
146.448906018
 20
84.0013678257
 11
116.9638051182
 21
101.0256955502
  0
LINE
  5
283
100
AcDbEntity
  8
0
100
AcDbLine
 62
7
  6
CONTINUOUS
 10
142.3752032148
 20
86.4791529332
 11
144.6576983327
 21
85.1612688584
  0
LINE
  5
284
100
AcDbEntity
  8
0
100
AcDbLine
 62
7
  6
CONTINUOUS
 10
192.579784679
 20
57.4916568069
 11
194.862279797
 21
56.1737727322
  0
LINE
  5
285
100
AcDbEntity
  8
0
100
AcDbLine
 62
250
  6
CONTINUOUS
 10
128.5391412113
 20
96.0600298687
 11
126.9592445927
 21
96.9722423755
  0
LINE
  5
286
100
AcDbEntity
  8
0
100
AcDbLine
 62
250
  6
CONTINUOUS
 10
177.1638260569
 20
67.9847462493
 11
178.7437226755
 21
67.0725337424
  0
LINE
  5
287
100
AcDbEntity
  8
0
100
AcDbLine
 62
7
  6
CONTINUOUS
 10
128.6379119248
 20
96.0692317574
 11
127.0580153105
 21
96.9814442618
  0
LINE
  5
288
100
AcDbEntity
  8
0
100
AcDbLine
 62
7
  6
CONTINUOUS
 10
177.2625967705
 20
67.993948138
 11
178.8424933823
 21
67.0817356351
  0
LWPOLYLINE
  5
289
100
AcDbEntity
  8
0
100
AcDbPolyline
 62
250
  6
CONTINUOUS
 90
16
 70
0
 10
128.5464152874
 20
95.8214772674
 10
128.5616950057
 20
95.8123433786
 10
128.576793863
 20
95.8015133957
 10
128.5915464969
 20
95.7891059291
 10
128.6057913372
 20
95.7752568655
 10
128.6193723748
 20
95.7601178801
 10
128.6321408707
 20
95.7438547753
 10
128.6439569848
 20
95.7266456648
 10
128.6546913081
 20
95.7086790223
 10
128.6642262793
 20
95.6901516179
 10
128.6724574721
 20
95.6712663632
 10
128.6792947393
 20
95.6522300887
 10
128.6846632003
 20
95.633251278
 10
128.6885040602
 20
95.6145377858
 10
128.6907752545
 20
95.5962945615
 10
128.6914519093
 20
95.5787214041
  0
LWPOLYLINE
  5
28A
100
AcDbEntity
  8
RACCORDO
100
AcDbPolyline
 62
250
  6
CONTINUOUS
 90
22
 70
0
 10
164.8319525435
 20
70.2592368318
 10
164.7848919623
 20
70.2876905315
 10
164.7379061543
 20
70.3187373303
 10
164.6909953394
 20
70.352377369
 10
164.6440486217
 20
70.3886705753
 10
164.5971777804
 20
70.4275575869
 10
164.5507172735
 20
70.4688597544
 10
164.5045919287
 20
70.5126837793
 10
164.4588787189
 20
70.5589241118
 10
164.4141404744
 20
70.6070838242
 10
164.3704302546
 20
70.6571609901
 10
164.3276974951
 20
70.7091591296
 10
164.2863495664
 20
70.7625894683
 10
164.2464094175
 20
70.8174662341
 10
164.2078570103
 20
70.8737770548
 10
164.1710350033
 20
70.9309931072
 10
164.1359614467
 20
70.9891393009
 10
164.1026212734
 20
71.0481926225
 10
164.0713069745
 20
71.1075520502
 10
164.0421167486
 20
71.1670176865
 10
164.0149549066
 20
71.2267910176
 10
163.9898228119
 20
71.2868729053
  0
LWPOLYLINE
  5
28B
100
AcDbEntity
  8
0
100
AcDbPolyline
 62
250
  6
CONTINUOUS
 90
9
 70
0
 10
178.7437226755
 20
67.0725337424
 10
178.7587310896
 20
67.0631985853
 10
178.7724015423
 20
67.0533729474
 10
178.7847340336
 20
67.0430568288
 10
178.7957831806
 20
67.0321892515
 10
178.8054943663
 20
67.0208311934
 10
178.8137037395
 20
67.0091655889
 10
178.8203855619
 20
66.9971868729
 10
178.8255655719
 20
66.9849006106
  0
LWPOLYLINE
  5
28C
100
AcDbEntity
  8
RACCORDO
100
AcDbPolyline
 62
250
  6
CONTINUOUS
 90
10
 70
0
 10
146.6729908591
 20
81.7490519945
 10
146.6444518709
 20
81.7671350654
 10
146.6186275086
 20
81.7866821409
 10
146.5957014519
 20
81.8075541891
 10
146.5758367662
 20
81.8296027543
 10
146.5591747421
 20
81.8526710126
 10
146.545833891
 20
81.8765948873
 10
146.5359091018
 20
81.901204216
 10
146.5294709661
 20
81.926323961
 10
146.5265429091
 20
81.9522979468
  0
LWPOLYLINE
  5
28D
100
AcDbEntity
  8
RACCORDO
100
AcDbPolyline
 62
250
  6
CONTINUOUS
 90
10
 70
0
 10
196.8775723233
 20
52.7615558682
 10
196.8490333352
 20
52.7796389392
 10
196.8232089728
 20
52.7991860146
 10
196.8002829161
 20
52.8200580628
 10
196.7804182304
 20
52.842106628
 10
196.7637562063
 20
52.8651748863
 10
196.7504153552
 20
52.889098761
 10
196.740490566
 20
52.9137080897
 10
196.7340524304
 20
52.9388278347
 10
196.7311243733
 20
52.9648018205
  0
LWPOLYLINE
  5
28E
100
AcDbEntity
  8
RACCORDO
100
AcDbPolyline
 62
250
  6
CONTINUOUS
 90
15
 70
0
 10
146.5897152561
 20
81.3334796587
 10
146.5637883097
 20
81.3651341114
 10
146.5405751314
 20
81.3981689068
 10
146.5202419239
 20
81.4323475211
 10
146.5029342696
 20
81.4674252408
 10
146.4887760888
 20
81.503150915
 10
146.4778687517
 20
81.5392687535
 10
146.4702903532
 20
81.5755201584
 10
146.4660951534
 20
81.6116455753
 10
146.4653131892
 20
81.647386352
 10
146.4679500595
 20
81.6824865901
 10
146.4739868846
 20
81.7166949776
 10
146.4833804419
 20
81.7497665878
 10
146.4960634749
 20
81.7814646333
 10
146.5091437213
 20
81.806776312
  0
LWPOLYLINE
  5
28F
100
AcDbEntity
  8
RACCORDO
100
AcDbPolyline
 62
7
  6
CONTINUOUS
 90
9
 70
0
 10
146.5265429091
 20
81.9522979468
 10
146.5271089111
 20
81.9264375551
 10
146.5266265495
 20
81.9019839594
 10
146.525251233
 20
81.8805260014
 10
146.5232301514
 20
81.8621639714
 10
146.5207835704
 20
81.8466723618
 10
146.518070824
 20
81.8336814157
 10
146.5152797091
 20
81.8231179702
 10
146.5147342188
 20
81.8213078414
  0
LWPOLYLINE
  5
290
100
AcDbEntity
  8
RACCORDO
100
AcDbPolyline
 62
250
  6
CONTINUOUS
 90
10
 70
0
 10
146.6729884949
 20
81.7490504955
 10
146.6739554166
 20
81.69472595
 10
146.6723413025
 20
81.6423160095
 10
146.6681459789
 20
81.5918205653
 10
146.661333821
 20
81.543075287
 10
146.6519401609
 20
81.4962443216
 10
146.6400710364
 20
81.4518201339
 10
146.6257614362
 20
81.4099666524
 10
146.6089755518
 20
81.3705194301
 10
146.5897130095
 20
81.3334782307
  0
LWPOLYLINE
  5
291
100
AcDbEntity
  8
RACCORDO
100
AcDbPolyline
 62
250
  6
CONTINUOUS
 90
22
 70
0
 10
145.7995808072
 20
81.2482897407
 10
145.7991273592
 20
81.2785953644
 10
145.8006563054
 20
81.3099990657
 10
145.8041590712
 20
81.3423247257
 10
145.8096160123
 20
81.3753910553
 10
145.8169965251
 20
81.4090126113
 10
145.8262592179
 20
81.4430008368
 10
145.8373521436
 20
81.4771651184
 10
145.8502130908
 20
81.5113138554
 10
145.8647699323
 20
81.5452555345
 10
145.8809410304
 20
81.5787998032
 10
145.898635694
 20
81.6117585381
 10
145.9177546875
 20
81.6439468994
 10
145.9381907877
 20
81.675184368
 10
145.9598293843
 20
81.7052957573
 10
145.9825491234
 20
81.7341121961
 10
146.006222588
 20
81.7614720757
 10
146.0307170119
 20
81.7872219558
 10
146.0558950254
 20
81.8112174257
 10
146.0816154244
 20
81.8333239135
 10
146.1077339637
 20
81.8534174413
 10
146.1341041646
 20
81.8713853202
  0
LINE
  5
292
100
AcDbEntity
  8
0
100
AcDbLine
 62
7
  6
CONTINUOUS
 10
144.6578542223
 20
85.1613637533
 11
144.6578542223
 21
85.0354986854
  0
LWPOLYLINE
  5
293
100
AcDbEntity
  8
RACCORDO
100
AcDbPolyline
 62
250
  6
CONTINUOUS
 90
13
 70
0
 10
145.7995808072
 20
119.4061516036
 10
145.7991273648
 20
119.3753220176
 10
145.8006563568
 20
119.3456836381
 10
145.8041592007
 20
119.317402682
 10
145.8096162438
 20
119.2906377527
 10
145.816996874
 20
119.2655389492
 10
145.8262596921
 20
119.2422470245
 10
145.8373527427
 20
119.2208925997
 10
145.8502138066
 20
119.2015954281
 10
145.8647707517
 20
119.1844637231
 10
145.8809419335
 20
119.1695935564
 10
145.8986366557
 20
119.1570683151
 10
145.9025956373
 20
119.1547088729
  0
LWPOLYLINE
  5
294
100
AcDbEntity
  8
RACCORDO
100
AcDbPolyline
 62
7
  6
CONTINUOUS
 90
13
 70
0
 10
146.5265017596
 20
117.9916775671
 10
146.4175117652
 20
114.9758363703
 10
146.3261506337
 20
111.9044770748
 10
146.2550801232
 20
108.8452733975
 10
146.2043071374
 20
105.7984561567
 10
146.1738345842
 20
102.7642273444
 10
146.1636644828
 20
99.7427776906
 10
146.1737984882
 20
96.7343058468
 10
146.2042360641
 20
93.739009157
 10
146.2549762901
 20
90.757076561
 10
146.326017388
 20
87.788706874
 10
146.4173535849
 20
84.8341225745
 10
146.5265436799
 20
81.9522982174
  0
LWPOLYLINE
  5
295
100
AcDbEntity
  8
RACCORDO
100
AcDbPolyline
 62
250
  6
CONTINUOUS
 90
13
 70
0
 10
146.6729884949
 20
117.7881814947
 10
146.5621251747
 20
114.715678292
 10
146.4714082403
 20
111.6550888684
 10
146.4008440945
 20
108.6066176905
 10
146.3504378295
 20
105.5704683696
 10
146.3201928925
 20
102.5468439122
 10
146.3101110841
 20
99.5359467056
 10
146.3201928921
 20
96.5379781938
 10
146.3504378287
 20
93.5531387412
 10
146.4008440935
 20
90.5816278805
 10
146.4714082392
 20
87.623644379
 10
146.5621251739
 20
84.6793862264
 10
146.6729884949
 20
81.7490504955
  0
LWPOLYLINE
  5
296
100
AcDbEntity
  8
0
100
AcDbPolyline
 62
250
  6
CONTINUOUS
 90
9
 70
0
 10
128.5391412113
 20
96.0600298687
 10
128.5538346954
 20
96.0674809692
 10
128.5683556052
 20
96.0730744061
 10
128.5825466077
 20
96.076749575
 10
128.5962539446
 20
96.0784666556
 10
128.6093290979
 20
96.0782070437
 10
128.6216303995
 20
96.075973552
 10
128.6330245655
 20
96.0717903803
 10
128.6379119248
 20
96.0692317574
  0
LINE
  5
297
100
AcDbEntity
  8
RACCORDO
100
AcDbLine
 62
7
  6
CONTINUOUS
 10
164.7665982176
 20
108.2210993839
 11
164.7670726183
 21
108.2213192159
  0
LINE
  5
298
100
AcDbEntity
  8
0
100
AcDbLine
 62
250
  6
CONTINUOUS
 10
164.5521767648
 20
107.8313670825
 11
165.0862470932
 21
108.0783089499
  0
LWPOLYLINE
  5
299
100
AcDbEntity
  8
RACCORDO
100
AcDbPolyline
 62
7
  6
CONTINUOUS
 90
16
 70
0
 10
164.7657119522
 20
108.220754221
 10
164.7654648892
 20
108.2206707878
 10
164.7655807678
 20
108.2206808536
 10
164.7671384121
 20
108.2209502467
 10
164.7709325217
 20
108.2213291671
 10
164.7773011834
 20
108.2214714892
 10
164.7860930218
 20
108.2210237907
 10
164.7972891085
 20
108.2196818567
 10
164.8108756491
 20
108.2171584511
 10
164.8266375718
 20
108.2132359837
 10
164.8442274423
 20
108.2077912495
 10
164.8634692855
 20
108.2007057764
 10
164.8841818234
 20
108.191894781
 10
164.906062531
 20
108.1813633211
 10
164.9289184229
 20
108.1691060397
 10
164.9348890974
 20
108.1657007749
  0
LWPOLYLINE
  5
29A
100
AcDbEntity
  8
RACCORDO
100
AcDbPolyline
 62
250
  6
CONTINUOUS
 90
14
 70
0
 10
146.470472261
 20
81.7984289649
 10
146.4485643799
 20
81.7925059925
 10
146.4257079
 20
81.788535225
 10
146.4019682172
 20
81.7865340804
 10
146.3774211251
 20
81.7864999004
 10
146.3521355201
 20
81.7884348523
 10
146.3261926079
 20
81.792334836
 10
146.2996962117
 20
81.7981634453
 10
146.2727259251
 20
81.8058969865
 10
146.2453671731
 20
81.8155055855
 10
146.2177396054
 20
81.8269145396
 10
146.1899403684
 20
81.8400592132
 10
146.1620408062
 20
81.8548981066
 10
146.1341227351
 20
81.871373841
  0
LWPOLYLINE
  5
29B
100
AcDbEntity
  8
RACCORDO
100
AcDbPolyline
 62
250
  6
CONTINUOUS
 90
9
 70
0
 10
196.7942974926
 20
89.3609982494
 10
196.7683704126
 20
89.3605925858
 10
196.7451571001
 20
89.3615023216
 10
196.7248237596
 20
89.3637209431
 10
196.7075159753
 20
89.3672325653
 10
196.6933576688
 20
89.3720120454
 10
196.6824502116
 20
89.3780251629
 10
196.6748717
 20
89.3852288647
 10
196.6709156382
 20
89.3927719299
  0
LWPOLYLINE
  5
29C
100
AcDbEntity
  8
RACCORDO
100
AcDbPolyline
 62
7
  6
CONTINUOUS
 90
5
 70
0
 10
146.5147342188
 20
81.8213078414
 10
146.5126698437
 20
81.8151013974
 10
146.5105728603
 20
81.8097791696
 10
146.5093813908
 20
81.807226537
 10
146.5092381128
 20
81.8069408994
  0
LINE
  5
29D
100
AcDbEntity
  8
RACCORDO
100
AcDbLine
 62
7
  6
CONTINUOUS
 10
146.5091437213
 20
81.806776312
 11
146.5092382109
 21
81.8069408431
  0
LWPOLYLINE
  5
29E
100
AcDbEntity
  8
RACCORDO
100
AcDbPolyline
 62
250
  6
CONTINUOUS
 90
22
 70
0
 10
146.5897130095
 20
81.3334782307
 10
146.5688501025
 20
81.300076328
 10
146.5458586483
 20
81.2693724217
 10
146.5207372979
 20
81.2413656587
 10
146.4934032135
 20
81.215958871
 10
146.4639367485
 20
81.1932476539
 10
146.4325810462
 20
81.1735201104
 10
146.3993140258
 20
81.1568190005
 10
146.364154814
 20
81.1430996863
 10
146.3274078753
 20
81.1325188596
 10
146.2890508069
 20
81.125114575
 10
146.2491031191
 20
81.1208469338
 10
146.2079319139
 20
81.1197555488
 10
146.1655108459
 20
81.1218834721
 10
146.1218637773
 20
81.1271860652
 10
146.077433099
 20
81.1355713901
 10
146.0322047363
 20
81.1470869308
 10
145.9861909732
 20
81.1616840577
 10
145.9398738781
 20
81.1791267513
 10
145.8934138342
 20
81.1993361425
 10
145.8466495521
 20
81.2223905201
 10
145.7995808072
 20
81.2482897407
  0
LWPOLYLINE
  5
29F
100
AcDbEntity
  8
RACCORDO
100
AcDbPolyline
 62
250
  6
CONTINUOUS
 90
22
 70
0
 10
163.9898228119
 20
108.301887483
 10
164.0148823861
 20
108.3377124886
 10
164.0419641054
 20
108.3707780628
 10
164.0710666208
 20
108.4010835006
 10
164.1022837253
 20
108.4287322954
 10
164.1355191415
 20
108.4536196576
 10
164.1704861205
 20
108.4754323071
 10
164.2072006642
 20
108.4941239736
 10
164.2456438167
 20
108.5097393939
 10
164.2854759031
 20
108.5221015463
 10
164.3267137087
 20
108.5311691324
 10
164.3693375555
 20
108.5369819541
 10
164.4129528422
 20
108.539484521
 10
164.4575804024
 20
108.5386305987
 10
164.5031969192
 20
108.5344651403
 10
164.5493415422
 20
108.5270694256
 10
164.5960223784
 20
108.516392525
 10
164.6432295303
 20
108.5024844458
 10
164.6904752806
 20
108.4855779461
 10
164.7375967508
 20
108.4657504543
 10
164.7847559132
 20
108.4429240756
 10
164.8319525435
 20
108.4170986947
  0
LWPOLYLINE
  5
2A0
100
AcDbEntity
  8
RACCORDO
100
AcDbPolyline
 62
250
  6
CONTINUOUS
 90
8
 70
0
 10
164.6310465227
 20
108.1025077139
 10
164.6469035755
 20
108.1246128712
 10
164.6641126217
 20
108.1451595972
 10
164.6826415163
 20
108.164080263
 10
164.7024676848
 20
108.1813198286
 10
164.7235389317
 20
108.1968079994
 10
164.745769412
 20
108.2104668293
 10
164.7665982176
 20
108.2210993839
  0
LINE
  5
2A1
100
AcDbEntity
  8
0
100
AcDbLine
 62
250
  6
CONTINUOUS
 10
167.7502120396
 20
104.2669593107
 11
166.6034764097
 21
103.6398359209
  0
LINE
  5
2A2
100
AcDbEntity
  8
0
100
AcDbLine
 62
250
  6
CONTINUOUS
 10
167.8879160716
 20
104.019970014
 11
166.6034764097
 21
103.3175394504
  0
LINE
  5
2A3
100
AcDbEntity
  8
0
100
AcDbLine
 62
7
  6
CONTINUOUS
 10
167.1459085809
 20
104.5742961012
 11
166.6034764097
 21
104.3033721991
  0
LINE
  5
2A4
100
AcDbEntity
  8
0
100
AcDbLine
 62
250
  6
CONTINUOUS
 10
167.2402097233
 20
104.5614164249
 11
166.6034764097
 21
104.2433927474
  0
LINE
  5
2A5
100
AcDbEntity
  8
0
100
AcDbLine
 62
7
  6
CONTINUOUS
 10
116.3988949455
 20
115.6112178659
 11
116.5076000901
 21
115.5484528778
  0
LINE
  5
2A6
100
AcDbEntity
  8
0
100
AcDbLine
 62
7
  6
CONTINUOUS
 10
166.6034764097
 20
86.6237217397
 11
166.7121815543
 21
86.5609567516
  0
LINE
  5
2A7
100
AcDbEntity
  8
DRAFT
100
AcDbLine
 62
7
  6
CONTINUOUS
 10
216.4545044834
 20
62.8887465809
 11
216.8080578739
 21
62.6846092843
  0
LWPOLYLINE
  5
2A8
100
AcDbEntity
  8
RACCORDO
100
AcDbPolyline
 62
250
  6
CONTINUOUS
 90
19
 70
0
 10
113.7852435943
 20
137.2893847755
 10
113.8123041425
 20
137.2583848503
 10
113.8416991191
 20
137.2289193477
 10
113.8732180605
 20
137.201199236
 10
113.9066352962
 20
137.1754229867
 10
113.941711564
 20
137.1517751538
 10
113.9781957234
 20
137.1304250519
 10
114.0158265535
 20
137.1115255444
 10
114.0543346236
 20
137.0952119488
 10
114.093444222
 20
137.0816010677
 10
114.13287533
 20
137.070790353
 10
114.1723456273
 20
137.0628572076
 10
114.2115725127
 20
137.0578584317
 10
114.2502751279
 20
137.0558298155
 10
114.2881763684
 20
137.0567858836
 10
114.3250048671
 20
137.0607197909
 10
114.3604969379
 20
137.067603371
 10
114.3943984632
 20
137.0773873386
 10
114.4264667133
 20
137.090001642
  0
LWPOLYLINE
  5
2A9
100
AcDbEntity
  8
RACCORDO
100
AcDbPolyline
 62
250
  6
CONTINUOUS
 90
10
 70
0
 10
164.6310465227
 20
71.503745251
 10
164.6161194398
 20
71.541335694
 10
164.6026486617
 20
71.578920205
 10
164.5906749678
 20
71.6163909027
 10
164.5802274277
 20
71.6536627133
 10
164.5713495615
 20
71.6906040257
 10
164.5640897902
 20
71.7270403612
 10
164.5584703962
 20
71.7628472115
 10
164.5544969099
 20
71.7979469648
 10
164.5521777978
 20
71.832241877
  0
LWPOLYLINE
  5
2AA
100
AcDbEntity
  8
RACCORDO
100
AcDbPolyline
 62
250
  6
CONTINUOUS
 90
10
 70
0
 10
163.9898228119
 20
71.2868729053
 10
163.9661810847
 20
71.3485655019
 10
163.9449237357
 20
71.4098933468
 10
163.9260511517
 20
71.470856685
 10
163.9095056366
 20
71.5316815873
 10
163.8953457363
 20
71.5921425203
 10
163.883745977
 20
71.6515621799
 10
163.874764547
 20
71.7097148056
 10
163.8683435597
 20
71.7668263469
 10
163.8644831942
 20
71.8228969161
  0
LWPOLYLINE
  5
2AB
100
AcDbEntity
  8
RACCORDO
100
AcDbPolyline
 62
250
  6
CONTINUOUS
 90
3
 70
0
 10
146.5457279003
 20
118.4731454397
 10
146.5687889858
 20
118.4110043833
 10
146.5897130095
 20
118.3484928083
  0
LWPOLYLINE
  5
2AC
100
AcDbEntity
  8
RACCORDO
100
AcDbPolyline
 62
7
  6
CONTINUOUS
 90
11
 70
0
 10
146.466334174
 20
118.3802680561
 10
146.4735588456
 20
118.3568871721
 10
146.48729748
 20
118.3079914105
 10
146.498907824
 20
118.260199015
 10
146.5084224301
 20
118.2137418654
 10
146.5158925185
 20
118.1688426616
 10
146.5213899773
 20
118.1256877494
 10
146.524997969
 20
118.0844945741
 10
146.5268194863
 20
118.0455365732
 10
146.5269890682
 20
118.0090151304
 10
146.5265031987
 20
117.991732095
  0
LWPOLYLINE
  5
2AD
100
AcDbEntity
  8
RACCORDO
100
AcDbPolyline
 62
250
  6
CONTINUOUS
 90
10
 70
0
 10
146.5897130095
 20
118.3484928083
 10
146.6089416942
 20
118.2842495249
 10
146.6257060275
 20
118.2203250012
 10
146.6400063962
 20
118.156719439
 10
146.6518837829
 20
118.0931964784
 10
146.6612980553
 20
118.0299929234
 10
146.6681277022
 20
117.9678186053
 10
146.6723322322
 20
117.9069101415
 10
146.673952437
 20
117.8470310733
 10
146.6729884949
 20
117.7881814947
  0
LWPOLYLINE
  5
2AE
100
AcDbEntity
  8
RACCORDO
100
AcDbPolyline
 62
250
  6
CONTINUOUS
 90
13
 70
0
 10
163.8644831942
 20
71.8228969161
 10
163.741370464
 20
74.7603052813
 10
163.6406311023
 20
77.7103502403
 10
163.5622715118
 20
80.6728347204
 10
163.5062965612
 20
83.6475608611
 10
163.4727099212
 20
86.6343297661
 10
163.4615140627
 20
89.6329415146
 10
163.4727099207
 20
92.643195484
 10
163.5062965602
 20
95.6648904885
 10
163.5622715105
 20
98.697824529
 10
163.6406311011
 20
101.7417947284
 10
163.7413704632
 20
104.7965973461
 10
163.8644831942
 20
107.8620279154
  0
LWPOLYLINE
  5
2AF
100
AcDbEntity
  8
RACCORDO
100
AcDbPolyline
 62
250
  6
CONTINUOUS
 90
13
 70
0
 10
164.5521773539
 20
71.8322416213
 10
164.429186031
 20
74.7667256423
 10
164.3285549308
 20
77.7134360457
 10
164.2502840532
 20
80.6723728316
 10
164.1943711479
 20
83.6437354007
 10
164.1608184654
 20
86.6273243522
 10
164.1496327565
 20
89.6225414843
 10
164.1608185564
 20
92.6293900843
 10
164.1943713301
 20
95.6478668648
 10
164.2502842232
 20
98.6773637613
 10
164.3285549509
 20
101.7176780857
 10
164.4291857981
 20
104.7690125261
 10
164.5521767648
 20
107.8313670825
  0
LWPOLYLINE
  5
2B0
100
AcDbEntity
  8
RACCORDO
100
AcDbPolyline
 62
250
  6
CONTINUOUS
 90
10
 70
0
 10
163.8644831942
 20
107.8620279154
 10
163.8683322826
 20
107.9191274414
 10
163.8747403863
 20
107.9743015856
 10
163.8837073327
 20
108.0275502568
 10
163.8952851385
 20
108.0790479251
 10
163.909421496
 20
108.1286199666
 10
163.9259595211
 20
108.175742532
 10
163.9448465615
 20
108.2202408183
 10
163.9661344496
 20
108.2622892004
 10
163.9898228119
 20
108.301887483
  0
LINE
  5
2B1
100
AcDbEntity
  8
0
100
AcDbLine
 62
250
  6
CONTINUOUS
 10
146.1341233255
 20
81.8713742569
 11
146.5193186644
 21
82.1429860786
  0
LWPOLYLINE
  5
2B2
100
AcDbEntity
  8
0
100
AcDbPolyline
 62
250
  6
CONTINUOUS
 90
25
 70
0
 10
167.8879160716
 20
101.7061375664
 10
167.9014270181
 20
101.715142264
 10
167.9147488524
 20
101.7250125161
 10
167.9278815745
 20
101.7357483226
 10
167.9408792507
 20
101.7474022386
 10
167.9536878147
 20
101.759921709
 10
167.9661450675
 20
101.7731490694
 10
167.9782444554
 20
101.7870912532
 10
167.9899925321
 20
101.8017413269
 10
168.0012467599
 20
101.8169208263
 10
168.0120013236
 20
101.8326365535
 10
168.0222620384
 20
101.8488817063
 10
168.0319038128
 20
101.8654574137
 10
168.0409188472
 20
101.8823669772
 10
168.0493149412
 20
101.8996070953
 10
168.056990402
 20
101.9169689928
 10
168.0639370374
 20
101.9344571757
 10
168.0701630396
 20
101.952067138
 10
168.0755912922
 20
101.9695765862
 10
168.0802107441
 20
101.9869821284
 10
168.0840324463
 20
102.0042871565
 10
168.0870124357
 20
102.0212795522
 10
168.089136058
 20
102.0378886094
 10
168.0904179675
 20
102.0541850341
 10
168.0908581642
 20
102.0701688265
  0
LWPOLYLINE
  5
2B3
100
AcDbEntity
  8
0
100
AcDbPolyline
 62
7
  6
CONTINUOUS
 90
19
 70
0
 10
167.8516236092
 20
101.6177011727
 10
167.8724853624
 20
101.6315368746
 10
167.9003775751
 20
101.6524107853
 10
167.9272090788
 20
101.6752409766
 10
167.9529904448
 20
101.6999643506
 10
167.9776478745
 20
101.7264584088
 10
168.0010097413
 20
101.7545004196
 10
168.0230229742
 20
101.7839785763
 10
168.0436205509
 20
101.8147907194
 10
168.0626210227
 20
101.8466514299
 10
168.0799637229
 20
101.8794406054
 10
168.0955744104
 20
101.9130474431
 10
168.1093058548
 20
101.9471706575
 10
168.1210971845
 20
101.9817037223
 10
168.1308839957
 20
102.016543153
 10
168.1385566357
 20
102.0514286665
 10
168.1440465297
 20
102.0862402302
 10
168.1472904472
 20
102.1209561237
 10
168.1482054775
 20
102.1511309291
  0
LWPOLYLINE
  5
2B4
100
AcDbEntity
  8
0
100
AcDbPolyline
 62
250
  6
CONTINUOUS
 90
9
 70
0
 10
168.0908581642
 20
103.894417531
 10
168.1046571009
 20
103.9034176743
 10
168.1167609827
 20
103.9131972729
 10
168.1270386581
 20
103.9236503716
 10
168.1353787611
 20
103.9346637174
 10
168.1416909174
 20
103.946117985
 10
168.1459067243
 20
103.9578890699
 10
168.1479804936
 20
103.9698494356
 10
168.1482080743
 20
103.9753559158
  0
LWPOLYLINE
  5
2B5
100
AcDbEntity
  8
0
100
AcDbPolyline
 62
250
  6
CONTINUOUS
 90
9
 70
0
 10
168.0908581642
 20
102.0701688265
 10
168.1046572464
 20
102.0791690765
 10
168.116761214
 20
102.0889487799
 10
168.1270389217
 20
102.0994019743
 10
168.1353790112
 20
102.1104154003
 10
168.1416911182
 20
102.1218697281
 10
168.1459068517
 20
102.1336408511
 10
168.1479805344
 20
102.14560123
 10
168.1482080743
 20
102.1511080714
  0
LINE
  5
2B6
100
AcDbEntity
  8
0
100
AcDbLine
 62
250
  6
CONTINUOUS
 10
166.6034764097
 20
100.8992134369
 11
167.8879160716
 21
101.7061375664
  0
LINE
  5
2B7
100
AcDbEntity
  8
0
100
AcDbLine
 62
7
  6
CONTINUOUS
 10
166.6034764097
 20
100.8335772219
 11
167.8516588986
 21
101.6177234906
  0
LINE
  5
2B8
100
AcDbEntity
  8
0
100
AcDbLine
 62
7
  6
CONTINUOUS
 10
144.6578542223
 20
85.1613637533
 11
144.5517391363
 21
85.0967682062
  0
LINE
  5
2B9
100
AcDbEntity
  8
0
100
AcDbLine
 62
7
  6
CONTINUOUS
 10
142.3752032148
 20
86.4791529332
 11
142.2615758879
 21
86.4190797633
  0
LWPOLYLINE
  5
2BA
100
AcDbEntity
  8
RACCORDO
100
AcDbPolyline
 62
250
  6
CONTINUOUS
 90
19
 70
0
 10
113.7852441211
 20
100.2743707942
 10
113.8123046142
 20
100.2754308818
 10
113.8416995454
 20
100.2780903417
 10
113.8732184508
 20
100.2823301325
 10
113.9066356594
 20
100.2881198978
 10
113.9417119083
 20
100.2954181838
 10
113.9781960564
 20
100.3041727356
 10
114.0158268821
 20
100.314320872
 10
114.0543349537
 20
100.3257899336
 10
114.0934445585
 20
100.3384978036
 10
114.1328756772
 20
100.3523534951
 10
114.172345988
 20
100.3672578035
 10
114.2115728891
 20
100.3831040159
 10
114.2502755208
 20
100.3997786755
 10
114.2881767778
 20
100.417162394
 10
114.3250052919
 20
100.4351307063
 10
114.3604973761
 20
100.4535549618
 10
114.3943989117
 20
100.4723032453
 10
114.4264671683
 20
100.4912413217
  0
LWPOLYLINE
  5
2BB
100
AcDbEntity
  8
RACCORDO
100
AcDbPolyline
 62
250
  6
CONTINUOUS
 90
15
 70
0
 10
196.7942967203
 20
52.3459835324
 10
196.7683697739
 20
52.3776379851
 10
196.7451565956
 20
52.4106727805
 10
196.7248233881
 20
52.4448513948
 10
196.7075157339
 20
52.4799291145
 10
196.6933575531
 20
52.5156547887
 10
196.682450216
 20
52.5517726273
 10
196.6748718175
 20
52.5880240321
 10
196.6706766176
 20
52.624149449
 10
196.6698946535
 20
52.6598902257
 10
196.6725315237
 20
52.6949904638
 10
196.6785683489
 20
52.7291988513
 10
196.6879619061
 20
52.7622704616
 10
196.7006449392
 20
52.7939685071
 10
196.7137251856
 20
52.8192801857
  0
LWPOLYLINE
  5
2BC
100
AcDbEntity
  8
0
100
AcDbPolyline
 62
250
  6
CONTINUOUS
 90
25
 70
0
 10
168.0908581642
 20
103.894417531
 10
168.0904179671
 20
103.9098840446
 10
168.0891360574
 20
103.9246740877
 10
168.0870124351
 20
103.9387876604
 10
168.084032446
 20
103.9522782484
 10
168.0802107442
 20
103.9650923659
 10
168.0755912926
 20
103.9770695558
 10
168.0701630399
 20
103.9882002234
 10
168.0639370374
 20
103.9984939635
 10
168.0569904018
 20
104.0078191027
 10
168.049314941
 20
104.0161615086
 10
168.0409188471
 20
104.0235353138
 10
168.0319038128
 20
104.0298512427
 10
168.0222620384
 20
104.0350968287
 10
168.0120013236
 20
104.0392845385
 10
168.0012467599
 20
104.0423624971
 10
167.9899925321
 20
104.0443170688
 10
167.9782444554
 20
104.0451618893
 10
167.9661450675
 20
104.0448859914
 10
167.9536878147
 20
104.0434747406
 10
167.9408792507
 20
104.0409427713
 10
167.9278815745
 20
104.0373230204
 10
167.9147488524
 20
104.0326264666
 10
167.9014270181
 20
104.0268421311
 10
167.8879160716
 20
104.019970014
  0
LWPOLYLINE
  5
2BD
100
AcDbEntity
  8
0
100
AcDbPolyline
 62
7
  6
CONTINUOUS
 90
15
 70
0
 10
168.1482054825
 20
103.9753559142
 10
168.1476802961
 20
103.9977992912
 10
168.1451895475
 20
104.0283702842
 10
168.1406924909
 20
104.0578878941
 10
168.1342040735
 20
104.0863970071
 10
168.1257298964
 20
104.1138551923
 10
168.1153031479
 20
104.1401468653
 10
168.1029737063
 20
104.1651458592
 10
168.0887921068
 20
104.1887424928
 10
168.072839273
 20
104.210806576
 10
168.0552760458
 20
104.2311555269
 10
168.0362635571
 20
104.2496645575
 10
168.0159382802
 20
104.2662625844
 10
167.9944852774
 20
104.2808667835
 10
167.9866017086
 20
104.2855803885
  0
LWPOLYLINE
  5
2BE
100
AcDbEntity
  8
0
100
AcDbPolyline
 62
250
  6
CONTINUOUS
 90
16
 70
0
 10
167.8879160716
 20
104.019970014
 10
167.8876461861
 20
104.0377688152
 10
167.8858169575
 20
104.0562591283
 10
167.8824484196
 20
104.0752384481
 10
167.8775774644
 20
104.0944989137
 10
167.8712574385
 20
104.1138295852
 10
167.8635575585
 20
104.1330187538
 10
167.8545621533
 20
104.1518562603
 10
167.8443697402
 20
104.170135797
 10
167.8330919462
 20
104.187657167
 10
167.8208522854
 20
104.204228477
 10
167.807784806
 20
104.2196682386
 10
167.7940326226
 20
104.2338073559
 10
167.7797463486
 20
104.2464909779
 10
167.7650824469
 20
104.257580194
 10
167.750201516
 20
104.2669535555
  0
LWPOLYLINE
  5
2BF
100
AcDbEntity
  8
RACCORDO
100
AcDbPolyline
 62
250
  6
CONTINUOUS
 90
22
 70
0
 10
164.8319525435
 20
70.2592368318
 10
164.8314991018
 20
70.2895427942
 10
164.8330280945
 20
70.3209468157
 10
164.836530939
 20
70.3532727685
 10
164.8419879826
 20
70.3863393547
 10
164.8493686133
 20
70.4199611253
 10
164.8586314318
 20
70.4539495203
 10
164.8697244826
 20
70.488113922
 10
164.8825855468
 20
70.5222627281
 10
164.8971424921
 20
70.5562044285
 10
164.913313674
 20
70.5897486706
 10
164.9310083961
 20
70.6227073335
 10
164.9501274216
 20
70.654895586
 10
164.9705635232
 20
70.6861329121
 10
164.9922020883
 20
70.7162441305
 10
165.0149217661
 20
70.7450603818
 10
165.0385951387
 20
70.7724200623
 10
165.0630894403
 20
70.7981697381
 10
165.0882673084
 20
70.8221650106
 10
165.1139875432
 20
70.844271315
 10
165.1401058992
 20
70.8643646765
 10
165.1664759008
 20
70.8823324113
  0
LINE
  5
2C0
100
AcDbEntity
  8
0
100
AcDbLine
 62
7
  6
CONTINUOUS
 10
166.6034764097
 20
73.0166525438
 11
166.6034764097
 21
107.2022797579
  0
LINE
  5
2C1
100
AcDbEntity
  8
0
100
AcDbLine
 62
7
  6
CONTINUOUS
 10
166.7120214336
 20
86.5608691852
 11
166.7120214336
 21
83.9253557517
  0
LINE
  5
2C2
100
AcDbEntity
  8
0
100
AcDbLine
 62
250
  6
CONTINUOUS
 10
168.0908581642
 20
102.0701688265
 11
168.0908581642
 21
103.894417531
  0
LINE
  5
2C3
100
AcDbEntity
  8
0
100
AcDbLine
 62
7
  6
CONTINUOUS
 10
168.1482080743
 20
102.1511080714
 11
168.1482080743
 21
103.9753567709
  0
LWPOLYLINE
  5
2C4
100
AcDbEntity
  8
RACCORDO
100
AcDbPolyline
 62
250
  6
CONTINUOUS
 90
13
 70
0
 10
164.8319525435
 20
108.4170986947
 10
164.8314990955
 20
108.3862694406
 10
164.8330280417
 20
108.3566313281
 10
164.8365308075
 20
108.3283505741
 10
164.8419877486
 20
108.3015857833
 10
164.8493682613
 20
108.2764870584
 10
164.8586309542
 20
108.2531951585
 10
164.8697238799
 20
108.2318407095
 10
164.8825848271
 20
108.2125434718
 10
164.8971416686
 20
108.1954116685
 10
164.9133127667
 20
108.1805413785
 10
164.9310074303
 20
108.1680159976
 10
164.9348892761
 20
108.1657010847
  0
LWPOLYLINE
  5
2C5
100
AcDbEntity
  8
0
100
AcDbPolyline
 62
250
  6
CONTINUOUS
 90
8
 70
0
 10
167.8879160716
 20
101.7061375664
 10
167.8876461854
 20
101.6898259861
 10
167.8858169539
 20
101.6745794969
 10
167.8824484113
 20
101.6605650776
 10
167.8775774504
 20
101.6479362134
 10
167.8712574183
 20
101.6368312149
 10
167.8635575325
 20
101.6273717031
 10
167.8545621226
 20
101.619661278
  0
LWPOLYLINE
  5
2C6
100
AcDbEntity
  8
RACCORDO
100
AcDbPolyline
 62
250
  6
CONTINUOUS
 90
10
 70
0
 10
164.5521769292
 20
107.8313671585
 10
164.5544944438
 20
107.8663096923
 10
164.5584649662
 20
107.9002721082
 10
164.5640796831
 20
107.9331570792
 10
164.5713308485
 20
107.9648845591
 10
164.5801971121
 20
107.995348026
 10
164.5906372914
 20
108.0244207586
 10
164.6026131453
 20
108.0520126414
 10
164.6160957465
 20
108.078064352
 10
164.6310465227
 20
108.1025077139
  0
LWPOLYLINE
  5
2C7
100
AcDbEntity
  8
RACCORDO
100
AcDbPolyline
 62
250
  6
CONTINUOUS
 90
4
 70
0
 10
146.5134515225
 20
81.8174514767
 10
146.5111873855
 20
81.8160332658
 10
146.4913674945
 20
81.8062803624
 10
146.470472261
 20
81.7984289649
  0
LWPOLYLINE
  5
2C8
100
AcDbEntity
  8
0
100
AcDbPolyline
 62
250
  6
CONTINUOUS
 90
11
 70
0
 10
167.4779924917
 20
104.579145047
 10
167.4583188468
 20
104.5881626239
 10
167.4374094112
 20
104.5948175871
 10
167.4153746332
 20
104.5990749241
 10
167.3923378995
 20
104.6009088752
 10
167.3684200457
 20
104.600311326
 10
167.3437463846
 20
104.5972869102
 10
167.3184539961
 20
104.5918486742
 10
167.2926780146
 20
104.5840256781
 10
167.2665509472
 20
104.5738629322
 10
167.2402097233
 20
104.5614164249
  0
LWPOLYLINE
  5
2C9
100
AcDbEntity
  8
0
100
AcDbPolyline
 62
7
  6
CONTINUOUS
 90
13
 70
0
 10
167.4829183713
 20
104.5764034533
 10
167.4585771326
 20
104.5890487396
 10
167.4325761746
 20
104.599712467
 10
167.4054283188
 20
104.6080706398
 10
167.3773027932
 20
104.6140190404
 10
167.3483951379
 20
104.6174761552
 10
167.3186896109
 20
104.6183952922
 10
167.2883232251
 20
104.6166961429
 10
167.257479959
 20
104.6123106944
 10
167.2261432132
 20
104.6051489153
 10
167.1943720912
 20
104.5951075142
 10
167.1623460562
 20
104.5821082853
 10
167.1459666425
 20
104.5743198893
  0
LWPOLYLINE
  5
2CA
100
AcDbEntity
  8
0
100
AcDbPolyline
 62
250
  6
CONTINUOUS
 90
13
 70
0
 10
167.9865957915
 20
104.2855869965
 10
167.974796764
 20
104.2917749927
 10
167.9576773264
 20
104.2987598483
 10
167.9396573176
 20
104.3039131464
 10
167.9208115621
 20
104.3072135763
 10
167.9012172483
 20
104.3086476832
 10
167.8809531765
 20
104.3082101473
 10
167.8600990426
 20
104.3059018329
 10
167.8387442977
 20
104.3017318113
 10
167.8169866191
 20
104.2957211428
 10
167.7949194024
 20
104.2878986123
 10
167.772630614
 20
104.2782974749
 10
167.7502120772
 20
104.2669592888
  0
LWPOLYLINE
  5
2CB
100
AcDbEntity
  8
0
100
AcDbPolyline
 62
250
  6
CONTINUOUS
 90
13
 70
0
 10
117.7820143272
 20
133.2730831228
 10
117.7702152997
 20
133.2792711189
 10
117.7530958622
 20
133.2862559746
 10
117.7350758534
 20
133.2914092727
 10
117.7162300979
 20
133.2947097026
 10
117.6966357841
 20
133.2961438095
 10
117.6763717122
 20
133.2957062736
 10
117.6555175784
 20
133.2933979592
 10
117.6341628335
 20
133.2892279376
 10
117.6124051548
 20
133.283217269
 10
117.5903379381
 20
133.2753947386
 10
117.5680491498
 20
133.2657936012
 10
117.5456306129
 20
133.254455415
  0
LWPOLYLINE
  5
2CC
100
AcDbEntity
  8
RACCORDO
100
AcDbPolyline
 62
250
  6
CONTINUOUS
 90
19
 70
0
 10
163.8644856672
 20
107.862029203
 10
163.8955282022
 20
107.845391645
 10
163.9288616303
 20
107.8301802052
 10
163.964248862
 20
107.8165030774
 10
164.0014381998
 20
107.8044575424
 10
164.0401651285
 20
107.7941292762
 10
164.0801541965
 20
107.7855917401
 10
164.121120975
 20
107.7789056589
 10
164.162774081
 20
107.7741185883
 10
164.2048172501
 20
107.7712645772
 10
164.2469514432
 20
107.7703639252
 10
164.2888769742
 20
107.7714230383
 10
164.3302956407
 20
107.7744343835
 10
164.3709128458
 20
107.779376542
 10
164.4104396928
 20
107.7862143619
 10
164.4485950407
 20
107.7948992081
 10
164.4851075033
 20
107.8053693083
 10
164.5197173797
 20
107.8175501921
 10
164.5521785015
 20
107.831355221
  0
LWPOLYLINE
  5
2CD
100
AcDbEntity
  8
RACCORDO
100
AcDbPolyline
 62
250
  6
CONTINUOUS
 90
19
 70
0
 10
211.8178428502
 20
80.6865881513
 10
211.8364683683
 20
80.6766030336
 10
211.8564683062
 20
80.6674712411
 10
211.8777004125
 20
80.6592577247
 10
211.9000136715
 20
80.652020904
 10
211.9232493777
 20
80.6458122514
 10
211.9472422649
 20
80.6406759268
 10
211.971821681
 20
80.6366484627
 10
211.9968128025
 20
80.633758505
 10
212.0220378772
 20
80.6320266087
 10
212.0473174894
 20
80.6314650922
 10
212.072471835
 20
80.6320779493
 10
212.0973220011
 20
80.6338608209
 10
212.1216912384
 20
80.6368010263
 10
212.145406218
 20
80.6408776529
 10
212.1682982648
 20
80.6460617053
 10
212.1902045565
 20
80.6523163113
 10
212.2109692825
 20
80.6595969844
 10
212.2304447515
 20
80.6678519401
  0
LWPOLYLINE
  5
2CE
100
AcDbEntity
  8
0
100
AcDbPolyline
 62
250
  6
CONTINUOUS
 90
8
 70
0
 10
167.2402097233
 20
104.5614164249
 10
167.225935456
 20
104.569308229
 10
167.2117633474
 20
104.5752973041
 10
167.1978484296
 20
104.5793181345
 10
167.1843429211
 20
104.5813267351
 10
167.1713945621
 20
104.5813011336
 10
167.1591449977
 20
104.57924161
 10
167.1477282288
 20
104.5751706938
  0
LINE
  5
2CF
100
AcDbEntity
  8
0
100
AcDbLine
 62
250
  6
CONTINUOUS
 10
167.482862089
 20
104.5764365286
 11
167.4779924917
 21
104.579145047
  0
LWPOLYLINE
  5
2D0
100
AcDbEntity
  8
0
100
AcDbPolyline
 62
7
  6
CONTINUOUS
 90
14
 70
0
 10
117.2783537758
 20
133.5638872154
 10
117.2706158242
 20
133.5682100677
 10
117.2460028613
 20
133.5801201139
 10
117.2203289361
 20
133.5898459092
 10
117.1935876721
 20
133.5973558435
 10
117.1659347535
 20
133.6025606278
 10
117.137554147
 20
133.6053865339
 10
117.1084337211
 20
133.605776932
 10
117.0786987866
 20
133.6036550511
 10
117.0485193045
 20
133.5989676082
 10
117.0178848318
 20
133.5916273018
 10
116.9868533347
 20
133.5815318774
 10
116.9555919725
 20
133.5686194398
 10
116.9413767784
 20
133.5618171719
  0
LINE
  5
2D1
100
AcDbEntity
  8
0
100
AcDbLine
 62
250
  6
CONTINUOUS
 10
167.2402097233
 20
104.5614164249
 11
167.7502120396
 21
104.2669593107
  0
LINE
  5
2D2
100
AcDbEntity
  8
0
100
AcDbLine
 62
250
  6
CONTINUOUS
 10
117.0356392769
 20
133.5489180542
 11
117.5456305753
 21
133.2544554369
  0
LINE
  5
2D3
100
AcDbEntity
  8
0
100
AcDbLine
 62
7
  6
CONTINUOUS
 10
117.2782813767
 20
133.5639322207
 11
117.7820488022
 21
133.2730632229
  0
LINE
  5
2D4
100
AcDbEntity
  8
0
100
AcDbLine
 62
7
  6
CONTINUOUS
 10
167.4828630499
 20
104.5764359738
 11
167.9866302665
 21
104.2855670966
  0
LINE
  5
2D5
100
AcDbEntity
  8
0
100
AcDbLine
 62
7
  6
CONTINUOUS
 10
117.7820487037
 20
133.2730632797
 11
117.7820143272
 21
133.2730831228
  0
LINE
  5
2D6
100
AcDbEntity
  8
RACCORDO
100
AcDbLine
 62
250
  6
CONTINUOUS
 10
163.9898228119
 20
108.301887483
 11
146.5897130095
 21
118.3484928083
  0
LINE
  5
2D7
100
AcDbEntity
  8
RACCORDO
100
AcDbLine
 62
250
  6
CONTINUOUS
 10
211.8178406303
 20
80.6865399882
 11
196.7942944737
 21
89.360996682
  0
LINE
  5
2D8
100
AcDbEntity
  8
RACCORDO
100
AcDbLine
 62
250
  6
CONTINUOUS
 10
113.7852413477
 20
137.2893836092
 11
98.7616910849
 21
145.9637439361
  0
LINE
  5
2D9
100
AcDbEntity
  8
RACCORDO
100
AcDbLine
 62
7
  6
CONTINUOUS
 10
196.1071771015
 20
90.1672127467
 11
196.1072167381
 21
90.1671898682
  0
LINE
  5
2DA
100
AcDbEntity
  8
RACCORDO
100
AcDbLine
 62
7
  6
CONTINUOUS
 10
114.7303859114
 20
137.1531520891
 11
145.9025956373
 21
119.1547088729
  0
LINE
  5
2DB
100
AcDbEntity
  8
RACCORDO
100
AcDbLine
 62
7
  6
CONTINUOUS
 10
164.9349673756
 20
108.1656559629
 11
196.1071771015
 21
90.1672127467
  0
LINE
  5
2DC
100
AcDbEntity
  8
RACCORDO
100
AcDbLine
 62
250
  6
CONTINUOUS
 10
114.6273710793
 20
137.404594821
 11
145.7995808072
 21
119.4061516036
  0
LINE
  5
2DD
100
AcDbEntity
  8
RACCORDO
100
AcDbLine
 62
250
  6
CONTINUOUS
 10
164.8319525435
 20
108.4170986947
 11
196.0041622715
 21
90.4186554773
  0
LWPOLYLINE
  5
2DE
100
AcDbEntity
  8
RACCORDO
100
AcDbPolyline
 62
7
  6
CONTINUOUS
 90
23
 70
0
 10
145.9026344074
 20
119.1546844914
 10
145.91034651
 20
119.1501628271
 10
145.9375954925
 20
119.1331107546
 10
145.9661884378
 20
119.1134535584
 10
145.9958885063
 20
119.0911570621
 10
146.0263640701
 20
119.066298654
 10
146.0574192398
 20
119.0388859131
 10
146.088870416
 20
119.0089347954
 10
146.1204225252
 20
118.9765972654
 10
146.1518828548
 20
118.9419589788
 10
146.1830722356
 20
118.9051114961
 10
146.2137441249
 20
118.866255713
 10
146.2437236276
 20
118.8255390476
 10
146.2728551713
 20
118.7831053694
 10
146.3009488711
 20
118.7391761139
 10
146.3278581582
 20
118.6939401007
 10
146.3534535868
 20
118.6475837201
 10
146.3775955419
 20
118.6003416155
 10
146.400177101
 20
118.5524190034
 10
146.4211020415
 20
118.5040280131
 10
146.4402711743
 20
118.4554250198
 10
146.4576074909
 20
118.4068585012
 10
146.4663297053
 20
118.3802821984
  0
LWPOLYLINE
  5
2DF
100
AcDbEntity
  8
RACCORDO
100
AcDbPolyline
 62
7
  6
CONTINUOUS
 90
23
 70
0
 10
196.1072158717
 20
90.1671883651
 10
196.1149279742
 20
90.1626667008
 10
196.1421769567
 20
90.1456146283
 10
196.170769902
 20
90.1259574321
 10
196.2004699706
 20
90.1036609359
 10
196.2309455343
 20
90.0788025277
 10
196.262000704
 20
90.0513897868
 10
196.2934518803
 20
90.0214386691
 10
196.3250039894
 20
89.9891011391
 10
196.3564643191
 20
89.9544628526
 10
196.3876536998
 20
89.9176153698
 10
196.4183255892
 20
89.8787595867
 10
196.4483050919
 20
89.8380429213
 10
196.4774366355
 20
89.7956092431
 10
196.5055303353
 20
89.7516799876
 10
196.5324396225
 20
89.7064439745
 10
196.558035051
 20
89.6600875939
 10
196.5821770062
 20
89.6128454893
 10
196.6047585652
 20
89.5649228771
 10
196.6256835057
 20
89.5165318868
 10
196.6448526386
 20
89.4679288935
 10
196.6621889552
 20
89.4193623749
 10
196.6709111695
 20
89.3927860721
  0
LWPOLYLINE
  5
2E0
100
AcDbEntity
  8
RACCORDO
100
AcDbPolyline
 62
250
  6
CONTINUOUS
 90
20
 70
0
 10
145.7995808072
 20
119.4061516036
 10
145.8465131198
 20
119.3776238432
 10
145.8931069434
 20
119.3463507176
 10
145.9393624979
 20
119.3123323399
 10
145.9853918693
 20
119.2755094696
 10
146.0310838548
 20
119.2359418016
 10
146.0761039668
 20
119.1938079684
 10
146.1205228347
 20
119.1489986452
 10
146.1642716297
 20
119.1016240842
 10
146.2068068312
 20
119.0521923623
 10
146.2480750572
 20
119.0007052197
 10
146.2881321846
 20
118.9471622036
 10
146.3265985567
 20
118.89206809
 10
146.3634515222
 20
118.835408823
 10
146.3987166432
 20
118.7771999643
 10
146.4320863539
 20
118.7179905992
 10
146.4635422957
 20
118.65775564
 10
146.49310581
 20
118.5965217226
 10
146.5205283896
 20
118.534915265
 10
146.5457279003
 20
118.4731454397
  0
LWPOLYLINE
  5
2E1
100
AcDbEntity
  8
RACCORDO
100
AcDbPolyline
 62
250
  6
CONTINUOUS
 90
11
 70
0
 10
98.761692991
 20
145.9637921502
 10
98.7445696147
 20
145.9744479961
 10
98.7290749261
 20
145.9858103563
 10
98.7153191328
 20
145.9977984147
 10
98.7034000743
 20
146.0103269051
 10
98.6934025262
 20
146.0233067172
 10
98.685397597
 20
146.0366455309
 10
98.6794422228
 20
146.0502484723
 10
98.6755787617
 20
146.0640187891
 10
98.6738346929
 20
146.0778585385
 10
98.673799295
 20
146.0858672548
  0
LWPOLYLINE
  5
2E2
100
AcDbEntity
  8
RACCORDO
100
AcDbPolyline
 62
250
  6
CONTINUOUS
 90
11
 70
0
 10
146.6729885048
 20
117.7881814999
 10
146.64444989
 20
117.8059456847
 10
146.6186259061
 20
117.8248913084
 10
146.5957002282
 20
117.8448836189
 10
146.5758359166
 20
117.8657804195
 10
146.5591742579
 20
117.8874330801
 10
146.5458337591
 20
117.9096875946
 10
146.5359093057
 20
117.9323856762
 10
146.529471486
 20
117.9553658831
 10
146.5265660895
 20
117.9784647669
 10
146.5265017596
 20
117.9916775671
  0
LWPOLYLINE
  5
2E3
100
AcDbEntity
  8
RACCORDO
100
AcDbPolyline
 62
250
  6
CONTINUOUS
 90
19
 70
0
 10
163.9898250585
 20
108.3018886492
 10
164.0168856068
 20
108.2708887241
 10
164.0462805834
 20
108.2414232215
 10
164.0777995248
 20
108.2137031097
 10
164.1112167605
 20
108.1879268605
 10
164.1462930283
 20
108.1642790275
 10
164.1827771876
 20
108.1429289256
 10
164.2204080178
 20
108.1240294181
 10
164.2589160879
 20
108.1077158225
 10
164.2980256862
 20
108.0941049414
 10
164.3374567943
 20
108.0832942267
 10
164.3769270916
 20
108.0753610814
 10
164.416153977
 20
108.0703623054
 10
164.4548565922
 20
108.0683336892
 10
164.4927578326
 20
108.0692897574
 10
164.5295863313
 20
108.0732236646
 10
164.5650784022
 20
108.0801072447
 10
164.5989799274
 20
108.0898912123
 10
164.6310481776
 20
108.1025055157
  0
LWPOLYLINE
  5
2E4
100
AcDbEntity
  8
0
100
AcDbPolyline
 62
250
  6
CONTINUOUS
 90
14
 70
0
 10
178.8255655719
 20
66.9849006106
 10
178.8291571335
 20
66.9725064316
 10
178.8311333418
 20
66.9600041465
 10
178.8315211016
 20
66.9473939449
 10
178.8303144918
 20
66.9348760247
 10
178.8274878844
 20
66.9224515828
 10
178.8230669073
 20
66.9101194223
 10
178.8171225228
 20
66.8980761515
 10
178.8096268973
 20
66.8863241688
 10
178.8006078644
 20
66.8748610758
 10
178.7902198871
 20
66.8638762852
 10
178.778514453
 20
66.8534329347
 10
178.7654400745
 20
66.8434678867
 10
178.7509967517
 20
66.8339811411
  0
LINE
  5
2E5
100
AcDbEntity
  8
0
100
AcDbLine
 62
7
  6
CONTINUOUS
 10
166.7121815543
 20
83.9254563444
 11
166.6034764097
 21
83.8571644606
  0
LINE
  5
2E6
100
AcDbEntity
  8
0
100
AcDbLine
 62
7
  6
CONTINUOUS
 10
166.7120214336
 20
86.5608691852
 11
166.6034764097
 21
86.5015084036
  0
LWPOLYLINE
  5
2E7
100
AcDbEntity
  8
RACCORDO
100
AcDbPolyline
 62
250
  6
CONTINUOUS
 90
19
 70
0
 10
113.659904203
 20
136.8495253293
 10
113.690946738
 20
136.8328877713
 10
113.724280166
 20
136.8176763314
 10
113.7596673977
 20
136.8039992036
 10
113.7968567356
 20
136.7919536687
 10
113.8355836643
 20
136.7816254024
 10
113.8755727322
 20
136.7730878664
 10
113.9165395107
 20
136.7664017851
 10
113.9581926167
 20
136.7616147145
 10
114.0002357858
 20
136.7587607034
 10
114.042369979
 20
136.7578600514
 10
114.0842955099
 20
136.7589191646
 10
114.1257141765
 20
136.7619305097
 10
114.1663313815
 20
136.7668726682
 10
114.2058582286
 20
136.7737104882
 10
114.2440135765
 20
136.7823953344
 10
114.2805260391
 20
136.7928654346
 10
114.3151359155
 20
136.8050463184
 10
114.3475970373
 20
136.8188513472
  0
LWPOLYLINE
  5
2E8
100
AcDbEntity
  8
RACCORDO
100
AcDbPolyline
 62
250
  6
CONTINUOUS
 90
20
 70
0
 10
196.0041622715
 20
90.4186554773
 10
196.0510945841
 20
90.3901277169
 10
196.0976884077
 20
90.3588545913
 10
196.1439439622
 20
90.3248362136
 10
196.1899733335
 20
90.2880133433
 10
196.235665319
 20
90.2484456753
 10
196.280685431
 20
90.2063118421
 10
196.325104299
 20
90.161502519
 10
196.368853094
 20
90.1141279579
 10
196.4113882955
 20
90.0646962361
 10
196.4526565214
 20
90.0132090934
 10
196.4927136488
 20
89.9596660773
 10
196.531180021
 20
89.9045719638
 10
196.5680329864
 20
89.8479126968
 10
196.6032981075
 20
89.7897038381
 10
196.6366678182
 20
89.7304944729
 10
196.6681237599
 20
89.6702595137
 10
196.6976872742
 20
89.6090255963
 10
196.7251098539
 20
89.5474191387
 10
196.7503093645
 20
89.4856493134
  0
LWPOLYLINE
  5
2E9
100
AcDbEntity
  8
RACCORDO
100
AcDbPolyline
 62
250
  6
CONTINUOUS
 90
11
 70
0
 10
196.877569969
 20
88.8006853736
 10
196.8490313543
 20
88.8184495584
 10
196.8232073704
 20
88.8373951821
 10
196.8002816924
 20
88.8573874926
 10
196.7804173809
 20
88.8782842932
 10
196.7637557221
 20
88.8999369538
 10
196.7504152234
 20
88.9221914683
 10
196.74049077
 20
88.9448895499
 10
196.7340529503
 20
88.9678697568
 10
196.7311475537
 20
88.9909686406
 10
196.7310832239
 20
89.0041814408
  0
LWPOLYLINE
  5
2EA
100
AcDbEntity
  8
0
100
AcDbPolyline
 62
7
  6
CONTINUOUS
 90
14
 70
0
 10
179.0303560179
 20
66.7867441591
 10
179.0291648447
 20
66.8133140131
 10
179.0255985179
 20
66.8397805981
 10
179.0196370024
 20
66.8660918278
 10
179.0112714314
 20
66.8920825301
 10
179.0005274698
 20
66.9175378905
 10
178.9874685263
 20
66.9422474455
 10
178.9721709104
 20
66.9660610987
 10
178.9547024121
 20
66.988868587
 10
178.9351144897
 20
67.0105843828
 10
178.9134737237
 20
67.031118097
 10
178.889820522
 20
67.0504177293
 10
178.864100193
 20
67.0684812614
 10
178.8424935652
 20
67.0817309923
  0
LWPOLYLINE
  5
2EB
100
AcDbEntity
  8
0
100
AcDbPolyline
 62
250
  6
CONTINUOUS
 90
16
 70
0
 10
178.8960333735
 20
66.5912252778
 10
178.8953567178
 20
66.6087984474
 10
178.8930855206
 20
66.6270416833
 10
178.8892446562
 20
66.6457551862
 10
178.8838761894
 20
66.6647340065
 10
178.8770389155
 20
66.6837702887
 10
178.8688077163
 20
66.7026555482
 10
178.8592727394
 20
66.7211829544
 10
178.8485384118
 20
66.7391495957
 10
178.8367222952
 20
66.7563587021
 10
178.8239537995
 20
66.7726218001
 10
178.8103727647
 20
66.7877607768
 10
178.7961279299
 20
66.8016098306
 10
178.781375304
 20
66.8140172872
 10
178.7662764573
 20
66.8248472605
 10
178.7509967517
 20
66.8339811411
  0
LINE
  5
2EC
100
AcDbEntity
  8
0
100
AcDbLine
 62
250
  6
CONTINUOUS
 10
178.8960333735
 20
66.5912252778
 11
178.8960333735
 21
66.0023564518
  0
LINE
  5
2ED
100
AcDbEntity
  8
0
100
AcDbLine
 62
7
  6
CONTINUOUS
 10
179.0303565163
 20
66.7867230414
 11
179.0303565227
 21
66.2049951307
  0
LWPOLYLINE
  5
2EE
100
AcDbEntity
  8
0
100
AcDbPolyline
 62
250
  6
CONTINUOUS
 90
12
 70
0
 10
179.0303565227
 20
66.7866772527
 10
179.0302671495
 20
66.7812479556
 10
179.028238974
 20
66.7602810333
 10
179.0235470027
 20
66.7394626679
 10
179.0162162665
 20
66.7189053938
 10
179.0062862481
 20
66.6987184563
 10
178.993810452
 20
66.6790109637
 10
178.9788556277
 20
66.6598886526
 10
178.9615015908
 20
66.64145191
 10
178.9418410671
 20
66.6237992784
 10
178.9199793406
 20
66.6070268861
 10
178.8960333735
 20
66.5912252778
  0
LWPOLYLINE
  5
2EF
100
AcDbEntity
  8
0
100
AcDbPolyline
 62
250
  6
CONTINUOUS
 90
8
 70
0
 10
178.8960333735
 20
66.0023564518
 10
178.8957302083
 20
65.9860493368
 10
178.8938302268
 20
65.9707821869
 10
178.890354221
 20
65.9567220122
 10
178.8853402225
 20
65.9440226151
 10
178.8788430891
 20
65.9328229171
 10
178.8709339091
 20
65.923245436
 10
178.8616992139
 20
65.9153949326
  0
LWPOLYLINE
  5
2F0
100
AcDbEntity
  8
0
100
AcDbPolyline
 62
250
  6
CONTINUOUS
 90
3
 70
0
 10
179.028241462
 20
66.1778876077
 10
179.0302676704
 20
66.1994362873
 10
179.0303565227
 20
66.2049940199
  0
LINE
  5
2F1
100
AcDbEntity
  8
RACCORDO
100
AcDbLine
 62
250
  6
CONTINUOUS
 10
213.433378809
 20
100.2134678644
 11
215.1826813425
 21
101.2234835021
  0
LINE
  5
2F2
100
AcDbEntity
  8
0
100
AcDbLine
 62
250
  6
CONTINUOUS
 10
164.5521773539
 20
71.8322416213
 11
166.6034764097
 21
73.0166525438
  0
LINE
  5
2F3
100
AcDbEntity
  8
0
100
AcDbLine
 62
250
  6
CONTINUOUS
 10
165.1664715826
 20
70.8823349046
 11
167.1683865824
 21
72.0381994239
  0
LINE
  5
2F4
100
AcDbEntity
  8
RACCORDO
100
AcDbLine
 62
250
  6
CONTINUOUS
 10
214.0437145313
 20
98.9350871266
 11
215.8888190584
 21
100.0004171023
  0
LINE
  5
2F5
100
AcDbEntity
  8
RACCORDO
100
AcDbLine
 62
250
  6
CONTINUOUS
 10
215.4749954928
 20
100.9812024432
 11
215.616257713
 21
101.0596681543
  0
LINE
  5
2F6
100
AcDbEntity
  8
RACCORDO
100
AcDbLine
 62
250
  6
CONTINUOUS
 10
215.616257713
 20
101.0596681543
 11
215.7546908022
 21
101.1355491852
  0
LWPOLYLINE
  5
2F7
100
AcDbEntity
  8
RACCORDO
100
AcDbPolyline
 62
250
  6
CONTINUOUS
 90
4
 70
0
 10
215.7546908022
 20
101.1355491852
 10
215.8857065796
 20
101.2061606662
 10
215.9480301453
 20
101.2392546288
 10
216.0082137095
 20
101.2708064608
  0
LWPOLYLINE
  5
2F8
100
AcDbEntity
  8
RACCORDO
100
AcDbPolyline
 62
250
  6
CONTINUOUS
 90
10
 70
0
 10
216.0082137095
 20
101.2708064608
 10
216.0814272296
 20
101.3085528969
 10
216.151014319
 20
101.3439486858
 10
216.2168088306
 20
101.3767883453
 10
216.2785380283
 20
101.4066839018
 10
216.3361318222
 20
101.4336573171
 10
216.3896527154
 20
101.4579438745
 10
216.4389055697
 20
101.4792896823
 10
216.4835073591
 20
101.4971505491
 10
216.5231471632
 20
101.5111476637
  0
LWPOLYLINE
  5
2F9
100
AcDbEntity
  8
RACCORDO
100
AcDbPolyline
 62
250
  6
CONTINUOUS
 90
9
 70
0
 10
146.5897160284
 20
118.3484943757
 10
146.5637889483
 20
118.3480887121
 10
146.5405756358
 20
118.3489984479
 10
146.5202422954
 20
118.3512170694
 10
146.5029345111
 20
118.3547286916
 10
146.4887762045
 20
118.3595081717
 10
146.4778687474
 20
118.3655212892
 10
146.4702902357
 20
118.372724991
 10
146.466334174
 20
118.3802680561
  0
LWPOLYLINE
  5
2FA
100
AcDbEntity
  8
RACCORDO
100
AcDbPolyline
 62
250
  6
CONTINUOUS
 90
10
 70
0
 10
216.3425125007
 20
100.6917839701
 10
216.4118027239
 20
100.7363257201
 10
216.4772437591
 20
100.7789026692
 10
216.5385745815
 20
100.8194736669
 10
216.5953228624
 20
100.8579964571
 10
216.647472547
 20
100.8943993952
 10
216.6952585552
 20
100.9286190905
 10
216.738363413
 20
100.9606135327
 10
216.7761243605
 20
100.9903230585
 10
216.8080578831
 20
101.0176678009
  0
LWPOLYLINE
  5
2FB
100
AcDbEntity
  8
RACCORDO
100
AcDbPolyline
 62
250
  6
CONTINUOUS
 90
3
 70
0
 10
216.2252829205
 20
100.6179973621
 10
216.2851005419
 20
100.6554316785
 10
216.3425125007
 20
100.6917839701
  0
LINE
  5
2FC
100
AcDbEntity
  8
RACCORDO
100
AcDbLine
 62
250
  6
CONTINUOUS
 10
216.0986320291
 20
100.5398257048
 11
216.2252829205
 21
100.6179973621
  0
LINE
  5
2FD
100
AcDbEntity
  8
RACCORDO
100
AcDbLine
 62
250
  6
CONTINUOUS
 10
215.9637083344
 20
100.4578661285
 11
216.0986320291
 21
100.5398257048
  0
LINE
  5
2FE
100
AcDbEntity
  8
RACCORDO
100
AcDbLine
 62
250
  6
CONTINUOUS
 10
215.8251425377
 20
100.3747570019
 11
215.9637083344
 21
100.4578661285
  0
LWPOLYLINE
  5
2FF
100
AcDbEntity
  8
RACCORDO
100
AcDbPolyline
 62
250
  6
CONTINUOUS
 90
28
 70
0
 10
100.978181421
 20
164.7154806207
 10
100.9493665689
 20
164.7309530153
 10
100.9205468601
 20
164.744192239
 10
100.8917223994
 20
164.7551983299
 10
100.8628095715
 20
164.763995511
 10
100.8338924101
 20
164.7705597116
 10
100.8052225862
 20
164.7748185642
 10
100.7767801195
 20
164.776753397
 10
100.7485857922
 20
164.7763831743
 10
100.7209524684
 20
164.7736919999
 10
100.6938985676
 20
164.7686554188
 10
100.6674067554
 20
164.7612982825
 10
100.6417362445
 20
164.7516786481
 10
100.6168913791
 20
164.739774823
 10
100.5928690717
 20
164.7256089601
 10
100.5699172866
 20
164.7093048471
 10
100.5480449243
 20
164.6908391424
 10
100.5272443655
 20
164.6702356586
 10
100.5077385948
 20
164.6476888422
 10
100.4895407602
 20
164.6231761902
 10
100.4726388608
 20
164.5967206292
 10
100.4572178576
 20
164.5685846409
 10
100.4432921417
 20
164.5387383405
 10
100.4308481916
 20
164.5072119361
 10
100.4200286978
 20
164.4743579015
 10
100.4108812637
 20
164.4402937441
 10
100.4033586645
 20
164.4049021002
 10
100.3974611186
 20
164.3681830525
  0
LWPOLYLINE
  5
300
100
AcDbEntity
  8
RACCORDO
100
AcDbPolyline
 62
250
  6
CONTINUOUS
 90
19
 70
0
 10
213.6342053545
 20
98.9867061613
 10
213.6528018077
 20
98.9764498269
 10
213.6727521895
 20
98.9668154915
 10
213.6939144614
 20
98.9578717474
 10
213.7161379568
 20
98.9496822704
 10
213.7392644534
 20
98.9423053663
 10
213.7631293001
 20
98.9357935555
 10
213.787562589
 20
98.9301931994
 10
213.8123903651
 20
98.9255441702
 10
213.8374358649
 20
98.9218795672
 10
213.8625207747
 20
98.9192254806
 10
213.8874665002
 20
98.9176008067
 10
213.9120954382
 20
98.9170171123
 10
213.9362322407
 20
98.9174785531
 10
213.9597050637
 20
98.9189818438
 10
213.9823467902
 20
98.9215162816
 10
214.0039962204
 20
98.9250638224
 10
214.0244992194
 20
98.9295992091
 10
214.0437098142
 20
98.9350901515
  0
LINE
  5
301
100
AcDbEntity
  8
RACCORDO
100
AcDbLine
 62
250
  6
CONTINUOUS
 10
213.2358743026
 20
99.8992956702
 11
100.978181421
 21
164.7154806207
  0
LINE
  5
302
100
AcDbEntity
  8
RACCORDO
100
AcDbLine
 62
250
  6
CONTINUOUS
 10
213.433378809
 20
100.2134678644
 11
101.1756859275
 21
165.0296528149
  0
LINE
  5
303
100
AcDbEntity
  8
RACCORDO
100
AcDbLine
 62
7
  6
CONTINUOUS
 10
102.7507650033
 20
166.1402628935
 11
215.1826813425
 21
101.2234835021
  0
LINE
  5
304
100
AcDbEntity
  8
RACCORDO
100
AcDbLine
 62
7
  6
CONTINUOUS
 10
105.3700969246
 20
165.6895257482
 11
216.5231475955
 21
101.5111473421
  0
LWPOLYLINE
  5
305
100
AcDbEntity
  8
RACCORDO
100
AcDbPolyline
 62
250
  6
CONTINUOUS
 90
12
 70
0
 10
100.3974611665
 20
164.3681830702
 10
100.3802921839
 20
164.3785769369
 10
100.3647318325
 20
164.389445776
 10
100.3508908983
 20
164.4007122039
 10
100.3388679252
 20
164.4122960065
 10
100.328748514
 20
164.4241147098
 10
100.3206047125
 20
164.4360841675
 10
100.3144945025
 20
164.4481191601
 10
100.3104613873
 20
164.4601340012
 10
100.3085340817
 20
164.4720431481
 10
100.3087263076
 20
164.4837618105
 10
100.308930393
 20
164.4854413757
  0
LWPOLYLINE
  5
306
100
AcDbEntity
  8
RACCORDO
100
AcDbPolyline
 62
7
  6
CONTINUOUS
 90
9
 70
0
 10
196.7311243733
 20
52.9648018205
 10
196.7316903754
 20
52.9389414288
 10
196.7312080138
 20
52.9144878332
 10
196.7298326972
 20
52.8930298751
 10
196.7278116157
 20
52.8746678451
 10
196.7253650347
 20
52.8591762355
 10
196.7226522882
 20
52.8461852895
 10
196.7198611734
 20
52.8356218439
 10
196.7193156831
 20
52.8338117151
  0
LWPOLYLINE
  5
307
100
AcDbEntity
  8
RACCORDO
100
AcDbPolyline
 62
250
  6
CONTINUOUS
 90
10
 70
0
 10
196.8775699591
 20
52.7615543692
 10
196.8785368808
 20
52.7072298237
 10
196.8769227667
 20
52.6548198833
 10
196.8727274432
 20
52.604324439
 10
196.8659152853
 20
52.5555791607
 10
196.8565216252
 20
52.5087481954
 10
196.8446525007
 20
52.4643240076
 10
196.8303429004
 20
52.4224705261
 10
196.813557016
 20
52.3830233039
 10
196.7942944737
 20
52.3459821044
  0
LWPOLYLINE
  5
308
100
AcDbEntity
  8
RACCORDO
100
AcDbPolyline
 62
250
  6
CONTINUOUS
 90
22
 70
0
 10
196.0041622715
 20
52.2607936144
 10
196.0037088235
 20
52.2910992381
 10
196.0052377697
 20
52.3225029394
 10
196.0087405355
 20
52.3548285995
 10
196.0141974766
 20
52.3878949291
 10
196.0215779893
 20
52.4215164851
 10
196.0308406821
 20
52.4555047105
 10
196.0419336079
 20
52.4896689921
 10
196.054794555
 20
52.5238177292
 10
196.0693513966
 20
52.5577594082
 10
196.0855224946
 20
52.5913036769
 10
196.1032171582
 20
52.6242624118
 10
196.1223361518
 20
52.6564507732
 10
196.1427722519
 20
52.6876882417
 10
196.1644108485
 20
52.717799631
 10
196.1871305877
 20
52.7466160698
 10
196.2108040522
 20
52.7739759494
 10
196.2352984762
 20
52.7997258295
 10
196.2604764896
 20
52.8237212994
 10
196.2861968887
 20
52.8458277872
 10
196.3123154279
 20
52.865921315
 10
196.3386856289
 20
52.8838891939
  0
LINE
  5
309
100
AcDbEntity
  8
0
100
AcDbLine
 62
7
  6
CONTINUOUS
 10
194.8624356866
 20
56.173867627
 11
194.8624356866
 21
56.0480025592
  0
LWPOLYLINE
  5
30A
100
AcDbEntity
  8
RACCORDO
100
AcDbPolyline
 62
250
  6
CONTINUOUS
 90
13
 70
0
 10
196.0041622715
 20
90.4186554773
 10
196.003708829
 20
90.3878258913
 10
196.005237821
 20
90.3581875119
 10
196.008740665
 20
90.3299065558
 10
196.0141977081
 20
90.3031416265
 10
196.0215783383
 20
90.2780428229
 10
196.0308411564
 20
90.2547508982
 10
196.0419342069
 20
90.2333964734
 10
196.0547952709
 20
90.2140993018
 10
196.069352216
 20
90.1969675968
 10
196.0855233978
 20
90.1820974301
 10
196.1032181199
 20
90.1695721888
 10
196.1071771015
 20
90.1672127467
  0
LWPOLYLINE
  5
30B
100
AcDbEntity
  8
RACCORDO
100
AcDbPolyline
 62
7
  6
CONTINUOUS
 90
13
 70
0
 10
196.7310832239
 20
89.0041814408
 10
196.6220932295
 20
85.9883402441
 10
196.5307320979
 20
82.9169809485
 10
196.4596615874
 20
79.8577772713
 10
196.4088886017
 20
76.8109600304
 10
196.3784160485
 20
73.7767312182
 10
196.368245947
 20
70.7552815643
 10
196.3783799524
 20
67.7468097205
 10
196.4088175284
 20
64.7515130307
 10
196.4595577543
 20
61.7695804347
 10
196.5305988522
 20
58.8012107477
 10
196.6219350492
 20
55.8466264482
 10
196.7311251441
 20
52.9648020912
  0
LWPOLYLINE
  5
30C
100
AcDbEntity
  8
0
100
AcDbPolyline
 62
250
  6
CONTINUOUS
 90
10
 70
0
 10
178.8960333735
 20
66.0023564518
 10
178.919982104
 20
66.0189468792
 10
178.9418459065
 20
66.0364938165
 10
178.9615078341
 20
66.0549066647
 10
178.9788626585
 20
66.074093165
 10
178.9938176511
 20
66.0939508083
 10
179.006292979
 20
66.1143673937
 10
179.0162219788
 20
66.1352367037
 10
179.023551266
 20
66.1564500237
 10
179.028241462
 20
66.1778876077
  0
LWPOLYLINE
  5
30D
100
AcDbEntity
  8
0
100
AcDbPolyline
 62
7
  6
CONTINUOUS
 90
13
 70
0
 10
178.860095832
 20
65.9143044712
 10
178.8738732499
 20
65.9237681376
 10
178.9013293437
 20
65.9450174978
 10
178.9260732606
 20
65.9675319676
 10
178.9480838281
 20
65.9911130718
 10
178.9674249461
 20
66.0156569385
 10
178.9841875406
 20
66.0411352797
 10
178.9983393936
 20
66.0673533779
 10
179.0098827976
 20
66.094151268
 10
179.018868687
 20
66.1215226035
 10
179.0252692846
 20
66.1492559756
 10
179.029090409
 20
66.1771521669
 10
179.0303560189
 20
66.2050651211
  0
LINE
  5
30E
100
AcDbEntity
  8
0
100
AcDbLine
 62
250
  6
CONTINUOUS
 10
178.3020502794
 20
65.6097615429
 11
178.8960333735
 21
66.0023564518
  0
LINE
  5
30F
100
AcDbEntity
  8
0
100
AcDbLine
 62
7
  6
CONTINUOUS
 10
178.3539782846
 20
65.5797789635
 11
178.8600418031
 21
65.914263165
  0
LINE
  5
310
100
AcDbEntity
  8
0
100
AcDbLine
 62
250
  6
CONTINUOUS
 10
178.7509967517
 20
66.8339811411
 11
177.5003327994
 21
66.0726631679
  0
LINE
  5
311
100
AcDbEntity
  8
0
100
AcDbLine
 62
250
  6
CONTINUOUS
 10
178.8960333735
 20
66.5912252778
 11
177.7794315188
 21
65.9115150653
  0
LINE
  5
312
100
AcDbEntity
  8
0
100
AcDbLine
 62
7
  6
CONTINUOUS
 10
175.3490693315
 20
67.3147757326
 11
176.6523830988
 21
68.0038193946
  0
LINE
  5
313
100
AcDbEntity
  8
0
100
AcDbLine
 62
250
  6
CONTINUOUS
 10
175.4059216254
 20
67.2819499307
 11
176.7470945145
 21
67.991009178
  0
LWPOLYLINE
  5
314
100
AcDbEntity
  8
0
100
AcDbPolyline
 62
250
  6
CONTINUOUS
 90
22
 70
0
 10
176.7470945145
 20
67.991009178
 10
176.7637967582
 20
67.999191651
 10
176.7813226343
 20
68.0065864601
 10
176.7996721428
 20
68.0131936053
 10
176.81895605
 20
68.0190419974
 10
176.8390635896
 20
68.0241027258
 10
176.8596624626
 20
68.0282890576
 10
176.8807566146
 20
68.0315850424
 10
176.9023421
 20
68.0340066308
 10
176.9240747834
 20
68.0355149415
 10
176.9459565298
 20
68.036095297
 10
176.9679854742
 20
68.0357623747
 10
176.9898118854
 20
68.0345213257
 10
177.0114351954
 20
68.0323567535
 10
177.0328559722
 20
68.0292840546
 10
177.0537261885
 20
68.0253545686
 10
177.0740358945
 20
68.0205536145
 10
177.0937950399
 20
68.0148958735
 10
177.1126854467
 20
68.0084767282
 10
177.1306010554
 20
68.0013279728
 10
177.1476479255
 20
67.9934178132
 10
177.1638260569
 20
67.9847462493
  0
LWPOLYLINE
  5
315
100
AcDbEntity
  8
0
100
AcDbPolyline
 62
250
  6
CONTINUOUS
 90
8
 70
0
 10
176.6555237005
 20
68.0053699471
 10
176.6666995793
 20
68.0093035898
 10
176.6787423627
 20
68.0112407519
 10
176.6915201542
 20
68.0111602458
 10
176.704893014
 20
68.0090629769
 10
176.7187144845
 20
68.0049719353
 10
176.7328331923
 20
67.9989319463
 10
176.7470945145
 20
67.991009178
  0
LWPOLYLINE
  5
316
100
AcDbEntity
  8
RACCORDO
100
AcDbPolyline
 62
250
  6
CONTINUOUS
 90
16
 70
0
 10
101.1756859275
 20
165.0296528149
 10
101.1341106179
 20
165.0513570123
 10
101.0924461057
 20
165.0700699933
 10
101.0508332207
 20
165.085736285
 10
101.0094379186
 20
165.0983019078
 10
100.9683689116
 20
165.1077420579
 10
100.9276822595
 20
165.114041927
 10
100.8874712779
 20
165.1171662551
 10
100.8479162519
 20
165.1170840082
 10
100.809201533
 20
165.1137929573
 10
100.7714654369
 20
165.1072972246
 10
100.7348140878
 20
165.0976123249
 10
100.6993753835
 20
165.0847737724
 10
100.6652564134
 20
165.0688075511
 10
100.6325712817
 20
165.0497564061
 10
100.6177369702
 20
165.0397524946
  0
LWPOLYLINE
  5
317
100
AcDbEntity
  8
RACCORDO
100
AcDbPolyline
 62
7
  6
CONTINUOUS
 90
22
 70
0
 10
216.5231475955
 20
101.5111473421
 10
216.5475566801
 20
101.4959529519
 10
216.5708873873
 20
101.4797787369
 10
216.5931397171
 20
101.462624697
 10
216.6142741042
 20
101.4444662183
 10
216.6343301139
 20
101.4253279147
 10
216.6534264417
 20
101.4052836285
 10
216.6715935754
 20
101.3843778919
 10
216.6888010272
 20
101.3625661728
 10
216.7050760299
 20
101.339788717
 10
216.7205042616
 20
101.3159548832
 10
216.7350000441
 20
101.2911553127
 10
216.7483335759
 20
101.2656021756
 10
216.7605112854
 20
101.2392001822
 10
216.7715267441
 20
101.2120446222
 10
216.7811308651
 20
101.1846335347
 10
216.789261415
 20
101.1570636327
 10
216.7959806272
 20
101.1292382032
 10
216.8012261154
 20
101.1013651454
 10
216.8049770839
 20
101.0735137591
 10
216.8072543283
 20
101.0456147446
 10
216.8080578486
 20
101.0176681018
  0
LWPOLYLINE
  5
318
100
AcDbEntity
  8
RACCORDO
100
AcDbPolyline
 62
250
  6
CONTINUOUS
 90
3
 70
0
 10
196.7503093645
 20
89.4856493134
 10
196.7733704501
 20
89.4235082571
 10
196.7942944737
 20
89.360996682
  0
LWPOLYLINE
  5
319
100
AcDbEntity
  8
RACCORDO
100
AcDbPolyline
 62
7
  6
CONTINUOUS
 90
11
 70
0
 10
196.6709156382
 20
89.3927719299
 10
196.6781403098
 20
89.3693910458
 10
196.6918789442
 20
89.3204952842
 10
196.7034892883
 20
89.2727028888
 10
196.7130038943
 20
89.2262457392
 10
196.7204739827
 20
89.1813465353
 10
196.7259714415
 20
89.1381916231
 10
196.7295794333
 20
89.0969984479
 10
196.7314009506
 20
89.0580404469
 10
196.7315705324
 20
89.0215190041
 10
196.731084663
 20
89.0042359688
  0
LWPOLYLINE
  5
31A
100
AcDbEntity
  8
RACCORDO
100
AcDbPolyline
 62
250
  6
CONTINUOUS
 90
10
 70
0
 10
196.7942944737
 20
89.360996682
 10
196.8135231584
 20
89.2967533986
 10
196.8302874917
 20
89.2328288749
 10
196.8445878604
 20
89.1692233127
 10
196.8564652472
 20
89.1057003521
 10
196.8658795195
 20
89.0424967972
 10
196.8727091664
 20
88.980322479
 10
196.8769136965
 20
88.9194140153
 10
196.8785339012
 20
88.859534947
 10
196.8775699591
 20
88.8006853684
  0
LWPOLYLINE
  5
31B
100
AcDbEntity
  8
RACCORDO
100
AcDbPolyline
 62
250
  6
CONTINUOUS
 90
8
 70
0
 10
213.2358743026
 20
27.0184113333
 10
213.2401263405
 20
26.9996198457
 10
213.2459980754
 20
26.9822843633
 10
213.2534429801
 20
26.9665422957
 10
213.2624020582
 20
26.9525184249
 10
213.2728043106
 20
26.9403239163
 10
213.2845672982
 20
26.9300554375
 10
213.2944148462
 20
26.9235585928
  0
LWPOLYLINE
  5
31C
100
AcDbEntity
  8
RACCORDO
100
AcDbPolyline
 62
250
  6
CONTINUOUS
 90
13
 70
0
 10
196.8775699591
 20
88.8006853684
 10
196.7667066389
 20
85.7281821658
 10
196.6759897045
 20
82.6675927421
 10
196.6054255588
 20
79.6191215642
 10
196.5550192937
 20
76.5829722433
 10
196.5247743568
 20
73.559347786
 10
196.5146925483
 20
70.5484505793
 10
196.5247743563
 20
67.5504820676
 10
196.555019293
 20
64.5656426149
 10
196.6054255577
 20
61.5941317542
 10
196.6759897035
 20
58.6361482527
 10
196.7667066382
 20
55.6918901001
 10
196.8775699591
 20
52.7615543692
  0
LINE
  5
31D
100
AcDbEntity
  8
RACCORDO
100
AcDbLine
 62
250
  6
CONTINUOUS
 10
105.1916764175
 20
165.7556589177
 11
105.370097237
 21
165.6895256077
  0
LWPOLYLINE
  5
31E
100
AcDbEntity
  8
RACCORDO
100
AcDbPolyline
 62
7
  6
CONTINUOUS
 90
10
 70
0
 10
105.3152666499
 20
165.7162955286
 10
105.2090160328
 20
165.7567936985
 10
105.0118957487
 20
165.8249253886
 10
104.8182529738
 20
165.8828642373
 10
104.6284570507
 20
165.9308293657
 10
104.4428780061
 20
165.9690781368
 10
104.2618257363
 20
165.9979128396
 10
104.0856250242
 20
166.0176764101
 10
103.9146313509
 20
166.028758052
 10
103.8211514616
 20
166.0313301564
  0
LWPOLYLINE
  5
31F
100
AcDbEntity
  8
RACCORDO
100
AcDbPolyline
 62
7
  6
CONTINUOUS
 90
4
 70
0
 10
105.3152686527
 20
165.7162797598
 10
105.3232721399
 20
165.713004546
 10
105.3462954413
 20
165.702340631
 10
105.3700969246
 20
165.6895257482
  0
LWPOLYLINE
  5
320
100
AcDbEntity
  8
RACCORDO
100
AcDbPolyline
 62
250
  6
CONTINUOUS
 90
10
 70
0
 10
213.6342053113
 20
27.2603996091
 10
213.3326711873
 20
29.0176291793
 10
213.0559579581
 20
30.7922618102
 10
212.8041185113
 20
32.5839406746
 10
212.5771993158
 20
34.3923033295
 10
212.3752452674
 20
36.2169878349
 10
212.1983000992
 20
38.0576331253
 10
212.0463997057
 20
39.9138708709
 10
211.9195717169
 20
41.7853252552
 10
211.817840641
 20
43.6716193048
  0
LWPOLYLINE
  5
321
100
AcDbEntity
  8
RACCORDO
100
AcDbPolyline
 62
250
  6
CONTINUOUS
 90
10
 70
0
 10
214.0437145313
 20
27.2956515298
 10
213.7426193143
 20
29.0503061087
 10
213.466398247
 20
30.8216286783
 10
213.2150513295
 20
32.6096192385
 10
212.9885371623
 20
34.414650988
 10
212.7868971447
 20
36.2363507281
 10
212.6102554751
 20
38.0735988628
 10
212.4586535527
 20
39.9260221935
 10
212.3320499781
 20
41.7939939189
 10
212.2304447515
 20
43.6775140389
  0
LWPOLYLINE
  5
322
100
AcDbEntity
  8
RACCORDO
100
AcDbPolyline
 62
250
  6
CONTINUOUS
 90
13
 70
0
 10
211.8178407128
 20
43.6716192633
 10
211.6879756124
 20
46.6863930288
 10
211.5817046347
 20
49.7146365722
 10
211.4990374286
 20
52.7561380822
 10
211.439981289
 20
55.8107231259
 10
211.4045440375
 20
58.8781397914
 10
211.3927312129
 20
61.95805704
 10
211.4045440311
 20
65.0502573761
 10
211.439981278
 20
68.1545228401
 10
211.4990374149
 20
71.2705174071
 10
211.58170462
 20
74.3979806027
 10
211.6879755987
 20
77.5367291003
 10
211.8178407024
 20
80.6865399465
  0
LWPOLYLINE
  5
323
100
AcDbEntity
  8
RACCORDO
100
AcDbPolyline
 62
250
  6
CONTINUOUS
 90
13
 70
0
 10
212.2304447515
 20
43.6775140389
 10
212.1006476515
 20
46.6906501164
 10
211.99444657
 20
49.7168185285
 10
211.911841507
 20
52.7560192752
 10
211.8528282398
 20
55.8085052138
 10
211.8174109911
 20
58.8740234871
 10
211.8056024291
 20
61.951815523
 10
211.8174110012
 20
65.0418857853
 10
211.85282826
 20
68.1442298104
 10
211.9118415318
 20
71.2580756347
 10
211.994446592
 20
74.3831659372
 10
212.1006476652
 20
77.519758039
 10
212.2304447515
 20
80.6678519401
  0
LWPOLYLINE
  5
324
100
AcDbEntity
  8
RACCORDO
100
AcDbPolyline
 62
7
  6
CONTINUOUS
 90
5
 70
0
 10
196.7193156831
 20
52.8338117151
 10
196.717251308
 20
52.8276052711
 10
196.7151543245
 20
52.8222830433
 10
196.713962855
 20
52.8197304107
 10
196.7138195771
 20
52.8194447731
  0
LINE
  5
325
100
AcDbEntity
  8
0
100
AcDbLine
 62
7
  6
CONTINUOUS
 10
192.579784679
 20
57.4916568069
 11
192.4661573522
 21
57.431583637
  0
LINE
  5
326
100
AcDbEntity
  8
DRAFT
100
AcDbLine
 62
7
  6
CONTINUOUS
 10
216.0268746769
 20
62.7358812627
 11
216.4545044834
 21
62.8887465809
  0
LINE
  5
327
100
AcDbEntity
  8
RACCORDO
100
AcDbLine
 62
7
  6
CONTINUOUS
 10
215.8888190584
 20
28.1487948562
 11
215.8888190584
 21
100.0004171023
  0
LINE
  5
328
100
AcDbEntity
  8
DRAFT
100
AcDbLine
 62
7
  6
CONTINUOUS
 10
216.0268746769
 20
67.5057797135
 11
216.0268746769
 21
61.7904877759
  0
LINE
  5
329
100
AcDbEntity
  8
DRAFT
100
AcDbLine
 62
7
  6
CONTINUOUS
 10
216.8080578486
 20
101.0176681018
 11
216.8080578739
 21
68.9757641768
  0
LINE
  5
32A
100
AcDbEntity
  8
DRAFT
100
AcDbLine
 62
7
  6
CONTINUOUS
 10
216.8080578739
 20
62.6846092843
 11
216.8080578625
 21
30.6427055474
  0
LWPOLYLINE
  5
32B
100
AcDbEntity
  8
RACCORDO
100
AcDbPolyline
 62
250
  6
CONTINUOUS
 90
10
 70
0
 10
211.8178406303
 20
80.6865399882
 10
211.9195717162
 20
82.6786248265
 10
212.0463997119
 20
84.681976233
 10
212.1983001054
 20
86.6961889311
 10
212.3752452544
 20
88.7208504767
 10
212.5771992666
 20
90.7555558064
 10
212.8041184362
 20
92.7999075115
 10
213.0559578838
 20
94.8534965303
 10
213.3326711363
 20
96.915902041
 10
213.6342053113
 20
98.9867061453
  0
LWPOLYLINE
  5
32C
100
AcDbEntity
  8
RACCORDO
100
AcDbPolyline
 62
250
  6
CONTINUOUS
 90
10
 70
0
 10
212.2304447515
 20
80.6678519401
 10
212.332050157
 20
82.6570203871
 10
212.4586539591
 20
84.6566327133
 10
212.6102561579
 20
86.6666889189
 10
212.7868982774
 20
88.687606059
 10
212.9885387934
 20
90.7189670785
 10
213.215053134
 20
92.7595208115
 10
213.4663997752
 20
94.808850203
 10
213.742620241
 20
96.867372308
 10
214.0437145313
 20
98.9350871266
  0
LWPOLYLINE
  5
32D
100
AcDbEntity
  8
RACCORDO
100
AcDbPolyline
 62
250
  6
CONTINUOUS
 90
28
 70
0
 10
214.0437145313
 20
98.9350871266
 10
214.0474383726
 20
98.9865680134
 10
214.0487149614
 20
99.039204045
 10
214.0475724548
 20
99.0928238498
 10
214.0440707324
 20
99.1472422162
 10
214.0382306212
 20
99.2022937107
 10
214.0300242036
 20
99.2578363911
 10
214.0194890291
 20
99.3137377446
 10
214.0066893798
 20
99.3697758974
 10
213.9916462834
 20
99.4256747378
 10
213.9744399825
 20
99.4812293419
 10
213.9551500942
 20
99.5362879574
 10
213.9338114521
 20
99.5906556483
 10
213.9105126995
 20
99.6441578888
 10
213.8853546786
 20
99.6966258126
 10
213.8583966113
 20
99.7478769793
 10
213.8297421519
 20
99.7977437222
 10
213.7995033655
 20
99.8460725035
 10
213.7677564869
 20
99.8927073065
 10
213.7346101246
 20
99.9375006405
 10
213.7001901851
 20
99.9803068221
 10
213.664602336
 20
100.0209798929
 10
213.6279710674
 20
100.0593818833
 10
213.5904211984
 20
100.0953967688
 10
213.5520610119
 20
100.1289193832
 10
213.5130118237
 20
100.159841743
 10
213.4734081601
 20
100.1880563271
 10
213.433378809
 20
100.2134678644
  0
LWPOLYLINE
  5
32E
100
AcDbEntity
  8
RACCORDO
100
AcDbPolyline
 62
250
  6
CONTINUOUS
 90
28
 70
0
 10
213.6342053113
 20
98.9867061453
 10
213.6389207688
 20
99.024137516
 10
213.6419251747
 20
99.0621358516
 10
213.643218293
 20
99.1007010629
 10
213.6427919137
 20
99.1399610983
 10
213.6406538264
 20
99.1797878503
 10
213.6368276015
 20
99.2197970749
 10
213.6312918181
 20
99.2600113904
 10
213.6240670736
 20
99.3004078722
 10
213.6152395804
 20
99.3405338205
 10
213.6047936822
 20
99.3803680727
 10
213.5927438826
 20
99.4199313659
 10
213.5792213223
 20
99.4588337352
 10
213.5642112876
 20
99.4970685046
 10
213.5477272184
 20
99.5346418819
 10
213.5299422885
 20
99.5711831567
 10
213.5108440759
 20
99.6066803157
 10
213.4904437477
 20
99.6411449125
 10
213.4689497558
 20
99.6742415483
 10
213.446350871
 20
99.705956353
 10
213.4226572331
 20
99.7363027986
 10
213.3981093285
 20
99.764986493
 10
213.3726933369
 20
99.79199363
 10
213.3464222783
 20
99.8173377238
 10
213.3195769469
 20
99.8407653801
 10
213.2922507956
 20
99.862192081
 10
213.2643499493
 20
99.8817021905
 10
213.2358743026
 20
99.8992956702
  0
LWPOLYLINE
  5
32F
100
AcDbEntity
  8
RACCORDO
100
AcDbPolyline
 62
250
  6
CONTINUOUS
 90
16
 70
0
 10
213.2358743026
 20
99.8992956702
 10
213.2401264032
 20
99.9229976509
 10
213.2459982375
 20
99.9471139686
 10
213.2534432648
 20
99.9714534751
 10
213.2624024751
 20
99.9958232531
 10
213.2728048568
 20
100.0200301455
 10
213.2845679596
 20
100.043882286
 10
213.2975985482
 20
100.0671906203
 10
213.3117933406
 20
100.0897704043
 10
213.3270398278
 20
100.1114426685
 10
213.3432171645
 20
100.1320356364
 10
213.3601971276
 20
100.1513860862
 10
213.3778451324
 20
100.1693406444
 10
213.3960212989
 20
100.1857570014
 10
213.4145815613
 20
100.2005050395
 10
213.433378809
 20
100.2134678644
  0
LINE
  5
330
100
AcDbEntity
  8
RACCORDO
100
AcDbLine
 62
7
  6
CONTINUOUS
 10
196.7137251856
 20
52.8192801857
 11
196.7138196751
 21
52.8194447168
  0
LWPOLYLINE
  5
331
100
AcDbEntity
  8
RACCORDO
100
AcDbPolyline
 62
250
  6
CONTINUOUS
 90
22
 70
0
 10
196.7942944737
 20
52.3459821044
 10
196.7734315667
 20
52.3125802017
 10
196.7504401125
 20
52.2818762954
 10
196.7253187621
 20
52.2538695324
 10
196.6979846778
 20
52.2284627448
 10
196.6685182128
 20
52.2057515277
 10
196.6371625104
 20
52.1860239841
 10
196.60389549
 20
52.1693228743
 10
196.5687362782
 20
52.1556035601
 10
196.5319893396
 20
52.1450227334
 10
196.4936322712
 20
52.1376184487
 10
196.4536845833
 20
52.1333508075
 10
196.4125133781
 20
52.1322594226
 10
196.3700923101
 20
52.1343873458
 10
196.3264452416
 20
52.139689939
 10
196.2820145632
 20
52.1480752638
 10
196.2367862005
 20
52.1595908045
 10
196.1907724375
 20
52.1741879314
 10
196.1444553423
 20
52.191630625
 10
196.0979952985
 20
52.2118400162
 10
196.0512310163
 20
52.2348943939
 10
196.0041622715
 20
52.2607936144
  0
LINE
  5
332
100
AcDbEntity
  8
0
100
AcDbLine
 62
250
  6
CONTINUOUS
 10
196.3387047897
 20
52.8838781307
 11
196.7239001286
 21
53.1554899523
  0
LWPOLYLINE
  5
333
100
AcDbEntity
  8
RACCORDO
100
AcDbPolyline
 62
250
  6
CONTINUOUS
 90
4
 70
0
 10
196.7180329867
 20
52.8299553505
 10
196.7157688498
 20
52.8285371396
 10
196.6959489587
 20
52.8187842361
 10
196.6750537253
 20
52.8109328387
  0
LINE
  5
334
100
AcDbEntity
  8
0
100
AcDbLine
 62
7
  6
CONTINUOUS
 10
194.8624356866
 20
56.173867627
 11
194.7563206005
 21
56.1092720799
  0
LWPOLYLINE
  5
335
100
AcDbEntity
  8
RACCORDO
100
AcDbPolyline
 62
7
  6
CONTINUOUS
 90
4
 70
0
 10
216.8080578625
 20
30.6427055474
 10
216.8070553451
 20
30.6145586899
 10
216.8046291007
 20
30.5885551079
 10
216.8037343308
 20
30.5819321319
  0
LWPOLYLINE
  5
336
100
AcDbEntity
  8
RACCORDO
100
AcDbPolyline
 62
250
  6
CONTINUOUS
 90
9
 70
0
 10
103.9291898357
 20
165.9838301654
 10
104.0731748515
 20
165.9807140215
 10
104.2210894962
 20
165.9708844597
 10
104.3727676226
 20
165.9541359972
 10
104.5273064074
 20
165.9304444664
 10
104.6852658475
 20
165.8994680217
 10
104.8485987065
 20
165.8603505276
 10
105.0177399341
 20
165.8124742876
 10
105.1916764175
 20
165.7556589177
  0
LINE
  5
337
100
AcDbEntity
  8
RACCORDO
100
AcDbLine
 62
250
  6
CONTINUOUS
 10
216.8080578781
 20
30.6427056972
 11
216.7855033234
 21
30.5056173448
  0
LWPOLYLINE
  5
338
100
AcDbEntity
  8
RACCORDO
100
AcDbPolyline
 62
250
  6
CONTINUOUS
 90
12
 70
0
 10
216.7855033234
 20
30.5056173448
 10
216.7596752124
 20
30.3724941368
 10
216.7307074681
 20
30.2433759079
 10
216.6987884173
 20
30.1185246777
 10
216.6640072966
 20
29.9977457406
 10
216.6263014191
 20
29.8803961219
 10
216.5856976777
 20
29.7663322207
 10
216.5423327954
 20
29.6557664695
 10
216.496255037
 20
29.5485958744
 10
216.4475309193
 20
29.4448064008
 10
216.3962532113
 20
29.3444713182
 10
216.34250292
 20
29.2476173867
  0
LINE
  5
339
100
AcDbEntity
  8
RACCORDO
100
AcDbLine
 62
250
  6
CONTINUOUS
 10
103.8178556363
 20
165.9818120825
 11
103.9291898357
 21
165.9838301654
  0
LWPOLYLINE
  5
33A
100
AcDbEntity
  8
RACCORDO
100
AcDbPolyline
 62
7
  6
CONTINUOUS
 90
8
 70
0
 10
103.8211174925
 20
166.03133034
 10
103.7530708624
 20
166.0316100495
 10
103.6220027598
 20
166.0282700127
 10
103.493007188
 20
166.0198510095
 10
103.3662567223
 20
166.0064242816
 10
103.2419055321
 20
165.9880668523
 10
103.1201025189
 20
165.9648830405
 10
103.0734315526
 20
165.9539592719
  0
LWPOLYLINE
  5
33B
100
AcDbEntity
  8
RACCORDO
100
AcDbPolyline
 62
250
  6
CONTINUOUS
 90
8
 70
0
 10
103.1856181791
 20
165.8891841197
 10
103.1926015114
 20
165.8911648232
 10
103.2907069661
 20
165.9150333928
 10
103.3916120199
 20
165.9355918832
 10
103.4952247989
 20
165.952757939
 10
103.6009061389
 20
165.9662419639
 10
103.7084065648
 20
165.9759278057
 10
103.8178556363
 20
165.9818120825
  0
LWPOLYLINE
  5
33C
100
AcDbEntity
  8
RACCORDO
100
AcDbPolyline
 62
7
  6
CONTINUOUS
 90
10
 70
0
 10
216.329621123
 20
29.1303309016
 10
216.3769324987
 20
29.2179297005
 10
216.4526025174
 20
29.3717519827
 10
216.5233427558
 20
29.5343985858
 10
216.5886433944
 20
29.7057541741
 10
216.6480467444
 20
29.8857048378
 10
216.7011397101
 20
30.0741332428
 10
216.747518535
 20
30.27084924
 10
216.7868127432
 20
30.4756417381
 10
216.8038275463
 20
30.5818617294
  0
LINE
  5
33D
100
AcDbEntity
  8
RACCORDO
100
AcDbLine
 62
250
  6
CONTINUOUS
 10
216.34250292
 20
29.2476173867
 11
216.2825255804
 21
29.1482000047
  0
LWPOLYLINE
  5
33E
100
AcDbEntity
  8
RACCORDO
100
AcDbPolyline
 62
250
  6
CONTINUOUS
 90
7
 70
0
 10
216.2825255804
 20
29.1482000047
 10
216.2203695838
 20
29.053209367
 10
216.1561940729
 20
28.9626516088
 10
216.0899674127
 20
28.8764060315
 10
216.0220155834
 20
28.794600682
 10
215.9530953049
 20
28.7175855965
 10
215.8888190584
 20
28.6509814714
  0
LWPOLYLINE
  5
33F
100
AcDbEntity
  8
RACCORDO
100
AcDbPolyline
 62
7
  6
CONTINUOUS
 90
8
 70
0
 10
215.8888190584
 20
28.5215208023
 10
215.9258197257
 20
28.5611376178
 10
216.0065828225
 20
28.6552006353
 10
216.0844288222
 20
28.7538484019
 10
216.1591845362
 20
28.8570021588
 10
216.2307056549
 20
28.9645660004
 10
216.2988565908
 20
29.076424591
 10
216.3296035386
 20
29.1303002841
  0
LWPOLYLINE
  5
340
100
AcDbEntity
  8
RACCORDO
100
AcDbPolyline
 62
250
  6
CONTINUOUS
 90
16
 70
0
 10
213.8764845383
 20
26.8550792522
 10
213.8851319882
 20
26.8592786759
 10
213.9103059421
 20
26.8739929609
 10
213.9336213812
 20
26.8915531088
 10
213.9549778568
 20
26.9119000133
 10
213.9742860764
 20
26.9349668628
 10
213.9915100413
 20
26.9607008045
 10
214.0065661983
 20
26.9890159224
 10
214.0193802174
 20
27.0198142008
 10
214.0299396499
 20
27.0530093568
 10
214.0381802582
 20
27.0884817757
 10
214.0440502147
 20
27.1261081146
 10
214.0475678098
 20
27.1657814731
 10
214.0487154369
 20
27.2073685471
 10
214.0474391442
 20
27.2507106973
 10
214.0437145313
 20
27.2956515298
  0
LINE
  5
341
100
AcDbEntity
  8
RACCORDO
100
AcDbLine
 62
250
  6
CONTINUOUS
 10
214.0437145313
 20
27.2956515298
 11
215.8888190584
 21
28.1487948562
  0
LINE
  5
342
100
AcDbEntity
  8
RACCORDO
100
AcDbLine
 62
7
  6
CONTINUOUS
 10
213.8764434895
 20
26.8550602676
 11
215.655359904
 21
27.6775993948
  0
ELLIPSE
  5
343
100
AcDbEntity
  8
RACCORDO
100
AcDbEllipse
 62
7
  6
CONTINUOUS
 10
215.1807418821
 20
28.5598691674
 30
0.0
 11
-0.5013954353
 21
0.868386877
 31
0.0
 40
0.5757524875
 41
-3.193807042
 42
-2.3576120761
  0
ELLIPSE
  5
344
100
AcDbEntity
  8
RACCORDO
100
AcDbEllipse
 62
7
  6
CONTINUOUS
 10
215.1807418821
 20
100.4070125657
 30
0.0
 11
-0.5000243598
 21
0.8660113392
 31
0.0
 40
0.5789151826
 41
-2.3548735497
 42
-0.7868162787
  0
ELLIPSE
  5
345
100
AcDbEntity
  8
DRAFT
100
AcDbEllipse
 62
7
  6
CONTINUOUS
 10
211.6803858621
 20
68.9862155249
 30
0.0
 11
5.1478346794
 21
0.9575482268
 31
0.0
 40
0.6665647798
 41
-0.7006982462
 42
-0.2750682551
  0
ELLIPSE
  5
346
100
AcDbEntity
  8
0
100
AcDbEllipse
 62
7
  6
CONTINUOUS
 10
116.9653566865
 20
101.6788722993
 30
0.0
 11
-0.4000194878
 21
0.6928090714
 31
0.0
 40
0.5789151826
 41
0.7867191038
 42
2.3547763749
  0
ELLIPSE
  5
347
100
AcDbEntity
  8
0
100
AcDbEllipse
 62
7
  6
CONTINUOUS
 10
167.1699381508
 20
72.691376173
 30
0.0
 11
-0.4000194878
 21
0.6928090714
 31
0.0
 40
0.5789151826
 41
0.7867191038
 42
2.3547763749
  0
ELLIPSE
  5
348
100
AcDbEntity
  8
RACCORDO
100
AcDbEllipse
 62
7
  6
CONTINUOUS
 10
102.7527044637
 20
165.3215523168
 30
0.0
 11
-0.5013954353
 21
0.868386877
 31
0.0
 40
0.5757524875
 41
-0.7840766935
 42
0.0522143884
  0
ELLIPSE
  5
349
100
AcDbEntity
  8
DRAFT
100
AcDbEllipse
 62
7
  6
CONTINUOUS
 10
211.6803858621
 20
63.579436354
 30
0.0
 11
5.1774686765
 21
-0.6785096723
 31
0.0
 40
0.4693271057
 41
-0.5159119978
 42
-0.0902820066
  0
ENDSEC
  0
SECTION
  2
OBJECTS
  0
DICTIONARY
  5
C
100
AcDbDictionary
280
0
281
1
  3
ACAD_GROUP
350
D
  3
ACAD_MLINESTYLE
350
17
  3
ACAD_LAYOUT
350
1A
  3
ACAD_PLOTSETTINGS
350
19
  3
ACAD_PLOTSTYLENAME
350
E
  0
DICTIONARY
  5
D
102
{ACAD_REACTORS
330
C
102
}
100
AcDbDictionary
280
0
281
1
  0
ACDBDICTIONARYWDFLT
  5
E
102
{ACAD_REACTORS
330
C
102
}
100
AcDbDictionary
281
1
  3
Normal
350
F
100
AcDbDictionaryWithDefault
340
F
  0
DICTIONARY
  5
17
102
{ACAD_REACTORS
330
C
102
}
100
AcDbDictionary
280
0
281
1
  3
Standard
350
18
  0
DICTIONARY
  5
19
102
{ACAD_REACTORS
330
C
102
}
100
AcDbDictionary
281
1
  0
DICTIONARY
  5
1A
102
{ACAD_REACTORS
330
C
102
}
100
AcDbDictionary
281
1
  3
Model
350
34A
  3
Layout1
350
34B
  0
ACDBPLACEHOLDER
  5
F
102
{ACAD_REACTORS
330
E
102
}
  0
MLINESTYLE
  5
18
102
{ACAD_REACTORS
330
17
102
}
100
AcDbMlineStyle
  2
STANDARD
 70
0
  3

 62
256
 51
90.0
 52
90.0
 71
2
 49
0.5
 62
256
  6
BYLAYER
 49
-0.5
 62
256
  6
BYLAYER
  0
LAYOUT
  5
34A
102
{ACAD_REACTORS
330
1A
102
}
100
AcDbPlotSettings
  1

  2
none_device
  4
ISO_A4_(297.00_x_210.00_MM)
  6

 40
0.0
 41
0.0
 42
0.0
 43
0.0
 44
297.0
 45
210.0
 46
0.0
 47
0.0
 48
0.0
 49
0.0
140
0.0
141
0.0
142
1.0
143
1.0
 70
1024
 72
1
 73
0
 74
0
  7

 75
0
147
1.0
148
0.0
149
0.0
100
AcDbLayout
  1
Model
 70
0
 71
0
 10
0.0
 20
0.0
 11
297.0
 21
210.0
 12
0.0
 22
0.0
 32
0.0
 14
0.0
 24
0.0
 34
0.0
 15
0.0
 25
0.0
 35
0.0
146
0.0
 13
0.0
 23
0.0
 33
0.0
 16
1.0
 26
0.0
 36
0.0
 17
0.0
 27
1.0
 37
0.0
 76
0
330
215
345
0
346
0
  0
LAYOUT
  5
34B
102
{ACAD_REACTORS
330
1A
102
}
100
AcDbPlotSettings
  1

  2
none_device
  4
ISO_A4_(297.00_x_210.00_MM)
  6

 40
0.0
 41
0.0
 42
0.0
 43
0.0
 44
297.0
 45
210.0
 46
0.0
 47
0.0
 48
0.0
 49
0.0
140
0.0
141
0.0
142
1.0
143
1.0
 70
0
 72
1
 73
0
 74
0
  7

 75
0
147
1.0
148
0.0
149
0.0
100
AcDbLayout
  1
Layout1
 70
0
 71
1
 10
0.0
 20
0.0
 11
297.0
 21
210.0
 12
0.0
 22
0.0
 32
0.0
 14
0.0
 24
0.0
 34
0.0
 15
0.0
 25
0.0
 35
0.0
146
0.0
 13
0.0
 23
0.0
 33
0.0
 16
1.0
 26
0.0
 36
0.0
 17
0.0
 27
1.0
 37
0.0
 76
0
330
216
345
0
346
0
  0
ENDSEC
  0
EOF
