  0
SECTION
  2
HEADER
  9
$ACADVER
  1
AC1024
  9
$DWGCODEPAGE
  3
ANSI_1252
  9
$EXTMAX
 10
297.0
 20
210.0
 30
0.0
  9
$EXTMIN
 10
0.0
 20
0.0
 30
0.0
  9
$LIMMIN
 10
0.0
 20
0.0
  9
$LIMMAX
 10
297.0
 20
210.0
  9
$VIEWCTR
 10
148.5
 20
105.0
  9
$VIEWSIZE
 40
210.0
  9
$CLAYER
  8
0
  9
$LTSCALE
 40
16.335
  9
$CELTYPE
  6
BYLAYER
  9
$DIMSCALE
 40
1.0
  9
$DIMASZ
 40
3.0
  9
$DIMEXO
 40
0.5
  9
$DIMDLI
 40
11.286
  9
$DIMEXE
 40
1.5
  9
$DIMCEN
 40
2.673
  9
$DIMLFAC
 40
1.0
  9
$DIMBLK
  1
_FILLED
  9
$DIMALT
 70
0
  9
$DIMALTF
 40
0.0393700787
  9
$DIMTXT
 40
3.0
  9
$DIMTOL
 70
1
  9
$DIMLIM
 70
0
  9
$DIMTFAC
 40
1.0
  9
$DIMTP
 40
0.01
  9
$DIMTM
 40
0.01
  9
$DIMGAP
 40
0.625
  9
$DIMDSEP
 70
44
  9
$AUNITS
 70
0
  9
$PDMODE
 70
3
  9
$PDSIZE
 40
3.0
  9
$HANDSEED
  5
548
  9
$TILEMODE
 70
1
  9
$MEASUREMENT
 70
1
  9
$INSUNITS
 70
4
  0
ENDSEC
  0
SECTION
  2
CLASSES
  0
CLASS
  1
ACDBDICTIONARYWDFLT
  2
AcDbDictionaryWithDefault
  3
AutoCAD 2000
 90
0
 91
1
280
0
281
0
  0
CLASS
  1
ACDBPLACEHOLDER
  2
AcDbPlaceHolder
  3
AutoCAD 2000
 90
0
 91
1
280
0
281
0
  0
CLASS
  1
LAYOUT
  2
AcDbLayout
  3
AutoCAD 2000
 90
0
 91
0
280
0
281
0
  0
ENDSEC
  0
SECTION
  2
TABLES
  0
TABLE
  2
VPORT
  5
8
100
AcDbSymbolTable
 70
2
  0
VPORT
  5
1F4
100
AcDbSymbolTableRecord
100
AcDbViewportTableRecord
  2
*ACTIVE
 70
0
 10
0.0
 20
0.0
 11
1.0
 21
1.0
 12
148.5
 22
105.0
 13
0.0
 23
0.0
 14
1.0
 24
1.0
 15
0.0
 25
0.0
 16
0.0
 26
0.0
 36
1.0
 17
0.0
 27
0.0
 37
0.0
 40
210.0
 41
1.4142857143
 42
50.0
 43
0.0
 44
0.0
 50
0.0
 51
0.0
 71
0
 72
100
 73
1
 74
1
 75
0
 76
0
 77
0
 78
0
  0
ENDTAB
  0
TABLE
  2
LTYPE
  5
5
100
AcDbSymbolTable
 70
6
  0
LTYPE
  5
14
100
AcDbSymbolTableRecord
100
AcDbLinetypeTableRecord
  2
BYBLOCK
 70
0
  3

 72
65
 73
0
 40
0.0
  0
LTYPE
  5
15
100
AcDbSymbolTableRecord
100
AcDbLinetypeTableRecord
  2
BYLAYER
 70
0
  3

 72
65
 73
0
 40
0.0
  0
LTYPE
  5
16
100
AcDbSymbolTableRecord
100
AcDbLinetypeTableRecord
  2
CONTINUOUS
 70
64
  3
Solid line
 72
65
 73
0
 40
0.0
  0
LTYPE
  5
1F5
100
AcDbSymbolTableRecord
100
AcDbLinetypeTableRecord
  2
CENTER
 70
64
  3
____ _ ____ _ ____ _ ____ _ ____ _ ____ _ ____
 72
65
 73
4
 40
0.6
 49
0.375
 74
0
 49
-0.075
 74
0
 49
0.075
 74
0
 49
-0.075
 74
0
  0
LTYPE
  5
1F6
100
AcDbSymbolTableRecord
100
AcDbLinetypeTableRecord
  2
HIDDEN
 70
64
  3
- - - - - - - - - - - - - - - - - - - -
 72
65
 73
2
 40
0.2
 49
0.1
 74
0
 49
-0.1
 74
0
  0
LTYPE
  5
1F7
100
AcDbSymbolTableRecord
100
AcDbLinetypeTableRecord
  2
PHANTOM
 70
64
  3
_____ _ _ _____ _ _ _____ _ _ _____
 72
65
 73
6
 40
0.8
 49
0.45
 74
0
 49
-0.05
 74
0
 49
0.1
 74
0
 49
-0.05
 74
0
 49
0.1
 74
0
 49
-0.05
 74
0
  0
LTYPE
  5
1F8
100
AcDbSymbolTableRecord
100
AcDbLinetypeTableRecord
  2
DOT
 70
64
  3
. . . . . . . . . . . . . . . . . . . .
 72
65
 73
2
 40
0.2
 49
0.1
 74
0
 49
-0.1
 74
0
  0
LTYPE
  5
1F9
100
AcDbSymbolTableRecord
100
AcDbLinetypeTableRecord
  2
DASHED
 70
64
  3
- - - - - - - - - - - - - - - - - - - -
 72
65
 73
2
 40
0.2
 49
0.1
 74
0
 49
-0.1
 74
0
  0
ENDTAB
  0
TABLE
  2
LAYER
  5
2
100
AcDbSymbolTable
 70
36
  0
LAYER
  5
10
100
AcDbSymbolTableRecord
100
AcDbLayerTableRecord
  2
0
 70
0
 62
7
  6
CONTINUOUS
370
-3
390
F
  0
LAYER
  5
1FA
100
AcDbSymbolTableRecord
100
AcDbLayerTableRecord
  2
DEFAULT_1
 70
0
 62
7
  6
CENTER
370
-3
390
F
  0
LAYER
  5
1FB
100
AcDbSymbolTableRecord
100
AcDbLayerTableRecord
  2
DEFAULT_2
 70
0
 62
7
  6
HIDDEN
370
-3
390
F
  0
LAYER
  5
1FC
100
AcDbSymbolTableRecord
100
AcDbLayerTableRecord
  2
DEFAULT_3
 70
0
 62
7
  6
PHANTOM
370
-3
390
F
  0
LAYER
  5
1FD
100
AcDbSymbolTableRecord
100
AcDbLayerTableRecord
  2
ASSI
 70
0
 62
7
  6
CONTINUOUS
370
-3
390
F
  0
LAYER
  5
1FE
100
AcDbSymbolTableRecord
100
AcDbLayerTableRecord
  2
COORDINATE
 70
0
 62
7
  6
CONTINUOUS
370
-3
390
F
  0
LAYER
  5
1FF
100
AcDbSymbolTableRecord
100
AcDbLayerTableRecord
  2
COPY_PUBLISH
 70
0
 62
7
  6
CONTINUOUS
370
-3
390
F
  0
LAYER
  5
200
100
AcDbSymbolTableRecord
100
AcDbLayerTableRecord
  2
COSMETIC
 70
0
 62
7
  6
CONTINUOUS
370
-3
390
F
  0
LAYER
  5
201
100
AcDbSymbolTableRecord
100
AcDbLayerTableRecord
  2
COSMETICI
 70
0
 62
7
  6
CONTINUOUS
370
-3
390
F
  0
LAYER
  5
202
100
AcDbSymbolTableRecord
100
AcDbLayerTableRecord
  2
CURVE
 70
0
 62
7
  6
CONTINUOUS
370
-3
390
F
  0
LAYER
  5
203
100
AcDbSymbolTableRecord
100
AcDbLayerTableRecord
  2
CURVE_VERN
 70
0
 62
7
  6
CONTINUOUS
370
-3
390
F
  0
LAYER
  5
204
100
AcDbSymbolTableRecord
100
AcDbLayerTableRecord
  2
DRAFT
 70
0
 62
7
  6
CONTINUOUS
370
-3
390
F
  0
LAYER
  5
205
100
AcDbSymbolTableRecord
100
AcDbLayerTableRecord
  2
IMPORT_IGES
 70
0
 62
7
  6
CONTINUOUS
370
-3
390
F
  0
LAYER
  5
206
100
AcDbSymbolTableRecord
100
AcDbLayerTableRecord
  2
INTFCLR_1
 70
0
 62
7
  6
CONTINUOUS
370
-3
390
F
  0
LAYER
  5
207
100
AcDbSymbolTableRecord
100
AcDbLayerTableRecord
  2
INTF_1
 70
0
 62
7
  6
CONTINUOUS
370
-3
390
F
  0
LAYER
  5
208
100
AcDbSymbolTableRecord
100
AcDbLayerTableRecord
  2
NOTE
 70
0
 62
7
  6
CONTINUOUS
370
-3
390
F
  0
LAYER
  5
209
100
AcDbSymbolTableRecord
100
AcDbLayerTableRecord
  2
PIANI
 70
0
 62
7
  6
CONTINUOUS
370
-3
390
F
  0
LAYER
  5
20A
100
AcDbSymbolTableRecord
100
AcDbLayerTableRecord
  2
PUNTI
 70
0
 62
7
  6
CONTINUOUS
370
-3
390
F
  0
LAYER
  5
20B
100
AcDbSymbolTableRecord
100
AcDbLayerTableRecord
  2
RACCORDO
 70
0
 62
7
  6
CONTINUOUS
370
-3
390
F
  0
LAYER
  5
20C
100
AcDbSymbolTableRecord
100
AcDbLayerTableRecord
  2
RGB____0____0____0__
 70
0
 62
7
  6
CONTINUOUS
370
-3
390
F
  0
LAYER
  5
20D
100
AcDbSymbolTableRecord
100
AcDbLayerTableRecord
  2
SIMBOLI
 70
0
 62
7
  6
CONTINUOUS
370
-3
390
F
  0
LAYER
  5
20E
100
AcDbSymbolTableRecord
100
AcDbLayerTableRecord
  2
SMUSSO
 70
0
 62
7
  6
CONTINUOUS
370
-3
390
F
  0
LAYER
  5
20F
100
AcDbSymbolTableRecord
100
AcDbLayerTableRecord
  2
SNAPLINE
 70
0
 62
7
  6
CONTINUOUS
370
-3
390
F
  0
LAYER
  5
210
100
AcDbSymbolTableRecord
100
AcDbLayerTableRecord
  2
SUPERFICI
 70
0
 62
7
  6
CONTINUOUS
370
-3
390
F
  0
LAYER
  5
211
100
AcDbSymbolTableRecord
100
AcDbLayerTableRecord
  2
TRASH
 70
0
 62
7
  6
CONTINUOUS
370
-3
390
F
  0
LAYER
  5
212
100
AcDbSymbolTableRecord
100
AcDbLayerTableRecord
  2
XSEC_DATUMS
 70
0
 62
7
  6
CONTINUOUS
370
-3
390
F
  0
ENDTAB
  0
TABLE
  2
STYLE
  5
3
100
AcDbSymbolTable
 70
1
  0
STYLE
  5
11
100
AcDbSymbolTableRecord
100
AcDbTextStyleTableRecord
  2
STANDARD
 70
0
 40
0.0
 41
0.8
 50
0.0
 71
0
 42
0.2
  3
txt
  4

  0
STYLE
  5
213
100
AcDbSymbolTableRecord
100
AcDbTextStyleTableRecord
  2
TEXTSTYLE_1
 70
0
 40
0.0
 41
0.8
 50
0.0
 71
0
 42
0.2
  3
gdt
  4

  0
ENDTAB
  0
TABLE
  2
VIEW
  5
6
100
AcDbSymbolTable
 70
0
  0
ENDTAB
  0
TABLE
  2
UCS
  5
7
100
AcDbSymbolTable
 70
0
  0
ENDTAB
  0
TABLE
  2
APPID
  5
9
100
AcDbSymbolTable
 70
1
  0
APPID
  5
214
100
AcDbSymbolTableRecord
100
AcDbRegAppTableRecord
  2
ACAD
 70
0
  0
ENDTAB
  0
TABLE
  2
BLOCK_RECORD
  5
1
100
AcDbSymbolTable
 70
0
  0
BLOCK_RECORD
  5
215
100
AcDbSymbolTableRecord
100
AcDbBlockTableRecord
  2
*Model_Space
  0
BLOCK_RECORD
  5
216
100
AcDbSymbolTableRecord
100
AcDbBlockTableRecord
  2
*Paper_Space
  0
BLOCK_RECORD
  5
217
100
AcDbSymbolTableRecord
100
AcDbBlockTableRecord
  2
_FILLED
  0
ENDTAB
  0
TABLE
  2
DIMSTYLE
  5
A
100
AcDbSymbolTable
 70
1
100
AcDbDimStyleTable
 71
0
  0
DIMSTYLE
105
218
100
AcDbSymbolTableRecord
100
AcDbDimStyleTableRecord
  2
STANDARD
 70
0
  3

  4

 40
1.0
 41
3.0
 42
0.5
 43
0.38
 44
1.5
 45
0.0
 46
0.0
 47
0.01
 48
0.01
140
3.0
141
0.09
142
0.0
143
25.4
144
1.0
145
0.0
146
1.0
147
0.625
 71
1
 72
0
 73
0
 74
0
 75
0
 76
0
 77
1
 78
8
 79
2
170
0
171
1
172
0
173
0
174
0
175
0
176
0
177
0
178
0
270
2
179
2
271
2
272
2
273
2
274
2
275
0
280
0
281
0
282
0
283
1
284
8
285
0
286
0
287
3
288
0
340
11
278
44
341
217
342
217
343
217
344
217
  0
ENDTAB
  0
ENDSEC
  0
SECTION
  2
BLOCKS
  0
BLOCK
  5
20
100
AcDbEntity
  8
0
100
AcDbBlockBegin
  2
*Model_Space
 70
0
 10
0.0
 20
0.0
 30
0.0
  3
*Model_Space
  1

  0
ENDBLK
  5
21
100
AcDbEntity
  8
0
100
AcDbBlockEnd
  0
BLOCK
  5
1C
100
AcDbEntity
  8
0
100
AcDbBlockBegin
  2
*Paper_Space
 70
0
 10
0.0
 20
0.0
 30
0.0
  3
*Paper_Space
  1

  0
ENDBLK
  5
1D
100
AcDbEntity
  8
0
100
AcDbBlockEnd
  0
BLOCK
  5
219
100
AcDbEntity
  8
0
100
AcDbBlockBegin
  2
_FILLED
 70
64
 10
0.0
 20
0.0
  3
_FILLED
  1

  0
SOLID
  5
21A
100
AcDbEntity
  8
0
  6
BYBLOCK
 62
0
100
AcDbTrace
 10
0.0
 20
0.0
 11
-1.0
 21
0.3166666667
 12
-1.0
 22
-0.3166666667
 13
-1.0
 23
-0.3166666667
  0
ENDBLK
  5
21B
100
AcDbEntity
  8
0
  6
BYBLOCK
 62
0
100
AcDbBlockEnd
  0
ENDSEC
  0
SECTION
  2
ENTITIES
  0
LWPOLYLINE
  5
21C
100
AcDbEntity
  8
RACCORDO
100
AcDbPolyline
 62
7
  6
CONTINUOUS
 90
6
 70
0
 10
100.6175753669
 20
165.0396371821
 10
100.5528203572
 20
164.9873487473
 10
100.4565621436
 20
164.8776759561
 10
100.3808373369
 20
164.7441603411
 10
100.32837733
 20
164.5892029722
 10
100.3089348933
 20
164.4854407676
  0
LWPOLYLINE
  5
21D
100
AcDbEntity
  8
ASSI
100
AcDbPolyline
 62
7
  6
CONTINUOUS
 90
6
 70
0
 10
100.6175753669
 20
165.0396371821
 10
100.5528203572
 20
164.9873487473
 10
100.4565621436
 20
164.8776759561
 10
100.3808373369
 20
164.7441603411
 10
100.32837733
 20
164.5892029722
 10
100.3089348933
 20
164.4854407676
  0
LINE
  5
21E
100
AcDbEntity
  8
RACCORDO
100
AcDbLine
 62
7
  6
CONTINUOUS
 10
100.6176031306
 20
165.0396580846
 11
102.2258982806
 21
166.1736893151
  0
LINE
  5
21F
100
AcDbEntity
  8
ASSI
100
AcDbLine
 62
7
  6
CONTINUOUS
 10
100.6176031306
 20
165.0396580846
 11
102.2258982806
 21
166.1736893151
  0
LINE
  5
220
100
AcDbEntity
  8
RACCORDO
100
AcDbLine
 62
250
  6
CONTINUOUS
 10
101.1756859275
 20
165.0296528149
 11
102.7507650033
 21
166.1402628935
  0
LINE
  5
221
100
AcDbEntity
  8
ASSI
100
AcDbLine
 62
250
  6
CONTINUOUS
 10
101.1756859275
 20
165.0296528149
 11
102.7507650033
 21
166.1402628935
  0
LWPOLYLINE
  5
222
100
AcDbEntity
  8
RACCORDO
100
AcDbPolyline
 62
7
  6
CONTINUOUS
 90
4
 70
0
 10
100.3089307117
 20
164.4854437355
 10
99.5643499184
 20
158.2783449934
 10
99.0149393272
 20
152.0971542195
 10
98.6737992979
 20
146.0858672547
  0
LWPOLYLINE
  5
223
100
AcDbEntity
  8
ASSI
100
AcDbPolyline
 62
7
  6
CONTINUOUS
 90
4
 70
0
 10
100.3089307117
 20
164.4854437355
 10
99.5643499184
 20
158.2783449934
 10
99.0149393272
 20
152.0971542195
 10
98.6737992979
 20
146.0858672547
  0
LWPOLYLINE
  5
224
100
AcDbEntity
  8
RACCORDO
100
AcDbPolyline
 62
7
  6
CONTINUOUS
 90
4
 70
0
 10
98.6738265492
 20
109.0706983263
 10
99.0147044682
 20
103.4996970375
 10
99.5642950706
 20
98.0193738227
 10
100.3101559657
 20
92.7574854015
  0
LWPOLYLINE
  5
225
100
AcDbEntity
  8
ASSI
100
AcDbPolyline
 62
7
  6
CONTINUOUS
 90
4
 70
0
 10
98.6738265492
 20
109.0706983263
 10
99.0147044682
 20
103.4996970375
 10
99.5642950706
 20
98.0193738227
 10
100.3101559657
 20
92.7574854015
  0
LINE
  5
226
100
AcDbEntity
  8
RACCORDO
100
AcDbLine
 62
7
  6
CONTINUOUS
 10
98.673834696
 20
109.0705104873
 11
98.6738265492
 21
109.0706983263
  0
LINE
  5
227
100
AcDbEntity
  8
ASSI
100
AcDbLine
 62
7
  6
CONTINUOUS
 10
98.673834696
 20
109.0705104873
 11
98.6738265492
 21
109.0706983263
  0
LINE
  5
228
100
AcDbEntity
  8
RACCORDO
100
AcDbLine
 62
250
  6
CONTINUOUS
 10
98.7564529416
 20
109.0724459801
 11
98.7616910124
 21
108.9488232886
  0
LINE
  5
229
100
AcDbEntity
  8
ASSI
100
AcDbLine
 62
250
  6
CONTINUOUS
 10
98.7564529416
 20
109.0724459801
 11
98.7616910124
 21
108.9488232886
  0
LINE
  5
22A
100
AcDbEntity
  8
RACCORDO
100
AcDbLine
 62
250
  6
CONTINUOUS
 10
98.7577478273
 20
109.0733555194
 11
98.7616910124
 21
108.9488232886
  0
LINE
  5
22B
100
AcDbEntity
  8
ASSI
100
AcDbLine
 62
250
  6
CONTINUOUS
 10
98.7577478273
 20
109.0733555194
 11
98.7616910124
 21
108.9488232886
  0
LWPOLYLINE
  5
22C
100
AcDbEntity
  8
RACCORDO
100
AcDbPolyline
 62
7
  6
CONTINUOUS
 90
5
 70
0
 10
98.673799297
 20
146.0858673041
 10
98.3874449632
 20
136.6859570486
 10
98.2910259764
 20
127.3360147372
 10
98.3873360935
 20
118.109420541
 10
98.6738265492
 20
109.0706982383
  0
LWPOLYLINE
  5
22D
100
AcDbEntity
  8
ASSI
100
AcDbPolyline
 62
7
  6
CONTINUOUS
 90
5
 70
0
 10
98.673799297
 20
146.0858673041
 10
98.3874449632
 20
136.6859570486
 10
98.2910259764
 20
127.3360147372
 10
98.3873360935
 20
118.109420541
 10
98.6738265492
 20
109.0706982383
  0
LINE
  5
22E
100
AcDbEntity
  8
0
100
AcDbLine
 62
250
  6
CONTINUOUS
 10
114.3475953006
 20
136.8188632088
 11
114.881665629
 21
137.0658050762
  0
LINE
  5
22F
100
AcDbEntity
  8
ASSI
100
AcDbLine
 62
250
  6
CONTINUOUS
 10
114.3475953006
 20
136.8188632088
 11
114.881665629
 21
137.0658050762
  0
LWPOLYLINE
  5
230
100
AcDbEntity
  8
RACCORDO
100
AcDbPolyline
 62
7
  6
CONTINUOUS
 90
9
 70
0
 10
100.3101300586
 20
92.757670549
 10
100.3299589589
 20
92.6646854665
 10
100.3851425701
 20
92.5025513262
 10
100.4644232608
 20
92.3406466263
 10
100.564644681
 20
92.1834759216
 10
100.6819361768
 20
92.0365218553
 10
100.811840212
 20
91.9054127782
 10
100.949828163
 20
91.795196587
 10
101.0368855809
 20
91.7396540612
  0
LWPOLYLINE
  5
231
100
AcDbEntity
  8
ASSI
100
AcDbPolyline
 62
7
  6
CONTINUOUS
 90
9
 70
0
 10
100.3101300586
 20
92.757670549
 10
100.3299589589
 20
92.6646854665
 10
100.3851425701
 20
92.5025513262
 10
100.4644232608
 20
92.3406466263
 10
100.564644681
 20
92.1834759216
 10
100.6819361768
 20
92.0365218553
 10
100.811840212
 20
91.9054127782
 10
100.949828163
 20
91.795196587
 10
101.0368855809
 20
91.7396540612
  0
LINE
  5
232
100
AcDbEntity
  8
RACCORDO
100
AcDbLine
 62
250
  6
CONTINUOUS
 10
100.3773555736
 20
92.765334371
 11
100.3974611186
 21
92.6418765162
  0
LINE
  5
233
100
AcDbEntity
  8
ASSI
100
AcDbLine
 62
250
  6
CONTINUOUS
 10
100.3773555736
 20
92.765334371
 11
100.3974611186
 21
92.6418765162
  0
LINE
  5
234
100
AcDbEntity
  8
RACCORDO
100
AcDbLine
 62
7
  6
CONTINUOUS
 10
100.3101600613
 20
92.7574860695
 11
100.3101300586
 21
92.757670549
  0
LINE
  5
235
100
AcDbEntity
  8
ASSI
100
AcDbLine
 62
7
  6
CONTINUOUS
 10
100.3101600613
 20
92.7574860695
 11
100.3101300586
 21
92.757670549
  0
LINE
  5
236
100
AcDbEntity
  8
RACCORDO
100
AcDbLine
 62
250
  6
CONTINUOUS
 10
100.3796842894
 20
92.7673370504
 11
100.3974611186
 21
92.6418765162
  0
LINE
  5
237
100
AcDbEntity
  8
ASSI
100
AcDbLine
 62
250
  6
CONTINUOUS
 10
100.3796842894
 20
92.7673370504
 11
100.3974611186
 21
92.6418765162
  0
LINE
  5
238
100
AcDbEntity
  8
0
100
AcDbLine
 62
250
  6
CONTINUOUS
 10
109.8226134702
 20
112.4740833943
 11
109.7973447475
 21
113.8870893872
  0
LINE
  5
239
100
AcDbEntity
  8
0
100
AcDbLine
 62
250
  6
CONTINUOUS
 10
109.5302825559
 20
115.0017556497
 11
109.5342937492
 21
114.7185520065
  0
LINE
  5
23A
100
AcDbEntity
  8
0
100
AcDbLine
 62
250
  6
CONTINUOUS
 10
110.0217975913
 20
115.7933596477
 11
110.0334672471
 21
114.8483675235
  0
LINE
  5
23B
100
AcDbEntity
  8
0
100
AcDbLine
 62
250
  6
CONTINUOUS
 10
109.511183354
 20
116.6086700045
 11
109.5141053081
 21
116.3248382745
  0
LINE
  5
23C
100
AcDbEntity
  8
0
100
AcDbLine
 62
250
  6
CONTINUOUS
 10
109.5051128802
 20
117.2713761584
 11
109.5075863822
 21
116.9872854948
  0
LINE
  5
23D
100
AcDbEntity
  8
0
100
AcDbLine
 62
250
  6
CONTINUOUS
 10
109.5021138286
 20
117.6503368737
 11
109.4997699215
 21
117.9820895169
  0
LINE
  5
23E
100
AcDbEntity
  8
0
100
AcDbLine
 62
250
  6
CONTINUOUS
 10
109.493534091
 20
119.1681531775
 11
109.4925339278
 21
119.4530945438
  0
LINE
  5
23F
100
AcDbEntity
  8
0
100
AcDbLine
 62
250
  6
CONTINUOUS
 10
109.7440940663
 20
119.6619007296
 11
109.7431708954
 21
121.0889635699
  0
LINE
  5
240
100
AcDbEntity
  8
0
100
AcDbLine
 62
250
  6
CONTINUOUS
 10
109.4959985097
 20
122.9764985863
 11
109.4946286728
 21
122.6901880129
  0
LINE
  5
241
100
AcDbEntity
  8
0
100
AcDbLine
 62
250
  6
CONTINUOUS
 10
110.0080755482
 20
123.7799748271
 11
110.0103719243
 21
124.0668203763
  0
LINE
  5
242
100
AcDbEntity
  8
0
100
AcDbLine
 62
250
  6
CONTINUOUS
 10
109.7614340302
 20
124.6209128985
 11
109.7656490852
 21
125.0516252675
  0
LINE
  5
243
100
AcDbEntity
  8
0
100
AcDbLine
 62
250
  6
CONTINUOUS
 10
109.5133776964
 20
125.2231007542
 11
109.5091368741
 21
124.7923726917
  0
LINE
  5
244
100
AcDbEntity
  8
0
100
AcDbLine
 62
250
  6
CONTINUOUS
 10
109.5306371306
 20
126.6606619648
 11
109.526800799
 21
126.3729272635
  0
LINE
  5
245
100
AcDbEntity
  8
0
100
AcDbLine
 62
250
  6
CONTINUOUS
 10
110.2194462402
 20
127.30717303
 11
110.2064406314
 21
126.443105592
  0
LINE
  5
246
100
AcDbEntity
  8
0
100
AcDbLine
 62
250
  6
CONTINUOUS
 10
110.0521399842
 20
127.4695805531
 11
110.0376511411
 21
126.509484048
  0
LINE
  5
247
100
AcDbEntity
  8
0
100
AcDbLine
 62
250
  6
CONTINUOUS
 10
109.5560075927
 20
128.2932525462
 11
109.5510818525
 21
128.0048896456
  0
LINE
  5
248
100
AcDbEntity
  8
0
100
AcDbLine
 62
250
  6
CONTINUOUS
 10
110.4559303674
 20
128.6546199956
 11
110.4746366048
 21
129.5695652582
  0
LINE
  5
249
100
AcDbEntity
  8
0
100
AcDbLine
 62
250
  6
CONTINUOUS
 10
110.7079666577
 20
128.4830096005
 11
110.7266184621
 21
129.3979226232
  0
LINE
  5
24A
100
AcDbEntity
  8
0
100
AcDbLine
 62
250
  6
CONTINUOUS
 10
109.8446886616
 20
129.9986748838
 11
109.825846399
 21
129.0836519384
  0
LINE
  5
24B
100
AcDbEntity
  8
0
100
AcDbLine
 62
250
  6
CONTINUOUS
 10
109.599080249
 20
130.4595163107
 11
109.57476196
 21
129.3033982495
  0
LINE
  5
24C
100
AcDbEntity
  8
0
100
AcDbLine
 62
250
  6
CONTINUOUS
 10
110.336987689
 20
136.0792424695
 11
110.3695959147
 21
136.9682240577
  0
LINE
  5
24D
100
AcDbEntity
  8
0
100
AcDbLine
 62
250
  6
CONTINUOUS
 10
110.2734722583
 20
139.088127807
 11
110.2340185487
 21
138.1272127333
  0
LINE
  5
24E
100
AcDbEntity
  8
0
100
AcDbLine
 62
250
  6
CONTINUOUS
 10
111.4350677022
 20
137.4337420404
 11
111.4745214119
 21
138.3946571141
  0
LINE
  5
24F
100
AcDbEntity
  8
0
100
AcDbLine
 62
250
  6
CONTINUOUS
 10
110.3476512713
 20
139.1309499552
 11
110.3080165283
 21
138.1699304228
  0
LINE
  5
250
100
AcDbEntity
  8
0
100
AcDbLine
 62
250
  6
CONTINUOUS
 10
111.3677659451
 20
137.558044356
 11
111.4074006881
 21
138.5190638884
  0
LINE
  5
251
100
AcDbEntity
  8
0
100
AcDbLine
 62
250
  6
CONTINUOUS
 10
110.4218460298
 20
139.1737811947
 11
110.3820302776
 21
138.2126579478
  0
LINE
  5
252
100
AcDbEntity
  8
0
100
AcDbLine
 62
250
  6
CONTINUOUS
 10
111.3004799614
 20
137.6823565955
 11
111.3402957135
 21
138.6434798423
  0
LINE
  5
253
100
AcDbEntity
  8
0
100
AcDbLine
 62
250
  6
CONTINUOUS
 10
109.4704625922
 20
139.7806827858
 11
109.4609973744
 21
139.5572406246
  0
LINE
  5
254
100
AcDbEntity
  8
0
100
AcDbLine
 62
250
  6
CONTINUOUS
 10
109.5411124591
 20
139.7398904381
 11
109.5351763874
 21
139.6000627721
  0
LINE
  5
255
100
AcDbEntity
  8
0
100
AcDbLine
 62
250
  6
CONTINUOUS
 10
109.6117630331
 20
139.6990976821
 11
109.609371853
 21
139.6428936023
  0
LWPOLYLINE
  5
256
100
AcDbEntity
  8
0
100
AcDbPolyline
 62
7
  6
CONTINUOUS
 90
7
 70
0
 10
117.647042145
 20
130.605197299
 10
117.7226276145
 20
130.6627371029
 10
117.7964282771
 20
130.7419965459
 10
117.8580395585
 20
130.8341475562
 10
117.9047243905
 20
130.9346667837
 10
117.9339751715
 20
131.0389247928
 10
117.9436240132
 20
131.1386270554
  0
LWPOLYLINE
  5
257
100
AcDbEntity
  8
ASSI
100
AcDbPolyline
 62
7
  6
CONTINUOUS
 90
7
 70
0
 10
117.647042145
 20
130.605197299
 10
117.7226276145
 20
130.6627371029
 10
117.7964282771
 20
130.7419965459
 10
117.8580395585
 20
130.8341475562
 10
117.9047243905
 20
130.9346667837
 10
117.9339751715
 20
131.0389247928
 10
117.9436240132
 20
131.1386270554
  0
LINE
  5
258
100
AcDbEntity
  8
0
100
AcDbLine
 62
250
  6
CONTINUOUS
 10
116.3988949455
 20
129.8867095632
 11
117.6833346074
 21
130.6936336927
  0
LINE
  5
259
100
AcDbEntity
  8
ASSI
100
AcDbLine
 62
250
  6
CONTINUOUS
 10
116.3988949455
 20
129.8867095632
 11
117.6833346074
 21
130.6936336927
  0
LINE
  5
25A
100
AcDbEntity
  8
0
100
AcDbLine
 62
7
  6
CONTINUOUS
 10
116.3988949455
 20
129.8210733481
 11
117.6470774344
 21
130.6052196169
  0
LINE
  5
25B
100
AcDbEntity
  8
ASSI
100
AcDbLine
 62
7
  6
CONTINUOUS
 10
116.3988949455
 20
129.8210733481
 11
117.6470774344
 21
130.6052196169
  0
LINE
  5
25C
100
AcDbEntity
  8
0
100
AcDbLine
 62
250
  6
CONTINUOUS
 10
117.5456305753
 20
133.2544554369
 11
116.3988949455
 21
132.6273320471
  0
LINE
  5
25D
100
AcDbEntity
  8
ASSI
100
AcDbLine
 62
250
  6
CONTINUOUS
 10
117.5456305753
 20
133.2544554369
 11
116.3988949455
 21
132.6273320471
  0
LINE
  5
25E
100
AcDbEntity
  8
0
100
AcDbLine
 62
250
  6
CONTINUOUS
 10
117.6833346074
 20
133.0074661403
 11
116.3988949455
 21
132.3050355767
  0
LINE
  5
25F
100
AcDbEntity
  8
ASSI
100
AcDbLine
 62
250
  6
CONTINUOUS
 10
117.6833346074
 20
133.0074661403
 11
116.3988949455
 21
132.3050355767
  0
LINE
  5
260
100
AcDbEntity
  8
0
100
AcDbLine
 62
7
  6
CONTINUOUS
 10
116.3988949455
 20
133.2908683254
 11
116.9413271174
 21
133.5617922279
  0
LINE
  5
261
100
AcDbEntity
  8
ASSI
100
AcDbLine
 62
7
  6
CONTINUOUS
 10
116.3988949455
 20
133.2908683254
 11
116.9413271174
 21
133.5617922279
  0
LINE
  5
262
100
AcDbEntity
  8
0
100
AcDbLine
 62
250
  6
CONTINUOUS
 10
116.3988949455
 20
133.2308888736
 11
117.0356392769
 21
133.5489180542
  0
LINE
  5
263
100
AcDbEntity
  8
ASSI
100
AcDbLine
 62
250
  6
CONTINUOUS
 10
116.3988949455
 20
133.2308888736
 11
117.0356392769
 21
133.5489180542
  0
LWPOLYLINE
  5
264
100
AcDbEntity
  8
RACCORDO
100
AcDbPolyline
 62
7
  6
CONTINUOUS
 90
7
 70
0
 10
114.561130488
 20
137.2082503473
 10
114.5608834249
 20
137.2081669141
 10
114.5663510575
 20
137.2088252934
 10
114.5927076442
 20
137.2071779829
 10
114.639645978
 20
137.1952873758
 10
114.7014810668
 20
137.1688594473
 10
114.7303076332
 20
137.1531969011
  0
LWPOLYLINE
  5
265
100
AcDbEntity
  8
ASSI
100
AcDbPolyline
 62
7
  6
CONTINUOUS
 90
7
 70
0
 10
114.561130488
 20
137.2082503473
 10
114.5608834249
 20
137.2081669141
 10
114.5663510575
 20
137.2088252934
 10
114.5927076442
 20
137.2071779829
 10
114.639645978
 20
137.1952873758
 10
114.7014810668
 20
137.1688594473
 10
114.7303076332
 20
137.1531969011
  0
LINE
  5
266
100
AcDbEntity
  8
0
100
AcDbLine
 62
250
  6
CONTINUOUS
 10
111.5258356929
 20
112.7180198253
 11
111.5212413664
 21
113.0008867798
  0
LINE
  5
267
100
AcDbEntity
  8
0
100
AcDbLine
 62
250
  6
CONTINUOUS
 10
111.5047865618
 20
114.1334629668
 11
111.4999851274
 21
114.5113821852
  0
LINE
  5
268
100
AcDbEntity
  8
0
100
AcDbLine
 62
250
  6
CONTINUOUS
 10
110.1908792327
 20
115.6319763933
 11
110.2014162754
 21
114.7815029864
  0
LINE
  5
269
100
AcDbEntity
  8
0
100
AcDbLine
 62
250
  6
CONTINUOUS
 10
111.4876310472
 20
115.6463260915
 11
111.4850230296
 21
115.9303390956
  0
LINE
  5
26A
100
AcDbEntity
  8
0
100
AcDbLine
 62
250
  6
CONTINUOUS
 10
110.6350825572
 20
117.4960231528
 11
110.6304029207
 21
118.3974656853
  0
LINE
  5
26B
100
AcDbEntity
  8
0
100
AcDbLine
 62
250
  6
CONTINUOUS
 10
111.2620094303
 20
117.9693144762
 11
111.2668249992
 21
117.06795044
  0
LINE
  5
26C
100
AcDbEntity
  8
0
100
AcDbLine
 62
250
  6
CONTINUOUS
 10
110.3818103657
 20
117.7620934448
 11
110.3777627175
 21
118.5687281983
  0
LINE
  5
26D
100
AcDbEntity
  8
0
100
AcDbLine
 62
250
  6
CONTINUOUS
 10
111.4714128745
 20
118.1114620674
 11
111.4771045382
 21
116.9726713344
  0
LINE
  5
26E
100
AcDbEntity
  8
0
100
AcDbLine
 62
250
  6
CONTINUOUS
 10
111.2161697118
 20
120.0895098306
 11
111.2175936622
 21
118.6627353142
  0
LINE
  5
26F
100
AcDbEntity
  8
0
100
AcDbLine
 62
250
  6
CONTINUOUS
 10
110.4165352858
 20
120.6320671732
 11
110.4172562036
 21
119.3952337993
  0
LINE
  5
270
100
AcDbEntity
  8
0
100
AcDbLine
 62
250
  6
CONTINUOUS
 10
110.6698451526
 20
119.2239416442
 11
110.6690498327
 21
120.460732084
  0
LINE
  5
271
100
AcDbEntity
  8
0
100
AcDbLine
 62
7
  6
CONTINUOUS
 10
116.3988949455
 20
102.0041486701
 11
116.3988949455
 21
136.1897758842
  0
LINE
  5
272
100
AcDbEntity
  8
ASSI
100
AcDbLine
 62
7
  6
CONTINUOUS
 10
116.3988949455
 20
102.0041486701
 11
116.3988949455
 21
136.1897758842
  0
LINE
  5
273
100
AcDbEntity
  8
0
100
AcDbLine
 62
7
  6
CONTINUOUS
 10
116.5074399694
 20
115.5483653115
 11
116.5074399694
 21
112.912851878
  0
LINE
  5
274
100
AcDbEntity
  8
ASSI
100
AcDbLine
 62
7
  6
CONTINUOUS
 10
116.5074399694
 20
115.5483653115
 11
116.5074399694
 21
112.912851878
  0
LINE
  5
275
100
AcDbEntity
  8
0
100
AcDbLine
 62
250
  6
CONTINUOUS
 10
111.2616216976
 20
121.4904942492
 11
111.259228788
 21
120.727727978
  0
LINE
  5
276
100
AcDbEntity
  8
0
100
AcDbLine
 62
250
  6
CONTINUOUS
 10
111.267143219
 20
122.5405858059
 11
111.2628713396
 21
121.7767346556
  0
LINE
  5
277
100
AcDbEntity
  8
0
100
AcDbLine
 62
250
  6
CONTINUOUS
 10
110.977618397
 20
123.4096184129
 11
110.9753878455
 21
123.1228108588
  0
LINE
  5
278
100
AcDbEntity
  8
0
100
AcDbLine
 62
250
  6
CONTINUOUS
 10
111.2372623101
 20
124.0513707448
 11
111.2331975165
 21
123.6207451231
  0
LINE
  5
279
100
AcDbEntity
  8
0
100
AcDbLine
 62
250
  6
CONTINUOUS
 10
111.4855051572
 20
123.4492913959
 11
111.4895441928
 21
123.8799021707
  0
LINE
  5
27A
100
AcDbEntity
  8
0
100
AcDbLine
 62
250
  6
CONTINUOUS
 10
111.5127277767
 20
125.7967488964
 11
111.5183897089
 21
126.180710363
  0
LINE
  5
27B
100
AcDbEntity
  8
0
100
AcDbLine
 62
250
  6
CONTINUOUS
 10
111.3145816519
 20
128.9974279175
 11
111.2960568028
 21
128.0825874556
  0
LINE
  5
27C
100
AcDbEntity
  8
0
100
AcDbLine
 62
250
  6
CONTINUOUS
 10
111.5490222389
 20
127.9590990166
 11
111.5728020716
 21
129.114906151
  0
LINE
  5
27D
100
AcDbEntity
  8
0
100
AcDbLine
 62
250
  6
CONTINUOUS
 10
111.6239126796
 20
131.220524365
 11
111.6612543669
 21
132.5473147689
  0
LINE
  5
27E
100
AcDbEntity
  8
0
100
AcDbLine
 62
250
  6
CONTINUOUS
 10
112.2198755735
 20
138.0499511076
 11
112.2258116452
 21
138.1897787736
  0
LINE
  5
27F
100
AcDbEntity
  8
0
100
AcDbLine
 62
250
  6
CONTINUOUS
 10
112.2869962944
 20
137.9255442639
 11
112.2964615121
 21
138.1489864251
  0
LINE
  5
280
100
AcDbEntity
  8
0
100
AcDbLine
 62
250
  6
CONTINUOUS
 10
112.1527698911
 20
138.1743674508
 11
112.1551610712
 21
138.2305715305
  0
LWPOLYLINE
  5
281
100
AcDbEntity
  8
0
100
AcDbPolyline
 62
7
  6
CONTINUOUS
 90
7
 70
0
 10
117.9436240182
 20
132.9628520405
 10
117.9430988319
 20
132.9852954174
 10
117.9296226092
 20
133.0738931333
 10
117.8983922421
 20
133.1526419855
 10
117.8506945816
 20
133.2186516532
 10
117.7899038132
 20
133.2683629098
 10
117.7820202444
 20
133.2730765148
  0
LWPOLYLINE
  5
282
100
AcDbEntity
  8
ASSI
100
AcDbPolyline
 62
7
  6
CONTINUOUS
 90
7
 70
0
 10
117.9436240182
 20
132.9628520405
 10
117.9430988319
 20
132.9852954174
 10
117.9296226092
 20
133.0738931333
 10
117.8983922421
 20
133.1526419855
 10
117.8506945816
 20
133.2186516532
 10
117.7899038132
 20
133.2683629098
 10
117.7820202444
 20
133.2730765148
  0
LINE
  5
283
100
AcDbEntity
  8
0
100
AcDbLine
 62
250
  6
CONTINUOUS
 10
117.8862766999
 20
131.0576649528
 11
117.8862766999
 21
132.8819136572
  0
LINE
  5
284
100
AcDbEntity
  8
ASSI
100
AcDbLine
 62
250
  6
CONTINUOUS
 10
117.8862766999
 20
131.0576649528
 11
117.8862766999
 21
132.8819136572
  0
LINE
  5
285
100
AcDbEntity
  8
0
100
AcDbLine
 62
7
  6
CONTINUOUS
 10
117.9436266101
 20
131.1386041977
 11
117.9436266101
 21
132.9628528972
  0
LINE
  5
286
100
AcDbEntity
  8
ASSI
100
AcDbLine
 62
7
  6
CONTINUOUS
 10
117.9436266101
 20
131.1386041977
 11
117.9436266101
 21
132.9628528972
  0
LINE
  5
287
100
AcDbEntity
  8
0
100
AcDbLine
 62
7
  6
CONTINUOUS
 10
116.5076000901
 20
112.9129524707
 11
116.3988949455
 21
112.8446605868
  0
LINE
  5
288
100
AcDbEntity
  8
ASSI
100
AcDbLine
 62
7
  6
CONTINUOUS
 10
116.5076000901
 20
112.9129524707
 11
116.3988949455
 21
112.8446605868
  0
LINE
  5
289
100
AcDbEntity
  8
0
100
AcDbLine
 62
7
  6
CONTINUOUS
 10
116.5074399694
 20
115.5483653115
 11
116.3988949455
 21
115.4890045298
  0
LINE
  5
28A
100
AcDbEntity
  8
ASSI
100
AcDbLine
 62
7
  6
CONTINUOUS
 10
116.5074399694
 20
115.5483653115
 11
116.3988949455
 21
115.4890045298
  0
LWPOLYLINE
  5
28B
100
AcDbEntity
  8
RACCORDO
100
AcDbPolyline
 62
7
  6
CONTINUOUS
 90
7
 70
0
 10
213.2944171898
 20
26.9235626517
 10
213.3688558029
 20
26.884459648
 10
213.4996676376
 20
26.8350863745
 10
213.6270835276
 20
26.8123241178
 10
213.7502351632
 20
26.8170575997
 10
213.8641086847
 20
26.8495776577
 10
213.8764521426
 20
26.8550681539
  0
LWPOLYLINE
  5
28C
100
AcDbEntity
  8
ASSI
100
AcDbPolyline
 62
7
  6
CONTINUOUS
 90
7
 70
0
 10
213.2944171898
 20
26.9235626517
 10
213.3688558029
 20
26.884459648
 10
213.4996676376
 20
26.8350863745
 10
213.6270835276
 20
26.8123241178
 10
213.7502351632
 20
26.8170575997
 10
213.8641086847
 20
26.8495776577
 10
213.8764521426
 20
26.8550681539
  0
LINE
  5
28D
100
AcDbEntity
  8
0
100
AcDbLine
 62
250
  6
CONTINUOUS
 10
128.6914621481
 20
95.5787276368
 11
128.6914519093
 21
94.989852578
  0
LINE
  5
28E
100
AcDbEntity
  8
ASSI
100
AcDbLine
 62
250
  6
CONTINUOUS
 10
128.6914621481
 20
95.5787276368
 11
128.6914519093
 21
94.989852578
  0
LINE
  5
28F
100
AcDbEntity
  8
0
100
AcDbLine
 62
7
  6
CONTINUOUS
 10
128.8257750585
 20
95.7741731583
 11
128.8257750585
 21
95.192491257
  0
LINE
  5
290
100
AcDbEntity
  8
ASSI
100
AcDbLine
 62
7
  6
CONTINUOUS
 10
128.8257750585
 20
95.7741731583
 11
128.8257750585
 21
95.192491257
  0
LINE
  5
291
100
AcDbEntity
  8
RACCORDO
100
AcDbLine
 62
7
  6
CONTINUOUS
 10
101.0367808123
 20
91.7397095387
 11
213.2944737618
 21
26.9235245489
  0
LINE
  5
292
100
AcDbEntity
  8
ASSI
100
AcDbLine
 62
7
  6
CONTINUOUS
 10
101.0367808123
 20
91.7397095387
 11
213.2944737618
 21
26.9235245489
  0
LINE
  5
293
100
AcDbEntity
  8
RACCORDO
100
AcDbLine
 62
250
  6
CONTINUOUS
 10
100.978181421
 20
91.8345962838
 11
213.2358743026
 21
27.0184113333
  0
LINE
  5
294
100
AcDbEntity
  8
ASSI
100
AcDbLine
 62
250
  6
CONTINUOUS
 10
100.978181421
 20
91.8345962838
 11
213.2358743026
 21
27.0184113333
  0
LINE
  5
295
100
AcDbEntity
  8
RACCORDO
100
AcDbLine
 62
7
  6
CONTINUOUS
 10
213.2944148462
 20
26.9235585928
 11
213.2944737618
 21
26.9235245489
  0
LINE
  5
296
100
AcDbEntity
  8
ASSI
100
AcDbLine
 62
7
  6
CONTINUOUS
 10
213.2944148462
 20
26.9235585928
 11
213.2944737618
 21
26.9235245489
  0
LWPOLYLINE
  5
297
100
AcDbEntity
  8
0
100
AcDbPolyline
 62
7
  6
CONTINUOUS
 90
6
 70
0
 10
128.8257722911
 20
95.7741495596
 10
128.8136316181
 20
95.8586265045
 10
128.781269114
 20
95.9324870553
 10
128.7298804337
 20
95.9987473946
 10
128.6612846987
 20
96.0548220556
 10
128.6379155003
 20
96.069226699
  0
LWPOLYLINE
  5
298
100
AcDbEntity
  8
ASSI
100
AcDbPolyline
 62
7
  6
CONTINUOUS
 90
6
 70
0
 10
128.8257722911
 20
95.7741495596
 10
128.8136316181
 20
95.8586265045
 10
128.781269114
 20
95.9324870553
 10
128.7298804337
 20
95.9987473946
 10
128.6612846987
 20
96.0548220556
 10
128.6379155003
 20
96.069226699
  0
LINE
  5
299
100
AcDbEntity
  8
0
100
AcDbLine
 62
250
  6
CONTINUOUS
 10
114.3475958897
 20
100.8197377476
 11
116.3988949455
 21
102.0041486701
  0
LINE
  5
29A
100
AcDbEntity
  8
ASSI
100
AcDbLine
 62
250
  6
CONTINUOUS
 10
114.3475958897
 20
100.8197377476
 11
116.3988949455
 21
102.0041486701
  0
LINE
  5
29B
100
AcDbEntity
  8
0
100
AcDbLine
 62
250
  6
CONTINUOUS
 10
114.9618901184
 20
99.8698310309
 11
116.9638051182
 21
101.0256955502
  0
LINE
  5
29C
100
AcDbEntity
  8
ASSI
100
AcDbLine
 62
250
  6
CONTINUOUS
 10
114.9618901184
 20
99.8698310309
 11
116.9638051182
 21
101.0256955502
  0
LWPOLYLINE
  5
29D
100
AcDbEntity
  8
0
100
AcDbPolyline
 62
7
  6
CONTINUOUS
 90
5
 70
0
 10
128.6555143677
 20
94.9018005975
 10
128.7214917963
 20
94.9550280939
 10
128.7796060764
 20
95.028631406
 10
128.8142872227
 20
95.1090187298
 10
128.8257745547
 20
95.1925612474
  0
LWPOLYLINE
  5
29E
100
AcDbEntity
  8
ASSI
100
AcDbPolyline
 62
7
  6
CONTINUOUS
 90
5
 70
0
 10
128.6555143677
 20
94.9018005975
 10
128.7214917963
 20
94.9550280939
 10
128.7796060764
 20
95.028631406
 10
128.8142872227
 20
95.1090187298
 10
128.8257745547
 20
95.1925612474
  0
LINE
  5
29F
100
AcDbEntity
  8
0
100
AcDbLine
 62
250
  6
CONTINUOUS
 10
128.0974688151
 20
94.5972576692
 11
128.6914519093
 21
94.989852578
  0
LINE
  5
2A0
100
AcDbEntity
  8
ASSI
100
AcDbLine
 62
250
  6
CONTINUOUS
 10
128.0974688151
 20
94.5972576692
 11
128.6914519093
 21
94.989852578
  0
LINE
  5
2A1
100
AcDbEntity
  8
0
100
AcDbLine
 62
7
  6
CONTINUOUS
 10
128.1493968203
 20
94.5672750898
 11
128.6554603388
 21
94.9017592912
  0
LINE
  5
2A2
100
AcDbEntity
  8
ASSI
100
AcDbLine
 62
7
  6
CONTINUOUS
 10
128.1493968203
 20
94.5672750898
 11
128.6554603388
 21
94.9017592912
  0
LINE
  5
2A3
100
AcDbEntity
  8
0
100
AcDbLine
 62
250
  6
CONTINUOUS
 10
127.2957513352
 20
95.0601592942
 11
128.5464152874
 21
95.8214772674
  0
LINE
  5
2A4
100
AcDbEntity
  8
ASSI
100
AcDbLine
 62
250
  6
CONTINUOUS
 10
127.2957513352
 20
95.0601592942
 11
128.5464152874
 21
95.8214772674
  0
LINE
  5
2A5
100
AcDbEntity
  8
0
100
AcDbLine
 62
250
  6
CONTINUOUS
 10
127.5748500546
 20
94.8990111915
 11
128.6914621481
 21
95.5787276368
  0
LINE
  5
2A6
100
AcDbEntity
  8
ASSI
100
AcDbLine
 62
250
  6
CONTINUOUS
 10
127.5748500546
 20
94.8990111915
 11
128.6914621481
 21
95.5787276368
  0
LINE
  5
2A7
100
AcDbEntity
  8
0
100
AcDbLine
 62
7
  6
CONTINUOUS
 10
126.4478016419
 20
96.9913155248
 11
125.1444878673
 21
96.3022718589
  0
LINE
  5
2A8
100
AcDbEntity
  8
ASSI
100
AcDbLine
 62
7
  6
CONTINUOUS
 10
126.4478016419
 20
96.9913155248
 11
125.1444878673
 21
96.3022718589
  0
LINE
  5
2A9
100
AcDbEntity
  8
0
100
AcDbLine
 62
250
  6
CONTINUOUS
 10
126.5425130503
 20
96.9785053043
 11
125.2013401611
 21
96.2694460569
  0
LINE
  5
2AA
100
AcDbEntity
  8
ASSI
100
AcDbLine
 62
250
  6
CONTINUOUS
 10
126.5425130503
 20
96.9785053043
 11
125.2013401611
 21
96.2694460569
  0
LWPOLYLINE
  5
2AB
100
AcDbEntity
  8
0
100
AcDbPolyline
 62
7
  6
CONTINUOUS
 90
7
 70
0
 10
177.2626141778
 20
67.9939335443
 10
177.1716561281
 20
68.0353587512
 10
177.0668976617
 20
68.062169832
 10
176.9565552862
 20
68.072059678
 10
176.8458946544
 20
68.0648359925
 10
176.7402126417
 20
68.0405721239
 10
176.652355203
 20
68.0037997369
  0
LWPOLYLINE
  5
2AC
100
AcDbEntity
  8
ASSI
100
AcDbPolyline
 62
7
  6
CONTINUOUS
 90
7
 70
0
 10
177.2626141778
 20
67.9939335443
 10
177.1716561281
 20
68.0353587512
 10
177.0668976617
 20
68.062169832
 10
176.9565552862
 20
68.072059678
 10
176.8458946544
 20
68.0648359925
 10
176.7402126417
 20
68.0405721239
 10
176.652355203
 20
68.0037997369
  0
LINE
  5
2AD
100
AcDbEntity
  8
RACCORDO
100
AcDbLine
 62
250
  6
CONTINUOUS
 10
196.0041622715
 20
52.2607936144
 11
164.8319525435
 21
70.2592368318
  0
LINE
  5
2AE
100
AcDbEntity
  8
ASSI
100
AcDbLine
 62
250
  6
CONTINUOUS
 10
196.0041622715
 20
52.2607936144
 11
164.8319525435
 21
70.2592368318
  0
LINE
  5
2AF
100
AcDbEntity
  8
RACCORDO
100
AcDbLine
 62
250
  6
CONTINUOUS
 10
145.7995808072
 20
81.2482897407
 11
114.6273710793
 21
99.246732958
  0
LINE
  5
2B0
100
AcDbEntity
  8
ASSI
100
AcDbLine
 62
250
  6
CONTINUOUS
 10
145.7995808072
 20
81.2482897407
 11
114.6273710793
 21
99.246732958
  0
LINE
  5
2B1
100
AcDbEntity
  8
RACCORDO
100
AcDbLine
 62
250
  6
CONTINUOUS
 10
196.7942944737
 20
52.3459821044
 11
211.817840641
 21
43.6716193048
  0
LINE
  5
2B2
100
AcDbEntity
  8
ASSI
100
AcDbLine
 62
250
  6
CONTINUOUS
 10
196.7942944737
 20
52.3459821044
 11
211.817840641
 21
43.6716193048
  0
LINE
  5
2B3
100
AcDbEntity
  8
RACCORDO
100
AcDbLine
 62
250
  6
CONTINUOUS
 10
98.7616910844
 20
108.948823247
 11
113.7852413477
 21
100.2743690316
  0
LINE
  5
2B4
100
AcDbEntity
  8
ASSI
100
AcDbLine
 62
250
  6
CONTINUOUS
 10
98.7616910844
 20
108.948823247
 11
113.7852413477
 21
100.2743690316
  0
LINE
  5
2B5
100
AcDbEntity
  8
RACCORDO
100
AcDbLine
 62
250
  6
CONTINUOUS
 10
146.5897130095
 20
81.3334782307
 11
163.9898228119
 21
71.2868729053
  0
LINE
  5
2B6
100
AcDbEntity
  8
ASSI
100
AcDbLine
 62
250
  6
CONTINUOUS
 10
146.5897130095
 20
81.3334782307
 11
163.9898228119
 21
71.2868729053
  0
LINE
  5
2B7
100
AcDbEntity
  8
RACCORDO
100
AcDbLine
 62
250
  6
CONTINUOUS
 10
196.3387047897
 20
52.8838781307
 11
165.1664715826
 21
70.8823349046
  0
LINE
  5
2B8
100
AcDbEntity
  8
ASSI
100
AcDbLine
 62
250
  6
CONTINUOUS
 10
196.3387047897
 20
52.8838781307
 11
165.1664715826
 21
70.8823349046
  0
LINE
  5
2B9
100
AcDbEntity
  8
RACCORDO
100
AcDbLine
 62
250
  6
CONTINUOUS
 10
146.1341233255
 20
81.8713742569
 11
114.9618901184
 21
99.8698310309
  0
LINE
  5
2BA
100
AcDbEntity
  8
ASSI
100
AcDbLine
 62
250
  6
CONTINUOUS
 10
146.1341233255
 20
81.8713742569
 11
114.9618901184
 21
99.8698310309
  0
LINE
  5
2BB
100
AcDbEntity
  8
0
100
AcDbLine
 62
7
  6
CONTINUOUS
 10
196.6681870927
 20
55.0053843286
 11
167.1683865824
 21
72.0381994239
  0
LINE
  5
2BC
100
AcDbEntity
  8
ASSI
100
AcDbLine
 62
7
  6
CONTINUOUS
 10
196.6681870927
 20
55.0053843286
 11
167.1683865824
 21
72.0381994239
  0
LINE
  5
2BD
100
AcDbEntity
  8
0
100
AcDbLine
 62
7
  6
CONTINUOUS
 10
146.4636056285
 20
83.9928804549
 11
116.9638051182
 21
101.0256955502
  0
LINE
  5
2BE
100
AcDbEntity
  8
ASSI
100
AcDbLine
 62
7
  6
CONTINUOUS
 10
146.4636056285
 20
83.9928804549
 11
116.9638051182
 21
101.0256955502
  0
LINE
  5
2BF
100
AcDbEntity
  8
0
100
AcDbLine
 62
7
  6
CONTINUOUS
 10
142.3752032148
 20
86.4791529332
 11
144.6576983327
 21
85.1612688584
  0
LINE
  5
2C0
100
AcDbEntity
  8
ASSI
100
AcDbLine
 62
7
  6
CONTINUOUS
 10
142.3752032148
 20
86.4791529332
 11
144.6576983327
 21
85.1612688584
  0
LINE
  5
2C1
100
AcDbEntity
  8
0
100
AcDbLine
 62
7
  6
CONTINUOUS
 10
192.579784679
 20
57.4916568069
 11
194.862279797
 21
56.1737727322
  0
LINE
  5
2C2
100
AcDbEntity
  8
ASSI
100
AcDbLine
 62
7
  6
CONTINUOUS
 10
192.579784679
 20
57.4916568069
 11
194.862279797
 21
56.1737727322
  0
LINE
  5
2C3
100
AcDbEntity
  8
0
100
AcDbLine
 62
250
  6
CONTINUOUS
 10
128.5391412113
 20
96.0600298687
 11
126.9592445927
 21
96.9722423755
  0
LINE
  5
2C4
100
AcDbEntity
  8
ASSI
100
AcDbLine
 62
250
  6
CONTINUOUS
 10
128.5391412113
 20
96.0600298687
 11
126.9592445927
 21
96.9722423755
  0
LINE
  5
2C5
100
AcDbEntity
  8
0
100
AcDbLine
 62
250
  6
CONTINUOUS
 10
177.1638260569
 20
67.9847462493
 11
178.7437226755
 21
67.0725337424
  0
LINE
  5
2C6
100
AcDbEntity
  8
ASSI
100
AcDbLine
 62
250
  6
CONTINUOUS
 10
177.1638260569
 20
67.9847462493
 11
178.7437226755
 21
67.0725337424
  0
LINE
  5
2C7
100
AcDbEntity
  8
0
100
AcDbLine
 62
7
  6
CONTINUOUS
 10
128.6379119248
 20
96.0692317574
 11
127.0580153105
 21
96.9814442618
  0
LINE
  5
2C8
100
AcDbEntity
  8
ASSI
100
AcDbLine
 62
7
  6
CONTINUOUS
 10
128.6379119248
 20
96.0692317574
 11
127.0580153105
 21
96.9814442618
  0
LINE
  5
2C9
100
AcDbEntity
  8
0
100
AcDbLine
 62
7
  6
CONTINUOUS
 10
177.2625967705
 20
67.993948138
 11
178.8424933823
 21
67.0817356351
  0
LINE
  5
2CA
100
AcDbEntity
  8
ASSI
100
AcDbLine
 62
7
  6
CONTINUOUS
 10
177.2625967705
 20
67.993948138
 11
178.8424933823
 21
67.0817356351
  0
LINE
  5
2CB
100
AcDbEntity
  8
0
100
AcDbLine
 62
7
  6
CONTINUOUS
 10
144.6578542223
 20
85.1613637533
 11
144.6578542223
 21
85.0354986854
  0
LINE
  5
2CC
100
AcDbEntity
  8
ASSI
100
AcDbLine
 62
7
  6
CONTINUOUS
 10
144.6578542223
 20
85.1613637533
 11
144.6578542223
 21
85.0354986854
  0
LWPOLYLINE
  5
2CD
100
AcDbEntity
  8
RACCORDO
100
AcDbPolyline
 62
7
  6
CONTINUOUS
 90
4
 70
0
 10
146.5265429091
 20
81.9522979468
 10
146.525251233
 20
81.8805260014
 10
146.518070824
 20
81.8336814157
 10
146.5147342188
 20
81.8213078414
  0
LWPOLYLINE
  5
2CE
100
AcDbEntity
  8
ASSI
100
AcDbPolyline
 62
7
  6
CONTINUOUS
 90
4
 70
0
 10
146.5265429091
 20
81.9522979468
 10
146.525251233
 20
81.8805260014
 10
146.518070824
 20
81.8336814157
 10
146.5147342188
 20
81.8213078414
  0
LWPOLYLINE
  5
2CF
100
AcDbEntity
  8
RACCORDO
100
AcDbPolyline
 62
7
  6
CONTINUOUS
 90
5
 70
0
 10
146.5265017596
 20
117.9916775671
 10
146.2550801232
 20
108.8452733975
 10
146.1636644828
 20
99.7427776906
 10
146.2549762901
 20
90.757076561
 10
146.5265436799
 20
81.9522982174
  0
LWPOLYLINE
  5
2D0
100
AcDbEntity
  8
ASSI
100
AcDbPolyline
 62
7
  6
CONTINUOUS
 90
5
 70
0
 10
146.5265017596
 20
117.9916775671
 10
146.2550801232
 20
108.8452733975
 10
146.1636644828
 20
99.7427776906
 10
146.2549762901
 20
90.757076561
 10
146.5265436799
 20
81.9522982174
  0
LINE
  5
2D1
100
AcDbEntity
  8
RACCORDO
100
AcDbLine
 62
7
  6
CONTINUOUS
 10
146.5265017596
 20
117.9916775671
 11
146.5265039105
 21
117.9917320672
  0
LINE
  5
2D2
100
AcDbEntity
  8
ASSI
100
AcDbLine
 62
7
  6
CONTINUOUS
 10
146.5265017596
 20
117.9916775671
 11
146.5265039105
 21
117.9917320672
  0
LINE
  5
2D3
100
AcDbEntity
  8
0
100
AcDbLine
 62
250
  6
CONTINUOUS
 10
164.5521767648
 20
107.8313670825
 11
165.0862470932
 21
108.0783089499
  0
LINE
  5
2D4
100
AcDbEntity
  8
ASSI
100
AcDbLine
 62
250
  6
CONTINUOUS
 10
164.5521767648
 20
107.8313670825
 11
165.0862470932
 21
108.0783089499
  0
LWPOLYLINE
  5
2D5
100
AcDbEntity
  8
RACCORDO
100
AcDbPolyline
 62
7
  6
CONTINUOUS
 90
7
 70
0
 10
164.7657119522
 20
108.220754221
 10
164.7654648892
 20
108.2206707878
 10
164.7709325217
 20
108.2213291671
 10
164.7972891085
 20
108.2196818567
 10
164.8442274423
 20
108.2077912495
 10
164.906062531
 20
108.1813633211
 10
164.9348890974
 20
108.1657007749
  0
LWPOLYLINE
  5
2D6
100
AcDbEntity
  8
ASSI
100
AcDbPolyline
 62
7
  6
CONTINUOUS
 90
7
 70
0
 10
164.7657119522
 20
108.220754221
 10
164.7654648892
 20
108.2206707878
 10
164.7709325217
 20
108.2213291671
 10
164.7972891085
 20
108.2196818567
 10
164.8442274423
 20
108.2077912495
 10
164.906062531
 20
108.1813633211
 10
164.9348890974
 20
108.1657007749
  0
LWPOLYLINE
  5
2D7
100
AcDbEntity
  8
0
100
AcDbPolyline
 62
7
  6
CONTINUOUS
 90
7
 70
0
 10
127.0580350251
 20
96.9814298798
 10
126.9673081487
 20
97.0227732023
 10
126.8624921299
 20
97.0496363959
 10
126.7521799683
 20
97.0595521636
 10
126.6416223833
 20
97.0523769388
 10
126.5360983189
 20
97.0282184109
 10
126.447767082
 20
96.9912973973
  0
LWPOLYLINE
  5
2D8
100
AcDbEntity
  8
ASSI
100
AcDbPolyline
 62
7
  6
CONTINUOUS
 90
7
 70
0
 10
127.0580350251
 20
96.9814298798
 10
126.9673081487
 20
97.0227732023
 10
126.8624921299
 20
97.0496363959
 10
126.7521799683
 20
97.0595521636
 10
126.6416223833
 20
97.0523769388
 10
126.5360983189
 20
97.0282184109
 10
126.447767082
 20
96.9912973973
  0
LWPOLYLINE
  5
2D9
100
AcDbEntity
  8
RACCORDO
100
AcDbPolyline
 62
7
  6
CONTINUOUS
 90
3
 70
0
 10
146.5147342188
 20
81.8213078414
 10
146.5105728603
 20
81.8097791696
 10
146.5092381128
 20
81.8069408994
  0
LWPOLYLINE
  5
2DA
100
AcDbEntity
  8
ASSI
100
AcDbPolyline
 62
7
  6
CONTINUOUS
 90
3
 70
0
 10
146.5147342188
 20
81.8213078414
 10
146.5105728603
 20
81.8097791696
 10
146.5092381128
 20
81.8069408994
  0
LINE
  5
2DB
100
AcDbEntity
  8
RACCORDO
100
AcDbLine
 62
7
  6
CONTINUOUS
 10
146.5091437213
 20
81.806776312
 11
146.5092382109
 21
81.8069408431
  0
LINE
  5
2DC
100
AcDbEntity
  8
ASSI
100
AcDbLine
 62
7
  6
CONTINUOUS
 10
146.5091437213
 20
81.806776312
 11
146.5092382109
 21
81.8069408431
  0
LINE
  5
2DD
100
AcDbEntity
  8
0
100
AcDbLine
 62
250
  6
CONTINUOUS
 10
167.7502120396
 20
104.2669593107
 11
166.6034764097
 21
103.6398359209
  0
LINE
  5
2DE
100
AcDbEntity
  8
ASSI
100
AcDbLine
 62
250
  6
CONTINUOUS
 10
167.7502120396
 20
104.2669593107
 11
166.6034764097
 21
103.6398359209
  0
LINE
  5
2DF
100
AcDbEntity
  8
0
100
AcDbLine
 62
250
  6
CONTINUOUS
 10
167.8879160716
 20
104.019970014
 11
166.6034764097
 21
103.3175394504
  0
LINE
  5
2E0
100
AcDbEntity
  8
ASSI
100
AcDbLine
 62
250
  6
CONTINUOUS
 10
167.8879160716
 20
104.019970014
 11
166.6034764097
 21
103.3175394504
  0
LINE
  5
2E1
100
AcDbEntity
  8
0
100
AcDbLine
 62
7
  6
CONTINUOUS
 10
167.1459085809
 20
104.5742961012
 11
166.6034764097
 21
104.3033721991
  0
LINE
  5
2E2
100
AcDbEntity
  8
ASSI
100
AcDbLine
 62
7
  6
CONTINUOUS
 10
167.1459085809
 20
104.5742961012
 11
166.6034764097
 21
104.3033721991
  0
LINE
  5
2E3
100
AcDbEntity
  8
0
100
AcDbLine
 62
250
  6
CONTINUOUS
 10
167.2402097233
 20
104.5614164249
 11
166.6034764097
 21
104.2433927474
  0
LINE
  5
2E4
100
AcDbEntity
  8
ASSI
100
AcDbLine
 62
250
  6
CONTINUOUS
 10
167.2402097233
 20
104.5614164249
 11
166.6034764097
 21
104.2433927474
  0
LINE
  5
2E5
100
AcDbEntity
  8
0
100
AcDbLine
 62
7
  6
CONTINUOUS
 10
116.3988949455
 20
115.6112178659
 11
116.5076000901
 21
115.5484528778
  0
LINE
  5
2E6
100
AcDbEntity
  8
ASSI
100
AcDbLine
 62
7
  6
CONTINUOUS
 10
116.3988949455
 20
115.6112178659
 11
116.5076000901
 21
115.5484528778
  0
LINE
  5
2E7
100
AcDbEntity
  8
0
100
AcDbLine
 62
7
  6
CONTINUOUS
 10
166.6034764097
 20
86.6237217397
 11
166.7121815543
 21
86.5609567516
  0
LINE
  5
2E8
100
AcDbEntity
  8
ASSI
100
AcDbLine
 62
7
  6
CONTINUOUS
 10
166.6034764097
 20
86.6237217397
 11
166.7121815543
 21
86.5609567516
  0
LINE
  5
2E9
100
AcDbEntity
  8
DRAFT
100
AcDbLine
 62
7
  6
CONTINUOUS
 10
216.4545044834
 20
62.8887465809
 11
216.8080578739
 21
62.6846092843
  0
LINE
  5
2EA
100
AcDbEntity
  8
ASSI
100
AcDbLine
 62
7
  6
CONTINUOUS
 10
216.4545044834
 20
62.8887465809
 11
216.8080578739
 21
62.6846092843
  0
LINE
  5
2EB
100
AcDbEntity
  8
0
100
AcDbLine
 62
250
  6
CONTINUOUS
 10
111.0385504549
 20
127.9655206268
 11
110.9545315423
 21
128.0227204286
  0
LWPOLYLINE
  5
2EC
100
AcDbEntity
  8
RACCORDO
100
AcDbPolyline
 62
7
  6
CONTINUOUS
 90
5
 70
0
 10
146.466334174
 20
118.3802680561
 10
146.48729748
 20
118.3079914105
 10
146.5158925185
 20
118.1688426616
 10
146.5268194863
 20
118.0455365732
 10
146.5265031987
 20
117.991732095
  0
LWPOLYLINE
  5
2ED
100
AcDbEntity
  8
ASSI
100
AcDbPolyline
 62
7
  6
CONTINUOUS
 90
5
 70
0
 10
146.466334174
 20
118.3802680561
 10
146.48729748
 20
118.3079914105
 10
146.5158925185
 20
118.1688426616
 10
146.5268194863
 20
118.0455365732
 10
146.5265031987
 20
117.991732095
  0
LWPOLYLINE
  5
2EE
100
AcDbEntity
  8
0
100
AcDbPolyline
 62
7
  6
CONTINUOUS
 90
7
 70
0
 10
167.8516236092
 20
101.6177011727
 10
167.9272090788
 20
101.6752409766
 10
168.0010097413
 20
101.7545004196
 10
168.0626210227
 20
101.8466514299
 10
168.1093058548
 20
101.9471706575
 10
168.1385566357
 20
102.0514286665
 10
168.1482054775
 20
102.1511309291
  0
LWPOLYLINE
  5
2EF
100
AcDbEntity
  8
ASSI
100
AcDbPolyline
 62
7
  6
CONTINUOUS
 90
7
 70
0
 10
167.8516236092
 20
101.6177011727
 10
167.9272090788
 20
101.6752409766
 10
168.0010097413
 20
101.7545004196
 10
168.0626210227
 20
101.8466514299
 10
168.1093058548
 20
101.9471706575
 10
168.1385566357
 20
102.0514286665
 10
168.1482054775
 20
102.1511309291
  0
LINE
  5
2F0
100
AcDbEntity
  8
0
100
AcDbLine
 62
250
  6
CONTINUOUS
 10
146.1341233255
 20
81.8713742569
 11
146.5206336602
 21
82.1439133183
  0
LINE
  5
2F1
100
AcDbEntity
  8
ASSI
100
AcDbLine
 62
250
  6
CONTINUOUS
 10
146.1341233255
 20
81.8713742569
 11
146.5206336602
 21
82.1439133183
  0
LINE
  5
2F2
100
AcDbEntity
  8
0
100
AcDbLine
 62
250
  6
CONTINUOUS
 10
166.6034764097
 20
100.8992134369
 11
167.8879160716
 21
101.7061375664
  0
LINE
  5
2F3
100
AcDbEntity
  8
ASSI
100
AcDbLine
 62
250
  6
CONTINUOUS
 10
166.6034764097
 20
100.8992134369
 11
167.8879160716
 21
101.7061375664
  0
LINE
  5
2F4
100
AcDbEntity
  8
0
100
AcDbLine
 62
7
  6
CONTINUOUS
 10
166.6034764097
 20
100.8335772219
 11
167.8516588986
 21
101.6177234906
  0
LINE
  5
2F5
100
AcDbEntity
  8
ASSI
100
AcDbLine
 62
7
  6
CONTINUOUS
 10
166.6034764097
 20
100.8335772219
 11
167.8516588986
 21
101.6177234906
  0
LINE
  5
2F6
100
AcDbEntity
  8
0
100
AcDbLine
 62
7
  6
CONTINUOUS
 10
144.6578542223
 20
85.1613637533
 11
144.5517391363
 21
85.0967682062
  0
LINE
  5
2F7
100
AcDbEntity
  8
ASSI
100
AcDbLine
 62
7
  6
CONTINUOUS
 10
144.6578542223
 20
85.1613637533
 11
144.5517391363
 21
85.0967682062
  0
LINE
  5
2F8
100
AcDbEntity
  8
0
100
AcDbLine
 62
7
  6
CONTINUOUS
 10
142.3752032148
 20
86.4791529332
 11
142.2615758879
 21
86.4190797633
  0
LINE
  5
2F9
100
AcDbEntity
  8
ASSI
100
AcDbLine
 62
7
  6
CONTINUOUS
 10
142.3752032148
 20
86.4791529332
 11
142.2615758879
 21
86.4190797633
  0
LINE
  5
2FA
100
AcDbEntity
  8
0
100
AcDbLine
 62
250
  6
CONTINUOUS
 10
111.5958667177
 20
130.1166382565
 11
109.6176676151
 21
131.2588256257
  0
LWPOLYLINE
  5
2FB
100
AcDbEntity
  8
0
100
AcDbPolyline
 62
7
  6
CONTINUOUS
 90
7
 70
0
 10
168.1482054825
 20
103.9753559142
 10
168.1476802961
 20
103.9977992912
 10
168.1342040735
 20
104.0863970071
 10
168.1029737063
 20
104.1651458592
 10
168.0552760458
 20
104.2311555269
 10
167.9944852774
 20
104.2808667835
 10
167.9866017086
 20
104.2855803885
  0
LWPOLYLINE
  5
2FC
100
AcDbEntity
  8
ASSI
100
AcDbPolyline
 62
7
  6
CONTINUOUS
 90
7
 70
0
 10
168.1482054825
 20
103.9753559142
 10
168.1476802961
 20
103.9977992912
 10
168.1342040735
 20
104.0863970071
 10
168.1029737063
 20
104.1651458592
 10
168.0552760458
 20
104.2311555269
 10
167.9944852774
 20
104.2808667835
 10
167.9866017086
 20
104.2855803885
  0
LINE
  5
2FD
100
AcDbEntity
  8
0
100
AcDbLine
 62
7
  6
CONTINUOUS
 10
166.6034764097
 20
73.0166525438
 11
166.6034764097
 21
107.2022797579
  0
LINE
  5
2FE
100
AcDbEntity
  8
ASSI
100
AcDbLine
 62
7
  6
CONTINUOUS
 10
166.6034764097
 20
73.0166525438
 11
166.6034764097
 21
107.2022797579
  0
LINE
  5
2FF
100
AcDbEntity
  8
0
100
AcDbLine
 62
7
  6
CONTINUOUS
 10
166.7120214336
 20
86.5608691852
 11
166.7120214336
 21
83.9253557517
  0
LINE
  5
300
100
AcDbEntity
  8
ASSI
100
AcDbLine
 62
7
  6
CONTINUOUS
 10
166.7120214336
 20
86.5608691852
 11
166.7120214336
 21
83.9253557517
  0
LINE
  5
301
100
AcDbEntity
  8
0
100
AcDbLine
 62
250
  6
CONTINUOUS
 10
168.0908581642
 20
102.0701688265
 11
168.0908581642
 21
103.894417531
  0
LINE
  5
302
100
AcDbEntity
  8
ASSI
100
AcDbLine
 62
250
  6
CONTINUOUS
 10
168.0908581642
 20
102.0701688265
 11
168.0908581642
 21
103.894417531
  0
LINE
  5
303
100
AcDbEntity
  8
0
100
AcDbLine
 62
7
  6
CONTINUOUS
 10
168.1482080743
 20
102.1511080714
 11
168.1482080743
 21
103.9753567709
  0
LINE
  5
304
100
AcDbEntity
  8
ASSI
100
AcDbLine
 62
7
  6
CONTINUOUS
 10
168.1482080743
 20
102.1511080714
 11
168.1482080743
 21
103.9753567709
  0
LWPOLYLINE
  5
305
100
AcDbEntity
  8
0
100
AcDbPolyline
 62
7
  6
CONTINUOUS
 90
5
 70
0
 10
167.4829183713
 20
104.5764034533
 10
167.4054283188
 20
104.6080706398
 10
167.3186896109
 20
104.6183952922
 10
167.2261432132
 20
104.6051489153
 10
167.1459666425
 20
104.5743198893
  0
LWPOLYLINE
  5
306
100
AcDbEntity
  8
ASSI
100
AcDbPolyline
 62
7
  6
CONTINUOUS
 90
5
 70
0
 10
167.4829183713
 20
104.5764034533
 10
167.4054283188
 20
104.6080706398
 10
167.3186896109
 20
104.6183952922
 10
167.2261432132
 20
104.6051489153
 10
167.1459666425
 20
104.5743198893
  0
LWPOLYLINE
  5
307
100
AcDbEntity
  8
0
100
AcDbPolyline
 62
7
  6
CONTINUOUS
 90
6
 70
0
 10
117.2783537758
 20
133.5638872154
 10
117.2706158242
 20
133.5682100677
 10
117.1935876721
 20
133.5973558435
 10
117.1084337211
 20
133.605776932
 10
117.0178848318
 20
133.5916273018
 10
116.9413767784
 20
133.5618171719
  0
LWPOLYLINE
  5
308
100
AcDbEntity
  8
ASSI
100
AcDbPolyline
 62
7
  6
CONTINUOUS
 90
6
 70
0
 10
117.2783537758
 20
133.5638872154
 10
117.2706158242
 20
133.5682100677
 10
117.1935876721
 20
133.5973558435
 10
117.1084337211
 20
133.605776932
 10
117.0178848318
 20
133.5916273018
 10
116.9413767784
 20
133.5618171719
  0
LINE
  5
309
100
AcDbEntity
  8
0
100
AcDbLine
 62
250
  6
CONTINUOUS
 10
111.6420807219
 20
131.8836288548
 11
109.6638816193
 21
133.025816224
  0
LINE
  5
30A
100
AcDbEntity
  8
0
100
AcDbLine
 62
250
  6
CONTINUOUS
 10
111.6814338016
 20
133.2115822589
 11
109.703234699
 21
134.3537696281
  0
LINE
  5
30B
100
AcDbEntity
  8
0
100
AcDbLine
 62
250
  6
CONTINUOUS
 10
111.719168474
 20
134.3754467761
 11
109.7409693714
 21
135.5176341453
  0
LINE
  5
30C
100
AcDbEntity
  8
0
100
AcDbLine
 62
250
  6
CONTINUOUS
 10
167.2402097233
 20
104.5614164249
 11
167.7502120396
 21
104.2669593107
  0
LINE
  5
30D
100
AcDbEntity
  8
ASSI
100
AcDbLine
 62
250
  6
CONTINUOUS
 10
167.2402097233
 20
104.5614164249
 11
167.7502120396
 21
104.2669593107
  0
LINE
  5
30E
100
AcDbEntity
  8
0
100
AcDbLine
 62
250
  6
CONTINUOUS
 10
117.0356392769
 20
133.5489180542
 11
117.5456305753
 21
133.2544554369
  0
LINE
  5
30F
100
AcDbEntity
  8
ASSI
100
AcDbLine
 62
250
  6
CONTINUOUS
 10
117.0356392769
 20
133.5489180542
 11
117.5456305753
 21
133.2544554369
  0
LINE
  5
310
100
AcDbEntity
  8
0
100
AcDbLine
 62
7
  6
CONTINUOUS
 10
117.2782813767
 20
133.5639322207
 11
117.7820488022
 21
133.2730632229
  0
LINE
  5
311
100
AcDbEntity
  8
ASSI
100
AcDbLine
 62
7
  6
CONTINUOUS
 10
117.2782813767
 20
133.5639322207
 11
117.7820488022
 21
133.2730632229
  0
LINE
  5
312
100
AcDbEntity
  8
0
100
AcDbLine
 62
7
  6
CONTINUOUS
 10
167.4828630499
 20
104.5764359738
 11
167.9866302665
 21
104.2855670966
  0
LINE
  5
313
100
AcDbEntity
  8
ASSI
100
AcDbLine
 62
7
  6
CONTINUOUS
 10
167.4828630499
 20
104.5764359738
 11
167.9866302665
 21
104.2855670966
  0
LINE
  5
314
100
AcDbEntity
  8
0
100
AcDbLine
 62
7
  6
CONTINUOUS
 10
117.7820487037
 20
133.2730632797
 11
117.7820143272
 21
133.2730831228
  0
LINE
  5
315
100
AcDbEntity
  8
ASSI
100
AcDbLine
 62
7
  6
CONTINUOUS
 10
117.7820487037
 20
133.2730632797
 11
117.7820143272
 21
133.2730831228
  0
LINE
  5
316
100
AcDbEntity
  8
0
100
AcDbLine
 62
250
  6
CONTINUOUS
 10
110.2340185501
 20
138.1272127682
 11
111.4350677022
 21
137.4337420404
  0
LINE
  5
317
100
AcDbEntity
  8
0
100
AcDbLine
 62
250
  6
CONTINUOUS
 10
110.3080165269
 20
138.1699303884
 11
111.3677659451
 21
137.558044356
  0
LINE
  5
318
100
AcDbEntity
  8
0
100
AcDbLine
 62
250
  6
CONTINUOUS
 10
110.382030277
 20
138.2126579323
 11
111.3004799614
 21
137.6823565955
  0
LINE
  5
319
100
AcDbEntity
  8
0
100
AcDbLine
 62
250
  6
CONTINUOUS
 10
109.4609973743
 20
139.5572406223
 11
110.2734722583
 21
139.088127807
  0
LINE
  5
31A
100
AcDbEntity
  8
0
100
AcDbLine
 62
250
  6
CONTINUOUS
 10
111.4745214104
 20
138.3946570792
 11
112.2869962944
 21
137.9255442639
  0
LINE
  5
31B
100
AcDbEntity
  8
0
100
AcDbLine
 62
250
  6
CONTINUOUS
 10
109.5351763873
 20
139.6000627705
 11
110.3476512713
 21
139.1309499552
  0
LINE
  5
31C
100
AcDbEntity
  8
0
100
AcDbLine
 62
250
  6
CONTINUOUS
 10
111.4074006895
 20
138.5190639229
 11
112.2198755735
 21
138.0499511076
  0
LINE
  5
31D
100
AcDbEntity
  8
0
100
AcDbLine
 62
250
  6
CONTINUOUS
 10
109.6093718529
 20
139.6428936017
 11
110.4218460298
 21
139.1737811947
  0
LINE
  5
31E
100
AcDbEntity
  8
0
100
AcDbLine
 62
250
  6
CONTINUOUS
 10
111.3402957142
 20
138.6434798578
 11
112.1527698911
 21
138.1743674508
  0
LINE
  5
31F
100
AcDbEntity
  8
RACCORDO
100
AcDbLine
 62
250
  6
CONTINUOUS
 10
163.9898228119
 20
108.301887483
 11
146.5897130095
 21
118.3484928083
  0
LINE
  5
320
100
AcDbEntity
  8
ASSI
100
AcDbLine
 62
250
  6
CONTINUOUS
 10
163.9898228119
 20
108.301887483
 11
146.5897130095
 21
118.3484928083
  0
LINE
  5
321
100
AcDbEntity
  8
RACCORDO
100
AcDbLine
 62
250
  6
CONTINUOUS
 10
211.8178406303
 20
80.6865399882
 11
196.7942944737
 21
89.360996682
  0
LINE
  5
322
100
AcDbEntity
  8
ASSI
100
AcDbLine
 62
250
  6
CONTINUOUS
 10
211.8178406303
 20
80.6865399882
 11
196.7942944737
 21
89.360996682
  0
LINE
  5
323
100
AcDbEntity
  8
RACCORDO
100
AcDbLine
 62
250
  6
CONTINUOUS
 10
113.7852413477
 20
137.2893836092
 11
98.7616910849
 21
145.9637439361
  0
LINE
  5
324
100
AcDbEntity
  8
ASSI
100
AcDbLine
 62
250
  6
CONTINUOUS
 10
113.7852413477
 20
137.2893836092
 11
98.7616910849
 21
145.9637439361
  0
LINE
  5
325
100
AcDbEntity
  8
RACCORDO
100
AcDbLine
 62
7
  6
CONTINUOUS
 10
196.1071771015
 20
90.1672127467
 11
196.1072167381
 21
90.1671898682
  0
LINE
  5
326
100
AcDbEntity
  8
ASSI
100
AcDbLine
 62
7
  6
CONTINUOUS
 10
196.1071771015
 20
90.1672127467
 11
196.1072167381
 21
90.1671898682
  0
LINE
  5
327
100
AcDbEntity
  8
RACCORDO
100
AcDbLine
 62
7
  6
CONTINUOUS
 10
114.7303859114
 20
137.1531520891
 11
145.9025956373
 21
119.1547088729
  0
LINE
  5
328
100
AcDbEntity
  8
ASSI
100
AcDbLine
 62
7
  6
CONTINUOUS
 10
114.7303859114
 20
137.1531520891
 11
145.9025956373
 21
119.1547088729
  0
LINE
  5
329
100
AcDbEntity
  8
RACCORDO
100
AcDbLine
 62
7
  6
CONTINUOUS
 10
164.9349673756
 20
108.1656559629
 11
196.1071771015
 21
90.1672127467
  0
LINE
  5
32A
100
AcDbEntity
  8
ASSI
100
AcDbLine
 62
7
  6
CONTINUOUS
 10
164.9349673756
 20
108.1656559629
 11
196.1071771015
 21
90.1672127467
  0
LINE
  5
32B
100
AcDbEntity
  8
RACCORDO
100
AcDbLine
 62
250
  6
CONTINUOUS
 10
114.6273710793
 20
137.404594821
 11
145.7995808072
 21
119.4061516036
  0
LINE
  5
32C
100
AcDbEntity
  8
ASSI
100
AcDbLine
 62
250
  6
CONTINUOUS
 10
114.6273710793
 20
137.404594821
 11
145.7995808072
 21
119.4061516036
  0
LINE
  5
32D
100
AcDbEntity
  8
RACCORDO
100
AcDbLine
 62
250
  6
CONTINUOUS
 10
164.8319525435
 20
108.4170986947
 11
196.0041622715
 21
90.4186554773
  0
LINE
  5
32E
100
AcDbEntity
  8
ASSI
100
AcDbLine
 62
250
  6
CONTINUOUS
 10
164.8319525435
 20
108.4170986947
 11
196.0041622715
 21
90.4186554773
  0
LWPOLYLINE
  5
32F
100
AcDbEntity
  8
RACCORDO
100
AcDbPolyline
 62
7
  6
CONTINUOUS
 90
9
 70
0
 10
145.9026344074
 20
119.1546844914
 10
145.9375954925
 20
119.1331107546
 10
146.0263640701
 20
119.066298654
 10
146.1204225252
 20
118.9765972654
 10
146.2137441249
 20
118.866255713
 10
146.3009488711
 20
118.7391761139
 10
146.3775955419
 20
118.6003416155
 10
146.4402711743
 20
118.4554250198
 10
146.4663297053
 20
118.3802821984
  0
LWPOLYLINE
  5
330
100
AcDbEntity
  8
ASSI
100
AcDbPolyline
 62
7
  6
CONTINUOUS
 90
9
 70
0
 10
145.9026344074
 20
119.1546844914
 10
145.9375954925
 20
119.1331107546
 10
146.0263640701
 20
119.066298654
 10
146.1204225252
 20
118.9765972654
 10
146.2137441249
 20
118.866255713
 10
146.3009488711
 20
118.7391761139
 10
146.3775955419
 20
118.6003416155
 10
146.4402711743
 20
118.4554250198
 10
146.4663297053
 20
118.3802821984
  0
LINE
  5
331
100
AcDbEntity
  8
0
100
AcDbLine
 62
7
  6
CONTINUOUS
 10
166.7121815543
 20
83.9254563444
 11
166.6034764097
 21
83.8571644606
  0
LINE
  5
332
100
AcDbEntity
  8
ASSI
100
AcDbLine
 62
7
  6
CONTINUOUS
 10
166.7121815543
 20
83.9254563444
 11
166.6034764097
 21
83.8571644606
  0
LINE
  5
333
100
AcDbEntity
  8
0
100
AcDbLine
 62
7
  6
CONTINUOUS
 10
166.7120214336
 20
86.5608691852
 11
166.6034764097
 21
86.5015084036
  0
LINE
  5
334
100
AcDbEntity
  8
ASSI
100
AcDbLine
 62
7
  6
CONTINUOUS
 10
166.7120214336
 20
86.5608691852
 11
166.6034764097
 21
86.5015084036
  0
LINE
  5
335
100
AcDbEntity
  8
0
100
AcDbLine
 62
250
  6
CONTINUOUS
 10
112.2023070661
 20
139.2634697738
 11
111.3898328893
 21
139.7325821808
  0
LINE
  5
336
100
AcDbEntity
  8
0
100
AcDbLine
 62
250
  6
CONTINUOUS
 10
110.4713832049
 20
140.2628835177
 11
109.658909028
 21
140.7319959248
  0
LINE
  5
337
100
AcDbEntity
  8
0
100
AcDbLine
 62
250
  6
CONTINUOUS
 10
112.2770642046
 20
139.3066249079
 11
111.4645893206
 21
139.7757377232
  0
LINE
  5
338
100
AcDbEntity
  8
0
100
AcDbLine
 62
250
  6
CONTINUOUS
 10
110.4048399024
 20
140.3876237555
 11
109.5923650184
 21
140.8567365708
  0
LINE
  5
339
100
AcDbEntity
  8
0
100
AcDbLine
 62
250
  6
CONTINUOUS
 10
112.3518630115
 20
139.3498049174
 11
111.5393881276
 21
139.8189177327
  0
LINE
  5
33A
100
AcDbEntity
  8
0
100
AcDbLine
 62
250
  6
CONTINUOUS
 10
110.3383389754
 20
140.5123884604
 11
109.5258640915
 21
140.9815012757
  0
LINE
  5
33B
100
AcDbEntity
  8
0
100
AcDbLine
 62
250
  6
CONTINUOUS
 10
111.4396177252
 20
140.6994614668
 11
110.5211680408
 21
141.2297628037
  0
LINE
  5
33C
100
AcDbEntity
  8
0
100
AcDbLine
 62
250
  6
CONTINUOUS
 10
111.5148618009
 20
140.7428993854
 11
110.4551123827
 21
141.3547854177
  0
LINE
  5
33D
100
AcDbEntity
  8
0
100
AcDbLine
 62
250
  6
CONTINUOUS
 10
111.5901482606
 20
140.7863609595
 11
110.3890991085
 21
141.4798316872
  0
LWPOLYLINE
  5
33E
100
AcDbEntity
  8
RACCORDO
100
AcDbPolyline
 62
7
  6
CONTINUOUS
 90
9
 70
0
 10
196.1072158717
 20
90.1671883651
 10
196.1421769567
 20
90.1456146283
 10
196.2309455343
 20
90.0788025277
 10
196.3250039894
 20
89.9891011391
 10
196.4183255892
 20
89.8787595867
 10
196.5055303353
 20
89.7516799876
 10
196.5821770062
 20
89.6128454893
 10
196.6448526386
 20
89.4679288935
 10
196.6709111695
 20
89.3927860721
  0
LWPOLYLINE
  5
33F
100
AcDbEntity
  8
ASSI
100
AcDbPolyline
 62
7
  6
CONTINUOUS
 90
9
 70
0
 10
196.1072158717
 20
90.1671883651
 10
196.1421769567
 20
90.1456146283
 10
196.2309455343
 20
90.0788025277
 10
196.3250039894
 20
89.9891011391
 10
196.4183255892
 20
89.8787595867
 10
196.5055303353
 20
89.7516799876
 10
196.5821770062
 20
89.6128454893
 10
196.6448526386
 20
89.4679288935
 10
196.6709111695
 20
89.3927860721
  0
LWPOLYLINE
  5
340
100
AcDbEntity
  8
0
100
AcDbPolyline
 62
7
  6
CONTINUOUS
 90
6
 70
0
 10
179.0303560179
 20
66.7867441591
 10
179.0196370024
 20
66.8660918278
 10
178.9874685263
 20
66.9422474455
 10
178.9351144897
 20
67.0105843828
 10
178.864100193
 20
67.0684812614
 10
178.8424935652
 20
67.0817309923
  0
LWPOLYLINE
  5
341
100
AcDbEntity
  8
ASSI
100
AcDbPolyline
 62
7
  6
CONTINUOUS
 90
6
 70
0
 10
179.0303560179
 20
66.7867441591
 10
179.0196370024
 20
66.8660918278
 10
178.9874685263
 20
66.9422474455
 10
178.9351144897
 20
67.0105843828
 10
178.864100193
 20
67.0684812614
 10
178.8424935652
 20
67.0817309923
  0
LINE
  5
342
100
AcDbEntity
  8
0
100
AcDbLine
 62
250
  6
CONTINUOUS
 10
178.8960333735
 20
66.5912252778
 11
178.8960333735
 21
66.0023564518
  0
LINE
  5
343
100
AcDbEntity
  8
ASSI
100
AcDbLine
 62
250
  6
CONTINUOUS
 10
178.8960333735
 20
66.5912252778
 11
178.8960333735
 21
66.0023564518
  0
LINE
  5
344
100
AcDbEntity
  8
0
100
AcDbLine
 62
7
  6
CONTINUOUS
 10
179.0303565163
 20
66.7867230414
 11
179.0303565227
 21
66.2049951307
  0
LINE
  5
345
100
AcDbEntity
  8
ASSI
100
AcDbLine
 62
7
  6
CONTINUOUS
 10
179.0303565163
 20
66.7867230414
 11
179.0303565227
 21
66.2049951307
  0
LINE
  5
346
100
AcDbEntity
  8
RACCORDO
100
AcDbLine
 62
250
  6
CONTINUOUS
 10
213.433378809
 20
100.2134678644
 11
215.1826813425
 21
101.2234835021
  0
LINE
  5
347
100
AcDbEntity
  8
ASSI
100
AcDbLine
 62
250
  6
CONTINUOUS
 10
213.433378809
 20
100.2134678644
 11
215.1826813425
 21
101.2234835021
  0
LINE
  5
348
100
AcDbEntity
  8
0
100
AcDbLine
 62
250
  6
CONTINUOUS
 10
164.5521773539
 20
71.8322416213
 11
166.6034764097
 21
73.0166525438
  0
LINE
  5
349
100
AcDbEntity
  8
ASSI
100
AcDbLine
 62
250
  6
CONTINUOUS
 10
164.5521773539
 20
71.8322416213
 11
166.6034764097
 21
73.0166525438
  0
LINE
  5
34A
100
AcDbEntity
  8
0
100
AcDbLine
 62
250
  6
CONTINUOUS
 10
165.1664715826
 20
70.8823349046
 11
167.1683865824
 21
72.0381994239
  0
LINE
  5
34B
100
AcDbEntity
  8
ASSI
100
AcDbLine
 62
250
  6
CONTINUOUS
 10
165.1664715826
 20
70.8823349046
 11
167.1683865824
 21
72.0381994239
  0
LINE
  5
34C
100
AcDbEntity
  8
RACCORDO
100
AcDbLine
 62
250
  6
CONTINUOUS
 10
214.0437145313
 20
98.9350871266
 11
215.8888190584
 21
100.0004171023
  0
LINE
  5
34D
100
AcDbEntity
  8
ASSI
100
AcDbLine
 62
250
  6
CONTINUOUS
 10
214.0437145313
 20
98.9350871266
 11
215.8888190584
 21
100.0004171023
  0
LINE
  5
34E
100
AcDbEntity
  8
RACCORDO
100
AcDbLine
 62
250
  6
CONTINUOUS
 10
213.2358743026
 20
99.8992956702
 11
100.978181421
 21
164.7154806207
  0
LINE
  5
34F
100
AcDbEntity
  8
ASSI
100
AcDbLine
 62
250
  6
CONTINUOUS
 10
213.2358743026
 20
99.8992956702
 11
100.978181421
 21
164.7154806207
  0
LINE
  5
350
100
AcDbEntity
  8
RACCORDO
100
AcDbLine
 62
250
  6
CONTINUOUS
 10
213.433378809
 20
100.2134678644
 11
101.1756859275
 21
165.0296528149
  0
LINE
  5
351
100
AcDbEntity
  8
ASSI
100
AcDbLine
 62
250
  6
CONTINUOUS
 10
213.433378809
 20
100.2134678644
 11
101.1756859275
 21
165.0296528149
  0
LINE
  5
352
100
AcDbEntity
  8
RACCORDO
100
AcDbLine
 62
7
  6
CONTINUOUS
 10
102.7507650033
 20
166.1402628935
 11
215.1826813425
 21
101.2234835021
  0
LINE
  5
353
100
AcDbEntity
  8
ASSI
100
AcDbLine
 62
7
  6
CONTINUOUS
 10
102.7507650033
 20
166.1402628935
 11
215.1826813425
 21
101.2234835021
  0
LINE
  5
354
100
AcDbEntity
  8
RACCORDO
100
AcDbLine
 62
7
  6
CONTINUOUS
 10
105.3700969246
 20
165.6895257482
 11
216.5231475955
 21
101.5111473421
  0
LINE
  5
355
100
AcDbEntity
  8
ASSI
100
AcDbLine
 62
7
  6
CONTINUOUS
 10
105.3700969246
 20
165.6895257482
 11
216.5231475955
 21
101.5111473421
  0
LINE
  5
356
100
AcDbEntity
  8
0
100
AcDbLine
 62
7
  6
CONTINUOUS
 10
194.8624356866
 20
56.173867627
 11
194.8624356866
 21
56.0480025592
  0
LINE
  5
357
100
AcDbEntity
  8
ASSI
100
AcDbLine
 62
7
  6
CONTINUOUS
 10
194.8624356866
 20
56.173867627
 11
194.8624356866
 21
56.0480025592
  0
LWPOLYLINE
  5
358
100
AcDbEntity
  8
RACCORDO
100
AcDbPolyline
 62
7
  6
CONTINUOUS
 90
5
 70
0
 10
196.7310832239
 20
89.0041814408
 10
196.4596615874
 20
79.8577772713
 10
196.368245947
 20
70.7552815643
 10
196.4595577543
 20
61.7695804347
 10
196.7311251441
 20
52.9648020912
  0
LWPOLYLINE
  5
359
100
AcDbEntity
  8
ASSI
100
AcDbPolyline
 62
7
  6
CONTINUOUS
 90
5
 70
0
 10
196.7310832239
 20
89.0041814408
 10
196.4596615874
 20
79.8577772713
 10
196.368245947
 20
70.7552815643
 10
196.4595577543
 20
61.7695804347
 10
196.7311251441
 20
52.9648020912
  0
LINE
  5
35A
100
AcDbEntity
  8
RACCORDO
100
AcDbLine
 62
7
  6
CONTINUOUS
 10
196.7310832239
 20
89.0041814408
 11
196.7310853747
 21
89.0042359409
  0
LINE
  5
35B
100
AcDbEntity
  8
ASSI
100
AcDbLine
 62
7
  6
CONTINUOUS
 10
196.7310832239
 20
89.0041814408
 11
196.7310853747
 21
89.0042359409
  0
LWPOLYLINE
  5
35C
100
AcDbEntity
  8
0
100
AcDbPolyline
 62
7
  6
CONTINUOUS
 90
5
 70
0
 10
178.860095832
 20
65.9143044712
 10
178.9260732606
 20
65.9675319676
 10
178.9841875406
 20
66.0411352797
 10
179.018868687
 20
66.1215226035
 10
179.0303560189
 20
66.2050651211
  0
LWPOLYLINE
  5
35D
100
AcDbEntity
  8
ASSI
100
AcDbPolyline
 62
7
  6
CONTINUOUS
 90
5
 70
0
 10
178.860095832
 20
65.9143044712
 10
178.9260732606
 20
65.9675319676
 10
178.9841875406
 20
66.0411352797
 10
179.018868687
 20
66.1215226035
 10
179.0303560189
 20
66.2050651211
  0
LINE
  5
35E
100
AcDbEntity
  8
0
100
AcDbLine
 62
250
  6
CONTINUOUS
 10
178.3020502794
 20
65.6097615429
 11
178.8960333735
 21
66.0023564518
  0
LINE
  5
35F
100
AcDbEntity
  8
ASSI
100
AcDbLine
 62
250
  6
CONTINUOUS
 10
178.3020502794
 20
65.6097615429
 11
178.8960333735
 21
66.0023564518
  0
LINE
  5
360
100
AcDbEntity
  8
0
100
AcDbLine
 62
7
  6
CONTINUOUS
 10
178.3539782846
 20
65.5797789635
 11
178.8600418031
 21
65.914263165
  0
LINE
  5
361
100
AcDbEntity
  8
ASSI
100
AcDbLine
 62
7
  6
CONTINUOUS
 10
178.3539782846
 20
65.5797789635
 11
178.8600418031
 21
65.914263165
  0
LINE
  5
362
100
AcDbEntity
  8
0
100
AcDbLine
 62
250
  6
CONTINUOUS
 10
178.7509967517
 20
66.8339811411
 11
177.5003327994
 21
66.0726631679
  0
LINE
  5
363
100
AcDbEntity
  8
ASSI
100
AcDbLine
 62
250
  6
CONTINUOUS
 10
178.7509967517
 20
66.8339811411
 11
177.5003327994
 21
66.0726631679
  0
LINE
  5
364
100
AcDbEntity
  8
0
100
AcDbLine
 62
250
  6
CONTINUOUS
 10
178.8960333735
 20
66.5912252778
 11
177.7794315188
 21
65.9115150653
  0
LINE
  5
365
100
AcDbEntity
  8
ASSI
100
AcDbLine
 62
250
  6
CONTINUOUS
 10
178.8960333735
 20
66.5912252778
 11
177.7794315188
 21
65.9115150653
  0
LINE
  5
366
100
AcDbEntity
  8
0
100
AcDbLine
 62
7
  6
CONTINUOUS
 10
175.3490693315
 20
67.3147757326
 11
176.6523830988
 21
68.0038193946
  0
LINE
  5
367
100
AcDbEntity
  8
ASSI
100
AcDbLine
 62
7
  6
CONTINUOUS
 10
175.3490693315
 20
67.3147757326
 11
176.6523830988
 21
68.0038193946
  0
LINE
  5
368
100
AcDbEntity
  8
0
100
AcDbLine
 62
250
  6
CONTINUOUS
 10
175.4059216254
 20
67.2819499307
 11
176.7470945145
 21
67.991009178
  0
LINE
  5
369
100
AcDbEntity
  8
ASSI
100
AcDbLine
 62
250
  6
CONTINUOUS
 10
175.4059216254
 20
67.2819499307
 11
176.7470945145
 21
67.991009178
  0
LINE
  5
36A
100
AcDbEntity
  8
RACCORDO
100
AcDbLine
 62
7
  6
CONTINUOUS
 10
105.3152686527
 20
165.7162797598
 11
105.3700969246
 21
165.6895257482
  0
LINE
  5
36B
100
AcDbEntity
  8
ASSI
100
AcDbLine
 62
7
  6
CONTINUOUS
 10
105.3152686527
 20
165.7162797598
 11
105.3700969246
 21
165.6895257482
  0
LWPOLYLINE
  5
36C
100
AcDbEntity
  8
RACCORDO
100
AcDbPolyline
 62
7
  6
CONTINUOUS
 90
5
 70
0
 10
196.6709156382
 20
89.3927719299
 10
196.6918789442
 20
89.3204952842
 10
196.7204739827
 20
89.1813465353
 10
196.7314009506
 20
89.0580404469
 10
196.731084663
 20
89.0042359688
  0
LWPOLYLINE
  5
36D
100
AcDbEntity
  8
ASSI
100
AcDbPolyline
 62
7
  6
CONTINUOUS
 90
5
 70
0
 10
196.6709156382
 20
89.3927719299
 10
196.6918789442
 20
89.3204952842
 10
196.7204739827
 20
89.1813465353
 10
196.7314009506
 20
89.0580404469
 10
196.731084663
 20
89.0042359688
  0
LWPOLYLINE
  5
36E
100
AcDbEntity
  8
RACCORDO
100
AcDbPolyline
 62
7
  6
CONTINUOUS
 90
4
 70
0
 10
196.7311243733
 20
52.9648018205
 10
196.7298326972
 20
52.8930298751
 10
196.7226522882
 20
52.8461852895
 10
196.7193156831
 20
52.8338117151
  0
LWPOLYLINE
  5
36F
100
AcDbEntity
  8
ASSI
100
AcDbPolyline
 62
7
  6
CONTINUOUS
 90
4
 70
0
 10
196.7311243733
 20
52.9648018205
 10
196.7298326972
 20
52.8930298751
 10
196.7226522882
 20
52.8461852895
 10
196.7193156831
 20
52.8338117151
  0
LWPOLYLINE
  5
370
100
AcDbEntity
  8
RACCORDO
100
AcDbPolyline
 62
7
  6
CONTINUOUS
 90
3
 70
0
 10
196.7193156831
 20
52.8338117151
 10
196.7151543245
 20
52.8222830433
 10
196.7138195771
 20
52.8194447731
  0
LWPOLYLINE
  5
371
100
AcDbEntity
  8
ASSI
100
AcDbPolyline
 62
7
  6
CONTINUOUS
 90
3
 70
0
 10
196.7193156831
 20
52.8338117151
 10
196.7151543245
 20
52.8222830433
 10
196.7138195771
 20
52.8194447731
  0
LINE
  5
372
100
AcDbEntity
  8
0
100
AcDbLine
 62
7
  6
CONTINUOUS
 10
192.579784679
 20
57.4916568069
 11
192.4661573522
 21
57.431583637
  0
LINE
  5
373
100
AcDbEntity
  8
ASSI
100
AcDbLine
 62
7
  6
CONTINUOUS
 10
192.579784679
 20
57.4916568069
 11
192.4661573522
 21
57.431583637
  0
LINE
  5
374
100
AcDbEntity
  8
DRAFT
100
AcDbLine
 62
7
  6
CONTINUOUS
 10
216.0268746769
 20
62.7358812627
 11
216.4545044834
 21
62.8887465809
  0
LINE
  5
375
100
AcDbEntity
  8
ASSI
100
AcDbLine
 62
7
  6
CONTINUOUS
 10
216.0268746769
 20
62.7358812627
 11
216.4545044834
 21
62.8887465809
  0
LWPOLYLINE
  5
376
100
AcDbEntity
  8
RACCORDO
100
AcDbPolyline
 62
7
  6
CONTINUOUS
 90
4
 70
0
 10
105.3152666499
 20
165.7162955286
 10
104.8182529738
 20
165.8828642373
 10
104.2618257363
 20
165.9979128396
 10
103.8211514616
 20
166.0313301564
  0
LWPOLYLINE
  5
377
100
AcDbEntity
  8
ASSI
100
AcDbPolyline
 62
7
  6
CONTINUOUS
 90
4
 70
0
 10
105.3152666499
 20
165.7162955286
 10
104.8182529738
 20
165.8828642373
 10
104.2618257363
 20
165.9979128396
 10
103.8211514616
 20
166.0313301564
  0
LINE
  5
378
100
AcDbEntity
  8
RACCORDO
100
AcDbLine
 62
7
  6
CONTINUOUS
 10
215.8888190584
 20
28.1487948562
 11
215.8888190584
 21
100.0004171023
  0
LINE
  5
379
100
AcDbEntity
  8
ASSI
100
AcDbLine
 62
7
  6
CONTINUOUS
 10
215.8888190584
 20
28.1487948562
 11
215.8888190584
 21
100.0004171023
  0
LINE
  5
37A
100
AcDbEntity
  8
DRAFT
100
AcDbLine
 62
7
  6
CONTINUOUS
 10
216.0268746769
 20
67.5057797135
 11
216.0268746769
 21
61.7904877759
  0
LINE
  5
37B
100
AcDbEntity
  8
ASSI
100
AcDbLine
 62
7
  6
CONTINUOUS
 10
216.0268746769
 20
67.5057797135
 11
216.0268746769
 21
61.7904877759
  0
LINE
  5
37C
100
AcDbEntity
  8
DRAFT
100
AcDbLine
 62
7
  6
CONTINUOUS
 10
216.8080578486
 20
101.0176681018
 11
216.8080578739
 21
68.9757641768
  0
LINE
  5
37D
100
AcDbEntity
  8
ASSI
100
AcDbLine
 62
7
  6
CONTINUOUS
 10
216.8080578486
 20
101.0176681018
 11
216.8080578739
 21
68.9757641768
  0
LINE
  5
37E
100
AcDbEntity
  8
DRAFT
100
AcDbLine
 62
7
  6
CONTINUOUS
 10
216.8080578739
 20
62.6846092843
 11
216.8080578625
 21
30.6427055474
  0
LINE
  5
37F
100
AcDbEntity
  8
ASSI
100
AcDbLine
 62
7
  6
CONTINUOUS
 10
216.8080578739
 20
62.6846092843
 11
216.8080578625
 21
30.6427055474
  0
LINE
  5
380
100
AcDbEntity
  8
RACCORDO
100
AcDbLine
 62
7
  6
CONTINUOUS
 10
196.7137251856
 20
52.8192801857
 11
196.7138196751
 21
52.8194447168
  0
LINE
  5
381
100
AcDbEntity
  8
ASSI
100
AcDbLine
 62
7
  6
CONTINUOUS
 10
196.7137251856
 20
52.8192801857
 11
196.7138196751
 21
52.8194447168
  0
LINE
  5
382
100
AcDbEntity
  8
0
100
AcDbLine
 62
250
  6
CONTINUOUS
 10
196.3387047897
 20
52.8838781307
 11
196.7252151245
 21
53.156417192
  0
LINE
  5
383
100
AcDbEntity
  8
ASSI
100
AcDbLine
 62
250
  6
CONTINUOUS
 10
196.3387047897
 20
52.8838781307
 11
196.7252151245
 21
53.156417192
  0
LINE
  5
384
100
AcDbEntity
  8
0
100
AcDbLine
 62
7
  6
CONTINUOUS
 10
194.8624356866
 20
56.173867627
 11
194.7563206005
 21
56.1092720799
  0
LINE
  5
385
100
AcDbEntity
  8
ASSI
100
AcDbLine
 62
7
  6
CONTINUOUS
 10
194.8624356866
 20
56.173867627
 11
194.7563206005
 21
56.1092720799
  0
LINE
  5
386
100
AcDbEntity
  8
RACCORDO
100
AcDbLine
 62
7
  6
CONTINUOUS
 10
216.8080578625
 20
30.6427055474
 11
216.8037343308
 21
30.5819321319
  0
LINE
  5
387
100
AcDbEntity
  8
ASSI
100
AcDbLine
 62
7
  6
CONTINUOUS
 10
216.8080578625
 20
30.6427055474
 11
216.8037343308
 21
30.5819321319
  0
LWPOLYLINE
  5
388
100
AcDbEntity
  8
RACCORDO
100
AcDbPolyline
 62
7
  6
CONTINUOUS
 90
4
 70
0
 10
103.8211174925
 20
166.03133034
 10
103.493007188
 20
166.0198510095
 10
103.1201025189
 20
165.9648830405
 10
103.0758638568
 20
165.9525548899
  0
LWPOLYLINE
  5
389
100
AcDbEntity
  8
ASSI
100
AcDbPolyline
 62
7
  6
CONTINUOUS
 90
4
 70
0
 10
103.8211174925
 20
166.03133034
 10
103.493007188
 20
166.0198510095
 10
103.1201025189
 20
165.9648830405
 10
103.0758638568
 20
165.9525548899
  0
LWPOLYLINE
  5
38A
100
AcDbEntity
  8
RACCORDO
100
AcDbPolyline
 62
7
  6
CONTINUOUS
 90
4
 70
0
 10
216.329621123
 20
29.1303309016
 10
216.5233427558
 20
29.5343985858
 10
216.7011397101
 20
30.0741332428
 10
216.8038275463
 20
30.5818617294
  0
LWPOLYLINE
  5
38B
100
AcDbEntity
  8
ASSI
100
AcDbPolyline
 62
7
  6
CONTINUOUS
 90
4
 70
0
 10
216.329621123
 20
29.1303309016
 10
216.5233427558
 20
29.5343985858
 10
216.7011397101
 20
30.0741332428
 10
216.8038275463
 20
30.5818617294
  0
LWPOLYLINE
  5
38C
100
AcDbEntity
  8
RACCORDO
100
AcDbPolyline
 62
7
  6
CONTINUOUS
 90
4
 70
0
 10
215.8888190584
 20
28.5247055486
 10
215.9258197257
 20
28.5611376178
 10
216.1591845362
 20
28.8570021588
 10
216.3296035386
 20
29.1303002841
  0
LWPOLYLINE
  5
38D
100
AcDbEntity
  8
ASSI
100
AcDbPolyline
 62
7
  6
CONTINUOUS
 90
4
 70
0
 10
215.8888190584
 20
28.5247055486
 10
215.9258197257
 20
28.5611376178
 10
216.1591845362
 20
28.8570021588
 10
216.3296035386
 20
29.1303002841
  0
LINE
  5
38E
100
AcDbEntity
  8
RACCORDO
100
AcDbLine
 62
250
  6
CONTINUOUS
 10
214.0437145313
 20
27.2956515298
 11
215.8888190584
 21
28.1487948562
  0
LINE
  5
38F
100
AcDbEntity
  8
ASSI
100
AcDbLine
 62
250
  6
CONTINUOUS
 10
214.0437145313
 20
27.2956515298
 11
215.8888190584
 21
28.1487948562
  0
LINE
  5
390
100
AcDbEntity
  8
RACCORDO
100
AcDbLine
 62
7
  6
CONTINUOUS
 10
213.8764434895
 20
26.8550602676
 11
215.655359904
 21
27.6775993948
  0
LINE
  5
391
100
AcDbEntity
  8
ASSI
100
AcDbLine
 62
7
  6
CONTINUOUS
 10
213.8764434895
 20
26.8550602676
 11
215.655359904
 21
27.6775993948
  0
ARC
  5
392
100
AcDbEntity
  8
RACCORDO
100
AcDbCircle
 62
250
  6
CONTINUOUS
 10
211.9169622032
 20
31.3762323067
 40
4.9457939896
100
AcDbArc
 50
350.7646391757
 51
351.4708124397
  0
ARC
  5
393
100
AcDbEntity
  8
ASSI
100
AcDbCircle
 62
250
  6
CONTINUOUS
 10
211.9169622032
 20
31.3762323067
 40
4.9457939896
100
AcDbArc
 50
350.7646391757
 51
351.4708124397
  0
ARC
  5
394
100
AcDbEntity
  8
RACCORDO
100
AcDbCircle
 62
250
  6
CONTINUOUS
 10
103.5616610462
 20
161.0913778191
 40
4.9409922629
100
AcDbArc
 50
68.5304511457
 51
69.2378845205
  0
ARC
  5
395
100
AcDbEntity
  8
ASSI
100
AcDbCircle
 62
250
  6
CONTINUOUS
 10
103.5616627793
 20
161.0913822798
 40
4.9409874774
100
AcDbArc
 50
68.5304509171
 51
69.2379646674
  0
ARC
  5
396
100
AcDbEntity
  8
RACCORDO
100
AcDbCircle
 62
250
  6
CONTINUOUS
 10
213.629593224
 20
30.8143438151
 40
3.132811951
100
AcDbArc
 50
328.0589298966
 51
329.9932323692
  0
ARC
  5
397
100
AcDbEntity
  8
ASSI
100
AcDbCircle
 62
250
  6
CONTINUOUS
 10
213.629593224
 20
30.8143438151
 40
3.132811951
100
AcDbArc
 50
328.0589298966
 51
329.9932323692
  0
ARC
  5
398
100
AcDbEntity
  8
RACCORDO
100
AcDbCircle
 62
250
  6
CONTINUOUS
 10
103.9295995855
 20
162.8532594973
 40
3.1305706949
100
AcDbArc
 50
90.0074992511
 51
91.9450745461
  0
ARC
  5
399
100
AcDbEntity
  8
ASSI
100
AcDbCircle
 62
250
  6
CONTINUOUS
 10
103.9295995855
 20
162.8532594973
 40
3.1305706949
100
AcDbArc
 50
90.0074992511
 51
91.9450745461
  0
ARC
  5
39A
100
AcDbEntity
  8
RACCORDO
100
AcDbCircle
 62
250
  6
CONTINUOUS
 10
194.8472493008
 20
88.7432326473
 40
2.0426985357
100
AcDbArc
 50
17.6033399846
 51
19.6292000111
  0
ARC
  5
39B
100
AcDbEntity
  8
RACCORDO
100
AcDbCircle
 62
250
  6
CONTINUOUS
 10
144.6426678368
 20
117.7307287737
 40
2.0426985355
100
AcDbArc
 50
17.6033399846
 51
19.6292000107
  0
ARC
  5
39C
100
AcDbEntity
  8
ASSI
100
AcDbCircle
 62
250
  6
CONTINUOUS
 10
194.8472493008
 20
88.7432326473
 40
2.0426985357
100
AcDbArc
 50
17.6033399846
 51
19.6292000111
  0
ARC
  5
39D
100
AcDbEntity
  8
ASSI
100
AcDbCircle
 62
250
  6
CONTINUOUS
 10
144.6426678368
 20
117.7307287737
 40
2.0426985355
100
AcDbArc
 50
17.6033399846
 51
19.6292000107
  0
ARC
  5
39E
100
AcDbEntity
  8
RACCORDO
100
AcDbCircle
 62
250
  6
CONTINUOUS
 10
196.6076130859
 20
53.0234537855
 40
0.222912916
100
AcDbArc
 50
297.7132419029
 51
299.0251113731
  0
ARC
  5
39F
100
AcDbEntity
  8
RACCORDO
100
AcDbCircle
 62
250
  6
CONTINUOUS
 10
146.4030316217
 20
82.0109499117
 40
0.2229129159
100
AcDbArc
 50
297.7132419027
 51
299.0251113734
  0
ARC
  5
3A0
100
AcDbEntity
  8
ASSI
100
AcDbCircle
 62
250
  6
CONTINUOUS
 10
196.6076130859
 20
53.0234537855
 40
0.222912916
100
AcDbArc
 50
297.7132419029
 51
299.0251113731
  0
ARC
  5
3A1
100
AcDbEntity
  8
ASSI
100
AcDbCircle
 62
250
  6
CONTINUOUS
 10
146.4030316217
 20
82.0109499117
 40
0.2229129159
100
AcDbArc
 50
297.7132419027
 51
299.0251113734
  0
ARC
  5
3A2
100
AcDbEntity
  8
0
100
AcDbCircle
 62
250
  6
CONTINUOUS
 10
128.6488661133
 20
95.1926458278
 40
0.1769069887
100
AcDbArc
 50
348.5441298076
 51
359.9498034596
  0
ARC
  5
3A3
100
AcDbEntity
  8
0
100
AcDbCircle
 62
250
  6
CONTINUOUS
 10
178.8534475775
 20
66.2051497016
 40
0.1769069887
100
AcDbArc
 50
348.5441298076
 51
359.9498034597
  0
ARC
  5
3A4
100
AcDbEntity
  8
ASSI
100
AcDbCircle
 62
250
  6
CONTINUOUS
 10
128.6488661133
 20
95.1926458278
 40
0.1769069887
100
AcDbArc
 50
348.5441298076
 51
359.9498034596
  0
ARC
  5
3A5
100
AcDbEntity
  8
ASSI
100
AcDbCircle
 62
250
  6
CONTINUOUS
 10
178.8534475775
 20
66.2051497016
 40
0.1769069887
100
AcDbArc
 50
348.5441298076
 51
359.9498034597
  0
ARC
  5
3A6
100
AcDbEntity
  8
0
100
AcDbCircle
 62
250
  6
CONTINUOUS
 10
167.3945662839
 20
104.4232070532
 40
0.1768465573
100
AcDbArc
 50
60.0478313617
 51
71.402342129
  0
ARC
  5
3A7
100
AcDbEntity
  8
ASSI
100
AcDbCircle
 62
250
  6
CONTINUOUS
 10
167.3945662839
 20
104.4232070532
 40
0.1768465573
100
AcDbArc
 50
60.0478313617
 51
71.402342129
  0
SPLINE
  5
3A8
100
AcDbEntity
  8
RACCORDO
100
AcDbSpline
 62
7
  6
CONTINUOUS
 70
0
 71
3
 72
9
 73
5
 74
0
 42
0.0000001
 43
0.0000001
 44
0.0000000001
 40
0.0
 40
0.0
 40
0.0
 40
0.0
 40
0.4999851872
 40
1.0
 40
1.0
 40
1.0
 40
1.0
 10
216.5231475955
 20
101.5111473421
 30
0.0
 10
216.6080881282
 20
101.462103414
 30
0.0
 10
216.75056214
 20
101.3134641162
 30
0.0
 10
216.8080578634
 20
101.1157565367
 30
0.0
 10
216.8080578486
 20
101.0176681018
 30
0.0
  0
SPLINE
  5
3A9
100
AcDbEntity
  8
RACCORDO
100
AcDbSpline
 62
250
  6
CONTINUOUS
 70
0
 71
3
 72
9
 73
5
 74
0
 42
0.0000001
 43
0.0000001
 44
0.0000000001
 40
0.0
 40
0.0
 40
0.0
 40
0.0
 40
0.2743822942
 40
1.0
 40
1.0
 40
1.0
 40
1.0
 10
113.65990173
 20
136.8495240416
 30
0.0
 10
113.6617393518
 20
136.891573087
 30
0.0
 10
113.6759980754
 20
137.0440163606
 30
0.0
 10
113.7246306595
 20
137.1960263391
 30
0.0
 10
113.7852413477
 20
137.2893836092
 30
0.0
  0
SPLINE
  5
3AA
100
AcDbEntity
  8
RACCORDO
100
AcDbSpline
 62
250
  6
CONTINUOUS
 70
0
 71
3
 72
9
 73
5
 74
0
 42
0.0000001
 43
0.0000001
 44
0.0000000001
 40
0.0
 40
0.0
 40
0.0
 40
0.0
 40
0.2456610145
 40
1.0
 40
1.0
 40
1.0
 40
1.0
 10
113.65990173
 20
100.8103930424
 30
0.0
 10
113.5248004145
 20
103.7589960187
 30
0.0
 10
113.1163965286
 20
115.7679474658
 30
0.0
 10
113.2638830765
 20
127.794553261
 30
0.0
 10
113.65990173
 20
136.8495240416
 30
0.0
  0
SPLINE
  5
3AB
100
AcDbEntity
  8
RACCORDO
100
AcDbSpline
 62
250
  6
CONTINUOUS
 70
0
 71
3
 72
9
 73
5
 74
0
 42
0.0000001
 43
0.0000001
 44
0.0000000001
 40
0.0
 40
0.0
 40
0.0
 40
0.0
 40
0.2799452606
 40
1.0
 40
1.0
 40
1.0
 40
1.0
 10
196.8775699591
 20
52.7615543692
 30
0.0
 10
196.879216316
 20
52.7217730007
 30
0.0
 10
196.8781445544
 20
52.5799650554
 30
0.0
 10
196.8451893549
 20
52.4348504565
 30
0.0
 10
196.7942944737
 20
52.3459821044
 30
0.0
  0
SPLINE
  5
3AC
100
AcDbEntity
  8
RACCORDO
100
AcDbSpline
 62
250
  6
CONTINUOUS
 70
0
 71
3
 72
9
 73
5
 74
0
 42
0.0000001
 43
0.0000001
 44
0.0000000001
 40
0.0
 40
0.0
 40
0.0
 40
0.0
 40
0.5064534018
 40
1.0
 40
1.0
 40
1.0
 40
1.0
 10
196.8775699591
 20
88.8006853684
 30
0.0
 10
196.6386937801
 20
82.7200951221
 30
0.0
 10
196.393852184
 20
70.7037053114
 30
0.0
 10
196.6324526176
 20
58.6866855248
 30
0.0
 10
196.8775699591
 20
52.7615543692
 30
0.0
  0
SPLINE
  5
3AD
100
AcDbEntity
  8
RACCORDO
100
AcDbSpline
 62
250
  6
CONTINUOUS
 70
0
 71
3
 72
9
 73
5
 74
0
 42
0.0000001
 43
0.0000001
 44
0.0000000001
 40
0.0
 40
0.0
 40
0.0
 40
0.0
 40
0.5192714452
 40
1.0
 40
1.0
 40
1.0
 40
1.0
 10
196.7942944737
 20
89.360996682
 30
0.0
 10
196.8240914147
 20
89.2672053251
 30
0.0
 10
196.8683841082
 20
89.0820858823
 30
0.0
 10
196.881150178
 20
88.8917212161
 30
0.0
 10
196.8775699591
 20
88.8006853684
 30
0.0
  0
SPLINE
  5
3AE
100
AcDbEntity
  8
RACCORDO
100
AcDbSpline
 62
250
  6
CONTINUOUS
 70
0
 71
3
 72
9
 73
5
 74
0
 42
0.0000001
 43
0.0000001
 44
0.0000000001
 40
0.0
 40
0.0
 40
0.0
 40
0.0
 40
0.4918026854
 40
1.0
 40
1.0
 40
1.0
 40
1.0
 10
103.9291898357
 20
165.9838301654
 30
0.0
 10
104.161373112
 20
165.9838817983
 30
0.0
 10
104.6342844518
 20
165.9320063022
 30
0.0
 10
105.0888430674
 20
165.7965495374
 30
0.0
 10
105.3131873116
 20
165.7115033892
 30
0.0
  0
SPLINE
  5
3AF
100
AcDbEntity
  8
RACCORDO
100
AcDbSpline
 62
250
  6
CONTINUOUS
 70
0
 71
3
 72
9
 73
5
 74
0
 42
0.0000001
 43
0.0000001
 44
0.0000000001
 40
0.0
 40
0.0
 40
0.0
 40
0.0
 40
0.2455441792
 40
1.0
 40
1.0
 40
1.0
 40
1.0
 10
211.8178407128
 20
43.6716192633
 30
0.0
 10
211.6752942355
 20
46.6984706641
 30
0.0
 10
211.2442975659
 20
59.0323444684
 30
0.0
 10
211.4002590733
 20
71.3853375665
 30
0.0
 10
211.8178407024
 20
80.6865399465
 30
0.0
  0
SPLINE
  5
3B0
100
AcDbEntity
  8
RACCORDO
100
AcDbSpline
 62
250
  6
CONTINUOUS
 70
0
 71
3
 72
9
 73
5
 74
0
 42
0.0000001
 43
0.0000001
 44
0.0000000001
 40
0.0
 40
0.0
 40
0.0
 40
0.0
 40
0.2731430219
 40
1.0
 40
1.0
 40
1.0
 40
1.0
 10
114.347595465
 20
136.8188632848
 30
0.0
 10
114.3486814747
 20
136.844717301
 30
0.0
 10
114.3574824312
 20
136.9388822089
 30
0.0
 10
114.388403766
 20
137.032618339
 30
0.0
 10
114.4264650585
 20
137.0900038401
 30
0.0
  0
SPLINE
  5
3B1
100
AcDbEntity
  8
RACCORDO
100
AcDbSpline
 62
250
  6
CONTINUOUS
 70
0
 71
3
 72
9
 73
5
 74
0
 42
0.0000001
 43
0.0000001
 44
0.0000000001
 40
0.0
 40
0.0
 40
0.0
 40
0.0
 40
0.5084228518
 40
1.0
 40
1.0
 40
1.0
 40
1.0
 10
114.4264650585
 20
137.0900038401
 30
0.0
 10
114.4435017455
 20
137.1156880633
 30
0.0
 10
114.483434504
 20
137.1623788916
 30
0.0
 10
114.5349911094
 20
137.1960450617
 30
0.0
 10
114.5620192424
 20
137.208595061
 30
0.0
  0
SPLINE
  5
3B2
100
AcDbEntity
  8
RACCORDO
100
AcDbSpline
 62
250
  6
CONTINUOUS
 70
0
 71
3
 72
10
 73
6
 74
0
 42
0.0000001
 43
0.0000001
 44
0.0000000001
 40
0.0
 40
0.0
 40
0.0
 40
0.0
 40
0.6204551488
 40
0.8391069751
 40
1.0
 40
1.0
 40
1.0
 40
1.0
 10
216.0082137095
 20
101.2708064608
 30
0.0
 10
216.1124774861
 20
101.3252123731
 30
0.0
 10
216.2542968383
 20
101.3974259602
 30
0.0
 10
216.4272169649
 20
101.4750889207
 30
0.0
 10
216.4942234604
 20
101.5014798165
 30
0.0
 10
216.5231471632
 20
101.5111476637
 30
0.0
  0
SPLINE
  5
3B3
100
AcDbEntity
  8
RACCORDO
100
AcDbSpline
 62
250
  6
CONTINUOUS
 70
0
 71
3
 72
11
 73
7
 74
0
 42
0.0000001
 43
0.0000001
 44
0.0000000001
 40
0.0
 40
0.0
 40
0.0
 40
0.0
 40
0.2303336607
 40
0.4816670751
 40
0.7425248833
 40
1.0
 40
1.0
 40
1.0
 40
1.0
 10
114.9618899706
 20
99.8698309456
 30
0.0
 10
114.9055263993
 20
99.9002137737
 30
0.0
 10
114.7948789657
 20
99.977440872
 30
0.0
 10
114.6479622861
 20
100.1235952425
 30
0.0
 10
114.5208601084
 20
100.296709646
 30
0.0
 10
114.4539660578
 20
100.425159345
 30
0.0
 10
114.4264650585
 20
100.4912413772
 30
0.0
  0
SPLINE
  5
3B4
100
AcDbEntity
  8
RACCORDO
100
AcDbSpline
 62
250
  6
CONTINUOUS
 70
0
 71
3
 72
9
 73
5
 74
0
 42
0.0000001
 43
0.0000001
 44
0.0000000001
 40
0.0
 40
0.0
 40
0.0
 40
0.0
 40
0.5233357275
 40
1.0
 40
1.0
 40
1.0
 40
1.0
 10
114.4264650585
 20
100.4912413772
 30
0.0
 10
114.4037391992
 20
100.5458552008
 30
0.0
 10
114.3675919566
 20
100.6534476724
 30
0.0
 10
114.3499598504
 20
100.7659117376
 30
0.0
 10
114.3475963335
 20
100.8197380032
 30
0.0
  0
SPLINE
  5
3B5
100
AcDbEntity
  8
RACCORDO
100
AcDbSpline
 62
250
  6
CONTINUOUS
 70
0
 71
3
 72
9
 73
5
 74
0
 42
0.0000001
 43
0.0000001
 44
0.0000000001
 40
0.0
 40
0.0
 40
0.0
 40
0.0
 40
0.2805562343
 40
1.0
 40
1.0
 40
1.0
 40
1.0
 10
215.4762413666
 20
100.9818385069
 30
0.0
 10
215.5256531905
 20
101.0094768747
 30
0.0
 10
215.7020410376
 20
101.1075073697
 30
0.0
 10
215.8795002048
 20
101.2036409248
 30
0.0
 10
216.0082137095
 20
101.2708064608
 30
0.0
  0
SPLINE
  5
3B6
100
AcDbEntity
  8
RACCORDO
100
AcDbSpline
 62
250
  6
CONTINUOUS
 70
0
 71
3
 72
9
 73
5
 74
0
 42
0.0000001
 43
0.0000001
 44
0.0000000001
 40
0.0
 40
0.0
 40
0.0
 40
0.0
 40
0.2482856208
 40
1.0
 40
1.0
 40
1.0
 40
1.0
 10
103.1888963232
 20
165.8901869722
 30
0.0
 10
103.2402470294
 20
165.9037805887
 30
0.0
 10
103.4486654435
 20
165.9523972853
 30
0.0
 10
103.6626109704
 20
165.9765554587
 30
0.0
 10
103.8233435244
 20
165.982026431
 30
0.0
  0
SPLINE
  5
3B7
100
AcDbEntity
  8
RACCORDO
100
AcDbSpline
 62
250
  6
CONTINUOUS
 70
0
 71
3
 72
9
 73
5
 74
0
 42
0.0000001
 43
0.0000001
 44
0.0000000001
 40
0.0
 40
0.0
 40
0.0
 40
0.0
 40
0.5081853705
 40
1.0
 40
1.0
 40
1.0
 40
1.0
 10
216.7986458652
 20
30.5824799449
 30
0.0
 10
216.7601340887
 20
30.3456543811
 30
0.0
 10
216.6501642545
 20
29.8842289569
 30
0.0
 10
216.458645036
 20
29.4486923856
 30
0.0
 10
216.34250292
 20
29.2476173867
 30
0.0
  0
SPLINE
  5
3B8
100
AcDbEntity
  8
RACCORDO
100
AcDbSpline
 62
250
  6
CONTINUOUS
 70
0
 71
3
 72
11
 73
7
 74
0
 42
0.0000001
 43
0.0000001
 44
0.0000000001
 40
0.0
 40
0.0
 40
0.0
 40
0.0
 40
0.2303336607
 40
0.4816670751
 40
0.7425248833
 40
1.0
 40
1.0
 40
1.0
 40
1.0
 10
165.1664714349
 20
70.8823348193
 30
0.0
 10
165.1101078635
 20
70.9127176474
 30
0.0
 10
164.9994604299
 20
70.9899447457
 30
0.0
 10
164.8525437503
 20
71.1360991162
 30
0.0
 10
164.7254415726
 20
71.3092135198
 30
0.0
 10
164.6585475221
 20
71.4376632188
 30
0.0
 10
164.6310465227
 20
71.503745251
 30
0.0
  0
SPLINE
  5
3B9
100
AcDbEntity
  8
RACCORDO
100
AcDbSpline
 62
250
  6
CONTINUOUS
 70
0
 71
3
 72
9
 73
5
 74
0
 42
0.0000001
 43
0.0000001
 44
0.0000000001
 40
0.0
 40
0.0
 40
0.0
 40
0.0
 40
0.5233357275
 40
1.0
 40
1.0
 40
1.0
 40
1.0
 10
164.6310465227
 20
71.503745251
 30
0.0
 10
164.6083206635
 20
71.5583590745
 30
0.0
 10
164.5721734208
 20
71.6659515462
 30
0.0
 10
164.5545413147
 20
71.7784156113
 30
0.0
 10
164.5521777978
 20
71.832241877
 30
0.0
  0
SPLINE
  5
3BA
100
AcDbEntity
  8
RACCORDO
100
AcDbSpline
 62
250
  6
CONTINUOUS
 70
0
 71
3
 72
9
 73
5
 74
0
 42
0.0000001
 43
0.0000001
 44
0.0000000001
 40
0.0
 40
0.0
 40
0.0
 40
0.0
 40
0.2523209989
 40
1.0
 40
1.0
 40
1.0
 40
1.0
 10
216.2880745148
 20
29.156939837
 30
0.0
 10
216.2594951385
 20
29.1111062809
 30
0.0
 10
216.1415201207
 20
28.9324583376
 30
0.0
 10
216.0039201287
 20
28.7666044203
 30
0.0
 10
215.8910780906
 20
28.653096711
 30
0.0
  0
SPLINE
  5
3BB
100
AcDbEntity
  8
RACCORDO
100
AcDbSpline
 62
250
  6
CONTINUOUS
 70
0
 71
3
 72
9
 73
5
 74
0
 42
0.0000001
 43
0.0000001
 44
0.0000000001
 40
0.0
 40
0.0
 40
0.0
 40
0.0
 40
0.2731430219
 40
1.0
 40
1.0
 40
1.0
 40
1.0
 10
164.5521769292
 20
107.8313671585
 30
0.0
 10
164.5532629389
 20
107.8572211747
 30
0.0
 10
164.5620638954
 20
107.9513860827
 30
0.0
 10
164.5929852302
 20
108.0451222127
 30
0.0
 10
164.6310465227
 20
108.1025077139
 30
0.0
  0
SPLINE
  5
3BC
100
AcDbEntity
  8
RACCORDO
100
AcDbSpline
 62
250
  6
CONTINUOUS
 70
0
 71
3
 72
9
 73
5
 74
0
 42
0.0000001
 43
0.0000001
 44
0.0000000001
 40
0.0
 40
0.0
 40
0.0
 40
0.0
 40
0.5084228518
 40
1.0
 40
1.0
 40
1.0
 40
1.0
 10
164.6310465227
 20
108.1025077139
 30
0.0
 10
164.6480832097
 20
108.128191937
 30
0.0
 10
164.6880159682
 20
108.1748827653
 30
0.0
 10
164.7395725737
 20
108.2085489354
 30
0.0
 10
164.7666007066
 20
108.2210989347
 30
0.0
  0
SPLINE
  5
3BD
100
AcDbEntity
  8
RACCORDO
100
AcDbSpline
 62
250
  6
CONTINUOUS
 70
0
 71
3
 72
9
 73
5
 74
0
 42
0.0000001
 43
0.0000001
 44
0.0000000001
 40
0.0
 40
0.0
 40
0.0
 40
0.0
 40
0.2805555471
 40
1.0
 40
1.0
 40
1.0
 40
1.0
 10
215.826314264
 20
100.3755166817
 30
0.0
 10
215.8749524391
 20
100.4044928845
 30
0.0
 10
216.0480313036
 20
100.5082478337
 30
0.0
 10
216.2200010691
 20
100.6138820448
 30
0.0
 10
216.3425125007
 20
100.6917839701
 30
0.0
  0
SPLINE
  5
3BE
100
AcDbEntity
  8
RACCORDO
100
AcDbSpline
 62
250
  6
CONTINUOUS
 70
0
 71
3
 72
10
 73
6
 74
0
 42
0.0000001
 43
0.0000001
 44
0.0000000001
 40
0.0
 40
0.0
 40
0.0
 40
0.0
 40
0.6204481948
 40
0.8391013446
 40
1.0
 40
1.0
 40
1.0
 40
1.0
 10
216.3425125007
 20
100.6917839701
 30
0.0
 10
216.4417539749
 20
100.7548899054
 30
0.0
 10
216.5751906001
 20
100.8416256041
 30
0.0
 10
216.7288849673
 20
100.9525873083
 30
0.0
 10
216.785231334
 20
100.9974415304
 30
0.0
 10
216.8080578831
 20
101.0176678009
 30
0.0
  0
SPLINE
  5
3BF
100
AcDbEntity
  8
RACCORDO
100
AcDbSpline
 62
250
  6
CONTINUOUS
 70
0
 71
3
 72
13
 73
9
 74
0
 42
0.0000001
 43
0.0000001
 44
0.0000000001
 40
0.0
 40
0.0
 40
0.0
 40
0.0
 40
0.1201640491
 40
0.2355361294
 40
0.3493927353
 40
0.4652909815
 40
0.7142794094
 40
1.0
 40
1.0
 40
1.0
 40
1.0
 10
113.7852413477
 20
137.2893836092
 30
0.0
 10
113.8058231118
 20
137.321154302
 30
0.0
 10
113.8521109864
 20
137.379898513
 30
0.0
 10
113.9376352647
 20
137.4505523929
 30
0.0
 10
114.0356989032
 20
137.4996589515
 30
0.0
 10
114.1833474324
 20
137.5357500663
 30
0.0
 10
114.3929042323
 20
137.5180680102
 30
0.0
 10
114.5494234507
 20
137.4496044017
 30
0.0
 10
114.6273710793
 20
137.404594821
 30
0.0
  0
SPLINE
  5
3C0
100
AcDbEntity
  8
RACCORDO
100
AcDbSpline
 62
250
  6
CONTINUOUS
 70
0
 71
3
 72
9
 73
5
 74
0
 42
0.0000001
 43
0.0000001
 44
0.0000000001
 40
0.0
 40
0.0
 40
0.0
 40
0.0
 40
0.2759838747
 40
1.0
 40
1.0
 40
1.0
 40
1.0
 10
146.6729908591
 20
81.7490519945
 30
0.0
 10
146.6585484882
 20
81.7574313671
 30
0.0
 10
146.6080646409
 20
81.7905002121
 30
0.0
 10
146.5647642084
 20
81.8370932357
 30
0.0
 10
146.545833891
 20
81.8765948873
 30
0.0
  0
SPLINE
  5
3C1
100
AcDbEntity
  8
RACCORDO
100
AcDbSpline
 62
250
  6
CONTINUOUS
 70
0
 71
3
 72
9
 73
5
 74
0
 42
0.0000001
 43
0.0000001
 44
0.0000000001
 40
0.0
 40
0.0
 40
0.0
 40
0.0
 40
0.2563751148
 40
1.0
 40
1.0
 40
1.0
 40
1.0
 10
146.545833891
 20
81.8765948873
 30
0.0
 10
146.5429375589
 20
81.8826386266
 30
0.0
 10
146.5327408689
 20
81.9067185358
 30
0.0
 10
146.5273463647
 20
81.9328754524
 30
0.0
 10
146.5265429136
 20
81.952297947
 30
0.0
  0
SPLINE
  5
3C2
100
AcDbEntity
  8
RACCORDO
100
AcDbSpline
 62
250
  6
CONTINUOUS
 70
0
 71
3
 72
11
 73
7
 74
0
 42
0.0000001
 43
0.0000001
 44
0.0000000001
 40
0.0
 40
0.0
 40
0.0
 40
0.0
 40
0.2717953396
 40
0.5280496217
 40
0.7689158691
 40
1.0
 40
1.0
 40
1.0
 40
1.0
 10
146.5897152561
 20
81.3334796587
 30
0.0
 10
146.5591318593
 20
81.3681796217
 30
0.0
 10
146.507553632
 20
81.4431936476
 30
0.0
 10
146.464696056
 20
81.5687487323
 30
0.0
 10
146.4624123065
 20
81.6948710452
 30
0.0
 10
146.4895710764
 20
81.7726672464
 30
0.0
 10
146.5091435915
 20
81.8067763864
 30
0.0
  0
SPLINE
  5
3C3
100
AcDbEntity
  8
RACCORDO
100
AcDbSpline
 62
250
  6
CONTINUOUS
 70
0
 71
3
 72
11
 73
7
 74
0
 42
0.0000001
 43
0.0000001
 44
0.0000000001
 40
0.0
 40
0.0
 40
0.0
 40
0.0
 40
0.2322940224
 40
0.493230288
 40
0.7578526612
 40
1.0
 40
1.0
 40
1.0
 40
1.0
 10
145.7995808072
 20
81.2482897407
 30
0.0
 10
145.7968222651
 20
81.3049974211
 30
0.0
 10
145.8137578067
 20
81.4265393994
 30
0.0
 10
145.8838664244
 20
81.5994766112
 30
0.0
 10
145.9909138887
 20
81.755272888
 30
0.0
 10
146.0842085384
 20
81.8395568599
 30
0.0
 10
146.1341041646
 20
81.8713853202
 30
0.0
  0
SPLINE
  5
3C4
100
AcDbEntity
  8
RACCORDO
100
AcDbSpline
 62
250
  6
CONTINUOUS
 70
0
 71
3
 72
11
 73
7
 74
0
 42
0.0000001
 43
0.0000001
 44
0.0000000001
 40
0.0
 40
0.0
 40
0.0
 40
0.0
 40
0.2322940311
 40
0.4932302992
 40
0.7578526692
 40
1.0
 40
1.0
 40
1.0
 40
1.0
 10
114.6273710793
 20
99.246732958
 30
0.0
 10
114.6246125378
 20
99.3034406405
 30
0.0
 10
114.6415480818
 20
99.4249826211
 30
0.0
 10
114.7116567021
 20
99.5979198334
 30
0.0
 10
114.8187041656
 20
99.7537161077
 30
0.0
 10
114.9119988125
 20
99.8380000778
 30
0.0
 10
114.9618944366
 20
99.8698285376
 30
0.0
  0
SPLINE
  5
3C5
100
AcDbEntity
  8
RACCORDO
100
AcDbSpline
 62
250
  6
CONTINUOUS
 70
0
 71
3
 72
12
 73
8
 74
0
 42
0.0000001
 43
0.0000001
 44
0.0000000001
 40
0.0
 40
0.0
 40
0.0
 40
0.0
 40
0.0941794196
 40
0.2050230762
 40
0.4625667484
 40
0.7397932048
 40
1.0
 40
1.0
 40
1.0
 40
1.0
 10
113.7852441211
 20
100.2743707942
 30
0.0
 10
113.8066751548
 20
100.2745839768
 30
0.0
 10
113.8532934925
 20
100.2784384198
 30
0.0
 10
113.9570702424
 20
100.2965350105
 30
0.0
 10
114.098715617
 20
100.3370881031
 30
0.0
 10
114.2670219846
 20
100.4039820211
 30
0.0
 10
114.3759393287
 20
100.4603660737
 30
0.0
 10
114.4264671683
 20
100.4912413217
 30
0.0
  0
SPLINE
  5
3C6
100
AcDbEntity
  8
RACCORDO
100
AcDbSpline
 62
250
  6
CONTINUOUS
 70
0
 71
3
 72
11
 73
7
 74
0
 42
0.0000001
 43
0.0000001
 44
0.0000000001
 40
0.0
 40
0.0
 40
0.0
 40
0.0
 40
0.2342155067
 40
0.4938237053
 40
0.7567856047
 40
1.0
 40
1.0
 40
1.0
 40
1.0
 10
113.6599017399
 20
100.8103930486
 30
0.0
 10
113.7081814901
 20
100.7826530297
 30
0.0
 10
113.8206428911
 20
100.7425068634
 30
0.0
 10
114.0011347825
 20
100.7252141282
 30
0.0
 10
114.1831740274
 20
100.747974056
 30
0.0
 10
114.2974458574
 20
100.7909843584
 30
0.0
 10
114.3475949534
 20
100.819765163
 30
0.0
  0
SPLINE
  5
3C7
100
AcDbEntity
  8
0
100
AcDbSpline
 62
250
  6
CONTINUOUS
 70
0
 71
3
 72
9
 73
5
 74
0
 42
0.0000001
 43
0.0000001
 44
0.0000000001
 40
0.0
 40
0.0
 40
0.0
 40
0.0
 40
0.4584851708
 40
1.0
 40
1.0
 40
1.0
 40
1.0
 10
167.4509662881
 20
104.5908189393
 30
0.0
 10
167.4195293212
 20
104.6014120463
 30
0.0
 10
167.3441783935
 20
104.604937345
 30
0.0
 10
167.2750539349
 20
104.5793345587
 30
0.0
 10
167.2402097233
 20
104.5614164249
 30
0.0
  0
SPLINE
  5
3C8
100
AcDbEntity
  8
RACCORDO
100
AcDbSpline
 62
250
  6
CONTINUOUS
 70
0
 71
3
 72
11
 73
7
 74
0
 42
0.0000001
 43
0.0000001
 44
0.0000000001
 40
0.0
 40
0.0
 40
0.0
 40
0.0
 40
0.2372860152
 40
0.4997968766
 40
0.7624172675
 40
1.0
 40
1.0
 40
1.0
 40
1.0
 10
113.659904203
 20
136.8495253293
 30
0.0
 10
113.7084410753
 20
136.8213492278
 30
0.0
 10
113.8204139479
 20
136.7786423526
 30
0.0
 10
113.9999840346
 20
136.7525394066
 30
0.0
 10
114.1812350336
 20
136.7625635621
 30
0.0
 10
114.2966605336
 20
136.795122137
 30
0.0
 10
114.3475970373
 20
136.8188513472
 30
0.0
  0
SPLINE
  5
3C9
100
AcDbEntity
  8
0
100
AcDbSpline
 62
250
  6
CONTINUOUS
 70
0
 71
3
 72
11
 73
7
 74
0
 42
0.0000001
 43
0.0000001
 44
0.0000000001
 40
0.0
 40
0.0
 40
0.0
 40
0.0
 40
0.2195076977
 40
0.4533099124
 40
0.7119111456
 40
1.0
 40
1.0
 40
1.0
 40
1.0
 10
179.0303544979
 20
66.7866770771
 30
0.0
 10
179.0303554233
 20
66.7685919866
 30
0.0
 10
179.0239790334
 20
66.7310056626
 30
0.0
 10
178.9965314323
 20
66.6783106962
 30
0.0
 10
178.9529383957
 20
66.6302845994
 30
0.0
 10
178.9162708681
 20
66.603627503
 30
0.0
 10
178.8960333735
 20
66.5912252778
 30
0.0
  0
SPLINE
  5
3CA
100
AcDbEntity
  8
RACCORDO
100
AcDbSpline
 62
250
  6
CONTINUOUS
 70
0
 71
3
 72
11
 73
7
 74
0
 42
0.0000001
 43
0.0000001
 44
0.0000000001
 40
0.0
 40
0.0
 40
0.0
 40
0.0
 40
0.2625146673
 40
0.5259464652
 40
0.7748500223
 40
1.0
 40
1.0
 40
1.0
 40
1.0
 10
113.7852435943
 20
137.2893847755
 30
0.0
 10
113.8247191236
 20
137.2409423279
 30
0.0
 10
113.9193085913
 20
137.1557578504
 30
0.0
 10
114.0873372519
 20
137.0740711165
 30
0.0
 10
114.2633586664
 20
137.0456611292
 30
0.0
 10
114.3776023015
 20
137.0679847138
 30
0.0
 10
114.4264667133
 20
137.090001642
 30
0.0
  0
SPLINE
  5
3CB
100
AcDbEntity
  8
RACCORDO
100
AcDbSpline
 62
250
  6
CONTINUOUS
 70
0
 71
3
 72
11
 73
7
 74
0
 42
0.0000001
 43
0.0000001
 44
0.0000000001
 40
0.0
 40
0.0
 40
0.0
 40
0.0
 40
0.2927930182
 40
0.5532436242
 40
0.7852095248
 40
1.0
 40
1.0
 40
1.0
 40
1.0
 10
114.6273710793
 20
137.404594821
 30
0.0
 10
114.6260927873
 20
137.3768406792
 30
0.0
 10
114.6278965228
 20
137.3240166481
 30
0.0
 10
114.64616156
 20
137.2510665634
 30
0.0
 10
114.6797611332
 20
137.1918135877
 30
0.0
 10
114.7126643365
 20
137.1634013785
 30
0.0
 10
114.730308438
 20
137.1531982949
 30
0.0
  0
SPLINE
  5
3CC
100
AcDbEntity
  8
RACCORDO
100
AcDbSpline
 62
250
  6
CONTINUOUS
 70
0
 71
3
 72
11
 73
7
 74
0
 42
0.0000001
 43
0.0000001
 44
0.0000000001
 40
0.0
 40
0.0
 40
0.0
 40
0.0
 40
0.2928040878
 40
0.5532520605
 40
0.785209078
 40
1.0
 40
1.0
 40
1.0
 40
1.0
 10
145.7995808072
 20
119.4061516036
 30
0.0
 10
145.7983020667
 20
119.3783877311
 30
0.0
 10
145.8001078161
 20
119.3255461341
 30
0.0
 10
145.8183876065
 20
119.2525748379
 30
0.0
 10
145.8520139022
 20
119.1933123064
 30
0.0
 10
145.8849410815
 20
119.1649066935
 30
0.0
 10
145.9025962578
 20
119.1547099476
 30
0.0
  0
SPLINE
  5
3CD
100
AcDbEntity
  8
RACCORDO
100
AcDbSpline
 62
250
  6
CONTINUOUS
 70
0
 71
3
 72
10
 73
6
 74
0
 42
0.0000001
 43
0.0000001
 44
0.0000000001
 40
0.0
 40
0.0
 40
0.0
 40
0.0
 40
0.3688923355
 40
0.6561925049
 40
1.0
 40
1.0
 40
1.0
 40
1.0
 10
146.5897160284
 20
118.3484943757
 30
0.0
 10
146.5735214016
 20
118.3478619179
 30
0.0
 10
146.5441384905
 20
118.348037827
 30
0.0
 10
146.5023137973
 20
118.3526761637
 30
0.0
 10
146.4709301699
 20
118.3658793549
 30
0.0
 10
146.4663396413
 20
118.3802697951
 30
0.0
  0
SPLINE
  5
3CE
100
AcDbEntity
  8
RACCORDO
100
AcDbSpline
 62
250
  6
CONTINUOUS
 70
0
 71
3
 72
11
 73
7
 74
0
 42
0.0000001
 43
0.0000001
 44
0.0000000001
 40
0.0
 40
0.0
 40
0.0
 40
0.0
 40
0.2958067088
 40
0.5570015574
 40
0.7876482204
 40
1.0
 40
1.0
 40
1.0
 40
1.0
 10
146.6729885048
 20
117.7881814999
 30
0.0
 10
146.6505338269
 20
117.8010767274
 30
0.0
 10
146.6099876295
 20
117.8287094764
 30
0.0
 10
146.5617164781
 20
117.8788066735
 30
0.0
 10
146.531824563
 20
117.9337717606
 30
0.0
 10
146.5257692016
 20
117.9731033898
 30
0.0
 10
146.5265041928
 20
117.9916774713
 30
0.0
  0
SPLINE
  5
3CF
100
AcDbEntity
  8
RACCORDO
100
AcDbSpline
 62
250
  6
CONTINUOUS
 70
0
 71
3
 72
9
 73
5
 74
0
 42
0.0000001
 43
0.0000001
 44
0.0000000001
 40
0.0
 40
0.0
 40
0.0
 40
0.0
 40
0.2759838747
 40
1.0
 40
1.0
 40
1.0
 40
1.0
 10
196.8775723233
 20
52.7615558682
 30
0.0
 10
196.8631299525
 20
52.7699352408
 30
0.0
 10
196.8126461052
 20
52.8030040858
 30
0.0
 10
196.7693456726
 20
52.8495971095
 30
0.0
 10
196.7504153552
 20
52.889098761
 30
0.0
  0
SPLINE
  5
3D0
100
AcDbEntity
  8
RACCORDO
100
AcDbSpline
 62
250
  6
CONTINUOUS
 70
0
 71
3
 72
9
 73
5
 74
0
 42
0.0000001
 43
0.0000001
 44
0.0000000001
 40
0.0
 40
0.0
 40
0.0
 40
0.0
 40
0.2563751148
 40
1.0
 40
1.0
 40
1.0
 40
1.0
 10
196.7504153552
 20
52.889098761
 30
0.0
 10
196.7475190231
 20
52.8951425003
 30
0.0
 10
196.7373223331
 20
52.9192224096
 30
0.0
 10
196.731927829
 20
52.9453793261
 30
0.0
 10
196.7311243779
 20
52.9648018207
 30
0.0
  0
SPLINE
  5
3D1
100
AcDbEntity
  8
RACCORDO
100
AcDbSpline
 62
250
  6
CONTINUOUS
 70
0
 71
3
 72
11
 73
7
 74
0
 42
0.0000001
 43
0.0000001
 44
0.0000000001
 40
0.0
 40
0.0
 40
0.0
 40
0.0
 40
0.2717953396
 40
0.5280496217
 40
0.7689158691
 40
1.0
 40
1.0
 40
1.0
 40
1.0
 10
196.7942967203
 20
52.3459835324
 30
0.0
 10
196.7637133235
 20
52.3806834954
 30
0.0
 10
196.7121350962
 20
52.4556975213
 30
0.0
 10
196.6692775202
 20
52.581252606
 30
0.0
 10
196.6669937707
 20
52.7073749189
 30
0.0
 10
196.6941525406
 20
52.7851711201
 30
0.0
 10
196.7137250558
 20
52.8192802602
 30
0.0
  0
SPLINE
  5
3D2
100
AcDbEntity
  8
RACCORDO
100
AcDbSpline
 62
250
  6
CONTINUOUS
 70
0
 71
3
 72
11
 73
7
 74
0
 42
0.0000001
 43
0.0000001
 44
0.0000000001
 40
0.0
 40
0.0
 40
0.0
 40
0.0
 40
0.2322940224
 40
0.493230288
 40
0.7578526612
 40
1.0
 40
1.0
 40
1.0
 40
1.0
 10
196.0041622715
 20
52.2607936144
 30
0.0
 10
196.0014037294
 20
52.3175012948
 30
0.0
 10
196.018339271
 20
52.4390432731
 30
0.0
 10
196.0884478887
 20
52.6119804849
 30
0.0
 10
196.1954953529
 20
52.7677767618
 30
0.0
 10
196.2887900026
 20
52.8520607336
 30
0.0
 10
196.3386856289
 20
52.8838891939
 30
0.0
  0
SPLINE
  5
3D3
100
AcDbEntity
  8
RACCORDO
100
AcDbSpline
 62
250
  6
CONTINUOUS
 70
0
 71
3
 72
11
 73
7
 74
0
 42
0.0000001
 43
0.0000001
 44
0.0000000001
 40
0.0
 40
0.0
 40
0.0
 40
0.0
 40
0.2322940311
 40
0.4932302992
 40
0.7578526692
 40
1.0
 40
1.0
 40
1.0
 40
1.0
 10
164.8319525435
 20
70.2592368318
 30
0.0
 10
164.829194002
 20
70.3159445142
 30
0.0
 10
164.846129546
 20
70.4374864948
 30
0.0
 10
164.9162381664
 20
70.6104237072
 30
0.0
 10
165.0232856298
 20
70.7662199814
 30
0.0
 10
165.1165802767
 20
70.8505039515
 30
0.0
 10
165.1664759008
 20
70.8823324113
 30
0.0
  0
SPLINE
  5
3D4
100
AcDbEntity
  8
RACCORDO
100
AcDbSpline
 62
250
  6
CONTINUOUS
 70
0
 71
3
 72
12
 73
8
 74
0
 42
0.0000001
 43
0.0000001
 44
0.0000000001
 40
0.0
 40
0.0
 40
0.0
 40
0.0
 40
0.0941794196
 40
0.2050230762
 40
0.4625667484
 40
0.7397932048
 40
1.0
 40
1.0
 40
1.0
 40
1.0
 10
163.9898255853
 20
71.286874668
 30
0.0
 10
164.0112566191
 20
71.2870878505
 30
0.0
 10
164.0578749567
 20
71.2909422935
 30
0.0
 10
164.1616517067
 20
71.3090388843
 30
0.0
 10
164.3032970813
 20
71.3495919768
 30
0.0
 10
164.4716034489
 20
71.4164858948
 30
0.0
 10
164.5805207929
 20
71.4728699475
 30
0.0
 10
164.6310486325
 20
71.5037451954
 30
0.0
  0
SPLINE
  5
3D5
100
AcDbEntity
  8
RACCORDO
100
AcDbSpline
 62
250
  6
CONTINUOUS
 70
0
 71
3
 72
11
 73
7
 74
0
 42
0.0000001
 43
0.0000001
 44
0.0000000001
 40
0.0
 40
0.0
 40
0.0
 40
0.0
 40
0.2342155067
 40
0.4938237053
 40
0.7567856047
 40
1.0
 40
1.0
 40
1.0
 40
1.0
 10
163.8644832041
 20
71.8228969224
 30
0.0
 10
163.9127629543
 20
71.7951569034
 30
0.0
 10
164.0252243553
 20
71.7550107371
 30
0.0
 10
164.2057162467
 20
71.7377180019
 30
0.0
 10
164.3877554917
 20
71.7604779297
 30
0.0
 10
164.5020273216
 20
71.8034882321
 30
0.0
 10
164.5521764177
 20
71.8322690368
 30
0.0
  0
SPLINE
  5
3D6
100
AcDbEntity
  8
RACCORDO
100
AcDbSpline
 62
250
  6
CONTINUOUS
 70
0
 71
3
 72
11
 73
7
 74
0
 42
0.0000001
 43
0.0000001
 44
0.0000000001
 40
0.0
 40
0.0
 40
0.0
 40
0.0
 40
0.2372860152
 40
0.4997968766
 40
0.7624172675
 40
1.0
 40
1.0
 40
1.0
 40
1.0
 10
163.8644856672
 20
107.862029203
 30
0.0
 10
163.9130225396
 20
107.8338531015
 30
0.0
 10
164.0249954122
 20
107.7911462263
 30
0.0
 10
164.2045654988
 20
107.7650432803
 30
0.0
 10
164.3858164979
 20
107.7750674358
 30
0.0
 10
164.5012419979
 20
107.8076260108
 30
0.0
 10
164.5521785015
 20
107.831355221
 30
0.0
  0
SPLINE
  5
3D7
100
AcDbEntity
  8
RACCORDO
100
AcDbSpline
 62
250
  6
CONTINUOUS
 70
0
 71
3
 72
11
 73
7
 74
0
 42
0.0000001
 43
0.0000001
 44
0.0000000001
 40
0.0
 40
0.0
 40
0.0
 40
0.0
 40
0.2625146673
 40
0.5259464652
 40
0.7748500223
 40
1.0
 40
1.0
 40
1.0
 40
1.0
 10
163.9898250585
 20
108.3018886492
 30
0.0
 10
164.0293005878
 20
108.2534462016
 30
0.0
 10
164.1238900555
 20
108.1682617241
 30
0.0
 10
164.2919187162
 20
108.0865749902
 30
0.0
 10
164.4679401307
 20
108.0581650029
 30
0.0
 10
164.5821837658
 20
108.0804885875
 30
0.0
 10
164.6310481776
 20
108.1025055157
 30
0.0
  0
SPLINE
  5
3D8
100
AcDbEntity
  8
RACCORDO
100
AcDbSpline
 62
250
  6
CONTINUOUS
 70
0
 71
3
 72
11
 73
7
 74
0
 42
0.0000001
 43
0.0000001
 44
0.0000000001
 40
0.0
 40
0.0
 40
0.0
 40
0.0
 40
0.2927930182
 40
0.5532436242
 40
0.7852095248
 40
1.0
 40
1.0
 40
1.0
 40
1.0
 10
164.8319525435
 20
108.4170986947
 30
0.0
 10
164.8306742515
 20
108.3893445529
 30
0.0
 10
164.8324779871
 20
108.3365205218
 30
0.0
 10
164.8507430242
 20
108.2635704371
 30
0.0
 10
164.8843425975
 20
108.2043174614
 30
0.0
 10
164.9172458007
 20
108.1759052522
 30
0.0
 10
164.9348899023
 20
108.1657021686
 30
0.0
  0
SPLINE
  5
3D9
100
AcDbEntity
  8
RACCORDO
100
AcDbSpline
 62
250
  6
CONTINUOUS
 70
0
 71
3
 72
11
 73
7
 74
0
 42
0.0000001
 43
0.0000001
 44
0.0000000001
 40
0.0
 40
0.0
 40
0.0
 40
0.0
 40
0.2928040878
 40
0.5532520605
 40
0.785209078
 40
1.0
 40
1.0
 40
1.0
 40
1.0
 10
196.0041622715
 20
90.4186554773
 30
0.0
 10
196.002883531
 20
90.3908916049
 30
0.0
 10
196.0046892803
 20
90.3380500079
 30
0.0
 10
196.0229690708
 20
90.2650787117
 30
0.0
 10
196.0565953664
 20
90.2058161802
 30
0.0
 10
196.0895225458
 20
90.1774105672
 30
0.0
 10
196.107177722
 20
90.1672138213
 30
0.0
  0
SPLINE
  5
3DA
100
AcDbEntity
  8
RACCORDO
100
AcDbSpline
 62
250
  6
CONTINUOUS
 70
0
 71
3
 72
10
 73
6
 74
0
 42
0.0000001
 43
0.0000001
 44
0.0000000001
 40
0.0
 40
0.0
 40
0.0
 40
0.0
 40
0.3688923355
 40
0.6561925049
 40
1.0
 40
1.0
 40
1.0
 40
1.0
 10
196.7942974926
 20
89.3609982494
 30
0.0
 10
196.7781028659
 20
89.3603657916
 30
0.0
 10
196.7487199548
 20
89.3605417007
 30
0.0
 10
196.7068952616
 20
89.3651800374
 30
0.0
 10
196.6755116342
 20
89.3783832286
 30
0.0
 10
196.6709211056
 20
89.3927736689
 30
0.0
  0
SPLINE
  5
3DB
100
AcDbEntity
  8
RACCORDO
100
AcDbSpline
 62
250
  6
CONTINUOUS
 70
0
 71
3
 72
11
 73
7
 74
0
 42
0.0000001
 43
0.0000001
 44
0.0000000001
 40
0.0
 40
0.0
 40
0.0
 40
0.0
 40
0.2958067088
 40
0.5570015574
 40
0.7876482204
 40
1.0
 40
1.0
 40
1.0
 40
1.0
 10
196.877569969
 20
88.8006853736
 30
0.0
 10
196.8551152912
 20
88.8135806012
 30
0.0
 10
196.8145690938
 20
88.8412133501
 30
0.0
 10
196.7662979424
 20
88.8913105472
 30
0.0
 10
196.7364060273
 20
88.9462756343
 30
0.0
 10
196.7303506658
 20
88.9856072636
 30
0.0
 10
196.731085657
 20
89.004181345
 30
0.0
  0
SPLINE
  5
3DC
100
AcDbEntity
  8
RACCORDO
100
AcDbSpline
 62
250
  6
CONTINUOUS
 70
0
 71
3
 72
9
 73
5
 74
0
 42
0.0000001
 43
0.0000001
 44
0.0000000001
 40
0.0
 40
0.0
 40
0.0
 40
0.0
 40
0.5072370183
 40
1.0
 40
1.0
 40
1.0
 40
1.0
 10
100.3974611186
 20
164.3681830525
 30
0.0
 10
99.9791467837
 20
161.2713771107
 30
0.0
 10
99.2878548684
 20
155.1472298403
 30
0.0
 10
98.8840101737
 20
148.9970395966
 30
0.0
 10
98.7616910849
 20
145.9637439361
 30
0.0
  0
SPLINE
  5
3DD
100
AcDbEntity
  8
RACCORDO
100
AcDbSpline
 62
250
  6
CONTINUOUS
 70
0
 71
3
 72
14
 73
10
 74
0
 42
0.0000001
 43
0.0000001
 44
0.0000000001
 40
0.0
 40
0.0
 40
0.0
 40
0.0
 40
0.2518608402
 40
0.3669198409
 40
0.4801607485
 40
0.5968811317
 40
0.7212208046
 40
0.8554310021
 40
1.0
 40
1.0
 40
1.0
 40
1.0
 10
100.978181421
 20
164.7154806207
 30
0.0
 10
100.9183475262
 20
164.7500307974
 30
0.0
 10
100.8180978615
 20
164.7849209931
 30
0.0
 10
100.6852879001
 20
164.7715044232
 30
0.0
 10
100.5968956111
 20
164.7337226854
 30
0.0
 10
100.5215086782
 20
164.6704073593
 30
0.0
 10
100.4616989782
 20
164.5854182987
 30
0.0
 10
100.4188670674
 20
164.4826909436
 30
0.0
 10
100.4027721216
 20
164.4074853173
 30
0.0
 10
100.3974611186
 20
164.3681830525
 30
0.0
  0
SPLINE
  5
3DE
100
AcDbEntity
  8
RACCORDO
100
AcDbSpline
 62
250
  6
CONTINUOUS
 70
0
 71
3
 72
12
 73
8
 74
0
 42
0.0000001
 43
0.0000001
 44
0.0000000001
 40
0.0
 40
0.0
 40
0.0
 40
0.0
 40
0.1206825646
 40
0.2475608226
 40
0.4446890308
 40
0.6422702548
 40
1.0
 40
1.0
 40
1.0
 40
1.0
 10
213.6342053113
 20
98.9867061453
 30
0.0
 10
213.6404929736
 20
99.0282594247
 30
0.0
 10
213.6463611924
 20
99.1146800176
 30
0.0
 10
213.6346624269
 20
99.2694730704
 30
0.0
 10
213.5904722818
 20
99.4472328824
 30
0.0
 10
213.4797281458
 20
99.6849205284
 30
0.0
 10
213.3437533907
 20
99.8369972957
 30
0.0
 10
213.2358743026
 20
99.8992956702
 30
0.0
  0
SPLINE
  5
3DF
100
AcDbEntity
  8
RACCORDO
100
AcDbSpline
 62
250
  6
CONTINUOUS
 70
0
 71
3
 72
9
 73
5
 74
0
 42
0.0000001
 43
0.0000001
 44
0.0000000001
 40
0.0
 40
0.0
 40
0.0
 40
0.0
 40
0.2449455102
 40
1.0
 40
1.0
 40
1.0
 40
1.0
 10
211.8178406303
 20
80.6865399882
 30
0.0
 10
211.8851983481
 20
82.1869466485
 30
0.0
 10
212.2459612673
 20
88.3083908402
 30
0.0
 10
212.941632164
 20
94.4090784245
 30
0.0
 10
213.6342053113
 20
98.9867061453
 30
0.0
  0
SPLINE
  5
3E0
100
AcDbEntity
  8
RACCORDO
100
AcDbSpline
 62
250
  6
CONTINUOUS
 70
0
 71
3
 72
9
 73
5
 74
0
 42
0.0000001
 43
0.0000001
 44
0.0000000001
 40
0.0
 40
0.0
 40
0.0
 40
0.0
 40
0.2439630597
 40
1.0
 40
1.0
 40
1.0
 40
1.0
 10
214.0437145313
 20
27.2956515298
 30
0.0
 10
213.8067390682
 20
28.6154144417
 30
0.0
 10
212.9304236814
 20
34.041944878
 30
0.0
 10
212.4259270985
 20
39.5267847252
 30
0.0
 10
212.2304447515
 20
43.6775140389
 30
0.0
  0
SPLINE
  5
3E1
100
AcDbEntity
  8
0
100
AcDbSpline
 62
250
  6
CONTINUOUS
 70
0
 71
3
 72
11
 73
7
 74
0
 42
0.0000001
 43
0.0000001
 44
0.0000000001
 40
0.0
 40
0.0
 40
0.0
 40
0.0
 40
0.2194945544
 40
0.4533176047
 40
0.7118788164
 40
1.0
 40
1.0
 40
1.0
 40
1.0
 10
117.7820143349
 20
133.2730829014
 30
0.0
 10
117.7663535001
 20
133.2821188604
 30
0.0
 10
117.7306208639
 20
133.2953875925
 30
0.0
 10
117.6712740107
 20
133.2979448124
 30
0.0
 10
117.6078974953
 20
133.2842086657
 30
0.0
 10
117.5664883163
 20
133.2657799674
 30
0.0
 10
117.5456306129
 20
133.254455415
 30
0.0
  0
SPLINE
  5
3E2
100
AcDbEntity
  8
RACCORDO
100
AcDbSpline
 62
250
  6
CONTINUOUS
 70
0
 71
3
 72
9
 73
5
 74
0
 42
0.0000001
 43
0.0000001
 44
0.0000000001
 40
0.0
 40
0.0
 40
0.0
 40
0.0
 40
0.245544339
 40
1.0
 40
1.0
 40
1.0
 40
1.0
 10
212.2304447515
 20
43.6775140389
 30
0.0
 10
212.0879882916
 20
46.702357008
 30
0.0
 10
211.6572615231
 20
59.0280391395
 30
0.0
 10
211.8131264424
 20
71.3728292523
 30
0.0
 10
212.2304447515
 20
80.6678519401
 30
0.0
  0
SPLINE
  5
3E3
100
AcDbEntity
  8
RACCORDO
100
AcDbSpline
 62
250
  6
CONTINUOUS
 70
0
 71
3
 72
9
 73
5
 74
0
 42
0.0000001
 43
0.0000001
 44
0.0000000001
 40
0.0
 40
0.0
 40
0.0
 40
0.0
 40
0.2449458894
 40
1.0
 40
1.0
 40
1.0
 40
1.0
 10
212.2304447515
 20
80.6678519401
 30
0.0
 10
212.29768796
 20
82.1655621322
 30
0.0
 10
212.6578366051
 20
88.2759949054
 30
0.0
 10
213.3523226596
 20
94.3657043862
 30
0.0
 10
214.0437145313
 20
98.9350871266
 30
0.0
  0
SPLINE
  5
3E4
100
AcDbEntity
  8
RACCORDO
100
AcDbSpline
 62
250
  6
CONTINUOUS
 70
0
 71
3
 72
11
 73
7
 74
0
 42
0.0000001
 43
0.0000001
 44
0.0000000001
 40
0.0
 40
0.0
 40
0.0
 40
0.0
 40
0.2102428239
 40
0.4408246009
 40
0.7027988546
 40
1.0
 40
1.0
 40
1.0
 40
1.0
 10
196.7112779932
 20
52.8261120638
 30
0.0
 10
196.6868965487
 20
52.8133041691
 30
0.0
 10
196.6302686433
 20
52.7961456572
 30
0.0
 10
196.5370365111
 20
52.7995651532
 30
0.0
 10
196.4370855101
 20
52.8292628643
 30
0.0
 10
196.3718185721
 20
52.863404914
 30
0.0
 10
196.3387041993
 20
52.8838777148
 30
0.0
  0
SPLINE
  5
3E5
100
AcDbEntity
  8
0
100
AcDbSpline
 62
250
  6
CONTINUOUS
 70
0
 71
3
 72
9
 73
5
 74
0
 42
0.0000001
 43
0.0000001
 44
0.0000000001
 40
0.0
 40
0.0
 40
0.0
 40
0.0
 40
0.4520578143
 40
1.0
 40
1.0
 40
1.0
 40
1.0
 10
116.9413806523
 20
133.5618094123
 30
0.0
 10
116.9546350093
 20
133.5684215107
 30
0.0
 10
116.9895268205
 20
133.5721925141
 30
0.0
 10
117.0203532877
 20
133.5583473261
 30
0.0
 10
117.035628259
 20
133.5489125512
 30
0.0
  0
SPLINE
  5
3E6
100
AcDbEntity
  8
RACCORDO
100
AcDbSpline
 62
250
  6
CONTINUOUS
 70
0
 71
3
 72
11
 73
7
 74
0
 42
0.0000001
 43
0.0000001
 44
0.0000000001
 40
0.0
 40
0.0
 40
0.0
 40
0.0
 40
0.2276809535
 40
0.4764062366
 40
0.7374029671
 40
1.0
 40
1.0
 40
1.0
 40
1.0
 10
196.0041622715
 20
90.4186554773
 30
0.0
 10
196.0879264488
 20
90.3702921638
 30
0.0
 10
196.2509670671
 20
90.2473795657
 30
0.0
 10
196.4627178896
 20
90.0146152844
 30
0.0
 10
196.6421447311
 20
89.7383584335
 30
0.0
 10
196.7337732452
 20
89.5345167377
 30
0.0
 10
196.771239214
 20
89.4294397019
 30
0.0
  0
SPLINE
  5
3E7
100
AcDbEntity
  8
RACCORDO
100
AcDbSpline
 62
250
  6
CONTINUOUS
 70
0
 71
3
 72
13
 73
9
 74
0
 42
0.0000001
 43
0.0000001
 44
0.0000000001
 40
0.0
 40
0.0
 40
0.0
 40
0.0
 40
0.1201640491
 40
0.2355361294
 40
0.3493927353
 40
0.4652909815
 40
0.7142794094
 40
1.0
 40
1.0
 40
1.0
 40
1.0
 10
163.9898228119
 20
108.301887483
 30
0.0
 10
164.0104045761
 20
108.3336581758
 30
0.0
 10
164.0566924507
 20
108.3924023868
 30
0.0
 10
164.142216729
 20
108.4630562667
 30
0.0
 10
164.2402803675
 20
108.5121628252
 30
0.0
 10
164.3879288966
 20
108.54825394
 30
0.0
 10
164.5974856965
 20
108.5305718839
 30
0.0
 10
164.7540049149
 20
108.4621082754
 30
0.0
 10
164.8319525435
 20
108.4170986947
 30
0.0
  0
SPLINE
  5
3E8
100
AcDbEntity
  8
RACCORDO
100
AcDbSpline
 62
250
  6
CONTINUOUS
 70
0
 71
3
 72
11
 73
7
 74
0
 42
0.0000001
 43
0.0000001
 44
0.0000000001
 40
0.0
 40
0.0
 40
0.0
 40
0.0
 40
0.2102428239
 40
0.4408246009
 40
0.7027988546
 40
1.0
 40
1.0
 40
1.0
 40
1.0
 10
146.5066965289
 20
81.8136081901
 30
0.0
 10
146.4823150844
 20
81.8008002954
 30
0.0
 10
146.4256871791
 20
81.7836417835
 30
0.0
 10
146.3324550469
 20
81.7870612794
 30
0.0
 10
146.2325040459
 20
81.8167589906
 30
0.0
 10
146.1672371079
 20
81.8509010403
 30
0.0
 10
146.1341227351
 20
81.871373841
 30
0.0
  0
SPLINE
  5
3E9
100
AcDbEntity
  8
RACCORDO
100
AcDbSpline
 62
250
  6
CONTINUOUS
 70
0
 71
3
 72
11
 73
7
 74
0
 42
0.0000001
 43
0.0000001
 44
0.0000000001
 40
0.0
 40
0.0
 40
0.0
 40
0.0
 40
0.2276809535
 40
0.4764062366
 40
0.7374029671
 40
1.0
 40
1.0
 40
1.0
 40
1.0
 10
145.7995808072
 20
119.4061516036
 30
0.0
 10
145.8833449845
 20
119.35778829
 30
0.0
 10
146.0463856029
 20
119.234875692
 30
0.0
 10
146.2581364253
 20
119.0021114107
 30
0.0
 10
146.4375632669
 20
118.7258545597
 30
0.0
 10
146.529191781
 20
118.522012864
 30
0.0
 10
146.5666577498
 20
118.4169358282
 30
0.0
  0
SPLINE
  5
3EA
100
AcDbEntity
  8
RACCORDO
100
AcDbSpline
 62
250
  6
CONTINUOUS
 70
0
 71
3
 72
14
 73
10
 74
0
 42
0.0000001
 43
0.0000001
 44
0.0000000001
 40
0.0
 40
0.0
 40
0.0
 40
0.0
 40
0.114403061
 40
0.2239078703
 40
0.3330256162
 40
0.4463842506
 40
0.5678320739
 40
0.699976577
 40
1.0
 40
1.0
 40
1.0
 40
1.0
 10
146.5897130095
 20
81.3334782307
 30
0.0
 10
146.5728527745
 20
81.3039616939
 30
0.0
 10
146.5337807458
 20
81.2493002378
 30
0.0
 10
146.4579746036
 20
81.1841634333
 30
0.0
 10
146.3684676759
 20
81.1402631417
 30
0.0
 10
146.2676770263
 20
81.118574592
 30
0.0
 10
146.1579063807
 20
81.1190756403
 30
0.0
 10
145.9956468002
 20
81.1499734033
 30
0.0
 10
145.8767790749
 20
81.2037093084
 30
0.0
 10
145.7995808072
 20
81.2482897407
 30
0.0
  0
SPLINE
  5
3EB
100
AcDbEntity
  8
RACCORDO
100
AcDbSpline
 62
250
  6
CONTINUOUS
 70
0
 71
3
 72
9
 73
5
 74
0
 42
0.0000001
 43
0.0000001
 44
0.0000000001
 40
0.0
 40
0.0
 40
0.0
 40
0.0
 40
0.2456612916
 40
1.0
 40
1.0
 40
1.0
 40
1.0
 10
114.3475958897
 20
100.8197377476
 30
0.0
 10
114.2126373293
 20
103.7650706626
 30
0.0
 10
113.8046634847
 20
115.7606909815
 30
0.0
 10
113.951994547
 20
127.7739480621
 30
0.0
 10
114.3475953006
 20
136.8188632088
 30
0.0
  0
SPLINE
  5
3EC
100
AcDbEntity
  8
RACCORDO
100
AcDbSpline
 62
250
  6
CONTINUOUS
 70
0
 71
3
 72
11
 73
7
 74
0
 42
0.0000001
 43
0.0000001
 44
0.0000000001
 40
0.0
 40
0.0
 40
0.0
 40
0.0
 40
0.20999682
 40
0.4358199463
 40
0.6965935411
 40
1.0
 40
1.0
 40
1.0
 40
1.0
 10
213.8764795155
 20
26.8550784321
 30
0.0
 10
213.9083243511
 20
26.8698133648
 30
0.0
 10
213.9685039477
 20
26.9153179769
 30
0.0
 10
214.026053913
 20
27.019401012
 30
0.0
 10
214.0518255017
 20
27.150351463
 30
0.0
 10
214.049100778
 20
27.2452419126
 30
0.0
 10
214.0437145313
 20
27.2956515298
 30
0.0
  0
SPLINE
  5
3ED
100
AcDbEntity
  8
RACCORDO
100
AcDbSpline
 62
250
  6
CONTINUOUS
 70
0
 71
3
 72
11
 73
7
 74
0
 42
0.0000001
 43
0.0000001
 44
0.0000000001
 40
0.0
 40
0.0
 40
0.0
 40
0.0
 40
0.2286279459
 40
0.4796895538
 40
0.741274551
 40
1.0
 40
1.0
 40
1.0
 40
1.0
 10
164.8319525435
 20
70.2592368318
 30
0.0
 10
164.7428753526
 20
70.3106671724
 30
0.0
 10
164.5683631188
 20
70.4404222828
 30
0.0
 10
164.3376436594
 20
70.6829593771
 30
0.0
 10
164.1381400255
 20
70.9684092375
 30
0.0
 10
164.0331347921
 20
71.1788322188
 30
0.0
 10
163.9898228119
 20
71.2868729053
 30
0.0
  0
SPLINE
  5
3EE
100
AcDbEntity
  8
RACCORDO
100
AcDbSpline
 62
250
  6
CONTINUOUS
 70
0
 71
3
 72
14
 73
10
 74
0
 42
0.0000001
 43
0.0000001
 44
0.0000000001
 40
0.0
 40
0.0
 40
0.0
 40
0.0
 40
0.114403061
 40
0.2239078703
 40
0.3330256162
 40
0.4463842506
 40
0.5678320739
 40
0.699976577
 40
1.0
 40
1.0
 40
1.0
 40
1.0
 10
196.7942944737
 20
52.3459821044
 30
0.0
 10
196.7774342387
 20
52.3164655676
 30
0.0
 10
196.7383622101
 20
52.2618041115
 30
0.0
 10
196.6625560678
 20
52.196667307
 30
0.0
 10
196.5730491402
 20
52.1527670154
 30
0.0
 10
196.4722584905
 20
52.1310784657
 30
0.0
 10
196.362487845
 20
52.131579514
 30
0.0
 10
196.2002282644
 20
52.1624772771
 30
0.0
 10
196.0813605392
 20
52.2162131821
 30
0.0
 10
196.0041622715
 20
52.2607936144
 30
0.0
  0
SPLINE
  5
3EF
100
AcDbEntity
  8
0
100
AcDbSpline
 62
250
  6
CONTINUOUS
 70
0
 71
3
 72
11
 73
7
 74
0
 42
0.0000001
 43
0.0000001
 44
0.0000000001
 40
0.0
 40
0.0
 40
0.0
 40
0.0
 40
0.2194945544
 40
0.4533176047
 40
0.7118788164
 40
1.0
 40
1.0
 40
1.0
 40
1.0
 10
167.9865957991
 20
104.2855867751
 30
0.0
 10
167.9709349643
 20
104.2946227341
 30
0.0
 10
167.9352023282
 20
104.3078914663
 30
0.0
 10
167.875855475
 20
104.3104486861
 30
0.0
 10
167.8124789595
 20
104.2967125395
 30
0.0
 10
167.7710697806
 20
104.2782838412
 30
0.0
 10
167.7502120772
 20
104.2669592888
 30
0.0
  0
SPLINE
  5
3F0
100
AcDbEntity
  8
RACCORDO
100
AcDbSpline
 62
250
  6
CONTINUOUS
 70
0
 71
3
 72
9
 73
5
 74
0
 42
0.0000001
 43
0.0000001
 44
0.0000000001
 40
0.0
 40
0.0
 40
0.0
 40
0.0
 40
0.243962173
 40
1.0
 40
1.0
 40
1.0
 40
1.0
 10
213.6342053113
 20
27.2603996091
 30
0.0
 10
213.3968243503
 20
28.5825246049
 30
0.0
 10
212.5190100499
 20
34.0187851141
 30
0.0
 10
212.0136551757
 20
39.5134504528
 30
0.0
 10
211.817840641
 20
43.6716193048
 30
0.0
  0
SPLINE
  5
3F1
100
AcDbEntity
  8
RACCORDO
100
AcDbSpline
 62
250
  6
CONTINUOUS
 70
0
 71
3
 72
9
 73
5
 74
0
 42
0.0000001
 43
0.0000001
 44
0.0000000001
 40
0.0
 40
0.0
 40
0.0
 40
0.0
 40
0.2607204997
 40
1.0
 40
1.0
 40
1.0
 40
1.0
 10
213.2358743026
 20
27.0184113333
 30
0.0
 10
213.2429024518
 20
27.0143531404
 30
0.0
 10
213.2700938022
 20
26.9992033744
 30
0.0
 10
213.2982525436
 20
26.9857474081
 30
0.0
 10
213.3195796185
 20
26.9771036688
 30
0.0
  0
SPLINE
  5
3F2
100
AcDbEntity
  8
RACCORDO
100
AcDbSpline
 62
250
  6
CONTINUOUS
 70
0
 71
3
 72
15
 73
11
 74
0
 42
0.0000001
 43
0.0000001
 44
0.0000000001
 40
0.0
 40
0.0
 40
0.0
 40
0.0
 40
0.1487362475
 40
0.2766544839
 40
0.3876232344
 40
0.48990754
 40
0.5945789695
 40
0.7113437602
 40
0.8458466563
 40
1.0
 40
1.0
 40
1.0
 40
1.0
 10
213.3195796185
 20
26.9771036688
 30
0.0
 10
213.3454374251
 20
26.9666236502
 30
0.0
 10
213.3951253011
 20
26.9505724061
 30
0.0
 10
213.4681142371
 20
26.9428914975
 30
0.0
 10
213.5322365263
 20
26.9545288227
 30
0.0
 10
213.5843548325
 20
26.9865588315
 30
0.0
 10
213.6207071006
 20
27.0368931228
 30
0.0
 10
213.640725737
 20
27.1014917837
 30
0.0
 10
213.6455029246
 20
27.1778958556
 30
0.0
 10
213.6393140801
 20
27.2319374567
 30
0.0
 10
213.6342053113
 20
27.2603996091
 30
0.0
  0
SPLINE
  5
3F3
100
AcDbEntity
  8
RACCORDO
100
AcDbSpline
 62
250
  6
CONTINUOUS
 70
0
 71
3
 72
11
 73
7
 74
0
 42
0.0000001
 43
0.0000001
 44
0.0000000001
 40
0.0
 40
0.0
 40
0.0
 40
0.0
 40
0.2247952417
 40
0.4861559178
 40
0.7556589687
 40
1.0
 40
1.0
 40
1.0
 40
1.0
 10
100.3974611186
 20
92.6418765162
 30
0.0
 10
100.4097728211
 20
92.5665097828
 30
0.0
 10
100.464106465
 20
92.4082036234
 30
0.0
 10
100.5953030794
 20
92.1861527452
 30
0.0
 10
100.7679592759
 20
91.9856239032
 30
0.0
 10
100.9062996085
 20
91.8761046546
 30
0.0
 10
100.978181421
 20
91.8345962838
 30
0.0
  0
SPLINE
  5
3F4
100
AcDbEntity
  8
RACCORDO
100
AcDbSpline
 62
250
  6
CONTINUOUS
 70
0
 71
3
 72
9
 73
5
 74
0
 42
0.0000001
 43
0.0000001
 44
0.0000000001
 40
0.0
 40
0.0
 40
0.0
 40
0.0
 40
0.5093318892
 40
1.0
 40
1.0
 40
1.0
 40
1.0
 10
98.7616910844
 20
108.948823247
 30
0.0
 10
98.8790565413
 20
106.188862696
 30
0.0
 10
99.2556092097
 20
100.7750531074
 30
0.0
 10
99.9509401693
 20
95.3921778628
 30
0.0
 10
100.3773555736
 20
92.765334371
 30
0.0
  0
SPLINE
  5
3F5
100
AcDbEntity
  8
RACCORDO
100
AcDbSpline
 62
250
  6
CONTINUOUS
 70
0
 71
3
 72
9
 73
5
 74
0
 42
0.0000001
 43
0.0000001
 44
0.0000000001
 40
0.0
 40
0.0
 40
0.0
 40
0.0
 40
0.2456612916
 40
1.0
 40
1.0
 40
1.0
 40
1.0
 10
164.5521773539
 20
71.8322416213
 30
0.0
 10
164.4172187936
 20
74.7775745363
 30
0.0
 10
164.0092449489
 20
86.7731948553
 30
0.0
 10
164.1565760112
 20
98.7864519358
 30
0.0
 10
164.5521767648
 20
107.8313670825
 30
0.0
  0
SPLINE
  5
3F6
100
AcDbEntity
  8
RACCORDO
100
AcDbSpline
 62
250
  6
CONTINUOUS
 70
0
 71
3
 72
11
 73
7
 74
0
 42
0.0000001
 43
0.0000001
 44
0.0000000001
 40
0.0
 40
0.0
 40
0.0
 40
0.0
 40
0.2286279459
 40
0.4796895538
 40
0.741274551
 40
1.0
 40
1.0
 40
1.0
 40
1.0
 10
114.6273710793
 20
99.246732958
 30
0.0
 10
114.5382938884
 20
99.2981632987
 30
0.0
 10
114.3637816545
 20
99.427918409
 30
0.0
 10
114.1330621952
 20
99.6704555033
 30
0.0
 10
113.9335585613
 20
99.9559053638
 30
0.0
 10
113.8285533278
 20
100.1663283451
 30
0.0
 10
113.7852413477
 20
100.2743690316
 30
0.0
  0
SPLINE
  5
3F7
100
AcDbEntity
  8
RACCORDO
100
AcDbSpline
 62
250
  6
CONTINUOUS
 70
0
 71
3
 72
9
 73
5
 74
0
 42
0.0000001
 43
0.0000001
 44
0.0000000001
 40
0.0
 40
0.0
 40
0.0
 40
0.0
 40
0.2799452606
 40
1.0
 40
1.0
 40
1.0
 40
1.0
 10
146.6729884949
 20
81.7490504955
 30
0.0
 10
146.6746348518
 20
81.709269127
 30
0.0
 10
146.6735630901
 20
81.5674611816
 30
0.0
 10
146.6406078906
 20
81.4223465827
 30
0.0
 10
146.5897130095
 20
81.3334782307
 30
0.0
  0
SPLINE
  5
3F8
100
AcDbEntity
  8
RACCORDO
100
AcDbSpline
 62
250
  6
CONTINUOUS
 70
0
 71
3
 72
9
 73
5
 74
0
 42
0.0000001
 43
0.0000001
 44
0.0000000001
 40
0.0
 40
0.0
 40
0.0
 40
0.0
 40
0.5064534018
 40
1.0
 40
1.0
 40
1.0
 40
1.0
 10
146.6729884949
 20
117.7881814947
 30
0.0
 10
146.4341123158
 20
111.7075912484
 30
0.0
 10
146.1892707198
 20
99.6912014376
 30
0.0
 10
146.4278711533
 20
87.6741816511
 30
0.0
 10
146.6729884949
 20
81.7490504955
 30
0.0
  0
SPLINE
  5
3F9
100
AcDbEntity
  8
RACCORDO
100
AcDbSpline
 62
250
  6
CONTINUOUS
 70
0
 71
3
 72
9
 73
5
 74
0
 42
0.0000001
 43
0.0000001
 44
0.0000000001
 40
0.0
 40
0.0
 40
0.0
 40
0.0
 40
0.5192714452
 40
1.0
 40
1.0
 40
1.0
 40
1.0
 10
146.5897130095
 20
118.3484928083
 30
0.0
 10
146.6195099505
 20
118.2547014513
 30
0.0
 10
146.6638026439
 20
118.0695820086
 30
0.0
 10
146.6765687138
 20
117.8792173424
 30
0.0
 10
146.6729884949
 20
117.7881814947
 30
0.0
  0
SPLINE
  5
3FA
100
AcDbEntity
  8
RACCORDO
100
AcDbSpline
 62
250
  6
CONTINUOUS
 70
0
 71
3
 72
11
 73
7
 74
0
 42
0.0000001
 43
0.0000001
 44
0.0000000001
 40
0.0
 40
0.0
 40
0.0
 40
0.0
 40
0.2791550624
 40
0.5334298274
 40
0.7697643106
 40
1.0
 40
1.0
 40
1.0
 40
1.0
 10
101.1756859275
 20
165.0296528149
 30
0.0
 10
101.127934488
 20
165.0563319535
 30
0.0
 10
101.0313381427
 20
165.0987702339
 30
0.0
 10
100.8809002597
 20
165.1245077036
 30
0.0
 10
100.7384940251
 20
165.1067368828
 30
0.0
 10
100.654614559
 20
165.0657501332
 30
0.0
 10
100.6177430799
 20
165.0397555361
 30
0.0
  0
SPLINE
  5
3FB
100
AcDbEntity
  8
RACCORDO
100
AcDbSpline
 62
250
  6
CONTINUOUS
 70
0
 71
3
 72
9
 73
5
 74
0
 42
0.0000001
 43
0.0000001
 44
0.0000000001
 40
0.0
 40
0.0
 40
0.0
 40
0.0
 40
0.2743822942
 40
1.0
 40
1.0
 40
1.0
 40
1.0
 10
163.8644831942
 20
107.8620279154
 30
0.0
 10
163.866320816
 20
107.9040769607
 30
0.0
 10
163.8805795396
 20
108.0565202343
 30
0.0
 10
163.9292121238
 20
108.2085302128
 30
0.0
 10
163.9898228119
 20
108.301887483
 30
0.0
  0
SPLINE
  5
3FC
100
AcDbEntity
  8
RACCORDO
100
AcDbSpline
 62
250
  6
CONTINUOUS
 70
0
 71
3
 72
11
 73
7
 74
0
 42
0.0000001
 43
0.0000001
 44
0.0000000001
 40
0.0
 40
0.0
 40
0.0
 40
0.0
 40
0.2437245053
 40
0.5070496853
 40
0.7667005964
 40
1.0
 40
1.0
 40
1.0
 40
1.0
 10
214.0437145313
 20
98.9350871266
 30
0.0
 10
214.0552151332
 20
99.054635612
 30
0.0
 10
214.0368637323
 20
99.3078817906
 30
0.0
 10
213.9157991747
 20
99.6693322417
 30
0.0
 10
213.7157809439
 20
99.9878615342
 30
0.0
 10
213.53209986
 20
100.1545552832
 30
0.0
 10
213.433378809
 20
100.2134678644
 30
0.0
  0
SPLINE
  5
3FD
100
AcDbEntity
  8
RACCORDO
100
AcDbSpline
 62
250
  6
CONTINUOUS
 70
0
 71
3
 72
11
 73
7
 74
0
 42
0.0000001
 43
0.0000001
 44
0.0000000001
 40
0.0
 40
0.0
 40
0.0
 40
0.0
 40
0.2459794376
 40
0.5070714977
 40
0.7644116438
 40
1.0
 40
1.0
 40
1.0
 40
1.0
 10
100.978181421
 20
164.7154806207
 30
0.0
 10
100.9827012054
 20
164.7463582037
 30
0.0
 10
101.0000887922
 20
164.8089286688
 30
0.0
 10
101.0440018685
 20
164.8959993997
 30
0.0
 10
101.1025160208
 20
164.9723593922
 30
0.0
 10
101.1504878286
 20
165.0135789566
 30
0.0
 10
101.1756859272
 20
165.029652815
 30
0.0
  0
SPLINE
  5
3FE
100
AcDbEntity
  8
RACCORDO
100
AcDbSpline
 62
250
  6
CONTINUOUS
 70
0
 71
3
 72
11
 73
7
 74
0
 42
0.0000001
 43
0.0000001
 44
0.0000000001
 40
0.0
 40
0.0
 40
0.0
 40
0.0
 40
0.3146559746
 40
0.5821354381
 40
0.8053036157
 40
1.0
 40
1.0
 40
1.0
 40
1.0
 10
100.3974611665
 20
164.3681830702
 30
0.0
 10
100.3833259109
 20
164.3761686994
 30
0.0
 10
100.3580957229
 20
164.3927572786
 30
0.0
 10
100.3281449965
 20
164.4220391794
 30
0.0
 10
100.3101380712
 20
164.4532140705
 30
0.0
 10
100.3075873977
 20
164.4754859826
 30
0.0
 10
100.3089339193
 20
164.4854408993
 30
0.0
  0
SPLINE
  5
3FF
100
AcDbEntity
  8
RACCORDO
100
AcDbSpline
 62
250
  6
CONTINUOUS
 70
0
 71
3
 72
11
 73
7
 74
0
 42
0.0000001
 43
0.0000001
 44
0.0000000001
 40
0.0
 40
0.0
 40
0.0
 40
0.0
 40
0.2959796839
 40
0.5572281439
 40
0.7878045642
 40
1.0
 40
1.0
 40
1.0
 40
1.0
 10
98.761692991
 20
145.9637921502
 30
0.0
 10
98.7482123207
 20
145.971532616
 30
0.0
 10
98.7238734561
 20
145.9881147058
 30
0.0
 10
98.6948997919
 20
146.0181716521
 30
0.0
 10
98.6769669054
 20
146.0511412691
 30
0.0
 10
98.6733485728
 20
146.0747318497
 30
0.0
 10
98.6738007817
 20
146.0858671947
 30
0.0
  0
SPLINE
  5
400
100
AcDbEntity
  8
RACCORDO
100
AcDbSpline
 62
250
  6
CONTINUOUS
 70
0
 71
3
 72
10
 73
6
 74
0
 42
0.0000001
 43
0.0000001
 44
0.0000000001
 40
0.0
 40
0.0
 40
0.0
 40
0.0
 40
0.5403953916
 40
0.776598005
 40
1.0
 40
1.0
 40
1.0
 40
1.0
 10
98.7616929941
 20
108.9487775755
 30
0.0
 10
98.7374238618
 20
108.9628604158
 30
0.0
 10
98.7046651965
 20
108.9891375648
 30
0.0
 10
98.6792892786
 20
109.0351035163
 30
0.0
 10
98.6743471632
 20
109.0589220191
 30
0.0
 10
98.673834696
 20
109.0705104873
 30
0.0
  0
SPLINE
  5
401
100
AcDbEntity
  8
RACCORDO
100
AcDbSpline
 62
250
  6
CONTINUOUS
 70
0
 71
3
 72
9
 73
5
 74
0
 42
0.0000001
 43
0.0000001
 44
0.0000000001
 40
0.0
 40
0.0
 40
0.0
 40
0.0
 40
0.5272729655
 40
1.0
 40
1.0
 40
1.0
 40
1.0
 10
100.3974611617
 20
92.6418765501
 30
0.0
 10
100.3749410947
 20
92.655074587
 30
0.0
 10
100.3354178593
 20
92.6872297079
 30
0.0
 10
100.31394019
 20
92.7343911485
 30
0.0
 10
100.3101627656
 20
92.7574865115
 30
0.0
  0
SPLINE
  5
402
100
AcDbEntity
  8
0
100
AcDbSpline
 62
250
  6
CONTINUOUS
 70
0
 71
3
 72
9
 73
5
 74
0
 42
0.0000001
 43
0.0000001
 44
0.0000000001
 40
0.0
 40
0.0
 40
0.0
 40
0.0
 40
0.5479316456
 40
1.0
 40
1.0
 40
1.0
 40
1.0
 10
128.6914519093
 20
94.989852578
 30
0.0
 10
128.6919845175
 20
94.9719119899
 30
0.0
 10
128.6885618247
 20
94.9383028619
 30
0.0
 10
128.6678605639
 20
94.909977263
 30
0.0
 10
128.6555122296
 20
94.9018038375
 30
0.0
  0
SPLINE
  5
403
100
AcDbEntity
  8
0
100
AcDbSpline
 62
250
  6
CONTINUOUS
 70
0
 71
3
 72
11
 73
7
 74
0
 42
0.0000001
 43
0.0000001
 44
0.0000000001
 40
0.0
 40
0.0
 40
0.0
 40
0.0
 40
0.2390840703
 40
0.5016460438
 40
0.7633094348
 40
1.0
 40
1.0
 40
1.0
 40
1.0
 10
128.5464152874
 20
95.8214772674
 30
0.0
 10
128.5670409807
 20
95.8103648583
 30
0.0
 10
128.6061927535
 20
95.7792755502
 30
0.0
 10
128.6519162205
 20
95.7193122277
 30
0.0
 10
128.6829851151
 20
95.6508607396
 30
0.0
 10
128.6916201186
 20
95.6019149645
 30
0.0
 10
128.6914519093
 20
95.5787214041
 30
0.0
  0
SPLINE
  5
404
100
AcDbEntity
  8
0
100
AcDbSpline
 62
250
  6
CONTINUOUS
 70
0
 71
3
 72
10
 73
6
 74
0
 42
0.0000001
 43
0.0000001
 44
0.0000000001
 40
0.0
 40
0.0
 40
0.0
 40
0.0
 40
0.5470711245
 40
0.7811182353
 40
1.0
 40
1.0
 40
1.0
 40
1.0
 10
128.5391412113
 20
96.0600298687
 30
0.0
 10
128.5555125639
 20
96.069317515
 30
0.0
 10
128.5816057374
 20
96.0795124657
 30
0.0
 10
128.616428623
 20
96.0784716916
 30
0.0
 10
128.63138581
 20
96.0729897592
 30
0.0
 10
128.6379073846
 20
96.0692238944
 30
0.0
  0
SPLINE
  5
405
100
AcDbEntity
  8
0
100
AcDbSpline
 62
250
  6
CONTINUOUS
 70
0
 71
3
 72
10
 73
6
 74
0
 42
0.0000001
 43
0.0000001
 44
0.0000000001
 40
0.0
 40
0.0
 40
0.0
 40
0.0
 40
0.5470711155
 40
0.781118229
 40
1.0
 40
1.0
 40
1.0
 40
1.0
 10
126.9592445927
 20
96.9722423755
 30
0.0
 10
126.9756159462
 20
96.9815300209
 30
0.0
 10
127.0017091206
 20
96.9917249701
 30
0.0
 10
127.0365320075
 20
96.9906841965
 30
0.0
 10
127.0514891951
 20
96.9852022635
 30
0.0
 10
127.0580107703
 20
96.9814363987
 30
0.0
  0
SPLINE
  5
406
100
AcDbEntity
  8
0
100
AcDbSpline
 62
250
  6
CONTINUOUS
 70
0
 71
3
 72
10
 73
6
 74
0
 42
0.0000001
 43
0.0000001
 44
0.0000000001
 40
0.0
 40
0.0
 40
0.0
 40
0.0
 40
0.5490434471
 40
0.7824232365
 40
1.0
 40
1.0
 40
1.0
 40
1.0
 10
126.5425130503
 20
96.9785053043
 30
0.0
 10
126.5270361145
 20
96.9880824999
 30
0.0
 10
126.5023004662
 20
96.9989614367
 30
0.0
 10
126.468732631
 20
96.9993704721
 30
0.0
 10
126.4541813773
 20
96.9946800433
 30
0.0
 10
126.4478058556
 20
96.991307556
 30
0.0
  0
SPLINE
  5
407
100
AcDbEntity
  8
RACCORDO
100
AcDbSpline
 62
250
  6
CONTINUOUS
 70
0
 71
3
 72
9
 73
5
 74
0
 42
0.0000001
 43
0.0000001
 44
0.0000000001
 40
0.0
 40
0.0
 40
0.0
 40
0.0
 40
0.5348895626
 40
1.0
 40
1.0
 40
1.0
 40
1.0
 10
100.978181421
 20
91.8345962838
 30
0.0
 10
100.9817165891
 20
91.814527715
 30
0.0
 10
100.9936514258
 20
91.777283075
 30
0.0
 10
101.0214345734
 20
91.7485674707
 30
0.0
 10
101.0367832204
 20
91.7397137108
 30
0.0
  0
SPLINE
  5
408
100
AcDbEntity
  8
0
100
AcDbSpline
 62
250
  6
CONTINUOUS
 70
0
 71
3
 72
10
 73
6
 74
0
 42
0.0000001
 43
0.0000001
 44
0.0000000001
 40
0.0
 40
0.0
 40
0.0
 40
0.0
 40
0.5490361059
 40
0.7824180822
 40
1.0
 40
1.0
 40
1.0
 40
1.0
 10
117.6833346074
 20
130.6936336927
 30
0.0
 10
117.6838896348
 20
130.6754447203
 30
0.0
 10
117.6809429689
 20
130.6485880697
 30
0.0
 10
117.6645157593
 20
130.6193176173
 30
0.0
 10
117.6531800586
 20
130.6090621862
 30
0.0
 10
117.647072641
 20
130.6052272481
 30
0.0
  0
SPLINE
  5
409
100
AcDbEntity
  8
0
100
AcDbSpline
 62
250
  6
CONTINUOUS
 70
0
 71
3
 72
10
 73
6
 74
0
 42
0.0000001
 43
0.0000001
 44
0.0000000001
 40
0.0
 40
0.0
 40
0.0
 40
0.0
 40
0.547056766
 40
0.7811084586
 40
1.0
 40
1.0
 40
1.0
 40
1.0
 10
117.8862766999
 20
131.0576649528
 30
0.0
 10
117.9025045228
 20
131.067199671
 30
0.0
 10
117.9243783389
 20
131.0847005975
 30
0.0
 10
117.9408867592
 20
131.1153787345
 30
0.0
 10
117.9436178715
 20
131.1310731844
 30
0.0
 10
117.9436175306
 20
131.1386041976
 30
0.0
  0
SPLINE
  5
40A
100
AcDbEntity
  8
0
100
AcDbSpline
 62
250
  6
CONTINUOUS
 70
0
 71
3
 72
10
 73
6
 74
0
 42
0.0000001
 43
0.0000001
 44
0.0000000001
 40
0.0
 40
0.0
 40
0.0
 40
0.0
 40
0.5470566055
 40
0.7811084857
 40
1.0
 40
1.0
 40
1.0
 40
1.0
 10
117.8862766999
 20
132.8819136572
 30
0.0
 10
117.9025043868
 20
132.8914482941
 30
0.0
 10
117.9243780237
 20
132.908949037
 30
0.0
 10
117.9408865085
 20
132.9396268021
 30
0.0
 10
117.9436177752
 20
132.9553210909
 30
0.0
 10
117.9436175306
 20
132.962852042
 30
0.0
  0
SPLINE
  5
40B
100
AcDbEntity
  8
0
100
AcDbSpline
 62
250
  6
CONTINUOUS
 70
0
 71
3
 72
11
 73
7
 74
0
 42
0.0000001
 43
0.0000001
 44
0.0000000001
 40
0.0
 40
0.0
 40
0.0
 40
0.0
 40
0.2390754581
 40
0.5016341887
 40
0.7633008088
 40
1.0
 40
1.0
 40
1.0
 40
1.0
 10
117.6833346074
 20
133.0074661403
 30
0.0
 10
117.6840244514
 20
133.0308838775
 30
0.0
 10
117.6766768619
 20
133.0803340379
 30
0.0
 10
117.6476090291
 20
133.1499126223
 30
0.0
 10
117.6038621107
 20
133.2110454855
 30
0.0
 10
117.5657908029
 20
133.2429975852
 30
0.0
 10
117.5456200517
 20
133.2544496818
 30
0.0
  0
SPLINE
  5
40C
100
AcDbEntity
  8
0
100
AcDbSpline
 62
250
  6
CONTINUOUS
 70
0
 71
3
 72
9
 73
5
 74
0
 42
0.0000001
 43
0.0000001
 44
0.0000000001
 40
0.0
 40
0.0
 40
0.0
 40
0.0
 40
0.5479404655
 40
1.0
 40
1.0
 40
1.0
 40
1.0
 10
167.2402097233
 20
104.5614164249
 30
0.0
 10
167.2249358413
 20
104.5708505267
 30
0.0
 10
167.1941117975
 20
104.5846948191
 30
0.0
 10
167.1592225789
 20
104.5809266959
 30
0.0
 10
167.1459683827
 20
104.5743164115
 30
0.0
  0
SPLINE
  5
40D
100
AcDbEntity
  8
0
100
AcDbSpline
 62
250
  6
CONTINUOUS
 70
0
 71
3
 72
10
 73
6
 74
0
 42
0.0000001
 43
0.0000001
 44
0.0000000001
 40
0.0
 40
0.0
 40
0.0
 40
0.0
 40
0.5490361059
 40
0.7824180822
 40
1.0
 40
1.0
 40
1.0
 40
1.0
 10
167.8879160716
 20
101.7061375664
 30
0.0
 10
167.8884710991
 20
101.6879485941
 30
0.0
 10
167.8855244331
 20
101.6610919434
 30
0.0
 10
167.8690972235
 20
101.631821491
 30
0.0
 10
167.8577615229
 20
101.6215660599
 30
0.0
 10
167.8516541052
 20
101.6177311219
 30
0.0
  0
SPLINE
  5
40E
100
AcDbEntity
  8
0
100
AcDbSpline
 62
250
  6
CONTINUOUS
 70
0
 71
3
 72
10
 73
6
 74
0
 42
0.0000001
 43
0.0000001
 44
0.0000000001
 40
0.0
 40
0.0
 40
0.0
 40
0.0
 40
0.547056766
 40
0.7811084586
 40
1.0
 40
1.0
 40
1.0
 40
1.0
 10
168.0908581642
 20
102.0701688265
 30
0.0
 10
168.1070859871
 20
102.0797035448
 30
0.0
 10
168.1289598031
 20
102.0972044713
 30
0.0
 10
168.1454682234
 20
102.1278826082
 30
0.0
 10
168.1481993358
 20
102.1435770581
 30
0.0
 10
168.1481989949
 20
102.1511080713
 30
0.0
  0
SPLINE
  5
40F
100
AcDbEntity
  8
0
100
AcDbSpline
 62
250
  6
CONTINUOUS
 70
0
 71
3
 72
10
 73
6
 74
0
 42
0.0000001
 43
0.0000001
 44
0.0000000001
 40
0.0
 40
0.0
 40
0.0
 40
0.0
 40
0.5470566055
 40
0.7811084857
 40
1.0
 40
1.0
 40
1.0
 40
1.0
 10
168.0908581642
 20
103.894417531
 30
0.0
 10
168.107085851
 20
103.9039521678
 30
0.0
 10
168.128959488
 20
103.9214529107
 30
0.0
 10
168.1454679727
 20
103.9521306758
 30
0.0
 10
168.1481992395
 20
103.9678249647
 30
0.0
 10
168.1481989949
 20
103.9753559157
 30
0.0
  0
SPLINE
  5
410
100
AcDbEntity
  8
0
100
AcDbSpline
 62
250
  6
CONTINUOUS
 70
0
 71
3
 72
11
 73
7
 74
0
 42
0.0000001
 43
0.0000001
 44
0.0000000001
 40
0.0
 40
0.0
 40
0.0
 40
0.0
 40
0.2390754581
 40
0.5016341887
 40
0.7633008088
 40
1.0
 40
1.0
 40
1.0
 40
1.0
 10
167.8879160716
 20
104.019970014
 30
0.0
 10
167.8886059157
 20
104.0433877512
 30
0.0
 10
167.8812583262
 20
104.0928379116
 30
0.0
 10
167.8521904933
 20
104.1624164961
 30
0.0
 10
167.8084435749
 20
104.2235493592
 30
0.0
 10
167.7703722672
 20
104.255501459
 30
0.0
 10
167.750201516
 20
104.2669535555
 30
0.0
  0
SPLINE
  5
411
100
AcDbEntity
  8
0
100
AcDbSpline
 62
250
  6
CONTINUOUS
 70
0
 71
3
 72
11
 73
7
 74
0
 42
0.0000001
 43
0.0000001
 44
0.0000000001
 40
0.0
 40
0.0
 40
0.0
 40
0.0
 40
0.2366905665
 40
0.4983539583
 40
0.7609159315
 40
1.0
 40
1.0
 40
1.0
 40
1.0
 10
178.8960333735
 20
66.5912252778
 30
0.0
 10
178.896201583
 20
66.6144188384
 30
0.0
 10
178.8875665794
 20
66.6633646136
 30
0.0
 10
178.856497684
 20
66.7318161015
 30
0.0
 10
178.810774217
 20
66.7917794238
 30
0.0
 10
178.7716224447
 20
66.8228687319
 30
0.0
 10
178.7509967517
 20
66.8339811411
 30
0.0
  0
SPLINE
  5
412
100
AcDbEntity
  8
RACCORDO
100
AcDbSpline
 62
250
  6
CONTINUOUS
 70
0
 71
3
 72
9
 73
5
 74
0
 42
0.0000001
 43
0.0000001
 44
0.0000000001
 40
0.0
 40
0.0
 40
0.0
 40
0.0
 40
0.5348825492
 40
1.0
 40
1.0
 40
1.0
 40
1.0
 10
213.2358743026
 20
27.0184113333
 30
0.0
 10
213.2394073991
 20
26.998354618
 30
0.0
 10
213.2513323287
 20
26.9611324632
 30
0.0
 10
213.2790832386
 20
26.9324219375
 30
0.0
 10
213.2944172416
 20
26.9235627406
 30
0.0
  0
SPLINE
  5
413
100
AcDbEntity
  8
0
100
AcDbSpline
 62
250
  6
CONTINUOUS
 70
0
 71
3
 72
9
 73
5
 74
0
 42
0.0000001
 43
0.0000001
 44
0.0000000001
 40
0.0
 40
0.0
 40
0.0
 40
0.0
 40
0.5479316456
 40
1.0
 40
1.0
 40
1.0
 40
1.0
 10
178.8960333735
 20
66.0023564518
 30
0.0
 10
178.8965659817
 20
65.9844158636
 30
0.0
 10
178.8931432889
 20
65.9508067356
 30
0.0
 10
178.8724420282
 20
65.9224811367
 30
0.0
 10
178.8600936938
 20
65.9143077113
 30
0.0
  0
SPLINE
  5
414
100
AcDbEntity
  8
0
100
AcDbSpline
 62
250
  6
CONTINUOUS
 70
0
 71
3
 72
10
 73
6
 74
0
 42
0.0000001
 43
0.0000001
 44
0.0000000001
 40
0.0
 40
0.0
 40
0.0
 40
0.0
 40
0.2175767826
 40
0.4509565759
 40
1.0
 40
1.0
 40
1.0
 40
1.0
 10
176.6523873126
 20
68.0038114256
 30
0.0
 10
176.6587628356
 20
68.0071839127
 30
0.0
 10
176.6733140904
 20
68.0118743431
 30
0.0
 10
176.7068819278
 20
68.0114653062
 30
0.0
 10
176.7316175773
 20
68.000586372
 30
0.0
 10
176.7470945145
 20
67.991009178
 30
0.0
  0
SPLINE
  5
415
100
AcDbEntity
  8
0
100
AcDbSpline
 62
250
  6
CONTINUOUS
 70
0
 71
3
 72
10
 73
6
 74
0
 42
0.0000001
 43
0.0000001
 44
0.0000000001
 40
0.0
 40
0.0
 40
0.0
 40
0.0
 40
0.21888179
 40
0.4529289051
 40
1.0
 40
1.0
 40
1.0
 40
1.0
 10
178.842488842
 20
67.081727772
 30
0.0
 10
178.8359672667
 20
67.0854936366
 30
0.0
 10
178.8210100798
 20
67.0909755697
 30
0.0
 10
178.7861871958
 20
67.0920163412
 30
0.0
 10
178.7600940253
 20
67.0818213895
 30
0.0
 10
178.7437226755
 20
67.0725337424
 30
0.0
  0
SPLINE
  5
416
100
AcDbEntity
  8
0
100
AcDbSpline
 62
250
  6
CONTINUOUS
 70
0
 71
3
 72
10
 73
6
 74
0
 42
0.0000001
 43
0.0000001
 44
0.0000000001
 40
0.0
 40
0.0
 40
0.0
 40
0.0
 40
0.2188817647
 40
0.4529288755
 40
1.0
 40
1.0
 40
1.0
 40
1.0
 10
177.2625922303
 20
67.9939402749
 30
0.0
 10
177.2560706556
 20
67.9977061398
 30
0.0
 10
177.2411134686
 20
68.0031880722
 30
0.0
 10
177.2062905831
 20
68.0042288462
 30
0.0
 10
177.1801974095
 20
67.9940338956
 30
0.0
 10
177.1638260569
 20
67.9847462493
 30
0.0
  0
SPLINE
  5
417
100
AcDbEntity
  8
RACCORDO
100
AcDbSpline
 62
250
  6
CONTINUOUS
 70
0
 71
3
 72
11
 73
7
 74
0
 42
0.0000001
 43
0.0000001
 44
0.0000000001
 40
0.0
 40
0.0
 40
0.0
 40
0.0
 40
0.2304832009
 40
0.4863113269
 40
0.7496476391
 40
1.0
 40
1.0
 40
1.0
 40
1.0
 10
213.6342053593
 20
27.2603996468
 30
0.0
 10
213.662904888
 20
27.2440777799
 30
0.0
 10
213.7305226816
 20
27.2218211891
 30
0.0
 10
213.8389249871
 20
27.2180571526
 30
0.0
 10
213.9477480933
 20
27.2413143776
 30
0.0
 10
214.0145850235
 20
27.2747331011
 30
0.0
 10
214.0437145313
 20
27.2956515298
 30
0.0
  0
SPLINE
  5
418
100
AcDbEntity
  8
RACCORDO
100
AcDbSpline
 62
250
  6
CONTINUOUS
 70
0
 71
3
 72
11
 73
7
 74
0
 42
0.0000001
 43
0.0000001
 44
0.0000000001
 40
0.0
 40
0.0
 40
0.0
 40
0.0
 40
0.2341749793
 40
0.4937439205
 40
0.7567102334
 40
1.0
 40
1.0
 40
1.0
 40
1.0
 10
211.8178428464
 20
43.6715735726
 30
0.0
 10
211.8468083157
 20
43.6549330177
 30
0.0
 10
211.914288068
 20
43.6308653422
 30
0.0
 10
212.022587912
 20
43.6205599241
 30
0.0
 10
212.1318132886
 20
43.6343176061
 30
0.0
 10
212.2003632352
 20
43.6602059986
 30
0.0
 10
212.2304447515
 20
43.6775140389
 30
0.0
  0
SPLINE
  5
419
100
AcDbEntity
  8
RACCORDO
100
AcDbSpline
 62
250
  6
CONTINUOUS
 70
0
 71
3
 72
11
 73
7
 74
0
 42
0.0000001
 43
0.0000001
 44
0.0000000001
 40
0.0
 40
0.0
 40
0.0
 40
0.0
 40
0.2373292082
 40
0.4998794602
 40
0.7624946699
 40
1.0
 40
1.0
 40
1.0
 40
1.0
 10
211.8178428502
 20
80.6865881513
 30
0.0
 10
211.8469670213
 20
80.6696790709
 30
0.0
 10
211.9141460122
 20
80.6440337981
 30
0.0
 10
212.0218779267
 20
80.6282996396
 30
0.0
 10
212.1306174338
 20
80.6342093576
 30
0.0
 10
212.1998780721
 20
80.6536569987
 30
0.0
 10
212.2304447515
 20
80.6678519401
 30
0.0
  0
SPLINE
  5
41A
100
AcDbEntity
  8
0
100
AcDbSpline
 62
250
  6
CONTINUOUS
 70
0
 71
3
 72
11
 73
7
 74
0
 42
0.0000001
 43
0.0000001
 44
0.0000000001
 40
0.0
 40
0.0
 40
0.0
 40
0.0
 40
0.2881109481
 40
0.5466687283
 40
0.7804956627
 40
1.0
 40
1.0
 40
1.0
 40
1.0
 10
128.6914621479
 20
95.5787276803
 30
0.0
 10
128.7116972319
 20
95.5911296677
 30
0.0
 10
128.7483595177
 20
95.6177789128
 30
0.0
 10
128.7919402962
 20
95.6657999135
 30
0.0
 10
128.8193962473
 20
95.7184778874
 30
0.0
 10
128.8257701677
 20
95.7560594831
 30
0.0
 10
128.8257748671
 20
95.7741412489
 30
0.0
  0
SPLINE
  5
41B
100
AcDbEntity
  8
0
100
AcDbSpline
 62
250
  6
CONTINUOUS
 70
0
 71
3
 72
9
 73
5
 74
0
 42
0.0000001
 43
0.0000001
 44
0.0000000001
 40
0.0
 40
0.0
 40
0.0
 40
0.0
 40
0.5414754045
 40
1.0
 40
1.0
 40
1.0
 40
1.0
 10
128.6914519093
 20
94.989852578
 30
0.0
 10
128.7243622942
 20
95.0110532703
 30
0.0
 10
128.7810509373
 20
95.0580764163
 30
0.0
 10
128.8156785746
 20
95.12501665
 30
0.0
 10
128.8222487555
 20
95.1575097776
 30
0.0
  0
SPLINE
  5
41C
100
AcDbEntity
  8
RACCORDO
100
AcDbSpline
 62
250
  6
CONTINUOUS
 70
0
 71
3
 72
11
 73
7
 74
0
 42
0.0000001
 43
0.0000001
 44
0.0000000001
 40
0.0
 40
0.0
 40
0.0
 40
0.0
 40
0.2414342659
 40
0.5077203884
 40
0.7698852893
 40
1.0
 40
1.0
 40
1.0
 40
1.0
 10
213.6342053545
 20
98.9867061613
 30
0.0
 10
213.6634705897
 20
98.9694439629
 30
0.0
 10
213.7300532346
 20
98.9416513973
 30
0.0
 10
213.8364609124
 20
98.9187854969
 30
0.0
 10
213.9435973409
 20
98.914439212
 30
0.0
 10
214.0128812643
 20
98.9251742599
 30
0.0
 10
214.0437098142
 20
98.9350901515
 30
0.0
  0
SPLINE
  5
41D
100
AcDbEntity
  8
0
100
AcDbSpline
 62
250
  6
CONTINUOUS
 70
0
 71
3
 72
11
 73
7
 74
0
 42
0.0000001
 43
0.0000001
 44
0.0000000001
 40
0.0
 40
0.0
 40
0.0
 40
0.0
 40
0.286333683
 40
0.5447142814
 40
0.7794491648
 40
1.0
 40
1.0
 40
1.0
 40
1.0
 10
117.0356391261
 20
133.5489181411
 30
0.0
 10
117.0571047321
 20
133.5599564946
 30
0.0
 10
117.0997401472
 20
133.577786392
 30
0.0
 10
117.1647611995
 20
133.590507888
 30
0.0
 10
117.2255591047
 20
133.5870166437
 30
0.0
 10
117.2621797189
 20
133.5732275183
 30
0.0
 10
117.2782812737
 20
133.5639320653
 30
0.0
  0
SPLINE
  5
41E
100
AcDbEntity
  8
0
100
AcDbSpline
 62
250
  6
CONTINUOUS
 70
0
 71
3
 72
9
 73
5
 74
0
 42
0.0000001
 43
0.0000001
 44
0.0000000001
 40
0.0
 40
0.0
 40
0.0
 40
0.0
 40
0.5414754045
 40
1.0
 40
1.0
 40
1.0
 40
1.0
 10
178.8960333735
 20
66.0023564518
 30
0.0
 10
178.9289437585
 20
66.0235571441
 30
0.0
 10
178.9856324015
 20
66.0705802901
 30
0.0
 10
179.0202600388
 20
66.1375205237
 30
0.0
 10
179.0268302198
 20
66.1700136513
 30
0.0
  0
SPLINE
  5
41F
100
AcDbEntity
  8
RACCORDO
100
AcDbSpline
 62
250
  6
CONTINUOUS
 70
0
 71
3
 72
11
 73
7
 74
0
 42
0.0000001
 43
0.0000001
 44
0.0000000001
 40
0.0
 40
0.0
 40
0.0
 40
0.0
 40
0.2459794421
 40
0.5070715314
 40
0.7644116895
 40
1.0
 40
1.0
 40
1.0
 40
1.0
 10
213.2358743026
 20
99.8992956702
 30
0.0
 10
213.2403941117
 20
99.9301732469
 30
0.0
 10
213.2577817355
 20
99.9927436969
 30
0.0
 10
213.3016948285
 20
100.079814412
 30
0.0
 10
213.3602089586
 20
100.1561744052
 30
0.0
 10
213.4081807311
 20
100.1973939902
 30
0.0
 10
213.433378809
 20
100.2134678644
 30
0.0
  0
SPLINE
  5
420
100
AcDbEntity
  8
RACCORDO
100
AcDbSpline
 62
250
  6
CONTINUOUS
 70
0
 71
3
 72
9
 73
5
 74
0
 42
0.0000001
 43
0.0000001
 44
0.0000000001
 40
0.0
 40
0.0
 40
0.0
 40
0.0
 40
0.2456610145
 40
1.0
 40
1.0
 40
1.0
 40
1.0
 10
163.8644831942
 20
71.8228969161
 30
0.0
 10
163.7293818787
 20
74.7714998924
 30
0.0
 10
163.3209779929
 20
86.7804513395
 30
0.0
 10
163.4684645408
 20
98.8070571347
 30
0.0
 10
163.8644831942
 20
107.8620279154
 30
0.0
  0
SPLINE
  5
421
100
AcDbEntity
  8
0
100
AcDbSpline
 62
250
  6
CONTINUOUS
 70
0
 71
3
 72
11
 73
7
 74
0
 42
0.0000001
 43
0.0000001
 44
0.0000000001
 40
0.0
 40
0.0
 40
0.0
 40
0.0
 40
0.2388559014
 40
0.5016468754
 40
0.7635460705
 40
1.0
 40
1.0
 40
1.0
 40
1.0
 10
167.8879160716
 20
101.7061375664
 30
0.0
 10
167.9169744148
 20
101.7243905933
 30
0.0
 10
167.9716250437
 20
101.7729922912
 30
0.0
 10
168.0352524846
 20
101.863289786
 30
0.0
 10
168.0785085091
 20
101.964553364
 30
0.0
 10
168.0908623184
 20
102.0361983113
 30
0.0
 10
168.0908581642
 20
102.0701688265
 30
0.0
  0
SPLINE
  5
422
100
AcDbEntity
  8
0
100
AcDbSpline
 62
250
  6
CONTINUOUS
 70
0
 71
3
 72
15
 73
11
 74
0
 42
0.0000001
 43
0.0000001
 44
0.0000000001
 40
0.0
 40
0.0
 40
0.0
 40
0.0
 40
0.1464925584
 40
0.2776662051
 40
0.395531284
 40
0.5050626488
 40
0.6136846686
 40
0.7291214096
 40
0.8570086103
 40
1.0
 40
1.0
 40
1.0
 40
1.0
 10
168.0908581642
 20
103.894417531
 30
0.0
 10
168.0908599846
 20
103.9092957972
 30
0.0
 10
168.0886755829
 20
103.9375888169
 30
0.0
 10
168.0775773967
 20
103.9765358255
 30
0.0
 10
168.058904468
 20
104.0083692356
 30
0.0
 10
168.0329443887
 20
104.031492706
 30
0.0
 10
168.0008912589
 20
104.0443568769
 30
0.0
 10
167.9646793855
 20
104.0464460234
 30
0.0
 10
167.9259495367
 20
104.0382364369
 30
0.0
 10
167.9006574112
 20
104.0269389729
 30
0.0
 10
167.8879160716
 20
104.019970014
 30
0.0
  0
SPLINE
  5
423
100
AcDbEntity
  8
0
100
AcDbSpline
 62
250
  6
CONTINUOUS
 70
0
 71
3
 72
9
 73
5
 74
0
 42
0.0000001
 43
0.0000001
 44
0.0000000001
 40
0.0
 40
0.0
 40
0.0
 40
0.0
 40
0.2746734062
 40
1.0
 40
1.0
 40
1.0
 40
1.0
 10
178.7437226755
 20
67.0725337424
 30
0.0
 10
178.7512469955
 20
67.0681907336
 30
0.0
 10
178.7778491673
 20
67.0511802636
 30
0.0
 10
178.801478224
 20
67.0285783695
 30
0.0
 10
178.8137037395
 20
67.0091655889
 30
0.0
  0
SPLINE
  5
424
100
AcDbEntity
  8
0
100
AcDbSpline
 62
250
  6
CONTINUOUS
 70
0
 71
3
 72
11
 73
7
 74
0
 42
0.0000001
 43
0.0000001
 44
0.0000000001
 40
0.0
 40
0.0
 40
0.0
 40
0.0
 40
0.2350577077
 40
0.4607598532
 40
0.7092464058
 40
1.0
 40
1.0
 40
1.0
 40
1.0
 10
178.8137037395
 20
67.0091655889
 30
0.0
 10
178.8224242427
 20
66.9953183842
 30
0.0
 10
178.8348287653
 20
66.9643263104
 30
0.0
 10
178.828586323
 20
66.9133513659
 30
0.0
 10
178.7984585919
 20
66.8677346569
 30
0.0
 10
178.7682881794
 20
66.8445043481
 30
0.0
 10
178.7509967517
 20
66.8339811411
 30
0.0
  0
SPLINE
  5
425
100
AcDbEntity
  8
0
100
AcDbSpline
 62
250
  6
CONTINUOUS
 70
0
 71
3
 72
11
 73
7
 74
0
 42
0.0000001
 43
0.0000001
 44
0.0000000001
 40
0.0
 40
0.0
 40
0.0
 40
0.0
 40
0.2388589001
 40
0.501640347
 40
0.7635341761
 40
1.0
 40
1.0
 40
1.0
 40
1.0
 10
176.7470945145
 20
67.991009178
 30
0.0
 10
176.777430217
 20
68.0070512385
 30
0.0
 10
176.8468465198
 20
68.0300776656
 30
0.0
 10
176.9568583568
 20
68.0400341828
 30
0.0
 10
177.066183447
 20
68.0268624555
 30
0.0
 10
177.134407999
 20
68.0017374918
 30
0.0
 10
177.1638260569
 20
67.9847462493
 30
0.0
  0
SPLINE
  5
426
100
AcDbEntity
  8
RACCORDO
100
AcDbSpline
 62
250
  6
CONTINUOUS
 70
0
 71
3
 72
9
 73
5
 74
0
 42
0.0000001
 43
0.0000001
 44
0.0000000001
 40
0.0
 40
0.0
 40
0.0
 40
0.0
 40
0.5236644212
 40
1.0
 40
1.0
 40
1.0
 40
1.0
 10
163.9898228119
 20
71.2868729053
 30
0.0
 10
163.9539128317
 20
71.3763552709
 30
0.0
 10
163.8967647616
 20
71.5521210142
 30
0.0
 10
163.8684893149
 20
71.735283832
 30
0.0
 10
163.8644831942
 20
71.8228969161
 30
0.0
  0
SPLINE
  5
427
100
AcDbEntity
  8
0
100
AcDbSpline
 62
250
  6
CONTINUOUS
 70
0
 71
3
 72
11
 73
7
 74
0
 42
0.0000001
 43
0.0000001
 44
0.0000000001
 40
0.0
 40
0.0
 40
0.0
 40
0.0
 40
0.2388559014
 40
0.5016468754
 40
0.7635460705
 40
1.0
 40
1.0
 40
1.0
 40
1.0
 10
117.6833346074
 20
130.6936336927
 30
0.0
 10
117.7123929505
 20
130.7118867196
 30
0.0
 10
117.7670435794
 20
130.7604884175
 30
0.0
 10
117.8306710204
 20
130.8507859123
 30
0.0
 10
117.8739270448
 20
130.9520494903
 30
0.0
 10
117.8862808541
 20
131.0236944375
 30
0.0
 10
117.8862766999
 20
131.0576649528
 30
0.0
  0
SPLINE
  5
428
100
AcDbEntity
  8
0
100
AcDbSpline
 62
250
  6
CONTINUOUS
 70
0
 71
3
 72
15
 73
11
 74
0
 42
0.0000001
 43
0.0000001
 44
0.0000000001
 40
0.0
 40
0.0
 40
0.0
 40
0.0
 40
0.1464925584
 40
0.2776662051
 40
0.395531284
 40
0.5050626488
 40
0.6136846686
 40
0.7291214096
 40
0.8570086103
 40
1.0
 40
1.0
 40
1.0
 40
1.0
 10
117.8862766999
 20
132.8819136572
 30
0.0
 10
117.8862785204
 20
132.8967919235
 30
0.0
 10
117.8840941187
 20
132.9250849432
 30
0.0
 10
117.8729959324
 20
132.9640319518
 30
0.0
 10
117.8543230037
 20
132.9958653619
 30
0.0
 10
117.8283629244
 20
133.0189888323
 30
0.0
 10
117.7963097947
 20
133.0318530032
 30
0.0
 10
117.7600979213
 20
133.0339421496
 30
0.0
 10
117.7213680725
 20
133.0257325631
 30
0.0
 10
117.6960759469
 20
133.0144350992
 30
0.0
 10
117.6833346074
 20
133.0074661403
 30
0.0
  0
SPLINE
  5
429
100
AcDbEntity
  8
0
100
AcDbSpline
 62
250
  6
CONTINUOUS
 70
0
 71
3
 72
11
 73
7
 74
0
 42
0.0000001
 43
0.0000001
 44
0.0000000001
 40
0.0
 40
0.0
 40
0.0
 40
0.0
 40
0.2919652424
 40
0.545994717
 40
0.7743891263
 40
1.0
 40
1.0
 40
1.0
 40
1.0
 10
128.5464152874
 20
95.8214772674
 30
0.0
 10
128.5617072729
 20
95.8307846914
 30
0.0
 10
128.5887567938
 20
95.8511240013
 30
0.0
 10
128.617902944
 20
95.8896458969
 30
0.0
 10
128.6299846915
 20
95.932605364
 30
0.0
 10
128.6252397504
 20
95.9610236165
 30
0.0
 10
128.6204208018
 20
95.9739903757
 30
0.0
  0
SPLINE
  5
42A
100
AcDbEntity
  8
0
100
AcDbSpline
 62
250
  6
CONTINUOUS
 70
0
 71
3
 72
9
 73
5
 74
0
 42
0.0000001
 43
0.0000001
 44
0.0000000001
 40
0.0
 40
0.0
 40
0.0
 40
0.0
 40
0.2222711876
 40
1.0
 40
1.0
 40
1.0
 40
1.0
 10
128.6204208018
 20
95.9739903757
 30
0.0
 10
128.6173292955
 20
95.982308957
 30
0.0
 10
128.5989022072
 20
96.0181052086
 30
0.0
 10
128.5660343631
 20
96.044506484
 30
0.0
 10
128.5391412113
 20
96.0600298687
 30
0.0
  0
SPLINE
  5
42B
100
AcDbEntity
  8
0
100
AcDbSpline
 62
250
  6
CONTINUOUS
 70
0
 71
3
 72
11
 73
7
 74
0
 42
0.0000001
 43
0.0000001
 44
0.0000000001
 40
0.0
 40
0.0
 40
0.0
 40
0.0
 40
0.2364598223
 40
0.4983594007
 40
0.7611473645
 40
1.0
 40
1.0
 40
1.0
 40
1.0
 10
126.9592445927
 20
96.9722423755
 30
0.0
 10
126.9298268881
 20
96.98923259
 30
0.0
 10
126.8616029789
 20
97.0143587987
 30
0.0
 10
126.7522769351
 20
97.0275312337
 30
0.0
 10
126.6422633333
 20
97.017576015
 30
0.0
 10
126.5728487338
 20
96.9945455663
 30
0.0
 10
126.5425130503
 20
96.9785053043
 30
0.0
  0
SPLINE
  5
42C
100
AcDbEntity
  8
RACCORDO
100
AcDbSpline
 62
250
  6
CONTINUOUS
 70
0
 71
3
 72
9
 73
5
 74
0
 42
0.0000001
 43
0.0000001
 44
0.0000000001
 40
0.0
 40
0.0
 40
0.0
 40
0.0
 40
0.5236644212
 40
1.0
 40
1.0
 40
1.0
 40
1.0
 10
113.7852413477
 20
100.2743690316
 30
0.0
 10
113.7493313675
 20
100.3638513972
 30
0.0
 10
113.6921832974
 20
100.5396171405
 30
0.0
 10
113.6639078507
 20
100.7227799583
 30
0.0
 10
113.65990173
 20
100.8103930424
 30
0.0
  0
SPLINE
  5
42D
100
AcDbEntity
  8
RACCORDO
100
AcDbSpline
 62
250
  6
CONTINUOUS
 70
0
 71
3
 72
9
 73
5
 74
0
 42
0.0000001
 43
0.0000001
 44
0.0000000001
 40
0.0
 40
0.0
 40
0.0
 40
0.0
 40
0.50660425
 40
1.0
 40
1.0
 40
1.0
 40
1.0
 10
98.7616910129
 20
145.9637439777
 30
0.0
 10
98.5106399594
 20
139.7377175952
 30
0.0
 10
98.2523391757
 20
127.4370749938
 30
0.0
 10
98.5004561541
 20
115.1356692752
 30
0.0
 10
98.7564529416
 20
109.0724459801
 30
0.0
  0
SPLINE
  5
42E
100
AcDbEntity
  8
ASSI
100
AcDbSpline
 62
7
  6
CONTINUOUS
 70
0
 71
3
 72
9
 73
5
 74
0
 42
0.0000001
 43
0.0000001
 44
0.0000000001
 40
0.0
 40
0.0
 40
0.0
 40
0.0
 40
0.4999851872
 40
1.0
 40
1.0
 40
1.0
 40
1.0
 10
216.5231475955
 20
101.5111473421
 30
0.0
 10
216.6080881282
 20
101.462103414
 30
0.0
 10
216.75056214
 20
101.3134641162
 30
0.0
 10
216.8080578634
 20
101.1157565367
 30
0.0
 10
216.8080578486
 20
101.0176681018
 30
0.0
  0
SPLINE
  5
42F
100
AcDbEntity
  8
ASSI
100
AcDbSpline
 62
250
  6
CONTINUOUS
 70
0
 71
3
 72
11
 73
7
 74
0
 42
0.0000001
 43
0.0000001
 44
0.0000000001
 40
0.0
 40
0.0
 40
0.0
 40
0.0
 40
0.2927930182
 40
0.5532436242
 40
0.7852095248
 40
1.0
 40
1.0
 40
1.0
 40
1.0
 10
114.6273710793
 20
137.404594821
 30
0.0
 10
114.6260927873
 20
137.3768406792
 30
0.0
 10
114.6278965228
 20
137.3240166481
 30
0.0
 10
114.64616156
 20
137.2510665634
 30
0.0
 10
114.6797611332
 20
137.1918135877
 30
0.0
 10
114.7126643365
 20
137.1634013785
 30
0.0
 10
114.730308438
 20
137.1531982949
 30
0.0
  0
SPLINE
  5
430
100
AcDbEntity
  8
ASSI
100
AcDbSpline
 62
250
  6
CONTINUOUS
 70
0
 71
3
 72
11
 73
7
 74
0
 42
0.0000001
 43
0.0000001
 44
0.0000000001
 40
0.0
 40
0.0
 40
0.0
 40
0.0
 40
0.2928040878
 40
0.5532520605
 40
0.785209078
 40
1.0
 40
1.0
 40
1.0
 40
1.0
 10
145.7995808072
 20
119.4061516036
 30
0.0
 10
145.7983020667
 20
119.3783877311
 30
0.0
 10
145.8001078161
 20
119.3255461341
 30
0.0
 10
145.8183876065
 20
119.2525748379
 30
0.0
 10
145.8520139022
 20
119.1933123064
 30
0.0
 10
145.8849410815
 20
119.1649066935
 30
0.0
 10
145.9025962578
 20
119.1547099476
 30
0.0
  0
SPLINE
  5
431
100
AcDbEntity
  8
ASSI
100
AcDbSpline
 62
250
  6
CONTINUOUS
 70
0
 71
3
 72
10
 73
6
 74
0
 42
0.0000001
 43
0.0000001
 44
0.0000000001
 40
0.0
 40
0.0
 40
0.0
 40
0.0
 40
0.3688923355
 40
0.6561925049
 40
1.0
 40
1.0
 40
1.0
 40
1.0
 10
146.5897160284
 20
118.3484943757
 30
0.0
 10
146.5735214016
 20
118.3478619179
 30
0.0
 10
146.5441384905
 20
118.348037827
 30
0.0
 10
146.5023137973
 20
118.3526761637
 30
0.0
 10
146.4709301699
 20
118.3658793549
 30
0.0
 10
146.4663396413
 20
118.3802697951
 30
0.0
  0
SPLINE
  5
432
100
AcDbEntity
  8
ASSI
100
AcDbSpline
 62
250
  6
CONTINUOUS
 70
0
 71
3
 72
11
 73
7
 74
0
 42
0.0000001
 43
0.0000001
 44
0.0000000001
 40
0.0
 40
0.0
 40
0.0
 40
0.0
 40
0.2958067088
 40
0.5570015574
 40
0.7876482204
 40
1.0
 40
1.0
 40
1.0
 40
1.0
 10
146.6729885048
 20
117.7881814999
 30
0.0
 10
146.6505338269
 20
117.8010767274
 30
0.0
 10
146.6099876295
 20
117.8287094764
 30
0.0
 10
146.5617164781
 20
117.8788066735
 30
0.0
 10
146.531824563
 20
117.9337717606
 30
0.0
 10
146.5257692016
 20
117.9731033898
 30
0.0
 10
146.5265041928
 20
117.9916774713
 30
0.0
  0
SPLINE
  5
433
100
AcDbEntity
  8
ASSI
100
AcDbSpline
 62
250
  6
CONTINUOUS
 70
0
 71
3
 72
9
 73
5
 74
0
 42
0.0000001
 43
0.0000001
 44
0.0000000001
 40
0.0
 40
0.0
 40
0.0
 40
0.0
 40
0.2759838747
 40
1.0
 40
1.0
 40
1.0
 40
1.0
 10
196.8775723233
 20
52.7615558682
 30
0.0
 10
196.8631299525
 20
52.7699352408
 30
0.0
 10
196.8126461052
 20
52.8030040858
 30
0.0
 10
196.7693456726
 20
52.8495971095
 30
0.0
 10
196.7504153552
 20
52.889098761
 30
0.0
  0
SPLINE
  5
434
100
AcDbEntity
  8
ASSI
100
AcDbSpline
 62
250
  6
CONTINUOUS
 70
0
 71
3
 72
9
 73
5
 74
0
 42
0.0000001
 43
0.0000001
 44
0.0000000001
 40
0.0
 40
0.0
 40
0.0
 40
0.0
 40
0.2563751148
 40
1.0
 40
1.0
 40
1.0
 40
1.0
 10
196.7504153552
 20
52.889098761
 30
0.0
 10
196.7475190231
 20
52.8951425003
 30
0.0
 10
196.7373223331
 20
52.9192224096
 30
0.0
 10
196.731927829
 20
52.9453793261
 30
0.0
 10
196.7311243779
 20
52.9648018207
 30
0.0
  0
SPLINE
  5
435
100
AcDbEntity
  8
ASSI
100
AcDbSpline
 62
250
  6
CONTINUOUS
 70
0
 71
3
 72
11
 73
7
 74
0
 42
0.0000001
 43
0.0000001
 44
0.0000000001
 40
0.0
 40
0.0
 40
0.0
 40
0.0
 40
0.2717953396
 40
0.5280496217
 40
0.7689158691
 40
1.0
 40
1.0
 40
1.0
 40
1.0
 10
196.7942967203
 20
52.3459835324
 30
0.0
 10
196.7637133235
 20
52.3806834954
 30
0.0
 10
196.7121350962
 20
52.4556975213
 30
0.0
 10
196.6692775202
 20
52.581252606
 30
0.0
 10
196.6669937707
 20
52.7073749189
 30
0.0
 10
196.6941525406
 20
52.7851711201
 30
0.0
 10
196.7137250558
 20
52.8192802602
 30
0.0
  0
SPLINE
  5
436
100
AcDbEntity
  8
ASSI
100
AcDbSpline
 62
250
  6
CONTINUOUS
 70
0
 71
3
 72
11
 73
7
 74
0
 42
0.0000001
 43
0.0000001
 44
0.0000000001
 40
0.0
 40
0.0
 40
0.0
 40
0.0
 40
0.2322940224
 40
0.493230288
 40
0.7578526612
 40
1.0
 40
1.0
 40
1.0
 40
1.0
 10
196.0041622715
 20
52.2607936144
 30
0.0
 10
196.0014037294
 20
52.3175012948
 30
0.0
 10
196.018339271
 20
52.4390432731
 30
0.0
 10
196.0884478887
 20
52.6119804849
 30
0.0
 10
196.1954953529
 20
52.7677767618
 30
0.0
 10
196.2887900026
 20
52.8520607336
 30
0.0
 10
196.3386856289
 20
52.8838891939
 30
0.0
  0
SPLINE
  5
437
100
AcDbEntity
  8
ASSI
100
AcDbSpline
 62
250
  6
CONTINUOUS
 70
0
 71
3
 72
11
 73
7
 74
0
 42
0.0000001
 43
0.0000001
 44
0.0000000001
 40
0.0
 40
0.0
 40
0.0
 40
0.0
 40
0.2102428239
 40
0.4408246009
 40
0.7027988546
 40
1.0
 40
1.0
 40
1.0
 40
1.0
 10
196.7112779932
 20
52.8261120638
 30
0.0
 10
196.6868965487
 20
52.8133041691
 30
0.0
 10
196.6302686433
 20
52.7961456572
 30
0.0
 10
196.5370365111
 20
52.7995651532
 30
0.0
 10
196.4370855101
 20
52.8292628643
 30
0.0
 10
196.3718185721
 20
52.863404914
 30
0.0
 10
196.3387041993
 20
52.8838777148
 30
0.0
  0
SPLINE
  5
438
100
AcDbEntity
  8
ASSI
100
AcDbSpline
 62
250
  6
CONTINUOUS
 70
0
 71
3
 72
11
 73
7
 74
0
 42
0.0000001
 43
0.0000001
 44
0.0000000001
 40
0.0
 40
0.0
 40
0.0
 40
0.0
 40
0.2322940311
 40
0.4932302992
 40
0.7578526692
 40
1.0
 40
1.0
 40
1.0
 40
1.0
 10
164.8319525435
 20
70.2592368318
 30
0.0
 10
164.829194002
 20
70.3159445142
 30
0.0
 10
164.846129546
 20
70.4374864948
 30
0.0
 10
164.9162381664
 20
70.6104237072
 30
0.0
 10
165.0232856298
 20
70.7662199814
 30
0.0
 10
165.1165802767
 20
70.8505039515
 30
0.0
 10
165.1664759008
 20
70.8823324113
 30
0.0
  0
SPLINE
  5
439
100
AcDbEntity
  8
ASSI
100
AcDbSpline
 62
250
  6
CONTINUOUS
 70
0
 71
3
 72
12
 73
8
 74
0
 42
0.0000001
 43
0.0000001
 44
0.0000000001
 40
0.0
 40
0.0
 40
0.0
 40
0.0
 40
0.0941794196
 40
0.2050230762
 40
0.4625667484
 40
0.7397932048
 40
1.0
 40
1.0
 40
1.0
 40
1.0
 10
163.9898255853
 20
71.286874668
 30
0.0
 10
164.0112566191
 20
71.2870878505
 30
0.0
 10
164.0578749567
 20
71.2909422935
 30
0.0
 10
164.1616517067
 20
71.3090388843
 30
0.0
 10
164.3032970813
 20
71.3495919768
 30
0.0
 10
164.4716034489
 20
71.4164858948
 30
0.0
 10
164.5805207929
 20
71.4728699475
 30
0.0
 10
164.6310486325
 20
71.5037451954
 30
0.0
  0
SPLINE
  5
43A
100
AcDbEntity
  8
ASSI
100
AcDbSpline
 62
250
  6
CONTINUOUS
 70
0
 71
3
 72
11
 73
7
 74
0
 42
0.0000001
 43
0.0000001
 44
0.0000000001
 40
0.0
 40
0.0
 40
0.0
 40
0.0
 40
0.2342155067
 40
0.4938237053
 40
0.7567856047
 40
1.0
 40
1.0
 40
1.0
 40
1.0
 10
163.8644832041
 20
71.8228969224
 30
0.0
 10
163.9127629543
 20
71.7951569034
 30
0.0
 10
164.0252243553
 20
71.7550107371
 30
0.0
 10
164.2057162467
 20
71.7377180019
 30
0.0
 10
164.3877554917
 20
71.7604779297
 30
0.0
 10
164.5020273216
 20
71.8034882321
 30
0.0
 10
164.5521764177
 20
71.8322690368
 30
0.0
  0
SPLINE
  5
43B
100
AcDbEntity
  8
ASSI
100
AcDbSpline
 62
250
  6
CONTINUOUS
 70
0
 71
3
 72
11
 73
7
 74
0
 42
0.0000001
 43
0.0000001
 44
0.0000000001
 40
0.0
 40
0.0
 40
0.0
 40
0.0
 40
0.2102428239
 40
0.4408246009
 40
0.7027988546
 40
1.0
 40
1.0
 40
1.0
 40
1.0
 10
146.5066965289
 20
81.8136081901
 30
0.0
 10
146.4823150844
 20
81.8008002954
 30
0.0
 10
146.4256871791
 20
81.7836417835
 30
0.0
 10
146.3324550469
 20
81.7870612794
 30
0.0
 10
146.2325040459
 20
81.8167589906
 30
0.0
 10
146.1672371079
 20
81.8509010403
 30
0.0
 10
146.1341227351
 20
81.871373841
 30
0.0
  0
SPLINE
  5
43C
100
AcDbEntity
  8
ASSI
100
AcDbSpline
 62
250
  6
CONTINUOUS
 70
0
 71
3
 72
11
 73
7
 74
0
 42
0.0000001
 43
0.0000001
 44
0.0000000001
 40
0.0
 40
0.0
 40
0.0
 40
0.0
 40
0.2372860152
 40
0.4997968766
 40
0.7624172675
 40
1.0
 40
1.0
 40
1.0
 40
1.0
 10
163.8644856672
 20
107.862029203
 30
0.0
 10
163.9130225396
 20
107.8338531015
 30
0.0
 10
164.0249954122
 20
107.7911462263
 30
0.0
 10
164.2045654988
 20
107.7650432803
 30
0.0
 10
164.3858164979
 20
107.7750674358
 30
0.0
 10
164.5012419979
 20
107.8076260108
 30
0.0
 10
164.5521785015
 20
107.831355221
 30
0.0
  0
SPLINE
  5
43D
100
AcDbEntity
  8
ASSI
100
AcDbSpline
 62
250
  6
CONTINUOUS
 70
0
 71
3
 72
11
 73
7
 74
0
 42
0.0000001
 43
0.0000001
 44
0.0000000001
 40
0.0
 40
0.0
 40
0.0
 40
0.0
 40
0.2625146673
 40
0.5259464652
 40
0.7748500223
 40
1.0
 40
1.0
 40
1.0
 40
1.0
 10
163.9898250585
 20
108.3018886492
 30
0.0
 10
164.0293005878
 20
108.2534462016
 30
0.0
 10
164.1238900555
 20
108.1682617241
 30
0.0
 10
164.2919187162
 20
108.0865749902
 30
0.0
 10
164.4679401307
 20
108.0581650029
 30
0.0
 10
164.5821837658
 20
108.0804885875
 30
0.0
 10
164.6310481776
 20
108.1025055157
 30
0.0
  0
SPLINE
  5
43E
100
AcDbEntity
  8
ASSI
100
AcDbSpline
 62
250
  6
CONTINUOUS
 70
0
 71
3
 72
11
 73
7
 74
0
 42
0.0000001
 43
0.0000001
 44
0.0000000001
 40
0.0
 40
0.0
 40
0.0
 40
0.0
 40
0.2927930182
 40
0.5532436242
 40
0.7852095248
 40
1.0
 40
1.0
 40
1.0
 40
1.0
 10
164.8319525435
 20
108.4170986947
 30
0.0
 10
164.8306742515
 20
108.3893445529
 30
0.0
 10
164.8324779871
 20
108.3365205218
 30
0.0
 10
164.8507430242
 20
108.2635704371
 30
0.0
 10
164.8843425975
 20
108.2043174614
 30
0.0
 10
164.9172458007
 20
108.1759052522
 30
0.0
 10
164.9348899023
 20
108.1657021686
 30
0.0
  0
SPLINE
  5
43F
100
AcDbEntity
  8
ASSI
100
AcDbSpline
 62
250
  6
CONTINUOUS
 70
0
 71
3
 72
11
 73
7
 74
0
 42
0.0000001
 43
0.0000001
 44
0.0000000001
 40
0.0
 40
0.0
 40
0.0
 40
0.0
 40
0.2928040878
 40
0.5532520605
 40
0.785209078
 40
1.0
 40
1.0
 40
1.0
 40
1.0
 10
196.0041622715
 20
90.4186554773
 30
0.0
 10
196.002883531
 20
90.3908916049
 30
0.0
 10
196.0046892803
 20
90.3380500079
 30
0.0
 10
196.0229690708
 20
90.2650787117
 30
0.0
 10
196.0565953664
 20
90.2058161802
 30
0.0
 10
196.0895225458
 20
90.1774105672
 30
0.0
 10
196.107177722
 20
90.1672138213
 30
0.0
  0
SPLINE
  5
440
100
AcDbEntity
  8
ASSI
100
AcDbSpline
 62
250
  6
CONTINUOUS
 70
0
 71
3
 72
10
 73
6
 74
0
 42
0.0000001
 43
0.0000001
 44
0.0000000001
 40
0.0
 40
0.0
 40
0.0
 40
0.0
 40
0.3688923355
 40
0.6561925049
 40
1.0
 40
1.0
 40
1.0
 40
1.0
 10
196.7942974926
 20
89.3609982494
 30
0.0
 10
196.7781028659
 20
89.3603657916
 30
0.0
 10
196.7487199548
 20
89.3605417007
 30
0.0
 10
196.7068952616
 20
89.3651800374
 30
0.0
 10
196.6755116342
 20
89.3783832286
 30
0.0
 10
196.6709211056
 20
89.3927736689
 30
0.0
  0
SPLINE
  5
441
100
AcDbEntity
  8
ASSI
100
AcDbSpline
 62
250
  6
CONTINUOUS
 70
0
 71
3
 72
11
 73
7
 74
0
 42
0.0000001
 43
0.0000001
 44
0.0000000001
 40
0.0
 40
0.0
 40
0.0
 40
0.0
 40
0.2958067088
 40
0.5570015574
 40
0.7876482204
 40
1.0
 40
1.0
 40
1.0
 40
1.0
 10
196.877569969
 20
88.8006853736
 30
0.0
 10
196.8551152912
 20
88.8135806012
 30
0.0
 10
196.8145690938
 20
88.8412133501
 30
0.0
 10
196.7662979424
 20
88.8913105472
 30
0.0
 10
196.7364060273
 20
88.9462756343
 30
0.0
 10
196.7303506658
 20
88.9856072636
 30
0.0
 10
196.731085657
 20
89.004181345
 30
0.0
  0
SPLINE
  5
442
100
AcDbEntity
  8
ASSI
100
AcDbSpline
 62
250
  6
CONTINUOUS
 70
0
 71
3
 72
11
 73
7
 74
0
 42
0.0000001
 43
0.0000001
 44
0.0000000001
 40
0.0
 40
0.0
 40
0.0
 40
0.0
 40
0.20999682
 40
0.4358199463
 40
0.6965935411
 40
1.0
 40
1.0
 40
1.0
 40
1.0
 10
213.8764795155
 20
26.8550784321
 30
0.0
 10
213.9083243511
 20
26.8698133648
 30
0.0
 10
213.9685039477
 20
26.9153179769
 30
0.0
 10
214.026053913
 20
27.019401012
 30
0.0
 10
214.0518255017
 20
27.150351463
 30
0.0
 10
214.049100778
 20
27.2452419126
 30
0.0
 10
214.0437145313
 20
27.2956515298
 30
0.0
  0
SPLINE
  5
443
100
AcDbEntity
  8
ASSI
100
AcDbSpline
 62
250
  6
CONTINUOUS
 70
0
 71
3
 72
9
 73
5
 74
0
 42
0.0000001
 43
0.0000001
 44
0.0000000001
 40
0.0
 40
0.0
 40
0.0
 40
0.0
 40
0.2456610145
 40
1.0
 40
1.0
 40
1.0
 40
1.0
 10
163.8644831942
 20
71.8228969161
 30
0.0
 10
163.7293818787
 20
74.7714998924
 30
0.0
 10
163.3209779929
 20
86.7804513395
 30
0.0
 10
163.4684645408
 20
98.8070571347
 30
0.0
 10
163.8644831942
 20
107.8620279154
 30
0.0
  0
SPLINE
  5
444
100
AcDbEntity
  8
ASSI
100
AcDbSpline
 62
250
  6
CONTINUOUS
 70
0
 71
3
 72
9
 73
5
 74
0
 42
0.0000001
 43
0.0000001
 44
0.0000000001
 40
0.0
 40
0.0
 40
0.0
 40
0.0
 40
0.5236644212
 40
1.0
 40
1.0
 40
1.0
 40
1.0
 10
163.9898228119
 20
71.2868729053
 30
0.0
 10
163.9539128317
 20
71.3763552709
 30
0.0
 10
163.8967647616
 20
71.5521210142
 30
0.0
 10
163.8684893149
 20
71.735283832
 30
0.0
 10
163.8644831942
 20
71.8228969161
 30
0.0
  0
SPLINE
  5
445
100
AcDbEntity
  8
ASSI
100
AcDbSpline
 62
250
  6
CONTINUOUS
 70
0
 71
3
 72
9
 73
5
 74
0
 42
0.0000001
 43
0.0000001
 44
0.0000000001
 40
0.0
 40
0.0
 40
0.0
 40
0.0
 40
0.5236644212
 40
1.0
 40
1.0
 40
1.0
 40
1.0
 10
113.7852413477
 20
100.2743690316
 30
0.0
 10
113.7493313675
 20
100.3638513972
 30
0.0
 10
113.6921832974
 20
100.5396171405
 30
0.0
 10
113.6639078507
 20
100.7227799583
 30
0.0
 10
113.65990173
 20
100.8103930424
 30
0.0
  0
SPLINE
  5
446
100
AcDbEntity
  8
ASSI
100
AcDbSpline
 62
250
  6
CONTINUOUS
 70
0
 71
3
 72
9
 73
5
 74
0
 42
0.0000001
 43
0.0000001
 44
0.0000000001
 40
0.0
 40
0.0
 40
0.0
 40
0.0
 40
0.50660425
 40
1.0
 40
1.0
 40
1.0
 40
1.0
 10
98.7616910129
 20
145.9637439777
 30
0.0
 10
98.5106399594
 20
139.7377175952
 30
0.0
 10
98.2523391757
 20
127.4370749938
 30
0.0
 10
98.5004561541
 20
115.1356692752
 30
0.0
 10
98.7564529416
 20
109.0724459801
 30
0.0
  0
SPLINE
  5
447
100
AcDbEntity
  8
ASSI
100
AcDbSpline
 62
250
  6
CONTINUOUS
 70
0
 71
3
 72
9
 73
5
 74
0
 42
0.0000001
 43
0.0000001
 44
0.0000000001
 40
0.0
 40
0.0
 40
0.0
 40
0.0
 40
0.2743822942
 40
1.0
 40
1.0
 40
1.0
 40
1.0
 10
113.65990173
 20
136.8495240416
 30
0.0
 10
113.6617393518
 20
136.891573087
 30
0.0
 10
113.6759980754
 20
137.0440163606
 30
0.0
 10
113.7246306595
 20
137.1960263391
 30
0.0
 10
113.7852413477
 20
137.2893836092
 30
0.0
  0
SPLINE
  5
448
100
AcDbEntity
  8
ASSI
100
AcDbSpline
 62
250
  6
CONTINUOUS
 70
0
 71
3
 72
9
 73
5
 74
0
 42
0.0000001
 43
0.0000001
 44
0.0000000001
 40
0.0
 40
0.0
 40
0.0
 40
0.0
 40
0.2456610145
 40
1.0
 40
1.0
 40
1.0
 40
1.0
 10
113.65990173
 20
100.8103930424
 30
0.0
 10
113.5248004145
 20
103.7589960187
 30
0.0
 10
113.1163965286
 20
115.7679474658
 30
0.0
 10
113.2638830765
 20
127.794553261
 30
0.0
 10
113.65990173
 20
136.8495240416
 30
0.0
  0
SPLINE
  5
449
100
AcDbEntity
  8
ASSI
100
AcDbSpline
 62
250
  6
CONTINUOUS
 70
0
 71
3
 72
9
 73
5
 74
0
 42
0.0000001
 43
0.0000001
 44
0.0000000001
 40
0.0
 40
0.0
 40
0.0
 40
0.0
 40
0.2799452606
 40
1.0
 40
1.0
 40
1.0
 40
1.0
 10
196.8775699591
 20
52.7615543692
 30
0.0
 10
196.879216316
 20
52.7217730007
 30
0.0
 10
196.8781445544
 20
52.5799650554
 30
0.0
 10
196.8451893549
 20
52.4348504565
 30
0.0
 10
196.7942944737
 20
52.3459821044
 30
0.0
  0
SPLINE
  5
44A
100
AcDbEntity
  8
ASSI
100
AcDbSpline
 62
250
  6
CONTINUOUS
 70
0
 71
3
 72
9
 73
5
 74
0
 42
0.0000001
 43
0.0000001
 44
0.0000000001
 40
0.0
 40
0.0
 40
0.0
 40
0.0
 40
0.5064534018
 40
1.0
 40
1.0
 40
1.0
 40
1.0
 10
196.8775699591
 20
88.8006853684
 30
0.0
 10
196.6386937801
 20
82.7200951221
 30
0.0
 10
196.393852184
 20
70.7037053114
 30
0.0
 10
196.6324526176
 20
58.6866855248
 30
0.0
 10
196.8775699591
 20
52.7615543692
 30
0.0
  0
SPLINE
  5
44B
100
AcDbEntity
  8
ASSI
100
AcDbSpline
 62
250
  6
CONTINUOUS
 70
0
 71
3
 72
9
 73
5
 74
0
 42
0.0000001
 43
0.0000001
 44
0.0000000001
 40
0.0
 40
0.0
 40
0.0
 40
0.0
 40
0.5192714452
 40
1.0
 40
1.0
 40
1.0
 40
1.0
 10
196.7942944737
 20
89.360996682
 30
0.0
 10
196.8240914147
 20
89.2672053251
 30
0.0
 10
196.8683841082
 20
89.0820858823
 30
0.0
 10
196.881150178
 20
88.8917212161
 30
0.0
 10
196.8775699591
 20
88.8006853684
 30
0.0
  0
SPLINE
  5
44C
100
AcDbEntity
  8
ASSI
100
AcDbSpline
 62
250
  6
CONTINUOUS
 70
0
 71
3
 72
9
 73
5
 74
0
 42
0.0000001
 43
0.0000001
 44
0.0000000001
 40
0.0
 40
0.0
 40
0.0
 40
0.0
 40
0.2455441792
 40
1.0
 40
1.0
 40
1.0
 40
1.0
 10
211.8178407128
 20
43.6716192633
 30
0.0
 10
211.6752942355
 20
46.6984706641
 30
0.0
 10
211.2442975659
 20
59.0323444684
 30
0.0
 10
211.4002590733
 20
71.3853375665
 30
0.0
 10
211.8178407024
 20
80.6865399465
 30
0.0
  0
SPLINE
  5
44D
100
AcDbEntity
  8
ASSI
100
AcDbSpline
 62
250
  6
CONTINUOUS
 70
0
 71
3
 72
13
 73
9
 74
0
 42
0.0000001
 43
0.0000001
 44
0.0000000001
 40
0.0
 40
0.0
 40
0.0
 40
0.0
 40
0.1201640491
 40
0.2355361294
 40
0.3493927353
 40
0.4652909815
 40
0.7142794094
 40
1.0
 40
1.0
 40
1.0
 40
1.0
 10
113.7852413477
 20
137.2893836092
 30
0.0
 10
113.8058231118
 20
137.321154302
 30
0.0
 10
113.8521109864
 20
137.379898513
 30
0.0
 10
113.9376352647
 20
137.4505523929
 30
0.0
 10
114.0356989032
 20
137.4996589515
 30
0.0
 10
114.1833474324
 20
137.5357500663
 30
0.0
 10
114.3929042323
 20
137.5180680102
 30
0.0
 10
114.5494234507
 20
137.4496044017
 30
0.0
 10
114.6273710793
 20
137.404594821
 30
0.0
  0
SPLINE
  5
44E
100
AcDbEntity
  8
ASSI
100
AcDbSpline
 62
250
  6
CONTINUOUS
 70
0
 71
3
 72
9
 73
5
 74
0
 42
0.0000001
 43
0.0000001
 44
0.0000000001
 40
0.0
 40
0.0
 40
0.0
 40
0.0
 40
0.5072370183
 40
1.0
 40
1.0
 40
1.0
 40
1.0
 10
100.3974611186
 20
164.3681830525
 30
0.0
 10
99.9791467837
 20
161.2713771107
 30
0.0
 10
99.2878548684
 20
155.1472298403
 30
0.0
 10
98.8840101737
 20
148.9970395966
 30
0.0
 10
98.7616910849
 20
145.9637439361
 30
0.0
  0
SPLINE
  5
44F
100
AcDbEntity
  8
ASSI
100
AcDbSpline
 62
250
  6
CONTINUOUS
 70
0
 71
3
 72
14
 73
10
 74
0
 42
0.0000001
 43
0.0000001
 44
0.0000000001
 40
0.0
 40
0.0
 40
0.0
 40
0.0
 40
0.2518608402
 40
0.3669198409
 40
0.4801607485
 40
0.5968811317
 40
0.7212208046
 40
0.8554310021
 40
1.0
 40
1.0
 40
1.0
 40
1.0
 10
100.978181421
 20
164.7154806207
 30
0.0
 10
100.9183475262
 20
164.7500307974
 30
0.0
 10
100.8180978615
 20
164.7849209931
 30
0.0
 10
100.6852879001
 20
164.7715044232
 30
0.0
 10
100.5968956111
 20
164.7337226854
 30
0.0
 10
100.5215086782
 20
164.6704073593
 30
0.0
 10
100.4616989782
 20
164.5854182987
 30
0.0
 10
100.4188670674
 20
164.4826909436
 30
0.0
 10
100.4027721216
 20
164.4074853173
 30
0.0
 10
100.3974611186
 20
164.3681830525
 30
0.0
  0
SPLINE
  5
450
100
AcDbEntity
  8
ASSI
100
AcDbSpline
 62
250
  6
CONTINUOUS
 70
0
 71
3
 72
12
 73
8
 74
0
 42
0.0000001
 43
0.0000001
 44
0.0000000001
 40
0.0
 40
0.0
 40
0.0
 40
0.0
 40
0.1206825646
 40
0.2475608226
 40
0.4446890308
 40
0.6422702548
 40
1.0
 40
1.0
 40
1.0
 40
1.0
 10
213.6342053113
 20
98.9867061453
 30
0.0
 10
213.6404929736
 20
99.0282594247
 30
0.0
 10
213.6463611924
 20
99.1146800176
 30
0.0
 10
213.6346624269
 20
99.2694730704
 30
0.0
 10
213.5904722818
 20
99.4472328824
 30
0.0
 10
213.4797281458
 20
99.6849205284
 30
0.0
 10
213.3437533907
 20
99.8369972957
 30
0.0
 10
213.2358743026
 20
99.8992956702
 30
0.0
  0
SPLINE
  5
451
100
AcDbEntity
  8
ASSI
100
AcDbSpline
 62
250
  6
CONTINUOUS
 70
0
 71
3
 72
9
 73
5
 74
0
 42
0.0000001
 43
0.0000001
 44
0.0000000001
 40
0.0
 40
0.0
 40
0.0
 40
0.0
 40
0.2449455102
 40
1.0
 40
1.0
 40
1.0
 40
1.0
 10
211.8178406303
 20
80.6865399882
 30
0.0
 10
211.8851983481
 20
82.1869466485
 30
0.0
 10
212.2459612673
 20
88.3083908402
 30
0.0
 10
212.941632164
 20
94.4090784245
 30
0.0
 10
213.6342053113
 20
98.9867061453
 30
0.0
  0
SPLINE
  5
452
100
AcDbEntity
  8
ASSI
100
AcDbSpline
 62
250
  6
CONTINUOUS
 70
0
 71
3
 72
11
 73
7
 74
0
 42
0.0000001
 43
0.0000001
 44
0.0000000001
 40
0.0
 40
0.0
 40
0.0
 40
0.0
 40
0.2276809535
 40
0.4764062366
 40
0.7374029671
 40
1.0
 40
1.0
 40
1.0
 40
1.0
 10
196.0041622715
 20
90.4186554773
 30
0.0
 10
196.0879264488
 20
90.3702921638
 30
0.0
 10
196.2509670671
 20
90.2473795657
 30
0.0
 10
196.4627178896
 20
90.0146152844
 30
0.0
 10
196.6421447311
 20
89.7383584335
 30
0.0
 10
196.7337732452
 20
89.5345167377
 30
0.0
 10
196.771239214
 20
89.4294397019
 30
0.0
  0
SPLINE
  5
453
100
AcDbEntity
  8
ASSI
100
AcDbSpline
 62
250
  6
CONTINUOUS
 70
0
 71
3
 72
13
 73
9
 74
0
 42
0.0000001
 43
0.0000001
 44
0.0000000001
 40
0.0
 40
0.0
 40
0.0
 40
0.0
 40
0.1201640491
 40
0.2355361294
 40
0.3493927353
 40
0.4652909815
 40
0.7142794094
 40
1.0
 40
1.0
 40
1.0
 40
1.0
 10
163.9898228119
 20
108.301887483
 30
0.0
 10
164.0104045761
 20
108.3336581758
 30
0.0
 10
164.0566924507
 20
108.3924023868
 30
0.0
 10
164.142216729
 20
108.4630562667
 30
0.0
 10
164.2402803675
 20
108.5121628252
 30
0.0
 10
164.3879288966
 20
108.54825394
 30
0.0
 10
164.5974856965
 20
108.5305718839
 30
0.0
 10
164.7540049149
 20
108.4621082754
 30
0.0
 10
164.8319525435
 20
108.4170986947
 30
0.0
  0
SPLINE
  5
454
100
AcDbEntity
  8
ASSI
100
AcDbSpline
 62
250
  6
CONTINUOUS
 70
0
 71
3
 72
11
 73
7
 74
0
 42
0.0000001
 43
0.0000001
 44
0.0000000001
 40
0.0
 40
0.0
 40
0.0
 40
0.0
 40
0.2194945544
 40
0.4533176047
 40
0.7118788164
 40
1.0
 40
1.0
 40
1.0
 40
1.0
 10
117.7820143349
 20
133.2730829014
 30
0.0
 10
117.7663535001
 20
133.2821188604
 30
0.0
 10
117.7306208639
 20
133.2953875925
 30
0.0
 10
117.6712740107
 20
133.2979448124
 30
0.0
 10
117.6078974953
 20
133.2842086657
 30
0.0
 10
117.5664883163
 20
133.2657799674
 30
0.0
 10
117.5456306129
 20
133.254455415
 30
0.0
  0
SPLINE
  5
455
100
AcDbEntity
  8
ASSI
100
AcDbSpline
 62
250
  6
CONTINUOUS
 70
0
 71
3
 72
11
 73
7
 74
0
 42
0.0000001
 43
0.0000001
 44
0.0000000001
 40
0.0
 40
0.0
 40
0.0
 40
0.0
 40
0.2276809535
 40
0.4764062366
 40
0.7374029671
 40
1.0
 40
1.0
 40
1.0
 40
1.0
 10
145.7995808072
 20
119.4061516036
 30
0.0
 10
145.8833449845
 20
119.35778829
 30
0.0
 10
146.0463856029
 20
119.234875692
 30
0.0
 10
146.2581364253
 20
119.0021114107
 30
0.0
 10
146.4375632669
 20
118.7258545597
 30
0.0
 10
146.529191781
 20
118.522012864
 30
0.0
 10
146.5666577498
 20
118.4169358282
 30
0.0
  0
SPLINE
  5
456
100
AcDbEntity
  8
ASSI
100
AcDbSpline
 62
250
  6
CONTINUOUS
 70
0
 71
3
 72
14
 73
10
 74
0
 42
0.0000001
 43
0.0000001
 44
0.0000000001
 40
0.0
 40
0.0
 40
0.0
 40
0.0
 40
0.114403061
 40
0.2239078703
 40
0.3330256162
 40
0.4463842506
 40
0.5678320739
 40
0.699976577
 40
1.0
 40
1.0
 40
1.0
 40
1.0
 10
146.5897130095
 20
81.3334782307
 30
0.0
 10
146.5728527745
 20
81.3039616939
 30
0.0
 10
146.5337807458
 20
81.2493002378
 30
0.0
 10
146.4579746036
 20
81.1841634333
 30
0.0
 10
146.3684676759
 20
81.1402631417
 30
0.0
 10
146.2676770263
 20
81.118574592
 30
0.0
 10
146.1579063807
 20
81.1190756403
 30
0.0
 10
145.9956468002
 20
81.1499734033
 30
0.0
 10
145.8767790749
 20
81.2037093084
 30
0.0
 10
145.7995808072
 20
81.2482897407
 30
0.0
  0
SPLINE
  5
457
100
AcDbEntity
  8
ASSI
100
AcDbSpline
 62
250
  6
CONTINUOUS
 70
0
 71
3
 72
9
 73
5
 74
0
 42
0.0000001
 43
0.0000001
 44
0.0000000001
 40
0.0
 40
0.0
 40
0.0
 40
0.0
 40
0.4520578143
 40
1.0
 40
1.0
 40
1.0
 40
1.0
 10
116.9413806523
 20
133.5618094123
 30
0.0
 10
116.9546350093
 20
133.5684215107
 30
0.0
 10
116.9895268205
 20
133.5721925141
 30
0.0
 10
117.0203532877
 20
133.5583473261
 30
0.0
 10
117.035628259
 20
133.5489125512
 30
0.0
  0
SPLINE
  5
458
100
AcDbEntity
  8
ASSI
100
AcDbSpline
 62
250
  6
CONTINUOUS
 70
0
 71
3
 72
11
 73
7
 74
0
 42
0.0000001
 43
0.0000001
 44
0.0000000001
 40
0.0
 40
0.0
 40
0.0
 40
0.0
 40
0.2286279459
 40
0.4796895538
 40
0.741274551
 40
1.0
 40
1.0
 40
1.0
 40
1.0
 10
164.8319525435
 20
70.2592368318
 30
0.0
 10
164.7428753526
 20
70.3106671724
 30
0.0
 10
164.5683631188
 20
70.4404222828
 30
0.0
 10
164.3376436594
 20
70.6829593771
 30
0.0
 10
164.1381400255
 20
70.9684092375
 30
0.0
 10
164.0331347921
 20
71.1788322188
 30
0.0
 10
163.9898228119
 20
71.2868729053
 30
0.0
  0
SPLINE
  5
459
100
AcDbEntity
  8
ASSI
100
AcDbSpline
 62
250
  6
CONTINUOUS
 70
0
 71
3
 72
14
 73
10
 74
0
 42
0.0000001
 43
0.0000001
 44
0.0000000001
 40
0.0
 40
0.0
 40
0.0
 40
0.0
 40
0.114403061
 40
0.2239078703
 40
0.3330256162
 40
0.4463842506
 40
0.5678320739
 40
0.699976577
 40
1.0
 40
1.0
 40
1.0
 40
1.0
 10
196.7942944737
 20
52.3459821044
 30
0.0
 10
196.7774342387
 20
52.3164655676
 30
0.0
 10
196.7383622101
 20
52.2618041115
 30
0.0
 10
196.6625560678
 20
52.196667307
 30
0.0
 10
196.5730491402
 20
52.1527670154
 30
0.0
 10
196.4722584905
 20
52.1310784657
 30
0.0
 10
196.362487845
 20
52.131579514
 30
0.0
 10
196.2002282644
 20
52.1624772771
 30
0.0
 10
196.0813605392
 20
52.2162131821
 30
0.0
 10
196.0041622715
 20
52.2607936144
 30
0.0
  0
SPLINE
  5
45A
100
AcDbEntity
  8
ASSI
100
AcDbSpline
 62
250
  6
CONTINUOUS
 70
0
 71
3
 72
9
 73
5
 74
0
 42
0.0000001
 43
0.0000001
 44
0.0000000001
 40
0.0
 40
0.0
 40
0.0
 40
0.0
 40
0.243962173
 40
1.0
 40
1.0
 40
1.0
 40
1.0
 10
213.6342053113
 20
27.2603996091
 30
0.0
 10
213.3968243503
 20
28.5825246049
 30
0.0
 10
212.5190100499
 20
34.0187851141
 30
0.0
 10
212.0136551757
 20
39.5134504528
 30
0.0
 10
211.817840641
 20
43.6716193048
 30
0.0
  0
SPLINE
  5
45B
100
AcDbEntity
  8
ASSI
100
AcDbSpline
 62
250
  6
CONTINUOUS
 70
0
 71
3
 72
9
 73
5
 74
0
 42
0.0000001
 43
0.0000001
 44
0.0000000001
 40
0.0
 40
0.0
 40
0.0
 40
0.0
 40
0.2607204997
 40
1.0
 40
1.0
 40
1.0
 40
1.0
 10
213.2358743026
 20
27.0184113333
 30
0.0
 10
213.2429024518
 20
27.0143531404
 30
0.0
 10
213.2700938022
 20
26.9992033744
 30
0.0
 10
213.2982525436
 20
26.9857474081
 30
0.0
 10
213.3195796185
 20
26.9771036688
 30
0.0
  0
SPLINE
  5
45C
100
AcDbEntity
  8
ASSI
100
AcDbSpline
 62
250
  6
CONTINUOUS
 70
0
 71
3
 72
15
 73
11
 74
0
 42
0.0000001
 43
0.0000001
 44
0.0000000001
 40
0.0
 40
0.0
 40
0.0
 40
0.0
 40
0.1487362475
 40
0.2766544839
 40
0.3876232344
 40
0.48990754
 40
0.5945789695
 40
0.7113437602
 40
0.8458466563
 40
1.0
 40
1.0
 40
1.0
 40
1.0
 10
213.3195796185
 20
26.9771036688
 30
0.0
 10
213.3454374251
 20
26.9666236502
 30
0.0
 10
213.3951253011
 20
26.9505724061
 30
0.0
 10
213.4681142371
 20
26.9428914975
 30
0.0
 10
213.5322365263
 20
26.9545288227
 30
0.0
 10
213.5843548325
 20
26.9865588315
 30
0.0
 10
213.6207071006
 20
27.0368931228
 30
0.0
 10
213.640725737
 20
27.1014917837
 30
0.0
 10
213.6455029246
 20
27.1778958556
 30
0.0
 10
213.6393140801
 20
27.2319374567
 30
0.0
 10
213.6342053113
 20
27.2603996091
 30
0.0
  0
SPLINE
  5
45D
100
AcDbEntity
  8
ASSI
100
AcDbSpline
 62
250
  6
CONTINUOUS
 70
0
 71
3
 72
11
 73
7
 74
0
 42
0.0000001
 43
0.0000001
 44
0.0000000001
 40
0.0
 40
0.0
 40
0.0
 40
0.0
 40
0.2247952417
 40
0.4861559178
 40
0.7556589687
 40
1.0
 40
1.0
 40
1.0
 40
1.0
 10
100.3974611186
 20
92.6418765162
 30
0.0
 10
100.4097728211
 20
92.5665097828
 30
0.0
 10
100.464106465
 20
92.4082036234
 30
0.0
 10
100.5953030794
 20
92.1861527452
 30
0.0
 10
100.7679592759
 20
91.9856239032
 30
0.0
 10
100.9062996085
 20
91.8761046546
 30
0.0
 10
100.978181421
 20
91.8345962838
 30
0.0
  0
SPLINE
  5
45E
100
AcDbEntity
  8
ASSI
100
AcDbSpline
 62
250
  6
CONTINUOUS
 70
0
 71
3
 72
9
 73
5
 74
0
 42
0.0000001
 43
0.0000001
 44
0.0000000001
 40
0.0
 40
0.0
 40
0.0
 40
0.0
 40
0.5093318892
 40
1.0
 40
1.0
 40
1.0
 40
1.0
 10
98.7616910844
 20
108.948823247
 30
0.0
 10
98.8790565413
 20
106.188862696
 30
0.0
 10
99.2556092097
 20
100.7750531074
 30
0.0
 10
99.9509401693
 20
95.3921778628
 30
0.0
 10
100.3773555736
 20
92.765334371
 30
0.0
  0
SPLINE
  5
45F
100
AcDbEntity
  8
ASSI
100
AcDbSpline
 62
250
  6
CONTINUOUS
 70
0
 71
3
 72
11
 73
7
 74
0
 42
0.0000001
 43
0.0000001
 44
0.0000000001
 40
0.0
 40
0.0
 40
0.0
 40
0.0
 40
0.2286279459
 40
0.4796895538
 40
0.741274551
 40
1.0
 40
1.0
 40
1.0
 40
1.0
 10
114.6273710793
 20
99.246732958
 30
0.0
 10
114.5382938884
 20
99.2981632987
 30
0.0
 10
114.3637816545
 20
99.427918409
 30
0.0
 10
114.1330621952
 20
99.6704555033
 30
0.0
 10
113.9335585613
 20
99.9559053638
 30
0.0
 10
113.8285533278
 20
100.1663283451
 30
0.0
 10
113.7852413477
 20
100.2743690316
 30
0.0
  0
SPLINE
  5
460
100
AcDbEntity
  8
ASSI
100
AcDbSpline
 62
250
  6
CONTINUOUS
 70
0
 71
3
 72
9
 73
5
 74
0
 42
0.0000001
 43
0.0000001
 44
0.0000000001
 40
0.0
 40
0.0
 40
0.0
 40
0.0
 40
0.4584851708
 40
1.0
 40
1.0
 40
1.0
 40
1.0
 10
167.4509662881
 20
104.5908189393
 30
0.0
 10
167.4195293212
 20
104.6014120463
 30
0.0
 10
167.3441783935
 20
104.604937345
 30
0.0
 10
167.2750539349
 20
104.5793345587
 30
0.0
 10
167.2402097233
 20
104.5614164249
 30
0.0
  0
SPLINE
  5
461
100
AcDbEntity
  8
ASSI
100
AcDbSpline
 62
250
  6
CONTINUOUS
 70
0
 71
3
 72
9
 73
5
 74
0
 42
0.0000001
 43
0.0000001
 44
0.0000000001
 40
0.0
 40
0.0
 40
0.0
 40
0.0
 40
0.491802723
 40
1.0
 40
1.0
 40
1.0
 40
1.0
 10
103.9291898357
 20
165.9838301654
 30
0.0
 10
104.1613720072
 20
165.9838817981
 30
0.0
 10
104.6342810562
 20
165.9320068021
 30
0.0
 10
105.0888376234
 20
165.7965512412
 30
0.0
 10
105.3131808856
 20
165.7115058252
 30
0.0
  0
SPLINE
  5
462
100
AcDbEntity
  8
ASSI
100
AcDbSpline
 62
250
  6
CONTINUOUS
 70
0
 71
3
 72
11
 73
7
 74
0
 42
0.0000001
 43
0.0000001
 44
0.0000000001
 40
0.0
 40
0.0
 40
0.0
 40
0.0
 40
0.2194945544
 40
0.4533176047
 40
0.7118788164
 40
1.0
 40
1.0
 40
1.0
 40
1.0
 10
167.9865957991
 20
104.2855867751
 30
0.0
 10
167.9709349643
 20
104.2946227341
 30
0.0
 10
167.9352023282
 20
104.3078914663
 30
0.0
 10
167.875855475
 20
104.3104486861
 30
0.0
 10
167.8124789595
 20
104.2967125395
 30
0.0
 10
167.7710697806
 20
104.2782838412
 30
0.0
 10
167.7502120772
 20
104.2669592888
 30
0.0
  0
SPLINE
  5
463
100
AcDbEntity
  8
ASSI
100
AcDbSpline
 62
250
  6
CONTINUOUS
 70
0
 71
3
 72
10
 73
6
 74
0
 42
0.0000001
 43
0.0000001
 44
0.0000000001
 40
0.0
 40
0.0
 40
0.0
 40
0.0
 40
0.6204551488
 40
0.8391069751
 40
1.0
 40
1.0
 40
1.0
 40
1.0
 10
216.0082137095
 20
101.2708064608
 30
0.0
 10
216.1124774861
 20
101.3252123731
 30
0.0
 10
216.2542968383
 20
101.3974259602
 30
0.0
 10
216.4272169649
 20
101.4750889207
 30
0.0
 10
216.4942234604
 20
101.5014798165
 30
0.0
 10
216.5231471632
 20
101.5111476637
 30
0.0
  0
SPLINE
  5
464
100
AcDbEntity
  8
ASSI
100
AcDbSpline
 62
250
  6
CONTINUOUS
 70
0
 71
3
 72
9
 73
5
 74
0
 42
0.0000001
 43
0.0000001
 44
0.0000000001
 40
0.0
 40
0.0
 40
0.0
 40
0.0
 40
0.2805562343
 40
1.0
 40
1.0
 40
1.0
 40
1.0
 10
215.4762413666
 20
100.9818385069
 30
0.0
 10
215.5256531905
 20
101.0094768747
 30
0.0
 10
215.7020410376
 20
101.1075073697
 30
0.0
 10
215.8795002048
 20
101.2036409248
 30
0.0
 10
216.0082137095
 20
101.2708064608
 30
0.0
  0
SPLINE
  5
465
100
AcDbEntity
  8
ASSI
100
AcDbSpline
 62
250
  6
CONTINUOUS
 70
0
 71
3
 72
9
 73
5
 74
0
 42
0.0000001
 43
0.0000001
 44
0.0000000001
 40
0.0
 40
0.0
 40
0.0
 40
0.0
 40
0.2482856208
 40
1.0
 40
1.0
 40
1.0
 40
1.0
 10
103.1888963232
 20
165.8901869722
 30
0.0
 10
103.2402470294
 20
165.9037805887
 30
0.0
 10
103.4486654435
 20
165.9523972853
 30
0.0
 10
103.6626109704
 20
165.9765554587
 30
0.0
 10
103.8233435244
 20
165.982026431
 30
0.0
  0
SPLINE
  5
466
100
AcDbEntity
  8
ASSI
100
AcDbSpline
 62
250
  6
CONTINUOUS
 70
0
 71
3
 72
9
 73
5
 74
0
 42
0.0000001
 43
0.0000001
 44
0.0000000001
 40
0.0
 40
0.0
 40
0.0
 40
0.0
 40
0.5081853705
 40
1.0
 40
1.0
 40
1.0
 40
1.0
 10
216.7986458652
 20
30.5824799449
 30
0.0
 10
216.7601340887
 20
30.3456543811
 30
0.0
 10
216.6501642545
 20
29.8842289569
 30
0.0
 10
216.458645036
 20
29.4486923856
 30
0.0
 10
216.34250292
 20
29.2476173867
 30
0.0
  0
SPLINE
  5
467
100
AcDbEntity
  8
ASSI
100
AcDbSpline
 62
250
  6
CONTINUOUS
 70
0
 71
3
 72
9
 73
5
 74
0
 42
0.0000001
 43
0.0000001
 44
0.0000000001
 40
0.0
 40
0.0
 40
0.0
 40
0.0
 40
0.2523209989
 40
1.0
 40
1.0
 40
1.0
 40
1.0
 10
216.2880745148
 20
29.156939837
 30
0.0
 10
216.2594951385
 20
29.1111062809
 30
0.0
 10
216.1415201207
 20
28.9324583376
 30
0.0
 10
216.0039201287
 20
28.7666044203
 30
0.0
 10
215.8910780906
 20
28.653096711
 30
0.0
  0
SPLINE
  5
468
100
AcDbEntity
  8
ASSI
100
AcDbSpline
 62
250
  6
CONTINUOUS
 70
0
 71
3
 72
9
 73
5
 74
0
 42
0.0000001
 43
0.0000001
 44
0.0000000001
 40
0.0
 40
0.0
 40
0.0
 40
0.0
 40
0.2805555471
 40
1.0
 40
1.0
 40
1.0
 40
1.0
 10
215.826314264
 20
100.3755166817
 30
0.0
 10
215.8749524391
 20
100.4044928845
 30
0.0
 10
216.0480313036
 20
100.5082478337
 30
0.0
 10
216.2200010691
 20
100.6138820448
 30
0.0
 10
216.3425125007
 20
100.6917839701
 30
0.0
  0
SPLINE
  5
469
100
AcDbEntity
  8
ASSI
100
AcDbSpline
 62
250
  6
CONTINUOUS
 70
0
 71
3
 72
10
 73
6
 74
0
 42
0.0000001
 43
0.0000001
 44
0.0000000001
 40
0.0
 40
0.0
 40
0.0
 40
0.0
 40
0.6204481948
 40
0.8391013446
 40
1.0
 40
1.0
 40
1.0
 40
1.0
 10
216.3425125007
 20
100.6917839701
 30
0.0
 10
216.4417539749
 20
100.7548899054
 30
0.0
 10
216.5751906001
 20
100.8416256041
 30
0.0
 10
216.7288849673
 20
100.9525873083
 30
0.0
 10
216.785231334
 20
100.9974415304
 30
0.0
 10
216.8080578831
 20
101.0176678009
 30
0.0
  0
SPLINE
  5
46A
100
AcDbEntity
  8
ASSI
100
AcDbSpline
 62
250
  6
CONTINUOUS
 70
0
 71
3
 72
11
 73
7
 74
0
 42
0.0000001
 43
0.0000001
 44
0.0000000001
 40
0.0
 40
0.0
 40
0.0
 40
0.0
 40
0.2372860152
 40
0.4997968766
 40
0.7624172675
 40
1.0
 40
1.0
 40
1.0
 40
1.0
 10
113.659904203
 20
136.8495253293
 30
0.0
 10
113.7084410753
 20
136.8213492278
 30
0.0
 10
113.8204139479
 20
136.7786423526
 30
0.0
 10
113.9999840346
 20
136.7525394066
 30
0.0
 10
114.1812350336
 20
136.7625635621
 30
0.0
 10
114.2966605336
 20
136.795122137
 30
0.0
 10
114.3475970373
 20
136.8188513472
 30
0.0
  0
SPLINE
  5
46B
100
AcDbEntity
  8
ASSI
100
AcDbSpline
 62
250
  6
CONTINUOUS
 70
0
 71
3
 72
9
 73
5
 74
0
 42
0.0000001
 43
0.0000001
 44
0.0000000001
 40
0.0
 40
0.0
 40
0.0
 40
0.0
 40
0.2439630597
 40
1.0
 40
1.0
 40
1.0
 40
1.0
 10
214.0437145313
 20
27.2956515298
 30
0.0
 10
213.8067390682
 20
28.6154144417
 30
0.0
 10
212.9304236814
 20
34.041944878
 30
0.0
 10
212.4259270985
 20
39.5267847252
 30
0.0
 10
212.2304447515
 20
43.6775140389
 30
0.0
  0
SPLINE
  5
46C
100
AcDbEntity
  8
ASSI
100
AcDbSpline
 62
250
  6
CONTINUOUS
 70
0
 71
3
 72
9
 73
5
 74
0
 42
0.0000001
 43
0.0000001
 44
0.0000000001
 40
0.0
 40
0.0
 40
0.0
 40
0.0
 40
0.245544339
 40
1.0
 40
1.0
 40
1.0
 40
1.0
 10
212.2304447515
 20
43.6775140389
 30
0.0
 10
212.0879882916
 20
46.702357008
 30
0.0
 10
211.6572615231
 20
59.0280391395
 30
0.0
 10
211.8131264424
 20
71.3728292523
 30
0.0
 10
212.2304447515
 20
80.6678519401
 30
0.0
  0
SPLINE
  5
46D
100
AcDbEntity
  8
ASSI
100
AcDbSpline
 62
250
  6
CONTINUOUS
 70
0
 71
3
 72
9
 73
5
 74
0
 42
0.0000001
 43
0.0000001
 44
0.0000000001
 40
0.0
 40
0.0
 40
0.0
 40
0.0
 40
0.2449458894
 40
1.0
 40
1.0
 40
1.0
 40
1.0
 10
212.2304447515
 20
80.6678519401
 30
0.0
 10
212.29768796
 20
82.1655621322
 30
0.0
 10
212.6578366051
 20
88.2759949054
 30
0.0
 10
213.3523226596
 20
94.3657043862
 30
0.0
 10
214.0437145313
 20
98.9350871266
 30
0.0
  0
SPLINE
  5
46E
100
AcDbEntity
  8
ASSI
100
AcDbSpline
 62
250
  6
CONTINUOUS
 70
0
 71
3
 72
9
 73
5
 74
0
 42
0.0000001
 43
0.0000001
 44
0.0000000001
 40
0.0
 40
0.0
 40
0.0
 40
0.0
 40
0.2456612916
 40
1.0
 40
1.0
 40
1.0
 40
1.0
 10
114.3475958897
 20
100.8197377476
 30
0.0
 10
114.2126373293
 20
103.7650706626
 30
0.0
 10
113.8046634847
 20
115.7606909815
 30
0.0
 10
113.951994547
 20
127.7739480621
 30
0.0
 10
114.3475953006
 20
136.8188632088
 30
0.0
  0
SPLINE
  5
46F
100
AcDbEntity
  8
ASSI
100
AcDbSpline
 62
250
  6
CONTINUOUS
 70
0
 71
3
 72
10
 73
6
 74
0
 42
0.0000001
 43
0.0000001
 44
0.0000000001
 40
0.0
 40
0.0
 40
0.0
 40
0.0
 40
0.2175767826
 40
0.4509565759
 40
1.0
 40
1.0
 40
1.0
 40
1.0
 10
176.6523873126
 20
68.0038114256
 30
0.0
 10
176.6587628356
 20
68.0071839127
 30
0.0
 10
176.6733140904
 20
68.0118743431
 30
0.0
 10
176.7068819278
 20
68.0114653062
 30
0.0
 10
176.7316175773
 20
68.000586372
 30
0.0
 10
176.7470945145
 20
67.991009178
 30
0.0
  0
SPLINE
  5
470
100
AcDbEntity
  8
ASSI
100
AcDbSpline
 62
250
  6
CONTINUOUS
 70
0
 71
3
 72
9
 73
5
 74
0
 42
0.0000001
 43
0.0000001
 44
0.0000000001
 40
0.0
 40
0.0
 40
0.0
 40
0.0
 40
0.2456612916
 40
1.0
 40
1.0
 40
1.0
 40
1.0
 10
164.5521773539
 20
71.8322416213
 30
0.0
 10
164.4172187936
 20
74.7775745363
 30
0.0
 10
164.0092449489
 20
86.7731948553
 30
0.0
 10
164.1565760112
 20
98.7864519358
 30
0.0
 10
164.5521767648
 20
107.8313670825
 30
0.0
  0
SPLINE
  5
471
100
AcDbEntity
  8
ASSI
100
AcDbSpline
 62
250
  6
CONTINUOUS
 70
0
 71
3
 72
10
 73
6
 74
0
 42
0.0000001
 43
0.0000001
 44
0.0000000001
 40
0.0
 40
0.0
 40
0.0
 40
0.0
 40
0.21888179
 40
0.4529289051
 40
1.0
 40
1.0
 40
1.0
 40
1.0
 10
178.842488842
 20
67.081727772
 30
0.0
 10
178.8359672667
 20
67.0854936366
 30
0.0
 10
178.8210100798
 20
67.0909755697
 30
0.0
 10
178.7861871958
 20
67.0920163412
 30
0.0
 10
178.7600940253
 20
67.0818213895
 30
0.0
 10
178.7437226755
 20
67.0725337424
 30
0.0
  0
SPLINE
  5
472
100
AcDbEntity
  8
ASSI
100
AcDbSpline
 62
250
  6
CONTINUOUS
 70
0
 71
3
 72
10
 73
6
 74
0
 42
0.0000001
 43
0.0000001
 44
0.0000000001
 40
0.0
 40
0.0
 40
0.0
 40
0.0
 40
0.2188817647
 40
0.4529288755
 40
1.0
 40
1.0
 40
1.0
 40
1.0
 10
177.2625922303
 20
67.9939402749
 30
0.0
 10
177.2560706556
 20
67.9977061398
 30
0.0
 10
177.2411134686
 20
68.0031880722
 30
0.0
 10
177.2062905831
 20
68.0042288462
 30
0.0
 10
177.1801974095
 20
67.9940338956
 30
0.0
 10
177.1638260569
 20
67.9847462493
 30
0.0
  0
SPLINE
  5
473
100
AcDbEntity
  8
ASSI
100
AcDbSpline
 62
250
  6
CONTINUOUS
 70
0
 71
3
 72
11
 73
7
 74
0
 42
0.0000001
 43
0.0000001
 44
0.0000000001
 40
0.0
 40
0.0
 40
0.0
 40
0.0
 40
0.2791550624
 40
0.5334298274
 40
0.7697643106
 40
1.0
 40
1.0
 40
1.0
 40
1.0
 10
101.1756859275
 20
165.0296528149
 30
0.0
 10
101.127934488
 20
165.0563319535
 30
0.0
 10
101.0313381427
 20
165.0987702339
 30
0.0
 10
100.8809002597
 20
165.1245077036
 30
0.0
 10
100.7384940251
 20
165.1067368828
 30
0.0
 10
100.654614559
 20
165.0657501332
 30
0.0
 10
100.6177430799
 20
165.0397555361
 30
0.0
  0
SPLINE
  5
474
100
AcDbEntity
  8
ASSI
100
AcDbSpline
 62
250
  6
CONTINUOUS
 70
0
 71
3
 72
11
 73
7
 74
0
 42
0.0000001
 43
0.0000001
 44
0.0000000001
 40
0.0
 40
0.0
 40
0.0
 40
0.0
 40
0.2437245053
 40
0.5070496853
 40
0.7667005964
 40
1.0
 40
1.0
 40
1.0
 40
1.0
 10
214.0437145313
 20
98.9350871266
 30
0.0
 10
214.0552151332
 20
99.054635612
 30
0.0
 10
214.0368637323
 20
99.3078817906
 30
0.0
 10
213.9157991747
 20
99.6693322417
 30
0.0
 10
213.7157809439
 20
99.9878615342
 30
0.0
 10
213.53209986
 20
100.1545552832
 30
0.0
 10
213.433378809
 20
100.2134678644
 30
0.0
  0
SPLINE
  5
475
100
AcDbEntity
  8
ASSI
100
AcDbSpline
 62
250
  6
CONTINUOUS
 70
0
 71
3
 72
11
 73
7
 74
0
 42
0.0000001
 43
0.0000001
 44
0.0000000001
 40
0.0
 40
0.0
 40
0.0
 40
0.0
 40
0.2459794376
 40
0.5070714977
 40
0.7644116438
 40
1.0
 40
1.0
 40
1.0
 40
1.0
 10
100.978181421
 20
164.7154806207
 30
0.0
 10
100.9827012054
 20
164.7463582037
 30
0.0
 10
101.0000887922
 20
164.8089286688
 30
0.0
 10
101.0440018685
 20
164.8959993997
 30
0.0
 10
101.1025160208
 20
164.9723593922
 30
0.0
 10
101.1504878286
 20
165.0135789566
 30
0.0
 10
101.1756859272
 20
165.029652815
 30
0.0
  0
SPLINE
  5
476
100
AcDbEntity
  8
ASSI
100
AcDbSpline
 62
250
  6
CONTINUOUS
 70
0
 71
3
 72
11
 73
7
 74
0
 42
0.0000001
 43
0.0000001
 44
0.0000000001
 40
0.0
 40
0.0
 40
0.0
 40
0.0
 40
0.3146559746
 40
0.5821354381
 40
0.8053036157
 40
1.0
 40
1.0
 40
1.0
 40
1.0
 10
100.3974611665
 20
164.3681830702
 30
0.0
 10
100.3833259109
 20
164.3761686994
 30
0.0
 10
100.3580957229
 20
164.3927572786
 30
0.0
 10
100.3281449965
 20
164.4220391794
 30
0.0
 10
100.3101380712
 20
164.4532140705
 30
0.0
 10
100.3075873977
 20
164.4754859826
 30
0.0
 10
100.3089339193
 20
164.4854408993
 30
0.0
  0
SPLINE
  5
477
100
AcDbEntity
  8
ASSI
100
AcDbSpline
 62
250
  6
CONTINUOUS
 70
0
 71
3
 72
11
 73
7
 74
0
 42
0.0000001
 43
0.0000001
 44
0.0000000001
 40
0.0
 40
0.0
 40
0.0
 40
0.0
 40
0.2959796839
 40
0.5572281439
 40
0.7878045642
 40
1.0
 40
1.0
 40
1.0
 40
1.0
 10
98.761692991
 20
145.9637921502
 30
0.0
 10
98.7482123207
 20
145.971532616
 30
0.0
 10
98.7238734561
 20
145.9881147058
 30
0.0
 10
98.6948997919
 20
146.0181716521
 30
0.0
 10
98.6769669054
 20
146.0511412691
 30
0.0
 10
98.6733485728
 20
146.0747318497
 30
0.0
 10
98.6738007817
 20
146.0858671947
 30
0.0
  0
SPLINE
  5
478
100
AcDbEntity
  8
ASSI
100
AcDbSpline
 62
250
  6
CONTINUOUS
 70
0
 71
3
 72
10
 73
6
 74
0
 42
0.0000001
 43
0.0000001
 44
0.0000000001
 40
0.0
 40
0.0
 40
0.0
 40
0.0
 40
0.5403953916
 40
0.776598005
 40
1.0
 40
1.0
 40
1.0
 40
1.0
 10
98.7616929941
 20
108.9487775755
 30
0.0
 10
98.7374238618
 20
108.9628604158
 30
0.0
 10
98.7046651965
 20
108.9891375648
 30
0.0
 10
98.6792892786
 20
109.0351035163
 30
0.0
 10
98.6743471632
 20
109.0589220191
 30
0.0
 10
98.673834696
 20
109.0705104873
 30
0.0
  0
SPLINE
  5
479
100
AcDbEntity
  8
ASSI
100
AcDbSpline
 62
250
  6
CONTINUOUS
 70
0
 71
3
 72
9
 73
5
 74
0
 42
0.0000001
 43
0.0000001
 44
0.0000000001
 40
0.0
 40
0.0
 40
0.0
 40
0.0
 40
0.5272729655
 40
1.0
 40
1.0
 40
1.0
 40
1.0
 10
100.3974611617
 20
92.6418765501
 30
0.0
 10
100.3749410947
 20
92.655074587
 30
0.0
 10
100.3354178593
 20
92.6872297079
 30
0.0
 10
100.31394019
 20
92.7343911485
 30
0.0
 10
100.3101627656
 20
92.7574865115
 30
0.0
  0
SPLINE
  5
47A
100
AcDbEntity
  8
ASSI
100
AcDbSpline
 62
250
  6
CONTINUOUS
 70
0
 71
3
 72
9
 73
5
 74
0
 42
0.0000001
 43
0.0000001
 44
0.0000000001
 40
0.0
 40
0.0
 40
0.0
 40
0.0
 40
0.5348895626
 40
1.0
 40
1.0
 40
1.0
 40
1.0
 10
100.978181421
 20
91.8345962838
 30
0.0
 10
100.9817165891
 20
91.814527715
 30
0.0
 10
100.9936514258
 20
91.777283075
 30
0.0
 10
101.0214345734
 20
91.7485674707
 30
0.0
 10
101.0367832204
 20
91.7397137108
 30
0.0
  0
SPLINE
  5
47B
100
AcDbEntity
  8
ASSI
100
AcDbSpline
 62
250
  6
CONTINUOUS
 70
0
 71
3
 72
9
 73
5
 74
0
 42
0.0000001
 43
0.0000001
 44
0.0000000001
 40
0.0
 40
0.0
 40
0.0
 40
0.0
 40
0.5348825492
 40
1.0
 40
1.0
 40
1.0
 40
1.0
 10
213.2358743026
 20
27.0184113333
 30
0.0
 10
213.2394073991
 20
26.998354618
 30
0.0
 10
213.2513323287
 20
26.9611324632
 30
0.0
 10
213.2790832386
 20
26.9324219375
 30
0.0
 10
213.2944172416
 20
26.9235627406
 30
0.0
  0
SPLINE
  5
47C
100
AcDbEntity
  8
ASSI
100
AcDbSpline
 62
250
  6
CONTINUOUS
 70
0
 71
3
 72
11
 73
7
 74
0
 42
0.0000001
 43
0.0000001
 44
0.0000000001
 40
0.0
 40
0.0
 40
0.0
 40
0.0
 40
0.2304832009
 40
0.4863113269
 40
0.7496476391
 40
1.0
 40
1.0
 40
1.0
 40
1.0
 10
213.6342053593
 20
27.2603996468
 30
0.0
 10
213.662904888
 20
27.2440777799
 30
0.0
 10
213.7305226816
 20
27.2218211891
 30
0.0
 10
213.8389249871
 20
27.2180571526
 30
0.0
 10
213.9477480933
 20
27.2413143776
 30
0.0
 10
214.0145850235
 20
27.2747331011
 30
0.0
 10
214.0437145313
 20
27.2956515298
 30
0.0
  0
SPLINE
  5
47D
100
AcDbEntity
  8
ASSI
100
AcDbSpline
 62
250
  6
CONTINUOUS
 70
0
 71
3
 72
11
 73
7
 74
0
 42
0.0000001
 43
0.0000001
 44
0.0000000001
 40
0.0
 40
0.0
 40
0.0
 40
0.0
 40
0.2341749793
 40
0.4937439205
 40
0.7567102334
 40
1.0
 40
1.0
 40
1.0
 40
1.0
 10
211.8178428464
 20
43.6715735726
 30
0.0
 10
211.8468083157
 20
43.6549330177
 30
0.0
 10
211.914288068
 20
43.6308653422
 30
0.0
 10
212.022587912
 20
43.6205599241
 30
0.0
 10
212.1318132886
 20
43.6343176061
 30
0.0
 10
212.2003632352
 20
43.6602059986
 30
0.0
 10
212.2304447515
 20
43.6775140389
 30
0.0
  0
SPLINE
  5
47E
100
AcDbEntity
  8
ASSI
100
AcDbSpline
 62
250
  6
CONTINUOUS
 70
0
 71
3
 72
11
 73
7
 74
0
 42
0.0000001
 43
0.0000001
 44
0.0000000001
 40
0.0
 40
0.0
 40
0.0
 40
0.0
 40
0.2373292082
 40
0.4998794602
 40
0.7624946699
 40
1.0
 40
1.0
 40
1.0
 40
1.0
 10
211.8178428502
 20
80.6865881513
 30
0.0
 10
211.8469670213
 20
80.6696790709
 30
0.0
 10
211.9141460122
 20
80.6440337981
 30
0.0
 10
212.0218779267
 20
80.6282996396
 30
0.0
 10
212.1306174338
 20
80.6342093576
 30
0.0
 10
212.1998780721
 20
80.6536569987
 30
0.0
 10
212.2304447515
 20
80.6678519401
 30
0.0
  0
SPLINE
  5
47F
100
AcDbEntity
  8
ASSI
100
AcDbSpline
 62
250
  6
CONTINUOUS
 70
0
 71
3
 72
11
 73
7
 74
0
 42
0.0000001
 43
0.0000001
 44
0.0000000001
 40
0.0
 40
0.0
 40
0.0
 40
0.0
 40
0.2414342659
 40
0.5077203884
 40
0.7698852893
 40
1.0
 40
1.0
 40
1.0
 40
1.0
 10
213.6342053545
 20
98.9867061613
 30
0.0
 10
213.6634705897
 20
98.9694439629
 30
0.0
 10
213.7300532346
 20
98.9416513973
 30
0.0
 10
213.8364609124
 20
98.9187854969
 30
0.0
 10
213.9435973409
 20
98.914439212
 30
0.0
 10
214.0128812643
 20
98.9251742599
 30
0.0
 10
214.0437098142
 20
98.9350901515
 30
0.0
  0
SPLINE
  5
480
100
AcDbEntity
  8
ASSI
100
AcDbSpline
 62
250
  6
CONTINUOUS
 70
0
 71
3
 72
11
 73
7
 74
0
 42
0.0000001
 43
0.0000001
 44
0.0000000001
 40
0.0
 40
0.0
 40
0.0
 40
0.0
 40
0.2459794421
 40
0.5070715314
 40
0.7644116895
 40
1.0
 40
1.0
 40
1.0
 40
1.0
 10
213.2358743026
 20
99.8992956702
 30
0.0
 10
213.2403941117
 20
99.9301732469
 30
0.0
 10
213.2577817355
 20
99.9927436969
 30
0.0
 10
213.3016948285
 20
100.079814412
 30
0.0
 10
213.3602089586
 20
100.1561744052
 30
0.0
 10
213.4081807311
 20
100.1973939902
 30
0.0
 10
213.433378809
 20
100.2134678644
 30
0.0
  0
SPLINE
  5
481
100
AcDbEntity
  8
ASSI
100
AcDbSpline
 62
250
  6
CONTINUOUS
 70
0
 71
3
 72
11
 73
7
 74
0
 42
0.0000001
 43
0.0000001
 44
0.0000000001
 40
0.0
 40
0.0
 40
0.0
 40
0.0
 40
0.2195076977
 40
0.4533099124
 40
0.7119111456
 40
1.0
 40
1.0
 40
1.0
 40
1.0
 10
179.0303544979
 20
66.7866770771
 30
0.0
 10
179.0303554233
 20
66.7685919866
 30
0.0
 10
179.0239790334
 20
66.7310056626
 30
0.0
 10
178.9965314323
 20
66.6783106962
 30
0.0
 10
178.9529383957
 20
66.6302845994
 30
0.0
 10
178.9162708681
 20
66.603627503
 30
0.0
 10
178.8960333735
 20
66.5912252778
 30
0.0
  0
SPLINE
  5
482
100
AcDbEntity
  8
ASSI
100
AcDbSpline
 62
250
  6
CONTINUOUS
 70
0
 71
3
 72
11
 73
7
 74
0
 42
0.0000001
 43
0.0000001
 44
0.0000000001
 40
0.0
 40
0.0
 40
0.0
 40
0.0
 40
0.2625146673
 40
0.5259464652
 40
0.7748500223
 40
1.0
 40
1.0
 40
1.0
 40
1.0
 10
113.7852435943
 20
137.2893847755
 30
0.0
 10
113.8247191236
 20
137.2409423279
 30
0.0
 10
113.9193085913
 20
137.1557578504
 30
0.0
 10
114.0873372519
 20
137.0740711165
 30
0.0
 10
114.2633586664
 20
137.0456611292
 30
0.0
 10
114.3776023015
 20
137.0679847138
 30
0.0
 10
114.4264667133
 20
137.090001642
 30
0.0
  0
SPLINE
  5
483
100
AcDbEntity
  8
ASSI
100
AcDbSpline
 62
250
  6
CONTINUOUS
 70
0
 71
3
 72
9
 73
5
 74
0
 42
0.0000001
 43
0.0000001
 44
0.0000000001
 40
0.0
 40
0.0
 40
0.0
 40
0.0
 40
0.2799452606
 40
1.0
 40
1.0
 40
1.0
 40
1.0
 10
146.6729884949
 20
81.7490504955
 30
0.0
 10
146.6746348518
 20
81.709269127
 30
0.0
 10
146.6735630901
 20
81.5674611816
 30
0.0
 10
146.6406078906
 20
81.4223465827
 30
0.0
 10
146.5897130095
 20
81.3334782307
 30
0.0
  0
SPLINE
  5
484
100
AcDbEntity
  8
ASSI
100
AcDbSpline
 62
250
  6
CONTINUOUS
 70
0
 71
3
 72
9
 73
5
 74
0
 42
0.0000001
 43
0.0000001
 44
0.0000000001
 40
0.0
 40
0.0
 40
0.0
 40
0.0
 40
0.2731430219
 40
1.0
 40
1.0
 40
1.0
 40
1.0
 10
114.347595465
 20
136.8188632848
 30
0.0
 10
114.3486814747
 20
136.844717301
 30
0.0
 10
114.3574824312
 20
136.9388822089
 30
0.0
 10
114.388403766
 20
137.032618339
 30
0.0
 10
114.4264650585
 20
137.0900038401
 30
0.0
  0
SPLINE
  5
485
100
AcDbEntity
  8
ASSI
100
AcDbSpline
 62
250
  6
CONTINUOUS
 70
0
 71
3
 72
9
 73
5
 74
0
 42
0.0000001
 43
0.0000001
 44
0.0000000001
 40
0.0
 40
0.0
 40
0.0
 40
0.0
 40
0.5084228518
 40
1.0
 40
1.0
 40
1.0
 40
1.0
 10
114.4264650585
 20
137.0900038401
 30
0.0
 10
114.4435017455
 20
137.1156880633
 30
0.0
 10
114.483434504
 20
137.1623788916
 30
0.0
 10
114.5349911094
 20
137.1960450617
 30
0.0
 10
114.5620192424
 20
137.208595061
 30
0.0
  0
SPLINE
  5
486
100
AcDbEntity
  8
ASSI
100
AcDbSpline
 62
250
  6
CONTINUOUS
 70
0
 71
3
 72
9
 73
5
 74
0
 42
0.0000001
 43
0.0000001
 44
0.0000000001
 40
0.0
 40
0.0
 40
0.0
 40
0.0
 40
0.5064534018
 40
1.0
 40
1.0
 40
1.0
 40
1.0
 10
146.6729884949
 20
117.7881814947
 30
0.0
 10
146.4341123158
 20
111.7075912484
 30
0.0
 10
146.1892707198
 20
99.6912014376
 30
0.0
 10
146.4278711533
 20
87.6741816511
 30
0.0
 10
146.6729884949
 20
81.7490504955
 30
0.0
  0
SPLINE
  5
487
100
AcDbEntity
  8
ASSI
100
AcDbSpline
 62
250
  6
CONTINUOUS
 70
0
 71
3
 72
11
 73
7
 74
0
 42
0.0000001
 43
0.0000001
 44
0.0000000001
 40
0.0
 40
0.0
 40
0.0
 40
0.0
 40
0.2303336607
 40
0.4816670751
 40
0.7425248833
 40
1.0
 40
1.0
 40
1.0
 40
1.0
 10
114.9618899706
 20
99.8698309456
 30
0.0
 10
114.9055263993
 20
99.9002137737
 30
0.0
 10
114.7948789657
 20
99.977440872
 30
0.0
 10
114.6479622861
 20
100.1235952425
 30
0.0
 10
114.5208601084
 20
100.296709646
 30
0.0
 10
114.4539660578
 20
100.425159345
 30
0.0
 10
114.4264650585
 20
100.4912413772
 30
0.0
  0
SPLINE
  5
488
100
AcDbEntity
  8
ASSI
100
AcDbSpline
 62
250
  6
CONTINUOUS
 70
0
 71
3
 72
9
 73
5
 74
0
 42
0.0000001
 43
0.0000001
 44
0.0000000001
 40
0.0
 40
0.0
 40
0.0
 40
0.0
 40
0.5233357275
 40
1.0
 40
1.0
 40
1.0
 40
1.0
 10
114.4264650585
 20
100.4912413772
 30
0.0
 10
114.4037391992
 20
100.5458552008
 30
0.0
 10
114.3675919566
 20
100.6534476724
 30
0.0
 10
114.3499598504
 20
100.7659117376
 30
0.0
 10
114.3475963335
 20
100.8197380032
 30
0.0
  0
SPLINE
  5
489
100
AcDbEntity
  8
ASSI
100
AcDbSpline
 62
250
  6
CONTINUOUS
 70
0
 71
3
 72
9
 73
5
 74
0
 42
0.0000001
 43
0.0000001
 44
0.0000000001
 40
0.0
 40
0.0
 40
0.0
 40
0.0
 40
0.5192714452
 40
1.0
 40
1.0
 40
1.0
 40
1.0
 10
146.5897130095
 20
118.3484928083
 30
0.0
 10
146.6195099505
 20
118.2547014513
 30
0.0
 10
146.6638026439
 20
118.0695820086
 30
0.0
 10
146.6765687138
 20
117.8792173424
 30
0.0
 10
146.6729884949
 20
117.7881814947
 30
0.0
  0
SPLINE
  5
48A
100
AcDbEntity
  8
ASSI
100
AcDbSpline
 62
250
  6
CONTINUOUS
 70
0
 71
3
 72
11
 73
7
 74
0
 42
0.0000001
 43
0.0000001
 44
0.0000000001
 40
0.0
 40
0.0
 40
0.0
 40
0.0
 40
0.2303336607
 40
0.4816670751
 40
0.7425248833
 40
1.0
 40
1.0
 40
1.0
 40
1.0
 10
165.1664714349
 20
70.8823348193
 30
0.0
 10
165.1101078635
 20
70.9127176474
 30
0.0
 10
164.9994604299
 20
70.9899447457
 30
0.0
 10
164.8525437503
 20
71.1360991162
 30
0.0
 10
164.7254415726
 20
71.3092135198
 30
0.0
 10
164.6585475221
 20
71.4376632188
 30
0.0
 10
164.6310465227
 20
71.503745251
 30
0.0
  0
SPLINE
  5
48B
100
AcDbEntity
  8
ASSI
100
AcDbSpline
 62
250
  6
CONTINUOUS
 70
0
 71
3
 72
9
 73
5
 74
0
 42
0.0000001
 43
0.0000001
 44
0.0000000001
 40
0.0
 40
0.0
 40
0.0
 40
0.0
 40
0.5233357275
 40
1.0
 40
1.0
 40
1.0
 40
1.0
 10
164.6310465227
 20
71.503745251
 30
0.0
 10
164.6083206635
 20
71.5583590745
 30
0.0
 10
164.5721734208
 20
71.6659515462
 30
0.0
 10
164.5545413147
 20
71.7784156113
 30
0.0
 10
164.5521777978
 20
71.832241877
 30
0.0
  0
SPLINE
  5
48C
100
AcDbEntity
  8
ASSI
100
AcDbSpline
 62
250
  6
CONTINUOUS
 70
0
 71
3
 72
9
 73
5
 74
0
 42
0.0000001
 43
0.0000001
 44
0.0000000001
 40
0.0
 40
0.0
 40
0.0
 40
0.0
 40
0.2743822942
 40
1.0
 40
1.0
 40
1.0
 40
1.0
 10
163.8644831942
 20
107.8620279154
 30
0.0
 10
163.866320816
 20
107.9040769607
 30
0.0
 10
163.8805795396
 20
108.0565202343
 30
0.0
 10
163.9292121238
 20
108.2085302128
 30
0.0
 10
163.9898228119
 20
108.301887483
 30
0.0
  0
SPLINE
  5
48D
100
AcDbEntity
  8
ASSI
100
AcDbSpline
 62
250
  6
CONTINUOUS
 70
0
 71
3
 72
9
 73
5
 74
0
 42
0.0000001
 43
0.0000001
 44
0.0000000001
 40
0.0
 40
0.0
 40
0.0
 40
0.0
 40
0.2731430219
 40
1.0
 40
1.0
 40
1.0
 40
1.0
 10
164.5521769292
 20
107.8313671585
 30
0.0
 10
164.5532629389
 20
107.8572211747
 30
0.0
 10
164.5620638954
 20
107.9513860827
 30
0.0
 10
164.5929852302
 20
108.0451222127
 30
0.0
 10
164.6310465227
 20
108.1025077139
 30
0.0
  0
SPLINE
  5
48E
100
AcDbEntity
  8
ASSI
100
AcDbSpline
 62
250
  6
CONTINUOUS
 70
0
 71
3
 72
9
 73
5
 74
0
 42
0.0000001
 43
0.0000001
 44
0.0000000001
 40
0.0
 40
0.0
 40
0.0
 40
0.0
 40
0.5084228518
 40
1.0
 40
1.0
 40
1.0
 40
1.0
 10
164.6310465227
 20
108.1025077139
 30
0.0
 10
164.6480832097
 20
108.128191937
 30
0.0
 10
164.6880159682
 20
108.1748827653
 30
0.0
 10
164.7395725737
 20
108.2085489354
 30
0.0
 10
164.7666007066
 20
108.2210989347
 30
0.0
  0
SPLINE
  5
48F
100
AcDbEntity
  8
ASSI
100
AcDbSpline
 62
250
  6
CONTINUOUS
 70
0
 71
3
 72
9
 73
5
 74
0
 42
0.0000001
 43
0.0000001
 44
0.0000000001
 40
0.0
 40
0.0
 40
0.0
 40
0.0
 40
0.5479316456
 40
1.0
 40
1.0
 40
1.0
 40
1.0
 10
128.6914519093
 20
94.989852578
 30
0.0
 10
128.6919845175
 20
94.9719119899
 30
0.0
 10
128.6885618247
 20
94.9383028619
 30
0.0
 10
128.6678605639
 20
94.909977263
 30
0.0
 10
128.6555122296
 20
94.9018038375
 30
0.0
  0
SPLINE
  5
490
100
AcDbEntity
  8
ASSI
100
AcDbSpline
 62
250
  6
CONTINUOUS
 70
0
 71
3
 72
11
 73
7
 74
0
 42
0.0000001
 43
0.0000001
 44
0.0000000001
 40
0.0
 40
0.0
 40
0.0
 40
0.0
 40
0.2390840703
 40
0.5016460438
 40
0.7633094348
 40
1.0
 40
1.0
 40
1.0
 40
1.0
 10
128.5464152874
 20
95.8214772674
 30
0.0
 10
128.5670409807
 20
95.8103648583
 30
0.0
 10
128.6061927535
 20
95.7792755502
 30
0.0
 10
128.6519162205
 20
95.7193122277
 30
0.0
 10
128.6829851151
 20
95.6508607396
 30
0.0
 10
128.6916201186
 20
95.6019149645
 30
0.0
 10
128.6914519093
 20
95.5787214041
 30
0.0
  0
SPLINE
  5
491
100
AcDbEntity
  8
ASSI
100
AcDbSpline
 62
250
  6
CONTINUOUS
 70
0
 71
3
 72
10
 73
6
 74
0
 42
0.0000001
 43
0.0000001
 44
0.0000000001
 40
0.0
 40
0.0
 40
0.0
 40
0.0
 40
0.5470711245
 40
0.7811182353
 40
1.0
 40
1.0
 40
1.0
 40
1.0
 10
128.5391412113
 20
96.0600298687
 30
0.0
 10
128.5555125639
 20
96.069317515
 30
0.0
 10
128.5816057374
 20
96.0795124657
 30
0.0
 10
128.616428623
 20
96.0784716916
 30
0.0
 10
128.63138581
 20
96.0729897592
 30
0.0
 10
128.6379073846
 20
96.0692238944
 30
0.0
  0
SPLINE
  5
492
100
AcDbEntity
  8
ASSI
100
AcDbSpline
 62
250
  6
CONTINUOUS
 70
0
 71
3
 72
10
 73
6
 74
0
 42
0.0000001
 43
0.0000001
 44
0.0000000001
 40
0.0
 40
0.0
 40
0.0
 40
0.0
 40
0.5470711155
 40
0.781118229
 40
1.0
 40
1.0
 40
1.0
 40
1.0
 10
126.9592445927
 20
96.9722423755
 30
0.0
 10
126.9756159462
 20
96.9815300209
 30
0.0
 10
127.0017091206
 20
96.9917249701
 30
0.0
 10
127.0365320075
 20
96.9906841965
 30
0.0
 10
127.0514891951
 20
96.9852022635
 30
0.0
 10
127.0580107703
 20
96.9814363987
 30
0.0
  0
SPLINE
  5
493
100
AcDbEntity
  8
ASSI
100
AcDbSpline
 62
250
  6
CONTINUOUS
 70
0
 71
3
 72
10
 73
6
 74
0
 42
0.0000001
 43
0.0000001
 44
0.0000000001
 40
0.0
 40
0.0
 40
0.0
 40
0.0
 40
0.5490434471
 40
0.7824232365
 40
1.0
 40
1.0
 40
1.0
 40
1.0
 10
126.5425130503
 20
96.9785053043
 30
0.0
 10
126.5270361145
 20
96.9880824999
 30
0.0
 10
126.5023004662
 20
96.9989614367
 30
0.0
 10
126.468732631
 20
96.9993704721
 30
0.0
 10
126.4541813773
 20
96.9946800433
 30
0.0
 10
126.4478058556
 20
96.991307556
 30
0.0
  0
SPLINE
  5
494
100
AcDbEntity
  8
ASSI
100
AcDbSpline
 62
250
  6
CONTINUOUS
 70
0
 71
3
 72
10
 73
6
 74
0
 42
0.0000001
 43
0.0000001
 44
0.0000000001
 40
0.0
 40
0.0
 40
0.0
 40
0.0
 40
0.5490361059
 40
0.7824180822
 40
1.0
 40
1.0
 40
1.0
 40
1.0
 10
117.6833346074
 20
130.6936336927
 30
0.0
 10
117.6838896348
 20
130.6754447203
 30
0.0
 10
117.6809429689
 20
130.6485880697
 30
0.0
 10
117.6645157593
 20
130.6193176173
 30
0.0
 10
117.6531800586
 20
130.6090621862
 30
0.0
 10
117.647072641
 20
130.6052272481
 30
0.0
  0
SPLINE
  5
495
100
AcDbEntity
  8
ASSI
100
AcDbSpline
 62
250
  6
CONTINUOUS
 70
0
 71
3
 72
10
 73
6
 74
0
 42
0.0000001
 43
0.0000001
 44
0.0000000001
 40
0.0
 40
0.0
 40
0.0
 40
0.0
 40
0.547056766
 40
0.7811084586
 40
1.0
 40
1.0
 40
1.0
 40
1.0
 10
117.8862766999
 20
131.0576649528
 30
0.0
 10
117.9025045228
 20
131.067199671
 30
0.0
 10
117.9243783389
 20
131.0847005975
 30
0.0
 10
117.9408867592
 20
131.1153787345
 30
0.0
 10
117.9436178715
 20
131.1310731844
 30
0.0
 10
117.9436175306
 20
131.1386041976
 30
0.0
  0
SPLINE
  5
496
100
AcDbEntity
  8
ASSI
100
AcDbSpline
 62
250
  6
CONTINUOUS
 70
0
 71
3
 72
10
 73
6
 74
0
 42
0.0000001
 43
0.0000001
 44
0.0000000001
 40
0.0
 40
0.0
 40
0.0
 40
0.0
 40
0.5470566055
 40
0.7811084857
 40
1.0
 40
1.0
 40
1.0
 40
1.0
 10
117.8862766999
 20
132.8819136572
 30
0.0
 10
117.9025043868
 20
132.8914482941
 30
0.0
 10
117.9243780237
 20
132.908949037
 30
0.0
 10
117.9408865085
 20
132.9396268021
 30
0.0
 10
117.9436177752
 20
132.9553210909
 30
0.0
 10
117.9436175306
 20
132.962852042
 30
0.0
  0
SPLINE
  5
497
100
AcDbEntity
  8
ASSI
100
AcDbSpline
 62
250
  6
CONTINUOUS
 70
0
 71
3
 72
11
 73
7
 74
0
 42
0.0000001
 43
0.0000001
 44
0.0000000001
 40
0.0
 40
0.0
 40
0.0
 40
0.0
 40
0.2390754581
 40
0.5016341887
 40
0.7633008088
 40
1.0
 40
1.0
 40
1.0
 40
1.0
 10
117.6833346074
 20
133.0074661403
 30
0.0
 10
117.6840244514
 20
133.0308838775
 30
0.0
 10
117.6766768619
 20
133.0803340379
 30
0.0
 10
117.6476090291
 20
133.1499126223
 30
0.0
 10
117.6038621107
 20
133.2110454855
 30
0.0
 10
117.5657908029
 20
133.2429975852
 30
0.0
 10
117.5456200517
 20
133.2544496818
 30
0.0
  0
SPLINE
  5
498
100
AcDbEntity
  8
ASSI
100
AcDbSpline
 62
250
  6
CONTINUOUS
 70
0
 71
3
 72
9
 73
5
 74
0
 42
0.0000001
 43
0.0000001
 44
0.0000000001
 40
0.0
 40
0.0
 40
0.0
 40
0.0
 40
0.5479404655
 40
1.0
 40
1.0
 40
1.0
 40
1.0
 10
167.2402097233
 20
104.5614164249
 30
0.0
 10
167.2249358413
 20
104.5708505267
 30
0.0
 10
167.1941117975
 20
104.5846948191
 30
0.0
 10
167.1592225789
 20
104.5809266959
 30
0.0
 10
167.1459683827
 20
104.5743164115
 30
0.0
  0
SPLINE
  5
499
100
AcDbEntity
  8
ASSI
100
AcDbSpline
 62
250
  6
CONTINUOUS
 70
0
 71
3
 72
10
 73
6
 74
0
 42
0.0000001
 43
0.0000001
 44
0.0000000001
 40
0.0
 40
0.0
 40
0.0
 40
0.0
 40
0.5490361059
 40
0.7824180822
 40
1.0
 40
1.0
 40
1.0
 40
1.0
 10
167.8879160716
 20
101.7061375664
 30
0.0
 10
167.8884710991
 20
101.6879485941
 30
0.0
 10
167.8855244331
 20
101.6610919434
 30
0.0
 10
167.8690972235
 20
101.631821491
 30
0.0
 10
167.8577615229
 20
101.6215660599
 30
0.0
 10
167.8516541052
 20
101.6177311219
 30
0.0
  0
SPLINE
  5
49A
100
AcDbEntity
  8
ASSI
100
AcDbSpline
 62
250
  6
CONTINUOUS
 70
0
 71
3
 72
10
 73
6
 74
0
 42
0.0000001
 43
0.0000001
 44
0.0000000001
 40
0.0
 40
0.0
 40
0.0
 40
0.0
 40
0.547056766
 40
0.7811084586
 40
1.0
 40
1.0
 40
1.0
 40
1.0
 10
168.0908581642
 20
102.0701688265
 30
0.0
 10
168.1070859871
 20
102.0797035448
 30
0.0
 10
168.1289598031
 20
102.0972044713
 30
0.0
 10
168.1454682234
 20
102.1278826082
 30
0.0
 10
168.1481993358
 20
102.1435770581
 30
0.0
 10
168.1481989949
 20
102.1511080713
 30
0.0
  0
SPLINE
  5
49B
100
AcDbEntity
  8
ASSI
100
AcDbSpline
 62
250
  6
CONTINUOUS
 70
0
 71
3
 72
10
 73
6
 74
0
 42
0.0000001
 43
0.0000001
 44
0.0000000001
 40
0.0
 40
0.0
 40
0.0
 40
0.0
 40
0.5470566055
 40
0.7811084857
 40
1.0
 40
1.0
 40
1.0
 40
1.0
 10
168.0908581642
 20
103.894417531
 30
0.0
 10
168.107085851
 20
103.9039521678
 30
0.0
 10
168.128959488
 20
103.9214529107
 30
0.0
 10
168.1454679727
 20
103.9521306758
 30
0.0
 10
168.1481992395
 20
103.9678249647
 30
0.0
 10
168.1481989949
 20
103.9753559157
 30
0.0
  0
SPLINE
  5
49C
100
AcDbEntity
  8
ASSI
100
AcDbSpline
 62
250
  6
CONTINUOUS
 70
0
 71
3
 72
11
 73
7
 74
0
 42
0.0000001
 43
0.0000001
 44
0.0000000001
 40
0.0
 40
0.0
 40
0.0
 40
0.0
 40
0.2390754581
 40
0.5016341887
 40
0.7633008088
 40
1.0
 40
1.0
 40
1.0
 40
1.0
 10
167.8879160716
 20
104.019970014
 30
0.0
 10
167.8886059157
 20
104.0433877512
 30
0.0
 10
167.8812583262
 20
104.0928379116
 30
0.0
 10
167.8521904933
 20
104.1624164961
 30
0.0
 10
167.8084435749
 20
104.2235493592
 30
0.0
 10
167.7703722672
 20
104.255501459
 30
0.0
 10
167.750201516
 20
104.2669535555
 30
0.0
  0
SPLINE
  5
49D
100
AcDbEntity
  8
ASSI
100
AcDbSpline
 62
250
  6
CONTINUOUS
 70
0
 71
3
 72
11
 73
7
 74
0
 42
0.0000001
 43
0.0000001
 44
0.0000000001
 40
0.0
 40
0.0
 40
0.0
 40
0.0
 40
0.2366905665
 40
0.4983539583
 40
0.7609159315
 40
1.0
 40
1.0
 40
1.0
 40
1.0
 10
178.8960333735
 20
66.5912252778
 30
0.0
 10
178.896201583
 20
66.6144188384
 30
0.0
 10
178.8875665794
 20
66.6633646136
 30
0.0
 10
178.856497684
 20
66.7318161015
 30
0.0
 10
178.810774217
 20
66.7917794238
 30
0.0
 10
178.7716224447
 20
66.8228687319
 30
0.0
 10
178.7509967517
 20
66.8339811411
 30
0.0
  0
SPLINE
  5
49E
100
AcDbEntity
  8
ASSI
100
AcDbSpline
 62
250
  6
CONTINUOUS
 70
0
 71
3
 72
9
 73
5
 74
0
 42
0.0000001
 43
0.0000001
 44
0.0000000001
 40
0.0
 40
0.0
 40
0.0
 40
0.0
 40
0.5479316456
 40
1.0
 40
1.0
 40
1.0
 40
1.0
 10
178.8960333735
 20
66.0023564518
 30
0.0
 10
178.8965659817
 20
65.9844158636
 30
0.0
 10
178.8931432889
 20
65.9508067356
 30
0.0
 10
178.8724420282
 20
65.9224811367
 30
0.0
 10
178.8600936938
 20
65.9143077113
 30
0.0
  0
SPLINE
  5
49F
100
AcDbEntity
  8
ASSI
100
AcDbSpline
 62
250
  6
CONTINUOUS
 70
0
 71
3
 72
9
 73
5
 74
0
 42
0.0000001
 43
0.0000001
 44
0.0000000001
 40
0.0
 40
0.0
 40
0.0
 40
0.0
 40
0.2759838747
 40
1.0
 40
1.0
 40
1.0
 40
1.0
 10
146.6729908591
 20
81.7490519945
 30
0.0
 10
146.6585484882
 20
81.7574313671
 30
0.0
 10
146.6080646409
 20
81.7905002121
 30
0.0
 10
146.5647642084
 20
81.8370932357
 30
0.0
 10
146.545833891
 20
81.8765948873
 30
0.0
  0
SPLINE
  5
4A0
100
AcDbEntity
  8
ASSI
100
AcDbSpline
 62
250
  6
CONTINUOUS
 70
0
 71
3
 72
9
 73
5
 74
0
 42
0.0000001
 43
0.0000001
 44
0.0000000001
 40
0.0
 40
0.0
 40
0.0
 40
0.0
 40
0.2563751148
 40
1.0
 40
1.0
 40
1.0
 40
1.0
 10
146.545833891
 20
81.8765948873
 30
0.0
 10
146.5429375589
 20
81.8826386266
 30
0.0
 10
146.5327408689
 20
81.9067185358
 30
0.0
 10
146.5273463647
 20
81.9328754524
 30
0.0
 10
146.5265429136
 20
81.952297947
 30
0.0
  0
SPLINE
  5
4A1
100
AcDbEntity
  8
ASSI
100
AcDbSpline
 62
250
  6
CONTINUOUS
 70
0
 71
3
 72
11
 73
7
 74
0
 42
0.0000001
 43
0.0000001
 44
0.0000000001
 40
0.0
 40
0.0
 40
0.0
 40
0.0
 40
0.2881109481
 40
0.5466687283
 40
0.7804956627
 40
1.0
 40
1.0
 40
1.0
 40
1.0
 10
128.6914621479
 20
95.5787276803
 30
0.0
 10
128.7116972319
 20
95.5911296677
 30
0.0
 10
128.7483595177
 20
95.6177789128
 30
0.0
 10
128.7919402962
 20
95.6657999135
 30
0.0
 10
128.8193962473
 20
95.7184778874
 30
0.0
 10
128.8257701677
 20
95.7560594831
 30
0.0
 10
128.8257748671
 20
95.7741412489
 30
0.0
  0
SPLINE
  5
4A2
100
AcDbEntity
  8
ASSI
100
AcDbSpline
 62
250
  6
CONTINUOUS
 70
0
 71
3
 72
9
 73
5
 74
0
 42
0.0000001
 43
0.0000001
 44
0.0000000001
 40
0.0
 40
0.0
 40
0.0
 40
0.0
 40
0.5414754045
 40
1.0
 40
1.0
 40
1.0
 40
1.0
 10
128.6914519093
 20
94.989852578
 30
0.0
 10
128.7243622942
 20
95.0110532703
 30
0.0
 10
128.7810509373
 20
95.0580764163
 30
0.0
 10
128.8156785746
 20
95.12501665
 30
0.0
 10
128.8222487555
 20
95.1575097776
 30
0.0
  0
SPLINE
  5
4A3
100
AcDbEntity
  8
ASSI
100
AcDbSpline
 62
250
  6
CONTINUOUS
 70
0
 71
3
 72
11
 73
7
 74
0
 42
0.0000001
 43
0.0000001
 44
0.0000000001
 40
0.0
 40
0.0
 40
0.0
 40
0.0
 40
0.286333683
 40
0.5447142814
 40
0.7794491648
 40
1.0
 40
1.0
 40
1.0
 40
1.0
 10
117.0356391261
 20
133.5489181411
 30
0.0
 10
117.0571047321
 20
133.5599564946
 30
0.0
 10
117.0997401472
 20
133.577786392
 30
0.0
 10
117.1647611995
 20
133.590507888
 30
0.0
 10
117.2255591047
 20
133.5870166437
 30
0.0
 10
117.2621797189
 20
133.5732275183
 30
0.0
 10
117.2782812737
 20
133.5639320653
 30
0.0
  0
SPLINE
  5
4A4
100
AcDbEntity
  8
ASSI
100
AcDbSpline
 62
250
  6
CONTINUOUS
 70
0
 71
3
 72
9
 73
5
 74
0
 42
0.0000001
 43
0.0000001
 44
0.0000000001
 40
0.0
 40
0.0
 40
0.0
 40
0.0
 40
0.5414754045
 40
1.0
 40
1.0
 40
1.0
 40
1.0
 10
178.8960333735
 20
66.0023564518
 30
0.0
 10
178.9289437585
 20
66.0235571441
 30
0.0
 10
178.9856324015
 20
66.0705802901
 30
0.0
 10
179.0202600388
 20
66.1375205237
 30
0.0
 10
179.0268302198
 20
66.1700136513
 30
0.0
  0
SPLINE
  5
4A5
100
AcDbEntity
  8
ASSI
100
AcDbSpline
 62
250
  6
CONTINUOUS
 70
0
 71
3
 72
11
 73
7
 74
0
 42
0.0000001
 43
0.0000001
 44
0.0000000001
 40
0.0
 40
0.0
 40
0.0
 40
0.0
 40
0.2388559014
 40
0.5016468754
 40
0.7635460705
 40
1.0
 40
1.0
 40
1.0
 40
1.0
 10
167.8879160716
 20
101.7061375664
 30
0.0
 10
167.9169744148
 20
101.7243905933
 30
0.0
 10
167.9716250437
 20
101.7729922912
 30
0.0
 10
168.0352524846
 20
101.863289786
 30
0.0
 10
168.0785085091
 20
101.964553364
 30
0.0
 10
168.0908623184
 20
102.0361983113
 30
0.0
 10
168.0908581642
 20
102.0701688265
 30
0.0
  0
SPLINE
  5
4A6
100
AcDbEntity
  8
ASSI
100
AcDbSpline
 62
250
  6
CONTINUOUS
 70
0
 71
3
 72
15
 73
11
 74
0
 42
0.0000001
 43
0.0000001
 44
0.0000000001
 40
0.0
 40
0.0
 40
0.0
 40
0.0
 40
0.1464925584
 40
0.2776662051
 40
0.395531284
 40
0.5050626488
 40
0.6136846686
 40
0.7291214096
 40
0.8570086103
 40
1.0
 40
1.0
 40
1.0
 40
1.0
 10
168.0908581642
 20
103.894417531
 30
0.0
 10
168.0908599846
 20
103.9092957972
 30
0.0
 10
168.0886755829
 20
103.9375888169
 30
0.0
 10
168.0775773967
 20
103.9765358255
 30
0.0
 10
168.058904468
 20
104.0083692356
 30
0.0
 10
168.0329443887
 20
104.031492706
 30
0.0
 10
168.0008912589
 20
104.0443568769
 30
0.0
 10
167.9646793855
 20
104.0464460234
 30
0.0
 10
167.9259495367
 20
104.0382364369
 30
0.0
 10
167.9006574112
 20
104.0269389729
 30
0.0
 10
167.8879160716
 20
104.019970014
 30
0.0
  0
SPLINE
  5
4A7
100
AcDbEntity
  8
ASSI
100
AcDbSpline
 62
250
  6
CONTINUOUS
 70
0
 71
3
 72
11
 73
7
 74
0
 42
0.0000001
 43
0.0000001
 44
0.0000000001
 40
0.0
 40
0.0
 40
0.0
 40
0.0
 40
0.2717953396
 40
0.5280496217
 40
0.7689158691
 40
1.0
 40
1.0
 40
1.0
 40
1.0
 10
146.5897152561
 20
81.3334796587
 30
0.0
 10
146.5591318593
 20
81.3681796217
 30
0.0
 10
146.507553632
 20
81.4431936476
 30
0.0
 10
146.464696056
 20
81.5687487323
 30
0.0
 10
146.4624123065
 20
81.6948710452
 30
0.0
 10
146.4895710764
 20
81.7726672464
 30
0.0
 10
146.5091435915
 20
81.8067763864
 30
0.0
  0
SPLINE
  5
4A8
100
AcDbEntity
  8
ASSI
100
AcDbSpline
 62
250
  6
CONTINUOUS
 70
0
 71
3
 72
11
 73
7
 74
0
 42
0.0000001
 43
0.0000001
 44
0.0000000001
 40
0.0
 40
0.0
 40
0.0
 40
0.0
 40
0.2322940224
 40
0.493230288
 40
0.7578526612
 40
1.0
 40
1.0
 40
1.0
 40
1.0
 10
145.7995808072
 20
81.2482897407
 30
0.0
 10
145.7968222651
 20
81.3049974211
 30
0.0
 10
145.8137578067
 20
81.4265393994
 30
0.0
 10
145.8838664244
 20
81.5994766112
 30
0.0
 10
145.9909138887
 20
81.755272888
 30
0.0
 10
146.0842085384
 20
81.8395568599
 30
0.0
 10
146.1341041646
 20
81.8713853202
 30
0.0
  0
SPLINE
  5
4A9
100
AcDbEntity
  8
ASSI
100
AcDbSpline
 62
250
  6
CONTINUOUS
 70
0
 71
3
 72
9
 73
5
 74
0
 42
0.0000001
 43
0.0000001
 44
0.0000000001
 40
0.0
 40
0.0
 40
0.0
 40
0.0
 40
0.2746734062
 40
1.0
 40
1.0
 40
1.0
 40
1.0
 10
178.7437226755
 20
67.0725337424
 30
0.0
 10
178.7512469955
 20
67.0681907336
 30
0.0
 10
178.7778491673
 20
67.0511802636
 30
0.0
 10
178.801478224
 20
67.0285783695
 30
0.0
 10
178.8137037395
 20
67.0091655889
 30
0.0
  0
SPLINE
  5
4AA
100
AcDbEntity
  8
ASSI
100
AcDbSpline
 62
250
  6
CONTINUOUS
 70
0
 71
3
 72
11
 73
7
 74
0
 42
0.0000001
 43
0.0000001
 44
0.0000000001
 40
0.0
 40
0.0
 40
0.0
 40
0.0
 40
0.2350577077
 40
0.4607598532
 40
0.7092464058
 40
1.0
 40
1.0
 40
1.0
 40
1.0
 10
178.8137037395
 20
67.0091655889
 30
0.0
 10
178.8224242427
 20
66.9953183842
 30
0.0
 10
178.8348287653
 20
66.9643263104
 30
0.0
 10
178.828586323
 20
66.9133513659
 30
0.0
 10
178.7984585919
 20
66.8677346569
 30
0.0
 10
178.7682881794
 20
66.8445043481
 30
0.0
 10
178.7509967517
 20
66.8339811411
 30
0.0
  0
SPLINE
  5
4AB
100
AcDbEntity
  8
ASSI
100
AcDbSpline
 62
250
  6
CONTINUOUS
 70
0
 71
3
 72
11
 73
7
 74
0
 42
0.0000001
 43
0.0000001
 44
0.0000000001
 40
0.0
 40
0.0
 40
0.0
 40
0.0
 40
0.2388589001
 40
0.501640347
 40
0.7635341761
 40
1.0
 40
1.0
 40
1.0
 40
1.0
 10
176.7470945145
 20
67.991009178
 30
0.0
 10
176.777430217
 20
68.0070512385
 30
0.0
 10
176.8468465198
 20
68.0300776656
 30
0.0
 10
176.9568583568
 20
68.0400341828
 30
0.0
 10
177.066183447
 20
68.0268624555
 30
0.0
 10
177.134407999
 20
68.0017374918
 30
0.0
 10
177.1638260569
 20
67.9847462493
 30
0.0
  0
SPLINE
  5
4AC
100
AcDbEntity
  8
ASSI
100
AcDbSpline
 62
250
  6
CONTINUOUS
 70
0
 71
3
 72
11
 73
7
 74
0
 42
0.0000001
 43
0.0000001
 44
0.0000000001
 40
0.0
 40
0.0
 40
0.0
 40
0.0
 40
0.2322940311
 40
0.4932302992
 40
0.7578526692
 40
1.0
 40
1.0
 40
1.0
 40
1.0
 10
114.6273710793
 20
99.246732958
 30
0.0
 10
114.6246125378
 20
99.3034406405
 30
0.0
 10
114.6415480818
 20
99.4249826211
 30
0.0
 10
114.7116567021
 20
99.5979198334
 30
0.0
 10
114.8187041656
 20
99.7537161077
 30
0.0
 10
114.9119988125
 20
99.8380000778
 30
0.0
 10
114.9618944366
 20
99.8698285376
 30
0.0
  0
SPLINE
  5
4AD
100
AcDbEntity
  8
ASSI
100
AcDbSpline
 62
250
  6
CONTINUOUS
 70
0
 71
3
 72
12
 73
8
 74
0
 42
0.0000001
 43
0.0000001
 44
0.0000000001
 40
0.0
 40
0.0
 40
0.0
 40
0.0
 40
0.0941794196
 40
0.2050230762
 40
0.4625667484
 40
0.7397932048
 40
1.0
 40
1.0
 40
1.0
 40
1.0
 10
113.7852441211
 20
100.2743707942
 30
0.0
 10
113.8066751548
 20
100.2745839768
 30
0.0
 10
113.8532934925
 20
100.2784384198
 30
0.0
 10
113.9570702424
 20
100.2965350105
 30
0.0
 10
114.098715617
 20
100.3370881031
 30
0.0
 10
114.2670219846
 20
100.4039820211
 30
0.0
 10
114.3759393287
 20
100.4603660737
 30
0.0
 10
114.4264671683
 20
100.4912413217
 30
0.0
  0
SPLINE
  5
4AE
100
AcDbEntity
  8
ASSI
100
AcDbSpline
 62
250
  6
CONTINUOUS
 70
0
 71
3
 72
11
 73
7
 74
0
 42
0.0000001
 43
0.0000001
 44
0.0000000001
 40
0.0
 40
0.0
 40
0.0
 40
0.0
 40
0.2388559014
 40
0.5016468754
 40
0.7635460705
 40
1.0
 40
1.0
 40
1.0
 40
1.0
 10
117.6833346074
 20
130.6936336927
 30
0.0
 10
117.7123929505
 20
130.7118867196
 30
0.0
 10
117.7670435794
 20
130.7604884175
 30
0.0
 10
117.8306710204
 20
130.8507859123
 30
0.0
 10
117.8739270448
 20
130.9520494903
 30
0.0
 10
117.8862808541
 20
131.0236944375
 30
0.0
 10
117.8862766999
 20
131.0576649528
 30
0.0
  0
SPLINE
  5
4AF
100
AcDbEntity
  8
ASSI
100
AcDbSpline
 62
250
  6
CONTINUOUS
 70
0
 71
3
 72
15
 73
11
 74
0
 42
0.0000001
 43
0.0000001
 44
0.0000000001
 40
0.0
 40
0.0
 40
0.0
 40
0.0
 40
0.1464925584
 40
0.2776662051
 40
0.395531284
 40
0.5050626488
 40
0.6136846686
 40
0.7291214096
 40
0.8570086103
 40
1.0
 40
1.0
 40
1.0
 40
1.0
 10
117.8862766999
 20
132.8819136572
 30
0.0
 10
117.8862785204
 20
132.8967919235
 30
0.0
 10
117.8840941187
 20
132.9250849432
 30
0.0
 10
117.8729959324
 20
132.9640319518
 30
0.0
 10
117.8543230037
 20
132.9958653619
 30
0.0
 10
117.8283629244
 20
133.0189888323
 30
0.0
 10
117.7963097947
 20
133.0318530032
 30
0.0
 10
117.7600979213
 20
133.0339421496
 30
0.0
 10
117.7213680725
 20
133.0257325631
 30
0.0
 10
117.6960759469
 20
133.0144350992
 30
0.0
 10
117.6833346074
 20
133.0074661403
 30
0.0
  0
SPLINE
  5
4B0
100
AcDbEntity
  8
ASSI
100
AcDbSpline
 62
250
  6
CONTINUOUS
 70
0
 71
3
 72
11
 73
7
 74
0
 42
0.0000001
 43
0.0000001
 44
0.0000000001
 40
0.0
 40
0.0
 40
0.0
 40
0.0
 40
0.2919652424
 40
0.545994717
 40
0.7743891263
 40
1.0
 40
1.0
 40
1.0
 40
1.0
 10
128.5464152874
 20
95.8214772674
 30
0.0
 10
128.5617072729
 20
95.8307846914
 30
0.0
 10
128.5887567938
 20
95.8511240013
 30
0.0
 10
128.617902944
 20
95.8896458969
 30
0.0
 10
128.6299846915
 20
95.932605364
 30
0.0
 10
128.6252397504
 20
95.9610236165
 30
0.0
 10
128.6204208018
 20
95.9739903757
 30
0.0
  0
SPLINE
  5
4B1
100
AcDbEntity
  8
ASSI
100
AcDbSpline
 62
250
  6
CONTINUOUS
 70
0
 71
3
 72
9
 73
5
 74
0
 42
0.0000001
 43
0.0000001
 44
0.0000000001
 40
0.0
 40
0.0
 40
0.0
 40
0.0
 40
0.2222711876
 40
1.0
 40
1.0
 40
1.0
 40
1.0
 10
128.6204208018
 20
95.9739903757
 30
0.0
 10
128.6173292955
 20
95.982308957
 30
0.0
 10
128.5989022072
 20
96.0181052086
 30
0.0
 10
128.5660343631
 20
96.044506484
 30
0.0
 10
128.5391412113
 20
96.0600298687
 30
0.0
  0
SPLINE
  5
4B2
100
AcDbEntity
  8
ASSI
100
AcDbSpline
 62
250
  6
CONTINUOUS
 70
0
 71
3
 72
11
 73
7
 74
0
 42
0.0000001
 43
0.0000001
 44
0.0000000001
 40
0.0
 40
0.0
 40
0.0
 40
0.0
 40
0.2342155067
 40
0.4938237053
 40
0.7567856047
 40
1.0
 40
1.0
 40
1.0
 40
1.0
 10
113.6599017399
 20
100.8103930486
 30
0.0
 10
113.7081814901
 20
100.7826530297
 30
0.0
 10
113.8206428911
 20
100.7425068634
 30
0.0
 10
114.0011347825
 20
100.7252141282
 30
0.0
 10
114.1831740274
 20
100.747974056
 30
0.0
 10
114.2974458574
 20
100.7909843584
 30
0.0
 10
114.3475949534
 20
100.819765163
 30
0.0
  0
SPLINE
  5
4B3
100
AcDbEntity
  8
ASSI
100
AcDbSpline
 62
250
  6
CONTINUOUS
 70
0
 71
3
 72
11
 73
7
 74
0
 42
0.0000001
 43
0.0000001
 44
0.0000000001
 40
0.0
 40
0.0
 40
0.0
 40
0.0
 40
0.2364598223
 40
0.4983594007
 40
0.7611473645
 40
1.0
 40
1.0
 40
1.0
 40
1.0
 10
126.9592445927
 20
96.9722423755
 30
0.0
 10
126.9298268881
 20
96.98923259
 30
0.0
 10
126.8616029789
 20
97.0143587987
 30
0.0
 10
126.7522769351
 20
97.0275312337
 30
0.0
 10
126.6422633333
 20
97.017576015
 30
0.0
 10
126.5728487338
 20
96.9945455663
 30
0.0
 10
126.5425130503
 20
96.9785053043
 30
0.0
  0
SPLINE
  5
4B4
100
AcDbEntity
  8
0
100
AcDbSpline
 62
250
  6
CONTINUOUS
 70
0
 71
3
 72
13
 73
9
 74
0
 42
0.0000001
 43
0.0000001
 44
0.0000000001
 40
0.0
 40
0.0
 40
0.0
 40
0.0
 40
0.25
 40
0.375
 40
0.5
 40
0.625
 40
0.75
 40
1.0
 40
1.0
 40
1.0
 40
1.0
 10
110.5211680408
 20
141.2297628037
 30
0.0
 10
110.5168390386
 20
141.1478892455
 30
0.0
 10
110.5103209535
 20
141.0249015963
 30
0.0
 10
110.5017285003
 20
140.8616273114
 30
0.0
 10
110.4950383431
 20
140.7373984796
 30
0.0
 10
110.4892822916
 20
140.6199074962
 30
0.0
 10
110.4812797999
 20
140.4608886944
 30
0.0
 10
110.4753516763
 20
140.3421565284
 30
0.0
 10
110.4713832061
 20
140.2628835432
 30
0.0
  0
SPLINE
  5
4B5
100
AcDbEntity
  8
0
100
AcDbSpline
 62
250
  6
CONTINUOUS
 70
0
 71
3
 72
13
 73
9
 74
0
 42
0.0000001
 43
0.0000001
 44
0.0000000001
 40
0.0
 40
0.0
 40
0.0
 40
0.0
 40
0.25
 40
0.375
 40
0.5
 40
0.625
 40
0.75
 40
1.0
 40
1.0
 40
1.0
 40
1.0
 10
111.3898328893
 20
139.7325821808
 30
0.0
 10
111.3939291932
 20
139.814337846
 30
0.0
 10
111.4000664993
 20
139.9371325793
 30
0.0
 10
111.4082781735
 20
140.1002139484
 30
0.0
 10
111.4143654306
 20
140.2241373299
 30
0.0
 10
111.4207243821
 20
140.3419337635
 30
0.0
 10
111.4291076528
 20
140.5011454812
 30
0.0
 10
111.4354165553
 20
140.620070563
 30
0.0
 10
111.4396177238
 20
140.6994614412
 30
0.0
  0
SPLINE
  5
4B6
100
AcDbEntity
  8
0
100
AcDbSpline
 62
250
  6
CONTINUOUS
 70
0
 71
3
 72
17
 73
13
 74
0
 42
0.0000001
 43
0.0000001
 44
0.0000000001
 40
0.0
 40
0.0
 40
0.0
 40
0.0
 40
0.25
 40
0.375
 40
0.4375
 40
0.46875
 40
0.5
 40
0.53125
 40
0.5625
 40
0.625
 40
0.75
 40
1.0
 40
1.0
 40
1.0
 40
1.0
 10
112.1551610713
 20
138.2305715311
 30
0.0
 10
112.1587507145
 20
138.3120673485
 30
0.0
 10
112.1641293647
 20
138.4342325767
 30
0.0
 10
112.170424808
 20
138.5770334184
 30
0.0
 10
112.1735470904
 20
138.6480904117
 30
0.0
 10
112.1753719545
 20
138.689243892
 30
0.0
 10
112.1766257627
 20
138.7185586718
 30
0.0
 10
112.1783185792
 20
138.7538000314
 30
0.0
 10
112.1804225479
 20
138.7987214036
 30
0.0
 10
112.184175723
 20
138.8782954023
 30
0.0
 10
112.1916311947
 20
139.0367565444
 30
0.0
 10
112.1980390431
 20
139.1728158737
 30
0.0
 10
112.2023070655
 20
139.2634697614
 30
0.0
  0
SPLINE
  5
4B7
100
AcDbEntity
  8
0
100
AcDbSpline
 62
250
  6
CONTINUOUS
 70
0
 71
3
 72
17
 73
13
 74
0
 42
0.0000001
 43
0.0000001
 44
0.0000000001
 40
0.0
 40
0.0
 40
0.0
 40
0.0
 40
0.25
 40
0.375
 40
0.4375
 40
0.46875
 40
0.5
 40
0.53125
 40
0.5625
 40
0.625
 40
0.75
 40
1.0
 40
1.0
 40
1.0
 40
1.0
 10
109.658909028
 20
140.7319959248
 30
0.0
 10
109.6550527537
 20
140.6503628231
 30
0.0
 10
109.6492695861
 20
140.5279893149
 30
0.0
 10
109.6425182037
 20
140.3849537169
 30
0.0
 10
109.6391479543
 20
140.3137690493
 30
0.0
 10
109.6372133906
 20
140.2725590862
 30
0.0
 10
109.635787034
 20
140.2431554638
 30
0.0
 10
109.6342667659
 20
140.2080029468
 30
0.0
 10
109.6322724968
 20
140.1631380573
 30
0.0
 10
109.6287672886
 20
140.0836917331
 30
0.0
 10
109.621767756
 20
139.9254653472
 30
0.0
 10
109.6157644251
 20
139.7896142978
 30
0.0
 10
109.6117630337
 20
139.6990976944
 30
0.0
  0
SPLINE
  5
4B8
100
AcDbEntity
  8
0
100
AcDbSpline
 62
250
  6
CONTINUOUS
 70
0
 71
3
 72
13
 73
9
 74
0
 42
0.0000001
 43
0.0000001
 44
0.0000000001
 40
0.0
 40
0.0
 40
0.0
 40
0.0
 40
0.25
 40
0.375
 40
0.5
 40
0.625
 40
0.75
 40
1.0
 40
1.0
 40
1.0
 40
1.0
 10
110.4551123827
 20
141.3547854177
 30
0.0
 10
110.450742273
 20
141.2728911279
 30
0.0
 10
110.4441624627
 20
141.1498727637
 30
0.0
 10
110.4354879657
 20
140.9865559963
 30
0.0
 10
110.4287356344
 20
140.862299125
 30
0.0
 10
110.4229198454
 20
140.7447655777
 30
0.0
 10
110.4148368488
 20
140.5856951203
 30
0.0
 10
110.4088485389
 20
140.4669230659
 30
0.0
 10
110.4048399018
 20
140.3876237433
 30
0.0
  0
SPLINE
  5
4B9
100
AcDbEntity
  8
0
100
AcDbSpline
 62
250
  6
CONTINUOUS
 70
0
 71
3
 72
13
 73
9
 74
0
 42
0.0000001
 43
0.0000001
 44
0.0000000001
 40
0.0
 40
0.0
 40
0.0
 40
0.0
 40
0.25
 40
0.375
 40
0.5
 40
0.625
 40
0.75
 40
1.0
 40
1.0
 40
1.0
 40
1.0
 10
111.4645893206
 20
139.7757377232
 30
0.0
 10
111.4687267227
 20
139.8575142765
 30
0.0
 10
111.4749257389
 20
139.9803399811
 30
0.0
 10
111.4832194418
 20
140.1434640888
 30
0.0
 10
111.4893688491
 20
140.2674159156
 30
0.0
 10
111.4957875621
 20
140.3852545074
 30
0.0
 10
111.5042513528
 20
140.5445176245
 30
0.0
 10
111.5106204569
 20
140.6634823386
 30
0.0
 10
111.5148618016
 20
140.7428993977
 30
0.0
  0
SPLINE
  5
4BA
100
AcDbEntity
  8
0
100
AcDbSpline
 62
250
  6
CONTINUOUS
 70
0
 71
3
 72
23
 73
19
 74
0
 42
0.0000001
 43
0.0000001
 44
0.0000000001
 40
0.0
 40
0.0
 40
0.0
 40
0.0
 40
0.125
 40
0.25
 40
0.3125
 40
0.375
 40
0.4375
 40
0.46875
 40
0.484375
 40
0.5
 40
0.515625
 40
0.53125
 40
0.5625
 40
0.625
 40
0.6875
 40
0.75
 40
0.875
 40
1.0
 40
1.0
 40
1.0
 40
1.0
 10
112.2258116453
 20
138.1897787752
 30
0.0
 10
112.2276064669
 20
138.2305266838
 30
0.0
 10
112.2311962576
 20
138.3120250062
 30
0.0
 10
112.2356827587
 20
138.4138853838
 30
0.0
 10
112.239273508
 20
138.4953999892
 30
0.0
 10
112.241962367
 20
138.5564645486
 30
0.0
 10
112.2442164476
 20
138.6075787039
 30
0.0
 10
112.2457680767
 20
138.6429131007
 30
0.0
 10
112.2466956736
 20
138.6637998125
 30
0.0
 10
112.2472760097
 20
138.6775052515
 30
0.0
 10
112.2482973162
 20
138.6987012561
 30
0.0
 10
112.2495052427
 20
138.7243498022
 30
0.0
 10
112.2516907796
 20
138.7704521071
 30
0.0
 10
112.2547755075
 20
138.8356760969
 30
0.0
 10
112.2584932188
 20
138.9142173117
 30
0.0
 10
112.2634445632
 20
139.0188437385
 30
0.0
 10
112.2696356793
 20
139.1496596511
 30
0.0
 10
112.2745879823
 20
139.2543023609
 30
0.0
 10
112.2770642076
 20
139.3066249684
 30
0.0
  0
SPLINE
  5
4BB
100
AcDbEntity
  8
0
100
AcDbSpline
 62
250
  6
CONTINUOUS
 70
0
 71
3
 72
23
 73
19
 74
0
 42
0.0000001
 43
0.0000001
 44
0.0000000001
 40
0.0
 40
0.0
 40
0.0
 40
0.0
 40
0.125
 40
0.25
 40
0.3125
 40
0.375
 40
0.4375
 40
0.46875
 40
0.484375
 40
0.5
 40
0.515625
 40
0.53125
 40
0.5625
 40
0.625
 40
0.6875
 40
0.75
 40
0.875
 40
1.0
 40
1.0
 40
1.0
 40
1.0
 10
109.5923650184
 20
140.8567365708
 30
0.0
 10
109.590416328
 20
140.8159094907
 30
0.0
 10
109.5865188663
 20
140.7342528596
 30
0.0
 10
109.5816474435
 20
140.6321944247
 30
0.0
 10
109.5777494561
 20
140.5505217334
 30
0.0
 10
109.5748282704
 20
140.4893376329
 30
0.0
 10
109.57238662
 20
140.4381269657
 30
0.0
 10
109.5706918472
 20
140.4027189159
 30
0.0
 10
109.5697009487
 20
140.3817996329
 30
0.0
 10
109.5690210363
 20
140.3680429581
 30
0.0
 10
109.5680993061
 20
140.3468981894
 30
0.0
 10
109.5669546812
 20
140.3212822144
 30
0.0
 10
109.5649122881
 20
140.2752535625
 30
0.0
 10
109.5620151299
 20
140.2101260846
 30
0.0
 10
109.5585297454
 20
140.131704411
 30
0.0
 10
109.5538856391
 20
140.0272360702
 30
0.0
 10
109.5480794449
 20
139.8966182148
 30
0.0
 10
109.5434348129
 20
139.7921338137
 30
0.0
 10
109.5411124565
 20
139.7398903778
 30
0.0
  0
SPLINE
  5
4BC
100
AcDbEntity
  8
0
100
AcDbSpline
 62
250
  6
CONTINUOUS
 70
0
 71
3
 72
13
 73
9
 74
0
 42
0.0000001
 43
0.0000001
 44
0.0000000001
 40
0.0
 40
0.0
 40
0.0
 40
0.0
 40
0.25
 40
0.375
 40
0.5
 40
0.625
 40
0.75
 40
1.0
 40
1.0
 40
1.0
 40
1.0
 10
110.3890991085
 20
141.4798316872
 30
0.0
 10
110.3846878918
 20
141.3979166946
 30
0.0
 10
110.3780463569
 20
141.2748676526
 30
0.0
 10
110.3692898164
 20
141.1115084753
 30
0.0
 10
110.3624753126
 20
140.9872235621
 30
0.0
 10
110.3565997829
 20
140.8696476641
 30
0.0
 10
110.3484362788
 20
140.7105257596
 30
0.0
 10
110.3423877802
 20
140.5917139904
 30
0.0
 10
110.3383389745
 20
140.5123884422
 30
0.0
  0
SPLINE
  5
4BD
100
AcDbEntity
  8
0
100
AcDbSpline
 62
250
  6
CONTINUOUS
 70
0
 71
3
 72
13
 73
9
 74
0
 42
0.0000001
 43
0.0000001
 44
0.0000000001
 40
0.0
 40
0.0
 40
0.0
 40
0.0
 40
0.25
 40
0.375
 40
0.5
 40
0.625
 40
0.75
 40
1.0
 40
1.0
 40
1.0
 40
1.0
 10
111.5393881276
 20
139.8189177327
 30
0.0
 10
111.5435666278
 20
139.9007151456
 30
0.0
 10
111.549827354
 20
140.0235717845
 30
0.0
 10
111.5582030858
 20
140.1867385586
 30
0.0
 10
111.5644146424
 20
140.3107188335
 30
0.0
 10
111.5708931193
 20
140.4285993699
 30
0.0
 10
111.5794374322
 20
140.5879136775
 30
0.0
 10
111.5858667396
 20
140.7069178499
 30
0.0
 10
111.5901482617
 20
140.7863609777
 30
0.0
  0
SPLINE
  5
4BE
100
AcDbEntity
  8
0
100
AcDbSpline
 62
250
  6
CONTINUOUS
 70
0
 71
3
 72
27
 73
23
 74
0
 42
0.0000001
 43
0.0000001
 44
0.0000000001
 40
0.0
 40
0.0
 40
0.0
 40
0.0
 40
0.25
 40
0.375
 40
0.4375
 40
0.5
 40
0.5625
 40
0.59375
 40
0.625
 40
0.640625
 40
0.65625
 40
0.6640625
 40
0.66796875
 40
0.671875
 40
0.6796875
 40
0.6875
 40
0.71875
 40
0.75
 40
0.78125
 40
0.8125
 40
0.875
 40
1.0
 40
1.0
 40
1.0
 40
1.0
 10
112.2964615122
 20
138.1489864274
 30
0.0
 10
112.3018459771
 20
138.2712301534
 30
0.0
 10
112.3098875724
 20
138.4545773701
 30
0.0
 10
112.3193922906
 20
138.6685467593
 30
0.0
 10
112.3251882319
 20
138.7910013734
 30
0.0
 10
112.329486432
 20
138.8828212931
 30
0.0
 10
112.3330788374
 20
138.9593303658
 30
0.0
 10
112.3359517668
 20
139.0205662094
 30
0.0
 10
112.3377445492
 20
139.0587709115
 30
0.0
 10
112.3391857402
 20
139.0894900071
 30
0.0
 10
112.3400704709
 20
139.1083349571
 30
0.0
 10
112.3407218876
 20
139.1222368609
 30
0.0
 10
112.3410438923
 20
139.1290692563
 30
0.0
 10
112.3411766923
 20
139.1317150101
 30
0.0
 10
112.3414073632
 20
139.1364532141
 30
0.0
 10
112.3419077463
 20
139.1466471155
 30
0.0
 10
112.3426806769
 20
139.1624326519
 30
0.0
 10
112.3436984733
 20
139.1831972939
 30
0.0
 10
112.3447196878
 20
139.2040375688
 30
0.0
 10
112.3460801146
 20
139.2317982129
 30
0.0
 10
112.3484614204
 20
139.28039171
 30
0.0
 10
112.350502348
 20
139.3220390379
 30
0.0
 10
112.351863009
 20
139.3498048656
 30
0.0
  0
SPLINE
  5
4BF
100
AcDbEntity
  8
0
100
AcDbSpline
 62
250
  6
CONTINUOUS
 70
0
 71
3
 72
27
 73
23
 74
0
 42
0.0000001
 43
0.0000001
 44
0.0000000001
 40
0.0
 40
0.0
 40
0.0
 40
0.0
 40
0.25
 40
0.375
 40
0.4375
 40
0.5
 40
0.5625
 40
0.59375
 40
0.625
 40
0.640625
 40
0.65625
 40
0.6640625
 40
0.66796875
 40
0.671875
 40
0.6796875
 40
0.6875
 40
0.71875
 40
0.75
 40
0.78125
 40
0.8125
 40
0.875
 40
1.0
 40
1.0
 40
1.0
 40
1.0
 10
109.5258640915
 20
140.9815012757
 30
0.0
 10
109.5199563604
 20
140.85898849
 30
0.0
 10
109.5110596923
 20
140.6752016011
 30
0.0
 10
109.5008029963
 20
140.4608455504
 30
0.0
 10
109.4953068068
 20
140.3385450665
 30
0.0
 10
109.491135528
 20
140.2467904088
 30
0.0
 10
109.4876712597
 20
140.1703472233
 30
0.0
 10
109.4848960999
 20
140.1091616521
 30
0.0
 10
109.4831650891
 20
140.0709887125
 30
0.0
 10
109.4817729029
 20
140.0402948148
 30
0.0
 10
109.4809194986
 20
140.0214659726
 30
0.0
 10
109.480288634
 20
140.0075746366
 30
0.0
 10
109.4799805233
 20
140.0007493854
 30
0.0
 10
109.4798697136
 20
139.9981149388
 30
0.0
 10
109.4796637632
 20
139.9933894459
 30
0.0
 10
109.479224987
 20
139.9832272223
 30
0.0
 10
109.47854351
 20
139.9674887107
 30
0.0
 10
109.4776481985
 20
139.9467870496
 30
0.0
 10
109.4767493228
 20
139.9260096804
 30
0.0
 10
109.4755520654
 20
139.8983329368
 30
0.0
 10
109.473456282
 20
139.8498862532
 30
0.0
 10
109.4716600961
 20
139.8083647698
 30
0.0
 10
109.4704625944
 20
139.7806828374
 30
0.0
  0
SPLINE
  5
4C0
100
AcDbEntity
  8
0
100
AcDbSpline
 62
250
  6
CONTINUOUS
 70
0
 71
3
 72
39
 73
35
 74
0
 42
0.0000001
 43
0.0000001
 44
0.0000000001
 40
0.0
 40
0.0
 40
0.0
 40
0.0
 40
0.125
 40
0.1875
 40
0.25
 40
0.3125
 40
0.34375
 40
0.375
 40
0.40625
 40
0.4375
 40
0.453125
 40
0.46875
 40
0.4765625
 40
0.484375
 40
0.4921875
 40
0.49609375
 40
0.498046875
 40
0.5
 40
0.501953125
 40
0.50390625
 40
0.5078125
 40
0.515625
 40
0.5234375
 40
0.53125
 40
0.546875
 40
0.5625
 40
0.59375
 40
0.625
 40
0.65625
 40
0.6875
 40
0.75
 40
0.8125
 40
0.875
 40
1.0
 40
1.0
 40
1.0
 40
1.0
 10
109.5399410274
 20
114.3411211607
 30
0.0
 10
109.541735689
 20
114.2353018121
 30
0.0
 10
109.5444276814
 20
114.0765727899
 30
0.0
 10
109.5480170047
 20
113.8649340906
 30
0.0
 10
109.5507089971
 20
113.7062050736
 30
0.0
 10
109.5529523244
 20
113.5739308694
 30
0.0
 10
109.5547469854
 20
113.4681115583
 30
0.0
 10
109.5560929834
 20
113.3887469324
 30
0.0
 10
109.5574389728
 20
113.3093828505
 30
0.0
 10
109.5585606576
 20
113.243244421
 30
0.0
 10
109.559457945
 20
113.1903374725
 30
0.0
 10
109.5600188872
 20
113.157261989
 30
0.0
 10
109.560467326
 20
113.1308213912
 30
0.0
 10
109.5608045175
 20
113.1109367604
 30
0.0
 10
109.5610827668
 20
113.0945385974
 30
0.0
 10
109.5612829256
 20
113.0827216264
 30
0.0
 10
109.5613888949
 20
113.0764972318
 30
0.0
 10
109.561492055
 20
113.0703411
 30
0.0
 10
109.5615046863
 20
113.0698722312
 30
0.0
 10
109.5615531054
 20
113.0672632918
 30
0.0
 10
109.5616231264
 20
113.0636219281
 30
0.0
 10
109.5617308482
 20
113.0579367558
 30
0.0
 10
109.561856822
 20
113.0513213843
 30
0.0
 10
109.5620259371
 20
113.0424286457
 30
0.0
 10
109.5622369372
 20
113.0313374587
 30
0.0
 10
109.5625747574
 20
113.0135777343
 30
0.0
 10
109.5629969571
 20
112.9913828228
 30
0.0
 10
109.5635036292
 20
112.9647468955
 30
0.0
 10
109.5640102926
 20
112.9381115121
 30
0.0
 10
109.5646858468
 20
112.9025974777
 30
0.0
 10
109.5655302885
 20
112.8582049997
 30
0.0
 10
109.566543619
 20
112.8049339983
 30
0.0
 10
109.5678947262
 20
112.7339060063
 30
0.0
 10
109.5689080567
 20
112.68063501
 30
0.0
 10
109.5695836103
 20
112.645121013
 30
0.0
  0
SPLINE
  5
4C1
100
AcDbEntity
  8
0
100
AcDbSpline
 62
250
  6
CONTINUOUS
 70
0
 71
3
 72
39
 73
35
 74
0
 42
0.0000001
 43
0.0000001
 44
0.0000000001
 40
0.0
 40
0.0
 40
0.0
 40
0.0
 40
0.125
 40
0.1875
 40
0.25
 40
0.3125
 40
0.34375
 40
0.375
 40
0.40625
 40
0.4375
 40
0.453125
 40
0.46875
 40
0.4765625
 40
0.484375
 40
0.4921875
 40
0.49609375
 40
0.498046875
 40
0.5
 40
0.501953125
 40
0.50390625
 40
0.5078125
 40
0.515625
 40
0.5234375
 40
0.53125
 40
0.546875
 40
0.5625
 40
0.59375
 40
0.625
 40
0.65625
 40
0.6875
 40
0.75
 40
0.8125
 40
0.875
 40
1.0
 40
1.0
 40
1.0
 40
1.0
 10
111.4701989134
 20
118.4914534716
 30
0.0
 10
111.4700676082
 20
118.5982532051
 30
0.0
 10
111.4698706504
 20
118.7584528046
 30
0.0
 10
111.4696080399
 20
118.9720522736
 30
0.0
 10
111.4694110821
 20
119.132251868
 30
0.0
 10
111.4692469505
 20
119.2657515534
 30
0.0
 10
111.4691156454
 20
119.3725512491
 30
0.0
 10
111.4690171662
 20
119.4526511647
 30
0.0
 10
111.4689186883
 20
119.5327505316
 30
0.0
 10
111.4688366195
 20
119.599501713
 30
0.0
 10
111.468770973
 20
119.6528988308
 30
0.0
 10
111.4687299244
 20
119.6862807432
 30
0.0
 10
111.4686971304
 20
119.712966317
 30
0.0
 10
111.4686724119
 20
119.7330351375
 30
0.0
 10
111.4686522046
 20
119.7495853358
 30
0.0
 10
111.4686372912
 20
119.761511589
 30
0.0
 10
111.4686299688
 20
119.7677939689
 30
0.0
 10
111.468621098
 20
119.7740061584
 30
0.0
 10
111.4686251435
 20
119.7744830404
 30
0.0
 10
111.4686260322
 20
119.7771194226
 30
0.0
 10
111.4686296865
 20
119.7808010029
 30
0.0
 10
111.4686338096
 20
119.7865477098
 30
0.0
 10
111.4686392269
 20
119.7932351754
 30
0.0
 10
111.468646286
 20
119.8022246499
 30
0.0
 10
111.468655166
 20
119.8134365477
 30
0.0
 10
111.4686693426
 20
119.8313895263
 30
0.0
 10
111.4686870741
 20
119.8538259653
 30
0.0
 10
111.4687083474
 20
119.880751743
 30
0.0
 10
111.4687296219
 20
119.907676972
 30
0.0
 10
111.4687579874
 20
119.9435774691
 30
0.0
 10
111.4687934444
 20
119.9884530246
 30
0.0
 10
111.4688359929
 20
120.0423037194
 30
0.0
 10
111.4688927241
 20
120.114104636
 30
0.0
 10
111.4689352725
 20
120.1679553256
 30
0.0
 10
111.4689636381
 20
120.2038557848
 30
0.0
  0
SPLINE
  5
4C2
100
AcDbEntity
  8
0
100
AcDbSpline
 62
250
  6
CONTINUOUS
 70
0
 71
3
 72
39
 73
35
 74
0
 42
0.0000001
 43
0.0000001
 44
0.0000000001
 40
0.0
 40
0.0
 40
0.0
 40
0.0
 40
0.125
 40
0.1875
 40
0.25
 40
0.3125
 40
0.34375
 40
0.375
 40
0.40625
 40
0.4375
 40
0.453125
 40
0.46875
 40
0.4765625
 40
0.484375
 40
0.4921875
 40
0.49609375
 40
0.498046875
 40
0.5
 40
0.501953125
 40
0.50390625
 40
0.5078125
 40
0.515625
 40
0.5234375
 40
0.53125
 40
0.546875
 40
0.5625
 40
0.59375
 40
0.625
 40
0.65625
 40
0.6875
 40
0.75
 40
0.8125
 40
0.875
 40
1.0
 40
1.0
 40
1.0
 40
1.0
 10
109.4910709899
 20
121.5460576686
 30
0.0
 10
109.4910434701
 20
121.4391661286
 30
0.0
 10
109.4910021903
 20
121.2788288195
 30
0.0
 10
109.4909471506
 20
121.0650457376
 30
0.0
 10
109.4909058709
 20
120.9047084337
 30
0.0
 10
109.4908714711
 20
120.7710939902
 30
0.0
 10
109.4908439513
 20
120.6642024881
 30
0.0
 10
109.4908233113
 20
120.5840337175
 30
0.0
 10
109.4908026719
 20
120.5038654967
 30
0.0
 10
109.4907854703
 20
120.4370569335
 30
0.0
 10
109.4907717139
 20
120.3836139181
 30
0.0
 10
109.490763105
 20
120.3502033019
 30
0.0
 10
109.4907562434
 20
120.3234948059
 30
0.0
 10
109.4907510273
 20
120.3034086821
 30
0.0
 10
109.490746903
 20
120.2868444194
 30
0.0
 10
109.4907435794
 20
120.2749076244
 30
0.0
 10
109.4907423619
 20
120.2686203084
 30
0.0
 10
109.4907395286
 20
120.2624013527
 30
0.0
 10
109.490744035
 20
120.2619294168
 30
0.0
 10
109.4907474833
 20
120.259295544
 30
0.0
 10
109.4907547107
 20
120.2556202584
 30
0.0
 10
109.4907644119
 20
120.2498815491
 30
0.0
 10
109.4907763203
 20
120.2432041063
 30
0.0
 10
109.4907921049
 20
120.2342278471
 30
0.0
 10
109.4908118676
 20
120.2230325191
 30
0.0
 10
109.4908434701
 20
120.2051060238
 30
0.0
 10
109.4908829793
 20
120.1827026987
 30
0.0
 10
109.4909303878
 20
120.1558166535
 30
0.0
 10
109.490977797
 20
120.128931158
 30
0.0
 10
109.4910410089
 20
120.0930836387
 30
0.0
 10
109.491120024
 20
120.0482743055
 30
0.0
 10
109.491214842
 20
119.9945030775
 30
0.0
 10
109.491341266
 20
119.9228081166
 30
0.0
 10
109.491436084
 20
119.8690368937
 30
0.0
 10
109.4914992961
 20
119.8331894123
 30
0.0
  0
SPLINE
  5
4C3
100
AcDbEntity
  8
0
100
AcDbSpline
 62
250
  6
CONTINUOUS
 70
0
 71
3
 72
37
 73
33
 74
0
 42
0.0000001
 43
0.0000001
 44
0.0000000001
 40
0.0
 40
0.0
 40
0.0
 40
0.0
 40
0.125
 40
0.1875
 40
0.25
 40
0.3125
 40
0.34375
 40
0.375
 40
0.40625
 40
0.4375
 40
0.453125
 40
0.46875
 40
0.4765625
 40
0.484375
 40
0.4921875
 40
0.49609375
 40
0.5
 40
0.50390625
 40
0.5078125
 40
0.515625
 40
0.5234375
 40
0.53125
 40
0.546875
 40
0.5625
 40
0.59375
 40
0.625
 40
0.65625
 40
0.6875
 40
0.75
 40
0.8125
 40
0.875
 40
1.0
 40
1.0
 40
1.0
 40
1.0
 10
111.4696285825
 20
120.5849319851
 30
0.0
 10
111.4700247584
 20
120.6920354081
 30
0.0
 10
111.4706190223
 20
120.8526905446
 30
0.0
 10
111.471411374
 20
121.0668973857
 30
0.0
 10
111.4720056379
 20
121.2275525352
 30
0.0
 10
111.4725008577
 20
121.3614317674
 30
0.0
 10
111.4728970338
 20
121.4685352854
 30
0.0
 10
111.473194165
 20
121.5488625628
 30
0.0
 10
111.4734912994
 20
121.6291912187
 30
0.0
 10
111.4737389018
 20
121.6961274709
 30
0.0
 10
111.4739370051
 20
121.74968609
 30
0.0
 10
111.4740607709
 20
121.7831383306
 30
0.0
 10
111.4741598951
 20
121.8099502701
 30
0.0
 10
111.474233933
 20
121.8299219215
 30
0.0
 10
111.4742966023
 20
121.847001747
 30
0.0
 10
111.4743445599
 20
121.8596859807
 30
0.0
 10
111.474386479
 20
121.8718759665
 30
0.0
 10
111.4744056834
 20
121.8738485235
 30
0.0
 10
111.4744392239
 20
121.8800476802
 30
0.0
 10
111.4744784271
 20
121.8865720928
 30
0.0
 10
111.4745266363
 20
121.894925527
 30
0.0
 10
111.4745905081
 20
121.9058803683
 30
0.0
 10
111.4746704873
 20
121.9196366038
 30
0.0
 10
111.4747983761
 20
121.9416115463
 30
0.0
 10
111.4749582638
 20
121.9690922463
 30
0.0
 10
111.4751501177
 20
122.0020639329
 30
0.0
 10
111.4753419745
 20
122.0350369981
 30
0.0
 10
111.4755977827
 20
122.0790006035
 30
0.0
 10
111.4759175432
 20
122.1339552755
 30
0.0
 10
111.4763012556
 20
122.1999008111
 30
0.0
 10
111.4768128723
 20
122.2878282167
 30
0.0
 10
111.4771965847
 20
122.3537737653
 30
0.0
 10
111.4774523931
 20
122.3977374657
 30
0.0
  0
ELLIPSE
  5
4C4
100
AcDbEntity
  8
RACCORDO
100
AcDbEllipse
 62
7
  6
CONTINUOUS
 10
215.1807418821
 20
28.5598691674
 30
0.0
 11
-0.5013954353
 21
0.868386877
 31
0.0
 40
0.5757524875
 41
-3.193807042
 42
-2.3576120761
  0
ELLIPSE
  5
4C5
100
AcDbEntity
  8
RACCORDO
100
AcDbEllipse
 62
7
  6
CONTINUOUS
 10
215.1807418821
 20
100.4070125657
 30
0.0
 11
-0.5000243598
 21
0.8660113392
 31
0.0
 40
0.5789151826
 41
-2.3548735497
 42
-0.7868162787
  0
ELLIPSE
  5
4C6
100
AcDbEntity
  8
DRAFT
100
AcDbEllipse
 62
7
  6
CONTINUOUS
 10
211.6803858621
 20
68.9862155249
 30
0.0
 11
5.1478346794
 21
0.9575482268
 31
0.0
 40
0.6665647798
 41
-0.7006982462
 42
-0.2750682551
  0
ELLIPSE
  5
4C7
100
AcDbEntity
  8
0
100
AcDbEllipse
 62
7
  6
CONTINUOUS
 10
116.9653566865
 20
101.6788722993
 30
0.0
 11
-0.4000194878
 21
0.6928090714
 31
0.0
 40
0.5789151826
 41
0.7867191038
 42
2.3547763749
  0
ELLIPSE
  5
4C8
100
AcDbEntity
  8
0
100
AcDbEllipse
 62
7
  6
CONTINUOUS
 10
167.1699381508
 20
72.691376173
 30
0.0
 11
-0.4000194878
 21
0.6928090714
 31
0.0
 40
0.5789151826
 41
0.7867191038
 42
2.3547763749
  0
ELLIPSE
  5
4C9
100
AcDbEntity
  8
RACCORDO
100
AcDbEllipse
 62
7
  6
CONTINUOUS
 10
102.7527044637
 20
165.3215523168
 30
0.0
 11
-0.5013954353
 21
0.868386877
 31
0.0
 40
0.5757524875
 41
-0.7840766935
 42
0.0522143884
  0
ELLIPSE
  5
4CA
100
AcDbEntity
  8
DRAFT
100
AcDbEllipse
 62
7
  6
CONTINUOUS
 10
211.6803858621
 20
63.579436354
 30
0.0
 11
5.1774686765
 21
-0.6785096723
 31
0.0
 40
0.4693271057
 41
-0.5159119978
 42
-0.0902820066
  0
ELLIPSE
  5
4CB
100
AcDbEntity
  8
ASSI
100
AcDbEllipse
 62
7
  6
CONTINUOUS
 10
215.1807418821
 20
28.5598691674
 30
0.0
 11
-0.5013954353
 21
0.868386877
 31
0.0
 40
0.5757524875
 41
-3.193807042
 42
-2.3576120761
  0
ELLIPSE
  5
4CC
100
AcDbEntity
  8
ASSI
100
AcDbEllipse
 62
7
  6
CONTINUOUS
 10
215.1807418821
 20
100.4070125657
 30
0.0
 11
-0.5000243598
 21
0.8660113392
 31
0.0
 40
0.5789151826
 41
-2.3548735497
 42
-0.7868162787
  0
ELLIPSE
  5
4CD
100
AcDbEntity
  8
ASSI
100
AcDbEllipse
 62
7
  6
CONTINUOUS
 10
211.6803858621
 20
68.9862155249
 30
0.0
 11
5.1478346794
 21
0.9575482268
 31
0.0
 40
0.6665647798
 41
-0.7006982462
 42
-0.2750682551
  0
ELLIPSE
  5
4CE
100
AcDbEntity
  8
ASSI
100
AcDbEllipse
 62
7
  6
CONTINUOUS
 10
116.9653566865
 20
101.6788722993
 30
0.0
 11
-0.4000194878
 21
0.6928090714
 31
0.0
 40
0.5789151826
 41
0.7867191038
 42
2.3547763749
  0
ELLIPSE
  5
4CF
100
AcDbEntity
  8
ASSI
100
AcDbEllipse
 62
7
  6
CONTINUOUS
 10
167.1699381508
 20
72.691376173
 30
0.0
 11
-0.4000194878
 21
0.6928090714
 31
0.0
 40
0.5789151826
 41
0.7867191038
 42
2.3547763749
  0
ELLIPSE
  5
4D0
100
AcDbEntity
  8
ASSI
100
AcDbEllipse
 62
7
  6
CONTINUOUS
 10
102.7527044637
 20
165.3215523168
 30
0.0
 11
-0.5013954353
 21
0.868386877
 31
0.0
 40
0.5757524875
 41
-0.7840766935
 42
0.0522143884
  0
ELLIPSE
  5
4D1
100
AcDbEntity
  8
ASSI
100
AcDbEllipse
 62
7
  6
CONTINUOUS
 10
211.6803858621
 20
63.579436354
 30
0.0
 11
5.1774686765
 21
-0.6785096723
 31
0.0
 40
0.4693271057
 41
-0.5159119978
 42
-0.0902820066
  0
ELLIPSE
  5
4D2
100
AcDbEntity
  8
0
100
AcDbEllipse
 62
250
  6
CONTINUOUS
 10
438.88613246
 20
298.0533527602
 30
0.0
 11
3646.2506244196
 21
-2459.0056549606
 31
0.0
 40
0.075139039
 41
-1.6100252314
 42
-1.609967369
  0
ELLIPSE
  5
4D3
100
AcDbEntity
  8
0
100
AcDbEllipse
 62
250
  6
CONTINUOUS
 10
446.4231281291
 20
293.7015859216
 30
0.0
 11
3646.2484266854
 21
-2459.004379085
 31
0.0
 40
0.0751390838
 41
-1.612583605
 42
-1.6120975569
  0
ELLIPSE
  5
4D4
100
AcDbEntity
  8
0
100
AcDbEllipse
 62
250
  6
CONTINUOUS
 10
449.2494091094
 20
292.0697267052
 30
0.0
 11
3646.2318345226
 21
-2458.9947466479
 31
0.0
 40
0.075139422
 41
-1.6133608655
 42
-1.6128748132
  0
ELLIPSE
  5
4D5
100
AcDbEntity
  8
0
100
AcDbEllipse
 62
250
  6
CONTINUOUS
 10
428.7976790457
 20
303.8782993236
 30
0.0
 11
110.4909868793
 21
445.7669625099
 31
0.0
 40
0.6927357772
 41
-4.1348221424
 42
-4.1342924664
  0
ELLIPSE
  5
4D6
100
AcDbEntity
  8
0
100
AcDbEllipse
 62
250
  6
CONTINUOUS
 10
430.0790334652
 20
303.1384613409
 30
0.0
 11
-150.0162551908
 21
508.878185577
 31
0.0
 40
0.6822961723
 41
-4.5593424273
 42
-4.5589307065
  0
ELLIPSE
  5
4D7
100
AcDbEntity
  8
0
100
AcDbEllipse
 62
250
  6
CONTINUOUS
 10
435.6317969176
 20
299.932365316
 30
0.0
 11
-793.0479968994
 21
792.8069989476
 31
0.0
 40
0.3176314771
 41
1.476010633
 42
1.4761748764
  0
ELLIPSE
  5
4D8
100
AcDbEntity
  8
0
100
AcDbEllipse
 62
250
  6
CONTINUOUS
 10
438.1865164003
 20
298.4573023048
 30
0.0
 11
1144.5725680521
 21
-998.3463307228
 31
0.0
 40
0.2295816878
 41
-1.6583327659
 42
-1.6581453761
  0
ELLIPSE
  5
4D9
100
AcDbEntity
  8
0
100
AcDbEllipse
 62
250
  6
CONTINUOUS
 10
430.6933107415
 20
302.7837853403
 30
0.0
 11
-292.7906662934
 21
542.7379918847
 31
0.0
 40
0.5956605878
 41
-4.7048184954
 42
-4.7042541085
  0
ELLIPSE
  5
4DA
100
AcDbEntity
  8
0
100
AcDbEllipse
 62
250
  6
CONTINUOUS
 10
429.3155744227
 20
303.5792730237
 30
0.0
 11
-52.3713593438
 21
491.3318728969
 31
0.0
 40
0.7129270874
 41
-4.4163417998
 42
-4.4158005554
  0
ELLIPSE
  5
4DB
100
AcDbEntity
  8
0
100
AcDbEllipse
 62
250
  6
CONTINUOUS
 10
428.3812483945
 20
304.1187411625
 30
0.0
 11
138.5398992255
 21
434.0761004731
 31
0.0
 40
0.6761155689
 41
-4.0841624219
 42
-4.0835032209
  0
ELLIPSE
  5
4DC
100
AcDbEntity
  8
0
100
AcDbEllipse
 62
250
  6
CONTINUOUS
 10
426.8933170615
 20
304.977854066
 30
0.0
 11
283.2425970431
 21
354.8906417019
 31
0.0
 40
0.4491041418
 41
-3.8718401935
 42
-3.8712041274
  0
ELLIPSE
  5
4DD
100
AcDbEntity
  8
0
100
AcDbEllipse
 62
250
  6
CONTINUOUS
 10
425.5787311476
 20
305.736879497
 30
0.0
 11
352.5632634129
 21
314.3812741685
 31
0.0
 40
0.2438561296
 41
2.4234520086
 42
2.4239469786
  0
ELLIPSE
  5
4DE
100
AcDbEntity
  8
0
100
AcDbEllipse
 62
250
  6
CONTINUOUS
 10
423.1233495835
 20
307.154586039
 30
0.0
 11
477.9642755311
 21
243.3854565197
 31
0.0
 40
0.049412018
 41
-2.3110029218
 42
-2.3105310973
  0
ELLIPSE
  5
4DF
100
AcDbEntity
  8
0
100
AcDbEllipse
 62
250
  6
CONTINUOUS
 10
417.2062011004
 20
310.5710734139
 30
0.0
 11
852.9228110593
 21
-15.3817977509
 31
0.0
 40
0.23892771
 41
-1.9351784055
 42
-1.9349656388
  0
ELLIPSE
  5
4E0
100
AcDbEntity
  8
0
100
AcDbEllipse
 62
250
  6
CONTINUOUS
 10
387.5321292005
 20
327.7045106254
 30
0.0
 11
2951.5298909412
 21
-1313.0121235299
 31
0.0
 40
0.0922059535
 41
-1.623895923
 42
-1.6238242583
  0
ELLIPSE
  5
4E1
100
AcDbEntity
  8
0
100
AcDbEllipse
 62
250
  6
CONTINUOUS
 10
478.9257755063
 20
274.9349646798
 30
0.0
 11
3646.2001022603
 21
-2458.9763247553
 31
0.0
 40
0.0751400688
 41
-1.6213360372
 42
-1.6211624317
  0
ELLIPSE
  5
4E2
100
AcDbEntity
  8
0
100
AcDbEllipse
 62
250
  6
CONTINUOUS
 10
444.4124212648
 20
294.862542865
 30
0.0
 11
1144.5857657816
 21
-998.3540897293
 31
0.0
 40
0.2295792608
 41
-1.6629766765
 42
-1.662789279
  0
ELLIPSE
  5
4E3
100
AcDbEntity
  8
0
100
AcDbEllipse
 62
250
  6
CONTINUOUS
 10
436.6705832813
 20
299.3325830886
 30
0.0
 11
-574.1754239307
 21
669.6767431949
 31
0.0
 40
0.4106179923
 41
1.4805014354
 42
1.4808067894
  0
ELLIPSE
  5
4E4
100
AcDbEntity
  8
0
100
AcDbEllipse
 62
250
  6
CONTINUOUS
 10
433.320635208
 20
301.2668011214
 30
0.0
 11
-292.7906662934
 21
542.7379918847
 31
0.0
 40
0.5956605878
 41
-4.7084056189
 42
-4.7078412093
  0
ELLIPSE
  5
4E5
100
AcDbEntity
  8
0
100
AcDbEllipse
 62
250
  6
CONTINUOUS
 10
431.5113411965
 20
302.3114648079
 30
0.0
 11
-52.3699776458
 21
491.33160369
 31
0.0
 40
0.7129273213
 41
-4.4188210631
 42
-4.4182798014
  0
ELLIPSE
  5
4E6
100
AcDbEntity
  8
0
100
AcDbEllipse
 62
250
  6
CONTINUOUS
 10
430.3991507264
 20
302.9536296463
 30
0.0
 11
138.5395325927
 21
434.0762621044
 31
0.0
 40
0.6761158238
 41
-4.0854440892
 42
-4.0847848811
  0
ELLIPSE
  5
4E7
100
AcDbEntity
  8
0
100
AcDbEllipse
 62
250
  6
CONTINUOUS
 10
428.9846511369
 20
303.7703439815
 30
0.0
 11
283.242423935
 21
354.8907463022
 31
0.0
 40
0.4491046057
 41
-3.8694945817
 42
-3.86885853
  0
ELLIPSE
  5
4E8
100
AcDbEntity
  8
0
100
AcDbEllipse
 62
250
  6
CONTINUOUS
 10
427.9798727045
 20
304.3504904555
 30
0.0
 11
352.5632634129
 21
314.3812741685
 31
0.0
 40
0.2438561296
 41
2.4269287743
 42
2.4274237252
  0
ELLIPSE
  5
4E9
100
AcDbEntity
  8
0
100
AcDbEllipse
 62
250
  6
CONTINUOUS
 10
426.2662600891
 20
305.339908903
 30
0.0
 11
477.9630319301
 21
243.3861989293
 31
0.0
 40
0.0494100133
 41
-2.3154479034
 42
-2.3149761001
  0
ELLIPSE
  5
4EA
100
AcDbEntity
  8
0
100
AcDbEllipse
 62
250
  6
CONTINUOUS
 10
403.8112294945
 20
318.3051621407
 30
0.0
 11
2951.6302759479
 21
-1313.0710325981
 31
0.0
 40
0.0922029053
 41
-1.6290929208
 42
-1.6290212626
  0
ELLIPSE
  5
4EB
100
AcDbEntity
  8
0
100
AcDbEllipse
 62
250
  6
CONTINUOUS
 10
416.6297353691
 20
310.9039175023
 30
0.0
 11
1367.7737730551
 21
-360.877662075
 31
0.0
 40
0.1861576236
 41
-1.74681317
 42
-1.7467183657
  0
ELLIPSE
  5
4EC
100
AcDbEntity
  8
0
100
AcDbEllipse
 62
250
  6
CONTINUOUS
 10
427.0985382096
 20
304.8593619471
 30
0.0
 11
390.832666135
 21
293.097550524
 31
0.0
 40
0.1351783585
 41
2.4040546899
 42
2.4044201159
  0
ELLIPSE
  5
4ED
100
AcDbEntity
  8
0
100
AcDbEllipse
 62
250
  6
CONTINUOUS
 10
428.5519492268
 20
304.0201806413
 30
0.0
 11
295.5544792335
 21
347.4781534878
 31
0.0
 40
0.415081117
 41
-3.8614181447
 42
-3.8609116165
  0
ELLIPSE
  5
4EE
100
AcDbEntity
  8
0
100
AcDbEllipse
 62
250
  6
CONTINUOUS
 10
430.331250184
 20
302.9928345685
 30
0.0
 11
110.4909868793
 21
445.7669625099
 31
0.0
 40
0.6927357772
 41
-4.1361125
 42
-4.1355828164
  0
ELLIPSE
  5
4EF
100
AcDbEntity
  8
0
100
AcDbEllipse
 62
250
  6
CONTINUOUS
 10
431.8400951415
 20
302.1216464003
 30
0.0
 11
-150.0162551908
 21
508.878185577
 31
0.0
 40
0.6822961723
 41
-4.5615741919
 42
-4.5611624609
  0
ELLIPSE
  5
4F0
100
AcDbEntity
  8
0
100
AcDbEllipse
 62
250
  6
CONTINUOUS
 10
434.6533496246
 20
300.4973085201
 30
0.0
 11
-446.6861295676
 21
604.5673546434
 31
0.0
 40
0.4864422361
 41
1.5030191026
 42
1.5033128794
  0
ELLIPSE
  5
4F1
100
AcDbEntity
  8
0
100
AcDbEllipse
 62
250
  6
CONTINUOUS
 10
441.3962474906
 20
296.6040438006
 30
0.0
 11
980.5789577624
 21
-902.0564227509
 31
0.0
 40
0.2640669452
 41
-1.6662475509
 42
-1.6660717275
  0
ELLIPSE
  5
4F2
100
AcDbEntity
  8
0
100
AcDbEllipse
 62
250
  6
CONTINUOUS
 10
476.1000447106
 20
276.5665062266
 30
0.0
 11
3646.2465598667
 21
-2459.0032953195
 31
0.0
 40
0.0751391219
 41
-1.6205584702
 42
-1.6203848687
  0
ELLIPSE
  5
4F3
100
AcDbEntity
  8
0
100
AcDbEllipse
 62
250
  6
CONTINUOUS
 10
401.8104754906
 20
319.4603724272
 30
0.0
 11
2045.2249943881
 21
-776.5409370952
 31
0.0
 40
0.130880733
 41
-1.6641224523
 42
-1.6640392185
  0
ELLIPSE
  5
4F4
100
AcDbEntity
  8
0
100
AcDbEllipse
 62
250
  6
CONTINUOUS
 10
420.8520873394
 20
308.4659843932
 30
0.0
 11
646.0192508144
 21
133.1288993967
 31
0.0
 40
0.2066904101
 41
-2.1150531315
 42
-2.1148287927
  0
ELLIPSE
  5
4F5
100
AcDbEntity
  8
0
100
AcDbEllipse
 62
250
  6
CONTINUOUS
 10
425.1144011803
 20
306.0049778008
 30
0.0
 11
390.8317624576
 21
293.0980510103
 31
0.0
 40
0.1351807494
 41
2.4011060941
 42
2.4014715344
  0
ELLIPSE
  5
4F6
100
AcDbEntity
  8
0
100
AcDbEllipse
 62
250
  6
CONTINUOUS
 10
426.9482964221
 20
304.9461096722
 30
0.0
 11
295.5547375119
 21
347.4779986835
 31
0.0
 40
0.4150803833
 41
-3.8634953385
 42
-3.8629888008
  0
ELLIPSE
  5
4F7
100
AcDbEntity
  8
0
100
AcDbEllipse
 62
250
  6
CONTINUOUS
 10
406.5668394767
 20
316.7141074729
 30
0.0
 11
1367.7603126176
 21
-360.8691123176
 31
0.0
 40
0.1861590752
 41
-1.7398604007
 42
-1.7390070715
  0
ELLIPSE
  5
4F8
100
AcDbEntity
  8
0
100
AcDbEllipse
 62
250
  6
CONTINUOUS
 10
442.7349100159
 20
295.8311168359
 30
0.0
 11
-793.046845245
 21
792.8063339445
 31
0.0
 40
0.3176318671
 41
1.4671539447
 42
1.4686323054
  0
ELLIPSE
  5
4F9
100
AcDbEntity
  8
0
100
AcDbEllipse
 62
250
  6
CONTINUOUS
 10
408.1133897123
 20
315.8211487497
 30
0.0
 11
1331.2981338033
 21
-337.6426719973
 31
0.0
 40
0.1901437996
 41
-1.7485489153
 42
-1.7470203356
  0
ELLIPSE
  5
4FA
100
AcDbEntity
  8
0
100
AcDbEllipse
 62
250
  6
CONTINUOUS
 10
406.5092383253
 20
316.7473656558
 30
0.0
 11
1367.7662015235
 21
-360.8728528161
 31
0.0
 40
0.1861584401
 41
-1.7403217321
 42
-1.7399424808
  0
ELLIPSE
  5
4FB
100
AcDbEntity
  8
0
100
AcDbEllipse
 62
250
  6
CONTINUOUS
 10
442.7016895665
 20
295.8502979071
 30
0.0
 11
-793.0454056819
 21
792.8055026935
 31
0.0
 40
0.3176323546
 41
1.4663210413
 42
1.4669781069
  0
ELLIPSE
  5
4FC
100
AcDbEntity
  8
0
100
AcDbEllipse
 62
250
  6
CONTINUOUS
 10
443.0415649076
 20
295.6540581447
 30
0.0
 11
-780.4015467297
 21
785.5110662939
 31
0.0
 40
0.3219671025
 41
1.4655588032
 42
1.4681754761
  0
ELLIPSE
  5
4FD
100
AcDbEntity
  8
0
100
AcDbEllipse
 62
250
  6
CONTINUOUS
 10
431.2003142375
 20
302.491047876
 30
0.0
 11
58.5235311382
 21
464.0384685641
 31
0.0
 40
0.711114308
 41
-4.2401786316
 42
-4.2397784025
  0
ELLIPSE
  5
4FE
100
AcDbEntity
  8
0
100
AcDbEllipse
 62
250
  6
CONTINUOUS
 10
435.4843165919
 20
300.0175186077
 30
0.0
 11
-292.7907686124
 21
542.7380241176
 31
0.0
 40
0.5956605148
 41
1.5658320653
 42
1.5661143161
  0
ELLIPSE
  5
4FF
100
AcDbEntity
  8
0
100
AcDbEllipse
 62
250
  6
CONTINUOUS
 10
445.7885195949
 20
294.0680009357
 30
0.0
 11
-793.0437071043
 21
792.8045218794
 31
0.0
 40
0.3176329298
 41
1.4639478225
 42
1.4641120971
  0
ELLIPSE
  5
500
100
AcDbEntity
  8
0
100
AcDbEllipse
 62
250
  6
CONTINUOUS
 10
400.2418849162
 20
320.3660569658
 30
0.0
 11
1367.7434874771
 21
-360.8584253542
 31
0.0
 40
0.1861608895
 41
-1.7345133274
 42
-1.7344185027
  0
ELLIPSE
  5
501
100
AcDbEntity
  8
0
100
AcDbEllipse
 62
250
  6
CONTINUOUS
 10
421.5056468911
 20
308.088627299
 30
0.0
 11
477.9653844284
 21
243.3847945249
 31
0.0
 40
0.0494138056
 41
-2.3023390216
 42
-2.3021030738
  0
ELLIPSE
  5
502
100
AcDbEntity
  8
0
100
AcDbEllipse
 62
250
  6
CONTINUOUS
 10
426.9109153568
 20
304.9676930309
 30
0.0
 11
315.0753552344
 21
335.8924316541
 31
0.0
 40
0.3577862918
 41
-3.86586042
 42
-3.8654833446
  0
ELLIPSE
  5
503
100
AcDbEntity
  8
0
100
AcDbEllipse
 62
250
  6
CONTINUOUS
 10
519.9092645427
 20
251.271611754
 30
0.0
 11
3646.2635673662
 21
-2459.0131688764
 31
0.0
 40
0.0751387752
 41
-1.6324784775
 42
-1.6323164137
  0
ELLIPSE
  5
504
100
AcDbEntity
  8
0
100
AcDbEllipse
 62
250
  6
CONTINUOUS
 10
426.0432456005
 20
305.4686746737
 30
0.0
 11
315.0765992788
 21
335.8917014436
 31
0.0
 40
0.3577825473
 41
-3.8660916528
 42
-3.8657145754
  0
ELLIPSE
  5
505
100
AcDbEntity
  8
0
100
AcDbEllipse
 62
250
  6
CONTINUOUS
 10
420.581332663
 20
308.62231475
 30
0.0
 11
477.9631666356
 21
243.3861185123
 31
0.0
 40
0.0494102304
 41
-2.3021101237
 42
-2.3018741747
  0
ELLIPSE
  5
506
100
AcDbEntity
  8
0
100
AcDbEllipse
 62
250
  6
CONTINUOUS
 10
399.0911410742
 20
321.030482038
 30
0.0
 11
1367.7737730551
 21
-360.877662075
 31
0.0
 40
0.1861576236
 41
-1.7342758561
 42
-1.7341810331
  0
ELLIPSE
  5
507
100
AcDbEntity
  8
0
100
AcDbEllipse
 62
250
  6
CONTINUOUS
 10
508.1363747497
 20
258.0691307715
 30
0.0
 11
3646.4324022103
 21
-2459.1111844648
 31
0.0
 40
0.0751353342
 41
-1.6294118591
 42
-1.6293771352
  0
ELLIPSE
  5
508
100
AcDbEntity
  8
0
100
AcDbEllipse
 62
250
  6
CONTINUOUS
 10
445.0915785324
 20
294.4704059705
 30
0.0
 11
-793.0479968994
 21
792.8069989476
 31
0.0
 40
0.3176314771
 41
1.4637047418
 42
1.4638690173
  0
ELLIPSE
  5
509
100
AcDbEntity
  8
0
100
AcDbEllipse
 62
250
  6
CONTINUOUS
 10
434.6729371466
 20
300.4859989304
 30
0.0
 11
-292.7907686124
 21
542.7380241176
 31
0.0
 40
0.5956605148
 41
1.5655889826
 42
1.5658712349
  0
ELLIPSE
  5
50A
100
AcDbEntity
  8
0
100
AcDbEllipse
 62
250
  6
CONTINUOUS
 10
430.3420010718
 20
302.9866271406
 30
0.0
 11
58.5235311382
 21
464.0384685641
 31
0.0
 40
0.711114308
 41
-4.2404217165
 42
-4.2400214852
  0
ELLIPSE
  5
50B
100
AcDbEntity
  8
0
100
AcDbEllipse
 62
250
  6
CONTINUOUS
 10
519.90884091
 20
251.2718563542
 30
0.0
 11
3646.2465598667
 21
-2459.0032953195
 31
0.0
 40
0.0751391219
 41
-1.6327217176
 42
-1.6325480758
  0
ELLIPSE
  5
50C
100
AcDbEntity
  8
0
100
AcDbEllipse
 62
250
  6
CONTINUOUS
 10
428.1789743976
 20
304.2355316332
 30
0.0
 11
283.2425970431
 21
354.8906417019
 31
0.0
 40
0.4491041418
 41
-3.8816708811
 42
-3.881034707
  0
ELLIPSE
  5
50D
100
AcDbEntity
  8
0
100
AcDbEllipse
 62
250
  6
CONTINUOUS
 10
423.918031518
 20
306.6957466498
 30
0.0
 11
411.0092429342
 21
281.891195026
 31
0.0
 40
0.0842244769
 41
2.3746452712
 42
2.3751287396
  0
ELLIPSE
  5
50E
100
AcDbEntity
  8
0
100
AcDbEllipse
 62
250
  6
CONTINUOUS
 10
418.9908536955
 20
309.5406373724
 30
0.0
 11
585.0709474872
 21
175.1683272195
 31
0.0
 40
0.1711411259
 41
-2.1751539964
 42
-2.1748116529
  0
ELLIPSE
  5
50F
100
AcDbEntity
  8
0
100
AcDbEllipse
 62
250
  6
CONTINUOUS
 10
401.3339315145
 20
319.7355229465
 30
0.0
 11
1367.7665377203
 21
-360.8730663605
 31
0.0
 40
0.1861584039
 41
-1.7352976489
 42
-1.7352028281
  0
ELLIPSE
  5
510
100
AcDbEntity
  8
0
100
AcDbEllipse
 62
250
  6
CONTINUOUS
 10
505.3039273201
 20
259.7045504185
 30
0.0
 11
3646.1521930166
 21
-2458.9485114523
 31
0.0
 40
0.0751410453
 41
-1.6284053902
 42
-1.628359089
  0
ELLIPSE
  5
511
100
AcDbEntity
  8
0
100
AcDbEllipse
 62
250
  6
CONTINUOUS
 10
445.1579627871
 20
294.4320765338
 30
0.0
 11
-793.0479968993
 21
792.8069989476
 31
0.0
 40
0.3176314771
 41
1.4647135358
 42
1.4648778078
  0
ELLIPSE
  5
512
100
AcDbEntity
  8
0
100
AcDbEllipse
 62
250
  6
CONTINUOUS
 10
437.0917321157
 20
299.0894170299
 30
0.0
 11
-399.6034383092
 21
583.1218024445
 31
0.0
 40
0.5186424437
 41
1.5091517355
 42
1.5095866791
  0
ELLIPSE
  5
513
100
AcDbEntity
  8
0
100
AcDbEllipse
 62
250
  6
CONTINUOUS
 10
432.0955229725
 20
301.974165572
 30
0.0
 11
-52.3685326329
 21
491.3313221457
 31
0.0
 40
0.7129275659
 41
-4.4279883666
 42
-4.427717694
  0
ELLIPSE
  5
514
100
AcDbEntity
  8
0
100
AcDbEllipse
 62
250
  6
CONTINUOUS
 10
424.9839194562
 20
306.080316313
 30
0.0
 11
352.5641639839
 21
314.3807679391
 31
0.0
 40
0.2438534308
 41
2.4147565788
 42
2.4150041016
  0
ELLIPSE
  5
515
100
AcDbEntity
  8
0
100
AcDbEllipse
 62
250
  6
CONTINUOUS
 10
418.035194438
 20
310.0924230504
 30
0.0
 11
585.0718948896
 21
175.1676887605
 31
0.0
 40
0.1711418308
 41
-2.1749213895
 42
-2.1745790465
  0
ELLIPSE
  5
516
100
AcDbEntity
  8
0
100
AcDbEllipse
 62
250
  6
CONTINUOUS
 10
400.1843722777
 20
320.3992640425
 30
0.0
 11
1367.7434874771
 21
-360.8584253542
 31
0.0
 40
0.1861608895
 41
-1.7350706888
 42
-1.7349758653
  0
ELLIPSE
  5
517
100
AcDbEntity
  8
0
100
AcDbEllipse
 62
250
  6
CONTINUOUS
 10
505.3057336363
 20
259.7035074741
 30
0.0
 11
3646.2384307611
 21
-2458.9985760373
 31
0.0
 40
0.0751392875
 41
-1.6286477498
 42
-1.6285898746
  0
ELLIPSE
  5
518
100
AcDbEntity
  8
0
100
AcDbEllipse
 62
250
  6
CONTINUOUS
 10
444.4607057569
 20
294.8346640044
 30
0.0
 11
-793.0376321325
 21
792.801013994
 31
0.0
 40
0.317634987
 41
1.4644704575
 42
1.4646347325
  0
ELLIPSE
  5
519
100
AcDbEntity
  8
0
100
AcDbEllipse
 62
250
  6
CONTINUOUS
 10
436.3019812285
 20
299.5454092943
 30
0.0
 11
-399.605269262
 21
583.1225993215
 31
0.0
 40
0.5186411561
 41
1.5089079745
 42
1.5093429204
  0
ELLIPSE
  5
51A
100
AcDbEntity
  8
0
100
AcDbEllipse
 62
250
  6
CONTINUOUS
 10
432.839244426
 20
301.5447501257
 30
0.0
 11
-191.2535307843
 21
516.7669380474
 31
0.0
 40
0.6614770329
 41
-4.6222568013
 42
-4.6217038752
  0
ELLIPSE
  5
51B
100
AcDbEntity
  8
0
100
AcDbEllipse
 62
250
  6
CONTINUOUS
 10
429.1586364631
 20
303.6698870347
 30
0.0
 11
138.5395325927
 21
434.0762621044
 31
0.0
 40
0.6761158238
 41
-4.0963396265
 42
-4.0956802945
  0
ELLIPSE
  5
51C
100
AcDbEntity
  8
0
100
AcDbEllipse
 62
250
  6
CONTINUOUS
 10
522.7348808522
 20
249.6401363102
 30
0.0
 11
3646.2338334412
 21
-2458.9959071029
 31
0.0
 40
0.0751393812
 41
-1.6335686475
 42
-1.6330245588
  0
ELLIPSE
  5
51D
100
AcDbEntity
  8
0
100
AcDbEllipse
 62
250
  6
CONTINUOUS
 10
404.4163880035
 20
317.955751202
 30
0.0
 11
711.2386247423
 21
86.659510992
 31
0.0
 40
0.2277737376
 41
-2.0256127834
 42
-2.0225020809
  0
ELLIPSE
  5
51E
100
AcDbEntity
  8
0
100
AcDbEllipse
 62
250
  6
CONTINUOUS
 10
477.811036047
 20
275.5786012727
 30
0.0
 11
1135.2622073979
 21
-992.872937786
 31
0.0
 40
0.2313062441
 41
-1.6945156905
 42
-1.692737708
  0
ELLIPSE
  5
51F
100
AcDbEntity
  8
0
100
AcDbEllipse
 62
250
  6
CONTINUOUS
 10
381.5222795533
 20
331.1745224906
 30
0.0
 11
1157.2943277115
 21
-224.6606575815
 31
0.0
 40
0.2103275553
 41
-1.766823502
 42
-1.7650456563
  0
ELLIPSE
  5
520
100
AcDbEntity
  8
0
100
AcDbEllipse
 62
250
  6
CONTINUOUS
 10
418.3386649147
 20
309.9172030006
 30
0.0
 11
-793.046845245
 21
792.8063339445
 31
0.0
 40
0.3176318671
 41
1.4988873943
 42
1.500365657
  0
ELLIPSE
  5
521
100
AcDbEntity
  8
0
100
AcDbEllipse
 62
250
  6
CONTINUOUS
 10
449.184242753
 20
292.1073529427
 30
0.0
 11
1331.2963116118
 21
-337.6415078475
 31
0.0
 40
0.1901440013
 41
-1.7802826305
 42
-1.7787540496
  0
ELLIPSE
  5
522
100
AcDbEntity
  8
0
100
AcDbEllipse
 62
250
  6
CONTINUOUS
 10
448.7740211965
 20
292.3442097281
 30
0.0
 11
1367.7586300832
 21
-360.8680436096
 31
0.0
 40
0.1861592566
 41
-1.7720565438
 42
-1.7716772929
  0
ELLIPSE
  5
523
100
AcDbEntity
  8
0
100
AcDbEllipse
 62
250
  6
CONTINUOUS
 10
418.3054920206
 20
309.9363566139
 30
0.0
 11
-793.0454056819
 21
792.8055026935
 31
0.0
 40
0.3176323546
 41
1.4980545745
 42
1.4987115705
  0
ELLIPSE
  5
524
100
AcDbEntity
  8
0
100
AcDbEllipse
 62
250
  6
CONTINUOUS
 10
419.0479130674
 20
309.5076920062
 30
0.0
 11
-780.4015467297
 21
785.5110662939
 31
0.0
 40
0.3219671025
 41
1.4972924362
 42
1.4999088492
  0
ELLIPSE
  5
525
100
AcDbEntity
  8
0
100
AcDbEllipse
 62
250
  6
CONTINUOUS
 10
389.895777837
 20
326.3397695262
 30
0.0
 11
3646.2338334412
 21
-2458.9959071029
 31
0.0
 40
0.0751393812
 41
-1.5970413184
 42
-1.5964973808
  0
ELLIPSE
  5
526
100
AcDbEntity
  8
0
100
AcDbEllipse
 62
250
  6
CONTINUOUS
 10
360.6899251509
 20
343.2028628318
 30
0.0
 11
3646.2387697656
 21
-2458.9987728435
 31
0.0
 40
0.0751392806
 41
-1.5889408395
 42
-1.5884662852
  0
ELLIPSE
  5
527
100
AcDbEntity
  8
0
100
AcDbEllipse
 62
250
  6
CONTINUOUS
 10
346.5589563496
 20
351.361907115
 30
0.0
 11
3646.20010226
 21
-2458.9763247551
 31
0.0
 40
0.0751400688
 41
-1.58512425
 42
-1.5850547971
  0
ELLIPSE
  5
528
100
AcDbEntity
  8
0
100
AcDbEllipse
 62
250
  6
CONTINUOUS
 10
392.7221379478
 20
324.7078646208
 30
0.0
 11
3646.2338334412
 21
-2458.9959071029
 31
0.0
 40
0.0751393812
 41
-1.5978184661
 42
-1.5972745329
  0
ELLIPSE
  5
529
100
AcDbEntity
  8
0
100
AcDbEllipse
 62
250
  6
CONTINUOUS
 10
428.0668152666
 20
304.3002909098
 30
0.0
 11
58.5222843141
 21
464.0388578224
 31
0.0
 40
0.7111145893
 41
-4.2103896542
 42
-4.2099895166
  0
ELLIPSE
  5
52A
100
AcDbEntity
  8
0
100
AcDbEllipse
 62
250
  6
CONTINUOUS
 10
426.5977736648
 20
305.1484971192
 30
0.0
 11
-292.7907686125
 21
542.7380241176
 31
0.0
 40
0.5956605148
 41
-4.6875621356
 42
-4.6872799449
  0
ELLIPSE
  5
52B
100
AcDbEntity
  8
0
100
AcDbEllipse
 62
250
  6
CONTINUOUS
 10
422.8860181385
 20
307.2916182409
 30
0.0
 11
-793.0437071043
 21
792.8045218793
 31
0.0
 40
0.3176329298
 41
1.4937388687
 42
1.4939031094
  0
ELLIPSE
  5
52C
100
AcDbEntity
  8
0
100
AcDbEllipse
 62
250
  6
CONTINUOUS
 10
399.7881611149
 20
320.6280314022
 30
0.0
 11
3646.2204247632
 21
-2458.9881228101
 31
0.0
 40
0.0751396545
 41
-1.5993795227
 42
-1.5993448038
  0
ELLIPSE
  5
52D
100
AcDbEntity
  8
0
100
AcDbEllipse
 62
250
  6
CONTINUOUS
 10
439.9758896512
 20
297.4241406159
 30
0.0
 11
1367.736252322
 21
-360.8538297325
 31
0.0
 40
0.1861616698
 41
-1.7643173338
 42
-1.7642225285
  0
ELLIPSE
  5
52E
100
AcDbEntity
  8
0
100
AcDbEllipse
 62
250
  6
CONTINUOUS
 10
432.1822980742
 20
301.9240627158
 30
0.0
 11
477.9653844284
 21
243.3847945249
 31
0.0
 40
0.0494138056
 41
-2.3321416223
 42
-2.3319057239
  0
ELLIPSE
  5
52F
100
AcDbEntity
  8
0
100
AcDbEllipse
 62
250
  6
CONTINUOUS
 10
430.280187351
 20
303.0223176083
 30
0.0
 11
315.0753552344
 21
335.8924316541
 31
0.0
 40
0.3577862918
 41
-3.8360576875
 42
-3.8356806945
  0
ELLIPSE
  5
530
100
AcDbEntity
  8
0
100
AcDbEllipse
 62
250
  6
CONTINUOUS
 10
411.5645300312
 20
313.8285035825
 30
0.0
 11
3646.2424953139
 21
-2459.0009356784
 31
0.0
 40
0.0751392047
 41
-1.6026868024
 42
-1.6025132137
  0
ELLIPSE
  5
531
100
AcDbEntity
  8
0
100
AcDbEllipse
 62
250
  6
CONTINUOUS
 10
436.2374553435
 20
299.5826657315
 30
0.0
 11
1157.9936158793
 21
-225.1229133202
 31
0.0
 40
0.2102441755
 41
-1.815743853
 42
-1.8149507076
  0
ELLIPSE
  5
532
100
AcDbEntity
  8
0
100
AcDbEllipse
 62
250
  6
CONTINUOUS
 10
363.5163871684
 20
341.5708990868
 30
0.0
 11
3646.2338334413
 21
-2458.9959071029
 31
0.0
 40
0.0751393812
 41
-1.5897875653
 42
-1.5892435713
  0
ELLIPSE
  5
533
100
AcDbEntity
  8
0
100
AcDbEllipse
 62
250
  6
CONTINUOUS
 10
436.9200935298
 20
299.1885189982
 30
0.0
 11
1121.4431268765
 21
-200.8600393866
 31
0.0
 40
0.2145974847
 41
-1.8284305967
 42
-1.8275310691
  0
ELLIPSE
  5
534
100
AcDbEntity
  8
0
100
AcDbEllipse
 62
250
  6
CONTINUOUS
 10
427.4622457171
 20
304.6493617906
 30
0.0
 11
-52.372741051
 21
491.3321421045
 31
0.0
 40
0.7129268534
 41
-4.3984746675
 42
-4.3979334348
  0
ELLIPSE
  5
535
100
AcDbEntity
  8
0
100
AcDbEllipse
 62
250
  6
CONTINUOUS
 10
425.5583647469
 20
305.7486388016
 30
0.0
 11
-399.6012105104
 21
583.1208328542
 31
0.0
 40
0.5186440103
 41
1.5389435437
 42
1.5393784058
  0
ELLIPSE
  5
536
100
AcDbEntity
  8
0
100
AcDbEllipse
 62
250
  6
CONTINUOUS
 10
448.8316065875
 20
292.3109606451
 30
0.0
 11
1367.7636776999
 21
-360.8712497414
 31
0.0
 40
0.1861587123
 41
-1.7715930622
 42
-1.7707397602
  0
ELLIPSE
  5
537
100
AcDbEntity
  8
0
100
AcDbEllipse
 62
250
  6
CONTINUOUS
 10
422.2553313665
 20
307.6557688787
 30
0.0
 11
-793.0479968994
 21
792.8069989476
 31
0.0
 40
0.3176314771
 41
1.4945044331
 42
1.494668675
  0
ELLIPSE
  5
538
100
AcDbEntity
  8
0
100
AcDbEllipse
 62
250
  6
CONTINUOUS
 10
396.9624095686
 20
322.25958493
 30
0.0
 11
3646.1521930163
 21
-2458.9485114522
 31
0.0
 40
0.0751410453
 41
-1.598614523
 42
-1.5985682301
  0
ELLIPSE
  5
539
100
AcDbEntity
  8
0
100
AcDbEllipse
 62
250
  6
CONTINUOUS
 10
441.0109261618
 20
296.8265235067
 30
0.0
 11
1367.7362523222
 21
-360.8538297326
 31
0.0
 40
0.1861616698
 41
-1.7650944729
 42
-1.764999667
  0
ELLIPSE
  5
53A
100
AcDbEntity
  8
0
100
AcDbEllipse
 62
250
  6
CONTINUOUS
 10
433.6438986761
 20
301.0801528464
 30
0.0
 11
585.0709474872
 21
175.1683272195
 31
0.0
 40
0.1711411259
 41
-2.2049448702
 42
-2.2046025909
  0
ELLIPSE
  5
53B
100
AcDbEntity
  8
0
100
AcDbEllipse
 62
250
  6
CONTINUOUS
 10
431.6999447778
 20
302.2025674638
 30
0.0
 11
411.0100396118
 21
281.890750594
 31
0.0
 40
0.0842225631
 41
2.4044355638
 42
2.4049189334
  0
ELLIPSE
  5
53C
100
AcDbEntity
  8
0
100
AcDbEllipse
 62
250
  6
CONTINUOUS
 10
430.1503038989
 20
303.0973106857
 30
0.0
 11
283.242423935
 21
354.8907463022
 31
0.0
 40
0.4491046057
 41
-3.8518798409
 42
-3.8512438024
  0
ELLIPSE
  5
53D
100
AcDbEntity
  8
0
100
AcDbEllipse
 62
250
  6
CONTINUOUS
 10
414.39093382
 20
312.196573458
 30
0.0
 11
3646.2338334412
 21
-2458.9959071029
 31
0.0
 40
0.0751393812
 41
-1.6037764505
 42
-1.6032325397
  0
ELLIPSE
  5
53E
100
AcDbEntity
  8
0
100
AcDbEllipse
 62
250
  6
CONTINUOUS
 10
411.5645761409
 20
313.8284769593
 30
0.0
 11
3646.2332861433
 21
-2458.9955893738
 31
0.0
 40
0.0751393924
 41
-1.6029993398
 42
-1.6027563151
  0
ELLIPSE
  5
53F
100
AcDbEntity
  8
0
100
AcDbEllipse
 62
250
  6
CONTINUOUS
 10
418.1591580266
 20
310.020848028
 30
0.0
 11
3646.316248511
 21
-2459.0437524575
 31
0.0
 40
0.0751377015
 41
-1.6043374443
 42
-1.6042680106
  0
ELLIPSE
  5
540
100
AcDbEntity
  8
0
100
AcDbEllipse
 62
250
  6
CONTINUOUS
 10
432.2912387719
 20
301.8611617223
 30
0.0
 11
3646.23427549
 21
-2458.9961637305
 31
0.0
 40
0.0751393722
 41
-1.6083741218
 42
-1.6082236796
  0
ELLIPSE
  5
541
100
AcDbEntity
  8
0
100
AcDbEllipse
 62
250
  6
CONTINUOUS
 10
420.0437464155
 20
308.9327103117
 30
0.0
 11
3646.2001022603
 21
-2458.9763247553
 31
0.0
 40
0.0751400688
 41
-1.6050763627
 42
-1.6050069269
  0
ELLIPSE
  5
542
100
AcDbEntity
  8
0
100
AcDbEllipse
 62
250
  6
CONTINUOUS
 10
432.2912787863
 20
301.8611386185
 30
0.0
 11
3646.271422612
 21
-2459.0177291714
 31
0.0
 40
0.0751386151
 41
-1.6086284075
 42
-1.6084432496
  0
ELLIPSE
  5
543
100
AcDbEntity
  8
0
100
AcDbEllipse
 62
250
  6
CONTINUOUS
 10
418.1595079267
 20
310.0206460001
 30
0.0
 11
3646.2001022604
 21
-2458.9763247553
 31
0.0
 40
0.0751400688
 41
-1.6048128818
 42
-1.604743446
  0
ELLIPSE
  5
544
100
AcDbEntity
  8
0
100
AcDbEllipse
 62
250
  6
CONTINUOUS
 10
435.1176042672
 20
300.229253708
 30
0.0
 11
3646.2338334412
 21
-2458.9959071029
 31
0.0
 40
0.0751393812
 41
-1.6094752668
 42
-1.6089313593
  0
ELLIPSE
  5
545
100
AcDbEntity
  8
0
100
AcDbEllipse
 62
250
  6
CONTINUOUS
 10
456.7865175363
 20
287.7178947616
 30
0.0
 11
3646.2506244196
 21
-2459.0056549606
 31
0.0
 40
0.075139039
 41
-1.6149469947
 42
-1.6148891309
  0
ENDSEC
  0
SECTION
  2
OBJECTS
  0
DICTIONARY
  5
C
100
AcDbDictionary
280
0
281
1
  3
ACAD_GROUP
350
D
  3
ACAD_MLINESTYLE
350
17
  3
ACAD_LAYOUT
350
1A
  3
ACAD_PLOTSETTINGS
350
19
  3
ACAD_PLOTSTYLENAME
350
E
  0
DICTIONARY
  5
D
102
{ACAD_REACTORS
330
C
102
}
100
AcDbDictionary
280
0
281
1
  0
ACDBDICTIONARYWDFLT
  5
E
102
{ACAD_REACTORS
330
C
102
}
100
AcDbDictionary
281
1
  3
Normal
350
F
100
AcDbDictionaryWithDefault
340
F
  0
DICTIONARY
  5
17
102
{ACAD_REACTORS
330
C
102
}
100
AcDbDictionary
280
0
281
1
  3
Standard
350
18
  0
DICTIONARY
  5
19
102
{ACAD_REACTORS
330
C
102
}
100
AcDbDictionary
281
1
  0
DICTIONARY
  5
1A
102
{ACAD_REACTORS
330
C
102
}
100
AcDbDictionary
281
1
  3
Model
350
546
  3
Layout1
350
547
  0
ACDBPLACEHOLDER
  5
F
102
{ACAD_REACTORS
330
E
102
}
  0
MLINESTYLE
  5
18
102
{ACAD_REACTORS
330
17
102
}
100
AcDbMlineStyle
  2
STANDARD
 70
0
  3

 62
256
 51
90.0
 52
90.0
 71
2
 49
0.5
 62
256
  6
BYLAYER
 49
-0.5
 62
256
  6
BYLAYER
  0
LAYOUT
  5
546
102
{ACAD_REACTORS
330
1A
102
}
100
AcDbPlotSettings
  1

  2
none_device
  4
ISO_A4_(297.00_x_210.00_MM)
  6

 40
0.0
 41
0.0
 42
0.0
 43
0.0
 44
297.0
 45
210.0
 46
0.0
 47
0.0
 48
0.0
 49
0.0
140
0.0
141
0.0
142
1.0
143
1.0
 70
1024
 72
1
 73
0
 74
0
  7

 75
0
147
1.0
148
0.0
149
0.0
100
AcDbLayout
  1
Model
 70
0
 71
0
 10
0.0
 20
0.0
 11
297.0
 21
210.0
 12
0.0
 22
0.0
 32
0.0
 14
0.0
 24
0.0
 34
0.0
 15
0.0
 25
0.0
 35
0.0
146
0.0
 13
0.0
 23
0.0
 33
0.0
 16
1.0
 26
0.0
 36
0.0
 17
0.0
 27
1.0
 37
0.0
 76
0
330
215
345
0
346
0
  0
LAYOUT
  5
547
102
{ACAD_REACTORS
330
1A
102
}
100
AcDbPlotSettings
  1

  2
none_device
  4
ISO_A4_(297.00_x_210.00_MM)
  6

 40
0.0
 41
0.0
 42
0.0
 43
0.0
 44
297.0
 45
210.0
 46
0.0
 47
0.0
 48
0.0
 49
0.0
140
0.0
141
0.0
142
1.0
143
1.0
 70
0
 72
1
 73
0
 74
0
  7

 75
0
147
1.0
148
0.0
149
0.0
100
AcDbLayout
  1
Layout1
 70
0
 71
1
 10
0.0
 20
0.0
 11
297.0
 21
210.0
 12
0.0
 22
0.0
 32
0.0
 14
0.0
 24
0.0
 34
0.0
 15
0.0
 25
0.0
 35
0.0
146
0.0
 13
0.0
 23
0.0
 33
0.0
 16
1.0
 26
0.0
 36
0.0
 17
0.0
 27
1.0
 37
0.0
 76
0
330
216
345
0
346
0
  0
ENDSEC
  0
EOF
