  0
SECTION
  2
HEADER
  9
$ACADVER
  1
AC1024
  9
$DWGCODEPAGE
  3
ANSI_1252
  9
$EXTMAX
 10
297.0
 20
210.0
 30
0.0
  9
$EXTMIN
 10
0.0
 20
0.0
 30
0.0
  9
$LIMMIN
 10
0.0
 20
0.0
  9
$LIMMAX
 10
297.0
 20
210.0
  9
$VIEWCTR
 10
148.5
 20
105.0
  9
$VIEWSIZE
 40
210.0
  9
$CLAYER
  8
0
  9
$LTSCALE
 40
16.335
  9
$CELTYPE
  6
BYLAYER
  9
$DIMSCALE
 40
1.0
  9
$DIMASZ
 40
3.0
  9
$DIMEXO
 40
0.5
  9
$DIMDLI
 40
11.286
  9
$DIMEXE
 40
1.5
  9
$DIMCEN
 40
2.673
  9
$DIMLFAC
 40
1.0
  9
$DIMBLK
  1
_FILLED
  9
$DIMALT
 70
0
  9
$DIMALTF
 40
0.0393700787
  9
$DIMTXT
 40
3.0
  9
$DIMTOL
 70
1
  9
$DIMLIM
 70
0
  9
$DIMTFAC
 40
1.0
  9
$DIMTP
 40
0.01
  9
$DIMTM
 40
0.01
  9
$DIMGAP
 40
0.625
  9
$DIMDSEP
 70
44
  9
$AUNITS
 70
0
  9
$PDMODE
 70
3
  9
$PDSIZE
 40
3.0
  9
$HANDSEED
  5
3AF
  9
$TILEMODE
 70
1
  9
$MEASUREMENT
 70
1
  9
$INSUNITS
 70
4
  0
ENDSEC
  0
SECTION
  2
CLASSES
  0
CLASS
  1
ACDBDICTIONARYWDFLT
  2
AcDbDictionaryWithDefault
  3
AutoCAD 2000
 90
0
 91
1
280
0
281
0
  0
CLASS
  1
ACDBPLACEHOLDER
  2
AcDbPlaceHolder
  3
AutoCAD 2000
 90
0
 91
1
280
0
281
0
  0
CLASS
  1
LAYOUT
  2
AcDbLayout
  3
AutoCAD 2000
 90
0
 91
0
280
0
281
0
  0
ENDSEC
  0
SECTION
  2
TABLES
  0
TABLE
  2
VPORT
  5
8
100
AcDbSymbolTable
 70
2
  0
VPORT
  5
1F4
100
AcDbSymbolTableRecord
100
AcDbViewportTableRecord
  2
*ACTIVE
 70
0
 10
0.0
 20
0.0
 11
1.0
 21
1.0
 12
148.5
 22
105.0
 13
0.0
 23
0.0
 14
1.0
 24
1.0
 15
0.0
 25
0.0
 16
0.0
 26
0.0
 36
1.0
 17
0.0
 27
0.0
 37
0.0
 40
210.0
 41
1.4142857143
 42
50.0
 43
0.0
 44
0.0
 50
0.0
 51
0.0
 71
0
 72
100
 73
1
 74
1
 75
0
 76
0
 77
0
 78
0
  0
ENDTAB
  0
TABLE
  2
LTYPE
  5
5
100
AcDbSymbolTable
 70
6
  0
LTYPE
  5
14
100
AcDbSymbolTableRecord
100
AcDbLinetypeTableRecord
  2
BYBLOCK
 70
0
  3

 72
65
 73
0
 40
0.0
  0
LTYPE
  5
15
100
AcDbSymbolTableRecord
100
AcDbLinetypeTableRecord
  2
BYLAYER
 70
0
  3

 72
65
 73
0
 40
0.0
  0
LTYPE
  5
16
100
AcDbSymbolTableRecord
100
AcDbLinetypeTableRecord
  2
CONTINUOUS
 70
64
  3
Solid line
 72
65
 73
0
 40
0.0
  0
LTYPE
  5
1F5
100
AcDbSymbolTableRecord
100
AcDbLinetypeTableRecord
  2
CENTER
 70
64
  3
____ _ ____ _ ____ _ ____ _ ____ _ ____ _ ____
 72
65
 73
4
 40
0.6
 49
0.375
 74
0
 49
-0.075
 74
0
 49
0.075
 74
0
 49
-0.075
 74
0
  0
LTYPE
  5
1F6
100
AcDbSymbolTableRecord
100
AcDbLinetypeTableRecord
  2
HIDDEN
 70
64
  3
- - - - - - - - - - - - - - - - - - - -
 72
65
 73
2
 40
0.2
 49
0.1
 74
0
 49
-0.1
 74
0
  0
LTYPE
  5
1F7
100
AcDbSymbolTableRecord
100
AcDbLinetypeTableRecord
  2
PHANTOM
 70
64
  3
_____ _ _ _____ _ _ _____ _ _ _____
 72
65
 73
6
 40
0.8
 49
0.45
 74
0
 49
-0.05
 74
0
 49
0.1
 74
0
 49
-0.05
 74
0
 49
0.1
 74
0
 49
-0.05
 74
0
  0
LTYPE
  5
1F8
100
AcDbSymbolTableRecord
100
AcDbLinetypeTableRecord
  2
DOT
 70
64
  3
. . . . . . . . . . . . . . . . . . . .
 72
65
 73
2
 40
0.2
 49
0.1
 74
0
 49
-0.1
 74
0
  0
LTYPE
  5
1F9
100
AcDbSymbolTableRecord
100
AcDbLinetypeTableRecord
  2
DASHED
 70
64
  3
- - - - - - - - - - - - - - - - - - - -
 72
65
 73
2
 40
0.2
 49
0.1
 74
0
 49
-0.1
 74
0
  0
ENDTAB
  0
TABLE
  2
LAYER
  5
2
100
AcDbSymbolTable
 70
36
  0
LAYER
  5
10
100
AcDbSymbolTableRecord
100
AcDbLayerTableRecord
  2
0
 70
0
 62
7
  6
CONTINUOUS
370
-3
390
F
  0
LAYER
  5
1FA
100
AcDbSymbolTableRecord
100
AcDbLayerTableRecord
  2
DEFAULT_1
 70
0
 62
7
  6
CENTER
370
-3
390
F
  0
LAYER
  5
1FB
100
AcDbSymbolTableRecord
100
AcDbLayerTableRecord
  2
DEFAULT_2
 70
0
 62
7
  6
HIDDEN
370
-3
390
F
  0
LAYER
  5
1FC
100
AcDbSymbolTableRecord
100
AcDbLayerTableRecord
  2
DEFAULT_3
 70
0
 62
7
  6
PHANTOM
370
-3
390
F
  0
LAYER
  5
1FD
100
AcDbSymbolTableRecord
100
AcDbLayerTableRecord
  2
ASSI
 70
0
 62
7
  6
CONTINUOUS
370
-3
390
F
  0
LAYER
  5
1FE
100
AcDbSymbolTableRecord
100
AcDbLayerTableRecord
  2
COORDINATE
 70
0
 62
7
  6
CONTINUOUS
370
-3
390
F
  0
LAYER
  5
1FF
100
AcDbSymbolTableRecord
100
AcDbLayerTableRecord
  2
COPY_PUBLISH
 70
0
 62
7
  6
CONTINUOUS
370
-3
390
F
  0
LAYER
  5
200
100
AcDbSymbolTableRecord
100
AcDbLayerTableRecord
  2
COSMETIC
 70
0
 62
7
  6
CONTINUOUS
370
-3
390
F
  0
LAYER
  5
201
100
AcDbSymbolTableRecord
100
AcDbLayerTableRecord
  2
COSMETICI
 70
0
 62
7
  6
CONTINUOUS
370
-3
390
F
  0
LAYER
  5
202
100
AcDbSymbolTableRecord
100
AcDbLayerTableRecord
  2
CURVE
 70
0
 62
7
  6
CONTINUOUS
370
-3
390
F
  0
LAYER
  5
203
100
AcDbSymbolTableRecord
100
AcDbLayerTableRecord
  2
CURVE_VERN
 70
0
 62
7
  6
CONTINUOUS
370
-3
390
F
  0
LAYER
  5
204
100
AcDbSymbolTableRecord
100
AcDbLayerTableRecord
  2
DRAFT
 70
0
 62
7
  6
CONTINUOUS
370
-3
390
F
  0
LAYER
  5
205
100
AcDbSymbolTableRecord
100
AcDbLayerTableRecord
  2
IMPORT_IGES
 70
0
 62
7
  6
CONTINUOUS
370
-3
390
F
  0
LAYER
  5
206
100
AcDbSymbolTableRecord
100
AcDbLayerTableRecord
  2
INTFCLR_1
 70
0
 62
7
  6
CONTINUOUS
370
-3
390
F
  0
LAYER
  5
207
100
AcDbSymbolTableRecord
100
AcDbLayerTableRecord
  2
INTF_1
 70
0
 62
7
  6
CONTINUOUS
370
-3
390
F
  0
LAYER
  5
208
100
AcDbSymbolTableRecord
100
AcDbLayerTableRecord
  2
NOTE
 70
0
 62
7
  6
CONTINUOUS
370
-3
390
F
  0
LAYER
  5
209
100
AcDbSymbolTableRecord
100
AcDbLayerTableRecord
  2
PIANI
 70
0
 62
7
  6
CONTINUOUS
370
-3
390
F
  0
LAYER
  5
20A
100
AcDbSymbolTableRecord
100
AcDbLayerTableRecord
  2
PUNTI
 70
0
 62
7
  6
CONTINUOUS
370
-3
390
F
  0
LAYER
  5
20B
100
AcDbSymbolTableRecord
100
AcDbLayerTableRecord
  2
RACCORDO
 70
0
 62
7
  6
CONTINUOUS
370
-3
390
F
  0
LAYER
  5
20C
100
AcDbSymbolTableRecord
100
AcDbLayerTableRecord
  2
RGB____0____0____0__
 70
0
 62
7
  6
CONTINUOUS
370
-3
390
F
  0
LAYER
  5
20D
100
AcDbSymbolTableRecord
100
AcDbLayerTableRecord
  2
SIMBOLI
 70
0
 62
7
  6
CONTINUOUS
370
-3
390
F
  0
LAYER
  5
20E
100
AcDbSymbolTableRecord
100
AcDbLayerTableRecord
  2
SMUSSO
 70
0
 62
7
  6
CONTINUOUS
370
-3
390
F
  0
LAYER
  5
20F
100
AcDbSymbolTableRecord
100
AcDbLayerTableRecord
  2
SNAPLINE
 70
0
 62
7
  6
CONTINUOUS
370
-3
390
F
  0
LAYER
  5
210
100
AcDbSymbolTableRecord
100
AcDbLayerTableRecord
  2
SUPERFICI
 70
0
 62
7
  6
CONTINUOUS
370
-3
390
F
  0
LAYER
  5
211
100
AcDbSymbolTableRecord
100
AcDbLayerTableRecord
  2
TRASH
 70
0
 62
7
  6
CONTINUOUS
370
-3
390
F
  0
LAYER
  5
212
100
AcDbSymbolTableRecord
100
AcDbLayerTableRecord
  2
XSEC_DATUMS
 70
0
 62
7
  6
CONTINUOUS
370
-3
390
F
  0
ENDTAB
  0
TABLE
  2
STYLE
  5
3
100
AcDbSymbolTable
 70
1
  0
STYLE
  5
11
100
AcDbSymbolTableRecord
100
AcDbTextStyleTableRecord
  2
STANDARD
 70
0
 40
0.0
 41
0.8
 50
0.0
 71
0
 42
0.2
  3
txt
  4

  0
STYLE
  5
213
100
AcDbSymbolTableRecord
100
AcDbTextStyleTableRecord
  2
TEXTSTYLE_1
 70
0
 40
0.0
 41
0.8
 50
0.0
 71
0
 42
0.2
  3
gdt
  4

  0
ENDTAB
  0
TABLE
  2
VIEW
  5
6
100
AcDbSymbolTable
 70
0
  0
ENDTAB
  0
TABLE
  2
UCS
  5
7
100
AcDbSymbolTable
 70
0
  0
ENDTAB
  0
TABLE
  2
APPID
  5
9
100
AcDbSymbolTable
 70
1
  0
APPID
  5
214
100
AcDbSymbolTableRecord
100
AcDbRegAppTableRecord
  2
ACAD
 70
0
  0
ENDTAB
  0
TABLE
  2
BLOCK_RECORD
  5
1
100
AcDbSymbolTable
 70
0
  0
BLOCK_RECORD
  5
215
100
AcDbSymbolTableRecord
100
AcDbBlockTableRecord
  2
*Model_Space
  0
BLOCK_RECORD
  5
216
100
AcDbSymbolTableRecord
100
AcDbBlockTableRecord
  2
*Paper_Space
  0
BLOCK_RECORD
  5
217
100
AcDbSymbolTableRecord
100
AcDbBlockTableRecord
  2
_FILLED
  0
ENDTAB
  0
TABLE
  2
DIMSTYLE
  5
A
100
AcDbSymbolTable
 70
1
100
AcDbDimStyleTable
 71
0
  0
DIMSTYLE
105
218
100
AcDbSymbolTableRecord
100
AcDbDimStyleTableRecord
  2
STANDARD
 70
0
  3

  4

 40
1.0
 41
3.0
 42
0.5
 43
0.38
 44
1.5
 45
0.0
 46
0.0
 47
0.01
 48
0.01
140
3.0
141
0.09
142
0.0
143
25.4
144
1.0
145
0.0
146
1.0
147
0.625
 71
1.0
 72
0.0
 73
0
 74
0
 75
0
 76
0
 77
1
 78
8
 79
2
170
0
171
1
172
0
173
0
174
0
175
0
176
0
177
0
178
0
270
2
179
2
271
2
272
2
273
2
274
2
275
0
280
0
281
0
282
0
283
1
284
8
285
0
286
0
287
3
288
0
340
11
278
44
341
217
342
217
343
217
344
217
  0
ENDTAB
  0
ENDSEC
  0
SECTION
  2
BLOCKS
  0
BLOCK
  5
20
100
AcDbEntity
  8
0
100
AcDbBlockBegin
  2
*Model_Space
 70
0
 10
0.0
 20
0.0
 30
0.0
  3
*Model_Space
  1

  0
ENDBLK
  5
21
100
AcDbEntity
  8
0
100
AcDbBlockEnd
  0
BLOCK
  5
1C
100
AcDbEntity
  8
0
100
AcDbBlockBegin
  2
*Paper_Space
 70
0
 10
0.0
 20
0.0
 30
0.0
  3
*Paper_Space
  1

  0
ENDBLK
  5
1D
100
AcDbEntity
  8
0
100
AcDbBlockEnd
  0
BLOCK
  5
219
100
AcDbEntity
  8
0
100
AcDbBlockBegin
  2
_FILLED
 70
64
 10
0.0
 20
0.0
  3
_FILLED
  1

  0
SOLID
  5
21A
100
AcDbEntity
  8
0
  6
BYBLOCK
 62
0
100
AcDbTrace
 10
0.0
 20
0.0
 11
-1.0
 21
0.3166666667
 12
-1.0
 22
-0.3166666667
 13
-1.0
 23
-0.3166666667
  0
ENDBLK
  5
21B
100
AcDbEntity
  8
0
  6
BYBLOCK
 62
0
100
AcDbBlockEnd
  0
ENDSEC
  0
SECTION
  2
ENTITIES
  0
LWPOLYLINE
  5
21C
100
AcDbEntity
  8
RACCORDO
100
AcDbPolyline
 62
7
  6
CONTINUOUS
 90
14
 70
0
 10
58.3575252555
 20
181.2758124697
 10
58.3285691002
 20
181.2541393564
 10
58.292568202
 20
181.223375376
 10
58.2584514402
 20
181.1896752597
 10
58.2263701706
 20
181.1531427877
 10
58.1964392036
 20
181.1138584382
 10
58.1687890543
 20
181.0719243299
 10
58.1435335002
 20
181.0274468216
 10
58.1207493977
 20
180.9804819101
 10
58.1005423226
 20
180.9311217536
 10
58.083012221
 20
180.8794612563
 10
58.0682379871
 20
180.8255310536
 10
58.0563254435
 20
180.7693948244
 10
58.0487324523
 20
180.7215141944
  0
LINE
  5
21D
100
AcDbEntity
  8
RACCORDO
100
AcDbLine
 62
7
  6
CONTINUOUS
 10
58.357505874
 20
181.275801826
 11
59.9656967997
 21
182.4097595304
  0
LINE
  5
21E
100
AcDbEntity
  8
RACCORDO
100
AcDbLine
 62
250
  6
CONTINUOUS
 10
58.9154844466
 20
181.2657230302
 11
60.4905635224
 21
182.3763331088
  0
LWPOLYLINE
  5
21F
100
AcDbEntity
  8
RACCORDO
100
AcDbPolyline
 62
250
  6
CONTINUOUS
 90
10
 70
0
 10
58.1372596377
 20
180.6042532678
 10
57.865713936
 20
178.5161345885
 10
57.6165115501
 20
176.4378448728
 10
57.3897053677
 20
174.3698020209
 10
57.1853458695
 20
172.3124244575
 10
57.0034739393
 20
170.2661236465
 10
56.8441212743
 20
168.2313041941
 10
56.7073197574
 20
166.2083735597
 10
56.5931010312
 20
164.1977417871
 10
56.5014896041
 20
162.1998141514
  0
LWPOLYLINE
  5
220
100
AcDbEntity
  8
RACCORDO
100
AcDbPolyline
 62
7
  6
CONTINUOUS
 90
10
 70
0
 10
58.0487292308
 20
180.7215139508
 10
57.7842661345
 20
178.6897664178
 10
57.5328556945
 20
176.5969321635
 10
57.3041484375
 20
174.5144152087
 10
57.0982014442
 20
172.4426979487
 10
56.915053241
 20
170.3821783128
 10
56.7547378464
 20
168.3332244348
 10
56.6172896679
 20
166.2962344969
 10
56.5027385923
 20
164.2716798664
 10
56.413597817
 20
162.32193747
  0
LWPOLYLINE
  5
221
100
AcDbEntity
  8
RACCORDO
100
AcDbPolyline
 62
250
  6
CONTINUOUS
 90
16
 70
0
 10
58.7179799402
 20
180.9515508359
 10
58.722231982
 20
180.9752525945
 10
58.7281037381
 20
180.9993687181
 10
58.735548676
 20
181.0237080645
 10
58.7445077937
 20
181.0480777212
 10
58.7549100875
 20
181.0722845334
 10
58.7666731141
 20
181.0961366348
 10
58.779703645
 20
181.1194449712
 10
58.7938984037
 20
181.1420247954
 10
58.8091448836
 20
181.163697131
 10
58.8253222435
 20
181.1842901971
 10
58.8423022621
 20
181.2036407653
 10
58.8599503516
 20
181.2215954507
 10
58.8781266305
 20
181.2380119357
 10
58.896687033
 20
181.2527600963
 10
58.9154844463
 20
181.2657230303
  0
LWPOLYLINE
  5
222
100
AcDbEntity
  8
RACCORDO
100
AcDbPolyline
 62
250
  6
CONTINUOUS
 90
12
 70
0
 10
56.5014895321
 20
162.199814193
 10
56.3845516325
 20
159.0425392843
 10
56.2888578039
 20
155.8976836305
 10
56.2144176948
 20
152.765470185
 10
56.1612390228
 20
149.6460820344
 10
56.129329186
 20
146.5397798926
 10
56.118692453
 20
143.4469005042
 10
56.1293291918
 20
140.3676623083
 10
56.1612390329
 20
137.302282321
 10
56.2144177071
 20
134.251090861
 10
56.2888578157
 20
131.2143395999
 10
56.3845516402
 20
128.1922032105
  0
LWPOLYLINE
  5
223
100
AcDbEntity
  8
RACCORDO
100
AcDbPolyline
 62
7
  6
CONTINUOUS
 90
13
 70
0
 10
56.4135978161
 20
162.3219375194
 10
56.2985674195
 20
159.2209714377
 10
56.2022046974
 20
156.0650921276
 10
56.1272434823
 20
152.9220272639
 10
56.0736912118
 20
149.7920270952
 10
56.0415508821
 20
146.6753106767
 10
56.0308244955
 20
143.5720849525
 10
56.0415136321
 20
140.4825653377
 10
56.0736174316
 20
137.406965675
 10
56.1271346126
 20
134.3454907563
 10
56.2020629013
 20
131.2983562152
 10
56.2983955825
 20
128.2658032314
 10
56.4136250684
 20
125.3067684536
  0
LWPOLYLINE
  5
224
100
AcDbEntity
  8
RACCORDO
100
AcDbPolyline
 62
250
  6
CONTINUOUS
 90
22
 70
0
 10
71.5250398668
 20
153.5254538245
 10
71.5500994409
 20
153.5612788302
 10
71.5771811603
 20
153.5943444044
 10
71.6062836757
 20
153.6246498421
 10
71.6375007802
 20
153.6522986369
 10
71.6707361964
 20
153.6771859992
 10
71.7057031754
 20
153.6989986486
 10
71.7424177191
 20
153.7176903152
 10
71.7808608716
 20
153.7333057355
 10
71.820692958
 20
153.7456678878
 10
71.8619307635
 20
153.7547354739
 10
71.9045546104
 20
153.7605482957
 10
71.948169897
 20
153.7630508626
 10
71.9927974572
 20
153.7621969403
 10
72.038413974
 20
153.7580314818
 10
72.0845585971
 20
153.7506357671
 10
72.1312394333
 20
153.7399588665
 10
72.1784465852
 20
153.7260507874
 10
72.2256923355
 20
153.7091442877
 10
72.2728138057
 20
153.6893167959
 10
72.3199729681
 20
153.6664904172
 10
72.3671695984
 20
153.6406650363
  0
LWPOLYLINE
  5
225
100
AcDbEntity
  8
RACCORDO
100
AcDbPolyline
 62
250
  6
CONTINUOUS
 90
8
 70
0
 10
72.1662635776
 20
153.3260740554
 10
72.1821206304
 20
153.3481792128
 10
72.1993296766
 20
153.3687259388
 10
72.2178585711
 20
153.3876466046
 10
72.2376847397
 20
153.4048861702
 10
72.2587559866
 20
153.4203743409
 10
72.2809864668
 20
153.4340331708
 10
72.3018152724
 20
153.4446657255
  0
LWPOLYLINE
  5
226
100
AcDbEntity
  8
RACCORDO
100
AcDbPolyline
 62
250
  6
CONTINUOUS
 90
9
 70
0
 10
56.5014896035
 20
125.1848934623
 10
56.5931010357
 20
123.3044422185
 10
56.7073197648
 20
121.4402682056
 10
56.844121279
 20
119.5927483945
 10
57.0034739266
 20
117.7622609898
 10
57.185345826
 20
115.949171927
 10
57.3897053016
 20
114.1538351025
 10
57.616511484
 20
112.3766100716
 10
57.8657138902
 20
110.6178616709
  0
LWPOLYLINE
  5
227
100
AcDbEntity
  8
RACCORDO
100
AcDbPolyline
 62
7
  6
CONTINUOUS
 90
10
 70
0
 10
56.4136250684
 20
125.3067685416
 10
56.5025107472
 20
123.4759540561
 10
56.6170479135
 20
121.5974640629
 10
56.754502987
 20
119.7357672563
 10
56.9148494865
 20
117.8912994708
 10
57.0980564849
 20
116.0644167421
 10
57.3040935889
 20
114.2554440449
 10
57.5329260231
 20
112.4647308718
 10
57.7845003461
 20
110.69268851
 10
58.0499544832
 20
108.9935556267
  0
LINE
  5
228
100
AcDbEntity
  8
RACCORDO
100
AcDbLine
 62
250
  6
CONTINUOUS
 10
56.3845516402
 20
128.1922032105
 11
56.5014895315
 21
125.1848935039
  0
LWPOLYLINE
  5
229
100
AcDbEntity
  8
0
100
AcDbPolyline
 62
250
  6
CONTINUOUS
 90
25
 70
0
 10
75.4231331265
 20
146.929703908
 10
75.436644073
 20
146.9387086055
 10
75.4499659072
 20
146.9485788576
 10
75.4630986293
 20
146.9593146642
 10
75.4760963055
 20
146.9709685801
 10
75.4889048696
 20
146.9834880505
 10
75.5013621224
 20
146.996715411
 10
75.5134615103
 20
147.0106575947
 10
75.5252095869
 20
147.0253076685
 10
75.5364638148
 20
147.0404871678
 10
75.5472183784
 20
147.056202895
 10
75.5574790932
 20
147.0724480478
 10
75.5671208676
 20
147.0890237553
 10
75.5761359021
 20
147.1059333188
 10
75.5845319961
 20
147.1231734369
 10
75.5922074568
 20
147.1405353344
 10
75.5991540923
 20
147.1580235173
 10
75.6053800945
 20
147.1756334796
 10
75.6108083471
 20
147.1931429278
 10
75.6154277989
 20
147.21054847
 10
75.6192495012
 20
147.2278534981
 10
75.6222294906
 20
147.2448458937
 10
75.6243531129
 20
147.2614549509
 10
75.6256350224
 20
147.2777513757
 10
75.626075219
 20
147.2937351681
  0
LWPOLYLINE
  5
22A
100
AcDbEntity
  8
0
100
AcDbPolyline
 62
7
  6
CONTINUOUS
 90
19
 70
0
 10
75.3868406641
 20
146.8412675143
 10
75.4077024173
 20
146.8551032161
 10
75.43559463
 20
146.8759771269
 10
75.4624261337
 20
146.8988073182
 10
75.4882074997
 20
146.9235306922
 10
75.5128649293
 20
146.9500247503
 10
75.5362267962
 20
146.9780667612
 10
75.5582400291
 20
147.0075449178
 10
75.5788376058
 20
147.038357061
 10
75.5978380776
 20
147.0702177715
 10
75.6151807777
 20
147.103006947
 10
75.6307914652
 20
147.1366137847
 10
75.6445229096
 20
147.170736999
 10
75.6563142394
 20
147.2052700639
 10
75.6661010506
 20
147.2401094945
 10
75.6737736906
 20
147.2749950081
 10
75.6792635846
 20
147.3098065718
 10
75.6825075021
 20
147.3445224653
 10
75.6834225324
 20
147.3746972707
  0
LWPOLYLINE
  5
22B
100
AcDbEntity
  8
0
100
AcDbPolyline
 62
250
  6
CONTINUOUS
 90
10
 70
0
 10
75.626075219
 20
149.1179838725
 10
75.6376882262
 20
149.1254271192
 10
75.6481402397
 20
149.1334235209
 10
75.6573525903
 20
149.1419128975
 10
75.6652559385
 20
149.1508313587
 10
75.6717907955
 20
149.1601117835
 10
75.676907972
 20
149.169684326
 10
75.6805689486
 20
149.1794769422
 10
75.6827461652
 20
149.1894159303
 10
75.6834251292
 20
149.1989222557
  0
LWPOLYLINE
  5
22C
100
AcDbEntity
  8
0
100
AcDbPolyline
 62
250
  6
CONTINUOUS
 90
10
 70
0
 10
75.626075219
 20
147.2937351681
 10
75.6376883519
 20
147.3011785037
 10
75.6481404489
 20
147.3091749938
 10
75.6573528441
 20
147.317664454
 10
75.6652562021
 20
147.32658299
 10
75.6717910395
 20
147.3358634779
 10
75.6769081731
 20
147.3454360696
 10
75.6805690895
 20
147.3552287188
 10
75.6827462356
 20
147.3651677227
 10
75.6834251292
 20
147.374674413
  0
LINE
  5
22D
100
AcDbEntity
  8
0
100
AcDbLine
 62
250
  6
CONTINUOUS
 10
75.2854290945
 20
149.4905256522
 11
74.1386934646
 21
148.8634022624
  0
LINE
  5
22E
100
AcDbEntity
  8
0
100
AcDbLine
 62
250
  6
CONTINUOUS
 10
75.4231331265
 20
149.2435363555
 11
74.1386934646
 21
148.541105792
  0
LINE
  5
22F
100
AcDbEntity
  8
RACCORDO
100
AcDbLine
 62
7
  6
CONTINUOUS
 10
72.3018152724
 20
153.4446657255
 11
72.3022896732
 21
153.4448855574
  0
LINE
  5
230
100
AcDbEntity
  8
0
100
AcDbLine
 62
250
  6
CONTINUOUS
 10
72.0873938197
 20
153.0549334241
 11
72.6214641481
 21
153.3018752915
  0
LWPOLYLINE
  5
231
100
AcDbEntity
  8
RACCORDO
100
AcDbPolyline
 62
250
  6
CONTINUOUS
 90
14
 70
0
 10
204.6194337086
 20
40.0595069277
 10
204.5975258275
 20
40.0535839552
 10
204.5746693476
 20
40.0496131877
 10
204.5509296648
 20
40.0476120432
 10
204.5263825727
 20
40.0475778632
 10
204.5010969677
 20
40.049512815
 10
204.4751540555
 20
40.0534127988
 10
204.4486576593
 20
40.0592414081
 10
204.4216873727
 20
40.0669749493
 10
204.3943286207
 20
40.0765835482
 10
204.366701053
 20
40.0879925024
 10
204.338901816
 20
40.1011371759
 10
204.3110022538
 20
40.1159760693
 10
204.2830841827
 20
40.1324518038
  0
LWPOLYLINE
  5
232
100
AcDbEntity
  8
RACCORDO
100
AcDbPolyline
 62
250
  6
CONTINUOUS
 90
8
 70
0
 10
58.7179799402
 20
108.070666499
 10
58.7222320408
 20
108.0518747376
 10
58.7281038751
 20
108.0345390669
 10
58.7355489024
 20
108.0187968913
 10
58.7445081127
 20
108.0047729847
 10
58.7549104944
 20
107.992578502
 10
58.7666735972
 20
107.9823100978
 10
58.7765793314
 20
107.975779754
  0
LWPOLYLINE
  5
233
100
AcDbEntity
  8
RACCORDO
100
AcDbPolyline
 62
250
  6
CONTINUOUS
 90
28
 70
0
 10
58.1372596377
 20
108.8779467315
 10
58.1431690304
 20
108.8466429992
 10
58.1506962516
 20
108.8147058755
 10
58.1598410705
 20
108.7821351812
 10
58.1706478022
 20
108.7488125755
 10
58.1830717244
 20
108.7148560832
 10
58.1969788401
 20
108.6806199074
 10
58.212387308
 20
108.6460970704
 10
58.2292781185
 20
108.6112938838
 10
58.2474611317
 20
108.5765841763
 10
58.2669452814
 20
108.5419774595
 10
58.2877204833
 20
108.5074633181
 10
58.3095677667
 20
108.4733854522
 10
58.3324950048
 20
108.4397500035
 10
58.3564930486
 20
108.4065498259
 10
58.381317197
 20
108.3741085322
 10
58.4069730913
 20
108.3424342604
 10
58.433453838
 20
108.3115178852
 10
58.460495831
 20
108.2816570424
 10
58.4881045035
 20
108.2528606224
 10
58.5162733363
 20
108.2251188774
 10
58.5447207747
 20
108.1987014709
 10
58.5734524715
 20
108.1736190334
 10
58.6024619747
 20
108.1498603029
 10
58.6314496206
 20
108.1276621411
 10
58.6603153755
 20
108.1071033868
 10
58.6891588505
 20
108.0881048672
 10
58.7179799402
 20
108.070666499
  0
LWPOLYLINE
  5
234
100
AcDbEntity
  8
RACCORDO
100
AcDbPolyline
 62
7
  6
CONTINUOUS
 90
26
 70
0
 10
58.049935499
 20
108.9936880184
 10
58.0548039208
 20
108.9663779121
 10
58.0652137434
 20
108.9187413946
 10
58.0780108745
 20
108.8709303644
 10
58.0931134991
 20
108.8229600858
 10
58.1104547498
 20
108.7748645697
 10
58.129968462
 20
108.7267002284
 10
58.1515878363
 20
108.6785485982
 10
58.1752243278
 20
108.6305539826
 10
58.2008068504
 20
108.5828094642
 10
58.2282656149
 20
108.53542027
 10
58.2574694632
 20
108.4885938799
 10
58.2883222465
 20
108.4424580517
 10
58.3207496684
 20
108.3971198275
 10
58.3546101261
 20
108.3527714085
 10
58.3898157456
 20
108.3095236738
 10
58.4262676568
 20
108.2675110394
 10
58.4637839723
 20
108.2269440372
 10
58.502265804
 20
108.1879355913
 10
58.5416207143
 20
108.1505948778
 10
58.5816832456
 20
108.115086947
 10
58.6223640196
 20
108.0815102515
 10
58.6635922963
 20
108.0499474842
 10
58.7052747907
 20
108.0205000099
 10
58.747362442
 20
107.9932477352
 10
58.7766562989
 20
107.9757387826
  0
LINE
  5
235
100
AcDbEntity
  8
RACCORDO
100
AcDbLine
 62
7
  6
CONTINUOUS
 10
58.0499569916
 20
108.9935560357
 11
58.049935499
 21
108.9936880184
  0
LINE
  5
236
100
AcDbEntity
  8
RACCORDO
100
AcDbLine
 62
250
  6
CONTINUOUS
 10
57.8657138902
 20
110.6178616709
 11
58.1372596377
 21
108.8779467315
  0
LWPOLYLINE
  5
237
100
AcDbEntity
  8
RACCORDO
100
AcDbPolyline
 62
250
  6
CONTINUOUS
 90
13
 70
0
 10
71.3997002491
 20
117.0464632577
 10
71.2765875189
 20
119.9838716229
 10
71.1758481572
 20
122.9339165819
 10
71.0974885667
 20
125.8964010619
 10
71.0415136161
 20
128.8711272027
 10
71.0079269761
 20
131.8578961077
 10
70.9967311176
 20
134.8565078562
 10
71.0079269755
 20
137.8667618255
 10
71.0415136151
 20
140.8884568301
 10
71.0974885654
 20
143.9213908706
 10
71.1758481559
 20
146.96536107
 10
71.2765875181
 20
150.0201636876
 10
71.3997002491
 20
153.0855942569
  0
LWPOLYLINE
  5
238
100
AcDbEntity
  8
RACCORDO
100
AcDbPolyline
 62
250
  6
CONTINUOUS
 90
13
 70
0
 10
72.0873944088
 20
117.0558079629
 10
71.9644030859
 20
119.9902919838
 10
71.8637719856
 20
122.9370023872
 10
71.7855011081
 20
125.8959391732
 10
71.7295882028
 20
128.8673017422
 10
71.6960355202
 20
131.8508906938
 10
71.6848498114
 20
134.8461078259
 10
71.6960356113
 20
137.8529564259
 10
71.7295883849
 20
140.8714332063
 10
71.785501278
 20
143.9009301029
 10
71.8637720058
 20
146.9412444272
 10
71.964402853
 20
149.9925788677
 10
72.0873938197
 20
153.0549334241
  0
LWPOLYLINE
  5
239
100
AcDbEntity
  8
RACCORDO
100
AcDbPolyline
 62
250
  6
CONTINUOUS
 90
22
 70
0
 10
72.3671695984
 20
115.4828031733
 10
72.3667161538
 20
115.513108979
 10
72.368245125
 20
115.5445128522
 10
72.3717479331
 20
115.5768386696
 10
72.3772049293
 20
115.609905137
 10
72.3845855055
 20
115.6435268084
 10
72.3938482658
 20
115.677515125
 10
72.4049412588
 20
115.7116794712
 10
72.417802269
 20
115.7458282454
 10
72.4323591663
 20
115.779769936
 10
72.4485303094
 20
115.8133141905
 10
72.4662250046
 20
115.8462728868
 10
72.4853440153
 20
115.8784611897
 10
72.5057801163
 20
115.9096985818
 10
72.527418696
 20
115.9398098793
 10
72.5501384022
 20
115.9686262173
 10
72.5738118173
 20
115.9959859899
 10
72.5983061755
 20
116.0217357602
 10
72.6234841107
 20
116.045731124
 10
72.6492044214
 20
116.0678375132
 10
72.6753228621
 20
116.0879309515
 10
72.7016929557
 20
116.1058987529
  0
LWPOLYLINE
  5
23A
100
AcDbEntity
  8
RACCORDO
100
AcDbPolyline
 62
250
  6
CONTINUOUS
 90
13
 70
0
 10
72.3671695984
 20
153.6406650363
 10
72.3667161504
 20
153.6098357821
 10
72.3682450966
 20
153.5801976696
 10
72.3717478624
 20
153.5519169157
 10
72.3772048035
 20
153.5251521249
 10
72.3845853162
 20
153.5000534
 10
72.393848009
 20
153.4767615
 10
72.4049409348
 20
153.455407051
 10
72.4178018819
 20
153.4361098134
 10
72.4323587235
 20
153.4189780101
 10
72.4485298216
 20
153.4041077201
 10
72.4662244851
 20
153.3915823392
 10
72.470106331
 20
153.3892674263
  0
LWPOLYLINE
  5
23B
100
AcDbEntity
  8
RACCORDO
100
AcDbPolyline
 62
250
  6
CONTINUOUS
 90
10
 70
0
 10
72.0873939841
 20
153.0549335
 10
72.0897114987
 20
153.0898760339
 10
72.0936820211
 20
153.1238384497
 10
72.099296738
 20
153.1567234208
 10
72.1065479034
 20
153.1884509007
 10
72.115414167
 20
153.2189143676
 10
72.1258543462
 20
153.2479871002
 10
72.1378302002
 20
153.2755789829
 10
72.1513128014
 20
153.3016306936
 10
72.1662635776
 20
153.3260740554
  0
LWPOLYLINE
  5
23C
100
AcDbEntity
  8
RACCORDO
100
AcDbPolyline
 62
250
  6
CONTINUOUS
 90
10
 70
0
 10
71.3997002491
 20
153.0855942569
 10
71.4035493374
 20
153.1426937829
 10
71.4099574412
 20
153.1978679271
 10
71.4189243876
 20
153.2511165984
 10
71.4305021933
 20
153.3026142667
 10
71.4446385509
 20
153.3521863082
 10
71.461176576
 20
153.3993088735
 10
71.4800636164
 20
153.4438071599
 10
71.5013515045
 20
153.4858555419
 10
71.5250398668
 20
153.5254538245
  0
LINE
  5
23D
100
AcDbEntity
  8
0
100
AcDbLine
 62
250
  6
CONTINUOUS
 10
74.1386934646
 20
146.1227797785
 11
75.4231331265
 21
146.929703908
  0
LINE
  5
23E
100
AcDbEntity
  8
0
100
AcDbLine
 62
7
  6
CONTINUOUS
 10
74.1386934646
 20
146.0571435634
 11
75.3868759535
 21
146.8412898322
  0
LINE
  5
23F
100
AcDbEntity
  8
0
100
AcDbLine
 62
7
  6
CONTINUOUS
 10
74.1386934646
 20
149.5269385407
 11
74.6811256365
 21
149.7978624432
  0
LINE
  5
240
100
AcDbEntity
  8
0
100
AcDbLine
 62
250
  6
CONTINUOUS
 10
74.1386934646
 20
149.4669590889
 11
74.775437796
 21
149.7849882695
  0
LWPOLYLINE
  5
241
100
AcDbEntity
  8
0
100
AcDbPolyline
 62
250
  6
CONTINUOUS
 90
13
 70
0
 10
74.7754376452
 20
149.7849883564
 10
74.7984531424
 20
149.7959847117
 10
74.8213304901
 20
149.8052482582
 10
74.8439778377
 20
149.8127374632
 10
74.8663096358
 20
149.8184177152
 10
74.8882300292
 20
149.8222616462
 10
74.9096340109
 20
149.8242524103
 10
74.9304317971
 20
149.824381187
 10
74.950544027
 20
149.8226469909
 10
74.9698855928
 20
149.8190588394
 10
74.9883790693
 20
149.813630418
 10
75.0059499257
 20
149.8063829783
 10
75.0180802854
 20
149.800002211
  0
LWPOLYLINE
  5
242
100
AcDbEntity
  8
0
100
AcDbPolyline
 62
250
  6
CONTINUOUS
 90
10
 70
0
 10
74.681175364
 20
149.7978872541
 10
74.6866504531
 20
149.8003152047
 10
74.6963493522
 20
149.8032917741
 10
74.7066116409
 20
149.8048674775
 10
74.7173593379
 20
149.8050303416
 10
74.7285107736
 20
149.8037791291
 10
74.7399812103
 20
149.8011233479
 10
74.7516834866
 20
149.7970831789
 10
74.763528679
 20
149.7916893228
 10
74.7754267781
 20
149.7849827665
  0
LWPOLYLINE
  5
243
100
AcDbEntity
  8
RACCORDO
100
AcDbPolyline
 62
7
  6
CONTINUOUS
 90
16
 70
0
 10
72.3009290071
 20
153.4443205626
 10
72.300681944
 20
153.4442371294
 10
72.3007978227
 20
153.4442471952
 10
72.302355467
 20
153.4445165883
 10
72.3061495766
 20
153.4448955087
 10
72.3125182383
 20
153.4450378307
 10
72.3213100767
 20
153.4445901322
 10
72.3325061633
 20
153.4432481982
 10
72.3460927039
 20
153.4407247927
 10
72.3618546267
 20
153.4368023252
 10
72.3794444971
 20
153.4313575911
 10
72.3986863403
 20
153.4242721179
 10
72.4193988783
 20
153.4154611225
 10
72.4412795859
 20
153.4049296626
 10
72.4641354778
 20
153.3926723813
 10
72.4701061523
 20
153.3892671164
  0
LWPOLYLINE
  5
244
100
AcDbEntity
  8
0
100
AcDbPolyline
 62
250
  6
CONTINUOUS
 90
25
 70
0
 10
75.626075219
 20
149.1179838725
 10
75.625635022
 20
149.1334503861
 10
75.6243531123
 20
149.1482404293
 10
75.62222949
 20
149.162354002
 10
75.6192495008
 20
149.17584459
 10
75.6154277991
 20
149.1886587075
 10
75.6108083475
 20
149.2006358974
 10
75.6053800948
 20
149.211766565
 10
75.5991540923
 20
149.222060305
 10
75.5922074567
 20
149.2313854443
 10
75.5845319959
 20
149.2397278502
 10
75.576135902
 20
149.2471016553
 10
75.5671208677
 20
149.2534175843
 10
75.5574790933
 20
149.2586631702
 10
75.5472183785
 20
149.26285088
 10
75.5364638148
 20
149.2659288387
 10
75.5252095869
 20
149.2678834103
 10
75.5134615102
 20
149.2687282309
 10
75.5013621224
 20
149.268452333
 10
75.4889048695
 20
149.2670410821
 10
75.4760963055
 20
149.2645091129
 10
75.4630986293
 20
149.2608893619
 10
75.4499659073
 20
149.2561928082
 10
75.436644073
 20
149.2504084727
 10
75.4231331265
 20
149.2435363555
  0
LWPOLYLINE
  5
245
100
AcDbEntity
  8
0
100
AcDbPolyline
 62
7
  6
CONTINUOUS
 90
15
 70
0
 10
75.6834225373
 20
149.1989222558
 10
75.682897351
 20
149.2213656327
 10
75.6804066024
 20
149.2519366257
 10
75.6759095457
 20
149.2814542357
 10
75.6694211284
 20
149.3099633486
 10
75.6609469513
 20
149.3374215339
 10
75.6505202028
 20
149.3637132069
 10
75.6381907612
 20
149.3887122008
 10
75.6240091617
 20
149.4123088344
 10
75.6080563279
 20
149.4343729175
 10
75.5904931007
 20
149.4547218685
 10
75.571480612
 20
149.473230899
 10
75.5511553351
 20
149.4898289259
 10
75.5297023323
 20
149.504433125
 10
75.5218187635
 20
149.5091467301
  0
LWPOLYLINE
  5
246
100
AcDbEntity
  8
0
100
AcDbPolyline
 62
250
  6
CONTINUOUS
 90
19
 70
0
 10
75.4231331265
 20
149.2435363555
 10
75.4230168015
 20
149.2583152984
 10
75.4218161287
 20
149.273597566
 10
75.4195402426
 20
149.2892668962
 10
75.4162064573
 20
149.305204082
 10
75.4118401351
 20
149.3212878789
 10
75.4064744933
 20
149.3373959268
 10
75.4001503521
 20
149.3534056814
 10
75.3929158232
 20
149.3691953459
 10
75.3848259445
 20
149.384644798
 10
75.375942261
 20
149.3996365036
 10
75.3663323566
 20
149.4140564111
 10
75.3560693403
 20
149.4277948186
 10
75.3452312894
 20
149.4407472092
 10
75.3339006562
 20
149.4528150455
 10
75.3221636401
 20
149.4639065196
 10
75.3101095325
 20
149.4739372514
 10
75.2978300366
 20
149.4828309306
 10
75.2854185708
 20
149.4905198971
  0
LINE
  5
247
100
AcDbEntity
  8
0
100
AcDbLine
 62
7
  6
CONTINUOUS
 10
74.1386934646
 20
118.2402188854
 11
74.1386934646
 21
152.4258460995
  0
LINE
  5
248
100
AcDbEntity
  8
0
100
AcDbLine
 62
7
  6
CONTINUOUS
 10
74.2472384885
 20
131.7844355268
 11
74.2472384885
 21
129.1489220933
  0
LINE
  5
249
100
AcDbEntity
  8
0
100
AcDbLine
 62
250
  6
CONTINUOUS
 10
75.626075219
 20
147.2937351681
 11
75.626075219
 21
149.1179838725
  0
LINE
  5
24A
100
AcDbEntity
  8
0
100
AcDbLine
 62
7
  6
CONTINUOUS
 10
75.6834251292
 20
147.374674413
 11
75.6834251292
 21
149.1989231125
  0
LWPOLYLINE
  5
24B
100
AcDbEntity
  8
0
100
AcDbPolyline
 62
250
  6
CONTINUOUS
 90
10
 70
0
 10
75.4231331265
 20
146.929703908
 10
75.4230168011
 20
146.9160416501
 10
75.4218161263
 20
146.9030990902
 10
75.4195402368
 20
146.8909746906
 10
75.4162064472
 20
146.8797606895
 10
75.41184012
 20
146.8695423991
 10
75.4064744731
 20
146.8603975564
 10
75.4001503271
 20
146.852395732
 10
75.392915794
 20
146.8455978005
 10
75.3868759535
 20
146.8412898322
  0
LINE
  5
24C
100
AcDbEntity
  8
0
100
AcDbLine
 62
7
  6
CONTINUOUS
 10
74.2473986092
 20
129.149022686
 11
74.1386934646
 21
129.0807308021
  0
LINE
  5
24D
100
AcDbEntity
  8
0
100
AcDbLine
 62
7
  6
CONTINUOUS
 10
74.2472384885
 20
131.7844355268
 11
74.1386934646
 21
131.7250747451
  0
LWPOLYLINE
  5
24E
100
AcDbEntity
  8
RACCORDO
100
AcDbPolyline
 62
250
  6
CONTINUOUS
 90
23
 70
0
 10
221.3170269761
 20
14.2074830988
 10
221.3424117238
 20
14.2013065347
 10
221.3669489578
 20
14.1971240812
 10
221.3906412856
 20
14.1949172915
 10
221.4132373362
 20
14.1947212368
 10
221.4347218167
 20
14.1965569773
 10
221.4551111051
 20
14.2004043094
 10
221.4742013164
 20
14.2062363934
 10
221.4919825924
 20
14.2140723387
 10
221.5084660438
 20
14.2238940234
 10
221.5234791366
 20
14.23561868
 10
221.5370094603
 20
14.2492661528
 10
221.5490707016
 20
14.2648176023
 10
221.5595292747
 20
14.2821320796
 10
221.5683700744
 20
14.3012304834
 10
221.5756093538
 20
14.3220928166
 10
221.5811602691
 20
14.3445165536
 10
221.5850040885
 20
14.3685263711
 10
221.5871604163
 20
14.3940982754
 10
221.5875995181
 20
14.4209564237
 10
221.5863115307
 20
14.4490089048
 10
221.5833067139
 20
14.4783479376
 10
221.5785852947
 20
14.5089736981
  0
LWPOLYLINE
  5
24F
100
AcDbEntity
  8
RACCORDO
100
AcDbPolyline
 62
250
  6
CONTINUOUS
 90
10
 70
0
 10
71.5250398668
 20
116.5104392469
 10
71.5013981396
 20
116.5721318434
 10
71.4801407906
 20
116.6334596884
 10
71.4612682066
 20
116.6944230266
 10
71.4447226914
 20
116.7552479289
 10
71.4305627912
 20
116.8157088619
 10
71.4189630319
 20
116.8751285215
 10
71.4099816019
 20
116.9332811472
 10
71.4035606145
 20
116.9903926884
 10
71.3997002491
 20
117.0464632577
  0
LWPOLYLINE
  5
250
100
AcDbEntity
  8
0
100
AcDbPolyline
 62
7
  6
CONTINUOUS
 90
15
 70
0
 10
86.5655708102
 20
112.0102197749
 10
86.5654737566
 20
112.0178642749
 10
86.5637145652
 20
112.0435021302
 10
86.5597078035
 20
112.0691797002
 10
86.5534301372
 20
112.0946967198
 10
86.5448734238
 20
112.1199011556
 10
86.5340617474
 20
112.1445966946
 10
86.5210676331
 20
112.1685572706
 10
86.5059579598
 20
112.1916490099
 10
86.4888003916
 20
112.2137719031
 10
86.4696789528
 20
112.2348176099
 10
86.4486768914
 20
112.2546970726
 10
86.4258271084
 20
112.273384529
 10
86.4010832178
 20
112.2908922709
 10
86.3777140194
 20
112.3052969143
  0
LINE
  5
251
100
AcDbEntity
  8
0
100
AcDbLine
 62
250
  6
CONTINUOUS
 10
86.4312606672
 20
111.8147978521
 11
86.4312504284
 21
111.2259227933
  0
LINE
  5
252
100
AcDbEntity
  8
0
100
AcDbLine
 62
7
  6
CONTINUOUS
 10
86.5655735776
 20
112.0102433736
 11
86.5655735776
 21
111.4285609585
  0
LWPOLYLINE
  5
253
100
AcDbEntity
  8
0
100
AcDbPolyline
 62
250
  6
CONTINUOUS
 90
10
 70
0
 10
86.4312504284
 20
111.2259227933
 10
86.431108993
 20
111.2122660915
 10
86.4298571325
 20
111.199311631
 10
86.4275043617
 20
111.1871578502
 10
86.4240685607
 20
111.175897102
 10
86.4195758401
 20
111.1656149552
 10
86.4140603432
 20
111.1563895436
 10
86.4075639845
 20
111.1482909669
 10
86.4001361313
 20
111.141380762
 10
86.3952946216
 20
111.1378531612
  0
LWPOLYLINE
  5
254
100
AcDbEntity
  8
RACCORDO
100
AcDbPolyline
 62
250
  6
CONTINUOUS
 90
10
 70
0
 10
72.1662635776
 20
116.7273115925
 10
72.1513364947
 20
116.7649020356
 10
72.1378657166
 20
116.8024865465
 10
72.1258920227
 20
116.8399572443
 10
72.1154444826
 20
116.8772290548
 10
72.1065666164
 20
116.9141703673
 10
72.0993068451
 20
116.9506067028
 10
72.0936874511
 20
116.9864135531
 10
72.0897139648
 20
117.0215133064
 10
72.0873948527
 20
117.0558082185
  0
LINE
  5
255
100
AcDbEntity
  8
0
100
AcDbLine
 62
250
  6
CONTINUOUS
 10
72.0873944088
 20
117.0558079629
 11
74.1386934646
 21
118.2402188854
  0
LINE
  5
256
100
AcDbEntity
  8
0
100
AcDbLine
 62
250
  6
CONTINUOUS
 10
72.7016838338
 20
116.1059040198
 11
74.7036036373
 21
117.2617657655
  0
LWPOLYLINE
  5
257
100
AcDbEntity
  8
RACCORDO
100
AcDbPolyline
 62
250
  6
CONTINUOUS
 90
22
 70
0
 10
171.9342055687
 20
58.535448757
 10
171.9572526457
 20
58.5362591813
 10
171.9820362068
 20
58.5382461543
 10
172.0084258623
 20
58.5413992222
 10
172.0362827724
 20
58.5457017962
 10
172.0654603779
 20
58.5511312401
 10
172.0958051712
 20
58.5576589886
 10
172.127157504
 20
58.5652506984
 10
172.1593524273
 20
58.5738664284
 10
172.192220559
 20
58.58346085
 10
172.2255889751
 20
58.5939834856
 10
172.2592821196
 20
58.6053789742
 10
172.293122728
 20
58.6175873624
 10
172.3269327602
 20
58.6305444202
 10
172.3605343367
 20
58.6441819786
 10
172.3937506747
 20
58.6584282886
 10
172.4264070185
 20
58.6732083982
 10
172.4583315582
 20
58.6884445473
 10
172.4893563344
 20
58.7040565762
 10
172.5193181213
 20
58.719962348
 10
172.5480592856
 20
58.7360781799
 10
172.5754286159
 20
58.7523192844
  0
LWPOLYLINE
  5
258
100
AcDbEntity
  8
0
100
AcDbPolyline
 62
250
  6
CONTINUOUS
 90
10
 70
0
 10
86.3602193209
 20
112.210060591
 10
86.3556162291
 20
112.2207401658
 10
86.3498139962
 20
112.2312799397
 10
86.342888104
 20
112.2415472785
 10
86.3348247181
 20
112.2515374082
 10
86.3256376728
 20
112.2612551027
 10
86.315443953
 20
112.2705820488
 10
86.3042825534
 20
112.2794788089
 10
86.2921144792
 20
112.2879848206
 10
86.2789397304
 20
112.296100084
  0
LWPOLYLINE
  5
259
100
AcDbEntity
  8
RACCORDO
100
AcDbPolyline
 62
7
  6
CONTINUOUS
 90
9
 70
0
 10
104.2663414282
 20
98.1883681621
 10
104.2669074303
 20
98.1625077704
 10
104.2664250686
 20
98.1380541747
 10
104.2650497521
 20
98.1165962167
 10
104.2630286705
 20
98.0982341867
 10
104.2605820896
 20
98.0827425771
 10
104.2578693431
 20
98.069751631
 10
104.2550782283
 20
98.0591881855
 10
104.2545327379
 20
98.0573780567
  0
LWPOLYLINE
  5
25A
100
AcDbEntity
  8
RACCORDO
100
AcDbPolyline
 62
250
  6
CONTINUOUS
 90
10
 70
0
 10
104.412787014
 20
97.9851207107
 10
104.4137539357
 20
97.9307961653
 10
104.4121398216
 20
97.8783862248
 10
104.4079444981
 20
97.8278907806
 10
104.4011323401
 20
97.7791455023
 10
104.3917386801
 20
97.7323145369
 10
104.3798695556
 20
97.6878903492
 10
104.3655599553
 20
97.6460368677
 10
104.3487740709
 20
97.6065896454
 10
104.3295115286
 20
97.5695484459
  0
LWPOLYLINE
  5
25B
100
AcDbEntity
  8
RACCORDO
100
AcDbPolyline
 62
250
  6
CONTINUOUS
 90
22
 70
0
 10
103.5393793264
 20
97.4843599559
 10
103.5389258783
 20
97.5146655797
 10
103.5404548245
 20
97.5460692809
 10
103.5439575903
 20
97.578394941
 10
103.5494145315
 20
97.6114612706
 10
103.5567950442
 20
97.6450828266
 10
103.566057737
 20
97.6790710521
 10
103.5771506627
 20
97.7132353337
 10
103.5900116099
 20
97.7473840707
 10
103.6045684514
 20
97.7813257497
 10
103.6207395495
 20
97.8148700185
 10
103.6384342131
 20
97.8478287534
 10
103.6575532067
 20
97.8800171147
 10
103.6779893068
 20
97.9112545833
 10
103.6996279034
 20
97.9413659726
 10
103.7223476426
 20
97.9701824114
 10
103.7460211071
 20
97.997542291
 10
103.7705155311
 20
98.0232921711
 10
103.7956935445
 20
98.047287641
 10
103.8214139436
 20
98.0693941288
 10
103.8475324828
 20
98.0894876566
 10
103.8739026837
 20
98.1074555355
  0
LINE
  5
25C
100
AcDbEntity
  8
0
100
AcDbLine
 62
7
  6
CONTINUOUS
 10
102.3976527414
 20
101.3974339686
 11
102.3976527414
 21
101.2715689007
  0
LWPOLYLINE
  5
25D
100
AcDbEntity
  8
RACCORDO
100
AcDbPolyline
 62
250
  6
CONTINUOUS
 90
13
 70
0
 10
103.5393793264
 20
135.6422218189
 10
103.5389258813
 20
135.6113923865
 10
103.5404548521
 20
135.5817541306
 10
103.5439576598
 20
135.5534732681
 10
103.5494146557
 20
135.5267084029
 10
103.5567952315
 20
135.5016096357
 10
103.5660579916
 20
135.4783177224
 10
103.5771509844
 20
135.4569632864
 10
103.5900119944
 20
135.4376660842
 10
103.6045688916
 20
135.4205343337
 10
103.6207400347
 20
135.4056641099
 10
103.6384347298
 20
135.393138804
 10
103.6423941571
 20
135.3907790878
  0
LWPOLYLINE
  5
25E
100
AcDbEntity
  8
RACCORDO
100
AcDbPolyline
 62
7
  6
CONTINUOUS
 90
12
 70
0
 10
104.1573102844
 20
131.2119065856
 10
104.0659491528
 20
128.14054729
 10
103.9948786423
 20
125.0813436128
 10
103.9441056565
 20
122.034526372
 10
103.9136331033
 20
119.0002975597
 10
103.9034630019
 20
115.9788479059
 10
103.9135970073
 20
112.9703760621
 10
103.9440345832
 20
109.9750793723
 10
103.9947748092
 20
106.9931467763
 10
104.0658159071
 20
104.0247770892
 10
104.1571521041
 20
101.0701927897
 10
104.266342199
 20
98.1883684327
  0
LWPOLYLINE
  5
25F
100
AcDbEntity
  8
RACCORDO
100
AcDbPolyline
 62
250
  6
CONTINUOUS
 90
13
 70
0
 10
104.412787014
 20
134.02425171
 10
104.3019236938
 20
130.9517485073
 10
104.2112067594
 20
127.8911590837
 10
104.1406426136
 20
124.8426879058
 10
104.0902363486
 20
121.8065385849
 10
104.0599914116
 20
118.7829141275
 10
104.0499096032
 20
115.7720169209
 10
104.0599914112
 20
112.7740484091
 10
104.0902363478
 20
109.7892089565
 10
104.1406426126
 20
106.8176980958
 10
104.2112067584
 20
103.8597145943
 10
104.3019236931
 20
100.9154564417
 10
104.412787014
 20
97.9851207107
  0
LWPOLYLINE
  5
260
100
AcDbEntity
  8
RACCORDO
100
AcDbPolyline
 62
7
  6
CONTINUOUS
 90
5
 70
0
 10
104.2545327379
 20
98.0573780567
 10
104.2524683629
 20
98.0511716127
 10
104.2503713794
 20
98.0458493849
 10
104.2491799099
 20
98.0432967523
 10
104.2490366319
 20
98.0430111147
  0
LWPOLYLINE
  5
261
100
AcDbEntity
  8
0
100
AcDbPolyline
 62
250
  6
CONTINUOUS
 90
12
 70
0
 10
86.4312504284
 20
111.2259227933
 10
86.4522779778
 20
111.2403551913
 10
86.4717313418
 20
111.2555300694
 10
86.4895300238
 20
111.2713881483
 10
86.5055987218
 20
111.2878677546
 10
86.5198724361
 20
111.3049034838
 10
86.5322949703
 20
111.3224269746
 10
86.5428153877
 20
111.340374408
 10
86.5513837065
 20
111.3586699755
 10
86.5579585032
 20
111.3772243201
 10
86.5625124808
 20
111.3959588616
 10
86.56502903
 20
111.4148027587
  0
LWPOLYLINE
  5
262
100
AcDbEntity
  8
0
100
AcDbPolyline
 62
7
  6
CONTINUOUS
 90
15
 70
0
 10
86.395293274
 20
111.1378551994
 10
86.4049265023
 20
111.1443947856
 10
86.4289218783
 20
111.1623306606
 10
86.4509214786
 20
111.1812167796
 10
86.4709128996
 20
111.2009301073
 10
86.4889390775
 20
111.2214062305
 10
86.5050672079
 20
111.2426298125
 10
86.5192814635
 20
111.2644918459
 10
86.5315777297
 20
111.2868933956
 10
86.5419891105
 20
111.3098175362
 10
86.5504940265
 20
111.3331312269
 10
86.5570938241
 20
111.3567221196
 10
86.5618133841
 20
111.3805905021
 10
86.5646378084
 20
111.4046034954
 10
86.5655713224
 20
111.428502311
  0
LINE
  5
263
100
AcDbEntity
  8
0
100
AcDbLine
 62
250
  6
CONTINUOUS
 10
85.8372673342
 20
110.8333278845
 11
86.4312504284
 21
111.2259227933
  0
LINE
  5
264
100
AcDbEntity
  8
0
100
AcDbLine
 62
7
  6
CONTINUOUS
 10
85.8891953394
 20
110.8033453051
 11
86.3952588615
 21
111.1378295088
  0
LWPOLYLINE
  5
265
100
AcDbEntity
  8
0
100
AcDbPolyline
 62
250
  6
CONTINUOUS
 90
13
 70
0
 10
86.431260667
 20
111.8147978955
 10
86.4522883175
 20
111.828545175
 10
86.4717467222
 20
111.8430486857
 10
86.4895539827
 20
111.8582496801
 10
86.5056373192
 20
111.8740885984
 10
86.5199251096
 20
111.8904989438
 10
86.5323502814
 20
111.9074066484
 10
86.5428602572
 20
111.9247387741
 10
86.5514144442
 20
111.9424267277
 10
86.5579780534
 20
111.9603995991
 10
86.562524147
 20
111.9785838067
 10
86.5650337725
 20
111.9969038879
 10
86.5655735745
 20
112.0102113467
  0
LWPOLYLINE
  5
266
100
AcDbEntity
  8
0
100
AcDbPolyline
 62
250
  6
CONTINUOUS
 90
16
 70
0
 10
86.2862138065
 20
112.0575474827
 10
86.2989202351
 20
112.0658130657
 10
86.3105900399
 20
112.0744588
 10
86.3212232211
 20
112.0834846856
 10
86.3308563174
 20
112.0929320601
 10
86.3394527899
 20
112.1027595858
 10
86.3469030223
 20
112.1128432505
 10
86.3531910635
 20
112.1231846961
 10
86.3583328644
 20
112.1337822807
 10
86.3622666616
 20
112.1445070668
 10
86.3649777383
 20
112.1553608361
 10
86.3664808113
 20
112.166341807
 10
86.3667582673
 20
112.1773156963
 10
86.3657954102
 20
112.1882819825
 10
86.3636069361
 20
112.1992411872
 10
86.3602193209
 20
112.210060591
  0
LINE
  5
267
100
AcDbEntity
  8
0
100
AcDbLine
 62
250
  6
CONTINUOUS
 10
85.0355498543
 20
111.2962295095
 11
86.2862138065
 21
112.0575474827
  0
LINE
  5
268
100
AcDbEntity
  8
0
100
AcDbLine
 62
250
  6
CONTINUOUS
 10
85.3146485737
 20
111.1350814068
 11
86.4312606672
 21
111.8147978521
  0
LINE
  5
269
100
AcDbEntity
  8
0
100
AcDbLine
 62
7
  6
CONTINUOUS
 10
84.187600161
 20
113.2273857401
 11
82.8842863864
 21
112.5383420742
  0
LINE
  5
26A
100
AcDbEntity
  8
0
100
AcDbLine
 62
250
  6
CONTINUOUS
 10
84.2823115694
 20
113.2145755196
 11
82.9411386803
 21
112.5055162722
  0
LWPOLYLINE
  5
26B
100
AcDbEntity
  8
0
100
AcDbPolyline
 62
250
  6
CONTINUOUS
 90
10
 70
0
 10
84.6990431118
 20
113.2083125908
 10
84.7112952427
 20
113.214648845
 10
84.7234458918
 20
113.2197031251
 10
84.7354036107
 20
113.223437386
 10
84.7470784023
 20
113.2258235169
 10
84.7583823977
 20
113.226843553
 10
84.7692305177
 20
113.2264898112
 10
84.7795411145
 20
113.2247649479
 10
84.7892365847
 20
113.2216819391
 10
84.7978138297
 20
113.2175144771
  0
LWPOLYLINE
  5
26C
100
AcDbEntity
  8
0
100
AcDbPolyline
 62
250
  6
CONTINUOUS
 90
10
 70
0
 10
86.2789397304
 20
112.296100084
 10
86.2911919993
 20
112.3024364035
 10
86.3033427652
 20
112.3074907128
 10
86.3153005774
 20
112.3112249714
 10
86.3269754375
 20
112.313611074
 10
86.3382794767
 20
112.3146310622
 10
86.3491276171
 20
112.314277259
 10
86.3594382119
 20
112.3125523274
 10
86.3691336602
 20
112.3094692497
 10
86.377710444
 20
112.3053019727
  0
LWPOLYLINE
  5
26D
100
AcDbEntity
  8
RACCORDO
100
AcDbPolyline
 62
250
  6
CONTINUOUS
 90
14
 70
0
 10
154.4148522444
 20
69.0470030539
 10
154.3929443633
 20
69.0410800815
 10
154.3700878833
 20
69.037109314
 10
154.3463482005
 20
69.0351081694
 10
154.3218011084
 20
69.0350739895
 10
154.2965155034
 20
69.0370089413
 10
154.2705725913
 20
69.040908925
 10
154.2440761951
 20
69.0467375344
 10
154.2171059084
 20
69.0544710756
 10
154.1897471565
 20
69.0640796745
 10
154.1621195888
 20
69.0754886286
 10
154.1343203517
 20
69.0886333022
 10
154.1064207896
 20
69.1034721956
 10
154.0785027185
 20
69.1199479301
  0
LWPOLYLINE
  5
26E
100
AcDbEntity
  8
RACCORDO
100
AcDbPolyline
 62
250
  6
CONTINUOUS
 90
19
 70
0
 10
221.5785853426
 20
14.5089737358
 10
221.597181775
 20
14.4994040607
 10
221.6171321975
 20
14.4910699937
 10
221.6382945679
 20
14.4840308712
 10
221.6605182153
 20
14.4783368101
 10
221.6836449126
 20
14.4740283508
 10
221.7075100034
 20
14.4711361685
 10
221.731943574
 20
14.4696808547
 10
221.7567716633
 20
14.469672771
 10
221.7818175013
 20
14.471111975
 10
221.8069027677
 20
14.4739882197
 10
221.8318488614
 20
14.4782810272
 10
221.8564781723
 20
14.4839598336
 10
221.8806153457
 20
14.4909842071
 10
221.9040885307
 20
14.499304136
 10
221.9267306039
 20
14.5088603844
 10
221.9483803592
 20
14.5195849141
 10
221.9688836556
 20
14.531401369
 10
221.9880945147
 20
14.5442256188
  0
LWPOLYLINE
  5
26F
100
AcDbEntity
  8
RACCORDO
100
AcDbPolyline
 62
250
  6
CONTINUOUS
 90
6
 70
0
 10
221.180254286
 20
14.2669854223
 10
221.208750481
 20
14.2513302932
 10
221.2366584845
 20
14.2375584578
 10
221.2639784015
 20
14.225669999
 10
221.2907965217
 20
14.2156346943
 10
221.3170269761
 20
14.2074830988
  0
LWPOLYLINE
  5
270
100
AcDbEntity
  8
RACCORDO
100
AcDbPolyline
 62
7
  6
CONTINUOUS
 90
16
 70
0
 10
221.2387974867
 20
14.1721344368
 10
221.2689322334
 20
14.1553654359
 10
221.3132313333
 20
14.1330362288
 10
221.3571954893
 20
14.1136433689
 10
221.4008099817
 20
14.0971807126
 10
221.4440484627
 20
14.0836618589
 10
221.486911964
 20
14.0730915337
 10
221.5294051572
 20
14.0654882079
 10
221.5714920932
 20
14.0608956308
 10
221.6131854645
 20
14.0593579735
 10
221.654344486
 20
14.0609310513
 10
221.6946290927
 20
14.065630364
 10
221.7339163952
 20
14.0734488594
 10
221.7720231283
 20
14.0843482374
 10
221.8084669574
 20
14.0981416351
 10
221.8209937604
 20
14.1037143899
  0
LINE
  5
271
100
AcDbEntity
  8
RACCORDO
100
AcDbLine
 62
7
  6
CONTINUOUS
 10
58.7765793314
 20
107.975779754
 11
221.2388537197
 21
14.1720986527
  0
LINE
  5
272
100
AcDbEntity
  8
RACCORDO
100
AcDbLine
 62
250
  6
CONTINUOUS
 10
58.7179799402
 20
108.070666499
 11
221.180254286
 21
14.2669854223
  0
LINE
  5
273
100
AcDbEntity
  8
RACCORDO
100
AcDbLine
 62
7
  6
CONTINUOUS
 10
221.2387960619
 20
14.1721319692
 11
221.2388537197
 21
14.1720986527
  0
LWPOLYLINE
  5
274
100
AcDbEntity
  8
RACCORDO
100
AcDbPolyline
 62
250
  6
CONTINUOUS
 90
10
 70
0
 10
58.1372596638
 20
108.8779467521
 10
58.1200910672
 20
108.8890276241
 10
58.1045310937
 20
108.901197051
 10
58.0906905248
 20
108.9143683907
 10
58.0786679006
 20
108.9284478677
 10
58.0685488182
 20
108.9433352412
 10
58.0604053218
 20
108.9589245181
 10
58.0542953903
 20
108.9751047082
 10
58.0502625244
 20
108.9917606141
 10
58.0499569916
 20
108.9935560357
  0
LINE
  5
275
100
AcDbEntity
  8
RACCORDO
100
AcDbLine
 62
7
  6
CONTINUOUS
 10
104.2489422404
 20
98.0428465273
 11
104.24903673
 21
98.0430110584
  0
LWPOLYLINE
  5
276
100
AcDbEntity
  8
RACCORDO
100
AcDbPolyline
 62
250
  6
CONTINUOUS
 90
22
 70
0
 10
104.3295115286
 20
97.5695484459
 10
104.3086486216
 20
97.5361465433
 10
104.2856571674
 20
97.505442637
 10
104.260535817
 20
97.477435874
 10
104.2332017326
 20
97.4520290863
 10
104.2037352676
 20
97.4293178692
 10
104.1723795653
 20
97.4095903257
 10
104.1391125449
 20
97.3928892158
 10
104.1039533331
 20
97.3791699016
 10
104.0672063944
 20
97.3685890749
 10
104.0288493261
 20
97.3611847903
 10
103.9889016382
 20
97.3569171491
 10
103.947730433
 20
97.3558257641
 10
103.905309365
 20
97.3579536874
 10
103.8616622964
 20
97.3632562805
 10
103.8172316181
 20
97.3716416054
 10
103.7720032554
 20
97.3831571461
 10
103.7259894923
 20
97.3977542729
 10
103.6796723972
 20
97.4151969666
 10
103.6332123533
 20
97.4354063578
 10
103.5864480712
 20
97.4584607354
 10
103.5393793264
 20
97.4843599559
  0
LWPOLYLINE
  5
277
100
AcDbEntity
  8
RACCORDO
100
AcDbPolyline
 62
250
  6
CONTINUOUS
 90
22
 70
0
 10
121.7296213311
 20
124.5379576983
 10
121.7546809052
 20
124.5737827039
 10
121.7817626245
 20
124.6068482781
 10
121.81086514
 20
124.6371537159
 10
121.8420822444
 20
124.6648025107
 10
121.8753176606
 20
124.6896898729
 10
121.9102846396
 20
124.7115025224
 10
121.9469991833
 20
124.7301941889
 10
121.9854423358
 20
124.7458096092
 10
122.0252744222
 20
124.7581717615
 10
122.0665122278
 20
124.7672393477
 10
122.1091360746
 20
124.7730521694
 10
122.1527513613
 20
124.7755547363
 10
122.1973789215
 20
124.774700814
 10
122.2429954383
 20
124.7705353556
 10
122.2891400613
 20
124.7631396409
 10
122.3358208975
 20
124.7524627402
 10
122.3830280494
 20
124.7385546611
 10
122.4302737997
 20
124.7216481614
 10
122.4773952699
 20
124.7018206696
 10
122.5245544324
 20
124.6789942909
 10
122.5717510627
 20
124.65316891
  0
LWPOLYLINE
  5
278
100
AcDbEntity
  8
RACCORDO
100
AcDbPolyline
 62
250
  6
CONTINUOUS
 90
8
 70
0
 10
122.3708450419
 20
124.3385779292
 10
122.3867020946
 20
124.3606830865
 10
122.4039111408
 20
124.3812298125
 10
122.4224400354
 20
124.4001504783
 10
122.4422662039
 20
124.4173900439
 10
122.4633374508
 20
124.4328782147
 10
122.4855679311
 20
124.4465370446
 10
122.5063967367
 20
124.4571695992
  0
LWPOLYLINE
  5
279
100
AcDbEntity
  8
0
100
AcDbPolyline
 62
250
  6
CONTINUOUS
 90
10
 70
0
 10
125.8306566833
 20
120.1304877463
 10
125.8422696905
 20
120.1379309929
 10
125.852721704
 20
120.1459273946
 10
125.8619340545
 20
120.1544167713
 10
125.8698374027
 20
120.1633352324
 10
125.8763722598
 20
120.1726156572
 10
125.8814894363
 20
120.1821881998
 10
125.8851504129
 20
120.1919808159
 10
125.8873276295
 20
120.2019198041
 10
125.8880065934
 20
120.2114261295
  0
LINE
  5
27A
100
AcDbEntity
  8
0
100
AcDbLine
 62
250
  6
CONTINUOUS
 10
125.4900105587
 20
120.503029526
 11
124.3432749288
 21
119.8759061362
  0
LINE
  5
27B
100
AcDbEntity
  8
0
100
AcDbLine
 62
250
  6
CONTINUOUS
 10
125.6277145908
 20
120.2560402293
 11
124.3432749288
 21
119.5536096657
  0
LINE
  5
27C
100
AcDbEntity
  8
0
100
AcDbLine
 62
7
  6
CONTINUOUS
 10
124.8857071
 20
120.8103663165
 11
124.3432749288
 21
120.5394424144
  0
LINE
  5
27D
100
AcDbEntity
  8
0
100
AcDbLine
 62
250
  6
CONTINUOUS
 10
124.9800082424
 20
120.7974866402
 11
124.3432749288
 21
120.4794629626
  0
LINE
  5
27E
100
AcDbEntity
  8
RACCORDO
100
AcDbLine
 62
7
  6
CONTINUOUS
 10
122.5063967367
 20
124.4571695992
 11
122.5068711374
 21
124.4573894311
  0
LINE
  5
27F
100
AcDbEntity
  8
0
100
AcDbLine
 62
250
  6
CONTINUOUS
 10
122.2919752839
 20
124.0674372978
 11
122.8260456123
 21
124.3143791652
  0
LWPOLYLINE
  5
280
100
AcDbEntity
  8
RACCORDO
100
AcDbPolyline
 62
7
  6
CONTINUOUS
 90
16
 70
0
 10
122.5055104713
 20
124.4568244363
 10
122.5052634083
 20
124.4567410031
 10
122.5053792869
 20
124.4567510689
 10
122.5069369313
 20
124.457020462
 10
122.5107310408
 20
124.4573993824
 10
122.5170997025
 20
124.4575417045
 10
122.525891541
 20
124.4570940059
 10
122.5370876276
 20
124.455752072
 10
122.5506741682
 20
124.4532286664
 10
122.566436091
 20
124.4493061989
 10
122.5840259614
 20
124.4438614648
 10
122.6032678046
 20
124.4367759917
 10
122.6239803426
 20
124.4279649963
 10
122.6458610501
 20
124.4174335364
 10
122.668716942
 20
124.405176255
 10
122.6746876165
 20
124.4017709901
  0
LWPOLYLINE
  5
281
100
AcDbEntity
  8
RACCORDO
100
AcDbPolyline
 62
250
  6
CONTINUOUS
 90
11
 70
0
 10
204.738677476
 20
76.6095723385
 10
204.7162922406
 20
76.6091440579
 10
204.6958824753
 20
76.6096824652
 10
204.677555559
 20
76.6111847278
 10
204.6614079123
 20
76.6136429421
 10
204.6475244903
 20
76.6170441751
 10
204.6359783359
 20
76.6213705322
 10
204.626830195
 20
76.626599252
 10
204.6201281974
 20
76.6327028252
 10
204.6159076034
 20
76.6396491402
 10
204.6152940574
 20
76.6413509332
  0
LWPOLYLINE
  5
282
100
AcDbEntity
  8
RACCORDO
100
AcDbPolyline
 62
250
  6
CONTINUOUS
 90
18
 70
0
 10
104.3295137752
 20
97.569549874
 10
104.3071286543
 20
97.5965923504
 10
104.2867190041
 20
97.6246733811
 10
104.2683922023
 20
97.6536452281
 10
104.2522446685
 20
97.683355467
 10
104.2383613568
 20
97.7136477886
 10
104.2268153092
 20
97.744362821
 10
104.2176672709
 20
97.7753389688
 10
104.2109653707
 20
97.8064132625
 10
104.2067448684
 20
97.8374222164
 10
104.2050279684
 20
97.8682026884
 10
104.2058237036
 20
97.8985927388
 10
104.2091278876
 20
97.9284324816
 10
104.2149231365
 20
97.9575649262
 10
104.223178961
 20
97.9858368031
 10
104.233851926
 20
98.0130993706
 10
104.2468858798
 20
98.0392091969
 10
104.2489422404
 20
98.0428465273
  0
LWPOLYLINE
  5
283
100
AcDbEntity
  8
RACCORDO
100
AcDbPolyline
 62
250
  6
CONTINUOUS
 90
13
 70
0
 10
121.6042817133
 20
88.0589671314
 10
121.4811689831
 20
90.9963754966
 10
121.3804296214
 20
93.9464204556
 10
121.3020700309
 20
96.9089049356
 10
121.2460950803
 20
99.8836310764
 10
121.2125084403
 20
102.8703999814
 10
121.2013125818
 20
105.8690117299
 10
121.2125084398
 20
108.8792656992
 10
121.2460950793
 20
111.9009607038
 10
121.3020700296
 20
114.9338947443
 10
121.3804296202
 20
117.9778649437
 10
121.4811689823
 20
121.0326675614
 10
121.6042817133
 20
124.0980981306
  0
LWPOLYLINE
  5
284
100
AcDbEntity
  8
RACCORDO
100
AcDbPolyline
 62
250
  6
CONTINUOUS
 90
13
 70
0
 10
122.2919758731
 20
88.0683118366
 10
122.1689845501
 20
91.0027958575
 10
122.0683534499
 20
93.949506261
 10
121.9900825723
 20
96.9084430469
 10
121.9341696671
 20
99.879805616
 10
121.9006169845
 20
102.8633945675
 10
121.8894312756
 20
105.8586116996
 10
121.9006170756
 20
108.8654602996
 10
121.9341698492
 20
111.8839370801
 10
121.9900827423
 20
114.9134339766
 10
122.06835347
 20
117.953748301
 10
122.1689843173
 20
121.0050827414
 10
122.2919752839
 20
124.0674372978
  0
LWPOLYLINE
  5
285
100
AcDbEntity
  8
RACCORDO
100
AcDbPolyline
 62
250
  6
CONTINUOUS
 90
22
 70
0
 10
122.5717510627
 20
86.4953070471
 10
122.571297618
 20
86.5256128527
 10
122.5728265892
 20
86.557016726
 10
122.5763293973
 20
86.5893425433
 10
122.5817863935
 20
86.6224090108
 10
122.5891669697
 20
86.6560306821
 10
122.5984297301
 20
86.6900189987
 10
122.6095227231
 20
86.7241833449
 10
122.6223837332
 20
86.7583321191
 10
122.6369406305
 20
86.7922738097
 10
122.6531117737
 20
86.8258180643
 10
122.6708064688
 20
86.8587767605
 10
122.6899254796
 20
86.8909650635
 10
122.7103615805
 20
86.9222024555
 10
122.7320001602
 20
86.952313753
 10
122.7547198665
 20
86.9811300911
 10
122.7783932816
 20
87.0084898637
 10
122.8028876398
 20
87.034239634
 10
122.828065575
 20
87.0582349977
 10
122.8537858857
 20
87.0803413869
 10
122.8799043263
 20
87.1004348252
 10
122.90627442
 20
87.1184026266
  0
LWPOLYLINE
  5
286
100
AcDbEntity
  8
RACCORDO
100
AcDbPolyline
 62
250
  6
CONTINUOUS
 90
13
 70
0
 10
122.5717510627
 20
124.65316891
 10
122.5712976146
 20
124.6223396559
 10
122.5728265608
 20
124.5927015434
 10
122.5763293266
 20
124.5644207894
 10
122.5817862677
 20
124.5376559986
 10
122.5891667805
 20
124.5125572737
 10
122.5984294733
 20
124.4892653738
 10
122.609522399
 20
124.4679109248
 10
122.6223833462
 20
124.4486136871
 10
122.6369401877
 20
124.4314818838
 10
122.6531112858
 20
124.4166115938
 10
122.6708059494
 20
124.4040862129
 10
122.6746877952
 20
124.4017713
  0
LWPOLYLINE
  5
287
100
AcDbEntity
  8
RACCORDO
100
AcDbPolyline
 62
250
  6
CONTINUOUS
 90
10
 70
0
 10
122.2919754483
 20
124.0674373738
 10
122.2942929629
 20
124.1023799076
 10
122.2982634853
 20
124.1363423235
 10
122.3038782022
 20
124.1692272945
 10
122.3111293676
 20
124.2009547744
 10
122.3199956312
 20
124.2314182413
 10
122.3304358105
 20
124.2604909739
 10
122.3424116644
 20
124.2880828567
 10
122.3558942657
 20
124.3141345673
 10
122.3708450419
 20
124.3385779292
  0
LWPOLYLINE
  5
288
100
AcDbEntity
  8
RACCORDO
100
AcDbPolyline
 62
250
  6
CONTINUOUS
 90
10
 70
0
 10
121.6042817133
 20
124.0980981306
 10
121.6081308017
 20
124.1551976567
 10
121.6145389054
 20
124.2103718009
 10
121.6235058518
 20
124.2636204721
 10
121.6350836576
 20
124.3151181404
 10
121.6492200152
 20
124.3646901819
 10
121.6657580402
 20
124.4118127473
 10
121.6846450806
 20
124.4563110336
 10
121.7059329688
 20
124.4983594156
 10
121.7296213311
 20
124.5379576983
  0
LINE
  5
289
100
AcDbEntity
  8
0
100
AcDbLine
 62
250
  6
CONTINUOUS
 10
103.8739218446
 20
98.1074444722
 11
104.2591171835
 21
98.3790562939
  0
LWPOLYLINE
  5
28A
100
AcDbEntity
  8
0
100
AcDbPolyline
 62
250
  6
CONTINUOUS
 90
25
 70
0
 10
125.6277145908
 20
117.9422077817
 10
125.6412255372
 20
117.9512124793
 10
125.6545473715
 20
117.9610827314
 10
125.6676800936
 20
117.9718185379
 10
125.6806777698
 20
117.9834724539
 10
125.6934863338
 20
117.9959919243
 10
125.7059435866
 20
118.0092192847
 10
125.7180429745
 20
118.0231614684
 10
125.7297910512
 20
118.0378115422
 10
125.741045279
 20
118.0529910416
 10
125.7517998427
 20
118.0687067688
 10
125.7620605575
 20
118.0849519216
 10
125.7717023319
 20
118.101527629
 10
125.7807173663
 20
118.1184371925
 10
125.7891134603
 20
118.1356773106
 10
125.7967889211
 20
118.1530392081
 10
125.8037355565
 20
118.170527391
 10
125.8099615587
 20
118.1881373533
 10
125.8153898113
 20
118.2056468015
 10
125.8200092632
 20
118.2230523437
 10
125.8238309654
 20
118.2403573718
 10
125.8268109548
 20
118.2573497675
 10
125.8289345771
 20
118.2739588246
 10
125.8302164866
 20
118.2902552494
 10
125.8306566833
 20
118.3062390418
  0
LWPOLYLINE
  5
28B
100
AcDbEntity
  8
0
100
AcDbPolyline
 62
7
  6
CONTINUOUS
 90
19
 70
0
 10
125.5914221283
 20
117.853771388
 10
125.6122838816
 20
117.8676070898
 10
125.6401760942
 20
117.8884810006
 10
125.6670075979
 20
117.9113111919
 10
125.6927889639
 20
117.9360345659
 10
125.7174463936
 20
117.962528624
 10
125.7408082605
 20
117.9905706349
 10
125.7628214933
 20
118.0200487916
 10
125.78341907
 20
118.0508609347
 10
125.8024195419
 20
118.0827216452
 10
125.819762242
 20
118.1155108207
 10
125.8353729295
 20
118.1491176584
 10
125.8491043739
 20
118.1832408728
 10
125.8608957036
 20
118.2177739376
 10
125.8706825148
 20
118.2526133683
 10
125.8783551549
 20
118.2874988818
 10
125.8838450488
 20
118.3223104455
 10
125.8870889663
 20
118.357026339
 10
125.8880039966
 20
118.3872011444
  0
LWPOLYLINE
  5
28C
100
AcDbEntity
  8
0
100
AcDbPolyline
 62
250
  6
CONTINUOUS
 90
10
 70
0
 10
125.8306566833
 20
118.3062390418
 10
125.8422698161
 20
118.3136823774
 10
125.8527219131
 20
118.3216788675
 10
125.8619343084
 20
118.3301683277
 10
125.8698376664
 20
118.3390868637
 10
125.8763725038
 20
118.3483673516
 10
125.8814896373
 20
118.3579399434
 10
125.8851505538
 20
118.3677325925
 10
125.8873276998
 20
118.3776715964
 10
125.8880065935
 20
118.3871782867
  0
LINE
  5
28D
100
AcDbEntity
  8
0
100
AcDbLine
 62
250
  6
CONTINUOUS
 10
124.3432749288
 20
117.1352836522
 11
125.6277145908
 21
117.9422077817
  0
LINE
  5
28E
100
AcDbEntity
  8
0
100
AcDbLine
 62
7
  6
CONTINUOUS
 10
124.3432749288
 20
117.0696474371
 11
125.5914574178
 21
117.8537937059
  0
LWPOLYLINE
  5
28F
100
AcDbEntity
  8
RACCORDO
100
AcDbPolyline
 62
250
  6
CONTINUOUS
 90
4
 70
0
 10
104.2709864776
 20
98.0646314472
 10
104.2509859046
 20
98.0521034811
 10
104.2311660136
 20
98.0423505777
 10
104.2102707801
 20
98.0344991802
  0
LINE
  5
290
100
AcDbEntity
  8
0
100
AcDbLine
 62
7
  6
CONTINUOUS
 10
102.3976527414
 20
101.3974339686
 11
102.2915376554
 21
101.3328384215
  0
LINE
  5
291
100
AcDbEntity
  8
0
100
AcDbLine
 62
7
  6
CONTINUOUS
 10
100.1150017339
 20
102.7152231485
 11
100.0013744071
 21
102.6551499786
  0
LWPOLYLINE
  5
292
100
AcDbEntity
  8
0
100
AcDbPolyline
 62
250
  6
CONTINUOUS
 90
10
 70
0
 10
136.5822919049
 20
83.3178058484
 10
136.5737148101
 20
83.3219732501
 10
136.5640193472
 20
83.3250562812
 10
136.5537087514
 20
83.3267811666
 10
136.5428606254
 20
83.327134928
 10
136.5315566165
 20
83.3261149071
 10
136.5198818034
 20
83.3237287849
 10
136.5079240552
 20
83.3199945242
 10
136.4957733691
 20
83.3149402339
 10
136.4835211947
 20
83.3086039577
  0
LWPOLYLINE
  5
293
100
AcDbEntity
  8
0
100
AcDbPolyline
 62
250
  6
CONTINUOUS
 90
10
 70
0
 10
135.0023952896
 20
84.2300183533
 10
134.9938185058
 20
84.2341856303
 10
134.9841230575
 20
84.237268708
 10
134.9738124627
 20
84.2389936396
 10
134.9629643224
 20
84.2393474427
 10
134.9516602832
 20
84.2383274546
 10
134.939985423
 20
84.2359413519
 10
134.9280276108
 20
84.2322070933
 10
134.9158768449
 20
84.2271527841
 10
134.903624576
 20
84.2208164646
  0
LWPOLYLINE
  5
294
100
AcDbEntity
  8
RACCORDO
100
AcDbPolyline
 62
250
  6
CONTINUOUS
 90
19
 70
0
 10
219.7622228297
 20
30.9201476616
 10
219.780848348
 20
30.9103591336
 10
219.8008482863
 20
30.9015980481
 10
219.8220803928
 20
30.8939267192
 10
219.8443936521
 20
30.88739971
 10
219.8676293587
 20
30.8820634446
 10
219.8916222461
 20
30.8779558777
 10
219.9162016626
 20
30.8751062249
 10
219.9411927844
 20
30.8735347545
 10
219.9664178594
 20
30.8732526438
 10
219.9916974718
 20
30.8742618995
 10
220.0168518177
 20
30.8765553429
 10
220.0417019841
 20
30.8801166618
 10
220.0660712215
 20
30.8849205259
 10
220.0897862013
 20
30.8909327673
 10
220.1126782481
 20
30.8981106232
 10
220.13458454
 20
30.9064030404
 10
220.155349266
 20
30.9157510381
 10
220.1748247348
 20
30.9260881279
  0
LWPOLYLINE
  5
295
100
AcDbEntity
  8
RACCORDO
100
AcDbPolyline
 62
250
  6
CONTINUOUS
 90
22
 70
0
 10
171.8088631875
 20
59.0714710114
 10
171.8353256704
 20
59.0573818405
 10
171.8634954329
 20
59.0445365628
 10
171.893225249
 20
59.0330023125
 10
171.9243597392
 20
59.0228393723
 10
171.9567361826
 20
59.0141008574
 10
171.9901853675
 20
59.0068324388
 10
172.0245324755
 20
59.0010721041
 10
172.0595979953
 20
58.9968499588
 10
172.0951986611
 20
58.9941880697
 10
172.1311484099
 20
58.9931003488
 10
172.1672593546
 20
58.9935924809
 10
172.2033427654
 20
58.995661894
 10
172.2392100565
 20
58.9992977724
 10
172.2746737716
 20
59.0044811138
 10
172.3095485636
 20
59.0111848279
 10
172.3436521634
 20
59.0193738785
 10
172.3768063324
 20
59.0290054666
 10
172.4088377942
 20
59.0400292537
 10
172.4395791399
 20
59.0523876253
 10
172.4688697034
 20
59.0660159917
 10
172.4965564011
 20
59.0808431258
  0
LWPOLYLINE
  5
296
100
AcDbEntity
  8
RACCORDO
100
AcDbPolyline
 62
250
  6
CONTINUOUS
 90
22
 70
0
 10
121.6042817232
 20
88.0589671377
 10
121.6307442061
 20
88.0448779668
 10
121.6589139686
 20
88.032032689
 10
121.6886437848
 20
88.0204984388
 10
121.719778275
 20
88.0103354985
 10
121.7521547184
 20
88.0015969837
 10
121.7856039033
 20
87.9943285651
 10
121.8199510112
 20
87.9885682303
 10
121.8550165311
 20
87.9843460851
 10
121.8906171968
 20
87.981684196
 10
121.9265669457
 20
87.9805964751
 10
121.9626778904
 20
87.9810886072
 10
121.9987613012
 20
87.9831580202
 10
122.0346285923
 20
87.9867938987
 10
122.0700923073
 20
87.99197724
 10
122.1049670993
 20
87.9986809541
 10
122.1390706991
 20
88.0068700048
 10
122.1722248681
 20
88.0165015929
 10
122.2042563299
 20
88.02752538
 10
122.2349976756
 20
88.0398837515
 10
122.2642882392
 20
88.0535121179
 10
122.2919749368
 20
88.0683392521
  0
LWPOLYLINE
  5
297
100
AcDbEntity
  8
RACCORDO
100
AcDbPolyline
 62
250
  6
CONTINUOUS
 90
22
 70
0
 10
71.399700259
 20
117.0464632639
 10
71.4261627419
 20
117.032374093
 10
71.4543325044
 20
117.0195288153
 10
71.4840623205
 20
117.0079945651
 10
71.5151968107
 20
116.9978316248
 10
71.5475732541
 20
116.98909311
 10
71.581022439
 20
116.9818246914
 10
71.615369547
 20
116.9760643566
 10
71.6504350668
 20
116.9718422114
 10
71.6860357326
 20
116.9691803223
 10
71.7219854814
 20
116.9680926014
 10
71.7580964261
 20
116.9685847335
 10
71.7941798369
 20
116.9706541465
 10
71.830047128
 20
116.974290025
 10
71.8655108431
 20
116.9794733663
 10
71.9003856351
 20
116.9861770804
 10
71.9344892349
 20
116.9943661311
 10
71.9676434039
 20
117.0039977191
 10
71.9996748657
 20
117.0150215062
 10
72.0304162114
 20
117.0273798778
 10
72.059706775
 20
117.0410082442
 10
72.0873934726
 20
117.0558353783
  0
LWPOLYLINE
  5
298
100
AcDbEntity
  8
0
100
AcDbPolyline
 62
7
  6
CONTINUOUS
 90
19
 70
0
 10
135.0024151725
 20
84.2300048488
 10
134.9759080818
 20
84.2442586627
 10
134.9443009412
 20
84.2587814174
 10
134.9114807863
 20
84.2714200059
 10
134.8774965614
 20
84.2822158815
 10
134.8424878426
 20
84.2911670069
 10
134.8067304745
 20
84.298234142
 10
134.7703457215
 20
84.3034233166
 10
134.7334552304
 20
84.3067289855
 10
134.6963939709
 20
84.30812831
 10
134.6592960882
 20
84.3076280116
 10
134.6222949452
 20
84.3052172161
 10
134.5857275162
 20
84.3009121301
 10
134.5497174682
 20
84.2947129033
 10
134.5143874191
 20
84.2866138599
 10
134.4800217859
 20
84.2766462434
 10
134.4467599912
 20
84.26481077
 10
134.4146508015
 20
84.2510642329
 10
134.3921497849
 20
84.2398701847
  0
LWPOLYLINE
  5
299
100
AcDbEntity
  8
0
100
AcDbPolyline
 62
7
  6
CONTINUOUS
 90
19
 70
0
 10
185.2069964727
 20
55.2425078426
 10
185.1807798835
 20
55.2566172417
 10
185.1491278366
 20
55.2711818816
 10
185.1162695964
 20
55.283851165
 10
185.0822557289
 20
55.2946691006
 10
185.0472239009
 20
55.3036351418
 10
185.0114535775
 20
55.3107143586
 10
184.9750662382
 20
55.3159106741
 10
184.9381842807
 20
55.3192236719
 10
184.9011414159
 20
55.3206301264
 10
184.8640704031
 20
55.3201388085
 10
184.8271053597
 20
55.3177423915
 10
184.7905838309
 20
55.3134549016
 10
184.754627633
 20
55.3072835285
 10
184.7193600682
 20
55.2992182736
 10
184.6850597665
 20
55.2892963737
 10
184.6518697005
 20
55.2775208338
 10
184.6198392665
 20
55.2638511716
 10
184.5967285296
 20
55.25237536
  0
LWPOLYLINE
  5
29A
100
AcDbEntity
  8
0
100
AcDbPolyline
 62
250
  6
CONTINUOUS
 90
25
 70
0
 10
185.1082060403
 20
55.2333203383
 10
185.0941431471
 20
55.2409317476
 10
185.0793886827
 20
55.247970472
 10
185.0639426471
 20
55.2544365115
 10
185.0477364787
 20
55.2603525303
 10
185.0308387391
 20
55.2656958642
 10
185.0134551132
 20
55.2703985205
 10
184.9955771384
 20
55.2744526236
 10
184.9772132772
 20
55.2778660492
 10
184.9585946024
 20
55.2805944311
 10
184.9397209207
 20
55.2826284211
 10
184.9205924254
 20
55.2839773676
 10
184.9014407682
 20
55.2846249499
 10
184.8822649089
 20
55.2845627619
 10
184.8630658878
 20
55.2837992097
 10
184.8440784773
 20
55.2823431914
 10
184.8253056613
 20
55.2801862688
 10
184.8067444559
 20
55.2773368801
 10
184.7886206826
 20
55.2738292379
 10
184.7709370696
 20
55.2696541989
 10
184.7536908886
 20
55.2648209064
 10
184.7370997773
 20
55.2593910028
 10
184.7212362813
 20
55.2533850354
 10
184.7060278548
 20
55.2467824568
 10
184.6914744979
 20
55.2395832671
  0
LWPOLYLINE
  5
29B
100
AcDbEntity
  8
RACCORDO
100
AcDbPolyline
 62
250
  6
CONTINUOUS
 90
22
 70
0
 10
173.1108464501
 20
58.1309115871
 10
173.0810384817
 20
58.1477642698
 10
173.051108121
 20
58.1663032849
 10
173.0211269893
 20
58.1864973924
 10
172.9911511474
 20
58.2083125454
 10
172.961272926
 20
58.2317048814
 10
172.9316199458
 20
58.2566161458
 10
172.9022514114
 20
58.2830050134
 10
172.8732618437
 20
58.3107952594
 10
172.8448280712
 20
58.3398545208
 10
172.8170364265
 20
58.3700871191
 10
172.7899432768
 20
58.4014224856
 10
172.763672245
 20
58.4337471212
 10
172.738291587
 20
58.4669647703
 10
172.7138600344
 20
58.5009826426
 10
172.6904785458
 20
58.5356837802
 10
172.6682026303
 20
58.5709694431
 10
172.6470827434
 20
58.6067372299
 10
172.6272022406
 20
58.6428604594
 10
172.6086140794
 20
58.6792284646
 10
172.5913440975
 20
58.7157482175
 10
172.5754265061
 20
58.75231934
  0
LWPOLYLINE
  5
29C
100
AcDbEntity
  8
RACCORDO
100
AcDbPolyline
 62
250
  6
CONTINUOUS
 90
22
 70
0
 10
122.9062649859
 20
87.1184077133
 10
122.8764570175
 20
87.1352603961
 10
122.8465266568
 20
87.1537994112
 10
122.8165455251
 20
87.1739935187
 10
122.7865696832
 20
87.1958086716
 10
122.7566914617
 20
87.2192010076
 10
122.7270384815
 20
87.2441122721
 10
122.6976699471
 20
87.2705011396
 10
122.6686803795
 20
87.2982913857
 10
122.6402466069
 20
87.3273506471
 10
122.6124549623
 20
87.3575832454
 10
122.5853618126
 20
87.3889186119
 10
122.5590907808
 20
87.4212432474
 10
122.5337101228
 20
87.4544608965
 10
122.5092785701
 20
87.4884787689
 10
122.4858970815
 20
87.5231799064
 10
122.4636211661
 20
87.5584655693
 10
122.4425012792
 20
87.5942333562
 10
122.4226207764
 20
87.6303565856
 10
122.4040326151
 20
87.6667245908
 10
122.3867626332
 20
87.7032443438
 10
122.3708450419
 20
87.7398154663
  0
LWPOLYLINE
  5
29D
100
AcDbEntity
  8
RACCORDO
100
AcDbPolyline
 62
250
  6
CONTINUOUS
 90
22
 70
0
 10
72.7016835217
 20
116.1059038396
 10
72.6718755532
 20
116.1227565224
 10
72.6419451925
 20
116.1412955374
 10
72.6119640608
 20
116.161489645
 10
72.5819882189
 20
116.1833047979
 10
72.5521099975
 20
116.2066971339
 10
72.5224570173
 20
116.2316083984
 10
72.4930884829
 20
116.2579972659
 10
72.4640989152
 20
116.285787512
 10
72.4356651427
 20
116.3148467733
 10
72.407873498
 20
116.3450793717
 10
72.3807803484
 20
116.3764147382
 10
72.3545093165
 20
116.4087393737
 10
72.3291286585
 20
116.4419570228
 10
72.3046971059
 20
116.4759748952
 10
72.2813156173
 20
116.5106760327
 10
72.2590397018
 20
116.5459616956
 10
72.2379198149
 20
116.5817294824
 10
72.2180393121
 20
116.6178527119
 10
72.1994511509
 20
116.6542207171
 10
72.182181169
 20
116.6907404701
 10
72.1662635776
 20
116.7273115925
  0
LWPOLYLINE
  5
29E
100
AcDbEntity
  8
0
100
AcDbPolyline
 62
250
  6
CONTINUOUS
 90
10
 70
0
 10
184.6914744979
 20
55.2395832671
 10
184.6795840545
 20
55.2463143913
 10
184.6677746808
 20
55.2517466489
 10
184.6561362184
 20
55.2558387133
 10
184.6447572086
 20
55.2585594535
 10
184.6337242191
 20
55.2598881708
 10
184.6231211851
 20
55.2598147571
 10
184.6130287707
 20
55.2583397707
 10
184.6035237556
 20
55.2554744328
 10
184.5967630895
 20
55.2523934875
  0
LWPOLYLINE
  5
29F
100
AcDbEntity
  8
0
100
AcDbPolyline
 62
250
  6
CONTINUOUS
 90
10
 70
0
 10
84.2823115694
 20
113.2145755196
 10
84.2704211261
 20
113.2213066438
 10
84.2586117523
 20
113.2267389015
 10
84.2469732899
 20
113.2308309659
 10
84.2355942801
 20
113.233551706
 10
84.2245612907
 20
113.2348804234
 10
84.2139582566
 20
113.2348070096
 10
84.2038658422
 20
113.2333320232
 10
84.1943608271
 20
113.2304666854
 10
84.187600161
 20
113.2273857401
  0
LINE
  5
2A0
100
AcDbEntity
  8
RACCORDO
100
AcDbLine
 62
250
  6
CONTINUOUS
 10
203.9485422549
 20
39.5093677034
 11
172.7763325269
 21
57.5078109208
  0
LINE
  5
2A1
100
AcDbEntity
  8
RACCORDO
100
AcDbLine
 62
250
  6
CONTINUOUS
 10
153.7439607906
 20
68.4968638297
 11
122.5717510627
 21
86.4953070471
  0
LINE
  5
2A2
100
AcDbEntity
  8
RACCORDO
100
AcDbLine
 62
250
  6
CONTINUOUS
 10
103.5393793264
 20
97.4843599559
 11
72.3671695984
 21
115.4828031733
  0
LINE
  5
2A3
100
AcDbEntity
  8
RACCORDO
100
AcDbLine
 62
250
  6
CONTINUOUS
 10
204.7386744571
 20
39.5945561934
 11
219.7622206243
 21
30.9201933938
  0
LINE
  5
2A4
100
AcDbEntity
  8
RACCORDO
100
AcDbLine
 62
250
  6
CONTINUOUS
 10
56.5014896035
 20
125.1848934623
 11
71.5250398668
 21
116.5104392469
  0
LINE
  5
2A5
100
AcDbEntity
  8
RACCORDO
100
AcDbLine
 62
250
  6
CONTINUOUS
 10
104.3295115286
 20
97.5695484459
 11
121.7296213311
 21
87.5229431206
  0
LINE
  5
2A6
100
AcDbEntity
  8
RACCORDO
100
AcDbLine
 62
250
  6
CONTINUOUS
 10
154.5340929929
 20
68.5820523197
 11
171.9342027953
 21
58.5354469943
  0
LINE
  5
2A7
100
AcDbEntity
  8
RACCORDO
100
AcDbLine
 62
250
  6
CONTINUOUS
 10
204.2830847731
 20
40.1324522197
 11
173.1108467623
 21
58.1309117672
  0
LINE
  5
2A8
100
AcDbEntity
  8
RACCORDO
100
AcDbLine
 62
250
  6
CONTINUOUS
 10
154.0785033088
 20
69.119948346
 11
122.9062652981
 21
87.1184078935
  0
LINE
  5
2A9
100
AcDbEntity
  8
RACCORDO
100
AcDbLine
 62
250
  6
CONTINUOUS
 10
103.8739218446
 20
98.1074444722
 11
72.7016838338
 21
116.1059040198
  0
LINE
  5
2AA
100
AcDbEntity
  8
0
100
AcDbLine
 62
7
  6
CONTINUOUS
 10
204.5978674656
 20
42.2624457885
 11
175.1127665658
 21
59.2867735129
  0
LINE
  5
2AB
100
AcDbEntity
  8
0
100
AcDbLine
 62
7
  6
CONTINUOUS
 10
154.3932860013
 20
71.2499419148
 11
124.9081851016
 21
88.2742696392
  0
LINE
  5
2AC
100
AcDbEntity
  8
0
100
AcDbLine
 62
7
  6
CONTINUOUS
 10
104.1887045371
 20
100.237438041
 11
74.7036036373
 21
117.2617657655
  0
LINE
  5
2AD
100
AcDbEntity
  8
0
100
AcDbLine
 62
7
  6
CONTINUOUS
 10
100.1150017339
 20
102.7152231485
 11
102.3974968518
 21
101.3973390737
  0
LINE
  5
2AE
100
AcDbEntity
  8
0
100
AcDbLine
 62
7
  6
CONTINUOUS
 10
150.3195831981
 20
73.7277270222
 11
152.6020783161
 21
72.4098429475
  0
LINE
  5
2AF
100
AcDbEntity
  8
0
100
AcDbLine
 62
7
  6
CONTINUOUS
 10
200.5241646624
 20
44.7402308959
 11
202.8066597803
 21
43.4223468212
  0
LINE
  5
2B0
100
AcDbEntity
  8
0
100
AcDbLine
 62
250
  6
CONTINUOUS
 10
186.6881026589
 20
54.3211078315
 11
185.1082060403
 21
55.2333203383
  0
LINE
  5
2B1
100
AcDbEntity
  8
0
100
AcDbLine
 62
250
  6
CONTINUOUS
 10
86.2789397304
 20
112.296100084
 11
84.6990431118
 21
113.2083125908
  0
LINE
  5
2B2
100
AcDbEntity
  8
0
100
AcDbLine
 62
250
  6
CONTINUOUS
 10
134.903624576
 20
84.2208164646
 11
136.4835211947
 21
83.3086039577
  0
LINE
  5
2B3
100
AcDbEntity
  8
0
100
AcDbLine
 62
7
  6
CONTINUOUS
 10
186.7868733724
 20
54.3303097202
 11
185.2069767581
 21
55.2425222245
  0
LINE
  5
2B4
100
AcDbEntity
  8
0
100
AcDbLine
 62
7
  6
CONTINUOUS
 10
86.377710444
 20
112.3053019727
 11
84.7978138297
 21
113.2175144771
  0
LINE
  5
2B5
100
AcDbEntity
  8
0
100
AcDbLine
 62
7
  6
CONTINUOUS
 10
135.0023952896
 20
84.2300183533
 11
136.5822919049
 21
83.3178058484
  0
LWPOLYLINE
  5
2B6
100
AcDbEntity
  8
0
100
AcDbPolyline
 62
250
  6
CONTINUOUS
 90
19
 70
0
 10
86.2862138065
 20
112.0575474827
 10
86.2989549602
 20
112.050056631
 10
86.3115897935
 20
112.0413751075
 10
86.3240221849
 20
112.0315689587
 10
86.3361575529
 20
112.0207127868
 10
86.3479035759
 20
112.0088891822
 10
86.359170894
 20
111.9961880954
 10
86.3698737893
 20
111.9827061522
 10
86.3799308383
 20
111.9685459188
 10
86.3892655306
 20
111.9538151217
 10
86.3978068511
 20
111.9386258279
 10
86.405489821
 20
111.9230935923
 10
86.4122559912
 20
111.9073365785
 10
86.4180538873
 20
111.8914746605
 10
86.4228394012
 20
111.8756285101
 10
86.4265761269
 20
111.8599186787
 10
86.4292356368
 20
111.8444646807
 10
86.4307976985
 20
111.8293840851
 10
86.4312504284
 20
111.8147916194
  0
LWPOLYLINE
  5
2B7
100
AcDbEntity
  8
0
100
AcDbPolyline
 62
250
  6
CONTINUOUS
 90
19
 70
0
 10
186.695376735
 20
54.0825552302
 10
186.7081178887
 20
54.0750643784
 10
186.720752722
 20
54.066382855
 10
186.7331851134
 20
54.0565767062
 10
186.7453204814
 20
54.0457205343
 10
186.7570665044
 20
54.0338969297
 10
186.7683338224
 20
54.0211958428
 10
186.7790367178
 20
54.0077138996
 10
186.7890937668
 20
53.9935536663
 10
186.798428459
 20
53.9788228691
 10
186.8069697796
 20
53.9636335753
 10
186.8146527495
 20
53.9481013397
 10
186.8214189197
 20
53.9323443259
 10
186.8272168158
 20
53.916482408
 10
186.8320023297
 20
53.9006362576
 10
186.8357390554
 20
53.8849264261
 10
186.8383985653
 20
53.8694724282
 10
186.839960627
 20
53.8543918325
 10
186.8404133569
 20
53.8397993668
  0
LWPOLYLINE
  5
2B8
100
AcDbEntity
  8
RACCORDO
100
AcDbPolyline
 62
250
  6
CONTINUOUS
 90
22
 70
0
 10
72.3671695984
 20
115.4828031733
 10
72.3201833021
 20
115.5111945627
 10
72.273217435
 20
115.5422265346
 10
72.2262722182
 20
115.5758992307
 10
72.179198559
 20
115.6123045445
 10
72.1321464427
 20
115.6513511539
 10
72.0855649283
 20
115.6927645182
 10
72.0394359089
 20
115.736606361
 10
71.9937792832
 20
115.782816105
 10
71.9491012657
 20
115.8309358517
 10
71.90543789
 20
115.8809749964
 10
71.8627556099
 20
115.9329257326
 10
71.8214562474
 20
115.9863043447
 10
71.7815629619
 20
116.0411231067
 10
71.7430554944
 20
116.0973715936
 10
71.7062703152
 20
116.1545318965
 10
71.6712255182
 20
116.2126250925
 10
71.6379059905
 20
116.2716319997
 10
71.6065979229
 20
116.3309740199
 10
71.577397433
 20
116.390458743
 10
71.5502109531
 20
116.4502801937
 10
71.5250398668
 20
116.5104392469
  0
LWPOLYLINE
  5
2B9
100
AcDbEntity
  8
RACCORDO
100
AcDbPolyline
 62
250
  6
CONTINUOUS
 90
22
 70
0
 10
122.5717510627
 20
86.4953070471
 10
122.5247647664
 20
86.5236984364
 10
122.4777988993
 20
86.5547304083
 10
122.4308536825
 20
86.5884031044
 10
122.3837800233
 20
86.6248084182
 10
122.336727907
 20
86.6638550276
 10
122.2901463925
 20
86.7052683919
 10
122.2440173731
 20
86.7491102348
 10
122.1983607474
 20
86.7953199788
 10
122.1536827299
 20
86.8434397255
 10
122.1100193543
 20
86.8934788701
 10
122.0673370742
 20
86.9454296064
 10
122.0260377116
 20
86.9988082185
 10
121.9861444261
 20
87.0536269805
 10
121.9476369587
 20
87.1098754674
 10
121.9108517795
 20
87.1670357703
 10
121.8758069825
 20
87.2251289663
 10
121.8424874547
 20
87.2841358734
 10
121.8111793871
 20
87.3434778936
 10
121.7819788972
 20
87.4029626168
 10
121.7547924173
 20
87.4627840675
 10
121.7296213311
 20
87.5229431206
  0
LWPOLYLINE
  5
2BA
100
AcDbEntity
  8
RACCORDO
100
AcDbPolyline
 62
250
  6
CONTINUOUS
 90
22
 70
0
 10
172.7763325269
 20
57.5078109208
 10
172.7293462306
 20
57.5362023102
 10
172.6823803635
 20
57.5672342821
 10
172.6354351467
 20
57.6009069781
 10
172.5883614875
 20
57.6373122919
 10
172.5413093712
 20
57.6763589014
 10
172.4947278568
 20
57.7177722656
 10
172.4485988374
 20
57.7616141085
 10
172.4029422117
 20
57.8078238525
 10
172.3582641941
 20
57.8559435992
 10
172.3146008185
 20
57.9059827438
 10
172.2719185384
 20
57.9579334801
 10
172.2306191759
 20
58.0113120922
 10
172.1907258904
 20
58.0661308542
 10
172.1522184229
 20
58.1223793411
 10
172.1154332437
 20
58.179539644
 10
172.0803884467
 20
58.23763284
 10
172.047068919
 20
58.2966397471
 10
172.0157608513
 20
58.3559817674
 10
171.9865603615
 20
58.4154664905
 10
171.9593738816
 20
58.4752879412
 10
171.9342027953
 20
58.5354469943
  0
LWPOLYLINE
  5
2BB
100
AcDbEntity
  8
0
100
AcDbPolyline
 62
250
  6
CONTINUOUS
 90
10
 70
0
 10
136.4835211947
 20
83.3086039577
 10
136.4967118813
 20
83.3004780968
 10
136.5088931624
 20
83.2919608603
 10
136.5200650381
 20
83.2830522484
 10
136.5302668936
 20
83.273711886
 10
136.5394593437
 20
83.2639801481
 10
136.5475242322
 20
83.2539781597
 10
136.5544464471
 20
83.2437027771
 10
136.5602411005
 20
83.2331571439
 10
136.5648353718
 20
83.2224718167
  0
LWPOLYLINE
  5
2BC
100
AcDbEntity
  8
RACCORDO
100
AcDbPolyline
 62
250
  6
CONTINUOUS
 90
12
 70
0
 10
104.4127893782
 20
97.9851222098
 10
104.3881657185
 20
98.0005292349
 10
104.3655163284
 20
98.0170260107
 10
104.3449595837
 20
98.0345263175
 10
104.3266029233
 20
98.0529386909
 10
104.3105422872
 20
98.0721668995
 10
104.2968616157
 20
98.092110448
 10
104.2856324101
 20
98.1126651026
 10
104.2769133592
 20
98.1337234353
 10
104.2707500327
 20
98.1551753858
 10
104.2671746429
 20
98.1769088365
 10
104.2663414282
 20
98.1883681621
  0
LWPOLYLINE
  5
2BD
100
AcDbEntity
  8
RACCORDO
100
AcDbPolyline
 62
250
  6
CONTINUOUS
 90
12
 70
0
 10
154.6173708424
 20
68.9976260835
 10
154.5927471827
 20
69.0130331087
 10
154.5700977926
 20
69.0295298844
 10
154.5495410479
 20
69.0470301912
 10
154.5311843875
 20
69.0654425646
 10
154.5151237515
 20
69.0846707732
 10
154.50144308
 20
69.1046143218
 10
154.4902138743
 20
69.1251689763
 10
154.4814948234
 20
69.146227309
 10
154.4753314969
 20
69.1676792595
 10
154.4717561072
 20
69.1894127102
 10
154.4709228924
 20
69.2008720358
  0
LWPOLYLINE
  5
2BE
100
AcDbEntity
  8
RACCORDO
100
AcDbPolyline
 62
250
  6
CONTINUOUS
 90
12
 70
0
 10
204.8219523067
 20
40.0101299573
 10
204.797328647
 20
40.0255369824
 10
204.7746792569
 20
40.0420337581
 10
204.7541225122
 20
40.059534065
 10
204.7357658518
 20
40.0779464383
 10
204.7197052157
 20
40.0971746469
 10
204.7060245442
 20
40.1171181955
 10
204.6947953386
 20
40.1376728501
 10
204.6860762877
 20
40.1587311827
 10
204.6799129612
 20
40.1801831332
 10
204.6763375714
 20
40.201916584
 10
204.6755043567
 20
40.2133759096
  0
LWPOLYLINE
  5
2BF
100
AcDbEntity
  8
RACCORDO
100
AcDbPolyline
 62
250
  6
CONTINUOUS
 90
10
 70
0
 10
56.5014915132
 20
125.1848477908
 10
56.4843681371
 20
125.1957002264
 10
56.4688734485
 20
125.2074332935
 10
56.4551176553
 20
125.2199635393
 10
56.4431985968
 20
125.2332018412
 10
56.4332010487
 20
125.2470540403
 10
56.4251961196
 20
125.2614216115
 10
56.4192407452
 20
125.2762023639
 10
56.415377284
 20
125.2912911679
 10
56.4136332151
 20
125.3065807026
  0
LWPOLYLINE
  5
2C0
100
AcDbEntity
  8
RACCORDO
100
AcDbPolyline
 62
250
  6
CONTINUOUS
 90
22
 70
0
 10
71.5250421134
 20
153.5254549908
 10
71.5480892382
 20
153.4987947471
 10
71.5728728401
 20
153.4732391814
 10
71.5992625293
 20
153.4489227444
 10
71.6271194663
 20
153.4259733682
 10
71.6562970924
 20
153.4045117921
 10
71.6866419004
 20
153.3846509283
 10
71.7179942425
 20
153.3664952672
 10
71.75018917
 20
153.350140328
 10
71.7830573014
 20
153.3356721561
 10
71.8164257133
 20
153.3231668704
 10
71.8501188504
 20
153.3126902626
 10
71.8839594488
 20
153.3042974516
 10
71.9177694689
 20
153.298032593
 10
71.9513710318
 20
153.2939286469
 10
71.9845873557
 20
153.2920072048
 10
72.0172436852
 20
153.2922783755
 10
72.0491682113
 20
153.2947407324
 10
72.0801929751
 20
153.2993813207
 10
72.1101547513
 20
153.3061757257
 10
72.1388959074
 20
153.3150882011
 10
72.1662652324
 20
153.3260718573
  0
LWPOLYLINE
  5
2C1
100
AcDbEntity
  8
RACCORDO
100
AcDbPolyline
 62
250
  6
CONTINUOUS
 90
10
 70
0
 10
122.3708450419
 20
87.7398154663
 10
122.355917959
 20
87.7774059093
 10
122.3424471808
 20
87.8149904203
 10
122.330473487
 20
87.852461118
 10
122.3200259468
 20
87.8897329286
 10
122.3111480807
 20
87.926674241
 10
122.3038883093
 20
87.9631105765
 10
122.2982689153
 20
87.9989174268
 10
122.294295429
 20
88.0340171801
 10
122.2919763169
 20
88.0683120923
  0
LWPOLYLINE
  5
2C2
100
AcDbEntity
  8
RACCORDO
100
AcDbPolyline
 62
250
  6
CONTINUOUS
 90
10
 70
0
 10
121.7296213311
 20
87.5229431206
 10
121.7059796038
 20
87.5846357172
 10
121.6847222548
 20
87.6459635621
 10
121.6658496708
 20
87.7069269003
 10
121.6493041557
 20
87.7677518026
 10
121.6351442555
 20
87.8282127356
 10
121.6235444961
 20
87.8876323952
 10
121.6145630661
 20
87.9457850209
 10
121.6081420788
 20
88.0028965622
 10
121.6042817133
 20
88.0589671314
  0
LWPOLYLINE
  5
2C3
100
AcDbEntity
  8
RACCORDO
100
AcDbPolyline
 62
250
  6
CONTINUOUS
 90
3
 70
0
 10
104.2854710544
 20
134.7093457122
 10
104.3085535785
 20
134.6471546888
 10
104.3295115286
 20
134.5845630236
  0
LWPOLYLINE
  5
2C4
100
AcDbEntity
  8
RACCORDO
100
AcDbPolyline
 62
7
  6
CONTINUOUS
 90
13
 70
0
 10
104.2061311289
 20
134.6163431857
 10
104.2191128889
 20
134.5732700242
 10
104.2295880765
 20
134.534405331
 10
104.2387033669
 20
134.4962825284
 10
104.2464794042
 20
134.4590069962
 10
104.2529432715
 20
134.4226782039
 10
104.2581242811
 20
134.3874161156
 10
104.2620581905
 20
134.3533557771
 10
104.2647949177
 20
134.3205881567
 10
104.266390496
 20
134.2892095812
 10
104.2669084246
 20
134.2593618721
 10
104.2664255625
 20
134.2311441804
 10
104.1573102844
 20
131.2119065856
  0
LWPOLYLINE
  5
2C5
100
AcDbEntity
  8
RACCORDO
100
AcDbPolyline
 62
250
  6
CONTINUOUS
 90
10
 70
0
 10
104.3295115286
 20
134.5845630236
 10
104.3487402133
 20
134.5203197402
 10
104.3655045466
 20
134.4563952165
 10
104.3798049153
 20
134.3927896543
 10
104.3916823021
 20
134.3292666937
 10
104.4010965744
 20
134.2660631387
 10
104.4079262213
 20
134.2038888205
 10
104.4121307514
 20
134.1429803568
 10
104.4137509561
 20
134.0831012886
 10
104.412787014
 20
134.02425171
  0
LWPOLYLINE
  5
2C6
100
AcDbEntity
  8
0
100
AcDbPolyline
 62
250
  6
CONTINUOUS
 90
25
 70
0
 10
125.8306566833
 20
120.1304877463
 10
125.8302164862
 20
120.1459542599
 10
125.8289345765
 20
120.160744303
 10
125.8268109542
 20
120.1748578757
 10
125.8238309651
 20
120.1883484637
 10
125.8200092633
 20
120.2011625812
 10
125.8153898117
 20
120.2131397711
 10
125.809961559
 20
120.2242704387
 10
125.8037355565
 20
120.2345641787
 10
125.7967889209
 20
120.243889318
 10
125.7891134602
 20
120.2522317239
 10
125.7807173663
 20
120.259605529
 10
125.7717023319
 20
120.265921458
 10
125.7620605575
 20
120.271167044
 10
125.7517998427
 20
120.2753547537
 10
125.7410452791
 20
120.2784327124
 10
125.7297910512
 20
120.2803872841
 10
125.7180429745
 20
120.2812321046
 10
125.7059435866
 20
120.2809562067
 10
125.6934863338
 20
120.2795449559
 10
125.6806777698
 20
120.2770129866
 10
125.6676800936
 20
120.2733932356
 10
125.6545473715
 20
120.2686966819
 10
125.6412255372
 20
120.2629123464
 10
125.6277145908
 20
120.2560402293
  0
LWPOLYLINE
  5
2C7
100
AcDbEntity
  8
0
100
AcDbPolyline
 62
7
  6
CONTINUOUS
 90
15
 70
0
 10
125.8880040016
 20
120.2114261295
 10
125.8874788153
 20
120.2338695065
 10
125.8849880666
 20
120.2644404995
 10
125.88049101
 20
120.2939581094
 10
125.8740025926
 20
120.3224672224
 10
125.8655284156
 20
120.3499254076
 10
125.855101667
 20
120.3762170806
 10
125.8427722254
 20
120.4012160745
 10
125.8285906259
 20
120.4248127081
 10
125.8126377921
 20
120.4468767913
 10
125.795074565
 20
120.4672257422
 10
125.7760620762
 20
120.4857347728
 10
125.7557367993
 20
120.5023327997
 10
125.7342837965
 20
120.5169369988
 10
125.7264002278
 20
120.5216506038
  0
LWPOLYLINE
  5
2C8
100
AcDbEntity
  8
0
100
AcDbPolyline
 62
250
  6
CONTINUOUS
 90
19
 70
0
 10
125.6277145908
 20
120.2560402293
 10
125.6275982657
 20
120.2708191721
 10
125.626397593
 20
120.2861014398
 10
125.6241217069
 20
120.3017707699
 10
125.6207879216
 20
120.3177079557
 10
125.6164215993
 20
120.3337917526
 10
125.6110559576
 20
120.3498998005
 10
125.6047318163
 20
120.3659095551
 10
125.5974972875
 20
120.3816992196
 10
125.5894074087
 20
120.3971486717
 10
125.5805237252
 20
120.4121403774
 10
125.5709138209
 20
120.4265602848
 10
125.5606508045
 20
120.4402986923
 10
125.5498127536
 20
120.4532510829
 10
125.5384821204
 20
120.4653189192
 10
125.5267451044
 20
120.4764103934
 10
125.5146909967
 20
120.4864411252
 10
125.5024115009
 20
120.4953348043
 10
125.4900000351
 20
120.5030237708
  0
LINE
  5
2C9
100
AcDbEntity
  8
0
100
AcDbLine
 62
7
  6
CONTINUOUS
 10
124.3432749288
 20
89.2527227591
 11
124.3432749288
 21
123.4383499732
  0
LINE
  5
2CA
100
AcDbEntity
  8
0
100
AcDbLine
 62
7
  6
CONTINUOUS
 10
124.4518199528
 20
102.7969394005
 11
124.4518199528
 21
100.161425967
  0
LINE
  5
2CB
100
AcDbEntity
  8
0
100
AcDbLine
 62
250
  6
CONTINUOUS
 10
125.8306566833
 20
118.3062390418
 11
125.8306566833
 21
120.1304877463
  0
LINE
  5
2CC
100
AcDbEntity
  8
0
100
AcDbLine
 62
7
  6
CONTINUOUS
 10
125.8880065935
 20
118.3871782867
 11
125.8880065935
 21
120.2114269862
  0
LWPOLYLINE
  5
2CD
100
AcDbEntity
  8
0
100
AcDbPolyline
 62
250
  6
CONTINUOUS
 90
10
 70
0
 10
125.6277145908
 20
117.9422077817
 10
125.6275982653
 20
117.9285455238
 10
125.6263975905
 20
117.9156029639
 10
125.6241217011
 20
117.9034785643
 10
125.6207879114
 20
117.8922645633
 10
125.6164215842
 20
117.8820462728
 10
125.6110559374
 20
117.8729014301
 10
125.6047317913
 20
117.8648996057
 10
125.5974972582
 20
117.8581016742
 10
125.5914574178
 20
117.8537937059
  0
LINE
  5
2CE
100
AcDbEntity
  8
0
100
AcDbLine
 62
7
  6
CONTINUOUS
 10
124.4519800735
 20
100.1615265597
 11
124.3432749288
 21
100.0932346759
  0
LINE
  5
2CF
100
AcDbEntity
  8
0
100
AcDbLine
 62
7
  6
CONTINUOUS
 10
124.4518199528
 20
102.7969394005
 11
124.3432749288
 21
102.7375786188
  0
LWPOLYLINE
  5
2D0
100
AcDbEntity
  8
RACCORDO
100
AcDbPolyline
 62
250
  6
CONTINUOUS
 90
22
 70
0
 10
121.7296241044
 20
87.5229448833
 10
121.7526711814
 20
87.5237553076
 10
121.7774547426
 20
87.5257422805
 10
121.8038443981
 20
87.5288953484
 10
121.8317013082
 20
87.5331979225
 10
121.8608789136
 20
87.5386273664
 10
121.8912237069
 20
87.5451551149
 10
121.9225760398
 20
87.5527468247
 10
121.9547709631
 20
87.5613625547
 10
121.9876390947
 20
87.5709569763
 10
122.0210075108
 20
87.5814796119
 10
122.0547006553
 20
87.5928751004
 10
122.0885412638
 20
87.6050834886
 10
122.122351296
 20
87.6180405464
 10
122.1559528724
 20
87.6316781049
 10
122.1891692105
 20
87.6459244149
 10
122.2218255542
 20
87.6607045245
 10
122.253750094
 20
87.6759406736
 10
122.2847748702
 20
87.6915527025
 10
122.3147366571
 20
87.7074584742
 10
122.3434778213
 20
87.7235743062
 10
122.3708471517
 20
87.7398154107
  0
LWPOLYLINE
  5
2D1
100
AcDbEntity
  8
0
100
AcDbPolyline
 62
7
  6
CONTINUOUS
 90
19
 70
0
 10
84.7978335442
 20
113.2175000951
 10
84.771616955
 20
113.2316094943
 10
84.7399649082
 20
113.2461741342
 10
84.7071066679
 20
113.2588434175
 10
84.6730928004
 20
113.2696613532
 10
84.6380609724
 20
113.2786273944
 10
84.602290649
 20
113.2857066112
 10
84.5659033097
 20
113.2909029266
 10
84.5290213522
 20
113.2942159244
 10
84.4919784874
 20
113.2956223789
 10
84.4549074746
 20
113.295131061
 10
84.4179424312
 20
113.2927346441
 10
84.3814209024
 20
113.2884471541
 10
84.3454647045
 20
113.2822757811
 10
84.3101971397
 20
113.2742105261
 10
84.2758968381
 20
113.2642886262
 10
84.242706772
 20
113.2525130864
 10
84.210676338
 20
113.2388434241
 10
84.1875656011
 20
113.2273676126
  0
LWPOLYLINE
  5
2D2
100
AcDbEntity
  8
0
100
AcDbPolyline
 62
250
  6
CONTINUOUS
 90
25
 70
0
 10
84.6990431118
 20
113.2083125908
 10
84.6849802186
 20
113.2159240001
 10
84.6702257542
 20
113.2229627245
 10
84.6547797186
 20
113.229428764
 10
84.6385735502
 20
113.2353447828
 10
84.6216758106
 20
113.2406881167
 10
84.6042921847
 20
113.245390773
 10
84.5864142099
 20
113.2494448762
 10
84.5680503487
 20
113.2528583017
 10
84.5494316739
 20
113.2555866837
 10
84.5305579922
 20
113.2576206737
 10
84.5114294969
 20
113.2589696201
 10
84.4922778397
 20
113.2596172024
 10
84.4731019804
 20
113.2595550144
 10
84.4539029593
 20
113.2587914622
 10
84.4349155488
 20
113.2573354439
 10
84.4161427328
 20
113.2551785214
 10
84.3975815274
 20
113.2523291327
 10
84.3794577541
 20
113.2488214905
 10
84.3617741411
 20
113.2446464515
 10
84.3445279601
 20
113.239813159
 10
84.3279368488
 20
113.2343832553
 10
84.3120733528
 20
113.2283772879
 10
84.2968649263
 20
113.2217747093
 10
84.2823115694
 20
113.2145755196
  0
LWPOLYLINE
  5
2D3
100
AcDbEntity
  8
RACCORDO
100
AcDbPolyline
 62
250
  6
CONTINUOUS
 90
18
 70
0
 10
154.5340952394
 20
68.5820537477
 10
154.5117101186
 20
68.6090962241
 10
154.4913004684
 20
68.6371772548
 10
154.4729736665
 20
68.6661491018
 10
154.4568261327
 20
68.6958593408
 10
154.4429428211
 20
68.7261516623
 10
154.4313967735
 20
68.7568666948
 10
154.4222487351
 20
68.7878428426
 10
154.415546835
 20
68.8189171362
 10
154.4113263326
 20
68.8499260901
 10
154.4096094326
 20
68.8807065622
 10
154.4104051679
 20
68.9110966125
 10
154.4137093518
 20
68.9409363553
 10
154.4195046008
 20
68.9700687999
 10
154.4277604252
 20
68.9983406769
 10
154.4384333903
 20
69.0256032444
 10
154.4514673441
 20
69.0517130706
 10
154.4535237047
 20
69.055350401
  0
LWPOLYLINE
  5
2D4
100
AcDbEntity
  8
0
100
AcDbPolyline
 62
250
  6
CONTINUOUS
 90
16
 70
0
 10
136.5648353718
 20
83.2224718167
 10
136.5682137414
 20
83.211645701
 10
136.5703917289
 20
83.2006798913
 10
136.5713430731
 20
83.1897082274
 10
136.5710530241
 20
83.178730807
 10
136.5695363318
 20
83.1677475324
 10
136.5668109841
 20
83.15689195
 10
136.5628601532
 20
83.1461636432
 10
136.5577006669
 20
83.1355630285
 10
136.5514009968
 20
83.1252249022
 10
136.5439469592
 20
83.1151544418
 10
136.5353527378
 20
83.1053464697
 10
136.525729356
 20
83.0959202488
 10
136.5151138214
 20
83.0869155334
 10
136.5034691263
 20
83.0782925693
 10
136.4907952708
 20
83.0700513564
  0
LWPOLYLINE
  5
2D5
100
AcDbEntity
  8
0
100
AcDbPolyline
 62
7
  6
CONTINUOUS
 90
14
 70
0
 10
136.7701527892
 20
83.0227066958
 10
136.7689751163
 20
83.0492350373
 10
136.7654247509
 20
83.0757097512
 10
136.7594734641
 20
83.1020335673
 10
136.7511104553
 20
83.1280416734
 10
136.740366968
 20
83.1535190701
 10
136.7273082238
 20
83.1782531485
 10
136.7119993263
 20
83.2020932464
 10
136.6945098294
 20
83.2249268103
 10
136.6749032475
 20
83.2466634447
 10
136.6532475563
 20
83.2672106951
 10
136.6295808979
 20
83.2865163554
 10
136.6038581728
 20
83.3045786742
 10
136.5822993853
 20
83.3177995098
  0
LWPOLYLINE
  5
2D6
100
AcDbEntity
  8
0
100
AcDbPolyline
 62
250
  6
CONTINUOUS
 90
19
 70
0
 10
136.6358318926
 20
82.8272954931
 10
136.635379162
 20
82.8418879687
 10
136.6338170983
 20
82.8569685741
 10
136.6311575851
 20
82.8724225813
 10
136.6274208551
 20
82.8881324215
 10
136.622635336
 20
82.9039785797
 10
136.6168374345
 20
82.9198405038
 10
136.6100712589
 20
82.9355975218
 10
136.6023882841
 20
82.9511297597
 10
136.5938469593
 20
82.9663190536
 10
136.5845122642
 20
82.9810498486
 10
136.5744552138
 20
82.9952100779
 10
136.5637523186
 20
83.0086920153
 10
136.5524850027
 20
83.021393095
 10
136.5407389838
 20
83.0332166915
 10
136.5286036217
 20
83.044072855
 10
136.5161712379
 20
83.0538789955
 10
136.5035364138
 20
83.0625605113
 10
136.4907952708
 20
83.0700513564
  0
LINE
  5
2D7
100
AcDbEntity
  8
0
100
AcDbLine
 62
250
  6
CONTINUOUS
 10
136.6358318926
 20
82.8272954931
 11
136.6358318926
 21
82.238426667
  0
LINE
  5
2D8
100
AcDbEntity
  8
0
100
AcDbLine
 62
7
  6
CONTINUOUS
 10
136.7701550418
 20
83.0227473152
 11
136.7701550418
 21
82.4410648323
  0
LWPOLYLINE
  5
2D9
100
AcDbEntity
  8
0
100
AcDbPolyline
 62
250
  6
CONTINUOUS
 90
10
 70
0
 10
136.6358318926
 20
82.238426667
 10
136.6356904572
 20
82.2247699653
 10
136.6344385967
 20
82.2118155047
 10
136.6320858259
 20
82.1996617239
 10
136.628650025
 20
82.1884009757
 10
136.6241573043
 20
82.178118829
 10
136.6186418074
 20
82.1688934173
 10
136.6121454487
 20
82.1607948407
 10
136.6047175956
 20
82.1538846358
 10
136.5998760858
 20
82.1503570349
  0
LWPOLYLINE
  5
2DA
100
AcDbEntity
  8
0
100
AcDbPolyline
 62
250
  6
CONTINUOUS
 90
13
 70
0
 10
136.7701550394
 20
83.02271896
 10
136.7696092051
 20
83.0093335229
 10
136.767090962
 20
82.9910120118
 10
136.7625354577
 20
82.9728252653
 10
136.7559593948
 20
82.9548445667
 10
136.7473901532
 20
82.9371480178
 10
136.7368692089
 20
82.9198172421
 10
136.7244466108
 20
82.9029280691
 10
136.7101733458
 20
82.8865442327
 10
136.6941055917
 20
82.8707262034
 10
136.6763083453
 20
82.8555367353
 10
136.6568569438
 20
82.8410400844
 10
136.6358318926
 20
82.8272954931
  0
LINE
  5
2DB
100
AcDbEntity
  8
0
100
AcDbLine
 62
7
  6
CONTINUOUS
 10
74.1386934646
 20
131.8472880812
 11
74.2473986092
 21
131.7845230931
  0
LINE
  5
2DC
100
AcDbEntity
  8
0
100
AcDbLine
 62
7
  6
CONTINUOUS
 10
124.3432749288
 20
102.859791955
 11
124.4519800735
 21
102.7970269668
  0
LINE
  5
2DD
100
AcDbEntity
  8
0
100
AcDbLine
 62
7
  6
CONTINUOUS
 10
174.5478563931
 20
73.8722958287
 11
174.6565615377
 21
73.8095308406
  0
LINE
  5
2DE
100
AcDbEntity
  8
DRAFT
100
AcDbLine
 62
7
  6
CONTINUOUS
 10
224.3988844667
 20
50.13732067
 11
224.7524378573
 21
49.9331833733
  0
LINE
  5
2DF
100
AcDbEntity
  8
0
100
AcDbLine
 62
250
  6
CONTINUOUS
 10
122.2919758731
 20
88.0683118366
 11
124.3432749288
 21
89.2527227591
  0
LINE
  5
2E0
100
AcDbEntity
  8
0
100
AcDbLine
 62
250
  6
CONTINUOUS
 10
122.9062652981
 20
87.1184078935
 11
124.9081851016
 21
88.2742696392
  0
LWPOLYLINE
  5
2E1
100
AcDbEntity
  8
RACCORDO
100
AcDbPolyline
 62
250
  6
CONTINUOUS
 90
14
 70
0
 10
104.2102707801
 20
98.0344991802
 10
104.188362899
 20
98.0285762078
 10
104.1655064191
 20
98.0246054402
 10
104.1417667363
 20
98.0226042957
 10
104.1172196442
 20
98.0225701157
 10
104.0919340392
 20
98.0245050676
 10
104.065991127
 20
98.0284050513
 10
104.0394947308
 20
98.0342336606
 10
104.0125244442
 20
98.0419672018
 10
103.9851656922
 20
98.0515758008
 10
103.9575381246
 20
98.0629847549
 10
103.9297388875
 20
98.0761294285
 10
103.9018393254
 20
98.0909683219
 10
103.8739212542
 20
98.1074440563
  0
LWPOLYLINE
  5
2E2
100
AcDbEntity
  8
RACCORDO
100
AcDbPolyline
 62
250
  6
CONTINUOUS
 90
11
 70
0
 10
154.5340960118
 20
105.5970684647
 10
154.5117107763
 20
105.5966401841
 10
154.4913010111
 20
105.5971785915
 10
154.4729740947
 20
105.5986808541
 10
154.456826448
 20
105.6011390684
 10
154.442943026
 20
105.6045403013
 10
154.4313968716
 20
105.6088666585
 10
154.4222487308
 20
105.6140953782
 10
154.4155467332
 20
105.6201989515
 10
154.4113261391
 20
105.6271452665
 10
154.4107125932
 20
105.6288470595
  0
LWPOLYLINE
  5
2E3
100
AcDbEntity
  8
0
100
AcDbPolyline
 62
250
  6
CONTINUOUS
 90
12
 70
0
 10
175.4150437746
 20
91.83142366
 10
175.3974672228
 20
91.8386644525
 10
175.3789666538
 20
91.8440861159
 10
175.3596117185
 20
91.8476676206
 10
175.3394841137
 20
91.8493933239
 10
175.3186819318
 20
91.8492544288
 10
175.2972958118
 20
91.847256324
 10
175.2754064873
 20
91.8434112185
 10
175.2531012558
 20
91.837733605
 10
175.2304692558
 20
91.8302470785
 10
175.2076015453
 20
91.8209860221
 10
175.1845897066
 20
91.809990514
  0
LWPOLYLINE
  5
2E4
100
AcDbEntity
  8
RACCORDO
100
AcDbPolyline
 62
250
  6
CONTINUOUS
 90
11
 70
0
 10
56.5014915101
 20
162.1998623655
 10
56.4843681338
 20
162.2105182114
 10
56.4688734452
 20
162.2218805716
 10
56.4551176519
 20
162.23386863
 10
56.4431985934
 20
162.2463971204
 10
56.4332010453
 20
162.2593769325
 10
56.4251961162
 20
162.2727157462
 10
56.4192407419
 20
162.2863186876
 10
56.4153772808
 20
162.3000890044
 10
56.4136332121
 20
162.3139287538
 10
56.4135978141
 20
162.3219374701
  0
LWPOLYLINE
  5
2E5
100
AcDbEntity
  8
RACCORDO
100
AcDbPolyline
 62
250
  6
CONTINUOUS
 90
22
 70
0
 10
121.7296235776
 20
124.5379588645
 10
121.7526707025
 20
124.5112986209
 10
121.7774543043
 20
124.4857430551
 10
121.8038439935
 20
124.4614266182
 10
121.8317009306
 20
124.4384772419
 10
121.8608785567
 20
124.4170156659
 10
121.8912233647
 20
124.397154802
 10
121.9225757067
 20
124.3789991409
 10
121.9547706343
 20
124.3626442017
 10
121.9876387657
 20
124.3481760299
 10
122.0210071776
 20
124.3356707441
 10
122.0547003147
 20
124.3251941364
 10
122.088540913
 20
124.3168013254
 10
122.1223509331
 20
124.3105364667
 10
122.1559524961
 20
124.3064325207
 10
122.18916882
 20
124.3045110785
 10
122.2218251495
 20
124.3047822492
 10
122.2537496756
 20
124.3072446061
 10
122.2847744393
 20
124.3118851944
 10
122.3147362156
 20
124.3186795994
 10
122.3434773716
 20
124.3275920748
 10
122.3708466967
 20
124.338575731
  0
LWPOLYLINE
  5
2E6
100
AcDbEntity
  8
RACCORDO
100
AcDbPolyline
 62
7
  6
CONTINUOUS
 90
9
 70
0
 10
154.4709228924
 20
69.2008720358
 10
154.4714888945
 20
69.1750116441
 10
154.4710065329
 20
69.1505580485
 10
154.4696312164
 20
69.1291000904
 10
154.4676101348
 20
69.1107380604
 10
154.4651635538
 20
69.0952464508
 10
154.4624508074
 20
69.0822555048
 10
154.4596596925
 20
69.0716920592
 10
154.4591142022
 20
69.0698819304
  0
LWPOLYLINE
  5
2E7
100
AcDbEntity
  8
RACCORDO
100
AcDbPolyline
 62
250
  6
CONTINUOUS
 90
10
 70
0
 10
154.6173684783
 20
68.9976245845
 10
154.6183354
 20
68.943300039
 10
154.6167212858
 20
68.8908900986
 10
154.6125259623
 20
68.8403946543
 10
154.6057138044
 20
68.791649376
 10
154.5963201443
 20
68.7448184107
 10
154.5844510198
 20
68.7003942229
 10
154.5701414196
 20
68.6585407414
 10
154.5533555351
 20
68.6190935192
 10
154.5340929929
 20
68.5820523197
  0
LWPOLYLINE
  5
2E8
100
AcDbEntity
  8
RACCORDO
100
AcDbPolyline
 62
250
  6
CONTINUOUS
 90
22
 70
0
 10
153.7439607906
 20
68.4968638297
 10
153.7435073426
 20
68.5271694534
 10
153.7450362888
 20
68.5585731547
 10
153.7485390546
 20
68.5908988148
 10
153.7539959957
 20
68.6239651444
 10
153.7613765084
 20
68.6575867004
 10
153.7706392012
 20
68.6915749258
 10
153.781732127
 20
68.7257392074
 10
153.7945930741
 20
68.7598879445
 10
153.8091499157
 20
68.7938296235
 10
153.8253210138
 20
68.8273738922
 10
153.8430156773
 20
68.8603326271
 10
153.8621346709
 20
68.8925209885
 10
153.882570771
 20
68.923758457
 10
153.9042093676
 20
68.9538698463
 10
153.9269291068
 20
68.9826862851
 10
153.9506025713
 20
69.0100461647
 10
153.9750969953
 20
69.0357960448
 10
154.0002750087
 20
69.0597915147
 10
154.0259954078
 20
69.0818980025
 10
154.052113947
 20
69.1019915303
 10
154.078484148
 20
69.1199594092
  0
LINE
  5
2E9
100
AcDbEntity
  8
0
100
AcDbLine
 62
7
  6
CONTINUOUS
 10
152.6022342057
 20
72.4099378423
 11
152.6022342057
 21
72.2840727744
  0
LWPOLYLINE
  5
2EA
100
AcDbEntity
  8
RACCORDO
100
AcDbPolyline
 62
250
  6
CONTINUOUS
 90
13
 70
0
 10
153.7439607906
 20
106.6547256926
 10
153.7435073455
 20
106.6238962603
 10
153.7450363163
 20
106.5942580044
 10
153.7485391241
 20
106.5659771418
 10
153.7539961199
 20
106.5392122766
 10
153.7613766958
 20
106.5141135094
 10
153.7706394559
 20
106.4908215962
 10
153.7817324487
 20
106.4694671601
 10
153.7945934586
 20
106.4501699579
 10
153.8091503559
 20
106.4330382074
 10
153.825321499
 20
106.4181679836
 10
153.8430161941
 20
106.4056426777
 10
153.8469756213
 20
106.4032829615
  0
LWPOLYLINE
  5
2EB
100
AcDbEntity
  8
RACCORDO
100
AcDbPolyline
 62
7
  6
CONTINUOUS
 90
12
 70
0
 10
154.3618917486
 20
102.2244104593
 10
154.270530617
 20
99.1530511638
 10
154.1994601065
 20
96.0938474866
 10
154.1486871208
 20
93.0470302457
 10
154.1182145676
 20
90.0128014335
 10
154.1080444661
 20
86.9913517796
 10
154.1181784716
 20
83.9828799358
 10
154.1486160475
 20
80.987583246
 10
154.1993562735
 20
78.00565065
 10
154.2703973713
 20
75.037280963
 10
154.3617335683
 20
72.0826966635
 10
154.4709236632
 20
69.2008723065
  0
LWPOLYLINE
  5
2EC
100
AcDbEntity
  8
RACCORDO
100
AcDbPolyline
 62
250
  6
CONTINUOUS
 90
13
 70
0
 10
154.6173684783
 20
105.0367555837
 10
154.506505158
 20
101.9642523811
 10
154.4157882236
 20
98.9036629574
 10
154.3452240779
 20
95.8551917795
 10
154.2948178129
 20
92.8190424586
 10
154.2645728759
 20
89.7954180013
 10
154.2544910674
 20
86.7845207946
 10
154.2645728755
 20
83.7865522829
 10
154.2948178121
 20
80.8017128302
 10
154.3452240769
 20
77.8302019695
 10
154.4157882226
 20
74.872218468
 10
154.5065051573
 20
71.9279603154
 10
154.6173684783
 20
68.9976245845
  0
LWPOLYLINE
  5
2ED
100
AcDbEntity
  8
0
100
AcDbPolyline
 62
250
  6
CONTINUOUS
 90
12
 70
0
 10
136.6358318926
 20
82.238426667
 10
136.6568594421
 20
82.252859065
 10
136.676312806
 20
82.2680339431
 10
136.694111488
 20
82.283892022
 10
136.7101801861
 20
82.3003716283
 10
136.7244539003
 20
82.3174073575
 10
136.7368764346
 20
82.3349308483
 10
136.747396852
 20
82.3528782817
 10
136.7559651707
 20
82.3711738492
 10
136.7625399674
 20
82.3897281939
 10
136.7670939451
 20
82.4084627353
 10
136.7696104943
 20
82.4273066324
  0
LWPOLYLINE
  5
2EE
100
AcDbEntity
  8
0
100
AcDbPolyline
 62
7
  6
CONTINUOUS
 90
15
 70
0
 10
136.5998747383
 20
82.1503590731
 10
136.6095079665
 20
82.1568986593
 10
136.6335033426
 20
82.1748345343
 10
136.6555029429
 20
82.1937206534
 10
136.6754943639
 20
82.2134339811
 10
136.6935205418
 20
82.2339101042
 10
136.7096486721
 20
82.2551336862
 10
136.7238629277
 20
82.2769957196
 10
136.736159194
 20
82.2993972694
 10
136.7465705747
 20
82.3223214099
 10
136.7550754908
 20
82.3456351007
 10
136.7616752883
 20
82.3692259933
 10
136.7663948483
 20
82.3930943758
 10
136.7692192726
 20
82.4171073692
 10
136.7701527867
 20
82.4410061847
  0
LINE
  5
2EF
100
AcDbEntity
  8
0
100
AcDbLine
 62
250
  6
CONTINUOUS
 10
136.0418487985
 20
81.8458317582
 11
136.6358318926
 21
82.238426667
  0
LINE
  5
2F0
100
AcDbEntity
  8
0
100
AcDbLine
 62
7
  6
CONTINUOUS
 10
136.0937768037
 20
81.8158491788
 11
136.5998403257
 21
82.1503333826
  0
LINE
  5
2F1
100
AcDbEntity
  8
0
100
AcDbLine
 62
250
  6
CONTINUOUS
 10
136.4907952708
 20
83.0700513564
 11
135.2401313185
 21
82.3087333832
  0
LINE
  5
2F2
100
AcDbEntity
  8
0
100
AcDbLine
 62
250
  6
CONTINUOUS
 10
136.6358318926
 20
82.8272954931
 11
135.519230038
 21
82.1475852806
  0
LINE
  5
2F3
100
AcDbEntity
  8
0
100
AcDbLine
 62
7
  6
CONTINUOUS
 10
133.0888678506
 20
83.5508459479
 11
134.3921816214
 21
84.2398896117
  0
LINE
  5
2F4
100
AcDbEntity
  8
0
100
AcDbLine
 62
250
  6
CONTINUOUS
 10
133.1457201445
 20
83.518020146
 11
134.4868930337
 21
84.2270793933
  0
LWPOLYLINE
  5
2F5
100
AcDbEntity
  8
0
100
AcDbPolyline
 62
250
  6
CONTINUOUS
 90
25
 70
0
 10
134.4868930337
 20
84.2270793933
 10
134.5014035251
 20
84.2342601555
 10
134.516571947
 20
84.2408485639
 10
134.5323982993
 20
84.2468446184
 10
134.5489523658
 20
84.252269149
 10
134.5661643626
 20
84.2571013257
 10
134.5838249384
 20
84.261278659
 10
134.6019430149
 20
84.2647929856
 10
134.6205096703
 20
84.2676524687
 10
134.6392887878
 20
84.2698191085
 10
134.6582794916
 20
84.2712832782
 10
134.6774826576
 20
84.2720546046
 10
134.6966647972
 20
84.2721239687
 10
134.7158259515
 20
84.2714829281
 10
134.7349660795
 20
84.2701399251
 10
134.7538515693
 20
84.2681111673
 10
134.7724803722
 20
84.2653877824
 10
134.790854537
 20
84.2619786428
 10
134.8087465984
 20
84.2579265732
 10
134.8261509307
 20
84.2532229529
 10
134.8430731596
 20
84.2478764027
 10
134.8593026974
 20
84.24195561
 10
134.8747693481
 20
84.2354834707
 10
134.8895433076
 20
84.2284370889
 10
134.903624576
 20
84.2208164646
  0
LWPOLYLINE
  5
2F6
100
AcDbEntity
  8
0
100
AcDbPolyline
 62
250
  6
CONTINUOUS
 90
10
 70
0
 10
134.3921816214
 20
84.2398896117
 10
134.3989428902
 20
84.2429707902
 10
134.4084479266
 20
84.2458360332
 10
134.418540336
 20
84.2473109278
 10
134.4291433351
 20
84.2473842616
 10
134.4401762595
 20
84.2460554848
 10
134.4515551769
 20
84.2433347127
 10
134.463193522
 20
84.2392426497
 10
134.4750027538
 20
84.2338104328
 10
134.4868930337
 20
84.2270793933
  0
LWPOLYLINE
  5
2F7
100
AcDbEntity
  8
RACCORDO
100
AcDbPolyline
 62
7
  6
CONTINUOUS
 90
16
 70
0
 10
172.7100919356
 20
95.46932831
 10
172.7098448725
 20
95.4692448768
 10
172.7099607512
 20
95.4692549426
 10
172.7115183955
 20
95.4695243357
 10
172.7153125051
 20
95.4699032562
 10
172.7216811668
 20
95.4700455782
 10
172.7304730052
 20
95.4695978797
 10
172.7416690918
 20
95.4682559457
 10
172.7552556324
 20
95.4657325401
 10
172.7710175552
 20
95.4618100727
 10
172.7886074256
 20
95.4563653386
 10
172.8078492688
 20
95.4492798654
 10
172.8285618068
 20
95.44046887
 10
172.8504425144
 20
95.4299374101
 10
172.8732984063
 20
95.4176801287
 10
172.8792690808
 20
95.4142748639
  0
LWPOLYLINE
  5
2F8
100
AcDbEntity
  8
0
100
AcDbPolyline
 62
250
  6
CONTINUOUS
 90
12
 70
0
 10
125.2104623103
 20
120.8189197863
 10
125.1928857586
 20
120.8261605788
 10
125.1743851895
 20
120.8315822422
 10
125.1550302542
 20
120.8351637469
 10
125.1349026494
 20
120.8368894502
 10
125.1141004676
 20
120.8367505551
 10
125.0927143476
 20
120.8347524502
 10
125.0708250231
 20
120.8309073448
 10
125.0485197916
 20
120.8252297312
 10
125.0258877915
 20
120.8177432047
 10
125.003020081
 20
120.8084821484
 10
124.9800082424
 20
120.7974866402
  0
LWPOLYLINE
  5
2F9
100
AcDbEntity
  8
0
100
AcDbPolyline
 62
250
  6
CONTINUOUS
 90
13
 70
0
 10
175.9309757748
 20
91.5341610855
 10
175.9191767473
 20
91.5403490817
 10
175.9020573098
 20
91.5473339373
 10
175.884037301
 20
91.5524872354
 10
175.8651915455
 20
91.5557876654
 10
175.8455972317
 20
91.5572217723
 10
175.8253331598
 20
91.5567842363
 10
175.804479026
 20
91.5544759219
 10
175.7831242811
 20
91.5503059004
 10
175.7613666024
 20
91.5442952318
 10
175.7392993857
 20
91.5364727014
 10
175.7170105974
 20
91.5268715639
 10
175.6945920605
 20
91.5155333778
  0
LWPOLYLINE
  5
2FA
100
AcDbEntity
  8
0
100
AcDbPolyline
 62
250
  6
CONTINUOUS
 90
13
 70
0
 10
125.7263943106
 20
120.5216572118
 10
125.7145952831
 20
120.527845208
 10
125.6974758455
 20
120.5348300636
 10
125.6794558367
 20
120.5399833617
 10
125.6606100813
 20
120.5432837916
 10
125.6410157674
 20
120.5447178985
 10
125.6207516956
 20
120.5442803626
 10
125.5998975617
 20
120.5419720482
 10
125.5785428168
 20
120.5378020266
 10
125.5567851382
 20
120.5317913581
 10
125.5347179215
 20
120.5239688276
 10
125.5124291331
 20
120.5143676902
 10
125.4900105963
 20
120.5030295041
  0
LWPOLYLINE
  5
2FB
100
AcDbEntity
  8
0
100
AcDbPolyline
 62
250
  6
CONTINUOUS
 90
13
 70
0
 10
75.5218128463
 20
149.5091533381
 10
75.5100138188
 20
149.5153413342
 10
75.4928943813
 20
149.5223261899
 10
75.4748743725
 20
149.527479488
 10
75.456028617
 20
149.5307799179
 10
75.4364343032
 20
149.5322140248
 10
75.4161702314
 20
149.5317764889
 10
75.3953160975
 20
149.5294681745
 10
75.3739613526
 20
149.5252981529
 10
75.352203674
 20
149.5192874843
 10
75.3301364572
 20
149.5114649539
 10
75.3078476689
 20
149.5018638165
 10
75.285429132
 20
149.4905256303
  0
LWPOLYLINE
  5
2FC
100
AcDbEntity
  8
0
100
AcDbPolyline
 62
7
  6
CONTINUOUS
 90
15
 70
0
 10
175.4271924022
 20
91.8250366916
 10
175.4065061236
 20
91.8359498634
 10
175.3843630587
 20
91.8455302378
 10
175.3613973795
 20
91.8534055013
 10
175.3377305461
 20
91.8595219576
 10
175.3133519835
 20
91.8638578173
 10
175.2883579814
 20
91.8663560895
 10
175.2628738681
 20
91.8669689402
 10
175.236899958
 20
91.8656598188
 10
175.210523679
 20
91.8623837361
 10
175.1838470417
 20
91.8571007623
 10
175.1568522826
 20
91.8497467898
 10
175.1295743035
 20
91.8402546895
 10
175.102124131
 20
91.8285751874
 10
175.0903251132
 20
91.8228857003
  0
LWPOLYLINE
  5
2FD
100
AcDbEntity
  8
0
100
AcDbPolyline
 62
7
  6
CONTINUOUS
 90
15
 70
0
 10
125.2226109379
 20
120.8125328178
 10
125.2019246594
 20
120.8234459897
 10
125.1797815945
 20
120.8330263641
 10
125.1568159152
 20
120.8409016275
 10
125.1331490818
 20
120.8470180839
 10
125.1087705193
 20
120.8513539435
 10
125.0837765172
 20
120.8538522158
 10
125.0582924039
 20
120.8544650664
 10
125.0323184938
 20
120.853155945
 10
125.0059422148
 20
120.8498798623
 10
124.9792655774
 20
120.8445968885
 10
124.9522708184
 20
120.8372429161
 10
124.9249928393
 20
120.8277508157
 10
124.8975426668
 20
120.8160713136
 10
124.8857436489
 20
120.8103818266
  0
LWPOLYLINE
  5
2FE
100
AcDbEntity
  8
RACCORDO
100
AcDbPolyline
 62
250
  6
CONTINUOUS
 90
19
 70
0
 10
219.7622228335
 20
67.9351622403
 10
219.7808483516
 20
67.9251771226
 10
219.8008482896
 20
67.9160453301
 10
219.8220803959
 20
67.9078318138
 10
219.8443936548
 20
67.900594993
 10
219.8676293611
 20
67.8943863404
 10
219.8916222482
 20
67.8892500158
 10
219.9162016644
 20
67.8852225517
 10
219.9411927858
 20
67.882332594
 10
219.9664178606
 20
67.8806006977
 10
219.9916974727
 20
67.8800391812
 10
220.0168518183
 20
67.8806520383
 10
220.0417019845
 20
67.8824349099
 10
220.0660712217
 20
67.8853751153
 10
220.0897862014
 20
67.8894517419
 10
220.1126782481
 20
67.8946357943
 10
220.1345845399
 20
67.9008904003
 10
220.1553492659
 20
67.9081710735
 10
220.1748247348
 20
67.9164260292
  0
LWPOLYLINE
  5
2FF
100
AcDbEntity
  8
RACCORDO
100
AcDbPolyline
 62
250
  6
CONTINUOUS
 90
22
 70
0
 10
171.8088656506
 20
95.1106032921
 10
171.8353279452
 20
95.0962578686
 10
171.8634975483
 20
95.0829483907
 10
171.8932272326
 20
95.0707444195
 10
171.9243616175
 20
95.0597097387
 10
171.9567379804
 20
95.0499020204
 10
171.990187108
 20
95.0413725242
 10
172.0245341799
 20
95.0341658291
 10
172.0595996827
 20
95.0283196006
 10
172.0952003482
 20
95.0238643938
 10
172.1311501114
 20
95.0208234935
 10
172.1672610823
 20
95.0192127929
 10
172.2033445288
 20
95.0190407102
 10
172.2392118623
 20
95.0203081448
 10
172.2746756241
 20
95.0230084725
 10
172.3095504643
 20
95.0271275802
 10
172.3436541113
 20
95.0326439396
 10
172.3768083241
 20
95.0395287196
 10
172.4088398235
 20
95.0477459373
 10
172.4395811986
 20
95.0572526458
 10
172.468871781
 20
95.0679991588
 10
172.4965584849
 20
95.07992931
  0
LWPOLYLINE
  5
300
100
AcDbEntity
  8
RACCORDO
100
AcDbPolyline
 62
250
  6
CONTINUOUS
 90
22
 70
0
 10
121.6042841863
 20
124.0980994183
 10
121.630746481
 20
124.0837539949
 10
121.658916084
 20
124.0704445169
 10
121.6886457684
 20
124.0582405458
 10
121.7197801532
 20
124.047205865
 10
121.7521565162
 20
124.0373981466
 10
121.7856056437
 20
124.0288686505
 10
121.8199527156
 20
124.0216619554
 10
121.8550182184
 20
124.0158157269
 10
121.890618884
 20
124.0113605201
 10
121.9265686471
 20
124.0083196198
 10
121.9626796181
 20
124.0067089191
 10
121.9987630645
 20
124.0065368364
 10
122.0346303981
 20
124.007804271
 10
122.0700941598
 20
124.0105045987
 10
122.1049690001
 20
124.0146237065
 10
122.1390726471
 20
124.0201400658
 10
122.1722268598
 20
124.0270248459
 10
122.2042583593
 20
124.0352420636
 10
122.2349997344
 20
124.0447487721
 10
122.2642903168
 20
124.055495285
 10
122.2919770206
 20
124.0674254363
  0
LWPOLYLINE
  5
301
100
AcDbEntity
  8
RACCORDO
100
AcDbPolyline
 62
250
  6
CONTINUOUS
 90
22
 70
0
 10
71.3997027221
 20
153.0855955446
 10
71.4261650167
 20
153.0712501212
 10
71.4543346198
 20
153.0579406432
 10
71.4840643041
 20
153.0457366721
 10
71.515198689
 20
153.0347019912
 10
71.5475750519
 20
153.0248942729
 10
71.5810241795
 20
153.0163647767
 10
71.6153712514
 20
153.0091580817
 10
71.6504367542
 20
153.0033118532
 10
71.6860374197
 20
152.9988566463
 10
71.7219871829
 20
152.995815746
 10
71.7580981538
 20
152.9942050454
 10
71.7941816003
 20
152.9940329627
 10
71.8300489338
 20
152.9953003973
 10
71.8655126956
 20
152.998000725
 10
71.9003875358
 20
153.0021198327
 10
71.9344911828
 20
153.0076361921
 10
71.9676453956
 20
153.0145209721
 10
71.999676895
 20
153.0227381899
 10
72.0304182701
 20
153.0322448984
 10
72.0597088525
 20
153.0429914113
 10
72.0873955564
 20
153.0549215625
  0
LWPOLYLINE
  5
302
100
AcDbEntity
  8
0
100
AcDbPolyline
 62
7
  6
CONTINUOUS
 90
14
 70
0
 10
75.0181522949
 20
149.7999574307
 10
75.0104143433
 20
149.804280283
 10
74.9858013805
 20
149.8161903292
 10
74.9601274553
 20
149.8259161245
 10
74.9333861912
 20
149.8334260588
 10
74.9057332726
 20
149.8386308431
 10
74.8773526662
 20
149.8414567492
 10
74.8482322402
 20
149.8418471473
 10
74.8184973058
 20
149.8397252664
 10
74.7883178236
 20
149.8350378235
 10
74.757683351
 20
149.8276975171
 10
74.7266518538
 20
149.8176020926
 10
74.6953904916
 20
149.8046896551
 10
74.6811752975
 20
149.7978873872
  0
LWPOLYLINE
  5
303
100
AcDbEntity
  8
0
100
AcDbPolyline
 62
250
  6
CONTINUOUS
 90
10
 70
0
 10
175.1845897066
 20
91.809990514
 10
175.1726916019
 20
91.816697073
 10
175.1608464044
 20
91.8220909304
 10
175.1491441237
 20
91.8261310994
 10
175.1376736832
 20
91.8287868795
 10
175.1265222445
 20
91.8300380898
 10
175.1157745455
 20
91.8298752227
 10
175.1055122558
 20
91.8282995157
 10
175.0958133568
 20
91.8253229424
 10
175.0903240214
 20
91.8228878865
  0
LWPOLYLINE
  5
304
100
AcDbEntity
  8
0
100
AcDbPolyline
 62
250
  6
CONTINUOUS
 90
10
 70
0
 10
124.9800082424
 20
120.7974866402
 10
124.9681101376
 20
120.8041931992
 10
124.9562649402
 20
120.8095870567
 10
124.9445626595
 20
120.8136272257
 10
124.9330922189
 20
120.8162830057
 10
124.9219407803
 20
120.817534216
 10
124.9111930812
 20
120.8173713489
 10
124.9009307916
 20
120.815795642
 10
124.8912318925
 20
120.8128190687
 10
124.8857425572
 20
120.8103840128
  0
LINE
  5
305
100
AcDbEntity
  8
0
100
AcDbLine
 62
250
  6
CONTINUOUS
 10
175.1845897066
 20
91.809990514
 11
175.694592023
 21
91.5155333997
  0
LINE
  5
306
100
AcDbEntity
  8
0
100
AcDbLine
 62
250
  6
CONTINUOUS
 10
74.775437796
 20
149.7849882695
 11
75.2854290945
 21
149.4905256522
  0
LINE
  5
307
100
AcDbEntity
  8
0
100
AcDbLine
 62
250
  6
CONTINUOUS
 10
124.9800082424
 20
120.7974866402
 11
125.4900105587
 21
120.503029526
  0
LINE
  5
308
100
AcDbEntity
  8
0
100
AcDbLine
 62
7
  6
CONTINUOUS
 10
75.0180798958
 20
149.800002436
 11
75.5218473214
 21
149.5091334382
  0
LINE
  5
309
100
AcDbEntity
  8
0
100
AcDbLine
 62
7
  6
CONTINUOUS
 10
125.2226611246
 20
120.8125064457
 11
125.7264287856
 21
120.5216373119
  0
LINE
  5
30A
100
AcDbEntity
  8
0
100
AcDbLine
 62
7
  6
CONTINUOUS
 10
175.4272046773
 20
91.8250322025
 11
175.9310102498
 21
91.5341411856
  0
LINE
  5
30B
100
AcDbEntity
  8
0
100
AcDbLine
 62
7
  6
CONTINUOUS
 10
75.5218472229
 20
149.509133495
 11
75.5218128463
 21
149.5091533381
  0
LINE
  5
30C
100
AcDbEntity
  8
RACCORDO
100
AcDbLine
 62
250
  6
CONTINUOUS
 10
171.9342027953
 20
95.550461572
 11
154.5340929929
 21
105.5970668973
  0
LINE
  5
30D
100
AcDbEntity
  8
RACCORDO
100
AcDbLine
 62
250
  6
CONTINUOUS
 10
121.7296213311
 20
124.5379576983
 11
104.3295115286
 21
134.5845630236
  0
LINE
  5
30E
100
AcDbEntity
  8
RACCORDO
100
AcDbLine
 62
250
  6
CONTINUOUS
 10
219.7622206136
 20
67.9351140772
 11
204.7386744571
 21
76.609570771
  0
LINE
  5
30F
100
AcDbEntity
  8
RACCORDO
100
AcDbLine
 62
250
  6
CONTINUOUS
 10
71.5250398668
 20
153.5254538245
 11
56.5014896041
 21
162.1998141514
  0
LINE
  5
310
100
AcDbEntity
  8
RACCORDO
100
AcDbLine
 62
7
  6
CONTINUOUS
 10
204.0515570856
 20
77.4157868353
 11
204.0515949706
 21
77.4157649676
  0
LINE
  5
311
100
AcDbEntity
  8
RACCORDO
100
AcDbLine
 62
7
  6
CONTINUOUS
 10
72.4701844305
 20
153.3892223044
 11
103.6423941571
 21
135.3907790878
  0
LINE
  5
312
100
AcDbEntity
  8
RACCORDO
100
AcDbLine
 62
7
  6
CONTINUOUS
 10
122.6747658947
 20
124.4017261782
 11
153.8469756213
 21
106.4032829615
  0
LINE
  5
313
100
AcDbEntity
  8
RACCORDO
100
AcDbLine
 62
7
  6
CONTINUOUS
 10
172.879347359
 20
95.4142300519
 11
204.0515570856
 21
77.4157868353
  0
LINE
  5
314
100
AcDbEntity
  8
RACCORDO
100
AcDbLine
 62
7
  6
CONTINUOUS
 10
103.6423941571
 20
135.3907790878
 11
103.6424320421
 21
135.3907572201
  0
LINE
  5
315
100
AcDbEntity
  8
RACCORDO
100
AcDbLine
 62
250
  6
CONTINUOUS
 10
72.3671695984
 20
153.6406650363
 11
103.5393793264
 21
135.6422218189
  0
LINE
  5
316
100
AcDbEntity
  8
RACCORDO
100
AcDbLine
 62
250
  6
CONTINUOUS
 10
122.5717510627
 20
124.65316891
 11
153.7439607906
 21
106.6547256926
  0
LINE
  5
317
100
AcDbEntity
  8
RACCORDO
100
AcDbLine
 62
250
  6
CONTINUOUS
 10
172.7763325269
 20
95.6656727838
 11
203.9485422549
 21
77.6672295664
  0
LWPOLYLINE
  5
318
100
AcDbEntity
  8
RACCORDO
100
AcDbPolyline
 62
7
  6
CONTINUOUS
 90
23
 70
0
 10
103.6424315838
 20
135.390756425
 10
103.6501919374
 20
135.3862060798
 10
103.6774563007
 20
135.3691404914
 10
103.7060597143
 20
135.3494713319
 10
103.7357663444
 20
135.3271651986
 10
103.7662446252
 20
135.3022991944
 10
103.7972965668
 20
135.2748836236
 10
103.8287360601
 20
135.2449389469
 10
103.8602731444
 20
135.2126125187
 10
103.8917169319
 20
135.1779885617
 10
103.9228871077
 20
135.1411616708
 10
103.9535409269
 20
135.102328298
 10
103.9835051065
 20
135.0616332291
 10
104.0126226725
 20
135.0192223594
 10
104.0407054644
 20
134.9753143016
 10
104.0676084572
 20
134.9300944718
 10
104.0932015468
 20
134.8837490668
 10
104.1173449187
 20
134.83651173
 10
104.1399298057
 20
134.7885904964
 10
104.1608595065
 20
134.7401975764
 10
104.1800355526
 20
134.6915864096
 10
104.1973824005
 20
134.6429990749
 10
104.206128479
 20
134.6163522296
  0
LWPOLYLINE
  5
319
100
AcDbEntity
  8
RACCORDO
100
AcDbPolyline
 62
7
  6
CONTINUOUS
 90
23
 70
0
 10
153.8470130481
 20
106.4032602987
 10
153.8547734016
 20
106.3987099535
 10
153.8820377649
 20
106.3816443651
 10
153.9106411786
 20
106.3619752057
 10
153.9403478086
 20
106.3396690723
 10
153.9708260895
 20
106.3148030682
 10
154.001878031
 20
106.2873874973
 10
154.0333175244
 20
106.2574428206
 10
154.0648546087
 20
106.2251163925
 10
154.0962983962
 20
106.1904924354
 10
154.1274685719
 20
106.1536655445
 10
154.1581223911
 20
106.1148321717
 10
154.1880865708
 20
106.0741371028
 10
154.2172041367
 20
106.0317262331
 10
154.2452869287
 20
105.9878181754
 10
154.2721899215
 20
105.9425983455
 10
154.297783011
 20
105.8962529405
 10
154.3219263829
 20
105.8490156037
 10
154.34451127
 20
105.8010943701
 10
154.3654409708
 20
105.7527014501
 10
154.3846170169
 20
105.7040902833
 10
154.4019638647
 20
105.6555029486
 10
154.4107099432
 20
105.6288561033
  0
LWPOLYLINE
  5
31A
100
AcDbEntity
  8
RACCORDO
100
AcDbPolyline
 62
7
  6
CONTINUOUS
 90
23
 70
0
 10
204.0515945123
 20
77.4157641725
 10
204.0593548659
 20
77.4112138272
 10
204.0866192292
 20
77.3941482388
 10
204.1152226428
 20
77.3744790794
 10
204.1449292729
 20
77.352172946
 10
204.1754075537
 20
77.3273069419
 10
204.2064594953
 20
77.299891371
 10
204.2378989886
 20
77.2699466944
 10
204.2694360729
 20
77.2376202662
 10
204.3008798604
 20
77.2029963092
 10
204.3320500361
 20
77.1661694182
 10
204.3627038554
 20
77.1273360455
 10
204.392668035
 20
77.0866409765
 10
204.421785601
 20
77.0442301068
 10
204.4498683929
 20
77.0003220491
 10
204.4767713857
 20
76.9551022193
 10
204.5023644752
 20
76.9087568143
 10
204.5265078472
 20
76.8615194774
 10
204.5490927342
 20
76.8135982438
 10
204.570022435
 20
76.7652053238
 10
204.5891984811
 20
76.7165941571
 10
204.606545329
 20
76.6680068223
 10
204.6152914075
 20
76.6413599771
  0
LWPOLYLINE
  5
31B
100
AcDbEntity
  8
RACCORDO
100
AcDbPolyline
 62
250
  6
CONTINUOUS
 90
20
 70
0
 10
103.5393793264
 20
135.6422218189
 10
103.5862392975
 20
135.613757491
 10
103.6328135104
 20
135.582499383
 10
103.6791021861
 20
135.5484476085
 10
103.7252546247
 20
135.5115103936
 10
103.7711224187
 20
135.4717799716
 10
103.8162594489
 20
135.4295325805
 10
103.8606804678
 20
135.3847045597
 10
103.9043725148
 20
135.3373604927
 10
103.9468480486
 20
135.2879690595
 10
103.9880705584
 20
135.2365205896
 10
104.0280790424
 20
135.1830260369
 10
104.0664992002
 20
135.127985008
 10
104.103308338
 20
135.0713854977
 10
104.1385320502
 20
135.0132410115
 10
104.1718682444
 20
134.9540893077
 10
104.2032988809
 20
134.8939093405
 10
104.2328449805
 20
134.8327237031
 10
104.2602625726
 20
134.7711353709
 10
104.2854710544
 20
134.7093457122
  0
LWPOLYLINE
  5
31C
100
AcDbEntity
  8
RACCORDO
100
AcDbPolyline
 62
250
  6
CONTINUOUS
 90
20
 70
0
 10
153.7439607906
 20
106.6547256926
 10
153.7908207618
 20
106.6262613647
 10
153.8373949746
 20
106.5950032567
 10
153.8836836504
 20
106.5609514822
 10
153.9298360889
 20
106.5240142674
 10
153.9757038829
 20
106.4842838454
 10
154.0208409131
 20
106.4420364542
 10
154.065261932
 20
106.3972084334
 10
154.1089539791
 20
106.3498643664
 10
154.1514295129
 20
106.3004729332
 10
154.1926520227
 20
106.2490244633
 10
154.2326605066
 20
106.1955299106
 10
154.2710806644
 20
106.1404888817
 10
154.3078898022
 20
106.0838893714
 10
154.3431135144
 20
106.0257448852
 10
154.3764497086
 20
105.9665931814
 10
154.4078803452
 20
105.9064132142
 10
154.4374264448
 20
105.8452275768
 10
154.4648440369
 20
105.7836392446
 10
154.4900525186
 20
105.7218495859
  0
LWPOLYLINE
  5
31D
100
AcDbEntity
  8
RACCORDO
100
AcDbPolyline
 62
250
  6
CONTINUOUS
 90
20
 70
0
 10
203.9485422549
 20
77.6672295664
 10
203.995402226
 20
77.6387652385
 10
204.0419764389
 20
77.6075071304
 10
204.0882651146
 20
77.5734553559
 10
204.1344175532
 20
77.5365181411
 10
204.1802853471
 20
77.4967877191
 10
204.2254223774
 20
77.4545403279
 10
204.2698433963
 20
77.4097123072
 10
204.3135354433
 20
77.3623682401
 10
204.3560109771
 20
77.312976807
 10
204.3972334869
 20
77.261528337
 10
204.4372419709
 20
77.2080337844
 10
204.4756621286
 20
77.1529927555
 10
204.5124712665
 20
77.0963932451
 10
204.5476949787
 20
77.0382487589
 10
204.5810311729
 20
76.9790970551
 10
204.6124618094
 20
76.918917088
 10
204.642007909
 20
76.8577314506
 10
204.6694255011
 20
76.7961431184
 10
204.6946339828
 20
76.7343534596
  0
LWPOLYLINE
  5
31E
100
AcDbEntity
  8
RACCORDO
100
AcDbPolyline
 62
250
  6
CONTINUOUS
 90
13
 70
0
 10
104.4127870239
 20
134.0242517152
 10
104.3881636838
 20
134.039402784
 10
104.3655146176
 20
134.0554356426
 10
104.344958198
 20
134.072266497
 10
104.3266018607
 20
134.0898073827
 10
104.3105415432
 20
134.1079666241
 10
104.2968611827
 20
134.1266493142
 10
104.2856322783
 20
134.1457578099
 10
104.2769135163
 20
134.1651922429
 10
104.2707504645
 20
134.1848510414
 10
104.2671753334
 20
134.2046314608
 10
104.2662068079
 20
134.2244301211
 10
104.2663002788
 20
134.2277477824
  0
LWPOLYLINE
  5
31F
100
AcDbEntity
  8
RACCORDO
100
AcDbPolyline
 62
250
  6
CONTINUOUS
 90
13
 70
0
 10
154.6173684882
 20
105.0367555889
 10
154.5927451481
 20
105.0519066578
 10
154.5700960818
 20
105.0679395164
 10
154.5495396622
 20
105.0847703708
 10
154.531183325
 20
105.1023112564
 10
154.5151230074
 20
105.1204704978
 10
154.501442647
 20
105.1391531879
 10
154.4902137425
 20
105.1582616836
 10
154.4814949806
 20
105.1776961166
 10
154.4753319288
 20
105.1973549151
 10
154.4717567976
 20
105.2171353346
 10
154.4707882721
 20
105.2369339949
 10
154.470881743
 20
105.2402516561
  0
LWPOLYLINE
  5
320
100
AcDbEntity
  8
RACCORDO
100
AcDbPolyline
 62
250
  6
CONTINUOUS
 90
13
 70
0
 10
204.8219499524
 20
76.0492594626
 10
204.7973266123
 20
76.0644105315
 10
204.7746775461
 20
76.0804433901
 10
204.7541211264
 20
76.0972742445
 10
204.7357647892
 20
76.1148151301
 10
204.7197044717
 20
76.1329743716
 10
204.7060241112
 20
76.1516570616
 10
204.6947952067
 20
76.1707655574
 10
204.6860764448
 20
76.1901999904
 10
204.679913393
 20
76.2098587888
 10
204.6763382619
 20
76.2296392083
 10
204.6753697364
 20
76.2494378686
 10
204.6754632072
 20
76.2527555298
  0
LWPOLYLINE
  5
321
100
AcDbEntity
  8
RACCORDO
100
AcDbPolyline
 62
250
  6
CONTINUOUS
 90
18
 70
0
 10
204.7386767037
 20
39.5945576215
 10
204.7162915828
 20
39.6216000979
 10
204.6958819326
 20
39.6496811285
 10
204.6775551308
 20
39.6786529756
 10
204.6614075969
 20
39.7083632145
 10
204.6475242853
 20
39.738655536
 10
204.6359782377
 20
39.7693705685
 10
204.6268301994
 20
39.8003467163
 10
204.6201282992
 20
39.83142101
 10
204.6159077969
 20
39.8624299638
 10
204.6141908969
 20
39.8932104359
 10
204.6149866321
 20
39.9236004862
 10
204.618290816
 20
39.953440229
 10
204.624086065
 20
39.9825726736
 10
204.6323418895
 20
40.0108445506
 10
204.6430148545
 20
40.0381071181
 10
204.6560488083
 20
40.0642169444
 10
204.6581051689
 20
40.0678542747
  0
LWPOLYLINE
  5
322
100
AcDbEntity
  8
RACCORDO
100
AcDbPolyline
 62
250
  6
CONTINUOUS
 90
10
 70
0
 10
172.5754265061
 20
58.75231934
 10
172.5604994232
 20
58.789909783
 10
172.547028645
 20
58.827494294
 10
172.5350549512
 20
58.8649649917
 10
172.5246074111
 20
58.9022368023
 10
172.5157295449
 20
58.9391781148
 10
172.5084697736
 20
58.9756144502
 10
172.5028503796
 20
59.0114213006
 10
172.4988768933
 20
59.0465210538
 10
172.4965577811
 20
59.080815966
  0
LWPOLYLINE
  5
323
100
AcDbEntity
  8
RACCORDO
100
AcDbPolyline
 62
250
  6
CONTINUOUS
 90
10
 70
0
 10
171.9342027953
 20
58.5354469943
 10
171.9105610681
 20
58.5971395909
 10
171.8893037191
 20
58.6584674359
 10
171.8704311351
 20
58.719430774
 10
171.8538856199
 20
58.7802556763
 10
171.8397257197
 20
58.8407166093
 10
171.8281259604
 20
58.900136269
 10
171.8191445304
 20
58.9582888947
 10
171.812723543
 20
59.0154004359
 10
171.8088631776
 20
59.0714710051
  0
LWPOLYLINE
  5
324
100
AcDbEntity
  8
RACCORDO
100
AcDbPolyline
 62
250
  6
CONTINUOUS
 90
3
 70
0
 10
154.4900525186
 20
105.7218495859
 10
154.5131350427
 20
105.6596585625
 10
154.5340929929
 20
105.5970668973
  0
LWPOLYLINE
  5
325
100
AcDbEntity
  8
RACCORDO
100
AcDbPolyline
 62
7
  6
CONTINUOUS
 90
13
 70
0
 10
154.4107125932
 20
105.6288470595
 10
154.4236943531
 20
105.5857738979
 10
154.4341695407
 20
105.5469092048
 10
154.4432848312
 20
105.5087864022
 10
154.4510608684
 20
105.4715108699
 10
154.4575247358
 20
105.4351820777
 10
154.4627057453
 20
105.3999199893
 10
154.4666396548
 20
105.3658596508
 10
154.4693763819
 20
105.3330920304
 10
154.4709719602
 20
105.301713455
 10
154.4714898889
 20
105.2718657458
 10
154.4710070268
 20
105.2436480542
 10
154.3618917486
 20
102.2244104593
  0
LWPOLYLINE
  5
326
100
AcDbEntity
  8
RACCORDO
100
AcDbPolyline
 62
250
  6
CONTINUOUS
 90
10
 70
0
 10
154.5340929929
 20
105.5970668973
 10
154.5533216776
 20
105.5328236139
 10
154.5700860108
 20
105.4688990902
 10
154.5843863795
 20
105.405293528
 10
154.5962637663
 20
105.3417705674
 10
154.6056780386
 20
105.2785670125
 10
154.6125076855
 20
105.2163926943
 10
154.6167122156
 20
105.1554842306
 10
154.6183324204
 20
105.0956051623
 10
154.6173684783
 20
105.0367555837
  0
LWPOLYLINE
  5
327
100
AcDbEntity
  8
RACCORDO
100
AcDbPolyline
 62
7
  6
CONTINUOUS
 90
5
 70
0
 10
154.4591142022
 20
69.0698819304
 10
154.4570498271
 20
69.0636754864
 10
154.4549528437
 20
69.0583532586
 10
154.4537613742
 20
69.055800626
 10
154.4536180962
 20
69.0555149884
  0
LINE
  5
328
100
AcDbEntity
  8
0
100
AcDbLine
 62
250
  6
CONTINUOUS
 10
175.694592023
 20
91.5155333997
 11
174.5478563931
 21
90.8884100099
  0
LINE
  5
329
100
AcDbEntity
  8
0
100
AcDbLine
 62
250
  6
CONTINUOUS
 10
175.832296055
 20
91.268544103
 11
174.5478563931
 21
90.5661135394
  0
LINE
  5
32A
100
AcDbEntity
  8
0
100
AcDbLine
 62
7
  6
CONTINUOUS
 10
175.0902885642
 20
91.8228701902
 11
174.5478563931
 21
91.5519462881
  0
LINE
  5
32B
100
AcDbEntity
  8
0
100
AcDbLine
 62
250
  6
CONTINUOUS
 10
175.1845897066
 20
91.809990514
 11
174.5478563931
 21
91.4919668364
  0
LINE
  5
32C
100
AcDbEntity
  8
RACCORDO
100
AcDbLine
 62
7
  6
CONTINUOUS
 10
172.7109782009
 20
95.4696734729
 11
172.7114526017
 21
95.4698933049
  0
LINE
  5
32D
100
AcDbEntity
  8
0
100
AcDbLine
 62
250
  6
CONTINUOUS
 10
172.4965567482
 20
95.0799411716
 11
173.0306270766
 21
95.3268830389
  0
LWPOLYLINE
  5
32E
100
AcDbEntity
  8
RACCORDO
100
AcDbPolyline
 62
250
  6
CONTINUOUS
 90
22
 70
0
 10
71.5250426402
 20
116.5104410095
 10
71.5480897172
 20
116.5112514338
 10
71.5728732783
 20
116.5132384068
 10
71.5992629338
 20
116.5163914747
 10
71.6271198439
 20
116.5206940488
 10
71.6562974494
 20
116.5261234926
 10
71.6866422427
 20
116.5326512412
 10
71.7179945755
 20
116.5402429509
 10
71.7501894988
 20
116.5488586809
 10
71.7830576305
 20
116.5584531025
 10
71.8164260466
 20
116.5689757382
 10
71.8501191911
 20
116.5803712267
 10
71.8839597995
 20
116.5925796149
 10
71.9177698317
 20
116.6055366727
 10
71.9513714082
 20
116.6191742312
 10
71.9845877462
 20
116.6334205411
 10
72.01724409
 20
116.6482006508
 10
72.0491686298
 20
116.6634367998
 10
72.080193406
 20
116.6790488288
 10
72.1101551928
 20
116.6949546005
 10
72.1388963571
 20
116.7110704324
 10
72.1662656874
 20
116.727311537
  0
LWPOLYLINE
  5
32F
100
AcDbEntity
  8
RACCORDO
100
AcDbPolyline
 62
250
  6
CONTINUOUS
 90
22
 70
0
 10
171.9342050419
 20
95.5504627382
 10
171.9572521667
 20
95.5238024946
 10
171.9820357686
 20
95.4982469288
 10
172.0084254578
 20
95.4739304919
 10
172.0362823948
 20
95.4509811156
 10
172.0654600209
 20
95.4295195396
 10
172.0958048289
 20
95.4096586758
 10
172.127157171
 20
95.3915030147
 10
172.1593520985
 20
95.3751480755
 10
172.1922202299
 20
95.3606799036
 10
172.2255886418
 20
95.3481746178
 10
172.2592817789
 20
95.3376980101
 10
172.2931223773
 20
95.3293051991
 10
172.3269323973
 20
95.3230403405
 10
172.3605339603
 20
95.3189363944
 10
172.3937502842
 20
95.3170149523
 10
172.4264066137
 20
95.317286123
 10
172.4583311398
 20
95.3197484799
 10
172.4893559036
 20
95.3243890682
 10
172.5193176798
 20
95.3311834731
 10
172.5480588359
 20
95.3400959486
 10
172.5754281609
 20
95.3510796048
  0
LWPOLYLINE
  5
330
100
AcDbEntity
  8
0
100
AcDbPolyline
 62
250
  6
CONTINUOUS
 90
10
 70
0
 10
186.7693822494
 20
54.2350683385
 10
186.7647791576
 20
54.2457479132
 10
186.7589769247
 20
54.2562876872
 10
186.7520510325
 20
54.2665550259
 10
186.7439876466
 20
54.2765451557
 10
186.7348006013
 20
54.2862628501
 10
186.7246068815
 20
54.2955897963
 10
186.7134454819
 20
54.3044865564
 10
186.7012774077
 20
54.3129925681
 10
186.6881026589
 20
54.3211078315
  0
LWPOLYLINE
  5
331
100
AcDbEntity
  8
RACCORDO
100
AcDbPolyline
 62
250
  6
CONTINUOUS
 90
13
 70
0
 10
171.8088631776
 20
59.0714710051
 10
171.6857504474
 20
62.0088793703
 10
171.5850110856
 20
64.9589243294
 10
171.5066514951
 20
67.9214088094
 10
171.4506765445
 20
70.8961349502
 10
171.4170899046
 20
73.8829038551
 10
171.4058940461
 20
76.8815156036
 10
171.417089904
 20
79.891769573
 10
171.4506765436
 20
82.9134645775
 10
171.5066514939
 20
85.9463986181
 10
171.5850110844
 20
88.9903688175
 10
171.6857504466
 20
92.0451714351
 10
171.8088631776
 20
95.1106020044
  0
LWPOLYLINE
  5
332
100
AcDbEntity
  8
RACCORDO
100
AcDbPolyline
 62
250
  6
CONTINUOUS
 90
13
 70
0
 10
172.4965573373
 20
59.0808157103
 10
172.3735660144
 20
62.0152997313
 10
172.2729349141
 20
64.9620101347
 10
172.1946640366
 20
67.9209469206
 10
172.1387511313
 20
70.8923094897
 10
172.1051984487
 20
73.8758984413
 10
172.0940127399
 20
76.8711155733
 10
172.1051985398
 20
79.8779641733
 10
172.1387513134
 20
82.8964409538
 10
172.1946642065
 20
85.9259378503
 10
172.2729349343
 20
88.9662521747
 10
172.3735657815
 20
92.0175866151
 10
172.4965567482
 20
95.0799411716
  0
LWPOLYLINE
  5
333
100
AcDbEntity
  8
RACCORDO
100
AcDbPolyline
 62
250
  6
CONTINUOUS
 90
22
 70
0
 10
172.7763325269
 20
57.5078109208
 10
172.7758790823
 20
57.5381167264
 10
172.7774080535
 20
57.5695205997
 10
172.7809108616
 20
57.601846417
 10
172.7863678578
 20
57.6349128845
 10
172.7937484339
 20
57.6685345558
 10
172.8030111943
 20
57.7025228724
 10
172.8141041873
 20
57.7366872186
 10
172.8269651974
 20
57.7708359929
 10
172.8415220948
 20
57.8047776834
 10
172.8576932379
 20
57.838321938
 10
172.875387933
 20
57.8712806343
 10
172.8945069438
 20
57.9034689372
 10
172.9149430448
 20
57.9347063293
 10
172.9365816245
 20
57.9648176267
 10
172.9593013307
 20
57.9936339648
 10
172.9829747458
 20
58.0209937374
 10
173.007469104
 20
58.0467435077
 10
173.0326470392
 20
58.0707388715
 10
173.0583673499
 20
58.0928452606
 10
173.0844857906
 20
58.1129386989
 10
173.1108558842
 20
58.1309065004
  0
LWPOLYLINE
  5
334
100
AcDbEntity
  8
RACCORDO
100
AcDbPolyline
 62
250
  6
CONTINUOUS
 90
13
 70
0
 10
172.7763325269
 20
95.6656727838
 10
172.7758790789
 20
95.6348435296
 10
172.7774080251
 20
95.6052054171
 10
172.7809107909
 20
95.5769246631
 10
172.786367732
 20
95.5501598724
 10
172.7937482447
 20
95.5250611474
 10
172.8030109375
 20
95.5017692475
 10
172.8141038633
 20
95.4804147985
 10
172.8269648104
 20
95.4611175608
 10
172.841521652
 20
95.4439857576
 10
172.85769275
 20
95.4291154676
 10
172.8753874136
 20
95.4165900866
 10
172.8792692595
 20
95.4142751737
  0
LWPOLYLINE
  5
335
100
AcDbEntity
  8
RACCORDO
100
AcDbPolyline
 62
250
  6
CONTINUOUS
 90
10
 70
0
 10
172.4965569126
 20
95.0799412475
 10
172.4988744271
 20
95.1148837813
 10
172.5028449496
 20
95.1488461972
 10
172.5084596665
 20
95.1817311682
 10
172.5157108319
 20
95.2134586482
 10
172.5245770954
 20
95.243922115
 10
172.5350172747
 20
95.2729948476
 10
172.5469931286
 20
95.3005867304
 10
172.5604757299
 20
95.326638441
 10
172.5754265061
 20
95.3510818029
  0
LWPOLYLINE
  5
336
100
AcDbEntity
  8
RACCORDO
100
AcDbPolyline
 62
250
  6
CONTINUOUS
 90
10
 70
0
 10
171.8088631776
 20
95.1106020044
 10
171.8127122659
 20
95.1677015304
 10
171.8191203697
 20
95.2228756746
 10
171.8280873161
 20
95.2761243458
 10
171.8396651218
 20
95.3276220142
 10
171.8538014794
 20
95.3771940556
 10
171.8703395045
 20
95.424316621
 10
171.8892265449
 20
95.4688149074
 10
171.910514433
 20
95.5108632894
 10
171.9342027953
 20
95.550461572
  0
LINE
  5
337
100
AcDbEntity
  8
RACCORDO
100
AcDbLine
 62
7
  6
CONTINUOUS
 10
154.4535237047
 20
69.055350401
 11
154.4536181943
 21
69.0555149321
  0
LWPOLYLINE
  5
338
100
AcDbEntity
  8
RACCORDO
100
AcDbPolyline
 62
250
  6
CONTINUOUS
 90
22
 70
0
 10
154.5340929929
 20
68.5820523197
 10
154.5132300858
 20
68.548650417
 10
154.4902386317
 20
68.5179465107
 10
154.4651172813
 20
68.4899397477
 10
154.4377831969
 20
68.46453296
 10
154.4083167319
 20
68.441821743
 10
154.3769610295
 20
68.4220941994
 10
154.3436940091
 20
68.4053930896
 10
154.3085347973
 20
68.3916737754
 10
154.2717878587
 20
68.3810929487
 10
154.2334307903
 20
68.373688664
 10
154.1934831024
 20
68.3694210228
 10
154.1523118972
 20
68.3683296379
 10
154.1098908293
 20
68.3704575611
 10
154.0662437607
 20
68.3757601542
 10
154.0218130824
 20
68.3841454791
 10
153.9765847197
 20
68.3956610198
 10
153.9305709566
 20
68.4102581467
 10
153.8842538615
 20
68.4277008403
 10
153.8377938176
 20
68.4479102315
 10
153.7910295354
 20
68.4709646092
 10
153.7439607906
 20
68.4968638297
  0
LWPOLYLINE
  5
339
100
AcDbEntity
  8
RACCORDO
100
AcDbPolyline
 62
250
  6
CONTINUOUS
 90
22
 70
0
 10
171.9342027953
 20
95.550461572
 10
171.9592623694
 20
95.5862865776
 10
171.9863440888
 20
95.6193521518
 10
172.0154466042
 20
95.6496575896
 10
172.0466637087
 20
95.6773063844
 10
172.0798991248
 20
95.7021937467
 10
172.1148661039
 20
95.7240063961
 10
172.1515806476
 20
95.7426980626
 10
172.1900238001
 20
95.758313483
 10
172.2298558865
 20
95.7706756353
 10
172.271093692
 20
95.7797432214
 10
172.3137175388
 20
95.7855560431
 10
172.3573328255
 20
95.7880586101
 10
172.4019603857
 20
95.7872046877
 10
172.4475769025
 20
95.7830392293
 10
172.4937215256
 20
95.7756435146
 10
172.5404023618
 20
95.764966614
 10
172.5876095136
 20
95.7510585348
 10
172.634855264
 20
95.7341520351
 10
172.6819767342
 20
95.7143245433
 10
172.7291358966
 20
95.6914981647
 10
172.7763325269
 20
95.6656727838
  0
LWPOLYLINE
  5
33A
100
AcDbEntity
  8
RACCORDO
100
AcDbPolyline
 62
250
  6
CONTINUOUS
 90
8
 70
0
 10
172.5754265061
 20
95.3510818029
 10
172.5912835589
 20
95.3731869602
 10
172.608492605
 20
95.3937336863
 10
172.6270214996
 20
95.412654352
 10
172.6468476681
 20
95.4298939176
 10
172.6679189151
 20
95.4453820884
 10
172.6901493953
 20
95.4590409183
 10
172.7109782009
 20
95.4696734729
  0
LINE
  5
33B
100
AcDbEntity
  8
0
100
AcDbLine
 62
250
  6
CONTINUOUS
 10
154.0785033088
 20
69.119948346
 11
154.4636986477
 21
69.3915601676
  0
LWPOLYLINE
  5
33C
100
AcDbEntity
  8
0
100
AcDbPolyline
 62
250
  6
CONTINUOUS
 90
25
 70
0
 10
175.832296055
 20
88.9547116554
 10
175.8458070015
 20
88.963716353
 10
175.8591288357
 20
88.9735866051
 10
175.8722615578
 20
88.9843224117
 10
175.885259234
 20
88.9959763276
 10
175.898067798
 20
89.008495798
 10
175.9105250509
 20
89.0217231584
 10
175.9226244388
 20
89.0356653422
 10
175.9343725154
 20
89.0503154159
 10
175.9456267433
 20
89.0654949153
 10
175.9563813069
 20
89.0812106425
 10
175.9666420217
 20
89.0974557953
 10
175.9762837961
 20
89.1140315027
 10
175.9852988305
 20
89.1309410662
 10
175.9936949245
 20
89.1481811844
 10
176.0013703853
 20
89.1655430818
 10
176.0083170208
 20
89.1830312648
 10
176.014543023
 20
89.2006412271
 10
176.0199712756
 20
89.2181506752
 10
176.0245907274
 20
89.2355562174
 10
176.0284124297
 20
89.2528612455
 10
176.0313924191
 20
89.2698536412
 10
176.0335160414
 20
89.2864626984
 10
176.0347979508
 20
89.3027591231
 10
176.0352381475
 20
89.3187429155
  0
LWPOLYLINE
  5
33D
100
AcDbEntity
  8
0
100
AcDbPolyline
 62
7
  6
CONTINUOUS
 90
19
 70
0
 10
175.7960035926
 20
88.8662752617
 10
175.8168653458
 20
88.8801109636
 10
175.8447575585
 20
88.9009848744
 10
175.8715890622
 20
88.9238150656
 10
175.8973704282
 20
88.9485384396
 10
175.9220278578
 20
88.9750324978
 10
175.9453897247
 20
89.0030745086
 10
175.9674029576
 20
89.0325526653
 10
175.9880005342
 20
89.0633648084
 10
176.0070010061
 20
89.095225519
 10
176.0243437062
 20
89.1280146945
 10
176.0399543937
 20
89.1616215322
 10
176.0536858381
 20
89.1957447465
 10
176.0654771679
 20
89.2302778114
 10
176.0752639791
 20
89.265117242
 10
176.0829366191
 20
89.3000027556
 10
176.0884265131
 20
89.3348143192
 10
176.0916704306
 20
89.3695302127
 10
176.0925854609
 20
89.3997050182
  0
LWPOLYLINE
  5
33E
100
AcDbEntity
  8
0
100
AcDbPolyline
 62
250
  6
CONTINUOUS
 90
10
 70
0
 10
176.0352381475
 20
91.14299162
 10
176.0468511547
 20
91.1504348667
 10
176.0573031682
 20
91.1584312683
 10
176.0665155188
 20
91.166920645
 10
176.0744188669
 20
91.1758391061
 10
176.080953724
 20
91.1851195309
 10
176.0860709005
 20
91.1946920735
 10
176.0897318771
 20
91.2044846896
 10
176.0919090937
 20
91.2144236778
 10
176.0925880577
 20
91.2239300032
  0
LWPOLYLINE
  5
33F
100
AcDbEntity
  8
0
100
AcDbPolyline
 62
250
  6
CONTINUOUS
 90
10
 70
0
 10
176.0352381475
 20
89.3187429155
 10
176.0468512804
 20
89.3261862512
 10
176.0573033774
 20
89.3341827412
 10
176.0665157726
 20
89.3426722015
 10
176.0744191306
 20
89.3515907375
 10
176.080953968
 20
89.3608712253
 10
176.0860711016
 20
89.3704438171
 10
176.089732018
 20
89.3802364663
 10
176.0919091641
 20
89.3901754701
 10
176.0925880577
 20
89.3996821605
  0
LINE
  5
340
100
AcDbEntity
  8
0
100
AcDbLine
 62
250
  6
CONTINUOUS
 10
174.5478563931
 20
88.1477875259
 11
175.832296055
 21
88.9547116554
  0
LINE
  5
341
100
AcDbEntity
  8
0
100
AcDbLine
 62
7
  6
CONTINUOUS
 10
174.5478563931
 20
88.0821513109
 11
175.796038882
 21
88.8662975796
  0
LINE
  5
342
100
AcDbEntity
  8
0
100
AcDbLine
 62
7
  6
CONTINUOUS
 10
152.6022342057
 20
72.4099378423
 11
152.4961191196
 21
72.3453422952
  0
LINE
  5
343
100
AcDbEntity
  8
0
100
AcDbLine
 62
7
  6
CONTINUOUS
 10
150.3195831981
 20
73.7277270222
 11
150.2059558713
 21
73.6676538523
  0
LWPOLYLINE
  5
344
100
AcDbEntity
  8
RACCORDO
100
AcDbPolyline
 62
250
  6
CONTINUOUS
 90
28
 70
0
 10
58.7179799402
 20
180.9515508359
 10
58.6891706929
 20
180.9670252126
 10
58.6603443128
 20
180.9802667889
 10
58.6315009051
 20
180.9912756033
 10
58.6025469411
 20
181.0000776985
 10
58.5735763701
 20
181.006647185
 10
58.5448706056
 20
181.0109062356
 10
58.5164253264
 20
181.0128322328
 10
58.4882456542
 20
181.0124480861
 10
58.4606272148
 20
181.0097442764
 10
58.433581828
 20
181.0046977384
 10
58.4070987592
 20
180.9973319338
 10
58.3814397829
 20
180.9877071272
 10
58.3566110605
 20
180.9758020747
 10
58.332607683
 20
180.961638479
 10
58.3096747173
 20
180.9453409869
 10
58.2878212265
 20
180.9268878218
 10
58.2670394237
 20
180.9063012293
 10
58.2475489035
 20
180.883771819
 10
58.2293614896
 20
180.8592767973
 10
58.2124665061
 20
180.8328393816
 10
58.1970495031
 20
180.8047190892
 10
58.1831249689
 20
180.7748887933
 10
58.1706792875
 20
180.7433759452
 10
58.1598554577
 20
180.7105217851
 10
58.1507011939
 20
180.676440079
 10
58.1431691782
 20
180.6410172113
 10
58.1372596377
 20
180.6042532678
  0
LWPOLYLINE
  5
345
100
AcDbEntity
  8
RACCORDO
100
AcDbPolyline
 62
250
  6
CONTINUOUS
 90
19
 70
0
 10
221.5785853208
 20
86.235280244
 10
221.5971817657
 20
86.2250237937
 10
221.617132163
 20
86.2153893424
 10
221.6382944727
 20
86.2064454841
 10
221.6605180265
 20
86.198255896
 10
221.6836446004
 20
86.1908788851
 10
221.7075095411
 20
86.184366973
 10
221.7319429385
 20
86.1787665225
 10
221.7567708353
 20
86.1741174068
 10
221.7818164653
 20
86.1704527259
 10
221.8069015125
 20
86.1677985712
 10
221.8318473798
 20
86.1661738392
 10
221.8564764613
 20
86.1655900976
 10
221.8806134064
 20
86.1660515022
 10
221.9040863685
 20
86.1675547682
 10
221.9267282282
 20
86.1700891927
 10
221.9483777832
 20
86.1736367316
 10
221.9688808961
 20
86.1781721274
 10
221.988091592
 20
86.1836630899
  0
LINE
  5
346
100
AcDbEntity
  8
RACCORDO
100
AcDbLine
 62
250
  6
CONTINUOUS
 10
221.180254286
 20
87.1478697592
 11
58.7179799402
 21
180.9515508359
  0
LINE
  5
347
100
AcDbEntity
  8
RACCORDO
100
AcDbLine
 62
250
  6
CONTINUOUS
 10
221.3777587924
 20
87.4620419535
 11
58.9154844466
 21
181.2657230302
  0
LINE
  5
348
100
AcDbEntity
  8
RACCORDO
100
AcDbLine
 62
7
  6
CONTINUOUS
 10
60.4905635224
 20
182.3763331088
 11
223.1270613258
 21
88.4720575911
  0
LINE
  5
349
100
AcDbEntity
  8
RACCORDO
100
AcDbLine
 62
7
  6
CONTINUOUS
 10
63.1098957112
 20
181.9255958396
 11
224.4675271417
 21
88.7597217342
  0
LWPOLYLINE
  5
34A
100
AcDbEntity
  8
RACCORDO
100
AcDbPolyline
 62
250
  6
CONTINUOUS
 90
12
 70
0
 10
58.1372596857
 20
180.6042532855
 10
58.1200907031
 20
180.6146471522
 10
58.1045303517
 20
180.6255159913
 10
58.0906894174
 20
180.6367824192
 10
58.0786664443
 20
180.6483662218
 10
58.0685470332
 20
180.6601849251
 10
58.0604032316
 20
180.6721543828
 10
58.0542930217
 20
180.6841893754
 10
58.0502599064
 20
180.6962042165
 10
58.0483326008
 20
180.7081133634
 10
58.0485248267
 20
180.7198320258
 10
58.0487292308
 20
180.7215139508
  0
LWPOLYLINE
  5
34B
100
AcDbEntity
  8
0
100
AcDbPolyline
 62
250
  6
CONTINUOUS
 90
25
 70
0
 10
176.0352381475
 20
91.14299162
 10
176.0347979505
 20
91.1584581336
 10
176.0335160408
 20
91.1732481768
 10
176.0313924185
 20
91.1873617495
 10
176.0284124293
 20
91.2008523374
 10
176.0245907276
 20
91.2136664549
 10
176.019971276
 20
91.2256436448
 10
176.0145430233
 20
91.2367743125
 10
176.0083170208
 20
91.2470680525
 10
176.0013703852
 20
91.2563931917
 10
175.9936949244
 20
91.2647355976
 10
175.9852988305
 20
91.2721094028
 10
175.9762837962
 20
91.2784253317
 10
175.9666420218
 20
91.2836709177
 10
175.956381307
 20
91.2878586275
 10
175.9456267433
 20
91.2909365861
 10
175.9343725154
 20
91.2928911578
 10
175.9226244387
 20
91.2937359783
 10
175.9105250508
 20
91.2934600805
 10
175.898067798
 20
91.2920488296
 10
175.885259234
 20
91.2895168603
 10
175.8722615578
 20
91.2858971094
 10
175.8591288358
 20
91.2812005556
 10
175.8458070015
 20
91.2754162202
 10
175.832296055
 20
91.268544103
  0
LWPOLYLINE
  5
34C
100
AcDbEntity
  8
0
100
AcDbPolyline
 62
7
  6
CONTINUOUS
 90
15
 70
0
 10
176.0925854658
 20
91.2239300033
 10
176.0920602795
 20
91.2463733802
 10
176.0895695309
 20
91.2769443732
 10
176.0850724742
 20
91.3064619832
 10
176.0785840568
 20
91.3349710961
 10
176.0701098798
 20
91.3624292813
 10
176.0596831312
 20
91.3887209543
 10
176.0473536897
 20
91.4137199482
 10
176.0331720902
 20
91.4373165819
 10
176.0172192564
 20
91.459380665
 10
175.9996560292
 20
91.4797296159
 10
175.9806435404
 20
91.4982386465
 10
175.9603182636
 20
91.5148366734
 10
175.9388652608
 20
91.5294408725
 10
175.930981692
 20
91.5341544776
  0
LWPOLYLINE
  5
34D
100
AcDbEntity
  8
0
100
AcDbPolyline
 62
250
  6
CONTINUOUS
 90
19
 70
0
 10
175.832296055
 20
91.268544103
 10
175.83217973
 20
91.2833230459
 10
175.8309790572
 20
91.2986053135
 10
175.8287031711
 20
91.3142746436
 10
175.8253693858
 20
91.3302118294
 10
175.8210030635
 20
91.3462956263
 10
175.8156374218
 20
91.3624036743
 10
175.8093132806
 20
91.3784134288
 10
175.8020787517
 20
91.3942030934
 10
175.793988873
 20
91.4096525455
 10
175.7851051895
 20
91.4246442511
 10
175.7754952851
 20
91.4390641585
 10
175.7652322687
 20
91.4528025661
 10
175.7543942179
 20
91.4657549566
 10
175.7430635847
 20
91.477822793
 10
175.7313265686
 20
91.4889142671
 10
175.719272461
 20
91.4989449989
 10
175.7069929651
 20
91.5078386781
 10
175.6945814993
 20
91.5155276446
  0
LINE
  5
34E
100
AcDbEntity
  8
0
100
AcDbLine
 62
7
  6
CONTINUOUS
 10
174.5478563931
 20
60.2652266328
 11
174.5478563931
 21
94.4508538469
  0
LINE
  5
34F
100
AcDbEntity
  8
0
100
AcDbLine
 62
7
  6
CONTINUOUS
 10
174.656401417
 20
73.8094432742
 11
174.656401417
 21
71.1739298408
  0
LINE
  5
350
100
AcDbEntity
  8
0
100
AcDbLine
 62
250
  6
CONTINUOUS
 10
176.0352381475
 20
89.3187429155
 11
176.0352381475
 21
91.14299162
  0
LINE
  5
351
100
AcDbEntity
  8
0
100
AcDbLine
 62
7
  6
CONTINUOUS
 10
176.0925880577
 20
89.3996821605
 11
176.0925880577
 21
91.22393086
  0
LWPOLYLINE
  5
352
100
AcDbEntity
  8
0
100
AcDbPolyline
 62
250
  6
CONTINUOUS
 90
10
 70
0
 10
175.832296055
 20
88.9547116554
 10
175.8321797295
 20
88.9410493976
 10
175.8309790548
 20
88.9281068376
 10
175.8287031653
 20
88.9159824381
 10
175.8253693757
 20
88.904768437
 10
175.8210030485
 20
88.8945501465
 10
175.8156374016
 20
88.8854053038
 10
175.8093132556
 20
88.8774034794
 10
175.8020787225
 20
88.870605548
 10
175.796038882
 20
88.8662975796
  0
LWPOLYLINE
  5
353
100
AcDbEntity
  8
RACCORDO
100
AcDbPolyline
 62
250
  6
CONTINUOUS
 90
4
 70
0
 10
154.4755679418
 20
69.0771353209
 10
154.4555673689
 20
69.0646073549
 10
154.4357474778
 20
69.0548544514
 10
154.4148522444
 20
69.0470030539
  0
LINE
  5
354
100
AcDbEntity
  8
0
100
AcDbLine
 62
7
  6
CONTINUOUS
 10
174.656401417
 20
73.8094432742
 11
174.5478563931
 21
73.7500824926
  0
LWPOLYLINE
  5
355
100
AcDbEntity
  8
RACCORDO
100
AcDbPolyline
 62
250
  6
CONTINUOUS
 90
11
 70
0
 10
104.3295145475
 20
134.584564591
 10
104.3071293121
 20
134.5841363104
 10
104.2867195468
 20
134.5846747177
 10
104.2683926305
 20
134.5861769804
 10
104.2522449838
 20
134.5886351947
 10
104.2383615618
 20
134.5920364276
 10
104.2268154074
 20
134.5963627847
 10
104.2176672665
 20
134.6015915045
 10
104.2109652689
 20
134.6076950778
 10
104.2067446749
 20
134.6146413927
 10
104.2061311289
 20
134.6163431857
  0
LWPOLYLINE
  5
356
100
AcDbEntity
  8
RACCORDO
100
AcDbPolyline
 62
250
  6
CONTINUOUS
 90
16
 70
0
 10
58.9154844466
 20
181.2657230302
 10
58.8739774632
 20
181.2873958573
 10
58.8323485258
 20
181.3060987694
 10
58.7907388568
 20
181.3217702868
 10
58.7492976843
 20
181.3343549431
 10
58.7081537693
 20
181.343814208
 10
58.6674167446
 20
181.3501197492
 10
58.6272035819
 20
181.3532394174
 10
58.5876671218
 20
181.353152233
 10
58.5489672158
 20
181.3498586398
 10
58.5112340059
 20
181.3433605209
 10
58.4745828774
 20
181.3336728805
 10
58.439145192
 20
181.320831822
 10
58.4050292703
 20
181.3048641555
 10
58.3723476644
 20
181.2858123102
 10
58.3575350224
 20
181.2758223807
  0
LWPOLYLINE
  5
357
100
AcDbEntity
  8
RACCORDO
100
AcDbPolyline
 62
7
  6
CONTINUOUS
 90
22
 70
0
 10
224.4675271417
 20
88.7597217342
 10
224.4919494481
 20
88.7445182047
 10
224.5152909355
 20
88.7283354533
 10
224.5375516039
 20
88.71117348
 10
224.5587007033
 20
88.6929941412
 10
224.5787689837
 20
88.6738355804
 10
224.597848695
 20
88.653812229
 10
224.6159374724
 20
88.6330150033
 10
224.6330376807
 20
88.6113529868
 10
224.6492486645
 20
88.5886678619
 10
224.6646978095
 20
88.5648140571
 10
224.6792577298
 20
88.5399371437
 10
224.6926456123
 20
88.5143155187
 10
224.7048505327
 20
88.4878634618
 10
224.7158834151
 20
88.4606666932
 10
224.725494219
 20
88.4332607696
 10
224.7336128364
 20
88.4057968848
 10
224.7403093752
 20
88.3781238451
 10
224.7455441185
 20
88.3503236259
 10
224.7493038273
 20
88.3224235523
 10
224.7516017406
 20
88.2943962993
 10
224.7524378584
 20
88.2662418667
  0
LWPOLYLINE
  5
358
100
AcDbEntity
  8
0
100
AcDbPolyline
 62
7
  6
CONTINUOUS
 90
15
 70
0
 10
186.9747337387
 20
54.0352275224
 10
186.9746366851
 20
54.0428720224
 10
186.9728774937
 20
54.0685098777
 10
186.9688707319
 20
54.0941874477
 10
186.9625930657
 20
54.1197044673
 10
186.9540363523
 20
54.144908903
 10
186.9432246759
 20
54.1696044421
 10
186.9302305616
 20
54.193565018
 10
186.9151208883
 20
54.2166567573
 10
186.8979633201
 20
54.2387796506
 10
186.8788418813
 20
54.2598253574
 10
186.8578398199
 20
54.2797048201
 10
186.8349900369
 20
54.2983922765
 10
186.8102461463
 20
54.3159000183
 10
186.7868769479
 20
54.3303046618
  0
LINE
  5
359
100
AcDbEntity
  8
0
100
AcDbLine
 62
250
  6
CONTINUOUS
 10
186.8404235957
 20
53.8398055995
 11
186.8404133569
 21
53.2509305408
  0
LINE
  5
35A
100
AcDbEntity
  8
0
100
AcDbLine
 62
7
  6
CONTINUOUS
 10
186.9747365061
 20
54.035251121
 11
186.9747365061
 21
53.453568706
  0
LWPOLYLINE
  5
35B
100
AcDbEntity
  8
0
100
AcDbPolyline
 62
250
  6
CONTINUOUS
 90
10
 70
0
 10
186.8404133569
 20
53.2509305408
 10
186.8402719214
 20
53.237273839
 10
186.8390200609
 20
53.2243193785
 10
186.8366672902
 20
53.2121655976
 10
186.8332314892
 20
53.2009048494
 10
186.8287387686
 20
53.1906227027
 10
186.8232232717
 20
53.181397291
 10
186.8167269129
 20
53.1732987144
 10
186.8092990598
 20
53.1663885095
 10
186.8044575501
 20
53.1628609086
  0
LINE
  5
35C
100
AcDbEntity
  8
0
100
AcDbLine
 62
7
  6
CONTINUOUS
 10
174.6565615377
 20
71.1740304335
 11
174.5478563931
 21
71.1057385496
  0
LWPOLYLINE
  5
35D
100
AcDbEntity
  8
RACCORDO
100
AcDbPolyline
 62
250
  6
CONTINUOUS
 90
13
 70
0
 10
223.9525936926
 20
88.5193805497
 10
224.0130600478
 20
88.5507197239
 10
224.0708000406
 20
88.5802176399
 10
224.1257426094
 20
88.6078281068
 10
224.1780622524
 20
88.6336935211
 10
224.2274263295
 20
88.6575446723
 10
224.2730625879
 20
88.678901426
 10
224.3147546301
 20
88.6979314284
 10
224.352712142
 20
88.7147623589
 10
224.3869129918
 20
88.7291444772
 10
224.4174046517
 20
88.7412037418
 10
224.4442558056
 20
88.7513192442
 10
224.4675271235
 20
88.7597217478
  0
LINE
  5
35E
100
AcDbEntity
  8
RACCORDO
100
AcDbLine
 62
250
  6
CONTINUOUS
 10
62.9992532859
 20
181.9676403086
 11
63.1098956979
 21
181.9255958456
  0
LWPOLYLINE
  5
35F
100
AcDbEntity
  8
RACCORDO
100
AcDbPolyline
 62
7
  6
CONTINUOUS
 90
13
 70
0
 10
63.0550636416
 20
181.9523667845
 10
62.9986372019
 20
181.9742010973
 10
62.8499326628
 20
182.0281846979
 10
62.703074866
 20
182.0763866425
 10
62.5582178409
 20
182.1188882209
 10
62.4155134556
 20
182.1557845836
 10
62.2751088424
 20
182.187182163
 10
62.1371561068
 20
182.2131966027
 10
62.0017939596
 20
182.2339588902
 10
61.8691528219
 20
182.2496196651
 10
61.7393740206
 20
182.2603397985
 10
61.6125945619
 20
182.2662895455
 10
61.5609389382
 20
182.2673998403
  0
LWPOLYLINE
  5
360
100
AcDbEntity
  8
RACCORDO
100
AcDbPolyline
 62
7
  6
CONTINUOUS
 90
4
 70
0
 10
63.0550676504
 20
181.9523350795
 10
63.0628065437
 20
181.949165784
 10
63.0859305711
 20
181.9384675766
 10
63.1098957112
 20
181.9255958396
  0
LWPOLYLINE
  5
361
100
AcDbEntity
  8
RACCORDO
100
AcDbPolyline
 62
250
  6
CONTINUOUS
 90
13
 70
0
 10
224.2868924838
 20
87.940358059
 10
224.3442613496
 20
87.977062379
 10
224.39867231
 20
88.0123263877
 10
224.4500498357
 20
88.0461116351
 10
224.4986044579
 20
88.0784980466
 10
224.54393676
 20
88.1093321406
 10
224.5852449348
 20
88.1381851632
 10
224.6225659881
 20
88.1647859352
 10
224.6561153198
 20
88.1892521468
 10
224.6856656577
 20
88.2116892976
 10
224.7113498502
 20
88.2320754467
 10
224.7335305216
 20
88.2502805893
 10
224.7524378569
 20
88.2662418794
  0
LWPOLYLINE
  5
362
100
AcDbEntity
  8
RACCORDO
100
AcDbPolyline
 62
250
  6
CONTINUOUS
 90
3
 70
0
 10
224.1322193832
 20
87.8432395665
 10
224.2115105233
 20
87.8926286817
 10
224.2868924838
 20
87.940358059
  0
LINE
  5
363
100
AcDbEntity
  8
RACCORDO
100
AcDbLine
 62
250
  6
CONTINUOUS
 10
223.9629638027
 20
87.7396998469
 11
224.1322193832
 21
87.8432395665
  0
LWPOLYLINE
  5
364
100
AcDbEntity
  8
RACCORDO
100
AcDbPolyline
 62
250
  6
CONTINUOUS
 90
3
 70
0
 10
223.7695780064
 20
87.6234535237
 10
223.7802883454
 20
87.6298104457
 10
223.9629638027
 20
87.7396998469
  0
LINE
  5
365
100
AcDbEntity
  8
RACCORDO
100
AcDbLine
 62
250
  6
CONTINUOUS
 10
221.3777587924
 20
87.4620419535
 11
223.1270613258
 21
88.4720575911
  0
LINE
  5
366
100
AcDbEntity
  8
0
100
AcDbLine
 62
250
  6
CONTINUOUS
 10
172.4965573373
 20
59.0808157103
 11
174.5478563931
 21
60.2652266328
  0
LINE
  5
367
100
AcDbEntity
  8
0
100
AcDbLine
 62
250
  6
CONTINUOUS
 10
173.1108467623
 20
58.1309117672
 11
175.1127665658
 21
59.2867735129
  0
LINE
  5
368
100
AcDbEntity
  8
RACCORDO
100
AcDbLine
 62
250
  6
CONTINUOUS
 10
221.9880945147
 20
86.1836612156
 11
223.8331990418
 21
87.2489911913
  0
LINE
  5
369
100
AcDbEntity
  8
RACCORDO
100
AcDbLine
 62
250
  6
CONTINUOUS
 10
223.4195096305
 20
88.2297635776
 11
223.5252757383
 21
88.2886552532
  0
LWPOLYLINE
  5
36A
100
AcDbEntity
  8
RACCORDO
100
AcDbPolyline
 62
250
  6
CONTINUOUS
 90
5
 70
0
 10
223.5252757383
 20
88.2886552532
 10
223.7055012182
 20
88.3875988492
 10
223.7911615437
 20
88.4339691193
 10
223.8735737233
 20
88.4779524178
 10
223.9525936926
 20
88.5193805497
  0
LWPOLYLINE
  5
36B
100
AcDbEntity
  8
RACCORDO
100
AcDbPolyline
 62
250
  6
CONTINUOUS
 90
3
 70
0
 10
204.6946339828
 20
76.7343534596
 10
204.717716507
 20
76.6721624362
 10
204.7386744571
 20
76.609570771
  0
LWPOLYLINE
  5
36C
100
AcDbEntity
  8
RACCORDO
100
AcDbPolyline
 62
7
  6
CONTINUOUS
 90
13
 70
0
 10
204.6152940574
 20
76.6413509332
 10
204.6282758174
 20
76.5982777716
 10
204.638751005
 20
76.5594130785
 10
204.6478662954
 20
76.5212902759
 10
204.6556423327
 20
76.4840147437
 10
204.6621062
 20
76.4476859514
 10
204.6672872096
 20
76.412423863
 10
204.671221119
 20
76.3783635246
 10
204.6739578461
 20
76.3455959042
 10
204.6755534245
 20
76.3142173287
 10
204.6760713531
 20
76.2843696196
 10
204.675588491
 20
76.2561519279
 10
204.5664732129
 20
73.2369143331
  0
LWPOLYLINE
  5
36D
100
AcDbEntity
  8
RACCORDO
100
AcDbPolyline
 62
250
  6
CONTINUOUS
 90
10
 70
0
 10
204.7386744571
 20
76.609570771
 10
204.7579031418
 20
76.5453274877
 10
204.7746674751
 20
76.4814029639
 10
204.7889678438
 20
76.4177974018
 10
204.8008452305
 20
76.3542744412
 10
204.8102595029
 20
76.2910708862
 10
204.8170891498
 20
76.228896568
 10
204.8212936799
 20
76.1679881043
 10
204.8229138846
 20
76.108109036
 10
204.8219499425
 20
76.0492594575
  0
LWPOLYLINE
  5
36E
100
AcDbEntity
  8
RACCORDO
100
AcDbPolyline
 62
7
  6
CONTINUOUS
 90
9
 70
0
 10
204.6755043567
 20
40.2133759096
 10
204.6760703587
 20
40.1875155179
 10
204.6755879971
 20
40.1630619222
 10
204.6742126806
 20
40.1416039641
 10
204.672191599
 20
40.1232419341
 10
204.669745018
 20
40.1077503246
 10
204.6670322716
 20
40.0947593785
 10
204.6642411568
 20
40.084195933
 10
204.6636956664
 20
40.0823858042
  0
LWPOLYLINE
  5
36F
100
AcDbEntity
  8
RACCORDO
100
AcDbPolyline
 62
250
  6
CONTINUOUS
 90
10
 70
0
 10
204.8219499425
 20
40.0101284582
 10
204.8229168642
 20
39.9558039128
 10
204.8213027501
 20
39.9033939723
 10
204.8171074265
 20
39.8528985281
 10
204.8102952686
 20
39.8041532497
 10
204.8009016086
 20
39.7573222844
 10
204.789032484
 20
39.7128980966
 10
204.7747228838
 20
39.6710446152
 10
204.7579369994
 20
39.6315973929
 10
204.7386744571
 20
39.5945561934
  0
LWPOLYLINE
  5
370
100
AcDbEntity
  8
RACCORDO
100
AcDbPolyline
 62
250
  6
CONTINUOUS
 90
22
 70
0
 10
203.9485422549
 20
39.5093677034
 10
203.9480888068
 20
39.5396733271
 10
203.949617753
 20
39.5710770284
 10
203.9531205188
 20
39.6034026885
 10
203.9585774599
 20
39.6364690181
 10
203.9659579727
 20
39.6700905741
 10
203.9752206655
 20
39.7040787996
 10
203.9863135912
 20
39.7382430811
 10
203.9991745384
 20
39.7723918182
 10
204.0137313799
 20
39.8063334972
 10
204.029902478
 20
39.8398777659
 10
204.0475971416
 20
39.8728365008
 10
204.0667161351
 20
39.9050248622
 10
204.0871522353
 20
39.9362623308
 10
204.1087908319
 20
39.96637372
 10
204.1315105711
 20
39.9951901589
 10
204.1551840356
 20
40.0225500384
 10
204.1796784596
 20
40.0482999186
 10
204.204856473
 20
40.0722953884
 10
204.2305768721
 20
40.0944018762
 10
204.2566954113
 20
40.114495404
 10
204.2830656122
 20
40.1324632829
  0
LINE
  5
371
100
AcDbEntity
  8
0
100
AcDbLine
 62
7
  6
CONTINUOUS
 10
202.8068156699
 20
43.422441716
 11
202.8068156699
 21
43.2965766482
  0
LWPOLYLINE
  5
372
100
AcDbEntity
  8
RACCORDO
100
AcDbPolyline
 62
250
  6
CONTINUOUS
 90
13
 70
0
 10
203.9485422549
 20
77.6672295664
 10
203.9480888098
 20
77.636400134
 10
203.9496177806
 20
77.6067618781
 10
203.9531205883
 20
77.5784810156
 10
203.9585775842
 20
77.5517161503
 10
203.96595816
 20
77.5266173831
 10
203.9752209201
 20
77.5033254699
 10
203.9863139129
 20
77.4819710339
 10
203.9991749229
 20
77.4626738316
 10
204.0137318201
 20
77.4455420812
 10
204.0299029632
 20
77.4306718574
 10
204.0475976583
 20
77.4181465515
 10
204.0515570856
 20
77.4157868353
  0
LWPOLYLINE
  5
373
100
AcDbEntity
  8
RACCORDO
100
AcDbPolyline
 62
7
  6
CONTINUOUS
 90
12
 70
0
 10
204.5664732129
 20
73.2369143331
 10
204.4751120813
 20
70.1655550375
 10
204.4040415708
 20
67.1063513603
 10
204.353268585
 20
64.0595341195
 10
204.3227960318
 20
61.0253053072
 10
204.3126259304
 20
58.0038556533
 10
204.3227599358
 20
54.9953838095
 10
204.3531975117
 20
52.0000871197
 10
204.4039377377
 20
49.0181545237
 10
204.4749788356
 20
46.0497848367
 10
204.5663150325
 20
43.0952005372
 10
204.6755051275
 20
40.2133761802
  0
LWPOLYLINE
  5
374
100
AcDbEntity
  8
RACCORDO
100
AcDbPolyline
 62
250
  6
CONTINUOUS
 90
13
 70
0
 10
204.8219499425
 20
76.0492594575
 10
204.7110866223
 20
72.9767562548
 10
204.6203696879
 20
69.9161668312
 10
204.5498055421
 20
66.8676956532
 10
204.4993992771
 20
63.8315463323
 10
204.4691543401
 20
60.807921875
 10
204.4590725317
 20
57.7970246683
 10
204.4691543397
 20
54.7990561566
 10
204.4993992763
 20
51.814216704
 10
204.5498055411
 20
48.8427058432
 10
204.6203696869
 20
45.8847223418
 10
204.7110866216
 20
42.9404641891
 10
204.8219499425
 20
40.0101284582
  0
LWPOLYLINE
  5
375
100
AcDbEntity
  8
0
100
AcDbPolyline
 62
250
  6
CONTINUOUS
 90
12
 70
0
 10
186.8404133569
 20
53.2509305408
 10
186.8614409063
 20
53.2653629387
 10
186.8808942703
 20
53.2805378168
 10
186.8986929523
 20
53.2963958957
 10
186.9147616503
 20
53.3128755021
 10
186.9290353646
 20
53.3299112312
 10
186.9414578988
 20
53.347434722
 10
186.9519783162
 20
53.3653821555
 10
186.960546635
 20
53.3836777229
 10
186.9671214317
 20
53.4022320676
 10
186.9716754093
 20
53.420966609
 10
186.9741919585
 20
53.4398105061
  0
LWPOLYLINE
  5
376
100
AcDbEntity
  8
0
100
AcDbPolyline
 62
7
  6
CONTINUOUS
 90
15
 70
0
 10
186.8044562025
 20
53.1628629469
 10
186.8140894307
 20
53.1694025331
 10
186.8380848068
 20
53.187338408
 10
186.8600844071
 20
53.2062245271
 10
186.8800758281
 20
53.2259378548
 10
186.898102006
 20
53.246413978
 10
186.9142301363
 20
53.2676375599
 10
186.928444392
 20
53.2894995933
 10
186.9407406582
 20
53.3119011431
 10
186.951152039
 20
53.3348252836
 10
186.959656955
 20
53.3581389744
 10
186.9662567526
 20
53.381729867
 10
186.9709763126
 20
53.4055982496
 10
186.9738007369
 20
53.4296112429
 10
186.9747342509
 20
53.4535100585
  0
LINE
  5
377
100
AcDbEntity
  8
0
100
AcDbLine
 62
250
  6
CONTINUOUS
 10
186.2464302627
 20
52.8583356319
 11
186.8404133569
 21
53.2509305408
  0
LINE
  5
378
100
AcDbEntity
  8
0
100
AcDbLine
 62
7
  6
CONTINUOUS
 10
186.2983582679
 20
52.8283530525
 11
186.8044217899
 21
53.1628372563
  0
LWPOLYLINE
  5
379
100
AcDbEntity
  8
0
100
AcDbPolyline
 62
250
  6
CONTINUOUS
 90
13
 70
0
 10
186.8404235955
 20
53.839805643
 10
186.861451246
 20
53.8535529224
 10
186.8809096507
 20
53.8680564332
 10
186.8987169111
 20
53.8832574276
 10
186.9148002477
 20
53.8990963459
 10
186.9290880381
 20
53.9155066912
 10
186.9415132098
 20
53.9324143958
 10
186.9520231857
 20
53.9497465216
 10
186.9605773727
 20
53.9674344752
 10
186.9671409819
 20
53.9854073466
 10
186.9716870755
 20
54.0035915542
 10
186.974196701
 20
54.0219116353
 10
186.974736503
 20
54.0352190942
  0
LWPOLYLINE
  5
37A
100
AcDbEntity
  8
0
100
AcDbPolyline
 62
250
  6
CONTINUOUS
 90
16
 70
0
 10
186.695376735
 20
54.0825552302
 10
186.7080831636
 20
54.0908208131
 10
186.7197529684
 20
54.0994665475
 10
186.7303861496
 20
54.1084924331
 10
186.7400192459
 20
54.1179398075
 10
186.7486157184
 20
54.1277673332
 10
186.7560659508
 20
54.137850998
 10
186.762353992
 20
54.1481924436
 10
186.7674957929
 20
54.1587900281
 10
186.7714295901
 20
54.1695148142
 10
186.7741406668
 20
54.1803685836
 10
186.7756437398
 20
54.1913495545
 10
186.7759211958
 20
54.2023234437
 10
186.7749583386
 20
54.21328973
 10
186.7727698646
 20
54.2242489346
 10
186.7693822494
 20
54.2350683385
  0
LINE
  5
37B
100
AcDbEntity
  8
0
100
AcDbLine
 62
250
  6
CONTINUOUS
 10
185.4447127828
 20
53.321237257
 11
186.695376735
 21
54.0825552302
  0
LINE
  5
37C
100
AcDbEntity
  8
0
100
AcDbLine
 62
250
  6
CONTINUOUS
 10
185.7238115022
 20
53.1600891543
 11
186.8404235957
 21
53.8398055995
  0
LINE
  5
37D
100
AcDbEntity
  8
0
100
AcDbLine
 62
7
  6
CONTINUOUS
 10
184.5967630895
 20
55.2523934875
 11
183.2934493149
 21
54.5633498217
  0
LINE
  5
37E
100
AcDbEntity
  8
0
100
AcDbLine
 62
250
  6
CONTINUOUS
 10
184.6914744979
 20
55.2395832671
 11
183.3503016087
 21
54.5305240197
  0
LWPOLYLINE
  5
37F
100
AcDbEntity
  8
0
100
AcDbPolyline
 62
250
  6
CONTINUOUS
 90
10
 70
0
 10
185.1082060403
 20
55.2333203383
 10
185.1204581711
 20
55.2396565924
 10
185.1326088203
 20
55.2447108726
 10
185.1445665392
 20
55.2484451335
 10
185.1562413308
 20
55.2508312644
 10
185.1675453262
 20
55.2518513005
 10
185.1783934461
 20
55.2514975587
 10
185.1887040429
 20
55.2497726954
 10
185.1983995132
 20
55.2466896865
 10
185.2069767581
 20
55.2425222245
  0
LWPOLYLINE
  5
380
100
AcDbEntity
  8
0
100
AcDbPolyline
 62
250
  6
CONTINUOUS
 90
10
 70
0
 10
186.6881026589
 20
54.3211078315
 10
186.7003549278
 20
54.327444151
 10
186.7125056937
 20
54.3324984602
 10
186.7244635059
 20
54.3362327188
 10
186.736138366
 20
54.3386188215
 10
186.7474424052
 20
54.3396388096
 10
186.7582905456
 20
54.3392850065
 10
186.7686011404
 20
54.3375600749
 10
186.7782965887
 20
54.3344769972
 10
186.7868733724
 20
54.3303097202
  0
LWPOLYLINE
  5
381
100
AcDbEntity
  8
RACCORDO
100
AcDbPolyline
 62
250
  6
CONTINUOUS
 90
8
 70
0
 10
221.180254286
 20
14.2669854223
 10
221.1845063487
 20
14.2481938271
 10
221.1903781229
 20
14.2308582708
 10
221.1978230759
 20
14.2151161607
 10
221.2067822059
 20
14.2010922757
 10
221.2171845092
 20
14.1888977772
 10
221.2289475421
 20
14.1786293277
 10
221.2387960619
 20
14.1721319692
  0
LWPOLYLINE
  5
382
100
AcDbEntity
  8
RACCORDO
100
AcDbPolyline
 62
250
  6
CONTINUOUS
 90
10
 70
0
 10
221.5785852947
 20
14.5089736981
 10
221.2770511706
 20
16.2662032684
 10
221.0003379415
 20
18.0408358992
 10
220.7484984947
 20
19.8325147637
 10
220.5215792991
 20
21.6408774185
 10
220.3196252507
 20
23.4655619239
 10
220.1426800826
 20
25.3062072143
 10
219.9907796891
 20
27.16244496
 10
219.8639517003
 20
29.0338993442
 10
219.7622206243
 20
30.9201933938
  0
LWPOLYLINE
  5
383
100
AcDbEntity
  8
RACCORDO
100
AcDbPolyline
 62
250
  6
CONTINUOUS
 90
10
 70
0
 10
221.9880945147
 20
14.5442256188
 10
221.6869992977
 20
16.2988801978
 10
221.4107782304
 20
18.0702027673
 10
221.1594313128
 20
19.8581933275
 10
220.9329171456
 20
21.663225077
 10
220.7312771281
 20
23.4849248171
 10
220.5546354584
 20
25.3221729518
 10
220.403033536
 20
27.1745962825
 10
220.2764299615
 20
29.0425680079
 10
220.1748247348
 20
30.9260881279
  0
LWPOLYLINE
  5
384
100
AcDbEntity
  8
RACCORDO
100
AcDbPolyline
 62
250
  6
CONTINUOUS
 90
13
 70
0
 10
219.7622206962
 20
30.9201933523
 10
219.6323555958
 20
33.9349671179
 10
219.526084618
 20
36.9632106613
 10
219.4434174119
 20
40.0047121712
 10
219.3843612724
 20
43.0592972149
 10
219.3489240209
 20
46.1267138804
 10
219.3371111962
 20
49.2066311291
 10
219.3489240145
 20
52.2988314651
 10
219.3843612614
 20
55.4030969292
 10
219.4434173982
 20
58.5190914961
 10
219.5260846033
 20
61.6465546917
 10
219.6323555821
 20
64.7853031894
 10
219.7622206858
 20
67.9351140355
  0
LWPOLYLINE
  5
385
100
AcDbEntity
  8
RACCORDO
100
AcDbPolyline
 62
250
  6
CONTINUOUS
 90
13
 70
0
 10
220.1748247348
 20
30.9260881279
 10
220.0450276348
 20
33.9392242054
 10
219.9388265533
 20
36.9653926175
 10
219.8562214904
 20
40.0045933642
 10
219.7972082232
 20
43.0570793028
 10
219.7617909745
 20
46.1225975761
 10
219.7499824125
 20
49.200389612
 10
219.7617909846
 20
52.2904598744
 10
219.7972082434
 20
55.3928038994
 10
219.8562215152
 20
58.5066497237
 10
219.9388265754
 20
61.6317400262
 10
220.0450276486
 20
64.768332128
 10
220.1748247348
 20
67.9164260292
  0
LWPOLYLINE
  5
386
100
AcDbEntity
  8
RACCORDO
100
AcDbPolyline
 62
250
  6
CONTINUOUS
 90
10
 70
0
 10
219.7622206136
 20
67.9351140772
 10
219.8639516995
 20
69.9271989155
 10
219.9907796953
 20
71.930550322
 10
220.1426800888
 20
73.9447630201
 10
220.3196252377
 20
75.9694245657
 10
220.52157925
 20
78.0041298954
 10
220.7484984196
 20
80.0484816005
 10
221.0003378671
 20
82.1020706193
 10
221.2770511196
 20
84.16447613
 10
221.5785852947
 20
86.2352802344
  0
LWPOLYLINE
  5
387
100
AcDbEntity
  8
RACCORDO
100
AcDbPolyline
 62
250
  6
CONTINUOUS
 90
10
 70
0
 10
220.1748247348
 20
67.9164260292
 10
220.2764301404
 20
69.9055944761
 10
220.4030339425
 20
71.9052068024
 10
220.5546361413
 20
73.9152630079
 10
220.7312782607
 20
75.9361801481
 10
220.9329187768
 20
77.9675411675
 10
221.1594331174
 20
80.0080949006
 10
221.4107797586
 20
82.057424292
 10
221.6870002243
 20
84.115946397
 10
221.9880945147
 20
86.1836612156
  0
LWPOLYLINE
  5
388
100
AcDbEntity
  8
RACCORDO
100
AcDbPolyline
 62
250
  6
CONTINUOUS
 90
28
 70
0
 10
221.9880945147
 20
86.1836612156
 10
221.9918158025
 20
86.2350806949
 10
221.9930951692
 20
86.287683591
 10
221.9919567191
 20
86.3413009969
 10
221.9884547958
 20
86.3957688174
 10
221.9826064261
 20
86.450904127
 10
221.9743892612
 20
86.506506397
 10
221.9638496159
 20
86.5624121902
 10
221.9510511998
 20
86.6184282678
 10
221.9360100907
 20
86.6743080482
 10
221.9188028329
 20
86.7298580016
 10
221.8995112384
 20
86.7849151322
 10
221.8781713179
 20
86.8392803366
 10
221.8548726684
 20
86.8927769222
 10
221.8297154367
 20
86.9452383633
 10
221.8027577172
 20
86.9964847919
 10
221.7741019699
 20
87.0463503232
 10
221.7438610802
 20
87.0946793801
 10
221.7121132199
 20
87.1413128756
 10
221.6789684177
 20
87.1861017346
 10
221.6445514065
 20
87.2289023228
 10
221.6089659553
 20
87.269571068
 10
221.5723350866
 20
87.3079713417
 10
221.5347849142
 20
87.3439853967
 10
221.4964259375
 20
87.3775059299
 10
221.4573802483
 20
87.4084246147
 10
221.417781618
 20
87.4366349399
 10
221.3777587924
 20
87.4620419535
  0
LWPOLYLINE
  5
389
100
AcDbEntity
  8
RACCORDO
100
AcDbPolyline
 62
250
  6
CONTINUOUS
 90
28
 70
0
 10
221.5785852947
 20
86.2352802344
 10
221.5833038302
 20
86.2727203992
 10
221.5863084355
 20
86.3107384676
 10
221.5875988799
 20
86.3493343522
 10
221.5871658304
 20
86.3886465919
 10
221.5850182128
 20
86.4285364937
 10
221.5811829735
 20
86.4685880447
 10
221.5756395197
 20
86.5088068172
 10
221.5684075933
 20
86.5491869225
 10
221.559574252
 20
86.5892950133
 10
221.5491234132
 20
86.6291174507
 10
221.537070009
 20
86.6686674487
 10
221.5235473156
 20
86.7075518285
 10
221.5085416574
 20
86.7457610982
 10
221.4920654341
 20
86.7833042807
 10
221.4742908385
 20
86.8198158978
 10
221.4552061492
 20
86.855284301
 10
221.4348218353
 20
86.8897206801
 10
221.4133432726
 20
86.9227937778
 10
221.3907588828
 20
86.9544911558
 10
221.3670791581
 20
86.9848248554
 10
221.3425425599
 20
87.0135003321
 10
221.3171369013
 20
87.0405031824
 10
221.29087357
 20
87.0658475181
 10
221.2640264368
 20
87.0892815851
 10
221.2366866462
 20
87.1107214121
 10
221.2087626311
 20
87.1302508162
 10
221.180254286
 20
87.1478697592
  0
LWPOLYLINE
  5
38A
100
AcDbEntity
  8
RACCORDO
100
AcDbPolyline
 62
250
  6
CONTINUOUS
 90
16
 70
0
 10
221.180254286
 20
87.1478697592
 10
221.1845063866
 20
87.1715717399
 10
221.1903782209
 20
87.1956880576
 10
221.1978232482
 20
87.2200275641
 10
221.2067824585
 20
87.2443973421
 10
221.2171848402
 20
87.2686042345
 10
221.228947943
 20
87.292456375
 10
221.2419785315
 20
87.3157647093
 10
221.256173324
 20
87.3383444933
 10
221.2714198111
 20
87.3600167575
 10
221.2875971478
 20
87.3806097255
 10
221.304577111
 20
87.3999601753
 10
221.3222251157
 20
87.4179147334
 10
221.3404012823
 20
87.4343310904
 10
221.3589615447
 20
87.4490791285
 10
221.3777587924
 20
87.4620419535
  0
LWPOLYLINE
  5
38B
100
AcDbEntity
  8
RACCORDO
100
AcDbPolyline
 62
7
  6
CONTINUOUS
 90
5
 70
0
 10
204.6636956664
 20
40.0823858042
 10
204.6616312914
 20
40.0761793601
 10
204.6595343079
 20
40.0708571323
 10
204.6583428384
 20
40.0683044998
 10
204.6581995604
 20
40.0680188622
  0
LINE
  5
38C
100
AcDbEntity
  8
0
100
AcDbLine
 62
7
  6
CONTINUOUS
 10
202.8068156699
 20
43.422441716
 11
202.7007005839
 21
43.3578461689
  0
LINE
  5
38D
100
AcDbEntity
  8
0
100
AcDbLine
 62
7
  6
CONTINUOUS
 10
200.5241646624
 20
44.7402308959
 11
200.4105373355
 21
44.680157726
  0
LINE
  5
38E
100
AcDbEntity
  8
DRAFT
100
AcDbLine
 62
7
  6
CONTINUOUS
 10
223.9712546602
 20
49.9844553517
 11
224.3988844667
 21
50.13732067
  0
LINE
  5
38F
100
AcDbEntity
  8
RACCORDO
100
AcDbLine
 62
250
  6
CONTINUOUS
 10
61.5241889571
 20
182.2164524634
 11
61.6689883548
 21
182.2199003807
  0
LWPOLYLINE
  5
390
100
AcDbEntity
  8
RACCORDO
100
AcDbPolyline
 62
7
  6
CONTINUOUS
 90
8
 70
0
 10
61.5609149361
 20
182.2674005447
 10
61.4929418911
 20
182.2676790882
 10
61.3619349096
 20
182.2643456267
 10
61.2329887762
 20
182.2559385641
 10
61.1062723763
 20
182.2425228166
 10
60.9819397119
 20
182.2241745869
 10
60.8601447905
 20
182.2010057355
 10
60.8132291316
 20
182.19003003
  0
LWPOLYLINE
  5
391
100
AcDbEntity
  8
RACCORDO
100
AcDbPolyline
 62
250
  6
CONTINUOUS
 90
12
 70
0
 10
61.6689883548
 20
182.2199003807
 10
61.7874686195
 20
182.2177430717
 10
61.9076617502
 20
182.2111813338
 10
62.0294966858
 20
182.200168978
 10
62.1537216994
 20
182.184517105
 10
62.2794303777
 20
182.1642878055
 10
62.4041291455
 20
182.1399948392
 10
62.5276465861
 20
182.1117798873
 10
62.6501474023
 20
182.0797965879
 10
62.769753193
 20
182.0448669772
 10
62.8858926742
 20
182.0074742735
 10
62.9992532859
 20
181.9676403086
  0
LINE
  5
392
100
AcDbEntity
  8
RACCORDO
100
AcDbLine
 62
7
  6
CONTINUOUS
 10
223.8331990418
 20
15.3973689452
 11
223.8331990418
 21
87.2489911913
  0
LINE
  5
393
100
AcDbEntity
  8
DRAFT
100
AcDbLine
 62
7
  6
CONTINUOUS
 10
223.9712546602
 20
54.7543538025
 11
223.9712546602
 21
49.0390618649
  0
LINE
  5
394
100
AcDbEntity
  8
DRAFT
100
AcDbLine
 62
7
  6
CONTINUOUS
 10
224.7524378584
 20
88.2662418667
 11
224.7524378573
 21
56.2243382658
  0
LINE
  5
395
100
AcDbEntity
  8
DRAFT
100
AcDbLine
 62
7
  6
CONTINUOUS
 10
224.7524378573
 20
49.9331833733
 11
224.7524379224
 21
17.8912804785
  0
LWPOLYLINE
  5
396
100
AcDbEntity
  8
RACCORDO
100
AcDbPolyline
 62
7
  6
CONTINUOUS
 90
4
 70
0
 10
224.7524379224
 20
17.8912804785
 10
224.7516019667
 20
17.8640909923
 10
224.7493041425
 20
17.8387168833
 10
224.7481826527
 20
17.8304544436
  0
LINE
  5
397
100
AcDbEntity
  8
RACCORDO
100
AcDbLine
 62
7
  6
CONTINUOUS
 10
204.6581051689
 20
40.0678542747
 11
204.6581996585
 21
40.0680188058
  0
LWPOLYLINE
  5
398
100
AcDbEntity
  8
RACCORDO
100
AcDbPolyline
 62
250
  6
CONTINUOUS
 90
22
 70
0
 10
204.7386744571
 20
39.5945561934
 10
204.7178115501
 20
39.5611542907
 10
204.6948200959
 20
39.5304503844
 10
204.6696987455
 20
39.5024436214
 10
204.6423646611
 20
39.4770368338
 10
204.6128981961
 20
39.4543256167
 10
204.5815424938
 20
39.4345980731
 10
204.5482754734
 20
39.4178969633
 10
204.5131162616
 20
39.4041776491
 10
204.4763693229
 20
39.3935968224
 10
204.4380122546
 20
39.3861925377
 10
204.3980645667
 20
39.3819248966
 10
204.3568933615
 20
39.3808335116
 10
204.3144722935
 20
39.3829614348
 10
204.2708252249
 20
39.388264028
 10
204.2263945466
 20
39.3966493529
 10
204.1811661839
 20
39.4081648935
 10
204.1351524208
 20
39.4227620204
 10
204.0888353257
 20
39.440204714
 10
204.0423752818
 20
39.4604141052
 10
203.9956109997
 20
39.4834684829
 10
203.9485422549
 20
39.5093677034
  0
LINE
  5
399
100
AcDbEntity
  8
0
100
AcDbLine
 62
250
  6
CONTINUOUS
 10
204.2830847731
 20
40.1324522197
 11
204.668280112
 21
40.4040640413
  0
LWPOLYLINE
  5
39A
100
AcDbEntity
  8
RACCORDO
100
AcDbPolyline
 62
250
  6
CONTINUOUS
 90
4
 70
0
 10
204.6801494061
 20
40.0896391946
 10
204.6601488331
 20
40.0771112286
 10
204.6403289421
 20
40.0673583252
 10
204.6194337086
 20
40.0595069277
  0
LINE
  5
39B
100
AcDbEntity
  8
RACCORDO
100
AcDbLine
 62
250
  6
CONTINUOUS
 10
224.7524378338
 20
17.8912796061
 11
224.7313704843
 21
17.7623434696
  0
LWPOLYLINE
  5
39C
100
AcDbEntity
  8
RACCORDO
100
AcDbPolyline
 62
250
  6
CONTINUOUS
 90
12
 70
0
 10
224.7313704843
 20
17.7623434696
 10
224.7069602927
 20
17.6349121845
 10
224.6791532431
 20
17.5090395775
 10
224.6477850924
 20
17.38432062
 10
224.6128966336
 20
17.2612769756
 10
224.5748452718
 20
17.1413395206
 10
224.5337667989
 20
17.0248419208
 10
224.4896492943
 20
16.9115324751
 10
224.4427743994
 20
16.801937538
 10
224.3933226387
 20
16.6962468671
 10
224.341325205
 20
16.5943235416
 10
224.2868829039
 20
16.4961914765
  0
LWPOLYLINE
  5
39D
100
AcDbEntity
  8
RACCORDO
100
AcDbPolyline
 62
250
  6
CONTINUOUS
 90
6
 70
0
 10
60.9262167601
 20
182.1247923893
 10
60.9811452309
 20
182.1395990499
 10
61.1111409685
 20
182.1679160389
 10
61.2449630879
 20
182.1902774512
 10
61.3827991799
 20
182.2065220885
 10
61.5241889571
 20
182.2164524634
  0
LWPOLYLINE
  5
39E
100
AcDbEntity
  8
RACCORDO
100
AcDbPolyline
 62
7
  6
CONTINUOUS
 90
13
 70
0
 10
224.2739974415
 20
16.378897412
 10
224.3016587561
 20
16.4293878123
 10
224.359686837
 20
16.5422185372
 10
224.4150926955
 20
16.6600341467
 10
224.4676526751
 20
16.7827976259
 10
224.5171563956
 20
16.910470199
 10
224.5634176527
 20
17.0430238679
 10
224.6062492839
 20
17.1803969309
 10
224.6454689715
 20
17.3225079248
 10
224.6809128169
 20
17.4692962763
 10
224.7124255138
 20
17.6206861712
 10
224.739857184
 20
17.7765702706
 10
224.7482082538
 20
17.8304350083
  0
LINE
  5
39F
100
AcDbEntity
  8
RACCORDO
100
AcDbLine
 62
250
  6
CONTINUOUS
 10
224.2868829039
 20
16.4961914765
 11
224.2136993536
 21
16.3757914333
  0
LWPOLYLINE
  5
3A0
100
AcDbEntity
  8
RACCORDO
100
AcDbPolyline
 62
250
  6
CONTINUOUS
 90
6
 70
0
 10
224.2136993536
 20
16.3757914333
 10
224.1361920584
 20
16.2605232984
 10
224.0544592535
 20
16.150459048
 10
223.9686506334
 20
16.0457116966
 10
223.8788274676
 20
15.9463037971
 10
223.8331990418
 20
15.9005587283
  0
LWPOLYLINE
  5
3A1
100
AcDbEntity
  8
RACCORDO
100
AcDbPolyline
 62
7
  6
CONTINUOUS
 90
8
 70
0
 10
223.8331990418
 20
15.7700940656
 10
223.8701084588
 20
15.8096097435
 10
223.9508751394
 20
15.9036693394
 10
224.0287314533
 20
16.0023210399
 10
224.1035025097
 20
16.105485615
 10
224.1750406017
 20
16.2130680732
 10
224.2432111839
 20
16.3249550541
 10
224.273983125
 20
16.3788739622
  0
LWPOLYLINE
  5
3A2
100
AcDbEntity
  8
RACCORDO
100
AcDbPolyline
 62
250
  6
CONTINUOUS
 90
16
 70
0
 10
221.820974056
 20
14.1037040435
 10
221.8295303385
 20
14.1078621636
 10
221.8547013234
 20
14.1225774704
 10
221.8780142958
 20
14.1401384429
 10
221.8993691992
 20
14.1604865541
 10
221.9186761863
 20
14.1835547601
 10
221.9358985823
 20
14.2092893069
 10
221.9509526576
 20
14.2376033183
 10
221.9637646705
 20
14.2683992313
 10
221.9743225928
 20
14.3015920239
 10
221.9825621195
 20
14.3370629478
 10
221.9884311942
 20
14.3746882076
 10
221.991948133
 20
14.4143603769
 10
221.9930953918
 20
14.4559459362
 10
221.991818986
 20
14.4992864745
 10
221.9880945147
 20
14.5442256188
  0
LINE
  5
3A3
100
AcDbEntity
  8
RACCORDO
100
AcDbLine
 62
250
  6
CONTINUOUS
 10
221.9880945147
 20
14.5442256188
 11
223.8331990418
 21
15.3973689452
  0
LINE
  5
3A4
100
AcDbEntity
  8
RACCORDO
100
AcDbLine
 62
7
  6
CONTINUOUS
 10
221.8208225337
 20
14.1036339224
 11
223.5997398873
 21
14.9261734838
  0
ELLIPSE
  5
3A5
100
AcDbEntity
  8
RACCORDO
100
AcDbEllipse
 62
7
  6
CONTINUOUS
 10
223.1251218654
 20
15.8084432564
 30
0.0
 11
-0.5013954353
 21
0.868386877
 31
0.0
 40
0.5757524875
 41
-3.1938070556
 42
-2.3576120761
  0
ELLIPSE
  5
3A6
100
AcDbEntity
  8
RACCORDO
100
AcDbEllipse
 62
7
  6
CONTINUOUS
 10
223.1251218654
 20
87.6555866548
 30
0.0
 11
-0.5000243598
 21
0.8660113392
 31
0.0
 40
0.5789151826
 41
-2.3548735497
 42
-0.7868162787
  0
ELLIPSE
  5
3A7
100
AcDbEntity
  8
DRAFT
100
AcDbEllipse
 62
7
  6
CONTINUOUS
 10
219.6247658454
 20
56.2347896139
 30
0.0
 11
5.1478346794
 21
0.9575482268
 31
0.0
 40
0.6665647798
 41
-0.7006982462
 42
-0.2750682551
  0
ELLIPSE
  5
3A8
100
AcDbEntity
  8
0
100
AcDbEllipse
 62
7
  6
CONTINUOUS
 10
175.1143181341
 20
59.939950262
 30
0.0
 11
-0.4000194878
 21
0.6928090714
 31
0.0
 40
0.5789151826
 41
0.7867191038
 42
2.3547763749
  0
ELLIPSE
  5
3A9
100
AcDbEntity
  8
0
100
AcDbEllipse
 62
7
  6
CONTINUOUS
 10
124.9097366699
 20
88.9274463883
 30
0.0
 11
-0.4000194878
 21
0.6928090714
 31
0.0
 40
0.5789151826
 41
0.7867191038
 42
2.3547763749
  0
ELLIPSE
  5
3AA
100
AcDbEntity
  8
0
100
AcDbEllipse
 62
7
  6
CONTINUOUS
 10
74.7051552057
 20
117.9149425146
 30
0.0
 11
-0.4000194878
 21
0.6928090714
 31
0.0
 40
0.5789151826
 41
0.7867191038
 42
2.3547763749
  0
ELLIPSE
  5
3AB
100
AcDbEntity
  8
RACCORDO
100
AcDbEllipse
 62
7
  6
CONTINUOUS
 10
60.4925029828
 20
181.5576225321
 30
0.0
 11
-0.5013954353
 21
0.868386877
 31
0.0
 40
0.5757524875
 41
-0.7840766935
 42
0.052214402
  0
ELLIPSE
  5
3AC
100
AcDbEntity
  8
DRAFT
100
AcDbEllipse
 62
7
  6
CONTINUOUS
 10
219.6247658454
 20
50.828010443
 30
0.0
 11
5.1774686765
 21
-0.6785096723
 31
0.0
 40
0.4693271057
 41
-0.5159119978
 42
-0.0902820066
  0
ENDSEC
  0
SECTION
  2
OBJECTS
  0
DICTIONARY
  5
C
100
AcDbDictionary
280
0
281
1
  3
ACAD_GROUP
350
D
  3
ACAD_MLINESTYLE
350
17
  3
ACAD_LAYOUT
350
1A
  3
ACAD_PLOTSETTINGS
350
19
  3
ACAD_PLOTSTYLENAME
350
E
  0
DICTIONARY
  5
D
102
{ACAD_REACTORS
330
C
102
}
100
AcDbDictionary
280
0
281
1
  0
ACDBDICTIONARYWDFLT
  5
E
102
{ACAD_REACTORS
330
C
102
}
100
AcDbDictionary
281
1
  3
Normal
350
F
100
AcDbDictionaryWithDefault
340
F
  0
DICTIONARY
  5
17
102
{ACAD_REACTORS
330
C
102
}
100
AcDbDictionary
280
0
281
1
  3
Standard
350
18
  0
DICTIONARY
  5
19
102
{ACAD_REACTORS
330
C
102
}
100
AcDbDictionary
281
1
  0
DICTIONARY
  5
1A
102
{ACAD_REACTORS
330
C
102
}
100
AcDbDictionary
281
1
  3
Model
350
3AD
  3
Layout1
350
3AE
  0
ACDBPLACEHOLDER
  5
F
102
{ACAD_REACTORS
330
E
102
}
  0
MLINESTYLE
  5
18
102
{ACAD_REACTORS
330
17
102
}
100
AcDbMlineStyle
  2
STANDARD
 70
0
  3

 62
256
 51
90.0
 52
90.0
 71
2
 49
0.5
 62
256
  6
BYLAYER
 49
-0.5
 62
256
  6
BYLAYER
  0
LAYOUT
  5
3AD
102
{ACAD_REACTORS
330
1A
102
}
100
AcDbPlotSettings
  1

  2
none_device
  4
ISO_A4_(297.00_x_210.00_MM)
  6

 40
0.0
 41
0.0
 42
0.0
 43
0.0
 44
297.0
 45
210.0
 46
0.0
 47
0.0
 48
0.0
 49
0.0
140
0.0
141
0.0
142
1.0
143
1.0
 70
1024
 72
1
 73
0
 74
0
  7

 75
0
147
1.0
148
0.0
149
0.0
100
AcDbLayout
  1
Model
 70
0
 71
0
 10
0.0
 20
0.0
 11
297.0
 21
210.0
 12
0.0
 22
0.0
 32
0.0
 14
0.0
 24
0.0
 34
0.0
 15
0.0
 25
0.0
 35
0.0
146
0.0
 13
0.0
 23
0.0
 33
0.0
 16
1.0
 26
0.0
 36
0.0
 17
0.0
 27
1.0
 37
0.0
 76
0
330
215
345
0
346
0
  0
LAYOUT
  5
3AE
102
{ACAD_REACTORS
330
1A
102
}
100
AcDbPlotSettings
  1

  2
none_device
  4
ISO_A4_(297.00_x_210.00_MM)
  6

 40
0.0
 41
0.0
 42
0.0
 43
0.0
 44
297.0
 45
210.0
 46
0.0
 47
0.0
 48
0.0
 49
0.0
140
0.0
141
0.0
142
1.0
143
1.0
 70
0
 72
1
 73
0
 74
0
  7

 75
0
147
1.0
148
0.0
149
0.0
100
AcDbLayout
  1
Layout1
 70
0
 71
1
 10
0.0
 20
0.0
 11
297.0
 21
210.0
 12
0.0
 22
0.0
 32
0.0
 14
0.0
 24
0.0
 34
0.0
 15
0.0
 25
0.0
 35
0.0
146
0.0
 13
0.0
 23
0.0
 33
0.0
 16
1.0
 26
0.0
 36
0.0
 17
0.0
 27
1.0
 37
0.0
 76
0
330
216
345
0
346
0
  0
ENDSEC
  0
EOF
