  0
SECTION
  2
HEADER
  9
$ACADVER
  1
AC1024
  9
$DWGCODEPAGE
  3
ANSI_1252
  9
$EXTMAX
 10
297.0
 20
210.0
 30
0.0
  9
$EXTMIN
 10
0.0
 20
0.0
 30
0.0
  9
$LIMMIN
 10
0.0
 20
0.0
  9
$LIMMAX
 10
297.0
 20
210.0
  9
$VIEWCTR
 10
148.5
 20
105.0
  9
$VIEWSIZE
 40
210.0
  9
$CLAYER
  8
0
  9
$LTSCALE
 40
16.335
  9
$CELTYPE
  6
BYLAYER
  9
$DIMSCALE
 40
1.0
  9
$DIMASZ
 40
3.0
  9
$DIMEXO
 40
0.5
  9
$DIMDLI
 40
11.286
  9
$DIMEXE
 40
1.5
  9
$DIMCEN
 40
2.673
  9
$DIMLFAC
 40
1.0
  9
$DIMBLK
  1
_FILLED
  9
$DIMALT
 70
0
  9
$DIMALTF
 40
0.0393700787
  9
$DIMTXT
 40
3.0
  9
$DIMTOL
 70
1
  9
$DIMLIM
 70
0
  9
$DIMTFAC
 40
1.0
  9
$DIMTP
 40
0.01
  9
$DIMTM
 40
0.01
  9
$DIMGAP
 40
0.625
  9
$DIMDSEP
 70
44
  9
$AUNITS
 70
0
  9
$PDMODE
 70
3
  9
$PDSIZE
 40
3.0
  9
$HANDSEED
  5
516
  9
$TILEMODE
 70
1
  9
$MEASUREMENT
 70
1
  9
$INSUNITS
 70
4
  0
ENDSEC
  0
SECTION
  2
CLASSES
  0
CLASS
  1
ACDBDICTIONARYWDFLT
  2
AcDbDictionaryWithDefault
  3
AutoCAD 2000
 90
0
 91
1
280
0
281
0
  0
CLASS
  1
ACDBPLACEHOLDER
  2
AcDbPlaceHolder
  3
AutoCAD 2000
 90
0
 91
1
280
0
281
0
  0
CLASS
  1
LAYOUT
  2
AcDbLayout
  3
AutoCAD 2000
 90
0
 91
0
280
0
281
0
  0
ENDSEC
  0
SECTION
  2
TABLES
  0
TABLE
  2
VPORT
  5
8
100
AcDbSymbolTable
 70
2
  0
VPORT
  5
1F4
100
AcDbSymbolTableRecord
100
AcDbViewportTableRecord
  2
*ACTIVE
 70
0
 10
0.0
 20
0.0
 11
1.0
 21
1.0
 12
148.5
 22
105.0
 13
0.0
 23
0.0
 14
1.0
 24
1.0
 15
0.0
 25
0.0
 16
0.0
 26
0.0
 36
1.0
 17
0.0
 27
0.0
 37
0.0
 40
210.0
 41
1.4142857143
 42
50.0
 43
0.0
 44
0.0
 50
0.0
 51
0.0
 71
0
 72
100
 73
1
 74
1
 75
0
 76
0
 77
0
 78
0
  0
ENDTAB
  0
TABLE
  2
LTYPE
  5
5
100
AcDbSymbolTable
 70
6
  0
LTYPE
  5
14
100
AcDbSymbolTableRecord
100
AcDbLinetypeTableRecord
  2
BYBLOCK
 70
0
  3

 72
65
 73
0
 40
0.0
  0
LTYPE
  5
15
100
AcDbSymbolTableRecord
100
AcDbLinetypeTableRecord
  2
BYLAYER
 70
0
  3

 72
65
 73
0
 40
0.0
  0
LTYPE
  5
16
100
AcDbSymbolTableRecord
100
AcDbLinetypeTableRecord
  2
CONTINUOUS
 70
64
  3
Solid line
 72
65
 73
0
 40
0.0
  0
LTYPE
  5
1F5
100
AcDbSymbolTableRecord
100
AcDbLinetypeTableRecord
  2
CENTER
 70
64
  3
____ _ ____ _ ____ _ ____ _ ____ _ ____ _ ____
 72
65
 73
4
 40
0.6
 49
0.375
 74
0
 49
-0.075
 74
0
 49
0.075
 74
0
 49
-0.075
 74
0
  0
LTYPE
  5
1F6
100
AcDbSymbolTableRecord
100
AcDbLinetypeTableRecord
  2
HIDDEN
 70
64
  3
- - - - - - - - - - - - - - - - - - - -
 72
65
 73
2
 40
0.2
 49
0.1
 74
0
 49
-0.1
 74
0
  0
LTYPE
  5
1F7
100
AcDbSymbolTableRecord
100
AcDbLinetypeTableRecord
  2
PHANTOM
 70
64
  3
_____ _ _ _____ _ _ _____ _ _ _____
 72
65
 73
6
 40
0.8
 49
0.45
 74
0
 49
-0.05
 74
0
 49
0.1
 74
0
 49
-0.05
 74
0
 49
0.1
 74
0
 49
-0.05
 74
0
  0
LTYPE
  5
1F8
100
AcDbSymbolTableRecord
100
AcDbLinetypeTableRecord
  2
DOT
 70
64
  3
. . . . . . . . . . . . . . . . . . . .
 72
65
 73
2
 40
0.2
 49
0.1
 74
0
 49
-0.1
 74
0
  0
LTYPE
  5
1F9
100
AcDbSymbolTableRecord
100
AcDbLinetypeTableRecord
  2
DASHED
 70
64
  3
- - - - - - - - - - - - - - - - - - - -
 72
65
 73
2
 40
0.2
 49
0.1
 74
0
 49
-0.1
 74
0
  0
ENDTAB
  0
TABLE
  2
LAYER
  5
2
100
AcDbSymbolTable
 70
36
  0
LAYER
  5
10
100
AcDbSymbolTableRecord
100
AcDbLayerTableRecord
  2
0
 70
0
 62
7
  6
CONTINUOUS
370
-3
390
F
  0
LAYER
  5
1FA
100
AcDbSymbolTableRecord
100
AcDbLayerTableRecord
  2
DEFAULT_1
 70
0
 62
7
  6
CENTER
370
-3
390
F
  0
LAYER
  5
1FB
100
AcDbSymbolTableRecord
100
AcDbLayerTableRecord
  2
DEFAULT_2
 70
0
 62
7
  6
HIDDEN
370
-3
390
F
  0
LAYER
  5
1FC
100
AcDbSymbolTableRecord
100
AcDbLayerTableRecord
  2
DEFAULT_3
 70
0
 62
7
  6
PHANTOM
370
-3
390
F
  0
LAYER
  5
1FD
100
AcDbSymbolTableRecord
100
AcDbLayerTableRecord
  2
ASSI
 70
0
 62
7
  6
CONTINUOUS
370
-3
390
F
  0
LAYER
  5
1FE
100
AcDbSymbolTableRecord
100
AcDbLayerTableRecord
  2
COORDINATE
 70
0
 62
7
  6
CONTINUOUS
370
-3
390
F
  0
LAYER
  5
1FF
100
AcDbSymbolTableRecord
100
AcDbLayerTableRecord
  2
COPY_PUBLISH
 70
0
 62
7
  6
CONTINUOUS
370
-3
390
F
  0
LAYER
  5
200
100
AcDbSymbolTableRecord
100
AcDbLayerTableRecord
  2
COSMETIC
 70
0
 62
7
  6
CONTINUOUS
370
-3
390
F
  0
LAYER
  5
201
100
AcDbSymbolTableRecord
100
AcDbLayerTableRecord
  2
COSMETICI
 70
0
 62
7
  6
CONTINUOUS
370
-3
390
F
  0
LAYER
  5
202
100
AcDbSymbolTableRecord
100
AcDbLayerTableRecord
  2
CURVE
 70
0
 62
7
  6
CONTINUOUS
370
-3
390
F
  0
LAYER
  5
203
100
AcDbSymbolTableRecord
100
AcDbLayerTableRecord
  2
CURVE_VERNICIATURA
 70
0
 62
7
  6
CONTINUOUS
370
-3
390
F
  0
LAYER
  5
204
100
AcDbSymbolTableRecord
100
AcDbLayerTableRecord
  2
DRAFT
 70
0
 62
7
  6
CONTINUOUS
370
-3
390
F
  0
LAYER
  5
205
100
AcDbSymbolTableRecord
100
AcDbLayerTableRecord
  2
IMPORT_IGES
 70
0
 62
7
  6
CONTINUOUS
370
-3
390
F
  0
LAYER
  5
206
100
AcDbSymbolTableRecord
100
AcDbLayerTableRecord
  2
INTFCLR_1
 70
0
 62
7
  6
CONTINUOUS
370
-3
390
F
  0
LAYER
  5
207
100
AcDbSymbolTableRecord
100
AcDbLayerTableRecord
  2
INTF_1
 70
0
 62
7
  6
CONTINUOUS
370
-3
390
F
  0
LAYER
  5
208
100
AcDbSymbolTableRecord
100
AcDbLayerTableRecord
  2
NOTE
 70
0
 62
7
  6
CONTINUOUS
370
-3
390
F
  0
LAYER
  5
209
100
AcDbSymbolTableRecord
100
AcDbLayerTableRecord
  2
PIANI
 70
0
 62
7
  6
CONTINUOUS
370
-3
390
F
  0
LAYER
  5
20A
100
AcDbSymbolTableRecord
100
AcDbLayerTableRecord
  2
PUNTI
 70
0
 62
7
  6
CONTINUOUS
370
-3
390
F
  0
LAYER
  5
20B
100
AcDbSymbolTableRecord
100
AcDbLayerTableRecord
  2
RACCORDO
 70
0
 62
7
  6
CONTINUOUS
370
-3
390
F
  0
LAYER
  5
20C
100
AcDbSymbolTableRecord
100
AcDbLayerTableRecord
  2
RGB____0____0____0__
 70
0
 62
7
  6
CONTINUOUS
370
-3
390
F
  0
LAYER
  5
20D
100
AcDbSymbolTableRecord
100
AcDbLayerTableRecord
  2
SIMBOLI
 70
0
 62
7
  6
CONTINUOUS
370
-3
390
F
  0
LAYER
  5
20E
100
AcDbSymbolTableRecord
100
AcDbLayerTableRecord
  2
SMUSSO
 70
0
 62
7
  6
CONTINUOUS
370
-3
390
F
  0
LAYER
  5
20F
100
AcDbSymbolTableRecord
100
AcDbLayerTableRecord
  2
SNAPLINE
 70
0
 62
7
  6
CONTINUOUS
370
-3
390
F
  0
LAYER
  5
210
100
AcDbSymbolTableRecord
100
AcDbLayerTableRecord
  2
SUPERFICI
 70
0
 62
7
  6
CONTINUOUS
370
-3
390
F
  0
LAYER
  5
211
100
AcDbSymbolTableRecord
100
AcDbLayerTableRecord
  2
TRASH
 70
0
 62
7
  6
CONTINUOUS
370
-3
390
F
  0
LAYER
  5
212
100
AcDbSymbolTableRecord
100
AcDbLayerTableRecord
  2
XSEC_DATUMS
 70
0
 62
7
  6
CONTINUOUS
370
-3
390
F
  0
ENDTAB
  0
TABLE
  2
STYLE
  5
3
100
AcDbSymbolTable
 70
1
  0
STYLE
  5
11
100
AcDbSymbolTableRecord
100
AcDbTextStyleTableRecord
  2
STANDARD
 70
0
 40
0.0
 41
0.8
 50
0.0
 71
0
 42
0.2
  3
txt
  4

  0
STYLE
  5
213
100
AcDbSymbolTableRecord
100
AcDbTextStyleTableRecord
  2
TEXTSTYLE_1
 70
0
 40
0.0
 41
0.8
 50
0.0
 71
0
 42
0.2
  3
gdt
  4

  0
ENDTAB
  0
TABLE
  2
VIEW
  5
6
100
AcDbSymbolTable
 70
0
  0
ENDTAB
  0
TABLE
  2
UCS
  5
7
100
AcDbSymbolTable
 70
0
  0
ENDTAB
  0
TABLE
  2
APPID
  5
9
100
AcDbSymbolTable
 70
1
  0
APPID
  5
214
100
AcDbSymbolTableRecord
100
AcDbRegAppTableRecord
  2
ACAD
 70
0
  0
ENDTAB
  0
TABLE
  2
BLOCK_RECORD
  5
1
100
AcDbSymbolTable
 70
0
  0
BLOCK_RECORD
  5
215
100
AcDbSymbolTableRecord
100
AcDbBlockTableRecord
  2
*Model_Space
  0
BLOCK_RECORD
  5
216
100
AcDbSymbolTableRecord
100
AcDbBlockTableRecord
  2
*Paper_Space
  0
BLOCK_RECORD
  5
217
100
AcDbSymbolTableRecord
100
AcDbBlockTableRecord
  2
_FILLED
  0
ENDTAB
  0
TABLE
  2
DIMSTYLE
  5
A
100
AcDbSymbolTable
 70
1
100
AcDbDimStyleTable
 71
0
  0
DIMSTYLE
105
218
100
AcDbSymbolTableRecord
100
AcDbDimStyleTableRecord
  2
STANDARD
 70
0
  3

  4

 40
1.0
 41
3.0
 42
0.5
 43
0.38
 44
1.5
 45
0.0
 46
0.0
 47
0.01
 48
0.01
140
3.0
141
0.09
142
0.0
143
25.4
144
1.0
145
0.0
146
1.0
147
0.625
 71
1
 72
0
 73
0
 74
0
 75
0
 76
0
 77
1
 78
8
 79
2
170
0
171
1
172
0
173
0
174
0
175
0
176
0
177
0
178
0
270
2
179
2
271
2
272
2
273
2
274
2
275
0
280
0
281
0
282
0
283
1
284
8
285
0
286
0
287
3
288
0
340
11
278
44
341
217
342
217
343
217
344
217
  0
ENDTAB
  0
ENDSEC
  0
SECTION
  2
BLOCKS
  0
BLOCK
  5
20
100
AcDbEntity
  8
0
100
AcDbBlockBegin
  2
*Model_Space
 70
0
 10
0.0
 20
0.0
 30
0.0
  3
*Model_Space
  1

  0
ENDBLK
  5
21
100
AcDbEntity
  8
0
100
AcDbBlockEnd
  0
BLOCK
  5
1C
100
AcDbEntity
  8
0
100
AcDbBlockBegin
  2
*Paper_Space
 70
0
 10
0.0
 20
0.0
 30
0.0
  3
*Paper_Space
  1

  0
ENDBLK
  5
1D
100
AcDbEntity
  8
0
100
AcDbBlockEnd
  0
BLOCK
  5
219
100
AcDbEntity
  8
0
100
AcDbBlockBegin
  2
_FILLED
 70
64
 10
0.0
 20
0.0
  3
_FILLED
  1

  0
SOLID
  5
21A
100
AcDbEntity
  8
0
  6
BYBLOCK
 62
0
100
AcDbTrace
 10
0.0
 20
0.0
 11
-1.0
 21
0.3166666667
 12
-1.0
 22
-0.3166666667
 13
-1.0
 23
-0.3166666667
  0
ENDBLK
  5
21B
100
AcDbEntity
  8
0
  6
BYBLOCK
 62
0
100
AcDbBlockEnd
  0
ENDSEC
  0
SECTION
  2
ENTITIES
  0
LWPOLYLINE
  5
21C
100
AcDbEntity
  8
RACCORDO
100
AcDbPolyline
 62
7
  6
CONTINUOUS
 90
6
 70
0
 10
-41.7510952075
 20
61.0256111918
 10
-41.8158502171
 20
60.9733227571
 10
-41.9121084308
 20
60.8636499659
 10
-41.9878332374
 20
60.7301343509
 10
-42.0402932443
 20
60.575176982
 10
-42.059735681
 20
60.4714147774
  0
LWPOLYLINE
  5
21D
100
AcDbEntity
  8
ASSI
100
AcDbPolyline
 62
7
  6
CONTINUOUS
 90
6
 70
0
 10
-41.7510952075
 20
61.0256111918
 10
-41.8158502171
 20
60.9733227571
 10
-41.9121084308
 20
60.8636499659
 10
-41.9878332374
 20
60.7301343509
 10
-42.0402932443
 20
60.575176982
 10
-42.059735681
 20
60.4714147774
  0
LINE
  5
21E
100
AcDbEntity
  8
RACCORDO
100
AcDbLine
 62
7
  6
CONTINUOUS
 10
-41.7510674437
 20
61.0256320944
 11
-40.1429573868
 21
62.1595328132
  0
LINE
  5
21F
100
AcDbEntity
  8
ASSI
100
AcDbLine
 62
7
  6
CONTINUOUS
 10
-41.7510674437
 20
61.0256320944
 11
-40.1429573868
 21
62.1595328132
  0
LINE
  5
220
100
AcDbEntity
  8
RACCORDO
100
AcDbLine
 62
250
  6
CONTINUOUS
 10
-41.1929846469
 20
61.0156268247
 11
-39.617905571
 21
62.1262369033
  0
LINE
  5
221
100
AcDbEntity
  8
ASSI
100
AcDbLine
 62
250
  6
CONTINUOUS
 10
-41.1929846469
 20
61.0156268247
 11
-39.617905571
 21
62.1262369033
  0
LWPOLYLINE
  5
222
100
AcDbEntity
  8
RACCORDO
100
AcDbPolyline
 62
7
  6
CONTINUOUS
 90
4
 70
0
 10
-42.0597398626
 20
60.4714177453
 10
-42.8043206559
 20
54.2643190032
 10
-43.3537312471
 20
48.0831282293
 10
-43.6948712765
 20
42.0718412645
  0
LWPOLYLINE
  5
223
100
AcDbEntity
  8
ASSI
100
AcDbPolyline
 62
7
  6
CONTINUOUS
 90
4
 70
0
 10
-42.0597398626
 20
60.4714177453
 10
-42.8043206559
 20
54.2643190032
 10
-43.3537312471
 20
48.0831282293
 10
-43.6948712765
 20
42.0718412645
  0
LWPOLYLINE
  5
224
100
AcDbEntity
  8
RACCORDO
100
AcDbPolyline
 62
7
  6
CONTINUOUS
 90
4
 70
0
 10
-43.6948440251
 20
5.0566723361
 10
-43.3539661061
 20
-0.5143289527
 10
-42.8043755037
 20
-5.9946521675
 10
-42.0585146087
 20
-11.2565405887
  0
LWPOLYLINE
  5
225
100
AcDbEntity
  8
ASSI
100
AcDbPolyline
 62
7
  6
CONTINUOUS
 90
4
 70
0
 10
-43.6948440251
 20
5.0566723361
 10
-43.3539661061
 20
-0.5143289527
 10
-42.8043755037
 20
-5.9946521675
 10
-42.0585146087
 20
-11.2565405887
  0
LWPOLYLINE
  5
226
100
AcDbEntity
  8
RACCORDO
100
AcDbPolyline
 62
7
  6
CONTINUOUS
 90
5
 70
0
 10
-43.6948712773
 20
42.0718413139
 10
-43.9812256112
 20
32.6719310584
 10
-44.0776445979
 20
23.321988747
 10
-43.9813344808
 20
14.0953945508
 10
-43.6948440251
 20
5.0566722481
  0
LWPOLYLINE
  5
227
100
AcDbEntity
  8
ASSI
100
AcDbPolyline
 62
7
  6
CONTINUOUS
 90
5
 70
0
 10
-43.6948712773
 20
42.0718413139
 10
-43.9812256112
 20
32.6719310584
 10
-44.0776445979
 20
23.321988747
 10
-43.9813344808
 20
14.0953945508
 10
-43.6948440251
 20
5.0566722481
  0
LWPOLYLINE
  5
228
100
AcDbEntity
  8
RACCORDO
100
AcDbPolyline
 62
7
  6
CONTINUOUS
 90
6
 70
0
 10
-42.0387116154
 20
-11.3493405237
 10
-41.9835280042
 20
-11.511474664
 10
-41.9042473135
 20
-11.6733793639
 10
-41.8040258933
 20
-11.8305500686
 10
-41.6867343976
 20
-11.9775041349
 10
-41.5568303623
 20
-12.108613212
  0
LWPOLYLINE
  5
229
100
AcDbEntity
  8
ASSI
100
AcDbPolyline
 62
7
  6
CONTINUOUS
 90
6
 70
0
 10
-42.0387116154
 20
-11.3493405237
 10
-41.9835280042
 20
-11.511474664
 10
-41.9042473135
 20
-11.6733793639
 10
-41.8040258933
 20
-11.8305500686
 10
-41.6867343976
 20
-11.9775041349
 10
-41.5568303623
 20
-12.108613212
  0
LINE
  5
22A
100
AcDbEntity
  8
RACCORDO
100
AcDbLine
 62
7
  6
CONTINUOUS
 10
-42.0585405157
 20
-11.2563554412
 11
-42.0387116154
 21
-11.3493405237
  0
LINE
  5
22B
100
AcDbEntity
  8
ASSI
100
AcDbLine
 62
7
  6
CONTINUOUS
 10
-42.0585405157
 20
-11.2563554412
 11
-42.0387116154
 21
-11.3493405237
  0
LINE
  5
22C
100
AcDbEntity
  8
RACCORDO
100
AcDbLine
 62
7
  6
CONTINUOUS
 10
-42.058510513
 20
-11.2565399207
 11
-42.0585405157
 21
-11.2563554412
  0
LINE
  5
22D
100
AcDbEntity
  8
ASSI
100
AcDbLine
 62
7
  6
CONTINUOUS
 10
-42.058510513
 20
-11.2565399207
 11
-42.0585405157
 21
-11.2563554412
  0
LINE
  5
22E
100
AcDbEntity
  8
RACCORDO
100
AcDbLine
 62
250
  6
CONTINUOUS
 10
-24.4579772045
 20
31.0003105643
 11
-24.3851795536
 21
31.0474468635
  0
LINE
  5
22F
100
AcDbEntity
  8
ASSI
100
AcDbLine
 62
250
  6
CONTINUOUS
 10
-24.4579772045
 20
31.0003105643
 11
-24.3851795536
 21
31.0474468635
  0
LINE
  5
230
100
AcDbEntity
  8
0
100
AcDbLine
 62
7
  6
CONTINUOUS
 10
-22.5403077401
 20
29.4187762635
 11
-22.1867543495
 21
29.608657675
  0
LINE
  5
231
100
AcDbEntity
  8
ASSI
100
AcDbLine
 62
7
  6
CONTINUOUS
 10
-22.5403077401
 20
29.4187762635
 11
-22.1867543495
 21
29.608657675
  0
LINE
  5
232
100
AcDbEntity
  8
0
100
AcDbLine
 62
250
  6
CONTINUOUS
 10
-24.5988639585
 20
30.6580544409
 11
-24.0655552406
 21
30.9046445901
  0
LINE
  5
233
100
AcDbEntity
  8
ASSI
100
AcDbLine
 62
250
  6
CONTINUOUS
 10
-24.5988639585
 20
30.6580544409
 11
-24.0655552406
 21
30.9046445901
  0
LWPOLYLINE
  5
234
100
AcDbEntity
  8
RACCORDO
100
AcDbPolyline
 62
7
  6
CONTINUOUS
 90
6
 70
0
 10
-24.3864692011
 20
31.0469953489
 10
-24.386418207
 20
31.0470182312
 10
-24.3731002651
 20
31.0478334635
 10
-24.3288466807
 20
31.0406022263
 10
-24.2594400589
 20
31.0144396216
 10
-24.2169842781
 20
30.9920764324
  0
LWPOLYLINE
  5
235
100
AcDbEntity
  8
ASSI
100
AcDbPolyline
 62
7
  6
CONTINUOUS
 90
6
 70
0
 10
-24.3864692011
 20
31.0469953489
 10
-24.386418207
 20
31.0470182312
 10
-24.3731002651
 20
31.0478334635
 10
-24.3288466807
 20
31.0406022263
 10
-24.2594400589
 20
31.0144396216
 10
-24.2169842781
 20
30.9920764324
  0
LWPOLYLINE
  5
236
100
AcDbEntity
  8
RACCORDO
100
AcDbPolyline
 62
7
  6
CONTINUOUS
 90
7
 70
0
 10
43.3485821492
 20
-61.1677541987
 10
43.4230207623
 20
-61.2068572024
 10
43.553832597
 20
-61.2562304759
 10
43.681248487
 20
-61.2789927326
 10
43.8044001226
 20
-61.2742592507
 10
43.9182736441
 20
-61.2417391927
 10
43.930617102
 20
-61.2362486965
  0
LWPOLYLINE
  5
237
100
AcDbEntity
  8
ASSI
100
AcDbPolyline
 62
7
  6
CONTINUOUS
 90
7
 70
0
 10
43.3485821492
 20
-61.1677541987
 10
43.4230207623
 20
-61.2068572024
 10
43.553832597
 20
-61.2562304759
 10
43.681248487
 20
-61.2789927326
 10
43.8044001226
 20
-61.2742592507
 10
43.9182736441
 20
-61.2417391927
 10
43.930617102
 20
-61.2362486965
  0
LINE
  5
238
100
AcDbEntity
  8
RACCORDO
100
AcDbLine
 62
7
  6
CONTINUOUS
 10
-41.331889762
 20
-12.2743164515
 11
43.3486387191
 21
-61.1677923002
  0
LINE
  5
239
100
AcDbEntity
  8
ASSI
100
AcDbLine
 62
7
  6
CONTINUOUS
 10
-41.331889762
 20
-12.2743164515
 11
43.3486387191
 21
-61.1677923002
  0
LINE
  5
23A
100
AcDbEntity
  8
RACCORDO
100
AcDbLine
 62
250
  6
CONTINUOUS
 10
-41.3904891533
 20
-12.1794297064
 11
43.290039262
 21
-61.0729055171
  0
LINE
  5
23B
100
AcDbEntity
  8
ASSI
100
AcDbLine
 62
250
  6
CONTINUOUS
 10
-41.3904891533
 20
-12.1794297064
 11
43.290039262
 21
-61.0729055171
  0
LINE
  5
23C
100
AcDbEntity
  8
RACCORDO
100
AcDbLine
 62
7
  6
CONTINUOUS
 10
43.3485798056
 20
-61.1677582576
 11
43.3486386956
 21
-61.1677922867
  0
LINE
  5
23D
100
AcDbEntity
  8
ASSI
100
AcDbLine
 62
7
  6
CONTINUOUS
 10
43.3485798056
 20
-61.1677582576
 11
43.3486386956
 21
-61.1677922867
  0
LWPOLYLINE
  5
23E
100
AcDbEntity
  8
RACCORDO
100
AcDbPolyline
 62
7
  6
CONTINUOUS
 90
3
 70
0
 10
-41.5568303623
 20
-12.108613212
 10
-41.4188424114
 20
-12.2188294032
 10
-41.3317849934
 20
-12.274371929
  0
LWPOLYLINE
  5
23F
100
AcDbEntity
  8
ASSI
100
AcDbPolyline
 62
7
  6
CONTINUOUS
 90
3
 70
0
 10
-41.5568303623
 20
-12.108613212
 10
-41.4188424114
 20
-12.2188294032
 10
-41.3317849934
 20
-12.274371929
  0
LINE
  5
240
100
AcDbEntity
  8
0
100
AcDbLine
 62
7
  6
CONTINUOUS
 10
-22.5403077401
 20
-3.8267150424
 11
-22.5403077401
 21
30.0239857992
  0
LINE
  5
241
100
AcDbEntity
  8
ASSI
100
AcDbLine
 62
7
  6
CONTINUOUS
 10
-22.5403077401
 20
-3.8267150424
 11
-22.5403077401
 21
30.0239857992
  0
LINE
  5
242
100
AcDbEntity
  8
0
100
AcDbLine
 62
7
  6
CONTINUOUS
 10
-22.1867543495
 20
29.608657675
 11
-22.1867543495
 21
2.6651385409
  0
LINE
  5
243
100
AcDbEntity
  8
ASSI
100
AcDbLine
 62
7
  6
CONTINUOUS
 10
-22.1867543495
 20
29.608657675
 11
-22.1867543495
 21
2.6651385409
  0
LINE
  5
244
100
AcDbEntity
  8
0
100
AcDbLine
 62
7
  6
CONTINUOUS
 10
-19.9947233278
 20
3.4481752015
 11
-19.9947233278
 21
0.3310529749
  0
LINE
  5
245
100
AcDbEntity
  8
ASSI
100
AcDbLine
 62
7
  6
CONTINUOUS
 10
-19.9947233278
 20
3.4481752015
 11
-19.9947233278
 21
0.3310529749
  0
LINE
  5
246
100
AcDbEntity
  8
0
100
AcDbLine
 62
7
  6
CONTINUOUS
 10
3.4234003472
 20
-26.9399935519
 11
3.0259125808
 21
-26.7104890973
  0
LINE
  5
247
100
AcDbEntity
  8
ASSI
100
AcDbLine
 62
7
  6
CONTINUOUS
 10
3.4234003472
 20
-26.9399935519
 11
3.0259125808
 21
-26.7104890973
  0
LINE
  5
248
100
AcDbEntity
  8
0
100
AcDbLine
 62
7
  6
CONTINUOUS
 10
2.3930942422
 20
-26.3451077197
 11
1.9815181139
 21
-26.1074688215
  0
LINE
  5
249
100
AcDbEntity
  8
ASSI
100
AcDbLine
 62
7
  6
CONTINUOUS
 10
2.3930942422
 20
-26.3451077197
 11
1.9815181139
 21
-26.1074688215
  0
LINE
  5
24A
100
AcDbEntity
  8
0
100
AcDbLine
 62
7
  6
CONTINUOUS
 10
1.7682470483
 20
-25.9843285172
 11
1.3327102833
 21
-25.7328550476
  0
LINE
  5
24B
100
AcDbEntity
  8
ASSI
100
AcDbLine
 62
7
  6
CONTINUOUS
 10
1.7682470483
 20
-25.9843285172
 11
1.3327102833
 21
-25.7328550476
  0
LINE
  5
24C
100
AcDbEntity
  8
0
100
AcDbLine
 62
7
  6
CONTINUOUS
 10
0.5488689814
 20
-25.2802749037
 11
0.1401138857
 21
-25.0442648344
  0
LINE
  5
24D
100
AcDbEntity
  8
ASSI
100
AcDbLine
 62
7
  6
CONTINUOUS
 10
0.5488689814
 20
-25.2802749037
 11
0.1401138857
 21
-25.0442648344
  0
LINE
  5
24E
100
AcDbEntity
  8
0
100
AcDbLine
 62
7
  6
CONTINUOUS
 10
-0.0732683135
 20
-24.9210606269
 11
-0.4775255029
 21
-24.6876475922
  0
LINE
  5
24F
100
AcDbEntity
  8
ASSI
100
AcDbLine
 62
7
  6
CONTINUOUS
 10
-0.0732683135
 20
-24.9210606269
 11
-0.4775255029
 21
-24.6876475922
  0
LINE
  5
250
100
AcDbEntity
  8
0
100
AcDbLine
 62
7
  6
CONTINUOUS
 10
-1.0537680321
 20
-24.3549323779
 11
-1.1117246252
 21
-24.3214689674
  0
LINE
  5
251
100
AcDbEntity
  8
ASSI
100
AcDbLine
 62
7
  6
CONTINUOUS
 10
-1.0537680321
 20
-24.3549323779
 11
-1.1117246252
 21
-24.3214689674
  0
LINE
  5
252
100
AcDbEntity
  8
0
100
AcDbLine
 62
7
  6
CONTINUOUS
 10
-1.6856803711
 20
-23.9900741131
 11
-2.0810159943
 21
-23.761812279
  0
LINE
  5
253
100
AcDbEntity
  8
ASSI
100
AcDbLine
 62
7
  6
CONTINUOUS
 10
-1.6856803711
 20
-23.9900741131
 11
-2.0810159943
 21
-23.761812279
  0
LINE
  5
254
100
AcDbEntity
  8
0
100
AcDbLine
 62
7
  6
CONTINUOUS
 10
-2.2964042553
 20
-23.6374497965
 11
-2.7096431151
 21
-23.3988508579
  0
LINE
  5
255
100
AcDbEntity
  8
ASSI
100
AcDbLine
 62
7
  6
CONTINUOUS
 10
-2.2964042553
 20
-23.6374497965
 11
-2.7096431151
 21
-23.3988508579
  0
LINE
  5
256
100
AcDbEntity
  8
0
100
AcDbLine
 62
7
  6
CONTINUOUS
 10
-3.5559169961
 20
-22.9102229253
 11
-3.9200840595
 21
-22.699957427
  0
LINE
  5
257
100
AcDbEntity
  8
ASSI
100
AcDbLine
 62
7
  6
CONTINUOUS
 10
-3.5559169961
 20
-22.9102229253
 11
-3.9200840595
 21
-22.699957427
  0
LINE
  5
258
100
AcDbEntity
  8
0
100
AcDbLine
 62
7
  6
CONTINUOUS
 10
3.3825159488
 20
-26.793433427
 11
3.132386996
 21
-26.6490121044
  0
LINE
  5
259
100
AcDbEntity
  8
ASSI
100
AcDbLine
 62
7
  6
CONTINUOUS
 10
3.3825159488
 20
-26.793433427
 11
3.132386996
 21
-26.6490121044
  0
LINE
  5
25A
100
AcDbEntity
  8
0
100
AcDbLine
 62
7
  6
CONTINUOUS
 10
2.3830563262
 20
-26.216357967
 11
2.0879925291
 21
-26.0459918286
  0
LINE
  5
25B
100
AcDbEntity
  8
ASSI
100
AcDbLine
 62
7
  6
CONTINUOUS
 10
2.3830563262
 20
-26.216357967
 11
2.0879925291
 21
-26.0459918286
  0
LINE
  5
25C
100
AcDbEntity
  8
0
100
AcDbLine
 62
7
  6
CONTINUOUS
 10
1.7226502493
 20
-25.8350475112
 11
1.4391846985
 21
-25.6713780548
  0
LINE
  5
25D
100
AcDbEntity
  8
ASSI
100
AcDbLine
 62
7
  6
CONTINUOUS
 10
1.7226502493
 20
-25.8350475112
 11
1.4391846985
 21
-25.6713780548
  0
LINE
  5
25E
100
AcDbEntity
  8
0
100
AcDbLine
 62
7
  6
CONTINUOUS
 10
0.5723769744
 20
-25.1708941385
 11
0.2465883008
 21
-24.9827878415
  0
LINE
  5
25F
100
AcDbEntity
  8
ASSI
100
AcDbLine
 62
7
  6
CONTINUOUS
 10
0.5723769744
 20
-25.1708941385
 11
0.2465883008
 21
-24.9827878415
  0
LINE
  5
260
100
AcDbEntity
  8
0
100
AcDbLine
 62
7
  6
CONTINUOUS
 10
-0.0940406453
 20
-24.7861129571
 11
-0.3710510878
 21
-24.6261705994
  0
LINE
  5
261
100
AcDbEntity
  8
ASSI
100
AcDbLine
 62
7
  6
CONTINUOUS
 10
-0.0940406453
 20
-24.7861129571
 11
-0.3710510878
 21
-24.6261705994
  0
LINE
  5
262
100
AcDbEntity
  8
0
100
AcDbLine
 62
7
  6
CONTINUOUS
 10
-1.6875488816
 20
-23.8660412728
 11
-1.9745415791
 21
-23.7003352861
  0
LINE
  5
263
100
AcDbEntity
  8
ASSI
100
AcDbLine
 62
7
  6
CONTINUOUS
 10
-1.6875488816
 20
-23.8660412728
 11
-1.9745415791
 21
-23.7003352861
  0
LINE
  5
264
100
AcDbEntity
  8
0
100
AcDbLine
 62
7
  6
CONTINUOUS
 10
-2.3062941298
 20
-23.5087855212
 11
-2.6031687
 21
-23.3373738651
  0
LINE
  5
265
100
AcDbEntity
  8
ASSI
100
AcDbLine
 62
7
  6
CONTINUOUS
 10
-2.3062941298
 20
-23.5087855212
 11
-2.6031687
 21
-23.3373738651
  0
LINE
  5
266
100
AcDbEntity
  8
0
100
AcDbLine
 62
7
  6
CONTINUOUS
 10
-3.5283991185
 20
-22.8031574173
 11
-3.8136096444
 21
-22.6384804342
  0
LINE
  5
267
100
AcDbEntity
  8
ASSI
100
AcDbLine
 62
7
  6
CONTINUOUS
 10
-3.5283991185
 20
-22.8031574173
 11
-3.8136096444
 21
-22.6384804342
  0
LINE
  5
268
100
AcDbEntity
  8
0
100
AcDbLine
 62
7
  6
CONTINUOUS
 10
1.1916274411
 20
-25.234353931
 11
0.6288644884
 21
-24.9094216552
  0
LINE
  5
269
100
AcDbEntity
  8
ASSI
100
AcDbLine
 62
7
  6
CONTINUOUS
 10
1.1916274411
 20
-25.234353931
 11
0.6288644884
 21
-24.9094216552
  0
LINE
  5
26A
100
AcDbEntity
  8
0
100
AcDbLine
 62
7
  6
CONTINUOUS
 10
1.2980711131
 20
-25.1728946888
 11
0.7353081605
 21
-24.847962413
  0
LINE
  5
26B
100
AcDbEntity
  8
ASSI
100
AcDbLine
 62
7
  6
CONTINUOUS
 10
1.2980711131
 20
-25.1728946888
 11
0.7353081605
 21
-24.847962413
  0
LINE
  5
26C
100
AcDbEntity
  8
0
100
AcDbLine
 62
7
  6
CONTINUOUS
 10
1.0836225401
 20
-24.8482313315
 11
0.6879757899
 21
-24.6197898566
  0
LINE
  5
26D
100
AcDbEntity
  8
ASSI
100
AcDbLine
 62
7
  6
CONTINUOUS
 10
1.0836225401
 20
-24.8482313315
 11
0.6879757899
 21
-24.6197898566
  0
LINE
  5
26E
100
AcDbEntity
  8
0
100
AcDbLine
 62
7
  6
CONTINUOUS
 10
2.5492042508
 20
-25.6162686732
 11
2.3276354399
 21
-25.4883376187
  0
LINE
  5
26F
100
AcDbEntity
  8
ASSI
100
AcDbLine
 62
7
  6
CONTINUOUS
 10
2.5492042508
 20
-25.6162686732
 11
2.3276354399
 21
-25.4883376187
  0
LINE
  5
270
100
AcDbEntity
  8
0
100
AcDbLine
 62
7
  6
CONTINUOUS
 10
2.65561955
 20
-25.5548258132
 11
2.434050739
 21
-25.4268947586
  0
LINE
  5
271
100
AcDbEntity
  8
ASSI
100
AcDbLine
 62
7
  6
CONTINUOUS
 10
2.65561955
 20
-25.5548258132
 11
2.434050739
 21
-25.4268947586
  0
LINE
  5
272
100
AcDbEntity
  8
0
100
AcDbLine
 62
7
  6
CONTINUOUS
 10
2.5242209676
 20
-25.2573512142
 11
2.2880590483
 21
-25.1209942818
  0
LINE
  5
273
100
AcDbEntity
  8
ASSI
100
AcDbLine
 62
7
  6
CONTINUOUS
 10
2.5242209676
 20
-25.2573512142
 11
2.2880590483
 21
-25.1209942818
  0
LINE
  5
274
100
AcDbEntity
  8
0
100
AcDbLine
 62
7
  6
CONTINUOUS
 10
1.0037344327
 20
-23.4384437873
 11
0.6039751495
 21
-23.2076277873
  0
LINE
  5
275
100
AcDbEntity
  8
ASSI
100
AcDbLine
 62
7
  6
CONTINUOUS
 10
1.0037344327
 20
-23.4384437873
 11
0.6039751495
 21
-23.2076277873
  0
LINE
  5
276
100
AcDbEntity
  8
0
100
AcDbLine
 62
7
  6
CONTINUOUS
 10
-0.4154868599
 20
-22.6190032
 11
-0.8243459003
 21
-22.3829331142
  0
LINE
  5
277
100
AcDbEntity
  8
ASSI
100
AcDbLine
 62
7
  6
CONTINUOUS
 10
-0.4154868599
 20
-22.6190032
 11
-0.8243459003
 21
-22.3829331142
  0
LINE
  5
278
100
AcDbEntity
  8
0
100
AcDbLine
 62
7
  6
CONTINUOUS
 10
-1.6464593568
 20
-21.908255108
 11
-2.059356684
 21
-21.6698533661
  0
LINE
  5
279
100
AcDbEntity
  8
ASSI
100
AcDbLine
 62
7
  6
CONTINUOUS
 10
-1.6464593568
 20
-21.908255108
 11
-2.059356684
 21
-21.6698533661
  0
LINE
  5
27A
100
AcDbEntity
  8
0
100
AcDbLine
 62
7
  6
CONTINUOUS
 10
-3.0766606035
 20
-21.0824748328
 11
-3.4896173276
 21
-20.8440387958
  0
LINE
  5
27B
100
AcDbEntity
  8
ASSI
100
AcDbLine
 62
7
  6
CONTINUOUS
 10
-3.0766606035
 20
-21.0824748328
 11
-3.4896173276
 21
-20.8440387958
  0
LINE
  5
27C
100
AcDbEntity
  8
0
100
AcDbLine
 62
7
  6
CONTINUOUS
 10
-4.2558742982
 20
-20.4016116244
 11
-4.704779624
 21
-20.1424193154
  0
LINE
  5
27D
100
AcDbEntity
  8
ASSI
100
AcDbLine
 62
7
  6
CONTINUOUS
 10
-4.2558742982
 20
-20.4016116244
 11
-4.704779624
 21
-20.1424193154
  0
LINE
  5
27E
100
AcDbEntity
  8
0
100
AcDbLine
 62
7
  6
CONTINUOUS
 10
-2.4535078427
 20
-21.4421479885
 11
-2.8667467025
 21
-21.20354905
  0
LINE
  5
27F
100
AcDbEntity
  8
ASSI
100
AcDbLine
 62
7
  6
CONTINUOUS
 10
-2.4535078427
 20
-21.4421479885
 11
-2.8667467025
 21
-21.20354905
  0
LINE
  5
280
100
AcDbEntity
  8
RACCORDO
100
AcDbLine
 62
250
  6
CONTINUOUS
 10
22.6216158759
 20
-33.6917142375
 11
-24.3198737659
 21
-6.5882864334
  0
LINE
  5
281
100
AcDbEntity
  8
ASSI
100
AcDbLine
 62
250
  6
CONTINUOUS
 10
22.6216158759
 20
-33.6917142375
 11
-24.3198737659
 21
-6.5882864334
  0
LINE
  5
282
100
AcDbEntity
  8
RACCORDO
100
AcDbLine
 62
250
  6
CONTINUOUS
 10
41.8720056722
 20
-44.4196975871
 11
23.3282677845
 21
-33.7128202064
  0
LINE
  5
283
100
AcDbEntity
  8
ASSI
100
AcDbLine
 62
250
  6
CONTINUOUS
 10
41.8720056722
 20
-44.4196975871
 11
23.3282677845
 21
-33.7128202064
  0
LINE
  5
284
100
AcDbEntity
  8
RACCORDO
100
AcDbLine
 62
250
  6
CONTINUOUS
 10
-25.063237578
 20
-5.7721714982
 11
-43.6069795619
 21
4.9347972984
  0
LINE
  5
285
100
AcDbEntity
  8
ASSI
100
AcDbLine
 62
250
  6
CONTINUOUS
 10
-25.063237578
 20
-5.7721714982
 11
-43.6069795619
 21
4.9347972984
  0
LINE
  5
286
100
AcDbEntity
  8
0
100
AcDbLine
 62
7
  6
CONTINUOUS
 10
-22.1867543495
 20
2.6651385409
 11
-20.335937883
 21
3.6591486463
  0
LINE
  5
287
100
AcDbEntity
  8
ASSI
100
AcDbLine
 62
7
  6
CONTINUOUS
 10
-22.1867543495
 20
2.6651385409
 11
-20.335937883
 21
3.6591486463
  0
LINE
  5
288
100
AcDbEntity
  8
0
100
AcDbLine
 62
7
  6
CONTINUOUS
 10
-21.2709151598
 20
4.0879636376
 11
-22.1867543495
 21
3.6136078364
  0
LINE
  5
289
100
AcDbEntity
  8
ASSI
100
AcDbLine
 62
7
  6
CONTINUOUS
 10
-21.2709151598
 20
4.0879636376
 11
-22.1867543495
 21
3.6136078364
  0
LINE
  5
28A
100
AcDbEntity
  8
0
100
AcDbLine
 62
250
  6
CONTINUOUS
 10
-21.0286178802
 20
4.0590933954
 11
-22.1867543495
 21
3.4592405402
  0
LINE
  5
28B
100
AcDbEntity
  8
ASSI
100
AcDbLine
 62
250
  6
CONTINUOUS
 10
-21.0286178802
 20
4.0590933954
 11
-22.1867543495
 21
3.4592405402
  0
LINE
  5
28C
100
AcDbEntity
  8
RACCORDO
100
AcDbLine
 62
250
  6
CONTINUOUS
 10
22.9561891997
 20
-33.0691088708
 11
-23.9853335032
 21
-5.9656619776
  0
LINE
  5
28D
100
AcDbEntity
  8
ASSI
100
AcDbLine
 62
250
  6
CONTINUOUS
 10
22.9561891997
 20
-33.0691088708
 11
-23.9853335032
 21
-5.9656619776
  0
LINE
  5
28E
100
AcDbEntity
  8
0
100
AcDbLine
 62
7
  6
CONTINUOUS
 10
-21.9753975674
 20
-4.8051681623
 11
23.2866791042
 21
-30.9389239654
  0
LINE
  5
28F
100
AcDbEntity
  8
ASSI
100
AcDbLine
 62
7
  6
CONTINUOUS
 10
-21.9753975674
 20
-4.8051681623
 11
23.2866791042
 21
-30.9389239654
  0
LINE
  5
290
100
AcDbEntity
  8
0
100
AcDbLine
 62
7
  6
CONTINUOUS
 10
3.3652898511
 20
-18.0861779048
 11
5.647784969
 21
-19.4040619795
  0
LINE
  5
291
100
AcDbEntity
  8
ASSI
100
AcDbLine
 62
7
  6
CONTINUOUS
 10
3.3652898511
 20
-18.0861779048
 11
5.647784969
 21
-19.4040619795
  0
LINE
  5
292
100
AcDbEntity
  8
0
100
AcDbLine
 62
7
  6
CONTINUOUS
 10
-22.5403077401
 20
-1.6356060249
 11
-20.335937883
 21
-0.2739464855
  0
LINE
  5
293
100
AcDbEntity
  8
ASSI
100
AcDbLine
 62
7
  6
CONTINUOUS
 10
-22.5403077401
 20
-1.6356060249
 11
-20.335937883
 21
-0.2739464855
  0
LINE
  5
294
100
AcDbEntity
  8
0
100
AcDbLine
 62
250
  6
CONTINUOUS
 10
-24.5988633798
 20
-5.0153139966
 11
-22.5403077401
 21
-3.8267150424
  0
LINE
  5
295
100
AcDbEntity
  8
ASSI
100
AcDbLine
 62
250
  6
CONTINUOUS
 10
-24.5988633798
 20
-5.0153139966
 11
-22.5403077401
 21
-3.8267150424
  0
LINE
  5
296
100
AcDbEntity
  8
0
100
AcDbLine
 62
250
  6
CONTINUOUS
 10
-23.9853335032
 20
-5.9656619776
 11
-21.9753975674
 21
-4.8051681623
  0
LINE
  5
297
100
AcDbEntity
  8
ASSI
100
AcDbLine
 62
250
  6
CONTINUOUS
 10
-23.9853335032
 20
-5.9656619776
 11
-21.9753975674
 21
-4.8051681623
  0
LINE
  5
298
100
AcDbEntity
  8
0
100
AcDbLine
 62
250
  6
CONTINUOUS
 10
-21.0286178802
 20
4.0590933954
 11
-20.335937883
 21
3.6591486463
  0
LINE
  5
299
100
AcDbEntity
  8
ASSI
100
AcDbLine
 62
250
  6
CONTINUOUS
 10
-21.0286178802
 20
4.0590933954
 11
-20.335937883
 21
3.6591486463
  0
LINE
  5
29A
100
AcDbEntity
  8
0
100
AcDbLine
 62
7
  6
CONTINUOUS
 10
-20.7909446355
 20
4.0769883811
 11
-20.0982646384
 21
3.6770436321
  0
LINE
  5
29B
100
AcDbEntity
  8
ASSI
100
AcDbLine
 62
7
  6
CONTINUOUS
 10
-20.7909446355
 20
4.0769883811
 11
-20.0982646384
 21
3.6770436321
  0
LINE
  5
29C
100
AcDbEntity
  8
0
100
AcDbLine
 62
7
  6
CONTINUOUS
 10
5.0722120652
 20
-20.422118978
 11
5.0722120652
 21
-20.3035840498
  0
LINE
  5
29D
100
AcDbEntity
  8
ASSI
100
AcDbLine
 62
7
  6
CONTINUOUS
 10
5.0722120652
 20
-20.422118978
 11
5.0722120652
 21
-20.3035840498
  0
LINE
  5
29E
100
AcDbEntity
  8
0
100
AcDbLine
 62
7
  6
CONTINUOUS
 10
5.6479408586
 20
-19.4039670847
 11
5.6479408586
 21
-19.8265975503
  0
LINE
  5
29F
100
AcDbEntity
  8
ASSI
100
AcDbLine
 62
7
  6
CONTINUOUS
 10
5.6479408586
 20
-19.4039670847
 11
5.6479408586
 21
-19.8265975503
  0
LINE
  5
2A0
100
AcDbEntity
  8
DRAFT
100
AcDbLine
 62
7
  6
CONTINUOUS
 10
46.5086694428
 20
-25.2025702695
 11
46.8622228334
 21
-25.4067075661
  0
LINE
  5
2A1
100
AcDbEntity
  8
ASSI
100
AcDbLine
 62
7
  6
CONTINUOUS
 10
46.5086694428
 20
-25.2025702695
 11
46.8622228334
 21
-25.4067075661
  0
LINE
  5
2A2
100
AcDbEntity
  8
RACCORDO
100
AcDbLine
 62
250
  6
CONTINUOUS
 10
43.4875437684
 20
12.122151014
 11
45.2368463019
 21
13.1321666517
  0
LINE
  5
2A3
100
AcDbEntity
  8
ASSI
100
AcDbLine
 62
250
  6
CONTINUOUS
 10
43.4875437684
 20
12.122151014
 11
45.2368463019
 21
13.1321666517
  0
LINE
  5
2A4
100
AcDbEntity
  8
RACCORDO
100
AcDbLine
 62
250
  6
CONTINUOUS
 10
44.0978794907
 20
10.8437702761
 11
45.9429840178
 21
11.9091002518
  0
LINE
  5
2A5
100
AcDbEntity
  8
ASSI
100
AcDbLine
 62
250
  6
CONTINUOUS
 10
44.0978794907
 20
10.8437702761
 11
45.9429840178
 21
11.9091002518
  0
LINE
  5
2A6
100
AcDbEntity
  8
0
100
AcDbLine
 62
7
  6
CONTINUOUS
 10
-3.6675347684
 20
-22.071120657
 11
-3.7739617229
 21
-22.1325702467
  0
LINE
  5
2A7
100
AcDbEntity
  8
ASSI
100
AcDbLine
 62
7
  6
CONTINUOUS
 10
-3.6675347684
 20
-22.071120657
 11
-3.7739617229
 21
-22.1325702467
  0
LINE
  5
2A8
100
AcDbEntity
  8
0
100
AcDbLine
 62
7
  6
CONTINUOUS
 10
-3.8136096444
 20
-22.6384804342
 11
-3.9200840595
 21
-22.699957427
  0
LINE
  5
2A9
100
AcDbEntity
  8
ASSI
100
AcDbLine
 62
7
  6
CONTINUOUS
 10
-3.8136096444
 20
-22.6384804342
 11
-3.9200840595
 21
-22.699957427
  0
LINE
  5
2AA
100
AcDbEntity
  8
0
100
AcDbLine
 62
7
  6
CONTINUOUS
 10
-1.5964907266
 20
-22.5489228284
 11
-1.7028691161
 21
-22.6103443773
  0
LINE
  5
2AB
100
AcDbEntity
  8
ASSI
100
AcDbLine
 62
7
  6
CONTINUOUS
 10
-1.5964907266
 20
-22.5489228284
 11
-1.7028691161
 21
-22.6103443773
  0
LINE
  5
2AC
100
AcDbEntity
  8
0
100
AcDbLine
 62
7
  6
CONTINUOUS
 10
-2.6031687
 20
-23.3373738651
 11
-2.7096431151
 21
-23.3988508579
  0
LINE
  5
2AD
100
AcDbEntity
  8
ASSI
100
AcDbLine
 62
7
  6
CONTINUOUS
 10
-2.6031687
 20
-23.3373738651
 11
-2.7096431151
 21
-23.3988508579
  0
LINE
  5
2AE
100
AcDbEntity
  8
0
100
AcDbLine
 62
7
  6
CONTINUOUS
 10
3.3652898511
 20
-18.0861779048
 11
2.1444074278
 21
-18.7316412743
  0
LINE
  5
2AF
100
AcDbEntity
  8
ASSI
100
AcDbLine
 62
7
  6
CONTINUOUS
 10
3.3652898511
 20
-18.0861779048
 11
2.1444074278
 21
-18.7316412743
  0
LINE
  5
2B0
100
AcDbEntity
  8
RACCORDO
100
AcDbLine
 62
250
  6
CONTINUOUS
 10
23.3282677845
 20
3.3021943712
 11
41.8720056618
 21
-7.4047769039
  0
LINE
  5
2B1
100
AcDbEntity
  8
ASSI
100
AcDbLine
 62
250
  6
CONTINUOUS
 10
23.3282677845
 20
3.3021943712
 11
41.8720056618
 21
-7.4047769039
  0
LINE
  5
2B2
100
AcDbEntity
  8
RACCORDO
100
AcDbLine
 62
250
  6
CONTINUOUS
 10
-43.6069795614
 20
41.9497179875
 11
-25.063237578
 21
31.2428430794
  0
LINE
  5
2B3
100
AcDbEntity
  8
ASSI
100
AcDbLine
 62
250
  6
CONTINUOUS
 10
-43.6069795614
 20
41.9497179875
 11
-25.063237578
 21
31.2428430794
  0
LINE
  5
2B4
100
AcDbEntity
  8
0
100
AcDbLine
 62
7
  6
CONTINUOUS
 10
-22.5403077401
 20
29.8127949717
 11
-22.1867543495
 21
29.608657675
  0
LINE
  5
2B5
100
AcDbEntity
  8
ASSI
100
AcDbLine
 62
7
  6
CONTINUOUS
 10
-22.5403077401
 20
29.8127949717
 11
-22.1867543495
 21
29.608657675
  0
LINE
  5
2B6
100
AcDbEntity
  8
RACCORDO
100
AcDbLine
 62
7
  6
CONTINUOUS
 10
-24.2168361104
 20
30.9919922683
 11
22.7246535313
 21
3.8885644642
  0
LINE
  5
2B7
100
AcDbEntity
  8
ASSI
100
AcDbLine
 62
7
  6
CONTINUOUS
 10
-24.2168361104
 20
30.9919922683
 11
22.7246535313
 21
3.8885644642
  0
LINE
  5
2B8
100
AcDbEntity
  8
RACCORDO
100
AcDbLine
 62
250
  6
CONTINUOUS
 10
-24.3198737659
 20
31.2429341035
 11
22.6216158759
 21
4.1395062993
  0
LINE
  5
2B9
100
AcDbEntity
  8
ASSI
100
AcDbLine
 62
250
  6
CONTINUOUS
 10
-24.3198737659
 20
31.2429341035
 11
22.6216158759
 21
4.1395062993
  0
LINE
  5
2BA
100
AcDbEntity
  8
0
100
AcDbLine
 62
250
  6
CONTINUOUS
 10
-25.7545347267
 20
33.9180583223
 11
-24.5534855746
 21
33.2245875946
  0
LINE
  5
2BB
100
AcDbEntity
  8
0
100
AcDbLine
 62
250
  6
CONTINUOUS
 10
-25.6791831361
 20
33.9615575022
 11
-24.6194337179
 21
33.3496714699
  0
LINE
  5
2BC
100
AcDbEntity
  8
0
100
AcDbLine
 62
250
  6
CONTINUOUS
 10
-25.6037890553
 20
34.0050820318
 11
-24.685339371
 21
33.4747806949
  0
LINE
  5
2BD
100
AcDbEntity
  8
0
100
AcDbLine
 62
250
  6
CONTINUOUS
 10
-17.0004170078
 20
29.3863140947
 11
-16.0113174565
 21
28.8152204101
  0
LINE
  5
2BE
100
AcDbEntity
  8
0
100
AcDbLine
 62
250
  6
CONTINUOUS
 10
-15.1458555258
 20
28.3155135381
 11
-14.8985809916
 21
28.1727403211
  0
LINE
  5
2BF
100
AcDbEntity
  8
0
100
AcDbLine
 62
250
  6
CONTINUOUS
 10
-13.744631515
 20
27.5064643557
 11
-13.4973562736
 21
27.3636907305
  0
LINE
  5
2C0
100
AcDbEntity
  8
0
100
AcDbLine
 62
250
  6
CONTINUOUS
 10
-12.5082574294
 20
26.7925974541
 11
-12.1373445674
 21
26.5784370162
  0
LINE
  5
2C1
100
AcDbEntity
  8
0
100
AcDbLine
 62
250
  6
CONTINUOUS
 10
-10.5712706314
 20
25.6742055531
 11
-10.32399539
 21
25.5314319278
  0
LINE
  5
2C2
100
AcDbEntity
  8
0
100
AcDbLine
 62
250
  6
CONTINUOUS
 10
-9.3348965458
 20
24.9603386515
 11
-7.8512472188
 21
24.1036981246
  0
LINE
  5
2C3
100
AcDbEntity
  8
0
100
AcDbLine
 62
250
  6
CONTINUOUS
 10
-5.6257728748
 20
22.8187371301
 11
-5.3784983405
 21
22.6759639131
  0
LINE
  5
2C4
100
AcDbEntity
  8
0
100
AcDbLine
 62
250
  6
CONTINUOUS
 10
-5.0487984901
 20
22.4855993515
 11
-4.8015239558
 21
22.3428261345
  0
LINE
  5
2C5
100
AcDbEntity
  8
0
100
AcDbLine
 62
250
  6
CONTINUOUS
 10
-3.6475744793
 20
21.6765501692
 11
-3.4002992379
 21
21.5337765439
  0
LINE
  5
2C6
100
AcDbEntity
  8
0
100
AcDbLine
 62
250
  6
CONTINUOUS
 10
-3.0706000946
 20
21.3434123906
 11
-1.5869507676
 21
20.4867718637
  0
LINE
  5
2C7
100
AcDbEntity
  8
0
100
AcDbLine
 62
250
  6
CONTINUOUS
 10
-5.9554727252
 20
23.0091016916
 11
-6.2439602711
 21
23.175670785
  0
LINE
  5
2C8
100
AcDbEntity
  8
0
100
AcDbLine
 62
250
  6
CONTINUOUS
 10
-7.2742728341
 20
23.770560346
 11
-7.5215473684
 21
23.913333563
  0
LINE
  5
2C9
100
AcDbEntity
  8
0
100
AcDbLine
 62
250
  6
CONTINUOUS
 10
-16.7131360458
 20
29.5327203864
 11
-15.9300994313
 21
29.0806048589
  0
LINE
  5
2CA
100
AcDbEntity
  8
0
100
AcDbLine
 62
250
  6
CONTINUOUS
 10
-1.5469443399
 20
20.7759513724
 11
-2.7833184255
 21
21.489818274
  0
LINE
  5
2CB
100
AcDbEntity
  8
0
100
AcDbLine
 62
250
  6
CONTINUOUS
 10
-7.8112407911
 20
24.3928776333
 11
-9.0476148767
 21
25.1067445349
  0
LINE
  5
2CC
100
AcDbEntity
  8
0
100
AcDbLine
 62
250
  6
CONTINUOUS
 10
-12.0973388468
 20
26.8676169332
 11
-12.4682510018
 21
27.0817769629
  0
LINE
  5
2CD
100
AcDbEntity
  8
0
100
AcDbLine
 62
250
  6
CONTINUOUS
 10
-26.5103762235
 20
35.3580055078
 11
-25.6979013395
 21
34.8888926925
  0
LINE
  5
2CE
100
AcDbEntity
  8
0
100
AcDbLine
 62
250
  6
CONTINUOUS
 10
-24.4968521874
 20
34.1954219647
 11
-23.6843773034
 21
33.7263091494
  0
LINE
  5
2CF
100
AcDbEntity
  8
0
100
AcDbLine
 62
250
  6
CONTINUOUS
 10
-26.4345362258
 20
35.4017866878
 11
-25.6220613418
 21
34.9326738725
  0
LINE
  5
2D0
100
AcDbEntity
  8
0
100
AcDbLine
 62
250
  6
CONTINUOUS
 10
-24.5623119236
 20
34.3207878401
 11
-23.7498370396
 21
33.8516750248
  0
LINE
  5
2D1
100
AcDbEntity
  8
0
100
AcDbLine
 62
250
  6
CONTINUOUS
 10
-14.6531753489
 20
28.6562304995
 11
-13.8289257228
 21
28.1803190957
  0
LINE
  5
2D2
100
AcDbEntity
  8
0
100
AcDbLine
 62
250
  6
CONTINUOUS
 10
-4.5561183132
 20
22.8263163129
 11
-3.7318693942
 21
22.3504053174
  0
LINE
  5
2D3
100
AcDbEntity
  8
0
100
AcDbLine
 62
250
  6
CONTINUOUS
 10
-11.4798144652
 20
26.8239716968
 11
-11.7270897066
 21
26.9667453221
  0
LINE
  5
2D4
100
AcDbEntity
  8
0
100
AcDbLine
 62
250
  6
CONTINUOUS
 10
-26.3586530169
 20
35.4455920008
 11
-25.54617884
 21
34.9764795938
  0
LINE
  5
2D5
100
AcDbEntity
  8
0
100
AcDbLine
 62
250
  6
CONTINUOUS
 10
-24.6277291556
 20
34.4461782569
 11
-23.8152549788
 21
33.9770658499
  0
LINE
  5
2D6
100
AcDbEntity
  8
0
100
AcDbLine
 62
250
  6
CONTINUOUS
 10
-22.0228230274
 20
32.985966177
 11
-22.7764227865
 21
33.4210852331
  0
LINE
  5
2D7
100
AcDbEntity
  8
0
100
AcDbLine
 62
250
  6
CONTINUOUS
 10
-14.5846289583
 20
28.8256045282
 11
-13.8428039413
 21
28.3972840606
  0
LINE
  5
2D8
100
AcDbEntity
  8
0
100
AcDbLine
 62
250
  6
CONTINUOUS
 10
-4.4875712155
 20
22.9956899333
 11
-3.7457469055
 21
22.567369874
  0
LINE
  5
2D9
100
AcDbEntity
  8
0
100
AcDbLine
 62
250
  6
CONTINUOUS
 10
-6.4312627512
 20
24.3795356658
 11
-7.1318754637
 21
24.7840606653
  0
LINE
  5
2DA
100
AcDbEntity
  8
0
100
AcDbLine
 62
250
  6
CONTINUOUS
 10
-15.8277077815
 20
29.8049252612
 11
-16.6107451031
 21
30.2570411969
  0
LINE
  5
2DB
100
AcDbEntity
  8
0
100
AcDbLine
 62
250
  6
CONTINUOUS
 10
-8.9382775791
 20
25.8794230724
 11
-7.8667534187
 21
25.2607384515
  0
LINE
  5
2DC
100
AcDbEntity
  8
0
100
AcDbLine
 62
250
  6
CONTINUOUS
 10
-6.3069305666
 20
24.6222219372
 11
-7.0899678881
 21
25.0743378729
  0
LINE
  5
2DD
100
AcDbEntity
  8
0
100
AcDbLine
 62
250
  6
CONTINUOUS
 10
-15.7858009131
 20
30.0952028771
 11
-16.5688375275
 21
30.5473184046
  0
LINE
  5
2DE
100
AcDbEntity
  8
0
100
AcDbLine
 62
250
  6
CONTINUOUS
 10
-7.8247552317
 20
25.5510679771
 11
-8.8962793921
 21
26.1697525979
  0
LINE
  5
2DF
100
AcDbEntity
  8
0
100
AcDbLine
 62
250
  6
CONTINUOUS
 10
-23.7433600996
 20
35.0790772311
 11
-24.5558342764
 21
35.5481896381
  0
LINE
  5
2E0
100
AcDbEntity
  8
0
100
AcDbLine
 62
250
  6
CONTINUOUS
 10
-25.4742839608
 20
36.078490975
 11
-26.2867581377
 21
36.547603382
  0
LINE
  5
2E1
100
AcDbEntity
  8
0
100
AcDbLine
 62
250
  6
CONTINUOUS
 10
-11.5666180463
 20
28.0793746706
 11
-11.319342805
 21
27.9366010453
  0
LINE
  5
2E2
100
AcDbEntity
  8
0
100
AcDbLine
 62
250
  6
CONTINUOUS
 10
-23.6668812174
 20
35.1232264784
 11
-24.4793561014
 21
35.5923392937
  0
LINE
  5
2E3
100
AcDbEntity
  8
0
100
AcDbLine
 62
250
  6
CONTINUOUS
 10
-25.5391055196
 20
36.204225326
 11
-26.3515804036
 21
36.6733381413
  0
LINE
  5
2E4
100
AcDbEntity
  8
0
100
AcDbLine
 62
250
  6
CONTINUOUS
 10
-23.5903604486
 20
35.1674007271
 11
-24.4028353326
 21
35.6365135424
  0
LINE
  5
2E5
100
AcDbEntity
  8
0
100
AcDbLine
 62
250
  6
CONTINUOUS
 10
-25.6038844847
 20
36.3299842701
 11
-26.4163593686
 21
36.7990970854
  0
LINE
  5
2E6
100
AcDbEntity
  8
0
100
AcDbLine
 62
250
  6
CONTINUOUS
 10
-16.4689389535
 20
31.2258531641
 11
-15.6859016319
 21
30.7737372284
  0
LINE
  5
2E7
100
AcDbEntity
  8
0
100
AcDbLine
 62
250
  6
CONTINUOUS
 10
-12.2240532023
 20
28.7749093323
 11
-11.8531410473
 21
28.5607493026
  0
LINE
  5
2E8
100
AcDbEntity
  8
0
100
AcDbLine
 62
250
  6
CONTINUOUS
 10
-8.8034177844
 20
26.7998773126
 11
-7.5670429917
 21
26.0860100027
  0
LINE
  5
2E9
100
AcDbEntity
  8
0
100
AcDbLine
 62
250
  6
CONTINUOUS
 10
-10.9392175297
 20
28.0857787795
 11
-10.2798178289
 21
27.7050496565
  0
LINE
  5
2EA
100
AcDbEntity
  8
0
100
AcDbLine
 62
250
  6
CONTINUOUS
 10
-10.0325432946
 20
27.5622764394
 11
-9.3731435937
 21
27.1815473164
  0
LINE
  5
2EB
100
AcDbEntity
  8
0
100
AcDbLine
 62
250
  6
CONTINUOUS
 10
-6.9828200316
 20
25.8014044494
 11
-6.19978271
 21
25.3492885137
  0
LINE
  5
2EC
100
AcDbEntity
  8
0
100
AcDbLine
 62
250
  6
CONTINUOUS
 10
-7.1936225433
 20
26.1869702818
 11
-6.204522992
 21
25.6158765972
  0
LINE
  5
2ED
100
AcDbEntity
  8
0
100
AcDbLine
 62
250
  6
CONTINUOUS
 10
-2.4954000282
 20
23.4742754841
 11
-2.7426752696
 21
23.6170491094
  0
LINE
  5
2EE
100
AcDbEntity
  8
0
100
AcDbLine
 62
250
  6
CONTINUOUS
 10
-3.7317748209
 20
24.188142794
 11
-4.0614739642
 21
24.3785069472
  0
LINE
  5
2EF
100
AcDbEntity
  8
0
100
AcDbLine
 62
250
  6
CONTINUOUS
 10
-5.0505735155
 20
24.9496006318
 11
-5.2978480498
 21
25.0923738488
  0
LINE
  5
2F0
100
AcDbEntity
  8
0
100
AcDbLine
 62
250
  6
CONTINUOUS
 10
-7.5233223938
 20
26.3773348433
 11
-9.0069717208
 21
27.2339753702
  0
LINE
  5
2F1
100
AcDbEntity
  8
0
100
AcDbLine
 62
250
  6
CONTINUOUS
 10
-9.3366715712
 20
27.4243399317
 11
-10.9027455072
 21
28.3285713949
  0
LINE
  5
2F2
100
AcDbEntity
  8
0
100
AcDbLine
 62
250
  6
CONTINUOUS
 10
-11.8094204495
 20
28.8520741432
 11
-12.1803326044
 21
29.0662341729
  0
LINE
  5
2F3
100
AcDbEntity
  8
0
100
AcDbLine
 62
250
  6
CONTINUOUS
 10
-13.8288311495
 20
30.0180565723
 11
-14.1585309999
 21
30.2084211338
  0
LINE
  5
2F4
100
AcDbEntity
  8
0
100
AcDbLine
 62
250
  6
CONTINUOUS
 10
-15.6833926314
 20
31.0888571288
 11
-16.6724921827
 21
31.6599508134
  0
LINE
  5
2F5
100
AcDbEntity
  8
0
100
AcDbLine
 62
250
  6
CONTINUOUS
 10
-18.4705119922
 20
32.6981049169
 11
-19.6009105703
 21
33.3507828887
  0
LWPOLYLINE
  5
2F6
100
AcDbEntity
  8
RACCORDO
100
AcDbPolyline
 62
7
  6
CONTINUOUS
 90
8
 70
0
 10
22.7246905384
 20
3.8885430431
 10
22.7578943693
 20
3.8681199293
 10
22.844391087
 20
3.8035901609
 10
22.9360792188
 20
3.7173137729
 10
23.027482453
 20
3.6111721139
 10
23.1137058656
 20
3.4884123644
 10
23.1905981971
 20
3.3532152915
 10
23.2251327902
 20
3.2809468854
  0
LWPOLYLINE
  5
2F7
100
AcDbEntity
  8
ASSI
100
AcDbPolyline
 62
7
  6
CONTINUOUS
 90
8
 70
0
 10
22.7246905384
 20
3.8885430431
 10
22.7578943693
 20
3.8681199293
 10
22.844391087
 20
3.8035901609
 10
22.9360792188
 20
3.7173137729
 10
23.027482453
 20
3.6111721139
 10
23.1137058656
 20
3.4884123644
 10
23.1905981971
 20
3.3532152915
 10
23.2251327902
 20
3.2809468854
  0
LWPOLYLINE
  5
2F8
100
AcDbEntity
  8
RACCORDO
100
AcDbPolyline
 62
7
  6
CONTINUOUS
 90
4
 70
0
 10
23.3492800237
 20
-32.987510452
 10
23.3481072966
 20
-33.0575991359
 10
23.3408944805
 20
-33.1056139968
 10
23.3333401816
 20
-33.1299211488
  0
LWPOLYLINE
  5
2F9
100
AcDbEntity
  8
ASSI
100
AcDbPolyline
 62
7
  6
CONTINUOUS
 90
4
 70
0
 10
23.3492800237
 20
-32.987510452
 10
23.3481072966
 20
-33.0575991359
 10
23.3408944805
 20
-33.1056139968
 10
23.3333401816
 20
-33.1299211488
  0
LWPOLYLINE
  5
2FA
100
AcDbEntity
  8
RACCORDO
100
AcDbPolyline
 62
7
  6
CONTINUOUS
 90
5
 70
0
 10
23.3492397199
 20
2.7257564302
 10
23.0827167479
 20
-6.3360584213
 10
22.9929430177
 20
-15.3559029541
 10
23.0826137408
 20
-24.2610513326
 10
23.3492805106
 20
-32.9875039483
  0
LWPOLYLINE
  5
2FB
100
AcDbEntity
  8
ASSI
100
AcDbPolyline
 62
7
  6
CONTINUOUS
 90
5
 70
0
 10
23.3492397199
 20
2.7257564302
 10
23.0827167479
 20
-6.3360584213
 10
22.9929430177
 20
-15.3559029541
 10
23.0826137408
 20
-24.2610513326
 10
23.3492805106
 20
-32.9875039483
  0
LINE
  5
2FC
100
AcDbEntity
  8
RACCORDO
100
AcDbLine
 62
7
  6
CONTINUOUS
 10
23.3492397199
 20
2.7257564302
 11
23.3492418932
 21
2.7258119834
  0
LINE
  5
2FD
100
AcDbEntity
  8
ASSI
100
AcDbLine
 62
7
  6
CONTINUOUS
 10
23.3492397199
 20
2.7257564302
 11
23.3492418932
 21
2.7258119834
  0
LINE
  5
2FE
100
AcDbEntity
  8
0
100
AcDbLine
 62
250
  6
CONTINUOUS
 10
5.6479408586
 20
-19.8265975503
 11
4.8985997714
 21
-20.3218774154
  0
LINE
  5
2FF
100
AcDbEntity
  8
ASSI
100
AcDbLine
 62
250
  6
CONTINUOUS
 10
5.6479408586
 20
-19.8265975503
 11
4.8985997714
 21
-20.3218774154
  0
LINE
  5
300
100
AcDbEntity
  8
0
100
AcDbLine
 62
7
  6
CONTINUOUS
 10
5.6468210683
 20
-19.9237945045
 11
4.976491275
 21
-20.3668509934
  0
LINE
  5
301
100
AcDbEntity
  8
ASSI
100
AcDbLine
 62
7
  6
CONTINUOUS
 10
5.6468210683
 20
-19.9237945045
 11
4.976491275
 21
-20.3668509934
  0
LINE
  5
302
100
AcDbEntity
  8
0
100
AcDbLine
 62
7
  6
CONTINUOUS
 10
5.6479408586
 20
-19.4039670847
 11
4.5092936909
 21
-20.0970969637
  0
LINE
  5
303
100
AcDbEntity
  8
ASSI
100
AcDbLine
 62
7
  6
CONTINUOUS
 10
5.6479408586
 20
-19.4039670847
 11
4.5092936909
 21
-20.0970969637
  0
LINE
  5
304
100
AcDbEntity
  8
0
100
AcDbLine
 62
7
  6
CONTINUOUS
 10
-1.9745415791
 20
-23.7003352861
 11
-2.0810159943
 21
-23.761812279
  0
LINE
  5
305
100
AcDbEntity
  8
ASSI
100
AcDbLine
 62
7
  6
CONTINUOUS
 10
-1.9745415791
 20
-23.7003352861
 11
-2.0810159943
 21
-23.761812279
  0
LINE
  5
306
100
AcDbEntity
  8
0
100
AcDbLine
 62
7
  6
CONTINUOUS
 10
-1.0480839174
 20
-23.3040434283
 11
-1.1544915061
 21
-23.3654818364
  0
LINE
  5
307
100
AcDbEntity
  8
ASSI
100
AcDbLine
 62
7
  6
CONTINUOUS
 10
-1.0480839174
 20
-23.3040434283
 11
-1.1544915061
 21
-23.3654818364
  0
LINE
  5
308
100
AcDbEntity
  8
0
100
AcDbLine
 62
7
  6
CONTINUOUS
 10
-0.5619999845
 20
-23.1519695889
 11
-0.6683787473
 21
-23.2133913533
  0
LINE
  5
309
100
AcDbEntity
  8
ASSI
100
AcDbLine
 62
7
  6
CONTINUOUS
 10
-0.5619999845
 20
-23.1519695889
 11
-0.6683787473
 21
-23.2133913533
  0
LINE
  5
30A
100
AcDbEntity
  8
0
100
AcDbLine
 62
7
  6
CONTINUOUS
 10
-1.0259599501
 20
-24.2719495189
 11
-1.1117246252
 21
-24.3214689674
  0
LINE
  5
30B
100
AcDbEntity
  8
ASSI
100
AcDbLine
 62
7
  6
CONTINUOUS
 10
-1.0259599501
 20
-24.2719495189
 11
-1.1117246252
 21
-24.3214689674
  0
LINE
  5
30C
100
AcDbEntity
  8
0
100
AcDbLine
 62
7
  6
CONTINUOUS
 10
0.9422961672
 20
-23.8622353233
 11
0.8359276015
 21
-23.9236512001
  0
LINE
  5
30D
100
AcDbEntity
  8
ASSI
100
AcDbLine
 62
7
  6
CONTINUOUS
 10
0.9422961672
 20
-23.8622353233
 11
0.8359276015
 21
-23.9236512001
  0
LINE
  5
30E
100
AcDbEntity
  8
0
100
AcDbLine
 62
7
  6
CONTINUOUS
 10
-0.3710510878
 20
-24.6261705994
 11
-0.4775255029
 21
-24.6876475922
  0
LINE
  5
30F
100
AcDbEntity
  8
ASSI
100
AcDbLine
 62
7
  6
CONTINUOUS
 10
-0.3710510878
 20
-24.6261705994
 11
-0.4775255029
 21
-24.6876475922
  0
LINE
  5
310
100
AcDbEntity
  8
0
100
AcDbLine
 62
7
  6
CONTINUOUS
 10
0.2465883008
 20
-24.9827878415
 11
0.1401138857
 21
-25.0442648344
  0
LINE
  5
311
100
AcDbEntity
  8
ASSI
100
AcDbLine
 62
7
  6
CONTINUOUS
 10
0.2465883008
 20
-24.9827878415
 11
0.1401138857
 21
-25.0442648344
  0
LINE
  5
312
100
AcDbEntity
  8
0
100
AcDbLine
 62
7
  6
CONTINUOUS
 10
0.7353081605
 20
-24.847962413
 11
0.6288644884
 21
-24.9094216552
  0
LINE
  5
313
100
AcDbEntity
  8
ASSI
100
AcDbLine
 62
7
  6
CONTINUOUS
 10
0.7353081605
 20
-24.847962413
 11
0.6288644884
 21
-24.9094216552
  0
LINE
  5
314
100
AcDbEntity
  8
0
100
AcDbLine
 62
7
  6
CONTINUOUS
 10
1.1900432616
 20
-24.7867853406
 11
1.0836225401
 21
-24.8482313315
  0
LINE
  5
315
100
AcDbEntity
  8
ASSI
100
AcDbLine
 62
7
  6
CONTINUOUS
 10
1.1900432616
 20
-24.7867853406
 11
1.0836225401
 21
-24.8482313315
  0
LINE
  5
316
100
AcDbEntity
  8
0
100
AcDbLine
 62
7
  6
CONTINUOUS
 10
2.3530535255
 20
-24.455950038
 11
2.2466988773
 21
-24.5173578789
  0
LINE
  5
317
100
AcDbEntity
  8
ASSI
100
AcDbLine
 62
7
  6
CONTINUOUS
 10
2.3530535255
 20
-24.455950038
 11
2.2466988773
 21
-24.5173578789
  0
LINE
  5
318
100
AcDbEntity
  8
0
100
AcDbLine
 62
7
  6
CONTINUOUS
 10
1.2980711131
 20
-25.1728946888
 11
1.1916274411
 21
-25.234353931
  0
LINE
  5
319
100
AcDbEntity
  8
ASSI
100
AcDbLine
 62
7
  6
CONTINUOUS
 10
1.2980711131
 20
-25.1728946888
 11
1.1916274411
 21
-25.234353931
  0
LINE
  5
31A
100
AcDbEntity
  8
0
100
AcDbLine
 62
250
  6
CONTINUOUS
 10
2.6759182333
 20
-24.6299039172
 11
2.56956436
 21
-24.6913113108
  0
LINE
  5
31B
100
AcDbEntity
  8
ASSI
100
AcDbLine
 62
250
  6
CONTINUOUS
 10
2.6759182333
 20
-24.6299039172
 11
2.56956436
 21
-24.6913113108
  0
LINE
  5
31C
100
AcDbEntity
  8
0
100
AcDbLine
 62
7
  6
CONTINUOUS
 10
1.4391846985
 20
-25.6713780548
 11
1.3327102833
 21
-25.7328550476
  0
LINE
  5
31D
100
AcDbEntity
  8
ASSI
100
AcDbLine
 62
7
  6
CONTINUOUS
 10
1.4391846985
 20
-25.6713780548
 11
1.3327102833
 21
-25.7328550476
  0
LINE
  5
31E
100
AcDbEntity
  8
0
100
AcDbLine
 62
250
  6
CONTINUOUS
 10
2.9278880612
 20
-25.0399331928
 11
2.8215174976
 21
-25.101350223
  0
LINE
  5
31F
100
AcDbEntity
  8
ASSI
100
AcDbLine
 62
250
  6
CONTINUOUS
 10
2.9278880612
 20
-25.0399331928
 11
2.8215174976
 21
-25.101350223
  0
LINE
  5
320
100
AcDbEntity
  8
0
100
AcDbLine
 62
7
  6
CONTINUOUS
 10
2.434050739
 20
-25.4268947586
 11
2.3276354399
 21
-25.4883376187
  0
LINE
  5
321
100
AcDbEntity
  8
ASSI
100
AcDbLine
 62
7
  6
CONTINUOUS
 10
2.434050739
 20
-25.4268947586
 11
2.3276354399
 21
-25.4883376187
  0
LINE
  5
322
100
AcDbEntity
  8
0
100
AcDbLine
 62
7
  6
CONTINUOUS
 10
2.7557079613
 20
-25.3060803431
 11
2.8620942918
 21
-25.2446542093
  0
LINE
  5
323
100
AcDbEntity
  8
ASSI
100
AcDbLine
 62
7
  6
CONTINUOUS
 10
2.7557079613
 20
-25.3060803431
 11
2.8620942918
 21
-25.2446542093
  0
LINE
  5
324
100
AcDbEntity
  8
0
100
AcDbLine
 62
250
  6
CONTINUOUS
 10
2.65561955
 20
-25.5548258132
 11
2.5492042508
 21
-25.6162686732
  0
LINE
  5
325
100
AcDbEntity
  8
ASSI
100
AcDbLine
 62
250
  6
CONTINUOUS
 10
2.65561955
 20
-25.5548258132
 11
2.5492042508
 21
-25.6162686732
  0
LINE
  5
326
100
AcDbEntity
  8
0
100
AcDbLine
 62
7
  6
CONTINUOUS
 10
2.0879925291
 20
-26.0459918286
 11
1.9815181139
 21
-26.1074688215
  0
LINE
  5
327
100
AcDbEntity
  8
ASSI
100
AcDbLine
 62
7
  6
CONTINUOUS
 10
2.0879925291
 20
-26.0459918286
 11
1.9815181139
 21
-26.1074688215
  0
LINE
  5
328
100
AcDbEntity
  8
0
100
AcDbLine
 62
7
  6
CONTINUOUS
 10
3.0719148539
 20
-25.6242061072
 11
2.9655112556
 21
-25.6856422113
  0
LINE
  5
329
100
AcDbEntity
  8
ASSI
100
AcDbLine
 62
7
  6
CONTINUOUS
 10
3.0719148539
 20
-25.6242061072
 11
2.9655112556
 21
-25.6856422113
  0
LINE
  5
32A
100
AcDbEntity
  8
0
100
AcDbLine
 62
250
  6
CONTINUOUS
 10
2.900416923
 20
-25.8809317277
 11
2.7939887322
 21
-25.9423820312
  0
LINE
  5
32B
100
AcDbEntity
  8
ASSI
100
AcDbLine
 62
250
  6
CONTINUOUS
 10
2.900416923
 20
-25.8809317277
 11
2.7939887322
 21
-25.9423820312
  0
LINE
  5
32C
100
AcDbEntity
  8
0
100
AcDbLine
 62
7
  6
CONTINUOUS
 10
3.132386996
 20
-26.6490121044
 11
3.0259125808
 21
-26.7104890973
  0
LINE
  5
32D
100
AcDbEntity
  8
ASSI
100
AcDbLine
 62
7
  6
CONTINUOUS
 10
3.132386996
 20
-26.6490121044
 11
3.0259125808
 21
-26.7104890973
  0
LINE
  5
32E
100
AcDbEntity
  8
0
100
AcDbLine
 62
250
  6
CONTINUOUS
 10
-24.4862358331
 20
36.5265090527
 11
-25.4046855175
 21
37.0568103895
  0
LINE
  5
32F
100
AcDbEntity
  8
0
100
AcDbLine
 62
250
  6
CONTINUOUS
 10
-24.4092673722
 20
36.5709426096
 11
-25.4690167905
 21
37.1828286419
  0
LINE
  5
330
100
AcDbEntity
  8
0
100
AcDbLine
 62
250
  6
CONTINUOUS
 10
-24.3322563045
 20
36.6153999507
 11
-25.5333054567
 21
37.3088706785
  0
LINE
  5
331
100
AcDbEntity
  8
RACCORDO
100
AcDbLine
 62
7
  6
CONTINUOUS
 10
23.2251328904
 20
3.2809459216
 11
23.2576758538
 21
3.2029801724
  0
LINE
  5
332
100
AcDbEntity
  8
ASSI
100
AcDbLine
 62
7
  6
CONTINUOUS
 10
23.2251328904
 20
3.2809459216
 11
23.2576758538
 21
3.2029801724
  0
LWPOLYLINE
  5
333
100
AcDbEntity
  8
RACCORDO
100
AcDbPolyline
 62
7
  6
CONTINUOUS
 90
5
 70
0
 10
23.2576758538
 20
3.2029801724
 10
23.3074832229
 20
3.0512192361
 10
23.3377369209
 20
2.9084491424
 10
23.3494774632
 20
2.7818387898
 10
23.3492412647
 20
2.7258120078
  0
LWPOLYLINE
  5
334
100
AcDbEntity
  8
ASSI
100
AcDbPolyline
 62
7
  6
CONTINUOUS
 90
5
 70
0
 10
23.2576758538
 20
3.2029801724
 10
23.3074832229
 20
3.0512192361
 10
23.3377369209
 20
2.9084491424
 10
23.3494774632
 20
2.7818387898
 10
23.3492412647
 20
2.7258120078
  0
LINE
  5
335
100
AcDbEntity
  8
RACCORDO
100
AcDbLine
 62
7
  6
CONTINUOUS
 10
23.3333401816
 20
-33.1299211488
 11
23.3320394076
 21
-33.1327315658
  0
LINE
  5
336
100
AcDbEntity
  8
ASSI
100
AcDbLine
 62
7
  6
CONTINUOUS
 10
23.3333401816
 20
-33.1299211488
 11
23.3320394076
 21
-33.1327315658
  0
LINE
  5
337
100
AcDbEntity
  8
RACCORDO
100
AcDbLine
 62
250
  6
CONTINUOUS
 10
43.290039262
 20
11.8079788198
 11
-41.3904891533
 21
60.7014546305
  0
LINE
  5
338
100
AcDbEntity
  8
ASSI
100
AcDbLine
 62
250
  6
CONTINUOUS
 10
43.290039262
 20
11.8079788198
 11
-41.3904891533
 21
60.7014546305
  0
LINE
  5
339
100
AcDbEntity
  8
RACCORDO
100
AcDbLine
 62
250
  6
CONTINUOUS
 10
43.4875437684
 20
12.122151014
 11
-41.1929846469
 21
61.0156268247
  0
LINE
  5
33A
100
AcDbEntity
  8
ASSI
100
AcDbLine
 62
250
  6
CONTINUOUS
 10
43.4875437684
 20
12.122151014
 11
-41.1929846469
 21
61.0156268247
  0
LINE
  5
33B
100
AcDbEntity
  8
RACCORDO
100
AcDbLine
 62
7
  6
CONTINUOUS
 10
-39.617905571
 20
62.1262369033
 11
45.2368463019
 21
13.1321666517
  0
LINE
  5
33C
100
AcDbEntity
  8
ASSI
100
AcDbLine
 62
7
  6
CONTINUOUS
 10
-39.617905571
 20
62.1262369033
 11
45.2368463019
 21
13.1321666517
  0
LINE
  5
33D
100
AcDbEntity
  8
RACCORDO
100
AcDbLine
 62
7
  6
CONTINUOUS
 10
-36.9985732923
 20
61.6754995925
 11
46.5773120948
 21
13.4198308107
  0
LINE
  5
33E
100
AcDbEntity
  8
ASSI
100
AcDbLine
 62
7
  6
CONTINUOUS
 10
-36.9985732923
 20
61.6754995925
 11
46.5773120948
 21
13.4198308107
  0
LINE
  5
33F
100
AcDbEntity
  8
0
100
AcDbLine
 62
250
  6
CONTINUOUS
 10
22.9561891997
 20
-33.0691088708
 11
23.3434300541
 21
-32.7960525305
  0
LINE
  5
340
100
AcDbEntity
  8
ASSI
100
AcDbLine
 62
250
  6
CONTINUOUS
 10
22.9561891997
 20
-33.0691088708
 11
23.3434300541
 21
-32.7960525305
  0
LINE
  5
341
100
AcDbEntity
  8
DRAFT
100
AcDbLine
 62
7
  6
CONTINUOUS
 10
46.0810396363
 20
-25.3554355877
 11
46.5086694428
 21
-25.2025702695
  0
LINE
  5
342
100
AcDbEntity
  8
ASSI
100
AcDbLine
 62
7
  6
CONTINUOUS
 10
46.0810396363
 20
-25.3554355877
 11
46.5086694428
 21
-25.2025702695
  0
LINE
  5
343
100
AcDbEntity
  8
RACCORDO
100
AcDbLine
 62
7
  6
CONTINUOUS
 10
-37.053400934
 20
61.70225518
 11
-36.9985732923
 21
61.6754995925
  0
LINE
  5
344
100
AcDbEntity
  8
ASSI
100
AcDbLine
 62
7
  6
CONTINUOUS
 10
-37.053400934
 20
61.70225518
 11
-36.9985732923
 21
61.6754995925
  0
LINE
  5
345
100
AcDbEntity
  8
RACCORDO
100
AcDbLine
 62
7
  6
CONTINUOUS
 10
45.9429840178
 20
-59.9425219942
 11
45.9429840178
 21
11.9091002518
  0
LINE
  5
346
100
AcDbEntity
  8
ASSI
100
AcDbLine
 62
7
  6
CONTINUOUS
 10
45.9429840178
 20
-59.9425219942
 11
45.9429840178
 21
11.9091002518
  0
LINE
  5
347
100
AcDbEntity
  8
DRAFT
100
AcDbLine
 62
7
  6
CONTINUOUS
 10
46.0810396363
 20
-20.5855371369
 11
46.0810396363
 21
-26.3008290745
  0
LINE
  5
348
100
AcDbEntity
  8
ASSI
100
AcDbLine
 62
7
  6
CONTINUOUS
 10
46.0810396363
 20
-20.5855371369
 11
46.0810396363
 21
-26.3008290745
  0
LINE
  5
349
100
AcDbEntity
  8
DRAFT
100
AcDbLine
 62
7
  6
CONTINUOUS
 10
46.8622228433
 20
12.9263508183
 11
46.8622228334
 21
-19.1155526736
  0
LINE
  5
34A
100
AcDbEntity
  8
ASSI
100
AcDbLine
 62
7
  6
CONTINUOUS
 10
46.8622228433
 20
12.9263508183
 11
46.8622228334
 21
-19.1155526736
  0
LINE
  5
34B
100
AcDbEntity
  8
DRAFT
100
AcDbLine
 62
7
  6
CONTINUOUS
 10
46.8622228334
 20
-25.4067075661
 11
46.8622228562
 21
-57.4486109261
  0
LINE
  5
34C
100
AcDbEntity
  8
ASSI
100
AcDbLine
 62
7
  6
CONTINUOUS
 10
46.8622228334
 20
-25.4067075661
 11
46.8622228562
 21
-57.4486109261
  0
LWPOLYLINE
  5
34D
100
AcDbEntity
  8
RACCORDO
100
AcDbPolyline
 62
7
  6
CONTINUOUS
 90
3
 70
0
 10
-37.0534027652
 20
61.7022695922
 10
-37.5503115654
 20
61.8688096468
 10
-38.1067346073
 20
61.9838722452
  0
LWPOLYLINE
  5
34E
100
AcDbEntity
  8
ASSI
100
AcDbPolyline
 62
7
  6
CONTINUOUS
 90
3
 70
0
 10
-37.0534027652
 20
61.7022695922
 10
-37.5503115654
 20
61.8688096468
 10
-38.1067346073
 20
61.9838722452
  0
LINE
  5
34F
100
AcDbEntity
  8
RACCORDO
100
AcDbLine
 62
7
  6
CONTINUOUS
 10
46.8622228562
 20
-57.4486109261
 11
46.8579815736
 21
-57.509444821
  0
LINE
  5
350
100
AcDbEntity
  8
ASSI
100
AcDbLine
 62
7
  6
CONTINUOUS
 10
46.8622228562
 20
-57.4486109261
 11
46.8579815736
 21
-57.509444821
  0
LINE
  5
351
100
AcDbEntity
  8
RACCORDO
100
AcDbLine
 62
7
  6
CONTINUOUS
 10
-38.1067346073
 20
61.9838722452
 11
-38.5475195384
 21
62.0173040602
  0
LINE
  5
352
100
AcDbEntity
  8
ASSI
100
AcDbLine
 62
7
  6
CONTINUOUS
 10
-38.1067346073
 20
61.9838722452
 11
-38.5475195384
 21
62.0173040602
  0
LWPOLYLINE
  5
353
100
AcDbEntity
  8
RACCORDO
100
AcDbPolyline
 62
7
  6
CONTINUOUS
 90
4
 70
0
 10
46.3837859017
 20
-58.9609857622
 10
46.5775335113
 20
-58.5568543227
 10
46.7553221527
 20
-58.0171169617
 10
46.8579931798
 20
-57.5094536431
  0
LWPOLYLINE
  5
354
100
AcDbEntity
  8
ASSI
100
AcDbPolyline
 62
7
  6
CONTINUOUS
 90
4
 70
0
 10
46.3837859017
 20
-58.9609857622
 10
46.5775335113
 20
-58.5568543227
 10
46.7553221527
 20
-58.0171169617
 10
46.8579931798
 20
-57.5094536431
  0
LWPOLYLINE
  5
355
100
AcDbEntity
  8
RACCORDO
100
AcDbPolyline
 62
7
  6
CONTINUOUS
 90
4
 70
0
 10
-38.5475534647
 20
62.0173045097
 10
-38.8757027677
 20
62.0058223804
 10
-39.2486213786
 20
61.9508463523
 10
-39.2928101696
 20
61.9385308929
  0
LWPOLYLINE
  5
356
100
AcDbEntity
  8
ASSI
100
AcDbPolyline
 62
7
  6
CONTINUOUS
 90
4
 70
0
 10
-38.5475534647
 20
62.0173045097
 10
-38.8757027677
 20
62.0058223804
 10
-39.2486213786
 20
61.9508463523
 10
-39.2928101696
 20
61.9385308929
  0
LINE
  5
357
100
AcDbEntity
  8
RACCORDO
100
AcDbLine
 62
250
  6
CONTINUOUS
 10
44.0978794907
 20
-60.7956653206
 11
45.9429840178
 21
-59.9425219942
  0
LINE
  5
358
100
AcDbEntity
  8
ASSI
100
AcDbLine
 62
250
  6
CONTINUOUS
 10
44.0978794907
 20
-60.7956653206
 11
45.9429840178
 21
-59.9425219942
  0
LINE
  5
359
100
AcDbEntity
  8
RACCORDO
100
AcDbLine
 62
7
  6
CONTINUOUS
 10
43.9305917159
 20
-61.2362643191
 11
45.7093195406
 21
-60.4138123932
  0
LINE
  5
35A
100
AcDbEntity
  8
ASSI
100
AcDbLine
 62
7
  6
CONTINUOUS
 10
43.9305917159
 20
-61.2362643191
 11
45.7093195406
 21
-60.4138123932
  0
LWPOLYLINE
  5
35B
100
AcDbEntity
  8
RACCORDO
100
AcDbPolyline
 62
7
  6
CONTINUOUS
 90
4
 70
0
 10
45.9429840178
 20
-59.5666233846
 10
45.9798624402
 20
-59.5303169101
 10
46.2132715485
 20
-59.2344283613
 10
46.3837677628
 20
-58.9610171991
  0
LWPOLYLINE
  5
35C
100
AcDbEntity
  8
ASSI
100
AcDbPolyline
 62
7
  6
CONTINUOUS
 90
4
 70
0
 10
45.9429840178
 20
-59.5666233846
 10
45.9798624402
 20
-59.5303169101
 10
46.2132715485
 20
-59.2344283613
 10
46.3837677628
 20
-58.9610171991
  0
ARC
  5
35D
100
AcDbEntity
  8
0
100
AcDbCircle
 62
7
  6
CONTINUOUS
 10
142.2123634896
 20
-15.2303764919
 40
140.2734304623
100
AcDbArc
 50
183.796116852
 51
184.0432551452
  0
ARC
  5
35E
100
AcDbEntity
  8
ASSI
100
AcDbCircle
 62
7
  6
CONTINUOUS
 10
142.2123634896
 20
-15.2303764919
 40
140.2734304623
100
AcDbArc
 50
183.796116852
 51
184.0432551452
  0
ARC
  5
35F
100
AcDbEntity
  8
0
100
AcDbCircle
 62
7
  6
CONTINUOUS
 10
136.4989376567
 20
-12.601490268
 40
139.2333987921
100
AcDbArc
 50
183.640458099
 51
184.5461640299
  0
ARC
  5
360
100
AcDbEntity
  8
0
100
AcDbCircle
 62
7
  6
CONTINUOUS
 10
136.0856987969
 20
-12.3628913295
 40
139.2333987921
100
AcDbArc
 50
183.640458099
 51
184.5461640299
  0
ARC
  5
361
100
AcDbEntity
  8
ASSI
100
AcDbCircle
 62
7
  6
CONTINUOUS
 10
136.4989376567
 20
-12.601490268
 40
139.2333987921
100
AcDbArc
 50
183.640458099
 51
184.5461640299
  0
ARC
  5
362
100
AcDbEntity
  8
ASSI
100
AcDbCircle
 62
7
  6
CONTINUOUS
 10
136.0856987969
 20
-12.3628913295
 40
139.2333987921
100
AcDbArc
 50
183.640458099
 51
184.5461640299
  0
ARC
  5
363
100
AcDbEntity
  8
0
100
AcDbCircle
 62
7
  6
CONTINUOUS
 10
140.7585528498
 20
-15.072906826
 40
139.2150384424
100
AcDbArc
 50
183.6510394402
 51
184.5461878729
  0
ARC
  5
364
100
AcDbEntity
  8
ASSI
100
AcDbCircle
 62
7
  6
CONTINUOUS
 10
140.7585528498
 20
-15.072906826
 40
139.2150384424
100
AcDbArc
 50
183.6510394402
 51
184.5461878729
  0
ARC
  5
365
100
AcDbEntity
  8
0
100
AcDbCircle
 62
7
  6
CONTINUOUS
 10
135.9604287902
 20
-12.3091511517
 40
139.0017706565
100
AcDbArc
 50
183.6961814709
 51
184.5505564261
  0
ARC
  5
366
100
AcDbEntity
  8
ASSI
100
AcDbCircle
 62
7
  6
CONTINUOUS
 10
135.9604287902
 20
-12.3091511517
 40
139.0017706565
100
AcDbArc
 50
183.6961814709
 51
184.5505564261
  0
ARC
  5
367
100
AcDbEntity
  8
0
100
AcDbCircle
 62
7
  6
CONTINUOUS
 10
140.6457166924
 20
-15.0182187103
 40
138.9958801737
100
AcDbArc
 50
183.6995820544
 51
184.5505637652
  0
ARC
  5
368
100
AcDbEntity
  8
ASSI
100
AcDbCircle
 62
7
  6
CONTINUOUS
 10
140.6457166924
 20
-15.0182187103
 40
138.9958801737
100
AcDbArc
 50
183.6995820544
 51
184.5505637652
  0
ARC
  5
369
100
AcDbEntity
  8
0
100
AcDbCircle
 62
7
  6
CONTINUOUS
 10
140.2405406281
 20
-15.3824251237
 40
138.2826774574
100
AcDbArc
 50
184.1910007012
 51
184.5470283358
  0
ARC
  5
36A
100
AcDbEntity
  8
ASSI
100
AcDbCircle
 62
7
  6
CONTINUOUS
 10
140.2405406281
 20
-15.3824251237
 40
138.2826774574
100
AcDbArc
 50
184.1910007012
 51
184.5470283358
  0
ARC
  5
36B
100
AcDbEntity
  8
RACCORDO
100
AcDbCircle
 62
250
  6
CONTINUOUS
 10
41.9701232441
 20
-56.7149405699
 40
4.9468081582
100
AcDbArc
 50
350.7651855739
 51
351.4708869253
  0
ARC
  5
36C
100
AcDbEntity
  8
ASSI
100
AcDbCircle
 62
250
  6
CONTINUOUS
 10
41.9701232441
 20
-56.7149405699
 40
4.9468081582
100
AcDbArc
 50
350.7651855739
 51
351.4708869253
  0
ARC
  5
36D
100
AcDbEntity
  8
RACCORDO
100
AcDbCircle
 62
250
  6
CONTINUOUS
 10
43.6859151374
 20
-57.2782042546
 40
3.1303283658
100
AcDbArc
 50
328.0669159594
 51
329.9930035082
  0
ARC
  5
36E
100
AcDbEntity
  8
ASSI
100
AcDbCircle
 62
250
  6
CONTINUOUS
 10
43.6859151374
 20
-57.2782042546
 40
3.1303283658
100
AcDbArc
 50
328.0669159594
 51
329.9930035082
  0
ARC
  5
36F
100
AcDbEntity
  8
RACCORDO
100
AcDbCircle
 62
250
  6
CONTINUOUS
 10
23.5800533957
 20
-33.3776369087
 40
0.3498993815
100
AcDbArc
 50
135.230550156
 51
142.8006461438
  0
ARC
  5
370
100
AcDbEntity
  8
ASSI
100
AcDbCircle
 62
250
  6
CONTINUOUS
 10
23.5800533957
 20
-33.3776369087
 40
0.3498993815
100
AcDbArc
 50
135.230550156
 51
142.8006461438
  0
ARC
  5
371
100
AcDbEntity
  8
RACCORDO
100
AcDbCircle
 62
250
  6
CONTINUOUS
 10
23.2241038499
 20
-32.9271646416
 40
0.2254135841
100
AcDbArc
 50
293.2552143018
 51
299.926086265
  0
ARC
  5
372
100
AcDbEntity
  8
ASSI
100
AcDbCircle
 62
250
  6
CONTINUOUS
 10
23.2241038499
 20
-32.9271646416
 40
0.2254135841
100
AcDbArc
 50
293.2552143018
 51
299.926086265
  0
ARC
  5
373
100
AcDbEntity
  8
0
100
AcDbCircle
 62
7
  6
CONTINUOUS
 10
2.9927299119
 20
-25.6236575915
 40
0.0676974766
100
AcDbArc
 50
246.2927846113
 51
249.5476494151
  0
ARC
  5
374
100
AcDbEntity
  8
ASSI
100
AcDbCircle
 62
7
  6
CONTINUOUS
 10
2.9927299119
 20
-25.6236575915
 40
0.0676974766
100
AcDbArc
 50
246.2927846113
 51
249.5476494151
  0
ARC
  5
375
100
AcDbEntity
  8
RACCORDO
100
AcDbCircle
 62
250
  6
CONTINUOUS
 10
-38.8088870843
 20
57.0725910985
 40
4.9461098545
100
AcDbArc
 50
68.530396308
 51
69.2363553318
  0
ARC
  5
376
100
AcDbEntity
  8
ASSI
100
AcDbCircle
 62
250
  6
CONTINUOUS
 10
-38.8088853622
 20
57.0725955304
 40
4.9461050999
100
AcDbArc
 50
68.5303960818
 51
69.2364320014
  0
ARC
  5
377
100
AcDbEntity
  8
RACCORDO
100
AcDbCircle
 62
250
  6
CONTINUOUS
 10
-38.4390545903
 20
58.838640467
 40
3.1311637373
100
AcDbArc
 50
90.0077979014
 51
91.9459231839
  0
ARC
  5
378
100
AcDbEntity
  8
ASSI
100
AcDbCircle
 62
250
  6
CONTINUOUS
 10
-38.4390545903
 20
58.838640467
 40
3.1311637373
100
AcDbArc
 50
90.0077979014
 51
91.9459231839
  0
ARC
  5
379
100
AcDbEntity
  8
RACCORDO
100
AcDbCircle
 62
250
  6
CONTINUOUS
 10
21.3678974238
 20
2.4253092401
 40
2.1475519747
100
AcDbArc
 50
24.0992472427
 51
24.7836551752
  0
ARC
  5
37A
100
AcDbEntity
  8
ASSI
100
AcDbCircle
 62
250
  6
CONTINUOUS
 10
21.3678974238
 20
2.4253092401
 40
2.1475519747
100
AcDbArc
 50
24.0992472427
 51
24.7836551752
  0
ARC
  5
37B
100
AcDbEntity
  8
0
100
AcDbCircle
 62
7
  6
CONTINUOUS
 10
-21.0398606449
 20
3.6405946769
 40
0.5035080591
100
AcDbArc
 50
98.0825484222
 51
117.3162077699
  0
ARC
  5
37C
100
AcDbEntity
  8
ASSI
100
AcDbCircle
 62
7
  6
CONTINUOUS
 10
-21.0398606449
 20
3.6405946769
 40
0.5035080591
100
AcDbArc
 50
98.0825484222
 51
117.3162077699
  0
ARC
  5
37D
100
AcDbEntity
  8
0
100
AcDbCircle
 62
7
  6
CONTINUOUS
 10
-21.0409040045
 20
3.6422499217
 40
0.5017231989
100
AcDbArc
 50
85.4937316933
 51
97.9911593286
  0
ARC
  5
37E
100
AcDbEntity
  8
ASSI
100
AcDbCircle
 62
7
  6
CONTINUOUS
 10
-21.0409040045
 20
3.6422499217
 40
0.5017231989
100
AcDbArc
 50
85.4937316933
 51
97.9911593286
  0
ARC
  5
37F
100
AcDbEntity
  8
0
100
AcDbCircle
 62
7
  6
CONTINUOUS
 10
-21.0409578192
 20
3.6439791027
 40
0.5000036272
100
AcDbArc
 50
59.9984955156
 51
85.4720159514
  0
ARC
  5
380
100
AcDbEntity
  8
ASSI
100
AcDbCircle
 62
7
  6
CONTINUOUS
 10
-21.0409578192
 20
3.6439791027
 40
0.5000036272
100
AcDbArc
 50
59.9984955156
 51
85.4720159514
  0
ARC
  5
381
100
AcDbEntity
  8
0
100
AcDbCircle
 62
250
  6
CONTINUOUS
 10
-20.8751983505
 20
3.9308878115
 40
0.1686516819
100
AcDbArc
 50
60.0286823795
 51
70.3417294325
  0
ARC
  5
382
100
AcDbEntity
  8
ASSI
100
AcDbCircle
 62
250
  6
CONTINUOUS
 10
-20.8751983505
 20
3.9308878115
 40
0.1686516819
100
AcDbArc
 50
60.0286823795
 51
70.3417294325
  0
ARC
  5
383
100
AcDbEntity
  8
RACCORDO
100
AcDbCircle
 62
250
  6
CONTINUOUS
 10
470.6519686878
 20
-15.3342594539
 40
447.5126373922
100
AcDbArc
 50
177.7131948584
 51
182.2868051416
  0
ARC
  5
384
100
AcDbEntity
  8
ASSI
100
AcDbCircle
 62
250
  6
CONTINUOUS
 10
470.6519686878
 20
-15.3342594539
 40
447.5126373922
100
AcDbArc
 50
177.7131948584
 51
182.2868051416
  0
ARC
  5
385
100
AcDbEntity
  8
RACCORDO
100
AcDbCircle
 62
250
  6
CONTINUOUS
 10
403.6453808811
 20
23.4405647577
 40
447.6351892721
100
AcDbArc
 50
177.6302158268
 51
182.3535137031
  0
ARC
  5
386
100
AcDbEntity
  8
ASSI
100
AcDbCircle
 62
250
  6
CONTINUOUS
 10
403.6453808811
 20
23.4405647577
 40
447.6351892721
100
AcDbArc
 50
177.6302158268
 51
182.3535137031
  0
SPLINE
  5
387
100
AcDbEntity
  8
0
100
AcDbSpline
 62
7
  6
CONTINUOUS
 70
0
 71
3
 72
11
 73
7
 74
0
 42
0.0000001
 43
0.0000001
 44
0.0000000001
 40
0.0
 40
0.0
 40
0.0
 40
0.0
 40
0.2901729357
 40
0.5580176204
 40
0.7953497895
 40
1.0
 40
1.0
 40
1.0
 40
1.0
 10
2.5242209676
 20
-25.2573512142
 30
0.0
 10
2.5449344279
 20
-25.2688177341
 30
0.0
 10
2.5856116833
 20
-25.2894435779
 30
0.0
 10
2.6466796431
 20
-25.3119506307
 30
0.0
 10
2.7042045248
 20
-25.3221855949
 30
0.0
 10
2.7412356645
 20
-25.3144075956
 30
0.0
 10
2.7557144404
 20
-25.3060904437
 30
0.0
  0
SPLINE
  5
388
100
AcDbEntity
  8
0
100
AcDbSpline
 62
7
  6
CONTINUOUS
 70
0
 71
3
 72
14
 73
10
 74
0
 42
0.0000001
 43
0.0000001
 44
0.0000000001
 40
0.0
 40
0.0
 40
0.0
 40
0.0
 40
0.142518877
 40
0.2883709618
 40
0.4320345152
 40
0.5686682002
 40
0.6948320037
 40
0.8097216578
 40
1.0
 40
1.0
 40
1.0
 40
1.0
 10
2.8473599616
 20
-24.5500923641
 30
0.0
 10
2.8860858232
 20
-24.5870576066
 30
0.0
 10
2.9563273368
 20
-24.6702385354
 30
0.0
 10
3.0469745879
 20
-24.8051135032
 30
0.0
 10
3.1201459379
 20
-24.9479869123
 30
0.0
 10
3.1726631036
 20
-25.0917424077
 30
0.0
 10
3.2026025102
 20
-25.2311481478
 30
0.0
 10
3.2158012471
 20
-25.3919763821
 30
0.0
 10
3.1979072247
 20
-25.5115855582
 30
0.0
 10
3.1630917078
 20
-25.5740098571
 30
0.0
  0
SPLINE
  5
389
100
AcDbEntity
  8
0
100
AcDbSpline
 62
7
  6
CONTINUOUS
 70
0
 71
3
 72
9
 73
5
 74
0
 42
0.0000001
 43
0.0000001
 44
0.0000000001
 40
0.0
 40
0.0
 40
0.0
 40
0.0
 40
0.2583551995
 40
1.0
 40
1.0
 40
1.0
 40
1.0
 10
3.1630917078
 20
-25.5740098571
 30
0.0
 10
3.1598457868
 20
-25.5798298007
 30
0.0
 10
3.1464842398
 20
-25.6018845587
 30
0.0
 10
3.1295584453
 20
-25.6219192931
 30
0.0
 10
3.1150944871
 20
-25.6344388484
 30
0.0
  0
SPLINE
  5
38A
100
AcDbEntity
  8
0
100
AcDbSpline
 62
7
  6
CONTINUOUS
 70
0
 71
3
 72
8
 73
4
 74
0
 42
0.0000001
 43
0.0000001
 44
0.0000000001
 40
0.0
 40
0.0
 40
0.0
 40
0.0
 40
1.0
 40
1.0
 40
1.0
 40
1.0
 10
3.1150944871
 20
-25.6344388484
 30
0.0
 10
3.1051814945
 20
-25.6430192285
 30
0.0
 10
3.0943079663
 20
-25.6505535895
 30
0.0
 10
3.0829576068
 20
-25.6571155775
 30
0.0
  0
SPLINE
  5
38B
100
AcDbEntity
  8
0
100
AcDbSpline
 62
7
  6
CONTINUOUS
 70
0
 71
3
 72
11
 73
7
 74
0
 42
0.0000001
 43
0.0000001
 44
0.0000000001
 40
0.0
 40
0.0
 40
0.0
 40
0.0
 40
0.2312458148
 40
0.4718691039
 40
0.7261521732
 40
1.0
 40
1.0
 40
1.0
 40
1.0
 10
1.8260654915
 20
-23.9380568494
 30
0.0
 10
1.9111678705
 20
-23.9736237033
 30
0.0
 10
2.0837010773
 20
-24.0490062389
 30
0.0
 10
2.3416240383
 20
-24.1814031081
 30
0.0
 10
2.6022279354
 20
-24.3435480983
 30
0.0
 10
2.7683699304
 20
-24.4746513551
 30
0.0
 10
2.8473599616
 20
-24.5500923641
 30
0.0
  0
SPLINE
  5
38C
100
AcDbEntity
  8
0
100
AcDbSpline
 62
7
  6
CONTINUOUS
 70
0
 71
3
 72
9
 73
5
 74
0
 42
0.0000001
 43
0.0000001
 44
0.0000000001
 40
0.0
 40
0.0
 40
0.0
 40
0.0
 40
0.5004492333
 40
1.0
 40
1.0
 40
1.0
 40
1.0
 10
3.2363275408
 20
-26.2662454321
 30
0.0
 10
3.2679240425
 20
-26.378528747
 30
0.0
 10
3.3300230683
 20
-26.6031829192
 30
0.0
 10
3.3914812535
 20
-26.8280192549
 30
0.0
 10
3.4234003472
 20
-26.9399935519
 30
0.0
  0
SPLINE
  5
38D
100
AcDbEntity
  8
0
100
AcDbSpline
 62
7
  6
CONTINUOUS
 70
0
 71
3
 72
9
 73
5
 74
0
 42
0.0000001
 43
0.0000001
 44
0.0000000001
 40
0.0
 40
0.0
 40
0.0
 40
0.0
 40
0.2466434662
 40
1.0
 40
1.0
 40
1.0
 40
1.0
 10
2.9664454928
 20
-25.6986103226
 30
0.0
 10
2.9690489926
 20
-25.7011824013
 30
0.0
 10
2.9794884578
 20
-25.7117280876
 30
0.0
 10
2.989479087
 20
-25.7227153796
 30
0.0
 10
2.9967686615
 20
-25.7311900815
 30
0.0
  0
SPLINE
  5
38E
100
AcDbEntity
  8
0
100
AcDbSpline
 62
7
  6
CONTINUOUS
 70
0
 71
3
 72
11
 73
7
 74
0
 42
0.0000001
 43
0.0000001
 44
0.0000000001
 40
0.0
 40
0.0
 40
0.0
 40
0.0
 40
0.2625874834
 40
0.5187008556
 40
0.7635376799
 40
1.0
 40
1.0
 40
1.0
 40
1.0
 10
2.9967686615
 20
-25.7311900815
 30
0.0
 10
3.0304784128
 20
-25.7703803106
 30
0.0
 10
3.0872354794
 20
-25.8562920718
 30
0.0
 10
3.1505121461
 20
-25.9928869001
 30
0.0
 10
3.1987128888
 20
-26.1300242247
 30
0.0
 10
3.2237179847
 20
-26.2214353208
 30
0.0
 10
3.2363275408
 20
-26.2662454321
 30
0.0
  0
LINE
  5
38F
100
AcDbEntity
  8
0
100
AcDbLine
 62
7
  6
CONTINUOUS
 10
2.9664454928
 20
-25.6986103226
 11
2.9655112556
 21
-25.6856422113
  0
SPLINE
  5
390
100
AcDbEntity
  8
RACCORDO
100
AcDbSpline
 62
7
  6
CONTINUOUS
 70
0
 71
3
 72
9
 73
5
 74
0
 42
0.0000001
 43
0.0000001
 44
0.0000000001
 40
0.0
 40
0.0
 40
0.0
 40
0.0
 40
0.4999847816
 40
1.0
 40
1.0
 40
1.0
 40
1.0
 10
46.5773120948
 20
13.4198308107
 30
0.0
 10
46.6622528944
 20
13.3707870874
 30
0.0
 10
46.8047279482
 20
13.2221478797
 30
0.0
 10
46.862222917
 20
13.0244395412
 30
0.0
 10
46.8622228433
 20
12.9263508183
 30
0.0
  0
SPLINE
  5
391
100
AcDbEntity
  8
0
100
AcDbSpline
 62
7
  6
CONTINUOUS
 70
0
 71
3
 72
11
 73
7
 74
0
 42
0.0000001
 43
0.0000001
 44
0.0000000001
 40
0.0
 40
0.0
 40
0.0
 40
0.0
 40
0.239362882
 40
0.5021668852
 40
0.763796347
 40
1.0
 40
1.0
 40
1.0
 40
1.0
 10
-20.335937883
 20
-0.2739464855
 30
0.0
 10
-20.2871514845
 20
-0.2438106783
 30
0.0
 10
-20.1953047485
 20
-0.1633687616
 30
0.0
 10
-20.0882631624
 20
-0.0133586401
 30
0.0
 10
-20.0154764816
 20
0.1551158884
 30
0.0
 10
-19.9947233278
 20
0.2744663005
 30
0.0
 10
-19.9947233278
 20
0.3310529749
 30
0.0
  0
SPLINE
  5
392
100
AcDbEntity
  8
0
100
AcDbSpline
 62
7
  6
CONTINUOUS
 70
0
 71
3
 72
11
 73
7
 74
0
 42
0.0000001
 43
0.0000001
 44
0.0000000001
 40
0.0
 40
0.0
 40
0.0
 40
0.0
 40
0.2897809214
 40
0.5490626305
 40
0.7822240993
 40
1.0
 40
1.0
 40
1.0
 40
1.0
 10
-19.9947233278
 20
3.4481752015
 30
0.0
 10
-19.9947233278
 20
3.473515325
 30
0.0
 10
-19.9985534915
 20
3.5216936873
 30
0.0
 10
-20.0180813762
 20
3.5878836866
 30
0.0
 10
-20.050923563
 20
3.6415955438
 30
0.0
 10
-20.0817901185
 20
3.6675306434
 30
0.0
 10
-20.0982827343
 20
3.6770517691
 30
0.0
  0
SPLINE
  5
393
100
AcDbEntity
  8
0
100
AcDbSpline
 62
7
  6
CONTINUOUS
 70
0
 71
3
 72
11
 73
7
 74
0
 42
0.0000001
 43
0.0000001
 44
0.0000000001
 40
0.0
 40
0.0
 40
0.0
 40
0.0
 40
0.2940883074
 40
0.5568989569
 40
0.7896940842
 40
1.0
 40
1.0
 40
1.0
 40
1.0
 10
2.9278880596
 20
-25.0399330875
 30
0.0
 10
2.929668666
 20
-25.0618841182
 30
0.0
 10
2.9300226333
 20
-25.1037934989
 30
0.0
 10
2.9202272989
 20
-25.1624848462
 30
0.0
 10
2.8997451909
 20
-25.2118708778
 30
0.0
 10
2.8757585722
 20
-25.2368223888
 30
0.0
 10
2.8621009761
 20
-25.2446646372
 30
0.0
  0
SPLINE
  5
394
100
AcDbEntity
  8
0
100
AcDbSpline
 62
7
  6
CONTINUOUS
 70
0
 71
3
 72
11
 73
7
 74
0
 42
0.0000001
 43
0.0000001
 44
0.0000000001
 40
0.0
 40
0.0
 40
0.0
 40
0.0
 40
0.2451913553
 40
0.5091059626
 40
0.7686212975
 40
1.0
 40
1.0
 40
1.0
 40
1.0
 10
2.6759182343
 20
-24.629903918
 30
0.0
 10
2.7089984007
 20
-24.6530753006
 30
0.0
 10
2.7721051531
 20
-24.7092697254
 30
0.0
 10
2.8502711705
 20
-24.8099207493
 30
0.0
 10
2.9046471154
 20
-24.9225489664
 30
0.0
 10
2.9248065602
 20
-25.0019448568
 30
0.0
 10
2.9278880596
 20
-25.0399330875
 30
0.0
  0
SPLINE
  5
395
100
AcDbEntity
  8
0
100
AcDbSpline
 62
7
  6
CONTINUOUS
 70
0
 71
3
 72
10
 73
6
 74
0
 42
0.0000001
 43
0.0000001
 44
0.0000000001
 40
0.0
 40
0.0
 40
0.0
 40
0.0
 40
0.2347604912
 40
0.4792569378
 40
1.0
 40
1.0
 40
1.0
 40
1.0
 10
2.3530535255
 20
-24.455950038
 30
0.0
 10
2.3798258959
 20
-24.4664605013
 30
0.0
 10
2.4340973555
 20
-24.4889647296
 30
0.0
 10
2.5439454349
 20
-24.5433929316
 30
0.0
 10
2.6236636702
 20
-24.5933016084
 30
0.0
 10
2.6759182343
 20
-24.629903918
 30
0.0
  0
SPLINE
  5
396
100
AcDbEntity
  8
RACCORDO
100
AcDbSpline
 62
250
  6
CONTINUOUS
 70
0
 71
3
 72
11
 73
7
 74
0
 42
0.0000001
 43
0.0000001
 44
0.0000000001
 40
0.0
 40
0.0
 40
0.0
 40
0.0
 40
0.2109477116
 40
0.4430008394
 40
0.7050470324
 40
1.0
 40
1.0
 40
1.0
 40
1.0
 10
23.3131033252
 20
-33.1342645626
 30
0.0
 10
23.2888258865
 20
-33.1446995093
 30
0.0
 10
23.2336424061
 20
-33.1575284659
 30
0.0
 10
23.1445830445
 20
-33.1510772349
 30
0.0
 10
23.04964028
 20
-33.1212462322
 30
0.0
 10
22.9876147424
 20
-33.0885401896
 30
0.0
 10
22.9561883699
 20
-33.0691094552
 30
0.0
  0
SPLINE
  5
397
100
AcDbEntity
  8
0
100
AcDbSpline
 62
7
  6
CONTINUOUS
 70
0
 71
3
 72
9
 73
5
 74
0
 42
0.0000001
 43
0.0000001
 44
0.0000000001
 40
0.0
 40
0.0
 40
0.0
 40
0.0
 40
0.5408473741
 40
1.0
 40
1.0
 40
1.0
 40
1.0
 10
3.0719148539
 20
-25.6242061072
 30
0.0
 10
3.0809665336
 20
-25.6281786524
 30
0.0
 10
3.0998913219
 20
-25.6317094086
 30
0.0
 10
3.1176868543
 20
-25.6264461666
 30
0.0
 10
3.1256365714
 20
-25.623758018
 30
0.0
  0
SPLINE
  5
398
100
AcDbEntity
  8
0
100
AcDbSpline
 62
7
  6
CONTINUOUS
 70
0
 71
3
 72
10
 73
6
 74
0
 42
0.0000001
 43
0.0000001
 44
0.0000000001
 40
0.0
 40
0.0
 40
0.0
 40
0.0
 40
0.5019889171
 40
0.7509022211
 40
1.0
 40
1.0
 40
1.0
 40
1.0
 10
2.9004168314
 20
-25.8809314497
 30
0.0
 10
2.9443564785
 20
-26.0077956498
 30
0.0
 10
2.9995323691
 20
-26.2010566109
 30
0.0
 10
3.0751695091
 20
-26.4575577827
 30
0.0
 10
3.1135017709
 20
-26.5851231003
 30
0.0
 10
3.132386996
 20
-26.6490121044
 30
0.0
  0
SPLINE
  5
399
100
AcDbEntity
  8
0
100
AcDbSpline
 62
7
  6
CONTINUOUS
 70
0
 71
3
 72
11
 73
7
 74
0
 42
0.0000001
 43
0.0000001
 44
0.0000000001
 40
0.0
 40
0.0
 40
0.0
 40
0.0
 40
0.2310111351
 40
0.4873322242
 40
0.7487412003
 40
1.0
 40
1.0
 40
1.0
 40
1.0
 10
2.65561955
 20
-25.5548258132
 30
0.0
 10
2.6833268119
 20
-25.5708236389
 30
0.0
 10
2.7377165
 20
-25.611926313
 30
0.0
 10
2.805801067
 20
-25.6909806824
 30
0.0
 10
2.8607167559
 20
-25.7826626774
 30
0.0
 10
2.8890281185
 20
-25.84804953
 30
0.0
 10
2.9004168314
 20
-25.8809314497
 30
0.0
  0
SPLINE
  5
39A
100
AcDbEntity
  8
RACCORDO
100
AcDbSpline
 62
250
  6
CONTINUOUS
 70
0
 71
3
 72
11
 73
7
 74
0
 42
0.0000001
 43
0.0000001
 44
0.0000000001
 40
0.0
 40
0.0
 40
0.0
 40
0.0
 40
0.2886491619
 40
0.5490385363
 40
0.7838691067
 40
1.0
 40
1.0
 40
1.0
 40
1.0
 10
23.4957255636
 20
-33.1907669715
 30
0.0
 10
23.4979502053
 20
-33.2450298684
 30
0.0
 10
23.4952371804
 20
-33.3487723696
 30
0.0
 10
23.4660061247
 20
-33.4942325703
 30
0.0
 10
23.41205321
 20
-33.6180059898
 30
0.0
 10
23.3582143393
 20
-33.6853102816
 30
0.0
 10
23.3282677845
 20
-33.7128202064
 30
0.0
  0
SPLINE
  5
39B
100
AcDbEntity
  8
RACCORDO
100
AcDbSpline
 62
250
  6
CONTINUOUS
 70
0
 71
3
 72
9
 73
5
 74
0
 42
0.0000001
 43
0.0000001
 44
0.0000000001
 40
0.0
 40
0.0
 40
0.0
 40
0.0
 40
0.5220892298
 40
1.0
 40
1.0
 40
1.0
 40
1.0
 10
23.3282677845
 20
3.3021943712
 30
0.0
 10
23.3853846585
 20
3.1746921851
 30
0.0
 10
23.4714612881
 20
2.9192782323
 30
0.0
 10
23.5007065021
 20
2.6500398189
 30
0.0
 10
23.4957255636
 20
2.5222480638
 30
0.0
  0
SPLINE
  5
39C
100
AcDbEntity
  8
RACCORDO
100
AcDbSpline
 62
250
  6
CONTINUOUS
 70
0
 71
3
 72
10
 73
6
 74
0
 42
0.0000001
 43
0.0000001
 44
0.0000000001
 40
0.0
 40
0.0
 40
0.0
 40
0.0
 40
0.5364074332
 40
0.7754460783
 40
1.0
 40
1.0
 40
1.0
 40
1.0
 10
-24.5988638224
 20
30.6580545038
 30
0.0
 10
-24.5960614411
 20
30.7257852249
 30
0.0
 10
-24.5785002044
 20
30.8250143452
 30
0.0
 10
-24.5188201473
 20
30.9373764194
 30
0.0
 10
-24.4794560991
 20
30.9817640715
 30
0.0
 10
-24.4579772045
 20
31.0003105643
 30
0.0
  0
SPLINE
  5
39D
100
AcDbEntity
  8
RACCORDO
100
AcDbSpline
 62
250
  6
CONTINUOUS
 70
0
 71
3
 72
10
 73
6
 74
0
 42
0.0000001
 43
0.0000001
 44
0.0000000001
 40
0.0
 40
0.0
 40
0.0
 40
0.0
 40
0.2296399137
 40
0.4782597368
 40
1.0
 40
1.0
 40
1.0
 40
1.0
 10
-23.9853337057
 20
-5.9656620945
 30
0.0
 10
-24.031840712
 20
-5.9405895006
 30
0.0
 10
-24.1238051352
 20
-5.8789984588
 30
0.0
 10
-24.2939787283
 20
-5.7234617031
 30
0.0
 10
-24.4001115573
 20
-5.5781370158
 30
0.0
 10
-24.4579772045
 20
-5.4729640887
 30
0.0
  0
SPLINE
  5
39E
100
AcDbEntity
  8
RACCORDO
100
AcDbSpline
 62
250
  6
CONTINUOUS
 70
0
 71
3
 72
9
 73
5
 74
0
 42
0.0000001
 43
0.0000001
 44
0.0000000001
 40
0.0
 40
0.0
 40
0.0
 40
0.0
 40
0.5272845802
 40
1.0
 40
1.0
 40
1.0
 40
1.0
 10
-24.4579772045
 20
-5.4729640887
 30
0.0
 10
-24.4988044263
 20
-5.3987606778
 30
0.0
 10
-24.5636142928
 20
-5.2506518197
 30
0.0
 10
-24.5955842473
 20
-5.0911715321
 30
0.0
 10
-24.5988629703
 20
-5.0153137607
 30
0.0
  0
SPLINE
  5
39F
100
AcDbEntity
  8
RACCORDO
100
AcDbSpline
 62
250
  6
CONTINUOUS
 70
0
 71
3
 72
11
 73
7
 74
0
 42
0.0000001
 43
0.0000001
 44
0.0000000001
 40
0.0
 40
0.0
 40
0.0
 40
0.0
 40
0.20999682
 40
0.4358199463
 40
0.6965935411
 40
1.0
 40
1.0
 40
1.0
 40
1.0
 10
43.9306444749
 20
-61.2362384183
 30
0.0
 10
43.9624893106
 20
-61.2215034856
 30
0.0
 10
44.0226689071
 20
-61.1759988735
 30
0.0
 10
44.0802188724
 20
-61.0719158384
 30
0.0
 10
44.1059904612
 20
-60.9409653874
 30
0.0
 10
44.1032657375
 20
-60.8460749378
 30
0.0
 10
44.0978794907
 20
-60.7956653206
 30
0.0
  0
SPLINE
  5
3A0
100
AcDbEntity
  8
RACCORDO
100
AcDbSpline
 62
250
  6
CONTINUOUS
 70
0
 71
3
 72
9
 73
5
 74
0
 42
0.0000001
 43
0.0000001
 44
0.0000000001
 40
0.0
 40
0.0
 40
0.0
 40
0.0
 40
0.2760065775
 40
1.0
 40
1.0
 40
1.0
 40
1.0
 10
23.4957279688
 20
-33.1907654477
 30
0.0
 10
23.4812859013
 20
-33.1823865996
 30
0.0
 10
23.4308067298
 20
-33.1493235858
 30
0.0
 10
23.3875044945
 20
-33.1027429325
 30
0.0
 10
23.3685723876
 20
-33.0632491861
 30
0.0
  0
SPLINE
  5
3A1
100
AcDbEntity
  8
RACCORDO
100
AcDbSpline
 62
250
  6
CONTINUOUS
 70
0
 71
3
 72
9
 73
5
 74
0
 42
0.0000001
 43
0.0000001
 44
0.0000000001
 40
0.0
 40
0.0
 40
0.0
 40
0.0
 40
0.2563938424
 40
1.0
 40
1.0
 40
1.0
 40
1.0
 10
23.3685723876
 20
-33.0632491861
 30
0.0
 10
23.3656738296
 20
-33.0572025841
 30
0.0
 10
23.3554707031
 20
-33.0331124675
 30
0.0
 10
23.3500769797
 20
-33.0069415892
 30
0.0
 10
23.3492800294
 20
-32.9875104518
 30
0.0
  0
SPLINE
  5
3A2
100
AcDbEntity
  8
RACCORDO
100
AcDbSpline
 62
250
  6
CONTINUOUS
 70
0
 71
3
 72
11
 73
7
 74
0
 42
0.0000001
 43
0.0000001
 44
0.0000000001
 40
0.0
 40
0.0
 40
0.0
 40
0.0
 40
0.2682474415
 40
0.5256138449
 40
0.7688436806
 40
1.0
 40
1.0
 40
1.0
 40
1.0
 10
23.3282717213
 20
-33.712817704
 30
0.0
 10
23.2980185279
 20
-33.6703890149
 30
0.0
 10
23.2493585442
 20
-33.5789519257
 30
0.0
 10
23.2179791302
 20
-33.4307803336
 30
0.0
 10
23.2325776186
 20
-33.286861578
 30
0.0
 10
23.2741987087
 20
-33.2018608294
 30
0.0
 10
23.3013456844
 20
-33.1660911954
 30
0.0
  0
SPLINE
  5
3A3
100
AcDbEntity
  8
RACCORDO
100
AcDbSpline
 62
250
  6
CONTINUOUS
 70
0
 71
3
 72
11
 73
7
 74
0
 42
0.0000001
 43
0.0000001
 44
0.0000000001
 40
0.0
 40
0.0
 40
0.0
 40
0.0
 40
0.2323706358
 40
0.4933105248
 40
0.7578922962
 40
1.0
 40
1.0
 40
1.0
 40
1.0
 10
22.6216158759
 20
-33.6917142375
 30
0.0
 10
22.6189202791
 20
-33.6350211869
 30
0.0
 10
22.6359325611
 20
-33.513556471
 30
0.0
 10
22.7060705217
 20
-33.3407515184
 30
0.0
 10
22.813077746
 20
-33.1850995633
 30
0.0
 10
22.9063065378
 20
-33.1008960746
 30
0.0
 10
22.9561620568
 20
-33.0690931987
 30
0.0
  0
SPLINE
  5
3A4
100
AcDbEntity
  8
RACCORDO
100
AcDbSpline
 62
250
  6
CONTINUOUS
 70
0
 71
3
 72
11
 73
7
 74
0
 42
0.0000001
 43
0.0000001
 44
0.0000000001
 40
0.0
 40
0.0
 40
0.0
 40
0.0
 40
0.2323706361
 40
0.4933105252
 40
0.7578922965
 40
1.0
 40
1.0
 40
1.0
 40
1.0
 10
-24.3198737659
 20
-6.5882864334
 30
0.0
 10
-24.3225693628
 20
-6.5315933827
 30
0.0
 10
-24.3055570806
 20
-6.4101286667
 30
0.0
 10
-24.2354191199
 20
-6.2373237141
 30
0.0
 10
-24.1284118957
 20
-6.0816717591
 30
0.0
 10
-24.035183104
 20
-5.9974682704
 30
0.0
 10
-23.9853275851
 20
-5.9656653946
 30
0.0
  0
SPLINE
  5
3A5
100
AcDbEntity
  8
RACCORDO
100
AcDbSpline
 62
250
  6
CONTINUOUS
 70
0
 71
3
 72
11
 73
7
 74
0
 42
0.0000001
 43
0.0000001
 44
0.0000000001
 40
0.0
 40
0.0
 40
0.0
 40
0.0
 40
0.1980113152
 40
0.455459978
 40
0.7360621752
 40
1.0
 40
1.0
 40
1.0
 40
1.0
 10
-25.0632344516
 20
-5.7721695111
 30
0.0
 10
-25.0206612462
 20
-5.7587378461
 30
0.0
 10
-24.9251377127
 20
-5.7205254707
 30
0.0
 10
-24.7747501029
 20
-5.6503498238
 30
0.0
 10
-24.6145807295
 20
-5.566306544
 30
0.0
 10
-24.5084202063
 20
-5.5045251184
 30
0.0
 10
-24.4579751755
 20
-5.4729634872
 30
0.0
  0
SPLINE
  5
3A6
100
AcDbEntity
  8
RACCORDO
100
AcDbSpline
 62
250
  6
CONTINUOUS
 70
0
 71
3
 72
11
 73
7
 74
0
 42
0.0000001
 43
0.0000001
 44
0.0000000001
 40
0.0
 40
0.0
 40
0.0
 40
0.0
 40
0.2342290573
 40
0.4938503752
 40
0.7568107979
 40
1.0
 40
1.0
 40
1.0
 40
1.0
 10
-25.2865651318
 20
-5.024483698
 30
0.0
 10
-25.2382840587
 20
-5.0522256429
 30
0.0
 10
-25.1258242903
 20
-5.0923829698
 30
0.0
 10
-24.9453350496
 20
-5.1097148299
 30
0.0
 10
-24.7632968696
 20
-5.0870115765
 30
0.0
 10
-24.649017752
 20
-5.0440470891
 30
0.0
 10
-24.5988642482
 20
-5.0152883306
 30
0.0
  0
SPLINE
  5
3A7
100
AcDbEntity
  8
RACCORDO
100
AcDbSpline
 62
250
  6
CONTINUOUS
 70
0
 71
3
 72
11
 73
7
 74
0
 42
0.0000001
 43
0.0000001
 44
0.0000000001
 40
0.0
 40
0.0
 40
0.0
 40
0.0
 40
0.2372718374
 40
0.4997695639
 40
0.7623915462
 40
1.0
 40
1.0
 40
1.0
 40
1.0
 10
-25.2865626385
 20
30.6885326358
 30
0.0
 10
-25.23802678
 20
30.6603585519
 30
0.0
 10
-25.1260511475
 20
30.6176636731
 30
0.0
 10
-24.9464753883
 20
30.5916013087
 30
0.0
 10
-24.7652183474
 20
30.6016840059
 30
0.0
 10
-24.6497959656
 20
30.6342913448
 30
0.0
 10
-24.5988621766
 20
30.6580442486
 30
0.0
  0
SPLINE
  5
3A8
100
AcDbEntity
  8
RACCORDO
100
AcDbSpline
 62
250
  6
CONTINUOUS
 70
0
 71
3
 72
11
 73
7
 74
0
 42
0.0000001
 43
0.0000001
 44
0.0000000001
 40
0.0
 40
0.0
 40
0.0
 40
0.0
 40
0.2699711448
 40
0.532651516
 40
0.7767360831
 40
1.0
 40
1.0
 40
1.0
 40
1.0
 10
-25.0632336412
 20
31.242845123
 30
0.0
 10
-25.029152343
 20
31.1895015538
 30
0.0
 10
-24.9454482199
 20
31.0938694091
 30
0.0
 10
-24.7880041411
 20
30.9967884316
 30
0.0
 10
-24.6175734787
 20
30.958065611
 30
0.0
 10
-24.5056365974
 20
30.9786536285
 30
0.0
 10
-24.457974627
 20
31.0003062109
 30
0.0
  0
SPLINE
  5
3A9
100
AcDbEntity
  8
RACCORDO
100
AcDbSpline
 62
250
  6
CONTINUOUS
 70
0
 71
3
 72
11
 73
7
 74
0
 42
0.0000001
 43
0.0000001
 44
0.0000000001
 40
0.0
 40
0.0
 40
0.0
 40
0.0
 40
0.2927193663
 40
0.5531462819
 40
0.7851453376
 40
1.0
 40
1.0
 40
1.0
 40
1.0
 10
-24.3198737659
 20
31.2429341035
 30
0.0
 10
-24.3211219176
 20
31.2152419877
 30
0.0
 10
-24.3192726
 20
31.1625365666
 30
0.0
 10
-24.3009895214
 20
31.0897558502
 30
0.0
 10
-24.267428467
 20
31.0306352548
 30
0.0
 10
-24.2345916734
 20
31.0022725426
 30
0.0
 10
-24.2169829957
 20
30.9920786532
 30
0.0
  0
SPLINE
  5
3AA
100
AcDbEntity
  8
RACCORDO
100
AcDbSpline
 62
250
  6
CONTINUOUS
 70
0
 71
3
 72
11
 73
7
 74
0
 42
0.0000001
 43
0.0000001
 44
0.0000000001
 40
0.0
 40
0.0
 40
0.0
 40
0.0
 40
0.2927402536
 40
0.5531621829
 40
0.7851444849
 40
1.0
 40
1.0
 40
1.0
 40
1.0
 10
22.6216158759
 20
4.1395062993
 30
0.0
 10
22.6203668961
 20
4.1117958086
 30
0.0
 10
22.6222200476
 20
4.0590572165
 30
0.0
 10
22.6405310165
 20
3.9862364521
 30
0.0
 10
22.6741425244
 20
3.9270978074
 30
0.0
 10
22.70702457
 20
3.8987475052
 30
0.0
 10
22.7246541601
 20
3.888565552
 30
0.0
  0
SPLINE
  5
3AB
100
AcDbEntity
  8
RACCORDO
100
AcDbSpline
 62
250
  6
CONTINUOUS
 70
0
 71
3
 72
12
 73
8
 74
0
 42
0.0000001
 43
0.0000001
 44
0.0000000001
 40
0.0
 40
0.0
 40
0.0
 40
0.0
 40
0.4138489095
 40
0.7205650807
 40
0.9130725623
 40
0.9674905822
 40
1.0
 40
1.0
 40
1.0
 40
1.0
 10
23.3282711252
 20
3.3021961056
 30
0.0
 10
23.3142594086
 20
3.2974967874
 30
0.0
 10
23.2897146741
 20
3.289643732
 30
0.0
 10
23.2582961364
 20
3.2812289241
 30
0.0
 10
23.2385867124
 20
3.2778426442
 30
0.0
 10
23.2286765446
 20
3.2781814217
 30
0.0
 10
23.2256152806
 20
3.27988993
 30
0.0
 10
23.2251390124
 20
3.2809486666
 30
0.0
  0
SPLINE
  5
3AC
100
AcDbEntity
  8
RACCORDO
100
AcDbSpline
 62
250
  6
CONTINUOUS
 70
0
 71
3
 72
11
 73
7
 74
0
 42
0.0000001
 43
0.0000001
 44
0.0000000001
 40
0.0
 40
0.0
 40
0.0
 40
0.0
 40
0.2957489977
 40
0.556925979
 40
0.7875960849
 40
1.0
 40
1.0
 40
1.0
 40
1.0
 10
23.4957255732
 20
2.5222480688
 30
0.0
 10
23.4732752865
 20
2.5351414341
 30
0.0
 10
23.4327353176
 20
2.5627727999
 30
0.0
 10
23.3844702884
 20
2.6128706983
 30
0.0
 10
23.354577091
 20
2.667840958
 30
0.0
 10
23.3485134096
 20
2.7071772129
 30
0.0
 10
23.3492421381
 20
2.7257563359
 30
0.0
  0
SPLINE
  5
3AD
100
AcDbEntity
  8
RACCORDO
100
AcDbSpline
 62
250
  6
CONTINUOUS
 70
0
 71
3
 72
9
 73
5
 74
0
 42
0.0000001
 43
0.0000001
 44
0.0000000001
 40
0.0
 40
0.0
 40
0.0
 40
0.0
 40
0.2455441792
 40
1.0
 40
1.0
 40
1.0
 40
1.0
 10
41.8720056722
 20
-44.4196975871
 30
0.0
 10
41.7294591949
 20
-41.3928461863
 30
0.0
 10
41.2984625253
 20
-29.0589723821
 30
0.0
 10
41.4544240327
 20
-16.7059792839
 30
0.0
 10
41.8720056618
 20
-7.4047769039
 30
0.0
  0
SPLINE
  5
3AE
100
AcDbEntity
  8
0
100
AcDbSpline
 62
7
  6
CONTINUOUS
 70
0
 71
3
 72
8
 73
4
 74
0
 42
0.0000001
 43
0.0000001
 44
0.0000000001
 40
0.0
 40
0.0
 40
0.0
 40
0.0
 40
1.0
 40
1.0
 40
1.0
 40
1.0
 10
2.7557144404
 20
-25.3060904437
 30
0.0
 10
2.7651917434
 20
-25.3006463254
 30
0.0
 10
2.7736711618
 20
-25.2932524841
 30
0.0
 10
2.7807758289
 20
-25.2849469798
 30
0.0
  0
SPLINE
  5
3AF
100
AcDbEntity
  8
0
100
AcDbSpline
 62
7
  6
CONTINUOUS
 70
0
 71
3
 72
9
 73
5
 74
0
 42
0.0000001
 43
0.0000001
 44
0.0000000001
 40
0.0
 40
0.0
 40
0.0
 40
0.0
 40
0.4507122658
 40
1.0
 40
1.0
 40
1.0
 40
1.0
 10
2.7807758289
 20
-25.2849469798
 30
0.0
 10
2.7994557409
 20
-25.2631097727
 30
0.0
 10
2.8227058988
 20
-25.2003622057
 30
0.0
 10
2.8243468511
 20
-25.136257469
 30
0.0
 10
2.8215174962
 20
-25.1013501281
 30
0.0
  0
SPLINE
  5
3B0
100
AcDbEntity
  8
RACCORDO
100
AcDbSpline
 62
250
  6
CONTINUOUS
 70
0
 71
3
 72
9
 73
5
 74
0
 42
0.0000001
 43
0.0000001
 44
0.0000000001
 40
0.0
 40
0.0
 40
0.0
 40
0.0
 40
0.5072370183
 40
1.0
 40
1.0
 40
1.0
 40
1.0
 10
-41.9712094557
 20
60.3541570623
 30
0.0
 10
-42.3895237906
 20
57.2573511205
 30
0.0
 10
-43.0808157059
 20
51.1332038501
 30
0.0
 10
-43.4846604006
 20
44.9830136064
 30
0.0
 10
-43.6069794894
 20
41.9497179459
 30
0.0
  0
SPLINE
  5
3B1
100
AcDbEntity
  8
0
100
AcDbSpline
 62
7
  6
CONTINUOUS
 70
0
 71
3
 72
8
 73
4
 74
0
 42
0.0000001
 43
0.0000001
 44
0.0000000001
 40
0.0
 40
0.0
 40
0.0
 40
0.0
 40
1.0
 40
1.0
 40
1.0
 40
1.0
 10
3.0829576068
 20
-25.6571155775
 30
0.0
 10
3.0765926606
 20
-25.6607953464
 30
0.0
 10
3.0700556927
 20
-25.6641873289
 30
0.0
 10
3.0634095142
 20
-25.6673308221
 30
0.0
  0
SPLINE
  5
3B2
100
AcDbEntity
  8
0
100
AcDbSpline
 62
7
  6
CONTINUOUS
 70
0
 71
3
 72
9
 73
5
 74
0
 42
0.0000001
 43
0.0000001
 44
0.0000000001
 40
0.0
 40
0.0
 40
0.0
 40
0.0
 40
0.4930820138
 40
1.0
 40
1.0
 40
1.0
 40
1.0
 10
3.0634095142
 20
-25.6673308221
 30
0.0
 10
3.052231937
 20
-25.6726175652
 30
0.0
 10
3.0291353925
 20
-25.681898016
 30
0.0
 10
3.0049182534
 20
-25.690609466
 30
0.0
 10
2.9922120405
 20
-25.6909843557
 30
0.0
  0
SPLINE
  5
3B3
100
AcDbEntity
  8
0
100
AcDbSpline
 62
7
  6
CONTINUOUS
 70
0
 71
3
 72
9
 73
5
 74
0
 42
0.0000001
 43
0.0000001
 44
0.0000000001
 40
0.0
 40
0.0
 40
0.0
 40
0.0
 40
0.2326646506
 40
1.0
 40
1.0
 40
1.0
 40
1.0
 10
2.9922120405
 20
-25.6909843557
 30
0.0
 10
2.9903868939
 20
-25.6910382056
 30
0.0
 10
2.9825347993
 20
-25.6909148446
 30
0.0
 10
2.9747173744
 20
-25.6891906184
 30
0.0
 10
2.9690744986
 20
-25.6870876299
 30
0.0
  0
SPLINE
  5
3B4
100
AcDbEntity
  8
RACCORDO
100
AcDbSpline
 62
250
  6
CONTINUOUS
 70
0
 71
3
 72
14
 73
10
 74
0
 42
0.0000001
 43
0.0000001
 44
0.0000000001
 40
0.0
 40
0.0
 40
0.0
 40
0.0
 40
0.2518608402
 40
0.3669198409
 40
0.4801607485
 40
0.5968811317
 40
0.7212208046
 40
0.8554310021
 40
1.0
 40
1.0
 40
1.0
 40
1.0
 10
-41.3904891533
 20
60.7014546305
 30
0.0
 10
-41.4503230481
 20
60.7360048073
 30
0.0
 10
-41.5505727128
 20
60.7708950029
 30
0.0
 10
-41.6833826743
 20
60.757478433
 30
0.0
 10
-41.7717749632
 20
60.7196966952
 30
0.0
 10
-41.8471618961
 20
60.6563813691
 30
0.0
 10
-41.9069715961
 20
60.5713923085
 30
0.0
 10
-41.9498035069
 20
60.4686649534
 30
0.0
 10
-41.9658984527
 20
60.3934593271
 30
0.0
 10
-41.9712094557
 20
60.3541570623
 30
0.0
  0
SPLINE
  5
3B5
100
AcDbEntity
  8
0
100
AcDbSpline
 62
7
  6
CONTINUOUS
 70
0
 71
3
 72
10
 73
6
 74
0
 42
0.0000001
 43
0.0000001
 44
0.0000000001
 40
0.0
 40
0.0
 40
0.0
 40
0.0
 40
0.5207413626
 40
0.7652368875
 40
1.0
 40
1.0
 40
1.0
 40
1.0
 10
2.5695643609
 20
-24.6913113115
 30
0.0
 10
2.5173101271
 20
-24.6547087227
 30
0.0
 10
2.4375926149
 20
-24.6047989608
 30
0.0
 10
2.3277431696
 20
-24.5503731285
 30
0.0
 10
2.2734716893
 20
-24.527868217
 30
0.0
 10
2.2466988773
 20
-24.5173578789
 30
0.0
  0
SPLINE
  5
3B6
100
AcDbEntity
  8
0
100
AcDbSpline
 62
7
  6
CONTINUOUS
 70
0
 71
3
 72
11
 73
7
 74
0
 42
0.0000001
 43
0.0000001
 44
0.0000000001
 40
0.0
 40
0.0
 40
0.0
 40
0.0
 40
0.231371748
 40
0.490880088
 40
0.7548346023
 40
1.0
 40
1.0
 40
1.0
 40
1.0
 10
2.8215174962
 20
-25.1013501281
 30
0.0
 10
2.8184384436
 20
-25.0633621269
 30
0.0
 10
2.798283027
 20
-24.9839680851
 30
0.0
 10
2.7439454794
 20
-24.87131218
 30
0.0
 10
2.6657532186
 20
-24.7706726255
 30
0.0
 10
2.6026414975
 20
-24.7144808949
 30
0.0
 10
2.5695643609
 20
-24.6913113115
 30
0.0
  0
SPLINE
  5
3B7
100
AcDbEntity
  8
RACCORDO
100
AcDbSpline
 62
250
  6
CONTINUOUS
 70
0
 71
3
 72
12
 73
8
 74
0
 42
0.0000001
 43
0.0000001
 44
0.0000000001
 40
0.0
 40
0.0
 40
0.0
 40
0.0
 40
0.1206825646
 40
0.2475608226
 40
0.4446890308
 40
0.6422702548
 40
1.0
 40
1.0
 40
1.0
 40
1.0
 10
43.6883702707
 20
10.8953892949
 30
0.0
 10
43.694657933
 20
10.9369425743
 30
0.0
 10
43.7005261518
 20
11.0233631672
 30
0.0
 10
43.6888273863
 20
11.17815622
 30
0.0
 10
43.6446372412
 20
11.355916032
 30
0.0
 10
43.5338931052
 20
11.5936036779
 30
0.0
 10
43.3979183501
 20
11.7456804453
 30
0.0
 10
43.290039262
 20
11.8079788198
 30
0.0
  0
SPLINE
  5
3B8
100
AcDbEntity
  8
RACCORDO
100
AcDbSpline
 62
250
  6
CONTINUOUS
 70
0
 71
3
 72
9
 73
5
 74
0
 42
0.0000001
 43
0.0000001
 44
0.0000000001
 40
0.0
 40
0.0
 40
0.0
 40
0.0
 40
0.2449455102
 40
1.0
 40
1.0
 40
1.0
 40
1.0
 10
41.8720055897
 20
-7.4047768622
 30
0.0
 10
41.9393633075
 20
-5.904370202
 30
0.0
 10
42.3001262267
 20
0.2170739898
 30
0.0
 10
42.9957971234
 20
6.317761574
 30
0.0
 10
43.6883702707
 20
10.8953892949
 30
0.0
  0
SPLINE
  5
3B9
100
AcDbEntity
  8
0
100
AcDbSpline
 62
7
  6
CONTINUOUS
 70
0
 71
3
 72
11
 73
7
 74
0
 42
0.0000001
 43
0.0000001
 44
0.0000000001
 40
0.0
 40
0.0
 40
0.0
 40
0.0
 40
0.2512772156
 40
0.5126968503
 40
0.7690141992
 40
1.0
 40
1.0
 40
1.0
 40
1.0
 10
2.7939886422
 20
-25.9423817579
 30
0.0
 10
2.7826010713
 20
-25.909496712
 30
0.0
 10
2.7542908217
 20
-25.8441048699
 30
0.0
 10
2.6993786093
 20
-25.7524166791
 30
0.0
 10
2.6312971157
 20
-25.6733620745
 30
0.0
 10
2.5769084979
 20
-25.6322647583
 30
0.0
 10
2.5492042508
 20
-25.6162686732
 30
0.0
  0
SPLINE
  5
3BA
100
AcDbEntity
  8
0
100
AcDbSpline
 62
7
  6
CONTINUOUS
 70
0
 71
3
 72
10
 73
6
 74
0
 42
0.0000001
 43
0.0000001
 44
0.0000000001
 40
0.0
 40
0.0
 40
0.0
 40
0.0
 40
0.249097961
 40
0.498011314
 40
1.0
 40
1.0
 40
1.0
 40
1.0
 10
3.0259125808
 20
-26.7104890973
 30
0.0
 10
3.0070313521
 20
-26.6465978058
 30
0.0
 10
2.9687069832
 20
-26.519027938
 30
0.0
 10
2.8930858908
 20
-26.2625178048
 30
0.0
 10
2.837921273
 20
-26.0692504811
 30
0.0
 10
2.7939886422
 20
-25.9423817579
 30
0.0
  0
SPLINE
  5
3BB
100
AcDbEntity
  8
RACCORDO
100
AcDbSpline
 62
250
  6
CONTINUOUS
 70
0
 71
3
 72
10
 73
6
 74
0
 42
0.0000001
 43
0.0000001
 44
0.0000000001
 40
0.0
 40
0.0
 40
0.0
 40
0.0
 40
0.2280873426
 40
0.4753036476
 40
1.0
 40
1.0
 40
1.0
 40
1.0
 10
22.6216158759
 20
4.1395062993
 30
0.0
 10
22.6930319459
 20
4.0982725655
 30
0.0
 10
22.8330313673
 20
3.9965518591
 30
0.0
 10
23.0872576809
 20
3.7381479821
 30
0.0
 10
23.2381317584
 20
3.4977802775
 30
0.0
 10
23.3176536319
 20
3.3255482158
 30
0.0
  0
SPLINE
  5
3BC
100
AcDbEntity
  8
RACCORDO
100
AcDbSpline
 62
250
  6
CONTINUOUS
 70
0
 71
3
 72
11
 73
7
 74
0
 42
0.0000001
 43
0.0000001
 44
0.0000000001
 40
0.0
 40
0.0
 40
0.0
 40
0.0
 40
0.2254759758
 40
0.4577382633
 40
0.7130530067
 40
1.0
 40
1.0
 40
1.0
 40
1.0
 10
-25.063237578
 20
31.2428430794
 30
0.0
 10
-25.0184969409
 20
31.2822011565
 30
0.0
 10
-24.9118081293
 20
31.3461651754
 30
0.0
 10
-24.7217587491
 20
31.3761089032
 30
0.0
 10
-24.5172310896
 20
31.3409123995
 30
0.0
 10
-24.385544926
 20
31.2808561408
 30
0.0
 10
-24.3198737659
 20
31.2429341035
 30
0.0
  0
SPLINE
  5
3BD
100
AcDbEntity
  8
RACCORDO
100
AcDbSpline
 62
250
  6
CONTINUOUS
 70
0
 71
3
 72
12
 73
8
 74
0
 42
0.0000001
 43
0.0000001
 44
0.0000000001
 40
0.0
 40
0.0
 40
0.0
 40
0.0
 40
0.1071022731
 40
0.2146285857
 40
0.4417631463
 40
0.7010723291
 40
1.0
 40
1.0
 40
1.0
 40
1.0
 10
23.3282677845
 20
-33.7128202064
 30
0.0
 10
23.3084360871
 20
-33.7310932813
 30
0.0
 10
23.2648307452
 20
-33.7637812567
 30
0.0
 10
23.1632853431
 20
-33.8109471547
 30
0.0
 10
23.0110841507
 20
-33.8297667813
 30
0.0
 10
22.8151049942
 20
-33.7895036371
 30
0.0
 10
22.6867928199
 20
-33.7293550618
 30
0.0
 10
22.6216158759
 20
-33.6917142375
 30
0.0
  0
SPLINE
  5
3BE
100
AcDbEntity
  8
RACCORDO
100
AcDbSpline
 62
250
  6
CONTINUOUS
 70
0
 71
3
 72
9
 73
5
 74
0
 42
0.0000001
 43
0.0000001
 44
0.0000000001
 40
0.0
 40
0.0
 40
0.0
 40
0.0
 40
0.243962173
 40
1.0
 40
1.0
 40
1.0
 40
1.0
 10
43.6883702707
 20
-60.8309172413
 30
0.0
 10
43.4509893097
 20
-59.5087922455
 30
0.0
 10
42.5731750093
 20
-54.0725317363
 30
0.0
 10
42.0678201351
 20
-48.5778663976
 30
0.0
 10
41.8720056004
 20
-44.4196975456
 30
0.0
  0
SPLINE
  5
3BF
100
AcDbEntity
  8
RACCORDO
100
AcDbSpline
 62
250
  6
CONTINUOUS
 70
0
 71
3
 72
9
 73
5
 74
0
 42
0.0000001
 43
0.0000001
 44
0.0000000001
 40
0.0
 40
0.0
 40
0.0
 40
0.0
 40
0.2607204997
 40
1.0
 40
1.0
 40
1.0
 40
1.0
 10
43.290039262
 20
-61.0729055171
 30
0.0
 10
43.2970674112
 20
-61.07696371
 30
0.0
 10
43.3242587616
 20
-61.092113476
 30
0.0
 10
43.352417503
 20
-61.1055694423
 30
0.0
 10
43.3737445779
 20
-61.1142131817
 30
0.0
  0
SPLINE
  5
3C0
100
AcDbEntity
  8
RACCORDO
100
AcDbSpline
 62
250
  6
CONTINUOUS
 70
0
 71
3
 72
15
 73
11
 74
0
 42
0.0000001
 43
0.0000001
 44
0.0000000001
 40
0.0
 40
0.0
 40
0.0
 40
0.0
 40
0.1487362475
 40
0.2766544839
 40
0.3876232344
 40
0.48990754
 40
0.5945789695
 40
0.7113437602
 40
0.8458466563
 40
1.0
 40
1.0
 40
1.0
 40
1.0
 10
43.3737445779
 20
-61.1142131817
 30
0.0
 10
43.3996023845
 20
-61.1246932003
 30
0.0
 10
43.4492902605
 20
-61.1407444443
 30
0.0
 10
43.5222791966
 20
-61.1484253529
 30
0.0
 10
43.5864014857
 20
-61.1367880277
 30
0.0
 10
43.6385197919
 20
-61.1047580189
 30
0.0
 10
43.67487206
 20
-61.0544237276
 30
0.0
 10
43.6948906965
 20
-60.9898250667
 30
0.0
 10
43.699667884
 20
-60.9134209948
 30
0.0
 10
43.6934790395
 20
-60.8593793938
 30
0.0
 10
43.6883702707
 20
-60.8309172413
 30
0.0
  0
SPLINE
  5
3C1
100
AcDbEntity
  8
RACCORDO
100
AcDbSpline
 62
250
  6
CONTINUOUS
 70
0
 71
3
 72
11
 73
7
 74
0
 42
0.0000001
 43
0.0000001
 44
0.0000000001
 40
0.0
 40
0.0
 40
0.0
 40
0.0
 40
0.2247952417
 40
0.4861559178
 40
0.7556589687
 40
1.0
 40
1.0
 40
1.0
 40
1.0
 10
-41.9712094557
 20
-11.372149474
 30
0.0
 10
-41.9588977532
 20
-11.4475162074
 30
0.0
 10
-41.9045641093
 20
-11.6058223668
 30
0.0
 10
-41.7733674949
 20
-11.827873245
 30
0.0
 10
-41.6007112984
 20
-12.028402087
 30
0.0
 10
-41.4623709658
 20
-12.1379213356
 30
0.0
 10
-41.3904891533
 20
-12.1794297064
 30
0.0
  0
SPLINE
  5
3C2
100
AcDbEntity
  8
0
100
AcDbSpline
 62
250
  6
CONTINUOUS
 70
0
 71
3
 72
11
 73
7
 74
0
 42
0.0000001
 43
0.0000001
 44
0.0000000001
 40
0.0
 40
0.0
 40
0.0
 40
0.0
 40
0.2868065256
 40
0.5451752688
 40
0.7795462923
 40
1.0
 40
1.0
 40
1.0
 40
1.0
 10
-21.0286178802
 20
4.0590933954
 30
0.0
 10
-21.04948417
 20
4.0715539374
 30
0.0
 10
-21.0911794168
 20
4.092141701
 30
0.0
 10
-21.1556911743
 20
4.1088064469
 30
0.0
 10
-21.2168979612
 20
4.1086189908
 30
0.0
 10
-21.2543252138
 20
4.0965553578
 30
0.0
 10
-21.270912669
 20
4.0879625956
 30
0.0
  0
SPLINE
  5
3C3
100
AcDbEntity
  8
RACCORDO
100
AcDbSpline
 62
250
  6
CONTINUOUS
 70
0
 71
3
 72
9
 73
5
 74
0
 42
0.0000001
 43
0.0000001
 44
0.0000000001
 40
0.0
 40
0.0
 40
0.0
 40
0.0
 40
0.5093318892
 40
1.0
 40
1.0
 40
1.0
 40
1.0
 10
-43.6069794899
 20
4.9347972568
 30
0.0
 10
-43.489614033
 20
2.1748367058
 30
0.0
 10
-43.1130613646
 20
-3.2389728828
 30
0.0
 10
-42.417730405
 20
-8.6218481274
 30
0.0
 10
-41.9913150007
 20
-11.2486916192
 30
0.0
  0
LINE
  5
3C4
100
AcDbEntity
  8
RACCORDO
100
AcDbLine
 62
250
  6
CONTINUOUS
 10
-41.9913150007
 20
-11.2486916192
 11
-41.9712094557
 21
-11.372149474
  0
SPLINE
  5
3C5
100
AcDbEntity
  8
RACCORDO
100
AcDbSpline
 62
250
  6
CONTINUOUS
 70
0
 71
3
 72
10
 73
6
 74
0
 42
0.0000001
 43
0.0000001
 44
0.0000000001
 40
0.0
 40
0.0
 40
0.0
 40
0.0
 40
0.2280186105
 40
0.4762904283
 40
1.0
 40
1.0
 40
1.0
 40
1.0
 10
-24.3198737659
 20
-6.5882864334
 30
0.0
 10
-24.3932993636
 20
-6.5458935118
 30
0.0
 10
-24.5382905586
 20
-6.4424108382
 30
0.0
 10
-24.8061596131
 20
-6.1834609277
 30
0.0
 10
-24.9723445275
 20
-5.9443900942
 30
0.0
 10
-25.063237578
 20
-5.7721714982
 30
0.0
  0
SPLINE
  5
3C6
100
AcDbEntity
  8
0
100
AcDbSpline
 62
7
  6
CONTINUOUS
 70
0
 71
3
 72
11
 73
7
 74
0
 42
0.0000001
 43
0.0000001
 44
0.0000000001
 40
0.0
 40
0.0
 40
0.0
 40
0.0
 40
0.2197147018
 40
0.4537017666
 40
0.71226936
 40
1.0
 40
1.0
 40
1.0
 40
1.0
 10
-20.0982827343
 20
3.6770517691
 30
0.0
 10
-20.1140313622
 20
3.6861433933
 30
0.0
 10
-20.1499447223
 20
3.6995112926
 30
0.0
 10
-20.2095872628
 20
3.7022682191
 30
0.0
 10
-20.2732984427
 20
3.6887262332
 30
0.0
 10
-20.3149582978
 20
3.6704160627
 30
0.0
 10
-20.335937883
 20
3.6591486463
 30
0.0
  0
SPLINE
  5
3C7
100
AcDbEntity
  8
0
100
AcDbSpline
 62
250
  6
CONTINUOUS
 70
0
 71
3
 72
9
 73
5
 74
0
 42
0.0000001
 43
0.0000001
 44
0.0000000001
 40
0.0
 40
0.0
 40
0.0
 40
0.0
 40
0.4561845119
 40
1.0
 40
1.0
 40
1.0
 40
1.0
 10
-20.8184623257
 20
4.0897097662
 30
0.0
 10
-20.8495395328
 20
4.1008189316
 30
0.0
 10
-20.9252055453
 20
4.104540714
 30
0.0
 10
-20.993957439
 20
4.0777083307
 30
0.0
 10
-21.0286178802
 20
4.0590933954
 30
0.0
  0
SPLINE
  5
3C8
100
AcDbEntity
  8
RACCORDO
100
AcDbSpline
 62
250
  6
CONTINUOUS
 70
0
 71
3
 72
9
 73
5
 74
0
 42
0.0000001
 43
0.0000001
 44
0.0000000001
 40
0.0
 40
0.0
 40
0.0
 40
0.0
 40
0.2457003809
 40
1.0
 40
1.0
 40
1.0
 40
1.0
 10
-24.5988633798
 20
-5.0153139966
 30
0.0
 10
-24.7313822076
 20
-2.0961225839
 30
0.0
 10
-25.131953559
 20
9.7910218023
 30
0.0
 10
-24.987394331
 20
21.6953312263
 30
0.0
 10
-24.5988639585
 20
30.6580544409
 30
0.0
  0
SPLINE
  5
3C9
100
AcDbEntity
  8
RACCORDO
100
AcDbSpline
 62
250
  6
CONTINUOUS
 70
0
 71
3
 72
9
 73
5
 74
0
 42
0.0000001
 43
0.0000001
 44
0.0000000001
 40
0.0
 40
0.0
 40
0.0
 40
0.0
 40
0.4918664365
 40
1.0
 40
1.0
 40
1.0
 40
1.0
 10
-38.4394807387
 20
61.9698041752
 30
0.0
 10
-38.20725698
 20
61.9698569828
 30
0.0
 10
-37.7343253721
 20
61.9179624217
 30
0.0
 10
-37.2797471693
 20
61.7825002627
 30
0.0
 10
-37.0554232548
 20
61.6974551281
 30
0.0
  0
SPLINE
  5
3CA
100
AcDbEntity
  8
RACCORDO
100
AcDbSpline
 62
250
  6
CONTINUOUS
 70
0
 71
3
 72
10
 73
6
 74
0
 42
0.0000001
 43
0.0000001
 44
0.0000000001
 40
0.0
 40
0.0
 40
0.0
 40
0.0
 40
0.6205098285
 40
0.8391287006
 40
1.0
 40
1.0
 40
1.0
 40
1.0
 10
46.0623786688
 20
13.1794896103
 30
0.0
 10
46.1666517681
 20
13.2339000487
 30
0.0
 10
46.3084753415
 20
13.306114297
 30
0.0
 10
46.4813950167
 20
13.3837783322
 30
0.0
 10
46.5483922813
 20
13.4101643302
 30
0.0
 10
46.5773120984
 20
13.419830808
 30
0.0
  0
SPLINE
  5
3CB
100
AcDbEntity
  8
RACCORDO
100
AcDbSpline
 62
250
  6
CONTINUOUS
 70
0
 71
3
 72
9
 73
5
 74
0
 42
0.0000001
 43
0.0000001
 44
0.0000000001
 40
0.0
 40
0.0
 40
0.0
 40
0.0
 40
0.2805678417
 40
1.0
 40
1.0
 40
1.0
 40
1.0
 10
45.5301666304
 20
12.8903877178
 30
0.0
 10
45.5796027479
 20
12.9180400521
 30
0.0
 10
45.756070215
 20
13.016115671
 30
0.0
 10
45.9336086505
 20
13.112295112
 30
0.0
 10
46.0623786688
 20
13.1794896103
 30
0.0
  0
SPLINE
  5
3CC
100
AcDbEntity
  8
RACCORDO
100
AcDbSpline
 62
250
  6
CONTINUOUS
 70
0
 71
3
 72
9
 73
5
 74
0
 42
0.0000001
 43
0.0000001
 44
0.0000000001
 40
0.0
 40
0.0
 40
0.0
 40
0.0
 40
0.2482869198
 40
1.0
 40
1.0
 40
1.0
 40
1.0
 10
-39.1796162974
 20
61.8762030439
 30
0.0
 10
-39.1282814914
 20
61.8897889431
 30
0.0
 10
-38.9199300715
 20
61.9383800292
 30
0.0
 10
-38.7060559974
 20
61.9625269224
 30
0.0
 10
-38.5453771306
 20
61.9679985268
 30
0.0
  0
SPLINE
  5
3CD
100
AcDbEntity
  8
RACCORDO
100
AcDbSpline
 62
250
  6
CONTINUOUS
 70
0
 71
3
 72
9
 73
5
 74
0
 42
0.0000001
 43
0.0000001
 44
0.0000000001
 40
0.0
 40
0.0
 40
0.0
 40
0.0
 40
0.50815045
 40
1.0
 40
1.0
 40
1.0
 40
1.0
 10
46.8528154993
 20
-57.5088091324
 30
0.0
 10
46.8143078218
 20
-57.7456234654
 30
0.0
 10
46.7043386872
 20
-58.2070582515
 30
0.0
 10
46.5128207987
 20
-58.6426063622
 30
0.0
 10
46.3966678792
 20
-58.8436994642
 30
0.0
  0
SPLINE
  5
3CE
100
AcDbEntity
  8
RACCORDO
100
AcDbSpline
 62
250
  6
CONTINUOUS
 70
0
 71
3
 72
9
 73
5
 74
0
 42
0.0000001
 43
0.0000001
 44
0.0000000001
 40
0.0
 40
0.0
 40
0.0
 40
0.0
 40
0.252307973
 40
1.0
 40
1.0
 40
1.0
 40
1.0
 10
46.3425196812
 20
-58.9339240304
 30
0.0
 10
46.3139458214
 20
-58.9797633874
 30
0.0
 10
46.1959870388
 20
-59.1584445542
 30
0.0
 10
46.0584128772
 20
-59.3243441567
 30
0.0
 10
45.9455807548
 20
-59.4378856773
 30
0.0
  0
SPLINE
  5
3CF
100
AcDbEntity
  8
RACCORDO
100
AcDbSpline
 62
250
  6
CONTINUOUS
 70
0
 71
3
 72
9
 73
5
 74
0
 42
0.0000001
 43
0.0000001
 44
0.0000000001
 40
0.0
 40
0.0
 40
0.0
 40
0.0
 40
0.280567166
 40
1.0
 40
1.0
 40
1.0
 40
1.0
 10
45.8802434261
 20
12.2840592243
 30
0.0
 10
45.9289058464
 20
12.3130494746
 30
0.0
 10
46.1020636085
 20
12.4168507742
 30
0.0
 10
46.2741126096
 20
12.5225308819
 30
0.0
 10
46.39667746
 20
12.6004671196
 30
0.0
  0
SPLINE
  5
3D0
100
AcDbEntity
  8
RACCORDO
100
AcDbSpline
 62
250
  6
CONTINUOUS
 70
0
 71
3
 72
10
 73
6
 74
0
 42
0.0000001
 43
0.0000001
 44
0.0000000001
 40
0.0
 40
0.0
 40
0.0
 40
0.0
 40
0.6205029154
 40
0.8391230024
 40
1.0
 40
1.0
 40
1.0
 40
1.0
 10
46.39667746
 20
12.6004671196
 30
0.0
 10
46.4959275892
 20
12.6635787631
 30
0.0
 10
46.6293670773
 20
12.7503174741
 30
0.0
 10
46.7830617959
 20
12.8612788267
 30
0.0
 10
46.8393989812
 20
12.9061278111
 30
0.0
 10
46.8622228298
 20
12.9263509368
 30
0.0
  0
SPLINE
  5
3D1
100
AcDbEntity
  8
RACCORDO
100
AcDbSpline
 62
250
  6
CONTINUOUS
 70
0
 71
3
 72
9
 73
5
 74
0
 42
0.0000001
 43
0.0000001
 44
0.0000000001
 40
0.0
 40
0.0
 40
0.0
 40
0.0
 40
0.2439630597
 40
1.0
 40
1.0
 40
1.0
 40
1.0
 10
44.0978794907
 20
-60.7956653206
 30
0.0
 10
43.8609040276
 20
-59.4759024087
 30
0.0
 10
42.9845886408
 20
-54.0493719724
 30
0.0
 10
42.4800920579
 20
-48.5645321252
 30
0.0
 10
42.2846097109
 20
-44.4138028115
 30
0.0
  0
SPLINE
  5
3D2
100
AcDbEntity
  8
RACCORDO
100
AcDbSpline
 62
250
  6
CONTINUOUS
 70
0
 71
3
 72
9
 73
5
 74
0
 42
0.0000001
 43
0.0000001
 44
0.0000000001
 40
0.0
 40
0.0
 40
0.0
 40
0.0
 40
0.245544339
 40
1.0
 40
1.0
 40
1.0
 40
1.0
 10
42.2846097109
 20
-44.4138028115
 30
0.0
 10
42.142153251
 20
-41.3889598424
 30
0.0
 10
41.7114264825
 20
-29.0632777109
 30
0.0
 10
41.8672914018
 20
-16.7184875981
 30
0.0
 10
42.2846097109
 20
-7.4234649103
 30
0.0
  0
SPLINE
  5
3D3
100
AcDbEntity
  8
RACCORDO
100
AcDbSpline
 62
250
  6
CONTINUOUS
 70
0
 71
3
 72
9
 73
5
 74
0
 42
0.0000001
 43
0.0000001
 44
0.0000000001
 40
0.0
 40
0.0
 40
0.0
 40
0.0
 40
0.2449458894
 40
1.0
 40
1.0
 40
1.0
 40
1.0
 10
42.2846097109
 20
-7.4234649103
 30
0.0
 10
42.3518529195
 20
-5.9257547182
 30
0.0
 10
42.7120015645
 20
0.184678055
 30
0.0
 10
43.406487619
 20
6.2743875358
 30
0.0
 10
44.0978794907
 20
10.8437702761
 30
0.0
  0
SPLINE
  5
3D4
100
AcDbEntity
  8
RACCORDO
100
AcDbSpline
 62
250
  6
CONTINUOUS
 70
0
 71
3
 72
11
 73
7
 74
0
 42
0.0000001
 43
0.0000001
 44
0.0000000001
 40
0.0
 40
0.0
 40
0.0
 40
0.0
 40
0.2815654214
 40
0.5404485338
 40
0.7783535256
 40
1.0
 40
1.0
 40
1.0
 40
1.0
 10
-25.2865651415
 20
30.6885313312
 30
0.0
 10
-25.2840756299
 20
30.7460002572
 30
0.0
 10
-25.2717122167
 20
30.8562257064
 30
0.0
 10
-25.2276413245
 20
31.009916998
 30
0.0
 10
-25.1596003287
 20
31.1411939519
 30
0.0
 10
-25.0972762653
 20
31.2129802191
 30
0.0
 10
-25.063237578
 20
31.2428430794
 30
0.0
  0
SPLINE
  5
3D5
100
AcDbEntity
  8
RACCORDO
100
AcDbSpline
 62
250
  6
CONTINUOUS
 70
0
 71
3
 72
9
 73
5
 74
0
 42
0.0000001
 43
0.0000001
 44
0.0000000001
 40
0.0
 40
0.0
 40
0.0
 40
0.0
 40
0.2457001063
 40
1.0
 40
1.0
 40
1.0
 40
1.0
 10
-25.2865651415
 20
-5.0244837041
 30
0.0
 10
-25.4192241512
 20
-2.1020509771
 30
0.0
 10
-25.8202178059
 20
9.7983049981
 30
0.0
 10
-25.6755059722
 20
21.7158431299
 30
0.0
 10
-25.2865651415
 20
30.6885313312
 30
0.0
  0
SPLINE
  5
3D6
100
AcDbEntity
  8
RACCORDO
100
AcDbSpline
 62
250
  6
CONTINUOUS
 70
0
 71
3
 72
9
 73
5
 74
0
 42
0.0000001
 43
0.0000001
 44
0.0000000001
 40
0.0
 40
0.0
 40
0.0
 40
0.0
 40
0.5274876045
 40
1.0
 40
1.0
 40
1.0
 40
1.0
 10
-25.063237578
 20
-5.7721714982
 30
0.0
 10
-25.1277091475
 20
-5.6501597595
 30
0.0
 10
-25.2299402537
 20
-5.4076580635
 30
0.0
 10
-25.2809704107
 20
-5.1479727625
 30
0.0
 10
-25.2865651415
 20
-5.0244837041
 30
0.0
  0
SPLINE
  5
3D7
100
AcDbEntity
  8
RACCORDO
100
AcDbSpline
 62
250
  6
CONTINUOUS
 70
0
 71
3
 72
11
 73
7
 74
0
 42
0.0000001
 43
0.0000001
 44
0.0000000001
 40
0.0
 40
0.0
 40
0.0
 40
0.0
 40
0.2791547501
 40
0.5334300797
 40
0.769765107
 40
1.0
 40
1.0
 40
1.0
 40
1.0
 10
-41.1929846469
 20
61.0156268247
 30
0.0
 10
-41.2407343008
 20
61.0423049657
 30
0.0
 10
-41.3373269647
 20
61.0847420281
 30
0.0
 10
-41.4877589815
 20
61.1104808044
 30
0.0
 10
-41.630160416
 20
61.0927149947
 30
0.0
 10
-41.7140385537
 20
61.051733693
 30
0.0
 10
-41.7509098674
 20
61.0257419723
 30
0.0
  0
SPLINE
  5
3D8
100
AcDbEntity
  8
RACCORDO
100
AcDbSpline
 62
250
  6
CONTINUOUS
 70
0
 71
3
 72
11
 73
7
 74
0
 42
0.0000001
 43
0.0000001
 44
0.0000000001
 40
0.0
 40
0.0
 40
0.0
 40
0.0
 40
0.2437245053
 40
0.5070496853
 40
0.7667005964
 40
1.0
 40
1.0
 40
1.0
 40
1.0
 10
44.0978794907
 20
10.8437702761
 30
0.0
 10
44.1093800927
 20
10.9633187616
 30
0.0
 10
44.0910286917
 20
11.2165649402
 30
0.0
 10
43.9699641341
 20
11.5780153912
 30
0.0
 10
43.7699459033
 20
11.8965446837
 30
0.0
 10
43.5862648194
 20
12.0632384328
 30
0.0
 10
43.4875437684
 20
12.122151014
 30
0.0
  0
SPLINE
  5
3D9
100
AcDbEntity
  8
RACCORDO
100
AcDbSpline
 62
250
  6
CONTINUOUS
 70
0
 71
3
 72
11
 73
7
 74
0
 42
0.0000001
 43
0.0000001
 44
0.0000000001
 40
0.0
 40
0.0
 40
0.0
 40
0.0
 40
0.2459794376
 40
0.5070714977
 40
0.7644116438
 40
1.0
 40
1.0
 40
1.0
 40
1.0
 10
-41.3904891533
 20
60.7014546305
 30
0.0
 10
-41.3859693689
 20
60.7323322135
 30
0.0
 10
-41.3685817821
 20
60.7949026786
 30
0.0
 10
-41.3246687058
 20
60.8819734095
 30
0.0
 10
-41.2661545536
 20
60.958333402
 30
0.0
 10
-41.2181827458
 20
60.9995529664
 30
0.0
 10
-41.1929846471
 20
61.0156268248
 30
0.0
  0
SPLINE
  5
3DA
100
AcDbEntity
  8
RACCORDO
100
AcDbSpline
 62
250
  6
CONTINUOUS
 70
0
 71
3
 72
11
 73
7
 74
0
 42
0.0000001
 43
0.0000001
 44
0.0000000001
 40
0.0
 40
0.0
 40
0.0
 40
0.0
 40
0.3146559746
 40
0.5821354381
 40
0.8053036157
 40
1.0
 40
1.0
 40
1.0
 40
1.0
 10
-41.9712094078
 20
60.35415708
 30
0.0
 10
-41.9853446634
 20
60.3621427092
 30
0.0
 10
-42.0105748514
 20
60.3787312884
 30
0.0
 10
-42.0405255779
 20
60.4080131892
 30
0.0
 10
-42.0585325031
 20
60.4391880803
 30
0.0
 10
-42.0610831766
 20
60.4614599924
 30
0.0
 10
-42.0597366551
 20
60.4714149091
 30
0.0
  0
SPLINE
  5
3DB
100
AcDbEntity
  8
RACCORDO
100
AcDbSpline
 62
250
  6
CONTINUOUS
 70
0
 71
3
 72
11
 73
7
 74
0
 42
0.0000001
 43
0.0000001
 44
0.0000000001
 40
0.0
 40
0.0
 40
0.0
 40
0.0
 40
0.2959796839
 40
0.5572281439
 40
0.7878045642
 40
1.0
 40
1.0
 40
1.0
 40
1.0
 10
-43.6069775833
 20
41.94976616
 30
0.0
 10
-43.6204582536
 20
41.9575066258
 30
0.0
 10
-43.6447971182
 20
41.9740887156
 30
0.0
 10
-43.6737707825
 20
42.0041456619
 30
0.0
 10
-43.6917036689
 20
42.0371152789
 30
0.0
 10
-43.6953220015
 20
42.0607058595
 30
0.0
 10
-43.6948697926
 20
42.0718412045
 30
0.0
  0
SPLINE
  5
3DC
100
AcDbEntity
  8
RACCORDO
100
AcDbSpline
 62
250
  6
CONTINUOUS
 70
0
 71
3
 72
10
 73
6
 74
0
 42
0.0000001
 43
0.0000001
 44
0.0000000001
 40
0.0
 40
0.0
 40
0.0
 40
0.0
 40
0.5403953916
 40
0.776598005
 40
1.0
 40
1.0
 40
1.0
 40
1.0
 10
-43.6069775802
 20
4.9347515853
 30
0.0
 10
-43.6312467125
 20
4.9488344256
 30
0.0
 10
-43.6640053779
 20
4.9751115746
 30
0.0
 10
-43.6893812957
 20
5.0210775261
 30
0.0
 10
-43.6943234111
 20
5.0448960289
 30
0.0
 10
-43.6948358784
 20
5.0564844971
 30
0.0
  0
SPLINE
  5
3DD
100
AcDbEntity
  8
RACCORDO
100
AcDbSpline
 62
250
  6
CONTINUOUS
 70
0
 71
3
 72
9
 73
5
 74
0
 42
0.0000001
 43
0.0000001
 44
0.0000000001
 40
0.0
 40
0.0
 40
0.0
 40
0.0
 40
0.5272729655
 40
1.0
 40
1.0
 40
1.0
 40
1.0
 10
-41.9712094126
 20
-11.37214944
 30
0.0
 10
-41.9937294796
 20
-11.3589514032
 30
0.0
 10
-42.033252715
 20
-11.3267962823
 30
0.0
 10
-42.0547303843
 20
-11.2796348417
 30
0.0
 10
-42.0585078087
 20
-11.2565394787
 30
0.0
  0
SPLINE
  5
3DE
100
AcDbEntity
  8
RACCORDO
100
AcDbSpline
 62
250
  6
CONTINUOUS
 70
0
 71
3
 72
9
 73
5
 74
0
 42
0.0000001
 43
0.0000001
 44
0.0000000001
 40
0.0
 40
0.0
 40
0.0
 40
0.0
 40
0.5348895626
 40
1.0
 40
1.0
 40
1.0
 40
1.0
 10
-41.3904891533
 20
-12.1794297064
 30
0.0
 10
-41.3869539853
 20
-12.1994982752
 30
0.0
 10
-41.3750191485
 20
-12.2367429152
 30
0.0
 10
-41.3472360009
 20
-12.2654585195
 30
0.0
 10
-41.3318873539
 20
-12.2743122794
 30
0.0
  0
SPLINE
  5
3DF
100
AcDbEntity
  8
RACCORDO
100
AcDbSpline
 62
250
  6
CONTINUOUS
 70
0
 71
3
 72
9
 73
5
 74
0
 42
0.0000001
 43
0.0000001
 44
0.0000000001
 40
0.0
 40
0.0
 40
0.0
 40
0.0
 40
0.5348825492
 40
1.0
 40
1.0
 40
1.0
 40
1.0
 10
43.290039262
 20
-61.0729055171
 30
0.0
 10
43.2935723585
 20
-61.0929622324
 30
0.0
 10
43.3054972881
 20
-61.1301843872
 30
0.0
 10
43.3332481981
 20
-61.158894913
 30
0.0
 10
43.348582201
 20
-61.1677541099
 30
0.0
  0
SPLINE
  5
3E0
100
AcDbEntity
  8
RACCORDO
100
AcDbSpline
 62
250
  6
CONTINUOUS
 70
0
 71
3
 72
11
 73
7
 74
0
 42
0.0000001
 43
0.0000001
 44
0.0000000001
 40
0.0
 40
0.0
 40
0.0
 40
0.0
 40
0.2304832009
 40
0.4863113269
 40
0.7496476391
 40
1.0
 40
1.0
 40
1.0
 40
1.0
 10
43.6883703187
 20
-60.8309172037
 30
0.0
 10
43.7170698474
 20
-60.8472390705
 30
0.0
 10
43.784687641
 20
-60.8694956613
 30
0.0
 10
43.8930899465
 20
-60.8732596978
 30
0.0
 10
44.0019130527
 20
-60.8500024728
 30
0.0
 10
44.0687499829
 20
-60.8165837493
 30
0.0
 10
44.0978794907
 20
-60.7956653206
 30
0.0
  0
SPLINE
  5
3E1
100
AcDbEntity
  8
RACCORDO
100
AcDbSpline
 62
250
  6
CONTINUOUS
 70
0
 71
3
 72
11
 73
7
 74
0
 42
0.0000001
 43
0.0000001
 44
0.0000000001
 40
0.0
 40
0.0
 40
0.0
 40
0.0
 40
0.2341749793
 40
0.4937439205
 40
0.7567102334
 40
1.0
 40
1.0
 40
1.0
 40
1.0
 10
41.8720078058
 20
-44.4197432779
 30
0.0
 10
41.9009732751
 20
-44.4363838327
 30
0.0
 10
41.9684530274
 20
-44.4604515082
 30
0.0
 10
42.0767528714
 20
-44.4707569263
 30
0.0
 10
42.185978248
 20
-44.4569992443
 30
0.0
 10
42.2545281946
 20
-44.4311108518
 30
0.0
 10
42.2846097109
 20
-44.4138028115
 30
0.0
  0
SPLINE
  5
3E2
100
AcDbEntity
  8
RACCORDO
100
AcDbSpline
 62
250
  6
CONTINUOUS
 70
0
 71
3
 72
11
 73
7
 74
0
 42
0.0000001
 43
0.0000001
 44
0.0000000001
 40
0.0
 40
0.0
 40
0.0
 40
0.0
 40
0.2373292082
 40
0.4998794602
 40
0.7624946699
 40
1.0
 40
1.0
 40
1.0
 40
1.0
 10
41.8720078096
 20
-7.4047286991
 30
0.0
 10
41.9011319807
 20
-7.4216377795
 30
0.0
 10
41.9683109716
 20
-7.4472830523
 30
0.0
 10
42.0760428861
 20
-7.4630172109
 30
0.0
 10
42.1847823932
 20
-7.4571074928
 30
0.0
 10
42.2540430315
 20
-7.4376598517
 30
0.0
 10
42.2846097109
 20
-7.4234649103
 30
0.0
  0
SPLINE
  5
3E3
100
AcDbEntity
  8
RACCORDO
100
AcDbSpline
 62
250
  6
CONTINUOUS
 70
0
 71
3
 72
11
 73
7
 74
0
 42
0.0000001
 43
0.0000001
 44
0.0000000001
 40
0.0
 40
0.0
 40
0.0
 40
0.0
 40
0.2414342659
 40
0.5077203884
 40
0.7698852893
 40
1.0
 40
1.0
 40
1.0
 40
1.0
 10
43.6883703139
 20
10.8953893109
 30
0.0
 10
43.7176355491
 20
10.8781271125
 30
0.0
 10
43.784218194
 20
10.8503345469
 30
0.0
 10
43.8906258718
 20
10.8274686465
 30
0.0
 10
43.9977623003
 20
10.8231223616
 30
0.0
 10
44.0670462237
 20
10.8338574095
 30
0.0
 10
44.0978747736
 20
10.8437733011
 30
0.0
  0
SPLINE
  5
3E4
100
AcDbEntity
  8
RACCORDO
100
AcDbSpline
 62
250
  6
CONTINUOUS
 70
0
 71
3
 72
11
 73
7
 74
0
 42
0.0000001
 43
0.0000001
 44
0.0000000001
 40
0.0
 40
0.0
 40
0.0
 40
0.0
 40
0.2459794421
 40
0.5070715314
 40
0.7644116895
 40
1.0
 40
1.0
 40
1.0
 40
1.0
 10
43.290039262
 20
11.8079788198
 30
0.0
 10
43.2945590711
 20
11.8388563965
 30
0.0
 10
43.3119466949
 20
11.9014268465
 30
0.0
 10
43.355859788
 20
11.9884975616
 30
0.0
 10
43.414373918
 20
12.0648575548
 30
0.0
 10
43.4623456905
 20
12.1060771397
 30
0.0
 10
43.4875437684
 20
12.122151014
 30
0.0
  0
LINE
  5
3E5
100
AcDbEntity
  8
RACCORDO
100
AcDbLine
 62
250
  6
CONTINUOUS
 10
-43.6122176328
 20
5.0584199899
 11
-43.6069795619
 21
4.9347972984
  0
SPLINE
  5
3E6
100
AcDbEntity
  8
ASSI
100
AcDbSpline
 62
7
  6
CONTINUOUS
 70
0
 71
3
 72
11
 73
7
 74
0
 42
0.0000001
 43
0.0000001
 44
0.0000000001
 40
0.0
 40
0.0
 40
0.0
 40
0.0
 40
0.2901729357
 40
0.5580176204
 40
0.7953497895
 40
1.0
 40
1.0
 40
1.0
 40
1.0
 10
2.5242209676
 20
-25.2573512142
 30
0.0
 10
2.5449344279
 20
-25.2688177341
 30
0.0
 10
2.5856116833
 20
-25.2894435779
 30
0.0
 10
2.6466796431
 20
-25.3119506307
 30
0.0
 10
2.7042045248
 20
-25.3221855949
 30
0.0
 10
2.7412356645
 20
-25.3144075956
 30
0.0
 10
2.7557144404
 20
-25.3060904437
 30
0.0
  0
SPLINE
  5
3E7
100
AcDbEntity
  8
ASSI
100
AcDbSpline
 62
7
  6
CONTINUOUS
 70
0
 71
3
 72
14
 73
10
 74
0
 42
0.0000001
 43
0.0000001
 44
0.0000000001
 40
0.0
 40
0.0
 40
0.0
 40
0.0
 40
0.142518877
 40
0.2883709618
 40
0.4320345152
 40
0.5686682002
 40
0.6948320037
 40
0.8097216578
 40
1.0
 40
1.0
 40
1.0
 40
1.0
 10
2.8473599616
 20
-24.5500923641
 30
0.0
 10
2.8860858232
 20
-24.5870576066
 30
0.0
 10
2.9563273368
 20
-24.6702385354
 30
0.0
 10
3.0469745879
 20
-24.8051135032
 30
0.0
 10
3.1201459379
 20
-24.9479869123
 30
0.0
 10
3.1726631036
 20
-25.0917424077
 30
0.0
 10
3.2026025102
 20
-25.2311481478
 30
0.0
 10
3.2158012471
 20
-25.3919763821
 30
0.0
 10
3.1979072247
 20
-25.5115855582
 30
0.0
 10
3.1630917078
 20
-25.5740098571
 30
0.0
  0
SPLINE
  5
3E8
100
AcDbEntity
  8
ASSI
100
AcDbSpline
 62
7
  6
CONTINUOUS
 70
0
 71
3
 72
9
 73
5
 74
0
 42
0.0000001
 43
0.0000001
 44
0.0000000001
 40
0.0
 40
0.0
 40
0.0
 40
0.0
 40
0.2583551995
 40
1.0
 40
1.0
 40
1.0
 40
1.0
 10
3.1630917078
 20
-25.5740098571
 30
0.0
 10
3.1598457868
 20
-25.5798298007
 30
0.0
 10
3.1464842398
 20
-25.6018845587
 30
0.0
 10
3.1295584453
 20
-25.6219192931
 30
0.0
 10
3.1150944871
 20
-25.6344388484
 30
0.0
  0
SPLINE
  5
3E9
100
AcDbEntity
  8
ASSI
100
AcDbSpline
 62
7
  6
CONTINUOUS
 70
0
 71
3
 72
8
 73
4
 74
0
 42
0.0000001
 43
0.0000001
 44
0.0000000001
 40
0.0
 40
0.0
 40
0.0
 40
0.0
 40
1.0
 40
1.0
 40
1.0
 40
1.0
 10
3.1150944871
 20
-25.6344388484
 30
0.0
 10
3.1051814945
 20
-25.6430192285
 30
0.0
 10
3.0943079663
 20
-25.6505535895
 30
0.0
 10
3.0829576068
 20
-25.6571155775
 30
0.0
  0
SPLINE
  5
3EA
100
AcDbEntity
  8
ASSI
100
AcDbSpline
 62
7
  6
CONTINUOUS
 70
0
 71
3
 72
11
 73
7
 74
0
 42
0.0000001
 43
0.0000001
 44
0.0000000001
 40
0.0
 40
0.0
 40
0.0
 40
0.0
 40
0.2312458148
 40
0.4718691039
 40
0.7261521732
 40
1.0
 40
1.0
 40
1.0
 40
1.0
 10
1.8260654915
 20
-23.9380568494
 30
0.0
 10
1.9111678705
 20
-23.9736237033
 30
0.0
 10
2.0837010773
 20
-24.0490062389
 30
0.0
 10
2.3416240383
 20
-24.1814031081
 30
0.0
 10
2.6022279354
 20
-24.3435480983
 30
0.0
 10
2.7683699304
 20
-24.4746513551
 30
0.0
 10
2.8473599616
 20
-24.5500923641
 30
0.0
  0
SPLINE
  5
3EB
100
AcDbEntity
  8
ASSI
100
AcDbSpline
 62
7
  6
CONTINUOUS
 70
0
 71
3
 72
9
 73
5
 74
0
 42
0.0000001
 43
0.0000001
 44
0.0000000001
 40
0.0
 40
0.0
 40
0.0
 40
0.0
 40
0.5004492333
 40
1.0
 40
1.0
 40
1.0
 40
1.0
 10
3.2363275408
 20
-26.2662454321
 30
0.0
 10
3.2679240425
 20
-26.378528747
 30
0.0
 10
3.3300230683
 20
-26.6031829192
 30
0.0
 10
3.3914812535
 20
-26.8280192549
 30
0.0
 10
3.4234003472
 20
-26.9399935519
 30
0.0
  0
SPLINE
  5
3EC
100
AcDbEntity
  8
ASSI
100
AcDbSpline
 62
7
  6
CONTINUOUS
 70
0
 71
3
 72
9
 73
5
 74
0
 42
0.0000001
 43
0.0000001
 44
0.0000000001
 40
0.0
 40
0.0
 40
0.0
 40
0.0
 40
0.2466434662
 40
1.0
 40
1.0
 40
1.0
 40
1.0
 10
2.9664454928
 20
-25.6986103226
 30
0.0
 10
2.9690489926
 20
-25.7011824013
 30
0.0
 10
2.9794884578
 20
-25.7117280876
 30
0.0
 10
2.989479087
 20
-25.7227153796
 30
0.0
 10
2.9967686615
 20
-25.7311900815
 30
0.0
  0
SPLINE
  5
3ED
100
AcDbEntity
  8
ASSI
100
AcDbSpline
 62
7
  6
CONTINUOUS
 70
0
 71
3
 72
11
 73
7
 74
0
 42
0.0000001
 43
0.0000001
 44
0.0000000001
 40
0.0
 40
0.0
 40
0.0
 40
0.0
 40
0.2625874834
 40
0.5187008556
 40
0.7635376799
 40
1.0
 40
1.0
 40
1.0
 40
1.0
 10
2.9967686615
 20
-25.7311900815
 30
0.0
 10
3.0304784128
 20
-25.7703803106
 30
0.0
 10
3.0872354794
 20
-25.8562920718
 30
0.0
 10
3.1505121461
 20
-25.9928869001
 30
0.0
 10
3.1987128888
 20
-26.1300242247
 30
0.0
 10
3.2237179847
 20
-26.2214353208
 30
0.0
 10
3.2363275408
 20
-26.2662454321
 30
0.0
  0
LINE
  5
3EE
100
AcDbEntity
  8
ASSI
100
AcDbLine
 62
7
  6
CONTINUOUS
 10
2.9664454928
 20
-25.6986103226
 11
2.9655112556
 21
-25.6856422113
  0
SPLINE
  5
3EF
100
AcDbEntity
  8
ASSI
100
AcDbSpline
 62
7
  6
CONTINUOUS
 70
0
 71
3
 72
9
 73
5
 74
0
 42
0.0000001
 43
0.0000001
 44
0.0000000001
 40
0.0
 40
0.0
 40
0.0
 40
0.0
 40
0.4999847816
 40
1.0
 40
1.0
 40
1.0
 40
1.0
 10
46.5773120948
 20
13.4198308107
 30
0.0
 10
46.6622528944
 20
13.3707870874
 30
0.0
 10
46.8047279482
 20
13.2221478797
 30
0.0
 10
46.862222917
 20
13.0244395412
 30
0.0
 10
46.8622228433
 20
12.9263508183
 30
0.0
  0
SPLINE
  5
3F0
100
AcDbEntity
  8
ASSI
100
AcDbSpline
 62
7
  6
CONTINUOUS
 70
0
 71
3
 72
11
 73
7
 74
0
 42
0.0000001
 43
0.0000001
 44
0.0000000001
 40
0.0
 40
0.0
 40
0.0
 40
0.0
 40
0.239362882
 40
0.5021668852
 40
0.763796347
 40
1.0
 40
1.0
 40
1.0
 40
1.0
 10
-20.335937883
 20
-0.2739464855
 30
0.0
 10
-20.2871514845
 20
-0.2438106783
 30
0.0
 10
-20.1953047485
 20
-0.1633687616
 30
0.0
 10
-20.0882631624
 20
-0.0133586401
 30
0.0
 10
-20.0154764816
 20
0.1551158884
 30
0.0
 10
-19.9947233278
 20
0.2744663005
 30
0.0
 10
-19.9947233278
 20
0.3310529749
 30
0.0
  0
SPLINE
  5
3F1
100
AcDbEntity
  8
ASSI
100
AcDbSpline
 62
7
  6
CONTINUOUS
 70
0
 71
3
 72
11
 73
7
 74
0
 42
0.0000001
 43
0.0000001
 44
0.0000000001
 40
0.0
 40
0.0
 40
0.0
 40
0.0
 40
0.2897809214
 40
0.5490626305
 40
0.7822240993
 40
1.0
 40
1.0
 40
1.0
 40
1.0
 10
-19.9947233278
 20
3.4481752015
 30
0.0
 10
-19.9947233278
 20
3.473515325
 30
0.0
 10
-19.9985534915
 20
3.5216936873
 30
0.0
 10
-20.0180813762
 20
3.5878836866
 30
0.0
 10
-20.050923563
 20
3.6415955438
 30
0.0
 10
-20.0817901185
 20
3.6675306434
 30
0.0
 10
-20.0982827343
 20
3.6770517691
 30
0.0
  0
SPLINE
  5
3F2
100
AcDbEntity
  8
ASSI
100
AcDbSpline
 62
7
  6
CONTINUOUS
 70
0
 71
3
 72
8
 73
4
 74
0
 42
0.0000001
 43
0.0000001
 44
0.0000000001
 40
0.0
 40
0.0
 40
0.0
 40
0.0
 40
1.0
 40
1.0
 40
1.0
 40
1.0
 10
2.7557144404
 20
-25.3060904437
 30
0.0
 10
2.7651917434
 20
-25.3006463254
 30
0.0
 10
2.7736711618
 20
-25.2932524841
 30
0.0
 10
2.7807758289
 20
-25.2849469798
 30
0.0
  0
SPLINE
  5
3F3
100
AcDbEntity
  8
ASSI
100
AcDbSpline
 62
7
  6
CONTINUOUS
 70
0
 71
3
 72
9
 73
5
 74
0
 42
0.0000001
 43
0.0000001
 44
0.0000000001
 40
0.0
 40
0.0
 40
0.0
 40
0.0
 40
0.4507122658
 40
1.0
 40
1.0
 40
1.0
 40
1.0
 10
2.7807758289
 20
-25.2849469798
 30
0.0
 10
2.7994557409
 20
-25.2631097727
 30
0.0
 10
2.8227058988
 20
-25.2003622057
 30
0.0
 10
2.8243468511
 20
-25.136257469
 30
0.0
 10
2.8215174962
 20
-25.1013501281
 30
0.0
  0
SPLINE
  5
3F4
100
AcDbEntity
  8
ASSI
100
AcDbSpline
 62
7
  6
CONTINUOUS
 70
0
 71
3
 72
8
 73
4
 74
0
 42
0.0000001
 43
0.0000001
 44
0.0000000001
 40
0.0
 40
0.0
 40
0.0
 40
0.0
 40
1.0
 40
1.0
 40
1.0
 40
1.0
 10
3.0829576068
 20
-25.6571155775
 30
0.0
 10
3.0765926606
 20
-25.6607953464
 30
0.0
 10
3.0700556927
 20
-25.6641873289
 30
0.0
 10
3.0634095142
 20
-25.6673308221
 30
0.0
  0
SPLINE
  5
3F5
100
AcDbEntity
  8
ASSI
100
AcDbSpline
 62
7
  6
CONTINUOUS
 70
0
 71
3
 72
9
 73
5
 74
0
 42
0.0000001
 43
0.0000001
 44
0.0000000001
 40
0.0
 40
0.0
 40
0.0
 40
0.0
 40
0.4930820138
 40
1.0
 40
1.0
 40
1.0
 40
1.0
 10
3.0634095142
 20
-25.6673308221
 30
0.0
 10
3.052231937
 20
-25.6726175652
 30
0.0
 10
3.0291353925
 20
-25.681898016
 30
0.0
 10
3.0049182534
 20
-25.690609466
 30
0.0
 10
2.9922120405
 20
-25.6909843557
 30
0.0
  0
SPLINE
  5
3F6
100
AcDbEntity
  8
ASSI
100
AcDbSpline
 62
7
  6
CONTINUOUS
 70
0
 71
3
 72
9
 73
5
 74
0
 42
0.0000001
 43
0.0000001
 44
0.0000000001
 40
0.0
 40
0.0
 40
0.0
 40
0.0
 40
0.2326646506
 40
1.0
 40
1.0
 40
1.0
 40
1.0
 10
2.9922120405
 20
-25.6909843557
 30
0.0
 10
2.9903868939
 20
-25.6910382056
 30
0.0
 10
2.9825347993
 20
-25.6909148446
 30
0.0
 10
2.9747173744
 20
-25.6891906184
 30
0.0
 10
2.9690744986
 20
-25.6870876299
 30
0.0
  0
SPLINE
  5
3F7
100
AcDbEntity
  8
ASSI
100
AcDbSpline
 62
7
  6
CONTINUOUS
 70
0
 71
3
 72
10
 73
6
 74
0
 42
0.0000001
 43
0.0000001
 44
0.0000000001
 40
0.0
 40
0.0
 40
0.0
 40
0.0
 40
0.5207413626
 40
0.7652368875
 40
1.0
 40
1.0
 40
1.0
 40
1.0
 10
2.5695643609
 20
-24.6913113115
 30
0.0
 10
2.5173101271
 20
-24.6547087227
 30
0.0
 10
2.4375926149
 20
-24.6047989608
 30
0.0
 10
2.3277431696
 20
-24.5503731285
 30
0.0
 10
2.2734716893
 20
-24.527868217
 30
0.0
 10
2.2466988773
 20
-24.5173578789
 30
0.0
  0
SPLINE
  5
3F8
100
AcDbEntity
  8
ASSI
100
AcDbSpline
 62
7
  6
CONTINUOUS
 70
0
 71
3
 72
11
 73
7
 74
0
 42
0.0000001
 43
0.0000001
 44
0.0000000001
 40
0.0
 40
0.0
 40
0.0
 40
0.0
 40
0.231371748
 40
0.490880088
 40
0.7548346023
 40
1.0
 40
1.0
 40
1.0
 40
1.0
 10
2.8215174962
 20
-25.1013501281
 30
0.0
 10
2.8184384436
 20
-25.0633621269
 30
0.0
 10
2.798283027
 20
-24.9839680851
 30
0.0
 10
2.7439454794
 20
-24.87131218
 30
0.0
 10
2.6657532186
 20
-24.7706726255
 30
0.0
 10
2.6026414975
 20
-24.7144808949
 30
0.0
 10
2.5695643609
 20
-24.6913113115
 30
0.0
  0
SPLINE
  5
3F9
100
AcDbEntity
  8
ASSI
100
AcDbSpline
 62
7
  6
CONTINUOUS
 70
0
 71
3
 72
11
 73
7
 74
0
 42
0.0000001
 43
0.0000001
 44
0.0000000001
 40
0.0
 40
0.0
 40
0.0
 40
0.0
 40
0.2512772156
 40
0.5126968503
 40
0.7690141992
 40
1.0
 40
1.0
 40
1.0
 40
1.0
 10
2.7939886422
 20
-25.9423817579
 30
0.0
 10
2.7826010713
 20
-25.909496712
 30
0.0
 10
2.7542908217
 20
-25.8441048699
 30
0.0
 10
2.6993786093
 20
-25.7524166791
 30
0.0
 10
2.6312971157
 20
-25.6733620745
 30
0.0
 10
2.5769084979
 20
-25.6322647583
 30
0.0
 10
2.5492042508
 20
-25.6162686732
 30
0.0
  0
SPLINE
  5
3FA
100
AcDbEntity
  8
ASSI
100
AcDbSpline
 62
7
  6
CONTINUOUS
 70
0
 71
3
 72
10
 73
6
 74
0
 42
0.0000001
 43
0.0000001
 44
0.0000000001
 40
0.0
 40
0.0
 40
0.0
 40
0.0
 40
0.249097961
 40
0.498011314
 40
1.0
 40
1.0
 40
1.0
 40
1.0
 10
3.0259125808
 20
-26.7104890973
 30
0.0
 10
3.0070313521
 20
-26.6465978058
 30
0.0
 10
2.9687069832
 20
-26.519027938
 30
0.0
 10
2.8930858908
 20
-26.2625178048
 30
0.0
 10
2.837921273
 20
-26.0692504811
 30
0.0
 10
2.7939886422
 20
-25.9423817579
 30
0.0
  0
SPLINE
  5
3FB
100
AcDbEntity
  8
ASSI
100
AcDbSpline
 62
250
  6
CONTINUOUS
 70
0
 71
3
 72
11
 73
7
 74
0
 42
0.0000001
 43
0.0000001
 44
0.0000000001
 40
0.0
 40
0.0
 40
0.0
 40
0.0
 40
0.2815654214
 40
0.5404485338
 40
0.7783535256
 40
1.0
 40
1.0
 40
1.0
 40
1.0
 10
-25.2865651415
 20
30.6885313312
 30
0.0
 10
-25.2840756299
 20
30.7460002572
 30
0.0
 10
-25.2717122167
 20
30.8562257064
 30
0.0
 10
-25.2276413245
 20
31.009916998
 30
0.0
 10
-25.1596003287
 20
31.1411939519
 30
0.0
 10
-25.0972762653
 20
31.2129802191
 30
0.0
 10
-25.063237578
 20
31.2428430794
 30
0.0
  0
SPLINE
  5
3FC
100
AcDbEntity
  8
ASSI
100
AcDbSpline
 62
250
  6
CONTINUOUS
 70
0
 71
3
 72
9
 73
5
 74
0
 42
0.0000001
 43
0.0000001
 44
0.0000000001
 40
0.0
 40
0.0
 40
0.0
 40
0.0
 40
0.2457001063
 40
1.0
 40
1.0
 40
1.0
 40
1.0
 10
-25.2865651415
 20
-5.0244837041
 30
0.0
 10
-25.4192241512
 20
-2.1020509771
 30
0.0
 10
-25.8202178059
 20
9.7983049981
 30
0.0
 10
-25.6755059722
 20
21.7158431299
 30
0.0
 10
-25.2865651415
 20
30.6885313312
 30
0.0
  0
SPLINE
  5
3FD
100
AcDbEntity
  8
ASSI
100
AcDbSpline
 62
250
  6
CONTINUOUS
 70
0
 71
3
 72
9
 73
5
 74
0
 42
0.0000001
 43
0.0000001
 44
0.0000000001
 40
0.0
 40
0.0
 40
0.0
 40
0.0
 40
0.5274876045
 40
1.0
 40
1.0
 40
1.0
 40
1.0
 10
-25.063237578
 20
-5.7721714982
 30
0.0
 10
-25.1277091475
 20
-5.6501597595
 30
0.0
 10
-25.2299402537
 20
-5.4076580635
 30
0.0
 10
-25.2809704107
 20
-5.1479727625
 30
0.0
 10
-25.2865651415
 20
-5.0244837041
 30
0.0
  0
SPLINE
  5
3FE
100
AcDbEntity
  8
ASSI
100
AcDbSpline
 62
7
  6
CONTINUOUS
 70
0
 71
3
 72
11
 73
7
 74
0
 42
0.0000001
 43
0.0000001
 44
0.0000000001
 40
0.0
 40
0.0
 40
0.0
 40
0.0
 40
0.2197147018
 40
0.4537017666
 40
0.71226936
 40
1.0
 40
1.0
 40
1.0
 40
1.0
 10
-20.0982827343
 20
3.6770517691
 30
0.0
 10
-20.1140313622
 20
3.6861433933
 30
0.0
 10
-20.1499447223
 20
3.6995112926
 30
0.0
 10
-20.2095872628
 20
3.7022682191
 30
0.0
 10
-20.2732984427
 20
3.6887262332
 30
0.0
 10
-20.3149582978
 20
3.6704160627
 30
0.0
 10
-20.335937883
 20
3.6591486463
 30
0.0
  0
SPLINE
  5
3FF
100
AcDbEntity
  8
ASSI
100
AcDbSpline
 62
250
  6
CONTINUOUS
 70
0
 71
3
 72
9
 73
5
 74
0
 42
0.0000001
 43
0.0000001
 44
0.0000000001
 40
0.0
 40
0.0
 40
0.0
 40
0.0
 40
0.4561845119
 40
1.0
 40
1.0
 40
1.0
 40
1.0
 10
-20.8184623257
 20
4.0897097662
 30
0.0
 10
-20.8495395328
 20
4.1008189316
 30
0.0
 10
-20.9252055453
 20
4.104540714
 30
0.0
 10
-20.993957439
 20
4.0777083307
 30
0.0
 10
-21.0286178802
 20
4.0590933954
 30
0.0
  0
SPLINE
  5
400
100
AcDbEntity
  8
ASSI
100
AcDbSpline
 62
250
  6
CONTINUOUS
 70
0
 71
3
 72
9
 73
5
 74
0
 42
0.0000001
 43
0.0000001
 44
0.0000000001
 40
0.0
 40
0.0
 40
0.0
 40
0.0
 40
0.491866473
 40
1.0
 40
1.0
 40
1.0
 40
1.0
 10
-38.4394807387
 20
61.9698041752
 30
0.0
 10
-38.2072580377
 20
61.9698569825
 30
0.0
 10
-37.7343286231
 20
61.9179629002
 30
0.0
 10
-37.2797523813
 20
61.7825018943
 30
0.0
 10
-37.055429407
 20
61.6974574605
 30
0.0
  0
SPLINE
  5
401
100
AcDbEntity
  8
ASSI
100
AcDbSpline
 62
250
  6
CONTINUOUS
 70
0
 71
3
 72
10
 73
6
 74
0
 42
0.0000001
 43
0.0000001
 44
0.0000000001
 40
0.0
 40
0.0
 40
0.0
 40
0.0
 40
0.6205098285
 40
0.8391287006
 40
1.0
 40
1.0
 40
1.0
 40
1.0
 10
46.0623786688
 20
13.1794896103
 30
0.0
 10
46.1666517681
 20
13.2339000487
 30
0.0
 10
46.3084753415
 20
13.306114297
 30
0.0
 10
46.4813950167
 20
13.3837783322
 30
0.0
 10
46.5483922813
 20
13.4101643302
 30
0.0
 10
46.5773120984
 20
13.419830808
 30
0.0
  0
SPLINE
  5
402
100
AcDbEntity
  8
ASSI
100
AcDbSpline
 62
250
  6
CONTINUOUS
 70
0
 71
3
 72
9
 73
5
 74
0
 42
0.0000001
 43
0.0000001
 44
0.0000000001
 40
0.0
 40
0.0
 40
0.0
 40
0.0
 40
0.2805678417
 40
1.0
 40
1.0
 40
1.0
 40
1.0
 10
45.5301666304
 20
12.8903877178
 30
0.0
 10
45.5796027479
 20
12.9180400521
 30
0.0
 10
45.756070215
 20
13.016115671
 30
0.0
 10
45.9336086505
 20
13.112295112
 30
0.0
 10
46.0623786688
 20
13.1794896103
 30
0.0
  0
SPLINE
  5
403
100
AcDbEntity
  8
ASSI
100
AcDbSpline
 62
250
  6
CONTINUOUS
 70
0
 71
3
 72
9
 73
5
 74
0
 42
0.0000001
 43
0.0000001
 44
0.0000000001
 40
0.0
 40
0.0
 40
0.0
 40
0.0
 40
0.2482869198
 40
1.0
 40
1.0
 40
1.0
 40
1.0
 10
-39.1796162974
 20
61.8762030439
 30
0.0
 10
-39.1282814914
 20
61.8897889431
 30
0.0
 10
-38.9199300715
 20
61.9383800292
 30
0.0
 10
-38.7060559974
 20
61.9625269224
 30
0.0
 10
-38.5453771306
 20
61.9679985268
 30
0.0
  0
SPLINE
  5
404
100
AcDbEntity
  8
ASSI
100
AcDbSpline
 62
250
  6
CONTINUOUS
 70
0
 71
3
 72
9
 73
5
 74
0
 42
0.0000001
 43
0.0000001
 44
0.0000000001
 40
0.0
 40
0.0
 40
0.0
 40
0.0
 40
0.50815045
 40
1.0
 40
1.0
 40
1.0
 40
1.0
 10
46.8528154993
 20
-57.5088091324
 30
0.0
 10
46.8143078218
 20
-57.7456234654
 30
0.0
 10
46.7043386872
 20
-58.2070582515
 30
0.0
 10
46.5128207987
 20
-58.6426063622
 30
0.0
 10
46.3966678792
 20
-58.8436994642
 30
0.0
  0
SPLINE
  5
405
100
AcDbEntity
  8
ASSI
100
AcDbSpline
 62
250
  6
CONTINUOUS
 70
0
 71
3
 72
9
 73
5
 74
0
 42
0.0000001
 43
0.0000001
 44
0.0000000001
 40
0.0
 40
0.0
 40
0.0
 40
0.0
 40
0.252307973
 40
1.0
 40
1.0
 40
1.0
 40
1.0
 10
46.3425196812
 20
-58.9339240304
 30
0.0
 10
46.3139458214
 20
-58.9797633874
 30
0.0
 10
46.1959870388
 20
-59.1584445542
 30
0.0
 10
46.0584128772
 20
-59.3243441567
 30
0.0
 10
45.9455807548
 20
-59.4378856773
 30
0.0
  0
SPLINE
  5
406
100
AcDbEntity
  8
ASSI
100
AcDbSpline
 62
250
  6
CONTINUOUS
 70
0
 71
3
 72
9
 73
5
 74
0
 42
0.0000001
 43
0.0000001
 44
0.0000000001
 40
0.0
 40
0.0
 40
0.0
 40
0.0
 40
0.280567166
 40
1.0
 40
1.0
 40
1.0
 40
1.0
 10
45.8802434261
 20
12.2840592243
 30
0.0
 10
45.9289058464
 20
12.3130494746
 30
0.0
 10
46.1020636085
 20
12.4168507742
 30
0.0
 10
46.2741126096
 20
12.5225308819
 30
0.0
 10
46.39667746
 20
12.6004671196
 30
0.0
  0
SPLINE
  5
407
100
AcDbEntity
  8
ASSI
100
AcDbSpline
 62
250
  6
CONTINUOUS
 70
0
 71
3
 72
10
 73
6
 74
0
 42
0.0000001
 43
0.0000001
 44
0.0000000001
 40
0.0
 40
0.0
 40
0.0
 40
0.0
 40
0.6205029154
 40
0.8391230024
 40
1.0
 40
1.0
 40
1.0
 40
1.0
 10
46.39667746
 20
12.6004671196
 30
0.0
 10
46.4959275892
 20
12.6635787631
 30
0.0
 10
46.6293670773
 20
12.7503174741
 30
0.0
 10
46.7830617959
 20
12.8612788267
 30
0.0
 10
46.8393989812
 20
12.9061278111
 30
0.0
 10
46.8622228298
 20
12.9263509368
 30
0.0
  0
LINE
  5
408
100
AcDbEntity
  8
ASSI
100
AcDbLine
 62
250
  6
CONTINUOUS
 10
-43.6122176328
 20
5.0584199899
 11
-43.6069795619
 21
4.9347972984
  0
SPLINE
  5
409
100
AcDbEntity
  8
ASSI
100
AcDbSpline
 62
250
  6
CONTINUOUS
 70
0
 71
3
 72
11
 73
7
 74
0
 42
0.0000001
 43
0.0000001
 44
0.0000000001
 40
0.0
 40
0.0
 40
0.0
 40
0.0
 40
0.2886491619
 40
0.5490385363
 40
0.7838691067
 40
1.0
 40
1.0
 40
1.0
 40
1.0
 10
23.4957255636
 20
-33.1907669715
 30
0.0
 10
23.4979502053
 20
-33.2450298684
 30
0.0
 10
23.4952371804
 20
-33.3487723696
 30
0.0
 10
23.4660061247
 20
-33.4942325703
 30
0.0
 10
23.41205321
 20
-33.6180059898
 30
0.0
 10
23.3582143393
 20
-33.6853102816
 30
0.0
 10
23.3282677845
 20
-33.7128202064
 30
0.0
  0
SPLINE
  5
40A
100
AcDbEntity
  8
ASSI
100
AcDbSpline
 62
250
  6
CONTINUOUS
 70
0
 71
3
 72
9
 73
5
 74
0
 42
0.0000001
 43
0.0000001
 44
0.0000000001
 40
0.0
 40
0.0
 40
0.0
 40
0.0
 40
0.2439630597
 40
1.0
 40
1.0
 40
1.0
 40
1.0
 10
44.0978794907
 20
-60.7956653206
 30
0.0
 10
43.8609040276
 20
-59.4759024087
 30
0.0
 10
42.9845886408
 20
-54.0493719724
 30
0.0
 10
42.4800920579
 20
-48.5645321252
 30
0.0
 10
42.2846097109
 20
-44.4138028115
 30
0.0
  0
SPLINE
  5
40B
100
AcDbEntity
  8
ASSI
100
AcDbSpline
 62
250
  6
CONTINUOUS
 70
0
 71
3
 72
9
 73
5
 74
0
 42
0.0000001
 43
0.0000001
 44
0.0000000001
 40
0.0
 40
0.0
 40
0.0
 40
0.0
 40
0.245544339
 40
1.0
 40
1.0
 40
1.0
 40
1.0
 10
42.2846097109
 20
-44.4138028115
 30
0.0
 10
42.142153251
 20
-41.3889598424
 30
0.0
 10
41.7114264825
 20
-29.0632777109
 30
0.0
 10
41.8672914018
 20
-16.7184875981
 30
0.0
 10
42.2846097109
 20
-7.4234649103
 30
0.0
  0
SPLINE
  5
40C
100
AcDbEntity
  8
ASSI
100
AcDbSpline
 62
250
  6
CONTINUOUS
 70
0
 71
3
 72
9
 73
5
 74
0
 42
0.0000001
 43
0.0000001
 44
0.0000000001
 40
0.0
 40
0.0
 40
0.0
 40
0.0
 40
0.2449458894
 40
1.0
 40
1.0
 40
1.0
 40
1.0
 10
42.2846097109
 20
-7.4234649103
 30
0.0
 10
42.3518529195
 20
-5.9257547182
 30
0.0
 10
42.7120015645
 20
0.184678055
 30
0.0
 10
43.406487619
 20
6.2743875358
 30
0.0
 10
44.0978794907
 20
10.8437702761
 30
0.0
  0
SPLINE
  5
40D
100
AcDbEntity
  8
ASSI
100
AcDbSpline
 62
250
  6
CONTINUOUS
 70
0
 71
3
 72
11
 73
7
 74
0
 42
0.0000001
 43
0.0000001
 44
0.0000000001
 40
0.0
 40
0.0
 40
0.0
 40
0.0
 40
0.2791547501
 40
0.5334300797
 40
0.769765107
 40
1.0
 40
1.0
 40
1.0
 40
1.0
 10
-41.1929846469
 20
61.0156268247
 30
0.0
 10
-41.2407343008
 20
61.0423049657
 30
0.0
 10
-41.3373269647
 20
61.0847420281
 30
0.0
 10
-41.4877589815
 20
61.1104808044
 30
0.0
 10
-41.630160416
 20
61.0927149947
 30
0.0
 10
-41.7140385537
 20
61.051733693
 30
0.0
 10
-41.7509098674
 20
61.0257419723
 30
0.0
  0
SPLINE
  5
40E
100
AcDbEntity
  8
ASSI
100
AcDbSpline
 62
250
  6
CONTINUOUS
 70
0
 71
3
 72
11
 73
7
 74
0
 42
0.0000001
 43
0.0000001
 44
0.0000000001
 40
0.0
 40
0.0
 40
0.0
 40
0.0
 40
0.2437245053
 40
0.5070496853
 40
0.7667005964
 40
1.0
 40
1.0
 40
1.0
 40
1.0
 10
44.0978794907
 20
10.8437702761
 30
0.0
 10
44.1093800927
 20
10.9633187616
 30
0.0
 10
44.0910286917
 20
11.2165649402
 30
0.0
 10
43.9699641341
 20
11.5780153912
 30
0.0
 10
43.7699459033
 20
11.8965446837
 30
0.0
 10
43.5862648194
 20
12.0632384328
 30
0.0
 10
43.4875437684
 20
12.122151014
 30
0.0
  0
SPLINE
  5
40F
100
AcDbEntity
  8
ASSI
100
AcDbSpline
 62
250
  6
CONTINUOUS
 70
0
 71
3
 72
11
 73
7
 74
0
 42
0.0000001
 43
0.0000001
 44
0.0000000001
 40
0.0
 40
0.0
 40
0.0
 40
0.0
 40
0.2459794376
 40
0.5070714977
 40
0.7644116438
 40
1.0
 40
1.0
 40
1.0
 40
1.0
 10
-41.3904891533
 20
60.7014546305
 30
0.0
 10
-41.3859693689
 20
60.7323322135
 30
0.0
 10
-41.3685817821
 20
60.7949026786
 30
0.0
 10
-41.3246687058
 20
60.8819734095
 30
0.0
 10
-41.2661545536
 20
60.958333402
 30
0.0
 10
-41.2181827458
 20
60.9995529664
 30
0.0
 10
-41.1929846471
 20
61.0156268248
 30
0.0
  0
SPLINE
  5
410
100
AcDbEntity
  8
ASSI
100
AcDbSpline
 62
250
  6
CONTINUOUS
 70
0
 71
3
 72
11
 73
7
 74
0
 42
0.0000001
 43
0.0000001
 44
0.0000000001
 40
0.0
 40
0.0
 40
0.0
 40
0.0
 40
0.3146559746
 40
0.5821354381
 40
0.8053036157
 40
1.0
 40
1.0
 40
1.0
 40
1.0
 10
-41.9712094078
 20
60.35415708
 30
0.0
 10
-41.9853446634
 20
60.3621427092
 30
0.0
 10
-42.0105748514
 20
60.3787312884
 30
0.0
 10
-42.0405255779
 20
60.4080131892
 30
0.0
 10
-42.0585325031
 20
60.4391880803
 30
0.0
 10
-42.0610831766
 20
60.4614599924
 30
0.0
 10
-42.0597366551
 20
60.4714149091
 30
0.0
  0
SPLINE
  5
411
100
AcDbEntity
  8
ASSI
100
AcDbSpline
 62
250
  6
CONTINUOUS
 70
0
 71
3
 72
11
 73
7
 74
0
 42
0.0000001
 43
0.0000001
 44
0.0000000001
 40
0.0
 40
0.0
 40
0.0
 40
0.0
 40
0.2959796839
 40
0.5572281439
 40
0.7878045642
 40
1.0
 40
1.0
 40
1.0
 40
1.0
 10
-43.6069775833
 20
41.94976616
 30
0.0
 10
-43.6204582536
 20
41.9575066258
 30
0.0
 10
-43.6447971182
 20
41.9740887156
 30
0.0
 10
-43.6737707825
 20
42.0041456619
 30
0.0
 10
-43.6917036689
 20
42.0371152789
 30
0.0
 10
-43.6953220015
 20
42.0607058595
 30
0.0
 10
-43.6948697926
 20
42.0718412045
 30
0.0
  0
SPLINE
  5
412
100
AcDbEntity
  8
ASSI
100
AcDbSpline
 62
250
  6
CONTINUOUS
 70
0
 71
3
 72
10
 73
6
 74
0
 42
0.0000001
 43
0.0000001
 44
0.0000000001
 40
0.0
 40
0.0
 40
0.0
 40
0.0
 40
0.5403953916
 40
0.776598005
 40
1.0
 40
1.0
 40
1.0
 40
1.0
 10
-43.6069775802
 20
4.9347515853
 30
0.0
 10
-43.6312467125
 20
4.9488344256
 30
0.0
 10
-43.6640053779
 20
4.9751115746
 30
0.0
 10
-43.6893812957
 20
5.0210775261
 30
0.0
 10
-43.6943234111
 20
5.0448960289
 30
0.0
 10
-43.6948358784
 20
5.0564844971
 30
0.0
  0
SPLINE
  5
413
100
AcDbEntity
  8
ASSI
100
AcDbSpline
 62
250
  6
CONTINUOUS
 70
0
 71
3
 72
9
 73
5
 74
0
 42
0.0000001
 43
0.0000001
 44
0.0000000001
 40
0.0
 40
0.0
 40
0.0
 40
0.0
 40
0.5272729655
 40
1.0
 40
1.0
 40
1.0
 40
1.0
 10
-41.9712094126
 20
-11.37214944
 30
0.0
 10
-41.9937294796
 20
-11.3589514032
 30
0.0
 10
-42.033252715
 20
-11.3267962823
 30
0.0
 10
-42.0547303843
 20
-11.2796348417
 30
0.0
 10
-42.0585078087
 20
-11.2565394787
 30
0.0
  0
SPLINE
  5
414
100
AcDbEntity
  8
ASSI
100
AcDbSpline
 62
250
  6
CONTINUOUS
 70
0
 71
3
 72
9
 73
5
 74
0
 42
0.0000001
 43
0.0000001
 44
0.0000000001
 40
0.0
 40
0.0
 40
0.0
 40
0.0
 40
0.5348895626
 40
1.0
 40
1.0
 40
1.0
 40
1.0
 10
-41.3904891533
 20
-12.1794297064
 30
0.0
 10
-41.3869539853
 20
-12.1994982752
 30
0.0
 10
-41.3750191485
 20
-12.2367429152
 30
0.0
 10
-41.3472360009
 20
-12.2654585195
 30
0.0
 10
-41.3318873539
 20
-12.2743122794
 30
0.0
  0
SPLINE
  5
415
100
AcDbEntity
  8
ASSI
100
AcDbSpline
 62
250
  6
CONTINUOUS
 70
0
 71
3
 72
9
 73
5
 74
0
 42
0.0000001
 43
0.0000001
 44
0.0000000001
 40
0.0
 40
0.0
 40
0.0
 40
0.0
 40
0.5348825492
 40
1.0
 40
1.0
 40
1.0
 40
1.0
 10
43.290039262
 20
-61.0729055171
 30
0.0
 10
43.2935723585
 20
-61.0929622324
 30
0.0
 10
43.3054972881
 20
-61.1301843872
 30
0.0
 10
43.3332481981
 20
-61.158894913
 30
0.0
 10
43.348582201
 20
-61.1677541099
 30
0.0
  0
SPLINE
  5
416
100
AcDbEntity
  8
ASSI
100
AcDbSpline
 62
250
  6
CONTINUOUS
 70
0
 71
3
 72
11
 73
7
 74
0
 42
0.0000001
 43
0.0000001
 44
0.0000000001
 40
0.0
 40
0.0
 40
0.0
 40
0.0
 40
0.2304832009
 40
0.4863113269
 40
0.7496476391
 40
1.0
 40
1.0
 40
1.0
 40
1.0
 10
43.6883703187
 20
-60.8309172037
 30
0.0
 10
43.7170698474
 20
-60.8472390705
 30
0.0
 10
43.784687641
 20
-60.8694956613
 30
0.0
 10
43.8930899465
 20
-60.8732596978
 30
0.0
 10
44.0019130527
 20
-60.8500024728
 30
0.0
 10
44.0687499829
 20
-60.8165837493
 30
0.0
 10
44.0978794907
 20
-60.7956653206
 30
0.0
  0
SPLINE
  5
417
100
AcDbEntity
  8
ASSI
100
AcDbSpline
 62
250
  6
CONTINUOUS
 70
0
 71
3
 72
11
 73
7
 74
0
 42
0.0000001
 43
0.0000001
 44
0.0000000001
 40
0.0
 40
0.0
 40
0.0
 40
0.0
 40
0.2341749793
 40
0.4937439205
 40
0.7567102334
 40
1.0
 40
1.0
 40
1.0
 40
1.0
 10
41.8720078058
 20
-44.4197432779
 30
0.0
 10
41.9009732751
 20
-44.4363838327
 30
0.0
 10
41.9684530274
 20
-44.4604515082
 30
0.0
 10
42.0767528714
 20
-44.4707569263
 30
0.0
 10
42.185978248
 20
-44.4569992443
 30
0.0
 10
42.2545281946
 20
-44.4311108518
 30
0.0
 10
42.2846097109
 20
-44.4138028115
 30
0.0
  0
SPLINE
  5
418
100
AcDbEntity
  8
ASSI
100
AcDbSpline
 62
250
  6
CONTINUOUS
 70
0
 71
3
 72
11
 73
7
 74
0
 42
0.0000001
 43
0.0000001
 44
0.0000000001
 40
0.0
 40
0.0
 40
0.0
 40
0.0
 40
0.2373292082
 40
0.4998794602
 40
0.7624946699
 40
1.0
 40
1.0
 40
1.0
 40
1.0
 10
41.8720078096
 20
-7.4047286991
 30
0.0
 10
41.9011319807
 20
-7.4216377795
 30
0.0
 10
41.9683109716
 20
-7.4472830523
 30
0.0
 10
42.0760428861
 20
-7.4630172109
 30
0.0
 10
42.1847823932
 20
-7.4571074928
 30
0.0
 10
42.2540430315
 20
-7.4376598517
 30
0.0
 10
42.2846097109
 20
-7.4234649103
 30
0.0
  0
SPLINE
  5
419
100
AcDbEntity
  8
ASSI
100
AcDbSpline
 62
250
  6
CONTINUOUS
 70
0
 71
3
 72
11
 73
7
 74
0
 42
0.0000001
 43
0.0000001
 44
0.0000000001
 40
0.0
 40
0.0
 40
0.0
 40
0.0
 40
0.2414342659
 40
0.5077203884
 40
0.7698852893
 40
1.0
 40
1.0
 40
1.0
 40
1.0
 10
43.6883703139
 20
10.8953893109
 30
0.0
 10
43.7176355491
 20
10.8781271125
 30
0.0
 10
43.784218194
 20
10.8503345469
 30
0.0
 10
43.8906258718
 20
10.8274686465
 30
0.0
 10
43.9977623003
 20
10.8231223616
 30
0.0
 10
44.0670462237
 20
10.8338574095
 30
0.0
 10
44.0978747736
 20
10.8437733011
 30
0.0
  0
SPLINE
  5
41A
100
AcDbEntity
  8
ASSI
100
AcDbSpline
 62
7
  6
CONTINUOUS
 70
0
 71
3
 72
11
 73
7
 74
0
 42
0.0000001
 43
0.0000001
 44
0.0000000001
 40
0.0
 40
0.0
 40
0.0
 40
0.0
 40
0.2940883074
 40
0.5568989569
 40
0.7896940842
 40
1.0
 40
1.0
 40
1.0
 40
1.0
 10
2.9278880596
 20
-25.0399330875
 30
0.0
 10
2.929668666
 20
-25.0618841182
 30
0.0
 10
2.9300226333
 20
-25.1037934989
 30
0.0
 10
2.9202272989
 20
-25.1624848462
 30
0.0
 10
2.8997451909
 20
-25.2118708778
 30
0.0
 10
2.8757585722
 20
-25.2368223888
 30
0.0
 10
2.8621009761
 20
-25.2446646372
 30
0.0
  0
SPLINE
  5
41B
100
AcDbEntity
  8
ASSI
100
AcDbSpline
 62
7
  6
CONTINUOUS
 70
0
 71
3
 72
11
 73
7
 74
0
 42
0.0000001
 43
0.0000001
 44
0.0000000001
 40
0.0
 40
0.0
 40
0.0
 40
0.0
 40
0.2451913553
 40
0.5091059626
 40
0.7686212975
 40
1.0
 40
1.0
 40
1.0
 40
1.0
 10
2.6759182343
 20
-24.629903918
 30
0.0
 10
2.7089984007
 20
-24.6530753006
 30
0.0
 10
2.7721051531
 20
-24.7092697254
 30
0.0
 10
2.8502711705
 20
-24.8099207493
 30
0.0
 10
2.9046471154
 20
-24.9225489664
 30
0.0
 10
2.9248065602
 20
-25.0019448568
 30
0.0
 10
2.9278880596
 20
-25.0399330875
 30
0.0
  0
SPLINE
  5
41C
100
AcDbEntity
  8
ASSI
100
AcDbSpline
 62
7
  6
CONTINUOUS
 70
0
 71
3
 72
10
 73
6
 74
0
 42
0.0000001
 43
0.0000001
 44
0.0000000001
 40
0.0
 40
0.0
 40
0.0
 40
0.0
 40
0.2347604912
 40
0.4792569378
 40
1.0
 40
1.0
 40
1.0
 40
1.0
 10
2.3530535255
 20
-24.455950038
 30
0.0
 10
2.3798258959
 20
-24.4664605013
 30
0.0
 10
2.4340973555
 20
-24.4889647296
 30
0.0
 10
2.5439454349
 20
-24.5433929316
 30
0.0
 10
2.6236636702
 20
-24.5933016084
 30
0.0
 10
2.6759182343
 20
-24.629903918
 30
0.0
  0
SPLINE
  5
41D
100
AcDbEntity
  8
ASSI
100
AcDbSpline
 62
7
  6
CONTINUOUS
 70
0
 71
3
 72
9
 73
5
 74
0
 42
0.0000001
 43
0.0000001
 44
0.0000000001
 40
0.0
 40
0.0
 40
0.0
 40
0.0
 40
0.5408473741
 40
1.0
 40
1.0
 40
1.0
 40
1.0
 10
3.0719148539
 20
-25.6242061072
 30
0.0
 10
3.0809665336
 20
-25.6281786524
 30
0.0
 10
3.0998913219
 20
-25.6317094086
 30
0.0
 10
3.1176868543
 20
-25.6264461666
 30
0.0
 10
3.1256365714
 20
-25.623758018
 30
0.0
  0
SPLINE
  5
41E
100
AcDbEntity
  8
ASSI
100
AcDbSpline
 62
7
  6
CONTINUOUS
 70
0
 71
3
 72
10
 73
6
 74
0
 42
0.0000001
 43
0.0000001
 44
0.0000000001
 40
0.0
 40
0.0
 40
0.0
 40
0.0
 40
0.5019889171
 40
0.7509022211
 40
1.0
 40
1.0
 40
1.0
 40
1.0
 10
2.9004168314
 20
-25.8809314497
 30
0.0
 10
2.9443564785
 20
-26.0077956498
 30
0.0
 10
2.9995323691
 20
-26.2010566109
 30
0.0
 10
3.0751695091
 20
-26.4575577827
 30
0.0
 10
3.1135017709
 20
-26.5851231003
 30
0.0
 10
3.132386996
 20
-26.6490121044
 30
0.0
  0
SPLINE
  5
41F
100
AcDbEntity
  8
ASSI
100
AcDbSpline
 62
7
  6
CONTINUOUS
 70
0
 71
3
 72
11
 73
7
 74
0
 42
0.0000001
 43
0.0000001
 44
0.0000000001
 40
0.0
 40
0.0
 40
0.0
 40
0.0
 40
0.2310111351
 40
0.4873322242
 40
0.7487412003
 40
1.0
 40
1.0
 40
1.0
 40
1.0
 10
2.65561955
 20
-25.5548258132
 30
0.0
 10
2.6833268119
 20
-25.5708236389
 30
0.0
 10
2.7377165
 20
-25.611926313
 30
0.0
 10
2.805801067
 20
-25.6909806824
 30
0.0
 10
2.8607167559
 20
-25.7826626774
 30
0.0
 10
2.8890281185
 20
-25.84804953
 30
0.0
 10
2.9004168314
 20
-25.8809314497
 30
0.0
  0
SPLINE
  5
420
100
AcDbEntity
  8
ASSI
100
AcDbSpline
 62
250
  6
CONTINUOUS
 70
0
 71
3
 72
11
 73
7
 74
0
 42
0.0000001
 43
0.0000001
 44
0.0000000001
 40
0.0
 40
0.0
 40
0.0
 40
0.0
 40
0.2459794421
 40
0.5070715314
 40
0.7644116895
 40
1.0
 40
1.0
 40
1.0
 40
1.0
 10
43.290039262
 20
11.8079788198
 30
0.0
 10
43.2945590711
 20
11.8388563965
 30
0.0
 10
43.3119466949
 20
11.9014268465
 30
0.0
 10
43.355859788
 20
11.9884975616
 30
0.0
 10
43.414373918
 20
12.0648575548
 30
0.0
 10
43.4623456905
 20
12.1060771397
 30
0.0
 10
43.4875437684
 20
12.122151014
 30
0.0
  0
SPLINE
  5
421
100
AcDbEntity
  8
ASSI
100
AcDbSpline
 62
250
  6
CONTINUOUS
 70
0
 71
3
 72
11
 73
7
 74
0
 42
0.0000001
 43
0.0000001
 44
0.0000000001
 40
0.0
 40
0.0
 40
0.0
 40
0.0
 40
0.2109477116
 40
0.4430008394
 40
0.7050470324
 40
1.0
 40
1.0
 40
1.0
 40
1.0
 10
23.3131033252
 20
-33.1342645626
 30
0.0
 10
23.2888258865
 20
-33.1446995093
 30
0.0
 10
23.2336424061
 20
-33.1575284659
 30
0.0
 10
23.1445830445
 20
-33.1510772349
 30
0.0
 10
23.04964028
 20
-33.1212462322
 30
0.0
 10
22.9876147424
 20
-33.0885401896
 30
0.0
 10
22.9561883699
 20
-33.0691094552
 30
0.0
  0
SPLINE
  5
422
100
AcDbEntity
  8
ASSI
100
AcDbSpline
 62
250
  6
CONTINUOUS
 70
0
 71
3
 72
10
 73
6
 74
0
 42
0.0000001
 43
0.0000001
 44
0.0000000001
 40
0.0
 40
0.0
 40
0.0
 40
0.0
 40
0.5364074332
 40
0.7754460783
 40
1.0
 40
1.0
 40
1.0
 40
1.0
 10
-24.5988638224
 20
30.6580545038
 30
0.0
 10
-24.5960614411
 20
30.7257852249
 30
0.0
 10
-24.5785002044
 20
30.8250143452
 30
0.0
 10
-24.5188201473
 20
30.9373764194
 30
0.0
 10
-24.4794560991
 20
30.9817640715
 30
0.0
 10
-24.4579772045
 20
31.0003105643
 30
0.0
  0
SPLINE
  5
423
100
AcDbEntity
  8
ASSI
100
AcDbSpline
 62
250
  6
CONTINUOUS
 70
0
 71
3
 72
11
 73
7
 74
0
 42
0.0000001
 43
0.0000001
 44
0.0000000001
 40
0.0
 40
0.0
 40
0.0
 40
0.0
 40
0.2868065256
 40
0.5451752688
 40
0.7795462923
 40
1.0
 40
1.0
 40
1.0
 40
1.0
 10
-21.0286178802
 20
4.0590933954
 30
0.0
 10
-21.04948417
 20
4.0715539374
 30
0.0
 10
-21.0911794168
 20
4.092141701
 30
0.0
 10
-21.1556911743
 20
4.1088064469
 30
0.0
 10
-21.2168979612
 20
4.1086189908
 30
0.0
 10
-21.2543252138
 20
4.0965553578
 30
0.0
 10
-21.270912669
 20
4.0879625956
 30
0.0
  0
SPLINE
  5
424
100
AcDbEntity
  8
ASSI
100
AcDbSpline
 62
250
  6
CONTINUOUS
 70
0
 71
3
 72
9
 73
5
 74
0
 42
0.0000001
 43
0.0000001
 44
0.0000000001
 40
0.0
 40
0.0
 40
0.0
 40
0.0
 40
0.5220892298
 40
1.0
 40
1.0
 40
1.0
 40
1.0
 10
23.3282677845
 20
3.3021943712
 30
0.0
 10
23.3853846585
 20
3.1746921851
 30
0.0
 10
23.4714612881
 20
2.9192782323
 30
0.0
 10
23.5007065021
 20
2.6500398189
 30
0.0
 10
23.4957255636
 20
2.5222480638
 30
0.0
  0
SPLINE
  5
425
100
AcDbEntity
  8
ASSI
100
AcDbSpline
 62
250
  6
CONTINUOUS
 70
0
 71
3
 72
10
 73
6
 74
0
 42
0.0000001
 43
0.0000001
 44
0.0000000001
 40
0.0
 40
0.0
 40
0.0
 40
0.0
 40
0.2296399137
 40
0.4782597368
 40
1.0
 40
1.0
 40
1.0
 40
1.0
 10
-23.9853337057
 20
-5.9656620945
 30
0.0
 10
-24.031840712
 20
-5.9405895006
 30
0.0
 10
-24.1238051352
 20
-5.8789984588
 30
0.0
 10
-24.2939787283
 20
-5.7234617031
 30
0.0
 10
-24.4001115573
 20
-5.5781370158
 30
0.0
 10
-24.4579772045
 20
-5.4729640887
 30
0.0
  0
SPLINE
  5
426
100
AcDbEntity
  8
ASSI
100
AcDbSpline
 62
250
  6
CONTINUOUS
 70
0
 71
3
 72
9
 73
5
 74
0
 42
0.0000001
 43
0.0000001
 44
0.0000000001
 40
0.0
 40
0.0
 40
0.0
 40
0.0
 40
0.5272845802
 40
1.0
 40
1.0
 40
1.0
 40
1.0
 10
-24.4579772045
 20
-5.4729640887
 30
0.0
 10
-24.4988044263
 20
-5.3987606778
 30
0.0
 10
-24.5636142928
 20
-5.2506518197
 30
0.0
 10
-24.5955842473
 20
-5.0911715321
 30
0.0
 10
-24.5988629703
 20
-5.0153137607
 30
0.0
  0
SPLINE
  5
427
100
AcDbEntity
  8
ASSI
100
AcDbSpline
 62
250
  6
CONTINUOUS
 70
0
 71
3
 72
11
 73
7
 74
0
 42
0.0000001
 43
0.0000001
 44
0.0000000001
 40
0.0
 40
0.0
 40
0.0
 40
0.0
 40
0.20999682
 40
0.4358199463
 40
0.6965935411
 40
1.0
 40
1.0
 40
1.0
 40
1.0
 10
43.9306444749
 20
-61.2362384183
 30
0.0
 10
43.9624893106
 20
-61.2215034856
 30
0.0
 10
44.0226689071
 20
-61.1759988735
 30
0.0
 10
44.0802188724
 20
-61.0719158384
 30
0.0
 10
44.1059904612
 20
-60.9409653874
 30
0.0
 10
44.1032657375
 20
-60.8460749378
 30
0.0
 10
44.0978794907
 20
-60.7956653206
 30
0.0
  0
SPLINE
  5
428
100
AcDbEntity
  8
ASSI
100
AcDbSpline
 62
250
  6
CONTINUOUS
 70
0
 71
3
 72
9
 73
5
 74
0
 42
0.0000001
 43
0.0000001
 44
0.0000000001
 40
0.0
 40
0.0
 40
0.0
 40
0.0
 40
0.2760065775
 40
1.0
 40
1.0
 40
1.0
 40
1.0
 10
23.4957279688
 20
-33.1907654477
 30
0.0
 10
23.4812859013
 20
-33.1823865996
 30
0.0
 10
23.4308067298
 20
-33.1493235858
 30
0.0
 10
23.3875044945
 20
-33.1027429325
 30
0.0
 10
23.3685723876
 20
-33.0632491861
 30
0.0
  0
SPLINE
  5
429
100
AcDbEntity
  8
ASSI
100
AcDbSpline
 62
250
  6
CONTINUOUS
 70
0
 71
3
 72
9
 73
5
 74
0
 42
0.0000001
 43
0.0000001
 44
0.0000000001
 40
0.0
 40
0.0
 40
0.0
 40
0.0
 40
0.2563938424
 40
1.0
 40
1.0
 40
1.0
 40
1.0
 10
23.3685723876
 20
-33.0632491861
 30
0.0
 10
23.3656738296
 20
-33.0572025841
 30
0.0
 10
23.3554707031
 20
-33.0331124675
 30
0.0
 10
23.3500769797
 20
-33.0069415892
 30
0.0
 10
23.3492800294
 20
-32.9875104518
 30
0.0
  0
SPLINE
  5
42A
100
AcDbEntity
  8
ASSI
100
AcDbSpline
 62
250
  6
CONTINUOUS
 70
0
 71
3
 72
11
 73
7
 74
0
 42
0.0000001
 43
0.0000001
 44
0.0000000001
 40
0.0
 40
0.0
 40
0.0
 40
0.0
 40
0.2682474415
 40
0.5256138449
 40
0.7688436806
 40
1.0
 40
1.0
 40
1.0
 40
1.0
 10
23.3282717213
 20
-33.712817704
 30
0.0
 10
23.2980185279
 20
-33.6703890149
 30
0.0
 10
23.2493585442
 20
-33.5789519257
 30
0.0
 10
23.2179791302
 20
-33.4307803336
 30
0.0
 10
23.2325776186
 20
-33.286861578
 30
0.0
 10
23.2741987087
 20
-33.2018608294
 30
0.0
 10
23.3013456844
 20
-33.1660911954
 30
0.0
  0
SPLINE
  5
42B
100
AcDbEntity
  8
ASSI
100
AcDbSpline
 62
250
  6
CONTINUOUS
 70
0
 71
3
 72
11
 73
7
 74
0
 42
0.0000001
 43
0.0000001
 44
0.0000000001
 40
0.0
 40
0.0
 40
0.0
 40
0.0
 40
0.2323706358
 40
0.4933105248
 40
0.7578922962
 40
1.0
 40
1.0
 40
1.0
 40
1.0
 10
22.6216158759
 20
-33.6917142375
 30
0.0
 10
22.6189202791
 20
-33.6350211869
 30
0.0
 10
22.6359325611
 20
-33.513556471
 30
0.0
 10
22.7060705217
 20
-33.3407515184
 30
0.0
 10
22.813077746
 20
-33.1850995633
 30
0.0
 10
22.9063065378
 20
-33.1008960746
 30
0.0
 10
22.9561620568
 20
-33.0690931987
 30
0.0
  0
SPLINE
  5
42C
100
AcDbEntity
  8
ASSI
100
AcDbSpline
 62
250
  6
CONTINUOUS
 70
0
 71
3
 72
11
 73
7
 74
0
 42
0.0000001
 43
0.0000001
 44
0.0000000001
 40
0.0
 40
0.0
 40
0.0
 40
0.0
 40
0.2323706361
 40
0.4933105252
 40
0.7578922965
 40
1.0
 40
1.0
 40
1.0
 40
1.0
 10
-24.3198737659
 20
-6.5882864334
 30
0.0
 10
-24.3225693628
 20
-6.5315933827
 30
0.0
 10
-24.3055570806
 20
-6.4101286667
 30
0.0
 10
-24.2354191199
 20
-6.2373237141
 30
0.0
 10
-24.1284118957
 20
-6.0816717591
 30
0.0
 10
-24.035183104
 20
-5.9974682704
 30
0.0
 10
-23.9853275851
 20
-5.9656653946
 30
0.0
  0
SPLINE
  5
42D
100
AcDbEntity
  8
ASSI
100
AcDbSpline
 62
250
  6
CONTINUOUS
 70
0
 71
3
 72
11
 73
7
 74
0
 42
0.0000001
 43
0.0000001
 44
0.0000000001
 40
0.0
 40
0.0
 40
0.0
 40
0.0
 40
0.1980113152
 40
0.455459978
 40
0.7360621752
 40
1.0
 40
1.0
 40
1.0
 40
1.0
 10
-25.0632344516
 20
-5.7721695111
 30
0.0
 10
-25.0206612462
 20
-5.7587378461
 30
0.0
 10
-24.9251377127
 20
-5.7205254707
 30
0.0
 10
-24.7747501029
 20
-5.6503498238
 30
0.0
 10
-24.6145807295
 20
-5.566306544
 30
0.0
 10
-24.5084202063
 20
-5.5045251184
 30
0.0
 10
-24.4579751755
 20
-5.4729634872
 30
0.0
  0
SPLINE
  5
42E
100
AcDbEntity
  8
ASSI
100
AcDbSpline
 62
250
  6
CONTINUOUS
 70
0
 71
3
 72
11
 73
7
 74
0
 42
0.0000001
 43
0.0000001
 44
0.0000000001
 40
0.0
 40
0.0
 40
0.0
 40
0.0
 40
0.2342290573
 40
0.4938503752
 40
0.7568107979
 40
1.0
 40
1.0
 40
1.0
 40
1.0
 10
-25.2865651318
 20
-5.024483698
 30
0.0
 10
-25.2382840587
 20
-5.0522256429
 30
0.0
 10
-25.1258242903
 20
-5.0923829698
 30
0.0
 10
-24.9453350496
 20
-5.1097148299
 30
0.0
 10
-24.7632968696
 20
-5.0870115765
 30
0.0
 10
-24.649017752
 20
-5.0440470891
 30
0.0
 10
-24.5988642482
 20
-5.0152883306
 30
0.0
  0
SPLINE
  5
42F
100
AcDbEntity
  8
ASSI
100
AcDbSpline
 62
250
  6
CONTINUOUS
 70
0
 71
3
 72
11
 73
7
 74
0
 42
0.0000001
 43
0.0000001
 44
0.0000000001
 40
0.0
 40
0.0
 40
0.0
 40
0.0
 40
0.2372718374
 40
0.4997695639
 40
0.7623915462
 40
1.0
 40
1.0
 40
1.0
 40
1.0
 10
-25.2865626385
 20
30.6885326358
 30
0.0
 10
-25.23802678
 20
30.6603585519
 30
0.0
 10
-25.1260511475
 20
30.6176636731
 30
0.0
 10
-24.9464753883
 20
30.5916013087
 30
0.0
 10
-24.7652183474
 20
30.6016840059
 30
0.0
 10
-24.6497959656
 20
30.6342913448
 30
0.0
 10
-24.5988621766
 20
30.6580442486
 30
0.0
  0
SPLINE
  5
430
100
AcDbEntity
  8
ASSI
100
AcDbSpline
 62
250
  6
CONTINUOUS
 70
0
 71
3
 72
11
 73
7
 74
0
 42
0.0000001
 43
0.0000001
 44
0.0000000001
 40
0.0
 40
0.0
 40
0.0
 40
0.0
 40
0.2699711448
 40
0.532651516
 40
0.7767360831
 40
1.0
 40
1.0
 40
1.0
 40
1.0
 10
-25.0632336412
 20
31.242845123
 30
0.0
 10
-25.029152343
 20
31.1895015538
 30
0.0
 10
-24.9454482199
 20
31.0938694091
 30
0.0
 10
-24.7880041411
 20
30.9967884316
 30
0.0
 10
-24.6175734787
 20
30.958065611
 30
0.0
 10
-24.5056365974
 20
30.9786536285
 30
0.0
 10
-24.457974627
 20
31.0003062109
 30
0.0
  0
SPLINE
  5
431
100
AcDbEntity
  8
ASSI
100
AcDbSpline
 62
250
  6
CONTINUOUS
 70
0
 71
3
 72
11
 73
7
 74
0
 42
0.0000001
 43
0.0000001
 44
0.0000000001
 40
0.0
 40
0.0
 40
0.0
 40
0.0
 40
0.2927193663
 40
0.5531462819
 40
0.7851453376
 40
1.0
 40
1.0
 40
1.0
 40
1.0
 10
-24.3198737659
 20
31.2429341035
 30
0.0
 10
-24.3211219176
 20
31.2152419877
 30
0.0
 10
-24.3192726
 20
31.1625365666
 30
0.0
 10
-24.3009895214
 20
31.0897558502
 30
0.0
 10
-24.267428467
 20
31.0306352548
 30
0.0
 10
-24.2345916734
 20
31.0022725426
 30
0.0
 10
-24.2169829957
 20
30.9920786532
 30
0.0
  0
SPLINE
  5
432
100
AcDbEntity
  8
ASSI
100
AcDbSpline
 62
250
  6
CONTINUOUS
 70
0
 71
3
 72
11
 73
7
 74
0
 42
0.0000001
 43
0.0000001
 44
0.0000000001
 40
0.0
 40
0.0
 40
0.0
 40
0.0
 40
0.2927402536
 40
0.5531621829
 40
0.7851444849
 40
1.0
 40
1.0
 40
1.0
 40
1.0
 10
22.6216158759
 20
4.1395062993
 30
0.0
 10
22.6203668961
 20
4.1117958086
 30
0.0
 10
22.6222200476
 20
4.0590572165
 30
0.0
 10
22.6405310165
 20
3.9862364521
 30
0.0
 10
22.6741425244
 20
3.9270978074
 30
0.0
 10
22.70702457
 20
3.8987475052
 30
0.0
 10
22.7246541601
 20
3.888565552
 30
0.0
  0
SPLINE
  5
433
100
AcDbEntity
  8
ASSI
100
AcDbSpline
 62
250
  6
CONTINUOUS
 70
0
 71
3
 72
12
 73
8
 74
0
 42
0.0000001
 43
0.0000001
 44
0.0000000001
 40
0.0
 40
0.0
 40
0.0
 40
0.0
 40
0.4138489095
 40
0.7205650807
 40
0.9130725623
 40
0.9674905822
 40
1.0
 40
1.0
 40
1.0
 40
1.0
 10
23.3282711252
 20
3.3021961056
 30
0.0
 10
23.3142594086
 20
3.2974967874
 30
0.0
 10
23.2897146741
 20
3.289643732
 30
0.0
 10
23.2582961364
 20
3.2812289241
 30
0.0
 10
23.2385867124
 20
3.2778426442
 30
0.0
 10
23.2286765446
 20
3.2781814217
 30
0.0
 10
23.2256152806
 20
3.27988993
 30
0.0
 10
23.2251390124
 20
3.2809486666
 30
0.0
  0
SPLINE
  5
434
100
AcDbEntity
  8
ASSI
100
AcDbSpline
 62
250
  6
CONTINUOUS
 70
0
 71
3
 72
11
 73
7
 74
0
 42
0.0000001
 43
0.0000001
 44
0.0000000001
 40
0.0
 40
0.0
 40
0.0
 40
0.0
 40
0.2957489977
 40
0.556925979
 40
0.7875960849
 40
1.0
 40
1.0
 40
1.0
 40
1.0
 10
23.4957255732
 20
2.5222480688
 30
0.0
 10
23.4732752865
 20
2.5351414341
 30
0.0
 10
23.4327353176
 20
2.5627727999
 30
0.0
 10
23.3844702884
 20
2.6128706983
 30
0.0
 10
23.354577091
 20
2.667840958
 30
0.0
 10
23.3485134096
 20
2.7071772129
 30
0.0
 10
23.3492421381
 20
2.7257563359
 30
0.0
  0
SPLINE
  5
435
100
AcDbEntity
  8
ASSI
100
AcDbSpline
 62
250
  6
CONTINUOUS
 70
0
 71
3
 72
9
 73
5
 74
0
 42
0.0000001
 43
0.0000001
 44
0.0000000001
 40
0.0
 40
0.0
 40
0.0
 40
0.0
 40
0.2455441792
 40
1.0
 40
1.0
 40
1.0
 40
1.0
 10
41.8720056722
 20
-44.4196975871
 30
0.0
 10
41.7294591949
 20
-41.3928461863
 30
0.0
 10
41.2984625253
 20
-29.0589723821
 30
0.0
 10
41.4544240327
 20
-16.7059792839
 30
0.0
 10
41.8720056618
 20
-7.4047769039
 30
0.0
  0
SPLINE
  5
436
100
AcDbEntity
  8
ASSI
100
AcDbSpline
 62
250
  6
CONTINUOUS
 70
0
 71
3
 72
9
 73
5
 74
0
 42
0.0000001
 43
0.0000001
 44
0.0000000001
 40
0.0
 40
0.0
 40
0.0
 40
0.0
 40
0.5072370183
 40
1.0
 40
1.0
 40
1.0
 40
1.0
 10
-41.9712094557
 20
60.3541570623
 30
0.0
 10
-42.3895237906
 20
57.2573511205
 30
0.0
 10
-43.0808157059
 20
51.1332038501
 30
0.0
 10
-43.4846604006
 20
44.9830136064
 30
0.0
 10
-43.6069794894
 20
41.9497179459
 30
0.0
  0
SPLINE
  5
437
100
AcDbEntity
  8
ASSI
100
AcDbSpline
 62
250
  6
CONTINUOUS
 70
0
 71
3
 72
14
 73
10
 74
0
 42
0.0000001
 43
0.0000001
 44
0.0000000001
 40
0.0
 40
0.0
 40
0.0
 40
0.0
 40
0.2518608402
 40
0.3669198409
 40
0.4801607485
 40
0.5968811317
 40
0.7212208046
 40
0.8554310021
 40
1.0
 40
1.0
 40
1.0
 40
1.0
 10
-41.3904891533
 20
60.7014546305
 30
0.0
 10
-41.4503230481
 20
60.7360048073
 30
0.0
 10
-41.5505727128
 20
60.7708950029
 30
0.0
 10
-41.6833826743
 20
60.757478433
 30
0.0
 10
-41.7717749632
 20
60.7196966952
 30
0.0
 10
-41.8471618961
 20
60.6563813691
 30
0.0
 10
-41.9069715961
 20
60.5713923085
 30
0.0
 10
-41.9498035069
 20
60.4686649534
 30
0.0
 10
-41.9658984527
 20
60.3934593271
 30
0.0
 10
-41.9712094557
 20
60.3541570623
 30
0.0
  0
SPLINE
  5
438
100
AcDbEntity
  8
ASSI
100
AcDbSpline
 62
250
  6
CONTINUOUS
 70
0
 71
3
 72
12
 73
8
 74
0
 42
0.0000001
 43
0.0000001
 44
0.0000000001
 40
0.0
 40
0.0
 40
0.0
 40
0.0
 40
0.1206825646
 40
0.2475608226
 40
0.4446890308
 40
0.6422702548
 40
1.0
 40
1.0
 40
1.0
 40
1.0
 10
43.6883702707
 20
10.8953892949
 30
0.0
 10
43.694657933
 20
10.9369425743
 30
0.0
 10
43.7005261518
 20
11.0233631672
 30
0.0
 10
43.6888273863
 20
11.17815622
 30
0.0
 10
43.6446372412
 20
11.355916032
 30
0.0
 10
43.5338931052
 20
11.5936036779
 30
0.0
 10
43.3979183501
 20
11.7456804453
 30
0.0
 10
43.290039262
 20
11.8079788198
 30
0.0
  0
SPLINE
  5
439
100
AcDbEntity
  8
ASSI
100
AcDbSpline
 62
250
  6
CONTINUOUS
 70
0
 71
3
 72
9
 73
5
 74
0
 42
0.0000001
 43
0.0000001
 44
0.0000000001
 40
0.0
 40
0.0
 40
0.0
 40
0.0
 40
0.2449455102
 40
1.0
 40
1.0
 40
1.0
 40
1.0
 10
41.8720055897
 20
-7.4047768622
 30
0.0
 10
41.9393633075
 20
-5.904370202
 30
0.0
 10
42.3001262267
 20
0.2170739898
 30
0.0
 10
42.9957971234
 20
6.317761574
 30
0.0
 10
43.6883702707
 20
10.8953892949
 30
0.0
  0
SPLINE
  5
43A
100
AcDbEntity
  8
ASSI
100
AcDbSpline
 62
250
  6
CONTINUOUS
 70
0
 71
3
 72
10
 73
6
 74
0
 42
0.0000001
 43
0.0000001
 44
0.0000000001
 40
0.0
 40
0.0
 40
0.0
 40
0.0
 40
0.2280873426
 40
0.4753036476
 40
1.0
 40
1.0
 40
1.0
 40
1.0
 10
22.6216158759
 20
4.1395062993
 30
0.0
 10
22.6930319459
 20
4.0982725655
 30
0.0
 10
22.8330313673
 20
3.9965518591
 30
0.0
 10
23.0872576809
 20
3.7381479821
 30
0.0
 10
23.2381317584
 20
3.4977802775
 30
0.0
 10
23.3176536319
 20
3.3255482158
 30
0.0
  0
SPLINE
  5
43B
100
AcDbEntity
  8
ASSI
100
AcDbSpline
 62
250
  6
CONTINUOUS
 70
0
 71
3
 72
11
 73
7
 74
0
 42
0.0000001
 43
0.0000001
 44
0.0000000001
 40
0.0
 40
0.0
 40
0.0
 40
0.0
 40
0.2254759758
 40
0.4577382633
 40
0.7130530067
 40
1.0
 40
1.0
 40
1.0
 40
1.0
 10
-25.063237578
 20
31.2428430794
 30
0.0
 10
-25.0184969409
 20
31.2822011565
 30
0.0
 10
-24.9118081293
 20
31.3461651754
 30
0.0
 10
-24.7217587491
 20
31.3761089032
 30
0.0
 10
-24.5172310896
 20
31.3409123995
 30
0.0
 10
-24.385544926
 20
31.2808561408
 30
0.0
 10
-24.3198737659
 20
31.2429341035
 30
0.0
  0
SPLINE
  5
43C
100
AcDbEntity
  8
ASSI
100
AcDbSpline
 62
250
  6
CONTINUOUS
 70
0
 71
3
 72
12
 73
8
 74
0
 42
0.0000001
 43
0.0000001
 44
0.0000000001
 40
0.0
 40
0.0
 40
0.0
 40
0.0
 40
0.1071022731
 40
0.2146285857
 40
0.4417631463
 40
0.7010723291
 40
1.0
 40
1.0
 40
1.0
 40
1.0
 10
23.3282677845
 20
-33.7128202064
 30
0.0
 10
23.3084360871
 20
-33.7310932813
 30
0.0
 10
23.2648307452
 20
-33.7637812567
 30
0.0
 10
23.1632853431
 20
-33.8109471547
 30
0.0
 10
23.0110841507
 20
-33.8297667813
 30
0.0
 10
22.8151049942
 20
-33.7895036371
 30
0.0
 10
22.6867928199
 20
-33.7293550618
 30
0.0
 10
22.6216158759
 20
-33.6917142375
 30
0.0
  0
SPLINE
  5
43D
100
AcDbEntity
  8
ASSI
100
AcDbSpline
 62
250
  6
CONTINUOUS
 70
0
 71
3
 72
9
 73
5
 74
0
 42
0.0000001
 43
0.0000001
 44
0.0000000001
 40
0.0
 40
0.0
 40
0.0
 40
0.0
 40
0.243962173
 40
1.0
 40
1.0
 40
1.0
 40
1.0
 10
43.6883702707
 20
-60.8309172413
 30
0.0
 10
43.4509893097
 20
-59.5087922455
 30
0.0
 10
42.5731750093
 20
-54.0725317363
 30
0.0
 10
42.0678201351
 20
-48.5778663976
 30
0.0
 10
41.8720056004
 20
-44.4196975456
 30
0.0
  0
SPLINE
  5
43E
100
AcDbEntity
  8
ASSI
100
AcDbSpline
 62
250
  6
CONTINUOUS
 70
0
 71
3
 72
9
 73
5
 74
0
 42
0.0000001
 43
0.0000001
 44
0.0000000001
 40
0.0
 40
0.0
 40
0.0
 40
0.0
 40
0.2607204997
 40
1.0
 40
1.0
 40
1.0
 40
1.0
 10
43.290039262
 20
-61.0729055171
 30
0.0
 10
43.2970674112
 20
-61.07696371
 30
0.0
 10
43.3242587616
 20
-61.092113476
 30
0.0
 10
43.352417503
 20
-61.1055694423
 30
0.0
 10
43.3737445779
 20
-61.1142131817
 30
0.0
  0
SPLINE
  5
43F
100
AcDbEntity
  8
ASSI
100
AcDbSpline
 62
250
  6
CONTINUOUS
 70
0
 71
3
 72
15
 73
11
 74
0
 42
0.0000001
 43
0.0000001
 44
0.0000000001
 40
0.0
 40
0.0
 40
0.0
 40
0.0
 40
0.1487362475
 40
0.2766544839
 40
0.3876232344
 40
0.48990754
 40
0.5945789695
 40
0.7113437602
 40
0.8458466563
 40
1.0
 40
1.0
 40
1.0
 40
1.0
 10
43.3737445779
 20
-61.1142131817
 30
0.0
 10
43.3996023845
 20
-61.1246932003
 30
0.0
 10
43.4492902605
 20
-61.1407444443
 30
0.0
 10
43.5222791966
 20
-61.1484253529
 30
0.0
 10
43.5864014857
 20
-61.1367880277
 30
0.0
 10
43.6385197919
 20
-61.1047580189
 30
0.0
 10
43.67487206
 20
-61.0544237276
 30
0.0
 10
43.6948906965
 20
-60.9898250667
 30
0.0
 10
43.699667884
 20
-60.9134209948
 30
0.0
 10
43.6934790395
 20
-60.8593793938
 30
0.0
 10
43.6883702707
 20
-60.8309172413
 30
0.0
  0
SPLINE
  5
440
100
AcDbEntity
  8
ASSI
100
AcDbSpline
 62
250
  6
CONTINUOUS
 70
0
 71
3
 72
11
 73
7
 74
0
 42
0.0000001
 43
0.0000001
 44
0.0000000001
 40
0.0
 40
0.0
 40
0.0
 40
0.0
 40
0.2247952417
 40
0.4861559178
 40
0.7556589687
 40
1.0
 40
1.0
 40
1.0
 40
1.0
 10
-41.9712094557
 20
-11.372149474
 30
0.0
 10
-41.9588977532
 20
-11.4475162074
 30
0.0
 10
-41.9045641093
 20
-11.6058223668
 30
0.0
 10
-41.7733674949
 20
-11.827873245
 30
0.0
 10
-41.6007112984
 20
-12.028402087
 30
0.0
 10
-41.4623709658
 20
-12.1379213356
 30
0.0
 10
-41.3904891533
 20
-12.1794297064
 30
0.0
  0
SPLINE
  5
441
100
AcDbEntity
  8
ASSI
100
AcDbSpline
 62
250
  6
CONTINUOUS
 70
0
 71
3
 72
9
 73
5
 74
0
 42
0.0000001
 43
0.0000001
 44
0.0000000001
 40
0.0
 40
0.0
 40
0.0
 40
0.0
 40
0.5093318892
 40
1.0
 40
1.0
 40
1.0
 40
1.0
 10
-43.6069794899
 20
4.9347972568
 30
0.0
 10
-43.489614033
 20
2.1748367058
 30
0.0
 10
-43.1130613646
 20
-3.2389728828
 30
0.0
 10
-42.417730405
 20
-8.6218481274
 30
0.0
 10
-41.9913150007
 20
-11.2486916192
 30
0.0
  0
LINE
  5
442
100
AcDbEntity
  8
ASSI
100
AcDbLine
 62
250
  6
CONTINUOUS
 10
-41.9913150007
 20
-11.2486916192
 11
-41.9712094557
 21
-11.372149474
  0
SPLINE
  5
443
100
AcDbEntity
  8
ASSI
100
AcDbSpline
 62
250
  6
CONTINUOUS
 70
0
 71
3
 72
10
 73
6
 74
0
 42
0.0000001
 43
0.0000001
 44
0.0000000001
 40
0.0
 40
0.0
 40
0.0
 40
0.0
 40
0.2280186105
 40
0.4762904283
 40
1.0
 40
1.0
 40
1.0
 40
1.0
 10
-24.3198737659
 20
-6.5882864334
 30
0.0
 10
-24.3932993636
 20
-6.5458935118
 30
0.0
 10
-24.5382905586
 20
-6.4424108382
 30
0.0
 10
-24.8061596131
 20
-6.1834609277
 30
0.0
 10
-24.9723445275
 20
-5.9443900942
 30
0.0
 10
-25.063237578
 20
-5.7721714982
 30
0.0
  0
SPLINE
  5
444
100
AcDbEntity
  8
ASSI
100
AcDbSpline
 62
250
  6
CONTINUOUS
 70
0
 71
3
 72
9
 73
5
 74
0
 42
0.0000001
 43
0.0000001
 44
0.0000000001
 40
0.0
 40
0.0
 40
0.0
 40
0.0
 40
0.2457003809
 40
1.0
 40
1.0
 40
1.0
 40
1.0
 10
-24.5988633798
 20
-5.0153139966
 30
0.0
 10
-24.7313822076
 20
-2.0961225839
 30
0.0
 10
-25.131953559
 20
9.7910218023
 30
0.0
 10
-24.987394331
 20
21.6953312263
 30
0.0
 10
-24.5988639585
 20
30.6580544409
 30
0.0
  0
SPLINE
  5
445
100
AcDbEntity
  8
0
100
AcDbSpline
 62
250
  6
CONTINUOUS
 70
0
 71
3
 72
11
 73
7
 74
0
 42
0.0000001
 43
0.0000001
 44
0.0000000001
 40
0.0
 40
0.0
 40
0.0
 40
0.0
 40
0.25
 40
0.5
 40
0.75
 40
1.0
 40
1.0
 40
1.0
 40
1.0
 10
-24.4028353326
 20
35.6365135424
 30
0.0
 10
-24.3969909616
 20
35.7191324748
 30
0.0
 10
-24.3852836124
 20
35.8838478068
 30
0.0
 10
-24.3678342326
 20
36.1340560026
 30
0.0
 10
-24.3499940988
 20
36.3732910056
 30
0.0
 10
-24.3381751056
 20
36.5348711396
 30
0.0
 10
-24.3322563053
 20
36.6153999401
 30
0.0
  0
SPLINE
  5
446
100
AcDbEntity
  8
0
100
AcDbSpline
 62
250
  6
CONTINUOUS
 70
0
 71
3
 72
16
 73
12
 74
0
 42
0.0000001
 43
0.0000001
 44
0.0000000001
 40
0.0
 40
0.0
 40
0.0
 40
0.0
 40
0.25
 40
0.5
 40
0.5625
 40
0.625
 40
0.65625
 40
0.6875
 40
0.75
 40
0.875
 40
1.0
 40
1.0
 40
1.0
 40
1.0
 10
-23.6843773034
 20
33.7263091494
 30
0.0
 10
-23.6766587148
 20
33.8497293113
 30
0.0
 10
-23.6614042518
 20
34.0965418637
 30
0.0
 10
-23.6434207668
 20
34.3743309556
 30
0.0
 10
-23.6312823747
 20
34.5600006412
 30
0.0
 10
-23.6262526196
 20
34.6367531021
 30
0.0
 10
-23.6221767759
 20
34.6995711546
 30
0.0
 10
-23.6182867638
 20
34.7572127985
 30
0.0
 10
-23.611565429
 20
34.8556792037
 30
0.0
 10
-23.6019181609
 20
34.9976120609
 30
0.0
 10
-23.5942141709
 20
35.1107723461
 30
0.0
 10
-23.5903604478
 20
35.1674007388
 30
0.0
  0
SPLINE
  5
447
100
AcDbEntity
  8
0
100
AcDbSpline
 62
250
  6
CONTINUOUS
 70
0
 71
3
 72
13
 73
9
 74
0
 42
0.0000001
 43
0.0000001
 44
0.0000000001
 40
0.0
 40
0.0
 40
0.0
 40
0.0
 40
0.25
 40
0.375
 40
0.5
 40
0.625
 40
0.75
 40
1.0
 40
1.0
 40
1.0
 40
1.0
 10
-24.5534855746
 20
33.2245875946
 30
0.0
 10
-24.5488124691
 20
33.3066338138
 30
0.0
 10
-24.5418091305
 20
33.4298590547
 30
0.0
 10
-24.5324460674
 20
33.5935357273
 30
0.0
 10
-24.5254869656
 20
33.7178523534
 30
0.0
 10
-24.5182877207
 20
33.8362443172
 30
0.0
 10
-24.5087729883
 20
33.9961790978
 30
0.0
 10
-24.5016179803
 20
34.1156624468
 30
0.0
 10
-24.496852188
 20
34.1954219542
 30
0.0
  0
SPLINE
  5
448
100
AcDbEntity
  8
0
100
AcDbSpline
 62
250
  6
CONTINUOUS
 70
0
 71
3
 72
13
 73
9
 74
0
 42
0.0000001
 43
0.0000001
 44
0.0000000001
 40
0.0
 40
0.0
 40
0.0
 40
0.0
 40
0.25
 40
0.375
 40
0.5
 40
0.625
 40
0.75
 40
1.0
 40
1.0
 40
1.0
 40
1.0
 10
-25.6979013395
 20
34.8888926925
 30
0.0
 10
-25.7028072755
 20
34.8067307794
 30
0.0
 10
-25.7101916097
 20
34.6833162211
 30
0.0
 10
-25.7199356682
 20
34.5194502311
 30
0.0
 10
-25.7274980128
 20
34.3948338525
 30
0.0
 10
-25.7340940149
 20
34.2767416412
 30
0.0
 10
-25.7432277519
 20
34.1169961779
 30
0.0
 10
-25.7500017644
 20
33.9977021463
 30
0.0
 10
-25.7545347262
 20
33.9180583328
 30
0.0
  0
SPLINE
  5
449
100
AcDbEntity
  8
0
100
AcDbSpline
 62
250
  6
CONTINUOUS
 70
0
 71
3
 72
17
 73
13
 74
0
 42
0.0000001
 43
0.0000001
 44
0.0000000001
 40
0.0
 40
0.0
 40
0.0
 40
0.0
 40
0.25
 40
0.375
 40
0.5
 40
0.5625
 40
0.625
 40
0.65625
 40
0.6875
 40
0.75
 40
0.875
 40
1.0
 40
1.0
 40
1.0
 40
1.0
 10
-26.4163593686
 20
36.7990970854
 30
0.0
 10
-26.4247665269
 20
36.675341589
 30
0.0
 10
-26.4374274771
 20
36.4896980242
 30
0.0
 10
-26.4541078926
 20
36.2422145522
 30
0.0
 10
-26.4640528414
 20
36.0878874056
 30
0.0
 10
-26.4721332575
 20
35.9640985426
 30
0.0
 10
-26.4771125304
 20
35.8873733558
 30
0.0
 10
-26.4812352037
 20
35.8245321465
 30
0.0
 10
-26.4848576468
 20
35.7670208948
 30
0.0
 10
-26.49096478
 20
35.6688535533
 30
0.0
 10
-26.4998114361
 20
35.527310626
 30
0.0
 10
-26.5068515252
 20
35.4144736535
 30
0.0
 10
-26.5103762242
 20
35.3580054961
 30
0.0
  0
SPLINE
  5
44A
100
AcDbEntity
  8
0
100
AcDbSpline
 62
250
  6
CONTINUOUS
 70
0
 71
3
 72
13
 73
9
 74
0
 42
0.0000001
 43
0.0000001
 44
0.0000000001
 40
0.0
 40
0.0
 40
0.0
 40
0.0
 40
0.25
 40
0.375
 40
0.5
 40
0.625
 40
0.75
 40
1.0
 40
1.0
 40
1.0
 40
1.0
 10
-25.5333054567
 20
37.3088706785
 30
0.0
 10
-25.5393829783
 20
37.2261405138
 30
0.0
 10
-25.5485259792
 20
37.1018875899
 30
0.0
 10
-25.5606097729
 20
36.9368477327
 30
0.0
 10
-25.5699398037
 20
36.8114910695
 30
0.0
 10
-25.5782545297
 20
36.6921261332
 30
0.0
 10
-25.5896970784
 20
36.5308705245
 30
0.0
 10
-25.5981988343
 20
36.4104018491
 30
0.0
 10
-25.6038844839
 20
36.3299842807
 30
0.0
  0
SPLINE
  5
44B
100
AcDbEntity
  8
0
100
AcDbSpline
 62
250
  6
CONTINUOUS
 70
0
 71
3
 72
11
 73
7
 74
0
 42
0.0000001
 43
0.0000001
 44
0.0000000001
 40
0.0
 40
0.0
 40
0.0
 40
0.0
 40
0.25
 40
0.5
 40
0.75
 40
1.0
 40
1.0
 40
1.0
 40
1.0
 10
-24.4793561014
 20
35.5923392937
 30
0.0
 10
-24.4735528268
 20
35.6749385242
 30
0.0
 10
-24.4619275513
 20
35.8396125078
 30
0.0
 10
-24.4446019965
 20
36.0897703484
 30
0.0
 10
-24.4268831871
 20
36.3289141607
 30
0.0
 10
-24.4151455532
 20
36.4904412791
 30
0.0
 10
-24.409267373
 20
36.5709425995
 30
0.0
  0
SPLINE
  5
44C
100
AcDbEntity
  8
0
100
AcDbSpline
 62
250
  6
CONTINUOUS
 70
0
 71
3
 72
24
 73
20
 74
0
 42
0.0000001
 43
0.0000001
 44
0.0000000001
 40
0.0
 40
0.0
 40
0.0
 40
0.0
 40
0.25
 40
0.375
 40
0.4375
 40
0.5
 40
0.5625
 40
0.59375
 40
0.625
 40
0.640625
 40
0.65625
 40
0.6640625
 40
0.671875
 40
0.6875
 40
0.71875
 40
0.75
 40
0.8125
 40
0.875
 40
1.0
 40
1.0
 40
1.0
 40
1.0
 10
-23.7498370396
 20
33.8516750248
 30
0.0
 10
-23.7420568054
 20
33.9751254261
 30
0.0
 10
-23.7304215309
 20
34.1602832607
 30
0.0
 10
-23.716724275
 20
34.3763629198
 30
0.0
 10
-23.708533295
 20
34.5000114699
 30
0.0
 10
-23.7024383449
 20
34.5927333286
 30
0.0
 10
-23.6973499272
 20
34.6699773658
 30
0.0
 10
-23.6932773528
 20
34.7318379006
 30
0.0
 10
-23.6907412407
 20
34.7703495614
 30
0.0
 10
-23.6886906185
 20
34.8015053801
 30
0.0
 10
-23.6874586876
 20
34.8201871284
 30
0.0
 10
-23.6863592768
 20
34.8369434366
 30
0.0
 10
-23.6856755641
 20
34.8470886174
 30
0.0
 10
-23.6846721765
 20
34.8617715337
 30
0.0
 10
-23.6831380107
 20
34.8843495026
 30
0.0
 10
-23.6807396531
 20
34.9195787531
 30
0.0
 10
-23.677722418
 20
34.963922068
 30
0.0
 10
-23.6729056702
 20
35.0346991603
 30
0.0
 10
-23.669290673
 20
35.0878207271
 30
0.0
 10
-23.6668812163
 20
35.1232264945
 30
0.0
  0
SPLINE
  5
44D
100
AcDbEntity
  8
0
100
AcDbSpline
 62
250
  6
CONTINUOUS
 70
0
 71
3
 72
13
 73
9
 74
0
 42
0.0000001
 43
0.0000001
 44
0.0000000001
 40
0.0
 40
0.0
 40
0.0
 40
0.0
 40
0.25
 40
0.375
 40
0.5
 40
0.625
 40
0.75
 40
1.0
 40
1.0
 40
1.0
 40
1.0
 10
-24.6194337179
 20
33.3496714699
 30
0.0
 10
-24.6147195148
 20
33.431738177
 30
0.0
 10
-24.6076544757
 20
33.554993739
 30
0.0
 10
-24.5982093618
 20
33.7187124835
 30
0.0
 10
-24.5911881807
 20
33.8430565537
 30
0.0
 10
-24.583928913
 20
33.9614915789
 30
0.0
 10
-24.5743334286
 20
34.1214782949
 30
0.0
 10
-24.567118019
 20
34.2410018284
 30
0.0
 10
-24.5623119229
 20
34.3207878515
 30
0.0
  0
SPLINE
  5
44E
100
AcDbEntity
  8
0
100
AcDbSpline
 62
250
  6
CONTINUOUS
 70
0
 71
3
 72
13
 73
9
 74
0
 42
0.0000001
 43
0.0000001
 44
0.0000000001
 40
0.0
 40
0.0
 40
0.0
 40
0.0
 40
0.25
 40
0.375
 40
0.5
 40
0.625
 40
0.75
 40
1.0
 40
1.0
 40
1.0
 40
1.0
 10
-25.6220613418
 20
34.9326738725
 30
0.0
 10
-25.6270083855
 20
34.850491628
 30
0.0
 10
-25.6344544365
 20
34.727047005
 30
0.0
 10
-25.6442805623
 20
34.5631391994
 30
0.0
 10
-25.6519050123
 20
34.4384957825
 30
0.0
 10
-25.6585610111
 20
34.320360104
 30
0.0
 10
-25.6677754836
 20
34.160562449
 30
0.0
 10
-25.6746098813
 20
34.0412279766
 30
0.0
 10
-25.6791831368
 20
33.9615574909
 30
0.0
  0
SPLINE
  5
44F
100
AcDbEntity
  8
0
100
AcDbSpline
 62
250
  6
CONTINUOUS
 70
0
 71
3
 72
24
 73
20
 74
0
 42
0.0000001
 43
0.0000001
 44
0.0000000001
 40
0.0
 40
0.0
 40
0.0
 40
0.0
 40
0.25
 40
0.375
 40
0.4375
 40
0.5
 40
0.5625
 40
0.59375
 40
0.625
 40
0.640625
 40
0.65625
 40
0.6640625
 40
0.671875
 40
0.6875
 40
0.71875
 40
0.75
 40
0.8125
 40
0.875
 40
1.0
 40
1.0
 40
1.0
 40
1.0
 10
-26.3515804036
 20
36.6733381413
 30
0.0
 10
-26.3599258994
 20
36.5496124566
 30
0.0
 10
-26.3724791277
 20
36.3640075767
 30
0.0
 10
-26.3870021146
 20
36.147525785
 30
0.0
 10
-26.3949366106
 20
36.0240021431
 30
0.0
 10
-26.400936975
 20
35.9313263479
 30
0.0
 10
-26.4059241179
 20
35.8541316317
 30
0.0
 10
-26.4099206719
 20
35.792308119
 30
0.0
 10
-26.4124079995
 20
35.7538202163
 30
0.0
 10
-26.4144213962
 20
35.7226825265
 30
0.0
 10
-26.415626192
 20
35.704013993
 30
0.0
 10
-26.4167127302
 20
35.6872639539
 30
0.0
 10
-26.417351324
 20
35.677140746
 30
0.0
 10
-26.4182607744
 20
35.6625035773
 30
0.0
 10
-26.4196685596
 20
35.639987156
 30
0.0
 10
-26.4218603405
 20
35.6048585087
 30
0.0
 10
-26.4246208509
 20
35.5606402192
 30
0.0
 10
-26.4290259992
 20
35.4900635766
 30
0.0
 10
-26.4323324858
 20
35.4370922551
 30
0.0
 10
-26.4345362268
 20
35.4017866717
 30
0.0
  0
SPLINE
  5
450
100
AcDbEntity
  8
0
100
AcDbSpline
 62
250
  6
CONTINUOUS
 70
0
 71
3
 72
13
 73
9
 74
0
 42
0.0000001
 43
0.0000001
 44
0.0000000001
 40
0.0
 40
0.0
 40
0.0
 40
0.0
 40
0.25
 40
0.375
 40
0.5
 40
0.625
 40
0.75
 40
1.0
 40
1.0
 40
1.0
 40
1.0
 10
-25.4690167905
 20
37.1828286419
 30
0.0
 10
-25.4750532033
 20
37.1001180227
 30
0.0
 10
-25.4841345068
 20
36.9758938651
 30
0.0
 10
-25.4961361741
 20
36.8108945697
 30
0.0
 10
-25.5054042683
 20
36.6855628113
 30
0.0
 10
-25.5136583562
 20
36.5662437433
 30
0.0
 10
-25.5250195984
 20
36.4050419367
 30
0.0
 10
-25.533460477
 20
36.2846152678
 30
0.0
 10
-25.5391055189
 20
36.2042253361
 30
0.0
  0
SPLINE
  5
451
100
AcDbEntity
  8
0
100
AcDbSpline
 62
250
  6
CONTINUOUS
 70
0
 71
3
 72
11
 73
7
 74
0
 42
0.0000001
 43
0.0000001
 44
0.0000000001
 40
0.0
 40
0.0
 40
0.0
 40
0.0
 40
0.25
 40
0.5
 40
0.75
 40
1.0
 40
1.0
 40
1.0
 40
1.0
 10
-24.5558342764
 20
35.5481896381
 30
0.0
 10
-24.5500720983
 20
35.6307691381
 30
0.0
 10
-24.5385288959
 20
35.795401698
 30
0.0
 10
-24.5213271691
 20
36.0455091791
 30
0.0
 10
-24.5037296735
 20
36.2845614154
 30
0.0
 10
-24.4920733943
 20
36.4460353339
 30
0.0
 10
-24.4862358316
 20
36.526509073
 30
0.0
  0
SPLINE
  5
452
100
AcDbEntity
  8
0
100
AcDbSpline
 62
250
  6
CONTINUOUS
 70
0
 71
3
 72
23
 73
19
 74
0
 42
0.0000001
 43
0.0000001
 44
0.0000000001
 40
0.0
 40
0.0
 40
0.0
 40
0.0
 40
0.125
 40
0.25
 40
0.3125
 40
0.375
 40
0.4375
 40
0.46875
 40
0.484375
 40
0.5
 40
0.515625
 40
0.53125
 40
0.5625
 40
0.625
 40
0.6875
 40
0.75
 40
0.875
 40
1.0
 40
1.0
 40
1.0
 40
1.0
 10
-23.8152549788
 20
33.9770658499
 30
0.0
 10
-23.8126410189
 20
34.0182260491
 30
0.0
 10
-23.8074129338
 20
34.1005485067
 30
0.0
 10
-23.8008786535
 20
34.2034412834
 30
0.0
 10
-23.7956494946
 20
34.2857771249
 30
0.0
 10
-23.7917323338
 20
34.3474703228
 30
0.0
 10
-23.7884530615
 20
34.3990679233
 30
0.0
 10
-23.7861869513
 20
34.4348200528
 30
0.0
 10
-23.7848461563
 20
34.4558216162
 30
0.0
 10
-23.7839697901
 20
34.4699620894
 30
0.0
 10
-23.7825994413
 20
34.4902594724
 30
0.0
 10
-23.7809446162
 20
34.5151750507
 30
0.0
 10
-23.7779683915
 20
34.559777919
 30
0.0
 10
-23.7737586137
 20
34.6229731726
 30
0.0
 10
-23.7686889145
 20
34.6990313996
 30
0.0
 10
-23.7619355933
 20
34.8003641247
 30
0.0
 10
-23.7534917735
 20
34.9270570562
 30
0.0
 10
-23.7467373784
 20
35.0284031651
 30
0.0
 10
-23.7433600983
 20
35.0790772492
 30
0.0
  0
SPLINE
  5
453
100
AcDbEntity
  8
0
100
AcDbSpline
 62
250
  6
CONTINUOUS
 70
0
 71
3
 72
13
 73
9
 74
0
 42
0.0000001
 43
0.0000001
 44
0.0000000001
 40
0.0
 40
0.0
 40
0.0
 40
0.0
 40
0.25
 40
0.375
 40
0.5
 40
0.625
 40
0.75
 40
1.0
 40
1.0
 40
1.0
 40
1.0
 10
-24.685339371
 20
33.4747806949
 30
0.0
 10
-24.68058407
 20
33.5568678617
 30
0.0
 10
-24.6734573299
 20
33.6801537079
 30
0.0
 10
-24.6639301642
 20
33.8439144524
 30
0.0
 10
-24.6568469039
 20
33.9682859699
 30
0.0
 10
-24.6495276104
 20
34.0867638428
 30
0.0
 10
-24.639851371
 20
34.2468022855
 30
0.0
 10
-24.6325755572
 20
34.3663658297
 30
0.0
 10
-24.6277291557
 20
34.4461782565
 30
0.0
  0
SPLINE
  5
454
100
AcDbEntity
  8
0
100
AcDbSpline
 62
250
  6
CONTINUOUS
 70
0
 71
3
 72
13
 73
9
 74
0
 42
0.0000001
 43
0.0000001
 44
0.0000000001
 40
0.0
 40
0.0
 40
0.0
 40
0.0
 40
0.25
 40
0.375
 40
0.5
 40
0.625
 40
0.75
 40
1.0
 40
1.0
 40
1.0
 40
1.0
 10
-25.54617884
 20
34.9764795938
 30
0.0
 10
-25.5511669913
 20
34.8942770464
 30
0.0
 10
-25.5586747592
 20
34.7708023959
 30
0.0
 10
-25.5685829527
 20
34.6068528469
 30
0.0
 10
-25.576269507
 20
34.482182389
 30
0.0
 10
-25.5829855066
 20
34.3640034565
 30
0.0
 10
-25.5922807181
 20
34.2041538182
 30
0.0
 10
-25.5991755041
 20
34.0847790784
 30
0.0
 10
-25.6037890553
 20
34.0050820321
 30
0.0
  0
SPLINE
  5
455
100
AcDbEntity
  8
0
100
AcDbSpline
 62
250
  6
CONTINUOUS
 70
0
 71
3
 72
23
 73
19
 74
0
 42
0.0000001
 43
0.0000001
 44
0.0000000001
 40
0.0
 40
0.0
 40
0.0
 40
0.0
 40
0.125
 40
0.25
 40
0.3125
 40
0.375
 40
0.4375
 40
0.46875
 40
0.484375
 40
0.5
 40
0.515625
 40
0.53125
 40
0.5625
 40
0.625
 40
0.6875
 40
0.75
 40
0.875
 40
1.0
 40
1.0
 40
1.0
 40
1.0
 10
-26.2867581377
 20
36.547603382
 30
0.0
 10
-26.2895194155
 20
36.5063714386
 30
0.0
 10
-26.2950420725
 20
36.4239055239
 30
0.0
 10
-26.3019448866
 20
36.3208332704
 30
0.0
 10
-26.307468203
 20
36.2383541736
 30
0.0
 10
-26.3116077993
 20
36.1765526492
 30
0.0
 10
-26.3150666556
 20
36.1248675908
 30
0.0
 10
-26.3174698152
 20
36.089048718
 30
0.0
 10
-26.3188712168
 20
36.0680176391
 30
0.0
 10
-26.3198429197
 20
36.0538307367
 30
0.0
 10
-26.3211179318
 20
36.0335797828
 30
0.0
 10
-26.3227121502
 20
36.0086937201
 30
0.0
 10
-26.3255513256
 20
35.9641575951
 30
0.0
 10
-26.3295815194
 20
35.9010497993
 30
0.0
 10
-26.3344287831
 20
35.8250998989
 30
0.0
 10
-26.3408879468
 20
35.7239104292
 30
0.0
 10
-26.3489632327
 20
35.5973969744
 30
0.0
 10
-26.3554230558
 20
35.4961943227
 30
0.0
 10
-26.358653018
 20
35.4455919828
 30
0.0
  0
SPLINE
  5
456
100
AcDbEntity
  8
0
100
AcDbSpline
 62
250
  6
CONTINUOUS
 70
0
 71
3
 72
13
 73
9
 74
0
 42
0.0000001
 43
0.0000001
 44
0.0000000001
 40
0.0
 40
0.0
 40
0.0
 40
0.0
 40
0.25
 40
0.375
 40
0.5
 40
0.625
 40
0.75
 40
1.0
 40
1.0
 40
1.0
 40
1.0
 10
-25.4046855175
 20
37.0568103895
 30
0.0
 10
-25.4106808211
 20
36.9741193445
 30
0.0
 10
-25.4197004265
 20
36.8499239916
 30
0.0
 10
-25.4316199672
 20
36.684965329
 30
0.0
 10
-25.4408261225
 20
36.559658479
 30
0.0
 10
-25.4490195783
 20
36.4403854702
 30
0.0
 10
-25.4602995193
 20
36.2792376546
 30
0.0
 10
-25.468679525
 20
36.1588531488
 30
0.0
 10
-25.4742839622
 20
36.0784909547
 30
0.0
  0
SPLINE
  5
457
100
AcDbEntity
  8
0
100
AcDbSpline
 62
250
  6
CONTINUOUS
 70
0
 71
3
 72
22
 73
18
 74
0
 42
0.0000001
 43
0.0000001
 44
0.0000000001
 40
0.0
 40
0.0
 40
0.0
 40
0.0
 40
0.25
 40
0.375
 40
0.5
 40
0.5625
 40
0.625
 40
0.6875
 40
0.75
 40
0.78125
 40
0.796875
 40
0.8125
 40
0.828125
 40
0.84375
 40
0.875
 40
0.9375
 40
1.0
 40
1.0
 40
1.0
 40
1.0
 10
-17.5285121165
 20
32.1542059947
 30
0.0
 10
-17.5430892891
 20
31.947674838
 30
0.0
 10
-17.5649672762
 20
31.6378709516
 30
0.0
 10
-17.5930108002
 20
31.2253466701
 30
0.0
 10
-17.6097413955
 20
30.967891869
 30
0.0
 10
-17.623162473
 20
30.761943208
 30
0.0
 10
-17.6330571822
 20
30.6074741903
 30
0.0
 10
-17.6425391746
 20
30.4535556729
 30
0.0
 10
-17.6506106247
 20
30.3241215121
 30
0.0
 10
-17.6560846448
 20
30.235731088
 30
0.0
 10
-17.6594634251
 20
30.1817783415
 30
0.0
 10
-17.661295488
 20
30.1510131545
 30
0.0
 10
-17.6631365368
 20
30.1201245604
 30
0.0
 10
-17.6655881341
 20
30.078982815
 30
0.0
 10
-17.6698798904
 20
30.0069646955
 30
0.0
 10
-17.6760102018
 20
29.9040922281
 30
0.0
 10
-17.6809146853
 20
29.8217910357
 30
0.0
 10
-17.6833668977
 20
29.7806408419
 30
0.0
  0
SPLINE
  5
458
100
AcDbEntity
  8
0
100
AcDbSpline
 62
250
  6
CONTINUOUS
 70
0
 71
3
 72
22
 73
18
 74
0
 42
0.0000001
 43
0.0000001
 44
0.0000000001
 40
0.0
 40
0.0
 40
0.0
 40
0.0
 40
0.25
 40
0.375
 40
0.5
 40
0.5625
 40
0.625
 40
0.6875
 40
0.75
 40
0.78125
 40
0.796875
 40
0.8125
 40
0.828125
 40
0.84375
 40
0.875
 40
0.9375
 40
1.0
 40
1.0
 40
1.0
 40
1.0
 10
-19.0357109277
 20
33.0244436987
 30
0.0
 10
-19.0502881003
 20
32.8179125419
 30
0.0
 10
-19.0721660874
 20
32.5081086555
 30
0.0
 10
-19.1002096114
 20
32.0955843741
 30
0.0
 10
-19.1169402067
 20
31.8381295729
 30
0.0
 10
-19.1303612842
 20
31.6321809119
 30
0.0
 10
-19.1402559934
 20
31.4777118942
 30
0.0
 10
-19.1497379858
 20
31.3237933769
 30
0.0
 10
-19.1578094359
 20
31.1943592161
 30
0.0
 10
-19.163283456
 20
31.105968792
 30
0.0
 10
-19.1666622363
 20
31.0520160455
 30
0.0
 10
-19.1684942992
 20
31.0212508585
 30
0.0
 10
-19.170335348
 20
30.9903622644
 30
0.0
 10
-19.1727869453
 20
30.9492205189
 30
0.0
 10
-19.1770787016
 20
30.8772023994
 30
0.0
 10
-19.183209013
 20
30.774329932
 30
0.0
 10
-19.1881134965
 20
30.6920287397
 30
0.0
 10
-19.1905657089
 20
30.6508785458
 30
0.0
  0
SPLINE
  5
459
100
AcDbEntity
  8
0
100
AcDbSpline
 62
250
  6
CONTINUOUS
 70
0
 71
3
 72
22
 73
18
 74
0
 42
0.0000001
 43
0.0000001
 44
0.0000000001
 40
0.0
 40
0.0
 40
0.0
 40
0.0
 40
0.25
 40
0.375
 40
0.5
 40
0.5625
 40
0.625
 40
0.6875
 40
0.75
 40
0.78125
 40
0.796875
 40
0.8125
 40
0.828125
 40
0.84375
 40
0.875
 40
0.9375
 40
1.0
 40
1.0
 40
1.0
 40
1.0
 10
-21.1552104713
 20
34.2482161716
 30
0.0
 10
-21.1697876439
 20
34.0416850148
 30
0.0
 10
-21.191665631
 20
33.7318811284
 30
0.0
 10
-21.219709155
 20
33.319356847
 30
0.0
 10
-21.2364397503
 20
33.0619020458
 30
0.0
 10
-21.2498608278
 20
32.8559533848
 30
0.0
 10
-21.259755537
 20
32.7014843671
 30
0.0
 10
-21.2692375294
 20
32.5475658498
 30
0.0
 10
-21.2773089795
 20
32.418131689
 30
0.0
 10
-21.2827829996
 20
32.3297412649
 30
0.0
 10
-21.2861617799
 20
32.2757885184
 30
0.0
 10
-21.2879938428
 20
32.2450233314
 30
0.0
 10
-21.2898348916
 20
32.2141347373
 30
0.0
 10
-21.2922864889
 20
32.1729929918
 30
0.0
 10
-21.2965782452
 20
32.1009748723
 30
0.0
 10
-21.3027085566
 20
31.9981024049
 30
0.0
 10
-21.3076130401
 20
31.9158012126
 30
0.0
 10
-21.3100652525
 20
31.8746510187
 30
0.0
  0
SPLINE
  5
45A
100
AcDbEntity
  8
0
100
AcDbSpline
 62
250
  6
CONTINUOUS
 70
0
 71
3
 72
22
 73
18
 74
0
 42
0.0000001
 43
0.0000001
 44
0.0000000001
 40
0.0
 40
0.0
 40
0.0
 40
0.0
 40
0.25
 40
0.375
 40
0.5
 40
0.5625
 40
0.625
 40
0.6875
 40
0.75
 40
0.78125
 40
0.796875
 40
0.8125
 40
0.828125
 40
0.84375
 40
0.875
 40
0.9375
 40
1.0
 40
1.0
 40
1.0
 40
1.0
 10
-20.16611092
 20
33.677122487
 30
0.0
 10
-20.1806880926
 20
33.4705913302
 30
0.0
 10
-20.2025660797
 20
33.1607874438
 30
0.0
 10
-20.2306096037
 20
32.7482631624
 30
0.0
 10
-20.247340199
 20
32.4908083612
 30
0.0
 10
-20.2607612765
 20
32.2848597002
 30
0.0
 10
-20.2706559857
 20
32.1303906825
 30
0.0
 10
-20.2801379781
 20
31.9764721652
 30
0.0
 10
-20.2882094282
 20
31.8470380044
 30
0.0
 10
-20.2936834483
 20
31.7586475803
 30
0.0
 10
-20.2970622286
 20
31.7046948338
 30
0.0
 10
-20.2988942915
 20
31.6739296468
 30
0.0
 10
-20.3007353403
 20
31.6430410527
 30
0.0
 10
-20.3031869376
 20
31.6018993072
 30
0.0
 10
-20.3074786938
 20
31.5298811877
 30
0.0
 10
-20.3136090053
 20
31.4270087203
 30
0.0
 10
-20.3185134888
 20
31.344707528
 30
0.0
 10
-20.3209657012
 20
31.3035573341
 30
0.0
  0
ELLIPSE
  5
45B
100
AcDbEntity
  8
RACCORDO
100
AcDbEllipse
 62
7
  6
CONTINUOUS
 10
45.2349068415
 20
-59.531447683
 30
0.0
 11
-0.5013954353
 21
0.868386877
 31
0.0
 40
0.5757524875
 41
-3.1936911674
 42
-2.3576120761
  0
ELLIPSE
  5
45C
100
AcDbEntity
  8
RACCORDO
100
AcDbEllipse
 62
7
  6
CONTINUOUS
 10
45.2349068415
 20
12.3156957153
 30
0.0
 11
-0.5000243598
 21
0.8660113392
 31
0.0
 40
0.5789151826
 41
-2.3548735497
 42
-0.7868162787
  0
ELLIPSE
  5
45D
100
AcDbEntity
  8
0
100
AcDbEllipse
 62
7
  6
CONTINUOUS
 10
117.7120702488
 20
55.2212352151
 30
0.0
 11
114.8996317544
 21
126.3505868295
 31
0.0
 40
0.3765254089
 41
-3.7743605251
 42
-3.7575864559
  0
ELLIPSE
  5
45E
100
AcDbEntity
  8
0
100
AcDbEllipse
 62
7
  6
CONTINUOUS
 10
111.5213474795
 20
58.7956809541
 30
0.0
 11
34.8790515577
 21
168.2218372011
 31
0.0
 40
0.7002280922
 41
-4.083553027
 42
-4.0720093448
  0
ELLIPSE
  5
45F
100
AcDbEntity
  8
0
100
AcDbEllipse
 62
7
  6
CONTINUOUS
 10
116.8979031082
 20
55.6913251182
 30
0.0
 11
70.634700218
 21
152.2499801326
 31
0.0
 40
0.6282888553
 41
-3.9123018102
 42
-3.8955277411
  0
ELLIPSE
  5
460
100
AcDbEntity
  8
0
100
AcDbEllipse
 62
7
  6
CONTINUOUS
 10
113.334518629
 20
57.7487786567
 30
0.0
 11
11.1145125674
 21
175.7752122584
 31
0.0
 40
0.7158559188
 41
-4.1973507117
 42
-4.188040463
  0
ELLIPSE
  5
461
100
AcDbEntity
  8
0
100
AcDbEllipse
 62
7
  6
CONTINUOUS
 10
116.9681367907
 20
55.6507730701
 30
0.0
 11
91.793176838
 21
140.2511436908
 31
0.0
 40
0.5363054271
 41
-3.8203221232
 42
-3.8093664661
  0
ELLIPSE
  5
462
100
AcDbEntity
  8
0
100
AcDbEllipse
 62
7
  6
CONTINUOUS
 10
120.8380036204
 20
53.4163604635
 30
0.0
 11
119.630873242
 21
123.5739552196
 31
0.0
 40
0.3382731367
 41
-3.7657029519
 42
-3.7547929514
  0
ELLIPSE
  5
463
100
AcDbEntity
  8
0
100
AcDbEllipse
 62
7
  6
CONTINUOUS
 10
121.3906108845
 20
53.097291955
 30
0.0
 11
111.5409348807
 21
128.3466174189
 31
0.0
 40
0.4029729773
 41
-3.7734299492
 42
-3.7672052666
  0
ELLIPSE
  5
464
100
AcDbEntity
  8
0
100
AcDbEllipse
 62
7
  6
CONTINUOUS
 10
116.5305624813
 20
55.9034229922
 30
0.0
 11
27.6951435486
 21
170.7397539322
 31
0.0
 40
0.7069483398
 41
-4.1183397783
 42
-4.1015657091
  0
ELLIPSE
  5
465
100
AcDbEntity
  8
0
100
AcDbEllipse
 62
7
  6
CONTINUOUS
 10
121.4759759009
 20
53.0480032644
 30
0.0
 11
112.236268736
 21
127.9318388222
 31
0.0
 40
0.3975597956
 41
-3.7637364601
 42
-3.7603859388
  0
ELLIPSE
  5
466
100
AcDbEntity
  8
DRAFT
100
AcDbEllipse
 62
7
  6
CONTINUOUS
 10
41.7345508215
 20
-19.1051013256
 30
0.0
 11
5.1478346794
 21
0.9575482268
 31
0.0
 40
0.6665647798
 41
-0.7006982462
 42
-0.2750682551
  0
ELLIPSE
  5
467
100
AcDbEntity
  8
0
100
AcDbEllipse
 62
7
  6
CONTINUOUS
 10
-21.973845999
 20
-4.1519914132
 30
0.0
 11
-0.4000194878
 21
0.6928090714
 31
0.0
 40
0.5789151826
 41
0.7867191038
 42
2.3547763749
  0
ELLIPSE
  5
468
100
AcDbEntity
  8
RACCORDO
100
AcDbEllipse
 62
7
  6
CONTINUOUS
 10
-39.6159661106
 20
61.3075263266
 30
0.0
 11
-0.5013954353
 21
0.868386877
 31
0.0
 40
0.5757524875
 41
-0.7840766935
 42
0.0520985859
  0
ELLIPSE
  5
469
100
AcDbEntity
  8
0
100
AcDbEllipse
 62
7
  6
CONTINUOUS
 10
5.6404037409
 20
-19.568428912
 30
0.0
 11
-0.0054673646
 21
0.3559778749
 31
0.0
 40
0.0145741356
 41
-3.1313276788
 42
-2.3823999735
  0
ELLIPSE
  5
46A
100
AcDbEntity
  8
0
100
AcDbEllipse
 62
7
  6
CONTINUOUS
 10
121.3275752009
 20
53.1336879686
 30
0.0
 11
114.1738075272
 21
126.6060927015
 31
0.0
 40
0.3814884295
 41
-3.7738993826
 42
-3.7580834622
  0
ELLIPSE
  5
46B
100
AcDbEntity
  8
0
100
AcDbEllipse
 62
7
  6
CONTINUOUS
 10
116.587379992
 20
55.8706172737
 30
0.0
 11
39.144967187
 21
166.622327116
 31
0.0
 40
0.6952787603
 41
-4.0582033802
 42
-4.0519786976
  0
ELLIPSE
  5
46C
100
AcDbEntity
  8
0
100
AcDbEllipse
 62
7
  6
CONTINUOUS
 10
121.3275752009
 20
53.1336879686
 30
0.0
 11
114.2761852079
 21
126.7196181975
 31
0.0
 40
0.3814884295
 41
-3.7749362596
 42
-3.7581621904
  0
ELLIPSE
  5
46D
100
AcDbEntity
  8
0
100
AcDbEllipse
 62
7
  6
CONTINUOUS
 10
116.4673851851
 20
55.9399007713
 30
0.0
 11
36.2948103059
 21
167.6997948705
 31
0.0
 40
0.6986691259
 41
-4.0632503059
 42
-4.0598997846
  0
ELLIPSE
  5
46E
100
AcDbEntity
  8
0
100
AcDbEllipse
 62
7
  6
CONTINUOUS
 10
116.9971638862
 20
55.634013189
 30
0.0
 11
111.9792925869
 21
128.0850400428
 31
0.0
 40
0.3995644544
 41
-3.7774770381
 42
-3.7659333559
  0
ELLIPSE
  5
46F
100
AcDbEntity
  8
DRAFT
100
AcDbEllipse
 62
7
  6
CONTINUOUS
 10
41.7345508215
 20
-24.5118804965
 30
0.0
 11
5.1774686765
 21
-0.6785096723
 31
0.0
 40
0.4693271057
 41
-0.5159119978
 42
-0.0902820066
  0
ELLIPSE
  5
470
100
AcDbEntity
  8
0
100
AcDbEllipse
 62
7
  6
CONTINUOUS
 10
110.7366622199
 20
59.2487483886
 30
0.0
 11
25.1749394473
 21
171.5727221992
 31
0.0
 40
0.7088651675
 41
-4.1304804737
 42
-4.1137064045
  0
ELLIPSE
  5
471
100
AcDbEntity
  8
0
100
AcDbEllipse
 62
7
  6
CONTINUOUS
 10
120.4210814758
 20
53.6570860845
 30
0.0
 11
119.1887867979
 21
123.8315627285
 31
0.0
 40
0.3418816387
 41
-3.7717111746
 42
-3.7624009259
  0
ELLIPSE
  5
472
100
AcDbEntity
  8
0
100
AcDbEllipse
 62
7
  6
CONTINUOUS
 10
116.7934589343
 20
55.7516298751
 30
0.0
 11
94.077182749
 21
138.8827821588
 31
0.0
 40
0.5232362147
 41
-3.8185477191
 42
-3.8017736499
  0
ELLIPSE
  5
473
100
AcDbEntity
  8
0
100
AcDbEllipse
 62
7
  6
CONTINUOUS
 10
110.7366622199
 20
59.2487483886
 30
0.0
 11
25.1523857375
 21
171.4190137311
 31
0.0
 40
0.7088651675
 41
-4.129443597
 42
-4.1136276763
  0
ELLIPSE
  5
474
100
AcDbEntity
  8
0
100
AcDbEllipse
 62
7
  6
CONTINUOUS
 10
116.9971638862
 20
55.634013189
 30
0.0
 11
111.878972645
 21
127.9702912935
 31
0.0
 40
0.3995644544
 41
-3.7764400576
 42
-3.7658593517
  0
ELLIPSE
  5
475
100
AcDbEntity
  8
0
100
AcDbEllipse
 62
7
  6
CONTINUOUS
 10
116.7790152457
 20
55.7599694799
 30
0.0
 11
74.7266798953
 21
149.8826902858
 31
0.0
 40
0.6139811386
 41
-3.8877681049
 42
-3.8768482551
  0
ELLIPSE
  5
476
100
AcDbEntity
  8
0
100
AcDbEllipse
 62
7
  6
CONTINUOUS
 10
112.94450493
 20
57.9739676785
 30
0.0
 11
10.3267110211
 21
175.9897840662
 31
0.0
 40
0.7160762854
 41
-4.1952272933
 42
-4.1842716361
  0
ELLIPSE
  5
477
100
AcDbEntity
  8
0
100
AcDbEllipse
 62
7
  6
CONTINUOUS
 10
112.94450493
 20
57.9739676785
 30
0.0
 11
10.3174595334
 21
175.8321184433
 31
0.0
 40
0.7160762854
 41
-4.1951584555
 42
-4.1843498231
  0
ELLIPSE
  5
478
100
AcDbEntity
  8
0
100
AcDbEllipse
 62
7
  6
CONTINUOUS
 10
116.7934589343
 20
55.7516298751
 30
0.0
 11
93.9929009386
 21
138.7583599347
 31
0.0
 40
0.5232362147
 41
-3.817510829
 42
-3.8016949217
  0
ELLIPSE
  5
479
100
AcDbEntity
  8
0
100
AcDbEllipse
 62
7
  6
CONTINUOUS
 10
120.4210814758
 20
53.6570860845
 30
0.0
 11
119.0820080186
 21
123.7206245819
 31
0.0
 40
0.3418816387
 41
-3.7706748267
 42
-3.7623289378
  0
ELLIPSE
  5
47A
100
AcDbEntity
  8
0
100
AcDbEllipse
 62
7
  6
CONTINUOUS
 10
116.587379992
 20
55.8706172737
 30
0.0
 11
39.1098980172
 21
166.4730536049
 31
0.0
 40
0.6952787603
 41
-4.0581356351
 42
-4.0519053363
  0
ELLIPSE
  5
47B
100
AcDbEntity
  8
0
100
AcDbEllipse
 62
7
  6
CONTINUOUS
 10
116.4673851851
 20
55.9399007713
 30
0.0
 11
36.2622945329
 21
167.5495560783
 31
0.0
 40
0.6986691259
 41
-4.0631746043
 42
-4.0598210564
  0
ELLIPSE
  5
47C
100
AcDbEntity
  8
0
100
AcDbEllipse
 62
7
  6
CONTINUOUS
 10
116.7790152457
 20
55.7599694799
 30
0.0
 11
74.7936860181
 21
150.0170875047
 31
0.0
 40
0.6139811386
 41
-3.8878369839
 42
-3.8769269833
  0
ELLIPSE
  5
47D
100
AcDbEntity
  8
ASSI
100
AcDbEllipse
 62
7
  6
CONTINUOUS
 10
45.2349068415
 20
-59.531447683
 30
0.0
 11
-0.5013954353
 21
0.868386877
 31
0.0
 40
0.5757524875
 41
-3.1936911674
 42
-2.3576120761
  0
ELLIPSE
  5
47E
100
AcDbEntity
  8
ASSI
100
AcDbEllipse
 62
7
  6
CONTINUOUS
 10
45.2349068415
 20
12.3156957153
 30
0.0
 11
-0.5000243598
 21
0.8660113392
 31
0.0
 40
0.5789151826
 41
-2.3548735497
 42
-0.7868162787
  0
ELLIPSE
  5
47F
100
AcDbEntity
  8
ASSI
100
AcDbEllipse
 62
7
  6
CONTINUOUS
 10
117.7120702488
 20
55.2212352151
 30
0.0
 11
114.8996317544
 21
126.3505868295
 31
0.0
 40
0.3765254089
 41
-3.7743605251
 42
-3.7575864559
  0
ELLIPSE
  5
480
100
AcDbEntity
  8
ASSI
100
AcDbEllipse
 62
7
  6
CONTINUOUS
 10
111.5213474795
 20
58.7956809541
 30
0.0
 11
34.8790515577
 21
168.2218372011
 31
0.0
 40
0.7002280922
 41
-4.083553027
 42
-4.0720093448
  0
ELLIPSE
  5
481
100
AcDbEntity
  8
ASSI
100
AcDbEllipse
 62
7
  6
CONTINUOUS
 10
116.8979031082
 20
55.6913251182
 30
0.0
 11
70.634700218
 21
152.2499801326
 31
0.0
 40
0.6282888553
 41
-3.9123018102
 42
-3.8955277411
  0
ELLIPSE
  5
482
100
AcDbEntity
  8
ASSI
100
AcDbEllipse
 62
7
  6
CONTINUOUS
 10
113.334518629
 20
57.7487786567
 30
0.0
 11
11.1145125674
 21
175.7752122584
 31
0.0
 40
0.7158559188
 41
-4.1973507117
 42
-4.188040463
  0
ELLIPSE
  5
483
100
AcDbEntity
  8
ASSI
100
AcDbEllipse
 62
7
  6
CONTINUOUS
 10
116.9681367907
 20
55.6507730701
 30
0.0
 11
91.793176838
 21
140.2511436908
 31
0.0
 40
0.5363054271
 41
-3.8203221232
 42
-3.8093664661
  0
ELLIPSE
  5
484
100
AcDbEntity
  8
ASSI
100
AcDbEllipse
 62
7
  6
CONTINUOUS
 10
120.8380036204
 20
53.4163604635
 30
0.0
 11
119.630873242
 21
123.5739552196
 31
0.0
 40
0.3382731367
 41
-3.7657029519
 42
-3.7547929514
  0
ELLIPSE
  5
485
100
AcDbEntity
  8
ASSI
100
AcDbEllipse
 62
7
  6
CONTINUOUS
 10
121.3906108845
 20
53.097291955
 30
0.0
 11
111.5409348807
 21
128.3466174189
 31
0.0
 40
0.4029729773
 41
-3.7734299492
 42
-3.7672052666
  0
ELLIPSE
  5
486
100
AcDbEntity
  8
ASSI
100
AcDbEllipse
 62
7
  6
CONTINUOUS
 10
116.5305624813
 20
55.9034229922
 30
0.0
 11
27.6951435486
 21
170.7397539322
 31
0.0
 40
0.7069483398
 41
-4.1183397783
 42
-4.1015657091
  0
ELLIPSE
  5
487
100
AcDbEntity
  8
ASSI
100
AcDbEllipse
 62
7
  6
CONTINUOUS
 10
121.4759759009
 20
53.0480032644
 30
0.0
 11
112.236268736
 21
127.9318388222
 31
0.0
 40
0.3975597956
 41
-3.7637364601
 42
-3.7603859388
  0
ELLIPSE
  5
488
100
AcDbEntity
  8
ASSI
100
AcDbEllipse
 62
7
  6
CONTINUOUS
 10
41.7345508215
 20
-19.1051013256
 30
0.0
 11
5.1478346794
 21
0.9575482268
 31
0.0
 40
0.6665647798
 41
-0.7006982462
 42
-0.2750682551
  0
ELLIPSE
  5
489
100
AcDbEntity
  8
ASSI
100
AcDbEllipse
 62
7
  6
CONTINUOUS
 10
-21.973845999
 20
-4.1519914132
 30
0.0
 11
-0.4000194878
 21
0.6928090714
 31
0.0
 40
0.5789151826
 41
0.7867191038
 42
2.3547763749
  0
ELLIPSE
  5
48A
100
AcDbEntity
  8
ASSI
100
AcDbEllipse
 62
7
  6
CONTINUOUS
 10
-39.6159661106
 20
61.3075263266
 30
0.0
 11
-0.5013954353
 21
0.868386877
 31
0.0
 40
0.5757524875
 41
-0.7840766935
 42
0.0520985859
  0
ELLIPSE
  5
48B
100
AcDbEntity
  8
ASSI
100
AcDbEllipse
 62
7
  6
CONTINUOUS
 10
5.6404037409
 20
-19.568428912
 30
0.0
 11
-0.0054673646
 21
0.3559778749
 31
0.0
 40
0.0145741356
 41
-3.1313276788
 42
-2.3823999735
  0
ELLIPSE
  5
48C
100
AcDbEntity
  8
ASSI
100
AcDbEllipse
 62
7
  6
CONTINUOUS
 10
116.7934589343
 20
55.7516298751
 30
0.0
 11
94.077182749
 21
138.8827821588
 31
0.0
 40
0.5232362147
 41
-3.8185477191
 42
-3.8017736499
  0
ELLIPSE
  5
48D
100
AcDbEntity
  8
ASSI
100
AcDbEllipse
 62
7
  6
CONTINUOUS
 10
112.94450493
 20
57.9739676785
 30
0.0
 11
10.3267110211
 21
175.9897840662
 31
0.0
 40
0.7160762854
 41
-4.1952272933
 42
-4.1842716361
  0
ELLIPSE
  5
48E
100
AcDbEntity
  8
ASSI
100
AcDbEllipse
 62
7
  6
CONTINUOUS
 10
116.7790152457
 20
55.7599694799
 30
0.0
 11
74.7936860181
 21
150.0170875047
 31
0.0
 40
0.6139811386
 41
-3.8878369839
 42
-3.8769269833
  0
ELLIPSE
  5
48F
100
AcDbEntity
  8
ASSI
100
AcDbEllipse
 62
7
  6
CONTINUOUS
 10
116.587379992
 20
55.8706172737
 30
0.0
 11
39.144967187
 21
166.622327116
 31
0.0
 40
0.6952787603
 41
-4.0582033802
 42
-4.0519786976
  0
ELLIPSE
  5
490
100
AcDbEntity
  8
ASSI
100
AcDbEllipse
 62
7
  6
CONTINUOUS
 10
121.3275752009
 20
53.1336879686
 30
0.0
 11
114.2761852079
 21
126.7196181975
 31
0.0
 40
0.3814884295
 41
-3.7749362596
 42
-3.7581621904
  0
ELLIPSE
  5
491
100
AcDbEntity
  8
ASSI
100
AcDbEllipse
 62
7
  6
CONTINUOUS
 10
116.4673851851
 20
55.9399007713
 30
0.0
 11
36.2948103059
 21
167.6997948705
 31
0.0
 40
0.6986691259
 41
-4.0632503059
 42
-4.0598997846
  0
ELLIPSE
  5
492
100
AcDbEntity
  8
ASSI
100
AcDbEllipse
 62
7
  6
CONTINUOUS
 10
41.7345508215
 20
-24.5118804965
 30
0.0
 11
5.1774686765
 21
-0.6785096723
 31
0.0
 40
0.4693271057
 41
-0.5159119978
 42
-0.0902820066
  0
ELLIPSE
  5
493
100
AcDbEntity
  8
ASSI
100
AcDbEllipse
 62
7
  6
CONTINUOUS
 10
110.7366622199
 20
59.2487483886
 30
0.0
 11
25.1523857375
 21
171.4190137311
 31
0.0
 40
0.7088651675
 41
-4.129443597
 42
-4.1136276763
  0
ELLIPSE
  5
494
100
AcDbEntity
  8
ASSI
100
AcDbEllipse
 62
7
  6
CONTINUOUS
 10
116.9971638862
 20
55.634013189
 30
0.0
 11
111.878972645
 21
127.9702912935
 31
0.0
 40
0.3995644544
 41
-3.7764400576
 42
-3.7658593517
  0
ELLIPSE
  5
495
100
AcDbEntity
  8
ASSI
100
AcDbEllipse
 62
7
  6
CONTINUOUS
 10
116.7790152457
 20
55.7599694799
 30
0.0
 11
74.7266798953
 21
149.8826902858
 31
0.0
 40
0.6139811386
 41
-3.8877681049
 42
-3.8768482551
  0
ELLIPSE
  5
496
100
AcDbEntity
  8
ASSI
100
AcDbEllipse
 62
7
  6
CONTINUOUS
 10
112.94450493
 20
57.9739676785
 30
0.0
 11
10.3174595334
 21
175.8321184433
 31
0.0
 40
0.7160762854
 41
-4.1951584555
 42
-4.1843498231
  0
ELLIPSE
  5
497
100
AcDbEntity
  8
ASSI
100
AcDbEllipse
 62
7
  6
CONTINUOUS
 10
116.7934589343
 20
55.7516298751
 30
0.0
 11
93.9929009386
 21
138.7583599347
 31
0.0
 40
0.5232362147
 41
-3.817510829
 42
-3.8016949217
  0
ELLIPSE
  5
498
100
AcDbEntity
  8
ASSI
100
AcDbEllipse
 62
7
  6
CONTINUOUS
 10
120.4210814758
 20
53.6570860845
 30
0.0
 11
119.0820080186
 21
123.7206245819
 31
0.0
 40
0.3418816387
 41
-3.7706748267
 42
-3.7623289378
  0
ELLIPSE
  5
499
100
AcDbEntity
  8
ASSI
100
AcDbEllipse
 62
7
  6
CONTINUOUS
 10
116.587379992
 20
55.8706172737
 30
0.0
 11
39.1098980172
 21
166.4730536049
 31
0.0
 40
0.6952787603
 41
-4.0581356351
 42
-4.0519053363
  0
ELLIPSE
  5
49A
100
AcDbEntity
  8
ASSI
100
AcDbEllipse
 62
7
  6
CONTINUOUS
 10
116.4673851851
 20
55.9399007713
 30
0.0
 11
36.2622945329
 21
167.5495560783
 31
0.0
 40
0.6986691259
 41
-4.0631746043
 42
-4.0598210564
  0
ELLIPSE
  5
49B
100
AcDbEntity
  8
ASSI
100
AcDbEllipse
 62
7
  6
CONTINUOUS
 10
121.3275752009
 20
53.1336879686
 30
0.0
 11
114.1738075272
 21
126.6060927015
 31
0.0
 40
0.3814884295
 41
-3.7738993826
 42
-3.7580834622
  0
ELLIPSE
  5
49C
100
AcDbEntity
  8
ASSI
100
AcDbEllipse
 62
7
  6
CONTINUOUS
 10
116.9971638862
 20
55.634013189
 30
0.0
 11
111.9792925869
 21
128.0850400428
 31
0.0
 40
0.3995644544
 41
-3.7774770381
 42
-3.7659333559
  0
ELLIPSE
  5
49D
100
AcDbEntity
  8
ASSI
100
AcDbEllipse
 62
7
  6
CONTINUOUS
 10
110.7366622199
 20
59.2487483886
 30
0.0
 11
25.1749394473
 21
171.5727221992
 31
0.0
 40
0.7088651675
 41
-4.1304804737
 42
-4.1137064045
  0
ELLIPSE
  5
49E
100
AcDbEntity
  8
ASSI
100
AcDbEllipse
 62
7
  6
CONTINUOUS
 10
120.4210814758
 20
53.6570860845
 30
0.0
 11
119.1887867979
 21
123.8315627285
 31
0.0
 40
0.3418816387
 41
-3.7717111746
 42
-3.7624009259
  0
ELLIPSE
  5
49F
100
AcDbEntity
  8
0
100
AcDbEllipse
 62
250
  6
CONTINUOUS
 10
107.7273559521
 20
84.2289782842
 30
0.0
 11
68.2785985895
 21
153.4823126798
 31
0.0
 40
0.6356954522
 41
-4.0778745832
 42
-4.0760908998
  0
ELLIPSE
  5
4A0
100
AcDbEntity
  8
0
100
AcDbEllipse
 62
250
  6
CONTINUOUS
 10
108.7495008383
 20
83.6388046374
 30
0.0
 11
43.5084879569
 21
164.902888116
 31
0.0
 40
0.6893966054
 41
-4.1956584687
 42
-4.1945882917
  0
ELLIPSE
  5
4A1
100
AcDbEntity
  8
0
100
AcDbEllipse
 62
250
  6
CONTINUOUS
 10
120.0012444718
 20
77.1421888809
 30
0.0
 11
-170.0841982385
 21
226.799782346
 31
0.0
 40
0.4795811407
 41
1.4291115819
 42
1.4298250883
  0
ELLIPSE
  5
4A2
100
AcDbEntity
  8
0
100
AcDbEllipse
 62
250
  6
CONTINUOUS
 10
144.3187100873
 20
63.1015890039
 30
0.0
 11
461.0244427499
 21
-392.1335419887
 31
0.0
 40
0.2133863435
 41
-1.7310568387
 42
-1.7307000725
  0
ELLIPSE
  5
4A3
100
AcDbEntity
  8
0
100
AcDbEllipse
 62
250
  6
CONTINUOUS
 10
65.802876634
 20
108.4356472054
 30
0.0
 11
488.0738691873
 21
-120.9774792929
 31
0.0
 40
0.1923204037
 41
-1.6838915183
 42
-1.6835347521
  0
ELLIPSE
  5
4A4
100
AcDbEntity
  8
0
100
AcDbEllipse
 62
250
  6
CONTINUOUS
 10
90.1202734059
 20
94.3950870778
 30
0.0
 11
218.7221939969
 21
64.4788583997
 31
0.0
 40
0.1731833699
 41
-2.1096549856
 42
-2.1089414792
  0
ELLIPSE
  5
4A5
100
AcDbEntity
  8
0
100
AcDbEllipse
 62
250
  6
CONTINUOUS
 10
98.1572528932
 20
89.7546358489
 30
0.0
 11
146.6647555962
 21
108.3636281683
 31
0.0
 40
0.1263825083
 41
2.3279532215
 42
2.3290233985
  0
ELLIPSE
  5
4A6
100
AcDbEntity
  8
0
100
AcDbEllipse
 62
250
  6
CONTINUOUS
 10
102.1242030008
 20
87.4641685743
 30
0.0
 11
115.7634381698
 21
125.8404559676
 31
0.0
 40
0.3696139229
 41
-3.9266637322
 42
-3.925236978
  0
ELLIPSE
  5
4A7
100
AcDbEntity
  8
0
100
AcDbEllipse
 62
250
  6
CONTINUOUS
 10
104.4632002239
 20
86.1136608922
 30
0.0
 11
93.7813932274
 21
139.0604409053
 31
0.0
 40
0.52496566
 41
-3.9710996602
 42
-3.9657507683
  0
ELLIPSE
  5
4A8
100
AcDbEntity
  8
0
100
AcDbEllipse
 62
250
  6
CONTINUOUS
 10
106.3454639934
 20
85.026865382
 30
0.0
 11
43.5079433679
 21
164.9031080549
 31
0.0
 40
0.6893973944
 41
-4.1974449634
 42
-4.1878152968
  0
ELLIPSE
  5
4A9
100
AcDbEntity
  8
0
100
AcDbEllipse
 62
250
  6
CONTINUOUS
 10
99.7784843941
 20
88.8185570991
 30
0.0
 11
122.1032906666
 21
122.1403327789
 31
0.0
 40
0.318017516
 41
-3.9270701973
 42
-3.9174405307
  0
ELLIPSE
  5
4AA
100
AcDbEntity
  8
0
100
AcDbEllipse
 62
250
  6
CONTINUOUS
 10
106.6362928475
 20
84.8589444466
 30
0.0
 11
41.9779527662
 21
165.515720652
 31
0.0
 40
0.691558876
 41
-4.2063210484
 42
-4.1895610118
  0
ELLIPSE
  5
4AB
100
AcDbEntity
  8
0
100
AcDbEllipse
 62
250
  6
CONTINUOUS
 10
106.3317171337
 20
85.0348026465
 30
0.0
 11
43.5081816259
 21
164.9030118317
 31
0.0
 40
0.6893970492
 41
-4.1863881393
 42
-4.1821110332
  0
ELLIPSE
  5
4AC
100
AcDbEntity
  8
0
100
AcDbEllipse
 62
250
  6
CONTINUOUS
 10
99.7922154978
 20
88.8106289319
 30
0.0
 11
122.1033500238
 21
122.1402985041
 31
0.0
 40
0.3180170286
 41
-3.9160145329
 42
-3.9117374269
  0
ELLIPSE
  5
4AD
100
AcDbEntity
  8
0
100
AcDbEllipse
 62
250
  6
CONTINUOUS
 10
99.4876539092
 20
88.9864789761
 30
0.0
 11
122.6326329822
 21
121.8349435996
 31
0.0
 40
0.3136701383
 41
-3.9285124884
 42
-3.9117524518
  0
ELLIPSE
  5
4AE
100
AcDbEntity
  8
0
100
AcDbEllipse
 62
250
  6
CONTINUOUS
 10
128.2445334014
 20
72.3826171656
 30
0.0
 11
346.116982495
 21
-324.6682229078
 31
0.0
 40
0.2767051061
 41
-1.7315283578
 42
-1.7311717911
  0
ELLIPSE
  5
4AF
100
AcDbEntity
  8
0
100
AcDbEllipse
 62
250
  6
CONTINUOUS
 10
110.4397142113
 20
82.6628966192
 30
0.0
 11
-101.7157550301
 21
199.7500295746
 31
0.0
 40
0.6093592621
 41
1.5260174196
 42
1.5267305116
  0
ELLIPSE
  5
4B0
100
AcDbEntity
  8
0
100
AcDbEllipse
 62
250
  6
CONTINUOUS
 10
104.5595672962
 20
86.0580197524
 30
0.0
 11
43.5084879569
 21
164.902888116
 31
0.0
 40
0.6893966054
 41
-4.188525705
 42
-4.1874561335
  0
ELLIPSE
  5
4B1
100
AcDbEntity
  8
0
100
AcDbEllipse
 62
250
  6
CONTINUOUS
 10
101.6607909813
 20
87.7317368664
 30
0.0
 11
93.7809197788
 21
139.0607251721
 31
0.0
 40
0.5249684194
 41
-3.9653957958
 42
-3.9643263104
  0
ELLIPSE
  5
4B2
100
AcDbEntity
  8
0
100
AcDbEllipse
 62
250
  6
CONTINUOUS
 10
98.803128204
 20
89.3817155391
 30
0.0
 11
122.1032431809
 21
122.1403601987
 31
0.0
 40
0.3180179059
 41
-3.9160145332
 42
-3.9149451326
  0
ELLIPSE
  5
4B3
100
AcDbEntity
  8
0
100
AcDbEllipse
 62
250
  6
CONTINUOUS
 10
93.1703027673
 20
92.6340383504
 30
0.0
 11
173.0836342077
 21
93.373392027
 31
0.0
 40
0.0279357855
 41
-2.2667865707
 42
-2.2660736814
  0
ELLIPSE
  5
4B4
100
AcDbEntity
  8
0
100
AcDbEllipse
 62
250
  6
CONTINUOUS
 10
76.4364299635
 20
102.2959667826
 30
0.0
 11
377.0485461051
 21
-47.5525496774
 31
0.0
 40
0.2269613516
 41
-1.7895681591
 42
-1.7892117313
  0
ELLIPSE
  5
4B5
100
AcDbEntity
  8
0
100
AcDbEllipse
 62
250
  6
CONTINUOUS
 10
100.6304396187
 20
88.3266488299
 30
0.0
 11
93.7813932274
 21
139.0604409053
 31
0.0
 40
0.52496566
 41
-3.9675334864
 42
-3.962186053
  0
ELLIPSE
  5
4B6
100
AcDbEntity
  8
0
100
AcDbEllipse
 62
250
  6
CONTINUOUS
 10
100.6304437502
 20
88.3266464444
 30
0.0
 11
93.7813498975
 21
139.0604669213
 31
0.0
 40
0.5249659126
 41
-3.974667005
 42
-3.9696732118
  0
ELLIPSE
  5
4B7
100
AcDbEntity
  8
0
100
AcDbEllipse
 62
250
  6
CONTINUOUS
 10
73.8400192991
 20
103.7951017596
 30
0.0
 11
377.0485461051
 21
-47.5525496774
 31
0.0
 40
0.2269613516
 41
-1.7820811413
 42
-1.7817245107
  0
ELLIPSE
  5
4B8
100
AcDbEntity
  8
0
100
AcDbEllipse
 62
250
  6
CONTINUOUS
 10
92.3048413552
 20
93.133744923
 30
0.0
 11
173.0836342077
 21
93.373392027
 31
0.0
 40
0.0279357855
 41
-2.2592993501
 42
-2.2585860525
  0
ELLIPSE
  5
4B9
100
AcDbEntity
  8
0
100
AcDbEllipse
 62
250
  6
CONTINUOUS
 10
98.5146193167
 20
89.5482969548
 30
0.0
 11
122.103420061
 21
122.1402580623
 31
0.0
 40
0.3180164536
 41
-3.9235027755
 42
-3.9224327611
  0
ELLIPSE
  5
4BA
100
AcDbEntity
  8
0
100
AcDbEllipse
 62
250
  6
CONTINUOUS
 10
101.6607706572
 20
87.7317486013
 30
0.0
 11
93.7811897969
 21
139.0605630485
 31
0.0
 40
0.5249668457
 41
-3.9725270759
 42
-3.9718136751
  0
ELLIPSE
  5
4BB
100
AcDbEntity
  8
0
100
AcDbEllipse
 62
250
  6
CONTINUOUS
 10
104.8343700958
 20
85.89935206
 30
0.0
 11
43.5072626278
 21
164.9033829783
 31
0.0
 40
0.6893983807
 41
-4.1956644338
 42
-4.1945942568
  0
ELLIPSE
  5
4BC
100
AcDbEntity
  8
0
100
AcDbEllipse
 62
250
  6
CONTINUOUS
 10
111.2638917241
 20
82.1870268527
 30
0.0
 11
-101.7145514237
 21
199.7496793835
 31
0.0
 40
0.6093615153
 41
1.5188868481
 42
1.5196003545
  0
ELLIPSE
  5
4BD
100
AcDbEntity
  8
0
100
AcDbEllipse
 62
250
  6
CONTINUOUS
 10
130.7177295924
 20
70.9546246814
 30
0.0
 11
346.1226067412
 21
-324.6715108661
 31
0.0
 40
0.2767011407
 41
-1.7386614606
 42
-1.7383046943
  0
ELLIPSE
  5
4BE
100
AcDbEntity
  8
0
100
AcDbEllipse
 62
250
  6
CONTINUOUS
 10
151.4490006791
 20
58.9846485798
 30
0.0
 11
575.9863670803
 21
-459.7018216395
 31
0.0
 40
0.173112487
 41
-1.725051934
 42
-1.7246951025
  0
ELLIPSE
  5
4BF
100
AcDbEntity
  8
0
100
AcDbEllipse
 62
250
  6
CONTINUOUS
 10
114.8771183416
 20
80.1007950881
 30
0.0
 11
-148.857799135
 21
217.0409448996
 31
0.0
 40
0.5183102665
 41
1.44440288
 42
1.4454733149
  0
ELLIPSE
  5
4C0
100
AcDbEntity
  8
0
100
AcDbEllipse
 62
250
  6
CONTINUOUS
 10
109.1310344405
 20
83.4185119172
 30
0.0
 11
-56.7378376742
 21
189.5072070011
 31
0.0
 40
0.681169693
 41
-4.6373949057
 42
-4.635967807
  0
ELLIPSE
  5
4C1
100
AcDbEntity
  8
0
100
AcDbEllipse
 62
250
  6
CONTINUOUS
 10
105.0953410268
 20
85.7486707152
 30
0.0
 11
43.5081952279
 21
164.9030063383
 31
0.0
 40
0.6893970295
 41
-4.1960166386
 42
-4.1949464359
  0
ELLIPSE
  5
4C2
100
AcDbEntity
  8
0
100
AcDbEllipse
 62
250
  6
CONTINUOUS
 10
101.9080044991
 20
87.5889988796
 30
0.0
 11
93.7816336518
 21
139.0602965502
 31
0.0
 40
0.5249642588
 41
-3.9728823516
 42
-3.9714555498
  0
ELLIPSE
  5
4C3
100
AcDbEntity
  8
0
100
AcDbEllipse
 62
250
  6
CONTINUOUS
 10
98.7756532937
 20
89.397579208
 30
0.0
 11
122.1032431809
 21
122.1403601987
 31
0.0
 40
0.3180179059
 41
-3.9231460942
 42
-3.9220761047
  0
ELLIPSE
  5
4C4
100
AcDbEntity
  8
0
100
AcDbEllipse
 62
250
  6
CONTINUOUS
 10
94.9116916549
 20
91.6285822314
 30
0.0
 11
152.9957110199
 21
104.8453546306
 31
0.0
 40
0.0837733809
 41
2.3162360592
 42
2.3176625673
  0
ELLIPSE
  5
4C5
100
AcDbEntity
  8
0
100
AcDbEllipse
 62
250
  6
CONTINUOUS
 10
83.5258054993
 20
98.202650199
 30
0.0
 11
269.5180801439
 21
28.72657561
 31
0.0
 40
0.2304467995
 41
-1.9717032899
 42
-1.9713466896
  0
ELLIPSE
  5
4C6
100
AcDbEntity
  8
0
100
AcDbEllipse
 62
250
  6
CONTINUOUS
 10
119.7954287181
 20
77.2610243176
 30
0.0
 11
-230.2815859862
 21
258.2506410183
 31
0.0
 40
0.3881193532
 41
1.4121436517
 42
1.4125002481
  0
ELLIPSE
  5
4C7
100
AcDbEntity
  8
0
100
AcDbEllipse
 62
250
  6
CONTINUOUS
 10
108.5128326236
 20
83.7754538984
 30
0.0
 11
-56.7375218096
 21
189.5071495856
 31
0.0
 40
0.6811700822
 41
-4.6302600041
 42
-4.6288337355
  0
ELLIPSE
  5
4C8
100
AcDbEntity
  8
0
100
AcDbEllipse
 62
250
  6
CONTINUOUS
 10
104.8206301246
 20
85.9072853472
 30
0.0
 11
43.5072626278
 21
164.9033829783
 31
0.0
 40
0.6893983807
 41
-4.1888882112
 42
-4.1878186107
  0
ELLIPSE
  5
4C9
100
AcDbEntity
  8
0
100
AcDbEllipse
 62
250
  6
CONTINUOUS
 10
101.9080249877
 20
87.5889870497
 30
0.0
 11
93.781413938
 21
139.0604284703
 31
0.0
 40
0.5249655393
 41
-3.965750701
 42
-3.9639682291
  0
ELLIPSE
  5
4CA
100
AcDbEntity
  8
0
100
AcDbEllipse
 62
250
  6
CONTINUOUS
 10
99.0640917527
 20
89.2310384568
 30
0.0
 11
122.103670552
 21
122.1401134207
 31
0.0
 40
0.3180143969
 41
-3.9156580578
 42
-3.9145886852
  0
ELLIPSE
  5
4CB
100
AcDbEntity
  8
0
100
AcDbEllipse
 62
250
  6
CONTINUOUS
 10
95.5608174723
 20
91.2537851199
 30
0.0
 11
152.9954398537
 21
104.8455059189
 31
0.0
 40
0.0837751299
 41
2.3237241592
 42
2.3251498642
  0
ELLIPSE
  5
4CC
100
AcDbEntity
  8
0
100
AcDbEllipse
 62
250
  6
CONTINUOUS
 10
90.7522629055
 20
94.0301842614
 30
0.0
 11
202.7646449178
 21
75.0424444824
 31
0.0
 40
0.1361336765
 41
-2.1736455873
 42
-2.1725764067
  0
ELLIPSE
  5
4CD
100
AcDbEntity
  8
0
100
AcDbEllipse
 62
250
  6
CONTINUOUS
 10
60.980510734
 20
111.2200208376
 30
0.0
 11
600.9514462195
 21
-191.7993213141
 31
0.0
 40
0.1620323673
 41
-1.6474254541
 42
-1.6470690805
  0
ELLIPSE
  5
4CE
100
AcDbEntity
  8
0
100
AcDbEllipse
 62
250
  6
CONTINUOUS
 10
100.3831622703
 20
88.4694236717
 30
0.0
 11
93.7814256506
 21
139.0604214378
 31
0.0
 40
0.524965471
 41
-3.9768075958
 42
-3.9600475592
  0
ELLIPSE
  5
4CF
100
AcDbEntity
  8
0
100
AcDbEllipse
 62
250
  6
CONTINUOUS
 10
101.9095183361
 20
87.5881248091
 30
0.0
 11
-22.3413290313
 21
183.3614793488
 31
0.0
 40
0.7115375175
 41
-4.5048370306
 42
-4.488076994
  0
ELLIPSE
  5
4D0
100
AcDbEntity
  8
0
100
AcDbEllipse
 62
250
  6
CONTINUOUS
 10
92.742512791
 20
92.8810389212
 30
0.0
 11
112.006102841
 21
128.0690516521
 31
0.0
 40
0.3993555306
 41
-3.9347454556
 42
-3.917985419
  0
ELLIPSE
  5
4D1
100
AcDbEntity
  8
0
100
AcDbEllipse
 62
250
  6
CONTINUOUS
 10
98.5873166789
 20
89.506322409
 30
0.0
 11
32.8018561849
 21
168.9721845822
 31
0.0
 40
0.7023711659
 41
-4.2509361663
 42
-4.2341761297
  0
ELLIPSE
  5
4D2
100
AcDbEntity
  8
0
100
AcDbEllipse
 62
250
  6
CONTINUOUS
 10
114.3129791835
 20
80.4265219676
 30
0.0
 11
93.7814256506
 21
139.0604214378
 31
0.0
 40
0.524965471
 41
-3.9768075958
 42
-3.9600475592
  0
ELLIPSE
  5
4D3
100
AcDbEntity
  8
0
100
AcDbEllipse
 62
250
  6
CONTINUOUS
 10
114.5602556421
 20
80.2837476395
 30
0.0
 11
93.7814130743
 21
139.0604289889
 31
0.0
 40
0.5249655443
 41
-3.9768076367
 42
-3.9621859884
  0
ELLIPSE
  5
4D4
100
AcDbEntity
  8
0
100
AcDbEllipse
 62
250
  6
CONTINUOUS
 10
116.4425154766
 20
79.1969544014
 30
0.0
 11
43.5080795154
 21
164.9030530702
 31
0.0
 40
0.6893971972
 41
-4.1974443006
 42
-4.187814634
  0
ELLIPSE
  5
4D5
100
AcDbEntity
  8
0
100
AcDbEllipse
 62
250
  6
CONTINUOUS
 10
115.7966218014
 20
79.5698853145
 30
0.0
 11
93.7815115889
 21
139.060369839
 31
0.0
 40
0.5249649702
 41
-3.9621856681
 42
-3.9600472797
  0
ELLIPSE
  5
4D6
100
AcDbEntity
  8
0
100
AcDbEllipse
 62
250
  6
CONTINUOUS
 10
109.8755421369
 20
82.9886425042
 30
0.0
 11
122.1032906666
 21
122.1403327789
 31
0.0
 40
0.318017516
 41
-3.9270701973
 42
-3.9174405307
  0
ELLIPSE
  5
4D7
100
AcDbEntity
  8
0
100
AcDbEllipse
 62
250
  6
CONTINUOUS
 10
116.7333528323
 20
79.0290285572
 30
0.0
 11
41.977873471
 21
165.5157521285
 31
0.0
 40
0.6915589852
 41
-4.2063214345
 42
-4.1895613978
  0
ELLIPSE
  5
4D8
100
AcDbEntity
  8
0
100
AcDbEllipse
 62
250
  6
CONTINUOUS
 10
116.4287857198
 20
79.2048817909
 30
0.0
 11
43.5078752941
 21
164.9031355473
 31
0.0
 40
0.6893974931
 41
-4.1863896306
 42
-4.1821125245
  0
ELLIPSE
  5
4D9
100
AcDbEntity
  8
0
100
AcDbEllipse
 62
250
  6
CONTINUOUS
 10
109.8892725335
 20
82.9807147453
 30
0.0
 11
122.1033500238
 21
122.1402985041
 31
0.0
 40
0.3180170286
 41
-3.9160145329
 42
-3.9117374269
  0
ELLIPSE
  5
4DA
100
AcDbEntity
  8
0
100
AcDbEllipse
 62
250
  6
CONTINUOUS
 10
109.5847109449
 20
83.1565647895
 30
0.0
 11
122.6326329822
 21
121.8349435996
 31
0.0
 40
0.3136701383
 41
-3.9285124884
 42
-3.9117524518
  0
ELLIPSE
  5
4DB
100
AcDbEntity
  8
0
100
AcDbEllipse
 62
250
  6
CONTINUOUS
 10
111.7578064033
 20
81.9018467071
 30
0.0
 11
93.7814256506
 21
139.0604214378
 31
0.0
 40
0.524965471
 41
-3.9768075958
 42
-3.9600475592
  0
ELLIPSE
  5
4DC
100
AcDbEntity
  8
0
100
AcDbEllipse
 62
250
  6
CONTINUOUS
 10
112.0050809376
 20
81.7590734901
 30
0.0
 11
93.7814256506
 21
139.0604214378
 31
0.0
 40
0.524965471
 41
-3.9768075958
 42
-3.9600475592
  0
ELLIPSE
  5
4DD
100
AcDbEntity
  8
0
100
AcDbEllipse
 62
250
  6
CONTINUOUS
 10
110.1093063351
 20
82.8536699859
 30
0.0
 11
93.781427045
 21
139.0604206006
 31
0.0
 40
0.5249654629
 41
-3.9675333764
 42
-3.9600475546
  0
ELLIPSE
  5
4DE
100
AcDbEntity
  8
0
100
AcDbEllipse
 62
250
  6
CONTINUOUS
 10
114.2170772749
 20
80.4818945278
 30
0.0
 11
32.8464080978
 21
168.9562840178
 31
0.0
 40
0.7023269622
 41
-4.241445895
 42
-4.2339600732
  0
ELLIPSE
  5
4DF
100
AcDbEntity
  8
0
100
AcDbEllipse
 62
250
  6
CONTINUOUS
 10
114.5891925232
 20
80.2670398471
 30
0.0
 11
30.4147628249
 21
169.8119089774
 31
0.0
 40
0.7046298028
 41
-4.2539391307
 42
-4.245740158
  0
ELLIPSE
  5
4E0
100
AcDbEntity
  8
0
100
AcDbEllipse
 62
250
  6
CONTINUOUS
 10
93.0049131428
 20
92.7295322468
 30
0.0
 11
269.5153477517
 21
28.728544924
 31
0.0
 40
0.2304454275
 41
-1.9720666059
 42
-1.9713534092
  0
ELLIPSE
  5
4E1
100
AcDbEntity
  8
0
100
AcDbEllipse
 62
250
  6
CONTINUOUS
 10
104.3905222236
 20
86.1556242587
 30
0.0
 11
152.9960409622
 21
104.8451705499
 31
0.0
 40
0.0837712528
 41
2.3162352298
 42
2.3176617379
  0
ELLIPSE
  5
4E2
100
AcDbEntity
  8
0
100
AcDbEllipse
 62
250
  6
CONTINUOUS
 10
108.2545236402
 20
83.9245982681
 30
0.0
 11
122.1032431809
 21
122.1403601987
 31
0.0
 40
0.3180179059
 41
-3.9231460942
 42
-3.9220761047
  0
ELLIPSE
  5
4E3
100
AcDbEntity
  8
0
100
AcDbEllipse
 62
250
  6
CONTINUOUS
 10
111.3868748456
 20
82.1160179396
 30
0.0
 11
93.7816336518
 21
139.0602965502
 31
0.0
 40
0.5249642588
 41
-3.9728823516
 42
-3.9714555498
  0
ELLIPSE
  5
4E4
100
AcDbEntity
  8
0
100
AcDbEllipse
 62
250
  6
CONTINUOUS
 10
114.5742660604
 20
80.2756581996
 30
0.0
 11
43.5069698887
 21
164.9035012031
 31
0.0
 40
0.6893988048
 41
-4.1960226038
 42
-4.194952401
  0
ELLIPSE
  5
4E5
100
AcDbEntity
  8
0
100
AcDbEllipse
 62
250
  6
CONTINUOUS
 10
118.6099040799
 20
77.9455313856
 30
0.0
 11
-56.7378376742
 21
189.5072070011
 31
0.0
 40
0.681169693
 41
-4.6373949057
 42
-4.635967807
  0
ELLIPSE
  5
4E6
100
AcDbEntity
  8
0
100
AcDbEllipse
 62
250
  6
CONTINUOUS
 10
124.3559316443
 20
74.6278470846
 30
0.0
 11
-148.8570529486
 21
217.0406198145
 31
0.0
 40
0.5183116761
 41
1.4444036242
 42
1.445474059
  0
ELLIPSE
  5
4E7
100
AcDbEntity
  8
0
100
AcDbEllipse
 62
250
  6
CONTINUOUS
 10
160.928042158
 20
53.5115688301
 30
0.0
 11
575.9883410307
 21
-459.7029806262
 31
0.0
 40
0.1731119233
 41
-1.7250518019
 42
-1.7246949703
  0
ELLIPSE
  5
4E8
100
AcDbEntity
  8
0
100
AcDbEllipse
 62
250
  6
CONTINUOUS
 10
109.8620319097
 20
82.9964431401
 30
0.0
 11
93.7814256506
 21
139.0604214378
 31
0.0
 40
0.524965471
 41
-3.9768075958
 42
-3.9600475592
  0
ELLIPSE
  5
4E9
100
AcDbEntity
  8
0
100
AcDbEllipse
 62
250
  6
CONTINUOUS
 10
83.319047343
 20
98.3220297672
 30
0.0
 11
377.0466644618
 21
-47.5512593942
 31
0.0
 40
0.2269618914
 41
-1.7820833616
 42
-1.7817267311
  0
ELLIPSE
  5
4EA
100
AcDbEntity
  8
0
100
AcDbEllipse
 62
250
  6
CONTINUOUS
 10
101.7837109946
 20
87.6607643913
 30
0.0
 11
173.0836342077
 21
93.373392027
 31
0.0
 40
0.0279357855
 41
-2.2592993501
 42
-2.2585860525
  0
ELLIPSE
  5
4EB
100
AcDbEntity
  8
0
100
AcDbEllipse
 62
250
  6
CONTINUOUS
 10
107.9934889561
 20
84.0753164231
 30
0.0
 11
122.103420061
 21
122.1402580623
 31
0.0
 40
0.3180164536
 41
-3.9235027755
 42
-3.9224327611
  0
ELLIPSE
  5
4EC
100
AcDbEntity
  8
0
100
AcDbEllipse
 62
250
  6
CONTINUOUS
 10
111.1396156682
 20
82.2587822898
 30
0.0
 11
93.7814598123
 21
139.0604009266
 31
0.0
 40
0.5249652719
 41
-3.9728829169
 42
-3.9718127969
  0
ELLIPSE
  5
4ED
100
AcDbEntity
  8
0
100
AcDbEllipse
 62
250
  6
CONTINUOUS
 10
114.326990819
 20
80.4184318249
 30
0.0
 11
43.5069698887
 21
164.9035012031
 31
0.0
 40
0.6893988048
 41
-4.1960226038
 42
-4.194952401
  0
ELLIPSE
  5
4EE
100
AcDbEntity
  8
0
100
AcDbEllipse
 62
250
  6
CONTINUOUS
 10
120.7839737063
 20
76.6902508308
 30
0.0
 11
-101.7145514237
 21
199.7496793835
 31
0.0
 40
0.6093615153
 41
1.5185300819
 42
1.5192436096
  0
ELLIPSE
  5
4EF
100
AcDbEntity
  8
0
100
AcDbEllipse
 62
250
  6
CONTINUOUS
 10
140.3202368525
 20
65.4102573371
 30
0.0
 11
346.1226067412
 21
-324.6715108661
 31
0.0
 40
0.2767011407
 41
-1.7390182376
 42
-1.7386614606
  0
ELLIPSE
  5
4F0
100
AcDbEntity
  8
0
100
AcDbEllipse
 62
250
  6
CONTINUOUS
 10
110.1093086211
 20
82.853668666
 30
0.0
 11
93.7814035827
 21
139.0604346878
 31
0.0
 40
0.5249655997
 41
-3.9750236074
 42
-3.9696730372
  0
ELLIPSE
  5
4F1
100
AcDbEntity
  8
0
100
AcDbEllipse
 62
250
  6
CONTINUOUS
 10
109.5323523813
 20
83.1867959679
 30
0.0
 11
93.7812156846
 21
139.0605475051
 31
0.0
 40
0.5249666948
 41
-3.9768082786
 42
-3.9746674414
  0
ELLIPSE
  5
4F2
100
AcDbEntity
  8
0
100
AcDbEllipse
 62
250
  6
CONTINUOUS
 10
108.2959578747
 20
83.9006746604
 30
0.0
 11
93.7814245244
 21
139.060422114
 31
0.0
 40
0.5249654776
 41
-3.9746667623
 42
-3.9700295996
  0
ELLIPSE
  5
4F3
100
AcDbEntity
  8
0
100
AcDbEllipse
 62
250
  6
CONTINUOUS
 10
109.3674742671
 20
83.2819945246
 30
0.0
 11
93.7815115889
 21
139.060369839
 31
0.0
 40
0.5249649702
 41
-3.9700293165
 42
-3.967889672
  0
ELLIPSE
  5
4F4
100
AcDbEntity
  8
0
100
AcDbEllipse
 62
250
  6
CONTINUOUS
 10
108.2959658842
 20
83.9006700358
 30
0.0
 11
93.7813298849
 21
139.0604789373
 31
0.0
 40
0.5249660292
 41
-3.9678902629
 42
-3.962186259
  0
ELLIPSE
  5
4F5
100
AcDbEntity
  8
0
100
AcDbEllipse
 62
250
  6
CONTINUOUS
 10
109.5323253502
 20
83.1868115753
 30
0.0
 11
93.7815115889
 21
139.060369839
 31
0.0
 40
0.5249649702
 41
-3.9621856681
 42
-3.9600472797
  0
ELLIPSE
  5
4F6
100
AcDbEntity
  8
0
100
AcDbEllipse
 62
250
  6
CONTINUOUS
 10
108.0486827323
 20
84.0434482285
 30
0.0
 11
93.7814256506
 21
139.0604214378
 31
0.0
 40
0.524965471
 41
-3.9768075958
 42
-3.9600475592
  0
ELLIPSE
  5
4F7
100
AcDbEntity
  8
0
100
AcDbEllipse
 62
250
  6
CONTINUOUS
 10
106.1529130863
 20
85.1380418625
 30
0.0
 11
93.7813828721
 21
139.0604471228
 31
0.0
 40
0.5249657204
 41
-3.9768077349
 42
-3.9750236747
  0
ELLIPSE
  5
4F8
100
AcDbEntity
  8
0
100
AcDbEllipse
 62
250
  6
CONTINUOUS
 10
107.7189870223
 20
84.2338103994
 30
0.0
 11
93.7813828721
 21
139.0604471228
 31
0.0
 40
0.5249657204
 41
-3.9768077349
 42
-3.9750236747
  0
ELLIPSE
  5
4F9
100
AcDbEntity
  8
0
100
AcDbEllipse
 62
250
  6
CONTINUOUS
 10
107.0595867907
 20
84.6145398289
 30
0.0
 11
93.7813884713
 21
139.060443761
 31
0.0
 40
0.5249656877
 41
-3.9750236565
 42
-3.9600476801
  0
ELLIPSE
  5
4FA
100
AcDbEntity
  8
0
100
AcDbEllipse
 62
250
  6
CONTINUOUS
 10
106.8123082492
 20
84.7573153597
 30
0.0
 11
93.7814307433
 21
139.0604183801
 31
0.0
 40
0.5249654414
 41
-3.9750235191
 42
-3.9600475426
  0
ELLIPSE
  5
4FB
100
AcDbEntity
  8
0
100
AcDbEllipse
 62
250
  6
CONTINUOUS
 10
106.6476022587
 20
84.8524145343
 30
0.0
 11
59.868152393
 21
157.6785405544
 31
0.0
 40
0.6584582487
 41
-4.1087558034
 42
-4.1073298058
  0
ELLIPSE
  5
4FC
100
AcDbEntity
  8
0
100
AcDbEllipse
 62
250
  6
CONTINUOUS
 10
110.2196788023
 20
82.7899423067
 30
0.0
 11
-38.3857388891
 21
186.2700464849
 31
0.0
 40
0.7004394024
 41
-4.5580361462
 42
-4.5569667455
  0
ELLIPSE
  5
4FD
100
AcDbEntity
  8
0
100
AcDbEllipse
 62
250
  6
CONTINUOUS
 10
117.260697359
 20
78.7245464367
 30
0.0
 11
-170.0852683798
 21
226.8002976472
 31
0.0
 40
0.4795792654
 41
1.440165599
 42
1.4408784883
  0
ELLIPSE
  5
4FE
100
AcDbEntity
  8
0
100
AcDbEllipse
 62
250
  6
CONTINUOUS
 10
138.177862361
 20
66.6472375182
 30
0.0
 11
461.0224715011
 21
-392.132382677
 31
0.0
 40
0.2133871896
 41
-1.7189325996
 42
-1.7185761718
  0
ELLIPSE
  5
4FF
100
AcDbEntity
  8
0
100
AcDbEllipse
 62
250
  6
CONTINUOUS
 10
71.9435765092
 20
104.8900840584
 30
0.0
 11
488.0738691873
 21
-120.9774792929
 31
0.0
 40
0.1923204037
 41
-1.6960155631
 42
-1.6956591353
  0
ELLIPSE
  5
500
100
AcDbEntity
  8
0
100
AcDbEllipse
 62
250
  6
CONTINUOUS
 10
92.8608976255
 20
92.8126850015
 30
0.0
 11
218.7221939969
 21
64.4788583997
 31
0.0
 40
0.1731833699
 41
-2.1207090962
 42
-2.1199962069
  0
ELLIPSE
  5
501
100
AcDbEntity
  8
0
100
AcDbEllipse
 62
250
  6
CONTINUOUS
 10
102.7183133976
 20
87.1211366772
 30
0.0
 11
122.1032431809
 21
122.1403601987
 31
0.0
 40
0.3180179059
 41
-3.9160145332
 42
-3.9149451326
  0
ELLIPSE
  5
502
100
AcDbEntity
  8
0
100
AcDbEllipse
 62
250
  6
CONTINUOUS
 10
104.1086173042
 20
86.3183926261
 30
0.0
 11
111.8096486368
 21
128.1862343107
 31
0.0
 40
0.4008852251
 41
-3.9225097897
 42
-3.9207274998
  0
ELLIPSE
  5
503
100
AcDbEntity
  8
0
100
AcDbEllipse
 62
250
  6
CONTINUOUS
 10
97.4151854192
 20
90.1830963081
 30
0.0
 11
173.0836582371
 21
93.3733779052
 31
0.0
 40
0.0279358986
 41
-2.2682121589
 42
-2.2667864963
  0
ELLIPSE
  5
504
100
AcDbEntity
  8
0
100
AcDbEllipse
 62
250
  6
CONTINUOUS
 10
89.2132802283
 20
94.9187735713
 30
0.0
 11
269.5162448436
 21
28.7278983642
 31
0.0
 40
0.230445878
 41
-1.9799069989
 42
-1.9791942188
  0
ELLIPSE
  5
505
100
AcDbEntity
  8
0
100
AcDbEllipse
 62
250
  6
CONTINUOUS
 10
64.8543450177
 20
108.9833174727
 30
0.0
 11
600.953393456
 21
-191.800521793
 31
0.0
 40
0.1620319101
 41
-1.6474247936
 42
-1.64706842
  0
ELLIPSE
  5
506
100
AcDbEntity
  8
0
100
AcDbEllipse
 62
250
  6
CONTINUOUS
 10
145.2670976355
 20
62.5540019197
 30
0.0
 11
575.9863670803
 21
-459.7018216395
 31
0.0
 40
0.173112487
 41
-1.708648271
 42
-1.7082918974
  0
ELLIPSE
  5
507
100
AcDbEntity
  8
0
100
AcDbEllipse
 62
250
  6
CONTINUOUS
 10
120.9083139255
 20
76.6184583466
 30
0.0
 11
-230.283473573
 21
258.2516823488
 31
0.0
 40
0.388116916
 41
1.4196297375
 42
1.4203425176
  0
ELLIPSE
  5
508
100
AcDbEntity
  8
0
100
AcDbEllipse
 62
250
  6
CONTINUOUS
 10
112.7063673972
 20
81.3541594775
 30
0.0
 11
-101.7151532253
 21
199.749854478
 31
0.0
 40
0.6093603887
 41
1.5306531618
 42
1.5320788243
  0
ELLIPSE
  5
509
100
AcDbEntity
  8
0
100
AcDbEllipse
 62
250
  6
CONTINUOUS
 10
108.5229573654
 20
83.7696079994
 30
0.0
 11
3.2071651049
 21
177.8377483001
 31
0.0
 40
0.7173128606
 41
-4.3786052693
 42
-4.3771794536
  0
ELLIPSE
  5
50A
100
AcDbEntity
  8
0
100
AcDbEllipse
 62
250
  6
CONTINUOUS
 10
105.9634951778
 20
85.2474093889
 30
0.0
 11
68.2779962659
 21
153.4826246162
 31
0.0
 40
0.6356972842
 41
-4.0693180253
 42
-4.0675355534
  0
ELLIPSE
  5
50B
100
AcDbEntity
  8
0
100
AcDbEllipse
 62
250
  6
CONTINUOUS
 10
104.2159149879
 20
86.2564402882
 30
0.0
 11
93.7815115889
 21
139.060369839
 31
0.0
 40
0.5249649702
 41
-3.9710992753
 42
-3.9657503834
  0
ELLIPSE
  5
50C
100
AcDbEntity
  8
0
100
AcDbEllipse
 62
250
  6
CONTINUOUS
 10
102.3447537621
 20
87.3368253289
 30
0.0
 11
111.809372219
 21
128.1863992339
 31
0.0
 40
0.4008873755
 41
-3.9310685038
 42
-3.9292850305
  0
ELLIPSE
  5
50D
100
AcDbEntity
  8
0
100
AcDbEllipse
 62
250
  6
CONTINUOUS
 10
99.4761371994
 20
88.99312858
 30
0.0
 11
134.3545797076
 21
115.1945301141
 31
0.0
 40
0.2185155878
 41
2.3489917782
 42
2.3504187425
  0
ELLIPSE
  5
50E
100
AcDbEntity
  8
0
100
AcDbEllipse
 62
250
  6
CONTINUOUS
 10
94.6127376215
 20
91.8011945435
 30
0.0
 11
173.0836582371
 21
93.3733779052
 31
0.0
 40
0.0279358986
 41
-2.2550188794
 42
-2.2535917436
  0
ELLIPSE
  5
50F
100
AcDbEntity
  8
0
100
AcDbEllipse
 62
250
  6
CONTINUOUS
 10
84.7210487624
 20
97.5125317188
 30
0.0
 11
269.517141936
 21
28.7272518037
 31
0.0
 40
0.2304463284
 41
-1.9645715973
 42
-1.9638579612
  0
ELLIPSE
  5
510
100
AcDbEntity
  8
0
100
AcDbEllipse
 62
250
  6
CONTINUOUS
 10
54.7986136128
 20
114.789370758
 30
0.0
 11
600.9514462195
 21
-191.7993213141
 31
0.0
 40
0.1620323673
 41
-1.631022249
 42
-1.6306654175
  0
ELLIPSE
  5
511
100
AcDbEntity
  8
0
100
AcDbEllipse
 62
250
  6
CONTINUOUS
 10
155.3231447006
 20
56.7477663762
 30
0.0
 11
575.9883410307
 21
-459.7029806262
 31
0.0
 40
0.1731119233
 41
-1.7250518019
 42
-1.7246949703
  0
ELLIPSE
  5
512
100
AcDbEntity
  8
0
100
AcDbEllipse
 62
250
  6
CONTINUOUS
 10
125.4004678248
 20
74.024744985
 30
0.0
 11
-230.283473573
 21
258.2516823488
 31
0.0
 40
0.388116916
 41
1.4042956861
 42
1.4050093222
  0
ELLIPSE
  5
513
100
AcDbEntity
  8
0
100
AcDbEllipse
 62
250
  6
CONTINUOUS
 10
115.5088564001
 20
79.7360374506
 30
0.0
 11
-101.7158281359
 21
199.7500508451
 31
0.0
 40
0.6093591253
 41
1.5174569474
 42
1.5188840831
  0
ENDSEC
  0
SECTION
  2
OBJECTS
  0
DICTIONARY
  5
C
100
AcDbDictionary
280
0
281
1
  3
ACAD_GROUP
350
D
  3
ACAD_MLINESTYLE
350
17
  3
ACAD_LAYOUT
350
1A
  3
ACAD_PLOTSETTINGS
350
19
  3
ACAD_PLOTSTYLENAME
350
E
  0
DICTIONARY
  5
D
102
{ACAD_REACTORS
330
C
102
}
100
AcDbDictionary
280
0
281
1
  0
ACDBDICTIONARYWDFLT
  5
E
102
{ACAD_REACTORS
330
C
102
}
100
AcDbDictionary
281
1
  3
Normal
350
F
100
AcDbDictionaryWithDefault
340
F
  0
DICTIONARY
  5
17
102
{ACAD_REACTORS
330
C
102
}
100
AcDbDictionary
280
0
281
1
  3
Standard
350
18
  0
DICTIONARY
  5
19
102
{ACAD_REACTORS
330
C
102
}
100
AcDbDictionary
281
1
  0
DICTIONARY
  5
1A
102
{ACAD_REACTORS
330
C
102
}
100
AcDbDictionary
281
1
  3
Model
350
514
  3
Layout1
350
515
  0
ACDBPLACEHOLDER
  5
F
102
{ACAD_REACTORS
330
E
102
}
  0
MLINESTYLE
  5
18
102
{ACAD_REACTORS
330
17
102
}
100
AcDbMlineStyle
  2
STANDARD
 70
0
  3

 62
256
 51
90.0
 52
90.0
 71
2
 49
0.5
 62
256
  6
BYLAYER
 49
-0.5
 62
256
  6
BYLAYER
  0
LAYOUT
  5
514
102
{ACAD_REACTORS
330
1A
102
}
100
AcDbPlotSettings
  1

  2
none_device
  4
ISO_A4_(297.00_x_210.00_MM)
  6

 40
0.0
 41
0.0
 42
0.0
 43
0.0
 44
297.0
 45
210.0
 46
0.0
 47
0.0
 48
0.0
 49
0.0
140
0.0
141
0.0
142
1.0
143
1.0
 70
1024
 72
1
 73
0
 74
0
  7

 75
0
147
1.0
148
0.0
149
0.0
100
AcDbLayout
  1
Model
 70
0
 71
0
 10
0.0
 20
0.0
 11
297.0
 21
210.0
 12
0.0
 22
0.0
 32
0.0
 14
0.0
 24
0.0
 34
0.0
 15
0.0
 25
0.0
 35
0.0
146
0.0
 13
0.0
 23
0.0
 33
0.0
 16
1.0
 26
0.0
 36
0.0
 17
0.0
 27
1.0
 37
0.0
 76
0
330
215
345
0
346
0
  0
LAYOUT
  5
515
102
{ACAD_REACTORS
330
1A
102
}
100
AcDbPlotSettings
  1

  2
none_device
  4
ISO_A4_(297.00_x_210.00_MM)
  6

 40
0.0
 41
0.0
 42
0.0
 43
0.0
 44
297.0
 45
210.0
 46
0.0
 47
0.0
 48
0.0
 49
0.0
140
0.0
141
0.0
142
1.0
143
1.0
 70
0
 72
1
 73
0
 74
0
  7

 75
0
147
1.0
148
0.0
149
0.0
100
AcDbLayout
  1
Layout1
 70
0
 71
1
 10
0.0
 20
0.0
 11
297.0
 21
210.0
 12
0.0
 22
0.0
 32
0.0
 14
0.0
 24
0.0
 34
0.0
 15
0.0
 25
0.0
 35
0.0
146
0.0
 13
0.0
 23
0.0
 33
0.0
 16
1.0
 26
0.0
 36
0.0
 17
0.0
 27
1.0
 37
0.0
 76
0
330
216
345
0
346
0
  0
ENDSEC
  0
EOF
