  0
SECTION
  2
HEADER
  9
$ACADVER
  1
AC1024
  9
$DWGCODEPAGE
  3
ANSI_1252
  9
$EXTMAX
 10
297.0
 20
210.0
 30
0.0
  9
$EXTMIN
 10
0.0
 20
0.0
 30
0.0
  9
$LIMMIN
 10
0.0
 20
0.0
  9
$LIMMAX
 10
297.0
 20
210.0
  9
$VIEWCTR
 10
148.5
 20
105.0
  9
$VIEWSIZE
 40
210.0
  9
$CLAYER
  8
0
  9
$LTSCALE
 40
16.335
  9
$CELTYPE
  6
BYLAYER
  9
$DIMSCALE
 40
1.0
  9
$DIMASZ
 40
3.0
  9
$DIMEXO
 40
0.5
  9
$DIMDLI
 40
11.286
  9
$DIMEXE
 40
1.5
  9
$DIMCEN
 40
2.673
  9
$DIMLFAC
 40
1.0
  9
$DIMBLK
  1
_FILLED
  9
$DIMALT
 70
0
  9
$DIMALTF
 40
0.0393700787
  9
$DIMTXT
 40
3.0
  9
$DIMTOL
 70
1
  9
$DIMLIM
 70
0
  9
$DIMTFAC
 40
1.0
  9
$DIMTP
 40
0.01
  9
$DIMTM
 40
0.01
  9
$DIMGAP
 40
0.625
  9
$DIMDSEP
 70
44
  9
$AUNITS
 70
0
  9
$PDMODE
 70
3
  9
$PDSIZE
 40
3.0
  9
$HANDSEED
  5
558
  9
$TILEMODE
 70
1
  9
$MEASUREMENT
 70
1
  9
$INSUNITS
 70
4
  0
ENDSEC
  0
SECTION
  2
CLASSES
  0
CLASS
  1
ACDBDICTIONARYWDFLT
  2
AcDbDictionaryWithDefault
  3
AutoCAD 2000
 90
0
 91
1
280
0
281
0
  0
CLASS
  1
ACDBPLACEHOLDER
  2
AcDbPlaceHolder
  3
AutoCAD 2000
 90
0
 91
1
280
0
281
0
  0
CLASS
  1
LAYOUT
  2
AcDbLayout
  3
AutoCAD 2000
 90
0
 91
0
280
0
281
0
  0
ENDSEC
  0
SECTION
  2
TABLES
  0
TABLE
  2
VPORT
  5
8
100
AcDbSymbolTable
 70
2
  0
VPORT
  5
1F4
100
AcDbSymbolTableRecord
100
AcDbViewportTableRecord
  2
*ACTIVE
 70
0
 10
0.0
 20
0.0
 11
1.0
 21
1.0
 12
148.5
 22
105.0
 13
0.0
 23
0.0
 14
1.0
 24
1.0
 15
0.0
 25
0.0
 16
0.0
 26
0.0
 36
1.0
 17
0.0
 27
0.0
 37
0.0
 40
210.0
 41
1.4142857143
 42
50.0
 43
0.0
 44
0.0
 50
0.0
 51
0.0
 71
0
 72
100
 73
1
 74
1
 75
0
 76
0
 77
0
 78
0
  0
ENDTAB
  0
TABLE
  2
LTYPE
  5
5
100
AcDbSymbolTable
 70
6
  0
LTYPE
  5
14
100
AcDbSymbolTableRecord
100
AcDbLinetypeTableRecord
  2
BYBLOCK
 70
0
  3

 72
65
 73
0
 40
0.0
  0
LTYPE
  5
15
100
AcDbSymbolTableRecord
100
AcDbLinetypeTableRecord
  2
BYLAYER
 70
0
  3

 72
65
 73
0
 40
0.0
  0
LTYPE
  5
16
100
AcDbSymbolTableRecord
100
AcDbLinetypeTableRecord
  2
CONTINUOUS
 70
64
  3
Solid line
 72
65
 73
0
 40
0.0
  0
LTYPE
  5
1F5
100
AcDbSymbolTableRecord
100
AcDbLinetypeTableRecord
  2
CENTER
 70
64
  3
____ _ ____ _ ____ _ ____ _ ____ _ ____ _ ____
 72
65
 73
4
 40
0.6
 49
0.375
 74
0
 49
-0.075
 74
0
 49
0.075
 74
0
 49
-0.075
 74
0
  0
LTYPE
  5
1F6
100
AcDbSymbolTableRecord
100
AcDbLinetypeTableRecord
  2
HIDDEN
 70
64
  3
- - - - - - - - - - - - - - - - - - - -
 72
65
 73
2
 40
0.2
 49
0.1
 74
0
 49
-0.1
 74
0
  0
LTYPE
  5
1F7
100
AcDbSymbolTableRecord
100
AcDbLinetypeTableRecord
  2
PHANTOM
 70
64
  3
_____ _ _ _____ _ _ _____ _ _ _____
 72
65
 73
6
 40
0.8
 49
0.45
 74
0
 49
-0.05
 74
0
 49
0.1
 74
0
 49
-0.05
 74
0
 49
0.1
 74
0
 49
-0.05
 74
0
  0
LTYPE
  5
1F8
100
AcDbSymbolTableRecord
100
AcDbLinetypeTableRecord
  2
DOT
 70
64
  3
. . . . . . . . . . . . . . . . . . . .
 72
65
 73
2
 40
0.2
 49
0.1
 74
0
 49
-0.1
 74
0
  0
LTYPE
  5
1F9
100
AcDbSymbolTableRecord
100
AcDbLinetypeTableRecord
  2
DASHED
 70
64
  3
- - - - - - - - - - - - - - - - - - - -
 72
65
 73
2
 40
0.2
 49
0.1
 74
0
 49
-0.1
 74
0
  0
ENDTAB
  0
TABLE
  2
LAYER
  5
2
100
AcDbSymbolTable
 70
36
  0
LAYER
  5
10
100
AcDbSymbolTableRecord
100
AcDbLayerTableRecord
  2
0
 70
0
 62
7
  6
CONTINUOUS
370
-3
390
F
  0
LAYER
  5
1FA
100
AcDbSymbolTableRecord
100
AcDbLayerTableRecord
  2
DEFAULT_1
 70
0
 62
7
  6
CENTER
370
-3
390
F
  0
LAYER
  5
1FB
100
AcDbSymbolTableRecord
100
AcDbLayerTableRecord
  2
DEFAULT_2
 70
0
 62
7
  6
HIDDEN
370
-3
390
F
  0
LAYER
  5
1FC
100
AcDbSymbolTableRecord
100
AcDbLayerTableRecord
  2
DEFAULT_3
 70
0
 62
7
  6
PHANTOM
370
-3
390
F
  0
LAYER
  5
1FD
100
AcDbSymbolTableRecord
100
AcDbLayerTableRecord
  2
ASSI
 70
0
 62
7
  6
CONTINUOUS
370
-3
390
F
  0
LAYER
  5
1FE
100
AcDbSymbolTableRecord
100
AcDbLayerTableRecord
  2
COORDINATE
 70
0
 62
7
  6
CONTINUOUS
370
-3
390
F
  0
LAYER
  5
1FF
100
AcDbSymbolTableRecord
100
AcDbLayerTableRecord
  2
COPY_PUBLISH
 70
0
 62
7
  6
CONTINUOUS
370
-3
390
F
  0
LAYER
  5
200
100
AcDbSymbolTableRecord
100
AcDbLayerTableRecord
  2
COSMETIC
 70
0
 62
7
  6
CONTINUOUS
370
-3
390
F
  0
LAYER
  5
201
100
AcDbSymbolTableRecord
100
AcDbLayerTableRecord
  2
COSMETICI
 70
0
 62
7
  6
CONTINUOUS
370
-3
390
F
  0
LAYER
  5
202
100
AcDbSymbolTableRecord
100
AcDbLayerTableRecord
  2
CURVE
 70
0
 62
7
  6
CONTINUOUS
370
-3
390
F
  0
LAYER
  5
203
100
AcDbSymbolTableRecord
100
AcDbLayerTableRecord
  2
CURVE_VERNICIATURA
 70
0
 62
7
  6
CONTINUOUS
370
-3
390
F
  0
LAYER
  5
204
100
AcDbSymbolTableRecord
100
AcDbLayerTableRecord
  2
DRAFT
 70
0
 62
7
  6
CONTINUOUS
370
-3
390
F
  0
LAYER
  5
205
100
AcDbSymbolTableRecord
100
AcDbLayerTableRecord
  2
IMPORT_IGES
 70
0
 62
7
  6
CONTINUOUS
370
-3
390
F
  0
LAYER
  5
206
100
AcDbSymbolTableRecord
100
AcDbLayerTableRecord
  2
INTFCLR_1
 70
0
 62
7
  6
CONTINUOUS
370
-3
390
F
  0
LAYER
  5
207
100
AcDbSymbolTableRecord
100
AcDbLayerTableRecord
  2
INTF_1
 70
0
 62
7
  6
CONTINUOUS
370
-3
390
F
  0
LAYER
  5
208
100
AcDbSymbolTableRecord
100
AcDbLayerTableRecord
  2
NOTE
 70
0
 62
7
  6
CONTINUOUS
370
-3
390
F
  0
LAYER
  5
209
100
AcDbSymbolTableRecord
100
AcDbLayerTableRecord
  2
PIANI
 70
0
 62
7
  6
CONTINUOUS
370
-3
390
F
  0
LAYER
  5
20A
100
AcDbSymbolTableRecord
100
AcDbLayerTableRecord
  2
PUNTI
 70
0
 62
7
  6
CONTINUOUS
370
-3
390
F
  0
LAYER
  5
20B
100
AcDbSymbolTableRecord
100
AcDbLayerTableRecord
  2
RACCORDO
 70
0
 62
7
  6
CONTINUOUS
370
-3
390
F
  0
LAYER
  5
20C
100
AcDbSymbolTableRecord
100
AcDbLayerTableRecord
  2
RGB____0____0____0__
 70
0
 62
7
  6
CONTINUOUS
370
-3
390
F
  0
LAYER
  5
20D
100
AcDbSymbolTableRecord
100
AcDbLayerTableRecord
  2
SIMBOLI
 70
0
 62
7
  6
CONTINUOUS
370
-3
390
F
  0
LAYER
  5
20E
100
AcDbSymbolTableRecord
100
AcDbLayerTableRecord
  2
SMUSSO
 70
0
 62
7
  6
CONTINUOUS
370
-3
390
F
  0
LAYER
  5
20F
100
AcDbSymbolTableRecord
100
AcDbLayerTableRecord
  2
SNAPLINE
 70
0
 62
7
  6
CONTINUOUS
370
-3
390
F
  0
LAYER
  5
210
100
AcDbSymbolTableRecord
100
AcDbLayerTableRecord
  2
SUPERFICI
 70
0
 62
7
  6
CONTINUOUS
370
-3
390
F
  0
LAYER
  5
211
100
AcDbSymbolTableRecord
100
AcDbLayerTableRecord
  2
TRASH
 70
0
 62
7
  6
CONTINUOUS
370
-3
390
F
  0
LAYER
  5
212
100
AcDbSymbolTableRecord
100
AcDbLayerTableRecord
  2
XSEC_DATUMS
 70
0
 62
7
  6
CONTINUOUS
370
-3
390
F
  0
ENDTAB
  0
TABLE
  2
STYLE
  5
3
100
AcDbSymbolTable
 70
1
  0
STYLE
  5
11
100
AcDbSymbolTableRecord
100
AcDbTextStyleTableRecord
  2
STANDARD
 70
0
 40
0.0
 41
0.8
 50
0.0
 71
0
 42
0.2
  3
txt
  4

  0
STYLE
  5
213
100
AcDbSymbolTableRecord
100
AcDbTextStyleTableRecord
  2
TEXTSTYLE_1
 70
0
 40
0.0
 41
0.8
 50
0.0
 71
0
 42
0.2
  3
gdt
  4

  0
ENDTAB
  0
TABLE
  2
VIEW
  5
6
100
AcDbSymbolTable
 70
0
  0
ENDTAB
  0
TABLE
  2
UCS
  5
7
100
AcDbSymbolTable
 70
0
  0
ENDTAB
  0
TABLE
  2
APPID
  5
9
100
AcDbSymbolTable
 70
1
  0
APPID
  5
214
100
AcDbSymbolTableRecord
100
AcDbRegAppTableRecord
  2
ACAD
 70
0
  0
ENDTAB
  0
TABLE
  2
BLOCK_RECORD
  5
1
100
AcDbSymbolTable
 70
0
  0
BLOCK_RECORD
  5
215
100
AcDbSymbolTableRecord
100
AcDbBlockTableRecord
  2
*Model_Space
  0
BLOCK_RECORD
  5
216
100
AcDbSymbolTableRecord
100
AcDbBlockTableRecord
  2
*Paper_Space
  0
BLOCK_RECORD
  5
217
100
AcDbSymbolTableRecord
100
AcDbBlockTableRecord
  2
_FILLED
  0
ENDTAB
  0
TABLE
  2
DIMSTYLE
  5
A
100
AcDbSymbolTable
 70
1
100
AcDbDimStyleTable
 71
0
  0
DIMSTYLE
105
218
100
AcDbSymbolTableRecord
100
AcDbDimStyleTableRecord
  2
STANDARD
 70
0
  3

  4

 40
1.0
 41
3.0
 42
0.5
 43
0.38
 44
1.5
 45
0.0
 46
0.0
 47
0.01
 48
0.01
140
3.0
141
0.09
142
0.0
143
25.4
144
1.0
145
0.0
146
1.0
147
0.625
 71
1
 72
0
 73
0
 74
0
 75
0
 76
0
 77
1
 78
8
 79
2
170
0
171
1
172
0
173
0
174
0
175
0
176
0
177
0
178
0
270
2
179
2
271
2
272
2
273
2
274
2
275
0
280
0
281
0
282
0
283
1
284
8
285
0
286
0
287
3
288
0
340
11
278
44
341
217
342
217
343
217
344
217
  0
ENDTAB
  0
ENDSEC
  0
SECTION
  2
BLOCKS
  0
BLOCK
  5
20
100
AcDbEntity
  8
0
100
AcDbBlockBegin
  2
*Model_Space
 70
0
 10
0.0
 20
0.0
 30
0.0
  3
*Model_Space
  1

  0
ENDBLK
  5
21
100
AcDbEntity
  8
0
100
AcDbBlockEnd
  0
BLOCK
  5
1C
100
AcDbEntity
  8
0
100
AcDbBlockBegin
  2
*Paper_Space
 70
0
 10
0.0
 20
0.0
 30
0.0
  3
*Paper_Space
  1

  0
ENDBLK
  5
1D
100
AcDbEntity
  8
0
100
AcDbBlockEnd
  0
BLOCK
  5
219
100
AcDbEntity
  8
0
100
AcDbBlockBegin
  2
_FILLED
 70
64
 10
0.0
 20
0.0
  3
_FILLED
  1

  0
SOLID
  5
21A
100
AcDbEntity
  8
0
  6
BYBLOCK
 62
0
100
AcDbTrace
 10
0.0
 20
0.0
 11
-1.0
 21
0.3166666667
 12
-1.0
 22
-0.3166666667
 13
-1.0
 23
-0.3166666667
  0
ENDBLK
  5
21B
100
AcDbEntity
  8
0
  6
BYBLOCK
 62
0
100
AcDbBlockEnd
  0
ENDSEC
  0
SECTION
  2
ENTITIES
  0
LWPOLYLINE
  5
21C
100
AcDbEntity
  8
RACCORDO
100
AcDbPolyline
 62
7
  6
CONTINUOUS
 90
14
 70
0
 10
-41.7510952075
 20
61.0256111918
 10
-41.7798008317
 20
61.0041246719
 10
-41.8158502171
 20
60.9733227571
 10
-41.8500164946
 20
60.9395775648
 10
-41.8821457259
 20
60.9029916615
 10
-41.9121084308
 20
60.8636499659
 10
-41.939779143
 20
60.8216605278
 10
-41.9650492601
 20
60.7771341101
 10
-41.9878332374
 20
60.7301343509
 10
-42.0080280313
 20
60.680753937
 10
-42.0255418445
 20
60.6290884128
 10
-42.0402932443
 20
60.575176982
 10
-42.0521792761
 20
60.5190917896
 10
-42.059735681
 20
60.4714147774
  0
LWPOLYLINE
  5
21D
100
AcDbEntity
  8
ASSI
100
AcDbPolyline
 62
7
  6
CONTINUOUS
 90
14
 70
0
 10
-41.7510952075
 20
61.0256111918
 10
-41.7798008317
 20
61.0041246719
 10
-41.8158502171
 20
60.9733227571
 10
-41.8500164946
 20
60.9395775648
 10
-41.8821457259
 20
60.9029916615
 10
-41.9121084308
 20
60.8636499659
 10
-41.939779143
 20
60.8216605278
 10
-41.9650492601
 20
60.7771341101
 10
-41.9878332374
 20
60.7301343509
 10
-42.0080280313
 20
60.680753937
 10
-42.0255418445
 20
60.6290884128
 10
-42.0402932443
 20
60.575176982
 10
-42.0521792761
 20
60.5190917896
 10
-42.059735681
 20
60.4714147774
  0
LINE
  5
21E
100
AcDbEntity
  8
RACCORDO
100
AcDbLine
 62
7
  6
CONTINUOUS
 10
-41.7510674437
 20
61.0256320944
 11
-40.1429573868
 21
62.1595328132
  0
LINE
  5
21F
100
AcDbEntity
  8
ASSI
100
AcDbLine
 62
7
  6
CONTINUOUS
 10
-41.7510674437
 20
61.0256320944
 11
-40.1429573868
 21
62.1595328132
  0
LINE
  5
220
100
AcDbEntity
  8
RACCORDO
100
AcDbLine
 62
250
  6
CONTINUOUS
 10
-41.1929846469
 20
61.0156268247
 11
-39.617905571
 21
62.1262369033
  0
LINE
  5
221
100
AcDbEntity
  8
ASSI
100
AcDbLine
 62
250
  6
CONTINUOUS
 10
-41.1929846469
 20
61.0156268247
 11
-39.617905571
 21
62.1262369033
  0
LWPOLYLINE
  5
222
100
AcDbEntity
  8
RACCORDO
100
AcDbPolyline
 62
250
  6
CONTINUOUS
 90
10
 70
0
 10
-41.9712094557
 20
60.3541570623
 10
-42.2427551574
 20
58.266038383
 10
-42.4919575433
 20
56.1877486673
 10
-42.7187637258
 20
54.1197058154
 10
-42.9231232239
 20
52.062328252
 10
-43.1049951541
 20
50.016027441
 10
-43.2643478191
 20
47.9812079886
 10
-43.401149336
 20
45.9582773542
 10
-43.5153680623
 20
43.9476455816
 10
-43.6069794894
 20
41.9497179459
  0
LWPOLYLINE
  5
223
100
AcDbEntity
  8
ASSI
100
AcDbPolyline
 62
250
  6
CONTINUOUS
 90
10
 70
0
 10
-41.9712094557
 20
60.3541570623
 10
-42.2427551574
 20
58.266038383
 10
-42.4919575433
 20
56.1877486673
 10
-42.7187637258
 20
54.1197058154
 10
-42.9231232239
 20
52.062328252
 10
-43.1049951541
 20
50.016027441
 10
-43.2643478191
 20
47.9812079886
 10
-43.401149336
 20
45.9582773542
 10
-43.5153680623
 20
43.9476455816
 10
-43.6069794894
 20
41.9497179459
  0
LWPOLYLINE
  5
224
100
AcDbEntity
  8
RACCORDO
100
AcDbPolyline
 62
7
  6
CONTINUOUS
 90
10
 70
0
 10
-42.0597398626
 20
60.4714177453
 10
-42.324202959
 20
58.4396702123
 10
-42.575613399
 20
56.346835958
 10
-42.8043206559
 20
54.2643190032
 10
-43.0102676493
 20
52.1926017432
 10
-43.1934158524
 20
50.1320821073
 10
-43.3537312471
 20
48.0831282293
 10
-43.4911794255
 20
46.0461382914
 10
-43.6057305012
 20
44.0215836609
 10
-43.6948712765
 20
42.0718412645
  0
LWPOLYLINE
  5
225
100
AcDbEntity
  8
ASSI
100
AcDbPolyline
 62
7
  6
CONTINUOUS
 90
10
 70
0
 10
-42.0597398626
 20
60.4714177453
 10
-42.324202959
 20
58.4396702123
 10
-42.575613399
 20
56.346835958
 10
-42.8043206559
 20
54.2643190032
 10
-43.0102676493
 20
52.1926017432
 10
-43.1934158524
 20
50.1320821073
 10
-43.3537312471
 20
48.0831282293
 10
-43.4911794255
 20
46.0461382914
 10
-43.6057305012
 20
44.0215836609
 10
-43.6948712765
 20
42.0718412645
  0
LWPOLYLINE
  5
226
100
AcDbEntity
  8
RACCORDO
100
AcDbPolyline
 62
250
  6
CONTINUOUS
 90
16
 70
0
 10
-41.3904891533
 20
60.7014546305
 10
-41.3862371489
 20
60.7251562454
 10
-41.3803654429
 20
60.7492722435
 10
-41.3729205624
 20
60.7736114864
 10
-41.3639615041
 20
60.7979810646
 10
-41.3535592668
 20
60.8221878249
 10
-41.3417962893
 20
60.846039901
 10
-41.3287657956
 20
60.8693482387
 10
-41.3145710587
 20
60.8919280888
 10
-41.2993245835
 20
60.9136004705
 10
-41.2831472088
 20
60.9341936001
 10
-41.2661671546
 20
60.9535442447
 10
-41.2485190106
 20
60.9714990124
 10
-41.2303426594
 20
60.9879155802
 10
-41.2117821669
 20
61.0026638202
 10
-41.1929846471
 20
61.0156268248
  0
LWPOLYLINE
  5
227
100
AcDbEntity
  8
ASSI
100
AcDbPolyline
 62
250
  6
CONTINUOUS
 90
16
 70
0
 10
-41.3904891533
 20
60.7014546305
 10
-41.3862371489
 20
60.7251562454
 10
-41.3803654429
 20
60.7492722435
 10
-41.3729205624
 20
60.7736114864
 10
-41.3639615041
 20
60.7979810646
 10
-41.3535592668
 20
60.8221878249
 10
-41.3417962893
 20
60.846039901
 10
-41.3287657956
 20
60.8693482387
 10
-41.3145710587
 20
60.8919280888
 10
-41.2993245835
 20
60.9136004705
 10
-41.2831472088
 20
60.9341936001
 10
-41.2661671546
 20
60.9535442447
 10
-41.2485190106
 20
60.9714990124
 10
-41.2303426594
 20
60.9879155802
 10
-41.2117821669
 20
61.0026638202
 10
-41.1929846471
 20
61.0156268248
  0
LWPOLYLINE
  5
228
100
AcDbEntity
  8
RACCORDO
100
AcDbPolyline
 62
250
  6
CONTINUOUS
 90
23
 70
0
 10
43.4267105785
 20
-61.1323829694
 10
43.4520649225
 20
-61.1385561385
 10
43.4766021548
 20
-61.1427458048
 10
43.5003105983
 20
-61.1449656751
 10
43.5229226085
 20
-61.1451737442
 10
43.5444169445
 20
-61.1433471862
 10
43.5648159324
 20
-61.1395079703
 10
43.5839172593
 20
-61.1336813003
 10
43.6017124852
 20
-61.1258478488
 10
43.6182113067
 20
-61.1160259524
 10
43.6332385144
 20
-61.1042973911
 10
43.6467814203
 20
-61.0906410101
 10
43.6588539936
 20
-61.0750769557
 10
43.6693208113
 20
-61.0577491176
 10
43.6781657249
 20
-61.0386367249
 10
43.6854060299
 20
-61.0177596474
 10
43.6909561692
 20
-60.9953229722
 10
43.6947967564
 20
-60.9712996987
 10
43.6969480475
 20
-60.9457161466
 10
43.6973835466
 20
-60.9188577004
 10
43.6960944619
 20
-60.8908194582
 10
43.6930899638
 20
-60.8615060283
 10
43.6883702707
 20
-60.8309172413
  0
LWPOLYLINE
  5
229
100
AcDbEntity
  8
ASSI
100
AcDbPolyline
 62
250
  6
CONTINUOUS
 90
23
 70
0
 10
43.4267105785
 20
-61.1323829694
 10
43.4520649225
 20
-61.1385561385
 10
43.4766021548
 20
-61.1427458048
 10
43.5003105983
 20
-61.1449656751
 10
43.5229226085
 20
-61.1451737442
 10
43.5444169445
 20
-61.1433471862
 10
43.5648159324
 20
-61.1395079703
 10
43.5839172593
 20
-61.1336813003
 10
43.6017124852
 20
-61.1258478488
 10
43.6182113067
 20
-61.1160259524
 10
43.6332385144
 20
-61.1042973911
 10
43.6467814203
 20
-61.0906410101
 10
43.6588539936
 20
-61.0750769557
 10
43.6693208113
 20
-61.0577491176
 10
43.6781657249
 20
-61.0386367249
 10
43.6854060299
 20
-61.0177596474
 10
43.6909561692
 20
-60.9953229722
 10
43.6947967564
 20
-60.9712996987
 10
43.6969480475
 20
-60.9457161466
 10
43.6973835466
 20
-60.9188577004
 10
43.6960944619
 20
-60.8908194582
 10
43.6930899638
 20
-60.8615060283
 10
43.6883702707
 20
-60.8309172413
  0
LWPOLYLINE
  5
22A
100
AcDbEntity
  8
RACCORDO
100
AcDbPolyline
 62
250
  6
CONTINUOUS
 90
9
 70
0
 10
-43.6069794899
 20
4.9347972568
 10
-43.5153680577
 20
3.054346013
 10
-43.4011493287
 20
1.1901720001
 10
-43.2643478144
 20
-0.657347811
 10
-43.1049951668
 20
-2.4878352157
 10
-42.9231232675
 20
-4.3009242785
 10
-42.7187637919
 20
-6.096261103
 10
-42.4919576095
 20
-7.8734861339
 10
-42.2427552033
 20
-9.6322345346
  0
LWPOLYLINE
  5
22B
100
AcDbEntity
  8
ASSI
100
AcDbPolyline
 62
250
  6
CONTINUOUS
 90
9
 70
0
 10
-43.6069794899
 20
4.9347972568
 10
-43.5153680577
 20
3.054346013
 10
-43.4011493287
 20
1.1901720001
 10
-43.2643478144
 20
-0.657347811
 10
-43.1049951668
 20
-2.4878352157
 10
-42.9231232675
 20
-4.3009242785
 10
-42.7187637919
 20
-6.096261103
 10
-42.4919576095
 20
-7.8734861339
 10
-42.2427552033
 20
-9.6322345346
  0
LWPOLYLINE
  5
22C
100
AcDbEntity
  8
RACCORDO
100
AcDbPolyline
 62
7
  6
CONTINUOUS
 90
10
 70
0
 10
-43.6948440251
 20
5.0566723361
 10
-43.6059583461
 20
3.2258578494
 10
-43.4914211798
 20
1.347367855
 10
-43.3539661061
 20
-0.5143289527
 10
-43.1936196064
 20
-2.3587967394
 10
-43.010412608
 20
-4.1856794692
 10
-42.8043755037
 20
-5.9946521675
 10
-42.5755430693
 20
-7.7853653417
 10
-42.323968746
 20
-9.5574077045
 10
-42.0585146087
 20
-11.2565405887
  0
LWPOLYLINE
  5
22D
100
AcDbEntity
  8
ASSI
100
AcDbPolyline
 62
7
  6
CONTINUOUS
 90
10
 70
0
 10
-43.6948440251
 20
5.0566723361
 10
-43.6059583461
 20
3.2258578494
 10
-43.4914211798
 20
1.347367855
 10
-43.3539661061
 20
-0.5143289527
 10
-43.1936196064
 20
-2.3587967394
 10
-43.010412608
 20
-4.1856794692
 10
-42.8043755037
 20
-5.9946521675
 10
-42.5755430693
 20
-7.7853653417
 10
-42.323968746
 20
-9.5574077045
 10
-42.0585146087
 20
-11.2565405887
  0
LINE
  5
22E
100
AcDbEntity
  8
RACCORDO
100
AcDbLine
 62
250
  6
CONTINUOUS
 10
-43.7239174532
 20
7.9421070051
 11
-43.6069795619
 21
4.9347972984
  0
LINE
  5
22F
100
AcDbEntity
  8
ASSI
100
AcDbLine
 62
250
  6
CONTINUOUS
 10
-43.7239174532
 20
7.9421070051
 11
-43.6069795619
 21
4.9347972984
  0
LWPOLYLINE
  5
230
100
AcDbEntity
  8
RACCORDO
100
AcDbPolyline
 62
250
  6
CONTINUOUS
 90
12
 70
0
 10
-43.6069795614
 20
41.9497179875
 10
-43.723917461
 20
38.7924430788
 10
-43.8196112896
 20
35.647587425
 10
-43.8940513986
 20
32.5153739796
 10
-43.9472300706
 20
29.3959858289
 10
-43.9791399074
 20
26.2896836871
 10
-43.9897766404
 20
23.1968042987
 10
-43.9791399016
 20
20.1175661028
 10
-43.9472300605
 20
17.0521861155
 10
-43.8940513863
 20
14.0009946555
 10
-43.8196112778
 20
10.9642433945
 10
-43.7239174532
 20
7.9421070051
  0
LWPOLYLINE
  5
231
100
AcDbEntity
  8
ASSI
100
AcDbPolyline
 62
250
  6
CONTINUOUS
 90
12
 70
0
 10
-43.6069795614
 20
41.9497179875
 10
-43.723917461
 20
38.7924430788
 10
-43.8196112896
 20
35.647587425
 10
-43.8940513986
 20
32.5153739796
 10
-43.9472300706
 20
29.3959858289
 10
-43.9791399074
 20
26.2896836871
 10
-43.9897766404
 20
23.1968042987
 10
-43.9791399016
 20
20.1175661028
 10
-43.9472300605
 20
17.0521861155
 10
-43.8940513863
 20
14.0009946555
 10
-43.8196112778
 20
10.9642433945
 10
-43.7239174532
 20
7.9421070051
  0
LWPOLYLINE
  5
232
100
AcDbEntity
  8
RACCORDO
100
AcDbPolyline
 62
7
  6
CONTINUOUS
 90
13
 70
0
 10
-43.6948712773
 20
42.0718413139
 10
-43.809901674
 20
38.9708752323
 10
-43.906264396
 20
35.8149959222
 10
-43.9812256112
 20
32.6719310584
 10
-44.0347778816
 20
29.5419308897
 10
-44.0669182114
 20
26.4252144712
 10
-44.0776445979
 20
23.321988747
 10
-44.0669554614
 20
20.2324691322
 10
-44.0348516618
 20
17.1568694695
 10
-43.9813344808
 20
14.0953945508
 10
-43.9064061921
 20
11.0482600097
 10
-43.8100735109
 20
8.0157070259
 10
-43.6948440251
 20
5.0566722481
  0
LWPOLYLINE
  5
233
100
AcDbEntity
  8
ASSI
100
AcDbPolyline
 62
7
  6
CONTINUOUS
 90
13
 70
0
 10
-43.6948712773
 20
42.0718413139
 10
-43.809901674
 20
38.9708752323
 10
-43.906264396
 20
35.8149959222
 10
-43.9812256112
 20
32.6719310584
 10
-44.0347778816
 20
29.5419308897
 10
-44.0669182114
 20
26.4252144712
 10
-44.0776445979
 20
23.321988747
 10
-44.0669554614
 20
20.2324691322
 10
-44.0348516618
 20
17.1568694695
 10
-43.9813344808
 20
14.0953945508
 10
-43.9064061921
 20
11.0482600097
 10
-43.8100735109
 20
8.0157070259
 10
-43.6948440251
 20
5.0566722481
  0
LWPOLYLINE
  5
234
100
AcDbEntity
  8
RACCORDO
100
AcDbPolyline
 62
7
  6
CONTINUOUS
 90
16
 70
0
 10
-42.0047310712
 20
-11.4573073772
 10
-41.9835280042
 20
-11.511474664
 10
-41.9596412463
 20
-11.5656478343
 10
-41.9331660493
 20
-11.6196968538
 10
-41.9042473135
 20
-11.6733793639
 10
-41.8730015673
 20
-11.7265390443
 10
-41.8395295252
 20
-11.7790254643
 10
-41.8040258933
 20
-11.8305500686
 10
-41.7666248645
 20
-11.8809405946
 10
-41.7274493827
 20
-11.9300222327
 10
-41.6867343976
 20
-11.9775041349
 10
-41.6446146507
 20
-12.0232267132
 10
-41.601229525
 20
-12.0670162438
 10
-41.5568303623
 20
-12.108613212
 10
-41.5115531052
 20
-12.1478698087
 10
-41.4655063258
 20
-12.1846610389
  0
LWPOLYLINE
  5
235
100
AcDbEntity
  8
ASSI
100
AcDbPolyline
 62
7
  6
CONTINUOUS
 90
16
 70
0
 10
-42.0047310712
 20
-11.4573073772
 10
-41.9835280042
 20
-11.511474664
 10
-41.9596412463
 20
-11.5656478343
 10
-41.9331660493
 20
-11.6196968538
 10
-41.9042473135
 20
-11.6733793639
 10
-41.8730015673
 20
-11.7265390443
 10
-41.8395295252
 20
-11.7790254643
 10
-41.8040258933
 20
-11.8305500686
 10
-41.7666248645
 20
-11.8809405946
 10
-41.7274493827
 20
-11.9300222327
 10
-41.6867343976
 20
-11.9775041349
 10
-41.6446146507
 20
-12.0232267132
 10
-41.601229525
 20
-12.0670162438
 10
-41.5568303623
 20
-12.108613212
 10
-41.5115531052
 20
-12.1478698087
 10
-41.4655063258
 20
-12.1846610389
  0
LWPOLYLINE
  5
236
100
AcDbEntity
  8
RACCORDO
100
AcDbPolyline
 62
7
  6
CONTINUOUS
 90
4
 70
0
 10
-42.051282158
 20
-11.2956493089
 10
-42.0387116154
 20
-11.3493405237
 10
-42.0231577039
 20
-11.4032372164
 10
-42.0047310712
 20
-11.4573073772
  0
LWPOLYLINE
  5
237
100
AcDbEntity
  8
ASSI
100
AcDbPolyline
 62
7
  6
CONTINUOUS
 90
4
 70
0
 10
-42.051282158
 20
-11.2956493089
 10
-42.0387116154
 20
-11.3493405237
 10
-42.0231577039
 20
-11.4032372164
 10
-42.0047310712
 20
-11.4573073772
  0
LWPOLYLINE
  5
238
100
AcDbEntity
  8
RACCORDO
100
AcDbPolyline
 62
250
  6
CONTINUOUS
 90
8
 70
0
 10
-41.3904891533
 20
-12.1794297064
 10
-41.3862370527
 20
-12.1982214679
 10
-41.3803652184
 20
-12.2155571386
 10
-41.3729201911
 20
-12.2312993142
 10
-41.3639609808
 20
-12.2453232208
 10
-41.3535585991
 20
-12.2575177035
 10
-41.3417954962
 20
-12.2677861077
 10
-41.331889762
 20
-12.2743164515
  0
LWPOLYLINE
  5
239
100
AcDbEntity
  8
ASSI
100
AcDbPolyline
 62
250
  6
CONTINUOUS
 90
8
 70
0
 10
-41.3904891533
 20
-12.1794297064
 10
-41.3862370527
 20
-12.1982214679
 10
-41.3803652184
 20
-12.2155571386
 10
-41.3729201911
 20
-12.2312993142
 10
-41.3639609808
 20
-12.2453232208
 10
-41.3535585991
 20
-12.2575177035
 10
-41.3417954962
 20
-12.2677861077
 10
-41.331889762
 20
-12.2743164515
  0
LWPOLYLINE
  5
23A
100
AcDbEntity
  8
RACCORDO
100
AcDbPolyline
 62
250
  6
CONTINUOUS
 90
28
 70
0
 10
-41.9712094557
 20
-11.372149474
 10
-41.9652997841
 20
-11.4034460282
 10
-41.9577776283
 20
-11.435366459
 10
-41.9486432243
 20
-11.4679109496
 10
-41.9378560301
 20
-11.5011887804
 10
-41.9254570081
 20
-11.5350909973
 10
-41.9115688443
 20
-11.5692905845
 10
-41.8961681148
 20
-11.6038090038
 10
-41.879279067
 20
-11.6386254379
 10
-41.8610962794
 20
-11.6733497564
 10
-41.8416131905
 20
-11.7079660481
 10
-41.8208375146
 20
-11.7424911296
 10
-41.7989855553
 20
-11.7765842083
 10
-41.7760478054
 20
-11.8102416143
 10
-41.752035046
 20
-11.8434680203
 10
-41.7271942118
 20
-11.8759353043
 10
-41.70151917
 20
-11.9076350846
 10
-41.6750173084
 20
-11.9385767325
 10
-41.6479559478
 20
-11.9684588393
 10
-41.6203303383
 20
-11.9972712762
 10
-41.5921463192
 20
-12.025025032
 10
-41.5636871155
 20
-12.0514503914
 10
-41.5349455359
 20
-12.0765373755
 10
-41.5059295721
 20
-12.1002965954
 10
-41.4769451758
 20
-12.1224891824
 10
-41.4480944766
 20
-12.1430356285
 10
-41.4192757673
 20
-12.1620157754
 10
-41.3904891533
 20
-12.1794297064
  0
LWPOLYLINE
  5
23B
100
AcDbEntity
  8
ASSI
100
AcDbPolyline
 62
250
  6
CONTINUOUS
 90
28
 70
0
 10
-41.9712094557
 20
-11.372149474
 10
-41.9652997841
 20
-11.4034460282
 10
-41.9577776283
 20
-11.435366459
 10
-41.9486432243
 20
-11.4679109496
 10
-41.9378560301
 20
-11.5011887804
 10
-41.9254570081
 20
-11.5350909973
 10
-41.9115688443
 20
-11.5692905845
 10
-41.8961681148
 20
-11.6038090038
 10
-41.879279067
 20
-11.6386254379
 10
-41.8610962794
 20
-11.6733497564
 10
-41.8416131905
 20
-11.7079660481
 10
-41.8208375146
 20
-11.7424911296
 10
-41.7989855553
 20
-11.7765842083
 10
-41.7760478054
 20
-11.8102416143
 10
-41.752035046
 20
-11.8434680203
 10
-41.7271942118
 20
-11.8759353043
 10
-41.70151917
 20
-11.9076350846
 10
-41.6750173084
 20
-11.9385767325
 10
-41.6479559478
 20
-11.9684588393
 10
-41.6203303383
 20
-11.9972712762
 10
-41.5921463192
 20
-12.025025032
 10
-41.5636871155
 20
-12.0514503914
 10
-41.5349455359
 20
-12.0765373755
 10
-41.5059295721
 20
-12.1002965954
 10
-41.4769451758
 20
-12.1224891824
 10
-41.4480944766
 20
-12.1430356285
 10
-41.4192757673
 20
-12.1620157754
 10
-41.3904891533
 20
-12.1794297064
  0
LINE
  5
23C
100
AcDbEntity
  8
RACCORDO
100
AcDbLine
 62
7
  6
CONTINUOUS
 10
-42.0585405157
 20
-11.2563554412
 11
-42.051282158
 21
-11.2956493089
  0
LINE
  5
23D
100
AcDbEntity
  8
ASSI
100
AcDbLine
 62
7
  6
CONTINUOUS
 10
-42.0585405157
 20
-11.2563554412
 11
-42.051282158
 21
-11.2956493089
  0
LINE
  5
23E
100
AcDbEntity
  8
RACCORDO
100
AcDbLine
 62
7
  6
CONTINUOUS
 10
-42.058510513
 20
-11.2565399207
 11
-42.0585405157
 21
-11.2563554412
  0
LINE
  5
23F
100
AcDbEntity
  8
ASSI
100
AcDbLine
 62
7
  6
CONTINUOUS
 10
-42.058510513
 20
-11.2565399207
 11
-42.0585405157
 21
-11.2563554412
  0
LINE
  5
240
100
AcDbEntity
  8
RACCORDO
100
AcDbLine
 62
250
  6
CONTINUOUS
 10
-42.2427552033
 20
-9.6322345346
 11
-41.9712094557
 21
-11.372149474
  0
LINE
  5
241
100
AcDbEntity
  8
ASSI
100
AcDbLine
 62
250
  6
CONTINUOUS
 10
-42.2427552033
 20
-9.6322345346
 11
-41.9712094557
 21
-11.372149474
  0
LWPOLYLINE
  5
242
100
AcDbEntity
  8
RACCORDO
100
AcDbPolyline
 62
250
  6
CONTINUOUS
 90
16
 70
0
 10
-25.063237578
 20
31.2428430794
 10
-25.0254860489
 20
31.2729610067
 10
-24.9855168284
 20
31.298874543
 10
-24.9433323987
 20
31.320582396
 10
-24.8987591488
 20
31.3381603504
 10
-24.8519751244
 20
31.3515303159
 10
-24.8035104405
 20
31.3604601137
 10
-24.7533078038
 20
31.364871741
 10
-24.7014287302
 20
31.3648410133
 10
-24.6485818168
 20
31.3603663423
 10
-24.5947375896
 20
31.3513435907
 10
-24.5399287591
 20
31.3378752236
 10
-24.4849570666
 20
31.3202696247
 10
-24.4300903384
 20
31.29862929
 10
-24.3750624329
 20
31.2728508545
 10
-24.3198737659
 20
31.2429341035
  0
LWPOLYLINE
  5
243
100
AcDbEntity
  8
ASSI
100
AcDbPolyline
 62
250
  6
CONTINUOUS
 90
16
 70
0
 10
-25.063237578
 20
31.2428430794
 10
-25.0254860489
 20
31.2729610067
 10
-24.9855168284
 20
31.298874543
 10
-24.9433323987
 20
31.320582396
 10
-24.8987591488
 20
31.3381603504
 10
-24.8519751244
 20
31.3515303159
 10
-24.8035104405
 20
31.3604601137
 10
-24.7533078038
 20
31.364871741
 10
-24.7014287302
 20
31.3648410133
 10
-24.6485818168
 20
31.3603663423
 10
-24.5947375896
 20
31.3513435907
 10
-24.5399287591
 20
31.3378752236
 10
-24.4849570666
 20
31.3202696247
 10
-24.4300903384
 20
31.29862929
 10
-24.3750624329
 20
31.2728508545
 10
-24.3198737659
 20
31.2429341035
  0
LWPOLYLINE
  5
244
100
AcDbEntity
  8
RACCORDO
100
AcDbPolyline
 62
250
  6
CONTINUOUS
 90
4
 70
0
 10
-24.4579772045
 20
31.0003105643
 10
-24.4340917267
 20
31.0190265106
 10
-24.4086443698
 20
31.0352904217
 10
-24.3851795536
 20
31.0474468635
  0
LWPOLYLINE
  5
245
100
AcDbEntity
  8
ASSI
100
AcDbPolyline
 62
250
  6
CONTINUOUS
 90
4
 70
0
 10
-24.4579772045
 20
31.0003105643
 10
-24.4340917267
 20
31.0190265106
 10
-24.4086443698
 20
31.0352904217
 10
-24.3851795536
 20
31.0474468635
  0
LINE
  5
246
100
AcDbEntity
  8
0
100
AcDbLine
 62
7
  6
CONTINUOUS
 10
-22.5403077401
 20
29.4187762635
 11
-22.1867543495
 21
29.608657675
  0
LINE
  5
247
100
AcDbEntity
  8
ASSI
100
AcDbLine
 62
7
  6
CONTINUOUS
 10
-22.5403077401
 20
29.4187762635
 11
-22.1867543495
 21
29.608657675
  0
LINE
  5
248
100
AcDbEntity
  8
0
100
AcDbLine
 62
250
  6
CONTINUOUS
 10
-24.5988639585
 20
30.6580544409
 11
-24.0655552406
 21
30.9046445901
  0
LINE
  5
249
100
AcDbEntity
  8
ASSI
100
AcDbLine
 62
250
  6
CONTINUOUS
 10
-24.5988639585
 20
30.6580544409
 11
-24.0655552406
 21
30.9046445901
  0
LWPOLYLINE
  5
24A
100
AcDbEntity
  8
RACCORDO
100
AcDbPolyline
 62
7
  6
CONTINUOUS
 90
13
 70
0
 10
-24.3864692011
 20
31.0469953489
 10
-24.386418207
 20
31.0470182312
 10
-24.3848358658
 20
31.047316717
 10
-24.3806960877
 20
31.0477301865
 10
-24.3731002651
 20
31.0478334635
 10
-24.3616705915
 20
31.0470088508
 10
-24.3467938341
 20
31.0447265069
 10
-24.3288466807
 20
31.0406022263
 10
-24.3080430415
 20
31.0343035343
 10
-24.2847310475
 20
31.0256039931
 10
-24.2594400589
 20
31.0144396216
 10
-24.2325020524
 20
31.0007518512
 10
-24.2169842781
 20
30.9920764324
  0
LWPOLYLINE
  5
24B
100
AcDbEntity
  8
ASSI
100
AcDbPolyline
 62
7
  6
CONTINUOUS
 90
13
 70
0
 10
-24.3864692011
 20
31.0469953489
 10
-24.386418207
 20
31.0470182312
 10
-24.3848358658
 20
31.047316717
 10
-24.3806960877
 20
31.0477301865
 10
-24.3731002651
 20
31.0478334635
 10
-24.3616705915
 20
31.0470088508
 10
-24.3467938341
 20
31.0447265069
 10
-24.3288466807
 20
31.0406022263
 10
-24.3080430415
 20
31.0343035343
 10
-24.2847310475
 20
31.0256039931
 10
-24.2594400589
 20
31.0144396216
 10
-24.2325020524
 20
31.0007518512
 10
-24.2169842781
 20
30.9920764324
  0
LWPOLYLINE
  5
24C
100
AcDbEntity
  8
RACCORDO
100
AcDbPolyline
 62
250
  6
CONTINUOUS
 90
12
 70
0
 10
23.2887132625
 20
-33.1431551905
 10
23.2629759929
 20
-33.1494405786
 10
23.2359629165
 20
-33.1531004735
 10
23.2077535883
 20
-33.1541036917
 10
23.178477672
 20
-33.1524262632
 10
23.1482990765
 20
-33.1480951748
 10
23.1173377055
 20
-33.141128328
 10
23.0857255951
 20
-33.1315558922
 10
23.0536635328
 20
-33.1194833971
 10
23.0213104224
 20
-33.105007407
 10
22.988775326
 20
-33.0881873754
 10
22.9561883699
 20
-33.0691094552
  0
LWPOLYLINE
  5
24D
100
AcDbEntity
  8
ASSI
100
AcDbPolyline
 62
250
  6
CONTINUOUS
 90
12
 70
0
 10
23.2887132625
 20
-33.1431551905
 10
23.2629759929
 20
-33.1494405786
 10
23.2359629165
 20
-33.1531004735
 10
23.2077535883
 20
-33.1541036917
 10
23.178477672
 20
-33.1524262632
 10
23.1482990765
 20
-33.1480951748
 10
23.1173377055
 20
-33.141128328
 10
23.0857255951
 20
-33.1315558922
 10
23.0536635328
 20
-33.1194833971
 10
23.0213104224
 20
-33.105007407
 10
22.988775326
 20
-33.0881873754
 10
22.9561883699
 20
-33.0691094552
  0
LWPOLYLINE
  5
24E
100
AcDbEntity
  8
RACCORDO
100
AcDbPolyline
 62
250
  6
CONTINUOUS
 90
19
 70
0
 10
43.6883703187
 20
-60.8309172037
 10
43.7069667511
 20
-60.8404868787
 10
43.7269171735
 20
-60.8488209458
 10
43.7480795439
 20
-60.8558600683
 10
43.7703031913
 20
-60.8615541293
 10
43.7934298887
 20
-60.8658625886
 10
43.8172949795
 20
-60.868754771
 10
43.8417285501
 20
-60.8702100847
 10
43.8665566394
 20
-60.8702181684
 10
43.8916024774
 20
-60.8687789645
 10
43.9166877437
 20
-60.8659027197
 10
43.9416338375
 20
-60.8616099122
 10
43.9662631484
 20
-60.8559311059
 10
43.9904003217
 20
-60.8489067323
 10
44.0138735067
 20
-60.8405868034
 10
44.0365155799
 20
-60.831030555
 10
44.0581653353
 20
-60.8203060254
 10
44.0786686317
 20
-60.8084895705
 10
44.0978794907
 20
-60.7956653206
  0
LWPOLYLINE
  5
24F
100
AcDbEntity
  8
ASSI
100
AcDbPolyline
 62
250
  6
CONTINUOUS
 90
19
 70
0
 10
43.6883703187
 20
-60.8309172037
 10
43.7069667511
 20
-60.8404868787
 10
43.7269171735
 20
-60.8488209458
 10
43.7480795439
 20
-60.8558600683
 10
43.7703031913
 20
-60.8615541293
 10
43.7934298887
 20
-60.8658625886
 10
43.8172949795
 20
-60.868754771
 10
43.8417285501
 20
-60.8702100847
 10
43.8665566394
 20
-60.8702181684
 10
43.8916024774
 20
-60.8687789645
 10
43.9166877437
 20
-60.8659027197
 10
43.9416338375
 20
-60.8616099122
 10
43.9662631484
 20
-60.8559311059
 10
43.9904003217
 20
-60.8489067323
 10
44.0138735067
 20
-60.8405868034
 10
44.0365155799
 20
-60.831030555
 10
44.0581653353
 20
-60.8203060254
 10
44.0786686317
 20
-60.8084895705
 10
44.0978794907
 20
-60.7956653206
  0
LWPOLYLINE
  5
250
100
AcDbEntity
  8
RACCORDO
100
AcDbPolyline
 62
250
  6
CONTINUOUS
 90
6
 70
0
 10
43.290039262
 20
-61.0729055171
 10
43.3185396534
 20
-61.0885594775
 10
43.3464413904
 20
-61.1023287266
 10
43.3737445779
 20
-61.1142131817
 10
43.4005266439
 20
-61.1242406379
 10
43.4267105785
 20
-61.1323829694
  0
LWPOLYLINE
  5
251
100
AcDbEntity
  8
ASSI
100
AcDbPolyline
 62
250
  6
CONTINUOUS
 90
6
 70
0
 10
43.290039262
 20
-61.0729055171
 10
43.3185396534
 20
-61.0885594775
 10
43.3464413904
 20
-61.1023287266
 10
43.3737445779
 20
-61.1142131817
 10
43.4005266439
 20
-61.1242406379
 10
43.4267105785
 20
-61.1323829694
  0
LWPOLYLINE
  5
252
100
AcDbEntity
  8
RACCORDO
100
AcDbPolyline
 62
7
  6
CONTINUOUS
 90
16
 70
0
 10
43.3485821492
 20
-61.1677541987
 10
43.3787181502
 20
-61.1845240289
 10
43.4230207623
 20
-61.2068572024
 10
43.4669855244
 20
-61.2262493774
 10
43.5105983441
 20
-61.2427107764
 10
43.553832597
 20
-61.2562304759
 10
43.596685254
 20
-61.2667959796
 10
43.6391659709
 20
-61.2743954844
 10
43.681248487
 20
-61.2789927326
 10
43.7229444129
 20
-61.2805348222
 10
43.7641077091
 20
-61.2789600615
 10
43.8044001226
 20
-61.2742592507
 10
43.8437038643
 20
-61.2664418425
 10
43.8818273565
 20
-61.2555391882
 10
43.9182736441
 20
-61.2417391927
 10
43.930617102
 20
-61.2362486965
  0
LWPOLYLINE
  5
253
100
AcDbEntity
  8
ASSI
100
AcDbPolyline
 62
7
  6
CONTINUOUS
 90
16
 70
0
 10
43.3485821492
 20
-61.1677541987
 10
43.3787181502
 20
-61.1845240289
 10
43.4230207623
 20
-61.2068572024
 10
43.4669855244
 20
-61.2262493774
 10
43.5105983441
 20
-61.2427107764
 10
43.553832597
 20
-61.2562304759
 10
43.596685254
 20
-61.2667959796
 10
43.6391659709
 20
-61.2743954844
 10
43.681248487
 20
-61.2789927326
 10
43.7229444129
 20
-61.2805348222
 10
43.7641077091
 20
-61.2789600615
 10
43.8044001226
 20
-61.2742592507
 10
43.8437038643
 20
-61.2664418425
 10
43.8818273565
 20
-61.2555391882
 10
43.9182736441
 20
-61.2417391927
 10
43.930617102
 20
-61.2362486965
  0
LINE
  5
254
100
AcDbEntity
  8
RACCORDO
100
AcDbLine
 62
7
  6
CONTINUOUS
 10
-41.331889762
 20
-12.2743164515
 11
43.3486387191
 21
-61.1677923002
  0
LINE
  5
255
100
AcDbEntity
  8
ASSI
100
AcDbLine
 62
7
  6
CONTINUOUS
 10
-41.331889762
 20
-12.2743164515
 11
43.3486387191
 21
-61.1677923002
  0
LINE
  5
256
100
AcDbEntity
  8
RACCORDO
100
AcDbLine
 62
250
  6
CONTINUOUS
 10
-41.3904891533
 20
-12.1794297064
 11
43.290039262
 21
-61.0729055171
  0
LINE
  5
257
100
AcDbEntity
  8
ASSI
100
AcDbLine
 62
250
  6
CONTINUOUS
 10
-41.3904891533
 20
-12.1794297064
 11
43.290039262
 21
-61.0729055171
  0
LINE
  5
258
100
AcDbEntity
  8
RACCORDO
100
AcDbLine
 62
7
  6
CONTINUOUS
 10
43.3485798056
 20
-61.1677582576
 11
43.3486386956
 21
-61.1677922867
  0
LINE
  5
259
100
AcDbEntity
  8
ASSI
100
AcDbLine
 62
7
  6
CONTINUOUS
 10
43.3485798056
 20
-61.1677582576
 11
43.3486386956
 21
-61.1677922867
  0
LINE
  5
25A
100
AcDbEntity
  8
RACCORDO
100
AcDbLine
 62
7
  6
CONTINUOUS
 10
-41.3716407653
 20
-12.250257864
 11
-41.3317849934
 21
-12.274371929
  0
LINE
  5
25B
100
AcDbEntity
  8
ASSI
100
AcDbLine
 62
7
  6
CONTINUOUS
 10
-41.3716407653
 20
-12.250257864
 11
-41.3317849934
 21
-12.274371929
  0
LWPOLYLINE
  5
25C
100
AcDbEntity
  8
RACCORDO
100
AcDbPolyline
 62
250
  6
CONTINUOUS
 90
10
 70
0
 10
-41.9712094126
 20
-11.37214944
 10
-41.9883777695
 20
-11.3610685408
 10
-42.0039375088
 20
-11.3488991034
 10
-42.0177778515
 20
-11.3357277691
 10
-42.0298002601
 20
-11.3216483125
 10
-42.0399191399
 20
-11.3067609735
 10
-42.0480624487
 20
-11.2911717438
 10
-42.0541722095
 20
-11.2749916122
 10
-42.0582049234
 20
-11.2583357747
 10
-42.058510513
 20
-11.2565399207
  0
LWPOLYLINE
  5
25D
100
AcDbEntity
  8
ASSI
100
AcDbPolyline
 62
250
  6
CONTINUOUS
 90
10
 70
0
 10
-41.9712094126
 20
-11.37214944
 10
-41.9883777695
 20
-11.3610685408
 10
-42.0039375088
 20
-11.3488991034
 10
-42.0177778515
 20
-11.3357277691
 10
-42.0298002601
 20
-11.3216483125
 10
-42.0399191399
 20
-11.3067609735
 10
-42.0480624487
 20
-11.2911717438
 10
-42.0541722095
 20
-11.2749916122
 10
-42.0582049234
 20
-11.2583357747
 10
-42.058510513
 20
-11.2565399207
  0
LWPOLYLINE
  5
25E
100
AcDbEntity
  8
RACCORDO
100
AcDbPolyline
 62
7
  6
CONTINUOUS
 90
3
 70
0
 10
-41.4655063258
 20
-12.1846610389
 10
-41.4188424114
 20
-12.2188294032
 10
-41.3716407653
 20
-12.250257864
  0
LWPOLYLINE
  5
25F
100
AcDbEntity
  8
ASSI
100
AcDbPolyline
 62
7
  6
CONTINUOUS
 90
3
 70
0
 10
-41.4655063258
 20
-12.1846610389
 10
-41.4188424114
 20
-12.2188294032
 10
-41.3716407653
 20
-12.250257864
  0
LWPOLYLINE
  5
260
100
AcDbEntity
  8
RACCORDO
100
AcDbPolyline
 62
250
  6
CONTINUOUS
 90
13
 70
0
 10
-25.2865651415
 20
-5.0244837041
 10
-25.4074588518
 20
-2.1130484948
 10
-25.50638227
 20
0.8107867755
 10
-25.5833292207
 20
3.7468303053
 10
-25.6382950085
 20
6.6948895536
 10
-25.6712760919
 20
9.6547709425
 10
-25.6822700871
 20
12.6262798684
 10
-25.6712760925
 20
15.6092211076
 10
-25.6382950095
 20
18.6033988932
 10
-25.5833292221
 20
21.6086166163
 10
-25.5063822713
 20
24.6246768586
 10
-25.4074588528
 20
27.6513814076
 10
-25.2865651415
 20
30.6885313312
  0
LWPOLYLINE
  5
261
100
AcDbEntity
  8
ASSI
100
AcDbPolyline
 62
250
  6
CONTINUOUS
 90
13
 70
0
 10
-25.2865651415
 20
-5.0244837041
 10
-25.4074588518
 20
-2.1130484948
 10
-25.50638227
 20
0.8107867755
 10
-25.5833292207
 20
3.7468303053
 10
-25.6382950085
 20
6.6948895536
 10
-25.6712760919
 20
9.6547709425
 10
-25.6822700871
 20
12.6262798684
 10
-25.6712760925
 20
15.6092211076
 10
-25.6382950095
 20
18.6033988932
 10
-25.5833292221
 20
21.6086166163
 10
-25.5063822713
 20
24.6246768586
 10
-25.4074588528
 20
27.6513814076
 10
-25.2865651415
 20
30.6885313312
  0
LWPOLYLINE
  5
262
100
AcDbEntity
  8
RACCORDO
100
AcDbPolyline
 62
250
  6
CONTINUOUS
 90
13
 70
0
 10
-24.5988633798
 20
-5.0153139966
 10
-24.7196377048
 20
-2.1067838379
 10
-24.818454834
 20
0.8137471749
 10
-24.8953147675
 20
3.7462790418
 10
-24.9502196776
 20
6.6910058698
 10
-24.9831673919
 20
9.6477335519
 10
-24.9941513933
 20
12.6158797668
 10
-24.9831673032
 20
15.5954477099
 10
-24.9502195002
 20
18.5864341857
 10
-24.8953146023
 20
21.5882472875
 10
-24.8184548158
 20
24.6006897127
 10
-24.7196379345
 20
27.6239587639
 10
-24.5988639585
 20
30.6580544409
  0
LWPOLYLINE
  5
263
100
AcDbEntity
  8
ASSI
100
AcDbPolyline
 62
250
  6
CONTINUOUS
 90
13
 70
0
 10
-24.5988633798
 20
-5.0153139966
 10
-24.7196377048
 20
-2.1067838379
 10
-24.818454834
 20
0.8137471749
 10
-24.8953147675
 20
3.7462790418
 10
-24.9502196776
 20
6.6910058698
 10
-24.9831673919
 20
9.6477335519
 10
-24.9941513933
 20
12.6158797668
 10
-24.9831673032
 20
15.5954477099
 10
-24.9502195002
 20
18.5864341857
 10
-24.8953146023
 20
21.5882472875
 10
-24.8184548158
 20
24.6006897127
 10
-24.7196379345
 20
27.6239587639
 10
-24.5988639585
 20
30.6580544409
  0
LWPOLYLINE
  5
264
100
AcDbEntity
  8
RACCORDO
100
AcDbPolyline
 62
250
  6
CONTINUOUS
 90
22
 70
0
 10
-24.3198737659
 20
-6.5882864334
 10
-24.3202959729
 20
-6.5579854094
 10
-24.3187388445
 20
-6.526590609
 10
-24.3152111005
 20
-6.4942778335
 10
-24.3097324954
 20
-6.4612280248
 10
-24.302333708
 20
-6.4276262517
 10
-24.2930561694
 20
-6.3936606738
 10
-24.2819518313
 20
-6.3595214882
 10
-24.2690828746
 20
-6.3253998636
 10
-24.2545213618
 20
-6.2914868706
 10
-24.238348833
 20
-6.2579724116
 10
-24.2206558495
 20
-6.225044157
 10
-24.2015414868
 20
-6.1928864948
 10
-24.1811127793
 20
-6.1616794978
 10
-24.1594841217
 20
-6.1315979155
 10
-24.1367766277
 20
-6.1028101951
 10
-24.1131174523
 20
-6.0754775389
 10
-24.0886390796
 20
-6.0497530011
 10
-24.0634785808
 20
-6.025780631
 10
-24.0377768468
 20
-6.0036946661
 10
-24.0116777993
 20
-5.9836187811
 10
-23.9853275851
 20
-5.9656653946
  0
LWPOLYLINE
  5
265
100
AcDbEntity
  8
ASSI
100
AcDbPolyline
 62
250
  6
CONTINUOUS
 90
22
 70
0
 10
-24.3198737659
 20
-6.5882864334
 10
-24.3202959729
 20
-6.5579854094
 10
-24.3187388445
 20
-6.526590609
 10
-24.3152111005
 20
-6.4942778335
 10
-24.3097324954
 20
-6.4612280248
 10
-24.302333708
 20
-6.4276262517
 10
-24.2930561694
 20
-6.3936606738
 10
-24.2819518313
 20
-6.3595214882
 10
-24.2690828746
 20
-6.3253998636
 10
-24.2545213618
 20
-6.2914868706
 10
-24.238348833
 20
-6.2579724116
 10
-24.2206558495
 20
-6.225044157
 10
-24.2015414868
 20
-6.1928864948
 10
-24.1811127793
 20
-6.1616794978
 10
-24.1594841217
 20
-6.1315979155
 10
-24.1367766277
 20
-6.1028101951
 10
-24.1131174523
 20
-6.0754775389
 10
-24.0886390796
 20
-6.0497530011
 10
-24.0634785808
 20
-6.025780631
 10
-24.0377768468
 20
-6.0036946661
 10
-24.0116777993
 20
-5.9836187811
 10
-23.9853275851
 20
-5.9656653946
  0
LWPOLYLINE
  5
266
100
AcDbEntity
  8
RACCORDO
100
AcDbPolyline
 62
250
  6
CONTINUOUS
 90
13
 70
0
 10
-24.3198737659
 20
31.2429341035
 10
-24.3202959731
 20
31.2121455361
 10
-24.3187388462
 20
31.1825488769
 10
-24.3152111047
 20
31.1543098581
 10
-24.3097325029
 20
31.1275866096
 10
-24.3023337193
 20
31.1025287732
 10
-24.2930561847
 20
31.0792766652
 10
-24.2819518505
 20
31.0579604901
 10
-24.2690828976
 20
31.038699612
 10
-24.254521388
 20
31.021601886
 10
-24.2383488619
 20
31.0067630539
 10
-24.2206558803
 20
30.9942662087
 10
-24.2169836346
 20
30.9920775476
  0
LWPOLYLINE
  5
267
100
AcDbEntity
  8
ASSI
100
AcDbPolyline
 62
250
  6
CONTINUOUS
 90
13
 70
0
 10
-24.3198737659
 20
31.2429341035
 10
-24.3202959731
 20
31.2121455361
 10
-24.3187388462
 20
31.1825488769
 10
-24.3152111047
 20
31.1543098581
 10
-24.3097325029
 20
31.1275866096
 10
-24.3023337193
 20
31.1025287732
 10
-24.2930561847
 20
31.0792766652
 10
-24.2819518505
 20
31.0579604901
 10
-24.2690828976
 20
31.038699612
 10
-24.254521388
 20
31.021601886
 10
-24.2383488619
 20
31.0067630539
 10
-24.2206558803
 20
30.9942662087
 10
-24.2169836346
 20
30.9920775476
  0
LINE
  5
268
100
AcDbEntity
  8
0
100
AcDbLine
 62
250
  6
CONTINUOUS
 10
-25.6979013395
 20
34.8888926925
 11
-25.7545347262
 21
33.9180583328
  0
LINE
  5
269
100
AcDbEntity
  8
0
100
AcDbLine
 62
250
  6
CONTINUOUS
 10
-24.5534855746
 20
33.2245875946
 11
-24.496852188
 21
34.1954219542
  0
LINE
  5
26A
100
AcDbEntity
  8
0
100
AcDbLine
 62
250
  6
CONTINUOUS
 10
-25.6220613418
 20
34.9326738725
 11
-25.6791831368
 21
33.9615574909
  0
LINE
  5
26B
100
AcDbEntity
  8
0
100
AcDbLine
 62
250
  6
CONTINUOUS
 10
-24.6194337179
 20
33.3496714699
 11
-24.5623119229
 21
34.3207878515
  0
LINE
  5
26C
100
AcDbEntity
  8
0
100
AcDbLine
 62
250
  6
CONTINUOUS
 10
-25.54617884
 20
34.9764795938
 11
-25.6037890553
 21
34.0050820321
  0
LINE
  5
26D
100
AcDbEntity
  8
0
100
AcDbLine
 62
250
  6
CONTINUOUS
 10
-24.685339371
 20
33.4747806949
 11
-24.6277291557
 21
34.4461782565
  0
LWPOLYLINE
  5
26E
100
AcDbEntity
  8
RACCORDO
100
AcDbPolyline
 62
250
  6
CONTINUOUS
 90
13
 70
0
 10
-25.2865651415
 20
30.6885313312
 10
-25.2828460735
 20
30.7458839348
 10
-25.2763348897
 20
30.8016896659
 10
-25.2670315681
 20
30.8559485344
 10
-25.2549162874
 20
30.9089662289
 10
-25.2400087439
 20
30.9604371232
 10
-25.2223685592
 20
31.0094440645
 10
-25.2018696676
 20
31.0559423168
 10
-25.1786388034
 20
31.0999762656
 10
-25.153115528
 20
31.1407620552
 10
-25.12544698
 20
31.1780380784
 10
-25.095487451
 20
31.212065197
 10
-25.063237578
 20
31.2428430794
  0
LWPOLYLINE
  5
26F
100
AcDbEntity
  8
ASSI
100
AcDbPolyline
 62
250
  6
CONTINUOUS
 90
13
 70
0
 10
-25.2865651415
 20
30.6885313312
 10
-25.2828460735
 20
30.7458839348
 10
-25.2763348897
 20
30.8016896659
 10
-25.2670315681
 20
30.8559485344
 10
-25.2549162874
 20
30.9089662289
 10
-25.2400087439
 20
30.9604371232
 10
-25.2223685592
 20
31.0094440645
 10
-25.2018696676
 20
31.0559423168
 10
-25.1786388034
 20
31.0999762656
 10
-25.153115528
 20
31.1407620552
 10
-25.12544698
 20
31.1780380784
 10
-25.095487451
 20
31.212065197
 10
-25.063237578
 20
31.2428430794
  0
LWPOLYLINE
  5
270
100
AcDbEntity
  8
0
100
AcDbPolyline
 62
250
  6
CONTINUOUS
 90
3
 70
0
 10
-23.6843773034
 20
33.7263091494
 10
-23.6211902325
 20
34.7143735973
 10
-23.5903604478
 20
35.1674007388
  0
LWPOLYLINE
  5
271
100
AcDbEntity
  8
RACCORDO
100
AcDbPolyline
 62
250
  6
CONTINUOUS
 90
13
 70
0
 10
-24.5988638224
 20
30.6580545038
 10
-24.5965671246
 20
30.6930859541
 10
-24.5925533
 20
30.7274523981
 10
-24.5867884297
 20
30.7610207183
 10
-24.579228555
 20
30.7937156152
 10
-24.5698589288
 20
30.8253329631
 10
-24.558724112
 20
30.8555690384
 10
-24.5458184837
 20
30.8843430485
 10
-24.5311786723
 20
30.9115116877
 10
-24.514986451
 20
30.936755087
 10
-24.4973655815
 20
30.9599573135
 10
-24.4783382856
 20
30.9811537377
 10
-24.4579772045
 20
31.0003105643
  0
LWPOLYLINE
  5
272
100
AcDbEntity
  8
ASSI
100
AcDbPolyline
 62
250
  6
CONTINUOUS
 90
13
 70
0
 10
-24.5988638224
 20
30.6580545038
 10
-24.5965671246
 20
30.6930859541
 10
-24.5925533
 20
30.7274523981
 10
-24.5867884297
 20
30.7610207183
 10
-24.579228555
 20
30.7937156152
 10
-24.5698589288
 20
30.8253329631
 10
-24.558724112
 20
30.8555690384
 10
-24.5458184837
 20
30.8843430485
 10
-24.5311786723
 20
30.9115116877
 10
-24.514986451
 20
30.936755087
 10
-24.4973655815
 20
30.9599573135
 10
-24.4783382856
 20
30.9811537377
 10
-24.4579772045
 20
31.0003105643
  0
LWPOLYLINE
  5
273
100
AcDbEntity
  8
0
100
AcDbPolyline
 62
250
  6
CONTINUOUS
 90
3
 70
0
 10
-23.7498370396
 20
33.8516750248
 10
-23.68615687
 20
34.839980356
 10
-23.6668812163
 20
35.1232264945
  0
LINE
  5
274
100
AcDbEntity
  8
0
100
AcDbLine
 62
250
  6
CONTINUOUS
 10
-23.8152549788
 20
33.9770658499
 11
-23.7433600983
 21
35.0790772492
  0
LINE
  5
275
100
AcDbEntity
  8
0
100
AcDbLine
 62
250
  6
CONTINUOUS
 10
-26.2867581377
 20
36.547603382
 11
-26.358653018
 21
35.4455919828
  0
LWPOLYLINE
  5
276
100
AcDbEntity
  8
0
100
AcDbPolyline
 62
250
  6
CONTINUOUS
 90
3
 70
0
 10
-26.3515804036
 20
36.6733381413
 10
-26.3849623867
 20
36.1784354025
 10
-26.4345362268
 20
35.4017866717
  0
LWPOLYLINE
  5
277
100
AcDbEntity
  8
0
100
AcDbPolyline
 62
250
  6
CONTINUOUS
 90
3
 70
0
 10
-26.4163593686
 20
36.7990970854
 10
-26.4499880016
 20
36.3040750999
 10
-26.5103762242
 20
35.3580054961
  0
LINE
  5
278
100
AcDbEntity
  8
0
100
AcDbLine
 62
250
  6
CONTINUOUS
 10
-25.4046855175
 20
37.0568103895
 11
-25.4742839622
 21
36.0784909547
  0
LINE
  5
279
100
AcDbEntity
  8
0
100
AcDbLine
 62
250
  6
CONTINUOUS
 10
-24.5558342764
 20
35.5481896381
 11
-24.4862358316
 21
36.526509073
  0
LINE
  5
27A
100
AcDbEntity
  8
0
100
AcDbLine
 62
250
  6
CONTINUOUS
 10
-25.4690167905
 20
37.1828286419
 11
-25.5391055189
 21
36.2042253361
  0
LINE
  5
27B
100
AcDbEntity
  8
0
100
AcDbLine
 62
250
  6
CONTINUOUS
 10
-24.4793561014
 20
35.5923392937
 11
-24.409267373
 21
36.5709425995
  0
LINE
  5
27C
100
AcDbEntity
  8
0
100
AcDbLine
 62
250
  6
CONTINUOUS
 10
-25.5333054567
 20
37.3088706785
 11
-25.6038844839
 21
36.3299842807
  0
LINE
  5
27D
100
AcDbEntity
  8
0
100
AcDbLine
 62
250
  6
CONTINUOUS
 10
-24.4028353326
 20
35.6365135424
 11
-24.3322563053
 21
36.6153999401
  0
LINE
  5
27E
100
AcDbEntity
  8
0
100
AcDbLine
 62
7
  6
CONTINUOUS
 10
2.9747940544
 20
-25.6885251643
 11
2.9655112556
 21
-25.6856422113
  0
LINE
  5
27F
100
AcDbEntity
  8
ASSI
100
AcDbLine
 62
7
  6
CONTINUOUS
 10
2.9747940544
 20
-25.6885251643
 11
2.9655112556
 21
-25.6856422113
  0
LWPOLYLINE
  5
280
100
AcDbEntity
  8
RACCORDO
100
AcDbPolyline
 62
250
  6
CONTINUOUS
 90
13
 70
0
 10
-24.4579772045
 20
-5.4729640887
 10
-24.4781672242
 20
-5.4348796372
 10
-24.4970721939
 20
-5.3962307762
 10
-24.5146155139
 20
-5.357132637
 10
-24.5307660656
 20
-5.3176070477
 10
-24.5454004852
 20
-5.2778775238
 10
-24.558341377
 20
-5.2383642788
 10
-24.5695497583
 20
-5.1991946908
 10
-24.5790087878
 20
-5.1604859191
 10
-24.5866495001
 20
-5.1226235586
 10
-24.5924783914
 20
-5.0857937985
 10
-24.5965397566
 20
-5.0499963759
 10
-24.5988629703
 20
-5.0153137607
  0
LWPOLYLINE
  5
281
100
AcDbEntity
  8
ASSI
100
AcDbPolyline
 62
250
  6
CONTINUOUS
 90
13
 70
0
 10
-24.4579772045
 20
-5.4729640887
 10
-24.4781672242
 20
-5.4348796372
 10
-24.4970721939
 20
-5.3962307762
 10
-24.5146155139
 20
-5.357132637
 10
-24.5307660656
 20
-5.3176070477
 10
-24.5454004852
 20
-5.2778775238
 10
-24.558341377
 20
-5.2383642788
 10
-24.5695497583
 20
-5.1991946908
 10
-24.5790087878
 20
-5.1604859191
 10
-24.5866495001
 20
-5.1226235586
 10
-24.5924783914
 20
-5.0857937985
 10
-24.5965397566
 20
-5.0499963759
 10
-24.5988629703
 20
-5.0153137607
  0
LWPOLYLINE
  5
282
100
AcDbEntity
  8
RACCORDO
100
AcDbPolyline
 62
250
  6
CONTINUOUS
 90
13
 70
0
 10
-25.063237578
 20
-5.7721714982
 10
-25.0952067529
 20
-5.7095010775
 10
-25.1249544796
 20
-5.6463008383
 10
-25.1524801056
 20
-5.5825703665
 10
-25.1779367913
 20
-5.5179320092
 10
-25.2011699165
 20
-5.4527624943
 10
-25.22171747
 20
-5.3881931783
 10
-25.2394662042
 20
-5.3242734129
 10
-25.2545285767
 20
-5.2609533478
 10
-25.2667818628
 20
-5.1992159994
 10
-25.2761853187
 20
-5.139389145
 10
-25.2827797492
 20
-5.0811450489
 10
-25.2865651415
 20
-5.0244837041
  0
LWPOLYLINE
  5
283
100
AcDbEntity
  8
ASSI
100
AcDbPolyline
 62
250
  6
CONTINUOUS
 90
13
 70
0
 10
-25.063237578
 20
-5.7721714982
 10
-25.0952067529
 20
-5.7095010775
 10
-25.1249544796
 20
-5.6463008383
 10
-25.1524801056
 20
-5.5825703665
 10
-25.1779367913
 20
-5.5179320092
 10
-25.2011699165
 20
-5.4527624943
 10
-25.22171747
 20
-5.3881931783
 10
-25.2394662042
 20
-5.3242734129
 10
-25.2545285767
 20
-5.2609533478
 10
-25.2667818628
 20
-5.1992159994
 10
-25.2761853187
 20
-5.139389145
 10
-25.2827797492
 20
-5.0811450489
 10
-25.2865651415
 20
-5.0244837041
  0
LWPOLYLINE
  5
284
100
AcDbEntity
  8
0
100
AcDbPolyline
 62
7
  6
CONTINUOUS
 90
12
 70
0
 10
-19.9947233278
 20
3.4481752015
 10
-19.9957102973
 20
3.4776970811
 10
-19.9985357285
 20
3.5056840643
 10
-20.0031996215
 20
3.532136151
 10
-20.0097464135
 20
3.5571779147
 10
-20.0181316674
 20
3.5806847819
 10
-20.0282220713
 20
3.6022830322
 10
-20.0400448788
 20
3.6219421601
 10
-20.0535728365
 20
3.639692671
 10
-20.0685908719
 20
3.6552523612
 10
-20.0851228013
 20
3.6685862147
 10
-20.0982945861
 20
3.6770312413
  0
LWPOLYLINE
  5
285
100
AcDbEntity
  8
ASSI
100
AcDbPolyline
 62
7
  6
CONTINUOUS
 90
12
 70
0
 10
-19.9947233278
 20
3.4481752015
 10
-19.9957102973
 20
3.4776970811
 10
-19.9985357285
 20
3.5056840643
 10
-20.0031996215
 20
3.532136151
 10
-20.0097464135
 20
3.5571779147
 10
-20.0181316674
 20
3.5806847819
 10
-20.0282220713
 20
3.6022830322
 10
-20.0400448788
 20
3.6219421601
 10
-20.0535728365
 20
3.639692671
 10
-20.0685908719
 20
3.6552523612
 10
-20.0851228013
 20
3.6685862147
 10
-20.0982945861
 20
3.6770312413
  0
LINE
  5
286
100
AcDbEntity
  8
0
100
AcDbLine
 62
7
  6
CONTINUOUS
 10
-22.5403077401
 20
-3.8267150424
 11
-22.5403077401
 21
30.0239857992
  0
LINE
  5
287
100
AcDbEntity
  8
ASSI
100
AcDbLine
 62
7
  6
CONTINUOUS
 10
-22.5403077401
 20
-3.8267150424
 11
-22.5403077401
 21
30.0239857992
  0
LINE
  5
288
100
AcDbEntity
  8
0
100
AcDbLine
 62
7
  6
CONTINUOUS
 10
-22.1867543495
 20
29.608657675
 11
-22.1867543495
 21
2.6651385409
  0
LINE
  5
289
100
AcDbEntity
  8
ASSI
100
AcDbLine
 62
7
  6
CONTINUOUS
 10
-22.1867543495
 20
29.608657675
 11
-22.1867543495
 21
2.6651385409
  0
LINE
  5
28A
100
AcDbEntity
  8
0
100
AcDbLine
 62
7
  6
CONTINUOUS
 10
-19.9947233278
 20
3.4481752015
 11
-19.9947233278
 21
0.3310529749
  0
LINE
  5
28B
100
AcDbEntity
  8
ASSI
100
AcDbLine
 62
7
  6
CONTINUOUS
 10
-19.9947233278
 20
3.4481752015
 11
-19.9947233278
 21
0.3310529749
  0
LINE
  5
28C
100
AcDbEntity
  8
0
100
AcDbLine
 62
250
  6
CONTINUOUS
 10
-21.2558528563
 20
32.7632737225
 11
-21.3100652525
 21
31.8746510187
  0
LINE
  5
28D
100
AcDbEntity
  8
0
100
AcDbLine
 62
250
  6
CONTINUOUS
 10
-20.266753305
 20
32.1921800379
 11
-20.3209657012
 21
31.3035573341
  0
LINE
  5
28E
100
AcDbEntity
  8
0
100
AcDbLine
 62
250
  6
CONTINUOUS
 10
-19.1363533127
 20
31.5395012496
 11
-19.1905657089
 21
30.6508785458
  0
LINE
  5
28F
100
AcDbEntity
  8
0
100
AcDbLine
 62
250
  6
CONTINUOUS
 10
-17.6291545015
 20
30.6692635457
 11
-17.6833668977
 21
29.7806408419
  0
LWPOLYLINE
  5
290
100
AcDbEntity
  8
0
100
AcDbPolyline
 62
250
  6
CONTINUOUS
 90
3
 70
0
 10
-21.1552104713
 20
34.2482161716
 10
-21.1901956854
 20
33.7525413954
 10
-21.2558528563
 20
32.7632737225
  0
LWPOLYLINE
  5
291
100
AcDbEntity
  8
0
100
AcDbPolyline
 62
250
  6
CONTINUOUS
 90
3
 70
0
 10
-20.16611092
 20
33.677122487
 10
-20.2010961341
 20
33.1814477108
 10
-20.266753305
 20
32.1921800379
  0
LWPOLYLINE
  5
292
100
AcDbEntity
  8
0
100
AcDbPolyline
 62
250
  6
CONTINUOUS
 90
3
 70
0
 10
-19.0357109277
 20
33.0244436987
 10
-19.0706961418
 20
32.5287689225
 10
-19.1363533127
 20
31.5395012496
  0
LWPOLYLINE
  5
293
100
AcDbEntity
  8
0
100
AcDbPolyline
 62
250
  6
CONTINUOUS
 90
3
 70
0
 10
-17.5285121165
 20
32.1542059947
 10
-17.5634973306
 20
31.6585312185
 10
-17.6291545015
 20
30.6692635457
  0
LWPOLYLINE
  5
294
100
AcDbEntity
  8
0
100
AcDbPolyline
 62
7
  6
CONTINUOUS
 90
9
 70
0
 10
3.0719148539
 20
-25.6242061072
 10
3.0806825269
 20
-25.6269994099
 10
3.0890672185
 20
-25.6287908136
 10
3.0970689823
 20
-25.6295802822
 10
3.1045757828
 20
-25.6291760042
 10
3.1116998144
 20
-25.6277696848
 10
3.1187774496
 20
-25.625936581
 10
3.1258588428
 20
-25.6237913451
 10
3.1265087255
 20
-25.6235537428
  0
LWPOLYLINE
  5
295
100
AcDbEntity
  8
ASSI
100
AcDbPolyline
 62
7
  6
CONTINUOUS
 90
9
 70
0
 10
3.0719148539
 20
-25.6242061072
 10
3.0806825269
 20
-25.6269994099
 10
3.0890672185
 20
-25.6287908136
 10
3.0970689823
 20
-25.6295802822
 10
3.1045757828
 20
-25.6291760042
 10
3.1116998144
 20
-25.6277696848
 10
3.1187774496
 20
-25.625936581
 10
3.1258588428
 20
-25.6237913451
 10
3.1265087255
 20
-25.6235537428
  0
LWPOLYLINE
  5
296
100
AcDbEntity
  8
0
100
AcDbPolyline
 62
7
  6
CONTINUOUS
 90
10
 70
0
 10
2.3530535255
 20
-24.455950038
 10
2.3896830015
 20
-24.4705282605
 10
2.4261653768
 20
-24.4863275147
 10
2.4625004986
 20
-24.5033479019
 10
2.4987436915
 20
-24.5216344102
 10
2.5348394386
 20
-24.5411421788
 10
2.5706213824
 20
-24.561736498
 10
2.6060340816
 20
-24.583372457
 10
2.6411330091
 20
-24.6060949457
 10
2.6759182343
 20
-24.629903918
  0
LWPOLYLINE
  5
297
100
AcDbEntity
  8
ASSI
100
AcDbPolyline
 62
7
  6
CONTINUOUS
 90
10
 70
0
 10
2.3530535255
 20
-24.455950038
 10
2.3896830015
 20
-24.4705282605
 10
2.4261653768
 20
-24.4863275147
 10
2.4625004986
 20
-24.5033479019
 10
2.4987436915
 20
-24.5216344102
 10
2.5348394386
 20
-24.5411421788
 10
2.5706213824
 20
-24.561736498
 10
2.6060340816
 20
-24.583372457
 10
2.6411330091
 20
-24.6060949457
 10
2.6759182343
 20
-24.629903918
  0
LWPOLYLINE
  5
298
100
AcDbEntity
  8
0
100
AcDbPolyline
 62
7
  6
CONTINUOUS
 90
25
 70
0
 10
1.8260654915
 20
-23.9380568494
 10
1.8678793518
 20
-23.9555977951
 10
1.9096912384
 20
-23.9735211416
 10
1.9515010985
 20
-23.9918269238
 10
1.9932792315
 20
-24.0104588854
 10
2.0350552454
 20
-24.0294733439
 10
2.0769180422
 20
-24.0490391997
 10
2.1188758452
 20
-24.0691562542
 10
2.160920335
 20
-24.0898247695
 10
2.2031155847
 20
-24.1112143471
 10
2.2454694027
 20
-24.133324016
 10
2.2879739064
 20
-24.1561547961
 10
2.3306696293
 20
-24.179879278
 10
2.3736003038
 20
-24.2045208148
 10
2.416722179
 20
-24.2300560655
 10
2.4599445807
 20
-24.2565875678
 10
2.5032689612
 20
-24.284064472
 10
2.5466939501
 20
-24.3125375737
 10
2.5901246941
 20
-24.3422618416
 10
2.6336516013
 20
-24.3732218967
 10
2.677184547
 20
-24.4054329313
 10
2.7203580335
 20
-24.4391956685
 10
2.7630505204
 20
-24.4746101566
 10
2.8053843343
 20
-24.5115758288
 10
2.8473599616
 20
-24.5500923641
  0
LWPOLYLINE
  5
299
100
AcDbEntity
  8
ASSI
100
AcDbPolyline
 62
7
  6
CONTINUOUS
 90
25
 70
0
 10
1.8260654915
 20
-23.9380568494
 10
1.8678793518
 20
-23.9555977951
 10
1.9096912384
 20
-23.9735211416
 10
1.9515010985
 20
-23.9918269238
 10
1.9932792315
 20
-24.0104588854
 10
2.0350552454
 20
-24.0294733439
 10
2.0769180422
 20
-24.0490391997
 10
2.1188758452
 20
-24.0691562542
 10
2.160920335
 20
-24.0898247695
 10
2.2031155847
 20
-24.1112143471
 10
2.2454694027
 20
-24.133324016
 10
2.2879739064
 20
-24.1561547961
 10
2.3306696293
 20
-24.179879278
 10
2.3736003038
 20
-24.2045208148
 10
2.416722179
 20
-24.2300560655
 10
2.4599445807
 20
-24.2565875678
 10
2.5032689612
 20
-24.284064472
 10
2.5466939501
 20
-24.3125375737
 10
2.5901246941
 20
-24.3422618416
 10
2.6336516013
 20
-24.3732218967
 10
2.677184547
 20
-24.4054329313
 10
2.7203580335
 20
-24.4391956685
 10
2.7630505204
 20
-24.4746101566
 10
2.8053843343
 20
-24.5115758288
 10
2.8473599616
 20
-24.5500923641
  0
LWPOLYLINE
  5
29A
100
AcDbEntity
  8
RACCORDO
100
AcDbPolyline
 62
250
  6
CONTINUOUS
 90
19
 70
0
 10
41.8720078058
 20
-44.4197432779
 10
41.8906333241
 20
-44.4295318058
 10
41.9106332623
 20
-44.4382928914
 10
41.9318653689
 20
-44.4459642203
 10
41.9541786281
 20
-44.4524912294
 10
41.9774143347
 20
-44.4578274948
 10
42.0014072222
 20
-44.4619350617
 10
42.0259866386
 20
-44.4647847146
 10
42.0509777604
 20
-44.4663561849
 10
42.0762028355
 20
-44.4666382956
 10
42.1014824479
 20
-44.46562904
 10
42.1266367937
 20
-44.4633355965
 10
42.1514869601
 20
-44.4597742776
 10
42.1758561976
 20
-44.4549704135
 10
42.1995711773
 20
-44.4489581721
 10
42.2224632242
 20
-44.4417803162
 10
42.244369516
 20
-44.4334878991
 10
42.265134242
 20
-44.4241399013
 10
42.2846097109
 20
-44.4138028115
  0
LWPOLYLINE
  5
29B
100
AcDbEntity
  8
ASSI
100
AcDbPolyline
 62
250
  6
CONTINUOUS
 90
19
 70
0
 10
41.8720078058
 20
-44.4197432779
 10
41.8906333241
 20
-44.4295318058
 10
41.9106332623
 20
-44.4382928914
 10
41.9318653689
 20
-44.4459642203
 10
41.9541786281
 20
-44.4524912294
 10
41.9774143347
 20
-44.4578274948
 10
42.0014072222
 20
-44.4619350617
 10
42.0259866386
 20
-44.4647847146
 10
42.0509777604
 20
-44.4663561849
 10
42.0762028355
 20
-44.4666382956
 10
42.1014824479
 20
-44.46562904
 10
42.1266367937
 20
-44.4633355965
 10
42.1514869601
 20
-44.4597742776
 10
42.1758561976
 20
-44.4549704135
 10
42.1995711773
 20
-44.4489581721
 10
42.2224632242
 20
-44.4417803162
 10
42.244369516
 20
-44.4334878991
 10
42.265134242
 20
-44.4241399013
 10
42.2846097109
 20
-44.4138028115
  0
LWPOLYLINE
  5
29C
100
AcDbEntity
  8
0
100
AcDbPolyline
 62
7
  6
CONTINUOUS
 90
17
 70
0
 10
2.5242209676
 20
-25.2573512142
 10
2.5414582446
 20
-25.2667130286
 10
2.5585519942
 20
-25.2754121562
 10
2.5755022316
 20
-25.283448587
 10
2.5923650262
 20
-25.2908932181
 10
2.6090843601
 20
-25.2976751179
 10
2.6254921361
 20
-25.3035815204
 10
2.6415864169
 20
-25.3086195354
 10
2.6573692615
 20
-25.3127819719
 10
2.6726786061
 20
-25.3158345865
 10
2.6875412794
 20
-25.3177850213
 10
2.7019306865
 20
-25.3186254783
 10
2.7156046872
 20
-25.3180985144
 10
2.7285336822
 20
-25.3161460564
 10
2.740747658
 20
-25.3128259194
 10
2.752093903
 20
-25.30805446
 10
2.755715289
 20
-25.3060917819
  0
LWPOLYLINE
  5
29D
100
AcDbEntity
  8
ASSI
100
AcDbPolyline
 62
7
  6
CONTINUOUS
 90
17
 70
0
 10
2.5242209676
 20
-25.2573512142
 10
2.5414582446
 20
-25.2667130286
 10
2.5585519942
 20
-25.2754121562
 10
2.5755022316
 20
-25.283448587
 10
2.5923650262
 20
-25.2908932181
 10
2.6090843601
 20
-25.2976751179
 10
2.6254921361
 20
-25.3035815204
 10
2.6415864169
 20
-25.3086195354
 10
2.6573692615
 20
-25.3127819719
 10
2.6726786061
 20
-25.3158345865
 10
2.6875412794
 20
-25.3177850213
 10
2.7019306865
 20
-25.3186254783
 10
2.7156046872
 20
-25.3180985144
 10
2.7285336822
 20
-25.3161460564
 10
2.740747658
 20
-25.3128259194
 10
2.752093903
 20
-25.30805446
 10
2.755715289
 20
-25.3060917819
  0
LINE
  5
29E
100
AcDbEntity
  8
0
100
AcDbLine
 62
7
  6
CONTINUOUS
 10
3.4234003472
 20
-26.9399935519
 11
3.0259125808
 21
-26.7104890973
  0
LINE
  5
29F
100
AcDbEntity
  8
ASSI
100
AcDbLine
 62
7
  6
CONTINUOUS
 10
3.4234003472
 20
-26.9399935519
 11
3.0259125808
 21
-26.7104890973
  0
LINE
  5
2A0
100
AcDbEntity
  8
0
100
AcDbLine
 62
7
  6
CONTINUOUS
 10
2.3930942422
 20
-26.3451077197
 11
1.9815181139
 21
-26.1074688215
  0
LINE
  5
2A1
100
AcDbEntity
  8
ASSI
100
AcDbLine
 62
7
  6
CONTINUOUS
 10
2.3930942422
 20
-26.3451077197
 11
1.9815181139
 21
-26.1074688215
  0
LINE
  5
2A2
100
AcDbEntity
  8
0
100
AcDbLine
 62
7
  6
CONTINUOUS
 10
1.7682470483
 20
-25.9843285172
 11
1.3327102833
 21
-25.7328550476
  0
LINE
  5
2A3
100
AcDbEntity
  8
ASSI
100
AcDbLine
 62
7
  6
CONTINUOUS
 10
1.7682470483
 20
-25.9843285172
 11
1.3327102833
 21
-25.7328550476
  0
LINE
  5
2A4
100
AcDbEntity
  8
0
100
AcDbLine
 62
7
  6
CONTINUOUS
 10
0.5488689814
 20
-25.2802749037
 11
0.1401138857
 21
-25.0442648344
  0
LINE
  5
2A5
100
AcDbEntity
  8
ASSI
100
AcDbLine
 62
7
  6
CONTINUOUS
 10
0.5488689814
 20
-25.2802749037
 11
0.1401138857
 21
-25.0442648344
  0
LINE
  5
2A6
100
AcDbEntity
  8
0
100
AcDbLine
 62
7
  6
CONTINUOUS
 10
-0.0732683135
 20
-24.9210606269
 11
-0.4775255029
 21
-24.6876475922
  0
LINE
  5
2A7
100
AcDbEntity
  8
ASSI
100
AcDbLine
 62
7
  6
CONTINUOUS
 10
-0.0732683135
 20
-24.9210606269
 11
-0.4775255029
 21
-24.6876475922
  0
LINE
  5
2A8
100
AcDbEntity
  8
0
100
AcDbLine
 62
7
  6
CONTINUOUS
 10
-1.0537680321
 20
-24.3549323779
 11
-1.1117246252
 21
-24.3214689674
  0
LINE
  5
2A9
100
AcDbEntity
  8
ASSI
100
AcDbLine
 62
7
  6
CONTINUOUS
 10
-1.0537680321
 20
-24.3549323779
 11
-1.1117246252
 21
-24.3214689674
  0
LINE
  5
2AA
100
AcDbEntity
  8
0
100
AcDbLine
 62
7
  6
CONTINUOUS
 10
-1.6856803711
 20
-23.9900741131
 11
-2.0810159943
 21
-23.761812279
  0
LINE
  5
2AB
100
AcDbEntity
  8
ASSI
100
AcDbLine
 62
7
  6
CONTINUOUS
 10
-1.6856803711
 20
-23.9900741131
 11
-2.0810159943
 21
-23.761812279
  0
LINE
  5
2AC
100
AcDbEntity
  8
0
100
AcDbLine
 62
7
  6
CONTINUOUS
 10
-2.2964042553
 20
-23.6374497965
 11
-2.7096431151
 21
-23.3988508579
  0
LINE
  5
2AD
100
AcDbEntity
  8
ASSI
100
AcDbLine
 62
7
  6
CONTINUOUS
 10
-2.2964042553
 20
-23.6374497965
 11
-2.7096431151
 21
-23.3988508579
  0
LINE
  5
2AE
100
AcDbEntity
  8
0
100
AcDbLine
 62
7
  6
CONTINUOUS
 10
-3.5559169961
 20
-22.9102229253
 11
-3.9200840595
 21
-22.699957427
  0
LINE
  5
2AF
100
AcDbEntity
  8
ASSI
100
AcDbLine
 62
7
  6
CONTINUOUS
 10
-3.5559169961
 20
-22.9102229253
 11
-3.9200840595
 21
-22.699957427
  0
LINE
  5
2B0
100
AcDbEntity
  8
0
100
AcDbLine
 62
7
  6
CONTINUOUS
 10
3.3824249832
 20
-26.7933809045
 11
3.132386996
 21
-26.6490121044
  0
LINE
  5
2B1
100
AcDbEntity
  8
ASSI
100
AcDbLine
 62
7
  6
CONTINUOUS
 10
3.3824249832
 20
-26.7933809045
 11
3.132386996
 21
-26.6490121044
  0
LINE
  5
2B2
100
AcDbEntity
  8
0
100
AcDbLine
 62
7
  6
CONTINUOUS
 10
2.3829155467
 20
-26.2162766827
 11
2.0879925291
 21
-26.0459918286
  0
LINE
  5
2B3
100
AcDbEntity
  8
ASSI
100
AcDbLine
 62
7
  6
CONTINUOUS
 10
2.3829155467
 20
-26.2162766827
 11
2.0879925291
 21
-26.0459918286
  0
LINE
  5
2B4
100
AcDbEntity
  8
0
100
AcDbLine
 62
7
  6
CONTINUOUS
 10
1.7223375299
 20
-25.8348669509
 11
1.4391846985
 21
-25.6713780548
  0
LINE
  5
2B5
100
AcDbEntity
  8
ASSI
100
AcDbLine
 62
7
  6
CONTINUOUS
 10
1.7223375299
 20
-25.8348669509
 11
1.4391846985
 21
-25.6713780548
  0
LINE
  5
2B6
100
AcDbEntity
  8
0
100
AcDbLine
 62
7
  6
CONTINUOUS
 10
0.572348098
 20
-25.1708774657
 11
0.2465883008
 21
-24.9827878415
  0
LINE
  5
2B7
100
AcDbEntity
  8
ASSI
100
AcDbLine
 62
7
  6
CONTINUOUS
 10
0.572348098
 20
-25.1708774657
 11
0.2465883008
 21
-24.9827878415
  0
LINE
  5
2B8
100
AcDbEntity
  8
0
100
AcDbLine
 62
7
  6
CONTINUOUS
 10
-0.0943023117
 20
-24.7859618742
 11
-0.3710510878
 21
-24.6261705994
  0
LINE
  5
2B9
100
AcDbEntity
  8
ASSI
100
AcDbLine
 62
7
  6
CONTINUOUS
 10
-0.0943023117
 20
-24.7859618742
 11
-0.3710510878
 21
-24.6261705994
  0
LINE
  5
2BA
100
AcDbEntity
  8
0
100
AcDbLine
 62
7
  6
CONTINUOUS
 10
-1.6877671539
 20
-23.8659152451
 11
-1.9745415791
 21
-23.7003352861
  0
LINE
  5
2BB
100
AcDbEntity
  8
ASSI
100
AcDbLine
 62
7
  6
CONTINUOUS
 10
-1.6877671539
 20
-23.8659152451
 11
-1.9745415791
 21
-23.7003352861
  0
LINE
  5
2BC
100
AcDbEntity
  8
0
100
AcDbLine
 62
7
  6
CONTINUOUS
 10
-2.3065334317
 20
-23.5086473512
 11
-2.6031687
 21
-23.3373738651
  0
LINE
  5
2BD
100
AcDbEntity
  8
ASSI
100
AcDbLine
 62
7
  6
CONTINUOUS
 10
-2.3065334317
 20
-23.5086473512
 11
-2.6031687
 21
-23.3373738651
  0
LINE
  5
2BE
100
AcDbEntity
  8
0
100
AcDbLine
 62
7
  6
CONTINUOUS
 10
-3.5285614851
 20
-22.8030636689
 11
-3.8136096444
 21
-22.6384804342
  0
LINE
  5
2BF
100
AcDbEntity
  8
ASSI
100
AcDbLine
 62
7
  6
CONTINUOUS
 10
-3.5285614851
 20
-22.8030636689
 11
-3.8136096444
 21
-22.6384804342
  0
LINE
  5
2C0
100
AcDbEntity
  8
0
100
AcDbLine
 62
7
  6
CONTINUOUS
 10
1.1916274411
 20
-25.234353931
 11
0.6288644884
 21
-24.9094216552
  0
LINE
  5
2C1
100
AcDbEntity
  8
ASSI
100
AcDbLine
 62
7
  6
CONTINUOUS
 10
1.1916274411
 20
-25.234353931
 11
0.6288644884
 21
-24.9094216552
  0
LINE
  5
2C2
100
AcDbEntity
  8
0
100
AcDbLine
 62
7
  6
CONTINUOUS
 10
1.2980711131
 20
-25.1728946888
 11
0.7353081605
 21
-24.847962413
  0
LINE
  5
2C3
100
AcDbEntity
  8
ASSI
100
AcDbLine
 62
7
  6
CONTINUOUS
 10
1.2980711131
 20
-25.1728946888
 11
0.7353081605
 21
-24.847962413
  0
LINE
  5
2C4
100
AcDbEntity
  8
0
100
AcDbLine
 62
7
  6
CONTINUOUS
 10
1.0836225401
 20
-24.8482313315
 11
0.6879757899
 21
-24.6197898566
  0
LINE
  5
2C5
100
AcDbEntity
  8
ASSI
100
AcDbLine
 62
7
  6
CONTINUOUS
 10
1.0836225401
 20
-24.8482313315
 11
0.6879757899
 21
-24.6197898566
  0
LINE
  5
2C6
100
AcDbEntity
  8
0
100
AcDbLine
 62
7
  6
CONTINUOUS
 10
2.5492042508
 20
-25.6162686732
 11
2.3276354399
 21
-25.4883376187
  0
LINE
  5
2C7
100
AcDbEntity
  8
ASSI
100
AcDbLine
 62
7
  6
CONTINUOUS
 10
2.5492042508
 20
-25.6162686732
 11
2.3276354399
 21
-25.4883376187
  0
LINE
  5
2C8
100
AcDbEntity
  8
0
100
AcDbLine
 62
7
  6
CONTINUOUS
 10
2.65561955
 20
-25.5548258132
 11
2.434050739
 21
-25.4268947586
  0
LINE
  5
2C9
100
AcDbEntity
  8
ASSI
100
AcDbLine
 62
7
  6
CONTINUOUS
 10
2.65561955
 20
-25.5548258132
 11
2.434050739
 21
-25.4268947586
  0
LINE
  5
2CA
100
AcDbEntity
  8
0
100
AcDbLine
 62
7
  6
CONTINUOUS
 10
2.5242209676
 20
-25.2573512142
 11
2.2880590483
 21
-25.1209942818
  0
LINE
  5
2CB
100
AcDbEntity
  8
ASSI
100
AcDbLine
 62
7
  6
CONTINUOUS
 10
2.5242209676
 20
-25.2573512142
 11
2.2880590483
 21
-25.1209942818
  0
LINE
  5
2CC
100
AcDbEntity
  8
0
100
AcDbLine
 62
7
  6
CONTINUOUS
 10
1.0037344327
 20
-23.4384437873
 11
0.6039751495
 21
-23.2076277873
  0
LINE
  5
2CD
100
AcDbEntity
  8
ASSI
100
AcDbLine
 62
7
  6
CONTINUOUS
 10
1.0037344327
 20
-23.4384437873
 11
0.6039751495
 21
-23.2076277873
  0
LINE
  5
2CE
100
AcDbEntity
  8
0
100
AcDbLine
 62
7
  6
CONTINUOUS
 10
-0.4154868599
 20
-22.6190032
 11
-0.8243459003
 21
-22.3829331142
  0
LINE
  5
2CF
100
AcDbEntity
  8
ASSI
100
AcDbLine
 62
7
  6
CONTINUOUS
 10
-0.4154868599
 20
-22.6190032
 11
-0.8243459003
 21
-22.3829331142
  0
LINE
  5
2D0
100
AcDbEntity
  8
0
100
AcDbLine
 62
7
  6
CONTINUOUS
 10
-1.6464593568
 20
-21.908255108
 11
-2.059356684
 21
-21.6698533661
  0
LINE
  5
2D1
100
AcDbEntity
  8
ASSI
100
AcDbLine
 62
7
  6
CONTINUOUS
 10
-1.6464593568
 20
-21.908255108
 11
-2.059356684
 21
-21.6698533661
  0
LINE
  5
2D2
100
AcDbEntity
  8
0
100
AcDbLine
 62
7
  6
CONTINUOUS
 10
-3.0766606035
 20
-21.0824748328
 11
-3.4896173276
 21
-20.8440387958
  0
LINE
  5
2D3
100
AcDbEntity
  8
ASSI
100
AcDbLine
 62
7
  6
CONTINUOUS
 10
-3.0766606035
 20
-21.0824748328
 11
-3.4896173276
 21
-20.8440387958
  0
LINE
  5
2D4
100
AcDbEntity
  8
0
100
AcDbLine
 62
7
  6
CONTINUOUS
 10
-4.2558742982
 20
-20.4016116244
 11
-4.704779624
 21
-20.1424193154
  0
LINE
  5
2D5
100
AcDbEntity
  8
ASSI
100
AcDbLine
 62
7
  6
CONTINUOUS
 10
-4.2558742982
 20
-20.4016116244
 11
-4.704779624
 21
-20.1424193154
  0
LINE
  5
2D6
100
AcDbEntity
  8
0
100
AcDbLine
 62
7
  6
CONTINUOUS
 10
-2.4535078427
 20
-21.4421479885
 11
-2.8667467025
 21
-21.20354905
  0
LINE
  5
2D7
100
AcDbEntity
  8
ASSI
100
AcDbLine
 62
7
  6
CONTINUOUS
 10
-2.4535078427
 20
-21.4421479885
 11
-2.8667467025
 21
-21.20354905
  0
LINE
  5
2D8
100
AcDbEntity
  8
RACCORDO
100
AcDbLine
 62
250
  6
CONTINUOUS
 10
22.6216158759
 20
-33.6917142375
 11
-24.3198737659
 21
-6.5882864334
  0
LINE
  5
2D9
100
AcDbEntity
  8
ASSI
100
AcDbLine
 62
250
  6
CONTINUOUS
 10
22.6216158759
 20
-33.6917142375
 11
-24.3198737659
 21
-6.5882864334
  0
LINE
  5
2DA
100
AcDbEntity
  8
RACCORDO
100
AcDbLine
 62
250
  6
CONTINUOUS
 10
41.8720056722
 20
-44.4196975871
 11
23.3282677845
 21
-33.7128202064
  0
LINE
  5
2DB
100
AcDbEntity
  8
ASSI
100
AcDbLine
 62
250
  6
CONTINUOUS
 10
41.8720056722
 20
-44.4196975871
 11
23.3282677845
 21
-33.7128202064
  0
LINE
  5
2DC
100
AcDbEntity
  8
RACCORDO
100
AcDbLine
 62
250
  6
CONTINUOUS
 10
-25.063237578
 20
-5.7721714982
 11
-43.6069795619
 21
4.9347972984
  0
LINE
  5
2DD
100
AcDbEntity
  8
ASSI
100
AcDbLine
 62
250
  6
CONTINUOUS
 10
-25.063237578
 20
-5.7721714982
 11
-43.6069795619
 21
4.9347972984
  0
LWPOLYLINE
  5
2DE
100
AcDbEntity
  8
RACCORDO
100
AcDbPolyline
 62
250
  6
CONTINUOUS
 90
31
 70
0
 10
-24.3198737659
 20
-6.5882864334
 10
-24.3496804493
 20
-6.5704852015
 10
-24.3790891102
 20
-6.5519686791
 10
-24.4080997179
 20
-6.5327368466
 10
-24.4367063322
 20
-6.512762072
 10
-24.4649147728
 20
-6.4920719102
 10
-24.4927426285
 20
-6.4707491089
 10
-24.5201861507
 20
-6.4488069268
 10
-24.5472488834
 20
-6.4262319744
 10
-24.5739593486
 20
-6.4030670233
 10
-24.6003162632
 20
-6.3793232818
 10
-24.6263206375
 20
-6.3549893674
 10
-24.6520044279
 20
-6.3300741621
 10
-24.6773691433
 20
-6.304586218
 10
-24.7024129362
 20
-6.2785167669
 10
-24.7271627149
 20
-6.251848702
 10
-24.7516222755
 20
-6.2245879269
 10
-24.7757874082
 20
-6.1967282741
 10
-24.7996729865
 20
-6.168234513
 10
-24.8232845099
 20
-6.1391103816
 10
-24.8466159723
 20
-6.1093518192
 10
-24.8696649443
 20
-6.0789118689
 10
-24.8924382912
 20
-6.0477925327
 10
-24.9149285232
 20
-6.0159914113
 10
-24.937111612
 20
-5.9834549044
 10
-24.958996015
 20
-5.950183481
 10
-24.9805724996
 20
-5.9161761795
 10
-25.0017904112
 20
-5.8813771949
 10
-25.0226325241
 20
-5.8457677095
 10
-25.0431150852
 20
-5.8093659197
 10
-25.063237578
 20
-5.7721714982
  0
LWPOLYLINE
  5
2DF
100
AcDbEntity
  8
ASSI
100
AcDbPolyline
 62
250
  6
CONTINUOUS
 90
31
 70
0
 10
-24.3198737659
 20
-6.5882864334
 10
-24.3496804493
 20
-6.5704852015
 10
-24.3790891102
 20
-6.5519686791
 10
-24.4080997179
 20
-6.5327368466
 10
-24.4367063322
 20
-6.512762072
 10
-24.4649147728
 20
-6.4920719102
 10
-24.4927426285
 20
-6.4707491089
 10
-24.5201861507
 20
-6.4488069268
 10
-24.5472488834
 20
-6.4262319744
 10
-24.5739593486
 20
-6.4030670233
 10
-24.6003162632
 20
-6.3793232818
 10
-24.6263206375
 20
-6.3549893674
 10
-24.6520044279
 20
-6.3300741621
 10
-24.6773691433
 20
-6.304586218
 10
-24.7024129362
 20
-6.2785167669
 10
-24.7271627149
 20
-6.251848702
 10
-24.7516222755
 20
-6.2245879269
 10
-24.7757874082
 20
-6.1967282741
 10
-24.7996729865
 20
-6.168234513
 10
-24.8232845099
 20
-6.1391103816
 10
-24.8466159723
 20
-6.1093518192
 10
-24.8696649443
 20
-6.0789118689
 10
-24.8924382912
 20
-6.0477925327
 10
-24.9149285232
 20
-6.0159914113
 10
-24.937111612
 20
-5.9834549044
 10
-24.958996015
 20
-5.950183481
 10
-24.9805724996
 20
-5.9161761795
 10
-25.0017904112
 20
-5.8813771949
 10
-25.0226325241
 20
-5.8457677095
 10
-25.0431150852
 20
-5.8093659197
 10
-25.063237578
 20
-5.7721714982
  0
LWPOLYLINE
  5
2E0
100
AcDbEntity
  8
0
100
AcDbPolyline
 62
7
  6
CONTINUOUS
 90
19
 70
0
 10
2.65561955
 20
-25.5548258132
 10
2.673023778
 20
-25.5654587308
 10
2.6902621754
 20
-25.5773072902
 10
2.7073347987
 20
-25.5903714539
 10
2.7243597333
 20
-25.6047162354
 10
2.7412191225
 20
-25.6202764675
 10
2.757559168
 20
-25.636856801
 10
2.7733304599
 20
-25.6545400934
 10
2.788582891
 20
-25.673243163
 10
2.8031116055
 20
-25.6925216102
 10
2.8168493438
 20
-25.7123233168
 10
2.8298638754
 20
-25.7327000583
 10
2.8421527657
 20
-25.7533633581
 10
2.8537240866
 20
-25.7742853204
 10
2.8645702046
 20
-25.7954935459
 10
2.8746649972
 20
-25.8167828893
 10
2.8839998506
 20
-25.8380849058
 10
2.8925837311
 20
-25.8594678025
 10
2.9004168314
 20
-25.8809314497
  0
LWPOLYLINE
  5
2E1
100
AcDbEntity
  8
ASSI
100
AcDbPolyline
 62
7
  6
CONTINUOUS
 90
19
 70
0
 10
2.65561955
 20
-25.5548258132
 10
2.673023778
 20
-25.5654587308
 10
2.6902621754
 20
-25.5773072902
 10
2.7073347987
 20
-25.5903714539
 10
2.7243597333
 20
-25.6047162354
 10
2.7412191225
 20
-25.6202764675
 10
2.757559168
 20
-25.636856801
 10
2.7733304599
 20
-25.6545400934
 10
2.788582891
 20
-25.673243163
 10
2.8031116055
 20
-25.6925216102
 10
2.8168493438
 20
-25.7123233168
 10
2.8298638754
 20
-25.7327000583
 10
2.8421527657
 20
-25.7533633581
 10
2.8537240866
 20
-25.7742853204
 10
2.8645702046
 20
-25.7954935459
 10
2.8746649972
 20
-25.8167828893
 10
2.8839998506
 20
-25.8380849058
 10
2.8925837311
 20
-25.8594678025
 10
2.9004168314
 20
-25.8809314497
  0
LWPOLYLINE
  5
2E2
100
AcDbEntity
  8
RACCORDO
100
AcDbPolyline
 62
250
  6
CONTINUOUS
 90
10
 70
0
 10
-43.6069775802
 20
4.9347515853
 10
-43.6241009564
 20
4.945604021
 10
-43.6395956449
 20
4.957337088
 10
-43.6533514381
 20
4.9698673338
 10
-43.6652704966
 20
4.9831056357
 10
-43.6752680447
 20
4.9969578348
 10
-43.6832729739
 20
5.011325406
 10
-43.6892283482
 20
5.0261061584
 10
-43.6930918094
 20
5.0411949624
 10
-43.6948358784
 20
5.0564844971
  0
LWPOLYLINE
  5
2E3
100
AcDbEntity
  8
ASSI
100
AcDbPolyline
 62
250
  6
CONTINUOUS
 90
10
 70
0
 10
-43.6069775802
 20
4.9347515853
 10
-43.6241009564
 20
4.945604021
 10
-43.6395956449
 20
4.957337088
 10
-43.6533514381
 20
4.9698673338
 10
-43.6652704966
 20
4.9831056357
 10
-43.6752680447
 20
4.9969578348
 10
-43.6832729739
 20
5.011325406
 10
-43.6892283482
 20
5.0261061584
 10
-43.6930918094
 20
5.0411949624
 10
-43.6948358784
 20
5.0564844971
  0
LWPOLYLINE
  5
2E4
100
AcDbEntity
  8
0
100
AcDbPolyline
 62
7
  6
CONTINUOUS
 90
10
 70
0
 10
2.5695643609
 20
-24.6913113115
 10
2.5348949346
 20
-24.6675738672
 10
2.4998814954
 20
-24.6449020429
 10
2.4645239742
 20
-24.6232958842
 10
2.4287651125
 20
-24.6027065091
 10
2.3926621372
 20
-24.5831828207
 10
2.3563867619
 20
-24.5648715061
 10
2.3199962895
 20
-24.5478214182
 10
2.2834336101
 20
-24.5319835764
 10
2.2466988773
 20
-24.5173578789
  0
LWPOLYLINE
  5
2E5
100
AcDbEntity
  8
ASSI
100
AcDbPolyline
 62
7
  6
CONTINUOUS
 90
10
 70
0
 10
2.5695643609
 20
-24.6913113115
 10
2.5348949346
 20
-24.6675738672
 10
2.4998814954
 20
-24.6449020429
 10
2.4645239742
 20
-24.6232958842
 10
2.4287651125
 20
-24.6027065091
 10
2.3926621372
 20
-24.5831828207
 10
2.3563867619
 20
-24.5648715061
 10
2.3199962895
 20
-24.5478214182
 10
2.2834336101
 20
-24.5319835764
 10
2.2466988773
 20
-24.5173578789
  0
LWPOLYLINE
  5
2E6
100
AcDbEntity
  8
0
100
AcDbPolyline
 62
7
  6
CONTINUOUS
 90
22
 70
0
 10
2.6759182343
 20
-24.629903918
 10
2.6940638596
 20
-24.6432081592
 10
2.7120019866
 20
-24.6575671184
 10
2.7297327198
 20
-24.6729807266
 10
2.7473367686
 20
-24.6894843063
 10
2.7647337234
 20
-24.7070423362
 10
2.7816820619
 20
-24.7255484469
 10
2.7982443744
 20
-24.7450818698
 10
2.8143585787
 20
-24.7655630366
 10
2.8295961739
 20
-24.7866473573
 10
2.84390467
 20
-24.8084095257
 10
2.8573372146
 20
-24.8307744117
 10
2.8696236468
 20
-24.853172767
 10
2.880677516
 20
-24.8755630953
 10
2.8905857611
 20
-24.8979865683
 10
2.8993380254
 20
-24.9199981264
 10
2.906918619
 20
-24.9415454338
 10
2.9133434171
 20
-24.9626807024
 10
2.9186491308
 20
-24.98311588
 10
2.9228479307
 20
-25.0027549928
 10
2.9259275802
 20
-25.0216940578
 10
2.9278880596
 20
-25.0399330875
  0
LWPOLYLINE
  5
2E7
100
AcDbEntity
  8
ASSI
100
AcDbPolyline
 62
7
  6
CONTINUOUS
 90
22
 70
0
 10
2.6759182343
 20
-24.629903918
 10
2.6940638596
 20
-24.6432081592
 10
2.7120019866
 20
-24.6575671184
 10
2.7297327198
 20
-24.6729807266
 10
2.7473367686
 20
-24.6894843063
 10
2.7647337234
 20
-24.7070423362
 10
2.7816820619
 20
-24.7255484469
 10
2.7982443744
 20
-24.7450818698
 10
2.8143585787
 20
-24.7655630366
 10
2.8295961739
 20
-24.7866473573
 10
2.84390467
 20
-24.8084095257
 10
2.8573372146
 20
-24.8307744117
 10
2.8696236468
 20
-24.853172767
 10
2.880677516
 20
-24.8755630953
 10
2.8905857611
 20
-24.8979865683
 10
2.8993380254
 20
-24.9199981264
 10
2.906918619
 20
-24.9415454338
 10
2.9133434171
 20
-24.9626807024
 10
2.9186491308
 20
-24.98311588
 10
2.9228479307
 20
-25.0027549928
 10
2.9259275802
 20
-25.0216940578
 10
2.9278880596
 20
-25.0399330875
  0
LINE
  5
2E8
100
AcDbEntity
  8
0
100
AcDbLine
 62
7
  6
CONTINUOUS
 10
-22.1867543495
 20
2.6651385409
 11
-20.335937883
 21
3.6591486463
  0
LINE
  5
2E9
100
AcDbEntity
  8
ASSI
100
AcDbLine
 62
7
  6
CONTINUOUS
 10
-22.1867543495
 20
2.6651385409
 11
-20.335937883
 21
3.6591486463
  0
LINE
  5
2EA
100
AcDbEntity
  8
0
100
AcDbLine
 62
7
  6
CONTINUOUS
 10
-21.2709151598
 20
4.0879636376
 11
-22.1867543495
 21
3.6136078364
  0
LINE
  5
2EB
100
AcDbEntity
  8
ASSI
100
AcDbLine
 62
7
  6
CONTINUOUS
 10
-21.2709151598
 20
4.0879636376
 11
-22.1867543495
 21
3.6136078364
  0
LINE
  5
2EC
100
AcDbEntity
  8
0
100
AcDbLine
 62
250
  6
CONTINUOUS
 10
-21.0286178802
 20
4.0590933954
 11
-22.1867543495
 21
3.4592405402
  0
LINE
  5
2ED
100
AcDbEntity
  8
ASSI
100
AcDbLine
 62
250
  6
CONTINUOUS
 10
-21.0286178802
 20
4.0590933954
 11
-22.1867543495
 21
3.4592405402
  0
LINE
  5
2EE
100
AcDbEntity
  8
0
100
AcDbLine
 62
250
  6
CONTINUOUS
 10
-21.2678936448
 20
4.0894911549
 11
-21.2709136214
 21
4.0879644344
  0
LINE
  5
2EF
100
AcDbEntity
  8
ASSI
100
AcDbLine
 62
250
  6
CONTINUOUS
 10
-21.2678936448
 20
4.0894911549
 11
-21.2709136214
 21
4.0879644344
  0
LWPOLYLINE
  5
2F0
100
AcDbEntity
  8
0
100
AcDbPolyline
 62
7
  6
CONTINUOUS
 90
6
 70
0
 10
-21.2709231418
 20
4.0879595031
 10
-21.2501826987
 20
4.0981021145
 10
-21.2163221899
 20
4.1122207882
 10
-21.1817376405
 20
4.1237541921
 10
-21.1464936954
 20
4.1327176992
 10
-21.1106537152
 20
4.1391011531
  0
LWPOLYLINE
  5
2F1
100
AcDbEntity
  8
ASSI
100
AcDbPolyline
 62
7
  6
CONTINUOUS
 90
6
 70
0
 10
-21.2709231418
 20
4.0879595031
 10
-21.2501826987
 20
4.0981021145
 10
-21.2163221899
 20
4.1122207882
 10
-21.1817376405
 20
4.1237541921
 10
-21.1464936954
 20
4.1327176992
 10
-21.1106537152
 20
4.1391011531
  0
LINE
  5
2F2
100
AcDbEntity
  8
0
100
AcDbLine
 62
250
  6
CONTINUOUS
 10
-21.2501826987
 20
4.0981021145
 11
-21.2672023515
 21
4.0897790655
  0
LINE
  5
2F3
100
AcDbEntity
  8
ASSI
100
AcDbLine
 62
250
  6
CONTINUOUS
 10
-21.2501826987
 20
4.0981021145
 11
-21.2672023515
 21
4.0897790655
  0
LWPOLYLINE
  5
2F4
100
AcDbEntity
  8
RACCORDO
100
AcDbPolyline
 62
250
  6
CONTINUOUS
 90
19
 70
0
 10
-25.2865651318
 20
-5.024483698
 10
-25.2555223074
 20
-5.0408034016
 10
-25.2221885783
 20
-5.0554156897
 10
-25.1868010326
 20
-5.0682166314
 10
-25.1496113665
 20
-5.0791151794
 10
-25.1108840938
 20
-5.0880338169
 10
-25.0708946646
 20
-5.0949091096
 10
-25.0299275061
 20
-5.0996921566
 10
-24.988274
 20
-5.1023489382
 10
-24.9462304092
 20
-5.1028605578
 10
-24.9040957714
 20
-5.1012233766
 10
-24.8621697719
 20
-5.0974490389
 10
-24.820750612
 20
-5.0915643902
 10
-24.7801328878
 20
-5.0836112853
 10
-24.7406054957
 20
-5.0736462911
 10
-24.7024495765
 20
-5.0617402843
 10
-24.6659365166
 20
-5.0479779472
 10
-24.6313260174
 20
-5.0324571651
 10
-24.5988642482
 20
-5.0152883306
  0
LWPOLYLINE
  5
2F5
100
AcDbEntity
  8
ASSI
100
AcDbPolyline
 62
250
  6
CONTINUOUS
 90
19
 70
0
 10
-25.2865651318
 20
-5.024483698
 10
-25.2555223074
 20
-5.0408034016
 10
-25.2221885783
 20
-5.0554156897
 10
-25.1868010326
 20
-5.0682166314
 10
-25.1496113665
 20
-5.0791151794
 10
-25.1108840938
 20
-5.0880338169
 10
-25.0708946646
 20
-5.0949091096
 10
-25.0299275061
 20
-5.0996921566
 10
-24.988274
 20
-5.1023489382
 10
-24.9462304092
 20
-5.1028605578
 10
-24.9040957714
 20
-5.1012233766
 10
-24.8621697719
 20
-5.0974490389
 10
-24.820750612
 20
-5.0915643902
 10
-24.7801328878
 20
-5.0836112853
 10
-24.7406054957
 20
-5.0736462911
 10
-24.7024495765
 20
-5.0617402843
 10
-24.6659365166
 20
-5.0479779472
 10
-24.6313260174
 20
-5.0324571651
 10
-24.5988642482
 20
-5.0152883306
  0
LWPOLYLINE
  5
2F6
100
AcDbEntity
  8
RACCORDO
100
AcDbPolyline
 62
250
  6
CONTINUOUS
 90
31
 70
0
 10
-23.9853337057
 20
-5.9656620945
 10
-24.0042744771
 20
-5.9551310632
 10
-24.0229946327
 20
-5.9440865148
 10
-24.0414766067
 20
-5.9325637938
 10
-24.0596863036
 20
-5.920611365
 10
-24.0776265647
 20
-5.9082508483
 10
-24.0953366719
 20
-5.8954711286
 10
-24.1128027884
 20
-5.8823002176
 10
-24.1300130619
 20
-5.8687652698
 10
-24.1470098246
 20
-5.854843177
 10
-24.1637810503
 20
-5.8405561431
 10
-24.18031586
 20
-5.8259256711
 10
-24.1966570998
 20
-5.8109180839
 10
-24.2127935237
 20
-5.7955506104
 10
-24.2287137881
 20
-5.7798405542
 10
-24.2444582145
 20
-5.7637461085
 10
-24.2600150464
 20
-5.7472808936
 10
-24.2753715649
 20
-5.7304591362
 10
-24.2905632002
 20
-5.7132330665
 10
-24.3055763352
 20
-5.6956143182
 10
-24.3203961985
 20
-5.6776150258
 10
-24.3350519965
 20
-5.659182677
 10
-24.3495269903
 20
-5.6403286119
 10
-24.3638035994
 20
-5.6210638887
 10
-24.377904135
 20
-5.6013314372
 10
-24.3918068104
 20
-5.5811451703
 10
-24.4054909814
 20
-5.560515168
 10
-24.4189734801
 20
-5.5393757715
 10
-24.4322403783
 20
-5.5177137213
 10
-24.4452509862
 20
-5.4955707274
 10
-24.4579772045
 20
-5.4729640887
  0
LWPOLYLINE
  5
2F7
100
AcDbEntity
  8
ASSI
100
AcDbPolyline
 62
250
  6
CONTINUOUS
 90
31
 70
0
 10
-23.9853337057
 20
-5.9656620945
 10
-24.0042744771
 20
-5.9551310632
 10
-24.0229946327
 20
-5.9440865148
 10
-24.0414766067
 20
-5.9325637938
 10
-24.0596863036
 20
-5.920611365
 10
-24.0776265647
 20
-5.9082508483
 10
-24.0953366719
 20
-5.8954711286
 10
-24.1128027884
 20
-5.8823002176
 10
-24.1300130619
 20
-5.8687652698
 10
-24.1470098246
 20
-5.854843177
 10
-24.1637810503
 20
-5.8405561431
 10
-24.18031586
 20
-5.8259256711
 10
-24.1966570998
 20
-5.8109180839
 10
-24.2127935237
 20
-5.7955506104
 10
-24.2287137881
 20
-5.7798405542
 10
-24.2444582145
 20
-5.7637461085
 10
-24.2600150464
 20
-5.7472808936
 10
-24.2753715649
 20
-5.7304591362
 10
-24.2905632002
 20
-5.7132330665
 10
-24.3055763352
 20
-5.6956143182
 10
-24.3203961985
 20
-5.6776150258
 10
-24.3350519965
 20
-5.659182677
 10
-24.3495269903
 20
-5.6403286119
 10
-24.3638035994
 20
-5.6210638887
 10
-24.377904135
 20
-5.6013314372
 10
-24.3918068104
 20
-5.5811451703
 10
-24.4054909814
 20
-5.560515168
 10
-24.4189734801
 20
-5.5393757715
 10
-24.4322403783
 20
-5.5177137213
 10
-24.4452509862
 20
-5.4955707274
 10
-24.4579772045
 20
-5.4729640887
  0
LINE
  5
2F8
100
AcDbEntity
  8
RACCORDO
100
AcDbLine
 62
250
  6
CONTINUOUS
 10
22.9561891997
 20
-33.0691088708
 11
-23.9853335032
 21
-5.9656619776
  0
LINE
  5
2F9
100
AcDbEntity
  8
ASSI
100
AcDbLine
 62
250
  6
CONTINUOUS
 10
22.9561891997
 20
-33.0691088708
 11
-23.9853335032
 21
-5.9656619776
  0
LINE
  5
2FA
100
AcDbEntity
  8
0
100
AcDbLine
 62
7
  6
CONTINUOUS
 10
-21.9753975674
 20
-4.8051681623
 11
23.2720643585
 21
-30.9304855944
  0
LINE
  5
2FB
100
AcDbEntity
  8
ASSI
100
AcDbLine
 62
7
  6
CONTINUOUS
 10
-21.9753975674
 20
-4.8051681623
 11
23.2720643585
 21
-30.9304855944
  0
LINE
  5
2FC
100
AcDbEntity
  8
0
100
AcDbLine
 62
7
  6
CONTINUOUS
 10
3.3652898511
 20
-18.0861779048
 11
5.647784969
 21
-19.4040619795
  0
LINE
  5
2FD
100
AcDbEntity
  8
ASSI
100
AcDbLine
 62
7
  6
CONTINUOUS
 10
3.3652898511
 20
-18.0861779048
 11
5.647784969
 21
-19.4040619795
  0
LWPOLYLINE
  5
2FE
100
AcDbEntity
  8
RACCORDO
100
AcDbPolyline
 62
250
  6
CONTINUOUS
 90
8
 70
0
 10
23.4957279688
 20
-33.1907654477
 10
23.4671890938
 20
-33.1726837766
 10
23.441364894
 20
-33.1531393506
 10
23.4184390479
 20
-33.1322711823
 10
23.398574619
 20
-33.1102276997
 10
23.3819128959
 20
-33.0871656903
 10
23.3685723876
 20
-33.0632491861
 10
23.3586479806
 20
-33.0386482968
  0
LWPOLYLINE
  5
2FF
100
AcDbEntity
  8
ASSI
100
AcDbPolyline
 62
250
  6
CONTINUOUS
 90
8
 70
0
 10
23.4957279688
 20
-33.1907654477
 10
23.4671890938
 20
-33.1726837766
 10
23.441364894
 20
-33.1531393506
 10
23.4184390479
 20
-33.1322711823
 10
23.398574619
 20
-33.1102276997
 10
23.3819128959
 20
-33.0871656903
 10
23.3685723876
 20
-33.0632491861
 10
23.3586479806
 20
-33.0386482968
  0
LWPOLYLINE
  5
300
100
AcDbEntity
  8
0
100
AcDbPolyline
 62
7
  6
CONTINUOUS
 90
33
 70
0
 10
2.8473599616
 20
-24.5500923641
 10
2.8700709879
 20
-24.5727808912
 10
2.8930616626
 20
-24.5976405151
 10
2.9163325004
 20
-24.624670896
 10
2.9399777947
 20
-24.653845322
 10
2.9639045286
 20
-24.685189662
 10
2.9878324791
 20
-24.7187822967
 10
3.0119374523
 20
-24.7547683165
 10
3.0360457395
 20
-24.7930012445
 10
3.0593531645
 20
-24.8331218987
 10
3.0819573247
 20
-24.8755403036
 10
3.1037636938
 20
-24.9198444013
 10
3.1236794809
 20
-24.9644421698
 10
3.1414727721
 20
-25.0093950954
 10
3.1573776769
 20
-25.0546402327
 10
3.1709986019
 20
-25.0984001289
 10
3.1820286727
 20
-25.1402838049
 10
3.1907744045
 20
-25.1806824716
 10
3.1977583484
 20
-25.218993246
 10
3.2029880867
 20
-25.2549682575
 10
3.206454324
 20
-25.288856509
 10
3.2086535217
 20
-25.3208009423
 10
3.209650973
 20
-25.3507665657
 10
3.2093797394
 20
-25.3787894611
 10
3.2081379281
 20
-25.405119185
 10
3.205938674
 20
-25.4297724393
 10
3.2027675132
 20
-25.4527334042
 10
3.1988812746
 20
-25.4742027753
 10
3.1942889478
 20
-25.4941775352
 10
3.1889804273
 20
-25.512661443
 10
3.1831840055
 20
-25.5298652894
 10
3.176921556
 20
-25.5457935534
 10
3.1701703095
 20
-25.5604423521
  0
LWPOLYLINE
  5
301
100
AcDbEntity
  8
ASSI
100
AcDbPolyline
 62
7
  6
CONTINUOUS
 90
33
 70
0
 10
2.8473599616
 20
-24.5500923641
 10
2.8700709879
 20
-24.5727808912
 10
2.8930616626
 20
-24.5976405151
 10
2.9163325004
 20
-24.624670896
 10
2.9399777947
 20
-24.653845322
 10
2.9639045286
 20
-24.685189662
 10
2.9878324791
 20
-24.7187822967
 10
3.0119374523
 20
-24.7547683165
 10
3.0360457395
 20
-24.7930012445
 10
3.0593531645
 20
-24.8331218987
 10
3.0819573247
 20
-24.8755403036
 10
3.1037636938
 20
-24.9198444013
 10
3.1236794809
 20
-24.9644421698
 10
3.1414727721
 20
-25.0093950954
 10
3.1573776769
 20
-25.0546402327
 10
3.1709986019
 20
-25.0984001289
 10
3.1820286727
 20
-25.1402838049
 10
3.1907744045
 20
-25.1806824716
 10
3.1977583484
 20
-25.218993246
 10
3.2029880867
 20
-25.2549682575
 10
3.206454324
 20
-25.288856509
 10
3.2086535217
 20
-25.3208009423
 10
3.209650973
 20
-25.3507665657
 10
3.2093797394
 20
-25.3787894611
 10
3.2081379281
 20
-25.405119185
 10
3.205938674
 20
-25.4297724393
 10
3.2027675132
 20
-25.4527334042
 10
3.1988812746
 20
-25.4742027753
 10
3.1942889478
 20
-25.4941775352
 10
3.1889804273
 20
-25.512661443
 10
3.1831840055
 20
-25.5298652894
 10
3.176921556
 20
-25.5457935534
 10
3.1701703095
 20
-25.5604423521
  0
LINE
  5
302
100
AcDbEntity
  8
0
100
AcDbLine
 62
7
  6
CONTINUOUS
 10
2.9664454928
 20
-25.6986103226
 11
2.9867029521
 21
-25.7202344204
  0
LINE
  5
303
100
AcDbEntity
  8
ASSI
100
AcDbLine
 62
7
  6
CONTINUOUS
 10
2.9664454928
 20
-25.6986103226
 11
2.9867029521
 21
-25.7202344204
  0
LINE
  5
304
100
AcDbEntity
  8
0
100
AcDbLine
 62
7
  6
CONTINUOUS
 10
2.9867029521
 20
-25.7202344204
 11
3.0057558159
 21
-25.7422354907
  0
LINE
  5
305
100
AcDbEntity
  8
ASSI
100
AcDbLine
 62
7
  6
CONTINUOUS
 10
2.9867029521
 20
-25.7202344204
 11
3.0057558159
 21
-25.7422354907
  0
LWPOLYLINE
  5
306
100
AcDbEntity
  8
0
100
AcDbPolyline
 62
7
  6
CONTINUOUS
 90
21
 70
0
 10
3.0057558159
 20
-25.7422354907
 10
3.0236043504
 20
-25.7646133553
 10
3.0401819121
 20
-25.7875287388
 10
3.0555557973
 20
-25.8108204789
 10
3.069927027
 20
-25.8340056697
 10
3.0832695842
 20
-25.8569532978
 10
3.0956097818
 20
-25.8797941775
 10
3.1072268609
 20
-25.9024383289
 10
3.118159891
 20
-25.9248817938
 10
3.1283699575
 20
-25.9471284256
 10
3.138019175
 20
-25.9691000627
 10
3.1471257265
 20
-25.9907921836
 10
3.1556714633
 20
-26.012209286
 10
3.1637638929
 20
-26.0332868112
 10
3.1714043305
 20
-26.0539926311
 10
3.1785913971
 20
-26.074358916
 10
3.1854285014
 20
-26.0944175924
 10
3.1919079959
 20
-26.1141346821
 10
3.1980374462
 20
-26.1335442179
 10
3.2039430931
 20
-26.1527801347
 10
3.2096152292
 20
-26.1718341987
  0
LWPOLYLINE
  5
307
100
AcDbEntity
  8
ASSI
100
AcDbPolyline
 62
7
  6
CONTINUOUS
 90
21
 70
0
 10
3.0057558159
 20
-25.7422354907
 10
3.0236043504
 20
-25.7646133553
 10
3.0401819121
 20
-25.7875287388
 10
3.0555557973
 20
-25.8108204789
 10
3.069927027
 20
-25.8340056697
 10
3.0832695842
 20
-25.8569532978
 10
3.0956097818
 20
-25.8797941775
 10
3.1072268609
 20
-25.9024383289
 10
3.118159891
 20
-25.9248817938
 10
3.1283699575
 20
-25.9471284256
 10
3.138019175
 20
-25.9691000627
 10
3.1471257265
 20
-25.9907921836
 10
3.1556714633
 20
-26.012209286
 10
3.1637638929
 20
-26.0332868112
 10
3.1714043305
 20
-26.0539926311
 10
3.1785913971
 20
-26.074358916
 10
3.1854285014
 20
-26.0944175924
 10
3.1919079959
 20
-26.1141346821
 10
3.1980374462
 20
-26.1335442179
 10
3.2039430931
 20
-26.1527801347
 10
3.2096152292
 20
-26.1718341987
  0
LWPOLYLINE
  5
308
100
AcDbEntity
  8
0
100
AcDbPolyline
 62
7
  6
CONTINUOUS
 90
22
 70
0
 10
-20.335937883
 20
-0.2739464855
 10
-20.3099271497
 20
-0.2567391041
 10
-20.2843903103
 20
-0.2377003531
 10
-20.2593273651
 20
-0.2168302324
 10
-20.2346098359
 20
-0.1939980388
 10
-20.2103662009
 20
-0.1693344755
 10
-20.1869818937
 20
-0.1432316525
 10
-20.1644706491
 20
-0.1156665661
 10
-20.1428187324
 20
-0.08666222
 10
-20.1223703733
 20
-0.0566797356
 10
-20.1031448085
 20
-0.0257034791
 10
-20.0851228013
 20
0.0062509157
 10
-20.0685908719
 20
0.0386754268
 10
-20.0535728365
 20
0.0715775679
 10
-20.0400448788
 20
0.1049498252
 10
-20.0282220713
 20
0.1382616349
 10
-20.0181316674
 20
0.1715120307
 10
-20.0097464135
 20
0.2047019789
 10
-20.0031996215
 20
0.237303814
 10
-19.9985357285
 20
0.2691416474
 10
-19.9957102973
 20
0.3003913677
 10
-19.9947233278
 20
0.3310529749
  0
LWPOLYLINE
  5
309
100
AcDbEntity
  8
ASSI
100
AcDbPolyline
 62
7
  6
CONTINUOUS
 90
22
 70
0
 10
-20.335937883
 20
-0.2739464855
 10
-20.3099271497
 20
-0.2567391041
 10
-20.2843903103
 20
-0.2377003531
 10
-20.2593273651
 20
-0.2168302324
 10
-20.2346098359
 20
-0.1939980388
 10
-20.2103662009
 20
-0.1693344755
 10
-20.1869818937
 20
-0.1432316525
 10
-20.1644706491
 20
-0.1156665661
 10
-20.1428187324
 20
-0.08666222
 10
-20.1223703733
 20
-0.0566797356
 10
-20.1031448085
 20
-0.0257034791
 10
-20.0851228013
 20
0.0062509157
 10
-20.0685908719
 20
0.0386754268
 10
-20.0535728365
 20
0.0715775679
 10
-20.0400448788
 20
0.1049498252
 10
-20.0282220713
 20
0.1382616349
 10
-20.0181316674
 20
0.1715120307
 10
-20.0097464135
 20
0.2047019789
 10
-20.0031996215
 20
0.237303814
 10
-19.9985357285
 20
0.2691416474
 10
-19.9957102973
 20
0.3003913677
 10
-19.9947233278
 20
0.3310529749
  0
LINE
  5
30A
100
AcDbEntity
  8
0
100
AcDbLine
 62
7
  6
CONTINUOUS
 10
-22.5403077401
 20
-1.6356060249
 11
-20.335937883
 21
-0.2739464855
  0
LINE
  5
30B
100
AcDbEntity
  8
ASSI
100
AcDbLine
 62
7
  6
CONTINUOUS
 10
-22.5403077401
 20
-1.6356060249
 11
-20.335937883
 21
-0.2739464855
  0
LINE
  5
30C
100
AcDbEntity
  8
0
100
AcDbLine
 62
250
  6
CONTINUOUS
 10
-24.5988633798
 20
-5.0153139966
 11
-22.5403077401
 21
-3.8267150424
  0
LINE
  5
30D
100
AcDbEntity
  8
ASSI
100
AcDbLine
 62
250
  6
CONTINUOUS
 10
-24.5988633798
 20
-5.0153139966
 11
-22.5403077401
 21
-3.8267150424
  0
LINE
  5
30E
100
AcDbEntity
  8
0
100
AcDbLine
 62
250
  6
CONTINUOUS
 10
-23.9853335032
 20
-5.9656619776
 11
-21.9753975674
 21
-4.8051681623
  0
LINE
  5
30F
100
AcDbEntity
  8
ASSI
100
AcDbLine
 62
250
  6
CONTINUOUS
 10
-23.9853335032
 20
-5.9656619776
 11
-21.9753975674
 21
-4.8051681623
  0
LWPOLYLINE
  5
310
100
AcDbEntity
  8
0
100
AcDbPolyline
 62
250
  6
CONTINUOUS
 90
10
 70
0
 10
-21.0286178802
 20
4.0590933954
 10
-21.0544402343
 20
4.0733474532
 10
-21.0802306576
 20
4.085249069
 10
-21.1058455893
 20
4.0947203802
 10
-21.1311549848
 20
4.1016996199
 10
-21.1560013353
 20
4.1061294514
 10
-21.1802036288
 20
4.1079714908
 10
-21.2036128914
 20
4.1072165798
 10
-21.2261125286
 20
4.1038707308
 10
-21.2475790909
 20
4.0979517835
  0
LWPOLYLINE
  5
311
100
AcDbEntity
  8
ASSI
100
AcDbPolyline
 62
250
  6
CONTINUOUS
 90
10
 70
0
 10
-21.0286178802
 20
4.0590933954
 10
-21.0544402343
 20
4.0733474532
 10
-21.0802306576
 20
4.085249069
 10
-21.1058455893
 20
4.0947203802
 10
-21.1311549848
 20
4.1016996199
 10
-21.1560013353
 20
4.1061294514
 10
-21.1802036288
 20
4.1079714908
 10
-21.2036128914
 20
4.1072165798
 10
-21.2261125286
 20
4.1038707308
 10
-21.2475790909
 20
4.0979517835
  0
LINE
  5
312
100
AcDbEntity
  8
0
100
AcDbLine
 62
250
  6
CONTINUOUS
 10
-20.7909446355
 20
4.0769883811
 11
-20.7957809762
 21
4.0796748085
  0
LINE
  5
313
100
AcDbEntity
  8
ASSI
100
AcDbLine
 62
250
  6
CONTINUOUS
 10
-20.7909446355
 20
4.0769883811
 11
-20.7957809762
 21
4.0796748085
  0
LWPOLYLINE
  5
314
100
AcDbEntity
  8
0
100
AcDbPolyline
 62
7
  6
CONTINUOUS
 90
12
 70
0
 10
-20.0982945861
 20
3.6770312413
 10
-20.1031448085
 20
3.6797292474
 10
-20.1223703733
 20
3.6885043034
 10
-20.1428187324
 20
3.6948735354
 10
-20.1644706491
 20
3.6988747908
 10
-20.1869818937
 20
3.7004444562
 10
-20.2103662009
 20
3.6995436674
 10
-20.2346098359
 20
3.6962112886
 10
-20.2593273651
 20
3.6905002992
 10
-20.2843903103
 20
3.6824283589
 10
-20.3099271497
 20
3.6719778079
 10
-20.335937883
 20
3.6591486463
  0
LWPOLYLINE
  5
315
100
AcDbEntity
  8
ASSI
100
AcDbPolyline
 62
7
  6
CONTINUOUS
 90
12
 70
0
 10
-20.0982945861
 20
3.6770312413
 10
-20.1031448085
 20
3.6797292474
 10
-20.1223703733
 20
3.6885043034
 10
-20.1428187324
 20
3.6948735354
 10
-20.1644706491
 20
3.6988747908
 10
-20.1869818937
 20
3.7004444562
 10
-20.2103662009
 20
3.6995436674
 10
-20.2346098359
 20
3.6962112886
 10
-20.2593273651
 20
3.6905002992
 10
-20.2843903103
 20
3.6824283589
 10
-20.3099271497
 20
3.6719778079
 10
-20.335937883
 20
3.6591486463
  0
LINE
  5
316
100
AcDbEntity
  8
0
100
AcDbLine
 62
250
  6
CONTINUOUS
 10
-21.0286178802
 20
4.0590933954
 11
-20.335937883
 21
3.6591486463
  0
LINE
  5
317
100
AcDbEntity
  8
ASSI
100
AcDbLine
 62
250
  6
CONTINUOUS
 10
-21.0286178802
 20
4.0590933954
 11
-20.335937883
 21
3.6591486463
  0
LINE
  5
318
100
AcDbEntity
  8
0
100
AcDbLine
 62
7
  6
CONTINUOUS
 10
-20.7909446355
 20
4.0769883811
 11
-20.0982646384
 21
3.6770436321
  0
LINE
  5
319
100
AcDbEntity
  8
ASSI
100
AcDbLine
 62
7
  6
CONTINUOUS
 10
-20.7909446355
 20
4.0769883811
 11
-20.0982646384
 21
3.6770436321
  0
LWPOLYLINE
  5
31A
100
AcDbEntity
  8
0
100
AcDbPolyline
 62
7
  6
CONTINUOUS
 90
19
 70
0
 10
2.7939886422
 20
-25.9423817579
 10
2.7859754233
 20
-25.9204456393
 10
2.7771835676
 20
-25.8986045412
 10
2.7676128672
 20
-25.8768586036
 10
2.7572355948
 20
-25.8551102747
 10
2.7460791012
 20
-25.8334573602
 10
2.7342257217
 20
-25.8121930863
 10
2.7216837113
 20
-25.7913113186
 10
2.7084443139
 20
-25.7708185287
 10
2.6945642048
 20
-25.7510269489
 10
2.6799904455
 20
-25.7319173451
 10
2.6647754277
 20
-25.7135093189
 10
2.6491337268
 20
-25.6961734201
 10
2.6330454874
 20
-25.6800018853
 10
2.6165301003
 20
-25.6649027898
 10
2.5998610248
 20
-25.6509704322
 10
2.5831293474
 20
-25.63823629
 10
2.5662437732
 20
-25.6266690255
 10
2.5492042508
 20
-25.6162686732
  0
LWPOLYLINE
  5
31B
100
AcDbEntity
  8
ASSI
100
AcDbPolyline
 62
7
  6
CONTINUOUS
 90
19
 70
0
 10
2.7939886422
 20
-25.9423817579
 10
2.7859754233
 20
-25.9204456393
 10
2.7771835676
 20
-25.8986045412
 10
2.7676128672
 20
-25.8768586036
 10
2.7572355948
 20
-25.8551102747
 10
2.7460791012
 20
-25.8334573602
 10
2.7342257217
 20
-25.8121930863
 10
2.7216837113
 20
-25.7913113186
 10
2.7084443139
 20
-25.7708185287
 10
2.6945642048
 20
-25.7510269489
 10
2.6799904455
 20
-25.7319173451
 10
2.6647754277
 20
-25.7135093189
 10
2.6491337268
 20
-25.6961734201
 10
2.6330454874
 20
-25.6800018853
 10
2.6165301003
 20
-25.6649027898
 10
2.5998610248
 20
-25.6509704322
 10
2.5831293474
 20
-25.63823629
 10
2.5662437732
 20
-25.6266690255
 10
2.5492042508
 20
-25.6162686732
  0
LWPOLYLINE
  5
31C
100
AcDbEntity
  8
0
100
AcDbPolyline
 62
7
  6
CONTINUOUS
 90
5
 70
0
 10
2.9004168314
 20
-25.8809314497
 10
2.9126801915
 20
-25.9171017689
 10
2.9246246738
 20
-25.9531591196
 10
2.9362503305
 20
-25.9891034648
 10
2.947506015
 20
-26.0249003648
  0
LWPOLYLINE
  5
31D
100
AcDbEntity
  8
ASSI
100
AcDbPolyline
 62
7
  6
CONTINUOUS
 90
5
 70
0
 10
2.9004168314
 20
-25.8809314497
 10
2.9126801915
 20
-25.9171017689
 10
2.9246246738
 20
-25.9531591196
 10
2.9362503305
 20
-25.9891034648
 10
2.947506015
 20
-26.0249003648
  0
LINE
  5
31E
100
AcDbEntity
  8
0
100
AcDbLine
 62
7
  6
CONTINUOUS
 10
-2.6031687
 20
-23.3373738651
 11
-2.6592768736
 21
-22.6081114277
  0
LINE
  5
31F
100
AcDbEntity
  8
ASSI
100
AcDbLine
 62
7
  6
CONTINUOUS
 10
-2.6031687
 20
-23.3373738651
 11
-2.6592768736
 21
-22.6081114277
  0
LINE
  5
320
100
AcDbEntity
  8
0
100
AcDbLine
 62
7
  6
CONTINUOUS
 10
1.9815181139
 20
-26.1074688215
 11
1.9260969611
 21
-25.3867491017
  0
LINE
  5
321
100
AcDbEntity
  8
ASSI
100
AcDbLine
 62
7
  6
CONTINUOUS
 10
1.9815181139
 20
-26.1074688215
 11
1.9260969611
 21
-25.3867491017
  0
LINE
  5
322
100
AcDbEntity
  8
0
100
AcDbLine
 62
7
  6
CONTINUOUS
 10
2.0879925291
 20
-26.0459918286
 11
2.0325213644
 21
-25.3253015934
  0
LINE
  5
323
100
AcDbEntity
  8
ASSI
100
AcDbLine
 62
7
  6
CONTINUOUS
 10
2.0879925291
 20
-26.0459918286
 11
2.0325213644
 21
-25.3253015934
  0
LINE
  5
324
100
AcDbEntity
  8
0
100
AcDbLine
 62
7
  6
CONTINUOUS
 10
-2.7096431151
 20
-23.3988508579
 11
-2.7657007032
 21
-22.6695585909
  0
LINE
  5
325
100
AcDbEntity
  8
ASSI
100
AcDbLine
 62
7
  6
CONTINUOUS
 10
-2.7096431151
 20
-23.3988508579
 11
-2.7657007032
 21
-22.6695585909
  0
LINE
  5
326
100
AcDbEntity
  8
0
100
AcDbLine
 62
7
  6
CONTINUOUS
 10
-2.2964042553
 20
-23.6374497965
 11
-2.3524618435
 21
-22.9081575295
  0
LINE
  5
327
100
AcDbEntity
  8
ASSI
100
AcDbLine
 62
7
  6
CONTINUOUS
 10
-2.2964042553
 20
-23.6374497965
 11
-2.3524618435
 21
-22.9081575295
  0
LWPOLYLINE
  5
328
100
AcDbEntity
  8
0
100
AcDbPolyline
 62
7
  6
CONTINUOUS
 90
3
 70
0
 10
2.3930942422
 20
-26.3451077197
 10
2.3381919189
 20
-25.6313711079
 10
2.3276354399
 20
-25.4883376187
  0
LWPOLYLINE
  5
329
100
AcDbEntity
  8
ASSI
100
AcDbPolyline
 62
7
  6
CONTINUOUS
 90
3
 70
0
 10
2.3930942422
 20
-26.3451077197
 10
2.3381919189
 20
-25.6313711079
 10
2.3276354399
 20
-25.4883376187
  0
LINE
  5
32A
100
AcDbEntity
  8
0
100
AcDbLine
 62
7
  6
CONTINUOUS
 10
1.9260969611
 20
-25.3867491017
 11
1.8742785551
 21
-24.6635997029
  0
LINE
  5
32B
100
AcDbEntity
  8
ASSI
100
AcDbLine
 62
7
  6
CONTINUOUS
 10
1.9260969611
 20
-25.3867491017
 11
1.8742785551
 21
-24.6635997029
  0
LINE
  5
32C
100
AcDbEntity
  8
0
100
AcDbLine
 62
7
  6
CONTINUOUS
 10
2.0325213644
 20
-25.3253015934
 11
1.9806561952
 21
-24.6021791724
  0
LINE
  5
32D
100
AcDbEntity
  8
ASSI
100
AcDbLine
 62
7
  6
CONTINUOUS
 10
2.0325213644
 20
-25.3253015934
 11
1.9806561952
 21
-24.6021791724
  0
LINE
  5
32E
100
AcDbEntity
  8
0
100
AcDbLine
 62
7
  6
CONTINUOUS
 10
-2.7657007032
 20
-22.6695585909
 11
-2.818069457
 21
-21.9377788664
  0
LINE
  5
32F
100
AcDbEntity
  8
ASSI
100
AcDbLine
 62
7
  6
CONTINUOUS
 10
-2.7657007032
 20
-22.6695585909
 11
-2.818069457
 21
-21.9377788664
  0
LINE
  5
330
100
AcDbEntity
  8
0
100
AcDbLine
 62
7
  6
CONTINUOUS
 10
-2.6592768736
 20
-22.6081114277
 11
-2.7116928866
 21
-21.8763589666
  0
LINE
  5
331
100
AcDbEntity
  8
ASSI
100
AcDbLine
 62
7
  6
CONTINUOUS
 10
-2.6592768736
 20
-22.6081114277
 11
-2.7116928866
 21
-21.8763589666
  0
LINE
  5
332
100
AcDbEntity
  8
0
100
AcDbLine
 62
7
  6
CONTINUOUS
 10
-2.3524618435
 20
-22.9081575295
 11
-2.4048305972
 21
-22.1763778049
  0
LINE
  5
333
100
AcDbEntity
  8
ASSI
100
AcDbLine
 62
7
  6
CONTINUOUS
 10
-2.3524618435
 20
-22.9081575295
 11
-2.4048305972
 21
-22.1763778049
  0
LINE
  5
334
100
AcDbEntity
  8
0
100
AcDbLine
 62
7
  6
CONTINUOUS
 10
2.2880590483
 20
-25.1209942818
 11
2.2466988773
 21
-24.5173578789
  0
LINE
  5
335
100
AcDbEntity
  8
ASSI
100
AcDbLine
 62
7
  6
CONTINUOUS
 10
2.2880590483
 20
-25.1209942818
 11
2.2466988773
 21
-24.5173578789
  0
LINE
  5
336
100
AcDbEntity
  8
0
100
AcDbLine
 62
7
  6
CONTINUOUS
 10
1.8742785551
 20
-24.6635997029
 11
1.8260654915
 21
-23.9380568494
  0
LINE
  5
337
100
AcDbEntity
  8
ASSI
100
AcDbLine
 62
7
  6
CONTINUOUS
 10
1.8742785551
 20
-24.6635997029
 11
1.8260654915
 21
-23.9380568494
  0
LINE
  5
338
100
AcDbEntity
  8
0
100
AcDbLine
 62
7
  6
CONTINUOUS
 10
1.9806561952
 20
-24.6021791724
 11
1.9395207218
 21
-23.9865815064
  0
LINE
  5
339
100
AcDbEntity
  8
ASSI
100
AcDbLine
 62
7
  6
CONTINUOUS
 10
1.9806561952
 20
-24.6021791724
 11
1.9395207218
 21
-23.9865815064
  0
LINE
  5
33A
100
AcDbEntity
  8
0
100
AcDbLine
 62
7
  6
CONTINUOUS
 10
-2.818069457
 20
-21.9377788664
 11
-2.8667467025
 21
-21.20354905
  0
LINE
  5
33B
100
AcDbEntity
  8
ASSI
100
AcDbLine
 62
7
  6
CONTINUOUS
 10
-2.818069457
 20
-21.9377788664
 11
-2.8667467025
 21
-21.20354905
  0
LINE
  5
33C
100
AcDbEntity
  8
0
100
AcDbLine
 62
7
  6
CONTINUOUS
 10
-2.7116928866
 20
-21.8763589666
 11
-2.7521731965
 21
-21.2697023563
  0
LINE
  5
33D
100
AcDbEntity
  8
ASSI
100
AcDbLine
 62
7
  6
CONTINUOUS
 10
-2.7116928866
 20
-21.8763589666
 11
-2.7521731965
 21
-21.2697023563
  0
LINE
  5
33E
100
AcDbEntity
  8
0
100
AcDbLine
 62
7
  6
CONTINUOUS
 10
-2.4048305972
 20
-22.1763778049
 11
-2.4535078427
 21
-21.4421479885
  0
LINE
  5
33F
100
AcDbEntity
  8
ASSI
100
AcDbLine
 62
7
  6
CONTINUOUS
 10
-2.4048305972
 20
-22.1763778049
 11
-2.4535078427
 21
-21.4421479885
  0
LWPOLYLINE
  5
340
100
AcDbEntity
  8
RACCORDO
100
AcDbPolyline
 62
250
  6
CONTINUOUS
 90
19
 70
0
 10
-25.0632344516
 20
-5.7721695111
 10
-25.0392879743
 20
-5.7642072376
 10
-25.0129696626
 20
-5.754685071
 10
-24.9844691597
 20
-5.7436716259
 10
-24.9539918331
 20
-5.7312462623
 10
-24.921757295
 20
-5.7174985143
 10
-24.8879978193
 20
-5.7025274447
 10
-24.8529566687
 20
-5.6864409315
 10
-24.8168863408
 20
-5.6693548899
 10
-24.7800467497
 20
-5.6513924377
 10
-24.7427033522
 20
-5.632683008
 10
-24.7051252356
 20
-5.6133614162
 10
-24.6675831785
 20
-5.5935668888
 10
-24.6303476998
 20
-5.5734420604
 10
-24.593687109
 20
-5.5531319454
 10
-24.5578655734
 20
-5.5327828935
 10
-24.523141214
 20
-5.5125415349
 10
-24.489764246
 20
-5.4925537237
 10
-24.4579751755
 20
-5.4729634872
  0
LWPOLYLINE
  5
341
100
AcDbEntity
  8
ASSI
100
AcDbPolyline
 62
250
  6
CONTINUOUS
 90
19
 70
0
 10
-25.0632344516
 20
-5.7721695111
 10
-25.0392879743
 20
-5.7642072376
 10
-25.0129696626
 20
-5.754685071
 10
-24.9844691597
 20
-5.7436716259
 10
-24.9539918331
 20
-5.7312462623
 10
-24.921757295
 20
-5.7174985143
 10
-24.8879978193
 20
-5.7025274447
 10
-24.8529566687
 20
-5.6864409315
 10
-24.8168863408
 20
-5.6693548899
 10
-24.7800467497
 20
-5.6513924377
 10
-24.7427033522
 20
-5.632683008
 10
-24.7051252356
 20
-5.6133614162
 10
-24.6675831785
 20
-5.5935668888
 10
-24.6303476998
 20
-5.5734420604
 10
-24.593687109
 20
-5.5531319454
 10
-24.5578655734
 20
-5.5327828935
 10
-24.523141214
 20
-5.5125415349
 10
-24.489764246
 20
-5.4925537237
 10
-24.4579751755
 20
-5.4729634872
  0
LWPOLYLINE
  5
342
100
AcDbEntity
  8
0
100
AcDbPolyline
 62
7
  6
CONTINUOUS
 90
5
 70
0
 10
-20.9289193248
 20
4.1312686288
 10
-20.8932193417
 20
4.1216579289
 10
-20.8581394558
 20
4.109361877
 10
-20.8239688588
 20
4.094444889
 10
-20.7909446355
 20
4.0769883811
  0
LWPOLYLINE
  5
343
100
AcDbEntity
  8
ASSI
100
AcDbPolyline
 62
7
  6
CONTINUOUS
 90
5
 70
0
 10
-20.9289193248
 20
4.1312686288
 10
-20.8932193417
 20
4.1216579289
 10
-20.8581394558
 20
4.109361877
 10
-20.8239688588
 20
4.094444889
 10
-20.7909446355
 20
4.0769883811
  0
LWPOLYLINE
  5
344
100
AcDbEntity
  8
0
100
AcDbPolyline
 62
250
  6
CONTINUOUS
 90
11
 70
0
 10
-20.7957809762
 20
4.0796748085
 10
-20.8150503704
 20
4.0884490525
 10
-20.8355276239
 20
4.0948468566
 10
-20.8571032503
 20
4.0988340136
 10
-20.8796618908
 20
4.1003892052
 10
-20.9030829304
 20
4.0995041163
 10
-20.9272411433
 20
4.0961834791
 10
-20.9520073622
 20
4.0904450482
 10
-20.9772491689
 20
4.0823195054
 10
-21.0028316023
 20
4.0718502958
 10
-21.0286178802
 20
4.0590933954
  0
LWPOLYLINE
  5
345
100
AcDbEntity
  8
ASSI
100
AcDbPolyline
 62
250
  6
CONTINUOUS
 90
11
 70
0
 10
-20.7957809762
 20
4.0796748085
 10
-20.8150503704
 20
4.0884490525
 10
-20.8355276239
 20
4.0948468566
 10
-20.8571032503
 20
4.0988340136
 10
-20.8796618908
 20
4.1003892052
 10
-20.9030829304
 20
4.0995041163
 10
-20.9272411433
 20
4.0961834791
 10
-20.9520073622
 20
4.0904450482
 10
-20.9772491689
 20
4.0823195054
 10
-21.0028316023
 20
4.0718502958
 10
-21.0286178802
 20
4.0590933954
  0
LWPOLYLINE
  5
346
100
AcDbEntity
  8
RACCORDO
100
AcDbPolyline
 62
250
  6
CONTINUOUS
 90
19
 70
0
 10
-25.0632336412
 20
31.242845123
 10
-25.03928725
 20
31.2080162263
 10
-25.0129690118
 20
31.1747591575
 10
-24.9844685702
 20
31.14331356
 10
-24.9539912932
 20
31.1139060238
 10
-24.9217567935
 20
31.0867484533
 10
-24.887997346
 20
31.0620365401
 10
-24.852956214
 20
31.0399483528
 10
-24.8168858963
 20
31.0206430542
 10
-24.7800463079
 20
31.0042597539
 10
-24.7427029068
 20
30.9909165065
 10
-24.7051247816
 20
30.9807094605
 10
-24.6675827122
 20
30.9737121657
 10
-24.6303472186
 20
30.969975043
 10
-24.5936866117
 20
30.9695250212
 10
-24.5578650601
 20
30.9723653432
 10
-24.523140686
 20
30.9784755422
 10
-24.4897637059
 20
30.9878115893
 10
-24.457974627
 20
31.0003062109
  0
LWPOLYLINE
  5
347
100
AcDbEntity
  8
ASSI
100
AcDbPolyline
 62
250
  6
CONTINUOUS
 90
19
 70
0
 10
-25.0632336412
 20
31.242845123
 10
-25.03928725
 20
31.2080162263
 10
-25.0129690118
 20
31.1747591575
 10
-24.9844685702
 20
31.14331356
 10
-24.9539912932
 20
31.1139060238
 10
-24.9217567935
 20
31.0867484533
 10
-24.887997346
 20
31.0620365401
 10
-24.852956214
 20
31.0399483528
 10
-24.8168858963
 20
31.0206430542
 10
-24.7800463079
 20
31.0042597539
 10
-24.7427029068
 20
30.9909165065
 10
-24.7051247816
 20
30.9807094605
 10
-24.6675827122
 20
30.9737121657
 10
-24.6303472186
 20
30.969975043
 10
-24.5936866117
 20
30.9695250212
 10
-24.5578650601
 20
30.9723653432
 10
-24.523140686
 20
30.9784755422
 10
-24.4897637059
 20
30.9878115893
 10
-24.457974627
 20
31.0003062109
  0
LWPOLYLINE
  5
348
100
AcDbEntity
  8
0
100
AcDbPolyline
 62
7
  6
CONTINUOUS
 90
5
 70
0
 10
2.841181966
 20
-26.0867170776
 10
2.8299055284
 20
-26.0508393443
 10
2.8182555309
 20
-26.0148074336
 10
2.8062832517
 20
-25.9786548932
 10
2.7939886422
 20
-25.9423817579
  0
LWPOLYLINE
  5
349
100
AcDbEntity
  8
ASSI
100
AcDbPolyline
 62
7
  6
CONTINUOUS
 90
5
 70
0
 10
2.841181966
 20
-26.0867170776
 10
2.8299055284
 20
-26.0508393443
 10
2.8182555309
 20
-26.0148074336
 10
2.8062832517
 20
-25.9786548932
 10
2.7939886422
 20
-25.9423817579
  0
LINE
  5
34A
100
AcDbEntity
  8
0
100
AcDbLine
 62
7
  6
CONTINUOUS
 10
2.947506015
 20
-26.0249003648
 11
2.9692148724
 21
-26.0962580963
  0
LINE
  5
34B
100
AcDbEntity
  8
ASSI
100
AcDbLine
 62
7
  6
CONTINUOUS
 10
2.947506015
 20
-26.0249003648
 11
2.9692148724
 21
-26.0962580963
  0
LINE
  5
34C
100
AcDbEntity
  8
0
100
AcDbLine
 62
7
  6
CONTINUOUS
 10
2.8629223199
 20
-26.1582109525
 11
2.841181966
 21
-26.0867170776
  0
LINE
  5
34D
100
AcDbEntity
  8
ASSI
100
AcDbLine
 62
7
  6
CONTINUOUS
 10
2.8629223199
 20
-26.1582109525
 11
2.841181966
 21
-26.0867170776
  0
LINE
  5
34E
100
AcDbEntity
  8
0
100
AcDbLine
 62
7
  6
CONTINUOUS
 10
3.0259125808
 20
-26.7104890973
 11
2.936494853
 21
-26.4097864043
  0
LINE
  5
34F
100
AcDbEntity
  8
ASSI
100
AcDbLine
 62
7
  6
CONTINUOUS
 10
3.0259125808
 20
-26.7104890973
 11
2.936494853
 21
-26.4097864043
  0
LINE
  5
350
100
AcDbEntity
  8
0
100
AcDbLine
 62
7
  6
CONTINUOUS
 10
3.0427654343
 20
-26.3476895536
 11
3.132386996
 21
-26.6490121044
  0
LINE
  5
351
100
AcDbEntity
  8
ASSI
100
AcDbLine
 62
7
  6
CONTINUOUS
 10
3.0427654343
 20
-26.3476895536
 11
3.132386996
 21
-26.6490121044
  0
LINE
  5
352
100
AcDbEntity
  8
0
100
AcDbLine
 62
7
  6
CONTINUOUS
 10
2.8839900194
 20
-26.2296161874
 11
2.8629223199
 21
-26.1582109525
  0
LINE
  5
353
100
AcDbEntity
  8
ASSI
100
AcDbLine
 62
7
  6
CONTINUOUS
 10
2.8839900194
 20
-26.2296161874
 11
2.8629223199
 21
-26.1582109525
  0
LINE
  5
354
100
AcDbEntity
  8
0
100
AcDbLine
 62
7
  6
CONTINUOUS
 10
2.9692148724
 20
-26.0962580963
 11
2.9902636553
 21
-26.1675701072
  0
LINE
  5
355
100
AcDbEntity
  8
ASSI
100
AcDbLine
 62
7
  6
CONTINUOUS
 10
2.9692148724
 20
-26.0962580963
 11
2.9902636553
 21
-26.1675701072
  0
LINE
  5
356
100
AcDbEntity
  8
0
100
AcDbLine
 62
7
  6
CONTINUOUS
 10
2.936494853
 20
-26.4097864043
 11
2.8839900194
 21
-26.2296161874
  0
LINE
  5
357
100
AcDbEntity
  8
ASSI
100
AcDbLine
 62
7
  6
CONTINUOUS
 10
2.936494853
 20
-26.4097864043
 11
2.8839900194
 21
-26.2296161874
  0
LINE
  5
358
100
AcDbEntity
  8
0
100
AcDbLine
 62
7
  6
CONTINUOUS
 10
2.9902636553
 20
-26.1675701072
 11
3.0427654343
 21
-26.3476895536
  0
LINE
  5
359
100
AcDbEntity
  8
ASSI
100
AcDbLine
 62
7
  6
CONTINUOUS
 10
2.9902636553
 20
-26.1675701072
 11
3.0427654343
 21
-26.3476895536
  0
LINE
  5
35A
100
AcDbEntity
  8
0
100
AcDbLine
 62
7
  6
CONTINUOUS
 10
3.2096152292
 20
-26.1718341987
 11
3.2204433633
 21
-26.2095801657
  0
LINE
  5
35B
100
AcDbEntity
  8
ASSI
100
AcDbLine
 62
7
  6
CONTINUOUS
 10
3.2096152292
 20
-26.1718341987
 11
3.2204433633
 21
-26.2095801657
  0
LINE
  5
35C
100
AcDbEntity
  8
0
100
AcDbLine
 62
7
  6
CONTINUOUS
 10
3.2204433633
 20
-26.2095801657
 11
3.2311012537
 21
-26.2473719951
  0
LINE
  5
35D
100
AcDbEntity
  8
ASSI
100
AcDbLine
 62
7
  6
CONTINUOUS
 10
3.2204433633
 20
-26.2095801657
 11
3.2311012537
 21
-26.2473719951
  0
LWPOLYLINE
  5
35E
100
AcDbEntity
  8
0
100
AcDbPolyline
 62
7
  6
CONTINUOUS
 90
3
 70
0
 10
3.2311012537
 20
-26.2473719951
 10
3.3424744698
 20
-26.6491416789
 10
3.4234003472
 20
-26.9399935519
  0
LWPOLYLINE
  5
35F
100
AcDbEntity
  8
ASSI
100
AcDbPolyline
 62
7
  6
CONTINUOUS
 90
3
 70
0
 10
3.2311012537
 20
-26.2473719951
 10
3.3424744698
 20
-26.6491416789
 10
3.4234003472
 20
-26.9399935519
  0
LWPOLYLINE
  5
360
100
AcDbEntity
  8
0
100
AcDbPolyline
 62
7
  6
CONTINUOUS
 90
19
 70
0
 10
2.8215174962
 20
-25.1013501281
 10
2.8190304731
 20
-25.079479033
 10
2.8150345108
 20
-25.0568479019
 10
2.8095295572
 20
-25.03345677
 10
2.8025478484
 20
-25.0091985756
 10
2.7940570825
 20
-24.9841804254
 10
2.7839602317
 20
-24.958723719
 10
2.7721568146
 20
-24.9326296388
 10
2.7587469267
 20
-24.9060972597
 10
2.7439339136
 20
-24.8800451467
 10
2.7275683933
 20
-24.8545400135
 10
2.7097987441
 20
-24.8295158128
 10
2.6912745633
 20
-24.8056922265
 10
2.6720637882
 20
-24.7832392362
 10
2.652097566
 20
-24.7619874674
 10
2.6318202959
 20
-24.7421475767
 10
2.6113799419
 20
-24.7237898949
 10
2.5906280221
 20
-24.7068444344
 10
2.5695643609
 20
-24.6913113115
  0
LWPOLYLINE
  5
361
100
AcDbEntity
  8
ASSI
100
AcDbPolyline
 62
7
  6
CONTINUOUS
 90
19
 70
0
 10
2.8215174962
 20
-25.1013501281
 10
2.8190304731
 20
-25.079479033
 10
2.8150345108
 20
-25.0568479019
 10
2.8095295572
 20
-25.03345677
 10
2.8025478484
 20
-25.0091985756
 10
2.7940570825
 20
-24.9841804254
 10
2.7839602317
 20
-24.958723719
 10
2.7721568146
 20
-24.9326296388
 10
2.7587469267
 20
-24.9060972597
 10
2.7439339136
 20
-24.8800451467
 10
2.7275683933
 20
-24.8545400135
 10
2.7097987441
 20
-24.8295158128
 10
2.6912745633
 20
-24.8056922265
 10
2.6720637882
 20
-24.7832392362
 10
2.652097566
 20
-24.7619874674
 10
2.6318202959
 20
-24.7421475767
 10
2.6113799419
 20
-24.7237898949
 10
2.5906280221
 20
-24.7068444344
 10
2.5695643609
 20
-24.6913113115
  0
LINE
  5
362
100
AcDbEntity
  8
0
100
AcDbLine
 62
7
  6
CONTINUOUS
 10
2.9664454928
 20
-25.6986103226
 11
2.9655112556
 21
-25.6856422113
  0
LINE
  5
363
100
AcDbEntity
  8
ASSI
100
AcDbLine
 62
7
  6
CONTINUOUS
 10
2.9664454928
 20
-25.6986103226
 11
2.9655112556
 21
-25.6856422113
  0
LWPOLYLINE
  5
364
100
AcDbEntity
  8
0
100
AcDbPolyline
 62
7
  6
CONTINUOUS
 90
16
 70
0
 10
2.9278880596
 20
-25.0399330875
 10
2.9289844555
 20
-25.0591011168
 10
2.929267332
 20
-25.0776399313
 10
2.9287366247
 20
-25.0955495733
 10
2.9273844653
 20
-25.1128791666
 10
2.9252186097
 20
-25.1295796615
 10
2.9222623666
 20
-25.1455038822
 10
2.9185353258
 20
-25.1606585698
 10
2.9140176484
 20
-25.1750371483
 10
2.9086733839
 20
-25.1884725445
 10
2.9025120151
 20
-25.2009971613
 10
2.8955237272
 20
-25.2125788164
 10
2.8876434961
 20
-25.2229536431
 10
2.8788657164
 20
-25.2321297259
 10
2.8691955448
 20
-25.2400992791
 10
2.8621051367
 20
-25.2446711497
  0
LWPOLYLINE
  5
365
100
AcDbEntity
  8
ASSI
100
AcDbPolyline
 62
7
  6
CONTINUOUS
 90
16
 70
0
 10
2.9278880596
 20
-25.0399330875
 10
2.9289844555
 20
-25.0591011168
 10
2.929267332
 20
-25.0776399313
 10
2.9287366247
 20
-25.0955495733
 10
2.9273844653
 20
-25.1128791666
 10
2.9252186097
 20
-25.1295796615
 10
2.9222623666
 20
-25.1455038822
 10
2.9185353258
 20
-25.1606585698
 10
2.9140176484
 20
-25.1750371483
 10
2.9086733839
 20
-25.1884725445
 10
2.9025120151
 20
-25.2009971613
 10
2.8955237272
 20
-25.2125788164
 10
2.8876434961
 20
-25.2229536431
 10
2.8788657164
 20
-25.2321297259
 10
2.8691955448
 20
-25.2400992791
 10
2.8621051367
 20
-25.2446711497
  0
LINE
  5
366
100
AcDbEntity
  8
0
100
AcDbLine
 62
7
  6
CONTINUOUS
 10
5.0722120652
 20
-20.422118978
 11
5.0722120652
 21
-20.3035840498
  0
LINE
  5
367
100
AcDbEntity
  8
ASSI
100
AcDbLine
 62
7
  6
CONTINUOUS
 10
5.0722120652
 20
-20.422118978
 11
5.0722120652
 21
-20.3035840498
  0
LINE
  5
368
100
AcDbEntity
  8
0
100
AcDbLine
 62
7
  6
CONTINUOUS
 10
5.6479408586
 20
-19.4039670847
 11
5.6479408586
 21
-19.8265975503
  0
LINE
  5
369
100
AcDbEntity
  8
ASSI
100
AcDbLine
 62
7
  6
CONTINUOUS
 10
5.6479408586
 20
-19.4039670847
 11
5.6479408586
 21
-19.8265975503
  0
LWPOLYLINE
  5
36A
100
AcDbEntity
  8
RACCORDO
100
AcDbPolyline
 62
250
  6
CONTINUOUS
 90
9
 70
0
 10
23.3282711252
 20
3.3021961056
 10
23.305005495
 20
3.2946269472
 10
23.2844518447
 20
3.2884332269
 10
23.2667582791
 20
3.2836595751
 10
23.2520522937
 20
3.2803403895
 10
23.2404398563
 20
3.2784995875
 10
23.2320046434
 20
3.2781504334
 10
23.2268074371
 20
3.2792954431
 10
23.2251328904
 20
3.2809459216
  0
LWPOLYLINE
  5
36B
100
AcDbEntity
  8
ASSI
100
AcDbPolyline
 62
250
  6
CONTINUOUS
 90
9
 70
0
 10
23.3282711252
 20
3.3021961056
 10
23.305005495
 20
3.2946269472
 10
23.2844518447
 20
3.2884332269
 10
23.2667582791
 20
3.2836595751
 10
23.2520522937
 20
3.2803403895
 10
23.2404398563
 20
3.2784995875
 10
23.2320046434
 20
3.2781504334
 10
23.2268074371
 20
3.2792954431
 10
23.2251328904
 20
3.2809459216
  0
LWPOLYLINE
  5
36C
100
AcDbEntity
  8
0
100
AcDbPolyline
 62
7
  6
CONTINUOUS
 90
6
 70
0
 10
-21.1106537152
 20
4.1391011531
 10
-21.0744343276
 20
4.1428606424
 10
-21.0380250985
 20
4.143974058
 10
-21.0014845356
 20
4.1424221658
 10
-20.965039105
 20
4.1381855623
 10
-20.9289193248
 20
4.1312686288
  0
LWPOLYLINE
  5
36D
100
AcDbEntity
  8
ASSI
100
AcDbPolyline
 62
7
  6
CONTINUOUS
 90
6
 70
0
 10
-21.1106537152
 20
4.1391011531
 10
-21.0744343276
 20
4.1428606424
 10
-21.0380250985
 20
4.143974058
 10
-21.0014845356
 20
4.1424221658
 10
-20.965039105
 20
4.1381855623
 10
-20.9289193248
 20
4.1312686288
  0
LINE
  5
36E
100
AcDbEntity
  8
DRAFT
100
AcDbLine
 62
7
  6
CONTINUOUS
 10
46.5086694428
 20
-25.2025702695
 11
46.8622228334
 21
-25.4067075661
  0
LINE
  5
36F
100
AcDbEntity
  8
ASSI
100
AcDbLine
 62
7
  6
CONTINUOUS
 10
46.5086694428
 20
-25.2025702695
 11
46.8622228334
 21
-25.4067075661
  0
LWPOLYLINE
  5
370
100
AcDbEntity
  8
RACCORDO
100
AcDbPolyline
 62
250
  6
CONTINUOUS
 90
18
 70
0
 10
23.3282717213
 20
-33.712817704
 10
23.3050059939
 20
-33.6775958004
 10
23.2844522461
 20
-33.6410103871
 10
23.266758584
 20
-33.6033250906
 10
23.2520525041
 20
-33.5648114629
 10
23.2404399753
 20
-33.5257470249
 10
23.2320046751
 20
-33.4864132664
 10
23.2268073863
 20
-33.447093618
 10
23.2248855596
 20
-33.4080714086
 10
23.2262530433
 20
-33.3696278237
 10
23.2308999836
 20
-33.3320398795
 10
23.2387928956
 20
-33.2955784265
 10
23.2498749048
 20
-33.2605061981
 10
23.2640661567
 20
-33.2270759171
 10
23.2812643921
 20
-33.1955284749
 10
23.3013456844
 20
-33.1660911954
 10
23.324165332
 20
-33.1389761974
 10
23.3312546478
 20
-33.1319407924
  0
LWPOLYLINE
  5
371
100
AcDbEntity
  8
ASSI
100
AcDbPolyline
 62
250
  6
CONTINUOUS
 90
18
 70
0
 10
23.3282717213
 20
-33.712817704
 10
23.3050059939
 20
-33.6775958004
 10
23.2844522461
 20
-33.6410103871
 10
23.266758584
 20
-33.6033250906
 10
23.2520525041
 20
-33.5648114629
 10
23.2404399753
 20
-33.5257470249
 10
23.2320046751
 20
-33.4864132664
 10
23.2268073863
 20
-33.447093618
 10
23.2248855596
 20
-33.4080714086
 10
23.2262530433
 20
-33.3696278237
 10
23.2308999836
 20
-33.3320398795
 10
23.2387928956
 20
-33.2955784265
 10
23.2498749048
 20
-33.2605061981
 10
23.2640661567
 20
-33.2270759171
 10
23.2812643921
 20
-33.1955284749
 10
23.3013456844
 20
-33.1660911954
 10
23.324165332
 20
-33.1389761974
 10
23.3312546478
 20
-33.1319407924
  0
LINE
  5
372
100
AcDbEntity
  8
RACCORDO
100
AcDbLine
 62
250
  6
CONTINUOUS
 10
45.8792838346
 20
12.2835140761
 11
45.9600336017
 21
12.3317795369
  0
LINE
  5
373
100
AcDbEntity
  8
ASSI
100
AcDbLine
 62
250
  6
CONTINUOUS
 10
45.8792838346
 20
12.2835140761
 11
45.9600336017
 21
12.3317795369
  0
LINE
  5
374
100
AcDbEntity
  8
RACCORDO
100
AcDbLine
 62
250
  6
CONTINUOUS
 10
43.4875437684
 20
12.122151014
 11
45.2368463019
 21
13.1321666517
  0
LINE
  5
375
100
AcDbEntity
  8
ASSI
100
AcDbLine
 62
250
  6
CONTINUOUS
 10
43.4875437684
 20
12.122151014
 11
45.2368463019
 21
13.1321666517
  0
LINE
  5
376
100
AcDbEntity
  8
RACCORDO
100
AcDbLine
 62
250
  6
CONTINUOUS
 10
44.0978794907
 20
10.8437702761
 11
45.9429840178
 21
11.9091002518
  0
LINE
  5
377
100
AcDbEntity
  8
ASSI
100
AcDbLine
 62
250
  6
CONTINUOUS
 10
44.0978794907
 20
10.8437702761
 11
45.9429840178
 21
11.9091002518
  0
LINE
  5
378
100
AcDbEntity
  8
RACCORDO
100
AcDbLine
 62
250
  6
CONTINUOUS
 10
45.5292126619
 20
12.8898281151
 11
45.6113944198
 21
12.9356402482
  0
LINE
  5
379
100
AcDbEntity
  8
ASSI
100
AcDbLine
 62
250
  6
CONTINUOUS
 10
45.5292126619
 20
12.8898281151
 11
45.6113944198
 21
12.9356402482
  0
LINE
  5
37A
100
AcDbEntity
  8
RACCORDO
100
AcDbLine
 62
250
  6
CONTINUOUS
 10
45.6113944198
 20
12.9356402482
 11
45.7490407084
 21
13.0115845045
  0
LINE
  5
37B
100
AcDbEntity
  8
ASSI
100
AcDbLine
 62
250
  6
CONTINUOUS
 10
45.6113944198
 20
12.9356402482
 11
45.7490407084
 21
13.0115845045
  0
LWPOLYLINE
  5
37C
100
AcDbEntity
  8
RACCORDO
100
AcDbPolyline
 62
250
  6
CONTINUOUS
 90
5
 70
0
 10
45.7490407084
 20
13.0115845045
 10
45.8798254619
 20
13.0826174126
 10
45.9425615699
 20
13.1162908844
 10
46.0034335469
 20
13.148606543
 10
46.1332672961
 20
13.2166967865
  0
LWPOLYLINE
  5
37D
100
AcDbEntity
  8
ASSI
100
AcDbPolyline
 62
250
  6
CONTINUOUS
 90
5
 70
0
 10
45.7490407084
 20
13.0115845045
 10
45.8798254619
 20
13.0826174126
 10
45.9425615699
 20
13.1162908844
 10
46.0034335469
 20
13.148606543
 10
46.1332672961
 20
13.2166967865
  0
LWPOLYLINE
  5
37E
100
AcDbEntity
  8
RACCORDO
100
AcDbPolyline
 62
250
  6
CONTINUOUS
 90
12
 70
0
 10
46.1332672961
 20
13.2166967865
 10
46.1985709176
 20
13.2498167623
 10
46.2583128066
 20
13.2792350337
 10
46.3124077013
 20
13.3055739215
 10
46.3610193891
 20
13.3289363544
 10
46.4045979823
 20
13.3490170525
 10
46.4430012581
 20
13.3661173097
 10
46.4766049145
 20
13.3808449019
 10
46.5066440011
 20
13.3933292227
 10
46.533570789
 20
13.403762308
 10
46.5570966124
 20
13.4125062751
 10
46.5773120984
 20
13.419830808
  0
LWPOLYLINE
  5
37F
100
AcDbEntity
  8
ASSI
100
AcDbPolyline
 62
250
  6
CONTINUOUS
 90
12
 70
0
 10
46.1332672961
 20
13.2166967865
 10
46.1985709176
 20
13.2498167623
 10
46.2583128066
 20
13.2792350337
 10
46.3124077013
 20
13.3055739215
 10
46.3610193891
 20
13.3289363544
 10
46.4045979823
 20
13.3490170525
 10
46.4430012581
 20
13.3661173097
 10
46.4766049145
 20
13.3808449019
 10
46.5066440011
 20
13.3933292227
 10
46.533570789
 20
13.403762308
 10
46.5570966124
 20
13.4125062751
 10
46.5773120984
 20
13.419830808
  0
LWPOLYLINE
  5
380
100
AcDbEntity
  8
RACCORDO
100
AcDbPolyline
 62
250
  6
CONTINUOUS
 90
11
 70
0
 10
-43.6069775833
 20
41.94976616
 10
-43.6241009596
 20
41.9604220059
 10
-43.6395956482
 20
41.9717843661
 10
-43.6533514416
 20
41.9837724245
 10
-43.6652705
 20
41.9963009149
 10
-43.6752680482
 20
42.009280727
 10
-43.6832729773
 20
42.0226195407
 10
-43.6892283515
 20
42.0362224821
 10
-43.6930918126
 20
42.0499927989
 10
-43.6948358814
 20
42.0638325483
 10
-43.6948712793
 20
42.0718412646
  0
LWPOLYLINE
  5
381
100
AcDbEntity
  8
ASSI
100
AcDbPolyline
 62
250
  6
CONTINUOUS
 90
11
 70
0
 10
-43.6069775833
 20
41.94976616
 10
-43.6241009596
 20
41.9604220059
 10
-43.6395956482
 20
41.9717843661
 10
-43.6533514416
 20
41.9837724245
 10
-43.6652705
 20
41.9963009149
 10
-43.6752680482
 20
42.009280727
 10
-43.6832729773
 20
42.0226195407
 10
-43.6892283515
 20
42.0362224821
 10
-43.6930918126
 20
42.0499927989
 10
-43.6948358814
 20
42.0638325483
 10
-43.6948712793
 20
42.0718412646
  0
LWPOLYLINE
  5
382
100
AcDbEntity
  8
0
100
AcDbPolyline
 62
7
  6
CONTINUOUS
 90
10
 70
0
 10
3.1701703095
 20
-25.5604423521
 10
3.1630917078
 20
-25.5740098571
 10
3.1557007217
 20
-25.5865132516
 10
3.147981696
 20
-25.5979358085
 10
3.1400502316
 20
-25.6084247678
 10
3.1319096372
 20
-25.6179795652
 10
3.1235560713
 20
-25.6266011206
 10
3.1150944871
 20
-25.6344388484
 10
3.1065170575
 20
-25.6414677928
 10
3.0978312064
 20
-25.6477131789
  0
LWPOLYLINE
  5
383
100
AcDbEntity
  8
ASSI
100
AcDbPolyline
 62
7
  6
CONTINUOUS
 90
10
 70
0
 10
3.1701703095
 20
-25.5604423521
 10
3.1630917078
 20
-25.5740098571
 10
3.1557007217
 20
-25.5865132516
 10
3.147981696
 20
-25.5979358085
 10
3.1400502316
 20
-25.6084247678
 10
3.1319096372
 20
-25.6179795652
 10
3.1235560713
 20
-25.6266011206
 10
3.1150944871
 20
-25.6344388484
 10
3.1065170575
 20
-25.6414677928
 10
3.0978312064
 20
-25.6477131789
  0
LWPOLYLINE
  5
384
100
AcDbEntity
  8
RACCORDO
100
AcDbPolyline
 62
250
  6
CONTINUOUS
 90
13
 70
0
 10
46.3404637959
 20
12.5648531147
 10
46.4643383681
 20
12.643264899
 10
46.5256671901
 20
12.6832694454
 10
46.5810094227
 20
12.7203081492
 10
46.6308613618
 20
12.7539960431
 10
46.6753940774
 20
12.7844234456
 10
46.71456834
 20
12.81213265
 10
46.7485740155
 20
12.8368497523
 10
46.7781252666
 20
12.8585962926
 10
46.8039516403
 20
12.878377234
 10
46.8264455704
 20
12.8964882579
 10
46.8457763436
 20
12.9124982795
 10
46.8622228298
 20
12.9263509368
  0
LWPOLYLINE
  5
385
100
AcDbEntity
  8
ASSI
100
AcDbPolyline
 62
250
  6
CONTINUOUS
 90
13
 70
0
 10
46.3404637959
 20
12.5648531147
 10
46.4643383681
 20
12.643264899
 10
46.5256671901
 20
12.6832694454
 10
46.5810094227
 20
12.7203081492
 10
46.6308613618
 20
12.7539960431
 10
46.6753940774
 20
12.7844234456
 10
46.71456834
 20
12.81213265
 10
46.7485740155
 20
12.8368497523
 10
46.7781252666
 20
12.8585962926
 10
46.8039516403
 20
12.878377234
 10
46.8264455704
 20
12.8964882579
 10
46.8457763436
 20
12.9124982795
 10
46.8622228298
 20
12.9263509368
  0
LINE
  5
386
100
AcDbEntity
  8
RACCORDO
100
AcDbLine
 62
250
  6
CONTINUOUS
 10
46.282045906
 20
12.5282869133
 11
46.3404637959
 21
12.5648531147
  0
LINE
  5
387
100
AcDbEntity
  8
ASSI
100
AcDbLine
 62
250
  6
CONTINUOUS
 10
46.282045906
 20
12.5282869133
 11
46.3404637959
 21
12.5648531147
  0
LINE
  5
388
100
AcDbEntity
  8
RACCORDO
100
AcDbLine
 62
250
  6
CONTINUOUS
 10
46.1590267313
 20
12.4523597271
 11
46.282045906
 21
12.5282869133
  0
LINE
  5
389
100
AcDbEntity
  8
ASSI
100
AcDbLine
 62
250
  6
CONTINUOUS
 10
46.1590267313
 20
12.4523597271
 11
46.282045906
 21
12.5282869133
  0
LWPOLYLINE
  5
38A
100
AcDbEntity
  8
RACCORDO
100
AcDbPolyline
 62
250
  6
CONTINUOUS
 90
3
 70
0
 10
45.9600336017
 20
12.3317795369
 10
46.028244149
 20
12.3728088947
 10
46.1590267313
 20
12.4523597271
  0
LWPOLYLINE
  5
38B
100
AcDbEntity
  8
ASSI
100
AcDbPolyline
 62
250
  6
CONTINUOUS
 90
3
 70
0
 10
45.9600336017
 20
12.3317795369
 10
46.028244149
 20
12.3728088947
 10
46.1590267313
 20
12.4523597271
  0
LINE
  5
38C
100
AcDbEntity
  8
0
100
AcDbLine
 62
7
  6
CONTINUOUS
 10
-3.6675347684
 20
-22.071120657
 11
-3.7739617229
 21
-22.1325702467
  0
LINE
  5
38D
100
AcDbEntity
  8
ASSI
100
AcDbLine
 62
7
  6
CONTINUOUS
 10
-3.6675347684
 20
-22.071120657
 11
-3.7739617229
 21
-22.1325702467
  0
LINE
  5
38E
100
AcDbEntity
  8
0
100
AcDbLine
 62
7
  6
CONTINUOUS
 10
-3.8136096444
 20
-22.6384804342
 11
-3.9200840595
 21
-22.699957427
  0
LINE
  5
38F
100
AcDbEntity
  8
ASSI
100
AcDbLine
 62
7
  6
CONTINUOUS
 10
-3.8136096444
 20
-22.6384804342
 11
-3.9200840595
 21
-22.699957427
  0
LINE
  5
390
100
AcDbEntity
  8
0
100
AcDbLine
 62
7
  6
CONTINUOUS
 10
-1.5964907266
 20
-22.5489228284
 11
-1.7028691161
 21
-22.6103443773
  0
LINE
  5
391
100
AcDbEntity
  8
ASSI
100
AcDbLine
 62
7
  6
CONTINUOUS
 10
-1.5964907266
 20
-22.5489228284
 11
-1.7028691161
 21
-22.6103443773
  0
LINE
  5
392
100
AcDbEntity
  8
0
100
AcDbLine
 62
7
  6
CONTINUOUS
 10
-2.6031687
 20
-23.3373738651
 11
-2.7096431151
 21
-23.3988508579
  0
LINE
  5
393
100
AcDbEntity
  8
ASSI
100
AcDbLine
 62
7
  6
CONTINUOUS
 10
-2.6031687
 20
-23.3373738651
 11
-2.7096431151
 21
-23.3988508579
  0
LINE
  5
394
100
AcDbEntity
  8
0
100
AcDbLine
 62
7
  6
CONTINUOUS
 10
3.3652898511
 20
-18.0861779048
 11
2.1444074278
 21
-18.7316412743
  0
LINE
  5
395
100
AcDbEntity
  8
ASSI
100
AcDbLine
 62
7
  6
CONTINUOUS
 10
3.3652898511
 20
-18.0861779048
 11
2.1444074278
 21
-18.7316412743
  0
LWPOLYLINE
  5
396
100
AcDbEntity
  8
RACCORDO
100
AcDbPolyline
 62
250
  6
CONTINUOUS
 90
19
 70
0
 10
-25.2865626385
 20
30.6885326358
 10
-25.2555200301
 20
30.6718965858
 10
-25.2221864785
 20
30.6566879611
 10
-25.1867990737
 20
30.6430149354
 10
-25.1496095141
 20
30.6309747602
 10
-25.1108823159
 20
30.620653073
 10
-25.0708929325
 20
30.6121232885
 10
-25.0299257942
 20
30.6054460761
 10
-24.9882722862
 20
30.6006689283
 10
-24.9462286754
 20
30.5978258235
 10
-24.9040940033
 20
30.5969369836
 10
-24.8621679593
 20
30.5980087306
 10
-24.8207487487
 20
30.6010334417
 10
-24.780130972
 20
30.605989603
 10
-24.7406035293
 20
30.6128419631
 10
-24.7024475656
 20
30.6215417836
 10
-24.665934471
 20
30.6320271857
 10
-24.6313239505
 20
30.6442235903
 10
-24.5988621766
 20
30.6580442486
  0
LWPOLYLINE
  5
397
100
AcDbEntity
  8
ASSI
100
AcDbPolyline
 62
250
  6
CONTINUOUS
 90
19
 70
0
 10
-25.2865626385
 20
30.6885326358
 10
-25.2555200301
 20
30.6718965858
 10
-25.2221864785
 20
30.6566879611
 10
-25.1867990737
 20
30.6430149354
 10
-25.1496095141
 20
30.6309747602
 10
-25.1108823159
 20
30.620653073
 10
-25.0708929325
 20
30.6121232885
 10
-25.0299257942
 20
30.6054460761
 10
-24.9882722862
 20
30.6006689283
 10
-24.9462286754
 20
30.5978258235
 10
-24.9040940033
 20
30.5969369836
 10
-24.8621679593
 20
30.5980087306
 10
-24.8207487487
 20
30.6010334417
 10
-24.780130972
 20
30.605989603
 10
-24.7406035293
 20
30.6128419631
 10
-24.7024475656
 20
30.6215417836
 10
-24.665934471
 20
30.6320271857
 10
-24.6313239505
 20
30.6442235903
 10
-24.5988621766
 20
30.6580442486
  0
LWPOLYLINE
  5
398
100
AcDbEntity
  8
RACCORDO
100
AcDbPolyline
 62
250
  6
CONTINUOUS
 90
19
 70
0
 10
41.8720078096
 20
-7.4047286991
 10
41.8906333277
 20
-7.4147138168
 10
41.9106332657
 20
-7.4238456093
 10
41.9318653719
 20
-7.4320591257
 10
41.9541786309
 20
-7.4392959465
 10
41.9774143371
 20
-7.445504599
 10
42.0014072243
 20
-7.4506409236
 10
42.0259866404
 20
-7.4546683877
 10
42.0509777619
 20
-7.4575583454
 10
42.0762028366
 20
-7.4592902417
 10
42.1014824488
 20
-7.4598517582
 10
42.1266367944
 20
-7.4592389012
 10
42.1514869605
 20
-7.4574560295
 10
42.1758561978
 20
-7.4545158241
 10
42.1995711774
 20
-7.4504391975
 10
42.2224632242
 20
-7.4452551451
 10
42.2443695159
 20
-7.4390005391
 10
42.2651342419
 20
-7.431719866
 10
42.2846097109
 20
-7.4234649103
  0
LWPOLYLINE
  5
399
100
AcDbEntity
  8
ASSI
100
AcDbPolyline
 62
250
  6
CONTINUOUS
 90
19
 70
0
 10
41.8720078096
 20
-7.4047286991
 10
41.8906333277
 20
-7.4147138168
 10
41.9106332657
 20
-7.4238456093
 10
41.9318653719
 20
-7.4320591257
 10
41.9541786309
 20
-7.4392959465
 10
41.9774143371
 20
-7.445504599
 10
42.0014072243
 20
-7.4506409236
 10
42.0259866404
 20
-7.4546683877
 10
42.0509777619
 20
-7.4575583454
 10
42.0762028366
 20
-7.4592902417
 10
42.1014824488
 20
-7.4598517582
 10
42.1266367944
 20
-7.4592389012
 10
42.1514869605
 20
-7.4574560295
 10
42.1758561978
 20
-7.4545158241
 10
42.1995711774
 20
-7.4504391975
 10
42.2224632242
 20
-7.4452551451
 10
42.2443695159
 20
-7.4390005391
 10
42.2651342419
 20
-7.431719866
 10
42.2846097109
 20
-7.4234649103
  0
LINE
  5
39A
100
AcDbEntity
  8
RACCORDO
100
AcDbLine
 62
250
  6
CONTINUOUS
 10
23.3282677845
 20
3.3021943712
 11
41.8720056618
 21
-7.4047769039
  0
LINE
  5
39B
100
AcDbEntity
  8
ASSI
100
AcDbLine
 62
250
  6
CONTINUOUS
 10
23.3282677845
 20
3.3021943712
 11
41.8720056618
 21
-7.4047769039
  0
LINE
  5
39C
100
AcDbEntity
  8
RACCORDO
100
AcDbLine
 62
250
  6
CONTINUOUS
 10
-43.6069795614
 20
41.9497179875
 11
-25.063237578
 21
31.2428430794
  0
LINE
  5
39D
100
AcDbEntity
  8
ASSI
100
AcDbLine
 62
250
  6
CONTINUOUS
 10
-43.6069795614
 20
41.9497179875
 11
-25.063237578
 21
31.2428430794
  0
LINE
  5
39E
100
AcDbEntity
  8
0
100
AcDbLine
 62
7
  6
CONTINUOUS
 10
-22.5403077401
 20
29.8127949717
 11
-22.1867543495
 21
29.608657675
  0
LINE
  5
39F
100
AcDbEntity
  8
ASSI
100
AcDbLine
 62
7
  6
CONTINUOUS
 10
-22.5403077401
 20
29.8127949717
 11
-22.1867543495
 21
29.608657675
  0
LINE
  5
3A0
100
AcDbEntity
  8
RACCORDO
100
AcDbLine
 62
7
  6
CONTINUOUS
 10
-24.2168361104
 20
30.9919922683
 11
22.7246535313
 21
3.8885644642
  0
LINE
  5
3A1
100
AcDbEntity
  8
ASSI
100
AcDbLine
 62
7
  6
CONTINUOUS
 10
-24.2168361104
 20
30.9919922683
 11
22.7246535313
 21
3.8885644642
  0
LINE
  5
3A2
100
AcDbEntity
  8
RACCORDO
100
AcDbLine
 62
250
  6
CONTINUOUS
 10
-24.3198737659
 20
31.2429341035
 11
22.6216158759
 21
4.1395062993
  0
LINE
  5
3A3
100
AcDbEntity
  8
ASSI
100
AcDbLine
 62
250
  6
CONTINUOUS
 10
-24.3198737659
 20
31.2429341035
 11
22.6216158759
 21
4.1395062993
  0
LINE
  5
3A4
100
AcDbEntity
  8
0
100
AcDbLine
 62
250
  6
CONTINUOUS
 10
-25.7545347267
 20
33.9180583223
 11
-24.5534855746
 21
33.2245875946
  0
LINE
  5
3A5
100
AcDbEntity
  8
0
100
AcDbLine
 62
250
  6
CONTINUOUS
 10
-25.6791831361
 20
33.9615575022
 11
-24.6194337179
 21
33.3496714699
  0
LINE
  5
3A6
100
AcDbEntity
  8
0
100
AcDbLine
 62
250
  6
CONTINUOUS
 10
-25.6037890553
 20
34.0050820318
 11
-24.685339371
 21
33.4747806949
  0
LINE
  5
3A7
100
AcDbEntity
  8
0
100
AcDbLine
 62
250
  6
CONTINUOUS
 10
-17.0004170078
 20
29.3863140947
 11
-16.0113174565
 21
28.8152204101
  0
LINE
  5
3A8
100
AcDbEntity
  8
0
100
AcDbLine
 62
250
  6
CONTINUOUS
 10
-15.1458555258
 20
28.3155135381
 11
-14.8985809916
 21
28.1727403211
  0
LINE
  5
3A9
100
AcDbEntity
  8
0
100
AcDbLine
 62
250
  6
CONTINUOUS
 10
-13.744631515
 20
27.5064643557
 11
-13.4973562736
 21
27.3636907305
  0
LINE
  5
3AA
100
AcDbEntity
  8
0
100
AcDbLine
 62
250
  6
CONTINUOUS
 10
-12.5082574294
 20
26.7925974541
 11
-12.1373445674
 21
26.5784370162
  0
LINE
  5
3AB
100
AcDbEntity
  8
0
100
AcDbLine
 62
250
  6
CONTINUOUS
 10
-10.5712706314
 20
25.6742055531
 11
-10.32399539
 21
25.5314319278
  0
LINE
  5
3AC
100
AcDbEntity
  8
0
100
AcDbLine
 62
250
  6
CONTINUOUS
 10
-9.3348965458
 20
24.9603386515
 11
-7.8512472188
 21
24.1036981246
  0
LINE
  5
3AD
100
AcDbEntity
  8
0
100
AcDbLine
 62
250
  6
CONTINUOUS
 10
-5.6257728748
 20
22.8187371301
 11
-5.3784983405
 21
22.6759639131
  0
LINE
  5
3AE
100
AcDbEntity
  8
0
100
AcDbLine
 62
250
  6
CONTINUOUS
 10
-5.0487984901
 20
22.4855993515
 11
-4.8015239558
 21
22.3428261345
  0
LINE
  5
3AF
100
AcDbEntity
  8
0
100
AcDbLine
 62
250
  6
CONTINUOUS
 10
-3.6475744793
 20
21.6765501692
 11
-3.4002992379
 21
21.5337765439
  0
LINE
  5
3B0
100
AcDbEntity
  8
0
100
AcDbLine
 62
250
  6
CONTINUOUS
 10
-3.0706000946
 20
21.3434123906
 11
-1.5869507676
 21
20.4867718637
  0
LINE
  5
3B1
100
AcDbEntity
  8
0
100
AcDbLine
 62
250
  6
CONTINUOUS
 10
-5.9554727252
 20
23.0091016916
 11
-6.2439602711
 21
23.175670785
  0
LINE
  5
3B2
100
AcDbEntity
  8
0
100
AcDbLine
 62
250
  6
CONTINUOUS
 10
-7.2742728341
 20
23.770560346
 11
-7.5215473684
 21
23.913333563
  0
LINE
  5
3B3
100
AcDbEntity
  8
0
100
AcDbLine
 62
250
  6
CONTINUOUS
 10
-16.7131360458
 20
29.5327203864
 11
-15.9300994313
 21
29.0806048589
  0
LINE
  5
3B4
100
AcDbEntity
  8
0
100
AcDbLine
 62
250
  6
CONTINUOUS
 10
-1.5469443399
 20
20.7759513724
 11
-2.7833184255
 21
21.489818274
  0
LINE
  5
3B5
100
AcDbEntity
  8
0
100
AcDbLine
 62
250
  6
CONTINUOUS
 10
-7.8112407911
 20
24.3928776333
 11
-9.0476148767
 21
25.1067445349
  0
LINE
  5
3B6
100
AcDbEntity
  8
0
100
AcDbLine
 62
250
  6
CONTINUOUS
 10
-12.0973388468
 20
26.8676169332
 11
-12.4682510018
 21
27.0817769629
  0
LINE
  5
3B7
100
AcDbEntity
  8
0
100
AcDbLine
 62
250
  6
CONTINUOUS
 10
-26.5103762235
 20
35.3580055078
 11
-25.6979013395
 21
34.8888926925
  0
LINE
  5
3B8
100
AcDbEntity
  8
0
100
AcDbLine
 62
250
  6
CONTINUOUS
 10
-24.4968521874
 20
34.1954219647
 11
-23.6843773034
 21
33.7263091494
  0
LINE
  5
3B9
100
AcDbEntity
  8
0
100
AcDbLine
 62
250
  6
CONTINUOUS
 10
-26.4345362258
 20
35.4017866878
 11
-25.6220613418
 21
34.9326738725
  0
LINE
  5
3BA
100
AcDbEntity
  8
0
100
AcDbLine
 62
250
  6
CONTINUOUS
 10
-24.5623119236
 20
34.3207878401
 11
-23.7498370396
 21
33.8516750248
  0
LINE
  5
3BB
100
AcDbEntity
  8
0
100
AcDbLine
 62
250
  6
CONTINUOUS
 10
-14.6531753489
 20
28.6562304995
 11
-13.8289257228
 21
28.1803190957
  0
LINE
  5
3BC
100
AcDbEntity
  8
0
100
AcDbLine
 62
250
  6
CONTINUOUS
 10
-4.5561183132
 20
22.8263163129
 11
-3.7318693942
 21
22.3504053174
  0
LINE
  5
3BD
100
AcDbEntity
  8
0
100
AcDbLine
 62
250
  6
CONTINUOUS
 10
-11.4798144652
 20
26.8239716968
 11
-11.7270897066
 21
26.9667453221
  0
LINE
  5
3BE
100
AcDbEntity
  8
0
100
AcDbLine
 62
250
  6
CONTINUOUS
 10
-26.3586530169
 20
35.4455920008
 11
-25.54617884
 21
34.9764795938
  0
LINE
  5
3BF
100
AcDbEntity
  8
0
100
AcDbLine
 62
250
  6
CONTINUOUS
 10
-24.6277291556
 20
34.4461782569
 11
-23.8152549788
 21
33.9770658499
  0
LINE
  5
3C0
100
AcDbEntity
  8
0
100
AcDbLine
 62
250
  6
CONTINUOUS
 10
-22.0228230274
 20
32.985966177
 11
-22.7764227865
 21
33.4210852331
  0
LINE
  5
3C1
100
AcDbEntity
  8
0
100
AcDbLine
 62
250
  6
CONTINUOUS
 10
-14.5846289583
 20
28.8256045282
 11
-13.8428039413
 21
28.3972840606
  0
LINE
  5
3C2
100
AcDbEntity
  8
0
100
AcDbLine
 62
250
  6
CONTINUOUS
 10
-4.4875712155
 20
22.9956899333
 11
-3.7457469055
 21
22.567369874
  0
LINE
  5
3C3
100
AcDbEntity
  8
0
100
AcDbLine
 62
250
  6
CONTINUOUS
 10
-6.4312627512
 20
24.3795356658
 11
-7.1318754637
 21
24.7840606653
  0
LINE
  5
3C4
100
AcDbEntity
  8
0
100
AcDbLine
 62
250
  6
CONTINUOUS
 10
-15.8277077815
 20
29.8049252612
 11
-16.6107451031
 21
30.2570411969
  0
LINE
  5
3C5
100
AcDbEntity
  8
0
100
AcDbLine
 62
250
  6
CONTINUOUS
 10
-8.9382775791
 20
25.8794230724
 11
-7.8667534187
 21
25.2607384515
  0
LINE
  5
3C6
100
AcDbEntity
  8
0
100
AcDbLine
 62
250
  6
CONTINUOUS
 10
-6.3069305666
 20
24.6222219372
 11
-7.0899678881
 21
25.0743378729
  0
LINE
  5
3C7
100
AcDbEntity
  8
0
100
AcDbLine
 62
250
  6
CONTINUOUS
 10
-15.7858009131
 20
30.0952028771
 11
-16.5688375275
 21
30.5473184046
  0
LINE
  5
3C8
100
AcDbEntity
  8
0
100
AcDbLine
 62
250
  6
CONTINUOUS
 10
-7.8247552317
 20
25.5510679771
 11
-8.8962793921
 21
26.1697525979
  0
LINE
  5
3C9
100
AcDbEntity
  8
0
100
AcDbLine
 62
250
  6
CONTINUOUS
 10
-23.7433600996
 20
35.0790772311
 11
-24.5558342764
 21
35.5481896381
  0
LINE
  5
3CA
100
AcDbEntity
  8
0
100
AcDbLine
 62
250
  6
CONTINUOUS
 10
-25.4742839608
 20
36.078490975
 11
-26.2867581377
 21
36.547603382
  0
LINE
  5
3CB
100
AcDbEntity
  8
0
100
AcDbLine
 62
250
  6
CONTINUOUS
 10
-11.5666180463
 20
28.0793746706
 11
-11.319342805
 21
27.9366010453
  0
LINE
  5
3CC
100
AcDbEntity
  8
0
100
AcDbLine
 62
250
  6
CONTINUOUS
 10
-23.6668812174
 20
35.1232264784
 11
-24.4793561014
 21
35.5923392937
  0
LINE
  5
3CD
100
AcDbEntity
  8
0
100
AcDbLine
 62
250
  6
CONTINUOUS
 10
-25.5391055196
 20
36.204225326
 11
-26.3515804036
 21
36.6733381413
  0
LINE
  5
3CE
100
AcDbEntity
  8
0
100
AcDbLine
 62
250
  6
CONTINUOUS
 10
-23.5903604486
 20
35.1674007271
 11
-24.4028353326
 21
35.6365135424
  0
LINE
  5
3CF
100
AcDbEntity
  8
0
100
AcDbLine
 62
250
  6
CONTINUOUS
 10
-25.6038844847
 20
36.3299842701
 11
-26.4163593686
 21
36.7990970854
  0
LINE
  5
3D0
100
AcDbEntity
  8
0
100
AcDbLine
 62
250
  6
CONTINUOUS
 10
-16.4689389535
 20
31.2258531641
 11
-15.6859016319
 21
30.7737372284
  0
LINE
  5
3D1
100
AcDbEntity
  8
0
100
AcDbLine
 62
250
  6
CONTINUOUS
 10
-12.2240532023
 20
28.7749093323
 11
-11.8531410473
 21
28.5607493026
  0
LINE
  5
3D2
100
AcDbEntity
  8
0
100
AcDbLine
 62
250
  6
CONTINUOUS
 10
-8.8034177844
 20
26.7998773126
 11
-7.5670429917
 21
26.0860100027
  0
LINE
  5
3D3
100
AcDbEntity
  8
0
100
AcDbLine
 62
250
  6
CONTINUOUS
 10
-10.9392175297
 20
28.0857787795
 11
-10.2798178289
 21
27.7050496565
  0
LINE
  5
3D4
100
AcDbEntity
  8
0
100
AcDbLine
 62
250
  6
CONTINUOUS
 10
-10.0325432946
 20
27.5622764394
 11
-9.3731435937
 21
27.1815473164
  0
LINE
  5
3D5
100
AcDbEntity
  8
0
100
AcDbLine
 62
250
  6
CONTINUOUS
 10
-6.9828200316
 20
25.8014044494
 11
-6.19978271
 21
25.3492885137
  0
LINE
  5
3D6
100
AcDbEntity
  8
0
100
AcDbLine
 62
250
  6
CONTINUOUS
 10
-7.1936225433
 20
26.1869702818
 11
-6.204522992
 21
25.6158765972
  0
LINE
  5
3D7
100
AcDbEntity
  8
0
100
AcDbLine
 62
250
  6
CONTINUOUS
 10
-2.4954000282
 20
23.4742754841
 11
-2.7426752696
 21
23.6170491094
  0
LINE
  5
3D8
100
AcDbEntity
  8
0
100
AcDbLine
 62
250
  6
CONTINUOUS
 10
-3.7317748209
 20
24.188142794
 11
-4.0614739642
 21
24.3785069472
  0
LINE
  5
3D9
100
AcDbEntity
  8
0
100
AcDbLine
 62
250
  6
CONTINUOUS
 10
-5.0505735155
 20
24.9496006318
 11
-5.2978480498
 21
25.0923738488
  0
LINE
  5
3DA
100
AcDbEntity
  8
0
100
AcDbLine
 62
250
  6
CONTINUOUS
 10
-7.5233223938
 20
26.3773348433
 11
-9.0069717208
 21
27.2339753702
  0
LINE
  5
3DB
100
AcDbEntity
  8
0
100
AcDbLine
 62
250
  6
CONTINUOUS
 10
-9.3366715712
 20
27.4243399317
 11
-10.9027455072
 21
28.3285713949
  0
LINE
  5
3DC
100
AcDbEntity
  8
0
100
AcDbLine
 62
250
  6
CONTINUOUS
 10
-11.8094204495
 20
28.8520741432
 11
-12.1803326044
 21
29.0662341729
  0
LINE
  5
3DD
100
AcDbEntity
  8
0
100
AcDbLine
 62
250
  6
CONTINUOUS
 10
-13.8288311495
 20
30.0180565723
 11
-14.1585309999
 21
30.2084211338
  0
LINE
  5
3DE
100
AcDbEntity
  8
0
100
AcDbLine
 62
250
  6
CONTINUOUS
 10
-15.6833926314
 20
31.0888571288
 11
-16.6724921827
 21
31.6599508134
  0
LINE
  5
3DF
100
AcDbEntity
  8
0
100
AcDbLine
 62
250
  6
CONTINUOUS
 10
-18.4705119922
 20
32.6981049169
 11
-19.6009105703
 21
33.3507828887
  0
LWPOLYLINE
  5
3E0
100
AcDbEntity
  8
RACCORDO
100
AcDbPolyline
 62
7
  6
CONTINUOUS
 90
20
 70
0
 10
22.7246905384
 20
3.8885430431
 10
22.7312850402
 20
3.884685066
 10
22.7578943693
 20
3.8681199293
 10
22.7857726421
 20
3.8490882391
 10
22.8147050509
 20
3.827556564
 10
22.844391087
 20
3.8035901609
 10
22.8746438404
 20
3.7771997206
 10
22.9052920505
 20
3.748400907
 10
22.9360792188
 20
3.7173137729
 10
22.9668252851
 20
3.6840139635
 10
22.997363868
 20
3.6485812007
 10
23.027482453
 20
3.6111721139
 10
23.0570145407
 20
3.5719156948
 10
23.0858107411
 20
3.5309387539
 10
23.1137058656
 20
3.4884123644
 10
23.1405569479
 20
3.4444997872
 10
23.166231458
 20
3.3993702245
 10
23.1905981971
 20
3.3532152915
 10
23.2135411097
 20
3.3062253315
 10
23.2251327902
 20
3.2809468854
  0
LWPOLYLINE
  5
3E1
100
AcDbEntity
  8
ASSI
100
AcDbPolyline
 62
7
  6
CONTINUOUS
 90
20
 70
0
 10
22.7246905384
 20
3.8885430431
 10
22.7312850402
 20
3.884685066
 10
22.7578943693
 20
3.8681199293
 10
22.7857726421
 20
3.8490882391
 10
22.8147050509
 20
3.827556564
 10
22.844391087
 20
3.8035901609
 10
22.8746438404
 20
3.7771997206
 10
22.9052920505
 20
3.748400907
 10
22.9360792188
 20
3.7173137729
 10
22.9668252851
 20
3.6840139635
 10
22.997363868
 20
3.6485812007
 10
23.027482453
 20
3.6111721139
 10
23.0570145407
 20
3.5719156948
 10
23.0858107411
 20
3.5309387539
 10
23.1137058656
 20
3.4884123644
 10
23.1405569479
 20
3.4444997872
 10
23.166231458
 20
3.3993702245
 10
23.1905981971
 20
3.3532152915
 10
23.2135411097
 20
3.3062253315
 10
23.2251327902
 20
3.2809468854
  0
LWPOLYLINE
  5
3E2
100
AcDbEntity
  8
RACCORDO
100
AcDbPolyline
 62
250
  6
CONTINUOUS
 90
29
 70
0
 10
22.6216158759
 20
4.1395062993
 10
22.6513647523
 20
4.1216716906
 10
22.6806232239
 20
4.1030684511
 10
22.7093913216
 20
4.0836965965
 10
22.7376601775
 20
4.0635268046
 10
22.76543878
 20
4.0425884599
 10
22.7927539644
 20
4.0209696488
 10
22.8196032646
 20
3.9986843705
 10
22.8459893512
 20
3.9757187314
 10
22.8719467708
 20
3.9521189814
 10
22.8974755323
 20
3.9278970749
 10
22.9225758994
 20
3.9030411982
 10
22.9472828059
 20
3.8775619526
 10
22.9715990181
 20
3.8514686162
 10
22.9955221082
 20
3.8247520856
 10
23.0190792327
 20
3.7973953974
 10
23.0422753916
 20
3.7694051502
 10
23.0651059985
 20
3.7407749593
 10
23.0875838574
 20
3.711468399
 10
23.109715651
 20
3.6814898904
 10
23.1314952031
 20
3.6508352746
 10
23.152916074
 20
3.6194552793
 10
23.1739863399
 20
3.5873526055
 10
23.194698549
 20
3.5545248759
 10
23.2150230354
 20
3.5209152352
 10
23.2349695612
 20
3.4865249054
 10
23.2545291394
 20
3.451353067
 10
23.2736440731
 20
3.4153398488
 10
23.2922954705
 20
3.3784654707
  0
LWPOLYLINE
  5
3E3
100
AcDbEntity
  8
ASSI
100
AcDbPolyline
 62
250
  6
CONTINUOUS
 90
29
 70
0
 10
22.6216158759
 20
4.1395062993
 10
22.6513647523
 20
4.1216716906
 10
22.6806232239
 20
4.1030684511
 10
22.7093913216
 20
4.0836965965
 10
22.7376601775
 20
4.0635268046
 10
22.76543878
 20
4.0425884599
 10
22.7927539644
 20
4.0209696488
 10
22.8196032646
 20
3.9986843705
 10
22.8459893512
 20
3.9757187314
 10
22.8719467708
 20
3.9521189814
 10
22.8974755323
 20
3.9278970749
 10
22.9225758994
 20
3.9030411982
 10
22.9472828059
 20
3.8775619526
 10
22.9715990181
 20
3.8514686162
 10
22.9955221082
 20
3.8247520856
 10
23.0190792327
 20
3.7973953974
 10
23.0422753916
 20
3.7694051502
 10
23.0651059985
 20
3.7407749593
 10
23.0875838574
 20
3.711468399
 10
23.109715651
 20
3.6814898904
 10
23.1314952031
 20
3.6508352746
 10
23.152916074
 20
3.6194552793
 10
23.1739863399
 20
3.5873526055
 10
23.194698549
 20
3.5545248759
 10
23.2150230354
 20
3.5209152352
 10
23.2349695612
 20
3.4865249054
 10
23.2545291394
 20
3.451353067
 10
23.2736440731
 20
3.4153398488
 10
23.2922954705
 20
3.3784654707
  0
LWPOLYLINE
  5
3E4
100
AcDbEntity
  8
RACCORDO
100
AcDbPolyline
 62
250
  6
CONTINUOUS
 90
11
 70
0
 10
23.4957255732
 20
2.5222480688
 10
23.4671870719
 20
2.5400137372
 10
23.4413632513
 20
2.5589621523
 10
23.4184377848
 20
2.5789585424
 10
23.3985737312
 20
2.5998606819
 10
23.3819123748
 20
2.6215199029
 10
23.3685722206
 20
2.6437821531
 10
23.3586481513
 20
2.6664890907
 10
23.3522107524
 20
2.6894792112
 10
23.3493058103
 20
2.7125889961
 10
23.3492397199
 20
2.7257564302
  0
LWPOLYLINE
  5
3E5
100
AcDbEntity
  8
ASSI
100
AcDbPolyline
 62
250
  6
CONTINUOUS
 90
11
 70
0
 10
23.4957255732
 20
2.5222480688
 10
23.4671870719
 20
2.5400137372
 10
23.4413632513
 20
2.5589621523
 10
23.4184377848
 20
2.5789585424
 10
23.3985737312
 20
2.5998606819
 10
23.3819123748
 20
2.6215199029
 10
23.3685722206
 20
2.6437821531
 10
23.3586481513
 20
2.6664890907
 10
23.3522107524
 20
2.6894792112
 10
23.3493058103
 20
2.7125889961
 10
23.3492397199
 20
2.7257564302
  0
LWPOLYLINE
  5
3E6
100
AcDbEntity
  8
RACCORDO
100
AcDbPolyline
 62
250
  6
CONTINUOUS
 90
3
 70
0
 10
23.3586479806
 20
-33.0386482968
 10
23.3522102636
 20
-33.0135379999
 10
23.3492800237
 20
-32.987510452
  0
LWPOLYLINE
  5
3E7
100
AcDbEntity
  8
ASSI
100
AcDbPolyline
 62
250
  6
CONTINUOUS
 90
3
 70
0
 10
23.3586479806
 20
-33.0386482968
 10
23.3522102636
 20
-33.0135379999
 10
23.3492800237
 20
-32.987510452
  0
LWPOLYLINE
  5
3E8
100
AcDbEntity
  8
RACCORDO
100
AcDbPolyline
 62
7
  6
CONTINUOUS
 90
10
 70
0
 10
23.3492800237
 20
-32.987510452
 10
23.3498312193
 20
-33.0115434824
 10
23.3494199786
 20
-33.035980904
 10
23.3481072966
 20
-33.0575991359
 10
23.3461105882
 20
-33.0763365968
 10
23.3436414393
 20
-33.0922911171
 10
23.3408944805
 20
-33.1056139968
 10
23.3380844614
 20
-33.1163482028
 10
23.3354646783
 20
-33.124469135
 10
23.3333401816
 20
-33.1299211488
  0
LWPOLYLINE
  5
3E9
100
AcDbEntity
  8
ASSI
100
AcDbPolyline
 62
7
  6
CONTINUOUS
 90
10
 70
0
 10
23.3492800237
 20
-32.987510452
 10
23.3498312193
 20
-33.0115434824
 10
23.3494199786
 20
-33.035980904
 10
23.3481072966
 20
-33.0575991359
 10
23.3461105882
 20
-33.0763365968
 10
23.3436414393
 20
-33.0922911171
 10
23.3408944805
 20
-33.1056139968
 10
23.3380844614
 20
-33.1163482028
 10
23.3354646783
 20
-33.124469135
 10
23.3333401816
 20
-33.1299211488
  0
LWPOLYLINE
  5
3EA
100
AcDbEntity
  8
RACCORDO
100
AcDbPolyline
 62
250
  6
CONTINUOUS
 90
13
 70
0
 10
23.4957255636
 20
-33.1907669715
 10
23.4967964453
 20
-33.24536066
 10
23.495093462
 20
-33.2983975941
 10
23.4906166365
 20
-33.3498777581
 10
23.4833711425
 20
-33.400094471
 10
23.4733519342
 20
-33.4487543298
 10
23.4605433344
 20
-33.4949774704
 10
23.4448208254
 20
-33.5387146129
 10
23.4263082494
 20
-33.5800154631
 10
23.4053617251
 20
-33.6181491081
 10
23.3820993398
 20
-33.6528723026
 10
23.3564015724
 20
-33.6844292004
 10
23.3282677845
 20
-33.7128202064
  0
LWPOLYLINE
  5
3EB
100
AcDbEntity
  8
ASSI
100
AcDbPolyline
 62
250
  6
CONTINUOUS
 90
13
 70
0
 10
23.4957255636
 20
-33.1907669715
 10
23.4967964453
 20
-33.24536066
 10
23.495093462
 20
-33.2983975941
 10
23.4906166365
 20
-33.3498777581
 10
23.4833711425
 20
-33.400094471
 10
23.4733519342
 20
-33.4487543298
 10
23.4605433344
 20
-33.4949774704
 10
23.4448208254
 20
-33.5387146129
 10
23.4263082494
 20
-33.5800154631
 10
23.4053617251
 20
-33.6181491081
 10
23.3820993398
 20
-33.6528723026
 10
23.3564015724
 20
-33.6844292004
 10
23.3282677845
 20
-33.7128202064
  0
LWPOLYLINE
  5
3EC
100
AcDbEntity
  8
RACCORDO
100
AcDbPolyline
 62
250
  6
CONTINUOUS
 90
22
 70
0
 10
22.6216158759
 20
-33.6917142375
 10
22.6211936688
 20
-33.6614132244
 10
22.6227507957
 20
-33.6300184341
 10
22.6262785371
 20
-33.5977056679
 10
22.6317571389
 20
-33.5646558673
 10
22.6391559226
 20
-33.531054101
 10
22.6484334572
 20
-33.4970885286
 10
22.6595377914
 20
-33.4629493467
 10
22.6724067443
 20
-33.4288277244
 10
22.6869682538
 20
-33.3949147321
 10
22.70314078
 20
-33.3614002723
 10
22.7208337615
 20
-33.3284720154
 10
22.7399481233
 20
-33.2963143498
 10
22.7603768307
 20
-33.2651073482
 10
22.7820054893
 20
-33.2350257605
 10
22.8047129852
 20
-33.2062380342
 10
22.8283721636
 20
-33.1789053716
 10
22.8528505401
 20
-33.1531808273
 10
22.8780110436
 20
-33.1292084509
 10
22.9037127829
 20
-33.1071224802
 10
22.9298118362
 20
-33.0870465899
 10
22.9561620568
 20
-33.0690931987
  0
LWPOLYLINE
  5
3ED
100
AcDbEntity
  8
ASSI
100
AcDbPolyline
 62
250
  6
CONTINUOUS
 90
22
 70
0
 10
22.6216158759
 20
-33.6917142375
 10
22.6211936688
 20
-33.6614132244
 10
22.6227507957
 20
-33.6300184341
 10
22.6262785371
 20
-33.5977056679
 10
22.6317571389
 20
-33.5646558673
 10
22.6391559226
 20
-33.531054101
 10
22.6484334572
 20
-33.4970885286
 10
22.6595377914
 20
-33.4629493467
 10
22.6724067443
 20
-33.4288277244
 10
22.6869682538
 20
-33.3949147321
 10
22.70314078
 20
-33.3614002723
 10
22.7208337615
 20
-33.3284720154
 10
22.7399481233
 20
-33.2963143498
 10
22.7603768307
 20
-33.2651073482
 10
22.7820054893
 20
-33.2350257605
 10
22.8047129852
 20
-33.2062380342
 10
22.8283721636
 20
-33.1789053716
 10
22.8528505401
 20
-33.1531808273
 10
22.8780110436
 20
-33.1292084509
 10
22.9037127829
 20
-33.1071224802
 10
22.9298118362
 20
-33.0870465899
 10
22.9561620568
 20
-33.0690931987
  0
LWPOLYLINE
  5
3EE
100
AcDbEntity
  8
RACCORDO
100
AcDbPolyline
 62
250
  6
CONTINUOUS
 90
13
 70
0
 10
22.6216158759
 20
4.1395062993
 10
22.621193669
 20
4.1087177214
 10
22.6227507973
 20
4.0791210538
 10
22.6262785412
 20
4.0508820286
 10
22.6317571463
 20
4.0241587756
 10
22.6391559337
 20
3.9991009367
 10
22.6484334722
 20
3.9758488279
 10
22.6595378104
 20
3.9545326536
 10
22.6724067671
 20
3.9352717776
 10
22.6869682799
 20
3.9181740547
 10
22.7031408087
 20
3.9033352265
 10
22.7208337921
 20
3.8908383857
 10
22.7246535318
 20
3.8885644639
  0
LWPOLYLINE
  5
3EF
100
AcDbEntity
  8
ASSI
100
AcDbPolyline
 62
250
  6
CONTINUOUS
 90
13
 70
0
 10
22.6216158759
 20
4.1395062993
 10
22.621193669
 20
4.1087177214
 10
22.6227507973
 20
4.0791210538
 10
22.6262785412
 20
4.0508820286
 10
22.6317571463
 20
4.0241587756
 10
22.6391559337
 20
3.9991009367
 10
22.6484334722
 20
3.9758488279
 10
22.6595378104
 20
3.9545326536
 10
22.6724067671
 20
3.9352717776
 10
22.6869682799
 20
3.9181740547
 10
22.7031408087
 20
3.9033352265
 10
22.7208337921
 20
3.8908383857
 10
22.7246535318
 20
3.8885644639
  0
LWPOLYLINE
  5
3F0
100
AcDbEntity
  8
RACCORDO
100
AcDbPolyline
 62
7
  6
CONTINUOUS
 90
13
 70
0
 10
23.3492397199
 20
2.7257564302
 10
23.2422308063
 20
-0.2616907228
 10
23.1525106437
 20
-3.3048468507
 10
23.0827167479
 20
-6.3360584213
 10
23.0328557817
 20
-9.3551008426
 10
23.0029305542
 20
-12.361777555
 10
22.9929430177
 20
-15.3559029541
 10
23.0028947732
 20
-18.3372837249
 10
23.0327853086
 20
-21.3057278113
 10
23.0826137408
 20
-24.2610513326
 10
23.1523783602
 20
-27.2030607947
 10
23.2420736045
 20
-30.1315396522
 10
23.3492805106
 20
-32.9875039483
  0
LWPOLYLINE
  5
3F1
100
AcDbEntity
  8
ASSI
100
AcDbPolyline
 62
7
  6
CONTINUOUS
 90
13
 70
0
 10
23.3492397199
 20
2.7257564302
 10
23.2422308063
 20
-0.2616907228
 10
23.1525106437
 20
-3.3048468507
 10
23.0827167479
 20
-6.3360584213
 10
23.0328557817
 20
-9.3551008426
 10
23.0029305542
 20
-12.361777555
 10
22.9929430177
 20
-15.3559029541
 10
23.0028947732
 20
-18.3372837249
 10
23.0327853086
 20
-21.3057278113
 10
23.0826137408
 20
-24.2610513326
 10
23.1523783602
 20
-27.2030607947
 10
23.2420736045
 20
-30.1315396522
 10
23.3492805106
 20
-32.9875039483
  0
LWPOLYLINE
  5
3F2
100
AcDbEntity
  8
RACCORDO
100
AcDbPolyline
 62
250
  6
CONTINUOUS
 90
13
 70
0
 10
23.4957255636
 20
2.5222480638
 10
23.3868604618
 20
-0.5218470019
 10
23.2977788089
 20
-3.5542340421
 10
23.22848678
 20
-6.5747141246
 10
23.1789892863
 20
-9.5830891616
 10
23.1492896535
 20
-12.5791616101
 10
23.1393896189
 20
-15.5627344869
 10
23.149289653
 20
-18.5336117758
 10
23.1789892854
 20
-21.4915985024
 10
23.2284867788
 20
-24.4365004371
 10
23.2977788077
 20
-27.3681241267
 10
23.386860461
 20
-30.2862769053
 10
23.4957255636
 20
-33.1907669715
  0
LWPOLYLINE
  5
3F3
100
AcDbEntity
  8
ASSI
100
AcDbPolyline
 62
250
  6
CONTINUOUS
 90
13
 70
0
 10
23.4957255636
 20
2.5222480638
 10
23.3868604618
 20
-0.5218470019
 10
23.2977788089
 20
-3.5542340421
 10
23.22848678
 20
-6.5747141246
 10
23.1789892863
 20
-9.5830891616
 10
23.1492896535
 20
-12.5791616101
 10
23.1393896189
 20
-15.5627344869
 10
23.149289653
 20
-18.5336117758
 10
23.1789892854
 20
-21.4915985024
 10
23.2284867788
 20
-24.4365004371
 10
23.2977788077
 20
-27.3681241267
 10
23.386860461
 20
-30.2862769053
 10
23.4957255636
 20
-33.1907669715
  0
LWPOLYLINE
  5
3F4
100
AcDbEntity
  8
0
100
AcDbPolyline
 62
7
  6
CONTINUOUS
 90
15
 70
0
 10
2.7625141165
 20
-25.3017261389
 10
2.7720671154
 20
-25.2939461512
 10
2.7807758289
 20
-25.2849469798
 10
2.7886359288
 20
-25.2747299789
 10
2.795652213
 20
-25.2632934813
 10
2.8018611809
 20
-25.2508655177
 10
2.8072717169
 20
-25.2374647476
 10
2.8118753141
 20
-25.2230722603
 10
2.8156822602
 20
-25.2078598149
 10
2.8187072862
 20
-25.1918237098
 10
2.8209359454
 20
-25.174967458
 10
2.8223346172
 20
-25.1574737333
 10
2.8228921007
 20
-25.1394034234
 10
2.8226197056
 20
-25.1206955692
 10
2.8215174962
 20
-25.1013501281
  0
LWPOLYLINE
  5
3F5
100
AcDbEntity
  8
ASSI
100
AcDbPolyline
 62
7
  6
CONTINUOUS
 90
15
 70
0
 10
2.7625141165
 20
-25.3017261389
 10
2.7720671154
 20
-25.2939461512
 10
2.7807758289
 20
-25.2849469798
 10
2.7886359288
 20
-25.2747299789
 10
2.795652213
 20
-25.2632934813
 10
2.8018611809
 20
-25.2508655177
 10
2.8072717169
 20
-25.2374647476
 10
2.8118753141
 20
-25.2230722603
 10
2.8156822602
 20
-25.2078598149
 10
2.8187072862
 20
-25.1918237098
 10
2.8209359454
 20
-25.174967458
 10
2.8223346172
 20
-25.1574737333
 10
2.8228921007
 20
-25.1394034234
 10
2.8226197056
 20
-25.1206955692
 10
2.8215174962
 20
-25.1013501281
  0
LINE
  5
3F6
100
AcDbEntity
  8
0
100
AcDbLine
 62
250
  6
CONTINUOUS
 10
5.6479408586
 20
-19.8265975503
 11
4.8985997714
 21
-20.3218774154
  0
LINE
  5
3F7
100
AcDbEntity
  8
ASSI
100
AcDbLine
 62
250
  6
CONTINUOUS
 10
5.6479408586
 20
-19.8265975503
 11
4.8985997714
 21
-20.3218774154
  0
LINE
  5
3F8
100
AcDbEntity
  8
0
100
AcDbLine
 62
7
  6
CONTINUOUS
 10
5.6468210683
 20
-19.9237945045
 11
4.976491275
 21
-20.3668509934
  0
LINE
  5
3F9
100
AcDbEntity
  8
ASSI
100
AcDbLine
 62
7
  6
CONTINUOUS
 10
5.6468210683
 20
-19.9237945045
 11
4.976491275
 21
-20.3668509934
  0
LWPOLYLINE
  5
3FA
100
AcDbEntity
  8
0
100
AcDbPolyline
 62
7
  6
CONTINUOUS
 90
3
 70
0
 10
3.0978312064
 20
-25.6477131789
 10
3.0891648469
 20
-25.6533996372
 10
3.0829779383
 20
-25.6571472261
  0
LWPOLYLINE
  5
3FB
100
AcDbEntity
  8
ASSI
100
AcDbPolyline
 62
7
  6
CONTINUOUS
 90
3
 70
0
 10
3.0978312064
 20
-25.6477131789
 10
3.0891648469
 20
-25.6533996372
 10
3.0829779383
 20
-25.6571472261
  0
LINE
  5
3FC
100
AcDbEntity
  8
0
100
AcDbLine
 62
7
  6
CONTINUOUS
 10
2.755715289
 20
-25.3060917819
 11
2.7625141165
 21
-25.3017261389
  0
LINE
  5
3FD
100
AcDbEntity
  8
ASSI
100
AcDbLine
 62
7
  6
CONTINUOUS
 10
2.755715289
 20
-25.3060917819
 11
2.7625141165
 21
-25.3017261389
  0
LINE
  5
3FE
100
AcDbEntity
  8
0
100
AcDbLine
 62
7
  6
CONTINUOUS
 10
5.6479408586
 20
-19.4039670847
 11
4.5092936909
 21
-20.0970969637
  0
LINE
  5
3FF
100
AcDbEntity
  8
ASSI
100
AcDbLine
 62
7
  6
CONTINUOUS
 10
5.6479408586
 20
-19.4039670847
 11
4.5092936909
 21
-20.0970969637
  0
LINE
  5
400
100
AcDbEntity
  8
0
100
AcDbLine
 62
7
  6
CONTINUOUS
 10
-1.9745415791
 20
-23.7003352861
 11
-2.0810159943
 21
-23.761812279
  0
LINE
  5
401
100
AcDbEntity
  8
ASSI
100
AcDbLine
 62
7
  6
CONTINUOUS
 10
-1.9745415791
 20
-23.7003352861
 11
-2.0810159943
 21
-23.761812279
  0
LINE
  5
402
100
AcDbEntity
  8
0
100
AcDbLine
 62
7
  6
CONTINUOUS
 10
-1.0480839174
 20
-23.3040434283
 11
-1.1544915061
 21
-23.3654818364
  0
LINE
  5
403
100
AcDbEntity
  8
ASSI
100
AcDbLine
 62
7
  6
CONTINUOUS
 10
-1.0480839174
 20
-23.3040434283
 11
-1.1544915061
 21
-23.3654818364
  0
LINE
  5
404
100
AcDbEntity
  8
0
100
AcDbLine
 62
7
  6
CONTINUOUS
 10
-0.5619999845
 20
-23.1519695889
 11
-0.6683787473
 21
-23.2133913533
  0
LINE
  5
405
100
AcDbEntity
  8
ASSI
100
AcDbLine
 62
7
  6
CONTINUOUS
 10
-0.5619999845
 20
-23.1519695889
 11
-0.6683787473
 21
-23.2133913533
  0
LINE
  5
406
100
AcDbEntity
  8
0
100
AcDbLine
 62
7
  6
CONTINUOUS
 10
-1.026131678
 20
-24.2720486724
 11
-1.1117246252
 21
-24.3214689674
  0
LINE
  5
407
100
AcDbEntity
  8
ASSI
100
AcDbLine
 62
7
  6
CONTINUOUS
 10
-1.026131678
 20
-24.2720486724
 11
-1.1117246252
 21
-24.3214689674
  0
LINE
  5
408
100
AcDbEntity
  8
0
100
AcDbLine
 62
7
  6
CONTINUOUS
 10
0.9422961672
 20
-23.8622353233
 11
0.8359276015
 21
-23.9236512001
  0
LINE
  5
409
100
AcDbEntity
  8
ASSI
100
AcDbLine
 62
7
  6
CONTINUOUS
 10
0.9422961672
 20
-23.8622353233
 11
0.8359276015
 21
-23.9236512001
  0
LINE
  5
40A
100
AcDbEntity
  8
0
100
AcDbLine
 62
7
  6
CONTINUOUS
 10
-0.3710510878
 20
-24.6261705994
 11
-0.4775255029
 21
-24.6876475922
  0
LINE
  5
40B
100
AcDbEntity
  8
ASSI
100
AcDbLine
 62
7
  6
CONTINUOUS
 10
-0.3710510878
 20
-24.6261705994
 11
-0.4775255029
 21
-24.6876475922
  0
LINE
  5
40C
100
AcDbEntity
  8
0
100
AcDbLine
 62
7
  6
CONTINUOUS
 10
0.2465883008
 20
-24.9827878415
 11
0.1401138857
 21
-25.0442648344
  0
LINE
  5
40D
100
AcDbEntity
  8
ASSI
100
AcDbLine
 62
7
  6
CONTINUOUS
 10
0.2465883008
 20
-24.9827878415
 11
0.1401138857
 21
-25.0442648344
  0
LINE
  5
40E
100
AcDbEntity
  8
0
100
AcDbLine
 62
7
  6
CONTINUOUS
 10
0.7353081605
 20
-24.847962413
 11
0.6288644884
 21
-24.9094216552
  0
LINE
  5
40F
100
AcDbEntity
  8
ASSI
100
AcDbLine
 62
7
  6
CONTINUOUS
 10
0.7353081605
 20
-24.847962413
 11
0.6288644884
 21
-24.9094216552
  0
LINE
  5
410
100
AcDbEntity
  8
0
100
AcDbLine
 62
7
  6
CONTINUOUS
 10
1.1900432616
 20
-24.7867853406
 11
1.0836225401
 21
-24.8482313315
  0
LINE
  5
411
100
AcDbEntity
  8
ASSI
100
AcDbLine
 62
7
  6
CONTINUOUS
 10
1.1900432616
 20
-24.7867853406
 11
1.0836225401
 21
-24.8482313315
  0
LINE
  5
412
100
AcDbEntity
  8
0
100
AcDbLine
 62
7
  6
CONTINUOUS
 10
2.3530535255
 20
-24.455950038
 11
2.2466988773
 21
-24.5173578789
  0
LINE
  5
413
100
AcDbEntity
  8
ASSI
100
AcDbLine
 62
7
  6
CONTINUOUS
 10
2.3530535255
 20
-24.455950038
 11
2.2466988773
 21
-24.5173578789
  0
LINE
  5
414
100
AcDbEntity
  8
0
100
AcDbLine
 62
7
  6
CONTINUOUS
 10
1.2980711131
 20
-25.1728946888
 11
1.1916274411
 21
-25.234353931
  0
LINE
  5
415
100
AcDbEntity
  8
ASSI
100
AcDbLine
 62
7
  6
CONTINUOUS
 10
1.2980711131
 20
-25.1728946888
 11
1.1916274411
 21
-25.234353931
  0
LINE
  5
416
100
AcDbEntity
  8
0
100
AcDbLine
 62
250
  6
CONTINUOUS
 10
2.6759182333
 20
-24.6299039172
 11
2.56956436
 21
-24.6913113108
  0
LINE
  5
417
100
AcDbEntity
  8
ASSI
100
AcDbLine
 62
250
  6
CONTINUOUS
 10
2.6759182333
 20
-24.6299039172
 11
2.56956436
 21
-24.6913113108
  0
LINE
  5
418
100
AcDbEntity
  8
0
100
AcDbLine
 62
7
  6
CONTINUOUS
 10
1.4391846985
 20
-25.6713780548
 11
1.3327102833
 21
-25.7328550476
  0
LINE
  5
419
100
AcDbEntity
  8
ASSI
100
AcDbLine
 62
7
  6
CONTINUOUS
 10
1.4391846985
 20
-25.6713780548
 11
1.3327102833
 21
-25.7328550476
  0
LINE
  5
41A
100
AcDbEntity
  8
0
100
AcDbLine
 62
250
  6
CONTINUOUS
 10
2.9278880612
 20
-25.0399331928
 11
2.8215174976
 21
-25.101350223
  0
LINE
  5
41B
100
AcDbEntity
  8
ASSI
100
AcDbLine
 62
250
  6
CONTINUOUS
 10
2.9278880612
 20
-25.0399331928
 11
2.8215174976
 21
-25.101350223
  0
LINE
  5
41C
100
AcDbEntity
  8
0
100
AcDbLine
 62
7
  6
CONTINUOUS
 10
2.434050739
 20
-25.4268947586
 11
2.3276354399
 21
-25.4883376187
  0
LINE
  5
41D
100
AcDbEntity
  8
ASSI
100
AcDbLine
 62
7
  6
CONTINUOUS
 10
2.434050739
 20
-25.4268947586
 11
2.3276354399
 21
-25.4883376187
  0
LINE
  5
41E
100
AcDbEntity
  8
0
100
AcDbLine
 62
7
  6
CONTINUOUS
 10
2.7557079613
 20
-25.3060803431
 11
2.8620942918
 21
-25.2446542093
  0
LINE
  5
41F
100
AcDbEntity
  8
ASSI
100
AcDbLine
 62
7
  6
CONTINUOUS
 10
2.7557079613
 20
-25.3060803431
 11
2.8620942918
 21
-25.2446542093
  0
LINE
  5
420
100
AcDbEntity
  8
0
100
AcDbLine
 62
250
  6
CONTINUOUS
 10
2.65561955
 20
-25.5548258132
 11
2.5492042508
 21
-25.6162686732
  0
LINE
  5
421
100
AcDbEntity
  8
ASSI
100
AcDbLine
 62
250
  6
CONTINUOUS
 10
2.65561955
 20
-25.5548258132
 11
2.5492042508
 21
-25.6162686732
  0
LINE
  5
422
100
AcDbEntity
  8
0
100
AcDbLine
 62
7
  6
CONTINUOUS
 10
2.0879925291
 20
-26.0459918286
 11
1.9815181139
 21
-26.1074688215
  0
LINE
  5
423
100
AcDbEntity
  8
ASSI
100
AcDbLine
 62
7
  6
CONTINUOUS
 10
2.0879925291
 20
-26.0459918286
 11
1.9815181139
 21
-26.1074688215
  0
LINE
  5
424
100
AcDbEntity
  8
0
100
AcDbLine
 62
7
  6
CONTINUOUS
 10
3.0719148539
 20
-25.6242061072
 11
2.9655112556
 21
-25.6856422113
  0
LINE
  5
425
100
AcDbEntity
  8
ASSI
100
AcDbLine
 62
7
  6
CONTINUOUS
 10
3.0719148539
 20
-25.6242061072
 11
2.9655112556
 21
-25.6856422113
  0
LINE
  5
426
100
AcDbEntity
  8
0
100
AcDbLine
 62
250
  6
CONTINUOUS
 10
2.900416923
 20
-25.8809317277
 11
2.7939887322
 21
-25.9423820312
  0
LINE
  5
427
100
AcDbEntity
  8
ASSI
100
AcDbLine
 62
250
  6
CONTINUOUS
 10
2.900416923
 20
-25.8809317277
 11
2.7939887322
 21
-25.9423820312
  0
LINE
  5
428
100
AcDbEntity
  8
0
100
AcDbLine
 62
7
  6
CONTINUOUS
 10
3.132386996
 20
-26.6490121044
 11
3.0259125808
 21
-26.7104890973
  0
LINE
  5
429
100
AcDbEntity
  8
ASSI
100
AcDbLine
 62
7
  6
CONTINUOUS
 10
3.132386996
 20
-26.6490121044
 11
3.0259125808
 21
-26.7104890973
  0
LWPOLYLINE
  5
42A
100
AcDbEntity
  8
0
100
AcDbPolyline
 62
7
  6
CONTINUOUS
 90
4
 70
0
 10
3.0829779383
 20
-25.6571472261
 10
3.0805270694
 20
-25.658539099
 10
3.0719085182
 20
-25.6631198102
 10
3.0634095142
 20
-25.6673308221
  0
LWPOLYLINE
  5
42B
100
AcDbEntity
  8
ASSI
100
AcDbPolyline
 62
7
  6
CONTINUOUS
 90
4
 70
0
 10
3.0829779383
 20
-25.6571472261
 10
3.0805270694
 20
-25.658539099
 10
3.0719085182
 20
-25.6631198102
 10
3.0634095142
 20
-25.6673308221
  0
LWPOLYLINE
  5
42C
100
AcDbEntity
  8
0
100
AcDbPolyline
 62
7
  6
CONTINUOUS
 90
3
 70
0
 10
3.0634095142
 20
-25.6673308221
 10
3.0550505349
 20
-25.6711910548
 10
3.0468109283
 20
-25.6746817047
  0
LWPOLYLINE
  5
42D
100
AcDbEntity
  8
ASSI
100
AcDbPolyline
 62
7
  6
CONTINUOUS
 90
3
 70
0
 10
3.0634095142
 20
-25.6673308221
 10
3.0550505349
 20
-25.6711910548
 10
3.0468109283
 20
-25.6746817047
  0
LWPOLYLINE
  5
42E
100
AcDbEntity
  8
0
100
AcDbPolyline
 62
7
  6
CONTINUOUS
 90
9
 70
0
 10
3.0468109283
 20
-25.6746817047
 10
3.0308713876
 20
-25.6810608362
 10
3.0231713468
 20
-25.6839493891
 10
3.0154712528
 20
-25.6864055115
 10
3.0078457283
 20
-25.6885874937
 10
3.0002200311
 20
-25.6903371254
 10
2.9922120405
 20
-25.6909843557
 10
2.9836942938
 20
-25.690305894
 10
2.9747940544
 20
-25.6885251643
  0
LWPOLYLINE
  5
42F
100
AcDbEntity
  8
ASSI
100
AcDbPolyline
 62
7
  6
CONTINUOUS
 90
9
 70
0
 10
3.0468109283
 20
-25.6746817047
 10
3.0308713876
 20
-25.6810608362
 10
3.0231713468
 20
-25.6839493891
 10
3.0154712528
 20
-25.6864055115
 10
3.0078457283
 20
-25.6885874937
 10
3.0002200311
 20
-25.6903371254
 10
2.9922120405
 20
-25.6909843557
 10
2.9836942938
 20
-25.690305894
 10
2.9747940544
 20
-25.6885251643
  0
LINE
  5
430
100
AcDbEntity
  8
0
100
AcDbLine
 62
250
  6
CONTINUOUS
 10
-24.4862358331
 20
36.5265090527
 11
-25.4046855175
 21
37.0568103895
  0
LINE
  5
431
100
AcDbEntity
  8
0
100
AcDbLine
 62
250
  6
CONTINUOUS
 10
-24.4092673722
 20
36.5709426096
 11
-25.4690167905
 21
37.1828286419
  0
LINE
  5
432
100
AcDbEntity
  8
0
100
AcDbLine
 62
250
  6
CONTINUOUS
 10
-24.3322563045
 20
36.6153999507
 11
-25.5333054567
 21
37.3088706785
  0
LINE
  5
433
100
AcDbEntity
  8
RACCORDO
100
AcDbLine
 62
250
  6
CONTINUOUS
 10
23.2922954705
 20
3.3784654707
 11
23.3105032022
 21
3.3407502219
  0
LINE
  5
434
100
AcDbEntity
  8
ASSI
100
AcDbLine
 62
250
  6
CONTINUOUS
 10
23.2922954705
 20
3.3784654707
 11
23.3105032022
 21
3.3407502219
  0
LINE
  5
435
100
AcDbEntity
  8
RACCORDO
100
AcDbLine
 62
250
  6
CONTINUOUS
 10
23.3105032022
 20
3.3407502219
 11
23.3282677845
 21
3.3021943712
  0
LINE
  5
436
100
AcDbEntity
  8
ASSI
100
AcDbLine
 62
250
  6
CONTINUOUS
 10
23.3105032022
 20
3.3407502219
 11
23.3282677845
 21
3.3021943712
  0
LWPOLYLINE
  5
437
100
AcDbEntity
  8
RACCORDO
100
AcDbPolyline
 62
7
  6
CONTINUOUS
 90
14
 70
0
 10
23.2251328904
 20
3.2809459216
 10
23.2367814856
 20
3.2543328867
 10
23.2576758538
 20
3.2029801724
 10
23.276448666
 20
3.1518292709
 10
23.2930589352
 20
3.1011508003
 10
23.3074832229
 20
3.0512192361
 10
23.3197260699
 20
3.0022721387
 10
23.3298018214
 20
2.9545744449
 10
23.3377369209
 20
2.9084491424
 10
23.3436009332
 20
2.8641127479
 10
23.3474792882
 20
2.8217966545
 10
23.3494774632
 20
2.7818387898
 10
23.3497428525
 20
2.7444630357
 10
23.3492412647
 20
2.7258120078
  0
LWPOLYLINE
  5
438
100
AcDbEntity
  8
ASSI
100
AcDbPolyline
 62
7
  6
CONTINUOUS
 90
14
 70
0
 10
23.2251328904
 20
3.2809459216
 10
23.2367814856
 20
3.2543328867
 10
23.2576758538
 20
3.2029801724
 10
23.276448666
 20
3.1518292709
 10
23.2930589352
 20
3.1011508003
 10
23.3074832229
 20
3.0512192361
 10
23.3197260699
 20
3.0022721387
 10
23.3298018214
 20
2.9545744449
 10
23.3377369209
 20
2.9084491424
 10
23.3436009332
 20
2.8641127479
 10
23.3474792882
 20
2.8217966545
 10
23.3494774632
 20
2.7818387898
 10
23.3497428525
 20
2.7444630357
 10
23.3492412647
 20
2.7258120078
  0
LWPOLYLINE
  5
439
100
AcDbEntity
  8
RACCORDO
100
AcDbPolyline
 62
250
  6
CONTINUOUS
 90
13
 70
0
 10
23.3282677845
 20
3.3021943712
 10
23.3561878212
 20
3.2371424947
 10
23.3817273823
 20
3.1714797362
 10
23.4048871187
 20
3.1052064345
 10
23.4257942149
 20
3.0379314847
 10
23.4443229421
 20
2.97004675
 10
23.4600942693
 20
2.9027268603
 10
23.4729947894
 20
2.8360218373
 10
23.4831386949
 20
2.7698820703
 10
23.4904876272
 20
2.7053323624
 10
23.4950286361
 20
2.6427142302
 10
23.4967746107
 20
2.581686128
 10
23.4957255636
 20
2.5222480638
  0
LWPOLYLINE
  5
43A
100
AcDbEntity
  8
ASSI
100
AcDbPolyline
 62
250
  6
CONTINUOUS
 90
13
 70
0
 10
23.3282677845
 20
3.3021943712
 10
23.3561878212
 20
3.2371424947
 10
23.3817273823
 20
3.1714797362
 10
23.4048871187
 20
3.1052064345
 10
23.4257942149
 20
3.0379314847
 10
23.4443229421
 20
2.97004675
 10
23.4600942693
 20
2.9027268603
 10
23.4729947894
 20
2.8360218373
 10
23.4831386949
 20
2.7698820703
 10
23.4904876272
 20
2.7053323624
 10
23.4950286361
 20
2.6427142302
 10
23.4967746107
 20
2.581686128
 10
23.4957255636
 20
2.5222480638
  0
LWPOLYLINE
  5
43B
100
AcDbEntity
  8
RACCORDO
100
AcDbPolyline
 62
250
  6
CONTINUOUS
 90
19
 70
0
 10
43.6883703139
 20
10.8953893109
 10
43.7069667671
 20
10.8851329765
 10
43.7269171489
 20
10.8754986411
 10
43.7480794209
 20
10.866554897
 10
43.7703029162
 20
10.85836542
 10
43.7934294128
 20
10.8509885159
 10
43.8172942595
 20
10.8444767051
 10
43.8417275484
 20
10.838876349
 10
43.8665553245
 20
10.8342273198
 10
43.8916008243
 20
10.8305627167
 10
43.9166857341
 20
10.8279086302
 10
43.9416314596
 20
10.8262839563
 10
43.9662603976
 20
10.8257002619
 10
43.9903972002
 20
10.8261617027
 10
44.0138700231
 20
10.8276649934
 10
44.0365117496
 20
10.8301994312
 10
44.0581611798
 20
10.833746972
 10
44.0786641788
 20
10.8382823586
 10
44.0978747736
 20
10.8437733011
  0
LWPOLYLINE
  5
43C
100
AcDbEntity
  8
ASSI
100
AcDbPolyline
 62
250
  6
CONTINUOUS
 90
19
 70
0
 10
43.6883703139
 20
10.8953893109
 10
43.7069667671
 20
10.8851329765
 10
43.7269171489
 20
10.8754986411
 10
43.7480794209
 20
10.866554897
 10
43.7703029162
 20
10.85836542
 10
43.7934294128
 20
10.8509885159
 10
43.8172942595
 20
10.8444767051
 10
43.8417275484
 20
10.838876349
 10
43.8665553245
 20
10.8342273198
 10
43.8916008243
 20
10.8305627167
 10
43.9166857341
 20
10.8279086302
 10
43.9416314596
 20
10.8262839563
 10
43.9662603976
 20
10.8257002619
 10
43.9903972002
 20
10.8261617027
 10
44.0138700231
 20
10.8276649934
 10
44.0365117496
 20
10.8301994312
 10
44.0581611798
 20
10.833746972
 10
44.0786641788
 20
10.8382823586
 10
44.0978747736
 20
10.8437733011
  0
LWPOLYLINE
  5
43D
100
AcDbEntity
  8
RACCORDO
100
AcDbPolyline
 62
250
  6
CONTINUOUS
 90
12
 70
0
 10
-41.9712094078
 20
60.35415708
 10
-41.9883783904
 20
60.3645509467
 10
-42.0039387418
 20
60.3754197858
 10
-42.0177796761
 20
60.3866862137
 10
-42.0298026491
 20
60.3982700163
 10
-42.0399220603
 20
60.4100887196
 10
-42.0480658618
 20
60.4220581773
 10
-42.0541760718
 20
60.4340931699
 10
-42.058209187
 20
60.446108011
 10
-42.0601364926
 20
60.4580171579
 10
-42.0599442668
 20
60.4697358203
 10
-42.0597401813
 20
60.4714153855
  0
LWPOLYLINE
  5
43E
100
AcDbEntity
  8
ASSI
100
AcDbPolyline
 62
250
  6
CONTINUOUS
 90
12
 70
0
 10
-41.9712094078
 20
60.35415708
 10
-41.9883783904
 20
60.3645509467
 10
-42.0039387418
 20
60.3754197858
 10
-42.0177796761
 20
60.3866862137
 10
-42.0298026491
 20
60.3982700163
 10
-42.0399220603
 20
60.4100887196
 10
-42.0480658618
 20
60.4220581773
 10
-42.0541760718
 20
60.4340931699
 10
-42.058209187
 20
60.446108011
 10
-42.0601364926
 20
60.4580171579
 10
-42.0599442668
 20
60.4697358203
 10
-42.0597401813
 20
60.4714153855
  0
LWPOLYLINE
  5
43F
100
AcDbEntity
  8
RACCORDO
100
AcDbPolyline
 62
250
  6
CONTINUOUS
 90
8
 70
0
 10
43.290039262
 20
-61.0729055171
 10
43.2942912999
 20
-61.0916970047
 10
43.3001630348
 20
-61.1090324871
 10
43.3076079395
 20
-61.1247745547
 10
43.3165670176
 20
-61.1387984255
 10
43.32696927
 20
-61.1509929342
 10
43.3387322577
 20
-61.1612614129
 10
43.3485798056
 20
-61.1677582576
  0
LWPOLYLINE
  5
440
100
AcDbEntity
  8
ASSI
100
AcDbPolyline
 62
250
  6
CONTINUOUS
 90
8
 70
0
 10
43.290039262
 20
-61.0729055171
 10
43.2942912999
 20
-61.0916970047
 10
43.3001630348
 20
-61.1090324871
 10
43.3076079395
 20
-61.1247745547
 10
43.3165670176
 20
-61.1387984255
 10
43.32696927
 20
-61.1509929342
 10
43.3387322577
 20
-61.1612614129
 10
43.3485798056
 20
-61.1677582576
  0
LINE
  5
441
100
AcDbEntity
  8
RACCORDO
100
AcDbLine
 62
7
  6
CONTINUOUS
 10
23.3333401816
 20
-33.1299211488
 11
23.3320394076
 21
-33.1327315658
  0
LINE
  5
442
100
AcDbEntity
  8
ASSI
100
AcDbLine
 62
7
  6
CONTINUOUS
 10
23.3333401816
 20
-33.1299211488
 11
23.3320394076
 21
-33.1327315658
  0
LWPOLYLINE
  5
443
100
AcDbEntity
  8
RACCORDO
100
AcDbPolyline
 62
250
  6
CONTINUOUS
 90
16
 70
0
 10
-41.1929846469
 20
61.0156268247
 10
-41.2345599564
 20
61.0373310221
 10
-41.2762244687
 20
61.0560440031
 10
-41.3178373536
 20
61.0717102948
 10
-41.3592326557
 20
61.0842759176
 10
-41.4003016627
 20
61.0937160677
 10
-41.4409883148
 20
61.1000159368
 10
-41.4811992964
 20
61.1031402649
 10
-41.5207543224
 20
61.103058018
 10
-41.5594690413
 20
61.0997669671
 10
-41.5972051374
 20
61.0932712344
 10
-41.6338564865
 20
61.0835863347
 10
-41.6692951908
 20
61.0707477822
 10
-41.7034141609
 20
61.0547815609
 10
-41.7360992926
 20
61.0357304159
 10
-41.75091598
 20
61.0257389308
  0
LWPOLYLINE
  5
444
100
AcDbEntity
  8
ASSI
100
AcDbPolyline
 62
250
  6
CONTINUOUS
 90
16
 70
0
 10
-41.1929846469
 20
61.0156268247
 10
-41.2345599564
 20
61.0373310221
 10
-41.2762244687
 20
61.0560440031
 10
-41.3178373536
 20
61.0717102948
 10
-41.3592326557
 20
61.0842759176
 10
-41.4003016627
 20
61.0937160677
 10
-41.4409883148
 20
61.1000159368
 10
-41.4811992964
 20
61.1031402649
 10
-41.5207543224
 20
61.103058018
 10
-41.5594690413
 20
61.0997669671
 10
-41.5972051374
 20
61.0932712344
 10
-41.6338564865
 20
61.0835863347
 10
-41.6692951908
 20
61.0707477822
 10
-41.7034141609
 20
61.0547815609
 10
-41.7360992926
 20
61.0357304159
 10
-41.75091598
 20
61.0257389308
  0
LWPOLYLINE
  5
445
100
AcDbEntity
  8
RACCORDO
100
AcDbPolyline
 62
250
  6
CONTINUOUS
 90
28
 70
0
 10
-41.3904891533
 20
60.7014546305
 10
-41.4193040055
 20
60.7169270251
 10
-41.4481237143
 20
60.7301662488
 10
-41.4769481749
 20
60.7411723397
 10
-41.5058610028
 20
60.7499695208
 10
-41.5347781642
 20
60.7565337214
 10
-41.5634479882
 20
60.760792574
 10
-41.5918904548
 20
60.7627274068
 10
-41.6200847821
 20
60.7623571841
 10
-41.647718106
 20
60.7596660097
 10
-41.6747720067
 20
60.7546294286
 10
-41.7012638189
 20
60.7472722923
 10
-41.7269343298
 20
60.7376526579
 10
-41.7517791952
 20
60.7257488328
 10
-41.7758015026
 20
60.7115829699
 10
-41.7987532877
 20
60.6952788569
 10
-41.82062565
 20
60.6768131523
 10
-41.8414262088
 20
60.6562096684
 10
-41.8609319796
 20
60.633662852
 10
-41.8791298141
 20
60.6091502
 10
-41.8960317136
 20
60.582694639
 10
-41.9114527167
 20
60.5545586507
 10
-41.9253784326
 20
60.5247123503
 10
-41.9378223827
 20
60.4931859459
 10
-41.9486418766
 20
60.4603319113
 10
-41.9577893106
 20
60.4262677539
 10
-41.9653119098
 20
60.39087611
 10
-41.9712094557
 20
60.3541570623
  0
LWPOLYLINE
  5
446
100
AcDbEntity
  8
ASSI
100
AcDbPolyline
 62
250
  6
CONTINUOUS
 90
28
 70
0
 10
-41.3904891533
 20
60.7014546305
 10
-41.4193040055
 20
60.7169270251
 10
-41.4481237143
 20
60.7301662488
 10
-41.4769481749
 20
60.7411723397
 10
-41.5058610028
 20
60.7499695208
 10
-41.5347781642
 20
60.7565337214
 10
-41.5634479882
 20
60.760792574
 10
-41.5918904548
 20
60.7627274068
 10
-41.6200847821
 20
60.7623571841
 10
-41.647718106
 20
60.7596660097
 10
-41.6747720067
 20
60.7546294286
 10
-41.7012638189
 20
60.7472722923
 10
-41.7269343298
 20
60.7376526579
 10
-41.7517791952
 20
60.7257488328
 10
-41.7758015026
 20
60.7115829699
 10
-41.7987532877
 20
60.6952788569
 10
-41.82062565
 20
60.6768131523
 10
-41.8414262088
 20
60.6562096684
 10
-41.8609319796
 20
60.633662852
 10
-41.8791298141
 20
60.6091502
 10
-41.8960317136
 20
60.582694639
 10
-41.9114527167
 20
60.5545586507
 10
-41.9253784326
 20
60.5247123503
 10
-41.9378223827
 20
60.4931859459
 10
-41.9486418766
 20
60.4603319113
 10
-41.9577893106
 20
60.4262677539
 10
-41.9653119098
 20
60.39087611
 10
-41.9712094557
 20
60.3541570623
  0
LINE
  5
447
100
AcDbEntity
  8
RACCORDO
100
AcDbLine
 62
250
  6
CONTINUOUS
 10
43.290039262
 20
11.8079788198
 11
-41.3904891533
 21
60.7014546305
  0
LINE
  5
448
100
AcDbEntity
  8
ASSI
100
AcDbLine
 62
250
  6
CONTINUOUS
 10
43.290039262
 20
11.8079788198
 11
-41.3904891533
 21
60.7014546305
  0
LINE
  5
449
100
AcDbEntity
  8
RACCORDO
100
AcDbLine
 62
250
  6
CONTINUOUS
 10
43.4875437684
 20
12.122151014
 11
-41.1929846469
 21
61.0156268247
  0
LINE
  5
44A
100
AcDbEntity
  8
ASSI
100
AcDbLine
 62
250
  6
CONTINUOUS
 10
43.4875437684
 20
12.122151014
 11
-41.1929846469
 21
61.0156268247
  0
LINE
  5
44B
100
AcDbEntity
  8
RACCORDO
100
AcDbLine
 62
7
  6
CONTINUOUS
 10
-39.617905571
 20
62.1262369033
 11
45.2368463019
 21
13.1321666517
  0
LINE
  5
44C
100
AcDbEntity
  8
ASSI
100
AcDbLine
 62
7
  6
CONTINUOUS
 10
-39.617905571
 20
62.1262369033
 11
45.2368463019
 21
13.1321666517
  0
LINE
  5
44D
100
AcDbEntity
  8
RACCORDO
100
AcDbLine
 62
7
  6
CONTINUOUS
 10
-36.9985732923
 20
61.6754995925
 11
46.5773120948
 21
13.4198308107
  0
LINE
  5
44E
100
AcDbEntity
  8
ASSI
100
AcDbLine
 62
7
  6
CONTINUOUS
 10
-36.9985732923
 20
61.6754995925
 11
46.5773120948
 21
13.4198308107
  0
LWPOLYLINE
  5
44F
100
AcDbEntity
  8
RACCORDO
100
AcDbPolyline
 62
7
  6
CONTINUOUS
 90
22
 70
0
 10
46.5773120948
 20
13.4198308107
 10
46.6016812043
 20
13.4046671448
 10
46.6249827923
 20
13.3885170911
 10
46.647216859
 20
13.3713806498
 10
46.668346192
 20
13.353232879
 10
46.6884080035
 20
13.3340987206
 10
46.7075139307
 20
13.3140529994
 10
46.7256936924
 20
13.2931393647
 10
46.7429175697
 20
13.2713141673
 10
46.7592080433
 20
13.248521285
 10
46.7746496502
 20
13.2246705053
 10
46.7891578534
 20
13.1998520407
 10
46.8025015224
 20
13.1742804058
 10
46.8146867534
 20
13.1478595253
 10
46.8257074502
 20
13.1206854746
 10
46.8353141935
 20
13.0932609951
 10
46.8434438418
 20
13.065683659
 10
46.8501595366
 20
13.037855894
 10
46.8554012836
 20
13.009987725
 10
46.8591490846
 20
12.9821491602
 10
46.8614229379
 20
12.9542701913
 10
46.8622228433
 20
12.9263508183
  0
LWPOLYLINE
  5
450
100
AcDbEntity
  8
ASSI
100
AcDbPolyline
 62
7
  6
CONTINUOUS
 90
22
 70
0
 10
46.5773120948
 20
13.4198308107
 10
46.6016812043
 20
13.4046671448
 10
46.6249827923
 20
13.3885170911
 10
46.647216859
 20
13.3713806498
 10
46.668346192
 20
13.353232879
 10
46.6884080035
 20
13.3340987206
 10
46.7075139307
 20
13.3140529994
 10
46.7256936924
 20
13.2931393647
 10
46.7429175697
 20
13.2713141673
 10
46.7592080433
 20
13.248521285
 10
46.7746496502
 20
13.2246705053
 10
46.7891578534
 20
13.1998520407
 10
46.8025015224
 20
13.1742804058
 10
46.8146867534
 20
13.1478595253
 10
46.8257074502
 20
13.1206854746
 10
46.8353141935
 20
13.0932609951
 10
46.8434438418
 20
13.065683659
 10
46.8501595366
 20
13.037855894
 10
46.8554012836
 20
13.009987725
 10
46.8591490846
 20
12.9821491602
 10
46.8614229379
 20
12.9542701913
 10
46.8622228433
 20
12.9263508183
  0
LWPOLYLINE
  5
451
100
AcDbEntity
  8
RACCORDO
100
AcDbPolyline
 62
250
  6
CONTINUOUS
 90
10
 70
0
 10
43.6883702707
 20
-60.8309172413
 10
43.3868361467
 20
-59.0736876711
 10
43.1101229175
 20
-57.2990550402
 10
42.8582834707
 20
-55.5073761758
 10
42.6313642752
 20
-53.6990135209
 10
42.4294102268
 20
-51.8743290156
 10
42.2524650586
 20
-50.0336837251
 10
42.1005646651
 20
-48.1774459795
 10
41.9737366763
 20
-46.3059915952
 10
41.8720056004
 20
-44.4196975456
  0
LWPOLYLINE
  5
452
100
AcDbEntity
  8
ASSI
100
AcDbPolyline
 62
250
  6
CONTINUOUS
 90
10
 70
0
 10
43.6883702707
 20
-60.8309172413
 10
43.3868361467
 20
-59.0736876711
 10
43.1101229175
 20
-57.2990550402
 10
42.8582834707
 20
-55.5073761758
 10
42.6313642752
 20
-53.6990135209
 10
42.4294102268
 20
-51.8743290156
 10
42.2524650586
 20
-50.0336837251
 10
42.1005646651
 20
-48.1774459795
 10
41.9737366763
 20
-46.3059915952
 10
41.8720056004
 20
-44.4196975456
  0
LWPOLYLINE
  5
453
100
AcDbEntity
  8
RACCORDO
100
AcDbPolyline
 62
250
  6
CONTINUOUS
 90
10
 70
0
 10
44.0978794907
 20
-60.7956653206
 10
43.7967842737
 20
-59.0410107417
 10
43.5205632065
 20
-57.2696881721
 10
43.2692162889
 20
-55.4816976119
 10
43.0427021217
 20
-53.6766658624
 10
42.8410621041
 20
-51.8549661224
 10
42.6644204345
 20
-50.0177179876
 10
42.5128185121
 20
-48.1652946569
 10
42.3862149375
 20
-46.2973229316
 10
42.2846097109
 20
-44.4138028115
  0
LWPOLYLINE
  5
454
100
AcDbEntity
  8
ASSI
100
AcDbPolyline
 62
250
  6
CONTINUOUS
 90
10
 70
0
 10
44.0978794907
 20
-60.7956653206
 10
43.7967842737
 20
-59.0410107417
 10
43.5205632065
 20
-57.2696881721
 10
43.2692162889
 20
-55.4816976119
 10
43.0427021217
 20
-53.6766658624
 10
42.8410621041
 20
-51.8549661224
 10
42.6644204345
 20
-50.0177179876
 10
42.5128185121
 20
-48.1652946569
 10
42.3862149375
 20
-46.2973229316
 10
42.2846097109
 20
-44.4138028115
  0
LWPOLYLINE
  5
455
100
AcDbEntity
  8
RACCORDO
100
AcDbPolyline
 62
250
  6
CONTINUOUS
 90
13
 70
0
 10
41.8720056722
 20
-44.4196975871
 10
41.7421405718
 20
-41.4049238216
 10
41.6358695941
 20
-38.3766802782
 10
41.553202388
 20
-35.3351787682
 10
41.4941462484
 20
-32.2805937245
 10
41.4587089969
 20
-29.213177059
 10
41.4468961723
 20
-26.1332598104
 10
41.4587089906
 20
-23.0410594743
 10
41.4941462374
 20
-19.9367940103
 10
41.5532023743
 20
-16.8207994433
 10
41.6358695794
 20
-13.6933362478
 10
41.7421405582
 20
-10.5545877501
 10
41.8720056618
 20
-7.4047769039
  0
LWPOLYLINE
  5
456
100
AcDbEntity
  8
ASSI
100
AcDbPolyline
 62
250
  6
CONTINUOUS
 90
13
 70
0
 10
41.8720056722
 20
-44.4196975871
 10
41.7421405718
 20
-41.4049238216
 10
41.6358695941
 20
-38.3766802782
 10
41.553202388
 20
-35.3351787682
 10
41.4941462484
 20
-32.2805937245
 10
41.4587089969
 20
-29.213177059
 10
41.4468961723
 20
-26.1332598104
 10
41.4587089906
 20
-23.0410594743
 10
41.4941462374
 20
-19.9367940103
 10
41.5532023743
 20
-16.8207994433
 10
41.6358695794
 20
-13.6933362478
 10
41.7421405582
 20
-10.5545877501
 10
41.8720056618
 20
-7.4047769039
  0
LWPOLYLINE
  5
457
100
AcDbEntity
  8
RACCORDO
100
AcDbPolyline
 62
250
  6
CONTINUOUS
 90
13
 70
0
 10
42.2846097109
 20
-44.4138028115
 10
42.1548126109
 20
-41.400666734
 10
42.0486115294
 20
-38.3744983219
 10
41.9660064664
 20
-35.3352975752
 10
41.9069931992
 20
-32.2828116366
 10
41.8715759505
 20
-29.2172933634
 10
41.8597673885
 20
-26.1395013275
 10
41.8715759606
 20
-23.0494310651
 10
41.9069932194
 20
-19.9470870401
 10
41.9660064912
 20
-16.8332412157
 10
42.0486115514
 20
-13.7081509132
 10
42.1548126247
 20
-10.5715588114
 10
42.2846097109
 20
-7.4234649103
  0
LWPOLYLINE
  5
458
100
AcDbEntity
  8
ASSI
100
AcDbPolyline
 62
250
  6
CONTINUOUS
 90
13
 70
0
 10
42.2846097109
 20
-44.4138028115
 10
42.1548126109
 20
-41.400666734
 10
42.0486115294
 20
-38.3744983219
 10
41.9660064664
 20
-35.3352975752
 10
41.9069931992
 20
-32.2828116366
 10
41.8715759505
 20
-29.2172933634
 10
41.8597673885
 20
-26.1395013275
 10
41.8715759606
 20
-23.0494310651
 10
41.9069932194
 20
-19.9470870401
 10
41.9660064912
 20
-16.8332412157
 10
42.0486115514
 20
-13.7081509132
 10
42.1548126247
 20
-10.5715588114
 10
42.2846097109
 20
-7.4234649103
  0
LWPOLYLINE
  5
459
100
AcDbEntity
  8
RACCORDO
100
AcDbPolyline
 62
250
  6
CONTINUOUS
 90
10
 70
0
 10
41.8720055897
 20
-7.4047768622
 10
41.9737366756
 20
-5.412692024
 10
42.1005646713
 20
-3.4093406174
 10
42.2524650648
 20
-1.3951279193
 10
42.4294102138
 20
0.6295336263
 10
42.631364226
 20
2.664238956
 10
42.8582833956
 20
4.7085906611
 10
43.1101228432
 20
6.7621796799
 10
43.3868360957
 20
8.8245851906
 10
43.6883702707
 20
10.8953892949
  0
LWPOLYLINE
  5
45A
100
AcDbEntity
  8
ASSI
100
AcDbPolyline
 62
250
  6
CONTINUOUS
 90
10
 70
0
 10
41.8720055897
 20
-7.4047768622
 10
41.9737366756
 20
-5.412692024
 10
42.1005646713
 20
-3.4093406174
 10
42.2524650648
 20
-1.3951279193
 10
42.4294102138
 20
0.6295336263
 10
42.631364226
 20
2.664238956
 10
42.8582833956
 20
4.7085906611
 10
43.1101228432
 20
6.7621796799
 10
43.3868360957
 20
8.8245851906
 10
43.6883702707
 20
10.8953892949
  0
LWPOLYLINE
  5
45B
100
AcDbEntity
  8
RACCORDO
100
AcDbPolyline
 62
250
  6
CONTINUOUS
 90
10
 70
0
 10
42.2846097109
 20
-7.4234649103
 10
42.3862151164
 20
-5.4342964633
 10
42.5128189186
 20
-3.4346841371
 10
42.6644211173
 20
-1.4246279315
 10
42.8410632368
 20
0.5962892086
 10
43.0427037528
 20
2.6276502281
 10
43.2692180934
 20
4.6682039611
 10
43.5205647346
 20
6.7175333525
 10
43.7967852004
 20
8.7760554575
 10
44.0978794907
 20
10.8437702761
  0
LWPOLYLINE
  5
45C
100
AcDbEntity
  8
ASSI
100
AcDbPolyline
 62
250
  6
CONTINUOUS
 90
10
 70
0
 10
42.2846097109
 20
-7.4234649103
 10
42.3862151164
 20
-5.4342964633
 10
42.5128189186
 20
-3.4346841371
 10
42.6644211173
 20
-1.4246279315
 10
42.8410632368
 20
0.5962892086
 10
43.0427037528
 20
2.6276502281
 10
43.2692180934
 20
4.6682039611
 10
43.5205647346
 20
6.7175333525
 10
43.7967852004
 20
8.7760554575
 10
44.0978794907
 20
10.8437702761
  0
LWPOLYLINE
  5
45D
100
AcDbEntity
  8
RACCORDO
100
AcDbPolyline
 62
250
  6
CONTINUOUS
 90
28
 70
0
 10
44.0978794907
 20
10.8437702761
 10
44.101603332
 20
10.895251163
 10
44.1028799208
 20
10.9478871946
 10
44.1017374142
 20
11.0015069994
 10
44.0982356918
 20
11.0559253658
 10
44.0923955807
 20
11.1109768603
 10
44.084189163
 20
11.1665195407
 10
44.0736539885
 20
11.2224208942
 10
44.0608543392
 20
11.278459047
 10
44.0458112428
 20
11.3343578873
 10
44.0286049419
 20
11.3899124915
 10
44.0093150536
 20
11.444971107
 10
43.9879764115
 20
11.4993387979
 10
43.9646776589
 20
11.5528410384
 10
43.939519638
 20
11.6053089622
 10
43.9125615707
 20
11.6565601288
 10
43.8839071113
 20
11.7064268718
 10
43.8536683249
 20
11.7547556531
 10
43.8219214463
 20
11.8013904561
 10
43.788775084
 20
11.8461837901
 10
43.7543551445
 20
11.8889899717
 10
43.7187672955
 20
11.9296630425
 10
43.6821360268
 20
11.9680650329
 10
43.6445861578
 20
12.0040799184
 10
43.6062259713
 20
12.0376025328
 10
43.5671767831
 20
12.0685248926
 10
43.5275731195
 20
12.0967394767
 10
43.4875437684
 20
12.122151014
  0
LWPOLYLINE
  5
45E
100
AcDbEntity
  8
ASSI
100
AcDbPolyline
 62
250
  6
CONTINUOUS
 90
28
 70
0
 10
44.0978794907
 20
10.8437702761
 10
44.101603332
 20
10.895251163
 10
44.1028799208
 20
10.9478871946
 10
44.1017374142
 20
11.0015069994
 10
44.0982356918
 20
11.0559253658
 10
44.0923955807
 20
11.1109768603
 10
44.084189163
 20
11.1665195407
 10
44.0736539885
 20
11.2224208942
 10
44.0608543392
 20
11.278459047
 10
44.0458112428
 20
11.3343578873
 10
44.0286049419
 20
11.3899124915
 10
44.0093150536
 20
11.444971107
 10
43.9879764115
 20
11.4993387979
 10
43.9646776589
 20
11.5528410384
 10
43.939519638
 20
11.6053089622
 10
43.9125615707
 20
11.6565601288
 10
43.8839071113
 20
11.7064268718
 10
43.8536683249
 20
11.7547556531
 10
43.8219214463
 20
11.8013904561
 10
43.788775084
 20
11.8461837901
 10
43.7543551445
 20
11.8889899717
 10
43.7187672955
 20
11.9296630425
 10
43.6821360268
 20
11.9680650329
 10
43.6445861578
 20
12.0040799184
 10
43.6062259713
 20
12.0376025328
 10
43.5671767831
 20
12.0685248926
 10
43.5275731195
 20
12.0967394767
 10
43.4875437684
 20
12.122151014
  0
LWPOLYLINE
  5
45F
100
AcDbEntity
  8
RACCORDO
100
AcDbPolyline
 62
250
  6
CONTINUOUS
 90
28
 70
0
 10
43.6883702707
 20
10.8953892949
 10
43.6930857282
 20
10.9328206656
 10
43.6960901341
 20
10.9708190012
 10
43.6973832524
 20
11.0093842125
 10
43.6969568731
 20
11.0486442479
 10
43.6948187858
 20
11.0884709999
 10
43.6909925609
 20
11.1284802245
 10
43.6854567775
 20
11.16869454
 10
43.678232033
 20
11.2090910218
 10
43.6694045398
 20
11.24921697
 10
43.6589586416
 20
11.2890512223
 10
43.646908842
 20
11.3286145154
 10
43.6333862817
 20
11.3675168848
 10
43.618376247
 20
11.4057516542
 10
43.6018921778
 20
11.4433250315
 10
43.5841072479
 20
11.4798663063
 10
43.5650090353
 20
11.5153634653
 10
43.5446087071
 20
11.5498280621
 10
43.5231147152
 20
11.5829246979
 10
43.5005158304
 20
11.6146395026
 10
43.4768221925
 20
11.6449859482
 10
43.4522742879
 20
11.6736696426
 10
43.4268582963
 20
11.7006767796
 10
43.4005872377
 20
11.7260208734
 10
43.3737419064
 20
11.7494485297
 10
43.346415755
 20
11.7708752306
 10
43.3185149087
 20
11.7903853401
 10
43.290039262
 20
11.8079788198
  0
LWPOLYLINE
  5
460
100
AcDbEntity
  8
ASSI
100
AcDbPolyline
 62
250
  6
CONTINUOUS
 90
28
 70
0
 10
43.6883702707
 20
10.8953892949
 10
43.6930857282
 20
10.9328206656
 10
43.6960901341
 20
10.9708190012
 10
43.6973832524
 20
11.0093842125
 10
43.6969568731
 20
11.0486442479
 10
43.6948187858
 20
11.0884709999
 10
43.6909925609
 20
11.1284802245
 10
43.6854567775
 20
11.16869454
 10
43.678232033
 20
11.2090910218
 10
43.6694045398
 20
11.24921697
 10
43.6589586416
 20
11.2890512223
 10
43.646908842
 20
11.3286145154
 10
43.6333862817
 20
11.3675168848
 10
43.618376247
 20
11.4057516542
 10
43.6018921778
 20
11.4433250315
 10
43.5841072479
 20
11.4798663063
 10
43.5650090353
 20
11.5153634653
 10
43.5446087071
 20
11.5498280621
 10
43.5231147152
 20
11.5829246979
 10
43.5005158304
 20
11.6146395026
 10
43.4768221925
 20
11.6449859482
 10
43.4522742879
 20
11.6736696426
 10
43.4268582963
 20
11.7006767796
 10
43.4005872377
 20
11.7260208734
 10
43.3737419064
 20
11.7494485297
 10
43.346415755
 20
11.7708752306
 10
43.3185149087
 20
11.7903853401
 10
43.290039262
 20
11.8079788198
  0
LWPOLYLINE
  5
461
100
AcDbEntity
  8
RACCORDO
100
AcDbPolyline
 62
250
  6
CONTINUOUS
 90
16
 70
0
 10
43.290039262
 20
11.8079788198
 10
43.2942913626
 20
11.8316808004
 10
43.3001631969
 20
11.8557971182
 10
43.3076082242
 20
11.8801366247
 10
43.3165674345
 20
11.9045064027
 10
43.3269698162
 20
11.9287132951
 10
43.3387329191
 20
11.9525654356
 10
43.3517635076
 20
11.9758737699
 10
43.3659583
 20
11.9984535539
 10
43.3812047872
 20
12.0201258181
 10
43.3973821239
 20
12.040718786
 10
43.414362087
 20
12.0600692358
 10
43.4320100918
 20
12.078023794
 10
43.4501862583
 20
12.0944401509
 10
43.4687465207
 20
12.1091881891
 10
43.4875437684
 20
12.122151014
  0
LWPOLYLINE
  5
462
100
AcDbEntity
  8
ASSI
100
AcDbPolyline
 62
250
  6
CONTINUOUS
 90
16
 70
0
 10
43.290039262
 20
11.8079788198
 10
43.2942913626
 20
11.8316808004
 10
43.3001631969
 20
11.8557971182
 10
43.3076082242
 20
11.8801366247
 10
43.3165674345
 20
11.9045064027
 10
43.3269698162
 20
11.9287132951
 10
43.3387329191
 20
11.9525654356
 10
43.3517635076
 20
11.9758737699
 10
43.3659583
 20
11.9984535539
 10
43.3812047872
 20
12.0201258181
 10
43.3973821239
 20
12.040718786
 10
43.414362087
 20
12.0600692358
 10
43.4320100918
 20
12.078023794
 10
43.4501862583
 20
12.0944401509
 10
43.4687465207
 20
12.1091881891
 10
43.4875437684
 20
12.122151014
  0
LWPOLYLINE
  5
463
100
AcDbEntity
  8
RACCORDO
100
AcDbPolyline
 62
250
  6
CONTINUOUS
 90
16
 70
0
 10
23.3282677845
 20
-33.7128202064
 10
23.2948486525
 20
-33.7404366618
 10
23.2589949205
 20
-33.7639739667
 10
23.2207041064
 20
-33.7834336949
 10
23.1798131575
 20
-33.798885535
 10
23.1364806916
 20
-33.8102626141
 10
23.0911865851
 20
-33.8173617604
 10
23.0438654537
 20
-33.8201096428
 10
22.9945784591
 20
-33.8185822813
 10
22.9439950279
 20
-33.8128007041
 10
22.8920747671
 20
-33.8026670784
 10
22.8388548332
 20
-33.7882813021
 10
22.7851211095
 20
-33.7699609155
 10
22.731134978
 20
-33.7478121352
 10
22.6766333721
 20
-33.7217298206
 10
22.6216158759
 20
-33.6917142375
  0
LWPOLYLINE
  5
464
100
AcDbEntity
  8
ASSI
100
AcDbPolyline
 62
250
  6
CONTINUOUS
 90
16
 70
0
 10
23.3282677845
 20
-33.7128202064
 10
23.2948486525
 20
-33.7404366618
 10
23.2589949205
 20
-33.7639739667
 10
23.2207041064
 20
-33.7834336949
 10
23.1798131575
 20
-33.798885535
 10
23.1364806916
 20
-33.8102626141
 10
23.0911865851
 20
-33.8173617604
 10
23.0438654537
 20
-33.8201096428
 10
22.9945784591
 20
-33.8185822813
 10
22.9439950279
 20
-33.8128007041
 10
22.8920747671
 20
-33.8026670784
 10
22.8388548332
 20
-33.7882813021
 10
22.7851211095
 20
-33.7699609155
 10
22.731134978
 20
-33.7478121352
 10
22.6766333721
 20
-33.7217298206
 10
22.6216158759
 20
-33.6917142375
  0
LINE
  5
465
100
AcDbEntity
  8
0
100
AcDbLine
 62
250
  6
CONTINUOUS
 10
22.9561891997
 20
-33.0691088708
 11
23.342128283
 21
-32.7969704524
  0
LINE
  5
466
100
AcDbEntity
  8
ASSI
100
AcDbLine
 62
250
  6
CONTINUOUS
 10
22.9561891997
 20
-33.0691088708
 11
23.342128283
 21
-32.7969704524
  0
LINE
  5
467
100
AcDbEntity
  8
RACCORDO
100
AcDbLine
 62
250
  6
CONTINUOUS
 10
23.3359867911
 20
-33.1228506643
 11
23.3131033252
 21
-33.1342645626
  0
LINE
  5
468
100
AcDbEntity
  8
ASSI
100
AcDbLine
 62
250
  6
CONTINUOUS
 10
23.3359867911
 20
-33.1228506643
 11
23.3131033252
 21
-33.1342645626
  0
LINE
  5
469
100
AcDbEntity
  8
RACCORDO
100
AcDbLine
 62
250
  6
CONTINUOUS
 10
23.3131033252
 20
-33.1342645626
 11
23.2887132625
 21
-33.1431551905
  0
LINE
  5
46A
100
AcDbEntity
  8
ASSI
100
AcDbLine
 62
250
  6
CONTINUOUS
 10
23.3131033252
 20
-33.1342645626
 11
23.2887132625
 21
-33.1431551905
  0
LINE
  5
46B
100
AcDbEntity
  8
DRAFT
100
AcDbLine
 62
7
  6
CONTINUOUS
 10
46.0810396363
 20
-25.3554355877
 11
46.5086694428
 21
-25.2025702695
  0
LINE
  5
46C
100
AcDbEntity
  8
ASSI
100
AcDbLine
 62
7
  6
CONTINUOUS
 10
46.0810396363
 20
-25.3554355877
 11
46.5086694428
 21
-25.2025702695
  0
LWPOLYLINE
  5
46D
100
AcDbEntity
  8
RACCORDO
100
AcDbPolyline
 62
7
  6
CONTINUOUS
 90
4
 70
0
 10
-37.053400934
 20
61.70225518
 10
-37.045360603
 20
61.6989648427
 10
-37.0223529663
 20
61.6883060567
 10
-36.9985732923
 20
61.6754995925
  0
LWPOLYLINE
  5
46E
100
AcDbEntity
  8
ASSI
100
AcDbPolyline
 62
7
  6
CONTINUOUS
 90
4
 70
0
 10
-37.053400934
 20
61.70225518
 10
-37.045360603
 20
61.6989648427
 10
-37.0223529663
 20
61.6883060567
 10
-36.9985732923
 20
61.6754995925
  0
LINE
  5
46F
100
AcDbEntity
  8
RACCORDO
100
AcDbLine
 62
7
  6
CONTINUOUS
 10
45.9429840178
 20
-59.9425219942
 11
45.9429840178
 21
11.9091002518
  0
LINE
  5
470
100
AcDbEntity
  8
ASSI
100
AcDbLine
 62
7
  6
CONTINUOUS
 10
45.9429840178
 20
-59.9425219942
 11
45.9429840178
 21
11.9091002518
  0
LINE
  5
471
100
AcDbEntity
  8
DRAFT
100
AcDbLine
 62
7
  6
CONTINUOUS
 10
46.0810396363
 20
-20.5855371369
 11
46.0810396363
 21
-26.3008290745
  0
LINE
  5
472
100
AcDbEntity
  8
ASSI
100
AcDbLine
 62
7
  6
CONTINUOUS
 10
46.0810396363
 20
-20.5855371369
 11
46.0810396363
 21
-26.3008290745
  0
LINE
  5
473
100
AcDbEntity
  8
DRAFT
100
AcDbLine
 62
7
  6
CONTINUOUS
 10
46.8622228433
 20
12.9263508183
 11
46.8622228334
 21
-19.1155526736
  0
LINE
  5
474
100
AcDbEntity
  8
ASSI
100
AcDbLine
 62
7
  6
CONTINUOUS
 10
46.8622228433
 20
12.9263508183
 11
46.8622228334
 21
-19.1155526736
  0
LINE
  5
475
100
AcDbEntity
  8
DRAFT
100
AcDbLine
 62
7
  6
CONTINUOUS
 10
46.8622228334
 20
-25.4067075661
 11
46.8622228562
 21
-57.4486109261
  0
LINE
  5
476
100
AcDbEntity
  8
ASSI
100
AcDbLine
 62
7
  6
CONTINUOUS
 10
46.8622228334
 20
-25.4067075661
 11
46.8622228562
 21
-57.4486109261
  0
LWPOLYLINE
  5
477
100
AcDbEntity
  8
RACCORDO
100
AcDbPolyline
 62
7
  6
CONTINUOUS
 90
4
 70
0
 10
46.8622228562
 20
-57.4486109261
 10
46.861422961
 20
-57.4756067057
 10
46.8591491056
 20
-57.5008599728
 10
46.8579815736
 20
-57.509444821
  0
LWPOLYLINE
  5
478
100
AcDbEntity
  8
ASSI
100
AcDbPolyline
 62
7
  6
CONTINUOUS
 90
4
 70
0
 10
46.8622228562
 20
-57.4486109261
 10
46.861422961
 20
-57.4756067057
 10
46.8591491056
 20
-57.5008599728
 10
46.8579815736
 20
-57.509444821
  0
LWPOLYLINE
  5
479
100
AcDbEntity
  8
RACCORDO
100
AcDbPolyline
 62
7
  6
CONTINUOUS
 90
8
 70
0
 10
-37.0534027652
 20
61.7022695922
 10
-37.1596130002
 20
61.7427520032
 10
-37.3566942355
 20
61.8108719614
 10
-37.5503115654
 20
61.8688096468
 10
-37.7400864933
 20
61.9167753879
 10
-37.9256660806
 20
61.9550291701
 10
-38.1067346073
 20
61.9838722452
 10
-38.2829661631
 20
62.0036441163
  0
LWPOLYLINE
  5
47A
100
AcDbEntity
  8
ASSI
100
AcDbPolyline
 62
7
  6
CONTINUOUS
 90
8
 70
0
 10
-37.0534027652
 20
61.7022695922
 10
-37.1596130002
 20
61.7427520032
 10
-37.3566942355
 20
61.8108719614
 10
-37.5503115654
 20
61.8688096468
 10
-37.7400864933
 20
61.9167753879
 10
-37.9256660806
 20
61.9550291701
 10
-38.1067346073
 20
61.9838722452
 10
-38.2829661631
 20
62.0036441163
  0
LINE
  5
47B
100
AcDbEntity
  8
RACCORDO
100
AcDbLine
 62
250
  6
CONTINUOUS
 10
-37.095711884
 20
61.7125894795
 11
-36.9985734153
 21
61.6754996478
  0
LINE
  5
47C
100
AcDbEntity
  8
ASSI
100
AcDbLine
 62
250
  6
CONTINUOUS
 10
-37.095711884
 20
61.7125894795
 11
-36.9985734153
 21
61.6754996478
  0
LINE
  5
47D
100
AcDbEntity
  8
RACCORDO
100
AcDbLine
 62
250
  6
CONTINUOUS
 10
46.8622228251
 20
-57.4486112341
 11
46.8450918947
 21
-57.5553165637
  0
LINE
  5
47E
100
AcDbEntity
  8
ASSI
100
AcDbLine
 62
250
  6
CONTINUOUS
 10
46.8622228251
 20
-57.4486112341
 11
46.8450918947
 21
-57.5553165637
  0
LWPOLYLINE
  5
47F
100
AcDbEntity
  8
RACCORDO
100
AcDbPolyline
 62
250
  6
CONTINUOUS
 90
12
 70
0
 10
46.8450918947
 20
-57.5553165637
 10
46.8248144039
 20
-57.6651265592
 10
46.8010687002
 20
-57.7779765406
 10
46.7734407232
 20
-57.8943572519
 10
46.7416518756
 20
-58.0136146302
 10
46.7056412321
 20
-58.1339609347
 10
46.6649461391
 20
-58.2557152446
 10
46.619428534
 20
-58.3783467519
 10
46.5697939656
 20
-58.4988295479
 10
46.5163227475
 20
-58.6161187654
 10
46.458636181
 20
-58.73110434
 10
46.3966678792
 20
-58.8436994642
  0
LWPOLYLINE
  5
480
100
AcDbEntity
  8
ASSI
100
AcDbPolyline
 62
250
  6
CONTINUOUS
 90
12
 70
0
 10
46.8450918947
 20
-57.5553165637
 10
46.8248144039
 20
-57.6651265592
 10
46.8010687002
 20
-57.7779765406
 10
46.7734407232
 20
-57.8943572519
 10
46.7416518756
 20
-58.0136146302
 10
46.7056412321
 20
-58.1339609347
 10
46.6649461391
 20
-58.2557152446
 10
46.619428534
 20
-58.3783467519
 10
46.5697939656
 20
-58.4988295479
 10
46.5163227475
 20
-58.6161187654
 10
46.458636181
 20
-58.73110434
 10
46.3966678792
 20
-58.8436994642
  0
LWPOLYLINE
  5
481
100
AcDbEntity
  8
RACCORDO
100
AcDbPolyline
 62
7
  6
CONTINUOUS
 90
8
 70
0
 10
-38.5475534647
 20
62.0173045097
 10
-38.6156161384
 20
62.0175835062
 10
-38.746697587
 20
62.0142424805
 10
-38.8757027677
 20
62.0058223804
 10
-39.0024606358
 20
61.9923928824
 10
-39.126817254
 20
61.9740311458
 10
-39.2486213786
 20
61.9508463523
 10
-39.2952408307
 20
61.9399343262
  0
LWPOLYLINE
  5
482
100
AcDbEntity
  8
ASSI
100
AcDbPolyline
 62
7
  6
CONTINUOUS
 90
8
 70
0
 10
-38.5475534647
 20
62.0173045097
 10
-38.6156161384
 20
62.0175835062
 10
-38.746697587
 20
62.0142424805
 10
-38.8757027677
 20
62.0058223804
 10
-39.0024606358
 20
61.9923928824
 10
-39.126817254
 20
61.9740311458
 10
-39.2486213786
 20
61.9508463523
 10
-39.2952408307
 20
61.9399343262
  0
LWPOLYLINE
  5
483
100
AcDbEntity
  8
RACCORDO
100
AcDbPolyline
 62
250
  6
CONTINUOUS
 90
12
 70
0
 10
-38.4394807387
 20
61.9698041752
 10
-38.2984219552
 20
61.9664959977
 10
-38.1606071897
 20
61.9577489552
 10
-38.0260131687
 20
61.9439485449
 10
-37.8939006317
 20
61.9252410182
 10
-37.764930313
 20
61.9022053753
 10
-37.6411256653
 20
61.8759645478
 10
-37.5233131761
 20
61.8472149164
 10
-37.410432883
 20
61.8161691695
 10
-37.3016705086
 20
61.7831996494
 10
-37.1967140395
 20
61.7485793747
 10
-37.095711884
 20
61.7125894795
  0
LWPOLYLINE
  5
484
100
AcDbEntity
  8
ASSI
100
AcDbPolyline
 62
250
  6
CONTINUOUS
 90
12
 70
0
 10
-38.4394807387
 20
61.9698041752
 10
-38.2984219552
 20
61.9664959977
 10
-38.1606071897
 20
61.9577489552
 10
-38.0260131687
 20
61.9439485449
 10
-37.8939006317
 20
61.9252410182
 10
-37.764930313
 20
61.9022053753
 10
-37.6411256653
 20
61.8759645478
 10
-37.5233131761
 20
61.8472149164
 10
-37.410432883
 20
61.8161691695
 10
-37.3016705086
 20
61.7831996494
 10
-37.1967140395
 20
61.7485793747
 10
-37.095711884
 20
61.7125894795
  0
LINE
  5
485
100
AcDbEntity
  8
RACCORDO
100
AcDbLine
 62
7
  6
CONTINUOUS
 10
-38.4540027957
 20
62.0147309893
 11
-38.5475195384
 21
62.0173040602
  0
LINE
  5
486
100
AcDbEntity
  8
ASSI
100
AcDbLine
 62
7
  6
CONTINUOUS
 10
-38.4540027957
 20
62.0147309893
 11
-38.5475195384
 21
62.0173040602
  0
LINE
  5
487
100
AcDbEntity
  8
RACCORDO
100
AcDbLine
 62
7
  6
CONTINUOUS
 10
-38.2829661631
 20
62.0036441163
 11
-38.4540027957
 21
62.0147309893
  0
LINE
  5
488
100
AcDbEntity
  8
ASSI
100
AcDbLine
 62
7
  6
CONTINUOUS
 10
-38.2829661631
 20
62.0036441163
 11
-38.4540027957
 21
62.0147309893
  0
LWPOLYLINE
  5
489
100
AcDbEntity
  8
RACCORDO
100
AcDbPolyline
 62
7
  6
CONTINUOUS
 90
9
 70
0
 10
46.4311085042
 20
-58.873366117
 10
46.5067879844
 20
-58.7195204214
 10
46.5775335113
 20
-58.5568543227
 10
46.6428354108
 20
-58.3854873156
 10
46.702235401
 20
-58.205536567
 10
46.7553221527
 20
-58.0171169617
 10
46.8016942622
 20
-57.8204141149
 10
46.8409823384
 20
-57.6156469771
 10
46.8579931798
 20
-57.5094536431
  0
LWPOLYLINE
  5
48A
100
AcDbEntity
  8
ASSI
100
AcDbPolyline
 62
7
  6
CONTINUOUS
 90
9
 70
0
 10
46.4311085042
 20
-58.873366117
 10
46.5067879844
 20
-58.7195204214
 10
46.5775335113
 20
-58.5568543227
 10
46.6428354108
 20
-58.3854873156
 10
46.702235401
 20
-58.205536567
 10
46.7553221527
 20
-58.0171169617
 10
46.8016942622
 20
-57.8204141149
 10
46.8409823384
 20
-57.6156469771
 10
46.8579931798
 20
-57.5094536431
  0
LINE
  5
48B
100
AcDbEntity
  8
RACCORDO
100
AcDbLine
 62
250
  6
CONTINUOUS
 10
-38.5485433501
 20
61.9678583287
 11
-38.4394807387
 21
61.9698041752
  0
LINE
  5
48C
100
AcDbEntity
  8
ASSI
100
AcDbLine
 62
250
  6
CONTINUOUS
 10
-38.5485433501
 20
61.9678583287
 11
-38.4394807387
 21
61.9698041752
  0
LINE
  5
48D
100
AcDbEntity
  8
RACCORDO
100
AcDbLine
 62
7
  6
CONTINUOUS
 10
46.3837859017
 20
-58.9609857622
 11
46.4311085042
 21
-58.873366117
  0
LINE
  5
48E
100
AcDbEntity
  8
ASSI
100
AcDbLine
 62
7
  6
CONTINUOUS
 10
46.3837859017
 20
-58.9609857622
 11
46.4311085042
 21
-58.873366117
  0
LINE
  5
48F
100
AcDbEntity
  8
RACCORDO
100
AcDbLine
 62
250
  6
CONTINUOUS
 10
46.3966678792
 20
-58.8436994642
 11
46.3241565919
 21
-58.9630376741
  0
LINE
  5
490
100
AcDbEntity
  8
ASSI
100
AcDbLine
 62
250
  6
CONTINUOUS
 10
46.3966678792
 20
-58.8436994642
 11
46.3241565919
 21
-58.9630376741
  0
LWPOLYLINE
  5
491
100
AcDbEntity
  8
RACCORDO
100
AcDbPolyline
 62
250
  6
CONTINUOUS
 90
6
 70
0
 10
46.3241565919
 20
-58.9630376741
 10
46.2474412958
 20
-59.0772856979
 10
46.1666246449
 20
-59.1863758373
 10
46.082183431
 20
-59.2898831442
 10
45.99388942
 20
-59.3881176703
 10
45.9429840178
 20
-59.4393981314
  0
LWPOLYLINE
  5
492
100
AcDbEntity
  8
ASSI
100
AcDbPolyline
 62
250
  6
CONTINUOUS
 90
6
 70
0
 10
46.3241565919
 20
-58.9630376741
 10
46.2474412958
 20
-59.0772856979
 10
46.1666246449
 20
-59.1863758373
 10
46.082183431
 20
-59.2898831442
 10
45.99388942
 20
-59.3881176703
 10
45.9429840178
 20
-59.4393981314
  0
LINE
  5
493
100
AcDbEntity
  8
RACCORDO
100
AcDbLine
 62
250
  6
CONTINUOUS
 10
44.0978794907
 20
-60.7956653206
 11
45.9429840178
 21
-59.9425219942
  0
LINE
  5
494
100
AcDbEntity
  8
ASSI
100
AcDbLine
 62
250
  6
CONTINUOUS
 10
44.0978794907
 20
-60.7956653206
 11
45.9429840178
 21
-59.9425219942
  0
LINE
  5
495
100
AcDbEntity
  8
RACCORDO
100
AcDbLine
 62
7
  6
CONTINUOUS
 10
43.9305917159
 20
-61.2362643191
 11
45.7093195406
 21
-60.4138123932
  0
LINE
  5
496
100
AcDbEntity
  8
ASSI
100
AcDbLine
 62
7
  6
CONTINUOUS
 10
43.9305917159
 20
-61.2362643191
 11
45.7093195406
 21
-60.4138123932
  0
LWPOLYLINE
  5
497
100
AcDbEntity
  8
RACCORDO
100
AcDbPolyline
 62
250
  6
CONTINUOUS
 90
8
 70
0
 10
-39.1828201155
 20
61.8750240142
 10
-39.1597023357
 20
61.8814090929
 10
-39.0629581559
 20
61.9043197179
 10
-38.9641922708
 20
61.9239435393
 10
-38.863512035
 20
61.9401905014
 10
-38.7606708789
 20
61.9529792284
 10
-38.6556276382
 20
61.9622250871
 10
-38.5485433501
 20
61.9678583287
  0
LWPOLYLINE
  5
498
100
AcDbEntity
  8
ASSI
100
AcDbPolyline
 62
250
  6
CONTINUOUS
 90
8
 70
0
 10
-39.1828201155
 20
61.8750240142
 10
-39.1597023357
 20
61.8814090929
 10
-39.0629581559
 20
61.9043197179
 10
-38.9641922708
 20
61.9239435393
 10
-38.863512035
 20
61.9401905014
 10
-38.7606708789
 20
61.9529792284
 10
-38.6556276382
 20
61.9622250871
 10
-38.5485433501
 20
61.9678583287
  0
LWPOLYLINE
  5
499
100
AcDbEntity
  8
RACCORDO
100
AcDbPolyline
 62
7
  6
CONTINUOUS
 90
8
 70
0
 10
45.9429840178
 20
-59.5697978337
 10
45.9798624402
 20
-59.5303169101
 10
46.060633326
 20
-59.4362545665
 10
46.1384946435
 20
-59.3375984816
 10
46.2132715485
 20
-59.2344283613
 10
46.2848149958
 20
-59.1268393434
 10
46.3529908401
 20
-59.0149445636
 10
46.3837677628
 20
-58.9610171991
  0
LWPOLYLINE
  5
49A
100
AcDbEntity
  8
ASSI
100
AcDbPolyline
 62
7
  6
CONTINUOUS
 90
8
 70
0
 10
45.9429840178
 20
-59.5697978337
 10
45.9798624402
 20
-59.5303169101
 10
46.060633326
 20
-59.4362545665
 10
46.1384946435
 20
-59.3375984816
 10
46.2132715485
 20
-59.2344283613
 10
46.2848149958
 20
-59.1268393434
 10
46.3529908401
 20
-59.0149445636
 10
46.3837677628
 20
-58.9610171991
  0
LWPOLYLINE
  5
49B
100
AcDbEntity
  8
RACCORDO
100
AcDbPolyline
 62
250
  6
CONTINUOUS
 90
16
 70
0
 10
43.9306494977
 20
-61.2362375982
 10
43.9392969476
 20
-61.2320381745
 10
43.9644709015
 20
-61.2173238895
 10
43.9877863406
 20
-61.1997637416
 10
44.0091428162
 20
-61.1794168371
 10
44.0284510358
 20
-61.1563499877
 10
44.0456750007
 20
-61.1306160459
 10
44.0607311577
 20
-61.102300928
 10
44.0735451768
 20
-61.0715026496
 10
44.0841046093
 20
-61.0383074936
 10
44.0923452176
 20
-61.0028350747
 10
44.0982151741
 20
-60.9652087358
 10
44.1017327692
 20
-60.9255353773
 10
44.1028803963
 20
-60.8839483033
 10
44.1016041036
 20
-60.8406061531
 10
44.0978794907
 20
-60.7956653206
  0
LWPOLYLINE
  5
49C
100
AcDbEntity
  8
ASSI
100
AcDbPolyline
 62
250
  6
CONTINUOUS
 90
16
 70
0
 10
43.9306494977
 20
-61.2362375982
 10
43.9392969476
 20
-61.2320381745
 10
43.9644709015
 20
-61.2173238895
 10
43.9877863406
 20
-61.1997637416
 10
44.0091428162
 20
-61.1794168371
 10
44.0284510358
 20
-61.1563499877
 10
44.0456750007
 20
-61.1306160459
 10
44.0607311577
 20
-61.102300928
 10
44.0735451768
 20
-61.0715026496
 10
44.0841046093
 20
-61.0383074936
 10
44.0923452176
 20
-61.0028350747
 10
44.0982151741
 20
-60.9652087358
 10
44.1017327692
 20
-60.9255353773
 10
44.1028803963
 20
-60.8839483033
 10
44.1016041036
 20
-60.8406061531
 10
44.0978794907
 20
-60.7956653206
  0
ELLIPSE
  5
49D
100
AcDbEntity
  8
RACCORDO
100
AcDbEllipse
 62
7
  6
CONTINUOUS
 10
45.2349068415
 20
-59.531447683
 30
0.0
 11
-0.5013954353
 21
0.868386877
 31
0.0
 40
0.5757524875
 41
-3.1936911674
 42
-2.3576120761
  0
ELLIPSE
  5
49E
100
AcDbEntity
  8
RACCORDO
100
AcDbEllipse
 62
7
  6
CONTINUOUS
 10
45.2349068415
 20
12.3156957153
 30
0.0
 11
-0.5000243598
 21
0.8660113392
 31
0.0
 40
0.5789151826
 41
-2.3548735497
 42
-0.7868162787
  0
ELLIPSE
  5
49F
100
AcDbEntity
  8
0
100
AcDbEllipse
 62
7
  6
CONTINUOUS
 10
117.7120702488
 20
55.2212352151
 30
0.0
 11
114.8996317544
 21
126.3505868295
 31
0.0
 40
0.3765254089
 41
-3.7743605251
 42
-3.7575864559
  0
ELLIPSE
  5
4A0
100
AcDbEntity
  8
0
100
AcDbEllipse
 62
7
  6
CONTINUOUS
 10
111.5213474795
 20
58.7956809541
 30
0.0
 11
34.8790515577
 21
168.2218372011
 31
0.0
 40
0.7002280922
 41
-4.083553027
 42
-4.0720093448
  0
ELLIPSE
  5
4A1
100
AcDbEntity
  8
0
100
AcDbEllipse
 62
7
  6
CONTINUOUS
 10
116.8979031082
 20
55.6913251182
 30
0.0
 11
70.634700218
 21
152.2499801326
 31
0.0
 40
0.6282888553
 41
-3.9123018102
 42
-3.8955277411
  0
ELLIPSE
  5
4A2
100
AcDbEntity
  8
0
100
AcDbEllipse
 62
7
  6
CONTINUOUS
 10
113.334518629
 20
57.7487786567
 30
0.0
 11
11.1145125674
 21
175.7752122584
 31
0.0
 40
0.7158559188
 41
-4.1973507117
 42
-4.188040463
  0
ELLIPSE
  5
4A3
100
AcDbEntity
  8
0
100
AcDbEllipse
 62
7
  6
CONTINUOUS
 10
116.9681367907
 20
55.6507730701
 30
0.0
 11
91.793176838
 21
140.2511436908
 31
0.0
 40
0.5363054271
 41
-3.8203221232
 42
-3.8093664661
  0
ELLIPSE
  5
4A4
100
AcDbEntity
  8
0
100
AcDbEllipse
 62
7
  6
CONTINUOUS
 10
120.8380036204
 20
53.4163604635
 30
0.0
 11
119.630873242
 21
123.5739552196
 31
0.0
 40
0.3382731367
 41
-3.7657029519
 42
-3.7547929514
  0
ELLIPSE
  5
4A5
100
AcDbEntity
  8
0
100
AcDbEllipse
 62
7
  6
CONTINUOUS
 10
121.3906108845
 20
53.097291955
 30
0.0
 11
111.5409348807
 21
128.3466174189
 31
0.0
 40
0.4029729773
 41
-3.7734299492
 42
-3.7672052666
  0
ELLIPSE
  5
4A6
100
AcDbEntity
  8
0
100
AcDbEllipse
 62
7
  6
CONTINUOUS
 10
116.5305624813
 20
55.9034229922
 30
0.0
 11
27.6951435486
 21
170.7397539322
 31
0.0
 40
0.7069483398
 41
-4.1183397783
 42
-4.1015657091
  0
ELLIPSE
  5
4A7
100
AcDbEntity
  8
0
100
AcDbEllipse
 62
7
  6
CONTINUOUS
 10
121.4759759009
 20
53.0480032644
 30
0.0
 11
112.236268736
 21
127.9318388222
 31
0.0
 40
0.3975597956
 41
-3.7637364601
 42
-3.7603859388
  0
ELLIPSE
  5
4A8
100
AcDbEntity
  8
DRAFT
100
AcDbEllipse
 62
7
  6
CONTINUOUS
 10
41.7345508215
 20
-19.1051013256
 30
0.0
 11
5.1478346794
 21
0.9575482268
 31
0.0
 40
0.6665647798
 41
-0.7006982462
 42
-0.2750682551
  0
ELLIPSE
  5
4A9
100
AcDbEntity
  8
0
100
AcDbEllipse
 62
7
  6
CONTINUOUS
 10
-21.973845999
 20
-4.1519914132
 30
0.0
 11
-0.4000194878
 21
0.6928090714
 31
0.0
 40
0.5789151826
 41
0.7867191038
 42
2.3547763749
  0
ELLIPSE
  5
4AA
100
AcDbEntity
  8
RACCORDO
100
AcDbEllipse
 62
7
  6
CONTINUOUS
 10
-39.6159661106
 20
61.3075263266
 30
0.0
 11
-0.5013954353
 21
0.868386877
 31
0.0
 40
0.5757524875
 41
-0.7840766935
 42
0.0520985859
  0
ELLIPSE
  5
4AB
100
AcDbEntity
  8
0
100
AcDbEllipse
 62
7
  6
CONTINUOUS
 10
5.6404037409
 20
-19.568428912
 30
0.0
 11
-0.0054673646
 21
0.3559778749
 31
0.0
 40
0.0145741356
 41
-3.1313276788
 42
-2.3823999735
  0
ELLIPSE
  5
4AC
100
AcDbEntity
  8
0
100
AcDbEllipse
 62
7
  6
CONTINUOUS
 10
121.3275752009
 20
53.1336879686
 30
0.0
 11
114.1738075272
 21
126.6060927015
 31
0.0
 40
0.3814884295
 41
-3.7739014683
 42
-3.7580834622
  0
ELLIPSE
  5
4AD
100
AcDbEntity
  8
0
100
AcDbEllipse
 62
7
  6
CONTINUOUS
 10
116.587379992
 20
55.8706172737
 30
0.0
 11
39.144967187
 21
166.622327116
 31
0.0
 40
0.6952787603
 41
-4.0582033802
 42
-4.0519786976
  0
ELLIPSE
  5
4AE
100
AcDbEntity
  8
0
100
AcDbEllipse
 62
7
  6
CONTINUOUS
 10
121.3275752009
 20
53.1336879686
 30
0.0
 11
114.2761852079
 21
126.7196181975
 31
0.0
 40
0.3814884295
 41
-3.7749362596
 42
-3.7581621904
  0
ELLIPSE
  5
4AF
100
AcDbEntity
  8
0
100
AcDbEllipse
 62
7
  6
CONTINUOUS
 10
116.4673851851
 20
55.9399007713
 30
0.0
 11
36.2948103059
 21
167.6997948705
 31
0.0
 40
0.6986691259
 41
-4.0632503059
 42
-4.0598997846
  0
ELLIPSE
  5
4B0
100
AcDbEntity
  8
0
100
AcDbEllipse
 62
7
  6
CONTINUOUS
 10
116.9971638862
 20
55.634013189
 30
0.0
 11
111.9792925869
 21
128.0850400428
 31
0.0
 40
0.3995644544
 41
-3.7774770381
 42
-3.7659333559
  0
ELLIPSE
  5
4B1
100
AcDbEntity
  8
DRAFT
100
AcDbEllipse
 62
7
  6
CONTINUOUS
 10
41.7345508215
 20
-24.5118804965
 30
0.0
 11
5.1774686765
 21
-0.6785096723
 31
0.0
 40
0.4693271057
 41
-0.5159119978
 42
-0.0902820066
  0
ELLIPSE
  5
4B2
100
AcDbEntity
  8
0
100
AcDbEllipse
 62
7
  6
CONTINUOUS
 10
110.7366622199
 20
59.2487483886
 30
0.0
 11
25.1749394473
 21
171.5727221992
 31
0.0
 40
0.7088651675
 41
-4.1304804737
 42
-4.1137064045
  0
ELLIPSE
  5
4B3
100
AcDbEntity
  8
0
100
AcDbEllipse
 62
7
  6
CONTINUOUS
 10
120.4210814758
 20
53.6570860845
 30
0.0
 11
119.1887867979
 21
123.8315627285
 31
0.0
 40
0.3418816387
 41
-3.7717111746
 42
-3.7624009259
  0
ELLIPSE
  5
4B4
100
AcDbEntity
  8
0
100
AcDbEllipse
 62
7
  6
CONTINUOUS
 10
116.7934589343
 20
55.7516298751
 30
0.0
 11
94.077182749
 21
138.8827821588
 31
0.0
 40
0.5232362147
 41
-3.8185477191
 42
-3.8017736499
  0
ELLIPSE
  5
4B5
100
AcDbEntity
  8
0
100
AcDbEllipse
 62
7
  6
CONTINUOUS
 10
110.7366622199
 20
59.2487483886
 30
0.0
 11
25.1523857375
 21
171.4190137311
 31
0.0
 40
0.7088651675
 41
-4.1294456824
 42
-4.1136276763
  0
ELLIPSE
  5
4B6
100
AcDbEntity
  8
0
100
AcDbEllipse
 62
7
  6
CONTINUOUS
 10
116.9971638862
 20
55.634013189
 30
0.0
 11
111.878972645
 21
127.9702912935
 31
0.0
 40
0.3995644544
 41
-3.7764422127
 42
-3.7658593517
  0
ELLIPSE
  5
4B7
100
AcDbEntity
  8
0
100
AcDbEllipse
 62
7
  6
CONTINUOUS
 10
116.7790152457
 20
55.7599694799
 30
0.0
 11
74.7266798953
 21
149.8826902858
 31
0.0
 40
0.6139811386
 41
-3.8877681049
 42
-3.8768482551
  0
ELLIPSE
  5
4B8
100
AcDbEntity
  8
0
100
AcDbEllipse
 62
7
  6
CONTINUOUS
 10
112.94450493
 20
57.9739676785
 30
0.0
 11
10.3267110211
 21
175.9897840662
 31
0.0
 40
0.7160762854
 41
-4.1952272933
 42
-4.1842716361
  0
ELLIPSE
  5
4B9
100
AcDbEntity
  8
0
100
AcDbEllipse
 62
7
  6
CONTINUOUS
 10
112.94450493
 20
57.9739676785
 30
0.0
 11
10.3174595334
 21
175.8321184433
 31
0.0
 40
0.7160762854
 41
-4.1951584555
 42
-4.1843514627
  0
ELLIPSE
  5
4BA
100
AcDbEntity
  8
0
100
AcDbEllipse
 62
7
  6
CONTINUOUS
 10
116.7934589343
 20
55.7516298751
 30
0.0
 11
93.9929009386
 21
138.7583599347
 31
0.0
 40
0.5232362147
 41
-3.8175129253
 42
-3.8016949217
  0
ELLIPSE
  5
4BB
100
AcDbEntity
  8
0
100
AcDbEllipse
 62
7
  6
CONTINUOUS
 10
120.4210814758
 20
53.6570860845
 30
0.0
 11
119.0820080186
 21
123.7206245819
 31
0.0
 40
0.3418816387
 41
-3.7706765582
 42
-3.7623289378
  0
ELLIPSE
  5
4BC
100
AcDbEntity
  8
0
100
AcDbEllipse
 62
7
  6
CONTINUOUS
 10
116.587379992
 20
55.8706172737
 30
0.0
 11
39.1098980172
 21
166.4730536049
 31
0.0
 40
0.6952787603
 41
-4.0581356351
 42
-4.0519053363
  0
ELLIPSE
  5
4BD
100
AcDbEntity
  8
0
100
AcDbEllipse
 62
7
  6
CONTINUOUS
 10
116.4673851851
 20
55.9399007713
 30
0.0
 11
36.2622945329
 21
167.5495560783
 31
0.0
 40
0.6986691259
 41
-4.0631746043
 42
-4.0598210564
  0
ELLIPSE
  5
4BE
100
AcDbEntity
  8
0
100
AcDbEllipse
 62
7
  6
CONTINUOUS
 10
116.7790152457
 20
55.7599694799
 30
0.0
 11
74.7936860181
 21
150.0170875047
 31
0.0
 40
0.6139811386
 41
-3.8878369839
 42
-3.8769269833
  0
ELLIPSE
  5
4BF
100
AcDbEntity
  8
ASSI
100
AcDbEllipse
 62
7
  6
CONTINUOUS
 10
45.2349068415
 20
-59.531447683
 30
0.0
 11
-0.5013954353
 21
0.868386877
 31
0.0
 40
0.5757524875
 41
-3.1936911674
 42
-2.3576120761
  0
ELLIPSE
  5
4C0
100
AcDbEntity
  8
ASSI
100
AcDbEllipse
 62
7
  6
CONTINUOUS
 10
45.2349068415
 20
12.3156957153
 30
0.0
 11
-0.5000243598
 21
0.8660113392
 31
0.0
 40
0.5789151826
 41
-2.3548735497
 42
-0.7868162787
  0
ELLIPSE
  5
4C1
100
AcDbEntity
  8
ASSI
100
AcDbEllipse
 62
7
  6
CONTINUOUS
 10
117.7120702488
 20
55.2212352151
 30
0.0
 11
114.8996317544
 21
126.3505868295
 31
0.0
 40
0.3765254089
 41
-3.7743605251
 42
-3.7575864559
  0
ELLIPSE
  5
4C2
100
AcDbEntity
  8
ASSI
100
AcDbEllipse
 62
7
  6
CONTINUOUS
 10
111.5213474795
 20
58.7956809541
 30
0.0
 11
34.8790515577
 21
168.2218372011
 31
0.0
 40
0.7002280922
 41
-4.083553027
 42
-4.0720093448
  0
ELLIPSE
  5
4C3
100
AcDbEntity
  8
ASSI
100
AcDbEllipse
 62
7
  6
CONTINUOUS
 10
116.8979031082
 20
55.6913251182
 30
0.0
 11
70.634700218
 21
152.2499801326
 31
0.0
 40
0.6282888553
 41
-3.9123018102
 42
-3.8955277411
  0
ELLIPSE
  5
4C4
100
AcDbEntity
  8
ASSI
100
AcDbEllipse
 62
7
  6
CONTINUOUS
 10
113.334518629
 20
57.7487786567
 30
0.0
 11
11.1145125674
 21
175.7752122584
 31
0.0
 40
0.7158559188
 41
-4.1973507117
 42
-4.188040463
  0
ELLIPSE
  5
4C5
100
AcDbEntity
  8
ASSI
100
AcDbEllipse
 62
7
  6
CONTINUOUS
 10
116.9681367907
 20
55.6507730701
 30
0.0
 11
91.793176838
 21
140.2511436908
 31
0.0
 40
0.5363054271
 41
-3.8203221232
 42
-3.8093664661
  0
ELLIPSE
  5
4C6
100
AcDbEntity
  8
ASSI
100
AcDbEllipse
 62
7
  6
CONTINUOUS
 10
120.8380036204
 20
53.4163604635
 30
0.0
 11
119.630873242
 21
123.5739552196
 31
0.0
 40
0.3382731367
 41
-3.7657029519
 42
-3.7547929514
  0
ELLIPSE
  5
4C7
100
AcDbEntity
  8
ASSI
100
AcDbEllipse
 62
7
  6
CONTINUOUS
 10
121.3906108845
 20
53.097291955
 30
0.0
 11
111.5409348807
 21
128.3466174189
 31
0.0
 40
0.4029729773
 41
-3.7734299492
 42
-3.7672052666
  0
ELLIPSE
  5
4C8
100
AcDbEntity
  8
ASSI
100
AcDbEllipse
 62
7
  6
CONTINUOUS
 10
116.5305624813
 20
55.9034229922
 30
0.0
 11
27.6951435486
 21
170.7397539322
 31
0.0
 40
0.7069483398
 41
-4.1183397783
 42
-4.1015657091
  0
ELLIPSE
  5
4C9
100
AcDbEntity
  8
ASSI
100
AcDbEllipse
 62
7
  6
CONTINUOUS
 10
121.4759759009
 20
53.0480032644
 30
0.0
 11
112.236268736
 21
127.9318388222
 31
0.0
 40
0.3975597956
 41
-3.7637364601
 42
-3.7603859388
  0
ELLIPSE
  5
4CA
100
AcDbEntity
  8
ASSI
100
AcDbEllipse
 62
7
  6
CONTINUOUS
 10
41.7345508215
 20
-19.1051013256
 30
0.0
 11
5.1478346794
 21
0.9575482268
 31
0.0
 40
0.6665647798
 41
-0.7006982462
 42
-0.2750682551
  0
ELLIPSE
  5
4CB
100
AcDbEntity
  8
ASSI
100
AcDbEllipse
 62
7
  6
CONTINUOUS
 10
-21.973845999
 20
-4.1519914132
 30
0.0
 11
-0.4000194878
 21
0.6928090714
 31
0.0
 40
0.5789151826
 41
0.7867191038
 42
2.3547763749
  0
ELLIPSE
  5
4CC
100
AcDbEntity
  8
ASSI
100
AcDbEllipse
 62
7
  6
CONTINUOUS
 10
-39.6159661106
 20
61.3075263266
 30
0.0
 11
-0.5013954353
 21
0.868386877
 31
0.0
 40
0.5757524875
 41
-0.7840766935
 42
0.0520985859
  0
ELLIPSE
  5
4CD
100
AcDbEntity
  8
ASSI
100
AcDbEllipse
 62
7
  6
CONTINUOUS
 10
5.6404037409
 20
-19.568428912
 30
0.0
 11
-0.0054673646
 21
0.3559778749
 31
0.0
 40
0.0145741356
 41
-3.1313276788
 42
-2.3823999735
  0
ELLIPSE
  5
4CE
100
AcDbEntity
  8
ASSI
100
AcDbEllipse
 62
7
  6
CONTINUOUS
 10
116.7934589343
 20
55.7516298751
 30
0.0
 11
94.077182749
 21
138.8827821588
 31
0.0
 40
0.5232362147
 41
-3.8185477191
 42
-3.8017736499
  0
ELLIPSE
  5
4CF
100
AcDbEntity
  8
ASSI
100
AcDbEllipse
 62
7
  6
CONTINUOUS
 10
112.94450493
 20
57.9739676785
 30
0.0
 11
10.3267110211
 21
175.9897840662
 31
0.0
 40
0.7160762854
 41
-4.1952272933
 42
-4.1842716361
  0
ELLIPSE
  5
4D0
100
AcDbEntity
  8
ASSI
100
AcDbEllipse
 62
7
  6
CONTINUOUS
 10
116.7790152457
 20
55.7599694799
 30
0.0
 11
74.7936860181
 21
150.0170875047
 31
0.0
 40
0.6139811386
 41
-3.8878369839
 42
-3.8769269833
  0
ELLIPSE
  5
4D1
100
AcDbEntity
  8
ASSI
100
AcDbEllipse
 62
7
  6
CONTINUOUS
 10
116.587379992
 20
55.8706172737
 30
0.0
 11
39.144967187
 21
166.622327116
 31
0.0
 40
0.6952787603
 41
-4.0582033802
 42
-4.0519786976
  0
ELLIPSE
  5
4D2
100
AcDbEntity
  8
ASSI
100
AcDbEllipse
 62
7
  6
CONTINUOUS
 10
121.3275752009
 20
53.1336879686
 30
0.0
 11
114.2761852079
 21
126.7196181975
 31
0.0
 40
0.3814884295
 41
-3.7749362596
 42
-3.7581621904
  0
ELLIPSE
  5
4D3
100
AcDbEntity
  8
ASSI
100
AcDbEllipse
 62
7
  6
CONTINUOUS
 10
116.4673851851
 20
55.9399007713
 30
0.0
 11
36.2948103059
 21
167.6997948705
 31
0.0
 40
0.6986691259
 41
-4.0632503059
 42
-4.0598997846
  0
ELLIPSE
  5
4D4
100
AcDbEntity
  8
ASSI
100
AcDbEllipse
 62
7
  6
CONTINUOUS
 10
41.7345508215
 20
-24.5118804965
 30
0.0
 11
5.1774686765
 21
-0.6785096723
 31
0.0
 40
0.4693271057
 41
-0.5159119978
 42
-0.0902820066
  0
ELLIPSE
  5
4D5
100
AcDbEntity
  8
ASSI
100
AcDbEllipse
 62
7
  6
CONTINUOUS
 10
110.7366622199
 20
59.2487483886
 30
0.0
 11
25.1523857375
 21
171.4190137311
 31
0.0
 40
0.7088651675
 41
-4.1294456824
 42
-4.1136276763
  0
ELLIPSE
  5
4D6
100
AcDbEntity
  8
ASSI
100
AcDbEllipse
 62
7
  6
CONTINUOUS
 10
116.9971638862
 20
55.634013189
 30
0.0
 11
111.878972645
 21
127.9702912935
 31
0.0
 40
0.3995644544
 41
-3.7764422127
 42
-3.7658593517
  0
ELLIPSE
  5
4D7
100
AcDbEntity
  8
ASSI
100
AcDbEllipse
 62
7
  6
CONTINUOUS
 10
116.7790152457
 20
55.7599694799
 30
0.0
 11
74.7266798953
 21
149.8826902858
 31
0.0
 40
0.6139811386
 41
-3.8877681049
 42
-3.8768482551
  0
ELLIPSE
  5
4D8
100
AcDbEntity
  8
ASSI
100
AcDbEllipse
 62
7
  6
CONTINUOUS
 10
112.94450493
 20
57.9739676785
 30
0.0
 11
10.3174595334
 21
175.8321184433
 31
0.0
 40
0.7160762854
 41
-4.1951584555
 42
-4.1843514627
  0
ELLIPSE
  5
4D9
100
AcDbEntity
  8
ASSI
100
AcDbEllipse
 62
7
  6
CONTINUOUS
 10
116.7934589343
 20
55.7516298751
 30
0.0
 11
93.9929009386
 21
138.7583599347
 31
0.0
 40
0.5232362147
 41
-3.8175129253
 42
-3.8016949217
  0
ELLIPSE
  5
4DA
100
AcDbEntity
  8
ASSI
100
AcDbEllipse
 62
7
  6
CONTINUOUS
 10
120.4210814758
 20
53.6570860845
 30
0.0
 11
119.0820080186
 21
123.7206245819
 31
0.0
 40
0.3418816387
 41
-3.7706765582
 42
-3.7623289378
  0
ELLIPSE
  5
4DB
100
AcDbEntity
  8
ASSI
100
AcDbEllipse
 62
7
  6
CONTINUOUS
 10
116.587379992
 20
55.8706172737
 30
0.0
 11
39.1098980172
 21
166.4730536049
 31
0.0
 40
0.6952787603
 41
-4.0581356351
 42
-4.0519053363
  0
ELLIPSE
  5
4DC
100
AcDbEntity
  8
ASSI
100
AcDbEllipse
 62
7
  6
CONTINUOUS
 10
116.4673851851
 20
55.9399007713
 30
0.0
 11
36.2622945329
 21
167.5495560783
 31
0.0
 40
0.6986691259
 41
-4.0631746043
 42
-4.0598210564
  0
ELLIPSE
  5
4DD
100
AcDbEntity
  8
ASSI
100
AcDbEllipse
 62
7
  6
CONTINUOUS
 10
121.3275752009
 20
53.1336879686
 30
0.0
 11
114.1738075272
 21
126.6060927015
 31
0.0
 40
0.3814884295
 41
-3.7739014683
 42
-3.7580834622
  0
ELLIPSE
  5
4DE
100
AcDbEntity
  8
ASSI
100
AcDbEllipse
 62
7
  6
CONTINUOUS
 10
116.9971638862
 20
55.634013189
 30
0.0
 11
111.9792925869
 21
128.0850400428
 31
0.0
 40
0.3995644544
 41
-3.7774770381
 42
-3.7659333559
  0
ELLIPSE
  5
4DF
100
AcDbEntity
  8
ASSI
100
AcDbEllipse
 62
7
  6
CONTINUOUS
 10
110.7366622199
 20
59.2487483886
 30
0.0
 11
25.1749394473
 21
171.5727221992
 31
0.0
 40
0.7088651675
 41
-4.1304804737
 42
-4.1137064045
  0
ELLIPSE
  5
4E0
100
AcDbEntity
  8
ASSI
100
AcDbEllipse
 62
7
  6
CONTINUOUS
 10
120.4210814758
 20
53.6570860845
 30
0.0
 11
119.1887867979
 21
123.8315627285
 31
0.0
 40
0.3418816387
 41
-3.7717111746
 42
-3.7624009259
  0
ELLIPSE
  5
4E1
100
AcDbEntity
  8
0
100
AcDbEllipse
 62
250
  6
CONTINUOUS
 10
107.7273559521
 20
84.2289782842
 30
0.0
 11
68.2785985895
 21
153.4823126798
 31
0.0
 40
0.6356954522
 41
-4.0778745832
 42
-4.0760908998
  0
ELLIPSE
  5
4E2
100
AcDbEntity
  8
0
100
AcDbEllipse
 62
250
  6
CONTINUOUS
 10
108.7495008383
 20
83.6388046374
 30
0.0
 11
43.5084879569
 21
164.902888116
 31
0.0
 40
0.6893966054
 41
-4.1956584687
 42
-4.1945882917
  0
ELLIPSE
  5
4E3
100
AcDbEntity
  8
0
100
AcDbEllipse
 62
250
  6
CONTINUOUS
 10
120.0012444718
 20
77.1421888809
 30
0.0
 11
-170.0841982385
 21
226.799782346
 31
0.0
 40
0.4795811407
 41
1.4291115819
 42
1.4298250883
  0
ELLIPSE
  5
4E4
100
AcDbEntity
  8
0
100
AcDbEllipse
 62
250
  6
CONTINUOUS
 10
144.3187100873
 20
63.1015890039
 30
0.0
 11
461.0244427499
 21
-392.1335419887
 31
0.0
 40
0.2133863435
 41
-1.7310568387
 42
-1.7307000725
  0
ELLIPSE
  5
4E5
100
AcDbEntity
  8
0
100
AcDbEllipse
 62
250
  6
CONTINUOUS
 10
65.802876634
 20
108.4356472054
 30
0.0
 11
488.0738691873
 21
-120.9774792929
 31
0.0
 40
0.1923204037
 41
-1.6838915183
 42
-1.6835347521
  0
ELLIPSE
  5
4E6
100
AcDbEntity
  8
0
100
AcDbEllipse
 62
250
  6
CONTINUOUS
 10
90.1202734059
 20
94.3950870778
 30
0.0
 11
218.7221939969
 21
64.4788583997
 31
0.0
 40
0.1731833699
 41
-2.1096549856
 42
-2.1089414792
  0
ELLIPSE
  5
4E7
100
AcDbEntity
  8
0
100
AcDbEllipse
 62
250
  6
CONTINUOUS
 10
98.1572528932
 20
89.7546358489
 30
0.0
 11
146.6647555962
 21
108.3636281683
 31
0.0
 40
0.1263825083
 41
2.3279532215
 42
2.3290233985
  0
ELLIPSE
  5
4E8
100
AcDbEntity
  8
0
100
AcDbEllipse
 62
250
  6
CONTINUOUS
 10
102.1242030008
 20
87.4641685743
 30
0.0
 11
115.7634381698
 21
125.8404559676
 31
0.0
 40
0.3696139229
 41
-3.9266637322
 42
-3.925236978
  0
ELLIPSE
  5
4E9
100
AcDbEntity
  8
0
100
AcDbEllipse
 62
250
  6
CONTINUOUS
 10
104.4632002239
 20
86.1136608922
 30
0.0
 11
93.7813932274
 21
139.0604409053
 31
0.0
 40
0.52496566
 41
-3.9710996602
 42
-3.9657507683
  0
ELLIPSE
  5
4EA
100
AcDbEntity
  8
0
100
AcDbEllipse
 62
250
  6
CONTINUOUS
 10
106.3454639934
 20
85.026865382
 30
0.0
 11
43.5079433679
 21
164.9031080549
 31
0.0
 40
0.6893973944
 41
-4.1974449634
 42
-4.1878152968
  0
ELLIPSE
  5
4EB
100
AcDbEntity
  8
0
100
AcDbEllipse
 62
250
  6
CONTINUOUS
 10
99.7784843941
 20
88.8185570991
 30
0.0
 11
122.1032906666
 21
122.1403327789
 31
0.0
 40
0.318017516
 41
-3.9270701973
 42
-3.9174405307
  0
ELLIPSE
  5
4EC
100
AcDbEntity
  8
0
100
AcDbEllipse
 62
250
  6
CONTINUOUS
 10
106.6362928475
 20
84.8589444466
 30
0.0
 11
41.9779527662
 21
165.515720652
 31
0.0
 40
0.691558876
 41
-4.2063210484
 42
-4.1895610118
  0
ELLIPSE
  5
4ED
100
AcDbEntity
  8
0
100
AcDbEllipse
 62
250
  6
CONTINUOUS
 10
106.3317171337
 20
85.0348026465
 30
0.0
 11
43.5081816259
 21
164.9030118317
 31
0.0
 40
0.6893970492
 41
-4.1863881393
 42
-4.1821110332
  0
ELLIPSE
  5
4EE
100
AcDbEntity
  8
0
100
AcDbEllipse
 62
250
  6
CONTINUOUS
 10
99.7922154978
 20
88.8106289319
 30
0.0
 11
122.1033500238
 21
122.1402985041
 31
0.0
 40
0.3180170286
 41
-3.9160145329
 42
-3.9117374269
  0
ELLIPSE
  5
4EF
100
AcDbEntity
  8
0
100
AcDbEllipse
 62
250
  6
CONTINUOUS
 10
99.4876539092
 20
88.9864789761
 30
0.0
 11
122.6326329822
 21
121.8349435996
 31
0.0
 40
0.3136701383
 41
-3.9285124884
 42
-3.9117524518
  0
ELLIPSE
  5
4F0
100
AcDbEntity
  8
0
100
AcDbEllipse
 62
250
  6
CONTINUOUS
 10
128.2445334014
 20
72.3826171656
 30
0.0
 11
346.116982495
 21
-324.6682229078
 31
0.0
 40
0.2767051061
 41
-1.7315283578
 42
-1.7311717911
  0
ELLIPSE
  5
4F1
100
AcDbEntity
  8
0
100
AcDbEllipse
 62
250
  6
CONTINUOUS
 10
110.4397142113
 20
82.6628966192
 30
0.0
 11
-101.7157550301
 21
199.7500295746
 31
0.0
 40
0.6093592621
 41
1.5260174196
 42
1.5267305116
  0
ELLIPSE
  5
4F2
100
AcDbEntity
  8
0
100
AcDbEllipse
 62
250
  6
CONTINUOUS
 10
104.5595672962
 20
86.0580197524
 30
0.0
 11
43.5084879569
 21
164.902888116
 31
0.0
 40
0.6893966054
 41
-4.188525705
 42
-4.1874561335
  0
ELLIPSE
  5
4F3
100
AcDbEntity
  8
0
100
AcDbEllipse
 62
250
  6
CONTINUOUS
 10
101.6607909813
 20
87.7317368664
 30
0.0
 11
93.7809197788
 21
139.0607251721
 31
0.0
 40
0.5249684194
 41
-3.9653957958
 42
-3.9643263104
  0
ELLIPSE
  5
4F4
100
AcDbEntity
  8
0
100
AcDbEllipse
 62
250
  6
CONTINUOUS
 10
98.803128204
 20
89.3817155391
 30
0.0
 11
122.1032431809
 21
122.1403601987
 31
0.0
 40
0.3180179059
 41
-3.9160145332
 42
-3.9149451326
  0
ELLIPSE
  5
4F5
100
AcDbEntity
  8
0
100
AcDbEllipse
 62
250
  6
CONTINUOUS
 10
93.1703027673
 20
92.6340383504
 30
0.0
 11
173.0836342077
 21
93.373392027
 31
0.0
 40
0.0279357855
 41
-2.2667865707
 42
-2.2660736814
  0
ELLIPSE
  5
4F6
100
AcDbEntity
  8
0
100
AcDbEllipse
 62
250
  6
CONTINUOUS
 10
76.4364299635
 20
102.2959667826
 30
0.0
 11
377.0485461051
 21
-47.5525496774
 31
0.0
 40
0.2269613516
 41
-1.7895681591
 42
-1.7892117313
  0
ELLIPSE
  5
4F7
100
AcDbEntity
  8
0
100
AcDbEllipse
 62
250
  6
CONTINUOUS
 10
100.6304396187
 20
88.3266488299
 30
0.0
 11
93.7813932274
 21
139.0604409053
 31
0.0
 40
0.52496566
 41
-3.9675334864
 42
-3.962186053
  0
ELLIPSE
  5
4F8
100
AcDbEntity
  8
0
100
AcDbEllipse
 62
250
  6
CONTINUOUS
 10
100.6304437502
 20
88.3266464444
 30
0.0
 11
93.7813498975
 21
139.0604669213
 31
0.0
 40
0.5249659126
 41
-3.974667005
 42
-3.9696732118
  0
ELLIPSE
  5
4F9
100
AcDbEntity
  8
0
100
AcDbEllipse
 62
250
  6
CONTINUOUS
 10
73.8400192991
 20
103.7951017596
 30
0.0
 11
377.0485461051
 21
-47.5525496774
 31
0.0
 40
0.2269613516
 41
-1.7820811413
 42
-1.7817245107
  0
ELLIPSE
  5
4FA
100
AcDbEntity
  8
0
100
AcDbEllipse
 62
250
  6
CONTINUOUS
 10
92.3048413552
 20
93.133744923
 30
0.0
 11
173.0836342077
 21
93.373392027
 31
0.0
 40
0.0279357855
 41
-2.2592993501
 42
-2.2585860525
  0
ELLIPSE
  5
4FB
100
AcDbEntity
  8
0
100
AcDbEllipse
 62
250
  6
CONTINUOUS
 10
98.5146193167
 20
89.5482969548
 30
0.0
 11
122.103420061
 21
122.1402580623
 31
0.0
 40
0.3180164536
 41
-3.9235027755
 42
-3.9224327611
  0
ELLIPSE
  5
4FC
100
AcDbEntity
  8
0
100
AcDbEllipse
 62
250
  6
CONTINUOUS
 10
101.6607706572
 20
87.7317486013
 30
0.0
 11
93.7811897969
 21
139.0605630485
 31
0.0
 40
0.5249668457
 41
-3.9725270759
 42
-3.9718136751
  0
ELLIPSE
  5
4FD
100
AcDbEntity
  8
0
100
AcDbEllipse
 62
250
  6
CONTINUOUS
 10
104.8343700958
 20
85.89935206
 30
0.0
 11
43.5072626278
 21
164.9033829783
 31
0.0
 40
0.6893983807
 41
-4.1956644338
 42
-4.1945942568
  0
ELLIPSE
  5
4FE
100
AcDbEntity
  8
0
100
AcDbEllipse
 62
250
  6
CONTINUOUS
 10
111.2638917241
 20
82.1870268527
 30
0.0
 11
-101.7145514237
 21
199.7496793835
 31
0.0
 40
0.6093615153
 41
1.5188868481
 42
1.5196003545
  0
ELLIPSE
  5
4FF
100
AcDbEntity
  8
0
100
AcDbEllipse
 62
250
  6
CONTINUOUS
 10
130.7177295924
 20
70.9546246814
 30
0.0
 11
346.1226067412
 21
-324.6715108661
 31
0.0
 40
0.2767011407
 41
-1.7386614606
 42
-1.7383046943
  0
ELLIPSE
  5
500
100
AcDbEntity
  8
0
100
AcDbEllipse
 62
250
  6
CONTINUOUS
 10
151.4490006791
 20
58.9846485798
 30
0.0
 11
575.9863670803
 21
-459.7018216395
 31
0.0
 40
0.173112487
 41
-1.725051934
 42
-1.7246951025
  0
ELLIPSE
  5
501
100
AcDbEntity
  8
0
100
AcDbEllipse
 62
250
  6
CONTINUOUS
 10
114.8771183416
 20
80.1007950881
 30
0.0
 11
-148.857799135
 21
217.0409448996
 31
0.0
 40
0.5183102665
 41
1.44440288
 42
1.4454733149
  0
ELLIPSE
  5
502
100
AcDbEntity
  8
0
100
AcDbEllipse
 62
250
  6
CONTINUOUS
 10
109.1310344405
 20
83.4185119172
 30
0.0
 11
-56.7378376742
 21
189.5072070011
 31
0.0
 40
0.681169693
 41
-4.6373949057
 42
-4.635967807
  0
ELLIPSE
  5
503
100
AcDbEntity
  8
0
100
AcDbEllipse
 62
250
  6
CONTINUOUS
 10
105.0953410268
 20
85.7486707152
 30
0.0
 11
43.5081952279
 21
164.9030063383
 31
0.0
 40
0.6893970295
 41
-4.1960166386
 42
-4.1949464359
  0
ELLIPSE
  5
504
100
AcDbEntity
  8
0
100
AcDbEllipse
 62
250
  6
CONTINUOUS
 10
101.9080044991
 20
87.5889988796
 30
0.0
 11
93.7816336518
 21
139.0602965502
 31
0.0
 40
0.5249642588
 41
-3.9728823516
 42
-3.9714555498
  0
ELLIPSE
  5
505
100
AcDbEntity
  8
0
100
AcDbEllipse
 62
250
  6
CONTINUOUS
 10
98.7756532937
 20
89.397579208
 30
0.0
 11
122.1032431809
 21
122.1403601987
 31
0.0
 40
0.3180179059
 41
-3.9231460942
 42
-3.9220761047
  0
ELLIPSE
  5
506
100
AcDbEntity
  8
0
100
AcDbEllipse
 62
250
  6
CONTINUOUS
 10
94.9116916549
 20
91.6285822314
 30
0.0
 11
152.9957110199
 21
104.8453546306
 31
0.0
 40
0.0837733809
 41
2.3162360592
 42
2.3176625673
  0
ELLIPSE
  5
507
100
AcDbEntity
  8
0
100
AcDbEllipse
 62
250
  6
CONTINUOUS
 10
83.5258054993
 20
98.202650199
 30
0.0
 11
269.5180801439
 21
28.72657561
 31
0.0
 40
0.2304467995
 41
-1.9717032899
 42
-1.9713466896
  0
ELLIPSE
  5
508
100
AcDbEntity
  8
0
100
AcDbEllipse
 62
250
  6
CONTINUOUS
 10
119.7954287181
 20
77.2610243176
 30
0.0
 11
-230.2815859862
 21
258.2506410183
 31
0.0
 40
0.3881193532
 41
1.4121436517
 42
1.4125002481
  0
ELLIPSE
  5
509
100
AcDbEntity
  8
0
100
AcDbEllipse
 62
250
  6
CONTINUOUS
 10
108.5128326236
 20
83.7754538984
 30
0.0
 11
-56.7375218096
 21
189.5071495856
 31
0.0
 40
0.6811700822
 41
-4.6302600041
 42
-4.6288337355
  0
ELLIPSE
  5
50A
100
AcDbEntity
  8
0
100
AcDbEllipse
 62
250
  6
CONTINUOUS
 10
104.8206301246
 20
85.9072853472
 30
0.0
 11
43.5072626278
 21
164.9033829783
 31
0.0
 40
0.6893983807
 41
-4.1888882112
 42
-4.1878186107
  0
ELLIPSE
  5
50B
100
AcDbEntity
  8
0
100
AcDbEllipse
 62
250
  6
CONTINUOUS
 10
101.9080249877
 20
87.5889870497
 30
0.0
 11
93.781413938
 21
139.0604284703
 31
0.0
 40
0.5249655393
 41
-3.965750701
 42
-3.9639682291
  0
ELLIPSE
  5
50C
100
AcDbEntity
  8
0
100
AcDbEllipse
 62
250
  6
CONTINUOUS
 10
99.0640917527
 20
89.2310384568
 30
0.0
 11
122.103670552
 21
122.1401134207
 31
0.0
 40
0.3180143969
 41
-3.9156580578
 42
-3.9145886852
  0
ELLIPSE
  5
50D
100
AcDbEntity
  8
0
100
AcDbEllipse
 62
250
  6
CONTINUOUS
 10
95.5608174723
 20
91.2537851199
 30
0.0
 11
152.9954398537
 21
104.8455059189
 31
0.0
 40
0.0837751299
 41
2.3237241592
 42
2.3251498642
  0
ELLIPSE
  5
50E
100
AcDbEntity
  8
0
100
AcDbEllipse
 62
250
  6
CONTINUOUS
 10
90.7522629055
 20
94.0301842614
 30
0.0
 11
202.7646449178
 21
75.0424444824
 31
0.0
 40
0.1361336765
 41
-2.1736455873
 42
-2.1725764067
  0
ELLIPSE
  5
50F
100
AcDbEntity
  8
0
100
AcDbEllipse
 62
250
  6
CONTINUOUS
 10
60.980510734
 20
111.2200208376
 30
0.0
 11
600.9514462195
 21
-191.7993213141
 31
0.0
 40
0.1620323673
 41
-1.6474254541
 42
-1.6470690805
  0
ELLIPSE
  5
510
100
AcDbEntity
  8
0
100
AcDbEllipse
 62
250
  6
CONTINUOUS
 10
100.3831622703
 20
88.4694236717
 30
0.0
 11
93.7814256506
 21
139.0604214378
 31
0.0
 40
0.524965471
 41
-3.9768075958
 42
-3.9600475592
  0
ELLIPSE
  5
511
100
AcDbEntity
  8
0
100
AcDbEllipse
 62
250
  6
CONTINUOUS
 10
101.9095183361
 20
87.5881248091
 30
0.0
 11
-22.3413290313
 21
183.3614793488
 31
0.0
 40
0.7115375175
 41
-4.5048370306
 42
-4.488076994
  0
ELLIPSE
  5
512
100
AcDbEntity
  8
0
100
AcDbEllipse
 62
250
  6
CONTINUOUS
 10
92.742512791
 20
92.8810389212
 30
0.0
 11
112.006102841
 21
128.0690516521
 31
0.0
 40
0.3993555306
 41
-3.9347454556
 42
-3.917985419
  0
ELLIPSE
  5
513
100
AcDbEntity
  8
0
100
AcDbEllipse
 62
250
  6
CONTINUOUS
 10
98.5873166789
 20
89.506322409
 30
0.0
 11
32.8018561849
 21
168.9721845822
 31
0.0
 40
0.7023711659
 41
-4.2509361663
 42
-4.2341761297
  0
ELLIPSE
  5
514
100
AcDbEntity
  8
0
100
AcDbEllipse
 62
250
  6
CONTINUOUS
 10
114.3129791835
 20
80.4265219676
 30
0.0
 11
93.7814256506
 21
139.0604214378
 31
0.0
 40
0.524965471
 41
-3.9768075958
 42
-3.9600475592
  0
ELLIPSE
  5
515
100
AcDbEntity
  8
0
100
AcDbEllipse
 62
250
  6
CONTINUOUS
 10
114.5602556421
 20
80.2837476395
 30
0.0
 11
93.7814130743
 21
139.0604289889
 31
0.0
 40
0.5249655443
 41
-3.9768076367
 42
-3.9621859884
  0
ELLIPSE
  5
516
100
AcDbEntity
  8
0
100
AcDbEllipse
 62
250
  6
CONTINUOUS
 10
116.4425154766
 20
79.1969544014
 30
0.0
 11
43.5080795154
 21
164.9030530702
 31
0.0
 40
0.6893971972
 41
-4.1974443006
 42
-4.187814634
  0
ELLIPSE
  5
517
100
AcDbEntity
  8
0
100
AcDbEllipse
 62
250
  6
CONTINUOUS
 10
115.7966218014
 20
79.5698853145
 30
0.0
 11
93.7815115889
 21
139.060369839
 31
0.0
 40
0.5249649702
 41
-3.9621856681
 42
-3.9600472797
  0
ELLIPSE
  5
518
100
AcDbEntity
  8
0
100
AcDbEllipse
 62
250
  6
CONTINUOUS
 10
109.8755421369
 20
82.9886425042
 30
0.0
 11
122.1032906666
 21
122.1403327789
 31
0.0
 40
0.318017516
 41
-3.9270701973
 42
-3.9174405307
  0
ELLIPSE
  5
519
100
AcDbEntity
  8
0
100
AcDbEllipse
 62
250
  6
CONTINUOUS
 10
116.7333528323
 20
79.0290285572
 30
0.0
 11
41.977873471
 21
165.5157521285
 31
0.0
 40
0.6915589852
 41
-4.2063214345
 42
-4.1895613978
  0
ELLIPSE
  5
51A
100
AcDbEntity
  8
0
100
AcDbEllipse
 62
250
  6
CONTINUOUS
 10
116.4287857198
 20
79.2048817909
 30
0.0
 11
43.5078752941
 21
164.9031355473
 31
0.0
 40
0.6893974931
 41
-4.1863896306
 42
-4.1821125245
  0
ELLIPSE
  5
51B
100
AcDbEntity
  8
0
100
AcDbEllipse
 62
250
  6
CONTINUOUS
 10
109.8892725335
 20
82.9807147453
 30
0.0
 11
122.1033500238
 21
122.1402985041
 31
0.0
 40
0.3180170286
 41
-3.9160145329
 42
-3.9117374269
  0
ELLIPSE
  5
51C
100
AcDbEntity
  8
0
100
AcDbEllipse
 62
250
  6
CONTINUOUS
 10
109.5847109449
 20
83.1565647895
 30
0.0
 11
122.6326329822
 21
121.8349435996
 31
0.0
 40
0.3136701383
 41
-3.9285124884
 42
-3.9117524518
  0
ELLIPSE
  5
51D
100
AcDbEntity
  8
0
100
AcDbEllipse
 62
250
  6
CONTINUOUS
 10
111.7578064033
 20
81.9018467071
 30
0.0
 11
93.7814256506
 21
139.0604214378
 31
0.0
 40
0.524965471
 41
-3.9768075958
 42
-3.9600475592
  0
ELLIPSE
  5
51E
100
AcDbEntity
  8
0
100
AcDbEllipse
 62
250
  6
CONTINUOUS
 10
112.0050809376
 20
81.7590734901
 30
0.0
 11
93.7814256506
 21
139.0604214378
 31
0.0
 40
0.524965471
 41
-3.9768075958
 42
-3.9600475592
  0
ELLIPSE
  5
51F
100
AcDbEntity
  8
0
100
AcDbEllipse
 62
250
  6
CONTINUOUS
 10
110.1093063351
 20
82.8536699859
 30
0.0
 11
93.781427045
 21
139.0604206006
 31
0.0
 40
0.5249654629
 41
-3.9675333764
 42
-3.9600475546
  0
ELLIPSE
  5
520
100
AcDbEntity
  8
0
100
AcDbEllipse
 62
250
  6
CONTINUOUS
 10
114.2170772749
 20
80.4818945278
 30
0.0
 11
32.8464080978
 21
168.9562840178
 31
0.0
 40
0.7023269622
 41
-4.241445895
 42
-4.2339600732
  0
ELLIPSE
  5
521
100
AcDbEntity
  8
0
100
AcDbEllipse
 62
250
  6
CONTINUOUS
 10
114.5891925232
 20
80.2670398471
 30
0.0
 11
30.4147628249
 21
169.8119089774
 31
0.0
 40
0.7046298028
 41
-4.2539391307
 42
-4.245740158
  0
ELLIPSE
  5
522
100
AcDbEntity
  8
0
100
AcDbEllipse
 62
250
  6
CONTINUOUS
 10
93.0049131428
 20
92.7295322468
 30
0.0
 11
269.5153477517
 21
28.728544924
 31
0.0
 40
0.2304454275
 41
-1.9720666059
 42
-1.9713534092
  0
ELLIPSE
  5
523
100
AcDbEntity
  8
0
100
AcDbEllipse
 62
250
  6
CONTINUOUS
 10
104.3905222236
 20
86.1556242587
 30
0.0
 11
152.9960409622
 21
104.8451705499
 31
0.0
 40
0.0837712528
 41
2.3162352298
 42
2.3176617379
  0
ELLIPSE
  5
524
100
AcDbEntity
  8
0
100
AcDbEllipse
 62
250
  6
CONTINUOUS
 10
108.2545236402
 20
83.9245982681
 30
0.0
 11
122.1032431809
 21
122.1403601987
 31
0.0
 40
0.3180179059
 41
-3.9231460942
 42
-3.9220761047
  0
ELLIPSE
  5
525
100
AcDbEntity
  8
0
100
AcDbEllipse
 62
250
  6
CONTINUOUS
 10
111.3868748456
 20
82.1160179396
 30
0.0
 11
93.7816336518
 21
139.0602965502
 31
0.0
 40
0.5249642588
 41
-3.9728823516
 42
-3.9714555498
  0
ELLIPSE
  5
526
100
AcDbEntity
  8
0
100
AcDbEllipse
 62
250
  6
CONTINUOUS
 10
114.5742660604
 20
80.2756581996
 30
0.0
 11
43.5069698887
 21
164.9035012031
 31
0.0
 40
0.6893988048
 41
-4.1960226038
 42
-4.194952401
  0
ELLIPSE
  5
527
100
AcDbEntity
  8
0
100
AcDbEllipse
 62
250
  6
CONTINUOUS
 10
118.6099040799
 20
77.9455313856
 30
0.0
 11
-56.7378376742
 21
189.5072070011
 31
0.0
 40
0.681169693
 41
-4.6373949057
 42
-4.635967807
  0
ELLIPSE
  5
528
100
AcDbEntity
  8
0
100
AcDbEllipse
 62
250
  6
CONTINUOUS
 10
124.3559316443
 20
74.6278470846
 30
0.0
 11
-148.8570529486
 21
217.0406198145
 31
0.0
 40
0.5183116761
 41
1.4444036242
 42
1.445474059
  0
ELLIPSE
  5
529
100
AcDbEntity
  8
0
100
AcDbEllipse
 62
250
  6
CONTINUOUS
 10
160.928042158
 20
53.5115688301
 30
0.0
 11
575.9883410307
 21
-459.7029806262
 31
0.0
 40
0.1731119233
 41
-1.7250518019
 42
-1.7246949703
  0
ELLIPSE
  5
52A
100
AcDbEntity
  8
0
100
AcDbEllipse
 62
250
  6
CONTINUOUS
 10
109.8620319097
 20
82.9964431401
 30
0.0
 11
93.7814256506
 21
139.0604214378
 31
0.0
 40
0.524965471
 41
-3.9768075958
 42
-3.9600475592
  0
ELLIPSE
  5
52B
100
AcDbEntity
  8
0
100
AcDbEllipse
 62
250
  6
CONTINUOUS
 10
83.319047343
 20
98.3220297672
 30
0.0
 11
377.0466644618
 21
-47.5512593942
 31
0.0
 40
0.2269618914
 41
-1.7820833616
 42
-1.7817267311
  0
ELLIPSE
  5
52C
100
AcDbEntity
  8
0
100
AcDbEllipse
 62
250
  6
CONTINUOUS
 10
101.7837109946
 20
87.6607643913
 30
0.0
 11
173.0836342077
 21
93.373392027
 31
0.0
 40
0.0279357855
 41
-2.2592993501
 42
-2.2585860525
  0
ELLIPSE
  5
52D
100
AcDbEntity
  8
0
100
AcDbEllipse
 62
250
  6
CONTINUOUS
 10
107.9934889561
 20
84.0753164231
 30
0.0
 11
122.103420061
 21
122.1402580623
 31
0.0
 40
0.3180164536
 41
-3.9235027755
 42
-3.9224327611
  0
ELLIPSE
  5
52E
100
AcDbEntity
  8
0
100
AcDbEllipse
 62
250
  6
CONTINUOUS
 10
111.1396156682
 20
82.2587822898
 30
0.0
 11
93.7814598123
 21
139.0604009266
 31
0.0
 40
0.5249652719
 41
-3.9728829169
 42
-3.9718127969
  0
ELLIPSE
  5
52F
100
AcDbEntity
  8
0
100
AcDbEllipse
 62
250
  6
CONTINUOUS
 10
114.326990819
 20
80.4184318249
 30
0.0
 11
43.5069698887
 21
164.9035012031
 31
0.0
 40
0.6893988048
 41
-4.1960226038
 42
-4.194952401
  0
ELLIPSE
  5
530
100
AcDbEntity
  8
0
100
AcDbEllipse
 62
250
  6
CONTINUOUS
 10
120.7839737063
 20
76.6902508308
 30
0.0
 11
-101.7145514237
 21
199.7496793835
 31
0.0
 40
0.6093615153
 41
1.5185300819
 42
1.5192436096
  0
ELLIPSE
  5
531
100
AcDbEntity
  8
0
100
AcDbEllipse
 62
250
  6
CONTINUOUS
 10
140.3202368525
 20
65.4102573371
 30
0.0
 11
346.1226067412
 21
-324.6715108661
 31
0.0
 40
0.2767011407
 41
-1.7390182376
 42
-1.7386614606
  0
ELLIPSE
  5
532
100
AcDbEntity
  8
0
100
AcDbEllipse
 62
250
  6
CONTINUOUS
 10
110.1093086211
 20
82.853668666
 30
0.0
 11
93.7814035827
 21
139.0604346878
 31
0.0
 40
0.5249655997
 41
-3.9750236074
 42
-3.9696730372
  0
ELLIPSE
  5
533
100
AcDbEntity
  8
0
100
AcDbEllipse
 62
250
  6
CONTINUOUS
 10
109.5323523813
 20
83.1867959679
 30
0.0
 11
93.7812156846
 21
139.0605475051
 31
0.0
 40
0.5249666948
 41
-3.9768082786
 42
-3.9746674414
  0
ELLIPSE
  5
534
100
AcDbEntity
  8
0
100
AcDbEllipse
 62
250
  6
CONTINUOUS
 10
108.2959578747
 20
83.9006746604
 30
0.0
 11
93.7814245244
 21
139.060422114
 31
0.0
 40
0.5249654776
 41
-3.9746667623
 42
-3.9700295996
  0
ELLIPSE
  5
535
100
AcDbEntity
  8
0
100
AcDbEllipse
 62
250
  6
CONTINUOUS
 10
109.3674742671
 20
83.2819945246
 30
0.0
 11
93.7815115889
 21
139.060369839
 31
0.0
 40
0.5249649702
 41
-3.9700293165
 42
-3.967889672
  0
ELLIPSE
  5
536
100
AcDbEntity
  8
0
100
AcDbEllipse
 62
250
  6
CONTINUOUS
 10
108.2959658842
 20
83.9006700358
 30
0.0
 11
93.7813298849
 21
139.0604789373
 31
0.0
 40
0.5249660292
 41
-3.9678902629
 42
-3.962186259
  0
ELLIPSE
  5
537
100
AcDbEntity
  8
0
100
AcDbEllipse
 62
250
  6
CONTINUOUS
 10
109.5323253502
 20
83.1868115753
 30
0.0
 11
93.7815115889
 21
139.060369839
 31
0.0
 40
0.5249649702
 41
-3.9621856681
 42
-3.9600472797
  0
ELLIPSE
  5
538
100
AcDbEntity
  8
0
100
AcDbEllipse
 62
250
  6
CONTINUOUS
 10
108.0486827323
 20
84.0434482285
 30
0.0
 11
93.7814256506
 21
139.0604214378
 31
0.0
 40
0.524965471
 41
-3.9768075958
 42
-3.9600475592
  0
ELLIPSE
  5
539
100
AcDbEntity
  8
0
100
AcDbEllipse
 62
250
  6
CONTINUOUS
 10
106.1529130863
 20
85.1380418625
 30
0.0
 11
93.7813828721
 21
139.0604471228
 31
0.0
 40
0.5249657204
 41
-3.9768077349
 42
-3.9750236747
  0
ELLIPSE
  5
53A
100
AcDbEntity
  8
0
100
AcDbEllipse
 62
250
  6
CONTINUOUS
 10
107.7189870223
 20
84.2338103994
 30
0.0
 11
93.7813828721
 21
139.0604471228
 31
0.0
 40
0.5249657204
 41
-3.9768077349
 42
-3.9750236747
  0
ELLIPSE
  5
53B
100
AcDbEntity
  8
0
100
AcDbEllipse
 62
250
  6
CONTINUOUS
 10
107.0595867907
 20
84.6145398289
 30
0.0
 11
93.7813884713
 21
139.060443761
 31
0.0
 40
0.5249656877
 41
-3.9750236565
 42
-3.9600476801
  0
ELLIPSE
  5
53C
100
AcDbEntity
  8
0
100
AcDbEllipse
 62
250
  6
CONTINUOUS
 10
106.8123082492
 20
84.7573153597
 30
0.0
 11
93.7814307433
 21
139.0604183801
 31
0.0
 40
0.5249654414
 41
-3.9750235191
 42
-3.9600475426
  0
ELLIPSE
  5
53D
100
AcDbEntity
  8
0
100
AcDbEllipse
 62
250
  6
CONTINUOUS
 10
106.6476022587
 20
84.8524145343
 30
0.0
 11
59.868152393
 21
157.6785405544
 31
0.0
 40
0.6584582487
 41
-4.1087558034
 42
-4.1073298058
  0
ELLIPSE
  5
53E
100
AcDbEntity
  8
0
100
AcDbEllipse
 62
250
  6
CONTINUOUS
 10
110.2196788023
 20
82.7899423067
 30
0.0
 11
-38.3857388891
 21
186.2700464849
 31
0.0
 40
0.7004394024
 41
-4.5580361462
 42
-4.5569667455
  0
ELLIPSE
  5
53F
100
AcDbEntity
  8
0
100
AcDbEllipse
 62
250
  6
CONTINUOUS
 10
117.260697359
 20
78.7245464367
 30
0.0
 11
-170.0852683798
 21
226.8002976472
 31
0.0
 40
0.4795792654
 41
1.440165599
 42
1.4408784883
  0
ELLIPSE
  5
540
100
AcDbEntity
  8
0
100
AcDbEllipse
 62
250
  6
CONTINUOUS
 10
138.177862361
 20
66.6472375182
 30
0.0
 11
461.0224715011
 21
-392.132382677
 31
0.0
 40
0.2133871896
 41
-1.7189325996
 42
-1.7185761718
  0
ELLIPSE
  5
541
100
AcDbEntity
  8
0
100
AcDbEllipse
 62
250
  6
CONTINUOUS
 10
71.9435765092
 20
104.8900840584
 30
0.0
 11
488.0738691873
 21
-120.9774792929
 31
0.0
 40
0.1923204037
 41
-1.6960155631
 42
-1.6956591353
  0
ELLIPSE
  5
542
100
AcDbEntity
  8
0
100
AcDbEllipse
 62
250
  6
CONTINUOUS
 10
92.8608976255
 20
92.8126850015
 30
0.0
 11
218.7221939969
 21
64.4788583997
 31
0.0
 40
0.1731833699
 41
-2.1207090962
 42
-2.1199962069
  0
ELLIPSE
  5
543
100
AcDbEntity
  8
0
100
AcDbEllipse
 62
250
  6
CONTINUOUS
 10
102.7183133976
 20
87.1211366772
 30
0.0
 11
122.1032431809
 21
122.1403601987
 31
0.0
 40
0.3180179059
 41
-3.9160145332
 42
-3.9149451326
  0
ELLIPSE
  5
544
100
AcDbEntity
  8
0
100
AcDbEllipse
 62
250
  6
CONTINUOUS
 10
104.1086173042
 20
86.3183926261
 30
0.0
 11
111.8096486368
 21
128.1862343107
 31
0.0
 40
0.4008852251
 41
-3.9225097897
 42
-3.9207274998
  0
ELLIPSE
  5
545
100
AcDbEntity
  8
0
100
AcDbEllipse
 62
250
  6
CONTINUOUS
 10
97.4151854192
 20
90.1830963081
 30
0.0
 11
173.0836582371
 21
93.3733779052
 31
0.0
 40
0.0279358986
 41
-2.2682121589
 42
-2.2667864963
  0
ELLIPSE
  5
546
100
AcDbEntity
  8
0
100
AcDbEllipse
 62
250
  6
CONTINUOUS
 10
89.2132802283
 20
94.9187735713
 30
0.0
 11
269.5162448436
 21
28.7278983642
 31
0.0
 40
0.230445878
 41
-1.9799069989
 42
-1.9791942188
  0
ELLIPSE
  5
547
100
AcDbEntity
  8
0
100
AcDbEllipse
 62
250
  6
CONTINUOUS
 10
64.8543450177
 20
108.9833174727
 30
0.0
 11
600.953393456
 21
-191.800521793
 31
0.0
 40
0.1620319101
 41
-1.6474247936
 42
-1.64706842
  0
ELLIPSE
  5
548
100
AcDbEntity
  8
0
100
AcDbEllipse
 62
250
  6
CONTINUOUS
 10
145.2670976355
 20
62.5540019197
 30
0.0
 11
575.9863670803
 21
-459.7018216395
 31
0.0
 40
0.173112487
 41
-1.708648271
 42
-1.7082918974
  0
ELLIPSE
  5
549
100
AcDbEntity
  8
0
100
AcDbEllipse
 62
250
  6
CONTINUOUS
 10
120.9083139255
 20
76.6184583466
 30
0.0
 11
-230.283473573
 21
258.2516823488
 31
0.0
 40
0.388116916
 41
1.4196297375
 42
1.4203425176
  0
ELLIPSE
  5
54A
100
AcDbEntity
  8
0
100
AcDbEllipse
 62
250
  6
CONTINUOUS
 10
112.7063673972
 20
81.3541594775
 30
0.0
 11
-101.7151532253
 21
199.749854478
 31
0.0
 40
0.6093603887
 41
1.5306531618
 42
1.5320788243
  0
ELLIPSE
  5
54B
100
AcDbEntity
  8
0
100
AcDbEllipse
 62
250
  6
CONTINUOUS
 10
108.5229573654
 20
83.7696079994
 30
0.0
 11
3.2071651049
 21
177.8377483001
 31
0.0
 40
0.7173128606
 41
-4.3786052693
 42
-4.3771794536
  0
ELLIPSE
  5
54C
100
AcDbEntity
  8
0
100
AcDbEllipse
 62
250
  6
CONTINUOUS
 10
105.9634951778
 20
85.2474093889
 30
0.0
 11
68.2779962659
 21
153.4826246162
 31
0.0
 40
0.6356972842
 41
-4.0693180253
 42
-4.0675355534
  0
ELLIPSE
  5
54D
100
AcDbEntity
  8
0
100
AcDbEllipse
 62
250
  6
CONTINUOUS
 10
104.2159149879
 20
86.2564402882
 30
0.0
 11
93.7815115889
 21
139.060369839
 31
0.0
 40
0.5249649702
 41
-3.9710992753
 42
-3.9657503834
  0
ELLIPSE
  5
54E
100
AcDbEntity
  8
0
100
AcDbEllipse
 62
250
  6
CONTINUOUS
 10
102.3447537621
 20
87.3368253289
 30
0.0
 11
111.809372219
 21
128.1863992339
 31
0.0
 40
0.4008873755
 41
-3.9310685038
 42
-3.9292850305
  0
ELLIPSE
  5
54F
100
AcDbEntity
  8
0
100
AcDbEllipse
 62
250
  6
CONTINUOUS
 10
99.4761371994
 20
88.99312858
 30
0.0
 11
134.3545797076
 21
115.1945301141
 31
0.0
 40
0.2185155878
 41
2.3489917782
 42
2.3504187425
  0
ELLIPSE
  5
550
100
AcDbEntity
  8
0
100
AcDbEllipse
 62
250
  6
CONTINUOUS
 10
94.6127376215
 20
91.8011945435
 30
0.0
 11
173.0836582371
 21
93.3733779052
 31
0.0
 40
0.0279358986
 41
-2.2550188794
 42
-2.2535917436
  0
ELLIPSE
  5
551
100
AcDbEntity
  8
0
100
AcDbEllipse
 62
250
  6
CONTINUOUS
 10
84.7210487624
 20
97.5125317188
 30
0.0
 11
269.517141936
 21
28.7272518037
 31
0.0
 40
0.2304463284
 41
-1.9645715973
 42
-1.9638579612
  0
ELLIPSE
  5
552
100
AcDbEntity
  8
0
100
AcDbEllipse
 62
250
  6
CONTINUOUS
 10
54.7986136128
 20
114.789370758
 30
0.0
 11
600.9514462195
 21
-191.7993213141
 31
0.0
 40
0.1620323673
 41
-1.631022249
 42
-1.6306654175
  0
ELLIPSE
  5
553
100
AcDbEntity
  8
0
100
AcDbEllipse
 62
250
  6
CONTINUOUS
 10
155.3231447006
 20
56.7477663762
 30
0.0
 11
575.9883410307
 21
-459.7029806262
 31
0.0
 40
0.1731119233
 41
-1.7250518019
 42
-1.7246949703
  0
ELLIPSE
  5
554
100
AcDbEntity
  8
0
100
AcDbEllipse
 62
250
  6
CONTINUOUS
 10
125.4004678248
 20
74.024744985
 30
0.0
 11
-230.283473573
 21
258.2516823488
 31
0.0
 40
0.388116916
 41
1.4042956861
 42
1.4050093222
  0
ELLIPSE
  5
555
100
AcDbEntity
  8
0
100
AcDbEllipse
 62
250
  6
CONTINUOUS
 10
115.5088564001
 20
79.7360374506
 30
0.0
 11
-101.7158281359
 21
199.7500508451
 31
0.0
 40
0.6093591253
 41
1.5174569474
 42
1.5188840831
  0
ENDSEC
  0
SECTION
  2
OBJECTS
  0
DICTIONARY
  5
C
100
AcDbDictionary
280
0
281
1
  3
ACAD_GROUP
350
D
  3
ACAD_MLINESTYLE
350
17
  3
ACAD_LAYOUT
350
1A
  3
ACAD_PLOTSETTINGS
350
19
  3
ACAD_PLOTSTYLENAME
350
E
  0
DICTIONARY
  5
D
102
{ACAD_REACTORS
330
C
102
}
100
AcDbDictionary
280
0
281
1
  0
ACDBDICTIONARYWDFLT
  5
E
102
{ACAD_REACTORS
330
C
102
}
100
AcDbDictionary
281
1
  3
Normal
350
F
100
AcDbDictionaryWithDefault
340
F
  0
DICTIONARY
  5
17
102
{ACAD_REACTORS
330
C
102
}
100
AcDbDictionary
280
0
281
1
  3
Standard
350
18
  0
DICTIONARY
  5
19
102
{ACAD_REACTORS
330
C
102
}
100
AcDbDictionary
281
1
  0
DICTIONARY
  5
1A
102
{ACAD_REACTORS
330
C
102
}
100
AcDbDictionary
281
1
  3
Model
350
556
  3
Layout1
350
557
  0
ACDBPLACEHOLDER
  5
F
102
{ACAD_REACTORS
330
E
102
}
  0
MLINESTYLE
  5
18
102
{ACAD_REACTORS
330
17
102
}
100
AcDbMlineStyle
  2
STANDARD
 70
0
  3

 62
256
 51
90.0
 52
90.0
 71
2
 49
0.5
 62
256
  6
BYLAYER
 49
-0.5
 62
256
  6
BYLAYER
  0
LAYOUT
  5
556
102
{ACAD_REACTORS
330
1A
102
}
100
AcDbPlotSettings
  1

  2
none_device
  4
ISO_A4_(297.00_x_210.00_MM)
  6

 40
0.0
 41
0.0
 42
0.0
 43
0.0
 44
297.0
 45
210.0
 46
0.0
 47
0.0
 48
0.0
 49
0.0
140
0.0
141
0.0
142
1.0
143
1.0
 70
1024
 72
1
 73
0
 74
0
  7

 75
0
147
1.0
148
0.0
149
0.0
100
AcDbLayout
  1
Model
 70
0
 71
0
 10
0.0
 20
0.0
 11
297.0
 21
210.0
 12
0.0
 22
0.0
 32
0.0
 14
0.0
 24
0.0
 34
0.0
 15
0.0
 25
0.0
 35
0.0
146
0.0
 13
0.0
 23
0.0
 33
0.0
 16
1.0
 26
0.0
 36
0.0
 17
0.0
 27
1.0
 37
0.0
 76
0
330
215
345
0
346
0
  0
LAYOUT
  5
557
102
{ACAD_REACTORS
330
1A
102
}
100
AcDbPlotSettings
  1

  2
none_device
  4
ISO_A4_(297.00_x_210.00_MM)
  6

 40
0.0
 41
0.0
 42
0.0
 43
0.0
 44
297.0
 45
210.0
 46
0.0
 47
0.0
 48
0.0
 49
0.0
140
0.0
141
0.0
142
1.0
143
1.0
 70
0
 72
1
 73
0
 74
0
  7

 75
0
147
1.0
148
0.0
149
0.0
100
AcDbLayout
  1
Layout1
 70
0
 71
1
 10
0.0
 20
0.0
 11
297.0
 21
210.0
 12
0.0
 22
0.0
 32
0.0
 14
0.0
 24
0.0
 34
0.0
 15
0.0
 25
0.0
 35
0.0
146
0.0
 13
0.0
 23
0.0
 33
0.0
 16
1.0
 26
0.0
 36
0.0
 17
0.0
 27
1.0
 37
0.0
 76
0
330
216
345
0
346
0
  0
ENDSEC
  0
EOF
