  0
SECTION
  2
HEADER
  9
$ACADVER
  1
AC1021
  9
$DWGCODEPAGE
  3
ANSI_1252
  9
$EXTMAX
 10
297.0
 20
210.0
 30
0.0
  9
$EXTMIN
 10
0.0
 20
0.0
 30
0.0
  9
$LIMMIN
 10
0.0
 20
0.0
  9
$LIMMAX
 10
297.0
 20
210.0
  9
$VIEWCTR
 10
148.5
 20
105.0
  9
$VIEWSIZE
 40
210.0
  9
$CLAYER
  8
0
  9
$LTSCALE
 40
16.335
  9
$CELTYPE
  6
BYLAYER
  9
$DIMSCALE
 40
1.0
  9
$DIMASZ
 40
3.0
  9
$DIMEXO
 40
0.5
  9
$DIMDLI
 40
11.286
  9
$DIMEXE
 40
1.5
  9
$DIMCEN
 40
2.673
  9
$DIMLFAC
 40
1.0
  9
$DIMBLK
  1
_FILLED
  9
$DIMALT
 70
0
  9
$DIMALTF
 40
25.4
  9
$DIMTXT
 40
3.0
  9
$DIMTOL
 70
1
  9
$DIMLIM
 70
0
  9
$DIMTFAC
 40
1.0
  9
$DIMTP
 40
0.01
  9
$DIMTM
 40
0.01
  9
$DIMGAP
 40
0.625
  9
$DIMDSEP
 70
44
  9
$AUNITS
 70
0
  9
$PDMODE
 70
3
  9
$PDSIZE
 40
3.0
  9
$HANDSEED
  5
81D
  9
$TILEMODE
 70
1
  9
$MEASUREMENT
 70
1
  9
$INSUNITS
 70
4
  0
ENDSEC
  0
SECTION
  2
CLASSES
  0
CLASS
  1
ACDBDICTIONARYWDFLT
  2
AcDbDictionaryWithDefault
  3
AutoCAD 2000
 90
0
 91
1
280
0
281
0
  0
CLASS
  1
ACDBPLACEHOLDER
  2
AcDbPlaceHolder
  3
AutoCAD 2000
 90
0
 91
1
280
0
281
0
  0
CLASS
  1
LAYOUT
  2
AcDbLayout
  3
AutoCAD 2000
 90
0
 91
0
280
0
281
0
  0
ENDSEC
  0
SECTION
  2
TABLES
  0
TABLE
  2
VPORT
  5
8
100
AcDbSymbolTable
 70
2
  0
VPORT
  5
1F4
100
AcDbSymbolTableRecord
100
AcDbViewportTableRecord
  2
*ACTIVE
 70
0
 10
0.0
 20
0.0
 11
1.0
 21
1.0
 12
148.5
 22
105.0
 13
0.0
 23
0.0
 14
1.0
 24
1.0
 15
0.0
 25
0.0
 16
0.0
 26
0.0
 36
1.0
 17
0.0
 27
0.0
 37
0.0
 40
210.0
 41
1.4142857143
 42
50.0
 43
0.0
 44
0.0
 50
0.0
 51
0.0
 71
0
 72
100
 73
1
 74
1
 75
0
 76
0
 77
0
 78
0
  0
ENDTAB
  0
TABLE
  2
LTYPE
  5
5
100
AcDbSymbolTable
 70
6
  0
LTYPE
  5
14
100
AcDbSymbolTableRecord
100
AcDbLinetypeTableRecord
  2
BYBLOCK
 70
0
  3

 72
65
 73
0
 40
0.0
  0
LTYPE
  5
15
100
AcDbSymbolTableRecord
100
AcDbLinetypeTableRecord
  2
BYLAYER
 70
0
  3

 72
65
 73
0
 40
0.0
  0
LTYPE
  5
16
100
AcDbSymbolTableRecord
100
AcDbLinetypeTableRecord
  2
CONTINUOUS
 70
64
  3
Solid line
 72
65
 73
0
 40
0.0
  0
LTYPE
  5
1F5
100
AcDbSymbolTableRecord
100
AcDbLinetypeTableRecord
  2
CENTER
 70
64
  3
____ _ ____ _ ____ _ ____ _ ____ _ ____ _ ____
 72
65
 73
4
 40
0.6
 49
0.375
 74
0
 49
-0.075
 74
0
 49
0.075
 74
0
 49
-0.075
 74
0
  0
LTYPE
  5
1F6
100
AcDbSymbolTableRecord
100
AcDbLinetypeTableRecord
  2
HIDDEN
 70
64
  3
- - - - - - - - - - - - - - - - - - - -
 72
65
 73
2
 40
0.2
 49
0.1
 74
0
 49
-0.1
 74
0
  0
LTYPE
  5
1F7
100
AcDbSymbolTableRecord
100
AcDbLinetypeTableRecord
  2
PHANTOM
 70
64
  3
_____ _ _ _____ _ _ _____ _ _ _____
 72
65
 73
6
 40
0.8
 49
0.45
 74
0
 49
-0.05
 74
0
 49
0.1
 74
0
 49
-0.05
 74
0
 49
0.1
 74
0
 49
-0.05
 74
0
  0
LTYPE
  5
1F8
100
AcDbSymbolTableRecord
100
AcDbLinetypeTableRecord
  2
DOT
 70
64
  3
. . . . . . . . . . . . . . . . . . . .
 72
65
 73
2
 40
0.2
 49
0.1
 74
0
 49
-0.1
 74
0
  0
LTYPE
  5
1F9
100
AcDbSymbolTableRecord
100
AcDbLinetypeTableRecord
  2
DASHED
 70
64
  3
- - - - - - - - - - - - - - - - - - - -
 72
65
 73
2
 40
0.2
 49
0.1
 74
0
 49
-0.1
 74
0
  0
ENDTAB
  0
TABLE
  2
LAYER
  5
2
100
AcDbSymbolTable
 70
36
  0
LAYER
  5
10
100
AcDbSymbolTableRecord
100
AcDbLayerTableRecord
  2
0
 70
0
 62
7
  6
CONTINUOUS
370
-3
390
F
  0
LAYER
  5
1FA
100
AcDbSymbolTableRecord
100
AcDbLayerTableRecord
  2
DEFAULT_1
 70
0
 62
7
  6
CENTER
370
-3
390
F
  0
LAYER
  5
1FB
100
AcDbSymbolTableRecord
100
AcDbLayerTableRecord
  2
DEFAULT_2
 70
0
 62
7
  6
HIDDEN
370
-3
390
F
  0
LAYER
  5
1FC
100
AcDbSymbolTableRecord
100
AcDbLayerTableRecord
  2
DEFAULT_3
 70
0
 62
7
  6
PHANTOM
370
-3
390
F
  0
LAYER
  5
1FD
100
AcDbSymbolTableRecord
100
AcDbLayerTableRecord
  2
ASSI
 70
0
 62
7
  6
CONTINUOUS
370
-3
390
F
  0
LAYER
  5
1FE
100
AcDbSymbolTableRecord
100
AcDbLayerTableRecord
  2
COORDINATE
 70
0
 62
7
  6
CONTINUOUS
370
-3
390
F
  0
LAYER
  5
1FF
100
AcDbSymbolTableRecord
100
AcDbLayerTableRecord
  2
COPY_PUBLISH
 70
0
 62
7
  6
CONTINUOUS
370
-3
390
F
  0
LAYER
  5
200
100
AcDbSymbolTableRecord
100
AcDbLayerTableRecord
  2
COSMETIC
 70
0
 62
7
  6
CONTINUOUS
370
-3
390
F
  0
LAYER
  5
201
100
AcDbSymbolTableRecord
100
AcDbLayerTableRecord
  2
COSMETICI
 70
0
 62
7
  6
CONTINUOUS
370
-3
390
F
  0
LAYER
  5
202
100
AcDbSymbolTableRecord
100
AcDbLayerTableRecord
  2
CURVE
 70
0
 62
7
  6
CONTINUOUS
370
-3
390
F
  0
LAYER
  5
203
100
AcDbSymbolTableRecord
100
AcDbLayerTableRecord
  2
DRAFT
 70
0
 62
7
  6
CONTINUOUS
370
-3
390
F
  0
LAYER
  5
204
100
AcDbSymbolTableRecord
100
AcDbLayerTableRecord
  2
IMPORT_IGES
 70
0
 62
7
  6
CONTINUOUS
370
-3
390
F
  0
LAYER
  5
205
100
AcDbSymbolTableRecord
100
AcDbLayerTableRecord
  2
INTFCLR_1
 70
0
 62
7
  6
CONTINUOUS
370
-3
390
F
  0
LAYER
  5
206
100
AcDbSymbolTableRecord
100
AcDbLayerTableRecord
  2
NOTE
 70
0
 62
7
  6
CONTINUOUS
370
-3
390
F
  0
LAYER
  5
207
100
AcDbSymbolTableRecord
100
AcDbLayerTableRecord
  2
PIANI
 70
0
 62
7
  6
CONTINUOUS
370
-3
390
F
  0
LAYER
  5
208
100
AcDbSymbolTableRecord
100
AcDbLayerTableRecord
  2
PUNTI
 70
0
 62
7
  6
CONTINUOUS
370
-3
390
F
  0
LAYER
  5
209
100
AcDbSymbolTableRecord
100
AcDbLayerTableRecord
  2
RACCORDO
 70
0
 62
7
  6
CONTINUOUS
370
-3
390
F
  0
LAYER
  5
20A
100
AcDbSymbolTableRecord
100
AcDbLayerTableRecord
  2
SIMBOLI
 70
0
 62
7
  6
CONTINUOUS
370
-3
390
F
  0
LAYER
  5
20B
100
AcDbSymbolTableRecord
100
AcDbLayerTableRecord
  2
SMUSSO
 70
0
 62
7
  6
CONTINUOUS
370
-3
390
F
  0
LAYER
  5
20C
100
AcDbSymbolTableRecord
100
AcDbLayerTableRecord
  2
SNAPLINE
 70
0
 62
7
  6
CONTINUOUS
370
-3
390
F
  0
LAYER
  5
20D
100
AcDbSymbolTableRecord
100
AcDbLayerTableRecord
  2
SUPERFICI
 70
0
 62
7
  6
CONTINUOUS
370
-3
390
F
  0
LAYER
  5
20E
100
AcDbSymbolTableRecord
100
AcDbLayerTableRecord
  2
TRASH
 70
0
 62
7
  6
CONTINUOUS
370
-3
390
F
  0
LAYER
  5
20F
100
AcDbSymbolTableRecord
100
AcDbLayerTableRecord
  2
XSEC_DATUMS
 70
0
 62
7
  6
CONTINUOUS
370
-3
390
F
  0
ENDTAB
  0
TABLE
  2
STYLE
  5
3
100
AcDbSymbolTable
 70
1
  0
STYLE
  5
11
100
AcDbSymbolTableRecord
100
AcDbTextStyleTableRecord
  2
STANDARD
 70
0
 40
0.0
 41
0.8
 50
0.0
 71
0
 42
0.2
  3
txt
  4

  0
STYLE
  5
210
100
AcDbSymbolTableRecord
100
AcDbTextStyleTableRecord
  2
TEXTSTYLE_1
 70
0
 40
0.0
 41
0.8
 50
0.0
 71
0
 42
0.2
  3
gdt
  4

  0
ENDTAB
  0
TABLE
  2
VIEW
  5
6
100
AcDbSymbolTable
 70
0
  0
ENDTAB
  0
TABLE
  2
UCS
  5
7
100
AcDbSymbolTable
 70
0
  0
ENDTAB
  0
TABLE
  2
APPID
  5
9
100
AcDbSymbolTable
 70
1
  0
APPID
  5
211
100
AcDbSymbolTableRecord
100
AcDbRegAppTableRecord
  2
ACAD
 70
0
  0
ENDTAB
  0
TABLE
  2
BLOCK_RECORD
  5
1
100
AcDbSymbolTable
 70
0
  0
BLOCK_RECORD
  5
212
100
AcDbSymbolTableRecord
100
AcDbBlockTableRecord
  2
*Model_Space
  0
BLOCK_RECORD
  5
213
100
AcDbSymbolTableRecord
100
AcDbBlockTableRecord
  2
*Paper_Space
  0
BLOCK_RECORD
  5
214
100
AcDbSymbolTableRecord
100
AcDbBlockTableRecord
  2
_FILLED
  0
ENDTAB
  0
TABLE
  2
DIMSTYLE
  5
A
100
AcDbSymbolTable
 70
1
100
AcDbDimStyleTable
 71
0
  0
DIMSTYLE
105
215
100
AcDbSymbolTableRecord
100
AcDbDimStyleTableRecord
  2
STANDARD
 70
0
  3

  4

 40
1.0
 41
3.0
 42
0.5
 43
0.38
 44
1.5
 45
0.0
 46
0.0
 47
0.01
 48
0.01
140
3.0
141
0.09
142
0.0
143
25.4
144
1.0
145
0.0
146
1.0
147
0.625
 71
1.0
 72
0.0
 73
0
 74
0
 75
0
 76
0
 77
1
 78
8
 79
2
170
0
171
1
172
0
173
0
174
0
175
0
176
0
177
0
178
0
270
2
179
2
271
2
272
2
273
2
274
2
275
0
280
0
281
0
282
0
283
1
284
8
285
0
286
0
287
3
288
0
340
11
278
44
341
214
342
214
343
214
344
214
  0
ENDTAB
  0
ENDSEC
  0
SECTION
  2
BLOCKS
  0
BLOCK
  5
20
100
AcDbEntity
  8
0
100
AcDbBlockBegin
  2
*Model_Space
 70
0
 10
0.0
 20
0.0
 30
0.0
  3
*Model_Space
  1

  0
ENDBLK
  5
21
100
AcDbEntity
  8
0
100
AcDbBlockEnd
  0
BLOCK
  5
1C
100
AcDbEntity
  8
0
100
AcDbBlockBegin
  2
*Paper_Space
 70
0
 10
0.0
 20
0.0
 30
0.0
  3
*Paper_Space
  1

  0
ENDBLK
  5
1D
100
AcDbEntity
  8
0
100
AcDbBlockEnd
  0
BLOCK
  5
216
100
AcDbEntity
  8
0
100
AcDbBlockBegin
  2
_FILLED
 70
64
 10
0.0
 20
0.0
  3
_FILLED
  1

  0
SOLID
  5
217
100
AcDbEntity
  8
0
  6
BYBLOCK
 62
0
100
AcDbTrace
 10
0.0
 20
0.0
 11
-1.0
 21
0.1333333333
 12
-1.0
 22
-0.1333333333
 13
-1.0
 23
-0.1333333333
  0
ENDBLK
  5
218
100
AcDbEntity
  8
0
  6
BYBLOCK
 62
0
100
AcDbBlockEnd
  0
ENDSEC
  0
SECTION
  2
ENTITIES
  0
LINE
  5
219
100
AcDbEntity
  8
0
100
AcDbLine
 62
7
  6
CONTINUOUS
 10
2.9160234664
 20
-22.7330700607
 11
2.9179839458
 21
-22.7513090904
  0
LINE
  5
21A
100
AcDbEntity
  8
0
100
AcDbLine
 62
7
  6
CONTINUOUS
 10
3.1930839376
 20
-22.9663439749
 11
3.1965501891
 21
-23.0002322737
  0
LINE
  5
21B
100
AcDbEntity
  8
RACCORDO
100
AcDbLine
 62
7
  6
CONTINUOUS
 10
-51.069850569
 20
4.3938779564
 11
-50.8879786696
 21
2.5807888936
  0
LINE
  5
21C
100
AcDbEntity
  8
RACCORDO
100
AcDbLine
 62
7
  6
CONTINUOUS
 10
-51.1584750086
 20
4.5229164327
 11
-50.9752680101
 21
2.6960337029
  0
LINE
  5
21D
100
AcDbEntity
  8
RACCORDO
100
AcDbLine
 62
7
  6
CONTINUOUS
 10
-51.3188215083
 20
6.3673842194
 11
-51.1584750086
 21
4.5229164327
  0
LINE
  5
21E
100
AcDbEntity
  8
RACCORDO
100
AcDbLine
 62
7
  6
CONTINUOUS
 10
-51.2292032165
 20
6.2243653611
 11
-51.069850569
 21
4.3938779564
  0
LINE
  5
21F
100
AcDbEntity
  8
0
100
AcDbLine
 62
7
  6
CONTINUOUS
 10
-2.6130728138
 20
-21.0487498679
 11
-2.6691809873
 21
-20.3194874306
  0
LINE
  5
220
100
AcDbEntity
  8
0
100
AcDbLine
 62
7
  6
CONTINUOUS
 10
2.0780884153
 20
-23.7573678315
 11
2.0226172506
 21
-23.0366775963
  0
LINE
  5
221
100
AcDbEntity
  8
0
100
AcDbLine
 62
7
  6
CONTINUOUS
 10
2.3831901284
 20
-24.0564837225
 11
2.3282878051
 21
-23.3427471108
  0
LINE
  5
222
100
AcDbEntity
  8
0
100
AcDbLine
 62
7
  6
CONTINUOUS
 10
-2.7195472289
 20
-21.1102268608
 11
-2.775604817
 21
-20.3809345938
  0
LINE
  5
223
100
AcDbEntity
  8
0
100
AcDbLine
 62
7
  6
CONTINUOUS
 10
-2.3063083691
 20
-21.3488257993
 11
-2.3623659572
 21
-20.6195335323
  0
LINE
  5
224
100
AcDbEntity
  8
0
100
AcDbLine
 62
7
  6
CONTINUOUS
 10
1.9716140001
 20
-23.8188448243
 11
1.9161928473
 21
-23.0981251046
  0
LINE
  5
225
100
AcDbEntity
  8
RACCORDO
100
AcDbLine
 62
7
  6
CONTINUOUS
 10
-51.3660047308
 20
8.0718851722
 11
-51.2292032165
 21
6.2243653611
  0
LINE
  5
226
100
AcDbEntity
  8
RACCORDO
100
AcDbLine
 62
7
  6
CONTINUOUS
 10
-51.456276582
 20
8.229081027
 11
-51.3188215083
 21
6.3673842194
  0
LINE
  5
227
100
AcDbEntity
  8
0
100
AcDbLine
 62
7
  6
CONTINUOUS
 10
2.3282878051
 20
-23.3427471108
 11
2.3177313261
 21
-23.1997136216
  0
LINE
  5
228
100
AcDbEntity
  8
0
100
AcDbLine
 62
7
  6
CONTINUOUS
 10
2.956541379
 20
-23.4099863255
 11
2.9556071418
 21
-23.3970182142
  0
LINE
  5
229
100
AcDbEntity
  8
0
100
AcDbLine
 62
7
  6
CONTINUOUS
 10
1.9161928473
 20
-23.0981251046
 11
1.8643744413
 21
-22.3749757058
  0
LINE
  5
22A
100
AcDbEntity
  8
0
100
AcDbLine
 62
7
  6
CONTINUOUS
 10
2.0226172506
 20
-23.0366775963
 11
1.9707520814
 21
-22.3135551753
  0
LINE
  5
22B
100
AcDbEntity
  8
0
100
AcDbLine
 62
7
  6
CONTINUOUS
 10
-2.775604817
 20
-20.3809345938
 11
-2.8279735708
 21
-19.6491548692
  0
LINE
  5
22C
100
AcDbEntity
  8
0
100
AcDbLine
 62
7
  6
CONTINUOUS
 10
-2.6691809873
 20
-20.3194874306
 11
-2.7215970004
 21
-19.5877349694
  0
LINE
  5
22D
100
AcDbEntity
  8
0
100
AcDbLine
 62
7
  6
CONTINUOUS
 10
-2.3623659572
 20
-20.6195335323
 11
-2.414734711
 21
-19.8877538078
  0
LINE
  5
22E
100
AcDbEntity
  8
0
100
AcDbLine
 62
7
  6
CONTINUOUS
 10
2.2781549345
 20
-22.8323702847
 11
2.2367947635
 21
-22.2287338817
  0
LINE
  5
22F
100
AcDbEntity
  8
RACCORDO
100
AcDbLine
 62
7
  6
CONTINUOUS
 10
-32.5613951587
 20
1.8317167961
 11
-32.5637183724
 21
1.8663994114
  0
LINE
  5
230
100
AcDbEntity
  8
RACCORDO
100
AcDbLine
 62
7
  6
CONTINUOUS
 10
-33.2476351513
 20
1.8005681232
 11
-33.2514205436
 21
1.8572294679
  0
LINE
  5
231
100
AcDbEntity
  8
0
100
AcDbLine
 62
7
  6
CONTINUOUS
 10
-2.7215970004
 20
-19.5877349694
 11
-2.7620773103
 21
-18.9810783592
  0
LINE
  5
232
100
AcDbEntity
  8
0
100
AcDbLine
 62
7
  6
CONTINUOUS
 10
1.9707520814
 20
-22.3135551753
 11
1.929616608
 21
-21.6979575093
  0
LINE
  5
233
100
AcDbEntity
  8
0
100
AcDbLine
 62
7
  6
CONTINUOUS
 10
1.8643744413
 20
-22.3749757058
 11
1.8161613777
 21
-21.6494328523
  0
LINE
  5
234
100
AcDbEntity
  8
0
100
AcDbLine
 62
7
  6
CONTINUOUS
 10
-2.8279735708
 20
-19.6491548692
 11
-2.8766508163
 21
-18.9149250528
  0
LINE
  5
235
100
AcDbEntity
  8
0
100
AcDbLine
 62
7
  6
CONTINUOUS
 10
-2.414734711
 20
-19.8877538078
 11
-2.4634119565
 21
-19.1535239914
  0
LINE
  5
236
100
AcDbEntity
  8
RACCORDO
100
AcDbLine
 62
7
  6
CONTINUOUS
 10
-51.4802234599
 20
9.9360591851
 11
-51.3660047308
 21
8.0718851722
  0
LINE
  5
237
100
AcDbEntity
  8
RACCORDO
100
AcDbLine
 62
7
  6
CONTINUOUS
 10
-51.5708137483
 20
10.1075710215
 11
-51.456276582
 21
8.229081027
  0
LINE
  5
238
100
AcDbEntity
  8
RACCORDO
100
AcDbLine
 62
7
  6
CONTINUOUS
 10
-32.2851513752
 20
38.0938587082
 11
-32.2835942484
 21
38.064262049
  0
LINE
  5
239
100
AcDbEntity
  8
RACCORDO
100
AcDbLine
 62
7
  6
CONTINUOUS
 10
-51.571834892
 20
11.8165104289
 11
-51.4802234599
 21
9.9360591851
  0
LINE
  5
23A
100
AcDbEntity
  8
RACCORDO
100
AcDbLine
 62
7
  6
CONTINUOUS
 10
-51.6596994272
 20
11.9383855082
 11
-51.5708137483
 21
10.1075710215
  0
LINE
  5
23B
100
AcDbEntity
  8
RACCORDO
100
AcDbLine
 62
7
  6
CONTINUOUS
 10
-33.2514205436
 20
1.8572294679
 11
-33.372314254
 21
4.7686646773
  0
LINE
  5
23C
100
AcDbEntity
  8
RACCORDO
100
AcDbLine
 62
7
  6
CONTINUOUS
 10
-32.5637187819
 20
1.8663991755
 11
-32.6844931069
 21
4.7749293342
  0
LINE
  5
23D
100
AcDbEntity
  8
RACCORDO
100
AcDbLine
 62
7
  6
CONTINUOUS
 10
-51.7749289131
 20
14.8974201979
 11
-51.6596994272
 21
11.9383854202
  0
LINE
  5
23E
100
AcDbEntity
  8
RACCORDO
100
AcDbLine
 62
7
  6
CONTINUOUS
 10
-51.6887728553
 20
14.8238201771
 11
-51.5718349641
 21
11.8165104705
  0
LINE
  5
23F
100
AcDbEntity
  8
RACCORDO
100
AcDbLine
 62
7
  6
CONTINUOUS
 10
-33.372314254
 20
4.7686646773
 11
-33.4712376721
 21
7.6924999475
  0
LINE
  5
240
100
AcDbEntity
  8
RACCORDO
100
AcDbLine
 62
7
  6
CONTINUOUS
 10
-32.6844931069
 20
4.7749293342
 11
-32.7833102362
 21
7.695460347
  0
LINE
  5
241
100
AcDbEntity
  8
RACCORDO
100
AcDbLine
 62
7
  6
CONTINUOUS
 10
-51.8712615943
 20
17.9299731818
 11
-51.7749289131
 21
14.8974201979
  0
LINE
  5
242
100
AcDbEntity
  8
RACCORDO
100
AcDbLine
 62
7
  6
CONTINUOUS
 10
-51.7844666799
 20
17.8459565665
 11
-51.6887728553
 21
14.8238201771
  0
LINE
  5
243
100
AcDbEntity
  8
RACCORDO
100
AcDbLine
 62
7
  6
CONTINUOUS
 10
-33.4712376721
 20
7.6924999475
 11
-33.5481846229
 21
10.6285434774
  0
LINE
  5
244
100
AcDbEntity
  8
RACCORDO
100
AcDbLine
 62
7
  6
CONTINUOUS
 10
-32.7833102362
 20
7.695460347
 11
-32.8601701697
 21
10.6279922138
  0
LINE
  5
245
100
AcDbEntity
  8
RACCORDO
100
AcDbLine
 62
7
  6
CONTINUOUS
 10
-51.946189883
 20
20.9771077229
 11
-51.8712615943
 21
17.9299731818
  0
LINE
  5
246
100
AcDbEntity
  8
RACCORDO
100
AcDbLine
 62
7
  6
CONTINUOUS
 10
-51.8589067885
 20
20.8827078275
 11
-51.7844666799
 21
17.8459565665
  0
LINE
  5
247
100
AcDbEntity
  8
RACCORDO
100
AcDbLine
 62
7
  6
CONTINUOUS
 10
-33.5481846229
 20
10.6285434774
 11
-33.6031504106
 21
13.5766027257
  0
LINE
  5
248
100
AcDbEntity
  8
RACCORDO
100
AcDbLine
 62
7
  6
CONTINUOUS
 10
-32.8601701697
 20
10.6279922138
 11
-32.9150750798
 21
13.5727190419
  0
LINE
  5
249
100
AcDbEntity
  8
RACCORDO
100
AcDbLine
 62
7
  6
CONTINUOUS
 10
-51.9997070639
 20
24.0385826416
 11
-51.946189883
 21
20.9771077229
  0
LINE
  5
24A
100
AcDbEntity
  8
RACCORDO
100
AcDbLine
 62
7
  6
CONTINUOUS
 10
-51.9120854626
 20
23.9338992876
 11
-51.8589067885
 21
20.8827078275
  0
LINE
  5
24B
100
AcDbEntity
  8
RACCORDO
100
AcDbLine
 62
7
  6
CONTINUOUS
 10
-32.2847291681
 20
0.2934267387
 11
-32.285151375
 21
0.3237277626
  0
LINE
  5
24C
100
AcDbEntity
  8
RACCORDO
100
AcDbLine
 62
7
  6
CONTINUOUS
 10
-33.6031504106
 20
13.5766027257
 11
-33.636131494
 21
16.5364841145
  0
LINE
  5
24D
100
AcDbEntity
  8
RACCORDO
100
AcDbLine
 62
7
  6
CONTINUOUS
 10
-32.9150750798
 20
13.5727190419
 11
-32.9480227941
 21
16.529446724
  0
LINE
  5
24E
100
AcDbEntity
  8
RACCORDO
100
AcDbLine
 62
7
  6
CONTINUOUS
 10
-52.0318108635
 20
27.1141823043
 11
-51.9997070639
 21
24.0385826416
  0
LINE
  5
24F
100
AcDbEntity
  8
RACCORDO
100
AcDbLine
 62
7
  6
CONTINUOUS
 10
-51.9439953037
 20
26.9992792748
 11
-51.9120854626
 21
23.9338992876
  0
LINE
  5
250
100
AcDbEntity
  8
RACCORDO
100
AcDbLine
 62
7
  6
CONTINUOUS
 10
-51.6596912835
 20
48.9455457204
 11
-51.6597266814
 21
48.9535544367
  0
LINE
  5
251
100
AcDbEntity
  8
RACCORDO
100
AcDbLine
 62
7
  6
CONTINUOUS
 10
-33.636131494
 20
16.5364841145
 11
-33.6471254892
 21
19.5079930405
  0
LINE
  5
252
100
AcDbEntity
  8
RACCORDO
100
AcDbLine
 62
7
  6
CONTINUOUS
 10
-32.9480227941
 20
16.529446724
 11
-32.9590067954
 21
19.4975929389
  0
LINE
  5
253
100
AcDbEntity
  8
RACCORDO
100
AcDbLine
 62
7
  6
CONTINUOUS
 10
-52.0425
 20
30.2037019191
 11
-52.0318108635
 21
27.1141823043
  0
LINE
  5
254
100
AcDbEntity
  8
RACCORDO
100
AcDbLine
 62
7
  6
CONTINUOUS
 10
-51.9546320425
 20
30.0785174707
 11
-51.9439953037
 21
26.9992792748
  0
LINE
  5
255
100
AcDbEntity
  8
0
100
AcDbLine
 62
7
  6
CONTINUOUS
 10
-30.5051631422
 20
3.0549981296
 11
-30.5051631422
 21
36.9056989712
  0
LINE
  5
256
100
AcDbEntity
  8
0
100
AcDbLine
 62
7
  6
CONTINUOUS
 10
-30.1546951654
 20
9.534377307
 11
-30.1546951654
 21
36.4778964411
  0
LINE
  5
257
100
AcDbEntity
  8
0
100
AcDbLine
 62
7
  6
CONTINUOUS
 10
-27.9817937086
 20
10.3284591386
 11
-27.9817937086
 21
7.2398486823
  0
LINE
  5
258
100
AcDbEntity
  8
RACCORDO
100
AcDbLine
 62
7
  6
CONTINUOUS
 10
-52.0317736135
 20
33.3069276433
 11
-52.0425
 21
30.2037019191
  0
LINE
  5
259
100
AcDbEntity
  8
RACCORDO
100
AcDbLine
 62
7
  6
CONTINUOUS
 10
-51.9439953096
 20
33.1713968592
 11
-51.9546320425
 21
30.0785174707
  0
LINE
  5
25A
100
AcDbEntity
  8
RACCORDO
100
AcDbLine
 62
7
  6
CONTINUOUS
 10
-33.6471254892
 20
19.5079930405
 11
-33.6361314946
 21
22.4909342797
  0
LINE
  5
25B
100
AcDbEntity
  8
RACCORDO
100
AcDbLine
 62
7
  6
CONTINUOUS
 10
-32.9590067954
 20
19.4975929389
 11
-32.9480227054
 21
22.4771608819
  0
LINE
  5
25C
100
AcDbEntity
  8
RACCORDO
100
AcDbLine
 62
7
  6
CONTINUOUS
 10
-51.9996332837
 20
36.4236440618
 11
-52.0317736135
 21
33.3069276433
  0
LINE
  5
25D
100
AcDbEntity
  8
RACCORDO
100
AcDbLine
 62
7
  6
CONTINUOUS
 10
-51.9120854728
 20
36.277699001
 11
-51.9439953096
 21
33.1713968592
  0
LINE
  5
25E
100
AcDbEntity
  8
RACCORDO
100
AcDbLine
 62
7
  6
CONTINUOUS
 10
-33.6361314946
 20
22.4909342797
 11
-33.6031504117
 21
25.4851120653
  0
LINE
  5
25F
100
AcDbEntity
  8
RACCORDO
100
AcDbLine
 62
7
  6
CONTINUOUS
 10
-32.9480227054
 20
22.4771608819
 11
-32.9150749023
 21
25.4681473578
  0
LINE
  5
260
100
AcDbEntity
  8
RACCORDO
100
AcDbLine
 62
7
  6
CONTINUOUS
 10
-32.2847291681
 20
38.1246472756
 11
-32.2851513752
 21
38.0938587082
  0
LINE
  5
261
100
AcDbEntity
  8
RACCORDO
100
AcDbLine
 62
7
  6
CONTINUOUS
 10
-50.0249918948
 20
67.3397303299
 11
-50.0247996689
 21
67.3514489924
  0
LINE
  5
262
100
AcDbEntity
  8
RACCORDO
100
AcDbLine
 62
7
  6
CONTINUOUS
 10
-51.9460810133
 20
39.5536442305
 11
-51.9996332837
 21
36.4236440618
  0
LINE
  5
263
100
AcDbEntity
  8
RACCORDO
100
AcDbLine
 62
7
  6
CONTINUOUS
 10
-51.8589068008
 20
39.3970871516
 11
-51.9120854728
 21
36.277699001
  0
LINE
  5
264
100
AcDbEntity
  8
RACCORDO
100
AcDbLine
 62
7
  6
CONTINUOUS
 10
-33.6031504117
 20
25.4851120653
 11
-33.5481846242
 21
28.4903297883
  0
LINE
  5
265
100
AcDbEntity
  8
RACCORDO
100
AcDbLine
 62
7
  6
CONTINUOUS
 10
-32.9150749023
 20
25.4681473578
 11
-32.8601700045
 21
28.4699604595
  0
LINE
  5
266
100
AcDbEntity
  8
RACCORDO
100
AcDbLine
 62
7
  6
CONTINUOUS
 10
-51.7844666917
 20
42.529300597
 11
-51.8589068008
 21
39.3970871516
  0
LINE
  5
267
100
AcDbEntity
  8
RACCORDO
100
AcDbLine
 62
7
  6
CONTINUOUS
 10
-51.8711197982
 20
42.6967090942
 11
-51.9460810133
 21
39.5536442305
  0
LINE
  5
268
100
AcDbEntity
  8
RACCORDO
100
AcDbLine
 62
7
  6
CONTINUOUS
 10
-33.5481846242
 20
28.4903297883
 11
-33.4712376735
 21
31.5063900306
  0
LINE
  5
269
100
AcDbEntity
  8
RACCORDO
100
AcDbLine
 62
7
  6
CONTINUOUS
 10
-32.8601700045
 20
28.4699604595
 11
-32.783310218
 21
31.4824028848
  0
LINE
  5
26A
100
AcDbEntity
  8
RACCORDO
100
AcDbLine
 62
7
  6
CONTINUOUS
 10
-51.7747570761
 20
45.8525884043
 11
-51.8711197982
 21
42.6967090942
  0
LINE
  5
26B
100
AcDbEntity
  8
RACCORDO
100
AcDbLine
 62
7
  6
CONTINUOUS
 10
-51.6887728631
 20
45.6741562509
 11
-51.7844666917
 21
42.529300597
  0
LINE
  5
26C
100
AcDbEntity
  8
RACCORDO
100
AcDbLine
 62
7
  6
CONTINUOUS
 10
-33.4712376735
 20
31.5063900306
 11
-33.3723142549
 21
34.5330945797
  0
LINE
  5
26D
100
AcDbEntity
  8
RACCORDO
100
AcDbLine
 62
7
  6
CONTINUOUS
 10
-32.783310218
 20
31.4824028848
 11
-32.6844933367
 21
34.505671936
  0
LINE
  5
26E
100
AcDbEntity
  8
RACCORDO
100
AcDbLine
 62
7
  6
CONTINUOUS
 10
-51.5718349635
 20
48.8314311595
 11
-51.6887728631
 21
45.6741562509
  0
LINE
  5
26F
100
AcDbEntity
  8
RACCORDO
100
AcDbLine
 62
7
  6
CONTINUOUS
 10
-51.6597266795
 20
48.953554486
 11
-51.7747570761
 21
45.8525884043
  0
LINE
  5
270
100
AcDbEntity
  8
RACCORDO
100
AcDbLine
 62
7
  6
CONTINUOUS
 10
-33.3723142549
 20
34.5330945797
 11
-33.2514205436
 21
37.5702445033
  0
LINE
  5
271
100
AcDbEntity
  8
RACCORDO
100
AcDbLine
 62
7
  6
CONTINUOUS
 10
-32.6844933367
 20
34.505671936
 11
-32.5637193606
 21
37.539767613
  0
LINE
  5
272
100
AcDbEntity
  8
RACCORDO
100
AcDbLine
 62
7
  6
CONTINUOUS
 10
-51.5705859033
 20
50.9032968329
 11
-51.6597266786
 21
48.9535544366
  0
LINE
  5
273
100
AcDbEntity
  8
RACCORDO
100
AcDbLine
 62
7
  6
CONTINUOUS
 10
-51.4802234644
 20
50.8293587537
 11
-51.5718348915
 21
48.831431118
  0
LINE
  5
274
100
AcDbEntity
  8
RACCORDO
100
AcDbLine
 62
7
  6
CONTINUOUS
 10
-32.285151375
 20
0.3237277626
 11
-32.2835942466
 21
0.355122563
  0
LINE
  5
275
100
AcDbEntity
  8
RACCORDO
100
AcDbLine
 62
7
  6
CONTINUOUS
 10
-51.4560348277
 20
52.9278514634
 11
-51.5705859033
 21
50.9032968329
  0
LINE
  5
276
100
AcDbEntity
  8
RACCORDO
100
AcDbLine
 62
7
  6
CONTINUOUS
 10
-51.3660047382
 20
52.8399905262
 11
-51.4802234644
 21
50.8293587537
  0
LINE
  5
277
100
AcDbEntity
  8
RACCORDO
100
AcDbLine
 62
7
  6
CONTINUOUS
 10
-33.2514205436
 20
37.5702445033
 11
-33.2477014757
 21
37.6275971069
  0
LINE
  5
278
100
AcDbEntity
  8
RACCORDO
100
AcDbLine
 62
7
  6
CONTINUOUS
 10
-32.5637192245
 20
37.5397676758
 11
-32.5614225268
 21
37.5747991262
  0
LINE
  5
279
100
AcDbEntity
  8
RACCORDO
100
AcDbLine
 62
7
  6
CONTINUOUS
 10
-51.3185866492
 20
54.9648414013
 11
-51.4560348277
 21
52.9278514634
  0
LINE
  5
27A
100
AcDbEntity
  8
RACCORDO
100
AcDbLine
 62
7
  6
CONTINUOUS
 10
-51.2292032213
 20
54.8629211606
 11
-51.3660047382
 21
52.8399905262
  0
LINE
  5
27B
100
AcDbEntity
  8
RACCORDO
100
AcDbLine
 62
7
  6
CONTINUOUS
 10
-51.1582712546
 20
57.0137952793
 11
-51.3185866492
 21
54.9648414013
  0
LINE
  5
27C
100
AcDbEntity
  8
RACCORDO
100
AcDbLine
 62
7
  6
CONTINUOUS
 10
-51.0698505563
 20
56.8977406131
 11
-51.2292032213
 21
54.8629211606
  0
LINE
  5
27D
100
AcDbEntity
  8
RACCORDO
100
AcDbLine
 62
7
  6
CONTINUOUS
 10
-50.9751230514
 20
59.0743149153
 11
-51.1582712546
 21
57.0137952793
  0
LINE
  5
27E
100
AcDbEntity
  8
RACCORDO
100
AcDbLine
 62
7
  6
CONTINUOUS
 10
-50.8879786261
 20
58.9440414241
 11
-51.0698505563
 21
56.8977406131
  0
LINE
  5
27F
100
AcDbEntity
  8
RACCORDO
100
AcDbLine
 62
7
  6
CONTINUOUS
 10
-50.6836191279
 20
61.0014189875
 11
-50.8879786261
 21
58.9440414241
  0
LINE
  5
280
100
AcDbEntity
  8
RACCORDO
100
AcDbLine
 62
7
  6
CONTINUOUS
 10
-50.7691760581
 20
61.1460321753
 11
-50.9751230514
 21
59.0743149153
  0
LINE
  5
281
100
AcDbEntity
  8
RACCORDO
100
AcDbLine
 62
7
  6
CONTINUOUS
 10
-32.2835942466
 20
0.355122563
 11
-32.2800665027
 21
0.3874353385
  0
LINE
  5
282
100
AcDbEntity
  8
RACCORDO
100
AcDbLine
 62
7
  6
CONTINUOUS
 10
-50.4568129454
 20
63.0694618394
 11
-50.6836191279
 21
61.0014189875
  0
LINE
  5
283
100
AcDbEntity
  8
RACCORDO
100
AcDbLine
 62
7
  6
CONTINUOUS
 10
-50.5404688011
 20
63.2285491301
 11
-50.7691760581
 21
61.1460321753
  0
LINE
  5
284
100
AcDbEntity
  8
RACCORDO
100
AcDbLine
 62
7
  6
CONTINUOUS
 10
-33.2477014757
 20
37.6275971069
 11
-33.2411902918
 21
37.6834028379
  0
LINE
  5
285
100
AcDbEntity
  8
RACCORDO
100
AcDbLine
 62
7
  6
CONTINUOUS
 10
-32.5614225268
 20
37.5747991262
 11
-32.5574087022
 21
37.6091655702
  0
LINE
  5
286
100
AcDbEntity
  8
RACCORDO
100
AcDbLine
 62
7
  6
CONTINUOUS
 10
-50.2076105596
 20
65.1477515551
 11
-50.4568129454
 21
63.0694618394
  0
LINE
  5
287
100
AcDbEntity
  8
RACCORDO
100
AcDbLine
 62
7
  6
CONTINUOUS
 10
-50.2890583611
 20
65.3213833843
 11
-50.5404688011
 21
63.2285491301
  0
LINE
  5
288
100
AcDbEntity
  8
RACCORDO
100
AcDbLine
 62
7
  6
CONTINUOUS
 10
-50.0247996689
 20
67.3514489924
 11
-50.0245955834
 21
67.3531285576
  0
LINE
  5
289
100
AcDbEntity
  8
RACCORDO
100
AcDbLine
 62
7
  6
CONTINUOUS
 10
-49.9360648579
 20
67.2358702344
 11
-50.2076105596
 21
65.1477515551
  0
LINE
  5
28A
100
AcDbEntity
  8
RACCORDO
100
AcDbLine
 62
7
  6
CONTINUOUS
 10
-50.0245952647
 20
67.3531309174
 11
-50.2890583611
 21
65.3213833843
  0
LINE
  5
28B
100
AcDbEntity
  8
RACCORDO
100
AcDbLine
 62
7
  6
CONTINUOUS
 10
-50.0170346783
 20
67.4008049616
 11
-50.0245910832
 21
67.3531279494
  0
LINE
  5
28C
100
AcDbEntity
  8
RACCORDO
100
AcDbLine
 62
7
  6
CONTINUOUS
 10
-49.930167312
 20
67.2725892821
 11
-49.9360648579
 21
67.2358702344
  0
LINE
  5
28D
100
AcDbEntity
  8
RACCORDO
100
AcDbLine
 62
7
  6
CONTINUOUS
 10
-32.2800665027
 20
0.3874353385
 11
-32.2745878976
 21
0.4204851473
  0
LINE
  5
28E
100
AcDbEntity
  8
RACCORDO
100
AcDbLine
 62
7
  6
CONTINUOUS
 10
-33.2411902918
 20
37.6834028379
 11
-33.2318869702
 21
37.7376617065
  0
LINE
  5
28F
100
AcDbEntity
  8
RACCORDO
100
AcDbLine
 62
7
  6
CONTINUOUS
 10
-32.5574087022
 20
37.6091655702
 11
-32.5516438319
 21
37.6427338904
  0
LINE
  5
290
100
AcDbEntity
  8
RACCORDO
100
AcDbLine
 62
7
  6
CONTINUOUS
 10
-49.3553445554
 20
67.5831678025
 11
-49.351092551
 21
67.6068694175
  0
LINE
  5
291
100
AcDbEntity
  8
RACCORDO
100
AcDbLine
 62
7
  6
CONTINUOUS
 10
-50.0051486465
 20
67.4568901541
 11
-50.0170346783
 21
67.4008049616
  0
LINE
  5
292
100
AcDbEntity
  8
RACCORDO
100
AcDbLine
 62
7
  6
CONTINUOUS
 10
-49.9226447128
 20
67.307980926
 11
-49.930167312
 21
67.2725892821
  0
LINE
  5
293
100
AcDbEntity
  8
RACCORDO
100
AcDbLine
 62
7
  6
CONTINUOUS
 10
-32.2745878976
 20
0.4204851473
 11
-32.2671891102
 21
0.4540869204
  0
LINE
  5
294
100
AcDbEntity
  8
RACCORDO
100
AcDbLine
 62
7
  6
CONTINUOUS
 10
-33.2318869702
 20
37.7376617065
 11
-33.2197716895
 21
37.790679401
  0
LINE
  5
295
100
AcDbEntity
  8
RACCORDO
100
AcDbLine
 62
7
  6
CONTINUOUS
 10
-32.5516438319
 20
37.6427338904
 11
-32.5440839571
 21
37.6754287873
  0
LINE
  5
296
100
AcDbEntity
  8
RACCORDO
100
AcDbLine
 62
7
  6
CONTINUOUS
 10
-49.351092551
 20
67.6068694175
 11
-49.345220845
 21
67.6309854156
  0
LINE
  5
297
100
AcDbEntity
  8
RACCORDO
100
AcDbLine
 62
7
  6
CONTINUOUS
 10
-49.9134972787
 20
67.3420450834
 11
-49.9226447128
 21
67.307980926
  0
LINE
  5
298
100
AcDbEntity
  8
RACCORDO
100
AcDbLine
 62
7
  6
CONTINUOUS
 10
-49.9903972466
 20
67.5108015848
 11
-50.0051486465
 21
67.4568901541
  0
LINE
  5
299
100
AcDbEntity
  8
RACCORDO
100
AcDbLine
 62
7
  6
CONTINUOUS
 10
-33.2197716895
 20
37.790679401
 11
-33.2048641461
 21
37.8421502953
  0
LINE
  5
29A
100
AcDbEntity
  8
RACCORDO
100
AcDbLine
 62
7
  6
CONTINUOUS
 10
-32.5440839571
 20
37.6754287873
 11
-32.5347143309
 21
37.7070461352
  0
LINE
  5
29B
100
AcDbEntity
  8
RACCORDO
100
AcDbLine
 62
7
  6
CONTINUOUS
 10
-49.345220845
 20
67.6309854156
 11
-49.3377759646
 21
67.6553246584
  0
LINE
  5
29C
100
AcDbEntity
  8
RACCORDO
100
AcDbLine
 62
7
  6
CONTINUOUS
 10
-49.9026777848
 20
67.374899118
 11
-49.9134972787
 21
67.3420450834
  0
LINE
  5
29D
100
AcDbEntity
  8
RACCORDO
100
AcDbLine
 62
7
  6
CONTINUOUS
 10
-49.9728834334
 20
67.5624671091
 11
-49.9903972466
 21
67.5108015848
  0
LINE
  5
29E
100
AcDbEntity
  8
RACCORDO
100
AcDbLine
 62
7
  6
CONTINUOUS
 10
-49.3377759646
 20
67.6553246584
 11
-49.3288169062
 21
67.6796942367
  0
LINE
  5
29F
100
AcDbEntity
  8
RACCORDO
100
AcDbLine
 62
7
  6
CONTINUOUS
 10
-49.8902338348
 20
67.4064255224
 11
-49.9026777848
 21
67.374899118
  0
LINE
  5
2A0
100
AcDbEntity
  8
RACCORDO
100
AcDbLine
 62
7
  6
CONTINUOUS
 10
-49.9526886395
 20
67.611847523
 11
-49.9728834334
 21
67.5624671091
  0
LINE
  5
2A1
100
AcDbEntity
  8
RACCORDO
100
AcDbLine
 62
7
  6
CONTINUOUS
 10
-49.3288169062
 20
67.6796942367
 11
-49.3184146689
 21
67.703900997
  0
LINE
  5
2A2
100
AcDbEntity
  8
RACCORDO
100
AcDbLine
 62
7
  6
CONTINUOUS
 10
-49.8763081189
 20
67.4362718228
 11
-49.8902338348
 21
67.4064255224
  0
LINE
  5
2A3
100
AcDbEntity
  8
RACCORDO
100
AcDbLine
 62
7
  6
CONTINUOUS
 10
-49.9299046623
 20
67.6588472822
 11
-49.9526886395
 21
67.611847523
  0
LINE
  5
2A4
100
AcDbEntity
  8
RACCORDO
100
AcDbLine
 62
7
  6
CONTINUOUS
 10
-49.3184146689
 20
67.703900997
 11
-49.3066516914
 21
67.7277530731
  0
LINE
  5
2A5
100
AcDbEntity
  8
RACCORDO
100
AcDbLine
 62
7
  6
CONTINUOUS
 10
-49.8608871157
 20
67.4644078111
 11
-49.8763081189
 21
67.4362718228
  0
LINE
  5
2A6
100
AcDbEntity
  8
RACCORDO
100
AcDbLine
 62
7
  6
CONTINUOUS
 10
-49.3066516914
 20
67.7277530731
 11
-49.2936211977
 21
67.7510614108
  0
LINE
  5
2A7
100
AcDbEntity
  8
RACCORDO
100
AcDbLine
 62
7
  6
CONTINUOUS
 10
-49.9046345451
 20
67.7033736999
 11
-49.9299046623
 21
67.6588472822
  0
LINE
  5
2A8
100
AcDbEntity
  8
RACCORDO
100
AcDbLine
 62
7
  6
CONTINUOUS
 10
51.7091548837
 20
-63.5834252393
 11
51.7494472971
 21
-63.5787244285
  0
LINE
  5
2A9
100
AcDbEntity
  8
RACCORDO
100
AcDbLine
 62
7
  6
CONTINUOUS
 10
51.8366496519
 20
-63.1732441423
 11
51.8617349183
 21
-63.1703678975
  0
LINE
  5
2AA
100
AcDbEntity
  8
RACCORDO
100
AcDbLine
 62
7
  6
CONTINUOUS
 10
51.4679697831
 20
-63.449638922
 11
51.4894641191
 21
-63.447812364
  0
LINE
  5
2AB
100
AcDbEntity
  8
RACCORDO
100
AcDbLine
 62
7
  6
CONTINUOUS
 10
51.8116038139
 20
-63.1746833462
 11
51.8366496519
 21
-63.1732441423
  0
LINE
  5
2AC
100
AcDbEntity
  8
RACCORDO
100
AcDbLine
 62
7
  6
CONTINUOUS
 10
51.6679915875
 20
-63.585
 11
51.7091548837
 21
-63.5834252393
  0
LINE
  5
2AD
100
AcDbEntity
  8
RACCORDO
100
AcDbLine
 62
7
  6
CONTINUOUS
 10
51.7867757246
 20
-63.1746752625
 11
51.8116038139
 21
-63.1746833462
  0
LINE
  5
2AE
100
AcDbEntity
  8
RACCORDO
100
AcDbLine
 62
7
  6
CONTINUOUS
 10
51.4453577728
 20
-63.4494308529
 11
51.4679697831
 21
-63.449638922
  0
LINE
  5
2AF
100
AcDbEntity
  8
RACCORDO
100
AcDbLine
 62
7
  6
CONTINUOUS
 10
51.6262956615
 20
-63.5834579104
 11
51.6679915875
 21
-63.585
  0
LINE
  5
2B0
100
AcDbEntity
  8
RACCORDO
100
AcDbLine
 62
7
  6
CONTINUOUS
 10
51.762342154
 20
-63.1732199488
 11
51.7867757246
 21
-63.1746752625
  0
LINE
  5
2B1
100
AcDbEntity
  8
RACCORDO
100
AcDbLine
 62
7
  6
CONTINUOUS
 10
51.4216493294
 20
-63.4472109826
 11
51.4453577728
 21
-63.4494308529
  0
LINE
  5
2B2
100
AcDbEntity
  8
RACCORDO
100
AcDbLine
 62
7
  6
CONTINUOUS
 10
51.5842131454
 20
-63.5788606622
 11
51.6262956615
 21
-63.5834579104
  0
LINE
  5
2B3
100
AcDbEntity
  8
RACCORDO
100
AcDbLine
 62
7
  6
CONTINUOUS
 10
51.7384770632
 20
-63.1703277664
 11
51.762342154
 21
-63.1732199488
  0
LINE
  5
2B4
100
AcDbEntity
  8
RACCORDO
100
AcDbLine
 62
7
  6
CONTINUOUS
 10
31.1235248465
 20
-35.456891441
 11
31.0933462511
 21
-35.4525603526
  0
LINE
  5
2B5
100
AcDbEntity
  8
RACCORDO
100
AcDbLine
 62
7
  6
CONTINUOUS
 10
51.3971120971
 20
-63.4430213164
 11
51.4216493294
 21
-63.4472109826
  0
LINE
  5
2B6
100
AcDbEntity
  8
RACCORDO
100
AcDbLine
 62
7
  6
CONTINUOUS
 10
51.5417324286
 20
-63.5712611574
 11
51.5842131454
 21
-63.5788606622
  0
LINE
  5
2B7
100
AcDbEntity
  8
RACCORDO
100
AcDbLine
 62
7
  6
CONTINUOUS
 10
51.7153503659
 20
-63.1660193071
 11
51.7384770632
 21
-63.1703277664
  0
LINE
  5
2B8
100
AcDbEntity
  8
RACCORDO
100
AcDbLine
 62
7
  6
CONTINUOUS
 10
30.8890422024
 20
-36.1172658819
 11
30.8371219416
 21
-36.1071322562
  0
LINE
  5
2B9
100
AcDbEntity
  8
0
100
AcDbLine
 62
7
  6
CONTINUOUS
 10
2.6474652011
 20
-23.0241579868
 11
2.6627745416
 21
-23.0272105977
  0
LINE
  5
2BA
100
AcDbEntity
  8
0
100
AcDbLine
 62
7
  6
CONTINUOUS
 10
2.9737901698
 20
-23.4016818966
 11
2.964889935
 21
-23.3999011668
  0
LINE
  5
2BB
100
AcDbEntity
  8
0
100
AcDbLine
 62
7
  6
CONTINUOUS
 10
3.0707784089
 20
-23.3383754124
 11
3.079163097
 21
-23.340166816
  0
LINE
  5
2BC
100
AcDbEntity
  8
RACCORDO
100
AcDbLine
 62
7
  6
CONTINUOUS
 10
31.0933462511
 20
-35.4525603526
 11
31.0623848801
 21
-35.4455935058
  0
LINE
  5
2BD
100
AcDbEntity
  8
RACCORDO
100
AcDbLine
 62
7
  6
CONTINUOUS
 10
51.3717577531
 20
-63.4368481472
 11
51.3971120971
 21
-63.4430213164
  0
LINE
  5
2BE
100
AcDbEntity
  8
RACCORDO
100
AcDbLine
 62
7
  6
CONTINUOUS
 10
51.4988797716
 20
-63.5606956537
 11
51.5417324286
 21
-63.5712611574
  0
LINE
  5
2BF
100
AcDbEntity
  8
RACCORDO
100
AcDbLine
 62
7
  6
CONTINUOUS
 10
51.6931267185
 20
-63.1603252461
 11
51.7153503659
 21
-63.1660193071
  0
LINE
  5
2C0
100
AcDbEntity
  8
0
100
AcDbLine
 62
7
  6
CONTINUOUS
 10
2.6316823578
 20
-23.019995554
 11
2.6474652011
 21
-23.0241579868
  0
LINE
  5
2C1
100
AcDbEntity
  8
RACCORDO
100
AcDbLine
 62
7
  6
CONTINUOUS
 10
30.8371219416
 20
-36.1071322562
 11
30.7839020078
 21
-36.09274648
  0
LINE
  5
2C2
100
AcDbEntity
  8
RACCORDO
100
AcDbLine
 62
7
  6
CONTINUOUS
 10
31.0623848801
 20
-35.4455935058
 11
31.0307727696
 21
-35.43602107
  0
LINE
  5
2C3
100
AcDbEntity
  8
0
100
AcDbLine
 62
7
  6
CONTINUOUS
 10
2.964889935
 20
-23.3999011668
 11
2.9556071418
 21
-23.3970182142
  0
LINE
  5
2C4
100
AcDbEntity
  8
RACCORDO
100
AcDbLine
 62
7
  6
CONTINUOUS
 10
51.3455738184
 20
-63.4287058157
 11
51.3717577531
 21
-63.4368481472
  0
LINE
  5
2C5
100
AcDbEntity
  8
RACCORDO
100
AcDbLine
 62
7
  6
CONTINUOUS
 10
51.4556455187
 20
-63.5471759542
 11
51.4988797716
 21
-63.5606956537
  0
LINE
  5
2C6
100
AcDbEntity
  8
0
100
AcDbLine
 62
7
  6
CONTINUOUS
 10
2.6155880754
 20
-23.0149575413
 11
2.6316823578
 21
-23.019995554
  0
LINE
  5
2C7
100
AcDbEntity
  8
0
100
AcDbLine
 62
7
  6
CONTINUOUS
 10
3.0620107401
 20
-23.3355821101
 11
3.0707784089
 21
-23.3383754124
  0
LINE
  5
2C8
100
AcDbEntity
  8
RACCORDO
100
AcDbLine
 62
7
  6
CONTINUOUS
 10
51.6719643481
 20
-63.1532861236
 11
51.6931267185
 21
-63.1603252461
  0
LINE
  5
2C9
100
AcDbEntity
  8
RACCORDO
100
AcDbLine
 62
7
  6
CONTINUOUS
 10
30.7839020078
 20
-36.09274648
 11
30.7301682841
 21
-36.0744260933
  0
LINE
  5
2CA
100
AcDbEntity
  8
0
100
AcDbLine
 62
7
  6
CONTINUOUS
 10
2.5991802943
 20
-23.0090511389
 11
2.6155880754
 21
-23.0149575413
  0
LINE
  5
2CB
100
AcDbEntity
  8
RACCORDO
100
AcDbLine
 62
7
  6
CONTINUOUS
 10
-33.1870439804
 20
1.8262974824
 11
-33.1516564348
 21
1.8134965406
  0
LINE
  5
2CC
100
AcDbEntity
  8
RACCORDO
100
AcDbLine
 62
7
  6
CONTINUOUS
 10
51.3187917524
 20
-63.4186783595
 11
51.3455738184
 21
-63.4287058157
  0
LINE
  5
2CD
100
AcDbEntity
  8
RACCORDO
100
AcDbLine
 62
7
  6
CONTINUOUS
 10
31.0307727696
 20
-35.43602107
 11
30.9987107074
 21
-35.4239485749
  0
LINE
  5
2CE
100
AcDbEntity
  8
RACCORDO
100
AcDbLine
 62
7
  6
CONTINUOUS
 10
51.4120326989
 20
-63.5307145552
 11
51.4556455187
 21
-63.5471759542
  0
LINE
  5
2CF
100
AcDbEntity
  8
0
100
AcDbLine
 62
7
  6
CONTINUOUS
 10
2.3431494117
 20
-22.1673260408
 11
2.3797788898
 21
-22.1819042643
  0
LINE
  5
2D0
100
AcDbEntity
  8
0
100
AcDbLine
 62
7
  6
CONTINUOUS
 10
2.2735294984
 20
-22.2433595803
 11
2.2367947635
 21
-22.2287338817
  0
LINE
  5
2D1
100
AcDbEntity
  8
0
100
AcDbLine
 62
7
  6
CONTINUOUS
 10
2.5824609524
 20
-23.0022692377
 11
2.5991802943
 21
-23.0090511389
  0
LINE
  5
2D2
100
AcDbEntity
  8
RACCORDO
100
AcDbLine
 62
7
  6
CONTINUOUS
 10
30.7301682841
 20
-36.0744260933
 11
30.6761821526
 21
-36.052277313
  0
LINE
  5
2D3
100
AcDbEntity
  8
RACCORDO
100
AcDbLine
 62
7
  6
CONTINUOUS
 10
51.6520139256
 20
-63.1449520565
 11
51.6719643481
 21
-63.1532861236
  0
LINE
  5
2D4
100
AcDbEntity
  8
0
100
AcDbLine
 62
7
  6
CONTINUOUS
 10
1.8161613777
 20
-21.6494328523
 11
1.8579752374
 21
-21.6669737977
  0
LINE
  5
2D5
100
AcDbEntity
  8
0
100
AcDbLine
 62
7
  6
CONTINUOUS
 10
1.8579752374
 20
-21.6669737977
 11
1.8997871233
 21
-21.6848971439
  0
LINE
  5
2D6
100
AcDbEntity
  8
0
100
AcDbLine
 62
7
  6
CONTINUOUS
 10
2.3100921794
 20
-22.2591974228
 11
2.2735294984
 21
-22.2433595803
  0
LINE
  5
2D7
100
AcDbEntity
  8
0
100
AcDbLine
 62
7
  6
CONTINUOUS
 10
2.3797788898
 20
-22.1819042643
 11
2.4162612667
 21
-22.1977035193
  0
LINE
  5
2D8
100
AcDbEntity
  8
RACCORDO
100
AcDbLine
 62
7
  6
CONTINUOUS
 10
51.291488565
 20
-63.4067939044
 11
51.3187917524
 21
-63.4186783595
  0
LINE
  5
2D9
100
AcDbEntity
  8
0
100
AcDbLine
 62
7
  6
CONTINUOUS
 10
1.8997871233
 20
-21.6848971439
 11
1.9415969827
 21
-21.7032029257
  0
LINE
  5
2DA
100
AcDbEntity
  8
RACCORDO
100
AcDbLine
 62
7
  6
CONTINUOUS
 10
-33.2203777096
 20
1.8409097704
 11
-33.1870439804
 21
1.8262974824
  0
LINE
  5
2DB
100
AcDbEntity
  8
RACCORDO
100
AcDbLine
 62
7
  6
CONTINUOUS
 10
51.3680679369
 20
-63.5113223802
 11
51.4120326989
 21
-63.5307145552
  0
LINE
  5
2DC
100
AcDbEntity
  8
0
100
AcDbLine
 62
7
  6
CONTINUOUS
 10
2.565598149
 20
-22.9948246042
 11
2.5824609524
 21
-23.0022692377
  0
LINE
  5
2DD
100
AcDbEntity
  8
0
100
AcDbLine
 62
7
  6
CONTINUOUS
 10
-28.7874593034
 20
10.9612421208
 11
-28.8205349461
 21
10.9758453013
  0
LINE
  5
2DE
100
AcDbEntity
  8
0
100
AcDbLine
 62
7
  6
CONTINUOUS
 10
1.9415969827
 20
-21.7032029257
 11
1.9833751147
 21
-21.7218348869
  0
LINE
  5
2DF
100
AcDbEntity
  8
RACCORDO
100
AcDbLine
 62
7
  6
CONTINUOUS
 10
30.9987107074
 20
-35.4239485749
 11
30.966357597
 21
-35.4094725848
  0
LINE
  5
2E0
100
AcDbEntity
  8
0
100
AcDbLine
 62
7
  6
CONTINUOUS
 10
1.9833751147
 20
-21.7218348869
 11
2.0251511275
 21
-21.7408493449
  0
LINE
  5
2E1
100
AcDbEntity
  8
0
100
AcDbLine
 62
7
  6
CONTINUOUS
 10
-28.7799057728
 20
10.9559063395
 11
-28.7606363786
 21
10.9471320955
  0
LINE
  5
2E2
100
AcDbEntity
  8
0
100
AcDbLine
 62
7
  6
CONTINUOUS
 10
-29.0450860575
 20
10.952706355
 11
-29.019295635
 21
10.9408047395
  0
LINE
  5
2E3
100
AcDbEntity
  8
0
100
AcDbLine
 62
7
  6
CONTINUOUS
 10
2.0251511275
 20
-21.7408493449
 11
2.0670139233
 21
-21.7604152002
  0
LINE
  5
2E4
100
AcDbEntity
  8
0
100
AcDbLine
 62
7
  6
CONTINUOUS
 10
2.4162612667
 20
-22.1977035193
 11
2.4525963895
 21
-22.2147239071
  0
LINE
  5
2E5
100
AcDbEntity
  8
0
100
AcDbLine
 62
7
  6
CONTINUOUS
 10
2.3464826529
 20
-22.2762475113
 11
2.3100921794
 21
-22.2591974228
  0
LINE
  5
2E6
100
AcDbEntity
  8
0
100
AcDbLine
 62
7
  6
CONTINUOUS
 10
2.5486479027
 20
-22.9867881701
 11
2.565598149
 21
-22.9948246042
  0
LINE
  5
2E7
100
AcDbEntity
  8
RACCORDO
100
AcDbLine
 62
7
  6
CONTINUOUS
 10
30.6761821526
 20
-36.052277313
 11
30.6216805467
 21
-36.0261949984
  0
LINE
  5
2E8
100
AcDbEntity
  8
0
100
AcDbLine
 62
7
  6
CONTINUOUS
 10
2.0670139233
 20
-21.7604152002
 11
2.1089717254
 21
-21.7805322542
  0
LINE
  5
2E9
100
AcDbEntity
  8
0
100
AcDbLine
 62
7
  6
CONTINUOUS
 10
2.1089717254
 20
-21.7805322542
 11
2.1510162143
 21
-21.8012007688
  0
LINE
  5
2EA
100
AcDbEntity
  8
RACCORDO
100
AcDbLine
 62
7
  6
CONTINUOUS
 10
51.263586828
 20
-63.3930246553
 11
51.291488565
 21
-63.4067939044
  0
LINE
  5
2EB
100
AcDbEntity
  8
RACCORDO
100
AcDbLine
 62
7
  6
CONTINUOUS
 10
51.3237653248
 20
-63.4889892067
 11
51.3680679369
 21
-63.5113223802
  0
LINE
  5
2EC
100
AcDbEntity
  8
0
100
AcDbLine
 62
7
  6
CONTINUOUS
 10
2.4525963895
 20
-22.2147239071
 11
2.488839583
 21
-22.2330104158
  0
LINE
  5
2ED
100
AcDbEntity
  8
0
100
AcDbLine
 62
7
  6
CONTINUOUS
 10
2.3827580282
 20
-22.2945588262
 11
2.3464826529
 21
-22.2762475113
  0
LINE
  5
2EE
100
AcDbEntity
  8
0
100
AcDbLine
 62
7
  6
CONTINUOUS
 10
2.1510162143
 20
-21.8012007688
 11
2.1932114632
 21
-21.822590346
  0
LINE
  5
2EF
100
AcDbEntity
  8
0
100
AcDbLine
 62
7
  6
CONTINUOUS
 10
2.5315541435
 20
-22.9780890381
 11
2.5486479027
 21
-22.9867881701
  0
LINE
  5
2F0
100
AcDbEntity
  8
RACCORDO
100
AcDbLine
 62
7
  6
CONTINUOUS
 10
51.6334174932
 20
-63.1353823815
 11
51.6520139256
 21
-63.1449520565
  0
LINE
  5
2F1
100
AcDbEntity
  8
RACCORDO
100
AcDbLine
 62
7
  6
CONTINUOUS
 10
30.966357597
 20
-35.4094725848
 11
30.9338225006
 21
-35.3926525532
  0
LINE
  5
2F2
100
AcDbEntity
  8
0
100
AcDbLine
 62
7
  6
CONTINUOUS
 10
2.1932114632
 20
-21.822590346
 11
2.2355652806
 21
-21.8447000144
  0
LINE
  5
2F3
100
AcDbEntity
  8
RACCORDO
100
AcDbLine
 62
7
  6
CONTINUOUS
 10
-33.251420534
 20
1.857229474
 11
-33.2203777096
 21
1.8409097704
  0
LINE
  5
2F4
100
AcDbEntity
  8
0
100
AcDbLine
 62
7
  6
CONTINUOUS
 10
-28.7558000377
 20
10.944445668
 11
-28.7874593034
 21
10.9612421208
  0
LINE
  5
2F5
100
AcDbEntity
  8
0
100
AcDbLine
 62
7
  6
CONTINUOUS
 10
2.2355652806
 20
-21.8447000144
 11
2.2780697839
 21
-21.8675307942
  0
LINE
  5
2F6
100
AcDbEntity
  8
0
100
AcDbLine
 62
7
  6
CONTINUOUS
 10
2.488839583
 20
-22.2330104158
 11
2.5249353301
 21
-22.2525181847
  0
LINE
  5
2F7
100
AcDbEntity
  8
0
100
AcDbLine
 62
7
  6
CONTINUOUS
 10
2.4188610031
 20
-22.3140825147
 11
2.3827580282
 21
-22.2945588262
  0
LINE
  5
2F8
100
AcDbEntity
  8
0
100
AcDbLine
 62
7
  6
CONTINUOUS
 10
2.514316856
 20
-22.9687272183
 11
2.5315541435
 21
-22.9780890381
  0
LINE
  5
2F9
100
AcDbEntity
  8
RACCORDO
100
AcDbLine
 62
7
  6
CONTINUOUS
 10
30.6216805467
 20
-36.0261949984
 11
30.5666630505
 21
-35.9961794153
  0
LINE
  5
2FA
100
AcDbEntity
  8
RACCORDO
100
AcDbLine
 62
7
  6
CONTINUOUS
 10
51.2350864366
 20
-63.377370695
 11
51.263586828
 21
-63.3930246553
  0
LINE
  5
2FB
100
AcDbEntity
  8
0
100
AcDbLine
 62
7
  6
CONTINUOUS
 10
-29.019295635
 20
10.9408047395
 11
-28.9934732822
 21
10.9265506824
  0
LINE
  5
2FC
100
AcDbEntity
  8
0
100
AcDbLine
 62
7
  6
CONTINUOUS
 10
-28.7606363786
 20
10.9471320955
 11
-28.7558000377
 21
10.944445668
  0
LINE
  5
2FD
100
AcDbEntity
  8
0
100
AcDbLine
 62
7
  6
CONTINUOUS
 10
2.2780697839
 20
-21.8675307942
 11
2.3207655066
 21
-21.8912552758
  0
LINE
  5
2FE
100
AcDbEntity
  8
RACCORDO
100
AcDbLine
 62
7
  6
CONTINUOUS
 10
-31.9501891079
 20
0.9160510776
 11
-31.9691298792
 21
0.9265821088
  0
LINE
  5
2FF
100
AcDbEntity
  8
RACCORDO
100
AcDbLine
 62
7
  6
CONTINUOUS
 10
51.2936293237
 20
-63.4722193765
 11
51.3237653248
 21
-63.4889892067
  0
LINE
  5
300
100
AcDbEntity
  8
0
100
AcDbLine
 62
7
  6
CONTINUOUS
 10
2.3207655066
 20
-21.8912552758
 11
2.3636961813
 21
-21.9158968126
  0
LINE
  5
301
100
AcDbEntity
  8
0
100
AcDbLine
 62
7
  6
CONTINUOUS
 10
2.5249353301
 20
-22.2525181847
 11
2.5607172734
 21
-22.2731125037
  0
LINE
  5
302
100
AcDbEntity
  8
0
100
AcDbLine
 62
7
  6
CONTINUOUS
 10
2.4546198652
 20
-22.3346718899
 11
2.4188610031
 21
-22.3140825147
  0
LINE
  5
303
100
AcDbEntity
  8
RACCORDO
100
AcDbLine
 62
7
  6
CONTINUOUS
 10
-49.2967451642
 20
-5.3926032794
 11
51.2936858936
 21
-63.472257478
  0
LINE
  5
304
100
AcDbEntity
  8
RACCORDO
100
AcDbLine
 62
7
  6
CONTINUOUS
 10
-49.3553445554
 20
-5.2977165344
 11
51.2350864366
 21
-63.377370695
  0
LINE
  5
305
100
AcDbEntity
  8
0
100
AcDbLine
 62
7
  6
CONTINUOUS
 10
3.4134962334
 20
-24.6513695548
 11
3.016008467
 21
-24.4218651002
  0
LINE
  5
306
100
AcDbEntity
  8
0
100
AcDbLine
 62
7
  6
CONTINUOUS
 10
2.3831901284
 20
-24.0564837225
 11
1.9716140001
 21
-23.8188448243
  0
LINE
  5
307
100
AcDbEntity
  8
0
100
AcDbLine
 62
7
  6
CONTINUOUS
 10
1.7583429346
 20
-23.69570452
 11
1.3228061695
 21
-23.4442310505
  0
LINE
  5
308
100
AcDbEntity
  8
0
100
AcDbLine
 62
7
  6
CONTINUOUS
 10
0.5389648676
 20
-22.9916509066
 11
0.1302097719
 21
-22.7556408372
  0
LINE
  5
309
100
AcDbEntity
  8
0
100
AcDbLine
 62
7
  6
CONTINUOUS
 10
-0.0831724273
 20
-22.6324366297
 11
-0.4874296167
 21
-22.3990235951
  0
LINE
  5
30A
100
AcDbEntity
  8
0
100
AcDbLine
 62
7
  6
CONTINUOUS
 10
-1.0636721459
 20
-22.0663083808
 11
-1.121628739
 21
-22.0328449703
  0
LINE
  5
30B
100
AcDbEntity
  8
0
100
AcDbLine
 62
7
  6
CONTINUOUS
 10
-1.6955844849
 20
-21.701450116
 11
-2.0909201081
 21
-21.4731882818
  0
LINE
  5
30C
100
AcDbEntity
  8
0
100
AcDbLine
 62
7
  6
CONTINUOUS
 10
-2.3063083691
 20
-21.3488257993
 11
-2.7195472289
 21
-21.1102268608
  0
LINE
  5
30D
100
AcDbEntity
  8
0
100
AcDbLine
 62
7
  6
CONTINUOUS
 10
-3.5658211099
 20
-20.6215989282
 11
-3.9299881733
 21
-20.4113334299
  0
LINE
  5
30E
100
AcDbEntity
  8
0
100
AcDbLine
 62
7
  6
CONTINUOUS
 10
3.3725208694
 20
-24.5047569074
 11
3.1224828822
 21
-24.3603881073
  0
LINE
  5
30F
100
AcDbEntity
  8
0
100
AcDbLine
 62
7
  6
CONTINUOUS
 10
2.3730114329
 20
-23.9276526856
 11
2.0780884153
 21
-23.7573678315
  0
LINE
  5
310
100
AcDbEntity
  8
0
100
AcDbLine
 62
7
  6
CONTINUOUS
 10
1.7124334161
 20
-23.5462429538
 11
1.4292805847
 21
-23.3827540576
  0
LINE
  5
311
100
AcDbEntity
  8
0
100
AcDbLine
 62
7
  6
CONTINUOUS
 10
0.5624439842
 20
-22.8822534685
 11
0.236684187
 21
-22.6941638444
  0
LINE
  5
312
100
AcDbEntity
  8
0
100
AcDbLine
 62
7
  6
CONTINUOUS
 10
-0.1042064255
 20
-22.497337877
 11
-0.3809552016
 21
-22.3375466022
  0
LINE
  5
313
100
AcDbEntity
  8
0
100
AcDbLine
 62
7
  6
CONTINUOUS
 10
-1.6976712677
 20
-21.577291248
 11
-1.9844456929
 21
-21.411711289
  0
LINE
  5
314
100
AcDbEntity
  8
0
100
AcDbLine
 62
7
  6
CONTINUOUS
 10
-2.3164375455
 20
-21.2200233541
 11
-2.6130728138
 21
-21.0487498679
  0
LINE
  5
315
100
AcDbEntity
  8
0
100
AcDbLine
 62
7
  6
CONTINUOUS
 10
-3.5384655989
 20
-20.5144396717
 11
-3.8235137582
 21
-20.349856437
  0
LINE
  5
316
100
AcDbEntity
  8
0
100
AcDbLine
 62
7
  6
CONTINUOUS
 10
1.1817233273
 20
-22.9457299339
 11
0.6189603746
 21
-22.6207976581
  0
LINE
  5
317
100
AcDbEntity
  8
0
100
AcDbLine
 62
7
  6
CONTINUOUS
 10
1.2881669993
 20
-22.8842706917
 11
0.7254040467
 21
-22.5593384159
  0
LINE
  5
318
100
AcDbEntity
  8
0
100
AcDbLine
 62
7
  6
CONTINUOUS
 10
1.0737184263
 20
-22.5596073344
 11
0.6780716761
 21
-22.3311658594
  0
LINE
  5
319
100
AcDbEntity
  8
0
100
AcDbLine
 62
7
  6
CONTINUOUS
 10
2.539300137
 20
-23.3276446761
 11
2.3177313261
 21
-23.1997136216
  0
LINE
  5
31A
100
AcDbEntity
  8
0
100
AcDbLine
 62
7
  6
CONTINUOUS
 10
2.6457154362
 20
-23.266201816
 11
2.4241466253
 21
-23.1382707615
  0
LINE
  5
31B
100
AcDbEntity
  8
0
100
AcDbLine
 62
7
  6
CONTINUOUS
 10
2.5143168538
 20
-22.9687272171
 11
2.2781549345
 21
-22.8323702847
  0
LINE
  5
31C
100
AcDbEntity
  8
0
100
AcDbLine
 62
7
  6
CONTINUOUS
 10
0.9938303189
 20
-21.1498197902
 11
0.5940710357
 21
-20.9190037902
  0
LINE
  5
31D
100
AcDbEntity
  8
0
100
AcDbLine
 62
7
  6
CONTINUOUS
 10
-0.4253909737
 20
-20.3303792028
 11
-0.834250014
 21
-20.0943091171
  0
LINE
  5
31E
100
AcDbEntity
  8
0
100
AcDbLine
 62
7
  6
CONTINUOUS
 10
-1.6563634706
 20
-19.6196311108
 11
-2.0692607978
 21
-19.3812293689
  0
LINE
  5
31F
100
AcDbEntity
  8
0
100
AcDbLine
 62
7
  6
CONTINUOUS
 10
-3.0865647173
 20
-18.7938508356
 11
-3.4995214414
 21
-18.5554147986
  0
LINE
  5
320
100
AcDbEntity
  8
0
100
AcDbLine
 62
7
  6
CONTINUOUS
 10
-4.265778412
 20
-18.1129876273
 11
-4.7146837378
 21
-17.8537953183
  0
LINE
  5
321
100
AcDbEntity
  8
0
100
AcDbLine
 62
7
  6
CONTINUOUS
 10
-2.4634119565
 20
-19.1535239914
 11
-2.8766508163
 21
-18.9149250528
  0
LINE
  5
322
100
AcDbEntity
  8
RACCORDO
100
AcDbLine
 62
7
  6
CONTINUOUS
 10
30.5666630505
 20
-35.9961794153
 11
-32.2847291681
 21
0.2934267387
  0
LINE
  5
323
100
AcDbEntity
  8
RACCORDO
100
AcDbLine
 62
7
  6
CONTINUOUS
 10
30.9012363743
 20
-35.3735740486
 11
-31.9501889053
 21
0.9160511945
  0
LINE
  5
324
100
AcDbEntity
  8
0
100
AcDbLine
 62
7
  6
CONTINUOUS
 10
31.217111533
 20
-33.2349507722
 11
-29.9402529695
 21
2.0765450098
  0
LINE
  5
325
100
AcDbEntity
  8
0
100
AcDbLine
 62
7
  6
CONTINUOUS
 10
-4.5995655511
 20
-12.0209350095
 11
-2.3170704331
 21
-13.3388190842
  0
LINE
  5
326
100
AcDbEntity
  8
0
100
AcDbLine
 62
7
  6
CONTINUOUS
 10
-28.9934732823
 20
10.9265506823
 11
-28.3200305295
 21
10.537713277
  0
LINE
  5
327
100
AcDbEntity
  8
0
100
AcDbLine
 62
7
  6
CONTINUOUS
 10
-28.7558000377
 20
10.944445668
 11
-28.0844184944
 21
10.5567983793
  0
LINE
  5
328
100
AcDbEntity
  8
DRAFT
100
AcDbLine
 62
7
  6
CONTINUOUS
 10
54.4537166173
 20
-27.5070354473
 11
54.8072700079
 21
-27.7111727439
  0
LINE
  5
329
100
AcDbEntity
  8
RACCORDO
100
AcDbLine
 62
7
  6
CONTINUOUS
 10
30.9338225006
 20
-35.3926525532
 11
30.9012355444
 21
-35.373574633
  0
LINE
  5
32A
100
AcDbEntity
  8
RACCORDO
100
AcDbLine
 62
7
  6
CONTINUOUS
 10
-31.9691298792
 20
0.9265821088
 11
-31.9878500349
 21
0.9376266573
  0
LINE
  5
32B
100
AcDbEntity
  8
0
100
AcDbLine
 62
7
  6
CONTINUOUS
 10
2.3636961813
 20
-21.9158968126
 11
2.406818057
 21
-21.9414320634
  0
LINE
  5
32C
100
AcDbEntity
  8
RACCORDO
100
AcDbLine
 62
7
  6
CONTINUOUS
 10
-32.2847291681
 20
0.2934267387
 11
-32.3145358514
 21
0.3112279706
  0
LINE
  5
32D
100
AcDbEntity
  8
RACCORDO
100
AcDbLine
 62
7
  6
CONTINUOUS
 10
-49.3841311695
 20
-5.2803026034
 11
-49.3553445554
 21
-5.2977165344
  0
LINE
  5
32E
100
AcDbEntity
  8
RACCORDO
100
AcDbLine
 62
7
  6
CONTINUOUS
 10
-49.3364961674
 20
-5.368544692
 11
-49.2966403955
 21
-5.392658757
  0
LINE
  5
32F
100
AcDbEntity
  8
0
100
AcDbLine
 62
7
  6
CONTINUOUS
 10
2.5563396523
 20
-23.3380450238
 11
2.5393001429
 21
-23.3276446795
  0
LINE
  5
330
100
AcDbEntity
  8
0
100
AcDbLine
 62
7
  6
CONTINUOUS
 10
2.6457154362
 20
-23.266201816
 11
2.6631196519
 21
-23.2768347258
  0
LINE
  5
331
100
AcDbEntity
  8
0
100
AcDbLine
 62
7
  6
CONTINUOUS
 10
2.489977388
 20
-22.3562780487
 11
2.4546198652
 21
-22.3346718899
  0
LINE
  5
332
100
AcDbEntity
  8
0
100
AcDbLine
 62
7
  6
CONTINUOUS
 10
2.5607172734
 20
-22.2731125037
 11
2.5961299715
 21
-22.2947484622
  0
LINE
  5
333
100
AcDbEntity
  8
0
100
AcDbLine
 62
7
  6
CONTINUOUS
 10
2.406818057
 20
-21.9414320634
 11
2.4500404593
 21
-21.9679635659
  0
LINE
  5
334
100
AcDbEntity
  8
RACCORDO
100
AcDbLine
 62
7
  6
CONTINUOUS
 10
-31.9878500349
 20
0.9376266573
 11
-32.0063320088
 21
0.9491493783
  0
LINE
  5
335
100
AcDbEntity
  8
RACCORDO
100
AcDbLine
 62
7
  6
CONTINUOUS
 10
-32.3145358514
 20
0.3112279706
 11
-32.3439445123
 21
0.329744493
  0
LINE
  5
336
100
AcDbEntity
  8
RACCORDO
100
AcDbLine
 62
7
  6
CONTINUOUS
 10
31.4407751433
 20
-35.4952306255
 11
31.4122362684
 21
-35.4771489544
  0
LINE
  5
337
100
AcDbEntity
  8
RACCORDO
100
AcDbLine
 62
7
  6
CONTINUOUS
 10
-51.5718329823
 20
11.8164647574
 11
-51.5889563585
 21
11.827317193
  0
LINE
  5
338
100
AcDbEntity
  8
0
100
AcDbLine
 62
7
  6
CONTINUOUS
 10
2.4500404593
 20
-21.9679635659
 11
2.4933648405
 21
-21.9954404705
  0
LINE
  5
339
100
AcDbEntity
  8
RACCORDO
100
AcDbLine
 62
7
  6
CONTINUOUS
 10
-49.9360648147
 20
-4.490436268
 11
-49.9532331717
 21
-4.4793553688
  0
LINE
  5
33A
100
AcDbEntity
  8
0
100
AcDbLine
 62
7
  6
CONTINUOUS
 10
2.5961299715
 20
-22.2947484622
 11
2.6312288975
 21
-22.3174709499
  0
LINE
  5
33B
100
AcDbEntity
  8
0
100
AcDbLine
 62
7
  6
CONTINUOUS
 10
2.5249908295
 20
-22.3789498732
 11
2.489977388
 21
-22.3562780487
  0
LINE
  5
33C
100
AcDbEntity
  8
0
100
AcDbLine
 62
7
  6
CONTINUOUS
 10
2.4933648405
 20
-21.9954404705
 11
2.5367898305
 21
-22.0239135726
  0
LINE
  5
33D
100
AcDbEntity
  8
RACCORDO
100
AcDbLine
 62
7
  6
CONTINUOUS
 10
-32.0063320088
 20
0.9491493783
 11
-32.0245417058
 21
0.9611018071
  0
LINE
  5
33E
100
AcDbEntity
  8
RACCORDO
100
AcDbLine
 62
7
  6
CONTINUOUS
 10
-49.4129498788
 20
-5.2613224564
 11
-49.3841311695
 21
-5.2803026034
  0
LINE
  5
33F
100
AcDbEntity
  8
RACCORDO
100
AcDbLine
 62
7
  6
CONTINUOUS
 10
-49.3066508984
 20
-5.3860729356
 11
-49.2967451642
 21
-5.3926032794
  0
LINE
  5
340
100
AcDbEntity
  8
RACCORDO
100
AcDbLine
 62
7
  6
CONTINUOUS
 10
51.2837794322
 20
-63.4657265907
 11
51.2936269801
 21
-63.4722234354
  0
LINE
  5
341
100
AcDbEntity
  8
RACCORDO
100
AcDbLine
 62
7
  6
CONTINUOUS
 10
-32.3439445123
 20
0.329744493
 11
-32.37295512
 21
0.3489763255
  0
LINE
  5
342
100
AcDbEntity
  8
RACCORDO
100
AcDbLine
 62
7
  6
CONTINUOUS
 10
-49.3836978135
 20
-5.3371162311
 11
-49.3364961674
 21
-5.368544692
  0
LINE
  5
343
100
AcDbEntity
  8
0
100
AcDbLine
 62
7
  6
CONTINUOUS
 10
2.6312288975
 20
-22.3174709499
 11
2.6660141205
 21
-22.3412799209
  0
LINE
  5
344
100
AcDbEntity
  8
0
100
AcDbLine
 62
7
  6
CONTINUOUS
 10
2.5367898305
 20
-22.0239135726
 11
2.5802205754
 21
-22.0536378411
  0
LINE
  5
345
100
AcDbEntity
  8
0
100
AcDbLine
 62
7
  6
CONTINUOUS
 10
2.5596602589
 20
-22.4026873177
 11
2.5249908295
 21
-22.3789498732
  0
LINE
  5
346
100
AcDbEntity
  8
0
100
AcDbLine
 62
7
  6
CONTINUOUS
 10
2.573225214
 20
-23.3496122789
 11
2.5563396523
 21
-23.3380450238
  0
LINE
  5
347
100
AcDbEntity
  8
0
100
AcDbLine
 62
7
  6
CONTINUOUS
 10
2.6631196519
 20
-23.2768347258
 11
2.6803580376
 21
-23.2886832758
  0
LINE
  5
348
100
AcDbEntity
  8
RACCORDO
100
AcDbLine
 62
7
  6
CONTINUOUS
 10
-32.0245417058
 20
0.9611018071
 11
-32.0424819668
 21
0.9734623238
  0
LINE
  5
349
100
AcDbEntity
  8
RACCORDO
100
AcDbLine
 62
7
  6
CONTINUOUS
 10
-32.37295512
 20
0.3489763255
 11
-32.4015617344
 21
0.3689511001
  0
LINE
  5
34A
100
AcDbEntity
  8
RACCORDO
100
AcDbLine
 62
7
  6
CONTINUOUS
 10
-32.2032042641
 20
37.888476226
 11
-32.1855112825
 21
37.8759793808
  0
LINE
  5
34B
100
AcDbEntity
  8
0
100
AcDbLine
 62
7
  6
CONTINUOUS
 10
2.5802205754
 20
-22.0536378411
 11
2.6237474719
 21
-22.0845978841
  0
LINE
  5
34C
100
AcDbEntity
  8
RACCORDO
100
AcDbLine
 62
7
  6
CONTINUOUS
 10
-49.441800578
 20
-5.2407760104
 11
-49.4129498788
 21
-5.2613224564
  0
LINE
  5
34D
100
AcDbEntity
  8
RACCORDO
100
AcDbLine
 62
7
  6
CONTINUOUS
 10
-32.0424819668
 20
0.9734623238
 11
-32.060192074
 21
0.9862420435
  0
LINE
  5
34E
100
AcDbEntity
  8
RACCORDO
100
AcDbLine
 62
7
  6
CONTINUOUS
 10
-49.430361728
 20
-5.3029478668
 11
-49.3836978135
 21
-5.3371162311
  0
LINE
  5
34F
100
AcDbEntity
  8
RACCORDO
100
AcDbLine
 62
7
  6
CONTINUOUS
 10
-32.8866121957
 20
37.9684616254
 11
-32.8528527482
 21
37.9437497122
  0
LINE
  5
350
100
AcDbEntity
  8
0
100
AcDbLine
 62
7
  6
CONTINUOUS
 10
2.6660141205
 20
-22.3412799209
 11
2.6841597458
 21
-22.354584162
  0
LINE
  5
351
100
AcDbEntity
  8
RACCORDO
100
AcDbLine
 62
7
  6
CONTINUOUS
 10
-32.4015617344
 20
0.3689511001
 11
-32.429770175
 21
0.3896412618
  0
LINE
  5
352
100
AcDbEntity
  8
RACCORDO
100
AcDbLine
 62
7
  6
CONTINUOUS
 10
-51.5889563618
 20
48.842135178
 11
-51.6044510504
 21
48.8534975381
  0
LINE
  5
353
100
AcDbEntity
  8
0
100
AcDbLine
 62
7
  6
CONTINUOUS
 10
2.5807239149
 20
-22.4182204391
 11
2.5596602589
 21
-22.4026873177
  0
LINE
  5
354
100
AcDbEntity
  8
0
100
AcDbLine
 62
7
  6
CONTINUOUS
 10
2.6237474719
 20
-22.0845978841
 11
2.6672804068
 21
-22.1168089066
  0
LINE
  5
355
100
AcDbEntity
  8
RACCORDO
100
AcDbLine
 62
7
  6
CONTINUOUS
 10
-32.060192074
 20
0.9862420435
 11
-32.0776581906
 21
0.9994129545
  0
LINE
  5
356
100
AcDbEntity
  8
RACCORDO
100
AcDbLine
 62
7
  6
CONTINUOUS
 10
31.4122362684
 20
-35.4771489544
 11
31.3864120686
 21
-35.4576045284
  0
LINE
  5
357
100
AcDbEntity
  8
RACCORDO
100
AcDbLine
 62
7
  6
CONTINUOUS
 10
-51.5889563585
 20
11.827317193
 11
-51.604451047
 21
11.8390502601
  0
LINE
  5
358
100
AcDbEntity
  8
0
100
AcDbLine
 62
7
  6
CONTINUOUS
 10
2.5899568796
 20
-23.3623464101
 11
2.573225214
 21
-23.3496122789
  0
LINE
  5
359
100
AcDbEntity
  8
0
100
AcDbLine
 62
7
  6
CONTINUOUS
 10
2.6803580376
 20
-23.2886832758
 11
2.6974306494
 21
-23.3017474284
  0
LINE
  5
35A
100
AcDbEntity
  8
RACCORDO
100
AcDbLine
 62
7
  6
CONTINUOUS
 10
-49.4707849742
 20
-5.2185834234
 11
-49.441800578
 21
-5.2407760104
  0
LINE
  5
35B
100
AcDbEntity
  8
RACCORDO
100
AcDbLine
 62
7
  6
CONTINUOUS
 10
-32.429770175
 20
0.3896412618
 11
-32.4575980306
 21
0.4109640632
  0
LINE
  5
35C
100
AcDbEntity
  8
RACCORDO
100
AcDbLine
 62
7
  6
CONTINUOUS
 10
-49.9532331717
 20
-4.4793553688
 11
-49.968792911
 21
-4.4671859313
  0
LINE
  5
35D
100
AcDbEntity
  8
0
100
AcDbLine
 62
7
  6
CONTINUOUS
 10
2.6672804068
 20
-22.1168089066
 11
2.7104539179
 21
-22.1505716699
  0
LINE
  5
35E
100
AcDbEntity
  8
RACCORDO
100
AcDbLine
 62
7
  6
CONTINUOUS
 10
-32.0776581906
 20
0.9994129545
 11
-32.094868464
 21
1.0129479023
  0
LINE
  5
35F
100
AcDbEntity
  8
RACCORDO
100
AcDbLine
 62
7
  6
CONTINUOUS
 10
30.7104859545
 20
1.7381232821
 11
30.737801139
 21
1.716504471
  0
LINE
  5
360
100
AcDbEntity
  8
RACCORDO
100
AcDbLine
 62
7
  6
CONTINUOUS
 10
-49.4764085073
 20
-5.2661566366
 11
-49.430361728
 21
-5.3029478668
  0
LINE
  5
361
100
AcDbEntity
  8
RACCORDO
100
AcDbLine
 62
7
  6
CONTINUOUS
 10
-32.4575980306
 20
0.4109640632
 11
-32.4850415528
 21
0.4329062453
  0
LINE
  5
362
100
AcDbEntity
  8
0
100
AcDbLine
 62
7
  6
CONTINUOUS
 10
2.6841597458
 20
-22.354584162
 11
2.7020978728
 21
-22.3689431213
  0
LINE
  5
363
100
AcDbEntity
  8
RACCORDO
100
AcDbLine
 62
7
  6
CONTINUOUS
 10
30.7597522254
 20
1.5230913862
 11
30.7894382616
 21
1.4991249831
  0
LINE
  5
364
100
AcDbEntity
  8
RACCORDO
100
AcDbLine
 62
7
  6
CONTINUOUS
 10
-49.9687941439
 20
67.2571329578
 11
-49.9826350782
 21
67.2683993858
  0
LINE
  5
365
100
AcDbEntity
  8
0
100
AcDbLine
 62
7
  6
CONTINUOUS
 10
2.6014758307
 20
-22.4351658985
 11
2.5807239149
 21
-22.4182204391
  0
LINE
  5
366
100
AcDbEntity
  8
RACCORDO
100
AcDbLine
 62
7
  6
CONTINUOUS
 10
-49.499800938
 20
-5.1948242034
 11
-49.4707849742
 21
-5.2185834234
  0
LINE
  5
367
100
AcDbEntity
  8
RACCORDO
100
AcDbLine
 62
7
  6
CONTINUOUS
 10
-32.094868464
 20
1.0129479023
 11
-32.1118652267
 21
1.0268699951
  0
LINE
  5
368
100
AcDbEntity
  8
0
100
AcDbLine
 62
7
  6
CONTINUOUS
 10
2.7104539179
 20
-22.1505716699
 11
2.7531464763
 21
-22.1859862351
  0
LINE
  5
369
100
AcDbEntity
  8
RACCORDO
100
AcDbLine
 62
7
  6
CONTINUOUS
 10
30.737801139
 20
1.716504471
 11
30.7646504391
 21
1.6942191927
  0
LINE
  5
36A
100
AcDbEntity
  8
RACCORDO
100
AcDbLine
 62
7
  6
CONTINUOUS
 10
-32.4850415528
 20
0.4329062453
 11
-32.5121042856
 21
0.4554811977
  0
LINE
  5
36B
100
AcDbEntity
  8
0
100
AcDbLine
 62
7
  6
CONTINUOUS
 10
2.6066259432
 20
-23.3762787544
 11
2.5899568796
 21
-23.3623464101
  0
LINE
  5
36C
100
AcDbEntity
  8
0
100
AcDbLine
 62
7
  6
CONTINUOUS
 10
2.6974306494
 20
-23.3017474284
 11
2.7144555722
 21
-23.316092196
  0
LINE
  5
36D
100
AcDbEntity
  8
RACCORDO
100
AcDbLine
 62
7
  6
CONTINUOUS
 10
-32.9188466954
 20
37.9956191959
 11
-32.8866121957
 21
37.9684616254
  0
LINE
  5
36E
100
AcDbEntity
  8
RACCORDO
100
AcDbLine
 62
7
  6
CONTINUOUS
 10
-32.1118652267
 20
1.0268699951
 11
-32.1286364524
 21
1.0411570289
  0
LINE
  5
36F
100
AcDbEntity
  8
RACCORDO
100
AcDbLine
 62
7
  6
CONTINUOUS
 10
-49.5216857644
 20
-5.2269000399
 11
-49.4764085073
 21
-5.2661566366
  0
LINE
  5
370
100
AcDbEntity
  8
RACCORDO
100
AcDbLine
 62
7
  6
CONTINUOUS
 10
-32.5121042856
 20
0.4554811977
 11
-32.5388147508
 21
0.4786461488
  0
LINE
  5
371
100
AcDbEntity
  8
0
100
AcDbLine
 62
7
  6
CONTINUOUS
 10
2.7020978728
 20
-22.3689431213
 11
2.719828606
 21
-22.3843567295
  0
LINE
  5
372
100
AcDbEntity
  8
RACCORDO
100
AcDbLine
 62
7
  6
CONTINUOUS
 10
30.7646504391
 20
1.6942191927
 11
30.7910365258
 21
1.6712535536
  0
LINE
  5
373
100
AcDbEntity
  8
RACCORDO
100
AcDbLine
 62
7
  6
CONTINUOUS
 10
-51.6044510504
 20
48.8534975381
 11
-51.6182068437
 21
48.8654855966
  0
LINE
  5
374
100
AcDbEntity
  8
RACCORDO
100
AcDbLine
 62
7
  6
CONTINUOUS
 10
31.3864104258
 20
0.2544969745
 11
31.3634849593
 21
0.2744933646
  0
LINE
  5
375
100
AcDbEntity
  8
RACCORDO
100
AcDbLine
 62
7
  6
CONTINUOUS
 10
30.7894382616
 20
1.4991249831
 11
30.8196910149
 21
1.4727345428
  0
LINE
  5
376
100
AcDbEntity
  8
RACCORDO
100
AcDbLine
 62
7
  6
CONTINUOUS
 10
-49.3184140012
 20
-5.3758045314
 11
-49.3066508984
 21
-5.3860729356
  0
LINE
  5
377
100
AcDbEntity
  8
RACCORDO
100
AcDbLine
 62
7
  6
CONTINUOUS
 10
-49.5285425177
 20
-5.1697372193
 11
-49.499800938
 21
-5.1948242034
  0
LINE
  5
378
100
AcDbEntity
  8
RACCORDO
100
AcDbLine
 62
7
  6
CONTINUOUS
 10
51.2720164446
 20
-63.455458112
 11
51.2837794322
 21
-63.4657265907
  0
LINE
  5
379
100
AcDbEntity
  8
0
100
AcDbLine
 62
7
  6
CONTINUOUS
 10
2.7531464763
 20
-22.1859862351
 11
2.795480397
 21
-22.2229520226
  0
LINE
  5
37A
100
AcDbEntity
  8
RACCORDO
100
AcDbLine
 62
7
  6
CONTINUOUS
 10
-32.1286364524
 20
1.0411570289
 11
-32.1451712621
 21
1.055787501
  0
LINE
  5
37B
100
AcDbEntity
  8
0
100
AcDbLine
 62
7
  6
CONTINUOUS
 10
2.6219161821
 20
-22.4535235796
 11
2.6014758307
 21
-22.4351658985
  0
LINE
  5
37C
100
AcDbEntity
  8
RACCORDO
100
AcDbLine
 62
7
  6
CONTINUOUS
 10
-32.5388147508
 20
0.4786461488
 11
-32.5651716653
 21
0.5023898903
  0
LINE
  5
37D
100
AcDbEntity
  8
RACCORDO
100
AcDbLine
 62
7
  6
CONTINUOUS
 10
30.7910365258
 20
1.6712535536
 11
30.8169939453
 21
1.6476538036
  0
LINE
  5
37E
100
AcDbEntity
  8
RACCORDO
100
AcDbLine
 62
7
  6
CONTINUOUS
 10
31.3864120686
 20
-35.4576045284
 11
31.3634862225
 21
-35.4367363601
  0
LINE
  5
37F
100
AcDbEntity
  8
RACCORDO
100
AcDbLine
 62
7
  6
CONTINUOUS
 10
-51.604451047
 20
11.8390502601
 11
-51.6182068403
 21
11.8515805059
  0
LINE
  5
380
100
AcDbEntity
  8
0
100
AcDbLine
 62
7
  6
CONTINUOUS
 10
2.6231413189
 20
-23.3913778351
 11
2.6066259432
 21
-23.3762787544
  0
LINE
  5
381
100
AcDbEntity
  8
0
100
AcDbLine
 62
7
  6
CONTINUOUS
 10
2.795480397
 20
-22.2229520226
 11
2.8374561665
 21
-22.2614687114
  0
LINE
  5
382
100
AcDbEntity
  8
RACCORDO
100
AcDbLine
 62
7
  6
CONTINUOUS
 10
-32.2193767902
 20
37.903315058
 11
-32.2032042641
 21
37.888476226
  0
LINE
  5
383
100
AcDbEntity
  8
RACCORDO
100
AcDbLine
 62
7
  6
CONTINUOUS
 10
30.6320154544
 20
1.6137088769
 11
30.6481879832
 21
1.5988700487
  0
LINE
  5
384
100
AcDbEntity
  8
RACCORDO
100
AcDbLine
 62
7
  6
CONTINUOUS
 10
-32.1451712621
 20
1.055787501
 11
-32.1615125019
 21
1.0707950882
  0
LINE
  5
385
100
AcDbEntity
  8
0
100
AcDbLine
 62
7
  6
CONTINUOUS
 10
2.7144555722
 20
-23.316092196
 11
2.73131495
 21
-23.3316524127
  0
LINE
  5
386
100
AcDbEntity
  8
RACCORDO
100
AcDbLine
 62
7
  6
CONTINUOUS
 10
-49.5570017213
 20
-5.14331186
 11
-49.5285425177
 21
-5.1697372193
  0
LINE
  5
387
100
AcDbEntity
  8
RACCORDO
100
AcDbLine
 62
7
  6
CONTINUOUS
 10
-32.5651716653
 20
0.5023898903
 11
-32.5911760396
 21
0.5267238047
  0
LINE
  5
388
100
AcDbEntity
  8
RACCORDO
100
AcDbLine
 62
7
  6
CONTINUOUS
 10
-49.5660849271
 20
-5.1853030717
 11
-49.5216857644
 21
-5.2269000399
  0
LINE
  5
389
100
AcDbEntity
  8
0
100
AcDbLine
 62
7
  6
CONTINUOUS
 10
2.719828606
 20
-22.3843567295
 11
2.7374326548
 21
-22.4008603092
  0
LINE
  5
38A
100
AcDbEntity
  8
RACCORDO
100
AcDbLine
 62
7
  6
CONTINUOUS
 10
30.8196910149
 20
1.4727345428
 11
30.850339225
 21
1.4439357292
  0
LINE
  5
38B
100
AcDbEntity
  8
RACCORDO
100
AcDbLine
 62
7
  6
CONTINUOUS
 10
30.8169939453
 20
1.6476538036
 11
30.8425227069
 21
1.6234318971
  0
LINE
  5
38C
100
AcDbEntity
  8
RACCORDO
100
AcDbLine
 62
7
  6
CONTINUOUS
 10
-49.968792911
 20
-4.4671859313
 11
-49.9826332537
 21
-4.4540145971
  0
LINE
  5
38D
100
AcDbEntity
  8
RACCORDO
100
AcDbLine
 62
7
  6
CONTINUOUS
 10
-32.1615125019
 20
1.0707950882
 11
-32.1776489259
 21
1.0861625617
  0
LINE
  5
38E
100
AcDbEntity
  8
RACCORDO
100
AcDbLine
 62
7
  6
CONTINUOUS
 10
-49.9826350782
 20
67.2683993858
 11
-49.9946580513
 21
67.2799831883
  0
LINE
  5
38F
100
AcDbEntity
  8
RACCORDO
100
AcDbLine
 62
7
  6
CONTINUOUS
 10
-32.9493239723
 20
38.025026732
 11
-32.9188466954
 21
37.9956191959
  0
LINE
  5
390
100
AcDbEntity
  8
RACCORDO
100
AcDbLine
 62
7
  6
CONTINUOUS
 10
-32.5911760396
 20
0.5267238047
 11
-32.6168598301
 21
0.55163901
  0
LINE
  5
391
100
AcDbEntity
  8
0
100
AcDbLine
 62
7
  6
CONTINUOUS
 10
2.6421934513
 20
-22.4733634701
 11
2.6219161821
 21
-22.4535235796
  0
LINE
  5
392
100
AcDbEntity
  8
RACCORDO
100
AcDbLine
 62
7
  6
CONTINUOUS
 10
-49.5851857404
 20
-5.1155581041
 11
-49.5570017213
 21
-5.14331186
  0
LINE
  5
393
100
AcDbEntity
  8
RACCORDO
100
AcDbLine
 62
7
  6
CONTINUOUS
 10
31.1718546116
 20
0.9748302652
 11
31.1701800649
 21
0.9764807438
  0
LINE
  5
394
100
AcDbEntity
  8
RACCORDO
100
AcDbLine
 62
7
  6
CONTINUOUS
 10
-32.1776489259
 20
1.0861625617
 11
-32.1935691902
 21
1.1018726179
  0
LINE
  5
395
100
AcDbEntity
  8
RACCORDO
100
AcDbLine
 62
7
  6
CONTINUOUS
 10
30.8425227069
 20
1.6234318971
 11
30.867623074
 21
1.5985760204
  0
LINE
  5
396
100
AcDbEntity
  8
0
100
AcDbLine
 62
7
  6
CONTINUOUS
 10
2.8374561665
 20
-22.2614687114
 11
2.8601670242
 21
-22.2841570566
  0
LINE
  5
397
100
AcDbEntity
  8
RACCORDO
100
AcDbLine
 62
7
  6
CONTINUOUS
 10
-32.6168598301
 20
0.55163901
 11
-32.6422245454
 21
0.5771269541
  0
LINE
  5
398
100
AcDbEntity
  8
0
100
AcDbLine
 62
7
  6
CONTINUOUS
 10
2.6392295497
 20
-23.4075493562
 11
2.6231413189
 21
-23.3913778351
  0
LINE
  5
399
100
AcDbEntity
  8
RACCORDO
100
AcDbLine
 62
7
  6
CONTINUOUS
 10
-49.6094700528
 20
-5.1415135412
 11
-49.5660849271
 21
-5.1853030717
  0
LINE
  5
39A
100
AcDbEntity
  8
0
100
AcDbLine
 62
7
  6
CONTINUOUS
 10
2.7374326548
 20
-22.4008603092
 11
2.7548296096
 21
-22.4184183391
  0
LINE
  5
39B
100
AcDbEntity
  8
RACCORDO
100
AcDbLine
 62
7
  6
CONTINUOUS
 10
30.850339225
 20
1.4439357292
 11
30.8811263933
 21
1.4128485951
  0
LINE
  5
39C
100
AcDbEntity
  8
0
100
AcDbLine
 62
7
  6
CONTINUOUS
 10
2.73131495
 20
-23.3316524127
 11
2.7476549873
 21
-23.3482327326
  0
LINE
  5
39D
100
AcDbEntity
  8
RACCORDO
100
AcDbLine
 62
7
  6
CONTINUOUS
 10
-32.1935691902
 20
1.1018726179
 11
-32.2093136167
 21
1.1179670635
  0
LINE
  5
39E
100
AcDbEntity
  8
RACCORDO
100
AcDbLine
 62
7
  6
CONTINUOUS
 10
30.867623074
 20
1.5985760204
 11
30.8923299805
 21
1.5730967748
  0
LINE
  5
39F
100
AcDbEntity
  8
RACCORDO
100
AcDbLine
 62
7
  6
CONTINUOUS
 10
-32.6422245454
 20
0.5771269541
 11
-32.6672683383
 21
0.6031964051
  0
LINE
  5
3A0
100
AcDbEntity
  8
RACCORDO
100
AcDbLine
 62
7
  6
CONTINUOUS
 10
-49.61281135
 20
-5.0867456673
 11
-49.5851857404
 21
-5.1155581041
  0
LINE
  5
3A1
100
AcDbEntity
  8
RACCORDO
100
AcDbLine
 62
7
  6
CONTINUOUS
 10
-51.6182068437
 20
48.8654855966
 11
-51.6301259022
 21
48.878014087
  0
LINE
  5
3A2
100
AcDbEntity
  8
RACCORDO
100
AcDbLine
 62
7
  6
CONTINUOUS
 10
31.3634849593
 20
0.2744933646
 11
31.3436209057
 21
0.295395504
  0
LINE
  5
3A3
100
AcDbEntity
  8
RACCORDO
100
AcDbLine
 62
7
  6
CONTINUOUS
 10
-32.2093136167
 20
1.1179670635
 11
-32.2248704485
 21
1.1344322784
  0
LINE
  5
3A4
100
AcDbEntity
  8
0
100
AcDbLine
 62
7
  6
CONTINUOUS
 10
2.6621596739
 20
-22.494615239
 11
2.6421934513
 21
-22.4733634701
  0
LINE
  5
3A5
100
AcDbEntity
  8
0
100
AcDbLine
 62
7
  6
CONTINUOUS
 10
2.956541379
 20
-23.4099863255
 11
2.9767988205
 21
-23.4316104013
  0
LINE
  5
3A6
100
AcDbEntity
  8
RACCORDO
100
AcDbLine
 62
7
  6
CONTINUOUS
 10
30.8923299805
 20
1.5730967748
 11
30.9166461926
 21
1.5470034383
  0
LINE
  5
3A7
100
AcDbEntity
  8
RACCORDO
100
AcDbLine
 62
7
  6
CONTINUOUS
 10
-32.6672683383
 20
0.6031964051
 11
-32.6920181171
 21
0.6298644701
  0
LINE
  5
3A8
100
AcDbEntity
  8
0
100
AcDbLine
 62
7
  6
CONTINUOUS
 10
2.8601670242
 20
-22.2841570566
 11
2.8831575677
 21
-22.3090165356
  0
LINE
  5
3A9
100
AcDbEntity
  8
RACCORDO
100
AcDbLine
 62
7
  6
CONTINUOUS
 10
30.8811263933
 20
1.4128485951
 11
30.9118724596
 21
1.3795487857
  0
LINE
  5
3AA
100
AcDbEntity
  8
RACCORDO
100
AcDbLine
 62
7
  6
CONTINUOUS
 10
-49.6515897997
 20
-5.0957909628
 11
-49.6094700528
 21
-5.1415135412
  0
LINE
  5
3AB
100
AcDbEntity
  8
0
100
AcDbLine
 62
7
  6
CONTINUOUS
 10
2.7548296096
 20
-22.4184183391
 11
2.7717779481
 21
-22.4369244497
  0
LINE
  5
3AC
100
AcDbEntity
  8
RACCORDO
100
AcDbLine
 62
7
  6
CONTINUOUS
 10
-32.2248704485
 20
1.1344322784
 11
-32.2402269671
 21
1.1512540359
  0
LINE
  5
3AD
100
AcDbEntity
  8
RACCORDO
100
AcDbLine
 62
7
  6
CONTINUOUS
 10
-32.977824414
 20
38.0564723296
 11
-32.9493239723
 21
38.025026732
  0
LINE
  5
3AE
100
AcDbEntity
  8
RACCORDO
100
AcDbLine
 62
7
  6
CONTINUOUS
 10
-49.6398727105
 20
-5.0568635604
 11
-49.61281135
 21
-5.0867456673
  0
LINE
  5
3AF
100
AcDbEntity
  8
0
100
AcDbLine
 62
7
  6
CONTINUOUS
 10
2.6548712451
 20
-23.4248852425
 11
2.6392295497
 21
-23.4075493562
  0
LINE
  5
3B0
100
AcDbEntity
  8
RACCORDO
100
AcDbLine
 62
7
  6
CONTINUOUS
 10
31.3634862225
 20
-35.4367363601
 11
31.3436217935
 21
-35.4146928775
  0
LINE
  5
3B1
100
AcDbEntity
  8
RACCORDO
100
AcDbLine
 62
7
  6
CONTINUOUS
 10
-51.6182068403
 20
11.8515805059
 11
-51.6301258987
 21
11.8648188078
  0
LINE
  5
3B2
100
AcDbEntity
  8
RACCORDO
100
AcDbLine
 62
7
  6
CONTINUOUS
 10
-32.6920181171
 20
0.6298644701
 11
-32.7164776776
 21
0.6571252452
  0
LINE
  5
3B3
100
AcDbEntity
  8
RACCORDO
100
AcDbLine
 62
7
  6
CONTINUOUS
 10
30.9166461926
 20
1.5470034383
 11
30.9405692828
 21
1.5202869078
  0
LINE
  5
3B4
100
AcDbEntity
  8
0
100
AcDbLine
 62
7
  6
CONTINUOUS
 10
2.7476549873
 20
-23.3482327326
 11
2.7634262751
 21
-23.3659160136
  0
LINE
  5
3B5
100
AcDbEntity
  8
RACCORDO
100
AcDbLine
 62
7
  6
CONTINUOUS
 10
-32.2402269671
 20
1.1512540359
 11
-32.2554186024
 21
1.1684801056
  0
LINE
  5
3B6
100
AcDbEntity
  8
RACCORDO
100
AcDbLine
 62
7
  6
CONTINUOUS
 10
-32.7164776776
 20
0.6571252452
 11
-32.7406428104
 21
0.6849848979
  0
LINE
  5
3B7
100
AcDbEntity
  8
0
100
AcDbLine
 62
7
  6
CONTINUOUS
 10
2.9767988205
 20
-23.4316104013
 11
2.9958516705
 21
-23.4536114532
  0
LINE
  5
3B8
100
AcDbEntity
  8
RACCORDO
100
AcDbLine
 62
7
  6
CONTINUOUS
 10
30.9118724596
 20
1.3795487857
 11
30.9424110425
 21
1.3441160229
  0
LINE
  5
3B9
100
AcDbEntity
  8
RACCORDO
100
AcDbLine
 62
7
  6
CONTINUOUS
 10
30.9405692828
 20
1.5202869078
 11
30.9641264073
 21
1.4929302196
  0
LINE
  5
3BA
100
AcDbEntity
  8
0
100
AcDbLine
 62
7
  6
CONTINUOUS
 10
2.8831575677
 20
-22.3090165356
 11
2.9064283116
 21
-22.3360468087
  0
LINE
  5
3BB
100
AcDbEntity
  8
RACCORDO
100
AcDbLine
 62
7
  6
CONTINUOUS
 10
-49.6923047848
 20
-5.0483090606
 11
-49.6515897997
 21
-5.0957909628
  0
LINE
  5
3BC
100
AcDbEntity
  8
RACCORDO
100
AcDbLine
 62
7
  6
CONTINUOUS
 10
-49.6663745721
 20
-5.0259219125
 11
-49.6398727105
 21
-5.0568635604
  0
LINE
  5
3BD
100
AcDbEntity
  8
RACCORDO
100
AcDbLine
 62
7
  6
CONTINUOUS
 10
-49.9946580513
 20
67.2799831883
 11
-50.0047774624
 21
67.2918018916
  0
LINE
  5
3BE
100
AcDbEntity
  8
0
100
AcDbLine
 62
7
  6
CONTINUOUS
 10
2.6813704495
 20
-22.5170682294
 11
2.6621596739
 21
-22.494615239
  0
LINE
  5
3BF
100
AcDbEntity
  8
RACCORDO
100
AcDbLine
 62
7
  6
CONTINUOUS
 10
-49.9826332537
 20
-4.4540145971
 11
-49.9946556622
 21
-4.4399351405
  0
LINE
  5
3C0
100
AcDbEntity
  8
RACCORDO
100
AcDbLine
 62
7
  6
CONTINUOUS
 10
-49.3288163829
 20
-5.3636100487
 11
-49.3184140012
 21
-5.3758045314
  0
LINE
  5
3C1
100
AcDbEntity
  8
RACCORDO
100
AcDbLine
 62
7
  6
CONTINUOUS
 10
51.2616141921
 20
-63.4432636033
 11
51.2720164446
 21
-63.455458112
  0
LINE
  5
3C2
100
AcDbEntity
  8
RACCORDO
100
AcDbLine
 62
7
  6
CONTINUOUS
 10
-32.2554186024
 20
1.1684801056
 11
-32.2704317374
 21
1.1860988538
  0
LINE
  5
3C3
100
AcDbEntity
  8
RACCORDO
100
AcDbLine
 62
7
  6
CONTINUOUS
 10
-32.2339382997
 20
37.9204127841
 11
-32.2193767902
 21
37.903315058
  0
LINE
  5
3C4
100
AcDbEntity
  8
RACCORDO
100
AcDbLine
 62
7
  6
CONTINUOUS
 10
30.6174539416
 20
1.6308065998
 11
30.6320154544
 21
1.6137088769
  0
LINE
  5
3C5
100
AcDbEntity
  8
0
100
AcDbLine
 62
7
  6
CONTINUOUS
 10
2.7717779481
 20
-22.4369244497
 11
2.7883402606
 21
-22.4564578727
  0
LINE
  5
3C6
100
AcDbEntity
  8
RACCORDO
100
AcDbLine
 62
7
  6
CONTINUOUS
 10
-32.7406428104
 20
0.6849848979
 11
-32.7645283886
 21
0.713478659
  0
LINE
  5
3C7
100
AcDbEntity
  8
RACCORDO
100
AcDbLine
 62
7
  6
CONTINUOUS
 10
30.9641264073
 20
1.4929302196
 11
30.9873225661
 21
1.4649399724
  0
LINE
  5
3C8
100
AcDbEntity
  8
0
100
AcDbLine
 62
7
  6
CONTINUOUS
 10
2.6700862602
 20
-23.4432932574
 11
2.6548712451
 21
-23.4248852425
  0
LINE
  5
3C9
100
AcDbEntity
  8
RACCORDO
100
AcDbLine
 62
7
  6
CONTINUOUS
 10
-32.2704317374
 20
1.1860988538
 11
-32.2852516007
 21
1.2040981463
  0
LINE
  5
3CA
100
AcDbEntity
  8
0
100
AcDbLine
 62
7
  6
CONTINUOUS
 10
2.7634262751
 20
-23.3659160136
 11
2.7786787053
 21
-23.3846190737
  0
LINE
  5
3CB
100
AcDbEntity
  8
RACCORDO
100
AcDbLine
 62
7
  6
CONTINUOUS
 10
-32.7645283886
 20
0.713478659
 11
-32.788139912
 21
0.7426027905
  0
LINE
  5
3CC
100
AcDbEntity
  8
0
100
AcDbLine
 62
7
  6
CONTINUOUS
 10
2.9064283116
 20
-22.3360468087
 11
2.9300735608
 21
-22.3652211766
  0
LINE
  5
3CD
100
AcDbEntity
  8
RACCORDO
100
AcDbLine
 62
7
  6
CONTINUOUS
 10
-49.6920496139
 20
-4.9942221323
 11
-49.6663745721
 21
-5.0259219125
  0
LINE
  5
3CE
100
AcDbEntity
  8
RACCORDO
100
AcDbLine
 62
7
  6
CONTINUOUS
 10
30.9424110425
 20
1.3441160229
 11
30.9725296276
 21
1.3067069361
  0
LINE
  5
3CF
100
AcDbEntity
  8
RACCORDO
100
AcDbLine
 62
7
  6
CONTINUOUS
 10
-49.7314802666
 20
-4.9992274226
 11
-49.6923047848
 21
-5.0483090606
  0
LINE
  5
3D0
100
AcDbEntity
  8
0
100
AcDbLine
 62
7
  6
CONTINUOUS
 10
2.9958516705
 20
-23.4536114532
 11
3.0137001951
 21
-23.4759893028
  0
LINE
  5
3D1
100
AcDbEntity
  8
RACCORDO
100
AcDbLine
 62
7
  6
CONTINUOUS
 10
30.9873225661
 20
1.4649399724
 11
31.010153173
 21
1.4363097815
  0
LINE
  5
3D2
100
AcDbEntity
  8
RACCORDO
100
AcDbLine
 62
7
  6
CONTINUOUS
 10
-32.2852516007
 20
1.2040981463
 11
-32.2999073986
 21
1.2225304951
  0
LINE
  5
3D3
100
AcDbEntity
  8
RACCORDO
100
AcDbLine
 62
7
  6
CONTINUOUS
 10
-33.0041426522
 20
38.0897293984
 11
-32.977824414
 21
38.0564723296
  0
LINE
  5
3D4
100
AcDbEntity
  8
0
100
AcDbLine
 62
7
  6
CONTINUOUS
 10
2.7883402606
 20
-22.4564578727
 11
2.8044544649
 21
-22.4769390394
  0
LINE
  5
3D5
100
AcDbEntity
  8
RACCORDO
100
AcDbLine
 62
7
  6
CONTINUOUS
 10
-32.788139912
 20
0.7426027905
 11
-32.8114713745
 21
0.7723613529
  0
LINE
  5
3D6
100
AcDbEntity
  8
0
100
AcDbLine
 62
7
  6
CONTINUOUS
 10
2.6998946303
 20
-22.5408918156
 11
2.6813704495
 21
-22.5170682294
  0
LINE
  5
3D7
100
AcDbEntity
  8
RACCORDO
100
AcDbLine
 62
7
  6
CONTINUOUS
 10
-51.6301259022
 20
48.878014087
 11
-51.6401234503
 21
48.8909938991
  0
LINE
  5
3D8
100
AcDbEntity
  8
RACCORDO
100
AcDbLine
 62
7
  6
CONTINUOUS
 10
31.3436209057
 20
0.295395504
 11
31.3269595494
 21
0.3170547251
  0
LINE
  5
3D9
100
AcDbEntity
  8
RACCORDO
100
AcDbLine
 62
7
  6
CONTINUOUS
 10
-32.2999073986
 20
1.2225304951
 11
-32.3143823924
 21
1.2413845602
  0
LINE
  5
3DA
100
AcDbEntity
  8
RACCORDO
100
AcDbLine
 62
7
  6
CONTINUOUS
 10
31.010153173
 20
1.4363097815
 11
31.032631032
 21
1.4070032212
  0
LINE
  5
3DB
100
AcDbEntity
  8
RACCORDO
100
AcDbLine
 62
7
  6
CONTINUOUS
 10
-49.7168904481
 20
-4.9617548482
 11
-49.6920496139
 21
-4.9942221323
  0
LINE
  5
3DC
100
AcDbEntity
  8
0
100
AcDbLine
 62
7
  6
CONTINUOUS
 10
2.9300735608
 20
-22.3652211766
 11
2.9540002871
 21
-22.3965654955
  0
LINE
  5
3DD
100
AcDbEntity
  8
0
100
AcDbLine
 62
7
  6
CONTINUOUS
 10
2.6846600197
 20
-23.4624028539
 11
2.6700862602
 21
-23.4432932574
  0
LINE
  5
3DE
100
AcDbEntity
  8
RACCORDO
100
AcDbLine
 62
7
  6
CONTINUOUS
 10
-32.8114713745
 20
0.7723613529
 11
-32.8345203465
 21
0.8028013031
  0
LINE
  5
3DF
100
AcDbEntity
  8
0
100
AcDbLine
 62
7
  6
CONTINUOUS
 10
2.7786787053
 20
-23.3846190737
 11
2.7932074217
 21
-23.4038975159
  0
LINE
  5
3E0
100
AcDbEntity
  8
RACCORDO
100
AcDbLine
 62
7
  6
CONTINUOUS
 10
30.9725296276
 20
1.3067069361
 11
31.0020617152
 21
1.267450517
  0
LINE
  5
3E1
100
AcDbEntity
  8
RACCORDO
100
AcDbLine
 62
7
  6
CONTINUOUS
 10
-49.7688812955
 20
-4.9488368965
 11
-49.7314802666
 21
-4.9992274226
  0
LINE
  5
3E2
100
AcDbEntity
  8
RACCORDO
100
AcDbLine
 62
7
  6
CONTINUOUS
 10
-32.3143823924
 20
1.2413845602
 11
-32.3286590015
 21
1.2606492834
  0
LINE
  5
3E3
100
AcDbEntity
  8
RACCORDO
100
AcDbLine
 62
7
  6
CONTINUOUS
 10
31.032631032
 20
1.4070032212
 11
31.0547628256
 21
1.3770247126
  0
LINE
  5
3E4
100
AcDbEntity
  8
RACCORDO
100
AcDbLine
 62
7
  6
CONTINUOUS
 10
-32.8345203465
 20
0.8028013031
 11
-32.8572936934
 21
0.8339206394
  0
LINE
  5
3E5
100
AcDbEntity
  8
0
100
AcDbLine
 62
7
  6
CONTINUOUS
 10
3.0137001951
 20
-23.4759893028
 11
3.0302777518
 21
-23.4989046753
  0
LINE
  5
3E6
100
AcDbEntity
  8
RACCORDO
100
AcDbLine
 62
7
  6
CONTINUOUS
 10
-49.7409032075
 20
-4.9285284422
 11
-49.7168904481
 21
-4.9617548482
  0
LINE
  5
3E7
100
AcDbEntity
  8
0
100
AcDbLine
 62
7
  6
CONTINUOUS
 10
2.8044544649
 20
-22.4769390394
 11
2.8196920601
 21
-22.4980233602
  0
LINE
  5
3E8
100
AcDbEntity
  8
RACCORDO
100
AcDbLine
 62
7
  6
CONTINUOUS
 10
31.3436217935
 20
-35.4146928775
 11
31.3269600704
 21
-35.3916308681
  0
LINE
  5
3E9
100
AcDbEntity
  8
RACCORDO
100
AcDbLine
 62
7
  6
CONTINUOUS
 10
-51.6301258987
 20
11.8648188078
 11
-51.6401234468
 21
11.8786710069
  0
LINE
  5
3EA
100
AcDbEntity
  8
RACCORDO
100
AcDbLine
 62
7
  6
CONTINUOUS
 10
-32.3286590015
 20
1.2606492834
 11
-32.3427595371
 21
1.2803817349
  0
LINE
  5
3EB
100
AcDbEntity
  8
0
100
AcDbLine
 62
7
  6
CONTINUOUS
 10
2.9540002871
 20
-22.3965654955
 11
2.9779282328
 21
-22.4301581089
  0
LINE
  5
3EC
100
AcDbEntity
  8
RACCORDO
100
AcDbLine
 62
7
  6
CONTINUOUS
 10
31.0547628256
 20
1.3770247126
 11
31.0765423777
 21
1.3463700968
  0
LINE
  5
3ED
100
AcDbEntity
  8
0
100
AcDbLine
 62
7
  6
CONTINUOUS
 10
2.7176642795
 20
-22.5659160164
 11
2.6998946303
 21
-22.5408918156
  0
LINE
  5
3EE
100
AcDbEntity
  8
RACCORDO
100
AcDbLine
 62
7
  6
CONTINUOUS
 10
-32.8572936934
 20
0.8339206394
 11
-32.8797839254
 21
0.8657217608
  0
LINE
  5
3EF
100
AcDbEntity
  8
RACCORDO
100
AcDbLine
 62
7
  6
CONTINUOUS
 10
31.0020617152
 20
1.267450517
 11
31.0308579156
 21
1.226473576
  0
LINE
  5
3F0
100
AcDbEntity
  8
0
100
AcDbLine
 62
7
  6
CONTINUOUS
 10
2.6985401324
 20
-23.4821944315
 11
2.6846600197
 21
-23.4624028539
  0
LINE
  5
3F1
100
AcDbEntity
  8
0
100
AcDbLine
 62
7
  6
CONTINUOUS
 10
2.7932074217
 20
-23.4038975159
 11
2.8069451653
 21
-23.423699223
  0
LINE
  5
3F2
100
AcDbEntity
  8
RACCORDO
100
AcDbLine
 62
7
  6
CONTINUOUS
 10
-49.8043849273
 20
-4.8973122923
 11
-49.7688812955
 21
-4.9488368965
  0
LINE
  5
3F3
100
AcDbEntity
  8
RACCORDO
100
AcDbLine
 62
7
  6
CONTINUOUS
 10
-32.3427595371
 20
1.2803817349
 11
-32.3566622126
 21
1.3005680017
  0
LINE
  5
3F4
100
AcDbEntity
  8
RACCORDO
100
AcDbLine
 62
7
  6
CONTINUOUS
 10
-33.0280890434
 20
38.1245582951
 11
-33.0041426522
 21
38.0897293984
  0
LINE
  5
3F5
100
AcDbEntity
  8
RACCORDO
100
AcDbLine
 62
7
  6
CONTINUOUS
 10
31.0765423777
 20
1.3463700968
 11
31.0979632485
 21
1.3149901015
  0
LINE
  5
3F6
100
AcDbEntity
  8
RACCORDO
100
AcDbLine
 62
7
  6
CONTINUOUS
 10
-32.8797839254
 20
0.8657217608
 11
-32.9019670141
 21
0.8982582677
  0
LINE
  5
3F7
100
AcDbEntity
  8
RACCORDO
100
AcDbLine
 62
7
  6
CONTINUOUS
 10
-49.7638409575
 20
-4.8948710363
 11
-49.7409032075
 21
-4.9285284422
  0
LINE
  5
3F8
100
AcDbEntity
  8
RACCORDO
100
AcDbLine
 62
7
  6
CONTINUOUS
 10
-50.0047774624
 20
67.2918018916
 11
-50.0129212639
 21
67.3037713494
  0
LINE
  5
3F9
100
AcDbEntity
  8
RACCORDO
100
AcDbLine
 62
7
  6
CONTINUOUS
 10
-49.9946556622
 20
-4.4399351405
 11
-50.0047745421
 21
-4.4250478014
  0
LINE
  5
3FA
100
AcDbEntity
  8
0
100
AcDbLine
 62
7
  6
CONTINUOUS
 10
2.9779282328
 20
-22.4301581089
 11
3.0020331931
 21
-22.4661440959
  0
LINE
  5
3FB
100
AcDbEntity
  8
RACCORDO
100
AcDbLine
 62
7
  6
CONTINUOUS
 10
-32.2468072526
 20
37.9396736622
 11
-32.2339382997
 21
37.9204127841
  0
LINE
  5
3FC
100
AcDbEntity
  8
RACCORDO
100
AcDbLine
 62
7
  6
CONTINUOUS
 10
30.6045849849
 20
1.6500674758
 11
30.6174539416
 21
1.6308065998
  0
LINE
  5
3FD
100
AcDbEntity
  8
RACCORDO
100
AcDbLine
 62
7
  6
CONTINUOUS
 10
-32.3566622126
 20
1.3005680017
 11
-32.3703463836
 21
1.3211980041
  0
LINE
  5
3FE
100
AcDbEntity
  8
RACCORDO
100
AcDbLine
 62
7
  6
CONTINUOUS
 10
31.2733188959
 20
-36.0172828818
 11
31.2500531684
 21
-35.9820609782
  0
LINE
  5
3FF
100
AcDbEntity
  8
0
100
AcDbLine
 62
7
  6
CONTINUOUS
 10
3.0302777518
 20
-23.4989046753
 11
3.045651636
 21
-23.5221964079
  0
LINE
  5
400
100
AcDbEntity
  8
RACCORDO
100
AcDbLine
 62
7
  6
CONTINUOUS
 10
-32.9019670141
 20
0.8982582677
 11
-32.9238514171
 21
0.931529691
  0
LINE
  5
401
100
AcDbEntity
  8
0
100
AcDbLine
 62
7
  6
CONTINUOUS
 10
2.8196920601
 20
-22.4980233602
 11
2.8340005562
 21
-22.5197855286
  0
LINE
  5
402
100
AcDbEntity
  8
RACCORDO
100
AcDbLine
 62
7
  6
CONTINUOUS
 10
31.0979632485
 20
1.3149901015
 11
31.1190335144
 21
1.2828874277
  0
LINE
  5
403
100
AcDbEntity
  8
RACCORDO
100
AcDbLine
 62
7
  6
CONTINUOUS
 10
31.0308579156
 20
1.226473576
 11
31.0587530402
 21
1.1839471866
  0
LINE
  5
404
100
AcDbEntity
  8
0
100
AcDbLine
 62
7
  6
CONTINUOUS
 10
2.7117795364
 20
-23.5026872234
 11
2.6985401324
 21
-23.4821944315
  0
LINE
  5
405
100
AcDbEntity
  8
0
100
AcDbLine
 62
7
  6
CONTINUOUS
 10
2.7340297999
 20
-22.5914211496
 11
2.7176642795
 21
-22.5659160164
  0
LINE
  5
406
100
AcDbEntity
  8
RACCORDO
100
AcDbLine
 62
7
  6
CONTINUOUS
 10
-49.7856929167
 20
-4.8607779575
 11
-49.7638409575
 21
-4.8948710363
  0
LINE
  5
407
100
AcDbEntity
  8
RACCORDO
100
AcDbLine
 62
7
  6
CONTINUOUS
 10
-49.3377755932
 20
-5.3495861421
 11
-49.3288163829
 21
-5.3636100487
  0
LINE
  5
408
100
AcDbEntity
  8
RACCORDO
100
AcDbLine
 62
7
  6
CONTINUOUS
 10
51.2526551141
 20
-63.4292397325
 11
51.2616141921
 21
-63.4432636033
  0
LINE
  5
409
100
AcDbEntity
  8
0
100
AcDbLine
 62
7
  6
CONTINUOUS
 10
2.8069451653
 20
-23.423699223
 11
2.8199597049
 21
-23.4440759694
  0
LINE
  5
40A
100
AcDbEntity
  8
RACCORDO
100
AcDbLine
 62
7
  6
CONTINUOUS
 10
-32.3703463836
 20
1.3211980041
 11
-32.3838288822
 21
1.3423374006
  0
LINE
  5
40B
100
AcDbEntity
  8
RACCORDO
100
AcDbLine
 62
7
  6
CONTINUOUS
 10
-49.8378569695
 20
-4.8448258722
 11
-49.8043849273
 21
-4.8973122923
  0
LINE
  5
40C
100
AcDbEntity
  8
RACCORDO
100
AcDbLine
 62
7
  6
CONTINUOUS
 10
-32.9238514171
 20
0.931529691
 11
-32.9454279018
 21
0.9655369925
  0
LINE
  5
40D
100
AcDbEntity
  8
RACCORDO
100
AcDbLine
 62
7
  6
CONTINUOUS
 10
31.1190335144
 20
1.2828874277
 11
31.1397457235
 21
1.2500596981
  0
LINE
  5
40E
100
AcDbEntity
  8
0
100
AcDbLine
 62
7
  6
CONTINUOUS
 10
3.0020331931
 20
-22.4661440959
 11
3.0261414701
 21
-22.5043769908
  0
LINE
  5
40F
100
AcDbEntity
  8
0
100
AcDbLine
 62
7
  6
CONTINUOUS
 10
3.045651636
 20
-23.5221964079
 11
3.060022866
 21
-23.5453815937
  0
LINE
  5
410
100
AcDbEntity
  8
RACCORDO
100
AcDbLine
 62
7
  6
CONTINUOUS
 10
-32.3838288822
 20
1.3423374006
 11
-32.3970957805
 21
1.3639994508
  0
LINE
  5
411
100
AcDbEntity
  8
RACCORDO
100
AcDbLine
 62
7
  6
CONTINUOUS
 10
31.0587530402
 20
1.1839471866
 11
31.0856041225
 21
1.1400346094
  0
LINE
  5
412
100
AcDbEntity
  8
RACCORDO
100
AcDbLine
 62
7
  6
CONTINUOUS
 10
-32.9454279018
 20
0.9655369925
 11
-32.9666458133
 21
1.0003359771
  0
LINE
  5
413
100
AcDbEntity
  8
RACCORDO
100
AcDbLine
 62
7
  6
CONTINUOUS
 10
31.1397457235
 20
1.2500596981
 11
31.16007021
 21
1.2164500573
  0
LINE
  5
414
100
AcDbEntity
  8
RACCORDO
100
AcDbLine
 62
7
  6
CONTINUOUS
 10
-49.8064685927
 20
-4.826252876
 11
-49.7856929167
 21
-4.8607779575
  0
LINE
  5
415
100
AcDbEntity
  8
0
100
AcDbLine
 62
7
  6
CONTINUOUS
 10
2.7243215546
 20
-23.5235689971
 11
2.7117795364
 21
-23.5026872234
  0
LINE
  5
416
100
AcDbEntity
  8
0
100
AcDbLine
 62
7
  6
CONTINUOUS
 10
2.8340005562
 20
-22.5197855286
 11
2.8474331008
 21
-22.5421504146
  0
LINE
  5
417
100
AcDbEntity
  8
RACCORDO
100
AcDbLine
 62
7
  6
CONTINUOUS
 10
-51.6401234503
 20
48.8909938991
 11
-51.6481283794
 21
48.9043327127
  0
LINE
  5
418
100
AcDbEntity
  8
RACCORDO
100
AcDbLine
 62
7
  6
CONTINUOUS
 10
31.3269595494
 20
0.3170547251
 11
31.3136193952
 21
0.3393169753
  0
LINE
  5
419
100
AcDbEntity
  8
0
100
AcDbLine
 62
7
  6
CONTINUOUS
 10
2.8199597049
 20
-23.4440759694
 11
2.832248604
 21
-23.4647392772
  0
LINE
  5
41A
100
AcDbEntity
  8
RACCORDO
100
AcDbLine
 62
7
  6
CONTINUOUS
 10
-49.8691027156
 20
-4.7916661919
 11
-49.8378569695
 21
-4.8448258722
  0
LINE
  5
41B
100
AcDbEntity
  8
RACCORDO
100
AcDbLine
 62
7
  6
CONTINUOUS
 10
-32.3970957805
 20
1.3639994508
 11
-32.4101063883
 21
1.3861424447
  0
LINE
  5
41C
100
AcDbEntity
  8
RACCORDO
100
AcDbLine
 62
7
  6
CONTINUOUS
 10
-32.9666458133
 20
1.0003359771
 11
-32.9874879263
 21
1.0359454626
  0
LINE
  5
41D
100
AcDbEntity
  8
0
100
AcDbLine
 62
7
  6
CONTINUOUS
 10
3.060022866
 20
-23.5453815937
 11
3.0733654245
 21
-23.5683292191
  0
LINE
  5
41E
100
AcDbEntity
  8
0
100
AcDbLine
 62
7
  6
CONTINUOUS
 10
3.0261414701
 20
-22.5043769908
 11
3.0494488866
 21
-22.5444976082
  0
LINE
  5
41F
100
AcDbEntity
  8
0
100
AcDbLine
 62
7
  6
CONTINUOUS
 10
2.7488428129
 20
-22.6174732625
 11
2.7340297999
 21
-22.5914211496
  0
LINE
  5
420
100
AcDbEntity
  8
RACCORDO
100
AcDbLine
 62
7
  6
CONTINUOUS
 10
-49.8259516815
 20
-4.7916365843
 11
-49.8064685927
 21
-4.826252876
  0
LINE
  5
421
100
AcDbEntity
  8
RACCORDO
100
AcDbLine
 62
7
  6
CONTINUOUS
 10
-32.4101063883
 20
1.3861424447
 11
-32.4228326067
 21
1.4087490834
  0
LINE
  5
422
100
AcDbEntity
  8
RACCORDO
100
AcDbLine
 62
7
  6
CONTINUOUS
 10
-32.9874879263
 20
1.0359454626
 11
-33.0079704874
 21
1.0723472523
  0
LINE
  5
423
100
AcDbEntity
  8
RACCORDO
100
AcDbLine
 62
7
  6
CONTINUOUS
 10
31.2500531684
 20
-35.9820609782
 11
31.2294994207
 21
-35.9454755649
  0
LINE
  5
424
100
AcDbEntity
  8
RACCORDO
100
AcDbLine
 62
7
  6
CONTINUOUS
 10
31.3269600704
 20
-35.3916308681
 11
31.3136195622
 21
-35.3677143639
  0
LINE
  5
425
100
AcDbEntity
  8
0
100
AcDbLine
 62
7
  6
CONTINUOUS
 10
2.736174943
 20
-23.5448332806
 11
2.7243215546
 21
-23.5235689971
  0
LINE
  5
426
100
AcDbEntity
  8
RACCORDO
100
AcDbLine
 62
7
  6
CONTINUOUS
 10
-51.6401234468
 20
11.8786710069
 11
-51.648128376
 21
11.8930385781
  0
LINE
  5
427
100
AcDbEntity
  8
0
100
AcDbLine
 62
7
  6
CONTINUOUS
 10
2.832248604
 20
-23.4647392772
 11
2.8438199343
 21
-23.4856612515
  0
LINE
  5
428
100
AcDbEntity
  8
0
100
AcDbLine
 62
7
  6
CONTINUOUS
 10
2.8474331008
 20
-22.5421504146
 11
2.859719533
 21
-22.5645487699
  0
LINE
  5
429
100
AcDbEntity
  8
RACCORDO
100
AcDbLine
 62
7
  6
CONTINUOUS
 10
-33.0079704874
 20
1.0723472523
 11
-33.0280929801
 21
1.1095416739
  0
LINE
  5
42A
100
AcDbEntity
  8
0
100
AcDbLine
 62
7
  6
CONTINUOUS
 10
3.0733654245
 20
-23.5683292191
 11
3.0857056249
 21
-23.5911700987
  0
LINE
  5
42B
100
AcDbEntity
  8
RACCORDO
100
AcDbLine
 62
7
  6
CONTINUOUS
 10
-49.8980214515
 20
-4.7379836817
 11
-49.8691027156
 21
-4.7916661919
  0
LINE
  5
42C
100
AcDbEntity
  8
0
100
AcDbLine
 62
7
  6
CONTINUOUS
 10
3.0494488866
 20
-22.5444976082
 11
3.0720530375
 21
-22.5869159662
  0
LINE
  5
42D
100
AcDbEntity
  8
RACCORDO
100
AcDbLine
 62
7
  6
CONTINUOUS
 10
-32.4228326067
 20
1.4087490834
 11
-32.4430226264
 21
1.4468335349
  0
LINE
  5
42E
100
AcDbEntity
  8
RACCORDO
100
AcDbLine
 62
7
  6
CONTINUOUS
 10
-49.8441344691
 20
-4.7569122659
 11
-49.8259516815
 21
-4.7916365843
  0
LINE
  5
42F
100
AcDbEntity
  8
RACCORDO
100
AcDbLine
 62
7
  6
CONTINUOUS
 10
-50.0047745421
 20
-4.4250478014
 11
-50.0129178509
 21
-4.4094585717
  0
LINE
  5
430
100
AcDbEntity
  8
RACCORDO
100
AcDbLine
 62
7
  6
CONTINUOUS
 10
-32.2579115868
 20
37.9609898372
 11
-32.2468072526
 21
37.9396736622
  0
LINE
  5
431
100
AcDbEntity
  8
0
100
AcDbLine
 62
7
  6
CONTINUOUS
 10
2.7473314469
 20
-23.5664862087
 11
2.736174943
 21
-23.5448332806
  0
LINE
  5
432
100
AcDbEntity
  8
0
100
AcDbLine
 62
7
  6
CONTINUOUS
 10
3.0857056249
 20
-23.5911700987
 11
3.0973227073
 21
-23.6138142519
  0
LINE
  5
433
100
AcDbEntity
  8
0
100
AcDbLine
 62
7
  6
CONTINUOUS
 10
2.8438199343
 20
-23.4856612515
 11
2.8546660627
 21
-23.5068694921
  0
LINE
  5
434
100
AcDbEntity
  8
RACCORDO
100
AcDbLine
 62
7
  6
CONTINUOUS
 10
-33.0280929801
 20
1.1095416739
 11
-33.060062155
 21
1.1722120945
  0
LINE
  5
435
100
AcDbEntity
  8
RACCORDO
100
AcDbLine
 62
7
  6
CONTINUOUS
 10
-50.0129212639
 20
67.3037713494
 11
-50.0190314739
 21
67.3158063419
  0
LINE
  5
436
100
AcDbEntity
  8
0
100
AcDbLine
 62
7
  6
CONTINUOUS
 10
2.7622527008
 20
-22.6440056417
 11
2.7488428129
 21
-22.6174732625
  0
LINE
  5
437
100
AcDbEntity
  8
0
100
AcDbLine
 62
7
  6
CONTINUOUS
 10
2.859719533
 20
-22.5645487699
 11
2.8707734022
 21
-22.5869390981
  0
LINE
  5
438
100
AcDbEntity
  8
0
100
AcDbLine
 62
7
  6
CONTINUOUS
 10
3.0720530375
 20
-22.5869159662
 11
3.0938593988
 21
-22.6312200132
  0
LINE
  5
439
100
AcDbEntity
  8
RACCORDO
100
AcDbLine
 62
7
  6
CONTINUOUS
 10
-49.9244966484
 20
-4.6839346622
 11
-49.8980214515
 21
-4.7379836817
  0
LINE
  5
43A
100
AcDbEntity
  8
RACCORDO
100
AcDbLine
 62
7
  6
CONTINUOUS
 10
-32.4430226264
 20
1.4468335349
 11
-32.461927596
 21
1.4854823958
  0
LINE
  5
43B
100
AcDbEntity
  8
0
100
AcDbLine
 62
7
  6
CONTINUOUS
 10
3.0973227073
 20
-23.6138142519
 11
3.1082557412
 21
-23.6362577208
  0
LINE
  5
43C
100
AcDbEntity
  8
RACCORDO
100
AcDbLine
 62
7
  6
CONTINUOUS
 10
-49.8610235169
 20
-4.7220958317
 11
-49.8441344691
 21
-4.7569122659
  0
LINE
  5
43D
100
AcDbEntity
  8
0
100
AcDbLine
 62
7
  6
CONTINUOUS
 10
2.7577087301
 20
-23.5882345556
 11
2.7473314469
 21
-23.5664862087
  0
LINE
  5
43E
100
AcDbEntity
  8
0
100
AcDbLine
 62
7
  6
CONTINUOUS
 10
2.8546660627
 20
-23.5068694921
 11
2.8647608644
 21
-23.5281588505
  0
LINE
  5
43F
100
AcDbEntity
  8
RACCORDO
100
AcDbLine
 62
7
  6
CONTINUOUS
 10
-49.3452206205
 20
-5.3338439665
 11
-49.3377755932
 21
-5.3495861421
  0
LINE
  5
440
100
AcDbEntity
  8
RACCORDO
100
AcDbLine
 62
7
  6
CONTINUOUS
 10
51.2452102094
 20
-63.4134976649
 11
51.2526551141
 21
-63.4292397325
  0
LINE
  5
441
100
AcDbEntity
  8
RACCORDO
100
AcDbLine
 62
7
  6
CONTINUOUS
 10
-33.060062155
 20
1.1722120945
 11
-33.0898098817
 21
1.2354123338
  0
LINE
  5
442
100
AcDbEntity
  8
RACCORDO
100
AcDbLine
 62
7
  6
CONTINUOUS
 10
31.2294994207
 20
-35.9454755649
 11
31.2118057585
 21
-35.9077902684
  0
LINE
  5
443
100
AcDbEntity
  8
0
100
AcDbLine
 62
7
  6
CONTINUOUS
 10
3.1082557412
 20
-23.6362577208
 11
3.1184658123
 21
-23.6585043588
  0
LINE
  5
444
100
AcDbEntity
  8
0
100
AcDbLine
 62
7
  6
CONTINUOUS
 10
2.7740561179
 20
-22.6700997218
 11
2.7622527008
 21
-22.6440056417
  0
LINE
  5
445
100
AcDbEntity
  8
RACCORDO
100
AcDbLine
 62
7
  6
CONTINUOUS
 10
-32.461927596
 20
1.4854823958
 11
-32.479470916
 21
1.524580535
  0
LINE
  5
446
100
AcDbEntity
  8
0
100
AcDbLine
 62
7
  6
CONTINUOUS
 10
3.0938593988
 20
-22.6312200132
 11
3.1137751857
 21
-22.6758177429
  0
LINE
  5
447
100
AcDbEntity
  8
RACCORDO
100
AcDbLine
 62
7
  6
CONTINUOUS
 10
-49.8764242464
 20
-4.6875774124
 11
-49.8610235169
 21
-4.7220958317
  0
LINE
  5
448
100
AcDbEntity
  8
0
100
AcDbLine
 62
7
  6
CONTINUOUS
 10
2.8707734022
 20
-22.5869390981
 11
2.8806816473
 21
-22.6093625712
  0
LINE
  5
449
100
AcDbEntity
  8
RACCORDO
100
AcDbLine
 62
7
  6
CONTINUOUS
 10
-49.9483834063
 20
-4.629761492
 11
-49.9244966484
 21
-4.6839346622
  0
LINE
  5
44A
100
AcDbEntity
  8
0
100
AcDbLine
 62
7
  6
CONTINUOUS
 10
2.7672794416
 20
-23.6099805156
 11
2.7577087301
 21
-23.5882345556
  0
LINE
  5
44B
100
AcDbEntity
  8
0
100
AcDbLine
 62
7
  6
CONTINUOUS
 10
3.1184658123
 20
-23.6585043588
 11
3.1281150344
 21
-23.6804760028
  0
LINE
  5
44C
100
AcDbEntity
  8
0
100
AcDbLine
 62
7
  6
CONTINUOUS
 10
2.8647608644
 20
-23.5281588505
 11
2.8740957252
 21
-23.5494608809
  0
LINE
  5
44D
100
AcDbEntity
  8
RACCORDO
100
AcDbLine
 62
7
  6
CONTINUOUS
 10
-51.6481283794
 20
48.9043327127
 11
-51.6540837537
 21
48.9179356541
  0
LINE
  5
44E
100
AcDbEntity
  8
RACCORDO
100
AcDbLine
 62
7
  6
CONTINUOUS
 10
-33.0898098817
 20
1.2354123338
 11
-33.1173355078
 21
1.2991428055
  0
LINE
  5
44F
100
AcDbEntity
  8
0
100
AcDbLine
 62
7
  6
CONTINUOUS
 10
3.1281150344
 20
-23.6804760028
 11
3.1372215901
 21
-23.7021681313
  0
LINE
  5
450
100
AcDbEntity
  8
RACCORDO
100
AcDbLine
 62
7
  6
CONTINUOUS
 10
-32.479470916
 20
1.524580535
 11
-32.4956214678
 21
1.5641061244
  0
LINE
  5
451
100
AcDbEntity
  8
RACCORDO
100
AcDbLine
 62
7
  6
CONTINUOUS
 10
-49.8903124102
 20
-4.6533778252
 11
-49.8764242464
 21
-4.6875774124
  0
LINE
  5
452
100
AcDbEntity
  8
RACCORDO
100
AcDbLine
 62
7
  6
CONTINUOUS
 10
31.3136195622
 20
-35.3677143639
 11
31.3036951552
 21
-35.3431134746
  0
LINE
  5
453
100
AcDbEntity
  8
RACCORDO
100
AcDbLine
 62
7
  6
CONTINUOUS
 10
-51.648128376
 20
11.8930385781
 11
-51.6540837503
 21
11.9078193305
  0
LINE
  5
454
100
AcDbEntity
  8
0
100
AcDbLine
 62
7
  6
CONTINUOUS
 10
2.7760713091
 20
-23.6318216406
 11
2.7672794416
 21
-23.6099805156
  0
LINE
  5
455
100
AcDbEntity
  8
0
100
AcDbLine
 62
7
  6
CONTINUOUS
 10
2.8740957252
 20
-23.5494608809
 11
2.8826796121
 21
-23.5708437915
  0
LINE
  5
456
100
AcDbEntity
  8
RACCORDO
100
AcDbLine
 62
7
  6
CONTINUOUS
 10
-32.2671891214
 20
37.9842419453
 11
-32.2579115868
 21
37.9609898372
  0
LINE
  5
457
100
AcDbEntity
  8
0
100
AcDbLine
 62
7
  6
CONTINUOUS
 10
3.1372215901
 20
-23.7021681313
 11
3.1457673312
 21
-23.7235852422
  0
LINE
  5
458
100
AcDbEntity
  8
0
100
AcDbLine
 62
7
  6
CONTINUOUS
 10
2.8806816473
 20
-22.6093625712
 11
2.8894339116
 21
-22.6313741292
  0
LINE
  5
459
100
AcDbEntity
  8
0
100
AcDbLine
 62
7
  6
CONTINUOUS
 10
2.7841529685
 20
-22.6955564284
 11
2.7740561179
 21
-22.6700997218
  0
LINE
  5
45A
100
AcDbEntity
  8
0
100
AcDbLine
 62
7
  6
CONTINUOUS
 10
3.1137751857
 20
-22.6758177429
 11
3.1315684877
 21
-22.7207706446
  0
LINE
  5
45B
100
AcDbEntity
  8
RACCORDO
100
AcDbLine
 62
7
  6
CONTINUOUS
 10
-33.1173355078
 20
1.2991428055
 11
-33.1427921934
 21
1.3637811629
  0
LINE
  5
45C
100
AcDbEntity
  8
RACCORDO
100
AcDbLine
 62
7
  6
CONTINUOUS
 10
-49.9695864734
 20
-4.5755942052
 11
-49.9483834063
 21
-4.629761492
  0
LINE
  5
45D
100
AcDbEntity
  8
0
100
AcDbLine
 62
7
  6
CONTINUOUS
 10
3.1457673312
 20
-23.7235852422
 11
3.1538597646
 21
-23.7446627753
  0
LINE
  5
45E
100
AcDbEntity
  8
RACCORDO
100
AcDbLine
 62
7
  6
CONTINUOUS
 10
31.2118057585
 20
-35.9077902684
 11
31.1970996786
 21
-35.8692766407
  0
LINE
  5
45F
100
AcDbEntity
  8
RACCORDO
100
AcDbLine
 62
7
  6
CONTINUOUS
 10
-50.0129178509
 20
-4.4094585717
 11
-50.0190276117
 21
-4.3932784401
  0
LINE
  5
460
100
AcDbEntity
  8
0
100
AcDbLine
 62
7
  6
CONTINUOUS
 10
3.1538597646
 20
-23.7446627753
 11
3.1615002054
 21
-23.7653686026
  0
LINE
  5
461
100
AcDbEntity
  8
RACCORDO
100
AcDbLine
 62
7
  6
CONTINUOUS
 10
-32.4956214678
 20
1.5641061244
 11
-32.5102558873
 21
1.6038356482
  0
LINE
  5
462
100
AcDbEntity
  8
RACCORDO
100
AcDbLine
 62
7
  6
CONTINUOUS
 10
-49.9027114322
 20
-4.6194756083
 11
-49.8903124102
 21
-4.6533778252
  0
LINE
  5
463
100
AcDbEntity
  8
0
100
AcDbLine
 62
7
  6
CONTINUOUS
 10
2.7840845404
 20
-23.6537577903
 11
2.7760713091
 21
-23.6318216406
  0
LINE
  5
464
100
AcDbEntity
  8
0
100
AcDbLine
 62
7
  6
CONTINUOUS
 10
2.8826796121
 20
-23.5708437915
 11
2.8905127176
 21
-23.5923074526
  0
LINE
  5
465
100
AcDbEntity
  8
RACCORDO
100
AcDbLine
 62
7
  6
CONTINUOUS
 10
-33.1427921934
 20
1.3637811629
 11
-33.1660253187
 21
1.4289506778
  0
LINE
  5
466
100
AcDbEntity
  8
0
100
AcDbLine
 62
7
  6
CONTINUOUS
 10
3.1615002054
 20
-23.7653686026
 11
3.1686872747
 21
-23.7857348943
  0
LINE
  5
467
100
AcDbEntity
  8
0
100
AcDbLine
 62
7
  6
CONTINUOUS
 10
2.8894339116
 20
-22.6313741292
 11
2.8970145052
 21
-22.6529214366
  0
LINE
  5
468
100
AcDbEntity
  8
0
100
AcDbLine
 62
7
  6
CONTINUOUS
 10
3.1315684877
 20
-22.7207706446
 11
3.147473411
 21
-22.76601577
  0
LINE
  5
469
100
AcDbEntity
  8
RACCORDO
100
AcDbLine
 62
7
  6
CONTINUOUS
 10
-49.9880131061
 20
-4.5215240444
 11
-49.9695864734
 21
-4.5755942052
  0
LINE
  5
46A
100
AcDbEntity
  8
0
100
AcDbLine
 62
7
  6
CONTINUOUS
 10
3.1686872747
 20
-23.7857348943
 11
3.1755243814
 21
-23.8057935765
  0
LINE
  5
46B
100
AcDbEntity
  8
0
100
AcDbLine
 62
7
  6
CONTINUOUS
 10
2.7926437344
 20
-22.7205745788
 11
2.7841529685
 21
-22.6955564284
  0
LINE
  5
46C
100
AcDbEntity
  8
0
100
AcDbLine
 62
7
  6
CONTINUOUS
 10
2.8905127176
 20
-23.5923074526
 11
2.9027760777
 21
-23.6284777718
  0
LINE
  5
46D
100
AcDbEntity
  8
0
100
AcDbLine
 62
7
  6
CONTINUOUS
 10
2.7963791445
 20
-23.6900309125
 11
2.7840845404
 21
-23.6537577903
  0
LINE
  5
46E
100
AcDbEntity
  8
RACCORDO
100
AcDbLine
 62
7
  6
CONTINUOUS
 10
-49.3510924548
 20
-5.3165082959
 11
-49.3452206205
 21
-5.3338439665
  0
LINE
  5
46F
100
AcDbEntity
  8
RACCORDO
100
AcDbLine
 62
7
  6
CONTINUOUS
 10
-50.0190314739
 20
67.3158063419
 11
-50.0230645891
 21
67.327821183
  0
LINE
  5
470
100
AcDbEntity
  8
0
100
AcDbLine
 62
7
  6
CONTINUOUS
 10
2.9027760777
 20
-23.6284777718
 11
2.91472056
 21
-23.6645351226
  0
LINE
  5
471
100
AcDbEntity
  8
0
100
AcDbLine
 62
7
  6
CONTINUOUS
 10
2.8083514197
 20
-23.726183443
 11
2.7963791445
 21
-23.6900309125
  0
LINE
  5
472
100
AcDbEntity
  8
0
100
AcDbLine
 62
7
  6
CONTINUOUS
 10
3.1755243814
 20
-23.8057935765
 11
3.1820038775
 21
-23.8255106707
  0
LINE
  5
473
100
AcDbEntity
  8
RACCORDO
100
AcDbLine
 62
7
  6
CONTINUOUS
 10
-32.5102558873
 20
1.6038356482
 11
-32.5231967791
 21
1.6433488933
  0
LINE
  5
474
100
AcDbEntity
  8
RACCORDO
100
AcDbLine
 62
7
  6
CONTINUOUS
 10
-49.9134986264
 20
-4.5861977775
 11
-49.9027114322
 21
-4.6194756083
  0
LINE
  5
475
100
AcDbEntity
  8
0
100
AcDbLine
 62
7
  6
CONTINUOUS
 10
2.91472056
 20
-23.6645351226
 11
2.9263462168
 21
-23.7004794679
  0
LINE
  5
476
100
AcDbEntity
  8
0
100
AcDbLine
 62
7
  6
CONTINUOUS
 10
2.8200014147
 20
-23.7622153473
 11
2.8083514197
 21
-23.726183443
  0
LINE
  5
477
100
AcDbEntity
  8
RACCORDO
100
AcDbLine
 62
7
  6
CONTINUOUS
 10
-33.1660253187
 20
1.4289506778
 11
-33.1865728721
 21
1.4935199938
  0
LINE
  5
478
100
AcDbEntity
  8
0
100
AcDbLine
 62
7
  6
CONTINUOUS
 10
3.1820038775
 20
-23.8255106707
 11
3.188133329
 21
-23.8449202099
  0
LINE
  5
479
100
AcDbEntity
  8
0
100
AcDbLine
 62
7
  6
CONTINUOUS
 10
2.8312778514
 20
-23.7980930783
 11
2.8200014147
 21
-23.7622153473
  0
LINE
  5
47A
100
AcDbEntity
  8
0
100
AcDbLine
 62
7
  6
CONTINUOUS
 10
2.9263462168
 20
-23.7004794679
 11
2.9376019013
 21
-23.736276368
  0
LINE
  5
47B
100
AcDbEntity
  8
0
100
AcDbLine
 62
7
  6
CONTINUOUS
 10
3.147473411
 20
-22.76601577
 11
3.1610943574
 21
-22.8097756717
  0
LINE
  5
47C
100
AcDbEntity
  8
0
100
AcDbLine
 62
7
  6
CONTINUOUS
 10
3.188133329
 20
-23.8449202099
 11
3.1940389769
 21
-23.8641561294
  0
LINE
  5
47D
100
AcDbEntity
  8
0
100
AcDbLine
 62
7
  6
CONTINUOUS
 10
2.9376019013
 20
-23.736276368
 11
2.9593107588
 21
-23.8076340997
  0
LINE
  5
47E
100
AcDbEntity
  8
0
100
AcDbLine
 62
7
  6
CONTINUOUS
 10
2.8530182061
 20
-23.8695869555
 11
2.8312778514
 21
-23.7980930783
  0
LINE
  5
47F
100
AcDbEntity
  8
0
100
AcDbLine
 62
7
  6
CONTINUOUS
 10
2.8970145052
 20
-22.6529214366
 11
2.9034393033
 21
-22.6740567053
  0
LINE
  5
480
100
AcDbEntity
  8
0
100
AcDbLine
 62
7
  6
CONTINUOUS
 10
3.1940389769
 20
-23.8641561294
 11
3.1997111153
 21
-23.8832102017
  0
LINE
  5
481
100
AcDbEntity
  8
0
100
AcDbLine
 62
7
  6
CONTINUOUS
 10
3.016008467
 20
-24.4218651002
 11
2.9265907393
 21
-24.1211624075
  0
LINE
  5
482
100
AcDbEntity
  8
0
100
AcDbLine
 62
7
  6
CONTINUOUS
 10
3.0328613208
 20
-24.0590655573
 11
3.1224828822
 21
-24.3603881073
  0
LINE
  5
483
100
AcDbEntity
  8
RACCORDO
100
AcDbLine
 62
7
  6
CONTINUOUS
 10
-32.2745879051
 20
38.0092997817
 11
-32.2671891214
 21
37.9842419453
  0
LINE
  5
484
100
AcDbEntity
  8
0
100
AcDbLine
 62
7
  6
CONTINUOUS
 10
2.8740859056
 20
-23.9409921904
 11
2.8530182061
 21
-23.8695869555
  0
LINE
  5
485
100
AcDbEntity
  8
0
100
AcDbLine
 62
7
  6
CONTINUOUS
 10
2.9593107588
 20
-23.8076340997
 11
2.9803595417
 21
-23.8789461108
  0
LINE
  5
486
100
AcDbEntity
  8
0
100
AcDbLine
 62
7
  6
CONTINUOUS
 10
2.9803595417
 20
-23.8789461108
 11
3.0328613208
 21
-24.0590655573
  0
LINE
  5
487
100
AcDbEntity
  8
0
100
AcDbLine
 62
7
  6
CONTINUOUS
 10
2.9265907393
 20
-24.1211624075
 11
2.8740859056
 21
-23.9409921904
  0
LINE
  5
488
100
AcDbEntity
  8
RACCORDO
100
AcDbLine
 62
7
  6
CONTINUOUS
 10
-50.0035670175
 20
-4.4676273516
 11
-49.9880131061
 21
-4.5215240444
  0
LINE
  5
489
100
AcDbEntity
  8
0
100
AcDbLine
 62
7
  6
CONTINUOUS
 10
2.7996254434
 20
-22.7448327729
 11
2.7926437344
 21
-22.7205745788
  0
LINE
  5
48A
100
AcDbEntity
  8
0
100
AcDbLine
 62
7
  6
CONTINUOUS
 10
3.1997111153
 20
-23.8832102017
 11
3.2105392484
 21
-23.9209561645
  0
LINE
  5
48B
100
AcDbEntity
  8
RACCORDO
100
AcDbLine
 62
7
  6
CONTINUOUS
 10
-32.5231967791
 20
1.6433488933
 11
-32.5344051605
 21
1.6825184812
  0
LINE
  5
48C
100
AcDbEntity
  8
0
100
AcDbLine
 62
7
  6
CONTINUOUS
 10
3.2105392484
 20
-23.9209561645
 11
3.2211971126
 21
-23.9587479005
  0
LINE
  5
48D
100
AcDbEntity
  8
RACCORDO
100
AcDbLine
 62
7
  6
CONTINUOUS
 10
-49.9226330304
 20
-4.553653287
 11
-49.9134986264
 21
-4.5861977775
  0
LINE
  5
48E
100
AcDbEntity
  8
RACCORDO
100
AcDbLine
 62
7
  6
CONTINUOUS
 10
-51.6540837537
 20
48.9179356541
 11
-51.6579472148
 21
48.931705971
  0
LINE
  5
48F
100
AcDbEntity
  8
0
100
AcDbLine
 62
7
  6
CONTINUOUS
 10
3.3325703624
 20
-24.3605177045
 11
3.4134962334
 21
-24.6513695548
  0
LINE
  5
490
100
AcDbEntity
  8
RACCORDO
100
AcDbLine
 62
7
  6
CONTINUOUS
 10
-33.1865728721
 20
1.4935199938
 11
-33.2043216063
 21
1.5574397591
  0
LINE
  5
491
100
AcDbEntity
  8
0
100
AcDbLine
 62
7
  6
CONTINUOUS
 10
3.2211971126
 20
-23.9587479005
 11
3.3325703624
 21
-24.3605177045
  0
LINE
  5
492
100
AcDbEntity
  8
0
100
AcDbLine
 62
7
  6
CONTINUOUS
 10
3.1610943574
 20
-22.8097756717
 11
3.1721244533
 21
-22.8516593785
  0
LINE
  5
493
100
AcDbEntity
  8
0
100
AcDbLine
 62
7
  6
CONTINUOUS
 10
2.9034393033
 20
-22.6740567053
 11
2.908745017
 21
-22.6944918828
  0
LINE
  5
494
100
AcDbEntity
  8
RACCORDO
100
AcDbLine
 62
7
  6
CONTINUOUS
 10
-51.6540837503
 20
11.9078193305
 11
-51.6579472116
 21
11.9229081344
  0
LINE
  5
495
100
AcDbEntity
  8
RACCORDO
100
AcDbLine
 62
7
  6
CONTINUOUS
 10
-32.5344051605
 20
1.6825184812
 11
-32.5438641899
 21
1.721227253
  0
LINE
  5
496
100
AcDbEntity
  8
RACCORDO
100
AcDbLine
 62
7
  6
CONTINUOUS
 10
-50.0190276117
 20
-4.3932784401
 11
-50.0230603255
 21
-4.3766226026
  0
LINE
  5
497
100
AcDbEntity
  8
RACCORDO
100
AcDbLine
 62
7
  6
CONTINUOUS
 10
-33.2043216063
 20
1.5574397591
 11
-33.2193839789
 21
1.6207598242
  0
LINE
  5
498
100
AcDbEntity
  8
RACCORDO
100
AcDbLine
 62
7
  6
CONTINUOUS
 10
-49.9301551862
 20
-4.5217328562
 11
-49.9226330304
 21
-4.553653287
  0
LINE
  5
499
100
AcDbEntity
  8
0
100
AcDbLine
 62
7
  6
CONTINUOUS
 10
2.8051303979
 20
-22.7682239039
 11
2.7996254434
 21
-22.7448327729
  0
LINE
  5
49A
100
AcDbEntity
  8
RACCORDO
100
AcDbLine
 62
7
  6
CONTINUOUS
 10
-50.0161375602
 20
-4.4139361369
 11
-50.0035670175
 21
-4.4676273516
  0
LINE
  5
49B
100
AcDbEntity
  8
RACCORDO
100
AcDbLine
 62
7
  6
CONTINUOUS
 10
-49.3553445554
 20
-5.2977165344
 11
-49.3510924548
 21
-5.3165082959
  0
LINE
  5
49C
100
AcDbEntity
  8
0
100
AcDbLine
 62
7
  6
CONTINUOUS
 10
3.1721244533
 20
-22.8516593785
 11
3.1808702132
 21
-22.8920580934
  0
LINE
  5
49D
100
AcDbEntity
  8
0
100
AcDbLine
 62
7
  6
CONTINUOUS
 10
2.908745017
 20
-22.6944918828
 11
2.9129438169
 21
-22.7141309957
  0
LINE
  5
49E
100
AcDbEntity
  8
RACCORDO
100
AcDbLine
 62
7
  6
CONTINUOUS
 10
-32.2800665069
 20
38.0360230302
 11
-32.2745879051
 21
38.0092997817
  0
LINE
  5
49F
100
AcDbEntity
  8
RACCORDO
100
AcDbLine
 62
7
  6
CONTINUOUS
 10
-32.5438641899
 20
1.721227253
 11
-32.5515049022
 21
1.7590896135
  0
LINE
  5
4A0
100
AcDbEntity
  8
RACCORDO
100
AcDbLine
 62
7
  6
CONTINUOUS
 10
-33.2193839789
 20
1.6207598242
 11
-33.2316372649
 21
1.6824971727
  0
LINE
  5
4A1
100
AcDbEntity
  8
RACCORDO
100
AcDbLine
 62
7
  6
CONTINUOUS
 10
-49.9360648579
 20
-4.4904363019
 11
-49.9301551862
 21
-4.5217328562
  0
LINE
  5
4A2
100
AcDbEntity
  8
RACCORDO
100
AcDbLine
 62
7
  6
CONTINUOUS
 10
-50.0233959179
 20
-4.3746422691
 11
-50.0161375602
 21
-4.4139361369
  0
LINE
  5
4A3
100
AcDbEntity
  8
0
100
AcDbLine
 62
7
  6
CONTINUOUS
 10
3.1808702132
 20
-22.8920580934
 11
3.1878541815
 21
-22.9303689169
  0
LINE
  5
4A4
100
AcDbEntity
  8
0
100
AcDbLine
 62
7
  6
CONTINUOUS
 10
2.8091263614
 20
-22.7908550338
 11
2.8051303979
 21
-22.7682239039
  0
LINE
  5
4A5
100
AcDbEntity
  8
RACCORDO
100
AcDbLine
 62
7
  6
CONTINUOUS
 10
-50.0230603255
 20
-4.3766226026
 11
-50.0233659151
 21
-4.3748267486
  0
LINE
  5
4A6
100
AcDbEntity
  8
RACCORDO
100
AcDbLine
 62
7
  6
CONTINUOUS
 10
-50.0233659151
 20
-4.3748267486
 11
-50.0233959179
 21
-4.3746422691
  0
LINE
  5
4A7
100
AcDbEntity
  8
0
100
AcDbLine
 62
7
  6
CONTINUOUS
 10
2.9129438169
 20
-22.7141309957
 11
2.9160234664
 21
-22.7330700607
  0
LINE
  5
4A8
100
AcDbEntity
  8
RACCORDO
100
AcDbLine
 62
7
  6
CONTINUOUS
 10
-50.0230645891
 20
67.327821183
 11
-50.0249918948
 21
67.3397303299
  0
LINE
  5
4A9
100
AcDbEntity
  8
RACCORDO
100
AcDbLine
 62
7
  6
CONTINUOUS
 10
-32.5515049022
 20
1.7590896135
 11
-32.5573337935
 21
1.7959193735
  0
LINE
  5
4AA
100
AcDbEntity
  8
RACCORDO
100
AcDbLine
 62
7
  6
CONTINUOUS
 10
-33.2316372649
 20
1.6824971727
 11
-33.2410407208
 21
1.742324027
  0
LINE
  5
4AB
100
AcDbEntity
  8
RACCORDO
100
AcDbLine
 62
7
  6
CONTINUOUS
 10
-50.2888241482
 20
-2.6756945324
 11
-50.0233700108
 21
-4.3748274166
  0
LINE
  5
4AC
100
AcDbEntity
  8
RACCORDO
100
AcDbLine
 62
7
  6
CONTINUOUS
 10
-50.2076106054
 20
-2.7505213625
 11
-49.9360648579
 21
-4.4904363019
  0
LINE
  5
4AD
100
AcDbEntity
  8
0
100
AcDbLine
 62
7
  6
CONTINUOUS
 10
3.1878541815
 20
-22.9303689169
 11
3.1930839376
 21
-22.9663439749
  0
LINE
  5
4AE
100
AcDbEntity
  8
RACCORDO
100
AcDbLine
 62
7
  6
CONTINUOUS
 10
-50.5403984714
 20
-0.9036521696
 11
-50.2888241482
 21
-2.6756945324
  0
LINE
  5
4AF
100
AcDbEntity
  8
RACCORDO
100
AcDbLine
 62
7
  6
CONTINUOUS
 10
-50.4568130116
 20
-0.9917729618
 11
-50.2076106054
 21
-2.7505213625
  0
LINE
  5
4B0
100
AcDbEntity
  8
RACCORDO
100
AcDbLine
 62
7
  6
CONTINUOUS
 10
-50.7692309058
 20
0.8870610046
 11
-50.5403984714
 21
-0.9036521696
  0
LINE
  5
4B1
100
AcDbEntity
  8
RACCORDO
100
AcDbLine
 62
7
  6
CONTINUOUS
 10
-50.683619194
 20
0.7854520691
 11
-50.4568130116
 21
-0.9917729618
  0
LINE
  5
4B2
100
AcDbEntity
  8
RACCORDO
100
AcDbLine
 62
7
  6
CONTINUOUS
 10
-51.6579472148
 20
48.931705971
 11
-51.6596912835
 21
48.9455457204
  0
LINE
  5
4B3
100
AcDbEntity
  8
RACCORDO
100
AcDbLine
 62
7
  6
CONTINUOUS
 10
-32.2835942484
 20
38.064262049
 11
-32.2800665069
 21
38.0360230302
  0
LINE
  5
4B4
100
AcDbEntity
  8
RACCORDO
100
AcDbLine
 62
7
  6
CONTINUOUS
 10
-51.6579472116
 20
11.9229081344
 11
-51.6596912805
 21
11.9381976692
  0
LINE
  5
4B5
100
AcDbEntity
  8
RACCORDO
100
AcDbLine
 62
7
  6
CONTINUOUS
 10
-50.9752680101
 20
2.6960337029
 11
-50.7692309058
 21
0.8870610046
  0
LINE
  5
4B6
100
AcDbEntity
  8
RACCORDO
100
AcDbLine
 62
7
  6
CONTINUOUS
 10
-50.8879786696
 20
2.5807888936
 11
-50.683619194
 21
0.7854520691
  0
LINE
  5
4B7
100
AcDbEntity
  8
0
100
AcDbLine
 62
7
  6
CONTINUOUS
 10
2.8116133862
 20
-22.8127261273
 11
2.8091263614
 21
-22.7908550338
  0
LINE
  5
4B8
100
AcDbEntity
  8
RACCORDO
100
AcDbLine
 62
7
  6
CONTINUOUS
 10
-32.5573337935
 20
1.7959193735
 11
-32.5613951587
 21
1.8317167961
  0
LINE
  5
4B9
100
AcDbEntity
  8
RACCORDO
100
AcDbLine
 62
7
  6
CONTINUOUS
 10
-33.2410407208
 20
1.742324027
 11
-33.2476351513
 21
1.8005681232
  0
LINE
  5
4BA
100
AcDbEntity
  8
0
100
AcDbLine
 62
7
  6
CONTINUOUS
 10
3.1965501891
 20
-23.0002322737
 11
3.198749398
 21
-23.0321767488
  0
LINE
  5
4BB
100
AcDbEntity
  8
0
100
AcDbLine
 62
7
  6
CONTINUOUS
 10
2.9179839458
 20
-22.7513090904
 11
2.919080342
 21
-22.7704771305
  0
LINE
  5
4BC
100
AcDbEntity
  8
0
100
AcDbLine
 62
7
  6
CONTINUOUS
 10
2.8127155943
 20
-22.832071581
 11
2.8116133862
 21
-22.8127261273
  0
LINE
  5
4BD
100
AcDbEntity
  8
0
100
AcDbLine
 62
7
  6
CONTINUOUS
 10
3.198749398
 20
-23.0321767488
 11
3.1997468576
 21
-23.0621424058
  0
LINE
  5
4BE
100
AcDbEntity
  8
0
100
AcDbLine
 62
7
  6
CONTINUOUS
 10
2.919080342
 20
-22.7704771305
 11
2.9193632179
 21
-22.789015955
  0
LINE
  5
4BF
100
AcDbEntity
  8
0
100
AcDbLine
 62
7
  6
CONTINUOUS
 10
2.8129879875
 20
-22.8507794468
 11
2.8127155943
 21
-22.832071581
  0
LINE
  5
4C0
100
AcDbEntity
  8
0
100
AcDbLine
 62
7
  6
CONTINUOUS
 10
-2.3169145435
 20
-13.3387241894
 11
-2.3169145435
 21
-13.761354655
  0
LINE
  5
4C1
100
AcDbEntity
  8
0
100
AcDbLine
 62
7
  6
CONTINUOUS
 10
3.1997468576
 20
-23.0621424058
 11
3.1994756293
 21
-23.0901653294
  0
LINE
  5
4C2
100
AcDbEntity
  8
RACCORDO
100
AcDbLine
 62
7
  6
CONTINUOUS
 10
-32.2671891102
 20
0.4540869204
 11
-32.2579115716
 21
0.4880524982
  0
LINE
  5
4C3
100
AcDbEntity
  8
RACCORDO
100
AcDbLine
 62
7
  6
CONTINUOUS
 10
-33.2048641461
 20
37.8421502953
 11
-33.1872239613
 21
37.8911572366
  0
LINE
  5
4C4
100
AcDbEntity
  8
RACCORDO
100
AcDbLine
 62
7
  6
CONTINUOUS
 10
-32.5347143309
 20
37.7070461352
 11
-32.5235795142
 21
37.7372822104
  0
LINE
  5
4C5
100
AcDbEntity
  8
RACCORDO
100
AcDbLine
 62
7
  6
CONTINUOUS
 10
-49.2936211977
 20
67.7510614108
 11
-49.2794264608
 21
67.7736412609
  0
LINE
  5
4C6
100
AcDbEntity
  8
RACCORDO
100
AcDbLine
 62
7
  6
CONTINUOUS
 10
-49.8439852162
 20
67.4908633721
 11
-49.8608871157
 21
67.4644078111
  0
LINE
  5
4C7
100
AcDbEntity
  8
RACCORDO
100
AcDbLine
 62
7
  6
CONTINUOUS
 10
-49.8769638329
 20
67.745363138
 11
-49.9046345451
 21
67.7033736999
  0
LINE
  5
4C8
100
AcDbEntity
  8
RACCORDO
100
AcDbLine
 62
7
  6
CONTINUOUS
 10
51.7494472971
 20
-63.5787244285
 11
51.7887510388
 21
-63.5709070203
  0
LINE
  5
4C9
100
AcDbEntity
  8
RACCORDO
100
AcDbLine
 62
7
  6
CONTINUOUS
 10
51.4894641191
 20
-63.447812364
 11
51.509863107
 21
-63.4439731481
  0
LINE
  5
4CA
100
AcDbEntity
  8
RACCORDO
100
AcDbLine
 62
7
  6
CONTINUOUS
 10
51.8617349183
 20
-63.1703678975
 11
51.886681012
 21
-63.1660750901
  0
LINE
  5
4CB
100
AcDbEntity
  8
RACCORDO
100
AcDbLine
 62
7
  6
CONTINUOUS
 10
30.9889126283
 20
-36.1245748206
 11
30.9396256336
 21
-36.1230474591
  0
LINE
  5
4CC
100
AcDbEntity
  8
RACCORDO
100
AcDbLine
 62
7
  6
CONTINUOUS
 10
31.1528007628
 20
-35.4585688696
 11
31.1235248465
 21
-35.456891441
  0
LINE
  5
4CD
100
AcDbEntity
  8
RACCORDO
100
AcDbLine
 62
7
  6
CONTINUOUS
 10
30.9396256336
 20
-36.1230474591
 11
30.8890422024
 21
-36.1172658819
  0
LINE
  5
4CE
100
AcDbEntity
  8
0
100
AcDbLine
 62
7
  6
CONTINUOUS
 10
2.6627745416
 20
-23.0272105977
 11
2.6776372072
 21
-23.0291610285
  0
LINE
  5
4CF
100
AcDbEntity
  8
RACCORDO
100
AcDbLine
 62
7
  6
CONTINUOUS
 10
-33.1516564348
 20
1.8134965406
 11
-33.1144667687
 21
1.8025979927
  0
LINE
  5
4D0
100
AcDbEntity
  8
0
100
AcDbLine
 62
7
  6
CONTINUOUS
 10
-28.8205349461
 20
10.9758453013
 11
-28.8548421965
 21
10.988103431
  0
LINE
  5
4D1
100
AcDbEntity
  8
0
100
AcDbLine
 62
7
  6
CONTINUOUS
 10
-29.0707009886
 20
10.9621776661
 11
-29.0450860575
 21
10.952706355
  0
LINE
  5
4D2
100
AcDbEntity
  8
RACCORDO
100
AcDbLine
 62
7
  6
CONTINUOUS
 10
-32.8178116162
 20
37.9216615249
 11
-32.7817412985
 21
37.9023562262
  0
LINE
  5
4D3
100
AcDbEntity
  8
RACCORDO
100
AcDbLine
 62
7
  6
CONTINUOUS
 10
-33.2514180407
 20
37.5702458079
 11
-33.2203754322
 21
37.5536097578
  0
LINE
  5
4D4
100
AcDbEntity
  8
RACCORDO
100
AcDbLine
 62
7
  6
CONTINUOUS
 10
-32.3399178351
 20
38.1545640265
 11
-32.2847291681
 21
38.1246472756
  0
LINE
  5
4D5
100
AcDbEntity
  8
RACCORDO
100
AcDbLine
 62
7
  6
CONTINUOUS
 10
-32.1973574545
 20
37.8824650232
 11
-32.1818396802
 21
37.8737896044
  0
LINE
  5
4D6
100
AcDbEntity
  8
0
100
AcDbLine
 62
7
  6
CONTINUOUS
 10
-30.5051631422
 20
36.6802522586
 11
-30.1546951654
 21
36.4778964411
  0
LINE
  5
4D7
100
AcDbEntity
  8
RACCORDO
100
AcDbLine
 62
7
  6
CONTINUOUS
 10
-32.1816915126
 20
37.8737054404
 11
30.6697007059
 21
1.5840992864
  0
LINE
  5
4D8
100
AcDbEntity
  8
RACCORDO
100
AcDbLine
 62
7
  6
CONTINUOUS
 10
-32.2847291681
 20
38.1246472756
 11
30.5666630505
 21
1.8350411215
  0
LINE
  5
4D9
100
AcDbEntity
  8
RACCORDO
100
AcDbLine
 62
7
  6
CONTINUOUS
 10
30.669737713
 20
1.5840778653
 11
30.6763322147
 21
1.5802198882
  0
LINE
  5
4DA
100
AcDbEntity
  8
RACCORDO
100
AcDbLine
 62
7
  6
CONTINUOUS
 10
30.6658809667
 20
1.5863732079
 11
30.6697007064
 21
1.5840992861
  0
LINE
  5
4DB
100
AcDbEntity
  8
RACCORDO
100
AcDbLine
 62
7
  6
CONTINUOUS
 10
-32.1855112825
 20
37.8759793808
 11
-32.1818390368
 21
37.8737907196
  0
LINE
  5
4DC
100
AcDbEntity
  8
RACCORDO
100
AcDbLine
 62
7
  6
CONTINUOUS
 10
30.5666630505
 20
1.8350411215
 11
30.5964119268
 21
1.8172065128
  0
LINE
  5
4DD
100
AcDbEntity
  8
RACCORDO
100
AcDbLine
 62
7
  6
CONTINUOUS
 10
-51.5718329855
 20
48.8314793321
 11
-51.5889563618
 21
48.842135178
  0
LINE
  5
4DE
100
AcDbEntity
  8
RACCORDO
100
AcDbLine
 62
7
  6
CONTINUOUS
 10
31.4407727477
 20
0.217782891
 11
31.4122342465
 21
0.2355485594
  0
LINE
  5
4DF
100
AcDbEntity
  8
RACCORDO
100
AcDbLine
 62
7
  6
CONTINUOUS
 10
30.6763322147
 20
1.5802198882
 11
30.7029415438
 21
1.5636547515
  0
LINE
  5
4E0
100
AcDbEntity
  8
RACCORDO
100
AcDbLine
 62
7
  6
CONTINUOUS
 10
-32.8528527482
 20
37.9437497122
 11
-32.8178116162
 21
37.9216615249
  0
LINE
  5
4E1
100
AcDbEntity
  8
RACCORDO
100
AcDbLine
 62
7
  6
CONTINUOUS
 10
30.5964119268
 20
1.8172065128
 11
30.6256703985
 21
1.7986032733
  0
LINE
  5
4E2
100
AcDbEntity
  8
RACCORDO
100
AcDbLine
 62
7
  6
CONTINUOUS
 10
30.6256703985
 20
1.7986032733
 11
30.6544384962
 21
1.7792314187
  0
LINE
  5
4E3
100
AcDbEntity
  8
RACCORDO
100
AcDbLine
 62
7
  6
CONTINUOUS
 10
30.7029415438
 20
1.5636547515
 11
30.7308198167
 21
1.5446230613
  0
LINE
  5
4E4
100
AcDbEntity
  8
RACCORDO
100
AcDbLine
 62
7
  6
CONTINUOUS
 10
-49.9532337925
 20
67.2462641188
 11
-49.9687941439
 21
67.2571329578
  0
LINE
  5
4E5
100
AcDbEntity
  8
RACCORDO
100
AcDbLine
 62
7
  6
CONTINUOUS
 10
30.6481879832
 20
1.5988700487
 11
30.6658809667
 21
1.5863732079
  0
LINE
  5
4E6
100
AcDbEntity
  8
RACCORDO
100
AcDbLine
 62
7
  6
CONTINUOUS
 10
30.6544384962
 20
1.7792314187
 11
30.682707352
 21
1.7590616268
  0
LINE
  5
4E7
100
AcDbEntity
  8
RACCORDO
100
AcDbLine
 62
7
  6
CONTINUOUS
 10
31.4122342465
 20
0.2355485594
 11
31.3864104258
 21
0.2544969745
  0
LINE
  5
4E8
100
AcDbEntity
  8
RACCORDO
100
AcDbLine
 62
7
  6
CONTINUOUS
 10
30.7308198167
 20
1.5446230613
 11
30.7597522254
 21
1.5230913862
  0
LINE
  5
4E9
100
AcDbEntity
  8
RACCORDO
100
AcDbLine
 62
7
  6
CONTINUOUS
 10
30.682707352
 20
1.7590616268
 11
30.7104859545
 21
1.7381232821
  0
LINE
  5
4EA
100
AcDbEntity
  8
RACCORDO
100
AcDbLine
 62
7
  6
CONTINUOUS
 10
31.16007021
 20
1.2164500573
 11
31.1800167357
 21
1.1820597276
  0
LINE
  5
4EB
100
AcDbEntity
  8
RACCORDO
100
AcDbLine
 62
7
  6
CONTINUOUS
 10
31.0856041225
 20
1.1400346094
 11
31.1112786325
 21
1.0949050467
  0
LINE
  5
4EC
100
AcDbEntity
  8
RACCORDO
100
AcDbLine
 62
7
  6
CONTINUOUS
 10
31.1800167357
 20
1.1820597276
 11
31.199576314
 21
1.1468878892
  0
LINE
  5
4ED
100
AcDbEntity
  8
RACCORDO
100
AcDbLine
 62
7
  6
CONTINUOUS
 10
31.199576314
 20
1.1468878892
 11
31.2186912477
 21
1.110874671
  0
LINE
  5
4EE
100
AcDbEntity
  8
RACCORDO
100
AcDbLine
 62
7
  6
CONTINUOUS
 10
31.1112786325
 20
1.0949050467
 11
31.1356453717
 21
1.0487501137
  0
LINE
  5
4EF
100
AcDbEntity
  8
RACCORDO
100
AcDbLine
 62
7
  6
CONTINUOUS
 10
30.5934806468
 20
1.6713836501
 11
30.6045849849
 21
1.6500674758
  0
LINE
  5
4F0
100
AcDbEntity
  8
RACCORDO
100
AcDbLine
 62
7
  6
CONTINUOUS
 10
31.2186912477
 20
1.110874671
 11
31.2373426451
 21
1.0740002929
  0
LINE
  5
4F1
100
AcDbEntity
  8
RACCORDO
100
AcDbLine
 62
7
  6
CONTINUOUS
 10
31.1356453717
 20
1.0487501137
 11
31.1585882842
 21
1.0017601537
  0
LINE
  5
4F2
100
AcDbEntity
  8
RACCORDO
100
AcDbLine
 62
7
  6
CONTINUOUS
 10
31.2373426451
 20
1.0740002929
 11
31.2555503767
 21
1.0362850441
  0
LINE
  5
4F3
100
AcDbEntity
  8
RACCORDO
100
AcDbLine
 62
7
  6
CONTINUOUS
 10
31.2555503767
 20
1.0362850441
 11
31.273314959
 21
0.9977291934
  0
LINE
  5
4F4
100
AcDbEntity
  8
RACCORDO
100
AcDbLine
 62
7
  6
CONTINUOUS
 10
31.1585882842
 20
1.0017601537
 11
31.1701799647
 21
0.9764817076
  0
LINE
  5
4F5
100
AcDbEntity
  8
RACCORDO
100
AcDbLine
 62
7
  6
CONTINUOUS
 10
31.1701800649
 20
0.9764807438
 11
31.1818286601
 21
0.9498677089
  0
LINE
  5
4F6
100
AcDbEntity
  8
RACCORDO
100
AcDbLine
 62
7
  6
CONTINUOUS
 10
31.3136193952
 20
0.3393169753
 11
31.3036953259
 21
0.3620239129
  0
LINE
  5
4F7
100
AcDbEntity
  8
RACCORDO
100
AcDbLine
 62
7
  6
CONTINUOUS
 10
31.273314959
 20
0.9977291934
 11
31.3012349957
 21
0.9326773169
  0
LINE
  5
4F8
100
AcDbEntity
  8
RACCORDO
100
AcDbLine
 62
7
  6
CONTINUOUS
 10
31.1818286601
 20
0.9498677089
 11
31.2027230284
 21
0.8985149946
  0
LINE
  5
4F9
100
AcDbEntity
  8
RACCORDO
100
AcDbLine
 62
7
  6
CONTINUOUS
 10
30.5842031082
 20
1.6946357589
 11
30.5934806468
 21
1.6713836501
  0
LINE
  5
4FA
100
AcDbEntity
  8
RACCORDO
100
AcDbLine
 62
7
  6
CONTINUOUS
 10
31.3012349957
 20
0.9326773169
 11
31.3267745569
 21
0.8670145584
  0
LINE
  5
4FB
100
AcDbEntity
  8
RACCORDO
100
AcDbLine
 62
7
  6
CONTINUOUS
 10
31.2027230284
 20
0.8985149946
 11
31.2214958405
 21
0.8473640931
  0
LINE
  5
4FC
100
AcDbEntity
  8
RACCORDO
100
AcDbLine
 62
7
  6
CONTINUOUS
 10
31.3267745569
 20
0.8670145584
 11
31.3499342932
 21
0.8007412567
  0
LINE
  5
4FD
100
AcDbEntity
  8
RACCORDO
100
AcDbLine
 62
7
  6
CONTINUOUS
 10
51.2393384745
 20
-63.3961621825
 11
51.2452102094
 21
-63.4134976649
  0
LINE
  5
4FE
100
AcDbEntity
  8
RACCORDO
100
AcDbLine
 62
7
  6
CONTINUOUS
 10
31.2214958405
 20
0.8473640931
 11
31.2381061098
 21
0.7966856225
  0
LINE
  5
4FF
100
AcDbEntity
  8
RACCORDO
100
AcDbLine
 62
7
  6
CONTINUOUS
 10
31.1970996786
 20
-35.8692766407
 11
31.1854871499
 21
-35.8302122027
  0
LINE
  5
500
100
AcDbEntity
  8
RACCORDO
100
AcDbLine
 62
7
  6
CONTINUOUS
 10
31.3036951552
 20
-35.3431134746
 11
31.2972574381
 21
-35.3180031777
  0
LINE
  5
501
100
AcDbEntity
  8
RACCORDO
100
AcDbLine
 62
7
  6
CONTINUOUS
 10
31.1854871499
 20
-35.8302122027
 11
31.1770518496
 21
-35.7908784442
  0
LINE
  5
502
100
AcDbEntity
  8
0
100
AcDbLine
 62
7
  6
CONTINUOUS
 10
2.9193632179
 20
-22.789015955
 11
2.9188325093
 21
-22.8069256061
  0
LINE
  5
503
100
AcDbEntity
  8
0
100
AcDbLine
 62
7
  6
CONTINUOUS
 10
2.8124305017
 20
-22.8688497672
 11
2.8129879875
 21
-22.8507794468
  0
LINE
  5
504
100
AcDbEntity
  8
0
100
AcDbLine
 62
7
  6
CONTINUOUS
 10
3.1994756293
 20
-23.0901653294
 11
3.1982338219
 21
-23.1164950783
  0
LINE
  5
505
100
AcDbEntity
  8
0
100
AcDbLine
 62
7
  6
CONTINUOUS
 10
2.9188325093
 20
-22.8069256061
 11
2.9174803473
 21
-22.8242552083
  0
LINE
  5
506
100
AcDbEntity
  8
0
100
AcDbLine
 62
7
  6
CONTINUOUS
 10
2.8110318269
 20
-22.8863435018
 11
2.8124305017
 21
-22.8688497672
  0
LINE
  5
507
100
AcDbEntity
  8
0
100
AcDbLine
 62
7
  6
CONTINUOUS
 10
3.1982338219
 20
-23.1164950783
 11
3.1960345702
 21
-23.141148355
  0
LINE
  5
508
100
AcDbEntity
  8
RACCORDO
100
AcDbLine
 62
7
  6
CONTINUOUS
 10
-32.2579115716
 20
0.4880524982
 11
-32.2468072334
 21
0.5221916839
  0
LINE
  5
509
100
AcDbEntity
  8
RACCORDO
100
AcDbLine
 62
7
  6
CONTINUOUS
 10
-33.1872239613
 20
37.8911572366
 11
-33.1667250697
 21
37.9376554889
  0
LINE
  5
50A
100
AcDbEntity
  8
RACCORDO
100
AcDbLine
 62
7
  6
CONTINUOUS
 10
-32.5235795142
 20
37.7372822104
 11
-32.5106738859
 21
37.7660562206
  0
LINE
  5
50B
100
AcDbEntity
  8
RACCORDO
100
AcDbLine
 62
7
  6
CONTINUOUS
 10
-49.2794264608
 20
67.7736412609
 11
-49.2641799856
 21
67.7953136425
  0
LINE
  5
50C
100
AcDbEntity
  8
RACCORDO
100
AcDbLine
 62
7
  6
CONTINUOUS
 10
-49.8257873817
 20
67.5153760241
 11
-49.8439852162
 21
67.4908633721
  0
LINE
  5
50D
100
AcDbEntity
  8
RACCORDO
100
AcDbLine
 62
7
  6
CONTINUOUS
 10
-49.8470011281
 20
67.7847048335
 11
-49.8769638329
 21
67.745363138
  0
LINE
  5
50E
100
AcDbEntity
  8
RACCORDO
100
AcDbLine
 62
7
  6
CONTINUOUS
 10
51.886681012
 20
-63.1660750901
 11
51.9113103229
 21
-63.1603962837
  0
LINE
  5
50F
100
AcDbEntity
  8
RACCORDO
100
AcDbLine
 62
7
  6
CONTINUOUS
 10
31.0362337597
 20
-36.1218269382
 11
30.9889126283
 21
-36.1245748206
  0
LINE
  5
510
100
AcDbEntity
  8
RACCORDO
100
AcDbLine
 62
7
  6
CONTINUOUS
 10
31.1810100911
 20
-35.4575656513
 11
31.1528007628
 21
-35.4585688696
  0
LINE
  5
511
100
AcDbEntity
  8
0
100
AcDbLine
 62
7
  6
CONTINUOUS
 10
2.6776372072
 20
-23.0291610285
 11
2.6920266038
 21
-23.0300014814
  0
LINE
  5
512
100
AcDbEntity
  8
0
100
AcDbLine
 62
7
  6
CONTINUOUS
 10
2.9823079131
 20
-23.402360359
 11
2.9737901698
 21
-23.4016818966
  0
LINE
  5
513
100
AcDbEntity
  8
0
100
AcDbLine
 62
7
  6
CONTINUOUS
 10
3.079163097
 20
-23.340166816
 11
3.087164858
 21
-23.3409562852
  0
LINE
  5
514
100
AcDbEntity
  8
RACCORDO
100
AcDbLine
 62
7
  6
CONTINUOUS
 10
-33.1144667687
 20
1.8025979927
 11
-33.0757394959
 21
1.7936793552
  0
LINE
  5
515
100
AcDbEntity
  8
0
100
AcDbLine
 62
7
  6
CONTINUOUS
 10
-29.0960103837
 20
10.9691569061
 11
-29.0707009886
 21
10.9621776661
  0
LINE
  5
516
100
AcDbEntity
  8
0
100
AcDbLine
 62
7
  6
CONTINUOUS
 10
-28.8548421965
 20
10.988103431
 11
-28.8901739294
 21
10.9978839846
  0
LINE
  5
517
100
AcDbEntity
  8
0
100
AcDbLine
 62
7
  6
CONTINUOUS
 10
-28.8003830263
 20
10.9623041436
 11
-28.7799057728
 21
10.9559063395
  0
LINE
  5
518
100
AcDbEntity
  8
RACCORDO
100
AcDbLine
 62
7
  6
CONTINUOUS
 10
-32.2495864497
 20
37.9073171652
 11
-32.224295461
 21
37.8961527937
  0
LINE
  5
519
100
AcDbEntity
  8
RACCORDO
100
AcDbLine
 62
7
  6
CONTINUOUS
 10
-32.7817412985
 20
37.9023562262
 11
-32.74490171
 21
37.8859729259
  0
LINE
  5
51A
100
AcDbEntity
  8
RACCORDO
100
AcDbLine
 62
7
  6
CONTINUOUS
 10
-33.2203754322
 20
37.5536097578
 11
-33.1870418807
 21
37.5384011332
  0
LINE
  5
51B
100
AcDbEntity
  8
RACCORDO
100
AcDbLine
 62
7
  6
CONTINUOUS
 10
-32.3949457406
 20
38.1803424621
 11
-32.3399178351
 21
38.1545640265
  0
LINE
  5
51C
100
AcDbEntity
  8
RACCORDO
100
AcDbLine
 62
7
  6
CONTINUOUS
 10
-32.224295461
 20
37.8961527937
 11
-32.1973574545
 21
37.8824650232
  0
LINE
  5
51D
100
AcDbEntity
  8
RACCORDO
100
AcDbLine
 62
7
  6
CONTINUOUS
 10
-49.9360648099
 20
67.2358702521
 11
-49.9532337925
 21
67.2462641188
  0
LINE
  5
51E
100
AcDbEntity
  8
RACCORDO
100
AcDbLine
 62
7
  6
CONTINUOUS
 10
51.2914629296
 20
9.4664100528
 11
51.2635620832
 21
9.4859201622
  0
LINE
  5
51F
100
AcDbEntity
  8
RACCORDO
100
AcDbLine
 62
7
  6
CONTINUOUS
 10
51.5122239577
 20
9.7640597148
 11
51.4726202941
 21
9.7922742989
  0
LINE
  5
520
100
AcDbEntity
  8
RACCORDO
100
AcDbLine
 62
7
  6
CONTINUOUS
 10
51.3187890809
 20
9.4449833518
 11
51.2914629296
 21
9.4664100528
  0
LINE
  5
521
100
AcDbEntity
  8
RACCORDO
100
AcDbLine
 62
7
  6
CONTINUOUS
 10
51.5512731459
 20
9.733137355
 11
51.5122239577
 21
9.7640597148
  0
LINE
  5
522
100
AcDbEntity
  8
RACCORDO
100
AcDbLine
 62
7
  6
CONTINUOUS
 10
51.3456344122
 20
9.4215556956
 11
51.3187890809
 21
9.4449833518
  0
LINE
  5
523
100
AcDbEntity
  8
RACCORDO
100
AcDbLine
 62
7
  6
CONTINUOUS
 10
51.5896333323
 20
9.6996147406
 11
51.5512731459
 21
9.733137355
  0
LINE
  5
524
100
AcDbEntity
  8
RACCORDO
100
AcDbLine
 62
7
  6
CONTINUOUS
 10
51.6271832014
 20
9.6635998551
 11
51.5896333323
 21
9.6996147406
  0
LINE
  5
525
100
AcDbEntity
  8
RACCORDO
100
AcDbLine
 62
7
  6
CONTINUOUS
 10
51.3719054709
 20
9.3962116018
 11
51.3456344122
 21
9.4215556956
  0
LINE
  5
526
100
AcDbEntity
  8
RACCORDO
100
AcDbLine
 62
7
  6
CONTINUOUS
 10
51.66381447
 20
9.6251978647
 11
51.6271832014
 21
9.6635998551
  0
LINE
  5
527
100
AcDbEntity
  8
RACCORDO
100
AcDbLine
 62
7
  6
CONTINUOUS
 10
51.3973214625
 20
9.3692044648
 11
51.3719054709
 21
9.3962116018
  0
LINE
  5
528
100
AcDbEntity
  8
RACCORDO
100
AcDbLine
 62
7
  6
CONTINUOUS
 10
51.6994023191
 20
9.5845247939
 11
51.66381447
 21
9.6251978647
  0
LINE
  5
529
100
AcDbEntity
  8
RACCORDO
100
AcDbLine
 62
7
  6
CONTINUOUS
 10
51.421869367
 20
9.3405207704
 11
51.3973214625
 21
9.3692044648
  0
LINE
  5
52A
100
AcDbEntity
  8
RACCORDO
100
AcDbLine
 62
7
  6
CONTINUOUS
 10
51.7338222586
 20
9.5417186123
 11
51.6994023191
 21
9.5845247939
  0
LINE
  5
52B
100
AcDbEntity
  8
RACCORDO
100
AcDbLine
 62
7
  6
CONTINUOUS
 10
51.4455630049
 20
9.3101743247
 11
51.421869367
 21
9.3405207704
  0
LINE
  5
52C
100
AcDbEntity
  8
RACCORDO
100
AcDbLine
 62
7
  6
CONTINUOUS
 10
51.7669686209
 20
9.4969252783
 11
51.7338222586
 21
9.5417186123
  0
LINE
  5
52D
100
AcDbEntity
  8
RACCORDO
100
AcDbLine
 62
7
  6
CONTINUOUS
 10
51.4681618898
 20
9.2784595201
 11
51.4455630049
 21
9.3101743247
  0
LINE
  5
52E
100
AcDbEntity
  8
RACCORDO
100
AcDbLine
 62
7
  6
CONTINUOUS
 10
51.7987154994
 20
9.4502904753
 11
51.7669686209
 21
9.4969252783
  0
LINE
  5
52F
100
AcDbEntity
  8
RACCORDO
100
AcDbLine
 62
7
  6
CONTINUOUS
 10
51.4896558816
 20
9.2453628843
 11
51.4681618898
 21
9.2784595201
  0
LINE
  5
530
100
AcDbEntity
  8
RACCORDO
100
AcDbLine
 62
7
  6
CONTINUOUS
 10
31.3499342932
 20
0.8007412567
 11
31.3708413895
 21
0.7334663069
  0
LINE
  5
531
100
AcDbEntity
  8
RACCORDO
100
AcDbLine
 62
7
  6
CONTINUOUS
 10
30.5768043208
 20
1.7196935978
 11
30.5842031082
 21
1.6946357589
  0
LINE
  5
532
100
AcDbEntity
  8
RACCORDO
100
AcDbLine
 62
7
  6
CONTINUOUS
 10
31.2381061098
 20
0.7966856225
 11
31.2525303975
 21
0.7467540583
  0
LINE
  5
533
100
AcDbEntity
  8
RACCORDO
100
AcDbLine
 62
7
  6
CONTINUOUS
 10
31.3036953259
 20
0.3620239129
 11
31.2972579269
 21
0.3850140334
  0
LINE
  5
534
100
AcDbEntity
  8
RACCORDO
100
AcDbLine
 62
7
  6
CONTINUOUS
 10
31.3708413895
 20
0.7334663069
 11
31.3893701167
 21
0.6655815722
  0
LINE
  5
535
100
AcDbEntity
  8
RACCORDO
100
AcDbLine
 62
7
  6
CONTINUOUS
 10
31.2525303975
 20
0.7467540583
 11
31.2647732444
 21
0.6978069609
  0
LINE
  5
536
100
AcDbEntity
  8
RACCORDO
100
AcDbLine
 62
7
  6
CONTINUOUS
 10
31.3893701167
 20
0.6655815722
 11
31.4051414438
 21
0.5982616825
  0
LINE
  5
537
100
AcDbEntity
  8
RACCORDO
100
AcDbLine
 62
7
  6
CONTINUOUS
 10
31.2647732444
 20
0.6978069609
 11
31.2748489959
 21
0.6501092671
  0
LINE
  5
538
100
AcDbEntity
  8
RACCORDO
100
AcDbLine
 62
7
  6
CONTINUOUS
 10
30.5713257158
 20
1.7464168508
 11
30.5768043208
 21
1.7196935978
  0
LINE
  5
539
100
AcDbEntity
  8
RACCORDO
100
AcDbLine
 62
7
  6
CONTINUOUS
 10
31.4051414438
 20
0.5982616825
 11
31.4180419639
 21
0.5315566595
  0
LINE
  5
53A
100
AcDbEntity
  8
RACCORDO
100
AcDbLine
 62
7
  6
CONTINUOUS
 10
31.1770518496
 20
-35.7908784442
 11
31.1718545609
 21
-35.7515587958
  0
LINE
  5
53B
100
AcDbEntity
  8
RACCORDO
100
AcDbLine
 62
7
  6
CONTINUOUS
 10
31.2886481077
 20
0.5596475701
 11
31.2925264628
 21
0.5173314767
  0
LINE
  5
53C
100
AcDbEntity
  8
RACCORDO
100
AcDbLine
 62
7
  6
CONTINUOUS
 10
31.4355348017
 20
0.4008671846
 11
31.4400758107
 21
0.3382490524
  0
LINE
  5
53D
100
AcDbEntity
  8
RACCORDO
100
AcDbLine
 62
7
  6
CONTINUOUS
 10
30.5662408435
 20
1.8042525436
 11
30.5677979718
 21
1.774655876
  0
LINE
  5
53E
100
AcDbEntity
  8
RACCORDO
100
AcDbLine
 62
7
  6
CONTINUOUS
 10
31.1718545609
 20
-35.7515587958
 11
31.1699327342
 21
-35.7125365864
  0
LINE
  5
53F
100
AcDbEntity
  8
0
100
AcDbLine
 62
7
  6
CONTINUOUS
 10
2.9174803473
 20
-22.8242552083
 11
2.9153144882
 21
-22.8409557111
  0
LINE
  5
540
100
AcDbEntity
  8
0
100
AcDbLine
 62
7
  6
CONTINUOUS
 10
2.8088031641
 20
-22.9031997626
 11
2.8110318269
 21
-22.8863435018
  0
LINE
  5
541
100
AcDbEntity
  8
0
100
AcDbLine
 62
7
  6
CONTINUOUS
 10
3.1960345702
 20
-23.141148355
 11
3.1928634101
 21
-23.1641093392
  0
LINE
  5
542
100
AcDbEntity
  8
RACCORDO
100
AcDbLine
 62
7
  6
CONTINUOUS
 10
-32.2468072334
 20
0.5221916839
 11
-32.2339382767
 21
0.5563133085
  0
LINE
  5
543
100
AcDbEntity
  8
RACCORDO
100
AcDbLine
 62
7
  6
CONTINUOUS
 10
-32.2339382767
 20
0.5563133085
 11
-32.2193767639
 21
0.5902263014
  0
LINE
  5
544
100
AcDbEntity
  8
RACCORDO
100
AcDbLine
 62
7
  6
CONTINUOUS
 10
-33.1667250697
 20
37.9376554889
 11
-33.1434942056
 21
37.9816894377
  0
LINE
  5
545
100
AcDbEntity
  8
RACCORDO
100
AcDbLine
 62
7
  6
CONTINUOUS
 10
-32.5106738859
 20
37.7660562206
 11
-32.4960340744
 21
37.7932248598
  0
LINE
  5
546
100
AcDbEntity
  8
RACCORDO
100
AcDbLine
 62
7
  6
CONTINUOUS
 10
-49.2641799856
 20
67.7953136425
 11
-49.2480026109
 21
67.8159067721
  0
LINE
  5
547
100
AcDbEntity
  8
RACCORDO
100
AcDbLine
 62
7
  6
CONTINUOUS
 10
-49.806281611
 20
67.5379228405
 11
-49.8257873817
 21
67.5153760241
  0
LINE
  5
548
100
AcDbEntity
  8
RACCORDO
100
AcDbLine
 62
7
  6
CONTINUOUS
 10
-49.2480026109
 20
67.8159067721
 11
-49.2310225567
 21
67.8352574167
  0
LINE
  5
549
100
AcDbEntity
  8
RACCORDO
100
AcDbLine
 62
7
  6
CONTINUOUS
 10
-49.8148718967
 20
67.8212907368
 11
-49.8470011281
 21
67.7847048335
  0
LINE
  5
54A
100
AcDbEntity
  8
RACCORDO
100
AcDbLine
 62
7
  6
CONTINUOUS
 10
31.2080231674
 20
-35.4539057564
 11
31.1810100911
 21
-35.4575656513
  0
LINE
  5
54B
100
AcDbEntity
  8
RACCORDO
100
AcDbLine
 62
7
  6
CONTINUOUS
 10
-33.0357500667
 20
1.7868040625
 11
-32.9947829083
 21
1.7820210154
  0
LINE
  5
54C
100
AcDbEntity
  8
RACCORDO
100
AcDbLine
 62
7
  6
CONTINUOUS
 10
-33.0757394959
 20
1.7936793552
 11
-33.0357500667
 21
1.7868040625
  0
LINE
  5
54D
100
AcDbEntity
  8
0
100
AcDbLine
 62
7
  6
CONTINUOUS
 10
-29.1208567342
 20
10.9735867379
 11
-29.0960103837
 21
10.9691569061
  0
LINE
  5
54E
100
AcDbEntity
  8
0
100
AcDbLine
 62
7
  6
CONTINUOUS
 10
-28.8219586527
 20
10.9662913005
 11
-28.8003830263
 21
10.9623041436
  0
LINE
  5
54F
100
AcDbEntity
  8
0
100
AcDbLine
 62
7
  6
CONTINUOUS
 10
-28.8901739294
 20
10.9978839846
 11
-28.926311494
 21
11.005079129
  0
LINE
  5
550
100
AcDbEntity
  8
RACCORDO
100
AcDbLine
 62
7
  6
CONTINUOUS
 10
31.177051818
 20
0.9736852556
 11
31.1718546116
 21
0.9748302652
  0
LINE
  5
551
100
AcDbEntity
  8
RACCORDO
100
AcDbLine
 62
7
  6
CONTINUOUS
 10
-32.74490171
 20
37.8859729259
 11
-32.7075583089
 21
37.8726296786
  0
LINE
  5
552
100
AcDbEntity
  8
RACCORDO
100
AcDbLine
 62
7
  6
CONTINUOUS
 10
51.6931265954
 20
8.5620897192
 11
51.7153500907
 21
8.5539002422
  0
LINE
  5
553
100
AcDbEntity
  8
RACCORDO
100
AcDbLine
 62
7
  6
CONTINUOUS
 10
-32.2728984436
 20
37.9160167064
 11
-32.2495864497
 21
37.9073171652
  0
LINE
  5
554
100
AcDbEntity
  8
RACCORDO
100
AcDbLine
 62
7
  6
CONTINUOUS
 10
-33.1870418807
 20
37.5384011332
 11
-33.1516544759
 21
37.5247281075
  0
LINE
  5
555
100
AcDbEntity
  8
RACCORDO
100
AcDbLine
 62
7
  6
CONTINUOUS
 10
-32.4498124687
 20
38.2019827968
 11
-32.3949457406
 21
38.1803424621
  0
LINE
  5
556
100
AcDbEntity
  8
RACCORDO
100
AcDbLine
 62
7
  6
CONTINUOUS
 10
51.6719643235
 20
8.5710334633
 11
51.6931265954
 21
8.5620897192
  0
LINE
  5
557
100
AcDbEntity
  8
RACCORDO
100
AcDbLine
 62
7
  6
CONTINUOUS
 10
51.6520139417
 20
8.5806677987
 11
51.6719643235
 21
8.5710334633
  0
LINE
  5
558
100
AcDbEntity
  8
RACCORDO
100
AcDbLine
 62
7
  6
CONTINUOUS
 10
-49.157840049
 20
67.8973399968
 11
-49.1994153586
 21
67.9190441941
  0
LINE
  5
559
100
AcDbEntity
  8
RACCORDO
100
AcDbLine
 62
7
  6
CONTINUOUS
 10
-49.3553445554
 20
67.5831678025
 11
-49.3841594076
 21
67.5986401971
  0
LINE
  5
55A
100
AcDbEntity
  8
RACCORDO
100
AcDbLine
 62
7
  6
CONTINUOUS
 10
-44.9872083683
 20
68.5700192287
 11
-44.9634286945
 21
68.5572127645
  0
LINE
  5
55B
100
AcDbEntity
  8
RACCORDO
100
AcDbLine
 62
7
  6
CONTINUOUS
 10
51.6334174884
 20
8.5909241331
 11
51.6520139417
 21
8.5806677987
  0
LINE
  5
55C
100
AcDbEntity
  8
RACCORDO
100
AcDbLine
 62
7
  6
CONTINUOUS
 10
51.2350864366
 20
9.5035136419
 11
-49.3553445554
 21
67.5831678025
  0
LINE
  5
55D
100
AcDbEntity
  8
RACCORDO
100
AcDbLine
 62
7
  6
CONTINUOUS
 10
51.432590943
 20
9.8176858362
 11
-49.157840049
 21
67.8973399968
  0
LINE
  5
55E
100
AcDbEntity
  8
RACCORDO
100
AcDbLine
 62
7
  6
CONTINUOUS
 10
-47.5827609732
 20
69.0079500754
 11
53.1818934764
 21
10.8277014739
  0
LINE
  5
55F
100
AcDbEntity
  8
RACCORDO
100
AcDbLine
 62
7
  6
CONTINUOUS
 10
-44.9634286945
 20
68.5572127645
 11
54.5223592693
 21
11.1153656329
  0
LINE
  5
560
100
AcDbEntity
  8
RACCORDO
100
AcDbLine
 62
7
  6
CONTINUOUS
 10
51.2635620832
 20
9.4859201622
 11
51.2350864366
 21
9.5035136419
  0
LINE
  5
561
100
AcDbEntity
  8
RACCORDO
100
AcDbLine
 62
7
  6
CONTINUOUS
 10
54.5223592693
 20
11.1153656329
 11
54.5467283789
 21
11.1002019669
  0
LINE
  5
562
100
AcDbEntity
  8
RACCORDO
100
AcDbLine
 62
7
  6
CONTINUOUS
 10
51.4726202941
 20
9.7922742989
 11
51.432590943
 21
9.8176858362
  0
LINE
  5
563
100
AcDbEntity
  8
RACCORDO
100
AcDbLine
 62
7
  6
CONTINUOUS
 10
54.5467283789
 20
11.1002019669
 11
54.5700299671
 21
11.0840519132
  0
LINE
  5
564
100
AcDbEntity
  8
RACCORDO
100
AcDbLine
 62
7
  6
CONTINUOUS
 10
54.5700299671
 20
11.0840519132
 11
54.5922640338
 21
11.0669154718
  0
LINE
  5
565
100
AcDbEntity
  8
RACCORDO
100
AcDbLine
 62
7
  6
CONTINUOUS
 10
54.5922640338
 20
11.0669154718
 11
54.6133933668
 21
11.048767701
  0
LINE
  5
566
100
AcDbEntity
  8
RACCORDO
100
AcDbLine
 62
7
  6
CONTINUOUS
 10
54.6133933668
 20
11.048767701
 11
54.6334551784
 21
11.0296335425
  0
LINE
  5
567
100
AcDbEntity
  8
RACCORDO
100
AcDbLine
 62
7
  6
CONTINUOUS
 10
54.6334551784
 20
11.0296335425
 11
54.6525611056
 21
11.0095878213
  0
LINE
  5
568
100
AcDbEntity
  8
RACCORDO
100
AcDbLine
 62
7
  6
CONTINUOUS
 10
54.6525611056
 20
11.0095878213
 11
54.6707408672
 21
10.9886741866
  0
LINE
  5
569
100
AcDbEntity
  8
RACCORDO
100
AcDbLine
 62
7
  6
CONTINUOUS
 10
54.6707408672
 20
10.9886741866
 11
54.6879647445
 21
10.9668489892
  0
LINE
  5
56A
100
AcDbEntity
  8
RACCORDO
100
AcDbLine
 62
7
  6
CONTINUOUS
 10
54.6879647445
 20
10.9668489892
 11
54.7042552181
 21
10.9440561068
  0
LINE
  5
56B
100
AcDbEntity
  8
RACCORDO
100
AcDbLine
 62
7
  6
CONTINUOUS
 10
54.7042552181
 20
10.9440561068
 11
54.719696825
 21
10.9202053272
  0
LINE
  5
56C
100
AcDbEntity
  8
RACCORDO
100
AcDbLine
 62
7
  6
CONTINUOUS
 10
51.8289542859
 20
9.401961694
 11
51.7987154994
 21
9.4502904753
  0
LINE
  5
56D
100
AcDbEntity
  8
RACCORDO
100
AcDbLine
 62
7
  6
CONTINUOUS
 10
51.5100562099
 20
9.2108982875
 11
51.4896558816
 21
9.2453628843
  0
LINE
  5
56E
100
AcDbEntity
  8
RACCORDO
100
AcDbLine
 62
7
  6
CONTINUOUS
 10
54.719696825
 20
10.9202053272
 11
54.7342050281
 21
10.8953868626
  0
LINE
  5
56F
100
AcDbEntity
  8
RACCORDO
100
AcDbLine
 62
7
  6
CONTINUOUS
 10
51.8576087452
 20
9.352094951
 11
51.8289542859
 21
9.401961694
  0
LINE
  5
570
100
AcDbEntity
  8
RACCORDO
100
AcDbLine
 62
7
  6
CONTINUOUS
 10
51.5291544225
 20
9.1754011285
 11
51.5100562099
 21
9.2108982875
  0
LINE
  5
571
100
AcDbEntity
  8
RACCORDO
100
AcDbLine
 62
7
  6
CONTINUOUS
 10
51.8845668126
 20
9.3008437844
 11
51.8576087452
 21
9.352094951
  0
LINE
  5
572
100
AcDbEntity
  8
RACCORDO
100
AcDbLine
 62
7
  6
CONTINUOUS
 10
54.7342050281
 20
10.8953868626
 11
54.747548697
 21
10.8698152278
  0
LINE
  5
573
100
AcDbEntity
  8
RACCORDO
100
AcDbLine
 62
7
  6
CONTINUOUS
 10
51.5469393523
 20
9.1388598537
 11
51.5291544225
 21
9.1754011285
  0
LINE
  5
574
100
AcDbEntity
  8
RACCORDO
100
AcDbLine
 62
7
  6
CONTINUOUS
 10
51.9097248334
 20
9.2483758606
 11
51.8845668126
 21
9.3008437844
  0
LINE
  5
575
100
AcDbEntity
  8
RACCORDO
100
AcDbLine
 62
7
  6
CONTINUOUS
 10
54.747548697
 20
10.8698152278
 11
54.759733928
 21
10.8433943474
  0
LINE
  5
576
100
AcDbEntity
  8
RACCORDO
100
AcDbLine
 62
7
  6
CONTINUOUS
 10
51.5634234215
 20
9.1012864763
 11
51.5469393523
 21
9.1388598537
  0
LINE
  5
577
100
AcDbEntity
  8
RACCORDO
100
AcDbLine
 62
7
  6
CONTINUOUS
 10
51.933023586
 20
9.1948736201
 11
51.9097248334
 21
9.2483758606
  0
LINE
  5
578
100
AcDbEntity
  8
RACCORDO
100
AcDbLine
 62
7
  6
CONTINUOUS
 10
51.5784334563
 20
9.063051707
 11
51.5634234215
 21
9.1012864763
  0
LINE
  5
579
100
AcDbEntity
  8
RACCORDO
100
AcDbLine
 62
7
  6
CONTINUOUS
 10
51.9543622281
 20
9.1405059292
 11
51.933023586
 21
9.1948736201
  0
LINE
  5
57A
100
AcDbEntity
  8
RACCORDO
100
AcDbLine
 62
7
  6
CONTINUOUS
 10
51.5919560165
 20
9.0241493376
 11
51.5784334563
 21
9.063051707
  0
LINE
  5
57B
100
AcDbEntity
  8
RACCORDO
100
AcDbLine
 62
7
  6
CONTINUOUS
 10
51.2350864366
 20
-63.377370695
 11
51.2393384745
 21
-63.3961621825
  0
LINE
  5
57C
100
AcDbEntity
  8
RACCORDO
100
AcDbLine
 62
7
  6
CONTINUOUS
 10
31.2748489959
 20
0.6501092671
 11
31.2827840954
 21
0.6039839646
  0
LINE
  5
57D
100
AcDbEntity
  8
RACCORDO
100
AcDbLine
 62
7
  6
CONTINUOUS
 10
51.6334174453
 20
-63.1353824191
 11
51.3318833212
 21
-61.3781528489
  0
LINE
  5
57E
100
AcDbEntity
  8
RACCORDO
100
AcDbLine
 62
7
  6
CONTINUOUS
 10
52.0429266653
 20
-63.1001304985
 11
51.7418314483
 21
-61.3454759195
  0
LINE
  5
57F
100
AcDbEntity
  8
RACCORDO
100
AcDbLine
 62
7
  6
CONTINUOUS
 10
31.4180419639
 20
0.5315566595
 11
31.4281858694
 21
0.4654168925
  0
LINE
  5
580
100
AcDbEntity
  8
RACCORDO
100
AcDbLine
 62
7
  6
CONTINUOUS
 10
31.2827840954
 20
0.6039839646
 11
31.2886481077
 21
0.5596475701
  0
LINE
  5
581
100
AcDbEntity
  8
RACCORDO
100
AcDbLine
 62
7
  6
CONTINUOUS
 10
31.2972579269
 20
0.3850140334
 11
31.2943529848
 21
0.4081238183
  0
LINE
  5
582
100
AcDbEntity
  8
RACCORDO
100
AcDbLine
 62
7
  6
CONTINUOUS
 10
30.5677979718
 20
1.774655876
 11
30.5713257158
 21
1.7464168508
  0
LINE
  5
583
100
AcDbEntity
  8
RACCORDO
100
AcDbLine
 62
7
  6
CONTINUOUS
 10
31.4281858694
 20
0.4654168925
 11
31.4355348017
 21
0.4008671846
  0
LINE
  5
584
100
AcDbEntity
  8
RACCORDO
100
AcDbLine
 62
7
  6
CONTINUOUS
 10
31.2972574381
 20
-35.3180031777
 11
31.2943271982
 21
-35.2919756298
  0
LINE
  5
585
100
AcDbEntity
  8
RACCORDO
100
AcDbLine
 62
7
  6
CONTINUOUS
 10
51.6411416364
 20
-63.195284636
 11
51.6381371383
 21
-63.1659712061
  0
LINE
  5
586
100
AcDbEntity
  8
RACCORDO
100
AcDbLine
 62
7
  6
CONTINUOUS
 10
50.3744574013
 20
-54.1787941934
 11
50.1975122332
 21
-52.338148903
  0
LINE
  5
587
100
AcDbEntity
  8
RACCORDO
100
AcDbLine
 62
7
  6
CONTINUOUS
 10
31.2925264628
 20
0.5173314767
 11
31.2945246377
 21
0.477373612
  0
LINE
  5
588
100
AcDbEntity
  8
RACCORDO
100
AcDbLine
 62
7
  6
CONTINUOUS
 10
31.187120779
 20
-32.43600483
 11
31.2943276851
 21
-35.2919691261
  0
LINE
  5
589
100
AcDbEntity
  8
RACCORDO
100
AcDbLine
 62
7
  6
CONTINUOUS
 10
31.3319076355
 20
-32.5907420831
 11
31.4407727381
 21
-35.4952321493
  0
LINE
  5
58A
100
AcDbEntity
  8
RACCORDO
100
AcDbLine
 62
7
  6
CONTINUOUS
 10
31.0974255347
 20
-29.5075259725
 11
31.187120779
 21
-32.43600483
  0
LINE
  5
58B
100
AcDbEntity
  8
RACCORDO
100
AcDbLine
 62
7
  6
CONTINUOUS
 10
31.2428259822
 20
-29.6725893045
 11
31.3319076355
 21
-32.5907420831
  0
LINE
  5
58C
100
AcDbEntity
  8
RACCORDO
100
AcDbLine
 62
7
  6
CONTINUOUS
 10
31.4400758107
 20
0.3382490524
 11
31.4418217853
 21
0.2772209502
  0
LINE
  5
58D
100
AcDbEntity
  8
RACCORDO
100
AcDbLine
 62
7
  6
CONTINUOUS
 10
31.0276609154
 20
-26.5655165104
 11
31.0974255347
 21
-29.5075259725
  0
LINE
  5
58E
100
AcDbEntity
  8
RACCORDO
100
AcDbLine
 62
7
  6
CONTINUOUS
 10
31.1735339534
 20
-26.7409656149
 11
31.2428259822
 21
-29.6725893045
  0
LINE
  5
58F
100
AcDbEntity
  8
RACCORDO
100
AcDbLine
 62
7
  6
CONTINUOUS
 10
31.2943271982
 20
-35.2919756298
 11
31.2948783938
 21
-35.3160086602
  0
LINE
  5
590
100
AcDbEntity
  8
RACCORDO
100
AcDbLine
 62
7
  6
CONTINUOUS
 10
31.4407727381
 20
-35.4952321493
 11
31.4418436199
 21
-35.5498258378
  0
LINE
  5
591
100
AcDbEntity
  8
RACCORDO
100
AcDbLine
 62
7
  6
CONTINUOUS
 10
30.9778324831
 20
-23.6101929891
 11
31.0276609154
 21
-26.5655165104
  0
LINE
  5
592
100
AcDbEntity
  8
RACCORDO
100
AcDbLine
 62
7
  6
CONTINUOUS
 10
31.1240364599
 20
-23.7960636802
 11
31.1735339534
 21
-26.7409656149
  0
LINE
  5
593
100
AcDbEntity
  8
RACCORDO
100
AcDbLine
 62
7
  6
CONTINUOUS
 10
30.5666630505
 20
-35.9961794153
 11
30.5662408433
 21
-35.9658784022
  0
LINE
  5
594
100
AcDbEntity
  8
RACCORDO
100
AcDbLine
 62
7
  6
CONTINUOUS
 10
30.9479419478
 20
-20.6417489027
 11
30.9778324831
 21
-23.6101929891
  0
LINE
  5
595
100
AcDbEntity
  8
RACCORDO
100
AcDbLine
 62
7
  6
CONTINUOUS
 10
31.0943368276
 20
-20.8380769536
 11
31.1240364599
 21
-23.7960636802
  0
LINE
  5
596
100
AcDbEntity
  8
RACCORDO
100
AcDbLine
 62
7
  6
CONTINUOUS
 10
31.2945246377
 20
0.477373612
 11
31.2947900271
 21
0.4399978579
  0
LINE
  5
597
100
AcDbEntity
  8
RACCORDO
100
AcDbLine
 62
7
  6
CONTINUOUS
 10
31.2943529848
 20
0.4081238183
 11
31.2942868945
 21
0.4212912524
  0
LINE
  5
598
100
AcDbEntity
  8
RACCORDO
100
AcDbLine
 62
7
  6
CONTINUOUS
 10
30.9379901922
 20
-17.660368132
 11
30.9479419478
 21
-20.6417489027
  0
LINE
  5
599
100
AcDbEntity
  8
RACCORDO
100
AcDbLine
 62
7
  6
CONTINUOUS
 10
31.0844367935
 20
-17.8671996647
 11
31.0943368276
 21
-20.8380769536
  0
LINE
  5
59A
100
AcDbEntity
  8
RACCORDO
100
AcDbLine
 62
7
  6
CONTINUOUS
 10
30.9479777287
 20
-14.6662427328
 11
30.9379901922
 21
-17.660368132
  0
LINE
  5
59B
100
AcDbEntity
  8
RACCORDO
100
AcDbLine
 62
7
  6
CONTINUOUS
 10
31.0943368281
 20
-14.8836267879
 11
31.0844367935
 21
-17.8671996647
  0
LINE
  5
59C
100
AcDbEntity
  8
RACCORDO
100
AcDbLine
 62
7
  6
CONTINUOUS
 10
30.9779029562
 20
-11.6595660204
 11
30.9479777287
 21
-14.6662427328
  0
LINE
  5
59D
100
AcDbEntity
  8
RACCORDO
100
AcDbLine
 62
7
  6
CONTINUOUS
 10
31.1240364608
 20
-11.8875543394
 11
31.0943368281
 21
-14.8836267879
  0
LINE
  5
59E
100
AcDbEntity
  8
RACCORDO
100
AcDbLine
 62
7
  6
CONTINUOUS
 10
30.5666630505
 20
1.8350411215
 11
30.5662408435
 21
1.8042525436
  0
LINE
  5
59F
100
AcDbEntity
  8
RACCORDO
100
AcDbLine
 62
7
  6
CONTINUOUS
 10
31.1735339546
 20
-8.8791793024
 11
31.1240364608
 21
-11.8875543394
  0
LINE
  5
5A0
100
AcDbEntity
  8
RACCORDO
100
AcDbLine
 62
7
  6
CONTINUOUS
 10
31.0277639224
 20
-8.6405235991
 11
30.9779029562
 21
-11.6595660204
  0
LINE
  5
5A1
100
AcDbEntity
  8
RACCORDO
100
AcDbLine
 62
7
  6
CONTINUOUS
 10
31.2948783938
 20
-35.3160086602
 11
31.2944671532
 21
-35.3404460818
  0
LINE
  5
5A2
100
AcDbEntity
  8
RACCORDO
100
AcDbLine
 62
7
  6
CONTINUOUS
 10
31.4418217853
 20
0.2772209502
 11
31.4407727381
 21
0.217782886
  0
LINE
  5
5A3
100
AcDbEntity
  8
RACCORDO
100
AcDbLine
 62
7
  6
CONTINUOUS
 10
31.0975578183
 20
-5.6093120285
 11
31.0277639224
 21
-8.6405235991
  0
LINE
  5
5A4
100
AcDbEntity
  8
RACCORDO
100
AcDbLine
 62
7
  6
CONTINUOUS
 10
31.2428259834
 20
-5.8586992199
 11
31.1735339546
 21
-8.8791793024
  0
LINE
  5
5A5
100
AcDbEntity
  8
RACCORDO
100
AcDbLine
 62
7
  6
CONTINUOUS
 10
31.2947900271
 20
0.4399978579
 11
31.2942884392
 21
0.42134683
  0
LINE
  5
5A6
100
AcDbEntity
  8
RACCORDO
100
AcDbLine
 62
7
  6
CONTINUOUS
 10
31.1872779809
 20
-2.5661559006
 11
31.0975578183
 21
-5.6093120285
  0
LINE
  5
5A7
100
AcDbEntity
  8
RACCORDO
100
AcDbLine
 62
7
  6
CONTINUOUS
 10
31.3319076364
 20
-2.8263121797
 11
31.2428259834
 21
-5.8586992199
  0
LINE
  5
5A8
100
AcDbEntity
  8
RACCORDO
100
AcDbLine
 62
7
  6
CONTINUOUS
 10
31.2942868945
 20
0.4212912524
 11
31.1872779809
 21
-2.5661559006
  0
LINE
  5
5A9
100
AcDbEntity
  8
RACCORDO
100
AcDbLine
 62
7
  6
CONTINUOUS
 10
31.4407727381
 20
0.217782886
 11
31.3319076364
 21
-2.8263121797
  0
LINE
  5
5AA
100
AcDbEntity
  8
0
100
AcDbLine
 62
7
  6
CONTINUOUS
 10
3.1928634101
 20
-23.1641093392
 11
3.1889771714
 21
-23.1855787272
  0
LINE
  5
5AB
100
AcDbEntity
  8
0
100
AcDbLine
 62
7
  6
CONTINUOUS
 10
2.9153144882
 20
-22.8409557111
 11
2.9123582417
 21
-22.856879937
  0
LINE
  5
5AC
100
AcDbEntity
  8
0
100
AcDbLine
 62
7
  6
CONTINUOUS
 10
2.8057781341
 20
-22.9192358739
 11
2.8088031641
 21
-22.9031997626
  0
LINE
  5
5AD
100
AcDbEntity
  8
0
100
AcDbLine
 62
7
  6
CONTINUOUS
 10
3.1889771714
 20
-23.1855787272
 11
3.1843848435
 21
-23.2055535016
  0
LINE
  5
5AE
100
AcDbEntity
  8
RACCORDO
100
AcDbLine
 62
7
  6
CONTINUOUS
 10
-32.2193767639
 20
0.5902263014
 11
-32.2032042351
 21
0.6237407605
  0
LINE
  5
5AF
100
AcDbEntity
  8
RACCORDO
100
AcDbLine
 62
7
  6
CONTINUOUS
 10
-33.1434942056
 20
37.9816894377
 11
-33.1179709302
 21
38.0224752273
  0
LINE
  5
5B0
100
AcDbEntity
  8
RACCORDO
100
AcDbLine
 62
7
  6
CONTINUOUS
 10
-32.4960340744
 20
37.7932248598
 11
-32.4798418532
 21
37.8184682591
  0
LINE
  5
5B1
100
AcDbEntity
  8
RACCORDO
100
AcDbLine
 62
7
  6
CONTINUOUS
 10
-49.2310225567
 20
67.8352574167
 11
-49.2133744127
 21
67.8532121845
  0
LINE
  5
5B2
100
AcDbEntity
  8
RACCORDO
100
AcDbLine
 62
7
  6
CONTINUOUS
 10
-49.7854810521
 20
67.5585263243
 11
-49.806281611
 21
67.5379228405
  0
LINE
  5
5B3
100
AcDbEntity
  8
RACCORDO
100
AcDbLine
 62
7
  6
CONTINUOUS
 10
-49.7807056193
 20
67.8550359291
 11
-49.8148718967
 21
67.8212907368
  0
LINE
  5
5B4
100
AcDbEntity
  8
RACCORDO
100
AcDbLine
 62
7
  6
CONTINUOUS
 10
31.0815278662
 20
-36.1147277919
 11
31.0362337597
 21
-36.1218269382
  0
LINE
  5
5B5
100
AcDbEntity
  8
0
100
AcDbLine
 62
7
  6
CONTINUOUS
 10
2.9903159015
 20
-23.4017131302
 11
2.9823079131
 21
-23.402360359
  0
LINE
  5
5B6
100
AcDbEntity
  8
0
100
AcDbLine
 62
7
  6
CONTINUOUS
 10
3.087164858
 20
-23.3409562852
 11
3.0946716568
 21
-23.3405520083
  0
LINE
  5
5B7
100
AcDbEntity
  8
0
100
AcDbLine
 62
7
  6
CONTINUOUS
 10
2.6920266038
 20
-23.0300014814
 11
2.7057005938
 21
-23.0294745155
  0
LINE
  5
5B8
100
AcDbEntity
  8
RACCORDO
100
AcDbLine
 62
7
  6
CONTINUOUS
 10
-32.9947829083
 20
1.7820210154
 11
-32.9531294021
 21
1.7793642339
  0
LINE
  5
5B9
100
AcDbEntity
  8
0
100
AcDbLine
 62
7
  6
CONTINUOUS
 10
-28.926311494
 20
11.005079129
 11
-28.9630385439
 21
11.0096070025
  0
LINE
  5
5BA
100
AcDbEntity
  8
RACCORDO
100
AcDbLine
 62
7
  6
CONTINUOUS
 10
51.7867747229
 20
8.5344111712
 11
51.8116024991
 21
8.529762142
  0
LINE
  5
5BB
100
AcDbEntity
  8
RACCORDO
100
AcDbLine
 62
7
  6
CONTINUOUS
 10
51.762341434
 20
8.5400115273
 11
51.7867747229
 21
8.5344111712
  0
LINE
  5
5BC
100
AcDbEntity
  8
RACCORDO
100
AcDbLine
 62
7
  6
CONTINUOUS
 10
51.7384765873
 20
8.5465233381
 11
51.762341434
 21
8.5400115273
  0
LINE
  5
5BD
100
AcDbEntity
  8
RACCORDO
100
AcDbLine
 62
7
  6
CONTINUOUS
 10
-32.2937020828
 20
37.9223153983
 11
-32.2728984436
 21
37.9160167064
  0
LINE
  5
5BE
100
AcDbEntity
  8
RACCORDO
100
AcDbLine
 62
7
  6
CONTINUOUS
 10
51.7153500907
 20
8.5539002422
 11
51.7384765873
 21
8.5465233381
  0
LINE
  5
5BF
100
AcDbEntity
  8
RACCORDO
100
AcDbLine
 62
7
  6
CONTINUOUS
 10
-32.5047841612
 20
38.2195883957
 11
-32.4498124687
 21
38.2019827968
  0
LINE
  5
5C0
100
AcDbEntity
  8
RACCORDO
100
AcDbLine
 62
7
  6
CONTINUOUS
 10
-33.1516544759
 20
37.5247281075
 11
-33.1144649162
 21
37.5126879323
  0
LINE
  5
5C1
100
AcDbEntity
  8
RACCORDO
100
AcDbLine
 62
7
  6
CONTINUOUS
 10
-49.1994153586
 20
67.9190441941
 11
-49.2410798708
 21
67.9377571752
  0
LINE
  5
5C2
100
AcDbEntity
  8
RACCORDO
100
AcDbLine
 62
7
  6
CONTINUOUS
 10
-49.3841594076
 20
67.5986401971
 11
-49.4129791164
 21
67.6118794209
  0
LINE
  5
5C3
100
AcDbEntity
  8
RACCORDO
100
AcDbLine
 62
7
  6
CONTINUOUS
 10
-45.010216005
 20
68.5806780148
 11
-44.9872083683
 21
68.5700192287
  0
LINE
  5
5C4
100
AcDbEntity
  8
RACCORDO
100
AcDbLine
 62
7
  6
CONTINUOUS
 10
54.759733928
 20
10.8433943474
 11
54.7707546248
 21
10.8162202967
  0
LINE
  5
5C5
100
AcDbEntity
  8
RACCORDO
100
AcDbLine
 62
7
  6
CONTINUOUS
 10
51.9736521164
 20
9.0854473137
 11
51.9543622281
 21
9.1405059292
  0
LINE
  5
5C6
100
AcDbEntity
  8
RACCORDO
100
AcDbLine
 62
7
  6
CONTINUOUS
 10
54.7707546248
 20
10.8162202967
 11
54.7803613681
 21
10.7887958172
  0
LINE
  5
5C7
100
AcDbEntity
  8
RACCORDO
100
AcDbLine
 62
7
  6
CONTINUOUS
 10
51.9908584173
 20
9.0298927095
 11
51.9736521164
 21
9.0854473137
  0
LINE
  5
5C8
100
AcDbEntity
  8
RACCORDO
100
AcDbLine
 62
7
  6
CONTINUOUS
 10
51.6040058161
 20
8.9845860445
 11
51.5919560165
 21
9.0241493376
  0
LINE
  5
5C9
100
AcDbEntity
  8
RACCORDO
100
AcDbLine
 62
7
  6
CONTINUOUS
 10
54.7803613681
 20
10.7887958172
 11
54.7884910163
 21
10.7612184812
  0
LINE
  5
5CA
100
AcDbEntity
  8
RACCORDO
100
AcDbLine
 62
7
  6
CONTINUOUS
 10
52.0059015138
 20
8.9739938692
 11
51.9908584173
 21
9.0298927095
  0
LINE
  5
5CB
100
AcDbEntity
  8
RACCORDO
100
AcDbLine
 62
7
  6
CONTINUOUS
 10
51.6144517144
 20
8.9447517922
 11
51.6040058161
 21
8.9845860445
  0
LINE
  5
5CC
100
AcDbEntity
  8
RACCORDO
100
AcDbLine
 62
7
  6
CONTINUOUS
 10
54.7884910163
 20
10.7612184812
 11
54.7952067111
 21
10.7333907163
  0
LINE
  5
5CD
100
AcDbEntity
  8
RACCORDO
100
AcDbLine
 62
7
  6
CONTINUOUS
 10
52.0187011631
 20
8.9179557163
 11
52.0059015138
 21
8.9739938692
  0
LINE
  5
5CE
100
AcDbEntity
  8
RACCORDO
100
AcDbLine
 62
7
  6
CONTINUOUS
 10
51.6232792075
 20
8.904625844
 11
51.6144517144
 21
8.9447517922
  0
LINE
  5
5CF
100
AcDbEntity
  8
RACCORDO
100
AcDbLine
 62
7
  6
CONTINUOUS
 10
52.0292363376
 20
8.8620543629
 11
52.0187011631
 21
8.9179557163
  0
LINE
  5
5D0
100
AcDbEntity
  8
RACCORDO
100
AcDbLine
 62
7
  6
CONTINUOUS
 10
51.3318833212
 20
-61.3781528489
 11
51.0551700921
 21
-59.603520218
  0
LINE
  5
5D1
100
AcDbEntity
  8
RACCORDO
100
AcDbLine
 62
7
  6
CONTINUOUS
 10
51.7418314483
 20
-61.3454759195
 11
51.465610381
 21
-59.5741533499
  0
LINE
  5
5D2
100
AcDbEntity
  8
RACCORDO
100
AcDbLine
 62
7
  6
CONTINUOUS
 10
51.6381371383
 20
-63.1659712061
 11
51.6334174453
 21
-63.1353824191
  0
LINE
  5
5D3
100
AcDbEntity
  8
RACCORDO
100
AcDbLine
 62
7
  6
CONTINUOUS
 10
51.0551700921
 20
-59.603520218
 11
50.8033306453
 21
-57.8118413536
  0
LINE
  5
5D4
100
AcDbEntity
  8
RACCORDO
100
AcDbLine
 62
7
  6
CONTINUOUS
 10
51.465610381
 20
-59.5741533499
 11
51.2142634634
 21
-57.7861627897
  0
LINE
  5
5D5
100
AcDbEntity
  8
RACCORDO
100
AcDbLine
 62
7
  6
CONTINUOUS
 10
50.8033306453
 20
-57.8118413536
 11
50.5764114497
 21
-56.0034786988
  0
LINE
  5
5D6
100
AcDbEntity
  8
RACCORDO
100
AcDbLine
 62
7
  6
CONTINUOUS
 10
51.2142634634
 20
-57.7861627897
 11
50.9877492962
 21
-55.9811310402
  0
LINE
  5
5D7
100
AcDbEntity
  8
RACCORDO
100
AcDbLine
 62
7
  6
CONTINUOUS
 10
50.5764114497
 20
-56.0034786988
 11
50.3744574013
 21
-54.1787941934
  0
LINE
  5
5D8
100
AcDbEntity
  8
RACCORDO
100
AcDbLine
 62
7
  6
CONTINUOUS
 10
50.9877492962
 20
-55.9811310402
 11
50.7861092787
 21
-54.1594313002
  0
LINE
  5
5D9
100
AcDbEntity
  8
RACCORDO
100
AcDbLine
 62
7
  6
CONTINUOUS
 10
52.0432828664
 20
8.751460188
 11
52.0374427552
 21
8.8065116825
  0
LINE
  5
5DA
100
AcDbEntity
  8
RACCORDO
100
AcDbLine
 62
7
  6
CONTINUOUS
 10
50.7861092787
 20
-54.1594313002
 11
50.609467609
 21
-52.3221831654
  0
LINE
  5
5DB
100
AcDbEntity
  8
RACCORDO
100
AcDbLine
 62
7
  6
CONTINUOUS
 10
51.6398659603
 20
8.7840058221
 11
51.6360397355
 21
8.8240150467
  0
LINE
  5
5DC
100
AcDbEntity
  8
RACCORDO
100
AcDbLine
 62
7
  6
CONTINUOUS
 10
52.0466512782
 20
-63.1450713309
 11
52.0429266653
 21
-63.1001304985
  0
LINE
  5
5DD
100
AcDbEntity
  8
RACCORDO
100
AcDbLine
 62
7
  6
CONTINUOUS
 10
50.1975122332
 20
-52.338148903
 11
50.0456118397
 21
-50.4819111573
  0
LINE
  5
5DE
100
AcDbEntity
  8
RACCORDO
100
AcDbLine
 62
7
  6
CONTINUOUS
 10
50.609467609
 20
-52.3221831654
 11
50.4578656866
 21
-50.4697598347
  0
LINE
  5
5DF
100
AcDbEntity
  8
RACCORDO
100
AcDbLine
 62
7
  6
CONTINUOUS
 10
50.4578656866
 20
-50.4697598347
 11
50.3312621121
 21
-48.6017881094
  0
LINE
  5
5E0
100
AcDbEntity
  8
RACCORDO
100
AcDbLine
 62
7
  6
CONTINUOUS
 10
50.0456118397
 20
-50.4819111573
 11
49.9187838509
 21
-48.610456773
  0
LINE
  5
5E1
100
AcDbEntity
  8
RACCORDO
100
AcDbLine
 62
7
  6
CONTINUOUS
 10
52.0467845887
 20
8.6970418216
 11
52.0432828664
 21
8.751460188
  0
LINE
  5
5E2
100
AcDbEntity
  8
RACCORDO
100
AcDbLine
 62
7
  6
CONTINUOUS
 10
50.3312621121
 20
-48.6017881094
 11
50.2296568854
 21
-46.7182679893
  0
LINE
  5
5E3
100
AcDbEntity
  8
RACCORDO
100
AcDbLine
 62
7
  6
CONTINUOUS
 10
49.9187838509
 20
-48.610456773
 11
49.8170527749
 21
-46.7241627235
  0
LINE
  5
5E4
100
AcDbEntity
  8
RACCORDO
100
AcDbLine
 62
7
  6
CONTINUOUS
 10
51.6424307212
 20
-63.2233228782
 11
51.6411416364
 21
-63.195284636
  0
LINE
  5
5E5
100
AcDbEntity
  8
RACCORDO
100
AcDbLine
 62
7
  6
CONTINUOUS
 10
49.8170528468
 20
-46.7241627649
 11
49.6871877464
 21
-43.7093889994
  0
LINE
  5
5E6
100
AcDbEntity
  8
RACCORDO
100
AcDbLine
 62
7
  6
CONTINUOUS
 10
50.2296568854
 20
-46.7182679893
 11
50.0998597854
 21
-43.7051319119
  0
LINE
  5
5E7
100
AcDbEntity
  8
RACCORDO
100
AcDbLine
 62
7
  6
CONTINUOUS
 10
49.6871877464
 20
-43.7093889994
 11
49.5809167686
 21
-40.681145456
  0
LINE
  5
5E8
100
AcDbEntity
  8
RACCORDO
100
AcDbLine
 62
7
  6
CONTINUOUS
 10
50.0998597854
 20
-43.7051319119
 11
49.9936587039
 21
-40.6789634998
  0
LINE
  5
5E9
100
AcDbEntity
  8
RACCORDO
100
AcDbLine
 62
7
  6
CONTINUOUS
 10
49.5809167686
 20
-40.681145456
 11
49.4982495625
 21
-37.639643946
  0
LINE
  5
5EA
100
AcDbEntity
  8
RACCORDO
100
AcDbLine
 62
7
  6
CONTINUOUS
 10
49.9936587039
 20
-40.6789634998
 11
49.911053641
 21
-37.639762753
  0
LINE
  5
5EB
100
AcDbEntity
  8
RACCORDO
100
AcDbLine
 62
7
  6
CONTINUOUS
 10
31.4418436199
 20
-35.5498258378
 11
31.4401406366
 21
-35.6028627719
  0
LINE
  5
5EC
100
AcDbEntity
  8
RACCORDO
100
AcDbLine
 62
7
  6
CONTINUOUS
 10
31.1699327342
 20
-35.7125365864
 11
31.1713002179
 21
-35.6740930016
  0
LINE
  5
5ED
100
AcDbEntity
  8
RACCORDO
100
AcDbLine
 62
7
  6
CONTINUOUS
 10
30.5662408433
 20
-35.9658784022
 11
30.5677979702
 21
-35.9344836119
  0
LINE
  5
5EE
100
AcDbEntity
  8
RACCORDO
100
AcDbLine
 62
7
  6
CONTINUOUS
 10
31.2944671532
 20
-35.3404460818
 11
31.2931544712
 21
-35.3620643137
  0
LINE
  5
5EF
100
AcDbEntity
  8
RACCORDO
100
AcDbLine
 62
7
  6
CONTINUOUS
 10
31.4401406366
 20
-35.6028627719
 11
31.435663811
 21
-35.6543429359
  0
LINE
  5
5F0
100
AcDbEntity
  8
0
100
AcDbLine
 62
7
  6
CONTINUOUS
 10
2.9123582417
 20
-22.856879937
 11
2.908631197
 21
-22.8720346263
  0
LINE
  5
5F1
100
AcDbEntity
  8
0
100
AcDbLine
 62
7
  6
CONTINUOUS
 10
2.8019711834
 20
-22.9344483224
 11
2.8057781341
 21
-22.9192358739
  0
LINE
  5
5F2
100
AcDbEntity
  8
0
100
AcDbLine
 62
7
  6
CONTINUOUS
 10
3.1843848435
 20
-23.2055535016
 11
3.179076321
 21
-23.2240374216
  0
LINE
  5
5F3
100
AcDbEntity
  8
RACCORDO
100
AcDbLine
 62
7
  6
CONTINUOUS
 10
-32.2032042351
 20
0.6237407605
 11
-32.1855112517
 21
0.656669015
  0
LINE
  5
5F4
100
AcDbEntity
  8
RACCORDO
100
AcDbLine
 62
7
  6
CONTINUOUS
 10
-33.1179709302
 20
38.0224752273
 11
-33.0903023821
 21
38.0597512504
  0
LINE
  5
5F5
100
AcDbEntity
  8
RACCORDO
100
AcDbLine
 62
7
  6
CONTINUOUS
 10
-32.4798418532
 20
37.8184682591
 11
-32.4622209836
 21
37.8416704856
  0
LINE
  5
5F6
100
AcDbEntity
  8
RACCORDO
100
AcDbLine
 62
7
  6
CONTINUOUS
 10
-49.2133744127
 20
67.8532121845
 11
-49.1951980616
 21
67.8696287522
  0
LINE
  5
5F7
100
AcDbEntity
  8
RACCORDO
100
AcDbLine
 62
7
  6
CONTINUOUS
 10
31.124860332
 20
-36.1033507128
 11
31.0815278662
 21
-36.1147277919
  0
LINE
  5
5F8
100
AcDbEntity
  8
RACCORDO
100
AcDbLine
 62
7
  6
CONTINUOUS
 10
31.2337604371
 20
-35.4476203683
 11
31.2080231674
 21
-35.4539057564
  0
LINE
  5
5F9
100
AcDbEntity
  8
0
100
AcDbLine
 62
7
  6
CONTINUOUS
 10
2.7057005938
 20
-23.0294745155
 11
2.7186295776
 21
-23.0275220581
  0
LINE
  5
5FA
100
AcDbEntity
  8
RACCORDO
100
AcDbLine
 62
7
  6
CONTINUOUS
 10
-32.9531294021
 20
1.7793642339
 11
-32.9110858113
 21
1.7788526142
  0
LINE
  5
5FB
100
AcDbEntity
  8
0
100
AcDbLine
 62
7
  6
CONTINUOUS
 10
-28.9630385439
 20
11.0096070025
 11
-29.0001205122
 21
11.0114075433
  0
LINE
  5
5FC
100
AcDbEntity
  8
RACCORDO
100
AcDbLine
 62
7
  6
CONTINUOUS
 10
51.8617329086
 20
8.5234434524
 11
51.8866786342
 21
8.5218187785
  0
LINE
  5
5FD
100
AcDbEntity
  8
0
100
AcDbLine
 62
7
  6
CONTINUOUS
 10
-28.8445172932
 20
10.9678464921
 11
-28.8219586527
 21
10.9662913005
  0
LINE
  5
5FE
100
AcDbEntity
  8
0
100
AcDbLine
 62
7
  6
CONTINUOUS
 10
-29.1450590279
 20
10.9754287776
 11
-29.1208567342
 21
10.9735867379
  0
LINE
  5
5FF
100
AcDbEntity
  8
RACCORDO
100
AcDbLine
 62
7
  6
CONTINUOUS
 10
51.8366479989
 20
8.5260975389
 11
51.8617329086
 21
8.5234434524
  0
LINE
  5
600
100
AcDbEntity
  8
RACCORDO
100
AcDbLine
 62
7
  6
CONTINUOUS
 10
51.8116024991
 20
8.529762142
 11
51.8366479989
 21
8.5260975389
  0
LINE
  5
601
100
AcDbEntity
  8
RACCORDO
100
AcDbLine
 62
7
  6
CONTINUOUS
 10
-33.0757377181
 20
37.5023662451
 11
-33.0357483346
 21
37.4938364606
  0
LINE
  5
602
100
AcDbEntity
  8
RACCORDO
100
AcDbLine
 62
7
  6
CONTINUOUS
 10
-32.3116492363
 20
37.926439679
 11
-32.2937020828
 21
37.9223153983
  0
LINE
  5
603
100
AcDbEntity
  8
RACCORDO
100
AcDbLine
 62
7
  6
CONTINUOUS
 10
-32.5595929917
 20
38.2330567628
 11
-32.5047841612
 21
38.2195883957
  0
LINE
  5
604
100
AcDbEntity
  8
RACCORDO
100
AcDbLine
 62
7
  6
CONTINUOUS
 10
-33.1144649162
 20
37.5126879323
 11
-33.0757377181
 21
37.5023662451
  0
LINE
  5
605
100
AcDbEntity
  8
RACCORDO
100
AcDbLine
 62
7
  6
CONTINUOUS
 10
-32.7075583089
 20
37.8726296786
 11
-32.6699801837
 21
37.8624226326
  0
LINE
  5
606
100
AcDbEntity
  8
RACCORDO
100
AcDbLine
 62
7
  6
CONTINUOUS
 10
-49.2410798708
 20
67.9377571752
 11
-49.2826927558
 21
67.9534234669
  0
LINE
  5
607
100
AcDbEntity
  8
RACCORDO
100
AcDbLine
 62
7
  6
CONTINUOUS
 10
-45.0182581673
 20
68.5839827642
 11
-45.1244684023
 21
68.6244651752
  0
LINE
  5
608
100
AcDbEntity
  8
RACCORDO
100
AcDbLine
 62
7
  6
CONTINUOUS
 10
-49.4129791164
 20
67.6118794209
 11
-49.4418035771
 21
67.6228855118
  0
LINE
  5
609
100
AcDbEntity
  8
RACCORDO
100
AcDbLine
 62
7
  6
CONTINUOUS
 10
-45.0605672862
 20
68.5943026516
 11
-44.9634288174
 21
68.5572128199
  0
LINE
  5
60A
100
AcDbEntity
  8
RACCORDO
100
AcDbLine
 62
7
  6
CONTINUOUS
 10
-45.0182563361
 20
68.5839683521
 11
-45.010216005
 21
68.5806780148
  0
LINE
  5
60B
100
AcDbEntity
  8
RACCORDO
100
AcDbLine
 62
7
  6
CONTINUOUS
 10
54.7952067111
 20
10.7333907163
 11
54.8004484581
 21
10.7055225473
  0
LINE
  5
60C
100
AcDbEntity
  8
RACCORDO
100
AcDbLine
 62
7
  6
CONTINUOUS
 10
51.630503952
 20
8.8642293622
 11
51.6232792075
 21
8.904625844
  0
LINE
  5
60D
100
AcDbEntity
  8
RACCORDO
100
AcDbLine
 62
7
  6
CONTINUOUS
 10
52.0374427552
 20
8.8065116825
 11
52.0292363376
 21
8.8620543629
  0
LINE
  5
60E
100
AcDbEntity
  8
RACCORDO
100
AcDbLine
 62
7
  6
CONTINUOUS
 10
51.6360397355
 20
8.8240150467
 11
51.630503952
 21
8.8642293622
  0
LINE
  5
60F
100
AcDbEntity
  8
RACCORDO
100
AcDbLine
 62
7
  6
CONTINUOUS
 10
54.8004484581
 20
10.7055225473
 11
54.8041962592
 21
10.6776839825
  0
LINE
  5
610
100
AcDbEntity
  8
RACCORDO
100
AcDbLine
 62
7
  6
CONTINUOUS
 10
54.8041962592
 20
10.6776839825
 11
54.8064701124
 21
10.6498050135
  0
LINE
  5
611
100
AcDbEntity
  8
RACCORDO
100
AcDbLine
 62
7
  6
CONTINUOUS
 10
51.6420040476
 20
8.7441790701
 11
51.6398659603
 21
8.7840058221
  0
LINE
  5
612
100
AcDbEntity
  8
RACCORDO
100
AcDbLine
 62
7
  6
CONTINUOUS
 10
52.0479275708
 20
-63.1884134811
 11
52.0466512782
 21
-63.1450713309
  0
LINE
  5
613
100
AcDbEntity
  8
RACCORDO
100
AcDbLine
 62
7
  6
CONTINUOUS
 10
54.8064701124
 20
10.6498050135
 11
54.8072700179
 21
10.6218856405
  0
LINE
  5
614
100
AcDbEntity
  8
RACCORDO
100
AcDbLine
 62
7
  6
CONTINUOUS
 10
52.0479270953
 20
8.6434220168
 11
52.0467845887
 21
8.6970418216
  0
LINE
  5
615
100
AcDbEntity
  8
RACCORDO
100
AcDbLine
 62
7
  6
CONTINUOUS
 10
49.4982495625
 20
-37.639643946
 11
49.439193423
 21
-34.5850589023
  0
LINE
  5
616
100
AcDbEntity
  8
RACCORDO
100
AcDbLine
 62
7
  6
CONTINUOUS
 10
49.911053641
 20
-37.639762753
 11
49.8520403738
 21
-34.5872768144
  0
LINE
  5
617
100
AcDbEntity
  8
RACCORDO
100
AcDbLine
 62
7
  6
CONTINUOUS
 10
49.439193423
 20
-34.5850589023
 11
49.4037561715
 21
-31.5176422369
  0
LINE
  5
618
100
AcDbEntity
  8
RACCORDO
100
AcDbLine
 62
7
  6
CONTINUOUS
 10
49.8520403738
 20
-34.5872768144
 11
49.8166231251
 21
-31.5217585412
  0
LINE
  5
619
100
AcDbEntity
  8
RACCORDO
100
AcDbLine
 62
7
  6
CONTINUOUS
 10
51.642430427
 20
8.7049190347
 11
51.6420040476
 21
8.7441790701
  0
LINE
  5
61A
100
AcDbEntity
  8
RACCORDO
100
AcDbLine
 62
7
  6
CONTINUOUS
 10
49.4037561715
 20
-31.5176422369
 11
49.3919433468
 21
-28.4377249882
  0
LINE
  5
61B
100
AcDbEntity
  8
RACCORDO
100
AcDbLine
 62
7
  6
CONTINUOUS
 10
49.8166231251
 20
-31.5217585412
 11
49.8048145631
 21
-28.4439665053
  0
LINE
  5
61C
100
AcDbEntity
  8
RACCORDO
100
AcDbLine
 62
7
  6
CONTINUOUS
 10
53.8880311924
 20
-62.246987172
 11
53.8880311924
 21
9.604635074
  0
LINE
  5
61D
100
AcDbEntity
  8
DRAFT
100
AcDbLine
 62
7
  6
CONTINUOUS
 10
54.0260868108
 20
-22.8900023148
 11
54.0260868108
 21
-28.6052942523
  0
LINE
  5
61E
100
AcDbEntity
  8
DRAFT
100
AcDbLine
 62
7
  6
CONTINUOUS
 10
54.8072700179
 20
10.6218856405
 11
54.8072700079
 21
-21.4200178514
  0
LINE
  5
61F
100
AcDbEntity
  8
DRAFT
100
AcDbLine
 62
7
  6
CONTINUOUS
 10
54.8072700079
 20
-27.7111727439
 11
54.8072700308
 21
-59.7530761039
  0
LINE
  5
620
100
AcDbEntity
  8
RACCORDO
100
AcDbLine
 62
7
  6
CONTINUOUS
 10
49.3919433468
 20
-28.4377249882
 11
49.4037561651
 21
-25.3455246521
  0
LINE
  5
621
100
AcDbEntity
  8
RACCORDO
100
AcDbLine
 62
7
  6
CONTINUOUS
 10
49.8048145631
 20
-28.4439665053
 11
49.8166231352
 21
-25.3538962429
  0
LINE
  5
622
100
AcDbEntity
  8
RACCORDO
100
AcDbLine
 62
7
  6
CONTINUOUS
 10
49.4037561651
 20
-25.3455246521
 11
49.439193412
 21
-22.2412591881
  0
LINE
  5
623
100
AcDbEntity
  8
RACCORDO
100
AcDbLine
 62
7
  6
CONTINUOUS
 10
49.8166231352
 20
-25.3538962429
 11
49.852040394
 21
-22.2515522179
  0
LINE
  5
624
100
AcDbEntity
  8
RACCORDO
100
AcDbLine
 62
7
  6
CONTINUOUS
 10
51.6419952221
 20
-63.2501813244
 11
51.6424307212
 21
-63.2233228782
  0
LINE
  5
625
100
AcDbEntity
  8
RACCORDO
100
AcDbLine
 62
7
  6
CONTINUOUS
 10
49.439193412
 20
-22.2412591881
 11
49.4982495488
 21
-19.1252646211
  0
LINE
  5
626
100
AcDbEntity
  8
RACCORDO
100
AcDbLine
 62
7
  6
CONTINUOUS
 10
49.852040394
 20
-22.2515522179
 11
49.9110536658
 21
-19.1377063935
  0
LINE
  5
627
100
AcDbEntity
  8
RACCORDO
100
AcDbLine
 62
7
  6
CONTINUOUS
 10
52.0466505066
 20
8.5907859852
 11
52.0479270953
 21
8.6434220168
  0
LINE
  5
628
100
AcDbEntity
  8
RACCORDO
100
AcDbLine
 62
7
  6
CONTINUOUS
 10
49.4982495488
 20
-19.1252646211
 11
49.5809167539
 21
-15.9978014256
  0
LINE
  5
629
100
AcDbEntity
  8
RACCORDO
100
AcDbLine
 62
7
  6
CONTINUOUS
 10
49.9110536658
 20
-19.1377063935
 11
49.993658726
 21
-16.012616091
  0
LINE
  5
62A
100
AcDbEntity
  8
RACCORDO
100
AcDbLine
 62
7
  6
CONTINUOUS
 10
51.6411373087
 20
8.6663538234
 11
51.642430427
 21
8.7049190347
  0
LINE
  5
62B
100
AcDbEntity
  8
RACCORDO
100
AcDbLine
 62
7
  6
CONTINUOUS
 10
49.5809167539
 20
-15.9978014256
 11
49.6871877327
 21
-12.8590529279
  0
LINE
  5
62C
100
AcDbEntity
  8
RACCORDO
100
AcDbLine
 62
7
  6
CONTINUOUS
 10
49.993658726
 20
-16.012616091
 11
50.0998597992
 21
-12.8760239892
  0
LINE
  5
62D
100
AcDbEntity
  8
RACCORDO
100
AcDbLine
 62
7
  6
CONTINUOUS
 10
49.6871877327
 20
-12.8590529279
 11
49.8170528364
 21
-9.7092420817
  0
LINE
  5
62E
100
AcDbEntity
  8
RACCORDO
100
AcDbLine
 62
7
  6
CONTINUOUS
 10
50.0998597992
 20
-12.8760239892
 11
50.2296568854
 21
-9.7279300881
  0
LINE
  5
62F
100
AcDbEntity
  8
RACCORDO
100
AcDbLine
 62
7
  6
CONTINUOUS
 10
49.8170527642
 20
-9.70924204
 11
49.9187838501
 21
-7.7171572018
  0
LINE
  5
630
100
AcDbEntity
  8
RACCORDO
100
AcDbLine
 62
7
  6
CONTINUOUS
 10
50.2296568854
 20
-9.7279300881
 11
50.331262291
 21
-7.7387616411
  0
LINE
  5
631
100
AcDbEntity
  8
RACCORDO
100
AcDbLine
 62
7
  6
CONTINUOUS
 10
31.2931544712
 20
-35.3620643137
 11
31.2911577627
 21
-35.3808017746
  0
LINE
  5
632
100
AcDbEntity
  8
RACCORDO
100
AcDbLine
 62
7
  6
CONTINUOUS
 10
30.5677979702
 20
-35.9344836119
 11
30.5713257117
 21
-35.9021708457
  0
LINE
  5
633
100
AcDbEntity
  8
RACCORDO
100
AcDbLine
 62
7
  6
CONTINUOUS
 10
31.1713002179
 20
-35.6740930016
 11
31.1759471581
 21
-35.6365050573
  0
LINE
  5
634
100
AcDbEntity
  8
RACCORDO
100
AcDbLine
 62
7
  6
CONTINUOUS
 10
31.435663811
 20
-35.6543429359
 11
31.428418317
 21
-35.7045596488
  0
LINE
  5
635
100
AcDbEntity
  8
RACCORDO
100
AcDbLine
 62
7
  6
CONTINUOUS
 10
31.2911577627
 20
-35.3808017746
 11
31.2886886139
 21
-35.3967562949
  0
LINE
  5
636
100
AcDbEntity
  8
RACCORDO
100
AcDbLine
 62
7
  6
CONTINUOUS
 10
30.5713257117
 20
-35.9021708457
 11
30.5768043135
 21
-35.8691210451
  0
LINE
  5
637
100
AcDbEntity
  8
0
100
AcDbLine
 62
7
  6
CONTINUOUS
 10
2.908631197
 20
-22.8720346263
 11
2.9041135156
 21
-22.8864132038
  0
LINE
  5
638
100
AcDbEntity
  8
0
100
AcDbLine
 62
7
  6
CONTINUOUS
 10
2.7973675812
 20
-22.9488408101
 11
2.8019711834
 21
-22.9344483224
  0
LINE
  5
639
100
AcDbEntity
  8
0
100
AcDbLine
 62
7
  6
CONTINUOUS
 10
3.179076321
 20
-23.2240374216
 11
3.1732798968
 21
-23.2412412782
  0
LINE
  5
63A
100
AcDbEntity
  8
RACCORDO
100
AcDbLine
 62
7
  6
CONTINUOUS
 10
-32.1855112517
 20
0.656669015
 11
-32.1663968889
 21
0.6888266773
  0
LINE
  5
63B
100
AcDbEntity
  8
RACCORDO
100
AcDbLine
 62
7
  6
CONTINUOUS
 10
-32.1663968889
 20
0.6888266773
 11
-32.1459681814
 21
0.7200336743
  0
LINE
  5
63C
100
AcDbEntity
  8
RACCORDO
100
AcDbLine
 62
7
  6
CONTINUOUS
 10
-33.0903023821
 20
38.0597512504
 11
-33.0603428532
 21
38.093778369
  0
LINE
  5
63D
100
AcDbEntity
  8
RACCORDO
100
AcDbLine
 62
7
  6
CONTINUOUS
 10
-49.7446562339
 20
67.885837844
 11
-49.7807056193
 21
67.8550359291
  0
LINE
  5
63E
100
AcDbEntity
  8
RACCORDO
100
AcDbLine
 62
7
  6
CONTINUOUS
 10
-49.7636086899
 20
67.576992029
 11
-49.7854810521
 21
67.5585263243
  0
LINE
  5
63F
100
AcDbEntity
  8
RACCORDO
100
AcDbLine
 62
7
  6
CONTINUOUS
 10
-49.1951980616
 20
67.8696287522
 11
-49.1766375691
 21
67.8843769922
  0
LINE
  5
640
100
AcDbEntity
  8
0
100
AcDbLine
 62
7
  6
CONTINUOUS
 10
2.9979415977
 20
-23.3999635006
 11
2.9903159015
 21
-23.4017131302
  0
LINE
  5
641
100
AcDbEntity
  8
0
100
AcDbLine
 62
7
  6
CONTINUOUS
 10
3.0946716568
 20
-23.3405520083
 11
3.1017956874
 21
-23.3391456905
  0
LINE
  5
642
100
AcDbEntity
  8
RACCORDO
100
AcDbLine
 62
7
  6
CONTINUOUS
 10
31.1854870309
 20
0.9740344097
 11
31.177051818
 21
0.9736852556
  0
LINE
  5
643
100
AcDbEntity
  8
RACCORDO
100
AcDbLine
 62
7
  6
CONTINUOUS
 10
-32.9110858113
 20
1.7788526142
 11
-32.8689511736
 21
1.7804897955
  0
LINE
  5
644
100
AcDbEntity
  8
RACCORDO
100
AcDbLine
 62
7
  6
CONTINUOUS
 10
51.9113075722
 20
8.5212350841
 11
51.9354443747
 21
8.5216965249
  0
LINE
  5
645
100
AcDbEntity
  8
RACCORDO
100
AcDbLine
 62
7
  6
CONTINUOUS
 10
51.8866786342
 20
8.5218187785
 11
51.9113075722
 21
8.5212350841
  0
LINE
  5
646
100
AcDbEntity
  8
RACCORDO
100
AcDbLine
 62
7
  6
CONTINUOUS
 10
-32.3265259937
 20
37.9287220228
 11
-32.3116492363
 21
37.926439679
  0
LINE
  5
647
100
AcDbEntity
  8
RACCORDO
100
AcDbLine
 62
7
  6
CONTINUOUS
 10
-33.0357483346
 20
37.4938364606
 11
-32.9947811964
 21
37.4871592481
  0
LINE
  5
648
100
AcDbEntity
  8
RACCORDO
100
AcDbLine
 62
7
  6
CONTINUOUS
 10
-32.613437219
 20
38.2420795143
 11
-32.5595929917
 21
38.2330567628
  0
LINE
  5
649
100
AcDbEntity
  8
RACCORDO
100
AcDbLine
 62
7
  6
CONTINUOUS
 10
-32.6699801837
 20
37.8624226326
 11
-32.6324381143
 21
37.8554253377
  0
LINE
  5
64A
100
AcDbEntity
  8
RACCORDO
100
AcDbLine
 62
7
  6
CONTINUOUS
 10
-49.2826927558
 20
67.9534234669
 11
-49.3240880579
 21
67.9659890897
  0
LINE
  5
64B
100
AcDbEntity
  8
RACCORDO
100
AcDbLine
 62
7
  6
CONTINUOUS
 10
-49.4418035771
 20
67.6228855118
 11
-49.4707164049
 21
67.6316826928
  0
LINE
  5
64C
100
AcDbEntity
  8
RACCORDO
100
AcDbLine
 62
7
  6
CONTINUOUS
 10
-45.2665259108
 20
68.6649128214
 11
-45.1615694416
 21
68.6302925468
  0
LINE
  5
64D
100
AcDbEntity
  8
RACCORDO
100
AcDbLine
 62
7
  6
CONTINUOUS
 10
-45.1244684023
 20
68.6244651752
 11
-45.3215496377
 21
68.6925851334
  0
LINE
  5
64E
100
AcDbEntity
  8
RACCORDO
100
AcDbLine
 62
7
  6
CONTINUOUS
 10
-45.1615694416
 20
68.6302925468
 11
-45.0605672862
 21
68.5943026516
  0
LINE
  5
64F
100
AcDbEntity
  8
RACCORDO
100
AcDbLine
 62
7
  6
CONTINUOUS
 10
52.0467799438
 20
-63.2300005551
 11
52.0479275708
 21
-63.1884134811
  0
LINE
  5
650
100
AcDbEntity
  8
RACCORDO
100
AcDbLine
 62
7
  6
CONTINUOUS
 10
54.8072700308
 20
-59.7530761039
 11
54.8064701355
 21
-59.7800718835
  0
LINE
  5
651
100
AcDbEntity
  8
RACCORDO
100
AcDbLine
 62
7
  6
CONTINUOUS
 10
49.9187838501
 20
-7.7171572018
 11
50.0456118459
 21
-5.7138057952
  0
LINE
  5
652
100
AcDbEntity
  8
RACCORDO
100
AcDbLine
 62
7
  6
CONTINUOUS
 10
50.331262291
 20
-7.7387616411
 11
50.4578660931
 21
-5.7391493149
  0
LINE
  5
653
100
AcDbEntity
  8
RACCORDO
100
AcDbLine
 62
7
  6
CONTINUOUS
 10
52.0429266653
 20
8.5393050983
 11
52.0466505066
 21
8.5907859852
  0
LINE
  5
654
100
AcDbEntity
  8
RACCORDO
100
AcDbLine
 62
7
  6
CONTINUOUS
 10
50.0456118459
 20
-5.7138057952
 11
50.1975122394
 21
-3.6995930971
  0
LINE
  5
655
100
AcDbEntity
  8
RACCORDO
100
AcDbLine
 62
7
  6
CONTINUOUS
 10
50.4578660931
 20
-5.7391493149
 11
50.6094682919
 21
-3.7290931093
  0
LINE
  5
656
100
AcDbEntity
  8
RACCORDO
100
AcDbLine
 62
7
  6
CONTINUOUS
 10
51.6381329028
 20
8.6283554878
 11
51.6411373087
 21
8.6663538234
  0
LINE
  5
657
100
AcDbEntity
  8
RACCORDO
100
AcDbLine
 62
7
  6
CONTINUOUS
 10
51.639843931
 20
-63.2757648765
 11
51.6419952221
 21
-63.2501813244
  0
LINE
  5
658
100
AcDbEntity
  8
RACCORDO
100
AcDbLine
 62
7
  6
CONTINUOUS
 10
50.1975122394
 20
-3.6995930971
 11
50.3744573883
 21
-1.6749315515
  0
LINE
  5
659
100
AcDbEntity
  8
RACCORDO
100
AcDbLine
 62
7
  6
CONTINUOUS
 10
50.6094682919
 20
-3.7290931093
 11
50.7861104113
 21
-1.7081759692
  0
LINE
  5
65A
100
AcDbEntity
  8
RACCORDO
100
AcDbLine
 62
7
  6
CONTINUOUS
 10
50.3744573883
 20
-1.6749315515
 11
50.5764114006
 21
0.3597737782
  0
LINE
  5
65B
100
AcDbEntity
  8
RACCORDO
100
AcDbLine
 62
7
  6
CONTINUOUS
 10
50.7861104113
 20
-1.7081759692
 11
50.9877509274
 21
0.3231850503
  0
LINE
  5
65C
100
AcDbEntity
  8
RACCORDO
100
AcDbLine
 62
7
  6
CONTINUOUS
 10
50.5764114006
 20
0.3597737782
 11
50.8033305702
 21
2.4041254832
  0
LINE
  5
65D
100
AcDbEntity
  8
RACCORDO
100
AcDbLine
 62
7
  6
CONTINUOUS
 10
50.9877509274
 20
0.3231850503
 11
51.214265268
 21
2.3637387833
  0
LINE
  5
65E
100
AcDbEntity
  8
RACCORDO
100
AcDbLine
 62
7
  6
CONTINUOUS
 10
50.8033305702
 20
2.4041254832
 11
51.0551700177
 21
4.4577145021
  0
LINE
  5
65F
100
AcDbEntity
  8
RACCORDO
100
AcDbLine
 62
7
  6
CONTINUOUS
 10
51.214265268
 20
2.3637387833
 11
51.4656119092
 21
4.4130681747
  0
LINE
  5
660
100
AcDbEntity
  8
RACCORDO
100
AcDbLine
 62
7
  6
CONTINUOUS
 10
51.6334174453
 20
8.5909241171
 11
51.6381329028
 21
8.6283554878
  0
LINE
  5
661
100
AcDbEntity
  8
RACCORDO
100
AcDbLine
 62
7
  6
CONTINUOUS
 10
51.0551700177
 20
4.4577145021
 11
51.3318832702
 21
6.5201200128
  0
LINE
  5
662
100
AcDbEntity
  8
RACCORDO
100
AcDbLine
 62
7
  6
CONTINUOUS
 10
51.4656119092
 20
4.4130681747
 11
51.7418323749
 21
6.4715902797
  0
LINE
  5
663
100
AcDbEntity
  8
RACCORDO
100
AcDbLine
 62
7
  6
CONTINUOUS
 10
51.3318832702
 20
6.5201200128
 11
51.6334174453
 21
8.5909241171
  0
LINE
  5
664
100
AcDbEntity
  8
RACCORDO
100
AcDbLine
 62
7
  6
CONTINUOUS
 10
51.7418323749
 20
6.4715902797
 11
52.0429266653
 21
8.5393050983
  0
LINE
  5
665
100
AcDbEntity
  8
RACCORDO
100
AcDbLine
 62
7
  6
CONTINUOUS
 10
31.428418317
 20
-35.7045596488
 11
31.4183991088
 21
-35.7532195076
  0
LINE
  5
666
100
AcDbEntity
  8
RACCORDO
100
AcDbLine
 62
7
  6
CONTINUOUS
 10
31.2886886139
 20
-35.3967562949
 11
31.285941655
 21
-35.4100791746
  0
LINE
  5
667
100
AcDbEntity
  8
RACCORDO
100
AcDbLine
 62
7
  6
CONTINUOUS
 10
31.1759471581
 20
-35.6365050573
 11
31.1838400702
 21
-35.6000436044
  0
LINE
  5
668
100
AcDbEntity
  8
RACCORDO
100
AcDbLine
 62
7
  6
CONTINUOUS
 10
30.5768043135
 20
-35.8691210451
 11
30.5842030971
 21
-35.8355192788
  0
LINE
  5
669
100
AcDbEntity
  8
0
100
AcDbLine
 62
7
  6
CONTINUOUS
 10
3.1732798968
 20
-23.2412412782
 11
3.1670174449
 21
-23.2571695504
  0
LINE
  5
66A
100
AcDbEntity
  8
0
100
AcDbLine
 62
7
  6
CONTINUOUS
 10
2.9041135156
 20
-22.8864132038
 11
2.8987692485
 21
-22.8998485963
  0
LINE
  5
66B
100
AcDbEntity
  8
0
100
AcDbLine
 62
7
  6
CONTINUOUS
 10
2.7919570415
 20
-22.9622415778
 11
2.7973675812
 21
-22.9488408101
  0
LINE
  5
66C
100
AcDbEntity
  8
RACCORDO
100
AcDbLine
 62
7
  6
CONTINUOUS
 10
-32.1459681814
 20
0.7200336743
 11
-32.1243395238
 21
0.7501152566
  0
LINE
  5
66D
100
AcDbEntity
  8
RACCORDO
100
AcDbLine
 62
7
  6
CONTINUOUS
 10
-32.4622209836
 20
37.8416704856
 11
-32.4431936878
 21
37.8628669097
  0
LINE
  5
66E
100
AcDbEntity
  8
RACCORDO
100
AcDbLine
 62
7
  6
CONTINUOUS
 10
-49.7159506096
 20
67.9073243639
 11
-49.7446562339
 21
67.885837844
  0
LINE
  5
66F
100
AcDbEntity
  8
RACCORDO
100
AcDbLine
 62
7
  6
CONTINUOUS
 10
-49.7406569047
 20
67.593296142
 11
-49.7636086899
 21
67.576992029
  0
LINE
  5
670
100
AcDbEntity
  8
RACCORDO
100
AcDbLine
 62
7
  6
CONTINUOUS
 10
-49.7159228459
 20
67.9073452665
 11
-48.107812789
 21
69.0412459853
  0
LINE
  5
671
100
AcDbEntity
  8
RACCORDO
100
AcDbLine
 62
7
  6
CONTINUOUS
 10
-49.157840049
 20
67.8973399968
 11
-47.5827609732
 21
69.0079500754
  0
LINE
  5
672
100
AcDbEntity
  8
RACCORDO
100
AcDbLine
 62
7
  6
CONTINUOUS
 10
-49.1766375691
 20
67.8843769922
 11
-49.1578400493
 21
67.8973399969
  0
LINE
  5
673
100
AcDbEntity
  8
0
100
AcDbLine
 62
7
  6
CONTINUOUS
 10
2.7186295776
 20
-23.0275220581
 11
2.7308435418
 21
-23.0242019237
  0
LINE
  5
674
100
AcDbEntity
  8
0
100
AcDbLine
 62
7
  6
CONTINUOUS
 10
3.1017956874
 20
-23.3391456905
 11
3.1088733218
 21
-23.3373125881
  0
LINE
  5
675
100
AcDbEntity
  8
RACCORDO
100
AcDbLine
 62
7
  6
CONTINUOUS
 10
31.1970994682
 20
0.9758752117
 11
31.1854870309
 21
0.9740344097
  0
LINE
  5
676
100
AcDbEntity
  8
RACCORDO
100
AcDbLine
 62
7
  6
CONTINUOUS
 10
51.9589171976
 20
8.5231998156
 11
51.9815589241
 21
8.5257342534
  0
LINE
  5
677
100
AcDbEntity
  8
RACCORDO
100
AcDbLine
 62
7
  6
CONTINUOUS
 10
-32.8689511736
 20
1.7804897955
 11
-32.8270251741
 21
1.7842641331
  0
LINE
  5
678
100
AcDbEntity
  8
RACCORDO
100
AcDbLine
 62
7
  6
CONTINUOUS
 10
51.9354443747
 20
8.5216965249
 11
51.9589171976
 21
8.5231998156
  0
LINE
  5
679
100
AcDbEntity
  8
0
100
AcDbLine
 62
7
  6
CONTINUOUS
 10
-28.8679383328
 20
10.9669614031
 11
-28.8445172932
 21
10.9678464921
  0
LINE
  5
67A
100
AcDbEntity
  8
0
100
AcDbLine
 62
7
  6
CONTINUOUS
 10
-29.1684682907
 20
10.974673867
 11
-29.1450590279
 21
10.9754287776
  0
LINE
  5
67B
100
AcDbEntity
  8
0
100
AcDbLine
 62
7
  6
CONTINUOUS
 10
-29.0001205122
 20
11.0114075433
 11
-29.0373159928
 21
11.0104464572
  0
LINE
  5
67C
100
AcDbEntity
  8
RACCORDO
100
AcDbLine
 62
7
  6
CONTINUOUS
 10
-32.6662841324
 20
38.2465541854
 11
-32.613437219
 21
38.2420795143
  0
LINE
  5
67D
100
AcDbEntity
  8
RACCORDO
100
AcDbLine
 62
7
  6
CONTINUOUS
 10
-32.6324381143
 20
37.8554253377
 11
-32.5952026207
 21
37.851688215
  0
LINE
  5
67E
100
AcDbEntity
  8
RACCORDO
100
AcDbLine
 62
7
  6
CONTINUOUS
 10
-32.9947811964
 20
37.4871592481
 11
-32.9531276883
 21
37.4823821004
  0
LINE
  5
67F
100
AcDbEntity
  8
RACCORDO
100
AcDbLine
 62
7
  6
CONTINUOUS
 10
-45.5151669675
 20
68.7505228189
 11
-45.7049418954
 21
68.79848856
  0
LINE
  5
680
100
AcDbEntity
  8
RACCORDO
100
AcDbLine
 62
7
  6
CONTINUOUS
 10
-45.4881685782
 20
68.7289280884
 11
-45.3752882851
 21
68.6978823416
  0
LINE
  5
681
100
AcDbEntity
  8
RACCORDO
100
AcDbLine
 62
7
  6
CONTINUOUS
 10
-45.3215496377
 20
68.6925851334
 11
-45.5151669675
 21
68.7505228189
  0
LINE
  5
682
100
AcDbEntity
  8
RACCORDO
100
AcDbLine
 62
7
  6
CONTINUOUS
 10
-45.3752882851
 20
68.6978823416
 11
-45.2665259108
 21
68.6649128214
  0
LINE
  5
683
100
AcDbEntity
  8
RACCORDO
100
AcDbLine
 62
7
  6
CONTINUOUS
 10
52.0432623486
 20
-63.2696739137
 11
52.0467799438
 21
-63.2300005551
  0
LINE
  5
684
100
AcDbEntity
  8
RACCORDO
100
AcDbLine
 62
7
  6
CONTINUOUS
 10
54.8064701355
 20
-59.7800718835
 11
54.8041962802
 21
-59.8053251506
  0
LINE
  5
685
100
AcDbEntity
  8
RACCORDO
100
AcDbLine
 62
7
  6
CONTINUOUS
 10
51.2350864366
 20
9.5035136419
 11
51.2393385372
 21
9.5272156226
  0
LINE
  5
686
100
AcDbEntity
  8
RACCORDO
100
AcDbLine
 62
7
  6
CONTINUOUS
 10
51.2393385372
 20
9.5272156226
 11
51.2452103715
 21
9.5513319404
  0
LINE
  5
687
100
AcDbEntity
  8
RACCORDO
100
AcDbLine
 62
7
  6
CONTINUOUS
 10
31.285941655
 20
-35.4100791746
 11
31.2831316359
 21
-35.4208133806
  0
LINE
  5
688
100
AcDbEntity
  8
RACCORDO
100
AcDbLine
 62
7
  6
CONTINUOUS
 10
30.5842030971
 20
-35.8355192788
 11
30.5934806317
 21
-35.8015537064
  0
LINE
  5
689
100
AcDbEntity
  8
RACCORDO
100
AcDbLine
 62
7
  6
CONTINUOUS
 10
31.4183991088
 20
-35.7532195076
 11
31.4055905089
 21
-35.7994426482
  0
LINE
  5
68A
100
AcDbEntity
  8
0
100
AcDbLine
 62
7
  6
CONTINUOUS
 10
3.1670174449
 20
-23.2571695504
 11
3.1602661955
 21
-23.2718183555
  0
LINE
  5
68B
100
AcDbEntity
  8
0
100
AcDbLine
 62
7
  6
CONTINUOUS
 10
2.8987692485
 20
-22.8998485963
 11
2.8926078787
 21
-22.9123732062
  0
LINE
  5
68C
100
AcDbEntity
  8
0
100
AcDbLine
 62
7
  6
CONTINUOUS
 10
2.785748071
 20
-22.9746695355
 11
2.7919570415
 21
-22.9622415778
  0
LINE
  5
68D
100
AcDbEntity
  8
RACCORDO
100
AcDbLine
 62
7
  6
CONTINUOUS
 10
-32.1243395238
 20
0.7501152566
 11
-32.1016320298
 21
0.778902977
  0
LINE
  5
68E
100
AcDbEntity
  8
RACCORDO
100
AcDbLine
 62
7
  6
CONTINUOUS
 10
-33.0603428532
 20
38.093778369
 11
-33.0280929801
 21
38.1245562515
  0
LINE
  5
68F
100
AcDbEntity
  8
RACCORDO
100
AcDbLine
 62
7
  6
CONTINUOUS
 10
-32.4431936878
 20
37.8628669097
 11
-32.4228326067
 21
37.8820237364
  0
LINE
  5
690
100
AcDbEntity
  8
RACCORDO
100
AcDbLine
 62
7
  6
CONTINUOUS
 10
-49.7009546947
 20
67.917443588
 11
-49.7157713821
 21
67.9074521028
  0
LINE
  5
691
100
AcDbEntity
  8
RACCORDO
100
AcDbLine
 62
7
  6
CONTINUOUS
 10
31.2118054536
 20
0.9791943972
 11
31.1970994682
 21
0.9758752117
  0
LINE
  5
692
100
AcDbEntity
  8
RACCORDO
100
AcDbLine
 62
7
  6
CONTINUOUS
 10
52.0032083544
 20
8.5292817942
 11
52.0237113534
 21
8.5338171808
  0
LINE
  5
693
100
AcDbEntity
  8
RACCORDO
100
AcDbLine
 62
7
  6
CONTINUOUS
 10
51.9815589241
 20
8.5257342534
 11
52.0032083544
 21
8.5292817942
  0
LINE
  5
694
100
AcDbEntity
  8
RACCORDO
100
AcDbLine
 62
7
  6
CONTINUOUS
 10
-32.8270251741
 20
1.7842641331
 11
-32.7856060141
 21
1.7901487819
  0
LINE
  5
695
100
AcDbEntity
  8
0
100
AcDbLine
 62
7
  6
CONTINUOUS
 10
-29.0373159928
 20
11.0104464572
 11
-29.074418279
 21
11.0067107704
  0
LINE
  5
696
100
AcDbEntity
  8
RACCORDO
100
AcDbLine
 62
7
  6
CONTINUOUS
 10
-32.9110840775
 20
37.4795389955
 11
-32.8689494054
 21
37.4786501556
  0
LINE
  5
697
100
AcDbEntity
  8
RACCORDO
100
AcDbLine
 62
7
  6
CONTINUOUS
 10
-32.9531276883
 20
37.4823821004
 11
-32.9110840775
 21
37.4795389955
  0
LINE
  5
698
100
AcDbEntity
  8
RACCORDO
100
AcDbLine
 62
7
  6
CONTINUOUS
 10
-32.3379556673
 20
37.9295466355
 11
-32.3265259937
 21
37.9287220228
  0
LINE
  5
699
100
AcDbEntity
  8
RACCORDO
100
AcDbLine
 62
7
  6
CONTINUOUS
 10
-45.7049418954
 20
68.79848856
 11
-45.8905214827
 21
68.8367423421
  0
LINE
  5
69A
100
AcDbEntity
  8
RACCORDO
100
AcDbLine
 62
7
  6
CONTINUOUS
 10
-45.7297857151
 20
68.7839185474
 11
-45.6059810674
 21
68.7576777199
  0
LINE
  5
69B
100
AcDbEntity
  8
RACCORDO
100
AcDbLine
 62
7
  6
CONTINUOUS
 10
-49.4707164049
 20
67.6316826928
 11
-49.4996335664
 21
67.6382468935
  0
LINE
  5
69C
100
AcDbEntity
  8
RACCORDO
100
AcDbLine
 62
7
  6
CONTINUOUS
 10
-49.3240880579
 20
67.9659890897
 11
-49.3651570649
 21
67.9754292397
  0
LINE
  5
69D
100
AcDbEntity
  8
RACCORDO
100
AcDbLine
 62
7
  6
CONTINUOUS
 10
-45.6059810674
 20
68.7576777199
 11
-45.4881685782
 21
68.7289280884
  0
LINE
  5
69E
100
AcDbEntity
  8
RACCORDO
100
AcDbLine
 62
7
  6
CONTINUOUS
 10
54.8041962802
 20
-59.8053251506
 11
54.8030287482
 21
-59.8139099988
  0
LINE
  5
69F
100
AcDbEntity
  8
RACCORDO
100
AcDbLine
 62
7
  6
CONTINUOUS
 10
52.0373923922
 20
-63.3073002525
 11
52.0432623486
 21
-63.2696739137
  0
LINE
  5
6A0
100
AcDbEntity
  8
RACCORDO
100
AcDbLine
 62
7
  6
CONTINUOUS
 10
51.6360033437
 20
-63.29978815
 11
51.639843931
 21
-63.2757648765
  0
LINE
  5
6A1
100
AcDbEntity
  8
RACCORDO
100
AcDbLine
 62
7
  6
CONTINUOUS
 10
54.7860295129
 20
-59.9201121549
 11
54.8030403543
 21
-59.8139188209
  0
LINE
  5
6A2
100
AcDbEntity
  8
RACCORDO
100
AcDbLine
 62
7
  6
CONTINUOUS
 10
54.8072699997
 20
-59.7530764119
 11
54.7901390692
 21
-59.8597817415
  0
LINE
  5
6A3
100
AcDbEntity
  8
RACCORDO
100
AcDbLine
 62
7
  6
CONTINUOUS
 10
54.7901390692
 20
-59.8597817415
 11
54.7698615785
 21
-59.969591737
  0
LINE
  5
6A4
100
AcDbEntity
  8
RACCORDO
100
AcDbLine
 62
7
  6
CONTINUOUS
 10
54.7467414368
 20
-60.1248792927
 11
54.7860295129
 21
-59.9201121549
  0
LINE
  5
6A5
100
AcDbEntity
  8
RACCORDO
100
AcDbLine
 62
7
  6
CONTINUOUS
 10
51.2452103715
 20
9.5513319404
 11
51.2526553988
 21
9.5756714469
  0
LINE
  5
6A6
100
AcDbEntity
  8
RACCORDO
100
AcDbLine
 62
7
  6
CONTINUOUS
 10
31.1838400702
 20
-35.6000436044
 11
31.1949220794
 21
-35.5649713759
  0
LINE
  5
6A7
100
AcDbEntity
  8
RACCORDO
100
AcDbLine
 62
7
  6
CONTINUOUS
 10
31.2831316359
 20
-35.4208133806
 11
31.2805118529
 21
-35.4289343128
  0
LINE
  5
6A8
100
AcDbEntity
  8
RACCORDO
100
AcDbLine
 62
7
  6
CONTINUOUS
 10
30.5934806317
 20
-35.8015537064
 11
30.6045849659
 21
-35.7674145245
  0
LINE
  5
6A9
100
AcDbEntity
  8
RACCORDO
100
AcDbLine
 62
7
  6
CONTINUOUS
 10
31.4055905089
 20
-35.7994426482
 11
31.3898679999
 21
-35.8431797907
  0
LINE
  5
6AA
100
AcDbEntity
  8
0
100
AcDbLine
 62
7
  6
CONTINUOUS
 10
3.1602661955
 20
-23.2718183555
 11
3.1531875908
 21
-23.2853858656
  0
LINE
  5
6AB
100
AcDbEntity
  8
RACCORDO
100
AcDbLine
 62
7
  6
CONTINUOUS
 10
-32.1016320298
 20
0.778902977
 11
-32.0779728544
 21
0.8062356332
  0
LINE
  5
6AC
100
AcDbEntity
  8
RACCORDO
100
AcDbLine
 62
7
  6
CONTINUOUS
 10
-33.0280929801
 20
38.1245562515
 11
-32.990341451
 21
38.1546741787
  0
LINE
  5
6AD
100
AcDbEntity
  8
RACCORDO
100
AcDbLine
 62
7
  6
CONTINUOUS
 10
-49.7166345973
 20
67.6074620049
 11
-49.7406569047
 21
67.593296142
  0
LINE
  5
6AE
100
AcDbEntity
  8
RACCORDO
100
AcDbLine
 62
7
  6
CONTINUOUS
 10
-49.6682695631
 20
67.9364947329
 11
-49.7009546947
 21
67.917443588
  0
LINE
  5
6AF
100
AcDbEntity
  8
RACCORDO
100
AcDbLine
 62
7
  6
CONTINUOUS
 10
31.2294990193
 20
0.9839680491
 11
31.2118054536
 21
0.9791943972
  0
LINE
  5
6B0
100
AcDbEntity
  8
RACCORDO
100
AcDbLine
 62
7
  6
CONTINUOUS
 10
-32.7856060141
 20
1.7901487819
 11
-32.74498829
 21
1.7981018868
  0
LINE
  5
6B1
100
AcDbEntity
  8
0
100
AcDbLine
 62
7
  6
CONTINUOUS
 10
-29.074418279
 20
11.0067107704
 11
-29.1112427527
 21
11.0001979363
  0
LINE
  5
6B2
100
AcDbEntity
  8
0
100
AcDbLine
 62
7
  6
CONTINUOUS
 10
-29.1909679282
 20
10.9713280183
 11
-29.1684682907
 21
10.974673867
  0
LINE
  5
6B3
100
AcDbEntity
  8
0
100
AcDbLine
 62
7
  6
CONTINUOUS
 10
-28.8920965457
 20
10.9636407659
 11
-28.8679383328
 21
10.9669614031
  0
LINE
  5
6B4
100
AcDbEntity
  8
RACCORDO
100
AcDbLine
 62
7
  6
CONTINUOUS
 10
-32.8689494054
 20
37.4786501556
 11
-32.8270233614
 21
37.4797219027
  0
LINE
  5
6B5
100
AcDbEntity
  8
RACCORDO
100
AcDbLine
 62
7
  6
CONTINUOUS
 10
-32.3455514898
 20
37.9294433585
 11
-32.3379556673
 21
37.9295466355
  0
LINE
  5
6B6
100
AcDbEntity
  8
RACCORDO
100
AcDbLine
 62
7
  6
CONTINUOUS
 10
-32.718163206
 20
38.2465849131
 11
-32.6662841324
 21
38.2465541854
  0
LINE
  5
6B7
100
AcDbEntity
  8
RACCORDO
100
AcDbLine
 62
7
  6
CONTINUOUS
 10
-32.5952026207
 20
37.851688215
 11
-32.5585420139
 21
37.8512381933
  0
LINE
  5
6B8
100
AcDbEntity
  8
RACCORDO
100
AcDbLine
 62
7
  6
CONTINUOUS
 10
-45.9908685708
 20
68.8256617169
 11
-45.8587560338
 21
68.8069541903
  0
LINE
  5
6B9
100
AcDbEntity
  8
RACCORDO
100
AcDbLine
 62
7
  6
CONTINUOUS
 10
-49.4996335664
 20
67.6382468935
 11
-49.5283033903
 21
67.6425057461
  0
LINE
  5
6BA
100
AcDbEntity
  8
RACCORDO
100
AcDbLine
 62
7
  6
CONTINUOUS
 10
-49.3651570649
 20
67.9754292397
 11
-49.4058437169
 21
67.9817291088
  0
LINE
  5
6BB
100
AcDbEntity
  8
RACCORDO
100
AcDbLine
 62
7
  6
CONTINUOUS
 10
-45.8905214827
 20
68.8367423421
 11
-46.0715900095
 21
68.8655854173
  0
LINE
  5
6BC
100
AcDbEntity
  8
RACCORDO
100
AcDbLine
 62
7
  6
CONTINUOUS
 10
-45.8587560338
 20
68.8069541903
 11
-45.7297857151
 21
68.7839185474
  0
LINE
  5
6BD
100
AcDbEntity
  8
RACCORDO
100
AcDbLine
 62
7
  6
CONTINUOUS
 10
54.7698615785
 20
-59.969591737
 11
54.7461158747
 21
-60.0824417185
  0
LINE
  5
6BE
100
AcDbEntity
  8
RACCORDO
100
AcDbLine
 62
7
  6
CONTINUOUS
 10
52.0291517839
 20
-63.3427726714
 11
52.0373923922
 21
-63.3073002525
  0
LINE
  5
6BF
100
AcDbEntity
  8
RACCORDO
100
AcDbLine
 62
7
  6
CONTINUOUS
 10
54.7003693273
 20
-60.3215821396
 11
54.7467414368
 21
-60.1248792927
  0
LINE
  5
6C0
100
AcDbEntity
  8
RACCORDO
100
AcDbLine
 62
7
  6
CONTINUOUS
 10
54.7461158747
 20
-60.0824417185
 11
54.7184878977
 21
-60.1988224297
  0
LINE
  5
6C1
100
AcDbEntity
  8
RACCORDO
100
AcDbLine
 62
7
  6
CONTINUOUS
 10
51.6304532044
 20
-63.3222248252
 11
51.6360033437
 21
-63.29978815
  0
LINE
  5
6C2
100
AcDbEntity
  8
RACCORDO
100
AcDbLine
 62
7
  6
CONTINUOUS
 10
51.2526553988
 20
9.5756714469
 11
51.2616146091
 21
9.6000412249
  0
LINE
  5
6C3
100
AcDbEntity
  8
RACCORDO
100
AcDbLine
 62
7
  6
CONTINUOUS
 10
30.6045849659
 20
-35.7674145245
 11
30.6174539189
 21
-35.7332929022
  0
LINE
  5
6C4
100
AcDbEntity
  8
RACCORDO
100
AcDbLine
 62
7
  6
CONTINUOUS
 10
31.2805118529
 20
-35.4289343128
 11
31.2783873561
 21
-35.4343863266
  0
LINE
  5
6C5
100
AcDbEntity
  8
RACCORDO
100
AcDbLine
 62
7
  6
CONTINUOUS
 10
31.1949220794
 20
-35.5649713759
 11
31.2091133312
 21
-35.5315410949
  0
LINE
  5
6C6
100
AcDbEntity
  8
RACCORDO
100
AcDbLine
 62
7
  6
CONTINUOUS
 10
30.6174539189
 20
-35.7332929022
 11
30.6320154284
 21
-35.6993799099
  0
LINE
  5
6C7
100
AcDbEntity
  8
RACCORDO
100
AcDbLine
 62
7
  6
CONTINUOUS
 10
51.2616146091
 20
9.6000412249
 11
51.2720169908
 21
9.6242481172
  0
LINE
  5
6C8
100
AcDbEntity
  8
0
100
AcDbLine
 62
7
  6
CONTINUOUS
 10
3.1531875908
 20
-23.2853858656
 11
3.1457966019
 21
-23.2978892642
  0
LINE
  5
6C9
100
AcDbEntity
  8
0
100
AcDbLine
 62
7
  6
CONTINUOUS
 10
2.8926078787
 20
-22.9123732062
 11
2.8856195913
 21
-22.9239548517
  0
LINE
  5
6CA
100
AcDbEntity
  8
0
100
AcDbLine
 62
7
  6
CONTINUOUS
 10
2.7787317855
 20
-22.9861060243
 11
2.785748071
 21
-22.9746695355
  0
LINE
  5
6CB
100
AcDbEntity
  8
RACCORDO
100
AcDbLine
 62
7
  6
CONTINUOUS
 10
-32.0779728544
 20
0.8062356332
 11
-32.0534944818
 21
0.8319601709
  0
LINE
  5
6CC
100
AcDbEntity
  8
RACCORDO
100
AcDbLine
 62
7
  6
CONTINUOUS
 10
-32.4228326067
 20
37.8820237364
 11
-32.3989471288
 21
37.9007396827
  0
LINE
  5
6CD
100
AcDbEntity
  8
RACCORDO
100
AcDbLine
 62
7
  6
CONTINUOUS
 10
-49.6917897319
 20
67.6193658299
 11
-49.7166345973
 21
67.6074620049
  0
LINE
  5
6CE
100
AcDbEntity
  8
RACCORDO
100
AcDbLine
 62
7
  6
CONTINUOUS
 10
-49.634150593
 20
67.9524609543
 11
-49.6682695631
 21
67.9364947329
  0
LINE
  5
6CF
100
AcDbEntity
  8
RACCORDO
100
AcDbLine
 62
7
  6
CONTINUOUS
 10
-32.74498829
 20
1.7981018868
 11
-32.7054608978
 21
1.808066881
  0
LINE
  5
6D0
100
AcDbEntity
  8
0
100
AcDbLine
 62
7
  6
CONTINUOUS
 10
-28.9168627645
 20
10.957902335
 11
-28.8920965457
 21
10.9636407659
  0
LINE
  5
6D1
100
AcDbEntity
  8
RACCORDO
100
AcDbLine
 62
7
  6
CONTINUOUS
 10
-32.7683658426
 20
38.2421732858
 11
-32.718163206
 21
38.2465849131
  0
LINE
  5
6D2
100
AcDbEntity
  8
RACCORDO
100
AcDbLine
 62
7
  6
CONTINUOUS
 10
-32.5585420139
 20
37.8512381933
 11
-32.5227204622
 21
37.8540785153
  0
LINE
  5
6D3
100
AcDbEntity
  8
RACCORDO
100
AcDbLine
 62
7
  6
CONTINUOUS
 10
-32.8270233614
 20
37.4797219027
 11
-32.7856041508
 21
37.4827466138
  0
LINE
  5
6D4
100
AcDbEntity
  8
RACCORDO
100
AcDbLine
 62
7
  6
CONTINUOUS
 10
-49.5283033903
 20
67.6425057461
 11
-49.556745857
 21
67.6444405789
  0
LINE
  5
6D5
100
AcDbEntity
  8
RACCORDO
100
AcDbLine
 62
7
  6
CONTINUOUS
 10
-49.4058437169
 20
67.9817291088
 11
-49.4460546986
 21
67.9848534369
  0
LINE
  5
6D6
100
AcDbEntity
  8
RACCORDO
100
AcDbLine
 62
7
  6
CONTINUOUS
 10
-46.1254625919
 20
68.8394621272
 11
-45.9908685708
 21
68.8256617169
  0
LINE
  5
6D7
100
AcDbEntity
  8
RACCORDO
100
AcDbLine
 62
7
  6
CONTINUOUS
 10
-46.0715900095
 20
68.8655854173
 11
-46.2478215652
 21
68.8853572883
  0
LINE
  5
6D8
100
AcDbEntity
  8
RACCORDO
100
AcDbLine
 62
7
  6
CONTINUOUS
 10
54.7184878977
 20
-60.1988224297
 11
54.6866990501
 21
-60.318079808
  0
LINE
  5
6D9
100
AcDbEntity
  8
RACCORDO
100
AcDbLine
 62
7
  6
CONTINUOUS
 10
54.6472825755
 20
-60.5100017448
 11
54.7003693273
 21
-60.3215821396
  0
LINE
  5
6DA
100
AcDbEntity
  8
RACCORDO
100
AcDbLine
 62
7
  6
CONTINUOUS
 10
54.6866990501
 20
-60.318079808
 11
54.6506884067
 21
-60.4384261125
  0
LINE
  5
6DB
100
AcDbEntity
  8
RACCORDO
100
AcDbLine
 62
7
  6
CONTINUOUS
 10
52.0185923513
 20
-63.3759678274
 11
52.0291517839
 21
-63.3427726714
  0
LINE
  5
6DC
100
AcDbEntity
  8
RACCORDO
100
AcDbLine
 62
7
  6
CONTINUOUS
 10
31.3898679999
 20
-35.8431797907
 11
31.3713554239
 21
-35.8844806409
  0
LINE
  5
6DD
100
AcDbEntity
  8
RACCORDO
100
AcDbLine
 62
7
  6
CONTINUOUS
 10
31.2783873561
 20
-35.4343863266
 11
31.2770865822
 21
-35.4371967436
  0
LINE
  5
6DE
100
AcDbEntity
  8
RACCORDO
100
AcDbLine
 62
7
  6
CONTINUOUS
 10
30.6320154284
 20
-35.6993799099
 11
30.6481879545
 21
-35.6658654501
  0
LINE
  5
6DF
100
AcDbEntity
  8
RACCORDO
100
AcDbLine
 62
7
  6
CONTINUOUS
 10
51.2720169908
 20
9.6242481172
 11
51.2837800936
 21
9.6481002578
  0
LINE
  5
6E0
100
AcDbEntity
  8
0
100
AcDbLine
 62
7
  6
CONTINUOUS
 10
3.1457966019
 20
-23.2978892642
 11
3.1380775732
 21
-23.3093118239
  0
LINE
  5
6E1
100
AcDbEntity
  8
RACCORDO
100
AcDbLine
 62
7
  6
CONTINUOUS
 10
-32.0534944818
 20
0.8319601709
 11
-32.0283339829
 21
0.8559325411
  0
LINE
  5
6E2
100
AcDbEntity
  8
RACCORDO
100
AcDbLine
 62
7
  6
CONTINUOUS
 10
-32.990341451
 20
38.1546741787
 11
-32.9503722305
 21
38.1805877151
  0
LINE
  5
6E3
100
AcDbEntity
  8
RACCORDO
100
AcDbLine
 62
7
  6
CONTINUOUS
 10
-32.3989471288
 20
37.9007396827
 11
-32.3734997719
 21
37.9170035938
  0
LINE
  5
6E4
100
AcDbEntity
  8
0
100
AcDbLine
 62
7
  6
CONTINUOUS
 10
-29.2124344909
 20
10.9654090711
 11
-29.1909679282
 21
10.9713280183
  0
LINE
  5
6E5
100
AcDbEntity
  8
0
100
AcDbLine
 62
7
  6
CONTINUOUS
 10
-29.1112427527
 20
11.0001979363
 11
-29.1475230823
 21
10.990937596
  0
LINE
  5
6E6
100
AcDbEntity
  8
RACCORDO
100
AcDbLine
 62
7
  6
CONTINUOUS
 10
-32.7856041508
 20
37.4827466138
 11
-32.7449863741
 21
37.4877027751
  0
LINE
  5
6E7
100
AcDbEntity
  8
RACCORDO
100
AcDbLine
 62
7
  6
CONTINUOUS
 10
-32.3496912679
 20
37.9290298891
 11
-32.3455514898
 21
37.9294433585
  0
LINE
  5
6E8
100
AcDbEntity
  8
RACCORDO
100
AcDbLine
 62
7
  6
CONTINUOUS
 10
-46.4043361408
 20
68.8515173473
 11
-46.2632773573
 21
68.8482091697
  0
LINE
  5
6E9
100
AcDbEntity
  8
RACCORDO
100
AcDbLine
 62
7
  6
CONTINUOUS
 10
-46.4188581979
 20
68.8964441614
 11
-46.5123749405
 21
68.8990172323
  0
LINE
  5
6EA
100
AcDbEntity
  8
RACCORDO
100
AcDbLine
 62
7
  6
CONTINUOUS
 10
-46.2632773573
 20
68.8482091697
 11
-46.1254625919
 21
68.8394621272
  0
LINE
  5
6EB
100
AcDbEntity
  8
RACCORDO
100
AcDbLine
 62
7
  6
CONTINUOUS
 10
-46.2478215652
 20
68.8853572883
 11
-46.4188581979
 21
68.8964441614
  0
LINE
  5
6EC
100
AcDbEntity
  8
RACCORDO
100
AcDbLine
 62
7
  6
CONTINUOUS
 10
54.5878825853
 20
-60.6899524935
 11
54.6472825755
 21
-60.5100017448
  0
LINE
  5
6ED
100
AcDbEntity
  8
RACCORDO
100
AcDbLine
 62
7
  6
CONTINUOUS
 10
54.6506884067
 20
-60.4384261125
 11
54.6099933137
 21
-60.5601804225
  0
LINE
  5
6EE
100
AcDbEntity
  8
RACCORDO
100
AcDbLine
 62
7
  6
CONTINUOUS
 10
51.6232128995
 20
-63.3431019027
 11
51.6304532044
 21
-63.3222248252
  0
LINE
  5
6EF
100
AcDbEntity
  8
RACCORDO
100
AcDbLine
 62
7
  6
CONTINUOUS
 10
54.6099933137
 20
-60.5601804225
 11
54.5644757085
 21
-60.6828119297
  0
LINE
  5
6F0
100
AcDbEntity
  8
RACCORDO
100
AcDbLine
 62
7
  6
CONTINUOUS
 10
30.6481879545
 20
-35.6658654501
 11
30.6658809361
 21
-35.6329371932
  0
LINE
  5
6F1
100
AcDbEntity
  8
RACCORDO
100
AcDbLine
 62
7
  6
CONTINUOUS
 10
31.2091133312
 20
-35.5315410949
 11
31.2263115666
 21
-35.4999936527
  0
LINE
  5
6F2
100
AcDbEntity
  8
RACCORDO
100
AcDbLine
 62
7
  6
CONTINUOUS
 10
31.3713554239
 20
-35.8844806409
 11
31.3504088997
 21
-35.9226142859
  0
LINE
  5
6F3
100
AcDbEntity
  8
RACCORDO
100
AcDbLine
 62
7
  6
CONTINUOUS
 10
51.2837800936
 20
9.6481002578
 11
51.2968106821
 21
9.6714085921
  0
LINE
  5
6F4
100
AcDbEntity
  8
RACCORDO
100
AcDbLine
 62
7
  6
CONTINUOUS
 10
51.2968106821
 20
9.6714085921
 11
51.3110054746
 21
9.6939883761
  0
LINE
  5
6F5
100
AcDbEntity
  8
0
100
AcDbLine
 62
7
  6
CONTINUOUS
 10
3.1380775732
 20
-23.3093118239
 11
3.1301461061
 21
-23.3198007853
  0
LINE
  5
6F6
100
AcDbEntity
  8
0
100
AcDbLine
 62
7
  6
CONTINUOUS
 10
2.8856195913
 20
-22.9239548517
 11
2.8777393628
 21
-22.9343296691
  0
LINE
  5
6F7
100
AcDbEntity
  8
0
100
AcDbLine
 62
7
  6
CONTINUOUS
 10
2.7708716865
 20
-22.9963230162
 11
2.7787317855
 21
-22.9861060243
  0
LINE
  5
6F8
100
AcDbEntity
  8
RACCORDO
100
AcDbLine
 62
7
  6
CONTINUOUS
 10
-32.0283339829
 20
0.8559325411
 11
-32.0026322489
 21
0.8780185059
  0
LINE
  5
6F9
100
AcDbEntity
  8
RACCORDO
100
AcDbLine
 62
7
  6
CONTINUOUS
 10
-49.6661192211
 20
67.6289854644
 11
-49.6917897319
 21
67.6193658299
  0
LINE
  5
6FA
100
AcDbEntity
  8
RACCORDO
100
AcDbLine
 62
7
  6
CONTINUOUS
 10
-49.5987118887
 20
67.9652995068
 11
-49.634150593
 21
67.9524609543
  0
LINE
  5
6FB
100
AcDbEntity
  8
RACCORDO
100
AcDbLine
 62
7
  6
CONTINUOUS
 10
-32.3512736091
 20
37.9287314032
 11
-32.3496912679
 21
37.9290298891
  0
LINE
  5
6FC
100
AcDbEntity
  8
RACCORDO
100
AcDbLine
 62
7
  6
CONTINUOUS
 10
-32.8168305265
 20
38.233243488
 11
-32.7683658426
 21
38.2421732858
  0
LINE
  5
6FD
100
AcDbEntity
  8
RACCORDO
100
AcDbLine
 62
7
  6
CONTINUOUS
 10
-32.5227204622
 20
37.8540785153
 11
-32.4879960881
 21
37.8601887142
  0
LINE
  5
6FE
100
AcDbEntity
  8
RACCORDO
100
AcDbLine
 62
7
  6
CONTINUOUS
 10
-32.7449863741
 20
37.4877027751
 11
-32.7054589315
 21
37.4945551352
  0
LINE
  5
6FF
100
AcDbEntity
  8
RACCORDO
100
AcDbLine
 62
7
  6
CONTINUOUS
 10
-46.5804715405
 20
68.8992966783
 11
-46.7115529891
 21
68.8959556525
  0
LINE
  5
700
100
AcDbEntity
  8
RACCORDO
100
AcDbLine
 62
7
  6
CONTINUOUS
 10
-46.5133987523
 20
68.8495715007
 11
-46.4043361408
 21
68.8515173473
  0
LINE
  5
701
100
AcDbEntity
  8
RACCORDO
100
AcDbLine
 62
7
  6
CONTINUOUS
 10
-49.556745857
 20
67.6444405789
 11
-49.5849401842
 21
67.6440703562
  0
LINE
  5
702
100
AcDbEntity
  8
RACCORDO
100
AcDbLine
 62
7
  6
CONTINUOUS
 10
-49.4460546986
 20
67.9848534369
 11
-49.4856097246
 21
67.9847711901
  0
LINE
  5
703
100
AcDbEntity
  8
RACCORDO
100
AcDbLine
 62
7
  6
CONTINUOUS
 10
-46.5124088668
 20
68.8990176818
 11
-46.5804715405
 21
68.8992966783
  0
LINE
  5
704
100
AcDbEntity
  8
RACCORDO
100
AcDbLine
 62
7
  6
CONTINUOUS
 10
54.5225806859
 20
-60.8613195006
 11
54.5878825853
 21
-60.6899524935
  0
LINE
  5
705
100
AcDbEntity
  8
RACCORDO
100
AcDbLine
 62
7
  6
CONTINUOUS
 10
54.5644757085
 20
-60.6828119297
 11
54.5148411402
 21
-60.8032947258
  0
LINE
  5
706
100
AcDbEntity
  8
RACCORDO
100
AcDbLine
 62
7
  6
CONTINUOUS
 10
52.0057783323
 20
-63.4067661058
 11
52.0185923513
 21
-63.3759678274
  0
LINE
  5
707
100
AcDbEntity
  8
RACCORDO
100
AcDbLine
 62
7
  6
CONTINUOUS
 10
54.451835159
 20
-61.0239855993
 11
54.5225806859
 21
-60.8613195006
  0
LINE
  5
708
100
AcDbEntity
  8
RACCORDO
100
AcDbLine
 62
7
  6
CONTINUOUS
 10
30.6658809361
 20
-35.6329371932
 11
30.6849952978
 21
-35.6007795276
  0
LINE
  5
709
100
AcDbEntity
  8
RACCORDO
100
AcDbLine
 62
7
  6
CONTINUOUS
 10
30.6849952978
 20
-35.6007795276
 11
30.7054240052
 21
-35.569572526
  0
LINE
  5
70A
100
AcDbEntity
  8
RACCORDO
100
AcDbLine
 62
7
  6
CONTINUOUS
 10
51.3110054746
 20
9.6939883761
 11
51.3262519617
 21
9.7156606403
  0
LINE
  5
70B
100
AcDbEntity
  8
0
100
AcDbLine
 62
7
  6
CONTINUOUS
 10
3.1301461061
 20
-23.3198007853
 11
3.122005509
 21
-23.329355584
  0
LINE
  5
70C
100
AcDbEntity
  8
RACCORDO
100
AcDbLine
 62
7
  6
CONTINUOUS
 10
-32.0026322489
 20
0.8780185059
 11
-31.9765332015
 21
0.898094391
  0
LINE
  5
70D
100
AcDbEntity
  8
0
100
AcDbLine
 62
7
  6
CONTINUOUS
 10
-30.5051631422
 20
36.2862335504
 11
-30.1546951654
 21
36.4778964411
  0
LINE
  5
70E
100
AcDbEntity
  8
RACCORDO
100
AcDbLine
 62
7
  6
CONTINUOUS
 10
-32.3734997719
 20
37.9170035938
 11
-32.3500349557
 21
37.9291600355
  0
LINE
  5
70F
100
AcDbEntity
  8
RACCORDO
100
AcDbLine
 62
7
  6
CONTINUOUS
 10
-32.9503722305
 20
38.1805877151
 11
-32.9081878008
 21
38.2022955681
  0
LINE
  5
710
100
AcDbEntity
  8
RACCORDO
100
AcDbLine
 62
7
  6
CONTINUOUS
 10
-32.7054589315
 20
37.4945551352
 11
-32.6673029678
 21
37.5032549557
  0
LINE
  5
711
100
AcDbEntity
  8
RACCORDO
100
AcDbLine
 62
7
  6
CONTINUOUS
 10
-49.4856097246
 20
67.9847711901
 11
-49.5243244435
 21
67.9814801392
  0
LINE
  5
712
100
AcDbEntity
  8
RACCORDO
100
AcDbLine
 62
7
  6
CONTINUOUS
 10
-46.7115529891
 20
68.8959556525
 11
-46.8405581699
 21
68.8875355525
  0
LINE
  5
713
100
AcDbEntity
  8
RACCORDO
100
AcDbLine
 62
7
  6
CONTINUOUS
 10
-46.6204830403
 20
68.8439382592
 11
-46.5133987523
 21
68.8495715007
  0
LINE
  5
714
100
AcDbEntity
  8
RACCORDO
100
AcDbLine
 62
7
  6
CONTINUOUS
 10
54.5148411402
 20
-60.8032947258
 11
54.4613699221
 21
-60.9205839432
  0
LINE
  5
715
100
AcDbEntity
  8
RACCORDO
100
AcDbLine
 62
7
  6
CONTINUOUS
 10
51.6143679858
 20
-63.3622142954
 11
51.6232128995
 21
-63.3431019027
  0
LINE
  5
716
100
AcDbEntity
  8
RACCORDO
100
AcDbLine
 62
7
  6
CONTINUOUS
 10
54.3761556787
 20
-61.1778312948
 11
54.451835159
 21
-61.0239855993
  0
LINE
  5
717
100
AcDbEntity
  8
RACCORDO
100
AcDbLine
 62
7
  6
CONTINUOUS
 10
54.4613699221
 20
-60.9205839432
 11
54.4036833555
 21
-61.0355695178
  0
LINE
  5
718
100
AcDbEntity
  8
RACCORDO
100
AcDbLine
 62
7
  6
CONTINUOUS
 10
31.3504088997
 20
-35.9226142859
 11
31.3271465144
 21
-35.9573374804
  0
LINE
  5
719
100
AcDbEntity
  8
RACCORDO
100
AcDbLine
 62
7
  6
CONTINUOUS
 10
31.2263115666
 20
-35.4999936527
 11
31.2463928589
 21
-35.4705563732
  0
LINE
  5
71A
100
AcDbEntity
  8
RACCORDO
100
AcDbLine
 62
7
  6
CONTINUOUS
 10
30.7054240052
 20
-35.569572526
 11
30.7270526638
 21
-35.5394909383
  0
LINE
  5
71B
100
AcDbEntity
  8
RACCORDO
100
AcDbLine
 62
7
  6
CONTINUOUS
 10
51.3262519617
 20
9.7156606403
 11
51.3424292984
 21
9.7362536082
  0
LINE
  5
71C
100
AcDbEntity
  8
RACCORDO
100
AcDbLine
 62
7
  6
CONTINUOUS
 10
51.3424292984
 20
9.7362536082
 11
51.3594092616
 21
9.755604058
  0
LINE
  5
71D
100
AcDbEntity
  8
0
100
AcDbLine
 62
7
  6
CONTINUOUS
 10
2.8777393628
 20
-22.9343296691
 11
2.8689615883
 21
-22.943505743
  0
LINE
  5
71E
100
AcDbEntity
  8
0
100
AcDbLine
 62
7
  6
CONTINUOUS
 10
2.7621629764
 20
-23.005322178
 11
2.7708716865
 21
-22.9963230162
  0
LINE
  5
71F
100
AcDbEntity
  8
0
100
AcDbLine
 62
7
  6
CONTINUOUS
 10
3.122005509
 20
-23.329355584
 11
3.1136519407
 21
-23.3379771398
  0
LINE
  5
720
100
AcDbEntity
  8
RACCORDO
100
AcDbLine
 62
7
  6
CONTINUOUS
 10
-31.9765332015
 20
0.898094391
 11
-31.9501829873
 21
0.9160477775
  0
LINE
  5
721
100
AcDbEntity
  8
0
100
AcDbLine
 62
7
  6
CONTINUOUS
 10
-30.5051631422
 20
5.2603630323
 11
-28.3200305295
 21
6.6331299155
  0
LINE
  5
722
100
AcDbEntity
  8
RACCORDO
100
AcDbLine
 62
7
  6
CONTINUOUS
 10
-32.3500349557
 20
37.9291600355
 11
-32.3492930699
 21
37.9295042637
  0
LINE
  5
723
100
AcDbEntity
  8
0
100
AcDbLine
 62
7
  6
CONTINUOUS
 10
-32.5637193606
 20
37.539767613
 11
-32.0304106427
 21
37.7863577621
  0
LINE
  5
724
100
AcDbEntity
  8
RACCORDO
100
AcDbLine
 62
7
  6
CONTINUOUS
 10
-32.3513246032
 20
37.928708521
 11
-32.3512736091
 21
37.9287314032
  0
LINE
  5
725
100
AcDbEntity
  8
RACCORDO
100
AcDbLine
 62
7
  6
CONTINUOUS
 10
-32.4879960881
 20
37.8601887142
 11
-32.454619108
 21
37.8695247613
  0
LINE
  5
726
100
AcDbEntity
  8
RACCORDO
100
AcDbLine
 62
7
  6
CONTINUOUS
 10
-46.8283674371
 20
68.8219036734
 11
-46.725526281
 21
68.8346924004
  0
LINE
  5
727
100
AcDbEntity
  8
RACCORDO
100
AcDbLine
 62
7
  6
CONTINUOUS
 10
-46.8405581699
 20
68.8875355525
 11
-46.967316038
 21
68.8741060545
  0
LINE
  5
728
100
AcDbEntity
  8
RACCORDO
100
AcDbLine
 62
7
  6
CONTINUOUS
 10
-49.5849401842
 20
67.6440703562
 11
-49.6125735081
 21
67.6413791817
  0
LINE
  5
729
100
AcDbEntity
  8
RACCORDO
100
AcDbLine
 62
7
  6
CONTINUOUS
 10
-46.725526281
 20
68.8346924004
 11
-46.6204830403
 21
68.8439382592
  0
LINE
  5
72A
100
AcDbEntity
  8
RACCORDO
100
AcDbLine
 62
7
  6
CONTINUOUS
 10
51.9907221752
 20
-63.4350812237
 11
52.0057783323
 21
-63.4067661058
  0
LINE
  5
72B
100
AcDbEntity
  8
RACCORDO
100
AcDbLine
 62
7
  6
CONTINUOUS
 10
54.3288330762
 20
-61.2654509401
 11
54.3761556787
 21
-61.1778312948
  0
LINE
  5
72C
100
AcDbEntity
  8
RACCORDO
100
AcDbLine
 62
7
  6
CONTINUOUS
 10
54.4036833555
 20
-61.0355695178
 11
54.3417150537
 21
-61.148164642
  0
LINE
  5
72D
100
AcDbEntity
  8
RACCORDO
100
AcDbLine
 62
7
  6
CONTINUOUS
 10
54.2980380146
 20
-61.3194097414
 11
54.3288149373
 21
-61.2654823769
  0
LINE
  5
72E
100
AcDbEntity
  8
RACCORDO
100
AcDbLine
 62
7
  6
CONTINUOUS
 10
30.7270526638
 20
-35.5394909383
 11
30.7497601598
 21
-35.510703212
  0
LINE
  5
72F
100
AcDbEntity
  8
RACCORDO
100
AcDbLine
 62
7
  6
CONTINUOUS
 10
31.3271465144
 20
-35.9573374804
 11
31.301448747
 21
-35.9888943782
  0
LINE
  5
730
100
AcDbEntity
  8
RACCORDO
100
AcDbLine
 62
7
  6
CONTINUOUS
 10
31.2463928589
 20
-35.4705563732
 11
31.2692125066
 21
-35.4434413752
  0
LINE
  5
731
100
AcDbEntity
  8
RACCORDO
100
AcDbLine
 62
7
  6
CONTINUOUS
 10
51.3594092616
 20
9.755604058
 11
51.3770572663
 21
9.7735586162
  0
LINE
  5
732
100
AcDbEntity
  8
0
100
AcDbLine
 62
7
  6
CONTINUOUS
 10
3.1136519407
 20
-23.3379771398
 11
3.1051903545
 21
-23.3458148676
  0
LINE
  5
733
100
AcDbEntity
  8
RACCORDO
100
AcDbLine
 62
7
  6
CONTINUOUS
 10
-32.4546196481
 20
1.3891594484
 11
-32.4228305776
 21
1.4087496849
  0
LINE
  5
734
100
AcDbEntity
  8
RACCORDO
100
AcDbLine
 62
7
  6
CONTINUOUS
 10
-32.4879966161
 20
1.3691716372
 11
-32.4546196481
 21
1.3891594484
  0
LINE
  5
735
100
AcDbEntity
  8
RACCORDO
100
AcDbLine
 62
7
  6
CONTINUOUS
 10
-32.5227209755
 20
1.3489302785
 11
-32.4879966161
 21
1.3691716372
  0
LINE
  5
736
100
AcDbEntity
  8
0
100
AcDbLine
 62
7
  6
CONTINUOUS
 10
-32.5637187819
 20
1.8663991755
 11
-30.5051631422
 21
3.0549981296
  0
LINE
  5
737
100
AcDbEntity
  8
0
100
AcDbLine
 62
7
  6
CONTINUOUS
 10
-31.9501889053
 20
0.9160511945
 11
-29.9402529695
 21
2.0765450098
  0
LINE
  5
738
100
AcDbEntity
  8
RACCORDO
100
AcDbLine
 62
7
  6
CONTINUOUS
 10
-32.5585425112
 20
1.3285812266
 11
-32.5227209755
 21
1.3489302785
  0
LINE
  5
739
100
AcDbEntity
  8
0
100
AcDbLine
 62
7
  6
CONTINUOUS
 10
-30.1546951654
 20
9.534377307
 11
-28.3200305295
 21
10.537713277
  0
LINE
  5
73A
100
AcDbEntity
  8
RACCORDO
100
AcDbLine
 62
7
  6
CONTINUOUS
 10
-32.5961793526
 20
37.5259367624
 11
-32.5637175787
 21
37.5397574207
  0
LINE
  5
73B
100
AcDbEntity
  8
RACCORDO
100
AcDbLine
 62
7
  6
CONTINUOUS
 10
-32.9081878008
 20
38.2022955681
 11
-32.8636145509
 21
38.2198735224
  0
LINE
  5
73C
100
AcDbEntity
  8
RACCORDO
100
AcDbLine
 62
7
  6
CONTINUOUS
 10
-32.454619108
 20
37.8695247613
 11
-32.4228300292
 21
37.882019383
  0
LINE
  5
73D
100
AcDbEntity
  8
RACCORDO
100
AcDbLine
 62
7
  6
CONTINUOUS
 10
-47.0916726562
 20
68.8557443179
 11
-47.2134767807
 21
68.8325595244
  0
LINE
  5
73E
100
AcDbEntity
  8
RACCORDO
100
AcDbLine
 62
7
  6
CONTINUOUS
 10
-49.6125735081
 20
67.6413791817
 11
-49.6396274089
 21
67.6363426006
  0
LINE
  5
73F
100
AcDbEntity
  8
RACCORDO
100
AcDbLine
 62
7
  6
CONTINUOUS
 10
-49.5243244435
 20
67.9814801392
 11
-49.5620605395
 21
67.9749844064
  0
LINE
  5
740
100
AcDbEntity
  8
RACCORDO
100
AcDbLine
 62
7
  6
CONTINUOUS
 10
-46.929047673
 20
68.8056567114
 11
-46.8283674371
 21
68.8219036734
  0
LINE
  5
741
100
AcDbEntity
  8
RACCORDO
100
AcDbLine
 62
7
  6
CONTINUOUS
 10
-46.967316038
 20
68.8741060545
 11
-47.0916726562
 21
68.8557443179
  0
LINE
  5
742
100
AcDbEntity
  8
RACCORDO
100
AcDbLine
 62
7
  6
CONTINUOUS
 10
51.6039011682
 20
-63.3795421335
 11
51.6143679858
 21
-63.3622142954
  0
LINE
  5
743
100
AcDbEntity
  8
RACCORDO
100
AcDbLine
 62
7
  6
CONTINUOUS
 10
54.3417150537
 20
-61.148164642
 11
54.2692037664
 21
-61.267502852
  0
LINE
  5
744
100
AcDbEntity
  8
RACCORDO
100
AcDbLine
 62
7
  6
CONTINUOUS
 10
54.2298621703
 20
-61.4313045212
 11
54.2980380146
 21
-61.3194097414
  0
LINE
  5
745
100
AcDbEntity
  8
RACCORDO
100
AcDbLine
 62
7
  6
CONTINUOUS
 10
30.7497601598
 20
-35.510703212
 11
30.7734193381
 21
-35.4833705494
  0
LINE
  5
746
100
AcDbEntity
  8
RACCORDO
100
AcDbLine
 62
7
  6
CONTINUOUS
 10
30.7734193381
 20
-35.4833705494
 11
30.7978977147
 21
-35.4576460051
  0
LINE
  5
747
100
AcDbEntity
  8
RACCORDO
100
AcDbLine
 62
7
  6
CONTINUOUS
 10
51.3770572663
 20
9.7735586162
 11
51.3952334329
 21
9.7899749731
  0
LINE
  5
748
100
AcDbEntity
  8
0
100
AcDbLine
 62
7
  6
CONTINUOUS
 10
2.8689615883
 20
-22.943505743
 11
2.8592914241
 21
-22.9514752874
  0
LINE
  5
749
100
AcDbEntity
  8
0
100
AcDbLine
 62
7
  6
CONTINUOUS
 10
3.1051903545
 20
-23.3458148676
 11
3.0966129232
 21
-23.3528438116
  0
LINE
  5
74A
100
AcDbEntity
  8
0
100
AcDbLine
 62
7
  6
CONTINUOUS
 10
2.7526099831
 20
-23.0131021558
 11
2.7621629764
 21
-23.005322178
  0
LINE
  5
74B
100
AcDbEntity
  8
RACCORDO
100
AcDbLine
 62
7
  6
CONTINUOUS
 10
-32.595203102
 20
1.3082711117
 11
-32.5585425112
 21
1.3285812266
  0
LINE
  5
74C
100
AcDbEntity
  8
RACCORDO
100
AcDbLine
 62
7
  6
CONTINUOUS
 10
-32.6324385807
 20
1.2881462832
 11
-32.595203102
 21
1.3082711117
  0
LINE
  5
74D
100
AcDbEntity
  8
RACCORDO
100
AcDbLine
 62
7
  6
CONTINUOUS
 10
-32.5961814195
 20
1.849256007
 11
-32.5637196503
 21
1.8664248415
  0
LINE
  5
74E
100
AcDbEntity
  8
RACCORDO
100
AcDbLine
 62
7
  6
CONTINUOUS
 10
-32.6699806377
 20
1.2683517559
 11
-32.6324385807
 21
1.2881462832
  0
LINE
  5
74F
100
AcDbEntity
  8
0
100
AcDbLine
 62
7
  6
CONTINUOUS
 10
-30.1546951654
 20
10.4794670438
 11
-29.235770562
 21
10.9554209245
  0
LINE
  5
750
100
AcDbEntity
  8
0
100
AcDbLine
 62
7
  6
CONTINUOUS
 10
-30.1546951654
 20
10.3250997476
 11
-28.9934732823
 21
10.9265506823
  0
LINE
  5
751
100
AcDbEntity
  8
RACCORDO
100
AcDbLine
 62
7
  6
CONTINUOUS
 10
-32.7075587543
 20
1.2490301641
 11
-32.6699806377
 21
1.2683517559
  0
LINE
  5
752
100
AcDbEntity
  8
0
100
AcDbLine
 62
7
  6
CONTINUOUS
 10
-29.2357690236
 20
10.9554217213
 11
-29.2327490451
 21
10.9569484427
  0
LINE
  5
753
100
AcDbEntity
  8
RACCORDO
100
AcDbLine
 62
7
  6
CONTINUOUS
 10
-32.7449021518
 20
1.2303207343
 11
-32.7075587543
 21
1.2490301641
  0
LINE
  5
754
100
AcDbEntity
  8
0
100
AcDbLine
 62
7
  6
CONTINUOUS
 10
-28.9934732823
 20
10.9265506823
 11
-28.9676870045
 21
10.9393075827
  0
LINE
  5
755
100
AcDbEntity
  8
0
100
AcDbLine
 62
7
  6
CONTINUOUS
 10
-29.2175756357
 20
10.9643816665
 11
-29.2358012268
 21
10.9554050379
  0
LINE
  5
756
100
AcDbEntity
  8
RACCORDO
100
AcDbLine
 62
7
  6
CONTINUOUS
 10
-32.6307898732
 20
37.5137403578
 11
-32.5961793526
 21
37.5259367624
  0
LINE
  5
757
100
AcDbEntity
  8
RACCORDO
100
AcDbLine
 62
7
  6
CONTINUOUS
 10
-47.1245577378
 20
68.763122265
 11
-47.0278135581
 21
68.7860328899
  0
LINE
  5
758
100
AcDbEntity
  8
RACCORDO
100
AcDbLine
 62
7
  6
CONTINUOUS
 10
-47.2134767807
 20
68.8325595244
 11
-47.2600962329
 21
68.8216474982
  0
LINE
  5
759
100
AcDbEntity
  8
RACCORDO
100
AcDbLine
 62
7
  6
CONTINUOUS
 10
-47.0278135581
 20
68.7860328899
 11
-46.929047673
 21
68.8056567114
  0
LINE
  5
75A
100
AcDbEntity
  8
RACCORDO
100
AcDbLine
 62
7
  6
CONTINUOUS
 10
54.158318723
 20
-61.5388935392
 11
54.2298621703
 21
-61.4313045212
  0
LINE
  5
75B
100
AcDbEntity
  8
RACCORDO
100
AcDbLine
 62
7
  6
CONTINUOUS
 10
51.9734982103
 20
-63.4608151655
 11
51.9907221752
 21
-63.4350812237
  0
LINE
  5
75C
100
AcDbEntity
  8
RACCORDO
100
AcDbLine
 62
7
  6
CONTINUOUS
 10
54.2692037664
 20
-61.267502852
 11
54.1924884703
 21
-61.3817508757
  0
LINE
  5
75D
100
AcDbEntity
  8
RACCORDO
100
AcDbLine
 62
7
  6
CONTINUOUS
 10
54.083541818
 20
-61.6420636594
 11
54.158318723
 21
-61.5388935392
  0
LINE
  5
75E
100
AcDbEntity
  8
RACCORDO
100
AcDbLine
 62
7
  6
CONTINUOUS
 10
31.301448747
 20
-35.9888943782
 11
31.273314959
 21
-36.0172853842
  0
LINE
  5
75F
100
AcDbEntity
  8
RACCORDO
100
AcDbLine
 62
7
  6
CONTINUOUS
 10
31.2692125066
 20
-35.4434413752
 11
31.2763018223
 21
-35.4364059702
  0
LINE
  5
760
100
AcDbEntity
  8
RACCORDO
100
AcDbLine
 62
7
  6
CONTINUOUS
 10
30.7978977147
 20
-35.4576460051
 11
30.8230582182
 21
-35.4336736287
  0
LINE
  5
761
100
AcDbEntity
  8
RACCORDO
100
AcDbLine
 62
7
  6
CONTINUOUS
 10
54.7908235182
 20
10.6080331017
 11
54.8072700043
 21
10.621885759
  0
LINE
  5
762
100
AcDbEntity
  8
RACCORDO
100
AcDbLine
 62
7
  6
CONTINUOUS
 10
54.771492745
 20
10.5920230801
 11
54.7908235182
 21
10.6080331017
  0
LINE
  5
763
100
AcDbEntity
  8
RACCORDO
100
AcDbLine
 62
7
  6
CONTINUOUS
 10
54.7489988148
 20
10.5739120562
 11
54.771492745
 21
10.5920230801
  0
LINE
  5
764
100
AcDbEntity
  8
RACCORDO
100
AcDbLine
 62
7
  6
CONTINUOUS
 10
51.3952334329
 20
9.7899749731
 11
51.4137936953
 21
9.8047230113
  0
LINE
  5
765
100
AcDbEntity
  8
RACCORDO
100
AcDbLine
 62
7
  6
CONTINUOUS
 10
54.7231724411
 20
10.5541311148
 11
54.7489988148
 21
10.5739120562
  0
LINE
  5
766
100
AcDbEntity
  8
RACCORDO
100
AcDbLine
 62
7
  6
CONTINUOUS
 10
54.6936211901
 20
10.5323845745
 11
54.7231724411
 21
10.5541311148
  0
LINE
  5
767
100
AcDbEntity
  8
RACCORDO
100
AcDbLine
 62
7
  6
CONTINUOUS
 10
54.6596155146
 20
10.5076674722
 11
54.6936211901
 21
10.5323845745
  0
LINE
  5
768
100
AcDbEntity
  8
0
100
AcDbLine
 62
7
  6
CONTINUOUS
 10
3.0966129232
 20
-23.3528438116
 11
3.0879270708
 21
-23.3590891968
  0
LINE
  5
769
100
AcDbEntity
  8
0
100
AcDbLine
 62
7
  6
CONTINUOUS
 10
-2.3169145435
 20
-13.761354655
 11
-2.4069299053
 21
-13.8208506539
  0
LINE
  5
76A
100
AcDbEntity
  8
0
100
AcDbLine
 62
7
  6
CONTINUOUS
 10
-2.3180343352
 20
-13.8585516102
 11
-2.3290379583
 21
-13.8658244879
  0
LINE
  5
76B
100
AcDbEntity
  8
RACCORDO
100
AcDbLine
 62
7
  6
CONTINUOUS
 10
-32.781741743
 20
1.2123582822
 11
-32.7449021518
 21
1.2303207343
  0
LINE
  5
76C
100
AcDbEntity
  8
RACCORDO
100
AcDbLine
 62
7
  6
CONTINUOUS
 10
-32.8178120708
 20
1.1952722406
 11
-32.781741743
 21
1.2123582822
  0
LINE
  5
76D
100
AcDbEntity
  8
RACCORDO
100
AcDbLine
 62
7
  6
CONTINUOUS
 10
-32.8528532215
 20
1.1791857273
 11
-32.8178120708
 21
1.1952722406
  0
LINE
  5
76E
100
AcDbEntity
  8
RACCORDO
100
AcDbLine
 62
7
  6
CONTINUOUS
 10
-32.6307919187
 20
1.8337352249
 11
-32.5961814195
 21
1.849256007
  0
LINE
  5
76F
100
AcDbEntity
  8
RACCORDO
100
AcDbLine
 62
7
  6
CONTINUOUS
 10
-32.8866126971
 20
1.1642146578
 11
-32.8528532215
 21
1.1791857273
  0
LINE
  5
770
100
AcDbEntity
  8
0
100
AcDbLine
 62
7
  6
CONTINUOUS
 10
-29.1829883936
 20
10.9789958917
 11
-29.2175756357
 21
10.9643816665
  0
LINE
  5
771
100
AcDbEntity
  8
0
100
AcDbLine
 62
7
  6
CONTINUOUS
 10
-29.2327490451
 20
10.9569484427
 11
-29.2124344909
 21
10.9654090711
  0
LINE
  5
772
100
AcDbEntity
  8
0
100
AcDbLine
 62
7
  6
CONTINUOUS
 10
-28.9676870045
 20
10.9393075827
 11
-28.9421045711
 21
10.9497767923
  0
LINE
  5
773
100
AcDbEntity
  8
RACCORDO
100
AcDbLine
 62
7
  6
CONTINUOUS
 10
-32.6673029678
 20
37.5032549557
 11
-32.6307898732
 21
37.5137403578
  0
LINE
  5
774
100
AcDbEntity
  8
RACCORDO
100
AcDbLine
 62
7
  6
CONTINUOUS
 10
-32.8636145509
 20
38.2198735224
 11
-32.8168305265
 21
38.233243488
  0
LINE
  5
775
100
AcDbEntity
  8
RACCORDO
100
AcDbLine
 62
7
  6
CONTINUOUS
 10
-49.6396274089
 20
67.6363426006
 11
-49.6661192211
 21
67.6289854644
  0
LINE
  5
776
100
AcDbEntity
  8
RACCORDO
100
AcDbLine
 62
7
  6
CONTINUOUS
 10
-47.1476755177
 20
68.7567371863
 11
-47.1245577378
 21
68.763122265
  0
LINE
  5
777
100
AcDbEntity
  8
RACCORDO
100
AcDbLine
 62
7
  6
CONTINUOUS
 10
-49.5620605395
 20
67.9749844064
 11
-49.5987118887
 21
67.9652995068
  0
LINE
  5
778
100
AcDbEntity
  8
RACCORDO
100
AcDbLine
 62
7
  6
CONTINUOUS
 10
54.1924884703
 20
-61.3817508757
 11
54.1116718194
 21
-61.4908410152
  0
LINE
  5
779
100
AcDbEntity
  8
RACCORDO
100
AcDbLine
 62
7
  6
CONTINUOUS
 10
51.5918285949
 20
-63.3951061879
 11
51.6039011682
 21
-63.3795421335
  0
LINE
  5
77A
100
AcDbEntity
  8
RACCORDO
100
AcDbLine
 62
7
  6
CONTINUOUS
 10
54.0056805005
 20
-61.7407197443
 11
54.083541818
 21
-61.6420636594
  0
LINE
  5
77B
100
AcDbEntity
  8
RACCORDO
100
AcDbLine
 62
7
  6
CONTINUOUS
 10
54.1116718194
 20
-61.4908410152
 11
54.0272306055
 21
-61.5943483221
  0
LINE
  5
77C
100
AcDbEntity
  8
RACCORDO
100
AcDbLine
 62
7
  6
CONTINUOUS
 10
30.8230582182
 20
-35.4336736287
 11
30.8487599574
 21
-35.411587658
  0
LINE
  5
77D
100
AcDbEntity
  8
RACCORDO
100
AcDbLine
 62
7
  6
CONTINUOUS
 10
54.620441252
 20
10.4799582678
 11
54.6596155146
 21
10.5076674722
  0
LINE
  5
77E
100
AcDbEntity
  8
RACCORDO
100
AcDbLine
 62
7
  6
CONTINUOUS
 10
51.4137936953
 20
9.8047230113
 11
51.432590943
 21
9.8176858362
  0
LINE
  5
77F
100
AcDbEntity
  8
RACCORDO
100
AcDbLine
 62
7
  6
CONTINUOUS
 10
54.5759085364
 20
10.4495308653
 11
54.620441252
 21
10.4799582678
  0
LINE
  5
780
100
AcDbEntity
  8
RACCORDO
100
AcDbLine
 62
7
  6
CONTINUOUS
 10
54.5260565973
 20
10.4158429715
 11
54.5759085364
 21
10.4495308653
  0
LINE
  5
781
100
AcDbEntity
  8
RACCORDO
100
AcDbLine
 62
7
  6
CONTINUOUS
 10
54.4707143647
 20
10.3788042676
 11
54.5260565973
 21
10.4158429715
  0
LINE
  5
782
100
AcDbEntity
  8
0
100
AcDbLine
 62
7
  6
CONTINUOUS
 10
3.0879270708
 20
-23.3590891968
 11
3.0792607104
 21
-23.3647756541
  0
LINE
  5
783
100
AcDbEntity
  8
RACCORDO
100
AcDbLine
 62
7
  6
CONTINUOUS
 10
54.4093855427
 20
10.3387997212
 11
54.4707143647
 21
10.3788042676
  0
LINE
  5
784
100
AcDbEntity
  8
0
100
AcDbLine
 62
7
  6
CONTINUOUS
 10
2.8592914241
 20
-22.9514752874
 11
2.8522010229
 21
-22.9560471526
  0
LINE
  5
785
100
AcDbEntity
  8
0
100
AcDbLine
 62
7
  6
CONTINUOUS
 10
2.7458111752
 20
-23.0174677848
 11
2.7526099831
 21
-23.0131021558
  0
LINE
  5
786
100
AcDbEntity
  8
RACCORDO
100
AcDbLine
 62
7
  6
CONTINUOUS
 10
54.2855109706
 20
10.260387937
 11
54.4093855427
 21
10.3387997212
  0
LINE
  5
787
100
AcDbEntity
  8
RACCORDO
100
AcDbLine
 62
7
  6
CONTINUOUS
 10
54.2270930807
 20
10.2238217355
 11
54.2855109706
 21
10.260387937
  0
LINE
  5
788
100
AcDbEntity
  8
RACCORDO
100
AcDbLine
 62
7
  6
CONTINUOUS
 10
54.1040739059
 20
10.1478945494
 11
54.2270930807
 21
10.2238217355
  0
LINE
  5
789
100
AcDbEntity
  8
0
100
AcDbLine
 62
7
  6
CONTINUOUS
 10
-2.3169145435
 20
-13.3387241894
 11
-2.7672069901
 21
-13.6128311805
  0
LINE
  5
78A
100
AcDbEntity
  8
RACCORDO
100
AcDbLine
 62
7
  6
CONTINUOUS
 10
53.9732913236
 20
10.068343717
 11
54.1040739059
 21
10.1478945494
  0
LINE
  5
78B
100
AcDbEntity
  8
0
100
AcDbLine
 62
7
  6
CONTINUOUS
 10
-3.6774388822
 20
-19.7824966599
 11
-3.7838658367
 21
-19.8439462496
  0
LINE
  5
78C
100
AcDbEntity
  8
0
100
AcDbLine
 62
7
  6
CONTINUOUS
 10
-3.8235137582
 20
-20.349856437
 11
-3.9299881733
 21
-20.4113334299
  0
LINE
  5
78D
100
AcDbEntity
  8
0
100
AcDbLine
 62
7
  6
CONTINUOUS
 10
-4.5995655511
 20
-12.0209350095
 11
-5.08227791
 21
-12.276138246
  0
LINE
  5
78E
100
AcDbEntity
  8
RACCORDO
100
AcDbLine
 62
7
  6
CONTINUOUS
 10
-32.9188472353
 20
1.1504669098
 11
-32.8866126971
 21
1.1642146578
  0
LINE
  5
78F
100
AcDbEntity
  8
RACCORDO
100
AcDbLine
 62
7
  6
CONTINUOUS
 10
-32.9493245618
 20
1.1380415462
 11
-32.9188472353
 21
1.1504669098
  0
LINE
  5
790
100
AcDbEntity
  8
RACCORDO
100
AcDbLine
 62
7
  6
CONTINUOUS
 10
-32.9778250648
 20
1.127028101
 11
-32.9493245618
 21
1.1380415462
  0
LINE
  5
791
100
AcDbEntity
  8
0
100
AcDbLine
 62
7
  6
CONTINUOUS
 10
-29.1475230823
 20
10.990937596
 11
-29.1829883936
 21
10.9789958917
  0
LINE
  5
792
100
AcDbEntity
  8
RACCORDO
100
AcDbLine
 62
7
  6
CONTINUOUS
 10
51.9541899907
 20
-63.4838820149
 11
51.9734982103
 21
-63.4608151655
  0
LINE
  5
793
100
AcDbEntity
  8
RACCORDO
100
AcDbLine
 62
7
  6
CONTINUOUS
 10
53.9249096148
 20
-61.834782088
 11
54.0056805005
 21
-61.7407197443
  0
LINE
  5
794
100
AcDbEntity
  8
RACCORDO
100
AcDbLine
 62
7
  6
CONTINUOUS
 10
54.0272306055
 20
-61.5943483221
 11
53.9389365945
 21
-61.6925828482
  0
LINE
  5
795
100
AcDbEntity
  8
RACCORDO
100
AcDbLine
 62
7
  6
CONTINUOUS
 10
31.273314959
 20
-36.0172853843
 11
31.2398958271
 21
-36.0449018396
  0
LINE
  5
796
100
AcDbEntity
  8
RACCORDO
100
AcDbLine
 62
7
  6
CONTINUOUS
 10
30.8487599574
 20
-35.411587658
 11
30.8748590107
 21
-35.3915117677
  0
LINE
  5
797
100
AcDbEntity
  8
0
100
AcDbLine
 62
7
  6
CONTINUOUS
 10
3.0792607104
 20
-23.3647756541
 11
3.0730738245
 21
-23.368523229
  0
LINE
  5
798
100
AcDbEntity
  8
RACCORDO
100
AcDbLine
 62
7
  6
CONTINUOUS
 10
53.8350620486
 20
9.9854301044
 11
53.9732913236
 21
10.068343717
  0
LINE
  5
799
100
AcDbEntity
  8
RACCORDO
100
AcDbLine
 62
7
  6
CONTINUOUS
 10
53.8243310092
 20
9.9790488983
 11
53.8350620486
 21
9.9854301044
  0
LINE
  5
79A
100
AcDbEntity
  8
0
100
AcDbLine
 62
7
  6
CONTINUOUS
 10
-1.6063948404
 20
-20.2602988313
 11
-1.7127732299
 21
-20.3217203802
  0
LINE
  5
79B
100
AcDbEntity
  8
0
100
AcDbLine
 62
7
  6
CONTINUOUS
 10
-2.6130728138
 20
-21.0487498679
 11
-2.7195472289
 21
-21.1102268608
  0
LINE
  5
79C
100
AcDbEntity
  8
RACCORDO
100
AcDbLine
 62
7
  6
CONTINUOUS
 10
51.432590943
 20
9.8176858362
 11
53.1818934764
 21
10.8277014739
  0
LINE
  5
79D
100
AcDbEntity
  8
0
100
AcDbLine
 62
7
  6
CONTINUOUS
 10
-1.9844456929
 20
-21.411711289
 11
-2.0909201081
 21
-21.4731882818
  0
LINE
  5
79E
100
AcDbEntity
  8
0
100
AcDbLine
 62
7
  6
CONTINUOUS
 10
-1.0579880312
 20
-21.0154194312
 11
-1.1643956199
 21
-21.0768578393
  0
LINE
  5
79F
100
AcDbEntity
  8
0
100
AcDbLine
 62
7
  6
CONTINUOUS
 10
-0.5719040983
 20
-20.8633455918
 11
-0.6782828611
 21
-20.9247673562
  0
LINE
  5
7A0
100
AcDbEntity
  8
0
100
AcDbLine
 62
7
  6
CONTINUOUS
 10
-1.0360357918
 20
-21.9834246752
 11
-1.121628739
 21
-22.0328449703
  0
LINE
  5
7A1
100
AcDbEntity
  8
RACCORDO
100
AcDbLine
 62
7
  6
CONTINUOUS
 10
52.0429266653
 20
8.5393050983
 11
53.8880311924
 21
9.604635074
  0
LINE
  5
7A2
100
AcDbEntity
  8
0
100
AcDbLine
 62
7
  6
CONTINUOUS
 10
0.9323920534
 20
-21.5736113262
 11
0.8260234877
 21
-21.6350272029
  0
LINE
  5
7A3
100
AcDbEntity
  8
0
100
AcDbLine
 62
7
  6
CONTINUOUS
 10
-0.3809552016
 20
-22.3375466022
 11
-0.4874296167
 21
-22.3990235951
  0
LINE
  5
7A4
100
AcDbEntity
  8
0
100
AcDbLine
 62
7
  6
CONTINUOUS
 10
0.236684187
 20
-22.6941638444
 11
0.1302097719
 21
-22.7556408372
  0
LINE
  5
7A5
100
AcDbEntity
  8
0
100
AcDbLine
 62
7
  6
CONTINUOUS
 10
0.7254040467
 20
-22.5593384159
 11
0.6189603746
 21
-22.6207976581
  0
LINE
  5
7A6
100
AcDbEntity
  8
0
100
AcDbLine
 62
7
  6
CONTINUOUS
 10
1.1801391478
 20
-22.4981613435
 11
1.0737184263
 21
-22.5596073344
  0
LINE
  5
7A7
100
AcDbEntity
  8
0
100
AcDbLine
 62
7
  6
CONTINUOUS
 10
2.3431494117
 20
-22.1673260408
 11
2.2367947635
 21
-22.2287338817
  0
LINE
  5
7A8
100
AcDbEntity
  8
0
100
AcDbLine
 62
7
  6
CONTINUOUS
 10
1.2881669993
 20
-22.8842706917
 11
1.1817233273
 21
-22.9457299339
  0
LINE
  5
7A9
100
AcDbEntity
  8
0
100
AcDbLine
 62
7
  6
CONTINUOUS
 10
2.6660141195
 20
-22.3412799201
 11
2.5596602457
 21
-22.4026873139
  0
LINE
  5
7AA
100
AcDbEntity
  8
0
100
AcDbLine
 62
7
  6
CONTINUOUS
 10
1.4292805847
 20
-23.3827540576
 11
1.3228061695
 21
-23.4442310505
  0
LINE
  5
7AB
100
AcDbEntity
  8
0
100
AcDbLine
 62
7
  6
CONTINUOUS
 10
2.9179839474
 20
-22.7513091956
 11
2.8116133837
 21
-22.812726226
  0
LINE
  5
7AC
100
AcDbEntity
  8
0
100
AcDbLine
 62
7
  6
CONTINUOUS
 10
2.4241466253
 20
-23.1382707615
 11
2.3177313261
 21
-23.1997136216
  0
LINE
  5
7AD
100
AcDbEntity
  8
0
100
AcDbLine
 62
7
  6
CONTINUOUS
 10
2.7458038475
 20
-23.017456346
 11
2.852190178
 21
-22.9560302121
  0
LINE
  5
7AE
100
AcDbEntity
  8
0
100
AcDbLine
 62
7
  6
CONTINUOUS
 10
2.6457154362
 20
-23.266201816
 11
2.539300137
 21
-23.3276446761
  0
LINE
  5
7AF
100
AcDbEntity
  8
0
100
AcDbLine
 62
7
  6
CONTINUOUS
 10
2.0780884153
 20
-23.7573678315
 11
1.9716140001
 21
-23.8188448243
  0
LINE
  5
7B0
100
AcDbEntity
  8
0
100
AcDbLine
 62
7
  6
CONTINUOUS
 10
3.0620107401
 20
-23.3355821101
 11
2.9556071418
 21
-23.3970182142
  0
LINE
  5
7B1
100
AcDbEntity
  8
0
100
AcDbLine
 62
7
  6
CONTINUOUS
 10
2.8905128092
 20
-23.5923077306
 11
2.7840846187
 21
-23.6537580339
  0
LINE
  5
7B2
100
AcDbEntity
  8
0
100
AcDbLine
 62
7
  6
CONTINUOUS
 10
3.1224828822
 20
-24.3603881073
 11
3.016008467
 21
-24.4218651002
  0
LINE
  5
7B3
100
AcDbEntity
  8
0
100
AcDbLine
 62
7
  6
CONTINUOUS
 10
3.0730738245
 20
-23.368523229
 11
3.0706229326
 21
-23.3699151149
  0
LINE
  5
7B4
100
AcDbEntity
  8
RACCORDO
100
AcDbLine
 62
7
  6
CONTINUOUS
 10
53.4742598365
 20
10.5853629373
 11
53.5564415944
 21
10.6311750704
  0
LINE
  5
7B5
100
AcDbEntity
  8
RACCORDO
100
AcDbLine
 62
7
  6
CONTINUOUS
 10
53.5564415944
 20
10.6311750704
 11
53.694087883
 21
10.7071193267
  0
LINE
  5
7B6
100
AcDbEntity
  8
RACCORDO
100
AcDbLine
 62
7
  6
CONTINUOUS
 10
53.694087883
 20
10.7071193267
 11
53.8248726366
 21
10.7781522349
  0
LINE
  5
7B7
100
AcDbEntity
  8
RACCORDO
100
AcDbLine
 62
7
  6
CONTINUOUS
 10
53.8248726366
 20
10.7781522349
 11
53.8876087445
 21
10.8118257066
  0
LINE
  5
7B8
100
AcDbEntity
  8
RACCORDO
100
AcDbLine
 62
7
  6
CONTINUOUS
 10
53.8876087445
 20
10.8118257066
 11
53.9484807215
 21
10.8441413652
  0
LINE
  5
7B9
100
AcDbEntity
  8
RACCORDO
100
AcDbLine
 62
7
  6
CONTINUOUS
 10
53.9484807215
 20
10.8441413652
 11
54.0783144707
 21
10.9122316088
  0
LINE
  5
7BA
100
AcDbEntity
  8
RACCORDO
100
AcDbLine
 62
7
  6
CONTINUOUS
 10
54.0783144707
 20
10.9122316088
 11
54.1436180922
 21
10.9453515845
  0
LINE
  5
7BB
100
AcDbEntity
  8
RACCORDO
100
AcDbLine
 62
7
  6
CONTINUOUS
 10
54.1436180922
 20
10.9453515845
 11
54.2033599811
 21
10.9747698559
  0
LINE
  5
7BC
100
AcDbEntity
  8
RACCORDO
100
AcDbLine
 62
7
  6
CONTINUOUS
 10
-32.6673049786
 20
1.8199728877
 11
-32.6307919187
 21
1.8337352249
  0
LINE
  5
7BD
100
AcDbEntity
  8
RACCORDO
100
AcDbLine
 62
7
  6
CONTINUOUS
 10
-33.0041433765
 20
1.1175059345
 11
-32.9778250648
 21
1.127028101
  0
LINE
  5
7BE
100
AcDbEntity
  8
RACCORDO
100
AcDbLine
 62
7
  6
CONTINUOUS
 10
-33.0280898537
 20
1.1095436609
 11
-33.0041433765
 21
1.1175059345
  0
LINE
  5
7BF
100
AcDbEntity
  8
0
100
AcDbLine
 62
7
  6
CONTINUOUS
 10
-28.9421045711
 20
10.9497767923
 11
-28.9168627645
 21
10.957902335
  0
LINE
  5
7C0
100
AcDbEntity
  8
RACCORDO
100
AcDbLine
 62
7
  6
CONTINUOUS
 10
53.8880311924
 20
-61.8742630115
 11
53.9249096148
 21
-61.834782088
  0
LINE
  5
7C1
100
AcDbEntity
  8
RACCORDO
100
AcDbLine
 62
7
  6
CONTINUOUS
 10
51.578285689
 20
-63.4087625689
 11
51.5918285949
 21
-63.3951061879
  0
LINE
  5
7C2
100
AcDbEntity
  8
RACCORDO
100
AcDbLine
 62
7
  6
CONTINUOUS
 10
53.9389365945
 20
-61.6925828482
 11
53.8880311924
 21
-61.7438633092
  0
LINE
  5
7C3
100
AcDbEntity
  8
0
100
AcDbLine
 62
7
  6
CONTINUOUS
 10
30.9012363743
 20
-35.3735740486
 11
31.2871754575
 21
-35.1014356302
  0
LINE
  5
7C4
100
AcDbEntity
  8
RACCORDO
100
AcDbLine
 62
7
  6
CONTINUOUS
 10
30.8748590107
 20
-35.3915117677
 11
30.9012092313
 21
-35.3735583766
  0
LINE
  5
7C5
100
AcDbEntity
  8
0
100
AcDbLine
 62
7
  6
CONTINUOUS
 10
2.7421897771
 20
-23.0194304691
 11
2.7458111752
 21
-23.0174677848
  0
LINE
  5
7C6
100
AcDbEntity
  8
0
100
AcDbLine
 62
7
  6
CONTINUOUS
 10
3.0706229326
 20
-23.3699151149
 11
3.0620043815
 21
-23.3744958249
  0
LINE
  5
7C7
100
AcDbEntity
  8
0
100
AcDbLine
 62
7
  6
CONTINUOUS
 10
3.0620043815
 20
-23.3744958249
 11
3.0535053778
 21
-23.3787068357
  0
LINE
  5
7C8
100
AcDbEntity
  8
RACCORDO
100
AcDbLine
 62
7
  6
CONTINUOUS
 10
54.2033599811
 20
10.9747698559
 11
54.2574548759
 21
11.0011087437
  0
LINE
  5
7C9
100
AcDbEntity
  8
RACCORDO
100
AcDbLine
 62
7
  6
CONTINUOUS
 10
54.2574548759
 20
11.0011087437
 11
54.3060665636
 21
11.0244711766
  0
LINE
  5
7CA
100
AcDbEntity
  8
RACCORDO
100
AcDbLine
 62
7
  6
CONTINUOUS
 10
54.3060665636
 20
11.0244711766
 11
54.3496451568
 21
11.0445518747
  0
LINE
  5
7CB
100
AcDbEntity
  8
RACCORDO
100
AcDbLine
 62
7
  6
CONTINUOUS
 10
54.3496451568
 20
11.0445518747
 11
54.3880484327
 21
11.0616521319
  0
LINE
  5
7CC
100
AcDbEntity
  8
RACCORDO
100
AcDbLine
 62
7
  6
CONTINUOUS
 10
54.3880484327
 20
11.0616521319
 11
54.421652089
 21
11.0763797241
  0
LINE
  5
7CD
100
AcDbEntity
  8
RACCORDO
100
AcDbLine
 62
7
  6
CONTINUOUS
 10
54.421652089
 20
11.0763797241
 11
54.4516911757
 21
11.0888640449
  0
LINE
  5
7CE
100
AcDbEntity
  8
RACCORDO
100
AcDbLine
 62
7
  6
CONTINUOUS
 10
-32.7054608978
 20
1.808066881
 11
-32.6673049786
 21
1.8199728877
  0
LINE
  5
7CF
100
AcDbEntity
  8
RACCORDO
100
AcDbLine
 62
7
  6
CONTINUOUS
 10
51.9328335151
 20
-63.5042289194
 11
51.9541899907
 21
-63.4838820149
  0
LINE
  5
7D0
100
AcDbEntity
  8
RACCORDO
100
AcDbLine
 62
7
  6
CONTINUOUS
 10
31.2398958271
 20
-36.0449018396
 11
31.2040420951
 21
-36.0684391445
  0
LINE
  5
7D1
100
AcDbEntity
  8
0
100
AcDbLine
 62
7
  6
CONTINUOUS
 10
3.0535053778
 20
-23.3787068357
 11
3.0451463991
 21
-23.3825670674
  0
LINE
  5
7D2
100
AcDbEntity
  8
0
100
AcDbLine
 62
7
  6
CONTINUOUS
 10
3.0451463991
 20
-23.3825670674
 11
3.0369067935
 21
-23.3860577163
  0
LINE
  5
7D3
100
AcDbEntity
  8
0
100
AcDbLine
 62
7
  6
CONTINUOUS
 10
2.7308435418
 20
-23.0242019237
 11
2.7421897771
 21
-23.0194304691
  0
LINE
  5
7D4
100
AcDbEntity
  8
RACCORDO
100
AcDbLine
 62
7
  6
CONTINUOUS
 10
54.4516911757
 20
11.0888640449
 11
54.4786179636
 21
11.0992971302
  0
LINE
  5
7D5
100
AcDbEntity
  8
RACCORDO
100
AcDbLine
 62
7
  6
CONTINUOUS
 10
54.4786179636
 20
11.0992971302
 11
54.502143787
 21
11.1080410973
  0
LINE
  5
7D6
100
AcDbEntity
  8
RACCORDO
100
AcDbLine
 62
7
  6
CONTINUOUS
 10
54.502143787
 20
11.1080410973
 11
54.522359273
 21
11.1153656302
  0
LINE
  5
7D7
100
AcDbEntity
  8
RACCORDO
100
AcDbLine
 62
7
  6
CONTINUOUS
 10
31.2733182998
 20
0.9977309278
 11
31.2500526695
 21
0.9901617694
  0
LINE
  5
7D8
100
AcDbEntity
  8
RACCORDO
100
AcDbLine
 62
7
  6
CONTINUOUS
 10
51.5632584812
 20
-63.4204911302
 11
51.578285689
 21
-63.4087625689
  0
LINE
  5
7D9
100
AcDbEntity
  8
RACCORDO
100
AcDbLine
 62
7
  6
CONTINUOUS
 10
31.2040420951
 20
-36.0684391445
 11
31.165751281
 21
-36.0878988727
  0
LINE
  5
7DA
100
AcDbEntity
  8
RACCORDO
100
AcDbLine
 62
7
  6
CONTINUOUS
 10
31.2810339656
 20
-35.4273158421
 11
31.2581504998
 21
-35.4387297404
  0
LINE
  5
7DB
100
AcDbEntity
  8
0
100
AcDbLine
 62
7
  6
CONTINUOUS
 10
3.0369067935
 20
-23.3860577163
 11
3.0209672544
 21
-23.3924368463
  0
LINE
  5
7DC
100
AcDbEntity
  8
0
100
AcDbLine
 62
7
  6
CONTINUOUS
 10
3.0209672544
 20
-23.3924368463
 11
3.0132672144
 21
-23.3953253986
  0
LINE
  5
7DD
100
AcDbEntity
  8
0
100
AcDbLine
 62
7
  6
CONTINUOUS
 10
3.1159547142
 20
-23.3351673529
 11
3.1166046118
 21
-23.3349297452
  0
LINE
  5
7DE
100
AcDbEntity
  8
RACCORDO
100
AcDbLine
 62
7
  6
CONTINUOUS
 10
31.2500526695
 20
0.9901617694
 11
31.2294990193
 21
0.9839680491
  0
LINE
  5
7DF
100
AcDbEntity
  8
RACCORDO
100
AcDbLine
 62
7
  6
CONTINUOUS
 10
52.0237113534
 20
8.5338171808
 11
52.0429219481
 21
8.5393081233
  0
LINE
  5
7E0
100
AcDbEntity
  8
RACCORDO
100
AcDbLine
 62
7
  6
CONTINUOUS
 10
51.9095180761
 20
-63.5217890673
 11
51.9328335151
 21
-63.5042289194
  0
LINE
  5
7E1
100
AcDbEntity
  8
0
100
AcDbLine
 62
7
  6
CONTINUOUS
 10
3.0132672144
 20
-23.3953253986
 11
3.0055671213
 21
-23.3977815201
  0
LINE
  5
7E2
100
AcDbEntity
  8
0
100
AcDbLine
 62
7
  6
CONTINUOUS
 10
3.1088733218
 20
-23.3373125881
 11
3.1159547142
 21
-23.3351673529
  0
LINE
  5
7E3
100
AcDbEntity
  8
0
100
AcDbLine
 62
7
  6
CONTINUOUS
 10
3.0055671213
 20
-23.3977815201
 11
2.9979415977
 21
-23.3999635006
  0
LINE
  5
7E4
100
AcDbEntity
  8
RACCORDO
100
AcDbLine
 62
7
  6
CONTINUOUS
 10
52.0237158062
 20
-63.1129547483
 11
52.0429266653
 21
-63.1001304985
  0
LINE
  5
7E5
100
AcDbEntity
  8
RACCORDO
100
AcDbLine
 62
7
  6
CONTINUOUS
 10
31.165751281
 20
-36.0878988727
 11
31.124860332
 21
-36.1033507128
  0
LINE
  5
7E6
100
AcDbEntity
  8
RACCORDO
100
AcDbLine
 62
7
  6
CONTINUOUS
 10
31.2581504998
 20
-35.4387297404
 11
31.2337604371
 21
-35.4476203683
  0
LINE
  5
7E7
100
AcDbEntity
  8
DRAFT
100
AcDbLine
 62
7
  6
CONTINUOUS
 10
54.0260868108
 20
-27.6599007655
 11
54.4537166173
 21
-27.5070354473
  0
LINE
  5
7E8
100
AcDbEntity
  8
RACCORDO
100
AcDbLine
 62
7
  6
CONTINUOUS
 10
51.5467596598
 20
-63.4303130266
 11
51.5632584812
 21
-63.4204911302
  0
LINE
  5
7E9
100
AcDbEntity
  8
RACCORDO
100
AcDbLine
 62
7
  6
CONTINUOUS
 10
51.8843441222
 20
-63.5365033523
 11
51.9095180761
 21
-63.5217890673
  0
LINE
  5
7EA
100
AcDbEntity
  8
RACCORDO
100
AcDbLine
 62
7
  6
CONTINUOUS
 10
52.0032125098
 20
-63.1247712032
 11
52.0237158062
 21
-63.1129547483
  0
LINE
  5
7EB
100
AcDbEntity
  8
RACCORDO
100
AcDbLine
 62
7
  6
CONTINUOUS
 10
51.9815627545
 20
-63.1354957328
 11
52.0032125098
 21
-63.1247712032
  0
LINE
  5
7EC
100
AcDbEntity
  8
RACCORDO
100
AcDbLine
 62
7
  6
CONTINUOUS
 10
51.8756966722
 20
-63.540702776
 11
51.8843441222
 21
-63.5365033523
  0
LINE
  5
7ED
100
AcDbEntity
  8
RACCORDO
100
AcDbLine
 62
7
  6
CONTINUOUS
 10
52.0429266653
 20
-63.1001304985
 11
53.8880311924
 21
-62.246987172
  0
LINE
  5
7EE
100
AcDbEntity
  8
RACCORDO
100
AcDbLine
 62
7
  6
CONTINUOUS
 10
51.8756388905
 20
-63.540729497
 11
53.6543667151
 21
-62.718277571
  0
LINE
  5
7EF
100
AcDbEntity
  8
RACCORDO
100
AcDbLine
 62
7
  6
CONTINUOUS
 10
51.8633208187
 20
-63.5462043705
 11
51.8756642766
 21
-63.5407138743
  0
LINE
  5
7F0
100
AcDbEntity
  8
RACCORDO
100
AcDbLine
 62
7
  6
CONTINUOUS
 10
51.5289644339
 20
-63.4381464781
 11
51.5467596598
 21
-63.4303130266
  0
LINE
  5
7F1
100
AcDbEntity
  8
RACCORDO
100
AcDbLine
 62
7
  6
CONTINUOUS
 10
51.9589206813
 20
-63.1450519812
 11
51.9815627545
 21
-63.1354957328
  0
LINE
  5
7F2
100
AcDbEntity
  8
RACCORDO
100
AcDbLine
 62
7
  6
CONTINUOUS
 10
51.8268745311
 20
-63.560004366
 11
51.8633208187
 21
-63.5462043705
  0
LINE
  5
7F3
100
AcDbEntity
  8
RACCORDO
100
AcDbLine
 62
7
  6
CONTINUOUS
 10
51.9354474963
 20
-63.1533719101
 11
51.9589206813
 21
-63.1450519812
  0
LINE
  5
7F4
100
AcDbEntity
  8
RACCORDO
100
AcDbLine
 62
7
  6
CONTINUOUS
 10
51.509863107
 20
-63.4439731481
 11
51.5289644339
 21
-63.4381464781
  0
LINE
  5
7F5
100
AcDbEntity
  8
RACCORDO
100
AcDbLine
 62
7
  6
CONTINUOUS
 10
51.9113103229
 20
-63.1603962837
 11
51.9354474963
 21
-63.1533719101
  0
LINE
  5
7F6
100
AcDbEntity
  8
RACCORDO
100
AcDbLine
 62
7
  6
CONTINUOUS
 10
51.7887510388
 20
-63.5709070203
 11
51.8268745311
 21
-63.560004366
  0
ELLIPSE
  5
7F7
100
AcDbEntity
  8
RACCORDO
100
AcDbEllipse
 62
7
  6
CONTINUOUS
 10
53.179954016
 20
-61.8359128608
 30
0.0
 11
-0.5013954353
 21
0.868386877
 31
0.0
 40
0.5757524875
 41
-3.1936911674
 42
-2.3576120761
  0
ELLIPSE
  5
7F8
100
AcDbEntity
  8
RACCORDO
100
AcDbEllipse
 62
7
  6
CONTINUOUS
 10
53.179954016
 20
10.0112305375
 30
0.0
 11
-0.5000243598
 21
0.8660113392
 31
0.0
 40
0.5789151826
 41
-2.3548735497
 42
-0.7868162787
  0
ELLIPSE
  5
7F9
100
AcDbEntity
  8
0
100
AcDbEllipse
 62
7
  6
CONTINUOUS
 10
121.3807067707
 20
55.3859159521
 30
0.0
 11
111.5409348807
 21
128.3466174189
 31
0.0
 40
0.4029729773
 41
-3.7734299492
 42
-3.7672052666
  0
ELLIPSE
  5
7FA
100
AcDbEntity
  8
0
100
AcDbEllipse
 62
7
  6
CONTINUOUS
 10
121.4660717871
 20
55.3366272615
 30
0.0
 11
112.236268736
 21
127.9318388222
 31
0.0
 40
0.3975597956
 41
-3.7637364601
 42
-3.7603859388
  0
ELLIPSE
  5
7FB
100
AcDbEntity
  8
0
100
AcDbEllipse
 62
7
  6
CONTINUOUS
 10
116.5206583676
 20
58.1920469894
 30
0.0
 11
27.6951435486
 21
170.7397539322
 31
0.0
 40
0.7069483398
 41
-4.1183397783
 42
-4.1015657091
  0
ELLIPSE
  5
7FC
100
AcDbEntity
  8
0
100
AcDbEllipse
 62
7
  6
CONTINUOUS
 10
116.9582326769
 20
57.9393970673
 30
0.0
 11
91.793176838
 21
140.2511436908
 31
0.0
 40
0.5363054271
 41
-3.8203221232
 42
-3.8093664661
  0
ELLIPSE
  5
7FD
100
AcDbEntity
  8
0
100
AcDbEllipse
 62
7
  6
CONTINUOUS
 10
120.8280995066
 20
55.7049844606
 30
0.0
 11
119.630873242
 21
123.5739552196
 31
0.0
 40
0.3382731367
 41
-3.7657029519
 42
-3.7547929514
  0
ELLIPSE
  5
7FE
100
AcDbEntity
  8
0
100
AcDbEllipse
 62
7
  6
CONTINUOUS
 10
116.8879989944
 20
57.9799491153
 30
0.0
 11
70.634700218
 21
152.2499801326
 31
0.0
 40
0.6282888553
 41
-3.9123018102
 42
-3.8955277411
  0
ELLIPSE
  5
7FF
100
AcDbEntity
  8
0
100
AcDbEllipse
 62
7
  6
CONTINUOUS
 10
113.3246145153
 20
60.0374026538
 30
0.0
 11
11.1145125674
 21
175.7752122584
 31
0.0
 40
0.7158559188
 41
-4.1973507117
 42
-4.188040463
  0
ELLIPSE
  5
800
100
AcDbEntity
  8
0
100
AcDbEllipse
 62
7
  6
CONTINUOUS
 10
117.702166135
 20
57.5098592122
 30
0.0
 11
114.8996317544
 21
126.3505868295
 31
0.0
 40
0.3765254089
 41
-3.7743605251
 42
-3.7575864559
  0
ELLIPSE
  5
801
100
AcDbEntity
  8
0
100
AcDbEllipse
 62
7
  6
CONTINUOUS
 10
111.5114433657
 20
61.0843049512
 30
0.0
 11
34.8790515577
 21
168.2218372011
 31
0.0
 40
0.7002280922
 41
-4.083553027
 42
-4.0720093448
  0
ELLIPSE
  5
802
100
AcDbEntity
  8
DRAFT
100
AcDbEllipse
 62
7
  6
CONTINUOUS
 10
49.679597996
 20
-21.4095665034
 30
0.0
 11
5.1478346794
 21
0.9575482268
 31
0.0
 40
0.6665647798
 41
-0.7006982462
 42
-0.2750682551
  0
ELLIPSE
  5
803
100
AcDbEntity
  8
0
100
AcDbEllipse
 62
7
  6
CONTINUOUS
 10
-29.9387014012
 20
2.7297217589
 30
0.0
 11
-0.4000194878
 21
0.6928090714
 31
0.0
 40
0.5789151826
 41
0.7867191038
 42
2.3547763749
  0
ELLIPSE
  5
804
100
AcDbEntity
  8
RACCORDO
100
AcDbEllipse
 62
7
  6
CONTINUOUS
 10
-47.5808215127
 20
68.1892394987
 30
0.0
 11
-0.5013954353
 21
0.868386877
 31
0.0
 40
0.5757524875
 41
-0.7840766935
 42
0.0520985859
  0
ELLIPSE
  5
805
100
AcDbEntity
  8
0
100
AcDbEllipse
 62
7
  6
CONTINUOUS
 10
-2.3244516613
 20
-13.5031860167
 30
0.0
 11
-0.0054673646
 21
0.3559778749
 31
0.0
 40
0.0145741356
 41
-3.1313276755
 42
-2.3823999735
  0
ELLIPSE
  5
806
100
AcDbEntity
  8
0
100
AcDbEllipse
 62
7
  6
CONTINUOUS
 10
-28.3322616855
 20
7.0339299065
 30
0.0
 11
0.2467654307
 21
0.4348749944
 31
0.0
 40
0.5722717666
 41
-2.3255274167
 42
-0.7896376749
  0
ELLIPSE
  5
807
100
AcDbEntity
  8
0
100
AcDbEllipse
 62
7
  6
CONTINUOUS
 10
116.9872597724
 20
57.9226371861
 30
0.0
 11
111.878972645
 21
127.9702912935
 31
0.0
 40
0.3995644544
 41
-3.7764422127
 42
-3.7658593517
  0
ELLIPSE
  5
808
100
AcDbEntity
  8
0
100
AcDbEllipse
 62
7
  6
CONTINUOUS
 10
110.7267581061
 20
61.5373723857
 30
0.0
 11
25.1523857375
 21
171.4190137311
 31
0.0
 40
0.7088651675
 41
-4.1294456824
 42
-4.1136276763
  0
ELLIPSE
  5
809
100
AcDbEntity
  8
0
100
AcDbEllipse
 62
7
  6
CONTINUOUS
 10
116.7835548205
 20
58.0402538723
 30
0.0
 11
93.9929009386
 21
138.7583599347
 31
0.0
 40
0.5232362147
 41
-3.8175129253
 42
-3.8016949217
  0
ELLIPSE
  5
80A
100
AcDbEntity
  8
0
100
AcDbEllipse
 62
7
  6
CONTINUOUS
 10
112.9346008162
 20
60.2625916757
 30
0.0
 11
10.3174595334
 21
175.8321184433
 31
0.0
 40
0.7160762854
 41
-4.1951584555
 42
-4.1843514627
  0
ELLIPSE
  5
80B
100
AcDbEntity
  8
0
100
AcDbEllipse
 62
7
  6
CONTINUOUS
 10
116.7691111319
 20
58.0485934771
 30
0.0
 11
74.7266798953
 21
149.8826902858
 31
0.0
 40
0.6139811386
 41
-3.8877681049
 42
-3.8768482551
  0
ELLIPSE
  5
80C
100
AcDbEntity
  8
0
100
AcDbEllipse
 62
7
  6
CONTINUOUS
 10
120.411177362
 20
55.9457100816
 30
0.0
 11
119.0820080186
 21
123.7206245819
 31
0.0
 40
0.3418816387
 41
-3.7706765582
 42
-3.7623289378
  0
ELLIPSE
  5
80D
100
AcDbEntity
  8
0
100
AcDbEllipse
 62
7
  6
CONTINUOUS
 10
-28.3322616855
 20
10.1225403628
 30
0.0
 11
0.2467654307
 21
0.4348749944
 31
0.0
 40
0.5722717666
 41
5.4935476323
 42
7.029437374
  0
ELLIPSE
  5
80E
100
AcDbEntity
  8
0
100
AcDbEllipse
 62
7
  6
CONTINUOUS
 10
121.3176710871
 20
55.4223119658
 30
0.0
 11
114.1738075272
 21
126.6060927015
 31
0.0
 40
0.3814884295
 41
-3.7739014683
 42
-3.7580834622
  0
ELLIPSE
  5
80F
100
AcDbEntity
  8
0
100
AcDbEllipse
 62
7
  6
CONTINUOUS
 10
116.4574810714
 20
58.2285247684
 30
0.0
 11
36.2622945329
 21
167.5495560783
 31
0.0
 40
0.6986691259
 41
-4.0631746043
 42
-4.0598210564
  0
ELLIPSE
  5
810
100
AcDbEntity
  8
0
100
AcDbEllipse
 62
7
  6
CONTINUOUS
 10
116.5774758782
 20
58.1592412708
 30
0.0
 11
39.1098980172
 21
166.4730536049
 31
0.0
 40
0.6952787603
 41
-4.0581356351
 42
-4.0519053363
  0
ELLIPSE
  5
811
100
AcDbEntity
  8
0
100
AcDbEllipse
 62
7
  6
CONTINUOUS
 10
116.5774758782
 20
58.1592412708
 30
0.0
 11
39.144967187
 21
166.622327116
 31
0.0
 40
0.6952787603
 41
-4.0582033802
 42
-4.0519786976
  0
ELLIPSE
  5
812
100
AcDbEntity
  8
0
100
AcDbEllipse
 62
7
  6
CONTINUOUS
 10
121.3176710871
 20
55.4223119658
 30
0.0
 11
114.2761852079
 21
126.7196181975
 31
0.0
 40
0.3814884295
 41
-3.7749362596
 42
-3.7581621904
  0
ELLIPSE
  5
813
100
AcDbEntity
  8
0
100
AcDbEllipse
 62
7
  6
CONTINUOUS
 10
116.4574810714
 20
58.2285247684
 30
0.0
 11
36.2948103059
 21
167.6997948705
 31
0.0
 40
0.6986691259
 41
-4.0632503059
 42
-4.0598997846
  0
ELLIPSE
  5
814
100
AcDbEntity
  8
0
100
AcDbEllipse
 62
7
  6
CONTINUOUS
 10
116.7835548205
 20
58.0402538723
 30
0.0
 11
94.077182749
 21
138.8827821588
 31
0.0
 40
0.5232362147
 41
-3.8185477191
 42
-3.8017736499
  0
ELLIPSE
  5
815
100
AcDbEntity
  8
0
100
AcDbEllipse
 62
7
  6
CONTINUOUS
 10
112.9346008162
 20
60.2625916757
 30
0.0
 11
10.3267110211
 21
175.9897840662
 31
0.0
 40
0.7160762854
 41
-4.1952272933
 42
-4.1842716361
  0
ELLIPSE
  5
816
100
AcDbEntity
  8
0
100
AcDbEllipse
 62
7
  6
CONTINUOUS
 10
116.7691111319
 20
58.0485934771
 30
0.0
 11
74.7936860181
 21
150.0170875047
 31
0.0
 40
0.6139811386
 41
-3.8878369839
 42
-3.8769269833
  0
ELLIPSE
  5
817
100
AcDbEntity
  8
0
100
AcDbEllipse
 62
7
  6
CONTINUOUS
 10
120.411177362
 20
55.9457100816
 30
0.0
 11
119.1887867979
 21
123.8315627285
 31
0.0
 40
0.3418816387
 41
-3.7717111746
 42
-3.7624009259
  0
ELLIPSE
  5
818
100
AcDbEntity
  8
0
100
AcDbEllipse
 62
7
  6
CONTINUOUS
 10
116.9872597724
 20
57.9226371861
 30
0.0
 11
111.9792925869
 21
128.0850400428
 31
0.0
 40
0.3995644544
 41
-3.7774770381
 42
-3.7659333559
  0
ELLIPSE
  5
819
100
AcDbEntity
  8
0
100
AcDbEllipse
 62
7
  6
CONTINUOUS
 10
110.7267581061
 20
61.5373723857
 30
0.0
 11
25.1749394473
 21
171.5727221992
 31
0.0
 40
0.7088651675
 41
-4.1304804737
 42
-4.1137064045
  0
ELLIPSE
  5
81A
100
AcDbEntity
  8
DRAFT
100
AcDbEllipse
 62
7
  6
CONTINUOUS
 10
49.679597996
 20
-26.8163456743
 30
0.0
 11
5.1774686765
 21
-0.6785096723
 31
0.0
 40
0.4693271057
 41
-0.5159119978
 42
-0.0902820066
  0
ENDSEC
  0
SECTION
  2
OBJECTS
  0
DICTIONARY
  5
C
100
AcDbDictionary
280
0
281
1
  3
ACAD_GROUP
350
D
  3
ACAD_MLINESTYLE
350
17
  3
ACAD_LAYOUT
350
1A
  3
ACAD_PLOTSETTINGS
350
19
  3
ACAD_PLOTSTYLENAME
350
E
  0
DICTIONARY
  5
D
102
{ACAD_REACTORS
330
C
102
}
100
AcDbDictionary
280
0
281
1
  0
ACDBDICTIONARYWDFLT
  5
E
102
{ACAD_REACTORS
330
C
102
}
100
AcDbDictionary
281
1
  3
Normal
350
F
100
AcDbDictionaryWithDefault
340
F
  0
DICTIONARY
  5
17
102
{ACAD_REACTORS
330
C
102
}
100
AcDbDictionary
280
0
281
1
  3
Standard
350
18
  0
DICTIONARY
  5
19
102
{ACAD_REACTORS
330
C
102
}
100
AcDbDictionary
281
1
  0
DICTIONARY
  5
1A
102
{ACAD_REACTORS
330
C
102
}
100
AcDbDictionary
281
1
  3
Model
350
81B
  3
Layout1
350
81C
  0
ACDBPLACEHOLDER
  5
F
102
{ACAD_REACTORS
330
E
102
}
  0
MLINESTYLE
  5
18
102
{ACAD_REACTORS
330
17
102
}
100
AcDbMlineStyle
  2
STANDARD
 70
0
  3

 62
256
 51
90.0
 52
90.0
 71
2
 49
0.5
 62
256
  6
BYLAYER
 49
-0.5
 62
256
  6
BYLAYER
  0
LAYOUT
  5
81B
102
{ACAD_REACTORS
330
1A
102
}
100
AcDbPlotSettings
  1

  2
none_device
  4
ISO_A4_(297.00_x_210.00_MM)
  6

 40
0.0
 41
0.0
 42
0.0
 43
0.0
 44
297.0
 45
210.0
 46
0.0
 47
0.0
 48
0.0
 49
0.0
140
0.0
141
0.0
142
1.0
143
1.0
 70
1024
 72
1
 73
0
 74
0
  7

 75
0
147
1.0
148
0.0
149
0.0
100
AcDbLayout
  1
Model
 70
0
 71
0
 10
0.0
 20
0.0
 11
297.0
 21
210.0
 12
0.0
 22
0.0
 32
0.0
 14
0.0
 24
0.0
 34
0.0
 15
0.0
 25
0.0
 35
0.0
146
0.0
 13
0.0
 23
0.0
 33
0.0
 16
1.0
 26
0.0
 36
0.0
 17
0.0
 27
1.0
 37
0.0
 76
0
330
212
345
0
346
0
  0
LAYOUT
  5
81C
102
{ACAD_REACTORS
330
1A
102
}
100
AcDbPlotSettings
  1

  2
none_device
  4
ISO_A4_(297.00_x_210.00_MM)
  6

 40
0.0
 41
0.0
 42
0.0
 43
0.0
 44
297.0
 45
210.0
 46
0.0
 47
0.0
 48
0.0
 49
0.0
140
0.0
141
0.0
142
1.0
143
1.0
 70
0
 72
1
 73
0
 74
0
  7

 75
0
147
1.0
148
0.0
149
0.0
100
AcDbLayout
  1
Layout1
 70
0
 71
1
 10
0.0
 20
0.0
 11
297.0
 21
210.0
 12
0.0
 22
0.0
 32
0.0
 14
0.0
 24
0.0
 34
0.0
 15
0.0
 25
0.0
 35
0.0
146
0.0
 13
0.0
 23
0.0
 33
0.0
 16
1.0
 26
0.0
 36
0.0
 17
0.0
 27
1.0
 37
0.0
 76
0
330
213
345
0
346
0
  0
ENDSEC
  0
EOF
