  0
SECTION
  2
HEADER
  9
$ACADVER
  1
AC1024
  9
$DWGCODEPAGE
  3
ANSI_1252
  9
$EXTMAX
 10
297.0
 20
210.0
 30
0.0
  9
$EXTMIN
 10
0.0
 20
0.0
 30
0.0
  9
$LIMMIN
 10
0.0
 20
0.0
  9
$LIMMAX
 10
297.0
 20
210.0
  9
$VIEWCTR
 10
148.5
 20
105.0
  9
$VIEWSIZE
 40
210.0
  9
$CLAYER
  8
0
  9
$LTSCALE
 40
16.335
  9
$CELTYPE
  6
BYLAYER
  9
$DIMSCALE
 40
1.0
  9
$DIMASZ
 40
3.0
  9
$DIMEXO
 40
0.5
  9
$DIMDLI
 40
11.286
  9
$DIMEXE
 40
1.5
  9
$DIMCEN
 40
2.673
  9
$DIMLFAC
 40
1.0
  9
$DIMBLK
  1
_FILLED
  9
$DIMALT
 70
0
  9
$DIMALTF
 40
0.0393700787
  9
$DIMTXT
 40
3.0
  9
$DIMTOL
 70
1
  9
$DIMLIM
 70
0
  9
$DIMTFAC
 40
1.0
  9
$DIMTP
 40
0.01
  9
$DIMTM
 40
0.01
  9
$DIMGAP
 40
0.625
  9
$DIMDSEP
 70
44
  9
$AUNITS
 70
0
  9
$PDMODE
 70
3
  9
$PDSIZE
 40
3.0
  9
$HANDSEED
  5
3F7
  9
$TILEMODE
 70
1
  9
$MEASUREMENT
 70
1
  9
$INSUNITS
 70
4
  0
ENDSEC
  0
SECTION
  2
CLASSES
  0
CLASS
  1
ACDBDICTIONARYWDFLT
  2
AcDbDictionaryWithDefault
  3
AutoCAD 2000
 90
0
 91
1
280
0
281
0
  0
CLASS
  1
ACDBPLACEHOLDER
  2
AcDbPlaceHolder
  3
AutoCAD 2000
 90
0
 91
1
280
0
281
0
  0
CLASS
  1
LAYOUT
  2
AcDbLayout
  3
AutoCAD 2000
 90
0
 91
0
280
0
281
0
  0
ENDSEC
  0
SECTION
  2
TABLES
  0
TABLE
  2
VPORT
  5
8
100
AcDbSymbolTable
 70
2
  0
VPORT
  5
1F4
100
AcDbSymbolTableRecord
100
AcDbViewportTableRecord
  2
*ACTIVE
 70
0
 10
0.0
 20
0.0
 11
1.0
 21
1.0
 12
148.5
 22
105.0
 13
0.0
 23
0.0
 14
1.0
 24
1.0
 15
0.0
 25
0.0
 16
0.0
 26
0.0
 36
1.0
 17
0.0
 27
0.0
 37
0.0
 40
210.0
 41
1.4142857143
 42
50.0
 43
0.0
 44
0.0
 50
0.0
 51
0.0
 71
0
 72
100
 73
1
 74
1
 75
0
 76
0
 77
0
 78
0
  0
ENDTAB
  0
TABLE
  2
LTYPE
  5
5
100
AcDbSymbolTable
 70
6
  0
LTYPE
  5
14
100
AcDbSymbolTableRecord
100
AcDbLinetypeTableRecord
  2
BYBLOCK
 70
0
  3

 72
65
 73
0
 40
0.0
  0
LTYPE
  5
15
100
AcDbSymbolTableRecord
100
AcDbLinetypeTableRecord
  2
BYLAYER
 70
0
  3

 72
65
 73
0
 40
0.0
  0
LTYPE
  5
16
100
AcDbSymbolTableRecord
100
AcDbLinetypeTableRecord
  2
CONTINUOUS
 70
64
  3
Solid line
 72
65
 73
0
 40
0.0
  0
LTYPE
  5
1F5
100
AcDbSymbolTableRecord
100
AcDbLinetypeTableRecord
  2
CENTER
 70
64
  3
____ _ ____ _ ____ _ ____ _ ____ _ ____ _ ____
 72
65
 73
4
 40
0.6
 49
0.375
 74
0
 49
-0.075
 74
0
 49
0.075
 74
0
 49
-0.075
 74
0
  0
LTYPE
  5
1F6
100
AcDbSymbolTableRecord
100
AcDbLinetypeTableRecord
  2
HIDDEN
 70
64
  3
- - - - - - - - - - - - - - - - - - - -
 72
65
 73
2
 40
0.2
 49
0.1
 74
0
 49
-0.1
 74
0
  0
LTYPE
  5
1F7
100
AcDbSymbolTableRecord
100
AcDbLinetypeTableRecord
  2
PHANTOM
 70
64
  3
_____ _ _ _____ _ _ _____ _ _ _____
 72
65
 73
6
 40
0.8
 49
0.45
 74
0
 49
-0.05
 74
0
 49
0.1
 74
0
 49
-0.05
 74
0
 49
0.1
 74
0
 49
-0.05
 74
0
  0
LTYPE
  5
1F8
100
AcDbSymbolTableRecord
100
AcDbLinetypeTableRecord
  2
DOT
 70
64
  3
. . . . . . . . . . . . . . . . . . . .
 72
65
 73
2
 40
0.2
 49
0.1
 74
0
 49
-0.1
 74
0
  0
LTYPE
  5
1F9
100
AcDbSymbolTableRecord
100
AcDbLinetypeTableRecord
  2
DASHED
 70
64
  3
- - - - - - - - - - - - - - - - - - - -
 72
65
 73
2
 40
0.2
 49
0.1
 74
0
 49
-0.1
 74
0
  0
ENDTAB
  0
TABLE
  2
LAYER
  5
2
100
AcDbSymbolTable
 70
36
  0
LAYER
  5
10
100
AcDbSymbolTableRecord
100
AcDbLayerTableRecord
  2
0
 70
0
 62
7
  6
CONTINUOUS
370
-3
390
F
  0
LAYER
  5
1FA
100
AcDbSymbolTableRecord
100
AcDbLayerTableRecord
  2
DEFAULT_1
 70
0
 62
7
  6
CENTER
370
-3
390
F
  0
LAYER
  5
1FB
100
AcDbSymbolTableRecord
100
AcDbLayerTableRecord
  2
DEFAULT_2
 70
0
 62
7
  6
HIDDEN
370
-3
390
F
  0
LAYER
  5
1FC
100
AcDbSymbolTableRecord
100
AcDbLayerTableRecord
  2
DEFAULT_3
 70
0
 62
7
  6
PHANTOM
370
-3
390
F
  0
LAYER
  5
1FD
100
AcDbSymbolTableRecord
100
AcDbLayerTableRecord
  2
ASSI
 70
0
 62
7
  6
CONTINUOUS
370
-3
390
F
  0
LAYER
  5
1FE
100
AcDbSymbolTableRecord
100
AcDbLayerTableRecord
  2
COORDINATE
 70
0
 62
7
  6
CONTINUOUS
370
-3
390
F
  0
LAYER
  5
1FF
100
AcDbSymbolTableRecord
100
AcDbLayerTableRecord
  2
COPY_PUBLISH
 70
0
 62
7
  6
CONTINUOUS
370
-3
390
F
  0
LAYER
  5
200
100
AcDbSymbolTableRecord
100
AcDbLayerTableRecord
  2
COSMETIC
 70
0
 62
7
  6
CONTINUOUS
370
-3
390
F
  0
LAYER
  5
201
100
AcDbSymbolTableRecord
100
AcDbLayerTableRecord
  2
COSMETICI
 70
0
 62
7
  6
CONTINUOUS
370
-3
390
F
  0
LAYER
  5
202
100
AcDbSymbolTableRecord
100
AcDbLayerTableRecord
  2
CURVA_VERNICIATO
 70
0
 62
7
  6
CONTINUOUS
370
-3
390
F
  0
LAYER
  5
203
100
AcDbSymbolTableRecord
100
AcDbLayerTableRecord
  2
CURVE
 70
0
 62
7
  6
CONTINUOUS
370
-3
390
F
  0
LAYER
  5
204
100
AcDbSymbolTableRecord
100
AcDbLayerTableRecord
  2
DRAFT
 70
0
 62
7
  6
CONTINUOUS
370
-3
390
F
  0
LAYER
  5
205
100
AcDbSymbolTableRecord
100
AcDbLayerTableRecord
  2
IMPORT_IGES
 70
0
 62
7
  6
CONTINUOUS
370
-3
390
F
  0
LAYER
  5
206
100
AcDbSymbolTableRecord
100
AcDbLayerTableRecord
  2
INTFCLR_1
 70
0
 62
7
  6
CONTINUOUS
370
-3
390
F
  0
LAYER
  5
207
100
AcDbSymbolTableRecord
100
AcDbLayerTableRecord
  2
INTF_1
 70
0
 62
7
  6
CONTINUOUS
370
-3
390
F
  0
LAYER
  5
208
100
AcDbSymbolTableRecord
100
AcDbLayerTableRecord
  2
NOTE
 70
0
 62
7
  6
CONTINUOUS
370
-3
390
F
  0
LAYER
  5
209
100
AcDbSymbolTableRecord
100
AcDbLayerTableRecord
  2
PIANI
 70
0
 62
7
  6
CONTINUOUS
370
-3
390
F
  0
LAYER
  5
20A
100
AcDbSymbolTableRecord
100
AcDbLayerTableRecord
  2
PUNTI
 70
0
 62
7
  6
CONTINUOUS
370
-3
390
F
  0
LAYER
  5
20B
100
AcDbSymbolTableRecord
100
AcDbLayerTableRecord
  2
RACCORDO
 70
0
 62
7
  6
CONTINUOUS
370
-3
390
F
  0
LAYER
  5
20C
100
AcDbSymbolTableRecord
100
AcDbLayerTableRecord
  2
SIMBOLI
 70
0
 62
7
  6
CONTINUOUS
370
-3
390
F
  0
LAYER
  5
20D
100
AcDbSymbolTableRecord
100
AcDbLayerTableRecord
  2
SMUSSO
 70
0
 62
7
  6
CONTINUOUS
370
-3
390
F
  0
LAYER
  5
20E
100
AcDbSymbolTableRecord
100
AcDbLayerTableRecord
  2
SNAPLINE
 70
0
 62
7
  6
CONTINUOUS
370
-3
390
F
  0
LAYER
  5
20F
100
AcDbSymbolTableRecord
100
AcDbLayerTableRecord
  2
SUPERFICI
 70
0
 62
7
  6
CONTINUOUS
370
-3
390
F
  0
LAYER
  5
210
100
AcDbSymbolTableRecord
100
AcDbLayerTableRecord
  2
TRASH
 70
0
 62
7
  6
CONTINUOUS
370
-3
390
F
  0
LAYER
  5
211
100
AcDbSymbolTableRecord
100
AcDbLayerTableRecord
  2
XSEC_DATUMS
 70
0
 62
7
  6
CONTINUOUS
370
-3
390
F
  0
ENDTAB
  0
TABLE
  2
STYLE
  5
3
100
AcDbSymbolTable
 70
1
  0
STYLE
  5
11
100
AcDbSymbolTableRecord
100
AcDbTextStyleTableRecord
  2
STANDARD
 70
0
 40
0.0
 41
0.8
 50
0.0
 71
0
 42
0.2
  3
txt
  4

  0
STYLE
  5
212
100
AcDbSymbolTableRecord
100
AcDbTextStyleTableRecord
  2
TEXTSTYLE_1
 70
0
 40
0.0
 41
0.8
 50
0.0
 71
0
 42
0.2
  3
gdt
  4

  0
ENDTAB
  0
TABLE
  2
VIEW
  5
6
100
AcDbSymbolTable
 70
0
  0
ENDTAB
  0
TABLE
  2
UCS
  5
7
100
AcDbSymbolTable
 70
0
  0
ENDTAB
  0
TABLE
  2
APPID
  5
9
100
AcDbSymbolTable
 70
1
  0
APPID
  5
213
100
AcDbSymbolTableRecord
100
AcDbRegAppTableRecord
  2
ACAD
 70
0
  0
ENDTAB
  0
TABLE
  2
BLOCK_RECORD
  5
1
100
AcDbSymbolTable
 70
0
  0
BLOCK_RECORD
  5
214
100
AcDbSymbolTableRecord
100
AcDbBlockTableRecord
  2
*Model_Space
  0
BLOCK_RECORD
  5
215
100
AcDbSymbolTableRecord
100
AcDbBlockTableRecord
  2
*Paper_Space
  0
BLOCK_RECORD
  5
216
100
AcDbSymbolTableRecord
100
AcDbBlockTableRecord
  2
_FILLED
  0
ENDTAB
  0
TABLE
  2
DIMSTYLE
  5
A
100
AcDbSymbolTable
 70
1
100
AcDbDimStyleTable
 71
0
  0
DIMSTYLE
105
217
100
AcDbSymbolTableRecord
100
AcDbDimStyleTableRecord
  2
STANDARD
 70
0
  3

  4

 40
1.0
 41
3.0
 42
0.5
 43
0.38
 44
1.5
 45
0.0
 46
0.0
 47
0.01
 48
0.01
140
3.0
141
0.09
142
0.0
143
25.4
144
1.0
145
0.0
146
1.0
147
0.625
 71
1
 72
0
 73
0
 74
0
 75
0
 76
0
 77
1
 78
8
 79
2
170
0
171
1
172
0
173
0
174
0
175
0
176
0
177
0
178
0
270
2
179
2
271
2
272
2
273
2
274
2
275
0
280
0
281
0
282
0
283
1
284
8
285
0
286
0
287
3
288
0
340
11
278
44
341
216
342
216
343
216
344
216
  0
ENDTAB
  0
ENDSEC
  0
SECTION
  2
BLOCKS
  0
BLOCK
  5
20
100
AcDbEntity
  8
0
100
AcDbBlockBegin
  2
*Model_Space
 70
0
 10
0.0
 20
0.0
 30
0.0
  3
*Model_Space
  1

  0
ENDBLK
  5
21
100
AcDbEntity
  8
0
100
AcDbBlockEnd
  0
BLOCK
  5
1C
100
AcDbEntity
  8
0
100
AcDbBlockBegin
  2
*Paper_Space
 70
0
 10
0.0
 20
0.0
 30
0.0
  3
*Paper_Space
  1

  0
ENDBLK
  5
1D
100
AcDbEntity
  8
0
100
AcDbBlockEnd
  0
BLOCK
  5
218
100
AcDbEntity
  8
0
100
AcDbBlockBegin
  2
_FILLED
 70
64
 10
0.0
 20
0.0
  3
_FILLED
  1

  0
SOLID
  5
219
100
AcDbEntity
  8
0
  6
BYBLOCK
 62
0
100
AcDbTrace
 10
0.0
 20
0.0
 11
-1.0
 21
0.3166666667
 12
-1.0
 22
-0.3166666667
 13
-1.0
 23
-0.3166666667
  0
ENDBLK
  5
21A
100
AcDbEntity
  8
0
  6
BYBLOCK
 62
0
100
AcDbBlockEnd
  0
ENDSEC
  0
SECTION
  2
ENTITIES
  0
LWPOLYLINE
  5
21B
100
AcDbEntity
  8
ASSI
100
AcDbPolyline
 62
7
  6
CONTINUOUS
 90
6
 70
0
 10
-50.3773125141
 20
64.3545472168
 10
-50.4420675238
 20
64.302258782
 10
-50.5383257374
 20
64.1925859909
 10
-50.614050544
 20
64.0590703759
 10
-50.666510551
 20
63.904113007
 10
-50.6859529877
 20
63.8003508023
  0
LINE
  5
21C
100
AcDbEntity
  8
ASSI
100
AcDbLine
 62
7
  6
CONTINUOUS
 10
-50.3772847504
 20
64.3545681194
 11
-48.7691746935
 21
65.4884688382
  0
LINE
  5
21D
100
AcDbEntity
  8
ASSI
100
AcDbLine
 62
250
  6
CONTINUOUS
 10
-49.8192019535
 20
64.3445628497
 11
-48.2441228777
 21
65.4551729283
  0
LWPOLYLINE
  5
21E
100
AcDbEntity
  8
ASSI
100
AcDbPolyline
 62
7
  6
CONTINUOUS
 90
4
 70
0
 10
-50.6859571692
 20
63.8003537703
 10
-51.4305379626
 20
57.5932550282
 10
-51.9799485537
 20
51.4120642542
 10
-52.3210885831
 20
45.4007772895
  0
LWPOLYLINE
  5
21F
100
AcDbEntity
  8
ASSI
100
AcDbPolyline
 62
7
  6
CONTINUOUS
 90
4
 70
0
 10
-52.3210613317
 20
8.3856083611
 10
-51.9801834128
 20
2.8146070723
 10
-51.4305928103
 20
-2.6657161425
 10
-50.6847319153
 20
-7.9276045637
  0
LWPOLYLINE
  5
220
100
AcDbEntity
  8
ASSI
100
AcDbPolyline
 62
7
  6
CONTINUOUS
 90
5
 70
0
 10
-52.321088584
 20
45.4007773389
 10
-52.6074429178
 20
36.0008670834
 10
-52.7038619045
 20
26.650924772
 10
-52.6075517875
 20
17.4243305758
 10
-52.3210613317
 20
8.3856082731
  0
LWPOLYLINE
  5
221
100
AcDbEntity
  8
ASSI
100
AcDbPolyline
 62
7
  6
CONTINUOUS
 90
6
 70
0
 10
-50.664928922
 20
-8.0204044987
 10
-50.6097453108
 20
-8.1825386391
 10
-50.5304646201
 20
-8.344443339
 10
-50.4302432
 20
-8.5016140436
 10
-50.3129517042
 20
-8.6485681099
 10
-50.1830476689
 20
-8.779677187
  0
LINE
  5
222
100
AcDbEntity
  8
ASSI
100
AcDbLine
 62
7
  6
CONTINUOUS
 10
-50.6847578224
 20
-7.9274194162
 11
-50.664928922
 21
-8.0204044987
  0
LINE
  5
223
100
AcDbEntity
  8
ASSI
100
AcDbLine
 62
7
  6
CONTINUOUS
 10
-50.6847278196
 20
-7.9276038957
 11
-50.6847578224
 21
-7.9274194162
  0
LINE
  5
224
100
AcDbEntity
  8
ASSI
100
AcDbLine
 62
250
  6
CONTINUOUS
 10
-33.0841945112
 20
34.3292465893
 11
-33.0113968602
 21
34.3763828884
  0
LINE
  5
225
100
AcDbEntity
  8
ASSI
100
AcDbLine
 62
7
  6
CONTINUOUS
 10
-31.1665250467
 20
32.7334564033
 11
-30.8160570699
 21
32.925119294
  0
LINE
  5
226
100
AcDbEntity
  8
ASSI
100
AcDbLine
 62
7
  6
CONTINUOUS
 10
-33.0113968602
 20
34.3763828884
 11
-33.0106549744
 21
34.3767271166
  0
LINE
  5
227
100
AcDbEntity
  8
ASSI
100
AcDbLine
 62
250
  6
CONTINUOUS
 10
-33.2250812651
 20
33.9869904659
 11
-32.6917725472
 21
34.233580615
  0
LWPOLYLINE
  5
228
100
AcDbEntity
  8
ASSI
100
AcDbPolyline
 62
7
  6
CONTINUOUS
 90
6
 70
0
 10
-33.0126865077
 20
34.3759313739
 10
-33.0126355136
 20
34.3759542561
 10
-32.9993175718
 20
34.3767694884
 10
-32.9550639873
 20
34.3695382512
 10
-32.8856573655
 20
34.3433756466
 10
-32.8432015847
 20
34.3210124573
  0
LWPOLYLINE
  5
229
100
AcDbEntity
  8
ASSI
100
AcDbPolyline
 62
7
  6
CONTINUOUS
 90
3
 70
0
 10
-50.1830476689
 20
-8.779677187
 10
-50.045059718
 20
-8.8898933782
 10
-49.9580023
 20
-8.9454359041
  0
LINE
  5
22A
100
AcDbEntity
  8
ASSI
100
AcDbLine
 62
7
  6
CONTINUOUS
 10
-31.1665250467
 20
-0.4977790175
 11
-31.1665250467
 21
33.3529218241
  0
LINE
  5
22B
100
AcDbEntity
  8
ASSI
100
AcDbLine
 62
7
  6
CONTINUOUS
 10
-30.8160570699
 20
5.9816001599
 11
-30.8160570699
 21
32.925119294
  0
LWPOLYLINE
  5
22C
100
AcDbEntity
  8
ASSI
100
AcDbPolyline
 62
7
  6
CONTINUOUS
 90
7
 70
0
 10
50.6322674192
 20
-67.0249965236
 10
50.7067060324
 20
-67.0640995273
 10
50.8375178671
 20
-67.1134728008
 10
50.964933757
 20
-67.1362350575
 10
51.0880853926
 20
-67.1315015756
 10
51.2019589142
 20
-67.0989815176
 10
51.2143023721
 20
-67.0934910214
  0
LINE
  5
22D
100
AcDbEntity
  8
ASSI
100
AcDbLine
 62
7
  6
CONTINUOUS
 10
-49.9581070687
 20
-8.9453804265
 11
50.6323239891
 21
-67.0250346251
  0
LINE
  5
22E
100
AcDbEntity
  8
ASSI
100
AcDbLine
 62
250
  6
CONTINUOUS
 10
-50.0167064599
 20
-8.8504936815
 11
50.5737245321
 21
-66.9301478421
  0
LINE
  5
22F
100
AcDbEntity
  8
ASSI
100
AcDbLine
 62
7
  6
CONTINUOUS
 10
50.6322650756
 20
-67.0250005825
 11
50.6323239656
 21
-67.0250346116
  0
LINE
  5
230
100
AcDbEntity
  8
ASSI
100
AcDbLine
 62
7
  6
CONTINUOUS
 10
-28.6431556131
 20
6.7756819915
 11
-28.6431556131
 21
3.6870715352
  0
LINE
  5
231
100
AcDbEntity
  8
ASSI
100
AcDbLine
 62
7
  6
CONTINUOUS
 10
-31.1665250467
 20
1.7075858852
 11
-28.981392434
 21
3.0803527684
  0
LINE
  5
232
100
AcDbEntity
  8
ASSI
100
AcDbLine
 62
7
  6
CONTINUOUS
 10
-30.8160570699
 20
5.9816001599
 11
-28.981392434
 21
6.9849361299
  0
LINE
  5
233
100
AcDbEntity
  8
ASSI
100
AcDbLine
 62
7
  6
CONTINUOUS
 10
-30.8160570699
 20
6.9266898967
 11
-29.8971324665
 21
7.4026437774
  0
LINE
  5
234
100
AcDbEntity
  8
ASSI
100
AcDbLine
 62
250
  6
CONTINUOUS
 10
-30.8160570699
 20
6.7723226005
 11
-29.6548351868
 21
7.3737735352
  0
LINE
  5
235
100
AcDbEntity
  8
ASSI
100
AcDbLine
 62
7
  6
CONTINUOUS
 10
2.7521343289
 20
-28.2041467019
 11
2.3546465625
 21
-27.9746422473
  0
LINE
  5
236
100
AcDbEntity
  8
ASSI
100
AcDbLine
 62
7
  6
CONTINUOUS
 10
1.7218282239
 20
-27.6092608696
 11
1.3102520956
 21
-27.3716219714
  0
LINE
  5
237
100
AcDbEntity
  8
ASSI
100
AcDbLine
 62
7
  6
CONTINUOUS
 10
1.0969810301
 20
-27.2484816671
 11
0.661444265
 21
-26.9970081976
  0
LINE
  5
238
100
AcDbEntity
  8
ASSI
100
AcDbLine
 62
7
  6
CONTINUOUS
 10
-0.1223970369
 20
-26.5444280537
 11
-0.5311521326
 21
-26.3084179843
  0
LINE
  5
239
100
AcDbEntity
  8
ASSI
100
AcDbLine
 62
7
  6
CONTINUOUS
 10
-0.7445343318
 20
-26.1852137768
 11
-1.1487915212
 21
-25.9518007422
  0
LINE
  5
23A
100
AcDbEntity
  8
ASSI
100
AcDbLine
 62
7
  6
CONTINUOUS
 10
-1.7250340504
 20
-25.6190855279
 11
-1.7829906435
 21
-25.5856221174
  0
LINE
  5
23B
100
AcDbEntity
  8
ASSI
100
AcDbLine
 62
7
  6
CONTINUOUS
 10
-2.3569463894
 20
-25.2542272631
 11
-2.7522820126
 21
-25.0259654289
  0
LINE
  5
23C
100
AcDbEntity
  8
ASSI
100
AcDbLine
 62
7
  6
CONTINUOUS
 10
-2.9676702736
 20
-24.9016029464
 11
-3.3809091334
 21
-24.6630040079
  0
LINE
  5
23D
100
AcDbEntity
  8
ASSI
100
AcDbLine
 62
7
  6
CONTINUOUS
 10
-4.2271830144
 20
-24.1743760753
 11
-4.5913500778
 21
-23.964110577
  0
LINE
  5
23E
100
AcDbEntity
  8
ASSI
100
AcDbLine
 62
7
  6
CONTINUOUS
 10
2.7112499305
 20
-28.0575865769
 11
2.4611209777
 21
-27.9131652544
  0
LINE
  5
23F
100
AcDbEntity
  8
ASSI
100
AcDbLine
 62
7
  6
CONTINUOUS
 10
1.7117903079
 20
-27.480511117
 11
1.4167265108
 21
-27.3101449786
  0
LINE
  5
240
100
AcDbEntity
  8
ASSI
100
AcDbLine
 62
7
  6
CONTINUOUS
 10
1.0513842311
 20
-27.0992006611
 11
0.7679186802
 21
-26.9355312047
  0
LINE
  5
241
100
AcDbEntity
  8
ASSI
100
AcDbLine
 62
7
  6
CONTINUOUS
 10
-0.0988890439
 20
-26.4350472885
 11
-0.4246777175
 21
-26.2469409915
  0
LINE
  5
242
100
AcDbEntity
  8
ASSI
100
AcDbLine
 62
7
  6
CONTINUOUS
 10
-0.7653066636
 20
-26.050266107
 11
-1.0423171061
 21
-25.8903237493
  0
LINE
  5
243
100
AcDbEntity
  8
ASSI
100
AcDbLine
 62
7
  6
CONTINUOUS
 10
-2.3588148999
 20
-25.1301944227
 11
-2.6458075974
 21
-24.9644884361
  0
LINE
  5
244
100
AcDbEntity
  8
ASSI
100
AcDbLine
 62
7
  6
CONTINUOUS
 10
-2.9775601481
 20
-24.7729386712
 11
-3.2744347183
 21
-24.601527015
  0
LINE
  5
245
100
AcDbEntity
  8
ASSI
100
AcDbLine
 62
7
  6
CONTINUOUS
 10
-4.1996651368
 20
-24.0673105672
 11
-4.4848756627
 21
-23.9026335841
  0
LINE
  5
246
100
AcDbEntity
  8
ASSI
100
AcDbLine
 62
7
  6
CONTINUOUS
 10
0.5203614228
 20
-26.498507081
 11
-0.0424015299
 21
-26.1735748052
  0
LINE
  5
247
100
AcDbEntity
  8
ASSI
100
AcDbLine
 62
7
  6
CONTINUOUS
 10
0.6268050948
 20
-26.4370478388
 11
0.0640421422
 21
-26.112115563
  0
LINE
  5
248
100
AcDbEntity
  8
ASSI
100
AcDbLine
 62
7
  6
CONTINUOUS
 10
0.4123565218
 20
-26.1123844815
 11
0.0167097716
 21
-25.8839430065
  0
LINE
  5
249
100
AcDbEntity
  8
ASSI
100
AcDbLine
 62
7
  6
CONTINUOUS
 10
1.8779382325
 20
-26.8804218232
 11
1.6563694216
 21
-26.7524907687
  0
LINE
  5
24A
100
AcDbEntity
  8
ASSI
100
AcDbLine
 62
7
  6
CONTINUOUS
 10
1.9843535317
 20
-26.8189789631
 11
1.7627847208
 21
-26.6910479086
  0
LINE
  5
24B
100
AcDbEntity
  8
ASSI
100
AcDbLine
 62
7
  6
CONTINUOUS
 10
1.8529549493
 20
-26.5215043642
 11
1.61679303
 21
-26.3851474318
  0
LINE
  5
24C
100
AcDbEntity
  8
ASSI
100
AcDbLine
 62
7
  6
CONTINUOUS
 10
0.3324684144
 20
-24.7025969373
 11
-0.0672908688
 21
-24.4717809373
  0
LINE
  5
24D
100
AcDbEntity
  8
ASSI
100
AcDbLine
 62
7
  6
CONTINUOUS
 10
-1.0867528782
 20
-23.8831563499
 11
-1.4956119185
 21
-23.6470862642
  0
LINE
  5
24E
100
AcDbEntity
  8
ASSI
100
AcDbLine
 62
7
  6
CONTINUOUS
 10
-2.3177253751
 20
-23.1724082579
 11
-2.7306227023
 21
-22.934006516
  0
LINE
  5
24F
100
AcDbEntity
  8
ASSI
100
AcDbLine
 62
7
  6
CONTINUOUS
 10
-3.7479266218
 20
-22.3466279827
 11
-4.1608833459
 21
-22.1081919457
  0
LINE
  5
250
100
AcDbEntity
  8
ASSI
100
AcDbLine
 62
7
  6
CONTINUOUS
 10
-4.9271403165
 20
-21.6657647744
 11
-5.3760456423
 21
-21.4065724654
  0
LINE
  5
251
100
AcDbEntity
  8
ASSI
100
AcDbLine
 62
7
  6
CONTINUOUS
 10
-3.124773861
 20
-22.7063011385
 11
-3.5380127208
 21
-22.4677021999
  0
LINE
  5
252
100
AcDbEntity
  8
ASSI
100
AcDbLine
 62
250
  6
CONTINUOUS
 10
29.905301146
 20
-39.5489565624
 11
-32.9460910726
 21
-3.2593504084
  0
LINE
  5
253
100
AcDbEntity
  8
ASSI
100
AcDbLine
 62
250
  6
CONTINUOUS
 10
49.1556909423
 20
-50.276939912
 11
30.6119530545
 21
-39.5700625313
  0
LINE
  5
254
100
AcDbEntity
  8
ASSI
100
AcDbLine
 62
250
  6
CONTINUOUS
 10
-33.6894548846
 20
-2.4432354732
 11
-52.2331968686
 21
8.2637333234
  0
LINE
  5
255
100
AcDbEntity
  8
ASSI
100
AcDbLine
 62
250
  6
CONTINUOUS
 10
30.2398744698
 20
-38.9263511957
 11
-32.6115508098
 21
-2.6367259526
  0
LINE
  5
256
100
AcDbEntity
  8
ASSI
100
AcDbLine
 62
250
  6
CONTINUOUS
 10
-33.2250806864
 20
-1.6863779716
 11
-31.1665250467
 21
-0.4977790175
  0
LINE
  5
257
100
AcDbEntity
  8
ASSI
100
AcDbLine
 62
250
  6
CONTINUOUS
 10
-32.6115508098
 20
-2.6367259526
 11
-30.601614874
 21
-1.4762321373
  0
LINE
  5
258
100
AcDbEntity
  8
ASSI
100
AcDbLine
 62
7
  6
CONTINUOUS
 10
30.5703643742
 20
-36.7961662903
 11
-30.601614874
 21
-1.4762321373
  0
LINE
  5
259
100
AcDbEntity
  8
ASSI
100
AcDbLine
 62
7
  6
CONTINUOUS
 10
-5.2609274556
 20
-15.5737121566
 11
-2.9784323376
 21
-16.8915962313
  0
LINE
  5
25A
100
AcDbEntity
  8
ASSI
100
AcDbLine
 62
250
  6
CONTINUOUS
 10
-29.6548351868
 20
7.3737735352
 11
-28.981392434
 21
6.9849361299
  0
LINE
  5
25B
100
AcDbEntity
  8
ASSI
100
AcDbLine
 62
7
  6
CONTINUOUS
 10
-29.4171619422
 20
7.3916685209
 11
-28.7457803989
 21
7.0040212322
  0
LINE
  5
25C
100
AcDbEntity
  8
ASSI
100
AcDbLine
 62
7
  6
CONTINUOUS
 10
-2.978276448
 20
-16.8915013365
 11
-2.978276448
 21
-17.3141318021
  0
LINE
  5
25D
100
AcDbEntity
  8
ASSI
100
AcDbLine
 62
7
  6
CONTINUOUS
 10
53.7923547128
 20
-31.0598125944
 11
54.1459081034
 21
-31.263949891
  0
LINE
  5
25E
100
AcDbEntity
  8
ASSI
100
AcDbLine
 62
250
  6
CONTINUOUS
 10
-2.978276448
 20
-17.3141318021
 11
-3.0682918098
 21
-17.373627801
  0
LINE
  5
25F
100
AcDbEntity
  8
ASSI
100
AcDbLine
 62
7
  6
CONTINUOUS
 10
-2.9793962397
 20
-17.4113287573
 11
-2.9903998628
 21
-17.418601635
  0
LINE
  5
260
100
AcDbEntity
  8
ASSI
100
AcDbLine
 62
7
  6
CONTINUOUS
 10
-2.978276448
 20
-16.8915013365
 11
-3.4285688946
 21
-17.1656083276
  0
LINE
  5
261
100
AcDbEntity
  8
ASSI
100
AcDbLine
 62
7
  6
CONTINUOUS
 10
-5.2609274556
 20
-15.5737121566
 11
-5.7436398145
 21
-15.8289153931
  0
LINE
  5
262
100
AcDbEntity
  8
ASSI
100
AcDbLine
 62
250
  6
CONTINUOUS
 10
30.6119530545
 20
-2.5550479537
 11
49.1556909319
 21
-13.2620192288
  0
LINE
  5
263
100
AcDbEntity
  8
ASSI
100
AcDbLine
 62
250
  6
CONTINUOUS
 10
-52.233196868
 20
45.2786540124
 11
-33.6894548846
 21
34.5717791044
  0
LINE
  5
264
100
AcDbEntity
  8
ASSI
100
AcDbLine
 62
7
  6
CONTINUOUS
 10
-31.1665250467
 20
33.1274751115
 11
-30.8160570699
 21
32.925119294
  0
LINE
  5
265
100
AcDbEntity
  8
ASSI
100
AcDbLine
 62
7
  6
CONTINUOUS
 10
-4.3388007867
 20
-23.335273807
 11
-4.4452277412
 21
-23.3967233967
  0
LINE
  5
266
100
AcDbEntity
  8
ASSI
100
AcDbLine
 62
7
  6
CONTINUOUS
 10
-4.4848756627
 20
-23.9026335841
 11
-4.5913500778
 21
-23.964110577
  0
LINE
  5
267
100
AcDbEntity
  8
ASSI
100
AcDbLine
 62
7
  6
CONTINUOUS
 10
-32.8430534171
 20
34.3209282933
 11
30.0083388014
 21
-1.9686778607
  0
LINE
  5
268
100
AcDbEntity
  8
ASSI
100
AcDbLine
 62
250
  6
CONTINUOUS
 10
-32.9460910726
 20
34.5718701285
 11
29.905301146
 21
-1.7177360256
  0
LINE
  5
269
100
AcDbEntity
  8
0
100
AcDbLine
 62
250
  6
CONTINUOUS
 10
-34.3807520334
 20
37.2469943473
 11
-33.1797028813
 21
36.5535236196
  0
LINE
  5
26A
100
AcDbEntity
  8
0
100
AcDbLine
 62
250
  6
CONTINUOUS
 10
-34.3054004428
 20
37.2904935271
 11
-33.2456510245
 21
36.6786074948
  0
LINE
  5
26B
100
AcDbEntity
  8
0
100
AcDbLine
 62
250
  6
CONTINUOUS
 10
-34.230006362
 20
37.3340180568
 11
-33.3115566776
 21
36.8037167199
  0
LINE
  5
26C
100
AcDbEntity
  8
0
100
AcDbLine
 62
250
  6
CONTINUOUS
 10
-25.6266343144
 20
32.7152501196
 11
-24.6375347631
 21
32.144156435
  0
LINE
  5
26D
100
AcDbEntity
  8
0
100
AcDbLine
 62
250
  6
CONTINUOUS
 10
-23.7720728325
 20
31.6444495631
 11
-23.5247982982
 21
31.5016763461
  0
LINE
  5
26E
100
AcDbEntity
  8
0
100
AcDbLine
 62
250
  6
CONTINUOUS
 10
-22.3708488217
 20
30.8354003807
 11
-22.1235735803
 21
30.6926267554
  0
LINE
  5
26F
100
AcDbEntity
  8
0
100
AcDbLine
 62
250
  6
CONTINUOUS
 10
-21.1344747361
 20
30.1215334791
 11
-20.763561874
 21
29.9073730412
  0
LINE
  5
270
100
AcDbEntity
  8
0
100
AcDbLine
 62
250
  6
CONTINUOUS
 10
-19.197487938
 20
29.003141578
 11
-18.9502126966
 21
28.8603679527
  0
LINE
  5
271
100
AcDbEntity
  8
0
100
AcDbLine
 62
250
  6
CONTINUOUS
 10
-17.9611138524
 20
28.2892746764
 11
-16.4774645254
 21
27.4326341495
  0
LINE
  5
272
100
AcDbEntity
  8
0
100
AcDbLine
 62
250
  6
CONTINUOUS
 10
-14.2519901814
 20
26.147673155
 11
-14.0047156472
 21
26.004899938
  0
LINE
  5
273
100
AcDbEntity
  8
0
100
AcDbLine
 62
250
  6
CONTINUOUS
 10
-13.6750157967
 20
25.8145353765
 11
-13.4277412625
 21
25.6717621595
  0
LINE
  5
274
100
AcDbEntity
  8
0
100
AcDbLine
 62
250
  6
CONTINUOUS
 10
-12.2737917859
 20
25.0054861941
 11
-12.0265165446
 21
24.8627125688
  0
LINE
  5
275
100
AcDbEntity
  8
0
100
AcDbLine
 62
250
  6
CONTINUOUS
 10
-11.6968174012
 20
24.6723484156
 11
-10.2131680743
 21
23.8157078887
  0
LINE
  5
276
100
AcDbEntity
  8
0
100
AcDbLine
 62
250
  6
CONTINUOUS
 10
-14.5816900319
 20
26.3380377166
 11
-14.8701775778
 21
26.50460681
  0
LINE
  5
277
100
AcDbEntity
  8
0
100
AcDbLine
 62
250
  6
CONTINUOUS
 10
-15.9004901407
 20
27.099496371
 11
-16.147764675
 21
27.242269588
  0
LINE
  5
278
100
AcDbEntity
  8
0
100
AcDbLine
 62
250
  6
CONTINUOUS
 10
-25.3393533524
 20
32.8616564113
 11
-24.556316738
 21
32.4095408839
  0
LINE
  5
279
100
AcDbEntity
  8
0
100
AcDbLine
 62
250
  6
CONTINUOUS
 10
-10.1731616466
 20
24.1048873974
 11
-11.4095357322
 21
24.818754299
  0
LINE
  5
27A
100
AcDbEntity
  8
0
100
AcDbLine
 62
250
  6
CONTINUOUS
 10
-16.4374580978
 20
27.7218136582
 11
-17.6738321833
 21
28.4356805599
  0
LINE
  5
27B
100
AcDbEntity
  8
0
100
AcDbLine
 62
250
  6
CONTINUOUS
 10
-20.7235561534
 20
30.1965529582
 11
-21.0944683084
 21
30.4107129878
  0
LINE
  5
27C
100
AcDbEntity
  8
0
100
AcDbLine
 62
250
  6
CONTINUOUS
 10
-35.1365935301
 20
38.6869415328
 11
-34.3241186461
 21
38.2178287175
  0
LINE
  5
27D
100
AcDbEntity
  8
0
100
AcDbLine
 62
250
  6
CONTINUOUS
 10
-33.123069494
 20
37.5243579897
 11
-32.3105946101
 21
37.0552451744
  0
LINE
  5
27E
100
AcDbEntity
  8
0
100
AcDbLine
 62
250
  6
CONTINUOUS
 10
-35.0607535324
 20
38.7307227127
 11
-34.2482786485
 21
38.2616098974
  0
LINE
  5
27F
100
AcDbEntity
  8
0
100
AcDbLine
 62
250
  6
CONTINUOUS
 10
-33.1885292302
 20
37.6497238651
 11
-32.3760543462
 21
37.1806110498
  0
LINE
  5
280
100
AcDbEntity
  8
0
100
AcDbLine
 62
250
  6
CONTINUOUS
 10
-23.2793926555
 20
31.9851665245
 11
-22.4551430294
 21
31.5092551207
  0
LINE
  5
281
100
AcDbEntity
  8
0
100
AcDbLine
 62
250
  6
CONTINUOUS
 10
-13.1823356198
 20
26.1552523379
 11
-12.3580867008
 21
25.6793413424
  0
LINE
  5
282
100
AcDbEntity
  8
0
100
AcDbLine
 62
250
  6
CONTINUOUS
 10
-20.1060317719
 20
30.1529077218
 11
-20.3533070132
 21
30.2956813471
  0
LINE
  5
283
100
AcDbEntity
  8
0
100
AcDbLine
 62
250
  6
CONTINUOUS
 10
-34.9848703235
 20
38.7745280258
 11
-34.1723961467
 21
38.3054156187
  0
LINE
  5
284
100
AcDbEntity
  8
0
100
AcDbLine
 62
250
  6
CONTINUOUS
 10
-33.2539464623
 20
37.7751142819
 11
-32.4414722854
 21
37.3060018748
  0
LINE
  5
285
100
AcDbEntity
  8
0
100
AcDbLine
 62
250
  6
CONTINUOUS
 10
-30.649040334
 20
36.314902202
 11
-31.4026400932
 21
36.7500212581
  0
LINE
  5
286
100
AcDbEntity
  8
0
100
AcDbLine
 62
250
  6
CONTINUOUS
 10
-23.2108462649
 20
32.1545405532
 11
-22.4690212479
 21
31.7262200856
  0
LINE
  5
287
100
AcDbEntity
  8
0
100
AcDbLine
 62
250
  6
CONTINUOUS
 10
-13.1137885221
 20
26.3246259583
 11
-12.3719642122
 21
25.896305899
  0
LINE
  5
288
100
AcDbEntity
  8
0
100
AcDbLine
 62
250
  6
CONTINUOUS
 10
-15.0574800578
 20
27.7084716908
 11
-15.7580927704
 21
28.1129966902
  0
LINE
  5
289
100
AcDbEntity
  8
0
100
AcDbLine
 62
250
  6
CONTINUOUS
 10
-24.4539250882
 20
33.1338612862
 11
-25.2369624097
 21
33.5859772219
  0
LINE
  5
28A
100
AcDbEntity
  8
0
100
AcDbLine
 62
250
  6
CONTINUOUS
 10
-17.5644948857
 20
29.2083590973
 11
-16.4929707253
 21
28.5896744765
  0
LINE
  5
28B
100
AcDbEntity
  8
0
100
AcDbLine
 62
250
  6
CONTINUOUS
 10
-14.9331478732
 20
27.9511579622
 11
-15.7161851948
 21
28.4032738979
  0
LINE
  5
28C
100
AcDbEntity
  8
0
100
AcDbLine
 62
250
  6
CONTINUOUS
 10
-24.4120182197
 20
33.4241389021
 11
-25.1950548342
 21
33.8762544295
  0
LINE
  5
28D
100
AcDbEntity
  8
0
100
AcDbLine
 62
250
  6
CONTINUOUS
 10
-16.4509725384
 20
28.880004002
 11
-17.5224966987
 21
29.4986886229
  0
LINE
  5
28E
100
AcDbEntity
  8
0
100
AcDbLine
 62
250
  6
CONTINUOUS
 10
-32.3695774062
 20
38.408013256
 11
-33.1820515831
 21
38.8771256631
  0
LINE
  5
28F
100
AcDbEntity
  8
0
100
AcDbLine
 62
250
  6
CONTINUOUS
 10
-34.1005012674
 20
39.4074269999
 11
-34.9129754443
 21
39.876539407
  0
LINE
  5
290
100
AcDbEntity
  8
0
100
AcDbLine
 62
250
  6
CONTINUOUS
 10
-20.192835353
 20
31.4083106956
 11
-19.9455601116
 21
31.2655370703
  0
LINE
  5
291
100
AcDbEntity
  8
0
100
AcDbLine
 62
250
  6
CONTINUOUS
 10
-32.2930985241
 20
38.4521625033
 11
-33.105573408
 21
38.9212753186
  0
LINE
  5
292
100
AcDbEntity
  8
0
100
AcDbLine
 62
250
  6
CONTINUOUS
 10
-34.1653228263
 20
39.5331613509
 11
-34.9777977103
 21
40.0022741662
  0
LINE
  5
293
100
AcDbEntity
  8
0
100
AcDbLine
 62
250
  6
CONTINUOUS
 10
-32.2165777552
 20
38.496336752
 11
-33.0290526392
 21
38.9654495673
  0
LINE
  5
294
100
AcDbEntity
  8
0
100
AcDbLine
 62
250
  6
CONTINUOUS
 10
-34.2301017913
 20
39.6589202951
 11
-35.0425766753
 21
40.1280331104
  0
LINE
  5
295
100
AcDbEntity
  8
0
100
AcDbLine
 62
250
  6
CONTINUOUS
 10
-25.0951562601
 20
34.5547891891
 11
-24.3121189385
 21
34.1026732534
  0
LINE
  5
296
100
AcDbEntity
  8
0
100
AcDbLine
 62
250
  6
CONTINUOUS
 10
-20.8502705089
 20
32.1038453573
 11
-20.479358354
 21
31.8896853276
  0
LINE
  5
297
100
AcDbEntity
  8
0
100
AcDbLine
 62
250
  6
CONTINUOUS
 10
-17.429635091
 20
30.1288133376
 11
-16.1932602983
 21
29.4149460277
  0
LINE
  5
298
100
AcDbEntity
  8
0
100
AcDbLine
 62
250
  6
CONTINUOUS
 10
-19.5654348364
 20
31.4147148045
 11
-18.9060351355
 21
31.0339856814
  0
LINE
  5
299
100
AcDbEntity
  8
0
100
AcDbLine
 62
250
  6
CONTINUOUS
 10
-18.6587606012
 20
30.8912124644
 11
-17.9993609004
 21
30.5104833413
  0
LINE
  5
29A
100
AcDbEntity
  8
0
100
AcDbLine
 62
250
  6
CONTINUOUS
 10
-15.6090373383
 20
29.1303404744
 11
-14.8260000167
 21
28.6782245387
  0
LINE
  5
29B
100
AcDbEntity
  8
0
100
AcDbLine
 62
250
  6
CONTINUOUS
 10
-15.81983985
 20
29.5159063067
 11
-14.8307402987
 21
28.9448126221
  0
LINE
  5
29C
100
AcDbEntity
  8
0
100
AcDbLine
 62
250
  6
CONTINUOUS
 10
-11.1216173348
 20
26.803211509
 11
-11.3688925762
 21
26.9459851343
  0
LINE
  5
29D
100
AcDbEntity
  8
0
100
AcDbLine
 62
250
  6
CONTINUOUS
 10
-12.3579921275
 20
27.5170788189
 11
-12.6876912708
 21
27.7074429722
  0
LINE
  5
29E
100
AcDbEntity
  8
0
100
AcDbLine
 62
250
  6
CONTINUOUS
 10
-13.6767908222
 20
28.2785366568
 11
-13.9240653564
 21
28.4213098738
  0
LINE
  5
29F
100
AcDbEntity
  8
0
100
AcDbLine
 62
250
  6
CONTINUOUS
 10
-16.1495397004
 20
29.7062708683
 11
-17.6331890274
 21
30.5629113952
  0
LINE
  5
2A0
100
AcDbEntity
  8
0
100
AcDbLine
 62
250
  6
CONTINUOUS
 10
-17.9628888778
 20
30.7532759567
 11
-19.5289628139
 21
31.6575074198
  0
LINE
  5
2A1
100
AcDbEntity
  8
0
100
AcDbLine
 62
250
  6
CONTINUOUS
 10
-20.4356377561
 20
32.1810101682
 11
-20.8065499111
 21
32.3951701979
  0
LINE
  5
2A2
100
AcDbEntity
  8
0
100
AcDbLine
 62
250
  6
CONTINUOUS
 10
-22.4550484561
 20
33.3469925972
 11
-22.7847483066
 21
33.5373571588
  0
LINE
  5
2A3
100
AcDbEntity
  8
0
100
AcDbLine
 62
250
  6
CONTINUOUS
 10
-24.3096099381
 20
34.4177931538
 11
-25.2987094894
 21
34.9888868384
  0
LINE
  5
2A4
100
AcDbEntity
  8
0
100
AcDbLine
 62
250
  6
CONTINUOUS
 10
-27.0967292989
 20
36.0270409419
 11
-28.227127877
 21
36.6797189137
  0
LINE
  5
2A5
100
AcDbEntity
  8
0
100
AcDbLine
 62
250
  6
CONTINUOUS
 10
-33.1124531398
 20
39.8554450776
 11
-34.0309028241
 21
40.3857464145
  0
LINE
  5
2A6
100
AcDbEntity
  8
0
100
AcDbLine
 62
250
  6
CONTINUOUS
 10
-33.0354846789
 20
39.8998786346
 11
-34.0952340971
 21
40.5117646669
  0
LINE
  5
2A7
100
AcDbEntity
  8
0
100
AcDbLine
 62
250
  6
CONTINUOUS
 10
-32.9584736112
 20
39.9443359757
 11
-34.1595227633
 21
40.6378067034
  0
LWPOLYLINE
  5
2A8
100
AcDbEntity
  8
ASSI
100
AcDbPolyline
 62
7
  6
CONTINUOUS
 90
8
 70
0
 10
30.0083758085
 20
-1.9686992818
 10
30.0415796393
 20
-1.9891223956
 10
30.1280763571
 20
-2.053652164
 10
30.2197644888
 20
-2.139928552
 10
30.3111677231
 20
-2.246070211
 10
30.3973911357
 20
-2.3688299605
 10
30.4742834672
 20
-2.5040270334
 10
30.5088180602
 20
-2.5762954395
  0
LINE
  5
2A9
100
AcDbEntity
  8
ASSI
100
AcDbLine
 62
7
  6
CONTINUOUS
 10
-2.2677567449
 20
-23.8130759784
 11
-2.3741351344
 21
-23.8744975273
  0
LINE
  5
2AA
100
AcDbEntity
  8
ASSI
100
AcDbLine
 62
7
  6
CONTINUOUS
 10
-3.2744347183
 20
-24.601527015
 11
-3.3809091334
 21
-24.6630040079
  0
LINE
  5
2AB
100
AcDbEntity
  8
ASSI
100
AcDbLine
 62
250
  6
CONTINUOUS
 10
50.7712290385
 20
6.2649086891
 11
52.5205315719
 21
7.2749243268
  0
LINE
  5
2AC
100
AcDbEntity
  8
ASSI
100
AcDbLine
 62
7
  6
CONTINUOUS
 10
-2.6458075974
 20
-24.9644884361
 11
-2.7522820126
 21
-25.0259654289
  0
LINE
  5
2AD
100
AcDbEntity
  8
ASSI
100
AcDbLine
 62
7
  6
CONTINUOUS
 10
-1.7193499357
 20
-24.5681965783
 11
-1.8257575244
 21
-24.6296349864
  0
LINE
  5
2AE
100
AcDbEntity
  8
ASSI
100
AcDbLine
 62
7
  6
CONTINUOUS
 10
-1.2332660028
 20
-24.4161227389
 11
-1.3396447656
 21
-24.4775445033
  0
LINE
  5
2AF
100
AcDbEntity
  8
ASSI
100
AcDbLine
 62
7
  6
CONTINUOUS
 10
-1.6972259684
 20
-25.5361026689
 11
-1.7829906435
 21
-25.5856221174
  0
LINE
  5
2B0
100
AcDbEntity
  8
ASSI
100
AcDbLine
 62
250
  6
CONTINUOUS
 10
51.3815647608
 20
4.9865279512
 11
53.2266692879
 21
6.0518579269
  0
LINE
  5
2B1
100
AcDbEntity
  8
ASSI
100
AcDbLine
 62
7
  6
CONTINUOUS
 10
0.2710301489
 20
-25.1263884733
 11
0.1646615832
 21
-25.18780435
  0
LINE
  5
2B2
100
AcDbEntity
  8
ASSI
100
AcDbLine
 62
7
  6
CONTINUOUS
 10
-1.0423171061
 20
-25.8903237493
 11
-1.1487915212
 21
-25.9518007422
  0
LINE
  5
2B3
100
AcDbEntity
  8
ASSI
100
AcDbLine
 62
7
  6
CONTINUOUS
 10
-0.4246777175
 20
-26.2469409915
 11
-0.5311521326
 21
-26.3084179843
  0
LINE
  5
2B4
100
AcDbEntity
  8
ASSI
100
AcDbLine
 62
7
  6
CONTINUOUS
 10
0.0640421422
 20
-26.112115563
 11
-0.0424015299
 21
-26.1735748052
  0
LINE
  5
2B5
100
AcDbEntity
  8
ASSI
100
AcDbLine
 62
7
  6
CONTINUOUS
 10
0.5187772433
 20
-26.0509384906
 11
0.4123565218
 21
-26.1123844815
  0
LINE
  5
2B6
100
AcDbEntity
  8
ASSI
100
AcDbLine
 62
7
  6
CONTINUOUS
 10
1.6817875072
 20
-25.7201031879
 11
1.575432859
 21
-25.7815110288
  0
LINE
  5
2B7
100
AcDbEntity
  8
ASSI
100
AcDbLine
 62
7
  6
CONTINUOUS
 10
0.6268050948
 20
-26.4370478388
 11
0.5203614228
 21
-26.498507081
  0
LINE
  5
2B8
100
AcDbEntity
  8
ASSI
100
AcDbLine
 62
250
  6
CONTINUOUS
 10
2.004652215
 20
-25.8940570672
 11
1.8982983417
 21
-25.9554644607
  0
LINE
  5
2B9
100
AcDbEntity
  8
ASSI
100
AcDbLine
 62
7
  6
CONTINUOUS
 10
0.7679186802
 20
-26.9355312047
 11
0.661444265
 21
-26.9970081976
  0
LINE
  5
2BA
100
AcDbEntity
  8
ASSI
100
AcDbLine
 62
250
  6
CONTINUOUS
 10
2.2566220429
 20
-26.3040863427
 11
2.1502514793
 21
-26.365503373
  0
LINE
  5
2BB
100
AcDbEntity
  8
ASSI
100
AcDbLine
 62
7
  6
CONTINUOUS
 10
1.7627847208
 20
-26.6910479086
 11
1.6563694216
 21
-26.7524907687
  0
LINE
  5
2BC
100
AcDbEntity
  8
ASSI
100
AcDbLine
 62
7
  6
CONTINUOUS
 10
2.084441943
 20
-26.5702334931
 11
2.1908282735
 21
-26.5088073592
  0
LINE
  5
2BD
100
AcDbEntity
  8
ASSI
100
AcDbLine
 62
250
  6
CONTINUOUS
 10
1.9843535317
 20
-26.8189789631
 11
1.8779382325
 21
-26.8804218232
  0
LINE
  5
2BE
100
AcDbEntity
  8
ASSI
100
AcDbLine
 62
7
  6
CONTINUOUS
 10
1.4167265108
 20
-27.3101449786
 11
1.3102520956
 21
-27.3716219714
  0
LINE
  5
2BF
100
AcDbEntity
  8
ASSI
100
AcDbLine
 62
7
  6
CONTINUOUS
 10
2.4006488356
 20
-26.8883592572
 11
2.2942452373
 21
-26.9497953613
  0
LINE
  5
2C0
100
AcDbEntity
  8
ASSI
100
AcDbLine
 62
250
  6
CONTINUOUS
 10
2.2291509047
 20
-27.1450848777
 11
2.1227227139
 21
-27.2065351812
  0
LINE
  5
2C1
100
AcDbEntity
  8
ASSI
100
AcDbLine
 62
7
  6
CONTINUOUS
 10
2.4611209777
 20
-27.9131652544
 11
2.3546465625
 21
-27.9746422473
  0
LWPOLYLINE
  5
2C2
100
AcDbEntity
  8
ASSI
100
AcDbPolyline
 62
7
  6
CONTINUOUS
 90
4
 70
0
 10
30.6329652937
 20
-38.8447527769
 10
30.6317925667
 20
-38.9148414608
 10
30.6245797505
 20
-38.9628563217
 10
30.6170254516
 20
-38.9871634737
  0
LWPOLYLINE
  5
2C3
100
AcDbEntity
  8
ASSI
100
AcDbPolyline
 62
7
  6
CONTINUOUS
 90
5
 70
0
 10
30.63292499
 20
-3.1314858947
 10
30.3664020179
 20
-12.1933007462
 10
30.2766282877
 20
-21.2131452791
 10
30.3662990109
 20
-30.1182936575
 10
30.6329657806
 20
-38.8447462732
  0
LINE
  5
2C4
100
AcDbEntity
  8
ASSI
100
AcDbLine
 62
7
  6
CONTINUOUS
 10
30.63292499
 20
-3.1314858947
 11
30.6329271633
 21
-3.1314303415
  0
LINE
  5
2C5
100
AcDbEntity
  8
ASSI
100
AcDbLine
 62
250
  6
CONTINUOUS
 10
50.5737245321
 20
5.9507364948
 11
-50.0167064599
 21
64.0303906554
  0
LINE
  5
2C6
100
AcDbEntity
  8
ASSI
100
AcDbLine
 62
250
  6
CONTINUOUS
 10
50.7712290385
 20
6.2649086891
 11
-49.8192019535
 21
64.3445628497
  0
LINE
  5
2C7
100
AcDbEntity
  8
ASSI
100
AcDbLine
 62
7
  6
CONTINUOUS
 10
30.5088181604
 20
-2.5762964033
 11
30.5413611239
 21
-2.6542621525
  0
LWPOLYLINE
  5
2C8
100
AcDbEntity
  8
ASSI
100
AcDbPolyline
 62
7
  6
CONTINUOUS
 90
5
 70
0
 10
30.5413611239
 20
-2.6542621525
 10
30.591168493
 20
-2.8060230888
 10
30.6214221909
 20
-2.9487931825
 10
30.6331627332
 20
-3.0754035351
 10
30.6329265347
 20
-3.1314303171
  0
LINE
  5
2C9
100
AcDbEntity
  8
ASSI
100
AcDbLine
 62
7
  6
CONTINUOUS
 10
-48.2441228777
 20
65.4551729283
 11
52.5205315719
 21
7.2749243268
  0
LINE
  5
2CA
100
AcDbEntity
  8
ASSI
100
AcDbLine
 62
7
  6
CONTINUOUS
 10
-45.624790599
 20
65.0044356174
 11
53.8609973648
 21
7.5625884858
  0
LINE
  5
2CB
100
AcDbEntity
  8
ASSI
100
AcDbLine
 62
7
  6
CONTINUOUS
 10
30.6170254516
 20
-38.9871634737
 11
30.6157246777
 21
-38.9899738907
  0
LINE
  5
2CC
100
AcDbEntity
  8
ASSI
100
AcDbLine
 62
7
  6
CONTINUOUS
 10
-45.6796182406
 20
65.031191205
 11
-45.624790599
 21
65.0044356174
  0
LINE
  5
2CD
100
AcDbEntity
  8
ASSI
100
AcDbLine
 62
250
  6
CONTINUOUS
 10
30.2398744698
 20
-38.9263511957
 11
30.6271153242
 21
-38.6532948554
  0
LINE
  5
2CE
100
AcDbEntity
  8
ASSI
100
AcDbLine
 62
7
  6
CONTINUOUS
 10
53.3647249063
 20
-31.2126779126
 11
53.7923547128
 21
-31.0598125944
  0
LWPOLYLINE
  5
2CF
100
AcDbEntity
  8
ASSI
100
AcDbPolyline
 62
7
  6
CONTINUOUS
 90
3
 70
0
 10
-45.6796200718
 20
65.0312056171
 10
-46.176528872
 20
65.1977456718
 10
-46.732951914
 20
65.3128082702
  0
LINE
  5
2D0
100
AcDbEntity
  8
ASSI
100
AcDbLine
 62
7
  6
CONTINUOUS
 10
53.2266692879
 20
-65.7997643191
 11
53.2266692879
 21
6.0518579269
  0
LINE
  5
2D1
100
AcDbEntity
  8
ASSI
100
AcDbLine
 62
7
  6
CONTINUOUS
 10
53.3647249063
 20
-26.4427794619
 11
53.3647249063
 21
-32.1580713994
  0
LINE
  5
2D2
100
AcDbEntity
  8
ASSI
100
AcDbLine
 62
7
  6
CONTINUOUS
 10
54.1459081134
 20
7.0691084934
 11
54.1459081034
 21
-24.9727949985
  0
LINE
  5
2D3
100
AcDbEntity
  8
ASSI
100
AcDbLine
 62
7
  6
CONTINUOUS
 10
54.1459081034
 20
-31.263949891
 11
54.1459081263
 21
-63.305853251
  0
LINE
  5
2D4
100
AcDbEntity
  8
ASSI
100
AcDbLine
 62
7
  6
CONTINUOUS
 10
54.1459081263
 20
-63.305853251
 11
54.1416668437
 21
-63.3666871459
  0
LINE
  5
2D5
100
AcDbEntity
  8
ASSI
100
AcDbLine
 62
7
  6
CONTINUOUS
 10
-46.732951914
 20
65.3128082702
 11
-47.173736845
 21
65.3462400852
  0
LWPOLYLINE
  5
2D6
100
AcDbEntity
  8
ASSI
100
AcDbPolyline
 62
7
  6
CONTINUOUS
 90
4
 70
0
 10
-47.1737707713
 20
65.3462405347
 10
-47.5019200744
 20
65.3347584054
 10
-47.8748386852
 20
65.2797823773
 10
-47.9190274762
 20
65.2674669179
  0
LWPOLYLINE
  5
2D7
100
AcDbEntity
  8
ASSI
100
AcDbPolyline
 62
7
  6
CONTINUOUS
 90
4
 70
0
 10
53.6674711717
 20
-64.8182280872
 10
53.8612187814
 20
-64.4140966477
 10
54.0390074228
 20
-63.8743592867
 10
54.1416784498
 20
-63.366695968
  0
LWPOLYLINE
  5
2D8
100
AcDbEntity
  8
ASSI
100
AcDbPolyline
 62
7
  6
CONTINUOUS
 90
4
 70
0
 10
53.2266692879
 20
-65.4238657095
 10
53.2635477103
 20
-65.3875592351
 10
53.4969568185
 20
-65.0916706863
 10
53.6674530328
 20
-64.818259524
  0
LINE
  5
2D9
100
AcDbEntity
  8
ASSI
100
AcDbLine
 62
250
  6
CONTINUOUS
 10
51.3815647608
 20
-66.6529076456
 11
53.2266692879
 21
-65.7997643191
  0
LINE
  5
2DA
100
AcDbEntity
  8
ASSI
100
AcDbLine
 62
7
  6
CONTINUOUS
 10
51.214276986
 20
-67.0935066441
 11
52.9930048106
 21
-66.2710547181
  0
ARC
  5
2DB
100
AcDbEntity
  8
ASSI
100
AcDbCircle
 62
250
  6
CONTINUOUS
 10
395.0191635744
 20
26.7695007827
 40
447.635189272
100
AcDbArc
 50
177.6302158268
 51
182.3535137031
  0
ARC
  5
2DC
100
AcDbEntity
  8
ASSI
100
AcDbCircle
 62
250
  6
CONTINUOUS
 10
477.9356539579
 20
-21.1915017788
 40
447.5126373922
100
AcDbArc
 50
177.7131948584
 51
182.2868051416
  0
ARC
  5
2DD
100
AcDbEntity
  8
ASSI
100
AcDbCircle
 62
7
  6
CONTINUOUS
 10
141.5410974714
 20
-16.4945296418
 40
140.2734304623
100
AcDbArc
 50
183.796116852
 51
184.0432551452
  0
ARC
  5
2DE
100
AcDbEntity
  8
ASSI
100
AcDbCircle
 62
7
  6
CONTINUOUS
 10
135.8276716384
 20
-13.865643418
 40
139.2333987921
100
AcDbArc
 50
183.640458099
 51
184.5461640299
  0
ARC
  5
2DF
100
AcDbEntity
  8
ASSI
100
AcDbCircle
 62
7
  6
CONTINUOUS
 10
135.4144327787
 20
-13.6270444794
 40
139.2333987921
100
AcDbArc
 50
183.640458099
 51
184.5461640299
  0
ARC
  5
2E0
100
AcDbEntity
  8
ASSI
100
AcDbCircle
 62
7
  6
CONTINUOUS
 10
140.0872868316
 20
-16.337059976
 40
139.2150384424
100
AcDbArc
 50
183.6510394402
 51
184.5461878729
  0
ARC
  5
2E1
100
AcDbEntity
  8
ASSI
100
AcDbCircle
 62
7
  6
CONTINUOUS
 10
135.2891627719
 20
-13.5733043016
 40
139.0017706565
100
AcDbArc
 50
183.6961814709
 51
184.5505564261
  0
ARC
  5
2E2
100
AcDbEntity
  8
ASSI
100
AcDbCircle
 62
7
  6
CONTINUOUS
 10
139.9744506741
 20
-16.2823718603
 40
138.9958801737
100
AcDbArc
 50
183.6995820544
 51
184.5505637652
  0
ARC
  5
2E3
100
AcDbEntity
  8
ASSI
100
AcDbCircle
 62
7
  6
CONTINUOUS
 10
139.5692746096
 20
-16.6465782737
 40
138.2826774573
100
AcDbArc
 50
184.1910007012
 51
184.5470283358
  0
ARC
  5
2E4
100
AcDbEntity
  8
ASSI
100
AcDbCircle
 62
250
  6
CONTINUOUS
 10
49.2538085139
 20
-62.5721828948
 40
4.9468081584
100
AcDbArc
 50
350.7651855739
 51
351.4708869253
  0
ARC
  5
2E5
100
AcDbEntity
  8
ASSI
100
AcDbCircle
 62
250
  6
CONTINUOUS
 10
-47.435102669
 20
60.401531555
 40
4.9461051003
100
AcDbArc
 50
68.5303960818
 51
69.2364320014
  0
ARC
  5
2E6
100
AcDbEntity
  8
ASSI
100
AcDbCircle
 62
250
  6
CONTINUOUS
 10
-47.0652718969
 20
62.1675764919
 40
3.1311637373
100
AcDbArc
 50
90.0077979012
 51
91.9459231837
  0
ARC
  5
2E7
100
AcDbEntity
  8
ASSI
100
AcDbCircle
 62
250
  6
CONTINUOUS
 10
50.9696004075
 20
-63.1354465796
 40
3.1303283658
100
AcDbArc
 50
328.0669159581
 51
329.993003507
  0
ARC
  5
2E8
100
AcDbEntity
  8
ASSI
100
AcDbCircle
 62
250
  6
CONTINUOUS
 10
28.6515826937
 20
-3.4319330849
 40
2.1475519749
100
AcDbArc
 50
24.0992472427
 51
24.7836551752
  0
ARC
  5
2E9
100
AcDbEntity
  8
ASSI
100
AcDbCircle
 62
7
  6
CONTINUOUS
 10
-29.6660716371
 20
6.9552441209
 40
0.5035379838
100
AcDbArc
 50
97.9574419644
 51
117.3181502243
  0
ARC
  5
2EA
100
AcDbEntity
  8
ASSI
100
AcDbCircle
 62
7
  6
CONTINUOUS
 10
-29.6672837218
 20
6.9583139062
 40
0.5003569993
100
AcDbArc
 50
60.0074994929
 51
97.8640016635
  0
ARC
  5
2EB
100
AcDbEntity
  8
ASSI
100
AcDbCircle
 62
250
  6
CONTINUOUS
 10
30.8637386658
 20
-39.2348792336
 40
0.3498993815
100
AcDbArc
 50
135.230550156
 51
142.8006461438
  0
ARC
  5
2EC
100
AcDbEntity
  8
ASSI
100
AcDbCircle
 62
250
  6
CONTINUOUS
 10
30.50778912
 20
-38.7844069665
 40
0.2254135841
100
AcDbArc
 50
293.2552143018
 51
299.926086265
  0
SPLINE
  5
2ED
100
AcDbEntity
  8
ASSI
100
AcDbSpline
 62
7
  6
CONTINUOUS
 70
0
 71
3
 72
11
 73
7
 74
0
 42
0.0000001
 43
0.0000001
 44
0.0000000001
 40
0.0
 40
0.0
 40
0.0
 40
0.0
 40
0.290172936
 40
0.5580176212
 40
0.79534979
 40
1.0
 40
1.0
 40
1.0
 40
1.0
 10
1.8529549493
 20
-26.5215043642
 30
0.0
 10
1.8736684097
 20
-26.5329708841
 30
0.0
 10
1.9143456651
 20
-26.5535967279
 30
0.0
 10
1.9754136249
 20
-26.5761037807
 30
0.0
 10
2.0329385066
 20
-26.5863387448
 30
0.0
 10
2.0699696463
 20
-26.5785607457
 30
0.0
 10
2.0844484221
 20
-26.5702435936
 30
0.0
  0
SPLINE
  5
2EE
100
AcDbEntity
  8
ASSI
100
AcDbSpline
 62
7
  6
CONTINUOUS
 70
0
 71
3
 72
9
 73
5
 74
0
 42
0.0000001
 43
0.0000001
 44
0.0000000001
 40
0.0
 40
0.0
 40
0.0
 40
0.0
 40
0.5004492333
 40
1.0
 40
1.0
 40
1.0
 40
1.0
 10
2.5650615225
 20
-27.5303985821
 30
0.0
 10
2.5966580242
 20
-27.642681897
 30
0.0
 10
2.65875705
 20
-27.8673360692
 30
0.0
 10
2.7202152352
 20
-28.0921724048
 30
0.0
 10
2.7521343289
 20
-28.2041467019
 30
0.0
  0
SPLINE
  5
2EF
100
AcDbEntity
  8
ASSI
100
AcDbSpline
 62
7
  6
CONTINUOUS
 70
0
 71
3
 72
9
 73
5
 74
0
 42
0.0000001
 43
0.0000001
 44
0.0000000001
 40
0.0
 40
0.0
 40
0.0
 40
0.0
 40
0.2466434662
 40
1.0
 40
1.0
 40
1.0
 40
1.0
 10
2.2951794745
 20
-26.9627634726
 30
0.0
 10
2.2977829747
 20
-26.9653355517
 30
0.0
 10
2.3082224416
 20
-26.9758812397
 30
0.0
 10
2.3182130724
 20
-26.9868685336
 30
0.0
 10
2.3255026479
 20
-26.9953432369
 30
0.0
  0
SPLINE
  5
2F0
100
AcDbEntity
  8
ASSI
100
AcDbSpline
 62
7
  6
CONTINUOUS
 70
0
 71
3
 72
11
 73
7
 74
0
 42
0.0000001
 43
0.0000001
 44
0.0000000001
 40
0.0
 40
0.0
 40
0.0
 40
0.0
 40
0.2625874831
 40
0.5187008553
 40
0.7635376797
 40
1.0
 40
1.0
 40
1.0
 40
1.0
 10
2.3255026479
 20
-26.9953432369
 30
0.0
 10
2.3592123983
 20
-27.0345334658
 30
0.0
 10
2.4159694635
 20
-27.1204452264
 30
0.0
 10
2.479246129
 20
-27.2570400531
 30
0.0
 10
2.5274468709
 20
-27.3941773762
 30
0.0
 10
2.5524519666
 20
-27.4855884712
 30
0.0
 10
2.5650615225
 20
-27.5303985821
 30
0.0
  0
LINE
  5
2F1
100
AcDbEntity
  8
ASSI
100
AcDbLine
 62
7
  6
CONTINUOUS
 10
2.2951794745
 20
-26.9627634726
 11
2.2942452373
 21
-26.9497953613
  0
SPLINE
  5
2F2
100
AcDbEntity
  8
ASSI
100
AcDbSpline
 62
7
  6
CONTINUOUS
 70
0
 71
3
 72
14
 73
10
 74
0
 42
0.0000001
 43
0.0000001
 44
0.0000000001
 40
0.0
 40
0.0
 40
0.0
 40
0.0
 40
0.142518877
 40
0.2883709622
 40
0.4320345156
 40
0.5686682006
 40
0.6948320047
 40
0.8097216586
 40
1.0
 40
1.0
 40
1.0
 40
1.0
 10
2.1760939433
 20
-25.814245514
 30
0.0
 10
2.2148198051
 20
-25.8512107568
 30
0.0
 10
2.2850613191
 20
-25.9343916863
 30
0.0
 10
2.3757085711
 20
-26.0692666547
 30
0.0
 10
2.4488799206
 20
-26.2121400654
 30
0.0
 10
2.5013970865
 20
-26.3558955618
 30
0.0
 10
2.5313364933
 20
-26.4953013029
 30
0.0
 10
2.5445352283
 20
-26.656129538
 30
0.0
 10
2.5266412048
 20
-26.7757387145
 30
0.0
 10
2.4918256863
 20
-26.8381630127
 30
0.0
  0
SPLINE
  5
2F3
100
AcDbEntity
  8
ASSI
100
AcDbSpline
 62
7
  6
CONTINUOUS
 70
0
 71
3
 72
9
 73
5
 74
0
 42
0.0000001
 43
0.0000001
 44
0.0000000001
 40
0.0
 40
0.0
 40
0.0
 40
0.0
 40
0.2583552008
 40
1.0
 40
1.0
 40
1.0
 40
1.0
 10
2.4918256863
 20
-26.8381630127
 30
0.0
 10
2.4885797644
 20
-26.8439829576
 30
0.0
 10
2.4752182136
 20
-26.8660377204
 30
0.0
 10
2.4582924132
 20
-26.8860724583
 30
0.0
 10
2.44382845
 20
-26.8985920147
 30
0.0
  0
SPLINE
  5
2F4
100
AcDbEntity
  8
ASSI
100
AcDbSpline
 62
7
  6
CONTINUOUS
 70
0
 71
3
 72
8
 73
4
 74
0
 42
0.0000001
 43
0.0000001
 44
0.0000000001
 40
0.0
 40
0.0
 40
0.0
 40
0.0
 40
1.0
 40
1.0
 40
1.0
 40
1.0
 10
2.44382845
 20
-26.8985920147
 30
0.0
 10
2.4339154625
 20
-26.9071723881
 30
0.0
 10
2.4230419408
 20
-26.9147067436
 30
0.0
 10
2.4116915885
 20
-26.9212687275
 30
0.0
  0
SPLINE
  5
2F5
100
AcDbEntity
  8
ASSI
100
AcDbSpline
 62
7
  6
CONTINUOUS
 70
0
 71
3
 72
11
 73
7
 74
0
 42
0.0000001
 43
0.0000001
 44
0.0000000001
 40
0.0
 40
0.0
 40
0.0
 40
0.0
 40
0.2312458148
 40
0.4718691039
 40
0.7261521732
 40
1.0
 40
1.0
 40
1.0
 40
1.0
 10
1.1547994732
 20
-25.2022099994
 30
0.0
 10
1.2399018523
 20
-25.2377768532
 30
0.0
 10
1.412435059
 20
-25.3131593889
 30
0.0
 10
1.67035802
 20
-25.4455562581
 30
0.0
 10
1.9309619171
 20
-25.6077012483
 30
0.0
 10
2.0971039121
 20
-25.738804505
 30
0.0
 10
2.1760939433
 20
-25.814245514
 30
0.0
  0
SPLINE
  5
2F6
100
AcDbEntity
  8
ASSI
100
AcDbSpline
 62
7
  6
CONTINUOUS
 70
0
 71
3
 72
9
 73
5
 74
0
 42
0.0000001
 43
0.0000001
 44
0.0000000001
 40
0.0
 40
0.0
 40
0.0
 40
0.0
 40
0.4999847816
 40
1.0
 40
1.0
 40
1.0
 40
1.0
 10
53.8609973648
 20
7.5625884858
 30
0.0
 10
53.9459381645
 20
7.5135447625
 30
0.0
 10
54.0884132182
 20
7.3649055548
 30
0.0
 10
54.145908187
 20
7.1671972163
 30
0.0
 10
54.1459081134
 20
7.0691084934
 30
0.0
  0
SPLINE
  5
2F7
100
AcDbEntity
  8
ASSI
100
AcDbSpline
 62
250
  6
CONTINUOUS
 70
0
 71
3
 72
9
 73
5
 74
0
 42
0.0000001
 43
0.0000001
 44
0.0000000001
 40
0.0
 40
0.0
 40
0.0
 40
0.0
 40
0.2439630597
 40
1.0
 40
1.0
 40
1.0
 40
1.0
 10
51.3815647608
 20
-66.6529076456
 30
0.0
 10
51.1445892977
 20
-65.3331447336
 30
0.0
 10
50.2682739109
 20
-59.9066142973
 30
0.0
 10
49.763777328
 20
-54.4217744501
 30
0.0
 10
49.5682949809
 20
-50.2710451364
 30
0.0
  0
SPLINE
  5
2F8
100
AcDbEntity
  8
ASSI
100
AcDbSpline
 62
250
  6
CONTINUOUS
 70
0
 71
3
 72
9
 73
5
 74
0
 42
0.0000001
 43
0.0000001
 44
0.0000000001
 40
0.0
 40
0.0
 40
0.0
 40
0.0
 40
0.245544339
 40
1.0
 40
1.0
 40
1.0
 40
1.0
 10
49.5682949809
 20
-50.2710451364
 30
0.0
 10
49.4258385211
 20
-47.2462021673
 30
0.0
 10
48.9951117525
 20
-34.9205200358
 30
0.0
 10
49.1509766719
 20
-22.575729923
 30
0.0
 10
49.5682949809
 20
-13.2807072352
 30
0.0
  0
SPLINE
  5
2F9
100
AcDbEntity
  8
ASSI
100
AcDbSpline
 62
250
  6
CONTINUOUS
 70
0
 71
3
 72
9
 73
5
 74
0
 42
0.0000001
 43
0.0000001
 44
0.0000000001
 40
0.0
 40
0.0
 40
0.0
 40
0.0
 40
0.2449458894
 40
1.0
 40
1.0
 40
1.0
 40
1.0
 10
49.5682949809
 20
-13.2807072352
 30
0.0
 10
49.6355381895
 20
-11.7829970431
 30
0.0
 10
49.9956868346
 20
-5.6725642699
 30
0.0
 10
50.6901728891
 20
0.4171452109
 30
0.0
 10
51.3815647608
 20
4.9865279512
 30
0.0
  0
SPLINE
  5
2FA
100
AcDbEntity
  8
ASSI
100
AcDbSpline
 62
250
  6
CONTINUOUS
 70
0
 71
3
 72
9
 73
5
 74
0
 42
0.0000001
 43
0.0000001
 44
0.0000000001
 40
0.0
 40
0.0
 40
0.0
 40
0.0
 40
0.2607204997
 40
1.0
 40
1.0
 40
1.0
 40
1.0
 10
50.5737245321
 20
-66.9301478421
 30
0.0
 10
50.5807526813
 20
-66.9342060349
 30
0.0
 10
50.6079440316
 20
-66.9493558009
 30
0.0
 10
50.636102773
 20
-66.9628117672
 30
0.0
 10
50.6574298479
 20
-66.9714555066
 30
0.0
  0
SPLINE
  5
2FB
100
AcDbEntity
  8
ASSI
100
AcDbSpline
 62
250
  6
CONTINUOUS
 70
0
 71
3
 72
15
 73
11
 74
0
 42
0.0000001
 43
0.0000001
 44
0.0000000001
 40
0.0
 40
0.0
 40
0.0
 40
0.0
 40
0.1487362475
 40
0.2766544839
 40
0.3876232344
 40
0.48990754
 40
0.5945789695
 40
0.7113437602
 40
0.8458466563
 40
1.0
 40
1.0
 40
1.0
 40
1.0
 10
50.6574298479
 20
-66.9714555066
 30
0.0
 10
50.6832876545
 20
-66.9819355252
 30
0.0
 10
50.7329755306
 20
-66.9979867692
 30
0.0
 10
50.8059644666
 20
-67.0056676778
 30
0.0
 10
50.8700867558
 20
-66.9940303526
 30
0.0
 10
50.9222050619
 20
-66.9620003438
 30
0.0
 10
50.95855733
 20
-66.9116660525
 30
0.0
 10
50.9785759665
 20
-66.8470673917
 30
0.0
 10
50.983353154
 20
-66.7706633197
 30
0.0
 10
50.9771643096
 20
-66.7166217187
 30
0.0
 10
50.9720555408
 20
-66.6881595662
 30
0.0
  0
SPLINE
  5
2FC
100
AcDbEntity
  8
ASSI
100
AcDbSpline
 62
250
  6
CONTINUOUS
 70
0
 71
3
 72
11
 73
7
 74
0
 42
0.0000001
 43
0.0000001
 44
0.0000000001
 40
0.0
 40
0.0
 40
0.0
 40
0.0
 40
0.2109477116
 40
0.4430008394
 40
0.7050470324
 40
1.0
 40
1.0
 40
1.0
 40
1.0
 10
30.5967885953
 20
-38.9915068875
 30
0.0
 10
30.5725111566
 20
-39.0019418342
 30
0.0
 10
30.5173276762
 20
-39.0147707908
 30
0.0
 10
30.4282683146
 20
-39.0083195598
 30
0.0
 10
30.3333255501
 20
-38.9784885571
 30
0.0
 10
30.2713000124
 20
-38.9457825145
 30
0.0
 10
30.2398736399
 20
-38.9263517801
 30
0.0
  0
SPLINE
  5
2FD
100
AcDbEntity
  8
ASSI
100
AcDbSpline
 62
250
  6
CONTINUOUS
 70
0
 71
3
 72
11
 73
7
 74
0
 42
0.0000001
 43
0.0000001
 44
0.0000000001
 40
0.0
 40
0.0
 40
0.0
 40
0.0
 40
0.20999682
 40
0.4358199463
 40
0.6965935411
 40
1.0
 40
1.0
 40
1.0
 40
1.0
 10
51.2143297449
 20
-67.0934807432
 30
0.0
 10
51.2461745806
 20
-67.0787458105
 30
0.0
 10
51.3063541772
 20
-67.0332411984
 30
0.0
 10
51.3639041425
 20
-66.9291581633
 30
0.0
 10
51.3896757312
 20
-66.7982077123
 30
0.0
 10
51.3869510075
 20
-66.7033172627
 30
0.0
 10
51.3815647608
 20
-66.6529076456
 30
0.0
  0
SPLINE
  5
2FE
100
AcDbEntity
  8
ASSI
100
AcDbSpline
 62
250
  6
CONTINUOUS
 70
0
 71
3
 72
9
 73
5
 74
0
 42
0.0000001
 43
0.0000001
 44
0.0000000001
 40
0.0
 40
0.0
 40
0.0
 40
0.0
 40
0.2457003809
 40
1.0
 40
1.0
 40
1.0
 40
1.0
 10
-33.2250806864
 20
-1.6863779716
 30
0.0
 10
-33.3575995143
 20
1.232813441
 30
0.0
 10
-33.7581708656
 20
13.1199578273
 30
0.0
 10
-33.6136116376
 20
25.0242672513
 30
0.0
 10
-33.2250812651
 20
33.9869904659
 30
0.0
  0
SPLINE
  5
2FF
100
AcDbEntity
  8
ASSI
100
AcDbSpline
 62
250
  6
CONTINUOUS
 70
0
 71
3
 72
11
 73
7
 74
0
 42
0.0000001
 43
0.0000001
 44
0.0000000001
 40
0.0
 40
0.0
 40
0.0
 40
0.0
 40
0.2247952417
 40
0.4861559178
 40
0.7556589687
 40
1.0
 40
1.0
 40
1.0
 40
1.0
 10
-50.5974267624
 20
-8.043213449
 30
0.0
 10
-50.5851150598
 20
-8.1185801824
 30
0.0
 10
-50.5307814159
 20
-8.2768863419
 30
0.0
 10
-50.3995848015
 20
-8.49893722
 30
0.0
 10
-50.226928605
 20
-8.699466062
 30
0.0
 10
-50.0885882724
 20
-8.8089853106
 30
0.0
 10
-50.0167064599
 20
-8.8504936815
 30
0.0
  0
SPLINE
  5
300
100
AcDbEntity
  8
ASSI
100
AcDbSpline
 62
7
  6
CONTINUOUS
 70
0
 71
3
 72
11
 73
7
 74
0
 42
0.0000001
 43
0.0000001
 44
0.0000000001
 40
0.0
 40
0.0
 40
0.0
 40
0.0
 40
0.2102994493
 40
0.4430986959
 40
0.705911941
 40
1.0
 40
1.0
 40
1.0
 40
1.0
 10
2.0844484221
 20
-26.5702435936
 30
0.0
 10
2.0981050155
 20
-26.562398734
 30
0.0
 10
2.1220963513
 20
-26.5374513467
 30
0.0
 10
2.1425814369
 20
-26.4880617517
 30
0.0
 10
2.1523820817
 20
-26.429367883
 30
0.0
 10
2.1520307923
 20
-26.387455679
 30
0.0
 10
2.1502514779
 20
-26.3655032781
 30
0.0
  0
SPLINE
  5
301
100
AcDbEntity
  8
ASSI
100
AcDbSpline
 62
7
  6
CONTINUOUS
 70
0
 71
3
 72
8
 73
4
 74
0
 42
0.0000001
 43
0.0000001
 44
0.0000000001
 40
0.0
 40
0.0
 40
0.0
 40
0.0
 40
1.0
 40
1.0
 40
1.0
 40
1.0
 10
2.4116915885
 20
-26.9212687275
 30
0.0
 10
2.4053266351
 20
-26.9249485006
 30
0.0
 10
2.3987896596
 20
-26.9283404866
 30
0.0
 10
2.3921434733
 20
-26.9314839828
 30
0.0
  0
SPLINE
  5
302
100
AcDbEntity
  8
ASSI
100
AcDbSpline
 62
7
  6
CONTINUOUS
 70
0
 71
3
 72
11
 73
7
 74
0
 42
0.0000001
 43
0.0000001
 44
0.0000000001
 40
0.0
 40
0.0
 40
0.0
 40
0.0
 40
0.2343842128
 40
0.4705068869
 40
0.7134841551
 40
1.0
 40
1.0
 40
1.0
 40
1.0
 10
2.3921434733
 20
-26.9314839828
 30
0.0
 10
2.3849041697
 20
-26.9349080102
 30
0.0
 10
2.3700818505
 20
-26.9411949683
 30
0.0
 10
2.3473718096
 20
-26.9498860819
 30
0.0
 10
2.3219348331
 20
-26.9572757341
 30
0.0
 10
2.303209368
 20
-26.9537293979
 30
0.0
 10
2.2942452373
 20
-26.9497953613
 30
0.0
  0
SPLINE
  5
303
100
AcDbEntity
  8
ASSI
100
AcDbSpline
 62
7
  6
CONTINUOUS
 70
0
 71
3
 72
10
 73
6
 74
0
 42
0.0000001
 43
0.0000001
 44
0.0000000001
 40
0.0
 40
0.0
 40
0.0
 40
0.0
 40
0.5207413626
 40
0.7652368875
 40
1.0
 40
1.0
 40
1.0
 40
1.0
 10
1.8982983426
 20
-25.9554644615
 30
0.0
 10
1.8460441088
 20
-25.9188618727
 30
0.0
 10
1.7663265966
 20
-25.8689521107
 30
0.0
 10
1.6564771513
 20
-25.8145262784
 30
0.0
 10
1.602205671
 20
-25.7920213669
 30
0.0
 10
1.575432859
 20
-25.7815110288
 30
0.0
  0
SPLINE
  5
304
100
AcDbEntity
  8
ASSI
100
AcDbSpline
 62
250
  6
CONTINUOUS
 70
0
 71
3
 72
11
 73
7
 74
0
 42
0.0000001
 43
0.0000001
 44
0.0000000001
 40
0.0
 40
0.0
 40
0.0
 40
0.0
 40
0.2791547501
 40
0.5334300797
 40
0.769765107
 40
1.0
 40
1.0
 40
1.0
 40
1.0
 10
-49.8192019535
 20
64.3445628497
 30
0.0
 10
-49.8669516074
 20
64.3712409907
 30
0.0
 10
-49.9635442713
 20
64.4136780531
 30
0.0
 10
-50.1139762881
 20
64.4394168294
 30
0.0
 10
-50.2563777227
 20
64.4216510197
 30
0.0
 10
-50.3402558604
 20
64.380669718
 30
0.0
 10
-50.3771271741
 20
64.3546779973
 30
0.0
  0
SPLINE
  5
305
100
AcDbEntity
  8
ASSI
100
AcDbSpline
 62
7
  6
CONTINUOUS
 70
0
 71
3
 72
11
 73
7
 74
0
 42
0.0000001
 43
0.0000001
 44
0.0000000001
 40
0.0
 40
0.0
 40
0.0
 40
0.0
 40
0.231371748
 40
0.490880088
 40
0.7548346023
 40
1.0
 40
1.0
 40
1.0
 40
1.0
 10
2.1502514779
 20
-26.3655032781
 30
0.0
 10
2.1471724253
 20
-26.3275152769
 30
0.0
 10
2.1270170087
 20
-26.2481212351
 30
0.0
 10
2.0726794611
 20
-26.13546533
 30
0.0
 10
1.9944872003
 20
-26.0348257754
 30
0.0
 10
1.9313754792
 20
-25.9786340449
 30
0.0
 10
1.8982983426
 20
-25.9554644615
 30
0.0
  0
SPLINE
  5
306
100
AcDbEntity
  8
ASSI
100
AcDbSpline
 62
250
  6
CONTINUOUS
 70
0
 71
3
 72
11
 73
7
 74
0
 42
0.0000001
 43
0.0000001
 44
0.0000000001
 40
0.0
 40
0.0
 40
0.0
 40
0.0
 40
0.2437245053
 40
0.5070496853
 40
0.7667005964
 40
1.0
 40
1.0
 40
1.0
 40
1.0
 10
51.3815647608
 20
4.9865279512
 30
0.0
 10
51.3930653627
 20
5.1060764367
 30
0.0
 10
51.3747139617
 20
5.3593226152
 30
0.0
 10
51.2536494041
 20
5.7207730663
 30
0.0
 10
51.0536311734
 20
6.0393023588
 30
0.0
 10
50.8699500895
 20
6.2059961079
 30
0.0
 10
50.7712290385
 20
6.2649086891
 30
0.0
  0
SPLINE
  5
307
100
AcDbEntity
  8
ASSI
100
AcDbSpline
 62
250
  6
CONTINUOUS
 70
0
 71
3
 72
11
 73
7
 74
0
 42
0.0000001
 43
0.0000001
 44
0.0000000001
 40
0.0
 40
0.0
 40
0.0
 40
0.0
 40
0.2459794376
 40
0.5070714977
 40
0.7644116438
 40
1.0
 40
1.0
 40
1.0
 40
1.0
 10
-50.0167064599
 20
64.0303906554
 30
0.0
 10
-50.0121866755
 20
64.0612682384
 30
0.0
 10
-49.9947990887
 20
64.1238387035
 30
0.0
 10
-49.9508860125
 20
64.2109094345
 30
0.0
 10
-49.8923718602
 20
64.287269427
 30
0.0
 10
-49.8444000524
 20
64.3284889914
 30
0.0
 10
-49.8192019538
 20
64.3445628498
 30
0.0
  0
SPLINE
  5
308
100
AcDbEntity
  8
ASSI
100
AcDbSpline
 62
250
  6
CONTINUOUS
 70
0
 71
3
 72
11
 73
7
 74
0
 42
0.0000001
 43
0.0000001
 44
0.0000000001
 40
0.0
 40
0.0
 40
0.0
 40
0.0
 40
0.3146559746
 40
0.5821354381
 40
0.8053036157
 40
1.0
 40
1.0
 40
1.0
 40
1.0
 10
-50.5974267144
 20
63.683093105
 30
0.0
 10
-50.61156197
 20
63.6910787342
 30
0.0
 10
-50.636792158
 20
63.7076673134
 30
0.0
 10
-50.6667428845
 20
63.7369492142
 30
0.0
 10
-50.6847498097
 20
63.7681241053
 30
0.0
 10
-50.6873004833
 20
63.7903960173
 30
0.0
 10
-50.6859539617
 20
63.8003509341
 30
0.0
  0
SPLINE
  5
309
100
AcDbEntity
  8
ASSI
100
AcDbSpline
 62
250
  6
CONTINUOUS
 70
0
 71
3
 72
11
 73
7
 74
0
 42
0.0000001
 43
0.0000001
 44
0.0000000001
 40
0.0
 40
0.0
 40
0.0
 40
0.0
 40
0.2959796839
 40
0.5572281439
 40
0.7878045642
 40
1.0
 40
1.0
 40
1.0
 40
1.0
 10
-52.23319489
 20
45.278702185
 30
0.0
 10
-52.2466755602
 20
45.2864426508
 30
0.0
 10
-52.2710144248
 20
45.3030247406
 30
0.0
 10
-52.2999880891
 20
45.3330816868
 30
0.0
 10
-52.3179209755
 20
45.3660513038
 30
0.0
 10
-52.3215393082
 20
45.3896418845
 30
0.0
 10
-52.3210870993
 20
45.4007772295
 30
0.0
  0
SPLINE
  5
30A
100
AcDbEntity
  8
ASSI
100
AcDbSpline
 62
250
  6
CONTINUOUS
 70
0
 71
3
 72
10
 73
6
 74
0
 42
0.0000001
 43
0.0000001
 44
0.0000000001
 40
0.0
 40
0.0
 40
0.0
 40
0.0
 40
0.5403953916
 40
0.776598005
 40
1.0
 40
1.0
 40
1.0
 40
1.0
 10
-52.2331948868
 20
8.2636876103
 30
0.0
 10
-52.2574640191
 20
8.2777704506
 30
0.0
 10
-52.2902226845
 20
8.3040475996
 30
0.0
 10
-52.3155986024
 20
8.3500135511
 30
0.0
 10
-52.3205407177
 20
8.3738320539
 30
0.0
 10
-52.321053185
 20
8.3854205221
 30
0.0
  0
SPLINE
  5
30B
100
AcDbEntity
  8
ASSI
100
AcDbSpline
 62
250
  6
CONTINUOUS
 70
0
 71
3
 72
9
 73
5
 74
0
 42
0.0000001
 43
0.0000001
 44
0.0000000001
 40
0.0
 40
0.0
 40
0.0
 40
0.0
 40
0.5272729655
 40
1.0
 40
1.0
 40
1.0
 40
1.0
 10
-50.5974267192
 20
-8.0432134151
 30
0.0
 10
-50.6199467862
 20
-8.0300153782
 30
0.0
 10
-50.6594700217
 20
-7.9978602574
 30
0.0
 10
-50.680947691
 20
-7.9506988168
 30
0.0
 10
-50.6847251154
 20
-7.9276034537
 30
0.0
  0
SPLINE
  5
30C
100
AcDbEntity
  8
ASSI
100
AcDbSpline
 62
7
  6
CONTINUOUS
 70
0
 71
3
 72
11
 73
7
 74
0
 42
0.0000001
 43
0.0000001
 44
0.0000000001
 40
0.0
 40
0.0
 40
0.0
 40
0.0
 40
0.2940883077
 40
0.5568989576
 40
0.7896940848
 40
1.0
 40
1.0
 40
1.0
 40
1.0
 10
2.2566220413
 20
-26.3040862375
 30
0.0
 10
2.2584026478
 20
-26.3260372682
 30
0.0
 10
2.258756615
 20
-26.3679466489
 30
0.0
 10
2.2489612805
 20
-26.4266379963
 30
0.0
 10
2.2284791725
 20
-26.4760240279
 30
0.0
 10
2.2044925538
 20
-26.5009755388
 30
0.0
 10
2.1908349578
 20
-26.5088177871
 30
0.0
  0
SPLINE
  5
30D
100
AcDbEntity
  8
ASSI
100
AcDbSpline
 62
7
  6
CONTINUOUS
 70
0
 71
3
 72
11
 73
7
 74
0
 42
0.0000001
 43
0.0000001
 44
0.0000000001
 40
0.0
 40
0.0
 40
0.0
 40
0.0
 40
0.2451913553
 40
0.5091059626
 40
0.7686212975
 40
1.0
 40
1.0
 40
1.0
 40
1.0
 10
2.004652216
 20
-25.894057068
 30
0.0
 10
2.0377323824
 20
-25.9172284506
 30
0.0
 10
2.1008391348
 20
-25.9734228754
 30
0.0
 10
2.1790051522
 20
-26.0740738993
 30
0.0
 10
2.2333810971
 20
-26.1867021164
 30
0.0
 10
2.2535405419
 20
-26.2660980067
 30
0.0
 10
2.2566220413
 20
-26.3040862375
 30
0.0
  0
SPLINE
  5
30E
100
AcDbEntity
  8
ASSI
100
AcDbSpline
 62
7
  6
CONTINUOUS
 70
0
 71
3
 72
10
 73
6
 74
0
 42
0.0000001
 43
0.0000001
 44
0.0000000001
 40
0.0
 40
0.0
 40
0.0
 40
0.0
 40
0.2347604912
 40
0.4792569378
 40
1.0
 40
1.0
 40
1.0
 40
1.0
 10
1.6817875072
 20
-25.7201031879
 30
0.0
 10
1.7085598776
 20
-25.7306136513
 30
0.0
 10
1.7628313372
 20
-25.7531178795
 30
0.0
 10
1.8726794167
 20
-25.8075460816
 30
0.0
 10
1.9523976519
 20
-25.8574547584
 30
0.0
 10
2.004652216
 20
-25.894057068
 30
0.0
  0
SPLINE
  5
30F
100
AcDbEntity
  8
ASSI
100
AcDbSpline
 62
250
  6
CONTINUOUS
 70
0
 71
3
 72
9
 73
5
 74
0
 42
0.0000001
 43
0.0000001
 44
0.0000000001
 40
0.0
 40
0.0
 40
0.0
 40
0.0
 40
0.5348895626
 40
1.0
 40
1.0
 40
1.0
 40
1.0
 10
-50.0167064599
 20
-8.8504936815
 30
0.0
 10
-50.0131712919
 20
-8.8705622503
 30
0.0
 10
-50.0012364551
 20
-8.9078068902
 30
0.0
 10
-49.9734533076
 20
-8.9365224945
 30
0.0
 10
-49.9581046605
 20
-8.9453762545
 30
0.0
  0
SPLINE
  5
310
100
AcDbEntity
  8
ASSI
100
AcDbSpline
 62
7
  6
CONTINUOUS
 70
0
 71
3
 72
9
 73
5
 74
0
 42
0.0000001
 43
0.0000001
 44
0.0000000001
 40
0.0
 40
0.0
 40
0.0
 40
0.0
 40
0.540847373
 40
1.0
 40
1.0
 40
1.0
 40
1.0
 10
2.4006488356
 20
-26.8883592572
 30
0.0
 10
2.4097005152
 20
-26.8923318023
 30
0.0
 10
2.4286253031
 20
-26.8958625585
 30
0.0
 10
2.4464208355
 20
-26.8905993169
 30
0.0
 10
2.4543705525
 20
-26.8879111683
 30
0.0
  0
SPLINE
  5
311
100
AcDbEntity
  8
ASSI
100
AcDbSpline
 62
250
  6
CONTINUOUS
 70
0
 71
3
 72
9
 73
5
 74
0
 42
0.0000001
 43
0.0000001
 44
0.0000000001
 40
0.0
 40
0.0
 40
0.0
 40
0.0
 40
0.5348825492
 40
1.0
 40
1.0
 40
1.0
 40
1.0
 10
50.5737245321
 20
-66.9301478421
 30
0.0
 10
50.5772576286
 20
-66.9502045573
 30
0.0
 10
50.5891825582
 20
-66.9874267121
 30
0.0
 10
50.6169334681
 20
-67.0161372379
 30
0.0
 10
50.632267471
 20
-67.0249964348
 30
0.0
  0
SPLINE
  5
312
100
AcDbEntity
  8
ASSI
100
AcDbSpline
 62
7
  6
CONTINUOUS
 70
0
 71
3
 72
10
 73
6
 74
0
 42
0.0000001
 43
0.0000001
 44
0.0000000001
 40
0.0
 40
0.0
 40
0.0
 40
0.0
 40
0.5019889171
 40
0.7509022211
 40
1.0
 40
1.0
 40
1.0
 40
1.0
 10
2.2291508131
 20
-27.1450845997
 30
0.0
 10
2.2730904602
 20
-27.2719487998
 30
0.0
 10
2.3282663508
 20
-27.4652097609
 30
0.0
 10
2.4039034908
 20
-27.7217109327
 30
0.0
 10
2.4422357526
 20
-27.8492762503
 30
0.0
 10
2.4611209777
 20
-27.9131652544
 30
0.0
  0
SPLINE
  5
313
100
AcDbEntity
  8
ASSI
100
AcDbSpline
 62
7
  6
CONTINUOUS
 70
0
 71
3
 72
11
 73
7
 74
0
 42
0.0000001
 43
0.0000001
 44
0.0000000001
 40
0.0
 40
0.0
 40
0.0
 40
0.0
 40
0.2310111343
 40
0.4873322234
 40
0.7487411997
 40
1.0
 40
1.0
 40
1.0
 40
1.0
 10
1.9843535317
 20
-26.8189789631
 30
0.0
 10
2.0120607935
 20
-26.8349767888
 30
0.0
 10
2.0664504816
 20
-26.8760794628
 30
0.0
 10
2.1345350485
 20
-26.9551338321
 30
0.0
 10
2.1894507375
 20
-27.0468158272
 30
0.0
 10
2.2177621002
 20
-27.1122026799
 30
0.0
 10
2.2291508131
 20
-27.1450845997
 30
0.0
  0
SPLINE
  5
314
100
AcDbEntity
  8
ASSI
100
AcDbSpline
 62
250
  6
CONTINUOUS
 70
0
 71
3
 72
11
 73
7
 74
0
 42
0.0000001
 43
0.0000001
 44
0.0000000001
 40
0.0
 40
0.0
 40
0.0
 40
0.0
 40
0.2304832009
 40
0.4863113269
 40
0.7496476391
 40
1.0
 40
1.0
 40
1.0
 40
1.0
 10
50.9720555887
 20
-66.6881595286
 30
0.0
 10
51.0007551175
 20
-66.7044813954
 30
0.0
 10
51.0683729111
 20
-66.7267379862
 30
0.0
 10
51.1767752165
 20
-66.7305020227
 30
0.0
 10
51.2855983227
 20
-66.7072447977
 30
0.0
 10
51.352435253
 20
-66.6738260742
 30
0.0
 10
51.3815647608
 20
-66.6529076456
 30
0.0
  0
SPLINE
  5
315
100
AcDbEntity
  8
ASSI
100
AcDbSpline
 62
250
  6
CONTINUOUS
 70
0
 71
3
 72
11
 73
7
 74
0
 42
0.0000001
 43
0.0000001
 44
0.0000000001
 40
0.0
 40
0.0
 40
0.0
 40
0.0
 40
0.2341749793
 40
0.4937439205
 40
0.7567102334
 40
1.0
 40
1.0
 40
1.0
 40
1.0
 10
49.1556930758
 20
-50.2769856028
 30
0.0
 10
49.1846585451
 20
-50.2936261576
 30
0.0
 10
49.2521382975
 20
-50.3176938331
 30
0.0
 10
49.3604381414
 20
-50.3279992512
 30
0.0
 10
49.469663518
 20
-50.3142415692
 30
0.0
 10
49.5382134646
 20
-50.2883531767
 30
0.0
 10
49.5682949809
 20
-50.2710451364
 30
0.0
  0
SPLINE
  5
316
100
AcDbEntity
  8
ASSI
100
AcDbSpline
 62
250
  6
CONTINUOUS
 70
0
 71
3
 72
11
 73
7
 74
0
 42
0.0000001
 43
0.0000001
 44
0.0000000001
 40
0.0
 40
0.0
 40
0.0
 40
0.0
 40
0.2373292082
 40
0.4998794602
 40
0.7624946699
 40
1.0
 40
1.0
 40
1.0
 40
1.0
 10
49.1556930796
 20
-13.261971024
 30
0.0
 10
49.1848172508
 20
-13.2788801044
 30
0.0
 10
49.2519962417
 20
-13.3045253772
 30
0.0
 10
49.3597281562
 20
-13.3202595358
 30
0.0
 10
49.4684676632
 20
-13.3143498177
 30
0.0
 10
49.5377283016
 20
-13.2949021766
 30
0.0
 10
49.5682949809
 20
-13.2807072352
 30
0.0
  0
SPLINE
  5
317
100
AcDbEntity
  8
ASSI
100
AcDbSpline
 62
250
  6
CONTINUOUS
 70
0
 71
3
 72
11
 73
7
 74
0
 42
0.0000001
 43
0.0000001
 44
0.0000000001
 40
0.0
 40
0.0
 40
0.0
 40
0.0
 40
0.2414342659
 40
0.5077203884
 40
0.7698852893
 40
1.0
 40
1.0
 40
1.0
 40
1.0
 10
50.9720555839
 20
5.038146986
 30
0.0
 10
51.0013208192
 20
5.0208847876
 30
0.0
 10
51.067903464
 20
4.993092222
 30
0.0
 10
51.1743111419
 20
4.9702263215
 30
0.0
 10
51.2814475703
 20
4.9658800367
 30
0.0
 10
51.3507314938
 20
4.9766150846
 30
0.0
 10
51.3815600436
 20
4.9865309762
 30
0.0
  0
SPLINE
  5
318
100
AcDbEntity
  8
ASSI
100
AcDbSpline
 62
250
  6
CONTINUOUS
 70
0
 71
3
 72
11
 73
7
 74
0
 42
0.0000001
 43
0.0000001
 44
0.0000000001
 40
0.0
 40
0.0
 40
0.0
 40
0.0
 40
0.2459794421
 40
0.5070715314
 40
0.7644116895
 40
1.0
 40
1.0
 40
1.0
 40
1.0
 10
50.5737245321
 20
5.9507364948
 30
0.0
 10
50.5782443411
 20
5.9816140716
 30
0.0
 10
50.595631965
 20
6.0441845216
 30
0.0
 10
50.639545058
 20
6.1312552367
 30
0.0
 10
50.698059188
 20
6.2076152299
 30
0.0
 10
50.7460309605
 20
6.2488348148
 30
0.0
 10
50.7712290385
 20
6.2649086891
 30
0.0
  0
SPLINE
  5
319
100
AcDbEntity
  8
ASSI
100
AcDbSpline
 62
7
  6
CONTINUOUS
 70
0
 71
3
 72
11
 73
7
 74
0
 42
0.0000001
 43
0.0000001
 44
0.0000000001
 40
0.0
 40
0.0
 40
0.0
 40
0.0
 40
0.2512772162
 40
0.5126968512
 40
0.7690141999
 40
1.0
 40
1.0
 40
1.0
 40
1.0
 10
2.1227226239
 20
-27.2065349078
 30
0.0
 10
2.111335053
 20
-27.1736498619
 30
0.0
 10
2.0830248033
 20
-27.1082580197
 30
0.0
 10
2.0281125909
 20
-27.0165698287
 30
0.0
 10
1.9600310973
 20
-26.9375152242
 30
0.0
 10
1.9056424795
 20
-26.8964179082
 30
0.0
 10
1.8779382325
 20
-26.8804218232
 30
0.0
  0
SPLINE
  5
31A
100
AcDbEntity
  8
ASSI
100
AcDbSpline
 62
7
  6
CONTINUOUS
 70
0
 71
3
 72
10
 73
6
 74
0
 42
0.0000001
 43
0.0000001
 44
0.0000000001
 40
0.0
 40
0.0
 40
0.0
 40
0.0
 40
0.249097961
 40
0.498011314
 40
1.0
 40
1.0
 40
1.0
 40
1.0
 10
2.3546465625
 20
-27.9746422473
 30
0.0
 10
2.3357653338
 20
-27.9107509558
 30
0.0
 10
2.2974409649
 20
-27.7831810879
 30
0.0
 10
2.2218198725
 20
-27.5266709548
 30
0.0
 10
2.1666552548
 20
-27.3334036311
 30
0.0
 10
2.1227226239
 20
-27.2065349078
 30
0.0
  0
SPLINE
  5
31B
100
AcDbEntity
  8
ASSI
100
AcDbSpline
 62
250
  6
CONTINUOUS
 70
0
 71
3
 72
9
 73
5
 74
0
 42
0.0000001
 43
0.0000001
 44
0.0000000001
 40
0.0
 40
0.0
 40
0.0
 40
0.0
 40
0.5093318892
 40
1.0
 40
1.0
 40
1.0
 40
1.0
 10
-52.2331967965
 20
8.2637332818
 30
0.0
 10
-52.1158313396
 20
5.5037727308
 30
0.0
 10
-51.7392786712
 20
0.0899631422
 30
0.0
 10
-51.0439477116
 20
-5.2929121024
 30
0.0
 10
-50.6175323073
 20
-7.9197555942
 30
0.0
  0
LINE
  5
31C
100
AcDbEntity
  8
ASSI
100
AcDbLine
 62
250
  6
CONTINUOUS
 10
-50.6175323073
 20
-7.9197555942
 11
-50.5974267624
 21
-8.043213449
  0
SPLINE
  5
31D
100
AcDbEntity
  8
ASSI
100
AcDbSpline
 62
250
  6
CONTINUOUS
 70
0
 71
3
 72
10
 73
6
 74
0
 42
0.0000001
 43
0.0000001
 44
0.0000000001
 40
0.0
 40
0.0
 40
0.0
 40
0.0
 40
0.5364074332
 40
0.7754460783
 40
1.0
 40
1.0
 40
1.0
 40
1.0
 10
-33.225081129
 20
33.9869905287
 30
0.0
 10
-33.2222787477
 20
34.0547212499
 30
0.0
 10
-33.2047175111
 20
34.1539503702
 30
0.0
 10
-33.1450374539
 20
34.2663124444
 30
0.0
 10
-33.1056734057
 20
34.3107000965
 30
0.0
 10
-33.0841945112
 20
34.3292465893
 30
0.0
  0
SPLINE
  5
31E
100
AcDbEntity
  8
ASSI
100
AcDbSpline
 62
250
  6
CONTINUOUS
 70
0
 71
3
 72
11
 73
7
 74
0
 42
0.0000001
 43
0.0000001
 44
0.0000000001
 40
0.0
 40
0.0
 40
0.0
 40
0.0
 40
0.2877328087
 40
0.5462997274
 40
0.7802850353
 40
1.0
 40
1.0
 40
1.0
 40
1.0
 10
-29.6548351868
 20
7.3737735352
 30
0.0
 10
-29.6338537931
 20
7.3850419228
 30
0.0
 10
-29.5921903758
 20
7.4033533368
 30
0.0
 10
-29.528473685
 20
7.4168945661
 30
0.0
 10
-29.4688265913
 20
7.4141337125
 30
0.0
 10
-29.4329117532
 20
7.4007610005
 30
0.0
 10
-29.417162943
 20
7.3916667876
 30
0.0
  0
SPLINE
  5
31F
100
AcDbEntity
  8
ASSI
100
AcDbSpline
 62
250
  6
CONTINUOUS
 70
0
 71
3
 72
10
 73
6
 74
0
 42
0.0000001
 43
0.0000001
 44
0.0000000001
 40
0.0
 40
0.0
 40
0.0
 40
0.0
 40
0.2280186105
 40
0.4762904283
 40
1.0
 40
1.0
 40
1.0
 40
1.0
 10
-32.9460910726
 20
-3.2593504084
 30
0.0
 10
-33.0195166703
 20
-3.2169574869
 30
0.0
 10
-33.1645078653
 20
-3.1134748132
 30
0.0
 10
-33.4323769197
 20
-2.8545249027
 30
0.0
 10
-33.5985618342
 20
-2.6154540692
 30
0.0
 10
-33.6894548846
 20
-2.4432354732
 30
0.0
  0
SPLINE
  5
320
100
AcDbEntity
  8
ASSI
100
AcDbSpline
 62
250
  6
CONTINUOUS
 70
0
 71
3
 72
10
 73
6
 74
0
 42
0.0000001
 43
0.0000001
 44
0.0000000001
 40
0.0
 40
0.0
 40
0.0
 40
0.0
 40
0.2296399137
 40
0.4782597368
 40
1.0
 40
1.0
 40
1.0
 40
1.0
 10
-32.6115510124
 20
-2.6367260695
 30
0.0
 10
-32.6580580186
 20
-2.6116534756
 30
0.0
 10
-32.7500224418
 20
-2.5500624338
 30
0.0
 10
-32.920196035
 20
-2.3945256781
 30
0.0
 10
-33.026328864
 20
-2.2492009908
 30
0.0
 10
-33.0841945112
 20
-2.1440280637
 30
0.0
  0
SPLINE
  5
321
100
AcDbEntity
  8
ASSI
100
AcDbSpline
 62
250
  6
CONTINUOUS
 70
0
 71
3
 72
9
 73
5
 74
0
 42
0.0000001
 43
0.0000001
 44
0.0000000001
 40
0.0
 40
0.0
 40
0.0
 40
0.0
 40
0.5272845802
 40
1.0
 40
1.0
 40
1.0
 40
1.0
 10
-33.0841945112
 20
-2.1440280637
 30
0.0
 10
-33.125021733
 20
-2.0698246528
 30
0.0
 10
-33.1898315995
 20
-1.9217157947
 30
0.0
 10
-33.2218015539
 20
-1.7622355071
 30
0.0
 10
-33.2250802769
 20
-1.6863777357
 30
0.0
  0
SPLINE
  5
322
100
AcDbEntity
  8
ASSI
100
AcDbSpline
 62
250
  6
CONTINUOUS
 70
0
 71
3
 72
11
 73
7
 74
0
 42
0.0000001
 43
0.0000001
 44
0.0000000001
 40
0.0
 40
0.0
 40
0.0
 40
0.0
 40
0.2842209638
 40
0.5420090538
 40
0.7774154343
 40
1.0
 40
1.0
 40
1.0
 40
1.0
 10
30.7794132388
 20
-39.0480077726
 30
0.0
 10
30.7580437838
 20
-39.0356098651
 30
0.0
 10
30.7190888391
 20
-39.0085525728
 30
0.0
 10
30.6722777479
 20
-38.9590106904
 30
0.0
 10
30.6418996022
 20
-38.9038332969
 30
0.0
 10
30.633758167
 20
-38.8640843684
 30
0.0
 10
30.6329652995
 20
-38.8447527767
 30
0.0
  0
SPLINE
  5
323
100
AcDbEntity
  8
ASSI
100
AcDbSpline
 62
250
  6
CONTINUOUS
 70
0
 71
3
 72
11
 73
7
 74
0
 42
0.0000001
 43
0.0000001
 44
0.0000000001
 40
0.0
 40
0.0
 40
0.0
 40
0.0
 40
0.2682474415
 40
0.5256138449
 40
0.7688436806
 40
1.0
 40
1.0
 40
1.0
 40
1.0
 10
30.6119569914
 20
-39.5700600289
 30
0.0
 10
30.5817037979
 20
-39.5276313398
 30
0.0
 10
30.5330438143
 20
-39.4361942506
 30
0.0
 10
30.5016644002
 20
-39.2880226585
 30
0.0
 10
30.5162628887
 20
-39.1441039029
 30
0.0
 10
30.5578839788
 20
-39.0591031543
 30
0.0
 10
30.5850309544
 20
-39.0233335203
 30
0.0
  0
SPLINE
  5
324
100
AcDbEntity
  8
ASSI
100
AcDbSpline
 62
250
  6
CONTINUOUS
 70
0
 71
3
 72
11
 73
7
 74
0
 42
0.0000001
 43
0.0000001
 44
0.0000000001
 40
0.0
 40
0.0
 40
0.0
 40
0.0
 40
0.2323706358
 40
0.4933105248
 40
0.7578922962
 40
1.0
 40
1.0
 40
1.0
 40
1.0
 10
29.905301146
 20
-39.5489565624
 30
0.0
 10
29.9026055491
 20
-39.4922635118
 30
0.0
 10
29.9196178311
 20
-39.3707987959
 30
0.0
 10
29.9897557918
 20
-39.1979938433
 30
0.0
 10
30.0967630161
 20
-39.0423418882
 30
0.0
 10
30.1899918078
 20
-38.9581383995
 30
0.0
 10
30.2398473268
 20
-38.9263355237
 30
0.0
  0
SPLINE
  5
325
100
AcDbEntity
  8
ASSI
100
AcDbSpline
 62
250
  6
CONTINUOUS
 70
0
 71
3
 72
11
 73
7
 74
0
 42
0.0000001
 43
0.0000001
 44
0.0000000001
 40
0.0
 40
0.0
 40
0.0
 40
0.0
 40
0.2323706361
 40
0.4933105252
 40
0.7578922965
 40
1.0
 40
1.0
 40
1.0
 40
1.0
 10
-32.9460910726
 20
-3.2593504084
 30
0.0
 10
-32.9487866694
 20
-3.2026573577
 30
0.0
 10
-32.9317743873
 20
-3.0811926417
 30
0.0
 10
-32.8616364266
 20
-2.9083876891
 30
0.0
 10
-32.7546292023
 20
-2.7527357341
 30
0.0
 10
-32.6614004106
 20
-2.6685322454
 30
0.0
 10
-32.6115448918
 20
-2.6367293696
 30
0.0
  0
SPLINE
  5
326
100
AcDbEntity
  8
ASSI
100
AcDbSpline
 62
250
  6
CONTINUOUS
 70
0
 71
3
 72
11
 73
7
 74
0
 42
0.0000001
 43
0.0000001
 44
0.0000000001
 40
0.0
 40
0.0
 40
0.0
 40
0.0
 40
0.1980113152
 40
0.455459978
 40
0.7360621752
 40
1.0
 40
1.0
 40
1.0
 40
1.0
 10
-33.6894517582
 20
-2.4432334862
 30
0.0
 10
-33.6468785529
 20
-2.4298018211
 30
0.0
 10
-33.5513550193
 20
-2.3915894458
 30
0.0
 10
-33.4009674095
 20
-2.3214137988
 30
0.0
 10
-33.2407980361
 20
-2.2373705191
 30
0.0
 10
-33.1346375129
 20
-2.1755890934
 30
0.0
 10
-33.0841924821
 20
-2.1440274622
 30
0.0
  0
SPLINE
  5
327
100
AcDbEntity
  8
ASSI
100
AcDbSpline
 62
250
  6
CONTINUOUS
 70
0
 71
3
 72
11
 73
7
 74
0
 42
0.0000001
 43
0.0000001
 44
0.0000000001
 40
0.0
 40
0.0
 40
0.0
 40
0.0
 40
0.2342290573
 40
0.4938503752
 40
0.7568107979
 40
1.0
 40
1.0
 40
1.0
 40
1.0
 10
-33.9127824385
 20
-1.6955476731
 30
0.0
 10
-33.8645013653
 20
-1.723289618
 30
0.0
 10
-33.7520415969
 20
-1.7634469449
 30
0.0
 10
-33.5715523562
 20
-1.7807788049
 30
0.0
 10
-33.3895141763
 20
-1.7580755516
 30
0.0
 10
-33.2752350586
 20
-1.7151110641
 30
0.0
 10
-33.2250815548
 20
-1.6863523056
 30
0.0
  0
SPLINE
  5
328
100
AcDbEntity
  8
ASSI
100
AcDbSpline
 62
250
  6
CONTINUOUS
 70
0
 71
3
 72
11
 73
7
 74
0
 42
0.0000001
 43
0.0000001
 44
0.0000000001
 40
0.0
 40
0.0
 40
0.0
 40
0.0
 40
0.2372718374
 40
0.4997695639
 40
0.7623915462
 40
1.0
 40
1.0
 40
1.0
 40
1.0
 10
-33.9127799452
 20
34.0174686608
 30
0.0
 10
-33.8642440866
 20
33.9892945769
 30
0.0
 10
-33.7522684542
 20
33.946599698
 30
0.0
 10
-33.572692695
 20
33.9205373337
 30
0.0
 10
-33.3914356541
 20
33.9306200308
 30
0.0
 10
-33.2760132722
 20
33.9632273698
 30
0.0
 10
-33.2250794832
 20
33.9869802736
 30
0.0
  0
SPLINE
  5
329
100
AcDbEntity
  8
ASSI
100
AcDbSpline
 62
250
  6
CONTINUOUS
 70
0
 71
3
 72
11
 73
7
 74
0
 42
0.0000001
 43
0.0000001
 44
0.0000000001
 40
0.0
 40
0.0
 40
0.0
 40
0.0
 40
0.2699711448
 40
0.532651516
 40
0.7767360831
 40
1.0
 40
1.0
 40
1.0
 40
1.0
 10
-33.6894509479
 20
34.571781148
 30
0.0
 10
-33.6553696497
 20
34.5184375788
 30
0.0
 10
-33.5716655266
 20
34.4228054341
 30
0.0
 10
-33.4142214478
 20
34.3257244565
 30
0.0
 10
-33.2437907853
 20
34.287001636
 30
0.0
 10
-33.131853904
 20
34.3075896534
 30
0.0
 10
-33.0841919337
 20
34.3292422359
 30
0.0
  0
SPLINE
  5
32A
100
AcDbEntity
  8
ASSI
100
AcDbSpline
 62
250
  6
CONTINUOUS
 70
0
 71
3
 72
11
 73
7
 74
0
 42
0.0000001
 43
0.0000001
 44
0.0000000001
 40
0.0
 40
0.0
 40
0.0
 40
0.0
 40
0.2927193663
 40
0.5531462819
 40
0.7851453376
 40
1.0
 40
1.0
 40
1.0
 40
1.0
 10
-32.9460910726
 20
34.5718701285
 30
0.0
 10
-32.9473392242
 20
34.5441780127
 30
0.0
 10
-32.9454899066
 20
34.4914725916
 30
0.0
 10
-32.9272068281
 20
34.4186918752
 30
0.0
 10
-32.8936457736
 20
34.3595712797
 30
0.0
 10
-32.86080898
 20
34.3312085676
 30
0.0
 10
-32.8432003023
 20
34.3210146782
 30
0.0
  0
SPLINE
  5
32B
100
AcDbEntity
  8
ASSI
100
AcDbSpline
 62
250
  6
CONTINUOUS
 70
0
 71
3
 72
11
 73
7
 74
0
 42
0.0000001
 43
0.0000001
 44
0.0000000001
 40
0.0
 40
0.0
 40
0.0
 40
0.0
 40
0.2927402536
 40
0.5531621829
 40
0.7851444849
 40
1.0
 40
1.0
 40
1.0
 40
1.0
 10
29.905301146
 20
-1.7177360256
 30
0.0
 10
29.9040521661
 20
-1.7454465163
 30
0.0
 10
29.9059053177
 20
-1.7981851084
 30
0.0
 10
29.9242162865
 20
-1.8710058728
 30
0.0
 10
29.9578277945
 20
-1.9301445175
 30
0.0
 10
29.9907098401
 20
-1.9584948197
 30
0.0
 10
30.0083394302
 20
-1.9686767729
 30
0.0
  0
SPLINE
  5
32C
100
AcDbEntity
  8
ASSI
100
AcDbSpline
 62
250
  6
CONTINUOUS
 70
0
 71
3
 72
12
 73
8
 74
0
 42
0.0000001
 43
0.0000001
 44
0.0000000001
 40
0.0
 40
0.0
 40
0.0
 40
0.0
 40
0.4138489095
 40
0.7205650807
 40
0.9130725623
 40
0.9674905822
 40
1.0
 40
1.0
 40
1.0
 40
1.0
 10
30.6119563953
 20
-2.5550462193
 30
0.0
 10
30.5979446786
 20
-2.5597455375
 30
0.0
 10
30.5733999441
 20
-2.5675985929
 30
0.0
 10
30.5419814064
 20
-2.5760134008
 30
0.0
 10
30.5222719824
 20
-2.5793996807
 30
0.0
 10
30.5123618146
 20
-2.5790609032
 30
0.0
 10
30.5093005507
 20
-2.5773523949
 30
0.0
 10
30.5088242824
 20
-2.5762936583
 30
0.0
  0
SPLINE
  5
32D
100
AcDbEntity
  8
ASSI
100
AcDbSpline
 62
250
  6
CONTINUOUS
 70
0
 71
3
 72
11
 73
7
 74
0
 42
0.0000001
 43
0.0000001
 44
0.0000000001
 40
0.0
 40
0.0
 40
0.0
 40
0.0
 40
0.2957489977
 40
0.556925979
 40
0.7875960849
 40
1.0
 40
1.0
 40
1.0
 40
1.0
 10
30.7794108432
 20
-3.3349942561
 30
0.0
 10
30.7569605565
 20
-3.3221008908
 30
0.0
 10
30.7164205876
 20
-3.294469525
 30
0.0
 10
30.6681555585
 20
-3.2443716266
 30
0.0
 10
30.6382623611
 20
-3.1894013669
 30
0.0
 10
30.6321986796
 20
-3.150065112
 30
0.0
 10
30.6329274082
 20
-3.131485989
 30
0.0
  0
SPLINE
  5
32E
100
AcDbEntity
  8
ASSI
100
AcDbSpline
 62
250
  6
CONTINUOUS
 70
0
 71
3
 72
11
 73
7
 74
0
 42
0.0000001
 43
0.0000001
 44
0.0000000001
 40
0.0
 40
0.0
 40
0.0
 40
0.0
 40
0.2815654214
 40
0.5404485338
 40
0.7783535256
 40
1.0
 40
1.0
 40
1.0
 40
1.0
 10
-33.9127824481
 20
34.0174673562
 30
0.0
 10
-33.9102929365
 20
34.0749362821
 30
0.0
 10
-33.8979295233
 20
34.1851617313
 30
0.0
 10
-33.8538586311
 20
34.338853023
 30
0.0
 10
-33.7858176353
 20
34.4701299769
 30
0.0
 10
-33.723493572
 20
34.5419162441
 30
0.0
 10
-33.6894548846
 20
34.5717791044
 30
0.0
  0
SPLINE
  5
32F
100
AcDbEntity
  8
ASSI
100
AcDbSpline
 62
250
  6
CONTINUOUS
 70
0
 71
3
 72
9
 73
5
 74
0
 42
0.0000001
 43
0.0000001
 44
0.0000000001
 40
0.0
 40
0.0
 40
0.0
 40
0.0
 40
0.2457001063
 40
1.0
 40
1.0
 40
1.0
 40
1.0
 10
-33.9127824481
 20
-1.6955476792
 30
0.0
 10
-34.0454414579
 20
1.2268850479
 30
0.0
 10
-34.4464351125
 20
13.127241023
 30
0.0
 10
-34.3017232789
 20
25.0447791549
 30
0.0
 10
-33.9127824481
 20
34.0174673562
 30
0.0
  0
SPLINE
  5
330
100
AcDbEntity
  8
ASSI
100
AcDbSpline
 62
250
  6
CONTINUOUS
 70
0
 71
3
 72
9
 73
5
 74
0
 42
0.0000001
 43
0.0000001
 44
0.0000000001
 40
0.0
 40
0.0
 40
0.0
 40
0.0
 40
0.5274876045
 40
1.0
 40
1.0
 40
1.0
 40
1.0
 10
-33.6894548846
 20
-2.4432354732
 30
0.0
 10
-33.7539264541
 20
-2.3212237345
 30
0.0
 10
-33.8561575603
 20
-2.0787220385
 30
0.0
 10
-33.9071877174
 20
-1.8190367375
 30
0.0
 10
-33.9127824481
 20
-1.6955476792
 30
0.0
  0
SPLINE
  5
331
100
AcDbEntity
  8
ASSI
100
AcDbSpline
 62
250
  6
CONTINUOUS
 70
0
 71
3
 72
11
 73
7
 74
0
 42
0.0000001
 43
0.0000001
 44
0.0000000001
 40
0.0
 40
0.0
 40
0.0
 40
0.0
 40
0.2204537077
 40
0.454824731
 40
0.7131934741
 40
1.0
 40
1.0
 40
1.0
 40
1.0
 10
-29.8971299756
 20
7.4026427354
 30
0.0
 10
-29.8805425204
 20
7.4112354976
 30
0.0
 10
-29.8431152679
 20
7.4232991307
 30
0.0
 10
-29.7819084809
 20
7.4234865867
 30
0.0
 10
-29.7173967234
 20
7.4068218408
 30
0.0
 10
-29.6757014765
 20
7.3862340773
 30
0.0
 10
-29.6548351867
 20
7.3737735353
 30
0.0
  0
LINE
  5
332
100
AcDbEntity
  8
ASSI
100
AcDbLine
 62
250
  6
CONTINUOUS
 10
-52.2384349394
 20
8.3873560149
 11
-52.2331968686
 21
8.2637333234
  0
SPLINE
  5
333
100
AcDbEntity
  8
ASSI
100
AcDbSpline
 62
250
  6
CONTINUOUS
 70
0
 71
3
 72
11
 73
7
 74
0
 42
0.0000001
 43
0.0000001
 44
0.0000000001
 40
0.0
 40
0.0
 40
0.0
 40
0.0
 40
0.2886491619
 40
0.5490385363
 40
0.7838691067
 40
1.0
 40
1.0
 40
1.0
 40
1.0
 10
30.7794108336
 20
-39.0480092964
 30
0.0
 10
30.7816354753
 20
-39.1022721933
 30
0.0
 10
30.7789224505
 20
-39.2060146945
 30
0.0
 10
30.7496913947
 20
-39.3514748952
 30
0.0
 10
30.6957384801
 20
-39.4752483147
 30
0.0
 10
30.6418996093
 20
-39.5425526065
 30
0.0
 10
30.6119530545
 20
-39.5700625313
 30
0.0
  0
SPLINE
  5
334
100
AcDbEntity
  8
ASSI
100
AcDbSpline
 62
250
  6
CONTINUOUS
 70
0
 71
3
 72
9
 73
5
 74
0
 42
0.0000001
 43
0.0000001
 44
0.0000000001
 40
0.0
 40
0.0
 40
0.0
 40
0.0
 40
0.5220892298
 40
1.0
 40
1.0
 40
1.0
 40
1.0
 10
30.6119530545
 20
-2.5550479537
 30
0.0
 10
30.6690699286
 20
-2.6825501398
 30
0.0
 10
30.7551465582
 20
-2.9379640926
 30
0.0
 10
30.7843917722
 20
-3.207202506
 30
0.0
 10
30.7794108336
 20
-3.3349942611
 30
0.0
  0
SPLINE
  5
335
100
AcDbEntity
  8
ASSI
100
AcDbSpline
 62
250
  6
CONTINUOUS
 70
0
 71
3
 72
9
 73
5
 74
0
 42
0.0000001
 43
0.0000001
 44
0.0000000001
 40
0.0
 40
0.0
 40
0.0
 40
0.0
 40
0.2455441792
 40
1.0
 40
1.0
 40
1.0
 40
1.0
 10
49.1556909423
 20
-50.276939912
 30
0.0
 10
49.013144465
 20
-47.2500885112
 30
0.0
 10
48.5821477953
 20
-34.916214707
 30
0.0
 10
48.7381093028
 20
-22.5632216088
 30
0.0
 10
49.1556909319
 20
-13.2620192288
 30
0.0
  0
SPLINE
  5
336
100
AcDbEntity
  8
ASSI
100
AcDbSpline
 62
250
  6
CONTINUOUS
 70
0
 71
3
 72
9
 73
5
 74
0
 42
0.0000001
 43
0.0000001
 44
0.0000000001
 40
0.0
 40
0.0
 40
0.0
 40
0.0
 40
0.5072370183
 40
1.0
 40
1.0
 40
1.0
 40
1.0
 10
-50.5974267624
 20
63.6830930873
 30
0.0
 10
-51.0157410973
 20
60.5862871455
 30
0.0
 10
-51.7070330126
 20
54.4621398751
 30
0.0
 10
-52.1108777073
 20
48.3119496313
 30
0.0
 10
-52.233196796
 20
45.2786539709
 30
0.0
  0
SPLINE
  5
337
100
AcDbEntity
  8
ASSI
100
AcDbSpline
 62
250
  6
CONTINUOUS
 70
0
 71
3
 72
14
 73
10
 74
0
 42
0.0000001
 43
0.0000001
 44
0.0000000001
 40
0.0
 40
0.0
 40
0.0
 40
0.0
 40
0.2518608402
 40
0.3669198409
 40
0.4801607485
 40
0.5968811317
 40
0.7212208046
 40
0.8554310021
 40
1.0
 40
1.0
 40
1.0
 40
1.0
 10
-50.0167064599
 20
64.0303906554
 30
0.0
 10
-50.0765403547
 20
64.0649408322
 30
0.0
 10
-50.1767900194
 20
64.0998310279
 30
0.0
 10
-50.3095999809
 20
64.0864144579
 30
0.0
 10
-50.3979922699
 20
64.0486327202
 30
0.0
 10
-50.4733792028
 20
63.985317394
 30
0.0
 10
-50.5331889028
 20
63.9003283334
 30
0.0
 10
-50.5760208136
 20
63.7976009784
 30
0.0
 10
-50.5921157593
 20
63.7223953521
 30
0.0
 10
-50.5974267624
 20
63.6830930873
 30
0.0
  0
SPLINE
  5
338
100
AcDbEntity
  8
ASSI
100
AcDbSpline
 62
250
  6
CONTINUOUS
 70
0
 71
3
 72
12
 73
8
 74
0
 42
0.0000001
 43
0.0000001
 44
0.0000000001
 40
0.0
 40
0.0
 40
0.0
 40
0.0
 40
0.1206825646
 40
0.2475608226
 40
0.4446890308
 40
0.6422702548
 40
1.0
 40
1.0
 40
1.0
 40
1.0
 10
50.9720555408
 20
5.03814697
 30
0.0
 10
50.978343203
 20
5.0797002494
 30
0.0
 10
50.9842114218
 20
5.1661208423
 30
0.0
 10
50.9725126564
 20
5.3209138951
 30
0.0
 10
50.9283225113
 20
5.4986737071
 30
0.0
 10
50.8175783753
 20
5.736361353
 30
0.0
 10
50.6816036202
 20
5.8884381204
 30
0.0
 10
50.5737245321
 20
5.9507364948
 30
0.0
  0
SPLINE
  5
339
100
AcDbEntity
  8
ASSI
100
AcDbSpline
 62
250
  6
CONTINUOUS
 70
0
 71
3
 72
9
 73
5
 74
0
 42
0.0000001
 43
0.0000001
 44
0.0000000001
 40
0.0
 40
0.0
 40
0.0
 40
0.0
 40
0.2449455102
 40
1.0
 40
1.0
 40
1.0
 40
1.0
 10
49.1556908597
 20
-13.2620191871
 30
0.0
 10
49.2230485776
 20
-11.7616125269
 30
0.0
 10
49.5838114968
 20
-5.6401683351
 30
0.0
 10
50.2794823934
 20
0.4605192491
 30
0.0
 10
50.9720555408
 20
5.03814697
 30
0.0
  0
SPLINE
  5
33A
100
AcDbEntity
  8
ASSI
100
AcDbSpline
 62
250
  6
CONTINUOUS
 70
0
 71
3
 72
10
 73
6
 74
0
 42
0.0000001
 43
0.0000001
 44
0.0000000001
 40
0.0
 40
0.0
 40
0.0
 40
0.0
 40
0.2280873426
 40
0.4753036476
 40
1.0
 40
1.0
 40
1.0
 40
1.0
 10
29.905301146
 20
-1.7177360256
 30
0.0
 10
29.976717216
 20
-1.7589697594
 30
0.0
 10
30.1167166373
 20
-1.8606904659
 30
0.0
 10
30.3709429509
 20
-2.1190943428
 30
0.0
 10
30.5218170284
 20
-2.3594620474
 30
0.0
 10
30.6013389019
 20
-2.5316941091
 30
0.0
  0
SPLINE
  5
33B
100
AcDbEntity
  8
ASSI
100
AcDbSpline
 62
250
  6
CONTINUOUS
 70
0
 71
3
 72
9
 73
5
 74
0
 42
0.0000001
 43
0.0000001
 44
0.0000000001
 40
0.0
 40
0.0
 40
0.0
 40
0.0
 40
0.491866473
 40
1.0
 40
1.0
 40
1.0
 40
1.0
 10
-47.0656980453
 20
65.2987402002
 30
0.0
 10
-46.8334753443
 20
65.2987930075
 30
0.0
 10
-46.3605459297
 20
65.2468989252
 30
0.0
 10
-45.9059696879
 20
65.1114379193
 30
0.0
 10
-45.6816467136
 20
65.0263934854
 30
0.0
  0
SPLINE
  5
33C
100
AcDbEntity
  8
ASSI
100
AcDbSpline
 62
250
  6
CONTINUOUS
 70
0
 71
3
 72
11
 73
7
 74
0
 42
0.0000001
 43
0.0000001
 44
0.0000000001
 40
0.0
 40
0.0
 40
0.0
 40
0.0
 40
0.2254759758
 40
0.4577382633
 40
0.7130530067
 40
1.0
 40
1.0
 40
1.0
 40
1.0
 10
-33.6894548846
 20
34.5717791044
 30
0.0
 10
-33.6447142475
 20
34.6111371814
 30
0.0
 10
-33.5380254359
 20
34.6751012003
 30
0.0
 10
-33.3479760558
 20
34.7050449282
 30
0.0
 10
-33.1434483963
 20
34.6698484244
 30
0.0
 10
-33.0117622326
 20
34.6097921658
 30
0.0
 10
-32.9460910726
 20
34.5718701285
 30
0.0
  0
SPLINE
  5
33D
100
AcDbEntity
  8
ASSI
100
AcDbSpline
 62
250
  6
CONTINUOUS
 70
0
 71
3
 72
10
 73
6
 74
0
 42
0.0000001
 43
0.0000001
 44
0.0000000001
 40
0.0
 40
0.0
 40
0.0
 40
0.0
 40
0.6205098285
 40
0.8391287006
 40
1.0
 40
1.0
 40
1.0
 40
1.0
 10
53.346063939
 20
7.3222472855
 30
0.0
 10
53.4503370382
 20
7.3766577238
 30
0.0
 10
53.5921606116
 20
7.4488719721
 30
0.0
 10
53.7650802868
 20
7.5265360073
 30
0.0
 10
53.8320775514
 20
7.5529220053
 30
0.0
 10
53.8609973685
 20
7.5625884831
 30
0.0
  0
SPLINE
  5
33E
100
AcDbEntity
  8
ASSI
100
AcDbSpline
 62
250
  6
CONTINUOUS
 70
0
 71
3
 72
9
 73
5
 74
0
 42
0.0000001
 43
0.0000001
 44
0.0000000001
 40
0.0
 40
0.0
 40
0.0
 40
0.0
 40
0.2805678417
 40
1.0
 40
1.0
 40
1.0
 40
1.0
 10
52.8138519004
 20
7.0331453929
 30
0.0
 10
52.863288018
 20
7.0607977272
 30
0.0
 10
53.0397554851
 20
7.1588733461
 30
0.0
 10
53.2172939206
 20
7.2550527872
 30
0.0
 10
53.346063939
 20
7.3222472855
 30
0.0
  0
SPLINE
  5
33F
100
AcDbEntity
  8
ASSI
100
AcDbSpline
 62
250
  6
CONTINUOUS
 70
0
 71
3
 72
9
 73
5
 74
0
 42
0.0000001
 43
0.0000001
 44
0.0000000001
 40
0.0
 40
0.0
 40
0.0
 40
0.0
 40
0.2482869198
 40
1.0
 40
1.0
 40
1.0
 40
1.0
 10
-47.8058336041
 20
65.2051390689
 30
0.0
 10
-47.7544987981
 20
65.2187249681
 30
0.0
 10
-47.5461473782
 20
65.2673160542
 30
0.0
 10
-47.332273304
 20
65.2914629474
 30
0.0
 10
-47.1715944372
 20
65.2969345518
 30
0.0
  0
SPLINE
  5
340
100
AcDbEntity
  8
ASSI
100
AcDbSpline
 62
250
  6
CONTINUOUS
 70
0
 71
3
 72
9
 73
5
 74
0
 42
0.0000001
 43
0.0000001
 44
0.0000000001
 40
0.0
 40
0.0
 40
0.0
 40
0.0
 40
0.50815045
 40
1.0
 40
1.0
 40
1.0
 40
1.0
 10
54.1365007694
 20
-63.3660514573
 30
0.0
 10
54.0979930919
 20
-63.6028657903
 30
0.0
 10
53.9880239572
 20
-64.0643005764
 30
0.0
 10
53.7965060687
 20
-64.4998486871
 30
0.0
 10
53.6803531492
 20
-64.7009417891
 30
0.0
  0
SPLINE
  5
341
100
AcDbEntity
  8
ASSI
100
AcDbSpline
 62
250
  6
CONTINUOUS
 70
0
 71
3
 72
9
 73
5
 74
0
 42
0.0000001
 43
0.0000001
 44
0.0000000001
 40
0.0
 40
0.0
 40
0.0
 40
0.0
 40
0.252307973
 40
1.0
 40
1.0
 40
1.0
 40
1.0
 10
53.6262049512
 20
-64.7911663554
 30
0.0
 10
53.5976310914
 20
-64.8370057124
 30
0.0
 10
53.4796723088
 20
-65.0156868792
 30
0.0
 10
53.3420981473
 20
-65.1815864816
 30
0.0
 10
53.2292660249
 20
-65.2951280022
 30
0.0
  0
SPLINE
  5
342
100
AcDbEntity
  8
ASSI
100
AcDbSpline
 62
250
  6
CONTINUOUS
 70
0
 71
3
 72
9
 73
5
 74
0
 42
0.0000001
 43
0.0000001
 44
0.0000000001
 40
0.0
 40
0.0
 40
0.0
 40
0.0
 40
0.280567166
 40
1.0
 40
1.0
 40
1.0
 40
1.0
 10
53.1639286961
 20
6.4268168994
 30
0.0
 10
53.2125911165
 20
6.4558071497
 30
0.0
 10
53.3857488786
 20
6.5596084493
 30
0.0
 10
53.5577978797
 20
6.6652885571
 30
0.0
 10
53.6803627302
 20
6.7432247948
 30
0.0
  0
SPLINE
  5
343
100
AcDbEntity
  8
ASSI
100
AcDbSpline
 62
250
  6
CONTINUOUS
 70
0
 71
3
 72
10
 73
6
 74
0
 42
0.0000001
 43
0.0000001
 44
0.0000000001
 40
0.0
 40
0.0
 40
0.0
 40
0.0
 40
0.6205029154
 40
0.8391230024
 40
1.0
 40
1.0
 40
1.0
 40
1.0
 10
53.6803627302
 20
6.7432247948
 30
0.0
 10
53.7796128593
 20
6.8063364382
 30
0.0
 10
53.9130523474
 20
6.8930751493
 30
0.0
 10
54.066747066
 20
7.0040365018
 30
0.0
 10
54.1230842512
 20
7.0488854862
 30
0.0
 10
54.1459080998
 20
7.0691086119
 30
0.0
  0
SPLINE
  5
344
100
AcDbEntity
  8
ASSI
100
AcDbSpline
 62
250
  6
CONTINUOUS
 70
0
 71
3
 72
12
 73
8
 74
0
 42
0.0000001
 43
0.0000001
 44
0.0000000001
 40
0.0
 40
0.0
 40
0.0
 40
0.0
 40
0.1071022731
 40
0.2146285857
 40
0.4417631463
 40
0.7010723291
 40
1.0
 40
1.0
 40
1.0
 40
1.0
 10
30.6119530545
 20
-39.5700625314
 30
0.0
 10
30.5921213572
 20
-39.5883356062
 30
0.0
 10
30.5485160153
 20
-39.6210235816
 30
0.0
 10
30.4469706131
 20
-39.6681894796
 30
0.0
 10
30.2947694207
 20
-39.6870091062
 30
0.0
 10
30.0987902643
 20
-39.646745962
 30
0.0
 10
29.97047809
 20
-39.5865973867
 30
0.0
 10
29.905301146
 20
-39.5489565624
 30
0.0
  0
SPLINE
  5
345
100
AcDbEntity
  8
ASSI
100
AcDbSpline
 62
250
  6
CONTINUOUS
 70
0
 71
3
 72
9
 73
5
 74
0
 42
0.0000001
 43
0.0000001
 44
0.0000000001
 40
0.0
 40
0.0
 40
0.0
 40
0.0
 40
0.243962173
 40
1.0
 40
1.0
 40
1.0
 40
1.0
 10
50.9720555408
 20
-66.6881595662
 30
0.0
 10
50.7346745798
 20
-65.3660345704
 30
0.0
 10
49.8568602793
 20
-59.9297740613
 30
0.0
 10
49.3515054052
 20
-54.4351087225
 30
0.0
 10
49.1556908704
 20
-50.2769398706
 30
0.0
  0
SPLINE
  5
346
100
AcDbEntity
  8
0
100
AcDbSpline
 62
250
  6
CONTINUOUS
 70
0
 71
3
 72
11
 73
7
 74
0
 42
0.0000001
 43
0.0000001
 44
0.0000000001
 40
0.0
 40
0.0
 40
0.0
 40
0.0
 40
0.25
 40
0.5
 40
0.75
 40
1.0
 40
1.0
 40
1.0
 40
1.0
 10
-33.1820515831
 20
38.8771256631
 30
0.0
 10
-33.1762894049
 20
38.9597051631
 30
0.0
 10
-33.1647462025
 20
39.1243377229
 30
0.0
 10
-33.1475444758
 20
39.374445204
 30
0.0
 10
-33.1299469802
 20
39.6134974404
 30
0.0
 10
-33.1182907009
 20
39.7749713589
 30
0.0
 10
-33.1124531383
 20
39.855445098
 30
0.0
  0
SPLINE
  5
347
100
AcDbEntity
  8
0
100
AcDbSpline
 62
250
  6
CONTINUOUS
 70
0
 71
3
 72
23
 73
19
 74
0
 42
0.0000001
 43
0.0000001
 44
0.0000000001
 40
0.0
 40
0.0
 40
0.0
 40
0.0
 40
0.125
 40
0.25
 40
0.3125
 40
0.375
 40
0.4375
 40
0.46875
 40
0.484375
 40
0.5
 40
0.515625
 40
0.53125
 40
0.5625
 40
0.625
 40
0.6875
 40
0.75
 40
0.875
 40
1.0
 40
1.0
 40
1.0
 40
1.0
 10
-32.4414722854
 20
37.3060018748
 30
0.0
 10
-32.4388583255
 20
37.3471620741
 30
0.0
 10
-32.4336302404
 20
37.4294845317
 30
0.0
 10
-32.4270959602
 20
37.5323773084
 30
0.0
 10
-32.4218668013
 20
37.6147131498
 30
0.0
 10
-32.4179496404
 20
37.6764063477
 30
0.0
 10
-32.4146703682
 20
37.7280039483
 30
0.0
 10
-32.4124042579
 20
37.7637560778
 30
0.0
 10
-32.411063463
 20
37.7847576412
 30
0.0
 10
-32.4101870968
 20
37.7988981143
 30
0.0
 10
-32.408816748
 20
37.8191954974
 30
0.0
 10
-32.4071619229
 20
37.8441110756
 30
0.0
 10
-32.4041856981
 20
37.888713944
 30
0.0
 10
-32.3999759203
 20
37.9519091976
 30
0.0
 10
-32.3949062211
 20
38.0279674246
 30
0.0
 10
-32.3881528999
 20
38.1293001496
 30
0.0
 10
-32.3797090801
 20
38.2559930811
 30
0.0
 10
-32.3729546851
 20
38.3573391901
 30
0.0
 10
-32.369577405
 20
38.4080132741
 30
0.0
  0
SPLINE
  5
348
100
AcDbEntity
  8
0
100
AcDbSpline
 62
250
  6
CONTINUOUS
 70
0
 71
3
 72
13
 73
9
 74
0
 42
0.0000001
 43
0.0000001
 44
0.0000000001
 40
0.0
 40
0.0
 40
0.0
 40
0.0
 40
0.25
 40
0.375
 40
0.5
 40
0.625
 40
0.75
 40
1.0
 40
1.0
 40
1.0
 40
1.0
 10
-33.3115566776
 20
36.8037167199
 30
0.0
 10
-33.3068013766
 20
36.8858038867
 30
0.0
 10
-33.2996746366
 20
37.0090897328
 30
0.0
 10
-33.2901474708
 20
37.1728504774
 30
0.0
 10
-33.2830642106
 20
37.2972219949
 30
0.0
 10
-33.275744917
 20
37.4156998678
 30
0.0
 10
-33.2660686776
 20
37.5757383104
 30
0.0
 10
-33.2587928639
 20
37.6953018547
 30
0.0
 10
-33.2539464623
 20
37.7751142815
 30
0.0
  0
SPLINE
  5
349
100
AcDbEntity
  8
0
100
AcDbSpline
 62
250
  6
CONTINUOUS
 70
0
 71
3
 72
13
 73
9
 74
0
 42
0.0000001
 43
0.0000001
 44
0.0000000001
 40
0.0
 40
0.0
 40
0.0
 40
0.0
 40
0.25
 40
0.375
 40
0.5
 40
0.625
 40
0.75
 40
1.0
 40
1.0
 40
1.0
 40
1.0
 10
-34.1723961467
 20
38.3054156187
 30
0.0
 10
-34.177384298
 20
38.2232130714
 30
0.0
 10
-34.1848920659
 20
38.0997384208
 30
0.0
 10
-34.1948002594
 20
37.9357888718
 30
0.0
 10
-34.2024868137
 20
37.8111184139
 30
0.0
 10
-34.2092028132
 20
37.6929394814
 30
0.0
 10
-34.2184980248
 20
37.5330898432
 30
0.0
 10
-34.2253928107
 20
37.4137151034
 30
0.0
 10
-34.230006362
 20
37.3340180571
 30
0.0
  0
SPLINE
  5
34A
100
AcDbEntity
  8
0
100
AcDbSpline
 62
250
  6
CONTINUOUS
 70
0
 71
3
 72
23
 73
19
 74
0
 42
0.0000001
 43
0.0000001
 44
0.0000000001
 40
0.0
 40
0.0
 40
0.0
 40
0.0
 40
0.125
 40
0.25
 40
0.3125
 40
0.375
 40
0.4375
 40
0.46875
 40
0.484375
 40
0.5
 40
0.515625
 40
0.53125
 40
0.5625
 40
0.625
 40
0.6875
 40
0.75
 40
0.875
 40
1.0
 40
1.0
 40
1.0
 40
1.0
 10
-34.9129754443
 20
39.876539407
 30
0.0
 10
-34.9157367221
 20
39.8353074636
 30
0.0
 10
-34.9212593791
 20
39.7528415488
 30
0.0
 10
-34.9281621932
 20
39.6497692954
 30
0.0
 10
-34.9336855096
 20
39.5672901986
 30
0.0
 10
-34.937825106
 20
39.5054886741
 30
0.0
 10
-34.9412839622
 20
39.4538036158
 30
0.0
 10
-34.9436871218
 20
39.417984743
 30
0.0
 10
-34.9450885234
 20
39.396953664
 30
0.0
 10
-34.9460602264
 20
39.3827667616
 30
0.0
 10
-34.9473352384
 20
39.3625158078
 30
0.0
 10
-34.9489294569
 20
39.3376297451
 30
0.0
 10
-34.9517686323
 20
39.2930936201
 30
0.0
 10
-34.955798826
 20
39.2299858243
 30
0.0
 10
-34.9606460897
 20
39.1540359239
 30
0.0
 10
-34.9671052534
 20
39.0528464541
 30
0.0
 10
-34.9751805394
 20
38.9263329994
 30
0.0
 10
-34.9816403624
 20
38.8251303476
 30
0.0
 10
-34.9848703246
 20
38.7745280077
 30
0.0
  0
SPLINE
  5
34B
100
AcDbEntity
  8
0
100
AcDbSpline
 62
250
  6
CONTINUOUS
 70
0
 71
3
 72
13
 73
9
 74
0
 42
0.0000001
 43
0.0000001
 44
0.0000000001
 40
0.0
 40
0.0
 40
0.0
 40
0.0
 40
0.25
 40
0.375
 40
0.5
 40
0.625
 40
0.75
 40
1.0
 40
1.0
 40
1.0
 40
1.0
 10
-34.0309028241
 20
40.3857464145
 30
0.0
 10
-34.0368981278
 20
40.3030553695
 30
0.0
 10
-34.0459177332
 20
40.1788600166
 30
0.0
 10
-34.0578372738
 20
40.0139013539
 30
0.0
 10
-34.0670434291
 20
39.888594504
 30
0.0
 10
-34.075236885
 20
39.7693214952
 30
0.0
 10
-34.0865168259
 20
39.6081736796
 30
0.0
 10
-34.0948968317
 20
39.4877891737
 30
0.0
 10
-34.1005012688
 20
39.4074269796
 30
0.0
  0
SPLINE
  5
34C
100
AcDbEntity
  8
0
100
AcDbSpline
 62
250
  6
CONTINUOUS
 70
0
 71
3
 72
11
 73
7
 74
0
 42
0.0000001
 43
0.0000001
 44
0.0000000001
 40
0.0
 40
0.0
 40
0.0
 40
0.0
 40
0.25
 40
0.5
 40
0.75
 40
1.0
 40
1.0
 40
1.0
 40
1.0
 10
-33.105573408
 20
38.9212753186
 30
0.0
 10
-33.0997701335
 20
39.0038745492
 30
0.0
 10
-33.088144858
 20
39.1685485328
 30
0.0
 10
-33.0708193032
 20
39.4187063734
 30
0.0
 10
-33.0531004938
 20
39.6578501857
 30
0.0
 10
-33.0413628598
 20
39.8193773041
 30
0.0
 10
-33.0354846796
 20
39.8998786245
 30
0.0
  0
SPLINE
  5
34D
100
AcDbEntity
  8
0
100
AcDbSpline
 62
250
  6
CONTINUOUS
 70
0
 71
3
 72
24
 73
20
 74
0
 42
0.0000001
 43
0.0000001
 44
0.0000000001
 40
0.0
 40
0.0
 40
0.0
 40
0.0
 40
0.25
 40
0.375
 40
0.4375
 40
0.5
 40
0.5625
 40
0.59375
 40
0.625
 40
0.640625
 40
0.65625
 40
0.6640625
 40
0.671875
 40
0.6875
 40
0.71875
 40
0.75
 40
0.8125
 40
0.875
 40
1.0
 40
1.0
 40
1.0
 40
1.0
 10
-32.3760543462
 20
37.1806110498
 30
0.0
 10
-32.368274112
 20
37.3040614511
 30
0.0
 10
-32.3566388375
 20
37.4892192857
 30
0.0
 10
-32.3429415816
 20
37.7052989448
 30
0.0
 10
-32.3347506017
 20
37.8289474949
 30
0.0
 10
-32.3286556515
 20
37.9216693536
 30
0.0
 10
-32.3235672338
 20
37.9989133908
 30
0.0
 10
-32.3194946594
 20
38.0607739256
 30
0.0
 10
-32.3169585474
 20
38.0992855864
 30
0.0
 10
-32.3149079251
 20
38.130441405
 30
0.0
 10
-32.3136759942
 20
38.1491231534
 30
0.0
 10
-32.3125765834
 20
38.1658794615
 30
0.0
 10
-32.3118928707
 20
38.1760246423
 30
0.0
 10
-32.3108894832
 20
38.1907075586
 30
0.0
 10
-32.3093553173
 20
38.2132855276
 30
0.0
 10
-32.3069569597
 20
38.2485147781
 30
0.0
 10
-32.3039397246
 20
38.292858093
 30
0.0
 10
-32.2991229769
 20
38.3636351853
 30
0.0
 10
-32.2955079797
 20
38.4167567521
 30
0.0
 10
-32.293098523
 20
38.4521625194
 30
0.0
  0
SPLINE
  5
34E
100
AcDbEntity
  8
0
100
AcDbSpline
 62
250
  6
CONTINUOUS
 70
0
 71
3
 72
13
 73
9
 74
0
 42
0.0000001
 43
0.0000001
 44
0.0000000001
 40
0.0
 40
0.0
 40
0.0
 40
0.0
 40
0.25
 40
0.375
 40
0.5
 40
0.625
 40
0.75
 40
1.0
 40
1.0
 40
1.0
 40
1.0
 10
-33.2456510245
 20
36.6786074948
 30
0.0
 10
-33.2409368215
 20
36.760674202
 30
0.0
 10
-33.2338717823
 20
36.8839297639
 30
0.0
 10
-33.2244266684
 20
37.0476485084
 30
0.0
 10
-33.2174054873
 20
37.1719925786
 30
0.0
 10
-33.2101462197
 20
37.2904276038
 30
0.0
 10
-33.2005507352
 20
37.4504143199
 30
0.0
 10
-33.1933353256
 20
37.5699378534
 30
0.0
 10
-33.1885292295
 20
37.6497238765
 30
0.0
  0
SPLINE
  5
34F
100
AcDbEntity
  8
0
100
AcDbSpline
 62
250
  6
CONTINUOUS
 70
0
 71
3
 72
13
 73
9
 74
0
 42
0.0000001
 43
0.0000001
 44
0.0000000001
 40
0.0
 40
0.0
 40
0.0
 40
0.0
 40
0.25
 40
0.375
 40
0.5
 40
0.625
 40
0.75
 40
1.0
 40
1.0
 40
1.0
 40
1.0
 10
-34.2482786485
 20
38.2616098974
 30
0.0
 10
-34.2532256921
 20
38.1794276529
 30
0.0
 10
-34.2606717432
 20
38.0559830299
 30
0.0
 10
-34.270497869
 20
37.8920752244
 30
0.0
 10
-34.2781223189
 20
37.7674318074
 30
0.0
 10
-34.2847783177
 20
37.649296129
 30
0.0
 10
-34.2939927902
 20
37.489498474
 30
0.0
 10
-34.3008271879
 20
37.3701640016
 30
0.0
 10
-34.3054004434
 20
37.2904935158
 30
0.0
  0
SPLINE
  5
350
100
AcDbEntity
  8
0
100
AcDbSpline
 62
250
  6
CONTINUOUS
 70
0
 71
3
 72
24
 73
20
 74
0
 42
0.0000001
 43
0.0000001
 44
0.0000000001
 40
0.0
 40
0.0
 40
0.0
 40
0.0
 40
0.25
 40
0.375
 40
0.4375
 40
0.5
 40
0.5625
 40
0.59375
 40
0.625
 40
0.640625
 40
0.65625
 40
0.6640625
 40
0.671875
 40
0.6875
 40
0.71875
 40
0.75
 40
0.8125
 40
0.875
 40
1.0
 40
1.0
 40
1.0
 40
1.0
 10
-34.9777977103
 20
40.0022741662
 30
0.0
 10
-34.986143206
 20
39.8785484815
 30
0.0
 10
-34.9986964343
 20
39.6929436017
 30
0.0
 10
-35.0132194212
 20
39.47646181
 30
0.0
 10
-35.0211539172
 20
39.3529381681
 30
0.0
 10
-35.0271542816
 20
39.2602623728
 30
0.0
 10
-35.0321414246
 20
39.1830676566
 30
0.0
 10
-35.0361379785
 20
39.1212441439
 30
0.0
 10
-35.0386253062
 20
39.0827562412
 30
0.0
 10
-35.0406387029
 20
39.0516185515
 30
0.0
 10
-35.0418434987
 20
39.032950018
 30
0.0
 10
-35.0429300368
 20
39.0161999788
 30
0.0
 10
-35.0435686307
 20
39.006076771
 30
0.0
 10
-35.044478081
 20
38.9914396023
 30
0.0
 10
-35.0458858663
 20
38.9689231809
 30
0.0
 10
-35.0480776472
 20
38.9337945337
 30
0.0
 10
-35.0508381576
 20
38.8895762442
 30
0.0
 10
-35.0552433058
 20
38.8189996016
 30
0.0
 10
-35.0585497924
 20
38.76602828
 30
0.0
 10
-35.0607535334
 20
38.7307226967
 30
0.0
  0
SPLINE
  5
351
100
AcDbEntity
  8
0
100
AcDbSpline
 62
250
  6
CONTINUOUS
 70
0
 71
3
 72
13
 73
9
 74
0
 42
0.0000001
 43
0.0000001
 44
0.0000000001
 40
0.0
 40
0.0
 40
0.0
 40
0.0
 40
0.25
 40
0.375
 40
0.5
 40
0.625
 40
0.75
 40
1.0
 40
1.0
 40
1.0
 40
1.0
 10
-34.0952340971
 20
40.5117646669
 30
0.0
 10
-34.1012705099
 20
40.4290540476
 30
0.0
 10
-34.1103518135
 20
40.30482989
 30
0.0
 10
-34.1223534807
 20
40.1398305947
 30
0.0
 10
-34.1316215749
 20
40.0144988363
 30
0.0
 10
-34.1398756628
 20
39.8951797682
 30
0.0
 10
-34.1512369051
 20
39.7339779616
 30
0.0
 10
-34.1596777836
 20
39.6135512927
 30
0.0
 10
-34.1653228256
 20
39.533161361
 30
0.0
  0
SPLINE
  5
352
100
AcDbEntity
  8
0
100
AcDbSpline
 62
250
  6
CONTINUOUS
 70
0
 71
3
 72
11
 73
7
 74
0
 42
0.0000001
 43
0.0000001
 44
0.0000000001
 40
0.0
 40
0.0
 40
0.0
 40
0.0
 40
0.25
 40
0.5
 40
0.75
 40
1.0
 40
1.0
 40
1.0
 40
1.0
 10
-33.0290526392
 20
38.9654495673
 30
0.0
 10
-33.0232082683
 20
39.0480684998
 30
0.0
 10
-33.0115009191
 20
39.2127838317
 30
0.0
 10
-32.9940515393
 20
39.4629920276
 30
0.0
 10
-32.9762114055
 20
39.7022270306
 30
0.0
 10
-32.9643924123
 20
39.8638071646
 30
0.0
 10
-32.958473612
 20
39.944335965
 30
0.0
  0
SPLINE
  5
353
100
AcDbEntity
  8
0
100
AcDbSpline
 62
250
  6
CONTINUOUS
 70
0
 71
3
 72
16
 73
12
 74
0
 42
0.0000001
 43
0.0000001
 44
0.0000000001
 40
0.0
 40
0.0
 40
0.0
 40
0.0
 40
0.25
 40
0.5
 40
0.5625
 40
0.625
 40
0.65625
 40
0.6875
 40
0.75
 40
0.875
 40
1.0
 40
1.0
 40
1.0
 40
1.0
 10
-32.3105946101
 20
37.0552451744
 30
0.0
 10
-32.3028760214
 20
37.1786653362
 30
0.0
 10
-32.2876215585
 20
37.4254778887
 30
0.0
 10
-32.2696380735
 20
37.7032669806
 30
0.0
 10
-32.2574996814
 20
37.8889366662
 30
0.0
 10
-32.2524699262
 20
37.9656891271
 30
0.0
 10
-32.2483940826
 20
38.0285071796
 30
0.0
 10
-32.2445040704
 20
38.0861488235
 30
0.0
 10
-32.2377827357
 20
38.1846152287
 30
0.0
 10
-32.2281354676
 20
38.3265480858
 30
0.0
 10
-32.2204314775
 20
38.4397083711
 30
0.0
 10
-32.2165777544
 20
38.4963367638
 30
0.0
  0
SPLINE
  5
354
100
AcDbEntity
  8
0
100
AcDbSpline
 62
250
  6
CONTINUOUS
 70
0
 71
3
 72
13
 73
9
 74
0
 42
0.0000001
 43
0.0000001
 44
0.0000000001
 40
0.0
 40
0.0
 40
0.0
 40
0.0
 40
0.25
 40
0.375
 40
0.5
 40
0.625
 40
0.75
 40
1.0
 40
1.0
 40
1.0
 40
1.0
 10
-33.1797028813
 20
36.5535236196
 30
0.0
 10
-33.1750297758
 20
36.6355698387
 30
0.0
 10
-33.1680264371
 20
36.7587950797
 30
0.0
 10
-33.158663374
 20
36.9224717523
 30
0.0
 10
-33.1517042722
 20
37.0467883783
 30
0.0
 10
-33.1445050274
 20
37.1651803422
 30
0.0
 10
-33.1349902949
 20
37.3251151228
 30
0.0
 10
-33.127835287
 20
37.4445984718
 30
0.0
 10
-33.1230694947
 20
37.5243579792
 30
0.0
  0
SPLINE
  5
355
100
AcDbEntity
  8
0
100
AcDbSpline
 62
250
  6
CONTINUOUS
 70
0
 71
3
 72
13
 73
9
 74
0
 42
0.0000001
 43
0.0000001
 44
0.0000000001
 40
0.0
 40
0.0
 40
0.0
 40
0.0
 40
0.25
 40
0.375
 40
0.5
 40
0.625
 40
0.75
 40
1.0
 40
1.0
 40
1.0
 40
1.0
 10
-34.3241186461
 20
38.2178287175
 30
0.0
 10
-34.3290245822
 20
38.1356668043
 30
0.0
 10
-34.3364089163
 20
38.012252246
 30
0.0
 10
-34.3461529749
 20
37.8483862561
 30
0.0
 10
-34.3537153195
 20
37.7237698775
 30
0.0
 10
-34.3603113216
 20
37.6056776662
 30
0.0
 10
-34.3694450585
 20
37.4459322029
 30
0.0
 10
-34.3762190711
 20
37.3266381713
 30
0.0
 10
-34.3807520328
 20
37.2469943578
 30
0.0
  0
SPLINE
  5
356
100
AcDbEntity
  8
0
100
AcDbSpline
 62
250
  6
CONTINUOUS
 70
0
 71
3
 72
17
 73
13
 74
0
 42
0.0000001
 43
0.0000001
 44
0.0000000001
 40
0.0
 40
0.0
 40
0.0
 40
0.0
 40
0.25
 40
0.375
 40
0.5
 40
0.5625
 40
0.625
 40
0.65625
 40
0.6875
 40
0.75
 40
0.875
 40
1.0
 40
1.0
 40
1.0
 40
1.0
 10
-35.0425766753
 20
40.1280331104
 30
0.0
 10
-35.0509838335
 20
40.004277614
 30
0.0
 10
-35.0636447838
 20
39.8186340492
 30
0.0
 10
-35.0803251992
 20
39.5711505772
 30
0.0
 10
-35.0902701481
 20
39.4168234306
 30
0.0
 10
-35.0983505642
 20
39.2930345675
 30
0.0
 10
-35.1033298371
 20
39.2163093808
 30
0.0
 10
-35.1074525104
 20
39.1534681715
 30
0.0
 10
-35.1110749535
 20
39.0959569198
 30
0.0
 10
-35.1171820867
 20
38.9977895782
 30
0.0
 10
-35.1260287428
 20
38.856246651
 30
0.0
 10
-35.1330688318
 20
38.7434096785
 30
0.0
 10
-35.1365935308
 20
38.686941521
 30
0.0
  0
SPLINE
  5
357
100
AcDbEntity
  8
0
100
AcDbSpline
 62
250
  6
CONTINUOUS
 70
0
 71
3
 72
13
 73
9
 74
0
 42
0.0000001
 43
0.0000001
 44
0.0000000001
 40
0.0
 40
0.0
 40
0.0
 40
0.0
 40
0.25
 40
0.375
 40
0.5
 40
0.625
 40
0.75
 40
1.0
 40
1.0
 40
1.0
 40
1.0
 10
-34.1595227633
 20
40.6378067034
 30
0.0
 10
-34.1656002849
 20
40.5550765388
 30
0.0
 10
-34.1747432858
 20
40.4308236148
 30
0.0
 10
-34.1868270796
 20
40.2657837576
 30
0.0
 10
-34.1961571103
 20
40.1404270945
 30
0.0
 10
-34.2044718364
 20
40.0210621582
 30
0.0
 10
-34.2159143851
 20
39.8598065495
 30
0.0
 10
-34.224416141
 20
39.739337874
 30
0.0
 10
-34.2301017906
 20
39.6589203057
 30
0.0
  0
SPLINE
  5
358
100
AcDbEntity
  8
0
100
AcDbSpline
 62
250
  6
CONTINUOUS
 70
0
 71
3
 72
22
 73
18
 74
0
 42
0.0000001
 43
0.0000001
 44
0.0000000001
 40
0.0
 40
0.0
 40
0.0
 40
0.0
 40
0.25
 40
0.375
 40
0.5
 40
0.5625
 40
0.625
 40
0.6875
 40
0.75
 40
0.78125
 40
0.796875
 40
0.8125
 40
0.828125
 40
0.84375
 40
0.875
 40
0.9375
 40
1.0
 40
1.0
 40
1.0
 40
1.0
 10
-26.1547294232
 20
35.4831420197
 30
0.0
 10
-26.1693065957
 20
35.2766108629
 30
0.0
 10
-26.1911845829
 20
34.9668069765
 30
0.0
 10
-26.2192281069
 20
34.5542826951
 30
0.0
 10
-26.2359587021
 20
34.2968278939
 30
0.0
 10
-26.2493797797
 20
34.0908792329
 30
0.0
 10
-26.2592744888
 20
33.9364102152
 30
0.0
 10
-26.2687564812
 20
33.7824916979
 30
0.0
 10
-26.2768279314
 20
33.6530575371
 30
0.0
 10
-26.2823019514
 20
33.564667113
 30
0.0
 10
-26.2856807317
 20
33.5107143665
 30
0.0
 10
-26.2875127947
 20
33.4799491795
 30
0.0
 10
-26.2893538434
 20
33.4490605854
 30
0.0
 10
-26.2918054407
 20
33.4079188399
 30
0.0
 10
-26.296097197
 20
33.3359007204
 30
0.0
 10
-26.3022275084
 20
33.2330282531
 30
0.0
 10
-26.3071319919
 20
33.1507270607
 30
0.0
 10
-26.3095842044
 20
33.1095768669
 30
0.0
  0
SPLINE
  5
359
100
AcDbEntity
  8
0
100
AcDbSpline
 62
250
  6
CONTINUOUS
 70
0
 71
3
 72
22
 73
18
 74
0
 42
0.0000001
 43
0.0000001
 44
0.0000000001
 40
0.0
 40
0.0
 40
0.0
 40
0.0
 40
0.25
 40
0.375
 40
0.5
 40
0.5625
 40
0.625
 40
0.6875
 40
0.75
 40
0.78125
 40
0.796875
 40
0.8125
 40
0.828125
 40
0.84375
 40
0.875
 40
0.9375
 40
1.0
 40
1.0
 40
1.0
 40
1.0
 10
-27.6619282344
 20
36.3533797237
 30
0.0
 10
-27.6765054069
 20
36.1468485669
 30
0.0
 10
-27.6983833941
 20
35.8370446805
 30
0.0
 10
-27.7264269181
 20
35.4245203991
 30
0.0
 10
-27.7431575133
 20
35.1670655979
 30
0.0
 10
-27.7565785909
 20
34.9611169369
 30
0.0
 10
-27.7664733
 20
34.8066479192
 30
0.0
 10
-27.7759552924
 20
34.6527294019
 30
0.0
 10
-27.7840267426
 20
34.523295241
 30
0.0
 10
-27.7895007626
 20
34.4349048169
 30
0.0
 10
-27.7928795429
 20
34.3809520704
 30
0.0
 10
-27.7947116059
 20
34.3501868834
 30
0.0
 10
-27.7965526546
 20
34.3192982894
 30
0.0
 10
-27.7990042519
 20
34.2781565439
 30
0.0
 10
-27.8032960082
 20
34.2061384244
 30
0.0
 10
-27.8094263196
 20
34.103265957
 30
0.0
 10
-27.8143308031
 20
34.0209647647
 30
0.0
 10
-27.8167830156
 20
33.9798145708
 30
0.0
  0
SPLINE
  5
35A
100
AcDbEntity
  8
0
100
AcDbSpline
 62
250
  6
CONTINUOUS
 70
0
 71
3
 72
22
 73
18
 74
0
 42
0.0000001
 43
0.0000001
 44
0.0000000001
 40
0.0
 40
0.0
 40
0.0
 40
0.0
 40
0.25
 40
0.375
 40
0.5
 40
0.5625
 40
0.625
 40
0.6875
 40
0.75
 40
0.78125
 40
0.796875
 40
0.8125
 40
0.828125
 40
0.84375
 40
0.875
 40
0.9375
 40
1.0
 40
1.0
 40
1.0
 40
1.0
 10
-29.781427778
 20
37.5771521966
 30
0.0
 10
-29.7960049505
 20
37.3706210398
 30
0.0
 10
-29.8178829377
 20
37.0608171534
 30
0.0
 10
-29.8459264617
 20
36.648292872
 30
0.0
 10
-29.8626570569
 20
36.3908380708
 30
0.0
 10
-29.8760781345
 20
36.1848894098
 30
0.0
 10
-29.8859728436
 20
36.0304203921
 30
0.0
 10
-29.895454836
 20
35.8765018748
 30
0.0
 10
-29.9035262862
 20
35.7470677139
 30
0.0
 10
-29.9090003062
 20
35.6586772898
 30
0.0
 10
-29.9123790865
 20
35.6047245433
 30
0.0
 10
-29.9142111495
 20
35.5739593563
 30
0.0
 10
-29.9160521982
 20
35.5430707623
 30
0.0
 10
-29.9185037955
 20
35.5019290168
 30
0.0
 10
-29.9227955518
 20
35.4299108973
 30
0.0
 10
-29.9289258632
 20
35.3270384299
 30
0.0
 10
-29.9338303467
 20
35.2447372376
 30
0.0
 10
-29.9362825592
 20
35.2035870437
 30
0.0
  0
SPLINE
  5
35B
100
AcDbEntity
  8
0
100
AcDbSpline
 62
250
  6
CONTINUOUS
 70
0
 71
3
 72
22
 73
18
 74
0
 42
0.0000001
 43
0.0000001
 44
0.0000000001
 40
0.0
 40
0.0
 40
0.0
 40
0.0
 40
0.25
 40
0.375
 40
0.5
 40
0.5625
 40
0.625
 40
0.6875
 40
0.75
 40
0.78125
 40
0.796875
 40
0.8125
 40
0.828125
 40
0.84375
 40
0.875
 40
0.9375
 40
1.0
 40
1.0
 40
1.0
 40
1.0
 10
-28.7923282267
 20
37.006058512
 30
0.0
 10
-28.8069053992
 20
36.7995273552
 30
0.0
 10
-28.8287833864
 20
36.4897234688
 30
0.0
 10
-28.8568269104
 20
36.0771991874
 30
0.0
 10
-28.8735575056
 20
35.8197443862
 30
0.0
 10
-28.8869785832
 20
35.6137957252
 30
0.0
 10
-28.8968732923
 20
35.4593267075
 30
0.0
 10
-28.9063552847
 20
35.3054081902
 30
0.0
 10
-28.9144267349
 20
35.1759740294
 30
0.0
 10
-28.9199007549
 20
35.0875836052
 30
0.0
 10
-28.9232795352
 20
35.0336308587
 30
0.0
 10
-28.9251115982
 20
35.0028656717
 30
0.0
 10
-28.9269526469
 20
34.9719770777
 30
0.0
 10
-28.9294042442
 20
34.9308353322
 30
0.0
 10
-28.9336960005
 20
34.8588172127
 30
0.0
 10
-28.9398263119
 20
34.7559447453
 30
0.0
 10
-28.9447307954
 20
34.673643553
 30
0.0
 10
-28.9471830079
 20
34.6324933591
 30
0.0
  0
ELLIPSE
  5
35C
100
AcDbEntity
  8
ASSI
100
AcDbEllipse
 62
7
  6
CONTINUOUS
 10
52.5185921115
 20
-65.3886900079
 30
0.0
 11
-0.5013954353
 21
0.868386877
 31
0.0
 40
0.5757524875
 41
-3.1936911674
 42
-2.3576120761
  0
ELLIPSE
  5
35D
100
AcDbEntity
  8
ASSI
100
AcDbEllipse
 62
7
  6
CONTINUOUS
 10
52.5185921115
 20
6.4584533904
 30
0.0
 11
-0.5000243598
 21
0.8660113392
 31
0.0
 40
0.5789151826
 41
-2.3548735497
 42
-0.7868162787
  0
ELLIPSE
  5
35E
100
AcDbEntity
  8
ASSI
100
AcDbEllipse
 62
7
  6
CONTINUOUS
 10
120.7193448662
 20
51.833138805
 30
0.0
 11
111.5409348807
 21
128.3466174189
 31
0.0
 40
0.4029729773
 41
-3.7734299492
 42
-3.7672052666
  0
ELLIPSE
  5
35F
100
AcDbEntity
  8
ASSI
100
AcDbEllipse
 62
7
  6
CONTINUOUS
 10
120.8047098826
 20
51.7838501144
 30
0.0
 11
112.236268736
 21
127.9318388222
 31
0.0
 40
0.3975597956
 41
-3.7637364601
 42
-3.7603859388
  0
ELLIPSE
  5
360
100
AcDbEntity
  8
ASSI
100
AcDbEllipse
 62
7
  6
CONTINUOUS
 10
115.8592964631
 20
54.6392698423
 30
0.0
 11
27.6951435486
 21
170.7397539322
 31
0.0
 40
0.7069483398
 41
-4.1183397783
 42
-4.1015657091
  0
ELLIPSE
  5
361
100
AcDbEntity
  8
ASSI
100
AcDbEllipse
 62
7
  6
CONTINUOUS
 10
116.2968707724
 20
54.3866199202
 30
0.0
 11
91.793176838
 21
140.2511436908
 31
0.0
 40
0.5363054271
 41
-3.8203221232
 42
-3.8093664661
  0
ELLIPSE
  5
362
100
AcDbEntity
  8
ASSI
100
AcDbEllipse
 62
7
  6
CONTINUOUS
 10
120.1667376021
 20
52.1522073135
 30
0.0
 11
119.630873242
 21
123.5739552196
 31
0.0
 40
0.3382731367
 41
-3.7657029519
 42
-3.7547929514
  0
ELLIPSE
  5
363
100
AcDbEntity
  8
ASSI
100
AcDbEllipse
 62
7
  6
CONTINUOUS
 10
116.2266370899
 20
54.4271719682
 30
0.0
 11
70.634700218
 21
152.2499801326
 31
0.0
 40
0.6282888553
 41
-3.9123018102
 42
-3.8955277411
  0
ELLIPSE
  5
364
100
AcDbEntity
  8
ASSI
100
AcDbEllipse
 62
7
  6
CONTINUOUS
 10
112.6632526108
 20
56.4846255067
 30
0.0
 11
11.1145125674
 21
175.7752122584
 31
0.0
 40
0.7158559188
 41
-4.1973507117
 42
-4.188040463
  0
ELLIPSE
  5
365
100
AcDbEntity
  8
ASSI
100
AcDbEllipse
 62
7
  6
CONTINUOUS
 10
117.0408042305
 20
53.9570820651
 30
0.0
 11
114.8996317544
 21
126.3505868295
 31
0.0
 40
0.3765254089
 41
-3.7743605251
 42
-3.7575864559
  0
ELLIPSE
  5
366
100
AcDbEntity
  8
ASSI
100
AcDbEllipse
 62
7
  6
CONTINUOUS
 10
110.8500814612
 20
57.5315278041
 30
0.0
 11
34.8790515577
 21
168.2218372011
 31
0.0
 40
0.7002280922
 41
-4.083553027
 42
-4.0720093448
  0
ELLIPSE
  5
367
100
AcDbEntity
  8
ASSI
100
AcDbEllipse
 62
7
  6
CONTINUOUS
 10
49.0182360915
 20
-24.9623436505
 30
0.0
 11
5.1478346794
 21
0.9575482268
 31
0.0
 40
0.6665647798
 41
-0.7006982462
 42
-0.2750682551
  0
ELLIPSE
  5
368
100
AcDbEntity
  8
ASSI
100
AcDbEllipse
 62
7
  6
CONTINUOUS
 10
-30.6000633057
 20
-0.8230553882
 30
0.0
 11
-0.4000194878
 21
0.6928090714
 31
0.0
 40
0.5789151826
 41
0.7867191038
 42
2.3547763749
  0
ELLIPSE
  5
369
100
AcDbEntity
  8
ASSI
100
AcDbEllipse
 62
7
  6
CONTINUOUS
 10
-48.2421834172
 20
64.6364623516
 30
0.0
 11
-0.5013954353
 21
0.868386877
 31
0.0
 40
0.5757524875
 41
-0.7840766935
 42
0.0520985859
  0
ELLIPSE
  5
36A
100
AcDbEntity
  8
ASSI
100
AcDbEllipse
 62
7
  6
CONTINUOUS
 10
-28.99362359
 20
3.4811527594
 30
0.0
 11
0.2467654307
 21
0.4348749944
 31
0.0
 40
0.5722717666
 41
-2.3255274167
 42
-0.7896376749
  0
ELLIPSE
  5
36B
100
AcDbEntity
  8
ASSI
100
AcDbEllipse
 62
7
  6
CONTINUOUS
 10
-2.9858135658
 20
-17.0559631638
 30
0.0
 11
-0.0054673646
 21
0.3559778749
 31
0.0
 40
0.0145741356
 41
-3.1313276755
 42
-2.3823999735
  0
ELLIPSE
  5
36C
100
AcDbEntity
  8
ASSI
100
AcDbEllipse
 62
7
  6
CONTINUOUS
 10
115.9161139737
 20
54.6064641237
 30
0.0
 11
39.1098980172
 21
166.4730536049
 31
0.0
 40
0.6952787603
 41
-4.0581356351
 42
-4.0519053363
  0
ELLIPSE
  5
36D
100
AcDbEntity
  8
ASSI
100
AcDbEllipse
 62
7
  6
CONTINUOUS
 10
115.7961191669
 20
54.6757476213
 30
0.0
 11
36.2622945329
 21
167.5495560783
 31
0.0
 40
0.6986691259
 41
-4.0631746043
 42
-4.0598210564
  0
ELLIPSE
  5
36E
100
AcDbEntity
  8
ASSI
100
AcDbEllipse
 62
7
  6
CONTINUOUS
 10
120.6563091826
 20
51.8695348187
 30
0.0
 11
114.1738075272
 21
126.6060927015
 31
0.0
 40
0.3814884295
 41
-3.7738993826
 42
-3.7580834622
  0
ELLIPSE
  5
36F
100
AcDbEntity
  8
ASSI
100
AcDbEllipse
 62
7
  6
CONTINUOUS
 10
119.7498154575
 20
52.3929329345
 30
0.0
 11
119.0820080186
 21
123.7206245819
 31
0.0
 40
0.3418816387
 41
-3.7706748267
 42
-3.7623289378
  0
ELLIPSE
  5
370
100
AcDbEntity
  8
ASSI
100
AcDbEllipse
 62
7
  6
CONTINUOUS
 10
116.1077492274
 20
54.49581633
 30
0.0
 11
74.7266798953
 21
149.8826902858
 31
0.0
 40
0.6139811386
 41
-3.8877681049
 42
-3.8768482551
  0
ELLIPSE
  5
371
100
AcDbEntity
  8
ASSI
100
AcDbEllipse
 62
7
  6
CONTINUOUS
 10
112.2732389117
 20
56.7098145286
 30
0.0
 11
10.3174595334
 21
175.8321184433
 31
0.0
 40
0.7160762854
 41
-4.1951584555
 42
-4.1843498231
  0
ELLIPSE
  5
372
100
AcDbEntity
  8
ASSI
100
AcDbEllipse
 62
7
  6
CONTINUOUS
 10
116.122192916
 20
54.4874767252
 30
0.0
 11
93.9929009386
 21
138.7583599347
 31
0.0
 40
0.5232362147
 41
-3.817510829
 42
-3.8016949217
  0
ELLIPSE
  5
373
100
AcDbEntity
  8
ASSI
100
AcDbEllipse
 62
7
  6
CONTINUOUS
 10
110.0653962016
 20
57.9845952386
 30
0.0
 11
25.1523857375
 21
171.4190137311
 31
0.0
 40
0.7088651675
 41
-4.129443597
 42
-4.1136276763
  0
ELLIPSE
  5
374
100
AcDbEntity
  8
ASSI
100
AcDbEllipse
 62
7
  6
CONTINUOUS
 10
116.3258978679
 20
54.369860039
 30
0.0
 11
111.878972645
 21
127.9702912935
 31
0.0
 40
0.3995644544
 41
-3.7764400576
 42
-3.7658593517
  0
ELLIPSE
  5
375
100
AcDbEntity
  8
ASSI
100
AcDbEllipse
 62
7
  6
CONTINUOUS
 10
115.9161139737
 20
54.6064641237
 30
0.0
 11
39.144967187
 21
166.622327116
 31
0.0
 40
0.6952787603
 41
-4.0582033802
 42
-4.0519786976
  0
ELLIPSE
  5
376
100
AcDbEntity
  8
ASSI
100
AcDbEllipse
 62
7
  6
CONTINUOUS
 10
120.6563091826
 20
51.8695348187
 30
0.0
 11
114.2761852079
 21
126.7196181975
 31
0.0
 40
0.3814884295
 41
-3.7749362596
 42
-3.7581621904
  0
ELLIPSE
  5
377
100
AcDbEntity
  8
ASSI
100
AcDbEllipse
 62
7
  6
CONTINUOUS
 10
-28.99362359
 20
6.5697632157
 30
0.0
 11
0.2467654307
 21
0.4348749944
 31
0.0
 40
0.5722717666
 41
5.4935476323
 42
7.029437374
  0
ELLIPSE
  5
378
100
AcDbEntity
  8
ASSI
100
AcDbEllipse
 62
7
  6
CONTINUOUS
 10
115.7961191669
 20
54.6757476213
 30
0.0
 11
36.2948103059
 21
167.6997948705
 31
0.0
 40
0.6986691259
 41
-4.0632503059
 42
-4.0598997846
  0
ELLIPSE
  5
379
100
AcDbEntity
  8
ASSI
100
AcDbEllipse
 62
7
  6
CONTINUOUS
 10
116.122192916
 20
54.4874767252
 30
0.0
 11
94.077182749
 21
138.8827821588
 31
0.0
 40
0.5232362147
 41
-3.8185477191
 42
-3.8017736499
  0
ELLIPSE
  5
37A
100
AcDbEntity
  8
ASSI
100
AcDbEllipse
 62
7
  6
CONTINUOUS
 10
112.2732389117
 20
56.7098145286
 30
0.0
 11
10.3267110211
 21
175.9897840662
 31
0.0
 40
0.7160762854
 41
-4.1952272933
 42
-4.1842716361
  0
ELLIPSE
  5
37B
100
AcDbEntity
  8
ASSI
100
AcDbEllipse
 62
7
  6
CONTINUOUS
 10
116.1077492274
 20
54.49581633
 30
0.0
 11
74.7936860181
 21
150.0170875047
 31
0.0
 40
0.6139811386
 41
-3.8878369839
 42
-3.8769269833
  0
ELLIPSE
  5
37C
100
AcDbEntity
  8
ASSI
100
AcDbEllipse
 62
7
  6
CONTINUOUS
 10
119.7498154575
 20
52.3929329345
 30
0.0
 11
119.1887867979
 21
123.8315627285
 31
0.0
 40
0.3418816387
 41
-3.7717111746
 42
-3.7624009259
  0
ELLIPSE
  5
37D
100
AcDbEntity
  8
ASSI
100
AcDbEllipse
 62
7
  6
CONTINUOUS
 10
116.3258978679
 20
54.369860039
 30
0.0
 11
111.9792925869
 21
128.0850400428
 31
0.0
 40
0.3995644544
 41
-3.7774770381
 42
-3.7659333559
  0
ELLIPSE
  5
37E
100
AcDbEntity
  8
ASSI
100
AcDbEllipse
 62
7
  6
CONTINUOUS
 10
110.0653962016
 20
57.9845952386
 30
0.0
 11
25.1749394473
 21
171.5727221992
 31
0.0
 40
0.7088651675
 41
-4.1304804737
 42
-4.1137064045
  0
ELLIPSE
  5
37F
100
AcDbEntity
  8
ASSI
100
AcDbEllipse
 62
7
  6
CONTINUOUS
 10
49.0182360915
 20
-30.3691228214
 30
0.0
 11
5.1774686765
 21
-0.6785096723
 31
0.0
 40
0.4693271057
 41
-0.5159119978
 42
-0.0902820066
  0
ELLIPSE
  5
380
100
AcDbEntity
  8
0
100
AcDbEllipse
 62
250
  6
CONTINUOUS
 10
52.3542934274
 20
114.5489568625
 30
0.0
 11
600.9514462195
 21
-191.7993213141
 31
0.0
 40
0.1620323673
 41
-1.6474254541
 42
-1.6470690805
  0
ELLIPSE
  5
381
100
AcDbEntity
  8
0
100
AcDbEllipse
 62
250
  6
CONTINUOUS
 10
91.7569449637
 20
91.7983596967
 30
0.0
 11
93.7814256506
 21
139.0604214378
 31
0.0
 40
0.524965471
 41
-3.9768075958
 42
-3.9600475592
  0
ELLIPSE
  5
382
100
AcDbEntity
  8
0
100
AcDbEllipse
 62
250
  6
CONTINUOUS
 10
93.2833010294
 20
90.917060834
 30
0.0
 11
-22.3413290313
 21
183.3614793488
 31
0.0
 40
0.7115375175
 41
-4.5048370306
 42
-4.488076994
  0
ELLIPSE
  5
383
100
AcDbEntity
  8
0
100
AcDbEllipse
 62
250
  6
CONTINUOUS
 10
84.1162954844
 20
96.2099749462
 30
0.0
 11
112.006102841
 21
128.0690516521
 31
0.0
 40
0.3993555306
 41
-3.9347454556
 42
-3.917985419
  0
ELLIPSE
  5
384
100
AcDbEntity
  8
0
100
AcDbEllipse
 62
250
  6
CONTINUOUS
 10
89.9610993723
 20
92.8352584339
 30
0.0
 11
32.8018561849
 21
168.9721845822
 31
0.0
 40
0.7023711659
 41
-4.2509361663
 42
-4.2341761297
  0
ELLIPSE
  5
385
100
AcDbEntity
  8
0
100
AcDbEllipse
 62
250
  6
CONTINUOUS
 10
105.9340383355
 20
83.6126836645
 30
0.0
 11
93.7814130743
 21
139.0604289889
 31
0.0
 40
0.5249655443
 41
-3.9768076367
 42
-3.9621859884
  0
ELLIPSE
  5
386
100
AcDbEntity
  8
0
100
AcDbEllipse
 62
250
  6
CONTINUOUS
 10
107.1704044948
 20
82.8988213395
 30
0.0
 11
93.7815115889
 21
139.060369839
 31
0.0
 40
0.5249649702
 41
-3.9621856681
 42
-3.9600472797
  0
ELLIPSE
  5
387
100
AcDbEntity
  8
0
100
AcDbEllipse
 62
250
  6
CONTINUOUS
 10
105.6867618769
 20
83.7554579926
 30
0.0
 11
93.7814256506
 21
139.0604214378
 31
0.0
 40
0.524965471
 41
-3.9768075958
 42
-3.9600475592
  0
ELLIPSE
  5
388
100
AcDbEntity
  8
0
100
AcDbEllipse
 62
250
  6
CONTINUOUS
 10
107.81629817
 20
82.5258904263
 30
0.0
 11
43.5080795154
 21
164.9030530702
 31
0.0
 40
0.6893971972
 41
-4.1974443006
 42
-4.187814634
  0
ELLIPSE
  5
389
100
AcDbEntity
  8
0
100
AcDbEllipse
 62
250
  6
CONTINUOUS
 10
101.2493248303
 20
86.3175785292
 30
0.0
 11
122.1032906666
 21
122.1403327789
 31
0.0
 40
0.318017516
 41
-3.9270701973
 42
-3.9174405307
  0
ELLIPSE
  5
38A
100
AcDbEntity
  8
0
100
AcDbEllipse
 62
250
  6
CONTINUOUS
 10
108.1071355257
 20
82.3579645822
 30
0.0
 11
41.977873471
 21
165.5157521285
 31
0.0
 40
0.6915589852
 41
-4.2063214345
 42
-4.1895613978
  0
ELLIPSE
  5
38B
100
AcDbEntity
  8
0
100
AcDbEllipse
 62
250
  6
CONTINUOUS
 10
107.8025684131
 20
82.5338178159
 30
0.0
 11
43.5078752941
 21
164.9031355473
 31
0.0
 40
0.6893974931
 41
-4.1863896306
 42
-4.1821125245
  0
ELLIPSE
  5
38C
100
AcDbEntity
  8
0
100
AcDbEllipse
 62
250
  6
CONTINUOUS
 10
101.2630552269
 20
86.3096507702
 30
0.0
 11
122.1033500238
 21
122.1402985041
 31
0.0
 40
0.3180170286
 41
-3.9160145329
 42
-3.9117374269
  0
ELLIPSE
  5
38D
100
AcDbEntity
  8
0
100
AcDbEllipse
 62
250
  6
CONTINUOUS
 10
100.9584936383
 20
86.4855008145
 30
0.0
 11
122.6326329822
 21
121.8349435996
 31
0.0
 40
0.3136701383
 41
-3.9285124884
 42
-3.9117524518
  0
ELLIPSE
  5
38E
100
AcDbEntity
  8
0
100
AcDbEllipse
 62
250
  6
CONTINUOUS
 10
103.3788636309
 20
85.0880095151
 30
0.0
 11
93.7814256506
 21
139.0604214378
 31
0.0
 40
0.524965471
 41
-3.9768075958
 42
-3.9600475592
  0
ELLIPSE
  5
38F
100
AcDbEntity
  8
0
100
AcDbEllipse
 62
250
  6
CONTINUOUS
 10
103.1315890966
 20
85.2307827321
 30
0.0
 11
93.7814256506
 21
139.0604214378
 31
0.0
 40
0.524965471
 41
-3.9768075958
 42
-3.9600475592
  0
ELLIPSE
  5
390
100
AcDbEntity
  8
0
100
AcDbEllipse
 62
250
  6
CONTINUOUS
 10
101.4830913145
 20
86.182604691
 30
0.0
 11
93.7814035827
 21
139.0604346878
 31
0.0
 40
0.5249655997
 41
-3.9750236074
 42
-3.9696730372
  0
ELLIPSE
  5
391
100
AcDbEntity
  8
0
100
AcDbEllipse
 62
250
  6
CONTINUOUS
 10
74.6928300363
 20
101.6509657921
 30
0.0
 11
377.0466644618
 21
-47.5512593942
 31
0.0
 40
0.2269618914
 41
-1.7820833616
 42
-1.7817267311
  0
ELLIPSE
  5
392
100
AcDbEntity
  8
0
100
AcDbEllipse
 62
250
  6
CONTINUOUS
 10
93.1574936879
 20
90.9897004163
 30
0.0
 11
173.0836342077
 21
93.373392027
 31
0.0
 40
0.0279357855
 41
-2.2592993501
 42
-2.2585860525
  0
ELLIPSE
  5
393
100
AcDbEntity
  8
0
100
AcDbEllipse
 62
250
  6
CONTINUOUS
 10
99.3672716495
 20
87.4042524481
 30
0.0
 11
122.103420061
 21
122.1402580623
 31
0.0
 40
0.3180164536
 41
-3.9235027755
 42
-3.9224327611
  0
ELLIPSE
  5
394
100
AcDbEntity
  8
0
100
AcDbEllipse
 62
250
  6
CONTINUOUS
 10
102.5133983615
 20
85.5877183148
 30
0.0
 11
93.7814598123
 21
139.0604009266
 31
0.0
 40
0.5249652719
 41
-3.9728829169
 42
-3.9718127969
  0
ELLIPSE
  5
395
100
AcDbEntity
  8
0
100
AcDbEllipse
 62
250
  6
CONTINUOUS
 10
105.7007735124
 20
83.7473678499
 30
0.0
 11
43.5069698887
 21
164.9035012031
 31
0.0
 40
0.6893988048
 41
-4.1960226038
 42
-4.194952401
  0
ELLIPSE
  5
396
100
AcDbEntity
  8
0
100
AcDbEllipse
 62
250
  6
CONTINUOUS
 10
112.1577563996
 20
80.0191868558
 30
0.0
 11
-101.7145514237
 21
199.7496793835
 31
0.0
 40
0.6093615153
 41
1.5185300819
 42
1.5192436096
  0
ELLIPSE
  5
397
100
AcDbEntity
  8
0
100
AcDbEllipse
 62
250
  6
CONTINUOUS
 10
131.6940195458
 20
68.7391933621
 30
0.0
 11
346.1226067412
 21
-324.6715108661
 31
0.0
 40
0.2767011407
 41
-1.7390182376
 42
-1.7386614606
  0
ELLIPSE
  5
398
100
AcDbEntity
  8
0
100
AcDbEllipse
 62
250
  6
CONTINUOUS
 10
101.2358146031
 20
86.325379165
 30
0.0
 11
93.7814256506
 21
139.0604214378
 31
0.0
 40
0.524965471
 41
-3.9768075958
 42
-3.9600475592
  0
ELLIPSE
  5
399
100
AcDbEntity
  8
0
100
AcDbEllipse
 62
250
  6
CONTINUOUS
 10
101.4830890285
 20
86.1826060109
 30
0.0
 11
93.781427045
 21
139.0604206006
 31
0.0
 40
0.5249654629
 41
-3.9675333764
 42
-3.9600475546
  0
ELLIPSE
  5
39A
100
AcDbEntity
  8
0
100
AcDbEllipse
 62
250
  6
CONTINUOUS
 10
105.5908599682
 20
83.8108305527
 30
0.0
 11
32.8464080978
 21
168.9562840178
 31
0.0
 40
0.7023269622
 41
-4.241445895
 42
-4.2339600732
  0
ELLIPSE
  5
39B
100
AcDbEntity
  8
0
100
AcDbEllipse
 62
250
  6
CONTINUOUS
 10
105.9629752165
 20
83.5959758721
 30
0.0
 11
30.4147628249
 21
169.8119089774
 31
0.0
 40
0.7046298028
 41
-4.2539391307
 42
-4.245740158
  0
ELLIPSE
  5
39C
100
AcDbEntity
  8
0
100
AcDbEllipse
 62
250
  6
CONTINUOUS
 10
84.3786958361
 20
96.0584682718
 30
0.0
 11
269.5153477517
 21
28.728544924
 31
0.0
 40
0.2304454275
 41
-1.9720666059
 42
-1.9713534092
  0
ELLIPSE
  5
39D
100
AcDbEntity
  8
0
100
AcDbEllipse
 62
250
  6
CONTINUOUS
 10
95.764304917
 20
89.4845602837
 30
0.0
 11
152.9960409622
 21
104.8451705499
 31
0.0
 40
0.0837712528
 41
2.3162352298
 42
2.3176617379
  0
ELLIPSE
  5
39E
100
AcDbEntity
  8
0
100
AcDbEllipse
 62
250
  6
CONTINUOUS
 10
99.6283063335
 20
87.253534293
 30
0.0
 11
122.1032431809
 21
122.1403601987
 31
0.0
 40
0.3180179059
 41
-3.9231460942
 42
-3.9220761047
  0
ELLIPSE
  5
39F
100
AcDbEntity
  8
0
100
AcDbEllipse
 62
250
  6
CONTINUOUS
 10
102.760657539
 20
85.4449539646
 30
0.0
 11
93.7816336518
 21
139.0602965502
 31
0.0
 40
0.5249642588
 41
-3.9728823516
 42
-3.9714555498
  0
ELLIPSE
  5
3A0
100
AcDbEntity
  8
0
100
AcDbEllipse
 62
250
  6
CONTINUOUS
 10
105.9480487538
 20
83.6045942246
 30
0.0
 11
43.5069698887
 21
164.9035012031
 31
0.0
 40
0.6893988048
 41
-4.1960226038
 42
-4.194952401
  0
ELLIPSE
  5
3A1
100
AcDbEntity
  8
0
100
AcDbEllipse
 62
250
  6
CONTINUOUS
 10
109.9836867733
 20
81.2744674106
 30
0.0
 11
-56.7378376742
 21
189.5072070011
 31
0.0
 40
0.681169693
 41
-4.6373949057
 42
-4.635967807
  0
ELLIPSE
  5
3A2
100
AcDbEntity
  8
0
100
AcDbEllipse
 62
250
  6
CONTINUOUS
 10
115.7297143376
 20
77.9567831095
 30
0.0
 11
-148.8570529486
 21
217.0406198145
 31
0.0
 40
0.5183116761
 41
1.4444036242
 42
1.445474059
  0
ELLIPSE
  5
3A3
100
AcDbEntity
  8
0
100
AcDbEllipse
 62
250
  6
CONTINUOUS
 10
152.3018248514
 20
56.8405048551
 30
0.0
 11
575.9883410307
 21
-459.7029806262
 31
0.0
 40
0.1731119233
 41
-1.7250518019
 42
-1.7246949703
  0
ELLIPSE
  5
3A4
100
AcDbEntity
  8
0
100
AcDbEllipse
 62
250
  6
CONTINUOUS
 10
100.9061350747
 20
86.5157319929
 30
0.0
 11
93.7812156846
 21
139.0605475051
 31
0.0
 40
0.5249666948
 41
-3.9768082786
 42
-3.9746674414
  0
ELLIPSE
  5
3A5
100
AcDbEntity
  8
0
100
AcDbEllipse
 62
250
  6
CONTINUOUS
 10
99.669740568
 20
87.2296106854
 30
0.0
 11
93.7814245244
 21
139.060422114
 31
0.0
 40
0.5249654776
 41
-3.9746667623
 42
-3.9700295996
  0
ELLIPSE
  5
3A6
100
AcDbEntity
  8
0
100
AcDbEllipse
 62
250
  6
CONTINUOUS
 10
100.7412569605
 20
86.6109305496
 30
0.0
 11
93.7815115889
 21
139.060369839
 31
0.0
 40
0.5249649702
 41
-3.9700293165
 42
-3.967889672
  0
ELLIPSE
  5
3A7
100
AcDbEntity
  8
0
100
AcDbEllipse
 62
250
  6
CONTINUOUS
 10
99.6697485775
 20
87.2296060608
 30
0.0
 11
93.7813298849
 21
139.0604789373
 31
0.0
 40
0.5249660292
 41
-3.9678902629
 42
-3.962186259
  0
ELLIPSE
  5
3A8
100
AcDbEntity
  8
0
100
AcDbEllipse
 62
250
  6
CONTINUOUS
 10
100.9061080436
 20
86.5157476003
 30
0.0
 11
93.7815115889
 21
139.060369839
 31
0.0
 40
0.5249649702
 41
-3.9621856681
 42
-3.9600472797
  0
ELLIPSE
  5
3A9
100
AcDbEntity
  8
0
100
AcDbEllipse
 62
250
  6
CONTINUOUS
 10
99.4224654257
 20
87.3723842535
 30
0.0
 11
93.7814256506
 21
139.0604214378
 31
0.0
 40
0.524965471
 41
-3.9768075958
 42
-3.9600475592
  0
ELLIPSE
  5
3AA
100
AcDbEntity
  8
0
100
AcDbEllipse
 62
250
  6
CONTINUOUS
 10
98.433369484
 20
87.9434758539
 30
0.0
 11
93.7813884713
 21
139.060443761
 31
0.0
 40
0.5249656877
 41
-3.9750236565
 42
-3.9600476801
  0
ELLIPSE
  5
3AB
100
AcDbEntity
  8
0
100
AcDbEllipse
 62
250
  6
CONTINUOUS
 10
98.1860909425
 20
88.0862513846
 30
0.0
 11
93.7814307433
 21
139.0604183801
 31
0.0
 40
0.5249654414
 41
-3.9750235191
 42
-3.9600475426
  0
ELLIPSE
  5
3AC
100
AcDbEntity
  8
0
100
AcDbEllipse
 62
250
  6
CONTINUOUS
 10
97.5266957796
 20
88.4669778875
 30
0.0
 11
93.7813828721
 21
139.0604471228
 31
0.0
 40
0.5249657204
 41
-3.9768077349
 42
-3.9750236747
  0
ELLIPSE
  5
3AD
100
AcDbEntity
  8
0
100
AcDbEllipse
 62
250
  6
CONTINUOUS
 10
99.0927697157
 20
87.5627464244
 30
0.0
 11
93.7813828721
 21
139.0604471228
 31
0.0
 40
0.5249657204
 41
-3.9768077349
 42
-3.9750236747
  0
ELLIPSE
  5
3AE
100
AcDbEntity
  8
0
100
AcDbEllipse
 62
250
  6
CONTINUOUS
 10
98.021384952
 20
88.1813505593
 30
0.0
 11
59.868152393
 21
157.6785405544
 31
0.0
 40
0.6584582487
 41
-4.1087558034
 42
-4.1073298058
  0
ELLIPSE
  5
3AF
100
AcDbEntity
  8
0
100
AcDbEllipse
 62
250
  6
CONTINUOUS
 10
101.5934614956
 20
86.1188783316
 30
0.0
 11
-38.3857388891
 21
186.2700464849
 31
0.0
 40
0.7004394024
 41
-4.5580361462
 42
-4.5569667455
  0
ELLIPSE
  5
3B0
100
AcDbEntity
  8
0
100
AcDbEllipse
 62
250
  6
CONTINUOUS
 10
108.6344800524
 20
82.0534824616
 30
0.0
 11
-170.0852683798
 21
226.8002976472
 31
0.0
 40
0.4795792654
 41
1.440165599
 42
1.4408784883
  0
ELLIPSE
  5
3B1
100
AcDbEntity
  8
0
100
AcDbEllipse
 62
250
  6
CONTINUOUS
 10
129.5516450544
 20
69.9761735432
 30
0.0
 11
461.0224715011
 21
-392.132382677
 31
0.0
 40
0.2133871896
 41
-1.7189325996
 42
-1.7185761718
  0
ELLIPSE
  5
3B2
100
AcDbEntity
  8
0
100
AcDbEllipse
 62
250
  6
CONTINUOUS
 10
63.3173592026
 20
108.2190200834
 30
0.0
 11
488.0738691873
 21
-120.9774792929
 31
0.0
 40
0.1923204037
 41
-1.6960155631
 42
-1.6956591353
  0
ELLIPSE
  5
3B3
100
AcDbEntity
  8
0
100
AcDbEllipse
 62
250
  6
CONTINUOUS
 10
84.2346803189
 20
96.1416210265
 30
0.0
 11
218.7221939969
 21
64.4788583997
 31
0.0
 40
0.1731833699
 41
-2.1207090962
 42
-2.1199962069
  0
ELLIPSE
  5
3B4
100
AcDbEntity
  8
0
100
AcDbEllipse
 62
250
  6
CONTINUOUS
 10
94.0920960909
 20
90.4500727021
 30
0.0
 11
122.1032431809
 21
122.1403601987
 31
0.0
 40
0.3180179059
 41
-3.9160145332
 42
-3.9149451326
  0
ELLIPSE
  5
3B5
100
AcDbEntity
  8
0
100
AcDbEllipse
 62
250
  6
CONTINUOUS
 10
95.4823999976
 20
89.647328651
 30
0.0
 11
111.8096486368
 21
128.1862343107
 31
0.0
 40
0.4008852251
 41
-3.9225097897
 42
-3.9207274998
  0
ELLIPSE
  5
3B6
100
AcDbEntity
  8
0
100
AcDbEllipse
 62
250
  6
CONTINUOUS
 10
88.7889681125
 20
93.512032333
 30
0.0
 11
173.0836582371
 21
93.3733779052
 31
0.0
 40
0.0279358986
 41
-2.2682121589
 42
-2.2667864963
  0
ELLIPSE
  5
3B7
100
AcDbEntity
  8
0
100
AcDbEllipse
 62
250
  6
CONTINUOUS
 10
80.5870629216
 20
98.2477095963
 30
0.0
 11
269.5162448436
 21
28.7278983642
 31
0.0
 40
0.230445878
 41
-1.9799069989
 42
-1.9791942188
  0
ELLIPSE
  5
3B8
100
AcDbEntity
  8
0
100
AcDbEllipse
 62
250
  6
CONTINUOUS
 10
56.2281277111
 20
112.3122534977
 30
0.0
 11
600.953393456
 21
-191.800521793
 31
0.0
 40
0.1620319101
 41
-1.6474247936
 42
-1.64706842
  0
ELLIPSE
  5
3B9
100
AcDbEntity
  8
0
100
AcDbEllipse
 62
250
  6
CONTINUOUS
 10
136.6408803289
 20
65.8829379446
 30
0.0
 11
575.9863670803
 21
-459.7018216395
 31
0.0
 40
0.173112487
 41
-1.708648271
 42
-1.7082918974
  0
ELLIPSE
  5
3BA
100
AcDbEntity
  8
0
100
AcDbEllipse
 62
250
  6
CONTINUOUS
 10
112.2820966188
 20
79.9473943716
 30
0.0
 11
-230.283473573
 21
258.2516823488
 31
0.0
 40
0.388116916
 41
1.4196297375
 42
1.4203425176
  0
ELLIPSE
  5
3BB
100
AcDbEntity
  8
0
100
AcDbEllipse
 62
250
  6
CONTINUOUS
 10
104.0801500906
 20
84.6830955025
 30
0.0
 11
-101.7151532253
 21
199.749854478
 31
0.0
 40
0.6093603887
 41
1.5306531618
 42
1.5320788243
  0
ELLIPSE
  5
3BC
100
AcDbEntity
  8
0
100
AcDbEllipse
 62
250
  6
CONTINUOUS
 10
99.8967400588
 20
87.0985440244
 30
0.0
 11
3.2071651049
 21
177.8377483001
 31
0.0
 40
0.7173128606
 41
-4.3786052693
 42
-4.3771794536
  0
ELLIPSE
  5
3BD
100
AcDbEntity
  8
0
100
AcDbEllipse
 62
250
  6
CONTINUOUS
 10
97.3372778712
 20
88.5763454139
 30
0.0
 11
68.2779962659
 21
153.4826246162
 31
0.0
 40
0.6356972842
 41
-4.0693180253
 42
-4.0675355534
  0
ELLIPSE
  5
3BE
100
AcDbEntity
  8
0
100
AcDbEllipse
 62
250
  6
CONTINUOUS
 10
95.5896976813
 20
89.5853763132
 30
0.0
 11
93.7815115889
 21
139.060369839
 31
0.0
 40
0.5249649702
 41
-3.9710992753
 42
-3.9657503834
  0
ELLIPSE
  5
3BF
100
AcDbEntity
  8
0
100
AcDbEllipse
 62
250
  6
CONTINUOUS
 10
93.7185364554
 20
90.6657613538
 30
0.0
 11
111.809372219
 21
128.1863992339
 31
0.0
 40
0.4008873755
 41
-3.9310685038
 42
-3.9292850305
  0
ELLIPSE
  5
3C0
100
AcDbEntity
  8
0
100
AcDbEllipse
 62
250
  6
CONTINUOUS
 10
90.8499198928
 20
92.3220646049
 30
0.0
 11
134.3545797076
 21
115.1945301141
 31
0.0
 40
0.2185155878
 41
2.3489917782
 42
2.3504187425
  0
ELLIPSE
  5
3C1
100
AcDbEntity
  8
0
100
AcDbEllipse
 62
250
  6
CONTINUOUS
 10
85.9865203149
 20
95.1301305685
 30
0.0
 11
173.0836582371
 21
93.3733779052
 31
0.0
 40
0.0279358986
 41
-2.2550188794
 42
-2.2535917436
  0
ELLIPSE
  5
3C2
100
AcDbEntity
  8
0
100
AcDbEllipse
 62
250
  6
CONTINUOUS
 10
76.0948314558
 20
100.8414677438
 30
0.0
 11
269.517141936
 21
28.7272518037
 31
0.0
 40
0.2304463284
 41
-1.9645715973
 42
-1.9638579612
  0
ELLIPSE
  5
3C3
100
AcDbEntity
  8
0
100
AcDbEllipse
 62
250
  6
CONTINUOUS
 10
46.1723963062
 20
118.1183067829
 30
0.0
 11
600.9514462195
 21
-191.7993213141
 31
0.0
 40
0.1620323673
 41
-1.631022249
 42
-1.6306654175
  0
ELLIPSE
  5
3C4
100
AcDbEntity
  8
0
100
AcDbEllipse
 62
250
  6
CONTINUOUS
 10
146.696927394
 20
60.0767024011
 30
0.0
 11
575.9883410307
 21
-459.7029806262
 31
0.0
 40
0.1731119233
 41
-1.7250518019
 42
-1.7246949703
  0
ELLIPSE
  5
3C5
100
AcDbEntity
  8
0
100
AcDbEllipse
 62
250
  6
CONTINUOUS
 10
116.7742505181
 20
77.35368101
 30
0.0
 11
-230.283473573
 21
258.2516823488
 31
0.0
 40
0.388116916
 41
1.4042956861
 42
1.4050093222
  0
ELLIPSE
  5
3C6
100
AcDbEntity
  8
0
100
AcDbEllipse
 62
250
  6
CONTINUOUS
 10
106.8826390935
 20
83.0649734756
 30
0.0
 11
-101.7158281359
 21
199.7500508451
 31
0.0
 40
0.6093591253
 41
1.5174569474
 42
1.5188840831
  0
ELLIPSE
  5
3C7
100
AcDbEntity
  8
0
100
AcDbEllipse
 62
250
  6
CONTINUOUS
 10
99.1011386454
 20
87.5579143092
 30
0.0
 11
68.2785985895
 21
153.4823126798
 31
0.0
 40
0.6356954522
 41
-4.0778745832
 42
-4.0760908998
  0
ELLIPSE
  5
3C8
100
AcDbEntity
  8
0
100
AcDbEllipse
 62
250
  6
CONTINUOUS
 10
100.1232835317
 20
86.9677406624
 30
0.0
 11
43.5084879569
 21
164.902888116
 31
0.0
 40
0.6893966054
 41
-4.1956584687
 42
-4.1945882917
  0
ELLIPSE
  5
3C9
100
AcDbEntity
  8
0
100
AcDbEllipse
 62
250
  6
CONTINUOUS
 10
111.3750271651
 20
80.4711249059
 30
0.0
 11
-170.0841982385
 21
226.799782346
 31
0.0
 40
0.4795811407
 41
1.4291115819
 42
1.4298250883
  0
ELLIPSE
  5
3CA
100
AcDbEntity
  8
0
100
AcDbEllipse
 62
250
  6
CONTINUOUS
 10
135.6924927807
 20
66.4305250289
 30
0.0
 11
461.0244427499
 21
-392.1335419887
 31
0.0
 40
0.2133863435
 41
-1.7310568387
 42
-1.7307000725
  0
ELLIPSE
  5
3CB
100
AcDbEntity
  8
0
100
AcDbEllipse
 62
250
  6
CONTINUOUS
 10
57.1766593274
 20
111.7645832303
 30
0.0
 11
488.0738691873
 21
-120.9774792929
 31
0.0
 40
0.1923204037
 41
-1.6838915183
 42
-1.6835347521
  0
ELLIPSE
  5
3CC
100
AcDbEntity
  8
0
100
AcDbEllipse
 62
250
  6
CONTINUOUS
 10
81.4940560993
 20
97.7240231028
 30
0.0
 11
218.7221939969
 21
64.4788583997
 31
0.0
 40
0.1731833699
 41
-2.1096549856
 42
-2.1089414792
  0
ELLIPSE
  5
3CD
100
AcDbEntity
  8
0
100
AcDbEllipse
 62
250
  6
CONTINUOUS
 10
89.5310355866
 20
93.0835718738
 30
0.0
 11
146.6647555962
 21
108.3636281683
 31
0.0
 40
0.1263825083
 41
2.3279532215
 42
2.3290233985
  0
ELLIPSE
  5
3CE
100
AcDbEntity
  8
0
100
AcDbEllipse
 62
250
  6
CONTINUOUS
 10
93.4979856942
 20
90.7931045993
 30
0.0
 11
115.7634381698
 21
125.8404559676
 31
0.0
 40
0.3696139229
 41
-3.9266637322
 42
-3.925236978
  0
ELLIPSE
  5
3CF
100
AcDbEntity
  8
0
100
AcDbEllipse
 62
250
  6
CONTINUOUS
 10
95.8369829172
 20
89.4425969172
 30
0.0
 11
93.7813932274
 21
139.0604409053
 31
0.0
 40
0.52496566
 41
-3.9710996602
 42
-3.9657507683
  0
ELLIPSE
  5
3D0
100
AcDbEntity
  8
0
100
AcDbEllipse
 62
250
  6
CONTINUOUS
 10
91.1522670874
 20
92.147493124
 30
0.0
 11
122.1032906666
 21
122.1403327789
 31
0.0
 40
0.318017516
 41
-3.9270701973
 42
-3.9174405307
  0
ELLIPSE
  5
3D1
100
AcDbEntity
  8
0
100
AcDbEllipse
 62
250
  6
CONTINUOUS
 10
97.7192466868
 20
88.355801407
 30
0.0
 11
43.5079433679
 21
164.9031080549
 31
0.0
 40
0.6893973944
 41
-4.1974449634
 42
-4.1878152968
  0
ELLIPSE
  5
3D2
100
AcDbEntity
  8
0
100
AcDbEllipse
 62
250
  6
CONTINUOUS
 10
98.0100755409
 20
88.1878804715
 30
0.0
 11
41.9779527662
 21
165.515720652
 31
0.0
 40
0.691558876
 41
-4.2063210484
 42
-4.1895610118
  0
ELLIPSE
  5
3D3
100
AcDbEntity
  8
0
100
AcDbEllipse
 62
250
  6
CONTINUOUS
 10
97.705499827
 20
88.3637386715
 30
0.0
 11
43.5081816259
 21
164.9030118317
 31
0.0
 40
0.6893970492
 41
-4.1863881393
 42
-4.1821110332
  0
ELLIPSE
  5
3D4
100
AcDbEntity
  8
0
100
AcDbEllipse
 62
250
  6
CONTINUOUS
 10
91.1659981911
 20
92.1395649568
 30
0.0
 11
122.1033500238
 21
122.1402985041
 31
0.0
 40
0.3180170286
 41
-3.9160145329
 42
-3.9117374269
  0
ELLIPSE
  5
3D5
100
AcDbEntity
  8
0
100
AcDbEllipse
 62
250
  6
CONTINUOUS
 10
90.8614366025
 20
92.3154150011
 30
0.0
 11
122.6326329822
 21
121.8349435996
 31
0.0
 40
0.3136701383
 41
-3.9285124884
 42
-3.9117524518
  0
ELLIPSE
  5
3D6
100
AcDbEntity
  8
0
100
AcDbEllipse
 62
250
  6
CONTINUOUS
 10
119.6183160948
 20
75.7115531906
 30
0.0
 11
346.116982495
 21
-324.6682229078
 31
0.0
 40
0.2767051061
 41
-1.7315283578
 42
-1.7311717911
  0
ELLIPSE
  5
3D7
100
AcDbEntity
  8
0
100
AcDbEllipse
 62
250
  6
CONTINUOUS
 10
101.8134969046
 20
85.9918326442
 30
0.0
 11
-101.7157550301
 21
199.7500295746
 31
0.0
 40
0.6093592621
 41
1.5260174196
 42
1.5267305116
  0
ELLIPSE
  5
3D8
100
AcDbEntity
  8
0
100
AcDbEllipse
 62
250
  6
CONTINUOUS
 10
95.9333499895
 20
89.3869557774
 30
0.0
 11
43.5084879569
 21
164.902888116
 31
0.0
 40
0.6893966054
 41
-4.188525705
 42
-4.1874561335
  0
ELLIPSE
  5
3D9
100
AcDbEntity
  8
0
100
AcDbEllipse
 62
250
  6
CONTINUOUS
 10
93.0345736747
 20
91.0606728914
 30
0.0
 11
93.7809197788
 21
139.0607251721
 31
0.0
 40
0.5249684194
 41
-3.9653957958
 42
-3.9643263104
  0
ELLIPSE
  5
3DA
100
AcDbEntity
  8
0
100
AcDbEllipse
 62
250
  6
CONTINUOUS
 10
90.1769108973
 20
92.7106515641
 30
0.0
 11
122.1032431809
 21
122.1403601987
 31
0.0
 40
0.3180179059
 41
-3.9160145332
 42
-3.9149451326
  0
ELLIPSE
  5
3DB
100
AcDbEntity
  8
0
100
AcDbEllipse
 62
250
  6
CONTINUOUS
 10
84.5440854606
 20
95.9629743754
 30
0.0
 11
173.0836342077
 21
93.373392027
 31
0.0
 40
0.0279357855
 41
-2.2667865707
 42
-2.2660736814
  0
ELLIPSE
  5
3DC
100
AcDbEntity
  8
0
100
AcDbEllipse
 62
250
  6
CONTINUOUS
 10
67.8102126569
 20
105.6249028076
 30
0.0
 11
377.0485461051
 21
-47.5525496774
 31
0.0
 40
0.2269613516
 41
-1.7895681591
 42
-1.7892117313
  0
ELLIPSE
  5
3DD
100
AcDbEntity
  8
0
100
AcDbEllipse
 62
250
  6
CONTINUOUS
 10
92.004222312
 20
91.6555848549
 30
0.0
 11
93.7813932274
 21
139.0604409053
 31
0.0
 40
0.52496566
 41
-3.9675334864
 42
-3.962186053
  0
ELLIPSE
  5
3DE
100
AcDbEntity
  8
0
100
AcDbEllipse
 62
250
  6
CONTINUOUS
 10
92.0042264435
 20
91.6555824694
 30
0.0
 11
93.7813498975
 21
139.0604669213
 31
0.0
 40
0.5249659126
 41
-3.974667005
 42
-3.9696732118
  0
ELLIPSE
  5
3DF
100
AcDbEntity
  8
0
100
AcDbEllipse
 62
250
  6
CONTINUOUS
 10
65.2138019924
 20
107.1240377846
 30
0.0
 11
377.0485461051
 21
-47.5525496774
 31
0.0
 40
0.2269613516
 41
-1.7820811413
 42
-1.7817245107
  0
ELLIPSE
  5
3E0
100
AcDbEntity
  8
0
100
AcDbEllipse
 62
250
  6
CONTINUOUS
 10
83.6786240485
 20
96.462680948
 30
0.0
 11
173.0836342077
 21
93.373392027
 31
0.0
 40
0.0279357855
 41
-2.2592993501
 42
-2.2585860525
  0
ELLIPSE
  5
3E1
100
AcDbEntity
  8
0
100
AcDbEllipse
 62
250
  6
CONTINUOUS
 10
89.8884020101
 20
92.8772329797
 30
0.0
 11
122.103420061
 21
122.1402580623
 31
0.0
 40
0.3180164536
 41
-3.9235027755
 42
-3.9224327611
  0
ELLIPSE
  5
3E2
100
AcDbEntity
  8
0
100
AcDbEllipse
 62
250
  6
CONTINUOUS
 10
93.0345533506
 20
91.0606846263
 30
0.0
 11
93.7811897969
 21
139.0605630485
 31
0.0
 40
0.5249668457
 41
-3.9725270759
 42
-3.9718136751
  0
ELLIPSE
  5
3E3
100
AcDbEntity
  8
0
100
AcDbEllipse
 62
250
  6
CONTINUOUS
 10
96.2081527892
 20
89.228288085
 30
0.0
 11
43.5072626278
 21
164.9033829783
 31
0.0
 40
0.6893983807
 41
-4.1956644338
 42
-4.1945942568
  0
ELLIPSE
  5
3E4
100
AcDbEntity
  8
0
100
AcDbEllipse
 62
250
  6
CONTINUOUS
 10
102.6376744174
 20
85.5159628777
 30
0.0
 11
-101.7145514237
 21
199.7496793835
 31
0.0
 40
0.6093615153
 41
1.5188868481
 42
1.5196003545
  0
ELLIPSE
  5
3E5
100
AcDbEntity
  8
0
100
AcDbEllipse
 62
250
  6
CONTINUOUS
 10
122.0915122857
 20
74.2835607063
 30
0.0
 11
346.1226067412
 21
-324.6715108661
 31
0.0
 40
0.2767011407
 41
-1.7386614606
 42
-1.7383046943
  0
ELLIPSE
  5
3E6
100
AcDbEntity
  8
0
100
AcDbEllipse
 62
250
  6
CONTINUOUS
 10
142.8227833724
 20
62.3135846048
 30
0.0
 11
575.9863670803
 21
-459.7018216395
 31
0.0
 40
0.173112487
 41
-1.725051934
 42
-1.7246951025
  0
ELLIPSE
  5
3E7
100
AcDbEntity
  8
0
100
AcDbEllipse
 62
250
  6
CONTINUOUS
 10
106.250901035
 20
83.4297311131
 30
0.0
 11
-148.857799135
 21
217.0409448996
 31
0.0
 40
0.5183102665
 41
1.44440288
 42
1.4454733149
  0
ELLIPSE
  5
3E8
100
AcDbEntity
  8
0
100
AcDbEllipse
 62
250
  6
CONTINUOUS
 10
100.5048171339
 20
86.7474479422
 30
0.0
 11
-56.7378376742
 21
189.5072070011
 31
0.0
 40
0.681169693
 41
-4.6373949057
 42
-4.635967807
  0
ELLIPSE
  5
3E9
100
AcDbEntity
  8
0
100
AcDbEllipse
 62
250
  6
CONTINUOUS
 10
96.4691237201
 20
89.0776067402
 30
0.0
 11
43.5081952279
 21
164.9030063383
 31
0.0
 40
0.6893970295
 41
-4.1960166386
 42
-4.1949464359
  0
ELLIPSE
  5
3EA
100
AcDbEntity
  8
0
100
AcDbEllipse
 62
250
  6
CONTINUOUS
 10
93.2817871925
 20
90.9179349045
 30
0.0
 11
93.7816336518
 21
139.0602965502
 31
0.0
 40
0.5249642588
 41
-3.9728823516
 42
-3.9714555498
  0
ELLIPSE
  5
3EB
100
AcDbEntity
  8
0
100
AcDbEllipse
 62
250
  6
CONTINUOUS
 10
90.149435987
 20
92.726515233
 30
0.0
 11
122.1032431809
 21
122.1403601987
 31
0.0
 40
0.3180179059
 41
-3.9231460942
 42
-3.9220761047
  0
ELLIPSE
  5
3EC
100
AcDbEntity
  8
0
100
AcDbEllipse
 62
250
  6
CONTINUOUS
 10
86.2854743482
 20
94.9575182564
 30
0.0
 11
152.9957110199
 21
104.8453546306
 31
0.0
 40
0.0837733809
 41
2.3162360592
 42
2.3176625673
  0
ELLIPSE
  5
3ED
100
AcDbEntity
  8
0
100
AcDbEllipse
 62
250
  6
CONTINUOUS
 10
74.8995881927
 20
101.531586224
 30
0.0
 11
269.5180801439
 21
28.72657561
 31
0.0
 40
0.2304467995
 41
-1.9717032899
 42
-1.9713466896
  0
ELLIPSE
  5
3EE
100
AcDbEntity
  8
0
100
AcDbEllipse
 62
250
  6
CONTINUOUS
 10
111.1692114115
 20
80.5899603426
 30
0.0
 11
-230.2815859862
 21
258.2506410183
 31
0.0
 40
0.3881193532
 41
1.4121436517
 42
1.4125002481
  0
ELLIPSE
  5
3EF
100
AcDbEntity
  8
0
100
AcDbEllipse
 62
250
  6
CONTINUOUS
 10
99.886615317
 20
87.1043899234
 30
0.0
 11
-56.7375218096
 21
189.5071495856
 31
0.0
 40
0.6811700822
 41
-4.6302600041
 42
-4.6288337355
  0
ELLIPSE
  5
3F0
100
AcDbEntity
  8
0
100
AcDbEllipse
 62
250
  6
CONTINUOUS
 10
96.1944128179
 20
89.2362213722
 30
0.0
 11
43.5072626278
 21
164.9033829783
 31
0.0
 40
0.6893983807
 41
-4.1888882112
 42
-4.1878186107
  0
ELLIPSE
  5
3F1
100
AcDbEntity
  8
0
100
AcDbEllipse
 62
250
  6
CONTINUOUS
 10
93.2818076811
 20
90.9179230747
 30
0.0
 11
93.781413938
 21
139.0604284703
 31
0.0
 40
0.5249655393
 41
-3.965750701
 42
-3.9639682291
  0
ELLIPSE
  5
3F2
100
AcDbEntity
  8
0
100
AcDbEllipse
 62
250
  6
CONTINUOUS
 10
90.437874446
 20
92.5599744817
 30
0.0
 11
122.103670552
 21
122.1401134207
 31
0.0
 40
0.3180143969
 41
-3.9156580578
 42
-3.9145886852
  0
ELLIPSE
  5
3F3
100
AcDbEntity
  8
0
100
AcDbEllipse
 62
250
  6
CONTINUOUS
 10
86.9346001657
 20
94.5827211449
 30
0.0
 11
152.9954398537
 21
104.8455059189
 31
0.0
 40
0.0837751299
 41
2.3237241592
 42
2.3251498642
  0
ELLIPSE
  5
3F4
100
AcDbEntity
  8
0
100
AcDbEllipse
 62
250
  6
CONTINUOUS
 10
82.1260455989
 20
97.3591202864
 30
0.0
 11
202.7646449178
 21
75.0424444824
 31
0.0
 40
0.1361336765
 41
-2.1736455873
 42
-2.1725764067
  0
ENDSEC
  0
SECTION
  2
OBJECTS
  0
DICTIONARY
  5
C
100
AcDbDictionary
280
0
281
1
  3
ACAD_GROUP
350
D
  3
ACAD_MLINESTYLE
350
17
  3
ACAD_LAYOUT
350
1A
  3
ACAD_PLOTSETTINGS
350
19
  3
ACAD_PLOTSTYLENAME
350
E
  0
DICTIONARY
  5
D
102
{ACAD_REACTORS
330
C
102
}
100
AcDbDictionary
280
0
281
1
  0
ACDBDICTIONARYWDFLT
  5
E
102
{ACAD_REACTORS
330
C
102
}
100
AcDbDictionary
281
1
  3
Normal
350
F
100
AcDbDictionaryWithDefault
340
F
  0
DICTIONARY
  5
17
102
{ACAD_REACTORS
330
C
102
}
100
AcDbDictionary
280
0
281
1
  3
Standard
350
18
  0
DICTIONARY
  5
19
102
{ACAD_REACTORS
330
C
102
}
100
AcDbDictionary
281
1
  0
DICTIONARY
  5
1A
102
{ACAD_REACTORS
330
C
102
}
100
AcDbDictionary
281
1
  3
Model
350
3F5
  3
Layout1
350
3F6
  0
ACDBPLACEHOLDER
  5
F
102
{ACAD_REACTORS
330
E
102
}
  0
MLINESTYLE
  5
18
102
{ACAD_REACTORS
330
17
102
}
100
AcDbMlineStyle
  2
STANDARD
 70
0
  3

 62
256
 51
90.0
 52
90.0
 71
2
 49
0.5
 62
256
  6
BYLAYER
 49
-0.5
 62
256
  6
BYLAYER
  0
LAYOUT
  5
3F5
102
{ACAD_REACTORS
330
1A
102
}
100
AcDbPlotSettings
  1

  2
none_device
  4
ISO_A4_(297.00_x_210.00_MM)
  6

 40
0.0
 41
0.0
 42
0.0
 43
0.0
 44
297.0
 45
210.0
 46
0.0
 47
0.0
 48
0.0
 49
0.0
140
0.0
141
0.0
142
1.0
143
1.0
 70
1024
 72
1
 73
0
 74
0
  7

 75
0
147
1.0
148
0.0
149
0.0
100
AcDbLayout
  1
Model
 70
0
 71
0
 10
0.0
 20
0.0
 11
297.0
 21
210.0
 12
0.0
 22
0.0
 32
0.0
 14
0.0
 24
0.0
 34
0.0
 15
0.0
 25
0.0
 35
0.0
146
0.0
 13
0.0
 23
0.0
 33
0.0
 16
1.0
 26
0.0
 36
0.0
 17
0.0
 27
1.0
 37
0.0
 76
0
330
214
345
0
346
0
  0
LAYOUT
  5
3F6
102
{ACAD_REACTORS
330
1A
102
}
100
AcDbPlotSettings
  1

  2
none_device
  4
ISO_A4_(297.00_x_210.00_MM)
  6

 40
0.0
 41
0.0
 42
0.0
 43
0.0
 44
297.0
 45
210.0
 46
0.0
 47
0.0
 48
0.0
 49
0.0
140
0.0
141
0.0
142
1.0
143
1.0
 70
0
 72
1
 73
0
 74
0
  7

 75
0
147
1.0
148
0.0
149
0.0
100
AcDbLayout
  1
Layout1
 70
0
 71
1
 10
0.0
 20
0.0
 11
297.0
 21
210.0
 12
0.0
 22
0.0
 32
0.0
 14
0.0
 24
0.0
 34
0.0
 15
0.0
 25
0.0
 35
0.0
146
0.0
 13
0.0
 23
0.0
 33
0.0
 16
1.0
 26
0.0
 36
0.0
 17
0.0
 27
1.0
 37
0.0
 76
0
330
215
345
0
346
0
  0
ENDSEC
  0
EOF
