  0
SECTION
  2
HEADER
  9
$ACADVER
  1
AC1024
  9
$DWGCODEPAGE
  3
ANSI_1252
  9
$EXTMAX
 10
297.0
 20
210.0
 30
0.0
  9
$EXTMIN
 10
0.0
 20
0.0
 30
0.0
  9
$LIMMIN
 10
0.0
 20
0.0
  9
$LIMMAX
 10
297.0
 20
210.0
  9
$VIEWCTR
 10
148.5
 20
105.0
  9
$VIEWSIZE
 40
210.0
  9
$CLAYER
  8
0
  9
$LTSCALE
 40
16.335
  9
$CELTYPE
  6
BYLAYER
  9
$DIMSCALE
 40
1.0
  9
$DIMASZ
 40
3.0
  9
$DIMEXO
 40
0.5
  9
$DIMDLI
 40
11.286
  9
$DIMEXE
 40
1.5
  9
$DIMCEN
 40
2.673
  9
$DIMLFAC
 40
1.0
  9
$DIMBLK
  1
_FILLED
  9
$DIMALT
 70
0
  9
$DIMALTF
 40
0.0393700787
  9
$DIMTXT
 40
3.0
  9
$DIMTOL
 70
1
  9
$DIMLIM
 70
0
  9
$DIMTFAC
 40
1.0
  9
$DIMTP
 40
0.01
  9
$DIMTM
 40
0.01
  9
$DIMGAP
 40
0.625
  9
$DIMDSEP
 70
44
  9
$AUNITS
 70
0
  9
$PDMODE
 70
3
  9
$PDSIZE
 40
3.0
  9
$HANDSEED
  5
554
  9
$TILEMODE
 70
1
  9
$MEASUREMENT
 70
1
  9
$INSUNITS
 70
4
  0
ENDSEC
  0
SECTION
  2
CLASSES
  0
CLASS
  1
ACDBDICTIONARYWDFLT
  2
AcDbDictionaryWithDefault
  3
AutoCAD 2000
 90
0
 91
1
280
0
281
0
  0
CLASS
  1
ACDBPLACEHOLDER
  2
AcDbPlaceHolder
  3
AutoCAD 2000
 90
0
 91
1
280
0
281
0
  0
CLASS
  1
LAYOUT
  2
AcDbLayout
  3
AutoCAD 2000
 90
0
 91
0
280
0
281
0
  0
ENDSEC
  0
SECTION
  2
TABLES
  0
TABLE
  2
VPORT
  5
8
100
AcDbSymbolTable
 70
2
  0
VPORT
  5
1F4
100
AcDbSymbolTableRecord
100
AcDbViewportTableRecord
  2
*ACTIVE
 70
0
 10
0.0
 20
0.0
 11
1.0
 21
1.0
 12
148.5
 22
105.0
 13
0.0
 23
0.0
 14
1.0
 24
1.0
 15
0.0
 25
0.0
 16
0.0
 26
0.0
 36
1.0
 17
0.0
 27
0.0
 37
0.0
 40
210.0
 41
1.4142857143
 42
50.0
 43
0.0
 44
0.0
 50
0.0
 51
0.0
 71
0
 72
100
 73
1
 74
1
 75
0
 76
0
 77
0
 78
0
  0
ENDTAB
  0
TABLE
  2
LTYPE
  5
5
100
AcDbSymbolTable
 70
6
  0
LTYPE
  5
14
100
AcDbSymbolTableRecord
100
AcDbLinetypeTableRecord
  2
BYBLOCK
 70
0
  3

 72
65
 73
0
 40
0.0
  0
LTYPE
  5
15
100
AcDbSymbolTableRecord
100
AcDbLinetypeTableRecord
  2
BYLAYER
 70
0
  3

 72
65
 73
0
 40
0.0
  0
LTYPE
  5
16
100
AcDbSymbolTableRecord
100
AcDbLinetypeTableRecord
  2
CONTINUOUS
 70
64
  3
Solid line
 72
65
 73
0
 40
0.0
  0
LTYPE
  5
1F5
100
AcDbSymbolTableRecord
100
AcDbLinetypeTableRecord
  2
CENTER
 70
64
  3
____ _ ____ _ ____ _ ____ _ ____ _ ____ _ ____
 72
65
 73
4
 40
0.6
 49
0.375
 74
0
 49
-0.075
 74
0
 49
0.075
 74
0
 49
-0.075
 74
0
  0
LTYPE
  5
1F6
100
AcDbSymbolTableRecord
100
AcDbLinetypeTableRecord
  2
HIDDEN
 70
64
  3
- - - - - - - - - - - - - - - - - - - -
 72
65
 73
2
 40
0.2
 49
0.1
 74
0
 49
-0.1
 74
0
  0
LTYPE
  5
1F7
100
AcDbSymbolTableRecord
100
AcDbLinetypeTableRecord
  2
PHANTOM
 70
64
  3
_____ _ _ _____ _ _ _____ _ _ _____
 72
65
 73
6
 40
0.8
 49
0.45
 74
0
 49
-0.05
 74
0
 49
0.1
 74
0
 49
-0.05
 74
0
 49
0.1
 74
0
 49
-0.05
 74
0
  0
LTYPE
  5
1F8
100
AcDbSymbolTableRecord
100
AcDbLinetypeTableRecord
  2
DOT
 70
64
  3
. . . . . . . . . . . . . . . . . . . .
 72
65
 73
2
 40
0.2
 49
0.1
 74
0
 49
-0.1
 74
0
  0
LTYPE
  5
1F9
100
AcDbSymbolTableRecord
100
AcDbLinetypeTableRecord
  2
DASHED
 70
64
  3
- - - - - - - - - - - - - - - - - - - -
 72
65
 73
2
 40
0.2
 49
0.1
 74
0
 49
-0.1
 74
0
  0
ENDTAB
  0
TABLE
  2
LAYER
  5
2
100
AcDbSymbolTable
 70
36
  0
LAYER
  5
10
100
AcDbSymbolTableRecord
100
AcDbLayerTableRecord
  2
0
 70
0
 62
7
  6
CONTINUOUS
370
-3
390
F
  0
LAYER
  5
1FA
100
AcDbSymbolTableRecord
100
AcDbLayerTableRecord
  2
DEFAULT_1
 70
0
 62
7
  6
CENTER
370
-3
390
F
  0
LAYER
  5
1FB
100
AcDbSymbolTableRecord
100
AcDbLayerTableRecord
  2
DEFAULT_2
 70
0
 62
7
  6
HIDDEN
370
-3
390
F
  0
LAYER
  5
1FC
100
AcDbSymbolTableRecord
100
AcDbLayerTableRecord
  2
DEFAULT_3
 70
0
 62
7
  6
PHANTOM
370
-3
390
F
  0
LAYER
  5
1FD
100
AcDbSymbolTableRecord
100
AcDbLayerTableRecord
  2
ASSI
 70
0
 62
7
  6
CONTINUOUS
370
-3
390
F
  0
LAYER
  5
1FE
100
AcDbSymbolTableRecord
100
AcDbLayerTableRecord
  2
COORDINATE
 70
0
 62
7
  6
CONTINUOUS
370
-3
390
F
  0
LAYER
  5
1FF
100
AcDbSymbolTableRecord
100
AcDbLayerTableRecord
  2
COPY_PUBLISH
 70
0
 62
7
  6
CONTINUOUS
370
-3
390
F
  0
LAYER
  5
200
100
AcDbSymbolTableRecord
100
AcDbLayerTableRecord
  2
COSMETIC
 70
0
 62
7
  6
CONTINUOUS
370
-3
390
F
  0
LAYER
  5
201
100
AcDbSymbolTableRecord
100
AcDbLayerTableRecord
  2
COSMETICI
 70
0
 62
7
  6
CONTINUOUS
370
-3
390
F
  0
LAYER
  5
202
100
AcDbSymbolTableRecord
100
AcDbLayerTableRecord
  2
CURVA_VERNICIATO
 70
0
 62
7
  6
CONTINUOUS
370
-3
390
F
  0
LAYER
  5
203
100
AcDbSymbolTableRecord
100
AcDbLayerTableRecord
  2
CURVE
 70
0
 62
7
  6
CONTINUOUS
370
-3
390
F
  0
LAYER
  5
204
100
AcDbSymbolTableRecord
100
AcDbLayerTableRecord
  2
DRAFT
 70
0
 62
7
  6
CONTINUOUS
370
-3
390
F
  0
LAYER
  5
205
100
AcDbSymbolTableRecord
100
AcDbLayerTableRecord
  2
IMPORT_IGES
 70
0
 62
7
  6
CONTINUOUS
370
-3
390
F
  0
LAYER
  5
206
100
AcDbSymbolTableRecord
100
AcDbLayerTableRecord
  2
INTFCLR_1
 70
0
 62
7
  6
CONTINUOUS
370
-3
390
F
  0
LAYER
  5
207
100
AcDbSymbolTableRecord
100
AcDbLayerTableRecord
  2
INTF_1
 70
0
 62
7
  6
CONTINUOUS
370
-3
390
F
  0
LAYER
  5
208
100
AcDbSymbolTableRecord
100
AcDbLayerTableRecord
  2
NOTE
 70
0
 62
7
  6
CONTINUOUS
370
-3
390
F
  0
LAYER
  5
209
100
AcDbSymbolTableRecord
100
AcDbLayerTableRecord
  2
PIANI
 70
0
 62
7
  6
CONTINUOUS
370
-3
390
F
  0
LAYER
  5
20A
100
AcDbSymbolTableRecord
100
AcDbLayerTableRecord
  2
PUNTI
 70
0
 62
7
  6
CONTINUOUS
370
-3
390
F
  0
LAYER
  5
20B
100
AcDbSymbolTableRecord
100
AcDbLayerTableRecord
  2
RACCORDO
 70
0
 62
7
  6
CONTINUOUS
370
-3
390
F
  0
LAYER
  5
20C
100
AcDbSymbolTableRecord
100
AcDbLayerTableRecord
  2
SIMBOLI
 70
0
 62
7
  6
CONTINUOUS
370
-3
390
F
  0
LAYER
  5
20D
100
AcDbSymbolTableRecord
100
AcDbLayerTableRecord
  2
SMUSSO
 70
0
 62
7
  6
CONTINUOUS
370
-3
390
F
  0
LAYER
  5
20E
100
AcDbSymbolTableRecord
100
AcDbLayerTableRecord
  2
SNAPLINE
 70
0
 62
7
  6
CONTINUOUS
370
-3
390
F
  0
LAYER
  5
20F
100
AcDbSymbolTableRecord
100
AcDbLayerTableRecord
  2
SUPERFICI
 70
0
 62
7
  6
CONTINUOUS
370
-3
390
F
  0
LAYER
  5
210
100
AcDbSymbolTableRecord
100
AcDbLayerTableRecord
  2
TRASH
 70
0
 62
7
  6
CONTINUOUS
370
-3
390
F
  0
LAYER
  5
211
100
AcDbSymbolTableRecord
100
AcDbLayerTableRecord
  2
XSEC_DATUMS
 70
0
 62
7
  6
CONTINUOUS
370
-3
390
F
  0
ENDTAB
  0
TABLE
  2
STYLE
  5
3
100
AcDbSymbolTable
 70
1
  0
STYLE
  5
11
100
AcDbSymbolTableRecord
100
AcDbTextStyleTableRecord
  2
STANDARD
 70
0
 40
0.0
 41
0.8
 50
0.0
 71
0
 42
0.2
  3
txt
  4

  0
STYLE
  5
212
100
AcDbSymbolTableRecord
100
AcDbTextStyleTableRecord
  2
TEXTSTYLE_1
 70
0
 40
0.0
 41
0.8
 50
0.0
 71
0
 42
0.2
  3
gdt
  4

  0
ENDTAB
  0
TABLE
  2
VIEW
  5
6
100
AcDbSymbolTable
 70
0
  0
ENDTAB
  0
TABLE
  2
UCS
  5
7
100
AcDbSymbolTable
 70
0
  0
ENDTAB
  0
TABLE
  2
APPID
  5
9
100
AcDbSymbolTable
 70
1
  0
APPID
  5
213
100
AcDbSymbolTableRecord
100
AcDbRegAppTableRecord
  2
ACAD
 70
0
  0
ENDTAB
  0
TABLE
  2
BLOCK_RECORD
  5
1
100
AcDbSymbolTable
 70
0
  0
BLOCK_RECORD
  5
214
100
AcDbSymbolTableRecord
100
AcDbBlockTableRecord
  2
*Model_Space
  0
BLOCK_RECORD
  5
215
100
AcDbSymbolTableRecord
100
AcDbBlockTableRecord
  2
*Paper_Space
  0
BLOCK_RECORD
  5
216
100
AcDbSymbolTableRecord
100
AcDbBlockTableRecord
  2
_FILLED
  0
ENDTAB
  0
TABLE
  2
DIMSTYLE
  5
A
100
AcDbSymbolTable
 70
1
100
AcDbDimStyleTable
 71
0
  0
DIMSTYLE
105
217
100
AcDbSymbolTableRecord
100
AcDbDimStyleTableRecord
  2
STANDARD
 70
0
  3

  4

 40
1.0
 41
3.0
 42
0.5
 43
0.38
 44
1.5
 45
0.0
 46
0.0
 47
0.01
 48
0.01
140
3.0
141
0.09
142
0.0
143
25.4
144
1.0
145
0.0
146
1.0
147
0.625
 71
1
 72
0
 73
0
 74
0
 75
0
 76
0
 77
1
 78
8
 79
2
170
0
171
1
172
0
173
0
174
0
175
0
176
0
177
0
178
0
270
2
179
2
271
2
272
2
273
2
274
2
275
0
280
0
281
0
282
0
283
1
284
8
285
0
286
0
287
3
288
0
340
11
278
44
341
216
342
216
343
216
344
216
  0
ENDTAB
  0
ENDSEC
  0
SECTION
  2
BLOCKS
  0
BLOCK
  5
20
100
AcDbEntity
  8
0
100
AcDbBlockBegin
  2
*Model_Space
 70
0
 10
0.0
 20
0.0
 30
0.0
  3
*Model_Space
  1

  0
ENDBLK
  5
21
100
AcDbEntity
  8
0
100
AcDbBlockEnd
  0
BLOCK
  5
1C
100
AcDbEntity
  8
0
100
AcDbBlockBegin
  2
*Paper_Space
 70
0
 10
0.0
 20
0.0
 30
0.0
  3
*Paper_Space
  1

  0
ENDBLK
  5
1D
100
AcDbEntity
  8
0
100
AcDbBlockEnd
  0
BLOCK
  5
218
100
AcDbEntity
  8
0
100
AcDbBlockBegin
  2
_FILLED
 70
64
 10
0.0
 20
0.0
  3
_FILLED
  1

  0
SOLID
  5
219
100
AcDbEntity
  8
0
  6
BYBLOCK
 62
0
100
AcDbTrace
 10
0.0
 20
0.0
 11
-1.0
 21
0.3166666667
 12
-1.0
 22
-0.3166666667
 13
-1.0
 23
-0.3166666667
  0
ENDBLK
  5
21A
100
AcDbEntity
  8
0
  6
BYBLOCK
 62
0
100
AcDbBlockEnd
  0
ENDSEC
  0
SECTION
  2
ENTITIES
  0
LWPOLYLINE
  5
21B
100
AcDbEntity
  8
ASSI
100
AcDbPolyline
 62
7
  6
CONTINUOUS
 90
14
 70
0
 10
-50.3773125141
 20
64.3545472168
 10
-50.4060181384
 20
64.3330606969
 10
-50.4420675238
 20
64.302258782
 10
-50.4762338012
 20
64.2685135897
 10
-50.5083630326
 20
64.2319276864
 10
-50.5383257374
 20
64.1925859909
 10
-50.5659964496
 20
64.1505965528
 10
-50.5912665668
 20
64.1060701351
 10
-50.614050544
 20
64.0590703759
 10
-50.6342453379
 20
64.009689962
 10
-50.6517591511
 20
63.9580244377
 10
-50.666510551
 20
63.904113007
 10
-50.6783965828
 20
63.8480278145
 10
-50.6859529877
 20
63.8003508023
  0
LWPOLYLINE
  5
21C
100
AcDbEntity
  8
RACCORDO
100
AcDbPolyline
 62
7
  6
CONTINUOUS
 90
14
 70
0
 10
-50.3773125141
 20
64.3545472168
 10
-50.4060181384
 20
64.3330606969
 10
-50.4420675238
 20
64.302258782
 10
-50.4762338012
 20
64.2685135897
 10
-50.5083630326
 20
64.2319276864
 10
-50.5383257374
 20
64.1925859909
 10
-50.5659964496
 20
64.1505965528
 10
-50.5912665668
 20
64.1060701351
 10
-50.614050544
 20
64.0590703759
 10
-50.6342453379
 20
64.009689962
 10
-50.6517591511
 20
63.9580244377
 10
-50.666510551
 20
63.904113007
 10
-50.6783965828
 20
63.8480278145
 10
-50.6859529877
 20
63.8003508023
  0
LINE
  5
21D
100
AcDbEntity
  8
ASSI
100
AcDbLine
 62
7
  6
CONTINUOUS
 10
-50.3772847504
 20
64.3545681194
 11
-48.7691746935
 21
65.4884688382
  0
LINE
  5
21E
100
AcDbEntity
  8
RACCORDO
100
AcDbLine
 62
7
  6
CONTINUOUS
 10
-50.3772847504
 20
64.3545681194
 11
-48.7691746935
 21
65.4884688382
  0
LINE
  5
21F
100
AcDbEntity
  8
ASSI
100
AcDbLine
 62
250
  6
CONTINUOUS
 10
-49.8192019535
 20
64.3445628497
 11
-48.2441228777
 21
65.4551729283
  0
LINE
  5
220
100
AcDbEntity
  8
RACCORDO
100
AcDbLine
 62
250
  6
CONTINUOUS
 10
-49.8192019535
 20
64.3445628497
 11
-48.2441228777
 21
65.4551729283
  0
LWPOLYLINE
  5
221
100
AcDbEntity
  8
ASSI
100
AcDbPolyline
 62
250
  6
CONTINUOUS
 90
10
 70
0
 10
-50.5974267624
 20
63.6830930873
 10
-50.8689724641
 20
61.594974408
 10
-51.1181748499
 20
59.5166846923
 10
-51.3449810324
 20
57.4486418404
 10
-51.5493405306
 20
55.391264277
 10
-51.7312124608
 20
53.344963466
 10
-51.8905651258
 20
51.3101440135
 10
-52.0273666427
 20
49.2872133791
 10
-52.1415853689
 20
47.2765816066
 10
-52.233196796
 20
45.2786539709
  0
LWPOLYLINE
  5
222
100
AcDbEntity
  8
RACCORDO
100
AcDbPolyline
 62
250
  6
CONTINUOUS
 90
10
 70
0
 10
-50.5974267624
 20
63.6830930873
 10
-50.8689724641
 20
61.594974408
 10
-51.1181748499
 20
59.5166846923
 10
-51.3449810324
 20
57.4486418404
 10
-51.5493405306
 20
55.391264277
 10
-51.7312124608
 20
53.344963466
 10
-51.8905651258
 20
51.3101440135
 10
-52.0273666427
 20
49.2872133791
 10
-52.1415853689
 20
47.2765816066
 10
-52.233196796
 20
45.2786539709
  0
LWPOLYLINE
  5
223
100
AcDbEntity
  8
ASSI
100
AcDbPolyline
 62
7
  6
CONTINUOUS
 90
10
 70
0
 10
-50.6859571692
 20
63.8003537703
 10
-50.9504202656
 20
61.7686062372
 10
-51.2018307056
 20
59.675771983
 10
-51.4305379626
 20
57.5932550282
 10
-51.6364849559
 20
55.5215377682
 10
-51.8196331591
 20
53.4610181322
 10
-51.9799485537
 20
51.4120642542
 10
-52.1173967322
 20
49.3750743163
 10
-52.2319478078
 20
47.3505196858
 10
-52.3210885831
 20
45.4007772895
  0
LWPOLYLINE
  5
224
100
AcDbEntity
  8
RACCORDO
100
AcDbPolyline
 62
7
  6
CONTINUOUS
 90
10
 70
0
 10
-50.6859571692
 20
63.8003537703
 10
-50.9504202656
 20
61.7686062372
 10
-51.2018307056
 20
59.675771983
 10
-51.4305379626
 20
57.5932550282
 10
-51.6364849559
 20
55.5215377682
 10
-51.8196331591
 20
53.4610181322
 10
-51.9799485537
 20
51.4120642542
 10
-52.1173967322
 20
49.3750743163
 10
-52.2319478078
 20
47.3505196858
 10
-52.3210885831
 20
45.4007772895
  0
LWPOLYLINE
  5
225
100
AcDbEntity
  8
ASSI
100
AcDbPolyline
 62
250
  6
CONTINUOUS
 90
16
 70
0
 10
-50.0167064599
 20
64.0303906554
 10
-50.0124544555
 20
64.0540922704
 10
-50.0065827495
 20
64.0782082685
 10
-49.9991378691
 20
64.1025475113
 10
-49.9901788107
 20
64.1269170896
 10
-49.9797765734
 20
64.1511238499
 10
-49.9680135959
 20
64.174975926
 10
-49.9549831022
 20
64.1982842637
 10
-49.9407883653
 20
64.2208641138
 10
-49.9255418901
 20
64.2425364954
 10
-49.9093645154
 20
64.263129625
 10
-49.8923844612
 20
64.2824802696
 10
-49.8747363172
 20
64.3004350374
 10
-49.8565599661
 20
64.3168516051
 10
-49.8379994736
 20
64.3315998451
 10
-49.8192019538
 20
64.3445628498
  0
LWPOLYLINE
  5
226
100
AcDbEntity
  8
RACCORDO
100
AcDbPolyline
 62
250
  6
CONTINUOUS
 90
16
 70
0
 10
-50.0167064599
 20
64.0303906554
 10
-50.0124544555
 20
64.0540922704
 10
-50.0065827495
 20
64.0782082685
 10
-49.9991378691
 20
64.1025475113
 10
-49.9901788107
 20
64.1269170896
 10
-49.9797765734
 20
64.1511238499
 10
-49.9680135959
 20
64.174975926
 10
-49.9549831022
 20
64.1982842637
 10
-49.9407883653
 20
64.2208641138
 10
-49.9255418901
 20
64.2425364954
 10
-49.9093645154
 20
64.263129625
 10
-49.8923844612
 20
64.2824802696
 10
-49.8747363172
 20
64.3004350374
 10
-49.8565599661
 20
64.3168516051
 10
-49.8379994736
 20
64.3315998451
 10
-49.8192019538
 20
64.3445628498
  0
LWPOLYLINE
  5
227
100
AcDbEntity
  8
ASSI
100
AcDbPolyline
 62
250
  6
CONTINUOUS
 90
9
 70
0
 10
-52.2331967965
 20
8.2637332818
 10
-52.1415853644
 20
6.383282038
 10
-52.0273666353
 20
4.5191080251
 10
-51.890565121
 20
2.671588214
 10
-51.7312124735
 20
0.8411008093
 10
-51.5493405741
 20
-0.9719882535
 10
-51.3449810985
 20
-2.767325078
 10
-51.1181749161
 20
-4.5445501089
 10
-50.8689725099
 20
-6.3032985096
  0
LWPOLYLINE
  5
228
100
AcDbEntity
  8
RACCORDO
100
AcDbPolyline
 62
250
  6
CONTINUOUS
 90
9
 70
0
 10
-52.2331967965
 20
8.2637332818
 10
-52.1415853644
 20
6.383282038
 10
-52.0273666353
 20
4.5191080251
 10
-51.890565121
 20
2.671588214
 10
-51.7312124735
 20
0.8411008093
 10
-51.5493405741
 20
-0.9719882535
 10
-51.3449810985
 20
-2.767325078
 10
-51.1181749161
 20
-4.5445501089
 10
-50.8689725099
 20
-6.3032985096
  0
LWPOLYLINE
  5
229
100
AcDbEntity
  8
ASSI
100
AcDbPolyline
 62
7
  6
CONTINUOUS
 90
10
 70
0
 10
-52.3210613317
 20
8.3856083611
 10
-52.2321756528
 20
6.5547938744
 10
-52.1176384865
 20
4.6763038799
 10
-51.9801834128
 20
2.8146070723
 10
-51.8198369131
 20
0.9701392856
 10
-51.6366299146
 20
-0.8567434442
 10
-51.4305928103
 20
-2.6657161425
 10
-51.2017603759
 20
-4.4564293167
 10
-50.9501860527
 20
-6.2284716795
 10
-50.6847319153
 20
-7.9276045637
  0
LWPOLYLINE
  5
22A
100
AcDbEntity
  8
RACCORDO
100
AcDbPolyline
 62
7
  6
CONTINUOUS
 90
10
 70
0
 10
-52.3210613317
 20
8.3856083611
 10
-52.2321756528
 20
6.5547938744
 10
-52.1176384865
 20
4.6763038799
 10
-51.9801834128
 20
2.8146070723
 10
-51.8198369131
 20
0.9701392856
 10
-51.6366299146
 20
-0.8567434442
 10
-51.4305928103
 20
-2.6657161425
 10
-51.2017603759
 20
-4.4564293167
 10
-50.9501860527
 20
-6.2284716795
 10
-50.6847319153
 20
-7.9276045637
  0
LINE
  5
22B
100
AcDbEntity
  8
ASSI
100
AcDbLine
 62
250
  6
CONTINUOUS
 10
-52.3501347598
 20
11.27104303
 11
-52.2331968686
 21
8.2637333234
  0
LINE
  5
22C
100
AcDbEntity
  8
RACCORDO
100
AcDbLine
 62
250
  6
CONTINUOUS
 10
-52.3501347598
 20
11.27104303
 11
-52.2331968686
 21
8.2637333234
  0
LWPOLYLINE
  5
22D
100
AcDbEntity
  8
ASSI
100
AcDbPolyline
 62
250
  6
CONTINUOUS
 90
12
 70
0
 10
-52.233196868
 20
45.2786540124
 10
-52.3501347676
 20
42.1213791038
 10
-52.4458285962
 20
38.9765234499
 10
-52.5202687053
 20
35.8443100045
 10
-52.5734473773
 20
32.7249218539
 10
-52.6053572141
 20
29.6186197121
 10
-52.615993947
 20
26.5257403236
 10
-52.6053572082
 20
23.4465021277
 10
-52.5734473671
 20
20.3811221405
 10
-52.520268693
 20
17.3299306804
 10
-52.4458285844
 20
14.2931794194
 10
-52.3501347598
 20
11.27104303
  0
LWPOLYLINE
  5
22E
100
AcDbEntity
  8
RACCORDO
100
AcDbPolyline
 62
250
  6
CONTINUOUS
 90
12
 70
0
 10
-52.233196868
 20
45.2786540124
 10
-52.3501347676
 20
42.1213791038
 10
-52.4458285962
 20
38.9765234499
 10
-52.5202687053
 20
35.8443100045
 10
-52.5734473773
 20
32.7249218539
 10
-52.6053572141
 20
29.6186197121
 10
-52.615993947
 20
26.5257403236
 10
-52.6053572082
 20
23.4465021277
 10
-52.5734473671
 20
20.3811221405
 10
-52.520268693
 20
17.3299306804
 10
-52.4458285844
 20
14.2931794194
 10
-52.3501347598
 20
11.27104303
  0
LWPOLYLINE
  5
22F
100
AcDbEntity
  8
ASSI
100
AcDbPolyline
 62
7
  6
CONTINUOUS
 90
13
 70
0
 10
-52.321088584
 20
45.4007773389
 10
-52.4361189806
 20
42.2998112572
 10
-52.5324817027
 20
39.1439319471
 10
-52.6074429178
 20
36.0008670834
 10
-52.6609951882
 20
32.8708669147
 10
-52.693135518
 20
29.7541504962
 10
-52.7038619045
 20
26.650924772
 10
-52.693172768
 20
23.5614051572
 10
-52.6610689684
 20
20.4858054945
 10
-52.6075517875
 20
17.4243305758
 10
-52.5326234988
 20
14.3771960347
 10
-52.4362908176
 20
11.3446430508
 10
-52.3210613317
 20
8.3856082731
  0
LWPOLYLINE
  5
230
100
AcDbEntity
  8
RACCORDO
100
AcDbPolyline
 62
7
  6
CONTINUOUS
 90
13
 70
0
 10
-52.321088584
 20
45.4007773389
 10
-52.4361189806
 20
42.2998112572
 10
-52.5324817027
 20
39.1439319471
 10
-52.6074429178
 20
36.0008670834
 10
-52.6609951882
 20
32.8708669147
 10
-52.693135518
 20
29.7541504962
 10
-52.7038619045
 20
26.650924772
 10
-52.693172768
 20
23.5614051572
 10
-52.6610689684
 20
20.4858054945
 10
-52.6075517875
 20
17.4243305758
 10
-52.5326234988
 20
14.3771960347
 10
-52.4362908176
 20
11.3446430508
 10
-52.3210613317
 20
8.3856082731
  0
LWPOLYLINE
  5
231
100
AcDbEntity
  8
ASSI
100
AcDbPolyline
 62
250
  6
CONTINUOUS
 90
23
 70
0
 10
50.7103958486
 20
-66.9896252943
 10
50.7357501926
 20
-66.9957984635
 10
50.7602874249
 20
-66.9999881297
 10
50.7839958683
 20
-67.002208
 10
50.8066078786
 20
-67.0024160691
 10
50.8281022146
 20
-67.0005895111
 10
50.8485012025
 20
-66.9967502952
 10
50.8676025294
 20
-66.9909236252
 10
50.8853977553
 20
-66.9830901737
 10
50.9018965767
 20
-66.9732682773
 10
50.9169237845
 20
-66.961539716
 10
50.9304666904
 20
-66.947883335
 10
50.9425392637
 20
-66.9323192806
 10
50.9530060813
 20
-66.9149914425
 10
50.961850995
 20
-66.8958790498
 10
50.9690912999
 20
-66.8750019723
 10
50.9746414392
 20
-66.8525652971
 10
50.9784820265
 20
-66.8285420236
 10
50.9806333176
 20
-66.8029584715
 10
50.9810688167
 20
-66.7761000253
 10
50.9797797319
 20
-66.7480617831
 10
50.9767752338
 20
-66.7187483532
 10
50.9720555408
 20
-66.6881595662
  0
LWPOLYLINE
  5
232
100
AcDbEntity
  8
RACCORDO
100
AcDbPolyline
 62
250
  6
CONTINUOUS
 90
23
 70
0
 10
50.7103958486
 20
-66.9896252943
 10
50.7357501926
 20
-66.9957984635
 10
50.7602874249
 20
-66.9999881297
 10
50.7839958683
 20
-67.002208
 10
50.8066078786
 20
-67.0024160691
 10
50.8281022146
 20
-67.0005895111
 10
50.8485012025
 20
-66.9967502952
 10
50.8676025294
 20
-66.9909236252
 10
50.8853977553
 20
-66.9830901737
 10
50.9018965767
 20
-66.9732682773
 10
50.9169237845
 20
-66.961539716
 10
50.9304666904
 20
-66.947883335
 10
50.9425392637
 20
-66.9323192806
 10
50.9530060813
 20
-66.9149914425
 10
50.961850995
 20
-66.8958790498
 10
50.9690912999
 20
-66.8750019723
 10
50.9746414392
 20
-66.8525652971
 10
50.9784820265
 20
-66.8285420236
 10
50.9806333176
 20
-66.8029584715
 10
50.9810688167
 20
-66.7761000253
 10
50.9797797319
 20
-66.7480617831
 10
50.9767752338
 20
-66.7187483532
 10
50.9720555408
 20
-66.6881595662
  0
LWPOLYLINE
  5
233
100
AcDbEntity
  8
ASSI
100
AcDbPolyline
 62
7
  6
CONTINUOUS
 90
16
 70
0
 10
-50.6309483779
 20
-8.1283713523
 10
-50.6097453108
 20
-8.1825386391
 10
-50.5858585529
 20
-8.2367118093
 10
-50.559383356
 20
-8.2907608288
 10
-50.5304646201
 20
-8.344443339
 10
-50.499218874
 20
-8.3976030193
 10
-50.4657468318
 20
-8.4500894394
 10
-50.4302432
 20
-8.5016140436
 10
-50.3928421711
 20
-8.5520045697
 10
-50.3536666893
 20
-8.6010862077
 10
-50.3129517042
 20
-8.6485681099
 10
-50.2708319573
 20
-8.6942906883
 10
-50.2274468316
 20
-8.7380802188
 10
-50.1830476689
 20
-8.779677187
 10
-50.1377704118
 20
-8.8189337837
 10
-50.0917236325
 20
-8.8557250139
  0
LWPOLYLINE
  5
234
100
AcDbEntity
  8
RACCORDO
100
AcDbPolyline
 62
7
  6
CONTINUOUS
 90
16
 70
0
 10
-50.6309483779
 20
-8.1283713523
 10
-50.6097453108
 20
-8.1825386391
 10
-50.5858585529
 20
-8.2367118093
 10
-50.559383356
 20
-8.2907608288
 10
-50.5304646201
 20
-8.344443339
 10
-50.499218874
 20
-8.3976030193
 10
-50.4657468318
 20
-8.4500894394
 10
-50.4302432
 20
-8.5016140436
 10
-50.3928421711
 20
-8.5520045697
 10
-50.3536666893
 20
-8.6010862077
 10
-50.3129517042
 20
-8.6485681099
 10
-50.2708319573
 20
-8.6942906883
 10
-50.2274468316
 20
-8.7380802188
 10
-50.1830476689
 20
-8.779677187
 10
-50.1377704118
 20
-8.8189337837
 10
-50.0917236325
 20
-8.8557250139
  0
LWPOLYLINE
  5
235
100
AcDbEntity
  8
ASSI
100
AcDbPolyline
 62
7
  6
CONTINUOUS
 90
4
 70
0
 10
-50.6774994647
 20
-7.966713284
 10
-50.664928922
 20
-8.0204044987
 10
-50.6493750106
 20
-8.0743011915
 10
-50.6309483779
 20
-8.1283713523
  0
LWPOLYLINE
  5
236
100
AcDbEntity
  8
RACCORDO
100
AcDbPolyline
 62
7
  6
CONTINUOUS
 90
4
 70
0
 10
-50.6774994647
 20
-7.966713284
 10
-50.664928922
 20
-8.0204044987
 10
-50.6493750106
 20
-8.0743011915
 10
-50.6309483779
 20
-8.1283713523
  0
LWPOLYLINE
  5
237
100
AcDbEntity
  8
ASSI
100
AcDbPolyline
 62
250
  6
CONTINUOUS
 90
8
 70
0
 10
-50.0167064599
 20
-8.8504936815
 10
-50.0124543593
 20
-8.869285443
 10
-50.006582525
 20
-8.8866211136
 10
-49.9991374977
 20
-8.9023632892
 10
-49.9901782874
 20
-8.9163871958
 10
-49.9797759057
 20
-8.9285816785
 10
-49.9680128029
 20
-8.9388500827
 10
-49.9581070687
 20
-8.9453804265
  0
LWPOLYLINE
  5
238
100
AcDbEntity
  8
RACCORDO
100
AcDbPolyline
 62
250
  6
CONTINUOUS
 90
8
 70
0
 10
-50.0167064599
 20
-8.8504936815
 10
-50.0124543593
 20
-8.869285443
 10
-50.006582525
 20
-8.8866211136
 10
-49.9991374977
 20
-8.9023632892
 10
-49.9901782874
 20
-8.9163871958
 10
-49.9797759057
 20
-8.9285816785
 10
-49.9680128029
 20
-8.9388500827
 10
-49.9581070687
 20
-8.9453804265
  0
LWPOLYLINE
  5
239
100
AcDbEntity
  8
ASSI
100
AcDbPolyline
 62
250
  6
CONTINUOUS
 90
28
 70
0
 10
-50.5974267624
 20
-8.043213449
 10
-50.5915170907
 20
-8.0745100033
 10
-50.5839949349
 20
-8.1064304341
 10
-50.5748605309
 20
-8.1389749246
 10
-50.5640733367
 20
-8.1722527554
 10
-50.5516743147
 20
-8.2061549723
 10
-50.5377861509
 20
-8.2403545595
 10
-50.5223854214
 20
-8.2748729788
 10
-50.5054963736
 20
-8.309689413
 10
-50.487313586
 20
-8.3444137314
 10
-50.4678304972
 20
-8.3790300231
 10
-50.4470548212
 20
-8.4135551046
 10
-50.425202862
 20
-8.4476481834
 10
-50.402265112
 20
-8.4813055893
 10
-50.3782523526
 20
-8.5145319953
 10
-50.3534115184
 20
-8.5469992794
 10
-50.3277364766
 20
-8.5786990596
 10
-50.301234615
 20
-8.6096407075
 10
-50.2741732545
 20
-8.6395228144
 10
-50.2465476449
 20
-8.6683352512
 10
-50.2183636258
 20
-8.6960890071
 10
-50.1899044222
 20
-8.7225143664
 10
-50.1611628425
 20
-8.7476013505
 10
-50.1321468787
 20
-8.7713605705
 10
-50.1031624825
 20
-8.7935531575
 10
-50.0743117833
 20
-8.8140996035
 10
-50.045493074
 20
-8.8330797505
 10
-50.0167064599
 20
-8.8504936815
  0
LWPOLYLINE
  5
23A
100
AcDbEntity
  8
RACCORDO
100
AcDbPolyline
 62
250
  6
CONTINUOUS
 90
28
 70
0
 10
-50.5974267624
 20
-8.043213449
 10
-50.5915170907
 20
-8.0745100033
 10
-50.5839949349
 20
-8.1064304341
 10
-50.5748605309
 20
-8.1389749246
 10
-50.5640733367
 20
-8.1722527554
 10
-50.5516743147
 20
-8.2061549723
 10
-50.5377861509
 20
-8.2403545595
 10
-50.5223854214
 20
-8.2748729788
 10
-50.5054963736
 20
-8.309689413
 10
-50.487313586
 20
-8.3444137314
 10
-50.4678304972
 20
-8.3790300231
 10
-50.4470548212
 20
-8.4135551046
 10
-50.425202862
 20
-8.4476481834
 10
-50.402265112
 20
-8.4813055893
 10
-50.3782523526
 20
-8.5145319953
 10
-50.3534115184
 20
-8.5469992794
 10
-50.3277364766
 20
-8.5786990596
 10
-50.301234615
 20
-8.6096407075
 10
-50.2741732545
 20
-8.6395228144
 10
-50.2465476449
 20
-8.6683352512
 10
-50.2183636258
 20
-8.6960890071
 10
-50.1899044222
 20
-8.7225143664
 10
-50.1611628425
 20
-8.7476013505
 10
-50.1321468787
 20
-8.7713605705
 10
-50.1031624825
 20
-8.7935531575
 10
-50.0743117833
 20
-8.8140996035
 10
-50.045493074
 20
-8.8330797505
 10
-50.0167064599
 20
-8.8504936815
  0
LINE
  5
23B
100
AcDbEntity
  8
ASSI
100
AcDbLine
 62
7
  6
CONTINUOUS
 10
-50.6847578224
 20
-7.9274194162
 11
-50.6774994647
 21
-7.966713284
  0
LINE
  5
23C
100
AcDbEntity
  8
RACCORDO
100
AcDbLine
 62
7
  6
CONTINUOUS
 10
-50.6847578224
 20
-7.9274194162
 11
-50.6774994647
 21
-7.966713284
  0
LINE
  5
23D
100
AcDbEntity
  8
ASSI
100
AcDbLine
 62
7
  6
CONTINUOUS
 10
-50.6847278196
 20
-7.9276038957
 11
-50.6847578224
 21
-7.9274194162
  0
LINE
  5
23E
100
AcDbEntity
  8
RACCORDO
100
AcDbLine
 62
7
  6
CONTINUOUS
 10
-50.6847278196
 20
-7.9276038957
 11
-50.6847578224
 21
-7.9274194162
  0
LINE
  5
23F
100
AcDbEntity
  8
ASSI
100
AcDbLine
 62
250
  6
CONTINUOUS
 10
-50.8689725099
 20
-6.3032985096
 11
-50.5974267624
 21
-8.043213449
  0
LINE
  5
240
100
AcDbEntity
  8
RACCORDO
100
AcDbLine
 62
250
  6
CONTINUOUS
 10
-50.8689725099
 20
-6.3032985096
 11
-50.5974267624
 21
-8.043213449
  0
LWPOLYLINE
  5
241
100
AcDbEntity
  8
ASSI
100
AcDbPolyline
 62
250
  6
CONTINUOUS
 90
16
 70
0
 10
-33.6894548846
 20
34.5717791044
 10
-33.6517033555
 20
34.6018970316
 10
-33.611734135
 20
34.627810568
 10
-33.5695497053
 20
34.649518421
 10
-33.5249764554
 20
34.6670963753
 10
-33.478192431
 20
34.6804663409
 10
-33.4297277471
 20
34.6893961387
 10
-33.3795251105
 20
34.693807766
 10
-33.3276460369
 20
34.6937770383
 10
-33.2747991235
 20
34.6893023672
 10
-33.2209548962
 20
34.6802796157
 10
-33.1661460657
 20
34.6668112486
 10
-33.1111743732
 20
34.6492056497
 10
-33.0563076451
 20
34.627565315
 10
-33.0012797396
 20
34.6017868794
 10
-32.9460910726
 20
34.5718701285
  0
LWPOLYLINE
  5
242
100
AcDbEntity
  8
RACCORDO
100
AcDbPolyline
 62
250
  6
CONTINUOUS
 90
16
 70
0
 10
-33.6894548846
 20
34.5717791044
 10
-33.6517033555
 20
34.6018970316
 10
-33.611734135
 20
34.627810568
 10
-33.5695497053
 20
34.649518421
 10
-33.5249764554
 20
34.6670963753
 10
-33.478192431
 20
34.6804663409
 10
-33.4297277471
 20
34.6893961387
 10
-33.3795251105
 20
34.693807766
 10
-33.3276460369
 20
34.6937770383
 10
-33.2747991235
 20
34.6893023672
 10
-33.2209548962
 20
34.6802796157
 10
-33.1661460657
 20
34.6668112486
 10
-33.1111743732
 20
34.6492056497
 10
-33.0563076451
 20
34.627565315
 10
-33.0012797396
 20
34.6017868794
 10
-32.9460910726
 20
34.5718701285
  0
LWPOLYLINE
  5
243
100
AcDbEntity
  8
ASSI
100
AcDbPolyline
 62
250
  6
CONTINUOUS
 90
4
 70
0
 10
-33.0841945112
 20
34.3292465893
 10
-33.0603090333
 20
34.3479625356
 10
-33.0348616764
 20
34.3642264467
 10
-33.0113968602
 20
34.3763828884
  0
LWPOLYLINE
  5
244
100
AcDbEntity
  8
RACCORDO
100
AcDbPolyline
 62
250
  6
CONTINUOUS
 90
4
 70
0
 10
-33.0841945112
 20
34.3292465893
 10
-33.0603090333
 20
34.3479625356
 10
-33.0348616764
 20
34.3642264467
 10
-33.0113968602
 20
34.3763828884
  0
LINE
  5
245
100
AcDbEntity
  8
ASSI
100
AcDbLine
 62
7
  6
CONTINUOUS
 10
-31.1665250467
 20
32.7334564033
 11
-30.8160570699
 21
32.925119294
  0
LINE
  5
246
100
AcDbEntity
  8
0
100
AcDbLine
 62
7
  6
CONTINUOUS
 10
-31.1665250467
 20
32.7334564033
 11
-30.8160570699
 21
32.925119294
  0
LINE
  5
247
100
AcDbEntity
  8
ASSI
100
AcDbLine
 62
250
  6
CONTINUOUS
 10
-33.2250812651
 20
33.9869904659
 11
-32.6917725472
 21
34.233580615
  0
LINE
  5
248
100
AcDbEntity
  8
0
100
AcDbLine
 62
250
  6
CONTINUOUS
 10
-33.2250812651
 20
33.9869904659
 11
-32.6917725472
 21
34.233580615
  0
LWPOLYLINE
  5
249
100
AcDbEntity
  8
ASSI
100
AcDbPolyline
 62
7
  6
CONTINUOUS
 90
13
 70
0
 10
-33.0126865077
 20
34.3759313739
 10
-33.0126355136
 20
34.3759542561
 10
-33.0110531724
 20
34.376252742
 10
-33.0069133943
 20
34.3766662114
 10
-32.9993175718
 20
34.3767694884
 10
-32.9878878982
 20
34.3759448757
 10
-32.9730111408
 20
34.3736625319
 10
-32.9550639873
 20
34.3695382512
 10
-32.9342603481
 20
34.3632395593
 10
-32.9109483542
 20
34.3545400181
 10
-32.8856573655
 20
34.3433756466
 10
-32.858719359
 20
34.3296878761
 10
-32.8432015847
 20
34.3210124573
  0
LWPOLYLINE
  5
24A
100
AcDbEntity
  8
RACCORDO
100
AcDbPolyline
 62
7
  6
CONTINUOUS
 90
13
 70
0
 10
-33.0126865077
 20
34.3759313739
 10
-33.0126355136
 20
34.3759542561
 10
-33.0110531724
 20
34.376252742
 10
-33.0069133943
 20
34.3766662114
 10
-32.9993175718
 20
34.3767694884
 10
-32.9878878982
 20
34.3759448757
 10
-32.9730111408
 20
34.3736625319
 10
-32.9550639873
 20
34.3695382512
 10
-32.9342603481
 20
34.3632395593
 10
-32.9109483542
 20
34.3545400181
 10
-32.8856573655
 20
34.3433756466
 10
-32.858719359
 20
34.3296878761
 10
-32.8432015847
 20
34.3210124573
  0
LWPOLYLINE
  5
24B
100
AcDbEntity
  8
ASSI
100
AcDbPolyline
 62
250
  6
CONTINUOUS
 90
12
 70
0
 10
30.5723985326
 20
-39.0003975154
 10
30.5466612629
 20
-39.0066829035
 10
30.5196481866
 20
-39.0103427984
 10
30.4914388583
 20
-39.0113460167
 10
30.462162942
 20
-39.0096685881
 10
30.4319843466
 20
-39.0053374997
 10
30.4010229756
 20
-38.9983706529
 10
30.3694108651
 20
-38.9887982171
 10
30.3373488029
 20
-38.976725722
 10
30.3049956925
 20
-38.9622497319
 10
30.2724605961
 20
-38.9454297003
 10
30.2398736399
 20
-38.9263517801
  0
LWPOLYLINE
  5
24C
100
AcDbEntity
  8
RACCORDO
100
AcDbPolyline
 62
250
  6
CONTINUOUS
 90
12
 70
0
 10
30.5723985326
 20
-39.0003975154
 10
30.5466612629
 20
-39.0066829035
 10
30.5196481866
 20
-39.0103427984
 10
30.4914388583
 20
-39.0113460167
 10
30.462162942
 20
-39.0096685881
 10
30.4319843466
 20
-39.0053374997
 10
30.4010229756
 20
-38.9983706529
 10
30.3694108651
 20
-38.9887982171
 10
30.3373488029
 20
-38.976725722
 10
30.3049956925
 20
-38.9622497319
 10
30.2724605961
 20
-38.9454297003
 10
30.2398736399
 20
-38.9263517801
  0
LINE
  5
24D
100
AcDbEntity
  8
0
100
AcDbLine
 62
250
  6
CONTINUOUS
 10
-34.3241186461
 20
38.2178287175
 11
-34.3807520328
 21
37.2469943578
  0
LINE
  5
24E
100
AcDbEntity
  8
0
100
AcDbLine
 62
250
  6
CONTINUOUS
 10
-34.2482786485
 20
38.2616098974
 11
-34.3054004434
 21
37.2904935158
  0
LWPOLYLINE
  5
24F
100
AcDbEntity
  8
0
100
AcDbPolyline
 62
250
  6
CONTINUOUS
 90
3
 70
0
 10
-34.1723961467
 20
38.3054156187
 10
-34.2023250545
 20
37.8122003348
 10
-34.230006362
 20
37.3340180571
  0
LINE
  5
250
100
AcDbEntity
  8
0
100
AcDbLine
 62
250
  6
CONTINUOUS
 10
-34.9129754443
 20
39.876539407
 11
-34.9848703246
 21
38.7745280077
  0
LWPOLYLINE
  5
251
100
AcDbEntity
  8
0
100
AcDbPolyline
 62
250
  6
CONTINUOUS
 90
3
 70
0
 10
-34.9777977103
 20
40.0022741662
 10
-35.0111796934
 20
39.5073714275
 10
-35.0607535334
 20
38.7307226967
  0
LWPOLYLINE
  5
252
100
AcDbEntity
  8
0
100
AcDbPolyline
 62
250
  6
CONTINUOUS
 90
3
 70
0
 10
-35.0425766753
 20
40.1280331104
 10
-35.0762053082
 20
39.6330111249
 10
-35.1365935308
 20
38.686941521
  0
LINE
  5
253
100
AcDbEntity
  8
0
100
AcDbLine
 62
250
  6
CONTINUOUS
 10
-34.0309028241
 20
40.3857464145
 11
-34.1005012688
 21
39.4074269796
  0
LINE
  5
254
100
AcDbEntity
  8
0
100
AcDbLine
 62
250
  6
CONTINUOUS
 10
-34.0952340971
 20
40.5117646669
 11
-34.1653228256
 21
39.533161361
  0
LINE
  5
255
100
AcDbEntity
  8
0
100
AcDbLine
 62
250
  6
CONTINUOUS
 10
-34.1595227633
 20
40.6378067034
 11
-34.2301017906
 21
39.6589203057
  0
LWPOLYLINE
  5
256
100
AcDbEntity
  8
ASSI
100
AcDbPolyline
 62
7
  6
CONTINUOUS
 90
3
 70
0
 10
-50.0917236325
 20
-8.8557250139
 10
-50.045059718
 20
-8.8898933782
 10
-49.9978580719
 20
-8.9213218391
  0
LWPOLYLINE
  5
257
100
AcDbEntity
  8
RACCORDO
100
AcDbPolyline
 62
7
  6
CONTINUOUS
 90
3
 70
0
 10
-50.0917236325
 20
-8.8557250139
 10
-50.045059718
 20
-8.8898933782
 10
-49.9978580719
 20
-8.9213218391
  0
LWPOLYLINE
  5
258
100
AcDbEntity
  8
ASSI
100
AcDbPolyline
 62
250
  6
CONTINUOUS
 90
13
 70
0
 10
-33.9127824481
 20
-1.6955476792
 10
-34.0336761585
 20
1.2158875302
 10
-34.1325995766
 20
4.1397228004
 10
-34.2095465274
 20
7.0757663303
 10
-34.2645123151
 20
10.0238255786
 10
-34.2974933985
 20
12.9837069674
 10
-34.3084873937
 20
15.9552158934
 10
-34.2974933991
 20
18.9381571326
 10
-34.2645123162
 20
21.9323349182
 10
-34.2095465287
 20
24.9375526412
 10
-34.132599578
 20
27.9536128835
 10
-34.0336761594
 20
30.9803174326
 10
-33.9127824481
 20
34.0174673562
  0
LWPOLYLINE
  5
259
100
AcDbEntity
  8
RACCORDO
100
AcDbPolyline
 62
250
  6
CONTINUOUS
 90
13
 70
0
 10
-33.9127824481
 20
-1.6955476792
 10
-34.0336761585
 20
1.2158875302
 10
-34.1325995766
 20
4.1397228004
 10
-34.2095465274
 20
7.0757663303
 10
-34.2645123151
 20
10.0238255786
 10
-34.2974933985
 20
12.9837069674
 10
-34.3084873937
 20
15.9552158934
 10
-34.2974933991
 20
18.9381571326
 10
-34.2645123162
 20
21.9323349182
 10
-34.2095465287
 20
24.9375526412
 10
-34.132599578
 20
27.9536128835
 10
-34.0336761594
 20
30.9803174326
 10
-33.9127824481
 20
34.0174673562
  0
LWPOLYLINE
  5
25A
100
AcDbEntity
  8
ASSI
100
AcDbPolyline
 62
250
  6
CONTINUOUS
 90
13
 70
0
 10
-33.2250806864
 20
-1.6863779716
 10
-33.3458550114
 20
1.2221521871
 10
-33.4446721407
 20
4.1426831999
 10
-33.5215320742
 20
7.0752150667
 10
-33.5764369843
 20
10.0199418948
 10
-33.6093846986
 20
12.9766695769
 10
-33.6203686999
 20
15.9448157918
 10
-33.6093846099
 20
18.9243837348
 10
-33.5764368068
 20
21.9153702107
 10
-33.521531909
 20
24.9171833124
 10
-33.4446721225
 20
27.9296257377
 10
-33.3458552412
 20
30.9528947889
 10
-33.2250812651
 20
33.9869904659
  0
LWPOLYLINE
  5
25B
100
AcDbEntity
  8
RACCORDO
100
AcDbPolyline
 62
250
  6
CONTINUOUS
 90
13
 70
0
 10
-33.2250806864
 20
-1.6863779716
 10
-33.3458550114
 20
1.2221521871
 10
-33.4446721407
 20
4.1426831999
 10
-33.5215320742
 20
7.0752150667
 10
-33.5764369843
 20
10.0199418948
 10
-33.6093846986
 20
12.9766695769
 10
-33.6203686999
 20
15.9448157918
 10
-33.6093846099
 20
18.9243837348
 10
-33.5764368068
 20
21.9153702107
 10
-33.521531909
 20
24.9171833124
 10
-33.4446721225
 20
27.9296257377
 10
-33.3458552412
 20
30.9528947889
 10
-33.2250812651
 20
33.9869904659
  0
LWPOLYLINE
  5
25C
100
AcDbEntity
  8
ASSI
100
AcDbPolyline
 62
250
  6
CONTINUOUS
 90
22
 70
0
 10
-32.9460910726
 20
-3.2593504084
 10
-32.9465132795
 20
-3.2290493845
 10
-32.9449561511
 20
-3.1976545841
 10
-32.9414284072
 20
-3.1653418086
 10
-32.9359498021
 20
-3.1322919998
 10
-32.9285510147
 20
-3.0986902267
 10
-32.9192734761
 20
-3.0647246489
 10
-32.9081691379
 20
-3.0305854632
 10
-32.8953001812
 20
-2.9964638386
 10
-32.8807386684
 20
-2.9625508457
 10
-32.8645661396
 20
-2.9290363866
 10
-32.8468731562
 20
-2.8961081321
 10
-32.8277587934
 20
-2.8639504698
 10
-32.8073300859
 20
-2.8327434728
 10
-32.7857014283
 20
-2.8026618905
 10
-32.7629939343
 20
-2.7738741701
 10
-32.7393347589
 20
-2.7465415139
 10
-32.7148563863
 20
-2.7208169762
 10
-32.6896958874
 20
-2.696844606
 10
-32.6639941534
 20
-2.6747586412
 10
-32.637895106
 20
-2.6546827561
 10
-32.6115448918
 20
-2.6367293696
  0
LWPOLYLINE
  5
25D
100
AcDbEntity
  8
RACCORDO
100
AcDbPolyline
 62
250
  6
CONTINUOUS
 90
22
 70
0
 10
-32.9460910726
 20
-3.2593504084
 10
-32.9465132795
 20
-3.2290493845
 10
-32.9449561511
 20
-3.1976545841
 10
-32.9414284072
 20
-3.1653418086
 10
-32.9359498021
 20
-3.1322919998
 10
-32.9285510147
 20
-3.0986902267
 10
-32.9192734761
 20
-3.0647246489
 10
-32.9081691379
 20
-3.0305854632
 10
-32.8953001812
 20
-2.9964638386
 10
-32.8807386684
 20
-2.9625508457
 10
-32.8645661396
 20
-2.9290363866
 10
-32.8468731562
 20
-2.8961081321
 10
-32.8277587934
 20
-2.8639504698
 10
-32.8073300859
 20
-2.8327434728
 10
-32.7857014283
 20
-2.8026618905
 10
-32.7629939343
 20
-2.7738741701
 10
-32.7393347589
 20
-2.7465415139
 10
-32.7148563863
 20
-2.7208169762
 10
-32.6896958874
 20
-2.696844606
 10
-32.6639941534
 20
-2.6747586412
 10
-32.637895106
 20
-2.6546827561
 10
-32.6115448918
 20
-2.6367293696
  0
LINE
  5
25E
100
AcDbEntity
  8
ASSI
100
AcDbLine
 62
7
  6
CONTINUOUS
 10
-31.1665250467
 20
-0.4977790175
 11
-31.1665250467
 21
33.3529218241
  0
LINE
  5
25F
100
AcDbEntity
  8
0
100
AcDbLine
 62
7
  6
CONTINUOUS
 10
-31.1665250467
 20
-0.4977790175
 11
-31.1665250467
 21
33.3529218241
  0
LINE
  5
260
100
AcDbEntity
  8
CURVA_VERNICIATO
100
AcDbLine
 62
7
  6
CONTINUOUS
 10
-31.0988997823
 20
-0.3726357869
 11
-31.0988997823
 21
33.313875844
  0
LINE
  5
261
100
AcDbEntity
  8
ASSI
100
AcDbLine
 62
7
  6
CONTINUOUS
 10
-30.8160570699
 20
5.9816001599
 11
-30.8160570699
 21
32.925119294
  0
LINE
  5
262
100
AcDbEntity
  8
0
100
AcDbLine
 62
7
  6
CONTINUOUS
 10
-30.8160570699
 20
5.9816001599
 11
-30.8160570699
 21
32.925119294
  0
LWPOLYLINE
  5
263
100
AcDbEntity
  8
ASSI
100
AcDbPolyline
 62
250
  6
CONTINUOUS
 90
13
 70
0
 10
-32.9460910726
 20
34.5718701285
 10
-32.9465132797
 20
34.5410815611
 10
-32.9449561529
 20
34.5114849019
 10
-32.9414284114
 20
34.4832458831
 10
-32.9359498096
 20
34.4565226346
 10
-32.9285510259
 20
34.4314647982
 10
-32.9192734913
 20
34.4082126901
 10
-32.9081691571
 20
34.3868965151
 10
-32.8953002042
 20
34.367635637
 10
-32.8807386947
 20
34.3505379109
 10
-32.8645661686
 20
34.3356990789
 10
-32.846873187
 20
34.3232022337
 10
-32.8432009413
 20
34.3210135725
  0
LWPOLYLINE
  5
264
100
AcDbEntity
  8
RACCORDO
100
AcDbPolyline
 62
250
  6
CONTINUOUS
 90
13
 70
0
 10
-32.9460910726
 20
34.5718701285
 10
-32.9465132797
 20
34.5410815611
 10
-32.9449561529
 20
34.5114849019
 10
-32.9414284114
 20
34.4832458831
 10
-32.9359498096
 20
34.4565226346
 10
-32.9285510259
 20
34.4314647982
 10
-32.9192734913
 20
34.4082126901
 10
-32.9081691571
 20
34.3868965151
 10
-32.8953002042
 20
34.367635637
 10
-32.8807386947
 20
34.3505379109
 10
-32.8645661686
 20
34.3356990789
 10
-32.846873187
 20
34.3232022337
 10
-32.8432009413
 20
34.3210135725
  0
LINE
  5
265
100
AcDbEntity
  8
0
100
AcDbLine
 62
250
  6
CONTINUOUS
 10
-33.1797028813
 20
36.5535236196
 11
-33.1230694947
 21
37.5243579792
  0
LINE
  5
266
100
AcDbEntity
  8
0
100
AcDbLine
 62
250
  6
CONTINUOUS
 10
-33.2456510245
 20
36.6786074948
 11
-33.1885292295
 21
37.6497238765
  0
LINE
  5
267
100
AcDbEntity
  8
0
100
AcDbLine
 62
250
  6
CONTINUOUS
 10
-33.3115566776
 20
36.8037167199
 11
-33.2539464623
 21
37.7751142815
  0
LINE
  5
268
100
AcDbEntity
  8
0
100
AcDbLine
 62
250
  6
CONTINUOUS
 10
-29.8820701629
 20
36.0922097475
 11
-29.9362825592
 21
35.2035870437
  0
LINE
  5
269
100
AcDbEntity
  8
0
100
AcDbLine
 62
250
  6
CONTINUOUS
 10
-28.8929706116
 20
35.5211160629
 11
-28.9471830079
 21
34.6324933591
  0
LWPOLYLINE
  5
26A
100
AcDbEntity
  8
ASSI
100
AcDbPolyline
 62
250
  6
CONTINUOUS
 90
13
 70
0
 10
-33.9127824481
 20
34.0174673562
 10
-33.9090633802
 20
34.0748199598
 10
-33.9025521963
 20
34.1306256908
 10
-33.8932488747
 20
34.1848845594
 10
-33.881133594
 20
34.2379022539
 10
-33.8662260506
 20
34.2893731482
 10
-33.8485858658
 20
34.3383800895
 10
-33.8280869742
 20
34.3848783418
 10
-33.8048561101
 20
34.4289122906
 10
-33.7793328347
 20
34.4696980802
 10
-33.7516642866
 20
34.5069741033
 10
-33.7217047577
 20
34.5410012219
 10
-33.6894548846
 20
34.5717791044
  0
LWPOLYLINE
  5
26B
100
AcDbEntity
  8
RACCORDO
100
AcDbPolyline
 62
250
  6
CONTINUOUS
 90
13
 70
0
 10
-33.9127824481
 20
34.0174673562
 10
-33.9090633802
 20
34.0748199598
 10
-33.9025521963
 20
34.1306256908
 10
-33.8932488747
 20
34.1848845594
 10
-33.881133594
 20
34.2379022539
 10
-33.8662260506
 20
34.2893731482
 10
-33.8485858658
 20
34.3383800895
 10
-33.8280869742
 20
34.3848783418
 10
-33.8048561101
 20
34.4289122906
 10
-33.7793328347
 20
34.4696980802
 10
-33.7516642866
 20
34.5069741033
 10
-33.7217047577
 20
34.5410012219
 10
-33.6894548846
 20
34.5717791044
  0
LWPOLYLINE
  5
26C
100
AcDbEntity
  8
0
100
AcDbPolyline
 62
250
  6
CONTINUOUS
 90
3
 70
0
 10
-32.3105946101
 20
37.0552451744
 10
-32.2474075391
 20
38.0433096223
 10
-32.2165777544
 20
38.4963367638
  0
LWPOLYLINE
  5
26D
100
AcDbEntity
  8
ASSI
100
AcDbPolyline
 62
250
  6
CONTINUOUS
 90
13
 70
0
 10
-33.225081129
 20
33.9869905287
 10
-33.2227844313
 20
34.0220219791
 10
-33.2187706067
 20
34.0563884231
 10
-33.2130057364
 20
34.0899567433
 10
-33.2054458616
 20
34.1226516402
 10
-33.1960762354
 20
34.1542689881
 10
-33.1849414187
 20
34.1845050633
 10
-33.1720357904
 20
34.2132790735
 10
-33.1573959789
 20
34.2404477127
 10
-33.1412037577
 20
34.265691112
 10
-33.1235828881
 20
34.2888933385
 10
-33.1045555923
 20
34.3100897626
 10
-33.0841945112
 20
34.3292465893
  0
LWPOLYLINE
  5
26E
100
AcDbEntity
  8
RACCORDO
100
AcDbPolyline
 62
250
  6
CONTINUOUS
 90
13
 70
0
 10
-33.225081129
 20
33.9869905287
 10
-33.2227844313
 20
34.0220219791
 10
-33.2187706067
 20
34.0563884231
 10
-33.2130057364
 20
34.0899567433
 10
-33.2054458616
 20
34.1226516402
 10
-33.1960762354
 20
34.1542689881
 10
-33.1849414187
 20
34.1845050633
 10
-33.1720357904
 20
34.2132790735
 10
-33.1573959789
 20
34.2404477127
 10
-33.1412037577
 20
34.265691112
 10
-33.1235828881
 20
34.2888933385
 10
-33.1045555923
 20
34.3100897626
 10
-33.0841945112
 20
34.3292465893
  0
LWPOLYLINE
  5
26F
100
AcDbEntity
  8
0
100
AcDbPolyline
 62
250
  6
CONTINUOUS
 90
3
 70
0
 10
-32.3760543462
 20
37.1806110498
 10
-32.3123741767
 20
38.168916381
 10
-32.293098523
 20
38.4521625194
  0
LINE
  5
270
100
AcDbEntity
  8
0
100
AcDbLine
 62
250
  6
CONTINUOUS
 10
-32.4414722854
 20
37.3060018748
 11
-32.369577405
 21
38.4080132741
  0
LWPOLYLINE
  5
271
100
AcDbEntity
  8
0
100
AcDbPolyline
 62
250
  6
CONTINUOUS
 90
3
 70
0
 10
-29.781427778
 20
37.5771521966
 10
-29.8164129921
 20
37.0814774203
 10
-29.8820701629
 20
36.0922097475
  0
LWPOLYLINE
  5
272
100
AcDbEntity
  8
0
100
AcDbPolyline
 62
250
  6
CONTINUOUS
 90
3
 70
0
 10
-28.7923282267
 20
37.006058512
 10
-28.8273134408
 20
36.5103837357
 10
-28.8929706116
 20
35.5211160629
  0
LINE
  5
273
100
AcDbEntity
  8
0
100
AcDbLine
 62
250
  6
CONTINUOUS
 10
-33.1820515831
 20
38.8771256631
 11
-33.1124531383
 21
39.855445098
  0
LINE
  5
274
100
AcDbEntity
  8
0
100
AcDbLine
 62
250
  6
CONTINUOUS
 10
-33.105573408
 20
38.9212753186
 11
-33.0354846796
 21
39.8998786245
  0
LINE
  5
275
100
AcDbEntity
  8
0
100
AcDbLine
 62
250
  6
CONTINUOUS
 10
-33.0290526392
 20
38.9654495673
 11
-32.958473612
 21
39.944335965
  0
LWPOLYLINE
  5
276
100
AcDbEntity
  8
ASSI
100
AcDbPolyline
 62
250
  6
CONTINUOUS
 90
19
 70
0
 10
50.9720555887
 20
-66.6881595286
 10
50.9906520211
 20
-66.6977292036
 10
51.0106024436
 20
-66.7060632707
 10
51.031764814
 20
-66.7131023932
 10
51.0539884614
 20
-66.7187964542
 10
51.0771151587
 20
-66.7231049135
 10
51.1009802495
 20
-66.7259970959
 10
51.1254138201
 20
-66.7274524096
 10
51.1502419094
 20
-66.7274604933
 10
51.1752877474
 20
-66.7260212894
 10
51.2003730138
 20
-66.7231450446
 10
51.2253191075
 20
-66.7188522372
 10
51.2499484184
 20
-66.7131734308
 10
51.2740855918
 20
-66.7061490572
 10
51.2975587768
 20
-66.6978291283
 10
51.32020085
 20
-66.6882728799
 10
51.3418506053
 20
-66.6775483503
 10
51.3623539017
 20
-66.6657318954
 10
51.3815647608
 20
-66.6529076456
  0
LWPOLYLINE
  5
277
100
AcDbEntity
  8
RACCORDO
100
AcDbPolyline
 62
250
  6
CONTINUOUS
 90
19
 70
0
 10
50.9720555887
 20
-66.6881595286
 10
50.9906520211
 20
-66.6977292036
 10
51.0106024436
 20
-66.7060632707
 10
51.031764814
 20
-66.7131023932
 10
51.0539884614
 20
-66.7187964542
 10
51.0771151587
 20
-66.7231049135
 10
51.1009802495
 20
-66.7259970959
 10
51.1254138201
 20
-66.7274524096
 10
51.1502419094
 20
-66.7274604933
 10
51.1752877474
 20
-66.7260212894
 10
51.2003730138
 20
-66.7231450446
 10
51.2253191075
 20
-66.7188522372
 10
51.2499484184
 20
-66.7131734308
 10
51.2740855918
 20
-66.7061490572
 10
51.2975587768
 20
-66.6978291283
 10
51.32020085
 20
-66.6882728799
 10
51.3418506053
 20
-66.6775483503
 10
51.3623539017
 20
-66.6657318954
 10
51.3815647608
 20
-66.6529076456
  0
LWPOLYLINE
  5
278
100
AcDbEntity
  8
ASSI
100
AcDbPolyline
 62
250
  6
CONTINUOUS
 90
6
 70
0
 10
50.5737245321
 20
-66.9301478421
 10
50.6022249235
 20
-66.9458018024
 10
50.6301266605
 20
-66.9595710515
 10
50.6574298479
 20
-66.9714555066
 10
50.6842119139
 20
-66.9814829628
 10
50.7103958486
 20
-66.9896252943
  0
LWPOLYLINE
  5
279
100
AcDbEntity
  8
RACCORDO
100
AcDbPolyline
 62
250
  6
CONTINUOUS
 90
6
 70
0
 10
50.5737245321
 20
-66.9301478421
 10
50.6022249235
 20
-66.9458018024
 10
50.6301266605
 20
-66.9595710515
 10
50.6574298479
 20
-66.9714555066
 10
50.6842119139
 20
-66.9814829628
 10
50.7103958486
 20
-66.9896252943
  0
LWPOLYLINE
  5
27A
100
AcDbEntity
  8
ASSI
100
AcDbPolyline
 62
7
  6
CONTINUOUS
 90
16
 70
0
 10
50.6322674192
 20
-67.0249965236
 10
50.6624034203
 20
-67.0417663538
 10
50.7067060324
 20
-67.0640995273
 10
50.7506707944
 20
-67.0834917023
 10
50.7942836142
 20
-67.0999531013
 10
50.8375178671
 20
-67.1134728008
 10
50.8803705241
 20
-67.1240383045
 10
50.9228512409
 20
-67.1316378093
 10
50.964933757
 20
-67.1362350575
 10
51.006629683
 20
-67.1377771471
 10
51.0477929792
 20
-67.1362023864
 10
51.0880853926
 20
-67.1315015756
 10
51.1273891343
 20
-67.1236841674
 10
51.1655126266
 20
-67.1127815131
 10
51.2019589142
 20
-67.0989815176
 10
51.2143023721
 20
-67.0934910214
  0
LWPOLYLINE
  5
27B
100
AcDbEntity
  8
RACCORDO
100
AcDbPolyline
 62
7
  6
CONTINUOUS
 90
16
 70
0
 10
50.6322674192
 20
-67.0249965236
 10
50.6624034203
 20
-67.0417663538
 10
50.7067060324
 20
-67.0640995273
 10
50.7506707944
 20
-67.0834917023
 10
50.7942836142
 20
-67.0999531013
 10
50.8375178671
 20
-67.1134728008
 10
50.8803705241
 20
-67.1240383045
 10
50.9228512409
 20
-67.1316378093
 10
50.964933757
 20
-67.1362350575
 10
51.006629683
 20
-67.1377771471
 10
51.0477929792
 20
-67.1362023864
 10
51.0880853926
 20
-67.1315015756
 10
51.1273891343
 20
-67.1236841674
 10
51.1655126266
 20
-67.1127815131
 10
51.2019589142
 20
-67.0989815176
 10
51.2143023721
 20
-67.0934910214
  0
LINE
  5
27C
100
AcDbEntity
  8
ASSI
100
AcDbLine
 62
7
  6
CONTINUOUS
 10
-49.9581070687
 20
-8.9453804265
 11
50.6323239891
 21
-67.0250346251
  0
LINE
  5
27D
100
AcDbEntity
  8
RACCORDO
100
AcDbLine
 62
7
  6
CONTINUOUS
 10
-49.9581070687
 20
-8.9453804265
 11
50.6323239891
 21
-67.0250346251
  0
LINE
  5
27E
100
AcDbEntity
  8
ASSI
100
AcDbLine
 62
250
  6
CONTINUOUS
 10
-50.0167064599
 20
-8.8504936815
 11
50.5737245321
 21
-66.9301478421
  0
LINE
  5
27F
100
AcDbEntity
  8
RACCORDO
100
AcDbLine
 62
250
  6
CONTINUOUS
 10
-50.0167064599
 20
-8.8504936815
 11
50.5737245321
 21
-66.9301478421
  0
LINE
  5
280
100
AcDbEntity
  8
ASSI
100
AcDbLine
 62
7
  6
CONTINUOUS
 10
50.6322650756
 20
-67.0250005825
 11
50.6323239656
 21
-67.0250346116
  0
LINE
  5
281
100
AcDbEntity
  8
RACCORDO
100
AcDbLine
 62
7
  6
CONTINUOUS
 10
50.6322650756
 20
-67.0250005825
 11
50.6323239656
 21
-67.0250346116
  0
LINE
  5
282
100
AcDbEntity
  8
ASSI
100
AcDbLine
 62
7
  6
CONTINUOUS
 10
-49.9978580719
 20
-8.9213218391
 11
-49.9580023
 21
-8.9454359041
  0
LINE
  5
283
100
AcDbEntity
  8
RACCORDO
100
AcDbLine
 62
7
  6
CONTINUOUS
 10
-49.9978580719
 20
-8.9213218391
 11
-49.9580023
 21
-8.9454359041
  0
LWPOLYLINE
  5
284
100
AcDbEntity
  8
ASSI
100
AcDbPolyline
 62
250
  6
CONTINUOUS
 90
10
 70
0
 10
-50.5974267192
 20
-8.0432134151
 10
-50.6145950762
 20
-8.0321325159
 10
-50.6301548155
 20
-8.0199630784
 10
-50.6439951582
 20
-8.0067917442
 10
-50.6560175667
 20
-7.9927122876
 10
-50.6661364466
 20
-7.9778249485
 10
-50.6742797554
 20
-7.9622357188
 10
-50.6803895162
 20
-7.9460555872
 10
-50.68442223
 20
-7.9293997497
 10
-50.6847278196
 20
-7.9276038957
  0
LWPOLYLINE
  5
285
100
AcDbEntity
  8
RACCORDO
100
AcDbPolyline
 62
250
  6
CONTINUOUS
 90
10
 70
0
 10
-50.5974267192
 20
-8.0432134151
 10
-50.6145950762
 20
-8.0321325159
 10
-50.6301548155
 20
-8.0199630784
 10
-50.6439951582
 20
-8.0067917442
 10
-50.6560175667
 20
-7.9927122876
 10
-50.6661364466
 20
-7.9778249485
 10
-50.6742797554
 20
-7.9622357188
 10
-50.6803895162
 20
-7.9460555872
 10
-50.68442223
 20
-7.9293997497
 10
-50.6847278196
 20
-7.9276038957
  0
LWPOLYLINE
  5
286
100
AcDbEntity
  8
ASSI
100
AcDbPolyline
 62
250
  6
CONTINUOUS
 90
13
 70
0
 10
-33.0841945112
 20
-2.1440280637
 10
-33.1043845309
 20
-2.1059436122
 10
-33.1232895005
 20
-2.0672947513
 10
-33.1408328205
 20
-2.0281966121
 10
-33.1569833723
 20
-1.9886710227
 10
-33.1716177918
 20
-1.9489414989
 10
-33.1845586836
 20
-1.9094282538
 10
-33.195767065
 20
-1.8702586659
 10
-33.2052260944
 20
-1.8315498941
 10
-33.2128668067
 20
-1.7936875336
 10
-33.218695698
 20
-1.7568577736
 10
-33.2227570632
 20
-1.721060351
 10
-33.2250802769
 20
-1.6863777357
  0
LWPOLYLINE
  5
287
100
AcDbEntity
  8
RACCORDO
100
AcDbPolyline
 62
250
  6
CONTINUOUS
 90
13
 70
0
 10
-33.0841945112
 20
-2.1440280637
 10
-33.1043845309
 20
-2.1059436122
 10
-33.1232895005
 20
-2.0672947513
 10
-33.1408328205
 20
-2.0281966121
 10
-33.1569833723
 20
-1.9886710227
 10
-33.1716177918
 20
-1.9489414989
 10
-33.1845586836
 20
-1.9094282538
 10
-33.195767065
 20
-1.8702586659
 10
-33.2052260944
 20
-1.8315498941
 10
-33.2128668067
 20
-1.7936875336
 10
-33.218695698
 20
-1.7568577736
 10
-33.2227570632
 20
-1.721060351
 10
-33.2250802769
 20
-1.6863777357
  0
LWPOLYLINE
  5
288
100
AcDbEntity
  8
ASSI
100
AcDbPolyline
 62
250
  6
CONTINUOUS
 90
13
 70
0
 10
-33.6894548846
 20
-2.4432354732
 10
-33.7214240595
 20
-2.3805650526
 10
-33.7511717862
 20
-2.3173648133
 10
-33.7786974123
 20
-2.2536343416
 10
-33.8041540979
 20
-2.1889959842
 10
-33.8273872232
 20
-2.1238264693
 10
-33.8479347766
 20
-2.0592571533
 10
-33.8656835108
 20
-1.995337388
 10
-33.8807458834
 20
-1.9320173229
 10
-33.8929991694
 20
-1.8702799744
 10
-33.9024026253
 20
-1.8104531201
 10
-33.9089970558
 20
-1.7522090239
 10
-33.9127824481
 20
-1.6955476792
  0
LWPOLYLINE
  5
289
100
AcDbEntity
  8
RACCORDO
100
AcDbPolyline
 62
250
  6
CONTINUOUS
 90
13
 70
0
 10
-33.6894548846
 20
-2.4432354732
 10
-33.7214240595
 20
-2.3805650526
 10
-33.7511717862
 20
-2.3173648133
 10
-33.7786974123
 20
-2.2536343416
 10
-33.8041540979
 20
-2.1889959842
 10
-33.8273872232
 20
-2.1238264693
 10
-33.8479347766
 20
-2.0592571533
 10
-33.8656835108
 20
-1.995337388
 10
-33.8807458834
 20
-1.9320173229
 10
-33.8929991694
 20
-1.8702799744
 10
-33.9024026253
 20
-1.8104531201
 10
-33.9089970558
 20
-1.7522090239
 10
-33.9127824481
 20
-1.6955476792
  0
LINE
  5
28A
100
AcDbEntity
  8
ASSI
100
AcDbLine
 62
7
  6
CONTINUOUS
 10
-28.6431556131
 20
6.7756819915
 11
-28.6431556131
 21
3.6870715352
  0
LINE
  5
28B
100
AcDbEntity
  8
0
100
AcDbLine
 62
7
  6
CONTINUOUS
 10
-28.6431556131
 20
6.7756819915
 11
-28.6431556131
 21
3.6870715352
  0
LINE
  5
28C
100
AcDbEntity
  8
0
100
AcDbLine
 62
250
  6
CONTINUOUS
 10
-27.7625706193
 20
34.8684372746
 11
-27.8167830156
 21
33.9798145708
  0
LINE
  5
28D
100
AcDbEntity
  8
0
100
AcDbLine
 62
250
  6
CONTINUOUS
 10
-26.2553718081
 20
33.9981995706
 11
-26.3095842044
 21
33.1095768669
  0
LWPOLYLINE
  5
28E
100
AcDbEntity
  8
0
100
AcDbPolyline
 62
250
  6
CONTINUOUS
 90
3
 70
0
 10
-27.6619282344
 20
36.3533797237
 10
-27.6969134485
 20
35.8577049474
 10
-27.7625706193
 20
34.8684372746
  0
LWPOLYLINE
  5
28F
100
AcDbEntity
  8
0
100
AcDbPolyline
 62
250
  6
CONTINUOUS
 90
3
 70
0
 10
-26.1547294232
 20
35.4831420197
 10
-26.1897146373
 20
34.9874672435
 10
-26.2553718081
 20
33.9981995706
  0
LINE
  5
290
100
AcDbEntity
  8
ASSI
100
AcDbLine
 62
7
  6
CONTINUOUS
 10
2.3035280305
 20
-26.9526783139
 11
2.2942452373
 21
-26.9497953613
  0
LINE
  5
291
100
AcDbEntity
  8
0
100
AcDbLine
 62
7
  6
CONTINUOUS
 10
2.3035280305
 20
-26.9526783139
 11
2.2942452373
 21
-26.9497953613
  0
LWPOLYLINE
  5
292
100
AcDbEntity
  8
ASSI
100
AcDbPolyline
 62
7
  6
CONTINUOUS
 90
9
 70
0
 10
2.4006488356
 20
-26.8883592572
 10
2.4094165044
 20
-26.8911525595
 10
2.4178011925
 20
-26.8929439631
 10
2.4258029535
 20
-26.8937334323
 10
2.4333097523
 20
-26.8933291554
 10
2.4404337829
 20
-26.8919228376
 10
2.4475114173
 20
-26.8900897352
 10
2.4545928097
 20
-26.8879445
 10
2.4552427073
 20
-26.8877068923
  0
LWPOLYLINE
  5
293
100
AcDbEntity
  8
0
100
AcDbPolyline
 62
7
  6
CONTINUOUS
 90
9
 70
0
 10
2.4006488356
 20
-26.8883592572
 10
2.4094165044
 20
-26.8911525595
 10
2.4178011925
 20
-26.8929439631
 10
2.4258029535
 20
-26.8937334323
 10
2.4333097523
 20
-26.8933291554
 10
2.4404337829
 20
-26.8919228376
 10
2.4475114173
 20
-26.8900897352
 10
2.4545928097
 20
-26.8879445
 10
2.4552427073
 20
-26.8877068923
  0
LINE
  5
294
100
AcDbEntity
  8
ASSI
100
AcDbLine
 62
7
  6
CONTINUOUS
 10
-31.1665250467
 20
1.7075858852
 11
-28.981392434
 21
3.0803527684
  0
LINE
  5
295
100
AcDbEntity
  8
0
100
AcDbLine
 62
7
  6
CONTINUOUS
 10
-31.1665250467
 20
1.7075858852
 11
-28.981392434
 21
3.0803527684
  0
LINE
  5
296
100
AcDbEntity
  8
ASSI
100
AcDbLine
 62
7
  6
CONTINUOUS
 10
-30.8160570699
 20
5.9816001599
 11
-28.981392434
 21
6.9849361299
  0
LINE
  5
297
100
AcDbEntity
  8
0
100
AcDbLine
 62
7
  6
CONTINUOUS
 10
-30.8160570699
 20
5.9816001599
 11
-28.981392434
 21
6.9849361299
  0
LINE
  5
298
100
AcDbEntity
  8
ASSI
100
AcDbLine
 62
7
  6
CONTINUOUS
 10
-30.8160570699
 20
6.9266898967
 11
-29.8971324665
 21
7.4026437774
  0
LINE
  5
299
100
AcDbEntity
  8
0
100
AcDbLine
 62
7
  6
CONTINUOUS
 10
-30.8160570699
 20
6.9266898967
 11
-29.8971324665
 21
7.4026437774
  0
LINE
  5
29A
100
AcDbEntity
  8
ASSI
100
AcDbLine
 62
250
  6
CONTINUOUS
 10
-30.8160570699
 20
6.7723226005
 11
-29.6548351868
 21
7.3737735352
  0
LINE
  5
29B
100
AcDbEntity
  8
0
100
AcDbLine
 62
250
  6
CONTINUOUS
 10
-30.8160570699
 20
6.7723226005
 11
-29.6548351868
 21
7.3737735352
  0
LINE
  5
29C
100
AcDbEntity
  8
ASSI
100
AcDbLine
 62
250
  6
CONTINUOUS
 10
-29.8971309281
 20
7.4026445742
 11
-29.8941109496
 21
7.4041712956
  0
LINE
  5
29D
100
AcDbEntity
  8
0
100
AcDbLine
 62
250
  6
CONTINUOUS
 10
-29.8971309281
 20
7.4026445742
 11
-29.8941109496
 21
7.4041712956
  0
LWPOLYLINE
  5
29E
100
AcDbEntity
  8
ASSI
100
AcDbPolyline
 62
250
  6
CONTINUOUS
 90
10
 70
0
 10
-29.6548351868
 20
7.3737735352
 10
-29.629048909
 20
7.3865304356
 10
-29.6034664756
 20
7.3969996452
 10
-29.578224669
 20
7.4051251879
 10
-29.5534584502
 20
7.4108636188
 10
-29.5293002373
 20
7.414184256
 10
-29.5058791977
 20
7.415069345
 10
-29.4833205572
 20
7.4135141534
 10
-29.4617449308
 20
7.4095269965
 10
-29.4412676773
 20
7.4031291924
  0
LWPOLYLINE
  5
29F
100
AcDbEntity
  8
0
100
AcDbPolyline
 62
250
  6
CONTINUOUS
 90
10
 70
0
 10
-29.6548351868
 20
7.3737735352
 10
-29.629048909
 20
7.3865304356
 10
-29.6034664756
 20
7.3969996452
 10
-29.578224669
 20
7.4051251879
 10
-29.5534584502
 20
7.4108636188
 10
-29.5293002373
 20
7.414184256
 10
-29.5058791977
 20
7.415069345
 10
-29.4833205572
 20
7.4135141534
 10
-29.4617449308
 20
7.4095269965
 10
-29.4412676773
 20
7.4031291924
  0
LWPOLYLINE
  5
2A0
100
AcDbEntity
  8
ASSI
100
AcDbPolyline
 62
250
  6
CONTINUOUS
 90
11
 70
0
 10
-29.8941109496
 20
7.4041712956
 10
-29.8737963954
 20
7.412631924
 10
-29.8523298327
 20
7.4185508712
 10
-29.8298301952
 20
7.4218967199
 10
-29.8064209324
 20
7.4226516305
 10
-29.7822186387
 20
7.4208095908
 10
-29.7573722882
 20
7.416379759
 10
-29.7320628931
 20
7.409400519
 10
-29.706447962
 20
7.3999292079
 10
-29.6806575395
 20
7.3880275924
 10
-29.6548351867
 20
7.3737735353
  0
LWPOLYLINE
  5
2A1
100
AcDbEntity
  8
0
100
AcDbPolyline
 62
250
  6
CONTINUOUS
 90
11
 70
0
 10
-29.8941109496
 20
7.4041712956
 10
-29.8737963954
 20
7.412631924
 10
-29.8523298327
 20
7.4185508712
 10
-29.8298301952
 20
7.4218967199
 10
-29.8064209324
 20
7.4226516305
 10
-29.7822186387
 20
7.4208095908
 10
-29.7573722882
 20
7.416379759
 10
-29.7320628931
 20
7.409400519
 10
-29.706447962
 20
7.3999292079
 10
-29.6806575395
 20
7.3880275924
 10
-29.6548351867
 20
7.3737735353
  0
LWPOLYLINE
  5
2A2
100
AcDbEntity
  8
ASSI
100
AcDbPolyline
 62
7
  6
CONTINUOUS
 90
10
 70
0
 10
1.6817875072
 20
-25.7201031879
 10
1.7184169853
 20
-25.7346814114
 10
1.7548993622
 20
-25.7504806664
 10
1.791234485
 20
-25.7675010542
 10
1.8274776785
 20
-25.7857875629
 10
1.8635734256
 20
-25.8052953318
 10
1.8993553689
 20
-25.8258896508
 10
1.934768067
 20
-25.8475256093
 10
1.969866993
 20
-25.870248097
 10
2.004652216
 20
-25.894057068
  0
LWPOLYLINE
  5
2A3
100
AcDbEntity
  8
0
100
AcDbPolyline
 62
7
  6
CONTINUOUS
 90
10
 70
0
 10
1.6817875072
 20
-25.7201031879
 10
1.7184169853
 20
-25.7346814114
 10
1.7548993622
 20
-25.7504806664
 10
1.791234485
 20
-25.7675010542
 10
1.8274776785
 20
-25.7857875629
 10
1.8635734256
 20
-25.8052953318
 10
1.8993553689
 20
-25.8258896508
 10
1.934768067
 20
-25.8475256093
 10
1.969866993
 20
-25.870248097
 10
2.004652216
 20
-25.894057068
  0
LWPOLYLINE
  5
2A4
100
AcDbEntity
  8
ASSI
100
AcDbPolyline
 62
7
  6
CONTINUOUS
 90
25
 70
0
 10
1.1547994732
 20
-25.2022099994
 10
1.1966133329
 20
-25.2197509448
 10
1.2384252188
 20
-25.237674291
 10
1.2802350782
 20
-25.2559800728
 10
1.3220132102
 20
-25.274612034
 10
1.363789223
 20
-25.293626492
 10
1.4056520188
 20
-25.3131923473
 10
1.4476098209
 20
-25.3333094013
 10
1.4896543098
 20
-25.3539779159
 10
1.5318495587
 20
-25.3753674931
 10
1.5742033761
 20
-25.3974771615
 10
1.6167078794
 20
-25.4203079413
 10
1.6594036021
 20
-25.4440324229
 10
1.7023342768
 20
-25.4686739597
 10
1.7454561525
 20
-25.4942092105
 10
1.7886785548
 20
-25.520740713
 10
1.832002936
 20
-25.5482176176
 10
1.875427926
 20
-25.5766907197
 10
1.9188586709
 20
-25.6064149882
 10
1.9623855792
 20
-25.6373750439
 10
2.0059185259
 20
-25.6695860792
 10
2.0490920134
 20
-25.703348817
 10
2.091784501
 20
-25.7387633056
 10
2.1341183155
 20
-25.7757289783
 10
2.1760939433
 20
-25.814245514
  0
LWPOLYLINE
  5
2A5
100
AcDbEntity
  8
0
100
AcDbPolyline
 62
7
  6
CONTINUOUS
 90
25
 70
0
 10
1.1547994732
 20
-25.2022099994
 10
1.1966133329
 20
-25.2197509448
 10
1.2384252188
 20
-25.237674291
 10
1.2802350782
 20
-25.2559800728
 10
1.3220132102
 20
-25.274612034
 10
1.363789223
 20
-25.293626492
 10
1.4056520188
 20
-25.3131923473
 10
1.4476098209
 20
-25.3333094013
 10
1.4896543098
 20
-25.3539779159
 10
1.5318495587
 20
-25.3753674931
 10
1.5742033761
 20
-25.3974771615
 10
1.6167078794
 20
-25.4203079413
 10
1.6594036021
 20
-25.4440324229
 10
1.7023342768
 20
-25.4686739597
 10
1.7454561525
 20
-25.4942092105
 10
1.7886785548
 20
-25.520740713
 10
1.832002936
 20
-25.5482176176
 10
1.875427926
 20
-25.5766907197
 10
1.9188586709
 20
-25.6064149882
 10
1.9623855792
 20
-25.6373750439
 10
2.0059185259
 20
-25.6695860792
 10
2.0490920134
 20
-25.703348817
 10
2.091784501
 20
-25.7387633056
 10
2.1341183155
 20
-25.7757289783
 10
2.1760939433
 20
-25.814245514
  0
LWPOLYLINE
  5
2A6
100
AcDbEntity
  8
ASSI
100
AcDbPolyline
 62
250
  6
CONTINUOUS
 90
19
 70
0
 10
49.1556930758
 20
-50.2769856028
 10
49.1743185941
 20
-50.2867741307
 10
49.1943185324
 20
-50.2955352163
 10
49.2155506389
 20
-50.3032065452
 10
49.2378638982
 20
-50.3097335543
 10
49.2610996048
 20
-50.3150698197
 10
49.2850924922
 20
-50.3191773866
 10
49.3096719087
 20
-50.3220270395
 10
49.3346630305
 20
-50.3235985099
 10
49.3598881055
 20
-50.3238806205
 10
49.3851677179
 20
-50.3228713649
 10
49.4103220638
 20
-50.3205779214
 10
49.4351722302
 20
-50.3170166025
 10
49.4595414676
 20
-50.3122127384
 10
49.4832564474
 20
-50.306200497
 10
49.5061484942
 20
-50.2990226411
 10
49.5280547861
 20
-50.290730224
 10
49.5488195121
 20
-50.2813822262
 10
49.5682949809
 20
-50.2710451364
  0
LWPOLYLINE
  5
2A7
100
AcDbEntity
  8
RACCORDO
100
AcDbPolyline
 62
250
  6
CONTINUOUS
 90
19
 70
0
 10
49.1556930758
 20
-50.2769856028
 10
49.1743185941
 20
-50.2867741307
 10
49.1943185324
 20
-50.2955352163
 10
49.2155506389
 20
-50.3032065452
 10
49.2378638982
 20
-50.3097335543
 10
49.2610996048
 20
-50.3150698197
 10
49.2850924922
 20
-50.3191773866
 10
49.3096719087
 20
-50.3220270395
 10
49.3346630305
 20
-50.3235985099
 10
49.3598881055
 20
-50.3238806205
 10
49.3851677179
 20
-50.3228713649
 10
49.4103220638
 20
-50.3205779214
 10
49.4351722302
 20
-50.3170166025
 10
49.4595414676
 20
-50.3122127384
 10
49.4832564474
 20
-50.306200497
 10
49.5061484942
 20
-50.2990226411
 10
49.5280547861
 20
-50.290730224
 10
49.5488195121
 20
-50.2813822262
 10
49.5682949809
 20
-50.2710451364
  0
LWPOLYLINE
  5
2A8
100
AcDbEntity
  8
ASSI
100
AcDbPolyline
 62
7
  6
CONTINUOUS
 90
17
 70
0
 10
1.8529549493
 20
-26.5215043642
 10
1.8701922377
 20
-26.5308661845
 10
1.8872859977
 20
-26.5395653169
 10
1.9042362445
 20
-26.5476017513
 10
1.9210990481
 20
-26.5550463849
 10
1.9378183899
 20
-26.561828286
 10
1.9542261709
 20
-26.5677346884
 10
1.9703204533
 20
-26.5727727011
 10
1.9861032966
 20
-26.5769351339
 10
2.0014126371
 20
-26.5799877448
 10
2.0162753027
 20
-26.5819381756
 10
2.0306646993
 20
-26.5827786285
 10
2.0443386893
 20
-26.5822516626
 10
2.0572676731
 20
-26.5802992052
 10
2.0694816373
 20
-26.5769790708
 10
2.0808278726
 20
-26.5722076162
 10
2.0844492707
 20
-26.5702449319
  0
LWPOLYLINE
  5
2A9
100
AcDbEntity
  8
0
100
AcDbPolyline
 62
7
  6
CONTINUOUS
 90
17
 70
0
 10
1.8529549493
 20
-26.5215043642
 10
1.8701922377
 20
-26.5308661845
 10
1.8872859977
 20
-26.5395653169
 10
1.9042362445
 20
-26.5476017513
 10
1.9210990481
 20
-26.5550463849
 10
1.9378183899
 20
-26.561828286
 10
1.9542261709
 20
-26.5677346884
 10
1.9703204533
 20
-26.5727727011
 10
1.9861032966
 20
-26.5769351339
 10
2.0014126371
 20
-26.5799877448
 10
2.0162753027
 20
-26.5819381756
 10
2.0306646993
 20
-26.5827786285
 10
2.0443386893
 20
-26.5822516626
 10
2.0572676731
 20
-26.5802992052
 10
2.0694816373
 20
-26.5769790708
 10
2.0808278726
 20
-26.5722076162
 10
2.0844492707
 20
-26.5702449319
  0
LWPOLYLINE
  5
2AA
100
AcDbEntity
  8
ASSI
100
AcDbPolyline
 62
250
  6
CONTINUOUS
 90
31
 70
0
 10
-32.6115510124
 20
-2.6367260695
 10
-32.6304917837
 20
-2.6261950383
 10
-32.6492119394
 20
-2.6151504898
 10
-32.6676939133
 20
-2.6036277688
 10
-32.6859036103
 20
-2.59167534
 10
-32.7038438713
 20
-2.5793148233
 10
-32.7215539785
 20
-2.5665351036
 10
-32.7390200951
 20
-2.5533641926
 10
-32.7562303685
 20
-2.5398292448
 10
-32.7732271312
 20
-2.525907152
 10
-32.7899983569
 20
-2.5116201182
 10
-32.8065331666
 20
-2.4969896461
 10
-32.8228744064
 20
-2.4819820589
 10
-32.8390108304
 20
-2.4666145854
 10
-32.8549310947
 20
-2.4509045292
 10
-32.8706755212
 20
-2.4348100836
 10
-32.886232353
 20
-2.4183448687
 10
-32.9015888716
 20
-2.4015231112
 10
-32.9167805069
 20
-2.3842970415
 10
-32.9317936419
 20
-2.3666782933
 10
-32.9466135052
 20
-2.3486790008
 10
-32.9612693031
 20
-2.330246652
 10
-32.9757442969
 20
-2.3113925869
 10
-32.990020906
 20
-2.2921278637
 10
-33.0041214416
 20
-2.2723954122
 10
-33.0180241171
 20
-2.2522091454
 10
-33.0317082881
 20
-2.231579143
 10
-33.0451907867
 20
-2.2104397465
 10
-33.058457685
 20
-2.1887776963
 10
-33.0714682928
 20
-2.1666347024
 10
-33.0841945112
 20
-2.1440280637
  0
LWPOLYLINE
  5
2AB
100
AcDbEntity
  8
RACCORDO
100
AcDbPolyline
 62
250
  6
CONTINUOUS
 90
31
 70
0
 10
-32.6115510124
 20
-2.6367260695
 10
-32.6304917837
 20
-2.6261950383
 10
-32.6492119394
 20
-2.6151504898
 10
-32.6676939133
 20
-2.6036277688
 10
-32.6859036103
 20
-2.59167534
 10
-32.7038438713
 20
-2.5793148233
 10
-32.7215539785
 20
-2.5665351036
 10
-32.7390200951
 20
-2.5533641926
 10
-32.7562303685
 20
-2.5398292448
 10
-32.7732271312
 20
-2.525907152
 10
-32.7899983569
 20
-2.5116201182
 10
-32.8065331666
 20
-2.4969896461
 10
-32.8228744064
 20
-2.4819820589
 10
-32.8390108304
 20
-2.4666145854
 10
-32.8549310947
 20
-2.4509045292
 10
-32.8706755212
 20
-2.4348100836
 10
-32.886232353
 20
-2.4183448687
 10
-32.9015888716
 20
-2.4015231112
 10
-32.9167805069
 20
-2.3842970415
 10
-32.9317936419
 20
-2.3666782933
 10
-32.9466135052
 20
-2.3486790008
 10
-32.9612693031
 20
-2.330246652
 10
-32.9757442969
 20
-2.3113925869
 10
-32.990020906
 20
-2.2921278637
 10
-33.0041214416
 20
-2.2723954122
 10
-33.0180241171
 20
-2.2522091454
 10
-33.0317082881
 20
-2.231579143
 10
-33.0451907867
 20
-2.2104397465
 10
-33.058457685
 20
-2.1887776963
 10
-33.0714682928
 20
-2.1666347024
 10
-33.0841945112
 20
-2.1440280637
  0
LINE
  5
2AC
100
AcDbEntity
  8
ASSI
100
AcDbLine
 62
7
  6
CONTINUOUS
 10
2.7521343289
 20
-28.2041467019
 11
2.3546465625
 21
-27.9746422473
  0
LINE
  5
2AD
100
AcDbEntity
  8
0
100
AcDbLine
 62
7
  6
CONTINUOUS
 10
2.7521343289
 20
-28.2041467019
 11
2.3546465625
 21
-27.9746422473
  0
LINE
  5
2AE
100
AcDbEntity
  8
ASSI
100
AcDbLine
 62
7
  6
CONTINUOUS
 10
1.7218282239
 20
-27.6092608696
 11
1.3102520956
 21
-27.3716219714
  0
LINE
  5
2AF
100
AcDbEntity
  8
0
100
AcDbLine
 62
7
  6
CONTINUOUS
 10
1.7218282239
 20
-27.6092608696
 11
1.3102520956
 21
-27.3716219714
  0
LINE
  5
2B0
100
AcDbEntity
  8
ASSI
100
AcDbLine
 62
7
  6
CONTINUOUS
 10
1.0969810301
 20
-27.2484816671
 11
0.661444265
 21
-26.9970081976
  0
LINE
  5
2B1
100
AcDbEntity
  8
0
100
AcDbLine
 62
7
  6
CONTINUOUS
 10
1.0969810301
 20
-27.2484816671
 11
0.661444265
 21
-26.9970081976
  0
LINE
  5
2B2
100
AcDbEntity
  8
ASSI
100
AcDbLine
 62
7
  6
CONTINUOUS
 10
-0.1223970369
 20
-26.5444280537
 11
-0.5311521326
 21
-26.3084179843
  0
LINE
  5
2B3
100
AcDbEntity
  8
0
100
AcDbLine
 62
7
  6
CONTINUOUS
 10
-0.1223970369
 20
-26.5444280537
 11
-0.5311521326
 21
-26.3084179843
  0
LINE
  5
2B4
100
AcDbEntity
  8
ASSI
100
AcDbLine
 62
7
  6
CONTINUOUS
 10
-0.7445343318
 20
-26.1852137768
 11
-1.1487915212
 21
-25.9518007422
  0
LINE
  5
2B5
100
AcDbEntity
  8
0
100
AcDbLine
 62
7
  6
CONTINUOUS
 10
-0.7445343318
 20
-26.1852137768
 11
-1.1487915212
 21
-25.9518007422
  0
LINE
  5
2B6
100
AcDbEntity
  8
ASSI
100
AcDbLine
 62
7
  6
CONTINUOUS
 10
-1.7250340504
 20
-25.6190855279
 11
-1.7829906435
 21
-25.5856221174
  0
LINE
  5
2B7
100
AcDbEntity
  8
0
100
AcDbLine
 62
7
  6
CONTINUOUS
 10
-1.7250340504
 20
-25.6190855279
 11
-1.7829906435
 21
-25.5856221174
  0
LINE
  5
2B8
100
AcDbEntity
  8
ASSI
100
AcDbLine
 62
7
  6
CONTINUOUS
 10
-2.3569463894
 20
-25.2542272631
 11
-2.7522820126
 21
-25.0259654289
  0
LINE
  5
2B9
100
AcDbEntity
  8
0
100
AcDbLine
 62
7
  6
CONTINUOUS
 10
-2.3569463894
 20
-25.2542272631
 11
-2.7522820126
 21
-25.0259654289
  0
LINE
  5
2BA
100
AcDbEntity
  8
ASSI
100
AcDbLine
 62
7
  6
CONTINUOUS
 10
-2.9676702736
 20
-24.9016029464
 11
-3.3809091334
 21
-24.6630040079
  0
LINE
  5
2BB
100
AcDbEntity
  8
0
100
AcDbLine
 62
7
  6
CONTINUOUS
 10
-2.9676702736
 20
-24.9016029464
 11
-3.3809091334
 21
-24.6630040079
  0
LINE
  5
2BC
100
AcDbEntity
  8
ASSI
100
AcDbLine
 62
7
  6
CONTINUOUS
 10
-4.2271830144
 20
-24.1743760753
 11
-4.5913500778
 21
-23.964110577
  0
LINE
  5
2BD
100
AcDbEntity
  8
0
100
AcDbLine
 62
7
  6
CONTINUOUS
 10
-4.2271830144
 20
-24.1743760753
 11
-4.5913500778
 21
-23.964110577
  0
LINE
  5
2BE
100
AcDbEntity
  8
ASSI
100
AcDbLine
 62
7
  6
CONTINUOUS
 10
2.7111589649
 20
-28.0575340545
 11
2.4611209777
 21
-27.9131652544
  0
LINE
  5
2BF
100
AcDbEntity
  8
0
100
AcDbLine
 62
7
  6
CONTINUOUS
 10
2.7111589649
 20
-28.0575340545
 11
2.4611209777
 21
-27.9131652544
  0
LINE
  5
2C0
100
AcDbEntity
  8
ASSI
100
AcDbLine
 62
7
  6
CONTINUOUS
 10
1.7116495284
 20
-27.4804298327
 11
1.4167265108
 21
-27.3101449786
  0
LINE
  5
2C1
100
AcDbEntity
  8
0
100
AcDbLine
 62
7
  6
CONTINUOUS
 10
1.7116495284
 20
-27.4804298327
 11
1.4167265108
 21
-27.3101449786
  0
LINE
  5
2C2
100
AcDbEntity
  8
ASSI
100
AcDbLine
 62
7
  6
CONTINUOUS
 10
1.0510715116
 20
-27.0990201009
 11
0.7679186802
 21
-26.9355312047
  0
LINE
  5
2C3
100
AcDbEntity
  8
0
100
AcDbLine
 62
7
  6
CONTINUOUS
 10
1.0510715116
 20
-27.0990201009
 11
0.7679186802
 21
-26.9355312047
  0
LINE
  5
2C4
100
AcDbEntity
  8
ASSI
100
AcDbLine
 62
7
  6
CONTINUOUS
 10
-0.0989179203
 20
-26.4350306156
 11
-0.4246777175
 21
-26.2469409915
  0
LINE
  5
2C5
100
AcDbEntity
  8
0
100
AcDbLine
 62
7
  6
CONTINUOUS
 10
-0.0989179203
 20
-26.4350306156
 11
-0.4246777175
 21
-26.2469409915
  0
LINE
  5
2C6
100
AcDbEntity
  8
ASSI
100
AcDbLine
 62
7
  6
CONTINUOUS
 10
-0.76556833
 20
-26.0501150241
 11
-1.0423171061
 21
-25.8903237493
  0
LINE
  5
2C7
100
AcDbEntity
  8
0
100
AcDbLine
 62
7
  6
CONTINUOUS
 10
-0.76556833
 20
-26.0501150241
 11
-1.0423171061
 21
-25.8903237493
  0
LINE
  5
2C8
100
AcDbEntity
  8
ASSI
100
AcDbLine
 62
7
  6
CONTINUOUS
 10
-2.3590331722
 20
-25.1300683951
 11
-2.6458075974
 21
-24.9644884361
  0
LINE
  5
2C9
100
AcDbEntity
  8
0
100
AcDbLine
 62
7
  6
CONTINUOUS
 10
-2.3590331722
 20
-25.1300683951
 11
-2.6458075974
 21
-24.9644884361
  0
LINE
  5
2CA
100
AcDbEntity
  8
ASSI
100
AcDbLine
 62
7
  6
CONTINUOUS
 10
-2.97779945
 20
-24.7728005012
 11
-3.2744347183
 21
-24.601527015
  0
LINE
  5
2CB
100
AcDbEntity
  8
0
100
AcDbLine
 62
7
  6
CONTINUOUS
 10
-2.97779945
 20
-24.7728005012
 11
-3.2744347183
 21
-24.601527015
  0
LINE
  5
2CC
100
AcDbEntity
  8
ASSI
100
AcDbLine
 62
7
  6
CONTINUOUS
 10
-4.1998275034
 20
-24.0672168188
 11
-4.4848756627
 21
-23.9026335841
  0
LINE
  5
2CD
100
AcDbEntity
  8
0
100
AcDbLine
 62
7
  6
CONTINUOUS
 10
-4.1998275034
 20
-24.0672168188
 11
-4.4848756627
 21
-23.9026335841
  0
LINE
  5
2CE
100
AcDbEntity
  8
ASSI
100
AcDbLine
 62
7
  6
CONTINUOUS
 10
0.5203614228
 20
-26.498507081
 11
-0.0424015299
 21
-26.1735748052
  0
LINE
  5
2CF
100
AcDbEntity
  8
0
100
AcDbLine
 62
7
  6
CONTINUOUS
 10
0.5203614228
 20
-26.498507081
 11
-0.0424015299
 21
-26.1735748052
  0
LINE
  5
2D0
100
AcDbEntity
  8
ASSI
100
AcDbLine
 62
7
  6
CONTINUOUS
 10
0.6268050948
 20
-26.4370478388
 11
0.0640421422
 21
-26.112115563
  0
LINE
  5
2D1
100
AcDbEntity
  8
0
100
AcDbLine
 62
7
  6
CONTINUOUS
 10
0.6268050948
 20
-26.4370478388
 11
0.0640421422
 21
-26.112115563
  0
LINE
  5
2D2
100
AcDbEntity
  8
ASSI
100
AcDbLine
 62
7
  6
CONTINUOUS
 10
0.4123565218
 20
-26.1123844815
 11
0.0167097716
 21
-25.8839430065
  0
LINE
  5
2D3
100
AcDbEntity
  8
0
100
AcDbLine
 62
7
  6
CONTINUOUS
 10
0.4123565218
 20
-26.1123844815
 11
0.0167097716
 21
-25.8839430065
  0
LINE
  5
2D4
100
AcDbEntity
  8
ASSI
100
AcDbLine
 62
7
  6
CONTINUOUS
 10
1.8779382325
 20
-26.8804218232
 11
1.6563694216
 21
-26.7524907687
  0
LINE
  5
2D5
100
AcDbEntity
  8
0
100
AcDbLine
 62
7
  6
CONTINUOUS
 10
1.8779382325
 20
-26.8804218232
 11
1.6563694216
 21
-26.7524907687
  0
LINE
  5
2D6
100
AcDbEntity
  8
ASSI
100
AcDbLine
 62
7
  6
CONTINUOUS
 10
1.9843535317
 20
-26.8189789631
 11
1.7627847208
 21
-26.6910479086
  0
LINE
  5
2D7
100
AcDbEntity
  8
0
100
AcDbLine
 62
7
  6
CONTINUOUS
 10
1.9843535317
 20
-26.8189789631
 11
1.7627847208
 21
-26.6910479086
  0
LINE
  5
2D8
100
AcDbEntity
  8
ASSI
100
AcDbLine
 62
7
  6
CONTINUOUS
 10
1.8529549493
 20
-26.5215043642
 11
1.61679303
 21
-26.3851474318
  0
LINE
  5
2D9
100
AcDbEntity
  8
0
100
AcDbLine
 62
7
  6
CONTINUOUS
 10
1.8529549493
 20
-26.5215043642
 11
1.61679303
 21
-26.3851474318
  0
LINE
  5
2DA
100
AcDbEntity
  8
ASSI
100
AcDbLine
 62
7
  6
CONTINUOUS
 10
0.3324684144
 20
-24.7025969373
 11
-0.0672908688
 21
-24.4717809373
  0
LINE
  5
2DB
100
AcDbEntity
  8
0
100
AcDbLine
 62
7
  6
CONTINUOUS
 10
0.3324684144
 20
-24.7025969373
 11
-0.0672908688
 21
-24.4717809373
  0
LINE
  5
2DC
100
AcDbEntity
  8
ASSI
100
AcDbLine
 62
7
  6
CONTINUOUS
 10
-1.0867528782
 20
-23.8831563499
 11
-1.4956119185
 21
-23.6470862642
  0
LINE
  5
2DD
100
AcDbEntity
  8
0
100
AcDbLine
 62
7
  6
CONTINUOUS
 10
-1.0867528782
 20
-23.8831563499
 11
-1.4956119185
 21
-23.6470862642
  0
LINE
  5
2DE
100
AcDbEntity
  8
ASSI
100
AcDbLine
 62
7
  6
CONTINUOUS
 10
-2.3177253751
 20
-23.1724082579
 11
-2.7306227023
 21
-22.934006516
  0
LINE
  5
2DF
100
AcDbEntity
  8
0
100
AcDbLine
 62
7
  6
CONTINUOUS
 10
-2.3177253751
 20
-23.1724082579
 11
-2.7306227023
 21
-22.934006516
  0
LINE
  5
2E0
100
AcDbEntity
  8
ASSI
100
AcDbLine
 62
7
  6
CONTINUOUS
 10
-3.7479266218
 20
-22.3466279827
 11
-4.1608833459
 21
-22.1081919457
  0
LINE
  5
2E1
100
AcDbEntity
  8
0
100
AcDbLine
 62
7
  6
CONTINUOUS
 10
-3.7479266218
 20
-22.3466279827
 11
-4.1608833459
 21
-22.1081919457
  0
LINE
  5
2E2
100
AcDbEntity
  8
ASSI
100
AcDbLine
 62
7
  6
CONTINUOUS
 10
-4.9271403165
 20
-21.6657647744
 11
-5.3760456423
 21
-21.4065724654
  0
LINE
  5
2E3
100
AcDbEntity
  8
0
100
AcDbLine
 62
7
  6
CONTINUOUS
 10
-4.9271403165
 20
-21.6657647744
 11
-5.3760456423
 21
-21.4065724654
  0
LINE
  5
2E4
100
AcDbEntity
  8
ASSI
100
AcDbLine
 62
7
  6
CONTINUOUS
 10
-3.124773861
 20
-22.7063011385
 11
-3.5380127208
 21
-22.4677021999
  0
LINE
  5
2E5
100
AcDbEntity
  8
0
100
AcDbLine
 62
7
  6
CONTINUOUS
 10
-3.124773861
 20
-22.7063011385
 11
-3.5380127208
 21
-22.4677021999
  0
LINE
  5
2E6
100
AcDbEntity
  8
ASSI
100
AcDbLine
 62
250
  6
CONTINUOUS
 10
29.905301146
 20
-39.5489565624
 11
-32.9460910726
 21
-3.2593504084
  0
LINE
  5
2E7
100
AcDbEntity
  8
RACCORDO
100
AcDbLine
 62
250
  6
CONTINUOUS
 10
29.905301146
 20
-39.5489565624
 11
-32.9460910726
 21
-3.2593504084
  0
LINE
  5
2E8
100
AcDbEntity
  8
ASSI
100
AcDbLine
 62
250
  6
CONTINUOUS
 10
49.1556909423
 20
-50.276939912
 11
30.6119530545
 21
-39.5700625313
  0
LINE
  5
2E9
100
AcDbEntity
  8
RACCORDO
100
AcDbLine
 62
250
  6
CONTINUOUS
 10
49.1556909423
 20
-50.276939912
 11
30.6119530545
 21
-39.5700625313
  0
LINE
  5
2EA
100
AcDbEntity
  8
ASSI
100
AcDbLine
 62
250
  6
CONTINUOUS
 10
-33.6894548846
 20
-2.4432354732
 11
-52.2331968686
 21
8.2637333234
  0
LINE
  5
2EB
100
AcDbEntity
  8
RACCORDO
100
AcDbLine
 62
250
  6
CONTINUOUS
 10
-33.6894548846
 20
-2.4432354732
 11
-52.2331968686
 21
8.2637333234
  0
LINE
  5
2EC
100
AcDbEntity
  8
ASSI
100
AcDbLine
 62
250
  6
CONTINUOUS
 10
30.2398744698
 20
-38.9263511957
 11
-32.6115508098
 21
-2.6367259526
  0
LINE
  5
2ED
100
AcDbEntity
  8
RACCORDO
100
AcDbLine
 62
250
  6
CONTINUOUS
 10
30.2398744698
 20
-38.9263511957
 11
-32.6115508098
 21
-2.6367259526
  0
LWPOLYLINE
  5
2EE
100
AcDbEntity
  8
ASSI
100
AcDbPolyline
 62
250
  6
CONTINUOUS
 90
31
 70
0
 10
-32.9460910726
 20
-3.2593504084
 10
-32.9758977559
 20
-3.2415491765
 10
-33.0053064168
 20
-3.2230326541
 10
-33.0343170245
 20
-3.2038008216
 10
-33.0629236389
 20
-3.183826047
 10
-33.0911320795
 20
-3.1631358853
 10
-33.1189599351
 20
-3.1418130839
 10
-33.1464034573
 20
-3.1198709018
 10
-33.1734661901
 20
-3.0972959494
 10
-33.2001766553
 20
-3.0741309983
 10
-33.2265335698
 20
-3.0503872568
 10
-33.2525379441
 20
-3.0260533424
 10
-33.2782217346
 20
-3.0011381371
 10
-33.3035864499
 20
-2.975650193
 10
-33.3286302428
 20
-2.949580742
 10
-33.3533800216
 20
-2.922912677
 10
-33.3778395821
 20
-2.8956519019
 10
-33.4020047149
 20
-2.8677922492
 10
-33.4258902931
 20
-2.8392984881
 10
-33.4495018165
 20
-2.8101743566
 10
-33.472833279
 20
-2.7804157942
 10
-33.495882251
 20
-2.749975844
 10
-33.5186555979
 20
-2.7188565077
 10
-33.5411458299
 20
-2.6870553863
 10
-33.5633289186
 20
-2.6545188794
 10
-33.5852133216
 20
-2.6212474561
 10
-33.6067898063
 20
-2.5872401546
 10
-33.6280077178
 20
-2.55244117
 10
-33.6488498308
 20
-2.5168316845
 10
-33.6693323919
 20
-2.4804298948
 10
-33.6894548846
 20
-2.4432354732
  0
LWPOLYLINE
  5
2EF
100
AcDbEntity
  8
RACCORDO
100
AcDbPolyline
 62
250
  6
CONTINUOUS
 90
31
 70
0
 10
-32.9460910726
 20
-3.2593504084
 10
-32.9758977559
 20
-3.2415491765
 10
-33.0053064168
 20
-3.2230326541
 10
-33.0343170245
 20
-3.2038008216
 10
-33.0629236389
 20
-3.183826047
 10
-33.0911320795
 20
-3.1631358853
 10
-33.1189599351
 20
-3.1418130839
 10
-33.1464034573
 20
-3.1198709018
 10
-33.1734661901
 20
-3.0972959494
 10
-33.2001766553
 20
-3.0741309983
 10
-33.2265335698
 20
-3.0503872568
 10
-33.2525379441
 20
-3.0260533424
 10
-33.2782217346
 20
-3.0011381371
 10
-33.3035864499
 20
-2.975650193
 10
-33.3286302428
 20
-2.949580742
 10
-33.3533800216
 20
-2.922912677
 10
-33.3778395821
 20
-2.8956519019
 10
-33.4020047149
 20
-2.8677922492
 10
-33.4258902931
 20
-2.8392984881
 10
-33.4495018165
 20
-2.8101743566
 10
-33.472833279
 20
-2.7804157942
 10
-33.495882251
 20
-2.749975844
 10
-33.5186555979
 20
-2.7188565077
 10
-33.5411458299
 20
-2.6870553863
 10
-33.5633289186
 20
-2.6545188794
 10
-33.5852133216
 20
-2.6212474561
 10
-33.6067898063
 20
-2.5872401546
 10
-33.6280077178
 20
-2.55244117
 10
-33.6488498308
 20
-2.5168316845
 10
-33.6693323919
 20
-2.4804298948
 10
-33.6894548846
 20
-2.4432354732
  0
LWPOLYLINE
  5
2F0
100
AcDbEntity
  8
ASSI
100
AcDbPolyline
 62
7
  6
CONTINUOUS
 90
19
 70
0
 10
1.9843535317
 20
-26.8189789631
 10
2.0017577474
 20
-26.8296118729
 10
2.0189961331
 20
-26.8414604229
 10
2.0360687449
 20
-26.8545245755
 10
2.0530936677
 20
-26.8688693431
 10
2.0699530455
 20
-26.8844295598
 10
2.0862930828
 20
-26.9010098797
 10
2.1020643706
 20
-26.9186931607
 10
2.1173168008
 20
-26.9373962208
 10
2.1318455172
 20
-26.956674663
 10
2.1455832608
 20
-26.9764763701
 10
2.1585978004
 20
-26.9968531165
 10
2.1708866995
 20
-27.0175164243
 10
2.1824580298
 20
-27.0384383986
 10
2.1933041582
 20
-27.0596466392
 10
2.2033989599
 20
-27.0809359976
 10
2.2127338207
 20
-27.102238028
 10
2.2213177076
 20
-27.1236209386
 10
2.2291508131
 20
-27.1450845997
  0
LWPOLYLINE
  5
2F1
100
AcDbEntity
  8
0
100
AcDbPolyline
 62
7
  6
CONTINUOUS
 90
19
 70
0
 10
1.9843535317
 20
-26.8189789631
 10
2.0017577474
 20
-26.8296118729
 10
2.0189961331
 20
-26.8414604229
 10
2.0360687449
 20
-26.8545245755
 10
2.0530936677
 20
-26.8688693431
 10
2.0699530455
 20
-26.8844295598
 10
2.0862930828
 20
-26.9010098797
 10
2.1020643706
 20
-26.9186931607
 10
2.1173168008
 20
-26.9373962208
 10
2.1318455172
 20
-26.956674663
 10
2.1455832608
 20
-26.9764763701
 10
2.1585978004
 20
-26.9968531165
 10
2.1708866995
 20
-27.0175164243
 10
2.1824580298
 20
-27.0384383986
 10
2.1933041582
 20
-27.0596466392
 10
2.2033989599
 20
-27.0809359976
 10
2.2127338207
 20
-27.102238028
 10
2.2213177076
 20
-27.1236209386
 10
2.2291508131
 20
-27.1450845997
  0
LWPOLYLINE
  5
2F2
100
AcDbEntity
  8
ASSI
100
AcDbPolyline
 62
250
  6
CONTINUOUS
 90
10
 70
0
 10
-52.2331948868
 20
8.2636876103
 10
-52.250318263
 20
8.2745400459
 10
-52.2658129515
 20
8.286273113
 10
-52.2795687448
 20
8.2988033588
 10
-52.2914878032
 20
8.3120416607
 10
-52.3014853513
 20
8.3258938598
 10
-52.3094902805
 20
8.340261431
 10
-52.3154456548
 20
8.3550421834
 10
-52.3193091161
 20
8.3701309873
 10
-52.321053185
 20
8.3854205221
  0
LWPOLYLINE
  5
2F3
100
AcDbEntity
  8
RACCORDO
100
AcDbPolyline
 62
250
  6
CONTINUOUS
 90
10
 70
0
 10
-52.2331948868
 20
8.2636876103
 10
-52.250318263
 20
8.2745400459
 10
-52.2658129515
 20
8.286273113
 10
-52.2795687448
 20
8.2988033588
 10
-52.2914878032
 20
8.3120416607
 10
-52.3014853513
 20
8.3258938598
 10
-52.3094902805
 20
8.340261431
 10
-52.3154456548
 20
8.3550421834
 10
-52.3193091161
 20
8.3701309873
 10
-52.321053185
 20
8.3854205221
  0
LWPOLYLINE
  5
2F4
100
AcDbEntity
  8
CURVA_VERNICIATO
100
AcDbPolyline
 62
7
  6
CONTINUOUS
 90
7
 70
0
 10
-30.5050102511
 20
-1.4487224587
 10
-30.5182988408
 20
-1.4398611242
 10
-30.5315629569
 20
-1.4306928439
 10
-30.5469990659
 20
-1.419613944
 10
-30.5601902144
 20
-1.4097945876
 10
-30.5733385145
 20
-1.3996814734
 10
-30.5892648673
 20
-1.386991243
  0
LWPOLYLINE
  5
2F5
100
AcDbEntity
  8
ASSI
100
AcDbPolyline
 62
7
  6
CONTINUOUS
 90
10
 70
0
 10
1.8982983426
 20
-25.9554644615
 10
1.8636289185
 20
-25.9317270185
 10
1.8286154808
 20
-25.9090551951
 10
1.7932579607
 20
-25.887449037
 10
1.7574990995
 20
-25.8668596621
 10
1.7213961242
 20
-25.8473359734
 10
1.6851207484
 20
-25.8290246584
 10
1.6487302749
 20
-25.8119745699
 10
1.6121675939
 20
-25.7961367274
 10
1.575432859
 20
-25.7815110288
  0
LWPOLYLINE
  5
2F6
100
AcDbEntity
  8
0
100
AcDbPolyline
 62
7
  6
CONTINUOUS
 90
10
 70
0
 10
1.8982983426
 20
-25.9554644615
 10
1.8636289185
 20
-25.9317270185
 10
1.8286154808
 20
-25.9090551951
 10
1.7932579607
 20
-25.887449037
 10
1.7574990995
 20
-25.8668596621
 10
1.7213961242
 20
-25.8473359734
 10
1.6851207484
 20
-25.8290246584
 10
1.6487302749
 20
-25.8119745699
 10
1.6121675939
 20
-25.7961367274
 10
1.575432859
 20
-25.7815110288
  0
LWPOLYLINE
  5
2F7
100
AcDbEntity
  8
ASSI
100
AcDbPolyline
 62
7
  6
CONTINUOUS
 90
22
 70
0
 10
2.004652216
 20
-25.894057068
 10
2.0227978413
 20
-25.9073613091
 10
2.0407359683
 20
-25.9217202684
 10
2.0584667015
 20
-25.9371338766
 10
2.0760707503
 20
-25.9536374563
 10
2.0934677051
 20
-25.9711954862
 10
2.1104160436
 20
-25.9897015968
 10
2.1269783561
 20
-26.0092350198
 10
2.1430925604
 20
-26.0297161865
 10
2.1583301556
 20
-26.0508005073
 10
2.1726386517
 20
-26.0725626757
 10
2.1860711963
 20
-26.0949275617
 10
2.1983576285
 20
-26.117325917
 10
2.2094114977
 20
-26.1397162452
 10
2.2193197428
 20
-26.1621397183
 10
2.2280720071
 20
-26.1841512763
 10
2.2356526007
 20
-26.2056985837
 10
2.2420773988
 20
-26.2268338524
 10
2.2473831125
 20
-26.2472690299
 10
2.2515819124
 20
-26.2669081428
 10
2.2546615619
 20
-26.2858472078
 10
2.2566220413
 20
-26.3040862375
  0
LWPOLYLINE
  5
2F8
100
AcDbEntity
  8
0
100
AcDbPolyline
 62
7
  6
CONTINUOUS
 90
22
 70
0
 10
2.004652216
 20
-25.894057068
 10
2.0227978413
 20
-25.9073613091
 10
2.0407359683
 20
-25.9217202684
 10
2.0584667015
 20
-25.9371338766
 10
2.0760707503
 20
-25.9536374563
 10
2.0934677051
 20
-25.9711954862
 10
2.1104160436
 20
-25.9897015968
 10
2.1269783561
 20
-26.0092350198
 10
2.1430925604
 20
-26.0297161865
 10
2.1583301556
 20
-26.0508005073
 10
2.1726386517
 20
-26.0725626757
 10
2.1860711963
 20
-26.0949275617
 10
2.1983576285
 20
-26.117325917
 10
2.2094114977
 20
-26.1397162452
 10
2.2193197428
 20
-26.1621397183
 10
2.2280720071
 20
-26.1841512763
 10
2.2356526007
 20
-26.2056985837
 10
2.2420773988
 20
-26.2268338524
 10
2.2473831125
 20
-26.2472690299
 10
2.2515819124
 20
-26.2669081428
 10
2.2546615619
 20
-26.2858472078
 10
2.2566220413
 20
-26.3040862375
  0
LWPOLYLINE
  5
2F9
100
AcDbEntity
  8
CURVA_VERNICIATO
100
AcDbPolyline
 62
7
  6
CONTINUOUS
 90
7
 70
0
 10
-30.589264864
 20
-1.3869912457
 10
-30.7263053157
 20
-1.2564844279
 10
-30.8498233297
 20
-1.0995069358
 10
-30.9548977232
 20
-0.9213093343
 10
-31.0329717861
 20
-0.7364031061
 10
-31.0823113971
 20
-0.5488952463
 10
-31.0988997823
 20
-0.3726357552
  0
LINE
  5
2FA
100
AcDbEntity
  8
ASSI
100
AcDbLine
 62
250
  6
CONTINUOUS
 10
-33.2250806864
 20
-1.6863779716
 11
-31.1665250467
 21
-0.4977790175
  0
LINE
  5
2FB
100
AcDbEntity
  8
0
100
AcDbLine
 62
250
  6
CONTINUOUS
 10
-33.2250806864
 20
-1.6863779716
 11
-31.1665250467
 21
-0.4977790175
  0
LINE
  5
2FC
100
AcDbEntity
  8
ASSI
100
AcDbLine
 62
250
  6
CONTINUOUS
 10
-32.6115508098
 20
-2.6367259526
 11
-30.601614874
 21
-1.4762321373
  0
LINE
  5
2FD
100
AcDbEntity
  8
0
100
AcDbLine
 62
250
  6
CONTINUOUS
 10
-32.6115508098
 20
-2.6367259526
 11
-30.601614874
 21
-1.4762321373
  0
LWPOLYLINE
  5
2FE
100
AcDbEntity
  8
ASSI
100
AcDbPolyline
 62
250
  6
CONTINUOUS
 90
19
 70
0
 10
-33.9127824385
 20
-1.6955476731
 10
-33.8817396141
 20
-1.7118673767
 10
-33.8484058849
 20
-1.7264796647
 10
-33.8130183393
 20
-1.7392806065
 10
-33.7758286732
 20
-1.7501791544
 10
-33.7371014004
 20
-1.7590977919
 10
-33.6971119712
 20
-1.7659730846
 10
-33.6561448128
 20
-1.7707561317
 10
-33.6144913066
 20
-1.7734129132
 10
-33.5724477158
 20
-1.7739245329
 10
-33.5303130781
 20
-1.7722873516
 10
-33.4883870786
 20
-1.768513014
 10
-33.4469679186
 20
-1.7626283652
 10
-33.4063501945
 20
-1.7546752603
 10
-33.3668228023
 20
-1.7447102661
 10
-33.3286668831
 20
-1.7328042594
 10
-33.2921538232
 20
-1.7190419222
 10
-33.257543324
 20
-1.7035211401
 10
-33.2250815548
 20
-1.6863523056
  0
LWPOLYLINE
  5
2FF
100
AcDbEntity
  8
RACCORDO
100
AcDbPolyline
 62
250
  6
CONTINUOUS
 90
19
 70
0
 10
-33.9127824385
 20
-1.6955476731
 10
-33.8817396141
 20
-1.7118673767
 10
-33.8484058849
 20
-1.7264796647
 10
-33.8130183393
 20
-1.7392806065
 10
-33.7758286732
 20
-1.7501791544
 10
-33.7371014004
 20
-1.7590977919
 10
-33.6971119712
 20
-1.7659730846
 10
-33.6561448128
 20
-1.7707561317
 10
-33.6144913066
 20
-1.7734129132
 10
-33.5724477158
 20
-1.7739245329
 10
-33.5303130781
 20
-1.7722873516
 10
-33.4883870786
 20
-1.768513014
 10
-33.4469679186
 20
-1.7626283652
 10
-33.4063501945
 20
-1.7546752603
 10
-33.3668228023
 20
-1.7447102661
 10
-33.3286668831
 20
-1.7328042594
 10
-33.2921538232
 20
-1.7190419222
 10
-33.257543324
 20
-1.7035211401
 10
-33.2250815548
 20
-1.6863523056
  0
LINE
  5
300
100
AcDbEntity
  8
ASSI
100
AcDbLine
 62
7
  6
CONTINUOUS
 10
30.5557496285
 20
-36.7877279193
 11
-30.601614874
 21
-1.4762321373
  0
LINE
  5
301
100
AcDbEntity
  8
0
100
AcDbLine
 62
7
  6
CONTINUOUS
 10
30.5557496285
 20
-36.7877279193
 11
-30.601614874
 21
-1.4762321373
  0
LINE
  5
302
100
AcDbEntity
  8
CURVA_VERNICIATO
100
AcDbLine
 62
7
  6
CONTINUOUS
 10
30.5526168713
 20
-36.7042720769
 11
-30.4625036793
 21
-1.47490617
  0
LINE
  5
303
100
AcDbEntity
  8
ASSI
100
AcDbLine
 62
7
  6
CONTINUOUS
 10
-5.2609274556
 20
-15.5737121566
 11
-2.9784323376
 21
-16.8915962313
  0
LINE
  5
304
100
AcDbEntity
  8
0
100
AcDbLine
 62
7
  6
CONTINUOUS
 10
-5.2609274556
 20
-15.5737121566
 11
-2.9784323376
 21
-16.8915962313
  0
LWPOLYLINE
  5
305
100
AcDbEntity
  8
CURVA_VERNICIATO
100
AcDbPolyline
 62
7
  6
CONTINUOUS
 90
7
 70
0
 10
-30.4625036793
 20
-1.47490617
 10
-30.4691678819
 20
-1.4710180521
 10
-30.4758313537
 20
-1.467049779
 10
-30.4824933639
 20
-1.4630017857
 10
-30.4891531821
 20
-1.4588745162
 10
-30.4958100779
 20
-1.4546684232
 10
-30.5050102528
 20
-1.4487224576
  0
LWPOLYLINE
  5
306
100
AcDbEntity
  8
ASSI
100
AcDbPolyline
 62
250
  6
CONTINUOUS
 90
8
 70
0
 10
30.7794132388
 20
-39.0480077726
 10
30.7508743639
 20
-39.0299261015
 10
30.7250501641
 20
-39.0103816755
 10
30.702124318
 20
-38.9895135072
 10
30.682259889
 20
-38.9674700246
 10
30.6655981659
 20
-38.9444080152
 10
30.6522576577
 20
-38.920491511
 10
30.6423332507
 20
-38.8958906217
  0
LWPOLYLINE
  5
307
100
AcDbEntity
  8
RACCORDO
100
AcDbPolyline
 62
250
  6
CONTINUOUS
 90
8
 70
0
 10
30.7794132388
 20
-39.0480077726
 10
30.7508743639
 20
-39.0299261015
 10
30.7250501641
 20
-39.0103816755
 10
30.702124318
 20
-38.9895135072
 10
30.682259889
 20
-38.9674700246
 10
30.6655981659
 20
-38.9444080152
 10
30.6522576577
 20
-38.920491511
 10
30.6423332507
 20
-38.8958906217
  0
LWPOLYLINE
  5
308
100
AcDbEntity
  8
ASSI
100
AcDbPolyline
 62
7
  6
CONTINUOUS
 90
33
 70
0
 10
2.1760939433
 20
-25.814245514
 10
2.1988049427
 20
-25.8369340123
 10
2.2217955924
 20
-25.8617936062
 10
2.2450664071
 20
-25.8888239559
 10
2.26871168
 20
-25.9179983492
 10
2.2926383944
 20
-25.9493426554
 10
2.3165663283
 20
-25.982935256
 10
2.3406712886
 20
-26.018921243
 10
2.3647795656
 20
-26.0571541379
 10
2.3880869821
 20
-26.0972747553
 10
2.410691133
 20
-26.1396931133
 10
2.4324974943
 20
-26.1839971603
 10
2.4524132812
 20
-26.22859489
 10
2.4702065832
 20
-26.2735477917
 10
2.4861115065
 20
-26.3187929171
 10
2.4997324529
 20
-26.3625528188
 10
2.5107625488
 20
-26.4044365256
 10
2.5195083087
 20
-26.4448352405
 10
2.526492277
 20
-26.483146064
 10
2.5317220331
 20
-26.519121122
 10
2.5351882846
 20
-26.5530094208
 10
2.5373874935
 20
-26.5849538959
 10
2.5383849531
 20
-26.6149195529
 10
2.5381137248
 20
-26.6429424765
 10
2.5368719174
 20
-26.6692722255
 10
2.5346726657
 20
-26.6939255021
 10
2.5315015056
 20
-26.7168864863
 10
2.5276152669
 20
-26.7383558743
 10
2.523022939
 20
-26.7583306487
 10
2.5177144165
 20
-26.7768145687
 10
2.5119179923
 20
-26.7940184253
 10
2.5056555403
 20
-26.8099466975
 10
2.498904291
 20
-26.8245955026
  0
LWPOLYLINE
  5
309
100
AcDbEntity
  8
0
100
AcDbPolyline
 62
7
  6
CONTINUOUS
 90
33
 70
0
 10
2.1760939433
 20
-25.814245514
 10
2.1988049427
 20
-25.8369340123
 10
2.2217955924
 20
-25.8617936062
 10
2.2450664071
 20
-25.8888239559
 10
2.26871168
 20
-25.9179983492
 10
2.2926383944
 20
-25.9493426554
 10
2.3165663283
 20
-25.982935256
 10
2.3406712886
 20
-26.018921243
 10
2.3647795656
 20
-26.0571541379
 10
2.3880869821
 20
-26.0972747553
 10
2.410691133
 20
-26.1396931133
 10
2.4324974943
 20
-26.1839971603
 10
2.4524132812
 20
-26.22859489
 10
2.4702065832
 20
-26.2735477917
 10
2.4861115065
 20
-26.3187929171
 10
2.4997324529
 20
-26.3625528188
 10
2.5107625488
 20
-26.4044365256
 10
2.5195083087
 20
-26.4448352405
 10
2.526492277
 20
-26.483146064
 10
2.5317220331
 20
-26.519121122
 10
2.5351882846
 20
-26.5530094208
 10
2.5373874935
 20
-26.5849538959
 10
2.5383849531
 20
-26.6149195529
 10
2.5381137248
 20
-26.6429424765
 10
2.5368719174
 20
-26.6692722255
 10
2.5346726657
 20
-26.6939255021
 10
2.5315015056
 20
-26.7168864863
 10
2.5276152669
 20
-26.7383558743
 10
2.523022939
 20
-26.7583306487
 10
2.5177144165
 20
-26.7768145687
 10
2.5119179923
 20
-26.7940184253
 10
2.5056555403
 20
-26.8099466975
 10
2.498904291
 20
-26.8245955026
  0
LINE
  5
30A
100
AcDbEntity
  8
ASSI
100
AcDbLine
 62
7
  6
CONTINUOUS
 10
2.2951794745
 20
-26.9627634726
 11
2.315436916
 21
-26.9843875484
  0
LINE
  5
30B
100
AcDbEntity
  8
0
100
AcDbLine
 62
7
  6
CONTINUOUS
 10
2.2951794745
 20
-26.9627634726
 11
2.315436916
 21
-26.9843875484
  0
LINE
  5
30C
100
AcDbEntity
  8
ASSI
100
AcDbLine
 62
7
  6
CONTINUOUS
 10
2.315436916
 20
-26.9843875484
 11
2.334489766
 21
-27.0063886003
  0
LINE
  5
30D
100
AcDbEntity
  8
0
100
AcDbLine
 62
7
  6
CONTINUOUS
 10
2.315436916
 20
-26.9843875484
 11
2.334489766
 21
-27.0063886003
  0
LWPOLYLINE
  5
30E
100
AcDbEntity
  8
ASSI
100
AcDbPolyline
 62
7
  6
CONTINUOUS
 90
21
 70
0
 10
2.334489766
 20
-27.0063886003
 10
2.3523382906
 20
-27.0287664499
 10
2.3689158473
 20
-27.0516818224
 10
2.3842897315
 20
-27.074973555
 10
2.3986609615
 20
-27.0981587408
 10
2.41200352
 20
-27.1211063662
 10
2.4243437204
 20
-27.1439472458
 10
2.4359608028
 20
-27.166591399
 10
2.4468938367
 20
-27.1890348679
 10
2.4571039078
 20
-27.2112815059
 10
2.4667531299
 20
-27.2332531499
 10
2.4758596856
 20
-27.2549452784
 10
2.4844054267
 20
-27.2763623893
 10
2.4924978601
 20
-27.2974399224
 10
2.5001383009
 20
-27.3181457497
 10
2.5073253702
 20
-27.3385120414
 10
2.5141624769
 20
-27.3585707236
 10
2.520641973
 20
-27.3782878178
 10
2.5267714245
 20
-27.397697357
 10
2.5326770724
 20
-27.4169332765
 10
2.538349209
 20
-27.4359873424
  0
LWPOLYLINE
  5
30F
100
AcDbEntity
  8
0
100
AcDbPolyline
 62
7
  6
CONTINUOUS
 90
21
 70
0
 10
2.334489766
 20
-27.0063886003
 10
2.3523382906
 20
-27.0287664499
 10
2.3689158473
 20
-27.0516818224
 10
2.3842897315
 20
-27.074973555
 10
2.3986609615
 20
-27.0981587408
 10
2.41200352
 20
-27.1211063662
 10
2.4243437204
 20
-27.1439472458
 10
2.4359608028
 20
-27.166591399
 10
2.4468938367
 20
-27.1890348679
 10
2.4571039078
 20
-27.2112815059
 10
2.4667531299
 20
-27.2332531499
 10
2.4758596856
 20
-27.2549452784
 10
2.4844054267
 20
-27.2763623893
 10
2.4924978601
 20
-27.2974399224
 10
2.5001383009
 20
-27.3181457497
 10
2.5073253702
 20
-27.3385120414
 10
2.5141624769
 20
-27.3585707236
 10
2.520641973
 20
-27.3782878178
 10
2.5267714245
 20
-27.397697357
 10
2.5326770724
 20
-27.4169332765
 10
2.538349209
 20
-27.4359873424
  0
LWPOLYLINE
  5
310
100
AcDbEntity
  8
ASSI
100
AcDbPolyline
 62
250
  6
CONTINUOUS
 90
19
 70
0
 10
-33.6894517582
 20
-2.4432334862
 10
-33.665505281
 20
-2.4352712126
 10
-33.6391869693
 20
-2.4257490461
 10
-33.6106864663
 20
-2.4147356009
 10
-33.5802091398
 20
-2.4023102373
 10
-33.5479746016
 20
-2.3885624893
 10
-33.514215126
 20
-2.3735914198
 10
-33.4791739753
 20
-2.3575049065
 10
-33.4431036475
 20
-2.3404188649
 10
-33.4062640563
 20
-2.3224564128
 10
-33.3689206588
 20
-2.303746983
 10
-33.3313425422
 20
-2.2844253912
 10
-33.2938004852
 20
-2.2646308639
 10
-33.2565650065
 20
-2.2445060354
 10
-33.2199044157
 20
-2.2241959205
 10
-33.18408288
 20
-2.2038468686
 10
-33.1493585206
 20
-2.1836055099
 10
-33.1159815526
 20
-2.1636176987
 10
-33.0841924821
 20
-2.1440274622
  0
LWPOLYLINE
  5
311
100
AcDbEntity
  8
RACCORDO
100
AcDbPolyline
 62
250
  6
CONTINUOUS
 90
19
 70
0
 10
-33.6894517582
 20
-2.4432334862
 10
-33.665505281
 20
-2.4352712126
 10
-33.6391869693
 20
-2.4257490461
 10
-33.6106864663
 20
-2.4147356009
 10
-33.5802091398
 20
-2.4023102373
 10
-33.5479746016
 20
-2.3885624893
 10
-33.514215126
 20
-2.3735914198
 10
-33.4791739753
 20
-2.3575049065
 10
-33.4431036475
 20
-2.3404188649
 10
-33.4062640563
 20
-2.3224564128
 10
-33.3689206588
 20
-2.303746983
 10
-33.3313425422
 20
-2.2844253912
 10
-33.2938004852
 20
-2.2646308639
 10
-33.2565650065
 20
-2.2445060354
 10
-33.2199044157
 20
-2.2241959205
 10
-33.18408288
 20
-2.2038468686
 10
-33.1493585206
 20
-2.1836055099
 10
-33.1159815526
 20
-2.1636176987
 10
-33.0841924821
 20
-2.1440274622
  0
LWPOLYLINE
  5
312
100
AcDbEntity
  8
ASSI
100
AcDbPolyline
 62
250
  6
CONTINUOUS
 90
3
 70
0
 10
-29.4412676773
 20
7.4031291924
 10
-29.4219982831
 20
7.3943549484
 10
-29.4171619422
 20
7.3916685209
  0
LWPOLYLINE
  5
313
100
AcDbEntity
  8
0
100
AcDbPolyline
 62
250
  6
CONTINUOUS
 90
3
 70
0
 10
-29.4412676773
 20
7.4031291924
 10
-29.4219982831
 20
7.3943549484
 10
-29.4171619422
 20
7.3916685209
  0
LWPOLYLINE
  5
314
100
AcDbEntity
  8
ASSI
100
AcDbPolyline
 62
7
  6
CONTINUOUS
 90
10
 70
0
 10
-29.4171619422
 20
7.3916685209
 10
-29.4488212079
 20
7.4084649737
 10
-29.4818968506
 20
7.4230681542
 10
-29.516204101
 20
7.4353262839
 10
-29.5515358339
 20
7.4451068375
 10
-29.5876733985
 20
7.4523019819
 10
-29.6244004484
 20
7.4568298554
 10
-29.6614824167
 20
7.4586303962
 10
-29.6986778973
 20
7.4576693101
 10
-29.7357801835
 20
7.4539336233
  0
LWPOLYLINE
  5
315
100
AcDbEntity
  8
0
100
AcDbPolyline
 62
7
  6
CONTINUOUS
 90
10
 70
0
 10
-29.4171619422
 20
7.3916685209
 10
-29.4488212079
 20
7.4084649737
 10
-29.4818968506
 20
7.4230681542
 10
-29.516204101
 20
7.4353262839
 10
-29.5515358339
 20
7.4451068375
 10
-29.5876733985
 20
7.4523019819
 10
-29.6244004484
 20
7.4568298554
 10
-29.6614824167
 20
7.4586303962
 10
-29.6986778973
 20
7.4576693101
 10
-29.7357801835
 20
7.4539336233
  0
LINE
  5
316
100
AcDbEntity
  8
ASSI
100
AcDbLine
 62
250
  6
CONTINUOUS
 10
-29.6548351868
 20
7.3737735352
 11
-28.981392434
 21
6.9849361299
  0
LINE
  5
317
100
AcDbEntity
  8
0
100
AcDbLine
 62
250
  6
CONTINUOUS
 10
-29.6548351868
 20
7.3737735352
 11
-28.981392434
 21
6.9849361299
  0
LINE
  5
318
100
AcDbEntity
  8
ASSI
100
AcDbLine
 62
7
  6
CONTINUOUS
 10
-29.4171619422
 20
7.3916685209
 11
-28.7457803989
 21
7.0040212322
  0
LINE
  5
319
100
AcDbEntity
  8
0
100
AcDbLine
 62
7
  6
CONTINUOUS
 10
-29.4171619422
 20
7.3916685209
 11
-28.7457803989
 21
7.0040212322
  0
LWPOLYLINE
  5
31A
100
AcDbEntity
  8
ASSI
100
AcDbPolyline
 62
250
  6
CONTINUOUS
 90
19
 70
0
 10
-33.6894509479
 20
34.571781148
 10
-33.6655045567
 20
34.5369522513
 10
-33.6391863185
 20
34.5036951825
 10
-33.6106858768
 20
34.4722495849
 10
-33.5802085999
 20
34.4428420488
 10
-33.5479741002
 20
34.4156844783
 10
-33.5142146527
 20
34.3909725651
 10
-33.4791735207
 20
34.3688843778
 10
-33.443103203
 20
34.3495790791
 10
-33.4062636145
 20
34.3331957788
 10
-33.3689202134
 20
34.3198525315
 10
-33.3313420882
 20
34.3096454855
 10
-33.2938000188
 20
34.3026481906
 10
-33.2565645252
 20
34.2989110679
 10
-33.2199039184
 20
34.2984610462
 10
-33.1840823667
 20
34.3013013682
 10
-33.1493579926
 20
34.3074115671
 10
-33.1159810125
 20
34.3167476142
 10
-33.0841919337
 20
34.3292422359
  0
LWPOLYLINE
  5
31B
100
AcDbEntity
  8
RACCORDO
100
AcDbPolyline
 62
250
  6
CONTINUOUS
 90
19
 70
0
 10
-33.6894509479
 20
34.571781148
 10
-33.6655045567
 20
34.5369522513
 10
-33.6391863185
 20
34.5036951825
 10
-33.6106858768
 20
34.4722495849
 10
-33.5802085999
 20
34.4428420488
 10
-33.5479741002
 20
34.4156844783
 10
-33.5142146527
 20
34.3909725651
 10
-33.4791735207
 20
34.3688843778
 10
-33.443103203
 20
34.3495790791
 10
-33.4062636145
 20
34.3331957788
 10
-33.3689202134
 20
34.3198525315
 10
-33.3313420882
 20
34.3096454855
 10
-33.2938000188
 20
34.3026481906
 10
-33.2565645252
 20
34.2989110679
 10
-33.2199039184
 20
34.2984610462
 10
-33.1840823667
 20
34.3013013682
 10
-33.1493579926
 20
34.3074115671
 10
-33.1159810125
 20
34.3167476142
 10
-33.0841919337
 20
34.3292422359
  0
LWPOLYLINE
  5
31C
100
AcDbEntity
  8
ASSI
100
AcDbPolyline
 62
7
  6
CONTINUOUS
 90
19
 70
0
 10
2.1227226239
 20
-27.2065349078
 10
2.114709398
 20
-27.1845987713
 10
2.1059175345
 20
-27.1627576562
 10
2.0963468256
 20
-27.1410117027
 10
2.0859695433
 20
-27.119263358
 10
2.074813039
 20
-27.0976104288
 10
2.0629596501
 20
-27.0763461442
 10
2.0504176319
 20
-27.0554643705
 10
2.0371782279
 20
-27.0349715786
 10
2.0232981152
 20
-27.015180001
 10
2.0087243557
 20
-26.9960704045
 10
1.9935093406
 20
-26.9776623896
 10
1.9778676452
 20
-26.9603265033
 10
1.9617794146
 20
-26.9441549823
 10
1.9452640392
 20
-26.9290559017
 10
1.9285949751
 20
-26.9151235572
 10
1.9118633082
 20
-26.9023894252
 10
1.8949777445
 20
-26.890822169
 10
1.8779382325
 20
-26.8804218232
  0
LWPOLYLINE
  5
31D
100
AcDbEntity
  8
0
100
AcDbPolyline
 62
7
  6
CONTINUOUS
 90
19
 70
0
 10
2.1227226239
 20
-27.2065349078
 10
2.114709398
 20
-27.1845987713
 10
2.1059175345
 20
-27.1627576562
 10
2.0963468256
 20
-27.1410117027
 10
2.0859695433
 20
-27.119263358
 10
2.074813039
 20
-27.0976104288
 10
2.0629596501
 20
-27.0763461442
 10
2.0504176319
 20
-27.0554643705
 10
2.0371782279
 20
-27.0349715786
 10
2.0232981152
 20
-27.015180001
 10
2.0087243557
 20
-26.9960704045
 10
1.9935093406
 20
-26.9776623896
 10
1.9778676452
 20
-26.9603265033
 10
1.9617794146
 20
-26.9441549823
 10
1.9452640392
 20
-26.9290559017
 10
1.9285949751
 20
-26.9151235572
 10
1.9118633082
 20
-26.9023894252
 10
1.8949777445
 20
-26.890822169
 10
1.8779382325
 20
-26.8804218232
  0
LWPOLYLINE
  5
31E
100
AcDbEntity
  8
ASSI
100
AcDbPolyline
 62
7
  6
CONTINUOUS
 90
5
 70
0
 10
2.2291508131
 20
-27.1450845997
 10
2.2414141732
 20
-27.1812549189
 10
2.2533586555
 20
-27.2173122697
 10
2.2649843123
 20
-27.253256615
 10
2.2762399968
 20
-27.2890535151
  0
LWPOLYLINE
  5
31F
100
AcDbEntity
  8
0
100
AcDbPolyline
 62
7
  6
CONTINUOUS
 90
5
 70
0
 10
2.2291508131
 20
-27.1450845997
 10
2.2414141732
 20
-27.1812549189
 10
2.2533586555
 20
-27.2173122697
 10
2.2649843123
 20
-27.253256615
 10
2.2762399968
 20
-27.2890535151
  0
LWPOLYLINE
  5
320
100
AcDbEntity
  8
ASSI
100
AcDbPolyline
 62
7
  6
CONTINUOUS
 90
5
 70
0
 10
2.1699159478
 20
-27.3508702276
 10
2.1586395102
 20
-27.3149924944
 10
2.1469895126
 20
-27.2789605836
 10
2.1350172334
 20
-27.2428080432
 10
2.1227226239
 20
-27.2065349078
  0
LWPOLYLINE
  5
321
100
AcDbEntity
  8
0
100
AcDbPolyline
 62
7
  6
CONTINUOUS
 90
5
 70
0
 10
2.1699159478
 20
-27.3508702276
 10
2.1586395102
 20
-27.3149924944
 10
2.1469895126
 20
-27.2789605836
 10
2.1350172334
 20
-27.2428080432
 10
2.1227226239
 20
-27.2065349078
  0
LINE
  5
322
100
AcDbEntity
  8
ASSI
100
AcDbLine
 62
7
  6
CONTINUOUS
 10
2.2762399968
 20
-27.2890535151
 11
2.2979488543
 21
-27.3604112468
  0
LINE
  5
323
100
AcDbEntity
  8
0
100
AcDbLine
 62
7
  6
CONTINUOUS
 10
2.2762399968
 20
-27.2890535151
 11
2.2979488543
 21
-27.3604112468
  0
LINE
  5
324
100
AcDbEntity
  8
ASSI
100
AcDbLine
 62
7
  6
CONTINUOUS
 10
2.1916563016
 20
-27.4223641026
 11
2.1699159478
 21
-27.3508702276
  0
LINE
  5
325
100
AcDbEntity
  8
0
100
AcDbLine
 62
7
  6
CONTINUOUS
 10
2.1916563016
 20
-27.4223641026
 11
2.1699159478
 21
-27.3508702276
  0
LINE
  5
326
100
AcDbEntity
  8
ASSI
100
AcDbLine
 62
7
  6
CONTINUOUS
 10
2.3546465625
 20
-27.9746422473
 11
2.2652288348
 21
-27.6739395546
  0
LINE
  5
327
100
AcDbEntity
  8
0
100
AcDbLine
 62
7
  6
CONTINUOUS
 10
2.3546465625
 20
-27.9746422473
 11
2.2652288348
 21
-27.6739395546
  0
LINE
  5
328
100
AcDbEntity
  8
ASSI
100
AcDbLine
 62
7
  6
CONTINUOUS
 10
2.3714994163
 20
-27.6118427044
 11
2.4611209777
 21
-27.9131652544
  0
LINE
  5
329
100
AcDbEntity
  8
0
100
AcDbLine
 62
7
  6
CONTINUOUS
 10
2.3714994163
 20
-27.6118427044
 11
2.4611209777
 21
-27.9131652544
  0
LINE
  5
32A
100
AcDbEntity
  8
ASSI
100
AcDbLine
 62
7
  6
CONTINUOUS
 10
2.2127240011
 20
-27.4937693375
 11
2.1916563016
 21
-27.4223641026
  0
LINE
  5
32B
100
AcDbEntity
  8
0
100
AcDbLine
 62
7
  6
CONTINUOUS
 10
2.2127240011
 20
-27.4937693375
 11
2.1916563016
 21
-27.4223641026
  0
LINE
  5
32C
100
AcDbEntity
  8
ASSI
100
AcDbLine
 62
7
  6
CONTINUOUS
 10
2.2979488543
 20
-27.3604112468
 11
2.3189976372
 21
-27.4317232579
  0
LINE
  5
32D
100
AcDbEntity
  8
0
100
AcDbLine
 62
7
  6
CONTINUOUS
 10
2.2979488543
 20
-27.3604112468
 11
2.3189976372
 21
-27.4317232579
  0
LINE
  5
32E
100
AcDbEntity
  8
ASSI
100
AcDbLine
 62
7
  6
CONTINUOUS
 10
2.2652288348
 20
-27.6739395546
 11
2.2127240011
 21
-27.4937693375
  0
LINE
  5
32F
100
AcDbEntity
  8
0
100
AcDbLine
 62
7
  6
CONTINUOUS
 10
2.2652288348
 20
-27.6739395546
 11
2.2127240011
 21
-27.4937693375
  0
LINE
  5
330
100
AcDbEntity
  8
ASSI
100
AcDbLine
 62
7
  6
CONTINUOUS
 10
2.3189976372
 20
-27.4317232579
 11
2.3714994163
 21
-27.6118427044
  0
LINE
  5
331
100
AcDbEntity
  8
0
100
AcDbLine
 62
7
  6
CONTINUOUS
 10
2.3189976372
 20
-27.4317232579
 11
2.3714994163
 21
-27.6118427044
  0
LINE
  5
332
100
AcDbEntity
  8
ASSI
100
AcDbLine
 62
7
  6
CONTINUOUS
 10
-3.2744347183
 20
-24.601527015
 11
-3.3305428918
 21
-23.8722645777
  0
LINE
  5
333
100
AcDbEntity
  8
0
100
AcDbLine
 62
7
  6
CONTINUOUS
 10
-3.2744347183
 20
-24.601527015
 11
-3.3305428918
 21
-23.8722645777
  0
LINE
  5
334
100
AcDbEntity
  8
ASSI
100
AcDbLine
 62
7
  6
CONTINUOUS
 10
1.3102520956
 20
-27.3716219714
 11
1.2548309428
 21
-26.6509022517
  0
LINE
  5
335
100
AcDbEntity
  8
0
100
AcDbLine
 62
7
  6
CONTINUOUS
 10
1.3102520956
 20
-27.3716219714
 11
1.2548309428
 21
-26.6509022517
  0
LINE
  5
336
100
AcDbEntity
  8
ASSI
100
AcDbLine
 62
7
  6
CONTINUOUS
 10
1.4167265108
 20
-27.3101449786
 11
1.3612553461
 21
-26.5894547434
  0
LINE
  5
337
100
AcDbEntity
  8
0
100
AcDbLine
 62
7
  6
CONTINUOUS
 10
1.4167265108
 20
-27.3101449786
 11
1.3612553461
 21
-26.5894547434
  0
LINE
  5
338
100
AcDbEntity
  8
ASSI
100
AcDbLine
 62
7
  6
CONTINUOUS
 10
-3.3809091334
 20
-24.6630040079
 11
-3.4369667215
 21
-23.9337117409
  0
LINE
  5
339
100
AcDbEntity
  8
0
100
AcDbLine
 62
7
  6
CONTINUOUS
 10
-3.3809091334
 20
-24.6630040079
 11
-3.4369667215
 21
-23.9337117409
  0
LINE
  5
33A
100
AcDbEntity
  8
ASSI
100
AcDbLine
 62
7
  6
CONTINUOUS
 10
-2.9676702736
 20
-24.9016029464
 11
-3.0237278617
 21
-24.1723106794
  0
LINE
  5
33B
100
AcDbEntity
  8
0
100
AcDbLine
 62
7
  6
CONTINUOUS
 10
-2.9676702736
 20
-24.9016029464
 11
-3.0237278617
 21
-24.1723106794
  0
LWPOLYLINE
  5
33C
100
AcDbEntity
  8
ASSI
100
AcDbPolyline
 62
7
  6
CONTINUOUS
 90
3
 70
0
 10
1.7218282239
 20
-27.6092608696
 10
1.6669259006
 20
-26.8955242579
 10
1.6563694216
 20
-26.7524907687
  0
LWPOLYLINE
  5
33D
100
AcDbEntity
  8
0
100
AcDbPolyline
 62
7
  6
CONTINUOUS
 90
3
 70
0
 10
1.7218282239
 20
-27.6092608696
 10
1.6669259006
 20
-26.8955242579
 10
1.6563694216
 20
-26.7524907687
  0
LINE
  5
33E
100
AcDbEntity
  8
ASSI
100
AcDbLine
 62
7
  6
CONTINUOUS
 10
2.2951794745
 20
-26.9627634726
 11
2.2942452373
 21
-26.9497953613
  0
LINE
  5
33F
100
AcDbEntity
  8
0
100
AcDbLine
 62
7
  6
CONTINUOUS
 10
2.2951794745
 20
-26.9627634726
 11
2.2942452373
 21
-26.9497953613
  0
LINE
  5
340
100
AcDbEntity
  8
ASSI
100
AcDbLine
 62
7
  6
CONTINUOUS
 10
1.2548309428
 20
-26.6509022517
 11
1.2030125368
 21
-25.9277528529
  0
LINE
  5
341
100
AcDbEntity
  8
0
100
AcDbLine
 62
7
  6
CONTINUOUS
 10
1.2548309428
 20
-26.6509022517
 11
1.2030125368
 21
-25.9277528529
  0
LINE
  5
342
100
AcDbEntity
  8
ASSI
100
AcDbLine
 62
7
  6
CONTINUOUS
 10
1.3612553461
 20
-26.5894547434
 11
1.3093901769
 21
-25.8663323224
  0
LINE
  5
343
100
AcDbEntity
  8
0
100
AcDbLine
 62
7
  6
CONTINUOUS
 10
1.3612553461
 20
-26.5894547434
 11
1.3093901769
 21
-25.8663323224
  0
LINE
  5
344
100
AcDbEntity
  8
ASSI
100
AcDbLine
 62
7
  6
CONTINUOUS
 10
-3.4369667215
 20
-23.9337117409
 11
-3.4893354753
 21
-23.2019320163
  0
LINE
  5
345
100
AcDbEntity
  8
0
100
AcDbLine
 62
7
  6
CONTINUOUS
 10
-3.4369667215
 20
-23.9337117409
 11
-3.4893354753
 21
-23.2019320163
  0
LINE
  5
346
100
AcDbEntity
  8
ASSI
100
AcDbLine
 62
7
  6
CONTINUOUS
 10
-3.3305428918
 20
-23.8722645777
 11
-3.3829589049
 21
-23.1405121165
  0
LINE
  5
347
100
AcDbEntity
  8
0
100
AcDbLine
 62
7
  6
CONTINUOUS
 10
-3.3305428918
 20
-23.8722645777
 11
-3.3829589049
 21
-23.1405121165
  0
LINE
  5
348
100
AcDbEntity
  8
ASSI
100
AcDbLine
 62
7
  6
CONTINUOUS
 10
-3.0237278617
 20
-24.1723106794
 11
-3.0760966155
 21
-23.4405309549
  0
LINE
  5
349
100
AcDbEntity
  8
0
100
AcDbLine
 62
7
  6
CONTINUOUS
 10
-3.0237278617
 20
-24.1723106794
 11
-3.0760966155
 21
-23.4405309549
  0
LINE
  5
34A
100
AcDbEntity
  8
ASSI
100
AcDbLine
 62
7
  6
CONTINUOUS
 10
1.61679303
 20
-26.3851474318
 11
1.575432859
 21
-25.7815110288
  0
LINE
  5
34B
100
AcDbEntity
  8
0
100
AcDbLine
 62
7
  6
CONTINUOUS
 10
1.61679303
 20
-26.3851474318
 11
1.575432859
 21
-25.7815110288
  0
LINE
  5
34C
100
AcDbEntity
  8
ASSI
100
AcDbLine
 62
7
  6
CONTINUOUS
 10
1.2030125368
 20
-25.9277528529
 11
1.1547994732
 21
-25.2022099994
  0
LINE
  5
34D
100
AcDbEntity
  8
0
100
AcDbLine
 62
7
  6
CONTINUOUS
 10
1.2030125368
 20
-25.9277528529
 11
1.1547994732
 21
-25.2022099994
  0
LINE
  5
34E
100
AcDbEntity
  8
ASSI
100
AcDbLine
 62
7
  6
CONTINUOUS
 10
1.3093901769
 20
-25.8663323224
 11
1.2682547035
 21
-25.2507346564
  0
LINE
  5
34F
100
AcDbEntity
  8
0
100
AcDbLine
 62
7
  6
CONTINUOUS
 10
1.3093901769
 20
-25.8663323224
 11
1.2682547035
 21
-25.2507346564
  0
LINE
  5
350
100
AcDbEntity
  8
ASSI
100
AcDbLine
 62
7
  6
CONTINUOUS
 10
-3.4893354753
 20
-23.2019320163
 11
-3.5380127208
 21
-22.4677021999
  0
LINE
  5
351
100
AcDbEntity
  8
0
100
AcDbLine
 62
7
  6
CONTINUOUS
 10
-3.4893354753
 20
-23.2019320163
 11
-3.5380127208
 21
-22.4677021999
  0
LINE
  5
352
100
AcDbEntity
  8
ASSI
100
AcDbLine
 62
7
  6
CONTINUOUS
 10
-3.3829589049
 20
-23.1405121165
 11
-3.4234392148
 21
-22.5338555063
  0
LINE
  5
353
100
AcDbEntity
  8
0
100
AcDbLine
 62
7
  6
CONTINUOUS
 10
-3.3829589049
 20
-23.1405121165
 11
-3.4234392148
 21
-22.5338555063
  0
LINE
  5
354
100
AcDbEntity
  8
ASSI
100
AcDbLine
 62
7
  6
CONTINUOUS
 10
-3.0760966155
 20
-23.4405309549
 11
-3.124773861
 21
-22.7063011385
  0
LINE
  5
355
100
AcDbEntity
  8
0
100
AcDbLine
 62
7
  6
CONTINUOUS
 10
-3.0760966155
 20
-23.4405309549
 11
-3.124773861
 21
-22.7063011385
  0
LWPOLYLINE
  5
356
100
AcDbEntity
  8
ASSI
100
AcDbPolyline
 62
7
  6
CONTINUOUS
 90
16
 70
0
 10
2.2566220413
 20
-26.3040862375
 10
2.2577184375
 20
-26.3232542776
 10
2.2580013134
 20
-26.3417931021
 10
2.2574706048
 20
-26.3597027532
 10
2.2561184428
 20
-26.3770323554
 10
2.2539525837
 20
-26.3937328582
 10
2.2509963372
 20
-26.4096570841
 10
2.2472692925
 20
-26.4248117734
 10
2.2427516111
 20
-26.4391903509
 10
2.237407344
 20
-26.4526257434
 10
2.2312459742
 20
-26.4651503533
 10
2.2242576868
 20
-26.4767319988
 10
2.2163774583
 20
-26.4871068162
 10
2.2075996838
 20
-26.4962828901
 10
2.1979295196
 20
-26.5042524345
 10
2.1908391184
 20
-26.5088242997
  0
LWPOLYLINE
  5
357
100
AcDbEntity
  8
0
100
AcDbPolyline
 62
7
  6
CONTINUOUS
 90
16
 70
0
 10
2.2566220413
 20
-26.3040862375
 10
2.2577184375
 20
-26.3232542776
 10
2.2580013134
 20
-26.3417931021
 10
2.2574706048
 20
-26.3597027532
 10
2.2561184428
 20
-26.3770323554
 10
2.2539525837
 20
-26.3937328582
 10
2.2509963372
 20
-26.4096570841
 10
2.2472692925
 20
-26.4248117734
 10
2.2427516111
 20
-26.4391903509
 10
2.237407344
 20
-26.4526257434
 10
2.2312459742
 20
-26.4651503533
 10
2.2242576868
 20
-26.4767319988
 10
2.2163774583
 20
-26.4871068162
 10
2.2075996838
 20
-26.4962828901
 10
2.1979295196
 20
-26.5042524345
 10
2.1908391184
 20
-26.5088242997
  0
LINE
  5
358
100
AcDbEntity
  8
ASSI
100
AcDbLine
 62
7
  6
CONTINUOUS
 10
-2.978276448
 20
-16.8915013365
 11
-2.978276448
 21
-17.3141318021
  0
LINE
  5
359
100
AcDbEntity
  8
0
100
AcDbLine
 62
7
  6
CONTINUOUS
 10
-2.978276448
 20
-16.8915013365
 11
-2.978276448
 21
-17.3141318021
  0
LINE
  5
35A
100
AcDbEntity
  8
ASSI
100
AcDbLine
 62
7
  6
CONTINUOUS
 10
53.7923547128
 20
-31.0598125944
 11
54.1459081034
 21
-31.263949891
  0
LINE
  5
35B
100
AcDbEntity
  8
DRAFT
100
AcDbLine
 62
7
  6
CONTINUOUS
 10
53.7923547128
 20
-31.0598125944
 11
54.1459081034
 21
-31.263949891
  0
LINE
  5
35C
100
AcDbEntity
  8
ASSI
100
AcDbLine
 62
7
  6
CONTINUOUS
 10
2.538349209
 20
-27.4359873424
 11
2.5491773439
 21
-27.4737333116
  0
LINE
  5
35D
100
AcDbEntity
  8
0
100
AcDbLine
 62
7
  6
CONTINUOUS
 10
2.538349209
 20
-27.4359873424
 11
2.5491773439
 21
-27.4737333116
  0
LINE
  5
35E
100
AcDbEntity
  8
ASSI
100
AcDbLine
 62
7
  6
CONTINUOUS
 10
2.5491773439
 20
-27.4737333116
 11
2.5598352351
 21
-27.5115251437
  0
LINE
  5
35F
100
AcDbEntity
  8
0
100
AcDbLine
 62
7
  6
CONTINUOUS
 10
2.5491773439
 20
-27.4737333116
 11
2.5598352351
 21
-27.5115251437
  0
LWPOLYLINE
  5
360
100
AcDbEntity
  8
ASSI
100
AcDbPolyline
 62
7
  6
CONTINUOUS
 90
3
 70
0
 10
2.5598352351
 20
-27.5115251437
 10
2.671208456
 20
-27.9132948452
 10
2.7521343289
 20
-28.2041467019
  0
LWPOLYLINE
  5
361
100
AcDbEntity
  8
0
100
AcDbPolyline
 62
7
  6
CONTINUOUS
 90
3
 70
0
 10
2.5598352351
 20
-27.5115251437
 10
2.671208456
 20
-27.9132948452
 10
2.7521343289
 20
-28.2041467019
  0
LWPOLYLINE
  5
362
100
AcDbEntity
  8
ASSI
100
AcDbPolyline
 62
7
  6
CONTINUOUS
 90
19
 70
0
 10
2.1502514779
 20
-26.3655032781
 10
2.1477644548
 20
-26.343632183
 10
2.1437684925
 20
-26.3210010519
 10
2.1382635389
 20
-26.29760992
 10
2.1312818301
 20
-26.2733517256
 10
2.1227910642
 20
-26.2483335753
 10
2.1126942134
 20
-26.2228768689
 10
2.1008907963
 20
-26.1967827888
 10
2.0874809084
 20
-26.1702504096
 10
2.0726678954
 20
-26.1441982967
 10
2.056302375
 20
-26.1186931635
 10
2.0385327258
 20
-26.0936689627
 10
2.020008545
 20
-26.0698453765
 10
2.0007977699
 20
-26.0473923862
 10
1.9808315477
 20
-26.0261406174
 10
1.9605542776
 20
-26.0063007267
 10
1.9401139236
 20
-25.9879430449
 10
1.9193620038
 20
-25.9709975843
 10
1.8982983426
 20
-25.9554644615
  0
LWPOLYLINE
  5
363
100
AcDbEntity
  8
0
100
AcDbPolyline
 62
7
  6
CONTINUOUS
 90
19
 70
0
 10
2.1502514779
 20
-26.3655032781
 10
2.1477644548
 20
-26.343632183
 10
2.1437684925
 20
-26.3210010519
 10
2.1382635389
 20
-26.29760992
 10
2.1312818301
 20
-26.2733517256
 10
2.1227910642
 20
-26.2483335753
 10
2.1126942134
 20
-26.2228768689
 10
2.1008907963
 20
-26.1967827888
 10
2.0874809084
 20
-26.1702504096
 10
2.0726678954
 20
-26.1441982967
 10
2.056302375
 20
-26.1186931635
 10
2.0385327258
 20
-26.0936689627
 10
2.020008545
 20
-26.0698453765
 10
2.0007977699
 20
-26.0473923862
 10
1.9808315477
 20
-26.0261406174
 10
1.9605542776
 20
-26.0063007267
 10
1.9401139236
 20
-25.9879430449
 10
1.9193620038
 20
-25.9709975843
 10
1.8982983426
 20
-25.9554644615
  0
LWPOLYLINE
  5
364
100
AcDbEntity
  8
ASSI
100
AcDbPolyline
 62
250
  6
CONTINUOUS
 90
18
 70
0
 10
30.6119569914
 20
-39.5700600289
 10
30.5886912639
 20
-39.5348381253
 10
30.5681375162
 20
-39.498252712
 10
30.550443854
 20
-39.4605674155
 10
30.5357377741
 20
-39.4220537878
 10
30.5241252454
 20
-39.3829893498
 10
30.5156899451
 20
-39.3436555913
 10
30.5104926564
 20
-39.3043359429
 10
30.5085708297
 20
-39.2653137335
 10
30.5099383134
 20
-39.2268701487
 10
30.5145852536
 20
-39.1892822044
 10
30.5224781657
 20
-39.1528207515
 10
30.5335601749
 20
-39.117748523
 10
30.5477514267
 20
-39.084318242
 10
30.5649496621
 20
-39.0527707998
 10
30.5850309544
 20
-39.0233335203
 10
30.6078506021
 20
-38.9962185223
 10
30.6149399178
 20
-38.9891831173
  0
LWPOLYLINE
  5
365
100
AcDbEntity
  8
RACCORDO
100
AcDbPolyline
 62
250
  6
CONTINUOUS
 90
18
 70
0
 10
30.6119569914
 20
-39.5700600289
 10
30.5886912639
 20
-39.5348381253
 10
30.5681375162
 20
-39.498252712
 10
30.550443854
 20
-39.4605674155
 10
30.5357377741
 20
-39.4220537878
 10
30.5241252454
 20
-39.3829893498
 10
30.5156899451
 20
-39.3436555913
 10
30.5104926564
 20
-39.3043359429
 10
30.5085708297
 20
-39.2653137335
 10
30.5099383134
 20
-39.2268701487
 10
30.5145852536
 20
-39.1892822044
 10
30.5224781657
 20
-39.1528207515
 10
30.5335601749
 20
-39.117748523
 10
30.5477514267
 20
-39.084318242
 10
30.5649496621
 20
-39.0527707998
 10
30.5850309544
 20
-39.0233335203
 10
30.6078506021
 20
-38.9962185223
 10
30.6149399178
 20
-38.9891831173
  0
LINE
  5
366
100
AcDbEntity
  8
ASSI
100
AcDbLine
 62
250
  6
CONTINUOUS
 10
-2.978276448
 20
-17.3141318021
 11
-3.0682918098
 21
-17.373627801
  0
LINE
  5
367
100
AcDbEntity
  8
0
100
AcDbLine
 62
250
  6
CONTINUOUS
 10
-2.978276448
 20
-17.3141318021
 11
-3.0682918098
 21
-17.373627801
  0
LINE
  5
368
100
AcDbEntity
  8
ASSI
100
AcDbLine
 62
7
  6
CONTINUOUS
 10
-2.9793962397
 20
-17.4113287573
 11
-2.9903998628
 21
-17.418601635
  0
LINE
  5
369
100
AcDbEntity
  8
0
100
AcDbLine
 62
7
  6
CONTINUOUS
 10
-2.9793962397
 20
-17.4113287573
 11
-2.9903998628
 21
-17.418601635
  0
LINE
  5
36A
100
AcDbEntity
  8
ASSI
100
AcDbLine
 62
7
  6
CONTINUOUS
 10
-2.978276448
 20
-16.8915013365
 11
-3.4285688946
 21
-17.1656083276
  0
LINE
  5
36B
100
AcDbEntity
  8
0
100
AcDbLine
 62
7
  6
CONTINUOUS
 10
-2.978276448
 20
-16.8915013365
 11
-3.4285688946
 21
-17.1656083276
  0
LINE
  5
36C
100
AcDbEntity
  8
ASSI
100
AcDbLine
 62
7
  6
CONTINUOUS
 10
-5.2609274556
 20
-15.5737121566
 11
-5.7436398145
 21
-15.8289153931
  0
LINE
  5
36D
100
AcDbEntity
  8
0
100
AcDbLine
 62
7
  6
CONTINUOUS
 10
-5.2609274556
 20
-15.5737121566
 11
-5.7436398145
 21
-15.8289153931
  0
LWPOLYLINE
  5
36E
100
AcDbEntity
  8
ASSI
100
AcDbPolyline
 62
250
  6
CONTINUOUS
 90
9
 70
0
 10
30.6119563953
 20
-2.5550462193
 10
30.588690765
 20
-2.5626153777
 10
30.5681371148
 20
-2.568809098
 10
30.5504435491
 20
-2.5735827499
 10
30.5357375637
 20
-2.5769019354
 10
30.5241251264
 20
-2.5787427374
 10
30.5156899135
 20
-2.5790918915
 10
30.5104927071
 20
-2.5779468819
 10
30.5088181604
 20
-2.5762964033
  0
LWPOLYLINE
  5
36F
100
AcDbEntity
  8
RACCORDO
100
AcDbPolyline
 62
250
  6
CONTINUOUS
 90
9
 70
0
 10
30.6119563953
 20
-2.5550462193
 10
30.588690765
 20
-2.5626153777
 10
30.5681371148
 20
-2.568809098
 10
30.5504435491
 20
-2.5735827499
 10
30.5357375637
 20
-2.5769019354
 10
30.5241251264
 20
-2.5787427374
 10
30.5156899135
 20
-2.5790918915
 10
30.5104927071
 20
-2.5779468819
 10
30.5088181604
 20
-2.5762964033
  0
LWPOLYLINE
  5
370
100
AcDbEntity
  8
ASSI
100
AcDbPolyline
 62
7
  6
CONTINUOUS
 90
6
 70
0
 10
-29.7357801835
 20
7.4539336233
 10
-29.7726046572
 20
7.4474207892
 10
-29.8088849868
 20
7.4381604489
 10
-29.8443502981
 20
7.4262187446
 10
-29.8789375402
 20
7.4116045194
 10
-29.8971631313
 20
7.4026278908
  0
LWPOLYLINE
  5
371
100
AcDbEntity
  8
0
100
AcDbPolyline
 62
7
  6
CONTINUOUS
 90
6
 70
0
 10
-29.7357801835
 20
7.4539336233
 10
-29.7726046572
 20
7.4474207892
 10
-29.8088849868
 20
7.4381604489
 10
-29.8443502981
 20
7.4262187446
 10
-29.8789375402
 20
7.4116045194
 10
-29.8971631313
 20
7.4026278908
  0
LWPOLYLINE
  5
372
100
AcDbEntity
  8
ASSI
100
AcDbPolyline
 62
250
  6
CONTINUOUS
 90
19
 70
0
 10
49.1556930796
 20
-13.261971024
 10
49.1743185977
 20
-13.2719561417
 10
49.1943185357
 20
-13.2810879342
 10
49.215550642
 20
-13.2893014506
 10
49.2378639009
 20
-13.2965382714
 10
49.2610996072
 20
-13.3027469239
 10
49.2850924943
 20
-13.3078832486
 10
49.3096719105
 20
-13.3119107126
 10
49.3346630319
 20
-13.3148006703
 10
49.3598881067
 20
-13.3165325666
 10
49.3851677188
 20
-13.3170940831
 10
49.4103220644
 20
-13.3164812261
 10
49.4351722306
 20
-13.3146983544
 10
49.4595414678
 20
-13.311758149
 10
49.4832564475
 20
-13.3076815224
 10
49.5061484942
 20
-13.3024974701
 10
49.528054786
 20
-13.296242864
 10
49.548819512
 20
-13.2889621909
 10
49.5682949809
 20
-13.2807072352
  0
LWPOLYLINE
  5
373
100
AcDbEntity
  8
RACCORDO
100
AcDbPolyline
 62
250
  6
CONTINUOUS
 90
19
 70
0
 10
49.1556930796
 20
-13.261971024
 10
49.1743185977
 20
-13.2719561417
 10
49.1943185357
 20
-13.2810879342
 10
49.215550642
 20
-13.2893014506
 10
49.2378639009
 20
-13.2965382714
 10
49.2610996072
 20
-13.3027469239
 10
49.2850924943
 20
-13.3078832486
 10
49.3096719105
 20
-13.3119107126
 10
49.3346630319
 20
-13.3148006703
 10
49.3598881067
 20
-13.3165325666
 10
49.3851677188
 20
-13.3170940831
 10
49.4103220644
 20
-13.3164812261
 10
49.4351722306
 20
-13.3146983544
 10
49.4595414678
 20
-13.311758149
 10
49.4832564475
 20
-13.3076815224
 10
49.5061484942
 20
-13.3024974701
 10
49.528054786
 20
-13.296242864
 10
49.548819512
 20
-13.2889621909
 10
49.5682949809
 20
-13.2807072352
  0
LINE
  5
374
100
AcDbEntity
  8
ASSI
100
AcDbLine
 62
250
  6
CONTINUOUS
 10
30.6119530545
 20
-2.5550479537
 11
49.1556909319
 21
-13.2620192288
  0
LINE
  5
375
100
AcDbEntity
  8
RACCORDO
100
AcDbLine
 62
250
  6
CONTINUOUS
 10
30.6119530545
 20
-2.5550479537
 11
49.1556909319
 21
-13.2620192288
  0
LINE
  5
376
100
AcDbEntity
  8
ASSI
100
AcDbLine
 62
250
  6
CONTINUOUS
 10
-52.233196868
 20
45.2786540124
 11
-33.6894548846
 21
34.5717791044
  0
LINE
  5
377
100
AcDbEntity
  8
RACCORDO
100
AcDbLine
 62
250
  6
CONTINUOUS
 10
-52.233196868
 20
45.2786540124
 11
-33.6894548846
 21
34.5717791044
  0
LINE
  5
378
100
AcDbEntity
  8
ASSI
100
AcDbLine
 62
7
  6
CONTINUOUS
 10
-31.1665250467
 20
33.1274751115
 11
-30.8160570699
 21
32.925119294
  0
LINE
  5
379
100
AcDbEntity
  8
0
100
AcDbLine
 62
7
  6
CONTINUOUS
 10
-31.1665250467
 20
33.1274751115
 11
-30.8160570699
 21
32.925119294
  0
LWPOLYLINE
  5
37A
100
AcDbEntity
  8
ASSI
100
AcDbPolyline
 62
250
  6
CONTINUOUS
 90
11
 70
0
 10
-52.23319489
 20
45.278702185
 10
-52.2503182663
 20
45.2893580309
 10
-52.2658129549
 20
45.300720391
 10
-52.2795687482
 20
45.3127084495
 10
-52.2914878067
 20
45.3252369399
 10
-52.3014853548
 20
45.338216752
 10
-52.3094902839
 20
45.3515555656
 10
-52.3154456582
 20
45.365158507
 10
-52.3193091193
 20
45.3789288239
 10
-52.321053188
 20
45.3927685733
 10
-52.3210885859
 20
45.4007772896
  0
LWPOLYLINE
  5
37B
100
AcDbEntity
  8
RACCORDO
100
AcDbPolyline
 62
250
  6
CONTINUOUS
 90
11
 70
0
 10
-52.23319489
 20
45.278702185
 10
-52.2503182663
 20
45.2893580309
 10
-52.2658129549
 20
45.300720391
 10
-52.2795687482
 20
45.3127084495
 10
-52.2914878067
 20
45.3252369399
 10
-52.3014853548
 20
45.338216752
 10
-52.3094902839
 20
45.3515555656
 10
-52.3154456582
 20
45.365158507
 10
-52.3193091193
 20
45.3789288239
 10
-52.321053188
 20
45.3927685733
 10
-52.3210885859
 20
45.4007772896
  0
LWPOLYLINE
  5
37C
100
AcDbEntity
  8
ASSI
100
AcDbPolyline
 62
7
  6
CONTINUOUS
 90
10
 70
0
 10
2.498904291
 20
-26.8245955026
 10
2.4918256863
 20
-26.8381630127
 10
2.4844346974
 20
-26.8506664113
 10
2.4767156687
 20
-26.862088971
 10
2.4687842016
 20
-26.8725779324
 10
2.4606436045
 20
-26.8821327311
 10
2.4522900362
 20
-26.8907542869
 10
2.44382845
 20
-26.8985920147
 10
2.4352510187
 20
-26.9056209587
 10
2.4265651663
 20
-26.9118663439
  0
LWPOLYLINE
  5
37D
100
AcDbEntity
  8
0
100
AcDbPolyline
 62
7
  6
CONTINUOUS
 90
10
 70
0
 10
2.498904291
 20
-26.8245955026
 10
2.4918256863
 20
-26.8381630127
 10
2.4844346974
 20
-26.8506664113
 10
2.4767156687
 20
-26.862088971
 10
2.4687842016
 20
-26.8725779324
 10
2.4606436045
 20
-26.8821327311
 10
2.4522900362
 20
-26.8907542869
 10
2.44382845
 20
-26.8985920147
 10
2.4352510187
 20
-26.9056209587
 10
2.4265651663
 20
-26.9118663439
  0
LINE
  5
37E
100
AcDbEntity
  8
ASSI
100
AcDbLine
 62
7
  6
CONTINUOUS
 10
-4.3388007867
 20
-23.335273807
 11
-4.4452277412
 21
-23.3967233967
  0
LINE
  5
37F
100
AcDbEntity
  8
0
100
AcDbLine
 62
7
  6
CONTINUOUS
 10
-4.3388007867
 20
-23.335273807
 11
-4.4452277412
 21
-23.3967233967
  0
LINE
  5
380
100
AcDbEntity
  8
ASSI
100
AcDbLine
 62
7
  6
CONTINUOUS
 10
-4.4848756627
 20
-23.9026335841
 11
-4.5913500778
 21
-23.964110577
  0
LINE
  5
381
100
AcDbEntity
  8
0
100
AcDbLine
 62
7
  6
CONTINUOUS
 10
-4.4848756627
 20
-23.9026335841
 11
-4.5913500778
 21
-23.964110577
  0
LINE
  5
382
100
AcDbEntity
  8
ASSI
100
AcDbLine
 62
250
  6
CONTINUOUS
 10
52.8950796899
 20
7.0783979233
 11
53.0327259785
 21
7.1543421796
  0
LINE
  5
383
100
AcDbEntity
  8
RACCORDO
100
AcDbLine
 62
250
  6
CONTINUOUS
 10
52.8950796899
 20
7.0783979233
 11
53.0327259785
 21
7.1543421796
  0
LWPOLYLINE
  5
384
100
AcDbEntity
  8
ASSI
100
AcDbPolyline
 62
250
  6
CONTINUOUS
 90
5
 70
0
 10
53.0327259785
 20
7.1543421796
 10
53.1635107321
 20
7.2253750878
 10
53.22624684
 20
7.2590485595
 10
53.287118817
 20
7.2913642181
 10
53.4169525662
 20
7.3594544617
  0
LWPOLYLINE
  5
385
100
AcDbEntity
  8
RACCORDO
100
AcDbPolyline
 62
250
  6
CONTINUOUS
 90
5
 70
0
 10
53.0327259785
 20
7.1543421796
 10
53.1635107321
 20
7.2253750878
 10
53.22624684
 20
7.2590485595
 10
53.287118817
 20
7.2913642181
 10
53.4169525662
 20
7.3594544617
  0
LWPOLYLINE
  5
386
100
AcDbEntity
  8
ASSI
100
AcDbPolyline
 62
250
  6
CONTINUOUS
 90
12
 70
0
 10
53.4169525662
 20
7.3594544617
 10
53.4822561877
 20
7.3925744374
 10
53.5419980766
 20
7.4219927088
 10
53.5960929714
 20
7.4483315966
 10
53.6447046591
 20
7.4716940295
 10
53.6882832523
 20
7.4917747276
 10
53.7266865282
 20
7.5088749848
 10
53.7602901845
 20
7.523602577
 10
53.7903292712
 20
7.5360868978
 10
53.8172560591
 20
7.5465199831
 10
53.8407818825
 20
7.5552639502
 10
53.8609973685
 20
7.5625884831
  0
LWPOLYLINE
  5
387
100
AcDbEntity
  8
RACCORDO
100
AcDbPolyline
 62
250
  6
CONTINUOUS
 90
12
 70
0
 10
53.4169525662
 20
7.3594544617
 10
53.4822561877
 20
7.3925744374
 10
53.5419980766
 20
7.4219927088
 10
53.5960929714
 20
7.4483315966
 10
53.6447046591
 20
7.4716940295
 10
53.6882832523
 20
7.4917747276
 10
53.7266865282
 20
7.5088749848
 10
53.7602901845
 20
7.523602577
 10
53.7903292712
 20
7.5360868978
 10
53.8172560591
 20
7.5465199831
 10
53.8407818825
 20
7.5552639502
 10
53.8609973685
 20
7.5625884831
  0
LWPOLYLINE
  5
388
100
AcDbEntity
  8
ASSI
100
AcDbPolyline
 62
250
  6
CONTINUOUS
 90
19
 70
0
 10
-33.9127799452
 20
34.0174686608
 10
-33.8817373367
 20
34.0008326107
 10
-33.8484037852
 20
33.9856239861
 10
-33.8130163804
 20
33.9719509604
 10
-33.7758268207
 20
33.9599107852
 10
-33.7370996226
 20
33.949589098
 10
-33.6971102391
 20
33.9410593135
 10
-33.6561431009
 20
33.934382101
 10
-33.6144895928
 20
33.9296049533
 10
-33.572445982
 20
33.9267618484
 10
-33.5303113099
 20
33.9258730085
 10
-33.4883852659
 20
33.9269447556
 10
-33.4469660553
 20
33.9299694667
 10
-33.4063482786
 20
33.934925628
 10
-33.366820836
 20
33.9417779881
 10
-33.3286648723
 20
33.9504778086
 10
-33.2921517777
 20
33.9609632107
 10
-33.2575412571
 20
33.9731596153
 10
-33.2250794832
 20
33.9869802736
  0
LWPOLYLINE
  5
389
100
AcDbEntity
  8
RACCORDO
100
AcDbPolyline
 62
250
  6
CONTINUOUS
 90
19
 70
0
 10
-33.9127799452
 20
34.0174686608
 10
-33.8817373367
 20
34.0008326107
 10
-33.8484037852
 20
33.9856239861
 10
-33.8130163804
 20
33.9719509604
 10
-33.7758268207
 20
33.9599107852
 10
-33.7370996226
 20
33.949589098
 10
-33.6971102391
 20
33.9410593135
 10
-33.6561431009
 20
33.934382101
 10
-33.6144895928
 20
33.9296049533
 10
-33.572445982
 20
33.9267618484
 10
-33.5303113099
 20
33.9258730085
 10
-33.4883852659
 20
33.9269447556
 10
-33.4469660553
 20
33.9299694667
 10
-33.4063482786
 20
33.934925628
 10
-33.366820836
 20
33.9417779881
 10
-33.3286648723
 20
33.9504778086
 10
-33.2921517777
 20
33.9609632107
 10
-33.2575412571
 20
33.9731596153
 10
-33.2250794832
 20
33.9869802736
  0
LINE
  5
38A
100
AcDbEntity
  8
ASSI
100
AcDbLine
 62
7
  6
CONTINUOUS
 10
-32.8430534171
 20
34.3209282933
 11
30.0083388014
 21
-1.9686778607
  0
LINE
  5
38B
100
AcDbEntity
  8
RACCORDO
100
AcDbLine
 62
7
  6
CONTINUOUS
 10
-32.8430534171
 20
34.3209282933
 11
30.0083388014
 21
-1.9686778607
  0
LINE
  5
38C
100
AcDbEntity
  8
ASSI
100
AcDbLine
 62
250
  6
CONTINUOUS
 10
-32.9460910726
 20
34.5718701285
 11
29.905301146
 21
-1.7177360256
  0
LINE
  5
38D
100
AcDbEntity
  8
RACCORDO
100
AcDbLine
 62
250
  6
CONTINUOUS
 10
-32.9460910726
 20
34.5718701285
 11
29.905301146
 21
-1.7177360256
  0
LINE
  5
38E
100
AcDbEntity
  8
0
100
AcDbLine
 62
250
  6
CONTINUOUS
 10
-34.3807520334
 20
37.2469943473
 11
-33.1797028813
 21
36.5535236196
  0
LINE
  5
38F
100
AcDbEntity
  8
0
100
AcDbLine
 62
250
  6
CONTINUOUS
 10
-34.3054004428
 20
37.2904935271
 11
-33.2456510245
 21
36.6786074948
  0
LINE
  5
390
100
AcDbEntity
  8
0
100
AcDbLine
 62
250
  6
CONTINUOUS
 10
-34.230006362
 20
37.3340180568
 11
-33.3115566776
 21
36.8037167199
  0
LINE
  5
391
100
AcDbEntity
  8
0
100
AcDbLine
 62
250
  6
CONTINUOUS
 10
-25.6266343144
 20
32.7152501196
 11
-24.6375347631
 21
32.144156435
  0
LINE
  5
392
100
AcDbEntity
  8
0
100
AcDbLine
 62
250
  6
CONTINUOUS
 10
-23.7720728325
 20
31.6444495631
 11
-23.5247982982
 21
31.5016763461
  0
LINE
  5
393
100
AcDbEntity
  8
0
100
AcDbLine
 62
250
  6
CONTINUOUS
 10
-22.3708488217
 20
30.8354003807
 11
-22.1235735803
 21
30.6926267554
  0
LINE
  5
394
100
AcDbEntity
  8
0
100
AcDbLine
 62
250
  6
CONTINUOUS
 10
-21.1344747361
 20
30.1215334791
 11
-20.763561874
 21
29.9073730412
  0
LINE
  5
395
100
AcDbEntity
  8
0
100
AcDbLine
 62
250
  6
CONTINUOUS
 10
-19.197487938
 20
29.003141578
 11
-18.9502126966
 21
28.8603679527
  0
LINE
  5
396
100
AcDbEntity
  8
0
100
AcDbLine
 62
250
  6
CONTINUOUS
 10
-17.9611138524
 20
28.2892746764
 11
-16.4774645254
 21
27.4326341495
  0
LINE
  5
397
100
AcDbEntity
  8
0
100
AcDbLine
 62
250
  6
CONTINUOUS
 10
-14.2519901814
 20
26.147673155
 11
-14.0047156472
 21
26.004899938
  0
LINE
  5
398
100
AcDbEntity
  8
0
100
AcDbLine
 62
250
  6
CONTINUOUS
 10
-13.6750157967
 20
25.8145353765
 11
-13.4277412625
 21
25.6717621595
  0
LINE
  5
399
100
AcDbEntity
  8
0
100
AcDbLine
 62
250
  6
CONTINUOUS
 10
-12.2737917859
 20
25.0054861941
 11
-12.0265165446
 21
24.8627125688
  0
LINE
  5
39A
100
AcDbEntity
  8
0
100
AcDbLine
 62
250
  6
CONTINUOUS
 10
-11.6968174012
 20
24.6723484156
 11
-10.2131680743
 21
23.8157078887
  0
LINE
  5
39B
100
AcDbEntity
  8
0
100
AcDbLine
 62
250
  6
CONTINUOUS
 10
-14.5816900319
 20
26.3380377166
 11
-14.8701775778
 21
26.50460681
  0
LINE
  5
39C
100
AcDbEntity
  8
0
100
AcDbLine
 62
250
  6
CONTINUOUS
 10
-15.9004901407
 20
27.099496371
 11
-16.147764675
 21
27.242269588
  0
LINE
  5
39D
100
AcDbEntity
  8
0
100
AcDbLine
 62
250
  6
CONTINUOUS
 10
-25.3393533524
 20
32.8616564113
 11
-24.556316738
 21
32.4095408839
  0
LINE
  5
39E
100
AcDbEntity
  8
0
100
AcDbLine
 62
250
  6
CONTINUOUS
 10
-10.1731616466
 20
24.1048873974
 11
-11.4095357322
 21
24.818754299
  0
LINE
  5
39F
100
AcDbEntity
  8
0
100
AcDbLine
 62
250
  6
CONTINUOUS
 10
-16.4374580978
 20
27.7218136582
 11
-17.6738321833
 21
28.4356805599
  0
LINE
  5
3A0
100
AcDbEntity
  8
0
100
AcDbLine
 62
250
  6
CONTINUOUS
 10
-20.7235561534
 20
30.1965529582
 11
-21.0944683084
 21
30.4107129878
  0
LINE
  5
3A1
100
AcDbEntity
  8
0
100
AcDbLine
 62
250
  6
CONTINUOUS
 10
-35.1365935301
 20
38.6869415328
 11
-34.3241186461
 21
38.2178287175
  0
LINE
  5
3A2
100
AcDbEntity
  8
0
100
AcDbLine
 62
250
  6
CONTINUOUS
 10
-33.123069494
 20
37.5243579897
 11
-32.3105946101
 21
37.0552451744
  0
LINE
  5
3A3
100
AcDbEntity
  8
0
100
AcDbLine
 62
250
  6
CONTINUOUS
 10
-35.0607535324
 20
38.7307227127
 11
-34.2482786485
 21
38.2616098974
  0
LINE
  5
3A4
100
AcDbEntity
  8
0
100
AcDbLine
 62
250
  6
CONTINUOUS
 10
-33.1885292302
 20
37.6497238651
 11
-32.3760543462
 21
37.1806110498
  0
LINE
  5
3A5
100
AcDbEntity
  8
0
100
AcDbLine
 62
250
  6
CONTINUOUS
 10
-23.2793926555
 20
31.9851665245
 11
-22.4551430294
 21
31.5092551207
  0
LINE
  5
3A6
100
AcDbEntity
  8
0
100
AcDbLine
 62
250
  6
CONTINUOUS
 10
-13.1823356198
 20
26.1552523379
 11
-12.3580867008
 21
25.6793413424
  0
LINE
  5
3A7
100
AcDbEntity
  8
0
100
AcDbLine
 62
250
  6
CONTINUOUS
 10
-20.1060317719
 20
30.1529077218
 11
-20.3533070132
 21
30.2956813471
  0
LINE
  5
3A8
100
AcDbEntity
  8
0
100
AcDbLine
 62
250
  6
CONTINUOUS
 10
-34.9848703235
 20
38.7745280258
 11
-34.1723961467
 21
38.3054156187
  0
LINE
  5
3A9
100
AcDbEntity
  8
0
100
AcDbLine
 62
250
  6
CONTINUOUS
 10
-33.2539464623
 20
37.7751142819
 11
-32.4414722854
 21
37.3060018748
  0
LINE
  5
3AA
100
AcDbEntity
  8
0
100
AcDbLine
 62
250
  6
CONTINUOUS
 10
-30.649040334
 20
36.314902202
 11
-31.4026400932
 21
36.7500212581
  0
LINE
  5
3AB
100
AcDbEntity
  8
0
100
AcDbLine
 62
250
  6
CONTINUOUS
 10
-23.2108462649
 20
32.1545405532
 11
-22.4690212479
 21
31.7262200856
  0
LINE
  5
3AC
100
AcDbEntity
  8
0
100
AcDbLine
 62
250
  6
CONTINUOUS
 10
-13.1137885221
 20
26.3246259583
 11
-12.3719642122
 21
25.896305899
  0
LINE
  5
3AD
100
AcDbEntity
  8
0
100
AcDbLine
 62
250
  6
CONTINUOUS
 10
-15.0574800578
 20
27.7084716908
 11
-15.7580927704
 21
28.1129966902
  0
LINE
  5
3AE
100
AcDbEntity
  8
0
100
AcDbLine
 62
250
  6
CONTINUOUS
 10
-24.4539250882
 20
33.1338612862
 11
-25.2369624097
 21
33.5859772219
  0
LINE
  5
3AF
100
AcDbEntity
  8
0
100
AcDbLine
 62
250
  6
CONTINUOUS
 10
-17.5644948857
 20
29.2083590973
 11
-16.4929707253
 21
28.5896744765
  0
LINE
  5
3B0
100
AcDbEntity
  8
0
100
AcDbLine
 62
250
  6
CONTINUOUS
 10
-14.9331478732
 20
27.9511579622
 11
-15.7161851948
 21
28.4032738979
  0
LINE
  5
3B1
100
AcDbEntity
  8
0
100
AcDbLine
 62
250
  6
CONTINUOUS
 10
-24.4120182197
 20
33.4241389021
 11
-25.1950548342
 21
33.8762544295
  0
LINE
  5
3B2
100
AcDbEntity
  8
0
100
AcDbLine
 62
250
  6
CONTINUOUS
 10
-16.4509725384
 20
28.880004002
 11
-17.5224966987
 21
29.4986886229
  0
LINE
  5
3B3
100
AcDbEntity
  8
0
100
AcDbLine
 62
250
  6
CONTINUOUS
 10
-32.3695774062
 20
38.408013256
 11
-33.1820515831
 21
38.8771256631
  0
LINE
  5
3B4
100
AcDbEntity
  8
0
100
AcDbLine
 62
250
  6
CONTINUOUS
 10
-34.1005012674
 20
39.4074269999
 11
-34.9129754443
 21
39.876539407
  0
LINE
  5
3B5
100
AcDbEntity
  8
0
100
AcDbLine
 62
250
  6
CONTINUOUS
 10
-20.192835353
 20
31.4083106956
 11
-19.9455601116
 21
31.2655370703
  0
LINE
  5
3B6
100
AcDbEntity
  8
0
100
AcDbLine
 62
250
  6
CONTINUOUS
 10
-32.2930985241
 20
38.4521625033
 11
-33.105573408
 21
38.9212753186
  0
LINE
  5
3B7
100
AcDbEntity
  8
0
100
AcDbLine
 62
250
  6
CONTINUOUS
 10
-34.1653228263
 20
39.5331613509
 11
-34.9777977103
 21
40.0022741662
  0
LINE
  5
3B8
100
AcDbEntity
  8
0
100
AcDbLine
 62
250
  6
CONTINUOUS
 10
-32.2165777552
 20
38.496336752
 11
-33.0290526392
 21
38.9654495673
  0
LINE
  5
3B9
100
AcDbEntity
  8
0
100
AcDbLine
 62
250
  6
CONTINUOUS
 10
-34.2301017913
 20
39.6589202951
 11
-35.0425766753
 21
40.1280331104
  0
LINE
  5
3BA
100
AcDbEntity
  8
0
100
AcDbLine
 62
250
  6
CONTINUOUS
 10
-25.0951562601
 20
34.5547891891
 11
-24.3121189385
 21
34.1026732534
  0
LINE
  5
3BB
100
AcDbEntity
  8
0
100
AcDbLine
 62
250
  6
CONTINUOUS
 10
-20.8502705089
 20
32.1038453573
 11
-20.479358354
 21
31.8896853276
  0
LINE
  5
3BC
100
AcDbEntity
  8
0
100
AcDbLine
 62
250
  6
CONTINUOUS
 10
-17.429635091
 20
30.1288133376
 11
-16.1932602983
 21
29.4149460277
  0
LINE
  5
3BD
100
AcDbEntity
  8
0
100
AcDbLine
 62
250
  6
CONTINUOUS
 10
-19.5654348364
 20
31.4147148045
 11
-18.9060351355
 21
31.0339856814
  0
LINE
  5
3BE
100
AcDbEntity
  8
0
100
AcDbLine
 62
250
  6
CONTINUOUS
 10
-18.6587606012
 20
30.8912124644
 11
-17.9993609004
 21
30.5104833413
  0
LINE
  5
3BF
100
AcDbEntity
  8
0
100
AcDbLine
 62
250
  6
CONTINUOUS
 10
-15.6090373383
 20
29.1303404744
 11
-14.8260000167
 21
28.6782245387
  0
LINE
  5
3C0
100
AcDbEntity
  8
0
100
AcDbLine
 62
250
  6
CONTINUOUS
 10
-15.81983985
 20
29.5159063067
 11
-14.8307402987
 21
28.9448126221
  0
LINE
  5
3C1
100
AcDbEntity
  8
0
100
AcDbLine
 62
250
  6
CONTINUOUS
 10
-11.1216173348
 20
26.803211509
 11
-11.3688925762
 21
26.9459851343
  0
LINE
  5
3C2
100
AcDbEntity
  8
0
100
AcDbLine
 62
250
  6
CONTINUOUS
 10
-12.3579921275
 20
27.5170788189
 11
-12.6876912708
 21
27.7074429722
  0
LINE
  5
3C3
100
AcDbEntity
  8
0
100
AcDbLine
 62
250
  6
CONTINUOUS
 10
-13.6767908222
 20
28.2785366568
 11
-13.9240653564
 21
28.4213098738
  0
LINE
  5
3C4
100
AcDbEntity
  8
0
100
AcDbLine
 62
250
  6
CONTINUOUS
 10
-16.1495397004
 20
29.7062708683
 11
-17.6331890274
 21
30.5629113952
  0
LINE
  5
3C5
100
AcDbEntity
  8
0
100
AcDbLine
 62
250
  6
CONTINUOUS
 10
-17.9628888778
 20
30.7532759567
 11
-19.5289628139
 21
31.6575074198
  0
LINE
  5
3C6
100
AcDbEntity
  8
0
100
AcDbLine
 62
250
  6
CONTINUOUS
 10
-20.4356377561
 20
32.1810101682
 11
-20.8065499111
 21
32.3951701979
  0
LINE
  5
3C7
100
AcDbEntity
  8
0
100
AcDbLine
 62
250
  6
CONTINUOUS
 10
-22.4550484561
 20
33.3469925972
 11
-22.7847483066
 21
33.5373571588
  0
LINE
  5
3C8
100
AcDbEntity
  8
0
100
AcDbLine
 62
250
  6
CONTINUOUS
 10
-24.3096099381
 20
34.4177931538
 11
-25.2987094894
 21
34.9888868384
  0
LINE
  5
3C9
100
AcDbEntity
  8
0
100
AcDbLine
 62
250
  6
CONTINUOUS
 10
-27.0967292989
 20
36.0270409419
 11
-28.227127877
 21
36.6797189137
  0
LINE
  5
3CA
100
AcDbEntity
  8
0
100
AcDbLine
 62
250
  6
CONTINUOUS
 10
-33.1124531398
 20
39.8554450776
 11
-34.0309028241
 21
40.3857464145
  0
LINE
  5
3CB
100
AcDbEntity
  8
0
100
AcDbLine
 62
250
  6
CONTINUOUS
 10
-33.0354846789
 20
39.8998786346
 11
-34.0952340971
 21
40.5117646669
  0
LINE
  5
3CC
100
AcDbEntity
  8
0
100
AcDbLine
 62
250
  6
CONTINUOUS
 10
-32.9584736112
 20
39.9443359757
 11
-34.1595227633
 21
40.6378067034
  0
LWPOLYLINE
  5
3CD
100
AcDbEntity
  8
ASSI
100
AcDbPolyline
 62
7
  6
CONTINUOUS
 90
20
 70
0
 10
30.0083758085
 20
-1.9686992818
 10
30.0149703102
 20
-1.9725572589
 10
30.0415796393
 20
-1.9891223956
 10
30.0694579122
 20
-2.0081540858
 10
30.0983903209
 20
-2.0296857609
 10
30.1280763571
 20
-2.053652164
 10
30.1583291104
 20
-2.0800426043
 10
30.1889773205
 20
-2.1088414179
 10
30.2197644888
 20
-2.139928552
 10
30.2505105551
 20
-2.1732283614
 10
30.281049138
 20
-2.2086611242
 10
30.3111677231
 20
-2.246070211
 10
30.3406998107
 20
-2.2853266301
 10
30.3694960111
 20
-2.3263035711
 10
30.3973911357
 20
-2.3688299605
 10
30.424242218
 20
-2.4127425377
 10
30.449916728
 20
-2.4578721004
 10
30.4742834672
 20
-2.5040270334
 10
30.4972263797
 20
-2.5510169934
 10
30.5088180602
 20
-2.5762954395
  0
LWPOLYLINE
  5
3CE
100
AcDbEntity
  8
RACCORDO
100
AcDbPolyline
 62
7
  6
CONTINUOUS
 90
20
 70
0
 10
30.0083758085
 20
-1.9686992818
 10
30.0149703102
 20
-1.9725572589
 10
30.0415796393
 20
-1.9891223956
 10
30.0694579122
 20
-2.0081540858
 10
30.0983903209
 20
-2.0296857609
 10
30.1280763571
 20
-2.053652164
 10
30.1583291104
 20
-2.0800426043
 10
30.1889773205
 20
-2.1088414179
 10
30.2197644888
 20
-2.139928552
 10
30.2505105551
 20
-2.1732283614
 10
30.281049138
 20
-2.2086611242
 10
30.3111677231
 20
-2.246070211
 10
30.3406998107
 20
-2.2853266301
 10
30.3694960111
 20
-2.3263035711
 10
30.3973911357
 20
-2.3688299605
 10
30.424242218
 20
-2.4127425377
 10
30.449916728
 20
-2.4578721004
 10
30.4742834672
 20
-2.5040270334
 10
30.4972263797
 20
-2.5510169934
 10
30.5088180602
 20
-2.5762954395
  0
LWPOLYLINE
  5
3CF
100
AcDbEntity
  8
ASSI
100
AcDbPolyline
 62
250
  6
CONTINUOUS
 90
29
 70
0
 10
29.905301146
 20
-1.7177360256
 10
29.9350500223
 20
-1.7355706343
 10
29.964308494
 20
-1.7541738738
 10
29.9930765917
 20
-1.7735457284
 10
30.0213454475
 20
-1.7937155203
 10
30.04912405
 20
-1.814653865
 10
30.0764392345
 20
-1.8362726761
 10
30.1032885346
 20
-1.8585579544
 10
30.1296746213
 20
-1.8815235935
 10
30.1556320408
 20
-1.9051233435
 10
30.1811608024
 20
-1.92934525
 10
30.2062611695
 20
-1.9542011267
 10
30.230968076
 20
-1.9796803723
 10
30.2552842881
 20
-2.0057737088
 10
30.2792073783
 20
-2.0324902393
 10
30.3027645028
 20
-2.0598469275
 10
30.3259606616
 20
-2.0878371747
 10
30.3487912685
 20
-2.1164673656
 10
30.3712691275
 20
-2.1457739259
 10
30.3934009211
 20
-2.1757524345
 10
30.4151804732
 20
-2.2064070503
 10
30.436601344
 20
-2.2377870456
 10
30.4576716099
 20
-2.2698897194
 10
30.478383819
 20
-2.302717449
 10
30.4987083055
 20
-2.3363270898
 10
30.5186548312
 20
-2.3707174195
 10
30.5382144095
 20
-2.4058892579
 10
30.5573293432
 20
-2.4419024761
 10
30.5759807406
 20
-2.4787768542
  0
LWPOLYLINE
  5
3D0
100
AcDbEntity
  8
RACCORDO
100
AcDbPolyline
 62
250
  6
CONTINUOUS
 90
29
 70
0
 10
29.905301146
 20
-1.7177360256
 10
29.9350500223
 20
-1.7355706343
 10
29.964308494
 20
-1.7541738738
 10
29.9930765917
 20
-1.7735457284
 10
30.0213454475
 20
-1.7937155203
 10
30.04912405
 20
-1.814653865
 10
30.0764392345
 20
-1.8362726761
 10
30.1032885346
 20
-1.8585579544
 10
30.1296746213
 20
-1.8815235935
 10
30.1556320408
 20
-1.9051233435
 10
30.1811608024
 20
-1.92934525
 10
30.2062611695
 20
-1.9542011267
 10
30.230968076
 20
-1.9796803723
 10
30.2552842881
 20
-2.0057737088
 10
30.2792073783
 20
-2.0324902393
 10
30.3027645028
 20
-2.0598469275
 10
30.3259606616
 20
-2.0878371747
 10
30.3487912685
 20
-2.1164673656
 10
30.3712691275
 20
-2.1457739259
 10
30.3934009211
 20
-2.1757524345
 10
30.4151804732
 20
-2.2064070503
 10
30.436601344
 20
-2.2377870456
 10
30.4576716099
 20
-2.2698897194
 10
30.478383819
 20
-2.302717449
 10
30.4987083055
 20
-2.3363270898
 10
30.5186548312
 20
-2.3707174195
 10
30.5382144095
 20
-2.4058892579
 10
30.5573293432
 20
-2.4419024761
 10
30.5759807406
 20
-2.4787768542
  0
LWPOLYLINE
  5
3D1
100
AcDbEntity
  8
ASSI
100
AcDbPolyline
 62
250
  6
CONTINUOUS
 90
11
 70
0
 10
30.7794108432
 20
-3.3349942561
 10
30.750872342
 20
-3.3172285877
 10
30.7250485213
 20
-3.2982801726
 10
30.7021230548
 20
-3.2782837825
 10
30.6822590012
 20
-3.2573816431
 10
30.6655976449
 20
-3.235722422
 10
30.6522574907
 20
-3.2134601718
 10
30.6423334214
 20
-3.1907532342
 10
30.6358960224
 20
-3.1677631137
 10
30.6329910803
 20
-3.1446533288
 10
30.63292499
 20
-3.1314858947
  0
LWPOLYLINE
  5
3D2
100
AcDbEntity
  8
RACCORDO
100
AcDbPolyline
 62
250
  6
CONTINUOUS
 90
11
 70
0
 10
30.7794108432
 20
-3.3349942561
 10
30.750872342
 20
-3.3172285877
 10
30.7250485213
 20
-3.2982801726
 10
30.7021230548
 20
-3.2782837825
 10
30.6822590012
 20
-3.2573816431
 10
30.6655976449
 20
-3.235722422
 10
30.6522574907
 20
-3.2134601718
 10
30.6423334214
 20
-3.1907532342
 10
30.6358960224
 20
-3.1677631137
 10
30.6329910803
 20
-3.1446533288
 10
30.63292499
 20
-3.1314858947
  0
LWPOLYLINE
  5
3D3
100
AcDbEntity
  8
ASSI
100
AcDbPolyline
 62
7
  6
CONTINUOUS
 90
15
 70
0
 10
2.0912480786
 20
-26.5658793029
 10
2.1008010719
 20
-26.5580993251
 10
2.109509782
 20
-26.5491001633
 10
2.117369881
 20
-26.5388831714
 10
2.1243861665
 20
-26.5274466826
 10
2.130595137
 20
-26.5150187249
 10
2.1360056767
 20
-26.5016179572
 10
2.1406092789
 20
-26.4872254695
 10
2.1444162296
 20
-26.472013021
 10
2.1474412597
 20
-26.4559769095
 10
2.1496699226
 20
-26.4391206486
 10
2.1510685972
 20
-26.4216269143
 10
2.1516260822
 20
-26.4035565947
 10
2.1513536877
 20
-26.3848487301
 10
2.1502514779
 20
-26.3655032781
  0
LWPOLYLINE
  5
3D4
100
AcDbEntity
  8
0
100
AcDbPolyline
 62
7
  6
CONTINUOUS
 90
15
 70
0
 10
2.0912480786
 20
-26.5658793029
 10
2.1008010719
 20
-26.5580993251
 10
2.109509782
 20
-26.5491001633
 10
2.117369881
 20
-26.5388831714
 10
2.1243861665
 20
-26.5274466826
 10
2.130595137
 20
-26.5150187249
 10
2.1360056767
 20
-26.5016179572
 10
2.1406092789
 20
-26.4872254695
 10
2.1444162296
 20
-26.472013021
 10
2.1474412597
 20
-26.4559769095
 10
2.1496699226
 20
-26.4391206486
 10
2.1510685972
 20
-26.4216269143
 10
2.1516260822
 20
-26.4035565947
 10
2.1513536877
 20
-26.3848487301
 10
2.1502514779
 20
-26.3655032781
  0
LWPOLYLINE
  5
3D5
100
AcDbEntity
  8
ASSI
100
AcDbPolyline
 62
7
  6
CONTINUOUS
 90
3
 70
0
 10
2.4265651663
 20
-26.9118663439
 10
2.4178988059
 20
-26.9175528012
 10
2.41171192
 20
-26.9213003761
  0
LWPOLYLINE
  5
3D6
100
AcDbEntity
  8
0
100
AcDbPolyline
 62
7
  6
CONTINUOUS
 90
3
 70
0
 10
2.4265651663
 20
-26.9118663439
 10
2.4178988059
 20
-26.9175528012
 10
2.41171192
 20
-26.9213003761
  0
LINE
  5
3D7
100
AcDbEntity
  8
ASSI
100
AcDbLine
 62
7
  6
CONTINUOUS
 10
2.0844492707
 20
-26.5702449319
 11
2.0912480786
 21
-26.5658793029
  0
LINE
  5
3D8
100
AcDbEntity
  8
0
100
AcDbLine
 62
7
  6
CONTINUOUS
 10
2.0844492707
 20
-26.5702449319
 11
2.0912480786
 21
-26.5658793029
  0
LWPOLYLINE
  5
3D9
100
AcDbEntity
  8
ASSI
100
AcDbPolyline
 62
250
  6
CONTINUOUS
 90
13
 70
0
 10
53.6241490661
 20
6.7076107899
 10
53.7480236382
 20
6.7860225741
 10
53.8093524602
 20
6.8260271205
 10
53.8646946928
 20
6.8630658244
 10
53.9145466319
 20
6.8967537182
 10
53.9590793475
 20
6.9271811207
 10
53.9982536101
 20
6.9548903251
 10
54.0322592856
 20
6.9796074274
 10
54.0618105366
 20
7.0013539677
 10
54.0876369103
 20
7.0211349091
 10
54.1101308405
 20
7.039245933
 10
54.1294616137
 20
7.0552559546
 10
54.1459080998
 20
7.0691086119
  0
LWPOLYLINE
  5
3DA
100
AcDbEntity
  8
RACCORDO
100
AcDbPolyline
 62
250
  6
CONTINUOUS
 90
13
 70
0
 10
53.6241490661
 20
6.7076107899
 10
53.7480236382
 20
6.7860225741
 10
53.8093524602
 20
6.8260271205
 10
53.8646946928
 20
6.8630658244
 10
53.9145466319
 20
6.8967537182
 10
53.9590793475
 20
6.9271811207
 10
53.9982536101
 20
6.9548903251
 10
54.0322592856
 20
6.9796074274
 10
54.0618105366
 20
7.0013539677
 10
54.0876369103
 20
7.0211349091
 10
54.1101308405
 20
7.039245933
 10
54.1294616137
 20
7.0552559546
 10
54.1459080998
 20
7.0691086119
  0
LINE
  5
3DB
100
AcDbEntity
  8
ASSI
100
AcDbLine
 62
250
  6
CONTINUOUS
 10
53.5657311762
 20
6.6710445884
 11
53.6241490661
 21
6.7076107899
  0
LINE
  5
3DC
100
AcDbEntity
  8
RACCORDO
100
AcDbLine
 62
250
  6
CONTINUOUS
 10
53.5657311762
 20
6.6710445884
 11
53.6241490661
 21
6.7076107899
  0
LINE
  5
3DD
100
AcDbEntity
  8
ASSI
100
AcDbLine
 62
250
  6
CONTINUOUS
 10
53.4427120014
 20
6.5951174023
 11
53.5657311762
 21
6.6710445884
  0
LINE
  5
3DE
100
AcDbEntity
  8
RACCORDO
100
AcDbLine
 62
250
  6
CONTINUOUS
 10
53.4427120014
 20
6.5951174023
 11
53.5657311762
 21
6.6710445884
  0
LINE
  5
3DF
100
AcDbEntity
  8
ASSI
100
AcDbLine
 62
250
  6
CONTINUOUS
 10
53.3119294191
 20
6.5155665699
 11
53.4427120014
 21
6.5951174023
  0
LINE
  5
3E0
100
AcDbEntity
  8
RACCORDO
100
AcDbLine
 62
250
  6
CONTINUOUS
 10
53.3119294191
 20
6.5155665699
 11
53.4427120014
 21
6.5951174023
  0
LWPOLYLINE
  5
3E1
100
AcDbEntity
  8
ASSI
100
AcDbPolyline
 62
250
  6
CONTINUOUS
 90
3
 70
0
 10
53.1629691047
 20
6.4262717512
 10
53.1737001441
 20
6.4326529573
 10
53.3119294191
 20
6.5155665699
  0
LWPOLYLINE
  5
3E2
100
AcDbEntity
  8
RACCORDO
100
AcDbPolyline
 62
250
  6
CONTINUOUS
 90
3
 70
0
 10
53.1629691047
 20
6.4262717512
 10
53.1737001441
 20
6.4326529573
 10
53.3119294191
 20
6.5155665699
  0
LINE
  5
3E3
100
AcDbEntity
  8
ASSI
100
AcDbLine
 62
7
  6
CONTINUOUS
 10
-2.2677567449
 20
-23.8130759784
 11
-2.3741351344
 21
-23.8744975273
  0
LINE
  5
3E4
100
AcDbEntity
  8
0
100
AcDbLine
 62
7
  6
CONTINUOUS
 10
-2.2677567449
 20
-23.8130759784
 11
-2.3741351344
 21
-23.8744975273
  0
LINE
  5
3E5
100
AcDbEntity
  8
ASSI
100
AcDbLine
 62
7
  6
CONTINUOUS
 10
-3.2744347183
 20
-24.601527015
 11
-3.3809091334
 21
-24.6630040079
  0
LINE
  5
3E6
100
AcDbEntity
  8
0
100
AcDbLine
 62
7
  6
CONTINUOUS
 10
-3.2744347183
 20
-24.601527015
 11
-3.3809091334
 21
-24.6630040079
  0
LINE
  5
3E7
100
AcDbEntity
  8
ASSI
100
AcDbLine
 62
250
  6
CONTINUOUS
 10
50.7712290385
 20
6.2649086891
 11
52.5205315719
 21
7.2749243268
  0
LINE
  5
3E8
100
AcDbEntity
  8
RACCORDO
100
AcDbLine
 62
250
  6
CONTINUOUS
 10
50.7712290385
 20
6.2649086891
 11
52.5205315719
 21
7.2749243268
  0
LINE
  5
3E9
100
AcDbEntity
  8
ASSI
100
AcDbLine
 62
7
  6
CONTINUOUS
 10
-2.6458075974
 20
-24.9644884361
 11
-2.7522820126
 21
-25.0259654289
  0
LINE
  5
3EA
100
AcDbEntity
  8
0
100
AcDbLine
 62
7
  6
CONTINUOUS
 10
-2.6458075974
 20
-24.9644884361
 11
-2.7522820126
 21
-25.0259654289
  0
LINE
  5
3EB
100
AcDbEntity
  8
ASSI
100
AcDbLine
 62
7
  6
CONTINUOUS
 10
-1.7193499357
 20
-24.5681965783
 11
-1.8257575244
 21
-24.6296349864
  0
LINE
  5
3EC
100
AcDbEntity
  8
0
100
AcDbLine
 62
7
  6
CONTINUOUS
 10
-1.7193499357
 20
-24.5681965783
 11
-1.8257575244
 21
-24.6296349864
  0
LINE
  5
3ED
100
AcDbEntity
  8
ASSI
100
AcDbLine
 62
7
  6
CONTINUOUS
 10
-1.2332660028
 20
-24.4161227389
 11
-1.3396447656
 21
-24.4775445033
  0
LINE
  5
3EE
100
AcDbEntity
  8
0
100
AcDbLine
 62
7
  6
CONTINUOUS
 10
-1.2332660028
 20
-24.4161227389
 11
-1.3396447656
 21
-24.4775445033
  0
LINE
  5
3EF
100
AcDbEntity
  8
ASSI
100
AcDbLine
 62
7
  6
CONTINUOUS
 10
-1.6973976963
 20
-25.5362018223
 11
-1.7829906435
 21
-25.5856221174
  0
LINE
  5
3F0
100
AcDbEntity
  8
0
100
AcDbLine
 62
7
  6
CONTINUOUS
 10
-1.6973976963
 20
-25.5362018223
 11
-1.7829906435
 21
-25.5856221174
  0
LINE
  5
3F1
100
AcDbEntity
  8
ASSI
100
AcDbLine
 62
250
  6
CONTINUOUS
 10
51.3815647608
 20
4.9865279512
 11
53.2266692879
 21
6.0518579269
  0
LINE
  5
3F2
100
AcDbEntity
  8
RACCORDO
100
AcDbLine
 62
250
  6
CONTINUOUS
 10
51.3815647608
 20
4.9865279512
 11
53.2266692879
 21
6.0518579269
  0
LINE
  5
3F3
100
AcDbEntity
  8
ASSI
100
AcDbLine
 62
7
  6
CONTINUOUS
 10
0.2710301489
 20
-25.1263884733
 11
0.1646615832
 21
-25.18780435
  0
LINE
  5
3F4
100
AcDbEntity
  8
0
100
AcDbLine
 62
7
  6
CONTINUOUS
 10
0.2710301489
 20
-25.1263884733
 11
0.1646615832
 21
-25.18780435
  0
LINE
  5
3F5
100
AcDbEntity
  8
ASSI
100
AcDbLine
 62
7
  6
CONTINUOUS
 10
-1.0423171061
 20
-25.8903237493
 11
-1.1487915212
 21
-25.9518007422
  0
LINE
  5
3F6
100
AcDbEntity
  8
0
100
AcDbLine
 62
7
  6
CONTINUOUS
 10
-1.0423171061
 20
-25.8903237493
 11
-1.1487915212
 21
-25.9518007422
  0
LINE
  5
3F7
100
AcDbEntity
  8
ASSI
100
AcDbLine
 62
7
  6
CONTINUOUS
 10
-0.4246777175
 20
-26.2469409915
 11
-0.5311521326
 21
-26.3084179843
  0
LINE
  5
3F8
100
AcDbEntity
  8
0
100
AcDbLine
 62
7
  6
CONTINUOUS
 10
-0.4246777175
 20
-26.2469409915
 11
-0.5311521326
 21
-26.3084179843
  0
LINE
  5
3F9
100
AcDbEntity
  8
ASSI
100
AcDbLine
 62
7
  6
CONTINUOUS
 10
0.0640421422
 20
-26.112115563
 11
-0.0424015299
 21
-26.1735748052
  0
LINE
  5
3FA
100
AcDbEntity
  8
0
100
AcDbLine
 62
7
  6
CONTINUOUS
 10
0.0640421422
 20
-26.112115563
 11
-0.0424015299
 21
-26.1735748052
  0
LINE
  5
3FB
100
AcDbEntity
  8
ASSI
100
AcDbLine
 62
7
  6
CONTINUOUS
 10
0.5187772433
 20
-26.0509384906
 11
0.4123565218
 21
-26.1123844815
  0
LINE
  5
3FC
100
AcDbEntity
  8
0
100
AcDbLine
 62
7
  6
CONTINUOUS
 10
0.5187772433
 20
-26.0509384906
 11
0.4123565218
 21
-26.1123844815
  0
LINE
  5
3FD
100
AcDbEntity
  8
ASSI
100
AcDbLine
 62
7
  6
CONTINUOUS
 10
1.6817875072
 20
-25.7201031879
 11
1.575432859
 21
-25.7815110288
  0
LINE
  5
3FE
100
AcDbEntity
  8
0
100
AcDbLine
 62
7
  6
CONTINUOUS
 10
1.6817875072
 20
-25.7201031879
 11
1.575432859
 21
-25.7815110288
  0
LINE
  5
3FF
100
AcDbEntity
  8
ASSI
100
AcDbLine
 62
7
  6
CONTINUOUS
 10
0.6268050948
 20
-26.4370478388
 11
0.5203614228
 21
-26.498507081
  0
LINE
  5
400
100
AcDbEntity
  8
0
100
AcDbLine
 62
7
  6
CONTINUOUS
 10
0.6268050948
 20
-26.4370478388
 11
0.5203614228
 21
-26.498507081
  0
LINE
  5
401
100
AcDbEntity
  8
ASSI
100
AcDbLine
 62
250
  6
CONTINUOUS
 10
2.004652215
 20
-25.8940570672
 11
1.8982983417
 21
-25.9554644607
  0
LINE
  5
402
100
AcDbEntity
  8
0
100
AcDbLine
 62
250
  6
CONTINUOUS
 10
2.004652215
 20
-25.8940570672
 11
1.8982983417
 21
-25.9554644607
  0
LINE
  5
403
100
AcDbEntity
  8
ASSI
100
AcDbLine
 62
7
  6
CONTINUOUS
 10
0.7679186802
 20
-26.9355312047
 11
0.661444265
 21
-26.9970081976
  0
LINE
  5
404
100
AcDbEntity
  8
0
100
AcDbLine
 62
7
  6
CONTINUOUS
 10
0.7679186802
 20
-26.9355312047
 11
0.661444265
 21
-26.9970081976
  0
LINE
  5
405
100
AcDbEntity
  8
ASSI
100
AcDbLine
 62
250
  6
CONTINUOUS
 10
2.2566220429
 20
-26.3040863427
 11
2.1502514793
 21
-26.365503373
  0
LINE
  5
406
100
AcDbEntity
  8
0
100
AcDbLine
 62
250
  6
CONTINUOUS
 10
2.2566220429
 20
-26.3040863427
 11
2.1502514793
 21
-26.365503373
  0
LINE
  5
407
100
AcDbEntity
  8
ASSI
100
AcDbLine
 62
7
  6
CONTINUOUS
 10
1.7627847208
 20
-26.6910479086
 11
1.6563694216
 21
-26.7524907687
  0
LINE
  5
408
100
AcDbEntity
  8
0
100
AcDbLine
 62
7
  6
CONTINUOUS
 10
1.7627847208
 20
-26.6910479086
 11
1.6563694216
 21
-26.7524907687
  0
LINE
  5
409
100
AcDbEntity
  8
ASSI
100
AcDbLine
 62
7
  6
CONTINUOUS
 10
2.084441943
 20
-26.5702334931
 11
2.1908282735
 21
-26.5088073592
  0
LINE
  5
40A
100
AcDbEntity
  8
0
100
AcDbLine
 62
7
  6
CONTINUOUS
 10
2.084441943
 20
-26.5702334931
 11
2.1908282735
 21
-26.5088073592
  0
LINE
  5
40B
100
AcDbEntity
  8
ASSI
100
AcDbLine
 62
250
  6
CONTINUOUS
 10
1.9843535317
 20
-26.8189789631
 11
1.8779382325
 21
-26.8804218232
  0
LINE
  5
40C
100
AcDbEntity
  8
0
100
AcDbLine
 62
250
  6
CONTINUOUS
 10
1.9843535317
 20
-26.8189789631
 11
1.8779382325
 21
-26.8804218232
  0
LINE
  5
40D
100
AcDbEntity
  8
ASSI
100
AcDbLine
 62
7
  6
CONTINUOUS
 10
1.4167265108
 20
-27.3101449786
 11
1.3102520956
 21
-27.3716219714
  0
LINE
  5
40E
100
AcDbEntity
  8
0
100
AcDbLine
 62
7
  6
CONTINUOUS
 10
1.4167265108
 20
-27.3101449786
 11
1.3102520956
 21
-27.3716219714
  0
LINE
  5
40F
100
AcDbEntity
  8
ASSI
100
AcDbLine
 62
7
  6
CONTINUOUS
 10
2.4006488356
 20
-26.8883592572
 11
2.2942452373
 21
-26.9497953613
  0
LINE
  5
410
100
AcDbEntity
  8
0
100
AcDbLine
 62
7
  6
CONTINUOUS
 10
2.4006488356
 20
-26.8883592572
 11
2.2942452373
 21
-26.9497953613
  0
LINE
  5
411
100
AcDbEntity
  8
ASSI
100
AcDbLine
 62
250
  6
CONTINUOUS
 10
2.2291509047
 20
-27.1450848777
 11
2.1227227139
 21
-27.2065351812
  0
LINE
  5
412
100
AcDbEntity
  8
0
100
AcDbLine
 62
250
  6
CONTINUOUS
 10
2.2291509047
 20
-27.1450848777
 11
2.1227227139
 21
-27.2065351812
  0
LINE
  5
413
100
AcDbEntity
  8
ASSI
100
AcDbLine
 62
7
  6
CONTINUOUS
 10
2.4611209777
 20
-27.9131652544
 11
2.3546465625
 21
-27.9746422473
  0
LINE
  5
414
100
AcDbEntity
  8
0
100
AcDbLine
 62
7
  6
CONTINUOUS
 10
2.4611209777
 20
-27.9131652544
 11
2.3546465625
 21
-27.9746422473
  0
LWPOLYLINE
  5
415
100
AcDbEntity
  8
ASSI
100
AcDbPolyline
 62
7
  6
CONTINUOUS
 90
4
 70
0
 10
2.41171192
 20
-26.9213003761
 10
2.4092610281
 20
-26.922692262
 10
2.400642477
 20
-26.927272972
 10
2.3921434733
 20
-26.9314839828
  0
LWPOLYLINE
  5
416
100
AcDbEntity
  8
0
100
AcDbPolyline
 62
7
  6
CONTINUOUS
 90
4
 70
0
 10
2.41171192
 20
-26.9213003761
 10
2.4092610281
 20
-26.922692262
 10
2.400642477
 20
-26.927272972
 10
2.3921434733
 20
-26.9314839828
  0
LINE
  5
417
100
AcDbEntity
  8
ASSI
100
AcDbLine
 62
250
  6
CONTINUOUS
 10
52.812897932
 20
7.0325857902
 11
52.8950796899
 21
7.0783979233
  0
LINE
  5
418
100
AcDbEntity
  8
RACCORDO
100
AcDbLine
 62
250
  6
CONTINUOUS
 10
52.812897932
 20
7.0325857902
 11
52.8950796899
 21
7.0783979233
  0
LWPOLYLINE
  5
419
100
AcDbEntity
  8
ASSI
100
AcDbPolyline
 62
7
  6
CONTINUOUS
 90
3
 70
0
 10
2.3921434733
 20
-26.9314839828
 10
2.3837844946
 20
-26.9353442145
 10
2.375544889
 20
-26.9388348634
  0
LWPOLYLINE
  5
41A
100
AcDbEntity
  8
0
100
AcDbPolyline
 62
7
  6
CONTINUOUS
 90
3
 70
0
 10
2.3921434733
 20
-26.9314839828
 10
2.3837844946
 20
-26.9353442145
 10
2.375544889
 20
-26.9388348634
  0
LWPOLYLINE
  5
41B
100
AcDbEntity
  8
ASSI
100
AcDbPolyline
 62
250
  6
CONTINUOUS
 90
3
 70
0
 10
30.6423332507
 20
-38.8958906217
 10
30.6358955336
 20
-38.8707803248
 10
30.6329652937
 20
-38.8447527769
  0
LWPOLYLINE
  5
41C
100
AcDbEntity
  8
RACCORDO
100
AcDbPolyline
 62
250
  6
CONTINUOUS
 90
3
 70
0
 10
30.6423332507
 20
-38.8958906217
 10
30.6358955336
 20
-38.8707803248
 10
30.6329652937
 20
-38.8447527769
  0
LWPOLYLINE
  5
41D
100
AcDbEntity
  8
ASSI
100
AcDbPolyline
 62
7
  6
CONTINUOUS
 90
10
 70
0
 10
30.6329652937
 20
-38.8447527769
 10
30.6335164893
 20
-38.8687858073
 10
30.6331052487
 20
-38.8932232289
 10
30.6317925667
 20
-38.9148414608
 10
30.6297958582
 20
-38.9335789217
 10
30.6273267094
 20
-38.949533442
 10
30.6245797505
 20
-38.9628563217
 10
30.6217697314
 20
-38.9735905277
 10
30.6191499484
 20
-38.9817114599
 10
30.6170254516
 20
-38.9871634737
  0
LWPOLYLINE
  5
41E
100
AcDbEntity
  8
RACCORDO
100
AcDbPolyline
 62
7
  6
CONTINUOUS
 90
10
 70
0
 10
30.6329652937
 20
-38.8447527769
 10
30.6335164893
 20
-38.8687858073
 10
30.6331052487
 20
-38.8932232289
 10
30.6317925667
 20
-38.9148414608
 10
30.6297958582
 20
-38.9335789217
 10
30.6273267094
 20
-38.949533442
 10
30.6245797505
 20
-38.9628563217
 10
30.6217697314
 20
-38.9735905277
 10
30.6191499484
 20
-38.9817114599
 10
30.6170254516
 20
-38.9871634737
  0
LWPOLYLINE
  5
41F
100
AcDbEntity
  8
ASSI
100
AcDbPolyline
 62
250
  6
CONTINUOUS
 90
13
 70
0
 10
30.7794108336
 20
-39.0480092964
 10
30.7804817154
 20
-39.1026029849
 10
30.7787787321
 20
-39.155639919
 10
30.7743019065
 20
-39.207120083
 10
30.7670564125
 20
-39.2573367959
 10
30.7570372043
 20
-39.3059966547
 10
30.7442286044
 20
-39.3522197953
 10
30.7285060954
 20
-39.3959569378
 10
30.7099935194
 20
-39.437257788
 10
30.6890469952
 20
-39.475391433
 10
30.6657846099
 20
-39.5101146275
 10
30.6400868425
 20
-39.5416715253
 10
30.6119530545
 20
-39.5700625313
  0
LWPOLYLINE
  5
420
100
AcDbEntity
  8
RACCORDO
100
AcDbPolyline
 62
250
  6
CONTINUOUS
 90
13
 70
0
 10
30.7794108336
 20
-39.0480092964
 10
30.7804817154
 20
-39.1026029849
 10
30.7787787321
 20
-39.155639919
 10
30.7743019065
 20
-39.207120083
 10
30.7670564125
 20
-39.2573367959
 10
30.7570372043
 20
-39.3059966547
 10
30.7442286044
 20
-39.3522197953
 10
30.7285060954
 20
-39.3959569378
 10
30.7099935194
 20
-39.437257788
 10
30.6890469952
 20
-39.475391433
 10
30.6657846099
 20
-39.5101146275
 10
30.6400868425
 20
-39.5416715253
 10
30.6119530545
 20
-39.5700625313
  0
LWPOLYLINE
  5
421
100
AcDbEntity
  8
ASSI
100
AcDbPolyline
 62
250
  6
CONTINUOUS
 90
22
 70
0
 10
29.905301146
 20
-39.5489565624
 10
29.9048789388
 20
-39.5186555493
 10
29.9064360657
 20
-39.487260759
 10
29.9099638072
 20
-39.4549479928
 10
29.915442409
 20
-39.4218981922
 10
29.9228411926
 20
-39.3882964259
 10
29.9321187272
 20
-39.3543308535
 10
29.9432230614
 20
-39.3201916716
 10
29.9560920144
 20
-39.2860700493
 10
29.9706535239
 20
-39.252157057
 10
29.98682605
 20
-39.2186425972
 10
30.0045190316
 20
-39.1857143403
 10
30.0236333933
 20
-39.1535566747
 10
30.0440621007
 20
-39.1223496731
 10
30.0656907593
 20
-39.0922680854
 10
30.0883982553
 20
-39.0634803591
 10
30.1120574336
 20
-39.0361476965
 10
30.1365358102
 20
-39.0104231522
 10
30.1616963137
 20
-38.9864507758
 10
30.1873980529
 20
-38.9643648051
 10
30.2134971062
 20
-38.9442889148
 10
30.2398473268
 20
-38.9263355237
  0
LWPOLYLINE
  5
422
100
AcDbEntity
  8
RACCORDO
100
AcDbPolyline
 62
250
  6
CONTINUOUS
 90
22
 70
0
 10
29.905301146
 20
-39.5489565624
 10
29.9048789388
 20
-39.5186555493
 10
29.9064360657
 20
-39.487260759
 10
29.9099638072
 20
-39.4549479928
 10
29.915442409
 20
-39.4218981922
 10
29.9228411926
 20
-39.3882964259
 10
29.9321187272
 20
-39.3543308535
 10
29.9432230614
 20
-39.3201916716
 10
29.9560920144
 20
-39.2860700493
 10
29.9706535239
 20
-39.252157057
 10
29.98682605
 20
-39.2186425972
 10
30.0045190316
 20
-39.1857143403
 10
30.0236333933
 20
-39.1535566747
 10
30.0440621007
 20
-39.1223496731
 10
30.0656907593
 20
-39.0922680854
 10
30.0883982553
 20
-39.0634803591
 10
30.1120574336
 20
-39.0361476965
 10
30.1365358102
 20
-39.0104231522
 10
30.1616963137
 20
-38.9864507758
 10
30.1873980529
 20
-38.9643648051
 10
30.2134971062
 20
-38.9442889148
 10
30.2398473268
 20
-38.9263355237
  0
LWPOLYLINE
  5
423
100
AcDbEntity
  8
ASSI
100
AcDbPolyline
 62
250
  6
CONTINUOUS
 90
13
 70
0
 10
29.905301146
 20
-1.7177360256
 10
29.904878939
 20
-1.7485246035
 10
29.9064360673
 20
-1.7781212711
 10
29.9099638113
 20
-1.8063602963
 10
29.9154424163
 20
-1.8330835493
 10
29.9228412037
 20
-1.8581413882
 10
29.9321187423
 20
-1.881393497
 10
29.9432230804
 20
-1.9027096713
 10
29.9560920371
 20
-1.9219705473
 10
29.9706535499
 20
-1.9390682702
 10
29.9868260787
 20
-1.9539070984
 10
30.0045190622
 20
-1.9664039392
 10
30.0083388019
 20
-1.968677861
  0
LWPOLYLINE
  5
424
100
AcDbEntity
  8
RACCORDO
100
AcDbPolyline
 62
250
  6
CONTINUOUS
 90
13
 70
0
 10
29.905301146
 20
-1.7177360256
 10
29.904878939
 20
-1.7485246035
 10
29.9064360673
 20
-1.7781212711
 10
29.9099638113
 20
-1.8063602963
 10
29.9154424163
 20
-1.8330835493
 10
29.9228412037
 20
-1.8581413882
 10
29.9321187423
 20
-1.881393497
 10
29.9432230804
 20
-1.9027096713
 10
29.9560920371
 20
-1.9219705473
 10
29.9706535499
 20
-1.9390682702
 10
29.9868260787
 20
-1.9539070984
 10
30.0045190622
 20
-1.9664039392
 10
30.0083388019
 20
-1.968677861
  0
LWPOLYLINE
  5
425
100
AcDbEntity
  8
ASSI
100
AcDbPolyline
 62
7
  6
CONTINUOUS
 90
13
 70
0
 10
30.63292499
 20
-3.1314858947
 10
30.5259160764
 20
-6.1189330477
 10
30.4361959138
 20
-9.1620891756
 10
30.3664020179
 20
-12.1933007462
 10
30.3165410517
 20
-15.2123431675
 10
30.2866158242
 20
-18.2190198799
 10
30.2766282877
 20
-21.2131452791
 10
30.2865800433
 20
-24.1945260498
 10
30.3164705786
 20
-27.1629701362
 10
30.3662990109
 20
-30.1182936575
 10
30.4360636302
 20
-33.0603031196
 10
30.5257588745
 20
-35.9887819771
 10
30.6329657806
 20
-38.8447462732
  0
LWPOLYLINE
  5
426
100
AcDbEntity
  8
RACCORDO
100
AcDbPolyline
 62
7
  6
CONTINUOUS
 90
13
 70
0
 10
30.63292499
 20
-3.1314858947
 10
30.5259160764
 20
-6.1189330477
 10
30.4361959138
 20
-9.1620891756
 10
30.3664020179
 20
-12.1933007462
 10
30.3165410517
 20
-15.2123431675
 10
30.2866158242
 20
-18.2190198799
 10
30.2766282877
 20
-21.2131452791
 10
30.2865800433
 20
-24.1945260498
 10
30.3164705786
 20
-27.1629701362
 10
30.3662990109
 20
-30.1182936575
 10
30.4360636302
 20
-33.0603031196
 10
30.5257588745
 20
-35.9887819771
 10
30.6329657806
 20
-38.8447462732
  0
LWPOLYLINE
  5
427
100
AcDbEntity
  8
ASSI
100
AcDbPolyline
 62
250
  6
CONTINUOUS
 90
13
 70
0
 10
30.7794108336
 20
-3.3349942611
 10
30.6705457319
 20
-6.3790893268
 10
30.5814640789
 20
-9.411476367
 10
30.5121720501
 20
-12.4319564495
 10
30.4626745563
 20
-15.4403314865
 10
30.4329749236
 20
-18.436403935
 10
30.423074889
 20
-21.4199768118
 10
30.4329749231
 20
-24.3908541007
 10
30.4626745554
 20
-27.3488408273
 10
30.5121720489
 20
-30.293742762
 10
30.5814640777
 20
-33.2253664516
 10
30.670545731
 20
-36.1435192302
 10
30.7794108336
 20
-39.0480092964
  0
LWPOLYLINE
  5
428
100
AcDbEntity
  8
RACCORDO
100
AcDbPolyline
 62
250
  6
CONTINUOUS
 90
13
 70
0
 10
30.7794108336
 20
-3.3349942611
 10
30.6705457319
 20
-6.3790893268
 10
30.5814640789
 20
-9.411476367
 10
30.5121720501
 20
-12.4319564495
 10
30.4626745563
 20
-15.4403314865
 10
30.4329749236
 20
-18.436403935
 10
30.423074889
 20
-21.4199768118
 10
30.4329749231
 20
-24.3908541007
 10
30.4626745554
 20
-27.3488408273
 10
30.5121720489
 20
-30.293742762
 10
30.5814640777
 20
-33.2253664516
 10
30.670545731
 20
-36.1435192302
 10
30.7794108336
 20
-39.0480092964
  0
LWPOLYLINE
  5
429
100
AcDbEntity
  8
ASSI
100
AcDbPolyline
 62
7
  6
CONTINUOUS
 90
9
 70
0
 10
2.375544889
 20
-26.9388348634
 10
2.3596053499
 20
-26.9452139934
 10
2.3519053099
 20
-26.9481025457
 10
2.3442052168
 20
-26.9505586672
 10
2.3365796932
 20
-26.9527406477
 10
2.328953997
 20
-26.9544902773
 10
2.3209460086
 20
-26.9551375061
 10
2.3124282653
 20
-26.9544590437
 10
2.3035280305
 20
-26.9526783139
  0
LWPOLYLINE
  5
42A
100
AcDbEntity
  8
0
100
AcDbPolyline
 62
7
  6
CONTINUOUS
 90
9
 70
0
 10
2.375544889
 20
-26.9388348634
 10
2.3596053499
 20
-26.9452139934
 10
2.3519053099
 20
-26.9481025457
 10
2.3442052168
 20
-26.9505586672
 10
2.3365796932
 20
-26.9527406477
 10
2.328953997
 20
-26.9544902773
 10
2.3209460086
 20
-26.9551375061
 10
2.3124282653
 20
-26.9544590437
 10
2.3035280305
 20
-26.9526783139
  0
LWPOLYLINE
  5
42B
100
AcDbEntity
  8
ASSI
100
AcDbPolyline
 62
250
  6
CONTINUOUS
 90
19
 70
0
 10
50.9720555839
 20
5.038146986
 10
50.9906520372
 20
5.0278906516
 10
51.010602419
 20
5.0182563162
 10
51.0317646909
 20
5.0093125721
 10
51.0539881862
 20
5.0011230951
 10
51.0771146828
 20
4.993746191
 10
51.1009795295
 20
4.9872343802
 10
51.1254128184
 20
4.9816340241
 10
51.1502405946
 20
4.9769849949
 10
51.1752860944
 20
4.9733203918
 10
51.2003710041
 20
4.9706663053
 10
51.2253167297
 20
4.9690416314
 10
51.2499456677
 20
4.968457937
 10
51.2740824702
 20
4.9689193778
 10
51.2975552931
 20
4.9704226685
 10
51.3201970196
 20
4.9729571063
 10
51.3418464499
 20
4.9765046471
 10
51.3623494489
 20
4.9810400337
 10
51.3815600436
 20
4.9865309762
  0
LWPOLYLINE
  5
42C
100
AcDbEntity
  8
RACCORDO
100
AcDbPolyline
 62
250
  6
CONTINUOUS
 90
19
 70
0
 10
50.9720555839
 20
5.038146986
 10
50.9906520372
 20
5.0278906516
 10
51.010602419
 20
5.0182563162
 10
51.0317646909
 20
5.0093125721
 10
51.0539881862
 20
5.0011230951
 10
51.0771146828
 20
4.993746191
 10
51.1009795295
 20
4.9872343802
 10
51.1254128184
 20
4.9816340241
 10
51.1502405946
 20
4.9769849949
 10
51.1752860944
 20
4.9733203918
 10
51.2003710041
 20
4.9706663053
 10
51.2253167297
 20
4.9690416314
 10
51.2499456677
 20
4.968457937
 10
51.2740824702
 20
4.9689193778
 10
51.2975552931
 20
4.9704226685
 10
51.3201970196
 20
4.9729571063
 10
51.3418464499
 20
4.9765046471
 10
51.3623494489
 20
4.9810400337
 10
51.3815600436
 20
4.9865309762
  0
LINE
  5
42D
100
AcDbEntity
  8
ASSI
100
AcDbLine
 62
250
  6
CONTINUOUS
 10
50.5737245321
 20
5.9507364948
 11
-50.0167064599
 21
64.0303906554
  0
LINE
  5
42E
100
AcDbEntity
  8
RACCORDO
100
AcDbLine
 62
250
  6
CONTINUOUS
 10
50.5737245321
 20
5.9507364948
 11
-50.0167064599
 21
64.0303906554
  0
LINE
  5
42F
100
AcDbEntity
  8
ASSI
100
AcDbLine
 62
250
  6
CONTINUOUS
 10
50.7712290385
 20
6.2649086891
 11
-49.8192019535
 21
64.3445628497
  0
LINE
  5
430
100
AcDbEntity
  8
RACCORDO
100
AcDbLine
 62
250
  6
CONTINUOUS
 10
50.7712290385
 20
6.2649086891
 11
-49.8192019535
 21
64.3445628497
  0
LWPOLYLINE
  5
431
100
AcDbEntity
  8
ASSI
100
AcDbPolyline
 62
250
  6
CONTINUOUS
 90
12
 70
0
 10
-50.5974267144
 20
63.683093105
 10
-50.614595697
 20
63.6934869717
 10
-50.6301560484
 20
63.7043558107
 10
-50.6439969827
 20
63.7156222387
 10
-50.6560199558
 20
63.7272060412
 10
-50.6661393669
 20
63.7390247445
 10
-50.6742831684
 20
63.7509942023
 10
-50.6803933784
 20
63.7630291948
 10
-50.6844264936
 20
63.7750440359
 10
-50.6863537993
 20
63.7869531828
 10
-50.6861615734
 20
63.7986718453
 10
-50.6859574879
 20
63.8003514105
  0
LWPOLYLINE
  5
432
100
AcDbEntity
  8
RACCORDO
100
AcDbPolyline
 62
250
  6
CONTINUOUS
 90
12
 70
0
 10
-50.5974267144
 20
63.683093105
 10
-50.614595697
 20
63.6934869717
 10
-50.6301560484
 20
63.7043558107
 10
-50.6439969827
 20
63.7156222387
 10
-50.6560199558
 20
63.7272060412
 10
-50.6661393669
 20
63.7390247445
 10
-50.6742831684
 20
63.7509942023
 10
-50.6803933784
 20
63.7630291948
 10
-50.6844264936
 20
63.7750440359
 10
-50.6863537993
 20
63.7869531828
 10
-50.6861615734
 20
63.7986718453
 10
-50.6859574879
 20
63.8003514105
  0
LINE
  5
433
100
AcDbEntity
  8
ASSI
100
AcDbLine
 62
250
  6
CONTINUOUS
 10
30.5759807406
 20
-2.4787768542
 11
30.5941884722
 21
-2.516492103
  0
LINE
  5
434
100
AcDbEntity
  8
RACCORDO
100
AcDbLine
 62
250
  6
CONTINUOUS
 10
30.5759807406
 20
-2.4787768542
 11
30.5941884722
 21
-2.516492103
  0
LINE
  5
435
100
AcDbEntity
  8
ASSI
100
AcDbLine
 62
250
  6
CONTINUOUS
 10
30.5941884722
 20
-2.516492103
 11
30.6119530545
 21
-2.5550479537
  0
LINE
  5
436
100
AcDbEntity
  8
RACCORDO
100
AcDbLine
 62
250
  6
CONTINUOUS
 10
30.5941884722
 20
-2.516492103
 11
30.6119530545
 21
-2.5550479537
  0
LWPOLYLINE
  5
437
100
AcDbEntity
  8
ASSI
100
AcDbPolyline
 62
7
  6
CONTINUOUS
 90
14
 70
0
 10
30.5088181604
 20
-2.5762964033
 10
30.5204667556
 20
-2.6029094382
 10
30.5413611239
 20
-2.6542621525
 10
30.560133936
 20
-2.705413054
 10
30.5767442053
 20
-2.7560915246
 10
30.591168493
 20
-2.8060230888
 10
30.6034113399
 20
-2.8549701862
 10
30.6134870914
 20
-2.90266788
 10
30.6214221909
 20
-2.9487931825
 10
30.6272862032
 20
-2.993129577
 10
30.6311645583
 20
-3.0354456704
 10
30.6331627332
 20
-3.0754035351
 10
30.6334281226
 20
-3.1127792892
 10
30.6329265347
 20
-3.1314303171
  0
LWPOLYLINE
  5
438
100
AcDbEntity
  8
RACCORDO
100
AcDbPolyline
 62
7
  6
CONTINUOUS
 90
14
 70
0
 10
30.5088181604
 20
-2.5762964033
 10
30.5204667556
 20
-2.6029094382
 10
30.5413611239
 20
-2.6542621525
 10
30.560133936
 20
-2.705413054
 10
30.5767442053
 20
-2.7560915246
 10
30.591168493
 20
-2.8060230888
 10
30.6034113399
 20
-2.8549701862
 10
30.6134870914
 20
-2.90266788
 10
30.6214221909
 20
-2.9487931825
 10
30.6272862032
 20
-2.993129577
 10
30.6311645583
 20
-3.0354456704
 10
30.6331627332
 20
-3.0754035351
 10
30.6334281226
 20
-3.1127792892
 10
30.6329265347
 20
-3.1314303171
  0
LWPOLYLINE
  5
439
100
AcDbEntity
  8
ASSI
100
AcDbPolyline
 62
250
  6
CONTINUOUS
 90
13
 70
0
 10
30.6119530545
 20
-2.5550479537
 10
30.6398730912
 20
-2.6200998302
 10
30.6654126524
 20
-2.6857625887
 10
30.6885723887
 20
-2.7520358904
 10
30.709479485
 20
-2.8193108402
 10
30.7280082122
 20
-2.8871955749
 10
30.7437795393
 20
-2.9545154646
 10
30.7566800594
 20
-3.0212204876
 10
30.7668239649
 20
-3.0873602546
 10
30.7741728972
 20
-3.1519099625
 10
30.7787139062
 20
-3.2145280947
 10
30.7804598808
 20
-3.2755561969
 10
30.7794108336
 20
-3.3349942611
  0
LWPOLYLINE
  5
43A
100
AcDbEntity
  8
RACCORDO
100
AcDbPolyline
 62
250
  6
CONTINUOUS
 90
13
 70
0
 10
30.6119530545
 20
-2.5550479537
 10
30.6398730912
 20
-2.6200998302
 10
30.6654126524
 20
-2.6857625887
 10
30.6885723887
 20
-2.7520358904
 10
30.709479485
 20
-2.8193108402
 10
30.7280082122
 20
-2.8871955749
 10
30.7437795393
 20
-2.9545154646
 10
30.7566800594
 20
-3.0212204876
 10
30.7668239649
 20
-3.0873602546
 10
30.7741728972
 20
-3.1519099625
 10
30.7787139062
 20
-3.2145280947
 10
30.7804598808
 20
-3.2755561969
 10
30.7794108336
 20
-3.3349942611
  0
LWPOLYLINE
  5
43B
100
AcDbEntity
  8
ASSI
100
AcDbPolyline
 62
250
  6
CONTINUOUS
 90
16
 70
0
 10
-49.8192019535
 20
64.3445628497
 10
-49.8607772631
 20
64.366267047
 10
-49.9024417753
 20
64.3849800281
 10
-49.9440546603
 20
64.4006463198
 10
-49.9854499624
 20
64.4132119426
 10
-50.0265189694
 20
64.4226520926
 10
-50.0672056214
 20
64.4289519617
 10
-50.1074166031
 20
64.4320762898
 10
-50.1469716291
 20
64.431994043
 10
-50.185686348
 20
64.4287029921
 10
-50.223422444
 20
64.4222072593
 10
-50.2600737932
 20
64.4125223597
 10
-50.2955124975
 20
64.3996838072
 10
-50.3296314676
 20
64.3837175858
 10
-50.3623165992
 20
64.3646664409
 10
-50.3771332866
 20
64.3546749557
  0
LWPOLYLINE
  5
43C
100
AcDbEntity
  8
RACCORDO
100
AcDbPolyline
 62
250
  6
CONTINUOUS
 90
16
 70
0
 10
-49.8192019535
 20
64.3445628497
 10
-49.8607772631
 20
64.366267047
 10
-49.9024417753
 20
64.3849800281
 10
-49.9440546603
 20
64.4006463198
 10
-49.9854499624
 20
64.4132119426
 10
-50.0265189694
 20
64.4226520926
 10
-50.0672056214
 20
64.4289519617
 10
-50.1074166031
 20
64.4320762898
 10
-50.1469716291
 20
64.431994043
 10
-50.185686348
 20
64.4287029921
 10
-50.223422444
 20
64.4222072593
 10
-50.2600737932
 20
64.4125223597
 10
-50.2955124975
 20
64.3996838072
 10
-50.3296314676
 20
64.3837175858
 10
-50.3623165992
 20
64.3646664409
 10
-50.3771332866
 20
64.3546749557
  0
LWPOLYLINE
  5
43D
100
AcDbEntity
  8
ASSI
100
AcDbPolyline
 62
250
  6
CONTINUOUS
 90
28
 70
0
 10
-50.0167064599
 20
64.0303906554
 10
-50.0455213121
 20
64.04586305
 10
-50.0743410209
 20
64.0591022738
 10
-50.1031654816
 20
64.0701083647
 10
-50.1320783094
 20
64.0789055457
 10
-50.1609954709
 20
64.0854697464
 10
-50.1896652948
 20
64.089728599
 10
-50.2181077615
 20
64.0916634318
 10
-50.2463020887
 20
64.0912932091
 10
-50.2739354126
 20
64.0886020346
 10
-50.3009893134
 20
64.0835654535
 10
-50.3274811256
 20
64.0762083173
 10
-50.3531516364
 20
64.0665886828
 10
-50.3779965018
 20
64.0546848578
 10
-50.4020188092
 20
64.0405189949
 10
-50.4249705944
 20
64.0242148819
 10
-50.4468429566
 20
64.0057491772
 10
-50.4676435155
 20
63.9851456934
 10
-50.4871492862
 20
63.962598877
 10
-50.5053471207
 20
63.938086225
 10
-50.5222490202
 20
63.911630664
 10
-50.5376700234
 20
63.8834946757
 10
-50.5515957393
 20
63.8536483753
 10
-50.5640396893
 20
63.8221219709
 10
-50.5748591832
 20
63.7892679363
 10
-50.5840066173
 20
63.7552037789
 10
-50.5915292165
 20
63.719812135
 10
-50.5974267624
 20
63.6830930873
  0
LWPOLYLINE
  5
43E
100
AcDbEntity
  8
RACCORDO
100
AcDbPolyline
 62
250
  6
CONTINUOUS
 90
28
 70
0
 10
-50.0167064599
 20
64.0303906554
 10
-50.0455213121
 20
64.04586305
 10
-50.0743410209
 20
64.0591022738
 10
-50.1031654816
 20
64.0701083647
 10
-50.1320783094
 20
64.0789055457
 10
-50.1609954709
 20
64.0854697464
 10
-50.1896652948
 20
64.089728599
 10
-50.2181077615
 20
64.0916634318
 10
-50.2463020887
 20
64.0912932091
 10
-50.2739354126
 20
64.0886020346
 10
-50.3009893134
 20
64.0835654535
 10
-50.3274811256
 20
64.0762083173
 10
-50.3531516364
 20
64.0665886828
 10
-50.3779965018
 20
64.0546848578
 10
-50.4020188092
 20
64.0405189949
 10
-50.4249705944
 20
64.0242148819
 10
-50.4468429566
 20
64.0057491772
 10
-50.4676435155
 20
63.9851456934
 10
-50.4871492862
 20
63.962598877
 10
-50.5053471207
 20
63.938086225
 10
-50.5222490202
 20
63.911630664
 10
-50.5376700234
 20
63.8834946757
 10
-50.5515957393
 20
63.8536483753
 10
-50.5640396893
 20
63.8221219709
 10
-50.5748591832
 20
63.7892679363
 10
-50.5840066173
 20
63.7552037789
 10
-50.5915292165
 20
63.719812135
 10
-50.5974267624
 20
63.6830930873
  0
LINE
  5
43F
100
AcDbEntity
  8
ASSI
100
AcDbLine
 62
7
  6
CONTINUOUS
 10
-48.2441228777
 20
65.4551729283
 11
52.5205315719
 21
7.2749243268
  0
LINE
  5
440
100
AcDbEntity
  8
RACCORDO
100
AcDbLine
 62
7
  6
CONTINUOUS
 10
-48.2441228777
 20
65.4551729283
 11
52.5205315719
 21
7.2749243268
  0
LINE
  5
441
100
AcDbEntity
  8
ASSI
100
AcDbLine
 62
7
  6
CONTINUOUS
 10
-45.624790599
 20
65.0044356174
 11
53.8609973648
 21
7.5625884858
  0
LINE
  5
442
100
AcDbEntity
  8
RACCORDO
100
AcDbLine
 62
7
  6
CONTINUOUS
 10
-45.624790599
 20
65.0044356174
 11
53.8609973648
 21
7.5625884858
  0
LWPOLYLINE
  5
443
100
AcDbEntity
  8
ASSI
100
AcDbPolyline
 62
7
  6
CONTINUOUS
 90
22
 70
0
 10
53.8609973648
 20
7.5625884858
 10
53.8853664744
 20
7.5474248198
 10
53.9086680626
 20
7.5312747661
 10
53.9309021293
 20
7.5141383247
 10
53.9520314623
 20
7.4959905539
 10
53.9720932739
 20
7.4768563954
 10
53.9911992011
 20
7.4568106742
 10
54.0093789627
 20
7.4358970395
 10
54.02660284
 20
7.4140718421
 10
54.0428933136
 20
7.3912789597
 10
54.0583349205
 20
7.3674281801
 10
54.0728431236
 20
7.3426097155
 10
54.0861867925
 20
7.3170380807
 10
54.0983720235
 20
7.2906172003
 10
54.1093927203
 20
7.2634431496
 10
54.1189994636
 20
7.2360186701
 10
54.1271291118
 20
7.2084413341
 10
54.1338448066
 20
7.1806135692
 10
54.1390865536
 20
7.1527454002
 10
54.1428343547
 20
7.1249068354
 10
54.1451082079
 20
7.0970278664
 10
54.1459081134
 20
7.0691084934
  0
LWPOLYLINE
  5
444
100
AcDbEntity
  8
RACCORDO
100
AcDbPolyline
 62
7
  6
CONTINUOUS
 90
22
 70
0
 10
53.8609973648
 20
7.5625884858
 10
53.8853664744
 20
7.5474248198
 10
53.9086680626
 20
7.5312747661
 10
53.9309021293
 20
7.5141383247
 10
53.9520314623
 20
7.4959905539
 10
53.9720932739
 20
7.4768563954
 10
53.9911992011
 20
7.4568106742
 10
54.0093789627
 20
7.4358970395
 10
54.02660284
 20
7.4140718421
 10
54.0428933136
 20
7.3912789597
 10
54.0583349205
 20
7.3674281801
 10
54.0728431236
 20
7.3426097155
 10
54.0861867925
 20
7.3170380807
 10
54.0983720235
 20
7.2906172003
 10
54.1093927203
 20
7.2634431496
 10
54.1189994636
 20
7.2360186701
 10
54.1271291118
 20
7.2084413341
 10
54.1338448066
 20
7.1806135692
 10
54.1390865536
 20
7.1527454002
 10
54.1428343547
 20
7.1249068354
 10
54.1451082079
 20
7.0970278664
 10
54.1459081134
 20
7.0691084934
  0
LWPOLYLINE
  5
445
100
AcDbEntity
  8
ASSI
100
AcDbPolyline
 62
250
  6
CONTINUOUS
 90
8
 70
0
 10
50.5737245321
 20
-66.9301478421
 10
50.57797657
 20
-66.9489393296
 10
50.5838483049
 20
-66.966274812
 10
50.5912932096
 20
-66.9820168796
 10
50.6002522876
 20
-66.9960407504
 10
50.6106545401
 20
-67.0082352591
 10
50.6224175277
 20
-67.0185037378
 10
50.6322650756
 20
-67.0250005825
  0
LWPOLYLINE
  5
446
100
AcDbEntity
  8
RACCORDO
100
AcDbPolyline
 62
250
  6
CONTINUOUS
 90
8
 70
0
 10
50.5737245321
 20
-66.9301478421
 10
50.57797657
 20
-66.9489393296
 10
50.5838483049
 20
-66.966274812
 10
50.5912932096
 20
-66.9820168796
 10
50.6002522876
 20
-66.9960407504
 10
50.6106545401
 20
-67.0082352591
 10
50.6224175277
 20
-67.0185037378
 10
50.6322650756
 20
-67.0250005825
  0
LINE
  5
447
100
AcDbEntity
  8
ASSI
100
AcDbLine
 62
7
  6
CONTINUOUS
 10
30.6170254516
 20
-38.9871634737
 11
30.6157246777
 21
-38.9899738907
  0
LINE
  5
448
100
AcDbEntity
  8
RACCORDO
100
AcDbLine
 62
7
  6
CONTINUOUS
 10
30.6170254516
 20
-38.9871634737
 11
30.6157246777
 21
-38.9899738907
  0
LWPOLYLINE
  5
449
100
AcDbEntity
  8
ASSI
100
AcDbPolyline
 62
7
  6
CONTINUOUS
 90
4
 70
0
 10
-45.6796182406
 20
65.031191205
 10
-45.6715779095
 20
65.0279008677
 10
-45.6485702728
 20
65.0172420816
 10
-45.624790599
 20
65.0044356174
  0
LWPOLYLINE
  5
44A
100
AcDbEntity
  8
RACCORDO
100
AcDbPolyline
 62
7
  6
CONTINUOUS
 90
4
 70
0
 10
-45.6796182406
 20
65.031191205
 10
-45.6715779095
 20
65.0279008677
 10
-45.6485702728
 20
65.0172420816
 10
-45.624790599
 20
65.0044356174
  0
LWPOLYLINE
  5
44B
100
AcDbEntity
  8
ASSI
100
AcDbPolyline
 62
250
  6
CONTINUOUS
 90
10
 70
0
 10
50.9720555408
 20
-66.6881595662
 10
50.6705214167
 20
-64.930929996
 10
50.3938081876
 20
-63.1562973651
 10
50.1419687408
 20
-61.3646185007
 10
49.9150495452
 20
-59.5562558459
 10
49.7130954968
 20
-57.7315713405
 10
49.5361503287
 20
-55.8909260501
 10
49.3842499352
 20
-54.0346883044
 10
49.2574219464
 20
-52.1632339201
 10
49.1556908704
 20
-50.2769398706
  0
LWPOLYLINE
  5
44C
100
AcDbEntity
  8
RACCORDO
100
AcDbPolyline
 62
250
  6
CONTINUOUS
 90
10
 70
0
 10
50.9720555408
 20
-66.6881595662
 10
50.6705214167
 20
-64.930929996
 10
50.3938081876
 20
-63.1562973651
 10
50.1419687408
 20
-61.3646185007
 10
49.9150495452
 20
-59.5562558459
 10
49.7130954968
 20
-57.7315713405
 10
49.5361503287
 20
-55.8909260501
 10
49.3842499352
 20
-54.0346883044
 10
49.2574219464
 20
-52.1632339201
 10
49.1556908704
 20
-50.2769398706
  0
LWPOLYLINE
  5
44D
100
AcDbEntity
  8
ASSI
100
AcDbPolyline
 62
250
  6
CONTINUOUS
 90
10
 70
0
 10
51.3815647608
 20
-66.6529076456
 10
51.0804695438
 20
-64.8982530666
 10
50.8042484765
 20
-63.126930497
 10
50.5529015589
 20
-61.3389399368
 10
50.3263873917
 20
-59.5339081873
 10
50.1247473742
 20
-57.7122084473
 10
49.9481057045
 20
-55.8749603125
 10
49.7965037821
 20
-54.0225369818
 10
49.6699002076
 20
-52.1545652565
 10
49.5682949809
 20
-50.2710451364
  0
LWPOLYLINE
  5
44E
100
AcDbEntity
  8
RACCORDO
100
AcDbPolyline
 62
250
  6
CONTINUOUS
 90
10
 70
0
 10
51.3815647608
 20
-66.6529076456
 10
51.0804695438
 20
-64.8982530666
 10
50.8042484765
 20
-63.126930497
 10
50.5529015589
 20
-61.3389399368
 10
50.3263873917
 20
-59.5339081873
 10
50.1247473742
 20
-57.7122084473
 10
49.9481057045
 20
-55.8749603125
 10
49.7965037821
 20
-54.0225369818
 10
49.6699002076
 20
-52.1545652565
 10
49.5682949809
 20
-50.2710451364
  0
LWPOLYLINE
  5
44F
100
AcDbEntity
  8
ASSI
100
AcDbPolyline
 62
250
  6
CONTINUOUS
 90
13
 70
0
 10
49.1556909423
 20
-50.276939912
 10
49.0258258419
 20
-47.2621661465
 10
48.9195548641
 20
-44.2339226031
 10
48.836887658
 20
-41.1924210931
 10
48.7778315185
 20
-38.1378360494
 10
48.742394267
 20
-35.070419384
 10
48.7305814423
 20
-31.9905021353
 10
48.7423942606
 20
-28.8983017992
 10
48.7778315075
 20
-25.7940363352
 10
48.8368876443
 20
-22.6780417682
 10
48.9195548494
 20
-19.5505785727
 10
49.0258258282
 20
-16.411830075
 10
49.1556909319
 20
-13.2620192288
  0
LWPOLYLINE
  5
450
100
AcDbEntity
  8
RACCORDO
100
AcDbPolyline
 62
250
  6
CONTINUOUS
 90
13
 70
0
 10
49.1556909423
 20
-50.276939912
 10
49.0258258419
 20
-47.2621661465
 10
48.9195548641
 20
-44.2339226031
 10
48.836887658
 20
-41.1924210931
 10
48.7778315185
 20
-38.1378360494
 10
48.742394267
 20
-35.070419384
 10
48.7305814423
 20
-31.9905021353
 10
48.7423942606
 20
-28.8983017992
 10
48.7778315075
 20
-25.7940363352
 10
48.8368876443
 20
-22.6780417682
 10
48.9195548494
 20
-19.5505785727
 10
49.0258258282
 20
-16.411830075
 10
49.1556909319
 20
-13.2620192288
  0
LWPOLYLINE
  5
451
100
AcDbEntity
  8
ASSI
100
AcDbPolyline
 62
250
  6
CONTINUOUS
 90
13
 70
0
 10
49.5682949809
 20
-50.2710451364
 10
49.4384978809
 20
-47.257909059
 10
49.3322967994
 20
-44.2317406469
 10
49.2496917365
 20
-41.1925399001
 10
49.1906784693
 20
-38.1400539615
 10
49.1552612206
 20
-35.0745356883
 10
49.1434526586
 20
-31.9967436524
 10
49.1552612307
 20
-28.90667339
 10
49.1906784895
 20
-25.804329365
 10
49.2496917613
 20
-22.6904835406
 10
49.3322968215
 20
-19.5653932381
 10
49.4384978947
 20
-16.4288011363
 10
49.5682949809
 20
-13.2807072352
  0
LWPOLYLINE
  5
452
100
AcDbEntity
  8
RACCORDO
100
AcDbPolyline
 62
250
  6
CONTINUOUS
 90
13
 70
0
 10
49.5682949809
 20
-50.2710451364
 10
49.4384978809
 20
-47.257909059
 10
49.3322967994
 20
-44.2317406469
 10
49.2496917365
 20
-41.1925399001
 10
49.1906784693
 20
-38.1400539615
 10
49.1552612206
 20
-35.0745356883
 10
49.1434526586
 20
-31.9967436524
 10
49.1552612307
 20
-28.90667339
 10
49.1906784895
 20
-25.804329365
 10
49.2496917613
 20
-22.6904835406
 10
49.3322968215
 20
-19.5653932381
 10
49.4384978947
 20
-16.4288011363
 10
49.5682949809
 20
-13.2807072352
  0
LWPOLYLINE
  5
453
100
AcDbEntity
  8
ASSI
100
AcDbPolyline
 62
250
  6
CONTINUOUS
 90
10
 70
0
 10
49.1556908597
 20
-13.2620191871
 10
49.2574219456
 20
-11.2699343489
 10
49.3842499414
 20
-9.2665829423
 10
49.5361503349
 20
-7.2523702442
 10
49.7130954838
 20
-5.2277086986
 10
49.9150494961
 20
-3.1930033689
 10
50.1419686657
 20
-1.1486516639
 10
50.3938081132
 20
0.904937355
 10
50.6705213657
 20
2.9673428657
 10
50.9720555408
 20
5.03814697
  0
LWPOLYLINE
  5
454
100
AcDbEntity
  8
RACCORDO
100
AcDbPolyline
 62
250
  6
CONTINUOUS
 90
10
 70
0
 10
49.1556908597
 20
-13.2620191871
 10
49.2574219456
 20
-11.2699343489
 10
49.3842499414
 20
-9.2665829423
 10
49.5361503349
 20
-7.2523702442
 10
49.7130954838
 20
-5.2277086986
 10
49.9150494961
 20
-3.1930033689
 10
50.1419686657
 20
-1.1486516639
 10
50.3938081132
 20
0.904937355
 10
50.6705213657
 20
2.9673428657
 10
50.9720555408
 20
5.03814697
  0
LWPOLYLINE
  5
455
100
AcDbEntity
  8
ASSI
100
AcDbPolyline
 62
250
  6
CONTINUOUS
 90
10
 70
0
 10
49.5682949809
 20
-13.2807072352
 10
49.6699003865
 20
-11.2915387882
 10
49.7965041886
 20
-9.291926462
 10
49.9481063874
 20
-7.2818702564
 10
50.1247485068
 20
-5.2609531163
 10
50.3263890229
 20
-3.2295920968
 10
50.5529033635
 20
-1.1890383638
 10
50.8042500047
 20
0.8602910276
 10
51.0804704704
 20
2.9188131326
 10
51.3815647608
 20
4.9865279512
  0
LWPOLYLINE
  5
456
100
AcDbEntity
  8
RACCORDO
100
AcDbPolyline
 62
250
  6
CONTINUOUS
 90
10
 70
0
 10
49.5682949809
 20
-13.2807072352
 10
49.6699003865
 20
-11.2915387882
 10
49.7965041886
 20
-9.291926462
 10
49.9481063874
 20
-7.2818702564
 10
50.1247485068
 20
-5.2609531163
 10
50.3263890229
 20
-3.2295920968
 10
50.5529033635
 20
-1.1890383638
 10
50.8042500047
 20
0.8602910276
 10
51.0804704704
 20
2.9188131326
 10
51.3815647608
 20
4.9865279512
  0
LWPOLYLINE
  5
457
100
AcDbEntity
  8
ASSI
100
AcDbPolyline
 62
250
  6
CONTINUOUS
 90
28
 70
0
 10
50.9720555408
 20
5.03814697
 10
50.9767709983
 20
5.0755783407
 10
50.9797754042
 20
5.1135766763
 10
50.9810685225
 20
5.1521418876
 10
50.9806421431
 20
5.191401923
 10
50.9785040558
 20
5.231228675
 10
50.974677831
 20
5.2712378996
 10
50.9691420475
 20
5.3114522151
 10
50.961917303
 20
5.3518486969
 10
50.9530898099
 20
5.3919746451
 10
50.9426439116
 20
5.4318088974
 10
50.930594112
 20
5.4713721905
 10
50.9170715518
 20
5.5102745599
 10
50.902061517
 20
5.5485093292
 10
50.8855774478
 20
5.5860827066
 10
50.867792518
 20
5.6226239814
 10
50.8486943054
 20
5.6581211404
 10
50.8282939771
 20
5.6925857372
 10
50.8067999853
 20
5.725682373
 10
50.7842011004
 20
5.7573971776
 10
50.7605074625
 20
5.7877436233
 10
50.735959558
 20
5.8164273177
 10
50.7105435664
 20
5.8434344547
 10
50.6842725077
 20
5.8687785485
 10
50.6574271764
 20
5.8922062047
 10
50.6301010251
 20
5.9136329057
 10
50.6022001787
 20
5.9331430151
 10
50.5737245321
 20
5.9507364948
  0
LWPOLYLINE
  5
458
100
AcDbEntity
  8
RACCORDO
100
AcDbPolyline
 62
250
  6
CONTINUOUS
 90
28
 70
0
 10
50.9720555408
 20
5.03814697
 10
50.9767709983
 20
5.0755783407
 10
50.9797754042
 20
5.1135766763
 10
50.9810685225
 20
5.1521418876
 10
50.9806421431
 20
5.191401923
 10
50.9785040558
 20
5.231228675
 10
50.974677831
 20
5.2712378996
 10
50.9691420475
 20
5.3114522151
 10
50.961917303
 20
5.3518486969
 10
50.9530898099
 20
5.3919746451
 10
50.9426439116
 20
5.4318088974
 10
50.930594112
 20
5.4713721905
 10
50.9170715518
 20
5.5102745599
 10
50.902061517
 20
5.5485093292
 10
50.8855774478
 20
5.5860827066
 10
50.867792518
 20
5.6226239814
 10
50.8486943054
 20
5.6581211404
 10
50.8282939771
 20
5.6925857372
 10
50.8067999853
 20
5.725682373
 10
50.7842011004
 20
5.7573971776
 10
50.7605074625
 20
5.7877436233
 10
50.735959558
 20
5.8164273177
 10
50.7105435664
 20
5.8434344547
 10
50.6842725077
 20
5.8687785485
 10
50.6574271764
 20
5.8922062047
 10
50.6301010251
 20
5.9136329057
 10
50.6022001787
 20
5.9331430151
 10
50.5737245321
 20
5.9507364948
  0
LWPOLYLINE
  5
459
100
AcDbEntity
  8
ASSI
100
AcDbPolyline
 62
250
  6
CONTINUOUS
 90
16
 70
0
 10
50.5737245321
 20
5.9507364948
 10
50.5779766327
 20
5.9744384755
 10
50.583848467
 20
5.9985547933
 10
50.5912934943
 20
6.0228942998
 10
50.6002527046
 20
6.0472640778
 10
50.6106550863
 20
6.0714709701
 10
50.6224181891
 20
6.0953231107
 10
50.6354487776
 20
6.118631445
 10
50.6496435701
 20
6.141211229
 10
50.6648900572
 20
6.1628834932
 10
50.6810673939
 20
6.1834764611
 10
50.6980473571
 20
6.2028269109
 10
50.7156953618
 20
6.2207814691
 10
50.7338715284
 20
6.237197826
 10
50.7524317908
 20
6.2519458642
 10
50.7712290385
 20
6.2649086891
  0
LWPOLYLINE
  5
45A
100
AcDbEntity
  8
RACCORDO
100
AcDbPolyline
 62
250
  6
CONTINUOUS
 90
16
 70
0
 10
50.5737245321
 20
5.9507364948
 10
50.5779766327
 20
5.9744384755
 10
50.583848467
 20
5.9985547933
 10
50.5912934943
 20
6.0228942998
 10
50.6002527046
 20
6.0472640778
 10
50.6106550863
 20
6.0714709701
 10
50.6224181891
 20
6.0953231107
 10
50.6354487776
 20
6.118631445
 10
50.6496435701
 20
6.141211229
 10
50.6648900572
 20
6.1628834932
 10
50.6810673939
 20
6.1834764611
 10
50.6980473571
 20
6.2028269109
 10
50.7156953618
 20
6.2207814691
 10
50.7338715284
 20
6.237197826
 10
50.7524317908
 20
6.2519458642
 10
50.7712290385
 20
6.2649086891
  0
LWPOLYLINE
  5
45B
100
AcDbEntity
  8
ASSI
100
AcDbPolyline
 62
250
  6
CONTINUOUS
 90
16
 70
0
 10
30.6119530545
 20
-39.5700625314
 10
30.5785339226
 20
-39.5976789867
 10
30.5426801906
 20
-39.6212162916
 10
30.5043893765
 20
-39.6406760198
 10
30.4634984275
 20
-39.6561278599
 10
30.4201659617
 20
-39.667504939
 10
30.3748718552
 20
-39.6746040853
 10
30.3275507238
 20
-39.6773519677
 10
30.2782637291
 20
-39.6758246062
 10
30.2276802979
 20
-39.670043029
 10
30.1757600371
 20
-39.6599094033
 10
30.1225401033
 20
-39.6455236271
 10
30.0688063796
 20
-39.6272032404
 10
30.0148202481
 20
-39.6050544601
 10
29.9603186422
 20
-39.5789721455
 10
29.905301146
 20
-39.5489565624
  0
LWPOLYLINE
  5
45C
100
AcDbEntity
  8
RACCORDO
100
AcDbPolyline
 62
250
  6
CONTINUOUS
 90
16
 70
0
 10
30.6119530545
 20
-39.5700625314
 10
30.5785339226
 20
-39.5976789867
 10
30.5426801906
 20
-39.6212162916
 10
30.5043893765
 20
-39.6406760198
 10
30.4634984275
 20
-39.6561278599
 10
30.4201659617
 20
-39.667504939
 10
30.3748718552
 20
-39.6746040853
 10
30.3275507238
 20
-39.6773519677
 10
30.2782637291
 20
-39.6758246062
 10
30.2276802979
 20
-39.670043029
 10
30.1757600371
 20
-39.6599094033
 10
30.1225401033
 20
-39.6455236271
 10
30.0688063796
 20
-39.6272032404
 10
30.0148202481
 20
-39.6050544601
 10
29.9603186422
 20
-39.5789721455
 10
29.905301146
 20
-39.5489565624
  0
LINE
  5
45D
100
AcDbEntity
  8
ASSI
100
AcDbLine
 62
250
  6
CONTINUOUS
 10
30.2398744698
 20
-38.9263511957
 11
30.625813553
 21
-38.6542127773
  0
LINE
  5
45E
100
AcDbEntity
  8
0
100
AcDbLine
 62
250
  6
CONTINUOUS
 10
30.2398744698
 20
-38.9263511957
 11
30.625813553
 21
-38.6542127773
  0
LINE
  5
45F
100
AcDbEntity
  8
ASSI
100
AcDbLine
 62
250
  6
CONTINUOUS
 10
30.6196720611
 20
-38.9800929892
 11
30.5967885953
 21
-38.9915068875
  0
LINE
  5
460
100
AcDbEntity
  8
RACCORDO
100
AcDbLine
 62
250
  6
CONTINUOUS
 10
30.6196720611
 20
-38.9800929892
 11
30.5967885953
 21
-38.9915068875
  0
LINE
  5
461
100
AcDbEntity
  8
ASSI
100
AcDbLine
 62
250
  6
CONTINUOUS
 10
30.5967885953
 20
-38.9915068875
 11
30.5723985326
 21
-39.0003975154
  0
LINE
  5
462
100
AcDbEntity
  8
RACCORDO
100
AcDbLine
 62
250
  6
CONTINUOUS
 10
30.5967885953
 20
-38.9915068875
 11
30.5723985326
 21
-39.0003975154
  0
LINE
  5
463
100
AcDbEntity
  8
ASSI
100
AcDbLine
 62
7
  6
CONTINUOUS
 10
53.3647249063
 20
-31.2126779126
 11
53.7923547128
 21
-31.0598125944
  0
LINE
  5
464
100
AcDbEntity
  8
DRAFT
100
AcDbLine
 62
7
  6
CONTINUOUS
 10
53.3647249063
 20
-31.2126779126
 11
53.7923547128
 21
-31.0598125944
  0
LWPOLYLINE
  5
465
100
AcDbEntity
  8
ASSI
100
AcDbPolyline
 62
7
  6
CONTINUOUS
 90
8
 70
0
 10
-45.6796200718
 20
65.0312056171
 10
-45.7858303068
 20
65.0716880281
 10
-45.9829115422
 20
65.1398079863
 10
-46.176528872
 20
65.1977456718
 10
-46.3663037999
 20
65.2457114129
 10
-46.5518833872
 20
65.283965195
 10
-46.732951914
 20
65.3128082702
 10
-46.9091834697
 20
65.3325801412
  0
LWPOLYLINE
  5
466
100
AcDbEntity
  8
RACCORDO
100
AcDbPolyline
 62
7
  6
CONTINUOUS
 90
8
 70
0
 10
-45.6796200718
 20
65.0312056171
 10
-45.7858303068
 20
65.0716880281
 10
-45.9829115422
 20
65.1398079863
 10
-46.176528872
 20
65.1977456718
 10
-46.3663037999
 20
65.2457114129
 10
-46.5518833872
 20
65.283965195
 10
-46.732951914
 20
65.3128082702
 10
-46.9091834697
 20
65.3325801412
  0
LINE
  5
467
100
AcDbEntity
  8
ASSI
100
AcDbLine
 62
250
  6
CONTINUOUS
 10
-45.7219291907
 20
65.0415255045
 11
-45.6247907219
 21
65.0044356728
  0
LINE
  5
468
100
AcDbEntity
  8
RACCORDO
100
AcDbLine
 62
250
  6
CONTINUOUS
 10
-45.7219291907
 20
65.0415255045
 11
-45.6247907219
 21
65.0044356728
  0
LINE
  5
469
100
AcDbEntity
  8
ASSI
100
AcDbLine
 62
7
  6
CONTINUOUS
 10
53.2266692879
 20
-65.7997643191
 11
53.2266692879
 21
6.0518579269
  0
LINE
  5
46A
100
AcDbEntity
  8
RACCORDO
100
AcDbLine
 62
7
  6
CONTINUOUS
 10
53.2266692879
 20
-65.7997643191
 11
53.2266692879
 21
6.0518579269
  0
LINE
  5
46B
100
AcDbEntity
  8
ASSI
100
AcDbLine
 62
7
  6
CONTINUOUS
 10
53.3647249063
 20
-26.4427794619
 11
53.3647249063
 21
-32.1580713994
  0
LINE
  5
46C
100
AcDbEntity
  8
DRAFT
100
AcDbLine
 62
7
  6
CONTINUOUS
 10
53.3647249063
 20
-26.4427794619
 11
53.3647249063
 21
-32.1580713994
  0
LINE
  5
46D
100
AcDbEntity
  8
ASSI
100
AcDbLine
 62
7
  6
CONTINUOUS
 10
54.1459081134
 20
7.0691084934
 11
54.1459081034
 21
-24.9727949985
  0
LINE
  5
46E
100
AcDbEntity
  8
DRAFT
100
AcDbLine
 62
7
  6
CONTINUOUS
 10
54.1459081134
 20
7.0691084934
 11
54.1459081034
 21
-24.9727949985
  0
LINE
  5
46F
100
AcDbEntity
  8
ASSI
100
AcDbLine
 62
7
  6
CONTINUOUS
 10
54.1459081034
 20
-31.263949891
 11
54.1459081263
 21
-63.305853251
  0
LINE
  5
470
100
AcDbEntity
  8
DRAFT
100
AcDbLine
 62
7
  6
CONTINUOUS
 10
54.1459081034
 20
-31.263949891
 11
54.1459081263
 21
-63.305853251
  0
LWPOLYLINE
  5
471
100
AcDbEntity
  8
ASSI
100
AcDbPolyline
 62
7
  6
CONTINUOUS
 90
4
 70
0
 10
54.1459081263
 20
-63.305853251
 10
54.145108231
 20
-63.3328490306
 10
54.1428343757
 20
-63.3581022977
 10
54.1416668437
 20
-63.3666871459
  0
LWPOLYLINE
  5
472
100
AcDbEntity
  8
RACCORDO
100
AcDbPolyline
 62
7
  6
CONTINUOUS
 90
4
 70
0
 10
54.1459081263
 20
-63.305853251
 10
54.145108231
 20
-63.3328490306
 10
54.1428343757
 20
-63.3581022977
 10
54.1416668437
 20
-63.3666871459
  0
LWPOLYLINE
  5
473
100
AcDbEntity
  8
ASSI
100
AcDbPolyline
 62
250
  6
CONTINUOUS
 90
28
 70
0
 10
51.3815647608
 20
4.9865279512
 10
51.3852886021
 20
5.0380088381
 10
51.3865651908
 20
5.0906448697
 10
51.3854226842
 20
5.1442646745
 10
51.3819209619
 20
5.1986830409
 10
51.3760808507
 20
5.2537345354
 10
51.3678744331
 20
5.3092772158
 10
51.3573392586
 20
5.3651785692
 10
51.3445396093
 20
5.4212167221
 10
51.3294965128
 20
5.4771155624
 10
51.3122902119
 20
5.5326701666
 10
51.2930003236
 20
5.5877287821
 10
51.2716616815
 20
5.642096473
 10
51.2483629289
 20
5.6955987135
 10
51.2232049081
 20
5.7480666373
 10
51.1962468407
 20
5.7993178039
 10
51.1675923814
 20
5.8491845469
 10
51.1373535949
 20
5.8975133282
 10
51.1056067164
 20
5.9441481312
 10
51.0724603541
 20
5.9889414652
 10
51.0380404146
 20
6.0317476468
 10
51.0024525655
 20
6.0724207176
 10
50.9658212969
 20
6.110822708
 10
50.9282714278
 20
6.1468375935
 10
50.8899112414
 20
6.1803602079
 10
50.8508620532
 20
6.2112825677
 10
50.8112583896
 20
6.2394971518
 10
50.7712290385
 20
6.2649086891
  0
LWPOLYLINE
  5
474
100
AcDbEntity
  8
RACCORDO
100
AcDbPolyline
 62
250
  6
CONTINUOUS
 90
28
 70
0
 10
51.3815647608
 20
4.9865279512
 10
51.3852886021
 20
5.0380088381
 10
51.3865651908
 20
5.0906448697
 10
51.3854226842
 20
5.1442646745
 10
51.3819209619
 20
5.1986830409
 10
51.3760808507
 20
5.2537345354
 10
51.3678744331
 20
5.3092772158
 10
51.3573392586
 20
5.3651785692
 10
51.3445396093
 20
5.4212167221
 10
51.3294965128
 20
5.4771155624
 10
51.3122902119
 20
5.5326701666
 10
51.2930003236
 20
5.5877287821
 10
51.2716616815
 20
5.642096473
 10
51.2483629289
 20
5.6955987135
 10
51.2232049081
 20
5.7480666373
 10
51.1962468407
 20
5.7993178039
 10
51.1675923814
 20
5.8491845469
 10
51.1373535949
 20
5.8975133282
 10
51.1056067164
 20
5.9441481312
 10
51.0724603541
 20
5.9889414652
 10
51.0380404146
 20
6.0317476468
 10
51.0024525655
 20
6.0724207176
 10
50.9658212969
 20
6.110822708
 10
50.9282714278
 20
6.1468375935
 10
50.8899112414
 20
6.1803602079
 10
50.8508620532
 20
6.2112825677
 10
50.8112583896
 20
6.2394971518
 10
50.7712290385
 20
6.2649086891
  0
LINE
  5
475
100
AcDbEntity
  8
ASSI
100
AcDbLine
 62
7
  6
CONTINUOUS
 10
-46.9091834697
 20
65.3325801412
 11
-47.0802201024
 21
65.3436670143
  0
LINE
  5
476
100
AcDbEntity
  8
RACCORDO
100
AcDbLine
 62
7
  6
CONTINUOUS
 10
-46.9091834697
 20
65.3325801412
 11
-47.0802201024
 21
65.3436670143
  0
LINE
  5
477
100
AcDbEntity
  8
ASSI
100
AcDbLine
 62
250
  6
CONTINUOUS
 10
54.1459080952
 20
-63.305853559
 11
54.1287771647
 21
-63.4125588886
  0
LINE
  5
478
100
AcDbEntity
  8
RACCORDO
100
AcDbLine
 62
250
  6
CONTINUOUS
 10
54.1459080952
 20
-63.305853559
 11
54.1287771647
 21
-63.4125588886
  0
LWPOLYLINE
  5
479
100
AcDbEntity
  8
ASSI
100
AcDbPolyline
 62
250
  6
CONTINUOUS
 90
12
 70
0
 10
54.1287771647
 20
-63.4125588886
 10
54.108499674
 20
-63.5223688841
 10
54.0847539702
 20
-63.6352188656
 10
54.0571259932
 20
-63.7515995768
 10
54.0253371456
 20
-63.8708569551
 10
53.9893265022
 20
-63.9912032596
 10
53.9486314092
 20
-64.1129575696
 10
53.903113804
 20
-64.2355890768
 10
53.8534792357
 20
-64.3560718729
 10
53.8000080176
 20
-64.4733610903
 10
53.742321451
 20
-64.5883466649
 10
53.6803531492
 20
-64.7009417891
  0
LWPOLYLINE
  5
47A
100
AcDbEntity
  8
RACCORDO
100
AcDbPolyline
 62
250
  6
CONTINUOUS
 90
12
 70
0
 10
54.1287771647
 20
-63.4125588886
 10
54.108499674
 20
-63.5223688841
 10
54.0847539702
 20
-63.6352188656
 10
54.0571259932
 20
-63.7515995768
 10
54.0253371456
 20
-63.8708569551
 10
53.9893265022
 20
-63.9912032596
 10
53.9486314092
 20
-64.1129575696
 10
53.903113804
 20
-64.2355890768
 10
53.8534792357
 20
-64.3560718729
 10
53.8000080176
 20
-64.4733610903
 10
53.742321451
 20
-64.5883466649
 10
53.6803531492
 20
-64.7009417891
  0
LINE
  5
47B
100
AcDbEntity
  8
ASSI
100
AcDbLine
 62
250
  6
CONTINUOUS
 10
-47.1747606568
 20
65.2967943536
 11
-47.0656980453
 21
65.2987402002
  0
LINE
  5
47C
100
AcDbEntity
  8
RACCORDO
100
AcDbLine
 62
250
  6
CONTINUOUS
 10
-47.1747606568
 20
65.2967943536
 11
-47.0656980453
 21
65.2987402002
  0
LWPOLYLINE
  5
47D
100
AcDbEntity
  8
ASSI
100
AcDbPolyline
 62
7
  6
CONTINUOUS
 90
8
 70
0
 10
-47.1737707713
 20
65.3462405347
 10
-47.241833445
 20
65.3465195312
 10
-47.3729148936
 20
65.3431785054
 10
-47.5019200744
 20
65.3347584054
 10
-47.6286779425
 20
65.3213289074
 10
-47.7530345607
 20
65.3029671708
 10
-47.8748386852
 20
65.2797823773
 10
-47.9214581374
 20
65.2688703511
  0
LWPOLYLINE
  5
47E
100
AcDbEntity
  8
RACCORDO
100
AcDbPolyline
 62
7
  6
CONTINUOUS
 90
8
 70
0
 10
-47.1737707713
 20
65.3462405347
 10
-47.241833445
 20
65.3465195312
 10
-47.3729148936
 20
65.3431785054
 10
-47.5019200744
 20
65.3347584054
 10
-47.6286779425
 20
65.3213289074
 10
-47.7530345607
 20
65.3029671708
 10
-47.8748386852
 20
65.2797823773
 10
-47.9214581374
 20
65.2688703511
  0
LWPOLYLINE
  5
47F
100
AcDbEntity
  8
ASSI
100
AcDbPolyline
 62
250
  6
CONTINUOUS
 90
12
 70
0
 10
-47.0656980453
 20
65.2987402002
 10
-46.9246392618
 20
65.2954320226
 10
-46.7868244964
 20
65.2866849801
 10
-46.6522304753
 20
65.2728845698
 10
-46.5201179383
 20
65.2541770432
 10
-46.3911476196
 20
65.2311414003
 10
-46.2673429719
 20
65.2049005728
 10
-46.1495304827
 20
65.1761509413
 10
-46.0366501896
 20
65.1451051945
 10
-45.9278878153
 20
65.1121356743
 10
-45.8229313461
 20
65.0775153997
 10
-45.7219291907
 20
65.0415255045
  0
LWPOLYLINE
  5
480
100
AcDbEntity
  8
RACCORDO
100
AcDbPolyline
 62
250
  6
CONTINUOUS
 90
12
 70
0
 10
-47.0656980453
 20
65.2987402002
 10
-46.9246392618
 20
65.2954320226
 10
-46.7868244964
 20
65.2866849801
 10
-46.6522304753
 20
65.2728845698
 10
-46.5201179383
 20
65.2541770432
 10
-46.3911476196
 20
65.2311414003
 10
-46.2673429719
 20
65.2049005728
 10
-46.1495304827
 20
65.1761509413
 10
-46.0366501896
 20
65.1451051945
 10
-45.9278878153
 20
65.1121356743
 10
-45.8229313461
 20
65.0775153997
 10
-45.7219291907
 20
65.0415255045
  0
LINE
  5
481
100
AcDbEntity
  8
ASSI
100
AcDbLine
 62
7
  6
CONTINUOUS
 10
-47.0802201024
 20
65.3436670143
 11
-47.173736845
 21
65.3462400852
  0
LINE
  5
482
100
AcDbEntity
  8
RACCORDO
100
AcDbLine
 62
7
  6
CONTINUOUS
 10
-47.0802201024
 20
65.3436670143
 11
-47.173736845
 21
65.3462400852
  0
LWPOLYLINE
  5
483
100
AcDbEntity
  8
ASSI
100
AcDbPolyline
 62
7
  6
CONTINUOUS
 90
9
 70
0
 10
53.7147937742
 20
-64.7306084419
 10
53.7904732545
 20
-64.5767627464
 10
53.8612187814
 20
-64.4140966477
 10
53.9265206808
 20
-64.2427296406
 10
53.985920671
 20
-64.0627788919
 10
54.0390074228
 20
-63.8743592867
 10
54.0853795323
 20
-63.6776564398
 10
54.1246676084
 20
-63.472889302
 10
54.1416784498
 20
-63.366695968
  0
LWPOLYLINE
  5
484
100
AcDbEntity
  8
RACCORDO
100
AcDbPolyline
 62
7
  6
CONTINUOUS
 90
9
 70
0
 10
53.7147937742
 20
-64.7306084419
 10
53.7904732545
 20
-64.5767627464
 10
53.8612187814
 20
-64.4140966477
 10
53.9265206808
 20
-64.2427296406
 10
53.985920671
 20
-64.0627788919
 10
54.0390074228
 20
-63.8743592867
 10
54.0853795323
 20
-63.6776564398
 10
54.1246676084
 20
-63.472889302
 10
54.1416784498
 20
-63.366695968
  0
LINE
  5
485
100
AcDbEntity
  8
ASSI
100
AcDbLine
 62
7
  6
CONTINUOUS
 10
53.6674711717
 20
-64.8182280872
 11
53.7147937742
 21
-64.7306084419
  0
LINE
  5
486
100
AcDbEntity
  8
RACCORDO
100
AcDbLine
 62
7
  6
CONTINUOUS
 10
53.6674711717
 20
-64.8182280872
 11
53.7147937742
 21
-64.7306084419
  0
LINE
  5
487
100
AcDbEntity
  8
ASSI
100
AcDbLine
 62
250
  6
CONTINUOUS
 10
53.6803531492
 20
-64.7009417891
 11
53.6078418619
 21
-64.8202799991
  0
LINE
  5
488
100
AcDbEntity
  8
RACCORDO
100
AcDbLine
 62
250
  6
CONTINUOUS
 10
53.6803531492
 20
-64.7009417891
 11
53.6078418619
 21
-64.8202799991
  0
LWPOLYLINE
  5
489
100
AcDbEntity
  8
ASSI
100
AcDbPolyline
 62
250
  6
CONTINUOUS
 90
6
 70
0
 10
53.6078418619
 20
-64.8202799991
 10
53.5311265658
 20
-64.9345280228
 10
53.4503099149
 20
-65.0436181623
 10
53.365868701
 20
-65.1471254692
 10
53.27757469
 20
-65.2453599953
 10
53.2266692879
 20
-65.2966404563
  0
LWPOLYLINE
  5
48A
100
AcDbEntity
  8
RACCORDO
100
AcDbPolyline
 62
250
  6
CONTINUOUS
 90
6
 70
0
 10
53.6078418619
 20
-64.8202799991
 10
53.5311265658
 20
-64.9345280228
 10
53.4503099149
 20
-65.0436181623
 10
53.365868701
 20
-65.1471254692
 10
53.27757469
 20
-65.2453599953
 10
53.2266692879
 20
-65.2966404563
  0
LWPOLYLINE
  5
48B
100
AcDbEntity
  8
ASSI
100
AcDbPolyline
 62
250
  6
CONTINUOUS
 90
8
 70
0
 10
-47.8090374222
 20
65.2039600392
 10
-47.7859196423
 20
65.2103451179
 10
-47.6891754626
 20
65.2332557428
 10
-47.5904095775
 20
65.2528795643
 10
-47.4897293416
 20
65.2691265263
 10
-47.3868881855
 20
65.2819152533
 10
-47.2818449448
 20
65.2911611121
 10
-47.1747606568
 20
65.2967943536
  0
LWPOLYLINE
  5
48C
100
AcDbEntity
  8
RACCORDO
100
AcDbPolyline
 62
250
  6
CONTINUOUS
 90
8
 70
0
 10
-47.8090374222
 20
65.2039600392
 10
-47.7859196423
 20
65.2103451179
 10
-47.6891754626
 20
65.2332557428
 10
-47.5904095775
 20
65.2528795643
 10
-47.4897293416
 20
65.2691265263
 10
-47.3868881855
 20
65.2819152533
 10
-47.2818449448
 20
65.2911611121
 10
-47.1747606568
 20
65.2967943536
  0
LWPOLYLINE
  5
48D
100
AcDbEntity
  8
ASSI
100
AcDbPolyline
 62
7
  6
CONTINUOUS
 90
8
 70
0
 10
53.2266692879
 20
-65.4270401586
 10
53.2635477103
 20
-65.3875592351
 10
53.344318596
 20
-65.2934968914
 10
53.4221799135
 20
-65.1948408065
 10
53.4969568185
 20
-65.0916706863
 10
53.5685002658
 20
-64.9840816683
 10
53.6366761101
 20
-64.8721868885
 10
53.6674530328
 20
-64.818259524
  0
LWPOLYLINE
  5
48E
100
AcDbEntity
  8
RACCORDO
100
AcDbPolyline
 62
7
  6
CONTINUOUS
 90
8
 70
0
 10
53.2266692879
 20
-65.4270401586
 10
53.2635477103
 20
-65.3875592351
 10
53.344318596
 20
-65.2934968914
 10
53.4221799135
 20
-65.1948408065
 10
53.4969568185
 20
-65.0916706863
 10
53.5685002658
 20
-64.9840816683
 10
53.6366761101
 20
-64.8721868885
 10
53.6674530328
 20
-64.818259524
  0
LWPOLYLINE
  5
48F
100
AcDbEntity
  8
ASSI
100
AcDbPolyline
 62
250
  6
CONTINUOUS
 90
16
 70
0
 10
51.2143347677
 20
-67.0934799231
 10
51.2229822177
 20
-67.0892804994
 10
51.2481561716
 20
-67.0745662144
 10
51.2714716106
 20
-67.0570060665
 10
51.2928280862
 20
-67.036659162
 10
51.3121363058
 20
-67.0135923126
 10
51.3293602707
 20
-66.9878583708
 10
51.3444164278
 20
-66.9595432529
 10
51.3572304468
 20
-66.9287449745
 10
51.3677898794
 20
-66.8955498185
 10
51.3760304877
 20
-66.8600773996
 10
51.3819004441
 20
-66.8224510608
 10
51.3854180393
 20
-66.7827777022
 10
51.3865656663
 20
-66.7411906282
 10
51.3852893737
 20
-66.697848478
 10
51.3815647608
 20
-66.6529076456
  0
LWPOLYLINE
  5
490
100
AcDbEntity
  8
RACCORDO
100
AcDbPolyline
 62
250
  6
CONTINUOUS
 90
16
 70
0
 10
51.2143347677
 20
-67.0934799231
 10
51.2229822177
 20
-67.0892804994
 10
51.2481561716
 20
-67.0745662144
 10
51.2714716106
 20
-67.0570060665
 10
51.2928280862
 20
-67.036659162
 10
51.3121363058
 20
-67.0135923126
 10
51.3293602707
 20
-66.9878583708
 10
51.3444164278
 20
-66.9595432529
 10
51.3572304468
 20
-66.9287449745
 10
51.3677898794
 20
-66.8955498185
 10
51.3760304877
 20
-66.8600773996
 10
51.3819004441
 20
-66.8224510608
 10
51.3854180393
 20
-66.7827777022
 10
51.3865656663
 20
-66.7411906282
 10
51.3852893737
 20
-66.697848478
 10
51.3815647608
 20
-66.6529076456
  0
LINE
  5
491
100
AcDbEntity
  8
ASSI
100
AcDbLine
 62
250
  6
CONTINUOUS
 10
51.3815647608
 20
-66.6529076456
 11
53.2266692879
 21
-65.7997643191
  0
LINE
  5
492
100
AcDbEntity
  8
RACCORDO
100
AcDbLine
 62
250
  6
CONTINUOUS
 10
51.3815647608
 20
-66.6529076456
 11
53.2266692879
 21
-65.7997643191
  0
LINE
  5
493
100
AcDbEntity
  8
ASSI
100
AcDbLine
 62
7
  6
CONTINUOUS
 10
51.214276986
 20
-67.0935066441
 11
52.9930048106
 21
-66.2710547181
  0
LINE
  5
494
100
AcDbEntity
  8
RACCORDO
100
AcDbLine
 62
7
  6
CONTINUOUS
 10
51.214276986
 20
-67.0935066441
 11
52.9930048106
 21
-66.2710547181
  0
ELLIPSE
  5
495
100
AcDbEntity
  8
ASSI
100
AcDbEllipse
 62
7
  6
CONTINUOUS
 10
52.5185921115
 20
-65.3886900079
 30
0.0
 11
-0.5013954353
 21
0.868386877
 31
0.0
 40
0.5757524875
 41
-3.1936911674
 42
-2.3576120761
  0
ELLIPSE
  5
496
100
AcDbEntity
  8
ASSI
100
AcDbEllipse
 62
7
  6
CONTINUOUS
 10
52.5185921115
 20
6.4584533904
 30
0.0
 11
-0.5000243598
 21
0.8660113392
 31
0.0
 40
0.5789151826
 41
-2.3548735497
 42
-0.7868162787
  0
ELLIPSE
  5
497
100
AcDbEntity
  8
ASSI
100
AcDbEllipse
 62
7
  6
CONTINUOUS
 10
120.7193448662
 20
51.833138805
 30
0.0
 11
111.5409348807
 21
128.3466174189
 31
0.0
 40
0.4029729773
 41
-3.7734299492
 42
-3.7672052666
  0
ELLIPSE
  5
498
100
AcDbEntity
  8
ASSI
100
AcDbEllipse
 62
7
  6
CONTINUOUS
 10
120.8047098826
 20
51.7838501144
 30
0.0
 11
112.236268736
 21
127.9318388222
 31
0.0
 40
0.3975597956
 41
-3.7637364601
 42
-3.7603859388
  0
ELLIPSE
  5
499
100
AcDbEntity
  8
ASSI
100
AcDbEllipse
 62
7
  6
CONTINUOUS
 10
115.8592964631
 20
54.6392698423
 30
0.0
 11
27.6951435486
 21
170.7397539322
 31
0.0
 40
0.7069483398
 41
-4.1183397783
 42
-4.1015657091
  0
ELLIPSE
  5
49A
100
AcDbEntity
  8
ASSI
100
AcDbEllipse
 62
7
  6
CONTINUOUS
 10
116.2968707724
 20
54.3866199202
 30
0.0
 11
91.793176838
 21
140.2511436908
 31
0.0
 40
0.5363054271
 41
-3.8203221232
 42
-3.8093664661
  0
ELLIPSE
  5
49B
100
AcDbEntity
  8
ASSI
100
AcDbEllipse
 62
7
  6
CONTINUOUS
 10
120.1667376021
 20
52.1522073135
 30
0.0
 11
119.630873242
 21
123.5739552196
 31
0.0
 40
0.3382731367
 41
-3.7657029519
 42
-3.7547929514
  0
ELLIPSE
  5
49C
100
AcDbEntity
  8
ASSI
100
AcDbEllipse
 62
7
  6
CONTINUOUS
 10
116.2266370899
 20
54.4271719682
 30
0.0
 11
70.634700218
 21
152.2499801326
 31
0.0
 40
0.6282888553
 41
-3.9123018102
 42
-3.8955277411
  0
ELLIPSE
  5
49D
100
AcDbEntity
  8
ASSI
100
AcDbEllipse
 62
7
  6
CONTINUOUS
 10
112.6632526108
 20
56.4846255067
 30
0.0
 11
11.1145125674
 21
175.7752122584
 31
0.0
 40
0.7158559188
 41
-4.1973507117
 42
-4.188040463
  0
ELLIPSE
  5
49E
100
AcDbEntity
  8
ASSI
100
AcDbEllipse
 62
7
  6
CONTINUOUS
 10
117.0408042305
 20
53.9570820651
 30
0.0
 11
114.8996317544
 21
126.3505868295
 31
0.0
 40
0.3765254089
 41
-3.7743605251
 42
-3.7575864559
  0
ELLIPSE
  5
49F
100
AcDbEntity
  8
ASSI
100
AcDbEllipse
 62
7
  6
CONTINUOUS
 10
110.8500814612
 20
57.5315278041
 30
0.0
 11
34.8790515577
 21
168.2218372011
 31
0.0
 40
0.7002280922
 41
-4.083553027
 42
-4.0720093448
  0
ELLIPSE
  5
4A0
100
AcDbEntity
  8
ASSI
100
AcDbEllipse
 62
7
  6
CONTINUOUS
 10
49.0182360915
 20
-24.9623436505
 30
0.0
 11
5.1478346794
 21
0.9575482268
 31
0.0
 40
0.6665647798
 41
-0.7006982462
 42
-0.2750682551
  0
ELLIPSE
  5
4A1
100
AcDbEntity
  8
ASSI
100
AcDbEllipse
 62
7
  6
CONTINUOUS
 10
-30.6000633057
 20
-0.8230553882
 30
0.0
 11
-0.4000194878
 21
0.6928090714
 31
0.0
 40
0.5789151826
 41
0.7867191038
 42
2.3547763749
  0
ELLIPSE
  5
4A2
100
AcDbEntity
  8
ASSI
100
AcDbEllipse
 62
7
  6
CONTINUOUS
 10
-48.2421834172
 20
64.6364623516
 30
0.0
 11
-0.5013954353
 21
0.868386877
 31
0.0
 40
0.5757524875
 41
-0.7840766935
 42
0.0520985859
  0
ELLIPSE
  5
4A3
100
AcDbEntity
  8
ASSI
100
AcDbEllipse
 62
7
  6
CONTINUOUS
 10
-28.99362359
 20
3.4811527594
 30
0.0
 11
0.2467654307
 21
0.4348749944
 31
0.0
 40
0.5722717666
 41
-2.3255274167
 42
-0.7896376749
  0
ELLIPSE
  5
4A4
100
AcDbEntity
  8
ASSI
100
AcDbEllipse
 62
7
  6
CONTINUOUS
 10
-2.9858135658
 20
-17.0559631638
 30
0.0
 11
-0.0054673646
 21
0.3559778749
 31
0.0
 40
0.0145741356
 41
-3.1313276755
 42
-2.3823999735
  0
ELLIPSE
  5
4A5
100
AcDbEntity
  8
ASSI
100
AcDbEllipse
 62
7
  6
CONTINUOUS
 10
115.9161139737
 20
54.6064641237
 30
0.0
 11
39.1098980172
 21
166.4730536049
 31
0.0
 40
0.6952787603
 41
-4.0581356351
 42
-4.0519053363
  0
ELLIPSE
  5
4A6
100
AcDbEntity
  8
ASSI
100
AcDbEllipse
 62
7
  6
CONTINUOUS
 10
115.7961191669
 20
54.6757476213
 30
0.0
 11
36.2622945329
 21
167.5495560783
 31
0.0
 40
0.6986691259
 41
-4.0631746043
 42
-4.0598210564
  0
ELLIPSE
  5
4A7
100
AcDbEntity
  8
ASSI
100
AcDbEllipse
 62
7
  6
CONTINUOUS
 10
120.6563091826
 20
51.8695348187
 30
0.0
 11
114.1738075272
 21
126.6060927015
 31
0.0
 40
0.3814884295
 41
-3.7739014683
 42
-3.7580834622
  0
ELLIPSE
  5
4A8
100
AcDbEntity
  8
ASSI
100
AcDbEllipse
 62
7
  6
CONTINUOUS
 10
119.7498154575
 20
52.3929329345
 30
0.0
 11
119.0820080186
 21
123.7206245819
 31
0.0
 40
0.3418816387
 41
-3.7706765582
 42
-3.7623289378
  0
ELLIPSE
  5
4A9
100
AcDbEntity
  8
ASSI
100
AcDbEllipse
 62
7
  6
CONTINUOUS
 10
116.1077492274
 20
54.49581633
 30
0.0
 11
74.7266798953
 21
149.8826902858
 31
0.0
 40
0.6139811386
 41
-3.8877681049
 42
-3.8768482551
  0
ELLIPSE
  5
4AA
100
AcDbEntity
  8
ASSI
100
AcDbEllipse
 62
7
  6
CONTINUOUS
 10
112.2732389117
 20
56.7098145286
 30
0.0
 11
10.3174595334
 21
175.8321184433
 31
0.0
 40
0.7160762854
 41
-4.1951584555
 42
-4.1843514627
  0
ELLIPSE
  5
4AB
100
AcDbEntity
  8
ASSI
100
AcDbEllipse
 62
7
  6
CONTINUOUS
 10
116.122192916
 20
54.4874767252
 30
0.0
 11
93.9929009386
 21
138.7583599347
 31
0.0
 40
0.5232362147
 41
-3.8175129253
 42
-3.8016949217
  0
ELLIPSE
  5
4AC
100
AcDbEntity
  8
ASSI
100
AcDbEllipse
 62
7
  6
CONTINUOUS
 10
110.0653962016
 20
57.9845952386
 30
0.0
 11
25.1523857375
 21
171.4190137311
 31
0.0
 40
0.7088651675
 41
-4.1294456824
 42
-4.1136276763
  0
ELLIPSE
  5
4AD
100
AcDbEntity
  8
ASSI
100
AcDbEllipse
 62
7
  6
CONTINUOUS
 10
116.3258978679
 20
54.369860039
 30
0.0
 11
111.878972645
 21
127.9702912935
 31
0.0
 40
0.3995644544
 41
-3.7764422127
 42
-3.7658593517
  0
ELLIPSE
  5
4AE
100
AcDbEntity
  8
ASSI
100
AcDbEllipse
 62
7
  6
CONTINUOUS
 10
115.9161139737
 20
54.6064641237
 30
0.0
 11
39.144967187
 21
166.622327116
 31
0.0
 40
0.6952787603
 41
-4.0582033802
 42
-4.0519786976
  0
ELLIPSE
  5
4AF
100
AcDbEntity
  8
ASSI
100
AcDbEllipse
 62
7
  6
CONTINUOUS
 10
120.6563091826
 20
51.8695348187
 30
0.0
 11
114.2761852079
 21
126.7196181975
 31
0.0
 40
0.3814884295
 41
-3.7749362596
 42
-3.7581621904
  0
ELLIPSE
  5
4B0
100
AcDbEntity
  8
ASSI
100
AcDbEllipse
 62
7
  6
CONTINUOUS
 10
-28.99362359
 20
6.5697632157
 30
0.0
 11
0.2467654307
 21
0.4348749944
 31
0.0
 40
0.5722717666
 41
5.4935476323
 42
7.029437374
  0
ELLIPSE
  5
4B1
100
AcDbEntity
  8
ASSI
100
AcDbEllipse
 62
7
  6
CONTINUOUS
 10
115.7961191669
 20
54.6757476213
 30
0.0
 11
36.2948103059
 21
167.6997948705
 31
0.0
 40
0.6986691259
 41
-4.0632503059
 42
-4.0598997846
  0
ELLIPSE
  5
4B2
100
AcDbEntity
  8
ASSI
100
AcDbEllipse
 62
7
  6
CONTINUOUS
 10
116.122192916
 20
54.4874767252
 30
0.0
 11
94.077182749
 21
138.8827821588
 31
0.0
 40
0.5232362147
 41
-3.8185477191
 42
-3.8017736499
  0
ELLIPSE
  5
4B3
100
AcDbEntity
  8
ASSI
100
AcDbEllipse
 62
7
  6
CONTINUOUS
 10
112.2732389117
 20
56.7098145286
 30
0.0
 11
10.3267110211
 21
175.9897840662
 31
0.0
 40
0.7160762854
 41
-4.1952272933
 42
-4.1842716361
  0
ELLIPSE
  5
4B4
100
AcDbEntity
  8
ASSI
100
AcDbEllipse
 62
7
  6
CONTINUOUS
 10
116.1077492274
 20
54.49581633
 30
0.0
 11
74.7936860181
 21
150.0170875047
 31
0.0
 40
0.6139811386
 41
-3.8878369839
 42
-3.8769269833
  0
ELLIPSE
  5
4B5
100
AcDbEntity
  8
ASSI
100
AcDbEllipse
 62
7
  6
CONTINUOUS
 10
119.7498154575
 20
52.3929329345
 30
0.0
 11
119.1887867979
 21
123.8315627285
 31
0.0
 40
0.3418816387
 41
-3.7717111746
 42
-3.7624009259
  0
ELLIPSE
  5
4B6
100
AcDbEntity
  8
ASSI
100
AcDbEllipse
 62
7
  6
CONTINUOUS
 10
116.3258978679
 20
54.369860039
 30
0.0
 11
111.9792925869
 21
128.0850400428
 31
0.0
 40
0.3995644544
 41
-3.7774770381
 42
-3.7659333559
  0
ELLIPSE
  5
4B7
100
AcDbEntity
  8
ASSI
100
AcDbEllipse
 62
7
  6
CONTINUOUS
 10
110.0653962016
 20
57.9845952386
 30
0.0
 11
25.1749394473
 21
171.5727221992
 31
0.0
 40
0.7088651675
 41
-4.1304804737
 42
-4.1137064045
  0
ELLIPSE
  5
4B8
100
AcDbEntity
  8
ASSI
100
AcDbEllipse
 62
7
  6
CONTINUOUS
 10
49.0182360915
 20
-30.3691228214
 30
0.0
 11
5.1774686765
 21
-0.6785096723
 31
0.0
 40
0.4693271057
 41
-0.5159119978
 42
-0.0902820066
  0
ELLIPSE
  5
4B9
100
AcDbEntity
  8
0
100
AcDbEllipse
 62
250
  6
CONTINUOUS
 10
52.3542934274
 20
114.5489568625
 30
0.0
 11
600.9514462195
 21
-191.7993213141
 31
0.0
 40
0.1620323673
 41
-1.6474254541
 42
-1.6470690805
  0
ELLIPSE
  5
4BA
100
AcDbEntity
  8
0
100
AcDbEllipse
 62
250
  6
CONTINUOUS
 10
91.7569449637
 20
91.7983596967
 30
0.0
 11
93.7814256506
 21
139.0604214378
 31
0.0
 40
0.524965471
 41
-3.9768075958
 42
-3.9600475592
  0
ELLIPSE
  5
4BB
100
AcDbEntity
  8
0
100
AcDbEllipse
 62
250
  6
CONTINUOUS
 10
93.2833010294
 20
90.917060834
 30
0.0
 11
-22.3413290313
 21
183.3614793488
 31
0.0
 40
0.7115375175
 41
-4.5048370306
 42
-4.488076994
  0
ELLIPSE
  5
4BC
100
AcDbEntity
  8
0
100
AcDbEllipse
 62
250
  6
CONTINUOUS
 10
84.1162954844
 20
96.2099749462
 30
0.0
 11
112.006102841
 21
128.0690516521
 31
0.0
 40
0.3993555306
 41
-3.9347454556
 42
-3.917985419
  0
ELLIPSE
  5
4BD
100
AcDbEntity
  8
0
100
AcDbEllipse
 62
250
  6
CONTINUOUS
 10
89.9610993723
 20
92.8352584339
 30
0.0
 11
32.8018561849
 21
168.9721845822
 31
0.0
 40
0.7023711659
 41
-4.2509361663
 42
-4.2341761297
  0
ELLIPSE
  5
4BE
100
AcDbEntity
  8
0
100
AcDbEllipse
 62
250
  6
CONTINUOUS
 10
105.9340383355
 20
83.6126836645
 30
0.0
 11
93.7814130743
 21
139.0604289889
 31
0.0
 40
0.5249655443
 41
-3.9768076367
 42
-3.9621859884
  0
ELLIPSE
  5
4BF
100
AcDbEntity
  8
0
100
AcDbEllipse
 62
250
  6
CONTINUOUS
 10
107.1704044948
 20
82.8988213395
 30
0.0
 11
93.7815115889
 21
139.060369839
 31
0.0
 40
0.5249649702
 41
-3.9621856681
 42
-3.9600472797
  0
ELLIPSE
  5
4C0
100
AcDbEntity
  8
0
100
AcDbEllipse
 62
250
  6
CONTINUOUS
 10
105.6867618769
 20
83.7554579926
 30
0.0
 11
93.7814256506
 21
139.0604214378
 31
0.0
 40
0.524965471
 41
-3.9768075958
 42
-3.9600475592
  0
ELLIPSE
  5
4C1
100
AcDbEntity
  8
0
100
AcDbEllipse
 62
250
  6
CONTINUOUS
 10
107.81629817
 20
82.5258904263
 30
0.0
 11
43.5080795154
 21
164.9030530702
 31
0.0
 40
0.6893971972
 41
-4.1974443006
 42
-4.187814634
  0
ELLIPSE
  5
4C2
100
AcDbEntity
  8
0
100
AcDbEllipse
 62
250
  6
CONTINUOUS
 10
101.2493248303
 20
86.3175785292
 30
0.0
 11
122.1032906666
 21
122.1403327789
 31
0.0
 40
0.318017516
 41
-3.9270701973
 42
-3.9174405307
  0
ELLIPSE
  5
4C3
100
AcDbEntity
  8
0
100
AcDbEllipse
 62
250
  6
CONTINUOUS
 10
108.1071355257
 20
82.3579645822
 30
0.0
 11
41.977873471
 21
165.5157521285
 31
0.0
 40
0.6915589852
 41
-4.2063214345
 42
-4.1895613978
  0
ELLIPSE
  5
4C4
100
AcDbEntity
  8
0
100
AcDbEllipse
 62
250
  6
CONTINUOUS
 10
107.8025684131
 20
82.5338178159
 30
0.0
 11
43.5078752941
 21
164.9031355473
 31
0.0
 40
0.6893974931
 41
-4.1863896306
 42
-4.1821125245
  0
ELLIPSE
  5
4C5
100
AcDbEntity
  8
0
100
AcDbEllipse
 62
250
  6
CONTINUOUS
 10
101.2630552269
 20
86.3096507702
 30
0.0
 11
122.1033500238
 21
122.1402985041
 31
0.0
 40
0.3180170286
 41
-3.9160145329
 42
-3.9117374269
  0
ELLIPSE
  5
4C6
100
AcDbEntity
  8
0
100
AcDbEllipse
 62
250
  6
CONTINUOUS
 10
100.9584936383
 20
86.4855008145
 30
0.0
 11
122.6326329822
 21
121.8349435996
 31
0.0
 40
0.3136701383
 41
-3.9285124884
 42
-3.9117524518
  0
ELLIPSE
  5
4C7
100
AcDbEntity
  8
0
100
AcDbEllipse
 62
250
  6
CONTINUOUS
 10
103.3788636309
 20
85.0880095151
 30
0.0
 11
93.7814256506
 21
139.0604214378
 31
0.0
 40
0.524965471
 41
-3.9768075958
 42
-3.9600475592
  0
ELLIPSE
  5
4C8
100
AcDbEntity
  8
0
100
AcDbEllipse
 62
250
  6
CONTINUOUS
 10
103.1315890966
 20
85.2307827321
 30
0.0
 11
93.7814256506
 21
139.0604214378
 31
0.0
 40
0.524965471
 41
-3.9768075958
 42
-3.9600475592
  0
ELLIPSE
  5
4C9
100
AcDbEntity
  8
0
100
AcDbEllipse
 62
250
  6
CONTINUOUS
 10
101.4830913145
 20
86.182604691
 30
0.0
 11
93.7814035827
 21
139.0604346878
 31
0.0
 40
0.5249655997
 41
-3.9750236074
 42
-3.9696730372
  0
ELLIPSE
  5
4CA
100
AcDbEntity
  8
0
100
AcDbEllipse
 62
250
  6
CONTINUOUS
 10
74.6928300363
 20
101.6509657921
 30
0.0
 11
377.0466644618
 21
-47.5512593942
 31
0.0
 40
0.2269618914
 41
-1.7820833616
 42
-1.7817267311
  0
ELLIPSE
  5
4CB
100
AcDbEntity
  8
0
100
AcDbEllipse
 62
250
  6
CONTINUOUS
 10
93.1574936879
 20
90.9897004163
 30
0.0
 11
173.0836342077
 21
93.373392027
 31
0.0
 40
0.0279357855
 41
-2.2592993501
 42
-2.2585860525
  0
ELLIPSE
  5
4CC
100
AcDbEntity
  8
0
100
AcDbEllipse
 62
250
  6
CONTINUOUS
 10
99.3672716495
 20
87.4042524481
 30
0.0
 11
122.103420061
 21
122.1402580623
 31
0.0
 40
0.3180164536
 41
-3.9235027755
 42
-3.9224327611
  0
ELLIPSE
  5
4CD
100
AcDbEntity
  8
0
100
AcDbEllipse
 62
250
  6
CONTINUOUS
 10
102.5133983615
 20
85.5877183148
 30
0.0
 11
93.7814598123
 21
139.0604009266
 31
0.0
 40
0.5249652719
 41
-3.9728829169
 42
-3.9718127969
  0
ELLIPSE
  5
4CE
100
AcDbEntity
  8
0
100
AcDbEllipse
 62
250
  6
CONTINUOUS
 10
105.7007735124
 20
83.7473678499
 30
0.0
 11
43.5069698887
 21
164.9035012031
 31
0.0
 40
0.6893988048
 41
-4.1960226038
 42
-4.194952401
  0
ELLIPSE
  5
4CF
100
AcDbEntity
  8
0
100
AcDbEllipse
 62
250
  6
CONTINUOUS
 10
112.1577563996
 20
80.0191868558
 30
0.0
 11
-101.7145514237
 21
199.7496793835
 31
0.0
 40
0.6093615153
 41
1.5185300819
 42
1.5192436096
  0
ELLIPSE
  5
4D0
100
AcDbEntity
  8
0
100
AcDbEllipse
 62
250
  6
CONTINUOUS
 10
131.6940195458
 20
68.7391933621
 30
0.0
 11
346.1226067412
 21
-324.6715108661
 31
0.0
 40
0.2767011407
 41
-1.7390182376
 42
-1.7386614606
  0
ELLIPSE
  5
4D1
100
AcDbEntity
  8
0
100
AcDbEllipse
 62
250
  6
CONTINUOUS
 10
101.2358146031
 20
86.325379165
 30
0.0
 11
93.7814256506
 21
139.0604214378
 31
0.0
 40
0.524965471
 41
-3.9768075958
 42
-3.9600475592
  0
ELLIPSE
  5
4D2
100
AcDbEntity
  8
0
100
AcDbEllipse
 62
250
  6
CONTINUOUS
 10
101.4830890285
 20
86.1826060109
 30
0.0
 11
93.781427045
 21
139.0604206006
 31
0.0
 40
0.5249654629
 41
-3.9675333764
 42
-3.9600475546
  0
ELLIPSE
  5
4D3
100
AcDbEntity
  8
0
100
AcDbEllipse
 62
250
  6
CONTINUOUS
 10
105.5908599682
 20
83.8108305527
 30
0.0
 11
32.8464080978
 21
168.9562840178
 31
0.0
 40
0.7023269622
 41
-4.241445895
 42
-4.2339600732
  0
ELLIPSE
  5
4D4
100
AcDbEntity
  8
0
100
AcDbEllipse
 62
250
  6
CONTINUOUS
 10
105.9629752165
 20
83.5959758721
 30
0.0
 11
30.4147628249
 21
169.8119089774
 31
0.0
 40
0.7046298028
 41
-4.2539391307
 42
-4.245740158
  0
ELLIPSE
  5
4D5
100
AcDbEntity
  8
0
100
AcDbEllipse
 62
250
  6
CONTINUOUS
 10
84.3786958361
 20
96.0584682718
 30
0.0
 11
269.5153477517
 21
28.728544924
 31
0.0
 40
0.2304454275
 41
-1.9720666059
 42
-1.9713534092
  0
ELLIPSE
  5
4D6
100
AcDbEntity
  8
0
100
AcDbEllipse
 62
250
  6
CONTINUOUS
 10
95.764304917
 20
89.4845602837
 30
0.0
 11
152.9960409622
 21
104.8451705499
 31
0.0
 40
0.0837712528
 41
2.3162352298
 42
2.3176617379
  0
ELLIPSE
  5
4D7
100
AcDbEntity
  8
0
100
AcDbEllipse
 62
250
  6
CONTINUOUS
 10
99.6283063335
 20
87.253534293
 30
0.0
 11
122.1032431809
 21
122.1403601987
 31
0.0
 40
0.3180179059
 41
-3.9231460942
 42
-3.9220761047
  0
ELLIPSE
  5
4D8
100
AcDbEntity
  8
0
100
AcDbEllipse
 62
250
  6
CONTINUOUS
 10
102.760657539
 20
85.4449539646
 30
0.0
 11
93.7816336518
 21
139.0602965502
 31
0.0
 40
0.5249642588
 41
-3.9728823516
 42
-3.9714555498
  0
ELLIPSE
  5
4D9
100
AcDbEntity
  8
0
100
AcDbEllipse
 62
250
  6
CONTINUOUS
 10
105.9480487538
 20
83.6045942246
 30
0.0
 11
43.5069698887
 21
164.9035012031
 31
0.0
 40
0.6893988048
 41
-4.1960226038
 42
-4.194952401
  0
ELLIPSE
  5
4DA
100
AcDbEntity
  8
0
100
AcDbEllipse
 62
250
  6
CONTINUOUS
 10
109.9836867733
 20
81.2744674106
 30
0.0
 11
-56.7378376742
 21
189.5072070011
 31
0.0
 40
0.681169693
 41
-4.6373949057
 42
-4.635967807
  0
ELLIPSE
  5
4DB
100
AcDbEntity
  8
0
100
AcDbEllipse
 62
250
  6
CONTINUOUS
 10
115.7297143376
 20
77.9567831095
 30
0.0
 11
-148.8570529486
 21
217.0406198145
 31
0.0
 40
0.5183116761
 41
1.4444036242
 42
1.445474059
  0
ELLIPSE
  5
4DC
100
AcDbEntity
  8
0
100
AcDbEllipse
 62
250
  6
CONTINUOUS
 10
152.3018248514
 20
56.8405048551
 30
0.0
 11
575.9883410307
 21
-459.7029806262
 31
0.0
 40
0.1731119233
 41
-1.7250518019
 42
-1.7246949703
  0
ELLIPSE
  5
4DD
100
AcDbEntity
  8
0
100
AcDbEllipse
 62
250
  6
CONTINUOUS
 10
100.9061350747
 20
86.5157319929
 30
0.0
 11
93.7812156846
 21
139.0605475051
 31
0.0
 40
0.5249666948
 41
-3.9768082786
 42
-3.9746674414
  0
ELLIPSE
  5
4DE
100
AcDbEntity
  8
0
100
AcDbEllipse
 62
250
  6
CONTINUOUS
 10
99.669740568
 20
87.2296106854
 30
0.0
 11
93.7814245244
 21
139.060422114
 31
0.0
 40
0.5249654776
 41
-3.9746667623
 42
-3.9700295996
  0
ELLIPSE
  5
4DF
100
AcDbEntity
  8
0
100
AcDbEllipse
 62
250
  6
CONTINUOUS
 10
100.7412569605
 20
86.6109305496
 30
0.0
 11
93.7815115889
 21
139.060369839
 31
0.0
 40
0.5249649702
 41
-3.9700293165
 42
-3.967889672
  0
ELLIPSE
  5
4E0
100
AcDbEntity
  8
0
100
AcDbEllipse
 62
250
  6
CONTINUOUS
 10
99.6697485775
 20
87.2296060608
 30
0.0
 11
93.7813298849
 21
139.0604789373
 31
0.0
 40
0.5249660292
 41
-3.9678902629
 42
-3.962186259
  0
ELLIPSE
  5
4E1
100
AcDbEntity
  8
0
100
AcDbEllipse
 62
250
  6
CONTINUOUS
 10
100.9061080436
 20
86.5157476003
 30
0.0
 11
93.7815115889
 21
139.060369839
 31
0.0
 40
0.5249649702
 41
-3.9621856681
 42
-3.9600472797
  0
ELLIPSE
  5
4E2
100
AcDbEntity
  8
0
100
AcDbEllipse
 62
250
  6
CONTINUOUS
 10
99.4224654257
 20
87.3723842535
 30
0.0
 11
93.7814256506
 21
139.0604214378
 31
0.0
 40
0.524965471
 41
-3.9768075958
 42
-3.9600475592
  0
ELLIPSE
  5
4E3
100
AcDbEntity
  8
0
100
AcDbEllipse
 62
250
  6
CONTINUOUS
 10
98.433369484
 20
87.9434758539
 30
0.0
 11
93.7813884713
 21
139.060443761
 31
0.0
 40
0.5249656877
 41
-3.9750236565
 42
-3.9600476801
  0
ELLIPSE
  5
4E4
100
AcDbEntity
  8
0
100
AcDbEllipse
 62
250
  6
CONTINUOUS
 10
98.1860909425
 20
88.0862513846
 30
0.0
 11
93.7814307433
 21
139.0604183801
 31
0.0
 40
0.5249654414
 41
-3.9750235191
 42
-3.9600475426
  0
ELLIPSE
  5
4E5
100
AcDbEntity
  8
0
100
AcDbEllipse
 62
250
  6
CONTINUOUS
 10
97.5266957796
 20
88.4669778875
 30
0.0
 11
93.7813828721
 21
139.0604471228
 31
0.0
 40
0.5249657204
 41
-3.9768077349
 42
-3.9750236747
  0
ELLIPSE
  5
4E6
100
AcDbEntity
  8
0
100
AcDbEllipse
 62
250
  6
CONTINUOUS
 10
99.0927697157
 20
87.5627464244
 30
0.0
 11
93.7813828721
 21
139.0604471228
 31
0.0
 40
0.5249657204
 41
-3.9768077349
 42
-3.9750236747
  0
ELLIPSE
  5
4E7
100
AcDbEntity
  8
0
100
AcDbEllipse
 62
250
  6
CONTINUOUS
 10
98.021384952
 20
88.1813505593
 30
0.0
 11
59.868152393
 21
157.6785405544
 31
0.0
 40
0.6584582487
 41
-4.1087558034
 42
-4.1073298058
  0
ELLIPSE
  5
4E8
100
AcDbEntity
  8
0
100
AcDbEllipse
 62
250
  6
CONTINUOUS
 10
101.5934614956
 20
86.1188783316
 30
0.0
 11
-38.3857388891
 21
186.2700464849
 31
0.0
 40
0.7004394024
 41
-4.5580361462
 42
-4.5569667455
  0
ELLIPSE
  5
4E9
100
AcDbEntity
  8
0
100
AcDbEllipse
 62
250
  6
CONTINUOUS
 10
108.6344800524
 20
82.0534824616
 30
0.0
 11
-170.0852683798
 21
226.8002976472
 31
0.0
 40
0.4795792654
 41
1.440165599
 42
1.4408784883
  0
ELLIPSE
  5
4EA
100
AcDbEntity
  8
0
100
AcDbEllipse
 62
250
  6
CONTINUOUS
 10
129.5516450544
 20
69.9761735432
 30
0.0
 11
461.0224715011
 21
-392.132382677
 31
0.0
 40
0.2133871896
 41
-1.7189325996
 42
-1.7185761718
  0
ELLIPSE
  5
4EB
100
AcDbEntity
  8
0
100
AcDbEllipse
 62
250
  6
CONTINUOUS
 10
63.3173592026
 20
108.2190200834
 30
0.0
 11
488.0738691873
 21
-120.9774792929
 31
0.0
 40
0.1923204037
 41
-1.6960155631
 42
-1.6956591353
  0
ELLIPSE
  5
4EC
100
AcDbEntity
  8
0
100
AcDbEllipse
 62
250
  6
CONTINUOUS
 10
84.2346803189
 20
96.1416210265
 30
0.0
 11
218.7221939969
 21
64.4788583997
 31
0.0
 40
0.1731833699
 41
-2.1207090962
 42
-2.1199962069
  0
ELLIPSE
  5
4ED
100
AcDbEntity
  8
0
100
AcDbEllipse
 62
250
  6
CONTINUOUS
 10
94.0920960909
 20
90.4500727021
 30
0.0
 11
122.1032431809
 21
122.1403601987
 31
0.0
 40
0.3180179059
 41
-3.9160145332
 42
-3.9149451326
  0
ELLIPSE
  5
4EE
100
AcDbEntity
  8
0
100
AcDbEllipse
 62
250
  6
CONTINUOUS
 10
95.4823999976
 20
89.647328651
 30
0.0
 11
111.8096486368
 21
128.1862343107
 31
0.0
 40
0.4008852251
 41
-3.9225097897
 42
-3.9207274998
  0
ELLIPSE
  5
4EF
100
AcDbEntity
  8
0
100
AcDbEllipse
 62
250
  6
CONTINUOUS
 10
88.7889681125
 20
93.512032333
 30
0.0
 11
173.0836582371
 21
93.3733779052
 31
0.0
 40
0.0279358986
 41
-2.2682121589
 42
-2.2667864963
  0
ELLIPSE
  5
4F0
100
AcDbEntity
  8
0
100
AcDbEllipse
 62
250
  6
CONTINUOUS
 10
80.5870629216
 20
98.2477095963
 30
0.0
 11
269.5162448436
 21
28.7278983642
 31
0.0
 40
0.230445878
 41
-1.9799069989
 42
-1.9791942188
  0
ELLIPSE
  5
4F1
100
AcDbEntity
  8
0
100
AcDbEllipse
 62
250
  6
CONTINUOUS
 10
56.2281277111
 20
112.3122534977
 30
0.0
 11
600.953393456
 21
-191.800521793
 31
0.0
 40
0.1620319101
 41
-1.6474247936
 42
-1.64706842
  0
ELLIPSE
  5
4F2
100
AcDbEntity
  8
0
100
AcDbEllipse
 62
250
  6
CONTINUOUS
 10
136.6408803289
 20
65.8829379446
 30
0.0
 11
575.9863670803
 21
-459.7018216395
 31
0.0
 40
0.173112487
 41
-1.708648271
 42
-1.7082918974
  0
ELLIPSE
  5
4F3
100
AcDbEntity
  8
0
100
AcDbEllipse
 62
250
  6
CONTINUOUS
 10
112.2820966188
 20
79.9473943716
 30
0.0
 11
-230.283473573
 21
258.2516823488
 31
0.0
 40
0.388116916
 41
1.4196297375
 42
1.4203425176
  0
ELLIPSE
  5
4F4
100
AcDbEntity
  8
0
100
AcDbEllipse
 62
250
  6
CONTINUOUS
 10
104.0801500906
 20
84.6830955025
 30
0.0
 11
-101.7151532253
 21
199.749854478
 31
0.0
 40
0.6093603887
 41
1.5306531618
 42
1.5320788243
  0
ELLIPSE
  5
4F5
100
AcDbEntity
  8
0
100
AcDbEllipse
 62
250
  6
CONTINUOUS
 10
99.8967400588
 20
87.0985440244
 30
0.0
 11
3.2071651049
 21
177.8377483001
 31
0.0
 40
0.7173128606
 41
-4.3786052693
 42
-4.3771794536
  0
ELLIPSE
  5
4F6
100
AcDbEntity
  8
0
100
AcDbEllipse
 62
250
  6
CONTINUOUS
 10
97.3372778712
 20
88.5763454139
 30
0.0
 11
68.2779962659
 21
153.4826246162
 31
0.0
 40
0.6356972842
 41
-4.0693180253
 42
-4.0675355534
  0
ELLIPSE
  5
4F7
100
AcDbEntity
  8
0
100
AcDbEllipse
 62
250
  6
CONTINUOUS
 10
95.5896976813
 20
89.5853763132
 30
0.0
 11
93.7815115889
 21
139.060369839
 31
0.0
 40
0.5249649702
 41
-3.9710992753
 42
-3.9657503834
  0
ELLIPSE
  5
4F8
100
AcDbEntity
  8
0
100
AcDbEllipse
 62
250
  6
CONTINUOUS
 10
93.7185364554
 20
90.6657613538
 30
0.0
 11
111.809372219
 21
128.1863992339
 31
0.0
 40
0.4008873755
 41
-3.9310685038
 42
-3.9292850305
  0
ELLIPSE
  5
4F9
100
AcDbEntity
  8
0
100
AcDbEllipse
 62
250
  6
CONTINUOUS
 10
90.8499198928
 20
92.3220646049
 30
0.0
 11
134.3545797076
 21
115.1945301141
 31
0.0
 40
0.2185155878
 41
2.3489917782
 42
2.3504187425
  0
ELLIPSE
  5
4FA
100
AcDbEntity
  8
0
100
AcDbEllipse
 62
250
  6
CONTINUOUS
 10
85.9865203149
 20
95.1301305685
 30
0.0
 11
173.0836582371
 21
93.3733779052
 31
0.0
 40
0.0279358986
 41
-2.2550188794
 42
-2.2535917436
  0
ELLIPSE
  5
4FB
100
AcDbEntity
  8
0
100
AcDbEllipse
 62
250
  6
CONTINUOUS
 10
76.0948314558
 20
100.8414677438
 30
0.0
 11
269.517141936
 21
28.7272518037
 31
0.0
 40
0.2304463284
 41
-1.9645715973
 42
-1.9638579612
  0
ELLIPSE
  5
4FC
100
AcDbEntity
  8
0
100
AcDbEllipse
 62
250
  6
CONTINUOUS
 10
46.1723963062
 20
118.1183067829
 30
0.0
 11
600.9514462195
 21
-191.7993213141
 31
0.0
 40
0.1620323673
 41
-1.631022249
 42
-1.6306654175
  0
ELLIPSE
  5
4FD
100
AcDbEntity
  8
0
100
AcDbEllipse
 62
250
  6
CONTINUOUS
 10
146.696927394
 20
60.0767024011
 30
0.0
 11
575.9883410307
 21
-459.7029806262
 31
0.0
 40
0.1731119233
 41
-1.7250518019
 42
-1.7246949703
  0
ELLIPSE
  5
4FE
100
AcDbEntity
  8
0
100
AcDbEllipse
 62
250
  6
CONTINUOUS
 10
116.7742505181
 20
77.35368101
 30
0.0
 11
-230.283473573
 21
258.2516823488
 31
0.0
 40
0.388116916
 41
1.4042956861
 42
1.4050093222
  0
ELLIPSE
  5
4FF
100
AcDbEntity
  8
0
100
AcDbEllipse
 62
250
  6
CONTINUOUS
 10
106.8826390935
 20
83.0649734756
 30
0.0
 11
-101.7158281359
 21
199.7500508451
 31
0.0
 40
0.6093591253
 41
1.5174569474
 42
1.5188840831
  0
ELLIPSE
  5
500
100
AcDbEntity
  8
0
100
AcDbEllipse
 62
250
  6
CONTINUOUS
 10
99.1011386454
 20
87.5579143092
 30
0.0
 11
68.2785985895
 21
153.4823126798
 31
0.0
 40
0.6356954522
 41
-4.0778745832
 42
-4.0760908998
  0
ELLIPSE
  5
501
100
AcDbEntity
  8
0
100
AcDbEllipse
 62
250
  6
CONTINUOUS
 10
100.1232835317
 20
86.9677406624
 30
0.0
 11
43.5084879569
 21
164.902888116
 31
0.0
 40
0.6893966054
 41
-4.1956584687
 42
-4.1945882917
  0
ELLIPSE
  5
502
100
AcDbEntity
  8
0
100
AcDbEllipse
 62
250
  6
CONTINUOUS
 10
111.3750271651
 20
80.4711249059
 30
0.0
 11
-170.0841982385
 21
226.799782346
 31
0.0
 40
0.4795811407
 41
1.4291115819
 42
1.4298250883
  0
ELLIPSE
  5
503
100
AcDbEntity
  8
0
100
AcDbEllipse
 62
250
  6
CONTINUOUS
 10
135.6924927807
 20
66.4305250289
 30
0.0
 11
461.0244427499
 21
-392.1335419887
 31
0.0
 40
0.2133863435
 41
-1.7310568387
 42
-1.7307000725
  0
ELLIPSE
  5
504
100
AcDbEntity
  8
0
100
AcDbEllipse
 62
250
  6
CONTINUOUS
 10
57.1766593274
 20
111.7645832303
 30
0.0
 11
488.0738691873
 21
-120.9774792929
 31
0.0
 40
0.1923204037
 41
-1.6838915183
 42
-1.6835347521
  0
ELLIPSE
  5
505
100
AcDbEntity
  8
0
100
AcDbEllipse
 62
250
  6
CONTINUOUS
 10
81.4940560993
 20
97.7240231028
 30
0.0
 11
218.7221939969
 21
64.4788583997
 31
0.0
 40
0.1731833699
 41
-2.1096549856
 42
-2.1089414792
  0
ELLIPSE
  5
506
100
AcDbEntity
  8
0
100
AcDbEllipse
 62
250
  6
CONTINUOUS
 10
89.5310355866
 20
93.0835718738
 30
0.0
 11
146.6647555962
 21
108.3636281683
 31
0.0
 40
0.1263825083
 41
2.3279532215
 42
2.3290233985
  0
ELLIPSE
  5
507
100
AcDbEntity
  8
0
100
AcDbEllipse
 62
250
  6
CONTINUOUS
 10
93.4979856942
 20
90.7931045993
 30
0.0
 11
115.7634381698
 21
125.8404559676
 31
0.0
 40
0.3696139229
 41
-3.9266637322
 42
-3.925236978
  0
ELLIPSE
  5
508
100
AcDbEntity
  8
0
100
AcDbEllipse
 62
250
  6
CONTINUOUS
 10
95.8369829172
 20
89.4425969172
 30
0.0
 11
93.7813932274
 21
139.0604409053
 31
0.0
 40
0.52496566
 41
-3.9710996602
 42
-3.9657507683
  0
ELLIPSE
  5
509
100
AcDbEntity
  8
0
100
AcDbEllipse
 62
250
  6
CONTINUOUS
 10
91.1522670874
 20
92.147493124
 30
0.0
 11
122.1032906666
 21
122.1403327789
 31
0.0
 40
0.318017516
 41
-3.9270701973
 42
-3.9174405307
  0
ELLIPSE
  5
50A
100
AcDbEntity
  8
0
100
AcDbEllipse
 62
250
  6
CONTINUOUS
 10
97.7192466868
 20
88.355801407
 30
0.0
 11
43.5079433679
 21
164.9031080549
 31
0.0
 40
0.6893973944
 41
-4.1974449634
 42
-4.1878152968
  0
ELLIPSE
  5
50B
100
AcDbEntity
  8
0
100
AcDbEllipse
 62
250
  6
CONTINUOUS
 10
98.0100755409
 20
88.1878804715
 30
0.0
 11
41.9779527662
 21
165.515720652
 31
0.0
 40
0.691558876
 41
-4.2063210484
 42
-4.1895610118
  0
ELLIPSE
  5
50C
100
AcDbEntity
  8
0
100
AcDbEllipse
 62
250
  6
CONTINUOUS
 10
97.705499827
 20
88.3637386715
 30
0.0
 11
43.5081816259
 21
164.9030118317
 31
0.0
 40
0.6893970492
 41
-4.1863881393
 42
-4.1821110332
  0
ELLIPSE
  5
50D
100
AcDbEntity
  8
0
100
AcDbEllipse
 62
250
  6
CONTINUOUS
 10
91.1659981911
 20
92.1395649568
 30
0.0
 11
122.1033500238
 21
122.1402985041
 31
0.0
 40
0.3180170286
 41
-3.9160145329
 42
-3.9117374269
  0
ELLIPSE
  5
50E
100
AcDbEntity
  8
0
100
AcDbEllipse
 62
250
  6
CONTINUOUS
 10
90.8614366025
 20
92.3154150011
 30
0.0
 11
122.6326329822
 21
121.8349435996
 31
0.0
 40
0.3136701383
 41
-3.9285124884
 42
-3.9117524518
  0
ELLIPSE
  5
50F
100
AcDbEntity
  8
0
100
AcDbEllipse
 62
250
  6
CONTINUOUS
 10
119.6183160948
 20
75.7115531906
 30
0.0
 11
346.116982495
 21
-324.6682229078
 31
0.0
 40
0.2767051061
 41
-1.7315283578
 42
-1.7311717911
  0
ELLIPSE
  5
510
100
AcDbEntity
  8
0
100
AcDbEllipse
 62
250
  6
CONTINUOUS
 10
101.8134969046
 20
85.9918326442
 30
0.0
 11
-101.7157550301
 21
199.7500295746
 31
0.0
 40
0.6093592621
 41
1.5260174196
 42
1.5267305116
  0
ELLIPSE
  5
511
100
AcDbEntity
  8
0
100
AcDbEllipse
 62
250
  6
CONTINUOUS
 10
95.9333499895
 20
89.3869557774
 30
0.0
 11
43.5084879569
 21
164.902888116
 31
0.0
 40
0.6893966054
 41
-4.188525705
 42
-4.1874561335
  0
ELLIPSE
  5
512
100
AcDbEntity
  8
0
100
AcDbEllipse
 62
250
  6
CONTINUOUS
 10
93.0345736747
 20
91.0606728914
 30
0.0
 11
93.7809197788
 21
139.0607251721
 31
0.0
 40
0.5249684194
 41
-3.9653957958
 42
-3.9643263104
  0
ELLIPSE
  5
513
100
AcDbEntity
  8
0
100
AcDbEllipse
 62
250
  6
CONTINUOUS
 10
90.1769108973
 20
92.7106515641
 30
0.0
 11
122.1032431809
 21
122.1403601987
 31
0.0
 40
0.3180179059
 41
-3.9160145332
 42
-3.9149451326
  0
ELLIPSE
  5
514
100
AcDbEntity
  8
0
100
AcDbEllipse
 62
250
  6
CONTINUOUS
 10
84.5440854606
 20
95.9629743754
 30
0.0
 11
173.0836342077
 21
93.373392027
 31
0.0
 40
0.0279357855
 41
-2.2667865707
 42
-2.2660736814
  0
ELLIPSE
  5
515
100
AcDbEntity
  8
0
100
AcDbEllipse
 62
250
  6
CONTINUOUS
 10
67.8102126569
 20
105.6249028076
 30
0.0
 11
377.0485461051
 21
-47.5525496774
 31
0.0
 40
0.2269613516
 41
-1.7895681591
 42
-1.7892117313
  0
ELLIPSE
  5
516
100
AcDbEntity
  8
0
100
AcDbEllipse
 62
250
  6
CONTINUOUS
 10
92.004222312
 20
91.6555848549
 30
0.0
 11
93.7813932274
 21
139.0604409053
 31
0.0
 40
0.52496566
 41
-3.9675334864
 42
-3.962186053
  0
ELLIPSE
  5
517
100
AcDbEntity
  8
0
100
AcDbEllipse
 62
250
  6
CONTINUOUS
 10
92.0042264435
 20
91.6555824694
 30
0.0
 11
93.7813498975
 21
139.0604669213
 31
0.0
 40
0.5249659126
 41
-3.974667005
 42
-3.9696732118
  0
ELLIPSE
  5
518
100
AcDbEntity
  8
0
100
AcDbEllipse
 62
250
  6
CONTINUOUS
 10
65.2138019924
 20
107.1240377846
 30
0.0
 11
377.0485461051
 21
-47.5525496774
 31
0.0
 40
0.2269613516
 41
-1.7820811413
 42
-1.7817245107
  0
ELLIPSE
  5
519
100
AcDbEntity
  8
0
100
AcDbEllipse
 62
250
  6
CONTINUOUS
 10
83.6786240485
 20
96.462680948
 30
0.0
 11
173.0836342077
 21
93.373392027
 31
0.0
 40
0.0279357855
 41
-2.2592993501
 42
-2.2585860525
  0
ELLIPSE
  5
51A
100
AcDbEntity
  8
0
100
AcDbEllipse
 62
250
  6
CONTINUOUS
 10
89.8884020101
 20
92.8772329797
 30
0.0
 11
122.103420061
 21
122.1402580623
 31
0.0
 40
0.3180164536
 41
-3.9235027755
 42
-3.9224327611
  0
ELLIPSE
  5
51B
100
AcDbEntity
  8
0
100
AcDbEllipse
 62
250
  6
CONTINUOUS
 10
93.0345533506
 20
91.0606846263
 30
0.0
 11
93.7811897969
 21
139.0605630485
 31
0.0
 40
0.5249668457
 41
-3.9725270759
 42
-3.9718136751
  0
ELLIPSE
  5
51C
100
AcDbEntity
  8
0
100
AcDbEllipse
 62
250
  6
CONTINUOUS
 10
96.2081527892
 20
89.228288085
 30
0.0
 11
43.5072626278
 21
164.9033829783
 31
0.0
 40
0.6893983807
 41
-4.1956644338
 42
-4.1945942568
  0
ELLIPSE
  5
51D
100
AcDbEntity
  8
0
100
AcDbEllipse
 62
250
  6
CONTINUOUS
 10
102.6376744174
 20
85.5159628777
 30
0.0
 11
-101.7145514237
 21
199.7496793835
 31
0.0
 40
0.6093615153
 41
1.5188868481
 42
1.5196003545
  0
ELLIPSE
  5
51E
100
AcDbEntity
  8
0
100
AcDbEllipse
 62
250
  6
CONTINUOUS
 10
122.0915122857
 20
74.2835607063
 30
0.0
 11
346.1226067412
 21
-324.6715108661
 31
0.0
 40
0.2767011407
 41
-1.7386614606
 42
-1.7383046943
  0
ELLIPSE
  5
51F
100
AcDbEntity
  8
0
100
AcDbEllipse
 62
250
  6
CONTINUOUS
 10
142.8227833724
 20
62.3135846048
 30
0.0
 11
575.9863670803
 21
-459.7018216395
 31
0.0
 40
0.173112487
 41
-1.725051934
 42
-1.7246951025
  0
ELLIPSE
  5
520
100
AcDbEntity
  8
0
100
AcDbEllipse
 62
250
  6
CONTINUOUS
 10
106.250901035
 20
83.4297311131
 30
0.0
 11
-148.857799135
 21
217.0409448996
 31
0.0
 40
0.5183102665
 41
1.44440288
 42
1.4454733149
  0
ELLIPSE
  5
521
100
AcDbEntity
  8
0
100
AcDbEllipse
 62
250
  6
CONTINUOUS
 10
100.5048171339
 20
86.7474479422
 30
0.0
 11
-56.7378376742
 21
189.5072070011
 31
0.0
 40
0.681169693
 41
-4.6373949057
 42
-4.635967807
  0
ELLIPSE
  5
522
100
AcDbEntity
  8
0
100
AcDbEllipse
 62
250
  6
CONTINUOUS
 10
96.4691237201
 20
89.0776067402
 30
0.0
 11
43.5081952279
 21
164.9030063383
 31
0.0
 40
0.6893970295
 41
-4.1960166386
 42
-4.1949464359
  0
ELLIPSE
  5
523
100
AcDbEntity
  8
0
100
AcDbEllipse
 62
250
  6
CONTINUOUS
 10
93.2817871925
 20
90.9179349045
 30
0.0
 11
93.7816336518
 21
139.0602965502
 31
0.0
 40
0.5249642588
 41
-3.9728823516
 42
-3.9714555498
  0
ELLIPSE
  5
524
100
AcDbEntity
  8
0
100
AcDbEllipse
 62
250
  6
CONTINUOUS
 10
90.149435987
 20
92.726515233
 30
0.0
 11
122.1032431809
 21
122.1403601987
 31
0.0
 40
0.3180179059
 41
-3.9231460942
 42
-3.9220761047
  0
ELLIPSE
  5
525
100
AcDbEntity
  8
0
100
AcDbEllipse
 62
250
  6
CONTINUOUS
 10
86.2854743482
 20
94.9575182564
 30
0.0
 11
152.9957110199
 21
104.8453546306
 31
0.0
 40
0.0837733809
 41
2.3162360592
 42
2.3176625673
  0
ELLIPSE
  5
526
100
AcDbEntity
  8
0
100
AcDbEllipse
 62
250
  6
CONTINUOUS
 10
74.8995881927
 20
101.531586224
 30
0.0
 11
269.5180801439
 21
28.72657561
 31
0.0
 40
0.2304467995
 41
-1.9717032899
 42
-1.9713466896
  0
ELLIPSE
  5
527
100
AcDbEntity
  8
0
100
AcDbEllipse
 62
250
  6
CONTINUOUS
 10
111.1692114115
 20
80.5899603426
 30
0.0
 11
-230.2815859862
 21
258.2506410183
 31
0.0
 40
0.3881193532
 41
1.4121436517
 42
1.4125002481
  0
ELLIPSE
  5
528
100
AcDbEntity
  8
0
100
AcDbEllipse
 62
250
  6
CONTINUOUS
 10
99.886615317
 20
87.1043899234
 30
0.0
 11
-56.7375218096
 21
189.5071495856
 31
0.0
 40
0.6811700822
 41
-4.6302600041
 42
-4.6288337355
  0
ELLIPSE
  5
529
100
AcDbEntity
  8
0
100
AcDbEllipse
 62
250
  6
CONTINUOUS
 10
96.1944128179
 20
89.2362213722
 30
0.0
 11
43.5072626278
 21
164.9033829783
 31
0.0
 40
0.6893983807
 41
-4.1888882112
 42
-4.1878186107
  0
ELLIPSE
  5
52A
100
AcDbEntity
  8
0
100
AcDbEllipse
 62
250
  6
CONTINUOUS
 10
93.2818076811
 20
90.9179230747
 30
0.0
 11
93.781413938
 21
139.0604284703
 31
0.0
 40
0.5249655393
 41
-3.965750701
 42
-3.9639682291
  0
ELLIPSE
  5
52B
100
AcDbEntity
  8
0
100
AcDbEllipse
 62
250
  6
CONTINUOUS
 10
90.437874446
 20
92.5599744817
 30
0.0
 11
122.103670552
 21
122.1401134207
 31
0.0
 40
0.3180143969
 41
-3.9156580578
 42
-3.9145886852
  0
ELLIPSE
  5
52C
100
AcDbEntity
  8
0
100
AcDbEllipse
 62
250
  6
CONTINUOUS
 10
86.9346001657
 20
94.5827211449
 30
0.0
 11
152.9954398537
 21
104.8455059189
 31
0.0
 40
0.0837751299
 41
2.3237241592
 42
2.3251498642
  0
ELLIPSE
  5
52D
100
AcDbEntity
  8
0
100
AcDbEllipse
 62
250
  6
CONTINUOUS
 10
82.1260455989
 20
97.3591202864
 30
0.0
 11
202.7646449178
 21
75.0424444824
 31
0.0
 40
0.1361336765
 41
-2.1736455873
 42
-2.1725764067
  0
ELLIPSE
  5
52E
100
AcDbEntity
  8
RACCORDO
100
AcDbEllipse
 62
7
  6
CONTINUOUS
 10
52.5185921115
 20
-65.3886900079
 30
0.0
 11
-0.5013954353
 21
0.868386877
 31
0.0
 40
0.5757524875
 41
-3.1936911674
 42
-2.3576120761
  0
ELLIPSE
  5
52F
100
AcDbEntity
  8
RACCORDO
100
AcDbEllipse
 62
7
  6
CONTINUOUS
 10
52.5185921115
 20
6.4584533904
 30
0.0
 11
-0.5000243598
 21
0.8660113392
 31
0.0
 40
0.5789151826
 41
-2.3548735497
 42
-0.7868162787
  0
ELLIPSE
  5
530
100
AcDbEntity
  8
0
100
AcDbEllipse
 62
7
  6
CONTINUOUS
 10
120.7193448662
 20
51.833138805
 30
0.0
 11
111.5409348807
 21
128.3466174189
 31
0.0
 40
0.4029729773
 41
-3.7734299492
 42
-3.7672052666
  0
ELLIPSE
  5
531
100
AcDbEntity
  8
0
100
AcDbEllipse
 62
7
  6
CONTINUOUS
 10
120.8047098826
 20
51.7838501144
 30
0.0
 11
112.236268736
 21
127.9318388222
 31
0.0
 40
0.3975597956
 41
-3.7637364601
 42
-3.7603859388
  0
ELLIPSE
  5
532
100
AcDbEntity
  8
0
100
AcDbEllipse
 62
7
  6
CONTINUOUS
 10
115.8592964631
 20
54.6392698423
 30
0.0
 11
27.6951435486
 21
170.7397539322
 31
0.0
 40
0.7069483398
 41
-4.1183397783
 42
-4.1015657091
  0
ELLIPSE
  5
533
100
AcDbEntity
  8
0
100
AcDbEllipse
 62
7
  6
CONTINUOUS
 10
116.2968707724
 20
54.3866199202
 30
0.0
 11
91.793176838
 21
140.2511436908
 31
0.0
 40
0.5363054271
 41
-3.8203221232
 42
-3.8093664661
  0
ELLIPSE
  5
534
100
AcDbEntity
  8
0
100
AcDbEllipse
 62
7
  6
CONTINUOUS
 10
120.1667376021
 20
52.1522073135
 30
0.0
 11
119.630873242
 21
123.5739552196
 31
0.0
 40
0.3382731367
 41
-3.7657029519
 42
-3.7547929514
  0
ELLIPSE
  5
535
100
AcDbEntity
  8
0
100
AcDbEllipse
 62
7
  6
CONTINUOUS
 10
116.2266370899
 20
54.4271719682
 30
0.0
 11
70.634700218
 21
152.2499801326
 31
0.0
 40
0.6282888553
 41
-3.9123018102
 42
-3.8955277411
  0
ELLIPSE
  5
536
100
AcDbEntity
  8
0
100
AcDbEllipse
 62
7
  6
CONTINUOUS
 10
112.6632526108
 20
56.4846255067
 30
0.0
 11
11.1145125674
 21
175.7752122584
 31
0.0
 40
0.7158559188
 41
-4.1973507117
 42
-4.188040463
  0
ELLIPSE
  5
537
100
AcDbEntity
  8
0
100
AcDbEllipse
 62
7
  6
CONTINUOUS
 10
117.0408042305
 20
53.9570820651
 30
0.0
 11
114.8996317544
 21
126.3505868295
 31
0.0
 40
0.3765254089
 41
-3.7743605251
 42
-3.7575864559
  0
ELLIPSE
  5
538
100
AcDbEntity
  8
0
100
AcDbEllipse
 62
7
  6
CONTINUOUS
 10
110.8500814612
 20
57.5315278041
 30
0.0
 11
34.8790515577
 21
168.2218372011
 31
0.0
 40
0.7002280922
 41
-4.083553027
 42
-4.0720093448
  0
ELLIPSE
  5
539
100
AcDbEntity
  8
DRAFT
100
AcDbEllipse
 62
7
  6
CONTINUOUS
 10
49.0182360915
 20
-24.9623436505
 30
0.0
 11
5.1478346794
 21
0.9575482268
 31
0.0
 40
0.6665647798
 41
-0.7006982462
 42
-0.2750682551
  0
ELLIPSE
  5
53A
100
AcDbEntity
  8
0
100
AcDbEllipse
 62
7
  6
CONTINUOUS
 10
-30.6000633057
 20
-0.8230553882
 30
0.0
 11
-0.4000194878
 21
0.6928090714
 31
0.0
 40
0.5789151826
 41
0.7867191038
 42
2.3547763749
  0
ELLIPSE
  5
53B
100
AcDbEntity
  8
RACCORDO
100
AcDbEllipse
 62
7
  6
CONTINUOUS
 10
-48.2421834172
 20
64.6364623516
 30
0.0
 11
-0.5013954353
 21
0.868386877
 31
0.0
 40
0.5757524875
 41
-0.7840766935
 42
0.0520985859
  0
ELLIPSE
  5
53C
100
AcDbEntity
  8
0
100
AcDbEllipse
 62
7
  6
CONTINUOUS
 10
-2.9858135658
 20
-17.0559631638
 30
0.0
 11
-0.0054673646
 21
0.3559778749
 31
0.0
 40
0.0145741356
 41
-3.1313276755
 42
-2.3823999735
  0
ELLIPSE
  5
53D
100
AcDbEntity
  8
0
100
AcDbEllipse
 62
7
  6
CONTINUOUS
 10
-28.99362359
 20
3.4811527594
 30
0.0
 11
0.2467654307
 21
0.4348749944
 31
0.0
 40
0.5722717666
 41
-2.3255274167
 42
-0.7896376749
  0
ELLIPSE
  5
53E
100
AcDbEntity
  8
0
100
AcDbEllipse
 62
7
  6
CONTINUOUS
 10
112.2732389117
 20
56.7098145286
 30
0.0
 11
10.3267110211
 21
175.9897840662
 31
0.0
 40
0.7160762854
 41
-4.1952272933
 42
-4.1842716361
  0
ELLIPSE
  5
53F
100
AcDbEntity
  8
0
100
AcDbEllipse
 62
7
  6
CONTINUOUS
 10
116.1077492274
 20
54.49581633
 30
0.0
 11
74.7936860181
 21
150.0170875047
 31
0.0
 40
0.6139811386
 41
-3.8878369839
 42
-3.8769269833
  0
ELLIPSE
  5
540
100
AcDbEntity
  8
0
100
AcDbEllipse
 62
7
  6
CONTINUOUS
 10
119.7498154575
 20
52.3929329345
 30
0.0
 11
119.1887867979
 21
123.8315627285
 31
0.0
 40
0.3418816387
 41
-3.7717111746
 42
-3.7624009259
  0
ELLIPSE
  5
541
100
AcDbEntity
  8
0
100
AcDbEllipse
 62
7
  6
CONTINUOUS
 10
116.3258978679
 20
54.369860039
 30
0.0
 11
111.9792925869
 21
128.0850400428
 31
0.0
 40
0.3995644544
 41
-3.7774770381
 42
-3.7659333559
  0
ELLIPSE
  5
542
100
AcDbEntity
  8
0
100
AcDbEllipse
 62
7
  6
CONTINUOUS
 10
110.0653962016
 20
57.9845952386
 30
0.0
 11
25.1749394473
 21
171.5727221992
 31
0.0
 40
0.7088651675
 41
-4.1304804737
 42
-4.1137064045
  0
ELLIPSE
  5
543
100
AcDbEntity
  8
DRAFT
100
AcDbEllipse
 62
7
  6
CONTINUOUS
 10
49.0182360915
 20
-30.3691228214
 30
0.0
 11
5.1774686765
 21
-0.6785096723
 31
0.0
 40
0.4693271057
 41
-0.5159119978
 42
-0.0902820066
  0
ELLIPSE
  5
544
100
AcDbEntity
  8
0
100
AcDbEllipse
 62
7
  6
CONTINUOUS
 10
115.9161139737
 20
54.6064641237
 30
0.0
 11
39.144967187
 21
166.622327116
 31
0.0
 40
0.6952787603
 41
-4.0582033802
 42
-4.0519786976
  0
ELLIPSE
  5
545
100
AcDbEntity
  8
0
100
AcDbEllipse
 62
7
  6
CONTINUOUS
 10
-28.99362359
 20
6.5697632157
 30
0.0
 11
0.2467654307
 21
0.4348749944
 31
0.0
 40
0.5722717666
 41
5.4935476323
 42
7.029437374
  0
ELLIPSE
  5
546
100
AcDbEntity
  8
0
100
AcDbEllipse
 62
7
  6
CONTINUOUS
 10
120.6563091826
 20
51.8695348187
 30
0.0
 11
114.2761852079
 21
126.7196181975
 31
0.0
 40
0.3814884295
 41
-3.7749362596
 42
-3.7581621904
  0
ELLIPSE
  5
547
100
AcDbEntity
  8
0
100
AcDbEllipse
 62
7
  6
CONTINUOUS
 10
115.9161139737
 20
54.6064641237
 30
0.0
 11
39.1098980172
 21
166.4730536049
 31
0.0
 40
0.6952787603
 41
-4.0581356351
 42
-4.0519053363
  0
ELLIPSE
  5
548
100
AcDbEntity
  8
0
100
AcDbEllipse
 62
7
  6
CONTINUOUS
 10
115.7961191669
 20
54.6757476213
 30
0.0
 11
36.2622945329
 21
167.5495560783
 31
0.0
 40
0.6986691259
 41
-4.0631746043
 42
-4.0598210564
  0
ELLIPSE
  5
549
100
AcDbEntity
  8
0
100
AcDbEllipse
 62
7
  6
CONTINUOUS
 10
120.6563091826
 20
51.8695348187
 30
0.0
 11
114.1738075272
 21
126.6060927015
 31
0.0
 40
0.3814884295
 41
-3.7739014683
 42
-3.7580834622
  0
ELLIPSE
  5
54A
100
AcDbEntity
  8
0
100
AcDbEllipse
 62
7
  6
CONTINUOUS
 10
119.7498154575
 20
52.3929329345
 30
0.0
 11
119.0820080186
 21
123.7206245819
 31
0.0
 40
0.3418816387
 41
-3.7706765582
 42
-3.7623289378
  0
ELLIPSE
  5
54B
100
AcDbEntity
  8
0
100
AcDbEllipse
 62
7
  6
CONTINUOUS
 10
116.1077492274
 20
54.49581633
 30
0.0
 11
74.7266798953
 21
149.8826902858
 31
0.0
 40
0.6139811386
 41
-3.8877681049
 42
-3.8768482551
  0
ELLIPSE
  5
54C
100
AcDbEntity
  8
0
100
AcDbEllipse
 62
7
  6
CONTINUOUS
 10
112.2732389117
 20
56.7098145286
 30
0.0
 11
10.3174595334
 21
175.8321184433
 31
0.0
 40
0.7160762854
 41
-4.1951584555
 42
-4.1843514627
  0
ELLIPSE
  5
54D
100
AcDbEntity
  8
0
100
AcDbEllipse
 62
7
  6
CONTINUOUS
 10
116.122192916
 20
54.4874767252
 30
0.0
 11
93.9929009386
 21
138.7583599347
 31
0.0
 40
0.5232362147
 41
-3.8175129253
 42
-3.8016949217
  0
ELLIPSE
  5
54E
100
AcDbEntity
  8
0
100
AcDbEllipse
 62
7
  6
CONTINUOUS
 10
110.0653962016
 20
57.9845952386
 30
0.0
 11
25.1523857375
 21
171.4190137311
 31
0.0
 40
0.7088651675
 41
-4.1294456824
 42
-4.1136276763
  0
ELLIPSE
  5
54F
100
AcDbEntity
  8
0
100
AcDbEllipse
 62
7
  6
CONTINUOUS
 10
116.3258978679
 20
54.369860039
 30
0.0
 11
111.878972645
 21
127.9702912935
 31
0.0
 40
0.3995644544
 41
-3.7764422127
 42
-3.7658593517
  0
ELLIPSE
  5
550
100
AcDbEntity
  8
0
100
AcDbEllipse
 62
7
  6
CONTINUOUS
 10
115.7961191669
 20
54.6757476213
 30
0.0
 11
36.2948103059
 21
167.6997948705
 31
0.0
 40
0.6986691259
 41
-4.0632503059
 42
-4.0598997846
  0
ELLIPSE
  5
551
100
AcDbEntity
  8
0
100
AcDbEllipse
 62
7
  6
CONTINUOUS
 10
116.122192916
 20
54.4874767252
 30
0.0
 11
94.077182749
 21
138.8827821588
 31
0.0
 40
0.5232362147
 41
-3.8185477191
 42
-3.8017736499
  0
ENDSEC
  0
SECTION
  2
OBJECTS
  0
DICTIONARY
  5
C
100
AcDbDictionary
280
0
281
1
  3
ACAD_GROUP
350
D
  3
ACAD_MLINESTYLE
350
17
  3
ACAD_LAYOUT
350
1A
  3
ACAD_PLOTSETTINGS
350
19
  3
ACAD_PLOTSTYLENAME
350
E
  0
DICTIONARY
  5
D
102
{ACAD_REACTORS
330
C
102
}
100
AcDbDictionary
280
0
281
1
  0
ACDBDICTIONARYWDFLT
  5
E
102
{ACAD_REACTORS
330
C
102
}
100
AcDbDictionary
281
1
  3
Normal
350
F
100
AcDbDictionaryWithDefault
340
F
  0
DICTIONARY
  5
17
102
{ACAD_REACTORS
330
C
102
}
100
AcDbDictionary
280
0
281
1
  3
Standard
350
18
  0
DICTIONARY
  5
19
102
{ACAD_REACTORS
330
C
102
}
100
AcDbDictionary
281
1
  0
DICTIONARY
  5
1A
102
{ACAD_REACTORS
330
C
102
}
100
AcDbDictionary
281
1
  3
Model
350
552
  3
Layout1
350
553
  0
ACDBPLACEHOLDER
  5
F
102
{ACAD_REACTORS
330
E
102
}
  0
MLINESTYLE
  5
18
102
{ACAD_REACTORS
330
17
102
}
100
AcDbMlineStyle
  2
STANDARD
 70
0
  3

 62
256
 51
90.0
 52
90.0
 71
2
 49
0.5
 62
256
  6
BYLAYER
 49
-0.5
 62
256
  6
BYLAYER
  0
LAYOUT
  5
552
102
{ACAD_REACTORS
330
1A
102
}
100
AcDbPlotSettings
  1

  2
none_device
  4
ISO_A4_(297.00_x_210.00_MM)
  6

 40
0.0
 41
0.0
 42
0.0
 43
0.0
 44
297.0
 45
210.0
 46
0.0
 47
0.0
 48
0.0
 49
0.0
140
0.0
141
0.0
142
1.0
143
1.0
 70
1024
 72
1
 73
0
 74
0
  7

 75
0
147
1.0
148
0.0
149
0.0
100
AcDbLayout
  1
Model
 70
0
 71
0
 10
0.0
 20
0.0
 11
297.0
 21
210.0
 12
0.0
 22
0.0
 32
0.0
 14
0.0
 24
0.0
 34
0.0
 15
0.0
 25
0.0
 35
0.0
146
0.0
 13
0.0
 23
0.0
 33
0.0
 16
1.0
 26
0.0
 36
0.0
 17
0.0
 27
1.0
 37
0.0
 76
0
330
214
345
0
346
0
  0
LAYOUT
  5
553
102
{ACAD_REACTORS
330
1A
102
}
100
AcDbPlotSettings
  1

  2
none_device
  4
ISO_A4_(297.00_x_210.00_MM)
  6

 40
0.0
 41
0.0
 42
0.0
 43
0.0
 44
297.0
 45
210.0
 46
0.0
 47
0.0
 48
0.0
 49
0.0
140
0.0
141
0.0
142
1.0
143
1.0
 70
0
 72
1
 73
0
 74
0
  7

 75
0
147
1.0
148
0.0
149
0.0
100
AcDbLayout
  1
Layout1
 70
0
 71
1
 10
0.0
 20
0.0
 11
297.0
 21
210.0
 12
0.0
 22
0.0
 32
0.0
 14
0.0
 24
0.0
 34
0.0
 15
0.0
 25
0.0
 35
0.0
146
0.0
 13
0.0
 23
0.0
 33
0.0
 16
1.0
 26
0.0
 36
0.0
 17
0.0
 27
1.0
 37
0.0
 76
0
330
215
345
0
346
0
  0
ENDSEC
  0
EOF
