  0
SECTION
  2
HEADER
  9
$ACADVER
  1
AC1024
  9
$DWGCODEPAGE
  3
ANSI_1252
  9
$EXTMAX
 10
297.0
 20
210.0
 30
0.0
  9
$EXTMIN
 10
0.0
 20
0.0
 30
0.0
  9
$LIMMIN
 10
0.0
 20
0.0
  9
$LIMMAX
 10
297.0
 20
210.0
  9
$VIEWCTR
 10
148.5
 20
105.0
  9
$VIEWSIZE
 40
210.0
  9
$CLAYER
  8
0
  9
$LTSCALE
 40
16.335
  9
$CELTYPE
  6
BYLAYER
  9
$DIMSCALE
 40
1.0
  9
$DIMASZ
 40
3.0
  9
$DIMEXO
 40
0.5
  9
$DIMDLI
 40
11.286
  9
$DIMEXE
 40
1.5
  9
$DIMCEN
 40
2.673
  9
$DIMLFAC
 40
1.0
  9
$DIMBLK
  1
_FILLED
  9
$DIMALT
 70
0
  9
$DIMALTF
 40
0.0393700787
  9
$DIMTXT
 40
3.0
  9
$DIMTOL
 70
1
  9
$DIMLIM
 70
0
  9
$DIMTFAC
 40
1.0
  9
$DIMTP
 40
0.01
  9
$DIMTM
 40
0.01
  9
$DIMGAP
 40
0.625
  9
$DIMDSEP
 70
44
  9
$AUNITS
 70
0
  9
$PDMODE
 70
3
  9
$PDSIZE
 40
3.0
  9
$HANDSEED
  5
5CD
  9
$TILEMODE
 70
1
  9
$MEASUREMENT
 70
1
  9
$INSUNITS
 70
4
  0
ENDSEC
  0
SECTION
  2
CLASSES
  0
CLASS
  1
ACDBDICTIONARYWDFLT
  2
AcDbDictionaryWithDefault
  3
AutoCAD 2000
 90
0
 91
1
280
0
281
0
  0
CLASS
  1
ACDBPLACEHOLDER
  2
AcDbPlaceHolder
  3
AutoCAD 2000
 90
0
 91
1
280
0
281
0
  0
CLASS
  1
LAYOUT
  2
AcDbLayout
  3
AutoCAD 2000
 90
0
 91
0
280
0
281
0
  0
ENDSEC
  0
SECTION
  2
TABLES
  0
TABLE
  2
VPORT
  5
8
100
AcDbSymbolTable
 70
2
  0
VPORT
  5
1F4
100
AcDbSymbolTableRecord
100
AcDbViewportTableRecord
  2
*ACTIVE
 70
0
 10
0.0
 20
0.0
 11
1.0
 21
1.0
 12
148.5
 22
105.0
 13
0.0
 23
0.0
 14
1.0
 24
1.0
 15
0.0
 25
0.0
 16
0.0
 26
0.0
 36
1.0
 17
0.0
 27
0.0
 37
0.0
 40
210.0
 41
1.4142857143
 42
50.0
 43
0.0
 44
0.0
 50
0.0
 51
0.0
 71
0
 72
100
 73
1
 74
1
 75
0
 76
0
 77
0
 78
0
  0
ENDTAB
  0
TABLE
  2
LTYPE
  5
5
100
AcDbSymbolTable
 70
6
  0
LTYPE
  5
14
100
AcDbSymbolTableRecord
100
AcDbLinetypeTableRecord
  2
BYBLOCK
 70
0
  3

 72
65
 73
0
 40
0.0
  0
LTYPE
  5
15
100
AcDbSymbolTableRecord
100
AcDbLinetypeTableRecord
  2
BYLAYER
 70
0
  3

 72
65
 73
0
 40
0.0
  0
LTYPE
  5
16
100
AcDbSymbolTableRecord
100
AcDbLinetypeTableRecord
  2
CONTINUOUS
 70
64
  3
Solid line
 72
65
 73
0
 40
0.0
  0
LTYPE
  5
1F5
100
AcDbSymbolTableRecord
100
AcDbLinetypeTableRecord
  2
CENTER
 70
64
  3
____ _ ____ _ ____ _ ____ _ ____ _ ____ _ ____
 72
65
 73
4
 40
0.6
 49
0.375
 74
0
 49
-0.075
 74
0
 49
0.075
 74
0
 49
-0.075
 74
0
  0
LTYPE
  5
1F6
100
AcDbSymbolTableRecord
100
AcDbLinetypeTableRecord
  2
HIDDEN
 70
64
  3
- - - - - - - - - - - - - - - - - - - -
 72
65
 73
2
 40
0.2
 49
0.1
 74
0
 49
-0.1
 74
0
  0
LTYPE
  5
1F7
100
AcDbSymbolTableRecord
100
AcDbLinetypeTableRecord
  2
PHANTOM
 70
64
  3
_____ _ _ _____ _ _ _____ _ _ _____
 72
65
 73
6
 40
0.8
 49
0.45
 74
0
 49
-0.05
 74
0
 49
0.1
 74
0
 49
-0.05
 74
0
 49
0.1
 74
0
 49
-0.05
 74
0
  0
LTYPE
  5
1F8
100
AcDbSymbolTableRecord
100
AcDbLinetypeTableRecord
  2
DOT
 70
64
  3
. . . . . . . . . . . . . . . . . . . .
 72
65
 73
2
 40
0.2
 49
0.1
 74
0
 49
-0.1
 74
0
  0
LTYPE
  5
1F9
100
AcDbSymbolTableRecord
100
AcDbLinetypeTableRecord
  2
DASHED
 70
64
  3
- - - - - - - - - - - - - - - - - - - -
 72
65
 73
2
 40
0.2
 49
0.1
 74
0
 49
-0.1
 74
0
  0
ENDTAB
  0
TABLE
  2
LAYER
  5
2
100
AcDbSymbolTable
 70
36
  0
LAYER
  5
10
100
AcDbSymbolTableRecord
100
AcDbLayerTableRecord
  2
0
 70
0
 62
7
  6
CONTINUOUS
370
-3
390
F
  0
LAYER
  5
1FA
100
AcDbSymbolTableRecord
100
AcDbLayerTableRecord
  2
DEFAULT_1
 70
0
 62
7
  6
CENTER
370
-3
390
F
  0
LAYER
  5
1FB
100
AcDbSymbolTableRecord
100
AcDbLayerTableRecord
  2
DEFAULT_2
 70
0
 62
7
  6
HIDDEN
370
-3
390
F
  0
LAYER
  5
1FC
100
AcDbSymbolTableRecord
100
AcDbLayerTableRecord
  2
DEFAULT_3
 70
0
 62
7
  6
PHANTOM
370
-3
390
F
  0
LAYER
  5
1FD
100
AcDbSymbolTableRecord
100
AcDbLayerTableRecord
  2
ASSI
 70
0
 62
7
  6
CONTINUOUS
370
-3
390
F
  0
LAYER
  5
1FE
100
AcDbSymbolTableRecord
100
AcDbLayerTableRecord
  2
COORDINATE
 70
0
 62
7
  6
CONTINUOUS
370
-3
390
F
  0
LAYER
  5
1FF
100
AcDbSymbolTableRecord
100
AcDbLayerTableRecord
  2
COPY_PUBLISH
 70
0
 62
7
  6
CONTINUOUS
370
-3
390
F
  0
LAYER
  5
200
100
AcDbSymbolTableRecord
100
AcDbLayerTableRecord
  2
COSMETIC
 70
0
 62
7
  6
CONTINUOUS
370
-3
390
F
  0
LAYER
  5
201
100
AcDbSymbolTableRecord
100
AcDbLayerTableRecord
  2
COSMETICI
 70
0
 62
7
  6
CONTINUOUS
370
-3
390
F
  0
LAYER
  5
202
100
AcDbSymbolTableRecord
100
AcDbLayerTableRecord
  2
CURVE
 70
0
 62
7
  6
CONTINUOUS
370
-3
390
F
  0
LAYER
  5
203
100
AcDbSymbolTableRecord
100
AcDbLayerTableRecord
  2
CURVE_VERNICE
 70
0
 62
7
  6
CONTINUOUS
370
-3
390
F
  0
LAYER
  5
204
100
AcDbSymbolTableRecord
100
AcDbLayerTableRecord
  2
DRAFT
 70
0
 62
7
  6
CONTINUOUS
370
-3
390
F
  0
LAYER
  5
205
100
AcDbSymbolTableRecord
100
AcDbLayerTableRecord
  2
IMPORT_IGES
 70
0
 62
7
  6
CONTINUOUS
370
-3
390
F
  0
LAYER
  5
206
100
AcDbSymbolTableRecord
100
AcDbLayerTableRecord
  2
INTFCLR_1
 70
0
 62
7
  6
CONTINUOUS
370
-3
390
F
  0
LAYER
  5
207
100
AcDbSymbolTableRecord
100
AcDbLayerTableRecord
  2
INTF_1
 70
0
 62
7
  6
CONTINUOUS
370
-3
390
F
  0
LAYER
  5
208
100
AcDbSymbolTableRecord
100
AcDbLayerTableRecord
  2
NOTE
 70
0
 62
7
  6
CONTINUOUS
370
-3
390
F
  0
LAYER
  5
209
100
AcDbSymbolTableRecord
100
AcDbLayerTableRecord
  2
PIANI
 70
0
 62
7
  6
CONTINUOUS
370
-3
390
F
  0
LAYER
  5
20A
100
AcDbSymbolTableRecord
100
AcDbLayerTableRecord
  2
PUNTI
 70
0
 62
7
  6
CONTINUOUS
370
-3
390
F
  0
LAYER
  5
20B
100
AcDbSymbolTableRecord
100
AcDbLayerTableRecord
  2
RACCORDO
 70
0
 62
7
  6
CONTINUOUS
370
-3
390
F
  0
LAYER
  5
20C
100
AcDbSymbolTableRecord
100
AcDbLayerTableRecord
  2
SIMBOLI
 70
0
 62
7
  6
CONTINUOUS
370
-3
390
F
  0
LAYER
  5
20D
100
AcDbSymbolTableRecord
100
AcDbLayerTableRecord
  2
SMUSSO
 70
0
 62
7
  6
CONTINUOUS
370
-3
390
F
  0
LAYER
  5
20E
100
AcDbSymbolTableRecord
100
AcDbLayerTableRecord
  2
SNAPLINE
 70
0
 62
7
  6
CONTINUOUS
370
-3
390
F
  0
LAYER
  5
20F
100
AcDbSymbolTableRecord
100
AcDbLayerTableRecord
  2
SUPERFICI
 70
0
 62
7
  6
CONTINUOUS
370
-3
390
F
  0
LAYER
  5
210
100
AcDbSymbolTableRecord
100
AcDbLayerTableRecord
  2
TRASH
 70
0
 62
7
  6
CONTINUOUS
370
-3
390
F
  0
LAYER
  5
211
100
AcDbSymbolTableRecord
100
AcDbLayerTableRecord
  2
XSEC_DATUMS
 70
0
 62
7
  6
CONTINUOUS
370
-3
390
F
  0
ENDTAB
  0
TABLE
  2
STYLE
  5
3
100
AcDbSymbolTable
 70
1
  0
STYLE
  5
11
100
AcDbSymbolTableRecord
100
AcDbTextStyleTableRecord
  2
STANDARD
 70
0
 40
0.0
 41
0.8
 50
0.0
 71
0
 42
0.2
  3
txt
  4

  0
STYLE
  5
212
100
AcDbSymbolTableRecord
100
AcDbTextStyleTableRecord
  2
TEXTSTYLE_1
 70
0
 40
0.0
 41
0.8
 50
0.0
 71
0
 42
0.2
  3
gdt
  4

  0
ENDTAB
  0
TABLE
  2
VIEW
  5
6
100
AcDbSymbolTable
 70
0
  0
ENDTAB
  0
TABLE
  2
UCS
  5
7
100
AcDbSymbolTable
 70
0
  0
ENDTAB
  0
TABLE
  2
APPID
  5
9
100
AcDbSymbolTable
 70
1
  0
APPID
  5
213
100
AcDbSymbolTableRecord
100
AcDbRegAppTableRecord
  2
ACAD
 70
0
  0
ENDTAB
  0
TABLE
  2
BLOCK_RECORD
  5
1
100
AcDbSymbolTable
 70
0
  0
BLOCK_RECORD
  5
214
100
AcDbSymbolTableRecord
100
AcDbBlockTableRecord
  2
*Model_Space
  0
BLOCK_RECORD
  5
215
100
AcDbSymbolTableRecord
100
AcDbBlockTableRecord
  2
*Paper_Space
  0
BLOCK_RECORD
  5
216
100
AcDbSymbolTableRecord
100
AcDbBlockTableRecord
  2
_FILLED
  0
ENDTAB
  0
TABLE
  2
DIMSTYLE
  5
A
100
AcDbSymbolTable
 70
1
100
AcDbDimStyleTable
 71
0
  0
DIMSTYLE
105
217
100
AcDbSymbolTableRecord
100
AcDbDimStyleTableRecord
  2
STANDARD
 70
0
  3

  4

 40
1.0
 41
3.0
 42
0.5
 43
0.38
 44
1.5
 45
0.0
 46
0.0
 47
0.01
 48
0.01
140
3.0
141
0.09
142
0.0
143
25.4
144
1.0
145
0.0
146
1.0
147
0.625
 71
1
 72
0
 73
0
 74
0
 75
0
 76
0
 77
1
 78
8
 79
2
170
0
171
1
172
0
173
0
174
0
175
0
176
0
177
0
178
0
270
2
179
2
271
2
272
2
273
2
274
2
275
0
280
0
281
0
282
0
283
1
284
8
285
0
286
0
287
3
288
0
340
11
278
44
341
216
342
216
343
216
344
216
  0
ENDTAB
  0
ENDSEC
  0
SECTION
  2
BLOCKS
  0
BLOCK
  5
20
100
AcDbEntity
  8
0
100
AcDbBlockBegin
  2
*Model_Space
 70
0
 10
0.0
 20
0.0
 30
0.0
  3
*Model_Space
  1

  0
ENDBLK
  5
21
100
AcDbEntity
  8
0
100
AcDbBlockEnd
  0
BLOCK
  5
1C
100
AcDbEntity
  8
0
100
AcDbBlockBegin
  2
*Paper_Space
 70
0
 10
0.0
 20
0.0
 30
0.0
  3
*Paper_Space
  1

  0
ENDBLK
  5
1D
100
AcDbEntity
  8
0
100
AcDbBlockEnd
  0
BLOCK
  5
218
100
AcDbEntity
  8
0
100
AcDbBlockBegin
  2
_FILLED
 70
64
 10
0.0
 20
0.0
  3
_FILLED
  1

  0
SOLID
  5
219
100
AcDbEntity
  8
0
  6
BYBLOCK
 62
0
100
AcDbTrace
 10
0.0
 20
0.0
 11
-1.0
 21
0.3166666667
 12
-1.0
 22
-0.3166666667
 13
-1.0
 23
-0.3166666667
  0
ENDBLK
  5
21A
100
AcDbEntity
  8
0
  6
BYBLOCK
 62
0
100
AcDbBlockEnd
  0
ENDSEC
  0
SECTION
  2
ENTITIES
  0
LWPOLYLINE
  5
21B
100
AcDbEntity
  8
RACCORDO
100
AcDbPolyline
 62
7
  6
CONTINUOUS
 90
7
 70
0
 10
-72.8635454976
 20
78.9898665617
 10
-72.8879684159
 20
78.9717643081
 10
-72.9790313724
 20
78.8857289436
 10
-73.0556622399
 20
78.780497642
 10
-73.1158213151
 20
78.6576655751
 10
-73.1577362504
 20
78.5187282498
 10
-73.1724353988
 20
78.4354972417
  0
LWPOLYLINE
  5
21C
100
AcDbEntity
  8
ASSI
100
AcDbPolyline
 62
7
  6
CONTINUOUS
 90
7
 70
0
 10
-72.8635454976
 20
78.9898665617
 10
-72.8879684159
 20
78.9717643081
 10
-72.9790313724
 20
78.8857289436
 10
-73.0556622399
 20
78.780497642
 10
-73.1158213151
 20
78.6576655751
 10
-73.1577362504
 20
78.5187282498
 10
-73.1724353988
 20
78.4354972417
  0
LINE
  5
21D
100
AcDbEntity
  8
RACCORDO
100
AcDbLine
 62
7
  6
CONTINUOUS
 10
-72.8638346646
 20
78.9896656925
 11
-71.2555906217
 21
80.1236608488
  0
LINE
  5
21E
100
AcDbEntity
  8
ASSI
100
AcDbLine
 62
7
  6
CONTINUOUS
 10
-72.8638346646
 20
78.9896656925
 11
-71.2555906217
 21
80.1236608488
  0
LINE
  5
21F
100
AcDbEntity
  8
RACCORDO
100
AcDbLine
 62
250
  6
CONTINUOUS
 10
-72.3056830191
 20
78.9797089312
 11
-70.7306039432
 21
80.0903190097
  0
LINE
  5
220
100
AcDbEntity
  8
ASSI
100
AcDbLine
 62
250
  6
CONTINUOUS
 10
-72.3056830191
 20
78.9797089312
 11
-70.7306039432
 21
80.0903190097
  0
LWPOLYLINE
  5
221
100
AcDbEntity
  8
RACCORDO
100
AcDbPolyline
 62
7
  6
CONTINUOUS
 90
4
 70
0
 10
-73.1724382348
 20
78.4354998518
 10
-73.9170190282
 20
72.2284011096
 10
-74.4664296193
 20
66.0472103357
 10
-74.8075696487
 20
60.0359233709
  0
LWPOLYLINE
  5
222
100
AcDbEntity
  8
ASSI
100
AcDbPolyline
 62
7
  6
CONTINUOUS
 90
4
 70
0
 10
-73.1724382348
 20
78.4354998518
 10
-73.9170190282
 20
72.2284011096
 10
-74.4664296193
 20
66.0472103357
 10
-74.8075696487
 20
60.0359233709
  0
LWPOLYLINE
  5
223
100
AcDbEntity
  8
RACCORDO
100
AcDbPolyline
 62
7
  6
CONTINUOUS
 90
4
 70
0
 10
-74.8075423973
 20
23.0207544425
 10
-74.4666644786
 20
17.4497531573
 10
-73.9170738767
 20
11.9694299458
 10
-73.1712129825
 20
6.7075415276
  0
LWPOLYLINE
  5
224
100
AcDbEntity
  8
ASSI
100
AcDbPolyline
 62
7
  6
CONTINUOUS
 90
4
 70
0
 10
-74.8075423973
 20
23.0207544425
 10
-74.4666644786
 20
17.4497531573
 10
-73.9170738767
 20
11.9694299458
 10
-73.1712129825
 20
6.7075415276
  0
LINE
  5
225
100
AcDbEntity
  8
RACCORDO
100
AcDbLine
 62
7
  6
CONTINUOUS
 10
-74.8075342506
 20
23.0205666036
 11
-74.8075423973
 21
23.0207544425
  0
LWPOLYLINE
  5
226
100
AcDbEntity
  8
RACCORDO
100
AcDbPolyline
 62
7
  6
CONTINUOUS
 90
5
 70
0
 10
-74.8075696495
 20
60.0359234203
 10
-75.0939239834
 20
50.6360131648
 10
-75.1903429701
 20
41.2860708534
 10
-75.0940328531
 20
32.0594766572
 10
-74.8075423973
 20
23.0207543545
  0
LWPOLYLINE
  5
227
100
AcDbEntity
  8
ASSI
100
AcDbPolyline
 62
7
  6
CONTINUOUS
 90
5
 70
0
 10
-74.8075696495
 20
60.0359234203
 10
-75.0939239834
 20
50.6360131648
 10
-75.1903429701
 20
41.2860708534
 10
-75.0940328531
 20
32.0594766572
 10
-74.8075423973
 20
23.0207543545
  0
LINE
  5
228
100
AcDbEntity
  8
0
100
AcDbLine
 62
250
  6
CONTINUOUS
 10
-56.4186690249
 20
49.0304138001
 11
-55.8853622605
 21
49.2770023675
  0
LINE
  5
229
100
AcDbEntity
  8
ASSI
100
AcDbLine
 62
250
  6
CONTINUOUS
 10
-56.4186690249
 20
49.0304138001
 11
-55.8853622605
 21
49.2770023675
  0
LWPOLYLINE
  5
22A
100
AcDbEntity
  8
RACCORDO
100
AcDbPolyline
 62
7
  6
CONTINUOUS
 90
7
 70
0
 10
-73.1539801419
 20
6.6247545045
 10
-73.1060540305
 20
6.476860625
 10
-73.0396108239
 20
6.3323548908
 10
-72.9577012582
 20
6.1933617837
 10
-72.8631650932
 20
6.0624682903
 10
-72.7581196475
 20
5.9417012779
 10
-72.6437536211
 20
5.8327400307
  0
LWPOLYLINE
  5
22B
100
AcDbEntity
  8
ASSI
100
AcDbPolyline
 62
7
  6
CONTINUOUS
 90
7
 70
0
 10
-73.1539801419
 20
6.6247545045
 10
-73.1060540305
 20
6.476860625
 10
-73.0396108239
 20
6.3323548908
 10
-72.9577012582
 20
6.1933617837
 10
-72.8631650932
 20
6.0624682903
 10
-72.7581196475
 20
5.9417012779
 10
-72.6437536211
 20
5.8327400307
  0
LINE
  5
22C
100
AcDbEntity
  8
RACCORDO
100
AcDbLine
 62
7
  6
CONTINUOUS
 10
-73.1712418826
 20
6.7077350867
 11
-73.1539801419
 21
6.6247545045
  0
LINE
  5
22D
100
AcDbEntity
  8
ASSI
100
AcDbLine
 62
7
  6
CONTINUOUS
 10
-73.1712418826
 20
6.7077350867
 11
-73.1539801419
 21
6.6247545045
  0
LINE
  5
22E
100
AcDbEntity
  8
RACCORDO
100
AcDbLine
 62
7
  6
CONTINUOUS
 10
-73.171210474
 20
6.7075419367
 11
-73.1712418826
 21
6.7077350867
  0
LINE
  5
22F
100
AcDbEntity
  8
ASSI
100
AcDbLine
 62
7
  6
CONTINUOUS
 10
-73.171210474
 20
6.7075419367
 11
-73.1712418826
 21
6.7077350867
  0
LWPOLYLINE
  5
230
100
AcDbEntity
  8
RACCORDO
100
AcDbPolyline
 62
7
  6
CONTINUOUS
 90
7
 70
0
 10
-56.2056838388
 20
49.4195505769
 10
-56.2059650998
 20
49.4194551041
 10
-56.2005742173
 20
49.4200846708
 10
-56.1741446837
 20
49.4183894413
 10
-56.1271193869
 20
49.4064130375
 10
-56.0653009971
 20
49.3799333115
 10
-56.0367199272
 20
49.3643940631
  0
LWPOLYLINE
  5
231
100
AcDbEntity
  8
ASSI
100
AcDbPolyline
 62
7
  6
CONTINUOUS
 90
7
 70
0
 10
-56.2056838388
 20
49.4195505769
 10
-56.2059650998
 20
49.4194551041
 10
-56.2005742173
 20
49.4200846708
 10
-56.1741446837
 20
49.4183894413
 10
-56.1271193869
 20
49.4064130375
 10
-56.0653009971
 20
49.3799333115
 10
-56.0367199272
 20
49.3643940631
  0
LINE
  5
232
100
AcDbEntity
  8
0
100
AcDbLine
 62
7
  6
CONTINUOUS
 10
51.240116521
 20
-45.9774957228
 11
51.1509229432
 21
-46.0014097098
  0
LINE
  5
233
100
AcDbEntity
  8
ASSI
100
AcDbLine
 62
7
  6
CONTINUOUS
 10
51.240116521
 20
-45.9774957228
 11
51.1509229432
 21
-46.0014097098
  0
LINE
  5
234
100
AcDbEntity
  8
0
100
AcDbLine
 62
7
  6
CONTINUOUS
 10
-54.3601128935
 20
14.5456416573
 11
-54.3601128935
 21
48.3963424989
  0
LINE
  5
235
100
AcDbEntity
  8
ASSI
100
AcDbLine
 62
7
  6
CONTINUOUS
 10
-54.3601128935
 20
14.5456416573
 11
-54.3601128935
 21
48.3963424989
  0
LINE
  5
236
100
AcDbEntity
  8
ASSI
100
AcDbLine
 62
250
  6
CONTINUOUS
 10
-50.8952896657
 20
16.6287214566
 11
-50.8952896657
 21
46.3957969916
  0
LWPOLYLINE
  5
237
100
AcDbEntity
  8
0
100
AcDbPolyline
 62
7
  6
CONTINUOUS
 90
7
 70
0
 10
-42.0039462262
 20
7.8665868398
 10
-42.0040993082
 20
7.8761799745
 10
-42.0159232698
 20
7.9505027247
 10
-42.0468806917
 20
8.0222711446
 10
-42.0975228064
 20
8.0888035482
 10
-42.1671687873
 20
8.146425137
 10
-42.1918055827
 20
8.1616664614
  0
LWPOLYLINE
  5
238
100
AcDbEntity
  8
ASSI
100
AcDbPolyline
 62
7
  6
CONTINUOUS
 90
7
 70
0
 10
-42.0039462262
 20
7.8665868398
 10
-42.0040993082
 20
7.8761799745
 10
-42.0159232698
 20
7.9505027247
 10
-42.0468806917
 20
8.0222711446
 10
-42.0975228064
 20
8.0888035482
 10
-42.1671687873
 20
8.146425137
 10
-42.1918055827
 20
8.1616664614
  0
LINE
  5
239
100
AcDbEntity
  8
0
100
AcDbLine
 62
250
  6
CONTINUOUS
 10
-42.138256369
 20
7.6711659173
 11
-42.1382563267
 21
7.0822976539
  0
LINE
  5
23A
100
AcDbEntity
  8
ASSI
100
AcDbLine
 62
250
  6
CONTINUOUS
 10
-42.138256369
 20
7.6711659173
 11
-42.1382563267
 21
7.0822976539
  0
LINE
  5
23B
100
AcDbEntity
  8
0
100
AcDbLine
 62
7
  6
CONTINUOUS
 10
-42.0039434586
 20
7.8666136299
 11
-42.0039434586
 21
7.2849205029
  0
LINE
  5
23C
100
AcDbEntity
  8
ASSI
100
AcDbLine
 62
7
  6
CONTINUOUS
 10
-42.0039434586
 20
7.8666136299
 11
-42.0039434586
 21
7.2849205029
  0
LINE
  5
23D
100
AcDbEntity
  8
0
100
AcDbLine
 62
250
  6
CONTINUOUS
 10
-56.4186690953
 20
13.3570593155
 11
-54.3601128935
 21
14.5456416573
  0
LINE
  5
23E
100
AcDbEntity
  8
ASSI
100
AcDbLine
 62
250
  6
CONTINUOUS
 10
-56.4186690953
 20
13.3570593155
 11
-54.3601128935
 21
14.5456416573
  0
LINE
  5
23F
100
AcDbEntity
  8
0
100
AcDbLine
 62
250
  6
CONTINUOUS
 10
-55.8051387295
 20
12.4066947643
 11
-53.7952027208
 21
13.5671885375
  0
LINE
  5
240
100
AcDbEntity
  8
ASSI
100
AcDbLine
 62
250
  6
CONTINUOUS
 10
-55.8051387295
 20
12.4066947643
 11
-53.7952027208
 21
13.5671885375
  0
LINE
  5
241
100
AcDbEntity
  8
0
100
AcDbLine
 62
7
  6
CONTINUOUS
 10
35.3302139443
 20
-36.4647292622
 11
35.2410203665
 21
-36.4886432492
  0
LINE
  5
242
100
AcDbEntity
  8
ASSI
100
AcDbLine
 62
7
  6
CONTINUOUS
 10
35.3302139443
 20
-36.4647292622
 11
35.2410203665
 21
-36.4886432492
  0
LWPOLYLINE
  5
243
100
AcDbEntity
  8
0
100
AcDbPolyline
 62
7
  6
CONTINUOUS
 90
4
 70
0
 10
51.5227630629
 20
-45.980919131
 10
51.4293513195
 20
-45.9672274813
 10
51.3340101645
 20
-45.9660721282
 10
51.240116521
 20
-45.9774957228
  0
LWPOLYLINE
  5
244
100
AcDbEntity
  8
ASSI
100
AcDbPolyline
 62
7
  6
CONTINUOUS
 90
4
 70
0
 10
51.5227630629
 20
-45.980919131
 10
51.4293513195
 20
-45.9672274813
 10
51.3340101645
 20
-45.9660721282
 10
51.240116521
 20
-45.9774957228
  0
LWPOLYLINE
  5
245
100
AcDbEntity
  8
RACCORDO
100
AcDbPolyline
 62
7
  6
CONTINUOUS
 90
3
 70
0
 10
-72.6437536211
 20
5.8327400307
 10
-72.5206765856
 20
5.7377409464
 10
-72.4444696077
 20
5.689700751
  0
LWPOLYLINE
  5
246
100
AcDbEntity
  8
ASSI
100
AcDbPolyline
 62
7
  6
CONTINUOUS
 90
3
 70
0
 10
-72.6437536211
 20
5.8327400307
 10
-72.5206765856
 20
5.7377409464
 10
-72.4444696077
 20
5.689700751
  0
LWPOLYLINE
  5
247
100
AcDbEntity
  8
0
100
AcDbPolyline
 62
7
  6
CONTINUOUS
 90
6
 70
0
 10
-42.1742355017
 20
6.9942123882
 10
-42.1197519934
 20
7.0365244957
 10
-42.0666342366
 20
7.0959283297
 10
-42.0296580257
 20
7.161101415
 10
-42.0088829465
 20
7.2299848754
 10
-42.0039462228
 20
7.2849134249
  0
LWPOLYLINE
  5
248
100
AcDbEntity
  8
ASSI
100
AcDbPolyline
 62
7
  6
CONTINUOUS
 90
6
 70
0
 10
-42.1742355017
 20
6.9942123882
 10
-42.1197519934
 20
7.0365244957
 10
-42.0666342366
 20
7.0959283297
 10
-42.0296580257
 20
7.161101415
 10
-42.0088829465
 20
7.2299848754
 10
-42.0039462228
 20
7.2849134249
  0
LINE
  5
249
100
AcDbEntity
  8
0
100
AcDbLine
 62
250
  6
CONTINUOUS
 10
-42.1382563267
 20
7.0822976539
 11
-42.3366540007
 21
6.9511661158
  0
LINE
  5
24A
100
AcDbEntity
  8
ASSI
100
AcDbLine
 62
250
  6
CONTINUOUS
 10
-42.1382563267
 20
7.0822976539
 11
-42.3366540007
 21
6.9511661158
  0
LINE
  5
24B
100
AcDbEntity
  8
0
100
AcDbLine
 62
7
  6
CONTINUOUS
 10
-42.1742581707
 20
6.9941975767
 11
-42.2847259954
 21
6.9211835364
  0
LINE
  5
24C
100
AcDbEntity
  8
ASSI
100
AcDbLine
 62
7
  6
CONTINUOUS
 10
-42.1742581707
 20
6.9941975767
 11
-42.2847259954
 21
6.9211835364
  0
LINE
  5
24D
100
AcDbEntity
  8
0
100
AcDbLine
 62
250
  6
CONTINUOUS
 10
-43.1209543493
 20
7.4040113075
 11
-42.2833032297
 21
7.9139155479
  0
LINE
  5
24E
100
AcDbEntity
  8
ASSI
100
AcDbLine
 62
250
  6
CONTINUOUS
 10
-43.1209543493
 20
7.4040113075
 11
-42.2833032297
 21
7.9139155479
  0
LINE
  5
24F
100
AcDbEntity
  8
0
100
AcDbLine
 62
250
  6
CONTINUOUS
 10
-42.8418556298
 20
7.2428632048
 11
-42.138256369
 21
7.6711659173
  0
LINE
  5
250
100
AcDbEntity
  8
ASSI
100
AcDbLine
 62
250
  6
CONTINUOUS
 10
-42.8418556298
 20
7.2428632048
 11
-42.138256369
 21
7.6711659173
  0
LINE
  5
251
100
AcDbEntity
  8
0
100
AcDbLine
 62
7
  6
CONTINUOUS
 10
-44.3819168752
 20
9.0837538053
 11
-45.2423286112
 21
8.6288662193
  0
LINE
  5
252
100
AcDbEntity
  8
ASSI
100
AcDbLine
 62
7
  6
CONTINUOUS
 10
-44.3819168752
 20
9.0837538053
 11
-45.2423286112
 21
8.6288662193
  0
LINE
  5
253
100
AcDbEntity
  8
0
100
AcDbLine
 62
250
  6
CONTINUOUS
 10
-44.2872054668
 20
9.0709435848
 11
-45.1854763173
 21
8.5960404173
  0
LINE
  5
254
100
AcDbEntity
  8
ASSI
100
AcDbLine
 62
250
  6
CONTINUOUS
 10
-44.2872054668
 20
9.0709435848
 11
-45.1854763173
 21
8.5960404173
  0
LWPOLYLINE
  5
255
100
AcDbEntity
  8
0
100
AcDbPolyline
 62
7
  6
CONTINUOUS
 90
4
 70
0
 10
35.6128604862
 20
-36.4681526705
 10
35.5194487428
 20
-36.4544610207
 10
35.4241075878
 20
-36.4533056676
 10
35.3302139443
 20
-36.4647292622
  0
LWPOLYLINE
  5
256
100
AcDbEntity
  8
ASSI
100
AcDbPolyline
 62
7
  6
CONTINUOUS
 90
4
 70
0
 10
35.6128604862
 20
-36.4681526705
 10
35.5194487428
 20
-36.4544610207
 10
35.4241075878
 20
-36.4533056676
 10
35.3302139443
 20
-36.4647292622
  0
LINE
  5
257
100
AcDbEntity
  8
0
100
AcDbLine
 62
7
  6
CONTINUOUS
 10
51.6110316642
 20
-46.0069837971
 11
51.5227630629
 21
-45.980919131
  0
LINE
  5
258
100
AcDbEntity
  8
ASSI
100
AcDbLine
 62
7
  6
CONTINUOUS
 10
51.6110316642
 20
-46.0069837971
 11
51.5227630629
 21
-45.980919131
  0
LWPOLYLINE
  5
259
100
AcDbEntity
  8
RACCORDO
100
AcDbPolyline
 62
7
  6
CONTINUOUS
 90
7
 70
0
 10
74.4612989705
 20
-79.1318490931
 10
74.519144909
 20
-79.162910378
 10
74.6341111186
 20
-79.2104393367
 10
74.7465567119
 20
-79.23769173
 10
74.8562779328
 20
-79.2442222313
 10
74.9612851397
 20
-79.2293156319
 10
75.0432957672
 20
-79.2003425411
  0
LWPOLYLINE
  5
25A
100
AcDbEntity
  8
ASSI
100
AcDbPolyline
 62
7
  6
CONTINUOUS
 90
7
 70
0
 10
74.4612989705
 20
-79.1318490931
 10
74.519144909
 20
-79.162910378
 10
74.6341111186
 20
-79.2104393367
 10
74.7465567119
 20
-79.23769173
 10
74.8562779328
 20
-79.2442222313
 10
74.9612851397
 20
-79.2293156319
 10
75.0432957672
 20
-79.2003425411
  0
LINE
  5
25B
100
AcDbEntity
  8
RACCORDO
100
AcDbLine
 62
7
  6
CONTINUOUS
 10
-72.4445881342
 20
5.6897656549
 11
74.4613370669
 21
-79.1318743926
  0
LINE
  5
25C
100
AcDbEntity
  8
ASSI
100
AcDbLine
 62
7
  6
CONTINUOUS
 10
-72.4445881342
 20
5.6897656549
 11
74.4613370669
 21
-79.1318743926
  0
LINE
  5
25D
100
AcDbEntity
  8
RACCORDO
100
AcDbLine
 62
250
  6
CONTINUOUS
 10
-72.5031875255
 20
5.7846524
 11
74.4027376342
 21
-79.0369876236
  0
LINE
  5
25E
100
AcDbEntity
  8
ASSI
100
AcDbLine
 62
250
  6
CONTINUOUS
 10
-72.5031875255
 20
5.7846524
 11
74.4027376342
 21
-79.0369876236
  0
LINE
  5
25F
100
AcDbEntity
  8
RACCORDO
100
AcDbLine
 62
7
  6
CONTINUOUS
 10
74.4612975453
 20
-79.1318515613
 11
74.4613370561
 21
-79.1318743863
  0
LINE
  5
260
100
AcDbEntity
  8
ASSI
100
AcDbLine
 62
7
  6
CONTINUOUS
 10
74.4612975453
 20
-79.1318515613
 11
74.4613370561
 21
-79.1318743863
  0
LWPOLYLINE
  5
261
100
AcDbEntity
  8
0
100
AcDbPolyline
 62
7
  6
CONTINUOUS
 90
7
 70
0
 10
-26.0940436495
 20
-0.9930033993
 10
-26.0941967315
 20
-0.9834102646
 10
-26.1060206931
 20
-0.9090875145
 10
-26.136978115
 20
-0.8373190945
 10
-26.1876202297
 20
-0.7707866909
 10
-26.2572662106
 20
-0.7131651021
 10
-26.281903006
 20
-0.6979237777
  0
LWPOLYLINE
  5
262
100
AcDbEntity
  8
ASSI
100
AcDbPolyline
 62
7
  6
CONTINUOUS
 90
7
 70
0
 10
-26.0940436495
 20
-0.9930033993
 10
-26.0941967315
 20
-0.9834102646
 10
-26.1060206931
 20
-0.9090875145
 10
-26.136978115
 20
-0.8373190945
 10
-26.1876202297
 20
-0.7707866909
 10
-26.2572662106
 20
-0.7131651021
 10
-26.281903006
 20
-0.6979237777
  0
LINE
  5
263
100
AcDbEntity
  8
0
100
AcDbLine
 62
250
  6
CONTINUOUS
 10
-26.2283537923
 20
-1.1884243218
 11
-26.2283640311
 21
-1.7772993806
  0
LINE
  5
264
100
AcDbEntity
  8
ASSI
100
AcDbLine
 62
250
  6
CONTINUOUS
 10
-26.2283537923
 20
-1.1884243218
 11
-26.2283640311
 21
-1.7772993806
  0
LINE
  5
265
100
AcDbEntity
  8
0
100
AcDbLine
 62
7
  6
CONTINUOUS
 10
-26.0940408819
 20
-0.9929766093
 11
-26.0940408819
 21
-1.5746697398
  0
LINE
  5
266
100
AcDbEntity
  8
ASSI
100
AcDbLine
 62
7
  6
CONTINUOUS
 10
-26.0940408819
 20
-0.9929766093
 11
-26.0940408819
 21
-1.5746697398
  0
LINE
  5
267
100
AcDbEntity
  8
0
100
AcDbLine
 62
7
  6
CONTINUOUS
 10
-44.3080078224
 20
9.1158304822
 11
-44.3819440083
 21
9.0837396094
  0
LINE
  5
268
100
AcDbEntity
  8
ASSI
100
AcDbLine
 62
7
  6
CONTINUOUS
 10
-44.3080078224
 20
9.1158304822
 11
-44.3819440083
 21
9.0837396094
  0
LINE
  5
269
100
AcDbEntity
  8
0
100
AcDbLine
 62
7
  6
CONTINUOUS
 10
35.7011290875
 20
-36.4942173365
 11
35.6128604862
 21
-36.4681526705
  0
LINE
  5
26A
100
AcDbEntity
  8
ASSI
100
AcDbLine
 62
7
  6
CONTINUOUS
 10
35.7011290875
 20
-36.4942173365
 11
35.6128604862
 21
-36.4681526705
  0
LINE
  5
26B
100
AcDbEntity
  8
0
100
AcDbLine
 62
7
  6
CONTINUOUS
 10
51.6877280097
 20
-46.0431986768
 11
51.6110316642
 21
-46.0069837971
  0
LINE
  5
26C
100
AcDbEntity
  8
ASSI
100
AcDbLine
 62
7
  6
CONTINUOUS
 10
51.6877280097
 20
-46.0431986768
 11
51.6110316642
 21
-46.0069837971
  0
LINE
  5
26D
100
AcDbEntity
  8
0
100
AcDbLine
 62
7
  6
CONTINUOUS
 10
3.4234003472
 20
-26.9399935519
 11
3.0259125808
 21
-26.7104890973
  0
LINE
  5
26E
100
AcDbEntity
  8
ASSI
100
AcDbLine
 62
7
  6
CONTINUOUS
 10
3.4234003472
 20
-26.9399935519
 11
3.0259125808
 21
-26.7104890973
  0
LINE
  5
26F
100
AcDbEntity
  8
0
100
AcDbLine
 62
7
  6
CONTINUOUS
 10
2.3930942422
 20
-26.3451077197
 11
1.9815181139
 21
-26.1074688215
  0
LINE
  5
270
100
AcDbEntity
  8
ASSI
100
AcDbLine
 62
7
  6
CONTINUOUS
 10
2.3930942422
 20
-26.3451077197
 11
1.9815181139
 21
-26.1074688215
  0
LINE
  5
271
100
AcDbEntity
  8
0
100
AcDbLine
 62
7
  6
CONTINUOUS
 10
1.7682470483
 20
-25.9843285172
 11
1.3327102833
 21
-25.7328550476
  0
LINE
  5
272
100
AcDbEntity
  8
ASSI
100
AcDbLine
 62
7
  6
CONTINUOUS
 10
1.7682470483
 20
-25.9843285172
 11
1.3327102833
 21
-25.7328550476
  0
LINE
  5
273
100
AcDbEntity
  8
0
100
AcDbLine
 62
7
  6
CONTINUOUS
 10
0.5488689814
 20
-25.2802749037
 11
0.1401138857
 21
-25.0442648344
  0
LINE
  5
274
100
AcDbEntity
  8
ASSI
100
AcDbLine
 62
7
  6
CONTINUOUS
 10
0.5488689814
 20
-25.2802749037
 11
0.1401138857
 21
-25.0442648344
  0
LINE
  5
275
100
AcDbEntity
  8
0
100
AcDbLine
 62
7
  6
CONTINUOUS
 10
-0.0732683135
 20
-24.9210606269
 11
-0.4775255029
 21
-24.6876475922
  0
LINE
  5
276
100
AcDbEntity
  8
ASSI
100
AcDbLine
 62
7
  6
CONTINUOUS
 10
-0.0732683135
 20
-24.9210606269
 11
-0.4775255029
 21
-24.6876475922
  0
LINE
  5
277
100
AcDbEntity
  8
0
100
AcDbLine
 62
7
  6
CONTINUOUS
 10
-1.0537680321
 20
-24.3549323779
 11
-1.1117246252
 21
-24.3214689674
  0
LINE
  5
278
100
AcDbEntity
  8
ASSI
100
AcDbLine
 62
7
  6
CONTINUOUS
 10
-1.0537680321
 20
-24.3549323779
 11
-1.1117246252
 21
-24.3214689674
  0
LINE
  5
279
100
AcDbEntity
  8
0
100
AcDbLine
 62
7
  6
CONTINUOUS
 10
-1.6856803711
 20
-23.9900741131
 11
-2.0810159943
 21
-23.761812279
  0
LINE
  5
27A
100
AcDbEntity
  8
ASSI
100
AcDbLine
 62
7
  6
CONTINUOUS
 10
-1.6856803711
 20
-23.9900741131
 11
-2.0810159943
 21
-23.761812279
  0
LINE
  5
27B
100
AcDbEntity
  8
0
100
AcDbLine
 62
7
  6
CONTINUOUS
 10
-2.2964042553
 20
-23.6374497965
 11
-2.7096431151
 21
-23.3988508579
  0
LINE
  5
27C
100
AcDbEntity
  8
ASSI
100
AcDbLine
 62
7
  6
CONTINUOUS
 10
-2.2964042553
 20
-23.6374497965
 11
-2.7096431151
 21
-23.3988508579
  0
LINE
  5
27D
100
AcDbEntity
  8
0
100
AcDbLine
 62
7
  6
CONTINUOUS
 10
-3.5559169961
 20
-22.9102229253
 11
-3.9200840595
 21
-22.699957427
  0
LINE
  5
27E
100
AcDbEntity
  8
ASSI
100
AcDbLine
 62
7
  6
CONTINUOUS
 10
-3.5559169961
 20
-22.9102229253
 11
-3.9200840595
 21
-22.699957427
  0
LINE
  5
27F
100
AcDbEntity
  8
0
100
AcDbLine
 62
7
  6
CONTINUOUS
 10
-3.8136096444
 20
-22.6384804342
 11
-3.5283991185
 21
-22.8031574173
  0
LINE
  5
280
100
AcDbEntity
  8
ASSI
100
AcDbLine
 62
7
  6
CONTINUOUS
 10
-3.8136096444
 20
-22.6384804342
 11
-3.5283991185
 21
-22.8031574173
  0
LINE
  5
281
100
AcDbEntity
  8
0
100
AcDbLine
 62
7
  6
CONTINUOUS
 10
-2.6031687
 20
-23.3373738651
 11
-2.3062941298
 21
-23.5087855212
  0
LINE
  5
282
100
AcDbEntity
  8
ASSI
100
AcDbLine
 62
7
  6
CONTINUOUS
 10
-2.6031687
 20
-23.3373738651
 11
-2.3062941298
 21
-23.5087855212
  0
LINE
  5
283
100
AcDbEntity
  8
0
100
AcDbLine
 62
7
  6
CONTINUOUS
 10
-1.9745415791
 20
-23.7003352861
 11
-1.6875488816
 21
-23.8660412728
  0
LINE
  5
284
100
AcDbEntity
  8
ASSI
100
AcDbLine
 62
7
  6
CONTINUOUS
 10
-1.9745415791
 20
-23.7003352861
 11
-1.6875488816
 21
-23.8660412728
  0
LINE
  5
285
100
AcDbEntity
  8
0
100
AcDbLine
 62
7
  6
CONTINUOUS
 10
-0.3710510878
 20
-24.6261705994
 11
-0.0940406453
 21
-24.7861129571
  0
LINE
  5
286
100
AcDbEntity
  8
ASSI
100
AcDbLine
 62
7
  6
CONTINUOUS
 10
-0.3710510878
 20
-24.6261705994
 11
-0.0940406453
 21
-24.7861129571
  0
LINE
  5
287
100
AcDbEntity
  8
0
100
AcDbLine
 62
7
  6
CONTINUOUS
 10
0.2465883008
 20
-24.9827878415
 11
0.5723769744
 21
-25.1708941385
  0
LINE
  5
288
100
AcDbEntity
  8
ASSI
100
AcDbLine
 62
7
  6
CONTINUOUS
 10
0.2465883008
 20
-24.9827878415
 11
0.5723769744
 21
-25.1708941385
  0
LINE
  5
289
100
AcDbEntity
  8
0
100
AcDbLine
 62
7
  6
CONTINUOUS
 10
1.4391846985
 20
-25.6713780548
 11
1.7226502493
 21
-25.8350475112
  0
LINE
  5
28A
100
AcDbEntity
  8
ASSI
100
AcDbLine
 62
7
  6
CONTINUOUS
 10
1.4391846985
 20
-25.6713780548
 11
1.7226502493
 21
-25.8350475112
  0
LINE
  5
28B
100
AcDbEntity
  8
0
100
AcDbLine
 62
7
  6
CONTINUOUS
 10
2.0879925291
 20
-26.0459918286
 11
2.3830563262
 21
-26.216357967
  0
LINE
  5
28C
100
AcDbEntity
  8
ASSI
100
AcDbLine
 62
7
  6
CONTINUOUS
 10
2.0879925291
 20
-26.0459918286
 11
2.3830563262
 21
-26.216357967
  0
LINE
  5
28D
100
AcDbEntity
  8
0
100
AcDbLine
 62
7
  6
CONTINUOUS
 10
3.132386996
 20
-26.6490121044
 11
3.3825137173
 21
-26.7934321385
  0
LINE
  5
28E
100
AcDbEntity
  8
ASSI
100
AcDbLine
 62
7
  6
CONTINUOUS
 10
3.132386996
 20
-26.6490121044
 11
3.3825137173
 21
-26.7934321385
  0
LINE
  5
28F
100
AcDbEntity
  8
0
100
AcDbLine
 62
7
  6
CONTINUOUS
 10
1.1916274411
 20
-25.234353931
 11
0.6288644884
 21
-24.9094216552
  0
LINE
  5
290
100
AcDbEntity
  8
ASSI
100
AcDbLine
 62
7
  6
CONTINUOUS
 10
1.1916274411
 20
-25.234353931
 11
0.6288644884
 21
-24.9094216552
  0
LINE
  5
291
100
AcDbEntity
  8
0
100
AcDbLine
 62
7
  6
CONTINUOUS
 10
0.7353081605
 20
-24.847962413
 11
1.2980711131
 21
-25.1728946888
  0
LINE
  5
292
100
AcDbEntity
  8
ASSI
100
AcDbLine
 62
7
  6
CONTINUOUS
 10
0.7353081605
 20
-24.847962413
 11
1.2980711131
 21
-25.1728946888
  0
LINE
  5
293
100
AcDbEntity
  8
0
100
AcDbLine
 62
7
  6
CONTINUOUS
 10
1.0836225401
 20
-24.8482313315
 11
0.6879757899
 21
-24.6197898566
  0
LINE
  5
294
100
AcDbEntity
  8
ASSI
100
AcDbLine
 62
7
  6
CONTINUOUS
 10
1.0836225401
 20
-24.8482313315
 11
0.6879757899
 21
-24.6197898566
  0
LINE
  5
295
100
AcDbEntity
  8
0
100
AcDbLine
 62
7
  6
CONTINUOUS
 10
2.5492042508
 20
-25.6162686732
 11
2.3276354399
 21
-25.4883376187
  0
LINE
  5
296
100
AcDbEntity
  8
ASSI
100
AcDbLine
 62
7
  6
CONTINUOUS
 10
2.5492042508
 20
-25.6162686732
 11
2.3276354399
 21
-25.4883376187
  0
LINE
  5
297
100
AcDbEntity
  8
0
100
AcDbLine
 62
7
  6
CONTINUOUS
 10
2.434050739
 20
-25.4268947586
 11
2.65561955
 21
-25.5548258132
  0
LINE
  5
298
100
AcDbEntity
  8
ASSI
100
AcDbLine
 62
7
  6
CONTINUOUS
 10
2.434050739
 20
-25.4268947586
 11
2.65561955
 21
-25.5548258132
  0
LINE
  5
299
100
AcDbEntity
  8
0
100
AcDbLine
 62
7
  6
CONTINUOUS
 10
2.5242209676
 20
-25.2573512142
 11
2.2880590483
 21
-25.1209942818
  0
LINE
  5
29A
100
AcDbEntity
  8
ASSI
100
AcDbLine
 62
7
  6
CONTINUOUS
 10
2.5242209676
 20
-25.2573512142
 11
2.2880590483
 21
-25.1209942818
  0
LINE
  5
29B
100
AcDbEntity
  8
0
100
AcDbLine
 62
7
  6
CONTINUOUS
 10
1.0037344327
 20
-23.4384437873
 11
0.6039751495
 21
-23.2076277873
  0
LINE
  5
29C
100
AcDbEntity
  8
ASSI
100
AcDbLine
 62
7
  6
CONTINUOUS
 10
1.0037344327
 20
-23.4384437873
 11
0.6039751495
 21
-23.2076277873
  0
LINE
  5
29D
100
AcDbEntity
  8
0
100
AcDbLine
 62
7
  6
CONTINUOUS
 10
-0.4154868599
 20
-22.6190032
 11
-0.8243459003
 21
-22.3829331142
  0
LINE
  5
29E
100
AcDbEntity
  8
ASSI
100
AcDbLine
 62
7
  6
CONTINUOUS
 10
-0.4154868599
 20
-22.6190032
 11
-0.8243459003
 21
-22.3829331142
  0
LINE
  5
29F
100
AcDbEntity
  8
0
100
AcDbLine
 62
7
  6
CONTINUOUS
 10
-1.6464593568
 20
-21.908255108
 11
-2.059356684
 21
-21.6698533661
  0
LINE
  5
2A0
100
AcDbEntity
  8
ASSI
100
AcDbLine
 62
7
  6
CONTINUOUS
 10
-1.6464593568
 20
-21.908255108
 11
-2.059356684
 21
-21.6698533661
  0
LINE
  5
2A1
100
AcDbEntity
  8
0
100
AcDbLine
 62
7
  6
CONTINUOUS
 10
-3.0766606035
 20
-21.0824748328
 11
-3.4896173276
 21
-20.8440387958
  0
LINE
  5
2A2
100
AcDbEntity
  8
ASSI
100
AcDbLine
 62
7
  6
CONTINUOUS
 10
-3.0766606035
 20
-21.0824748328
 11
-3.4896173276
 21
-20.8440387958
  0
LINE
  5
2A3
100
AcDbEntity
  8
0
100
AcDbLine
 62
7
  6
CONTINUOUS
 10
-4.2558742982
 20
-20.4016116244
 11
-4.704779624
 21
-20.1424193154
  0
LINE
  5
2A4
100
AcDbEntity
  8
ASSI
100
AcDbLine
 62
7
  6
CONTINUOUS
 10
-4.2558742982
 20
-20.4016116244
 11
-4.704779624
 21
-20.1424193154
  0
LINE
  5
2A5
100
AcDbEntity
  8
0
100
AcDbLine
 62
7
  6
CONTINUOUS
 10
-2.4535078427
 20
-21.4421479885
 11
-2.8667467025
 21
-21.20354905
  0
LINE
  5
2A6
100
AcDbEntity
  8
ASSI
100
AcDbLine
 62
7
  6
CONTINUOUS
 10
-2.4535078427
 20
-21.4421479885
 11
-2.8667467025
 21
-21.20354905
  0
LWPOLYLINE
  5
2A7
100
AcDbEntity
  8
0
100
AcDbPolyline
 62
7
  6
CONTINUOUS
 90
6
 70
0
 10
-26.2643211855
 20
-1.8653669745
 10
-26.2086929809
 20
-1.8220053943
 10
-26.1545472516
 20
-1.7605923615
 10
-26.117625349
 20
-1.6934046377
 10
-26.0978010754
 20
-1.6226316718
 10
-26.0940431371
 20
-1.5747198629
  0
LWPOLYLINE
  5
2A8
100
AcDbEntity
  8
ASSI
100
AcDbPolyline
 62
7
  6
CONTINUOUS
 90
6
 70
0
 10
-26.2643211855
 20
-1.8653669745
 10
-26.2086929809
 20
-1.8220053943
 10
-26.1545472516
 20
-1.7605923615
 10
-26.117625349
 20
-1.6934046377
 10
-26.0978010754
 20
-1.6226316718
 10
-26.0940431371
 20
-1.5747198629
  0
LINE
  5
2A9
100
AcDbEntity
  8
0
100
AcDbLine
 62
250
  6
CONTINUOUS
 10
-26.6904818915
 20
-2.0827375674
 11
-26.2283640311
 21
-1.7772993806
  0
LINE
  5
2AA
100
AcDbEntity
  8
ASSI
100
AcDbLine
 62
250
  6
CONTINUOUS
 10
-26.6904818915
 20
-2.0827375674
 11
-26.2283640311
 21
-1.7772993806
  0
LINE
  5
2AB
100
AcDbEntity
  8
0
100
AcDbLine
 62
7
  6
CONTINUOUS
 10
-26.6385538863
 20
-2.1127201468
 11
-26.264355598
 21
-1.8653926651
  0
LINE
  5
2AC
100
AcDbEntity
  8
ASSI
100
AcDbLine
 62
7
  6
CONTINUOUS
 10
-26.6385538863
 20
-2.1127201468
 11
-26.264355598
 21
-1.8653926651
  0
LINE
  5
2AD
100
AcDbEntity
  8
0
100
AcDbLine
 62
250
  6
CONTINUOUS
 10
-27.486393661
 20
-1.6231880868
 11
-26.373400653
 21
-0.9456746912
  0
LINE
  5
2AE
100
AcDbEntity
  8
ASSI
100
AcDbLine
 62
250
  6
CONTINUOUS
 10
-27.486393661
 20
-1.6231880868
 11
-26.373400653
 21
-0.9456746912
  0
LINE
  5
2AF
100
AcDbEntity
  8
0
100
AcDbLine
 62
250
  6
CONTINUOUS
 10
-27.2072949416
 20
-1.7843361895
 11
-26.2283537923
 21
-1.1884243218
  0
LINE
  5
2B0
100
AcDbEntity
  8
ASSI
100
AcDbLine
 62
250
  6
CONTINUOUS
 10
-27.2072949416
 20
-1.7843361895
 11
-26.2283537923
 21
-1.1884243218
  0
LINE
  5
2B1
100
AcDbEntity
  8
0
100
AcDbLine
 62
7
  6
CONTINUOUS
 10
-28.4720142985
 20
0.2241635661
 11
-29.6276940602
 21
-0.3868280731
  0
LINE
  5
2B2
100
AcDbEntity
  8
ASSI
100
AcDbLine
 62
7
  6
CONTINUOUS
 10
-28.4720142985
 20
0.2241635661
 11
-29.6276940602
 21
-0.3868280731
  0
LINE
  5
2B3
100
AcDbEntity
  8
0
100
AcDbLine
 62
250
  6
CONTINUOUS
 10
-28.3773028901
 20
0.2113533457
 11
-29.5708417664
 21
-0.4196538751
  0
LINE
  5
2B4
100
AcDbEntity
  8
ASSI
100
AcDbLine
 62
250
  6
CONTINUOUS
 10
-28.3773028901
 20
0.2113533457
 11
-29.5708417664
 21
-0.4196538751
  0
LINE
  5
2B5
100
AcDbEntity
  8
0
100
AcDbLine
 62
7
  6
CONTINUOUS
 10
-28.3981052457
 20
0.256240243
 11
-28.4720414316
 21
0.2241493703
  0
LINE
  5
2B6
100
AcDbEntity
  8
ASSI
100
AcDbLine
 62
7
  6
CONTINUOUS
 10
-28.3981052457
 20
0.256240243
 11
-28.4720414316
 21
0.2241493703
  0
LINE
  5
2B7
100
AcDbEntity
  8
0
100
AcDbLine
 62
7
  6
CONTINUOUS
 10
35.777825433
 20
-36.5304322162
 11
35.7011290875
 21
-36.4942173365
  0
LINE
  5
2B8
100
AcDbEntity
  8
ASSI
100
AcDbLine
 62
7
  6
CONTINUOUS
 10
35.777825433
 20
-36.5304322162
 11
35.7011290875
 21
-36.4942173365
  0
LINE
  5
2B9
100
AcDbEntity
  8
0
100
AcDbLine
 62
7
  6
CONTINUOUS
 10
-27.8617855637
 20
0.2142806073
 11
-27.9382593061
 21
0.2504115184
  0
LINE
  5
2BA
100
AcDbEntity
  8
ASSI
100
AcDbLine
 62
7
  6
CONTINUOUS
 10
-27.8617855637
 20
0.2142806073
 11
-27.9382593061
 21
0.2504115184
  0
LINE
  5
2BB
100
AcDbEntity
  8
0
100
AcDbLine
 62
7
  6
CONTINUOUS
 10
-43.7716881404
 20
9.0738708465
 11
-43.8481618828
 21
9.1100017576
  0
LINE
  5
2BC
100
AcDbEntity
  8
ASSI
100
AcDbLine
 62
7
  6
CONTINUOUS
 10
-43.7716881404
 20
9.0738708465
 11
-43.8481618828
 21
9.1100017576
  0
LINE
  5
2BD
100
AcDbEntity
  8
RACCORDO
100
AcDbLine
 62
250
  6
CONTINUOUS
 10
54.4414210293
 20
-52.0640709373
 11
-56.1396789193
 21
11.7840702664
  0
LINE
  5
2BE
100
AcDbEntity
  8
ASSI
100
AcDbLine
 62
250
  6
CONTINUOUS
 10
54.4414210293
 20
-52.0640709373
 11
-56.1396789193
 21
11.7840702664
  0
LINE
  5
2BF
100
AcDbEntity
  8
RACCORDO
100
AcDbLine
 62
250
  6
CONTINUOUS
 10
72.9847040444
 20
-62.3837796935
 11
55.1480729379
 21
-52.0851769062
  0
LINE
  5
2C0
100
AcDbEntity
  8
ASSI
100
AcDbLine
 62
250
  6
CONTINUOUS
 10
72.9847040444
 20
-62.3837796935
 11
55.1480729379
 21
-52.0851769062
  0
LINE
  5
2C1
100
AcDbEntity
  8
RACCORDO
100
AcDbLine
 62
250
  6
CONTINUOUS
 10
-56.8830498598
 20
12.6001999792
 11
-74.7196779341
 21
22.8988794048
  0
LINE
  5
2C2
100
AcDbEntity
  8
ASSI
100
AcDbLine
 62
250
  6
CONTINUOUS
 10
-56.8830498598
 20
12.6001999792
 11
-74.7196779341
 21
22.8988794048
  0
LINE
  5
2C3
100
AcDbEntity
  8
RACCORDO
100
AcDbLine
 62
250
  6
CONTINUOUS
 10
54.7759853903
 20
-51.4414603955
 11
-55.8051387295
 21
12.4066947643
  0
LINE
  5
2C4
100
AcDbEntity
  8
ASSI
100
AcDbLine
 62
250
  6
CONTINUOUS
 10
54.7759853903
 20
-51.4414603955
 11
-55.8051387295
 21
12.4066947643
  0
LINE
  5
2C5
100
AcDbEntity
  8
0
100
AcDbLine
 62
7
  6
CONTINUOUS
 10
55.1064842576
 20
-49.3112806651
 11
-53.7952027208
 21
13.5671885375
  0
LINE
  5
2C6
100
AcDbEntity
  8
ASSI
100
AcDbLine
 62
7
  6
CONTINUOUS
 10
55.1064842576
 20
-49.3112806651
 11
-53.7952027208
 21
13.5671885375
  0
LINE
  5
2C7
100
AcDbEntity
  8
0
100
AcDbLine
 62
7
  6
CONTINUOUS
 10
3.3652898511
 20
-18.9026481816
 11
5.647784969
 21
-20.2205322563
  0
LINE
  5
2C8
100
AcDbEntity
  8
ASSI
100
AcDbLine
 62
7
  6
CONTINUOUS
 10
3.3652898511
 20
-18.9026481816
 11
5.647784969
 21
-20.2205322563
  0
LINE
  5
2C9
100
AcDbEntity
  8
0
100
AcDbLine
 62
250
  6
CONTINUOUS
 10
-42.2905773058
 20
8.1524681492
 11
-43.8704739244
 21
9.0646806561
  0
LINE
  5
2CA
100
AcDbEntity
  8
ASSI
100
AcDbLine
 62
250
  6
CONTINUOUS
 10
-42.2905773058
 20
8.1524681492
 11
-43.8704739244
 21
9.0646806561
  0
LINE
  5
2CB
100
AcDbEntity
  8
0
100
AcDbLine
 62
250
  6
CONTINUOUS
 10
51.5889415358
 20
-46.0523894432
 11
53.1688381544
 21
-46.96460195
  0
LINE
  5
2CC
100
AcDbEntity
  8
ASSI
100
AcDbLine
 62
250
  6
CONTINUOUS
 10
51.5889415358
 20
-46.0523894432
 11
53.1688381544
 21
-46.96460195
  0
LINE
  5
2CD
100
AcDbEntity
  8
0
100
AcDbLine
 62
7
  6
CONTINUOUS
 10
-42.1918065922
 20
8.161670038
 11
-43.7717032066
 21
9.0738825423
  0
LINE
  5
2CE
100
AcDbEntity
  8
ASSI
100
AcDbLine
 62
7
  6
CONTINUOUS
 10
-42.1918065922
 20
8.161670038
 11
-43.7717032066
 21
9.0738825423
  0
LINE
  5
2CF
100
AcDbEntity
  8
0
100
AcDbLine
 62
7
  6
CONTINUOUS
 10
51.6877122493
 20
-46.0431875544
 11
53.2676088647
 21
-46.9554000594
  0
LINE
  5
2D0
100
AcDbEntity
  8
ASSI
100
AcDbLine
 62
7
  6
CONTINUOUS
 10
51.6877122493
 20
-46.0431875544
 11
53.2676088647
 21
-46.9554000594
  0
LINE
  5
2D1
100
AcDbEntity
  8
0
100
AcDbLine
 62
250
  6
CONTINUOUS
 10
-26.3806747291
 20
-0.7071220899
 11
-27.9605713477
 21
0.2050904169
  0
LINE
  5
2D2
100
AcDbEntity
  8
ASSI
100
AcDbLine
 62
250
  6
CONTINUOUS
 10
-26.3806747291
 20
-0.7071220899
 11
-27.9605713477
 21
0.2050904169
  0
LINE
  5
2D3
100
AcDbEntity
  8
0
100
AcDbLine
 62
250
  6
CONTINUOUS
 10
35.6790389591
 20
-36.5396229826
 11
37.2589355777
 21
-37.4518354894
  0
LINE
  5
2D4
100
AcDbEntity
  8
ASSI
100
AcDbLine
 62
250
  6
CONTINUOUS
 10
35.6790389591
 20
-36.5396229826
 11
37.2589355777
 21
-37.4518354894
  0
LINE
  5
2D5
100
AcDbEntity
  8
0
100
AcDbLine
 62
7
  6
CONTINUOUS
 10
-26.2819040155
 20
-0.6979202012
 11
-27.8618006299
 21
0.2142923032
  0
LINE
  5
2D6
100
AcDbEntity
  8
ASSI
100
AcDbLine
 62
7
  6
CONTINUOUS
 10
-26.2819040155
 20
-0.6979202012
 11
-27.8618006299
 21
0.2142923032
  0
LINE
  5
2D7
100
AcDbEntity
  8
0
100
AcDbLine
 62
7
  6
CONTINUOUS
 10
35.7778096726
 20
-36.5304210939
 11
37.357706288
 21
-37.4426335988
  0
LINE
  5
2D8
100
AcDbEntity
  8
ASSI
100
AcDbLine
 62
7
  6
CONTINUOUS
 10
35.7778096726
 20
-36.5304210939
 11
37.357706288
 21
-37.4426335988
  0
LINE
  5
2D9
100
AcDbEntity
  8
ASSI
100
AcDbLine
 62
250
  6
CONTINUOUS
 10
54.9820213725
 20
-45.2383342316
 11
-50.2588935626
 21
15.5264510735
  0
LWPOLYLINE
  5
2DA
100
AcDbEntity
  8
0
100
AcDbPolyline
 62
7
  6
CONTINUOUS
 90
4
 70
0
 10
-28.0265980422
 20
0.2765268988
 10
-28.1200183055
 20
0.2902407859
 10
-28.2152999342
 20
0.2914186431
 10
-28.3090762941
 20
0.2800464114
  0
LWPOLYLINE
  5
2DB
100
AcDbEntity
  8
ASSI
100
AcDbPolyline
 62
7
  6
CONTINUOUS
 90
4
 70
0
 10
-28.0265980422
 20
0.2765268988
 10
-28.1200183055
 20
0.2902407859
 10
-28.2152999342
 20
0.2914186431
 10
-28.3090762941
 20
0.2800464114
  0
LINE
  5
2DC
100
AcDbEntity
  8
0
100
AcDbLine
 62
7
  6
CONTINUOUS
 10
-27.9382593061
 20
0.2504115184
 11
-28.0265980422
 21
0.2765268988
  0
LINE
  5
2DD
100
AcDbEntity
  8
ASSI
100
AcDbLine
 62
7
  6
CONTINUOUS
 10
-27.9382593061
 20
0.2504115184
 11
-28.0265980422
 21
0.2765268988
  0
LINE
  5
2DE
100
AcDbEntity
  8
0
100
AcDbLine
 62
7
  6
CONTINUOUS
 10
-43.8481618828
 20
9.1100017576
 11
-43.9365006189
 21
9.1361171379
  0
LINE
  5
2DF
100
AcDbEntity
  8
ASSI
100
AcDbLine
 62
7
  6
CONTINUOUS
 10
-43.8481618828
 20
9.1100017576
 11
-43.9365006189
 21
9.1361171379
  0
LINE
  5
2E0
100
AcDbEntity
  8
0
100
AcDbLine
 62
7
  6
CONTINUOUS
 10
5.6479408586
 20
-20.2204373615
 11
5.6479408586
 21
-20.6430678271
  0
LINE
  5
2E1
100
AcDbEntity
  8
ASSI
100
AcDbLine
 62
7
  6
CONTINUOUS
 10
5.6479408586
 20
-20.2204373615
 11
5.6479408586
 21
-20.6430678271
  0
LINE
  5
2E2
100
AcDbEntity
  8
0
100
AcDbLine
 62
7
  6
CONTINUOUS
 10
-28.3090762941
 20
0.2800464114
 11
-28.3981052457
 21
0.256240243
  0
LINE
  5
2E3
100
AcDbEntity
  8
ASSI
100
AcDbLine
 62
7
  6
CONTINUOUS
 10
-28.3090762941
 20
0.2800464114
 11
-28.3981052457
 21
0.256240243
  0
LWPOLYLINE
  5
2E4
100
AcDbEntity
  8
0
100
AcDbPolyline
 62
7
  6
CONTINUOUS
 90
4
 70
0
 10
-43.9365006189
 20
9.1361171379
 10
-44.0299208822
 20
9.149831025
 10
-44.1252025109
 20
9.1510088823
 10
-44.2189788708
 20
9.1396366506
  0
LWPOLYLINE
  5
2E5
100
AcDbEntity
  8
ASSI
100
AcDbPolyline
 62
7
  6
CONTINUOUS
 90
4
 70
0
 10
-43.9365006189
 20
9.1361171379
 10
-44.0299208822
 20
9.149831025
 10
-44.1252025109
 20
9.1510088823
 10
-44.2189788708
 20
9.1396366506
  0
LINE
  5
2E6
100
AcDbEntity
  8
DRAFT
100
AcDbLine
 62
7
  6
CONTINUOUS
 10
77.621367815
 20
-43.1666523759
 11
77.9749212056
 21
-43.3707896726
  0
LINE
  5
2E7
100
AcDbEntity
  8
ASSI
100
AcDbLine
 62
7
  6
CONTINUOUS
 10
77.621367815
 20
-43.1666523759
 11
77.9749212056
 21
-43.3707896726
  0
LINE
  5
2E8
100
AcDbEntity
  8
0
100
AcDbLine
 62
250
  6
CONTINUOUS
 10
5.6479408586
 20
-20.6430678271
 11
5.557925489
 21
-20.7025638215
  0
LINE
  5
2E9
100
AcDbEntity
  8
ASSI
100
AcDbLine
 62
250
  6
CONTINUOUS
 10
5.6479408586
 20
-20.6430678271
 11
5.557925489
 21
-20.7025638215
  0
LINE
  5
2EA
100
AcDbEntity
  8
0
100
AcDbLine
 62
7
  6
CONTINUOUS
 10
5.6464996932
 20
-20.7404771952
 11
5.6358174438
 21
-20.74753766
  0
LINE
  5
2EB
100
AcDbEntity
  8
ASSI
100
AcDbLine
 62
7
  6
CONTINUOUS
 10
5.6464996932
 20
-20.7404771952
 11
5.6358174438
 21
-20.74753766
  0
LINE
  5
2EC
100
AcDbEntity
  8
0
100
AcDbLine
 62
7
  6
CONTINUOUS
 10
5.6479408586
 20
-20.2204373615
 11
5.197648412
 21
-20.4945443525
  0
LINE
  5
2ED
100
AcDbEntity
  8
ASSI
100
AcDbLine
 62
7
  6
CONTINUOUS
 10
5.6479408586
 20
-20.2204373615
 11
5.197648412
 21
-20.4945443525
  0
LINE
  5
2EE
100
AcDbEntity
  8
0
100
AcDbLine
 62
7
  6
CONTINUOUS
 10
-3.6675347684
 20
-22.071120657
 11
-3.7739617229
 21
-22.1325702467
  0
LINE
  5
2EF
100
AcDbEntity
  8
ASSI
100
AcDbLine
 62
7
  6
CONTINUOUS
 10
-3.6675347684
 20
-22.071120657
 11
-3.7739617229
 21
-22.1325702467
  0
LINE
  5
2F0
100
AcDbEntity
  8
0
100
AcDbLine
 62
7
  6
CONTINUOUS
 10
-3.8136096444
 20
-22.6384804342
 11
-3.9200840595
 21
-22.699957427
  0
LINE
  5
2F1
100
AcDbEntity
  8
ASSI
100
AcDbLine
 62
7
  6
CONTINUOUS
 10
-3.8136096444
 20
-22.6384804342
 11
-3.9200840595
 21
-22.699957427
  0
LINE
  5
2F2
100
AcDbEntity
  8
0
100
AcDbLine
 62
7
  6
CONTINUOUS
 10
-1.5964907266
 20
-22.5489228284
 11
-1.7028691161
 21
-22.6103443773
  0
LINE
  5
2F3
100
AcDbEntity
  8
ASSI
100
AcDbLine
 62
7
  6
CONTINUOUS
 10
-1.5964907266
 20
-22.5489228284
 11
-1.7028691161
 21
-22.6103443773
  0
LINE
  5
2F4
100
AcDbEntity
  8
0
100
AcDbLine
 62
7
  6
CONTINUOUS
 10
-2.6031687
 20
-23.3373738651
 11
-2.7096431151
 21
-23.3988508579
  0
LINE
  5
2F5
100
AcDbEntity
  8
ASSI
100
AcDbLine
 62
7
  6
CONTINUOUS
 10
-2.6031687
 20
-23.3373738651
 11
-2.7096431151
 21
-23.3988508579
  0
LINE
  5
2F6
100
AcDbEntity
  8
0
100
AcDbLine
 62
7
  6
CONTINUOUS
 10
-1.9745415791
 20
-23.7003352861
 11
-2.0810159943
 21
-23.761812279
  0
LINE
  5
2F7
100
AcDbEntity
  8
ASSI
100
AcDbLine
 62
7
  6
CONTINUOUS
 10
-1.9745415791
 20
-23.7003352861
 11
-2.0810159943
 21
-23.761812279
  0
LINE
  5
2F8
100
AcDbEntity
  8
0
100
AcDbLine
 62
7
  6
CONTINUOUS
 10
-1.0480839174
 20
-23.3040434283
 11
-1.1544915061
 21
-23.3654818364
  0
LINE
  5
2F9
100
AcDbEntity
  8
ASSI
100
AcDbLine
 62
7
  6
CONTINUOUS
 10
-1.0480839174
 20
-23.3040434283
 11
-1.1544915061
 21
-23.3654818364
  0
LINE
  5
2FA
100
AcDbEntity
  8
0
100
AcDbLine
 62
7
  6
CONTINUOUS
 10
-0.5619999845
 20
-23.1519695889
 11
-0.6683787473
 21
-23.2133913533
  0
LINE
  5
2FB
100
AcDbEntity
  8
ASSI
100
AcDbLine
 62
7
  6
CONTINUOUS
 10
-0.5619999845
 20
-23.1519695889
 11
-0.6683787473
 21
-23.2133913533
  0
LINE
  5
2FC
100
AcDbEntity
  8
0
100
AcDbLine
 62
7
  6
CONTINUOUS
 10
-1.0259599501
 20
-24.2719495189
 11
-1.1117246252
 21
-24.3214689674
  0
LINE
  5
2FD
100
AcDbEntity
  8
ASSI
100
AcDbLine
 62
7
  6
CONTINUOUS
 10
-1.0259599501
 20
-24.2719495189
 11
-1.1117246252
 21
-24.3214689674
  0
LINE
  5
2FE
100
AcDbEntity
  8
0
100
AcDbLine
 62
7
  6
CONTINUOUS
 10
3.3652898511
 20
-18.9026481816
 11
2.8825774921
 21
-19.157851418
  0
LINE
  5
2FF
100
AcDbEntity
  8
ASSI
100
AcDbLine
 62
7
  6
CONTINUOUS
 10
3.3652898511
 20
-18.9026481816
 11
2.8825774921
 21
-19.157851418
  0
LINE
  5
300
100
AcDbEntity
  8
0
100
AcDbLine
 62
7
  6
CONTINUOUS
 10
-44.2189788708
 20
9.1396366506
 11
-44.3080078224
 21
9.1158304822
  0
LINE
  5
301
100
AcDbEntity
  8
ASSI
100
AcDbLine
 62
7
  6
CONTINUOUS
 10
-44.2189788708
 20
9.1396366506
 11
-44.3080078224
 21
9.1158304822
  0
LINE
  5
302
100
AcDbEntity
  8
RACCORDO
100
AcDbLine
 62
250
  6
CONTINUOUS
 10
55.1480729379
 20
-15.0701623286
 11
72.9847040341
 21
-25.3688590103
  0
LINE
  5
303
100
AcDbEntity
  8
ASSI
100
AcDbLine
 62
250
  6
CONTINUOUS
 10
55.1480729379
 20
-15.0701623286
 11
72.9847040341
 21
-25.3688590103
  0
LINE
  5
304
100
AcDbEntity
  8
RACCORDO
100
AcDbLine
 62
250
  6
CONTINUOUS
 10
-74.7196779336
 20
59.9138000939
 11
-56.8830427314
 21
49.6151997792
  0
LINE
  5
305
100
AcDbEntity
  8
ASSI
100
AcDbLine
 62
250
  6
CONTINUOUS
 10
-74.7196779336
 20
59.9138000939
 11
-56.8830427314
 21
49.6151997792
  0
LINE
  5
306
100
AcDbEntity
  8
RACCORDO
100
AcDbLine
 62
7
  6
CONTINUOUS
 10
-56.0366412638
 20
49.3643489681
 11
54.5444586847
 21
-14.4837922355
  0
LINE
  5
307
100
AcDbEntity
  8
ASSI
100
AcDbLine
 62
7
  6
CONTINUOUS
 10
-56.0366412638
 20
49.3643489681
 11
54.5444586847
 21
-14.4837922355
  0
LINE
  5
308
100
AcDbEntity
  8
RACCORDO
100
AcDbLine
 62
250
  6
CONTINUOUS
 10
-56.1396789193
 20
49.6152908032
 11
54.4414210293
 21
-14.2328504004
  0
LINE
  5
309
100
AcDbEntity
  8
ASSI
100
AcDbLine
 62
250
  6
CONTINUOUS
 10
-56.1396789193
 20
49.6152908032
 11
54.4414210293
 21
-14.2328504004
  0
LINE
  5
30A
100
AcDbEntity
  8
0
100
AcDbLine
 62
250
  6
CONTINUOUS
 10
-57.5743398801
 20
52.2904150221
 11
-56.373290728
 21
51.5969442943
  0
LINE
  5
30B
100
AcDbEntity
  8
0
100
AcDbLine
 62
250
  6
CONTINUOUS
 10
-57.4989882895
 20
52.3339142019
 11
-56.4392388713
 21
51.7220281696
  0
LINE
  5
30C
100
AcDbEntity
  8
0
100
AcDbLine
 62
250
  6
CONTINUOUS
 10
-57.4235942087
 20
52.3774387315
 11
-56.5051445244
 21
51.8471373946
  0
LINE
  5
30D
100
AcDbEntity
  8
0
100
AcDbLine
 62
250
  6
CONTINUOUS
 10
-48.8202221612
 20
47.7586707944
 11
-47.8311226098
 21
47.1875771098
  0
LINE
  5
30E
100
AcDbEntity
  8
0
100
AcDbLine
 62
250
  6
CONTINUOUS
 10
-46.9656606792
 20
46.6878702379
 11
-46.718386145
 21
46.5450970209
  0
LINE
  5
30F
100
AcDbEntity
  8
0
100
AcDbLine
 62
250
  6
CONTINUOUS
 10
-45.5644366684
 20
45.8788210555
 11
-45.317161427
 21
45.7360474302
  0
LINE
  5
310
100
AcDbEntity
  8
0
100
AcDbLine
 62
250
  6
CONTINUOUS
 10
-44.3280625828
 20
45.1649541539
 11
-43.9571497208
 21
44.950793716
  0
LINE
  5
311
100
AcDbEntity
  8
0
100
AcDbLine
 62
250
  6
CONTINUOUS
 10
-42.3910757847
 20
44.0465622528
 11
-42.1438005434
 21
43.9037886275
  0
LINE
  5
312
100
AcDbEntity
  8
0
100
AcDbLine
 62
250
  6
CONTINUOUS
 10
-41.1547016992
 20
43.3326953512
 11
-39.6710523722
 21
42.4760548243
  0
LINE
  5
313
100
AcDbEntity
  8
0
100
AcDbLine
 62
250
  6
CONTINUOUS
 10
-37.4455780282
 20
41.1910938298
 11
-37.1983034939
 21
41.0483206128
  0
LINE
  5
314
100
AcDbEntity
  8
0
100
AcDbLine
 62
250
  6
CONTINUOUS
 10
-36.8686036435
 20
40.8579560513
 11
-36.6213291092
 21
40.7151828343
  0
LINE
  5
315
100
AcDbEntity
  8
0
100
AcDbLine
 62
250
  6
CONTINUOUS
 10
-35.4673796327
 20
40.0489068689
 11
-35.2201043913
 21
39.9061332436
  0
LINE
  5
316
100
AcDbEntity
  8
0
100
AcDbLine
 62
250
  6
CONTINUOUS
 10
-34.890405248
 20
39.7157690904
 11
-33.406755921
 21
38.8591285635
  0
LINE
  5
317
100
AcDbEntity
  8
0
100
AcDbLine
 62
250
  6
CONTINUOUS
 10
-37.7752778786
 20
41.3814583914
 11
-38.0637654245
 21
41.5480274848
  0
LINE
  5
318
100
AcDbEntity
  8
0
100
AcDbLine
 62
250
  6
CONTINUOUS
 10
-39.0940779875
 20
42.1429170458
 11
-39.3413525218
 21
42.2856902628
  0
LINE
  5
319
100
AcDbEntity
  8
0
100
AcDbLine
 62
250
  6
CONTINUOUS
 10
-48.5329411992
 20
47.9050770861
 11
-47.7499045847
 21
47.4529615587
  0
LINE
  5
31A
100
AcDbEntity
  8
0
100
AcDbLine
 62
250
  6
CONTINUOUS
 10
-33.3667494933
 20
39.1483080722
 11
-34.6031235789
 21
39.8621749738
  0
LINE
  5
31B
100
AcDbEntity
  8
0
100
AcDbLine
 62
250
  6
CONTINUOUS
 10
-39.6310459445
 20
42.765234333
 11
-40.8674200301
 21
43.4791012346
  0
LINE
  5
31C
100
AcDbEntity
  8
0
100
AcDbLine
 62
250
  6
CONTINUOUS
 10
-43.9171440002
 20
45.2399736329
 11
-44.2880561552
 21
45.4541336626
  0
LINE
  5
31D
100
AcDbEntity
  8
0
100
AcDbLine
 62
250
  6
CONTINUOUS
 10
-58.3301813769
 20
53.7303622075
 11
-57.5177064929
 21
53.2612493922
  0
LINE
  5
31E
100
AcDbEntity
  8
0
100
AcDbLine
 62
250
  6
CONTINUOUS
 10
-56.3166573408
 20
52.5677786645
 11
-55.5041824568
 21
52.0986658492
  0
LINE
  5
31F
100
AcDbEntity
  8
0
100
AcDbLine
 62
250
  6
CONTINUOUS
 10
-58.2543413792
 20
53.7741433875
 11
-57.4418664952
 21
53.3050305722
  0
LINE
  5
320
100
AcDbEntity
  8
0
100
AcDbLine
 62
250
  6
CONTINUOUS
 10
-56.382117077
 20
52.6931445399
 11
-55.569642193
 21
52.2240317246
  0
LINE
  5
321
100
AcDbEntity
  8
0
100
AcDbLine
 62
250
  6
CONTINUOUS
 10
-46.4729805023
 20
47.0285871993
 11
-45.6487308762
 21
46.5526757954
  0
LINE
  5
322
100
AcDbEntity
  8
0
100
AcDbLine
 62
250
  6
CONTINUOUS
 10
-36.3759234666
 20
41.1986730127
 11
-35.5516745476
 21
40.7227620171
  0
LINE
  5
323
100
AcDbEntity
  8
0
100
AcDbLine
 62
250
  6
CONTINUOUS
 10
-43.2996196186
 20
45.1963283966
 11
-43.54689486
 21
45.3391020219
  0
LINE
  5
324
100
AcDbEntity
  8
0
100
AcDbLine
 62
250
  6
CONTINUOUS
 10
-58.1784581703
 20
53.8179487005
 11
-57.3659839934
 21
53.3488362935
  0
LINE
  5
325
100
AcDbEntity
  8
0
100
AcDbLine
 62
250
  6
CONTINUOUS
 10
-56.447534309
 20
52.8185349566
 11
-55.6350601322
 21
52.3494225496
  0
LINE
  5
326
100
AcDbEntity
  8
0
100
AcDbLine
 62
250
  6
CONTINUOUS
 10
-53.8426281808
 20
51.3583228768
 11
-54.5962279399
 21
51.7934419329
  0
LINE
  5
327
100
AcDbEntity
  8
0
100
AcDbLine
 62
250
  6
CONTINUOUS
 10
-46.4044341117
 20
47.1979612279
 11
-45.6626090947
 21
46.7696407603
  0
LINE
  5
328
100
AcDbEntity
  8
0
100
AcDbLine
 62
250
  6
CONTINUOUS
 10
-36.3073763688
 20
41.3680466331
 11
-35.5655520589
 21
40.9397265738
  0
LINE
  5
329
100
AcDbEntity
  8
0
100
AcDbLine
 62
250
  6
CONTINUOUS
 10
-38.2510679046
 20
42.7518923655
 11
-38.9516806171
 21
43.156417365
  0
LINE
  5
32A
100
AcDbEntity
  8
0
100
AcDbLine
 62
250
  6
CONTINUOUS
 10
-47.6475129349
 20
48.1772819609
 11
-48.4305502565
 21
48.6293978966
  0
LINE
  5
32B
100
AcDbEntity
  8
0
100
AcDbLine
 62
250
  6
CONTINUOUS
 10
-40.7580827325
 20
44.2517797721
 11
-39.6865585721
 21
43.6330951513
  0
LINE
  5
32C
100
AcDbEntity
  8
0
100
AcDbLine
 62
250
  6
CONTINUOUS
 10
-38.12673572
 20
42.994578637
 11
-38.9097730415
 21
43.4466945727
  0
LINE
  5
32D
100
AcDbEntity
  8
0
100
AcDbLine
 62
250
  6
CONTINUOUS
 10
-47.6056060665
 20
48.4675595769
 11
-48.3886426809
 21
48.9196751043
  0
LINE
  5
32E
100
AcDbEntity
  8
0
100
AcDbLine
 62
250
  6
CONTINUOUS
 10
-39.6445603851
 20
43.9234246768
 11
-40.7160845455
 21
44.5421092977
  0
LINE
  5
32F
100
AcDbEntity
  8
0
100
AcDbLine
 62
250
  6
CONTINUOUS
 10
-55.5631652529
 20
53.4514339308
 11
-56.3756394298
 21
53.9205463378
  0
LINE
  5
330
100
AcDbEntity
  8
0
100
AcDbLine
 62
250
  6
CONTINUOUS
 10
-57.2940891142
 20
54.4508476747
 11
-58.1065632911
 21
54.9199600818
  0
LINE
  5
331
100
AcDbEntity
  8
0
100
AcDbLine
 62
250
  6
CONTINUOUS
 10
-43.3864231997
 20
46.4517313704
 11
-43.1391479584
 21
46.3089577451
  0
LINE
  5
332
100
AcDbEntity
  8
0
100
AcDbLine
 62
250
  6
CONTINUOUS
 10
-55.4866863708
 20
53.4955831781
 11
-56.2991612548
 21
53.9646959934
  0
LINE
  5
333
100
AcDbEntity
  8
0
100
AcDbLine
 62
250
  6
CONTINUOUS
 10
-57.358910673
 20
54.5765820257
 11
-58.171385557
 21
55.045694841
  0
LINE
  5
334
100
AcDbEntity
  8
0
100
AcDbLine
 62
250
  6
CONTINUOUS
 10
-55.410165602
 20
53.5397574268
 11
-56.2226404859
 21
54.0088702421
  0
LINE
  5
335
100
AcDbEntity
  8
0
100
AcDbLine
 62
250
  6
CONTINUOUS
 10
-57.4236896381
 20
54.7023409699
 11
-58.236164522
 21
55.1714537852
  0
LINE
  5
336
100
AcDbEntity
  8
0
100
AcDbLine
 62
250
  6
CONTINUOUS
 10
-48.2887441068
 20
49.5982098639
 11
-47.5057067853
 21
49.1460939281
  0
LINE
  5
337
100
AcDbEntity
  8
0
100
AcDbLine
 62
250
  6
CONTINUOUS
 10
-44.0438583557
 20
47.1472660321
 11
-43.6729462007
 21
46.9331060024
  0
LINE
  5
338
100
AcDbEntity
  8
0
100
AcDbLine
 62
250
  6
CONTINUOUS
 10
-40.6232229377
 20
45.1722340124
 11
-39.3868481451
 21
44.4583667025
  0
LINE
  5
339
100
AcDbEntity
  8
0
100
AcDbLine
 62
250
  6
CONTINUOUS
 10
-42.7590226831
 20
46.4581354793
 11
-42.0996229823
 21
46.0774063562
  0
LINE
  5
33A
100
AcDbEntity
  8
0
100
AcDbLine
 62
250
  6
CONTINUOUS
 10
-41.852348448
 20
45.9346331392
 11
-41.1929487471
 21
45.5539040161
  0
LINE
  5
33B
100
AcDbEntity
  8
0
100
AcDbLine
 62
250
  6
CONTINUOUS
 10
-38.802625185
 20
44.1737611492
 11
-38.0195878634
 21
43.7216452134
  0
LINE
  5
33C
100
AcDbEntity
  8
0
100
AcDbLine
 62
250
  6
CONTINUOUS
 10
-39.0134276967
 20
44.5593269815
 11
-38.0243281454
 21
43.9882332969
  0
LINE
  5
33D
100
AcDbEntity
  8
0
100
AcDbLine
 62
250
  6
CONTINUOUS
 10
-34.3152051816
 20
41.8466321838
 11
-34.562480423
 21
41.9894058091
  0
LINE
  5
33E
100
AcDbEntity
  8
0
100
AcDbLine
 62
250
  6
CONTINUOUS
 10
-35.5515799743
 20
42.5604994937
 11
-35.8812791176
 21
42.750863647
  0
LINE
  5
33F
100
AcDbEntity
  8
0
100
AcDbLine
 62
250
  6
CONTINUOUS
 10
-36.8703786689
 20
43.3219573316
 11
-37.1176532032
 21
43.4647305486
  0
LINE
  5
340
100
AcDbEntity
  8
0
100
AcDbLine
 62
250
  6
CONTINUOUS
 10
-39.3431275472
 20
44.7496915431
 11
-40.8267768741
 21
45.60633207
  0
LINE
  5
341
100
AcDbEntity
  8
0
100
AcDbLine
 62
250
  6
CONTINUOUS
 10
-41.1564767246
 20
45.7966966315
 11
-42.7225506606
 21
46.7009280946
  0
LINE
  5
342
100
AcDbEntity
  8
0
100
AcDbLine
 62
250
  6
CONTINUOUS
 10
-43.6292256029
 20
47.224430843
 11
-44.0001377578
 21
47.4385908726
  0
LINE
  5
343
100
AcDbEntity
  8
0
100
AcDbLine
 62
250
  6
CONTINUOUS
 10
-45.6486363029
 20
48.390413272
 11
-45.9783361533
 21
48.5807778336
  0
LINE
  5
344
100
AcDbEntity
  8
0
100
AcDbLine
 62
250
  6
CONTINUOUS
 10
-47.5031977848
 20
49.4612138286
 11
-48.4922973361
 21
50.0323075132
  0
LINE
  5
345
100
AcDbEntity
  8
0
100
AcDbLine
 62
250
  6
CONTINUOUS
 10
-50.2903171456
 20
51.0704616167
 11
-51.4207157237
 21
51.7231395885
  0
LINE
  5
346
100
AcDbEntity
  8
0
100
AcDbLine
 62
250
  6
CONTINUOUS
 10
-56.3060409865
 20
54.8988657524
 11
-57.2244906709
 21
55.4291670893
  0
LINE
  5
347
100
AcDbEntity
  8
0
100
AcDbLine
 62
250
  6
CONTINUOUS
 10
-56.2290725256
 20
54.9432993094
 11
-57.2888219439
 21
55.5551853417
  0
LINE
  5
348
100
AcDbEntity
  8
0
100
AcDbLine
 62
250
  6
CONTINUOUS
 10
-56.1520614579
 20
54.9877566505
 11
-57.3531106101
 21
55.6812273782
  0
LWPOLYLINE
  5
349
100
AcDbEntity
  8
RACCORDO
100
AcDbPolyline
 62
7
  6
CONTINUOUS
 90
9
 70
0
 10
54.5444793133
 20
-14.4838042064
 10
54.5675412342
 20
-14.4977261226
 10
54.6418618308
 20
-14.5505583946
 10
54.7212501337
 20
-14.6202248738
 10
54.8019449729
 20
-14.7058085022
 10
54.8804674719
 20
-14.8054786894
 10
54.9537557862
 20
-14.9167598933
 10
55.0191804661
 20
-15.0366767589
 10
55.0449379826
 20
-15.0914099021
  0
LWPOLYLINE
  5
34A
100
AcDbEntity
  8
ASSI
100
AcDbPolyline
 62
7
  6
CONTINUOUS
 90
9
 70
0
 10
54.5444793133
 20
-14.4838042064
 10
54.5675412342
 20
-14.4977261226
 10
54.6418618308
 20
-14.5505583946
 10
54.7212501337
 20
-14.6202248738
 10
54.8019449729
 20
-14.7058085022
 10
54.8804674719
 20
-14.8054786894
 10
54.9537557862
 20
-14.9167598933
 10
55.0191804661
 20
-15.0366767589
 10
55.0449379826
 20
-15.0914099021
  0
LINE
  5
34B
100
AcDbEntity
  8
0
100
AcDbLine
 62
7
  6
CONTINUOUS
 10
0.9422961672
 20
-23.8622353233
 11
0.8359276015
 21
-23.9236512001
  0
LINE
  5
34C
100
AcDbEntity
  8
ASSI
100
AcDbLine
 62
7
  6
CONTINUOUS
 10
0.9422961672
 20
-23.8622353233
 11
0.8359276015
 21
-23.9236512001
  0
LINE
  5
34D
100
AcDbEntity
  8
0
100
AcDbLine
 62
7
  6
CONTINUOUS
 10
-0.3710510878
 20
-24.6261705994
 11
-0.4775255029
 21
-24.6876475922
  0
LINE
  5
34E
100
AcDbEntity
  8
ASSI
100
AcDbLine
 62
7
  6
CONTINUOUS
 10
-0.3710510878
 20
-24.6261705994
 11
-0.4775255029
 21
-24.6876475922
  0
LINE
  5
34F
100
AcDbEntity
  8
0
100
AcDbLine
 62
7
  6
CONTINUOUS
 10
0.2465883008
 20
-24.9827878415
 11
0.1401138857
 21
-25.0442648344
  0
LINE
  5
350
100
AcDbEntity
  8
ASSI
100
AcDbLine
 62
7
  6
CONTINUOUS
 10
0.2465883008
 20
-24.9827878415
 11
0.1401138857
 21
-25.0442648344
  0
LINE
  5
351
100
AcDbEntity
  8
0
100
AcDbLine
 62
7
  6
CONTINUOUS
 10
0.7353081605
 20
-24.847962413
 11
0.6288644884
 21
-24.9094216552
  0
LINE
  5
352
100
AcDbEntity
  8
ASSI
100
AcDbLine
 62
7
  6
CONTINUOUS
 10
0.7353081605
 20
-24.847962413
 11
0.6288644884
 21
-24.9094216552
  0
LINE
  5
353
100
AcDbEntity
  8
0
100
AcDbLine
 62
7
  6
CONTINUOUS
 10
1.1900432616
 20
-24.7867853406
 11
1.0836225401
 21
-24.8482313315
  0
LINE
  5
354
100
AcDbEntity
  8
ASSI
100
AcDbLine
 62
7
  6
CONTINUOUS
 10
1.1900432616
 20
-24.7867853406
 11
1.0836225401
 21
-24.8482313315
  0
LINE
  5
355
100
AcDbEntity
  8
0
100
AcDbLine
 62
7
  6
CONTINUOUS
 10
2.3530535255
 20
-24.455950038
 11
2.2466988773
 21
-24.5173578789
  0
LINE
  5
356
100
AcDbEntity
  8
ASSI
100
AcDbLine
 62
7
  6
CONTINUOUS
 10
2.3530535255
 20
-24.455950038
 11
2.2466988773
 21
-24.5173578789
  0
LINE
  5
357
100
AcDbEntity
  8
0
100
AcDbLine
 62
7
  6
CONTINUOUS
 10
1.2980711131
 20
-25.1728946888
 11
1.1916274411
 21
-25.234353931
  0
LINE
  5
358
100
AcDbEntity
  8
ASSI
100
AcDbLine
 62
7
  6
CONTINUOUS
 10
1.2980711131
 20
-25.1728946888
 11
1.1916274411
 21
-25.234353931
  0
LINE
  5
359
100
AcDbEntity
  8
0
100
AcDbLine
 62
250
  6
CONTINUOUS
 10
2.6759182333
 20
-24.6299039172
 11
2.56956436
 21
-24.6913113108
  0
LINE
  5
35A
100
AcDbEntity
  8
ASSI
100
AcDbLine
 62
250
  6
CONTINUOUS
 10
2.6759182333
 20
-24.6299039172
 11
2.56956436
 21
-24.6913113108
  0
LINE
  5
35B
100
AcDbEntity
  8
0
100
AcDbLine
 62
7
  6
CONTINUOUS
 10
1.4391846985
 20
-25.6713780548
 11
1.3327102833
 21
-25.7328550476
  0
LINE
  5
35C
100
AcDbEntity
  8
ASSI
100
AcDbLine
 62
7
  6
CONTINUOUS
 10
1.4391846985
 20
-25.6713780548
 11
1.3327102833
 21
-25.7328550476
  0
LINE
  5
35D
100
AcDbEntity
  8
0
100
AcDbLine
 62
250
  6
CONTINUOUS
 10
2.9278880612
 20
-25.0399331928
 11
2.8215174976
 21
-25.101350223
  0
LINE
  5
35E
100
AcDbEntity
  8
ASSI
100
AcDbLine
 62
250
  6
CONTINUOUS
 10
2.9278880612
 20
-25.0399331928
 11
2.8215174976
 21
-25.101350223
  0
LINE
  5
35F
100
AcDbEntity
  8
0
100
AcDbLine
 62
7
  6
CONTINUOUS
 10
2.434050739
 20
-25.4268947586
 11
2.3276354399
 21
-25.4883376187
  0
LINE
  5
360
100
AcDbEntity
  8
ASSI
100
AcDbLine
 62
7
  6
CONTINUOUS
 10
2.434050739
 20
-25.4268947586
 11
2.3276354399
 21
-25.4883376187
  0
LINE
  5
361
100
AcDbEntity
  8
0
100
AcDbLine
 62
7
  6
CONTINUOUS
 10
2.7557079613
 20
-25.3060803431
 11
2.8620942918
 21
-25.2446542093
  0
LINE
  5
362
100
AcDbEntity
  8
ASSI
100
AcDbLine
 62
7
  6
CONTINUOUS
 10
2.7557079613
 20
-25.3060803431
 11
2.8620942918
 21
-25.2446542093
  0
LINE
  5
363
100
AcDbEntity
  8
0
100
AcDbLine
 62
250
  6
CONTINUOUS
 10
2.65561955
 20
-25.5548258132
 11
2.5492042508
 21
-25.6162686732
  0
LINE
  5
364
100
AcDbEntity
  8
ASSI
100
AcDbLine
 62
250
  6
CONTINUOUS
 10
2.65561955
 20
-25.5548258132
 11
2.5492042508
 21
-25.6162686732
  0
LINE
  5
365
100
AcDbEntity
  8
0
100
AcDbLine
 62
7
  6
CONTINUOUS
 10
2.0879925291
 20
-26.0459918286
 11
1.9815181139
 21
-26.1074688215
  0
LINE
  5
366
100
AcDbEntity
  8
ASSI
100
AcDbLine
 62
7
  6
CONTINUOUS
 10
2.0879925291
 20
-26.0459918286
 11
1.9815181139
 21
-26.1074688215
  0
LINE
  5
367
100
AcDbEntity
  8
0
100
AcDbLine
 62
7
  6
CONTINUOUS
 10
3.0719148539
 20
-25.6242061072
 11
2.9655112556
 21
-25.6856422113
  0
LINE
  5
368
100
AcDbEntity
  8
ASSI
100
AcDbLine
 62
7
  6
CONTINUOUS
 10
3.0719148539
 20
-25.6242061072
 11
2.9655112556
 21
-25.6856422113
  0
LINE
  5
369
100
AcDbEntity
  8
0
100
AcDbLine
 62
250
  6
CONTINUOUS
 10
2.900416923
 20
-25.8809317277
 11
2.7939887322
 21
-25.9423820312
  0
LINE
  5
36A
100
AcDbEntity
  8
ASSI
100
AcDbLine
 62
250
  6
CONTINUOUS
 10
2.900416923
 20
-25.8809317277
 11
2.7939887322
 21
-25.9423820312
  0
LINE
  5
36B
100
AcDbEntity
  8
0
100
AcDbLine
 62
7
  6
CONTINUOUS
 10
3.132386996
 20
-26.6490121044
 11
3.0259125808
 21
-26.7104890973
  0
LINE
  5
36C
100
AcDbEntity
  8
ASSI
100
AcDbLine
 62
7
  6
CONTINUOUS
 10
3.132386996
 20
-26.6490121044
 11
3.0259125808
 21
-26.7104890973
  0
LINE
  5
36D
100
AcDbEntity
  8
0
100
AcDbLine
 62
250
  6
CONTINUOUS
 10
37.4112462757
 20
-37.933143954
 11
37.4112462757
 21
-38.5220127801
  0
LINE
  5
36E
100
AcDbEntity
  8
ASSI
100
AcDbLine
 62
250
  6
CONTINUOUS
 10
37.4112462757
 20
-37.933143954
 11
37.4112462757
 21
-38.5220127801
  0
LINE
  5
36F
100
AcDbEntity
  8
0
100
AcDbLine
 62
7
  6
CONTINUOUS
 10
37.5455694249
 20
-37.737690008
 11
37.5455694249
 21
-38.3193831393
  0
LINE
  5
370
100
AcDbEntity
  8
ASSI
100
AcDbLine
 62
7
  6
CONTINUOUS
 10
37.5455694249
 20
-37.737690008
 11
37.5455694249
 21
-38.3193831393
  0
LINE
  5
371
100
AcDbEntity
  8
RACCORDO
100
AcDbLine
 62
250
  6
CONTINUOUS
 10
74.4027376342
 20
-6.1561032867
 11
-72.5031875255
 21
78.6655367369
  0
LINE
  5
372
100
AcDbEntity
  8
ASSI
100
AcDbLine
 62
250
  6
CONTINUOUS
 10
74.4027376342
 20
-6.1561032867
 11
-72.5031875255
 21
78.6655367369
  0
LINE
  5
373
100
AcDbEntity
  8
RACCORDO
100
AcDbLine
 62
250
  6
CONTINUOUS
 10
74.6002421406
 20
-5.8419310924
 11
-72.3056830191
 21
78.9797089312
  0
LINE
  5
374
100
AcDbEntity
  8
ASSI
100
AcDbLine
 62
250
  6
CONTINUOUS
 10
74.6002421406
 20
-5.8419310924
 11
-72.3056830191
 21
78.9797089312
  0
LINE
  5
375
100
AcDbEntity
  8
RACCORDO
100
AcDbLine
 62
7
  6
CONTINUOUS
 10
-70.7306039432
 20
80.0903190097
 11
76.3495446741
 21
-4.8319154547
  0
LINE
  5
376
100
AcDbEntity
  8
ASSI
100
AcDbLine
 62
7
  6
CONTINUOUS
 10
-70.7306039432
 20
80.0903190097
 11
76.3495446741
 21
-4.8319154547
  0
LINE
  5
377
100
AcDbEntity
  8
RACCORDO
100
AcDbLine
 62
7
  6
CONTINUOUS
 10
-68.1112718621
 20
79.6395817903
 11
77.6900106679
 21
-4.544251435
  0
LINE
  5
378
100
AcDbEntity
  8
ASSI
100
AcDbLine
 62
7
  6
CONTINUOUS
 10
-68.1112718621
 20
79.6395817903
 11
77.6900106679
 21
-4.544251435
  0
LWPOLYLINE
  5
379
100
AcDbEntity
  8
0
100
AcDbPolyline
 62
7
  6
CONTINUOUS
 90
6
 70
0
 10
37.5455671722
 20
-37.7377327514
 10
37.5348878472
 20
-37.6584058799
 10
37.5027226069
 20
-37.5821862986
 10
37.4503176306
 20
-37.5137760024
 10
37.3792725558
 20
-37.4558607729
 10
37.3577137683
 20
-37.4426399374
  0
LWPOLYLINE
  5
37A
100
AcDbEntity
  8
ASSI
100
AcDbPolyline
 62
7
  6
CONTINUOUS
 90
6
 70
0
 10
37.5455671722
 20
-37.7377327514
 10
37.5348878472
 20
-37.6584058799
 10
37.5027226069
 20
-37.5821862986
 10
37.4503176306
 20
-37.5137760024
 10
37.3792725558
 20
-37.4558607729
 10
37.3577137683
 20
-37.4426399374
  0
LINE
  5
37B
100
AcDbEntity
  8
RACCORDO
100
AcDbLine
 62
250
  6
CONTINUOUS
 10
74.6002421406
 20
-5.8419310924
 11
76.3495446741
 21
-4.8319154547
  0
LINE
  5
37C
100
AcDbEntity
  8
ASSI
100
AcDbLine
 62
250
  6
CONTINUOUS
 10
74.6002421406
 20
-5.8419310924
 11
76.3495446741
 21
-4.8319154547
  0
LINE
  5
37D
100
AcDbEntity
  8
RACCORDO
100
AcDbLine
 62
250
  6
CONTINUOUS
 10
75.2105778629
 20
-7.1203118303
 11
77.05568239
 21
-6.0549818546
  0
LINE
  5
37E
100
AcDbEntity
  8
ASSI
100
AcDbLine
 62
250
  6
CONTINUOUS
 10
75.2105778629
 20
-7.1203118303
 11
77.05568239
 21
-6.0549818546
  0
LINE
  5
37F
100
AcDbEntity
  8
0
100
AcDbLine
 62
7
  6
CONTINUOUS
 10
34.0119162466
 20
-37.1315414726
 11
35.1675960045
 21
-36.5205498354
  0
LINE
  5
380
100
AcDbEntity
  8
ASSI
100
AcDbLine
 62
7
  6
CONTINUOUS
 10
34.0119162466
 20
-37.1315414726
 11
35.1675960045
 21
-36.5205498354
  0
LINE
  5
381
100
AcDbEntity
  8
0
100
AcDbLine
 62
250
  6
CONTINUOUS
 10
34.0687685404
 20
-37.1643672746
 11
35.2623074167
 21
-36.5333600538
  0
LINE
  5
382
100
AcDbEntity
  8
ASSI
100
AcDbLine
 62
250
  6
CONTINUOUS
 10
34.0687685404
 20
-37.1643672746
 11
35.2623074167
 21
-36.5333600538
  0
LINE
  5
383
100
AcDbEntity
  8
0
100
AcDbLine
 62
7
  6
CONTINUOUS
 10
35.2410203665
 20
-36.4886432492
 11
35.1675727524
 21
-36.5205647181
  0
LINE
  5
384
100
AcDbEntity
  8
ASSI
100
AcDbLine
 62
7
  6
CONTINUOUS
 10
35.2410203665
 20
-36.4886432492
 11
35.1675727524
 21
-36.5205647181
  0
LINE
  5
385
100
AcDbEntity
  8
RACCORDO
100
AcDbLine
 62
7
  6
CONTINUOUS
 10
-68.1660989832
 20
79.6663165998
 11
-68.1112718621
 21
79.6395817903
  0
LINE
  5
386
100
AcDbEntity
  8
ASSI
100
AcDbLine
 62
7
  6
CONTINUOUS
 10
-68.1660989832
 20
79.6663165998
 11
-68.1112718621
 21
79.6395817903
  0
LINE
  5
387
100
AcDbEntity
  8
RACCORDO
100
AcDbLine
 62
7
  6
CONTINUOUS
 10
55.0449380609
 20
-15.0914103785
 11
55.0673708898
 21
-15.1438928659
  0
LINE
  5
388
100
AcDbEntity
  8
ASSI
100
AcDbLine
 62
7
  6
CONTINUOUS
 10
55.0449380609
 20
-15.0914103785
 11
55.0673708898
 21
-15.1438928659
  0
LWPOLYLINE
  5
389
100
AcDbEntity
  8
RACCORDO
100
AcDbPolyline
 62
7
  6
CONTINUOUS
 90
6
 70
0
 10
55.0673708898
 20
-15.1438928659
 10
55.1129288119
 20
-15.2714162518
 10
55.1448717117
 20
-15.3942634521
 10
55.163413371
 20
-15.5083106722
 10
55.1696217419
 20
-15.6095727037
 10
55.1690459841
 20
-15.6465708302
  0
LWPOLYLINE
  5
38A
100
AcDbEntity
  8
ASSI
100
AcDbPolyline
 62
7
  6
CONTINUOUS
 90
6
 70
0
 10
55.0673708898
 20
-15.1438928659
 10
55.1129288119
 20
-15.2714162518
 10
55.1448717117
 20
-15.3942634521
 10
55.163413371
 20
-15.5083106722
 10
55.1696217419
 20
-15.6095727037
 10
55.1690459841
 20
-15.6465708302
  0
LWPOLYLINE
  5
38B
100
AcDbEntity
  8
0
100
AcDbPolyline
 62
7
  6
CONTINUOUS
 90
6
 70
0
 10
53.4554697489
 20
-47.250499212
 10
53.4447904239
 20
-47.1711723405
 10
53.4126251836
 20
-47.0949527592
 10
53.3602202073
 20
-47.026542463
 10
53.2891751325
 20
-46.9686272335
 10
53.267616345
 20
-46.955406398
  0
LWPOLYLINE
  5
38C
100
AcDbEntity
  8
ASSI
100
AcDbPolyline
 62
7
  6
CONTINUOUS
 90
6
 70
0
 10
53.4554697489
 20
-47.250499212
 10
53.4447904239
 20
-47.1711723405
 10
53.4126251836
 20
-47.0949527592
 10
53.3602202073
 20
-47.026542463
 10
53.2891751325
 20
-46.9686272335
 10
53.267616345
 20
-46.955406398
  0
LINE
  5
38D
100
AcDbEntity
  8
0
100
AcDbLine
 62
250
  6
CONTINUOUS
 10
53.3211488524
 20
-47.4459104146
 11
53.3211488524
 21
-48.0347792407
  0
LINE
  5
38E
100
AcDbEntity
  8
ASSI
100
AcDbLine
 62
250
  6
CONTINUOUS
 10
53.3211488524
 20
-47.4459104146
 11
53.3211488524
 21
-48.0347792407
  0
LINE
  5
38F
100
AcDbEntity
  8
0
100
AcDbLine
 62
7
  6
CONTINUOUS
 10
53.4554720016
 20
-47.2504564686
 11
53.4554720016
 21
-47.8321495999
  0
LINE
  5
390
100
AcDbEntity
  8
ASSI
100
AcDbLine
 62
7
  6
CONTINUOUS
 10
53.4554720016
 20
-47.2504564686
 11
53.4554720016
 21
-47.8321495999
  0
LWPOLYLINE
  5
391
100
AcDbEntity
  8
RACCORDO
100
AcDbPolyline
 62
7
  6
CONTINUOUS
 90
4
 70
0
 10
55.1690858633
 20
-51.3598723067
 10
55.1679974668
 20
-51.4289268595
 10
55.1608710094
 20
-51.4772348914
 10
55.1532280697
 20
-51.5020827027
  0
LWPOLYLINE
  5
392
100
AcDbEntity
  8
ASSI
100
AcDbPolyline
 62
7
  6
CONTINUOUS
 90
4
 70
0
 10
55.1690858633
 20
-51.3598723067
 10
55.1679974668
 20
-51.4289268595
 10
55.1608710094
 20
-51.4772348914
 10
55.1532280697
 20
-51.5020827027
  0
LWPOLYLINE
  5
393
100
AcDbEntity
  8
RACCORDO
100
AcDbPolyline
 62
7
  6
CONTINUOUS
 90
5
 70
0
 10
55.1690448733
 20
-15.6466002695
 10
54.9025219013
 20
-24.708415121
 10
54.8127481711
 20
-33.7282596536
 10
54.9024188942
 20
-42.633408032
 10
55.169085664
 20
-51.3598606476
  0
LWPOLYLINE
  5
394
100
AcDbEntity
  8
ASSI
100
AcDbPolyline
 62
7
  6
CONTINUOUS
 90
5
 70
0
 10
55.1690448733
 20
-15.6466002695
 10
54.9025219013
 20
-24.708415121
 10
54.8127481711
 20
-33.7282596536
 10
54.9024188942
 20
-42.633408032
 10
55.169085664
 20
-51.3598606476
  0
LWPOLYLINE
  5
395
100
AcDbEntity
  8
0
100
AcDbPolyline
 62
7
  6
CONTINUOUS
 90
6
 70
0
 10
37.3752891213
 20
-38.610080374
 10
37.4309173259
 20
-38.5667187938
 10
37.4850630551
 20
-38.505305761
 10
37.5219849578
 20
-38.4381180372
 10
37.5418092314
 20
-38.3673450713
 10
37.5455671697
 20
-38.3194332624
  0
LWPOLYLINE
  5
396
100
AcDbEntity
  8
ASSI
100
AcDbPolyline
 62
7
  6
CONTINUOUS
 90
6
 70
0
 10
37.3752891213
 20
-38.610080374
 10
37.4309173259
 20
-38.5667187938
 10
37.4850630551
 20
-38.505305761
 10
37.5219849578
 20
-38.4381180372
 10
37.5418092314
 20
-38.3673450713
 10
37.5455671697
 20
-38.3194332624
  0
LINE
  5
397
100
AcDbEntity
  8
0
100
AcDbLine
 62
250
  6
CONTINUOUS
 10
36.9491284153
 20
-38.8274509669
 11
37.4112462757
 21
-38.5220127801
  0
LINE
  5
398
100
AcDbEntity
  8
ASSI
100
AcDbLine
 62
250
  6
CONTINUOUS
 10
36.9491284153
 20
-38.8274509669
 11
37.4112462757
 21
-38.5220127801
  0
LINE
  5
399
100
AcDbEntity
  8
0
100
AcDbLine
 62
7
  6
CONTINUOUS
 10
37.0010564205
 20
-38.8574335463
 11
37.3752547088
 21
-38.6101060645
  0
LINE
  5
39A
100
AcDbEntity
  8
ASSI
100
AcDbLine
 62
7
  6
CONTINUOUS
 10
37.0010564205
 20
-38.8574335463
 11
37.3752547088
 21
-38.6101060645
  0
LINE
  5
39B
100
AcDbEntity
  8
0
100
AcDbLine
 62
250
  6
CONTINUOUS
 10
37.2662096538
 20
-37.6903880907
 11
36.1532166458
 21
-38.3679014863
  0
LINE
  5
39C
100
AcDbEntity
  8
ASSI
100
AcDbLine
 62
250
  6
CONTINUOUS
 10
37.2662096538
 20
-37.6903880907
 11
36.1532166458
 21
-38.3679014863
  0
LINE
  5
39D
100
AcDbEntity
  8
0
100
AcDbLine
 62
250
  6
CONTINUOUS
 10
37.4112462757
 20
-37.933143954
 11
36.4323153652
 21
-38.529049589
  0
LINE
  5
39E
100
AcDbEntity
  8
ASSI
100
AcDbLine
 62
250
  6
CONTINUOUS
 10
37.4112462757
 20
-37.933143954
 11
36.4323153652
 21
-38.529049589
  0
LWPOLYLINE
  5
39F
100
AcDbEntity
  8
RACCORDO
100
AcDbPolyline
 62
7
  6
CONTINUOUS
 90
4
 70
0
 10
-68.1661034989
 20
79.6663523503
 10
-68.518113119
 20
79.7903784392
 10
-68.9460951012
 20
79.9011759048
 10
-69.3520411825
 20
79.9636110321
  0
LWPOLYLINE
  5
3A0
100
AcDbEntity
  8
ASSI
100
AcDbPolyline
 62
7
  6
CONTINUOUS
 90
4
 70
0
 10
-68.1661034989
 20
79.6663523503
 10
-68.518113119
 20
79.7903784392
 10
-68.9460951012
 20
79.9011759048
 10
-69.3520411825
 20
79.9636110321
  0
LINE
  5
3A1
100
AcDbEntity
  8
0
100
AcDbLine
 62
250
  6
CONTINUOUS
 10
53.1227614595
 20
-48.1659039834
 11
53.3211488524
 21
-48.0347792407
  0
LINE
  5
3A2
100
AcDbEntity
  8
ASSI
100
AcDbLine
 62
250
  6
CONTINUOUS
 10
53.1227614595
 20
-48.1659039834
 11
53.3211488524
 21
-48.0347792407
  0
LINE
  5
3A3
100
AcDbEntity
  8
0
100
AcDbLine
 62
7
  6
CONTINUOUS
 10
53.1746894647
 20
-48.1958865628
 11
53.2851572855
 21
-48.1228725251
  0
LINE
  5
3A4
100
AcDbEntity
  8
ASSI
100
AcDbLine
 62
7
  6
CONTINUOUS
 10
53.1746894647
 20
-48.1958865628
 11
53.2851572855
 21
-48.1228725251
  0
LINE
  5
3A5
100
AcDbEntity
  8
0
100
AcDbLine
 62
250
  6
CONTINUOUS
 10
53.1761122305
 20
-47.2031545513
 11
52.3384611109
 21
-47.7130587917
  0
LINE
  5
3A6
100
AcDbEntity
  8
ASSI
100
AcDbLine
 62
250
  6
CONTINUOUS
 10
53.1761122305
 20
-47.2031545513
 11
52.3384611109
 21
-47.7130587917
  0
LINE
  5
3A7
100
AcDbEntity
  8
0
100
AcDbLine
 62
250
  6
CONTINUOUS
 10
53.3211488524
 20
-47.4459104146
 11
52.6175598304
 21
-47.8742068944
  0
LINE
  5
3A8
100
AcDbEntity
  8
ASSI
100
AcDbLine
 62
250
  6
CONTINUOUS
 10
53.3211488524
 20
-47.4459104146
 11
52.6175598304
 21
-47.8742068944
  0
LINE
  5
3A9
100
AcDbEntity
  8
0
100
AcDbLine
 62
7
  6
CONTINUOUS
 10
50.217086849
 20
-46.48820388
 11
51.0774985812
 21
-46.033316296
  0
LINE
  5
3AA
100
AcDbEntity
  8
ASSI
100
AcDbLine
 62
7
  6
CONTINUOUS
 10
50.217086849
 20
-46.48820388
 11
51.0774985812
 21
-46.033316296
  0
LINE
  5
3AB
100
AcDbEntity
  8
0
100
AcDbLine
 62
250
  6
CONTINUOUS
 10
50.2739391428
 20
-46.5210296819
 11
51.1722099934
 21
-46.0461265144
  0
LINE
  5
3AC
100
AcDbEntity
  8
ASSI
100
AcDbLine
 62
250
  6
CONTINUOUS
 10
50.2739391428
 20
-46.5210296819
 11
51.1722099934
 21
-46.0461265144
  0
LINE
  5
3AD
100
AcDbEntity
  8
0
100
AcDbLine
 62
7
  6
CONTINUOUS
 10
51.1509229432
 20
-46.0014097098
 11
51.0774753291
 21
-46.0333311787
  0
LINE
  5
3AE
100
AcDbEntity
  8
ASSI
100
AcDbLine
 62
7
  6
CONTINUOUS
 10
51.1509229432
 20
-46.0014097098
 11
51.0774753291
 21
-46.0333311787
  0
LINE
  5
3AF
100
AcDbEntity
  8
DRAFT
100
AcDbLine
 62
7
  6
CONTINUOUS
 10
77.1937380085
 20
-43.3195176942
 11
77.621367815
 21
-43.1666523759
  0
LINE
  5
3B0
100
AcDbEntity
  8
ASSI
100
AcDbLine
 62
7
  6
CONTINUOUS
 10
77.1937380085
 20
-43.3195176942
 11
77.621367815
 21
-43.1666523759
  0
LINE
  5
3B1
100
AcDbEntity
  8
RACCORDO
100
AcDbLine
 62
7
  6
CONTINUOUS
 10
77.05568239
 20
-77.9066041006
 11
77.05568239
 21
-6.0549818546
  0
LINE
  5
3B2
100
AcDbEntity
  8
ASSI
100
AcDbLine
 62
7
  6
CONTINUOUS
 10
77.05568239
 20
-77.9066041006
 11
77.05568239
 21
-6.0549818546
  0
LINE
  5
3B3
100
AcDbEntity
  8
DRAFT
100
AcDbLine
 62
7
  6
CONTINUOUS
 10
77.1937380085
 20
-38.5496192434
 11
77.1937380085
 21
-44.2649111809
  0
LINE
  5
3B4
100
AcDbEntity
  8
ASSI
100
AcDbLine
 62
7
  6
CONTINUOUS
 10
77.1937380085
 20
-38.5496192434
 11
77.1937380085
 21
-44.2649111809
  0
LINE
  5
3B5
100
AcDbEntity
  8
DRAFT
100
AcDbLine
 62
7
  6
CONTINUOUS
 10
77.9749211959
 20
-5.0377310487
 11
77.9749212056
 21
-37.07963478
  0
LINE
  5
3B6
100
AcDbEntity
  8
ASSI
100
AcDbLine
 62
7
  6
CONTINUOUS
 10
77.9749211959
 20
-5.0377310487
 11
77.9749212056
 21
-37.07963478
  0
LINE
  5
3B7
100
AcDbEntity
  8
DRAFT
100
AcDbLine
 62
7
  6
CONTINUOUS
 10
77.9749212056
 20
-43.3707896726
 11
77.9749212455
 21
-75.4126928464
  0
LINE
  5
3B8
100
AcDbEntity
  8
ASSI
100
AcDbLine
 62
7
  6
CONTINUOUS
 10
77.9749212056
 20
-43.3707896726
 11
77.9749212455
 21
-75.4126928464
  0
LINE
  5
3B9
100
AcDbEntity
  8
RACCORDO
100
AcDbLine
 62
7
  6
CONTINUOUS
 10
55.1532280697
 20
-51.5020827027
 11
55.1518795676
 21
-51.5050191539
  0
LINE
  5
3BA
100
AcDbEntity
  8
ASSI
100
AcDbLine
 62
7
  6
CONTINUOUS
 10
55.1532280697
 20
-51.5020827027
 11
55.1518795676
 21
-51.5050191539
  0
LINE
  5
3BB
100
AcDbEntity
  8
RACCORDO
100
AcDbLine
 62
7
  6
CONTINUOUS
 10
55.1631144849
 20
-51.4923379331
 11
55.1632939421
 21
-51.4921732994
  0
LINE
  5
3BC
100
AcDbEntity
  8
ASSI
100
AcDbLine
 62
7
  6
CONTINUOUS
 10
55.1631144849
 20
-51.4923379331
 11
55.1632939421
 21
-51.4921732994
  0
LWPOLYLINE
  5
3BD
100
AcDbEntity
  8
0
100
AcDbPolyline
 62
7
  6
CONTINUOUS
 90
6
 70
0
 10
53.285191698
 20
-48.1228468346
 10
53.3408199026
 20
-48.0794852544
 10
53.3949656318
 20
-48.0180722215
 10
53.4318875345
 20
-47.9508844978
 10
53.4517118081
 20
-47.8801115319
 10
53.4554697464
 20
-47.832199723
  0
LWPOLYLINE
  5
3BE
100
AcDbEntity
  8
ASSI
100
AcDbPolyline
 62
7
  6
CONTINUOUS
 90
6
 70
0
 10
53.285191698
 20
-48.1228468346
 10
53.3408199026
 20
-48.0794852544
 10
53.3949656318
 20
-48.0180722215
 10
53.4318875345
 20
-47.9508844978
 10
53.4517118081
 20
-47.8801115319
 10
53.4554697464
 20
-47.832199723
  0
LINE
  5
3BF
100
AcDbEntity
  8
0
100
AcDbLine
 62
250
  6
CONTINUOUS
 10
54.7759853903
 20
-51.4414603955
 11
55.1632349372
 21
-51.1684003855
  0
LINE
  5
3C0
100
AcDbEntity
  8
ASSI
100
AcDbLine
 62
250
  6
CONTINUOUS
 10
54.7759853903
 20
-51.4414603955
 11
55.1632349372
 21
-51.1684003855
  0
LINE
  5
3C1
100
AcDbEntity
  8
RACCORDO
100
AcDbLine
 62
7
  6
CONTINUOUS
 10
-69.3520411825
 20
79.9636110321
 11
-69.6602477946
 21
79.9813843473
  0
LINE
  5
3C2
100
AcDbEntity
  8
ASSI
100
AcDbLine
 62
7
  6
CONTINUOUS
 10
-69.3520411825
 20
79.9636110321
 11
-69.6602477946
 21
79.9813843473
  0
LINE
  5
3C3
100
AcDbEntity
  8
RACCORDO
100
AcDbLine
 62
7
  6
CONTINUOUS
 10
77.9749212455
 20
-75.4126928464
 11
77.9706624721
 21
-75.4735160911
  0
LINE
  5
3C4
100
AcDbEntity
  8
ASSI
100
AcDbLine
 62
7
  6
CONTINUOUS
 10
77.9749212455
 20
-75.4126928464
 11
77.9706624721
 21
-75.4735160911
  0
LWPOLYLINE
  5
3C5
100
AcDbEntity
  8
RACCORDO
100
AcDbPolyline
 62
7
  6
CONTINUOUS
 90
4
 70
0
 10
-69.660284215
 20
79.9813846879
 10
-69.9884728883
 20
79.9699005904
 10
-70.3613966832
 20
79.9149175549
 10
-70.4055195844
 20
79.9026193752
  0
LWPOLYLINE
  5
3C6
100
AcDbEntity
  8
ASSI
100
AcDbPolyline
 62
7
  6
CONTINUOUS
 90
4
 70
0
 10
-69.660284215
 20
79.9813846879
 10
-69.9884728883
 20
79.9699005904
 10
-70.3613966832
 20
79.9149175549
 10
-70.4055195844
 20
79.9026193752
  0
LWPOLYLINE
  5
3C7
100
AcDbEntity
  8
RACCORDO
100
AcDbPolyline
 62
7
  6
CONTINUOUS
 90
5
 70
0
 10
77.4964613435
 20
-76.9251065774
 10
77.6376743913
 20
-76.6437221605
 10
77.7860091366
 20
-76.2606258854
 10
77.9034559835
 20
-75.8344095182
 10
77.9706913025
 20
-75.4735379722
  0
LWPOLYLINE
  5
3C8
100
AcDbEntity
  8
ASSI
100
AcDbPolyline
 62
7
  6
CONTINUOUS
 90
5
 70
0
 10
77.4964613435
 20
-76.9251065774
 10
77.6376743913
 20
-76.6437221605
 10
77.7860091366
 20
-76.2606258854
 10
77.9034559835
 20
-75.8344095182
 10
77.9706913025
 20
-75.4735379722
  0
LINE
  5
3C9
100
AcDbEntity
  8
RACCORDO
100
AcDbLine
 62
250
  6
CONTINUOUS
 10
75.2105778629
 20
-78.7597474271
 11
77.05568239
 21
-77.9066041006
  0
LINE
  5
3CA
100
AcDbEntity
  8
ASSI
100
AcDbLine
 62
250
  6
CONTINUOUS
 10
75.2105778629
 20
-78.7597474271
 11
77.05568239
 21
-77.9066041006
  0
LINE
  5
3CB
100
AcDbEntity
  8
RACCORDO
100
AcDbLine
 62
7
  6
CONTINUOUS
 10
75.0430204959
 20
-79.2004710809
 11
76.8220897323
 21
-78.3778612916
  0
LINE
  5
3CC
100
AcDbEntity
  8
ASSI
100
AcDbLine
 62
7
  6
CONTINUOUS
 10
75.0430204959
 20
-79.2004710809
 11
76.8220897323
 21
-78.3778612916
  0
LWPOLYLINE
  5
3CD
100
AcDbEntity
  8
RACCORDO
100
AcDbPolyline
 62
7
  6
CONTINUOUS
 90
4
 70
0
 10
77.05568239
 20
-77.5307340349
 10
77.0923073523
 20
-77.4946844317
 10
77.3257906511
 20
-77.1987655263
 10
77.4964453855
 20
-76.9251357125
  0
LWPOLYLINE
  5
3CE
100
AcDbEntity
  8
ASSI
100
AcDbPolyline
 62
7
  6
CONTINUOUS
 90
4
 70
0
 10
77.05568239
 20
-77.5307340349
 10
77.0923073523
 20
-77.4946844317
 10
77.3257906511
 20
-77.1987655263
 10
77.4964453855
 20
-76.9251357125
  0
ARC
  5
3CF
100
AcDbEntity
  8
0
100
AcDbCircle
 62
7
  6
CONTINUOUS
 10
142.2123634896
 20
-15.2303764919
 40
140.2734304623
100
AcDbArc
 50
183.796116852
 51
184.0432551452
  0
ARC
  5
3D0
100
AcDbEntity
  8
ASSI
100
AcDbCircle
 62
7
  6
CONTINUOUS
 10
142.2123634896
 20
-15.2303764919
 40
140.2734304623
100
AcDbArc
 50
183.796116852
 51
184.0432551452
  0
ARC
  5
3D1
100
AcDbEntity
  8
0
100
AcDbCircle
 62
7
  6
CONTINUOUS
 10
136.5496592056
 20
-12.2666730219
 40
139.5925138798
100
AcDbArc
 50
183.6979893239
 51
184.548748573
  0
ARC
  5
3D2
100
AcDbEntity
  8
ASSI
100
AcDbCircle
 62
7
  6
CONTINUOUS
 10
136.5496592056
 20
-12.2666730219
 40
139.5925138798
100
AcDbArc
 50
183.6979893239
 51
184.548748573
  0
ARC
  5
3D3
100
AcDbEntity
  8
0
100
AcDbCircle
 62
7
  6
CONTINUOUS
 10
141.231903163
 20
-14.9759432181
 40
139.5835729688
100
AcDbArc
 50
183.7016532308
 51
184.5487719809
  0
ARC
  5
3D4
100
AcDbEntity
  8
ASSI
100
AcDbCircle
 62
7
  6
CONTINUOUS
 10
141.231903163
 20
-14.9759432181
 40
139.5835729688
100
AcDbArc
 50
183.7016532308
 51
184.5487719809
  0
ARC
  5
3D5
100
AcDbEntity
  8
0
100
AcDbCircle
 62
7
  6
CONTINUOUS
 10
136.4989376567
 20
-12.601490268
 40
139.2333987921
100
AcDbArc
 50
183.640458099
 51
184.5461640299
  0
ARC
  5
3D6
100
AcDbEntity
  8
0
100
AcDbCircle
 62
7
  6
CONTINUOUS
 10
136.0856987969
 20
-12.3628913295
 40
139.2333987921
100
AcDbArc
 50
183.640458099
 51
184.5461640299
  0
ARC
  5
3D7
100
AcDbEntity
  8
ASSI
100
AcDbCircle
 62
7
  6
CONTINUOUS
 10
136.4989376567
 20
-12.601490268
 40
139.2333987921
100
AcDbArc
 50
183.640458099
 51
184.5461640299
  0
ARC
  5
3D8
100
AcDbEntity
  8
ASSI
100
AcDbCircle
 62
7
  6
CONTINUOUS
 10
136.0856987969
 20
-12.3628913295
 40
139.2333987921
100
AcDbArc
 50
183.640458099
 51
184.5461640299
  0
ARC
  5
3D9
100
AcDbEntity
  8
0
100
AcDbCircle
 62
7
  6
CONTINUOUS
 10
140.7585528498
 20
-15.072906826
 40
139.2150384424
100
AcDbArc
 50
183.6510394402
 51
184.5461878729
  0
ARC
  5
3DA
100
AcDbEntity
  8
ASSI
100
AcDbCircle
 62
7
  6
CONTINUOUS
 10
140.7585528498
 20
-15.072906826
 40
139.2150384424
100
AcDbArc
 50
183.6510394402
 51
184.5461878729
  0
ARC
  5
3DB
100
AcDbEntity
  8
0
100
AcDbCircle
 62
7
  6
CONTINUOUS
 10
140.2405406281
 20
-15.3824251237
 40
138.2826774574
100
AcDbArc
 50
184.1910007012
 51
184.5470283358
  0
ARC
  5
3DC
100
AcDbEntity
  8
ASSI
100
AcDbCircle
 62
7
  6
CONTINUOUS
 10
140.2405406281
 20
-15.3824251237
 40
138.2826774574
100
AcDbArc
 50
184.1910007012
 51
184.5470283358
  0
ARC
  5
3DD
100
AcDbEntity
  8
RACCORDO
100
AcDbCircle
 62
250
  6
CONTINUOUS
 10
73.0836232751
 20
-74.6791317136
 40
4.9459991936
100
AcDbArc
 50
350.7646068925
 51
351.4707582869
  0
ARC
  5
3DE
100
AcDbEntity
  8
ASSI
100
AcDbCircle
 62
250
  6
CONTINUOUS
 10
73.0836232751
 20
-74.6791317136
 40
4.9459991936
100
AcDbArc
 50
350.7646068925
 51
351.4707582869
  0
ARC
  5
3DF
100
AcDbEntity
  8
RACCORDO
100
AcDbCircle
 62
250
  6
CONTINUOUS
 10
74.7977034216
 20
-75.2418728353
 40
3.1313219338
100
AcDbArc
 50
328.0551196367
 51
329.9941200085
  0
ARC
  5
3E0
100
AcDbEntity
  8
ASSI
100
AcDbCircle
 62
250
  6
CONTINUOUS
 10
74.7977034216
 20
-75.2418728353
 40
3.1313219338
100
AcDbArc
 50
328.0551196367
 51
329.9941200085
  0
ARC
  5
3E1
100
AcDbEntity
  8
RACCORDO
100
AcDbCircle
 62
250
  6
CONTINUOUS
 10
53.1877086717
 20
-15.9470447563
 40
2.1475453076
100
AcDbArc
 50
24.0992477969
 51
24.7838034536
  0
ARC
  5
3E2
100
AcDbEntity
  8
ASSI
100
AcDbCircle
 62
250
  6
CONTINUOUS
 10
53.1877086717
 20
-15.9470447563
 40
2.1475453076
100
AcDbArc
 50
24.0992477969
 51
24.7838034536
  0
ARC
  5
3E3
100
AcDbEntity
  8
RACCORDO
100
AcDbCircle
 62
250
  6
CONTINUOUS
 10
55.3988097538
 20
-51.7490260612
 40
0.3484777184
100
AcDbArc
 50
135.3412350801
 51
140.3219917364
  0
ARC
  5
3E4
100
AcDbEntity
  8
ASSI
100
AcDbCircle
 62
250
  6
CONTINUOUS
 10
55.3988097538
 20
-51.7490260612
 40
0.3484777184
100
AcDbArc
 50
135.3412350801
 51
140.3219917364
  0
ARC
  5
3E5
100
AcDbEntity
  8
0
100
AcDbCircle
 62
7
  6
CONTINUOUS
 10
2.9683313969
 20
-25.4583037591
 40
0.22948389
100
AcDbArc
 50
299.9658011652
 51
302.874957018
  0
ARC
  5
3E6
100
AcDbEntity
  8
ASSI
100
AcDbCircle
 62
7
  6
CONTINUOUS
 10
2.9683313969
 20
-25.4583037591
 40
0.22948389
100
AcDbArc
 50
299.9658011652
 51
302.874957018
  0
ARC
  5
3E7
100
AcDbEntity
  8
RACCORDO
100
AcDbCircle
 62
250
  6
CONTINUOUS
 10
55.0445413544
 20
-51.3006787896
 40
0.2240987241
100
AcDbArc
 50
296.5164261934
 51
299.7678181202
  0
ARC
  5
3E8
100
AcDbEntity
  8
ASSI
100
AcDbCircle
 62
250
  6
CONTINUOUS
 10
55.0445413544
 20
-51.3006787896
 40
0.2240987241
100
AcDbArc
 50
296.5164261934
 51
299.7678181202
  0
ARC
  5
3E9
100
AcDbEntity
  8
0
100
AcDbCircle
 62
7
  6
CONTINUOUS
 10
2.7096870907
 20
-25.226260218
 40
0.0920861225
100
AcDbArc
 50
299.9644780894
 51
310.5498457124
  0
ARC
  5
3EA
100
AcDbEntity
  8
ASSI
100
AcDbCircle
 62
7
  6
CONTINUOUS
 10
2.7096870907
 20
-25.226260218
 40
0.0920861225
100
AcDbArc
 50
299.9644780894
 51
310.5498457124
  0
ARC
  5
3EB
100
AcDbEntity
  8
0
100
AcDbCircle
 62
7
  6
CONTINUOUS
 10
2.9928965465
 20
-25.6232854351
 40
0.0681052252
100
AcDbArc
 50
246.2903093178
 51
249.8967120255
  0
ARC
  5
3EC
100
AcDbEntity
  8
ASSI
100
AcDbCircle
 62
7
  6
CONTINUOUS
 10
2.9928965465
 20
-25.6232854351
 40
0.0681052252
100
AcDbArc
 50
246.2903093178
 51
249.8967120255
  0
ARC
  5
3ED
100
AcDbEntity
  8
RACCORDO
100
AcDbCircle
 62
250
  6
CONTINUOUS
 10
-69.9210839738
 20
75.0379395695
 40
4.9447478144
100
AcDbArc
 50
68.530432692
 51
69.236917778
  0
ARC
  5
3EE
100
AcDbEntity
  8
ASSI
100
AcDbCircle
 62
250
  6
CONTINUOUS
 10
-69.9210798455
 20
75.0379501941
 40
4.944736416
100
AcDbArc
 50
68.5304321489
 51
69.2371041721
  0
ARC
  5
3EF
100
AcDbEntity
  8
RACCORDO
100
AcDbCircle
 62
250
  6
CONTINUOUS
 10
-69.5517463796
 20
76.8021444422
 40
3.131740364
100
AcDbArc
 50
90.0083312232
 51
91.9463171648
  0
ARC
  5
3F0
100
AcDbEntity
  8
ASSI
100
AcDbCircle
 62
250
  6
CONTINUOUS
 10
-69.5517463796
 20
76.8021444422
 40
3.131740364
100
AcDbArc
 50
90.0083312232
 51
91.9463171648
  0
ARC
  5
3F1
100
AcDbEntity
  8
RACCORDO
100
AcDbCircle
 62
250
  6
CONTINUOUS
 10
-56.0711812498
 20
49.133373351
 40
0.3161417319
100
AcDbArc
 50
114.9816483656
 51
130.8066049365
  0
ARC
  5
3F2
100
AcDbEntity
  8
ASSI
100
AcDbCircle
 62
250
  6
CONTINUOUS
 10
-56.0711812498
 20
49.133373351
 40
0.3161417319
100
AcDbArc
 50
114.9816483656
 51
130.8066049365
  0
ARC
  5
3F3
100
AcDbEntity
  8
RACCORDO
100
AcDbCircle
 62
250
  6
CONTINUOUS
 10
502.4717738412
 20
-33.7066161536
 40
447.5126373922
100
AcDbArc
 50
177.7131948584
 51
182.2868051416
  0
ARC
  5
3F4
100
AcDbEntity
  8
ASSI
100
AcDbCircle
 62
250
  6
CONTINUOUS
 10
502.4717738412
 20
-33.7066161536
 40
447.5126373922
100
AcDbArc
 50
177.7131948584
 51
182.2868051416
  0
ARC
  5
3F5
100
AcDbEntity
  8
RACCORDO
100
AcDbCircle
 62
250
  6
CONTINUOUS
 10
372.5326825088
 20
41.4046468641
 40
447.635189272
100
AcDbArc
 50
177.6302158268
 51
182.3535137031
  0
ARC
  5
3F6
100
AcDbEntity
  8
ASSI
100
AcDbCircle
 62
250
  6
CONTINUOUS
 10
372.5326825088
 20
41.4046468641
 40
447.635189272
100
AcDbArc
 50
177.6302158268
 51
182.3535137031
  0
ARC
  5
3F7
100
AcDbEntity
  8
RACCORDO
100
AcDbCircle
 62
250
  6
CONTINUOUS
 10
360.5697186771
 20
30.8588106195
 40
418.0725187345
100
AcDbArc
 50
177.5046626359
 51
179.4913893887
  0
ARC
  5
3F8
100
AcDbEntity
  8
ASSI
100
AcDbCircle
 62
250
  6
CONTINUOUS
 10
360.5697186771
 20
30.8588106195
 40
418.0725187345
100
AcDbArc
 50
177.5046626359
 51
179.4913893887
  0
ARC
  5
3F9
100
AcDbEntity
  8
RACCORDO
100
AcDbCircle
 62
250
  6
CONTINUOUS
 10
331.1665909488
 20
30.9039168486
 40
388.6696632215
100
AcDbArc
 50
179.5993445473
 51
182.5889069247
  0
ARC
  5
3FA
100
AcDbEntity
  8
ASSI
100
AcDbCircle
 62
250
  6
CONTINUOUS
 10
331.1665909488
 20
30.9039168486
 40
388.6696632215
100
AcDbArc
 50
179.5993445473
 51
182.5889069247
  0
SPLINE
  5
3FB
100
AcDbEntity
  8
0
100
AcDbSpline
 62
7
  6
CONTINUOUS
 70
0
 71
3
 72
12
 73
8
 74
0
 42
0.0000001
 43
0.0000001
 44
0.0000000001
 40
0.0
 40
0.0
 40
0.0
 40
0.0
 40
0.2897100769
 40
0.5571341973
 40
0.7941143831
 40
0.9001950395
 40
1.0
 40
1.0
 40
1.0
 40
1.0
 10
2.5242209676
 20
-25.2573512142
 30
0.0
 10
2.5449344897
 20
-25.2688177683
 30
0.0
 10
2.5856458922
 20
-25.2894111961
 30
0.0
 10
2.6465833511
 20
-25.3120463424
 30
0.0
 10
2.6964867075
 20
-25.3205319352
 30
0.0
 10
2.7327556652
 20
-25.3164722648
 30
0.0
 10
2.7486102343
 20
-25.3101036688
 30
0.0
 10
2.7556807008
 20
-25.3060376696
 30
0.0
  0
SPLINE
  5
3FC
100
AcDbEntity
  8
0
100
AcDbSpline
 62
7
  6
CONTINUOUS
 70
0
 71
3
 72
9
 73
5
 74
0
 42
0.0000001
 43
0.0000001
 44
0.0000000001
 40
0.0
 40
0.0
 40
0.0
 40
0.0
 40
0.5004491072
 40
1.0
 40
1.0
 40
1.0
 40
1.0
 10
3.2363275405
 20
-26.266245431
 30
0.0
 10
3.2679240343
 20
-26.3785287178
 30
0.0
 10
3.330022754
 20
-26.6031829754
 30
0.0
 10
3.3914812454
 20
-26.8280192264
 30
0.0
 10
3.4234003472
 20
-26.9399935519
 30
0.0
  0
SPLINE
  5
3FD
100
AcDbEntity
  8
0
100
AcDbSpline
 62
7
  6
CONTINUOUS
 70
0
 71
3
 72
9
 73
5
 74
0
 42
0.0000001
 43
0.0000001
 44
0.0000000001
 40
0.0
 40
0.0
 40
0.0
 40
0.0
 40
0.2466421472
 40
1.0
 40
1.0
 40
1.0
 40
1.0
 10
2.9664454928
 20
-25.6986103226
 30
0.0
 10
2.9690774243
 20
-25.7012104898
 30
0.0
 10
2.9796299906
 20
-25.7118723606
 30
0.0
 10
2.9897249683
 20
-25.7229843801
 30
0.0
 10
2.9970878941
 20
-25.7315571127
 30
0.0
  0
SPLINE
  5
3FE
100
AcDbEntity
  8
0
100
AcDbSpline
 62
7
  6
CONTINUOUS
 70
0
 71
3
 72
11
 73
7
 74
0
 42
0.0000001
 43
0.0000001
 44
0.0000000001
 40
0.0
 40
0.0
 40
0.0
 40
0.0
 40
0.2625669188
 40
0.518679836
 40
0.7635236004
 40
1.0
 40
1.0
 40
1.0
 40
1.0
 10
2.9970878941
 20
-25.7315571127
 30
0.0
 10
3.0307385523
 20
-25.7707369314
 30
0.0
 10
3.0873953173
 20
-25.8566050023
 30
0.0
 10
3.1505927628
 20
-25.99309612
 30
0.0
 10
3.1987423675
 20
-26.130129199
 30
0.0
 10
3.2237275691
 20
-26.2214693804
 30
0.0
 10
3.2363275405
 20
-26.266245431
 30
0.0
  0
LINE
  5
3FF
100
AcDbEntity
  8
0
100
AcDbLine
 62
7
  6
CONTINUOUS
 10
2.9664454928
 20
-25.6986103226
 11
2.9655112556
 21
-25.6856422113
  0
SPLINE
  5
400
100
AcDbEntity
  8
0
100
AcDbSpline
 62
7
  6
CONTINUOUS
 70
0
 71
3
 72
14
 73
10
 74
0
 42
0.0000001
 43
0.0000001
 44
0.0000000001
 40
0.0
 40
0.0
 40
0.0
 40
0.0
 40
0.1429303317
 40
0.2892142111
 40
0.4331788219
 40
0.5699064803
 40
0.6960202904
 40
0.8107238587
 40
1.0
 40
1.0
 40
1.0
 40
1.0
 10
2.8473599616
 20
-24.5500923641
 30
0.0
 10
2.8864133249
 20
-24.5873702189
 30
0.0
 10
2.9571674486
 20
-24.6713355767
 30
0.0
 10
3.048436226
 20
-24.8074067321
 30
0.0
 10
3.1217454278
 20
-24.9515751887
 30
0.0
 10
3.1740710934
 20
-25.0964473708
 30
0.0
 10
3.2034350355
 20
-25.2367514956
 30
0.0
 10
3.2157142206
 20
-25.3980339295
 30
0.0
 10
3.1961973985
 20
-25.5179745226
 30
0.0
 10
3.1599032617
 20
-25.5795722607
 30
0.0
  0
SPLINE
  5
401
100
AcDbEntity
  8
0
100
AcDbSpline
 62
7
  6
CONTINUOUS
 70
0
 71
3
 72
9
 73
5
 74
0
 42
0.0000001
 43
0.0000001
 44
0.0000000001
 40
0.0
 40
0.0
 40
0.0
 40
0.0
 40
0.5099069802
 40
1.0
 40
1.0
 40
1.0
 40
1.0
 10
3.1599032617
 20
-25.5795722607
 30
0.0
 10
3.1513900335
 20
-25.5940207543
 30
0.0
 10
3.1319947459
 20
-25.6209648473
 30
0.0
 10
3.1064296417
 20
-25.6422813918
 30
0.0
 10
3.092896954
 20
-25.6510374556
 30
0.0
  0
SPLINE
  5
402
100
AcDbEntity
  8
0
100
AcDbSpline
 62
7
  6
CONTINUOUS
 70
0
 71
3
 72
11
 73
7
 74
0
 42
0.0000001
 43
0.0000001
 44
0.0000000001
 40
0.0
 40
0.0
 40
0.0
 40
0.0
 40
0.2312540829
 40
0.471887772
 40
0.7261724802
 40
1.0
 40
1.0
 40
1.0
 40
1.0
 10
1.8260654915
 20
-23.9380568494
 30
0.0
 10
1.911171055
 20
-23.9736250341
 30
0.0
 10
2.0837115244
 20
-24.0490111039
 30
0.0
 10
2.341637975
 20
-24.1814176486
 30
0.0
 10
2.6022585322
 20
-24.3435331243
 30
0.0
 10
2.7683756564
 20
-24.4746568238
 30
0.0
 10
2.8473599616
 20
-24.5500923641
 30
0.0
  0
SPLINE
  5
403
100
AcDbEntity
  8
RACCORDO
100
AcDbSpline
 62
7
  6
CONTINUOUS
 70
0
 71
3
 72
9
 73
5
 74
0
 42
0.0000001
 43
0.0000001
 44
0.0000000001
 40
0.0
 40
0.0
 40
0.0
 40
0.0
 40
0.4999814859
 40
1.0
 40
1.0
 40
1.0
 40
1.0
 10
77.6900106679
 20
-4.544251435
 30
0.0
 10
77.7749507265
 20
-4.5932949337
 30
0.0
 10
77.9174253513
 20
-4.7419338141
 30
0.0
 10
77.974921229
 20
-4.9396417868
 30
0.0
 10
77.9749211959
 20
-5.0377310487
 30
0.0
  0
SPLINE
  5
404
100
AcDbEntity
  8
RACCORDO
100
AcDbSpline
 62
250
  6
CONTINUOUS
 70
0
 71
3
 72
9
 73
5
 74
0
 42
0.0000001
 43
0.0000001
 44
0.0000000001
 40
0.0
 40
0.0
 40
0.0
 40
0.0
 40
0.5274859415
 40
1.0
 40
1.0
 40
1.0
 40
1.0
 10
-56.8830498598
 20
12.6001999792
 30
0.0
 10
-56.9475233171
 20
12.7222069979
 30
0.0
 10
-57.0497506173
 20
12.9647065595
 30
0.0
 10
-57.1007686105
 20
13.2243863781
 30
0.0
 10
-57.1063702949
 20
13.3478729956
 30
0.0
  0
LINE
  5
405
100
AcDbEntity
  8
RACCORDO
100
AcDbLine
 62
250
  6
CONTINUOUS
 10
-74.724916005
 20
23.0225020963
 11
-74.7196779341
 21
22.8988794048
  0
SPLINE
  5
406
100
AcDbEntity
  8
RACCORDO
100
AcDbSpline
 62
250
  6
CONTINUOUS
 70
0
 71
3
 72
11
 73
7
 74
0
 42
0.0000001
 43
0.0000001
 44
0.0000000001
 40
0.0
 40
0.0
 40
0.0
 40
0.0
 40
0.2886584886
 40
0.5490438477
 40
0.783863926
 40
1.0
 40
1.0
 40
1.0
 40
1.0
 10
55.315530717
 20
-51.5631236713
 30
0.0
 10
55.3177555668
 20
-51.6173883291
 30
0.0
 10
55.3150413523
 20
-51.7211316976
 30
0.0
 10
55.2858120446
 20
-51.8665916073
 30
0.0
 10
55.2318572683
 20
-51.990361722
 30
0.0
 10
55.1780213992
 20
-52.0576676014
 30
0.0
 10
55.1480729379
 20
-52.0851769062
 30
0.0
  0
SPLINE
  5
407
100
AcDbEntity
  8
RACCORDO
100
AcDbSpline
 62
250
  6
CONTINUOUS
 70
0
 71
3
 72
9
 73
5
 74
0
 42
0.0000001
 43
0.0000001
 44
0.0000000001
 40
0.0
 40
0.0
 40
0.0
 40
0.0
 40
0.2457003807
 40
1.0
 40
1.0
 40
1.0
 40
1.0
 10
-56.4186690953
 20
13.3570593155
 30
0.0
 10
-56.5511878712
 20
16.2762495841
 30
0.0
 10
-56.9517587659
 20
28.1633893349
 30
0.0
 10
-56.8071992456
 20
40.0676940887
 30
0.0
 10
-56.4186690249
 20
49.0304138001
 30
0.0
  0
SPLINE
  5
408
100
AcDbEntity
  8
RACCORDO
100
AcDbSpline
 62
250
  6
CONTINUOUS
 70
0
 71
3
 72
9
 73
5
 74
0
 42
0.0000001
 43
0.0000001
 44
0.0000000001
 40
0.0
 40
0.0
 40
0.0
 40
0.0
 40
0.5220875466
 40
1.0
 40
1.0
 40
1.0
 40
1.0
 10
55.1480729379
 20
-15.0701623286
 30
0.0
 10
55.2051905854
 20
-15.1976637086
 30
0.0
 10
55.2912691315
 20
-15.4530779482
 30
0.0
 10
55.3205086162
 20
-15.7223162831
 30
0.0
 10
55.315530717
 20
-15.8501086359
 30
0.0
  0
SPLINE
  5
409
100
AcDbEntity
  8
RACCORDO
100
AcDbSpline
 62
250
  6
CONTINUOUS
 70
0
 71
3
 72
11
 73
7
 74
0
 42
0.0000001
 43
0.0000001
 44
0.0000000001
 40
0.0
 40
0.0
 40
0.0
 40
0.0
 40
0.2791527715
 40
0.5334305843
 40
0.7697680346
 40
1.0
 40
1.0
 40
1.0
 40
1.0
 10
-72.3056830191
 20
78.9797089312
 30
0.0
 10
-72.3534272332
 20
79.0063846171
 30
0.0
 10
-72.4500097589
 20
79.0488178845
 30
0.0
 10
-72.600425465
 20
79.0745605357
 30
0.0
 10
-72.7428135518
 20
79.0568079765
 30
0.0
 10
-72.8266881407
 20
79.0158423632
 30
0.0
 10
-72.8635589223
 20
78.9898588408
 30
0.0
  0
SPLINE
  5
40A
100
AcDbEntity
  8
RACCORDO
100
AcDbSpline
 62
250
  6
CONTINUOUS
 70
0
 71
3
 72
9
 73
5
 74
0
 42
0.0000001
 43
0.0000001
 44
0.0000000001
 40
0.0
 40
0.0
 40
0.0
 40
0.0
 40
0.2455441792
 40
1.0
 40
1.0
 40
1.0
 40
1.0
 10
72.9847040444
 20
-62.3837796935
 30
0.0
 10
72.8421575671
 20
-59.3569282927
 30
0.0
 10
72.4111608975
 20
-47.0230544885
 30
0.0
 10
72.567122405
 20
-34.6700613904
 30
0.0
 10
72.9847040341
 20
-25.3688590103
 30
0.0
  0
SPLINE
  5
40B
100
AcDbEntity
  8
RACCORDO
100
AcDbSpline
 62
250
  6
CONTINUOUS
 70
0
 71
3
 72
11
 73
7
 74
0
 42
0.0000001
 43
0.0000001
 44
0.0000000001
 40
0.0
 40
0.0
 40
0.0
 40
0.0
 40
0.2437248956
 40
0.5070498904
 40
0.7667008407
 40
1.0
 40
1.0
 40
1.0
 40
1.0
 10
75.2105778629
 20
-7.1203118303
 30
0.0
 10
75.2220781496
 20
-7.0007631031
 30
0.0
 10
75.2037291623
 20
-6.7475167887
 30
0.0
 10
75.0826627821
 20
-6.3860659048
 30
0.0
 10
74.8826426241
 20
-6.067539447
 30
0.0
 10
74.6989645768
 20
-5.9008411513
 30
0.0
 10
74.6002421406
 20
-5.8419310924
 30
0.0
  0
SPLINE
  5
40C
100
AcDbEntity
  8
RACCORDO
100
AcDbSpline
 62
250
  6
CONTINUOUS
 70
0
 71
3
 72
11
 73
7
 74
0
 42
0.0000001
 43
0.0000001
 44
0.0000000001
 40
0.0
 40
0.0
 40
0.0
 40
0.0
 40
0.2459717166
 40
0.5070723512
 40
0.7644189032
 40
1.0
 40
1.0
 40
1.0
 40
1.0
 10
-72.5031875255
 20
78.6655367369
 30
0.0
 10
-72.4986678678
 20
78.6964133883
 30
0.0
 10
-72.4812771971
 20
78.75898257
 30
0.0
 10
-72.4373741746
 20
78.8460600548
 30
0.0
 10
-72.3788495912
 20
78.9224139153
 30
0.0
 10
-72.3308803683
 20
78.9636355401
 30
0.0
 10
-72.3056830193
 20
78.9797089313
 30
0.0
  0
SPLINE
  5
40D
100
AcDbEntity
  8
RACCORDO
100
AcDbSpline
 62
250
  6
CONTINUOUS
 70
0
 71
3
 72
11
 73
7
 74
0
 42
0.0000001
 43
0.0000001
 44
0.0000000001
 40
0.0
 40
0.0
 40
0.0
 40
0.0
 40
0.3146560556
 40
0.5821355106
 40
0.8053036266
 40
1.0
 40
1.0
 40
1.0
 40
1.0
 10
-73.08390778
 20
78.3182391864
 30
0.0
 10
-73.0980430548
 20
78.3262248265
 30
0.0
 10
-73.123273273
 20
78.3428134285
 30
0.0
 10
-73.1532240209
 20
78.3720953761
 30
0.0
 10
-73.1712309309
 20
78.403270322
 30
0.0
 10
-73.1737815541
 20
78.4255422648
 30
0.0
 10
-73.1724350039
 20
78.4354971883
 30
0.0
  0
SPLINE
  5
40E
100
AcDbEntity
  8
RACCORDO
100
AcDbSpline
 62
250
  6
CONTINUOUS
 70
0
 71
3
 72
11
 73
7
 74
0
 42
0.0000001
 43
0.0000001
 44
0.0000000001
 40
0.0
 40
0.0
 40
0.0
 40
0.0
 40
0.2959796839
 40
0.5572281439
 40
0.7878045642
 40
1.0
 40
1.0
 40
1.0
 40
1.0
 10
-74.7196759555
 20
59.9138482664
 30
0.0
 10
-74.7331566258
 20
59.9215887322
 30
0.0
 10
-74.7574954904
 20
59.938170822
 30
0.0
 10
-74.7864691547
 20
59.9682277683
 30
0.0
 10
-74.8044020411
 20
60.0011973853
 30
0.0
 10
-74.8080203737
 20
60.024787966
 30
0.0
 10
-74.8075681648
 20
60.035923311
 30
0.0
  0
SPLINE
  5
40F
100
AcDbEntity
  8
RACCORDO
100
AcDbSpline
 62
250
  6
CONTINUOUS
 70
0
 71
3
 72
10
 73
6
 74
0
 42
0.0000001
 43
0.0000001
 44
0.0000000001
 40
0.0
 40
0.0
 40
0.0
 40
0.0
 40
0.5403953916
 40
0.776598005
 40
1.0
 40
1.0
 40
1.0
 40
1.0
 10
-74.7196759524
 20
22.8988336918
 30
0.0
 10
-74.7439450847
 20
22.9129165321
 30
0.0
 10
-74.7767037501
 20
22.939193681
 30
0.0
 10
-74.8020796679
 20
22.9851596325
 30
0.0
 10
-74.8070217833
 20
23.0089781353
 30
0.0
 10
-74.8075342506
 20
23.0205666036
 30
0.0
  0
SPLINE
  5
410
100
AcDbEntity
  8
RACCORDO
100
AcDbSpline
 62
250
  6
CONTINUOUS
 70
0
 71
3
 72
9
 73
5
 74
0
 42
0.0000001
 43
0.0000001
 44
0.0000000001
 40
0.0
 40
0.0
 40
0.0
 40
0.0
 40
0.5272733527
 40
1.0
 40
1.0
 40
1.0
 40
1.0
 10
-73.0839078018
 20
6.591932653
 30
0.0
 10
-73.1064280953
 20
6.6051306
 30
0.0
 10
-73.1459517835
 20
6.6372855318
 30
0.0
 10
-73.1674300836
 20
6.684446959
 30
0.0
 10
-73.1712077697
 20
6.7075423787
 30
0.0
  0
SPLINE
  5
411
100
AcDbEntity
  8
RACCORDO
100
AcDbSpline
 62
250
  6
CONTINUOUS
 70
0
 71
3
 72
9
 73
5
 74
0
 42
0.0000001
 43
0.0000001
 44
0.0000000001
 40
0.0
 40
0.0
 40
0.0
 40
0.0
 40
0.5348826977
 40
1.0
 40
1.0
 40
1.0
 40
1.0
 10
-72.5031875255
 20
5.7846524
 30
0.0
 10
-72.4996523913
 20
5.7645840231
 30
0.0
 10
-72.4877175164
 20
5.7273362944
 30
0.0
 10
-72.4599310895
 20
5.6986299138
 30
0.0
 10
-72.4445873335
 20
5.6897670415
 30
0.0
  0
SPLINE
  5
412
100
AcDbEntity
  8
RACCORDO
100
AcDbSpline
 62
250
  6
CONTINUOUS
 70
0
 71
3
 72
9
 73
5
 74
0
 42
0.0000001
 43
0.0000001
 44
0.0000000001
 40
0.0
 40
0.0
 40
0.0
 40
0.0
 40
0.5348781148
 40
1.0
 40
1.0
 40
1.0
 40
1.0
 10
74.4027376342
 20
-79.0369876236
 30
0.0
 10
74.4062713787
 20
-79.0570480527
 30
0.0
 10
74.4181995886
 20
-79.0942807111
 30
0.0
 10
74.4459644287
 20
-79.1229836483
 30
0.0
 10
74.4612983502
 20
-79.131850168
 30
0.0
  0
SPLINE
  5
413
100
AcDbEntity
  8
RACCORDO
100
AcDbSpline
 62
250
  6
CONTINUOUS
 70
0
 71
3
 72
11
 73
7
 74
0
 42
0.0000001
 43
0.0000001
 44
0.0000000001
 40
0.0
 40
0.0
 40
0.0
 40
0.0
 40
0.2304832009
 40
0.4863113269
 40
0.7496476391
 40
1.0
 40
1.0
 40
1.0
 40
1.0
 10
74.8010686909
 20
-78.7949993101
 30
0.0
 10
74.8297682196
 20
-78.8113211769
 30
0.0
 10
74.8973860132
 20
-78.8335777677
 30
0.0
 10
75.0057883187
 20
-78.8373418042
 30
0.0
 10
75.1146114249
 20
-78.8140845792
 30
0.0
 10
75.1814483551
 20
-78.7806658557
 30
0.0
 10
75.2105778629
 20
-78.7597474271
 30
0.0
  0
SPLINE
  5
414
100
AcDbEntity
  8
RACCORDO
100
AcDbSpline
 62
250
  6
CONTINUOUS
 70
0
 71
3
 72
11
 73
7
 74
0
 42
0.0000001
 43
0.0000001
 44
0.0000000001
 40
0.0
 40
0.0
 40
0.0
 40
0.0
 40
0.2341749793
 40
0.4937439205
 40
0.7567102334
 40
1.0
 40
1.0
 40
1.0
 40
1.0
 10
72.984706178
 20
-62.3838253843
 30
0.0
 10
73.0136716473
 20
-62.4004659391
 30
0.0
 10
73.0811513996
 20
-62.4245336146
 30
0.0
 10
73.1894512436
 20
-62.4348390327
 30
0.0
 10
73.2986766202
 20
-62.4210813507
 30
0.0
 10
73.3672265668
 20
-62.3951929582
 30
0.0
 10
73.3973080831
 20
-62.377884918
 30
0.0
  0
SPLINE
  5
415
100
AcDbEntity
  8
RACCORDO
100
AcDbSpline
 62
250
  6
CONTINUOUS
 70
0
 71
3
 72
11
 73
7
 74
0
 42
0.0000001
 43
0.0000001
 44
0.0000000001
 40
0.0
 40
0.0
 40
0.0
 40
0.0
 40
0.2373292082
 40
0.4998794602
 40
0.7624946699
 40
1.0
 40
1.0
 40
1.0
 40
1.0
 10
72.9847061818
 20
-25.3688108055
 30
0.0
 10
73.0138303529
 20
-25.3857198859
 30
0.0
 10
73.0810093438
 20
-25.4113651587
 30
0.0
 10
73.1887412583
 20
-25.4270993173
 30
0.0
 10
73.2974807654
 20
-25.4211895992
 30
0.0
 10
73.3667414037
 20
-25.4017419582
 30
0.0
 10
73.3973080831
 20
-25.3875470167
 30
0.0
  0
SPLINE
  5
416
100
AcDbEntity
  8
RACCORDO
100
AcDbSpline
 62
250
  6
CONTINUOUS
 70
0
 71
3
 72
11
 73
7
 74
0
 42
0.0000001
 43
0.0000001
 44
0.0000000001
 40
0.0
 40
0.0
 40
0.0
 40
0.0
 40
0.2414336896
 40
0.5077197665
 40
0.7698849836
 40
1.0
 40
1.0
 40
1.0
 40
1.0
 10
74.8010686691
 20
-7.0686928018
 30
0.0
 10
74.8303338872
 20
-7.0859551992
 30
0.0
 10
74.8969166859
 20
-7.1137481217
 30
0.0
 10
75.0033247881
 20
-7.1366144102
 30
0.0
 10
75.1104618205
 20
-7.1409609315
 30
0.0
 10
75.1797461951
 20
-7.1302259021
 30
0.0
 10
75.2105749402
 20
-7.1203099559
 30
0.0
  0
SPLINE
  5
417
100
AcDbEntity
  8
RACCORDO
100
AcDbSpline
 62
250
  6
CONTINUOUS
 70
0
 71
3
 72
11
 73
7
 74
0
 42
0.0000001
 43
0.0000001
 44
0.0000000001
 40
0.0
 40
0.0
 40
0.0
 40
0.0
 40
0.2459717159
 40
0.5070723674
 40
0.7644189286
 40
1.0
 40
1.0
 40
1.0
 40
1.0
 10
74.4027376342
 20
-6.1561032867
 30
0.0
 10
74.4072573072
 20
-6.1252266396
 30
0.0
 10
74.4246480009
 20
-6.0626574679
 30
0.0
 10
74.4685510333
 20
-5.9755799932
 30
0.0
 10
74.5270756029
 20
-5.8992261318
 30
0.0
 10
74.5750448042
 20
-5.8580044937
 30
0.0
 10
74.6002421406
 20
-5.8419310924
 30
0.0
  0
SPLINE
  5
418
100
AcDbEntity
  8
0
100
AcDbSpline
 62
250
  6
CONTINUOUS
 70
0
 71
3
 72
11
 73
7
 74
0
 42
0.0000001
 43
0.0000001
 44
0.0000000001
 40
0.0
 40
0.0
 40
0.0
 40
0.0
 40
0.2390740937
 40
0.5016463182
 40
0.7633192634
 40
1.0
 40
1.0
 40
1.0
 40
1.0
 10
-26.373400653
 20
-0.9456746912
 30
0.0
 10
-26.3527757647
 20
-0.9567866666
 30
0.0
 10
-26.3136271664
 20
-0.9878787509
 30
0.0
 10
-26.2678902228
 20
-1.0478340784
 30
0.0
 10
-26.2368347571
 20
-1.1162936345
 30
0.0
 10
-26.2281958283
 20
-1.1652378947
 30
0.0
 10
-26.2283640311
 20
-1.1884305545
 30
0.0
  0
SPLINE
  5
419
100
AcDbEntity
  8
0
100
AcDbSpline
 62
250
  6
CONTINUOUS
 70
0
 71
3
 72
10
 73
6
 74
0
 42
0.0000001
 43
0.0000001
 44
0.0000000001
 40
0.0
 40
0.0
 40
0.0
 40
0.0
 40
0.5470431534
 40
0.7810784988
 40
1.0
 40
1.0
 40
1.0
 40
1.0
 10
-26.3806747291
 20
-0.7071220899
 30
0.0
 10
-26.3643041872
 20
-0.6978349035
 30
0.0
 10
-26.33821058
 20
-0.687636997
 30
0.0
 10
-26.3033910489
 20
-0.6886879748
 30
0.0
 10
-26.2884271355
 20
-0.6941542544
 30
0.0
 10
-26.2819040215
 20
-0.6979202115
 30
0.0
  0
SPLINE
  5
41A
100
AcDbEntity
  8
0
100
AcDbSpline
 62
250
  6
CONTINUOUS
 70
0
 71
3
 72
10
 73
6
 74
0
 42
0.0000001
 43
0.0000001
 44
0.0000000001
 40
0.0
 40
0.0
 40
0.0
 40
0.0
 40
0.5470431479
 40
0.7810784974
 40
1.0
 40
1.0
 40
1.0
 40
1.0
 10
-27.9605713477
 20
0.2050904169
 30
0.0
 10
-27.944200805
 20
0.2143776023
 30
0.0
 10
-27.9181071967
 20
0.2245755079
 30
0.0
 10
-27.8832876651
 20
0.2235245296
 30
0.0
 10
-27.8683237507
 20
0.2180582508
 30
0.0
 10
-27.8618006366
 20
0.2142922934
 30
0.0
  0
SPLINE
  5
41B
100
AcDbEntity
  8
0
100
AcDbSpline
 62
250
  6
CONTINUOUS
 70
0
 71
3
 72
9
 73
5
 74
0
 42
0.0000001
 43
0.0000001
 44
0.0000000001
 40
0.0
 40
0.0
 40
0.0
 40
0.0
 40
0.5520742363
 40
1.0
 40
1.0
 40
1.0
 40
1.0
 10
-28.3773028901
 20
0.2113533457
 30
0.0
 10
-28.3927791102
 20
0.2209300983
 30
0.0
 10
-28.4237063647
 20
0.2350414482
 30
0.0
 10
-28.4589586285
 20
0.23106235
 30
0.0
 10
-28.4720141795
 20
0.224163341
 30
0.0
  0
SPLINE
  5
41C
100
AcDbEntity
  8
0
100
AcDbSpline
 62
250
  6
CONTINUOUS
 70
0
 71
3
 72
9
 73
5
 74
0
 42
0.0000001
 43
0.0000001
 44
0.0000000001
 40
0.0
 40
0.0
 40
0.0
 40
0.0
 40
0.5479059081
 40
1.0
 40
1.0
 40
1.0
 40
1.0
 10
-26.2283640311
 20
-1.7772993806
 30
0.0
 10
-26.2278313083
 20
-1.7952437998
 30
0.0
 10
-26.2312587034
 20
-1.8288633808
 30
0.0
 10
-26.2519699485
 20
-1.8571894196
 30
0.0
 10
-26.2643201852
 20
-1.8653684877
 30
0.0
  0
SPLINE
  5
41D
100
AcDbEntity
  8
RACCORDO
100
AcDbSpline
 62
250
  6
CONTINUOUS
 70
0
 71
3
 72
9
 73
5
 74
0
 42
0.0000001
 43
0.0000001
 44
0.0000000001
 40
0.0
 40
0.0
 40
0.0
 40
0.0
 40
0.5072370183
 40
1.0
 40
1.0
 40
1.0
 40
1.0
 10
-73.083907828
 20
78.3182391687
 30
0.0
 10
-73.5022221628
 20
75.2214332269
 30
0.0
 10
-74.1935140781
 20
69.0972859566
 30
0.0
 10
-74.5973587728
 20
62.9470957128
 30
0.0
 10
-74.7196778616
 20
59.9138000523
 30
0.0
  0
SPLINE
  5
41E
100
AcDbEntity
  8
0
100
AcDbSpline
 62
250
  6
CONTINUOUS
 70
0
 71
3
 72
9
 73
5
 74
0
 42
0.0000001
 43
0.0000001
 44
0.0000000001
 40
0.0
 40
0.0
 40
0.0
 40
0.0
 40
0.4479257743
 40
1.0
 40
1.0
 40
1.0
 40
1.0
 10
51.0774987054
 20
-46.0333165182
 30
0.0
 10
51.0905542568
 20
-46.0264175099
 30
0.0
 10
51.1258065198
 20
-46.0224384158
 30
0.0
 10
51.1567337734
 20
-46.0365497631
 30
0.0
 10
51.1722099934
 20
-46.0461265144
 30
0.0
  0
SPLINE
  5
41F
100
AcDbEntity
  8
RACCORDO
100
AcDbSpline
 62
250
  6
CONTINUOUS
 70
0
 71
3
 72
10
 73
6
 74
0
 42
0.0000001
 43
0.0000001
 44
0.0000000001
 40
0.0
 40
0.0
 40
0.0
 40
0.0
 40
0.5364103628
 40
0.7754406894
 40
1.0
 40
1.0
 40
1.0
 40
1.0
 10
-56.4186688631
 20
49.0304138749
 30
0.0
 10
-56.4158665555
 20
49.0981444472
 30
0.0
 10
-56.3983028917
 20
49.1973714765
 30
0.0
 10
-56.3386253529
 20
49.3097334494
 30
0.0
 10
-56.2992619203
 20
49.354120837
 30
0.0
 10
-56.2777823579
 20
49.372667264
 30
0.0
  0
SPLINE
  5
420
100
AcDbEntity
  8
0
100
AcDbSpline
 62
250
  6
CONTINUOUS
 70
0
 71
3
 72
10
 73
6
 74
0
 42
0.0000001
 43
0.0000001
 44
0.0000000001
 40
0.0
 40
0.0
 40
0.0
 40
0.0
 40
0.2189215095
 40
0.4529568576
 40
1.0
 40
1.0
 40
1.0
 40
1.0
 10
53.2676088582
 20
-46.9554000693
 30
0.0
 10
53.2610857442
 20
-46.9516341121
 30
0.0
 10
53.2461218306
 20
-46.9461678331
 30
0.0
 10
53.2113023008
 20
-46.9451168559
 30
0.0
 10
53.1852086949
 20
-46.9553147633
 30
0.0
 10
53.1688381544
 20
-46.96460195
 30
0.0
  0
SPLINE
  5
421
100
AcDbEntity
  8
0
100
AcDbSpline
 62
250
  6
CONTINUOUS
 70
0
 71
3
 72
9
 73
5
 74
0
 42
0.0000001
 43
0.0000001
 44
0.0000000001
 40
0.0
 40
0.0
 40
0.0
 40
0.0
 40
0.5479059081
 40
1.0
 40
1.0
 40
1.0
 40
1.0
 10
37.4112462757
 20
-38.5220127801
 30
0.0
 10
37.4117789985
 20
-38.5399571992
 30
0.0
 10
37.4083516034
 20
-38.5735767803
 30
0.0
 10
37.3876403583
 20
-38.6019028191
 30
0.0
 10
37.3752901216
 20
-38.6100818872
 30
0.0
  0
SPLINE
  5
422
100
AcDbEntity
  8
0
100
AcDbSpline
 62
250
  6
CONTINUOUS
 70
0
 71
3
 72
10
 73
6
 74
0
 42
0.0000001
 43
0.0000001
 44
0.0000000001
 40
0.0
 40
0.0
 40
0.0
 40
0.0
 40
0.2189215012
 40
0.4529568466
 40
1.0
 40
1.0
 40
1.0
 40
1.0
 10
51.6877122434
 20
-46.0431875647
 30
0.0
 10
51.6811891293
 20
-46.0394216076
 30
0.0
 10
51.666225216
 20
-46.033955328
 30
0.0
 10
51.6314056849
 20
-46.0329043502
 30
0.0
 10
51.6053120776
 20
-46.0431022568
 30
0.0
 10
51.5889415358
 20
-46.0523894432
 30
0.0
  0
SPLINE
  5
423
100
AcDbEntity
  8
0
100
AcDbSpline
 62
250
  6
CONTINUOUS
 70
0
 71
3
 72
11
 73
7
 74
0
 42
0.0000001
 43
0.0000001
 44
0.0000000001
 40
0.0
 40
0.0
 40
0.0
 40
0.0
 40
0.2366807374
 40
0.4983536832
 40
0.7609259077
 40
1.0
 40
1.0
 40
1.0
 40
1.0
 10
37.4112462757
 20
-37.933143954
 30
0.0
 10
37.4114144785
 20
-37.9099512941
 30
0.0
 10
37.4027755494
 20
-37.8610070338
 30
0.0
 10
37.3717200832
 20
-37.792547478
 30
0.0
 10
37.3259831398
 20
-37.7325921506
 30
0.0
 10
37.2868345418
 20
-37.7015000662
 30
0.0
 10
37.2662096538
 20
-37.6903880907
 30
0.0
  0
SPLINE
  5
424
100
AcDbEntity
  8
RACCORDO
100
AcDbSpline
 62
250
  6
CONTINUOUS
 70
0
 71
3
 72
14
 73
10
 74
0
 42
0.0000001
 43
0.0000001
 44
0.0000000001
 40
0.0
 40
0.0
 40
0.0
 40
0.0
 40
0.2518617734
 40
0.366920505
 40
0.4801613204
 40
0.5968815402
 40
0.7212207853
 40
0.8554308343
 40
1.0
 40
1.0
 40
1.0
 40
1.0
 10
-72.5031875255
 20
78.6655367369
 30
0.0
 10
-72.5630209067
 20
78.7000881588
 30
0.0
 10
-72.6632712724
 20
78.7349793605
 30
0.0
 10
-72.7960808576
 20
78.7215593357
 30
0.0
 10
-72.8844726099
 20
78.6837773499
 30
0.0
 10
-72.9598591281
 20
78.6204621478
 30
0.0
 10
-73.0196698707
 20
78.53547414
 30
0.0
 10
-73.0625008782
 20
78.4327467711
 30
0.0
 10
-73.0785978883
 20
78.3575415784
 30
0.0
 10
-73.083907828
 20
78.3182391687
 30
0.0
  0
SPLINE
  5
425
100
AcDbEntity
  8
0
100
AcDbSpline
 62
250
  6
CONTINUOUS
 70
0
 71
3
 72
11
 73
7
 74
0
 42
0.0000001
 43
0.0000001
 44
0.0000000001
 40
0.0
 40
0.0
 40
0.0
 40
0.0
 40
0.2195029721
 40
0.4533293544
 40
0.7118869273
 40
1.0
 40
1.0
 40
1.0
 40
1.0
 10
53.4554718176
 20
-47.2504868311
 30
0.0
 10
53.4554675426
 20
-47.2685696286
 30
0.0
 10
53.4490936684
 20
-47.306153612
 30
0.0
 10
53.4216356495
 20
-47.3588346654
 30
0.0
 10
53.3780510543
 20
-47.4068578631
 30
0.0
 10
53.3413859352
 20
-47.4335084797
 30
0.0
 10
53.3211488524
 20
-47.4459104146
 30
0.0
  0
SPLINE
  5
426
100
AcDbEntity
  8
RACCORDO
100
AcDbSpline
 62
250
  6
CONTINUOUS
 70
0
 71
3
 72
10
 73
6
 74
0
 42
0.0000001
 43
0.0000001
 44
0.0000000001
 40
0.0
 40
0.0
 40
0.0
 40
0.0
 40
0.2296400571
 40
0.4782597179
 40
1.0
 40
1.0
 40
1.0
 40
1.0
 10
-55.8051389345
 20
12.4066946459
 30
0.0
 10
-55.8516459711
 20
12.4317672394
 30
0.0
 10
-55.9436103573
 20
12.4933583099
 30
0.0
 10
-56.1137839254
 20
12.6488950438
 30
0.0
 10
-56.2199167065
 20
12.7942196982
 30
0.0
 10
-56.2777823579
 20
12.8993926111
 30
0.0
  0
SPLINE
  5
427
100
AcDbEntity
  8
0
100
AcDbSpline
 62
250
  6
CONTINUOUS
 70
0
 71
3
 72
11
 73
7
 74
0
 42
0.0000001
 43
0.0000001
 44
0.0000000001
 40
0.0
 40
0.0
 40
0.0
 40
0.0
 40
0.2366807374
 40
0.4983536832
 40
0.7609259077
 40
1.0
 40
1.0
 40
1.0
 40
1.0
 10
53.3211488524
 20
-47.4459104146
 30
0.0
 10
53.3213170552
 20
-47.4227177547
 30
0.0
 10
53.3126781261
 20
-47.3737734944
 30
0.0
 10
53.2816226599
 20
-47.3053139386
 30
0.0
 10
53.2358857165
 20
-47.2453586112
 30
0.0
 10
53.1967371185
 20
-47.2142665268
 30
0.0
 10
53.1761122305
 20
-47.2031545513
 30
0.0
  0
SPLINE
  5
428
100
AcDbEntity
  8
0
100
AcDbSpline
 62
250
  6
CONTINUOUS
 70
0
 71
3
 72
9
 73
5
 74
0
 42
0.0000001
 43
0.0000001
 44
0.0000000001
 40
0.0
 40
0.0
 40
0.0
 40
0.0
 40
0.5479059081
 40
1.0
 40
1.0
 40
1.0
 40
1.0
 10
53.3211488524
 20
-48.0347792407
 30
0.0
 10
53.3216815752
 20
-48.0527236598
 30
0.0
 10
53.3182541801
 20
-48.0863432409
 30
0.0
 10
53.297542935
 20
-48.1146692797
 30
0.0
 10
53.2851926983
 20
-48.1228483477
 30
0.0
  0
SPLINE
  5
429
100
AcDbEntity
  8
0
100
AcDbSpline
 62
250
  6
CONTINUOUS
 70
0
 71
3
 72
11
 73
7
 74
0
 42
0.0000001
 43
0.0000001
 44
0.0000000001
 40
0.0
 40
0.0
 40
0.0
 40
0.0
 40
0.2390740937
 40
0.5016463182
 40
0.7633192634
 40
1.0
 40
1.0
 40
1.0
 40
1.0
 10
-42.2833032297
 20
7.9139155479
 30
0.0
 10
-42.2626783414
 20
7.9028035726
 30
0.0
 10
-42.2235297431
 20
7.8717114883
 30
0.0
 10
-42.1777927995
 20
7.8117561608
 30
0.0
 10
-42.1467373338
 20
7.7432966047
 30
0.0
 10
-42.138098405
 20
7.6943523445
 30
0.0
 10
-42.1382666078
 20
7.6711596846
 30
0.0
  0
SPLINE
  5
42A
100
AcDbEntity
  8
0
100
AcDbSpline
 62
250
  6
CONTINUOUS
 70
0
 71
3
 72
10
 73
6
 74
0
 42
0.0000001
 43
0.0000001
 44
0.0000000001
 40
0.0
 40
0.0
 40
0.0
 40
0.0
 40
0.5470431534
 40
0.7810784988
 40
1.0
 40
1.0
 40
1.0
 40
1.0
 10
-42.2905773058
 20
8.1524681492
 30
0.0
 10
-42.2742067639
 20
8.1617553356
 30
0.0
 10
-42.2481131567
 20
8.1719532422
 30
0.0
 10
-42.2132936256
 20
8.1709022644
 30
0.0
 10
-42.1983297122
 20
8.1654359848
 30
0.0
 10
-42.1918065982
 20
8.1616700277
 30
0.0
  0
SPLINE
  5
42B
100
AcDbEntity
  8
0
100
AcDbSpline
 62
250
  6
CONTINUOUS
 70
0
 71
3
 72
10
 73
6
 74
0
 42
0.0000001
 43
0.0000001
 44
0.0000000001
 40
0.0
 40
0.0
 40
0.0
 40
0.0
 40
0.5470431479
 40
0.7810784974
 40
1.0
 40
1.0
 40
1.0
 40
1.0
 10
-43.8704739244
 20
9.0646806561
 30
0.0
 10
-43.8541033817
 20
9.0739678415
 30
0.0
 10
-43.8280097734
 20
9.084165747
 30
0.0
 10
-43.7931902418
 20
9.0831147688
 30
0.0
 10
-43.7782263274
 20
9.07764849
 30
0.0
 10
-43.7717032133
 20
9.0738825325
 30
0.0
  0
SPLINE
  5
42C
100
AcDbEntity
  8
0
100
AcDbSpline
 62
250
  6
CONTINUOUS
 70
0
 71
3
 72
9
 73
5
 74
0
 42
0.0000001
 43
0.0000001
 44
0.0000000001
 40
0.0
 40
0.0
 40
0.0
 40
0.0
 40
0.5520742363
 40
1.0
 40
1.0
 40
1.0
 40
1.0
 10
-44.2872054668
 20
9.0709435848
 30
0.0
 10
-44.3026816869
 20
9.0805203375
 30
0.0
 10
-44.3336089414
 20
9.0946316873
 30
0.0
 10
-44.3688612052
 20
9.0906525892
 30
0.0
 10
-44.3819167562
 20
9.0837535801
 30
0.0
  0
SPLINE
  5
42D
100
AcDbEntity
  8
0
100
AcDbSpline
 62
250
  6
CONTINUOUS
 70
0
 71
3
 72
11
 73
7
 74
0
 42
0.0000001
 43
0.0000001
 44
0.0000000001
 40
0.0
 40
0.0
 40
0.0
 40
0.0
 40
0.2863201425
 40
0.5446983003
 40
0.7794413706
 40
1.0
 40
1.0
 40
1.0
 40
1.0
 10
37.4112462757
 20
-38.5220127801
 30
0.0
 10
37.4315339894
 20
-38.5089438299
 30
0.0
 10
37.468285896
 20
-38.4809401933
 30
0.0
 10
37.5118080658
 20
-38.4310005986
 30
0.0
 10
37.5391860445
 20
-38.3766132441
 30
0.0
 10
37.545563087
 20
-38.338010788
 30
0.0
 10
37.5455692353
 20
-38.3194208205
 30
0.0
  0
SPLINE
  5
42E
100
AcDbEntity
  8
0
100
AcDbSpline
 62
250
  6
CONTINUOUS
 70
0
 71
3
 72
11
 73
7
 74
0
 42
0.0000001
 43
0.0000001
 44
0.0000000001
 40
0.0
 40
0.0
 40
0.0
 40
0.0
 40
0.2863201425
 40
0.5446983003
 40
0.7794413706
 40
1.0
 40
1.0
 40
1.0
 40
1.0
 10
-26.2283640311
 20
-1.7772993806
 30
0.0
 10
-26.2080763174
 20
-1.7642304304
 30
0.0
 10
-26.1713244108
 20
-1.7362267938
 30
0.0
 10
-26.1278022409
 20
-1.6862871991
 30
0.0
 10
-26.1004242623
 20
-1.6318998446
 30
0.0
 10
-26.0940472198
 20
-1.5932973885
 30
0.0
 10
-26.0940410715
 20
-1.574707421
 30
0.0
  0
SPLINE
  5
42F
100
AcDbEntity
  8
0
100
AcDbSpline
 62
250
  6
CONTINUOUS
 70
0
 71
3
 72
11
 73
7
 74
0
 42
0.0000001
 43
0.0000001
 44
0.0000000001
 40
0.0
 40
0.0
 40
0.0
 40
0.0
 40
0.2881108413
 40
0.5466686553
 40
0.7804956777
 40
1.0
 40
1.0
 40
1.0
 40
1.0
 10
-26.2283537924
 20
-1.1884242784
 30
0.0
 10
-26.2081187945
 20
-1.1760223437
 30
0.0
 10
-26.1714566497
 20
-1.1493732191
 30
0.0
 10
-26.1278759753
 20
-1.1013524712
 30
0.0
 10
-26.1004199687
 20
-1.0486747882
 30
0.0
 10
-26.0940458794
 20
-1.0110933739
 30
0.0
 10
-26.0940410736
 20
-0.9930116797
 30
0.0
  0
SPLINE
  5
430
100
AcDbEntity
  8
RACCORDO
100
AcDbSpline
 62
250
  6
CONTINUOUS
 70
0
 71
3
 72
9
 73
5
 74
0
 42
0.0000001
 43
0.0000001
 44
0.0000000001
 40
0.0
 40
0.0
 40
0.0
 40
0.0
 40
0.5272833202
 40
1.0
 40
1.0
 40
1.0
 40
1.0
 10
-56.2777823579
 20
12.8993926111
 30
0.0
 10
-56.3186112909
 20
12.9735981057
 30
0.0
 10
-56.3834230651
 20
13.1217127943
 30
0.0
 10
-56.4153887123
 20
13.2811989236
 30
0.0
 10
-56.4186689632
 20
13.3570593917
 30
0.0
  0
SPLINE
  5
431
100
AcDbEntity
  8
0
100
AcDbSpline
 62
250
  6
CONTINUOUS
 70
0
 71
3
 72
11
 73
7
 74
0
 42
0.0000001
 43
0.0000001
 44
0.0000000001
 40
0.0
 40
0.0
 40
0.0
 40
0.0
 40
0.2863201425
 40
0.5446983003
 40
0.7794413706
 40
1.0
 40
1.0
 40
1.0
 40
1.0
 10
53.3211488524
 20
-48.0347792407
 30
0.0
 10
53.3414365661
 20
-48.0217102905
 30
0.0
 10
53.3781884727
 20
-47.9937066539
 30
0.0
 10
53.4217106425
 20
-47.9437670591
 30
0.0
 10
53.4490886212
 20
-47.8893797046
 30
0.0
 10
53.4554656637
 20
-47.8507772486
 30
0.0
 10
53.455471812
 20
-47.832187281
 30
0.0
  0
SPLINE
  5
432
100
AcDbEntity
  8
0
100
AcDbSpline
 62
250
  6
CONTINUOUS
 70
0
 71
3
 72
11
 73
7
 74
0
 42
0.0000001
 43
0.0000001
 44
0.0000000001
 40
0.0
 40
0.0
 40
0.0
 40
0.0
 40
0.2881108413
 40
0.5466686553
 40
0.7804956777
 40
1.0
 40
1.0
 40
1.0
 40
1.0
 10
-42.1382563691
 20
7.6711659608
 30
0.0
 10
-42.1180213712
 20
7.6835678955
 30
0.0
 10
-42.0813592264
 20
7.7102170201
 30
0.0
 10
-42.037778552
 20
7.758237768
 30
0.0
 10
-42.0103225454
 20
7.8109154509
 30
0.0
 10
-42.0039484561
 20
7.8484968652
 30
0.0
 10
-42.0039436503
 20
7.8665785594
 30
0.0
  0
SPLINE
  5
433
100
AcDbEntity
  8
RACCORDO
100
AcDbSpline
 62
250
  6
CONTINUOUS
 70
0
 71
3
 72
9
 73
5
 74
0
 42
0.0000001
 43
0.0000001
 44
0.0000000001
 40
0.0
 40
0.0
 40
0.0
 40
0.0
 40
0.2720688583
 40
1.0
 40
1.0
 40
1.0
 40
1.0
 10
55.3155315757
 20
-51.5631231272
 30
0.0
 10
55.3030920856
 20
-51.5559060167
 30
0.0
 10
55.2587365778
 20
-51.5272888227
 30
0.0
 10
55.2197663425
 20
-51.4889289759
 30
0.0
 10
55.1996061403
 20
-51.4561548291
 30
0.0
  0
SPLINE
  5
434
100
AcDbEntity
  8
RACCORDO
100
AcDbSpline
 62
250
  6
CONTINUOUS
 70
0
 71
3
 72
9
 73
5
 74
0
 42
0.0000001
 43
0.0000001
 44
0.0000000001
 40
0.0
 40
0.0
 40
0.0
 40
0.0
 40
0.5106653446
 40
1.0
 40
1.0
 40
1.0
 40
1.0
 10
55.1996061403
 20
-51.4561548291
 30
0.0
 10
55.1905230224
 20
-51.4413885367
 30
0.0
 10
55.1758733988
 20
-51.4103421134
 30
0.0
 10
55.16976935
 20
-51.3764703722
 30
0.0
 10
55.169087891
 20
-51.3598722236
 30
0.0
  0
SPLINE
  5
435
100
AcDbEntity
  8
RACCORDO
100
AcDbSpline
 62
250
  6
CONTINUOUS
 70
0
 71
3
 72
11
 73
7
 74
0
 42
0.0000001
 43
0.0000001
 44
0.0000000001
 40
0.0
 40
0.0
 40
0.0
 40
0.0
 40
0.2688137508
 40
0.5262802714
 40
0.7691183915
 40
1.0
 40
1.0
 40
1.0
 40
1.0
 10
55.148075283
 20
-52.0851754155
 30
0.0
 10
55.1169794634
 20
-52.0415644404
 30
0.0
 10
55.0673050524
 20
-51.9474007145
 30
0.0
 10
55.0369117854
 20
-51.7948489022
 30
0.0
 10
55.0553157232
 20
-51.6475273191
 30
0.0
 10
55.1012345278
 20
-51.5619399216
 30
0.0
 10
55.1306057333
 20
-51.5265326375
 30
0.0
  0
SPLINE
  5
436
100
AcDbEntity
  8
RACCORDO
100
AcDbSpline
 62
250
  6
CONTINUOUS
 70
0
 71
3
 72
11
 73
7
 74
0
 42
0.0000001
 43
0.0000001
 44
0.0000000001
 40
0.0
 40
0.0
 40
0.0
 40
0.0
 40
0.2323706358
 40
0.4933105248
 40
0.7578922962
 40
1.0
 40
1.0
 40
1.0
 40
1.0
 10
54.4414210293
 20
-52.0640709373
 30
0.0
 10
54.4387254325
 20
-52.0073778867
 30
0.0
 10
54.4557377145
 20
-51.8859131708
 30
0.0
 10
54.5258756751
 20
-51.7131082181
 30
0.0
 10
54.6328828994
 20
-51.5574562631
 30
0.0
 10
54.7261116912
 20
-51.4732527743
 30
0.0
 10
54.7759672101
 20
-51.4414498985
 30
0.0
  0
SPLINE
  5
437
100
AcDbEntity
  8
RACCORDO
100
AcDbSpline
 62
250
  6
CONTINUOUS
 70
0
 71
3
 72
11
 73
7
 74
0
 42
0.0000001
 43
0.0000001
 44
0.0000000001
 40
0.0
 40
0.0
 40
0.0
 40
0.0
 40
0.2323706361
 40
0.4933105252
 40
0.7578922965
 40
1.0
 40
1.0
 40
1.0
 40
1.0
 10
-56.1396789193
 20
11.7840702664
 30
0.0
 10
-56.1423745162
 20
11.8407633171
 30
0.0
 10
-56.125362234
 20
11.962228033
 30
0.0
 10
-56.0552242733
 20
12.1350329857
 30
0.0
 10
-55.9482170491
 20
12.2906849406
 30
0.0
 10
-55.8549882574
 20
12.3748884293
 30
0.0
 10
-55.8051327385
 20
12.4066913052
 30
0.0
  0
SPLINE
  5
438
100
AcDbEntity
  8
RACCORDO
100
AcDbSpline
 62
250
  6
CONTINUOUS
 70
0
 71
3
 72
11
 73
7
 74
0
 42
0.0000001
 43
0.0000001
 44
0.0000000001
 40
0.0
 40
0.0
 40
0.0
 40
0.0
 40
0.1980009419
 40
0.4554617073
 40
0.736075819
 40
1.0
 40
1.0
 40
1.0
 40
1.0
 10
-56.8830411419
 20
12.6001862118
 30
0.0
 10
-56.8404701525
 20
12.6136172948
 30
0.0
 10
-56.7449459817
 20
12.6518293946
 30
0.0
 10
-56.5945557595
 20
12.722007201
 30
0.0
 10
-56.4343838757
 20
12.8060511532
 30
0.0
 10
-56.3282238124
 20
12.8678328759
 30
0.0
 10
-56.2777813345
 20
12.8993929145
 30
0.0
  0
SPLINE
  5
439
100
AcDbEntity
  8
RACCORDO
100
AcDbSpline
 62
250
  6
CONTINUOUS
 70
0
 71
3
 72
11
 73
7
 74
0
 42
0.0000001
 43
0.0000001
 44
0.0000000001
 40
0.0
 40
0.0
 40
0.0
 40
0.0
 40
0.2342175754
 40
0.4938504766
 40
0.756822545
 40
1.0
 40
1.0
 40
1.0
 40
1.0
 10
-57.1063702852
 20
13.3478730017
 30
0.0
 10
-57.0580915837
 20
13.3201324195
 30
0.0
 10
-56.9456325388
 20
13.2799729931
 30
0.0
 10
-56.7651401323
 20
13.2626437875
 30
0.0
 10
-56.5830988411
 20
13.2853445059
 30
0.0
 10
-56.4688204776
 20
13.3283110028
 30
0.0
 10
-56.4186694016
 20
13.3570683692
 30
0.0
  0
SPLINE
  5
43A
100
AcDbEntity
  8
RACCORDO
100
AcDbSpline
 62
250
  6
CONTINUOUS
 70
0
 71
3
 72
11
 73
7
 74
0
 42
0.0000001
 43
0.0000001
 44
0.0000000001
 40
0.0
 40
0.0
 40
0.0
 40
0.0
 40
0.2372606417
 40
0.4997701095
 40
0.7624035052
 40
1.0
 40
1.0
 40
1.0
 40
1.0
 10
-57.1063693874
 20
49.060888504
 30
0.0
 10
-57.0578356684
 20
49.032716016
 30
0.0
 10
-56.9458604721
 20
48.9900196671
 30
0.0
 10
-56.7662813863
 20
48.9639601026
 30
0.0
 10
-56.5850215163
 20
48.9740406694
 30
0.0
 10
-56.4695998641
 20
49.0066500717
 30
0.0
 10
-56.4186686494
 20
49.0304017944
 30
0.0
  0
SPLINE
  5
43B
100
AcDbEntity
  8
RACCORDO
100
AcDbSpline
 62
250
  6
CONTINUOUS
 70
0
 71
3
 72
11
 73
7
 74
0
 42
0.0000001
 43
0.0000001
 44
0.0000000001
 40
0.0
 40
0.0
 40
0.0
 40
0.0
 40
0.269959181
 40
0.5326509904
 40
0.7767466084
 40
1.0
 40
1.0
 40
1.0
 40
1.0
 10
-56.8830403862
 20
49.6152009966
 30
0.0
 10
-56.8489603472
 20
49.5618600664
 30
0.0
 10
-56.7652577694
 20
49.4662267263
 30
0.0
 10
-56.607809547
 20
49.3691485974
 30
0.0
 10
-56.4373767039
 20
49.3304219054
 30
0.0
 10
-56.3254404929
 20
49.3510131711
 30
0.0
 10
-56.2777808512
 20
49.3726647193
 30
0.0
  0
SPLINE
  5
43C
100
AcDbEntity
  8
RACCORDO
100
AcDbSpline
 62
250
  6
CONTINUOUS
 70
0
 71
3
 72
11
 73
7
 74
0
 42
0.0000001
 43
0.0000001
 44
0.0000000001
 40
0.0
 40
0.0
 40
0.0
 40
0.0
 40
0.2927291439
 40
0.5531537307
 40
0.7851449481
 40
1.0
 40
1.0
 40
1.0
 40
1.0
 10
-56.1396789193
 20
49.6152908032
 30
0.0
 10
-56.1409274585
 20
49.5875900899
 30
0.0
 10
-56.1390763474
 20
49.5348691481
 30
0.0
 10
-56.120780222
 20
49.4620696921
 30
0.0
 10
-56.0871955668
 20
49.402940647
 30
0.0
 10
-56.0543376028
 20
49.3745837334
 30
0.0
 10
-56.0367191406
 20
49.3643954251
 30
0.0
  0
SPLINE
  5
43D
100
AcDbEntity
  8
RACCORDO
100
AcDbSpline
 62
250
  6
CONTINUOUS
 70
0
 71
3
 72
11
 73
7
 74
0
 42
0.0000001
 43
0.0000001
 44
0.0000000001
 40
0.0
 40
0.0
 40
0.0
 40
0.0
 40
0.2927402536
 40
0.5531621829
 40
0.7851444849
 40
1.0
 40
1.0
 40
1.0
 40
1.0
 10
54.4414210293
 20
-14.2328504004
 30
0.0
 10
54.4401720495
 20
-14.2605608911
 30
0.0
 10
54.442025201
 20
-14.3132994833
 30
0.0
 10
54.4603361699
 20
-14.3861202477
 30
0.0
 10
54.4939476778
 20
-14.4452588923
 30
0.0
 10
54.5268297234
 20
-14.4736091946
 30
0.0
 10
54.5444593135
 20
-14.4837911478
 30
0.0
  0
SPLINE
  5
43E
100
AcDbEntity
  8
RACCORDO
100
AcDbSpline
 62
250
  6
CONTINUOUS
 70
0
 71
3
 72
12
 73
8
 74
0
 42
0.0000001
 43
0.0000001
 44
0.0000000001
 40
0.0
 40
0.0
 40
0.0
 40
0.0
 40
0.4139965557
 40
0.7205258331
 40
0.9130117828
 40
0.9674660979
 40
1.0
 40
1.0
 40
1.0
 40
1.0
 10
55.1480745496
 20
-15.0701614919
 30
0.0
 10
55.1340576178
 20
-15.074862535
 30
0.0
 10
55.1095134827
 20
-15.0827173432
 30
0.0
 10
55.0780985601
 20
-15.0911280583
 30
0.0
 10
55.0583899348
 20
-15.0945141383
 30
0.0
 10
55.0484836995
 20
-15.0941731425
 30
0.0
 10
55.0454140718
 20
-15.0924702084
 30
0.0
 10
55.0449380974
 20
-15.0914103621
 30
0.0
  0
SPLINE
  5
43F
100
AcDbEntity
  8
RACCORDO
100
AcDbSpline
 62
250
  6
CONTINUOUS
 70
0
 71
3
 72
11
 73
7
 74
0
 42
0.0000001
 43
0.0000001
 44
0.0000000001
 40
0.0
 40
0.0
 40
0.0
 40
0.0
 40
0.2958059915
 40
0.5569048053
 40
0.7876085338
 40
1.0
 40
1.0
 40
1.0
 40
1.0
 10
55.3155307266
 20
-15.8501086309
 30
0.0
 10
55.2930758737
 20
-15.8372126433
 30
0.0
 10
55.2525315671
 20
-15.8095875198
 30
0.0
 10
55.20427669
 20
-15.7594805269
 30
0.0
 10
55.1743710853
 20
-15.7045184275
 30
0.0
 10
55.1683247875
 20
-15.6651788377
 30
0.0
 10
55.1690460516
 20
-15.6466003153
 30
0.0
  0
SPLINE
  5
440
100
AcDbEntity
  8
0
100
AcDbSpline
 62
250
  6
CONTINUOUS
 70
0
 71
3
 72
11
 73
7
 74
0
 42
0.0000001
 43
0.0000001
 44
0.0000000001
 40
0.0
 40
0.0
 40
0.0
 40
0.0
 40
0.2205599427
 40
0.4553011903
 40
0.7136794495
 40
1.0
 40
1.0
 40
1.0
 40
1.0
 10
-42.0039436488
 20
7.2849050573
 30
0.0
 10
-42.0039474445
 20
7.2663142559
 30
0.0
 10
-42.0103201567
 20
7.2277094605
 30
0.0
 10
-42.0376946437
 20
7.1733175229
 30
0.0
 10
-42.0812156896
 20
7.1233735834
 30
0.0
 10
-42.1179679377
 20
7.095367177
 30
0.0
 10
-42.1382563269
 20
7.0822974797
 30
0.0
  0
SPLINE
  5
441
100
AcDbEntity
  8
0
100
AcDbSpline
 62
250
  6
CONTINUOUS
 70
0
 71
3
 72
9
 73
5
 74
0
 42
0.0000001
 43
0.0000001
 44
0.0000000001
 40
0.0
 40
0.0
 40
0.0
 40
0.0
 40
0.4520902634
 40
1.0
 40
1.0
 40
1.0
 40
1.0
 10
-42.1742359286
 20
6.9942130338
 30
0.0
 10
-42.16188195
 20
7.0023903493
 30
0.0
 10
-42.1411621904
 20
7.0307182465
 30
0.0
 10
-42.1377337984
 20
7.0643435546
 30
0.0
 10
-42.1382666078
 20
7.0822908586
 30
0.0
  0
SPLINE
  5
442
100
AcDbEntity
  8
RACCORDO
100
AcDbSpline
 62
250
  6
CONTINUOUS
 70
0
 71
3
 72
12
 73
8
 74
0
 42
0.0000001
 43
0.0000001
 44
0.0000000001
 40
0.0
 40
0.0
 40
0.0
 40
0.0
 40
0.120682714
 40
0.2475610301
 40
0.4446892556
 40
0.6422700036
 40
1.0
 40
1.0
 40
1.0
 40
1.0
 10
74.8010686429
 20
-7.0686928115
 30
0.0
 10
74.8073569081
 20
-7.0271395885
 30
0.0
 10
74.8132239138
 20
-6.9407188412
 30
0.0
 10
74.8015271611
 20
-6.7859257312
 30
0.0
 10
74.7573348191
 20
-6.6081662154
 30
0.0
 10
74.6465895683
 20
-6.3704806488
 30
0.0
 10
74.5106192048
 20
-6.2183974329
 30
0.0
 10
74.4027376342
 20
-6.1561032867
 30
0.0
  0
SPLINE
  5
443
100
AcDbEntity
  8
RACCORDO
100
AcDbSpline
 62
250
  6
CONTINUOUS
 70
0
 71
3
 72
9
 73
5
 74
0
 42
0.0000001
 43
0.0000001
 44
0.0000000001
 40
0.0
 40
0.0
 40
0.0
 40
0.0
 40
0.2449455102
 40
1.0
 40
1.0
 40
1.0
 40
1.0
 10
72.9847039619
 20
-25.3688589687
 30
0.0
 10
73.0520616797
 20
-23.8684523084
 30
0.0
 10
73.4128245989
 20
-17.7470081166
 30
0.0
 10
74.1084954956
 20
-11.6463205324
 30
0.0
 10
74.8010686429
 20
-7.0686928115
 30
0.0
  0
SPLINE
  5
444
100
AcDbEntity
  8
RACCORDO
100
AcDbSpline
 62
250
  6
CONTINUOUS
 70
0
 71
3
 72
10
 73
6
 74
0
 42
0.0000001
 43
0.0000001
 44
0.0000000001
 40
0.0
 40
0.0
 40
0.0
 40
0.0
 40
0.2280875013
 40
0.4753036033
 40
1.0
 40
1.0
 40
1.0
 40
1.0
 10
54.4414210293
 20
-14.2328504004
 30
0.0
 10
54.5128367971
 20
-14.2740839474
 30
0.0
 10
54.6528355334
 20
-14.3758040836
 30
0.0
 10
54.9070608632
 20
-14.6342063714
 30
0.0
 10
55.0579345698
 20
-14.8745725203
 30
0.0
 10
55.1374564969
 20
-15.0468035296
 30
0.0
  0
SPLINE
  5
445
100
AcDbEntity
  8
RACCORDO
100
AcDbSpline
 62
250
  6
CONTINUOUS
 70
0
 71
3
 72
11
 73
7
 74
0
 42
0.0000001
 43
0.0000001
 44
0.0000000001
 40
0.0
 40
0.0
 40
0.0
 40
0.0
 40
0.2254727204
 40
0.4577336987
 40
0.7130559949
 40
1.0
 40
1.0
 40
1.0
 40
1.0
 10
-56.8830427314
 20
49.6151997792
 30
0.0
 10
-56.8383051046
 20
49.6545602371
 30
0.0
 10
-56.7316114095
 20
49.7185119944
 30
0.0
 10
-56.5415659866
 20
49.748484566
 30
0.0
 10
-56.3370374759
 20
49.7132628545
 30
0.0
 10
-56.2053502188
 20
49.6532114596
 30
0.0
 10
-56.1396789193
 20
49.6152908032
 30
0.0
  0
SPLINE
  5
446
100
AcDbEntity
  8
RACCORDO
100
AcDbSpline
 62
250
  6
CONTINUOUS
 70
0
 71
3
 72
12
 73
8
 74
0
 42
0.0000001
 43
0.0000001
 44
0.0000000001
 40
0.0
 40
0.0
 40
0.0
 40
0.0
 40
0.1071211901
 40
0.2146268633
 40
0.4417580919
 40
0.7010761885
 40
1.0
 40
1.0
 40
1.0
 40
1.0
 10
55.1480729379
 20
-52.0851769062
 30
0.0
 10
55.1282387694
 20
-52.1034545189
 30
0.0
 10
55.0846380545
 20
-52.13615049
 30
0.0
 10
54.9830829476
 20
-52.1832923109
 30
0.0
 10
54.8308922759
 20
-52.2021441789
 30
0.0
 10
54.63491107
 20
-52.1618540304
 30
0.0
 10
54.5065986399
 20
-52.1017093853
 30
0.0
 10
54.4414210293
 20
-52.0640709373
 30
0.0
  0
SPLINE
  5
447
100
AcDbEntity
  8
RACCORDO
100
AcDbSpline
 62
250
  6
CONTINUOUS
 70
0
 71
3
 72
9
 73
5
 74
0
 42
0.0000001
 43
0.0000001
 44
0.0000000001
 40
0.0
 40
0.0
 40
0.0
 40
0.0
 40
0.243962173
 40
1.0
 40
1.0
 40
1.0
 40
1.0
 10
74.8010686429
 20
-78.7949993478
 30
0.0
 10
74.5636876819
 20
-77.4728743519
 30
0.0
 10
73.6858733815
 20
-72.0366138428
 30
0.0
 10
73.1805185073
 20
-66.5419485041
 30
0.0
 10
72.9847039726
 20
-62.3837796521
 30
0.0
  0
SPLINE
  5
448
100
AcDbEntity
  8
RACCORDO
100
AcDbSpline
 62
250
  6
CONTINUOUS
 70
0
 71
3
 72
9
 73
5
 74
0
 42
0.0000001
 43
0.0000001
 44
0.0000000001
 40
0.0
 40
0.0
 40
0.0
 40
0.0
 40
0.2607244346
 40
1.0
 40
1.0
 40
1.0
 40
1.0
 10
74.4027376342
 20
-79.0369876236
 30
0.0
 10
74.4097673662
 20
-79.0410468543
 30
0.0
 10
74.4369645755
 20
-79.0562000393
 30
0.0
 10
74.4651298509
 20
-79.0696581965
 30
0.0
 10
74.4864617498
 20
-79.0783030469
 30
0.0
  0
SPLINE
  5
449
100
AcDbEntity
  8
RACCORDO
100
AcDbSpline
 62
250
  6
CONTINUOUS
 70
0
 71
3
 72
15
 73
11
 74
0
 42
0.0000001
 43
0.0000001
 44
0.0000000001
 40
0.0
 40
0.0
 40
0.0
 40
0.0
 40
0.148734695
 40
0.2766490497
 40
0.3876162824
 40
0.4899009201
 40
0.5945737502
 40
0.7113401202
 40
0.8458449022
 40
1.0
 40
1.0
 40
1.0
 40
1.0
 10
74.4864617498
 20
-79.0783030469
 30
0.0
 10
74.5123186429
 20
-79.088781672
 30
0.0
 10
74.5620039579
 20
-79.1048314504
 30
0.0
 10
74.6349894432
 20
-79.1125062878
 30
0.0
 10
74.6991076314
 20
-79.1008659263
 30
0.0
 10
74.7512216424
 20
-79.0688336216
 30
0.0
 10
74.7875716405
 20
-79.0185002581
 30
0.0
 10
74.8075893142
 20
-78.9539030061
 30
0.0
 10
74.8123654376
 20
-78.8775009796
 30
0.0
 10
74.806178019
 20
-78.8234605895
 30
0.0
 10
74.8010686429
 20
-78.7949993478
 30
0.0
  0
SPLINE
  5
44A
100
AcDbEntity
  8
RACCORDO
100
AcDbSpline
 62
250
  6
CONTINUOUS
 70
0
 71
3
 72
11
 73
7
 74
0
 42
0.0000001
 43
0.0000001
 44
0.0000000001
 40
0.0
 40
0.0
 40
0.0
 40
0.0
 40
0.2247951907
 40
0.4861560349
 40
0.7556586447
 40
1.0
 40
1.0
 40
1.0
 40
1.0
 10
-73.083907828
 20
6.5919326325
 30
0.0
 10
-73.071597221
 20
6.5165657459
 30
0.0
 10
-73.0172629073
 20
6.3582594898
 30
0.0
 10
-72.8860653099
 20
6.1362093292
 30
0.0
 10
-72.7134088164
 20
5.9356815194
 30
0.0
 10
-72.5750705428
 20
5.8261588867
 30
0.0
 10
-72.5031875255
 20
5.7846524
 30
0.0
  0
SPLINE
  5
44B
100
AcDbEntity
  8
RACCORDO
100
AcDbSpline
 62
250
  6
CONTINUOUS
 70
0
 71
3
 72
9
 73
5
 74
0
 42
0.0000001
 43
0.0000001
 44
0.0000000001
 40
0.0
 40
0.0
 40
0.0
 40
0.0
 40
0.5093318892
 40
1.0
 40
1.0
 40
1.0
 40
1.0
 10
-74.7196778621
 20
22.8988793632
 30
0.0
 10
-74.6023124053
 20
20.1389188139
 30
0.0
 10
-74.2257597372
 20
14.7251092286
 30
0.0
 10
-73.5304287783
 20
9.3422339872
 30
0.0
 10
-73.1040133745
 20
6.7153904969
 30
0.0
  0
LINE
  5
44C
100
AcDbEntity
  8
RACCORDO
100
AcDbLine
 62
250
  6
CONTINUOUS
 10
-73.1040133745
 20
6.7153904969
 11
-73.083907828
 21
6.5919326325
  0
SPLINE
  5
44D
100
AcDbEntity
  8
RACCORDO
100
AcDbSpline
 62
250
  6
CONTINUOUS
 70
0
 71
3
 72
10
 73
6
 74
0
 42
0.0000001
 43
0.0000001
 44
0.0000000001
 40
0.0
 40
0.0
 40
0.0
 40
0.0
 40
0.2280187289
 40
0.4762905488
 40
1.0
 40
1.0
 40
1.0
 40
1.0
 10
-56.1396789193
 20
11.7840702664
 30
0.0
 10
-56.2131057564
 20
11.8264638776
 30
0.0
 10
-56.3580991478
 20
11.9299485442
 30
0.0
 10
-56.625971938
 20
12.1889034245
 30
0.0
 10
-56.7921571109
 20
12.427979644
 30
0.0
 10
-56.8830516132
 20
12.6002009916
 30
0.0
  0
SPLINE
  5
44E
100
AcDbEntity
  8
0
100
AcDbSpline
 62
7
  6
CONTINUOUS
 70
0
 71
3
 72
8
 73
4
 74
0
 42
0.0000001
 43
0.0000001
 44
0.0000000001
 40
0.0
 40
0.0
 40
0.0
 40
0.0
 40
1.0
 40
1.0
 40
1.0
 40
1.0
 10
3.0829546977
 20
-25.6571110897
 30
0.0
 10
3.0717270502
 20
-25.6635919329
 30
0.0
 10
3.0599779041
 20
-25.6691990714
 30
0.0
 10
3.0480100793
 20
-25.6741823003
 30
0.0
  0
SPLINE
  5
44F
100
AcDbEntity
  8
0
100
AcDbSpline
 62
7
  6
CONTINUOUS
 70
0
 71
3
 72
9
 73
5
 74
0
 42
0.0000001
 43
0.0000001
 44
0.0000000001
 40
0.0
 40
0.0
 40
0.0
 40
0.0
 40
0.4899256182
 40
1.0
 40
1.0
 40
1.0
 40
1.0
 10
3.0480100793
 20
-25.6741823003
 30
0.0
 10
3.0385373097
 20
-25.6781266244
 30
0.0
 10
3.0192259901
 20
-25.6858136164
 30
0.0
 10
2.9984048182
 20
-25.6914458995
 30
0.0
 10
2.9877324694
 20
-25.6909657438
 30
0.0
  0
SPLINE
  5
450
100
AcDbEntity
  8
0
100
AcDbSpline
 62
7
  6
CONTINUOUS
 70
0
 71
3
 72
9
 73
5
 74
0
 42
0.0000001
 43
0.0000001
 44
0.0000000001
 40
0.0
 40
0.0
 40
0.0
 40
0.0
 40
0.2351450993
 40
1.0
 40
1.0
 40
1.0
 40
1.0
 10
2.9877324694
 20
-25.6909657438
 30
0.0
 10
2.9862712547
 20
-25.6909000028
 30
0.0
 10
2.9800692159
 20
-25.6903853608
 30
0.0
 10
2.9739561281
 20
-25.6888753816
 30
0.0
 10
2.9694878554
 20
-25.6872413174
 30
0.0
  0
SPLINE
  5
451
100
AcDbEntity
  8
0
100
AcDbSpline
 62
250
  6
CONTINUOUS
 70
0
 71
3
 72
9
 73
5
 74
0
 42
0.0000001
 43
0.0000001
 44
0.0000000001
 40
0.0
 40
0.0
 40
0.0
 40
0.0
 40
0.2836215195
 40
1.0
 40
1.0
 40
1.0
 40
1.0
 10
53.1688381544
 20
-46.96460195
 30
0.0
 10
53.1786355044
 20
-46.9702571635
 30
0.0
 10
53.2118317017
 20
-46.9920249843
 30
0.0
 10
53.2402226116
 20
-47.0239419309
 30
0.0
 10
53.2501523315
 20
-47.0507340911
 30
0.0
  0
SPLINE
  5
452
100
AcDbEntity
  8
0
100
AcDbSpline
 62
250
  6
CONTINUOUS
 70
0
 71
3
 72
11
 73
7
 74
0
 42
0.0000001
 43
0.0000001
 44
0.0000000001
 40
0.0
 40
0.0
 40
0.0
 40
0.0
 40
0.2255817222
 40
0.4539903499
 40
0.7080382663
 40
1.0
 40
1.0
 40
1.0
 40
1.0
 10
53.2501523315
 20
-47.0507340911
 30
0.0
 10
53.2549564994
 20
-47.0636965953
 30
0.0
 10
53.2596735725
 20
-47.0921021844
 30
0.0
 10
53.2475723283
 20
-47.13502978
 30
0.0
 10
53.2184319987
 20
-47.1735239019
 30
0.0
 10
53.1913964059
 20
-47.1938529925
 30
0.0
 10
53.1761122305
 20
-47.2031545513
 30
0.0
  0
SPLINE
  5
453
100
AcDbEntity
  8
0
100
AcDbSpline
 62
250
  6
CONTINUOUS
 70
0
 71
3
 72
11
 73
7
 74
0
 42
0.0000001
 43
0.0000001
 44
0.0000000001
 40
0.0
 40
0.0
 40
0.0
 40
0.0
 40
0.238851737
 40
0.5016395235
 40
0.7635397086
 40
1.0
 40
1.0
 40
1.0
 40
1.0
 10
51.1722099934
 20
-46.0461265144
 30
0.0
 10
51.2025447625
 20
-46.0300848128
 30
0.0
 10
51.2719607507
 20
-46.0070577825
 30
0.0
 10
51.381973452
 20
-45.9971002709
 30
0.0
 10
51.4912999606
 20
-46.0102724742
 30
0.0
 10
51.5595238493
 20
-46.0353990749
 30
0.0
 10
51.5889415358
 20
-46.0523894432
 30
0.0
  0
SPLINE
  5
454
100
AcDbEntity
  8
0
100
AcDbSpline
 62
7
  6
CONTINUOUS
 70
0
 71
3
 72
10
 73
6
 74
0
 42
0.0000001
 43
0.0000001
 44
0.0000000001
 40
0.0
 40
0.0
 40
0.0
 40
0.0
 40
0.5207410496
 40
0.7652349171
 40
1.0
 40
1.0
 40
1.0
 40
1.0
 10
2.569564361
 20
-24.6913113116
 30
0.0
 10
2.5173101619
 20
-24.6547087471
 30
0.0
 10
2.4375934968
 20
-24.604797861
 30
0.0
 10
2.327742831
 20
-24.550374586
 30
0.0
 10
2.2734719124
 20
-24.5278683045
 30
0.0
 10
2.2466988773
 20
-24.5173578789
 30
0.0
  0
SPLINE
  5
455
100
AcDbEntity
  8
0
100
AcDbSpline
 62
7
  6
CONTINUOUS
 70
0
 71
3
 72
11
 73
7
 74
0
 42
0.0000001
 43
0.0000001
 44
0.0000000001
 40
0.0
 40
0.0
 40
0.0
 40
0.0
 40
0.2313867796
 40
0.4909038991
 40
0.7548146936
 40
1.0
 40
1.0
 40
1.0
 40
1.0
 10
2.8215174971
 20
-25.101350125
 30
0.0
 10
2.8184382954
 20
-25.0633602841
 30
0.0
 10
2.798283281
 20
-24.9839611657
 30
0.0
 10
2.7439099434
 20
-24.8713302003
 30
0.0
 10
2.665748854
 20
-24.77067665
 30
0.0
 10
2.6026436365
 20
-24.7144823932
 30
0.0
 10
2.569564361
 20
-24.6913113116
 30
0.0
  0
SPLINE
  5
456
100
AcDbEntity
  8
0
100
AcDbSpline
 62
250
  6
CONTINUOUS
 70
0
 71
3
 72
11
 73
7
 74
0
 42
0.0000001
 43
0.0000001
 44
0.0000000001
 40
0.0
 40
0.0
 40
0.0
 40
0.0
 40
0.2919652424
 40
0.545994717
 40
0.7743891263
 40
1.0
 40
1.0
 40
1.0
 40
1.0
 10
-42.2833032297
 20
7.9139155479
 30
0.0
 10
-42.2680112442
 20
7.9232229719
 30
0.0
 10
-42.2409617233
 20
7.9435622818
 30
0.0
 10
-42.2118155731
 20
7.9820841774
 30
0.0
 10
-42.1997338256
 20
8.0250436445
 30
0.0
 10
-42.2044787666
 20
8.0534618971
 30
0.0
 10
-42.2092977153
 20
8.0664286562
 30
0.0
  0
SPLINE
  5
457
100
AcDbEntity
  8
0
100
AcDbSpline
 62
250
  6
CONTINUOUS
 70
0
 71
3
 72
9
 73
5
 74
0
 42
0.0000001
 43
0.0000001
 44
0.0000000001
 40
0.0
 40
0.0
 40
0.0
 40
0.0
 40
0.2222711876
 40
1.0
 40
1.0
 40
1.0
 40
1.0
 10
-42.2092977153
 20
8.0664286562
 30
0.0
 10
-42.2123892216
 20
8.0747472376
 30
0.0
 10
-42.2308163099
 20
8.1105434891
 30
0.0
 10
-42.2636841539
 20
8.1369447646
 30
0.0
 10
-42.2905773058
 20
8.1524681492
 30
0.0
  0
SPLINE
  5
458
100
AcDbEntity
  8
0
100
AcDbSpline
 62
250
  6
CONTINUOUS
 70
0
 71
3
 72
11
 73
7
 74
0
 42
0.0000001
 43
0.0000001
 44
0.0000000001
 40
0.0
 40
0.0
 40
0.0
 40
0.0
 40
0.2364598223
 40
0.4983594007
 40
0.7611473645
 40
1.0
 40
1.0
 40
1.0
 40
1.0
 10
-43.8704739244
 20
9.0646806561
 30
0.0
 10
-43.899891629
 20
9.0816708705
 30
0.0
 10
-43.9681155382
 20
9.1067970792
 30
0.0
 10
-44.077441582
 20
9.1199695143
 30
0.0
 10
-44.1874551838
 20
9.1100142955
 30
0.0
 10
-44.2568697833
 20
9.0869838468
 30
0.0
 10
-44.2872054668
 20
9.0709435848
 30
0.0
  0
SPLINE
  5
459
100
AcDbEntity
  8
0
100
AcDbSpline
 62
250
  6
CONTINUOUS
 70
0
 71
3
 72
9
 73
5
 74
0
 42
0.0000001
 43
0.0000001
 44
0.0000000001
 40
0.0
 40
0.0
 40
0.0
 40
0.0
 40
0.2836215195
 40
1.0
 40
1.0
 40
1.0
 40
1.0
 10
37.2589355777
 20
-37.4518354894
 30
0.0
 10
37.2687329277
 20
-37.457490703
 30
0.0
 10
37.301929125
 20
-37.4792585237
 30
0.0
 10
37.3303200349
 20
-37.5111754703
 30
0.0
 10
37.3402497548
 20
-37.5379676305
 30
0.0
  0
SPLINE
  5
45A
100
AcDbEntity
  8
0
100
AcDbSpline
 62
250
  6
CONTINUOUS
 70
0
 71
3
 72
11
 73
7
 74
0
 42
0.0000001
 43
0.0000001
 44
0.0000000001
 40
0.0
 40
0.0
 40
0.0
 40
0.0
 40
0.2255817222
 40
0.4539903499
 40
0.7080382663
 40
1.0
 40
1.0
 40
1.0
 40
1.0
 10
37.3402497548
 20
-37.5379676305
 30
0.0
 10
37.3450539227
 20
-37.5509301347
 30
0.0
 10
37.3497709958
 20
-37.5793357239
 30
0.0
 10
37.3376697516
 20
-37.6222633194
 30
0.0
 10
37.308529422
 20
-37.6607574413
 30
0.0
 10
37.2814938292
 20
-37.6810865319
 30
0.0
 10
37.2662096538
 20
-37.6903880907
 30
0.0
  0
SPLINE
  5
45B
100
AcDbEntity
  8
0
100
AcDbSpline
 62
250
  6
CONTINUOUS
 70
0
 71
3
 72
11
 73
7
 74
0
 42
0.0000001
 43
0.0000001
 44
0.0000000001
 40
0.0
 40
0.0
 40
0.0
 40
0.0
 40
0.238851737
 40
0.5016395235
 40
0.7635397086
 40
1.0
 40
1.0
 40
1.0
 40
1.0
 10
35.2623074167
 20
-36.5333600538
 30
0.0
 10
35.2926421858
 20
-36.5173183522
 30
0.0
 10
35.362058174
 20
-36.4942913219
 30
0.0
 10
35.4720708754
 20
-36.4843338103
 30
0.0
 10
35.5813973839
 20
-36.4975060136
 30
0.0
 10
35.6496212726
 20
-36.5226326143
 30
0.0
 10
35.6790389591
 20
-36.5396229826
 30
0.0
  0
SPLINE
  5
45C
100
AcDbEntity
  8
0
100
AcDbSpline
 62
250
  6
CONTINUOUS
 70
0
 71
3
 72
11
 73
7
 74
0
 42
0.0000001
 43
0.0000001
 44
0.0000000001
 40
0.0
 40
0.0
 40
0.0
 40
0.0
 40
0.2919652424
 40
0.545994717
 40
0.7743891263
 40
1.0
 40
1.0
 40
1.0
 40
1.0
 10
-26.373400653
 20
-0.9456746912
 30
0.0
 10
-26.3581086675
 20
-0.9363672673
 30
0.0
 10
-26.3310591466
 20
-0.9160279573
 30
0.0
 10
-26.3019129964
 20
-0.8775060617
 30
0.0
 10
-26.2898312489
 20
-0.8345465946
 30
0.0
 10
-26.2945761899
 20
-0.8061283421
 30
0.0
 10
-26.2993951386
 20
-0.7931615829
 30
0.0
  0
SPLINE
  5
45D
100
AcDbEntity
  8
0
100
AcDbSpline
 62
250
  6
CONTINUOUS
 70
0
 71
3
 72
9
 73
5
 74
0
 42
0.0000001
 43
0.0000001
 44
0.0000000001
 40
0.0
 40
0.0
 40
0.0
 40
0.0
 40
0.2222711876
 40
1.0
 40
1.0
 40
1.0
 40
1.0
 10
-26.2993951386
 20
-0.7931615829
 30
0.0
 10
-26.3024866449
 20
-0.7848430016
 30
0.0
 10
-26.3209137332
 20
-0.74904675
 30
0.0
 10
-26.3537815772
 20
-0.7226454746
 30
0.0
 10
-26.3806747291
 20
-0.7071220899
 30
0.0
  0
SPLINE
  5
45E
100
AcDbEntity
  8
0
100
AcDbSpline
 62
250
  6
CONTINUOUS
 70
0
 71
3
 72
11
 73
7
 74
0
 42
0.0000001
 43
0.0000001
 44
0.0000000001
 40
0.0
 40
0.0
 40
0.0
 40
0.0
 40
0.2364598223
 40
0.4983594007
 40
0.7611473645
 40
1.0
 40
1.0
 40
1.0
 40
1.0
 10
-27.9605713477
 20
0.2050904169
 30
0.0
 10
-27.9899890523
 20
0.2220806313
 30
0.0
 10
-28.0582129615
 20
0.2472068401
 30
0.0
 10
-28.1675390053
 20
0.2603792751
 30
0.0
 10
-28.2775526071
 20
0.2504240564
 30
0.0
 10
-28.3469672066
 20
0.2273936077
 30
0.0
 10
-28.3773028901
 20
0.2113533457
 30
0.0
  0
SPLINE
  5
45F
100
AcDbEntity
  8
RACCORDO
100
AcDbSpline
 62
250
  6
CONTINUOUS
 70
0
 71
3
 72
11
 73
7
 74
0
 42
0.0000001
 43
0.0000001
 44
0.0000000001
 40
0.0
 40
0.0
 40
0.0
 40
0.0
 40
0.2105451466
 40
0.4415784286
 40
0.7035303308
 40
1.0
 40
1.0
 40
1.0
 40
1.0
 10
55.1445912079
 20
-51.501203763
 30
0.0
 10
55.120190813
 20
-51.5133782593
 30
0.0
 10
55.0638738639
 20
-51.5293614591
 30
0.0
 10
54.9716953139
 20
-51.5251335632
 30
0.0
 10
54.8730515514
 20
-51.4954080901
 30
0.0
 10
54.8086447539
 20
-51.4616524921
 30
0.0
 10
54.7759848325
 20
-51.4414607885
 30
0.0
  0
SPLINE
  5
460
100
AcDbEntity
  8
0
100
AcDbSpline
 62
7
  6
CONTINUOUS
 70
0
 71
3
 72
10
 73
6
 74
0
 42
0.0000001
 43
0.0000001
 44
0.0000000001
 40
0.0
 40
0.0
 40
0.0
 40
0.0
 40
0.4444055609
 40
0.7081374414
 40
1.0
 40
1.0
 40
1.0
 40
1.0
 10
2.7695531385
 20
-25.2962309996
 30
0.0
 10
2.7928535267
 20
-25.2763236375
 30
0.0
 10
2.8141698317
 20
-25.2278649812
 30
0.0
 10
2.8236333753
 20
-25.1600300961
 30
0.0
 10
2.8231435298
 20
-25.1214114035
 30
0.0
 10
2.8215174971
 20
-25.101350125
 30
0.0
  0
SPLINE
  5
461
100
AcDbEntity
  8
0
100
AcDbSpline
 62
7
  6
CONTINUOUS
 70
0
 71
3
 72
11
 73
7
 74
0
 42
0.0000001
 43
0.0000001
 44
0.0000000001
 40
0.0
 40
0.0
 40
0.0
 40
0.0
 40
0.2102691245
 40
0.4430634787
 40
0.7058884614
 40
1.0
 40
1.0
 40
1.0
 40
1.0
 10
2.8621001063
 20
-25.2446633012
 30
0.0
 10
2.8757541371
 20
-25.2368204222
 30
0.0
 10
2.8997430795
 20
-25.2118772536
 30
0.0
 10
2.9202247256
 20
-25.1624912422
 30
0.0
 10
2.9300225791
 20
-25.1037982222
 30
0.0
 10
2.9296688044
 20
-25.0618858234
 30
0.0
 10
2.9278880599
 20
-25.03993309
 30
0.0
  0
SPLINE
  5
462
100
AcDbEntity
  8
RACCORDO
100
AcDbSpline
 62
250
  6
CONTINUOUS
 70
0
 71
3
 72
9
 73
5
 74
0
 42
0.0000001
 43
0.0000001
 44
0.0000000001
 40
0.0
 40
0.0
 40
0.0
 40
0.0
 40
0.491808475
 40
1.0
 40
1.0
 40
1.0
 40
1.0
 10
-69.5522017574
 20
79.9338847731
 30
0.0
 10
-69.3200063542
 20
79.9339351671
 30
0.0
 10
-68.8470762812
 20
79.8820588801
 30
0.0
 10
-68.3924977549
 20
79.7465995517
 30
0.0
 10
-68.1681483939
 20
79.6615472302
 30
0.0
  0
SPLINE
  5
463
100
AcDbEntity
  8
0
100
AcDbSpline
 62
7
  6
CONTINUOUS
 70
0
 71
3
 72
9
 73
5
 74
0
 42
0.0000001
 43
0.0000001
 44
0.0000000001
 40
0.0
 40
0.0
 40
0.0
 40
0.0
 40
0.4594677314
 40
1.0
 40
1.0
 40
1.0
 40
1.0
 10
3.1260256267
 20
-25.6235936889
 30
0.0
 10
3.1180336392
 20
-25.6263713299
 30
0.0
 10
3.1001098873
 20
-25.6317126591
 30
0.0
 10
3.0810293967
 20
-25.6282062414
 30
0.0
 10
3.0719148539
 20
-25.6242061072
 30
0.0
  0
SPLINE
  5
464
100
AcDbEntity
  8
RACCORDO
100
AcDbSpline
 62
250
  6
CONTINUOUS
 70
0
 71
3
 72
10
 73
6
 74
0
 42
0.0000001
 43
0.0000001
 44
0.0000000001
 40
0.0
 40
0.0
 40
0.0
 40
0.0
 40
0.6204566485
 40
0.8391049942
 40
1.0
 40
1.0
 40
1.0
 40
1.0
 10
77.1750611699
 20
-4.7845979165
 30
0.0
 10
77.2793274984
 20
-4.730188862
 30
0.0
 10
77.4211536618
 20
-4.6579794777
 30
0.0
 10
77.5940770906
 20
-4.5803103927
 30
0.0
 10
77.6610855689
 20
-4.5539195172
 30
0.0
 10
77.6900104809
 20
-4.5442512959
 30
0.0
  0
SPLINE
  5
465
100
AcDbEntity
  8
RACCORDO
100
AcDbSpline
 62
250
  6
CONTINUOUS
 70
0
 71
3
 72
9
 73
5
 74
0
 42
0.0000001
 43
0.0000001
 44
0.0000000001
 40
0.0
 40
0.0
 40
0.0
 40
0.0
 40
0.2805916734
 40
1.0
 40
1.0
 40
1.0
 40
1.0
 10
76.6422831594
 20
-5.0740213648
 30
0.0
 10
76.6917762085
 20
-5.0463362628
 30
0.0
 10
76.8684321887
 20
-4.9481532953
 30
0.0
 10
77.0461574796
 20
-4.8518632067
 30
0.0
 10
77.1750611699
 20
-4.7845979165
 30
0.0
  0
SPLINE
  5
466
100
AcDbEntity
  8
RACCORDO
100
AcDbSpline
 62
250
  6
CONTINUOUS
 70
0
 71
3
 72
9
 73
5
 74
0
 42
0.0000001
 43
0.0000001
 44
0.0000000001
 40
0.0
 40
0.0
 40
0.0
 40
0.0
 40
0.248285751
 40
1.0
 40
1.0
 40
1.0
 40
1.0
 10
-70.292318716
 20
79.8402855181
 30
0.0
 10
-70.2409866568
 20
79.8538709225
 30
0.0
 10
-70.0326453579
 20
79.9024606469
 30
0.0
 10
-69.8187814384
 20
79.9266055676
 30
0.0
 10
-69.6581100223
 20
79.932078065
 30
0.0
  0
SPLINE
  5
467
100
AcDbEntity
  8
RACCORDO
100
AcDbSpline
 62
250
  6
CONTINUOUS
 70
0
 71
3
 72
9
 73
5
 74
0
 42
0.0000001
 43
0.0000001
 44
0.0000000001
 40
0.0
 40
0.0
 40
0.0
 40
0.0
 40
0.5081865506
 40
1.0
 40
1.0
 40
1.0
 40
1.0
 10
77.9655090338
 20
-75.4729197593
 30
0.0
 10
77.9269960802
 20
-75.7097517008
 30
0.0
 10
77.8170255853
 20
-76.1711899167
 30
0.0
 10
77.6254905063
 20
-76.6067318751
 30
0.0
 10
77.5093470732
 20
-76.8078120935
 30
0.0
  0
SPLINE
  5
468
100
AcDbEntity
  8
RACCORDO
100
AcDbSpline
 62
250
  6
CONTINUOUS
 70
0
 71
3
 72
9
 73
5
 74
0
 42
0.0000001
 43
0.0000001
 44
0.0000000001
 40
0.0
 40
0.0
 40
0.0
 40
0.0
 40
0.2523152624
 40
1.0
 40
1.0
 40
1.0
 40
1.0
 10
77.4548101213
 20
-76.8986652301
 30
0.0
 10
77.4262692177
 20
-76.9444302589
 30
0.0
 10
77.3084540859
 20
-77.1228168297
 30
0.0
 10
77.1710717929
 20
-77.2884446571
 30
0.0
 10
77.0584209021
 20
-77.4018212159
 30
0.0
  0
SPLINE
  5
469
100
AcDbEntity
  8
RACCORDO
100
AcDbSpline
 62
250
  6
CONTINUOUS
 70
0
 71
3
 72
9
 73
5
 74
0
 42
0.0000001
 43
0.0000001
 44
0.0000000001
 40
0.0
 40
0.0
 40
0.0
 40
0.0
 40
0.2805907799
 40
1.0
 40
1.0
 40
1.0
 40
1.0
 10
76.9923696498
 20
-5.6803621596
 30
0.0
 10
77.0410887091
 20
-5.651339142
 30
0.0
 10
77.2144331399
 20
-5.5474287917
 30
0.0
 10
77.3866708302
 20
-5.4416426841
 30
0.0
 10
77.5093632034
 20
-5.3636260231
 30
0.0
  0
SPLINE
  5
46A
100
AcDbEntity
  8
RACCORDO
100
AcDbSpline
 62
250
  6
CONTINUOUS
 70
0
 71
3
 72
10
 73
6
 74
0
 42
0.0000001
 43
0.0000001
 44
0.0000000001
 40
0.0
 40
0.0
 40
0.0
 40
0.0
 40
0.6204495113
 40
0.8390992473
 40
1.0
 40
1.0
 40
1.0
 40
1.0
 10
77.5093632034
 20
-5.3636260231
 30
0.0
 10
77.60860829
 20
-5.3005189049
 30
0.0
 10
77.7420455887
 20
-5.21377662
 30
0.0
 10
77.8957461872
 20
-5.1028140556
 30
0.0
 10
77.9520934803
 20
-5.0579580436
 30
0.0
 10
77.974921209
 20
-5.0377311624
 30
0.0
  0
SPLINE
  5
46B
100
AcDbEntity
  8
0
100
AcDbSpline
 62
7
  6
CONTINUOUS
 70
0
 71
3
 72
11
 73
7
 74
0
 42
0.0000001
 43
0.0000001
 44
0.0000000001
 40
0.0
 40
0.0
 40
0.0
 40
0.0
 40
0.2512945855
 40
0.512740481
 40
0.7690633453
 40
1.0
 40
1.0
 40
1.0
 40
1.0
 10
2.7939886444
 20
-25.9423817644
 30
0.0
 10
2.7826002516
 20
-25.9094943451
 30
0.0
 10
2.7542855235
 20
-25.8440977547
 30
0.0
 10
2.6993741414
 20
-25.7524007455
 30
0.0
 10
2.6312895117
 20
-25.6733504559
 30
0.0
 10
2.5769026877
 20
-25.6322614035
 30
0.0
 10
2.5492042508
 20
-25.6162686732
 30
0.0
  0
SPLINE
  5
46C
100
AcDbEntity
  8
RACCORDO
100
AcDbSpline
 62
250
  6
CONTINUOUS
 70
0
 71
3
 72
11
 73
7
 74
0
 42
0.0000001
 43
0.0000001
 44
0.0000000001
 40
0.0
 40
0.0
 40
0.0
 40
0.0
 40
0.210001087
 40
0.4358208832
 40
0.6965905518
 40
1.0
 40
1.0
 40
1.0
 40
1.0
 10
75.0432842532
 20
-79.2003476368
 30
0.0
 10
75.0751374144
 20
-79.1856184079
 30
0.0
 10
75.1353359208
 20
-79.140121328
 30
0.0
 10
75.1929082858
 20
-79.0360323574
 30
0.0
 10
75.2186887464
 20
-78.9050664181
 30
0.0
 10
75.2159652692
 20
-78.8101638868
 30
0.0
 10
75.2105778629
 20
-78.7597474271
 30
0.0
  0
SPLINE
  5
46D
100
AcDbEntity
  8
0
100
AcDbSpline
 62
7
  6
CONTINUOUS
 70
0
 71
3
 72
11
 73
7
 74
0
 42
0.0000001
 43
0.0000001
 44
0.0000000001
 40
0.0
 40
0.0
 40
0.0
 40
0.0
 40
0.2313807349
 40
0.4908936624
 40
0.7548089774
 40
1.0
 40
1.0
 40
1.0
 40
1.0
 10
2.9278880599
 20
-25.03993309
 30
0.0
 10
2.9248065338
 20
-25.0019445309
 30
0.0
 10
2.9046471208
 20
-24.9225486581
 30
0.0
 10
2.8502705307
 20
-24.8099207658
 30
0.0
 10
2.7721052267
 20
-24.7092696704
 30
0.0
 10
2.7089983513
 20
-24.653075266
 30
0.0
 10
2.6759182343
 20
-24.629903918
 30
0.0
  0
SPLINE
  5
46E
100
AcDbEntity
  8
0
100
AcDbSpline
 62
7
  6
CONTINUOUS
 70
0
 71
3
 72
10
 73
6
 74
0
 42
0.0000001
 43
0.0000001
 44
0.0000000001
 40
0.0
 40
0.0
 40
0.0
 40
0.0
 40
0.5207427528
 40
0.7652375436
 40
1.0
 40
1.0
 40
1.0
 40
1.0
 10
2.6759182343
 20
-24.629903918
 30
0.0
 10
2.6236637044
 20
-24.5933016324
 30
0.0
 10
2.5439463167
 20
-24.54339183
 30
0.0
 10
2.434097018
 20
-24.4889661821
 30
0.0
 10
2.3798261184
 20
-24.4664605886
 30
0.0
 10
2.3530535255
 20
-24.455950038
 30
0.0
  0
SPLINE
  5
46F
100
AcDbEntity
  8
0
100
AcDbSpline
 62
7
  6
CONTINUOUS
 70
0
 71
3
 72
10
 73
6
 74
0
 42
0.0000001
 43
0.0000001
 44
0.0000000001
 40
0.0
 40
0.0
 40
0.0
 40
0.0
 40
0.2490979593
 40
0.498011308
 40
1.0
 40
1.0
 40
1.0
 40
1.0
 10
3.0259125808
 20
-26.7104890973
 30
0.0
 10
3.0070313524
 20
-26.6465978068
 30
0.0
 10
2.9687069846
 20
-26.5190279414
 30
0.0
 10
2.8930859037
 20
-26.2625178073
 30
0.0
 10
2.8379212754
 20
-26.069250488
 30
0.0
 10
2.7939886444
 20
-25.9423817644
 30
0.0
  0
SPLINE
  5
470
100
AcDbEntity
  8
0
100
AcDbSpline
 62
7
  6
CONTINUOUS
 70
0
 71
3
 72
10
 73
6
 74
0
 42
0.0000001
 43
0.0000001
 44
0.0000000001
 40
0.0
 40
0.0
 40
0.0
 40
0.0
 40
0.2490977738
 40
0.4980110656
 40
1.0
 40
1.0
 40
1.0
 40
1.0
 10
3.132386996
 20
-26.6490121044
 30
0.0
 10
3.1135017717
 20
-26.585123103
 30
0.0
 10
3.0751695134
 20
-26.4575577921
 30
0.0
 10
2.9995324054
 20
-26.2010566167
 30
0.0
 10
2.9443564845
 20
-26.0077956678
 30
0.0
 10
2.9004168368
 20
-25.880931466
 30
0.0
  0
SPLINE
  5
471
100
AcDbEntity
  8
0
100
AcDbSpline
 62
7
  6
CONTINUOUS
 70
0
 71
3
 72
11
 73
7
 74
0
 42
0.0000001
 43
0.0000001
 44
0.0000000001
 40
0.0
 40
0.0
 40
0.0
 40
0.0
 40
0.2513077038
 40
0.5127540393
 40
0.7690728024
 40
1.0
 40
1.0
 40
1.0
 40
1.0
 10
2.9004168368
 20
-25.880931466
 30
0.0
 10
2.8890258436
 20
-25.8480429626
 30
0.0
 10
2.8607058389
 20
-25.7826465695
 30
0.0
 10
2.8057909041
 20
-25.6909499287
 30
0.0
 10
2.7377026705
 20
-25.6119049285
 30
0.0
 10
2.6833168992
 20
-25.5708179155
 30
0.0
 10
2.65561955
 20
-25.5548258132
 30
0.0
  0
SPLINE
  5
472
100
AcDbEntity
  8
0
100
AcDbSpline
 62
250
  6
CONTINUOUS
 70
0
 71
3
 72
9
 73
5
 74
0
 42
0.0000001
 43
0.0000001
 44
0.0000000001
 40
0.0
 40
0.0
 40
0.0
 40
0.0
 40
0.4479257743
 40
1.0
 40
1.0
 40
1.0
 40
1.0
 10
35.1675961287
 20
-36.5205500576
 30
0.0
 10
35.1806516801
 20
-36.5136510493
 30
0.0
 10
35.2159039431
 20
-36.5096719552
 30
0.0
 10
35.2468311967
 20
-36.5237833025
 30
0.0
 10
35.2623074167
 20
-36.5333600538
 30
0.0
  0
SPLINE
  5
473
100
AcDbEntity
  8
RACCORDO
100
AcDbSpline
 62
250
  6
CONTINUOUS
 70
0
 71
3
 72
11
 73
7
 74
0
 42
0.0000001
 43
0.0000001
 44
0.0000000001
 40
0.0
 40
0.0
 40
0.0
 40
0.0
 40
0.2815747636
 40
0.5404539484
 40
0.7783483173
 40
1.0
 40
1.0
 40
1.0
 40
1.0
 10
-57.1063702949
 20
49.060888031
 30
0.0
 10
-57.1038812203
 20
49.1183588982
 30
0.0
 10
-57.0915156295
 20
49.2285851354
 30
0.0
 10
-57.0474473803
 20
49.3822763557
 30
0.0
 10
-56.979404262
 20
49.513549587
 30
0.0
 10
-56.9170833776
 20
49.585337524
 30
0.0
 10
-56.8830427314
 20
49.6151997792
 30
0.0
  0
LINE
  5
474
100
AcDbEntity
  8
RACCORDO
100
AcDbLine
 62
250
  6
CONTINUOUS
 10
-57.4935696009
 20
33.6217671348
 11
-57.4863281329
 21
34.5699622699
  0
SPLINE
  5
475
100
AcDbEntity
  8
RACCORDO
100
AcDbSpline
 62
250
  6
CONTINUOUS
 70
0
 71
3
 72
9
 73
5
 74
0
 42
0.0000001
 43
0.0000001
 44
0.0000000001
 40
0.0
 40
0.0
 40
0.0
 40
0.0
 40
0.2439630597
 40
1.0
 40
1.0
 40
1.0
 40
1.0
 10
75.2105778629
 20
-78.7597474271
 30
0.0
 10
74.9736023998
 20
-77.4399845151
 30
0.0
 10
74.097287013
 20
-72.0134540788
 30
0.0
 10
73.5927904301
 20
-66.5286142316
 30
0.0
 10
73.3973080831
 20
-62.377884918
 30
0.0
  0
SPLINE
  5
476
100
AcDbEntity
  8
0
100
AcDbSpline
 62
250
  6
CONTINUOUS
 70
0
 71
3
 72
10
 73
6
 74
0
 42
0.0000001
 43
0.0000001
 44
0.0000000001
 40
0.0
 40
0.0
 40
0.0
 40
0.0
 40
0.2189215095
 40
0.4529568576
 40
1.0
 40
1.0
 40
1.0
 40
1.0
 10
37.3577062815
 20
-37.4426336087
 30
0.0
 10
37.3511831675
 20
-37.4388676515
 30
0.0
 10
37.3362192539
 20
-37.4334013725
 30
0.0
 10
37.3013997241
 20
-37.4323503953
 30
0.0
 10
37.2753061182
 20
-37.4425483027
 30
0.0
 10
37.2589355777
 20
-37.4518354894
 30
0.0
  0
SPLINE
  5
477
100
AcDbEntity
  8
0
100
AcDbSpline
 62
250
  6
CONTINUOUS
 70
0
 71
3
 72
10
 73
6
 74
0
 42
0.0000001
 43
0.0000001
 44
0.0000000001
 40
0.0
 40
0.0
 40
0.0
 40
0.0
 40
0.2189215012
 40
0.4529568466
 40
1.0
 40
1.0
 40
1.0
 40
1.0
 10
35.7778096667
 20
-36.5304211041
 30
0.0
 10
35.7712865526
 20
-36.526655147
 30
0.0
 10
35.7563226393
 20
-36.5211888674
 30
0.0
 10
35.7215031082
 20
-36.5201378896
 30
0.0
 10
35.6954095009
 20
-36.5303357962
 30
0.0
 10
35.6790389591
 20
-36.5396229826
 30
0.0
  0
SPLINE
  5
478
100
AcDbEntity
  8
RACCORDO
100
AcDbSpline
 62
250
  6
CONTINUOUS
 70
0
 71
3
 72
9
 73
5
 74
0
 42
0.0000001
 43
0.0000001
 44
0.0000000001
 40
0.0
 40
0.0
 40
0.0
 40
0.0
 40
0.245544339
 40
1.0
 40
1.0
 40
1.0
 40
1.0
 10
73.3973080831
 20
-62.377884918
 30
0.0
 10
73.2548516232
 20
-59.3530419488
 30
0.0
 10
72.8241248547
 20
-47.0273598173
 30
0.0
 10
72.979989774
 20
-34.6825697046
 30
0.0
 10
73.3973080831
 20
-25.3875470167
 30
0.0
  0
SPLINE
  5
479
100
AcDbEntity
  8
RACCORDO
100
AcDbSpline
 62
250
  6
CONTINUOUS
 70
0
 71
3
 72
9
 73
5
 74
0
 42
0.0000001
 43
0.0000001
 44
0.0000000001
 40
0.0
 40
0.0
 40
0.0
 40
0.0
 40
0.2449458894
 40
1.0
 40
1.0
 40
1.0
 40
1.0
 10
73.3973080831
 20
-25.3875470167
 30
0.0
 10
73.4645512917
 20
-23.8898368246
 30
0.0
 10
73.8246999367
 20
-17.7794040514
 30
0.0
 10
74.5191859913
 20
-11.6896945706
 30
0.0
 10
75.2105778629
 20
-7.1203118303
 30
0.0
  0
SPLINE
  5
47A
100
AcDbEntity
  8
0
100
AcDbSpline
 62
250
  6
CONTINUOUS
 70
0
 71
3
 72
11
 73
7
 74
0
 42
0.0000001
 43
0.0000001
 44
0.0000000001
 40
0.0
 40
0.0
 40
0.0
 40
0.0
 40
0.2195029721
 40
0.4533293544
 40
0.7118869273
 40
1.0
 40
1.0
 40
1.0
 40
1.0
 10
37.5455692409
 20
-37.7377203705
 30
0.0
 10
37.5455649659
 20
-37.755803168
 30
0.0
 10
37.5391910917
 20
-37.7933871515
 30
0.0
 10
37.5117330728
 20
-37.8460682048
 30
0.0
 10
37.4681484776
 20
-37.8940914025
 30
0.0
 10
37.4314833585
 20
-37.9207420191
 30
0.0
 10
37.4112462757
 20
-37.933143954
 30
0.0
  0
SPLINE
  5
47B
100
AcDbEntity
  8
ASSI
100
AcDbSpline
 62
7
  6
CONTINUOUS
 70
0
 71
3
 72
12
 73
8
 74
0
 42
0.0000001
 43
0.0000001
 44
0.0000000001
 40
0.0
 40
0.0
 40
0.0
 40
0.0
 40
0.2897100769
 40
0.5571341973
 40
0.7941143831
 40
0.9001950395
 40
1.0
 40
1.0
 40
1.0
 40
1.0
 10
2.5242209676
 20
-25.2573512142
 30
0.0
 10
2.5449344897
 20
-25.2688177683
 30
0.0
 10
2.5856458922
 20
-25.2894111961
 30
0.0
 10
2.6465833511
 20
-25.3120463424
 30
0.0
 10
2.6964867075
 20
-25.3205319352
 30
0.0
 10
2.7327556652
 20
-25.3164722648
 30
0.0
 10
2.7486102343
 20
-25.3101036688
 30
0.0
 10
2.7556807008
 20
-25.3060376696
 30
0.0
  0
SPLINE
  5
47C
100
AcDbEntity
  8
ASSI
100
AcDbSpline
 62
7
  6
CONTINUOUS
 70
0
 71
3
 72
9
 73
5
 74
0
 42
0.0000001
 43
0.0000001
 44
0.0000000001
 40
0.0
 40
0.0
 40
0.0
 40
0.0
 40
0.5004491072
 40
1.0
 40
1.0
 40
1.0
 40
1.0
 10
3.2363275405
 20
-26.266245431
 30
0.0
 10
3.2679240343
 20
-26.3785287178
 30
0.0
 10
3.330022754
 20
-26.6031829754
 30
0.0
 10
3.3914812454
 20
-26.8280192264
 30
0.0
 10
3.4234003472
 20
-26.9399935519
 30
0.0
  0
SPLINE
  5
47D
100
AcDbEntity
  8
ASSI
100
AcDbSpline
 62
7
  6
CONTINUOUS
 70
0
 71
3
 72
9
 73
5
 74
0
 42
0.0000001
 43
0.0000001
 44
0.0000000001
 40
0.0
 40
0.0
 40
0.0
 40
0.0
 40
0.2466421472
 40
1.0
 40
1.0
 40
1.0
 40
1.0
 10
2.9664454928
 20
-25.6986103226
 30
0.0
 10
2.9690774243
 20
-25.7012104898
 30
0.0
 10
2.9796299906
 20
-25.7118723606
 30
0.0
 10
2.9897249683
 20
-25.7229843801
 30
0.0
 10
2.9970878941
 20
-25.7315571127
 30
0.0
  0
SPLINE
  5
47E
100
AcDbEntity
  8
ASSI
100
AcDbSpline
 62
7
  6
CONTINUOUS
 70
0
 71
3
 72
11
 73
7
 74
0
 42
0.0000001
 43
0.0000001
 44
0.0000000001
 40
0.0
 40
0.0
 40
0.0
 40
0.0
 40
0.2625669188
 40
0.518679836
 40
0.7635236004
 40
1.0
 40
1.0
 40
1.0
 40
1.0
 10
2.9970878941
 20
-25.7315571127
 30
0.0
 10
3.0307385523
 20
-25.7707369314
 30
0.0
 10
3.0873953173
 20
-25.8566050023
 30
0.0
 10
3.1505927628
 20
-25.99309612
 30
0.0
 10
3.1987423675
 20
-26.130129199
 30
0.0
 10
3.2237275691
 20
-26.2214693804
 30
0.0
 10
3.2363275405
 20
-26.266245431
 30
0.0
  0
LINE
  5
47F
100
AcDbEntity
  8
ASSI
100
AcDbLine
 62
7
  6
CONTINUOUS
 10
2.9664454928
 20
-25.6986103226
 11
2.9655112556
 21
-25.6856422113
  0
SPLINE
  5
480
100
AcDbEntity
  8
ASSI
100
AcDbSpline
 62
7
  6
CONTINUOUS
 70
0
 71
3
 72
14
 73
10
 74
0
 42
0.0000001
 43
0.0000001
 44
0.0000000001
 40
0.0
 40
0.0
 40
0.0
 40
0.0
 40
0.1429303317
 40
0.2892142111
 40
0.4331788219
 40
0.5699064803
 40
0.6960202904
 40
0.8107238587
 40
1.0
 40
1.0
 40
1.0
 40
1.0
 10
2.8473599616
 20
-24.5500923641
 30
0.0
 10
2.8864133249
 20
-24.5873702189
 30
0.0
 10
2.9571674486
 20
-24.6713355767
 30
0.0
 10
3.048436226
 20
-24.8074067321
 30
0.0
 10
3.1217454278
 20
-24.9515751887
 30
0.0
 10
3.1740710934
 20
-25.0964473708
 30
0.0
 10
3.2034350355
 20
-25.2367514956
 30
0.0
 10
3.2157142206
 20
-25.3980339295
 30
0.0
 10
3.1961973985
 20
-25.5179745226
 30
0.0
 10
3.1599032617
 20
-25.5795722607
 30
0.0
  0
SPLINE
  5
481
100
AcDbEntity
  8
ASSI
100
AcDbSpline
 62
7
  6
CONTINUOUS
 70
0
 71
3
 72
9
 73
5
 74
0
 42
0.0000001
 43
0.0000001
 44
0.0000000001
 40
0.0
 40
0.0
 40
0.0
 40
0.0
 40
0.5099069802
 40
1.0
 40
1.0
 40
1.0
 40
1.0
 10
3.1599032617
 20
-25.5795722607
 30
0.0
 10
3.1513900335
 20
-25.5940207543
 30
0.0
 10
3.1319947459
 20
-25.6209648473
 30
0.0
 10
3.1064296417
 20
-25.6422813918
 30
0.0
 10
3.092896954
 20
-25.6510374556
 30
0.0
  0
SPLINE
  5
482
100
AcDbEntity
  8
ASSI
100
AcDbSpline
 62
7
  6
CONTINUOUS
 70
0
 71
3
 72
11
 73
7
 74
0
 42
0.0000001
 43
0.0000001
 44
0.0000000001
 40
0.0
 40
0.0
 40
0.0
 40
0.0
 40
0.2312540829
 40
0.471887772
 40
0.7261724802
 40
1.0
 40
1.0
 40
1.0
 40
1.0
 10
1.8260654915
 20
-23.9380568494
 30
0.0
 10
1.911171055
 20
-23.9736250341
 30
0.0
 10
2.0837115244
 20
-24.0490111039
 30
0.0
 10
2.341637975
 20
-24.1814176486
 30
0.0
 10
2.6022585322
 20
-24.3435331243
 30
0.0
 10
2.7683756564
 20
-24.4746568238
 30
0.0
 10
2.8473599616
 20
-24.5500923641
 30
0.0
  0
SPLINE
  5
483
100
AcDbEntity
  8
ASSI
100
AcDbSpline
 62
7
  6
CONTINUOUS
 70
0
 71
3
 72
9
 73
5
 74
0
 42
0.0000001
 43
0.0000001
 44
0.0000000001
 40
0.0
 40
0.0
 40
0.0
 40
0.0
 40
0.4999814859
 40
1.0
 40
1.0
 40
1.0
 40
1.0
 10
77.6900106679
 20
-4.544251435
 30
0.0
 10
77.7749507265
 20
-4.5932949337
 30
0.0
 10
77.9174253513
 20
-4.7419338141
 30
0.0
 10
77.974921229
 20
-4.9396417868
 30
0.0
 10
77.9749211959
 20
-5.0377310487
 30
0.0
  0
SPLINE
  5
484
100
AcDbEntity
  8
ASSI
100
AcDbSpline
 62
7
  6
CONTINUOUS
 70
0
 71
3
 72
11
 73
7
 74
0
 42
0.0000001
 43
0.0000001
 44
0.0000000001
 40
0.0
 40
0.0
 40
0.0
 40
0.0
 40
0.2102691245
 40
0.4430634787
 40
0.7058884614
 40
1.0
 40
1.0
 40
1.0
 40
1.0
 10
2.8621001063
 20
-25.2446633012
 30
0.0
 10
2.8757541371
 20
-25.2368204222
 30
0.0
 10
2.8997430795
 20
-25.2118772536
 30
0.0
 10
2.9202247256
 20
-25.1624912422
 30
0.0
 10
2.9300225791
 20
-25.1037982222
 30
0.0
 10
2.9296688044
 20
-25.0618858234
 30
0.0
 10
2.9278880599
 20
-25.03993309
 30
0.0
  0
SPLINE
  5
485
100
AcDbEntity
  8
ASSI
100
AcDbSpline
 62
7
  6
CONTINUOUS
 70
0
 71
3
 72
10
 73
6
 74
0
 42
0.0000001
 43
0.0000001
 44
0.0000000001
 40
0.0
 40
0.0
 40
0.0
 40
0.0
 40
0.4444055609
 40
0.7081374414
 40
1.0
 40
1.0
 40
1.0
 40
1.0
 10
2.7695531385
 20
-25.2962309996
 30
0.0
 10
2.7928535267
 20
-25.2763236375
 30
0.0
 10
2.8141698317
 20
-25.2278649812
 30
0.0
 10
2.8236333753
 20
-25.1600300961
 30
0.0
 10
2.8231435298
 20
-25.1214114035
 30
0.0
 10
2.8215174971
 20
-25.101350125
 30
0.0
  0
SPLINE
  5
486
100
AcDbEntity
  8
ASSI
100
AcDbSpline
 62
250
  6
CONTINUOUS
 70
0
 71
3
 72
10
 73
6
 74
0
 42
0.0000001
 43
0.0000001
 44
0.0000000001
 40
0.0
 40
0.0
 40
0.0
 40
0.0
 40
0.2280187289
 40
0.4762905488
 40
1.0
 40
1.0
 40
1.0
 40
1.0
 10
-56.1396789193
 20
11.7840702664
 30
0.0
 10
-56.2131057564
 20
11.8264638776
 30
0.0
 10
-56.3580991478
 20
11.9299485442
 30
0.0
 10
-56.625971938
 20
12.1889034245
 30
0.0
 10
-56.7921571109
 20
12.427979644
 30
0.0
 10
-56.8830516132
 20
12.6002009916
 30
0.0
  0
SPLINE
  5
487
100
AcDbEntity
  8
ASSI
100
AcDbSpline
 62
7
  6
CONTINUOUS
 70
0
 71
3
 72
9
 73
5
 74
0
 42
0.0000001
 43
0.0000001
 44
0.0000000001
 40
0.0
 40
0.0
 40
0.0
 40
0.0
 40
0.4594677314
 40
1.0
 40
1.0
 40
1.0
 40
1.0
 10
3.1260256267
 20
-25.6235936889
 30
0.0
 10
3.1180336392
 20
-25.6263713299
 30
0.0
 10
3.1001098873
 20
-25.6317126591
 30
0.0
 10
3.0810293967
 20
-25.6282062414
 30
0.0
 10
3.0719148539
 20
-25.6242061072
 30
0.0
  0
SPLINE
  5
488
100
AcDbEntity
  8
ASSI
100
AcDbSpline
 62
7
  6
CONTINUOUS
 70
0
 71
3
 72
8
 73
4
 74
0
 42
0.0000001
 43
0.0000001
 44
0.0000000001
 40
0.0
 40
0.0
 40
0.0
 40
0.0
 40
1.0
 40
1.0
 40
1.0
 40
1.0
 10
3.0829546977
 20
-25.6571110897
 30
0.0
 10
3.0717270502
 20
-25.6635919329
 30
0.0
 10
3.0599779041
 20
-25.6691990714
 30
0.0
 10
3.0480100793
 20
-25.6741823003
 30
0.0
  0
SPLINE
  5
489
100
AcDbEntity
  8
ASSI
100
AcDbSpline
 62
7
  6
CONTINUOUS
 70
0
 71
3
 72
9
 73
5
 74
0
 42
0.0000001
 43
0.0000001
 44
0.0000000001
 40
0.0
 40
0.0
 40
0.0
 40
0.0
 40
0.4899256182
 40
1.0
 40
1.0
 40
1.0
 40
1.0
 10
3.0480100793
 20
-25.6741823003
 30
0.0
 10
3.0385373097
 20
-25.6781266244
 30
0.0
 10
3.0192259901
 20
-25.6858136164
 30
0.0
 10
2.9984048182
 20
-25.6914458995
 30
0.0
 10
2.9877324694
 20
-25.6909657438
 30
0.0
  0
SPLINE
  5
48A
100
AcDbEntity
  8
ASSI
100
AcDbSpline
 62
7
  6
CONTINUOUS
 70
0
 71
3
 72
9
 73
5
 74
0
 42
0.0000001
 43
0.0000001
 44
0.0000000001
 40
0.0
 40
0.0
 40
0.0
 40
0.0
 40
0.2351450993
 40
1.0
 40
1.0
 40
1.0
 40
1.0
 10
2.9877324694
 20
-25.6909657438
 30
0.0
 10
2.9862712547
 20
-25.6909000028
 30
0.0
 10
2.9800692159
 20
-25.6903853608
 30
0.0
 10
2.9739561281
 20
-25.6888753816
 30
0.0
 10
2.9694878554
 20
-25.6872413174
 30
0.0
  0
SPLINE
  5
48B
100
AcDbEntity
  8
ASSI
100
AcDbSpline
 62
7
  6
CONTINUOUS
 70
0
 71
3
 72
10
 73
6
 74
0
 42
0.0000001
 43
0.0000001
 44
0.0000000001
 40
0.0
 40
0.0
 40
0.0
 40
0.0
 40
0.5207410496
 40
0.7652349171
 40
1.0
 40
1.0
 40
1.0
 40
1.0
 10
2.569564361
 20
-24.6913113116
 30
0.0
 10
2.5173101619
 20
-24.6547087471
 30
0.0
 10
2.4375934968
 20
-24.604797861
 30
0.0
 10
2.327742831
 20
-24.550374586
 30
0.0
 10
2.2734719124
 20
-24.5278683045
 30
0.0
 10
2.2466988773
 20
-24.5173578789
 30
0.0
  0
SPLINE
  5
48C
100
AcDbEntity
  8
ASSI
100
AcDbSpline
 62
7
  6
CONTINUOUS
 70
0
 71
3
 72
11
 73
7
 74
0
 42
0.0000001
 43
0.0000001
 44
0.0000000001
 40
0.0
 40
0.0
 40
0.0
 40
0.0
 40
0.2313867796
 40
0.4909038991
 40
0.7548146936
 40
1.0
 40
1.0
 40
1.0
 40
1.0
 10
2.8215174971
 20
-25.101350125
 30
0.0
 10
2.8184382954
 20
-25.0633602841
 30
0.0
 10
2.798283281
 20
-24.9839611657
 30
0.0
 10
2.7439099434
 20
-24.8713302003
 30
0.0
 10
2.665748854
 20
-24.77067665
 30
0.0
 10
2.6026436365
 20
-24.7144823932
 30
0.0
 10
2.569564361
 20
-24.6913113116
 30
0.0
  0
SPLINE
  5
48D
100
AcDbEntity
  8
ASSI
100
AcDbSpline
 62
250
  6
CONTINUOUS
 70
0
 71
3
 72
11
 73
7
 74
0
 42
0.0000001
 43
0.0000001
 44
0.0000000001
 40
0.0
 40
0.0
 40
0.0
 40
0.0
 40
0.2205599427
 40
0.4553011903
 40
0.7136794495
 40
1.0
 40
1.0
 40
1.0
 40
1.0
 10
-42.0039436488
 20
7.2849050573
 30
0.0
 10
-42.0039474445
 20
7.2663142559
 30
0.0
 10
-42.0103201567
 20
7.2277094605
 30
0.0
 10
-42.0376946437
 20
7.1733175229
 30
0.0
 10
-42.0812156896
 20
7.1233735834
 30
0.0
 10
-42.1179679377
 20
7.095367177
 30
0.0
 10
-42.1382563269
 20
7.0822974797
 30
0.0
  0
SPLINE
  5
48E
100
AcDbEntity
  8
ASSI
100
AcDbSpline
 62
7
  6
CONTINUOUS
 70
0
 71
3
 72
11
 73
7
 74
0
 42
0.0000001
 43
0.0000001
 44
0.0000000001
 40
0.0
 40
0.0
 40
0.0
 40
0.0
 40
0.2512945855
 40
0.512740481
 40
0.7690633453
 40
1.0
 40
1.0
 40
1.0
 40
1.0
 10
2.7939886444
 20
-25.9423817644
 30
0.0
 10
2.7826002516
 20
-25.9094943451
 30
0.0
 10
2.7542855235
 20
-25.8440977547
 30
0.0
 10
2.6993741414
 20
-25.7524007455
 30
0.0
 10
2.6312895117
 20
-25.6733504559
 30
0.0
 10
2.5769026877
 20
-25.6322614035
 30
0.0
 10
2.5492042508
 20
-25.6162686732
 30
0.0
  0
SPLINE
  5
48F
100
AcDbEntity
  8
ASSI
100
AcDbSpline
 62
7
  6
CONTINUOUS
 70
0
 71
3
 72
10
 73
6
 74
0
 42
0.0000001
 43
0.0000001
 44
0.0000000001
 40
0.0
 40
0.0
 40
0.0
 40
0.0
 40
0.2490979593
 40
0.498011308
 40
1.0
 40
1.0
 40
1.0
 40
1.0
 10
3.0259125808
 20
-26.7104890973
 30
0.0
 10
3.0070313524
 20
-26.6465978068
 30
0.0
 10
2.9687069846
 20
-26.5190279414
 30
0.0
 10
2.8930859037
 20
-26.2625178073
 30
0.0
 10
2.8379212754
 20
-26.069250488
 30
0.0
 10
2.7939886444
 20
-25.9423817644
 30
0.0
  0
SPLINE
  5
490
100
AcDbEntity
  8
ASSI
100
AcDbSpline
 62
250
  6
CONTINUOUS
 70
0
 71
3
 72
9
 73
5
 74
0
 42
0.0000001
 43
0.0000001
 44
0.0000000001
 40
0.0
 40
0.0
 40
0.0
 40
0.0
 40
0.4520902634
 40
1.0
 40
1.0
 40
1.0
 40
1.0
 10
-42.1742359286
 20
6.9942130338
 30
0.0
 10
-42.16188195
 20
7.0023903493
 30
0.0
 10
-42.1411621904
 20
7.0307182465
 30
0.0
 10
-42.1377337984
 20
7.0643435546
 30
0.0
 10
-42.1382666078
 20
7.0822908586
 30
0.0
  0
SPLINE
  5
491
100
AcDbEntity
  8
ASSI
100
AcDbSpline
 62
250
  6
CONTINUOUS
 70
0
 71
3
 72
11
 73
7
 74
0
 42
0.0000001
 43
0.0000001
 44
0.0000000001
 40
0.0
 40
0.0
 40
0.0
 40
0.0
 40
0.2815747636
 40
0.5404539484
 40
0.7783483173
 40
1.0
 40
1.0
 40
1.0
 40
1.0
 10
-57.1063702949
 20
49.060888031
 30
0.0
 10
-57.1038812203
 20
49.1183588982
 30
0.0
 10
-57.0915156295
 20
49.2285851354
 30
0.0
 10
-57.0474473803
 20
49.3822763557
 30
0.0
 10
-56.979404262
 20
49.513549587
 30
0.0
 10
-56.9170833776
 20
49.585337524
 30
0.0
 10
-56.8830427314
 20
49.6151997792
 30
0.0
  0
LINE
  5
492
100
AcDbEntity
  8
ASSI
100
AcDbLine
 62
250
  6
CONTINUOUS
 10
-57.4935696009
 20
33.6217671348
 11
-57.4863281329
 21
34.5699622699
  0
SPLINE
  5
493
100
AcDbEntity
  8
ASSI
100
AcDbSpline
 62
250
  6
CONTINUOUS
 70
0
 71
3
 72
9
 73
5
 74
0
 42
0.0000001
 43
0.0000001
 44
0.0000000001
 40
0.0
 40
0.0
 40
0.0
 40
0.0
 40
0.5274859415
 40
1.0
 40
1.0
 40
1.0
 40
1.0
 10
-56.8830498598
 20
12.6001999792
 30
0.0
 10
-56.9475233171
 20
12.7222069979
 30
0.0
 10
-57.0497506173
 20
12.9647065595
 30
0.0
 10
-57.1007686105
 20
13.2243863781
 30
0.0
 10
-57.1063702949
 20
13.3478729956
 30
0.0
  0
LINE
  5
494
100
AcDbEntity
  8
ASSI
100
AcDbLine
 62
250
  6
CONTINUOUS
 10
-74.724916005
 20
23.0225020963
 11
-74.7196779341
 21
22.8988794048
  0
SPLINE
  5
495
100
AcDbEntity
  8
ASSI
100
AcDbSpline
 62
250
  6
CONTINUOUS
 70
0
 71
3
 72
11
 73
7
 74
0
 42
0.0000001
 43
0.0000001
 44
0.0000000001
 40
0.0
 40
0.0
 40
0.0
 40
0.0
 40
0.2886584886
 40
0.5490438477
 40
0.783863926
 40
1.0
 40
1.0
 40
1.0
 40
1.0
 10
55.315530717
 20
-51.5631236713
 30
0.0
 10
55.3177555668
 20
-51.6173883291
 30
0.0
 10
55.3150413523
 20
-51.7211316976
 30
0.0
 10
55.2858120446
 20
-51.8665916073
 30
0.0
 10
55.2318572683
 20
-51.990361722
 30
0.0
 10
55.1780213992
 20
-52.0576676014
 30
0.0
 10
55.1480729379
 20
-52.0851769062
 30
0.0
  0
SPLINE
  5
496
100
AcDbEntity
  8
ASSI
100
AcDbSpline
 62
250
  6
CONTINUOUS
 70
0
 71
3
 72
11
 73
7
 74
0
 42
0.0000001
 43
0.0000001
 44
0.0000000001
 40
0.0
 40
0.0
 40
0.0
 40
0.0
 40
0.2105451466
 40
0.4415784286
 40
0.7035303308
 40
1.0
 40
1.0
 40
1.0
 40
1.0
 10
55.1445912079
 20
-51.501203763
 30
0.0
 10
55.120190813
 20
-51.5133782593
 30
0.0
 10
55.0638738639
 20
-51.5293614591
 30
0.0
 10
54.9716953139
 20
-51.5251335632
 30
0.0
 10
54.8730515514
 20
-51.4954080901
 30
0.0
 10
54.8086447539
 20
-51.4616524921
 30
0.0
 10
54.7759848325
 20
-51.4414607885
 30
0.0
  0
SPLINE
  5
497
100
AcDbEntity
  8
ASSI
100
AcDbSpline
 62
250
  6
CONTINUOUS
 70
0
 71
3
 72
9
 73
5
 74
0
 42
0.0000001
 43
0.0000001
 44
0.0000000001
 40
0.0
 40
0.0
 40
0.0
 40
0.0
 40
0.5220875466
 40
1.0
 40
1.0
 40
1.0
 40
1.0
 10
55.1480729379
 20
-15.0701623286
 30
0.0
 10
55.2051905854
 20
-15.1976637086
 30
0.0
 10
55.2912691315
 20
-15.4530779482
 30
0.0
 10
55.3205086162
 20
-15.7223162831
 30
0.0
 10
55.315530717
 20
-15.8501086359
 30
0.0
  0
SPLINE
  5
498
100
AcDbEntity
  8
ASSI
100
AcDbSpline
 62
250
  6
CONTINUOUS
 70
0
 71
3
 72
9
 73
5
 74
0
 42
0.0000001
 43
0.0000001
 44
0.0000000001
 40
0.0
 40
0.0
 40
0.0
 40
0.0
 40
0.2455441792
 40
1.0
 40
1.0
 40
1.0
 40
1.0
 10
72.9847040444
 20
-62.3837796935
 30
0.0
 10
72.8421575671
 20
-59.3569282927
 30
0.0
 10
72.4111608975
 20
-47.0230544885
 30
0.0
 10
72.567122405
 20
-34.6700613904
 30
0.0
 10
72.9847040341
 20
-25.3688590103
 30
0.0
  0
SPLINE
  5
499
100
AcDbEntity
  8
ASSI
100
AcDbSpline
 62
250
  6
CONTINUOUS
 70
0
 71
3
 72
9
 73
5
 74
0
 42
0.0000001
 43
0.0000001
 44
0.0000000001
 40
0.0
 40
0.0
 40
0.0
 40
0.0
 40
0.5072370183
 40
1.0
 40
1.0
 40
1.0
 40
1.0
 10
-73.083907828
 20
78.3182391687
 30
0.0
 10
-73.5022221628
 20
75.2214332269
 30
0.0
 10
-74.1935140781
 20
69.0972859566
 30
0.0
 10
-74.5973587728
 20
62.9470957128
 30
0.0
 10
-74.7196778616
 20
59.9138000523
 30
0.0
  0
SPLINE
  5
49A
100
AcDbEntity
  8
ASSI
100
AcDbSpline
 62
250
  6
CONTINUOUS
 70
0
 71
3
 72
14
 73
10
 74
0
 42
0.0000001
 43
0.0000001
 44
0.0000000001
 40
0.0
 40
0.0
 40
0.0
 40
0.0
 40
0.2518617734
 40
0.366920505
 40
0.4801613204
 40
0.5968815402
 40
0.7212207853
 40
0.8554308343
 40
1.0
 40
1.0
 40
1.0
 40
1.0
 10
-72.5031875255
 20
78.6655367369
 30
0.0
 10
-72.5630209067
 20
78.7000881588
 30
0.0
 10
-72.6632712724
 20
78.7349793605
 30
0.0
 10
-72.7960808576
 20
78.7215593357
 30
0.0
 10
-72.8844726099
 20
78.6837773499
 30
0.0
 10
-72.9598591281
 20
78.6204621478
 30
0.0
 10
-73.0196698707
 20
78.53547414
 30
0.0
 10
-73.0625008782
 20
78.4327467711
 30
0.0
 10
-73.0785978883
 20
78.3575415784
 30
0.0
 10
-73.083907828
 20
78.3182391687
 30
0.0
  0
SPLINE
  5
49B
100
AcDbEntity
  8
ASSI
100
AcDbSpline
 62
250
  6
CONTINUOUS
 70
0
 71
3
 72
11
 73
7
 74
0
 42
0.0000001
 43
0.0000001
 44
0.0000000001
 40
0.0
 40
0.0
 40
0.0
 40
0.0
 40
0.210001087
 40
0.4358208832
 40
0.6965905518
 40
1.0
 40
1.0
 40
1.0
 40
1.0
 10
75.0432842532
 20
-79.2003476368
 30
0.0
 10
75.0751374144
 20
-79.1856184079
 30
0.0
 10
75.1353359208
 20
-79.140121328
 30
0.0
 10
75.1929082858
 20
-79.0360323574
 30
0.0
 10
75.2186887464
 20
-78.9050664181
 30
0.0
 10
75.2159652692
 20
-78.8101638868
 30
0.0
 10
75.2105778629
 20
-78.7597474271
 30
0.0
  0
SPLINE
  5
49C
100
AcDbEntity
  8
ASSI
100
AcDbSpline
 62
250
  6
CONTINUOUS
 70
0
 71
3
 72
12
 73
8
 74
0
 42
0.0000001
 43
0.0000001
 44
0.0000000001
 40
0.0
 40
0.0
 40
0.0
 40
0.0
 40
0.120682714
 40
0.2475610301
 40
0.4446892556
 40
0.6422700036
 40
1.0
 40
1.0
 40
1.0
 40
1.0
 10
74.8010686429
 20
-7.0686928115
 30
0.0
 10
74.8073569081
 20
-7.0271395885
 30
0.0
 10
74.8132239138
 20
-6.9407188412
 30
0.0
 10
74.8015271611
 20
-6.7859257312
 30
0.0
 10
74.7573348191
 20
-6.6081662154
 30
0.0
 10
74.6465895683
 20
-6.3704806488
 30
0.0
 10
74.5106192048
 20
-6.2183974329
 30
0.0
 10
74.4027376342
 20
-6.1561032867
 30
0.0
  0
SPLINE
  5
49D
100
AcDbEntity
  8
ASSI
100
AcDbSpline
 62
7
  6
CONTINUOUS
 70
0
 71
3
 72
11
 73
7
 74
0
 42
0.0000001
 43
0.0000001
 44
0.0000000001
 40
0.0
 40
0.0
 40
0.0
 40
0.0
 40
0.2313807349
 40
0.4908936624
 40
0.7548089774
 40
1.0
 40
1.0
 40
1.0
 40
1.0
 10
2.9278880599
 20
-25.03993309
 30
0.0
 10
2.9248065338
 20
-25.0019445309
 30
0.0
 10
2.9046471208
 20
-24.9225486581
 30
0.0
 10
2.8502705307
 20
-24.8099207658
 30
0.0
 10
2.7721052267
 20
-24.7092696704
 30
0.0
 10
2.7089983513
 20
-24.653075266
 30
0.0
 10
2.6759182343
 20
-24.629903918
 30
0.0
  0
SPLINE
  5
49E
100
AcDbEntity
  8
ASSI
100
AcDbSpline
 62
7
  6
CONTINUOUS
 70
0
 71
3
 72
10
 73
6
 74
0
 42
0.0000001
 43
0.0000001
 44
0.0000000001
 40
0.0
 40
0.0
 40
0.0
 40
0.0
 40
0.5207427528
 40
0.7652375436
 40
1.0
 40
1.0
 40
1.0
 40
1.0
 10
2.6759182343
 20
-24.629903918
 30
0.0
 10
2.6236637044
 20
-24.5933016324
 30
0.0
 10
2.5439463167
 20
-24.54339183
 30
0.0
 10
2.434097018
 20
-24.4889661821
 30
0.0
 10
2.3798261184
 20
-24.4664605886
 30
0.0
 10
2.3530535255
 20
-24.455950038
 30
0.0
  0
SPLINE
  5
49F
100
AcDbEntity
  8
ASSI
100
AcDbSpline
 62
250
  6
CONTINUOUS
 70
0
 71
3
 72
9
 73
5
 74
0
 42
0.0000001
 43
0.0000001
 44
0.0000000001
 40
0.0
 40
0.0
 40
0.0
 40
0.0
 40
0.2449455102
 40
1.0
 40
1.0
 40
1.0
 40
1.0
 10
72.9847039619
 20
-25.3688589687
 30
0.0
 10
73.0520616797
 20
-23.8684523084
 30
0.0
 10
73.4128245989
 20
-17.7470081166
 30
0.0
 10
74.1084954956
 20
-11.6463205324
 30
0.0
 10
74.8010686429
 20
-7.0686928115
 30
0.0
  0
SPLINE
  5
4A0
100
AcDbEntity
  8
ASSI
100
AcDbSpline
 62
7
  6
CONTINUOUS
 70
0
 71
3
 72
10
 73
6
 74
0
 42
0.0000001
 43
0.0000001
 44
0.0000000001
 40
0.0
 40
0.0
 40
0.0
 40
0.0
 40
0.2490977738
 40
0.4980110656
 40
1.0
 40
1.0
 40
1.0
 40
1.0
 10
3.132386996
 20
-26.6490121044
 30
0.0
 10
3.1135017717
 20
-26.585123103
 30
0.0
 10
3.0751695134
 20
-26.4575577921
 30
0.0
 10
2.9995324054
 20
-26.2010566167
 30
0.0
 10
2.9443564845
 20
-26.0077956678
 30
0.0
 10
2.9004168368
 20
-25.880931466
 30
0.0
  0
SPLINE
  5
4A1
100
AcDbEntity
  8
ASSI
100
AcDbSpline
 62
7
  6
CONTINUOUS
 70
0
 71
3
 72
11
 73
7
 74
0
 42
0.0000001
 43
0.0000001
 44
0.0000000001
 40
0.0
 40
0.0
 40
0.0
 40
0.0
 40
0.2513077038
 40
0.5127540393
 40
0.7690728024
 40
1.0
 40
1.0
 40
1.0
 40
1.0
 10
2.9004168368
 20
-25.880931466
 30
0.0
 10
2.8890258436
 20
-25.8480429626
 30
0.0
 10
2.8607058389
 20
-25.7826465695
 30
0.0
 10
2.8057909041
 20
-25.6909499287
 30
0.0
 10
2.7377026705
 20
-25.6119049285
 30
0.0
 10
2.6833168992
 20
-25.5708179155
 30
0.0
 10
2.65561955
 20
-25.5548258132
 30
0.0
  0
SPLINE
  5
4A2
100
AcDbEntity
  8
ASSI
100
AcDbSpline
 62
250
  6
CONTINUOUS
 70
0
 71
3
 72
10
 73
6
 74
0
 42
0.0000001
 43
0.0000001
 44
0.0000000001
 40
0.0
 40
0.0
 40
0.0
 40
0.0
 40
0.2280875013
 40
0.4753036033
 40
1.0
 40
1.0
 40
1.0
 40
1.0
 10
54.4414210293
 20
-14.2328504004
 30
0.0
 10
54.5128367971
 20
-14.2740839474
 30
0.0
 10
54.6528355334
 20
-14.3758040836
 30
0.0
 10
54.9070608632
 20
-14.6342063714
 30
0.0
 10
55.0579345698
 20
-14.8745725203
 30
0.0
 10
55.1374564969
 20
-15.0468035296
 30
0.0
  0
SPLINE
  5
4A3
100
AcDbEntity
  8
ASSI
100
AcDbSpline
 62
250
  6
CONTINUOUS
 70
0
 71
3
 72
9
 73
5
 74
0
 42
0.0000001
 43
0.0000001
 44
0.0000000001
 40
0.0
 40
0.0
 40
0.0
 40
0.0
 40
0.4918085635
 40
1.0
 40
1.0
 40
1.0
 40
1.0
 10
-69.5522017574
 20
79.9338847731
 30
0.0
 10
-69.3200089248
 20
79.9339351665
 30
0.0
 10
-68.847084183
 20
79.8820600429
 30
0.0
 10
-68.3925104232
 20
79.7466035171
 30
0.0
 10
-68.1681633479
 20
79.6615528993
 30
0.0
  0
SPLINE
  5
4A4
100
AcDbEntity
  8
ASSI
100
AcDbSpline
 62
250
  6
CONTINUOUS
 70
0
 71
3
 72
11
 73
7
 74
0
 42
0.0000001
 43
0.0000001
 44
0.0000000001
 40
0.0
 40
0.0
 40
0.0
 40
0.0
 40
0.2254727204
 40
0.4577336987
 40
0.7130559949
 40
1.0
 40
1.0
 40
1.0
 40
1.0
 10
-56.8830427314
 20
49.6151997792
 30
0.0
 10
-56.8383051046
 20
49.6545602371
 30
0.0
 10
-56.7316114095
 20
49.7185119944
 30
0.0
 10
-56.5415659866
 20
49.748484566
 30
0.0
 10
-56.3370374759
 20
49.7132628545
 30
0.0
 10
-56.2053502188
 20
49.6532114596
 30
0.0
 10
-56.1396789193
 20
49.6152908032
 30
0.0
  0
SPLINE
  5
4A5
100
AcDbEntity
  8
ASSI
100
AcDbSpline
 62
250
  6
CONTINUOUS
 70
0
 71
3
 72
10
 73
6
 74
0
 42
0.0000001
 43
0.0000001
 44
0.0000000001
 40
0.0
 40
0.0
 40
0.0
 40
0.0
 40
0.6204566485
 40
0.8391049942
 40
1.0
 40
1.0
 40
1.0
 40
1.0
 10
77.1750611699
 20
-4.7845979165
 30
0.0
 10
77.2793274984
 20
-4.730188862
 30
0.0
 10
77.4211536618
 20
-4.6579794777
 30
0.0
 10
77.5940770906
 20
-4.5803103927
 30
0.0
 10
77.6610855689
 20
-4.5539195172
 30
0.0
 10
77.6900104809
 20
-4.5442512959
 30
0.0
  0
SPLINE
  5
4A6
100
AcDbEntity
  8
ASSI
100
AcDbSpline
 62
250
  6
CONTINUOUS
 70
0
 71
3
 72
9
 73
5
 74
0
 42
0.0000001
 43
0.0000001
 44
0.0000000001
 40
0.0
 40
0.0
 40
0.0
 40
0.0
 40
0.2805916734
 40
1.0
 40
1.0
 40
1.0
 40
1.0
 10
76.6422831594
 20
-5.0740213648
 30
0.0
 10
76.6917762085
 20
-5.0463362628
 30
0.0
 10
76.8684321887
 20
-4.9481532953
 30
0.0
 10
77.0461574796
 20
-4.8518632067
 30
0.0
 10
77.1750611699
 20
-4.7845979165
 30
0.0
  0
SPLINE
  5
4A7
100
AcDbEntity
  8
ASSI
100
AcDbSpline
 62
250
  6
CONTINUOUS
 70
0
 71
3
 72
9
 73
5
 74
0
 42
0.0000001
 43
0.0000001
 44
0.0000000001
 40
0.0
 40
0.0
 40
0.0
 40
0.0
 40
0.248285751
 40
1.0
 40
1.0
 40
1.0
 40
1.0
 10
-70.292318716
 20
79.8402855181
 30
0.0
 10
-70.2409866568
 20
79.8538709225
 30
0.0
 10
-70.0326453579
 20
79.9024606469
 30
0.0
 10
-69.8187814384
 20
79.9266055676
 30
0.0
 10
-69.6581100223
 20
79.932078065
 30
0.0
  0
SPLINE
  5
4A8
100
AcDbEntity
  8
ASSI
100
AcDbSpline
 62
250
  6
CONTINUOUS
 70
0
 71
3
 72
9
 73
5
 74
0
 42
0.0000001
 43
0.0000001
 44
0.0000000001
 40
0.0
 40
0.0
 40
0.0
 40
0.0
 40
0.5081865506
 40
1.0
 40
1.0
 40
1.0
 40
1.0
 10
77.9655090338
 20
-75.4729197593
 30
0.0
 10
77.9269960802
 20
-75.7097517008
 30
0.0
 10
77.8170255853
 20
-76.1711899167
 30
0.0
 10
77.6254905063
 20
-76.6067318751
 30
0.0
 10
77.5093470732
 20
-76.8078120935
 30
0.0
  0
SPLINE
  5
4A9
100
AcDbEntity
  8
ASSI
100
AcDbSpline
 62
250
  6
CONTINUOUS
 70
0
 71
3
 72
9
 73
5
 74
0
 42
0.0000001
 43
0.0000001
 44
0.0000000001
 40
0.0
 40
0.0
 40
0.0
 40
0.0
 40
0.2523152624
 40
1.0
 40
1.0
 40
1.0
 40
1.0
 10
77.4548101213
 20
-76.8986652301
 30
0.0
 10
77.4262692177
 20
-76.9444302589
 30
0.0
 10
77.3084540859
 20
-77.1228168297
 30
0.0
 10
77.1710717929
 20
-77.2884446571
 30
0.0
 10
77.0584209021
 20
-77.4018212159
 30
0.0
  0
SPLINE
  5
4AA
100
AcDbEntity
  8
ASSI
100
AcDbSpline
 62
250
  6
CONTINUOUS
 70
0
 71
3
 72
9
 73
5
 74
0
 42
0.0000001
 43
0.0000001
 44
0.0000000001
 40
0.0
 40
0.0
 40
0.0
 40
0.0
 40
0.2805907799
 40
1.0
 40
1.0
 40
1.0
 40
1.0
 10
76.9923696498
 20
-5.6803621596
 30
0.0
 10
77.0410887091
 20
-5.651339142
 30
0.0
 10
77.2144331399
 20
-5.5474287917
 30
0.0
 10
77.3866708302
 20
-5.4416426841
 30
0.0
 10
77.5093632034
 20
-5.3636260231
 30
0.0
  0
SPLINE
  5
4AB
100
AcDbEntity
  8
ASSI
100
AcDbSpline
 62
250
  6
CONTINUOUS
 70
0
 71
3
 72
10
 73
6
 74
0
 42
0.0000001
 43
0.0000001
 44
0.0000000001
 40
0.0
 40
0.0
 40
0.0
 40
0.0
 40
0.6204495113
 40
0.8390992473
 40
1.0
 40
1.0
 40
1.0
 40
1.0
 10
77.5093632034
 20
-5.3636260231
 30
0.0
 10
77.60860829
 20
-5.3005189049
 30
0.0
 10
77.7420455887
 20
-5.21377662
 30
0.0
 10
77.8957461872
 20
-5.1028140556
 30
0.0
 10
77.9520934803
 20
-5.0579580436
 30
0.0
 10
77.974921209
 20
-5.0377311624
 30
0.0
  0
SPLINE
  5
4AC
100
AcDbEntity
  8
ASSI
100
AcDbSpline
 62
250
  6
CONTINUOUS
 70
0
 71
3
 72
11
 73
7
 74
0
 42
0.0000001
 43
0.0000001
 44
0.0000000001
 40
0.0
 40
0.0
 40
0.0
 40
0.0
 40
0.2390740937
 40
0.5016463182
 40
0.7633192634
 40
1.0
 40
1.0
 40
1.0
 40
1.0
 10
-26.373400653
 20
-0.9456746912
 30
0.0
 10
-26.3527757647
 20
-0.9567866666
 30
0.0
 10
-26.3136271664
 20
-0.9878787509
 30
0.0
 10
-26.2678902228
 20
-1.0478340784
 30
0.0
 10
-26.2368347571
 20
-1.1162936345
 30
0.0
 10
-26.2281958283
 20
-1.1652378947
 30
0.0
 10
-26.2283640311
 20
-1.1884305545
 30
0.0
  0
SPLINE
  5
4AD
100
AcDbEntity
  8
ASSI
100
AcDbSpline
 62
250
  6
CONTINUOUS
 70
0
 71
3
 72
10
 73
6
 74
0
 42
0.0000001
 43
0.0000001
 44
0.0000000001
 40
0.0
 40
0.0
 40
0.0
 40
0.0
 40
0.5470431534
 40
0.7810784988
 40
1.0
 40
1.0
 40
1.0
 40
1.0
 10
-26.3806747291
 20
-0.7071220899
 30
0.0
 10
-26.3643041872
 20
-0.6978349035
 30
0.0
 10
-26.33821058
 20
-0.687636997
 30
0.0
 10
-26.3033910489
 20
-0.6886879748
 30
0.0
 10
-26.2884271355
 20
-0.6941542544
 30
0.0
 10
-26.2819040215
 20
-0.6979202115
 30
0.0
  0
SPLINE
  5
4AE
100
AcDbEntity
  8
ASSI
100
AcDbSpline
 62
250
  6
CONTINUOUS
 70
0
 71
3
 72
10
 73
6
 74
0
 42
0.0000001
 43
0.0000001
 44
0.0000000001
 40
0.0
 40
0.0
 40
0.0
 40
0.0
 40
0.5470431479
 40
0.7810784974
 40
1.0
 40
1.0
 40
1.0
 40
1.0
 10
-27.9605713477
 20
0.2050904169
 30
0.0
 10
-27.944200805
 20
0.2143776023
 30
0.0
 10
-27.9181071967
 20
0.2245755079
 30
0.0
 10
-27.8832876651
 20
0.2235245296
 30
0.0
 10
-27.8683237507
 20
0.2180582508
 30
0.0
 10
-27.8618006366
 20
0.2142922934
 30
0.0
  0
SPLINE
  5
4AF
100
AcDbEntity
  8
ASSI
100
AcDbSpline
 62
250
  6
CONTINUOUS
 70
0
 71
3
 72
9
 73
5
 74
0
 42
0.0000001
 43
0.0000001
 44
0.0000000001
 40
0.0
 40
0.0
 40
0.0
 40
0.0
 40
0.5520742363
 40
1.0
 40
1.0
 40
1.0
 40
1.0
 10
-28.3773028901
 20
0.2113533457
 30
0.0
 10
-28.3927791102
 20
0.2209300983
 30
0.0
 10
-28.4237063647
 20
0.2350414482
 30
0.0
 10
-28.4589586285
 20
0.23106235
 30
0.0
 10
-28.4720141795
 20
0.224163341
 30
0.0
  0
SPLINE
  5
4B0
100
AcDbEntity
  8
ASSI
100
AcDbSpline
 62
250
  6
CONTINUOUS
 70
0
 71
3
 72
9
 73
5
 74
0
 42
0.0000001
 43
0.0000001
 44
0.0000000001
 40
0.0
 40
0.0
 40
0.0
 40
0.0
 40
0.5479059081
 40
1.0
 40
1.0
 40
1.0
 40
1.0
 10
-26.2283640311
 20
-1.7772993806
 30
0.0
 10
-26.2278313083
 20
-1.7952437998
 30
0.0
 10
-26.2312587034
 20
-1.8288633808
 30
0.0
 10
-26.2519699485
 20
-1.8571894196
 30
0.0
 10
-26.2643201852
 20
-1.8653684877
 30
0.0
  0
SPLINE
  5
4B1
100
AcDbEntity
  8
ASSI
100
AcDbSpline
 62
250
  6
CONTINUOUS
 70
0
 71
3
 72
9
 73
5
 74
0
 42
0.0000001
 43
0.0000001
 44
0.0000000001
 40
0.0
 40
0.0
 40
0.0
 40
0.0
 40
0.5479059081
 40
1.0
 40
1.0
 40
1.0
 40
1.0
 10
37.4112462757
 20
-38.5220127801
 30
0.0
 10
37.4117789985
 20
-38.5399571992
 30
0.0
 10
37.4083516034
 20
-38.5735767803
 30
0.0
 10
37.3876403583
 20
-38.6019028191
 30
0.0
 10
37.3752901216
 20
-38.6100818872
 30
0.0
  0
SPLINE
  5
4B2
100
AcDbEntity
  8
ASSI
100
AcDbSpline
 62
250
  6
CONTINUOUS
 70
0
 71
3
 72
11
 73
7
 74
0
 42
0.0000001
 43
0.0000001
 44
0.0000000001
 40
0.0
 40
0.0
 40
0.0
 40
0.0
 40
0.2366807374
 40
0.4983536832
 40
0.7609259077
 40
1.0
 40
1.0
 40
1.0
 40
1.0
 10
37.4112462757
 20
-37.933143954
 30
0.0
 10
37.4114144785
 20
-37.9099512941
 30
0.0
 10
37.4027755494
 20
-37.8610070338
 30
0.0
 10
37.3717200832
 20
-37.792547478
 30
0.0
 10
37.3259831398
 20
-37.7325921506
 30
0.0
 10
37.2868345418
 20
-37.7015000662
 30
0.0
 10
37.2662096538
 20
-37.6903880907
 30
0.0
  0
SPLINE
  5
4B3
100
AcDbEntity
  8
ASSI
100
AcDbSpline
 62
250
  6
CONTINUOUS
 70
0
 71
3
 72
11
 73
7
 74
0
 42
0.0000001
 43
0.0000001
 44
0.0000000001
 40
0.0
 40
0.0
 40
0.0
 40
0.0
 40
0.2366807374
 40
0.4983536832
 40
0.7609259077
 40
1.0
 40
1.0
 40
1.0
 40
1.0
 10
53.3211488524
 20
-47.4459104146
 30
0.0
 10
53.3213170552
 20
-47.4227177547
 30
0.0
 10
53.3126781261
 20
-47.3737734944
 30
0.0
 10
53.2816226599
 20
-47.3053139386
 30
0.0
 10
53.2358857165
 20
-47.2453586112
 30
0.0
 10
53.1967371185
 20
-47.2142665268
 30
0.0
 10
53.1761122305
 20
-47.2031545513
 30
0.0
  0
SPLINE
  5
4B4
100
AcDbEntity
  8
ASSI
100
AcDbSpline
 62
250
  6
CONTINUOUS
 70
0
 71
3
 72
9
 73
5
 74
0
 42
0.0000001
 43
0.0000001
 44
0.0000000001
 40
0.0
 40
0.0
 40
0.0
 40
0.0
 40
0.5479059081
 40
1.0
 40
1.0
 40
1.0
 40
1.0
 10
53.3211488524
 20
-48.0347792407
 30
0.0
 10
53.3216815752
 20
-48.0527236598
 30
0.0
 10
53.3182541801
 20
-48.0863432409
 30
0.0
 10
53.297542935
 20
-48.1146692797
 30
0.0
 10
53.2851926983
 20
-48.1228483477
 30
0.0
  0
SPLINE
  5
4B5
100
AcDbEntity
  8
ASSI
100
AcDbSpline
 62
250
  6
CONTINUOUS
 70
0
 71
3
 72
12
 73
8
 74
0
 42
0.0000001
 43
0.0000001
 44
0.0000000001
 40
0.0
 40
0.0
 40
0.0
 40
0.0
 40
0.1071211901
 40
0.2146268633
 40
0.4417580919
 40
0.7010761885
 40
1.0
 40
1.0
 40
1.0
 40
1.0
 10
55.1480729379
 20
-52.0851769062
 30
0.0
 10
55.1282387694
 20
-52.1034545189
 30
0.0
 10
55.0846380545
 20
-52.13615049
 30
0.0
 10
54.9830829476
 20
-52.1832923109
 30
0.0
 10
54.8308922759
 20
-52.2021441789
 30
0.0
 10
54.63491107
 20
-52.1618540304
 30
0.0
 10
54.5065986399
 20
-52.1017093853
 30
0.0
 10
54.4414210293
 20
-52.0640709373
 30
0.0
  0
SPLINE
  5
4B6
100
AcDbEntity
  8
ASSI
100
AcDbSpline
 62
250
  6
CONTINUOUS
 70
0
 71
3
 72
11
 73
7
 74
0
 42
0.0000001
 43
0.0000001
 44
0.0000000001
 40
0.0
 40
0.0
 40
0.0
 40
0.0
 40
0.2390740937
 40
0.5016463182
 40
0.7633192634
 40
1.0
 40
1.0
 40
1.0
 40
1.0
 10
-42.2833032297
 20
7.9139155479
 30
0.0
 10
-42.2626783414
 20
7.9028035726
 30
0.0
 10
-42.2235297431
 20
7.8717114883
 30
0.0
 10
-42.1777927995
 20
7.8117561608
 30
0.0
 10
-42.1467373338
 20
7.7432966047
 30
0.0
 10
-42.138098405
 20
7.6943523445
 30
0.0
 10
-42.1382666078
 20
7.6711596846
 30
0.0
  0
SPLINE
  5
4B7
100
AcDbEntity
  8
ASSI
100
AcDbSpline
 62
250
  6
CONTINUOUS
 70
0
 71
3
 72
10
 73
6
 74
0
 42
0.0000001
 43
0.0000001
 44
0.0000000001
 40
0.0
 40
0.0
 40
0.0
 40
0.0
 40
0.5470431534
 40
0.7810784988
 40
1.0
 40
1.0
 40
1.0
 40
1.0
 10
-42.2905773058
 20
8.1524681492
 30
0.0
 10
-42.2742067639
 20
8.1617553356
 30
0.0
 10
-42.2481131567
 20
8.1719532422
 30
0.0
 10
-42.2132936256
 20
8.1709022644
 30
0.0
 10
-42.1983297122
 20
8.1654359848
 30
0.0
 10
-42.1918065982
 20
8.1616700277
 30
0.0
  0
SPLINE
  5
4B8
100
AcDbEntity
  8
ASSI
100
AcDbSpline
 62
250
  6
CONTINUOUS
 70
0
 71
3
 72
10
 73
6
 74
0
 42
0.0000001
 43
0.0000001
 44
0.0000000001
 40
0.0
 40
0.0
 40
0.0
 40
0.0
 40
0.5470431479
 40
0.7810784974
 40
1.0
 40
1.0
 40
1.0
 40
1.0
 10
-43.8704739244
 20
9.0646806561
 30
0.0
 10
-43.8541033817
 20
9.0739678415
 30
0.0
 10
-43.8280097734
 20
9.084165747
 30
0.0
 10
-43.7931902418
 20
9.0831147688
 30
0.0
 10
-43.7782263274
 20
9.07764849
 30
0.0
 10
-43.7717032133
 20
9.0738825325
 30
0.0
  0
SPLINE
  5
4B9
100
AcDbEntity
  8
ASSI
100
AcDbSpline
 62
250
  6
CONTINUOUS
 70
0
 71
3
 72
9
 73
5
 74
0
 42
0.0000001
 43
0.0000001
 44
0.0000000001
 40
0.0
 40
0.0
 40
0.0
 40
0.0
 40
0.5520742363
 40
1.0
 40
1.0
 40
1.0
 40
1.0
 10
-44.2872054668
 20
9.0709435848
 30
0.0
 10
-44.3026816869
 20
9.0805203375
 30
0.0
 10
-44.3336089414
 20
9.0946316873
 30
0.0
 10
-44.3688612052
 20
9.0906525892
 30
0.0
 10
-44.3819167562
 20
9.0837535801
 30
0.0
  0
SPLINE
  5
4BA
100
AcDbEntity
  8
ASSI
100
AcDbSpline
 62
250
  6
CONTINUOUS
 70
0
 71
3
 72
9
 73
5
 74
0
 42
0.0000001
 43
0.0000001
 44
0.0000000001
 40
0.0
 40
0.0
 40
0.0
 40
0.0
 40
0.243962173
 40
1.0
 40
1.0
 40
1.0
 40
1.0
 10
74.8010686429
 20
-78.7949993478
 30
0.0
 10
74.5636876819
 20
-77.4728743519
 30
0.0
 10
73.6858733815
 20
-72.0366138428
 30
0.0
 10
73.1805185073
 20
-66.5419485041
 30
0.0
 10
72.9847039726
 20
-62.3837796521
 30
0.0
  0
SPLINE
  5
4BB
100
AcDbEntity
  8
ASSI
100
AcDbSpline
 62
250
  6
CONTINUOUS
 70
0
 71
3
 72
11
 73
7
 74
0
 42
0.0000001
 43
0.0000001
 44
0.0000000001
 40
0.0
 40
0.0
 40
0.0
 40
0.0
 40
0.2863201425
 40
0.5446983003
 40
0.7794413706
 40
1.0
 40
1.0
 40
1.0
 40
1.0
 10
37.4112462757
 20
-38.5220127801
 30
0.0
 10
37.4315339894
 20
-38.5089438299
 30
0.0
 10
37.468285896
 20
-38.4809401933
 30
0.0
 10
37.5118080658
 20
-38.4310005986
 30
0.0
 10
37.5391860445
 20
-38.3766132441
 30
0.0
 10
37.545563087
 20
-38.338010788
 30
0.0
 10
37.5455692353
 20
-38.3194208205
 30
0.0
  0
SPLINE
  5
4BC
100
AcDbEntity
  8
ASSI
100
AcDbSpline
 62
250
  6
CONTINUOUS
 70
0
 71
3
 72
11
 73
7
 74
0
 42
0.0000001
 43
0.0000001
 44
0.0000000001
 40
0.0
 40
0.0
 40
0.0
 40
0.0
 40
0.2863201425
 40
0.5446983003
 40
0.7794413706
 40
1.0
 40
1.0
 40
1.0
 40
1.0
 10
-26.2283640311
 20
-1.7772993806
 30
0.0
 10
-26.2080763174
 20
-1.7642304304
 30
0.0
 10
-26.1713244108
 20
-1.7362267938
 30
0.0
 10
-26.1278022409
 20
-1.6862871991
 30
0.0
 10
-26.1004242623
 20
-1.6318998446
 30
0.0
 10
-26.0940472198
 20
-1.5932973885
 30
0.0
 10
-26.0940410715
 20
-1.574707421
 30
0.0
  0
SPLINE
  5
4BD
100
AcDbEntity
  8
ASSI
100
AcDbSpline
 62
250
  6
CONTINUOUS
 70
0
 71
3
 72
11
 73
7
 74
0
 42
0.0000001
 43
0.0000001
 44
0.0000000001
 40
0.0
 40
0.0
 40
0.0
 40
0.0
 40
0.2881108413
 40
0.5466686553
 40
0.7804956777
 40
1.0
 40
1.0
 40
1.0
 40
1.0
 10
-26.2283537924
 20
-1.1884242784
 30
0.0
 10
-26.2081187945
 20
-1.1760223437
 30
0.0
 10
-26.1714566497
 20
-1.1493732191
 30
0.0
 10
-26.1278759753
 20
-1.1013524712
 30
0.0
 10
-26.1004199687
 20
-1.0486747882
 30
0.0
 10
-26.0940458794
 20
-1.0110933739
 30
0.0
 10
-26.0940410736
 20
-0.9930116797
 30
0.0
  0
SPLINE
  5
4BE
100
AcDbEntity
  8
ASSI
100
AcDbSpline
 62
250
  6
CONTINUOUS
 70
0
 71
3
 72
11
 73
7
 74
0
 42
0.0000001
 43
0.0000001
 44
0.0000000001
 40
0.0
 40
0.0
 40
0.0
 40
0.0
 40
0.2863201425
 40
0.5446983003
 40
0.7794413706
 40
1.0
 40
1.0
 40
1.0
 40
1.0
 10
53.3211488524
 20
-48.0347792407
 30
0.0
 10
53.3414365661
 20
-48.0217102905
 30
0.0
 10
53.3781884727
 20
-47.9937066539
 30
0.0
 10
53.4217106425
 20
-47.9437670591
 30
0.0
 10
53.4490886212
 20
-47.8893797046
 30
0.0
 10
53.4554656637
 20
-47.8507772486
 30
0.0
 10
53.455471812
 20
-47.832187281
 30
0.0
  0
SPLINE
  5
4BF
100
AcDbEntity
  8
ASSI
100
AcDbSpline
 62
250
  6
CONTINUOUS
 70
0
 71
3
 72
11
 73
7
 74
0
 42
0.0000001
 43
0.0000001
 44
0.0000000001
 40
0.0
 40
0.0
 40
0.0
 40
0.0
 40
0.2881108413
 40
0.5466686553
 40
0.7804956777
 40
1.0
 40
1.0
 40
1.0
 40
1.0
 10
-42.1382563691
 20
7.6711659608
 30
0.0
 10
-42.1180213712
 20
7.6835678955
 30
0.0
 10
-42.0813592264
 20
7.7102170201
 30
0.0
 10
-42.037778552
 20
7.758237768
 30
0.0
 10
-42.0103225454
 20
7.8109154509
 30
0.0
 10
-42.0039484561
 20
7.8484968652
 30
0.0
 10
-42.0039436503
 20
7.8665785594
 30
0.0
  0
SPLINE
  5
4C0
100
AcDbEntity
  8
ASSI
100
AcDbSpline
 62
250
  6
CONTINUOUS
 70
0
 71
3
 72
9
 73
5
 74
0
 42
0.0000001
 43
0.0000001
 44
0.0000000001
 40
0.0
 40
0.0
 40
0.0
 40
0.0
 40
0.4479257743
 40
1.0
 40
1.0
 40
1.0
 40
1.0
 10
35.1675961287
 20
-36.5205500576
 30
0.0
 10
35.1806516801
 20
-36.5136510493
 30
0.0
 10
35.2159039431
 20
-36.5096719552
 30
0.0
 10
35.2468311967
 20
-36.5237833025
 30
0.0
 10
35.2623074167
 20
-36.5333600538
 30
0.0
  0
SPLINE
  5
4C1
100
AcDbEntity
  8
ASSI
100
AcDbSpline
 62
250
  6
CONTINUOUS
 70
0
 71
3
 72
9
 73
5
 74
0
 42
0.0000001
 43
0.0000001
 44
0.0000000001
 40
0.0
 40
0.0
 40
0.0
 40
0.0
 40
0.2439630597
 40
1.0
 40
1.0
 40
1.0
 40
1.0
 10
75.2105778629
 20
-78.7597474271
 30
0.0
 10
74.9736023998
 20
-77.4399845151
 30
0.0
 10
74.097287013
 20
-72.0134540788
 30
0.0
 10
73.5927904301
 20
-66.5286142316
 30
0.0
 10
73.3973080831
 20
-62.377884918
 30
0.0
  0
SPLINE
  5
4C2
100
AcDbEntity
  8
ASSI
100
AcDbSpline
 62
250
  6
CONTINUOUS
 70
0
 71
3
 72
10
 73
6
 74
0
 42
0.0000001
 43
0.0000001
 44
0.0000000001
 40
0.0
 40
0.0
 40
0.0
 40
0.0
 40
0.2189215095
 40
0.4529568576
 40
1.0
 40
1.0
 40
1.0
 40
1.0
 10
37.3577062815
 20
-37.4426336087
 30
0.0
 10
37.3511831675
 20
-37.4388676515
 30
0.0
 10
37.3362192539
 20
-37.4334013725
 30
0.0
 10
37.3013997241
 20
-37.4323503953
 30
0.0
 10
37.2753061182
 20
-37.4425483027
 30
0.0
 10
37.2589355777
 20
-37.4518354894
 30
0.0
  0
SPLINE
  5
4C3
100
AcDbEntity
  8
ASSI
100
AcDbSpline
 62
250
  6
CONTINUOUS
 70
0
 71
3
 72
10
 73
6
 74
0
 42
0.0000001
 43
0.0000001
 44
0.0000000001
 40
0.0
 40
0.0
 40
0.0
 40
0.0
 40
0.2189215012
 40
0.4529568466
 40
1.0
 40
1.0
 40
1.0
 40
1.0
 10
35.7778096667
 20
-36.5304211041
 30
0.0
 10
35.7712865526
 20
-36.526655147
 30
0.0
 10
35.7563226393
 20
-36.5211888674
 30
0.0
 10
35.7215031082
 20
-36.5201378896
 30
0.0
 10
35.6954095009
 20
-36.5303357962
 30
0.0
 10
35.6790389591
 20
-36.5396229826
 30
0.0
  0
SPLINE
  5
4C4
100
AcDbEntity
  8
ASSI
100
AcDbSpline
 62
250
  6
CONTINUOUS
 70
0
 71
3
 72
9
 73
5
 74
0
 42
0.0000001
 43
0.0000001
 44
0.0000000001
 40
0.0
 40
0.0
 40
0.0
 40
0.0
 40
0.245544339
 40
1.0
 40
1.0
 40
1.0
 40
1.0
 10
73.3973080831
 20
-62.377884918
 30
0.0
 10
73.2548516232
 20
-59.3530419488
 30
0.0
 10
72.8241248547
 20
-47.0273598173
 30
0.0
 10
72.979989774
 20
-34.6825697046
 30
0.0
 10
73.3973080831
 20
-25.3875470167
 30
0.0
  0
SPLINE
  5
4C5
100
AcDbEntity
  8
ASSI
100
AcDbSpline
 62
250
  6
CONTINUOUS
 70
0
 71
3
 72
9
 73
5
 74
0
 42
0.0000001
 43
0.0000001
 44
0.0000000001
 40
0.0
 40
0.0
 40
0.0
 40
0.0
 40
0.2449458894
 40
1.0
 40
1.0
 40
1.0
 40
1.0
 10
73.3973080831
 20
-25.3875470167
 30
0.0
 10
73.4645512917
 20
-23.8898368246
 30
0.0
 10
73.8246999367
 20
-17.7794040514
 30
0.0
 10
74.5191859913
 20
-11.6896945706
 30
0.0
 10
75.2105778629
 20
-7.1203118303
 30
0.0
  0
SPLINE
  5
4C6
100
AcDbEntity
  8
ASSI
100
AcDbSpline
 62
250
  6
CONTINUOUS
 70
0
 71
3
 72
11
 73
7
 74
0
 42
0.0000001
 43
0.0000001
 44
0.0000000001
 40
0.0
 40
0.0
 40
0.0
 40
0.0
 40
0.2195029721
 40
0.4533293544
 40
0.7118869273
 40
1.0
 40
1.0
 40
1.0
 40
1.0
 10
37.5455692409
 20
-37.7377203705
 30
0.0
 10
37.5455649659
 20
-37.755803168
 30
0.0
 10
37.5391910917
 20
-37.7933871515
 30
0.0
 10
37.5117330728
 20
-37.8460682048
 30
0.0
 10
37.4681484776
 20
-37.8940914025
 30
0.0
 10
37.4314833585
 20
-37.9207420191
 30
0.0
 10
37.4112462757
 20
-37.933143954
 30
0.0
  0
SPLINE
  5
4C7
100
AcDbEntity
  8
ASSI
100
AcDbSpline
 62
250
  6
CONTINUOUS
 70
0
 71
3
 72
9
 73
5
 74
0
 42
0.0000001
 43
0.0000001
 44
0.0000000001
 40
0.0
 40
0.0
 40
0.0
 40
0.0
 40
0.2607244346
 40
1.0
 40
1.0
 40
1.0
 40
1.0
 10
74.4027376342
 20
-79.0369876236
 30
0.0
 10
74.4097673662
 20
-79.0410468543
 30
0.0
 10
74.4369645755
 20
-79.0562000393
 30
0.0
 10
74.4651298509
 20
-79.0696581965
 30
0.0
 10
74.4864617498
 20
-79.0783030469
 30
0.0
  0
SPLINE
  5
4C8
100
AcDbEntity
  8
ASSI
100
AcDbSpline
 62
250
  6
CONTINUOUS
 70
0
 71
3
 72
15
 73
11
 74
0
 42
0.0000001
 43
0.0000001
 44
0.0000000001
 40
0.0
 40
0.0
 40
0.0
 40
0.0
 40
0.148734695
 40
0.2766490497
 40
0.3876162824
 40
0.4899009201
 40
0.5945737502
 40
0.7113401202
 40
0.8458449022
 40
1.0
 40
1.0
 40
1.0
 40
1.0
 10
74.4864617498
 20
-79.0783030469
 30
0.0
 10
74.5123186429
 20
-79.088781672
 30
0.0
 10
74.5620039579
 20
-79.1048314504
 30
0.0
 10
74.6349894432
 20
-79.1125062878
 30
0.0
 10
74.6991076314
 20
-79.1008659263
 30
0.0
 10
74.7512216424
 20
-79.0688336216
 30
0.0
 10
74.7875716405
 20
-79.0185002581
 30
0.0
 10
74.8075893142
 20
-78.9539030061
 30
0.0
 10
74.8123654376
 20
-78.8775009796
 30
0.0
 10
74.806178019
 20
-78.8234605895
 30
0.0
 10
74.8010686429
 20
-78.7949993478
 30
0.0
  0
SPLINE
  5
4C9
100
AcDbEntity
  8
ASSI
100
AcDbSpline
 62
250
  6
CONTINUOUS
 70
0
 71
3
 72
9
 73
5
 74
0
 42
0.0000001
 43
0.0000001
 44
0.0000000001
 40
0.0
 40
0.0
 40
0.0
 40
0.0
 40
0.2457003807
 40
1.0
 40
1.0
 40
1.0
 40
1.0
 10
-56.4186690953
 20
13.3570593155
 30
0.0
 10
-56.5511878712
 20
16.2762495841
 30
0.0
 10
-56.9517587659
 20
28.1633893349
 30
0.0
 10
-56.8071992456
 20
40.0676940887
 30
0.0
 10
-56.4186690249
 20
49.0304138001
 30
0.0
  0
SPLINE
  5
4CA
100
AcDbEntity
  8
ASSI
100
AcDbSpline
 62
250
  6
CONTINUOUS
 70
0
 71
3
 72
11
 73
7
 74
0
 42
0.0000001
 43
0.0000001
 44
0.0000000001
 40
0.0
 40
0.0
 40
0.0
 40
0.0
 40
0.2791527715
 40
0.5334305843
 40
0.7697680346
 40
1.0
 40
1.0
 40
1.0
 40
1.0
 10
-72.3056830191
 20
78.9797089312
 30
0.0
 10
-72.3534272332
 20
79.0063846171
 30
0.0
 10
-72.4500097589
 20
79.0488178845
 30
0.0
 10
-72.600425465
 20
79.0745605357
 30
0.0
 10
-72.7428135518
 20
79.0568079765
 30
0.0
 10
-72.8266881407
 20
79.0158423632
 30
0.0
 10
-72.8635589223
 20
78.9898588408
 30
0.0
  0
SPLINE
  5
4CB
100
AcDbEntity
  8
ASSI
100
AcDbSpline
 62
250
  6
CONTINUOUS
 70
0
 71
3
 72
11
 73
7
 74
0
 42
0.0000001
 43
0.0000001
 44
0.0000000001
 40
0.0
 40
0.0
 40
0.0
 40
0.0
 40
0.2437248956
 40
0.5070498904
 40
0.7667008407
 40
1.0
 40
1.0
 40
1.0
 40
1.0
 10
75.2105778629
 20
-7.1203118303
 30
0.0
 10
75.2220781496
 20
-7.0007631031
 30
0.0
 10
75.2037291623
 20
-6.7475167887
 30
0.0
 10
75.0826627821
 20
-6.3860659048
 30
0.0
 10
74.8826426241
 20
-6.067539447
 30
0.0
 10
74.6989645768
 20
-5.9008411513
 30
0.0
 10
74.6002421406
 20
-5.8419310924
 30
0.0
  0
SPLINE
  5
4CC
100
AcDbEntity
  8
ASSI
100
AcDbSpline
 62
250
  6
CONTINUOUS
 70
0
 71
3
 72
11
 73
7
 74
0
 42
0.0000001
 43
0.0000001
 44
0.0000000001
 40
0.0
 40
0.0
 40
0.0
 40
0.0
 40
0.2459717166
 40
0.5070723512
 40
0.7644189032
 40
1.0
 40
1.0
 40
1.0
 40
1.0
 10
-72.5031875255
 20
78.6655367369
 30
0.0
 10
-72.4986678678
 20
78.6964133883
 30
0.0
 10
-72.4812771971
 20
78.75898257
 30
0.0
 10
-72.4373741746
 20
78.8460600548
 30
0.0
 10
-72.3788495912
 20
78.9224139153
 30
0.0
 10
-72.3308803683
 20
78.9636355401
 30
0.0
 10
-72.3056830193
 20
78.9797089313
 30
0.0
  0
SPLINE
  5
4CD
100
AcDbEntity
  8
ASSI
100
AcDbSpline
 62
250
  6
CONTINUOUS
 70
0
 71
3
 72
11
 73
7
 74
0
 42
0.0000001
 43
0.0000001
 44
0.0000000001
 40
0.0
 40
0.0
 40
0.0
 40
0.0
 40
0.3146560556
 40
0.5821355106
 40
0.8053036266
 40
1.0
 40
1.0
 40
1.0
 40
1.0
 10
-73.08390778
 20
78.3182391864
 30
0.0
 10
-73.0980430548
 20
78.3262248265
 30
0.0
 10
-73.123273273
 20
78.3428134285
 30
0.0
 10
-73.1532240209
 20
78.3720953761
 30
0.0
 10
-73.1712309309
 20
78.403270322
 30
0.0
 10
-73.1737815541
 20
78.4255422648
 30
0.0
 10
-73.1724350039
 20
78.4354971883
 30
0.0
  0
SPLINE
  5
4CE
100
AcDbEntity
  8
ASSI
100
AcDbSpline
 62
250
  6
CONTINUOUS
 70
0
 71
3
 72
11
 73
7
 74
0
 42
0.0000001
 43
0.0000001
 44
0.0000000001
 40
0.0
 40
0.0
 40
0.0
 40
0.0
 40
0.2959796839
 40
0.5572281439
 40
0.7878045642
 40
1.0
 40
1.0
 40
1.0
 40
1.0
 10
-74.7196759555
 20
59.9138482664
 30
0.0
 10
-74.7331566258
 20
59.9215887322
 30
0.0
 10
-74.7574954904
 20
59.938170822
 30
0.0
 10
-74.7864691547
 20
59.9682277683
 30
0.0
 10
-74.8044020411
 20
60.0011973853
 30
0.0
 10
-74.8080203737
 20
60.024787966
 30
0.0
 10
-74.8075681648
 20
60.035923311
 30
0.0
  0
SPLINE
  5
4CF
100
AcDbEntity
  8
ASSI
100
AcDbSpline
 62
250
  6
CONTINUOUS
 70
0
 71
3
 72
10
 73
6
 74
0
 42
0.0000001
 43
0.0000001
 44
0.0000000001
 40
0.0
 40
0.0
 40
0.0
 40
0.0
 40
0.5403953916
 40
0.776598005
 40
1.0
 40
1.0
 40
1.0
 40
1.0
 10
-74.7196759524
 20
22.8988336918
 30
0.0
 10
-74.7439450847
 20
22.9129165321
 30
0.0
 10
-74.7767037501
 20
22.939193681
 30
0.0
 10
-74.8020796679
 20
22.9851596325
 30
0.0
 10
-74.8070217833
 20
23.0089781353
 30
0.0
 10
-74.8075342506
 20
23.0205666036
 30
0.0
  0
SPLINE
  5
4D0
100
AcDbEntity
  8
ASSI
100
AcDbSpline
 62
250
  6
CONTINUOUS
 70
0
 71
3
 72
9
 73
5
 74
0
 42
0.0000001
 43
0.0000001
 44
0.0000000001
 40
0.0
 40
0.0
 40
0.0
 40
0.0
 40
0.5272733527
 40
1.0
 40
1.0
 40
1.0
 40
1.0
 10
-73.0839078018
 20
6.591932653
 30
0.0
 10
-73.1064280953
 20
6.6051306
 30
0.0
 10
-73.1459517835
 20
6.6372855318
 30
0.0
 10
-73.1674300836
 20
6.684446959
 30
0.0
 10
-73.1712077697
 20
6.7075423787
 30
0.0
  0
SPLINE
  5
4D1
100
AcDbEntity
  8
ASSI
100
AcDbSpline
 62
250
  6
CONTINUOUS
 70
0
 71
3
 72
9
 73
5
 74
0
 42
0.0000001
 43
0.0000001
 44
0.0000000001
 40
0.0
 40
0.0
 40
0.0
 40
0.0
 40
0.5348826977
 40
1.0
 40
1.0
 40
1.0
 40
1.0
 10
-72.5031875255
 20
5.7846524
 30
0.0
 10
-72.4996523913
 20
5.7645840231
 30
0.0
 10
-72.4877175164
 20
5.7273362944
 30
0.0
 10
-72.4599310895
 20
5.6986299138
 30
0.0
 10
-72.4445873335
 20
5.6897670415
 30
0.0
  0
SPLINE
  5
4D2
100
AcDbEntity
  8
ASSI
100
AcDbSpline
 62
250
  6
CONTINUOUS
 70
0
 71
3
 72
9
 73
5
 74
0
 42
0.0000001
 43
0.0000001
 44
0.0000000001
 40
0.0
 40
0.0
 40
0.0
 40
0.0
 40
0.5348781148
 40
1.0
 40
1.0
 40
1.0
 40
1.0
 10
74.4027376342
 20
-79.0369876236
 30
0.0
 10
74.4062713787
 20
-79.0570480527
 30
0.0
 10
74.4181995886
 20
-79.0942807111
 30
0.0
 10
74.4459644287
 20
-79.1229836483
 30
0.0
 10
74.4612983502
 20
-79.131850168
 30
0.0
  0
SPLINE
  5
4D3
100
AcDbEntity
  8
ASSI
100
AcDbSpline
 62
250
  6
CONTINUOUS
 70
0
 71
3
 72
11
 73
7
 74
0
 42
0.0000001
 43
0.0000001
 44
0.0000000001
 40
0.0
 40
0.0
 40
0.0
 40
0.0
 40
0.2304832009
 40
0.4863113269
 40
0.7496476391
 40
1.0
 40
1.0
 40
1.0
 40
1.0
 10
74.8010686909
 20
-78.7949993101
 30
0.0
 10
74.8297682196
 20
-78.8113211769
 30
0.0
 10
74.8973860132
 20
-78.8335777677
 30
0.0
 10
75.0057883187
 20
-78.8373418042
 30
0.0
 10
75.1146114249
 20
-78.8140845792
 30
0.0
 10
75.1814483551
 20
-78.7806658557
 30
0.0
 10
75.2105778629
 20
-78.7597474271
 30
0.0
  0
SPLINE
  5
4D4
100
AcDbEntity
  8
ASSI
100
AcDbSpline
 62
250
  6
CONTINUOUS
 70
0
 71
3
 72
11
 73
7
 74
0
 42
0.0000001
 43
0.0000001
 44
0.0000000001
 40
0.0
 40
0.0
 40
0.0
 40
0.0
 40
0.2341749793
 40
0.4937439205
 40
0.7567102334
 40
1.0
 40
1.0
 40
1.0
 40
1.0
 10
72.984706178
 20
-62.3838253843
 30
0.0
 10
73.0136716473
 20
-62.4004659391
 30
0.0
 10
73.0811513996
 20
-62.4245336146
 30
0.0
 10
73.1894512436
 20
-62.4348390327
 30
0.0
 10
73.2986766202
 20
-62.4210813507
 30
0.0
 10
73.3672265668
 20
-62.3951929582
 30
0.0
 10
73.3973080831
 20
-62.377884918
 30
0.0
  0
SPLINE
  5
4D5
100
AcDbEntity
  8
ASSI
100
AcDbSpline
 62
250
  6
CONTINUOUS
 70
0
 71
3
 72
11
 73
7
 74
0
 42
0.0000001
 43
0.0000001
 44
0.0000000001
 40
0.0
 40
0.0
 40
0.0
 40
0.0
 40
0.2373292082
 40
0.4998794602
 40
0.7624946699
 40
1.0
 40
1.0
 40
1.0
 40
1.0
 10
72.9847061818
 20
-25.3688108055
 30
0.0
 10
73.0138303529
 20
-25.3857198859
 30
0.0
 10
73.0810093438
 20
-25.4113651587
 30
0.0
 10
73.1887412583
 20
-25.4270993173
 30
0.0
 10
73.2974807654
 20
-25.4211895992
 30
0.0
 10
73.3667414037
 20
-25.4017419582
 30
0.0
 10
73.3973080831
 20
-25.3875470167
 30
0.0
  0
SPLINE
  5
4D6
100
AcDbEntity
  8
ASSI
100
AcDbSpline
 62
250
  6
CONTINUOUS
 70
0
 71
3
 72
11
 73
7
 74
0
 42
0.0000001
 43
0.0000001
 44
0.0000000001
 40
0.0
 40
0.0
 40
0.0
 40
0.0
 40
0.2414336896
 40
0.5077197665
 40
0.7698849836
 40
1.0
 40
1.0
 40
1.0
 40
1.0
 10
74.8010686691
 20
-7.0686928018
 30
0.0
 10
74.8303338872
 20
-7.0859551992
 30
0.0
 10
74.8969166859
 20
-7.1137481217
 30
0.0
 10
75.0033247881
 20
-7.1366144102
 30
0.0
 10
75.1104618205
 20
-7.1409609315
 30
0.0
 10
75.1797461951
 20
-7.1302259021
 30
0.0
 10
75.2105749402
 20
-7.1203099559
 30
0.0
  0
SPLINE
  5
4D7
100
AcDbEntity
  8
ASSI
100
AcDbSpline
 62
250
  6
CONTINUOUS
 70
0
 71
3
 72
11
 73
7
 74
0
 42
0.0000001
 43
0.0000001
 44
0.0000000001
 40
0.0
 40
0.0
 40
0.0
 40
0.0
 40
0.2459717159
 40
0.5070723674
 40
0.7644189286
 40
1.0
 40
1.0
 40
1.0
 40
1.0
 10
74.4027376342
 20
-6.1561032867
 30
0.0
 10
74.4072573072
 20
-6.1252266396
 30
0.0
 10
74.4246480009
 20
-6.0626574679
 30
0.0
 10
74.4685510333
 20
-5.9755799932
 30
0.0
 10
74.5270756029
 20
-5.8992261318
 30
0.0
 10
74.5750448042
 20
-5.8580044937
 30
0.0
 10
74.6002421406
 20
-5.8419310924
 30
0.0
  0
SPLINE
  5
4D8
100
AcDbEntity
  8
ASSI
100
AcDbSpline
 62
250
  6
CONTINUOUS
 70
0
 71
3
 72
9
 73
5
 74
0
 42
0.0000001
 43
0.0000001
 44
0.0000000001
 40
0.0
 40
0.0
 40
0.0
 40
0.0
 40
0.4479257743
 40
1.0
 40
1.0
 40
1.0
 40
1.0
 10
51.0774987054
 20
-46.0333165182
 30
0.0
 10
51.0905542568
 20
-46.0264175099
 30
0.0
 10
51.1258065198
 20
-46.0224384158
 30
0.0
 10
51.1567337734
 20
-46.0365497631
 30
0.0
 10
51.1722099934
 20
-46.0461265144
 30
0.0
  0
SPLINE
  5
4D9
100
AcDbEntity
  8
ASSI
100
AcDbSpline
 62
250
  6
CONTINUOUS
 70
0
 71
3
 72
11
 73
7
 74
0
 42
0.0000001
 43
0.0000001
 44
0.0000000001
 40
0.0
 40
0.0
 40
0.0
 40
0.0
 40
0.2247951907
 40
0.4861560349
 40
0.7556586447
 40
1.0
 40
1.0
 40
1.0
 40
1.0
 10
-73.083907828
 20
6.5919326325
 30
0.0
 10
-73.071597221
 20
6.5165657459
 30
0.0
 10
-73.0172629073
 20
6.3582594898
 30
0.0
 10
-72.8860653099
 20
6.1362093292
 30
0.0
 10
-72.7134088164
 20
5.9356815194
 30
0.0
 10
-72.5750705428
 20
5.8261588867
 30
0.0
 10
-72.5031875255
 20
5.7846524
 30
0.0
  0
SPLINE
  5
4DA
100
AcDbEntity
  8
ASSI
100
AcDbSpline
 62
250
  6
CONTINUOUS
 70
0
 71
3
 72
10
 73
6
 74
0
 42
0.0000001
 43
0.0000001
 44
0.0000000001
 40
0.0
 40
0.0
 40
0.0
 40
0.0
 40
0.5364103628
 40
0.7754406894
 40
1.0
 40
1.0
 40
1.0
 40
1.0
 10
-56.4186688631
 20
49.0304138749
 30
0.0
 10
-56.4158665555
 20
49.0981444472
 30
0.0
 10
-56.3983028917
 20
49.1973714765
 30
0.0
 10
-56.3386253529
 20
49.3097334494
 30
0.0
 10
-56.2992619203
 20
49.354120837
 30
0.0
 10
-56.2777823579
 20
49.372667264
 30
0.0
  0
SPLINE
  5
4DB
100
AcDbEntity
  8
ASSI
100
AcDbSpline
 62
250
  6
CONTINUOUS
 70
0
 71
3
 72
10
 73
6
 74
0
 42
0.0000001
 43
0.0000001
 44
0.0000000001
 40
0.0
 40
0.0
 40
0.0
 40
0.0
 40
0.2189215095
 40
0.4529568576
 40
1.0
 40
1.0
 40
1.0
 40
1.0
 10
53.2676088582
 20
-46.9554000693
 30
0.0
 10
53.2610857442
 20
-46.9516341121
 30
0.0
 10
53.2461218306
 20
-46.9461678331
 30
0.0
 10
53.2113023008
 20
-46.9451168559
 30
0.0
 10
53.1852086949
 20
-46.9553147633
 30
0.0
 10
53.1688381544
 20
-46.96460195
 30
0.0
  0
SPLINE
  5
4DC
100
AcDbEntity
  8
ASSI
100
AcDbSpline
 62
250
  6
CONTINUOUS
 70
0
 71
3
 72
10
 73
6
 74
0
 42
0.0000001
 43
0.0000001
 44
0.0000000001
 40
0.0
 40
0.0
 40
0.0
 40
0.0
 40
0.2189215012
 40
0.4529568466
 40
1.0
 40
1.0
 40
1.0
 40
1.0
 10
51.6877122434
 20
-46.0431875647
 30
0.0
 10
51.6811891293
 20
-46.0394216076
 30
0.0
 10
51.666225216
 20
-46.033955328
 30
0.0
 10
51.6314056849
 20
-46.0329043502
 30
0.0
 10
51.6053120776
 20
-46.0431022568
 30
0.0
 10
51.5889415358
 20
-46.0523894432
 30
0.0
  0
SPLINE
  5
4DD
100
AcDbEntity
  8
ASSI
100
AcDbSpline
 62
250
  6
CONTINUOUS
 70
0
 71
3
 72
9
 73
5
 74
0
 42
0.0000001
 43
0.0000001
 44
0.0000000001
 40
0.0
 40
0.0
 40
0.0
 40
0.0
 40
0.5093318892
 40
1.0
 40
1.0
 40
1.0
 40
1.0
 10
-74.7196778621
 20
22.8988793632
 30
0.0
 10
-74.6023124053
 20
20.1389188139
 30
0.0
 10
-74.2257597372
 20
14.7251092286
 30
0.0
 10
-73.5304287783
 20
9.3422339872
 30
0.0
 10
-73.1040133745
 20
6.7153904969
 30
0.0
  0
LINE
  5
4DE
100
AcDbEntity
  8
ASSI
100
AcDbLine
 62
250
  6
CONTINUOUS
 10
-73.1040133745
 20
6.7153904969
 11
-73.083907828
 21
6.5919326325
  0
SPLINE
  5
4DF
100
AcDbEntity
  8
ASSI
100
AcDbSpline
 62
250
  6
CONTINUOUS
 70
0
 71
3
 72
11
 73
7
 74
0
 42
0.0000001
 43
0.0000001
 44
0.0000000001
 40
0.0
 40
0.0
 40
0.0
 40
0.0
 40
0.2195029721
 40
0.4533293544
 40
0.7118869273
 40
1.0
 40
1.0
 40
1.0
 40
1.0
 10
53.4554718176
 20
-47.2504868311
 30
0.0
 10
53.4554675426
 20
-47.2685696286
 30
0.0
 10
53.4490936684
 20
-47.306153612
 30
0.0
 10
53.4216356495
 20
-47.3588346654
 30
0.0
 10
53.3780510543
 20
-47.4068578631
 30
0.0
 10
53.3413859352
 20
-47.4335084797
 30
0.0
 10
53.3211488524
 20
-47.4459104146
 30
0.0
  0
SPLINE
  5
4E0
100
AcDbEntity
  8
ASSI
100
AcDbSpline
 62
250
  6
CONTINUOUS
 70
0
 71
3
 72
10
 73
6
 74
0
 42
0.0000001
 43
0.0000001
 44
0.0000000001
 40
0.0
 40
0.0
 40
0.0
 40
0.0
 40
0.2296400571
 40
0.4782597179
 40
1.0
 40
1.0
 40
1.0
 40
1.0
 10
-55.8051389345
 20
12.4066946459
 30
0.0
 10
-55.8516459711
 20
12.4317672394
 30
0.0
 10
-55.9436103573
 20
12.4933583099
 30
0.0
 10
-56.1137839254
 20
12.6488950438
 30
0.0
 10
-56.2199167065
 20
12.7942196982
 30
0.0
 10
-56.2777823579
 20
12.8993926111
 30
0.0
  0
SPLINE
  5
4E1
100
AcDbEntity
  8
ASSI
100
AcDbSpline
 62
250
  6
CONTINUOUS
 70
0
 71
3
 72
9
 73
5
 74
0
 42
0.0000001
 43
0.0000001
 44
0.0000000001
 40
0.0
 40
0.0
 40
0.0
 40
0.0
 40
0.5272833202
 40
1.0
 40
1.0
 40
1.0
 40
1.0
 10
-56.2777823579
 20
12.8993926111
 30
0.0
 10
-56.3186112909
 20
12.9735981057
 30
0.0
 10
-56.3834230651
 20
13.1217127943
 30
0.0
 10
-56.4153887123
 20
13.2811989236
 30
0.0
 10
-56.4186689632
 20
13.3570593917
 30
0.0
  0
SPLINE
  5
4E2
100
AcDbEntity
  8
ASSI
100
AcDbSpline
 62
250
  6
CONTINUOUS
 70
0
 71
3
 72
9
 73
5
 74
0
 42
0.0000001
 43
0.0000001
 44
0.0000000001
 40
0.0
 40
0.0
 40
0.0
 40
0.0
 40
0.2720688583
 40
1.0
 40
1.0
 40
1.0
 40
1.0
 10
55.3155315757
 20
-51.5631231272
 30
0.0
 10
55.3030920856
 20
-51.5559060167
 30
0.0
 10
55.2587365778
 20
-51.5272888227
 30
0.0
 10
55.2197663425
 20
-51.4889289759
 30
0.0
 10
55.1996061403
 20
-51.4561548291
 30
0.0
  0
SPLINE
  5
4E3
100
AcDbEntity
  8
ASSI
100
AcDbSpline
 62
250
  6
CONTINUOUS
 70
0
 71
3
 72
9
 73
5
 74
0
 42
0.0000001
 43
0.0000001
 44
0.0000000001
 40
0.0
 40
0.0
 40
0.0
 40
0.0
 40
0.5106653446
 40
1.0
 40
1.0
 40
1.0
 40
1.0
 10
55.1996061403
 20
-51.4561548291
 30
0.0
 10
55.1905230224
 20
-51.4413885367
 30
0.0
 10
55.1758733988
 20
-51.4103421134
 30
0.0
 10
55.16976935
 20
-51.3764703722
 30
0.0
 10
55.169087891
 20
-51.3598722236
 30
0.0
  0
SPLINE
  5
4E4
100
AcDbEntity
  8
ASSI
100
AcDbSpline
 62
250
  6
CONTINUOUS
 70
0
 71
3
 72
11
 73
7
 74
0
 42
0.0000001
 43
0.0000001
 44
0.0000000001
 40
0.0
 40
0.0
 40
0.0
 40
0.0
 40
0.2688137508
 40
0.5262802714
 40
0.7691183915
 40
1.0
 40
1.0
 40
1.0
 40
1.0
 10
55.148075283
 20
-52.0851754155
 30
0.0
 10
55.1169794634
 20
-52.0415644404
 30
0.0
 10
55.0673050524
 20
-51.9474007145
 30
0.0
 10
55.0369117854
 20
-51.7948489022
 30
0.0
 10
55.0553157232
 20
-51.6475273191
 30
0.0
 10
55.1012345278
 20
-51.5619399216
 30
0.0
 10
55.1306057333
 20
-51.5265326375
 30
0.0
  0
SPLINE
  5
4E5
100
AcDbEntity
  8
ASSI
100
AcDbSpline
 62
250
  6
CONTINUOUS
 70
0
 71
3
 72
11
 73
7
 74
0
 42
0.0000001
 43
0.0000001
 44
0.0000000001
 40
0.0
 40
0.0
 40
0.0
 40
0.0
 40
0.2323706358
 40
0.4933105248
 40
0.7578922962
 40
1.0
 40
1.0
 40
1.0
 40
1.0
 10
54.4414210293
 20
-52.0640709373
 30
0.0
 10
54.4387254325
 20
-52.0073778867
 30
0.0
 10
54.4557377145
 20
-51.8859131708
 30
0.0
 10
54.5258756751
 20
-51.7131082181
 30
0.0
 10
54.6328828994
 20
-51.5574562631
 30
0.0
 10
54.7261116912
 20
-51.4732527743
 30
0.0
 10
54.7759672101
 20
-51.4414498985
 30
0.0
  0
SPLINE
  5
4E6
100
AcDbEntity
  8
ASSI
100
AcDbSpline
 62
250
  6
CONTINUOUS
 70
0
 71
3
 72
9
 73
5
 74
0
 42
0.0000001
 43
0.0000001
 44
0.0000000001
 40
0.0
 40
0.0
 40
0.0
 40
0.0
 40
0.2836215195
 40
1.0
 40
1.0
 40
1.0
 40
1.0
 10
53.1688381544
 20
-46.96460195
 30
0.0
 10
53.1786355044
 20
-46.9702571635
 30
0.0
 10
53.2118317017
 20
-46.9920249843
 30
0.0
 10
53.2402226116
 20
-47.0239419309
 30
0.0
 10
53.2501523315
 20
-47.0507340911
 30
0.0
  0
SPLINE
  5
4E7
100
AcDbEntity
  8
ASSI
100
AcDbSpline
 62
250
  6
CONTINUOUS
 70
0
 71
3
 72
11
 73
7
 74
0
 42
0.0000001
 43
0.0000001
 44
0.0000000001
 40
0.0
 40
0.0
 40
0.0
 40
0.0
 40
0.2255817222
 40
0.4539903499
 40
0.7080382663
 40
1.0
 40
1.0
 40
1.0
 40
1.0
 10
53.2501523315
 20
-47.0507340911
 30
0.0
 10
53.2549564994
 20
-47.0636965953
 30
0.0
 10
53.2596735725
 20
-47.0921021844
 30
0.0
 10
53.2475723283
 20
-47.13502978
 30
0.0
 10
53.2184319987
 20
-47.1735239019
 30
0.0
 10
53.1913964059
 20
-47.1938529925
 30
0.0
 10
53.1761122305
 20
-47.2031545513
 30
0.0
  0
SPLINE
  5
4E8
100
AcDbEntity
  8
ASSI
100
AcDbSpline
 62
250
  6
CONTINUOUS
 70
0
 71
3
 72
11
 73
7
 74
0
 42
0.0000001
 43
0.0000001
 44
0.0000000001
 40
0.0
 40
0.0
 40
0.0
 40
0.0
 40
0.238851737
 40
0.5016395235
 40
0.7635397086
 40
1.0
 40
1.0
 40
1.0
 40
1.0
 10
51.1722099934
 20
-46.0461265144
 30
0.0
 10
51.2025447625
 20
-46.0300848128
 30
0.0
 10
51.2719607507
 20
-46.0070577825
 30
0.0
 10
51.381973452
 20
-45.9971002709
 30
0.0
 10
51.4912999606
 20
-46.0102724742
 30
0.0
 10
51.5595238493
 20
-46.0353990749
 30
0.0
 10
51.5889415358
 20
-46.0523894432
 30
0.0
  0
SPLINE
  5
4E9
100
AcDbEntity
  8
ASSI
100
AcDbSpline
 62
250
  6
CONTINUOUS
 70
0
 71
3
 72
11
 73
7
 74
0
 42
0.0000001
 43
0.0000001
 44
0.0000000001
 40
0.0
 40
0.0
 40
0.0
 40
0.0
 40
0.2323706361
 40
0.4933105252
 40
0.7578922965
 40
1.0
 40
1.0
 40
1.0
 40
1.0
 10
-56.1396789193
 20
11.7840702664
 30
0.0
 10
-56.1423745162
 20
11.8407633171
 30
0.0
 10
-56.125362234
 20
11.962228033
 30
0.0
 10
-56.0552242733
 20
12.1350329857
 30
0.0
 10
-55.9482170491
 20
12.2906849406
 30
0.0
 10
-55.8549882574
 20
12.3748884293
 30
0.0
 10
-55.8051327385
 20
12.4066913052
 30
0.0
  0
SPLINE
  5
4EA
100
AcDbEntity
  8
ASSI
100
AcDbSpline
 62
250
  6
CONTINUOUS
 70
0
 71
3
 72
11
 73
7
 74
0
 42
0.0000001
 43
0.0000001
 44
0.0000000001
 40
0.0
 40
0.0
 40
0.0
 40
0.0
 40
0.2919652424
 40
0.545994717
 40
0.7743891263
 40
1.0
 40
1.0
 40
1.0
 40
1.0
 10
-42.2833032297
 20
7.9139155479
 30
0.0
 10
-42.2680112442
 20
7.9232229719
 30
0.0
 10
-42.2409617233
 20
7.9435622818
 30
0.0
 10
-42.2118155731
 20
7.9820841774
 30
0.0
 10
-42.1997338256
 20
8.0250436445
 30
0.0
 10
-42.2044787666
 20
8.0534618971
 30
0.0
 10
-42.2092977153
 20
8.0664286562
 30
0.0
  0
SPLINE
  5
4EB
100
AcDbEntity
  8
ASSI
100
AcDbSpline
 62
250
  6
CONTINUOUS
 70
0
 71
3
 72
9
 73
5
 74
0
 42
0.0000001
 43
0.0000001
 44
0.0000000001
 40
0.0
 40
0.0
 40
0.0
 40
0.0
 40
0.2222711876
 40
1.0
 40
1.0
 40
1.0
 40
1.0
 10
-42.2092977153
 20
8.0664286562
 30
0.0
 10
-42.2123892216
 20
8.0747472376
 30
0.0
 10
-42.2308163099
 20
8.1105434891
 30
0.0
 10
-42.2636841539
 20
8.1369447646
 30
0.0
 10
-42.2905773058
 20
8.1524681492
 30
0.0
  0
SPLINE
  5
4EC
100
AcDbEntity
  8
ASSI
100
AcDbSpline
 62
250
  6
CONTINUOUS
 70
0
 71
3
 72
11
 73
7
 74
0
 42
0.0000001
 43
0.0000001
 44
0.0000000001
 40
0.0
 40
0.0
 40
0.0
 40
0.0
 40
0.2364598223
 40
0.4983594007
 40
0.7611473645
 40
1.0
 40
1.0
 40
1.0
 40
1.0
 10
-43.8704739244
 20
9.0646806561
 30
0.0
 10
-43.899891629
 20
9.0816708705
 30
0.0
 10
-43.9681155382
 20
9.1067970792
 30
0.0
 10
-44.077441582
 20
9.1199695143
 30
0.0
 10
-44.1874551838
 20
9.1100142955
 30
0.0
 10
-44.2568697833
 20
9.0869838468
 30
0.0
 10
-44.2872054668
 20
9.0709435848
 30
0.0
  0
SPLINE
  5
4ED
100
AcDbEntity
  8
ASSI
100
AcDbSpline
 62
250
  6
CONTINUOUS
 70
0
 71
3
 72
9
 73
5
 74
0
 42
0.0000001
 43
0.0000001
 44
0.0000000001
 40
0.0
 40
0.0
 40
0.0
 40
0.0
 40
0.2836215195
 40
1.0
 40
1.0
 40
1.0
 40
1.0
 10
37.2589355777
 20
-37.4518354894
 30
0.0
 10
37.2687329277
 20
-37.457490703
 30
0.0
 10
37.301929125
 20
-37.4792585237
 30
0.0
 10
37.3303200349
 20
-37.5111754703
 30
0.0
 10
37.3402497548
 20
-37.5379676305
 30
0.0
  0
SPLINE
  5
4EE
100
AcDbEntity
  8
ASSI
100
AcDbSpline
 62
250
  6
CONTINUOUS
 70
0
 71
3
 72
11
 73
7
 74
0
 42
0.0000001
 43
0.0000001
 44
0.0000000001
 40
0.0
 40
0.0
 40
0.0
 40
0.0
 40
0.2255817222
 40
0.4539903499
 40
0.7080382663
 40
1.0
 40
1.0
 40
1.0
 40
1.0
 10
37.3402497548
 20
-37.5379676305
 30
0.0
 10
37.3450539227
 20
-37.5509301347
 30
0.0
 10
37.3497709958
 20
-37.5793357239
 30
0.0
 10
37.3376697516
 20
-37.6222633194
 30
0.0
 10
37.308529422
 20
-37.6607574413
 30
0.0
 10
37.2814938292
 20
-37.6810865319
 30
0.0
 10
37.2662096538
 20
-37.6903880907
 30
0.0
  0
SPLINE
  5
4EF
100
AcDbEntity
  8
ASSI
100
AcDbSpline
 62
250
  6
CONTINUOUS
 70
0
 71
3
 72
11
 73
7
 74
0
 42
0.0000001
 43
0.0000001
 44
0.0000000001
 40
0.0
 40
0.0
 40
0.0
 40
0.0
 40
0.238851737
 40
0.5016395235
 40
0.7635397086
 40
1.0
 40
1.0
 40
1.0
 40
1.0
 10
35.2623074167
 20
-36.5333600538
 30
0.0
 10
35.2926421858
 20
-36.5173183522
 30
0.0
 10
35.362058174
 20
-36.4942913219
 30
0.0
 10
35.4720708754
 20
-36.4843338103
 30
0.0
 10
35.5813973839
 20
-36.4975060136
 30
0.0
 10
35.6496212726
 20
-36.5226326143
 30
0.0
 10
35.6790389591
 20
-36.5396229826
 30
0.0
  0
SPLINE
  5
4F0
100
AcDbEntity
  8
ASSI
100
AcDbSpline
 62
250
  6
CONTINUOUS
 70
0
 71
3
 72
11
 73
7
 74
0
 42
0.0000001
 43
0.0000001
 44
0.0000000001
 40
0.0
 40
0.0
 40
0.0
 40
0.0
 40
0.2919652424
 40
0.545994717
 40
0.7743891263
 40
1.0
 40
1.0
 40
1.0
 40
1.0
 10
-26.373400653
 20
-0.9456746912
 30
0.0
 10
-26.3581086675
 20
-0.9363672673
 30
0.0
 10
-26.3310591466
 20
-0.9160279573
 30
0.0
 10
-26.3019129964
 20
-0.8775060617
 30
0.0
 10
-26.2898312489
 20
-0.8345465946
 30
0.0
 10
-26.2945761899
 20
-0.8061283421
 30
0.0
 10
-26.2993951386
 20
-0.7931615829
 30
0.0
  0
SPLINE
  5
4F1
100
AcDbEntity
  8
ASSI
100
AcDbSpline
 62
250
  6
CONTINUOUS
 70
0
 71
3
 72
9
 73
5
 74
0
 42
0.0000001
 43
0.0000001
 44
0.0000000001
 40
0.0
 40
0.0
 40
0.0
 40
0.0
 40
0.2222711876
 40
1.0
 40
1.0
 40
1.0
 40
1.0
 10
-26.2993951386
 20
-0.7931615829
 30
0.0
 10
-26.3024866449
 20
-0.7848430016
 30
0.0
 10
-26.3209137332
 20
-0.74904675
 30
0.0
 10
-26.3537815772
 20
-0.7226454746
 30
0.0
 10
-26.3806747291
 20
-0.7071220899
 30
0.0
  0
SPLINE
  5
4F2
100
AcDbEntity
  8
ASSI
100
AcDbSpline
 62
250
  6
CONTINUOUS
 70
0
 71
3
 72
11
 73
7
 74
0
 42
0.0000001
 43
0.0000001
 44
0.0000000001
 40
0.0
 40
0.0
 40
0.0
 40
0.0
 40
0.1980009419
 40
0.4554617073
 40
0.736075819
 40
1.0
 40
1.0
 40
1.0
 40
1.0
 10
-56.8830411419
 20
12.6001862118
 30
0.0
 10
-56.8404701525
 20
12.6136172948
 30
0.0
 10
-56.7449459817
 20
12.6518293946
 30
0.0
 10
-56.5945557595
 20
12.722007201
 30
0.0
 10
-56.4343838757
 20
12.8060511532
 30
0.0
 10
-56.3282238124
 20
12.8678328759
 30
0.0
 10
-56.2777813345
 20
12.8993929145
 30
0.0
  0
SPLINE
  5
4F3
100
AcDbEntity
  8
ASSI
100
AcDbSpline
 62
250
  6
CONTINUOUS
 70
0
 71
3
 72
11
 73
7
 74
0
 42
0.0000001
 43
0.0000001
 44
0.0000000001
 40
0.0
 40
0.0
 40
0.0
 40
0.0
 40
0.2342175754
 40
0.4938504766
 40
0.756822545
 40
1.0
 40
1.0
 40
1.0
 40
1.0
 10
-57.1063702852
 20
13.3478730017
 30
0.0
 10
-57.0580915837
 20
13.3201324195
 30
0.0
 10
-56.9456325388
 20
13.2799729931
 30
0.0
 10
-56.7651401323
 20
13.2626437875
 30
0.0
 10
-56.5830988411
 20
13.2853445059
 30
0.0
 10
-56.4688204776
 20
13.3283110028
 30
0.0
 10
-56.4186694016
 20
13.3570683692
 30
0.0
  0
SPLINE
  5
4F4
100
AcDbEntity
  8
ASSI
100
AcDbSpline
 62
250
  6
CONTINUOUS
 70
0
 71
3
 72
11
 73
7
 74
0
 42
0.0000001
 43
0.0000001
 44
0.0000000001
 40
0.0
 40
0.0
 40
0.0
 40
0.0
 40
0.2364598223
 40
0.4983594007
 40
0.7611473645
 40
1.0
 40
1.0
 40
1.0
 40
1.0
 10
-27.9605713477
 20
0.2050904169
 30
0.0
 10
-27.9899890523
 20
0.2220806313
 30
0.0
 10
-28.0582129615
 20
0.2472068401
 30
0.0
 10
-28.1675390053
 20
0.2603792751
 30
0.0
 10
-28.2775526071
 20
0.2504240564
 30
0.0
 10
-28.3469672066
 20
0.2273936077
 30
0.0
 10
-28.3773028901
 20
0.2113533457
 30
0.0
  0
SPLINE
  5
4F5
100
AcDbEntity
  8
ASSI
100
AcDbSpline
 62
250
  6
CONTINUOUS
 70
0
 71
3
 72
11
 73
7
 74
0
 42
0.0000001
 43
0.0000001
 44
0.0000000001
 40
0.0
 40
0.0
 40
0.0
 40
0.0
 40
0.2372606417
 40
0.4997701095
 40
0.7624035052
 40
1.0
 40
1.0
 40
1.0
 40
1.0
 10
-57.1063693874
 20
49.060888504
 30
0.0
 10
-57.0578356684
 20
49.032716016
 30
0.0
 10
-56.9458604721
 20
48.9900196671
 30
0.0
 10
-56.7662813863
 20
48.9639601026
 30
0.0
 10
-56.5850215163
 20
48.9740406694
 30
0.0
 10
-56.4695998641
 20
49.0066500717
 30
0.0
 10
-56.4186686494
 20
49.0304017944
 30
0.0
  0
SPLINE
  5
4F6
100
AcDbEntity
  8
ASSI
100
AcDbSpline
 62
250
  6
CONTINUOUS
 70
0
 71
3
 72
11
 73
7
 74
0
 42
0.0000001
 43
0.0000001
 44
0.0000000001
 40
0.0
 40
0.0
 40
0.0
 40
0.0
 40
0.269959181
 40
0.5326509904
 40
0.7767466084
 40
1.0
 40
1.0
 40
1.0
 40
1.0
 10
-56.8830403862
 20
49.6152009966
 30
0.0
 10
-56.8489603472
 20
49.5618600664
 30
0.0
 10
-56.7652577694
 20
49.4662267263
 30
0.0
 10
-56.607809547
 20
49.3691485974
 30
0.0
 10
-56.4373767039
 20
49.3304219054
 30
0.0
 10
-56.3254404929
 20
49.3510131711
 30
0.0
 10
-56.2777808512
 20
49.3726647193
 30
0.0
  0
SPLINE
  5
4F7
100
AcDbEntity
  8
ASSI
100
AcDbSpline
 62
250
  6
CONTINUOUS
 70
0
 71
3
 72
11
 73
7
 74
0
 42
0.0000001
 43
0.0000001
 44
0.0000000001
 40
0.0
 40
0.0
 40
0.0
 40
0.0
 40
0.2927291439
 40
0.5531537307
 40
0.7851449481
 40
1.0
 40
1.0
 40
1.0
 40
1.0
 10
-56.1396789193
 20
49.6152908032
 30
0.0
 10
-56.1409274585
 20
49.5875900899
 30
0.0
 10
-56.1390763474
 20
49.5348691481
 30
0.0
 10
-56.120780222
 20
49.4620696921
 30
0.0
 10
-56.0871955668
 20
49.402940647
 30
0.0
 10
-56.0543376028
 20
49.3745837334
 30
0.0
 10
-56.0367191406
 20
49.3643954251
 30
0.0
  0
SPLINE
  5
4F8
100
AcDbEntity
  8
ASSI
100
AcDbSpline
 62
250
  6
CONTINUOUS
 70
0
 71
3
 72
11
 73
7
 74
0
 42
0.0000001
 43
0.0000001
 44
0.0000000001
 40
0.0
 40
0.0
 40
0.0
 40
0.0
 40
0.2927402536
 40
0.5531621829
 40
0.7851444849
 40
1.0
 40
1.0
 40
1.0
 40
1.0
 10
54.4414210293
 20
-14.2328504004
 30
0.0
 10
54.4401720495
 20
-14.2605608911
 30
0.0
 10
54.442025201
 20
-14.3132994833
 30
0.0
 10
54.4603361699
 20
-14.3861202477
 30
0.0
 10
54.4939476778
 20
-14.4452588923
 30
0.0
 10
54.5268297234
 20
-14.4736091946
 30
0.0
 10
54.5444593135
 20
-14.4837911478
 30
0.0
  0
SPLINE
  5
4F9
100
AcDbEntity
  8
ASSI
100
AcDbSpline
 62
250
  6
CONTINUOUS
 70
0
 71
3
 72
12
 73
8
 74
0
 42
0.0000001
 43
0.0000001
 44
0.0000000001
 40
0.0
 40
0.0
 40
0.0
 40
0.0
 40
0.4139965557
 40
0.7205258331
 40
0.9130117828
 40
0.9674660979
 40
1.0
 40
1.0
 40
1.0
 40
1.0
 10
55.1480745496
 20
-15.0701614919
 30
0.0
 10
55.1340576178
 20
-15.074862535
 30
0.0
 10
55.1095134827
 20
-15.0827173432
 30
0.0
 10
55.0780985601
 20
-15.0911280583
 30
0.0
 10
55.0583899348
 20
-15.0945141383
 30
0.0
 10
55.0484836995
 20
-15.0941731425
 30
0.0
 10
55.0454140718
 20
-15.0924702084
 30
0.0
 10
55.0449380974
 20
-15.0914103621
 30
0.0
  0
SPLINE
  5
4FA
100
AcDbEntity
  8
ASSI
100
AcDbSpline
 62
250
  6
CONTINUOUS
 70
0
 71
3
 72
11
 73
7
 74
0
 42
0.0000001
 43
0.0000001
 44
0.0000000001
 40
0.0
 40
0.0
 40
0.0
 40
0.0
 40
0.2958059915
 40
0.5569048053
 40
0.7876085338
 40
1.0
 40
1.0
 40
1.0
 40
1.0
 10
55.3155307266
 20
-15.8501086309
 30
0.0
 10
55.2930758737
 20
-15.8372126433
 30
0.0
 10
55.2525315671
 20
-15.8095875198
 30
0.0
 10
55.20427669
 20
-15.7594805269
 30
0.0
 10
55.1743710853
 20
-15.7045184275
 30
0.0
 10
55.1683247875
 20
-15.6651788377
 30
0.0
 10
55.1690460516
 20
-15.6466003153
 30
0.0
  0
SPLINE
  5
4FB
100
AcDbEntity
  8
0
100
AcDbSpline
 62
250
  6
CONTINUOUS
 70
0
 71
3
 72
11
 73
7
 74
0
 42
0.0000001
 43
0.0000001
 44
0.0000000001
 40
0.0
 40
0.0
 40
0.0
 40
0.0
 40
0.25
 40
0.5
 40
0.75
 40
1.0
 40
1.0
 40
1.0
 40
1.0
 10
-56.3756394298
 20
53.9205463378
 30
0.0
 10
-56.3698772517
 20
54.0031258379
 30
0.0
 10
-56.3583340493
 20
54.1677583977
 30
0.0
 10
-56.3411323225
 20
54.4178658788
 30
0.0
 10
-56.3235348269
 20
54.6569181152
 30
0.0
 10
-56.3118785477
 20
54.8183920336
 30
0.0
 10
-56.306040985
 20
54.8988657728
 30
0.0
  0
SPLINE
  5
4FC
100
AcDbEntity
  8
0
100
AcDbSpline
 62
250
  6
CONTINUOUS
 70
0
 71
3
 72
23
 73
19
 74
0
 42
0.0000001
 43
0.0000001
 44
0.0000000001
 40
0.0
 40
0.0
 40
0.0
 40
0.0
 40
0.125
 40
0.25
 40
0.3125
 40
0.375
 40
0.4375
 40
0.46875
 40
0.484375
 40
0.5
 40
0.515625
 40
0.53125
 40
0.5625
 40
0.625
 40
0.6875
 40
0.75
 40
0.875
 40
1.0
 40
1.0
 40
1.0
 40
1.0
 10
-55.6350601322
 20
52.3494225496
 30
0.0
 10
-55.6324461723
 20
52.3905827489
 30
0.0
 10
-55.6272180872
 20
52.4729052065
 30
0.0
 10
-55.6206838069
 20
52.5757979831
 30
0.0
 10
-55.615454648
 20
52.6581338246
 30
0.0
 10
-55.6115374872
 20
52.7198270225
 30
0.0
 10
-55.6082582149
 20
52.7714246231
 30
0.0
 10
-55.6059921047
 20
52.8071767525
 30
0.0
 10
-55.6046513097
 20
52.8281783159
 30
0.0
 10
-55.6037749435
 20
52.8423187891
 30
0.0
 10
-55.6024045947
 20
52.8626161722
 30
0.0
 10
-55.6007497696
 20
52.8875317504
 30
0.0
 10
-55.5977735449
 20
52.9321346188
 30
0.0
 10
-55.5935637671
 20
52.9953298723
 30
0.0
 10
-55.5884940679
 20
53.0713880993
 30
0.0
 10
-55.5817407467
 20
53.1727208244
 30
0.0
 10
-55.5732969269
 20
53.2994137559
 30
0.0
 10
-55.5665425318
 20
53.4007598649
 30
0.0
 10
-55.5631652517
 20
53.4514339489
 30
0.0
  0
SPLINE
  5
4FD
100
AcDbEntity
  8
0
100
AcDbSpline
 62
250
  6
CONTINUOUS
 70
0
 71
3
 72
13
 73
9
 74
0
 42
0.0000001
 43
0.0000001
 44
0.0000000001
 40
0.0
 40
0.0
 40
0.0
 40
0.0
 40
0.25
 40
0.375
 40
0.5
 40
0.625
 40
0.75
 40
1.0
 40
1.0
 40
1.0
 40
1.0
 10
-56.5051445244
 20
51.8471373946
 30
0.0
 10
-56.5003892234
 20
51.9292245615
 30
0.0
 10
-56.4932624833
 20
52.0525104076
 30
0.0
 10
-56.4837353176
 20
52.2162711521
 30
0.0
 10
-56.4766520573
 20
52.3406426697
 30
0.0
 10
-56.4693327638
 20
52.4591205425
 30
0.0
 10
-56.4596565244
 20
52.6191589852
 30
0.0
 10
-56.4523807106
 20
52.7387225295
 30
0.0
 10
-56.4475343091
 20
52.8185349563
 30
0.0
  0
SPLINE
  5
4FE
100
AcDbEntity
  8
0
100
AcDbSpline
 62
250
  6
CONTINUOUS
 70
0
 71
3
 72
13
 73
9
 74
0
 42
0.0000001
 43
0.0000001
 44
0.0000000001
 40
0.0
 40
0.0
 40
0.0
 40
0.0
 40
0.25
 40
0.375
 40
0.5
 40
0.625
 40
0.75
 40
1.0
 40
1.0
 40
1.0
 40
1.0
 10
-57.3659839934
 20
53.3488362935
 30
0.0
 10
-57.3709721447
 20
53.2666337462
 30
0.0
 10
-57.3784799126
 20
53.1431590956
 30
0.0
 10
-57.3883881061
 20
52.9792095466
 30
0.0
 10
-57.3960746604
 20
52.8545390887
 30
0.0
 10
-57.40279066
 20
52.7363601562
 30
0.0
 10
-57.4120858715
 20
52.576510518
 30
0.0
 10
-57.4189806575
 20
52.4571357782
 30
0.0
 10
-57.4235942087
 20
52.3774387319
 30
0.0
  0
SPLINE
  5
4FF
100
AcDbEntity
  8
0
100
AcDbSpline
 62
250
  6
CONTINUOUS
 70
0
 71
3
 72
23
 73
19
 74
0
 42
0.0000001
 43
0.0000001
 44
0.0000000001
 40
0.0
 40
0.0
 40
0.0
 40
0.0
 40
0.125
 40
0.25
 40
0.3125
 40
0.375
 40
0.4375
 40
0.46875
 40
0.484375
 40
0.5
 40
0.515625
 40
0.53125
 40
0.5625
 40
0.625
 40
0.6875
 40
0.75
 40
0.875
 40
1.0
 40
1.0
 40
1.0
 40
1.0
 10
-58.1065632911
 20
54.9199600818
 30
0.0
 10
-58.1093245689
 20
54.8787281384
 30
0.0
 10
-58.1148472259
 20
54.7962622236
 30
0.0
 10
-58.12175004
 20
54.6931899702
 30
0.0
 10
-58.1272733564
 20
54.6107108734
 30
0.0
 10
-58.1314129527
 20
54.5489093489
 30
0.0
 10
-58.134871809
 20
54.4972242906
 30
0.0
 10
-58.1372749686
 20
54.4614054177
 30
0.0
 10
-58.1386763701
 20
54.4403743388
 30
0.0
 10
-58.1396480731
 20
54.4261874364
 30
0.0
 10
-58.1409230852
 20
54.4059364826
 30
0.0
 10
-58.1425173036
 20
54.3810504199
 30
0.0
 10
-58.145356479
 20
54.3365142949
 30
0.0
 10
-58.1493866728
 20
54.2734064991
 30
0.0
 10
-58.1542339365
 20
54.1974565987
 30
0.0
 10
-58.1606931002
 20
54.0962671289
 30
0.0
 10
-58.1687683861
 20
53.9697536742
 30
0.0
 10
-58.1752282092
 20
53.8685510224
 30
0.0
 10
-58.1784581714
 20
53.8179486825
 30
0.0
  0
SPLINE
  5
500
100
AcDbEntity
  8
0
100
AcDbSpline
 62
250
  6
CONTINUOUS
 70
0
 71
3
 72
13
 73
9
 74
0
 42
0.0000001
 43
0.0000001
 44
0.0000000001
 40
0.0
 40
0.0
 40
0.0
 40
0.0
 40
0.25
 40
0.375
 40
0.5
 40
0.625
 40
0.75
 40
1.0
 40
1.0
 40
1.0
 40
1.0
 10
-57.2244906709
 20
55.4291670893
 30
0.0
 10
-57.2304859745
 20
55.3464760442
 30
0.0
 10
-57.2395055799
 20
55.2222806914
 30
0.0
 10
-57.2514251205
 20
55.0573220287
 30
0.0
 10
-57.2606312759
 20
54.9320151788
 30
0.0
 10
-57.2688247317
 20
54.81274217
 30
0.0
 10
-57.2801046727
 20
54.6515943544
 30
0.0
 10
-57.2884846784
 20
54.5312098485
 30
0.0
 10
-57.2940891156
 20
54.4508476544
 30
0.0
  0
SPLINE
  5
501
100
AcDbEntity
  8
0
100
AcDbSpline
 62
250
  6
CONTINUOUS
 70
0
 71
3
 72
11
 73
7
 74
0
 42
0.0000001
 43
0.0000001
 44
0.0000000001
 40
0.0
 40
0.0
 40
0.0
 40
0.0
 40
0.25
 40
0.5
 40
0.75
 40
1.0
 40
1.0
 40
1.0
 40
1.0
 10
-56.2991612548
 20
53.9646959934
 30
0.0
 10
-56.2933579802
 20
54.047295224
 30
0.0
 10
-56.2817327047
 20
54.2119692076
 30
0.0
 10
-56.2644071499
 20
54.4621270482
 30
0.0
 10
-56.2466883405
 20
54.7012708605
 30
0.0
 10
-56.2349507066
 20
54.8627979788
 30
0.0
 10
-56.2290725264
 20
54.9432992993
 30
0.0
  0
SPLINE
  5
502
100
AcDbEntity
  8
0
100
AcDbSpline
 62
250
  6
CONTINUOUS
 70
0
 71
3
 72
24
 73
20
 74
0
 42
0.0000001
 43
0.0000001
 44
0.0000000001
 40
0.0
 40
0.0
 40
0.0
 40
0.0
 40
0.25
 40
0.375
 40
0.4375
 40
0.5
 40
0.5625
 40
0.59375
 40
0.625
 40
0.640625
 40
0.65625
 40
0.6640625
 40
0.671875
 40
0.6875
 40
0.71875
 40
0.75
 40
0.8125
 40
0.875
 40
1.0
 40
1.0
 40
1.0
 40
1.0
 10
-55.569642193
 20
52.2240317246
 30
0.0
 10
-55.5618619588
 20
52.3474821258
 30
0.0
 10
-55.5502266843
 20
52.5326399604
 30
0.0
 10
-55.5365294284
 20
52.7487196195
 30
0.0
 10
-55.5283384484
 20
52.8723681696
 30
0.0
 10
-55.5222434983
 20
52.9650900283
 30
0.0
 10
-55.5171550806
 20
53.0423340655
 30
0.0
 10
-55.5130825062
 20
53.1041946003
 30
0.0
 10
-55.5105463941
 20
53.1427062611
 30
0.0
 10
-55.5084957719
 20
53.1738620798
 30
0.0
 10
-55.507263841
 20
53.1925438281
 30
0.0
 10
-55.5061644302
 20
53.2093001363
 30
0.0
 10
-55.5054807175
 20
53.2194453171
 30
0.0
 10
-55.5044773299
 20
53.2341282334
 30
0.0
 10
-55.5029431641
 20
53.2567062024
 30
0.0
 10
-55.5005448065
 20
53.2919354529
 30
0.0
 10
-55.4975275714
 20
53.3362787678
 30
0.0
 10
-55.4927108236
 20
53.4070558601
 30
0.0
 10
-55.4890958264
 20
53.4601774269
 30
0.0
 10
-55.4866863697
 20
53.4955831942
 30
0.0
  0
SPLINE
  5
503
100
AcDbEntity
  8
0
100
AcDbSpline
 62
250
  6
CONTINUOUS
 70
0
 71
3
 72
13
 73
9
 74
0
 42
0.0000001
 43
0.0000001
 44
0.0000000001
 40
0.0
 40
0.0
 40
0.0
 40
0.0
 40
0.25
 40
0.375
 40
0.5
 40
0.625
 40
0.75
 40
1.0
 40
1.0
 40
1.0
 40
1.0
 10
-56.4392388713
 20
51.7220281696
 30
0.0
 10
-56.4345246682
 20
51.8040948768
 30
0.0
 10
-56.4274596291
 20
51.9273504387
 30
0.0
 10
-56.4180145152
 20
52.0910691832
 30
0.0
 10
-56.4109933341
 20
52.2154132534
 30
0.0
 10
-56.4037340664
 20
52.3338482786
 30
0.0
 10
-56.394138582
 20
52.4938349947
 30
0.0
 10
-56.3869231724
 20
52.6133585281
 30
0.0
 10
-56.3821170763
 20
52.6931445512
 30
0.0
  0
SPLINE
  5
504
100
AcDbEntity
  8
0
100
AcDbSpline
 62
250
  6
CONTINUOUS
 70
0
 71
3
 72
13
 73
9
 74
0
 42
0.0000001
 43
0.0000001
 44
0.0000000001
 40
0.0
 40
0.0
 40
0.0
 40
0.0
 40
0.25
 40
0.375
 40
0.5
 40
0.625
 40
0.75
 40
1.0
 40
1.0
 40
1.0
 40
1.0
 10
-57.4418664952
 20
53.3050305722
 30
0.0
 10
-57.4468135389
 20
53.2228483277
 30
0.0
 10
-57.4542595899
 20
53.0994037047
 30
0.0
 10
-57.4640857157
 20
52.9354958991
 30
0.0
 10
-57.4717101657
 20
52.8108524822
 30
0.0
 10
-57.4783661645
 20
52.6927168037
 30
0.0
 10
-57.487580637
 20
52.5329191488
 30
0.0
 10
-57.4944150347
 20
52.4135846764
 30
0.0
 10
-57.4989882902
 20
52.3339141906
 30
0.0
  0
SPLINE
  5
505
100
AcDbEntity
  8
0
100
AcDbSpline
 62
250
  6
CONTINUOUS
 70
0
 71
3
 72
24
 73
20
 74
0
 42
0.0000001
 43
0.0000001
 44
0.0000000001
 40
0.0
 40
0.0
 40
0.0
 40
0.0
 40
0.25
 40
0.375
 40
0.4375
 40
0.5
 40
0.5625
 40
0.59375
 40
0.625
 40
0.640625
 40
0.65625
 40
0.6640625
 40
0.671875
 40
0.6875
 40
0.71875
 40
0.75
 40
0.8125
 40
0.875
 40
1.0
 40
1.0
 40
1.0
 40
1.0
 10
-58.171385557
 20
55.045694841
 30
0.0
 10
-58.1797310528
 20
54.9219691563
 30
0.0
 10
-58.1922842811
 20
54.7363642765
 30
0.0
 10
-58.206807268
 20
54.5198824848
 30
0.0
 10
-58.214741764
 20
54.3963588429
 30
0.0
 10
-58.2207421284
 20
54.3036830476
 30
0.0
 10
-58.2257292713
 20
54.2264883314
 30
0.0
 10
-58.2297258253
 20
54.1646648187
 30
0.0
 10
-58.2322131529
 20
54.126176916
 30
0.0
 10
-58.2342265496
 20
54.0950392262
 30
0.0
 10
-58.2354313454
 20
54.0763706927
 30
0.0
 10
-58.2365178836
 20
54.0596206536
 30
0.0
 10
-58.2371564774
 20
54.0494974458
 30
0.0
 10
-58.2380659277
 20
54.0348602771
 30
0.0
 10
-58.239473713
 20
54.0123438557
 30
0.0
 10
-58.2416654939
 20
53.9772152084
 30
0.0
 10
-58.2444260043
 20
53.932996919
 30
0.0
 10
-58.2488311526
 20
53.8624202764
 30
0.0
 10
-58.2521376392
 20
53.8094489548
 30
0.0
 10
-58.2543413802
 20
53.7741433715
 30
0.0
  0
SPLINE
  5
506
100
AcDbEntity
  8
0
100
AcDbSpline
 62
250
  6
CONTINUOUS
 70
0
 71
3
 72
13
 73
9
 74
0
 42
0.0000001
 43
0.0000001
 44
0.0000000001
 40
0.0
 40
0.0
 40
0.0
 40
0.0
 40
0.25
 40
0.375
 40
0.5
 40
0.625
 40
0.75
 40
1.0
 40
1.0
 40
1.0
 40
1.0
 10
-57.2888219439
 20
55.5551853417
 30
0.0
 10
-57.2948583567
 20
55.4724747224
 30
0.0
 10
-57.3039396602
 20
55.3482505648
 30
0.0
 10
-57.3159413275
 20
55.1832512695
 30
0.0
 10
-57.3252094217
 20
55.057919511
 30
0.0
 10
-57.3334635096
 20
54.938600443
 30
0.0
 10
-57.3448247518
 20
54.7773986364
 30
0.0
 10
-57.3532656304
 20
54.6569719675
 30
0.0
 10
-57.3589106723
 20
54.5765820358
 30
0.0
  0
SPLINE
  5
507
100
AcDbEntity
  8
0
100
AcDbSpline
 62
250
  6
CONTINUOUS
 70
0
 71
3
 72
11
 73
7
 74
0
 42
0.0000001
 43
0.0000001
 44
0.0000000001
 40
0.0
 40
0.0
 40
0.0
 40
0.0
 40
0.25
 40
0.5
 40
0.75
 40
1.0
 40
1.0
 40
1.0
 40
1.0
 10
-56.2226404859
 20
54.0088702421
 30
0.0
 10
-56.216796115
 20
54.0914891746
 30
0.0
 10
-56.2050887658
 20
54.2562045065
 30
0.0
 10
-56.187639386
 20
54.5064127024
 30
0.0
 10
-56.1697992522
 20
54.7456477054
 30
0.0
 10
-56.157980259
 20
54.9072278393
 30
0.0
 10
-56.1520614587
 20
54.9877566398
 30
0.0
  0
SPLINE
  5
508
100
AcDbEntity
  8
0
100
AcDbSpline
 62
250
  6
CONTINUOUS
 70
0
 71
3
 72
16
 73
12
 74
0
 42
0.0000001
 43
0.0000001
 44
0.0000000001
 40
0.0
 40
0.0
 40
0.0
 40
0.0
 40
0.25
 40
0.5
 40
0.5625
 40
0.625
 40
0.65625
 40
0.6875
 40
0.75
 40
0.875
 40
1.0
 40
1.0
 40
1.0
 40
1.0
 10
-55.5041824568
 20
52.0986658492
 30
0.0
 10
-55.4964638682
 20
52.222086011
 30
0.0
 10
-55.4812094052
 20
52.4688985635
 30
0.0
 10
-55.4632259202
 20
52.7466876554
 30
0.0
 10
-55.4510875281
 20
52.932357341
 30
0.0
 10
-55.446057773
 20
53.0091098019
 30
0.0
 10
-55.4419819293
 20
53.0719278543
 30
0.0
 10
-55.4380919172
 20
53.1295694982
 30
0.0
 10
-55.4313705824
 20
53.2280359035
 30
0.0
 10
-55.4217233143
 20
53.3699687606
 30
0.0
 10
-55.4140193242
 20
53.4831290459
 30
0.0
 10
-55.4101656012
 20
53.5397574386
 30
0.0
  0
SPLINE
  5
509
100
AcDbEntity
  8
0
100
AcDbSpline
 62
250
  6
CONTINUOUS
 70
0
 71
3
 72
13
 73
9
 74
0
 42
0.0000001
 43
0.0000001
 44
0.0000000001
 40
0.0
 40
0.0
 40
0.0
 40
0.0
 40
0.25
 40
0.375
 40
0.5
 40
0.625
 40
0.75
 40
1.0
 40
1.0
 40
1.0
 40
1.0
 10
-56.373290728
 20
51.5969442943
 30
0.0
 10
-56.3686176225
 20
51.6789905135
 30
0.0
 10
-56.3616142839
 20
51.8022157544
 30
0.0
 10
-56.3522512208
 20
51.965892427
 30
0.0
 10
-56.345292119
 20
52.0902090531
 30
0.0
 10
-56.3380928741
 20
52.2086010169
 30
0.0
 10
-56.3285781417
 20
52.3685357976
 30
0.0
 10
-56.3214231337
 20
52.4880191465
 30
0.0
 10
-56.3166573414
 20
52.567778654
 30
0.0
  0
SPLINE
  5
50A
100
AcDbEntity
  8
0
100
AcDbSpline
 62
250
  6
CONTINUOUS
 70
0
 71
3
 72
13
 73
9
 74
0
 42
0.0000001
 43
0.0000001
 44
0.0000000001
 40
0.0
 40
0.0
 40
0.0
 40
0.0
 40
0.25
 40
0.375
 40
0.5
 40
0.625
 40
0.75
 40
1.0
 40
1.0
 40
1.0
 40
1.0
 10
-57.5177064929
 20
53.2612493922
 30
0.0
 10
-57.5226124289
 20
53.1790874791
 30
0.0
 10
-57.5299967631
 20
53.0556729208
 30
0.0
 10
-57.5397408216
 20
52.8918069309
 30
0.0
 10
-57.5473031662
 20
52.7671905523
 30
0.0
 10
-57.5538991683
 20
52.6490983409
 30
0.0
 10
-57.5630329053
 20
52.4893528777
 30
0.0
 10
-57.5698069178
 20
52.3700588461
 30
0.0
 10
-57.5743398795
 20
52.2904150326
 30
0.0
  0
SPLINE
  5
50B
100
AcDbEntity
  8
0
100
AcDbSpline
 62
250
  6
CONTINUOUS
 70
0
 71
3
 72
17
 73
13
 74
0
 42
0.0000001
 43
0.0000001
 44
0.0000000001
 40
0.0
 40
0.0
 40
0.0
 40
0.0
 40
0.25
 40
0.375
 40
0.5
 40
0.5625
 40
0.625
 40
0.65625
 40
0.6875
 40
0.75
 40
0.875
 40
1.0
 40
1.0
 40
1.0
 40
1.0
 10
-58.236164522
 20
55.1714537852
 30
0.0
 10
-58.2445716803
 20
55.0476982888
 30
0.0
 10
-58.2572326305
 20
54.862054724
 30
0.0
 10
-58.273913046
 20
54.6145712519
 30
0.0
 10
-58.2838579948
 20
54.4602441053
 30
0.0
 10
-58.2919384109
 20
54.3364552423
 30
0.0
 10
-58.2969176838
 20
54.2597300556
 30
0.0
 10
-58.3010403571
 20
54.1968888463
 30
0.0
 10
-58.3046628002
 20
54.1393775946
 30
0.0
 10
-58.3107699334
 20
54.041210253
 30
0.0
 10
-58.3196165895
 20
53.8996673258
 30
0.0
 10
-58.3266566786
 20
53.7868303532
 30
0.0
 10
-58.3301813776
 20
53.7303621958
 30
0.0
  0
SPLINE
  5
50C
100
AcDbEntity
  8
0
100
AcDbSpline
 62
250
  6
CONTINUOUS
 70
0
 71
3
 72
13
 73
9
 74
0
 42
0.0000001
 43
0.0000001
 44
0.0000000001
 40
0.0
 40
0.0
 40
0.0
 40
0.0
 40
0.25
 40
0.375
 40
0.5
 40
0.625
 40
0.75
 40
1.0
 40
1.0
 40
1.0
 40
1.0
 10
-57.3531106101
 20
55.6812273782
 30
0.0
 10
-57.3591881316
 20
55.5984972136
 30
0.0
 10
-57.3683311326
 20
55.4742442896
 30
0.0
 10
-57.3804149263
 20
55.3092044324
 30
0.0
 10
-57.389744957
 20
55.1838477693
 30
0.0
 10
-57.3980596831
 20
55.064482833
 30
0.0
 10
-57.4095022318
 20
54.9032272243
 30
0.0
 10
-57.4180039877
 20
54.7827585488
 30
0.0
 10
-57.4236896373
 20
54.7023409805
 30
0.0
  0
SPLINE
  5
50D
100
AcDbEntity
  8
0
100
AcDbSpline
 62
250
  6
CONTINUOUS
 70
0
 71
3
 72
22
 73
18
 74
0
 42
0.0000001
 43
0.0000001
 44
0.0000000001
 40
0.0
 40
0.0
 40
0.0
 40
0.0
 40
0.25
 40
0.375
 40
0.5
 40
0.5625
 40
0.625
 40
0.6875
 40
0.75
 40
0.78125
 40
0.796875
 40
0.8125
 40
0.828125
 40
0.84375
 40
0.875
 40
0.9375
 40
1.0
 40
1.0
 40
1.0
 40
1.0
 10
-49.3483172699
 20
50.5265626945
 30
0.0
 10
-49.3628944425
 20
50.3200315377
 30
0.0
 10
-49.3847724296
 20
50.0102276513
 30
0.0
 10
-49.4128159536
 20
49.5977033699
 30
0.0
 10
-49.4295465489
 20
49.3402485687
 30
0.0
 10
-49.4429676264
 20
49.1342999077
 30
0.0
 10
-49.4528623356
 20
48.97983089
 30
0.0
 10
-49.462344328
 20
48.8259123727
 30
0.0
 10
-49.4704157781
 20
48.6964782119
 30
0.0
 10
-49.4758897982
 20
48.6080877878
 30
0.0
 10
-49.4792685785
 20
48.5541350413
 30
0.0
 10
-49.4811006414
 20
48.5233698543
 30
0.0
 10
-49.4829416902
 20
48.4924812602
 30
0.0
 10
-49.4853932875
 20
48.4513395147
 30
0.0
 10
-49.4896850437
 20
48.3793213952
 30
0.0
 10
-49.4958153552
 20
48.2764489278
 30
0.0
 10
-49.5007198387
 20
48.1941477355
 30
0.0
 10
-49.5031720511
 20
48.1529975416
 30
0.0
  0
SPLINE
  5
50E
100
AcDbEntity
  8
0
100
AcDbSpline
 62
250
  6
CONTINUOUS
 70
0
 71
3
 72
22
 73
18
 74
0
 42
0.0000001
 43
0.0000001
 44
0.0000000001
 40
0.0
 40
0.0
 40
0.0
 40
0.0
 40
0.25
 40
0.375
 40
0.5
 40
0.5625
 40
0.625
 40
0.6875
 40
0.75
 40
0.78125
 40
0.796875
 40
0.8125
 40
0.828125
 40
0.84375
 40
0.875
 40
0.9375
 40
1.0
 40
1.0
 40
1.0
 40
1.0
 10
-50.8555160811
 20
51.3968003984
 30
0.0
 10
-50.8700932537
 20
51.1902692417
 30
0.0
 10
-50.8919712408
 20
50.8804653553
 30
0.0
 10
-50.9200147648
 20
50.4679410738
 30
0.0
 10
-50.9367453601
 20
50.2104862727
 30
0.0
 10
-50.9501664376
 20
50.0045376117
 30
0.0
 10
-50.9600611468
 20
49.850068594
 30
0.0
 10
-50.9695431392
 20
49.6961500766
 30
0.0
 10
-50.9776145893
 20
49.5667159158
 30
0.0
 10
-50.9830886094
 20
49.4783254917
 30
0.0
 10
-50.9864673897
 20
49.4243727452
 30
0.0
 10
-50.9882994526
 20
49.3936075582
 30
0.0
 10
-50.9901405014
 20
49.3627189641
 30
0.0
 10
-50.9925920987
 20
49.3215772187
 30
0.0
 10
-50.996883855
 20
49.2495590992
 30
0.0
 10
-51.0030141664
 20
49.1466866318
 30
0.0
 10
-51.0079186499
 20
49.0643854394
 30
0.0
 10
-51.0103708623
 20
49.0232352456
 30
0.0
  0
SPLINE
  5
50F
100
AcDbEntity
  8
0
100
AcDbSpline
 62
250
  6
CONTINUOUS
 70
0
 71
3
 72
22
 73
18
 74
0
 42
0.0000001
 43
0.0000001
 44
0.0000000001
 40
0.0
 40
0.0
 40
0.0
 40
0.0
 40
0.25
 40
0.375
 40
0.5
 40
0.5625
 40
0.625
 40
0.6875
 40
0.75
 40
0.78125
 40
0.796875
 40
0.8125
 40
0.828125
 40
0.84375
 40
0.875
 40
0.9375
 40
1.0
 40
1.0
 40
1.0
 40
1.0
 10
-52.9750156247
 20
52.6205728713
 30
0.0
 10
-52.9895927973
 20
52.4140417146
 30
0.0
 10
-53.0114707844
 20
52.1042378282
 30
0.0
 10
-53.0395143084
 20
51.6917135468
 30
0.0
 10
-53.0562449037
 20
51.4342587456
 30
0.0
 10
-53.0696659812
 20
51.2283100846
 30
0.0
 10
-53.0795606904
 20
51.0738410669
 30
0.0
 10
-53.0890426828
 20
50.9199225495
 30
0.0
 10
-53.0971141329
 20
50.7904883887
 30
0.0
 10
-53.102588153
 20
50.7020979646
 30
0.0
 10
-53.1059669333
 20
50.6481452181
 30
0.0
 10
-53.1077989962
 20
50.6173800311
 30
0.0
 10
-53.109640045
 20
50.586491437
 30
0.0
 10
-53.1120916423
 20
50.5453496916
 30
0.0
 10
-53.1163833986
 20
50.4733315721
 30
0.0
 10
-53.12251371
 20
50.3704591047
 30
0.0
 10
-53.1274181935
 20
50.2881579124
 30
0.0
 10
-53.1298704059
 20
50.2470077185
 30
0.0
  0
SPLINE
  5
510
100
AcDbEntity
  8
0
100
AcDbSpline
 62
250
  6
CONTINUOUS
 70
0
 71
3
 72
22
 73
18
 74
0
 42
0.0000001
 43
0.0000001
 44
0.0000000001
 40
0.0
 40
0.0
 40
0.0
 40
0.0
 40
0.25
 40
0.375
 40
0.5
 40
0.5625
 40
0.625
 40
0.6875
 40
0.75
 40
0.78125
 40
0.796875
 40
0.8125
 40
0.828125
 40
0.84375
 40
0.875
 40
0.9375
 40
1.0
 40
1.0
 40
1.0
 40
1.0
 10
-51.9859160734
 20
52.0494791867
 30
0.0
 10
-52.0004932459
 20
51.84294803
 30
0.0
 10
-52.0223712331
 20
51.5331441436
 30
0.0
 10
-52.0504147571
 20
51.1206198622
 30
0.0
 10
-52.0671453524
 20
50.863165061
 30
0.0
 10
-52.0805664299
 20
50.6572164
 30
0.0
 10
-52.0904611391
 20
50.5027473823
 30
0.0
 10
-52.0999431315
 20
50.3488288649
 30
0.0
 10
-52.1080145816
 20
50.2193947041
 30
0.0
 10
-52.1134886016
 20
50.13100428
 30
0.0
 10
-52.116867382
 20
50.0770515335
 30
0.0
 10
-52.1186994449
 20
50.0462863465
 30
0.0
 10
-52.1205404937
 20
50.0153977524
 30
0.0
 10
-52.122992091
 20
49.974256007
 30
0.0
 10
-52.1272838472
 20
49.9022378875
 30
0.0
 10
-52.1334141587
 20
49.7993654201
 30
0.0
 10
-52.1383186422
 20
49.7170642278
 30
0.0
 10
-52.1407708546
 20
49.6759140339
 30
0.0
  0
SPLINE
  5
511
100
AcDbEntity
  8
ASSI
100
AcDbSpline
 62
250
  6
CONTINUOUS
 70
0
 71
3
 72
39
 73
35
 74
0
 42
0.0000001
 43
0.0000001
 44
0.0000000001
 40
0.0
 40
0.0
 40
0.0
 40
0.0
 40
0.0625
 40
0.09375
 40
0.109375
 40
0.125
 40
0.140625
 40
0.15625
 40
0.1875
 40
0.21875
 40
0.25
 40
0.28125
 40
0.3125
 40
0.34375
 40
0.375
 40
0.40625
 40
0.4375
 40
0.46875
 40
0.5
 40
0.53125
 40
0.5625
 40
0.59375
 40
0.625
 40
0.65625
 40
0.6875
 40
0.71875
 40
0.75
 40
0.78125
 40
0.8125
 40
0.84375
 40
0.875
 40
0.90625
 40
0.9375
 40
1.0
 40
1.0
 40
1.0
 40
1.0
 10
-50.8952896657
 20
16.6287214566
 30
0.0
 10
-50.8932696549
 20
16.6037671415
 30
0.0
 10
-50.8901438331
 20
16.5663022351
 30
0.0
 10
-50.8868323605
 20
16.5227101958
 30
0.0
 10
-50.8844610625
 20
16.4976332903
 30
0.0
 10
-50.8840238672
 20
16.4792936836
 30
0.0
 10
-50.8784610731
 20
16.4591653715
 30
0.0
 10
-50.8728136903
 20
16.4329503529
 30
0.0
 10
-50.8652958888
 20
16.3999828623
 30
0.0
 10
-50.8558211632
 20
16.3604416204
 30
0.0
 10
-50.8488936094
 20
16.3211393388
 30
0.0
 10
-50.8322307325
 20
16.2808614695
 30
0.0
 10
-50.8183453021
 20
16.2408359207
 30
0.0
 10
-50.8030854087
 20
16.2007766775
 30
0.0
 10
-50.790545921
 20
16.1605998917
 30
0.0
 10
-50.7684992736
 20
16.1209269705
 30
0.0
 10
-50.7491236032
 20
16.0810199078
 30
0.0
 10
-50.7285711847
 20
16.0415455467
 30
0.0
 10
-50.7100547813
 20
16.0005745208
 30
0.0
 10
-50.6845710657
 20
15.9651574525
 30
0.0
 10
-50.6610588743
 20
15.9281317479
 30
0.0
 10
-50.6366278984
 20
15.8919866307
 30
0.0
 10
-50.613900536
 20
15.8539278004
 30
0.0
 10
-50.5852775043
 20
15.8226432349
 30
0.0
 10
-50.5583065195
 20
15.7893843696
 30
0.0
 10
-50.5306230163
 20
15.7572484389
 30
0.0
 10
-50.5041375396
 20
15.7225950696
 30
0.0
 10
-50.4735724756
 20
15.6968885199
 30
0.0
 10
-50.4441546816
 20
15.6686041232
 30
0.0
 10
-50.4142273946
 20
15.6416842951
 30
0.0
 10
-50.3851908097
 20
15.6118840394
 30
0.0
 10
-50.3531009092
 20
15.5922409253
 30
0.0
 10
-50.311385714
 20
15.5624861971
 30
0.0
 10
-50.2798582663
 20
15.5409720306
 30
0.0
 10
-50.2588935348
 20
15.5264510575
 30
0.0
  0
ELLIPSE
  5
512
100
AcDbEntity
  8
RACCORDO
100
AcDbEllipse
 62
7
  6
CONTINUOUS
 10
76.3476052137
 20
-77.4955297894
 30
0.0
 11
-0.5013954353
 21
0.868386877
 31
0.0
 40
0.5757524875
 41
-3.1938908371
 42
-2.3576120761
  0
ELLIPSE
  5
513
100
AcDbEntity
  8
RACCORDO
100
AcDbEllipse
 62
7
  6
CONTINUOUS
 10
76.3476052137
 20
-5.6483863911
 30
0.0
 11
-0.5000243598
 21
0.8660113392
 31
0.0
 40
0.5789151826
 41
-2.3548735497
 42
-0.7868162787
  0
ELLIPSE
  5
514
100
AcDbEntity
  8
0
100
AcDbEllipse
 62
7
  6
CONTINUOUS
 10
121.3906108845
 20
53.097291955
 30
0.0
 11
111.5409348807
 21
128.3466174189
 31
0.0
 40
0.4029729773
 41
-3.7734299492
 42
-3.7672052666
  0
ELLIPSE
  5
515
100
AcDbEntity
  8
0
100
AcDbEllipse
 62
7
  6
CONTINUOUS
 10
121.4759759009
 20
53.0480032644
 30
0.0
 11
112.236268736
 21
127.9318388222
 31
0.0
 40
0.3975597956
 41
-3.7637364601
 42
-3.7603859388
  0
ELLIPSE
  5
516
100
AcDbEntity
  8
0
100
AcDbEllipse
 62
7
  6
CONTINUOUS
 10
116.5305624813
 20
55.9034229922
 30
0.0
 11
27.6951435486
 21
170.7397539322
 31
0.0
 40
0.7069483398
 41
-4.1183397783
 42
-4.1015657091
  0
ELLIPSE
  5
517
100
AcDbEntity
  8
0
100
AcDbEllipse
 62
7
  6
CONTINUOUS
 10
116.9681367907
 20
55.6507730701
 30
0.0
 11
91.793176838
 21
140.2511436908
 31
0.0
 40
0.5363054271
 41
-3.8203221232
 42
-3.8093664661
  0
ELLIPSE
  5
518
100
AcDbEntity
  8
0
100
AcDbEllipse
 62
7
  6
CONTINUOUS
 10
120.8380036204
 20
53.4163604635
 30
0.0
 11
119.630873242
 21
123.5739552196
 31
0.0
 40
0.3382731367
 41
-3.7657029519
 42
-3.7547929514
  0
ELLIPSE
  5
519
100
AcDbEntity
  8
0
100
AcDbEllipse
 62
7
  6
CONTINUOUS
 10
116.8979031082
 20
55.6913251182
 30
0.0
 11
70.634700218
 21
152.2499801326
 31
0.0
 40
0.6282888553
 41
-3.9123018102
 42
-3.8955277411
  0
ELLIPSE
  5
51A
100
AcDbEntity
  8
0
100
AcDbEllipse
 62
7
  6
CONTINUOUS
 10
113.334518629
 20
57.7487786567
 30
0.0
 11
11.1145125674
 21
175.7752122584
 31
0.0
 40
0.7158559188
 41
-4.1973507117
 42
-4.188040463
  0
ELLIPSE
  5
51B
100
AcDbEntity
  8
0
100
AcDbEllipse
 62
7
  6
CONTINUOUS
 10
117.7120702488
 20
55.2212352151
 30
0.0
 11
114.8996317544
 21
126.3505868295
 31
0.0
 40
0.3765254089
 41
-3.7743605251
 42
-3.7575864559
  0
ELLIPSE
  5
51C
100
AcDbEntity
  8
0
100
AcDbEllipse
 62
7
  6
CONTINUOUS
 10
111.5213474795
 20
58.7956809541
 30
0.0
 11
34.8790515577
 21
168.2218372011
 31
0.0
 40
0.7002280922
 41
-4.083553027
 42
-4.0720093448
  0
ELLIPSE
  5
51D
100
AcDbEntity
  8
DRAFT
100
AcDbEllipse
 62
7
  6
CONTINUOUS
 10
72.8472491937
 20
-37.069183432
 30
0.0
 11
5.1478346794
 21
0.9575482268
 31
0.0
 40
0.6665647798
 41
-0.7006982462
 42
-0.2750682551
  0
ELLIPSE
  5
51E
100
AcDbEntity
  8
0
100
AcDbEllipse
 62
7
  6
CONTINUOUS
 10
-53.7936511524
 20
14.2203652865
 30
0.0
 11
-0.4000194878
 21
0.6928090714
 31
0.0
 40
0.5789151826
 41
0.7867191038
 42
2.3547763749
  0
ELLIPSE
  5
51F
100
AcDbEntity
  8
RACCORDO
100
AcDbEllipse
 62
7
  6
CONTINUOUS
 10
-70.7286644828
 20
79.2716084331
 30
0.0
 11
-0.5013954353
 21
0.868386877
 31
0.0
 40
0.5757524875
 41
-0.7840766935
 42
0.0522981469
  0
ELLIPSE
  5
520
100
AcDbEntity
  8
0
100
AcDbEllipse
 62
7
  6
CONTINUOUS
 10
5.6404037409
 20
-20.3848991888
 30
0.0
 11
-0.0054673646
 21
0.3559778749
 31
0.0
 40
0.0145741356
 41
-3.1312694411
 42
-2.3823999735
  0
ELLIPSE
  5
521
100
AcDbEntity
  8
0
100
AcDbEllipse
 62
7
  6
CONTINUOUS
 10
116.587379992
 20
55.8706172737
 30
0.0
 11
39.144967187
 21
166.622327116
 31
0.0
 40
0.6952787603
 41
-4.0582033802
 42
-4.0519786976
  0
ELLIPSE
  5
522
100
AcDbEntity
  8
0
100
AcDbEllipse
 62
7
  6
CONTINUOUS
 10
116.4673851851
 20
55.9399007713
 30
0.0
 11
36.2948103059
 21
167.6997948705
 31
0.0
 40
0.6986691259
 41
-4.0632503059
 42
-4.0598997846
  0
ELLIPSE
  5
523
100
AcDbEntity
  8
0
100
AcDbEllipse
 62
7
  6
CONTINUOUS
 10
121.3275752009
 20
53.1336879686
 30
0.0
 11
114.2761852079
 21
126.7196181975
 31
0.0
 40
0.3814884295
 41
-3.7749362596
 42
-3.7581621904
  0
ELLIPSE
  5
524
100
AcDbEntity
  8
0
100
AcDbEllipse
 62
7
  6
CONTINUOUS
 10
116.7934589343
 20
55.7516298751
 30
0.0
 11
94.077182749
 21
138.8827821588
 31
0.0
 40
0.5232362147
 41
-3.8185477191
 42
-3.8017736499
  0
ELLIPSE
  5
525
100
AcDbEntity
  8
0
100
AcDbEllipse
 62
7
  6
CONTINUOUS
 10
112.94450493
 20
57.9739676785
 30
0.0
 11
10.3267110211
 21
175.9897840662
 31
0.0
 40
0.7160762854
 41
-4.1952272933
 42
-4.1842716361
  0
ELLIPSE
  5
526
100
AcDbEntity
  8
0
100
AcDbEllipse
 62
7
  6
CONTINUOUS
 10
116.7790152457
 20
55.7599694799
 30
0.0
 11
74.7936860181
 21
150.0170875047
 31
0.0
 40
0.6139811386
 41
-3.8878369839
 42
-3.8769269833
  0
ELLIPSE
  5
527
100
AcDbEntity
  8
0
100
AcDbEllipse
 62
7
  6
CONTINUOUS
 10
120.4210814758
 20
53.6570860845
 30
0.0
 11
119.1887867979
 21
123.8315627285
 31
0.0
 40
0.3418816387
 41
-3.7717111746
 42
-3.7624009259
  0
ELLIPSE
  5
528
100
AcDbEntity
  8
0
100
AcDbEllipse
 62
7
  6
CONTINUOUS
 10
116.9971638862
 20
55.634013189
 30
0.0
 11
111.9792925869
 21
128.0850400428
 31
0.0
 40
0.3995644544
 41
-3.7774770381
 42
-3.7659333559
  0
ELLIPSE
  5
529
100
AcDbEntity
  8
0
100
AcDbEllipse
 62
7
  6
CONTINUOUS
 10
110.7366622199
 20
59.2487483886
 30
0.0
 11
25.1749394473
 21
171.5727221992
 31
0.0
 40
0.7088651675
 41
-4.1304804737
 42
-4.1137064045
  0
ELLIPSE
  5
52A
100
AcDbEntity
  8
DRAFT
100
AcDbEllipse
 62
7
  6
CONTINUOUS
 10
72.8472491937
 20
-42.4759626029
 30
0.0
 11
5.1774686765
 21
-0.6785096723
 31
0.0
 40
0.4693271057
 41
-0.5159119978
 42
-0.0902820066
  0
ELLIPSE
  5
52B
100
AcDbEntity
  8
0
100
AcDbEllipse
 62
7
  6
CONTINUOUS
 10
116.587379992
 20
55.8706172737
 30
0.0
 11
39.1098980172
 21
166.4730536049
 31
0.0
 40
0.6952787603
 41
-4.0581356351
 42
-4.0519053363
  0
ELLIPSE
  5
52C
100
AcDbEntity
  8
0
100
AcDbEllipse
 62
7
  6
CONTINUOUS
 10
121.3275752009
 20
53.1336879686
 30
0.0
 11
114.1738075272
 21
126.6060927015
 31
0.0
 40
0.3814884295
 41
-3.7738993826
 42
-3.7580834622
  0
ELLIPSE
  5
52D
100
AcDbEntity
  8
0
100
AcDbEllipse
 62
7
  6
CONTINUOUS
 10
116.4673851851
 20
55.9399007713
 30
0.0
 11
36.2622945329
 21
167.5495560783
 31
0.0
 40
0.6986691259
 41
-4.0631746043
 42
-4.0598210564
  0
ELLIPSE
  5
52E
100
AcDbEntity
  8
0
100
AcDbEllipse
 62
7
  6
CONTINUOUS
 10
120.4210814758
 20
53.6570860845
 30
0.0
 11
119.0820080186
 21
123.7206245819
 31
0.0
 40
0.3418816387
 41
-3.7706748267
 42
-3.7623289378
  0
ELLIPSE
  5
52F
100
AcDbEntity
  8
0
100
AcDbEllipse
 62
7
  6
CONTINUOUS
 10
116.7790152457
 20
55.7599694799
 30
0.0
 11
74.7266798953
 21
149.8826902858
 31
0.0
 40
0.6139811386
 41
-3.8877681049
 42
-3.8768482551
  0
ELLIPSE
  5
530
100
AcDbEntity
  8
0
100
AcDbEllipse
 62
7
  6
CONTINUOUS
 10
112.94450493
 20
57.9739676785
 30
0.0
 11
10.3174595334
 21
175.8321184433
 31
0.0
 40
0.7160762854
 41
-4.1951584555
 42
-4.1843498231
  0
ELLIPSE
  5
531
100
AcDbEntity
  8
0
100
AcDbEllipse
 62
7
  6
CONTINUOUS
 10
116.7934589343
 20
55.7516298751
 30
0.0
 11
93.9929009386
 21
138.7583599347
 31
0.0
 40
0.5232362147
 41
-3.817510829
 42
-3.8016949217
  0
ELLIPSE
  5
532
100
AcDbEntity
  8
0
100
AcDbEllipse
 62
7
  6
CONTINUOUS
 10
110.7366622199
 20
59.2487483886
 30
0.0
 11
25.1523857375
 21
171.4190137311
 31
0.0
 40
0.7088651675
 41
-4.129443597
 42
-4.1136276763
  0
ELLIPSE
  5
533
100
AcDbEntity
  8
0
100
AcDbEllipse
 62
7
  6
CONTINUOUS
 10
116.9971638862
 20
55.634013189
 30
0.0
 11
111.878972645
 21
127.9702912935
 31
0.0
 40
0.3995644544
 41
-3.7764400576
 42
-3.7658593517
  0
ELLIPSE
  5
534
100
AcDbEntity
  8
ASSI
100
AcDbEllipse
 62
7
  6
CONTINUOUS
 10
76.3476052137
 20
-77.4955297894
 30
0.0
 11
-0.5013954353
 21
0.868386877
 31
0.0
 40
0.5757524875
 41
-3.1938908371
 42
-2.3576120761
  0
ELLIPSE
  5
535
100
AcDbEntity
  8
ASSI
100
AcDbEllipse
 62
7
  6
CONTINUOUS
 10
76.3476052137
 20
-5.6483863911
 30
0.0
 11
-0.5000243598
 21
0.8660113392
 31
0.0
 40
0.5789151826
 41
-2.3548735497
 42
-0.7868162787
  0
ELLIPSE
  5
536
100
AcDbEntity
  8
ASSI
100
AcDbEllipse
 62
7
  6
CONTINUOUS
 10
121.3906108845
 20
53.097291955
 30
0.0
 11
111.5409348807
 21
128.3466174189
 31
0.0
 40
0.4029729773
 41
-3.7734299492
 42
-3.7672052666
  0
ELLIPSE
  5
537
100
AcDbEntity
  8
ASSI
100
AcDbEllipse
 62
7
  6
CONTINUOUS
 10
121.4759759009
 20
53.0480032644
 30
0.0
 11
112.236268736
 21
127.9318388222
 31
0.0
 40
0.3975597956
 41
-3.7637364601
 42
-3.7603859388
  0
ELLIPSE
  5
538
100
AcDbEntity
  8
ASSI
100
AcDbEllipse
 62
7
  6
CONTINUOUS
 10
116.5305624813
 20
55.9034229922
 30
0.0
 11
27.6951435486
 21
170.7397539322
 31
0.0
 40
0.7069483398
 41
-4.1183397783
 42
-4.1015657091
  0
ELLIPSE
  5
539
100
AcDbEntity
  8
ASSI
100
AcDbEllipse
 62
7
  6
CONTINUOUS
 10
116.9681367907
 20
55.6507730701
 30
0.0
 11
91.793176838
 21
140.2511436908
 31
0.0
 40
0.5363054271
 41
-3.8203221232
 42
-3.8093664661
  0
ELLIPSE
  5
53A
100
AcDbEntity
  8
ASSI
100
AcDbEllipse
 62
7
  6
CONTINUOUS
 10
120.8380036204
 20
53.4163604635
 30
0.0
 11
119.630873242
 21
123.5739552196
 31
0.0
 40
0.3382731367
 41
-3.7657029519
 42
-3.7547929514
  0
ELLIPSE
  5
53B
100
AcDbEntity
  8
ASSI
100
AcDbEllipse
 62
7
  6
CONTINUOUS
 10
116.8979031082
 20
55.6913251182
 30
0.0
 11
70.634700218
 21
152.2499801326
 31
0.0
 40
0.6282888553
 41
-3.9123018102
 42
-3.8955277411
  0
ELLIPSE
  5
53C
100
AcDbEntity
  8
ASSI
100
AcDbEllipse
 62
7
  6
CONTINUOUS
 10
113.334518629
 20
57.7487786567
 30
0.0
 11
11.1145125674
 21
175.7752122584
 31
0.0
 40
0.7158559188
 41
-4.1973507117
 42
-4.188040463
  0
ELLIPSE
  5
53D
100
AcDbEntity
  8
ASSI
100
AcDbEllipse
 62
7
  6
CONTINUOUS
 10
117.7120702488
 20
55.2212352151
 30
0.0
 11
114.8996317544
 21
126.3505868295
 31
0.0
 40
0.3765254089
 41
-3.7743605251
 42
-3.7575864559
  0
ELLIPSE
  5
53E
100
AcDbEntity
  8
ASSI
100
AcDbEllipse
 62
7
  6
CONTINUOUS
 10
111.5213474795
 20
58.7956809541
 30
0.0
 11
34.8790515577
 21
168.2218372011
 31
0.0
 40
0.7002280922
 41
-4.083553027
 42
-4.0720093448
  0
ELLIPSE
  5
53F
100
AcDbEntity
  8
ASSI
100
AcDbEllipse
 62
7
  6
CONTINUOUS
 10
72.8472491937
 20
-37.069183432
 30
0.0
 11
5.1478346794
 21
0.9575482268
 31
0.0
 40
0.6665647798
 41
-0.7006982462
 42
-0.2750682551
  0
ELLIPSE
  5
540
100
AcDbEntity
  8
ASSI
100
AcDbEllipse
 62
7
  6
CONTINUOUS
 10
-53.7936511524
 20
14.2203652865
 30
0.0
 11
-0.4000194878
 21
0.6928090714
 31
0.0
 40
0.5789151826
 41
0.7867191038
 42
2.3547763749
  0
ELLIPSE
  5
541
100
AcDbEntity
  8
ASSI
100
AcDbEllipse
 62
7
  6
CONTINUOUS
 10
-70.7286644828
 20
79.2716084331
 30
0.0
 11
-0.5013954353
 21
0.868386877
 31
0.0
 40
0.5757524875
 41
-0.7840766935
 42
0.0522981469
  0
ELLIPSE
  5
542
100
AcDbEntity
  8
ASSI
100
AcDbEllipse
 62
7
  6
CONTINUOUS
 10
5.6404037409
 20
-20.3848991888
 30
0.0
 11
-0.0054673646
 21
0.3559778749
 31
0.0
 40
0.0145741356
 41
-3.1312694411
 42
-2.3823999735
  0
ELLIPSE
  5
543
100
AcDbEntity
  8
ASSI
100
AcDbEllipse
 62
7
  6
CONTINUOUS
 10
116.587379992
 20
55.8706172737
 30
0.0
 11
39.144967187
 21
166.622327116
 31
0.0
 40
0.6952787603
 41
-4.0582033802
 42
-4.0519786976
  0
ELLIPSE
  5
544
100
AcDbEntity
  8
ASSI
100
AcDbEllipse
 62
7
  6
CONTINUOUS
 10
116.4673851851
 20
55.9399007713
 30
0.0
 11
36.2948103059
 21
167.6997948705
 31
0.0
 40
0.6986691259
 41
-4.0632503059
 42
-4.0598997846
  0
ELLIPSE
  5
545
100
AcDbEntity
  8
ASSI
100
AcDbEllipse
 62
7
  6
CONTINUOUS
 10
121.3275752009
 20
53.1336879686
 30
0.0
 11
114.2761852079
 21
126.7196181975
 31
0.0
 40
0.3814884295
 41
-3.7749362596
 42
-3.7581621904
  0
ELLIPSE
  5
546
100
AcDbEntity
  8
ASSI
100
AcDbEllipse
 62
7
  6
CONTINUOUS
 10
116.7934589343
 20
55.7516298751
 30
0.0
 11
94.077182749
 21
138.8827821588
 31
0.0
 40
0.5232362147
 41
-3.8185477191
 42
-3.8017736499
  0
ELLIPSE
  5
547
100
AcDbEntity
  8
ASSI
100
AcDbEllipse
 62
7
  6
CONTINUOUS
 10
112.94450493
 20
57.9739676785
 30
0.0
 11
10.3267110211
 21
175.9897840662
 31
0.0
 40
0.7160762854
 41
-4.1952272933
 42
-4.1842716361
  0
ELLIPSE
  5
548
100
AcDbEntity
  8
ASSI
100
AcDbEllipse
 62
7
  6
CONTINUOUS
 10
116.7790152457
 20
55.7599694799
 30
0.0
 11
74.7936860181
 21
150.0170875047
 31
0.0
 40
0.6139811386
 41
-3.8878369839
 42
-3.8769269833
  0
ELLIPSE
  5
549
100
AcDbEntity
  8
ASSI
100
AcDbEllipse
 62
7
  6
CONTINUOUS
 10
120.4210814758
 20
53.6570860845
 30
0.0
 11
119.1887867979
 21
123.8315627285
 31
0.0
 40
0.3418816387
 41
-3.7717111746
 42
-3.7624009259
  0
ELLIPSE
  5
54A
100
AcDbEntity
  8
ASSI
100
AcDbEllipse
 62
7
  6
CONTINUOUS
 10
116.9971638862
 20
55.634013189
 30
0.0
 11
111.9792925869
 21
128.0850400428
 31
0.0
 40
0.3995644544
 41
-3.7774770381
 42
-3.7659333559
  0
ELLIPSE
  5
54B
100
AcDbEntity
  8
ASSI
100
AcDbEllipse
 62
7
  6
CONTINUOUS
 10
116.587379992
 20
55.8706172737
 30
0.0
 11
39.1098980172
 21
166.4730536049
 31
0.0
 40
0.6952787603
 41
-4.0581356351
 42
-4.0519053363
  0
ELLIPSE
  5
54C
100
AcDbEntity
  8
ASSI
100
AcDbEllipse
 62
7
  6
CONTINUOUS
 10
110.7366622199
 20
59.2487483886
 30
0.0
 11
25.1749394473
 21
171.5727221992
 31
0.0
 40
0.7088651675
 41
-4.1304804737
 42
-4.1137064045
  0
ELLIPSE
  5
54D
100
AcDbEntity
  8
ASSI
100
AcDbEllipse
 62
7
  6
CONTINUOUS
 10
121.3275752009
 20
53.1336879686
 30
0.0
 11
114.1738075272
 21
126.6060927015
 31
0.0
 40
0.3814884295
 41
-3.7738993826
 42
-3.7580834622
  0
ELLIPSE
  5
54E
100
AcDbEntity
  8
ASSI
100
AcDbEllipse
 62
7
  6
CONTINUOUS
 10
116.4673851851
 20
55.9399007713
 30
0.0
 11
36.2622945329
 21
167.5495560783
 31
0.0
 40
0.6986691259
 41
-4.0631746043
 42
-4.0598210564
  0
ELLIPSE
  5
54F
100
AcDbEntity
  8
ASSI
100
AcDbEllipse
 62
7
  6
CONTINUOUS
 10
120.4210814758
 20
53.6570860845
 30
0.0
 11
119.0820080186
 21
123.7206245819
 31
0.0
 40
0.3418816387
 41
-3.7706748267
 42
-3.7623289378
  0
ELLIPSE
  5
550
100
AcDbEntity
  8
ASSI
100
AcDbEllipse
 62
7
  6
CONTINUOUS
 10
116.7790152457
 20
55.7599694799
 30
0.0
 11
74.7266798953
 21
149.8826902858
 31
0.0
 40
0.6139811386
 41
-3.8877681049
 42
-3.8768482551
  0
ELLIPSE
  5
551
100
AcDbEntity
  8
ASSI
100
AcDbEllipse
 62
7
  6
CONTINUOUS
 10
112.94450493
 20
57.9739676785
 30
0.0
 11
10.3174595334
 21
175.8321184433
 31
0.0
 40
0.7160762854
 41
-4.1951584555
 42
-4.1843498231
  0
ELLIPSE
  5
552
100
AcDbEntity
  8
ASSI
100
AcDbEllipse
 62
7
  6
CONTINUOUS
 10
116.7934589343
 20
55.7516298751
 30
0.0
 11
93.9929009386
 21
138.7583599347
 31
0.0
 40
0.5232362147
 41
-3.817510829
 42
-3.8016949217
  0
ELLIPSE
  5
553
100
AcDbEntity
  8
ASSI
100
AcDbEllipse
 62
7
  6
CONTINUOUS
 10
110.7366622199
 20
59.2487483886
 30
0.0
 11
25.1523857375
 21
171.4190137311
 31
0.0
 40
0.7088651675
 41
-4.129443597
 42
-4.1136276763
  0
ELLIPSE
  5
554
100
AcDbEntity
  8
ASSI
100
AcDbEllipse
 62
7
  6
CONTINUOUS
 10
116.9971638862
 20
55.634013189
 30
0.0
 11
111.878972645
 21
127.9702912935
 31
0.0
 40
0.3995644544
 41
-3.7764400576
 42
-3.7658593517
  0
ELLIPSE
  5
555
100
AcDbEntity
  8
ASSI
100
AcDbEllipse
 62
7
  6
CONTINUOUS
 10
72.8472491937
 20
-42.4759626029
 30
0.0
 11
5.1774686765
 21
-0.6785096723
 31
0.0
 40
0.4693271057
 41
-0.5159119978
 42
-0.0902820066
  0
ELLIPSE
  5
556
100
AcDbEntity
  8
0
100
AcDbEllipse
 62
250
  6
CONTINUOUS
 10
76.4761607308
 20
102.2730267355
 30
0.0
 11
93.7813298849
 21
139.0604789373
 31
0.0
 40
0.5249660292
 41
-3.9678902629
 42
-3.962186259
  0
ELLIPSE
  5
557
100
AcDbEntity
  8
0
100
AcDbEllipse
 62
250
  6
CONTINUOUS
 10
77.7125201968
 20
101.5591682751
 30
0.0
 11
93.7815115889
 21
139.060369839
 31
0.0
 40
0.5249649702
 41
-3.9621856681
 42
-3.9600472797
  0
ELLIPSE
  5
558
100
AcDbEntity
  8
0
100
AcDbEllipse
 62
250
  6
CONTINUOUS
 10
76.2288775789
 20
102.4158049282
 30
0.0
 11
93.7814256506
 21
139.0604214378
 31
0.0
 40
0.524965471
 41
-3.9768075958
 42
-3.9600475592
  0
ELLIPSE
  5
559
100
AcDbEntity
  8
0
100
AcDbEllipse
 62
250
  6
CONTINUOUS
 10
77.7125472279
 20
101.5591526677
 30
0.0
 11
93.7812156846
 21
139.0605475051
 31
0.0
 40
0.5249666948
 41
-3.9768082786
 42
-3.9746674414
  0
ELLIPSE
  5
55A
100
AcDbEntity
  8
0
100
AcDbEllipse
 62
250
  6
CONTINUOUS
 10
74.3331079329
 20
103.5103985623
 30
0.0
 11
93.7813828721
 21
139.0604471228
 31
0.0
 40
0.5249657204
 41
-3.9768077349
 42
-3.9750236747
  0
ELLIPSE
  5
55B
100
AcDbEntity
  8
0
100
AcDbEllipse
 62
250
  6
CONTINUOUS
 10
75.8991818689
 20
102.6061670991
 30
0.0
 11
93.7813828721
 21
139.0604471228
 31
0.0
 40
0.5249657204
 41
-3.9768077349
 42
-3.9750236747
  0
ELLIPSE
  5
55C
100
AcDbEntity
  8
0
100
AcDbEllipse
 62
250
  6
CONTINUOUS
 10
75.2397816373
 20
102.9868965287
 30
0.0
 11
93.7813884713
 21
139.060443761
 31
0.0
 40
0.5249656877
 41
-3.9750236565
 42
-3.9600476801
  0
ELLIPSE
  5
55D
100
AcDbEntity
  8
0
100
AcDbEllipse
 62
250
  6
CONTINUOUS
 10
74.9925030958
 20
103.1296720594
 30
0.0
 11
93.7814307433
 21
139.0604183801
 31
0.0
 40
0.5249654414
 41
-3.9750235191
 42
-3.9600475426
  0
ELLIPSE
  5
55E
100
AcDbEntity
  8
0
100
AcDbEllipse
 62
250
  6
CONTINUOUS
 10
76.9296956849
 20
102.0111613371
 30
0.0
 11
43.5084879569
 21
164.902888116
 31
0.0
 40
0.6893966054
 41
-4.1956584687
 42
-4.1945882917
  0
ELLIPSE
  5
55F
100
AcDbEntity
  8
0
100
AcDbEllipse
 62
250
  6
CONTINUOUS
 10
88.1814393184
 20
95.5145455807
 30
0.0
 11
-170.0841982385
 21
226.799782346
 31
0.0
 40
0.4795811407
 41
1.4291115819
 42
1.4298250883
  0
ELLIPSE
  5
560
100
AcDbEntity
  8
0
100
AcDbEllipse
 62
250
  6
CONTINUOUS
 10
112.4989049339
 20
81.4739457037
 30
0.0
 11
461.0244427499
 21
-392.1335419887
 31
0.0
 40
0.2133863435
 41
-1.7310568387
 42
-1.7307000725
  0
ELLIPSE
  5
561
100
AcDbEntity
  8
0
100
AcDbEllipse
 62
250
  6
CONTINUOUS
 10
33.9830714806
 20
126.8080039051
 30
0.0
 11
488.0738691873
 21
-120.9774792929
 31
0.0
 40
0.1923204037
 41
-1.6838915183
 42
-1.6835347521
  0
ELLIPSE
  5
562
100
AcDbEntity
  8
0
100
AcDbEllipse
 62
250
  6
CONTINUOUS
 10
58.3004682525
 20
112.7674437776
 30
0.0
 11
218.7221939969
 21
64.4788583997
 31
0.0
 40
0.1731833699
 41
-2.1096549856
 42
-2.1089414792
  0
ELLIPSE
  5
563
100
AcDbEntity
  8
0
100
AcDbEllipse
 62
250
  6
CONTINUOUS
 10
66.3374477398
 20
108.1269925486
 30
0.0
 11
146.6647555962
 21
108.3636281683
 31
0.0
 40
0.1263825083
 41
2.3279532215
 42
2.3290233985
  0
ELLIPSE
  5
564
100
AcDbEntity
  8
0
100
AcDbEllipse
 62
250
  6
CONTINUOUS
 10
70.3043978474
 20
105.8365252741
 30
0.0
 11
115.7634381698
 21
125.8404559676
 31
0.0
 40
0.3696139229
 41
-3.9266637322
 42
-3.925236978
  0
ELLIPSE
  5
565
100
AcDbEntity
  8
0
100
AcDbEllipse
 62
250
  6
CONTINUOUS
 10
72.6433950705
 20
104.486017592
 30
0.0
 11
93.7813932274
 21
139.0604409053
 31
0.0
 40
0.52496566
 41
-3.9710996602
 42
-3.9657507683
  0
ELLIPSE
  5
566
100
AcDbEntity
  8
0
100
AcDbEllipse
 62
250
  6
CONTINUOUS
 10
74.8277971053
 20
103.2247712341
 30
0.0
 11
59.868152393
 21
157.6785405544
 31
0.0
 40
0.6584582487
 41
-4.1087558034
 42
-4.1073298058
  0
ELLIPSE
  5
567
100
AcDbEntity
  8
0
100
AcDbEllipse
 62
250
  6
CONTINUOUS
 10
78.3998736489
 20
101.1622990064
 30
0.0
 11
-38.3857388891
 21
186.2700464849
 31
0.0
 40
0.7004394024
 41
-4.5580361462
 42
-4.5569667455
  0
ELLIPSE
  5
568
100
AcDbEntity
  8
0
100
AcDbEllipse
 62
250
  6
CONTINUOUS
 10
85.4408922056
 20
97.0969031364
 30
0.0
 11
-170.0852683798
 21
226.8002976472
 31
0.0
 40
0.4795792654
 41
1.440165599
 42
1.4408784883
  0
ELLIPSE
  5
569
100
AcDbEntity
  8
0
100
AcDbEllipse
 62
250
  6
CONTINUOUS
 10
106.3580572076
 20
85.0195942179
 30
0.0
 11
461.0224715011
 21
-392.132382677
 31
0.0
 40
0.2133871896
 41
-1.7189325996
 42
-1.7185761718
  0
ELLIPSE
  5
56A
100
AcDbEntity
  8
0
100
AcDbEllipse
 62
250
  6
CONTINUOUS
 10
40.1237713558
 20
123.2624407582
 30
0.0
 11
488.0738691874
 21
-120.9774792929
 31
0.0
 40
0.1923204037
 41
-1.6960155631
 42
-1.6956591353
  0
ELLIPSE
  5
56B
100
AcDbEntity
  8
0
100
AcDbEllipse
 62
250
  6
CONTINUOUS
 10
61.0410924721
 20
111.1850417013
 30
0.0
 11
218.7221939969
 21
64.4788583997
 31
0.0
 40
0.1731833699
 41
-2.1207090962
 42
-2.1199962069
  0
ELLIPSE
  5
56C
100
AcDbEntity
  8
0
100
AcDbEllipse
 62
250
  6
CONTINUOUS
 10
70.8985082442
 20
105.4934933769
 30
0.0
 11
122.1032431809
 21
122.1403601987
 31
0.0
 40
0.3180179059
 41
-3.9160145332
 42
-3.9149451326
  0
ELLIPSE
  5
56D
100
AcDbEntity
  8
0
100
AcDbEllipse
 62
250
  6
CONTINUOUS
 10
72.2888121508
 20
104.6907493258
 30
0.0
 11
111.8096486368
 21
128.1862343107
 31
0.0
 40
0.4008852251
 41
-3.9225097897
 42
-3.9207274998
  0
ELLIPSE
  5
56E
100
AcDbEntity
  8
0
100
AcDbEllipse
 62
250
  6
CONTINUOUS
 10
65.5953802658
 20
108.5554530078
 30
0.0
 11
173.0836582371
 21
93.3733779052
 31
0.0
 40
0.0279358986
 41
-2.2682121589
 42
-2.2667864963
  0
ELLIPSE
  5
56F
100
AcDbEntity
  8
0
100
AcDbEllipse
 62
250
  6
CONTINUOUS
 10
57.3934750749
 20
113.291130271
 30
0.0
 11
269.5162448436
 21
28.7278983642
 31
0.0
 40
0.230445878
 41
-1.9799069989
 42
-1.9791942188
  0
ELLIPSE
  5
570
100
AcDbEntity
  8
0
100
AcDbEllipse
 62
250
  6
CONTINUOUS
 10
33.0345398643
 20
127.3556741725
 30
0.0
 11
600.953393456
 21
-191.800521793
 31
0.0
 40
0.1620319101
 41
-1.6474247936
 42
-1.64706842
  0
ELLIPSE
  5
571
100
AcDbEntity
  8
0
100
AcDbEllipse
 62
250
  6
CONTINUOUS
 10
113.4472924822
 20
80.9263586194
 30
0.0
 11
575.9863670802
 21
-459.7018216395
 31
0.0
 40
0.173112487
 41
-1.708648271
 42
-1.7082918974
  0
ELLIPSE
  5
572
100
AcDbEntity
  8
0
100
AcDbEllipse
 62
250
  6
CONTINUOUS
 10
89.0885087721
 20
94.9908150464
 30
0.0
 11
-230.283473573
 21
258.2516823488
 31
0.0
 40
0.388116916
 41
1.4196297375
 42
1.4203425176
  0
ELLIPSE
  5
573
100
AcDbEntity
  8
0
100
AcDbEllipse
 62
250
  6
CONTINUOUS
 10
80.8865622438
 20
99.7265161772
 30
0.0
 11
-101.7151532253
 21
199.749854478
 31
0.0
 40
0.6093603887
 41
1.5306531618
 42
1.5320788243
  0
ELLIPSE
  5
574
100
AcDbEntity
  8
0
100
AcDbEllipse
 62
250
  6
CONTINUOUS
 10
76.703152212
 20
102.1419646991
 30
0.0
 11
3.2071651049
 21
177.8377483001
 31
0.0
 40
0.7173128606
 41
-4.3786052693
 42
-4.3771794536
  0
ELLIPSE
  5
575
100
AcDbEntity
  8
0
100
AcDbEllipse
 62
250
  6
CONTINUOUS
 10
74.1436900244
 20
103.6197660887
 30
0.0
 11
68.2779962659
 21
153.4826246162
 31
0.0
 40
0.6356972842
 41
-4.0693180253
 42
-4.0675355534
  0
ELLIPSE
  5
576
100
AcDbEntity
  8
0
100
AcDbEllipse
 62
250
  6
CONTINUOUS
 10
72.3961098345
 20
104.628796988
 30
0.0
 11
93.7815115889
 21
139.060369839
 31
0.0
 40
0.5249649702
 41
-3.9710992753
 42
-3.9657503834
  0
ELLIPSE
  5
577
100
AcDbEntity
  8
0
100
AcDbEllipse
 62
250
  6
CONTINUOUS
 10
70.5249486087
 20
105.7091820286
 30
0.0
 11
111.809372219
 21
128.1863992339
 31
0.0
 40
0.4008873755
 41
-3.9310685038
 42
-3.9292850305
  0
ELLIPSE
  5
578
100
AcDbEntity
  8
0
100
AcDbEllipse
 62
250
  6
CONTINUOUS
 10
67.656332046
 20
107.3654852797
 30
0.0
 11
134.3545797076
 21
115.1945301141
 31
0.0
 40
0.2185155878
 41
2.3489917782
 42
2.3504187425
  0
ELLIPSE
  5
579
100
AcDbEntity
  8
0
100
AcDbEllipse
 62
250
  6
CONTINUOUS
 10
62.7929324681
 20
110.1735512433
 30
0.0
 11
173.0836582371
 21
93.3733779052
 31
0.0
 40
0.0279358986
 41
-2.2550188794
 42
-2.2535917436
  0
ELLIPSE
  5
57A
100
AcDbEntity
  8
0
100
AcDbEllipse
 62
250
  6
CONTINUOUS
 10
52.901243609
 20
115.8848884185
 30
0.0
 11
269.517141936
 21
28.7272518037
 31
0.0
 40
0.2304463284
 41
-1.9645715973
 42
-1.9638579612
  0
ELLIPSE
  5
57B
100
AcDbEntity
  8
0
100
AcDbEllipse
 62
250
  6
CONTINUOUS
 10
22.9788084594
 20
133.1617274577
 30
0.0
 11
600.9514462195
 21
-191.7993213141
 31
0.0
 40
0.1620323673
 41
-1.631022249
 42
-1.6306654175
  0
ELLIPSE
  5
57C
100
AcDbEntity
  8
0
100
AcDbEllipse
 62
250
  6
CONTINUOUS
 10
123.5033395472
 20
75.1201230759
 30
0.0
 11
575.9883410307
 21
-459.7029806262
 31
0.0
 40
0.1731119233
 41
-1.7250518019
 42
-1.7246949703
  0
ELLIPSE
  5
57D
100
AcDbEntity
  8
0
100
AcDbEllipse
 62
250
  6
CONTINUOUS
 10
93.5806626714
 20
92.3971016848
 30
0.0
 11
-230.283473573
 21
258.2516823488
 31
0.0
 40
0.388116916
 41
1.4042956861
 42
1.4050093222
  0
ELLIPSE
  5
57E
100
AcDbEntity
  8
0
100
AcDbEllipse
 62
250
  6
CONTINUOUS
 10
83.6890512467
 20
98.1083941504
 30
0.0
 11
-101.7158281359
 21
199.7500508451
 31
0.0
 40
0.6093591253
 41
1.5174569474
 42
1.5188840831
  0
ELLIPSE
  5
57F
100
AcDbEntity
  8
0
100
AcDbEllipse
 62
250
  6
CONTINUOUS
 10
75.9075507987
 20
102.601334984
 30
0.0
 11
68.2785985895
 21
153.4823126798
 31
0.0
 40
0.6356954522
 41
-4.0778745832
 42
-4.0760908998
  0
ELLIPSE
  5
580
100
AcDbEntity
  8
0
100
AcDbEllipse
 62
250
  6
CONTINUOUS
 10
74.52565884
 20
103.3992220817
 30
0.0
 11
43.5079433679
 21
164.9031080549
 31
0.0
 40
0.6893973944
 41
-4.1974449634
 42
-4.1878152968
  0
ELLIPSE
  5
581
100
AcDbEntity
  8
0
100
AcDbEllipse
 62
250
  6
CONTINUOUS
 10
67.9586792407
 20
107.1909137988
 30
0.0
 11
122.1032906666
 21
122.1403327789
 31
0.0
 40
0.318017516
 41
-3.9270701973
 42
-3.9174405307
  0
ELLIPSE
  5
582
100
AcDbEntity
  8
0
100
AcDbEllipse
 62
250
  6
CONTINUOUS
 10
74.8164876941
 20
103.2313011463
 30
0.0
 11
41.9779527662
 21
165.515720652
 31
0.0
 40
0.691558876
 41
-4.2063210484
 42
-4.1895610118
  0
ELLIPSE
  5
583
100
AcDbEntity
  8
0
100
AcDbEllipse
 62
250
  6
CONTINUOUS
 10
74.5119119803
 20
103.4071593463
 30
0.0
 11
43.5081816259
 21
164.9030118317
 31
0.0
 40
0.6893970492
 41
-4.1863881393
 42
-4.1821110332
  0
ELLIPSE
  5
584
100
AcDbEntity
  8
0
100
AcDbEllipse
 62
250
  6
CONTINUOUS
 10
67.9724103444
 20
107.1829856316
 30
0.0
 11
122.1033500238
 21
122.1402985041
 31
0.0
 40
0.3180170286
 41
-3.9160145329
 42
-3.9117374269
  0
ELLIPSE
  5
585
100
AcDbEntity
  8
0
100
AcDbEllipse
 62
250
  6
CONTINUOUS
 10
67.6678487558
 20
107.3588356758
 30
0.0
 11
122.6326329822
 21
121.8349435996
 31
0.0
 40
0.3136701383
 41
-3.9285124884
 42
-3.9117524518
  0
ELLIPSE
  5
586
100
AcDbEntity
  8
0
100
AcDbEllipse
 62
250
  6
CONTINUOUS
 10
96.424728248
 20
90.7549738654
 30
0.0
 11
346.116982495
 21
-324.6682229078
 31
0.0
 40
0.2767051061
 41
-1.7315283578
 42
-1.7311717911
  0
ELLIPSE
  5
587
100
AcDbEntity
  8
0
100
AcDbEllipse
 62
250
  6
CONTINUOUS
 10
78.6199090579
 20
101.035253319
 30
0.0
 11
-101.7157550301
 21
199.7500295746
 31
0.0
 40
0.6093592621
 41
1.5260174196
 42
1.5267305116
  0
ELLIPSE
  5
588
100
AcDbEntity
  8
0
100
AcDbEllipse
 62
250
  6
CONTINUOUS
 10
72.7397621428
 20
104.4303764522
 30
0.0
 11
43.5084879569
 21
164.902888116
 31
0.0
 40
0.6893966054
 41
-4.188525705
 42
-4.1874561335
  0
ELLIPSE
  5
589
100
AcDbEntity
  8
0
100
AcDbEllipse
 62
250
  6
CONTINUOUS
 10
69.8409858279
 20
106.1040935662
 30
0.0
 11
93.7809197788
 21
139.060725172
 31
0.0
 40
0.5249684194
 41
-3.9653957958
 42
-3.9643263104
  0
ELLIPSE
  5
58A
100
AcDbEntity
  8
0
100
AcDbEllipse
 62
250
  6
CONTINUOUS
 10
66.9833230506
 20
107.7540722389
 30
0.0
 11
122.1032431809
 21
122.1403601987
 31
0.0
 40
0.3180179059
 41
-3.9160145332
 42
-3.9149451326
  0
ELLIPSE
  5
58B
100
AcDbEntity
  8
0
100
AcDbEllipse
 62
250
  6
CONTINUOUS
 10
61.3504976139
 20
111.0063950502
 30
0.0
 11
173.0836342077
 21
93.373392027
 31
0.0
 40
0.0279357855
 41
-2.2667865707
 42
-2.2660736814
  0
ELLIPSE
  5
58C
100
AcDbEntity
  8
0
100
AcDbEllipse
 62
250
  6
CONTINUOUS
 10
44.6166248101
 20
120.6683234824
 30
0.0
 11
377.0485461051
 21
-47.5525496774
 31
0.0
 40
0.2269613516
 41
-1.7895681591
 42
-1.7892117313
  0
ELLIPSE
  5
58D
100
AcDbEntity
  8
0
100
AcDbEllipse
 62
250
  6
CONTINUOUS
 10
68.8106344653
 20
106.6990055296
 30
0.0
 11
93.7813932274
 21
139.0604409053
 31
0.0
 40
0.52496566
 41
-3.9675334864
 42
-3.962186053
  0
ELLIPSE
  5
58E
100
AcDbEntity
  8
0
100
AcDbEllipse
 62
250
  6
CONTINUOUS
 10
68.8106385968
 20
106.6990031442
 30
0.0
 11
93.7813498975
 21
139.0604669213
 31
0.0
 40
0.5249659126
 41
-3.974667005
 42
-3.9696732118
  0
ELLIPSE
  5
58F
100
AcDbEntity
  8
0
100
AcDbEllipse
 62
250
  6
CONTINUOUS
 10
42.0202141457
 20
122.1674584593
 30
0.0
 11
377.0485461051
 21
-47.5525496774
 31
0.0
 40
0.2269613516
 41
-1.7820811413
 42
-1.7817245107
  0
ELLIPSE
  5
590
100
AcDbEntity
  8
0
100
AcDbEllipse
 62
250
  6
CONTINUOUS
 10
60.4850362018
 20
111.5061016227
 30
0.0
 11
173.0836342077
 21
93.373392027
 31
0.0
 40
0.0279357855
 41
-2.2592993501
 42
-2.2585860525
  0
ELLIPSE
  5
591
100
AcDbEntity
  8
0
100
AcDbEllipse
 62
250
  6
CONTINUOUS
 10
66.6948141633
 20
107.9206536545
 30
0.0
 11
122.103420061
 21
122.1402580623
 31
0.0
 40
0.3180164536
 41
-3.9235027755
 42
-3.9224327611
  0
ELLIPSE
  5
592
100
AcDbEntity
  8
0
100
AcDbEllipse
 62
250
  6
CONTINUOUS
 10
69.8409655038
 20
106.1041053011
 30
0.0
 11
93.7811897969
 21
139.0605630485
 31
0.0
 40
0.5249668457
 41
-3.9725270759
 42
-3.9718136751
  0
ELLIPSE
  5
593
100
AcDbEntity
  8
0
100
AcDbEllipse
 62
250
  6
CONTINUOUS
 10
73.0145649424
 20
104.2717087597
 30
0.0
 11
43.5072626278
 21
164.9033829783
 31
0.0
 40
0.6893983807
 41
-4.1956644338
 42
-4.1945942568
  0
ELLIPSE
  5
594
100
AcDbEntity
  8
0
100
AcDbEllipse
 62
250
  6
CONTINUOUS
 10
79.4440865707
 20
100.5593835524
 30
0.0
 11
-101.7145514237
 21
199.7496793835
 31
0.0
 40
0.6093615153
 41
1.5188868481
 42
1.5196003545
  0
ELLIPSE
  5
595
100
AcDbEntity
  8
0
100
AcDbEllipse
 62
250
  6
CONTINUOUS
 10
98.897924439
 20
89.3269813811
 30
0.0
 11
346.1226067412
 21
-324.6715108661
 31
0.0
 40
0.2767011407
 41
-1.7386614606
 42
-1.7383046943
  0
ELLIPSE
  5
596
100
AcDbEntity
  8
0
100
AcDbEllipse
 62
250
  6
CONTINUOUS
 10
119.6291955257
 20
77.3570052795
 30
0.0
 11
575.9863670803
 21
-459.7018216395
 31
0.0
 40
0.173112487
 41
-1.725051934
 42
-1.7246951025
  0
ELLIPSE
  5
597
100
AcDbEntity
  8
0
100
AcDbEllipse
 62
250
  6
CONTINUOUS
 10
83.0573131882
 20
98.4731517878
 30
0.0
 11
-148.857799135
 21
217.0409448996
 31
0.0
 40
0.5183102665
 41
1.44440288
 42
1.4454733149
  0
ELLIPSE
  5
598
100
AcDbEntity
  8
0
100
AcDbEllipse
 62
250
  6
CONTINUOUS
 10
77.3112292871
 20
101.790868617
 30
0.0
 11
-56.7378376742
 21
189.5072070011
 31
0.0
 40
0.681169693
 41
-4.6373949057
 42
-4.635967807
  0
ELLIPSE
  5
599
100
AcDbEntity
  8
0
100
AcDbEllipse
 62
250
  6
CONTINUOUS
 10
73.2755358734
 20
104.1210274149
 30
0.0
 11
43.5081952279
 21
164.9030063383
 31
0.0
 40
0.6893970295
 41
-4.1960166386
 42
-4.1949464359
  0
ELLIPSE
  5
59A
100
AcDbEntity
  8
0
100
AcDbEllipse
 62
250
  6
CONTINUOUS
 10
70.0881993457
 20
105.9613555793
 30
0.0
 11
93.7816336518
 21
139.0602965502
 31
0.0
 40
0.5249642588
 41
-3.9728823516
 42
-3.9714555498
  0
ELLIPSE
  5
59B
100
AcDbEntity
  8
0
100
AcDbEllipse
 62
250
  6
CONTINUOUS
 10
66.9558481403
 20
107.7699359078
 30
0.0
 11
122.1032431809
 21
122.1403601987
 31
0.0
 40
0.3180179059
 41
-3.9231460942
 42
-3.9220761047
  0
ELLIPSE
  5
59C
100
AcDbEntity
  8
0
100
AcDbEllipse
 62
250
  6
CONTINUOUS
 10
63.0918865015
 20
110.0009389312
 30
0.0
 11
152.9957110199
 21
104.8453546306
 31
0.0
 40
0.0837733809
 41
2.3162360592
 42
2.3176625673
  0
ELLIPSE
  5
59D
100
AcDbEntity
  8
0
100
AcDbEllipse
 62
250
  6
CONTINUOUS
 10
51.7060003459
 20
116.5750068987
 30
0.0
 11
269.5180801439
 21
28.72657561
 31
0.0
 40
0.2304467995
 41
-1.9717032899
 42
-1.9713466896
  0
ELLIPSE
  5
59E
100
AcDbEntity
  8
0
100
AcDbEllipse
 62
250
  6
CONTINUOUS
 10
87.9756235647
 20
95.6333810174
 30
0.0
 11
-230.2815859862
 21
258.2506410183
 31
0.0
 40
0.3881193532
 41
1.4121436517
 42
1.4125002481
  0
ELLIPSE
  5
59F
100
AcDbEntity
  8
0
100
AcDbEllipse
 62
250
  6
CONTINUOUS
 10
76.6930274702
 20
102.1478105982
 30
0.0
 11
-56.7375218097
 21
189.5071495856
 31
0.0
 40
0.6811700822
 41
-4.6302600041
 42
-4.6288337355
  0
ELLIPSE
  5
5A0
100
AcDbEntity
  8
0
100
AcDbEllipse
 62
250
  6
CONTINUOUS
 10
73.0008249712
 20
104.2796420469
 30
0.0
 11
43.5072626278
 21
164.9033829783
 31
0.0
 40
0.6893983807
 41
-4.1888882112
 42
-4.1878186107
  0
ELLIPSE
  5
5A1
100
AcDbEntity
  8
0
100
AcDbEllipse
 62
250
  6
CONTINUOUS
 10
70.0882198343
 20
105.9613437495
 30
0.0
 11
93.781413938
 21
139.0604284703
 31
0.0
 40
0.5249655393
 41
-3.965750701
 42
-3.9639682291
  0
ELLIPSE
  5
5A2
100
AcDbEntity
  8
0
100
AcDbEllipse
 62
250
  6
CONTINUOUS
 10
67.2442865993
 20
107.6033951565
 30
0.0
 11
122.103670552
 21
122.1401134207
 31
0.0
 40
0.3180143969
 41
-3.9156580578
 42
-3.9145886852
  0
ELLIPSE
  5
5A3
100
AcDbEntity
  8
0
100
AcDbEllipse
 62
250
  6
CONTINUOUS
 10
63.7410123189
 20
109.6261418197
 30
0.0
 11
152.9954398537
 21
104.8455059189
 31
0.0
 40
0.0837751299
 41
2.3237241592
 42
2.3251498642
  0
ELLIPSE
  5
5A4
100
AcDbEntity
  8
0
100
AcDbEllipse
 62
250
  6
CONTINUOUS
 10
58.9324577521
 20
112.4025409612
 30
0.0
 11
202.7646449178
 21
75.0424444824
 31
0.0
 40
0.1361336765
 41
-2.1736455873
 42
-2.1725764067
  0
ELLIPSE
  5
5A5
100
AcDbEntity
  8
0
100
AcDbEllipse
 62
250
  6
CONTINUOUS
 10
29.1607055806
 20
129.5923775373
 30
0.0
 11
600.9514462195
 21
-191.7993213141
 31
0.0
 40
0.1620323673
 41
-1.6474254541
 42
-1.6470690805
  0
ELLIPSE
  5
5A6
100
AcDbEntity
  8
0
100
AcDbEllipse
 62
250
  6
CONTINUOUS
 10
68.5633571169
 20
106.8417803715
 30
0.0
 11
93.7814256506
 21
139.0604214378
 31
0.0
 40
0.524965471
 41
-3.9768075958
 42
-3.9600475592
  0
ELLIPSE
  5
5A7
100
AcDbEntity
  8
0
100
AcDbEllipse
 62
250
  6
CONTINUOUS
 10
70.0897131827
 20
105.9604815088
 30
0.0
 11
-22.3413290313
 21
183.3614793488
 31
0.0
 40
0.7115375175
 41
-4.5048370306
 42
-4.488076994
  0
ELLIPSE
  5
5A8
100
AcDbEntity
  8
0
100
AcDbEllipse
 62
250
  6
CONTINUOUS
 10
60.9227076376
 20
111.253395621
 30
0.0
 11
112.006102841
 21
128.0690516521
 31
0.0
 40
0.3993555306
 41
-3.9347454556
 42
-3.917985419
  0
ELLIPSE
  5
5A9
100
AcDbEntity
  8
0
100
AcDbEllipse
 62
250
  6
CONTINUOUS
 10
66.7675115255
 20
107.8786791087
 30
0.0
 11
32.8018561849
 21
168.9721845822
 31
0.0
 40
0.7023711659
 41
-4.2509361663
 42
-4.2341761297
  0
ELLIPSE
  5
5AA
100
AcDbEntity
  8
0
100
AcDbEllipse
 62
250
  6
CONTINUOUS
 10
78.0557369835
 20
101.360999204
 30
0.0
 11
122.1032906666
 21
122.1403327789
 31
0.0
 40
0.318017516
 41
-3.9270701973
 42
-3.9174405307
  0
ELLIPSE
  5
5AB
100
AcDbEntity
  8
0
100
AcDbEllipse
 62
250
  6
CONTINUOUS
 10
84.6227103232
 20
97.5693111011
 30
0.0
 11
43.5080795154
 21
164.9030530702
 31
0.0
 40
0.6893971972
 41
-4.1974443006
 42
-4.187814634
  0
ELLIPSE
  5
5AC
100
AcDbEntity
  8
0
100
AcDbEllipse
 62
250
  6
CONTINUOUS
 10
82.7404504887
 20
98.6561043393
 30
0.0
 11
93.7814130743
 21
139.0604289889
 31
0.0
 40
0.5249655443
 41
-3.9768076367
 42
-3.9621859884
  0
ELLIPSE
  5
5AD
100
AcDbEntity
  8
0
100
AcDbEllipse
 62
250
  6
CONTINUOUS
 10
83.976816648
 20
97.9422420142
 30
0.0
 11
93.7815115889
 21
139.060369839
 31
0.0
 40
0.5249649702
 41
-3.9621856681
 42
-3.9600472797
  0
ELLIPSE
  5
5AE
100
AcDbEntity
  8
0
100
AcDbEllipse
 62
250
  6
CONTINUOUS
 10
82.4931740301
 20
98.7988786674
 30
0.0
 11
93.7814256506
 21
139.0604214378
 31
0.0
 40
0.524965471
 41
-3.9768075958
 42
-3.9600475592
  0
ELLIPSE
  5
5AF
100
AcDbEntity
  8
0
100
AcDbEllipse
 62
250
  6
CONTINUOUS
 10
84.9135476789
 20
97.401385257
 30
0.0
 11
41.977873471
 21
165.5157521285
 31
0.0
 40
0.6915589852
 41
-4.2063214345
 42
-4.1895613978
  0
ELLIPSE
  5
5B0
100
AcDbEntity
  8
0
100
AcDbEllipse
 62
250
  6
CONTINUOUS
 10
84.6089805664
 20
97.5772384906
 30
0.0
 11
43.5078752941
 21
164.9031355473
 31
0.0
 40
0.6893974931
 41
-4.1863896306
 42
-4.1821125245
  0
ELLIPSE
  5
5B1
100
AcDbEntity
  8
0
100
AcDbEllipse
 62
250
  6
CONTINUOUS
 10
78.0694673801
 20
101.353071445
 30
0.0
 11
122.1033500238
 21
122.1402985041
 31
0.0
 40
0.3180170286
 41
-3.9160145329
 42
-3.9117374269
  0
ELLIPSE
  5
5B2
100
AcDbEntity
  8
0
100
AcDbEllipse
 62
250
  6
CONTINUOUS
 10
77.7649057915
 20
101.5289214892
 30
0.0
 11
122.6326329822
 21
121.8349435996
 31
0.0
 40
0.3136701383
 41
-3.9285124884
 42
-3.9117524518
  0
ELLIPSE
  5
5B3
100
AcDbEntity
  8
0
100
AcDbEllipse
 62
250
  6
CONTINUOUS
 10
78.0422267563
 20
101.3687998398
 30
0.0
 11
93.7814256506
 21
139.0604214378
 31
0.0
 40
0.524965471
 41
-3.9768075958
 42
-3.9600475592
  0
ELLIPSE
  5
5B4
100
AcDbEntity
  8
0
100
AcDbEllipse
 62
250
  6
CONTINUOUS
 10
78.2895011817
 20
101.2260266856
 30
0.0
 11
93.781427045
 21
139.0604206006
 31
0.0
 40
0.5249654629
 41
-3.9675333764
 42
-3.9600475546
  0
ELLIPSE
  5
5B5
100
AcDbEntity
  8
0
100
AcDbEllipse
 62
250
  6
CONTINUOUS
 10
82.3972721215
 20
98.8542512275
 30
0.0
 11
32.8464080978
 21
168.9562840178
 31
0.0
 40
0.7023269622
 41
-4.241445895
 42
-4.2339600732
  0
ELLIPSE
  5
5B6
100
AcDbEntity
  8
0
100
AcDbEllipse
 62
250
  6
CONTINUOUS
 10
82.7693873698
 20
98.6393965468
 30
0.0
 11
30.4147628249
 21
169.8119089774
 31
0.0
 40
0.7046298028
 41
-4.2539391307
 42
-4.245740158
  0
ELLIPSE
  5
5B7
100
AcDbEntity
  8
0
100
AcDbEllipse
 62
250
  6
CONTINUOUS
 10
61.1851079894
 20
111.1018889465
 30
0.0
 11
269.5153477517
 21
28.728544924
 31
0.0
 40
0.2304454275
 41
-1.9720666059
 42
-1.9713534092
  0
ELLIPSE
  5
5B8
100
AcDbEntity
  8
0
100
AcDbEllipse
 62
250
  6
CONTINUOUS
 10
72.5707170702
 20
104.5279809584
 30
0.0
 11
152.9960409622
 21
104.8451705499
 31
0.0
 40
0.0837712528
 41
2.3162352298
 42
2.3176617379
  0
ELLIPSE
  5
5B9
100
AcDbEntity
  8
0
100
AcDbEllipse
 62
250
  6
CONTINUOUS
 10
76.4347184868
 20
102.2969549678
 30
0.0
 11
122.1032431809
 21
122.1403601987
 31
0.0
 40
0.3180179059
 41
-3.9231460942
 42
-3.9220761047
  0
ELLIPSE
  5
5BA
100
AcDbEntity
  8
0
100
AcDbEllipse
 62
250
  6
CONTINUOUS
 10
79.5670696922
 20
100.4883746394
 30
0.0
 11
93.7816336518
 21
139.0602965502
 31
0.0
 40
0.5249642588
 41
-3.9728823516
 42
-3.9714555498
  0
ELLIPSE
  5
5BB
100
AcDbEntity
  8
0
100
AcDbEllipse
 62
250
  6
CONTINUOUS
 10
82.754460907
 20
98.6480148994
 30
0.0
 11
43.5069698887
 21
164.9035012031
 31
0.0
 40
0.6893988048
 41
-4.1960226038
 42
-4.194952401
  0
ELLIPSE
  5
5BC
100
AcDbEntity
  8
0
100
AcDbEllipse
 62
250
  6
CONTINUOUS
 10
86.7900989265
 20
96.3178880853
 30
0.0
 11
-56.7378376742
 21
189.5072070011
 31
0.0
 40
0.681169693
 41
-4.6373949057
 42
-4.635967807
  0
ELLIPSE
  5
5BD
100
AcDbEntity
  8
0
100
AcDbEllipse
 62
250
  6
CONTINUOUS
 10
92.5361264909
 20
93.0002037843
 30
0.0
 11
-148.8570529486
 21
217.0406198145
 31
0.0
 40
0.5183116761
 41
1.4444036242
 42
1.445474059
  0
ELLIPSE
  5
5BE
100
AcDbEntity
  8
0
100
AcDbEllipse
 62
250
  6
CONTINUOUS
 10
129.1082370047
 20
71.8839255299
 30
0.0
 11
575.9883410307
 21
-459.7029806262
 31
0.0
 40
0.1731119233
 41
-1.7250518019
 42
-1.7246949703
  0
ELLIPSE
  5
5BF
100
AcDbEntity
  8
0
100
AcDbEllipse
 62
250
  6
CONTINUOUS
 10
80.1852757842
 20
100.1314301898
 30
0.0
 11
93.7814256506
 21
139.0604214378
 31
0.0
 40
0.524965471
 41
-3.9768075958
 42
-3.9600475592
  0
ELLIPSE
  5
5C0
100
AcDbEntity
  8
0
100
AcDbEllipse
 62
250
  6
CONTINUOUS
 10
79.9380012499
 20
100.2742034069
 30
0.0
 11
93.7814256506
 21
139.0604214378
 31
0.0
 40
0.524965471
 41
-3.9768075958
 42
-3.9600475592
  0
ELLIPSE
  5
5C1
100
AcDbEntity
  8
0
100
AcDbEllipse
 62
250
  6
CONTINUOUS
 10
78.2895034677
 20
101.2260253657
 30
0.0
 11
93.7814035827
 21
139.0604346878
 31
0.0
 40
0.5249655997
 41
-3.9750236074
 42
-3.9696730372
  0
ELLIPSE
  5
5C2
100
AcDbEntity
  8
0
100
AcDbEllipse
 62
250
  6
CONTINUOUS
 10
51.4992421896
 20
116.6943864669
 30
0.0
 11
377.0466644618
 21
-47.5512593942
 31
0.0
 40
0.2269618914
 41
-1.7820833616
 42
-1.7817267311
  0
ELLIPSE
  5
5C3
100
AcDbEntity
  8
0
100
AcDbEllipse
 62
250
  6
CONTINUOUS
 10
69.9639058412
 20
106.0331210911
 30
0.0
 11
173.0836342077
 21
93.373392027
 31
0.0
 40
0.0279357855
 41
-2.2592993501
 42
-2.2585860525
  0
ELLIPSE
  5
5C4
100
AcDbEntity
  8
0
100
AcDbEllipse
 62
250
  6
CONTINUOUS
 10
76.1736838027
 20
102.4476731229
 30
0.0
 11
122.103420061
 21
122.1402580623
 31
0.0
 40
0.3180164536
 41
-3.9235027755
 42
-3.9224327611
  0
ELLIPSE
  5
5C5
100
AcDbEntity
  8
0
100
AcDbEllipse
 62
250
  6
CONTINUOUS
 10
79.3198105148
 20
100.6311389896
 30
0.0
 11
93.7814598123
 21
139.0604009266
 31
0.0
 40
0.5249652719
 41
-3.9728829169
 42
-3.9718127969
  0
ELLIPSE
  5
5C6
100
AcDbEntity
  8
0
100
AcDbEllipse
 62
250
  6
CONTINUOUS
 10
82.5071856657
 20
98.7907885246
 30
0.0
 11
43.5069698887
 21
164.9035012031
 31
0.0
 40
0.6893988048
 41
-4.1960226038
 42
-4.194952401
  0
ELLIPSE
  5
5C7
100
AcDbEntity
  8
0
100
AcDbEllipse
 62
250
  6
CONTINUOUS
 10
88.9641685529
 20
95.0626075306
 30
0.0
 11
-101.7145514237
 21
199.7496793835
 31
0.0
 40
0.6093615153
 41
1.5185300819
 42
1.5192436096
  0
ELLIPSE
  5
5C8
100
AcDbEntity
  8
0
100
AcDbEllipse
 62
250
  6
CONTINUOUS
 10
108.5004316991
 20
83.7826140368
 30
0.0
 11
346.1226067412
 21
-324.6715108661
 31
0.0
 40
0.2767011407
 41
-1.7390182376
 42
-1.7386614606
  0
ELLIPSE
  5
5C9
100
AcDbEntity
  8
0
100
AcDbEllipse
 62
250
  6
CONTINUOUS
 10
76.4761527213
 20
102.2730313601
 30
0.0
 11
93.7814245244
 21
139.060422114
 31
0.0
 40
0.5249654776
 41
-3.9746667623
 42
-3.9700295996
  0
ELLIPSE
  5
5CA
100
AcDbEntity
  8
0
100
AcDbEllipse
 62
250
  6
CONTINUOUS
 10
77.5476691137
 20
101.6543512244
 30
0.0
 11
93.7815115889
 21
139.060369839
 31
0.0
 40
0.5249649702
 41
-3.9700293165
 42
-3.967889672
  0
ENDSEC
  0
SECTION
  2
OBJECTS
  0
DICTIONARY
  5
C
100
AcDbDictionary
280
0
281
1
  3
ACAD_GROUP
350
D
  3
ACAD_MLINESTYLE
350
17
  3
ACAD_LAYOUT
350
1A
  3
ACAD_PLOTSETTINGS
350
19
  3
ACAD_PLOTSTYLENAME
350
E
  0
DICTIONARY
  5
D
102
{ACAD_REACTORS
330
C
102
}
100
AcDbDictionary
280
0
281
1
  0
ACDBDICTIONARYWDFLT
  5
E
102
{ACAD_REACTORS
330
C
102
}
100
AcDbDictionary
281
1
  3
Normal
350
F
100
AcDbDictionaryWithDefault
340
F
  0
DICTIONARY
  5
17
102
{ACAD_REACTORS
330
C
102
}
100
AcDbDictionary
280
0
281
1
  3
Standard
350
18
  0
DICTIONARY
  5
19
102
{ACAD_REACTORS
330
C
102
}
100
AcDbDictionary
281
1
  0
DICTIONARY
  5
1A
102
{ACAD_REACTORS
330
C
102
}
100
AcDbDictionary
281
1
  3
Model
350
5CB
  3
Layout1
350
5CC
  0
ACDBPLACEHOLDER
  5
F
102
{ACAD_REACTORS
330
E
102
}
  0
MLINESTYLE
  5
18
102
{ACAD_REACTORS
330
17
102
}
100
AcDbMlineStyle
  2
STANDARD
 70
0
  3

 62
256
 51
90.0
 52
90.0
 71
2
 49
0.5
 62
256
  6
BYLAYER
 49
-0.5
 62
256
  6
BYLAYER
  0
LAYOUT
  5
5CB
102
{ACAD_REACTORS
330
1A
102
}
100
AcDbPlotSettings
  1

  2
none_device
  4
ISO_A4_(297.00_x_210.00_MM)
  6

 40
0.0
 41
0.0
 42
0.0
 43
0.0
 44
297.0
 45
210.0
 46
0.0
 47
0.0
 48
0.0
 49
0.0
140
0.0
141
0.0
142
1.0
143
1.0
 70
1024
 72
1
 73
0
 74
0
  7

 75
0
147
1.0
148
0.0
149
0.0
100
AcDbLayout
  1
Model
 70
0
 71
0
 10
0.0
 20
0.0
 11
297.0
 21
210.0
 12
0.0
 22
0.0
 32
0.0
 14
0.0
 24
0.0
 34
0.0
 15
0.0
 25
0.0
 35
0.0
146
0.0
 13
0.0
 23
0.0
 33
0.0
 16
1.0
 26
0.0
 36
0.0
 17
0.0
 27
1.0
 37
0.0
 76
0
330
214
345
0
346
0
  0
LAYOUT
  5
5CC
102
{ACAD_REACTORS
330
1A
102
}
100
AcDbPlotSettings
  1

  2
none_device
  4
ISO_A4_(297.00_x_210.00_MM)
  6

 40
0.0
 41
0.0
 42
0.0
 43
0.0
 44
297.0
 45
210.0
 46
0.0
 47
0.0
 48
0.0
 49
0.0
140
0.0
141
0.0
142
1.0
143
1.0
 70
0
 72
1
 73
0
 74
0
  7

 75
0
147
1.0
148
0.0
149
0.0
100
AcDbLayout
  1
Layout1
 70
0
 71
1
 10
0.0
 20
0.0
 11
297.0
 21
210.0
 12
0.0
 22
0.0
 32
0.0
 14
0.0
 24
0.0
 34
0.0
 15
0.0
 25
0.0
 35
0.0
146
0.0
 13
0.0
 23
0.0
 33
0.0
 16
1.0
 26
0.0
 36
0.0
 17
0.0
 27
1.0
 37
0.0
 76
0
330
215
345
0
346
0
  0
ENDSEC
  0
EOF
