  0
SECTION
  2
HEADER
  9
$ACADVER
  1
AC1024
  9
$DWGCODEPAGE
  3
ANSI_1252
  9
$EXTMAX
 10
297.0
 20
210.0
 30
0.0
  9
$EXTMIN
 10
0.0
 20
0.0
 30
0.0
  9
$LIMMIN
 10
0.0
 20
0.0
  9
$LIMMAX
 10
297.0
 20
210.0
  9
$VIEWCTR
 10
148.5
 20
105.0
  9
$VIEWSIZE
 40
210.0
  9
$CLAYER
  8
0
  9
$LTSCALE
 40
16.335
  9
$CELTYPE
  6
BYLAYER
  9
$DIMSCALE
 40
1.0
  9
$DIMASZ
 40
3.0
  9
$DIMEXO
 40
0.5
  9
$DIMDLI
 40
11.286
  9
$DIMEXE
 40
1.5
  9
$DIMCEN
 40
2.673
  9
$DIMLFAC
 40
1.0
  9
$DIMBLK
  1
_FILLED
  9
$DIMALT
 70
0
  9
$DIMALTF
 40
0.0393700787
  9
$DIMTXT
 40
3.0
  9
$DIMTOL
 70
1
  9
$DIMLIM
 70
0
  9
$DIMTFAC
 40
1.0
  9
$DIMTP
 40
0.01
  9
$DIMTM
 40
0.01
  9
$DIMGAP
 40
0.625
  9
$DIMDSEP
 70
44
  9
$AUNITS
 70
0
  9
$PDMODE
 70
3
  9
$PDSIZE
 40
3.0
  9
$HANDSEED
  5
612
  9
$TILEMODE
 70
1
  9
$MEASUREMENT
 70
1
  9
$INSUNITS
 70
4
  0
ENDSEC
  0
SECTION
  2
CLASSES
  0
CLASS
  1
ACDBDICTIONARYWDFLT
  2
AcDbDictionaryWithDefault
  3
AutoCAD 2000
 90
0
 91
1
280
0
281
0
  0
CLASS
  1
ACDBPLACEHOLDER
  2
AcDbPlaceHolder
  3
AutoCAD 2000
 90
0
 91
1
280
0
281
0
  0
CLASS
  1
LAYOUT
  2
AcDbLayout
  3
AutoCAD 2000
 90
0
 91
0
280
0
281
0
  0
ENDSEC
  0
SECTION
  2
TABLES
  0
TABLE
  2
VPORT
  5
8
100
AcDbSymbolTable
 70
2
  0
VPORT
  5
1F4
100
AcDbSymbolTableRecord
100
AcDbViewportTableRecord
  2
*ACTIVE
 70
0
 10
0.0
 20
0.0
 11
1.0
 21
1.0
 12
148.5
 22
105.0
 13
0.0
 23
0.0
 14
1.0
 24
1.0
 15
0.0
 25
0.0
 16
0.0
 26
0.0
 36
1.0
 17
0.0
 27
0.0
 37
0.0
 40
210.0
 41
1.4142857143
 42
50.0
 43
0.0
 44
0.0
 50
0.0
 51
0.0
 71
0
 72
100
 73
1
 74
1
 75
0
 76
0
 77
0
 78
0
  0
ENDTAB
  0
TABLE
  2
LTYPE
  5
5
100
AcDbSymbolTable
 70
6
  0
LTYPE
  5
14
100
AcDbSymbolTableRecord
100
AcDbLinetypeTableRecord
  2
BYBLOCK
 70
0
  3

 72
65
 73
0
 40
0.0
  0
LTYPE
  5
15
100
AcDbSymbolTableRecord
100
AcDbLinetypeTableRecord
  2
BYLAYER
 70
0
  3

 72
65
 73
0
 40
0.0
  0
LTYPE
  5
16
100
AcDbSymbolTableRecord
100
AcDbLinetypeTableRecord
  2
CONTINUOUS
 70
64
  3
Solid line
 72
65
 73
0
 40
0.0
  0
LTYPE
  5
1F5
100
AcDbSymbolTableRecord
100
AcDbLinetypeTableRecord
  2
CENTER
 70
64
  3
____ _ ____ _ ____ _ ____ _ ____ _ ____ _ ____
 72
65
 73
4
 40
0.6
 49
0.375
 74
0
 49
-0.075
 74
0
 49
0.075
 74
0
 49
-0.075
 74
0
  0
LTYPE
  5
1F6
100
AcDbSymbolTableRecord
100
AcDbLinetypeTableRecord
  2
HIDDEN
 70
64
  3
- - - - - - - - - - - - - - - - - - - -
 72
65
 73
2
 40
0.2
 49
0.1
 74
0
 49
-0.1
 74
0
  0
LTYPE
  5
1F7
100
AcDbSymbolTableRecord
100
AcDbLinetypeTableRecord
  2
PHANTOM
 70
64
  3
_____ _ _ _____ _ _ _____ _ _ _____
 72
65
 73
6
 40
0.8
 49
0.45
 74
0
 49
-0.05
 74
0
 49
0.1
 74
0
 49
-0.05
 74
0
 49
0.1
 74
0
 49
-0.05
 74
0
  0
LTYPE
  5
1F8
100
AcDbSymbolTableRecord
100
AcDbLinetypeTableRecord
  2
DOT
 70
64
  3
. . . . . . . . . . . . . . . . . . . .
 72
65
 73
2
 40
0.2
 49
0.1
 74
0
 49
-0.1
 74
0
  0
LTYPE
  5
1F9
100
AcDbSymbolTableRecord
100
AcDbLinetypeTableRecord
  2
DASHED
 70
64
  3
- - - - - - - - - - - - - - - - - - - -
 72
65
 73
2
 40
0.2
 49
0.1
 74
0
 49
-0.1
 74
0
  0
ENDTAB
  0
TABLE
  2
LAYER
  5
2
100
AcDbSymbolTable
 70
36
  0
LAYER
  5
10
100
AcDbSymbolTableRecord
100
AcDbLayerTableRecord
  2
0
 70
0
 62
7
  6
CONTINUOUS
370
-3
390
F
  0
LAYER
  5
1FA
100
AcDbSymbolTableRecord
100
AcDbLayerTableRecord
  2
DEFAULT_1
 70
0
 62
7
  6
CENTER
370
-3
390
F
  0
LAYER
  5
1FB
100
AcDbSymbolTableRecord
100
AcDbLayerTableRecord
  2
DEFAULT_2
 70
0
 62
7
  6
HIDDEN
370
-3
390
F
  0
LAYER
  5
1FC
100
AcDbSymbolTableRecord
100
AcDbLayerTableRecord
  2
DEFAULT_3
 70
0
 62
7
  6
PHANTOM
370
-3
390
F
  0
LAYER
  5
1FD
100
AcDbSymbolTableRecord
100
AcDbLayerTableRecord
  2
ASSI
 70
0
 62
7
  6
CONTINUOUS
370
-3
390
F
  0
LAYER
  5
1FE
100
AcDbSymbolTableRecord
100
AcDbLayerTableRecord
  2
COORDINATE
 70
0
 62
7
  6
CONTINUOUS
370
-3
390
F
  0
LAYER
  5
1FF
100
AcDbSymbolTableRecord
100
AcDbLayerTableRecord
  2
COPY_PUBLISH
 70
0
 62
7
  6
CONTINUOUS
370
-3
390
F
  0
LAYER
  5
200
100
AcDbSymbolTableRecord
100
AcDbLayerTableRecord
  2
COSMETIC
 70
0
 62
7
  6
CONTINUOUS
370
-3
390
F
  0
LAYER
  5
201
100
AcDbSymbolTableRecord
100
AcDbLayerTableRecord
  2
COSMETICI
 70
0
 62
7
  6
CONTINUOUS
370
-3
390
F
  0
LAYER
  5
202
100
AcDbSymbolTableRecord
100
AcDbLayerTableRecord
  2
CURVE
 70
0
 62
7
  6
CONTINUOUS
370
-3
390
F
  0
LAYER
  5
203
100
AcDbSymbolTableRecord
100
AcDbLayerTableRecord
  2
CURVE_VERNICE
 70
0
 62
7
  6
CONTINUOUS
370
-3
390
F
  0
LAYER
  5
204
100
AcDbSymbolTableRecord
100
AcDbLayerTableRecord
  2
DRAFT
 70
0
 62
7
  6
CONTINUOUS
370
-3
390
F
  0
LAYER
  5
205
100
AcDbSymbolTableRecord
100
AcDbLayerTableRecord
  2
IMPORT_IGES
 70
0
 62
7
  6
CONTINUOUS
370
-3
390
F
  0
LAYER
  5
206
100
AcDbSymbolTableRecord
100
AcDbLayerTableRecord
  2
INTFCLR_1
 70
0
 62
7
  6
CONTINUOUS
370
-3
390
F
  0
LAYER
  5
207
100
AcDbSymbolTableRecord
100
AcDbLayerTableRecord
  2
INTF_1
 70
0
 62
7
  6
CONTINUOUS
370
-3
390
F
  0
LAYER
  5
208
100
AcDbSymbolTableRecord
100
AcDbLayerTableRecord
  2
NOTE
 70
0
 62
7
  6
CONTINUOUS
370
-3
390
F
  0
LAYER
  5
209
100
AcDbSymbolTableRecord
100
AcDbLayerTableRecord
  2
PIANI
 70
0
 62
7
  6
CONTINUOUS
370
-3
390
F
  0
LAYER
  5
20A
100
AcDbSymbolTableRecord
100
AcDbLayerTableRecord
  2
PUNTI
 70
0
 62
7
  6
CONTINUOUS
370
-3
390
F
  0
LAYER
  5
20B
100
AcDbSymbolTableRecord
100
AcDbLayerTableRecord
  2
RACCORDO
 70
0
 62
7
  6
CONTINUOUS
370
-3
390
F
  0
LAYER
  5
20C
100
AcDbSymbolTableRecord
100
AcDbLayerTableRecord
  2
SIMBOLI
 70
0
 62
7
  6
CONTINUOUS
370
-3
390
F
  0
LAYER
  5
20D
100
AcDbSymbolTableRecord
100
AcDbLayerTableRecord
  2
SMUSSO
 70
0
 62
7
  6
CONTINUOUS
370
-3
390
F
  0
LAYER
  5
20E
100
AcDbSymbolTableRecord
100
AcDbLayerTableRecord
  2
SNAPLINE
 70
0
 62
7
  6
CONTINUOUS
370
-3
390
F
  0
LAYER
  5
20F
100
AcDbSymbolTableRecord
100
AcDbLayerTableRecord
  2
SUPERFICI
 70
0
 62
7
  6
CONTINUOUS
370
-3
390
F
  0
LAYER
  5
210
100
AcDbSymbolTableRecord
100
AcDbLayerTableRecord
  2
TRASH
 70
0
 62
7
  6
CONTINUOUS
370
-3
390
F
  0
LAYER
  5
211
100
AcDbSymbolTableRecord
100
AcDbLayerTableRecord
  2
XSEC_DATUMS
 70
0
 62
7
  6
CONTINUOUS
370
-3
390
F
  0
ENDTAB
  0
TABLE
  2
STYLE
  5
3
100
AcDbSymbolTable
 70
1
  0
STYLE
  5
11
100
AcDbSymbolTableRecord
100
AcDbTextStyleTableRecord
  2
STANDARD
 70
0
 40
0.0
 41
0.8
 50
0.0
 71
0
 42
0.2
  3
txt
  4

  0
STYLE
  5
212
100
AcDbSymbolTableRecord
100
AcDbTextStyleTableRecord
  2
TEXTSTYLE_1
 70
0
 40
0.0
 41
0.8
 50
0.0
 71
0
 42
0.2
  3
gdt
  4

  0
ENDTAB
  0
TABLE
  2
VIEW
  5
6
100
AcDbSymbolTable
 70
0
  0
ENDTAB
  0
TABLE
  2
UCS
  5
7
100
AcDbSymbolTable
 70
0
  0
ENDTAB
  0
TABLE
  2
APPID
  5
9
100
AcDbSymbolTable
 70
1
  0
APPID
  5
213
100
AcDbSymbolTableRecord
100
AcDbRegAppTableRecord
  2
ACAD
 70
0
  0
ENDTAB
  0
TABLE
  2
BLOCK_RECORD
  5
1
100
AcDbSymbolTable
 70
0
  0
BLOCK_RECORD
  5
214
100
AcDbSymbolTableRecord
100
AcDbBlockTableRecord
  2
*Model_Space
  0
BLOCK_RECORD
  5
215
100
AcDbSymbolTableRecord
100
AcDbBlockTableRecord
  2
*Paper_Space
  0
BLOCK_RECORD
  5
216
100
AcDbSymbolTableRecord
100
AcDbBlockTableRecord
  2
_FILLED
  0
ENDTAB
  0
TABLE
  2
DIMSTYLE
  5
A
100
AcDbSymbolTable
 70
1
100
AcDbDimStyleTable
 71
0
  0
DIMSTYLE
105
217
100
AcDbSymbolTableRecord
100
AcDbDimStyleTableRecord
  2
STANDARD
 70
0
  3

  4

 40
1.0
 41
3.0
 42
0.5
 43
0.38
 44
1.5
 45
0.0
 46
0.0
 47
0.01
 48
0.01
140
3.0
141
0.09
142
0.0
143
25.4
144
1.0
145
0.0
146
1.0
147
0.625
 71
1
 72
0
 73
0
 74
0
 75
0
 76
0
 77
1
 78
8
 79
2
170
0
171
1
172
0
173
0
174
0
175
0
176
0
177
0
178
0
270
2
179
2
271
2
272
2
273
2
274
2
275
0
280
0
281
0
282
0
283
1
284
8
285
0
286
0
287
3
288
0
340
11
278
44
341
216
342
216
343
216
344
216
  0
ENDTAB
  0
ENDSEC
  0
SECTION
  2
BLOCKS
  0
BLOCK
  5
20
100
AcDbEntity
  8
0
100
AcDbBlockBegin
  2
*Model_Space
 70
0
 10
0.0
 20
0.0
 30
0.0
  3
*Model_Space
  1

  0
ENDBLK
  5
21
100
AcDbEntity
  8
0
100
AcDbBlockEnd
  0
BLOCK
  5
1C
100
AcDbEntity
  8
0
100
AcDbBlockBegin
  2
*Paper_Space
 70
0
 10
0.0
 20
0.0
 30
0.0
  3
*Paper_Space
  1

  0
ENDBLK
  5
1D
100
AcDbEntity
  8
0
100
AcDbBlockEnd
  0
BLOCK
  5
218
100
AcDbEntity
  8
0
100
AcDbBlockBegin
  2
_FILLED
 70
64
 10
0.0
 20
0.0
  3
_FILLED
  1

  0
SOLID
  5
219
100
AcDbEntity
  8
0
  6
BYBLOCK
 62
0
100
AcDbTrace
 10
0.0
 20
0.0
 11
-1.0
 21
0.3166666667
 12
-1.0
 22
-0.3166666667
 13
-1.0
 23
-0.3166666667
  0
ENDBLK
  5
21A
100
AcDbEntity
  8
0
  6
BYBLOCK
 62
0
100
AcDbBlockEnd
  0
ENDSEC
  0
SECTION
  2
ENTITIES
  0
LWPOLYLINE
  5
21B
100
AcDbEntity
  8
RACCORDO
100
AcDbPolyline
 62
7
  6
CONTINUOUS
 90
16
 70
0
 10
-72.8635454976
 20
78.9898665617
 10
-72.8879684159
 20
78.9717643081
 10
-72.9197672648
 20
78.9453328795
 10
-72.9501562279
 20
78.9166334207
 10
-72.9790313724
 20
78.8857289436
 10
-73.0062926064
 20
78.8526985335
 10
-73.0318565063
 20
78.8176096449
 10
-73.0556622399
 20
78.780497642
 10
-73.0776374811
 20
78.7414260332
 10
-73.0977093972
 20
78.7004699776
 10
-73.1158213151
 20
78.6576655751
 10
-73.1319037
 20
78.6130753671
 10
-73.1458942807
 20
78.5667578922
 10
-73.1577362504
 20
78.5187282498
 10
-73.1673568766
 20
78.4690328116
 10
-73.1724353988
 20
78.4354972417
  0
LWPOLYLINE
  5
21C
100
AcDbEntity
  8
ASSI
100
AcDbPolyline
 62
7
  6
CONTINUOUS
 90
16
 70
0
 10
-72.8635454976
 20
78.9898665617
 10
-72.8879684159
 20
78.9717643081
 10
-72.9197672648
 20
78.9453328795
 10
-72.9501562279
 20
78.9166334207
 10
-72.9790313724
 20
78.8857289436
 10
-73.0062926064
 20
78.8526985335
 10
-73.0318565063
 20
78.8176096449
 10
-73.0556622399
 20
78.780497642
 10
-73.0776374811
 20
78.7414260332
 10
-73.0977093972
 20
78.7004699776
 10
-73.1158213151
 20
78.6576655751
 10
-73.1319037
 20
78.6130753671
 10
-73.1458942807
 20
78.5667578922
 10
-73.1577362504
 20
78.5187282498
 10
-73.1673568766
 20
78.4690328116
 10
-73.1724353988
 20
78.4354972417
  0
LINE
  5
21D
100
AcDbEntity
  8
RACCORDO
100
AcDbLine
 62
7
  6
CONTINUOUS
 10
-72.8638346646
 20
78.9896656925
 11
-71.2555906217
 21
80.1236608488
  0
LINE
  5
21E
100
AcDbEntity
  8
ASSI
100
AcDbLine
 62
7
  6
CONTINUOUS
 10
-72.8638346646
 20
78.9896656925
 11
-71.2555906217
 21
80.1236608488
  0
LINE
  5
21F
100
AcDbEntity
  8
RACCORDO
100
AcDbLine
 62
250
  6
CONTINUOUS
 10
-72.3056830191
 20
78.9797089312
 11
-70.7306039432
 21
80.0903190097
  0
LINE
  5
220
100
AcDbEntity
  8
ASSI
100
AcDbLine
 62
250
  6
CONTINUOUS
 10
-72.3056830191
 20
78.9797089312
 11
-70.7306039432
 21
80.0903190097
  0
LWPOLYLINE
  5
221
100
AcDbEntity
  8
RACCORDO
100
AcDbPolyline
 62
250
  6
CONTINUOUS
 90
12
 70
0
 10
-74.7196779336
 20
59.9138000939
 10
-74.8366158332
 20
56.7565251852
 10
-74.9323096618
 20
53.6116695314
 10
-75.0067497708
 20
50.479456086
 10
-75.0599284428
 20
47.3600679354
 10
-75.0918382797
 20
44.2537657935
 10
-75.1024750126
 20
41.1608864051
 10
-75.0918382738
 20
38.0816482092
 10
-75.0599284327
 20
35.0162682219
 10
-75.0067497586
 20
31.9650767619
 10
-74.93230965
 20
28.9283255009
 10
-74.8366158254
 20
25.9061891115
  0
LWPOLYLINE
  5
222
100
AcDbEntity
  8
ASSI
100
AcDbPolyline
 62
250
  6
CONTINUOUS
 90
12
 70
0
 10
-74.7196779336
 20
59.9138000939
 10
-74.8366158332
 20
56.7565251852
 10
-74.9323096618
 20
53.6116695314
 10
-75.0067497708
 20
50.479456086
 10
-75.0599284428
 20
47.3600679354
 10
-75.0918382797
 20
44.2537657935
 10
-75.1024750126
 20
41.1608864051
 10
-75.0918382738
 20
38.0816482092
 10
-75.0599284327
 20
35.0162682219
 10
-75.0067497586
 20
31.9650767619
 10
-74.93230965
 20
28.9283255009
 10
-74.8366158254
 20
25.9061891115
  0
LWPOLYLINE
  5
223
100
AcDbEntity
  8
RACCORDO
100
AcDbPolyline
 62
7
  6
CONTINUOUS
 90
13
 70
0
 10
-74.8075696495
 20
60.0359234203
 10
-74.9226000462
 20
56.9349573387
 10
-75.0189627682
 20
53.7790780286
 10
-75.0939239834
 20
50.6360131648
 10
-75.1474762538
 20
47.5060129962
 10
-75.1796165836
 20
44.3892965777
 10
-75.1903429701
 20
41.2860708534
 10
-75.1796538336
 20
38.1965512386
 10
-75.147550034
 20
35.1209515759
 10
-75.0940328531
 20
32.0594766572
 10
-75.0191045643
 20
29.0123421161
 10
-74.9227718831
 20
25.9797891323
 10
-74.8075423973
 20
23.0207543545
  0
LWPOLYLINE
  5
224
100
AcDbEntity
  8
ASSI
100
AcDbPolyline
 62
7
  6
CONTINUOUS
 90
13
 70
0
 10
-74.8075696495
 20
60.0359234203
 10
-74.9226000462
 20
56.9349573387
 10
-75.0189627682
 20
53.7790780286
 10
-75.0939239834
 20
50.6360131648
 10
-75.1474762538
 20
47.5060129962
 10
-75.1796165836
 20
44.3892965777
 10
-75.1903429701
 20
41.2860708534
 10
-75.1796538336
 20
38.1965512386
 10
-75.147550034
 20
35.1209515759
 10
-75.0940328531
 20
32.0594766572
 10
-75.0191045643
 20
29.0123421161
 10
-74.9227718831
 20
25.9797891323
 10
-74.8075423973
 20
23.0207543545
  0
LWPOLYLINE
  5
225
100
AcDbEntity
  8
RACCORDO
100
AcDbPolyline
 62
250
  6
CONTINUOUS
 90
10
 70
0
 10
-73.083907828
 20
78.3182391687
 10
-73.3554535296
 20
76.2301204895
 10
-73.6046559155
 20
74.1518307737
 10
-73.831462098
 20
72.0837879218
 10
-74.0358215962
 20
70.0264103584
 10
-74.2176935263
 20
67.9801095475
 10
-74.3770461913
 20
65.945290095
 10
-74.5138477082
 20
63.9223594606
 10
-74.6280664345
 20
61.9117276881
 10
-74.7196778616
 20
59.9138000523
  0
LWPOLYLINE
  5
226
100
AcDbEntity
  8
ASSI
100
AcDbPolyline
 62
250
  6
CONTINUOUS
 90
10
 70
0
 10
-73.083907828
 20
78.3182391687
 10
-73.3554535296
 20
76.2301204895
 10
-73.6046559155
 20
74.1518307737
 10
-73.831462098
 20
72.0837879218
 10
-74.0358215962
 20
70.0264103584
 10
-74.2176935263
 20
67.9801095475
 10
-74.3770461913
 20
65.945290095
 10
-74.5138477082
 20
63.9223594606
 10
-74.6280664345
 20
61.9117276881
 10
-74.7196778616
 20
59.9138000523
  0
LWPOLYLINE
  5
227
100
AcDbEntity
  8
RACCORDO
100
AcDbPolyline
 62
7
  6
CONTINUOUS
 90
10
 70
0
 10
-73.1724382348
 20
78.4354998518
 10
-73.4369013312
 20
76.4037523187
 10
-73.6883117712
 20
74.3109180644
 10
-73.9170190282
 20
72.2284011096
 10
-74.1229660215
 20
70.1566838496
 10
-74.3061142246
 20
68.0961642137
 10
-74.4664296193
 20
66.0472103357
 10
-74.6038777978
 20
64.0102203978
 10
-74.7184288734
 20
61.9856657673
 10
-74.8075696487
 20
60.0359233709
  0
LWPOLYLINE
  5
228
100
AcDbEntity
  8
ASSI
100
AcDbPolyline
 62
7
  6
CONTINUOUS
 90
10
 70
0
 10
-73.1724382348
 20
78.4354998518
 10
-73.4369013312
 20
76.4037523187
 10
-73.6883117712
 20
74.3109180644
 10
-73.9170190282
 20
72.2284011096
 10
-74.1229660215
 20
70.1566838496
 10
-74.3061142246
 20
68.0961642137
 10
-74.4664296193
 20
66.0472103357
 10
-74.6038777978
 20
64.0102203978
 10
-74.7184288734
 20
61.9856657673
 10
-74.8075696487
 20
60.0359233709
  0
LWPOLYLINE
  5
229
100
AcDbEntity
  8
RACCORDO
100
AcDbPolyline
 62
250
  6
CONTINUOUS
 90
19
 70
0
 10
-72.5031875255
 20
78.6655367369
 10
-72.499757708
 20
78.685254305
 10
-72.4951983359
 20
78.7052816185
 10
-72.4895345059
 20
78.7255084229
 10
-72.4827973949
 20
78.7458233648
 10
-72.4750240888
 20
78.766114605
 10
-72.4662573784
 20
78.7862704337
 10
-72.4565455234
 20
78.8061798866
 10
-72.4459419876
 20
78.8257333544
 10
-72.4345051447
 20
78.844823186
 10
-72.4222979555
 20
78.863344284
 10
-72.4093876227
 20
78.8811946805
 10
-72.395845222
 20
78.8982760983
 10
-72.3817453074
 20
78.9144944953
 10
-72.367165503
 20
78.92976058
 10
-72.3521860779
 20
78.9439903012
 10
-72.3368895
 20
78.957105315
 10
-72.3213599817
 20
78.9690334158
 10
-72.3056830193
 20
78.9797089313
  0
LWPOLYLINE
  5
22A
100
AcDbEntity
  8
ASSI
100
AcDbPolyline
 62
250
  6
CONTINUOUS
 90
19
 70
0
 10
-72.5031875255
 20
78.6655367369
 10
-72.499757708
 20
78.685254305
 10
-72.4951983359
 20
78.7052816185
 10
-72.4895345059
 20
78.7255084229
 10
-72.4827973949
 20
78.7458233648
 10
-72.4750240888
 20
78.766114605
 10
-72.4662573784
 20
78.7862704337
 10
-72.4565455234
 20
78.8061798866
 10
-72.4459419876
 20
78.8257333544
 10
-72.4345051447
 20
78.844823186
 10
-72.4222979555
 20
78.863344284
 10
-72.4093876227
 20
78.8811946805
 10
-72.395845222
 20
78.8982760983
 10
-72.3817453074
 20
78.9144944953
 10
-72.367165503
 20
78.92976058
 10
-72.3521860779
 20
78.9439903012
 10
-72.3368895
 20
78.957105315
 10
-72.3213599817
 20
78.9690334158
 10
-72.3056830193
 20
78.9797089313
  0
LWPOLYLINE
  5
22B
100
AcDbEntity
  8
RACCORDO
100
AcDbPolyline
 62
250
  6
CONTINUOUS
 90
9
 70
0
 10
-74.7196778621
 20
22.8988793632
 10
-74.6280664299
 20
21.0184281195
 10
-74.5138477009
 20
19.1542541065
 10
-74.3770461866
 20
17.3067342954
 10
-74.217693539
 20
15.4762468907
 10
-74.0358216397
 20
13.663157828
 10
-73.8314621641
 20
11.8678210035
 10
-73.6046559817
 20
10.0905959725
 10
-73.3554535755
 20
8.3318475719
  0
LWPOLYLINE
  5
22C
100
AcDbEntity
  8
ASSI
100
AcDbPolyline
 62
250
  6
CONTINUOUS
 90
9
 70
0
 10
-74.7196778621
 20
22.8988793632
 10
-74.6280664299
 20
21.0184281195
 10
-74.5138477009
 20
19.1542541065
 10
-74.3770461866
 20
17.3067342954
 10
-74.217693539
 20
15.4762468907
 10
-74.0358216397
 20
13.663157828
 10
-73.8314621641
 20
11.8678210035
 10
-73.6046559817
 20
10.0905959725
 10
-73.3554535755
 20
8.3318475719
  0
LWPOLYLINE
  5
22D
100
AcDbEntity
  8
RACCORDO
100
AcDbPolyline
 62
7
  6
CONTINUOUS
 90
10
 70
0
 10
-74.8075423973
 20
23.0207544425
 10
-74.7186567184
 20
21.189939957
 10
-74.6041195522
 20
19.3114499638
 10
-74.4666644786
 20
17.4497531573
 10
-74.3063179791
 20
15.6052853717
 10
-74.1231109808
 20
13.7784026431
 10
-73.9170738767
 20
11.9694299458
 10
-73.6882414425
 20
10.1787167727
 10
-73.4366671196
 20
8.4066744109
 10
-73.1712129825
 20
6.7075415276
  0
LWPOLYLINE
  5
22E
100
AcDbEntity
  8
ASSI
100
AcDbPolyline
 62
7
  6
CONTINUOUS
 90
10
 70
0
 10
-74.8075423973
 20
23.0207544425
 10
-74.7186567184
 20
21.189939957
 10
-74.6041195522
 20
19.3114499638
 10
-74.4666644786
 20
17.4497531573
 10
-74.3063179791
 20
15.6052853717
 10
-74.1231109808
 20
13.7784026431
 10
-73.9170738767
 20
11.9694299458
 10
-73.6882414425
 20
10.1787167727
 10
-73.4366671196
 20
8.4066744109
 10
-73.1712129825
 20
6.7075415276
  0
LINE
  5
22F
100
AcDbEntity
  8
RACCORDO
100
AcDbLine
 62
7
  6
CONTINUOUS
 10
-74.8075342506
 20
23.0205666036
 11
-74.8075423973
 21
23.0207544425
  0
LINE
  5
230
100
AcDbEntity
  8
RACCORDO
100
AcDbLine
 62
250
  6
CONTINUOUS
 10
-74.8366158254
 20
25.9061891115
 11
-74.7196779341
 21
22.8988794048
  0
LINE
  5
231
100
AcDbEntity
  8
ASSI
100
AcDbLine
 62
250
  6
CONTINUOUS
 10
-74.8366158254
 20
25.9061891115
 11
-74.7196779341
 21
22.8988794048
  0
LWPOLYLINE
  5
232
100
AcDbEntity
  8
RACCORDO
100
AcDbPolyline
 62
250
  6
CONTINUOUS
 90
19
 70
0
 10
-56.8830427314
 20
49.6151997792
 10
-56.8518114674
 20
49.6405351859
 10
-56.8189949872
 20
49.6629831579
 10
-56.784594706
 20
49.682542958
 10
-56.7485178455
 20
49.699264946
 10
-56.7108597678
 20
49.713097418
 10
-56.6719041904
 20
49.723886495
 10
-56.6316307013
 20
49.7316024262
 10
-56.590062262
 20
49.7362736405
 10
-56.547547839
 20
49.7378334328
 10
-56.5040573771
 20
49.7362375124
 10
-56.4596231296
 20
49.731529033
 10
-56.4146875546
 20
49.7237724414
 10
-56.3692427604
 20
49.712916386
 10
-56.3232982386
 20
49.6990113923
 10
-56.2773224057
 20
49.6822747834
 10
-56.2314716755
 20
49.6627788587
 10
-56.1855904464
 20
49.6404508998
 10
-56.1396789193
 20
49.6152908032
  0
LWPOLYLINE
  5
233
100
AcDbEntity
  8
ASSI
100
AcDbPolyline
 62
250
  6
CONTINUOUS
 90
19
 70
0
 10
-56.8830427314
 20
49.6151997792
 10
-56.8518114674
 20
49.6405351859
 10
-56.8189949872
 20
49.6629831579
 10
-56.784594706
 20
49.682542958
 10
-56.7485178455
 20
49.699264946
 10
-56.7108597678
 20
49.713097418
 10
-56.6719041904
 20
49.723886495
 10
-56.6316307013
 20
49.7316024262
 10
-56.590062262
 20
49.7362736405
 10
-56.547547839
 20
49.7378334328
 10
-56.5040573771
 20
49.7362375124
 10
-56.4596231296
 20
49.731529033
 10
-56.4146875546
 20
49.7237724414
 10
-56.3692427604
 20
49.712916386
 10
-56.3232982386
 20
49.6990113923
 10
-56.2773224057
 20
49.6822747834
 10
-56.2314716755
 20
49.6627788587
 10
-56.1855904464
 20
49.6404508998
 10
-56.1396789193
 20
49.6152908032
  0
LWPOLYLINE
  5
234
100
AcDbEntity
  8
RACCORDO
100
AcDbPolyline
 62
250
  6
CONTINUOUS
 90
5
 70
0
 10
-56.2777823579
 20
49.372667264
 10
-56.2580014131
 20
49.3884241996
 10
-56.2371254228
 20
49.4024886867
 10
-56.2151994636
 20
49.4148206615
 10
-56.2046986214
 20
49.4199365903
  0
LWPOLYLINE
  5
235
100
AcDbEntity
  8
ASSI
100
AcDbPolyline
 62
250
  6
CONTINUOUS
 90
5
 70
0
 10
-56.2777823579
 20
49.372667264
 10
-56.2580014131
 20
49.3884241996
 10
-56.2371254228
 20
49.4024886867
 10
-56.2151994636
 20
49.4148206615
 10
-56.2046986214
 20
49.4199365903
  0
LINE
  5
236
100
AcDbEntity
  8
0
100
AcDbLine
 62
250
  6
CONTINUOUS
 10
-56.4186690249
 20
49.0304138001
 11
-55.8853622605
 21
49.2770023675
  0
LINE
  5
237
100
AcDbEntity
  8
ASSI
100
AcDbLine
 62
250
  6
CONTINUOUS
 10
-56.4186690249
 20
49.0304138001
 11
-55.8853622605
 21
49.2770023675
  0
LWPOLYLINE
  5
238
100
AcDbEntity
  8
RACCORDO
100
AcDbPolyline
 62
7
  6
CONTINUOUS
 90
4
 70
0
 10
-73.1652395594
 20
6.6746374475
 10
-73.1539801419
 20
6.6247545045
 10
-73.1402668209
 20
6.5751634749
 10
-73.1242527501
 20
6.5258685102
  0
LWPOLYLINE
  5
239
100
AcDbEntity
  8
ASSI
100
AcDbPolyline
 62
7
  6
CONTINUOUS
 90
4
 70
0
 10
-73.1652395594
 20
6.6746374475
 10
-73.1539801419
 20
6.6247545045
 10
-73.1402668209
 20
6.5751634749
 10
-73.1242527501
 20
6.5258685102
  0
LWPOLYLINE
  5
23A
100
AcDbEntity
  8
RACCORDO
100
AcDbPolyline
 62
250
  6
CONTINUOUS
 90
10
 70
0
 10
-72.5031875255
 20
5.7846524
 10
-72.4997576606
 20
5.768895367
 10
-72.4951982267
 20
5.7541330053
 10
-72.4895343252
 20
5.7404465867
 10
-72.4827971376
 20
5.7279114596
 10
-72.4750237546
 20
5.7165966344
 10
-72.4662569713
 20
5.706564403
 10
-72.4565450519
 20
5.6978699962
 10
-72.4459414638
 20
5.6905612799
 10
-72.4445881342
 20
5.6897656549
  0
LWPOLYLINE
  5
23B
100
AcDbEntity
  8
ASSI
100
AcDbPolyline
 62
250
  6
CONTINUOUS
 90
10
 70
0
 10
-72.5031875255
 20
5.7846524
 10
-72.4997576606
 20
5.768895367
 10
-72.4951982267
 20
5.7541330053
 10
-72.4895343252
 20
5.7404465867
 10
-72.4827971376
 20
5.7279114596
 10
-72.4750237546
 20
5.7165966344
 10
-72.4662569713
 20
5.706564403
 10
-72.4565450519
 20
5.6978699962
 10
-72.4459414638
 20
5.6905612799
 10
-72.4445881342
 20
5.6897656549
  0
LWPOLYLINE
  5
23C
100
AcDbEntity
  8
RACCORDO
100
AcDbPolyline
 62
250
  6
CONTINUOUS
 90
28
 70
0
 10
-73.083907828
 20
6.5919326325
 10
-73.0779984353
 20
6.5606289001
 10
-73.070471214
 20
6.5286917764
 10
-73.0613263951
 20
6.4961210821
 10
-73.0505196634
 20
6.4627984764
 10
-73.0380957413
 20
6.4288419841
 10
-73.0241886255
 20
6.3946058084
 10
-73.0087801576
 20
6.3600829714
 10
-72.9918893471
 20
6.3252797847
 10
-72.973706334
 20
6.2905700773
 10
-72.9542221842
 20
6.2559633604
 10
-72.9334469823
 20
6.221449219
 10
-72.9115996989
 20
6.1873713531
 10
-72.8886724608
 20
6.1537359044
 10
-72.864674417
 20
6.1205357268
 10
-72.8398502686
 20
6.0880944331
 10
-72.8141943743
 20
6.0564201614
 10
-72.7877136277
 20
6.0255037861
 10
-72.7606716347
 20
5.9956429433
 10
-72.7330629621
 20
5.9668465233
 10
-72.7048941294
 20
5.9391047784
 10
-72.6764466909
 20
5.9126873719
 10
-72.6477149942
 20
5.8876049343
 10
-72.6187054909
 20
5.8638462038
 10
-72.589717845
 20
5.841648042
 10
-72.5608520901
 20
5.8210892877
 10
-72.5320086151
 20
5.8020907682
 10
-72.5031875255
 20
5.7846524
  0
LWPOLYLINE
  5
23D
100
AcDbEntity
  8
ASSI
100
AcDbPolyline
 62
250
  6
CONTINUOUS
 90
28
 70
0
 10
-73.083907828
 20
6.5919326325
 10
-73.0779984353
 20
6.5606289001
 10
-73.070471214
 20
6.5286917764
 10
-73.0613263951
 20
6.4961210821
 10
-73.0505196634
 20
6.4627984764
 10
-73.0380957413
 20
6.4288419841
 10
-73.0241886255
 20
6.3946058084
 10
-73.0087801576
 20
6.3600829714
 10
-72.9918893471
 20
6.3252797847
 10
-72.973706334
 20
6.2905700773
 10
-72.9542221842
 20
6.2559633604
 10
-72.9334469823
 20
6.221449219
 10
-72.9115996989
 20
6.1873713531
 10
-72.8886724608
 20
6.1537359044
 10
-72.864674417
 20
6.1205357268
 10
-72.8398502686
 20
6.0880944331
 10
-72.8141943743
 20
6.0564201614
 10
-72.7877136277
 20
6.0255037861
 10
-72.7606716347
 20
5.9956429433
 10
-72.7330629621
 20
5.9668465233
 10
-72.7048941294
 20
5.9391047784
 10
-72.6764466909
 20
5.9126873719
 10
-72.6477149942
 20
5.8876049343
 10
-72.6187054909
 20
5.8638462038
 10
-72.589717845
 20
5.841648042
 10
-72.5608520901
 20
5.8210892877
 10
-72.5320086151
 20
5.8020907682
 10
-72.5031875255
 20
5.7846524
  0
LINE
  5
23E
100
AcDbEntity
  8
RACCORDO
100
AcDbLine
 62
7
  6
CONTINUOUS
 10
-73.1712418826
 20
6.7077350867
 11
-73.1652395594
 21
6.6746374475
  0
LINE
  5
23F
100
AcDbEntity
  8
ASSI
100
AcDbLine
 62
7
  6
CONTINUOUS
 10
-73.1712418826
 20
6.7077350867
 11
-73.1652395594
 21
6.6746374475
  0
LINE
  5
240
100
AcDbEntity
  8
RACCORDO
100
AcDbLine
 62
7
  6
CONTINUOUS
 10
-73.171210474
 20
6.7075419367
 11
-73.1712418826
 21
6.7077350867
  0
LINE
  5
241
100
AcDbEntity
  8
ASSI
100
AcDbLine
 62
7
  6
CONTINUOUS
 10
-73.171210474
 20
6.7075419367
 11
-73.1712418826
 21
6.7077350867
  0
LINE
  5
242
100
AcDbEntity
  8
RACCORDO
100
AcDbLine
 62
250
  6
CONTINUOUS
 10
-73.3554535755
 20
8.3318475719
 11
-73.083907828
 21
6.5919326325
  0
LINE
  5
243
100
AcDbEntity
  8
ASSI
100
AcDbLine
 62
250
  6
CONTINUOUS
 10
-73.3554535755
 20
8.3318475719
 11
-73.083907828
 21
6.5919326325
  0
LINE
  5
244
100
AcDbEntity
  8
RACCORDO
100
AcDbLine
 62
250
  6
CONTINUOUS
 10
-57.5020752405
 20
30.9986365682
 11
-57.4910812459
 21
33.9815778073
  0
LINE
  5
245
100
AcDbEntity
  8
ASSI
100
AcDbLine
 62
250
  6
CONTINUOUS
 10
-57.5020752405
 20
30.9986365682
 11
-57.4910812459
 21
33.9815778073
  0
LWPOLYLINE
  5
246
100
AcDbEntity
  8
RACCORDO
100
AcDbPolyline
 62
250
  6
CONTINUOUS
 90
6
 70
0
 10
-57.4910812459
 20
33.9815778073
 10
-57.4581001629
 20
36.975755593
 10
-57.4031343755
 20
39.980973316
 10
-57.3261874247
 20
42.9970335583
 10
-57.2272640062
 20
46.0237381074
 10
-57.1063702949
 20
49.060888031
  0
LWPOLYLINE
  5
247
100
AcDbEntity
  8
ASSI
100
AcDbPolyline
 62
250
  6
CONTINUOUS
 90
6
 70
0
 10
-57.4910812459
 20
33.9815778073
 10
-57.4581001629
 20
36.975755593
 10
-57.4031343755
 20
39.980973316
 10
-57.3261874247
 20
42.9970335583
 10
-57.2272640062
 20
46.0237381074
 10
-57.1063702949
 20
49.060888031
  0
LINE
  5
248
100
AcDbEntity
  8
0
100
AcDbLine
 62
250
  6
CONTINUOUS
 10
-57.5177064929
 20
53.2612493922
 11
-57.5743398795
 21
52.2904150326
  0
LINE
  5
249
100
AcDbEntity
  8
0
100
AcDbLine
 62
250
  6
CONTINUOUS
 10
-56.373290728
 20
51.5969442943
 11
-56.3166573414
 21
52.567778654
  0
LINE
  5
24A
100
AcDbEntity
  8
0
100
AcDbLine
 62
250
  6
CONTINUOUS
 10
-57.4418664952
 20
53.3050305722
 11
-57.4989882902
 21
52.3339141906
  0
LINE
  5
24B
100
AcDbEntity
  8
0
100
AcDbLine
 62
250
  6
CONTINUOUS
 10
-56.4392388713
 20
51.7220281696
 11
-56.3821170763
 21
52.6931445512
  0
LWPOLYLINE
  5
24C
100
AcDbEntity
  8
RACCORDO
100
AcDbPolyline
 62
250
  6
CONTINUOUS
 90
16
 70
0
 10
-57.1063702949
 20
49.060888031
 10
-57.1036023588
 20
49.1066639065
 10
-57.0990539226
 20
49.1515846314
 10
-57.092724935
 20
49.1956502319
 10
-57.0846197766
 20
49.2390292826
 10
-57.0747339295
 20
49.2815532788
 10
-57.0630541488
 20
49.3227165477
 10
-57.0495325535
 20
49.3625036573
 10
-57.0342172251
 20
49.4009299337
 10
-57.0172391778
 20
49.4375356773
 10
-56.9985567507
 20
49.4722716477
 10
-56.9782121211
 20
49.5051868154
 10
-56.9564623478
 20
49.5359686483
 10
-56.9333934171
 20
49.5645128127
 10
-56.9089200965
 20
49.5909232496
 10
-56.8830427314
 20
49.6151997792
  0
LWPOLYLINE
  5
24D
100
AcDbEntity
  8
ASSI
100
AcDbPolyline
 62
250
  6
CONTINUOUS
 90
16
 70
0
 10
-57.1063702949
 20
49.060888031
 10
-57.1036023588
 20
49.1066639065
 10
-57.0990539226
 20
49.1515846314
 10
-57.092724935
 20
49.1956502319
 10
-57.0846197766
 20
49.2390292826
 10
-57.0747339295
 20
49.2815532788
 10
-57.0630541488
 20
49.3227165477
 10
-57.0495325535
 20
49.3625036573
 10
-57.0342172251
 20
49.4009299337
 10
-57.0172391778
 20
49.4375356773
 10
-56.9985567507
 20
49.4722716477
 10
-56.9782121211
 20
49.5051868154
 10
-56.9564623478
 20
49.5359686483
 10
-56.9333934171
 20
49.5645128127
 10
-56.9089200965
 20
49.5909232496
 10
-56.8830427314
 20
49.6151997792
  0
LINE
  5
24E
100
AcDbEntity
  8
0
100
AcDbLine
 62
250
  6
CONTINUOUS
 10
-57.3659839934
 20
53.3488362935
 11
-57.4235942087
 21
52.3774387319
  0
LWPOLYLINE
  5
24F
100
AcDbEntity
  8
RACCORDO
100
AcDbPolyline
 62
250
  6
CONTINUOUS
 90
16
 70
0
 10
-56.4186688631
 20
49.0304138749
 10
-56.4169717706
 20
49.0584162495
 10
-56.4141817557
 20
49.0860512067
 10
-56.410276649
 20
49.1132482764
 10
-56.405230159
 20
49.1399695014
 10
-56.3990274835
 20
49.1661047555
 10
-56.391678691
 20
49.1914837764
 10
-56.3831756264
 20
49.2160537477
 10
-56.3735244254
 20
49.2397384929
 10
-56.3627873496
 20
49.2623606569
 10
-56.3509842038
 20
49.283873572
 10
-56.3381381471
 20
49.3042378575
 10
-56.3243476703
 20
49.3233241271
 10
-56.3096771026
 20
49.3410851421
 10
-56.2941420644
 20
49.357536999
 10
-56.2777823579
 20
49.372667264
  0
LWPOLYLINE
  5
250
100
AcDbEntity
  8
ASSI
100
AcDbPolyline
 62
250
  6
CONTINUOUS
 90
16
 70
0
 10
-56.4186688631
 20
49.0304138749
 10
-56.4169717706
 20
49.0584162495
 10
-56.4141817557
 20
49.0860512067
 10
-56.410276649
 20
49.1132482764
 10
-56.405230159
 20
49.1399695014
 10
-56.3990274835
 20
49.1661047555
 10
-56.391678691
 20
49.1914837764
 10
-56.3831756264
 20
49.2160537477
 10
-56.3735244254
 20
49.2397384929
 10
-56.3627873496
 20
49.2623606569
 10
-56.3509842038
 20
49.283873572
 10
-56.3381381471
 20
49.3042378575
 10
-56.3243476703
 20
49.3233241271
 10
-56.3096771026
 20
49.3410851421
 10
-56.2941420644
 20
49.357536999
 10
-56.2777823579
 20
49.372667264
  0
LINE
  5
251
100
AcDbEntity
  8
0
100
AcDbLine
 62
250
  6
CONTINUOUS
 10
-56.5051445244
 20
51.8471373946
 11
-56.4475343091
 21
52.8185349563
  0
LWPOLYLINE
  5
252
100
AcDbEntity
  8
0
100
AcDbPolyline
 62
250
  6
CONTINUOUS
 90
3
 70
0
 10
-55.5041824568
 20
52.0986658492
 10
-55.4409953859
 20
53.086730297
 10
-55.4101656012
 20
53.5397574386
  0
LWPOLYLINE
  5
253
100
AcDbEntity
  8
0
100
AcDbPolyline
 62
250
  6
CONTINUOUS
 90
3
 70
0
 10
-55.569642193
 20
52.2240317246
 10
-55.5059620234
 20
53.2123370558
 10
-55.4866863697
 20
53.4955831942
  0
LINE
  5
254
100
AcDbEntity
  8
0
100
AcDbLine
 62
250
  6
CONTINUOUS
 10
-55.6350601322
 20
52.3494225496
 11
-55.5631652517
 21
53.4514339489
  0
LINE
  5
255
100
AcDbEntity
  8
0
100
AcDbLine
 62
250
  6
CONTINUOUS
 10
-58.1065632911
 20
54.9199600818
 11
-58.1784581714
 21
53.8179486825
  0
LWPOLYLINE
  5
256
100
AcDbEntity
  8
0
100
AcDbPolyline
 62
250
  6
CONTINUOUS
 90
3
 70
0
 10
-58.171385557
 20
55.045694841
 10
-58.2047675401
 20
54.5507921022
 10
-58.2543413802
 20
53.7741433715
  0
LWPOLYLINE
  5
257
100
AcDbEntity
  8
0
100
AcDbPolyline
 62
250
  6
CONTINUOUS
 90
3
 70
0
 10
-58.236164522
 20
55.1714537852
 10
-58.269793155
 20
54.6764317997
 10
-58.3301813776
 20
53.7303621958
  0
LINE
  5
258
100
AcDbEntity
  8
0
100
AcDbLine
 62
250
  6
CONTINUOUS
 10
-57.2244906709
 20
55.4291670893
 11
-57.2940891156
 21
54.4508476544
  0
LINE
  5
259
100
AcDbEntity
  8
0
100
AcDbLine
 62
250
  6
CONTINUOUS
 10
-56.3756394298
 20
53.9205463378
 11
-56.306040985
 21
54.8988657728
  0
LINE
  5
25A
100
AcDbEntity
  8
0
100
AcDbLine
 62
250
  6
CONTINUOUS
 10
-57.2888219439
 20
55.5551853417
 11
-57.3589106723
 21
54.5765820358
  0
LINE
  5
25B
100
AcDbEntity
  8
0
100
AcDbLine
 62
250
  6
CONTINUOUS
 10
-56.2991612548
 20
53.9646959934
 11
-56.2290725264
 21
54.9432992993
  0
LINE
  5
25C
100
AcDbEntity
  8
0
100
AcDbLine
 62
250
  6
CONTINUOUS
 10
-57.3531106101
 20
55.6812273782
 11
-57.4236896373
 21
54.7023409805
  0
LINE
  5
25D
100
AcDbEntity
  8
0
100
AcDbLine
 62
250
  6
CONTINUOUS
 10
-56.2226404859
 20
54.0088702421
 11
-56.1520614587
 21
54.9877566398
  0
LWPOLYLINE
  5
25E
100
AcDbEntity
  8
RACCORDO
100
AcDbPolyline
 62
7
  6
CONTINUOUS
 90
16
 70
0
 10
-56.2056838388
 20
49.4195505769
 10
-56.2059650998
 20
49.4194551041
 10
-56.2059025735
 20
49.4194495872
 10
-56.204366052
 20
49.41971213
 10
-56.2005742173
 20
49.4200846708
 10
-56.1941924482
 20
49.4202167206
 10
-56.1853729919
 20
49.4197529471
 10
-56.1741446837
 20
49.4183894413
 10
-56.1605246256
 20
49.415839618
 10
-56.1447308966
 20
49.4118871258
 10
-56.1271193869
 20
49.4064130375
 10
-56.1078694547
 20
49.3993025345
 10
-56.0871621367
 20
49.3904732056
 10
-56.0653009971
 20
49.3799333115
 10
-56.0424790646
 20
49.3676801504
 10
-56.0367199272
 20
49.3643940631
  0
LWPOLYLINE
  5
25F
100
AcDbEntity
  8
ASSI
100
AcDbPolyline
 62
7
  6
CONTINUOUS
 90
16
 70
0
 10
-56.2056838388
 20
49.4195505769
 10
-56.2059650998
 20
49.4194551041
 10
-56.2059025735
 20
49.4194495872
 10
-56.204366052
 20
49.41971213
 10
-56.2005742173
 20
49.4200846708
 10
-56.1941924482
 20
49.4202167206
 10
-56.1853729919
 20
49.4197529471
 10
-56.1741446837
 20
49.4183894413
 10
-56.1605246256
 20
49.415839618
 10
-56.1447308966
 20
49.4118871258
 10
-56.1271193869
 20
49.4064130375
 10
-56.1078694547
 20
49.3993025345
 10
-56.0871621367
 20
49.3904732056
 10
-56.0653009971
 20
49.3799333115
 10
-56.0424790646
 20
49.3676801504
 10
-56.0367199272
 20
49.3643940631
  0
LWPOLYLINE
  5
260
100
AcDbEntity
  8
RACCORDO
100
AcDbPolyline
 62
250
  6
CONTINUOUS
 90
14
 70
0
 10
55.1043775817
 20
-51.5167233288
 10
55.0828450504
 20
-51.5217872073
 10
55.0604206227
 20
-51.5250257192
 10
55.0371701739
 20
-51.5264178609
 10
55.0131601607
 20
-51.5259629566
 10
54.988446378
 20
-51.5236544029
 10
54.9631064092
 20
-51.5194921052
 10
54.9372490944
 20
-51.5135093253
 10
54.910947767
 20
-51.5057264274
 10
54.8842795389
 20
-51.4961692427
 10
54.857366969
 20
-51.4849106348
 10
54.8303037735
 20
-51.4720125586
 10
54.8031512973
 20
-51.4575116521
 10
54.7759848325
 20
-51.4414607885
  0
LWPOLYLINE
  5
261
100
AcDbEntity
  8
ASSI
100
AcDbPolyline
 62
250
  6
CONTINUOUS
 90
14
 70
0
 10
55.1043775817
 20
-51.5167233288
 10
55.0828450504
 20
-51.5217872073
 10
55.0604206227
 20
-51.5250257192
 10
55.0371701739
 20
-51.5264178609
 10
55.0131601607
 20
-51.5259629566
 10
54.988446378
 20
-51.5236544029
 10
54.9631064092
 20
-51.5194921052
 10
54.9372490944
 20
-51.5135093253
 10
54.910947767
 20
-51.5057264274
 10
54.8842795389
 20
-51.4961692427
 10
54.857366969
 20
-51.4849106348
 10
54.8303037735
 20
-51.4720125586
 10
54.8031512973
 20
-51.4575116521
 10
54.7759848325
 20
-51.4414607885
  0
LWPOLYLINE
  5
262
100
AcDbEntity
  8
RACCORDO
100
AcDbPolyline
 62
250
  6
CONTINUOUS
 90
23
 70
0
 10
74.5395103243
 20
-79.0964899471
 10
74.5648950721
 20
-79.1026665111
 10
74.5894323061
 20
-79.1068489647
 10
74.6131246339
 20
-79.1090557544
 10
74.6357206845
 20
-79.109251809
 10
74.6572051649
 20
-79.1074160686
 10
74.6775944533
 20
-79.1035687365
 10
74.6966846646
 20
-79.0977366524
 10
74.7144659406
 20
-79.0899007072
 10
74.7309493921
 20
-79.0800790225
 10
74.7459624848
 20
-79.0683543658
 10
74.7594928086
 20
-79.054706893
 10
74.7715540499
 20
-79.0391554435
 10
74.7820126229
 20
-79.0218409663
 10
74.7908534227
 20
-79.0027425625
 10
74.798092702
 20
-78.9818802292
 10
74.8036436174
 20
-78.9594564923
 10
74.8074874368
 20
-78.9354466748
 10
74.8096437646
 20
-78.9098747704
 10
74.8100828663
 20
-78.8830166222
 10
74.808794879
 20
-78.854964141
 10
74.8057900622
 20
-78.8256251083
 10
74.8010686429
 20
-78.7949993478
  0
LWPOLYLINE
  5
263
100
AcDbEntity
  8
ASSI
100
AcDbPolyline
 62
250
  6
CONTINUOUS
 90
23
 70
0
 10
74.5395103243
 20
-79.0964899471
 10
74.5648950721
 20
-79.1026665111
 10
74.5894323061
 20
-79.1068489647
 10
74.6131246339
 20
-79.1090557544
 10
74.6357206845
 20
-79.109251809
 10
74.6572051649
 20
-79.1074160686
 10
74.6775944533
 20
-79.1035687365
 10
74.6966846646
 20
-79.0977366524
 10
74.7144659406
 20
-79.0899007072
 10
74.7309493921
 20
-79.0800790225
 10
74.7459624848
 20
-79.0683543658
 10
74.7594928086
 20
-79.054706893
 10
74.7715540499
 20
-79.0391554435
 10
74.7820126229
 20
-79.0218409663
 10
74.7908534227
 20
-79.0027425625
 10
74.798092702
 20
-78.9818802292
 10
74.8036436174
 20
-78.9594564923
 10
74.8074874368
 20
-78.9354466748
 10
74.8096437646
 20
-78.9098747704
 10
74.8100828663
 20
-78.8830166222
 10
74.808794879
 20
-78.854964141
 10
74.8057900622
 20
-78.8256251083
 10
74.8010686429
 20
-78.7949993478
  0
LWPOLYLINE
  5
264
100
AcDbEntity
  8
RACCORDO
100
AcDbPolyline
 62
7
  6
CONTINUOUS
 90
19
 70
0
 10
-73.1242527501
 20
6.5258685102
 10
-73.1060540305
 20
6.476860625
 10
-73.0858050899
 20
6.4282236672
 10
-73.0636232106
 20
6.3800326123
 10
-73.0396108239
 20
6.3323548908
 10
-73.0138853166
 20
6.285290685
 10
-72.9865472655
 20
6.238927186
 10
-72.9577012582
 20
6.1933617837
 10
-72.9274757266
 20
6.1487258054
 10
-72.8959491892
 20
6.105086544
 10
-72.8631650932
 20
6.0624682903
 10
-72.8292354166
 20
6.0209961304
 10
-72.7942310956
 20
5.9807508197
 10
-72.7581196475
 20
5.9417012779
 10
-72.7209749017
 20
5.9039587738
 10
-72.6828744417
 20
5.8676420803
 10
-72.6437536211
 20
5.8327400307
 10
-72.6036704227
 20
5.7993844393
 10
-72.5626870663
 20
5.7677143924
  0
LWPOLYLINE
  5
265
100
AcDbEntity
  8
ASSI
100
AcDbPolyline
 62
7
  6
CONTINUOUS
 90
19
 70
0
 10
-73.1242527501
 20
6.5258685102
 10
-73.1060540305
 20
6.476860625
 10
-73.0858050899
 20
6.4282236672
 10
-73.0636232106
 20
6.3800326123
 10
-73.0396108239
 20
6.3323548908
 10
-73.0138853166
 20
6.285290685
 10
-72.9865472655
 20
6.238927186
 10
-72.9577012582
 20
6.1933617837
 10
-72.9274757266
 20
6.1487258054
 10
-72.8959491892
 20
6.105086544
 10
-72.8631650932
 20
6.0624682903
 10
-72.8292354166
 20
6.0209961304
 10
-72.7942310956
 20
5.9807508197
 10
-72.7581196475
 20
5.9417012779
 10
-72.7209749017
 20
5.9039587738
 10
-72.6828744417
 20
5.8676420803
 10
-72.6437536211
 20
5.8327400307
 10
-72.6036704227
 20
5.7993844393
 10
-72.5626870663
 20
5.7677143924
  0
LWPOLYLINE
  5
266
100
AcDbEntity
  8
CURVE_VERNICE
100
AcDbPolyline
 62
250
  6
CONTINUOUS
 90
9
 70
0
 10
-50.8952896657
 20
16.6287214566
 10
-50.8831696008
 20
16.478995566
 10
-50.8472710555
 20
16.3209767408
 10
-50.7889613944
 20
16.1606838691
 10
-50.7088935626
 20
16.0015001804
 10
-50.6129179245
 20
15.8550568445
 10
-50.5034576084
 20
15.7240862062
 10
-50.3846819238
 20
15.6135768963
 10
-50.2588935348
 20
15.5264510575
  0
LWPOLYLINE
  5
267
100
AcDbEntity
  8
ASSI
100
AcDbPolyline
 62
250
  6
CONTINUOUS
 90
9
 70
0
 10
-50.8952896657
 20
16.6287214566
 10
-50.8831696008
 20
16.478995566
 10
-50.8472710555
 20
16.3209767408
 10
-50.7889613944
 20
16.1606838691
 10
-50.7088935626
 20
16.0015001804
 10
-50.6129179245
 20
15.8550568445
 10
-50.5034576084
 20
15.7240862062
 10
-50.3846819238
 20
15.6135768963
 10
-50.2588935348
 20
15.5264510575
  0
LWPOLYLINE
  5
268
100
AcDbEntity
  8
RACCORDO
100
AcDbPolyline
 62
250
  6
CONTINUOUS
 90
7
 70
0
 10
-57.1063702949
 20
13.3478729956
 10
-57.2272640052
 20
16.259308205
 10
-57.3261874234
 20
19.1831434752
 10
-57.4031343741
 20
22.1191870051
 10
-57.4581001618
 20
25.0672462533
 10
-57.4910812453
 20
28.0271276422
 10
-57.5020752405
 20
30.9986365682
  0
LWPOLYLINE
  5
269
100
AcDbEntity
  8
ASSI
100
AcDbPolyline
 62
250
  6
CONTINUOUS
 90
7
 70
0
 10
-57.1063702949
 20
13.3478729956
 10
-57.2272640052
 20
16.259308205
 10
-57.3261874234
 20
19.1831434752
 10
-57.4031343741
 20
22.1191870051
 10
-57.4581001618
 20
25.0672462533
 10
-57.4910812453
 20
28.0271276422
 10
-57.5020752405
 20
30.9986365682
  0
LWPOLYLINE
  5
26A
100
AcDbEntity
  8
RACCORDO
100
AcDbPolyline
 62
250
  6
CONTINUOUS
 90
13
 70
0
 10
-56.4186690953
 20
13.3570593155
 10
-56.5394431705
 20
16.265582091
 10
-56.6382601123
 20
19.1861075663
 10
-56.7151199209
 20
22.1186357415
 10
-56.7700247894
 20
25.063361339
 10
-56.8029725245
 20
28.0200896364
 10
-56.8139565467
 20
30.9882364666
 10
-56.8029724598
 20
33.9678043111
 10
-56.77002466
 20
36.9587906885
 10
-56.7151197557
 20
39.9606039872
 10
-56.6382599499
 20
42.9730470035
 10
-56.5394430396
 20
45.9963169411
 10
-56.4186690249
 20
49.0304138001
  0
LWPOLYLINE
  5
26B
100
AcDbEntity
  8
ASSI
100
AcDbPolyline
 62
250
  6
CONTINUOUS
 90
13
 70
0
 10
-56.4186690953
 20
13.3570593155
 10
-56.5394431705
 20
16.265582091
 10
-56.6382601123
 20
19.1861075663
 10
-56.7151199209
 20
22.1186357415
 10
-56.7700247894
 20
25.063361339
 10
-56.8029725245
 20
28.0200896364
 10
-56.8139565467
 20
30.9882364666
 10
-56.8029724598
 20
33.9678043111
 10
-56.77002466
 20
36.9587906885
 10
-56.7151197557
 20
39.9606039872
 10
-56.6382599499
 20
42.9730470035
 10
-56.5394430396
 20
45.9963169411
 10
-56.4186690249
 20
49.0304138001
  0
LWPOLYLINE
  5
26C
100
AcDbEntity
  8
RACCORDO
100
AcDbPolyline
 62
250
  6
CONTINUOUS
 90
22
 70
0
 10
-56.1396789193
 20
11.7840702664
 10
-56.1401011263
 20
11.8143712907
 10
-56.1385439978
 20
11.8457660915
 10
-56.1350162538
 20
11.8780788673
 10
-56.1295376486
 20
11.9111286764
 10
-56.122138861
 20
11.9447304497
 10
-56.1128613223
 20
11.9786960278
 10
-56.101756984
 20
12.0128352136
 10
-56.0888880271
 20
12.0469568382
 10
-56.0743265142
 20
12.0808698312
 10
-56.0581539853
 20
12.1143842902
 10
-56.0404610018
 20
12.1473125447
 10
-56.021346639
 20
12.1794702068
 10
-56.0009179315
 20
12.2106772036
 10
-55.9792892739
 20
12.2407587858
 10
-55.95658178
 20
12.2695465059
 10
-55.9329226047
 20
12.2968791619
 10
-55.9084442322
 20
12.3226036994
 10
-55.8832837335
 20
12.3465760694
 10
-55.8575819997
 20
12.368662034
 10
-55.8314829525
 20
12.3887379188
 10
-55.8051327385
 20
12.4066913052
  0
LWPOLYLINE
  5
26D
100
AcDbEntity
  8
ASSI
100
AcDbPolyline
 62
250
  6
CONTINUOUS
 90
22
 70
0
 10
-56.1396789193
 20
11.7840702664
 10
-56.1401011263
 20
11.8143712907
 10
-56.1385439978
 20
11.8457660915
 10
-56.1350162538
 20
11.8780788673
 10
-56.1295376486
 20
11.9111286764
 10
-56.122138861
 20
11.9447304497
 10
-56.1128613223
 20
11.9786960278
 10
-56.101756984
 20
12.0128352136
 10
-56.0888880271
 20
12.0469568382
 10
-56.0743265142
 20
12.0808698312
 10
-56.0581539853
 20
12.1143842902
 10
-56.0404610018
 20
12.1473125447
 10
-56.021346639
 20
12.1794702068
 10
-56.0009179315
 20
12.2106772036
 10
-55.9792892739
 20
12.2407587858
 10
-55.95658178
 20
12.2695465059
 10
-55.9329226047
 20
12.2968791619
 10
-55.9084442322
 20
12.3226036994
 10
-55.8832837335
 20
12.3465760694
 10
-55.8575819997
 20
12.368662034
 10
-55.8314829525
 20
12.3887379188
 10
-55.8051327385
 20
12.4066913052
  0
LINE
  5
26E
100
AcDbEntity
  8
0
100
AcDbLine
 62
7
  6
CONTINUOUS
 10
-54.3601128935
 20
14.5456416573
 11
-54.3601128935
 21
48.3963424989
  0
LINE
  5
26F
100
AcDbEntity
  8
ASSI
100
AcDbLine
 62
7
  6
CONTINUOUS
 10
-54.3601128935
 20
14.5456416573
 11
-54.3601128935
 21
48.3963424989
  0
LINE
  5
270
100
AcDbEntity
  8
CURVE_VERNICE
100
AcDbLine
 62
250
  6
CONTINUOUS
 10
-50.8952896657
 20
16.6287214566
 11
-50.8952896657
 21
46.3957969916
  0
LINE
  5
271
100
AcDbEntity
  8
ASSI
100
AcDbLine
 62
250
  6
CONTINUOUS
 10
-50.8952896657
 20
16.6287214566
 11
-50.8952896657
 21
46.3957969916
  0
LWPOLYLINE
  5
272
100
AcDbEntity
  8
RACCORDO
100
AcDbPolyline
 62
250
  6
CONTINUOUS
 90
13
 70
0
 10
-56.1396789193
 20
49.6152908032
 10
-56.1401011265
 20
49.5845022358
 10
-56.1385439996
 20
49.5549055767
 10
-56.1350162581
 20
49.5266665579
 10
-56.1295376563
 20
49.4999433093
 10
-56.1221388727
 20
49.4748854729
 10
-56.1128613381
 20
49.4516333649
 10
-56.1017570039
 20
49.4303171898
 10
-56.088888051
 20
49.4110563118
 10
-56.0743265414
 20
49.3939585857
 10
-56.0581540153
 20
49.3791197536
 10
-56.0404610337
 20
49.3666229084
 10
-56.0367197746
 20
49.3643943277
  0
LWPOLYLINE
  5
273
100
AcDbEntity
  8
ASSI
100
AcDbPolyline
 62
250
  6
CONTINUOUS
 90
13
 70
0
 10
-56.1396789193
 20
49.6152908032
 10
-56.1401011265
 20
49.5845022358
 10
-56.1385439996
 20
49.5549055767
 10
-56.1350162581
 20
49.5266665579
 10
-56.1295376563
 20
49.4999433093
 10
-56.1221388727
 20
49.4748854729
 10
-56.1128613381
 20
49.4516333649
 10
-56.1017570039
 20
49.4303171898
 10
-56.088888051
 20
49.4110563118
 10
-56.0743265414
 20
49.3939585857
 10
-56.0581540153
 20
49.3791197536
 10
-56.0404610337
 20
49.3666229084
 10
-56.0367197746
 20
49.3643943277
  0
LINE
  5
274
100
AcDbEntity
  8
0
100
AcDbLine
 62
250
  6
CONTINUOUS
 10
-53.0756580097
 20
51.1356304223
 11
-53.1298704059
 21
50.2470077185
  0
LINE
  5
275
100
AcDbEntity
  8
0
100
AcDbLine
 62
250
  6
CONTINUOUS
 10
-52.0865584584
 20
50.5645367377
 11
-52.1407708546
 21
49.6759140339
  0
LINE
  5
276
100
AcDbEntity
  8
0
100
AcDbLine
 62
250
  6
CONTINUOUS
 10
-50.9561584661
 20
49.9118579494
 11
-51.0103708623
 21
49.0232352456
  0
LINE
  5
277
100
AcDbEntity
  8
0
100
AcDbLine
 62
250
  6
CONTINUOUS
 10
-49.4489596549
 20
49.0416202454
 11
-49.5031720511
 21
48.1529975416
  0
LWPOLYLINE
  5
278
100
AcDbEntity
  8
0
100
AcDbPolyline
 62
250
  6
CONTINUOUS
 90
3
 70
0
 10
-52.9750156247
 20
52.6205728713
 10
-53.0100008388
 20
52.1248980951
 10
-53.0756580097
 20
51.1356304223
  0
LWPOLYLINE
  5
279
100
AcDbEntity
  8
0
100
AcDbPolyline
 62
250
  6
CONTINUOUS
 90
3
 70
0
 10
-51.9859160734
 20
52.0494791867
 10
-52.0209012875
 20
51.5538044105
 10
-52.0865584584
 20
50.5645367377
  0
LWPOLYLINE
  5
27A
100
AcDbEntity
  8
0
100
AcDbPolyline
 62
250
  6
CONTINUOUS
 90
3
 70
0
 10
-50.8555160811
 20
51.3968003984
 10
-50.8905012952
 20
50.9011256222
 10
-50.9561584661
 20
49.9118579494
  0
LWPOLYLINE
  5
27B
100
AcDbEntity
  8
0
100
AcDbPolyline
 62
250
  6
CONTINUOUS
 90
3
 70
0
 10
-49.3483172699
 20
50.5265626945
 10
-49.383302484
 20
50.0308879182
 10
-49.4489596549
 20
49.0416202454
  0
LWPOLYLINE
  5
27C
100
AcDbEntity
  8
0
100
AcDbPolyline
 62
7
  6
CONTINUOUS
 90
7
 70
0
 10
51.2710312091
 20
-45.9722956968
 10
51.240116521
 20
-45.9774957228
 10
51.2097289406
 20
-45.9840818561
 10
51.1799415945
 20
-45.992058327
 10
51.1509229432
 20
-46.0014097098
 10
51.1227524524
 20
-46.0121373025
 10
51.0954653234
 20
-46.0242720776
  0
LWPOLYLINE
  5
27D
100
AcDbEntity
  8
ASSI
100
AcDbPolyline
 62
7
  6
CONTINUOUS
 90
7
 70
0
 10
51.2710312091
 20
-45.9722956968
 10
51.240116521
 20
-45.9774957228
 10
51.2097289406
 20
-45.9840818561
 10
51.1799415945
 20
-45.992058327
 10
51.1509229432
 20
-46.0014097098
 10
51.1227524524
 20
-46.0121373025
 10
51.0954653234
 20
-46.0242720776
  0
LWPOLYLINE
  5
27E
100
AcDbEntity
  8
0
100
AcDbPolyline
 62
7
  6
CONTINUOUS
 90
15
 70
0
 10
-42.0039462262
 20
7.8665868398
 10
-42.0040993082
 20
7.8761799745
 10
-42.0059424346
 20
7.9010975884
 10
-42.00987267
 20
7.9258631362
 10
-42.0159232698
 20
7.9505027247
 10
-42.0241038316
 20
7.9748677058
 10
-42.0344013167
 20
7.9987894367
 10
-42.0468806917
 20
8.0222711446
 10
-42.0615961116
 20
8.0452376335
 10
-42.0784959318
 20
8.0674716369
 10
-42.0975228064
 20
8.0888035482
 10
-42.1186954273
 20
8.1091652687
 10
-42.1419639776
 20
8.1284325041
 10
-42.1671687873
 20
8.146425137
 10
-42.1918055827
 20
8.1616664614
  0
LWPOLYLINE
  5
27F
100
AcDbEntity
  8
ASSI
100
AcDbPolyline
 62
7
  6
CONTINUOUS
 90
15
 70
0
 10
-42.0039462262
 20
7.8665868398
 10
-42.0040993082
 20
7.8761799745
 10
-42.0059424346
 20
7.9010975884
 10
-42.00987267
 20
7.9258631362
 10
-42.0159232698
 20
7.9505027247
 10
-42.0241038316
 20
7.9748677058
 10
-42.0344013167
 20
7.9987894367
 10
-42.0468806917
 20
8.0222711446
 10
-42.0615961116
 20
8.0452376335
 10
-42.0784959318
 20
8.0674716369
 10
-42.0975228064
 20
8.0888035482
 10
-42.1186954273
 20
8.1091652687
 10
-42.1419639776
 20
8.1284325041
 10
-42.1671687873
 20
8.146425137
 10
-42.1918055827
 20
8.1616664614
  0
LINE
  5
280
100
AcDbEntity
  8
0
100
AcDbLine
 62
250
  6
CONTINUOUS
 10
-42.138256369
 20
7.6711659173
 11
-42.1382563267
 21
7.0822976539
  0
LINE
  5
281
100
AcDbEntity
  8
ASSI
100
AcDbLine
 62
250
  6
CONTINUOUS
 10
-42.138256369
 20
7.6711659173
 11
-42.1382563267
 21
7.0822976539
  0
LINE
  5
282
100
AcDbEntity
  8
0
100
AcDbLine
 62
7
  6
CONTINUOUS
 10
-42.0039434586
 20
7.8666136299
 11
-42.0039434586
 21
7.2849205029
  0
LINE
  5
283
100
AcDbEntity
  8
ASSI
100
AcDbLine
 62
7
  6
CONTINUOUS
 10
-42.0039434586
 20
7.8666136299
 11
-42.0039434586
 21
7.2849205029
  0
LWPOLYLINE
  5
284
100
AcDbEntity
  8
0
100
AcDbPolyline
 62
250
  6
CONTINUOUS
 90
13
 70
0
 10
-42.0039434603
 20
7.2849055209
 10
-42.0044819923
 20
7.2712471229
 10
-42.0069899373
 20
7.2524048346
 10
-42.0115345162
 20
7.2336730567
 10
-42.0180968723
 20
7.2151269677
 10
-42.0266501491
 20
7.1968404699
 10
-42.0371596058
 20
7.1788917838
 10
-42.0495847128
 20
7.1613491519
 10
-42.0638729431
 20
7.1442859262
 10
-42.0799572079
 20
7.1277846301
 10
-42.0977658815
 20
7.111914599
 10
-42.117226218
 20
7.0967326209
 10
-42.1382563269
 20
7.0822974797
  0
LWPOLYLINE
  5
285
100
AcDbEntity
  8
ASSI
100
AcDbPolyline
 62
250
  6
CONTINUOUS
 90
13
 70
0
 10
-42.0039434603
 20
7.2849055209
 10
-42.0044819923
 20
7.2712471229
 10
-42.0069899373
 20
7.2524048346
 10
-42.0115345162
 20
7.2336730567
 10
-42.0180968723
 20
7.2151269677
 10
-42.0266501491
 20
7.1968404699
 10
-42.0371596058
 20
7.1788917838
 10
-42.0495847128
 20
7.1613491519
 10
-42.0638729431
 20
7.1442859262
 10
-42.0799572079
 20
7.1277846301
 10
-42.0977658815
 20
7.111914599
 10
-42.117226218
 20
7.0967326209
 10
-42.1382563269
 20
7.0822974797
  0
LINE
  5
286
100
AcDbEntity
  8
0
100
AcDbLine
 62
250
  6
CONTINUOUS
 10
-56.4186690953
 20
13.3570593155
 11
-54.3601128935
 21
14.5456416573
  0
LINE
  5
287
100
AcDbEntity
  8
ASSI
100
AcDbLine
 62
250
  6
CONTINUOUS
 10
-56.4186690953
 20
13.3570593155
 11
-54.3601128935
 21
14.5456416573
  0
LINE
  5
288
100
AcDbEntity
  8
0
100
AcDbLine
 62
250
  6
CONTINUOUS
 10
-55.8051387295
 20
12.4066947643
 11
-53.7952027208
 21
13.5671885375
  0
LINE
  5
289
100
AcDbEntity
  8
ASSI
100
AcDbLine
 62
250
  6
CONTINUOUS
 10
-55.8051387295
 20
12.4066947643
 11
-53.7952027208
 21
13.5671885375
  0
LWPOLYLINE
  5
28A
100
AcDbEntity
  8
0
100
AcDbPolyline
 62
7
  6
CONTINUOUS
 90
7
 70
0
 10
35.3611286324
 20
-36.4595292362
 10
35.3302139443
 20
-36.4647292622
 10
35.2998263639
 20
-36.4713153955
 10
35.2700390178
 20
-36.4792918664
 10
35.2410203665
 20
-36.4886432492
 10
35.2128498757
 20
-36.4993708419
 10
35.1855627467
 20
-36.511505617
  0
LWPOLYLINE
  5
28B
100
AcDbEntity
  8
ASSI
100
AcDbPolyline
 62
7
  6
CONTINUOUS
 90
7
 70
0
 10
35.3611286324
 20
-36.4595292362
 10
35.3302139443
 20
-36.4647292622
 10
35.2998263639
 20
-36.4713153955
 10
35.2700390178
 20
-36.4792918664
 10
35.2410203665
 20
-36.4886432492
 10
35.2128498757
 20
-36.4993708419
 10
35.1855627467
 20
-36.511505617
  0
LWPOLYLINE
  5
28C
100
AcDbEntity
  8
0
100
AcDbPolyline
 62
7
  6
CONTINUOUS
 90
8
 70
0
 10
51.492060365
 20
-45.9749739616
 10
51.4608545067
 20
-45.9704040738
 10
51.4293513195
 20
-45.9672274813
 10
51.3976337789
 20
-45.965445688
 10
51.3657818094
 20
-45.9650592917
 10
51.3340101645
 20
-45.9660721282
 10
51.3023986269
 20
-45.968484014
 10
51.2710312091
 20
-45.9722956968
  0
LWPOLYLINE
  5
28D
100
AcDbEntity
  8
ASSI
100
AcDbPolyline
 62
7
  6
CONTINUOUS
 90
8
 70
0
 10
51.492060365
 20
-45.9749739616
 10
51.4608545067
 20
-45.9704040738
 10
51.4293513195
 20
-45.9672274813
 10
51.3976337789
 20
-45.965445688
 10
51.3657818094
 20
-45.9650592917
 10
51.3340101645
 20
-45.9660721282
 10
51.3023986269
 20
-45.968484014
 10
51.2710312091
 20
-45.9722956968
  0
LWPOLYLINE
  5
28E
100
AcDbEntity
  8
RACCORDO
100
AcDbPolyline
 62
250
  6
CONTINUOUS
 90
16
 70
0
 10
-56.2777823579
 20
12.8993926111
 10
-56.2939997894
 20
12.9297547409
 10
-56.3094246934
 20
12.9605201277
 10
-56.3240153276
 20
12.9916311588
 10
-56.3377538305
 20
13.023074402
 10
-56.3505735897
 20
13.0547409314
 10
-56.3623734492
 20
13.0864271029
 10
-56.3731252619
 20
13.1180687594
 10
-56.3828081504
 20
13.1496009897
 10
-56.3913604026
 20
13.1808225224
 10
-56.3987728368
 20
13.2116734336
 10
-56.4050444065
 20
13.2420959774
 10
-56.4101554818
 20
13.2719035118
 10
-56.4141153188
 20
13.3010061631
 10
-56.4169471938
 20
13.3294047748
 10
-56.4186689632
 20
13.3570593917
  0
LWPOLYLINE
  5
28F
100
AcDbEntity
  8
ASSI
100
AcDbPolyline
 62
250
  6
CONTINUOUS
 90
16
 70
0
 10
-56.2777823579
 20
12.8993926111
 10
-56.2939997894
 20
12.9297547409
 10
-56.3094246934
 20
12.9605201277
 10
-56.3240153276
 20
12.9916311588
 10
-56.3377538305
 20
13.023074402
 10
-56.3505735897
 20
13.0547409314
 10
-56.3623734492
 20
13.0864271029
 10
-56.3731252619
 20
13.1180687594
 10
-56.3828081504
 20
13.1496009897
 10
-56.3913604026
 20
13.1808225224
 10
-56.3987728368
 20
13.2116734336
 10
-56.4050444065
 20
13.2420959774
 10
-56.4101554818
 20
13.2719035118
 10
-56.4141153188
 20
13.3010061631
 10
-56.4169471938
 20
13.3294047748
 10
-56.4186689632
 20
13.3570593917
  0
LWPOLYLINE
  5
290
100
AcDbEntity
  8
RACCORDO
100
AcDbPolyline
 62
250
  6
CONTINUOUS
 90
16
 70
0
 10
-56.8830498598
 20
12.6001999792
 10
-56.9086886112
 20
12.6500975557
 10
-56.9329720216
 20
12.7004523569
 10
-56.9558997383
 20
12.7512646064
 10
-56.9775624474
 20
12.8027219955
 10
-56.9978686935
 20
12.8546373206
 10
-57.0165450218
 20
12.9064483933
 10
-57.0335483411
 20
12.9581441517
 10
-57.0489211989
 20
13.0097360015
 10
-57.0625188663
 20
13.0606952848
 10
-57.0742990903
 20
13.1110028017
 10
-57.0843038604
 20
13.1606779179
 10
-57.0925151174
 20
13.2092496307
 10
-57.0989269289
 20
13.2565608836
 10
-57.103545313
 20
13.3027686775
 10
-57.1063702949
 20
13.3478729956
  0
LWPOLYLINE
  5
291
100
AcDbEntity
  8
ASSI
100
AcDbPolyline
 62
250
  6
CONTINUOUS
 90
16
 70
0
 10
-56.8830498598
 20
12.6001999792
 10
-56.9086886112
 20
12.6500975557
 10
-56.9329720216
 20
12.7004523569
 10
-56.9558997383
 20
12.7512646064
 10
-56.9775624474
 20
12.8027219955
 10
-56.9978686935
 20
12.8546373206
 10
-57.0165450218
 20
12.9064483933
 10
-57.0335483411
 20
12.9581441517
 10
-57.0489211989
 20
13.0097360015
 10
-57.0625188663
 20
13.0606952848
 10
-57.0742990903
 20
13.1110028017
 10
-57.0843038604
 20
13.1606779179
 10
-57.0925151174
 20
13.2092496307
 10
-57.0989269289
 20
13.2565608836
 10
-57.103545313
 20
13.3027686775
 10
-57.1063702949
 20
13.3478729956
  0
LWPOLYLINE
  5
292
100
AcDbEntity
  8
0
100
AcDbPolyline
 62
250
  6
CONTINUOUS
 90
10
 70
0
 10
-42.1742355837
 20
6.9942125123
 10
-42.1693805671
 20
6.9977490968
 10
-42.16195277
 20
7.0046593343
 10
-42.1554564704
 20
7.0127579272
 10
-42.1499410322
 20
7.021983336
 10
-42.1454483664
 20
7.0322654585
 10
-42.1420126118
 20
7.0435261627
 10
-42.1396598761
 20
7.0556798807
 10
-42.1384080372
 20
7.0686342586
 10
-42.1382666078
 20
7.0822908586
  0
LWPOLYLINE
  5
293
100
AcDbEntity
  8
ASSI
100
AcDbPolyline
 62
250
  6
CONTINUOUS
 90
10
 70
0
 10
-42.1742355837
 20
6.9942125123
 10
-42.1693805671
 20
6.9977490968
 10
-42.16195277
 20
7.0046593343
 10
-42.1554564704
 20
7.0127579272
 10
-42.1499410322
 20
7.021983336
 10
-42.1454483664
 20
7.0322654585
 10
-42.1420126118
 20
7.0435261627
 10
-42.1396598761
 20
7.0556798807
 10
-42.1384080372
 20
7.0686342586
 10
-42.1382666078
 20
7.0822908586
  0
LWPOLYLINE
  5
294
100
AcDbEntity
  8
0
100
AcDbPolyline
 62
7
  6
CONTINUOUS
 90
16
 70
0
 10
-42.1742355017
 20
6.9942123882
 10
-42.1642477077
 20
7.0010002325
 10
-42.1410915719
 20
7.0183023271
 10
-42.1197519934
 20
7.0365244957
 10
-42.1002471784
 20
7.055571038
 10
-42.0825545027
 20
7.075382895
 10
-42.0666342366
 20
7.0959283297
 10
-42.0525105878
 20
7.1171093736
 10
-42.040192952
 20
7.1388427096
 10
-42.0296580257
 20
7.161101415
 10
-42.0209264359
 20
7.1837698899
 10
-42.0140057591
 20
7.2067413077
 10
-42.0088829465
 20
7.2299848754
 10
-42.0055683281
 20
7.2533764971
 10
-42.0040541247
 20
7.276791852
 10
-42.0039462228
 20
7.2849134249
  0
LWPOLYLINE
  5
295
100
AcDbEntity
  8
ASSI
100
AcDbPolyline
 62
7
  6
CONTINUOUS
 90
16
 70
0
 10
-42.1742355017
 20
6.9942123882
 10
-42.1642477077
 20
7.0010002325
 10
-42.1410915719
 20
7.0183023271
 10
-42.1197519934
 20
7.0365244957
 10
-42.1002471784
 20
7.055571038
 10
-42.0825545027
 20
7.075382895
 10
-42.0666342366
 20
7.0959283297
 10
-42.0525105878
 20
7.1171093736
 10
-42.040192952
 20
7.1388427096
 10
-42.0296580257
 20
7.161101415
 10
-42.0209264359
 20
7.1837698899
 10
-42.0140057591
 20
7.2067413077
 10
-42.0088829465
 20
7.2299848754
 10
-42.0055683281
 20
7.2533764971
 10
-42.0040541247
 20
7.276791852
 10
-42.0039462228
 20
7.2849134249
  0
LINE
  5
296
100
AcDbEntity
  8
0
100
AcDbLine
 62
250
  6
CONTINUOUS
 10
-42.1382563267
 20
7.0822976539
 11
-42.3366540007
 21
6.9511661158
  0
LINE
  5
297
100
AcDbEntity
  8
ASSI
100
AcDbLine
 62
250
  6
CONTINUOUS
 10
-42.1382563267
 20
7.0822976539
 11
-42.3366540007
 21
6.9511661158
  0
LINE
  5
298
100
AcDbEntity
  8
0
100
AcDbLine
 62
7
  6
CONTINUOUS
 10
-42.1742581707
 20
6.9941975767
 11
-42.2847259954
 21
6.9211835364
  0
LINE
  5
299
100
AcDbEntity
  8
ASSI
100
AcDbLine
 62
7
  6
CONTINUOUS
 10
-42.1742581707
 20
6.9941975767
 11
-42.2847259954
 21
6.9211835364
  0
LWPOLYLINE
  5
29A
100
AcDbEntity
  8
0
100
AcDbPolyline
 62
250
  6
CONTINUOUS
 90
13
 70
0
 10
-42.1382563691
 20
7.6711659608
 10
-42.1172287187
 20
7.6849132402
 10
-42.097770314
 20
7.699416751
 10
-42.0799630535
 20
7.7146177454
 10
-42.063879717
 20
7.7304566637
 10
-42.0495919266
 20
7.746867009
 10
-42.0371667548
 20
7.7637747136
 10
-42.026656779
 20
7.7811068394
 10
-42.018102592
 20
7.798794793
 10
-42.0115389828
 20
7.8167676643
 10
-42.0069928892
 20
7.8349518719
 10
-42.0044832637
 20
7.8532719531
 10
-42.0039434619
 20
7.866578442
  0
LWPOLYLINE
  5
29B
100
AcDbEntity
  8
ASSI
100
AcDbPolyline
 62
250
  6
CONTINUOUS
 90
13
 70
0
 10
-42.1382563691
 20
7.6711659608
 10
-42.1172287187
 20
7.6849132402
 10
-42.097770314
 20
7.699416751
 10
-42.0799630535
 20
7.7146177454
 10
-42.063879717
 20
7.7304566637
 10
-42.0495919266
 20
7.746867009
 10
-42.0371667548
 20
7.7637747136
 10
-42.026656779
 20
7.7811068394
 10
-42.018102592
 20
7.798794793
 10
-42.0115389828
 20
7.8167676643
 10
-42.0069928892
 20
7.8349518719
 10
-42.0044832637
 20
7.8532719531
 10
-42.0039434619
 20
7.866578442
  0
LWPOLYLINE
  5
29C
100
AcDbEntity
  8
0
100
AcDbPolyline
 62
250
  6
CONTINUOUS
 90
16
 70
0
 10
-42.2833032297
 20
7.9139155479
 10
-42.2705968011
 20
7.9221811309
 10
-42.2589269963
 20
7.9308268652
 10
-42.2482938151
 20
7.9398527509
 10
-42.2386607188
 20
7.9493001253
 10
-42.2300642462
 20
7.959127651
 10
-42.2226140139
 20
7.9692113158
 10
-42.2163259727
 20
7.9795527613
 10
-42.2111841718
 20
7.9901503459
 10
-42.2072503745
 20
8.000875132
 10
-42.2045392979
 20
8.0117289014
 10
-42.2030362249
 20
8.0227098723
 10
-42.2027587689
 20
8.0336837615
 10
-42.203721626
 20
8.0446500478
 10
-42.2059101001
 20
8.0556092524
 10
-42.2092977153
 20
8.0664286562
  0
LWPOLYLINE
  5
29D
100
AcDbEntity
  8
ASSI
100
AcDbPolyline
 62
250
  6
CONTINUOUS
 90
16
 70
0
 10
-42.2833032297
 20
7.9139155479
 10
-42.2705968011
 20
7.9221811309
 10
-42.2589269963
 20
7.9308268652
 10
-42.2482938151
 20
7.9398527509
 10
-42.2386607188
 20
7.9493001253
 10
-42.2300642462
 20
7.959127651
 10
-42.2226140139
 20
7.9692113158
 10
-42.2163259727
 20
7.9795527613
 10
-42.2111841718
 20
7.9901503459
 10
-42.2072503745
 20
8.000875132
 10
-42.2045392979
 20
8.0117289014
 10
-42.2030362249
 20
8.0227098723
 10
-42.2027587689
 20
8.0336837615
 10
-42.203721626
 20
8.0446500478
 10
-42.2059101001
 20
8.0556092524
 10
-42.2092977153
 20
8.0664286562
  0
LINE
  5
29E
100
AcDbEntity
  8
0
100
AcDbLine
 62
250
  6
CONTINUOUS
 10
-43.1209543493
 20
7.4040113075
 11
-42.2833032297
 21
7.9139155479
  0
LINE
  5
29F
100
AcDbEntity
  8
ASSI
100
AcDbLine
 62
250
  6
CONTINUOUS
 10
-43.1209543493
 20
7.4040113075
 11
-42.2833032297
 21
7.9139155479
  0
LINE
  5
2A0
100
AcDbEntity
  8
0
100
AcDbLine
 62
250
  6
CONTINUOUS
 10
-42.8418556298
 20
7.2428632048
 11
-42.138256369
 21
7.6711659173
  0
LINE
  5
2A1
100
AcDbEntity
  8
ASSI
100
AcDbLine
 62
250
  6
CONTINUOUS
 10
-42.8418556298
 20
7.2428632048
 11
-42.138256369
 21
7.6711659173
  0
LINE
  5
2A2
100
AcDbEntity
  8
0
100
AcDbLine
 62
7
  6
CONTINUOUS
 10
-44.3819168752
 20
9.0837538053
 11
-45.2423286112
 21
8.6288662193
  0
LINE
  5
2A3
100
AcDbEntity
  8
ASSI
100
AcDbLine
 62
7
  6
CONTINUOUS
 10
-44.3819168752
 20
9.0837538053
 11
-45.2423286112
 21
8.6288662193
  0
LINE
  5
2A4
100
AcDbEntity
  8
0
100
AcDbLine
 62
250
  6
CONTINUOUS
 10
-44.2872054668
 20
9.0709435848
 11
-45.1854763173
 21
8.5960404173
  0
LINE
  5
2A5
100
AcDbEntity
  8
ASSI
100
AcDbLine
 62
250
  6
CONTINUOUS
 10
-44.2872054668
 20
9.0709435848
 11
-45.1854763173
 21
8.5960404173
  0
LWPOLYLINE
  5
2A6
100
AcDbEntity
  8
0
100
AcDbPolyline
 62
250
  6
CONTINUOUS
 90
10
 70
0
 10
-43.8704739244
 20
9.0646806561
 10
-43.8582217935
 20
9.0710169102
 10
-43.8460711443
 20
9.0760711904
 10
-43.8341134255
 20
9.0798054513
 10
-43.8224386339
 20
9.0821915822
 10
-43.8111346385
 20
9.0832116182
 10
-43.8002865185
 20
9.0828578764
 10
-43.7899759217
 20
9.0811330131
 10
-43.7802804515
 20
9.0780500043
 10
-43.7717032073
 20
9.0738825428
  0
LWPOLYLINE
  5
2A7
100
AcDbEntity
  8
ASSI
100
AcDbPolyline
 62
250
  6
CONTINUOUS
 90
10
 70
0
 10
-43.8704739244
 20
9.0646806561
 10
-43.8582217935
 20
9.0710169102
 10
-43.8460711443
 20
9.0760711904
 10
-43.8341134255
 20
9.0798054513
 10
-43.8224386339
 20
9.0821915822
 10
-43.8111346385
 20
9.0832116182
 10
-43.8002865185
 20
9.0828578764
 10
-43.7899759217
 20
9.0811330131
 10
-43.7802804515
 20
9.0780500043
 10
-43.7717032073
 20
9.0738825428
  0
LINE
  5
2A8
100
AcDbEntity
  8
0
100
AcDbLine
 62
7
  6
CONTINUOUS
 10
-44.3633327933
 20
9.0930936265
 11
-44.3819440083
 21
9.0837396094
  0
LINE
  5
2A9
100
AcDbEntity
  8
ASSI
100
AcDbLine
 62
7
  6
CONTINUOUS
 10
-44.3633327933
 20
9.0930936265
 11
-44.3819440083
 21
9.0837396094
  0
LWPOLYLINE
  5
2AA
100
AcDbEntity
  8
RACCORDO
100
AcDbPolyline
 62
250
  6
CONTINUOUS
 90
22
 70
0
 10
-56.8830411419
 20
12.6001862118
 10
-56.8626648883
 20
12.6069141461
 10
-56.8405268963
 20
12.6147948354
 10
-56.8167443828
 20
12.6237865529
 10
-56.7914432718
 20
12.6338416892
 10
-56.7647575283
 20
12.644907004
 10
-56.7368284485
 20
12.6569239084
 10
-56.7078039121
 20
12.6698287752
 10
-56.6778375987
 20
12.6835532753
 10
-56.6470881748
 20
12.6980247399
 10
-56.6157184529
 20
12.7131665452
 10
-56.5838945303
 20
12.7288985181
 10
-56.5517849091
 20
12.7451373604
 10
-56.5195596038
 20
12.7617970905
 10
-56.4873892419
 20
12.7787894981
 10
-56.4554441597
 20
12.7960246113
 10
-56.4238935007
 20
12.8134111733
 10
-56.3929043201
 20
12.8308571253
 10
-56.3626407002
 20
12.8482700941
 10
-56.3332628813
 20
12.8655578812
 10
-56.3049264139
 20
12.8826289508
 10
-56.2777813345
 20
12.8993929145
  0
LWPOLYLINE
  5
2AB
100
AcDbEntity
  8
ASSI
100
AcDbPolyline
 62
250
  6
CONTINUOUS
 90
22
 70
0
 10
-56.8830411419
 20
12.6001862118
 10
-56.8626648883
 20
12.6069141461
 10
-56.8405268963
 20
12.6147948354
 10
-56.8167443828
 20
12.6237865529
 10
-56.7914432718
 20
12.6338416892
 10
-56.7647575283
 20
12.644907004
 10
-56.7368284485
 20
12.6569239084
 10
-56.7078039121
 20
12.6698287752
 10
-56.6778375987
 20
12.6835532753
 10
-56.6470881748
 20
12.6980247399
 10
-56.6157184529
 20
12.7131665452
 10
-56.5838945303
 20
12.7288985181
 10
-56.5517849091
 20
12.7451373604
 10
-56.5195596038
 20
12.7617970905
 10
-56.4873892419
 20
12.7787894981
 10
-56.4554441597
 20
12.7960246113
 10
-56.4238935007
 20
12.8134111733
 10
-56.3929043201
 20
12.8308571253
 10
-56.3626407002
 20
12.8482700941
 10
-56.3332628813
 20
12.8655578812
 10
-56.3049264139
 20
12.8826289508
 10
-56.2777813345
 20
12.8993929145
  0
LWPOLYLINE
  5
2AC
100
AcDbEntity
  8
0
100
AcDbPolyline
 62
7
  6
CONTINUOUS
 90
8
 70
0
 10
35.5821577883
 20
-36.462207501
 10
35.5509519301
 20
-36.4576376132
 10
35.5194487428
 20
-36.4544610207
 10
35.4877312022
 20
-36.4526792274
 10
35.4558792327
 20
-36.4522928311
 10
35.4241075878
 20
-36.4533056676
 10
35.3924960502
 20
-36.4557175534
 10
35.3611286324
 20
-36.4595292362
  0
LWPOLYLINE
  5
2AD
100
AcDbEntity
  8
ASSI
100
AcDbPolyline
 62
7
  6
CONTINUOUS
 90
8
 70
0
 10
35.5821577883
 20
-36.462207501
 10
35.5509519301
 20
-36.4576376132
 10
35.5194487428
 20
-36.4544610207
 10
35.4877312022
 20
-36.4526792274
 10
35.4558792327
 20
-36.4522928311
 10
35.4241075878
 20
-36.4533056676
 10
35.3924960502
 20
-36.4557175534
 10
35.3611286324
 20
-36.4595292362
  0
LWPOLYLINE
  5
2AE
100
AcDbEntity
  8
0
100
AcDbPolyline
 62
7
  6
CONTINUOUS
 90
3
 70
0
 10
51.5528883634
 20
-45.988238303
 10
51.5227630629
 20
-45.980919131
 10
51.492060365
 20
-45.9749739616
  0
LWPOLYLINE
  5
2AF
100
AcDbEntity
  8
ASSI
100
AcDbPolyline
 62
7
  6
CONTINUOUS
 90
3
 70
0
 10
51.5528883634
 20
-45.988238303
 10
51.5227630629
 20
-45.980919131
 10
51.492060365
 20
-45.9749739616
  0
LWPOLYLINE
  5
2B0
100
AcDbEntity
  8
RACCORDO
100
AcDbPolyline
 62
250
  6
CONTINUOUS
 90
19
 70
0
 10
74.8010686909
 20
-78.7949993101
 10
74.8196651233
 20
-78.8045689852
 10
74.8396155457
 20
-78.8129030522
 10
74.8607779161
 20
-78.8199421747
 10
74.8830015635
 20
-78.8256362357
 10
74.9061282609
 20
-78.829944695
 10
74.9299933517
 20
-78.8328368774
 10
74.9544269223
 20
-78.8342921911
 10
74.9792550116
 20
-78.8343002748
 10
75.0043008496
 20
-78.8328610709
 10
75.029386116
 20
-78.8299848261
 10
75.0543322097
 20
-78.8256920187
 10
75.0789615206
 20
-78.8200132123
 10
75.103098694
 20
-78.8129888387
 10
75.1265718789
 20
-78.8046689098
 10
75.1492139521
 20
-78.7951126615
 10
75.1708637075
 20
-78.7843881318
 10
75.1913670039
 20
-78.7725716769
 10
75.2105778629
 20
-78.7597474271
  0
LWPOLYLINE
  5
2B1
100
AcDbEntity
  8
ASSI
100
AcDbPolyline
 62
250
  6
CONTINUOUS
 90
19
 70
0
 10
74.8010686909
 20
-78.7949993101
 10
74.8196651233
 20
-78.8045689852
 10
74.8396155457
 20
-78.8129030522
 10
74.8607779161
 20
-78.8199421747
 10
74.8830015635
 20
-78.8256362357
 10
74.9061282609
 20
-78.829944695
 10
74.9299933517
 20
-78.8328368774
 10
74.9544269223
 20
-78.8342921911
 10
74.9792550116
 20
-78.8343002748
 10
75.0043008496
 20
-78.8328610709
 10
75.029386116
 20
-78.8299848261
 10
75.0543322097
 20
-78.8256920187
 10
75.0789615206
 20
-78.8200132123
 10
75.103098694
 20
-78.8129888387
 10
75.1265718789
 20
-78.8046689098
 10
75.1492139521
 20
-78.7951126615
 10
75.1708637075
 20
-78.7843881318
 10
75.1913670039
 20
-78.7725716769
 10
75.2105778629
 20
-78.7597474271
  0
LWPOLYLINE
  5
2B2
100
AcDbEntity
  8
RACCORDO
100
AcDbPolyline
 62
250
  6
CONTINUOUS
 90
6
 70
0
 10
74.4027376342
 20
-79.0369876236
 10
74.4312338293
 20
-79.0526427526
 10
74.4591418328
 20
-79.0664145881
 10
74.4864617498
 20
-79.0783030469
 10
74.51327987
 20
-79.0883383516
 10
74.5395103243
 20
-79.0964899471
  0
LWPOLYLINE
  5
2B3
100
AcDbEntity
  8
ASSI
100
AcDbPolyline
 62
250
  6
CONTINUOUS
 90
6
 70
0
 10
74.4027376342
 20
-79.0369876236
 10
74.4312338293
 20
-79.0526427526
 10
74.4591418328
 20
-79.0664145881
 10
74.4864617498
 20
-79.0783030469
 10
74.51327987
 20
-79.0883383516
 10
74.5395103243
 20
-79.0964899471
  0
LWPOLYLINE
  5
2B4
100
AcDbEntity
  8
RACCORDO
100
AcDbPolyline
 62
7
  6
CONTINUOUS
 90
18
 70
0
 10
74.4612989705
 20
-79.1318490931
 10
74.4802871715
 20
-79.1425629744
 10
74.519144909
 20
-79.162910378
 10
74.5577431577
 20
-79.181001029
 10
74.5960700855
 20
-79.1968445661
 10
74.6341111186
 20
-79.2104393367
 10
74.6718681227
 20
-79.2217824702
 10
74.7093505482
 20
-79.2308719794
 10
74.7465567119
 20
-79.23769173
 10
74.7834917018
 20
-79.2422138327
 10
74.8201052749
 20
-79.2444006806
 10
74.8562779328
 20
-79.2442222313
 10
74.8919806009
 20
-79.2416526742
 10
74.9270868403
 20
-79.2366701975
 10
74.9612851397
 20
-79.2293156319
 10
74.9944599347
 20
-79.2196402473
 10
75.0265047172
 20
-79.2077031044
 10
75.0432957672
 20
-79.2003425411
  0
LWPOLYLINE
  5
2B5
100
AcDbEntity
  8
ASSI
100
AcDbPolyline
 62
7
  6
CONTINUOUS
 90
18
 70
0
 10
74.4612989705
 20
-79.1318490931
 10
74.4802871715
 20
-79.1425629744
 10
74.519144909
 20
-79.162910378
 10
74.5577431577
 20
-79.181001029
 10
74.5960700855
 20
-79.1968445661
 10
74.6341111186
 20
-79.2104393367
 10
74.6718681227
 20
-79.2217824702
 10
74.7093505482
 20
-79.2308719794
 10
74.7465567119
 20
-79.23769173
 10
74.7834917018
 20
-79.2422138327
 10
74.8201052749
 20
-79.2444006806
 10
74.8562779328
 20
-79.2442222313
 10
74.8919806009
 20
-79.2416526742
 10
74.9270868403
 20
-79.2366701975
 10
74.9612851397
 20
-79.2293156319
 10
74.9944599347
 20
-79.2196402473
 10
75.0265047172
 20
-79.2077031044
 10
75.0432957672
 20
-79.2003425411
  0
LINE
  5
2B6
100
AcDbEntity
  8
RACCORDO
100
AcDbLine
 62
7
  6
CONTINUOUS
 10
-72.4445881342
 20
5.6897656549
 11
74.4613370669
 21
-79.1318743926
  0
LINE
  5
2B7
100
AcDbEntity
  8
ASSI
100
AcDbLine
 62
7
  6
CONTINUOUS
 10
-72.4445881342
 20
5.6897656549
 11
74.4613370669
 21
-79.1318743926
  0
LINE
  5
2B8
100
AcDbEntity
  8
RACCORDO
100
AcDbLine
 62
250
  6
CONTINUOUS
 10
-72.5031875255
 20
5.7846524
 11
74.4027376342
 21
-79.0369876236
  0
LINE
  5
2B9
100
AcDbEntity
  8
ASSI
100
AcDbLine
 62
250
  6
CONTINUOUS
 10
-72.5031875255
 20
5.7846524
 11
74.4027376342
 21
-79.0369876236
  0
LINE
  5
2BA
100
AcDbEntity
  8
RACCORDO
100
AcDbLine
 62
7
  6
CONTINUOUS
 10
74.4612975453
 20
-79.1318515613
 11
74.4613370561
 21
-79.1318743863
  0
LINE
  5
2BB
100
AcDbEntity
  8
ASSI
100
AcDbLine
 62
7
  6
CONTINUOUS
 10
74.4612975453
 20
-79.1318515613
 11
74.4613370561
 21
-79.1318743863
  0
LINE
  5
2BC
100
AcDbEntity
  8
RACCORDO
100
AcDbLine
 62
7
  6
CONTINUOUS
 10
-72.4775960574
 20
5.7095869145
 11
-72.4444696077
 21
5.689700751
  0
LINE
  5
2BD
100
AcDbEntity
  8
ASSI
100
AcDbLine
 62
7
  6
CONTINUOUS
 10
-72.4775960574
 20
5.7095869145
 11
-72.4444696077
 21
5.689700751
  0
LWPOLYLINE
  5
2BE
100
AcDbEntity
  8
RACCORDO
100
AcDbPolyline
 62
250
  6
CONTINUOUS
 90
10
 70
0
 10
-73.0839078018
 20
6.591932653
 10
-73.1010763984
 20
6.603013525
 10
-73.116636372
 20
6.6151829519
 10
-73.1304769409
 20
6.6283542916
 10
-73.142499565
 20
6.6424337687
 10
-73.1526186475
 20
6.6573211421
 10
-73.1607621439
 20
6.6729104191
 10
-73.1668720753
 20
6.6890906092
 10
-73.1709049413
 20
6.7057465151
 10
-73.171210474
 20
6.7075419367
  0
LWPOLYLINE
  5
2BF
100
AcDbEntity
  8
ASSI
100
AcDbPolyline
 62
250
  6
CONTINUOUS
 90
10
 70
0
 10
-73.0839078018
 20
6.591932653
 10
-73.1010763984
 20
6.603013525
 10
-73.116636372
 20
6.6151829519
 10
-73.1304769409
 20
6.6283542916
 10
-73.142499565
 20
6.6424337687
 10
-73.1526186475
 20
6.6573211421
 10
-73.1607621439
 20
6.6729104191
 10
-73.1668720753
 20
6.6890906092
 10
-73.1709049413
 20
6.7057465151
 10
-73.171210474
 20
6.7075419367
  0
LWPOLYLINE
  5
2C0
100
AcDbEntity
  8
RACCORDO
100
AcDbPolyline
 62
7
  6
CONTINUOUS
 90
3
 70
0
 10
-72.5626870663
 20
5.7677143924
 10
-72.5206765856
 20
5.7377409464
 10
-72.4775960574
 20
5.7095869145
  0
LWPOLYLINE
  5
2C1
100
AcDbEntity
  8
ASSI
100
AcDbPolyline
 62
7
  6
CONTINUOUS
 90
3
 70
0
 10
-72.5626870663
 20
5.7677143924
 10
-72.5206765856
 20
5.7377409464
 10
-72.4775960574
 20
5.7095869145
  0
LWPOLYLINE
  5
2C2
100
AcDbEntity
  8
0
100
AcDbPolyline
 62
250
  6
CONTINUOUS
 90
10
 70
0
 10
-42.2092977153
 20
8.0664286562
 10
-42.2139008071
 20
8.077108231
 10
-42.2197030399
 20
8.087648005
 10
-42.2266289322
 20
8.0979153437
 10
-42.2346923181
 20
8.1079054734
 10
-42.2438793634
 20
8.1176231679
 10
-42.2540730832
 20
8.1269501141
 10
-42.2652344828
 20
8.1358468741
 10
-42.277402557
 20
8.1443528859
 10
-42.2905773058
 20
8.1524681492
  0
LWPOLYLINE
  5
2C3
100
AcDbEntity
  8
ASSI
100
AcDbPolyline
 62
250
  6
CONTINUOUS
 90
10
 70
0
 10
-42.2092977153
 20
8.0664286562
 10
-42.2139008071
 20
8.077108231
 10
-42.2197030399
 20
8.087648005
 10
-42.2266289322
 20
8.0979153437
 10
-42.2346923181
 20
8.1079054734
 10
-42.2438793634
 20
8.1176231679
 10
-42.2540730832
 20
8.1269501141
 10
-42.2652344828
 20
8.1358468741
 10
-42.277402557
 20
8.1443528859
 10
-42.2905773058
 20
8.1524681492
  0
LWPOLYLINE
  5
2C4
100
AcDbEntity
  8
0
100
AcDbPolyline
 62
7
  6
CONTINUOUS
 90
15
 70
0
 10
-26.0940436495
 20
-0.9930033993
 10
-26.0941967315
 20
-0.9834102646
 10
-26.0960398579
 20
-0.9584926508
 10
-26.0999700933
 20
-0.9337271029
 10
-26.1060206931
 20
-0.9090875145
 10
-26.1142012549
 20
-0.8847225334
 10
-26.12449874
 20
-0.8608008024
 10
-26.136978115
 20
-0.8373190945
 10
-26.1516935349
 20
-0.8143526056
 10
-26.1685933551
 20
-0.7921186023
 10
-26.1876202297
 20
-0.7707866909
 10
-26.2087928506
 20
-0.7504249705
 10
-26.2320614009
 20
-0.7311577351
 10
-26.2572662106
 20
-0.7131651021
 10
-26.281903006
 20
-0.6979237777
  0
LWPOLYLINE
  5
2C5
100
AcDbEntity
  8
ASSI
100
AcDbPolyline
 62
7
  6
CONTINUOUS
 90
15
 70
0
 10
-26.0940436495
 20
-0.9930033993
 10
-26.0941967315
 20
-0.9834102646
 10
-26.0960398579
 20
-0.9584926508
 10
-26.0999700933
 20
-0.9337271029
 10
-26.1060206931
 20
-0.9090875145
 10
-26.1142012549
 20
-0.8847225334
 10
-26.12449874
 20
-0.8608008024
 10
-26.136978115
 20
-0.8373190945
 10
-26.1516935349
 20
-0.8143526056
 10
-26.1685933551
 20
-0.7921186023
 10
-26.1876202297
 20
-0.7707866909
 10
-26.2087928506
 20
-0.7504249705
 10
-26.2320614009
 20
-0.7311577351
 10
-26.2572662106
 20
-0.7131651021
 10
-26.281903006
 20
-0.6979237777
  0
LINE
  5
2C6
100
AcDbEntity
  8
0
100
AcDbLine
 62
250
  6
CONTINUOUS
 10
-26.2283537923
 20
-1.1884243218
 11
-26.2283640311
 21
-1.7772993806
  0
LINE
  5
2C7
100
AcDbEntity
  8
ASSI
100
AcDbLine
 62
250
  6
CONTINUOUS
 10
-26.2283537923
 20
-1.1884243218
 11
-26.2283640311
 21
-1.7772993806
  0
LINE
  5
2C8
100
AcDbEntity
  8
0
100
AcDbLine
 62
7
  6
CONTINUOUS
 10
-26.0940408819
 20
-0.9929766093
 11
-26.0940408819
 21
-1.5746697398
  0
LINE
  5
2C9
100
AcDbEntity
  8
ASSI
100
AcDbLine
 62
7
  6
CONTINUOUS
 10
-26.0940408819
 20
-0.9929766093
 11
-26.0940408819
 21
-1.5746697398
  0
LWPOLYLINE
  5
2CA
100
AcDbEntity
  8
0
100
AcDbPolyline
 62
250
  6
CONTINUOUS
 90
10
 70
0
 10
-26.2283640311
 20
-1.7772993806
 10
-26.2285054665
 20
-1.7909560824
 10
-26.229757327
 20
-1.8039105429
 10
-26.2321100978
 20
-1.8160643237
 10
-26.2355458988
 20
-1.8273250719
 10
-26.2400386194
 20
-1.8376072187
 10
-26.2455541163
 20
-1.8468326304
 10
-26.252050475
 20
-1.854931207
 10
-26.2594783282
 20
-1.8618414119
 10
-26.2643198379
 20
-1.8653690128
  0
LWPOLYLINE
  5
2CB
100
AcDbEntity
  8
ASSI
100
AcDbPolyline
 62
250
  6
CONTINUOUS
 90
10
 70
0
 10
-26.2283640311
 20
-1.7772993806
 10
-26.2285054665
 20
-1.7909560824
 10
-26.229757327
 20
-1.8039105429
 10
-26.2321100978
 20
-1.8160643237
 10
-26.2355458988
 20
-1.8273250719
 10
-26.2400386194
 20
-1.8376072187
 10
-26.2455541163
 20
-1.8468326304
 10
-26.252050475
 20
-1.854931207
 10
-26.2594783282
 20
-1.8618414119
 10
-26.2643198379
 20
-1.8653690128
  0
LWPOLYLINE
  5
2CC
100
AcDbEntity
  8
0
100
AcDbPolyline
 62
250
  6
CONTINUOUS
 90
10
 70
0
 10
-42.2905773058
 20
8.1524681492
 10
-42.2783250369
 20
8.1588044688
 10
-42.266174271
 20
8.163858778
 10
-42.2542164588
 20
8.1675930366
 10
-42.2425415987
 20
8.1699791393
 10
-42.2312375595
 20
8.1709991274
 10
-42.2203894191
 20
8.1706453242
 10
-42.2100788243
 20
8.1689203926
 10
-42.200383376
 20
8.165837315
 10
-42.1918065922
 20
8.161670038
  0
LWPOLYLINE
  5
2CD
100
AcDbEntity
  8
ASSI
100
AcDbPolyline
 62
250
  6
CONTINUOUS
 90
10
 70
0
 10
-42.2905773058
 20
8.1524681492
 10
-42.2783250369
 20
8.1588044688
 10
-42.266174271
 20
8.163858778
 10
-42.2542164588
 20
8.1675930366
 10
-42.2425415987
 20
8.1699791393
 10
-42.2312375595
 20
8.1709991274
 10
-42.2203894191
 20
8.1706453242
 10
-42.2100788243
 20
8.1689203926
 10
-42.200383376
 20
8.165837315
 10
-42.1918065922
 20
8.161670038
  0
LWPOLYLINE
  5
2CE
100
AcDbEntity
  8
0
100
AcDbPolyline
 62
7
  6
CONTINUOUS
 90
3
 70
0
 10
35.6429857867
 20
-36.4754718424
 10
35.6128604862
 20
-36.4681526705
 10
35.5821577883
 20
-36.462207501
  0
LWPOLYLINE
  5
2CF
100
AcDbEntity
  8
ASSI
100
AcDbPolyline
 62
7
  6
CONTINUOUS
 90
3
 70
0
 10
35.6429857867
 20
-36.4754718424
 10
35.6128604862
 20
-36.4681526705
 10
35.5821577883
 20
-36.462207501
  0
LINE
  5
2D0
100
AcDbEntity
  8
0
100
AcDbLine
 62
7
  6
CONTINUOUS
 10
2.9731666564
 20
-25.6882641766
 11
2.9655112556
 21
-25.6856422113
  0
LINE
  5
2D1
100
AcDbEntity
  8
ASSI
100
AcDbLine
 62
7
  6
CONTINUOUS
 10
2.9731666564
 20
-25.6882641766
 11
2.9655112556
 21
-25.6856422113
  0
LWPOLYLINE
  5
2D2
100
AcDbEntity
  8
0
100
AcDbPolyline
 62
7
  6
CONTINUOUS
 90
22
 70
0
 10
1.8260654915
 20
-23.9380568494
 10
1.8880301773
 20
-23.9641568451
 10
1.9486214794
 20
-23.9904822252
 10
2.0078392027
 20
-24.0170331182
 10
2.0656601389
 20
-24.0437652558
 10
2.1221071782
 20
-24.0707231163
 10
2.1772492966
 20
-24.0980399325
 10
2.2311160982
 20
-24.1257649984
 10
2.2836777833
 20
-24.1538491492
 10
2.3349142521
 20
-24.1822779103
 10
2.3847946396
 20
-24.2110545114
 10
2.4333497819
 20
-24.2401757421
 10
2.4806521705
 20
-24.2696174413
 10
2.5267429777
 20
-24.299356089
 10
2.5715811504
 20
-24.3294151266
 10
2.6151158843
 20
-24.3598408085
 10
2.6573858962
 20
-24.3906517596
 10
2.6983527578
 20
-24.4218291646
 10
2.7378500093
 20
-24.4533630754
 10
2.7758223364
 20
-24.485250062
 10
2.8123255547
 20
-24.5174932237
 10
2.8473599616
 20
-24.5500923641
  0
LWPOLYLINE
  5
2D3
100
AcDbEntity
  8
ASSI
100
AcDbPolyline
 62
7
  6
CONTINUOUS
 90
22
 70
0
 10
1.8260654915
 20
-23.9380568494
 10
1.8880301773
 20
-23.9641568451
 10
1.9486214794
 20
-23.9904822252
 10
2.0078392027
 20
-24.0170331182
 10
2.0656601389
 20
-24.0437652558
 10
2.1221071782
 20
-24.0707231163
 10
2.1772492966
 20
-24.0980399325
 10
2.2311160982
 20
-24.1257649984
 10
2.2836777833
 20
-24.1538491492
 10
2.3349142521
 20
-24.1822779103
 10
2.3847946396
 20
-24.2110545114
 10
2.4333497819
 20
-24.2401757421
 10
2.4806521705
 20
-24.2696174413
 10
2.5267429777
 20
-24.299356089
 10
2.5715811504
 20
-24.3294151266
 10
2.6151158843
 20
-24.3598408085
 10
2.6573858962
 20
-24.3906517596
 10
2.6983527578
 20
-24.4218291646
 10
2.7378500093
 20
-24.4533630754
 10
2.7758223364
 20
-24.485250062
 10
2.8123255547
 20
-24.5174932237
 10
2.8473599616
 20
-24.5500923641
  0
LWPOLYLINE
  5
2D4
100
AcDbEntity
  8
0
100
AcDbPolyline
 62
250
  6
CONTINUOUS
 90
10
 70
0
 10
53.2676088641
 20
-46.9554000591
 10
53.2590317699
 20
-46.9512326576
 10
53.249336307
 20
-46.9481496265
 10
53.2390257112
 20
-46.9464247412
 10
53.2281775851
 20
-46.9460709797
 10
53.2168735762
 20
-46.9470910006
 10
53.2051987632
 20
-46.9494771228
 10
53.1932410149
 20
-46.9532113835
 10
53.1810903289
 20
-46.9582656738
 10
53.1688381544
 20
-46.96460195
  0
LWPOLYLINE
  5
2D5
100
AcDbEntity
  8
ASSI
100
AcDbPolyline
 62
250
  6
CONTINUOUS
 90
10
 70
0
 10
53.2676088641
 20
-46.9554000591
 10
53.2590317699
 20
-46.9512326576
 10
53.249336307
 20
-46.9481496265
 10
53.2390257112
 20
-46.9464247412
 10
53.2281775851
 20
-46.9460709797
 10
53.2168735762
 20
-46.9470910006
 10
53.2051987632
 20
-46.9494771228
 10
53.1932410149
 20
-46.9532113835
 10
53.1810903289
 20
-46.9582656738
 10
53.1688381544
 20
-46.96460195
  0
LWPOLYLINE
  5
2D6
100
AcDbEntity
  8
0
100
AcDbPolyline
 62
250
  6
CONTINUOUS
 90
10
 70
0
 10
51.6877122493
 20
-46.0431875544
 10
51.6791354656
 20
-46.0390202774
 10
51.6694400172
 20
-46.0359371998
 10
51.6591294224
 20
-46.0342122682
 10
51.6482812821
 20
-46.033858465
 10
51.6369772429
 20
-46.0348784531
 10
51.6253023828
 20
-46.0372645558
 10
51.6133445705
 20
-46.0409988144
 10
51.6011938047
 20
-46.0460531236
 10
51.5889415358
 20
-46.0523894432
  0
LWPOLYLINE
  5
2D7
100
AcDbEntity
  8
ASSI
100
AcDbPolyline
 62
250
  6
CONTINUOUS
 90
10
 70
0
 10
51.6877122493
 20
-46.0431875544
 10
51.6791354656
 20
-46.0390202774
 10
51.6694400172
 20
-46.0359371998
 10
51.6591294224
 20
-46.0342122682
 10
51.6482812821
 20
-46.033858465
 10
51.6369772429
 20
-46.0348784531
 10
51.6253023828
 20
-46.0372645558
 10
51.6133445705
 20
-46.0409988144
 10
51.6011938047
 20
-46.0460531236
 10
51.5889415358
 20
-46.0523894432
  0
LWPOLYLINE
  5
2D8
100
AcDbEntity
  8
RACCORDO
100
AcDbPolyline
 62
250
  6
CONTINUOUS
 90
19
 70
0
 10
72.984706178
 20
-62.3838253843
 10
73.0033316963
 20
-62.3936139123
 10
73.0233316345
 20
-62.4023749978
 10
73.0445637411
 20
-62.4100463267
 10
73.0668770003
 20
-62.4165733359
 10
73.0901127069
 20
-62.4219096013
 10
73.1141055944
 20
-62.4260171681
 10
73.1386850108
 20
-62.428866821
 10
73.1636761326
 20
-62.4304382914
 10
73.1889012077
 20
-62.430720402
 10
73.2141808201
 20
-62.4297111464
 10
73.2393351659
 20
-62.427417703
 10
73.2641853323
 20
-62.423856384
 10
73.2885545698
 20
-62.4190525199
 10
73.3122695496
 20
-62.4130402786
 10
73.3351615964
 20
-62.4058624227
 10
73.3570678882
 20
-62.3975700055
 10
73.3778326142
 20
-62.3882220077
 10
73.3973080831
 20
-62.377884918
  0
LWPOLYLINE
  5
2D9
100
AcDbEntity
  8
ASSI
100
AcDbPolyline
 62
250
  6
CONTINUOUS
 90
19
 70
0
 10
72.984706178
 20
-62.3838253843
 10
73.0033316963
 20
-62.3936139123
 10
73.0233316345
 20
-62.4023749978
 10
73.0445637411
 20
-62.4100463267
 10
73.0668770003
 20
-62.4165733359
 10
73.0901127069
 20
-62.4219096013
 10
73.1141055944
 20
-62.4260171681
 10
73.1386850108
 20
-62.428866821
 10
73.1636761326
 20
-62.4304382914
 10
73.1889012077
 20
-62.430720402
 10
73.2141808201
 20
-62.4297111464
 10
73.2393351659
 20
-62.427417703
 10
73.2641853323
 20
-62.423856384
 10
73.2885545698
 20
-62.4190525199
 10
73.3122695496
 20
-62.4130402786
 10
73.3351615964
 20
-62.4058624227
 10
73.3570678882
 20
-62.3975700055
 10
73.3778326142
 20
-62.3882220077
 10
73.3973080831
 20
-62.377884918
  0
LWPOLYLINE
  5
2DA
100
AcDbEntity
  8
0
100
AcDbPolyline
 62
7
  6
CONTINUOUS
 90
15
 70
0
 10
2.5242209676
 20
-25.2573512142
 10
2.5467425359
 20
-25.26936788
 10
2.568305397
 20
-25.2800605623
 10
2.588909581
 20
-25.2894292409
 10
2.608504296
 20
-25.2974564734
 10
2.6271404341
 20
-25.3041596353
 10
2.6449705754
 20
-25.3095909177
 10
2.6620417648
 20
-25.3138047665
 10
2.6783071453
 20
-25.3167466102
 10
2.693778487
 20
-25.3183050858
 10
2.7084751154
 20
-25.3185224172
 10
2.7223780256
 20
-25.3173561663
 10
2.7354415819
 20
-25.3145679172
 10
2.7476714606
 20
-25.3100713265
 10
2.7556581204
 20
-25.3060024342
  0
LWPOLYLINE
  5
2DB
100
AcDbEntity
  8
ASSI
100
AcDbPolyline
 62
7
  6
CONTINUOUS
 90
15
 70
0
 10
2.5242209676
 20
-25.2573512142
 10
2.5467425359
 20
-25.26936788
 10
2.568305397
 20
-25.2800605623
 10
2.588909581
 20
-25.2894292409
 10
2.608504296
 20
-25.2974564734
 10
2.6271404341
 20
-25.3041596353
 10
2.6449705754
 20
-25.3095909177
 10
2.6620417648
 20
-25.3138047665
 10
2.6783071453
 20
-25.3167466102
 10
2.693778487
 20
-25.3183050858
 10
2.7084751154
 20
-25.3185224172
 10
2.7223780256
 20
-25.3173561663
 10
2.7354415819
 20
-25.3145679172
 10
2.7476714606
 20
-25.3100713265
 10
2.7556581204
 20
-25.3060024342
  0
LINE
  5
2DC
100
AcDbEntity
  8
0
100
AcDbLine
 62
7
  6
CONTINUOUS
 10
3.4234003472
 20
-26.9399935519
 11
3.0259125808
 21
-26.7104890973
  0
LINE
  5
2DD
100
AcDbEntity
  8
ASSI
100
AcDbLine
 62
7
  6
CONTINUOUS
 10
3.4234003472
 20
-26.9399935519
 11
3.0259125808
 21
-26.7104890973
  0
LINE
  5
2DE
100
AcDbEntity
  8
0
100
AcDbLine
 62
7
  6
CONTINUOUS
 10
2.3930942422
 20
-26.3451077197
 11
1.9815181139
 21
-26.1074688215
  0
LINE
  5
2DF
100
AcDbEntity
  8
ASSI
100
AcDbLine
 62
7
  6
CONTINUOUS
 10
2.3930942422
 20
-26.3451077197
 11
1.9815181139
 21
-26.1074688215
  0
LINE
  5
2E0
100
AcDbEntity
  8
0
100
AcDbLine
 62
7
  6
CONTINUOUS
 10
1.7682470483
 20
-25.9843285172
 11
1.3327102833
 21
-25.7328550476
  0
LINE
  5
2E1
100
AcDbEntity
  8
ASSI
100
AcDbLine
 62
7
  6
CONTINUOUS
 10
1.7682470483
 20
-25.9843285172
 11
1.3327102833
 21
-25.7328550476
  0
LINE
  5
2E2
100
AcDbEntity
  8
0
100
AcDbLine
 62
7
  6
CONTINUOUS
 10
0.5488689814
 20
-25.2802749037
 11
0.1401138857
 21
-25.0442648344
  0
LINE
  5
2E3
100
AcDbEntity
  8
ASSI
100
AcDbLine
 62
7
  6
CONTINUOUS
 10
0.5488689814
 20
-25.2802749037
 11
0.1401138857
 21
-25.0442648344
  0
LINE
  5
2E4
100
AcDbEntity
  8
0
100
AcDbLine
 62
7
  6
CONTINUOUS
 10
-0.0732683135
 20
-24.9210606269
 11
-0.4775255029
 21
-24.6876475922
  0
LINE
  5
2E5
100
AcDbEntity
  8
ASSI
100
AcDbLine
 62
7
  6
CONTINUOUS
 10
-0.0732683135
 20
-24.9210606269
 11
-0.4775255029
 21
-24.6876475922
  0
LINE
  5
2E6
100
AcDbEntity
  8
0
100
AcDbLine
 62
7
  6
CONTINUOUS
 10
-1.0537680321
 20
-24.3549323779
 11
-1.1117246252
 21
-24.3214689674
  0
LINE
  5
2E7
100
AcDbEntity
  8
ASSI
100
AcDbLine
 62
7
  6
CONTINUOUS
 10
-1.0537680321
 20
-24.3549323779
 11
-1.1117246252
 21
-24.3214689674
  0
LINE
  5
2E8
100
AcDbEntity
  8
0
100
AcDbLine
 62
7
  6
CONTINUOUS
 10
-1.6856803711
 20
-23.9900741131
 11
-2.0810159943
 21
-23.761812279
  0
LINE
  5
2E9
100
AcDbEntity
  8
ASSI
100
AcDbLine
 62
7
  6
CONTINUOUS
 10
-1.6856803711
 20
-23.9900741131
 11
-2.0810159943
 21
-23.761812279
  0
LINE
  5
2EA
100
AcDbEntity
  8
0
100
AcDbLine
 62
7
  6
CONTINUOUS
 10
-2.2964042553
 20
-23.6374497965
 11
-2.7096431151
 21
-23.3988508579
  0
LINE
  5
2EB
100
AcDbEntity
  8
ASSI
100
AcDbLine
 62
7
  6
CONTINUOUS
 10
-2.2964042553
 20
-23.6374497965
 11
-2.7096431151
 21
-23.3988508579
  0
LINE
  5
2EC
100
AcDbEntity
  8
0
100
AcDbLine
 62
7
  6
CONTINUOUS
 10
-3.5559169961
 20
-22.9102229253
 11
-3.9200840595
 21
-22.699957427
  0
LINE
  5
2ED
100
AcDbEntity
  8
ASSI
100
AcDbLine
 62
7
  6
CONTINUOUS
 10
-3.5559169961
 20
-22.9102229253
 11
-3.9200840595
 21
-22.699957427
  0
LINE
  5
2EE
100
AcDbEntity
  8
0
100
AcDbLine
 62
7
  6
CONTINUOUS
 10
-3.8136096444
 20
-22.6384804342
 11
-3.5285614851
 21
-22.8030636689
  0
LINE
  5
2EF
100
AcDbEntity
  8
ASSI
100
AcDbLine
 62
7
  6
CONTINUOUS
 10
-3.8136096444
 20
-22.6384804342
 11
-3.5285614851
 21
-22.8030636689
  0
LINE
  5
2F0
100
AcDbEntity
  8
0
100
AcDbLine
 62
7
  6
CONTINUOUS
 10
-2.6031687
 20
-23.3373738651
 11
-2.3065334317
 21
-23.5086473512
  0
LINE
  5
2F1
100
AcDbEntity
  8
ASSI
100
AcDbLine
 62
7
  6
CONTINUOUS
 10
-2.6031687
 20
-23.3373738651
 11
-2.3065334317
 21
-23.5086473512
  0
LINE
  5
2F2
100
AcDbEntity
  8
0
100
AcDbLine
 62
7
  6
CONTINUOUS
 10
-1.9745415791
 20
-23.7003352861
 11
-1.6877671539
 21
-23.8659152451
  0
LINE
  5
2F3
100
AcDbEntity
  8
ASSI
100
AcDbLine
 62
7
  6
CONTINUOUS
 10
-1.9745415791
 20
-23.7003352861
 11
-1.6877671539
 21
-23.8659152451
  0
LINE
  5
2F4
100
AcDbEntity
  8
0
100
AcDbLine
 62
7
  6
CONTINUOUS
 10
-0.3710510878
 20
-24.6261705994
 11
-0.0943023117
 21
-24.7859618742
  0
LINE
  5
2F5
100
AcDbEntity
  8
ASSI
100
AcDbLine
 62
7
  6
CONTINUOUS
 10
-0.3710510878
 20
-24.6261705994
 11
-0.0943023117
 21
-24.7859618742
  0
LINE
  5
2F6
100
AcDbEntity
  8
0
100
AcDbLine
 62
7
  6
CONTINUOUS
 10
0.2465883008
 20
-24.9827878415
 11
0.572348098
 21
-25.1708774657
  0
LINE
  5
2F7
100
AcDbEntity
  8
ASSI
100
AcDbLine
 62
7
  6
CONTINUOUS
 10
0.2465883008
 20
-24.9827878415
 11
0.572348098
 21
-25.1708774657
  0
LINE
  5
2F8
100
AcDbEntity
  8
0
100
AcDbLine
 62
7
  6
CONTINUOUS
 10
1.4391846985
 20
-25.6713780548
 11
1.7223375299
 21
-25.8348669509
  0
LINE
  5
2F9
100
AcDbEntity
  8
ASSI
100
AcDbLine
 62
7
  6
CONTINUOUS
 10
1.4391846985
 20
-25.6713780548
 11
1.7223375299
 21
-25.8348669509
  0
LINE
  5
2FA
100
AcDbEntity
  8
0
100
AcDbLine
 62
7
  6
CONTINUOUS
 10
2.0879925291
 20
-26.0459918286
 11
2.3829155467
 21
-26.2162766827
  0
LINE
  5
2FB
100
AcDbEntity
  8
ASSI
100
AcDbLine
 62
7
  6
CONTINUOUS
 10
2.0879925291
 20
-26.0459918286
 11
2.3829155467
 21
-26.2162766827
  0
LINE
  5
2FC
100
AcDbEntity
  8
0
100
AcDbLine
 62
7
  6
CONTINUOUS
 10
3.132386996
 20
-26.6490121044
 11
3.3824236076
 21
-26.7933801103
  0
LINE
  5
2FD
100
AcDbEntity
  8
ASSI
100
AcDbLine
 62
7
  6
CONTINUOUS
 10
3.132386996
 20
-26.6490121044
 11
3.3824236076
 21
-26.7933801103
  0
LINE
  5
2FE
100
AcDbEntity
  8
0
100
AcDbLine
 62
7
  6
CONTINUOUS
 10
1.1916274411
 20
-25.234353931
 11
0.6288644884
 21
-24.9094216552
  0
LINE
  5
2FF
100
AcDbEntity
  8
ASSI
100
AcDbLine
 62
7
  6
CONTINUOUS
 10
1.1916274411
 20
-25.234353931
 11
0.6288644884
 21
-24.9094216552
  0
LINE
  5
300
100
AcDbEntity
  8
0
100
AcDbLine
 62
7
  6
CONTINUOUS
 10
0.7353081605
 20
-24.847962413
 11
1.2980711131
 21
-25.1728946888
  0
LINE
  5
301
100
AcDbEntity
  8
ASSI
100
AcDbLine
 62
7
  6
CONTINUOUS
 10
0.7353081605
 20
-24.847962413
 11
1.2980711131
 21
-25.1728946888
  0
LINE
  5
302
100
AcDbEntity
  8
0
100
AcDbLine
 62
7
  6
CONTINUOUS
 10
1.0836225401
 20
-24.8482313315
 11
0.6879757899
 21
-24.6197898566
  0
LINE
  5
303
100
AcDbEntity
  8
ASSI
100
AcDbLine
 62
7
  6
CONTINUOUS
 10
1.0836225401
 20
-24.8482313315
 11
0.6879757899
 21
-24.6197898566
  0
LINE
  5
304
100
AcDbEntity
  8
0
100
AcDbLine
 62
7
  6
CONTINUOUS
 10
2.5492042508
 20
-25.6162686732
 11
2.3276354399
 21
-25.4883376187
  0
LINE
  5
305
100
AcDbEntity
  8
ASSI
100
AcDbLine
 62
7
  6
CONTINUOUS
 10
2.5492042508
 20
-25.6162686732
 11
2.3276354399
 21
-25.4883376187
  0
LINE
  5
306
100
AcDbEntity
  8
0
100
AcDbLine
 62
7
  6
CONTINUOUS
 10
2.434050739
 20
-25.4268947586
 11
2.65561955
 21
-25.5548258132
  0
LINE
  5
307
100
AcDbEntity
  8
ASSI
100
AcDbLine
 62
7
  6
CONTINUOUS
 10
2.434050739
 20
-25.4268947586
 11
2.65561955
 21
-25.5548258132
  0
LINE
  5
308
100
AcDbEntity
  8
0
100
AcDbLine
 62
7
  6
CONTINUOUS
 10
2.5242209676
 20
-25.2573512142
 11
2.2880590483
 21
-25.1209942818
  0
LINE
  5
309
100
AcDbEntity
  8
ASSI
100
AcDbLine
 62
7
  6
CONTINUOUS
 10
2.5242209676
 20
-25.2573512142
 11
2.2880590483
 21
-25.1209942818
  0
LINE
  5
30A
100
AcDbEntity
  8
0
100
AcDbLine
 62
7
  6
CONTINUOUS
 10
1.0037344327
 20
-23.4384437873
 11
0.6039751495
 21
-23.2076277873
  0
LINE
  5
30B
100
AcDbEntity
  8
ASSI
100
AcDbLine
 62
7
  6
CONTINUOUS
 10
1.0037344327
 20
-23.4384437873
 11
0.6039751495
 21
-23.2076277873
  0
LINE
  5
30C
100
AcDbEntity
  8
0
100
AcDbLine
 62
7
  6
CONTINUOUS
 10
-0.4154868599
 20
-22.6190032
 11
-0.8243459003
 21
-22.3829331142
  0
LINE
  5
30D
100
AcDbEntity
  8
ASSI
100
AcDbLine
 62
7
  6
CONTINUOUS
 10
-0.4154868599
 20
-22.6190032
 11
-0.8243459003
 21
-22.3829331142
  0
LINE
  5
30E
100
AcDbEntity
  8
0
100
AcDbLine
 62
7
  6
CONTINUOUS
 10
-1.6464593568
 20
-21.908255108
 11
-2.059356684
 21
-21.6698533661
  0
LINE
  5
30F
100
AcDbEntity
  8
ASSI
100
AcDbLine
 62
7
  6
CONTINUOUS
 10
-1.6464593568
 20
-21.908255108
 11
-2.059356684
 21
-21.6698533661
  0
LINE
  5
310
100
AcDbEntity
  8
0
100
AcDbLine
 62
7
  6
CONTINUOUS
 10
-3.0766606035
 20
-21.0824748328
 11
-3.4896173276
 21
-20.8440387958
  0
LINE
  5
311
100
AcDbEntity
  8
ASSI
100
AcDbLine
 62
7
  6
CONTINUOUS
 10
-3.0766606035
 20
-21.0824748328
 11
-3.4896173276
 21
-20.8440387958
  0
LINE
  5
312
100
AcDbEntity
  8
0
100
AcDbLine
 62
7
  6
CONTINUOUS
 10
-4.2558742982
 20
-20.4016116244
 11
-4.704779624
 21
-20.1424193154
  0
LINE
  5
313
100
AcDbEntity
  8
ASSI
100
AcDbLine
 62
7
  6
CONTINUOUS
 10
-4.2558742982
 20
-20.4016116244
 11
-4.704779624
 21
-20.1424193154
  0
LINE
  5
314
100
AcDbEntity
  8
0
100
AcDbLine
 62
7
  6
CONTINUOUS
 10
-2.4535078427
 20
-21.4421479885
 11
-2.8667467025
 21
-21.20354905
  0
LINE
  5
315
100
AcDbEntity
  8
ASSI
100
AcDbLine
 62
7
  6
CONTINUOUS
 10
-2.4535078427
 20
-21.4421479885
 11
-2.8667467025
 21
-21.20354905
  0
LWPOLYLINE
  5
316
100
AcDbEntity
  8
RACCORDO
100
AcDbPolyline
 62
250
  6
CONTINUOUS
 90
31
 70
0
 10
-56.1396789193
 20
11.7840702664
 10
-56.1695423367
 20
11.8019081805
 10
-56.1989969038
 20
11.8204560073
 10
-56.2280425898
 20
11.8397137667
 10
-56.2566725135
 20
11.8597093591
 10
-56.284893435
 20
11.8804149613
 10
-56.312725766
 20
11.9017470199
 10
-56.3401656892
 20
11.9236918124
 10
-56.3672168174
 20
11.9462631918
 10
-56.3939107018
 20
11.9694189712
 10
-56.4202460375
 20
11.9931475424
 10
-56.4462238578
 20
12.0174606871
 10
-56.4718792164
 20
12.0423513063
 10
-56.4972137001
 20
12.0678105565
 10
-56.522225385
 20
12.0938474962
 10
-56.5469440442
 20
12.1204818887
 10
-56.571373607
 20
12.1477076068
 10
-56.5955097319
 20
12.1755310405
 10
-56.6193697584
 20
12.2039907455
 10
-56.6429593725
 20
12.2330828163
 10
-56.6662723822
 20
12.2628114807
 10
-56.6893082648
 20
12.2932275234
 10
-56.7120741371
 20
12.3243288372
 10
-56.7345622561
 20
12.3561179275
 10
-56.7567497409
 20
12.3886525419
 10
-56.7786450304
 20
12.4219315554
 10
-56.8002389052
 20
12.4559565888
 10
-56.8214819011
 20
12.4907895686
 10
-56.842357184
 20
12.5264513563
 10
-56.8628805959
 20
12.56292172
 10
-56.8830516132
 20
12.6002009916
  0
LWPOLYLINE
  5
317
100
AcDbEntity
  8
ASSI
100
AcDbPolyline
 62
250
  6
CONTINUOUS
 90
31
 70
0
 10
-56.1396789193
 20
11.7840702664
 10
-56.1695423367
 20
11.8019081805
 10
-56.1989969038
 20
11.8204560073
 10
-56.2280425898
 20
11.8397137667
 10
-56.2566725135
 20
11.8597093591
 10
-56.284893435
 20
11.8804149613
 10
-56.312725766
 20
11.9017470199
 10
-56.3401656892
 20
11.9236918124
 10
-56.3672168174
 20
11.9462631918
 10
-56.3939107018
 20
11.9694189712
 10
-56.4202460375
 20
11.9931475424
 10
-56.4462238578
 20
12.0174606871
 10
-56.4718792164
 20
12.0423513063
 10
-56.4972137001
 20
12.0678105565
 10
-56.522225385
 20
12.0938474962
 10
-56.5469440442
 20
12.1204818887
 10
-56.571373607
 20
12.1477076068
 10
-56.5955097319
 20
12.1755310405
 10
-56.6193697584
 20
12.2039907455
 10
-56.6429593725
 20
12.2330828163
 10
-56.6662723822
 20
12.2628114807
 10
-56.6893082648
 20
12.2932275234
 10
-56.7120741371
 20
12.3243288372
 10
-56.7345622561
 20
12.3561179275
 10
-56.7567497409
 20
12.3886525419
 10
-56.7786450304
 20
12.4219315554
 10
-56.8002389052
 20
12.4559565888
 10
-56.8214819011
 20
12.4907895686
 10
-56.842357184
 20
12.5264513563
 10
-56.8628805959
 20
12.56292172
 10
-56.8830516132
 20
12.6002009916
  0
LWPOLYLINE
  5
318
100
AcDbEntity
  8
RACCORDO
100
AcDbPolyline
 62
250
  6
CONTINUOUS
 90
10
 70
0
 10
-74.7196759524
 20
22.8988336918
 10
-74.7367993286
 20
22.9096861274
 10
-74.7522940171
 20
22.9214191944
 10
-74.7660498103
 20
22.9339494402
 10
-74.7779688688
 20
22.9471877421
 10
-74.7879664169
 20
22.9610399413
 10
-74.7959713461
 20
22.9754075125
 10
-74.8019267204
 20
22.9901882648
 10
-74.8057901817
 20
23.0052770688
 10
-74.8075342506
 20
23.0205666036
  0
LWPOLYLINE
  5
319
100
AcDbEntity
  8
ASSI
100
AcDbPolyline
 62
250
  6
CONTINUOUS
 90
10
 70
0
 10
-74.7196759524
 20
22.8988336918
 10
-74.7367993286
 20
22.9096861274
 10
-74.7522940171
 20
22.9214191944
 10
-74.7660498103
 20
22.9339494402
 10
-74.7779688688
 20
22.9471877421
 10
-74.7879664169
 20
22.9610399413
 10
-74.7959713461
 20
22.9754075125
 10
-74.8019267204
 20
22.9901882648
 10
-74.8057901817
 20
23.0052770688
 10
-74.8075342506
 20
23.0205666036
  0
LWPOLYLINE
  5
31A
100
AcDbEntity
  8
0
100
AcDbPolyline
 62
7
  6
CONTINUOUS
 90
10
 70
0
 10
2.6759182343
 20
-24.629903918
 10
2.6412747158
 20
-24.606183059
 10
2.6062817333
 20
-24.583523583
 10
2.5709392179
 20
-24.5619255358
 10
2.5351912504
 20
-24.5413399311
 10
2.4990937181
 20
-24.5218157762
 10
2.462814317
 20
-24.5035000711
 10
2.4264090106
 20
-24.4864417725
 10
2.3898220288
 20
-24.4705917955
 10
2.3530535255
 20
-24.455950038
  0
LWPOLYLINE
  5
31B
100
AcDbEntity
  8
ASSI
100
AcDbPolyline
 62
7
  6
CONTINUOUS
 90
10
 70
0
 10
2.6759182343
 20
-24.629903918
 10
2.6412747158
 20
-24.606183059
 10
2.6062817333
 20
-24.583523583
 10
2.5709392179
 20
-24.5619255358
 10
2.5351912504
 20
-24.5413399311
 10
2.4990937181
 20
-24.5218157762
 10
2.462814317
 20
-24.5035000711
 10
2.4264090106
 20
-24.4864417725
 10
2.3898220288
 20
-24.4705917955
 10
2.3530535255
 20
-24.455950038
  0
LWPOLYLINE
  5
31C
100
AcDbEntity
  8
0
100
AcDbPolyline
 62
7
  6
CONTINUOUS
 90
10
 70
0
 10
2.569564361
 20
-24.6913113116
 10
2.5350355156
 20
-24.6676613492
 10
2.5001273557
 20
-24.6450521686
 10
2.4648398126
 20
-24.6234838152
 10
2.4291154198
 20
-24.6029034498
 10
2.393011612
 20
-24.5833639326
 10
2.3567007268
 20
-24.5650238229
 10
2.3202402754
 20
-24.5479359302
 10
2.2835729407
 20
-24.5320473164
 10
2.2466988773
 20
-24.5173578789
  0
LWPOLYLINE
  5
31D
100
AcDbEntity
  8
ASSI
100
AcDbPolyline
 62
7
  6
CONTINUOUS
 90
10
 70
0
 10
2.569564361
 20
-24.6913113116
 10
2.5350355156
 20
-24.6676613492
 10
2.5001273557
 20
-24.6450521686
 10
2.4648398126
 20
-24.6234838152
 10
2.4291154198
 20
-24.6029034498
 10
2.393011612
 20
-24.5833639326
 10
2.3567007268
 20
-24.5650238229
 10
2.3202402754
 20
-24.5479359302
 10
2.2835729407
 20
-24.5320473164
 10
2.2466988773
 20
-24.5173578789
  0
LWPOLYLINE
  5
31E
100
AcDbEntity
  8
RACCORDO
100
AcDbPolyline
 62
250
  6
CONTINUOUS
 90
22
 70
0
 10
-56.8830403862
 20
49.6152009966
 10
-56.8626641978
 20
49.5852573133
 10
-56.8405262632
 20
49.5564427695
 10
-56.8167437992
 20
49.5289099337
 10
-56.7914427304
 20
49.502804588
 10
-56.7647570219
 20
49.4782649562
 10
-56.7368279703
 20
49.4554209716
 10
-56.7078034557
 20
49.4343935896
 10
-56.6778371583
 20
49.4152941469
 10
-56.6470877449
 20
49.398223772
 10
-56.6157180289
 20
49.3832728499
 10
-56.583894108
 20
49.3705205434
 10
-56.551784485
 20
49.3600343738
 10
-56.5195591751
 20
49.3518698639
 10
-56.4873888065
 20
49.3460702434
 10
-56.4554437161
 20
49.3426662203
 10
-56.4238930483
 20
49.3416758185
 10
-56.3929038588
 20
49.343104282
 10
-56.3626402307
 20
49.3469440472
 10
-56.333262405
 20
49.3531747832
 10
-56.3049259327
 20
49.3617634992
 10
-56.2777808512
 20
49.3726647193
  0
LWPOLYLINE
  5
31F
100
AcDbEntity
  8
ASSI
100
AcDbPolyline
 62
250
  6
CONTINUOUS
 90
22
 70
0
 10
-56.8830403862
 20
49.6152009966
 10
-56.8626641978
 20
49.5852573133
 10
-56.8405262632
 20
49.5564427695
 10
-56.8167437992
 20
49.5289099337
 10
-56.7914427304
 20
49.502804588
 10
-56.7647570219
 20
49.4782649562
 10
-56.7368279703
 20
49.4554209716
 10
-56.7078034557
 20
49.4343935896
 10
-56.6778371583
 20
49.4152941469
 10
-56.6470877449
 20
49.398223772
 10
-56.6157180289
 20
49.3832728499
 10
-56.583894108
 20
49.3705205434
 10
-56.551784485
 20
49.3600343738
 10
-56.5195591751
 20
49.3518698639
 10
-56.4873888065
 20
49.3460702434
 10
-56.4554437161
 20
49.3426662203
 10
-56.4238930483
 20
49.3416758185
 10
-56.3929038588
 20
49.343104282
 10
-56.3626402307
 20
49.3469440472
 10
-56.333262405
 20
49.3531747832
 10
-56.3049259327
 20
49.3617634992
 10
-56.2777808512
 20
49.3726647193
  0
LWPOLYLINE
  5
320
100
AcDbEntity
  8
0
100
AcDbPolyline
 62
250
  6
CONTINUOUS
 90
10
 70
0
 10
-26.2993951386
 20
-0.7931615829
 10
-26.3039982304
 20
-0.7824820081
 10
-26.3098004633
 20
-0.7719422342
 10
-26.3167263555
 20
-0.7616748955
 10
-26.3247897414
 20
-0.7516847657
 10
-26.3339767867
 20
-0.7419670712
 10
-26.3441705065
 20
-0.7326401251
 10
-26.3553319061
 20
-0.723743365
 10
-26.3674999803
 20
-0.7152373533
 10
-26.3806747291
 20
-0.7071220899
  0
LWPOLYLINE
  5
321
100
AcDbEntity
  8
ASSI
100
AcDbPolyline
 62
250
  6
CONTINUOUS
 90
10
 70
0
 10
-26.2993951386
 20
-0.7931615829
 10
-26.3039982304
 20
-0.7824820081
 10
-26.3098004633
 20
-0.7719422342
 10
-26.3167263555
 20
-0.7616748955
 10
-26.3247897414
 20
-0.7516847657
 10
-26.3339767867
 20
-0.7419670712
 10
-26.3441705065
 20
-0.7326401251
 10
-26.3553319061
 20
-0.723743365
 10
-26.3674999803
 20
-0.7152373533
 10
-26.3806747291
 20
-0.7071220899
  0
LWPOLYLINE
  5
322
100
AcDbEntity
  8
0
100
AcDbPolyline
 62
250
  6
CONTINUOUS
 90
12
 70
0
 10
-26.2283640311
 20
-1.7772993806
 10
-26.2073364817
 20
-1.7628669827
 10
-26.1878831177
 20
-1.7476921046
 10
-26.1700844357
 20
-1.7318340257
 10
-26.1540157377
 20
-1.7153544193
 10
-26.1397420234
 20
-1.6983186902
 10
-26.1273194892
 20
-1.6807951994
 10
-26.1167990717
 20
-1.6628477659
 10
-26.108230753
 20
-1.6445521984
 10
-26.1016559563
 20
-1.6259978538
 10
-26.0971019787
 20
-1.6072633123
 10
-26.0945854295
 20
-1.5884194153
  0
LWPOLYLINE
  5
323
100
AcDbEntity
  8
ASSI
100
AcDbPolyline
 62
250
  6
CONTINUOUS
 90
12
 70
0
 10
-26.2283640311
 20
-1.7772993806
 10
-26.2073364817
 20
-1.7628669827
 10
-26.1878831177
 20
-1.7476921046
 10
-26.1700844357
 20
-1.7318340257
 10
-26.1540157377
 20
-1.7153544193
 10
-26.1397420234
 20
-1.6983186902
 10
-26.1273194892
 20
-1.6807951994
 10
-26.1167990717
 20
-1.6628477659
 10
-26.108230753
 20
-1.6445521984
 10
-26.1016559563
 20
-1.6259978538
 10
-26.0971019787
 20
-1.6072633123
 10
-26.0945854295
 20
-1.5884194153
  0
LWPOLYLINE
  5
324
100
AcDbEntity
  8
0
100
AcDbPolyline
 62
7
  6
CONTINUOUS
 90
15
 70
0
 10
-26.2643211855
 20
-1.8653669745
 10
-26.2546879572
 20
-1.8588273883
 10
-26.2306925812
 20
-1.8408915133
 10
-26.2086929809
 20
-1.8220053943
 10
-26.1887015599
 20
-1.8022920666
 10
-26.1706753819
 20
-1.7818159434
 10
-26.1545472516
 20
-1.7605923615
 10
-26.140332996
 20
-1.738730328
 10
-26.1280367298
 20
-1.7163287783
 10
-26.117625349
 20
-1.6934046377
 10
-26.109120433
 20
-1.670090947
 10
-26.1025206354
 20
-1.6465000543
 10
-26.0978010754
 20
-1.6226316718
 10
-26.0949766511
 20
-1.5986186785
 10
-26.0940431371
 20
-1.5747198629
  0
LWPOLYLINE
  5
325
100
AcDbEntity
  8
ASSI
100
AcDbPolyline
 62
7
  6
CONTINUOUS
 90
15
 70
0
 10
-26.2643211855
 20
-1.8653669745
 10
-26.2546879572
 20
-1.8588273883
 10
-26.2306925812
 20
-1.8408915133
 10
-26.2086929809
 20
-1.8220053943
 10
-26.1887015599
 20
-1.8022920666
 10
-26.1706753819
 20
-1.7818159434
 10
-26.1545472516
 20
-1.7605923615
 10
-26.140332996
 20
-1.738730328
 10
-26.1280367298
 20
-1.7163287783
 10
-26.117625349
 20
-1.6934046377
 10
-26.109120433
 20
-1.670090947
 10
-26.1025206354
 20
-1.6465000543
 10
-26.0978010754
 20
-1.6226316718
 10
-26.0949766511
 20
-1.5986186785
 10
-26.0940431371
 20
-1.5747198629
  0
LINE
  5
326
100
AcDbEntity
  8
0
100
AcDbLine
 62
250
  6
CONTINUOUS
 10
-26.6904818915
 20
-2.0827375674
 11
-26.2283640311
 21
-1.7772993806
  0
LINE
  5
327
100
AcDbEntity
  8
ASSI
100
AcDbLine
 62
250
  6
CONTINUOUS
 10
-26.6904818915
 20
-2.0827375674
 11
-26.2283640311
 21
-1.7772993806
  0
LINE
  5
328
100
AcDbEntity
  8
0
100
AcDbLine
 62
7
  6
CONTINUOUS
 10
-26.6385538863
 20
-2.1127201468
 11
-26.264355598
 21
-1.8653926651
  0
LINE
  5
329
100
AcDbEntity
  8
ASSI
100
AcDbLine
 62
7
  6
CONTINUOUS
 10
-26.6385538863
 20
-2.1127201468
 11
-26.264355598
 21
-1.8653926651
  0
LWPOLYLINE
  5
32A
100
AcDbEntity
  8
0
100
AcDbPolyline
 62
250
  6
CONTINUOUS
 90
13
 70
0
 10
-26.2283537924
 20
-1.1884242784
 10
-26.207326142
 20
-1.174676999
 10
-26.1878677373
 20
-1.1601734882
 10
-26.1700604768
 20
-1.1449724938
 10
-26.1539771403
 20
-1.1291335755
 10
-26.1396893499
 20
-1.1127232302
 10
-26.1272641781
 20
-1.0958155256
 10
-26.1167542023
 20
-1.0784833998
 10
-26.1082000153
 20
-1.0607954462
 10
-26.1016364061
 20
-1.0428225748
 10
-26.0970903125
 20
-1.0246383672
 10
-26.094580687
 20
-1.0063182861
 10
-26.0940408852
 20
-0.9930117971
  0
LWPOLYLINE
  5
32B
100
AcDbEntity
  8
ASSI
100
AcDbPolyline
 62
250
  6
CONTINUOUS
 90
13
 70
0
 10
-26.2283537924
 20
-1.1884242784
 10
-26.207326142
 20
-1.174676999
 10
-26.1878677373
 20
-1.1601734882
 10
-26.1700604768
 20
-1.1449724938
 10
-26.1539771403
 20
-1.1291335755
 10
-26.1396893499
 20
-1.1127232302
 10
-26.1272641781
 20
-1.0958155256
 10
-26.1167542023
 20
-1.0784833998
 10
-26.1082000153
 20
-1.0607954462
 10
-26.1016364061
 20
-1.0428225748
 10
-26.0970903125
 20
-1.0246383672
 10
-26.094580687
 20
-1.0063182861
 10
-26.0940408852
 20
-0.9930117971
  0
LWPOLYLINE
  5
32C
100
AcDbEntity
  8
0
100
AcDbPolyline
 62
250
  6
CONTINUOUS
 90
16
 70
0
 10
-26.373400653
 20
-0.9456746912
 10
-26.3606942244
 20
-0.9374091082
 10
-26.3490244196
 20
-0.9287633739
 10
-26.3383912384
 20
-0.9197374883
 10
-26.3287581421
 20
-0.9102901139
 10
-26.3201616695
 20
-0.9004625881
 10
-26.3127114372
 20
-0.8903789234
 10
-26.306423396
 20
-0.8800374778
 10
-26.3012815951
 20
-0.8694398932
 10
-26.2973477978
 20
-0.8587151072
 10
-26.2946367212
 20
-0.8478613378
 10
-26.2931336482
 20
-0.8368803669
 10
-26.2928561922
 20
-0.8259064777
 10
-26.2938190493
 20
-0.8149401914
 10
-26.2960075234
 20
-0.8039809868
 10
-26.2993951386
 20
-0.7931615829
  0
LWPOLYLINE
  5
32D
100
AcDbEntity
  8
ASSI
100
AcDbPolyline
 62
250
  6
CONTINUOUS
 90
16
 70
0
 10
-26.373400653
 20
-0.9456746912
 10
-26.3606942244
 20
-0.9374091082
 10
-26.3490244196
 20
-0.9287633739
 10
-26.3383912384
 20
-0.9197374883
 10
-26.3287581421
 20
-0.9102901139
 10
-26.3201616695
 20
-0.9004625881
 10
-26.3127114372
 20
-0.8903789234
 10
-26.306423396
 20
-0.8800374778
 10
-26.3012815951
 20
-0.8694398932
 10
-26.2973477978
 20
-0.8587151072
 10
-26.2946367212
 20
-0.8478613378
 10
-26.2931336482
 20
-0.8368803669
 10
-26.2928561922
 20
-0.8259064777
 10
-26.2938190493
 20
-0.8149401914
 10
-26.2960075234
 20
-0.8039809868
 10
-26.2993951386
 20
-0.7931615829
  0
LINE
  5
32E
100
AcDbEntity
  8
0
100
AcDbLine
 62
250
  6
CONTINUOUS
 10
-27.486393661
 20
-1.6231880868
 11
-26.373400653
 21
-0.9456746912
  0
LINE
  5
32F
100
AcDbEntity
  8
ASSI
100
AcDbLine
 62
250
  6
CONTINUOUS
 10
-27.486393661
 20
-1.6231880868
 11
-26.373400653
 21
-0.9456746912
  0
LINE
  5
330
100
AcDbEntity
  8
0
100
AcDbLine
 62
250
  6
CONTINUOUS
 10
-27.2072949416
 20
-1.7843361895
 11
-26.2283537923
 21
-1.1884243218
  0
LINE
  5
331
100
AcDbEntity
  8
ASSI
100
AcDbLine
 62
250
  6
CONTINUOUS
 10
-27.2072949416
 20
-1.7843361895
 11
-26.2283537923
 21
-1.1884243218
  0
LINE
  5
332
100
AcDbEntity
  8
0
100
AcDbLine
 62
7
  6
CONTINUOUS
 10
-28.4720142985
 20
0.2241635661
 11
-29.6276940602
 21
-0.3868280731
  0
LINE
  5
333
100
AcDbEntity
  8
ASSI
100
AcDbLine
 62
7
  6
CONTINUOUS
 10
-28.4720142985
 20
0.2241635661
 11
-29.6276940602
 21
-0.3868280731
  0
LINE
  5
334
100
AcDbEntity
  8
0
100
AcDbLine
 62
250
  6
CONTINUOUS
 10
-28.3773028901
 20
0.2113533457
 11
-29.5708417664
 21
-0.4196538751
  0
LINE
  5
335
100
AcDbEntity
  8
ASSI
100
AcDbLine
 62
250
  6
CONTINUOUS
 10
-28.3773028901
 20
0.2113533457
 11
-29.5708417664
 21
-0.4196538751
  0
LWPOLYLINE
  5
336
100
AcDbEntity
  8
0
100
AcDbPolyline
 62
250
  6
CONTINUOUS
 90
10
 70
0
 10
-27.9605713477
 20
0.2050904169
 10
-27.9483192168
 20
0.2114266711
 10
-27.9361685677
 20
0.2164809512
 10
-27.9242108488
 20
0.2202152121
 10
-27.9125360572
 20
0.222601343
 10
-27.9012320618
 20
0.2236213791
 10
-27.8903839418
 20
0.2232676373
 10
-27.880073345
 20
0.221542774
 10
-27.8703778748
 20
0.2184597651
 10
-27.8618006307
 20
0.2142923036
  0
LWPOLYLINE
  5
337
100
AcDbEntity
  8
ASSI
100
AcDbPolyline
 62
250
  6
CONTINUOUS
 90
10
 70
0
 10
-27.9605713477
 20
0.2050904169
 10
-27.9483192168
 20
0.2114266711
 10
-27.9361685677
 20
0.2164809512
 10
-27.9242108488
 20
0.2202152121
 10
-27.9125360572
 20
0.222601343
 10
-27.9012320618
 20
0.2236213791
 10
-27.8903839418
 20
0.2232676373
 10
-27.880073345
 20
0.221542774
 10
-27.8703778748
 20
0.2184597651
 10
-27.8618006307
 20
0.2142923036
  0
LWPOLYLINE
  5
338
100
AcDbEntity
  8
0
100
AcDbPolyline
 62
250
  6
CONTINUOUS
 90
10
 70
0
 10
-26.3806747291
 20
-0.7071220899
 10
-26.3684224602
 20
-0.7007857704
 10
-26.3562716943
 20
-0.6957314611
 10
-26.3443138821
 20
-0.6919972026
 10
-26.332639022
 20
-0.6896110999
 10
-26.3213349828
 20
-0.6885911118
 10
-26.3104868424
 20
-0.6889449149
 10
-26.3001762476
 20
-0.6906698465
 10
-26.2904807993
 20
-0.6937529242
 10
-26.2819040155
 20
-0.6979202012
  0
LWPOLYLINE
  5
339
100
AcDbEntity
  8
ASSI
100
AcDbPolyline
 62
250
  6
CONTINUOUS
 90
10
 70
0
 10
-26.3806747291
 20
-0.7071220899
 10
-26.3684224602
 20
-0.7007857704
 10
-26.3562716943
 20
-0.6957314611
 10
-26.3443138821
 20
-0.6919972026
 10
-26.332639022
 20
-0.6896110999
 10
-26.3213349828
 20
-0.6885911118
 10
-26.3104868424
 20
-0.6889449149
 10
-26.3001762476
 20
-0.6906698465
 10
-26.2904807993
 20
-0.6937529242
 10
-26.2819040155
 20
-0.6979202012
  0
LINE
  5
33A
100
AcDbEntity
  8
0
100
AcDbLine
 62
7
  6
CONTINUOUS
 10
-28.4534302166
 20
0.2335033873
 11
-28.4720414316
 21
0.2241493703
  0
LINE
  5
33B
100
AcDbEntity
  8
ASSI
100
AcDbLine
 62
7
  6
CONTINUOUS
 10
-28.4534302166
 20
0.2335033873
 11
-28.4720414316
 21
0.2241493703
  0
LWPOLYLINE
  5
33C
100
AcDbEntity
  8
0
100
AcDbPolyline
 62
250
  6
CONTINUOUS
 90
10
 70
0
 10
37.3577062874
 20
-37.4426335985
 10
37.3491291932
 20
-37.438466197
 10
37.3394337303
 20
-37.4353831659
 10
37.3291231345
 20
-37.4336582806
 10
37.3182750084
 20
-37.4333045191
 10
37.3069709995
 20
-37.43432454
 10
37.2952961865
 20
-37.4367106622
 10
37.2833384382
 20
-37.4404449229
 10
37.2711877522
 20
-37.4454992132
 10
37.2589355777
 20
-37.4518354894
  0
LWPOLYLINE
  5
33D
100
AcDbEntity
  8
ASSI
100
AcDbPolyline
 62
250
  6
CONTINUOUS
 90
10
 70
0
 10
37.3577062874
 20
-37.4426335985
 10
37.3491291932
 20
-37.438466197
 10
37.3394337303
 20
-37.4353831659
 10
37.3291231345
 20
-37.4336582806
 10
37.3182750084
 20
-37.4333045191
 10
37.3069709995
 20
-37.43432454
 10
37.2952961865
 20
-37.4367106622
 10
37.2833384382
 20
-37.4404449229
 10
37.2711877522
 20
-37.4454992132
 10
37.2589355777
 20
-37.4518354894
  0
LWPOLYLINE
  5
33E
100
AcDbEntity
  8
0
100
AcDbPolyline
 62
250
  6
CONTINUOUS
 90
10
 70
0
 10
35.7778096726
 20
-36.5304210939
 10
35.7692328889
 20
-36.5262538168
 10
35.7595374405
 20
-36.5231707392
 10
35.7492268457
 20
-36.5214458076
 10
35.7383787054
 20
-36.5210920044
 10
35.7270746662
 20
-36.5221119926
 10
35.7153998061
 20
-36.5244980952
 10
35.7034419939
 20
-36.5282323538
 10
35.691291228
 20
-36.5332866631
 10
35.6790389591
 20
-36.5396229826
  0
LWPOLYLINE
  5
33F
100
AcDbEntity
  8
ASSI
100
AcDbPolyline
 62
250
  6
CONTINUOUS
 90
10
 70
0
 10
35.7778096726
 20
-36.5304210939
 10
35.7692328889
 20
-36.5262538168
 10
35.7595374405
 20
-36.5231707392
 10
35.7492268457
 20
-36.5214458076
 10
35.7383787054
 20
-36.5210920044
 10
35.7270746662
 20
-36.5221119926
 10
35.7153998061
 20
-36.5244980952
 10
35.7034419939
 20
-36.5282323538
 10
35.691291228
 20
-36.5332866631
 10
35.6790389591
 20
-36.5396229826
  0
LWPOLYLINE
  5
340
100
AcDbEntity
  8
RACCORDO
100
AcDbPolyline
 62
250
  6
CONTINUOUS
 90
22
 70
0
 10
-57.1063702852
 20
13.3478730017
 10
-57.0799077432
 20
13.3337827281
 10
-57.0517378844
 20
13.3209354278
 10
-57.022007935
 20
13.3093982457
 10
-56.990873275
 20
13.2992314794
 10
-56.958496626
 20
13.2904882643
 10
-56.9250472005
 20
13.2832142957
 10
-56.890699818
 20
13.2774475901
 10
-56.8556339907
 20
13.2732182866
 10
-56.8200329859
 20
13.2705484891
 10
-56.7840828681
 20
13.2694521508
 10
-56.747971526
 20
13.2699350018
 10
-56.7118876913
 20
13.2719945185
 10
-56.6760199516
 20
13.275619937
 10
-56.6405557654
 20
13.2807923095
 10
-56.6056804818
 20
13.2874846033
 10
-56.5715763723
 20
13.2956618419
 10
-56.5384216779
 20
13.305281288
 10
-56.5063896776
 20
13.3162926666
 10
-56.4756477826
 20
13.3286384283
 10
-56.4463566618
 20
13.3422540492
 10
-56.4186694016
 20
13.3570683692
  0
LWPOLYLINE
  5
341
100
AcDbEntity
  8
ASSI
100
AcDbPolyline
 62
250
  6
CONTINUOUS
 90
22
 70
0
 10
-57.1063702852
 20
13.3478730017
 10
-57.0799077432
 20
13.3337827281
 10
-57.0517378844
 20
13.3209354278
 10
-57.022007935
 20
13.3093982457
 10
-56.990873275
 20
13.2992314794
 10
-56.958496626
 20
13.2904882643
 10
-56.9250472005
 20
13.2832142957
 10
-56.890699818
 20
13.2774475901
 10
-56.8556339907
 20
13.2732182866
 10
-56.8200329859
 20
13.2705484891
 10
-56.7840828681
 20
13.2694521508
 10
-56.747971526
 20
13.2699350018
 10
-56.7118876913
 20
13.2719945185
 10
-56.6760199516
 20
13.275619937
 10
-56.6405557654
 20
13.2807923095
 10
-56.6056804818
 20
13.2874846033
 10
-56.5715763723
 20
13.2956618419
 10
-56.5384216779
 20
13.305281288
 10
-56.5063896776
 20
13.3162926666
 10
-56.4756477826
 20
13.3286384283
 10
-56.4463566618
 20
13.3422540492
 10
-56.4186694016
 20
13.3570683692
  0
LWPOLYLINE
  5
342
100
AcDbEntity
  8
0
100
AcDbPolyline
 62
250
  6
CONTINUOUS
 90
25
 70
0
 10
-27.9605713477
 20
0.2050904169
 10
-27.9746342409
 20
0.2127018262
 10
-27.9893887053
 20
0.2197405506
 10
-28.0048347409
 20
0.2262065901
 10
-28.0210409093
 20
0.2321226089
 10
-28.0379386489
 20
0.2374659428
 10
-28.0553222748
 20
0.2421685991
 10
-28.0732002496
 20
0.2462227022
 10
-28.0915641108
 20
0.2496361278
 10
-28.1101827856
 20
0.2523645098
 10
-28.1290564673
 20
0.2543984998
 10
-28.1481849626
 20
0.2557474462
 10
-28.1673366198
 20
0.2563950285
 10
-28.1865124791
 20
0.2563328405
 10
-28.2057115002
 20
0.2555692883
 10
-28.2246989107
 20
0.25411327
 10
-28.2434717267
 20
0.2519563474
 10
-28.2620329321
 20
0.2491069588
 10
-28.2801567054
 20
0.2455993165
 10
-28.2978403184
 20
0.2414242776
 10
-28.3150864994
 20
0.2365909851
 10
-28.3316776107
 20
0.2311610814
 10
-28.3475411067
 20
0.225155114
 10
-28.3627495332
 20
0.2185525354
 10
-28.3773028901
 20
0.2113533457
  0
LWPOLYLINE
  5
343
100
AcDbEntity
  8
ASSI
100
AcDbPolyline
 62
250
  6
CONTINUOUS
 90
25
 70
0
 10
-27.9605713477
 20
0.2050904169
 10
-27.9746342409
 20
0.2127018262
 10
-27.9893887053
 20
0.2197405506
 10
-28.0048347409
 20
0.2262065901
 10
-28.0210409093
 20
0.2321226089
 10
-28.0379386489
 20
0.2374659428
 10
-28.0553222748
 20
0.2421685991
 10
-28.0732002496
 20
0.2462227022
 10
-28.0915641108
 20
0.2496361278
 10
-28.1101827856
 20
0.2523645098
 10
-28.1290564673
 20
0.2543984998
 10
-28.1481849626
 20
0.2557474462
 10
-28.1673366198
 20
0.2563950285
 10
-28.1865124791
 20
0.2563328405
 10
-28.2057115002
 20
0.2555692883
 10
-28.2246989107
 20
0.25411327
 10
-28.2434717267
 20
0.2519563474
 10
-28.2620329321
 20
0.2491069588
 10
-28.2801567054
 20
0.2455993165
 10
-28.2978403184
 20
0.2414242776
 10
-28.3150864994
 20
0.2365909851
 10
-28.3316776107
 20
0.2311610814
 10
-28.3475411067
 20
0.225155114
 10
-28.3627495332
 20
0.2185525354
 10
-28.3773028901
 20
0.2113533457
  0
LWPOLYLINE
  5
344
100
AcDbEntity
  8
0
100
AcDbPolyline
 62
250
  6
CONTINUOUS
 90
25
 70
0
 10
-43.8704739244
 20
9.0646806561
 10
-43.8845368176
 20
9.0722920654
 10
-43.899291282
 20
9.0793307898
 10
-43.9147373176
 20
9.0857968293
 10
-43.930943486
 20
9.0917128481
 10
-43.9478412256
 20
9.097056182
 10
-43.9652248515
 20
9.1017588383
 10
-43.9831028263
 20
9.1058129414
 10
-44.0014666875
 20
9.1092263669
 10
-44.0200853623
 20
9.1119547489
 10
-44.038959044
 20
9.1139887389
 10
-44.0580875393
 20
9.1153376854
 10
-44.0772391965
 20
9.1159852677
 10
-44.0964150558
 20
9.1159230796
 10
-44.1156140769
 20
9.1151595275
 10
-44.1346014874
 20
9.1137035092
 10
-44.1533743034
 20
9.1115465866
 10
-44.1719355088
 20
9.1086971979
 10
-44.1900592821
 20
9.1051895557
 10
-44.2077428951
 20
9.1010145167
 10
-44.2249890761
 20
9.0961812242
 10
-44.2415801874
 20
9.0907513205
 10
-44.2574436834
 20
9.0847453531
 10
-44.2726521099
 20
9.0781427746
 10
-44.2872054668
 20
9.0709435848
  0
LWPOLYLINE
  5
345
100
AcDbEntity
  8
ASSI
100
AcDbPolyline
 62
250
  6
CONTINUOUS
 90
25
 70
0
 10
-43.8704739244
 20
9.0646806561
 10
-43.8845368176
 20
9.0722920654
 10
-43.899291282
 20
9.0793307898
 10
-43.9147373176
 20
9.0857968293
 10
-43.930943486
 20
9.0917128481
 10
-43.9478412256
 20
9.097056182
 10
-43.9652248515
 20
9.1017588383
 10
-43.9831028263
 20
9.1058129414
 10
-44.0014666875
 20
9.1092263669
 10
-44.0200853623
 20
9.1119547489
 10
-44.038959044
 20
9.1139887389
 10
-44.0580875393
 20
9.1153376854
 10
-44.0772391965
 20
9.1159852677
 10
-44.0964150558
 20
9.1159230796
 10
-44.1156140769
 20
9.1151595275
 10
-44.1346014874
 20
9.1137035092
 10
-44.1533743034
 20
9.1115465866
 10
-44.1719355088
 20
9.1086971979
 10
-44.1900592821
 20
9.1051895557
 10
-44.2077428951
 20
9.1010145167
 10
-44.2249890761
 20
9.0961812242
 10
-44.2415801874
 20
9.0907513205
 10
-44.2574436834
 20
9.0847453531
 10
-44.2726521099
 20
9.0781427746
 10
-44.2872054668
 20
9.0709435848
  0
LWPOLYLINE
  5
346
100
AcDbEntity
  8
0
100
AcDbPolyline
 62
7
  6
CONTINUOUS
 90
6
 70
0
 10
51.6877280097
 20
-46.0431986768
 10
51.6656506835
 20
-46.0311864075
 10
51.6388044608
 20
-46.0183920364
 10
51.6110316642
 20
-46.0069837971
 10
51.5823661471
 20
-45.9969329805
 10
51.5528883634
 20
-45.988238303
  0
LWPOLYLINE
  5
347
100
AcDbEntity
  8
ASSI
100
AcDbPolyline
 62
7
  6
CONTINUOUS
 90
6
 70
0
 10
51.6877280097
 20
-46.0431986768
 10
51.6656506835
 20
-46.0311864075
 10
51.6388044608
 20
-46.0183920364
 10
51.6110316642
 20
-46.0069837971
 10
51.5823661471
 20
-45.9969329805
 10
51.5528883634
 20
-45.988238303
  0
LWPOLYLINE
  5
348
100
AcDbEntity
  8
0
100
AcDbPolyline
 62
7
  6
CONTINUOUS
 90
6
 70
0
 10
35.777825433
 20
-36.5304322162
 10
35.7557481068
 20
-36.5184199469
 10
35.7289018841
 20
-36.5056255758
 10
35.7011290875
 20
-36.4942173365
 10
35.6724635704
 20
-36.48416652
 10
35.6429857867
 20
-36.4754718424
  0
LWPOLYLINE
  5
349
100
AcDbEntity
  8
ASSI
100
AcDbPolyline
 62
7
  6
CONTINUOUS
 90
6
 70
0
 10
35.777825433
 20
-36.5304322162
 10
35.7557481068
 20
-36.5184199469
 10
35.7289018841
 20
-36.5056255758
 10
35.7011290875
 20
-36.4942173365
 10
35.6724635704
 20
-36.48416652
 10
35.6429857867
 20
-36.4754718424
  0
LWPOLYLINE
  5
34A
100
AcDbEntity
  8
0
100
AcDbPolyline
 62
7
  6
CONTINUOUS
 90
6
 70
0
 10
-27.8617855637
 20
0.2142806073
 10
-27.8835656417
 20
0.2261412417
 10
-27.9104512767
 20
0.2389740368
 10
-27.9382593061
 20
0.2504115184
 10
-27.9669532561
 20
0.2604849582
 10
-27.9964547259
 20
0.2691957999
  0
LWPOLYLINE
  5
34B
100
AcDbEntity
  8
ASSI
100
AcDbPolyline
 62
7
  6
CONTINUOUS
 90
6
 70
0
 10
-27.8617855637
 20
0.2142806073
 10
-27.8835656417
 20
0.2261412417
 10
-27.9104512767
 20
0.2389740368
 10
-27.9382593061
 20
0.2504115184
 10
-27.9669532561
 20
0.2604849582
 10
-27.9964547259
 20
0.2691957999
  0
LWPOLYLINE
  5
34C
100
AcDbEntity
  8
0
100
AcDbPolyline
 62
7
  6
CONTINUOUS
 90
6
 70
0
 10
-43.7716881404
 20
9.0738708465
 10
-43.7934682184
 20
9.0857314808
 10
-43.8203538534
 20
9.0985642759
 10
-43.8481618828
 20
9.1100017576
 10
-43.8768558328
 20
9.1200751974
 10
-43.9063573026
 20
9.1287860391
  0
LWPOLYLINE
  5
34D
100
AcDbEntity
  8
ASSI
100
AcDbPolyline
 62
7
  6
CONTINUOUS
 90
6
 70
0
 10
-43.7716881404
 20
9.0738708465
 10
-43.7934682184
 20
9.0857314808
 10
-43.8203538534
 20
9.0985642759
 10
-43.8481618828
 20
9.1100017576
 10
-43.8768558328
 20
9.1200751974
 10
-43.9063573026
 20
9.1287860391
  0
LWPOLYLINE
  5
34E
100
AcDbEntity
  8
RACCORDO
100
AcDbPolyline
 62
250
  6
CONTINUOUS
 90
31
 70
0
 10
-55.8051389345
 20
12.4066946459
 10
-55.8241157928
 20
12.41724636
 10
-55.8428652322
 20
12.4283098953
 10
-55.8613696019
 20
12.439849126
 10
-55.8795941772
 20
12.4518144555
 10
-55.8975423832
 20
12.464183928
 10
-55.9152552819
 20
12.476969298
 10
-55.9327190886
 20
12.4901421097
 10
-55.9499220119
 20
12.5036747729
 10
-55.9669081745
 20
12.5175913932
 10
-55.9836656176
 20
12.5318695174
 10
-56.0001835702
 20
12.5464874356
 10
-56.0165066876
 20
12.561480177
 10
-56.0326238134
 20
12.5768304527
 10
-56.0485236742
 20
12.5925208981
 10
-56.0642482994
 20
12.6085949184
 10
-56.0797859868
 20
12.6250389581
 10
-56.0951240443
 20
12.6418388532
 10
-56.1102994636
 20
12.6590441763
 10
-56.1252986145
 20
12.6766434409
 10
-56.1401066798
 20
12.6946246662
 10
-56.1547542438
 20
12.7130423478
 10
-56.169224455
 20
12.731885339
 10
-56.1834995777
 20
12.7511427876
 10
-56.1976030645
 20
12.7708739013
 10
-56.2115128497
 20
12.7910649215
 10
-56.2252080089
 20
12.8117060227
 10
-56.2387062887
 20
12.8328652482
 10
-56.2519936934
 20
12.8545567856
 10
-56.2650285997
 20
12.8767383156
 10
-56.2777823579
 20
12.8993926111
  0
LWPOLYLINE
  5
34F
100
AcDbEntity
  8
ASSI
100
AcDbPolyline
 62
250
  6
CONTINUOUS
 90
31
 70
0
 10
-55.8051389345
 20
12.4066946459
 10
-55.8241157928
 20
12.41724636
 10
-55.8428652322
 20
12.4283098953
 10
-55.8613696019
 20
12.439849126
 10
-55.8795941772
 20
12.4518144555
 10
-55.8975423832
 20
12.464183928
 10
-55.9152552819
 20
12.476969298
 10
-55.9327190886
 20
12.4901421097
 10
-55.9499220119
 20
12.5036747729
 10
-55.9669081745
 20
12.5175913932
 10
-55.9836656176
 20
12.5318695174
 10
-56.0001835702
 20
12.5464874356
 10
-56.0165066876
 20
12.561480177
 10
-56.0326238134
 20
12.5768304527
 10
-56.0485236742
 20
12.5925208981
 10
-56.0642482994
 20
12.6085949184
 10
-56.0797859868
 20
12.6250389581
 10
-56.0951240443
 20
12.6418388532
 10
-56.1102994636
 20
12.6590441763
 10
-56.1252986145
 20
12.6766434409
 10
-56.1401066798
 20
12.6946246662
 10
-56.1547542438
 20
12.7130423478
 10
-56.169224455
 20
12.731885339
 10
-56.1834995777
 20
12.7511427876
 10
-56.1976030645
 20
12.7708739013
 10
-56.2115128497
 20
12.7910649215
 10
-56.2252080089
 20
12.8117060227
 10
-56.2387062887
 20
12.8328652482
 10
-56.2519936934
 20
12.8545567856
 10
-56.2650285997
 20
12.8767383156
 10
-56.2777823579
 20
12.8993926111
  0
LWPOLYLINE
  5
350
100
AcDbEntity
  8
0
100
AcDbPolyline
 62
250
  6
CONTINUOUS
 90
10
 70
0
 10
-44.2872054668
 20
9.0709435848
 10
-44.2990959101
 20
9.077674709
 10
-44.3109052839
 20
9.0831069667
 10
-44.3225437463
 20
9.0871990311
 10
-44.333922756
 20
9.0899197712
 10
-44.3449557455
 20
9.0912484886
 10
-44.3555587796
 20
9.0911750749
 10
-44.365651194
 20
9.0897000885
 10
-44.3751562091
 20
9.0868347506
 10
-44.3819168752
 20
9.0837538053
  0
LWPOLYLINE
  5
351
100
AcDbEntity
  8
ASSI
100
AcDbPolyline
 62
250
  6
CONTINUOUS
 90
10
 70
0
 10
-44.2872054668
 20
9.0709435848
 10
-44.2990959101
 20
9.077674709
 10
-44.3109052839
 20
9.0831069667
 10
-44.3225437463
 20
9.0871990311
 10
-44.333922756
 20
9.0899197712
 10
-44.3449557455
 20
9.0912484886
 10
-44.3555587796
 20
9.0911750749
 10
-44.365651194
 20
9.0897000885
 10
-44.3751562091
 20
9.0868347506
 10
-44.3819168752
 20
9.0837538053
  0
LWPOLYLINE
  5
352
100
AcDbEntity
  8
0
100
AcDbPolyline
 62
250
  6
CONTINUOUS
 90
10
 70
0
 10
-28.3773028901
 20
0.2113533457
 10
-28.3891933334
 20
0.2180844699
 10
-28.4010027072
 20
0.2235167275
 10
-28.4126411696
 20
0.2276087919
 10
-28.4240201794
 20
0.2303295321
 10
-28.4350531688
 20
0.2316582495
 10
-28.4456562029
 20
0.2315848357
 10
-28.4557486173
 20
0.2301098493
 10
-28.4652536324
 20
0.2272445115
 10
-28.4720142985
 20
0.2241635661
  0
LWPOLYLINE
  5
353
100
AcDbEntity
  8
ASSI
100
AcDbPolyline
 62
250
  6
CONTINUOUS
 90
10
 70
0
 10
-28.3773028901
 20
0.2113533457
 10
-28.3891933334
 20
0.2180844699
 10
-28.4010027072
 20
0.2235167275
 10
-28.4126411696
 20
0.2276087919
 10
-28.4240201794
 20
0.2303295321
 10
-28.4350531688
 20
0.2316582495
 10
-28.4456562029
 20
0.2315848357
 10
-28.4557486173
 20
0.2301098493
 10
-28.4652536324
 20
0.2272445115
 10
-28.4720142985
 20
0.2241635661
  0
LINE
  5
354
100
AcDbEntity
  8
RACCORDO
100
AcDbLine
 62
250
  6
CONTINUOUS
 10
54.4414210293
 20
-52.0640709373
 11
-56.1396789193
 21
11.7840702664
  0
LINE
  5
355
100
AcDbEntity
  8
ASSI
100
AcDbLine
 62
250
  6
CONTINUOUS
 10
54.4414210293
 20
-52.0640709373
 11
-56.1396789193
 21
11.7840702664
  0
LINE
  5
356
100
AcDbEntity
  8
RACCORDO
100
AcDbLine
 62
250
  6
CONTINUOUS
 10
72.9847040444
 20
-62.3837796935
 11
55.1480729379
 21
-52.0851769062
  0
LINE
  5
357
100
AcDbEntity
  8
ASSI
100
AcDbLine
 62
250
  6
CONTINUOUS
 10
72.9847040444
 20
-62.3837796935
 11
55.1480729379
 21
-52.0851769062
  0
LINE
  5
358
100
AcDbEntity
  8
RACCORDO
100
AcDbLine
 62
250
  6
CONTINUOUS
 10
-56.8830498598
 20
12.6001999792
 11
-74.7196779341
 21
22.8988794048
  0
LINE
  5
359
100
AcDbEntity
  8
ASSI
100
AcDbLine
 62
250
  6
CONTINUOUS
 10
-56.8830498598
 20
12.6001999792
 11
-74.7196779341
 21
22.8988794048
  0
LINE
  5
35A
100
AcDbEntity
  8
RACCORDO
100
AcDbLine
 62
250
  6
CONTINUOUS
 10
54.7759853903
 20
-51.4414603955
 11
-55.8051387295
 21
12.4066947643
  0
LINE
  5
35B
100
AcDbEntity
  8
ASSI
100
AcDbLine
 62
250
  6
CONTINUOUS
 10
54.7759853903
 20
-51.4414603955
 11
-55.8051387295
 21
12.4066947643
  0
LINE
  5
35C
100
AcDbEntity
  8
0
100
AcDbLine
 62
7
  6
CONTINUOUS
 10
55.0918695119
 20
-49.3028422941
 11
-53.7952027208
 21
13.5671885375
  0
LINE
  5
35D
100
AcDbEntity
  8
ASSI
100
AcDbLine
 62
7
  6
CONTINUOUS
 10
55.0918695119
 20
-49.3028422941
 11
-53.7952027208
 21
13.5671885375
  0
LINE
  5
35E
100
AcDbEntity
  8
0
100
AcDbLine
 62
7
  6
CONTINUOUS
 10
3.3652898511
 20
-18.9026481816
 11
5.647784969
 21
-20.2205322563
  0
LINE
  5
35F
100
AcDbEntity
  8
ASSI
100
AcDbLine
 62
7
  6
CONTINUOUS
 10
3.3652898511
 20
-18.9026481816
 11
5.647784969
 21
-20.2205322563
  0
LINE
  5
360
100
AcDbEntity
  8
0
100
AcDbLine
 62
250
  6
CONTINUOUS
 10
-42.2905773058
 20
8.1524681492
 11
-43.8704739244
 21
9.0646806561
  0
LINE
  5
361
100
AcDbEntity
  8
ASSI
100
AcDbLine
 62
250
  6
CONTINUOUS
 10
-42.2905773058
 20
8.1524681492
 11
-43.8704739244
 21
9.0646806561
  0
LINE
  5
362
100
AcDbEntity
  8
0
100
AcDbLine
 62
250
  6
CONTINUOUS
 10
51.5889415358
 20
-46.0523894432
 11
53.1688381544
 21
-46.96460195
  0
LINE
  5
363
100
AcDbEntity
  8
ASSI
100
AcDbLine
 62
250
  6
CONTINUOUS
 10
51.5889415358
 20
-46.0523894432
 11
53.1688381544
 21
-46.96460195
  0
LINE
  5
364
100
AcDbEntity
  8
0
100
AcDbLine
 62
7
  6
CONTINUOUS
 10
-42.1918065922
 20
8.161670038
 11
-43.7717032066
 21
9.0738825423
  0
LINE
  5
365
100
AcDbEntity
  8
ASSI
100
AcDbLine
 62
7
  6
CONTINUOUS
 10
-42.1918065922
 20
8.161670038
 11
-43.7717032066
 21
9.0738825423
  0
LINE
  5
366
100
AcDbEntity
  8
0
100
AcDbLine
 62
7
  6
CONTINUOUS
 10
51.6877122493
 20
-46.0431875544
 11
53.2676088647
 21
-46.9554000594
  0
LINE
  5
367
100
AcDbEntity
  8
ASSI
100
AcDbLine
 62
7
  6
CONTINUOUS
 10
51.6877122493
 20
-46.0431875544
 11
53.2676088647
 21
-46.9554000594
  0
LINE
  5
368
100
AcDbEntity
  8
0
100
AcDbLine
 62
250
  6
CONTINUOUS
 10
-26.3806747291
 20
-0.7071220899
 11
-27.9605713477
 21
0.2050904169
  0
LINE
  5
369
100
AcDbEntity
  8
ASSI
100
AcDbLine
 62
250
  6
CONTINUOUS
 10
-26.3806747291
 20
-0.7071220899
 11
-27.9605713477
 21
0.2050904169
  0
LINE
  5
36A
100
AcDbEntity
  8
0
100
AcDbLine
 62
250
  6
CONTINUOUS
 10
35.6790389591
 20
-36.5396229826
 11
37.2589355777
 21
-37.4518354894
  0
LINE
  5
36B
100
AcDbEntity
  8
ASSI
100
AcDbLine
 62
250
  6
CONTINUOUS
 10
35.6790389591
 20
-36.5396229826
 11
37.2589355777
 21
-37.4518354894
  0
LINE
  5
36C
100
AcDbEntity
  8
0
100
AcDbLine
 62
7
  6
CONTINUOUS
 10
-26.2819040155
 20
-0.6979202012
 11
-27.8618006299
 21
0.2142923032
  0
LINE
  5
36D
100
AcDbEntity
  8
ASSI
100
AcDbLine
 62
7
  6
CONTINUOUS
 10
-26.2819040155
 20
-0.6979202012
 11
-27.8618006299
 21
0.2142923032
  0
LINE
  5
36E
100
AcDbEntity
  8
0
100
AcDbLine
 62
7
  6
CONTINUOUS
 10
35.7778096726
 20
-36.5304210939
 11
37.357706288
 21
-37.4426335988
  0
LINE
  5
36F
100
AcDbEntity
  8
ASSI
100
AcDbLine
 62
7
  6
CONTINUOUS
 10
35.7778096726
 20
-36.5304210939
 11
37.357706288
 21
-37.4426335988
  0
LINE
  5
370
100
AcDbEntity
  8
CURVE_VERNICE
100
AcDbLine
 62
250
  6
CONTINUOUS
 10
54.9639426432
 20
-45.2278957998
 11
-50.2588935626
 21
15.5264510735
  0
LINE
  5
371
100
AcDbEntity
  8
ASSI
100
AcDbLine
 62
250
  6
CONTINUOUS
 10
54.9639426432
 20
-45.2278957998
 11
-50.2588935626
 21
15.5264510735
  0
LWPOLYLINE
  5
372
100
AcDbEntity
  8
0
100
AcDbPolyline
 62
250
  6
CONTINUOUS
 90
19
 70
0
 10
-42.2833032297
 20
7.9139155479
 10
-42.2705620759
 20
7.9064246962
 10
-42.2579272427
 20
7.8977431727
 10
-42.2454948513
 20
7.887937024
 10
-42.2333594833
 20
7.8770808521
 10
-42.2216134603
 20
7.8652572475
 10
-42.2103461422
 20
7.8525561606
 10
-42.1996432469
 20
7.8390742174
 10
-42.1895861979
 20
7.824913984
 10
-42.1802515056
 20
7.8101831869
 10
-42.1717101851
 20
7.7949938931
 10
-42.1640272152
 20
7.7794616575
 10
-42.157261045
 20
7.7637046437
 10
-42.1514631489
 20
7.7478427257
 10
-42.146677635
 20
7.7319965754
 10
-42.1429409093
 20
7.7162867439
 10
-42.1402813994
 20
7.700832746
 10
-42.1387193377
 20
7.6857521503
 10
-42.1382666078
 20
7.6711596846
  0
LWPOLYLINE
  5
373
100
AcDbEntity
  8
ASSI
100
AcDbPolyline
 62
250
  6
CONTINUOUS
 90
19
 70
0
 10
-42.2833032297
 20
7.9139155479
 10
-42.2705620759
 20
7.9064246962
 10
-42.2579272427
 20
7.8977431727
 10
-42.2454948513
 20
7.887937024
 10
-42.2333594833
 20
7.8770808521
 10
-42.2216134603
 20
7.8652572475
 10
-42.2103461422
 20
7.8525561606
 10
-42.1996432469
 20
7.8390742174
 10
-42.1895861979
 20
7.824913984
 10
-42.1802515056
 20
7.8101831869
 10
-42.1717101851
 20
7.7949938931
 10
-42.1640272152
 20
7.7794616575
 10
-42.157261045
 20
7.7637046437
 10
-42.1514631489
 20
7.7478427257
 10
-42.146677635
 20
7.7319965754
 10
-42.1429409093
 20
7.7162867439
 10
-42.1402813994
 20
7.700832746
 10
-42.1387193377
 20
7.6857521503
 10
-42.1382666078
 20
7.6711596846
  0
LWPOLYLINE
  5
374
100
AcDbEntity
  8
0
100
AcDbPolyline
 62
250
  6
CONTINUOUS
 90
19
 70
0
 10
-26.373400653
 20
-0.9456746912
 10
-26.3606594992
 20
-0.953165543
 10
-26.348024666
 20
-0.9618470664
 10
-26.3355922746
 20
-0.9716532152
 10
-26.3234569066
 20
-0.9825093871
 10
-26.3117108836
 20
-0.9943329917
 10
-26.3004435655
 20
-1.0070340786
 10
-26.2897406702
 20
-1.0205160218
 10
-26.2796836212
 20
-1.0346762551
 10
-26.2703489289
 20
-1.0494070522
 10
-26.2618076084
 20
-1.0645963461
 10
-26.2541246385
 20
-1.0801285817
 10
-26.2473584683
 20
-1.0958855954
 10
-26.2415605722
 20
-1.1117475134
 10
-26.2367750583
 20
-1.1275936638
 10
-26.2330383326
 20
-1.1433034953
 10
-26.2303788227
 20
-1.1587574932
 10
-26.228816761
 20
-1.1738380889
 10
-26.2283640311
 20
-1.1884305545
  0
LWPOLYLINE
  5
375
100
AcDbEntity
  8
ASSI
100
AcDbPolyline
 62
250
  6
CONTINUOUS
 90
19
 70
0
 10
-26.373400653
 20
-0.9456746912
 10
-26.3606594992
 20
-0.953165543
 10
-26.348024666
 20
-0.9618470664
 10
-26.3355922746
 20
-0.9716532152
 10
-26.3234569066
 20
-0.9825093871
 10
-26.3117108836
 20
-0.9943329917
 10
-26.3004435655
 20
-1.0070340786
 10
-26.2897406702
 20
-1.0205160218
 10
-26.2796836212
 20
-1.0346762551
 10
-26.2703489289
 20
-1.0494070522
 10
-26.2618076084
 20
-1.0645963461
 10
-26.2541246385
 20
-1.0801285817
 10
-26.2473584683
 20
-1.0958855954
 10
-26.2415605722
 20
-1.1117475134
 10
-26.2367750583
 20
-1.1275936638
 10
-26.2330383326
 20
-1.1433034953
 10
-26.2303788227
 20
-1.1587574932
 10
-26.228816761
 20
-1.1738380889
 10
-26.2283640311
 20
-1.1884305545
  0
LWPOLYLINE
  5
376
100
AcDbEntity
  8
0
100
AcDbPolyline
 62
250
  6
CONTINUOUS
 90
10
 70
0
 10
37.2589355777
 20
-37.4518354894
 10
37.2721262643
 20
-37.4599613504
 10
37.2843075455
 20
-37.4684785868
 10
37.2954794211
 20
-37.4773871988
 10
37.3056812767
 20
-37.4867275612
 10
37.3148737268
 20
-37.496459299
 10
37.3229386152
 20
-37.5064612874
 10
37.3298608302
 20
-37.5167366701
 10
37.3356554835
 20
-37.5272823033
 10
37.3402497548
 20
-37.5379676305
  0
LWPOLYLINE
  5
377
100
AcDbEntity
  8
ASSI
100
AcDbPolyline
 62
250
  6
CONTINUOUS
 90
10
 70
0
 10
37.2589355777
 20
-37.4518354894
 10
37.2721262643
 20
-37.4599613504
 10
37.2843075455
 20
-37.4684785868
 10
37.2954794211
 20
-37.4773871988
 10
37.3056812767
 20
-37.4867275612
 10
37.3148737268
 20
-37.496459299
 10
37.3229386152
 20
-37.5064612874
 10
37.3298608302
 20
-37.5167366701
 10
37.3356554835
 20
-37.5272823033
 10
37.3402497548
 20
-37.5379676305
  0
LWPOLYLINE
  5
378
100
AcDbEntity
  8
0
100
AcDbPolyline
 62
250
  6
CONTINUOUS
 90
10
 70
0
 10
53.1688381544
 20
-46.96460195
 10
53.182028841
 20
-46.972727811
 10
53.1942101222
 20
-46.9812450474
 10
53.2053819978
 20
-46.9901536594
 10
53.2155838534
 20
-46.9994940218
 10
53.2247763035
 20
-47.0092257596
 10
53.2328411919
 20
-47.019227748
 10
53.2397634069
 20
-47.0295031307
 10
53.2455580602
 20
-47.0400487639
 10
53.2501523315
 20
-47.0507340911
  0
LWPOLYLINE
  5
379
100
AcDbEntity
  8
ASSI
100
AcDbPolyline
 62
250
  6
CONTINUOUS
 90
10
 70
0
 10
53.1688381544
 20
-46.96460195
 10
53.182028841
 20
-46.972727811
 10
53.1942101222
 20
-46.9812450474
 10
53.2053819978
 20
-46.9901536594
 10
53.2155838534
 20
-46.9994940218
 10
53.2247763035
 20
-47.0092257596
 10
53.2328411919
 20
-47.019227748
 10
53.2397634069
 20
-47.0295031307
 10
53.2455580602
 20
-47.0400487639
 10
53.2501523315
 20
-47.0507340911
  0
LWPOLYLINE
  5
37A
100
AcDbEntity
  8
RACCORDO
100
AcDbPolyline
 62
250
  6
CONTINUOUS
 90
9
 70
0
 10
55.3155315757
 20
-51.5631231272
 10
55.2909082152
 20
-51.5477171491
 10
55.2682591637
 20
-51.5312223506
 10
55.247702794
 20
-51.5137249401
 10
55.2293465422
 20
-51.4953163661
 10
55.2132863453
 20
-51.4760928391
 10
55.1996061403
 20
-51.4561548291
 10
55.1883774256
 20
-51.4356065401
 10
55.1796588868
 20
-51.4145553657
  0
LWPOLYLINE
  5
37B
100
AcDbEntity
  8
ASSI
100
AcDbPolyline
 62
250
  6
CONTINUOUS
 90
9
 70
0
 10
55.3155315757
 20
-51.5631231272
 10
55.2909082152
 20
-51.5477171491
 10
55.2682591637
 20
-51.5312223506
 10
55.247702794
 20
-51.5137249401
 10
55.2293465422
 20
-51.4953163661
 10
55.2132863453
 20
-51.4760928391
 10
55.1996061403
 20
-51.4561548291
 10
55.1883774256
 20
-51.4356065401
 10
55.1796588868
 20
-51.4145553657
  0
LWPOLYLINE
  5
37C
100
AcDbEntity
  8
0
100
AcDbPolyline
 62
7
  6
CONTINUOUS
 90
36
 70
0
 10
2.8473599616
 20
-24.5500923641
 10
2.8676395755
 20
-24.5702286287
 10
2.8882591225
 20
-24.5922671398
 10
2.9092189845
 20
-24.6162076451
 10
2.930582651
 20
-24.642026543
 10
2.9522875765
 20
-24.6697468117
 10
2.9741452482
 20
-24.6994379653
 10
2.9963168509
 20
-24.731229062
 10
3.018642713
 20
-24.7649900433
 10
3.0404532463
 20
-24.8004016093
 10
3.0617959006
 20
-24.8376885478
 10
3.0826253616
 20
-24.8766246575
 10
3.1021327402
 20
-24.9162142564
 10
3.1201871367
 20
-24.9564001173
 10
3.1369212926
 20
-24.9972382452
 10
3.1519211308
 20
-25.0379032356
 10
3.1650687019
 20
-25.0785132159
 10
3.1764832543
 20
-25.1189491933
 10
3.18610527
 20
-25.1580309039
 10
3.1937809922
 20
-25.1955654857
 10
3.1996636681
 20
-25.2317461339
 10
3.2041528267
 20
-25.2659726374
 10
3.2072621663
 20
-25.2979821341
 10
3.208976292
 20
-25.3280386093
 10
3.2096505218
 20
-25.3563325035
 10
3.2093151404
 20
-25.3828484066
 10
3.2079384415
 20
-25.4076026715
 10
3.2057828406
 20
-25.4308333281
 10
3.2028588873
 20
-25.4525517866
 10
3.1991548904
 20
-25.4727473951
 10
3.1949000275
 20
-25.4916250087
 10
3.1901087125
 20
-25.509181468
 10
3.1847655995
 20
-25.5254205523
 10
3.1790553429
 20
-25.5405574483
 10
3.1729947439
 20
-25.554608944
 10
3.1665662879
 20
-25.5675587264
  0
LWPOLYLINE
  5
37D
100
AcDbEntity
  8
ASSI
100
AcDbPolyline
 62
7
  6
CONTINUOUS
 90
36
 70
0
 10
2.8473599616
 20
-24.5500923641
 10
2.8676395755
 20
-24.5702286287
 10
2.8882591225
 20
-24.5922671398
 10
2.9092189845
 20
-24.6162076451
 10
2.930582651
 20
-24.642026543
 10
2.9522875765
 20
-24.6697468117
 10
2.9741452482
 20
-24.6994379653
 10
2.9963168509
 20
-24.731229062
 10
3.018642713
 20
-24.7649900433
 10
3.0404532463
 20
-24.8004016093
 10
3.0617959006
 20
-24.8376885478
 10
3.0826253616
 20
-24.8766246575
 10
3.1021327402
 20
-24.9162142564
 10
3.1201871367
 20
-24.9564001173
 10
3.1369212926
 20
-24.9972382452
 10
3.1519211308
 20
-25.0379032356
 10
3.1650687019
 20
-25.0785132159
 10
3.1764832543
 20
-25.1189491933
 10
3.18610527
 20
-25.1580309039
 10
3.1937809922
 20
-25.1955654857
 10
3.1996636681
 20
-25.2317461339
 10
3.2041528267
 20
-25.2659726374
 10
3.2072621663
 20
-25.2979821341
 10
3.208976292
 20
-25.3280386093
 10
3.2096505218
 20
-25.3563325035
 10
3.2093151404
 20
-25.3828484066
 10
3.2079384415
 20
-25.4076026715
 10
3.2057828406
 20
-25.4308333281
 10
3.2028588873
 20
-25.4525517866
 10
3.1991548904
 20
-25.4727473951
 10
3.1949000275
 20
-25.4916250087
 10
3.1901087125
 20
-25.509181468
 10
3.1847655995
 20
-25.5254205523
 10
3.1790553429
 20
-25.5405574483
 10
3.1729947439
 20
-25.554608944
 10
3.1665662879
 20
-25.5675587264
  0
LINE
  5
37E
100
AcDbEntity
  8
0
100
AcDbLine
 62
7
  6
CONTINUOUS
 10
2.9664454928
 20
-25.6986103226
 11
2.9854309468
 21
-25.7186720223
  0
LINE
  5
37F
100
AcDbEntity
  8
ASSI
100
AcDbLine
 62
7
  6
CONTINUOUS
 10
2.9664454928
 20
-25.6986103226
 11
2.9854309468
 21
-25.7186720223
  0
LINE
  5
380
100
AcDbEntity
  8
0
100
AcDbLine
 62
7
  6
CONTINUOUS
 10
2.9854309468
 20
-25.7186720223
 11
3.0035057007
 21
-25.7393787365
  0
LINE
  5
381
100
AcDbEntity
  8
ASSI
100
AcDbLine
 62
7
  6
CONTINUOUS
 10
2.9854309468
 20
-25.7186720223
 11
3.0035057007
 21
-25.7393787365
  0
LWPOLYLINE
  5
382
100
AcDbEntity
  8
0
100
AcDbPolyline
 62
7
  6
CONTINUOUS
 90
21
 70
0
 10
3.0035057007
 20
-25.7393787365
 10
3.0206700255
 20
-25.7607302835
 10
3.0369337999
 20
-25.7829402419
 10
3.0522878237
 20
-25.8057945785
 10
3.0667036001
 20
-25.8286517933
 10
3.080081123
 20
-25.8513131997
 10
3.0925207304
 20
-25.8739772614
 10
3.1042941852
 20
-25.8965983761
 10
3.1154564352
 20
-25.9192171007
 10
3.1259527831
 20
-25.9417927098
 10
3.1358903721
 20
-25.9641577798
 10
3.1452776939
 20
-25.9863029414
 10
3.1541063397
 20
-26.0082375076
 10
3.1624579464
 20
-26.0298221831
 10
3.1703272574
 20
-26.051014588
 10
3.1777194653
 20
-26.0718571445
 10
3.1847317852
 20
-26.0923378252
 10
3.191350066
 20
-26.1124013
 10
3.1975883437
 20
-26.1321029756
 10
3.2035861167
 20
-26.1515969282
 10
3.2093333241
 20
-26.1708701331
  0
LWPOLYLINE
  5
383
100
AcDbEntity
  8
ASSI
100
AcDbPolyline
 62
7
  6
CONTINUOUS
 90
21
 70
0
 10
3.0035057007
 20
-25.7393787365
 10
3.0206700255
 20
-25.7607302835
 10
3.0369337999
 20
-25.7829402419
 10
3.0522878237
 20
-25.8057945785
 10
3.0667036001
 20
-25.8286517933
 10
3.080081123
 20
-25.8513131997
 10
3.0925207304
 20
-25.8739772614
 10
3.1042941852
 20
-25.8965983761
 10
3.1154564352
 20
-25.9192171007
 10
3.1259527831
 20
-25.9417927098
 10
3.1358903721
 20
-25.9641577798
 10
3.1452776939
 20
-25.9863029414
 10
3.1541063397
 20
-26.0082375076
 10
3.1624579464
 20
-26.0298221831
 10
3.1703272574
 20
-26.051014588
 10
3.1777194653
 20
-26.0718571445
 10
3.1847317852
 20
-26.0923378252
 10
3.191350066
 20
-26.1124013
 10
3.1975883437
 20
-26.1321029756
 10
3.2035861167
 20
-26.1515969282
 10
3.2093333241
 20
-26.1708701331
  0
LWPOLYLINE
  5
384
100
AcDbEntity
  8
0
100
AcDbPolyline
 62
7
  6
CONTINUOUS
 90
22
 70
0
 10
2.8215174971
 20
-25.101350125
 10
2.8194993241
 20
-25.0828251812
 10
2.8163713419
 20
-25.0636763509
 10
2.8121335428
 20
-25.0439036397
 10
2.8068031187
 20
-25.0234409684
 10
2.8003628822
 20
-25.0023544138
 10
2.7927611685
 20
-24.9808422738
 10
2.7839803873
 20
-24.9588231902
 10
2.7740379588
 20
-24.9363786348
 10
2.7629344846
 20
-24.9139513157
 10
2.7505602476
 20
-24.8914738914
 10
2.7370244843
 20
-24.8690140228
 10
2.7226559313
 20
-24.8472171174
 10
2.7074348393
 20
-24.8262073907
 10
2.6913802763
 20
-24.8058610793
 10
2.6748790892
 20
-24.7864516998
 10
2.6579745124
 20
-24.7680303371
 10
2.640622815
 20
-24.7505462355
 10
2.6230804355
 20
-24.7341201243
 10
2.6054327565
 20
-24.7187923107
 10
2.5875940993
 20
-24.7045226837
 10
2.569564361
 20
-24.6913113116
  0
LWPOLYLINE
  5
385
100
AcDbEntity
  8
ASSI
100
AcDbPolyline
 62
7
  6
CONTINUOUS
 90
22
 70
0
 10
2.8215174971
 20
-25.101350125
 10
2.8194993241
 20
-25.0828251812
 10
2.8163713419
 20
-25.0636763509
 10
2.8121335428
 20
-25.0439036397
 10
2.8068031187
 20
-25.0234409684
 10
2.8003628822
 20
-25.0023544138
 10
2.7927611685
 20
-24.9808422738
 10
2.7839803873
 20
-24.9588231902
 10
2.7740379588
 20
-24.9363786348
 10
2.7629344846
 20
-24.9139513157
 10
2.7505602476
 20
-24.8914738914
 10
2.7370244843
 20
-24.8690140228
 10
2.7226559313
 20
-24.8472171174
 10
2.7074348393
 20
-24.8262073907
 10
2.6913802763
 20
-24.8058610793
 10
2.6748790892
 20
-24.7864516998
 10
2.6579745124
 20
-24.7680303371
 10
2.640622815
 20
-24.7505462355
 10
2.6230804355
 20
-24.7341201243
 10
2.6054327565
 20
-24.7187923107
 10
2.5875940993
 20
-24.7045226837
 10
2.569564361
 20
-24.6913113116
  0
LINE
  5
386
100
AcDbEntity
  8
0
100
AcDbLine
 62
7
  6
CONTINUOUS
 10
-2.6592768736
 20
-22.6081114277
 11
-2.6031687
 21
-23.3373738651
  0
LINE
  5
387
100
AcDbEntity
  8
ASSI
100
AcDbLine
 62
7
  6
CONTINUOUS
 10
-2.6592768736
 20
-22.6081114277
 11
-2.6031687
 21
-23.3373738651
  0
LINE
  5
388
100
AcDbEntity
  8
0
100
AcDbLine
 62
7
  6
CONTINUOUS
 10
1.9815181139
 20
-26.1074688215
 11
1.9260969611
 21
-25.3867491017
  0
LINE
  5
389
100
AcDbEntity
  8
ASSI
100
AcDbLine
 62
7
  6
CONTINUOUS
 10
1.9815181139
 20
-26.1074688215
 11
1.9260969611
 21
-25.3867491017
  0
LINE
  5
38A
100
AcDbEntity
  8
0
100
AcDbLine
 62
7
  6
CONTINUOUS
 10
2.0325213644
 20
-25.3253015934
 11
2.0879925291
 21
-26.0459918286
  0
LINE
  5
38B
100
AcDbEntity
  8
ASSI
100
AcDbLine
 62
7
  6
CONTINUOUS
 10
2.0325213644
 20
-25.3253015934
 11
2.0879925291
 21
-26.0459918286
  0
LINE
  5
38C
100
AcDbEntity
  8
0
100
AcDbLine
 62
7
  6
CONTINUOUS
 10
-2.7096431151
 20
-23.3988508579
 11
-2.7657007032
 21
-22.6695585909
  0
LINE
  5
38D
100
AcDbEntity
  8
ASSI
100
AcDbLine
 62
7
  6
CONTINUOUS
 10
-2.7096431151
 20
-23.3988508579
 11
-2.7657007032
 21
-22.6695585909
  0
LINE
  5
38E
100
AcDbEntity
  8
0
100
AcDbLine
 62
7
  6
CONTINUOUS
 10
-2.2964042553
 20
-23.6374497965
 11
-2.3524618435
 21
-22.9081575295
  0
LINE
  5
38F
100
AcDbEntity
  8
ASSI
100
AcDbLine
 62
7
  6
CONTINUOUS
 10
-2.2964042553
 20
-23.6374497965
 11
-2.3524618435
 21
-22.9081575295
  0
LWPOLYLINE
  5
390
100
AcDbEntity
  8
0
100
AcDbPolyline
 62
7
  6
CONTINUOUS
 90
3
 70
0
 10
2.3930942422
 20
-26.3451077197
 10
2.3381919189
 20
-25.6313711079
 10
2.3276354399
 20
-25.4883376187
  0
LWPOLYLINE
  5
391
100
AcDbEntity
  8
ASSI
100
AcDbPolyline
 62
7
  6
CONTINUOUS
 90
3
 70
0
 10
2.3930942422
 20
-26.3451077197
 10
2.3381919189
 20
-25.6313711079
 10
2.3276354399
 20
-25.4883376187
  0
LINE
  5
392
100
AcDbEntity
  8
0
100
AcDbLine
 62
7
  6
CONTINUOUS
 10
2.9664454928
 20
-25.6986103226
 11
2.9655112556
 21
-25.6856422113
  0
LINE
  5
393
100
AcDbEntity
  8
ASSI
100
AcDbLine
 62
7
  6
CONTINUOUS
 10
2.9664454928
 20
-25.6986103226
 11
2.9655112556
 21
-25.6856422113
  0
LINE
  5
394
100
AcDbEntity
  8
0
100
AcDbLine
 62
7
  6
CONTINUOUS
 10
1.9260969611
 20
-25.3867491017
 11
1.8742785551
 21
-24.6635997029
  0
LINE
  5
395
100
AcDbEntity
  8
ASSI
100
AcDbLine
 62
7
  6
CONTINUOUS
 10
1.9260969611
 20
-25.3867491017
 11
1.8742785551
 21
-24.6635997029
  0
LINE
  5
396
100
AcDbEntity
  8
0
100
AcDbLine
 62
7
  6
CONTINUOUS
 10
1.9806561952
 20
-24.6021791724
 11
2.0325213644
 21
-25.3253015934
  0
LINE
  5
397
100
AcDbEntity
  8
ASSI
100
AcDbLine
 62
7
  6
CONTINUOUS
 10
1.9806561952
 20
-24.6021791724
 11
2.0325213644
 21
-25.3253015934
  0
LINE
  5
398
100
AcDbEntity
  8
0
100
AcDbLine
 62
7
  6
CONTINUOUS
 10
-2.7657007032
 20
-22.6695585909
 11
-2.818069457
 21
-21.9377788664
  0
LINE
  5
399
100
AcDbEntity
  8
ASSI
100
AcDbLine
 62
7
  6
CONTINUOUS
 10
-2.7657007032
 20
-22.6695585909
 11
-2.818069457
 21
-21.9377788664
  0
LINE
  5
39A
100
AcDbEntity
  8
0
100
AcDbLine
 62
7
  6
CONTINUOUS
 10
-2.7116928866
 20
-21.8763589666
 11
-2.6592768736
 21
-22.6081114277
  0
LINE
  5
39B
100
AcDbEntity
  8
ASSI
100
AcDbLine
 62
7
  6
CONTINUOUS
 10
-2.7116928866
 20
-21.8763589666
 11
-2.6592768736
 21
-22.6081114277
  0
LINE
  5
39C
100
AcDbEntity
  8
0
100
AcDbLine
 62
7
  6
CONTINUOUS
 10
-2.3524618435
 20
-22.9081575295
 11
-2.4048305972
 21
-22.1763778049
  0
LINE
  5
39D
100
AcDbEntity
  8
ASSI
100
AcDbLine
 62
7
  6
CONTINUOUS
 10
-2.3524618435
 20
-22.9081575295
 11
-2.4048305972
 21
-22.1763778049
  0
LINE
  5
39E
100
AcDbEntity
  8
0
100
AcDbLine
 62
7
  6
CONTINUOUS
 10
2.2880590483
 20
-25.1209942818
 11
2.2466988773
 21
-24.5173578789
  0
LINE
  5
39F
100
AcDbEntity
  8
ASSI
100
AcDbLine
 62
7
  6
CONTINUOUS
 10
2.2880590483
 20
-25.1209942818
 11
2.2466988773
 21
-24.5173578789
  0
LINE
  5
3A0
100
AcDbEntity
  8
0
100
AcDbLine
 62
7
  6
CONTINUOUS
 10
1.8742785551
 20
-24.6635997029
 11
1.8260654915
 21
-23.9380568494
  0
LINE
  5
3A1
100
AcDbEntity
  8
ASSI
100
AcDbLine
 62
7
  6
CONTINUOUS
 10
1.8742785551
 20
-24.6635997029
 11
1.8260654915
 21
-23.9380568494
  0
LINE
  5
3A2
100
AcDbEntity
  8
0
100
AcDbLine
 62
7
  6
CONTINUOUS
 10
1.9395171669
 20
-23.9865266329
 11
1.9806561952
 21
-24.6021791724
  0
LINE
  5
3A3
100
AcDbEntity
  8
ASSI
100
AcDbLine
 62
7
  6
CONTINUOUS
 10
1.9395171669
 20
-23.9865266329
 11
1.9806561952
 21
-24.6021791724
  0
LINE
  5
3A4
100
AcDbEntity
  8
0
100
AcDbLine
 62
7
  6
CONTINUOUS
 10
-2.818069457
 20
-21.9377788664
 11
-2.8667467025
 21
-21.20354905
  0
LINE
  5
3A5
100
AcDbEntity
  8
ASSI
100
AcDbLine
 62
7
  6
CONTINUOUS
 10
-2.818069457
 20
-21.9377788664
 11
-2.8667467025
 21
-21.20354905
  0
LINE
  5
3A6
100
AcDbEntity
  8
0
100
AcDbLine
 62
7
  6
CONTINUOUS
 10
-2.7521731965
 20
-21.2697023563
 11
-2.7116928866
 21
-21.8763589666
  0
LINE
  5
3A7
100
AcDbEntity
  8
ASSI
100
AcDbLine
 62
7
  6
CONTINUOUS
 10
-2.7521731965
 20
-21.2697023563
 11
-2.7116928866
 21
-21.8763589666
  0
LINE
  5
3A8
100
AcDbEntity
  8
0
100
AcDbLine
 62
7
  6
CONTINUOUS
 10
-2.4048305972
 20
-22.1763778049
 11
-2.4535078427
 21
-21.4421479885
  0
LINE
  5
3A9
100
AcDbEntity
  8
ASSI
100
AcDbLine
 62
7
  6
CONTINUOUS
 10
-2.4048305972
 20
-22.1763778049
 11
-2.4535078427
 21
-21.4421479885
  0
LWPOLYLINE
  5
3AA
100
AcDbEntity
  8
0
100
AcDbPolyline
 62
7
  6
CONTINUOUS
 90
8
 70
0
 10
-28.0573106506
 20
0.2824821995
 10
-28.0885195484
 20
0.2870583998
 10
-28.1200183055
 20
0.2902407859
 10
-28.1517229617
 20
0.2920293346
 10
-28.1835547772
 20
0.2924216582
 10
-28.2152999342
 20
0.2914186431
 10
-28.2468784206
 20
0.2890193594
 10
-28.2782064383
 20
0.2852231219
  0
LWPOLYLINE
  5
3AB
100
AcDbEntity
  8
ASSI
100
AcDbPolyline
 62
7
  6
CONTINUOUS
 90
8
 70
0
 10
-28.0573106506
 20
0.2824821995
 10
-28.0885195484
 20
0.2870583998
 10
-28.1200183055
 20
0.2902407859
 10
-28.1517229617
 20
0.2920293346
 10
-28.1835547772
 20
0.2924216582
 10
-28.2152999342
 20
0.2914186431
 10
-28.2468784206
 20
0.2890193594
 10
-28.2782064383
 20
0.2852231219
  0
LWPOLYLINE
  5
3AC
100
AcDbEntity
  8
0
100
AcDbPolyline
 62
7
  6
CONTINUOUS
 90
3
 70
0
 10
-27.9964547259
 20
0.2691957999
 10
-28.0265980422
 20
0.2765268988
 10
-28.0573106506
 20
0.2824821995
  0
LWPOLYLINE
  5
3AD
100
AcDbEntity
  8
ASSI
100
AcDbPolyline
 62
7
  6
CONTINUOUS
 90
3
 70
0
 10
-27.9964547259
 20
0.2691957999
 10
-28.0265980422
 20
0.2765268988
 10
-28.0573106506
 20
0.2824821995
  0
LWPOLYLINE
  5
3AE
100
AcDbEntity
  8
0
100
AcDbPolyline
 62
7
  6
CONTINUOUS
 90
3
 70
0
 10
-43.9063573026
 20
9.1287860391
 10
-43.9365006189
 20
9.1361171379
 10
-43.9672132273
 20
9.1420724387
  0
LWPOLYLINE
  5
3AF
100
AcDbEntity
  8
ASSI
100
AcDbPolyline
 62
7
  6
CONTINUOUS
 90
3
 70
0
 10
-43.9063573026
 20
9.1287860391
 10
-43.9365006189
 20
9.1361171379
 10
-43.9672132273
 20
9.1420724387
  0
LWPOLYLINE
  5
3B0
100
AcDbEntity
  8
0
100
AcDbPolyline
 62
7
  6
CONTINUOUS
 90
19
 70
0
 10
2.9004168368
 20
-25.880931466
 10
2.8917922018
 20
-25.8575190235
 10
2.882427421
 20
-25.8344397117
 10
2.8723221884
 20
-25.8116937368
 10
2.8614658522
 20
-25.7892386848
 10
2.8498685003
 20
-25.7671173494
 10
2.837560918
 20
-25.7454577616
 10
2.8244809862
 20
-25.7241423986
 10
2.810690281
 20
-25.7032891484
 10
2.7964050141
 20
-25.6833792353
 10
2.7815902782
 20
-25.6644726235
 10
2.7662803545
 20
-25.6465097695
 10
2.7507951608
 20
-25.6297926876
 10
2.7352120663
 20
-25.6144753439
 10
2.7194532607
 20
-25.6004040687
 10
2.7036059533
 20
-25.5874193804
 10
2.6876991676
 20
-25.5754681499
 10
2.6717037138
 20
-25.5646036182
 10
2.65561955
 20
-25.5548258132
  0
LWPOLYLINE
  5
3B1
100
AcDbEntity
  8
ASSI
100
AcDbPolyline
 62
7
  6
CONTINUOUS
 90
19
 70
0
 10
2.9004168368
 20
-25.880931466
 10
2.8917922018
 20
-25.8575190235
 10
2.882427421
 20
-25.8344397117
 10
2.8723221884
 20
-25.8116937368
 10
2.8614658522
 20
-25.7892386848
 10
2.8498685003
 20
-25.7671173494
 10
2.837560918
 20
-25.7454577616
 10
2.8244809862
 20
-25.7241423986
 10
2.810690281
 20
-25.7032891484
 10
2.7964050141
 20
-25.6833792353
 10
2.7815902782
 20
-25.6644726235
 10
2.7662803545
 20
-25.6465097695
 10
2.7507951608
 20
-25.6297926876
 10
2.7352120663
 20
-25.6144753439
 10
2.7194532607
 20
-25.6004040687
 10
2.7036059533
 20
-25.5874193804
 10
2.6876991676
 20
-25.5754681499
 10
2.6717037138
 20
-25.5646036182
 10
2.65561955
 20
-25.5548258132
  0
LWPOLYLINE
  5
3B2
100
AcDbEntity
  8
0
100
AcDbPolyline
 62
7
  6
CONTINUOUS
 90
19
 70
0
 10
2.7939886444
 20
-25.9423817644
 10
2.7856679463
 20
-25.9196827385
 10
2.7765664558
 20
-25.8971684916
 10
2.7666839235
 20
-25.8748391919
 10
2.7560130838
 20
-25.8526340293
 10
2.7445607438
 20
-25.8306141227
 10
2.7323477169
 20
-25.8089625644
 10
2.7192993412
 20
-25.7875539497
 10
2.7054897747
 20
-25.7665140222
 10
2.6911628997
 20
-25.7464027043
 10
2.6762910053
 20
-25.7272982179
 10
2.6609011656
 20
-25.709122769
 10
2.6453193397
 20
-25.6922023231
 10
2.629625659
 20
-25.676698412
 10
2.6137395362
 20
-25.6624498101
 10
2.597745911
 20
-25.6492983086
 10
2.5816730477
 20
-25.6371912039
 10
2.5654925089
 20
-25.6261813156
 10
2.5492042508
 20
-25.6162686732
  0
LWPOLYLINE
  5
3B3
100
AcDbEntity
  8
ASSI
100
AcDbPolyline
 62
7
  6
CONTINUOUS
 90
19
 70
0
 10
2.7939886444
 20
-25.9423817644
 10
2.7856679463
 20
-25.9196827385
 10
2.7765664558
 20
-25.8971684916
 10
2.7666839235
 20
-25.8748391919
 10
2.7560130838
 20
-25.8526340293
 10
2.7445607438
 20
-25.8306141227
 10
2.7323477169
 20
-25.8089625644
 10
2.7192993412
 20
-25.7875539497
 10
2.7054897747
 20
-25.7665140222
 10
2.6911628997
 20
-25.7464027043
 10
2.6762910053
 20
-25.7272982179
 10
2.6609011656
 20
-25.709122769
 10
2.6453193397
 20
-25.6922023231
 10
2.629625659
 20
-25.676698412
 10
2.6137395362
 20
-25.6624498101
 10
2.597745911
 20
-25.6492983086
 10
2.5816730477
 20
-25.6371912039
 10
2.5654925089
 20
-25.6261813156
 10
2.5492042508
 20
-25.6162686732
  0
LWPOLYLINE
  5
3B4
100
AcDbEntity
  8
0
100
AcDbPolyline
 62
7
  6
CONTINUOUS
 90
5
 70
0
 10
2.8411841105
 20
-26.0867239916
 10
2.8299071095
 20
-26.0508443218
 10
2.8182565736
 20
-26.0148106446
 10
2.8062837681
 20
-25.9786564472
 10
2.7939886444
 20
-25.9423817644
  0
LWPOLYLINE
  5
3B5
100
AcDbEntity
  8
ASSI
100
AcDbPolyline
 62
7
  6
CONTINUOUS
 90
5
 70
0
 10
2.8411841105
 20
-26.0867239916
 10
2.8299071095
 20
-26.0508443218
 10
2.8182565736
 20
-26.0148106446
 10
2.8062837681
 20
-25.9786564472
 10
2.7939886444
 20
-25.9423817644
  0
LWPOLYLINE
  5
3B6
100
AcDbEntity
  8
0
100
AcDbPolyline
 62
7
  6
CONTINUOUS
 90
5
 70
0
 10
2.9475124765
 20
-26.0249211828
 10
2.93625514
 20
-25.9891186002
 10
2.9246278731
 20
-25.9531689757
 10
2.9126817895
 20
-25.9171065852
 10
2.9004168368
 20
-25.880931466
  0
LWPOLYLINE
  5
3B7
100
AcDbEntity
  8
ASSI
100
AcDbPolyline
 62
7
  6
CONTINUOUS
 90
5
 70
0
 10
2.9475124765
 20
-26.0249211828
 10
2.93625514
 20
-25.9891186002
 10
2.9246278731
 20
-25.9531689757
 10
2.9126817895
 20
-25.9171065852
 10
2.9004168368
 20
-25.880931466
  0
LINE
  5
3B8
100
AcDbEntity
  8
0
100
AcDbLine
 62
7
  6
CONTINUOUS
 10
2.9692245677
 20
-26.0962905062
 11
2.9475124765
 21
-26.0249211828
  0
LINE
  5
3B9
100
AcDbEntity
  8
ASSI
100
AcDbLine
 62
7
  6
CONTINUOUS
 10
2.9692245677
 20
-26.0962905062
 11
2.9475124765
 21
-26.0249211828
  0
LINE
  5
3BA
100
AcDbEntity
  8
0
100
AcDbLine
 62
7
  6
CONTINUOUS
 10
2.862925589
 20
-26.1582218854
 11
2.8411841105
 21
-26.0867239916
  0
LINE
  5
3BB
100
AcDbEntity
  8
ASSI
100
AcDbLine
 62
7
  6
CONTINUOUS
 10
2.862925589
 20
-26.1582218854
 11
2.8411841105
 21
-26.0867239916
  0
LINE
  5
3BC
100
AcDbEntity
  8
0
100
AcDbLine
 62
7
  6
CONTINUOUS
 10
3.0259125808
 20
-26.7104890973
 11
2.9365006274
 21
-26.4098060519
  0
LINE
  5
3BD
100
AcDbEntity
  8
ASSI
100
AcDbLine
 62
7
  6
CONTINUOUS
 10
3.0259125808
 20
-26.7104890973
 11
2.9365006274
 21
-26.4098060519
  0
LINE
  5
3BE
100
AcDbEntity
  8
0
100
AcDbLine
 62
7
  6
CONTINUOUS
 10
3.132386996
 20
-26.6490121044
 11
3.0427821026
 21
-26.3477462622
  0
LINE
  5
3BF
100
AcDbEntity
  8
ASSI
100
AcDbLine
 62
7
  6
CONTINUOUS
 10
3.132386996
 20
-26.6490121044
 11
3.0427821026
 21
-26.3477462622
  0
LINE
  5
3C0
100
AcDbEntity
  8
0
100
AcDbLine
 62
7
  6
CONTINUOUS
 10
2.8839942983
 20
-26.2296308367
 11
2.862925589
 21
-26.1582218854
  0
LINE
  5
3C1
100
AcDbEntity
  8
ASSI
100
AcDbLine
 62
7
  6
CONTINUOUS
 10
2.8839942983
 20
-26.2296308367
 11
2.862925589
 21
-26.1582218854
  0
LINE
  5
3C2
100
AcDbEntity
  8
0
100
AcDbLine
 62
7
  6
CONTINUOUS
 10
2.9902762121
 20
-26.1676130791
 11
2.9692245677
 21
-26.0962905062
  0
LINE
  5
3C3
100
AcDbEntity
  8
ASSI
100
AcDbLine
 62
7
  6
CONTINUOUS
 10
2.9902762121
 20
-26.1676130791
 11
2.9692245677
 21
-26.0962905062
  0
LINE
  5
3C4
100
AcDbEntity
  8
0
100
AcDbLine
 62
7
  6
CONTINUOUS
 10
2.9365006274
 20
-26.4098060519
 11
2.8839942983
 21
-26.2296308367
  0
LINE
  5
3C5
100
AcDbEntity
  8
ASSI
100
AcDbLine
 62
7
  6
CONTINUOUS
 10
2.9365006274
 20
-26.4098060519
 11
2.8839942983
 21
-26.2296308367
  0
LINE
  5
3C6
100
AcDbEntity
  8
0
100
AcDbLine
 62
7
  6
CONTINUOUS
 10
3.0427821026
 20
-26.3477462622
 11
2.9902762121
 21
-26.1676130791
  0
LINE
  5
3C7
100
AcDbEntity
  8
ASSI
100
AcDbLine
 62
7
  6
CONTINUOUS
 10
3.0427821026
 20
-26.3477462622
 11
2.9902762121
 21
-26.1676130791
  0
LINE
  5
3C8
100
AcDbEntity
  8
0
100
AcDbLine
 62
7
  6
CONTINUOUS
 10
3.2093333241
 20
-26.1708701331
 11
3.2202757421
 21
-26.2089866305
  0
LINE
  5
3C9
100
AcDbEntity
  8
ASSI
100
AcDbLine
 62
7
  6
CONTINUOUS
 10
3.2093333241
 20
-26.1708701331
 11
3.2202757421
 21
-26.2089866305
  0
LINE
  5
3CA
100
AcDbEntity
  8
0
100
AcDbLine
 62
7
  6
CONTINUOUS
 10
3.2202757421
 20
-26.2089866305
 11
3.2310477934
 21
-26.2471737209
  0
LINE
  5
3CB
100
AcDbEntity
  8
ASSI
100
AcDbLine
 62
7
  6
CONTINUOUS
 10
3.2202757421
 20
-26.2089866305
 11
3.2310477934
 21
-26.2471737209
  0
LWPOLYLINE
  5
3CC
100
AcDbEntity
  8
0
100
AcDbPolyline
 62
7
  6
CONTINUOUS
 90
3
 70
0
 10
3.2310477934
 20
-26.2471737209
 10
3.3427729565
 20
-26.6502228216
 10
3.4234003472
 20
-26.9399935519
  0
LWPOLYLINE
  5
3CD
100
AcDbEntity
  8
ASSI
100
AcDbPolyline
 62
7
  6
CONTINUOUS
 90
3
 70
0
 10
3.2310477934
 20
-26.2471737209
 10
3.3427729565
 20
-26.6502228216
 10
3.4234003472
 20
-26.9399935519
  0
LWPOLYLINE
  5
3CE
100
AcDbEntity
  8
0
100
AcDbPolyline
 62
7
  6
CONTINUOUS
 90
22
 70
0
 10
2.9278880599
 20
-25.03993309
 10
2.9258081674
 20
-25.021181167
 10
2.9226533681
 20
-25.0019247022
 10
2.9184236159
 20
-24.9821637268
 10
2.9131449726
 20
-24.9618820917
 10
2.9067912927
 20
-24.9410960023
 10
2.899284183
 20
-24.9198540451
 10
2.8906083854
 20
-24.8980367132
 10
2.8807790259
 20
-24.8757636019
 10
2.8697630959
 20
-24.8534420785
 10
2.8574389684
 20
-24.8309787652
 10
2.84392783
 20
-24.8084673326
 10
2.8295605876
 20
-24.7865959222
 10
2.8143101098
 20
-24.7654911755
 10
2.7982028463
 20
-24.7450269035
 10
2.7816499397
 20
-24.7255120925
 10
2.7647092228
 20
-24.707015928
 10
2.7473223562
 20
-24.6894695605
 10
2.7297262613
 20
-24.672974899
 10
2.7119998145
 20
-24.657565978
 10
2.6940638403
 20
-24.6432089612
 10
2.6759182343
 20
-24.629903918
  0
LWPOLYLINE
  5
3CF
100
AcDbEntity
  8
ASSI
100
AcDbPolyline
 62
7
  6
CONTINUOUS
 90
22
 70
0
 10
2.9278880599
 20
-25.03993309
 10
2.9258081674
 20
-25.021181167
 10
2.9226533681
 20
-25.0019247022
 10
2.9184236159
 20
-24.9821637268
 10
2.9131449726
 20
-24.9618820917
 10
2.9067912927
 20
-24.9410960023
 10
2.899284183
 20
-24.9198540451
 10
2.8906083854
 20
-24.8980367132
 10
2.8807790259
 20
-24.8757636019
 10
2.8697630959
 20
-24.8534420785
 10
2.8574389684
 20
-24.8309787652
 10
2.84392783
 20
-24.8084673326
 10
2.8295605876
 20
-24.7865959222
 10
2.8143101098
 20
-24.7654911755
 10
2.7982028463
 20
-24.7450269035
 10
2.7816499397
 20
-24.7255120925
 10
2.7647092228
 20
-24.707015928
 10
2.7473223562
 20
-24.6894695605
 10
2.7297262613
 20
-24.672974899
 10
2.7119998145
 20
-24.657565978
 10
2.6940638403
 20
-24.6432089612
 10
2.6759182343
 20
-24.629903918
  0
LINE
  5
3D0
100
AcDbEntity
  8
0
100
AcDbLine
 62
7
  6
CONTINUOUS
 10
5.6479408586
 20
-20.2204373615
 11
5.6479408586
 21
-20.6430678271
  0
LINE
  5
3D1
100
AcDbEntity
  8
ASSI
100
AcDbLine
 62
7
  6
CONTINUOUS
 10
5.6479408586
 20
-20.2204373615
 11
5.6479408586
 21
-20.6430678271
  0
LWPOLYLINE
  5
3D2
100
AcDbEntity
  8
0
100
AcDbPolyline
 62
7
  6
CONTINUOUS
 90
7
 70
0
 10
-28.2782064383
 20
0.2852231219
 10
-28.3090762941
 20
0.2800464114
 10
-28.3394118491
 20
0.2734879308
 10
-28.369143535
 20
0.2655459363
 10
-28.3981052457
 20
0.256240243
 10
-28.4262110503
 20
0.2455681403
 10
-28.4534302166
 20
0.2335033873
  0
LWPOLYLINE
  5
3D3
100
AcDbEntity
  8
ASSI
100
AcDbPolyline
 62
7
  6
CONTINUOUS
 90
7
 70
0
 10
-28.2782064383
 20
0.2852231219
 10
-28.3090762941
 20
0.2800464114
 10
-28.3394118491
 20
0.2734879308
 10
-28.369143535
 20
0.2655459363
 10
-28.3981052457
 20
0.256240243
 10
-28.4262110503
 20
0.2455681403
 10
-28.4534302166
 20
0.2335033873
  0
LWPOLYLINE
  5
3D4
100
AcDbEntity
  8
0
100
AcDbPolyline
 62
7
  6
CONTINUOUS
 90
8
 70
0
 10
-43.9672132273
 20
9.1420724387
 10
-43.9984221251
 20
9.146648639
 10
-44.0299208822
 20
9.149831025
 10
-44.0616255384
 20
9.1516195738
 10
-44.0934573539
 20
9.1520118973
 10
-44.1252025109
 20
9.1510088823
 10
-44.1567809973
 20
9.1486095986
 10
-44.188109015
 20
9.1448133611
  0
LWPOLYLINE
  5
3D5
100
AcDbEntity
  8
ASSI
100
AcDbPolyline
 62
7
  6
CONTINUOUS
 90
8
 70
0
 10
-43.9672132273
 20
9.1420724387
 10
-43.9984221251
 20
9.146648639
 10
-44.0299208822
 20
9.149831025
 10
-44.0616255384
 20
9.1516195738
 10
-44.0934573539
 20
9.1520118973
 10
-44.1252025109
 20
9.1510088823
 10
-44.1567809973
 20
9.1486095986
 10
-44.188109015
 20
9.1448133611
  0
LINE
  5
3D6
100
AcDbEntity
  8
DRAFT
100
AcDbLine
 62
7
  6
CONTINUOUS
 10
77.621367815
 20
-43.1666523759
 11
77.9749212056
 21
-43.3707896726
  0
LINE
  5
3D7
100
AcDbEntity
  8
ASSI
100
AcDbLine
 62
7
  6
CONTINUOUS
 10
77.621367815
 20
-43.1666523759
 11
77.9749212056
 21
-43.3707896726
  0
LWPOLYLINE
  5
3D8
100
AcDbEntity
  8
0
100
AcDbPolyline
 62
7
  6
CONTINUOUS
 90
11
 70
0
 10
3.1665662879
 20
-25.5675587264
 10
3.1599032617
 20
-25.5795722607
 10
3.1530198801
 20
-25.5906580819
 10
3.1459013746
 20
-25.6008080241
 10
3.1386376397
 20
-25.6101624463
 10
3.1312317663
 20
-25.6187250075
 10
3.1236802435
 20
-25.626492329
 10
3.1160631309
 20
-25.633594168
 10
3.1083747811
 20
-25.6400143485
 10
3.1006205249
 20
-25.6457692579
 10
3.092896954
 20
-25.6510374556
  0
LWPOLYLINE
  5
3D9
100
AcDbEntity
  8
ASSI
100
AcDbPolyline
 62
7
  6
CONTINUOUS
 90
11
 70
0
 10
3.1665662879
 20
-25.5675587264
 10
3.1599032617
 20
-25.5795722607
 10
3.1530198801
 20
-25.5906580819
 10
3.1459013746
 20
-25.6008080241
 10
3.1386376397
 20
-25.6101624463
 10
3.1312317663
 20
-25.6187250075
 10
3.1236802435
 20
-25.626492329
 10
3.1160631309
 20
-25.633594168
 10
3.1083747811
 20
-25.6400143485
 10
3.1006205249
 20
-25.6457692579
 10
3.092896954
 20
-25.6510374556
  0
LWPOLYLINE
  5
3DA
100
AcDbEntity
  8
0
100
AcDbPolyline
 62
7
  6
CONTINUOUS
 90
13
 70
0
 10
2.7695531385
 20
-25.2962309996
 10
2.7791401603
 20
-25.2868160217
 10
2.7878273805
 20
-25.2757981818
 10
2.7955631714
 20
-25.26347053
 10
2.8023325375
 20
-25.2498489103
 10
2.8081510505
 20
-25.2349170954
 10
2.8130127349
 20
-25.2189201602
 10
2.8169368406
 20
-25.2019287624
 10
2.8199045346
 20
-25.1838719678
 10
2.8218525943
 20
-25.1647825459
 10
2.8227600656
 20
-25.1446713402
 10
2.8226482974
 20
-25.1235272457
 10
2.8215174971
 20
-25.101350125
  0
LWPOLYLINE
  5
3DB
100
AcDbEntity
  8
ASSI
100
AcDbPolyline
 62
7
  6
CONTINUOUS
 90
13
 70
0
 10
2.7695531385
 20
-25.2962309996
 10
2.7791401603
 20
-25.2868160217
 10
2.7878273805
 20
-25.2757981818
 10
2.7955631714
 20
-25.26347053
 10
2.8023325375
 20
-25.2498489103
 10
2.8081510505
 20
-25.2349170954
 10
2.8130127349
 20
-25.2189201602
 10
2.8169368406
 20
-25.2019287624
 10
2.8199045346
 20
-25.1838719678
 10
2.8218525943
 20
-25.1647825459
 10
2.8227600656
 20
-25.1446713402
 10
2.8226482974
 20
-25.1235272457
 10
2.8215174971
 20
-25.101350125
  0
LINE
  5
3DC
100
AcDbEntity
  8
0
100
AcDbLine
 62
250
  6
CONTINUOUS
 10
5.6479408586
 20
-20.6430678271
 11
5.557925489
 21
-20.7025638215
  0
LINE
  5
3DD
100
AcDbEntity
  8
ASSI
100
AcDbLine
 62
250
  6
CONTINUOUS
 10
5.6479408586
 20
-20.6430678271
 11
5.557925489
 21
-20.7025638215
  0
LINE
  5
3DE
100
AcDbEntity
  8
0
100
AcDbLine
 62
7
  6
CONTINUOUS
 10
5.6464996932
 20
-20.7404771952
 11
5.6358174438
 21
-20.74753766
  0
LINE
  5
3DF
100
AcDbEntity
  8
ASSI
100
AcDbLine
 62
7
  6
CONTINUOUS
 10
5.6464996932
 20
-20.7404771952
 11
5.6358174438
 21
-20.74753766
  0
LINE
  5
3E0
100
AcDbEntity
  8
0
100
AcDbLine
 62
7
  6
CONTINUOUS
 10
5.6479408586
 20
-20.2204373615
 11
5.197648412
 21
-20.4945443525
  0
LINE
  5
3E1
100
AcDbEntity
  8
ASSI
100
AcDbLine
 62
7
  6
CONTINUOUS
 10
5.6479408586
 20
-20.2204373615
 11
5.197648412
 21
-20.4945443525
  0
LINE
  5
3E2
100
AcDbEntity
  8
0
100
AcDbLine
 62
7
  6
CONTINUOUS
 10
-3.6675347684
 20
-22.071120657
 11
-3.7739617229
 21
-22.1325702467
  0
LINE
  5
3E3
100
AcDbEntity
  8
ASSI
100
AcDbLine
 62
7
  6
CONTINUOUS
 10
-3.6675347684
 20
-22.071120657
 11
-3.7739617229
 21
-22.1325702467
  0
LINE
  5
3E4
100
AcDbEntity
  8
0
100
AcDbLine
 62
7
  6
CONTINUOUS
 10
-3.8136096444
 20
-22.6384804342
 11
-3.9200840595
 21
-22.699957427
  0
LINE
  5
3E5
100
AcDbEntity
  8
ASSI
100
AcDbLine
 62
7
  6
CONTINUOUS
 10
-3.8136096444
 20
-22.6384804342
 11
-3.9200840595
 21
-22.699957427
  0
LINE
  5
3E6
100
AcDbEntity
  8
0
100
AcDbLine
 62
7
  6
CONTINUOUS
 10
-1.5964907266
 20
-22.5489228284
 11
-1.7028691161
 21
-22.6103443773
  0
LINE
  5
3E7
100
AcDbEntity
  8
ASSI
100
AcDbLine
 62
7
  6
CONTINUOUS
 10
-1.5964907266
 20
-22.5489228284
 11
-1.7028691161
 21
-22.6103443773
  0
LINE
  5
3E8
100
AcDbEntity
  8
0
100
AcDbLine
 62
7
  6
CONTINUOUS
 10
-2.6031687
 20
-23.3373738651
 11
-2.7096431151
 21
-23.3988508579
  0
LINE
  5
3E9
100
AcDbEntity
  8
ASSI
100
AcDbLine
 62
7
  6
CONTINUOUS
 10
-2.6031687
 20
-23.3373738651
 11
-2.7096431151
 21
-23.3988508579
  0
LINE
  5
3EA
100
AcDbEntity
  8
0
100
AcDbLine
 62
7
  6
CONTINUOUS
 10
-1.9745415791
 20
-23.7003352861
 11
-2.0810159943
 21
-23.761812279
  0
LINE
  5
3EB
100
AcDbEntity
  8
ASSI
100
AcDbLine
 62
7
  6
CONTINUOUS
 10
-1.9745415791
 20
-23.7003352861
 11
-2.0810159943
 21
-23.761812279
  0
LINE
  5
3EC
100
AcDbEntity
  8
0
100
AcDbLine
 62
7
  6
CONTINUOUS
 10
-1.0480839174
 20
-23.3040434283
 11
-1.1544915061
 21
-23.3654818364
  0
LINE
  5
3ED
100
AcDbEntity
  8
ASSI
100
AcDbLine
 62
7
  6
CONTINUOUS
 10
-1.0480839174
 20
-23.3040434283
 11
-1.1544915061
 21
-23.3654818364
  0
LINE
  5
3EE
100
AcDbEntity
  8
0
100
AcDbLine
 62
7
  6
CONTINUOUS
 10
-0.5619999845
 20
-23.1519695889
 11
-0.6683787473
 21
-23.2133913533
  0
LINE
  5
3EF
100
AcDbEntity
  8
ASSI
100
AcDbLine
 62
7
  6
CONTINUOUS
 10
-0.5619999845
 20
-23.1519695889
 11
-0.6683787473
 21
-23.2133913533
  0
LINE
  5
3F0
100
AcDbEntity
  8
0
100
AcDbLine
 62
7
  6
CONTINUOUS
 10
-1.026131678
 20
-24.2720486724
 11
-1.1117246252
 21
-24.3214689674
  0
LINE
  5
3F1
100
AcDbEntity
  8
ASSI
100
AcDbLine
 62
7
  6
CONTINUOUS
 10
-1.026131678
 20
-24.2720486724
 11
-1.1117246252
 21
-24.3214689674
  0
LINE
  5
3F2
100
AcDbEntity
  8
0
100
AcDbLine
 62
7
  6
CONTINUOUS
 10
3.3652898511
 20
-18.9026481816
 11
2.8825774921
 21
-19.157851418
  0
LINE
  5
3F3
100
AcDbEntity
  8
ASSI
100
AcDbLine
 62
7
  6
CONTINUOUS
 10
3.3652898511
 20
-18.9026481816
 11
2.8825774921
 21
-19.157851418
  0
LWPOLYLINE
  5
3F4
100
AcDbEntity
  8
0
100
AcDbPolyline
 62
7
  6
CONTINUOUS
 90
7
 70
0
 10
-44.188109015
 20
9.1448133611
 10
-44.2189788708
 20
9.1396366506
 10
-44.2493144258
 20
9.1330781699
 10
-44.2790461117
 20
9.1251361754
 10
-44.3080078224
 20
9.1158304822
 10
-44.336113627
 20
9.1051583795
 10
-44.3633327933
 20
9.0930936265
  0
LWPOLYLINE
  5
3F5
100
AcDbEntity
  8
ASSI
100
AcDbPolyline
 62
7
  6
CONTINUOUS
 90
7
 70
0
 10
-44.188109015
 20
9.1448133611
 10
-44.2189788708
 20
9.1396366506
 10
-44.2493144258
 20
9.1330781699
 10
-44.2790461117
 20
9.1251361754
 10
-44.3080078224
 20
9.1158304822
 10
-44.336113627
 20
9.1051583795
 10
-44.3633327933
 20
9.0930936265
  0
LWPOLYLINE
  5
3F6
100
AcDbEntity
  8
RACCORDO
100
AcDbPolyline
 62
250
  6
CONTINUOUS
 90
19
 70
0
 10
72.9847061818
 20
-25.3688108055
 10
73.0033316999
 20
-25.3787959233
 10
73.0233316379
 20
-25.3879277157
 10
73.0445637441
 20
-25.3961412321
 10
73.0668770031
 20
-25.4033780529
 10
73.0901127093
 20
-25.4095867054
 10
73.1141055965
 20
-25.4147230301
 10
73.1386850126
 20
-25.4187504941
 10
73.1636761341
 20
-25.4216404519
 10
73.1889012089
 20
-25.4233723481
 10
73.214180821
 20
-25.4239338646
 10
73.2393351666
 20
-25.4233210076
 10
73.2641853327
 20
-25.4215381359
 10
73.28855457
 20
-25.4185979305
 10
73.3122695496
 20
-25.4145213039
 10
73.3351615964
 20
-25.4093372516
 10
73.3570678881
 20
-25.4030826455
 10
73.3778326141
 20
-25.3958019724
 10
73.3973080831
 20
-25.3875470167
  0
LWPOLYLINE
  5
3F7
100
AcDbEntity
  8
ASSI
100
AcDbPolyline
 62
250
  6
CONTINUOUS
 90
19
 70
0
 10
72.9847061818
 20
-25.3688108055
 10
73.0033316999
 20
-25.3787959233
 10
73.0233316379
 20
-25.3879277157
 10
73.0445637441
 20
-25.3961412321
 10
73.0668770031
 20
-25.4033780529
 10
73.0901127093
 20
-25.4095867054
 10
73.1141055965
 20
-25.4147230301
 10
73.1386850126
 20
-25.4187504941
 10
73.1636761341
 20
-25.4216404519
 10
73.1889012089
 20
-25.4233723481
 10
73.214180821
 20
-25.4239338646
 10
73.2393351666
 20
-25.4233210076
 10
73.2641853327
 20
-25.4215381359
 10
73.28855457
 20
-25.4185979305
 10
73.3122695496
 20
-25.4145213039
 10
73.3351615964
 20
-25.4093372516
 10
73.3570678881
 20
-25.4030826455
 10
73.3778326141
 20
-25.3958019724
 10
73.3973080831
 20
-25.3875470167
  0
LWPOLYLINE
  5
3F8
100
AcDbEntity
  8
RACCORDO
100
AcDbPolyline
 62
250
  6
CONTINUOUS
 90
22
 70
0
 10
-57.1063693874
 20
49.060888504
 10
-57.0799069131
 20
49.0465444058
 10
-57.0517371116
 20
49.0332372174
 10
-57.0220072096
 20
49.0210364874
 10
-56.9908725876
 20
49.0100059818
 10
-56.9584959676
 20
49.0002033504
 10
-56.9250465629
 20
48.9916798259
 10
-56.8906991934
 20
48.9844799554
 10
-56.8556333724
 20
48.9786413684
 10
-56.8200323679
 20
48.9741945799
 10
-56.7840822452
 20
48.9711628303
 10
-56.7479708941
 20
48.969561965
 10
-56.7118870469
 20
48.9694003506
 10
-56.6760192924
 20
48.9706788318
 10
-56.6405550899
 20
48.9733907268
 10
-56.6056797896
 20
48.9775218621
 10
-56.5715756639
 20
48.9830506468
 10
-56.5384209546
 20
48.9899481851
 10
-56.5063889416
 20
48.9981784278
 10
-56.4756470371
 20
49.0076983603
 10
-56.4463559106
 20
49.0184582277
 10
-56.4186686494
 20
49.0304017944
  0
LWPOLYLINE
  5
3F9
100
AcDbEntity
  8
ASSI
100
AcDbPolyline
 62
250
  6
CONTINUOUS
 90
22
 70
0
 10
-57.1063693874
 20
49.060888504
 10
-57.0799069131
 20
49.0465444058
 10
-57.0517371116
 20
49.0332372174
 10
-57.0220072096
 20
49.0210364874
 10
-56.9908725876
 20
49.0100059818
 10
-56.9584959676
 20
49.0002033504
 10
-56.9250465629
 20
48.9916798259
 10
-56.8906991934
 20
48.9844799554
 10
-56.8556333724
 20
48.9786413684
 10
-56.8200323679
 20
48.9741945799
 10
-56.7840822452
 20
48.9711628303
 10
-56.7479708941
 20
48.969561965
 10
-56.7118870469
 20
48.9694003506
 10
-56.6760192924
 20
48.9706788318
 10
-56.6405550899
 20
48.9733907268
 10
-56.6056797896
 20
48.9775218621
 10
-56.5715756639
 20
48.9830506468
 10
-56.5384209546
 20
48.9899481851
 10
-56.5063889416
 20
48.9981784278
 10
-56.4756470371
 20
49.0076983603
 10
-56.4463559106
 20
49.0184582277
 10
-56.4186686494
 20
49.0304017944
  0
LINE
  5
3FA
100
AcDbEntity
  8
RACCORDO
100
AcDbLine
 62
250
  6
CONTINUOUS
 10
55.1480729379
 20
-15.0701623286
 11
72.9847040341
 21
-25.3688590103
  0
LINE
  5
3FB
100
AcDbEntity
  8
ASSI
100
AcDbLine
 62
250
  6
CONTINUOUS
 10
55.1480729379
 20
-15.0701623286
 11
72.9847040341
 21
-25.3688590103
  0
LINE
  5
3FC
100
AcDbEntity
  8
RACCORDO
100
AcDbLine
 62
250
  6
CONTINUOUS
 10
-74.7196779336
 20
59.9138000939
 11
-56.8830427314
 21
49.6151997792
  0
LINE
  5
3FD
100
AcDbEntity
  8
ASSI
100
AcDbLine
 62
250
  6
CONTINUOUS
 10
-74.7196779336
 20
59.9138000939
 11
-56.8830427314
 21
49.6151997792
  0
LINE
  5
3FE
100
AcDbEntity
  8
RACCORDO
100
AcDbLine
 62
7
  6
CONTINUOUS
 10
-56.0366412638
 20
49.3643489681
 11
54.5444586847
 21
-14.4837922355
  0
LINE
  5
3FF
100
AcDbEntity
  8
ASSI
100
AcDbLine
 62
7
  6
CONTINUOUS
 10
-56.0366412638
 20
49.3643489681
 11
54.5444586847
 21
-14.4837922355
  0
LINE
  5
400
100
AcDbEntity
  8
RACCORDO
100
AcDbLine
 62
250
  6
CONTINUOUS
 10
-56.1396789193
 20
49.6152908032
 11
54.4414210293
 21
-14.2328504004
  0
LINE
  5
401
100
AcDbEntity
  8
ASSI
100
AcDbLine
 62
250
  6
CONTINUOUS
 10
-56.1396789193
 20
49.6152908032
 11
54.4414210293
 21
-14.2328504004
  0
LINE
  5
402
100
AcDbEntity
  8
0
100
AcDbLine
 62
250
  6
CONTINUOUS
 10
-57.5743398801
 20
52.2904150221
 11
-56.373290728
 21
51.5969442943
  0
LINE
  5
403
100
AcDbEntity
  8
0
100
AcDbLine
 62
250
  6
CONTINUOUS
 10
-57.4989882895
 20
52.3339142019
 11
-56.4392388713
 21
51.7220281696
  0
LINE
  5
404
100
AcDbEntity
  8
0
100
AcDbLine
 62
250
  6
CONTINUOUS
 10
-57.4235942087
 20
52.3774387315
 11
-56.5051445244
 21
51.8471373946
  0
LINE
  5
405
100
AcDbEntity
  8
0
100
AcDbLine
 62
250
  6
CONTINUOUS
 10
-48.8202221612
 20
47.7586707944
 11
-47.8311226098
 21
47.1875771098
  0
LINE
  5
406
100
AcDbEntity
  8
0
100
AcDbLine
 62
250
  6
CONTINUOUS
 10
-46.9656606792
 20
46.6878702379
 11
-46.718386145
 21
46.5450970209
  0
LINE
  5
407
100
AcDbEntity
  8
0
100
AcDbLine
 62
250
  6
CONTINUOUS
 10
-45.5644366684
 20
45.8788210555
 11
-45.317161427
 21
45.7360474302
  0
LINE
  5
408
100
AcDbEntity
  8
0
100
AcDbLine
 62
250
  6
CONTINUOUS
 10
-44.3280625828
 20
45.1649541539
 11
-43.9571497208
 21
44.950793716
  0
LINE
  5
409
100
AcDbEntity
  8
0
100
AcDbLine
 62
250
  6
CONTINUOUS
 10
-42.3910757847
 20
44.0465622528
 11
-42.1438005434
 21
43.9037886275
  0
LINE
  5
40A
100
AcDbEntity
  8
0
100
AcDbLine
 62
250
  6
CONTINUOUS
 10
-41.1547016992
 20
43.3326953512
 11
-39.6710523722
 21
42.4760548243
  0
LINE
  5
40B
100
AcDbEntity
  8
0
100
AcDbLine
 62
250
  6
CONTINUOUS
 10
-37.4455780282
 20
41.1910938298
 11
-37.1983034939
 21
41.0483206128
  0
LINE
  5
40C
100
AcDbEntity
  8
0
100
AcDbLine
 62
250
  6
CONTINUOUS
 10
-36.8686036435
 20
40.8579560513
 11
-36.6213291092
 21
40.7151828343
  0
LINE
  5
40D
100
AcDbEntity
  8
0
100
AcDbLine
 62
250
  6
CONTINUOUS
 10
-35.4673796327
 20
40.0489068689
 11
-35.2201043913
 21
39.9061332436
  0
LINE
  5
40E
100
AcDbEntity
  8
0
100
AcDbLine
 62
250
  6
CONTINUOUS
 10
-34.890405248
 20
39.7157690904
 11
-33.406755921
 21
38.8591285635
  0
LINE
  5
40F
100
AcDbEntity
  8
0
100
AcDbLine
 62
250
  6
CONTINUOUS
 10
-37.7752778786
 20
41.3814583914
 11
-38.0637654245
 21
41.5480274848
  0
LINE
  5
410
100
AcDbEntity
  8
0
100
AcDbLine
 62
250
  6
CONTINUOUS
 10
-39.0940779875
 20
42.1429170458
 11
-39.3413525218
 21
42.2856902628
  0
LINE
  5
411
100
AcDbEntity
  8
0
100
AcDbLine
 62
250
  6
CONTINUOUS
 10
-48.5329411992
 20
47.9050770861
 11
-47.7499045847
 21
47.4529615587
  0
LINE
  5
412
100
AcDbEntity
  8
0
100
AcDbLine
 62
250
  6
CONTINUOUS
 10
-33.3667494933
 20
39.1483080722
 11
-34.6031235789
 21
39.8621749738
  0
LINE
  5
413
100
AcDbEntity
  8
0
100
AcDbLine
 62
250
  6
CONTINUOUS
 10
-39.6310459445
 20
42.765234333
 11
-40.8674200301
 21
43.4791012346
  0
LINE
  5
414
100
AcDbEntity
  8
0
100
AcDbLine
 62
250
  6
CONTINUOUS
 10
-43.9171440002
 20
45.2399736329
 11
-44.2880561552
 21
45.4541336626
  0
LINE
  5
415
100
AcDbEntity
  8
0
100
AcDbLine
 62
250
  6
CONTINUOUS
 10
-58.3301813769
 20
53.7303622075
 11
-57.5177064929
 21
53.2612493922
  0
LINE
  5
416
100
AcDbEntity
  8
0
100
AcDbLine
 62
250
  6
CONTINUOUS
 10
-56.3166573408
 20
52.5677786645
 11
-55.5041824568
 21
52.0986658492
  0
LINE
  5
417
100
AcDbEntity
  8
0
100
AcDbLine
 62
250
  6
CONTINUOUS
 10
-58.2543413792
 20
53.7741433875
 11
-57.4418664952
 21
53.3050305722
  0
LINE
  5
418
100
AcDbEntity
  8
0
100
AcDbLine
 62
250
  6
CONTINUOUS
 10
-56.382117077
 20
52.6931445399
 11
-55.569642193
 21
52.2240317246
  0
LINE
  5
419
100
AcDbEntity
  8
0
100
AcDbLine
 62
250
  6
CONTINUOUS
 10
-46.4729805023
 20
47.0285871993
 11
-45.6487308762
 21
46.5526757954
  0
LINE
  5
41A
100
AcDbEntity
  8
0
100
AcDbLine
 62
250
  6
CONTINUOUS
 10
-36.3759234666
 20
41.1986730127
 11
-35.5516745476
 21
40.7227620171
  0
LINE
  5
41B
100
AcDbEntity
  8
0
100
AcDbLine
 62
250
  6
CONTINUOUS
 10
-43.2996196186
 20
45.1963283966
 11
-43.54689486
 21
45.3391020219
  0
LINE
  5
41C
100
AcDbEntity
  8
0
100
AcDbLine
 62
250
  6
CONTINUOUS
 10
-58.1784581703
 20
53.8179487005
 11
-57.3659839934
 21
53.3488362935
  0
LINE
  5
41D
100
AcDbEntity
  8
0
100
AcDbLine
 62
250
  6
CONTINUOUS
 10
-56.447534309
 20
52.8185349566
 11
-55.6350601322
 21
52.3494225496
  0
LINE
  5
41E
100
AcDbEntity
  8
0
100
AcDbLine
 62
250
  6
CONTINUOUS
 10
-53.8426281808
 20
51.3583228768
 11
-54.5962279399
 21
51.7934419329
  0
LINE
  5
41F
100
AcDbEntity
  8
0
100
AcDbLine
 62
250
  6
CONTINUOUS
 10
-46.4044341117
 20
47.1979612279
 11
-45.6626090947
 21
46.7696407603
  0
LINE
  5
420
100
AcDbEntity
  8
0
100
AcDbLine
 62
250
  6
CONTINUOUS
 10
-36.3073763688
 20
41.3680466331
 11
-35.5655520589
 21
40.9397265738
  0
LINE
  5
421
100
AcDbEntity
  8
0
100
AcDbLine
 62
250
  6
CONTINUOUS
 10
-38.2510679046
 20
42.7518923655
 11
-38.9516806171
 21
43.156417365
  0
LINE
  5
422
100
AcDbEntity
  8
0
100
AcDbLine
 62
250
  6
CONTINUOUS
 10
-47.6475129349
 20
48.1772819609
 11
-48.4305502565
 21
48.6293978966
  0
LINE
  5
423
100
AcDbEntity
  8
0
100
AcDbLine
 62
250
  6
CONTINUOUS
 10
-40.7580827325
 20
44.2517797721
 11
-39.6865585721
 21
43.6330951513
  0
LINE
  5
424
100
AcDbEntity
  8
0
100
AcDbLine
 62
250
  6
CONTINUOUS
 10
-38.12673572
 20
42.994578637
 11
-38.9097730415
 21
43.4466945727
  0
LINE
  5
425
100
AcDbEntity
  8
0
100
AcDbLine
 62
250
  6
CONTINUOUS
 10
-47.6056060665
 20
48.4675595769
 11
-48.3886426809
 21
48.9196751043
  0
LINE
  5
426
100
AcDbEntity
  8
0
100
AcDbLine
 62
250
  6
CONTINUOUS
 10
-39.6445603851
 20
43.9234246768
 11
-40.7160845455
 21
44.5421092977
  0
LINE
  5
427
100
AcDbEntity
  8
0
100
AcDbLine
 62
250
  6
CONTINUOUS
 10
-55.5631652529
 20
53.4514339308
 11
-56.3756394298
 21
53.9205463378
  0
LINE
  5
428
100
AcDbEntity
  8
0
100
AcDbLine
 62
250
  6
CONTINUOUS
 10
-57.2940891142
 20
54.4508476747
 11
-58.1065632911
 21
54.9199600818
  0
LINE
  5
429
100
AcDbEntity
  8
0
100
AcDbLine
 62
250
  6
CONTINUOUS
 10
-43.3864231997
 20
46.4517313704
 11
-43.1391479584
 21
46.3089577451
  0
LINE
  5
42A
100
AcDbEntity
  8
0
100
AcDbLine
 62
250
  6
CONTINUOUS
 10
-55.4866863708
 20
53.4955831781
 11
-56.2991612548
 21
53.9646959934
  0
LINE
  5
42B
100
AcDbEntity
  8
0
100
AcDbLine
 62
250
  6
CONTINUOUS
 10
-57.358910673
 20
54.5765820257
 11
-58.171385557
 21
55.045694841
  0
LINE
  5
42C
100
AcDbEntity
  8
0
100
AcDbLine
 62
250
  6
CONTINUOUS
 10
-55.410165602
 20
53.5397574268
 11
-56.2226404859
 21
54.0088702421
  0
LINE
  5
42D
100
AcDbEntity
  8
0
100
AcDbLine
 62
250
  6
CONTINUOUS
 10
-57.4236896381
 20
54.7023409699
 11
-58.236164522
 21
55.1714537852
  0
LINE
  5
42E
100
AcDbEntity
  8
0
100
AcDbLine
 62
250
  6
CONTINUOUS
 10
-48.2887441068
 20
49.5982098639
 11
-47.5057067853
 21
49.1460939281
  0
LINE
  5
42F
100
AcDbEntity
  8
0
100
AcDbLine
 62
250
  6
CONTINUOUS
 10
-44.0438583557
 20
47.1472660321
 11
-43.6729462007
 21
46.9331060024
  0
LINE
  5
430
100
AcDbEntity
  8
0
100
AcDbLine
 62
250
  6
CONTINUOUS
 10
-40.6232229377
 20
45.1722340124
 11
-39.3868481451
 21
44.4583667025
  0
LINE
  5
431
100
AcDbEntity
  8
0
100
AcDbLine
 62
250
  6
CONTINUOUS
 10
-42.7590226831
 20
46.4581354793
 11
-42.0996229823
 21
46.0774063562
  0
LINE
  5
432
100
AcDbEntity
  8
0
100
AcDbLine
 62
250
  6
CONTINUOUS
 10
-41.852348448
 20
45.9346331392
 11
-41.1929487471
 21
45.5539040161
  0
LINE
  5
433
100
AcDbEntity
  8
0
100
AcDbLine
 62
250
  6
CONTINUOUS
 10
-38.802625185
 20
44.1737611492
 11
-38.0195878634
 21
43.7216452134
  0
LINE
  5
434
100
AcDbEntity
  8
0
100
AcDbLine
 62
250
  6
CONTINUOUS
 10
-39.0134276967
 20
44.5593269815
 11
-38.0243281454
 21
43.9882332969
  0
LINE
  5
435
100
AcDbEntity
  8
0
100
AcDbLine
 62
250
  6
CONTINUOUS
 10
-34.3152051816
 20
41.8466321838
 11
-34.562480423
 21
41.9894058091
  0
LINE
  5
436
100
AcDbEntity
  8
0
100
AcDbLine
 62
250
  6
CONTINUOUS
 10
-35.5515799743
 20
42.5604994937
 11
-35.8812791176
 21
42.750863647
  0
LINE
  5
437
100
AcDbEntity
  8
0
100
AcDbLine
 62
250
  6
CONTINUOUS
 10
-36.8703786689
 20
43.3219573316
 11
-37.1176532032
 21
43.4647305486
  0
LINE
  5
438
100
AcDbEntity
  8
0
100
AcDbLine
 62
250
  6
CONTINUOUS
 10
-39.3431275472
 20
44.7496915431
 11
-40.8267768741
 21
45.60633207
  0
LINE
  5
439
100
AcDbEntity
  8
0
100
AcDbLine
 62
250
  6
CONTINUOUS
 10
-41.1564767246
 20
45.7966966315
 11
-42.7225506606
 21
46.7009280946
  0
LINE
  5
43A
100
AcDbEntity
  8
0
100
AcDbLine
 62
250
  6
CONTINUOUS
 10
-43.6292256029
 20
47.224430843
 11
-44.0001377578
 21
47.4385908726
  0
LINE
  5
43B
100
AcDbEntity
  8
0
100
AcDbLine
 62
250
  6
CONTINUOUS
 10
-45.6486363029
 20
48.390413272
 11
-45.9783361533
 21
48.5807778336
  0
LINE
  5
43C
100
AcDbEntity
  8
0
100
AcDbLine
 62
250
  6
CONTINUOUS
 10
-47.5031977848
 20
49.4612138286
 11
-48.4922973361
 21
50.0323075132
  0
LINE
  5
43D
100
AcDbEntity
  8
0
100
AcDbLine
 62
250
  6
CONTINUOUS
 10
-50.2903171456
 20
51.0704616167
 11
-51.4207157237
 21
51.7231395885
  0
LINE
  5
43E
100
AcDbEntity
  8
0
100
AcDbLine
 62
250
  6
CONTINUOUS
 10
-56.3060409865
 20
54.8988657524
 11
-57.2244906709
 21
55.4291670893
  0
LINE
  5
43F
100
AcDbEntity
  8
0
100
AcDbLine
 62
250
  6
CONTINUOUS
 10
-56.2290725256
 20
54.9432993094
 11
-57.2888219439
 21
55.5551853417
  0
LINE
  5
440
100
AcDbEntity
  8
0
100
AcDbLine
 62
250
  6
CONTINUOUS
 10
-56.1520614579
 20
54.9877566505
 11
-57.3531106101
 21
55.6812273782
  0
LWPOLYLINE
  5
441
100
AcDbEntity
  8
RACCORDO
100
AcDbPolyline
 62
250
  6
CONTINUOUS
 90
29
 70
0
 10
54.4414210293
 20
-14.2328504004
 10
54.471226256
 20
-14.2507219129
 10
54.5005301648
 20
-14.2693567277
 10
54.5293327868
 20
-14.2887548289
 10
54.5576242341
 20
-14.3089458532
 10
54.5854145154
 20
-14.3299001014
 10
54.6127335268
 20
-14.3515285441
 10
54.6395787745
 20
-14.3738166946
 10
54.6659529566
 20
-14.396778934
 10
54.6918937615
 20
-14.4203695319
 10
54.7174012131
 20
-14.4445761129
 10
54.7424755592
 20
-14.469410912
 10
54.76715483
 20
-14.4948651118
 10
54.7914419011
 20
-14.5209291247
 10
54.8153342338
 20
-14.5476123641
 10
54.8388617512
 20
-14.5749345067
 10
54.8620296137
 20
-14.6028887144
 10
54.8848330729
 20
-14.6314816123
 10
54.9072872152
 20
-14.6607530568
 10
54.9293989354
 20
-14.6906984448
 10
54.9511618446
 20
-14.7213221176
 10
54.9725711503
 20
-14.7526773253
 10
54.9936352055
 20
-14.7847612468
 10
55.0143462831
 20
-14.8175763786
 10
55.0346755388
 20
-14.8511839114
 10
55.054633074
 20
-14.885582535
 10
55.0742095676
 20
-14.9207731542
 10
55.0933471361
 20
-14.9568202325
 10
55.1120268302
 20
-14.9937450781
  0
LWPOLYLINE
  5
442
100
AcDbEntity
  8
ASSI
100
AcDbPolyline
 62
250
  6
CONTINUOUS
 90
29
 70
0
 10
54.4414210293
 20
-14.2328504004
 10
54.471226256
 20
-14.2507219129
 10
54.5005301648
 20
-14.2693567277
 10
54.5293327868
 20
-14.2887548289
 10
54.5576242341
 20
-14.3089458532
 10
54.5854145154
 20
-14.3299001014
 10
54.6127335268
 20
-14.3515285441
 10
54.6395787745
 20
-14.3738166946
 10
54.6659529566
 20
-14.396778934
 10
54.6918937615
 20
-14.4203695319
 10
54.7174012131
 20
-14.4445761129
 10
54.7424755592
 20
-14.469410912
 10
54.76715483
 20
-14.4948651118
 10
54.7914419011
 20
-14.5209291247
 10
54.8153342338
 20
-14.5476123641
 10
54.8388617512
 20
-14.5749345067
 10
54.8620296137
 20
-14.6028887144
 10
54.8848330729
 20
-14.6314816123
 10
54.9072872152
 20
-14.6607530568
 10
54.9293989354
 20
-14.6906984448
 10
54.9511618446
 20
-14.7213221176
 10
54.9725711503
 20
-14.7526773253
 10
54.9936352055
 20
-14.7847612468
 10
55.0143462831
 20
-14.8175763786
 10
55.0346755388
 20
-14.8511839114
 10
55.054633074
 20
-14.885582535
 10
55.0742095676
 20
-14.9207731542
 10
55.0933471361
 20
-14.9568202325
 10
55.1120268302
 20
-14.9937450781
  0
LWPOLYLINE
  5
443
100
AcDbEntity
  8
RACCORDO
100
AcDbPolyline
 62
7
  6
CONTINUOUS
 90
22
 70
0
 10
54.5444793133
 20
-14.4838042064
 10
54.5675412342
 20
-14.4977261226
 10
54.5914965299
 20
-14.5134436721
 10
54.6163382508
 20
-14.5310657309
 10
54.6418618308
 20
-14.5505583946
 10
54.6679423411
 20
-14.5719261592
 10
54.6944652978
 20
-14.5951717429
 10
54.7212501337
 20
-14.6202248738
 10
54.748175463
 20
-14.6470512324
 10
54.7751258678
 20
-14.6756114208
 10
54.8019449729
 20
-14.7058085022
 10
54.8285160093
 20
-14.7375718076
 10
54.8547326904
 20
-14.7708317782
 10
54.8804674719
 20
-14.8054786894
 10
54.9056149298
 20
-14.8414165252
 10
54.9300784807
 20
-14.878549456
 10
54.9537557862
 20
-14.9167598933
 10
54.9765552363
 20
-14.9559324778
 10
54.9983911787
 20
-14.9959479591
 10
55.0191804661
 20
-15.0366767589
 10
55.0388481368
 20
-15.0779891354
 10
55.0449379826
 20
-15.0914099021
  0
LWPOLYLINE
  5
444
100
AcDbEntity
  8
ASSI
100
AcDbPolyline
 62
7
  6
CONTINUOUS
 90
22
 70
0
 10
54.5444793133
 20
-14.4838042064
 10
54.5675412342
 20
-14.4977261226
 10
54.5914965299
 20
-14.5134436721
 10
54.6163382508
 20
-14.5310657309
 10
54.6418618308
 20
-14.5505583946
 10
54.6679423411
 20
-14.5719261592
 10
54.6944652978
 20
-14.5951717429
 10
54.7212501337
 20
-14.6202248738
 10
54.748175463
 20
-14.6470512324
 10
54.7751258678
 20
-14.6756114208
 10
54.8019449729
 20
-14.7058085022
 10
54.8285160093
 20
-14.7375718076
 10
54.8547326904
 20
-14.7708317782
 10
54.8804674719
 20
-14.8054786894
 10
54.9056149298
 20
-14.8414165252
 10
54.9300784807
 20
-14.878549456
 10
54.9537557862
 20
-14.9167598933
 10
54.9765552363
 20
-14.9559324778
 10
54.9983911787
 20
-14.9959479591
 10
55.0191804661
 20
-15.0366767589
 10
55.0388481368
 20
-15.0779891354
 10
55.0449379826
 20
-15.0914099021
  0
LWPOLYLINE
  5
445
100
AcDbEntity
  8
RACCORDO
100
AcDbPolyline
 62
250
  6
CONTINUOUS
 90
13
 70
0
 10
55.3155307266
 20
-15.8501086309
 10
55.2909074807
 20
-15.8349563708
 10
55.2682585454
 20
-15.8189213585
 10
55.2477022924
 20
-15.802087399
 10
55.2293461566
 20
-15.784542473
 10
55.213286074
 20
-15.7663782769
 10
55.1996059807
 20
-15.7476897437
 10
55.188377374
 20
-15.7285745467
 10
55.179658939
 20
-15.7091325891
 10
55.1734962414
 20
-15.6894654819
 10
55.1699214898
 20
-15.669676013
 10
55.1689533672
 20
-15.6498676095
 10
55.1690448733
 20
-15.6466002695
  0
LWPOLYLINE
  5
446
100
AcDbEntity
  8
ASSI
100
AcDbPolyline
 62
250
  6
CONTINUOUS
 90
13
 70
0
 10
55.3155307266
 20
-15.8501086309
 10
55.2909074807
 20
-15.8349563708
 10
55.2682585454
 20
-15.8189213585
 10
55.2477022924
 20
-15.802087399
 10
55.2293461566
 20
-15.784542473
 10
55.213286074
 20
-15.7663782769
 10
55.1996059807
 20
-15.7476897437
 10
55.188377374
 20
-15.7285745467
 10
55.179658939
 20
-15.7091325891
 10
55.1734962414
 20
-15.6894654819
 10
55.1699214898
 20
-15.669676013
 10
55.1689533672
 20
-15.6498676095
 10
55.1690448733
 20
-15.6466002695
  0
LWPOLYLINE
  5
447
100
AcDbEntity
  8
RACCORDO
100
AcDbPolyline
 62
250
  6
CONTINUOUS
 90
11
 70
0
 10
-74.7196759555
 20
59.9138482664
 10
-74.7367993318
 20
59.9245041123
 10
-74.7522940205
 20
59.9358664725
 10
-74.7660498138
 20
59.9478545309
 10
-74.7779688723
 20
59.9603830213
 10
-74.7879664204
 20
59.9733628335
 10
-74.7959713495
 20
59.9867016471
 10
-74.8019267237
 20
60.0003045885
 10
-74.8057901848
 20
60.0140749053
 10
-74.8075342536
 20
60.0279146547
 10
-74.8075696515
 20
60.035923371
  0
LWPOLYLINE
  5
448
100
AcDbEntity
  8
ASSI
100
AcDbPolyline
 62
250
  6
CONTINUOUS
 90
11
 70
0
 10
-74.7196759555
 20
59.9138482664
 10
-74.7367993318
 20
59.9245041123
 10
-74.7522940205
 20
59.9358664725
 10
-74.7660498138
 20
59.9478545309
 10
-74.7779688723
 20
59.9603830213
 10
-74.7879664204
 20
59.9733628335
 10
-74.7959713495
 20
59.9867016471
 10
-74.8019267237
 20
60.0003045885
 10
-74.8057901848
 20
60.0140749053
 10
-74.8075342536
 20
60.0279146547
 10
-74.8075696515
 20
60.035923371
  0
LWPOLYLINE
  5
449
100
AcDbEntity
  8
RACCORDO
100
AcDbPolyline
 62
250
  6
CONTINUOUS
 90
20
 70
0
 10
55.148075283
 20
-52.0851754155
 10
55.1279711122
 20
-52.0550746726
 10
55.1098429957
 20
-52.0239449101
 10
55.093786919
 20
-51.9919509551
 10
55.0798878966
 20
-51.9592622108
 10
55.0682195217
 20
-51.9260517587
 10
55.0588435764
 20
-51.8924954431
 10
55.0518097049
 20
-51.8587709393
 10
55.0471551506
 20
-51.8250568134
 10
55.0449045584
 20
-51.7915315764
 10
55.045069845
 20
-51.758372739
 10
55.0476501352
 20
-51.7257558721
 10
55.0526317668
 20
-51.693853677
 10
55.0599883628
 20
-51.6628350707
 10
55.0696809712
 20
-51.6328642919
 10
55.0816582713
 20
-51.6041000311
 10
55.095856845
 20
-51.5766945907
 10
55.1122015132
 20
-51.550793078
 10
55.1306057333
 20
-51.5265326375
 10
55.1509720581
 20
-51.5040417244
  0
LWPOLYLINE
  5
44A
100
AcDbEntity
  8
ASSI
100
AcDbPolyline
 62
250
  6
CONTINUOUS
 90
20
 70
0
 10
55.148075283
 20
-52.0851754155
 10
55.1279711122
 20
-52.0550746726
 10
55.1098429957
 20
-52.0239449101
 10
55.093786919
 20
-51.9919509551
 10
55.0798878966
 20
-51.9592622108
 10
55.0682195217
 20
-51.9260517587
 10
55.0588435764
 20
-51.8924954431
 10
55.0518097049
 20
-51.8587709393
 10
55.0471551506
 20
-51.8250568134
 10
55.0449045584
 20
-51.7915315764
 10
55.045069845
 20
-51.758372739
 10
55.0476501352
 20
-51.7257558721
 10
55.0526317668
 20
-51.693853677
 10
55.0599883628
 20
-51.6628350707
 10
55.0696809712
 20
-51.6328642919
 10
55.0816582713
 20
-51.6041000311
 10
55.095856845
 20
-51.5766945907
 10
55.1122015132
 20
-51.550793078
 10
55.1306057333
 20
-51.5265326375
 10
55.1509720581
 20
-51.5040417244
  0
LWPOLYLINE
  5
44B
100
AcDbEntity
  8
0
100
AcDbPolyline
 62
7
  6
CONTINUOUS
 90
16
 70
0
 10
2.8621061563
 20
-25.244672761
 10
2.8688692586
 20
-25.2403549703
 10
2.8780690443
 20
-25.2329105996
 10
2.8865078031
 20
-25.2242767454
 10
2.8942095903
 20
-25.2144724998
 10
2.9011508153
 20
-25.2034784609
 10
2.9073542445
 20
-25.191391609
 10
2.9128464117
 20
-25.1781962726
 10
2.9176012676
 20
-25.1639078007
 10
2.9215626223
 20
-25.1486697578
 10
2.9247368503
 20
-25.132442859
 10
2.9271179778
 20
-25.1152661231
 10
2.9286311079
 20
-25.0974006931
 10
2.9292512701
 20
-25.07893362
 10
2.9290035613
 20
-25.0597777695
 10
2.9278880599
 20
-25.03993309
  0
LWPOLYLINE
  5
44C
100
AcDbEntity
  8
ASSI
100
AcDbPolyline
 62
7
  6
CONTINUOUS
 90
16
 70
0
 10
2.8621061563
 20
-25.244672761
 10
2.8688692586
 20
-25.2403549703
 10
2.8780690443
 20
-25.2329105996
 10
2.8865078031
 20
-25.2242767454
 10
2.8942095903
 20
-25.2144724998
 10
2.9011508153
 20
-25.2034784609
 10
2.9073542445
 20
-25.191391609
 10
2.9128464117
 20
-25.1781962726
 10
2.9176012676
 20
-25.1639078007
 10
2.9215626223
 20
-25.1486697578
 10
2.9247368503
 20
-25.132442859
 10
2.9271179778
 20
-25.1152661231
 10
2.9286311079
 20
-25.0974006931
 10
2.9292512701
 20
-25.07893362
 10
2.9290035613
 20
-25.0597777695
 10
2.9278880599
 20
-25.03993309
  0
LWPOLYLINE
  5
44D
100
AcDbEntity
  8
0
100
AcDbPolyline
 62
7
  6
CONTINUOUS
 90
3
 70
0
 10
3.092896954
 20
-25.6510374556
 10
3.0852131671
 20
-25.6558267941
 10
3.0829666739
 20
-25.6571297366
  0
LWPOLYLINE
  5
44E
100
AcDbEntity
  8
ASSI
100
AcDbPolyline
 62
7
  6
CONTINUOUS
 90
3
 70
0
 10
3.092896954
 20
-25.6510374556
 10
3.0852131671
 20
-25.6558267941
 10
3.0829666739
 20
-25.6571297366
  0
LWPOLYLINE
  5
44F
100
AcDbEntity
  8
0
100
AcDbPolyline
 62
7
  6
CONTINUOUS
 90
3
 70
0
 10
2.7556581204
 20
-25.3060024342
 10
2.7590625578
 20
-25.3039523558
 10
2.7695531385
 20
-25.2962309996
  0
LWPOLYLINE
  5
450
100
AcDbEntity
  8
ASSI
100
AcDbPolyline
 62
7
  6
CONTINUOUS
 90
3
 70
0
 10
2.7556581204
 20
-25.3060024342
 10
2.7590625578
 20
-25.3039523558
 10
2.7695531385
 20
-25.2962309996
  0
LINE
  5
451
100
AcDbEntity
  8
0
100
AcDbLine
 62
7
  6
CONTINUOUS
 10
0.9422961672
 20
-23.8622353233
 11
0.8359276015
 21
-23.9236512001
  0
LINE
  5
452
100
AcDbEntity
  8
ASSI
100
AcDbLine
 62
7
  6
CONTINUOUS
 10
0.9422961672
 20
-23.8622353233
 11
0.8359276015
 21
-23.9236512001
  0
LINE
  5
453
100
AcDbEntity
  8
0
100
AcDbLine
 62
7
  6
CONTINUOUS
 10
-0.3710510878
 20
-24.6261705994
 11
-0.4775255029
 21
-24.6876475922
  0
LINE
  5
454
100
AcDbEntity
  8
ASSI
100
AcDbLine
 62
7
  6
CONTINUOUS
 10
-0.3710510878
 20
-24.6261705994
 11
-0.4775255029
 21
-24.6876475922
  0
LINE
  5
455
100
AcDbEntity
  8
0
100
AcDbLine
 62
7
  6
CONTINUOUS
 10
0.2465883008
 20
-24.9827878415
 11
0.1401138857
 21
-25.0442648344
  0
LINE
  5
456
100
AcDbEntity
  8
ASSI
100
AcDbLine
 62
7
  6
CONTINUOUS
 10
0.2465883008
 20
-24.9827878415
 11
0.1401138857
 21
-25.0442648344
  0
LINE
  5
457
100
AcDbEntity
  8
0
100
AcDbLine
 62
7
  6
CONTINUOUS
 10
0.7353081605
 20
-24.847962413
 11
0.6288644884
 21
-24.9094216552
  0
LINE
  5
458
100
AcDbEntity
  8
ASSI
100
AcDbLine
 62
7
  6
CONTINUOUS
 10
0.7353081605
 20
-24.847962413
 11
0.6288644884
 21
-24.9094216552
  0
LINE
  5
459
100
AcDbEntity
  8
0
100
AcDbLine
 62
7
  6
CONTINUOUS
 10
1.1900432616
 20
-24.7867853406
 11
1.0836225401
 21
-24.8482313315
  0
LINE
  5
45A
100
AcDbEntity
  8
ASSI
100
AcDbLine
 62
7
  6
CONTINUOUS
 10
1.1900432616
 20
-24.7867853406
 11
1.0836225401
 21
-24.8482313315
  0
LINE
  5
45B
100
AcDbEntity
  8
0
100
AcDbLine
 62
7
  6
CONTINUOUS
 10
2.3530535255
 20
-24.455950038
 11
2.2466988773
 21
-24.5173578789
  0
LINE
  5
45C
100
AcDbEntity
  8
ASSI
100
AcDbLine
 62
7
  6
CONTINUOUS
 10
2.3530535255
 20
-24.455950038
 11
2.2466988773
 21
-24.5173578789
  0
LINE
  5
45D
100
AcDbEntity
  8
0
100
AcDbLine
 62
7
  6
CONTINUOUS
 10
1.2980711131
 20
-25.1728946888
 11
1.1916274411
 21
-25.234353931
  0
LINE
  5
45E
100
AcDbEntity
  8
ASSI
100
AcDbLine
 62
7
  6
CONTINUOUS
 10
1.2980711131
 20
-25.1728946888
 11
1.1916274411
 21
-25.234353931
  0
LINE
  5
45F
100
AcDbEntity
  8
0
100
AcDbLine
 62
250
  6
CONTINUOUS
 10
2.6759182333
 20
-24.6299039172
 11
2.56956436
 21
-24.6913113108
  0
LINE
  5
460
100
AcDbEntity
  8
ASSI
100
AcDbLine
 62
250
  6
CONTINUOUS
 10
2.6759182333
 20
-24.6299039172
 11
2.56956436
 21
-24.6913113108
  0
LINE
  5
461
100
AcDbEntity
  8
0
100
AcDbLine
 62
7
  6
CONTINUOUS
 10
1.4391846985
 20
-25.6713780548
 11
1.3327102833
 21
-25.7328550476
  0
LINE
  5
462
100
AcDbEntity
  8
ASSI
100
AcDbLine
 62
7
  6
CONTINUOUS
 10
1.4391846985
 20
-25.6713780548
 11
1.3327102833
 21
-25.7328550476
  0
LINE
  5
463
100
AcDbEntity
  8
0
100
AcDbLine
 62
250
  6
CONTINUOUS
 10
2.9278880612
 20
-25.0399331928
 11
2.8215174976
 21
-25.101350223
  0
LINE
  5
464
100
AcDbEntity
  8
ASSI
100
AcDbLine
 62
250
  6
CONTINUOUS
 10
2.9278880612
 20
-25.0399331928
 11
2.8215174976
 21
-25.101350223
  0
LINE
  5
465
100
AcDbEntity
  8
0
100
AcDbLine
 62
7
  6
CONTINUOUS
 10
2.434050739
 20
-25.4268947586
 11
2.3276354399
 21
-25.4883376187
  0
LINE
  5
466
100
AcDbEntity
  8
ASSI
100
AcDbLine
 62
7
  6
CONTINUOUS
 10
2.434050739
 20
-25.4268947586
 11
2.3276354399
 21
-25.4883376187
  0
LINE
  5
467
100
AcDbEntity
  8
0
100
AcDbLine
 62
7
  6
CONTINUOUS
 10
2.7557079613
 20
-25.3060803431
 11
2.8620942918
 21
-25.2446542093
  0
LINE
  5
468
100
AcDbEntity
  8
ASSI
100
AcDbLine
 62
7
  6
CONTINUOUS
 10
2.7557079613
 20
-25.3060803431
 11
2.8620942918
 21
-25.2446542093
  0
LINE
  5
469
100
AcDbEntity
  8
0
100
AcDbLine
 62
250
  6
CONTINUOUS
 10
2.65561955
 20
-25.5548258132
 11
2.5492042508
 21
-25.6162686732
  0
LINE
  5
46A
100
AcDbEntity
  8
ASSI
100
AcDbLine
 62
250
  6
CONTINUOUS
 10
2.65561955
 20
-25.5548258132
 11
2.5492042508
 21
-25.6162686732
  0
LINE
  5
46B
100
AcDbEntity
  8
0
100
AcDbLine
 62
7
  6
CONTINUOUS
 10
2.0879925291
 20
-26.0459918286
 11
1.9815181139
 21
-26.1074688215
  0
LINE
  5
46C
100
AcDbEntity
  8
ASSI
100
AcDbLine
 62
7
  6
CONTINUOUS
 10
2.0879925291
 20
-26.0459918286
 11
1.9815181139
 21
-26.1074688215
  0
LINE
  5
46D
100
AcDbEntity
  8
0
100
AcDbLine
 62
7
  6
CONTINUOUS
 10
3.0719148539
 20
-25.6242061072
 11
2.9655112556
 21
-25.6856422113
  0
LINE
  5
46E
100
AcDbEntity
  8
ASSI
100
AcDbLine
 62
7
  6
CONTINUOUS
 10
3.0719148539
 20
-25.6242061072
 11
2.9655112556
 21
-25.6856422113
  0
LINE
  5
46F
100
AcDbEntity
  8
0
100
AcDbLine
 62
250
  6
CONTINUOUS
 10
2.900416923
 20
-25.8809317277
 11
2.7939887322
 21
-25.9423820312
  0
LINE
  5
470
100
AcDbEntity
  8
ASSI
100
AcDbLine
 62
250
  6
CONTINUOUS
 10
2.900416923
 20
-25.8809317277
 11
2.7939887322
 21
-25.9423820312
  0
LINE
  5
471
100
AcDbEntity
  8
0
100
AcDbLine
 62
7
  6
CONTINUOUS
 10
3.132386996
 20
-26.6490121044
 11
3.0259125808
 21
-26.7104890973
  0
LINE
  5
472
100
AcDbEntity
  8
ASSI
100
AcDbLine
 62
7
  6
CONTINUOUS
 10
3.132386996
 20
-26.6490121044
 11
3.0259125808
 21
-26.7104890973
  0
LWPOLYLINE
  5
473
100
AcDbEntity
  8
0
100
AcDbPolyline
 62
7
  6
CONTINUOUS
 90
4
 70
0
 10
3.0829666739
 20
-25.6571297366
 10
3.0775598515
 20
-25.6601295641
 10
3.0700060408
 20
-25.6641009424
 10
3.0625603058
 20
-25.6677564893
  0
LWPOLYLINE
  5
474
100
AcDbEntity
  8
ASSI
100
AcDbPolyline
 62
7
  6
CONTINUOUS
 90
4
 70
0
 10
3.0829666739
 20
-25.6571297366
 10
3.0775598515
 20
-25.6601295641
 10
3.0700060408
 20
-25.6641009424
 10
3.0625603058
 20
-25.6677564893
  0
LWPOLYLINE
  5
475
100
AcDbEntity
  8
0
100
AcDbPolyline
 62
7
  6
CONTINUOUS
 90
5
 70
0
 10
3.0625603058
 20
-25.6677564893
 10
3.0552139349
 20
-25.6710807387
 10
3.0480100793
 20
-25.6741823003
 10
3.0409684386
 20
-25.6770852598
 10
3.0340692171
 20
-25.6797655957
  0
LWPOLYLINE
  5
476
100
AcDbEntity
  8
ASSI
100
AcDbPolyline
 62
7
  6
CONTINUOUS
 90
5
 70
0
 10
3.0625603058
 20
-25.6677564893
 10
3.0552139349
 20
-25.6710807387
 10
3.0480100793
 20
-25.6741823003
 10
3.0409684386
 20
-25.6770852598
 10
3.0340692171
 20
-25.6797655957
  0
LWPOLYLINE
  5
477
100
AcDbEntity
  8
0
100
AcDbPolyline
 62
7
  6
CONTINUOUS
 90
9
 70
0
 10
3.0340692171
 20
-25.6797655957
 10
3.0207017067
 20
-25.6846696017
 10
3.0142333511
 20
-25.6868933163
 10
3.0077194794
 20
-25.6886616755
 10
3.0011702816
 20
-25.6900157412
 10
2.9945754674
 20
-25.6909145185
 10
2.9877324694
 20
-25.6909657438
 10
2.9805737145
 20
-25.6900386963
 10
2.9731666564
 20
-25.6882641766
  0
LWPOLYLINE
  5
478
100
AcDbEntity
  8
ASSI
100
AcDbPolyline
 62
7
  6
CONTINUOUS
 90
9
 70
0
 10
3.0340692171
 20
-25.6797655957
 10
3.0207017067
 20
-25.6846696017
 10
3.0142333511
 20
-25.6868933163
 10
3.0077194794
 20
-25.6886616755
 10
3.0011702816
 20
-25.6900157412
 10
2.9945754674
 20
-25.6909145185
 10
2.9877324694
 20
-25.6909657438
 10
2.9805737145
 20
-25.6900386963
 10
2.9731666564
 20
-25.6882641766
  0
LWPOLYLINE
  5
479
100
AcDbEntity
  8
0
100
AcDbPolyline
 62
7
  6
CONTINUOUS
 90
10
 70
0
 10
3.126743053
 20
-25.623341994
 10
3.1261883552
 20
-25.6235424507
 10
3.1198291179
 20
-25.6256982134
 10
3.1134258952
 20
-25.6273995419
 10
3.1069863402
 20
-25.6286820073
 10
3.1005027018
 20
-25.6295101039
 10
3.0937738941
 20
-25.6295135554
 10
3.0867328415
 20
-25.6285689676
 10
3.0794465072
 20
-25.6267998098
 10
3.0719148539
 20
-25.6242061072
  0
LWPOLYLINE
  5
47A
100
AcDbEntity
  8
ASSI
100
AcDbPolyline
 62
7
  6
CONTINUOUS
 90
10
 70
0
 10
3.126743053
 20
-25.623341994
 10
3.1261883552
 20
-25.6235424507
 10
3.1198291179
 20
-25.6256982134
 10
3.1134258952
 20
-25.6273995419
 10
3.1069863402
 20
-25.6286820073
 10
3.1005027018
 20
-25.6295101039
 10
3.0937738941
 20
-25.6295135554
 10
3.0867328415
 20
-25.6285689676
 10
3.0794465072
 20
-25.6267998098
 10
3.0719148539
 20
-25.6242061072
  0
LWPOLYLINE
  5
47B
100
AcDbEntity
  8
RACCORDO
100
AcDbPolyline
 62
250
  6
CONTINUOUS
 90
19
 70
0
 10
74.8010686691
 20
-7.0686928018
 10
74.819665114
 20
-7.0789492521
 10
74.8396155112
 20
-7.0885837034
 10
74.8607778209
 20
-7.0975275617
 10
74.8830013748
 20
-7.1057171499
 10
74.9061279486
 20
-7.1130941608
 10
74.9299928893
 20
-7.1196060728
 10
74.9544262868
 20
-7.1252065233
 10
74.9792541835
 20
-7.129855639
 10
75.0042998136
 20
-7.1335203199
 10
75.0293848607
 20
-7.1361744747
 10
75.054330728
 20
-7.1377992066
 10
75.0789598095
 20
-7.1383829483
 10
75.1030967547
 20
-7.1379215436
 10
75.1265697168
 20
-7.1364182776
 10
75.1492115765
 20
-7.1338838531
 10
75.1708611314
 20
-7.1303363143
 10
75.1913642444
 20
-7.1258009184
 10
75.2105749402
 20
-7.1203099559
  0
LWPOLYLINE
  5
47C
100
AcDbEntity
  8
ASSI
100
AcDbPolyline
 62
250
  6
CONTINUOUS
 90
19
 70
0
 10
74.8010686691
 20
-7.0686928018
 10
74.819665114
 20
-7.0789492521
 10
74.8396155112
 20
-7.0885837034
 10
74.8607778209
 20
-7.0975275617
 10
74.8830013748
 20
-7.1057171499
 10
74.9061279486
 20
-7.1130941608
 10
74.9299928893
 20
-7.1196060728
 10
74.9544262868
 20
-7.1252065233
 10
74.9792541835
 20
-7.129855639
 10
75.0042998136
 20
-7.1335203199
 10
75.0293848607
 20
-7.1361744747
 10
75.054330728
 20
-7.1377992066
 10
75.0789598095
 20
-7.1383829483
 10
75.1030967547
 20
-7.1379215436
 10
75.1265697168
 20
-7.1364182776
 10
75.1492115765
 20
-7.1338838531
 10
75.1708611314
 20
-7.1303363143
 10
75.1913642444
 20
-7.1258009184
 10
75.2105749402
 20
-7.1203099559
  0
LWPOLYLINE
  5
47D
100
AcDbEntity
  8
RACCORDO
100
AcDbPolyline
 62
250
  6
CONTINUOUS
 90
12
 70
0
 10
-73.08390778
 20
78.3182391864
 10
-73.1010767626
 20
78.3286330531
 10
-73.116637114
 20
78.3395018922
 10
-73.1304780483
 20
78.3507683201
 10
-73.1425010213
 20
78.3623521227
 10
-73.1526204325
 20
78.374170826
 10
-73.160764234
 20
78.3861402837
 10
-73.166874444
 20
78.3981752763
 10
-73.1709075592
 20
78.4101901174
 10
-73.1728348648
 20
78.4220992643
 10
-73.172642639
 20
78.4338179267
 10
-73.1724385301
 20
78.4354976647
  0
LWPOLYLINE
  5
47E
100
AcDbEntity
  8
ASSI
100
AcDbPolyline
 62
250
  6
CONTINUOUS
 90
12
 70
0
 10
-73.08390778
 20
78.3182391864
 10
-73.1010767626
 20
78.3286330531
 10
-73.116637114
 20
78.3395018922
 10
-73.1304780483
 20
78.3507683201
 10
-73.1425010213
 20
78.3623521227
 10
-73.1526204325
 20
78.374170826
 10
-73.160764234
 20
78.3861402837
 10
-73.166874444
 20
78.3981752763
 10
-73.1709075592
 20
78.4101901174
 10
-73.1728348648
 20
78.4220992643
 10
-73.172642639
 20
78.4338179267
 10
-73.1724385301
 20
78.4354976647
  0
LWPOLYLINE
  5
47F
100
AcDbEntity
  8
0
100
AcDbPolyline
 62
250
  6
CONTINUOUS
 90
16
 70
0
 10
37.3402497548
 20
-37.5379676305
 10
37.3436281244
 20
-37.5487937462
 10
37.3458061119
 20
-37.5597595559
 10
37.3467574561
 20
-37.5707312198
 10
37.3464674072
 20
-37.5817086401
 10
37.3449507149
 20
-37.5926919147
 10
37.3422253672
 20
-37.6035474971
 10
37.3382745362
 20
-37.6142758039
 10
37.3331150499
 20
-37.6248764186
 10
37.3268153799
 20
-37.635214545
 10
37.3193613422
 20
-37.6452850054
 10
37.3107671209
 20
-37.6550929775
 10
37.301143739
 20
-37.6645191984
 10
37.2905282044
 20
-37.6735239137
 10
37.2788835094
 20
-37.6821468778
 10
37.2662096538
 20
-37.6903880907
  0
LWPOLYLINE
  5
480
100
AcDbEntity
  8
ASSI
100
AcDbPolyline
 62
250
  6
CONTINUOUS
 90
16
 70
0
 10
37.3402497548
 20
-37.5379676305
 10
37.3436281244
 20
-37.5487937462
 10
37.3458061119
 20
-37.5597595559
 10
37.3467574561
 20
-37.5707312198
 10
37.3464674072
 20
-37.5817086401
 10
37.3449507149
 20
-37.5926919147
 10
37.3422253672
 20
-37.6035474971
 10
37.3382745362
 20
-37.6142758039
 10
37.3331150499
 20
-37.6248764186
 10
37.3268153799
 20
-37.635214545
 10
37.3193613422
 20
-37.6452850054
 10
37.3107671209
 20
-37.6550929775
 10
37.301143739
 20
-37.6645191984
 10
37.2905282044
 20
-37.6735239137
 10
37.2788835094
 20
-37.6821468778
 10
37.2662096538
 20
-37.6903880907
  0
LWPOLYLINE
  5
481
100
AcDbEntity
  8
0
100
AcDbPolyline
 62
7
  6
CONTINUOUS
 90
14
 70
0
 10
37.5455671722
 20
-37.7377327514
 10
37.5443894994
 20
-37.7112044098
 10
37.5408391339
 20
-37.6847296959
 10
37.5348878472
 20
-37.6584058799
 10
37.5265248383
 20
-37.6323977738
 10
37.515781351
 20
-37.606920377
 10
37.5027226069
 20
-37.5821862986
 10
37.4874137093
 20
-37.5583462007
 10
37.4699242124
 20
-37.5355126368
 10
37.4503176306
 20
-37.5137760024
 10
37.4286619394
 20
-37.493228752
 10
37.4049952809
 20
-37.4739230917
 10
37.3792725558
 20
-37.4558607729
 10
37.3577137683
 20
-37.4426399374
  0
LWPOLYLINE
  5
482
100
AcDbEntity
  8
ASSI
100
AcDbPolyline
 62
7
  6
CONTINUOUS
 90
14
 70
0
 10
37.5455671722
 20
-37.7377327514
 10
37.5443894994
 20
-37.7112044098
 10
37.5408391339
 20
-37.6847296959
 10
37.5348878472
 20
-37.6584058799
 10
37.5265248383
 20
-37.6323977738
 10
37.515781351
 20
-37.606920377
 10
37.5027226069
 20
-37.5821862986
 10
37.4874137093
 20
-37.5583462007
 10
37.4699242124
 20
-37.5355126368
 10
37.4503176306
 20
-37.5137760024
 10
37.4286619394
 20
-37.493228752
 10
37.4049952809
 20
-37.4739230917
 10
37.3792725558
 20
-37.4558607729
 10
37.3577137683
 20
-37.4426399374
  0
LWPOLYLINE
  5
483
100
AcDbEntity
  8
0
100
AcDbPolyline
 62
250
  6
CONTINUOUS
 90
19
 70
0
 10
37.4112462757
 20
-37.933143954
 10
37.4107935451
 20
-37.9185514785
 10
37.4092314814
 20
-37.9034708731
 10
37.4065719682
 20
-37.8880168659
 10
37.4028352382
 20
-37.8723070257
 10
37.3980497191
 20
-37.8564608675
 10
37.3922518175
 20
-37.8405989434
 10
37.385485642
 20
-37.8248419254
 10
37.3778026671
 20
-37.8093096875
 10
37.3692613424
 20
-37.7941203936
 10
37.3599266472
 20
-37.7793895986
 10
37.3498695968
 20
-37.7652293693
 10
37.3391667017
 20
-37.7517474318
 10
37.3278993857
 20
-37.7390463521
 10
37.3161533669
 20
-37.7272227556
 10
37.3040180048
 20
-37.7163665921
 10
37.291585621
 20
-37.7065604516
 10
37.2789507969
 20
-37.6978789358
 10
37.2662096538
 20
-37.6903880907
  0
LWPOLYLINE
  5
484
100
AcDbEntity
  8
ASSI
100
AcDbPolyline
 62
250
  6
CONTINUOUS
 90
19
 70
0
 10
37.4112462757
 20
-37.933143954
 10
37.4107935451
 20
-37.9185514785
 10
37.4092314814
 20
-37.9034708731
 10
37.4065719682
 20
-37.8880168659
 10
37.4028352382
 20
-37.8723070257
 10
37.3980497191
 20
-37.8564608675
 10
37.3922518175
 20
-37.8405989434
 10
37.385485642
 20
-37.8248419254
 10
37.3778026671
 20
-37.8093096875
 10
37.3692613424
 20
-37.7941203936
 10
37.3599266472
 20
-37.7793895986
 10
37.3498695968
 20
-37.7652293693
 10
37.3391667017
 20
-37.7517474318
 10
37.3278993857
 20
-37.7390463521
 10
37.3161533669
 20
-37.7272227556
 10
37.3040180048
 20
-37.7163665921
 10
37.291585621
 20
-37.7065604516
 10
37.2789507969
 20
-37.6978789358
 10
37.2662096538
 20
-37.6903880907
  0
LINE
  5
485
100
AcDbEntity
  8
0
100
AcDbLine
 62
250
  6
CONTINUOUS
 10
37.4112462757
 20
-37.933143954
 11
37.4112462757
 21
-38.5220127801
  0
LINE
  5
486
100
AcDbEntity
  8
ASSI
100
AcDbLine
 62
250
  6
CONTINUOUS
 10
37.4112462757
 20
-37.933143954
 11
37.4112462757
 21
-38.5220127801
  0
LINE
  5
487
100
AcDbEntity
  8
0
100
AcDbLine
 62
7
  6
CONTINUOUS
 10
37.5455694249
 20
-37.737690008
 11
37.5455694249
 21
-38.3193831393
  0
LINE
  5
488
100
AcDbEntity
  8
ASSI
100
AcDbLine
 62
7
  6
CONTINUOUS
 10
37.5455694249
 20
-37.737690008
 11
37.5455694249
 21
-38.3193831393
  0
LWPOLYLINE
  5
489
100
AcDbEntity
  8
0
100
AcDbPolyline
 62
250
  6
CONTINUOUS
 90
10
 70
0
 10
37.4112462757
 20
-38.5220127801
 10
37.4111048403
 20
-38.5356694819
 10
37.4098529797
 20
-38.5486239424
 10
37.407500209
 20
-38.5607777232
 10
37.404064408
 20
-38.5720384714
 10
37.3995716874
 20
-38.5823206182
 10
37.3940561905
 20
-38.5915460299
 10
37.3875598317
 20
-38.5996446065
 10
37.3801319786
 20
-38.6065548114
 10
37.3752904689
 20
-38.6100824123
  0
LWPOLYLINE
  5
48A
100
AcDbEntity
  8
ASSI
100
AcDbPolyline
 62
250
  6
CONTINUOUS
 90
10
 70
0
 10
37.4112462757
 20
-38.5220127801
 10
37.4111048403
 20
-38.5356694819
 10
37.4098529797
 20
-38.5486239424
 10
37.407500209
 20
-38.5607777232
 10
37.404064408
 20
-38.5720384714
 10
37.3995716874
 20
-38.5823206182
 10
37.3940561905
 20
-38.5915460299
 10
37.3875598317
 20
-38.5996446065
 10
37.3801319786
 20
-38.6065548114
 10
37.3752904689
 20
-38.6100824123
  0
LWPOLYLINE
  5
48B
100
AcDbEntity
  8
0
100
AcDbPolyline
 62
250
  6
CONTINUOUS
 90
13
 70
0
 10
37.5455694225
 20
-37.7377204872
 10
37.5450235882
 20
-37.7511059243
 10
37.5425053451
 20
-37.7694274354
 10
37.5379498408
 20
-37.7876141819
 10
37.5313737779
 20
-37.8055948804
 10
37.5228045363
 20
-37.8232914293
 10
37.5122835919
 20
-37.8406222051
 10
37.4998609939
 20
-37.8575113781
 10
37.4855877288
 20
-37.8738952145
 10
37.4695199747
 20
-37.8897132437
 10
37.4517227283
 20
-37.9049027118
 10
37.4322713269
 20
-37.9193993627
 10
37.4112462757
 20
-37.933143954
  0
LWPOLYLINE
  5
48C
100
AcDbEntity
  8
ASSI
100
AcDbPolyline
 62
250
  6
CONTINUOUS
 90
13
 70
0
 10
37.5455694225
 20
-37.7377204872
 10
37.5450235882
 20
-37.7511059243
 10
37.5425053451
 20
-37.7694274354
 10
37.5379498408
 20
-37.7876141819
 10
37.5313737779
 20
-37.8055948804
 10
37.5228045363
 20
-37.8232914293
 10
37.5122835919
 20
-37.8406222051
 10
37.4998609939
 20
-37.8575113781
 10
37.4855877288
 20
-37.8738952145
 10
37.4695199747
 20
-37.8897132437
 10
37.4517227283
 20
-37.9049027118
 10
37.4322713269
 20
-37.9193993627
 10
37.4112462757
 20
-37.933143954
  0
LWPOLYLINE
  5
48D
100
AcDbEntity
  8
RACCORDO
100
AcDbPolyline
 62
250
  6
CONTINUOUS
 90
13
 70
0
 10
77.1750611699
 20
-4.7845979165
 10
77.2304976937
 20
-4.7558936579
 10
77.2838489684
 20
-4.7285775147
 10
77.3350498272
 20
-4.7027218867
 10
77.383982863
 20
-4.6784646657
 10
77.4306325992
 20
-4.6557998782
 10
77.475068185
 20
-4.6346300898
 10
77.51723377
 20
-4.6150909935
 10
77.5570005447
 20
-4.5972802233
 10
77.5942881888
 20
-4.5811385199
 10
77.6289773522
 20
-4.5667778821
 10
77.6609301555
 20
-4.5544272385
 10
77.6900104809
 20
-4.5442512959
  0
LWPOLYLINE
  5
48E
100
AcDbEntity
  8
ASSI
100
AcDbPolyline
 62
250
  6
CONTINUOUS
 90
13
 70
0
 10
77.1750611699
 20
-4.7845979165
 10
77.2304976937
 20
-4.7558936579
 10
77.2838489684
 20
-4.7285775147
 10
77.3350498272
 20
-4.7027218867
 10
77.383982863
 20
-4.6784646657
 10
77.4306325992
 20
-4.6557998782
 10
77.475068185
 20
-4.6346300898
 10
77.51723377
 20
-4.6150909935
 10
77.5570005447
 20
-4.5972802233
 10
77.5942881888
 20
-4.5811385199
 10
77.6289773522
 20
-4.5667778821
 10
77.6609301555
 20
-4.5544272385
 10
77.6900104809
 20
-4.5442512959
  0
LWPOLYLINE
  5
48F
100
AcDbEntity
  8
RACCORDO
100
AcDbPolyline
 62
250
  6
CONTINUOUS
 90
10
 70
0
 10
55.1480745496
 20
-15.0701614919
 10
55.1279704739
 20
-15.0767322738
 10
55.1098424532
 20
-15.0822976558
 10
55.093786472
 20
-15.0868281701
 10
55.079887544
 20
-15.0902998287
 10
55.0682192614
 20
-15.0926942495
 10
55.0588434059
 20
-15.0939987546
 10
55.0518096209
 20
-15.0942064369
 10
55.047155149
 20
-15.0933161967
 10
55.0449380609
 20
-15.0914103785
  0
LWPOLYLINE
  5
490
100
AcDbEntity
  8
ASSI
100
AcDbPolyline
 62
250
  6
CONTINUOUS
 90
10
 70
0
 10
55.1480745496
 20
-15.0701614919
 10
55.1279704739
 20
-15.0767322738
 10
55.1098424532
 20
-15.0822976558
 10
55.093786472
 20
-15.0868281701
 10
55.079887544
 20
-15.0902998287
 10
55.0682192614
 20
-15.0926942495
 10
55.0588434059
 20
-15.0939987546
 10
55.0518096209
 20
-15.0942064369
 10
55.047155149
 20
-15.0933161967
 10
55.0449380609
 20
-15.0914103785
  0
LWPOLYLINE
  5
491
100
AcDbEntity
  8
RACCORDO
100
AcDbPolyline
 62
250
  6
CONTINUOUS
 90
16
 70
0
 10
-72.3056830191
 20
78.9797089312
 10
-72.3471900024
 20
79.0013817582
 10
-72.3888189398
 20
79.0200846704
 10
-72.4304286089
 20
79.0357561877
 10
-72.4718697814
 20
79.048340844
 10
-72.5130136964
 20
79.0578001089
 10
-72.5537507211
 20
79.0641056502
 10
-72.5939638837
 20
79.0672253184
 10
-72.6335003439
 20
79.067138134
 10
-72.6722002498
 20
79.0638445407
 10
-72.7099334597
 20
79.0573464219
 10
-72.7465845883
 20
79.0476587814
 10
-72.7820222737
 20
79.034817723
 10
-72.8161381953
 20
79.0188500564
 10
-72.8488198013
 20
78.9997982111
 10
-72.8635650342
 20
78.9898558029
  0
LWPOLYLINE
  5
492
100
AcDbEntity
  8
ASSI
100
AcDbPolyline
 62
250
  6
CONTINUOUS
 90
16
 70
0
 10
-72.3056830191
 20
78.9797089312
 10
-72.3471900024
 20
79.0013817582
 10
-72.3888189398
 20
79.0200846704
 10
-72.4304286089
 20
79.0357561877
 10
-72.4718697814
 20
79.048340844
 10
-72.5130136964
 20
79.0578001089
 10
-72.5537507211
 20
79.0641056502
 10
-72.5939638837
 20
79.0672253184
 10
-72.6335003439
 20
79.067138134
 10
-72.6722002498
 20
79.0638445407
 10
-72.7099334597
 20
79.0573464219
 10
-72.7465845883
 20
79.0476587814
 10
-72.7820222737
 20
79.034817723
 10
-72.8161381953
 20
79.0188500564
 10
-72.8488198013
 20
78.9997982111
 10
-72.8635650342
 20
78.9898558029
  0
LWPOLYLINE
  5
493
100
AcDbEntity
  8
RACCORDO
100
AcDbPolyline
 62
250
  6
CONTINUOUS
 90
28
 70
0
 10
-72.5031875255
 20
78.6655367369
 10
-72.5319967727
 20
78.6810111135
 10
-72.5608231528
 20
78.6942526899
 10
-72.5896665605
 20
78.7052615042
 10
-72.6186205245
 20
78.7140635994
 10
-72.6475910956
 20
78.7206330859
 10
-72.67629686
 20
78.7248921365
 10
-72.7047421392
 20
78.7268181338
 10
-72.7329218115
 20
78.7264339871
 10
-72.7605402509
 20
78.7237301773
 10
-72.7875856377
 20
78.7186836393
 10
-72.8140687064
 20
78.7113178347
 10
-72.8397276828
 20
78.7016930281
 10
-72.8645564052
 20
78.6897879756
 10
-72.8885597826
 20
78.6756243799
 10
-72.9114927483
 20
78.6593268879
 10
-72.9333462391
 20
78.6408737227
 10
-72.9541280419
 20
78.6202871303
 10
-72.9736185622
 20
78.5977577199
 10
-72.9918059761
 20
78.5732626983
 10
-73.0087009595
 20
78.5468252825
 10
-73.0241179625
 20
78.5187049902
 10
-73.0380424968
 20
78.4888746943
 10
-73.0504881781
 20
78.4573618461
 10
-73.061312008
 20
78.424507686
 10
-73.0704662717
 20
78.39042598
 10
-73.0779982874
 20
78.3550031122
 10
-73.083907828
 20
78.3182391687
  0
LWPOLYLINE
  5
494
100
AcDbEntity
  8
ASSI
100
AcDbPolyline
 62
250
  6
CONTINUOUS
 90
28
 70
0
 10
-72.5031875255
 20
78.6655367369
 10
-72.5319967727
 20
78.6810111135
 10
-72.5608231528
 20
78.6942526899
 10
-72.5896665605
 20
78.7052615042
 10
-72.6186205245
 20
78.7140635994
 10
-72.6475910956
 20
78.7206330859
 10
-72.67629686
 20
78.7248921365
 10
-72.7047421392
 20
78.7268181338
 10
-72.7329218115
 20
78.7264339871
 10
-72.7605402509
 20
78.7237301773
 10
-72.7875856377
 20
78.7186836393
 10
-72.8140687064
 20
78.7113178347
 10
-72.8397276828
 20
78.7016930281
 10
-72.8645564052
 20
78.6897879756
 10
-72.8885597826
 20
78.6756243799
 10
-72.9114927483
 20
78.6593268879
 10
-72.9333462391
 20
78.6408737227
 10
-72.9541280419
 20
78.6202871303
 10
-72.9736185622
 20
78.5977577199
 10
-72.9918059761
 20
78.5732626983
 10
-73.0087009595
 20
78.5468252825
 10
-73.0241179625
 20
78.5187049902
 10
-73.0380424968
 20
78.4888746943
 10
-73.0504881781
 20
78.4573618461
 10
-73.061312008
 20
78.424507686
 10
-73.0704662717
 20
78.39042598
 10
-73.0779982874
 20
78.3550031122
 10
-73.083907828
 20
78.3182391687
  0
LINE
  5
495
100
AcDbEntity
  8
RACCORDO
100
AcDbLine
 62
250
  6
CONTINUOUS
 10
74.4027376342
 20
-6.1561032867
 11
-72.5031875255
 21
78.6655367369
  0
LINE
  5
496
100
AcDbEntity
  8
ASSI
100
AcDbLine
 62
250
  6
CONTINUOUS
 10
74.4027376342
 20
-6.1561032867
 11
-72.5031875255
 21
78.6655367369
  0
LINE
  5
497
100
AcDbEntity
  8
RACCORDO
100
AcDbLine
 62
250
  6
CONTINUOUS
 10
74.6002421406
 20
-5.8419310924
 11
-72.3056830191
 21
78.9797089312
  0
LINE
  5
498
100
AcDbEntity
  8
ASSI
100
AcDbLine
 62
250
  6
CONTINUOUS
 10
74.6002421406
 20
-5.8419310924
 11
-72.3056830191
 21
78.9797089312
  0
LINE
  5
499
100
AcDbEntity
  8
RACCORDO
100
AcDbLine
 62
7
  6
CONTINUOUS
 10
-70.7306039432
 20
80.0903190097
 11
76.3495446741
 21
-4.8319154547
  0
LINE
  5
49A
100
AcDbEntity
  8
ASSI
100
AcDbLine
 62
7
  6
CONTINUOUS
 10
-70.7306039432
 20
80.0903190097
 11
76.3495446741
 21
-4.8319154547
  0
LINE
  5
49B
100
AcDbEntity
  8
RACCORDO
100
AcDbLine
 62
7
  6
CONTINUOUS
 10
-68.1112718621
 20
79.6395817903
 11
77.6900106679
 21
-4.544251435
  0
LINE
  5
49C
100
AcDbEntity
  8
ASSI
100
AcDbLine
 62
7
  6
CONTINUOUS
 10
-68.1112718621
 20
79.6395817903
 11
77.6900106679
 21
-4.544251435
  0
LWPOLYLINE
  5
49D
100
AcDbEntity
  8
RACCORDO
100
AcDbPolyline
 62
7
  6
CONTINUOUS
 90
22
 70
0
 10
77.6900106679
 20
-4.544251435
 10
77.7144511156
 20
-4.5594708197
 10
77.737801686
 20
-4.575661138
 10
77.7600623791
 20
-4.5928223899
 10
77.7812000445
 20
-4.6109922433
 10
77.8012478326
 20
-4.6301330302
 10
77.8203051947
 20
-4.650131747
 10
77.8383698001
 20
-4.6708952894
 10
77.8554439796
 20
-4.6925167617
 10
77.8716341763
 20
-4.7151624733
 10
77.8870698985
 20
-4.7389785956
 10
77.9016216379
 20
-4.7638189571
 10
77.9150073127
 20
-4.789411353
 10
77.9272173232
 20
-4.8158425246
 10
77.9382612691
 20
-4.8430257306
 10
77.9478858672
 20
-4.8704285414
 10
77.956021482
 20
-4.8978979693
 10
77.962737749
 20
-4.9255870019
 10
77.9679902915
 20
-4.9534221729
 10
77.9717643174
 20
-4.9813789932
 10
77.9740746189
 20
-5.0094819518
 10
77.9749211959
 20
-5.0377310487
  0
LWPOLYLINE
  5
49E
100
AcDbEntity
  8
ASSI
100
AcDbPolyline
 62
7
  6
CONTINUOUS
 90
22
 70
0
 10
77.6900106679
 20
-4.544251435
 10
77.7144511156
 20
-4.5594708197
 10
77.737801686
 20
-4.575661138
 10
77.7600623791
 20
-4.5928223899
 10
77.7812000445
 20
-4.6109922433
 10
77.8012478326
 20
-4.6301330302
 10
77.8203051947
 20
-4.650131747
 10
77.8383698001
 20
-4.6708952894
 10
77.8554439796
 20
-4.6925167617
 10
77.8716341763
 20
-4.7151624733
 10
77.8870698985
 20
-4.7389785956
 10
77.9016216379
 20
-4.7638189571
 10
77.9150073127
 20
-4.789411353
 10
77.9272173232
 20
-4.8158425246
 10
77.9382612691
 20
-4.8430257306
 10
77.9478858672
 20
-4.8704285414
 10
77.956021482
 20
-4.8978979693
 10
77.962737749
 20
-4.9255870019
 10
77.9679902915
 20
-4.9534221729
 10
77.9717643174
 20
-4.9813789932
 10
77.9740746189
 20
-5.0094819518
 10
77.9749211959
 20
-5.0377310487
  0
LWPOLYLINE
  5
49F
100
AcDbEntity
  8
0
100
AcDbPolyline
 62
250
  6
CONTINUOUS
 90
16
 70
0
 10
53.2501523315
 20
-47.0507340911
 10
53.2535307011
 20
-47.0615602067
 10
53.2557086886
 20
-47.0725260164
 10
53.2566600328
 20
-47.0834976804
 10
53.2563699839
 20
-47.0944751007
 10
53.2548532916
 20
-47.1054583753
 10
53.2521279439
 20
-47.1163139577
 10
53.2481771129
 20
-47.1270422645
 10
53.2430176266
 20
-47.1376428792
 10
53.2367179566
 20
-47.1479810056
 10
53.2292639189
 20
-47.158051466
 10
53.2206696976
 20
-47.1678594381
 10
53.2110463157
 20
-47.177285659
 10
53.2004307811
 20
-47.1862903743
 10
53.1887860861
 20
-47.1949133384
 10
53.1761122305
 20
-47.2031545513
  0
LWPOLYLINE
  5
4A0
100
AcDbEntity
  8
ASSI
100
AcDbPolyline
 62
250
  6
CONTINUOUS
 90
16
 70
0
 10
53.2501523315
 20
-47.0507340911
 10
53.2535307011
 20
-47.0615602067
 10
53.2557086886
 20
-47.0725260164
 10
53.2566600328
 20
-47.0834976804
 10
53.2563699839
 20
-47.0944751007
 10
53.2548532916
 20
-47.1054583753
 10
53.2521279439
 20
-47.1163139577
 10
53.2481771129
 20
-47.1270422645
 10
53.2430176266
 20
-47.1376428792
 10
53.2367179566
 20
-47.1479810056
 10
53.2292639189
 20
-47.158051466
 10
53.2206696976
 20
-47.1678594381
 10
53.2110463157
 20
-47.177285659
 10
53.2004307811
 20
-47.1862903743
 10
53.1887860861
 20
-47.1949133384
 10
53.1761122305
 20
-47.2031545513
  0
LWPOLYLINE
  5
4A1
100
AcDbEntity
  8
RACCORDO
100
AcDbPolyline
 62
250
  6
CONTINUOUS
 90
4
 70
0
 10
55.1796588868
 20
-51.4145553657
 10
55.1734960905
 20
-51.3931113277
 10
55.1699212461
 20
-51.3713865013
 10
55.1690858633
 20
-51.3598723067
  0
LWPOLYLINE
  5
4A2
100
AcDbEntity
  8
ASSI
100
AcDbPolyline
 62
250
  6
CONTINUOUS
 90
4
 70
0
 10
55.1796588868
 20
-51.4145553657
 10
55.1734960905
 20
-51.3931113277
 10
55.1699212461
 20
-51.3713865013
 10
55.1690858633
 20
-51.3598723067
  0
LWPOLYLINE
  5
4A3
100
AcDbEntity
  8
RACCORDO
100
AcDbPolyline
 62
250
  6
CONTINUOUS
 90
13
 70
0
 10
77.5093632034
 20
-5.3636260231
 10
77.5619356527
 20
-5.3299610504
 10
77.6122631978
 20
-5.297407675
 10
77.6602505568
 20
-5.2659861351
 10
77.7057196184
 20
-5.235729195
 10
77.7486678107
 20
-5.206653217
 10
77.7892140641
 20
-5.1787469438
 10
77.8272129435
 20
-5.151990878
 10
77.8625154873
 20
-5.1264477777
 10
77.8951328184
 20
-5.1022168043
 10
77.9249082567
 20
-5.0793453108
 10
77.9515746193
 20
-5.057838253
 10
77.974921209
 20
-5.0377311624
  0
LWPOLYLINE
  5
4A4
100
AcDbEntity
  8
ASSI
100
AcDbPolyline
 62
250
  6
CONTINUOUS
 90
13
 70
0
 10
77.5093632034
 20
-5.3636260231
 10
77.5619356527
 20
-5.3299610504
 10
77.6122631978
 20
-5.297407675
 10
77.6602505568
 20
-5.2659861351
 10
77.7057196184
 20
-5.235729195
 10
77.7486678107
 20
-5.206653217
 10
77.7892140641
 20
-5.1787469438
 10
77.8272129435
 20
-5.151990878
 10
77.8625154873
 20
-5.1264477777
 10
77.8951328184
 20
-5.1022168043
 10
77.9249082567
 20
-5.0793453108
 10
77.9515746193
 20
-5.057838253
 10
77.974921209
 20
-5.0377311624
  0
LWPOLYLINE
  5
4A5
100
AcDbEntity
  8
RACCORDO
100
AcDbPolyline
 62
250
  6
CONTINUOUS
 90
3
 70
0
 10
77.3948791662
 20
-5.4357103681
 10
77.4532251139
 20
-5.3991893165
 10
77.5093632034
 20
-5.3636260231
  0
LWPOLYLINE
  5
4A6
100
AcDbEntity
  8
ASSI
100
AcDbPolyline
 62
250
  6
CONTINUOUS
 90
3
 70
0
 10
77.3948791662
 20
-5.4357103681
 10
77.4532251139
 20
-5.3991893165
 10
77.5093632034
 20
-5.3636260231
  0
LINE
  5
4A7
100
AcDbEntity
  8
RACCORDO
100
AcDbLine
 62
250
  6
CONTINUOUS
 10
77.2719790369
 20
-5.5115672788
 11
77.3948791662
 21
-5.4357103681
  0
LINE
  5
4A8
100
AcDbEntity
  8
ASSI
100
AcDbLine
 62
250
  6
CONTINUOUS
 10
77.2719790369
 20
-5.5115672788
 11
77.3948791662
 21
-5.4357103681
  0
LINE
  5
4A9
100
AcDbEntity
  8
RACCORDO
100
AcDbLine
 62
250
  6
CONTINUOUS
 10
77.1412979223
 20
-5.5910562735
 11
77.2719790369
 21
-5.5115672788
  0
LINE
  5
4AA
100
AcDbEntity
  8
ASSI
100
AcDbLine
 62
250
  6
CONTINUOUS
 10
77.1412979223
 20
-5.5910562735
 11
77.2719790369
 21
-5.5115672788
  0
LWPOLYLINE
  5
4AB
100
AcDbEntity
  8
RACCORDO
100
AcDbPolyline
 62
250
  6
CONTINUOUS
 90
3
 70
0
 10
76.9920593156
 20
-5.6805132945
 10
77.0033246012
 20
-5.6738127235
 10
77.1412979223
 20
-5.5910562735
  0
LWPOLYLINE
  5
4AC
100
AcDbEntity
  8
ASSI
100
AcDbPolyline
 62
250
  6
CONTINUOUS
 90
3
 70
0
 10
76.9920593156
 20
-5.6805132945
 10
77.0033246012
 20
-5.6738127235
 10
77.1412979223
 20
-5.5910562735
  0
LINE
  5
4AD
100
AcDbEntity
  8
RACCORDO
100
AcDbLine
 62
250
  6
CONTINUOUS
 10
74.6002421406
 20
-5.8419310924
 11
76.3495446741
 21
-4.8319154547
  0
LINE
  5
4AE
100
AcDbEntity
  8
ASSI
100
AcDbLine
 62
250
  6
CONTINUOUS
 10
74.6002421406
 20
-5.8419310924
 11
76.3495446741
 21
-4.8319154547
  0
LINE
  5
4AF
100
AcDbEntity
  8
RACCORDO
100
AcDbLine
 62
250
  6
CONTINUOUS
 10
75.2105778629
 20
-7.1203118303
 11
77.05568239
 21
-6.0549818546
  0
LINE
  5
4B0
100
AcDbEntity
  8
ASSI
100
AcDbLine
 62
250
  6
CONTINUOUS
 10
75.2105778629
 20
-7.1203118303
 11
77.05568239
 21
-6.0549818546
  0
LINE
  5
4B1
100
AcDbEntity
  8
RACCORDO
100
AcDbLine
 62
250
  6
CONTINUOUS
 10
76.6419973614
 20
-5.0742143579
 11
76.7245823985
 21
-5.0281776156
  0
LINE
  5
4B2
100
AcDbEntity
  8
ASSI
100
AcDbLine
 62
250
  6
CONTINUOUS
 10
76.6419973614
 20
-5.0742143579
 11
76.7245823985
 21
-5.0281776156
  0
LINE
  5
4B3
100
AcDbEntity
  8
RACCORDO
100
AcDbLine
 62
250
  6
CONTINUOUS
 10
76.7245823985
 20
-5.0281776156
 11
76.862044856
 21
-4.9523306376
  0
LINE
  5
4B4
100
AcDbEntity
  8
ASSI
100
AcDbLine
 62
250
  6
CONTINUOUS
 10
76.7245823985
 20
-5.0281776156
 11
76.862044856
 21
-4.9523306376
  0
LWPOLYLINE
  5
4B5
100
AcDbEntity
  8
RACCORDO
100
AcDbPolyline
 62
250
  6
CONTINUOUS
 90
5
 70
0
 10
76.862044856
 20
-4.9523306376
 10
76.9927327639
 20
-4.8813524873
 10
77.0554009184
 20
-4.8477168344
 10
77.1161977921
 20
-4.8154408984
 10
77.1750611699
 20
-4.7845979165
  0
LWPOLYLINE
  5
4B6
100
AcDbEntity
  8
ASSI
100
AcDbPolyline
 62
250
  6
CONTINUOUS
 90
5
 70
0
 10
76.862044856
 20
-4.9523306376
 10
76.9927327639
 20
-4.8813524873
 10
77.0554009184
 20
-4.8477168344
 10
77.1161977921
 20
-4.8154408984
 10
77.1750611699
 20
-4.7845979165
  0
LINE
  5
4B7
100
AcDbEntity
  8
0
100
AcDbLine
 62
7
  6
CONTINUOUS
 10
34.0119162466
 20
-37.1315414726
 11
35.1675960045
 21
-36.5205498354
  0
LINE
  5
4B8
100
AcDbEntity
  8
ASSI
100
AcDbLine
 62
7
  6
CONTINUOUS
 10
34.0119162466
 20
-37.1315414726
 11
35.1675960045
 21
-36.5205498354
  0
LINE
  5
4B9
100
AcDbEntity
  8
0
100
AcDbLine
 62
250
  6
CONTINUOUS
 10
34.0687685404
 20
-37.1643672746
 11
35.2623074167
 21
-36.5333600538
  0
LINE
  5
4BA
100
AcDbEntity
  8
ASSI
100
AcDbLine
 62
250
  6
CONTINUOUS
 10
34.0687685404
 20
-37.1643672746
 11
35.2623074167
 21
-36.5333600538
  0
LINE
  5
4BB
100
AcDbEntity
  8
0
100
AcDbLine
 62
7
  6
CONTINUOUS
 10
35.1855627467
 20
-36.511505617
 11
35.1675727524
 21
-36.5205647181
  0
LINE
  5
4BC
100
AcDbEntity
  8
ASSI
100
AcDbLine
 62
7
  6
CONTINUOUS
 10
35.1855627467
 20
-36.511505617
 11
35.1675727524
 21
-36.5205647181
  0
LWPOLYLINE
  5
4BD
100
AcDbEntity
  8
0
100
AcDbPolyline
 62
250
  6
CONTINUOUS
 90
25
 70
0
 10
35.2623074167
 20
-36.5333600538
 10
35.2768179082
 20
-36.5261792916
 10
35.2919863301
 20
-36.5195908833
 10
35.3078126823
 20
-36.5135948287
 10
35.3243667488
 20
-36.5081702982
 10
35.3415787457
 20
-36.5033381214
 10
35.3592393215
 20
-36.4991607881
 10
35.3773573979
 20
-36.4956464616
 10
35.3959240533
 20
-36.4927869785
 10
35.4147031709
 20
-36.4906203387
 10
35.4336938746
 20
-36.489156169
 10
35.4528970406
 20
-36.4883848425
 10
35.4720791802
 20
-36.4883154785
 10
35.4912403346
 20
-36.4889565191
 10
35.5103804625
 20
-36.4902995221
 10
35.5292659524
 20
-36.4923282798
 10
35.5478947553
 20
-36.4950516647
 10
35.56626892
 20
-36.4984608044
 10
35.5841609814
 20
-36.5025128739
 10
35.6015653137
 20
-36.5072164942
 10
35.6184875427
 20
-36.5125630444
 10
35.6347170805
 20
-36.5184838371
 10
35.6501837312
 20
-36.5249559765
 10
35.6649576907
 20
-36.5320023583
 10
35.6790389591
 20
-36.5396229826
  0
LWPOLYLINE
  5
4BE
100
AcDbEntity
  8
ASSI
100
AcDbPolyline
 62
250
  6
CONTINUOUS
 90
25
 70
0
 10
35.2623074167
 20
-36.5333600538
 10
35.2768179082
 20
-36.5261792916
 10
35.2919863301
 20
-36.5195908833
 10
35.3078126823
 20
-36.5135948287
 10
35.3243667488
 20
-36.5081702982
 10
35.3415787457
 20
-36.5033381214
 10
35.3592393215
 20
-36.4991607881
 10
35.3773573979
 20
-36.4956464616
 10
35.3959240533
 20
-36.4927869785
 10
35.4147031709
 20
-36.4906203387
 10
35.4336938746
 20
-36.489156169
 10
35.4528970406
 20
-36.4883848425
 10
35.4720791802
 20
-36.4883154785
 10
35.4912403346
 20
-36.4889565191
 10
35.5103804625
 20
-36.4902995221
 10
35.5292659524
 20
-36.4923282798
 10
35.5478947553
 20
-36.4950516647
 10
35.56626892
 20
-36.4984608044
 10
35.5841609814
 20
-36.5025128739
 10
35.6015653137
 20
-36.5072164942
 10
35.6184875427
 20
-36.5125630444
 10
35.6347170805
 20
-36.5184838371
 10
35.6501837312
 20
-36.5249559765
 10
35.6649576907
 20
-36.5320023583
 10
35.6790389591
 20
-36.5396229826
  0
LWPOLYLINE
  5
4BF
100
AcDbEntity
  8
0
100
AcDbPolyline
 62
250
  6
CONTINUOUS
 90
10
 70
0
 10
35.1675960098
 20
-36.5205498326
 10
35.1743572732
 20
-36.5174686569
 10
35.1838623096
 20
-36.514603414
 10
35.193954719
 20
-36.5131285193
 10
35.2045577182
 20
-36.5130551855
 10
35.2155906425
 20
-36.5143839624
 10
35.22696956
 20
-36.5171047344
 10
35.238607905
 20
-36.5211967974
 10
35.2504171369
 20
-36.5266290144
 10
35.2623074167
 20
-36.5333600538
  0
LWPOLYLINE
  5
4C0
100
AcDbEntity
  8
ASSI
100
AcDbPolyline
 62
250
  6
CONTINUOUS
 90
10
 70
0
 10
35.1675960098
 20
-36.5205498326
 10
35.1743572732
 20
-36.5174686569
 10
35.1838623096
 20
-36.514603414
 10
35.193954719
 20
-36.5131285193
 10
35.2045577182
 20
-36.5130551855
 10
35.2155906425
 20
-36.5143839624
 10
35.22696956
 20
-36.5171047344
 10
35.238607905
 20
-36.5211967974
 10
35.2504171369
 20
-36.5266290144
 10
35.2623074167
 20
-36.5333600538
  0
LWPOLYLINE
  5
4C1
100
AcDbEntity
  8
RACCORDO
100
AcDbPolyline
 62
7
  6
CONTINUOUS
 90
11
 70
0
 10
-68.1661034989
 20
79.6663523503
 10
-68.2225280741
 20
79.688185876
 10
-68.3712452048
 20
79.7421736466
 10
-68.518113119
 20
79.7903784392
 10
-68.6629793264
 20
79.8328825765
 10
-68.8056887464
 20
79.8697796892
 10
-68.9460951012
 20
79.9011759048
 10
-69.0840504637
 20
79.9271881944
 10
-69.2194098003
 20
79.9479501633
 10
-69.3520411825
 20
79.9636110321
 10
-69.4818139255
 20
79.9743283012
  0
LWPOLYLINE
  5
4C2
100
AcDbEntity
  8
ASSI
100
AcDbPolyline
 62
7
  6
CONTINUOUS
 90
11
 70
0
 10
-68.1661034989
 20
79.6663523503
 10
-68.2225280741
 20
79.688185876
 10
-68.3712452048
 20
79.7421736466
 10
-68.518113119
 20
79.7903784392
 10
-68.6629793264
 20
79.8328825765
 10
-68.8056887464
 20
79.8697796892
 10
-68.9460951012
 20
79.9011759048
 10
-69.0840504637
 20
79.9271881944
 10
-69.2194098003
 20
79.9479501633
 10
-69.3520411825
 20
79.9636110321
 10
-69.4818139255
 20
79.9743283012
  0
LWPOLYLINE
  5
4C3
100
AcDbEntity
  8
RACCORDO
100
AcDbPolyline
 62
7
  6
CONTINUOUS
 90
4
 70
0
 10
-68.1660989832
 20
79.6663165998
 10
-68.1584971543
 20
79.6632039503
 10
-68.1353137565
 20
79.6524857673
 10
-68.1112718621
 20
79.6395817903
  0
LWPOLYLINE
  5
4C4
100
AcDbEntity
  8
ASSI
100
AcDbPolyline
 62
7
  6
CONTINUOUS
 90
4
 70
0
 10
-68.1660989832
 20
79.6663165998
 10
-68.1584971543
 20
79.6632039503
 10
-68.1353137565
 20
79.6524857673
 10
-68.1112718621
 20
79.6395817903
  0
LINE
  5
4C5
100
AcDbEntity
  8
RACCORDO
100
AcDbLine
 62
250
  6
CONTINUOUS
 10
55.1120268302
 20
-14.9937450781
 11
55.1302685898
 21
-15.0315258676
  0
LINE
  5
4C6
100
AcDbEntity
  8
ASSI
100
AcDbLine
 62
250
  6
CONTINUOUS
 10
55.1120268302
 20
-14.9937450781
 11
55.1302685898
 21
-15.0315258676
  0
LINE
  5
4C7
100
AcDbEntity
  8
RACCORDO
100
AcDbLine
 62
250
  6
CONTINUOUS
 10
55.1302685898
 20
-15.0315258676
 11
55.1480729379
 21
-15.0701623286
  0
LINE
  5
4C8
100
AcDbEntity
  8
ASSI
100
AcDbLine
 62
250
  6
CONTINUOUS
 10
55.1302685898
 20
-15.0315258676
 11
55.1480729379
 21
-15.0701623286
  0
LINE
  5
4C9
100
AcDbEntity
  8
RACCORDO
100
AcDbLine
 62
7
  6
CONTINUOUS
 10
55.0449380609
 20
-15.0914103785
 11
55.0492228296
 21
-15.10105008
  0
LINE
  5
4CA
100
AcDbEntity
  8
ASSI
100
AcDbLine
 62
7
  6
CONTINUOUS
 10
55.0449380609
 20
-15.0914103785
 11
55.0492228296
 21
-15.10105008
  0
LWPOLYLINE
  5
4CB
100
AcDbEntity
  8
RACCORDO
100
AcDbPolyline
 62
250
  6
CONTINUOUS
 90
16
 70
0
 10
55.1480729379
 20
-15.0701623286
 10
55.1705024517
 20
-15.121964103
 10
55.1914653985
 20
-15.1742750657
 10
55.2109621292
 20
-15.227095034
 10
55.2290705121
 20
-15.2806161901
 10
55.2457134444
 20
-15.3346459532
 10
55.2606587116
 20
-15.3886070523
 10
55.2738634494
 20
-15.4424905114
 10
55.2853710644
 20
-15.4963050233
 10
55.2950784824
 20
-15.5494999585
 10
55.3029434327
 20
-15.6020564495
 10
55.3090084484
 20
-15.6539932258
 10
55.3132973567
 20
-15.7048162123
 10
55.3158180124
 20
-15.7543607623
 10
55.3165624744
 20
-15.802791566
 10
55.315530717
 20
-15.8501086359
  0
LWPOLYLINE
  5
4CC
100
AcDbEntity
  8
ASSI
100
AcDbPolyline
 62
250
  6
CONTINUOUS
 90
16
 70
0
 10
55.1480729379
 20
-15.0701623286
 10
55.1705024517
 20
-15.121964103
 10
55.1914653985
 20
-15.1742750657
 10
55.2109621292
 20
-15.227095034
 10
55.2290705121
 20
-15.2806161901
 10
55.2457134444
 20
-15.3346459532
 10
55.2606587116
 20
-15.3886070523
 10
55.2738634494
 20
-15.4424905114
 10
55.2853710644
 20
-15.4963050233
 10
55.2950784824
 20
-15.5494999585
 10
55.3029434327
 20
-15.6020564495
 10
55.3090084484
 20
-15.6539932258
 10
55.3132973567
 20
-15.7048162123
 10
55.3158180124
 20
-15.7543607623
 10
55.3165624744
 20
-15.802791566
 10
55.315530717
 20
-15.8501086359
  0
LWPOLYLINE
  5
4CD
100
AcDbEntity
  8
RACCORDO
100
AcDbPolyline
 62
7
  6
CONTINUOUS
 90
15
 70
0
 10
55.0492228296
 20
-15.10105008
 10
55.0673708898
 20
-15.1438928659
 10
55.0840545531
 20
-15.186670904
 10
55.099246297
 20
-15.2292287646
 10
55.1129288119
 20
-15.2714162518
 10
55.1250946388
 20
-15.313089962
 10
55.1357411232
 20
-15.35409561
 10
55.1448717117
 20
-15.3942634521
 10
55.1525076272
 20
-15.433458044
 10
55.1586768949
 20
-15.4715352528
 10
55.163413371
 20
-15.5083106722
 10
55.1667725326
 20
-15.5436695262
 10
55.1688173842
 20
-15.5774875261
 10
55.1696217419
 20
-15.6095727037
 10
55.1692794371
 20
-15.639802477
  0
LWPOLYLINE
  5
4CE
100
AcDbEntity
  8
ASSI
100
AcDbPolyline
 62
7
  6
CONTINUOUS
 90
15
 70
0
 10
55.0492228296
 20
-15.10105008
 10
55.0673708898
 20
-15.1438928659
 10
55.0840545531
 20
-15.186670904
 10
55.099246297
 20
-15.2292287646
 10
55.1129288119
 20
-15.2714162518
 10
55.1250946388
 20
-15.313089962
 10
55.1357411232
 20
-15.35409561
 10
55.1448717117
 20
-15.3942634521
 10
55.1525076272
 20
-15.433458044
 10
55.1586768949
 20
-15.4715352528
 10
55.163413371
 20
-15.5083106722
 10
55.1667725326
 20
-15.5436695262
 10
55.1688173842
 20
-15.5774875261
 10
55.1696217419
 20
-15.6095727037
 10
55.1692794371
 20
-15.639802477
  0
LWPOLYLINE
  5
4CF
100
AcDbEntity
  8
0
100
AcDbPolyline
 62
7
  6
CONTINUOUS
 90
14
 70
0
 10
53.4554697489
 20
-47.250499212
 10
53.4542920761
 20
-47.2239708704
 10
53.4507417106
 20
-47.1974961565
 10
53.4447904239
 20
-47.1711723405
 10
53.436427415
 20
-47.1451642344
 10
53.4256839277
 20
-47.1196868376
 10
53.4126251836
 20
-47.0949527592
 10
53.397316286
 20
-47.0711126613
 10
53.3798267891
 20
-47.0482790974
 10
53.3602202073
 20
-47.026542463
 10
53.3385645161
 20
-47.0059952126
 10
53.3148978576
 20
-46.9866895523
 10
53.2891751325
 20
-46.9686272335
 10
53.267616345
 20
-46.955406398
  0
LWPOLYLINE
  5
4D0
100
AcDbEntity
  8
ASSI
100
AcDbPolyline
 62
7
  6
CONTINUOUS
 90
14
 70
0
 10
53.4554697489
 20
-47.250499212
 10
53.4542920761
 20
-47.2239708704
 10
53.4507417106
 20
-47.1974961565
 10
53.4447904239
 20
-47.1711723405
 10
53.436427415
 20
-47.1451642344
 10
53.4256839277
 20
-47.1196868376
 10
53.4126251836
 20
-47.0949527592
 10
53.397316286
 20
-47.0711126613
 10
53.3798267891
 20
-47.0482790974
 10
53.3602202073
 20
-47.026542463
 10
53.3385645161
 20
-47.0059952126
 10
53.3148978576
 20
-46.9866895523
 10
53.2891751325
 20
-46.9686272335
 10
53.267616345
 20
-46.955406398
  0
LWPOLYLINE
  5
4D1
100
AcDbEntity
  8
0
100
AcDbPolyline
 62
250
  6
CONTINUOUS
 90
19
 70
0
 10
53.3211488524
 20
-47.4459104146
 10
53.3206961218
 20
-47.431317939
 10
53.3191340581
 20
-47.4162373336
 10
53.3164745449
 20
-47.4007833265
 10
53.3127378149
 20
-47.3850734863
 10
53.3079522958
 20
-47.3692273281
 10
53.3021543942
 20
-47.3533654039
 10
53.2953882187
 20
-47.337608386
 10
53.2877052438
 20
-47.3220761481
 10
53.2791639191
 20
-47.3068868542
 10
53.2698292239
 20
-47.2921560592
 10
53.2597721735
 20
-47.2779958299
 10
53.2490692784
 20
-47.2645138924
 10
53.2378019624
 20
-47.2518128127
 10
53.2260559436
 20
-47.2399892162
 10
53.2139205815
 20
-47.2291330527
 10
53.2014881977
 20
-47.2193269122
 10
53.1888533736
 20
-47.2106453964
 10
53.1761122305
 20
-47.2031545513
  0
LWPOLYLINE
  5
4D2
100
AcDbEntity
  8
ASSI
100
AcDbPolyline
 62
250
  6
CONTINUOUS
 90
19
 70
0
 10
53.3211488524
 20
-47.4459104146
 10
53.3206961218
 20
-47.431317939
 10
53.3191340581
 20
-47.4162373336
 10
53.3164745449
 20
-47.4007833265
 10
53.3127378149
 20
-47.3850734863
 10
53.3079522958
 20
-47.3692273281
 10
53.3021543942
 20
-47.3533654039
 10
53.2953882187
 20
-47.337608386
 10
53.2877052438
 20
-47.3220761481
 10
53.2791639191
 20
-47.3068868542
 10
53.2698292239
 20
-47.2921560592
 10
53.2597721735
 20
-47.2779958299
 10
53.2490692784
 20
-47.2645138924
 10
53.2378019624
 20
-47.2518128127
 10
53.2260559436
 20
-47.2399892162
 10
53.2139205815
 20
-47.2291330527
 10
53.2014881977
 20
-47.2193269122
 10
53.1888533736
 20
-47.2106453964
 10
53.1761122305
 20
-47.2031545513
  0
LWPOLYLINE
  5
4D3
100
AcDbEntity
  8
RACCORDO
100
AcDbPolyline
 62
250
  6
CONTINUOUS
 90
16
 70
0
 10
55.315530717
 20
-51.5631236713
 10
55.3165751778
 20
-51.6067062841
 10
55.3158613167
 20
-51.6494210617
 10
55.3133891855
 20
-51.6912679705
 10
55.3091763971
 20
-51.7324091884
 10
55.3032054772
 20
-51.7726824483
 10
55.2954236904
 20
-51.8116011478
 10
55.2857840731
 20
-51.8491472846
 10
55.2743333855
 20
-51.8853389886
 10
55.2611591619
 20
-51.9197440559
 10
55.2462164592
 20
-51.9523157642
 10
55.2295497032
 20
-51.983101163
 10
55.2113801951
 20
-52.0118088896
 10
55.1917814004
 20
-52.0383420143
 10
55.1706790968
 20
-52.0627979466
 10
55.1480729379
 20
-52.0851769062
  0
LWPOLYLINE
  5
4D4
100
AcDbEntity
  8
ASSI
100
AcDbPolyline
 62
250
  6
CONTINUOUS
 90
16
 70
0
 10
55.315530717
 20
-51.5631236713
 10
55.3165751778
 20
-51.6067062841
 10
55.3158613167
 20
-51.6494210617
 10
55.3133891855
 20
-51.6912679705
 10
55.3091763971
 20
-51.7324091884
 10
55.3032054772
 20
-51.7726824483
 10
55.2954236904
 20
-51.8116011478
 10
55.2857840731
 20
-51.8491472846
 10
55.2743333855
 20
-51.8853389886
 10
55.2611591619
 20
-51.9197440559
 10
55.2462164592
 20
-51.9523157642
 10
55.2295497032
 20
-51.983101163
 10
55.2113801951
 20
-52.0118088896
 10
55.1917814004
 20
-52.0383420143
 10
55.1706790968
 20
-52.0627979466
 10
55.1480729379
 20
-52.0851769062
  0
LWPOLYLINE
  5
4D5
100
AcDbEntity
  8
RACCORDO
100
AcDbPolyline
 62
7
  6
CONTINUOUS
 90
10
 70
0
 10
55.1690858633
 20
-51.3598723067
 10
55.1696343386
 20
-51.3833779286
 10
55.1692578428
 20
-51.4074760135
 10
55.1679974668
 20
-51.4289268595
 10
55.1660487615
 20
-51.4476654428
 10
55.1636079969
 20
-51.4637437298
 10
55.1608710094
 20
-51.4772348914
 10
55.158051228
 20
-51.4881549722
 10
55.1553978355
 20
-51.4964683659
 10
55.1532280697
 20
-51.5020827027
  0
LWPOLYLINE
  5
4D6
100
AcDbEntity
  8
ASSI
100
AcDbPolyline
 62
7
  6
CONTINUOUS
 90
10
 70
0
 10
55.1690858633
 20
-51.3598723067
 10
55.1696343386
 20
-51.3833779286
 10
55.1692578428
 20
-51.4074760135
 10
55.1679974668
 20
-51.4289268595
 10
55.1660487615
 20
-51.4476654428
 10
55.1636079969
 20
-51.4637437298
 10
55.1608710094
 20
-51.4772348914
 10
55.158051228
 20
-51.4881549722
 10
55.1553978355
 20
-51.4964683659
 10
55.1532280697
 20
-51.5020827027
  0
LWPOLYLINE
  5
4D7
100
AcDbEntity
  8
RACCORDO
100
AcDbPolyline
 62
250
  6
CONTINUOUS
 90
22
 70
0
 10
54.4414210293
 20
-52.0640709373
 10
54.4409988222
 20
-52.0337699241
 10
54.4425559491
 20
-52.0023751339
 10
54.4460836905
 20
-51.9700623677
 10
54.4515622923
 20
-51.9370125671
 10
54.458961076
 20
-51.9034108008
 10
54.4682386106
 20
-51.8694452283
 10
54.4793429448
 20
-51.8353060465
 10
54.4922118977
 20
-51.8011844241
 10
54.5067734072
 20
-51.7672714319
 10
54.5229459334
 20
-51.733756972
 10
54.5406389149
 20
-51.7008287152
 10
54.5597532767
 20
-51.6686710495
 10
54.5801819841
 20
-51.637464048
 10
54.6018106427
 20
-51.6073824602
 10
54.6245181386
 20
-51.5785947339
 10
54.648177317
 20
-51.5512620713
 10
54.6726556935
 20
-51.5255375271
 10
54.697816197
 20
-51.5015651506
 10
54.7235179363
 20
-51.47947918
 10
54.7496169895
 20
-51.4594032896
 10
54.7759672101
 20
-51.4414498985
  0
LWPOLYLINE
  5
4D8
100
AcDbEntity
  8
ASSI
100
AcDbPolyline
 62
250
  6
CONTINUOUS
 90
22
 70
0
 10
54.4414210293
 20
-52.0640709373
 10
54.4409988222
 20
-52.0337699241
 10
54.4425559491
 20
-52.0023751339
 10
54.4460836905
 20
-51.9700623677
 10
54.4515622923
 20
-51.9370125671
 10
54.458961076
 20
-51.9034108008
 10
54.4682386106
 20
-51.8694452283
 10
54.4793429448
 20
-51.8353060465
 10
54.4922118977
 20
-51.8011844241
 10
54.5067734072
 20
-51.7672714319
 10
54.5229459334
 20
-51.733756972
 10
54.5406389149
 20
-51.7008287152
 10
54.5597532767
 20
-51.6686710495
 10
54.5801819841
 20
-51.637464048
 10
54.6018106427
 20
-51.6073824602
 10
54.6245181386
 20
-51.5785947339
 10
54.648177317
 20
-51.5512620713
 10
54.6726556935
 20
-51.5255375271
 10
54.697816197
 20
-51.5015651506
 10
54.7235179363
 20
-51.47947918
 10
54.7496169895
 20
-51.4594032896
 10
54.7759672101
 20
-51.4414498985
  0
LINE
  5
4D9
100
AcDbEntity
  8
0
100
AcDbLine
 62
250
  6
CONTINUOUS
 10
53.3211488524
 20
-47.4459104146
 11
53.3211488524
 21
-48.0347792407
  0
LINE
  5
4DA
100
AcDbEntity
  8
ASSI
100
AcDbLine
 62
250
  6
CONTINUOUS
 10
53.3211488524
 20
-47.4459104146
 11
53.3211488524
 21
-48.0347792407
  0
LINE
  5
4DB
100
AcDbEntity
  8
0
100
AcDbLine
 62
7
  6
CONTINUOUS
 10
53.4554720016
 20
-47.2504564686
 11
53.4554720016
 21
-47.8321495999
  0
LINE
  5
4DC
100
AcDbEntity
  8
ASSI
100
AcDbLine
 62
7
  6
CONTINUOUS
 10
53.4554720016
 20
-47.2504564686
 11
53.4554720016
 21
-47.8321495999
  0
LWPOLYLINE
  5
4DD
100
AcDbEntity
  8
0
100
AcDbPolyline
 62
250
  6
CONTINUOUS
 90
10
 70
0
 10
53.3211488524
 20
-48.0347792407
 10
53.3210074169
 20
-48.0484359425
 10
53.3197555564
 20
-48.061390403
 10
53.3174027857
 20
-48.0735441838
 10
53.3139669847
 20
-48.084804932
 10
53.3094742641
 20
-48.0950870788
 10
53.3039587672
 20
-48.1043124904
 10
53.2974624084
 20
-48.1124110671
 10
53.2900345553
 20
-48.119321272
 10
53.2851930456
 20
-48.1228488728
  0
LWPOLYLINE
  5
4DE
100
AcDbEntity
  8
ASSI
100
AcDbPolyline
 62
250
  6
CONTINUOUS
 90
10
 70
0
 10
53.3211488524
 20
-48.0347792407
 10
53.3210074169
 20
-48.0484359425
 10
53.3197555564
 20
-48.061390403
 10
53.3174027857
 20
-48.0735441838
 10
53.3139669847
 20
-48.084804932
 10
53.3094742641
 20
-48.0950870788
 10
53.3039587672
 20
-48.1043124904
 10
53.2974624084
 20
-48.1124110671
 10
53.2900345553
 20
-48.119321272
 10
53.2851930456
 20
-48.1228488728
  0
LWPOLYLINE
  5
4DF
100
AcDbEntity
  8
RACCORDO
100
AcDbPolyline
 62
250
  6
CONTINUOUS
 90
13
 70
0
 10
54.4414210293
 20
-14.2328504004
 10
54.4409988224
 20
-14.2636389787
 10
54.4425559507
 20
-14.2932356467
 10
54.4460836948
 20
-14.3214746721
 10
54.4515622999
 20
-14.3481979252
 10
54.4589610875
 20
-14.3732557642
 10
54.4682386262
 20
-14.3965078731
 10
54.4793429645
 20
-14.4178240473
 10
54.4922119213
 20
-14.4370849232
 10
54.5067734342
 20
-14.4541826461
 10
54.5229459631
 20
-14.4690214741
 10
54.5406389466
 20
-14.4815183147
 10
54.5444586853
 20
-14.4837922358
  0
LWPOLYLINE
  5
4E0
100
AcDbEntity
  8
ASSI
100
AcDbPolyline
 62
250
  6
CONTINUOUS
 90
13
 70
0
 10
54.4414210293
 20
-14.2328504004
 10
54.4409988224
 20
-14.2636389787
 10
54.4425559507
 20
-14.2932356467
 10
54.4460836948
 20
-14.3214746721
 10
54.4515622999
 20
-14.3481979252
 10
54.4589610875
 20
-14.3732557642
 10
54.4682386262
 20
-14.3965078731
 10
54.4793429645
 20
-14.4178240473
 10
54.4922119213
 20
-14.4370849232
 10
54.5067734342
 20
-14.4541826461
 10
54.5229459631
 20
-14.4690214741
 10
54.5406389466
 20
-14.4815183147
 10
54.5444586853
 20
-14.4837922358
  0
LWPOLYLINE
  5
4E1
100
AcDbEntity
  8
RACCORDO
100
AcDbPolyline
 62
7
  6
CONTINUOUS
 90
13
 70
0
 10
55.1692794371
 20
-15.639802477
 10
55.0620359597
 20
-18.6340474225
 10
54.9723157971
 20
-21.6772035504
 10
54.9025219013
 20
-24.708415121
 10
54.8526609351
 20
-27.7274575422
 10
54.8227357076
 20
-30.7341342545
 10
54.8127481711
 20
-33.7282596536
 10
54.8226999266
 20
-36.7096404244
 10
54.852590462
 20
-39.6780845107
 10
54.9024188942
 20
-42.633408032
 10
54.9721835136
 20
-45.5754174941
 10
55.0618787579
 20
-48.5038963515
 10
55.169085664
 20
-51.3598606476
  0
LWPOLYLINE
  5
4E2
100
AcDbEntity
  8
ASSI
100
AcDbPolyline
 62
7
  6
CONTINUOUS
 90
13
 70
0
 10
55.1692794371
 20
-15.639802477
 10
55.0620359597
 20
-18.6340474225
 10
54.9723157971
 20
-21.6772035504
 10
54.9025219013
 20
-24.708415121
 10
54.8526609351
 20
-27.7274575422
 10
54.8227357076
 20
-30.7341342545
 10
54.8127481711
 20
-33.7282596536
 10
54.8226999266
 20
-36.7096404244
 10
54.852590462
 20
-39.6780845107
 10
54.9024188942
 20
-42.633408032
 10
54.9721835136
 20
-45.5754174941
 10
55.0618787579
 20
-48.5038963515
 10
55.169085664
 20
-51.3598606476
  0
LWPOLYLINE
  5
4E3
100
AcDbEntity
  8
RACCORDO
100
AcDbPolyline
 62
250
  6
CONTINUOUS
 90
13
 70
0
 10
55.315530717
 20
-15.8501086359
 10
55.2066656152
 20
-18.8942037016
 10
55.1175839623
 20
-21.9265907418
 10
55.0482919334
 20
-24.9470708244
 10
54.9987944397
 20
-27.9554458613
 10
54.9690948069
 20
-30.9515183098
 10
54.9591947723
 20
-33.9350911866
 10
54.9690948064
 20
-36.9059684756
 10
54.9987944388
 20
-39.8639552021
 10
55.0482919322
 20
-42.8088571368
 10
55.1175839611
 20
-45.7404808264
 10
55.2066656144
 20
-48.658633605
 10
55.315530717
 20
-51.5631236713
  0
LWPOLYLINE
  5
4E4
100
AcDbEntity
  8
ASSI
100
AcDbPolyline
 62
250
  6
CONTINUOUS
 90
13
 70
0
 10
55.315530717
 20
-15.8501086359
 10
55.2066656152
 20
-18.8942037016
 10
55.1175839623
 20
-21.9265907418
 10
55.0482919334
 20
-24.9470708244
 10
54.9987944397
 20
-27.9554458613
 10
54.9690948069
 20
-30.9515183098
 10
54.9591947723
 20
-33.9350911866
 10
54.9690948064
 20
-36.9059684756
 10
54.9987944388
 20
-39.8639552021
 10
55.0482919322
 20
-42.8088571368
 10
55.1175839611
 20
-45.7404808264
 10
55.2066656144
 20
-48.658633605
 10
55.315530717
 20
-51.5631236713
  0
LWPOLYLINE
  5
4E5
100
AcDbEntity
  8
0
100
AcDbPolyline
 62
250
  6
CONTINUOUS
 90
13
 70
0
 10
53.4554719991
 20
-47.2504869477
 10
53.4549261649
 20
-47.2638723849
 10
53.4524079218
 20
-47.282193896
 10
53.4478524175
 20
-47.3003806425
 10
53.4412763546
 20
-47.318361341
 10
53.432707113
 20
-47.3360578899
 10
53.4221861686
 20
-47.3533886657
 10
53.4097635706
 20
-47.3702778387
 10
53.3954903055
 20
-47.3866616751
 10
53.3794225514
 20
-47.4024797043
 10
53.361625305
 20
-47.4176691724
 10
53.3421739036
 20
-47.4321658233
 10
53.3211488524
 20
-47.4459104146
  0
LWPOLYLINE
  5
4E6
100
AcDbEntity
  8
ASSI
100
AcDbPolyline
 62
250
  6
CONTINUOUS
 90
13
 70
0
 10
53.4554719991
 20
-47.2504869477
 10
53.4549261649
 20
-47.2638723849
 10
53.4524079218
 20
-47.282193896
 10
53.4478524175
 20
-47.3003806425
 10
53.4412763546
 20
-47.318361341
 10
53.432707113
 20
-47.3360578899
 10
53.4221861686
 20
-47.3533886657
 10
53.4097635706
 20
-47.3702778387
 10
53.3954903055
 20
-47.3866616751
 10
53.3794225514
 20
-47.4024797043
 10
53.361625305
 20
-47.4176691724
 10
53.3421739036
 20
-47.4321658233
 10
53.3211488524
 20
-47.4459104146
  0
LWPOLYLINE
  5
4E7
100
AcDbEntity
  8
0
100
AcDbPolyline
 62
250
  6
CONTINUOUS
 90
12
 70
0
 10
37.4112462757
 20
-38.5220127801
 10
37.4322738251
 20
-38.5075803821
 10
37.4517271891
 20
-38.492405504
 10
37.4695258711
 20
-38.4765474252
 10
37.4855945691
 20
-38.4600678188
 10
37.4998682834
 20
-38.4430320897
 10
37.5122908176
 20
-38.4255085989
 10
37.522811235
 20
-38.4075611654
 10
37.5313795538
 20
-38.3892655979
 10
37.5379543505
 20
-38.3707112533
 10
37.5425083281
 20
-38.3519767118
 10
37.5450248773
 20
-38.3331328148
  0
LWPOLYLINE
  5
4E8
100
AcDbEntity
  8
ASSI
100
AcDbPolyline
 62
250
  6
CONTINUOUS
 90
12
 70
0
 10
37.4112462757
 20
-38.5220127801
 10
37.4322738251
 20
-38.5075803821
 10
37.4517271891
 20
-38.492405504
 10
37.4695258711
 20
-38.4765474252
 10
37.4855945691
 20
-38.4600678188
 10
37.4998682834
 20
-38.4430320897
 10
37.5122908176
 20
-38.4255085989
 10
37.522811235
 20
-38.4075611654
 10
37.5313795538
 20
-38.3892655979
 10
37.5379543505
 20
-38.3707112533
 10
37.5425083281
 20
-38.3519767118
 10
37.5450248773
 20
-38.3331328148
  0
LWPOLYLINE
  5
4E9
100
AcDbEntity
  8
0
100
AcDbPolyline
 62
7
  6
CONTINUOUS
 90
15
 70
0
 10
37.3752891213
 20
-38.610080374
 10
37.3849223495
 20
-38.6035407878
 10
37.4089177256
 20
-38.5856049128
 10
37.4309173259
 20
-38.5667187938
 10
37.4509087469
 20
-38.5470054661
 10
37.4689349248
 20
-38.5265293429
 10
37.4850630551
 20
-38.505305761
 10
37.4992773108
 20
-38.4834437275
 10
37.511573577
 20
-38.4610421778
 10
37.5219849578
 20
-38.4381180372
 10
37.5304898738
 20
-38.4148043465
 10
37.5370896714
 20
-38.3912134538
 10
37.5418092314
 20
-38.3673450713
 10
37.5446336557
 20
-38.343332078
 10
37.5455671697
 20
-38.3194332624
  0
LWPOLYLINE
  5
4EA
100
AcDbEntity
  8
ASSI
100
AcDbPolyline
 62
7
  6
CONTINUOUS
 90
15
 70
0
 10
37.3752891213
 20
-38.610080374
 10
37.3849223495
 20
-38.6035407878
 10
37.4089177256
 20
-38.5856049128
 10
37.4309173259
 20
-38.5667187938
 10
37.4509087469
 20
-38.5470054661
 10
37.4689349248
 20
-38.5265293429
 10
37.4850630551
 20
-38.505305761
 10
37.4992773108
 20
-38.4834437275
 10
37.511573577
 20
-38.4610421778
 10
37.5219849578
 20
-38.4381180372
 10
37.5304898738
 20
-38.4148043465
 10
37.5370896714
 20
-38.3912134538
 10
37.5418092314
 20
-38.3673450713
 10
37.5446336557
 20
-38.343332078
 10
37.5455671697
 20
-38.3194332624
  0
LINE
  5
4EB
100
AcDbEntity
  8
0
100
AcDbLine
 62
250
  6
CONTINUOUS
 10
36.9491284153
 20
-38.8274509669
 11
37.4112462757
 21
-38.5220127801
  0
LINE
  5
4EC
100
AcDbEntity
  8
ASSI
100
AcDbLine
 62
250
  6
CONTINUOUS
 10
36.9491284153
 20
-38.8274509669
 11
37.4112462757
 21
-38.5220127801
  0
LINE
  5
4ED
100
AcDbEntity
  8
0
100
AcDbLine
 62
7
  6
CONTINUOUS
 10
37.0010564205
 20
-38.8574335463
 11
37.3752547088
 21
-38.6101060645
  0
LINE
  5
4EE
100
AcDbEntity
  8
ASSI
100
AcDbLine
 62
7
  6
CONTINUOUS
 10
37.0010564205
 20
-38.8574335463
 11
37.3752547088
 21
-38.6101060645
  0
LINE
  5
4EF
100
AcDbEntity
  8
0
100
AcDbLine
 62
250
  6
CONTINUOUS
 10
37.2662096538
 20
-37.6903880907
 11
36.1532166458
 21
-38.3679014863
  0
LINE
  5
4F0
100
AcDbEntity
  8
ASSI
100
AcDbLine
 62
250
  6
CONTINUOUS
 10
37.2662096538
 20
-37.6903880907
 11
36.1532166458
 21
-38.3679014863
  0
LINE
  5
4F1
100
AcDbEntity
  8
0
100
AcDbLine
 62
250
  6
CONTINUOUS
 10
37.4112462757
 20
-37.933143954
 11
36.4323153652
 21
-38.529049589
  0
LINE
  5
4F2
100
AcDbEntity
  8
ASSI
100
AcDbLine
 62
250
  6
CONTINUOUS
 10
37.4112462757
 20
-37.933143954
 11
36.4323153652
 21
-38.529049589
  0
LINE
  5
4F3
100
AcDbEntity
  8
RACCORDO
100
AcDbLine
 62
250
  6
CONTINUOUS
 10
-68.2454178655
 20
79.6900694677
 11
-68.1112717439
 21
79.6395817372
  0
LINE
  5
4F4
100
AcDbEntity
  8
ASSI
100
AcDbLine
 62
250
  6
CONTINUOUS
 10
-68.2454178655
 20
79.6900694677
 11
-68.1112717439
 21
79.6395817372
  0
LWPOLYLINE
  5
4F5
100
AcDbEntity
  8
RACCORDO
100
AcDbPolyline
 62
250
  6
CONTINUOUS
 90
10
 70
0
 10
74.4027376342
 20
-79.0369876236
 10
74.4061674693
 20
-79.0527445142
 10
74.410726857
 20
-79.0675067702
 10
74.4163907006
 20
-79.0811931177
 10
74.4231278233
 20
-79.093728206
 10
74.4309011392
 20
-79.1050430216
 10
74.4396678572
 20
-79.1150752684
 10
74.4493797177
 20
-79.1237697114
 10
74.4599832568
 20
-79.1310784799
 10
74.4612975453
 20
-79.1318515613
  0
LWPOLYLINE
  5
4F6
100
AcDbEntity
  8
ASSI
100
AcDbPolyline
 62
250
  6
CONTINUOUS
 90
10
 70
0
 10
74.4027376342
 20
-79.0369876236
 10
74.4061674693
 20
-79.0527445142
 10
74.410726857
 20
-79.0675067702
 10
74.4163907006
 20
-79.0811931177
 10
74.4231278233
 20
-79.093728206
 10
74.4309011392
 20
-79.1050430216
 10
74.4396678572
 20
-79.1150752684
 10
74.4493797177
 20
-79.1237697114
 10
74.4599832568
 20
-79.1310784799
 10
74.4612975453
 20
-79.1318515613
  0
LINE
  5
4F7
100
AcDbEntity
  8
0
100
AcDbLine
 62
250
  6
CONTINUOUS
 10
53.1227614595
 20
-48.1659039834
 11
53.3211488524
 21
-48.0347792407
  0
LINE
  5
4F8
100
AcDbEntity
  8
ASSI
100
AcDbLine
 62
250
  6
CONTINUOUS
 10
53.1227614595
 20
-48.1659039834
 11
53.3211488524
 21
-48.0347792407
  0
LINE
  5
4F9
100
AcDbEntity
  8
0
100
AcDbLine
 62
7
  6
CONTINUOUS
 10
53.1746894647
 20
-48.1958865628
 11
53.2851572855
 21
-48.1228725251
  0
LINE
  5
4FA
100
AcDbEntity
  8
ASSI
100
AcDbLine
 62
7
  6
CONTINUOUS
 10
53.1746894647
 20
-48.1958865628
 11
53.2851572855
 21
-48.1228725251
  0
LINE
  5
4FB
100
AcDbEntity
  8
0
100
AcDbLine
 62
250
  6
CONTINUOUS
 10
53.1761122305
 20
-47.2031545513
 11
52.3384611109
 21
-47.7130587917
  0
LINE
  5
4FC
100
AcDbEntity
  8
ASSI
100
AcDbLine
 62
250
  6
CONTINUOUS
 10
53.1761122305
 20
-47.2031545513
 11
52.3384611109
 21
-47.7130587917
  0
LINE
  5
4FD
100
AcDbEntity
  8
0
100
AcDbLine
 62
250
  6
CONTINUOUS
 10
53.3211488524
 20
-47.4459104146
 11
52.6175598304
 21
-47.8742068944
  0
LINE
  5
4FE
100
AcDbEntity
  8
ASSI
100
AcDbLine
 62
250
  6
CONTINUOUS
 10
53.3211488524
 20
-47.4459104146
 11
52.6175598304
 21
-47.8742068944
  0
LINE
  5
4FF
100
AcDbEntity
  8
0
100
AcDbLine
 62
7
  6
CONTINUOUS
 10
50.217086849
 20
-46.48820388
 11
51.0774985812
 21
-46.033316296
  0
LINE
  5
500
100
AcDbEntity
  8
ASSI
100
AcDbLine
 62
7
  6
CONTINUOUS
 10
50.217086849
 20
-46.48820388
 11
51.0774985812
 21
-46.033316296
  0
LINE
  5
501
100
AcDbEntity
  8
0
100
AcDbLine
 62
250
  6
CONTINUOUS
 10
50.2739391428
 20
-46.5210296819
 11
51.1722099934
 21
-46.0461265144
  0
LINE
  5
502
100
AcDbEntity
  8
ASSI
100
AcDbLine
 62
250
  6
CONTINUOUS
 10
50.2739391428
 20
-46.5210296819
 11
51.1722099934
 21
-46.0461265144
  0
LINE
  5
503
100
AcDbEntity
  8
0
100
AcDbLine
 62
7
  6
CONTINUOUS
 10
51.0954653234
 20
-46.0242720776
 11
51.0774753291
 21
-46.0333311787
  0
LINE
  5
504
100
AcDbEntity
  8
ASSI
100
AcDbLine
 62
7
  6
CONTINUOUS
 10
51.0954653234
 20
-46.0242720776
 11
51.0774753291
 21
-46.0333311787
  0
LWPOLYLINE
  5
505
100
AcDbEntity
  8
0
100
AcDbPolyline
 62
250
  6
CONTINUOUS
 90
25
 70
0
 10
51.1722099934
 20
-46.0461265144
 10
51.1867204849
 20
-46.0389457522
 10
51.2018889068
 20
-46.0323573439
 10
51.217715259
 20
-46.0263612893
 10
51.2342693255
 20
-46.0209367588
 10
51.2514813224
 20
-46.016104582
 10
51.2691418982
 20
-46.0119272487
 10
51.2872599746
 20
-46.0084129222
 10
51.30582663
 20
-46.0055534391
 10
51.3246057476
 20
-46.0033867992
 10
51.3435964513
 20
-46.0019226296
 10
51.3627996173
 20
-46.0011513031
 10
51.3819817569
 20
-46.0010819391
 10
51.4011429112
 20
-46.0017229797
 10
51.4202830392
 20
-46.0030659827
 10
51.4391685291
 20
-46.0050947404
 10
51.457797332
 20
-46.0078181253
 10
51.4761714967
 20
-46.011227265
 10
51.4940635581
 20
-46.0152793345
 10
51.5114678904
 20
-46.0199829548
 10
51.5283901194
 20
-46.025329505
 10
51.5446196572
 20
-46.0312502977
 10
51.5600863079
 20
-46.037722437
 10
51.5748602674
 20
-46.0447688189
 10
51.5889415358
 20
-46.0523894432
  0
LWPOLYLINE
  5
506
100
AcDbEntity
  8
ASSI
100
AcDbPolyline
 62
250
  6
CONTINUOUS
 90
25
 70
0
 10
51.1722099934
 20
-46.0461265144
 10
51.1867204849
 20
-46.0389457522
 10
51.2018889068
 20
-46.0323573439
 10
51.217715259
 20
-46.0263612893
 10
51.2342693255
 20
-46.0209367588
 10
51.2514813224
 20
-46.016104582
 10
51.2691418982
 20
-46.0119272487
 10
51.2872599746
 20
-46.0084129222
 10
51.30582663
 20
-46.0055534391
 10
51.3246057476
 20
-46.0033867992
 10
51.3435964513
 20
-46.0019226296
 10
51.3627996173
 20
-46.0011513031
 10
51.3819817569
 20
-46.0010819391
 10
51.4011429112
 20
-46.0017229797
 10
51.4202830392
 20
-46.0030659827
 10
51.4391685291
 20
-46.0050947404
 10
51.457797332
 20
-46.0078181253
 10
51.4761714967
 20
-46.011227265
 10
51.4940635581
 20
-46.0152793345
 10
51.5114678904
 20
-46.0199829548
 10
51.5283901194
 20
-46.025329505
 10
51.5446196572
 20
-46.0312502977
 10
51.5600863079
 20
-46.037722437
 10
51.5748602674
 20
-46.0447688189
 10
51.5889415358
 20
-46.0523894432
  0
LWPOLYLINE
  5
507
100
AcDbEntity
  8
0
100
AcDbPolyline
 62
250
  6
CONTINUOUS
 90
10
 70
0
 10
51.0774985865
 20
-46.0333162932
 10
51.0842598499
 20
-46.0302351175
 10
51.0937648863
 20
-46.0273698746
 10
51.1038572957
 20
-46.0258949799
 10
51.1144602949
 20
-46.0258216461
 10
51.1254932192
 20
-46.027150423
 10
51.1368721367
 20
-46.029871195
 10
51.1485104817
 20
-46.033963258
 10
51.1603197136
 20
-46.039395475
 10
51.1722099934
 20
-46.0461265144
  0
LWPOLYLINE
  5
508
100
AcDbEntity
  8
ASSI
100
AcDbPolyline
 62
250
  6
CONTINUOUS
 90
10
 70
0
 10
51.0774985865
 20
-46.0333162932
 10
51.0842598499
 20
-46.0302351175
 10
51.0937648863
 20
-46.0273698746
 10
51.1038572957
 20
-46.0258949799
 10
51.1144602949
 20
-46.0258216461
 10
51.1254932192
 20
-46.027150423
 10
51.1368721367
 20
-46.029871195
 10
51.1485104817
 20
-46.033963258
 10
51.1603197136
 20
-46.039395475
 10
51.1722099934
 20
-46.0461265144
  0
LINE
  5
509
100
AcDbEntity
  8
DRAFT
100
AcDbLine
 62
7
  6
CONTINUOUS
 10
77.1937380085
 20
-43.3195176942
 11
77.621367815
 21
-43.1666523759
  0
LINE
  5
50A
100
AcDbEntity
  8
ASSI
100
AcDbLine
 62
7
  6
CONTINUOUS
 10
77.1937380085
 20
-43.3195176942
 11
77.621367815
 21
-43.1666523759
  0
LINE
  5
50B
100
AcDbEntity
  8
RACCORDO
100
AcDbLine
 62
250
  6
CONTINUOUS
 10
55.1249706104
 20
-51.5098572616
 11
55.1043775817
 21
-51.5167233288
  0
LINE
  5
50C
100
AcDbEntity
  8
ASSI
100
AcDbLine
 62
250
  6
CONTINUOUS
 10
55.1249706104
 20
-51.5098572616
 11
55.1043775817
 21
-51.5167233288
  0
LWPOLYLINE
  5
50D
100
AcDbEntity
  8
RACCORDO
100
AcDbPolyline
 62
250
  6
CONTINUOUS
 90
10
 70
0
 10
74.8010686429
 20
-78.7949993478
 10
74.4995345189
 20
-77.0377697775
 10
74.2228212897
 20
-75.2631371466
 10
73.9709818429
 20
-73.4714582822
 10
73.7440626474
 20
-71.6630956274
 10
73.542108599
 20
-69.838411122
 10
73.3651634308
 20
-67.9977658316
 10
73.2132630373
 20
-66.1415280859
 10
73.0864350485
 20
-64.2700737016
 10
72.9847039726
 20
-62.3837796521
  0
LWPOLYLINE
  5
50E
100
AcDbEntity
  8
ASSI
100
AcDbPolyline
 62
250
  6
CONTINUOUS
 90
10
 70
0
 10
74.8010686429
 20
-78.7949993478
 10
74.4995345189
 20
-77.0377697775
 10
74.2228212897
 20
-75.2631371466
 10
73.9709818429
 20
-73.4714582822
 10
73.7440626474
 20
-71.6630956274
 10
73.542108599
 20
-69.838411122
 10
73.3651634308
 20
-67.9977658316
 10
73.2132630373
 20
-66.1415280859
 10
73.0864350485
 20
-64.2700737016
 10
72.9847039726
 20
-62.3837796521
  0
LWPOLYLINE
  5
50F
100
AcDbEntity
  8
RACCORDO
100
AcDbPolyline
 62
250
  6
CONTINUOUS
 90
10
 70
0
 10
75.2105778629
 20
-78.7597474271
 10
74.9094826459
 20
-77.0050928481
 10
74.6332615787
 20
-75.2337702785
 10
74.3819146611
 20
-73.4457797183
 10
74.1554004939
 20
-71.6407479689
 10
73.9537604764
 20
-69.8190482288
 10
73.7771188067
 20
-67.9818000941
 10
73.6255168843
 20
-66.1293767633
 10
73.4989133098
 20
-64.261405038
 10
73.3973080831
 20
-62.377884918
  0
LWPOLYLINE
  5
510
100
AcDbEntity
  8
ASSI
100
AcDbPolyline
 62
250
  6
CONTINUOUS
 90
10
 70
0
 10
75.2105778629
 20
-78.7597474271
 10
74.9094826459
 20
-77.0050928481
 10
74.6332615787
 20
-75.2337702785
 10
74.3819146611
 20
-73.4457797183
 10
74.1554004939
 20
-71.6407479689
 10
73.9537604764
 20
-69.8190482288
 10
73.7771188067
 20
-67.9818000941
 10
73.6255168843
 20
-66.1293767633
 10
73.4989133098
 20
-64.261405038
 10
73.3973080831
 20
-62.377884918
  0
LWPOLYLINE
  5
511
100
AcDbEntity
  8
RACCORDO
100
AcDbPolyline
 62
250
  6
CONTINUOUS
 90
13
 70
0
 10
72.9847040444
 20
-62.3837796935
 10
72.854838944
 20
-59.369005928
 10
72.7485679663
 20
-56.3407623846
 10
72.6659007602
 20
-53.2992608746
 10
72.6068446206
 20
-50.2446758309
 10
72.5714073691
 20
-47.1772591655
 10
72.5595945445
 20
-44.0973419168
 10
72.5714073628
 20
-41.0051415807
 10
72.6068446096
 20
-37.9008761167
 10
72.6659007465
 20
-34.7848815497
 10
72.7485679516
 20
-31.6574183542
 10
72.8548389304
 20
-28.5186698565
 10
72.9847040341
 20
-25.3688590103
  0
LWPOLYLINE
  5
512
100
AcDbEntity
  8
ASSI
100
AcDbPolyline
 62
250
  6
CONTINUOUS
 90
13
 70
0
 10
72.9847040444
 20
-62.3837796935
 10
72.854838944
 20
-59.369005928
 10
72.7485679663
 20
-56.3407623846
 10
72.6659007602
 20
-53.2992608746
 10
72.6068446206
 20
-50.2446758309
 10
72.5714073691
 20
-47.1772591655
 10
72.5595945445
 20
-44.0973419168
 10
72.5714073628
 20
-41.0051415807
 10
72.6068446096
 20
-37.9008761167
 10
72.6659007465
 20
-34.7848815497
 10
72.7485679516
 20
-31.6574183542
 10
72.8548389304
 20
-28.5186698565
 10
72.9847040341
 20
-25.3688590103
  0
LWPOLYLINE
  5
513
100
AcDbEntity
  8
RACCORDO
100
AcDbPolyline
 62
250
  6
CONTINUOUS
 90
13
 70
0
 10
73.3973080831
 20
-62.377884918
 10
73.2675109831
 20
-59.3647488405
 10
73.1613099016
 20
-56.3385804284
 10
73.0787048386
 20
-53.2993796817
 10
73.0196915714
 20
-50.246893743
 10
72.9842743227
 20
-47.1813754698
 10
72.9724657607
 20
-44.1035834339
 10
72.9842743328
 20
-41.0135131715
 10
73.0196915916
 20
-37.9111691465
 10
73.0787048634
 20
-34.7973233222
 10
73.1613099236
 20
-31.6722330196
 10
73.2675109969
 20
-28.5356409178
 10
73.3973080831
 20
-25.3875470167
  0
LWPOLYLINE
  5
514
100
AcDbEntity
  8
ASSI
100
AcDbPolyline
 62
250
  6
CONTINUOUS
 90
13
 70
0
 10
73.3973080831
 20
-62.377884918
 10
73.2675109831
 20
-59.3647488405
 10
73.1613099016
 20
-56.3385804284
 10
73.0787048386
 20
-53.2993796817
 10
73.0196915714
 20
-50.246893743
 10
72.9842743227
 20
-47.1813754698
 10
72.9724657607
 20
-44.1035834339
 10
72.9842743328
 20
-41.0135131715
 10
73.0196915916
 20
-37.9111691465
 10
73.0787048634
 20
-34.7973233222
 10
73.1613099236
 20
-31.6722330196
 10
73.2675109969
 20
-28.5356409178
 10
73.3973080831
 20
-25.3875470167
  0
LINE
  5
515
100
AcDbEntity
  8
RACCORDO
100
AcDbLine
 62
7
  6
CONTINUOUS
 10
77.05568239
 20
-77.9066041006
 11
77.05568239
 21
-6.0549818546
  0
LINE
  5
516
100
AcDbEntity
  8
ASSI
100
AcDbLine
 62
7
  6
CONTINUOUS
 10
77.05568239
 20
-77.9066041006
 11
77.05568239
 21
-6.0549818546
  0
LINE
  5
517
100
AcDbEntity
  8
DRAFT
100
AcDbLine
 62
7
  6
CONTINUOUS
 10
77.1937380085
 20
-38.5496192434
 11
77.1937380085
 21
-44.2649111809
  0
LINE
  5
518
100
AcDbEntity
  8
ASSI
100
AcDbLine
 62
7
  6
CONTINUOUS
 10
77.1937380085
 20
-38.5496192434
 11
77.1937380085
 21
-44.2649111809
  0
LINE
  5
519
100
AcDbEntity
  8
DRAFT
100
AcDbLine
 62
7
  6
CONTINUOUS
 10
77.9749211959
 20
-5.0377310487
 11
77.9749212056
 21
-37.07963478
  0
LINE
  5
51A
100
AcDbEntity
  8
ASSI
100
AcDbLine
 62
7
  6
CONTINUOUS
 10
77.9749211959
 20
-5.0377310487
 11
77.9749212056
 21
-37.07963478
  0
LINE
  5
51B
100
AcDbEntity
  8
DRAFT
100
AcDbLine
 62
7
  6
CONTINUOUS
 10
77.9749212056
 20
-43.3707896726
 11
77.9749212455
 21
-75.4126928464
  0
LINE
  5
51C
100
AcDbEntity
  8
ASSI
100
AcDbLine
 62
7
  6
CONTINUOUS
 10
77.9749212056
 20
-43.3707896726
 11
77.9749212455
 21
-75.4126928464
  0
LWPOLYLINE
  5
51D
100
AcDbEntity
  8
RACCORDO
100
AcDbPolyline
 62
250
  6
CONTINUOUS
 90
10
 70
0
 10
72.9847039619
 20
-25.3688589687
 10
73.0864350478
 20
-23.3767741304
 10
73.2132630435
 20
-21.3734227238
 10
73.365163437
 20
-19.3592100257
 10
73.542108586
 20
-17.3345484802
 10
73.7440625983
 20
-15.2998431504
 10
73.9709817678
 20
-13.2554914454
 10
74.2228212154
 20
-11.2019024266
 10
74.4995344679
 20
-9.1394969158
 10
74.8010686429
 20
-7.0686928115
  0
LWPOLYLINE
  5
51E
100
AcDbEntity
  8
ASSI
100
AcDbPolyline
 62
250
  6
CONTINUOUS
 90
10
 70
0
 10
72.9847039619
 20
-25.3688589687
 10
73.0864350478
 20
-23.3767741304
 10
73.2132630435
 20
-21.3734227238
 10
73.365163437
 20
-19.3592100257
 10
73.542108586
 20
-17.3345484802
 10
73.7440625983
 20
-15.2998431504
 10
73.9709817678
 20
-13.2554914454
 10
74.2228212154
 20
-11.2019024266
 10
74.4995344679
 20
-9.1394969158
 10
74.8010686429
 20
-7.0686928115
  0
LWPOLYLINE
  5
51F
100
AcDbEntity
  8
RACCORDO
100
AcDbPolyline
 62
250
  6
CONTINUOUS
 90
10
 70
0
 10
73.3973080831
 20
-25.3875470167
 10
73.4989134886
 20
-23.3983785698
 10
73.6255172908
 20
-21.3987662435
 10
73.7771194895
 20
-19.3887100379
 10
73.953761609
 20
-17.3677928978
 10
74.155402125
 20
-15.3364318783
 10
74.3819164656
 20
-13.2958781453
 10
74.6332631068
 20
-11.2465487539
 10
74.9094835726
 20
-9.1880266489
 10
75.2105778629
 20
-7.1203118303
  0
LWPOLYLINE
  5
520
100
AcDbEntity
  8
ASSI
100
AcDbPolyline
 62
250
  6
CONTINUOUS
 90
10
 70
0
 10
73.3973080831
 20
-25.3875470167
 10
73.4989134886
 20
-23.3983785698
 10
73.6255172908
 20
-21.3987662435
 10
73.7771194895
 20
-19.3887100379
 10
73.953761609
 20
-17.3677928978
 10
74.155402125
 20
-15.3364318783
 10
74.3819164656
 20
-13.2958781453
 10
74.6332631068
 20
-11.2465487539
 10
74.9094835726
 20
-9.1880266489
 10
75.2105778629
 20
-7.1203118303
  0
LWPOLYLINE
  5
521
100
AcDbEntity
  8
RACCORDO
100
AcDbPolyline
 62
250
  6
CONTINUOUS
 90
28
 70
0
 10
75.2105778629
 20
-7.1203118303
 10
75.2142991508
 20
-7.0688923509
 10
75.2155785175
 20
-7.0162894549
 10
75.2144400673
 20
-6.9626720489
 10
75.2109381441
 20
-6.9082042285
 10
75.2050897743
 20
-6.8530689188
 10
75.1968726094
 20
-6.7974666489
 10
75.1863329642
 20
-6.7415608557
 10
75.173534548
 20
-6.6855447781
 10
75.158493439
 20
-6.6296649977
 10
75.1412861812
 20
-6.5741150443
 10
75.1219945867
 20
-6.5190579136
 10
75.1006546662
 20
-6.4646927093
 10
75.0773560166
 20
-6.4111961237
 10
75.0521987849
 20
-6.3587346826
 10
75.0252410655
 20
-6.3074882539
 10
74.9965853182
 20
-6.2576227227
 10
74.9663444285
 20
-6.2092936658
 10
74.9345965681
 20
-6.1626601703
 10
74.9014517659
 20
-6.1178713113
 10
74.8670347547
 20
-6.0750707231
 10
74.8314493035
 20
-6.0344019778
 10
74.7948184348
 20
-5.9960017042
 10
74.7572682624
 20
-5.9599876491
 10
74.7189092857
 20
-5.926467116
 10
74.6798635965
 20
-5.8955484312
 10
74.6402649662
 20
-5.867338106
 10
74.6002421406
 20
-5.8419310924
  0
LWPOLYLINE
  5
522
100
AcDbEntity
  8
ASSI
100
AcDbPolyline
 62
250
  6
CONTINUOUS
 90
28
 70
0
 10
75.2105778629
 20
-7.1203118303
 10
75.2142991508
 20
-7.0688923509
 10
75.2155785175
 20
-7.0162894549
 10
75.2144400673
 20
-6.9626720489
 10
75.2109381441
 20
-6.9082042285
 10
75.2050897743
 20
-6.8530689188
 10
75.1968726094
 20
-6.7974666489
 10
75.1863329642
 20
-6.7415608557
 10
75.173534548
 20
-6.6855447781
 10
75.158493439
 20
-6.6296649977
 10
75.1412861812
 20
-6.5741150443
 10
75.1219945867
 20
-6.5190579136
 10
75.1006546662
 20
-6.4646927093
 10
75.0773560166
 20
-6.4111961237
 10
75.0521987849
 20
-6.3587346826
 10
75.0252410655
 20
-6.3074882539
 10
74.9965853182
 20
-6.2576227227
 10
74.9663444285
 20
-6.2092936658
 10
74.9345965681
 20
-6.1626601703
 10
74.9014517659
 20
-6.1178713113
 10
74.8670347547
 20
-6.0750707231
 10
74.8314493035
 20
-6.0344019778
 10
74.7948184348
 20
-5.9960017042
 10
74.7572682624
 20
-5.9599876491
 10
74.7189092857
 20
-5.926467116
 10
74.6798635965
 20
-5.8955484312
 10
74.6402649662
 20
-5.867338106
 10
74.6002421406
 20
-5.8419310924
  0
LWPOLYLINE
  5
523
100
AcDbEntity
  8
RACCORDO
100
AcDbPolyline
 62
250
  6
CONTINUOUS
 90
28
 70
0
 10
74.8010686429
 20
-7.0686928115
 10
74.8057871784
 20
-7.0312526467
 10
74.8087917838
 20
-6.9932345783
 10
74.8100822281
 20
-6.9546386937
 10
74.8096491787
 20
-6.9153264539
 10
74.8075015611
 20
-6.8754365522
 10
74.8036663218
 20
-6.8353850012
 10
74.798122868
 20
-6.7951662287
 10
74.7908909416
 20
-6.7547861234
 10
74.7820576002
 20
-6.7146780326
 10
74.7716067615
 20
-6.6748555952
 10
74.7595533573
 20
-6.6353055971
 10
74.7460306639
 20
-6.5964212173
 10
74.7310250056
 20
-6.5582119477
 10
74.7145487823
 20
-6.5206687652
 10
74.6967741867
 20
-6.4841571481
 10
74.6776894974
 20
-6.4486887449
 10
74.6573051835
 20
-6.4142523658
 10
74.6358266208
 20
-6.3811792681
 10
74.6132422311
 20
-6.3494818901
 10
74.5895625063
 20
-6.3191481905
 10
74.5650259082
 20
-6.2904727138
 10
74.5396202496
 20
-6.2634698635
 10
74.5133569183
 20
-6.2381255277
 10
74.486509785
 20
-6.2146914608
 10
74.4591699944
 20
-6.1932516338
 10
74.4312459793
 20
-6.1737222296
 10
74.4027376342
 20
-6.1561032867
  0
LWPOLYLINE
  5
524
100
AcDbEntity
  8
ASSI
100
AcDbPolyline
 62
250
  6
CONTINUOUS
 90
28
 70
0
 10
74.8010686429
 20
-7.0686928115
 10
74.8057871784
 20
-7.0312526467
 10
74.8087917838
 20
-6.9932345783
 10
74.8100822281
 20
-6.9546386937
 10
74.8096491787
 20
-6.9153264539
 10
74.8075015611
 20
-6.8754365522
 10
74.8036663218
 20
-6.8353850012
 10
74.798122868
 20
-6.7951662287
 10
74.7908909416
 20
-6.7547861234
 10
74.7820576002
 20
-6.7146780326
 10
74.7716067615
 20
-6.6748555952
 10
74.7595533573
 20
-6.6353055971
 10
74.7460306639
 20
-6.5964212173
 10
74.7310250056
 20
-6.5582119477
 10
74.7145487823
 20
-6.5206687652
 10
74.6967741867
 20
-6.4841571481
 10
74.6776894974
 20
-6.4486887449
 10
74.6573051835
 20
-6.4142523658
 10
74.6358266208
 20
-6.3811792681
 10
74.6132422311
 20
-6.3494818901
 10
74.5895625063
 20
-6.3191481905
 10
74.5650259082
 20
-6.2904727138
 10
74.5396202496
 20
-6.2634698635
 10
74.5133569183
 20
-6.2381255277
 10
74.486509785
 20
-6.2146914608
 10
74.4591699944
 20
-6.1932516338
 10
74.4312459793
 20
-6.1737222296
 10
74.4027376342
 20
-6.1561032867
  0
LWPOLYLINE
  5
525
100
AcDbEntity
  8
RACCORDO
100
AcDbPolyline
 62
250
  6
CONTINUOUS
 90
19
 70
0
 10
74.4027376342
 20
-6.1561032867
 10
74.4061674991
 20
-6.1363855317
 10
74.410726933
 20
-6.11635805
 10
74.4163908345
 20
-6.0961310999
 10
74.4231280221
 20
-6.0758160375
 10
74.4309014051
 20
-6.0555247044
 10
74.4396681884
 20
-6.0353688114
 10
74.4493801078
 20
-6.0154593235
 10
74.4599836959
 20
-5.9959058495
 10
74.4714205762
 20
-5.9768160379
 10
74.4836277847
 20
-5.9582949848
 10
74.4965381167
 20
-5.9404446549
 10
74.5100804961
 20
-5.9233633204
 10
74.5241803676
 20
-5.90714502
 10
74.5387601065
 20
-5.8918790411
 10
74.5537394463
 20
-5.8776494281
 10
74.5690359205
 20
-5.86453452
 10
74.5845653169
 20
-5.8526065188
 10
74.6002421406
 20
-5.8419310924
  0
LWPOLYLINE
  5
526
100
AcDbEntity
  8
ASSI
100
AcDbPolyline
 62
250
  6
CONTINUOUS
 90
19
 70
0
 10
74.4027376342
 20
-6.1561032867
 10
74.4061674991
 20
-6.1363855317
 10
74.410726933
 20
-6.11635805
 10
74.4163908345
 20
-6.0961310999
 10
74.4231280221
 20
-6.0758160375
 10
74.4309014051
 20
-6.0555247044
 10
74.4396681884
 20
-6.0353688114
 10
74.4493801078
 20
-6.0154593235
 10
74.4599836959
 20
-5.9959058495
 10
74.4714205762
 20
-5.9768160379
 10
74.4836277847
 20
-5.9582949848
 10
74.4965381167
 20
-5.9404446549
 10
74.5100804961
 20
-5.9233633204
 10
74.5241803676
 20
-5.90714502
 10
74.5387601065
 20
-5.8918790411
 10
74.5537394463
 20
-5.8776494281
 10
74.5690359205
 20
-5.86453452
 10
74.5845653169
 20
-5.8526065188
 10
74.6002421406
 20
-5.8419310924
  0
LINE
  5
527
100
AcDbEntity
  8
RACCORDO
100
AcDbLine
 62
7
  6
CONTINUOUS
 10
55.1532280697
 20
-51.5020827027
 11
55.1518795676
 21
-51.5050191539
  0
LINE
  5
528
100
AcDbEntity
  8
ASSI
100
AcDbLine
 62
7
  6
CONTINUOUS
 10
55.1532280697
 20
-51.5020827027
 11
55.1518795676
 21
-51.5050191539
  0
LINE
  5
529
100
AcDbEntity
  8
RACCORDO
100
AcDbLine
 62
7
  6
CONTINUOUS
 10
55.1631144849
 20
-51.4923379331
 11
55.1632939421
 21
-51.4921732994
  0
LINE
  5
52A
100
AcDbEntity
  8
ASSI
100
AcDbLine
 62
7
  6
CONTINUOUS
 10
55.1631144849
 20
-51.4923379331
 11
55.1632939421
 21
-51.4921732994
  0
LWPOLYLINE
  5
52B
100
AcDbEntity
  8
RACCORDO
100
AcDbPolyline
 62
250
  6
CONTINUOUS
 90
19
 70
0
 10
55.1480729379
 20
-52.0851769062
 10
55.120458759
 20
-52.1084238532
 10
55.0911141138
 20
-52.1288672313
 10
55.0600375869
 20
-52.1465079374
 10
55.0271426585
 20
-52.1613927177
 10
54.9925132647
 20
-52.1734764657
 10
54.9564035822
 20
-52.1826223588
 10
54.9187891423
 20
-52.1888029884
 10
54.8796918642
 20
-52.1920473854
 10
54.839435319
 20
-52.1923035074
 10
54.7979849154
 20
-52.1895296831
 10
54.7553730465
 20
-52.1837689851
 10
54.7120237314
 20
-52.1750965069
 10
54.667923343
 20
-52.1634642084
 10
54.6230839085
 20
-52.148921151
 10
54.5779680445
 20
-52.1316880067
 10
54.5327296814
 20
-52.1118385087
 10
54.4872140767
 20
-52.0892994428
 10
54.4414210293
 20
-52.0640709373
  0
LWPOLYLINE
  5
52C
100
AcDbEntity
  8
ASSI
100
AcDbPolyline
 62
250
  6
CONTINUOUS
 90
19
 70
0
 10
55.1480729379
 20
-52.0851769062
 10
55.120458759
 20
-52.1084238532
 10
55.0911141138
 20
-52.1288672313
 10
55.0600375869
 20
-52.1465079374
 10
55.0271426585
 20
-52.1613927177
 10
54.9925132647
 20
-52.1734764657
 10
54.9564035822
 20
-52.1826223588
 10
54.9187891423
 20
-52.1888029884
 10
54.8796918642
 20
-52.1920473854
 10
54.839435319
 20
-52.1923035074
 10
54.7979849154
 20
-52.1895296831
 10
54.7553730465
 20
-52.1837689851
 10
54.7120237314
 20
-52.1750965069
 10
54.667923343
 20
-52.1634642084
 10
54.6230839085
 20
-52.148921151
 10
54.5779680445
 20
-52.1316880067
 10
54.5327296814
 20
-52.1118385087
 10
54.4872140767
 20
-52.0892994428
 10
54.4414210293
 20
-52.0640709373
  0
LINE
  5
52D
100
AcDbEntity
  8
0
100
AcDbLine
 62
250
  6
CONTINUOUS
 10
54.7759853903
 20
-51.4414603955
 11
55.1619331057
 21
-51.1693183418
  0
LINE
  5
52E
100
AcDbEntity
  8
ASSI
100
AcDbLine
 62
250
  6
CONTINUOUS
 10
54.7759853903
 20
-51.4414603955
 11
55.1619331057
 21
-51.1693183418
  0
LWPOLYLINE
  5
52F
100
AcDbEntity
  8
0
100
AcDbPolyline
 62
250
  6
CONTINUOUS
 90
12
 70
0
 10
53.3211488524
 20
-48.0347792407
 10
53.3421764018
 20
-48.0203468427
 10
53.3616297658
 20
-48.0051719646
 10
53.3794284478
 20
-47.9893138858
 10
53.3954971458
 20
-47.9728342794
 10
53.4097708601
 20
-47.9557985502
 10
53.4221933943
 20
-47.9382750594
 10
53.4327138117
 20
-47.920327626
 10
53.4412821305
 20
-47.9020320585
 10
53.4478569272
 20
-47.8834777139
 10
53.4524109048
 20
-47.8647431724
 10
53.454927454
 20
-47.8458992753
  0
LWPOLYLINE
  5
530
100
AcDbEntity
  8
ASSI
100
AcDbPolyline
 62
250
  6
CONTINUOUS
 90
12
 70
0
 10
53.3211488524
 20
-48.0347792407
 10
53.3421764018
 20
-48.0203468427
 10
53.3616297658
 20
-48.0051719646
 10
53.3794284478
 20
-47.9893138858
 10
53.3954971458
 20
-47.9728342794
 10
53.4097708601
 20
-47.9557985502
 10
53.4221933943
 20
-47.9382750594
 10
53.4327138117
 20
-47.920327626
 10
53.4412821305
 20
-47.9020320585
 10
53.4478569272
 20
-47.8834777139
 10
53.4524109048
 20
-47.8647431724
 10
53.454927454
 20
-47.8458992753
  0
LWPOLYLINE
  5
531
100
AcDbEntity
  8
0
100
AcDbPolyline
 62
7
  6
CONTINUOUS
 90
15
 70
0
 10
53.285191698
 20
-48.1228468346
 10
53.2948249262
 20
-48.1163072484
 10
53.3188203023
 20
-48.0983713734
 10
53.3408199026
 20
-48.0794852544
 10
53.3608113236
 20
-48.0597719267
 10
53.3788375015
 20
-48.0392958035
 10
53.3949656318
 20
-48.0180722215
 10
53.4091798875
 20
-47.9962101881
 10
53.4214761537
 20
-47.9738086384
 10
53.4318875345
 20
-47.9508844978
 10
53.4403924505
 20
-47.9275708071
 10
53.4469922481
 20
-47.9039799144
 10
53.4517118081
 20
-47.8801115319
 10
53.4545362324
 20
-47.8560985386
 10
53.4554697464
 20
-47.832199723
  0
LWPOLYLINE
  5
532
100
AcDbEntity
  8
ASSI
100
AcDbPolyline
 62
7
  6
CONTINUOUS
 90
15
 70
0
 10
53.285191698
 20
-48.1228468346
 10
53.2948249262
 20
-48.1163072484
 10
53.3188203023
 20
-48.0983713734
 10
53.3408199026
 20
-48.0794852544
 10
53.3608113236
 20
-48.0597719267
 10
53.3788375015
 20
-48.0392958035
 10
53.3949656318
 20
-48.0180722215
 10
53.4091798875
 20
-47.9962101881
 10
53.4214761537
 20
-47.9738086384
 10
53.4318875345
 20
-47.9508844978
 10
53.4403924505
 20
-47.9275708071
 10
53.4469922481
 20
-47.9039799144
 10
53.4517118081
 20
-47.8801115319
 10
53.4545362324
 20
-47.8560985386
 10
53.4554697464
 20
-47.832199723
  0
LWPOLYLINE
  5
533
100
AcDbEntity
  8
RACCORDO
100
AcDbPolyline
 62
250
  6
CONTINUOUS
 90
3
 70
0
 10
55.1559083795
 20
-51.4948687711
 10
55.1445912079
 20
-51.501203763
 10
55.1249706104
 20
-51.5098572616
  0
LWPOLYLINE
  5
534
100
AcDbEntity
  8
ASSI
100
AcDbPolyline
 62
250
  6
CONTINUOUS
 90
3
 70
0
 10
55.1559083795
 20
-51.4948687711
 10
55.1445912079
 20
-51.501203763
 10
55.1249706104
 20
-51.5098572616
  0
LWPOLYLINE
  5
535
100
AcDbEntity
  8
RACCORDO
100
AcDbPolyline
 62
250
  6
CONTINUOUS
 90
12
 70
0
 10
-69.5522017574
 20
79.9338847731
 10
-69.4439743962
 20
79.9321082631
 10
-69.3337586405
 20
79.9265915649
 10
-69.2216196567
 20
79.9172622792
 10
-69.1078773466
 20
79.9040994303
 10
-68.992344692
 20
79.8869920761
 10
-68.8743450602
 20
79.8656869033
 10
-68.7539995155
 20
79.8400858749
 10
-68.6313716542
 20
79.810053699
 10
-68.5057386731
 20
79.7751859173
 10
-68.3769522145
 20
79.7352159588
 10
-68.2454178655
 20
79.6900694677
  0
LWPOLYLINE
  5
536
100
AcDbEntity
  8
ASSI
100
AcDbPolyline
 62
250
  6
CONTINUOUS
 90
12
 70
0
 10
-69.5522017574
 20
79.9338847731
 10
-69.4439743962
 20
79.9321082631
 10
-69.3337586405
 20
79.9265915649
 10
-69.2216196567
 20
79.9172622792
 10
-69.1078773466
 20
79.9040994303
 10
-68.992344692
 20
79.8869920761
 10
-68.8743450602
 20
79.8656869033
 10
-68.7539995155
 20
79.8400858749
 10
-68.6313716542
 20
79.810053699
 10
-68.5057386731
 20
79.7751859173
 10
-68.3769522145
 20
79.7352159588
 10
-68.2454178655
 20
79.6900694677
  0
LWPOLYLINE
  5
537
100
AcDbEntity
  8
RACCORDO
100
AcDbPolyline
 62
7
  6
CONTINUOUS
 90
3
 70
0
 10
-69.4818139255
 20
79.9743283012
 10
-69.6085931541
 20
79.9802736575
 10
-69.6602477946
 20
79.9813843473
  0
LWPOLYLINE
  5
538
100
AcDbEntity
  8
ASSI
100
AcDbPolyline
 62
7
  6
CONTINUOUS
 90
3
 70
0
 10
-69.4818139255
 20
79.9743283012
 10
-69.6085931541
 20
79.9802736575
 10
-69.6602477946
 20
79.9813843473
  0
LWPOLYLINE
  5
539
100
AcDbEntity
  8
RACCORDO
100
AcDbPolyline
 62
7
  6
CONTINUOUS
 90
4
 70
0
 10
77.9749212455
 20
-75.4126928464
 10
77.9740747839
 20
-75.4399648648
 10
77.9717645407
 20
-75.4654003468
 10
77.9706624721
 20
-75.4735160911
  0
LWPOLYLINE
  5
53A
100
AcDbEntity
  8
ASSI
100
AcDbPolyline
 62
7
  6
CONTINUOUS
 90
4
 70
0
 10
77.9749212455
 20
-75.4126928464
 10
77.9740747839
 20
-75.4399648648
 10
77.9717645407
 20
-75.4654003468
 10
77.9706624721
 20
-75.4735160911
  0
LINE
  5
53B
100
AcDbEntity
  8
RACCORDO
100
AcDbLine
 62
250
  6
CONTINUOUS
 10
-69.6611230924
 20
79.931944631
 11
-69.5522017574
 21
79.9338847731
  0
LINE
  5
53C
100
AcDbEntity
  8
ASSI
100
AcDbLine
 62
250
  6
CONTINUOUS
 10
-69.6611230924
 20
79.931944631
 11
-69.5522017574
 21
79.9338847731
  0
LWPOLYLINE
  5
53D
100
AcDbEntity
  8
RACCORDO
100
AcDbPolyline
 62
7
  6
CONTINUOUS
 90
8
 70
0
 10
-69.660284215
 20
79.9813846879
 10
-69.7283654867
 20
79.981664154
 10
-69.8594569571
 20
79.9783266216
 10
-69.9884728883
 20
79.9699005904
 10
-70.115241248
 20
79.9564616103
 10
-70.2395988699
 20
79.9381016414
 10
-70.3613966832
 20
79.9149175549
 10
-70.40794392
 20
79.9040191562
  0
LWPOLYLINE
  5
53E
100
AcDbEntity
  8
ASSI
100
AcDbPolyline
 62
7
  6
CONTINUOUS
 90
8
 70
0
 10
-69.660284215
 20
79.9813846879
 10
-69.7283654867
 20
79.981664154
 10
-69.8594569571
 20
79.9783266216
 10
-69.9884728883
 20
79.9699005904
 10
-70.115241248
 20
79.9564616103
 10
-70.2395988699
 20
79.9381016414
 10
-70.3613966832
 20
79.9149175549
 10
-70.40794392
 20
79.9040191562
  0
LINE
  5
53F
100
AcDbEntity
  8
RACCORDO
100
AcDbLine
 62
250
  6
CONTINUOUS
 10
77.9749211911
 20
-75.4126933805
 11
77.9523619003
 21
-75.5498093275
  0
LINE
  5
540
100
AcDbEntity
  8
ASSI
100
AcDbLine
 62
250
  6
CONTINUOUS
 10
77.9749211911
 20
-75.4126933805
 11
77.9523619003
 21
-75.5498093275
  0
LWPOLYLINE
  5
541
100
AcDbEntity
  8
RACCORDO
100
AcDbPolyline
 62
250
  6
CONTINUOUS
 90
12
 70
0
 10
77.9523619003
 20
-75.5498093275
 10
77.9265246023
 20
-75.6829724123
 10
77.8975421036
 20
-75.8121426253
 10
77.8655983541
 20
-75.9370696525
 10
77.8307842262
 20
-76.0579359601
 10
77.7930478363
 20
-76.1753488404
 10
77.7524194972
 20
-76.2894456608
 10
77.7090363297
 20
-76.4000207829
 10
77.6629573364
 20
-76.5071619309
 10
77.6142555401
 20
-76.6108787528
 10
77.5630240879
 20
-76.711104081
 10
77.5093470732
 20
-76.8078120935
  0
LWPOLYLINE
  5
542
100
AcDbEntity
  8
ASSI
100
AcDbPolyline
 62
250
  6
CONTINUOUS
 90
12
 70
0
 10
77.9523619003
 20
-75.5498093275
 10
77.9265246023
 20
-75.6829724123
 10
77.8975421036
 20
-75.8121426253
 10
77.8655983541
 20
-75.9370696525
 10
77.8307842262
 20
-76.0579359601
 10
77.7930478363
 20
-76.1753488404
 10
77.7524194972
 20
-76.2894456608
 10
77.7090363297
 20
-76.4000207829
 10
77.6629573364
 20
-76.5071619309
 10
77.6142555401
 20
-76.6108787528
 10
77.5630240879
 20
-76.711104081
 10
77.5093470732
 20
-76.8078120935
  0
LWPOLYLINE
  5
543
100
AcDbEntity
  8
RACCORDO
100
AcDbPolyline
 62
250
  6
CONTINUOUS
 90
8
 70
0
 10
-70.2955188356
 20
79.8391063215
 10
-70.2717513911
 20
79.8456632137
 10
-70.1751423346
 20
79.868515353
 10
-70.0764372862
 20
79.8881073771
 10
-69.9758027651
 20
79.9043304851
 10
-69.8730288824
 20
79.9170976312
 10
-69.7680862057
 20
79.9263245046
 10
-69.6611230924
 20
79.931944631
  0
LWPOLYLINE
  5
544
100
AcDbEntity
  8
ASSI
100
AcDbPolyline
 62
250
  6
CONTINUOUS
 90
8
 70
0
 10
-70.2955188356
 20
79.8391063215
 10
-70.2717513911
 20
79.8456632137
 10
-70.1751423346
 20
79.868515353
 10
-70.0764372862
 20
79.8881073771
 10
-69.9758027651
 20
79.9043304851
 10
-69.8730288824
 20
79.9170976312
 10
-69.7680862057
 20
79.9263245046
 10
-69.6611230924
 20
79.931944631
  0
LWPOLYLINE
  5
545
100
AcDbEntity
  8
RACCORDO
100
AcDbPolyline
 62
7
  6
CONTINUOUS
 90
11
 70
0
 10
77.5822475244
 20
-76.7616034002
 10
77.6376743913
 20
-76.6437221605
 10
77.6902441433
 20
-76.5209068763
 10
77.7397536841
 20
-76.3931950996
 10
77.7860091366
 20
-76.2606258854
 10
77.8288269756
 20
-76.1232552406
 10
77.8680309059
 20
-75.9811585943
 10
77.9034559835
 20
-75.8344095182
 10
77.9349475809
 20
-75.6830857704
 10
77.9623588823
 20
-75.5272870486
 10
77.9706913025
 20
-75.4735379722
  0
LWPOLYLINE
  5
546
100
AcDbEntity
  8
ASSI
100
AcDbPolyline
 62
7
  6
CONTINUOUS
 90
11
 70
0
 10
77.5822475244
 20
-76.7616034002
 10
77.6376743913
 20
-76.6437221605
 10
77.6902441433
 20
-76.5209068763
 10
77.7397536841
 20
-76.3931950996
 10
77.7860091366
 20
-76.2606258854
 10
77.8288269756
 20
-76.1232552406
 10
77.8680309059
 20
-75.9811585943
 10
77.9034559835
 20
-75.8344095182
 10
77.9349475809
 20
-75.6830857704
 10
77.9623588823
 20
-75.5272870486
 10
77.9706913025
 20
-75.4735379722
  0
LWPOLYLINE
  5
547
100
AcDbEntity
  8
RACCORDO
100
AcDbPolyline
 62
7
  6
CONTINUOUS
 90
3
 70
0
 10
77.4964613435
 20
-76.9251065774
 10
77.5241769461
 20
-76.8745189647
 10
77.5822475244
 20
-76.7616034002
  0
LWPOLYLINE
  5
548
100
AcDbEntity
  8
ASSI
100
AcDbPolyline
 62
7
  6
CONTINUOUS
 90
3
 70
0
 10
77.4964613435
 20
-76.9251065774
 10
77.5241769461
 20
-76.8745189647
 10
77.5822475244
 20
-76.7616034002
  0
LINE
  5
549
100
AcDbEntity
  8
RACCORDO
100
AcDbLine
 62
250
  6
CONTINUOUS
 10
77.5093470732
 20
-76.8078120935
 11
77.4550886644
 21
-76.8981969965
  0
LINE
  5
54A
100
AcDbEntity
  8
ASSI
100
AcDbLine
 62
250
  6
CONTINUOUS
 10
77.5093470732
 20
-76.8078120935
 11
77.4550886644
 21
-76.8981969965
  0
LINE
  5
54B
100
AcDbEntity
  8
RACCORDO
100
AcDbLine
 62
250
  6
CONTINUOUS
 10
77.4550886644
 20
-76.8981969965
 11
77.3985904142
 21
-76.9854923675
  0
LINE
  5
54C
100
AcDbEntity
  8
ASSI
100
AcDbLine
 62
250
  6
CONTINUOUS
 10
77.4550886644
 20
-76.8981969965
 11
77.3985904142
 21
-76.9854923675
  0
LWPOLYLINE
  5
54D
100
AcDbEntity
  8
RACCORDO
100
AcDbPolyline
 62
250
  6
CONTINUOUS
 90
7
 70
0
 10
77.3985904142
 20
-76.9854923675
 10
77.3399162956
 20
-77.069675506
 10
77.2792949922
 20
-77.1505231882
 10
77.2166389043
 20
-77.2282214064
 10
77.1514827512
 20
-77.30334326
 10
77.0838274727
 20
-77.3759199355
 10
77.05568239
 20
-77.4039807895
  0
LWPOLYLINE
  5
54E
100
AcDbEntity
  8
ASSI
100
AcDbPolyline
 62
250
  6
CONTINUOUS
 90
7
 70
0
 10
77.3985904142
 20
-76.9854923675
 10
77.3399162956
 20
-77.069675506
 10
77.2792949922
 20
-77.1505231882
 10
77.2166389043
 20
-77.2282214064
 10
77.1514827512
 20
-77.30334326
 10
77.0838274727
 20
-77.3759199355
 10
77.05568239
 20
-77.4039807895
  0
LWPOLYLINE
  5
54F
100
AcDbEntity
  8
RACCORDO
100
AcDbPolyline
 62
250
  6
CONTINUOUS
 90
16
 70
0
 10
75.0432892863
 20
-79.2003467963
 10
75.0520136867
 20
-79.1961108823
 10
75.0771846717
 20
-79.1813955754
 10
75.100497644
 20
-79.163834603
 10
75.1218525474
 20
-79.1434864917
 10
75.1411595346
 20
-79.1204182858
 10
75.1583819306
 20
-79.094683739
 10
75.1734360059
 20
-79.0663697275
 10
75.1862480188
 20
-79.0355738145
 10
75.196805941
 20
-79.002381022
 10
75.2050454677
 20
-78.9669100981
 10
75.2109145425
 20
-78.9292848382
 10
75.2144314812
 20
-78.8896126689
 10
75.21557874
 20
-78.8480271096
 10
75.2143023342
 20
-78.8046865713
 10
75.2105778629
 20
-78.7597474271
  0
LWPOLYLINE
  5
550
100
AcDbEntity
  8
ASSI
100
AcDbPolyline
 62
250
  6
CONTINUOUS
 90
16
 70
0
 10
75.0432892863
 20
-79.2003467963
 10
75.0520136867
 20
-79.1961108823
 10
75.0771846717
 20
-79.1813955754
 10
75.100497644
 20
-79.163834603
 10
75.1218525474
 20
-79.1434864917
 10
75.1411595346
 20
-79.1204182858
 10
75.1583819306
 20
-79.094683739
 10
75.1734360059
 20
-79.0663697275
 10
75.1862480188
 20
-79.0355738145
 10
75.196805941
 20
-79.002381022
 10
75.2050454677
 20
-78.9669100981
 10
75.2109145425
 20
-78.9292848382
 10
75.2144314812
 20
-78.8896126689
 10
75.21557874
 20
-78.8480271096
 10
75.2143023342
 20
-78.8046865713
 10
75.2105778629
 20
-78.7597474271
  0
LINE
  5
551
100
AcDbEntity
  8
RACCORDO
100
AcDbLine
 62
250
  6
CONTINUOUS
 10
75.2105778629
 20
-78.7597474271
 11
77.05568239
 21
-77.9066041006
  0
LINE
  5
552
100
AcDbEntity
  8
ASSI
100
AcDbLine
 62
250
  6
CONTINUOUS
 10
75.2105778629
 20
-78.7597474271
 11
77.05568239
 21
-77.9066041006
  0
LINE
  5
553
100
AcDbEntity
  8
RACCORDO
100
AcDbLine
 62
7
  6
CONTINUOUS
 10
75.0430204959
 20
-79.2004710809
 11
76.8220897323
 21
-78.3778612916
  0
LINE
  5
554
100
AcDbEntity
  8
ASSI
100
AcDbLine
 62
7
  6
CONTINUOUS
 10
75.0430204959
 20
-79.2004710809
 11
76.8220897323
 21
-78.3778612916
  0
LWPOLYLINE
  5
555
100
AcDbEntity
  8
RACCORDO
100
AcDbPolyline
 62
7
  6
CONTINUOUS
 90
8
 70
0
 10
77.05568239
 20
-77.5338816744
 10
77.0923073523
 20
-77.4946844317
 10
77.1730945683
 20
-77.4006330903
 10
77.2509757674
 20
-77.301966909
 10
77.3257906511
 20
-77.1987655263
 10
77.3973882025
 20
-77.0911250279
 10
77.4656149897
 20
-76.9791586396
 10
77.4964453855
 20
-76.9251357125
  0
LWPOLYLINE
  5
556
100
AcDbEntity
  8
ASSI
100
AcDbPolyline
 62
7
  6
CONTINUOUS
 90
8
 70
0
 10
77.05568239
 20
-77.5338816744
 10
77.0923073523
 20
-77.4946844317
 10
77.1730945683
 20
-77.4006330903
 10
77.2509757674
 20
-77.301966909
 10
77.3257906511
 20
-77.1987655263
 10
77.3973882025
 20
-77.0911250279
 10
77.4656149897
 20
-76.9791586396
 10
77.4964453855
 20
-76.9251357125
  0
ELLIPSE
  5
557
100
AcDbEntity
  8
RACCORDO
100
AcDbEllipse
 62
7
  6
CONTINUOUS
 10
76.3476052137
 20
-77.4955297894
 30
0.0
 11
-0.5013954353
 21
0.868386877
 31
0.0
 40
0.5757524875
 41
-3.1938908371
 42
-2.3576120761
  0
ELLIPSE
  5
558
100
AcDbEntity
  8
RACCORDO
100
AcDbEllipse
 62
7
  6
CONTINUOUS
 10
76.3476052137
 20
-5.6483863911
 30
0.0
 11
-0.5000243598
 21
0.8660113392
 31
0.0
 40
0.5789151826
 41
-2.3548735497
 42
-0.7868162787
  0
ELLIPSE
  5
559
100
AcDbEntity
  8
0
100
AcDbEllipse
 62
7
  6
CONTINUOUS
 10
121.3906108845
 20
53.097291955
 30
0.0
 11
111.5409348807
 21
128.3466174189
 31
0.0
 40
0.4029729773
 41
-3.7734299492
 42
-3.7672052666
  0
ELLIPSE
  5
55A
100
AcDbEntity
  8
0
100
AcDbEllipse
 62
7
  6
CONTINUOUS
 10
121.4759759009
 20
53.0480032644
 30
0.0
 11
112.236268736
 21
127.9318388222
 31
0.0
 40
0.3975597956
 41
-3.7637364601
 42
-3.7603859388
  0
ELLIPSE
  5
55B
100
AcDbEntity
  8
0
100
AcDbEllipse
 62
7
  6
CONTINUOUS
 10
116.5305624813
 20
55.9034229922
 30
0.0
 11
27.6951435486
 21
170.7397539322
 31
0.0
 40
0.7069483398
 41
-4.1183397783
 42
-4.1015657091
  0
ELLIPSE
  5
55C
100
AcDbEntity
  8
0
100
AcDbEllipse
 62
7
  6
CONTINUOUS
 10
116.9681367907
 20
55.6507730701
 30
0.0
 11
91.793176838
 21
140.2511436908
 31
0.0
 40
0.5363054271
 41
-3.8203221232
 42
-3.8093664661
  0
ELLIPSE
  5
55D
100
AcDbEntity
  8
0
100
AcDbEllipse
 62
7
  6
CONTINUOUS
 10
120.8380036204
 20
53.4163604635
 30
0.0
 11
119.630873242
 21
123.5739552196
 31
0.0
 40
0.3382731367
 41
-3.7657029519
 42
-3.7547929514
  0
ELLIPSE
  5
55E
100
AcDbEntity
  8
0
100
AcDbEllipse
 62
7
  6
CONTINUOUS
 10
116.8979031082
 20
55.6913251182
 30
0.0
 11
70.634700218
 21
152.2499801326
 31
0.0
 40
0.6282888553
 41
-3.9123018102
 42
-3.8955277411
  0
ELLIPSE
  5
55F
100
AcDbEntity
  8
0
100
AcDbEllipse
 62
7
  6
CONTINUOUS
 10
113.334518629
 20
57.7487786567
 30
0.0
 11
11.1145125674
 21
175.7752122584
 31
0.0
 40
0.7158559188
 41
-4.1973507117
 42
-4.188040463
  0
ELLIPSE
  5
560
100
AcDbEntity
  8
0
100
AcDbEllipse
 62
7
  6
CONTINUOUS
 10
117.7120702488
 20
55.2212352151
 30
0.0
 11
114.8996317544
 21
126.3505868295
 31
0.0
 40
0.3765254089
 41
-3.7743605251
 42
-3.7575864559
  0
ELLIPSE
  5
561
100
AcDbEntity
  8
0
100
AcDbEllipse
 62
7
  6
CONTINUOUS
 10
111.5213474795
 20
58.7956809541
 30
0.0
 11
34.8790515577
 21
168.2218372011
 31
0.0
 40
0.7002280922
 41
-4.083553027
 42
-4.0720093448
  0
ELLIPSE
  5
562
100
AcDbEntity
  8
DRAFT
100
AcDbEllipse
 62
7
  6
CONTINUOUS
 10
72.8472491937
 20
-37.069183432
 30
0.0
 11
5.1478346794
 21
0.9575482268
 31
0.0
 40
0.6665647798
 41
-0.7006982462
 42
-0.2750682551
  0
ELLIPSE
  5
563
100
AcDbEntity
  8
0
100
AcDbEllipse
 62
7
  6
CONTINUOUS
 10
-53.7936511524
 20
14.2203652865
 30
0.0
 11
-0.4000194878
 21
0.6928090714
 31
0.0
 40
0.5789151826
 41
0.7867191038
 42
2.3547763749
  0
ELLIPSE
  5
564
100
AcDbEntity
  8
RACCORDO
100
AcDbEllipse
 62
7
  6
CONTINUOUS
 10
-70.7286644828
 20
79.2716084331
 30
0.0
 11
-0.5013954353
 21
0.868386877
 31
0.0
 40
0.5757524875
 41
-0.7840766935
 42
0.0522981469
  0
ELLIPSE
  5
565
100
AcDbEntity
  8
0
100
AcDbEllipse
 62
7
  6
CONTINUOUS
 10
5.6404037409
 20
-20.3848991888
 30
0.0
 11
-0.0054673646
 21
0.3559778749
 31
0.0
 40
0.0145741356
 41
-3.1312694411
 42
-2.3823999735
  0
ELLIPSE
  5
566
100
AcDbEntity
  8
0
100
AcDbEllipse
 62
7
  6
CONTINUOUS
 10
116.587379992
 20
55.8706172737
 30
0.0
 11
39.144967187
 21
166.622327116
 31
0.0
 40
0.6952787603
 41
-4.0582033802
 42
-4.0519786976
  0
ELLIPSE
  5
567
100
AcDbEntity
  8
0
100
AcDbEllipse
 62
7
  6
CONTINUOUS
 10
116.4673851851
 20
55.9399007713
 30
0.0
 11
36.2948103059
 21
167.6997948705
 31
0.0
 40
0.6986691259
 41
-4.0632503059
 42
-4.0598997846
  0
ELLIPSE
  5
568
100
AcDbEntity
  8
0
100
AcDbEllipse
 62
7
  6
CONTINUOUS
 10
121.3275752009
 20
53.1336879686
 30
0.0
 11
114.2761852079
 21
126.7196181975
 31
0.0
 40
0.3814884295
 41
-3.7749362596
 42
-3.7581621904
  0
ELLIPSE
  5
569
100
AcDbEntity
  8
0
100
AcDbEllipse
 62
7
  6
CONTINUOUS
 10
116.7934589343
 20
55.7516298751
 30
0.0
 11
94.077182749
 21
138.8827821588
 31
0.0
 40
0.5232362147
 41
-3.8185477191
 42
-3.8017736499
  0
ELLIPSE
  5
56A
100
AcDbEntity
  8
0
100
AcDbEllipse
 62
7
  6
CONTINUOUS
 10
112.94450493
 20
57.9739676785
 30
0.0
 11
10.3267110211
 21
175.9897840662
 31
0.0
 40
0.7160762854
 41
-4.1952272933
 42
-4.1842716361
  0
ELLIPSE
  5
56B
100
AcDbEntity
  8
0
100
AcDbEllipse
 62
7
  6
CONTINUOUS
 10
116.7790152457
 20
55.7599694799
 30
0.0
 11
74.7936860181
 21
150.0170875047
 31
0.0
 40
0.6139811386
 41
-3.8878369839
 42
-3.8769269833
  0
ELLIPSE
  5
56C
100
AcDbEntity
  8
0
100
AcDbEllipse
 62
7
  6
CONTINUOUS
 10
120.4210814758
 20
53.6570860845
 30
0.0
 11
119.1887867979
 21
123.8315627285
 31
0.0
 40
0.3418816387
 41
-3.7717111746
 42
-3.7624009259
  0
ELLIPSE
  5
56D
100
AcDbEntity
  8
0
100
AcDbEllipse
 62
7
  6
CONTINUOUS
 10
116.9971638862
 20
55.634013189
 30
0.0
 11
111.9792925869
 21
128.0850400428
 31
0.0
 40
0.3995644544
 41
-3.7774770381
 42
-3.7659333559
  0
ELLIPSE
  5
56E
100
AcDbEntity
  8
0
100
AcDbEllipse
 62
7
  6
CONTINUOUS
 10
110.7366622199
 20
59.2487483886
 30
0.0
 11
25.1749394473
 21
171.5727221992
 31
0.0
 40
0.7088651675
 41
-4.1304804737
 42
-4.1137064045
  0
ELLIPSE
  5
56F
100
AcDbEntity
  8
0
100
AcDbEllipse
 62
7
  6
CONTINUOUS
 10
116.587379992
 20
55.8706172737
 30
0.0
 11
39.1098980172
 21
166.4730536049
 31
0.0
 40
0.6952787603
 41
-4.0581356351
 42
-4.0519053363
  0
ELLIPSE
  5
570
100
AcDbEntity
  8
DRAFT
100
AcDbEllipse
 62
7
  6
CONTINUOUS
 10
72.8472491937
 20
-42.4759626029
 30
0.0
 11
5.1774686765
 21
-0.6785096723
 31
0.0
 40
0.4693271057
 41
-0.5159119978
 42
-0.0902820066
  0
ELLIPSE
  5
571
100
AcDbEntity
  8
0
100
AcDbEllipse
 62
7
  6
CONTINUOUS
 10
121.3275752009
 20
53.1336879686
 30
0.0
 11
114.1738075272
 21
126.6060927015
 31
0.0
 40
0.3814884295
 41
-3.7739014683
 42
-3.7580834622
  0
ELLIPSE
  5
572
100
AcDbEntity
  8
0
100
AcDbEllipse
 62
7
  6
CONTINUOUS
 10
116.4673851851
 20
55.9399007713
 30
0.0
 11
36.2622945329
 21
167.5495560783
 31
0.0
 40
0.6986691259
 41
-4.0631746043
 42
-4.0598210564
  0
ELLIPSE
  5
573
100
AcDbEntity
  8
0
100
AcDbEllipse
 62
7
  6
CONTINUOUS
 10
120.4210814758
 20
53.6570860845
 30
0.0
 11
119.0820080186
 21
123.7206245819
 31
0.0
 40
0.3418816387
 41
-3.7706765582
 42
-3.7623289378
  0
ELLIPSE
  5
574
100
AcDbEntity
  8
0
100
AcDbEllipse
 62
7
  6
CONTINUOUS
 10
116.7790152457
 20
55.7599694799
 30
0.0
 11
74.7266798953
 21
149.8826902858
 31
0.0
 40
0.6139811386
 41
-3.8877681049
 42
-3.8768482551
  0
ELLIPSE
  5
575
100
AcDbEntity
  8
0
100
AcDbEllipse
 62
7
  6
CONTINUOUS
 10
112.94450493
 20
57.9739676785
 30
0.0
 11
10.3174595334
 21
175.8321184433
 31
0.0
 40
0.7160762854
 41
-4.1951584555
 42
-4.1843514627
  0
ELLIPSE
  5
576
100
AcDbEntity
  8
0
100
AcDbEllipse
 62
7
  6
CONTINUOUS
 10
116.7934589343
 20
55.7516298751
 30
0.0
 11
93.9929009386
 21
138.7583599347
 31
0.0
 40
0.5232362147
 41
-3.8175129253
 42
-3.8016949217
  0
ELLIPSE
  5
577
100
AcDbEntity
  8
0
100
AcDbEllipse
 62
7
  6
CONTINUOUS
 10
110.7366622199
 20
59.2487483886
 30
0.0
 11
25.1523857375
 21
171.4190137311
 31
0.0
 40
0.7088651675
 41
-4.1294456824
 42
-4.1136276763
  0
ELLIPSE
  5
578
100
AcDbEntity
  8
0
100
AcDbEllipse
 62
7
  6
CONTINUOUS
 10
116.9971638862
 20
55.634013189
 30
0.0
 11
111.878972645
 21
127.9702912935
 31
0.0
 40
0.3995644544
 41
-3.7764422127
 42
-3.7658593517
  0
ELLIPSE
  5
579
100
AcDbEntity
  8
ASSI
100
AcDbEllipse
 62
7
  6
CONTINUOUS
 10
76.3476052137
 20
-77.4955297894
 30
0.0
 11
-0.5013954353
 21
0.868386877
 31
0.0
 40
0.5757524875
 41
-3.1938908371
 42
-2.3576120761
  0
ELLIPSE
  5
57A
100
AcDbEntity
  8
ASSI
100
AcDbEllipse
 62
7
  6
CONTINUOUS
 10
76.3476052137
 20
-5.6483863911
 30
0.0
 11
-0.5000243598
 21
0.8660113392
 31
0.0
 40
0.5789151826
 41
-2.3548735497
 42
-0.7868162787
  0
ELLIPSE
  5
57B
100
AcDbEntity
  8
ASSI
100
AcDbEllipse
 62
7
  6
CONTINUOUS
 10
121.3906108845
 20
53.097291955
 30
0.0
 11
111.5409348807
 21
128.3466174189
 31
0.0
 40
0.4029729773
 41
-3.7734299492
 42
-3.7672052666
  0
ELLIPSE
  5
57C
100
AcDbEntity
  8
ASSI
100
AcDbEllipse
 62
7
  6
CONTINUOUS
 10
121.4759759009
 20
53.0480032644
 30
0.0
 11
112.236268736
 21
127.9318388222
 31
0.0
 40
0.3975597956
 41
-3.7637364601
 42
-3.7603859388
  0
ELLIPSE
  5
57D
100
AcDbEntity
  8
ASSI
100
AcDbEllipse
 62
7
  6
CONTINUOUS
 10
116.5305624813
 20
55.9034229922
 30
0.0
 11
27.6951435486
 21
170.7397539322
 31
0.0
 40
0.7069483398
 41
-4.1183397783
 42
-4.1015657091
  0
ELLIPSE
  5
57E
100
AcDbEntity
  8
ASSI
100
AcDbEllipse
 62
7
  6
CONTINUOUS
 10
116.9681367907
 20
55.6507730701
 30
0.0
 11
91.793176838
 21
140.2511436908
 31
0.0
 40
0.5363054271
 41
-3.8203221232
 42
-3.8093664661
  0
ELLIPSE
  5
57F
100
AcDbEntity
  8
ASSI
100
AcDbEllipse
 62
7
  6
CONTINUOUS
 10
120.8380036204
 20
53.4163604635
 30
0.0
 11
119.630873242
 21
123.5739552196
 31
0.0
 40
0.3382731367
 41
-3.7657029519
 42
-3.7547929514
  0
ELLIPSE
  5
580
100
AcDbEntity
  8
ASSI
100
AcDbEllipse
 62
7
  6
CONTINUOUS
 10
116.8979031082
 20
55.6913251182
 30
0.0
 11
70.634700218
 21
152.2499801326
 31
0.0
 40
0.6282888553
 41
-3.9123018102
 42
-3.8955277411
  0
ELLIPSE
  5
581
100
AcDbEntity
  8
ASSI
100
AcDbEllipse
 62
7
  6
CONTINUOUS
 10
113.334518629
 20
57.7487786567
 30
0.0
 11
11.1145125674
 21
175.7752122584
 31
0.0
 40
0.7158559188
 41
-4.1973507117
 42
-4.188040463
  0
ELLIPSE
  5
582
100
AcDbEntity
  8
ASSI
100
AcDbEllipse
 62
7
  6
CONTINUOUS
 10
117.7120702488
 20
55.2212352151
 30
0.0
 11
114.8996317544
 21
126.3505868295
 31
0.0
 40
0.3765254089
 41
-3.7743605251
 42
-3.7575864559
  0
ELLIPSE
  5
583
100
AcDbEntity
  8
ASSI
100
AcDbEllipse
 62
7
  6
CONTINUOUS
 10
111.5213474795
 20
58.7956809541
 30
0.0
 11
34.8790515577
 21
168.2218372011
 31
0.0
 40
0.7002280922
 41
-4.083553027
 42
-4.0720093448
  0
ELLIPSE
  5
584
100
AcDbEntity
  8
ASSI
100
AcDbEllipse
 62
7
  6
CONTINUOUS
 10
72.8472491937
 20
-37.069183432
 30
0.0
 11
5.1478346794
 21
0.9575482268
 31
0.0
 40
0.6665647798
 41
-0.7006982462
 42
-0.2750682551
  0
ELLIPSE
  5
585
100
AcDbEntity
  8
ASSI
100
AcDbEllipse
 62
7
  6
CONTINUOUS
 10
-53.7936511524
 20
14.2203652865
 30
0.0
 11
-0.4000194878
 21
0.6928090714
 31
0.0
 40
0.5789151826
 41
0.7867191038
 42
2.3547763749
  0
ELLIPSE
  5
586
100
AcDbEntity
  8
ASSI
100
AcDbEllipse
 62
7
  6
CONTINUOUS
 10
-70.7286644828
 20
79.2716084331
 30
0.0
 11
-0.5013954353
 21
0.868386877
 31
0.0
 40
0.5757524875
 41
-0.7840766935
 42
0.0522981469
  0
ELLIPSE
  5
587
100
AcDbEntity
  8
ASSI
100
AcDbEllipse
 62
7
  6
CONTINUOUS
 10
5.6404037409
 20
-20.3848991888
 30
0.0
 11
-0.0054673646
 21
0.3559778749
 31
0.0
 40
0.0145741356
 41
-3.1312694411
 42
-2.3823999735
  0
ELLIPSE
  5
588
100
AcDbEntity
  8
ASSI
100
AcDbEllipse
 62
7
  6
CONTINUOUS
 10
116.587379992
 20
55.8706172737
 30
0.0
 11
39.144967187
 21
166.622327116
 31
0.0
 40
0.6952787603
 41
-4.0582033802
 42
-4.0519786976
  0
ELLIPSE
  5
589
100
AcDbEntity
  8
ASSI
100
AcDbEllipse
 62
7
  6
CONTINUOUS
 10
116.4673851851
 20
55.9399007713
 30
0.0
 11
36.2948103059
 21
167.6997948705
 31
0.0
 40
0.6986691259
 41
-4.0632503059
 42
-4.0598997846
  0
ELLIPSE
  5
58A
100
AcDbEntity
  8
ASSI
100
AcDbEllipse
 62
7
  6
CONTINUOUS
 10
121.3275752009
 20
53.1336879686
 30
0.0
 11
114.2761852079
 21
126.7196181975
 31
0.0
 40
0.3814884295
 41
-3.7749362596
 42
-3.7581621904
  0
ELLIPSE
  5
58B
100
AcDbEntity
  8
ASSI
100
AcDbEllipse
 62
7
  6
CONTINUOUS
 10
116.7934589343
 20
55.7516298751
 30
0.0
 11
94.077182749
 21
138.8827821588
 31
0.0
 40
0.5232362147
 41
-3.8185477191
 42
-3.8017736499
  0
ELLIPSE
  5
58C
100
AcDbEntity
  8
ASSI
100
AcDbEllipse
 62
7
  6
CONTINUOUS
 10
112.94450493
 20
57.9739676785
 30
0.0
 11
10.3267110211
 21
175.9897840662
 31
0.0
 40
0.7160762854
 41
-4.1952272933
 42
-4.1842716361
  0
ELLIPSE
  5
58D
100
AcDbEntity
  8
ASSI
100
AcDbEllipse
 62
7
  6
CONTINUOUS
 10
116.7790152457
 20
55.7599694799
 30
0.0
 11
74.7936860181
 21
150.0170875047
 31
0.0
 40
0.6139811386
 41
-3.8878369839
 42
-3.8769269833
  0
ELLIPSE
  5
58E
100
AcDbEntity
  8
ASSI
100
AcDbEllipse
 62
7
  6
CONTINUOUS
 10
120.4210814758
 20
53.6570860845
 30
0.0
 11
119.1887867979
 21
123.8315627285
 31
0.0
 40
0.3418816387
 41
-3.7717111746
 42
-3.7624009259
  0
ELLIPSE
  5
58F
100
AcDbEntity
  8
ASSI
100
AcDbEllipse
 62
7
  6
CONTINUOUS
 10
116.9971638862
 20
55.634013189
 30
0.0
 11
111.9792925869
 21
128.0850400428
 31
0.0
 40
0.3995644544
 41
-3.7774770381
 42
-3.7659333559
  0
ELLIPSE
  5
590
100
AcDbEntity
  8
ASSI
100
AcDbEllipse
 62
7
  6
CONTINUOUS
 10
116.587379992
 20
55.8706172737
 30
0.0
 11
39.1098980172
 21
166.4730536049
 31
0.0
 40
0.6952787603
 41
-4.0581356351
 42
-4.0519053363
  0
ELLIPSE
  5
591
100
AcDbEntity
  8
ASSI
100
AcDbEllipse
 62
7
  6
CONTINUOUS
 10
110.7366622199
 20
59.2487483886
 30
0.0
 11
25.1749394473
 21
171.5727221992
 31
0.0
 40
0.7088651675
 41
-4.1304804737
 42
-4.1137064045
  0
ELLIPSE
  5
592
100
AcDbEntity
  8
ASSI
100
AcDbEllipse
 62
7
  6
CONTINUOUS
 10
121.3275752009
 20
53.1336879686
 30
0.0
 11
114.1738075272
 21
126.6060927015
 31
0.0
 40
0.3814884295
 41
-3.7739014683
 42
-3.7580834622
  0
ELLIPSE
  5
593
100
AcDbEntity
  8
ASSI
100
AcDbEllipse
 62
7
  6
CONTINUOUS
 10
116.4673851851
 20
55.9399007713
 30
0.0
 11
36.2622945329
 21
167.5495560783
 31
0.0
 40
0.6986691259
 41
-4.0631746043
 42
-4.0598210564
  0
ELLIPSE
  5
594
100
AcDbEntity
  8
ASSI
100
AcDbEllipse
 62
7
  6
CONTINUOUS
 10
120.4210814758
 20
53.6570860845
 30
0.0
 11
119.0820080186
 21
123.7206245819
 31
0.0
 40
0.3418816387
 41
-3.7706765582
 42
-3.7623289378
  0
ELLIPSE
  5
595
100
AcDbEntity
  8
ASSI
100
AcDbEllipse
 62
7
  6
CONTINUOUS
 10
116.7790152457
 20
55.7599694799
 30
0.0
 11
74.7266798953
 21
149.8826902858
 31
0.0
 40
0.6139811386
 41
-3.8877681049
 42
-3.8768482551
  0
ELLIPSE
  5
596
100
AcDbEntity
  8
ASSI
100
AcDbEllipse
 62
7
  6
CONTINUOUS
 10
112.94450493
 20
57.9739676785
 30
0.0
 11
10.3174595334
 21
175.8321184433
 31
0.0
 40
0.7160762854
 41
-4.1951584555
 42
-4.1843514627
  0
ELLIPSE
  5
597
100
AcDbEntity
  8
ASSI
100
AcDbEllipse
 62
7
  6
CONTINUOUS
 10
116.7934589343
 20
55.7516298751
 30
0.0
 11
93.9929009386
 21
138.7583599347
 31
0.0
 40
0.5232362147
 41
-3.8175129253
 42
-3.8016949217
  0
ELLIPSE
  5
598
100
AcDbEntity
  8
ASSI
100
AcDbEllipse
 62
7
  6
CONTINUOUS
 10
110.7366622199
 20
59.2487483886
 30
0.0
 11
25.1523857375
 21
171.4190137311
 31
0.0
 40
0.7088651675
 41
-4.1294456824
 42
-4.1136276763
  0
ELLIPSE
  5
599
100
AcDbEntity
  8
ASSI
100
AcDbEllipse
 62
7
  6
CONTINUOUS
 10
116.9971638862
 20
55.634013189
 30
0.0
 11
111.878972645
 21
127.9702912935
 31
0.0
 40
0.3995644544
 41
-3.7764422127
 42
-3.7658593517
  0
ELLIPSE
  5
59A
100
AcDbEntity
  8
ASSI
100
AcDbEllipse
 62
7
  6
CONTINUOUS
 10
72.8472491937
 20
-42.4759626029
 30
0.0
 11
5.1774686765
 21
-0.6785096723
 31
0.0
 40
0.4693271057
 41
-0.5159119978
 42
-0.0902820066
  0
ELLIPSE
  5
59B
100
AcDbEntity
  8
0
100
AcDbEllipse
 62
250
  6
CONTINUOUS
 10
76.4761607308
 20
102.2730267355
 30
0.0
 11
93.7813298849
 21
139.0604789373
 31
0.0
 40
0.5249660292
 41
-3.9678902629
 42
-3.962186259
  0
ELLIPSE
  5
59C
100
AcDbEntity
  8
0
100
AcDbEllipse
 62
250
  6
CONTINUOUS
 10
77.7125201968
 20
101.5591682751
 30
0.0
 11
93.7815115889
 21
139.060369839
 31
0.0
 40
0.5249649702
 41
-3.9621856681
 42
-3.9600472797
  0
ELLIPSE
  5
59D
100
AcDbEntity
  8
0
100
AcDbEllipse
 62
250
  6
CONTINUOUS
 10
76.2288775789
 20
102.4158049282
 30
0.0
 11
93.7814256506
 21
139.0604214378
 31
0.0
 40
0.524965471
 41
-3.9768075958
 42
-3.9600475592
  0
ELLIPSE
  5
59E
100
AcDbEntity
  8
0
100
AcDbEllipse
 62
250
  6
CONTINUOUS
 10
77.7125472279
 20
101.5591526677
 30
0.0
 11
93.7812156846
 21
139.0605475051
 31
0.0
 40
0.5249666948
 41
-3.9768082786
 42
-3.9746674414
  0
ELLIPSE
  5
59F
100
AcDbEntity
  8
0
100
AcDbEllipse
 62
250
  6
CONTINUOUS
 10
74.3331079329
 20
103.5103985623
 30
0.0
 11
93.7813828721
 21
139.0604471228
 31
0.0
 40
0.5249657204
 41
-3.9768077349
 42
-3.9750236747
  0
ELLIPSE
  5
5A0
100
AcDbEntity
  8
0
100
AcDbEllipse
 62
250
  6
CONTINUOUS
 10
75.8991818689
 20
102.6061670991
 30
0.0
 11
93.7813828721
 21
139.0604471228
 31
0.0
 40
0.5249657204
 41
-3.9768077349
 42
-3.9750236747
  0
ELLIPSE
  5
5A1
100
AcDbEntity
  8
0
100
AcDbEllipse
 62
250
  6
CONTINUOUS
 10
75.2397816373
 20
102.9868965287
 30
0.0
 11
93.7813884713
 21
139.060443761
 31
0.0
 40
0.5249656877
 41
-3.9750236565
 42
-3.9600476801
  0
ELLIPSE
  5
5A2
100
AcDbEntity
  8
0
100
AcDbEllipse
 62
250
  6
CONTINUOUS
 10
74.9925030958
 20
103.1296720594
 30
0.0
 11
93.7814307433
 21
139.0604183801
 31
0.0
 40
0.5249654414
 41
-3.9750235191
 42
-3.9600475426
  0
ELLIPSE
  5
5A3
100
AcDbEntity
  8
0
100
AcDbEllipse
 62
250
  6
CONTINUOUS
 10
76.9296956849
 20
102.0111613371
 30
0.0
 11
43.5084879569
 21
164.902888116
 31
0.0
 40
0.6893966054
 41
-4.1956584687
 42
-4.1945882917
  0
ELLIPSE
  5
5A4
100
AcDbEntity
  8
0
100
AcDbEllipse
 62
250
  6
CONTINUOUS
 10
88.1814393184
 20
95.5145455807
 30
0.0
 11
-170.0841982385
 21
226.799782346
 31
0.0
 40
0.4795811407
 41
1.4291115819
 42
1.4298250883
  0
ELLIPSE
  5
5A5
100
AcDbEntity
  8
0
100
AcDbEllipse
 62
250
  6
CONTINUOUS
 10
112.4989049339
 20
81.4739457037
 30
0.0
 11
461.0244427499
 21
-392.1335419887
 31
0.0
 40
0.2133863435
 41
-1.7310568387
 42
-1.7307000725
  0
ELLIPSE
  5
5A6
100
AcDbEntity
  8
0
100
AcDbEllipse
 62
250
  6
CONTINUOUS
 10
33.9830714806
 20
126.8080039051
 30
0.0
 11
488.0738691873
 21
-120.9774792929
 31
0.0
 40
0.1923204037
 41
-1.6838915183
 42
-1.6835347521
  0
ELLIPSE
  5
5A7
100
AcDbEntity
  8
0
100
AcDbEllipse
 62
250
  6
CONTINUOUS
 10
58.3004682525
 20
112.7674437776
 30
0.0
 11
218.7221939969
 21
64.4788583997
 31
0.0
 40
0.1731833699
 41
-2.1096549856
 42
-2.1089414792
  0
ELLIPSE
  5
5A8
100
AcDbEntity
  8
0
100
AcDbEllipse
 62
250
  6
CONTINUOUS
 10
66.3374477398
 20
108.1269925486
 30
0.0
 11
146.6647555962
 21
108.3636281683
 31
0.0
 40
0.1263825083
 41
2.3279532215
 42
2.3290233985
  0
ELLIPSE
  5
5A9
100
AcDbEntity
  8
0
100
AcDbEllipse
 62
250
  6
CONTINUOUS
 10
70.3043978474
 20
105.8365252741
 30
0.0
 11
115.7634381698
 21
125.8404559676
 31
0.0
 40
0.3696139229
 41
-3.9266637322
 42
-3.925236978
  0
ELLIPSE
  5
5AA
100
AcDbEntity
  8
0
100
AcDbEllipse
 62
250
  6
CONTINUOUS
 10
72.6433950705
 20
104.486017592
 30
0.0
 11
93.7813932274
 21
139.0604409053
 31
0.0
 40
0.52496566
 41
-3.9710996602
 42
-3.9657507683
  0
ELLIPSE
  5
5AB
100
AcDbEntity
  8
0
100
AcDbEllipse
 62
250
  6
CONTINUOUS
 10
74.8277971053
 20
103.2247712341
 30
0.0
 11
59.868152393
 21
157.6785405544
 31
0.0
 40
0.6584582487
 41
-4.1087558034
 42
-4.1073298058
  0
ELLIPSE
  5
5AC
100
AcDbEntity
  8
0
100
AcDbEllipse
 62
250
  6
CONTINUOUS
 10
78.3998736489
 20
101.1622990064
 30
0.0
 11
-38.3857388891
 21
186.2700464849
 31
0.0
 40
0.7004394024
 41
-4.5580361462
 42
-4.5569667455
  0
ELLIPSE
  5
5AD
100
AcDbEntity
  8
0
100
AcDbEllipse
 62
250
  6
CONTINUOUS
 10
85.4408922056
 20
97.0969031364
 30
0.0
 11
-170.0852683798
 21
226.8002976472
 31
0.0
 40
0.4795792654
 41
1.440165599
 42
1.4408784883
  0
ELLIPSE
  5
5AE
100
AcDbEntity
  8
0
100
AcDbEllipse
 62
250
  6
CONTINUOUS
 10
106.3580572076
 20
85.0195942179
 30
0.0
 11
461.0224715011
 21
-392.132382677
 31
0.0
 40
0.2133871896
 41
-1.7189325996
 42
-1.7185761718
  0
ELLIPSE
  5
5AF
100
AcDbEntity
  8
0
100
AcDbEllipse
 62
250
  6
CONTINUOUS
 10
40.1237713558
 20
123.2624407582
 30
0.0
 11
488.0738691874
 21
-120.9774792929
 31
0.0
 40
0.1923204037
 41
-1.6960155631
 42
-1.6956591353
  0
ELLIPSE
  5
5B0
100
AcDbEntity
  8
0
100
AcDbEllipse
 62
250
  6
CONTINUOUS
 10
61.0410924721
 20
111.1850417013
 30
0.0
 11
218.7221939969
 21
64.4788583997
 31
0.0
 40
0.1731833699
 41
-2.1207090962
 42
-2.1199962069
  0
ELLIPSE
  5
5B1
100
AcDbEntity
  8
0
100
AcDbEllipse
 62
250
  6
CONTINUOUS
 10
70.8985082442
 20
105.4934933769
 30
0.0
 11
122.1032431809
 21
122.1403601987
 31
0.0
 40
0.3180179059
 41
-3.9160145332
 42
-3.9149451326
  0
ELLIPSE
  5
5B2
100
AcDbEntity
  8
0
100
AcDbEllipse
 62
250
  6
CONTINUOUS
 10
72.2888121508
 20
104.6907493258
 30
0.0
 11
111.8096486368
 21
128.1862343107
 31
0.0
 40
0.4008852251
 41
-3.9225097897
 42
-3.9207274998
  0
ELLIPSE
  5
5B3
100
AcDbEntity
  8
0
100
AcDbEllipse
 62
250
  6
CONTINUOUS
 10
65.5953802658
 20
108.5554530078
 30
0.0
 11
173.0836582371
 21
93.3733779052
 31
0.0
 40
0.0279358986
 41
-2.2682121589
 42
-2.2667864963
  0
ELLIPSE
  5
5B4
100
AcDbEntity
  8
0
100
AcDbEllipse
 62
250
  6
CONTINUOUS
 10
57.3934750749
 20
113.291130271
 30
0.0
 11
269.5162448436
 21
28.7278983642
 31
0.0
 40
0.230445878
 41
-1.9799069989
 42
-1.9791942188
  0
ELLIPSE
  5
5B5
100
AcDbEntity
  8
0
100
AcDbEllipse
 62
250
  6
CONTINUOUS
 10
33.0345398643
 20
127.3556741725
 30
0.0
 11
600.953393456
 21
-191.800521793
 31
0.0
 40
0.1620319101
 41
-1.6474247936
 42
-1.64706842
  0
ELLIPSE
  5
5B6
100
AcDbEntity
  8
0
100
AcDbEllipse
 62
250
  6
CONTINUOUS
 10
113.4472924822
 20
80.9263586194
 30
0.0
 11
575.9863670802
 21
-459.7018216395
 31
0.0
 40
0.173112487
 41
-1.708648271
 42
-1.7082918974
  0
ELLIPSE
  5
5B7
100
AcDbEntity
  8
0
100
AcDbEllipse
 62
250
  6
CONTINUOUS
 10
89.0885087721
 20
94.9908150464
 30
0.0
 11
-230.283473573
 21
258.2516823488
 31
0.0
 40
0.388116916
 41
1.4196297375
 42
1.4203425176
  0
ELLIPSE
  5
5B8
100
AcDbEntity
  8
0
100
AcDbEllipse
 62
250
  6
CONTINUOUS
 10
80.8865622438
 20
99.7265161772
 30
0.0
 11
-101.7151532253
 21
199.749854478
 31
0.0
 40
0.6093603887
 41
1.5306531618
 42
1.5320788243
  0
ELLIPSE
  5
5B9
100
AcDbEntity
  8
0
100
AcDbEllipse
 62
250
  6
CONTINUOUS
 10
76.703152212
 20
102.1419646991
 30
0.0
 11
3.2071651049
 21
177.8377483001
 31
0.0
 40
0.7173128606
 41
-4.3786052693
 42
-4.3771794536
  0
ELLIPSE
  5
5BA
100
AcDbEntity
  8
0
100
AcDbEllipse
 62
250
  6
CONTINUOUS
 10
74.1436900244
 20
103.6197660887
 30
0.0
 11
68.2779962659
 21
153.4826246162
 31
0.0
 40
0.6356972842
 41
-4.0693180253
 42
-4.0675355534
  0
ELLIPSE
  5
5BB
100
AcDbEntity
  8
0
100
AcDbEllipse
 62
250
  6
CONTINUOUS
 10
72.3961098345
 20
104.628796988
 30
0.0
 11
93.7815115889
 21
139.060369839
 31
0.0
 40
0.5249649702
 41
-3.9710992753
 42
-3.9657503834
  0
ELLIPSE
  5
5BC
100
AcDbEntity
  8
0
100
AcDbEllipse
 62
250
  6
CONTINUOUS
 10
70.5249486087
 20
105.7091820286
 30
0.0
 11
111.809372219
 21
128.1863992339
 31
0.0
 40
0.4008873755
 41
-3.9310685038
 42
-3.9292850305
  0
ELLIPSE
  5
5BD
100
AcDbEntity
  8
0
100
AcDbEllipse
 62
250
  6
CONTINUOUS
 10
67.656332046
 20
107.3654852797
 30
0.0
 11
134.3545797076
 21
115.1945301141
 31
0.0
 40
0.2185155878
 41
2.3489917782
 42
2.3504187425
  0
ELLIPSE
  5
5BE
100
AcDbEntity
  8
0
100
AcDbEllipse
 62
250
  6
CONTINUOUS
 10
62.7929324681
 20
110.1735512433
 30
0.0
 11
173.0836582371
 21
93.3733779052
 31
0.0
 40
0.0279358986
 41
-2.2550188794
 42
-2.2535917436
  0
ELLIPSE
  5
5BF
100
AcDbEntity
  8
0
100
AcDbEllipse
 62
250
  6
CONTINUOUS
 10
52.901243609
 20
115.8848884185
 30
0.0
 11
269.517141936
 21
28.7272518037
 31
0.0
 40
0.2304463284
 41
-1.9645715973
 42
-1.9638579612
  0
ELLIPSE
  5
5C0
100
AcDbEntity
  8
0
100
AcDbEllipse
 62
250
  6
CONTINUOUS
 10
22.9788084594
 20
133.1617274577
 30
0.0
 11
600.9514462195
 21
-191.7993213141
 31
0.0
 40
0.1620323673
 41
-1.631022249
 42
-1.6306654175
  0
ELLIPSE
  5
5C1
100
AcDbEntity
  8
0
100
AcDbEllipse
 62
250
  6
CONTINUOUS
 10
123.5033395472
 20
75.1201230759
 30
0.0
 11
575.9883410307
 21
-459.7029806262
 31
0.0
 40
0.1731119233
 41
-1.7250518019
 42
-1.7246949703
  0
ELLIPSE
  5
5C2
100
AcDbEntity
  8
0
100
AcDbEllipse
 62
250
  6
CONTINUOUS
 10
93.5806626714
 20
92.3971016848
 30
0.0
 11
-230.283473573
 21
258.2516823488
 31
0.0
 40
0.388116916
 41
1.4042956861
 42
1.4050093222
  0
ELLIPSE
  5
5C3
100
AcDbEntity
  8
0
100
AcDbEllipse
 62
250
  6
CONTINUOUS
 10
83.6890512467
 20
98.1083941504
 30
0.0
 11
-101.7158281359
 21
199.7500508451
 31
0.0
 40
0.6093591253
 41
1.5174569474
 42
1.5188840831
  0
ELLIPSE
  5
5C4
100
AcDbEntity
  8
0
100
AcDbEllipse
 62
250
  6
CONTINUOUS
 10
75.9075507987
 20
102.601334984
 30
0.0
 11
68.2785985895
 21
153.4823126798
 31
0.0
 40
0.6356954522
 41
-4.0778745832
 42
-4.0760908998
  0
ELLIPSE
  5
5C5
100
AcDbEntity
  8
0
100
AcDbEllipse
 62
250
  6
CONTINUOUS
 10
74.52565884
 20
103.3992220817
 30
0.0
 11
43.5079433679
 21
164.9031080549
 31
0.0
 40
0.6893973944
 41
-4.1974449634
 42
-4.1878152968
  0
ELLIPSE
  5
5C6
100
AcDbEntity
  8
0
100
AcDbEllipse
 62
250
  6
CONTINUOUS
 10
67.9586792407
 20
107.1909137988
 30
0.0
 11
122.1032906666
 21
122.1403327789
 31
0.0
 40
0.318017516
 41
-3.9270701973
 42
-3.9174405307
  0
ELLIPSE
  5
5C7
100
AcDbEntity
  8
0
100
AcDbEllipse
 62
250
  6
CONTINUOUS
 10
74.8164876941
 20
103.2313011463
 30
0.0
 11
41.9779527662
 21
165.515720652
 31
0.0
 40
0.691558876
 41
-4.2063210484
 42
-4.1895610118
  0
ELLIPSE
  5
5C8
100
AcDbEntity
  8
0
100
AcDbEllipse
 62
250
  6
CONTINUOUS
 10
74.5119119803
 20
103.4071593463
 30
0.0
 11
43.5081816259
 21
164.9030118317
 31
0.0
 40
0.6893970492
 41
-4.1863881393
 42
-4.1821110332
  0
ELLIPSE
  5
5C9
100
AcDbEntity
  8
0
100
AcDbEllipse
 62
250
  6
CONTINUOUS
 10
67.9724103444
 20
107.1829856316
 30
0.0
 11
122.1033500238
 21
122.1402985041
 31
0.0
 40
0.3180170286
 41
-3.9160145329
 42
-3.9117374269
  0
ELLIPSE
  5
5CA
100
AcDbEntity
  8
0
100
AcDbEllipse
 62
250
  6
CONTINUOUS
 10
67.6678487558
 20
107.3588356758
 30
0.0
 11
122.6326329822
 21
121.8349435996
 31
0.0
 40
0.3136701383
 41
-3.9285124884
 42
-3.9117524518
  0
ELLIPSE
  5
5CB
100
AcDbEntity
  8
0
100
AcDbEllipse
 62
250
  6
CONTINUOUS
 10
96.424728248
 20
90.7549738654
 30
0.0
 11
346.116982495
 21
-324.6682229078
 31
0.0
 40
0.2767051061
 41
-1.7315283578
 42
-1.7311717911
  0
ELLIPSE
  5
5CC
100
AcDbEntity
  8
0
100
AcDbEllipse
 62
250
  6
CONTINUOUS
 10
78.6199090579
 20
101.035253319
 30
0.0
 11
-101.7157550301
 21
199.7500295746
 31
0.0
 40
0.6093592621
 41
1.5260174196
 42
1.5267305116
  0
ELLIPSE
  5
5CD
100
AcDbEntity
  8
0
100
AcDbEllipse
 62
250
  6
CONTINUOUS
 10
72.7397621428
 20
104.4303764522
 30
0.0
 11
43.5084879569
 21
164.902888116
 31
0.0
 40
0.6893966054
 41
-4.188525705
 42
-4.1874561335
  0
ELLIPSE
  5
5CE
100
AcDbEntity
  8
0
100
AcDbEllipse
 62
250
  6
CONTINUOUS
 10
69.8409858279
 20
106.1040935662
 30
0.0
 11
93.7809197788
 21
139.060725172
 31
0.0
 40
0.5249684194
 41
-3.9653957958
 42
-3.9643263104
  0
ELLIPSE
  5
5CF
100
AcDbEntity
  8
0
100
AcDbEllipse
 62
250
  6
CONTINUOUS
 10
66.9833230506
 20
107.7540722389
 30
0.0
 11
122.1032431809
 21
122.1403601987
 31
0.0
 40
0.3180179059
 41
-3.9160145332
 42
-3.9149451326
  0
ELLIPSE
  5
5D0
100
AcDbEntity
  8
0
100
AcDbEllipse
 62
250
  6
CONTINUOUS
 10
61.3504976139
 20
111.0063950502
 30
0.0
 11
173.0836342077
 21
93.373392027
 31
0.0
 40
0.0279357855
 41
-2.2667865707
 42
-2.2660736814
  0
ELLIPSE
  5
5D1
100
AcDbEntity
  8
0
100
AcDbEllipse
 62
250
  6
CONTINUOUS
 10
44.6166248101
 20
120.6683234824
 30
0.0
 11
377.0485461051
 21
-47.5525496774
 31
0.0
 40
0.2269613516
 41
-1.7895681591
 42
-1.7892117313
  0
ELLIPSE
  5
5D2
100
AcDbEntity
  8
0
100
AcDbEllipse
 62
250
  6
CONTINUOUS
 10
68.8106344653
 20
106.6990055296
 30
0.0
 11
93.7813932274
 21
139.0604409053
 31
0.0
 40
0.52496566
 41
-3.9675334864
 42
-3.962186053
  0
ELLIPSE
  5
5D3
100
AcDbEntity
  8
0
100
AcDbEllipse
 62
250
  6
CONTINUOUS
 10
68.8106385968
 20
106.6990031442
 30
0.0
 11
93.7813498975
 21
139.0604669213
 31
0.0
 40
0.5249659126
 41
-3.974667005
 42
-3.9696732118
  0
ELLIPSE
  5
5D4
100
AcDbEntity
  8
0
100
AcDbEllipse
 62
250
  6
CONTINUOUS
 10
42.0202141457
 20
122.1674584593
 30
0.0
 11
377.0485461051
 21
-47.5525496774
 31
0.0
 40
0.2269613516
 41
-1.7820811413
 42
-1.7817245107
  0
ELLIPSE
  5
5D5
100
AcDbEntity
  8
0
100
AcDbEllipse
 62
250
  6
CONTINUOUS
 10
60.4850362018
 20
111.5061016227
 30
0.0
 11
173.0836342077
 21
93.373392027
 31
0.0
 40
0.0279357855
 41
-2.2592993501
 42
-2.2585860525
  0
ELLIPSE
  5
5D6
100
AcDbEntity
  8
0
100
AcDbEllipse
 62
250
  6
CONTINUOUS
 10
66.6948141633
 20
107.9206536545
 30
0.0
 11
122.103420061
 21
122.1402580623
 31
0.0
 40
0.3180164536
 41
-3.9235027755
 42
-3.9224327611
  0
ELLIPSE
  5
5D7
100
AcDbEntity
  8
0
100
AcDbEllipse
 62
250
  6
CONTINUOUS
 10
69.8409655038
 20
106.1041053011
 30
0.0
 11
93.7811897969
 21
139.0605630485
 31
0.0
 40
0.5249668457
 41
-3.9725270759
 42
-3.9718136751
  0
ELLIPSE
  5
5D8
100
AcDbEntity
  8
0
100
AcDbEllipse
 62
250
  6
CONTINUOUS
 10
73.0145649424
 20
104.2717087597
 30
0.0
 11
43.5072626278
 21
164.9033829783
 31
0.0
 40
0.6893983807
 41
-4.1956644338
 42
-4.1945942568
  0
ELLIPSE
  5
5D9
100
AcDbEntity
  8
0
100
AcDbEllipse
 62
250
  6
CONTINUOUS
 10
79.4440865707
 20
100.5593835524
 30
0.0
 11
-101.7145514237
 21
199.7496793835
 31
0.0
 40
0.6093615153
 41
1.5188868481
 42
1.5196003545
  0
ELLIPSE
  5
5DA
100
AcDbEntity
  8
0
100
AcDbEllipse
 62
250
  6
CONTINUOUS
 10
98.897924439
 20
89.3269813811
 30
0.0
 11
346.1226067412
 21
-324.6715108661
 31
0.0
 40
0.2767011407
 41
-1.7386614606
 42
-1.7383046943
  0
ELLIPSE
  5
5DB
100
AcDbEntity
  8
0
100
AcDbEllipse
 62
250
  6
CONTINUOUS
 10
119.6291955257
 20
77.3570052795
 30
0.0
 11
575.9863670803
 21
-459.7018216395
 31
0.0
 40
0.173112487
 41
-1.725051934
 42
-1.7246951025
  0
ELLIPSE
  5
5DC
100
AcDbEntity
  8
0
100
AcDbEllipse
 62
250
  6
CONTINUOUS
 10
83.0573131882
 20
98.4731517878
 30
0.0
 11
-148.857799135
 21
217.0409448996
 31
0.0
 40
0.5183102665
 41
1.44440288
 42
1.4454733149
  0
ELLIPSE
  5
5DD
100
AcDbEntity
  8
0
100
AcDbEllipse
 62
250
  6
CONTINUOUS
 10
77.3112292871
 20
101.790868617
 30
0.0
 11
-56.7378376742
 21
189.5072070011
 31
0.0
 40
0.681169693
 41
-4.6373949057
 42
-4.635967807
  0
ELLIPSE
  5
5DE
100
AcDbEntity
  8
0
100
AcDbEllipse
 62
250
  6
CONTINUOUS
 10
73.2755358734
 20
104.1210274149
 30
0.0
 11
43.5081952279
 21
164.9030063383
 31
0.0
 40
0.6893970295
 41
-4.1960166386
 42
-4.1949464359
  0
ELLIPSE
  5
5DF
100
AcDbEntity
  8
0
100
AcDbEllipse
 62
250
  6
CONTINUOUS
 10
70.0881993457
 20
105.9613555793
 30
0.0
 11
93.7816336518
 21
139.0602965502
 31
0.0
 40
0.5249642588
 41
-3.9728823516
 42
-3.9714555498
  0
ELLIPSE
  5
5E0
100
AcDbEntity
  8
0
100
AcDbEllipse
 62
250
  6
CONTINUOUS
 10
66.9558481403
 20
107.7699359078
 30
0.0
 11
122.1032431809
 21
122.1403601987
 31
0.0
 40
0.3180179059
 41
-3.9231460942
 42
-3.9220761047
  0
ELLIPSE
  5
5E1
100
AcDbEntity
  8
0
100
AcDbEllipse
 62
250
  6
CONTINUOUS
 10
63.0918865015
 20
110.0009389312
 30
0.0
 11
152.9957110199
 21
104.8453546306
 31
0.0
 40
0.0837733809
 41
2.3162360592
 42
2.3176625673
  0
ELLIPSE
  5
5E2
100
AcDbEntity
  8
0
100
AcDbEllipse
 62
250
  6
CONTINUOUS
 10
51.7060003459
 20
116.5750068987
 30
0.0
 11
269.5180801439
 21
28.72657561
 31
0.0
 40
0.2304467995
 41
-1.9717032899
 42
-1.9713466896
  0
ELLIPSE
  5
5E3
100
AcDbEntity
  8
0
100
AcDbEllipse
 62
250
  6
CONTINUOUS
 10
87.9756235647
 20
95.6333810174
 30
0.0
 11
-230.2815859862
 21
258.2506410183
 31
0.0
 40
0.3881193532
 41
1.4121436517
 42
1.4125002481
  0
ELLIPSE
  5
5E4
100
AcDbEntity
  8
0
100
AcDbEllipse
 62
250
  6
CONTINUOUS
 10
76.6930274702
 20
102.1478105982
 30
0.0
 11
-56.7375218097
 21
189.5071495856
 31
0.0
 40
0.6811700822
 41
-4.6302600041
 42
-4.6288337355
  0
ELLIPSE
  5
5E5
100
AcDbEntity
  8
0
100
AcDbEllipse
 62
250
  6
CONTINUOUS
 10
73.0008249712
 20
104.2796420469
 30
0.0
 11
43.5072626278
 21
164.9033829783
 31
0.0
 40
0.6893983807
 41
-4.1888882112
 42
-4.1878186107
  0
ELLIPSE
  5
5E6
100
AcDbEntity
  8
0
100
AcDbEllipse
 62
250
  6
CONTINUOUS
 10
70.0882198343
 20
105.9613437495
 30
0.0
 11
93.781413938
 21
139.0604284703
 31
0.0
 40
0.5249655393
 41
-3.965750701
 42
-3.9639682291
  0
ELLIPSE
  5
5E7
100
AcDbEntity
  8
0
100
AcDbEllipse
 62
250
  6
CONTINUOUS
 10
67.2442865993
 20
107.6033951565
 30
0.0
 11
122.103670552
 21
122.1401134207
 31
0.0
 40
0.3180143969
 41
-3.9156580578
 42
-3.9145886852
  0
ELLIPSE
  5
5E8
100
AcDbEntity
  8
0
100
AcDbEllipse
 62
250
  6
CONTINUOUS
 10
63.7410123189
 20
109.6261418197
 30
0.0
 11
152.9954398537
 21
104.8455059189
 31
0.0
 40
0.0837751299
 41
2.3237241592
 42
2.3251498642
  0
ELLIPSE
  5
5E9
100
AcDbEntity
  8
0
100
AcDbEllipse
 62
250
  6
CONTINUOUS
 10
58.9324577521
 20
112.4025409612
 30
0.0
 11
202.7646449178
 21
75.0424444824
 31
0.0
 40
0.1361336765
 41
-2.1736455873
 42
-2.1725764067
  0
ELLIPSE
  5
5EA
100
AcDbEntity
  8
0
100
AcDbEllipse
 62
250
  6
CONTINUOUS
 10
29.1607055806
 20
129.5923775373
 30
0.0
 11
600.9514462195
 21
-191.7993213141
 31
0.0
 40
0.1620323673
 41
-1.6474254541
 42
-1.6470690805
  0
ELLIPSE
  5
5EB
100
AcDbEntity
  8
0
100
AcDbEllipse
 62
250
  6
CONTINUOUS
 10
68.5633571169
 20
106.8417803715
 30
0.0
 11
93.7814256506
 21
139.0604214378
 31
0.0
 40
0.524965471
 41
-3.9768075958
 42
-3.9600475592
  0
ELLIPSE
  5
5EC
100
AcDbEntity
  8
0
100
AcDbEllipse
 62
250
  6
CONTINUOUS
 10
70.0897131827
 20
105.9604815088
 30
0.0
 11
-22.3413290313
 21
183.3614793488
 31
0.0
 40
0.7115375175
 41
-4.5048370306
 42
-4.488076994
  0
ELLIPSE
  5
5ED
100
AcDbEntity
  8
0
100
AcDbEllipse
 62
250
  6
CONTINUOUS
 10
60.9227076376
 20
111.253395621
 30
0.0
 11
112.006102841
 21
128.0690516521
 31
0.0
 40
0.3993555306
 41
-3.9347454556
 42
-3.917985419
  0
ELLIPSE
  5
5EE
100
AcDbEntity
  8
0
100
AcDbEllipse
 62
250
  6
CONTINUOUS
 10
66.7675115255
 20
107.8786791087
 30
0.0
 11
32.8018561849
 21
168.9721845822
 31
0.0
 40
0.7023711659
 41
-4.2509361663
 42
-4.2341761297
  0
ELLIPSE
  5
5EF
100
AcDbEntity
  8
0
100
AcDbEllipse
 62
250
  6
CONTINUOUS
 10
78.0557369835
 20
101.360999204
 30
0.0
 11
122.1032906666
 21
122.1403327789
 31
0.0
 40
0.318017516
 41
-3.9270701973
 42
-3.9174405307
  0
ELLIPSE
  5
5F0
100
AcDbEntity
  8
0
100
AcDbEllipse
 62
250
  6
CONTINUOUS
 10
84.6227103232
 20
97.5693111011
 30
0.0
 11
43.5080795154
 21
164.9030530702
 31
0.0
 40
0.6893971972
 41
-4.1974443006
 42
-4.187814634
  0
ELLIPSE
  5
5F1
100
AcDbEntity
  8
0
100
AcDbEllipse
 62
250
  6
CONTINUOUS
 10
82.7404504887
 20
98.6561043393
 30
0.0
 11
93.7814130743
 21
139.0604289889
 31
0.0
 40
0.5249655443
 41
-3.9768076367
 42
-3.9621859884
  0
ELLIPSE
  5
5F2
100
AcDbEntity
  8
0
100
AcDbEllipse
 62
250
  6
CONTINUOUS
 10
83.976816648
 20
97.9422420142
 30
0.0
 11
93.7815115889
 21
139.060369839
 31
0.0
 40
0.5249649702
 41
-3.9621856681
 42
-3.9600472797
  0
ELLIPSE
  5
5F3
100
AcDbEntity
  8
0
100
AcDbEllipse
 62
250
  6
CONTINUOUS
 10
82.4931740301
 20
98.7988786674
 30
0.0
 11
93.7814256506
 21
139.0604214378
 31
0.0
 40
0.524965471
 41
-3.9768075958
 42
-3.9600475592
  0
ELLIPSE
  5
5F4
100
AcDbEntity
  8
0
100
AcDbEllipse
 62
250
  6
CONTINUOUS
 10
84.9135476789
 20
97.401385257
 30
0.0
 11
41.977873471
 21
165.5157521285
 31
0.0
 40
0.6915589852
 41
-4.2063214345
 42
-4.1895613978
  0
ELLIPSE
  5
5F5
100
AcDbEntity
  8
0
100
AcDbEllipse
 62
250
  6
CONTINUOUS
 10
84.6089805664
 20
97.5772384906
 30
0.0
 11
43.5078752941
 21
164.9031355473
 31
0.0
 40
0.6893974931
 41
-4.1863896306
 42
-4.1821125245
  0
ELLIPSE
  5
5F6
100
AcDbEntity
  8
0
100
AcDbEllipse
 62
250
  6
CONTINUOUS
 10
78.0694673801
 20
101.353071445
 30
0.0
 11
122.1033500238
 21
122.1402985041
 31
0.0
 40
0.3180170286
 41
-3.9160145329
 42
-3.9117374269
  0
ELLIPSE
  5
5F7
100
AcDbEntity
  8
0
100
AcDbEllipse
 62
250
  6
CONTINUOUS
 10
77.7649057915
 20
101.5289214892
 30
0.0
 11
122.6326329822
 21
121.8349435996
 31
0.0
 40
0.3136701383
 41
-3.9285124884
 42
-3.9117524518
  0
ELLIPSE
  5
5F8
100
AcDbEntity
  8
0
100
AcDbEllipse
 62
250
  6
CONTINUOUS
 10
78.0422267563
 20
101.3687998398
 30
0.0
 11
93.7814256506
 21
139.0604214378
 31
0.0
 40
0.524965471
 41
-3.9768075958
 42
-3.9600475592
  0
ELLIPSE
  5
5F9
100
AcDbEntity
  8
0
100
AcDbEllipse
 62
250
  6
CONTINUOUS
 10
78.2895011817
 20
101.2260266856
 30
0.0
 11
93.781427045
 21
139.0604206006
 31
0.0
 40
0.5249654629
 41
-3.9675333764
 42
-3.9600475546
  0
ELLIPSE
  5
5FA
100
AcDbEntity
  8
0
100
AcDbEllipse
 62
250
  6
CONTINUOUS
 10
82.3972721215
 20
98.8542512275
 30
0.0
 11
32.8464080978
 21
168.9562840178
 31
0.0
 40
0.7023269622
 41
-4.241445895
 42
-4.2339600732
  0
ELLIPSE
  5
5FB
100
AcDbEntity
  8
0
100
AcDbEllipse
 62
250
  6
CONTINUOUS
 10
82.7693873698
 20
98.6393965468
 30
0.0
 11
30.4147628249
 21
169.8119089774
 31
0.0
 40
0.7046298028
 41
-4.2539391307
 42
-4.245740158
  0
ELLIPSE
  5
5FC
100
AcDbEntity
  8
0
100
AcDbEllipse
 62
250
  6
CONTINUOUS
 10
61.1851079894
 20
111.1018889465
 30
0.0
 11
269.5153477517
 21
28.728544924
 31
0.0
 40
0.2304454275
 41
-1.9720666059
 42
-1.9713534092
  0
ELLIPSE
  5
5FD
100
AcDbEntity
  8
0
100
AcDbEllipse
 62
250
  6
CONTINUOUS
 10
72.5707170702
 20
104.5279809584
 30
0.0
 11
152.9960409622
 21
104.8451705499
 31
0.0
 40
0.0837712528
 41
2.3162352298
 42
2.3176617379
  0
ELLIPSE
  5
5FE
100
AcDbEntity
  8
0
100
AcDbEllipse
 62
250
  6
CONTINUOUS
 10
76.4347184868
 20
102.2969549678
 30
0.0
 11
122.1032431809
 21
122.1403601987
 31
0.0
 40
0.3180179059
 41
-3.9231460942
 42
-3.9220761047
  0
ELLIPSE
  5
5FF
100
AcDbEntity
  8
0
100
AcDbEllipse
 62
250
  6
CONTINUOUS
 10
79.5670696922
 20
100.4883746394
 30
0.0
 11
93.7816336518
 21
139.0602965502
 31
0.0
 40
0.5249642588
 41
-3.9728823516
 42
-3.9714555498
  0
ELLIPSE
  5
600
100
AcDbEntity
  8
0
100
AcDbEllipse
 62
250
  6
CONTINUOUS
 10
82.754460907
 20
98.6480148994
 30
0.0
 11
43.5069698887
 21
164.9035012031
 31
0.0
 40
0.6893988048
 41
-4.1960226038
 42
-4.194952401
  0
ELLIPSE
  5
601
100
AcDbEntity
  8
0
100
AcDbEllipse
 62
250
  6
CONTINUOUS
 10
86.7900989265
 20
96.3178880853
 30
0.0
 11
-56.7378376742
 21
189.5072070011
 31
0.0
 40
0.681169693
 41
-4.6373949057
 42
-4.635967807
  0
ELLIPSE
  5
602
100
AcDbEntity
  8
0
100
AcDbEllipse
 62
250
  6
CONTINUOUS
 10
92.5361264909
 20
93.0002037843
 30
0.0
 11
-148.8570529486
 21
217.0406198145
 31
0.0
 40
0.5183116761
 41
1.4444036242
 42
1.445474059
  0
ELLIPSE
  5
603
100
AcDbEntity
  8
0
100
AcDbEllipse
 62
250
  6
CONTINUOUS
 10
129.1082370047
 20
71.8839255299
 30
0.0
 11
575.9883410307
 21
-459.7029806262
 31
0.0
 40
0.1731119233
 41
-1.7250518019
 42
-1.7246949703
  0
ELLIPSE
  5
604
100
AcDbEntity
  8
0
100
AcDbEllipse
 62
250
  6
CONTINUOUS
 10
80.1852757842
 20
100.1314301898
 30
0.0
 11
93.7814256506
 21
139.0604214378
 31
0.0
 40
0.524965471
 41
-3.9768075958
 42
-3.9600475592
  0
ELLIPSE
  5
605
100
AcDbEntity
  8
0
100
AcDbEllipse
 62
250
  6
CONTINUOUS
 10
79.9380012499
 20
100.2742034069
 30
0.0
 11
93.7814256506
 21
139.0604214378
 31
0.0
 40
0.524965471
 41
-3.9768075958
 42
-3.9600475592
  0
ELLIPSE
  5
606
100
AcDbEntity
  8
0
100
AcDbEllipse
 62
250
  6
CONTINUOUS
 10
78.2895034677
 20
101.2260253657
 30
0.0
 11
93.7814035827
 21
139.0604346878
 31
0.0
 40
0.5249655997
 41
-3.9750236074
 42
-3.9696730372
  0
ELLIPSE
  5
607
100
AcDbEntity
  8
0
100
AcDbEllipse
 62
250
  6
CONTINUOUS
 10
51.4992421896
 20
116.6943864669
 30
0.0
 11
377.0466644618
 21
-47.5512593942
 31
0.0
 40
0.2269618914
 41
-1.7820833616
 42
-1.7817267311
  0
ELLIPSE
  5
608
100
AcDbEntity
  8
0
100
AcDbEllipse
 62
250
  6
CONTINUOUS
 10
69.9639058412
 20
106.0331210911
 30
0.0
 11
173.0836342077
 21
93.373392027
 31
0.0
 40
0.0279357855
 41
-2.2592993501
 42
-2.2585860525
  0
ELLIPSE
  5
609
100
AcDbEntity
  8
0
100
AcDbEllipse
 62
250
  6
CONTINUOUS
 10
76.1736838027
 20
102.4476731229
 30
0.0
 11
122.103420061
 21
122.1402580623
 31
0.0
 40
0.3180164536
 41
-3.9235027755
 42
-3.9224327611
  0
ELLIPSE
  5
60A
100
AcDbEntity
  8
0
100
AcDbEllipse
 62
250
  6
CONTINUOUS
 10
79.3198105148
 20
100.6311389896
 30
0.0
 11
93.7814598123
 21
139.0604009266
 31
0.0
 40
0.5249652719
 41
-3.9728829169
 42
-3.9718127969
  0
ELLIPSE
  5
60B
100
AcDbEntity
  8
0
100
AcDbEllipse
 62
250
  6
CONTINUOUS
 10
82.5071856657
 20
98.7907885246
 30
0.0
 11
43.5069698887
 21
164.9035012031
 31
0.0
 40
0.6893988048
 41
-4.1960226038
 42
-4.194952401
  0
ELLIPSE
  5
60C
100
AcDbEntity
  8
0
100
AcDbEllipse
 62
250
  6
CONTINUOUS
 10
88.9641685529
 20
95.0626075306
 30
0.0
 11
-101.7145514237
 21
199.7496793835
 31
0.0
 40
0.6093615153
 41
1.5185300819
 42
1.5192436096
  0
ELLIPSE
  5
60D
100
AcDbEntity
  8
0
100
AcDbEllipse
 62
250
  6
CONTINUOUS
 10
108.5004316991
 20
83.7826140368
 30
0.0
 11
346.1226067412
 21
-324.6715108661
 31
0.0
 40
0.2767011407
 41
-1.7390182376
 42
-1.7386614606
  0
ELLIPSE
  5
60E
100
AcDbEntity
  8
0
100
AcDbEllipse
 62
250
  6
CONTINUOUS
 10
76.4761527213
 20
102.2730313601
 30
0.0
 11
93.7814245244
 21
139.060422114
 31
0.0
 40
0.5249654776
 41
-3.9746667623
 42
-3.9700295996
  0
ELLIPSE
  5
60F
100
AcDbEntity
  8
0
100
AcDbEllipse
 62
250
  6
CONTINUOUS
 10
77.5476691137
 20
101.6543512244
 30
0.0
 11
93.7815115889
 21
139.060369839
 31
0.0
 40
0.5249649702
 41
-3.9700293165
 42
-3.967889672
  0
ENDSEC
  0
SECTION
  2
OBJECTS
  0
DICTIONARY
  5
C
100
AcDbDictionary
280
0
281
1
  3
ACAD_GROUP
350
D
  3
ACAD_MLINESTYLE
350
17
  3
ACAD_LAYOUT
350
1A
  3
ACAD_PLOTSETTINGS
350
19
  3
ACAD_PLOTSTYLENAME
350
E
  0
DICTIONARY
  5
D
102
{ACAD_REACTORS
330
C
102
}
100
AcDbDictionary
280
0
281
1
  0
ACDBDICTIONARYWDFLT
  5
E
102
{ACAD_REACTORS
330
C
102
}
100
AcDbDictionary
281
1
  3
Normal
350
F
100
AcDbDictionaryWithDefault
340
F
  0
DICTIONARY
  5
17
102
{ACAD_REACTORS
330
C
102
}
100
AcDbDictionary
280
0
281
1
  3
Standard
350
18
  0
DICTIONARY
  5
19
102
{ACAD_REACTORS
330
C
102
}
100
AcDbDictionary
281
1
  0
DICTIONARY
  5
1A
102
{ACAD_REACTORS
330
C
102
}
100
AcDbDictionary
281
1
  3
Model
350
610
  3
Layout1
350
611
  0
ACDBPLACEHOLDER
  5
F
102
{ACAD_REACTORS
330
E
102
}
  0
MLINESTYLE
  5
18
102
{ACAD_REACTORS
330
17
102
}
100
AcDbMlineStyle
  2
STANDARD
 70
0
  3

 62
256
 51
90.0
 52
90.0
 71
2
 49
0.5
 62
256
  6
BYLAYER
 49
-0.5
 62
256
  6
BYLAYER
  0
LAYOUT
  5
610
102
{ACAD_REACTORS
330
1A
102
}
100
AcDbPlotSettings
  1

  2
none_device
  4
ISO_A4_(297.00_x_210.00_MM)
  6

 40
0.0
 41
0.0
 42
0.0
 43
0.0
 44
297.0
 45
210.0
 46
0.0
 47
0.0
 48
0.0
 49
0.0
140
0.0
141
0.0
142
1.0
143
1.0
 70
1024
 72
1
 73
0
 74
0
  7

 75
0
147
1.0
148
0.0
149
0.0
100
AcDbLayout
  1
Model
 70
0
 71
0
 10
0.0
 20
0.0
 11
297.0
 21
210.0
 12
0.0
 22
0.0
 32
0.0
 14
0.0
 24
0.0
 34
0.0
 15
0.0
 25
0.0
 35
0.0
146
0.0
 13
0.0
 23
0.0
 33
0.0
 16
1.0
 26
0.0
 36
0.0
 17
0.0
 27
1.0
 37
0.0
 76
0
330
214
345
0
346
0
  0
LAYOUT
  5
611
102
{ACAD_REACTORS
330
1A
102
}
100
AcDbPlotSettings
  1

  2
none_device
  4
ISO_A4_(297.00_x_210.00_MM)
  6

 40
0.0
 41
0.0
 42
0.0
 43
0.0
 44
297.0
 45
210.0
 46
0.0
 47
0.0
 48
0.0
 49
0.0
140
0.0
141
0.0
142
1.0
143
1.0
 70
0
 72
1
 73
0
 74
0
  7

 75
0
147
1.0
148
0.0
149
0.0
100
AcDbLayout
  1
Layout1
 70
0
 71
1
 10
0.0
 20
0.0
 11
297.0
 21
210.0
 12
0.0
 22
0.0
 32
0.0
 14
0.0
 24
0.0
 34
0.0
 15
0.0
 25
0.0
 35
0.0
146
0.0
 13
0.0
 23
0.0
 33
0.0
 16
1.0
 26
0.0
 36
0.0
 17
0.0
 27
1.0
 37
0.0
 76
0
330
215
345
0
346
0
  0
ENDSEC
  0
EOF
