  0
SECTION
  2
HEADER
  9
$ACADVER
  1
AC1021
  9
$DWGCODEPAGE
  3
ANSI_1252
  9
$EXTMAX
 10
297.0
 20
210.0
 30
0.0
  9
$EXTMIN
 10
0.0
 20
0.0
 30
0.0
  9
$LIMMIN
 10
0.0
 20
0.0
  9
$LIMMAX
 10
297.0
 20
210.0
  9
$VIEWCTR
 10
148.5
 20
105.0
  9
$VIEWSIZE
 40
210.0
  9
$CLAYER
  8
0
  9
$LTSCALE
 40
16.335
  9
$CELTYPE
  6
BYLAYER
  9
$DIMSCALE
 40
1.0
  9
$DIMASZ
 40
3.0
  9
$DIMEXO
 40
0.5
  9
$DIMDLI
 40
11.286
  9
$DIMEXE
 40
1.5
  9
$DIMCEN
 40
2.673
  9
$DIMLFAC
 40
1.0
  9
$DIMBLK
  1
_FILLED
  9
$DIMALT
 70
0
  9
$DIMALTF
 40
25.4
  9
$DIMTXT
 40
3.0
  9
$DIMTOL
 70
1
  9
$DIMLIM
 70
0
  9
$DIMTFAC
 40
1.0
  9
$DIMTP
 40
0.01
  9
$DIMTM
 40
0.01
  9
$DIMGAP
 40
0.625
  9
$DIMDSEP
 70
44
  9
$AUNITS
 70
0
  9
$PDMODE
 70
3
  9
$PDSIZE
 40
3.0
  9
$HANDSEED
  5
7C3
  9
$TILEMODE
 70
1
  9
$MEASUREMENT
 70
1
  9
$INSUNITS
 70
4
  0
ENDSEC
  0
SECTION
  2
CLASSES
  0
CLASS
  1
ACDBDICTIONARYWDFLT
  2
AcDbDictionaryWithDefault
  3
AutoCAD 2000
 90
0
 91
1
280
0
281
0
  0
CLASS
  1
ACDBPLACEHOLDER
  2
AcDbPlaceHolder
  3
AutoCAD 2000
 90
0
 91
1
280
0
281
0
  0
CLASS
  1
LAYOUT
  2
AcDbLayout
  3
AutoCAD 2000
 90
0
 91
0
280
0
281
0
  0
ENDSEC
  0
SECTION
  2
TABLES
  0
TABLE
  2
VPORT
  5
8
100
AcDbSymbolTable
 70
2
  0
VPORT
  5
1F4
100
AcDbSymbolTableRecord
100
AcDbViewportTableRecord
  2
*ACTIVE
 70
0
 10
0.0
 20
0.0
 11
1.0
 21
1.0
 12
148.5
 22
105.0
 13
0.0
 23
0.0
 14
1.0
 24
1.0
 15
0.0
 25
0.0
 16
0.0
 26
0.0
 36
1.0
 17
0.0
 27
0.0
 37
0.0
 40
210.0
 41
1.4142857143
 42
50.0
 43
0.0
 44
0.0
 50
0.0
 51
0.0
 71
0
 72
100
 73
1
 74
1
 75
0
 76
0
 77
0
 78
0
  0
ENDTAB
  0
TABLE
  2
LTYPE
  5
5
100
AcDbSymbolTable
 70
6
  0
LTYPE
  5
14
100
AcDbSymbolTableRecord
100
AcDbLinetypeTableRecord
  2
BYBLOCK
 70
0
  3

 72
65
 73
0
 40
0.0
  0
LTYPE
  5
15
100
AcDbSymbolTableRecord
100
AcDbLinetypeTableRecord
  2
BYLAYER
 70
0
  3

 72
65
 73
0
 40
0.0
  0
LTYPE
  5
16
100
AcDbSymbolTableRecord
100
AcDbLinetypeTableRecord
  2
CONTINUOUS
 70
64
  3
Solid line
 72
65
 73
0
 40
0.0
  0
LTYPE
  5
1F5
100
AcDbSymbolTableRecord
100
AcDbLinetypeTableRecord
  2
CENTER
 70
64
  3
____ _ ____ _ ____ _ ____ _ ____ _ ____ _ ____
 72
65
 73
4
 40
0.6
 49
0.375
 74
0
 49
-0.075
 74
0
 49
0.075
 74
0
 49
-0.075
 74
0
  0
LTYPE
  5
1F6
100
AcDbSymbolTableRecord
100
AcDbLinetypeTableRecord
  2
HIDDEN
 70
64
  3
- - - - - - - - - - - - - - - - - - - -
 72
65
 73
2
 40
0.2
 49
0.1
 74
0
 49
-0.1
 74
0
  0
LTYPE
  5
1F7
100
AcDbSymbolTableRecord
100
AcDbLinetypeTableRecord
  2
PHANTOM
 70
64
  3
_____ _ _ _____ _ _ _____ _ _ _____
 72
65
 73
6
 40
0.8
 49
0.45
 74
0
 49
-0.05
 74
0
 49
0.1
 74
0
 49
-0.05
 74
0
 49
0.1
 74
0
 49
-0.05
 74
0
  0
LTYPE
  5
1F8
100
AcDbSymbolTableRecord
100
AcDbLinetypeTableRecord
  2
DOT
 70
64
  3
. . . . . . . . . . . . . . . . . . . .
 72
65
 73
2
 40
0.2
 49
0.1
 74
0
 49
-0.1
 74
0
  0
LTYPE
  5
1F9
100
AcDbSymbolTableRecord
100
AcDbLinetypeTableRecord
  2
DASHED
 70
64
  3
- - - - - - - - - - - - - - - - - - - -
 72
65
 73
2
 40
0.2
 49
0.1
 74
0
 49
-0.1
 74
0
  0
ENDTAB
  0
TABLE
  2
LAYER
  5
2
100
AcDbSymbolTable
 70
36
  0
LAYER
  5
10
100
AcDbSymbolTableRecord
100
AcDbLayerTableRecord
  2
0
 70
0
 62
7
  6
CONTINUOUS
370
-3
390
F
  0
LAYER
  5
1FA
100
AcDbSymbolTableRecord
100
AcDbLayerTableRecord
  2
DEFAULT_1
 70
0
 62
7
  6
CENTER
370
-3
390
F
  0
LAYER
  5
1FB
100
AcDbSymbolTableRecord
100
AcDbLayerTableRecord
  2
DEFAULT_2
 70
0
 62
7
  6
HIDDEN
370
-3
390
F
  0
LAYER
  5
1FC
100
AcDbSymbolTableRecord
100
AcDbLayerTableRecord
  2
DEFAULT_3
 70
0
 62
7
  6
PHANTOM
370
-3
390
F
  0
LAYER
  5
1FD
100
AcDbSymbolTableRecord
100
AcDbLayerTableRecord
  2
ASSI
 70
0
 62
7
  6
CONTINUOUS
370
-3
390
F
  0
LAYER
  5
1FE
100
AcDbSymbolTableRecord
100
AcDbLayerTableRecord
  2
COORDINATE
 70
0
 62
7
  6
CONTINUOUS
370
-3
390
F
  0
LAYER
  5
1FF
100
AcDbSymbolTableRecord
100
AcDbLayerTableRecord
  2
COPY_PUBLISH
 70
0
 62
7
  6
CONTINUOUS
370
-3
390
F
  0
LAYER
  5
200
100
AcDbSymbolTableRecord
100
AcDbLayerTableRecord
  2
COSMETIC
 70
0
 62
7
  6
CONTINUOUS
370
-3
390
F
  0
LAYER
  5
201
100
AcDbSymbolTableRecord
100
AcDbLayerTableRecord
  2
COSMETICI
 70
0
 62
7
  6
CONTINUOUS
370
-3
390
F
  0
LAYER
  5
202
100
AcDbSymbolTableRecord
100
AcDbLayerTableRecord
  2
CURVE
 70
0
 62
7
  6
CONTINUOUS
370
-3
390
F
  0
LAYER
  5
203
100
AcDbSymbolTableRecord
100
AcDbLayerTableRecord
  2
DRAFT
 70
0
 62
7
  6
CONTINUOUS
370
-3
390
F
  0
LAYER
  5
204
100
AcDbSymbolTableRecord
100
AcDbLayerTableRecord
  2
IMPORT_IGES
 70
0
 62
7
  6
CONTINUOUS
370
-3
390
F
  0
LAYER
  5
205
100
AcDbSymbolTableRecord
100
AcDbLayerTableRecord
  2
INTFCLR_1
 70
0
 62
7
  6
CONTINUOUS
370
-3
390
F
  0
LAYER
  5
206
100
AcDbSymbolTableRecord
100
AcDbLayerTableRecord
  2
INTF_1
 70
0
 62
7
  6
CONTINUOUS
370
-3
390
F
  0
LAYER
  5
207
100
AcDbSymbolTableRecord
100
AcDbLayerTableRecord
  2
NOTE
 70
0
 62
7
  6
CONTINUOUS
370
-3
390
F
  0
LAYER
  5
208
100
AcDbSymbolTableRecord
100
AcDbLayerTableRecord
  2
PIANI
 70
0
 62
7
  6
CONTINUOUS
370
-3
390
F
  0
LAYER
  5
209
100
AcDbSymbolTableRecord
100
AcDbLayerTableRecord
  2
PUNTI
 70
0
 62
7
  6
CONTINUOUS
370
-3
390
F
  0
LAYER
  5
20A
100
AcDbSymbolTableRecord
100
AcDbLayerTableRecord
  2
RACCORDO
 70
0
 62
7
  6
CONTINUOUS
370
-3
390
F
  0
LAYER
  5
20B
100
AcDbSymbolTableRecord
100
AcDbLayerTableRecord
  2
SIMBOLI
 70
0
 62
7
  6
CONTINUOUS
370
-3
390
F
  0
LAYER
  5
20C
100
AcDbSymbolTableRecord
100
AcDbLayerTableRecord
  2
SMUSSO
 70
0
 62
7
  6
CONTINUOUS
370
-3
390
F
  0
LAYER
  5
20D
100
AcDbSymbolTableRecord
100
AcDbLayerTableRecord
  2
SNAPLINE
 70
0
 62
7
  6
CONTINUOUS
370
-3
390
F
  0
LAYER
  5
20E
100
AcDbSymbolTableRecord
100
AcDbLayerTableRecord
  2
SUPERFICI
 70
0
 62
7
  6
CONTINUOUS
370
-3
390
F
  0
LAYER
  5
20F
100
AcDbSymbolTableRecord
100
AcDbLayerTableRecord
  2
TRASH
 70
0
 62
7
  6
CONTINUOUS
370
-3
390
F
  0
LAYER
  5
210
100
AcDbSymbolTableRecord
100
AcDbLayerTableRecord
  2
XSEC_DATUMS
 70
0
 62
7
  6
CONTINUOUS
370
-3
390
F
  0
ENDTAB
  0
TABLE
  2
STYLE
  5
3
100
AcDbSymbolTable
 70
1
  0
STYLE
  5
11
100
AcDbSymbolTableRecord
100
AcDbTextStyleTableRecord
  2
STANDARD
 70
0
 40
0.0
 41
0.8
 50
0.0
 71
0
 42
0.2
  3
txt
  4

  0
STYLE
  5
211
100
AcDbSymbolTableRecord
100
AcDbTextStyleTableRecord
  2
TEXTSTYLE_1
 70
0
 40
0.0
 41
0.8
 50
0.0
 71
0
 42
0.2
  3
gdt
  4

  0
ENDTAB
  0
TABLE
  2
VIEW
  5
6
100
AcDbSymbolTable
 70
0
  0
ENDTAB
  0
TABLE
  2
UCS
  5
7
100
AcDbSymbolTable
 70
0
  0
ENDTAB
  0
TABLE
  2
APPID
  5
9
100
AcDbSymbolTable
 70
1
  0
APPID
  5
212
100
AcDbSymbolTableRecord
100
AcDbRegAppTableRecord
  2
ACAD
 70
0
  0
ENDTAB
  0
TABLE
  2
BLOCK_RECORD
  5
1
100
AcDbSymbolTable
 70
0
  0
BLOCK_RECORD
  5
213
100
AcDbSymbolTableRecord
100
AcDbBlockTableRecord
  2
*Model_Space
  0
BLOCK_RECORD
  5
214
100
AcDbSymbolTableRecord
100
AcDbBlockTableRecord
  2
*Paper_Space
  0
BLOCK_RECORD
  5
215
100
AcDbSymbolTableRecord
100
AcDbBlockTableRecord
  2
_FILLED
  0
ENDTAB
  0
TABLE
  2
DIMSTYLE
  5
A
100
AcDbSymbolTable
 70
1
100
AcDbDimStyleTable
 71
0
  0
DIMSTYLE
105
216
100
AcDbSymbolTableRecord
100
AcDbDimStyleTableRecord
  2
STANDARD
 70
0
  3

  4

 40
1.0
 41
3.0
 42
0.5
 43
0.38
 44
1.5
 45
0.0
 46
0.0
 47
0.01
 48
0.01
140
3.0
141
0.09
142
0.0
143
25.4
144
1.0
145
0.0
146
1.0
147
0.625
 71
1.0
 72
0.0
 73
0
 74
0
 75
0
 76
0
 77
1
 78
8
 79
2
170
0
171
1
172
0
173
0
174
0
175
0
176
0
177
0
178
0
270
2
179
2
271
2
272
2
273
2
274
2
275
0
280
0
281
0
282
0
283
1
284
8
285
0
286
0
287
3
288
0
340
11
278
44
341
215
342
215
343
215
344
215
  0
ENDTAB
  0
ENDSEC
  0
SECTION
  2
BLOCKS
  0
BLOCK
  5
20
100
AcDbEntity
  8
0
100
AcDbBlockBegin
  2
*Model_Space
 70
0
 10
0.0
 20
0.0
 30
0.0
  3
*Model_Space
  1

  0
ENDBLK
  5
21
100
AcDbEntity
  8
0
100
AcDbBlockEnd
  0
BLOCK
  5
1C
100
AcDbEntity
  8
0
100
AcDbBlockBegin
  2
*Paper_Space
 70
0
 10
0.0
 20
0.0
 30
0.0
  3
*Paper_Space
  1

  0
ENDBLK
  5
1D
100
AcDbEntity
  8
0
100
AcDbBlockEnd
  0
BLOCK
  5
217
100
AcDbEntity
  8
0
100
AcDbBlockBegin
  2
_FILLED
 70
64
 10
0.0
 20
0.0
  3
_FILLED
  1

  0
SOLID
  5
218
100
AcDbEntity
  8
0
  6
BYBLOCK
 62
0
100
AcDbTrace
 10
0.0
 20
0.0
 11
-1.0
 21
0.1333333333
 12
-1.0
 22
-0.1333333333
 13
-1.0
 23
-0.1333333333
  0
ENDBLK
  5
219
100
AcDbEntity
  8
0
  6
BYBLOCK
 62
0
100
AcDbBlockEnd
  0
ENDSEC
  0
SECTION
  2
ENTITIES
  0
LINE
  5
21A
100
AcDbEntity
  8
RACCORDO
100
AcDbLine
 62
7
  6
CONTINUOUS
 10
-16.2115760579
 20
-18.5635353237
 11
-16.0690582813
 21
-20.0122601095
  0
LINE
  5
21B
100
AcDbEntity
  8
RACCORDO
100
AcDbLine
 62
7
  6
CONTINUOUS
 10
-16.3405515442
 20
-18.409929194
 11
-16.1968310783
 21
-19.8716548198
  0
LINE
  5
21C
100
AcDbEntity
  8
RACCORDO
100
AcDbLine
 62
7
  6
CONTINUOUS
 10
-7.8748560622
 20
-12.9139273487
 11
-7.8710323077
 21
-12.9580004126
  0
LINE
  5
21D
100
AcDbEntity
  8
RACCORDO
100
AcDbLine
 62
7
  6
CONTINUOUS
 10
-16.3340345335
 20
-17.0923687846
 11
-16.2115760579
 21
-18.5635353237
  0
LINE
  5
21E
100
AcDbEntity
  8
RACCORDO
100
AcDbLine
 62
7
  6
CONTINUOUS
 10
-16.4638360193
 20
-16.9255871302
 11
-16.3405515442
 21
-18.409929194
  0
LINE
  5
21F
100
AcDbEntity
  8
0
100
AcDbLine
 62
7
  6
CONTINUOUS
 10
2.4084313995
 20
-24.3931974692
 11
2.447563368
 21
-24.8642688516
  0
LINE
  5
220
100
AcDbEntity
  8
0
100
AcDbLine
 62
7
  6
CONTINUOUS
 10
2.8377610609
 20
-25.1266941564
 11
2.8028149648
 21
-24.7067034269
  0
LINE
  5
221
100
AcDbEntity
  8
0
100
AcDbLine
 62
7
  6
CONTINUOUS
 10
-2.8032151165
 20
-22.8611506887
 11
-2.8427374197
 21
-22.3844323302
  0
LINE
  5
222
100
AcDbEntity
  8
0
100
AcDbLine
 62
7
  6
CONTINUOUS
 10
-2.7562031428
 20
-22.3135421654
 11
-2.7166200027
 21
-22.7902161242
  0
LINE
  5
223
100
AcDbEntity
  8
0
100
AcDbLine
 62
7
  6
CONTINUOUS
 10
-2.3244961086
 20
-23.0534150348
 11
-2.3640184118
 21
-22.5766966763
  0
LINE
  5
224
100
AcDbEntity
  8
0
100
AcDbLine
 62
7
  6
CONTINUOUS
 10
2.3609682542
 20
-24.9352034161
 11
2.3218964251
 21
-24.4640880732
  0
LINE
  5
225
100
AcDbEntity
  8
0
100
AcDbLine
 62
7
  6
CONTINUOUS
 10
2.8028149648
 20
-24.7067034269
 11
2.7696102181
 21
-24.2850165885
  0
LINE
  5
226
100
AcDbEntity
  8
0
100
AcDbLine
 62
7
  6
CONTINUOUS
 10
-2.7935397902
 20
-21.8346896215
 11
-2.7562031428
 21
-22.3135421654
  0
LINE
  5
227
100
AcDbEntity
  8
0
100
AcDbLine
 62
7
  6
CONTINUOUS
 10
2.3714935215
 20
-23.9199979979
 11
2.4084313995
 21
-24.3931974692
  0
LINE
  5
228
100
AcDbEntity
  8
0
100
AcDbLine
 62
7
  6
CONTINUOUS
 10
-2.8427374197
 20
-22.3844323302
 11
-2.8800174399
 21
-21.905528699
  0
LINE
  5
229
100
AcDbEntity
  8
0
100
AcDbLine
 62
7
  6
CONTINUOUS
 10
-2.3640184118
 20
-22.5766966763
 11
-2.401298432
 21
-22.097793045
  0
LINE
  5
22A
100
AcDbEntity
  8
0
100
AcDbLine
 62
7
  6
CONTINUOUS
 10
2.3218964251
 20
-24.4640880732
 11
2.2850145739
 21
-23.9908381159
  0
LINE
  5
22B
100
AcDbEntity
  8
0
100
AcDbLine
 62
7
  6
CONTINUOUS
 10
3.5112515374
 20
-24.4248999771
 11
3.510296938
 21
-24.4121300444
  0
LINE
  5
22C
100
AcDbEntity
  8
0
100
AcDbLine
 62
7
  6
CONTINUOUS
 10
2.3367502468
 20
-23.444677336
 11
2.3714935215
 21
-23.9199979979
  0
LINE
  5
22D
100
AcDbEntity
  8
0
100
AcDbLine
 62
7
  6
CONTINUOUS
 10
-2.8286294145
 20
-21.3536656398
 11
-2.7935397902
 21
-21.8346896215
  0
LINE
  5
22E
100
AcDbEntity
  8
0
100
AcDbLine
 62
7
  6
CONTINUOUS
 10
2.2850145739
 20
-23.9908381159
 11
2.250323538
 21
-23.5154648265
  0
LINE
  5
22F
100
AcDbEntity
  8
0
100
AcDbLine
 62
7
  6
CONTINUOUS
 10
-2.8800174399
 20
-21.905528699
 11
-2.9150543151
 21
-21.4244514332
  0
LINE
  5
230
100
AcDbEntity
  8
0
100
AcDbLine
 62
7
  6
CONTINUOUS
 10
-2.401298432
 20
-22.097793045
 11
-2.4363353072
 21
-21.6167157793
  0
LINE
  5
231
100
AcDbEntity
  8
0
100
AcDbLine
 62
7
  6
CONTINUOUS
 10
2.7273053322
 20
-23.9246918921
 11
2.7130766757
 21
-23.7265390444
  0
LINE
  5
232
100
AcDbEntity
  8
0
100
AcDbLine
 62
7
  6
CONTINUOUS
 10
2.7130766757
 20
-23.7265390444
 11
2.6857602207
 21
-23.3291452729
  0
LINE
  5
233
100
AcDbEntity
  8
RACCORDO
100
AcDbLine
 62
7
  6
CONTINUOUS
 10
-16.4363871266
 20
-15.5993084619
 11
-16.3340345335
 21
-17.0923687846
  0
LINE
  5
234
100
AcDbEntity
  8
RACCORDO
100
AcDbLine
 62
7
  6
CONTINUOUS
 10
-16.5666430778
 20
-15.4191726648
 11
-16.4638360193
 21
-16.9255871302
  0
LINE
  5
235
100
AcDbEntity
  8
0
100
AcDbLine
 62
7
  6
CONTINUOUS
 10
2.3042036263
 20
-22.967263076
 11
2.3367502468
 21
-23.444677336
  0
LINE
  5
236
100
AcDbEntity
  8
0
100
AcDbLine
 62
7
  6
CONTINUOUS
 10
-2.8614698944
 20
-20.8704988103
 11
-2.8286294145
 21
-21.3536656398
  0
LINE
  5
237
100
AcDbEntity
  8
0
100
AcDbLine
 62
7
  6
CONTINUOUS
 10
2.250323538
 20
-23.5154648265
 11
2.2178266664
 21
-23.0380133339
  0
LINE
  5
238
100
AcDbEntity
  8
0
100
AcDbLine
 62
7
  6
CONTINUOUS
 10
-2.9150543151
 20
-21.4244514332
 11
-2.9478445967
 21
-20.9412470854
  0
LINE
  5
239
100
AcDbEntity
  8
0
100
AcDbLine
 62
7
  6
CONTINUOUS
 10
-2.4363353072
 20
-21.6167157793
 11
-2.4691255888
 21
-21.1335114314
  0
LINE
  5
23A
100
AcDbEntity
  8
RACCORDO
100
AcDbLine
 62
7
  6
CONTINUOUS
 10
-10.3645009621
 20
-14.4773796168
 11
-10.3683128766
 21
-14.4192786239
  0
LINE
  5
23B
100
AcDbEntity
  8
0
100
AcDbLine
 62
7
  6
CONTINUOUS
 10
2.2949237669
 20
-22.8234110127
 11
2.3042036263
 21
-22.967263076
  0
LINE
  5
23C
100
AcDbEntity
  8
0
100
AcDbLine
 62
7
  6
CONTINUOUS
 10
2.2178266664
 20
-23.0380133339
 11
2.2024008329
 21
-22.7985054409
  0
LINE
  5
23D
100
AcDbEntity
  8
RACCORDO
100
AcDbLine
 62
7
  6
CONTINUOUS
 10
-9.6855724477
 20
-14.3769223423
 11
-9.6878550627
 21
-14.3413756818
  0
LINE
  5
23E
100
AcDbEntity
  8
0
100
AcDbLine
 62
7
  6
CONTINUOUS
 10
-2.9478445967
 20
-20.9412470854
 11
-2.9633974803
 21
-20.6988443461
  0
LINE
  5
23F
100
AcDbEntity
  8
0
100
AcDbLine
 62
7
  6
CONTINUOUS
 10
-2.8700929588
 20
-20.7363175455
 11
-2.8614698944
 21
-20.8704988103
  0
LINE
  5
240
100
AcDbEntity
  8
0
100
AcDbLine
 62
7
  6
CONTINUOUS
 10
-2.4691255888
 20
-21.1335114314
 11
-2.4846784724
 21
-20.8911086922
  0
LINE
  5
241
100
AcDbEntity
  8
RACCORDO
100
AcDbLine
 62
7
  6
CONTINUOUS
 10
-16.7082611219
 20
-12.4121409832
 11
-16.7085654663
 21
-12.406851321
  0
LINE
  5
242
100
AcDbEntity
  8
RACCORDO
100
AcDbLine
 62
7
  6
CONTINUOUS
 10
-9.2645750759
 20
21.9379638004
 11
-9.2626757285
 21
21.9038248869
  0
LINE
  5
243
100
AcDbEntity
  8
RACCORDO
100
AcDbLine
 62
7
  6
CONTINUOUS
 10
-8.7223128141
 20
-13.5643663054
 11
-8.7196212406
 21
-13.6132798633
  0
LINE
  5
244
100
AcDbEntity
  8
RACCORDO
100
AcDbLine
 62
7
  6
CONTINUOUS
 10
-16.5185846126
 20
-14.0849429623
 11
-16.4363871266
 21
-15.5993084619
  0
LINE
  5
245
100
AcDbEntity
  8
RACCORDO
100
AcDbLine
 62
7
  6
CONTINUOUS
 10
-16.6489399985
 20
-13.8913623339
 11
-16.5666430778
 21
-15.4191726648
  0
LINE
  5
246
100
AcDbEntity
  8
RACCORDO
100
AcDbLine
 62
7
  6
CONTINUOUS
 10
-16.580591809
 20
-12.5498528506
 11
-16.5185846126
 21
-14.0849429623
  0
LINE
  5
247
100
AcDbEntity
  8
RACCORDO
100
AcDbLine
 62
7
  6
CONTINUOUS
 10
-16.7085654806
 20
-12.4068508949
 11
-16.6489399985
 21
-13.8913623339
  0
LINE
  5
248
100
AcDbEntity
  8
RACCORDO
100
AcDbLine
 62
7
  6
CONTINUOUS
 10
-10.3683128766
 20
-14.4192786239
 11
-10.4678895972
 21
-11.5169094862
  0
LINE
  5
249
100
AcDbEntity
  8
RACCORDO
100
AcDbLine
 62
7
  6
CONTINUOUS
 10
-9.6878554395
 20
-14.3413759839
 11
-9.7873358797
 21
-11.4419037002
  0
LINE
  5
24A
100
AcDbEntity
  8
RACCORDO
100
AcDbLine
 62
7
  6
CONTINUOUS
 10
-16.7992997193
 20
-9.4562269082
 11
-16.7085654854
 21
-12.4068513217
  0
LINE
  5
24B
100
AcDbEntity
  8
RACCORDO
100
AcDbLine
 62
7
  6
CONTINUOUS
 10
-16.6726890711
 20
-9.550534167
 11
-16.5805919187
 21
-12.5498528065
  0
LINE
  5
24C
100
AcDbEntity
  8
RACCORDO
100
AcDbLine
 62
7
  6
CONTINUOUS
 10
-16.7082611409
 20
24.6108419172
 11
-16.7085845434
 21
24.6215775129
  0
LINE
  5
24D
100
AcDbEntity
  8
RACCORDO
100
AcDbLine
 62
7
  6
CONTINUOUS
 10
-7.876121874
 20
-12.871207267
 11
-7.8748560622
 21
-12.9139273487
  0
LINE
  5
24E
100
AcDbEntity
  8
RACCORDO
100
AcDbLine
 62
7
  6
CONTINUOUS
 10
-10.4678895972
 20
-11.5169094862
 11
-10.5493698149
 21
-8.6002818914
  0
LINE
  5
24F
100
AcDbEntity
  8
RACCORDO
100
AcDbLine
 62
7
  6
CONTINUOUS
 10
-9.7873358797
 20
-11.4419037002
 11
-9.8687304162
 21
-8.5285715223
  0
LINE
  5
250
100
AcDbEntity
  8
RACCORDO
100
AcDbLine
 62
7
  6
CONTINUOUS
 10
-15.4291290439
 20
39.9644086661
 11
-15.4294408006
 21
39.9767650226
  0
LINE
  5
251
100
AcDbEntity
  8
RACCORDO
100
AcDbLine
 62
7
  6
CONTINUOUS
 10
-16.8751583224
 20
-6.4303685175
 11
-16.7992997193
 21
-9.4562269082
  0
LINE
  5
252
100
AcDbEntity
  8
RACCORDO
100
AcDbLine
 62
7
  6
CONTINUOUS
 10
-16.7480551338
 20
-6.5346607034
 11
-16.6726890711
 21
-9.550534167
  0
LINE
  5
253
100
AcDbEntity
  8
RACCORDO
100
AcDbLine
 62
7
  6
CONTINUOUS
 10
-10.5493698149
 20
-8.6002818914
 11
-10.6127485782
 21
-5.6695861032
  0
LINE
  5
254
100
AcDbEntity
  8
RACCORDO
100
AcDbLine
 62
7
  6
CONTINUOUS
 10
-9.8687304162
 20
-8.5285715223
 11
-9.932039049
 21
-5.6013794503
  0
LINE
  5
255
100
AcDbEntity
  8
RACCORDO
100
AcDbLine
 62
7
  6
CONTINUOUS
 10
-16.9341613469
 20
-3.3881915495
 11
-16.8751583224
 21
-6.4303685175
  0
LINE
  5
256
100
AcDbEntity
  8
RACCORDO
100
AcDbLine
 62
7
  6
CONTINUOUS
 10
-16.806682378
 20
-3.5024423717
 11
-16.7480551338
 21
-6.5346607034
  0
LINE
  5
257
100
AcDbEntity
  8
RACCORDO
100
AcDbLine
 62
7
  6
CONTINUOUS
 10
-10.6127485782
 20
-5.6695861032
 11
-10.6580221589
 21
-2.7250132463
  0
LINE
  5
258
100
AcDbEntity
  8
RACCORDO
100
AcDbLine
 62
7
  6
CONTINUOUS
 10
-9.932039049
 20
-5.6013794503
 11
-9.9772635542
 21
-2.6601347092
  0
LINE
  5
259
100
AcDbEntity
  8
RACCORDO
100
AcDbLine
 62
7
  6
CONTINUOUS
 10
-16.976303629
 20
-0.3299354536
 11
-16.9341613469
 21
-3.3881915495
  0
LINE
  5
25A
100
AcDbEntity
  8
RACCORDO
100
AcDbLine
 62
7
  6
CONTINUOUS
 10
-16.8485645493
 20
-0.4540525497
 11
-16.806682378
 21
-3.5024423717
  0
LINE
  5
25B
100
AcDbEntity
  8
RACCORDO
100
AcDbLine
 62
7
  6
CONTINUOUS
 10
-10.6580221589
 20
-2.7250132463
 11
-10.6851876803
 21
0.233244435
  0
LINE
  5
25C
100
AcDbEntity
  8
RACCORDO
100
AcDbLine
 62
7
  6
CONTINUOUS
 10
-9.9772635542
 20
-2.6601347092
 11
-10.0044021556
 21
0.2949699261
  0
LINE
  5
25D
100
AcDbEntity
  8
RACCORDO
100
AcDbLine
 62
7
  6
CONTINUOUS
 10
-17.0015834833
 20
2.7441854058
 11
-16.976303629
 21
-0.3299354536
  0
LINE
  5
25E
100
AcDbEntity
  8
RACCORDO
100
AcDbLine
 62
7
  6
CONTINUOUS
 10
-16.8736958016
 20
2.6102591744
 11
-16.8485645493
 21
-0.4540525497
  0
LINE
  5
25F
100
AcDbEntity
  8
RACCORDO
100
AcDbLine
 62
7
  6
CONTINUOUS
 10
-9.2642847569
 20
-15.8799793359
 11
-9.2645750558
 21
-15.8444210226
  0
LINE
  5
260
100
AcDbEntity
  8
RACCORDO
100
AcDbLine
 62
7
  6
CONTINUOUS
 10
-10.6851876803
 20
0.233244435
 11
-10.69424312
 21
3.2049935869
  0
LINE
  5
261
100
AcDbEntity
  8
RACCORDO
100
AcDbLine
 62
7
  6
CONTINUOUS
 10
-10.0044021556
 20
0.2949699261
 11
-10.013449525
 21
3.2633561308
  0
LINE
  5
262
100
AcDbEntity
  8
RACCORDO
100
AcDbLine
 62
7
  6
CONTINUOUS
 10
-17.01
 20
5.8339673907
 11
-17.0015834833
 21
2.7441854058
  0
LINE
  5
263
100
AcDbEntity
  8
RACCORDO
100
AcDbLine
 62
7
  6
CONTINUOUS
 10
-16.882072938
 20
5.6901651416
 11
-16.8736958016
 21
2.6102591744
  0
LINE
  5
264
100
AcDbEntity
  8
RACCORDO
100
AcDbLine
 62
7
  6
CONTINUOUS
 10
-8.7223128141
 20
21.5444421459
 11
-8.7223128141
 21
-13.5643663054
  0
LINE
  5
265
100
AcDbEntity
  8
RACCORDO
100
AcDbLine
 62
7
  6
CONTINUOUS
 10
-7.876121874
 20
21.2045927874
 11
-7.876121874
 21
-12.871207267
  0
LINE
  5
266
100
AcDbEntity
  8
RACCORDO
100
AcDbLine
 62
7
  6
CONTINUOUS
 10
-17.0015525985
 20
8.939197786
 11
-17.01
 21
5.8339673907
  0
LINE
  5
267
100
AcDbEntity
  8
RACCORDO
100
AcDbLine
 62
7
  6
CONTINUOUS
 10
-16.8736958062
 20
8.7854494437
 11
-16.882072938
 21
5.6901651416
  0
LINE
  5
268
100
AcDbEntity
  8
RACCORDO
100
AcDbLine
 62
7
  6
CONTINUOUS
 10
-10.69424312
 20
3.2049935869
 11
-10.6851876808
 21
6.1900401136
  0
LINE
  5
269
100
AcDbEntity
  8
RACCORDO
100
AcDbLine
 62
7
  6
CONTINUOUS
 10
-10.013449525
 20
3.2633561308
 11
-10.0044020619
 21
6.2450282229
  0
LINE
  5
26A
100
AcDbEntity
  8
RACCORDO
100
AcDbLine
 62
7
  6
CONTINUOUS
 10
-9.2642847569
 20
21.9739969012
 11
-9.2645750759
 21
21.9379638004
  0
LINE
  5
26B
100
AcDbEntity
  8
RACCORDO
100
AcDbLine
 62
7
  6
CONTINUOUS
 10
-16.9762426084
 20
12.0596621099
 11
-17.0015525985
 21
8.939197786
  0
LINE
  5
26C
100
AcDbEntity
  8
RACCORDO
100
AcDbLine
 62
7
  6
CONTINUOUS
 10
-16.8485645573
 20
11.895894734
 11
-16.8736958062
 21
8.7854494437
  0
LINE
  5
26D
100
AcDbEntity
  8
RACCORDO
100
AcDbLine
 62
7
  6
CONTINUOUS
 10
-10.6851876808
 20
6.1900401136
 11
-10.6580221598
 21
9.188189217
  0
LINE
  5
26E
100
AcDbEntity
  8
RACCORDO
100
AcDbLine
 62
7
  6
CONTINUOUS
 10
-10.0044020619
 20
6.2450282229
 11
-9.9772633669
 21
9.2399818844
  0
LINE
  5
26F
100
AcDbEntity
  8
RACCORDO
100
AcDbLine
 62
7
  6
CONTINUOUS
 10
-16.9340716893
 20
15.1951542987
 11
-16.9762426084
 21
12.0596621099
  0
LINE
  5
270
100
AcDbEntity
  8
RACCORDO
100
AcDbLine
 62
7
  6
CONTINUOUS
 10
-16.8066823875
 20
15.0211663319
 11
-16.8485645573
 21
11.895894734
  0
LINE
  5
271
100
AcDbEntity
  8
RACCORDO
100
AcDbLine
 62
7
  6
CONTINUOUS
 10
-10.6580221598
 20
9.188189217
 11
-10.6127485794
 21
12.1992451343
  0
LINE
  5
272
100
AcDbEntity
  8
RACCORDO
100
AcDbLine
 62
7
  6
CONTINUOUS
 10
-9.9772633669
 20
9.2399818844
 11
-9.9320389134
 21
12.2476258372
  0
LINE
  5
273
100
AcDbEntity
  8
RACCORDO
100
AcDbLine
 62
7
  6
CONTINUOUS
 10
-16.7480551423
 20
18.1610044773
 11
-16.8066823875
 21
15.0211663319
  0
LINE
  5
274
100
AcDbEntity
  8
RACCORDO
100
AcDbLine
 62
7
  6
CONTINUOUS
 10
-16.8750422787
 20
18.3454561387
 11
-16.9340716893
 21
15.1951542987
  0
LINE
  5
275
100
AcDbEntity
  8
RACCORDO
100
AcDbLine
 62
7
  6
CONTINUOUS
 10
-10.6127485794
 20
12.1992451343
 11
-10.5493698161
 21
15.2230112099
  0
LINE
  5
276
100
AcDbEntity
  8
RACCORDO
100
AcDbLine
 62
7
  6
CONTINUOUS
 10
-9.9320389134
 20
12.2476258372
 11
-9.8687305258
 21
15.2677629885
  0
LINE
  5
277
100
AcDbEntity
  8
RACCORDO
100
AcDbLine
 62
7
  6
CONTINUOUS
 10
-16.672689075
 20
21.3152261415
 11
-16.7480551423
 21
18.1610044773
  0
LINE
  5
278
100
AcDbEntity
  8
RACCORDO
100
AcDbLine
 62
7
  6
CONTINUOUS
 10
-16.7991602923
 20
21.5103180093
 11
-16.8750422787
 21
18.3454561387
  0
LINE
  5
279
100
AcDbEntity
  8
RACCORDO
100
AcDbLine
 62
7
  6
CONTINUOUS
 10
-10.5493698161
 20
15.2230112099
 11
-10.4678895979
 21
18.2592899098
  0
LINE
  5
27A
100
AcDbEntity
  8
RACCORDO
100
AcDbLine
 62
7
  6
CONTINUOUS
 10
-9.8687305258
 20
15.2677629885
 11
-9.7873363796
 21
18.3005904311
  0
LINE
  5
27B
100
AcDbEntity
  8
RACCORDO
100
AcDbLine
 62
7
  6
CONTINUOUS
 10
-16.7085845382
 20
24.621577677
 11
-16.7991602923
 21
21.5103180093
  0
LINE
  5
27C
100
AcDbEntity
  8
RACCORDO
100
AcDbLine
 62
7
  6
CONTINUOUS
 10
-16.5805919135
 20
24.4836087068
 11
-16.672689075
 21
21.3152261415
  0
LINE
  5
27D
100
AcDbEntity
  8
RACCORDO
100
AcDbLine
 62
7
  6
CONTINUOUS
 10
-10.4678895979
 20
18.2592899098
 11
-10.3683128766
 21
21.307882858
  0
LINE
  5
27E
100
AcDbEntity
  8
RACCORDO
100
AcDbLine
 62
7
  6
CONTINUOUS
 10
-9.7873363796
 20
18.3005904311
 11
-9.687856475
 21
21.3461081649
  0
LINE
  5
27F
100
AcDbEntity
  8
RACCORDO
100
AcDbLine
 62
7
  6
CONTINUOUS
 10
-16.6487330566
 20
26.2206870288
 11
-16.708584526
 21
24.6215775123
  0
LINE
  5
280
100
AcDbEntity
  8
RACCORDO
100
AcDbLine
 62
7
  6
CONTINUOUS
 10
-16.5185846043
 20
26.1325077808
 11
-16.5805918042
 21
24.4836086629
  0
LINE
  5
281
100
AcDbEntity
  8
RACCORDO
100
AcDbLine
 62
7
  6
CONTINUOUS
 10
-16.5664080299
 20
27.8987022717
 11
-16.6487330566
 21
26.2206870288
  0
LINE
  5
282
100
AcDbEntity
  8
RACCORDO
100
AcDbLine
 62
7
  6
CONTINUOUS
 10
-16.4363871074
 20
27.7977187423
 11
-16.5185846043
 21
26.1325077808
  0
LINE
  5
283
100
AcDbEntity
  8
RACCORDO
100
AcDbLine
 62
7
  6
CONTINUOUS
 10
-16.4636049342
 20
29.5925919839
 11
-16.5664080299
 21
27.8987022717
  0
LINE
  5
284
100
AcDbEntity
  8
RACCORDO
100
AcDbLine
 62
7
  6
CONTINUOUS
 10
-16.3340344892
 20
29.4786033473
 11
-16.4363871074
 21
27.7977187423
  0
LINE
  5
285
100
AcDbEntity
  8
RACCORDO
100
AcDbLine
 62
7
  6
CONTINUOUS
 10
-16.3403664712
 20
31.301611557
 11
-16.4636049342
 21
29.5925919839
  0
LINE
  5
286
100
AcDbEntity
  8
RACCORDO
100
AcDbLine
 62
7
  6
CONTINUOUS
 10
-16.2115759504
 20
31.1745030818
 11
-16.3340344892
 21
29.4786033473
  0
LINE
  5
287
100
AcDbEntity
  8
RACCORDO
100
AcDbLine
 62
7
  6
CONTINUOUS
 10
-16.1967444842
 20
33.0251277406
 11
-16.3403664712
 21
31.301611557
  0
LINE
  5
288
100
AcDbEntity
  8
RACCORDO
100
AcDbLine
 62
7
  6
CONTINUOUS
 10
-16.0690580772
 20
32.8847829355
 11
-16.2115759504
 21
31.1745030818
  0
LINE
  5
289
100
AcDbEntity
  8
RACCORDO
100
AcDbLine
 62
7
  6
CONTINUOUS
 10
-16.0327907694
 20
34.7625539719
 11
-16.1967444842
 21
33.0251277406
  0
LINE
  5
28A
100
AcDbEntity
  8
RACCORDO
100
AcDbLine
 62
7
  6
CONTINUOUS
 10
-15.906522738
 20
34.6088329435
 11
-16.0690580772
 21
32.8847829355
  0
LINE
  5
28B
100
AcDbEntity
  8
RACCORDO
100
AcDbLine
 62
7
  6
CONTINUOUS
 10
-15.7240302046
 20
36.346009627
 11
-15.906522738
 21
34.6088329435
  0
LINE
  5
28C
100
AcDbEntity
  8
RACCORDO
100
AcDbLine
 62
7
  6
CONTINUOUS
 10
-15.8485640332
 20
36.5132564008
 11
-16.0327907694
 21
34.7625539719
  0
LINE
  5
28D
100
AcDbEntity
  8
RACCORDO
100
AcDbLine
 62
7
  6
CONTINUOUS
 10
-15.4294408006
 20
39.9767650226
 11
-15.4292675281
 21
39.9782647539
  0
LINE
  5
28E
100
AcDbEntity
  8
RACCORDO
100
AcDbLine
 62
7
  6
CONTINUOUS
 10
-15.5216612102
 20
38.0956349532
 11
-15.7240302046
 21
36.346009627
  0
LINE
  5
28F
100
AcDbEntity
  8
RACCORDO
100
AcDbLine
 62
7
  6
CONTINUOUS
 10
-15.6441529351
 20
38.2764632354
 11
-15.8485640332
 21
36.5132564008
  0
LINE
  5
290
100
AcDbEntity
  8
RACCORDO
100
AcDbLine
 62
7
  6
CONTINUOUS
 10
-15.2994988419
 20
39.8570410646
 11
-15.5216612102
 21
38.0956349532
  0
LINE
  5
291
100
AcDbEntity
  8
RACCORDO
100
AcDbLine
 62
7
  6
CONTINUOUS
 10
-15.4292675281
 20
39.9782647539
 11
-15.6441529351
 21
38.2764632354
  0
LINE
  5
292
100
AcDbEntity
  8
RACCORDO
100
AcDbLine
 62
7
  6
CONTINUOUS
 10
16.4332002045
 20
-38.7664450027
 11
16.4669428029
 21
-38.7713589841
  0
LINE
  5
293
100
AcDbEntity
  8
RACCORDO
100
AcDbLine
 62
7
  6
CONTINUOUS
 10
16.533304967
 20
-38.8650679353
 11
16.598398212
 21
-38.875242601
  0
LINE
  5
294
100
AcDbEntity
  8
RACCORDO
100
AcDbLine
 62
7
  6
CONTINUOUS
 10
16.813072077
 20
-38.4636030273
 11
16.841375111
 21
-38.4681528198
  0
LINE
  5
295
100
AcDbEntity
  8
0
100
AcDbLine
 62
7
  6
CONTINUOUS
 10
3.5967675932
 20
-24.3412974304
 11
3.6064712921
 21
-24.3432054665
  0
LINE
  5
296
100
AcDbEntity
  8
RACCORDO
100
AcDbLine
 62
7
  6
CONTINUOUS
 10
16.3986080341
 20
-38.7592837416
 11
16.4332002045
 21
-38.7664450027
  0
LINE
  5
297
100
AcDbEntity
  8
0
100
AcDbLine
 62
7
  6
CONTINUOUS
 10
3.1146875057
 20
-24.0687986201
 11
3.0959961611
 21
-24.0646693762
  0
LINE
  5
298
100
AcDbEntity
  8
RACCORDO
100
AcDbLine
 62
7
  6
CONTINUOUS
 10
8.4111622107
 20
-22.2024433201
 11
8.373524639
 21
-22.194095831
  0
LINE
  5
299
100
AcDbEntity
  8
RACCORDO
100
AcDbLine
 62
7
  6
CONTINUOUS
 10
16.46834323
 20
-38.8499521971
 11
16.533304967
 21
-38.8650679353
  0
LINE
  5
29A
100
AcDbEntity
  8
RACCORDO
100
AcDbLine
 62
7
  6
CONTINUOUS
 10
16.7859473843
 20
-38.4569202131
 11
16.813072077
 21
-38.4636030273
  0
LINE
  5
29B
100
AcDbEntity
  8
0
100
AcDbLine
 62
7
  6
CONTINUOUS
 10
2.7721474882
 20
-23.2583809661
 11
2.8141770381
 21
-23.2687560859
  0
LINE
  5
29C
100
AcDbEntity
  8
0
100
AcDbLine
 62
7
  6
CONTINUOUS
 10
2.6857602207
 20
-23.3291452729
 11
2.7282452512
 21
-23.3396414281
  0
LINE
  5
29D
100
AcDbEntity
  8
RACCORDO
100
AcDbLine
 62
7
  6
CONTINUOUS
 10
8.1784568169
 20
-22.8686469368
 11
8.1153687579
 21
-22.8525410472
  0
LINE
  5
29E
100
AcDbEntity
  8
0
100
AcDbLine
 62
7
  6
CONTINUOUS
 10
3.0959961611
 20
-24.0646693762
 11
3.0771472253
 21
-24.0597736462
  0
LINE
  5
29F
100
AcDbEntity
  8
0
100
AcDbLine
 62
7
  6
CONTINUOUS
 10
2.2509805821
 20
-22.8113997039
 11
2.2024008329
 21
-22.7985054409
  0
LINE
  5
2A0
100
AcDbEntity
  8
RACCORDO
100
AcDbLine
 62
7
  6
CONTINUOUS
 10
16.3633137311
 20
-38.7499032983
 11
16.3986080341
 21
-38.7592837416
  0
LINE
  5
2A1
100
AcDbEntity
  8
0
100
AcDbLine
 62
7
  6
CONTINUOUS
 10
2.2995607745
 20
-22.8246784795
 11
2.2509805821
 21
-22.8113997039
  0
LINE
  5
2A2
100
AcDbEntity
  8
0
100
AcDbLine
 62
7
  6
CONTINUOUS
 10
2.8141770381
 20
-23.2687560859
 11
2.8560554168
 21
-23.2803482185
  0
LINE
  5
2A3
100
AcDbEntity
  8
0
100
AcDbLine
 62
7
  6
CONTINUOUS
 10
2.7282452512
 20
-23.3396414281
 11
2.7705527866
 21
-23.3513707827
  0
LINE
  5
2A4
100
AcDbEntity
  8
0
100
AcDbLine
 62
7
  6
CONTINUOUS
 10
2.3481413378
 20
-22.838341836
 11
2.2995607745
 21
-22.8246784795
  0
LINE
  5
2A5
100
AcDbEntity
  8
RACCORDO
100
AcDbLine
 62
7
  6
CONTINUOUS
 10
8.373524639
 20
-22.194095831
 11
8.3353450836
 21
-22.1832933452
  0
LINE
  5
2A6
100
AcDbEntity
  8
0
100
AcDbLine
 62
7
  6
CONTINUOUS
 10
2.3966915488
 20
-22.8523377104
 11
2.3481413378
 21
-22.838341836
  0
LINE
  5
2A7
100
AcDbEntity
  8
0
100
AcDbLine
 62
7
  6
CONTINUOUS
 10
3.0771472253
 20
-24.0597736462
 11
3.0582055329
 21
-24.0542971535
  0
LINE
  5
2A8
100
AcDbEntity
  8
RACCORDO
100
AcDbLine
 62
7
  6
CONTINUOUS
 10
-10.3327859797
 20
-14.4321489109
 11
-10.2954743763
 21
-14.4431175496
  0
LINE
  5
2A9
100
AcDbEntity
  8
0
100
AcDbLine
 62
7
  6
CONTINUOUS
 10
2.4452420036
 20
-22.8667182853
 11
2.3966915488
 21
-22.8523377104
  0
LINE
  5
2AA
100
AcDbEntity
  8
RACCORDO
100
AcDbLine
 62
7
  6
CONTINUOUS
 10
16.404547764
 20
-38.8305178226
 11
16.46834323
 21
-38.8499521971
  0
LINE
  5
2AB
100
AcDbEntity
  8
0
100
AcDbLine
 62
7
  6
CONTINUOUS
 10
2.4938845967
 20
-22.881640008
 11
2.4452420036
 21
-22.8667182853
  0
LINE
  5
2AC
100
AcDbEntity
  8
0
100
AcDbLine
 62
7
  6
CONTINUOUS
 10
2.8560554168
 20
-23.2803482185
 11
2.897782421
 21
-23.2931575568
  0
LINE
  5
2AD
100
AcDbEntity
  8
0
100
AcDbLine
 62
7
  6
CONTINUOUS
 10
2.7705527866
 20
-23.3513707827
 11
2.8126826182
 21
-23.3643335345
  0
LINE
  5
2AE
100
AcDbEntity
  8
RACCORDO
100
AcDbLine
 62
7
  6
CONTINUOUS
 10
8.1153687579
 20
-22.8525410472
 11
8.0514233847
 21
-22.8324357767
  0
LINE
  5
2AF
100
AcDbEntity
  8
0
100
AcDbLine
 62
7
  6
CONTINUOUS
 10
3.0582055329
 20
-24.0542971535
 11
3.0391926798
 21
-24.0483018207
  0
LINE
  5
2B0
100
AcDbEntity
  8
0
100
AcDbLine
 62
7
  6
CONTINUOUS
 10
2.5426286779
 20
-22.8971021537
 11
2.4938845967
 21
-22.881640008
  0
LINE
  5
2B1
100
AcDbEntity
  8
RACCORDO
100
AcDbLine
 62
7
  6
CONTINUOUS
 10
16.3271689337
 20
-38.7382766442
 11
16.3633137311
 21
-38.7499032983
  0
LINE
  5
2B2
100
AcDbEntity
  8
0
100
AcDbLine
 62
7
  6
CONTINUOUS
 10
2.5914647653
 20
-22.9131055717
 11
2.5426286779
 21
-22.8971021537
  0
LINE
  5
2B3
100
AcDbEntity
  8
0
100
AcDbLine
 62
7
  6
CONTINUOUS
 10
2.897782421
 20
-23.2931575568
 11
2.9393073088
 21
-23.3071611894
  0
LINE
  5
2B4
100
AcDbEntity
  8
0
100
AcDbLine
 62
7
  6
CONTINUOUS
 10
2.8126826182
 20
-23.3643335345
 11
2.8547006714
 21
-23.3785687484
  0
LINE
  5
2B5
100
AcDbEntity
  8
RACCORDO
100
AcDbLine
 62
7
  6
CONTINUOUS
 10
16.7602792403
 20
-38.4481729203
 11
16.7859473843
 21
-38.4569202131
  0
LINE
  5
2B6
100
AcDbEntity
  8
0
100
AcDbLine
 62
7
  6
CONTINUOUS
 10
2.6404564849
 20
-22.9298090906
 11
2.5914647653
 21
-22.9131055717
  0
LINE
  5
2B7
100
AcDbEntity
  8
RACCORDO
100
AcDbLine
 62
7
  6
CONTINUOUS
 10
8.3353450836
 20
-22.1832933452
 11
8.2967846756
 21
-22.1700568283
  0
LINE
  5
2B8
100
AcDbEntity
  8
0
100
AcDbLine
 62
7
  6
CONTINUOUS
 10
3.0391926798
 20
-24.0483018207
 11
3.0200870088
 21
-24.0417257839
  0
LINE
  5
2B9
100
AcDbEntity
  8
0
100
AcDbLine
 62
7
  6
CONTINUOUS
 10
2.6896121011
 20
-22.947211183
 11
2.6404564849
 21
-22.9298090906
  0
LINE
  5
2BA
100
AcDbEntity
  8
RACCORDO
100
AcDbLine
 62
7
  6
CONTINUOUS
 10
-10.3683128688
 20
-14.419278617
 11
-10.3327859797
 21
-14.4321489109
  0
LINE
  5
2BB
100
AcDbEntity
  8
RACCORDO
100
AcDbLine
 62
7
  6
CONTINUOUS
 10
8.7450211523
 20
-20.3012601989
 11
8.7525724651
 21
-20.3040118889
  0
LINE
  5
2BC
100
AcDbEntity
  8
0
100
AcDbLine
 62
7
  6
CONTINUOUS
 10
2.7389232477
 20
-22.9653134721
 11
2.6896121011
 21
-22.947211183
  0
LINE
  5
2BD
100
AcDbEntity
  8
0
100
AcDbLine
 62
7
  6
CONTINUOUS
 10
2.9393073088
 20
-23.3071611894
 11
2.9806805643
 21
-23.322382272
  0
LINE
  5
2BE
100
AcDbEntity
  8
0
100
AcDbLine
 62
7
  6
CONTINUOUS
 10
2.8547006714
 20
-23.3785687484
 11
2.8965407582
 21
-23.3940376085
  0
LINE
  5
2BF
100
AcDbEntity
  8
RACCORDO
100
AcDbLine
 62
7
  6
CONTINUOUS
 10
16.3455907688
 20
-38.8086605617
 11
16.404547764
 21
-38.8305178226
  0
LINE
  5
2C0
100
AcDbEntity
  8
RACCORDO
100
AcDbLine
 62
7
  6
CONTINUOUS
 10
8.46954493
 20
-20.1990577953
 11
8.7450211523
 21
-20.3012601989
  0
LINE
  5
2C1
100
AcDbEntity
  8
RACCORDO
100
AcDbLine
 62
7
  6
CONTINUOUS
 10
8.0514233847
 20
-22.8324357767
 11
7.9866201175
 21
-22.808331646
  0
LINE
  5
2C2
100
AcDbEntity
  8
0
100
AcDbLine
 62
7
  6
CONTINUOUS
 10
3.0200870088
 20
-24.0417257839
 11
3.0008885015
 21
-24.0345690607
  0
LINE
  5
2C3
100
AcDbEntity
  8
RACCORDO
100
AcDbLine
 62
7
  6
CONTINUOUS
 10
16.290173412
 20
-38.7244040459
 11
16.3271689337
 21
-38.7382766442
  0
LINE
  5
2C4
100
AcDbEntity
  8
RACCORDO
100
AcDbLine
 62
7
  6
CONTINUOUS
 10
8.1955432777
 20
-20.0955735781
 11
8.46954493
 21
-20.1990577953
  0
LINE
  5
2C5
100
AcDbEntity
  8
0
100
AcDbLine
 62
7
  6
CONTINUOUS
 10
2.7884286017
 20
-22.984279515
 11
2.7389232477
 21
-22.9653134721
  0
LINE
  5
2C6
100
AcDbEntity
  8
RACCORDO
100
AcDbLine
 62
7
  6
CONTINUOUS
 10
7.9230334097
 20
-19.9908138302
 11
8.1955432777
 21
-20.0955735781
  0
LINE
  5
2C7
100
AcDbEntity
  8
RACCORDO
100
AcDbLine
 62
7
  6
CONTINUOUS
 10
7.6519981117
 20
-19.8847722687
 11
7.9230334097
 21
-19.9908138302
  0
LINE
  5
2C8
100
AcDbEntity
  8
RACCORDO
100
AcDbLine
 62
7
  6
CONTINUOUS
 10
7.3824373836
 20
-19.7774488937
 11
7.6519981117
 21
-19.8847722687
  0
LINE
  5
2C9
100
AcDbEntity
  8
0
100
AcDbLine
 62
7
  6
CONTINUOUS
 10
2.9806805643
 20
-23.322382272
 11
3.0220538971
 21
-23.3388900284
  0
LINE
  5
2CA
100
AcDbEntity
  8
0
100
AcDbLine
 62
7
  6
CONTINUOUS
 10
2.8381746431
 20
-23.0041263392
 11
2.7884286017
 21
-22.984279515
  0
LINE
  5
2CB
100
AcDbEntity
  8
0
100
AcDbLine
 62
7
  6
CONTINUOUS
 10
2.8965407582
 20
-23.3940376085
 11
2.9380045789
 21
-23.4106234165
  0
LINE
  5
2CC
100
AcDbEntity
  8
RACCORDO
100
AcDbLine
 62
7
  6
CONTINUOUS
 10
-14.5830158406
 20
-26.3870441476
 11
16.345758094
 21
-38.8087370326
  0
LINE
  5
2CD
100
AcDbEntity
  8
RACCORDO
100
AcDbLine
 62
7
  6
CONTINUOUS
 10
-14.6386003628
 20
-26.302711225
 11
16.290173412
 21
-38.7244040459
  0
LINE
  5
2CE
100
AcDbEntity
  8
0
100
AcDbLine
 62
7
  6
CONTINUOUS
 10
4.0313252787
 20
-25.6060564545
 11
3.5708532184
 21
-25.421120494
  0
LINE
  5
2CF
100
AcDbEntity
  8
0
100
AcDbLine
 62
7
  6
CONTINUOUS
 10
2.8377610609
 20
-25.1266941564
 11
2.3609682542
 21
-24.9352034161
  0
LINE
  5
2D0
100
AcDbEntity
  8
0
100
AcDbLine
 62
7
  6
CONTINUOUS
 10
2.2203928915
 20
-24.8787449193
 11
1.715842743
 21
-24.6761062049
  0
LINE
  5
2D1
100
AcDbEntity
  8
0
100
AcDbLine
 62
7
  6
CONTINUOUS
 10
0.807797138
 20
-24.3114146185
 11
0.3342723733
 21
-24.1212363976
  0
LINE
  5
2D2
100
AcDbEntity
  8
0
100
AcDbLine
 62
7
  6
CONTINUOUS
 10
0.2591004285
 20
-24.0910456498
 11
-0.2092137102
 21
-23.9029601339
  0
LINE
  5
2D3
100
AcDbEntity
  8
0
100
AcDbLine
 62
7
  6
CONTINUOUS
 10
-0.8767652856
 20
-23.6348563716
 11
-0.9439054446
 21
-23.6078913701
  0
LINE
  5
2D4
100
AcDbEntity
  8
0
100
AcDbLine
 62
7
  6
CONTINUOUS
 10
-1.6088078824
 20
-23.3408515612
 11
-2.0667867797
 21
-23.1569169112
  0
LINE
  5
2D5
100
AcDbEntity
  8
0
100
AcDbLine
 62
7
  6
CONTINUOUS
 10
-2.3244961086
 20
-23.0534150348
 11
-2.8032151165
 21
-22.8611506887
  0
LINE
  5
2D6
100
AcDbEntity
  8
0
100
AcDbLine
 62
7
  6
CONTINUOUS
 10
-3.7180539493
 20
-22.4937307889
 11
-4.1399254437
 21
-22.3242976859
  0
LINE
  5
2D7
100
AcDbEntity
  8
0
100
AcDbLine
 62
7
  6
CONTINUOUS
 10
-4.0533303299
 20
-22.2533631214
 11
-3.6896694783
 21
-22.3994175179
  0
LINE
  5
2D8
100
AcDbEntity
  8
0
100
AcDbLine
 62
7
  6
CONTINUOUS
 10
-2.7166200027
 20
-22.7902161242
 11
-2.3337061176
 21
-22.944002973
  0
LINE
  5
2D9
100
AcDbEntity
  8
0
100
AcDbLine
 62
7
  6
CONTINUOUS
 10
-1.9801916659
 20
-23.0859823467
 11
-1.6099523071
 21
-23.23467882
  0
LINE
  5
2DA
100
AcDbEntity
  8
0
100
AcDbLine
 62
7
  6
CONTINUOUS
 10
-0.8573103308
 20
-23.5369568056
 11
-0.8413372057
 21
-23.5433719727
  0
LINE
  5
2DB
100
AcDbEntity
  8
0
100
AcDbLine
 62
7
  6
CONTINUOUS
 10
-0.1226185964
 20
-23.8320255694
 11
0.2389536505
 21
-23.9772411352
  0
LINE
  5
2DC
100
AcDbEntity
  8
0
100
AcDbLine
 62
7
  6
CONTINUOUS
 10
0.4208674871
 20
-24.0503018331
 11
0.8322855353
 21
-24.2155365965
  0
LINE
  5
2DD
100
AcDbEntity
  8
0
100
AcDbLine
 62
7
  6
CONTINUOUS
 10
1.8024378568
 20
-24.6051716404
 11
2.1752977028
 21
-24.7549205604
  0
LINE
  5
2DE
100
AcDbEntity
  8
0
100
AcDbLine
 62
7
  6
CONTINUOUS
 10
2.447563368
 20
-24.8642688516
 11
2.8284915163
 21
-25.0172581838
  0
LINE
  5
2DF
100
AcDbEntity
  8
0
100
AcDbLine
 62
7
  6
CONTINUOUS
 10
3.6574483322
 20
-25.3501859294
 11
3.9911427499
 21
-25.4842051306
  0
LINE
  5
2E0
100
AcDbEntity
  8
0
100
AcDbLine
 62
7
  6
CONTINUOUS
 10
1.5561835736
 20
-24.1976588793
 11
0.9042474936
 21
-23.935826652
  0
LINE
  5
2E1
100
AcDbEntity
  8
0
100
AcDbLine
 62
7
  6
CONTINUOUS
 10
0.9907880844
 20
-23.8649367501
 11
1.6427241644
 21
-24.1267689774
  0
LINE
  5
2E2
100
AcDbEntity
  8
0
100
AcDbLine
 62
7
  6
CONTINUOUS
 10
1.4341874244
 20
-23.8265232066
 11
0.9758481003
 21
-23.642443801
  0
LINE
  5
2E3
100
AcDbEntity
  8
0
100
AcDbLine
 62
7
  6
CONTINUOUS
 10
3.0262879212
 20
-24.3881041407
 11
2.7696102181
 21
-24.2850165885
  0
LINE
  5
2E4
100
AcDbEntity
  8
0
100
AcDbLine
 62
7
  6
CONTINUOUS
 10
2.8561011506
 20
-24.2141673643
 11
3.1127788537
 21
-24.3172549166
  0
LINE
  5
2E5
100
AcDbEntity
  8
0
100
AcDbLine
 62
7
  6
CONTINUOUS
 10
3.0008885081
 20
-24.0345690634
 11
2.7273053322
 21
-23.9246918921
  0
LINE
  5
2E6
100
AcDbEntity
  8
0
100
AcDbLine
 62
7
  6
CONTINUOUS
 10
1.3565524131
 20
-22.4339611772
 11
0.8934489007
 21
-22.2479683662
  0
LINE
  5
2E7
100
AcDbEntity
  8
0
100
AcDbLine
 62
7
  6
CONTINUOUS
 10
-0.1155309809
 20
-21.8427392988
 11
-0.5891761611
 21
-21.6525127164
  0
LINE
  5
2E8
100
AcDbEntity
  8
0
100
AcDbLine
 62
7
  6
CONTINUOUS
 10
-1.5415583704
 20
-21.2700145502
 11
-2.0198817279
 21
-21.0779091063
  0
LINE
  5
2E9
100
AcDbEntity
  8
0
100
AcDbLine
 62
7
  6
CONTINUOUS
 10
-3.1410428436
 20
-20.6276255262
 11
-3.6194350099
 21
-20.4354924471
  0
LINE
  5
2EA
100
AcDbEntity
  8
0
100
AcDbLine
 62
7
  6
CONTINUOUS
 10
-4.5071099418
 20
-20.0789821823
 11
-5.0271469788
 21
-19.8701235843
  0
LINE
  5
2EB
100
AcDbEntity
  8
0
100
AcDbLine
 62
7
  6
CONTINUOUS
 10
-2.4846784724
 20
-20.8911086922
 11
-2.9633974803
 21
-20.6988443461
  0
LINE
  5
2EC
100
AcDbEntity
  8
RACCORDO
100
AcDbLine
 62
7
  6
CONTINUOUS
 10
7.9866201175
 20
-22.808331646
 11
-9.2642847569
 21
-15.8799793359
  0
LINE
  5
2ED
100
AcDbEntity
  8
RACCORDO
100
AcDbLine
 62
7
  6
CONTINUOUS
 10
8.2967846756
 20
-22.1700568283
 11
-9.0335647439
 21
-15.2098016626
  0
LINE
  5
2EE
100
AcDbEntity
  8
RACCORDO
100
AcDbLine
 62
7
  6
CONTINUOUS
 10
-8.0669911787
 20
-14.4828798835
 11
8.7805852722
 21
-21.2492464059
  0
LINE
  5
2EF
100
AcDbEntity
  8
DRAFT
100
AcDbLine
 62
7
  6
CONTINUOUS
 10
7.3824373836
 20
-19.7774488937
 11
-4.9048432808
 21
-14.8425999686
  0
LINE
  5
2F0
100
AcDbEntity
  8
RACCORDO
100
AcDbLine
 62
7
  6
CONTINUOUS
 10
-4.9048432808
 20
-14.8425999686
 11
-5.1728668038
 21
-14.7340173889
  0
LINE
  5
2F1
100
AcDbEntity
  8
RACCORDO
100
AcDbLine
 62
7
  6
CONTINUOUS
 10
-5.1728668038
 20
-14.7340173889
 11
-5.439294659
 21
-14.6242016312
  0
LINE
  5
2F2
100
AcDbEntity
  8
0
100
AcDbLine
 62
7
  6
CONTINUOUS
 10
2.8881148669
 20
-23.0248369406
 11
2.8381746431
 21
-23.0041263392
  0
LINE
  5
2F3
100
AcDbEntity
  8
RACCORDO
100
AcDbLine
 62
7
  6
CONTINUOUS
 10
-5.439294659
 20
-14.6242016312
 11
-5.7041268464
 21
-14.5131526955
  0
LINE
  5
2F4
100
AcDbEntity
  8
RACCORDO
100
AcDbLine
 62
7
  6
CONTINUOUS
 10
-5.7041268464
 20
-14.5131526955
 11
-5.9673795469
 21
-14.4008634525
  0
LINE
  5
2F5
100
AcDbEntity
  8
RACCORDO
100
AcDbLine
 62
7
  6
CONTINUOUS
 10
-14.6759801087
 20
-26.2867177744
 11
-14.6386003628
 21
-26.302711225
  0
LINE
  5
2F6
100
AcDbEntity
  8
0
100
AcDbLine
 62
7
  6
CONTINUOUS
 10
3.0262879212
 20
-24.3881041408
 11
3.0463963743
 21
-24.3967548756
  0
LINE
  5
2F7
100
AcDbEntity
  8
0
100
AcDbLine
 62
7
  6
CONTINUOUS
 10
3.0220538971
 20
-23.3388900284
 11
3.0634778908
 21
-23.3567075199
  0
LINE
  5
2F8
100
AcDbEntity
  8
RACCORDO
100
AcDbLine
 62
7
  6
CONTINUOUS
 10
-9.2642847569
 20
-15.8799793359
 11
-9.3288167819
 21
-15.8522054903
  0
LINE
  5
2F9
100
AcDbEntity
  8
0
100
AcDbLine
 62
7
  6
CONTINUOUS
 10
2.9380045789
 20
-23.4106234165
 11
2.9790260485
 21
-23.4282872589
  0
LINE
  5
2FA
100
AcDbEntity
  8
0
100
AcDbLine
 62
7
  6
CONTINUOUS
 10
3.1127788537
 20
-24.3172549166
 11
3.13152618
 21
-24.3253493036
  0
LINE
  5
2FB
100
AcDbEntity
  8
0
100
AcDbLine
 62
7
  6
CONTINUOUS
 10
2.938148496
 20
-23.0465238076
 11
2.8881148669
 21
-23.0248369406
  0
LINE
  5
2FC
100
AcDbEntity
  8
RACCORDO
100
AcDbLine
 62
7
  6
CONTINUOUS
 10
-5.9673795469
 20
-14.4008634525
 11
-6.2290365796
 21
-14.2873410315
  0
LINE
  5
2FD
100
AcDbEntity
  8
RACCORDO
100
AcDbLine
 62
7
  6
CONTINUOUS
 10
-14.6472557864
 20
-26.3590751445
 11
-14.5829082299
 21
-26.3870796627
  0
LINE
  5
2FE
100
AcDbEntity
  8
RACCORDO
100
AcDbLine
 62
7
  6
CONTINUOUS
 10
-6.2290365796
 20
-14.2873410315
 11
-6.4890494017
 21
-14.172606821
  0
LINE
  5
2FF
100
AcDbEntity
  8
RACCORDO
100
AcDbLine
 62
7
  6
CONTINUOUS
 10
9.0151127849
 20
-22.2040922402
 11
8.981616379
 21
-22.1892421112
  0
LINE
  5
300
100
AcDbEntity
  8
RACCORDO
100
AcDbLine
 62
7
  6
CONTINUOUS
 10
-6.4890494017
 20
-14.172606821
 11
-6.7474018324
 21
-14.0566679505
  0
LINE
  5
301
100
AcDbEntity
  8
0
100
AcDbLine
 62
7
  6
CONTINUOUS
 10
2.9882766616
 20
-23.0691347686
 11
2.938148496
 21
-23.0465238076
  0
LINE
  5
302
100
AcDbEntity
  8
RACCORDO
100
AcDbLine
 62
7
  6
CONTINUOUS
 10
-16.5805902239
 20
-12.5499014942
 11
-16.6045477997
 21
-12.5390797946
  0
LINE
  5
303
100
AcDbEntity
  8
RACCORDO
100
AcDbLine
 62
7
  6
CONTINUOUS
 10
-6.7474018324
 20
-14.0566679505
 11
-7.0041100524
 21
-13.9395172905
  0
LINE
  5
304
100
AcDbEntity
  8
RACCORDO
100
AcDbLine
 62
7
  6
CONTINUOUS
 10
-9.0335647439
 20
-15.2098016626
 11
-9.0741546058
 21
-15.1912621081
  0
LINE
  5
305
100
AcDbEntity
  8
0
100
AcDbLine
 62
7
  6
CONTINUOUS
 10
3.0634778908
 20
-23.3567075199
 11
3.1049020037
 21
-23.3758116455
  0
LINE
  5
306
100
AcDbEntity
  8
RACCORDO
100
AcDbLine
 62
7
  6
CONTINUOUS
 10
-8.1150147968
 20
-14.4607098854
 11
-8.0669911787
 21
-14.4828798835
  0
LINE
  5
307
100
AcDbEntity
  8
0
100
AcDbLine
 62
7
  6
CONTINUOUS
 10
2.9790260485
 20
-23.4282872589
 11
3.019671295
 21
-23.4470680083
  0
LINE
  5
308
100
AcDbEntity
  8
RACCORDO
100
AcDbLine
 62
7
  6
CONTINUOUS
 10
-7.0041100524
 20
-13.9395172905
 11
-7.2591740619
 21
-13.8211548409
  0
LINE
  5
309
100
AcDbEntity
  8
RACCORDO
100
AcDbLine
 62
7
  6
CONTINUOUS
 10
-15.299498746
 20
-25.5722433413
 11
-15.323537972
 21
-25.5610263141
  0
LINE
  5
30A
100
AcDbEntity
  8
0
100
AcDbLine
 62
7
  6
CONTINUOUS
 10
3.0384983453
 20
-23.0927218889
 11
2.9882766616
 21
-23.0691347686
  0
LINE
  5
30B
100
AcDbEntity
  8
RACCORDO
100
AcDbLine
 62
7
  6
CONTINUOUS
 10
-14.7133180667
 20
-26.2688349761
 11
-14.6759801087
 21
-26.2867177744
  0
LINE
  5
30C
100
AcDbEntity
  8
RACCORDO
100
AcDbLine
 62
7
  6
CONTINUOUS
 10
-9.3288167819
 20
-15.8522054903
 11
-9.3929297987
 21
-15.8209295727
  0
LINE
  5
30D
100
AcDbEntity
  8
0
100
AcDbLine
 62
7
  6
CONTINUOUS
 10
3.13152618
 20
-24.3253493036
 11
3.1499493357
 21
-24.3343546787
  0
LINE
  5
30E
100
AcDbEntity
  8
0
100
AcDbLine
 62
7
  6
CONTINUOUS
 10
3.1049020037
 20
-23.3758116455
 11
3.1463263325
 21
-23.3962023133
  0
LINE
  5
30F
100
AcDbEntity
  8
0
100
AcDbLine
 62
7
  6
CONTINUOUS
 10
3.019671295
 20
-23.4470680083
 11
3.0599404133
 21
-23.4669655751
  0
LINE
  5
310
100
AcDbEntity
  8
0
100
AcDbLine
 62
7
  6
CONTINUOUS
 10
3.0887096206
 20
-23.1175539411
 11
3.0384983453
 21
-23.0927218889
  0
LINE
  5
311
100
AcDbEntity
  8
0
100
AcDbLine
 62
7
  6
CONTINUOUS
 10
3.0463963743
 20
-24.3967548756
 11
3.0663126221
 21
-24.4066348608
  0
LINE
  5
312
100
AcDbEntity
  8
RACCORDO
100
AcDbLine
 62
7
  6
CONTINUOUS
 10
-14.7092900632
 20
-26.3279708715
 11
-14.6472557864
 21
-26.3590751445
  0
LINE
  5
313
100
AcDbEntity
  8
RACCORDO
100
AcDbLine
 62
7
  6
CONTINUOUS
 10
-7.2992336379
 20
-13.8009970351
 11
-7.2591740619
 21
-13.8211548409
  0
LINE
  5
314
100
AcDbEntity
  8
RACCORDO
100
AcDbLine
 62
7
  6
CONTINUOUS
 10
-9.0741546058
 20
-15.1912621081
 11
-9.1145577837
 21
-15.1705171522
  0
LINE
  5
315
100
AcDbEntity
  8
0
100
AcDbLine
 62
7
  6
CONTINUOUS
 10
3.1390163809
 20
-23.1436054113
 11
3.0887096206
 21
-23.1175539411
  0
LINE
  5
316
100
AcDbEntity
  8
RACCORDO
100
AcDbLine
 62
7
  6
CONTINUOUS
 10
-14.5948536701
 20
-26.3808487335
 11
-14.5830158406
 21
-26.3870441476
  0
LINE
  5
317
100
AcDbEntity
  8
RACCORDO
100
AcDbLine
 62
7
  6
CONTINUOUS
 10
16.3339192396
 20
-38.8025409465
 11
16.3455876537
 21
-38.8086683051
  0
LINE
  5
318
100
AcDbEntity
  8
RACCORDO
100
AcDbLine
 62
7
  6
CONTINUOUS
 10
-14.7506140067
 20
-26.2490625635
 11
-14.7133180667
 21
-26.2688349761
  0
LINE
  5
319
100
AcDbEntity
  8
RACCORDO
100
AcDbLine
 62
7
  6
CONTINUOUS
 10
8.981616379
 20
-22.1892421112
 11
8.9503955796
 21
-22.1726874301
  0
LINE
  5
31A
100
AcDbEntity
  8
0
100
AcDbLine
 62
7
  6
CONTINUOUS
 10
3.1463263325
 20
-23.3962023133
 11
3.1652533551
 21
-23.4063476187
  0
LINE
  5
31B
100
AcDbEntity
  8
RACCORDO
100
AcDbLine
 62
7
  6
CONTINUOUS
 10
-8.1628552448
 20
-14.4350659579
 11
-8.1150147968
 21
-14.4607098854
  0
LINE
  5
31C
100
AcDbEntity
  8
0
100
AcDbLine
 62
7
  6
CONTINUOUS
 10
3.0599404133
 20
-23.4669655751
 11
3.0840933232
 21
-23.4800284085
  0
LINE
  5
31D
100
AcDbEntity
  8
0
100
AcDbLine
 62
7
  6
CONTINUOUS
 10
3.1893131211
 20
-23.1709014477
 11
3.1390163809
 21
-23.1436054113
  0
LINE
  5
31E
100
AcDbEntity
  8
RACCORDO
100
AcDbLine
 62
7
  6
CONTINUOUS
 10
-9.3929297987
 20
-15.8209295727
 11
-9.4566232303
 21
-15.7861510647
  0
LINE
  5
31F
100
AcDbEntity
  8
0
100
AcDbLine
 62
7
  6
CONTINUOUS
 10
3.1499493357
 20
-24.3343546787
 11
3.168048373
 21
-24.3442709916
  0
LINE
  5
320
100
AcDbEntity
  8
RACCORDO
100
AcDbLine
 62
7
  6
CONTINUOUS
 10
-16.6045477997
 20
-12.5390797946
 11
-16.626500351
 21
-12.5268010308
  0
LINE
  5
321
100
AcDbEntity
  8
0
100
AcDbLine
 62
7
  6
CONTINUOUS
 10
3.0663126221
 20
-24.4066348608
 11
3.0860367412
 21
-24.4177440223
  0
LINE
  5
322
100
AcDbEntity
  8
RACCORDO
100
AcDbLine
 62
7
  6
CONTINUOUS
 10
-14.7699713321
 20
-26.2935812131
 11
-14.7092900632
 21
-26.3279708715
  0
LINE
  5
323
100
AcDbEntity
  8
RACCORDO
100
AcDbLine
 62
7
  6
CONTINUOUS
 10
-9.1145577837
 20
-15.1705171522
 11
-9.1546633194
 21
-15.1476441033
  0
LINE
  5
324
100
AcDbEntity
  8
RACCORDO
100
AcDbLine
 62
7
  6
CONTINUOUS
 10
-7.3393437529
 20
-13.7780366113
 11
-7.2992336379
 21
-13.8009970351
  0
LINE
  5
325
100
AcDbEntity
  8
0
100
AcDbLine
 62
7
  6
CONTINUOUS
 10
3.2391790311
 20
-23.1997866148
 11
3.1893131211
 21
-23.1709014477
  0
LINE
  5
326
100
AcDbEntity
  8
RACCORDO
100
AcDbLine
 62
7
  6
CONTINUOUS
 10
-14.7880328475
 20
-26.227301842
 11
-14.7506140067
 21
-26.2490625635
  0
LINE
  5
327
100
AcDbEntity
  8
0
100
AcDbLine
 62
7
  6
CONTINUOUS
 10
3.1652533551
 20
-23.4063476187
 11
3.1838438127
 21
-23.4172316136
  0
LINE
  5
328
100
AcDbEntity
  8
RACCORDO
100
AcDbLine
 62
7
  6
CONTINUOUS
 10
-15.323537972
 20
-25.5610263141
 11
-15.3456108172
 21
-25.5479496727
  0
LINE
  5
329
100
AcDbEntity
  8
RACCORDO
100
AcDbLine
 62
7
  6
CONTINUOUS
 10
-9.4566232303
 20
-15.7861510647
 11
-9.52017831
 21
-15.7476907201
  0
LINE
  5
32A
100
AcDbEntity
  8
0
100
AcDbLine
 62
7
  6
CONTINUOUS
 10
3.0840933232
 20
-23.4800284085
 11
3.1078114781
 21
-23.4944345666
  0
LINE
  5
32B
100
AcDbEntity
  8
0
100
AcDbLine
 62
7
  6
CONTINUOUS
 10
3.168048373
 20
-24.3442709916
 11
3.18593016
 21
-24.3551720695
  0
LINE
  5
32C
100
AcDbEntity
  8
RACCORDO
100
AcDbLine
 62
7
  6
CONTINUOUS
 10
-8.2102411243
 20
-14.4060852507
 11
-8.1628552448
 21
-14.4350659579
  0
LINE
  5
32D
100
AcDbEntity
  8
0
100
AcDbLine
 62
7
  6
CONTINUOUS
 10
3.2884742413
 20
-23.2303753901
 11
3.2391790311
 21
-23.1997866148
  0
LINE
  5
32E
100
AcDbEntity
  8
RACCORDO
100
AcDbLine
 62
7
  6
CONTINUOUS
 10
-9.1546633194
 20
-15.1476441033
 11
-9.1943044651
 21
-15.1227303441
  0
LINE
  5
32F
100
AcDbEntity
  8
0
100
AcDbLine
 62
7
  6
CONTINUOUS
 10
3.0860367412
 20
-24.4177440223
 11
3.1057069674
 21
-24.4301325241
  0
LINE
  5
330
100
AcDbEntity
  8
RACCORDO
100
AcDbLine
 62
7
  6
CONTINUOUS
 10
8.9503955796
 20
-22.1726874301
 11
8.9216724542
 21
-22.1545459473
  0
LINE
  5
331
100
AcDbEntity
  8
RACCORDO
100
AcDbLine
 62
7
  6
CONTINUOUS
 10
-14.8292281224
 20
-26.2561167537
 11
-14.7699713321
 21
-26.2935812131
  0
LINE
  5
332
100
AcDbEntity
  8
RACCORDO
100
AcDbLine
 62
7
  6
CONTINUOUS
 10
-14.8254087472
 20
-26.2036504363
 11
-14.7880328475
 21
-26.227301842
  0
LINE
  5
333
100
AcDbEntity
  8
0
100
AcDbLine
 62
7
  6
CONTINUOUS
 10
3.1838438127
 20
-23.4172316136
 11
3.2020977963
 21
-23.4288542118
  0
LINE
  5
334
100
AcDbEntity
  8
RACCORDO
100
AcDbLine
 62
7
  6
CONTINUOUS
 10
-9.1913416969
 20
21.7374989172
 11
-9.1737976549
 21
21.7263026588
  0
LINE
  5
335
100
AcDbEntity
  8
RACCORDO
100
AcDbLine
 62
7
  6
CONTINUOUS
 10
-7.3793211926
 20
-13.7523161514
 11
-7.3393437529
 21
-13.7780366113
  0
LINE
  5
336
100
AcDbEntity
  8
RACCORDO
100
AcDbLine
 62
7
  6
CONTINUOUS
 10
-16.6265003731
 20
24.5059965368
 11
-16.6462231182
 21
24.5188544905
  0
LINE
  5
337
100
AcDbEntity
  8
0
100
AcDbLine
 62
7
  6
CONTINUOUS
 10
3.3373396988
 20
-23.2625522811
 11
3.2884742413
 21
-23.2303753901
  0
LINE
  5
338
100
AcDbEntity
  8
RACCORDO
100
AcDbLine
 62
7
  6
CONTINUOUS
 10
-9.52017831
 20
-15.7476907201
 11
-9.5833114794
 21
-15.7057256984
  0
LINE
  5
339
100
AcDbEntity
  8
0
100
AcDbLine
 62
7
  6
CONTINUOUS
 10
3.18593016
 20
-24.3551720695
 11
3.2034880376
 21
-24.366983883
  0
LINE
  5
33A
100
AcDbEntity
  8
0
100
AcDbLine
 62
7
  6
CONTINUOUS
 10
3.1078114781
 20
-23.4944345666
 11
3.1310951032
 21
-23.5101838359
  0
LINE
  5
33B
100
AcDbEntity
  8
RACCORDO
100
AcDbLine
 62
7
  6
CONTINUOUS
 10
-14.8622451414
 20
-26.1784023349
 11
-14.8254087472
 21
-26.2036504363
  0
LINE
  5
33C
100
AcDbEntity
  8
RACCORDO
100
AcDbLine
 62
7
  6
CONTINUOUS
 10
-9.1943044651
 20
-15.1227303441
 11
-9.2332615334
 21
-15.0958815984
  0
LINE
  5
33D
100
AcDbEntity
  8
RACCORDO
100
AcDbLine
 62
7
  6
CONTINUOUS
 10
-8.2569101322
 20
-14.373914222
 11
-8.2102411243
 21
-14.4060852507
  0
LINE
  5
33E
100
AcDbEntity
  8
RACCORDO
100
AcDbLine
 62
7
  6
CONTINUOUS
 10
-16.626500351
 20
-12.5268010308
 11
-16.6462230953
 21
-12.5131909309
  0
LINE
  5
33F
100
AcDbEntity
  8
0
100
AcDbLine
 62
7
  6
CONTINUOUS
 10
3.2020977963
 20
-23.4288542118
 11
3.2200596478
 21
-23.4412473296
  0
LINE
  5
340
100
AcDbEntity
  8
RACCORDO
100
AcDbLine
 62
7
  6
CONTINUOUS
 10
8.2401207019
 20
14.9113957703
 11
8.3019149387
 21
14.868333959
  0
LINE
  5
341
100
AcDbEntity
  8
0
100
AcDbLine
 62
7
  6
CONTINUOUS
 10
3.3857760705
 20
-23.2963166595
 11
3.3373396988
 21
-23.2625522811
  0
LINE
  5
342
100
AcDbEntity
  8
0
100
AcDbLine
 62
7
  6
CONTINUOUS
 10
3.1057069674
 20
-24.4301325241
 11
3.125185377
 21
-24.4437499006
  0
LINE
  5
343
100
AcDbEntity
  8
RACCORDO
100
AcDbLine
 62
7
  6
CONTINUOUS
 10
-14.887119616
 20
-26.2156254412
 11
-14.8292281224
 21
-26.2561167537
  0
LINE
  5
344
100
AcDbEntity
  8
RACCORDO
100
AcDbLine
 62
7
  6
CONTINUOUS
 10
-9.9985047428
 20
21.7712987123
 11
-9.9647449026
 21
21.7474328591
  0
LINE
  5
345
100
AcDbEntity
  8
RACCORDO
100
AcDbLine
 62
7
  6
CONTINUOUS
 10
8.9216699384
 20
13.5708271019
 11
8.8956498142
 21
13.5892847941
  0
LINE
  5
346
100
AcDbEntity
  8
RACCORDO
100
AcDbLine
 62
7
  6
CONTINUOUS
 10
-7.4190425119
 20
-13.7238247241
 11
-7.3793211926
 21
-13.7523161514
  0
LINE
  5
347
100
AcDbEntity
  8
RACCORDO
100
AcDbLine
 62
7
  6
CONTINUOUS
 10
-9.5833114794
 20
-15.7057256984
 11
-9.6451744913
 21
-15.6607896567
  0
LINE
  5
348
100
AcDbEntity
  8
RACCORDO
100
AcDbLine
 62
7
  6
CONTINUOUS
 10
8.272454323
 20
14.6917070312
 11
8.3137292403
 21
14.6615559411
  0
LINE
  5
349
100
AcDbEntity
  8
RACCORDO
100
AcDbLine
 62
7
  6
CONTINUOUS
 10
8.6667495515
 20
14.2515221441
 11
8.6617006744
 21
14.2552400938
  0
LINE
  5
34A
100
AcDbEntity
  8
0
100
AcDbLine
 62
7
  6
CONTINUOUS
 10
3.2034880376
 20
-24.366983883
 11
3.2204018044
 21
-24.3794845614
  0
LINE
  5
34B
100
AcDbEntity
  8
RACCORDO
100
AcDbLine
 62
7
  6
CONTINUOUS
 10
-14.8985215868
 20
-26.1515453855
 11
-14.8622451414
 21
-26.1784023349
  0
LINE
  5
34C
100
AcDbEntity
  8
RACCORDO
100
AcDbLine
 62
7
  6
CONTINUOUS
 10
-15.3456108172
 20
-25.5479496727
 11
-15.3654908972
 21
-25.533147534
  0
LINE
  5
34D
100
AcDbEntity
  8
0
100
AcDbLine
 62
7
  6
CONTINUOUS
 10
3.2200596478
 20
-23.4412473296
 11
3.2376852786
 21
-23.4543788102
  0
LINE
  5
34E
100
AcDbEntity
  8
0
100
AcDbLine
 62
7
  6
CONTINUOUS
 10
3.1310951032
 20
-23.5101838359
 11
3.1541115358
 21
-23.527355112
  0
LINE
  5
34F
100
AcDbEntity
  8
RACCORDO
100
AcDbLine
 62
7
  6
CONTINUOUS
 10
-9.2332615334
 20
-15.0958815984
 11
-9.2713643697
 21
-15.067237875
  0
LINE
  5
350
100
AcDbEntity
  8
RACCORDO
100
AcDbLine
 62
7
  6
CONTINUOUS
 10
8.9216724542
 20
-22.1545459473
 11
8.8956513052
 21
-22.1349466998
  0
LINE
  5
351
100
AcDbEntity
  8
RACCORDO
100
AcDbLine
 62
7
  6
CONTINUOUS
 10
8.3019149387
 20
14.868333959
 11
8.3621657427
 21
14.8220772738
  0
LINE
  5
352
100
AcDbEntity
  8
RACCORDO
100
AcDbLine
 62
7
  6
CONTINUOUS
 10
-14.9434198905
 20
-26.1723222071
 11
-14.887119616
 21
-26.2156254412
  0
LINE
  5
353
100
AcDbEntity
  8
RACCORDO
100
AcDbLine
 62
7
  6
CONTINUOUS
 10
-8.3025908222
 20
-14.3387360068
 11
-8.2569101322
 21
-14.373914222
  0
LINE
  5
354
100
AcDbEntity
  8
0
100
AcDbLine
 62
7
  6
CONTINUOUS
 10
3.4143323036
 20
-23.3183981263
 11
3.3857760705
 21
-23.2963166595
  0
LINE
  5
355
100
AcDbEntity
  8
0
100
AcDbLine
 62
7
  6
CONTINUOUS
 10
3.125185377
 20
-24.4437499006
 11
3.1440578905
 21
-24.4584450538
  0
LINE
  5
356
100
AcDbEntity
  8
RACCORDO
100
AcDbLine
 62
7
  6
CONTINUOUS
 10
-9.6451744913
 20
-15.6607896567
 11
-9.7056746918
 21
-15.6128988094
  0
LINE
  5
357
100
AcDbEntity
  8
RACCORDO
100
AcDbLine
 62
7
  6
CONTINUOUS
 10
-7.4582478734
 20
-13.6926918125
 11
-7.4190425119
 21
-13.7238247241
  0
LINE
  5
358
100
AcDbEntity
  8
RACCORDO
100
AcDbLine
 62
7
  6
CONTINUOUS
 10
-14.9342568006
 20
-26.1230897418
 11
-14.8985215868
 21
-26.1515453855
  0
LINE
  5
359
100
AcDbEntity
  8
RACCORDO
100
AcDbLine
 62
7
  6
CONTINUOUS
 10
-16.6462231182
 20
24.5188544905
 11
-16.6635141055
 21
24.5326671438
  0
LINE
  5
35A
100
AcDbEntity
  8
RACCORDO
100
AcDbLine
 62
7
  6
CONTINUOUS
 10
8.3137292403
 20
14.6615559411
 11
8.3546653808
 21
14.6287508738
  0
LINE
  5
35B
100
AcDbEntity
  8
0
100
AcDbLine
 62
7
  6
CONTINUOUS
 10
3.2376852786
 20
-23.4543788102
 11
3.2548421616
 21
-23.4681524324
  0
LINE
  5
35C
100
AcDbEntity
  8
RACCORDO
100
AcDbLine
 62
7
  6
CONTINUOUS
 10
-10.0310713307
 20
21.7975524163
 11
-9.9985047428
 21
21.7712987123
  0
LINE
  5
35D
100
AcDbEntity
  8
0
100
AcDbLine
 62
7
  6
CONTINUOUS
 10
3.2204018044
 20
-24.3794845614
 11
3.2365873529
 21
-24.3926818692
  0
LINE
  5
35E
100
AcDbEntity
  8
RACCORDO
100
AcDbLine
 62
7
  6
CONTINUOUS
 10
-9.2713643697
 20
-15.067237875
 11
-9.3085235211
 21
-15.0368871971
  0
LINE
  5
35F
100
AcDbEntity
  8
0
100
AcDbLine
 62
7
  6
CONTINUOUS
 10
3.1541115358
 20
-23.527355112
 11
3.1766941018
 21
-23.5458688703
  0
LINE
  5
360
100
AcDbEntity
  8
RACCORDO
100
AcDbLine
 62
7
  6
CONTINUOUS
 10
-14.6069324676
 20
-26.3708972516
 11
-14.5948536701
 21
-26.3808487335
  0
LINE
  5
361
100
AcDbEntity
  8
RACCORDO
100
AcDbLine
 62
7
  6
CONTINUOUS
 10
16.3218406174
 20
-38.7925892861
 11
16.3339192396
 21
-38.8025409465
  0
LINE
  5
362
100
AcDbEntity
  8
RACCORDO
100
AcDbLine
 62
7
  6
CONTINUOUS
 10
-15.382978473
 20
39.9013503034
 11
-15.3978868509
 21
39.9136983094
  0
LINE
  5
363
100
AcDbEntity
  8
0
100
AcDbLine
 62
7
  6
CONTINUOUS
 10
3.5358712579
 20
-24.445398921
 11
3.5112515374
 21
-24.4248999771
  0
LINE
  5
364
100
AcDbEntity
  8
RACCORDO
100
AcDbLine
 62
7
  6
CONTINUOUS
 10
-14.9978950419
 20
-26.1264225925
 11
-14.9434198905
 21
-26.1723222071
  0
LINE
  5
365
100
AcDbEntity
  8
RACCORDO
100
AcDbLine
 62
7
  6
CONTINUOUS
 10
8.3621657427
 20
14.8220772738
 11
8.4207829654
 21
14.7726439814
  0
LINE
  5
366
100
AcDbEntity
  8
RACCORDO
100
AcDbLine
 62
7
  6
CONTINUOUS
 10
8.8956498142
 20
13.5892847941
 11
8.8725167396
 21
13.6087992579
  0
LINE
  5
367
100
AcDbEntity
  8
0
100
AcDbLine
 62
7
  6
CONTINUOUS
 10
3.443094939
 20
-23.3428322003
 11
3.4143323036
 21
-23.3183981263
  0
LINE
  5
368
100
AcDbEntity
  8
RACCORDO
100
AcDbLine
 62
7
  6
CONTINUOUS
 10
-8.3470066317
 20
-14.3007757269
 11
-8.3025908222
 21
-14.3387360068
  0
LINE
  5
369
100
AcDbEntity
  8
RACCORDO
100
AcDbLine
 62
7
  6
CONTINUOUS
 10
-14.9690128777
 20
-26.0933627579
 11
-14.9342568006
 21
-26.1230897418
  0
LINE
  5
36A
100
AcDbEntity
  8
RACCORDO
100
AcDbLine
 62
7
  6
CONTINUOUS
 10
-16.6462230953
 20
-12.5131909309
 11
-16.6635140821
 21
-12.4983888551
  0
LINE
  5
36B
100
AcDbEntity
  8
RACCORDO
100
AcDbLine
 62
7
  6
CONTINUOUS
 10
-9.7056746918
 20
-15.6128988094
 11
-9.7649004103
 21
-15.5620330674
  0
LINE
  5
36C
100
AcDbEntity
  8
0
100
AcDbLine
 62
7
  6
CONTINUOUS
 10
3.2548421616
 20
-23.4681524324
 11
3.2715524199
 21
-23.4825751546
  0
LINE
  5
36D
100
AcDbEntity
  8
0
100
AcDbLine
 62
7
  6
CONTINUOUS
 10
3.1440578905
 20
-24.4584450538
 11
3.1622694311
 21
-24.4743105337
  0
LINE
  5
36E
100
AcDbEntity
  8
RACCORDO
100
AcDbLine
 62
7
  6
CONTINUOUS
 10
-7.4965579544
 20
-13.6592341568
 11
-7.4582478734
 21
-13.6926918125
  0
LINE
  5
36F
100
AcDbEntity
  8
RACCORDO
100
AcDbLine
 62
7
  6
CONTINUOUS
 10
8.3546653808
 20
14.6287508738
 11
8.3949895261
 21
14.5934385279
  0
LINE
  5
370
100
AcDbEntity
  8
RACCORDO
100
AcDbLine
 62
7
  6
CONTINUOUS
 10
-9.3085235211
 20
-15.0368871971
 11
-9.3446424116
 21
-15.0048656209
  0
LINE
  5
371
100
AcDbEntity
  8
0
100
AcDbLine
 62
7
  6
CONTINUOUS
 10
3.2365873529
 20
-24.3926818692
 11
3.2521291632
 21
-24.4065676815
  0
LINE
  5
372
100
AcDbEntity
  8
RACCORDO
100
AcDbLine
 62
7
  6
CONTINUOUS
 10
8.8956513052
 20
-22.1349466998
 11
8.8725172161
 21
-22.1140290933
  0
LINE
  5
373
100
AcDbEntity
  8
0
100
AcDbLine
 62
7
  6
CONTINUOUS
 10
3.1766941018
 20
-23.5458688703
 11
3.1983421036
 21
-23.565487177
  0
LINE
  5
374
100
AcDbEntity
  8
0
100
AcDbLine
 62
7
  6
CONTINUOUS
 10
3.5588074207
 20
-24.4662190821
 11
3.5358712579
 21
-24.445398921
  0
LINE
  5
375
100
AcDbEntity
  8
RACCORDO
100
AcDbLine
 62
7
  6
CONTINUOUS
 10
-10.0622100246
 20
21.8260048138
 11
-10.0310713307
 21
21.7975524163
  0
LINE
  5
376
100
AcDbEntity
  8
RACCORDO
100
AcDbLine
 62
7
  6
CONTINUOUS
 10
-15.0027857707
 20
-26.0623412874
 11
-14.9690128777
 21
-26.0933627579
  0
LINE
  5
377
100
AcDbEntity
  8
RACCORDO
100
AcDbLine
 62
7
  6
CONTINUOUS
 10
-9.2072555079
 20
21.7521207296
 11
-9.1913416969
 21
21.7374989172
  0
LINE
  5
378
100
AcDbEntity
  8
RACCORDO
100
AcDbLine
 62
7
  6
CONTINUOUS
 10
8.0436508281
 20
14.8237668331
 11
8.0595647884
 21
14.8091453617
  0
LINE
  5
379
100
AcDbEntity
  8
RACCORDO
100
AcDbLine
 62
7
  6
CONTINUOUS
 10
-15.0504999833
 20
-26.0779395389
 11
-14.9978950419
 21
-26.1264225925
  0
LINE
  5
37A
100
AcDbEntity
  8
RACCORDO
100
AcDbLine
 62
7
  6
CONTINUOUS
 10
8.4207829654
 20
14.7726439814
 11
8.4778610797
 21
14.7200190248
  0
LINE
  5
37B
100
AcDbEntity
  8
0
100
AcDbLine
 62
7
  6
CONTINUOUS
 10
3.4720648597
 20
-23.3696180488
 11
3.443094939
 21
-23.3428322003
  0
LINE
  5
37C
100
AcDbEntity
  8
0
100
AcDbLine
 62
7
  6
CONTINUOUS
 10
3.2715524199
 20
-23.4825751546
 11
3.2877942995
 21
-23.4976396678
  0
LINE
  5
37D
100
AcDbEntity
  8
RACCORDO
100
AcDbLine
 62
7
  6
CONTINUOUS
 10
-9.7649004103
 20
-15.5620330674
 11
-9.8222746429
 21
-15.5086714277
  0
LINE
  5
37E
100
AcDbEntity
  8
RACCORDO
100
AcDbLine
 62
7
  6
CONTINUOUS
 10
-15.3654908972
 20
-25.533147534
 11
-15.3829743173
 21
-25.5167717125
  0
LINE
  5
37F
100
AcDbEntity
  8
RACCORDO
100
AcDbLine
 62
7
  6
CONTINUOUS
 10
-8.3898443903
 20
-14.2603129049
 11
-8.3470066317
 21
-14.3007757269
  0
LINE
  5
380
100
AcDbEntity
  8
RACCORDO
100
AcDbLine
 62
7
  6
CONTINUOUS
 10
8.3949895261
 20
14.5934385279
 11
8.4344360236
 21
14.5557920883
  0
LINE
  5
381
100
AcDbEntity
  8
RACCORDO
100
AcDbLine
 62
7
  6
CONTINUOUS
 10
-7.5338008548
 20
-13.6235846058
 11
-7.4965579544
 21
-13.6592341568
  0
LINE
  5
382
100
AcDbEntity
  8
RACCORDO
100
AcDbLine
 62
7
  6
CONTINUOUS
 10
-9.3446424116
 20
-15.0048656209
 11
-9.3796417021
 21
-14.9712427795
  0
LINE
  5
383
100
AcDbEntity
  8
0
100
AcDbLine
 62
7
  6
CONTINUOUS
 10
3.1622694311
 20
-24.4743105337
 11
3.1798757399
 21
-24.4912531479
  0
LINE
  5
384
100
AcDbEntity
  8
0
100
AcDbLine
 62
7
  6
CONTINUOUS
 10
3.2521291632
 20
-24.4065676815
 11
3.2669598916
 21
-24.4208963159
  0
LINE
  5
385
100
AcDbEntity
  8
RACCORDO
100
AcDbLine
 62
7
  6
CONTINUOUS
 10
-15.0355772171
 20
-26.0300458062
 11
-15.0027857707
 21
-26.0623412874
  0
LINE
  5
386
100
AcDbEntity
  8
0
100
AcDbLine
 62
7
  6
CONTINUOUS
 10
3.5013993577
 20
-23.3987315103
 11
3.4720648597
 21
-23.3696180488
  0
LINE
  5
387
100
AcDbEntity
  8
0
100
AcDbLine
 62
7
  6
CONTINUOUS
 10
3.580060386
 20
-24.4873601132
 11
3.5588074207
 21
-24.4662190821
  0
LINE
  5
388
100
AcDbEntity
  8
RACCORDO
100
AcDbLine
 62
7
  6
CONTINUOUS
 10
-16.6635141055
 20
24.5326671438
 11
-16.6781962843
 21
24.5472930623
  0
LINE
  5
389
100
AcDbEntity
  8
0
100
AcDbLine
 62
7
  6
CONTINUOUS
 10
3.2877942995
 20
-23.4976396678
 11
3.3033694707
 21
-23.5132283365
  0
LINE
  5
38A
100
AcDbEntity
  8
0
100
AcDbLine
 62
7
  6
CONTINUOUS
 10
3.1983421036
 20
-23.565487177
 11
3.2190575873
 21
-23.5862512564
  0
LINE
  5
38B
100
AcDbEntity
  8
RACCORDO
100
AcDbLine
 62
7
  6
CONTINUOUS
 10
8.4778610797
 20
14.7200190248
 11
8.5328480969
 21
14.6647018926
  0
LINE
  5
38C
100
AcDbEntity
  8
RACCORDO
100
AcDbLine
 62
7
  6
CONTINUOUS
 10
-9.8222746429
 20
-15.5086714277
 11
-9.8778626064
 21
-15.4526759959
  0
LINE
  5
38D
100
AcDbEntity
  8
RACCORDO
100
AcDbLine
 62
7
  6
CONTINUOUS
 10
-15.1009924331
 20
-26.0270545058
 11
-15.0504999833
 21
-26.0779395389
  0
LINE
  5
38E
100
AcDbEntity
  8
RACCORDO
100
AcDbLine
 62
7
  6
CONTINUOUS
 10
8.8725167396
 20
13.6087992579
 11
8.8524352499
 21
13.6292316957
  0
LINE
  5
38F
100
AcDbEntity
  8
RACCORDO
100
AcDbLine
 62
7
  6
CONTINUOUS
 10
-10.0916964705
 20
21.8564509055
 11
-10.0622100246
 21
21.8260048138
  0
LINE
  5
390
100
AcDbEntity
  8
RACCORDO
100
AcDbLine
 62
7
  6
CONTINUOUS
 10
-15.3978868509
 20
39.9136983094
 11
-15.4100662831
 21
39.9263080264
  0
LINE
  5
391
100
AcDbEntity
  8
RACCORDO
100
AcDbLine
 62
7
  6
CONTINUOUS
 10
8.4344360236
 20
14.5557920883
 11
8.472775762
 21
14.5159791957
  0
LINE
  5
392
100
AcDbEntity
  8
RACCORDO
100
AcDbLine
 62
7
  6
CONTINUOUS
 10
-9.3796417021
 20
-14.9712427795
 11
-9.4133461408
 21
-14.9361889221
  0
LINE
  5
393
100
AcDbEntity
  8
RACCORDO
100
AcDbLine
 62
7
  6
CONTINUOUS
 10
-8.4309355029
 20
-14.2175158836
 11
-8.3898443903
 21
-14.2603129049
  0
LINE
  5
394
100
AcDbEntity
  8
RACCORDO
100
AcDbLine
 62
7
  6
CONTINUOUS
 10
-7.569797393
 20
-13.5858966583
 11
-7.5338008548
 21
-13.6235846058
  0
LINE
  5
395
100
AcDbEntity
  8
0
100
AcDbLine
 62
7
  6
CONTINUOUS
 10
3.2669598916
 20
-24.4208963159
 11
3.2810296123
 21
-24.4356369768
  0
LINE
  5
396
100
AcDbEntity
  8
0
100
AcDbLine
 62
7
  6
CONTINUOUS
 10
3.1798757399
 20
-24.4912531479
 11
3.196628947
 21
-24.5088432008
  0
LINE
  5
397
100
AcDbEntity
  8
RACCORDO
100
AcDbLine
 62
7
  6
CONTINUOUS
 10
-15.0669580829
 20
-25.9968692119
 11
-15.0355772171
 21
-26.0300458062
  0
LINE
  5
398
100
AcDbEntity
  8
0
100
AcDbLine
 62
7
  6
CONTINUOUS
 10
3.5309433399
 20
-23.4301946715
 11
3.5013993577
 21
-23.3987315103
  0
LINE
  5
399
100
AcDbEntity
  8
RACCORDO
100
AcDbLine
 62
7
  6
CONTINUOUS
 10
-16.6635140821
 20
-12.4983888551
 11
-16.6781962609
 21
-12.4825463688
  0
LINE
  5
39A
100
AcDbEntity
  8
0
100
AcDbLine
 62
7
  6
CONTINUOUS
 10
3.3033694707
 20
-23.5132283365
 11
3.3182728119
 21
-23.5293573315
  0
LINE
  5
39B
100
AcDbEntity
  8
RACCORDO
100
AcDbLine
 62
7
  6
CONTINUOUS
 10
-9.8778626064
 20
-15.4526759959
 11
-9.9315931559
 21
-15.3941793699
  0
LINE
  5
39C
100
AcDbEntity
  8
RACCORDO
100
AcDbLine
 62
7
  6
CONTINUOUS
 10
8.5328480969
 20
14.6647018926
 11
8.5858063834
 21
14.6065523555
  0
LINE
  5
39D
100
AcDbEntity
  8
RACCORDO
100
AcDbLine
 62
7
  6
CONTINUOUS
 10
8.8725172161
 20
-22.1140290933
 11
8.8524347353
 21
-22.0919419108
  0
LINE
  5
39E
100
AcDbEntity
  8
RACCORDO
100
AcDbLine
 62
7
  6
CONTINUOUS
 10
-15.1490969187
 20
-25.9739596089
 11
-15.1009924331
 21
-26.0270545058
  0
LINE
  5
39F
100
AcDbEntity
  8
0
100
AcDbLine
 62
7
  6
CONTINUOUS
 10
3.2190575873
 20
-23.5862512564
 11
3.2388395699
 21
-23.6081188749
  0
LINE
  5
3A0
100
AcDbEntity
  8
0
100
AcDbLine
 62
7
  6
CONTINUOUS
 10
3.5994947245
 20
-24.5089793348
 11
3.580060386
 21
-24.4873601132
  0
LINE
  5
3A1
100
AcDbEntity
  8
RACCORDO
100
AcDbLine
 62
7
  6
CONTINUOUS
 10
-9.4133461408
 20
-14.9361889221
 11
-9.445525074
 21
-14.8999009711
  0
LINE
  5
3A2
100
AcDbEntity
  8
RACCORDO
100
AcDbLine
 62
7
  6
CONTINUOUS
 10
8.472775762
 20
14.5159791957
 11
8.5098202718
 21
14.474150563
  0
LINE
  5
3A3
100
AcDbEntity
  8
0
100
AcDbLine
 62
7
  6
CONTINUOUS
 10
3.2810296123
 20
-24.4356369768
 11
3.2943886471
 21
-24.4508200765
  0
LINE
  5
3A4
100
AcDbEntity
  8
RACCORDO
100
AcDbLine
 62
7
  6
CONTINUOUS
 10
-15.0969127868
 20
-25.9627957839
 11
-15.0669580829
 21
-25.9968692119
  0
LINE
  5
3A5
100
AcDbEntity
  8
RACCORDO
100
AcDbLine
 62
7
  6
CONTINUOUS
 10
-7.604204538
 20
-13.5466116979
 11
-7.569797393
 21
-13.5858966583
  0
LINE
  5
3A6
100
AcDbEntity
  8
RACCORDO
100
AcDbLine
 62
7
  6
CONTINUOUS
 10
-8.4702130408
 20
-14.1724418012
 11
-8.4309355029
 21
-14.2175158836
  0
LINE
  5
3A7
100
AcDbEntity
  8
0
100
AcDbLine
 62
7
  6
CONTINUOUS
 10
3.196628947
 20
-24.5088432008
 11
3.2124484776
 21
-24.5270369563
  0
LINE
  5
3A8
100
AcDbEntity
  8
0
100
AcDbLine
 62
7
  6
CONTINUOUS
 10
3.5602294975
 20
-23.4640757064
 11
3.5309433399
 21
-23.4301946715
  0
LINE
  5
3A9
100
AcDbEntity
  8
RACCORDO
100
AcDbLine
 62
7
  6
CONTINUOUS
 10
-10.1193182189
 20
21.8886713279
 11
-10.0916964705
 21
21.8564509055
  0
LINE
  5
3AA
100
AcDbEntity
  8
0
100
AcDbLine
 62
7
  6
CONTINUOUS
 10
3.3182728119
 20
-23.5293573315
 11
3.3325099192
 21
-23.5460100312
  0
LINE
  5
3AB
100
AcDbEntity
  8
RACCORDO
100
AcDbLine
 62
7
  6
CONTINUOUS
 10
-9.9315931559
 20
-15.3941793699
 11
-9.9826850941
 21
-15.3340666015
  0
LINE
  5
3AC
100
AcDbEntity
  8
RACCORDO
100
AcDbLine
 62
7
  6
CONTINUOUS
 10
-15.3829743173
 20
-25.5167717125
 11
-15.3978817631
 21
-25.4989901623
  0
LINE
  5
3AD
100
AcDbEntity
  8
RACCORDO
100
AcDbLine
 62
7
  6
CONTINUOUS
 10
8.5858063834
 20
14.6065523555
 11
8.6366795009
 21
14.5457150581
  0
LINE
  5
3AE
100
AcDbEntity
  8
RACCORDO
100
AcDbLine
 62
7
  6
CONTINUOUS
 10
8.8113141223
 20
-22.7478587011
 11
8.7842484595
 21
-22.71518276
  0
LINE
  5
3AF
100
AcDbEntity
  8
RACCORDO
100
AcDbLine
 62
7
  6
CONTINUOUS
 10
-15.1947129697
 20
-25.9186237074
 11
-15.1490969187
 21
-25.9739596089
  0
LINE
  5
3B0
100
AcDbEntity
  8
0
100
AcDbLine
 62
7
  6
CONTINUOUS
 10
3.2943886471
 20
-24.4508200765
 11
3.3071199392
 21
-24.4662918259
  0
LINE
  5
3B1
100
AcDbEntity
  8
RACCORDO
100
AcDbLine
 62
7
  6
CONTINUOUS
 10
-9.445525074
 20
-14.8999009711
 11
-9.4760382004
 21
-14.8625452723
  0
LINE
  5
3B2
100
AcDbEntity
  8
RACCORDO
100
AcDbLine
 62
7
  6
CONTINUOUS
 10
-15.1254543462
 20
-25.9278382853
 11
-15.0969127868
 21
-25.9627957839
  0
LINE
  5
3B3
100
AcDbEntity
  8
RACCORDO
100
AcDbLine
 62
7
  6
CONTINUOUS
 10
8.5098202718
 20
14.474150563
 11
8.5453500053
 21
14.4305194063
  0
LINE
  5
3B4
100
AcDbEntity
  8
RACCORDO
100
AcDbLine
 62
7
  6
CONTINUOUS
 10
-14.617457336
 20
-26.3579433152
 11
-14.6069324676
 21
-26.3708972516
  0
LINE
  5
3B5
100
AcDbEntity
  8
RACCORDO
100
AcDbLine
 62
7
  6
CONTINUOUS
 10
16.3113159526
 20
-38.7796352843
 11
16.3218406174
 21
-38.7925892861
  0
LINE
  5
3B6
100
AcDbEntity
  8
0
100
AcDbLine
 62
7
  6
CONTINUOUS
 10
3.2388395699
 20
-23.6081188749
 11
3.2571828331
 21
-23.6307268899
  0
LINE
  5
3B7
100
AcDbEntity
  8
0
100
AcDbLine
 62
7
  6
CONTINUOUS
 10
3.6172467431
 20
-24.5309185799
 11
3.5994947245
 21
-24.5089793348
  0
LINE
  5
3B8
100
AcDbEntity
  8
RACCORDO
100
AcDbLine
 62
7
  6
CONTINUOUS
 10
-7.6367565087
 20
-13.5061055442
 11
-7.604204538
 21
-13.5466116979
  0
LINE
  5
3B9
100
AcDbEntity
  8
0
100
AcDbLine
 62
7
  6
CONTINUOUS
 10
3.5895082015
 20
-23.5006200235
 11
3.5602294975
 21
-23.4640757064
  0
LINE
  5
3BA
100
AcDbEntity
  8
RACCORDO
100
AcDbLine
 62
7
  6
CONTINUOUS
 10
8.8524352499
 20
13.6292316957
 11
8.8355481759
 21
13.6504367804
  0
LINE
  5
3BB
100
AcDbEntity
  8
0
100
AcDbLine
 62
7
  6
CONTINUOUS
 10
3.2124484776
 20
-24.5270369563
 11
3.2274156062
 21
-24.5458774731
  0
LINE
  5
3BC
100
AcDbEntity
  8
RACCORDO
100
AcDbLine
 62
7
  6
CONTINUOUS
 10
-8.5075699443
 20
-14.125140267
 11
-8.4702130408
 21
-14.1724418012
  0
LINE
  5
3BD
100
AcDbEntity
  8
RACCORDO
100
AcDbLine
 62
7
  6
CONTINUOUS
 10
-9.2214175212
 20
21.7700563988
 11
-9.2072555079
 21
21.7521207296
  0
LINE
  5
3BE
100
AcDbEntity
  8
RACCORDO
100
AcDbLine
 62
7
  6
CONTINUOUS
 10
8.0294886181
 20
14.8417022159
 11
8.0436508281
 21
14.8237668331
  0
LINE
  5
3BF
100
AcDbEntity
  8
0
100
AcDbLine
 62
7
  6
CONTINUOUS
 10
3.3325099192
 20
-23.5460100312
 11
3.3458985278
 21
-23.5630196231
  0
LINE
  5
3C0
100
AcDbEntity
  8
RACCORDO
100
AcDbLine
 62
7
  6
CONTINUOUS
 10
-9.9826850941
 20
-15.3340666015
 11
-10.0308762451
 21
-15.2726311289
  0
LINE
  5
3C1
100
AcDbEntity
  8
RACCORDO
100
AcDbLine
 62
7
  6
CONTINUOUS
 10
-16.6781962843
 20
24.5472930623
 11
-16.6901193169
 21
24.5625824844
  0
LINE
  5
3C2
100
AcDbEntity
  8
0
100
AcDbLine
 62
7
  6
CONTINUOUS
 10
3.3071199392
 20
-24.4662918259
 11
3.3192436669
 21
-24.4820439506
  0
LINE
  5
3C3
100
AcDbEntity
  8
RACCORDO
100
AcDbLine
 62
7
  6
CONTINUOUS
 10
8.6366795009
 20
14.5457150581
 11
8.6847369055
 21
14.4831165455
  0
LINE
  5
3C4
100
AcDbEntity
  8
0
100
AcDbLine
 62
7
  6
CONTINUOUS
 10
3.6337241612
 20
-24.5527045049
 11
3.6172467431
 21
-24.5309185799
  0
LINE
  5
3C5
100
AcDbEntity
  8
RACCORDO
100
AcDbLine
 62
7
  6
CONTINUOUS
 10
-15.1521968481
 20
-25.8924327136
 11
-15.1254543462
 21
-25.9278382853
  0
LINE
  5
3C6
100
AcDbEntity
  8
RACCORDO
100
AcDbLine
 62
7
  6
CONTINUOUS
 10
-9.4760382004
 20
-14.8625452723
 11
-9.5048251084
 21
-14.8242466166
  0
LINE
  5
3C7
100
AcDbEntity
  8
RACCORDO
100
AcDbLine
 62
7
  6
CONTINUOUS
 10
8.5453500053
 20
14.4305194063
 11
8.5791673628
 21
14.3853028898
  0
LINE
  5
3C8
100
AcDbEntity
  8
RACCORDO
100
AcDbLine
 62
7
  6
CONTINUOUS
 10
-15.2376828547
 20
-25.8610147167
 11
-15.1947129697
 21
-25.9186237074
  0
LINE
  5
3C9
100
AcDbEntity
  8
0
100
AcDbLine
 62
7
  6
CONTINUOUS
 10
3.6185327336
 20
-23.5395787607
 11
3.5895082015
 21
-23.5006200235
  0
LINE
  5
3CA
100
AcDbEntity
  8
RACCORDO
100
AcDbLine
 62
7
  6
CONTINUOUS
 10
-7.667487532
 20
-13.464408944
 11
-7.6367565087
 21
-13.5061055442
  0
LINE
  5
3CB
100
AcDbEntity
  8
0
100
AcDbLine
 62
7
  6
CONTINUOUS
 10
3.2274156062
 20
-24.5458774731
 11
3.2415250639
 21
-24.5650654162
  0
LINE
  5
3CC
100
AcDbEntity
  8
RACCORDO
100
AcDbLine
 62
7
  6
CONTINUOUS
 10
-15.4100662831
 20
39.9263080264
 11
-15.4193918498
 21
39.9390501216
  0
LINE
  5
3CD
100
AcDbEntity
  8
RACCORDO
100
AcDbLine
 62
7
  6
CONTINUOUS
 10
8.8524347353
 20
-22.0919419108
 11
8.8355467057
 21
-22.0688422544
  0
LINE
  5
3CE
100
AcDbEntity
  8
RACCORDO
100
AcDbLine
 62
7
  6
CONTINUOUS
 10
8.7842484595
 20
-22.71518276
 11
8.7594414392
 21
-22.6809035073
  0
LINE
  5
3CF
100
AcDbEntity
  8
RACCORDO
100
AcDbLine
 62
7
  6
CONTINUOUS
 10
-10.0308762451
 20
-15.2726311289
 11
-10.0764227885
 21
-15.2095741806
  0
LINE
  5
3D0
100
AcDbEntity
  8
0
100
AcDbLine
 62
7
  6
CONTINUOUS
 10
3.3458985278
 20
-23.5630196231
 11
3.3583940075
 21
-23.5803978227
  0
LINE
  5
3D1
100
AcDbEntity
  8
0
100
AcDbLine
 62
7
  6
CONTINUOUS
 10
3.2571828331
 20
-23.6307268899
 11
3.2739905001
 21
-23.654133154
  0
LINE
  5
3D2
100
AcDbEntity
  8
0
100
AcDbLine
 62
7
  6
CONTINUOUS
 10
3.3192436669
 20
-24.4820439506
 11
3.3307400086
 21
-24.4980843793
  0
LINE
  5
3D3
100
AcDbEntity
  8
RACCORDO
100
AcDbLine
 62
7
  6
CONTINUOUS
 10
-8.5426125966
 20
-14.0760236955
 11
-8.5075699443
 21
-14.125140267
  0
LINE
  5
3D4
100
AcDbEntity
  8
RACCORDO
100
AcDbLine
 62
7
  6
CONTINUOUS
 10
-16.6781962609
 20
-12.4825463688
 11
-16.6901192939
 21
-12.4658256907
  0
LINE
  5
3D5
100
AcDbEntity
  8
0
100
AcDbLine
 62
7
  6
CONTINUOUS
 10
3.6489320987
 20
-24.5742070189
 11
3.6337241612
 21
-24.5527045049
  0
LINE
  5
3D6
100
AcDbEntity
  8
RACCORDO
100
AcDbLine
 62
7
  6
CONTINUOUS
 10
8.6847369055
 20
14.4831165455
 11
8.7297368593
 21
14.4190669972
  0
LINE
  5
3D7
100
AcDbEntity
  8
RACCORDO
100
AcDbLine
 62
7
  6
CONTINUOUS
 10
-15.1771197239
 20
-25.8565661244
 11
-15.1521968481
 21
-25.8924327136
  0
LINE
  5
3D8
100
AcDbEntity
  8
RACCORDO
100
AcDbLine
 62
7
  6
CONTINUOUS
 10
-9.5048251084
 20
-14.8242466166
 11
-9.531794064
 21
-14.7851528905
  0
LINE
  5
3D9
100
AcDbEntity
  8
RACCORDO
100
AcDbLine
 62
7
  6
CONTINUOUS
 10
8.5791673628
 20
14.3853028898
 11
8.6111311905
 21
14.3386647348
  0
LINE
  5
3DA
100
AcDbEntity
  8
0
100
AcDbLine
 62
7
  6
CONTINUOUS
 10
3.2415250639
 20
-24.5650654162
 11
3.254782815
 21
-24.5845679679
  0
LINE
  5
3DB
100
AcDbEntity
  8
0
100
AcDbLine
 62
7
  6
CONTINUOUS
 10
3.6460904417
 20
-23.5802784097
 11
3.6185327336
 21
-23.5395787607
  0
LINE
  5
3DC
100
AcDbEntity
  8
RACCORDO
100
AcDbLine
 62
7
  6
CONTINUOUS
 10
-7.6965139521
 20
-13.4214561446
 11
-7.667487532
 21
-13.464408944
  0
LINE
  5
3DD
100
AcDbEntity
  8
0
100
AcDbLine
 62
7
  6
CONTINUOUS
 10
3.3307400086
 20
-24.4980843793
 11
3.3416318145
 21
-24.5142837171
  0
LINE
  5
3DE
100
AcDbEntity
  8
RACCORDO
100
AcDbLine
 62
7
  6
CONTINUOUS
 10
-15.2775181223
 20
-25.8014780318
 11
-15.2376828547
 21
-25.8610147167
  0
LINE
  5
3DF
100
AcDbEntity
  8
RACCORDO
100
AcDbLine
 62
7
  6
CONTINUOUS
 10
-10.0764227885
 20
-15.2095741806
 11
-10.1193213592
 21
-15.1448927698
  0
LINE
  5
3E0
100
AcDbEntity
  8
0
100
AcDbLine
 62
7
  6
CONTINUOUS
 10
3.3583940075
 20
-23.5803978227
 11
3.3700415077
 21
-23.5981324205
  0
LINE
  5
3E1
100
AcDbEntity
  8
RACCORDO
100
AcDbLine
 62
7
  6
CONTINUOUS
 10
8.6617006744
 20
14.2552400938
 11
8.6610074273
 21
14.2563014881
  0
LINE
  5
3E2
100
AcDbEntity
  8
0
100
AcDbLine
 62
7
  6
CONTINUOUS
 10
3.6628657377
 20
-24.5955559204
 11
3.6489320987
 21
-24.5742070189
  0
LINE
  5
3E3
100
AcDbEntity
  8
RACCORDO
100
AcDbLine
 62
7
  6
CONTINUOUS
 10
-8.5748899742
 20
-14.0257242516
 11
-8.5426125966
 21
-14.0760236955
  0
LINE
  5
3E4
100
AcDbEntity
  8
RACCORDO
100
AcDbLine
 62
7
  6
CONTINUOUS
 10
8.7297368593
 20
14.4190669972
 11
8.7719270964
 21
14.353260724
  0
LINE
  5
3E5
100
AcDbEntity
  8
RACCORDO
100
AcDbLine
 62
7
  6
CONTINUOUS
 10
-15.3978817631
 20
-25.4989901623
 11
-15.4100603405
 21
-25.4799852554
  0
LINE
  5
3E6
100
AcDbEntity
  8
RACCORDO
100
AcDbLine
 62
7
  6
CONTINUOUS
 10
-15.2002410997
 20
-25.8202486534
 11
-15.1771197239
 21
-25.8565661244
  0
LINE
  5
3E7
100
AcDbEntity
  8
0
100
AcDbLine
 62
7
  6
CONTINUOUS
 10
3.2739905001
 20
-23.654133154
 11
3.2893607629
 21
-23.6782785642
  0
LINE
  5
3E8
100
AcDbEntity
  8
RACCORDO
100
AcDbLine
 62
7
  6
CONTINUOUS
 10
-9.531794064
 20
-14.7851528905
 11
-9.5546222561
 21
-14.7490592408
  0
LINE
  5
3E9
100
AcDbEntity
  8
0
100
AcDbLine
 62
7
  6
CONTINUOUS
 10
3.3416318145
 20
-24.5142837171
 11
3.351921492
 21
-24.530611857
  0
LINE
  5
3EA
100
AcDbEntity
  8
RACCORDO
100
AcDbLine
 62
7
  6
CONTINUOUS
 10
8.7594414392
 20
-22.6809035073
 11
8.7370717955
 21
-22.6452679244
  0
LINE
  5
3EB
100
AcDbEntity
  8
RACCORDO
100
AcDbLine
 62
7
  6
CONTINUOUS
 10
8.6111311905
 20
14.3386647348
 11
8.6410653296
 21
14.29084573
  0
LINE
  5
3EC
100
AcDbEntity
  8
0
100
AcDbLine
 62
7
  6
CONTINUOUS
 10
3.254782815
 20
-24.5845679679
 11
3.2671834858
 21
-24.6044173731
  0
LINE
  5
3ED
100
AcDbEntity
  8
RACCORDO
100
AcDbLine
 62
7
  6
CONTINUOUS
 10
8.8355481759
 20
13.6504367804
 11
8.8219756279
 21
13.6722636896
  0
LINE
  5
3EE
100
AcDbEntity
  8
0
100
AcDbLine
 62
7
  6
CONTINUOUS
 10
3.6759174877
 20
-24.6166680884
 11
3.6628657377
 21
-24.5955559204
  0
LINE
  5
3EF
100
AcDbEntity
  8
RACCORDO
100
AcDbLine
 62
7
  6
CONTINUOUS
 10
-7.7237063237
 20
-13.3774152884
 11
-7.6965139521
 21
-13.4214561446
  0
LINE
  5
3F0
100
AcDbEntity
  8
RACCORDO
100
AcDbLine
 62
7
  6
CONTINUOUS
 10
-10.1193213591
 20
-15.1448927698
 11
-10.1557193415
 21
-15.0853758117
  0
LINE
  5
3F1
100
AcDbEntity
  8
0
100
AcDbLine
 62
7
  6
CONTINUOUS
 10
3.6722050604
 20
-23.6231690252
 11
3.6460904417
 21
-23.5802784097
  0
LINE
  5
3F2
100
AcDbEntity
  8
0
100
AcDbLine
 62
7
  6
CONTINUOUS
 10
3.3700415077
 20
-23.5981324205
 11
3.3807933518
 21
-23.6160207934
  0
LINE
  5
3F3
100
AcDbEntity
  8
RACCORDO
100
AcDbLine
 62
7
  6
CONTINUOUS
 10
-15.3137387152
 20
-25.7404498593
 11
-15.2775181223
 21
-25.8014780318
  0
LINE
  5
3F4
100
AcDbEntity
  8
0
100
AcDbLine
 62
7
  6
CONTINUOUS
 10
3.351921492
 20
-24.530611857
 11
3.3616069294
 21
-24.5470986189
  0
LINE
  5
3F5
100
AcDbEntity
  8
0
100
AcDbLine
 62
7
  6
CONTINUOUS
 10
3.6881390815
 20
-24.6375238673
 11
3.6759174877
 21
-24.6166680884
  0
LINE
  5
3F6
100
AcDbEntity
  8
RACCORDO
100
AcDbLine
 62
7
  6
CONTINUOUS
 10
8.7719270964
 20
14.353260724
 11
8.8113109821
 21
14.2857002519
  0
LINE
  5
3F7
100
AcDbEntity
  8
RACCORDO
100
AcDbLine
 62
7
  6
CONTINUOUS
 10
-9.233719552
 20
21.7911689128
 11
-9.2214175212
 21
21.7700563988
  0
LINE
  5
3F8
100
AcDbEntity
  8
RACCORDO
100
AcDbLine
 62
7
  6
CONTINUOUS
 10
8.0171863536
 20
14.8628145341
 11
8.0294886181
 21
14.8417022159
  0
LINE
  5
3F9
100
AcDbEntity
  8
RACCORDO
100
AcDbLine
 62
7
  6
CONTINUOUS
 10
-9.5546222561
 20
-14.7490592408
 11
-9.5758706985
 21
-14.7124041072
  0
LINE
  5
3FA
100
AcDbEntity
  8
RACCORDO
100
AcDbLine
 62
7
  6
CONTINUOUS
 10
-15.2212336771
 20
-25.7839515821
 11
-15.2002410997
 21
-25.8202486534
  0
LINE
  5
3FB
100
AcDbEntity
  8
RACCORDO
100
AcDbLine
 62
7
  6
CONTINUOUS
 10
8.6410653296
 20
14.29084573
 11
8.6610029071
 21
14.256307327
  0
LINE
  5
3FC
100
AcDbEntity
  8
0
100
AcDbLine
 62
7
  6
CONTINUOUS
 10
3.2671834858
 20
-24.6044173731
 11
3.278704615
 21
-24.6244120686
  0
LINE
  5
3FD
100
AcDbEntity
  8
RACCORDO
100
AcDbLine
 62
7
  6
CONTINUOUS
 10
-8.6041473845
 20
-13.9747382053
 11
-8.5748899742
 21
-14.0257242516
  0
LINE
  5
3FE
100
AcDbEntity
  8
RACCORDO
100
AcDbLine
 62
7
  6
CONTINUOUS
 10
-16.6901193169
 20
24.5625824844
 11
-16.6991611177
 21
24.5783788543
  0
LINE
  5
3FF
100
AcDbEntity
  8
RACCORDO
100
AcDbLine
 62
7
  6
CONTINUOUS
 10
8.8355467057
 20
-22.0688422544
 11
8.8219732488
 21
-22.0448944276
  0
LINE
  5
400
100
AcDbEntity
  8
0
100
AcDbLine
 62
7
  6
CONTINUOUS
 10
3.2893607629
 20
-23.6782785642
 11
3.3030807716
 21
-23.7026247657
  0
LINE
  5
401
100
AcDbEntity
  8
RACCORDO
100
AcDbLine
 62
7
  6
CONTINUOUS
 10
-10.1557193415
 20
-15.0853758117
 11
-10.1894325783
 21
-15.0253245197
  0
LINE
  5
402
100
AcDbEntity
  8
RACCORDO
100
AcDbLine
 62
7
  6
CONTINUOUS
 10
-7.7489415046
 20
-13.3324683631
 11
-7.7237063237
 21
-13.3774152884
  0
LINE
  5
403
100
AcDbEntity
  8
RACCORDO
100
AcDbLine
 62
7
  6
CONTINUOUS
 10
-14.6263077735
 20
-26.3421352372
 11
-14.617457336
 21
-26.3579433152
  0
LINE
  5
404
100
AcDbEntity
  8
RACCORDO
100
AcDbLine
 62
7
  6
CONTINUOUS
 10
16.3024657193
 20
-38.7638272953
 11
16.3113159526
 21
-38.7796352843
  0
LINE
  5
405
100
AcDbEntity
  8
0
100
AcDbLine
 62
7
  6
CONTINUOUS
 10
3.6968575312
 20
-23.6677961189
 11
3.6722050604
 21
-23.6231690252
  0
LINE
  5
406
100
AcDbEntity
  8
0
100
AcDbLine
 62
7
  6
CONTINUOUS
 10
3.6994788927
 20
-24.6581428084
 11
3.6881390815
 21
-24.6375238673
  0
LINE
  5
407
100
AcDbEntity
  8
0
100
AcDbLine
 62
7
  6
CONTINUOUS
 10
3.3616069294
 20
-24.5470986189
 11
3.3707041389
 21
-24.5637045555
  0
LINE
  5
408
100
AcDbEntity
  8
0
100
AcDbLine
 62
7
  6
CONTINUOUS
 10
3.3807933518
 20
-23.6160207934
 11
3.3906481109
 21
-23.6340580642
  0
LINE
  5
409
100
AcDbEntity
  8
RACCORDO
100
AcDbLine
 62
7
  6
CONTINUOUS
 10
8.6610074273
 20
14.2563014881
 11
8.6724003583
 21
14.2354190859
  0
LINE
  5
40A
100
AcDbEntity
  8
RACCORDO
100
AcDbLine
 62
7
  6
CONTINUOUS
 10
8.7370717955
 20
-22.6452679244
 11
8.7173007015
 21
-22.6085327653
  0
LINE
  5
40B
100
AcDbEntity
  8
RACCORDO
100
AcDbLine
 62
7
  6
CONTINUOUS
 10
8.811310982
 20
14.2857002519
 11
8.8444048348
 21
14.2234879819
  0
LINE
  5
40C
100
AcDbEntity
  8
0
100
AcDbLine
 62
7
  6
CONTINUOUS
 10
3.278704615
 20
-24.6244120686
 11
3.2893388386
 21
-24.6444847469
  0
LINE
  5
40D
100
AcDbEntity
  8
RACCORDO
100
AcDbLine
 62
7
  6
CONTINUOUS
 10
-9.5758706985
 20
-14.7124041072
 11
-9.5954695268
 21
-14.6752981696
  0
LINE
  5
40E
100
AcDbEntity
  8
0
100
AcDbLine
 62
7
  6
CONTINUOUS
 10
3.7101741165
 20
-24.6785007714
 11
3.6994788927
 21
-24.6581428084
  0
LINE
  5
40F
100
AcDbEntity
  8
RACCORDO
100
AcDbLine
 62
7
  6
CONTINUOUS
 10
-15.2400726491
 20
-25.7476554789
 11
-15.2212336771
 21
-25.7839515821
  0
LINE
  5
410
100
AcDbEntity
  8
RACCORDO
100
AcDbLine
 62
7
  6
CONTINUOUS
 10
-16.6901192939
 20
-12.4658256907
 11
-16.6991610955
 21
-12.4483980317
  0
LINE
  5
411
100
AcDbEntity
  8
RACCORDO
100
AcDbLine
 62
7
  6
CONTINUOUS
 10
-15.3462154651
 20
-25.6777561878
 11
-15.3137387152
 21
-25.7404498593
  0
LINE
  5
412
100
AcDbEntity
  8
RACCORDO
100
AcDbLine
 62
7
  6
CONTINUOUS
 10
-10.1894325783
 20
-15.0253245197
 11
-10.2204606042
 21
-14.96473848
  0
LINE
  5
413
100
AcDbEntity
  8
0
100
AcDbLine
 62
7
  6
CONTINUOUS
 10
3.3707041389
 20
-24.5637045555
 11
3.3792185477
 21
-24.5804164302
  0
LINE
  5
414
100
AcDbEntity
  8
RACCORDO
100
AcDbLine
 62
7
  6
CONTINUOUS
 10
8.6724003583
 20
14.2354190859
 11
8.6953032537
 21
14.1904106441
  0
LINE
  5
415
100
AcDbEntity
  8
RACCORDO
100
AcDbLine
 62
7
  6
CONTINUOUS
 10
-8.6303785794
 20
-13.9231747628
 11
-8.6041473845
 21
-13.9747382053
  0
LINE
  5
416
100
AcDbEntity
  8
RACCORDO
100
AcDbLine
 62
7
  6
CONTINUOUS
 10
-7.7722821049
 20
-13.2865326958
 11
-7.7489415046
 21
-13.3324683631
  0
LINE
  5
417
100
AcDbEntity
  8
0
100
AcDbLine
 62
7
  6
CONTINUOUS
 10
3.7202528297
 20
-24.6985906957
 11
3.7101741165
 21
-24.6785007714
  0
LINE
  5
418
100
AcDbEntity
  8
RACCORDO
100
AcDbLine
 62
7
  6
CONTINUOUS
 10
-15.4193918498
 20
39.9390501216
 11
-15.4257679023
 21
39.9517939042
  0
LINE
  5
419
100
AcDbEntity
  8
0
100
AcDbLine
 62
7
  6
CONTINUOUS
 10
3.7187695267
 20
-23.71213077
 11
3.6968575312
 21
-23.6677961189
  0
LINE
  5
41A
100
AcDbEntity
  8
0
100
AcDbLine
 62
7
  6
CONTINUOUS
 10
3.3906481109
 20
-23.6340580642
 11
3.3996076484
 21
-23.6522486959
  0
LINE
  5
41B
100
AcDbEntity
  8
0
100
AcDbLine
 62
7
  6
CONTINUOUS
 10
3.3030807716
 20
-23.7026247657
 11
3.3151352366
 21
-23.7271520657
  0
LINE
  5
41C
100
AcDbEntity
  8
0
100
AcDbLine
 62
7
  6
CONTINUOUS
 10
3.2893388386
 20
-24.6444847469
 11
3.2990939888
 21
-24.6647022603
  0
LINE
  5
41D
100
AcDbEntity
  8
RACCORDO
100
AcDbLine
 62
7
  6
CONTINUOUS
 10
8.8444048348
 20
14.2234879819
 11
8.8747054785
 21
14.1606514251
  0
LINE
  5
41E
100
AcDbEntity
  8
RACCORDO
100
AcDbLine
 62
7
  6
CONTINUOUS
 10
-9.5954695268
 20
-14.6752981696
 11
-9.6133621883
 21
-14.6378441148
  0
LINE
  5
41F
100
AcDbEntity
  8
0
100
AcDbLine
 62
7
  6
CONTINUOUS
 10
3.7296869508
 20
-24.7184196447
 11
3.7202528297
 21
-24.6985906957
  0
LINE
  5
420
100
AcDbEntity
  8
0
100
AcDbLine
 62
7
  6
CONTINUOUS
 10
3.3792185477
 20
-24.5804164302
 11
3.3871450186
 21
-24.5972471976
  0
LINE
  5
421
100
AcDbEntity
  8
RACCORDO
100
AcDbLine
 62
7
  6
CONTINUOUS
 10
-15.4100603405
 20
-25.4799852554
 11
-15.419385143
 21
-25.4599519104
  0
LINE
  5
422
100
AcDbEntity
  8
RACCORDO
100
AcDbLine
 62
7
  6
CONTINUOUS
 10
-10.2204606042
 20
-14.96473848
 11
-10.2489118216
 21
-14.9033954953
  0
LINE
  5
423
100
AcDbEntity
  8
RACCORDO
100
AcDbLine
 62
7
  6
CONTINUOUS
 10
-15.2567808831
 20
-25.7113775549
 11
-15.2400726491
 21
-25.7476554789
  0
LINE
  5
424
100
AcDbEntity
  8
RACCORDO
100
AcDbLine
 62
7
  6
CONTINUOUS
 10
8.6953032537
 20
14.1904106441
 11
8.7160365733
 21
14.1453236154
  0
LINE
  5
425
100
AcDbEntity
  8
0
100
AcDbLine
 62
7
  6
CONTINUOUS
 10
3.7386293455
 20
-24.7379847526
 11
3.7296869508
 21
-24.7184196447
  0
LINE
  5
426
100
AcDbEntity
  8
RACCORDO
100
AcDbLine
 62
7
  6
CONTINUOUS
 10
8.8219756279
 20
13.6722636896
 11
8.8118141416
 21
13.6945571782
  0
LINE
  5
427
100
AcDbEntity
  8
RACCORDO
100
AcDbLine
 62
7
  6
CONTINUOUS
 10
-7.7936692769
 20
-13.2395772776
 11
-7.7722821049
 21
-13.2865326958
  0
LINE
  5
428
100
AcDbEntity
  8
RACCORDO
100
AcDbLine
 62
7
  6
CONTINUOUS
 10
8.7173007015
 20
-22.6085327653
 11
8.7002706077
 21
-22.5709627062
  0
LINE
  5
429
100
AcDbEntity
  8
RACCORDO
100
AcDbLine
 62
7
  6
CONTINUOUS
 10
-8.6535543901
 20
-13.8711114777
 11
-8.6303785794
 21
-13.9231747628
  0
LINE
  5
42A
100
AcDbEntity
  8
0
100
AcDbLine
 62
7
  6
CONTINUOUS
 10
3.3996076484
 20
-23.6522486959
 11
3.4076290891
 21
-23.6704042057
  0
LINE
  5
42B
100
AcDbEntity
  8
RACCORDO
100
AcDbLine
 62
7
  6
CONTINUOUS
 10
-15.3744299314
 20
-25.6138455297
 11
-15.3462154651
 21
-25.6777561878
  0
LINE
  5
42C
100
AcDbEntity
  8
0
100
AcDbLine
 62
7
  6
CONTINUOUS
 10
3.7470898696
 20
-24.7572661111
 11
3.7386293455
 21
-24.7379847526
  0
LINE
  5
42D
100
AcDbEntity
  8
0
100
AcDbLine
 62
7
  6
CONTINUOUS
 10
3.2990939888
 20
-24.6647022603
 11
3.3079703215
 21
-24.6850643602
  0
LINE
  5
42E
100
AcDbEntity
  8
RACCORDO
100
AcDbLine
 62
7
  6
CONTINUOUS
 10
8.8747054785
 20
14.1606514251
 11
8.9022133787
 21
14.0971909303
  0
LINE
  5
42F
100
AcDbEntity
  8
0
100
AcDbLine
 62
7
  6
CONTINUOUS
 10
3.3871450186
 20
-24.5972471976
 11
3.3944837045
 21
-24.614196709
  0
LINE
  5
430
100
AcDbEntity
  8
RACCORDO
100
AcDbLine
 62
7
  6
CONTINUOUS
 10
-9.2440676242
 20
21.8152969917
 11
-9.233719552
 21
21.7911689128
  0
LINE
  5
431
100
AcDbEntity
  8
RACCORDO
100
AcDbLine
 62
7
  6
CONTINUOUS
 10
8.0068380295
 20
14.8869425366
 11
8.0171863536
 21
14.8628145341
  0
LINE
  5
432
100
AcDbEntity
  8
RACCORDO
100
AcDbLine
 62
7
  6
CONTINUOUS
 10
-9.6133621883
 20
-14.6378441148
 11
-9.6294765236
 21
-14.6001670617
  0
LINE
  5
433
100
AcDbEntity
  8
0
100
AcDbLine
 62
7
  6
CONTINUOUS
 10
3.7374933961
 20
-23.7560065327
 11
3.7187695267
 21
-23.71213077
  0
LINE
  5
434
100
AcDbEntity
  8
0
100
AcDbLine
 62
7
  6
CONTINUOUS
 10
3.3151352366
 20
-23.7271520657
 11
3.3255404625
 21
-23.7518791894
  0
LINE
  5
435
100
AcDbEntity
  8
0
100
AcDbLine
 62
7
  6
CONTINUOUS
 10
3.7550585971
 20
-24.7762836949
 11
3.7470898696
 21
-24.7572661111
  0
LINE
  5
436
100
AcDbEntity
  8
RACCORDO
100
AcDbLine
 62
7
  6
CONTINUOUS
 10
-10.2489118216
 20
-14.9033954953
 11
-10.2746768106
 21
-14.841516859
  0
LINE
  5
437
100
AcDbEntity
  8
RACCORDO
100
AcDbLine
 62
7
  6
CONTINUOUS
 10
8.8219732488
 20
-22.0448944276
 11
8.81181091
 21
-22.0202687668
  0
LINE
  5
438
100
AcDbEntity
  8
RACCORDO
100
AcDbLine
 62
7
  6
CONTINUOUS
 10
8.7160365733
 20
14.1453236154
 11
8.7345482157
 21
14.1003788654
  0
LINE
  5
439
100
AcDbEntity
  8
0
100
AcDbLine
 62
7
  6
CONTINUOUS
 10
3.7626586932
 20
-24.7950944905
 11
3.7550585971
 21
-24.7762836949
  0
LINE
  5
43A
100
AcDbEntity
  8
RACCORDO
100
AcDbLine
 62
7
  6
CONTINUOUS
 10
-7.8128463822
 20
-13.1919911231
 11
-7.7936692769
 21
-13.2395772776
  0
LINE
  5
43B
100
AcDbEntity
  8
0
100
AcDbLine
 62
7
  6
CONTINUOUS
 10
3.3079703215
 20
-24.6850643602
 11
3.3219373752
 21
-24.7197177881
  0
LINE
  5
43C
100
AcDbEntity
  8
RACCORDO
100
AcDbLine
 62
7
  6
CONTINUOUS
 10
-15.2711034497
 20
-25.6756450465
 11
-15.2567808831
 21
-25.7113775549
  0
LINE
  5
43D
100
AcDbEntity
  8
0
100
AcDbLine
 62
7
  6
CONTINUOUS
 10
3.3219373752
 20
-24.7197177881
 11
3.3355308187
 21
-24.7542819255
  0
LINE
  5
43E
100
AcDbEntity
  8
0
100
AcDbLine
 62
7
  6
CONTINUOUS
 10
3.4076290891
 20
-23.6704042057
 11
3.4147248509
 21
-23.6885173024
  0
LINE
  5
43F
100
AcDbEntity
  8
0
100
AcDbLine
 62
7
  6
CONTINUOUS
 10
3.7698880028
 20
-24.8136842927
 11
3.7626586932
 21
-24.7950944905
  0
LINE
  5
440
100
AcDbEntity
  8
0
100
AcDbLine
 62
7
  6
CONTINUOUS
 10
3.3944837045
 20
-24.614196709
 11
3.4239120459
 21
-24.6903042075
  0
LINE
  5
441
100
AcDbEntity
  8
RACCORDO
100
AcDbLine
 62
7
  6
CONTINUOUS
 10
8.9022133787
 20
14.0971909303
 11
8.9270248381
 21
14.0328756096
  0
LINE
  5
442
100
AcDbEntity
  8
0
100
AcDbLine
 62
7
  6
CONTINUOUS
 10
3.3355308187
 20
-24.7542819255
 11
3.3487507179
 21
-24.7887567033
  0
LINE
  5
443
100
AcDbEntity
  8
RACCORDO
100
AcDbLine
 62
7
  6
CONTINUOUS
 10
-14.633382449
 20
-26.3236540083
 11
-14.6263077735
 21
-26.3421352372
  0
LINE
  5
444
100
AcDbEntity
  8
RACCORDO
100
AcDbLine
 62
7
  6
CONTINUOUS
 10
16.2953912165
 20
-38.745346342
 11
16.3024657193
 21
-38.7638272953
  0
LINE
  5
445
100
AcDbEntity
  8
RACCORDO
100
AcDbLine
 62
7
  6
CONTINUOUS
 10
-8.6735737878
 20
-13.8187579187
 11
-8.6535543901
 21
-13.8711114777
  0
LINE
  5
446
100
AcDbEntity
  8
RACCORDO
100
AcDbLine
 62
7
  6
CONTINUOUS
 10
-9.6294765236
 20
-14.6001670617
 11
-9.6437309801
 21
-14.5624141975
  0
LINE
  5
447
100
AcDbEntity
  8
RACCORDO
100
AcDbLine
 62
7
  6
CONTINUOUS
 10
-16.6991611177
 20
24.5783788543
 11
-16.7052291033
 21
24.5945204257
  0
LINE
  5
448
100
AcDbEntity
  8
0
100
AcDbLine
 62
7
  6
CONTINUOUS
 10
3.4239120459
 20
-24.6903042075
 11
3.4530231281
 21
-24.7678082422
  0
LINE
  5
449
100
AcDbEntity
  8
0
100
AcDbLine
 62
7
  6
CONTINUOUS
 10
3.7767486224
 20
-24.8320673619
 11
3.7698880028
 21
-24.8136842927
  0
LINE
  5
44A
100
AcDbEntity
  8
0
100
AcDbLine
 62
7
  6
CONTINUOUS
 10
3.3487507179
 20
-24.7887567033
 11
3.3615375848
 21
-24.8231141416
  0
LINE
  5
44B
100
AcDbEntity
  8
RACCORDO
100
AcDbLine
 62
7
  6
CONTINUOUS
 10
8.7002706077
 20
-22.5709627062
 11
8.6861042157
 21
-22.5328284389
  0
LINE
  5
44C
100
AcDbEntity
  8
RACCORDO
100
AcDbLine
 62
7
  6
CONTINUOUS
 10
-10.2746768106
 20
-14.841516859
 11
-10.2974285192
 21
-14.7797675237
  0
LINE
  5
44D
100
AcDbEntity
  8
0
100
AcDbLine
 62
7
  6
CONTINUOUS
 10
3.7534786009
 20
-23.7995881191
 11
3.7374933961
 21
-23.7560065327
  0
LINE
  5
44E
100
AcDbEntity
  8
0
100
AcDbLine
 62
7
  6
CONTINUOUS
 10
3.4530231281
 20
-24.7678082422
 11
3.4818202267
 21
-24.8467055714
  0
LINE
  5
44F
100
AcDbEntity
  8
RACCORDO
100
AcDbLine
 62
7
  6
CONTINUOUS
 10
8.7345482157
 20
14.1003788654
 11
8.7508100751
 21
14.0557775973
  0
LINE
  5
450
100
AcDbEntity
  8
RACCORDO
100
AcDbLine
 62
7
  6
CONTINUOUS
 10
-15.3976800413
 20
-25.5499601963
 11
-15.3744299314
 21
-25.6138455297
  0
LINE
  5
451
100
AcDbEntity
  8
0
100
AcDbLine
 62
7
  6
CONTINUOUS
 10
3.3615375848
 20
-24.8231141416
 11
3.3739510379
 21
-24.8573820835
  0
LINE
  5
452
100
AcDbEntity
  8
0
100
AcDbLine
 62
7
  6
CONTINUOUS
 10
3.7833701215
 20
-24.8503433569
 11
3.7767486224
 21
-24.8320673619
  0
LINE
  5
453
100
AcDbEntity
  8
0
100
AcDbLine
 62
7
  6
CONTINUOUS
 10
3.3739510379
 20
-24.8573820835
 11
3.3861698142
 21
-24.8916441827
  0
LINE
  5
454
100
AcDbEntity
  8
0
100
AcDbLine
 62
7
  6
CONTINUOUS
 10
3.5663615494
 20
-25.0917236321
 11
3.6574483322
 21
-25.3501859294
  0
LINE
  5
455
100
AcDbEntity
  8
0
100
AcDbLine
 62
7
  6
CONTINUOUS
 10
3.4694713542
 20
-25.1329897725
 11
3.5708532184
 21
-25.421120494
  0
LINE
  5
456
100
AcDbEntity
  8
RACCORDO
100
AcDbLine
 62
7
  6
CONTINUOUS
 10
-7.8295997467
 20
-13.1443266029
 11
-7.8128463822
 21
-13.1919911231
  0
LINE
  5
457
100
AcDbEntity
  8
0
100
AcDbLine
 62
7
  6
CONTINUOUS
 10
3.3255404625
 20
-23.7518791894
 11
3.3341305208
 21
-23.7763258557
  0
LINE
  5
458
100
AcDbEntity
  8
0
100
AcDbLine
 62
7
  6
CONTINUOUS
 10
3.3861698142
 20
-24.8916441827
 11
3.3981939027
 21
-24.9258965691
  0
LINE
  5
459
100
AcDbEntity
  8
0
100
AcDbLine
 62
7
  6
CONTINUOUS
 10
3.4818202267
 20
-24.8467055714
 11
3.5099638695
 21
-24.9269551165
  0
LINE
  5
45A
100
AcDbEntity
  8
0
100
AcDbLine
 62
7
  6
CONTINUOUS
 10
3.7897420462
 20
-24.8685127952
 11
3.7833701215
 21
-24.8503433569
  0
LINE
  5
45B
100
AcDbEntity
  8
0
100
AcDbLine
 62
7
  6
CONTINUOUS
 10
3.4454412441
 20
-25.0634193145
 11
3.4694713542
 21
-25.1329897725
  0
LINE
  5
45C
100
AcDbEntity
  8
0
100
AcDbLine
 62
7
  6
CONTINUOUS
 10
3.3981939027
 20
-24.9258965691
 11
3.4454412441
 21
-25.0634193145
  0
LINE
  5
45D
100
AcDbEntity
  8
0
100
AcDbLine
 62
7
  6
CONTINUOUS
 10
3.5099638695
 20
-24.9269551165
 11
3.5663615494
 21
-25.0917236321
  0
LINE
  5
45E
100
AcDbEntity
  8
0
100
AcDbLine
 62
7
  6
CONTINUOUS
 10
3.4147248509
 20
-23.6885173024
 11
3.4208828305
 21
-23.7065949765
  0
LINE
  5
45F
100
AcDbEntity
  8
RACCORDO
100
AcDbLine
 62
7
  6
CONTINUOUS
 10
8.9270248381
 20
14.0328756096
 11
8.9490445712
 21
13.9679371135
  0
LINE
  5
460
100
AcDbEntity
  8
RACCORDO
100
AcDbLine
 62
7
  6
CONTINUOUS
 10
-15.2829552769
 20
-25.6406335953
 11
-15.2711034497
 21
-25.6756450465
  0
LINE
  5
461
100
AcDbEntity
  8
RACCORDO
100
AcDbLine
 62
7
  6
CONTINUOUS
 10
-16.6991610955
 20
-12.4483980317
 11
-16.7052290825
 21
-12.4304418419
  0
LINE
  5
462
100
AcDbEntity
  8
0
100
AcDbLine
 62
7
  6
CONTINUOUS
 10
3.8019294786
 20
-24.9046285352
 11
3.7897420462
 21
-24.8685127952
  0
LINE
  5
463
100
AcDbEntity
  8
0
100
AcDbLine
 62
7
  6
CONTINUOUS
 10
3.8139116222
 20
-24.9407736106
 11
3.8019294786
 21
-24.9046285352
  0
LINE
  5
464
100
AcDbEntity
  8
0
100
AcDbLine
 62
7
  6
CONTINUOUS
 10
4.0313252787
 20
-25.6060564545
 11
3.9625808571
 21
-25.3970461269
  0
LINE
  5
465
100
AcDbEntity
  8
RACCORDO
100
AcDbLine
 62
7
  6
CONTINUOUS
 10
-9.6437309801
 20
-14.5624141975
 11
-9.6560790938
 21
-14.5246937896
  0
LINE
  5
466
100
AcDbEntity
  8
0
100
AcDbLine
 62
7
  6
CONTINUOUS
 10
3.9625808571
 20
-25.3970461269
 11
3.8139116222
 21
-24.9407736106
  0
LINE
  5
467
100
AcDbEntity
  8
RACCORDO
100
AcDbLine
 62
7
  6
CONTINUOUS
 10
-8.6902834238
 20
-13.7664884463
 11
-8.6735737878
 21
-13.8187579187
  0
LINE
  5
468
100
AcDbEntity
  8
RACCORDO
100
AcDbLine
 62
7
  6
CONTINUOUS
 10
-10.2974285192
 20
-14.7797675237
 11
-10.3171199026
 21
-14.718147686
  0
LINE
  5
469
100
AcDbEntity
  8
0
100
AcDbLine
 62
7
  6
CONTINUOUS
 10
3.7667891845
 20
-23.8413464675
 11
3.7534786009
 21
-23.7995881191
  0
LINE
  5
46A
100
AcDbEntity
  8
RACCORDO
100
AcDbLine
 62
7
  6
CONTINUOUS
 10
8.7508100751
 20
14.0557775973
 11
8.7648013797
 21
14.011734574
  0
LINE
  5
46B
100
AcDbEntity
  8
RACCORDO
100
AcDbLine
 62
7
  6
CONTINUOUS
 10
-9.252382688
 20
21.842256319
 11
-9.2440676242
 21
21.8152969917
  0
LINE
  5
46C
100
AcDbEntity
  8
RACCORDO
100
AcDbLine
 62
7
  6
CONTINUOUS
 10
7.9985227169
 20
14.9139019292
 11
8.0068380295
 21
14.8869425366
  0
LINE
  5
46D
100
AcDbEntity
  8
RACCORDO
100
AcDbLine
 62
7
  6
CONTINUOUS
 10
-15.419385143
 20
-25.4599519104
 11
-15.4255373653
 21
-25.4398256614
  0
LINE
  5
46E
100
AcDbEntity
  8
RACCORDO
100
AcDbLine
 62
7
  6
CONTINUOUS
 10
-7.8438582369
 20
-13.0968094662
 11
-7.8295997467
 21
-13.1443266029
  0
LINE
  5
46F
100
AcDbEntity
  8
RACCORDO
100
AcDbLine
 62
7
  6
CONTINUOUS
 10
8.8118141416
 20
13.6945571782
 11
8.8051359909
 21
13.7171586824
  0
LINE
  5
470
100
AcDbEntity
  8
RACCORDO
100
AcDbLine
 62
7
  6
CONTINUOUS
 10
8.9490445712
 20
13.9679371135
 11
8.9679855148
 21
13.9030694902
  0
LINE
  5
471
100
AcDbEntity
  8
RACCORDO
100
AcDbLine
 62
7
  6
CONTINUOUS
 10
8.6861042157
 20
-22.5328284389
 11
8.6749035941
 21
-22.49440472
  0
LINE
  5
472
100
AcDbEntity
  8
0
100
AcDbLine
 62
7
  6
CONTINUOUS
 10
3.4208828305
 20
-23.7065949765
 11
3.4260232361
 21
-23.7244702956
  0
LINE
  5
473
100
AcDbEntity
  8
RACCORDO
100
AcDbLine
 62
7
  6
CONTINUOUS
 10
-15.4157640152
 20
-25.4865442972
 11
-15.3976800413
 21
-25.5499601963
  0
LINE
  5
474
100
AcDbEntity
  8
0
100
AcDbLine
 62
7
  6
CONTINUOUS
 10
3.3341305208
 20
-23.7763258557
 11
3.3408501823
 21
-23.8003318931
  0
LINE
  5
475
100
AcDbEntity
  8
RACCORDO
100
AcDbLine
 62
7
  6
CONTINUOUS
 10
-9.6560790938
 20
-14.5246937896
 11
-9.6664782464
 21
-14.4871320323
  0
LINE
  5
476
100
AcDbEntity
  8
RACCORDO
100
AcDbLine
 62
7
  6
CONTINUOUS
 10
-15.2924205738
 20
-25.6061665849
 11
-15.2829552769
 21
-25.6406335953
  0
LINE
  5
477
100
AcDbEntity
  8
RACCORDO
100
AcDbLine
 62
7
  6
CONTINUOUS
 10
-10.3171199026
 20
-14.718147686
 11
-10.3337972913
 21
-14.6566565162
  0
LINE
  5
478
100
AcDbEntity
  8
RACCORDO
100
AcDbLine
 62
7
  6
CONTINUOUS
 10
8.7648013797
 20
14.011734574
 11
8.7765104513
 21
13.9684976175
  0
LINE
  5
479
100
AcDbEntity
  8
RACCORDO
100
AcDbLine
 62
7
  6
CONTINUOUS
 10
-15.4257679023
 20
39.9517939042
 11
-15.4291290439
 21
39.9644086661
  0
LINE
  5
47A
100
AcDbEntity
  8
RACCORDO
100
AcDbLine
 62
7
  6
CONTINUOUS
 10
8.81181091
 20
-22.0202687668
 11
8.8051319721
 21
-21.9951404296
  0
LINE
  5
47B
100
AcDbEntity
  8
0
100
AcDbLine
 62
7
  6
CONTINUOUS
 10
3.7771653067
 20
-23.8808066094
 11
3.7667891845
 21
-23.8413464675
  0
LINE
  5
47C
100
AcDbEntity
  8
RACCORDO
100
AcDbLine
 62
7
  6
CONTINUOUS
 10
-8.7035715342
 20
-13.7146222263
 11
-8.6902834238
 21
-13.7664884463
  0
LINE
  5
47D
100
AcDbEntity
  8
RACCORDO
100
AcDbLine
 62
7
  6
CONTINUOUS
 10
-14.6386003628
 20
-26.302711225
 11
-14.633382449
 21
-26.3236540083
  0
LINE
  5
47E
100
AcDbEntity
  8
RACCORDO
100
AcDbLine
 62
7
  6
CONTINUOUS
 10
16.290173412
 20
-38.7244040459
 11
16.2953912165
 21
-38.745346342
  0
LINE
  5
47F
100
AcDbEntity
  8
RACCORDO
100
AcDbLine
 62
7
  6
CONTINUOUS
 10
-7.8555575517
 20
-13.049623469
 11
-7.8438582369
 21
-13.0968094662
  0
LINE
  5
480
100
AcDbEntity
  8
RACCORDO
100
AcDbLine
 62
7
  6
CONTINUOUS
 10
8.9679855148
 20
13.9030694902
 11
8.9838006821
 21
13.838270411
  0
LINE
  5
481
100
AcDbEntity
  8
0
100
AcDbLine
 62
7
  6
CONTINUOUS
 10
3.4260232361
 20
-23.7244702956
 11
3.4301195098
 21
-23.7420875776
  0
LINE
  5
482
100
AcDbEntity
  8
RACCORDO
100
AcDbLine
 62
7
  6
CONTINUOUS
 10
-9.6664782464
 20
-14.4871320323
 11
-9.6748747787
 21
-14.4499014794
  0
LINE
  5
483
100
AcDbEntity
  8
RACCORDO
100
AcDbLine
 62
7
  6
CONTINUOUS
 10
8.7765104513
 20
13.9684976175
 11
8.78594472
 21
13.9263379542
  0
LINE
  5
484
100
AcDbEntity
  8
RACCORDO
100
AcDbLine
 62
7
  6
CONTINUOUS
 10
-10.3337972913
 20
-14.6566565162
 11
-10.3472740562
 21
-14.5959577484
  0
LINE
  5
485
100
AcDbEntity
  8
RACCORDO
100
AcDbLine
 62
7
  6
CONTINUOUS
 10
8.6749035941
 20
-22.49440472
 11
8.6667494434
 21
-22.4559683921
  0
LINE
  5
486
100
AcDbEntity
  8
RACCORDO
100
AcDbLine
 62
7
  6
CONTINUOUS
 10
-9.2586012241
 20
21.8718409505
 11
-9.252382688
 21
21.842256319
  0
LINE
  5
487
100
AcDbEntity
  8
RACCORDO
100
AcDbLine
 62
7
  6
CONTINUOUS
 10
7.9923039556
 20
14.943486794
 11
7.9985227169
 21
14.9139019292
  0
LINE
  5
488
100
AcDbEntity
  8
RACCORDO
100
AcDbLine
 62
7
  6
CONTINUOUS
 10
-15.4274492798
 20
-25.4306863142
 11
-15.4157640152
 21
-25.4865442972
  0
LINE
  5
489
100
AcDbEntity
  8
RACCORDO
100
AcDbLine
 62
7
  6
CONTINUOUS
 10
-15.2994988419
 20
-25.5722434514
 11
-15.2924205738
 21
-25.6061665849
  0
LINE
  5
48A
100
AcDbEntity
  8
0
100
AcDbLine
 62
7
  6
CONTINUOUS
 10
3.3408501823
 20
-23.8003318931
 11
3.3457552041
 21
-23.824056967
  0
LINE
  5
48B
100
AcDbEntity
  8
0
100
AcDbLine
 62
7
  6
CONTINUOUS
 10
3.7848649404
 20
-23.9184452687
 11
3.7771653067
 21
-23.8808066094
  0
LINE
  5
48C
100
AcDbEntity
  8
RACCORDO
100
AcDbLine
 62
7
  6
CONTINUOUS
 10
-15.4257605333
 20
-25.4390955942
 11
-15.4274228616
 21
-25.4308395355
  0
LINE
  5
48D
100
AcDbEntity
  8
RACCORDO
100
AcDbLine
 62
7
  6
CONTINUOUS
 10
8.9838006821
 20
13.838270411
 11
8.9965377768
 21
13.7735427435
  0
LINE
  5
48E
100
AcDbEntity
  8
RACCORDO
100
AcDbLine
 62
7
  6
CONTINUOUS
 10
-7.8646134277
 20
-13.003259356
 11
-7.8555575517
 21
-13.049623469
  0
LINE
  5
48F
100
AcDbEntity
  8
RACCORDO
100
AcDbLine
 62
7
  6
CONTINUOUS
 10
-8.7133647639
 20
-13.6634594049
 11
-8.7035715342
 21
-13.7146222263
  0
LINE
  5
490
100
AcDbEntity
  8
RACCORDO
100
AcDbLine
 62
7
  6
CONTINUOUS
 10
16.7602791244
 20
-38.4481730534
 11
16.5022674183
 21
-37.0801025167
  0
LINE
  5
491
100
AcDbEntity
  8
RACCORDO
100
AcDbLine
 62
7
  6
CONTINUOUS
 10
17.16436118
 20
-38.3615763297
 11
16.9069604056
 21
-36.996790728
  0
LINE
  5
492
100
AcDbEntity
  8
RACCORDO
100
AcDbLine
 62
7
  6
CONTINUOUS
 10
-16.7052291033
 20
24.5945204257
 11
-16.7082611409
 21
24.6108419172
  0
LINE
  5
493
100
AcDbEntity
  8
0
100
AcDbLine
 62
7
  6
CONTINUOUS
 10
3.4301195098
 20
-23.7420875776
 11
3.433198399
 21
-23.7595023225
  0
LINE
  5
494
100
AcDbEntity
  8
RACCORDO
100
AcDbLine
 62
7
  6
CONTINUOUS
 10
-9.6748747787
 20
-14.4499014794
 11
-9.6812424357
 21
-14.4131339939
  0
LINE
  5
495
100
AcDbEntity
  8
RACCORDO
100
AcDbLine
 62
7
  6
CONTINUOUS
 10
-15.4274228616
 20
-25.4308395355
 11
-15.4274492798
 21
-25.4306863142
  0
LINE
  5
496
100
AcDbEntity
  8
RACCORDO
100
AcDbLine
 62
7
  6
CONTINUOUS
 10
-10.3472740562
 20
-14.5959577484
 11
-10.3574879656
 21
-14.5362726087
  0
LINE
  5
497
100
AcDbEntity
  8
RACCORDO
100
AcDbLine
 62
7
  6
CONTINUOUS
 10
-16.7052290825
 20
-12.4304418419
 11
-16.7082611219
 21
-12.4121409832
  0
LINE
  5
498
100
AcDbEntity
  8
RACCORDO
100
AcDbLine
 62
7
  6
CONTINUOUS
 10
-15.6435153009
 20
-24.1159823893
 11
-15.4274301373
 21
-25.4308407906
  0
LINE
  5
499
100
AcDbEntity
  8
RACCORDO
100
AcDbLine
 62
7
  6
CONTINUOUS
 10
-15.5216613893
 20
-24.2185696704
 11
-15.2994988419
 21
-25.5722434514
  0
LINE
  5
49A
100
AcDbEntity
  8
0
100
AcDbLine
 62
7
  6
CONTINUOUS
 10
3.7907266666
 20
-23.954162995
 11
3.7848649404
 21
-23.9184452687
  0
LINE
  5
49B
100
AcDbEntity
  8
RACCORDO
100
AcDbLine
 62
7
  6
CONTINUOUS
 10
-15.848250654
 20
-22.7252552684
 11
-15.6435153009
 21
-24.1159823893
  0
LINE
  5
49C
100
AcDbEntity
  8
RACCORDO
100
AcDbLine
 62
7
  6
CONTINUOUS
 10
-15.7240304675
 20
-22.8403225584
 11
-15.5216613893
 21
-24.2185696704
  0
LINE
  5
49D
100
AcDbEntity
  8
RACCORDO
100
AcDbLine
 62
7
  6
CONTINUOUS
 10
-7.8710323077
 20
-12.9580004126
 11
-7.8646134277
 21
-13.003259356
  0
LINE
  5
49E
100
AcDbEntity
  8
RACCORDO
100
AcDbLine
 62
7
  6
CONTINUOUS
 10
8.6667494434
 20
-22.4559683921
 11
8.6617005141
 21
-22.4177963881
  0
LINE
  5
49F
100
AcDbEntity
  8
0
100
AcDbLine
 62
7
  6
CONTINUOUS
 10
3.3457552041
 20
-23.824056967
 11
3.3488458882
 21
-23.8475007876
  0
LINE
  5
4A0
100
AcDbEntity
  8
RACCORDO
100
AcDbLine
 62
7
  6
CONTINUOUS
 10
-16.0327150931
 20
-21.310273297
 11
-15.848250654
 21
-22.7252552684
  0
LINE
  5
4A1
100
AcDbEntity
  8
RACCORDO
100
AcDbLine
 62
7
  6
CONTINUOUS
 10
-15.9065230093
 20
-21.4380338745
 11
-15.7240304675
 21
-22.8403225584
  0
LINE
  5
4A2
100
AcDbEntity
  8
RACCORDO
100
AcDbLine
 62
7
  6
CONTINUOUS
 10
-9.2626757285
 20
21.9038248869
 11
-9.2586012241
 21
21.8718409505
  0
LINE
  5
4A3
100
AcDbEntity
  8
RACCORDO
100
AcDbLine
 62
7
  6
CONTINUOUS
 10
-8.7196212406
 20
-13.6132798633
 11
-8.7133647639
 21
-13.6634594049
  0
LINE
  5
4A4
100
AcDbEntity
  8
RACCORDO
100
AcDbLine
 62
7
  6
CONTINUOUS
 10
8.8051319721
 20
-21.9951404296
 11
8.8019839412
 21
-21.9696881494
  0
LINE
  5
4A5
100
AcDbEntity
  8
0
100
AcDbLine
 62
7
  6
CONTINUOUS
 10
3.7948700018
 20
-23.9878455125
 11
3.7907266666
 21
-23.954162995
  0
LINE
  5
4A6
100
AcDbEntity
  8
0
100
AcDbLine
 62
7
  6
CONTINUOUS
 10
3.433198399
 20
-23.7595023225
 11
3.4352600075
 21
-23.7767144307
  0
LINE
  5
4A7
100
AcDbEntity
  8
RACCORDO
100
AcDbLine
 62
7
  6
CONTINUOUS
 10
-9.6812424357
 20
-14.4131339939
 11
-9.6855724477
 21
-14.3769223423
  0
LINE
  5
4A8
100
AcDbEntity
  8
RACCORDO
100
AcDbLine
 62
7
  6
CONTINUOUS
 10
-10.3574879656
 20
-14.5362726087
 11
-10.3645009621
 21
-14.4773796168
  0
LINE
  5
4A9
100
AcDbEntity
  8
RACCORDO
100
AcDbLine
 62
7
  6
CONTINUOUS
 10
-16.1968310783
 20
-19.8716548198
 11
-16.0327150931
 21
-21.310273297
  0
LINE
  5
4AA
100
AcDbEntity
  8
RACCORDO
100
AcDbLine
 62
7
  6
CONTINUOUS
 10
-16.0690582813
 20
-20.0122601095
 11
-15.9065230093
 21
-21.4380338745
  0
LINE
  5
4AB
100
AcDbEntity
  8
RACCORDO
100
AcDbLine
 62
7
  6
CONTINUOUS
 10
9.0060514108
 20
13.7095880611
 11
9.0122931438
 21
13.6466402391
  0
LINE
  5
4AC
100
AcDbEntity
  8
RACCORDO
100
AcDbLine
 62
7
  6
CONTINUOUS
 10
15.7011057409
 20
-31.3803889371
 11
15.5588988866
 21
-29.9012904043
  0
LINE
  5
4AD
100
AcDbEntity
  8
RACCORDO
100
AcDbLine
 62
7
  6
CONTINUOUS
 10
16.1081627718
 20
-31.3148956539
 11
15.9663563883
 21
-29.8404069335
  0
LINE
  5
4AE
100
AcDbEntity
  8
RACCORDO
100
AcDbLine
 62
7
  6
CONTINUOUS
 10
16.7686178578
 20
-38.5132431186
 11
16.7657086946
 21
-38.481417973
  0
LINE
  5
4AF
100
AcDbEntity
  8
RACCORDO
100
AcDbLine
 62
7
  6
CONTINUOUS
 10
8.7981733842
 20
13.8461325387
 11
8.8011109225
 21
13.8086222896
  0
LINE
  5
4B0
100
AcDbEntity
  8
0
100
AcDbLine
 62
7
  6
CONTINUOUS
 10
3.7971729892
 20
-24.0196094054
 11
3.7948700018
 21
-23.9878455125
  0
LINE
  5
4B1
100
AcDbEntity
  8
0
100
AcDbLine
 62
7
  6
CONTINUOUS
 10
3.4352600075
 20
-23.7767144307
 11
3.4363021183
 21
-23.7934363952
  0
LINE
  5
4B2
100
AcDbEntity
  8
0
100
AcDbLine
 62
7
  6
CONTINUOUS
 10
3.3488458882
 20
-23.8475007876
 11
3.3498850494
 21
-23.8659700455
  0
LINE
  5
4B3
100
AcDbEntity
  8
RACCORDO
100
AcDbLine
 62
7
  6
CONTINUOUS
 10
7.9863298158
 20
15.0096106776
 11
7.9882292723
 21
14.97547115
  0
LINE
  5
4B4
100
AcDbEntity
  8
RACCORDO
100
AcDbLine
 62
7
  6
CONTINUOUS
 10
8.6617005141
 20
-22.4177963881
 11
8.6597931838
 21
-22.3801637368
  0
LINE
  5
4B5
100
AcDbEntity
  8
RACCORDO
100
AcDbLine
 62
7
  6
CONTINUOUS
 10
9.0122931438
 20
13.6466402391
 11
9.0153117061
 21
13.5844656223
  0
LINE
  5
4B6
100
AcDbEntity
  8
RACCORDO
100
AcDbLine
 62
7
  6
CONTINUOUS
 10
8.8019839412
 20
-21.9696881494
 11
8.8018217564
 21
-21.9659670987
  0
LINE
  5
4B7
100
AcDbEntity
  8
0
100
AcDbLine
 62
7
  6
CONTINUOUS
 10
3.7981116536
 20
-24.0497018446
 11
3.7971729892
 21
-24.0196094054
  0
LINE
  5
4B8
100
AcDbEntity
  8
0
100
AcDbLine
 62
7
  6
CONTINUOUS
 10
3.4363021183
 20
-23.7934363952
 11
3.4365436646
 21
-23.8099457841
  0
LINE
  5
4B9
100
AcDbEntity
  8
0
100
AcDbLine
 62
7
  6
CONTINUOUS
 10
3.3498850494
 20
-23.8659700455
 11
3.3500324496
 21
-23.8839199999
  0
LINE
  5
4BA
100
AcDbEntity
  8
RACCORDO
100
AcDbLine
 62
7
  6
CONTINUOUS
 10
-9.2645750558
 20
-15.8444210226
 11
-9.2626755969
 21
-15.8071696057
  0
LINE
  5
4BB
100
AcDbEntity
  8
RACCORDO
100
AcDbLine
 62
7
  6
CONTINUOUS
 10
-9.6878565881
 20
21.3461080897
 11
-9.6856127683
 21
21.3823431901
  0
LINE
  5
4BC
100
AcDbEntity
  8
RACCORDO
100
AcDbLine
 62
7
  6
CONTINUOUS
 10
-10.3683128766
 20
21.307882858
 11
-10.364634578
 21
21.366929938
  0
LINE
  5
4BD
100
AcDbEntity
  8
RACCORDO
100
AcDbLine
 62
7
  6
CONTINUOUS
 10
-9.2626755969
 20
-15.8071696057
 11
-9.2586009115
 21
-15.7685096775
  0
LINE
  5
4BE
100
AcDbEntity
  8
RACCORDO
100
AcDbLine
 62
7
  6
CONTINUOUS
 10
-10.364634578
 20
21.366929938
 11
-10.357767666
 21
21.4243769337
  0
LINE
  5
4BF
100
AcDbEntity
  8
RACCORDO
100
AcDbLine
 62
7
  6
CONTINUOUS
 10
-9.6856127683
 20
21.3823431901
 11
-9.6813561556
 21
21.4177921561
  0
LINE
  5
4C0
100
AcDbEntity
  8
RACCORDO
100
AcDbLine
 62
7
  6
CONTINUOUS
 10
-15.2924279452
 20
39.9005257672
 11
-15.2994988419
 21
39.8570410646
  0
LINE
  5
4C1
100
AcDbEntity
  8
RACCORDO
100
AcDbLine
 62
7
  6
CONTINUOUS
 10
-15.4184376063
 20
40.044055131
 11
-15.4292592022
 21
39.9782739958
  0
LINE
  5
4C2
100
AcDbEntity
  8
RACCORDO
100
AcDbLine
 62
7
  6
CONTINUOUS
 10
-14.6386003628
 20
40.2895603419
 11
-14.6333826558
 21
40.3190509086
  0
LINE
  5
4C3
100
AcDbEntity
  8
RACCORDO
100
AcDbLine
 62
7
  6
CONTINUOUS
 10
-15.2829666171
 20
39.942484226
 11
-15.2924279452
 21
39.9005257672
  0
LINE
  5
4C4
100
AcDbEntity
  8
RACCORDO
100
AcDbLine
 62
7
  6
CONTINUOUS
 10
-15.4028254598
 20
40.1106183187
 11
-15.4184376063
 21
40.044055131
  0
LINE
  5
4C5
100
AcDbEntity
  8
RACCORDO
100
AcDbLine
 62
7
  6
CONTINUOUS
 10
-14.6333826558
 20
40.3190509086
 11
-14.6263082331
 21
40.3491219831
  0
LINE
  5
4C6
100
AcDbEntity
  8
RACCORDO
100
AcDbLine
 62
7
  6
CONTINUOUS
 10
16.870566193
 20
-38.4705229251
 11
16.9003459213
 21
-38.4706890339
  0
LINE
  5
4C7
100
AcDbEntity
  8
RACCORDO
100
AcDbLine
 62
7
  6
CONTINUOUS
 10
16.4993925504
 20
-38.773942507
 11
16.5305262791
 21
-38.7741662131
  0
LINE
  5
4C8
100
AcDbEntity
  8
RACCORDO
100
AcDbLine
 62
7
  6
CONTINUOUS
 10
16.598398212
 20
-38.875242601
 11
16.6609130347
 21
-38.88
  0
LINE
  5
4C9
100
AcDbEntity
  8
RACCORDO
100
AcDbLine
 62
7
  6
CONTINUOUS
 10
16.4669428029
 20
-38.7713589841
 11
16.4993925504
 21
-38.773942507
  0
LINE
  5
4CA
100
AcDbEntity
  8
RACCORDO
100
AcDbLine
 62
7
  6
CONTINUOUS
 10
16.841375111
 20
-38.4681528198
 11
16.870566193
 21
-38.4705229251
  0
LINE
  5
4CB
100
AcDbEntity
  8
RACCORDO
100
AcDbLine
 62
7
  6
CONTINUOUS
 10
8.3025059581
 20
-22.8889142538
 11
8.2409088853
 21
-22.8807813263
  0
LINE
  5
4CC
100
AcDbEntity
  8
0
100
AcDbLine
 62
7
  6
CONTINUOUS
 10
3.151677626
 20
-24.0748318374
 11
3.1332612815
 21
-24.0721985484
  0
LINE
  5
4CD
100
AcDbEntity
  8
0
100
AcDbLine
 62
7
  6
CONTINUOUS
 10
3.510296938
 20
-24.4121300444
 11
3.5225122509
 21
-24.4139542945
  0
LINE
  5
4CE
100
AcDbEntity
  8
RACCORDO
100
AcDbLine
 62
7
  6
CONTINUOUS
 10
8.4481271709
 20
-22.2083077642
 11
8.4111622107
 21
-22.2024433201
  0
LINE
  5
4CF
100
AcDbEntity
  8
RACCORDO
100
AcDbLine
 62
7
  6
CONTINUOUS
 10
-10.2566434395
 20
-14.4521065178
 11
-10.2165693566
 21
-14.4590518811
  0
LINE
  5
4D0
100
AcDbEntity
  8
0
100
AcDbLine
 62
7
  6
CONTINUOUS
 10
3.1332612815
 20
-24.0721985484
 11
3.1146875057
 21
-24.0687986201
  0
LINE
  5
4D1
100
AcDbEntity
  8
RACCORDO
100
AcDbLine
 62
7
  6
CONTINUOUS
 10
8.2409088853
 20
-22.8807813263
 11
8.1784568169
 21
-22.8686469368
  0
LINE
  5
4D2
100
AcDbEntity
  8
RACCORDO
100
AcDbLine
 62
7
  6
CONTINUOUS
 10
-10.2954743763
 20
-14.4431175496
 11
-10.2566434395
 21
-14.4521065178
  0
LINE
  5
4D3
100
AcDbEntity
  8
RACCORDO
100
AcDbLine
 62
7
  6
CONTINUOUS
 10
8.981611839
 20
13.5375987079
 11
8.9503920426
 21
13.5535574627
  0
LINE
  5
4D4
100
AcDbEntity
  8
RACCORDO
100
AcDbLine
 62
7
  6
CONTINUOUS
 10
-9.9300350494
 20
21.7261268099
 11
-9.8946252672
 21
21.7075340745
  0
LINE
  5
4D5
100
AcDbEntity
  8
RACCORDO
100
AcDbLine
 62
7
  6
CONTINUOUS
 10
8.1493112477
 20
14.7652954087
 11
8.1899474307
 21
14.7436586333
  0
LINE
  5
4D6
100
AcDbEntity
  8
RACCORDO
100
AcDbLine
 62
7
  6
CONTINUOUS
 10
-16.6045478206
 20
24.4942249412
 11
-16.6265003731
 21
24.5059965368
  0
LINE
  5
4D7
100
AcDbEntity
  8
RACCORDO
100
AcDbLine
 62
7
  6
CONTINUOUS
 10
8.1146649602
 20
14.9861031737
 11
8.177612184
 21
14.9507134082
  0
LINE
  5
4D8
100
AcDbEntity
  8
RACCORDO
100
AcDbLine
 62
7
  6
CONTINUOUS
 10
8.1899474307
 20
14.7436586333
 11
8.2311026333
 21
14.719102042
  0
LINE
  5
4D9
100
AcDbEntity
  8
RACCORDO
100
AcDbLine
 62
7
  6
CONTINUOUS
 10
8.9503920426
 20
13.5535574627
 11
8.9216699384
 21
13.5708271019
  0
LINE
  5
4DA
100
AcDbEntity
  8
RACCORDO
100
AcDbLine
 62
7
  6
CONTINUOUS
 10
-9.9647449026
 20
21.7474328591
 11
-9.9300350494
 21
21.7261268099
  0
LINE
  5
4DB
100
AcDbEntity
  8
RACCORDO
100
AcDbLine
 62
7
  6
CONTINUOUS
 10
8.177612184
 20
14.9507134082
 11
8.2401207019
 21
14.9113957703
  0
LINE
  5
4DC
100
AcDbEntity
  8
RACCORDO
100
AcDbLine
 62
7
  6
CONTINUOUS
 10
8.0595647884
 20
14.8091453617
 11
8.0771089177
 21
14.7979494716
  0
LINE
  5
4DD
100
AcDbEntity
  8
RACCORDO
100
AcDbLine
 62
7
  6
CONTINUOUS
 10
8.2311026333
 20
14.719102042
 11
8.272454323
 21
14.6917070312
  0
LINE
  5
4DE
100
AcDbEntity
  8
RACCORDO
100
AcDbLine
 62
7
  6
CONTINUOUS
 10
-15.3654940587
 20
39.8893906573
 11
-15.382978473
 21
39.9013503034
  0
LINE
  5
4DF
100
AcDbEntity
  8
RACCORDO
100
AcDbLine
 62
7
  6
CONTINUOUS
 10
16.7481925251
 20
27.991840956
 11
16.7011782645
 21
28.0324840976
  0
LINE
  5
4E0
100
AcDbEntity
  8
RACCORDO
100
AcDbLine
 62
7
  6
CONTINUOUS
 10
16.4993970178
 20
27.7317454977
 11
16.4669272223
 21
27.7605705074
  0
LINE
  5
4E1
100
AcDbEntity
  8
RACCORDO
100
AcDbLine
 62
7
  6
CONTINUOUS
 10
16.7935729358
 20
27.9482297364
 11
16.7481925251
 21
27.991840956
  0
LINE
  5
4E2
100
AcDbEntity
  8
RACCORDO
100
AcDbLine
 62
7
  6
CONTINUOUS
 10
16.5305460568
 20
27.7006884229
 11
16.4993970178
 21
27.7317454977
  0
LINE
  5
4E3
100
AcDbEntity
  8
RACCORDO
100
AcDbLine
 62
7
  6
CONTINUOUS
 10
18.9377615992
 20
29.6149291561
 11
18.9614438088
 21
29.5901483644
  0
LINE
  5
4E4
100
AcDbEntity
  8
RACCORDO
100
AcDbLine
 62
7
  6
CONTINUOUS
 10
16.8371254105
 20
27.9018252667
 11
16.7935729358
 21
27.9482297364
  0
LINE
  5
4E5
100
AcDbEntity
  8
RACCORDO
100
AcDbLine
 62
7
  6
CONTINUOUS
 10
16.5604029054
 20
27.6674175044
 11
16.5305460568
 21
27.7006884229
  0
LINE
  5
4E6
100
AcDbEntity
  8
RACCORDO
100
AcDbLine
 62
7
  6
CONTINUOUS
 10
16.8787092989
 20
27.8528037559
 11
16.8371254105
 21
27.9018252667
  0
LINE
  5
4E7
100
AcDbEntity
  8
RACCORDO
100
AcDbLine
 62
7
  6
CONTINUOUS
 10
18.9614438088
 20
29.5901483644
 11
18.9831344297
 21
29.5642008867
  0
LINE
  5
4E8
100
AcDbEntity
  8
RACCORDO
100
AcDbLine
 62
7
  6
CONTINUOUS
 10
16.588595492
 20
27.6323140239
 11
16.5604029054
 21
27.6674175044
  0
LINE
  5
4E9
100
AcDbEntity
  8
RACCORDO
100
AcDbLine
 62
7
  6
CONTINUOUS
 10
16.9181281187
 20
27.8013437995
 11
16.8787092989
 21
27.8528037559
  0
LINE
  5
4EA
100
AcDbEntity
  8
RACCORDO
100
AcDbLine
 62
7
  6
CONTINUOUS
 10
18.9831344297
 20
29.5642008867
 11
19.002786571
 21
29.5375484108
  0
LINE
  5
4EB
100
AcDbEntity
  8
RACCORDO
100
AcDbLine
 62
7
  6
CONTINUOUS
 10
16.61511237
 20
27.5953487738
 11
16.588595492
 21
27.6323140239
  0
LINE
  5
4EC
100
AcDbEntity
  8
RACCORDO
100
AcDbLine
 62
7
  6
CONTINUOUS
 10
16.9551954159
 20
27.7476528761
 11
16.9181281187
 21
27.8013437995
  0
LINE
  5
4ED
100
AcDbEntity
  8
RACCORDO
100
AcDbLine
 62
7
  6
CONTINUOUS
 10
19.002786571
 20
29.5375484108
 11
19.0203512239
 21
29.5103415119
  0
LINE
  5
4EE
100
AcDbEntity
  8
RACCORDO
100
AcDbLine
 62
7
  6
CONTINUOUS
 10
16.6399672958
 20
27.5565520755
 11
16.61511237
 21
27.5953487738
  0
LINE
  5
4EF
100
AcDbEntity
  8
RACCORDO
100
AcDbLine
 62
7
  6
CONTINUOUS
 10
16.9897897425
 20
27.6919594747
 11
16.9551954159
 21
27.7476528761
  0
LINE
  5
4F0
100
AcDbEntity
  8
RACCORDO
100
AcDbLine
 62
7
  6
CONTINUOUS
 10
16.6628259089
 20
27.5163944604
 11
16.6399672958
 21
27.5565520755
  0
LINE
  5
4F1
100
AcDbEntity
  8
RACCORDO
100
AcDbLine
 62
7
  6
CONTINUOUS
 10
19.0203512239
 20
29.5103415119
 11
19.0358773971
 21
29.4824296148
  0
LINE
  5
4F2
100
AcDbEntity
  8
RACCORDO
100
AcDbLine
 62
7
  6
CONTINUOUS
 10
17.0217316895
 20
27.6344679809
 11
16.9897897425
 21
27.6919594747
  0
LINE
  5
4F3
100
AcDbEntity
  8
RACCORDO
100
AcDbLine
 62
7
  6
CONTINUOUS
 10
16.6836668057
 20
27.4748554388
 11
16.6628259089
 21
27.5163944604
  0
LINE
  5
4F4
100
AcDbEntity
  8
RACCORDO
100
AcDbLine
 62
7
  6
CONTINUOUS
 10
17.0508553477
 20
27.5754103413
 11
17.0217316895
 21
27.6344679809
  0
LINE
  5
4F5
100
AcDbEntity
  8
RACCORDO
100
AcDbLine
 62
7
  6
CONTINUOUS
 10
19.0358773971
 20
29.4824296148
 11
19.0494652266
 21
29.4538226819
  0
LINE
  5
4F6
100
AcDbEntity
  8
RACCORDO
100
AcDbLine
 62
7
  6
CONTINUOUS
 10
16.7025139536
 20
27.4319567431
 11
16.6836668057
 21
27.4748554388
  0
LINE
  5
4F7
100
AcDbEntity
  8
RACCORDO
100
AcDbLine
 62
7
  6
CONTINUOUS
 10
17.0770692352
 20
27.515066356
 11
17.0508553477
 21
27.5754103413
  0
LINE
  5
4F8
100
AcDbEntity
  8
RACCORDO
100
AcDbLine
 62
7
  6
CONTINUOUS
 10
19.0494652266
 20
29.4538226819
 11
19.061206168
 21
29.4244609245
  0
LINE
  5
4F9
100
AcDbEntity
  8
RACCORDO
100
AcDbLine
 62
7
  6
CONTINUOUS
 10
16.7191007251
 20
27.3882320841
 11
16.7025139536
 21
27.4319567431
  0
LINE
  5
4FA
100
AcDbEntity
  8
RACCORDO
100
AcDbLine
 62
7
  6
CONTINUOUS
 10
17.1002193755
 20
27.453661749
 11
17.0770692352
 21
27.515066356
  0
LINE
  5
4FB
100
AcDbEntity
  8
RACCORDO
100
AcDbLine
 62
7
  6
CONTINUOUS
 10
19.061206168
 20
29.4244609245
 11
19.0710087658
 21
29.3944041314
  0
LINE
  5
4FC
100
AcDbEntity
  8
RACCORDO
100
AcDbLine
 62
7
  6
CONTINUOUS
 10
16.7334009775
 20
27.3436639513
 11
16.7191007251
 21
27.3882320841
  0
LINE
  5
4FD
100
AcDbEntity
  8
RACCORDO
100
AcDbLine
 62
7
  6
CONTINUOUS
 10
17.1201690426
 20
27.3914463861
 11
17.1002193755
 21
27.453661749
  0
LINE
  5
4FE
100
AcDbEntity
  8
RACCORDO
100
AcDbLine
 62
7
  6
CONTINUOUS
 10
17.1368695488
 20
27.3287440256
 11
17.1201690426
 21
27.3914463861
  0
LINE
  5
4FF
100
AcDbEntity
  8
RACCORDO
100
AcDbLine
 62
7
  6
CONTINUOUS
 10
16.7454432958
 20
27.2982710477
 11
16.7334009775
 21
27.3436639513
  0
LINE
  5
500
100
AcDbEntity
  8
RACCORDO
100
AcDbLine
 62
7
  6
CONTINUOUS
 10
19.0710087658
 20
29.3944041314
 11
19.0786987892
 21
29.36384163
  0
LINE
  5
501
100
AcDbEntity
  8
RACCORDO
100
AcDbLine
 62
7
  6
CONTINUOUS
 10
17.1502027115
 20
27.2657926286
 11
17.1368695488
 21
27.3287440256
  0
LINE
  5
502
100
AcDbEntity
  8
RACCORDO
100
AcDbLine
 62
7
  6
CONTINUOUS
 10
16.7550425709
 20
27.2526411295
 11
16.7454432958
 21
27.2982710477
  0
LINE
  5
503
100
AcDbEntity
  8
RACCORDO
100
AcDbLine
 62
7
  6
CONTINUOUS
 10
8.78594472
 20
13.9263379542
 11
8.7931458779
 21
13.8854717618
  0
LINE
  5
504
100
AcDbEntity
  8
RACCORDO
100
AcDbLine
 62
7
  6
CONTINUOUS
 10
16.9069604056
 20
-36.996790728
 11
16.6726529549
 21
-35.6098414072
  0
LINE
  5
505
100
AcDbEntity
  8
RACCORDO
100
AcDbLine
 62
7
  6
CONTINUOUS
 10
16.5022674183
 20
-37.0801025167
 11
16.2672658487
 21
-35.6887501821
  0
LINE
  5
506
100
AcDbEntity
  8
RACCORDO
100
AcDbLine
 62
7
  6
CONTINUOUS
 10
16.7657086946
 20
-38.481417973
 11
16.7602791244
 21
-38.4481730534
  0
LINE
  5
507
100
AcDbEntity
  8
RACCORDO
100
AcDbLine
 62
7
  6
CONTINUOUS
 10
16.2672658487
 20
-35.6887501821
 11
16.0553575024
 21
-34.2746477855
  0
LINE
  5
508
100
AcDbEntity
  8
RACCORDO
100
AcDbLine
 62
7
  6
CONTINUOUS
 10
16.6726529549
 20
-35.6098414072
 11
16.4614388278
 21
-34.2007283674
  0
LINE
  5
509
100
AcDbEntity
  8
RACCORDO
100
AcDbLine
 62
7
  6
CONTINUOUS
 10
8.9965377768
 20
13.7735427435
 11
9.0060514108
 21
13.7095880611
  0
LINE
  5
50A
100
AcDbEntity
  8
RACCORDO
100
AcDbLine
 62
7
  6
CONTINUOUS
 10
8.8051359909
 20
13.7171586824
 11
8.8019886747
 21
13.7399074478
  0
LINE
  5
50B
100
AcDbEntity
  8
RACCORDO
100
AcDbLine
 62
7
  6
CONTINUOUS
 10
16.4614388278
 20
-34.2007283674
 11
16.273254138
 21
-32.7688938701
  0
LINE
  5
50C
100
AcDbEntity
  8
RACCORDO
100
AcDbLine
 62
7
  6
CONTINUOUS
 10
16.0553575024
 20
-34.2746477855
 11
15.8666145074
 21
-32.8383481412
  0
LINE
  5
50D
100
AcDbEntity
  8
RACCORDO
100
AcDbLine
 62
7
  6
CONTINUOUS
 10
8.7931458779
 20
13.8854717618
 11
8.7981733842
 21
13.8461325387
  0
LINE
  5
50E
100
AcDbEntity
  8
RACCORDO
100
AcDbLine
 62
7
  6
CONTINUOUS
 10
7.9882292723
 20
14.97547115
 11
7.9923039556
 21
14.943486794
  0
LINE
  5
50F
100
AcDbEntity
  8
RACCORDO
100
AcDbLine
 62
7
  6
CONTINUOUS
 10
16.273254138
 20
-32.7688938701
 11
16.1081627718
 21
-31.3148956539
  0
LINE
  5
510
100
AcDbEntity
  8
RACCORDO
100
AcDbLine
 62
7
  6
CONTINUOUS
 10
15.8666145074
 20
-32.8383481412
 11
15.7011057409
 21
-31.3803889371
  0
LINE
  5
511
100
AcDbEntity
  8
RACCORDO
100
AcDbLine
 62
7
  6
CONTINUOUS
 10
17.166470793
 20
27.1402784557
 11
17.1600684864
 21
27.2028514735
  0
LINE
  5
512
100
AcDbEntity
  8
RACCORDO
100
AcDbLine
 62
7
  6
CONTINUOUS
 10
16.7668453395
 20
27.1606167978
 11
16.7621645071
 21
27.2067469924
  0
LINE
  5
513
100
AcDbEntity
  8
RACCORDO
100
AcDbLine
 62
7
  6
CONTINUOUS
 10
19.0897889125
 20
29.2755198793
 11
19.0854217568
 21
29.3251300733
  0
LINE
  5
514
100
AcDbEntity
  8
RACCORDO
100
AcDbLine
 62
7
  6
CONTINUOUS
 10
17.1686813656
 20
-38.4110965499
 11
17.16436118
 21
-38.3615763297
  0
LINE
  5
515
100
AcDbEntity
  8
RACCORDO
100
AcDbLine
 62
7
  6
CONTINUOUS
 10
15.5588988866
 20
-29.9012904043
 11
15.4400491355
 21
-28.4016041838
  0
LINE
  5
516
100
AcDbEntity
  8
RACCORDO
100
AcDbLine
 62
7
  6
CONTINUOUS
 10
15.9663563883
 20
-29.8404069335
 11
15.8478988738
 21
-28.3459854473
  0
LINE
  5
517
100
AcDbEntity
  8
RACCORDO
100
AcDbLine
 62
7
  6
CONTINUOUS
 10
15.4400491355
 20
-28.4016041838
 11
15.3445970828
 21
-26.8819152312
  0
LINE
  5
518
100
AcDbEntity
  8
RACCORDO
100
AcDbLine
 62
7
  6
CONTINUOUS
 10
15.8478988738
 20
-28.3459854473
 11
15.752726342
 21
-26.831073457
  0
LINE
  5
519
100
AcDbEntity
  8
RACCORDO
100
AcDbLine
 62
7
  6
CONTINUOUS
 10
16.7690048972
 20
27.1149209358
 11
16.7668453395
 21
27.1606167978
  0
LINE
  5
51A
100
AcDbEntity
  8
RACCORDO
100
AcDbLine
 62
7
  6
CONTINUOUS
 10
15.3445970828
 20
-26.8819152312
 11
15.2725779043
 21
-25.3428041182
  0
LINE
  5
51B
100
AcDbEntity
  8
RACCORDO
100
AcDbLine
 62
7
  6
CONTINUOUS
 10
15.752726342
 20
-26.831073457
 11
15.6808387929
 21
-25.2956709625
  0
LINE
  5
51C
100
AcDbEntity
  8
RACCORDO
100
AcDbLine
 62
7
  6
CONTINUOUS
 10
17.1693706731
 20
27.0783577453
 11
17.166470793
 21
27.1402784557
  0
LINE
  5
51D
100
AcDbEntity
  8
RACCORDO
100
AcDbLine
 62
7
  6
CONTINUOUS
 10
15.2725780135
 20
-25.342804162
 11
15.1655882809
 21
-22.3375042395
  0
LINE
  5
51E
100
AcDbEntity
  8
RACCORDO
100
AcDbLine
 62
7
  6
CONTINUOUS
 10
15.6808387929
 20
-25.2956709625
 11
15.5739039313
 21
-22.2920044814
  0
LINE
  5
51F
100
AcDbEntity
  8
RACCORDO
100
AcDbLine
 62
7
  6
CONTINUOUS
 10
8.717428743
 20
-19.1181593248
 11
8.8018201869
 21
-21.9657748939
  0
LINE
  5
520
100
AcDbEntity
  8
RACCORDO
100
AcDbLine
 62
7
  6
CONTINUOUS
 10
8.9293849969
 20
-19.3072922401
 11
9.0151072674
 21
-22.2040971427
  0
LINE
  5
521
100
AcDbEntity
  8
RACCORDO
100
AcDbLine
 62
7
  6
CONTINUOUS
 10
15.1655882809
 20
-22.3375042395
 11
15.078036985
 21
-19.3167368454
  0
LINE
  5
522
100
AcDbEntity
  8
RACCORDO
100
AcDbLine
 62
7
  6
CONTINUOUS
 10
15.5739039313
 20
-22.2920044814
 11
15.4864089527
 21
-19.2733060443
  0
LINE
  5
523
100
AcDbEntity
  8
RACCORDO
100
AcDbLine
 62
7
  6
CONTINUOUS
 10
8.8011109225
 20
13.8086222896
 11
8.8020827691
 21
13.7731644957
  0
LINE
  5
524
100
AcDbEntity
  8
RACCORDO
100
AcDbLine
 62
7
  6
CONTINUOUS
 10
8.6468182203
 20
-16.1964384166
 11
8.717428743
 21
-19.1181593248
  0
LINE
  5
525
100
AcDbEntity
  8
RACCORDO
100
AcDbLine
 62
7
  6
CONTINUOUS
 10
8.8592404406
 20
-16.3952172824
 11
8.9293849969
 21
-19.3072922401
  0
LINE
  5
526
100
AcDbEntity
  8
RACCORDO
100
AcDbLine
 62
7
  6
CONTINUOUS
 10
15.078036985
 20
-19.3167368454
 11
15.0099318542
 21
-16.2807119361
  0
LINE
  5
527
100
AcDbEntity
  8
RACCORDO
100
AcDbLine
 62
7
  6
CONTINUOUS
 10
15.4864089527
 20
-19.2733060443
 11
15.418353857
 21
-16.2395756513
  0
LINE
  5
528
100
AcDbEntity
  8
RACCORDO
100
AcDbLine
 62
7
  6
CONTINUOUS
 10
8.5918981559
 20
-13.2595767589
 11
8.6468182203
 21
-16.1964384166
  0
LINE
  5
529
100
AcDbEntity
  8
RACCORDO
100
AcDbLine
 62
7
  6
CONTINUOUS
 10
8.8046785499
 20
-13.4680625334
 11
8.8592404406
 21
-16.3952172824
  0
LINE
  5
52A
100
AcDbEntity
  8
RACCORDO
100
AcDbLine
 62
7
  6
CONTINUOUS
 10
8.8018217564
 20
-21.9659670987
 11
8.8020732306
 21
-21.9795039173
  0
LINE
  5
52B
100
AcDbEntity
  8
RACCORDO
100
AcDbLine
 62
7
  6
CONTINUOUS
 10
15.0099318542
 20
-16.2807119361
 11
14.9612786592
 21
-13.2296027033
  0
LINE
  5
52C
100
AcDbEntity
  8
RACCORDO
100
AcDbLine
 62
7
  6
CONTINUOUS
 10
15.418353857
 20
-16.2395756513
 11
15.3697351978
 21
-13.1905624177
  0
LINE
  5
52D
100
AcDbEntity
  8
RACCORDO
100
AcDbLine
 62
7
  6
CONTINUOUS
 10
8.8019886747
 20
13.7399074478
 11
8.8017916803
 21
13.7531302262
  0
LINE
  5
52E
100
AcDbEntity
  8
RACCORDO
100
AcDbLine
 62
7
  6
CONTINUOUS
 10
17.1693707312
 20
-38.4589080648
 11
17.1686813656
 21
-38.4110965499
  0
LINE
  5
52F
100
AcDbEntity
  8
RACCORDO
100
AcDbLine
 62
7
  6
CONTINUOUS
 10
8.5526727611
 20
-10.3077893282
 11
8.5918981559
 21
-13.2595767589
  0
LINE
  5
530
100
AcDbEntity
  8
RACCORDO
100
AcDbLine
 62
7
  6
CONTINUOUS
 10
8.7657032998
 20
-10.526019217
 11
8.8046785499
 21
-13.4680625334
  0
LINE
  5
531
100
AcDbEntity
  8
RACCORDO
100
AcDbLine
 62
7
  6
CONTINUOUS
 10
16.7690061246
 20
-38.5436490435
 11
16.7686178578
 21
-38.5132431186
  0
LINE
  5
532
100
AcDbEntity
  8
RACCORDO
100
AcDbLine
 62
7
  6
CONTINUOUS
 10
14.9612786592
 20
-13.2296027033
 11
14.9320837288
 21
-10.163658922
  0
LINE
  5
533
100
AcDbEntity
  8
RACCORDO
100
AcDbLine
 62
7
  6
CONTINUOUS
 10
15.3697351978
 20
-13.1905624177
 11
15.3405564216
 21
-10.1265172282
  0
LINE
  5
534
100
AcDbEntity
  8
RACCORDO
100
AcDbLine
 62
7
  6
CONTINUOUS
 10
7.9866201175
 20
-22.808331646
 11
7.9863297986
 21
-22.7727741759
  0
LINE
  5
535
100
AcDbEntity
  8
RACCORDO
100
AcDbLine
 62
7
  6
CONTINUOUS
 10
8.5291432317
 20
-7.341268445
 11
8.5526727611
 21
-10.3077893282
  0
LINE
  5
536
100
AcDbEntity
  8
RACCORDO
100
AcDbLine
 62
7
  6
CONTINUOUS
 10
8.74231732
 20
-7.5692794785
 11
8.7657032998
 21
-10.526019217
  0
LINE
  5
537
100
AcDbEntity
  8
RACCORDO
100
AcDbLine
 62
7
  6
CONTINUOUS
 10
9.0151072674
 20
-22.2040971427
 11
9.0153822996
 21
-22.2599107966
  0
LINE
  5
538
100
AcDbEntity
  8
RACCORDO
100
AcDbLine
 62
7
  6
CONTINUOUS
 10
14.9320837288
 20
-10.163658922
 11
14.9223517105
 21
-7.0832088112
  0
LINE
  5
539
100
AcDbEntity
  8
RACCORDO
100
AcDbLine
 62
7
  6
CONTINUOUS
 10
15.3405564216
 20
-10.1265172282
 11
15.3308278675
 21
-7.0481927371
  0
LINE
  5
53A
100
AcDbEntity
  8
RACCORDO
100
AcDbLine
 62
7
  6
CONTINUOUS
 10
8.5213101181
 20
-4.3601969065
 11
8.5291432317
 21
-7.341268445
  0
LINE
  5
53B
100
AcDbEntity
  8
RACCORDO
100
AcDbLine
 62
7
  6
CONTINUOUS
 10
8.7345218925
 20
-4.5980363736
 11
8.74231732
 21
-7.5692794785
  0
LINE
  5
53C
100
AcDbEntity
  8
RACCORDO
100
AcDbLine
 62
7
  6
CONTINUOUS
 10
8.5291736822
 20
-1.3647657271
 11
8.5213101181
 21
-4.3601969065
  0
LINE
  5
53D
100
AcDbEntity
  8
RACCORDO
100
AcDbLine
 62
7
  6
CONTINUOUS
 10
8.7423173204
 20
-1.6124837992
 11
8.7345218925
 21
-4.5980363736
  0
LINE
  5
53E
100
AcDbEntity
  8
RACCORDO
100
AcDbLine
 62
7
  6
CONTINUOUS
 10
9.0153117061
 20
13.5844656223
 11
9.0151072674
 21
13.5230643392
  0
LINE
  5
53F
100
AcDbEntity
  8
RACCORDO
100
AcDbLine
 62
7
  6
CONTINUOUS
 10
8.5527325322
 20
1.6448326487
 11
8.5291736822
 21
-1.3647657271
  0
LINE
  5
540
100
AcDbEntity
  8
RACCORDO
100
AcDbLine
 62
7
  6
CONTINUOUS
 10
8.7657033005
 20
1.3871832476
 11
8.7423173204
 21
-1.6124837992
  0
LINE
  5
541
100
AcDbEntity
  8
RACCORDO
100
AcDbLine
 62
7
  6
CONTINUOUS
 10
7.9866201175
 20
15.0456445911
 11
7.9863298158
 21
15.0096106776
  0
LINE
  5
542
100
AcDbEntity
  8
RACCORDO
100
AcDbLine
 62
7
  6
CONTINUOUS
 10
8.8046785508
 20
4.4007687059
 11
8.7657033005
 21
1.3871832476
  0
LINE
  5
543
100
AcDbEntity
  8
0
100
AcDbLine
 62
7
  6
CONTINUOUS
 10
3.7977423753
 20
-24.0781538049
 11
3.7981116536
 21
-24.0497018446
  0
LINE
  5
544
100
AcDbEntity
  8
RACCORDO
100
AcDbLine
 62
7
  6
CONTINUOUS
 10
8.5919850031
 20
4.668413454
 11
8.5527325322
 21
1.6448326487
  0
LINE
  5
545
100
AcDbEntity
  8
RACCORDO
100
AcDbLine
 62
7
  6
CONTINUOUS
 10
8.8020827691
 20
13.7731644957
 11
8.8017915312
 21
13.7531751612
  0
LINE
  5
546
100
AcDbEntity
  8
RACCORDO
100
AcDbLine
 62
7
  6
CONTINUOUS
 10
8.8592404415
 20
7.4280758206
 11
8.8046785508
 21
4.4007687059
  0
LINE
  5
547
100
AcDbEntity
  8
RACCORDO
100
AcDbLine
 62
7
  6
CONTINUOUS
 10
8.6469287594
 20
7.7057809268
 11
8.5919850031
 21
4.668413454
  0
LINE
  5
548
100
AcDbEntity
  8
RACCORDO
100
AcDbLine
 62
7
  6
CONTINUOUS
 10
8.9293849975
 20
10.468907157
 11
8.8592404415
 21
7.4280758206
  0
LINE
  5
549
100
AcDbEntity
  8
RACCORDO
100
AcDbLine
 62
7
  6
CONTINUOUS
 10
8.7175584495
 20
10.7567110946
 11
8.6469287594
 21
7.7057809268
  0
LINE
  5
54A
100
AcDbEntity
  8
RACCORDO
100
AcDbLine
 62
7
  6
CONTINUOUS
 10
8.8020732306
 20
-21.9795039173
 11
8.8014065408
 21
-22.0065057168
  0
LINE
  5
54B
100
AcDbEntity
  8
RACCORDO
100
AcDbLine
 62
7
  6
CONTINUOUS
 10
8.8017916803
 20
13.7531302262
 11
8.7175584495
 21
10.7567110946
  0
LINE
  5
54C
100
AcDbEntity
  8
RACCORDO
100
AcDbLine
 62
7
  6
CONTINUOUS
 10
9.0151072674
 20
13.5230643392
 11
8.9293849975
 21
10.468907157
  0
LINE
  5
54D
100
AcDbEntity
  8
RACCORDO
100
AcDbLine
 62
7
  6
CONTINUOUS
 10
8.6597931838
 20
-22.3801637368
 11
8.6610411947
 21
-22.343341581
  0
LINE
  5
54E
100
AcDbEntity
  8
0
100
AcDbLine
 62
7
  6
CONTINUOUS
 10
3.4365436646
 20
-23.8099457841
 11
3.4359847031
 21
-23.8262425425
  0
LINE
  5
54F
100
AcDbEntity
  8
0
100
AcDbLine
 62
7
  6
CONTINUOUS
 10
3.3500324496
 20
-23.8839199999
 11
3.3492880028
 21
-23.9013507317
  0
LINE
  5
550
100
AcDbEntity
  8
RACCORDO
100
AcDbLine
 62
7
  6
CONTINUOUS
 10
7.9863297986
 20
-22.7727741759
 11
7.9882291459
 21
-22.7355235539
  0
LINE
  5
551
100
AcDbEntity
  8
0
100
AcDbLine
 62
7
  6
CONTINUOUS
 10
3.7960067941
 20
-24.1049361893
 11
3.7977423753
 21
-24.0781538049
  0
LINE
  5
552
100
AcDbEntity
  8
0
100
AcDbLine
 62
7
  6
CONTINUOUS
 10
3.4359847031
 20
-23.8262425425
 11
3.4346289706
 21
-23.8424315457
  0
LINE
  5
553
100
AcDbEntity
  8
RACCORDO
100
AcDbLine
 62
7
  6
CONTINUOUS
 10
-9.2586009115
 20
-15.7685096775
 11
-9.2523821485
 21
-15.7287365893
  0
LINE
  5
554
100
AcDbEntity
  8
RACCORDO
100
AcDbLine
 62
7
  6
CONTINUOUS
 10
-10.357767666
 20
21.4243769337
 11
-10.347712244
 21
21.4802237661
  0
LINE
  5
555
100
AcDbEntity
  8
RACCORDO
100
AcDbLine
 62
7
  6
CONTINUOUS
 10
-9.6813561556
 20
21.4177921561
 11
-9.675087362
 21
21.4523426385
  0
LINE
  5
556
100
AcDbEntity
  8
RACCORDO
100
AcDbLine
 62
7
  6
CONTINUOUS
 10
-10.347712244
 20
21.4802237661
 11
-10.3344418926
 21
21.5346696032
  0
LINE
  5
557
100
AcDbEntity
  8
RACCORDO
100
AcDbLine
 62
7
  6
CONTINUOUS
 10
-9.675087362
 20
21.4523426385
 11
-9.6668128721
 21
21.4858817669
  0
LINE
  5
558
100
AcDbEntity
  8
RACCORDO
100
AcDbLine
 62
7
  6
CONTINUOUS
 10
-14.6263082331
 20
40.3491219831
 11
-14.6174580623
 21
40.3794292943
  0
LINE
  5
559
100
AcDbEntity
  8
RACCORDO
100
AcDbLine
 62
7
  6
CONTINUOUS
 10
-15.2711153471
 20
39.9829161925
 11
-15.2829666171
 21
39.942484226
  0
LINE
  5
55A
100
AcDbEntity
  8
RACCORDO
100
AcDbLine
 62
7
  6
CONTINUOUS
 10
-15.3829449842
 20
40.1747198798
 11
-15.4028254598
 21
40.1106183187
  0
LINE
  5
55B
100
AcDbEntity
  8
RACCORDO
100
AcDbLine
 62
7
  6
CONTINUOUS
 10
16.5305262791
 20
-38.7741662131
 11
16.56036888
 21
-38.7720574658
  0
LINE
  5
55C
100
AcDbEntity
  8
RACCORDO
100
AcDbLine
 62
7
  6
CONTINUOUS
 10
16.9003459213
 20
-38.4706890339
 11
16.9304088569
 21
-38.4686494426
  0
LINE
  5
55D
100
AcDbEntity
  8
RACCORDO
100
AcDbLine
 62
7
  6
CONTINUOUS
 10
16.6609130347
 20
-38.88
 11
16.7199307356
 21
-38.8796349521
  0
LINE
  5
55E
100
AcDbEntity
  8
0
100
AcDbLine
 62
7
  6
CONTINUOUS
 10
3.5225122509
 20
-24.4139542945
 11
3.5341490105
 21
-24.4145764665
  0
LINE
  5
55F
100
AcDbEntity
  8
RACCORDO
100
AcDbLine
 62
7
  6
CONTINUOUS
 10
8.3625886082
 20
-22.8929579989
 11
8.3025059581
 21
-22.8889142538
  0
LINE
  5
560
100
AcDbEntity
  8
0
100
AcDbLine
 62
7
  6
CONTINUOUS
 10
3.1697519463
 20
-24.0764009563
 11
3.151677626
 21
-24.0748318374
  0
LINE
  5
561
100
AcDbEntity
  8
RACCORDO
100
AcDbLine
 62
7
  6
CONTINUOUS
 10
8.4843189593
 20
-22.2116509273
 11
8.4481271709
 21
-22.2083077642
  0
LINE
  5
562
100
AcDbEntity
  8
0
100
AcDbLine
 62
7
  6
CONTINUOUS
 10
3.6064712921
 20
-24.3432054665
 11
3.6160128753
 21
-24.3440990608
  0
LINE
  5
563
100
AcDbEntity
  8
RACCORDO
100
AcDbLine
 62
7
  6
CONTINUOUS
 10
-10.2165693566
 20
-14.4590518811
 11
-10.175537157
 21
-14.4639042401
  0
LINE
  5
564
100
AcDbEntity
  8
RACCORDO
100
AcDbLine
 62
7
  6
CONTINUOUS
 10
-10.3683071844
 20
21.3078871259
 11
-10.3327807169
 21
21.2946999165
  0
LINE
  5
565
100
AcDbEntity
  8
RACCORDO
100
AcDbLine
 62
7
  6
CONTINUOUS
 10
-9.1875494143
 20
21.7308528065
 11
-9.164382669
 21
21.7219853601
  0
LINE
  5
566
100
AcDbEntity
  8
RACCORDO
100
AcDbLine
 62
7
  6
CONTINUOUS
 10
-9.1642790414
 20
21.7219457466
 11
8.086625827
 21
14.7935934389
  0
LINE
  5
567
100
AcDbEntity
  8
RACCORDO
100
AcDbLine
 62
7
  6
CONTINUOUS
 10
-9.2642847569
 20
21.9739969012
 11
7.9866201175
 21
15.0456445911
  0
LINE
  5
568
100
AcDbEntity
  8
RACCORDO
100
AcDbLine
 62
7
  6
CONTINUOUS
 10
8.0866807426
 20
14.793565996
 11
8.1095049236
 21
14.7839809735
  0
LINE
  5
569
100
AcDbEntity
  8
RACCORDO
100
AcDbLine
 62
7
  6
CONTINUOUS
 10
7.9866201175
 20
15.0456445911
 11
8.0510011304
 21
15.0177470437
  0
LINE
  5
56A
100
AcDbEntity
  8
RACCORDO
100
AcDbLine
 62
7
  6
CONTINUOUS
 10
9.0151072751
 20
13.523064345
 11
8.981611839
 21
13.5375987079
  0
LINE
  5
56B
100
AcDbEntity
  8
RACCORDO
100
AcDbLine
 62
7
  6
CONTINUOUS
 10
-9.8946252672
 20
21.7075340745
 11
-9.8587706831
 21
21.6917886132
  0
LINE
  5
56C
100
AcDbEntity
  8
RACCORDO
100
AcDbLine
 62
7
  6
CONTINUOUS
 10
-16.5805902433
 20
24.4836602388
 11
-16.6045478206
 21
24.4942249412
  0
LINE
  5
56D
100
AcDbEntity
  8
RACCORDO
100
AcDbLine
 62
7
  6
CONTINUOUS
 10
8.0771089177
 20
14.7979494716
 11
8.0866258739
 21
14.7935934201
  0
LINE
  5
56E
100
AcDbEntity
  8
RACCORDO
100
AcDbLine
 62
7
  6
CONTINUOUS
 10
-9.1737976549
 20
21.7263026588
 11
-9.164381955
 21
21.7219871391
  0
LINE
  5
56F
100
AcDbEntity
  8
RACCORDO
100
AcDbLine
 62
7
  6
CONTINUOUS
 10
8.1095049236
 20
14.7839809735
 11
8.1493112477
 21
14.7652954087
  0
LINE
  5
570
100
AcDbEntity
  8
RACCORDO
100
AcDbLine
 62
7
  6
CONTINUOUS
 10
8.0510011304
 20
15.0177470437
 11
8.1146649602
 21
14.9861031737
  0
LINE
  5
571
100
AcDbEntity
  8
RACCORDO
100
AcDbLine
 62
7
  6
CONTINUOUS
 10
-15.3456129391
 20
39.8779420365
 11
-15.3654940587
 21
39.8893906573
  0
LINE
  5
572
100
AcDbEntity
  8
RACCORDO
100
AcDbLine
 62
7
  6
CONTINUOUS
 10
16.3985611433
 20
27.8112486858
 11
16.3632715545
 21
27.8326646051
  0
LINE
  5
573
100
AcDbEntity
  8
RACCORDO
100
AcDbLine
 62
7
  6
CONTINUOUS
 10
16.6030559568
 20
28.1042555277
 11
16.5523152936
 21
28.1351046365
  0
LINE
  5
574
100
AcDbEntity
  8
RACCORDO
100
AcDbLine
 62
7
  6
CONTINUOUS
 10
16.6527426571
 20
28.070002494
 11
16.6030559568
 21
28.1042555277
  0
LINE
  5
575
100
AcDbEntity
  8
RACCORDO
100
AcDbLine
 62
7
  6
CONTINUOUS
 10
16.4331635104
 20
27.7871808441
 11
16.3985611433
 21
27.8112486858
  0
LINE
  5
576
100
AcDbEntity
  8
RACCORDO
100
AcDbLine
 62
7
  6
CONTINUOUS
 10
18.8548123294
 20
29.6818097273
 11
18.8840889365
 21
29.6611470194
  0
LINE
  5
577
100
AcDbEntity
  8
RACCORDO
100
AcDbLine
 62
7
  6
CONTINUOUS
 10
16.7011782645
 20
28.0324840976
 11
16.6527426571
 21
28.070002494
  0
LINE
  5
578
100
AcDbEntity
  8
RACCORDO
100
AcDbLine
 62
7
  6
CONTINUOUS
 10
16.4669272223
 20
27.7605705074
 11
16.4331635104
 21
27.7871808441
  0
LINE
  5
579
100
AcDbEntity
  8
RACCORDO
100
AcDbLine
 62
7
  6
CONTINUOUS
 10
18.8840889365
 20
29.6611470194
 11
18.9119210622
 21
29.6386214307
  0
LINE
  5
57A
100
AcDbEntity
  8
RACCORDO
100
AcDbLine
 62
7
  6
CONTINUOUS
 10
18.9119210622
 20
29.6386214307
 11
18.9377615992
 21
29.6149291561
  0
LINE
  5
57B
100
AcDbEntity
  8
RACCORDO
100
AcDbLine
 62
7
  6
CONTINUOUS
 10
19.0786987892
 20
29.36384163
 11
19.0825367847
 21
29.3436854843
  0
LINE
  5
57C
100
AcDbEntity
  8
RACCORDO
100
AcDbLine
 62
7
  6
CONTINUOUS
 10
17.1600684864
 20
27.2028514735
 11
17.1502027115
 21
27.2657926286
  0
LINE
  5
57D
100
AcDbEntity
  8
RACCORDO
100
AcDbLine
 62
7
  6
CONTINUOUS
 10
16.7621645071
 20
27.2067469924
 11
16.7550425709
 21
27.2526411295
  0
LINE
  5
57E
100
AcDbEntity
  8
RACCORDO
100
AcDbLine
 62
7
  6
CONTINUOUS
 10
19.0854217568
 20
29.3251300733
 11
19.0825974936
 21
29.3436719868
  0
LINE
  5
57F
100
AcDbEntity
  8
RACCORDO
100
AcDbLine
 62
7
  6
CONTINUOUS
 10
19.0902725827
 20
29.2524158394
 11
19.0897889125
 21
29.2755198793
  0
LINE
  5
580
100
AcDbEntity
  8
RACCORDO
100
AcDbLine
 62
7
  6
CONTINUOUS
 10
19.0902700236
 20
29.2528986547
 11
19.0902691522
 21
29.2533701144
  0
LINE
  5
581
100
AcDbEntity
  8
RACCORDO
100
AcDbLine
 62
7
  6
CONTINUOUS
 10
18.7116331663
 20
-37.3333984026
 11
18.7116331663
 21
28.2010103793
  0
LINE
  5
582
100
AcDbEntity
  8
ASSI
100
AcDbLine
 62
7
  6
CONTINUOUS
 10
19.0902700274
 20
29.2498037806
 11
19.0902700274
 21
-34.8996369533
  0
LINE
  5
583
100
AcDbEntity
  8
RACCORDO
100
AcDbLine
 62
7
  6
CONTINUOUS
 10
19.0902699772
 20
-34.9032906576
 11
19.0902699476
 21
-34.903478169
  0
LINE
  5
584
100
AcDbEntity
  8
RACCORDO
100
AcDbLine
 62
7
  6
CONTINUOUS
 10
14.9223517105
 20
-7.0832088112
 11
14.9320837237
 21
-3.9884686522
  0
LINE
  5
585
100
AcDbEntity
  8
RACCORDO
100
AcDbLine
 62
7
  6
CONTINUOUS
 10
15.3308278675
 20
-7.0481927371
 11
15.3405564299
 21
-3.9555838109
  0
LINE
  5
586
100
AcDbEntity
  8
RACCORDO
100
AcDbLine
 62
7
  6
CONTINUOUS
 10
19.0902699476
 20
-34.903478169
 11
19.0899060908
 21
-34.9636805405
  0
LINE
  5
587
100
AcDbEntity
  8
RACCORDO
100
AcDbLine
 62
7
  6
CONTINUOUS
 10
16.768616552
 20
27.0698829224
 11
16.7690048972
 21
27.1149209358
  0
LINE
  5
588
100
AcDbEntity
  8
RACCORDO
100
AcDbLine
 62
7
  6
CONTINUOUS
 10
14.9320837237
 20
-3.9884686522
 11
14.9612786502
 21
-0.8796554187
  0
LINE
  5
589
100
AcDbEntity
  8
RACCORDO
100
AcDbLine
 62
7
  6
CONTINUOUS
 10
15.3405564299
 20
-3.9555838109
 11
15.3697352145
 21
-0.8486955831
  0
LINE
  5
58A
100
AcDbEntity
  8
RACCORDO
100
AcDbLine
 62
7
  6
CONTINUOUS
 10
17.1686813364
 20
27.0172994395
 11
17.1693706731
 21
27.0783577453
  0
LINE
  5
58B
100
AcDbEntity
  8
RACCORDO
100
AcDbLine
 62
7
  6
CONTINUOUS
 10
14.9612786502
 20
-0.8796554187
 11
15.0099318431
 21
2.2428967681
  0
LINE
  5
58C
100
AcDbEntity
  8
RACCORDO
100
AcDbLine
 62
7
  6
CONTINUOUS
 10
15.3697352145
 20
-0.8486955831
 11
15.4183538774
 21
2.2717038921
  0
LINE
  5
58D
100
AcDbEntity
  8
RACCORDO
100
AcDbLine
 62
7
  6
CONTINUOUS
 10
19.0858128434
 20
-35.1233252582
 11
19.0902695299
 21
-34.9032938126
  0
LINE
  5
58E
100
AcDbEntity
  8
RACCORDO
100
AcDbLine
 62
7
  6
CONTINUOUS
 10
15.0099318431
 20
2.2428967681
 11
15.0780369729
 21
5.3789283342
  0
LINE
  5
58F
100
AcDbEntity
  8
RACCORDO
100
AcDbLine
 62
7
  6
CONTINUOUS
 10
15.4183538774
 20
2.2717038921
 11
15.4864089709
 21
5.4053585965
  0
LINE
  5
590
100
AcDbEntity
  8
RACCORDO
100
AcDbLine
 62
7
  6
CONTINUOUS
 10
15.0780369729
 20
5.3789283342
 11
15.1655882692
 21
8.5282560639
  0
LINE
  5
591
100
AcDbEntity
  8
RACCORDO
100
AcDbLine
 62
7
  6
CONTINUOUS
 10
15.4864089709
 20
5.4053585965
 11
15.5739039427
 21
8.5525245483
  0
LINE
  5
592
100
AcDbEntity
  8
RACCORDO
100
AcDbLine
 62
7
  6
CONTINUOUS
 10
19.0900729678
 20
29.2461370377
 11
19.0902700236
 21
29.2528986547
  0
LINE
  5
593
100
AcDbEntity
  8
RACCORDO
100
AcDbLine
 62
7
  6
CONTINUOUS
 10
19.0899060908
 20
-34.9636805405
 11
19.0847140278
 21
-35.1387705752
  0
LINE
  5
594
100
AcDbEntity
  8
RACCORDO
100
AcDbLine
 62
7
  6
CONTINUOUS
 10
15.1655882692
 20
8.5282560639
 11
15.2725780039
 21
11.6906573395
  0
LINE
  5
595
100
AcDbEntity
  8
RACCORDO
100
AcDbLine
 62
7
  6
CONTINUOUS
 10
15.5739039427
 20
8.5525245483
 11
15.6808387929
 21
11.7132017474
  0
LINE
  5
596
100
AcDbEntity
  8
RACCORDO
100
AcDbLine
 62
7
  6
CONTINUOUS
 10
15.2725778941
 20
11.6906573836
 11
15.344597074
 21
13.3355354982
  0
LINE
  5
597
100
AcDbEntity
  8
RACCORDO
100
AcDbLine
 62
7
  6
CONTINUOUS
 10
15.6808387929
 20
11.7132017474
 11
15.7527266432
 21
13.3541612071
  0
LINE
  5
598
100
AcDbEntity
  8
RACCORDO
100
AcDbLine
 62
7
  6
CONTINUOUS
 10
9.0153822996
 20
-22.2599107966
 11
9.0124611397
 21
-22.314127715
  0
LINE
  5
599
100
AcDbEntity
  8
RACCORDO
100
AcDbLine
 62
7
  6
CONTINUOUS
 10
15.344597074
 20
13.3355354982
 11
15.4400491163
 21
14.9954229891
  0
LINE
  5
59A
100
AcDbEntity
  8
RACCORDO
100
AcDbLine
 62
7
  6
CONTINUOUS
 10
15.7527266432
 20
13.3541612071
 11
15.8478995764
 21
15.0088190379
  0
LINE
  5
59B
100
AcDbEntity
  8
RACCORDO
100
AcDbLine
 62
7
  6
CONTINUOUS
 10
16.7657077948
 20
27.0252796803
 11
16.768616552
 21
27.0698829224
  0
LINE
  5
59C
100
AcDbEntity
  8
RACCORDO
100
AcDbLine
 62
7
  6
CONTINUOUS
 10
15.4400491163
 20
14.9954229891
 11
15.5588988382
 21
16.6696816517
  0
LINE
  5
59D
100
AcDbEntity
  8
RACCORDO
100
AcDbLine
 62
7
  6
CONTINUOUS
 10
15.8478995764
 20
15.0088190379
 11
15.9663575926
 21
16.6771752399
  0
LINE
  5
59E
100
AcDbEntity
  8
RACCORDO
100
AcDbLine
 62
7
  6
CONTINUOUS
 10
17.16436118
 20
26.9573463018
 11
17.1686813364
 21
27.0172994395
  0
LINE
  5
59F
100
AcDbEntity
  8
RACCORDO
100
AcDbLine
 62
7
  6
CONTINUOUS
 10
15.5588988382
 20
16.6696816517
 11
15.7011056147
 21
18.3576492768
  0
LINE
  5
5A0
100
AcDbEntity
  8
RACCORDO
100
AcDbLine
 62
7
  6
CONTINUOUS
 10
15.9663575926
 20
16.6771752399
 11
16.1081648122
 21
18.359882848
  0
LINE
  5
5A1
100
AcDbEntity
  8
RACCORDO
100
AcDbLine
 62
7
  6
CONTINUOUS
 10
8.8014065408
 20
-22.0065057168
 11
8.7992564658
 21
-22.0308761712
  0
LINE
  5
5A2
100
AcDbEntity
  8
0
100
AcDbLine
 62
7
  6
CONTINUOUS
 10
3.3492880028
 20
-23.9013507317
 11
3.3476520821
 21
-23.9182821284
  0
LINE
  5
5A3
100
AcDbEntity
  8
RACCORDO
100
AcDbLine
 62
7
  6
CONTINUOUS
 10
15.7011056147
 20
18.3576492768
 11
15.8666142643
 21
20.0586945374
  0
LINE
  5
5A4
100
AcDbEntity
  8
RACCORDO
100
AcDbLine
 62
7
  6
CONTINUOUS
 10
16.1081648122
 20
18.359882848
 11
16.2732571149
 21
20.0562888273
  0
LINE
  5
5A5
100
AcDbEntity
  8
RACCORDO
100
AcDbLine
 62
7
  6
CONTINUOUS
 10
7.9882291459
 20
-22.7355235539
 11
7.9923036504
 21
-22.6968643402
  0
LINE
  5
5A6
100
AcDbEntity
  8
0
100
AcDbLine
 62
7
  6
CONTINUOUS
 10
3.7932089602
 20
-24.1302059322
 11
3.7960067941
 21
-24.1049361893
  0
LINE
  5
5A7
100
AcDbEntity
  8
RACCORDO
100
AcDbLine
 62
7
  6
CONTINUOUS
 10
9.0124611397
 20
-22.314127715
 11
9.0063436829
 21
-22.36674799
  0
LINE
  5
5A8
100
AcDbEntity
  8
RACCORDO
100
AcDbLine
 62
7
  6
CONTINUOUS
 10
8.6610411947
 20
-22.343341581
 11
8.665435555
 21
-22.3075952236
  0
LINE
  5
5A9
100
AcDbEntity
  8
0
100
AcDbLine
 62
7
  6
CONTINUOUS
 10
3.4346289706
 20
-23.8424315457
 11
3.4324728803
 21
-23.8584077734
  0
LINE
  5
5AA
100
AcDbEntity
  8
0
100
AcDbLine
 62
7
  6
CONTINUOUS
 10
3.3476520821
 20
-23.9182821284
 11
3.345124152
 21
-23.9346944554
  0
LINE
  5
5AB
100
AcDbEntity
  8
RACCORDO
100
AcDbLine
 62
7
  6
CONTINUOUS
 10
-9.2523821485
 20
-15.7287365893
 11
-9.2440668346
 21
-15.6881541852
  0
LINE
  5
5AC
100
AcDbEntity
  8
RACCORDO
100
AcDbLine
 62
7
  6
CONTINUOUS
 10
-9.2440668346
 20
-15.6881541852
 11
-9.2337185095
 21
-15.6470724801
  0
LINE
  5
5AD
100
AcDbEntity
  8
RACCORDO
100
AcDbLine
 62
7
  6
CONTINUOUS
 10
-10.3344418926
 20
21.5346696032
 11
-10.3179831929
 21
21.5875151531
  0
LINE
  5
5AE
100
AcDbEntity
  8
RACCORDO
100
AcDbLine
 62
7
  6
CONTINUOUS
 10
-9.6668128721
 20
21.4858817669
 11
-9.6565451134
 21
21.5183037797
  0
LINE
  5
5AF
100
AcDbEntity
  8
RACCORDO
100
AcDbLine
 62
7
  6
CONTINUOUS
 10
-14.6174580623
 20
40.3794292943
 11
-14.6069334429
 21
40.4096258603
  0
LINE
  5
5B0
100
AcDbEntity
  8
RACCORDO
100
AcDbLine
 62
7
  6
CONTINUOUS
 10
-15.2567898131
 20
40.0220033265
 11
-15.2711153471
 21
39.9829161925
  0
LINE
  5
5B1
100
AcDbEntity
  8
RACCORDO
100
AcDbLine
 62
7
  6
CONTINUOUS
 10
-15.3589456561
 20
40.2361507775
 11
-15.3829449842
 21
40.1747198798
  0
LINE
  5
5B2
100
AcDbEntity
  8
RACCORDO
100
AcDbLine
 62
7
  6
CONTINUOUS
 10
-14.6069334429
 20
40.4096258603
 11
-14.5948548485
 21
40.4393659541
  0
LINE
  5
5B3
100
AcDbEntity
  8
RACCORDO
100
AcDbLine
 62
7
  6
CONTINUOUS
 10
-15.2400751801
 20
40.0595635392
 11
-15.2567898131
 21
40.0220033265
  0
LINE
  5
5B4
100
AcDbEntity
  8
RACCORDO
100
AcDbLine
 62
7
  6
CONTINUOUS
 10
16.9304088569
 20
-38.4686494426
 11
16.9604466558
 21
-38.4644250704
  0
LINE
  5
5B5
100
AcDbEntity
  8
RACCORDO
100
AcDbLine
 62
7
  6
CONTINUOUS
 10
16.7199307356
 20
-38.8796349521
 11
16.776301177
 21
-38.8744782411
  0
LINE
  5
5B6
100
AcDbEntity
  8
0
100
AcDbLine
 62
7
  6
CONTINUOUS
 10
3.2050507758
 20
-24.0763753447
 11
3.1875721956
 21
-24.0769204057
  0
LINE
  5
5B7
100
AcDbEntity
  8
0
100
AcDbLine
 62
7
  6
CONTINUOUS
 10
3.6160128753
 20
-24.3440990608
 11
3.6253924294
 21
-24.3439781299
  0
LINE
  5
5B8
100
AcDbEntity
  8
RACCORDO
100
AcDbLine
 62
7
  6
CONTINUOUS
 10
8.4211359737
 20
-22.892872644
 11
8.3625886082
 21
-22.8929579989
  0
LINE
  5
5B9
100
AcDbEntity
  8
RACCORDO
100
AcDbLine
 62
7
  6
CONTINUOUS
 10
8.5195937516
 20
-22.2124681334
 11
8.4843189593
 21
-22.2116509273
  0
LINE
  5
5BA
100
AcDbEntity
  8
0
100
AcDbLine
 62
7
  6
CONTINUOUS
 10
3.1875721956
 20
-24.0769204057
 11
3.1697519463
 21
-24.0764009563
  0
LINE
  5
5BB
100
AcDbEntity
  8
RACCORDO
100
AcDbLine
 62
7
  6
CONTINUOUS
 10
-10.175537157
 20
-14.4639042401
 11
-10.1338386845
 21
-14.4666290822
  0
LINE
  5
5BC
100
AcDbEntity
  8
RACCORDO
100
AcDbLine
 62
7
  6
CONTINUOUS
 10
-9.3936430129
 20
22.0177069344
 11
-9.3292444032
 21
21.9979729335
  0
LINE
  5
5BD
100
AcDbEntity
  8
RACCORDO
100
AcDbLine
 62
7
  6
CONTINUOUS
 10
-10.3327807169
 20
21.2946999165
 11
-10.295469421
 21
21.2831342656
  0
LINE
  5
5BE
100
AcDbEntity
  8
RACCORDO
100
AcDbLine
 62
7
  6
CONTINUOUS
 10
-9.2238725745
 20
21.7429681165
 11
-9.1875494143
 21
21.7308528065
  0
LINE
  5
5BF
100
AcDbEntity
  8
RACCORDO
100
AcDbLine
 62
7
  6
CONTINUOUS
 10
-9.8587706831
 20
21.6917886132
 11
-9.8227296288
 21
21.6790038718
  0
LINE
  5
5C0
100
AcDbEntity
  8
RACCORDO
100
AcDbLine
 62
7
  6
CONTINUOUS
 10
-9.3292444032
 20
21.9979729335
 11
-9.2642847569
 21
21.9739969012
  0
LINE
  5
5C1
100
AcDbEntity
  8
RACCORDO
100
AcDbLine
 62
7
  6
CONTINUOUS
 10
-15.2994987259
 20
39.8570411214
 11
-15.3235390269
 21
39.8671218651
  0
LINE
  5
5C2
100
AcDbEntity
  8
RACCORDO
100
AcDbLine
 62
7
  6
CONTINUOUS
 10
16.3271423874
 20
27.8515375869
 11
16.290173412
 21
27.867867521
  0
LINE
  5
5C3
100
AcDbEntity
  8
RACCORDO
100
AcDbLine
 62
7
  6
CONTINUOUS
 10
16.5007452358
 20
28.1624186997
 11
16.4485588193
 21
28.1860827101
  0
LINE
  5
5C4
100
AcDbEntity
  8
RACCORDO
100
AcDbLine
 62
7
  6
CONTINUOUS
 10
-15.3235390269
 20
39.8671218651
 11
-15.3456129391
 21
39.8779420365
  0
LINE
  5
5C5
100
AcDbEntity
  8
RACCORDO
100
AcDbLine
 62
7
  6
CONTINUOUS
 10
16.3632715545
 20
27.8326646051
 11
16.3271423874
 21
27.8515375869
  0
LINE
  5
5C6
100
AcDbEntity
  8
RACCORDO
100
AcDbLine
 62
7
  6
CONTINUOUS
 10
18.7922904092
 20
29.7170823711
 11
18.82427361
 21
29.7003774896
  0
LINE
  5
5C7
100
AcDbEntity
  8
RACCORDO
100
AcDbLine
 62
7
  6
CONTINUOUS
 10
16.5523152936
 20
28.1351046365
 11
16.5007452358
 21
28.1624186997
  0
LINE
  5
5C8
100
AcDbEntity
  8
RACCORDO
100
AcDbLine
 62
7
  6
CONTINUOUS
 10
18.82427361
 20
29.7003774896
 11
18.8548123294
 21
29.6818097273
  0
LINE
  5
5C9
100
AcDbEntity
  8
RACCORDO
100
AcDbLine
 62
7
  6
CONTINUOUS
 10
19.0738600964
 20
-35.321095458
 11
19.0858128434
 21
-35.1233252582
  0
LINE
  5
5CA
100
AcDbEntity
  8
RACCORDO
100
AcDbLine
 62
7
  6
CONTINUOUS
 10
17.1664707758
 20
-38.5047834743
 11
17.1693707312
 21
-38.4589080648
  0
LINE
  5
5CB
100
AcDbEntity
  8
RACCORDO
100
AcDbLine
 62
7
  6
CONTINUOUS
 10
19.0847140278
 20
-35.1387705752
 11
19.0734703561
 21
-35.3087393582
  0
LINE
  5
5CC
100
AcDbEntity
  8
RACCORDO
100
AcDbLine
 62
7
  6
CONTINUOUS
 10
16.7668468545
 20
-38.5727701576
 11
16.7690061246
 21
-38.5436490435
  0
LINE
  5
5CD
100
AcDbEntity
  8
RACCORDO
100
AcDbLine
 62
7
  6
CONTINUOUS
 10
19.054662073
 20
-35.511556205
 11
19.0738600964
 21
-35.321095458
  0
LINE
  5
5CE
100
AcDbEntity
  8
RACCORDO
100
AcDbLine
 62
7
  6
CONTINUOUS
 10
19.0734703561
 20
-35.3087393582
 11
19.0562700242
 21
-35.4737395857
  0
LINE
  5
5CF
100
AcDbEntity
  8
RACCORDO
100
AcDbLine
 62
7
  6
CONTINUOUS
 10
15.8666142643
 20
20.0586945374
 11
16.0553571821
 21
21.7722185478
  0
LINE
  5
5D0
100
AcDbEntity
  8
RACCORDO
100
AcDbLine
 62
7
  6
CONTINUOUS
 10
16.2732571149
 20
20.0562888273
 11
16.4614421391
 21
21.7644340728
  0
LINE
  5
5D1
100
AcDbEntity
  8
RACCORDO
100
AcDbLine
 62
7
  6
CONTINUOUS
 10
16.0553571821
 20
21.7722185478
 11
16.2672655426
 21
23.4975815372
  0
LINE
  5
5D2
100
AcDbEntity
  8
RACCORDO
100
AcDbLine
 62
7
  6
CONTINUOUS
 10
16.7602791244
 20
26.9811114626
 11
16.7657077948
 21
27.0252796803
  0
LINE
  5
5D3
100
AcDbEntity
  8
RACCORDO
100
AcDbLine
 62
7
  6
CONTINUOUS
 10
16.4614421391
 20
21.7644340728
 11
16.6726557645
 21
23.4836655496
  0
LINE
  5
5D4
100
AcDbEntity
  8
RACCORDO
100
AcDbLine
 62
7
  6
CONTINUOUS
 10
16.2672655426
 20
23.4975815372
 11
16.5022672125
 21
25.2341017915
  0
LINE
  5
5D5
100
AcDbEntity
  8
RACCORDO
100
AcDbLine
 62
7
  6
CONTINUOUS
 10
16.6726557645
 20
23.4836655496
 11
16.9069621114
 21
25.2146362926
  0
LINE
  5
5D6
100
AcDbEntity
  8
RACCORDO
100
AcDbLine
 62
7
  6
CONTINUOUS
 10
16.5022672125
 20
25.2341017915
 11
16.7602791244
 21
26.9811114626
  0
LINE
  5
5D7
100
AcDbEntity
  8
RACCORDO
100
AcDbLine
 62
7
  6
CONTINUOUS
 10
16.9069621114
 20
25.2146362926
 11
17.16436118
 21
26.9573463018
  0
LINE
  5
5D8
100
AcDbEntity
  8
RACCORDO
100
AcDbLine
 62
7
  6
CONTINUOUS
 10
19.0859166694
 20
29.2185945307
 11
19.0900729678
 21
29.2461370377
  0
LINE
  5
5D9
100
AcDbEntity
  8
RACCORDO
100
AcDbLine
 62
7
  6
CONTINUOUS
 10
7.9923036504
 20
-22.6968643402
 11
7.9985221865
 21
-22.6570918556
  0
LINE
  5
5DA
100
AcDbEntity
  8
RACCORDO
100
AcDbLine
 62
7
  6
CONTINUOUS
 10
8.7992564658
 20
-22.0308761712
 11
8.7958746029
 21
-22.0522871089
  0
LINE
  5
5DB
100
AcDbEntity
  8
0
100
AcDbLine
 62
7
  6
CONTINUOUS
 10
3.7893551259
 20
-24.1539648219
 11
3.7932089602
 21
-24.1302059322
  0
LINE
  5
5DC
100
AcDbEntity
  8
RACCORDO
100
AcDbLine
 62
7
  6
CONTINUOUS
 10
16.290173412
 20
27.867867521
 11
16.2953913258
 21
27.8973588338
  0
LINE
  5
5DD
100
AcDbEntity
  8
RACCORDO
100
AcDbLine
 62
7
  6
CONTINUOUS
 10
9.0063436829
 20
-22.36674799
 11
8.9970174346
 21
-22.4179576211
  0
LINE
  5
5DE
100
AcDbEntity
  8
0
100
AcDbLine
 62
7
  6
CONTINUOUS
 10
3.4324728803
 20
-23.8584077734
 11
3.429505344
 21
-23.8738564793
  0
LINE
  5
5DF
100
AcDbEntity
  8
0
100
AcDbLine
 62
7
  6
CONTINUOUS
 10
3.345124152
 20
-23.9346944554
 11
3.3417027326
 21
-23.9505283892
  0
LINE
  5
5E0
100
AcDbEntity
  8
0
100
AcDbLine
 62
7
  6
CONTINUOUS
 10
3.7844373305
 20
-24.1762126948
 11
3.7893551259
 21
-24.1539648219
  0
LINE
  5
5E1
100
AcDbEntity
  8
RACCORDO
100
AcDbLine
 62
7
  6
CONTINUOUS
 10
-9.2337185095
 20
-15.6470724801
 11
-9.2214162442
 21
-15.605805311
  0
LINE
  5
5E2
100
AcDbEntity
  8
RACCORDO
100
AcDbLine
 62
7
  6
CONTINUOUS
 10
-10.3179831929
 20
21.5875151531
 11
-10.298415945
 21
21.6381625007
  0
LINE
  5
5E3
100
AcDbEntity
  8
RACCORDO
100
AcDbLine
 62
7
  6
CONTINUOUS
 10
-9.6565451134
 20
21.5183037797
 11
-9.6443009523
 21
21.5495092751
  0
LINE
  5
5E4
100
AcDbEntity
  8
RACCORDO
100
AcDbLine
 62
7
  6
CONTINUOUS
 10
-14.5948548485
 20
40.4393659541
 11
-14.5813605495
 21
40.4683090631
  0
LINE
  5
5E5
100
AcDbEntity
  8
RACCORDO
100
AcDbLine
 62
7
  6
CONTINUOUS
 10
-15.3309600588
 20
40.2947378259
 11
-15.3589456561
 21
40.2361507775
  0
LINE
  5
5E6
100
AcDbEntity
  8
RACCORDO
100
AcDbLine
 62
7
  6
CONTINUOUS
 10
-14.5813605495
 20
40.4683090631
 11
-14.5666050237
 21
40.4961238019
  0
LINE
  5
5E7
100
AcDbEntity
  8
RACCORDO
100
AcDbLine
 62
7
  6
CONTINUOUS
 10
-15.2212266857
 20
40.0950507073
 11
-15.2400751801
 21
40.0595635392
  0
LINE
  5
5E8
100
AcDbEntity
  8
RACCORDO
100
AcDbLine
 62
7
  6
CONTINUOUS
 10
16.9604466558
 20
-38.4644250704
 11
16.990151232
 21
-38.4580592452
  0
LINE
  5
5E9
100
AcDbEntity
  8
RACCORDO
100
AcDbLine
 62
7
  6
CONTINUOUS
 10
16.776301177
 20
-38.8744782411
 11
16.8300178602
 21
-38.8647175616
  0
LINE
  5
5EA
100
AcDbEntity
  8
RACCORDO
100
AcDbLine
 62
7
  6
CONTINUOUS
 10
16.56036888
 20
-38.7720574658
 11
16.5885492433
 21
-38.7676180755
  0
LINE
  5
5EB
100
AcDbEntity
  8
RACCORDO
100
AcDbLine
 62
7
  6
CONTINUOUS
 10
8.4781732454
 20
-22.8886942279
 11
8.4211359737
 21
-22.892872644
  0
LINE
  5
5EC
100
AcDbEntity
  8
0
100
AcDbLine
 62
7
  6
CONTINUOUS
 10
3.5341490105
 20
-24.4145764665
 11
3.5452073386
 21
-24.4139964431
  0
LINE
  5
5ED
100
AcDbEntity
  8
RACCORDO
100
AcDbLine
 62
7
  6
CONTINUOUS
 10
8.5538191297
 20
-22.2107634159
 11
8.5195937516
 21
-22.2124681334
  0
LINE
  5
5EE
100
AcDbEntity
  8
RACCORDO
100
AcDbLine
 62
7
  6
CONTINUOUS
 10
-10.0917705219
 20
-14.4672070267
 11
-10.0496318816
 21
-14.465633963
  0
LINE
  5
5EF
100
AcDbEntity
  8
RACCORDO
100
AcDbLine
 62
7
  6
CONTINUOUS
 10
-10.1338386845
 20
-14.4666290822
 11
-10.0917705219
 21
-14.4672070267
  0
LINE
  5
5F0
100
AcDbEntity
  8
RACCORDO
100
AcDbLine
 62
7
  6
CONTINUOUS
 10
-10.256638685
 20
21.2732724377
 11
-10.2165647053
 21
21.2651845783
  0
LINE
  5
5F1
100
AcDbEntity
  8
RACCORDO
100
AcDbLine
 62
7
  6
CONTINUOUS
 10
-9.2933491365
 20
21.7596602006
 11
-9.2592726452
 21
21.752584061
  0
LINE
  5
5F2
100
AcDbEntity
  8
RACCORDO
100
AcDbLine
 62
7
  6
CONTINUOUS
 10
8.6749036469
 20
14.2495926741
 11
8.6667495515
 21
14.2515221441
  0
LINE
  5
5F3
100
AcDbEntity
  8
RACCORDO
100
AcDbLine
 62
7
  6
CONTINUOUS
 10
-9.457480006
 20
22.0331993331
 11
-9.3936430129
 21
22.0177069344
  0
LINE
  5
5F4
100
AcDbEntity
  8
RACCORDO
100
AcDbLine
 62
7
  6
CONTINUOUS
 10
-10.295469421
 20
21.2831342656
 11
-10.256638685
 21
21.2732724377
  0
LINE
  5
5F5
100
AcDbEntity
  8
RACCORDO
100
AcDbLine
 62
7
  6
CONTINUOUS
 10
-9.8227296288
 20
21.6790038718
 11
-9.7867617797
 21
21.6692719641
  0
LINE
  5
5F6
100
AcDbEntity
  8
RACCORDO
100
AcDbLine
 62
7
  6
CONTINUOUS
 10
-9.2592726452
 20
21.752584061
 11
-9.2238725745
 21
21.7429681165
  0
LINE
  5
5F7
100
AcDbEntity
  8
RACCORDO
100
AcDbLine
 62
7
  6
CONTINUOUS
 10
16.7859472348
 20
26.9712287078
 11
16.8130716718
 21
26.9622900881
  0
LINE
  5
5F8
100
AcDbEntity
  8
RACCORDO
100
AcDbLine
 62
7
  6
CONTINUOUS
 10
-14.4802149555
 20
40.607775531
 11
-14.5339369204
 21
40.6266455892
  0
LINE
  5
5F9
100
AcDbEntity
  8
RACCORDO
100
AcDbLine
 62
7
  6
CONTINUOUS
 10
-10.921146174
 20
41.6507909207
 11
-10.8896494466
 21
41.6394353484
  0
LINE
  5
5FA
100
AcDbEntity
  8
RACCORDO
100
AcDbLine
 62
7
  6
CONTINUOUS
 10
-14.6386003628
 20
40.2895603419
 11
-14.676008638
 21
40.3030948324
  0
LINE
  5
5FB
100
AcDbEntity
  8
RACCORDO
100
AcDbLine
 62
7
  6
CONTINUOUS
 10
16.7602792202
 20
26.9811115095
 11
16.7859472348
 21
26.9712287078
  0
LINE
  5
5FC
100
AcDbEntity
  8
RACCORDO
100
AcDbLine
 62
7
  6
CONTINUOUS
 10
16.290173412
 20
27.867867521
 11
-14.6386003628
 21
40.2895603419
  0
LINE
  5
5FD
100
AcDbEntity
  8
RACCORDO
100
AcDbLine
 62
7
  6
CONTINUOUS
 10
16.4485588193
 20
28.1860827101
 11
-14.4802149555
 21
40.607775531
  0
LINE
  5
5FE
100
AcDbEntity
  8
RACCORDO
100
AcDbLine
 62
7
  6
CONTINUOUS
 10
-13.2364191804
 20
41.8500978786
 11
17.8936037414
 21
29.3475788633
  0
LINE
  5
5FF
100
AcDbEntity
  8
RACCORDO
100
AcDbLine
 62
7
  6
CONTINUOUS
 10
-10.8896494466
 20
41.6394353484
 11
18.758862727
 21
29.731924372
  0
LINE
  5
600
100
AcDbEntity
  8
RACCORDO
100
AcDbLine
 62
7
  6
CONTINUOUS
 10
18.758862727
 20
29.731924372
 11
18.7922904092
 21
29.7170823711
  0
LINE
  5
601
100
AcDbEntity
  8
RACCORDO
100
AcDbLine
 62
7
  6
CONTINUOUS
 10
19.0285251649
 20
-35.6945262085
 11
19.054662073
 21
-35.511556205
  0
LINE
  5
602
100
AcDbEntity
  8
RACCORDO
100
AcDbLine
 62
7
  6
CONTINUOUS
 10
19.0562700242
 20
-35.4737395857
 11
19.0332679315
 21
-35.6333927191
  0
LINE
  5
603
100
AcDbEntity
  8
RACCORDO
100
AcDbLine
 62
7
  6
CONTINUOUS
 10
17.1600680903
 20
-38.548491646
 11
17.1664707758
 21
-38.5047834743
  0
LINE
  5
604
100
AcDbEntity
  8
RACCORDO
100
AcDbLine
 62
7
  6
CONTINUOUS
 10
16.7621658451
 20
-38.6004730029
 11
16.7668468545
 21
-38.5727701576
  0
LINE
  5
605
100
AcDbEntity
  8
RACCORDO
100
AcDbLine
 62
7
  6
CONTINUOUS
 10
7.9985221865
 20
-22.6570918556
 11
8.0068372503
 21
-22.6165099252
  0
LINE
  5
606
100
AcDbEntity
  8
RACCORDO
100
AcDbLine
 62
7
  6
CONTINUOUS
 10
8.665435555
 20
-22.3075952236
 11
8.6729446035
 21
-22.2731822166
  0
LINE
  5
607
100
AcDbEntity
  8
RACCORDO
100
AcDbLine
 62
7
  6
CONTINUOUS
 10
8.7958746029
 20
-22.0522871089
 11
8.7916494379
 21
-22.0702926439
  0
LINE
  5
608
100
AcDbEntity
  8
RACCORDO
100
AcDbLine
 62
7
  6
CONTINUOUS
 10
16.2953913258
 20
27.8973588338
 11
16.3024660013
 21
27.9274305325
  0
LINE
  5
609
100
AcDbEntity
  8
RACCORDO
100
AcDbLine
 62
7
  6
CONTINUOUS
 10
8.0068372503
 20
-22.6165099252
 11
8.0171853225
 21
-22.5754285574
  0
LINE
  5
60A
100
AcDbEntity
  8
RACCORDO
100
AcDbLine
 62
7
  6
CONTINUOUS
 10
8.9970174346
 20
-22.4179576211
 11
8.9844947243
 21
-22.4675707525
  0
LINE
  5
60B
100
AcDbEntity
  8
0
100
AcDbLine
 62
7
  6
CONTINUOUS
 10
3.429505344
 20
-23.8738564793
 11
3.4256993645
 21
-23.8887738316
  0
LINE
  5
60C
100
AcDbEntity
  8
0
100
AcDbLine
 62
7
  6
CONTINUOUS
 10
3.7787384158
 20
-24.1971034531
 11
3.7844373305
 21
-24.1762126948
  0
LINE
  5
60D
100
AcDbEntity
  8
0
100
AcDbLine
 62
7
  6
CONTINUOUS
 10
3.3417027326
 20
-23.9505283892
 11
3.337424271
 21
-23.9658121206
  0
LINE
  5
60E
100
AcDbEntity
  8
RACCORDO
100
AcDbLine
 62
7
  6
CONTINUOUS
 10
16.3024660013
 20
27.9274305325
 11
16.3113164388
 21
27.9577383184
  0
LINE
  5
60F
100
AcDbEntity
  8
RACCORDO
100
AcDbLine
 62
7
  6
CONTINUOUS
 10
-9.2214162442
 20
-15.605805311
 11
-9.2072540338
 21
-15.5646679213
  0
LINE
  5
610
100
AcDbEntity
  8
RACCORDO
100
AcDbLine
 62
7
  6
CONTINUOUS
 10
-9.2072540338
 20
-15.5646679213
 11
-9.1913400733
 21
-15.5239745435
  0
LINE
  5
611
100
AcDbEntity
  8
RACCORDO
100
AcDbLine
 62
7
  6
CONTINUOUS
 10
-10.298415945
 20
21.6381625007
 11
-10.2756407822
 21
21.6866345151
  0
LINE
  5
612
100
AcDbEntity
  8
RACCORDO
100
AcDbLine
 62
7
  6
CONTINUOUS
 10
-9.6443009523
 20
21.5495092751
 11
-9.6300826848
 21
21.5794309218
  0
LINE
  5
613
100
AcDbEntity
  8
RACCORDO
100
AcDbLine
 62
7
  6
CONTINUOUS
 10
-15.2991431413
 20
40.3502502875
 11
-15.3309600588
 21
40.2947378259
  0
LINE
  5
614
100
AcDbEntity
  8
RACCORDO
100
AcDbLine
 62
7
  6
CONTINUOUS
 10
-14.5666050237
 20
40.4961238019
 11
-14.550757198
 21
40.5224916881
  0
LINE
  5
615
100
AcDbEntity
  8
RACCORDO
100
AcDbLine
 62
7
  6
CONTINUOUS
 10
-15.2002204241
 20
40.1284106687
 11
-15.2212266857
 21
40.0950507073
  0
LINE
  5
616
100
AcDbEntity
  8
RACCORDO
100
AcDbLine
 62
7
  6
CONTINUOUS
 10
16.8300178602
 20
-38.8647175616
 11
16.8808433024
 21
-38.8506081432
  0
LINE
  5
617
100
AcDbEntity
  8
RACCORDO
100
AcDbLine
 62
7
  6
CONTINUOUS
 10
16.5885492433
 20
-38.7676180755
 11
16.6150546356
 21
-38.7608205164
  0
LINE
  5
618
100
AcDbEntity
  8
RACCORDO
100
AcDbLine
 62
7
  6
CONTINUOUS
 10
8.5331103019
 20
-22.880448764
 11
8.4781732454
 21
-22.8886942279
  0
LINE
  5
619
100
AcDbEntity
  8
0
100
AcDbLine
 62
7
  6
CONTINUOUS
 10
3.6253924294
 20
-24.3439781299
 11
3.6345781289
 21
-24.3426549482
  0
LINE
  5
61A
100
AcDbEntity
  8
RACCORDO
100
AcDbLine
 62
7
  6
CONTINUOUS
 10
8.586913566
 20
-22.2065172546
 11
8.5538191297
 21
-22.2107634159
  0
LINE
  5
61B
100
AcDbEntity
  8
0
100
AcDbLine
 62
7
  6
CONTINUOUS
 10
3.2217398789
 20
-24.0744241243
 11
3.2050507758
 21
-24.0763753447
  0
LINE
  5
61C
100
AcDbEntity
  8
RACCORDO
100
AcDbLine
 62
7
  6
CONTINUOUS
 10
-10.0496318816
 20
-14.465633963
 11
-10.0077224771
 21
-14.4619210795
  0
LINE
  5
61D
100
AcDbEntity
  8
RACCORDO
100
AcDbLine
 62
7
  6
CONTINUOUS
 10
-9.3254887164
 20
21.7641954273
 11
-9.2933491365
 21
21.7596602006
  0
LINE
  5
61E
100
AcDbEntity
  8
RACCORDO
100
AcDbLine
 62
7
  6
CONTINUOUS
 10
-10.2165647053
 20
21.2651845783
 11
-10.1755325207
 21
21.2589282147
  0
LINE
  5
61F
100
AcDbEntity
  8
RACCORDO
100
AcDbLine
 62
7
  6
CONTINUOUS
 10
-9.5209796135
 20
22.0444756288
 11
-9.457480006
 21
22.0331993331
  0
LINE
  5
620
100
AcDbEntity
  8
RACCORDO
100
AcDbLine
 62
7
  6
CONTINUOUS
 10
-9.7867617797
 20
21.6692719641
 11
-9.7511262837
 21
21.6626630084
  0
LINE
  5
621
100
AcDbEntity
  8
RACCORDO
100
AcDbLine
 62
7
  6
CONTINUOUS
 10
16.8413743364
 20
26.9543873269
 11
16.8705649498
 21
26.9476014767
  0
LINE
  5
622
100
AcDbEntity
  8
RACCORDO
100
AcDbLine
 62
7
  6
CONTINUOUS
 10
-14.5339369204
 20
40.6266455892
 11
-14.5877709887
 21
40.6416628186
  0
LINE
  5
623
100
AcDbEntity
  8
RACCORDO
100
AcDbLine
 62
7
  6
CONTINUOUS
 10
16.8130716718
 20
26.9622900881
 11
16.8413743364
 21
26.9543873269
  0
LINE
  5
624
100
AcDbEntity
  8
RACCORDO
100
AcDbLine
 62
7
  6
CONTINUOUS
 10
-14.676008638
 20
40.3030948324
 11
-14.7133634308
 21
40.3137303162
  0
LINE
  5
625
100
AcDbEntity
  8
RACCORDO
100
AcDbLine
 62
7
  6
CONTINUOUS
 10
-11.0367929797
 20
41.6827997103
 11
-10.8896500963
 21
41.6394355384
  0
LINE
  5
626
100
AcDbEntity
  8
RACCORDO
100
AcDbLine
 62
7
  6
CONTINUOUS
 10
-10.9261475485
 20
41.6525156507
 11
-11.0430473956
 21
41.6875659476
  0
LINE
  5
627
100
AcDbEntity
  8
RACCORDO
100
AcDbLine
 62
7
  6
CONTINUOUS
 10
-10.9261364639
 20
41.6523852851
 11
-10.921146174
 21
41.6507909207
  0
LINE
  5
628
100
AcDbEntity
  8
RACCORDO
100
AcDbLine
 62
7
  6
CONTINUOUS
 10
19.0332679315
 20
-35.6333927191
 11
19.0047913002
 21
-35.7867975711
  0
LINE
  5
629
100
AcDbEntity
  8
RACCORDO
100
AcDbLine
 62
7
  6
CONTINUOUS
 10
18.9957810701
 20
-35.8698442776
 11
19.0285251649
 21
-35.6945262085
  0
LINE
  5
62A
100
AcDbEntity
  8
RACCORDO
100
AcDbLine
 62
7
  6
CONTINUOUS
 10
19.0047913002
 20
-35.7867975711
 11
18.9711596065
 21
-35.9336012748
  0
LINE
  5
62B
100
AcDbEntity
  8
RACCORDO
100
AcDbLine
 62
7
  6
CONTINUOUS
 10
18.9567798861
 20
-36.0373762092
 11
18.9957810701
 21
-35.8698442776
  0
LINE
  5
62C
100
AcDbEntity
  8
RACCORDO
100
AcDbLine
 62
7
  6
CONTINUOUS
 10
17.1502015923
 20
-38.5898392352
 11
17.1600680903
 21
-38.548491646
  0
LINE
  5
62D
100
AcDbEntity
  8
RACCORDO
100
AcDbLine
 62
7
  6
CONTINUOUS
 10
8.0171853225
 20
-22.5754285574
 11
8.0294873533
 21
-22.534161576
  0
LINE
  5
62E
100
AcDbEntity
  8
RACCORDO
100
AcDbLine
 62
7
  6
CONTINUOUS
 10
19.0760952839
 20
29.1867872269
 11
19.0859166694
 21
29.2185945307
  0
LINE
  5
62F
100
AcDbEntity
  8
RACCORDO
100
AcDbLine
 62
7
  6
CONTINUOUS
 10
8.7916494379
 20
-22.0702926439
 11
8.7870488254
 21
-22.0846932819
  0
LINE
  5
630
100
AcDbEntity
  8
0
100
AcDbLine
 62
7
  6
CONTINUOUS
 10
3.4256993645
 20
-23.8887738316
 11
3.42108174
 21
-23.9031638502
  0
LINE
  5
631
100
AcDbEntity
  8
RACCORDO
100
AcDbLine
 62
7
  6
CONTINUOUS
 10
8.6729446035
 20
-22.2731822166
 11
8.6835142377
 21
-22.2403505053
  0
LINE
  5
632
100
AcDbEntity
  8
RACCORDO
100
AcDbLine
 62
7
  6
CONTINUOUS
 10
8.9844947243
 20
-22.4675707525
 11
8.9688124894
 21
-22.5150298646
  0
LINE
  5
633
100
AcDbEntity
  8
0
100
AcDbLine
 62
7
  6
CONTINUOUS
 10
3.7722695512
 20
-24.2166332702
 11
3.7787384158
 21
-24.1971034531
  0
LINE
  5
634
100
AcDbEntity
  8
RACCORDO
100
AcDbLine
 62
7
  6
CONTINUOUS
 10
16.3113164388
 20
27.9577383184
 11
16.3218413072
 21
27.9879351899
  0
LINE
  5
635
100
AcDbEntity
  8
0
100
AcDbLine
 62
7
  6
CONTINUOUS
 10
3.337424271
 20
-23.9658121206
 11
3.3322520986
 21
-23.9805176685
  0
LINE
  5
636
100
AcDbEntity
  8
RACCORDO
100
AcDbLine
 62
7
  6
CONTINUOUS
 10
16.3218413072
 20
27.9879351899
 11
16.3339201047
 21
28.0176754151
  0
LINE
  5
637
100
AcDbEntity
  8
RACCORDO
100
AcDbLine
 62
7
  6
CONTINUOUS
 10
-9.1913400733
 20
-15.5239745435
 11
-9.1737959441
 21
-15.4840360348
  0
LINE
  5
638
100
AcDbEntity
  8
RACCORDO
100
AcDbLine
 62
7
  6
CONTINUOUS
 10
-10.2756407822
 20
21.6866345151
 11
-10.2497576421
 21
21.7329078974
  0
LINE
  5
639
100
AcDbEntity
  8
RACCORDO
100
AcDbLine
 62
7
  6
CONTINUOUS
 10
-9.6300826848
 20
21.5794309218
 11
-9.6139351113
 21
21.6079274118
  0
LINE
  5
63A
100
AcDbEntity
  8
RACCORDO
100
AcDbLine
 62
7
  6
CONTINUOUS
 10
-15.2636826813
 20
40.4024617605
 11
-15.2991431413
 21
40.3502502875
  0
LINE
  5
63B
100
AcDbEntity
  8
RACCORDO
100
AcDbLine
 62
7
  6
CONTINUOUS
 10
-14.550757198
 20
40.5224916881
 11
-14.5339985192
 21
40.5471107859
  0
LINE
  5
63C
100
AcDbEntity
  8
RACCORDO
100
AcDbLine
 62
7
  6
CONTINUOUS
 10
-15.1770822421
 20
40.1596966279
 11
-15.2002204241
 21
40.1284106687
  0
LINE
  5
63D
100
AcDbEntity
  8
RACCORDO
100
AcDbLine
 62
7
  6
CONTINUOUS
 10
8.5859854546
 20
-22.8680550091
 11
8.5331103019
 21
-22.880448764
  0
LINE
  5
63E
100
AcDbEntity
  8
0
100
AcDbLine
 62
7
  6
CONTINUOUS
 10
3.237602193
 20
-24.0709713819
 11
3.2217398789
 21
-24.0744241243
  0
LINE
  5
63F
100
AcDbEntity
  8
RACCORDO
100
AcDbLine
 62
7
  6
CONTINUOUS
 10
8.61877967
 20
-22.1997376233
 11
8.586913566
 21
-22.2065172546
  0
LINE
  5
640
100
AcDbEntity
  8
0
100
AcDbLine
 62
7
  6
CONTINUOUS
 10
3.5452073386
 20
-24.4139964431
 11
3.5554823766
 21
-24.4119446614
  0
LINE
  5
641
100
AcDbEntity
  8
RACCORDO
100
AcDbLine
 62
7
  6
CONTINUOUS
 10
-10.0077224771
 20
-14.4619210795
 11
-9.9663403914
 21
-14.4560947845
  0
LINE
  5
642
100
AcDbEntity
  8
RACCORDO
100
AcDbLine
 62
7
  6
CONTINUOUS
 10
8.6861042105
 20
14.2494655858
 11
8.6749036469
 21
14.2495926741
  0
LINE
  5
643
100
AcDbEntity
  8
RACCORDO
100
AcDbLine
 62
7
  6
CONTINUOUS
 10
-10.133833986
 20
21.2545478474
 11
-10.0917656952
 21
21.2520746331
  0
LINE
  5
644
100
AcDbEntity
  8
RACCORDO
100
AcDbLine
 62
7
  6
CONTINUOUS
 10
-9.3553433708
 20
21.7663371879
 11
-9.3254887164
 21
21.7641954273
  0
LINE
  5
645
100
AcDbEntity
  8
RACCORDO
100
AcDbLine
 62
7
  6
CONTINUOUS
 10
-9.7511262837
 20
21.6626630084
 11
-9.7160798941
 21
21.6592246219
  0
LINE
  5
646
100
AcDbEntity
  8
RACCORDO
100
AcDbLine
 62
7
  6
CONTINUOUS
 10
-10.1755325207
 20
21.2589282147
 11
-10.133833986
 21
21.2545478474
  0
LINE
  5
647
100
AcDbEntity
  8
RACCORDO
100
AcDbLine
 62
7
  6
CONTINUOUS
 10
-9.5839152859
 20
22.0515120397
 11
-9.5209796135
 21
22.0444756288
  0
LINE
  5
648
100
AcDbEntity
  8
RACCORDO
100
AcDbLine
 62
7
  6
CONTINUOUS
 10
16.9003441261
 20
26.9420021349
 11
16.9304064428
 21
26.9376467295
  0
LINE
  5
649
100
AcDbEntity
  8
RACCORDO
100
AcDbLine
 62
7
  6
CONTINUOUS
 10
16.8705649498
 20
26.9476014767
 11
16.9003441261
 21
26.9420021349
  0
LINE
  5
64A
100
AcDbEntity
  8
RACCORDO
100
AcDbLine
 62
7
  6
CONTINUOUS
 10
-14.5877709887
 20
40.6416628186
 11
-14.6414894879
 21
40.6527658036
  0
LINE
  5
64B
100
AcDbEntity
  8
RACCORDO
100
AcDbLine
 62
7
  6
CONTINUOUS
 10
-14.7133634308
 20
40.3137303162
 11
-14.7506645115
 21
40.3214669036
  0
LINE
  5
64C
100
AcDbEntity
  8
RACCORDO
100
AcDbLine
 62
7
  6
CONTINUOUS
 10
-11.3347207845
 20
41.7524003114
 11
-11.1851396215
 21
41.7205710953
  0
LINE
  5
64D
100
AcDbEntity
  8
RACCORDO
100
AcDbLine
 62
7
  6
CONTINUOUS
 10
-11.234191561
 20
41.7377518228
 11
-11.4205592703
 21
41.777889367
  0
LINE
  5
64E
100
AcDbEntity
  8
RACCORDO
100
AcDbLine
 62
7
  6
CONTINUOUS
 10
-11.1851396215
 20
41.7205710953
 11
-11.0367929797
 21
41.6827997103
  0
LINE
  5
64F
100
AcDbEntity
  8
RACCORDO
100
AcDbLine
 62
7
  6
CONTINUOUS
 10
-11.0430473956
 20
41.6875659476
 11
-11.234191561
 21
41.7377518228
  0
LINE
  5
650
100
AcDbEntity
  8
RACCORDO
100
AcDbLine
 62
7
  6
CONTINUOUS
 10
18.9711596065
 20
-35.9336012748
 11
18.9325709836
 21
-36.073990506
  0
LINE
  5
651
100
AcDbEntity
  8
RACCORDO
100
AcDbLine
 62
7
  6
CONTINUOUS
 10
16.7550407453
 20
-38.6263569284
 11
16.7621658451
 21
-38.6004730029
  0
LINE
  5
652
100
AcDbEntity
  8
RACCORDO
100
AcDbLine
 62
7
  6
CONTINUOUS
 10
18.9119081579
 20
-36.1970009778
 11
18.9567798861
 21
-36.0373762092
  0
LINE
  5
653
100
AcDbEntity
  8
RACCORDO
100
AcDbLine
 62
7
  6
CONTINUOUS
 10
8.0294873533
 20
-22.534161576
 11
8.0436493666
 21
-22.4930242225
  0
LINE
  5
654
100
AcDbEntity
  8
RACCORDO
100
AcDbLine
 62
7
  6
CONTINUOUS
 10
8.0436493666
 20
-22.4930242225
 11
8.0595631776
 21
-22.4523307485
  0
LINE
  5
655
100
AcDbEntity
  8
0
100
AcDbLine
 62
7
  6
CONTINUOUS
 10
3.42108174
 20
-23.9031638502
 11
3.4157217518
 21
-23.9167238748
  0
LINE
  5
656
100
AcDbEntity
  8
0
100
AcDbLine
 62
7
  6
CONTINUOUS
 10
3.76501812
 20
-24.2348073522
 11
3.7722695512
 21
-24.2166332702
  0
LINE
  5
657
100
AcDbEntity
  8
RACCORDO
100
AcDbLine
 62
7
  6
CONTINUOUS
 10
18.7530388707
 20
29.7185316605
 11
18.758862593
 21
29.7319244449
  0
LINE
  5
658
100
AcDbEntity
  8
RACCORDO
100
AcDbLine
 62
7
  6
CONTINUOUS
 10
19.0600972132
 20
29.1506810067
 11
19.0760952839
 21
29.1867872269
  0
LINE
  5
659
100
AcDbEntity
  8
RACCORDO
100
AcDbLine
 62
7
  6
CONTINUOUS
 10
16.3339201047
 20
28.0176754151
 11
16.347414538
 21
28.0466184905
  0
LINE
  5
65A
100
AcDbEntity
  8
RACCORDO
100
AcDbLine
 62
7
  6
CONTINUOUS
 10
-9.1737959441
 20
-15.4840360348
 11
-9.1547556772
 21
-15.4451574772
  0
LINE
  5
65B
100
AcDbEntity
  8
RACCORDO
100
AcDbLine
 62
7
  6
CONTINUOUS
 10
-10.2497576421
 20
21.7329078974
 11
-10.2211457137
 21
21.776315157
  0
LINE
  5
65C
100
AcDbEntity
  8
RACCORDO
100
AcDbLine
 62
7
  6
CONTINUOUS
 10
-9.6139351113
 20
21.6079274118
 11
-9.5959640271
 21
21.6348085378
  0
LINE
  5
65D
100
AcDbEntity
  8
RACCORDO
100
AcDbLine
 62
7
  6
CONTINUOUS
 10
-14.5339985192
 20
40.5471107859
 11
-14.5165208605
 21
40.5696991911
  0
LINE
  5
65E
100
AcDbEntity
  8
RACCORDO
100
AcDbLine
 62
7
  6
CONTINUOUS
 10
-15.2247563337
 20
40.4511787529
 11
-15.2636826813
 21
40.4024617605
  0
LINE
  5
65F
100
AcDbEntity
  8
0
100
AcDbLine
 62
7
  6
CONTINUOUS
 10
3.6345781289
 20
-24.3426549482
 11
3.6436020781
 21
-24.340316973
  0
LINE
  5
660
100
AcDbEntity
  8
RACCORDO
100
AcDbLine
 62
7
  6
CONTINUOUS
 10
-9.9663403914
 20
-14.4560947845
 11
-9.9257799571
 21
-14.4481965177
  0
LINE
  5
661
100
AcDbEntity
  8
RACCORDO
100
AcDbLine
 62
7
  6
CONTINUOUS
 10
-9.3827283345
 20
21.7663004073
 11
-9.3553433708
 21
21.7663371879
  0
LINE
  5
662
100
AcDbEntity
  8
RACCORDO
100
AcDbLine
 62
7
  6
CONTINUOUS
 10
-9.7160798941
 20
21.6592246219
 11
-9.6818751197
 21
21.6589815783
  0
LINE
  5
663
100
AcDbEntity
  8
RACCORDO
100
AcDbLine
 62
7
  6
CONTINUOUS
 10
-10.0917656952
 20
21.2520746331
 11
-10.0496268726
 21
21.2515261633
  0
LINE
  5
664
100
AcDbEntity
  8
RACCORDO
100
AcDbLine
 62
7
  6
CONTINUOUS
 10
-9.6456097874
 20
22.0542354335
 11
-9.5839152859
 21
22.0515120397
  0
LINE
  5
665
100
AcDbEntity
  8
RACCORDO
100
AcDbLine
 62
7
  6
CONTINUOUS
 10
16.9604435737
 20
26.9345799307
 11
16.9901474508
 21
26.9328331922
  0
LINE
  5
666
100
AcDbEntity
  8
RACCORDO
100
AcDbLine
 62
7
  6
CONTINUOUS
 10
16.9304064428
 20
26.9376467295
 11
16.9604435737
 21
26.9345799307
  0
LINE
  5
667
100
AcDbEntity
  8
RACCORDO
100
AcDbLine
 62
7
  6
CONTINUOUS
 10
-11.6018584002
 20
41.80826374
 11
-11.7777797126
 21
41.8291963584
  0
LINE
  5
668
100
AcDbEntity
  8
RACCORDO
100
AcDbLine
 62
7
  6
CONTINUOUS
 10
-11.6404783447
 20
41.7972176525
 11
-11.4869548364
 21
41.7781805859
  0
LINE
  5
669
100
AcDbEntity
  8
RACCORDO
100
AcDbLine
 62
7
  6
CONTINUOUS
 10
-14.7506645115
 20
40.3214669036
 11
-14.7880728453
 21
40.3263212987
  0
LINE
  5
66A
100
AcDbEntity
  8
RACCORDO
100
AcDbLine
 62
7
  6
CONTINUOUS
 10
-14.6414894879
 20
40.6527658036
 11
-14.6948594426
 21
40.6599029648
  0
LINE
  5
66B
100
AcDbEntity
  8
RACCORDO
100
AcDbLine
 62
7
  6
CONTINUOUS
 10
-11.4205592703
 20
41.777889367
 11
-11.6018584002
 21
41.80826374
  0
LINE
  5
66C
100
AcDbEntity
  8
RACCORDO
100
AcDbLine
 62
7
  6
CONTINUOUS
 10
-11.4869548364
 20
41.7781805859
 11
-11.3347207845
 21
41.7524003114
  0
LINE
  5
66D
100
AcDbEntity
  8
RACCORDO
100
AcDbLine
 62
7
  6
CONTINUOUS
 10
18.8824766055
 20
-36.2885602922
 11
18.9119081579
 21
-36.1970009778
  0
LINE
  5
66E
100
AcDbEntity
  8
RACCORDO
100
AcDbLine
 62
7
  6
CONTINUOUS
 10
18.9325709836
 20
-36.073990506
 11
18.889273493
 21
-36.2078937986
  0
LINE
  5
66F
100
AcDbEntity
  8
RACCORDO
100
AcDbLine
 62
7
  6
CONTINUOUS
 10
17.1368677033
 20
-38.6286758988
 11
17.1502015923
 21
-38.5898392352
  0
LINE
  5
670
100
AcDbEntity
  8
RACCORDO
100
AcDbLine
 62
7
  6
CONTINUOUS
 10
18.8473540113
 20
-36.3876372728
 11
18.88245755
 21
-36.2886203868
  0
LINE
  5
671
100
AcDbEntity
  8
RACCORDO
100
AcDbLine
 62
7
  6
CONTINUOUS
 10
18.889273493
 20
-36.2078937986
 11
18.8431526829
 21
-36.3317694504
  0
LINE
  5
672
100
AcDbEntity
  8
RACCORDO
100
AcDbLine
 62
7
  6
CONTINUOUS
 10
8.7870488254
 20
-22.0846932819
 11
8.7824463322
 21
-22.095792672
  0
LINE
  5
673
100
AcDbEntity
  8
RACCORDO
100
AcDbLine
 62
7
  6
CONTINUOUS
 10
8.9688124894
 20
-22.5150298646
 11
8.9498757961
 21
-22.5603564538
  0
LINE
  5
674
100
AcDbEntity
  8
RACCORDO
100
AcDbLine
 62
7
  6
CONTINUOUS
 10
8.6835142377
 20
-22.2403505053
 11
8.6970683035
 21
-22.2093366414
  0
LINE
  5
675
100
AcDbEntity
  8
RACCORDO
100
AcDbLine
 62
7
  6
CONTINUOUS
 10
8.0595631776
 20
-22.4523307485
 11
8.0771072196
 21
-22.4123920145
  0
LINE
  5
676
100
AcDbEntity
  8
0
100
AcDbLine
 62
7
  6
CONTINUOUS
 10
3.3322520986
 20
-23.9805176685
 11
3.3260749823
 21
-23.9945015284
  0
LINE
  5
677
100
AcDbEntity
  8
0
100
AcDbLine
 62
7
  6
CONTINUOUS
 10
3.7572314069
 20
-24.2517930354
 11
3.76501812
 21
-24.2348073522
  0
LINE
  5
678
100
AcDbEntity
  8
0
100
AcDbLine
 62
7
  6
CONTINUOUS
 10
3.4157217518
 20
-23.9167238748
 11
3.4096267045
 21
-23.9293905308
  0
LINE
  5
679
100
AcDbEntity
  8
RACCORDO
100
AcDbLine
 62
7
  6
CONTINUOUS
 10
16.347414538
 20
28.0466184905
 11
16.3621701059
 21
28.0744330394
  0
LINE
  5
67A
100
AcDbEntity
  8
RACCORDO
100
AcDbLine
 62
7
  6
CONTINUOUS
 10
-9.1547556772
 20
-15.4451574772
 11
-9.1343647188
 21
-15.4076358322
  0
LINE
  5
67B
100
AcDbEntity
  8
RACCORDO
100
AcDbLine
 62
7
  6
CONTINUOUS
 10
19.0376230814
 20
29.1105686316
 11
19.0600972132
 21
29.1506810067
  0
LINE
  5
67C
100
AcDbEntity
  8
RACCORDO
100
AcDbLine
 62
7
  6
CONTINUOUS
 10
16.3621701059
 20
28.0744330394
 11
16.3780178679
 21
28.1008006057
  0
LINE
  5
67D
100
AcDbEntity
  8
RACCORDO
100
AcDbLine
 62
7
  6
CONTINUOUS
 10
-9.1343647188
 20
-15.4076358322
 11
-9.1127788428
 21
-15.3717577191
  0
LINE
  5
67E
100
AcDbEntity
  8
RACCORDO
100
AcDbLine
 62
7
  6
CONTINUOUS
 10
-10.2211457137
 20
21.776315157
 11
-10.1899318354
 21
21.8166334655
  0
LINE
  5
67F
100
AcDbEntity
  8
RACCORDO
100
AcDbLine
 62
7
  6
CONTINUOUS
 10
-9.5959640271
 20
21.6348085378
 11
-9.5762523141
 21
21.6599698956
  0
LINE
  5
680
100
AcDbEntity
  8
RACCORDO
100
AcDbLine
 62
7
  6
CONTINUOUS
 10
-15.152142877
 20
40.1885230906
 11
-15.1770822421
 21
40.1596966279
  0
LINE
  5
681
100
AcDbEntity
  8
RACCORDO
100
AcDbLine
 62
7
  6
CONTINUOUS
 10
-14.5165208605
 20
40.5696991911
 11
-14.4985243227
 21
40.5899982551
  0
LINE
  5
682
100
AcDbEntity
  8
RACCORDO
100
AcDbLine
 62
7
  6
CONTINUOUS
 10
-15.1865358932
 20
40.4922426338
 11
-15.2247563337
 21
40.4511787529
  0
LINE
  5
683
100
AcDbEntity
  8
RACCORDO
100
AcDbLine
 62
7
  6
CONTINUOUS
 10
-9.9257799571
 20
-14.4481965177
 11
-9.8863296627
 21
-14.438282456
  0
LINE
  5
684
100
AcDbEntity
  8
RACCORDO
100
AcDbLine
 62
7
  6
CONTINUOUS
 10
8.7002705427
 20
14.2511417948
 11
8.6861042105
 21
14.2494655858
  0
LINE
  5
685
100
AcDbEntity
  8
RACCORDO
100
AcDbLine
 62
7
  6
CONTINUOUS
 10
17.019213424
 20
26.932424429
 11
17.0473433857
 21
26.9333578334
  0
LINE
  5
686
100
AcDbEntity
  8
RACCORDO
100
AcDbLine
 62
7
  6
CONTINUOUS
 10
-10.0496268726
 20
21.2515261633
 11
-10.0077172441
 21
21.2529063393
  0
LINE
  5
687
100
AcDbEntity
  8
RACCORDO
100
AcDbLine
 62
7
  6
CONTINUOUS
 10
-9.7060405904
 20
22.0526072569
 11
-9.6456097874
 21
22.0542354335
  0
LINE
  5
688
100
AcDbEntity
  8
RACCORDO
100
AcDbLine
 62
7
  6
CONTINUOUS
 10
16.9901474508
 20
26.9328331922
 11
17.019213424
 21
26.932424429
  0
LINE
  5
689
100
AcDbEntity
  8
RACCORDO
100
AcDbLine
 62
7
  6
CONTINUOUS
 10
-14.7880728453
 20
40.3263212987
 11
-14.8254265444
 21
40.3282772394
  0
LINE
  5
68A
100
AcDbEntity
  8
RACCORDO
100
AcDbLine
 62
7
  6
CONTINUOUS
 10
-14.6948594426
 20
40.6599029648
 11
-14.7476668334
 21
40.6630480044
  0
LINE
  5
68B
100
AcDbEntity
  8
RACCORDO
100
AcDbLine
 62
7
  6
CONTINUOUS
 10
-11.7777797126
 20
41.8291963584
 11
-11.948061258
 21
41.8410476571
  0
LINE
  5
68C
100
AcDbEntity
  8
RACCORDO
100
AcDbLine
 62
7
  6
CONTINUOUS
 10
-11.7910113479
 20
41.8087024645
 11
-11.6404783447
 21
41.7972176525
  0
LINE
  5
68D
100
AcDbEntity
  8
RACCORDO
100
AcDbLine
 62
7
  6
CONTINUOUS
 10
16.7454337769
 20
-38.6503791355
 11
16.7550407453
 21
-38.6263569284
  0
LINE
  5
68E
100
AcDbEntity
  8
RACCORDO
100
AcDbLine
 62
7
  6
CONTINUOUS
 10
18.7842563015
 20
-36.5442443761
 11
18.8473540113
 21
-36.3876372728
  0
LINE
  5
68F
100
AcDbEntity
  8
RACCORDO
100
AcDbLine
 62
7
  6
CONTINUOUS
 10
18.8431526829
 20
-36.3317694504
 11
18.7923041216
 21
-36.4514603316
  0
LINE
  5
690
100
AcDbEntity
  8
RACCORDO
100
AcDbLine
 62
7
  6
CONTINUOUS
 10
8.0771072196
 20
-22.4123920145
 11
8.0961474722
 21
-22.3735131154
  0
LINE
  5
691
100
AcDbEntity
  8
RACCORDO
100
AcDbLine
 62
7
  6
CONTINUOUS
 10
8.9498757961
 20
-22.5603564538
 11
8.9277790091
 21
-22.6035295276
  0
LINE
  5
692
100
AcDbEntity
  8
RACCORDO
100
AcDbLine
 62
7
  6
CONTINUOUS
 10
8.7824463322
 20
-22.095792672
 11
8.7780982218
 21
-22.1040863177
  0
LINE
  5
693
100
AcDbEntity
  8
0
100
AcDbLine
 62
7
  6
CONTINUOUS
 10
3.7489369964
 20
-24.2675933058
 11
3.7572314069
 21
-24.2517930354
  0
LINE
  5
694
100
AcDbEntity
  8
0
100
AcDbLine
 62
7
  6
CONTINUOUS
 10
3.3260749823
 20
-23.9945015284
 11
3.3188945982
 21
-24.0078338915
  0
LINE
  5
695
100
AcDbEntity
  8
RACCORDO
100
AcDbLine
 62
7
  6
CONTINUOUS
 10
8.0961474722
 20
-22.3735131154
 11
8.1165384855
 21
-22.3359910504
  0
LINE
  5
696
100
AcDbEntity
  8
0
100
AcDbLine
 62
7
  6
CONTINUOUS
 10
3.4096267045
 20
-23.9293905308
 11
3.4027887711
 21
-23.9412276907
  0
LINE
  5
697
100
AcDbEntity
  8
RACCORDO
100
AcDbLine
 62
7
  6
CONTINUOUS
 10
19.0090828139
 20
29.0670345794
 11
19.0376230814
 21
29.1105686316
  0
LINE
  5
698
100
AcDbEntity
  8
RACCORDO
100
AcDbLine
 62
7
  6
CONTINUOUS
 10
-9.1127788428
 20
-15.3717577191
 11
-9.0901629474
 21
-15.3377971963
  0
LINE
  5
699
100
AcDbEntity
  8
RACCORDO
100
AcDbLine
 62
7
  6
CONTINUOUS
 10
18.74147884
 20
29.7013664661
 11
18.7530388707
 21
29.7185316605
  0
LINE
  5
69A
100
AcDbEntity
  8
RACCORDO
100
AcDbLine
 62
7
  6
CONTINUOUS
 10
16.3780178679
 20
28.1008006057
 11
16.394776379
 21
28.1254193005
  0
LINE
  5
69B
100
AcDbEntity
  8
RACCORDO
100
AcDbLine
 62
7
  6
CONTINUOUS
 10
-10.1899318354
 20
21.8166334655
 11
-10.1559902251
 21
21.8540848592
  0
LINE
  5
69C
100
AcDbEntity
  8
RACCORDO
100
AcDbLine
 62
7
  6
CONTINUOUS
 10
-15.1865067043
 20
40.492273936
 11
-13.9023435827
 21
41.7749158219
  0
LINE
  5
69D
100
AcDbEntity
  8
RACCORDO
100
AcDbLine
 62
7
  6
CONTINUOUS
 10
-14.4802149555
 20
40.607775531
 11
-13.2364191804
 21
41.8500978786
  0
LINE
  5
69E
100
AcDbEntity
  8
RACCORDO
100
AcDbLine
 62
7
  6
CONTINUOUS
 10
-15.1253823277
 20
40.2148517971
 11
-15.152142877
 21
40.1885230906
  0
LINE
  5
69F
100
AcDbEntity
  8
RACCORDO
100
AcDbLine
 62
7
  6
CONTINUOUS
 10
-14.4985243227
 20
40.5899982551
 11
-14.4802149556
 21
40.6077755308
  0
LINE
  5
6A0
100
AcDbEntity
  8
RACCORDO
100
AcDbLine
 62
7
  6
CONTINUOUS
 10
-15.1639881244
 20
40.5136244544
 11
-15.1864065338
 21
40.4923739976
  0
LINE
  5
6A1
100
AcDbEntity
  8
RACCORDO
100
AcDbLine
 62
7
  6
CONTINUOUS
 10
8.7173005755
 20
14.254609224
 11
8.7002705427
 21
14.2511417948
  0
LINE
  5
6A2
100
AcDbEntity
  8
RACCORDO
100
AcDbLine
 62
7
  6
CONTINUOUS
 10
-9.9663349055
 20
21.2562053441
 11
-9.9257742019
 21
21.2613997124
  0
LINE
  5
6A3
100
AcDbEntity
  8
RACCORDO
100
AcDbLine
 62
7
  6
CONTINUOUS
 10
-9.7652258937
 20
22.0466692763
 11
-9.7060405904
 21
22.0526072569
  0
LINE
  5
6A4
100
AcDbEntity
  8
RACCORDO
100
AcDbLine
 62
7
  6
CONTINUOUS
 10
-9.6818751197
 20
21.6589815783
 11
-9.6487584054
 21
21.6619356285
  0
LINE
  5
6A5
100
AcDbEntity
  8
RACCORDO
100
AcDbLine
 62
7
  6
CONTINUOUS
 10
17.0473433857
 20
26.9333578334
 11
17.0742488284
 21
26.9356238321
  0
LINE
  5
6A6
100
AcDbEntity
  8
RACCORDO
100
AcDbLine
 62
7
  6
CONTINUOUS
 10
-10.0077172441
 20
21.2529063393
 11
-9.9663349055
 21
21.2562053441
  0
LINE
  5
6A7
100
AcDbEntity
  8
RACCORDO
100
AcDbLine
 62
7
  6
CONTINUOUS
 10
-9.4073283638
 20
21.7643461879
 11
-9.3827283345
 21
21.7663004073
  0
LINE
  5
6A8
100
AcDbEntity
  8
RACCORDO
100
AcDbLine
 62
7
  6
CONTINUOUS
 10
-14.7476668334
 20
40.6630480044
 11
-14.7997151438
 21
40.6621926329
  0
LINE
  5
6A9
100
AcDbEntity
  8
RACCORDO
100
AcDbLine
 62
7
  6
CONTINUOUS
 10
-11.948061258
 20
41.8410476571
 11
-12.1124675816
 21
41.8442150763
  0
LINE
  5
6AA
100
AcDbEntity
  8
RACCORDO
100
AcDbLine
 62
7
  6
CONTINUOUS
 10
-11.9369912765
 20
41.8126053942
 11
-11.7910113479
 21
41.8087024645
  0
LINE
  5
6AB
100
AcDbEntity
  8
RACCORDO
100
AcDbLine
 62
7
  6
CONTINUOUS
 10
17.1201667914
 20
-38.6648232654
 11
17.1368677033
 21
-38.6286758988
  0
LINE
  5
6AC
100
AcDbEntity
  8
RACCORDO
100
AcDbLine
 62
7
  6
CONTINUOUS
 10
18.7145960951
 20
-36.693297053
 11
18.7842563015
 21
-36.5442443761
  0
LINE
  5
6AD
100
AcDbEntity
  8
RACCORDO
100
AcDbLine
 62
7
  6
CONTINUOUS
 10
18.7923041216
 20
-36.4514603316
 11
18.7367507394
 21
-36.5668802326
  0
LINE
  5
6AE
100
AcDbEntity
  8
RACCORDO
100
AcDbLine
 62
7
  6
CONTINUOUS
 10
8.6970683035
 20
-22.2093366414
 11
8.7135091442
 21
-22.1803640796
  0
LINE
  5
6AF
100
AcDbEntity
  8
RACCORDO
100
AcDbLine
 62
7
  6
CONTINUOUS
 10
8.1165384855
 20
-22.3359910504
 11
8.138124491
 21
-22.3001124531
  0
LINE
  5
6B0
100
AcDbEntity
  8
0
100
AcDbLine
 62
7
  6
CONTINUOUS
 10
3.7401061307
 20
-24.2822062978
 11
3.7489369964
 21
-24.2675933058
  0
LINE
  5
6B1
100
AcDbEntity
  8
RACCORDO
100
AcDbLine
 62
7
  6
CONTINUOUS
 10
8.9277790091
 20
-22.6035295276
 11
8.9028425844
 21
-22.6439282155
  0
LINE
  5
6B2
100
AcDbEntity
  8
0
100
AcDbLine
 62
7
  6
CONTINUOUS
 10
3.3188945982
 20
-24.0078338915
 11
3.3107089778
 21
-24.0204448445
  0
LINE
  5
6B3
100
AcDbEntity
  8
RACCORDO
100
AcDbLine
 62
7
  6
CONTINUOUS
 10
18.974877687
 20
29.0203333154
 11
19.0090828139
 21
29.0670345794
  0
LINE
  5
6B4
100
AcDbEntity
  8
RACCORDO
100
AcDbLine
 62
7
  6
CONTINUOUS
 10
-9.0901629474
 20
-15.3377971963
 11
-9.0666897812
 21
-15.3060136509
  0
LINE
  5
6B5
100
AcDbEntity
  8
RACCORDO
100
AcDbLine
 62
7
  6
CONTINUOUS
 10
16.394776379
 20
28.1254193005
 11
16.4122537666
 21
28.1480072578
  0
LINE
  5
6B6
100
AcDbEntity
  8
RACCORDO
100
AcDbLine
 62
7
  6
CONTINUOUS
 10
18.934904511
 20
28.9704250456
 11
18.974877687
 21
29.0203333154
  0
LINE
  5
6B7
100
AcDbEntity
  8
RACCORDO
100
AcDbLine
 62
7
  6
CONTINUOUS
 10
18.7241517389
 20
29.6800794821
 11
18.74147884
 21
29.7013664661
  0
LINE
  5
6B8
100
AcDbEntity
  8
RACCORDO
100
AcDbLine
 62
7
  6
CONTINUOUS
 10
-9.5762523141
 20
21.6599698956
 11
-9.5548401653
 21
21.6833748452
  0
LINE
  5
6B9
100
AcDbEntity
  8
RACCORDO
100
AcDbLine
 62
7
  6
CONTINUOUS
 10
-15.096823045
 20
40.2387198111
 11
-15.1253823277
 21
40.2148517971
  0
LINE
  5
6BA
100
AcDbEntity
  8
RACCORDO
100
AcDbLine
 62
7
  6
CONTINUOUS
 10
-15.1253642704
 20
40.5454715054
 11
-15.1639881244
 21
40.5136244544
  0
LINE
  5
6BB
100
AcDbEntity
  8
RACCORDO
100
AcDbLine
 62
7
  6
CONTINUOUS
 10
8.7370716079
 20
14.2598428909
 11
8.7173005755
 21
14.254609224
  0
LINE
  5
6BC
100
AcDbEntity
  8
RACCORDO
100
AcDbLine
 62
7
  6
CONTINUOUS
 10
-9.6487584054
 20
21.6619356285
 11
-9.6169683569
 21
21.6680654886
  0
LINE
  5
6BD
100
AcDbEntity
  8
RACCORDO
100
AcDbLine
 62
7
  6
CONTINUOUS
 10
-9.9257742019
 20
21.2613997124
 11
-9.8863236343
 21
21.2684524977
  0
LINE
  5
6BE
100
AcDbEntity
  8
RACCORDO
100
AcDbLine
 62
7
  6
CONTINUOUS
 10
-9.8225493246
 20
22.036469009
 11
-9.7652258937
 21
22.0466692763
  0
LINE
  5
6BF
100
AcDbEntity
  8
RACCORDO
100
AcDbLine
 62
7
  6
CONTINUOUS
 10
-9.4288921732
 20
21.7608327773
 11
-9.4073283638
 21
21.7643461879
  0
LINE
  5
6C0
100
AcDbEntity
  8
RACCORDO
100
AcDbLine
 62
7
  6
CONTINUOUS
 10
17.0742488284
 20
26.9356238321
 11
17.0996538033
 21
26.9391991846
  0
LINE
  5
6C1
100
AcDbEntity
  8
RACCORDO
100
AcDbLine
 62
7
  6
CONTINUOUS
 10
-12.2190353654
 20
41.7985862104
 11
-12.0797067842
 21
41.8092046188
  0
LINE
  5
6C2
100
AcDbEntity
  8
RACCORDO
100
AcDbLine
 62
7
  6
CONTINUOUS
 10
-12.2707522339
 20
41.8391581719
 11
-12.3557965756
 21
41.8329960044
  0
LINE
  5
6C3
100
AcDbEntity
  8
RACCORDO
100
AcDbLine
 62
7
  6
CONTINUOUS
 10
-12.1124675816
 20
41.8442150763
 11
-12.2707522339
 21
41.8391581719
  0
LINE
  5
6C4
100
AcDbEntity
  8
RACCORDO
100
AcDbLine
 62
7
  6
CONTINUOUS
 10
-14.8254265444
 20
40.3282772394
 11
-14.8622409063
 21
40.3272854796
  0
LINE
  5
6C5
100
AcDbEntity
  8
RACCORDO
100
AcDbLine
 62
7
  6
CONTINUOUS
 10
-12.0797067842
 20
41.8092046188
 11
-11.9369912765
 21
41.8126053942
  0
LINE
  5
6C6
100
AcDbEntity
  8
RACCORDO
100
AcDbLine
 62
7
  6
CONTINUOUS
 10
18.7116331663
 20
-36.6988149141
 11
18.7145960951
 21
-36.693297053
  0
LINE
  5
6C7
100
AcDbEntity
  8
RACCORDO
100
AcDbLine
 62
7
  6
CONTINUOUS
 10
18.7367507394
 20
-36.5668802326
 11
18.7116331663
 21
-36.6132316707
  0
LINE
  5
6C8
100
AcDbEntity
  8
RACCORDO
100
AcDbLine
 62
7
  6
CONTINUOUS
 10
16.7333807772
 20
-38.6725846449
 11
16.7454337769
 21
-38.6503791355
  0
LINE
  5
6C9
100
AcDbEntity
  8
RACCORDO
100
AcDbLine
 62
7
  6
CONTINUOUS
 10
8.7780982218
 20
-22.1040863177
 11
8.7742198128
 21
-22.1099916311
  0
LINE
  5
6CA
100
AcDbEntity
  8
RACCORDO
100
AcDbLine
 62
7
  6
CONTINUOUS
 10
8.138124491
 20
-22.3001124531
 11
8.1607405915
 21
-22.2661514032
  0
LINE
  5
6CB
100
AcDbEntity
  8
0
100
AcDbLine
 62
7
  6
CONTINUOUS
 10
3.7309017212
 20
-24.2957919367
 11
3.7401061307
 21
-24.2822062978
  0
LINE
  5
6CC
100
AcDbEntity
  8
0
100
AcDbLine
 62
7
  6
CONTINUOUS
 10
3.4027887711
 20
-23.9412276907
 11
3.3952543247
 21
-23.9521237663
  0
LINE
  5
6CD
100
AcDbEntity
  8
RACCORDO
100
AcDbLine
 62
7
  6
CONTINUOUS
 10
-9.0666897812
 20
-15.3060136509
 11
-9.0425386495
 21
-15.2766498586
  0
LINE
  5
6CE
100
AcDbEntity
  8
RACCORDO
100
AcDbLine
 62
7
  6
CONTINUOUS
 10
18.889271513
 20
28.9174158553
 11
18.934904511
 21
28.9704250456
  0
LINE
  5
6CF
100
AcDbEntity
  8
RACCORDO
100
AcDbLine
 62
7
  6
CONTINUOUS
 10
16.4122537666
 20
28.1480072578
 11
16.4302499276
 21
28.1683058624
  0
LINE
  5
6D0
100
AcDbEntity
  8
RACCORDO
100
AcDbLine
 62
7
  6
CONTINUOUS
 10
18.7009828841
 20
29.654024291
 11
18.7241517389
 21
29.6800794821
  0
LINE
  5
6D1
100
AcDbEntity
  8
RACCORDO
100
AcDbLine
 62
7
  6
CONTINUOUS
 10
18.8409395902
 20
28.8643590874
 11
18.889271513
 21
28.9174158553
  0
LINE
  5
6D2
100
AcDbEntity
  8
RACCORDO
100
AcDbLine
 62
7
  6
CONTINUOUS
 10
18.6719920253
 20
29.6230462775
 11
18.7009828841
 21
29.654024291
  0
LINE
  5
6D3
100
AcDbEntity
  8
RACCORDO
100
AcDbLine
 62
7
  6
CONTINUOUS
 10
18.7880520442
 20
28.8091247308
 11
18.8409395902
 21
28.8643590874
  0
LINE
  5
6D4
100
AcDbEntity
  8
RACCORDO
100
AcDbLine
 62
7
  6
CONTINUOUS
 10
-10.1559902251
 20
21.8540848592
 11
-10.1193213591
 21
21.8886689812
  0
LINE
  5
6D5
100
AcDbEntity
  8
RACCORDO
100
AcDbLine
 62
7
  6
CONTINUOUS
 10
-9.5548401653
 20
21.6833748452
 11
-9.531794064
 21
21.7049599037
  0
LINE
  5
6D6
100
AcDbEntity
  8
RACCORDO
100
AcDbLine
 62
7
  6
CONTINUOUS
 10
-15.0668600233
 20
40.2598543456
 11
-15.096823045
 21
40.2387198111
  0
LINE
  5
6D7
100
AcDbEntity
  8
RACCORDO
100
AcDbLine
 62
7
  6
CONTINUOUS
 10
-9.8780509028
 20
22.0219238123
 11
-9.8225493246
 21
22.036469009
  0
LINE
  5
6D8
100
AcDbEntity
  8
RACCORDO
100
AcDbLine
 62
7
  6
CONTINUOUS
 10
-9.4476001642
 20
21.7560991513
 11
-9.4288921732
 21
21.7608327773
  0
LINE
  5
6D9
100
AcDbEntity
  8
RACCORDO
100
AcDbLine
 62
7
  6
CONTINUOUS
 10
-9.8863236343
 20
21.2684524977
 11
-9.8482638076
 21
21.2773135347
  0
LINE
  5
6DA
100
AcDbEntity
  8
RACCORDO
100
AcDbLine
 62
7
  6
CONTINUOUS
 10
17.0996538033
 20
26.9391991846
 11
17.123297751
 21
26.9440472212
  0
LINE
  5
6DB
100
AcDbEntity
  8
RACCORDO
100
AcDbLine
 62
7
  6
CONTINUOUS
 10
-12.3476646669
 20
41.7819229675
 11
-12.2190353654
 21
41.7985862104
  0
LINE
  5
6DC
100
AcDbEntity
  8
RACCORDO
100
AcDbLine
 62
7
  6
CONTINUOUS
 10
-14.8622409063
 20
40.3272854796
 11
-14.8984990342
 21
40.3233115236
  0
LINE
  5
6DD
100
AcDbEntity
  8
RACCORDO
100
AcDbLine
 62
7
  6
CONTINUOUS
 10
-12.3559636728
 20
41.8329830949
 11
-12.4624605433
 21
41.8217012142
  0
LINE
  5
6DE
100
AcDbEntity
  8
RACCORDO
100
AcDbLine
 62
7
  6
CONTINUOUS
 10
-14.7997151438
 20
40.6621926329
 11
-14.8507949542
 21
40.657322357
  0
LINE
  5
6DF
100
AcDbEntity
  8
RACCORDO
100
AcDbLine
 62
7
  6
CONTINUOUS
 10
17.1002169654
 20
-38.6981192803
 11
17.1201667914
 21
-38.6648232654
  0
LINE
  5
6E0
100
AcDbEntity
  8
RACCORDO
100
AcDbLine
 62
7
  6
CONTINUOUS
 10
8.7135091442
 20
-22.1803640796
 11
8.7327183037
 21
-22.1536415665
  0
LINE
  5
6E1
100
AcDbEntity
  8
RACCORDO
100
AcDbLine
 62
7
  6
CONTINUOUS
 10
8.1607405915
 20
-22.2661514032
 11
8.1842140209
 21
-22.2343673315
  0
LINE
  5
6E2
100
AcDbEntity
  8
RACCORDO
100
AcDbLine
 62
7
  6
CONTINUOUS
 10
8.9028425844
 20
-22.6439282155
 11
8.8751728997
 21
-22.6813459526
  0
LINE
  5
6E3
100
AcDbEntity
  8
0
100
AcDbLine
 62
7
  6
CONTINUOUS
 10
3.7213318323
 20
-24.3083672279
 11
3.7309017212
 21
-24.2957919367
  0
LINE
  5
6E4
100
AcDbEntity
  8
0
100
AcDbLine
 62
7
  6
CONTINUOUS
 10
3.3107089778
 20
-24.0204448445
 11
3.3014012253
 21
-24.0319809138
  0
LINE
  5
6E5
100
AcDbEntity
  8
0
100
AcDbLine
 62
7
  6
CONTINUOUS
 10
3.3952543247
 20
-23.9521237663
 11
3.3870594398
 21
-23.9620622971
  0
LINE
  5
6E6
100
AcDbEntity
  8
RACCORDO
100
AcDbLine
 62
7
  6
CONTINUOUS
 10
-9.0425386495
 20
-15.2766498586
 11
-9.0178940473
 21
-15.2499301247
  0
LINE
  5
6E7
100
AcDbEntity
  8
RACCORDO
100
AcDbLine
 62
7
  6
CONTINUOUS
 10
18.6374280709
 20
29.5879553304
 11
18.6719920253
 21
29.6230462775
  0
LINE
  5
6E8
100
AcDbEntity
  8
RACCORDO
100
AcDbLine
 62
7
  6
CONTINUOUS
 10
18.7307975626
 20
28.7517764043
 11
18.7880520442
 21
28.8091247308
  0
LINE
  5
6E9
100
AcDbEntity
  8
RACCORDO
100
AcDbLine
 62
7
  6
CONTINUOUS
 10
16.4302499276
 20
28.1683058624
 11
16.4485588193
 21
28.1860827101
  0
LINE
  5
6EA
100
AcDbEntity
  8
RACCORDO
100
AcDbLine
 62
7
  6
CONTINUOUS
 10
18.5975099034
 20
29.5492614577
 11
18.6374280709
 21
29.5879553304
  0
LINE
  5
6EB
100
AcDbEntity
  8
RACCORDO
100
AcDbLine
 62
7
  6
CONTINUOUS
 10
18.6694786242
 20
28.692428949
 11
18.7307975626
 21
28.7517764043
  0
LINE
  5
6EC
100
AcDbEntity
  8
RACCORDO
100
AcDbLine
 62
7
  6
CONTINUOUS
 10
18.552292552
 20
29.5067031841
 11
18.5975099034
 21
29.5492614577
  0
LINE
  5
6ED
100
AcDbEntity
  8
RACCORDO
100
AcDbLine
 62
7
  6
CONTINUOUS
 10
18.6098426283
 20
28.6363879914
 11
18.6694786242
 21
28.692428949
  0
LINE
  5
6EE
100
AcDbEntity
  8
RACCORDO
100
AcDbLine
 62
7
  6
CONTINUOUS
 10
18.5018985206
 20
29.4603665745
 11
18.552292552
 21
29.5067031841
  0
LINE
  5
6EF
100
AcDbEntity
  8
RACCORDO
100
AcDbLine
 62
7
  6
CONTINUOUS
 10
18.4494222014
 20
29.4131185679
 11
18.5018985206
 21
29.4603665745
  0
LINE
  5
6F0
100
AcDbEntity
  8
RACCORDO
100
AcDbLine
 62
7
  6
CONTINUOUS
 10
18.3929538079
 20
29.3629031434
 11
18.4494222014
 21
29.4131185679
  0
LINE
  5
6F1
100
AcDbEntity
  8
RACCORDO
100
AcDbLine
 62
7
  6
CONTINUOUS
 10
-10.1193213592
 20
21.8886689812
 11
-10.0764038284
 21
21.9231830667
  0
LINE
  5
6F2
100
AcDbEntity
  8
RACCORDO
100
AcDbLine
 62
7
  6
CONTINUOUS
 10
-9.531794064
 20
21.7049599037
 11
-9.5048644722
 21
21.7263702454
  0
LINE
  5
6F3
100
AcDbEntity
  8
RACCORDO
100
AcDbLine
 62
7
  6
CONTINUOUS
 10
-15.0843932948
 20
40.5736779606
 11
-15.1253642704
 21
40.5454715054
  0
LINE
  5
6F4
100
AcDbEntity
  8
RACCORDO
100
AcDbLine
 62
7
  6
CONTINUOUS
 10
17.123297751
 20
26.9440472212
 11
17.1449381736
 21
26.9501182191
  0
LINE
  5
6F5
100
AcDbEntity
  8
RACCORDO
100
AcDbLine
 62
7
  6
CONTINUOUS
 10
-14.8984990342
 20
40.3233115236
 11
-14.9342161019
 21
40.3163906948
  0
LINE
  5
6F6
100
AcDbEntity
  8
RACCORDO
100
AcDbLine
 62
7
  6
CONTINUOUS
 10
-12.4724386758
 20
41.7591406245
 11
-12.3476646669
 21
41.7819229675
  0
LINE
  5
6F7
100
AcDbEntity
  8
RACCORDO
100
AcDbLine
 62
7
  6
CONTINUOUS
 10
-14.8507949542
 20
40.657322357
 11
-14.9006895344
 21
40.6484475512
  0
LINE
  5
6F8
100
AcDbEntity
  8
RACCORDO
100
AcDbLine
 62
7
  6
CONTINUOUS
 10
-12.4624605433
 20
41.8217012142
 11
-12.6241040244
 21
41.7966161296
  0
LINE
  5
6F9
100
AcDbEntity
  8
RACCORDO
100
AcDbLine
 62
7
  6
CONTINUOUS
 10
16.7190689481
 20
-38.6927055397
 11
16.7333807772
 21
-38.6725846449
  0
LINE
  5
6FA
100
AcDbEntity
  8
RACCORDO
100
AcDbLine
 62
7
  6
CONTINUOUS
 10
8.1842140209
 20
-22.2343673315
 11
8.2083654639
 21
-22.205003039
  0
LINE
  5
6FB
100
AcDbEntity
  8
RACCORDO
100
AcDbLine
 62
7
  6
CONTINUOUS
 10
8.7742198128
 20
-22.1099916311
 11
8.7710430598
 21
-22.1138505157
  0
LINE
  5
6FC
100
AcDbEntity
  8
0
100
AcDbLine
 62
7
  6
CONTINUOUS
 10
3.7113874965
 20
-24.3199160298
 11
3.7213318323
 21
-24.3083672279
  0
LINE
  5
6FD
100
AcDbEntity
  8
RACCORDO
100
AcDbLine
 62
7
  6
CONTINUOUS
 10
8.8751728997
 20
-22.6813459526
 11
8.844662524
 21
-22.7159902397
  0
LINE
  5
6FE
100
AcDbEntity
  8
RACCORDO
100
AcDbLine
 62
7
  6
CONTINUOUS
 10
-9.0178940473
 20
-15.2499301247
 11
-8.9929442324
 21
-15.2260585479
  0
LINE
  5
6FF
100
AcDbEntity
  8
RACCORDO
100
AcDbLine
 62
7
  6
CONTINUOUS
 10
18.3326075297
 20
29.3098883384
 11
18.3929538079
 21
29.3629031434
  0
LINE
  5
700
100
AcDbEntity
  8
RACCORDO
100
AcDbLine
 62
7
  6
CONTINUOUS
 10
18.2685599182
 20
29.2543655325
 11
18.3326075297
 21
29.3098883384
  0
LINE
  5
701
100
AcDbEntity
  8
RACCORDO
100
AcDbLine
 62
7
  6
CONTINUOUS
 10
18.1810696058
 20
29.1796122599
 11
18.2685599182
 21
29.2543655325
  0
LINE
  5
702
100
AcDbEntity
  8
RACCORDO
100
AcDbLine
 62
7
  6
CONTINUOUS
 10
16.4485588193
 20
28.1860827101
 11
17.8936037414
 21
29.3475788633
  0
LINE
  5
703
100
AcDbEntity
  8
RACCORDO
100
AcDbLine
 62
7
  6
CONTINUOUS
 10
17.16436118
 20
26.9573463018
 11
18.7116331663
 21
28.2010103793
  0
LINE
  5
704
100
AcDbEntity
  8
RACCORDO
100
AcDbLine
 62
7
  6
CONTINUOUS
 10
-9.5048644722
 20
21.7263702454
 11
-9.4910556185
 21
21.7360005925
  0
LINE
  5
705
100
AcDbEntity
  8
RACCORDO
100
AcDbLine
 62
7
  6
CONTINUOUS
 10
-10.0764038284
 20
21.9231830667
 11
-10.0308642011
 21
21.953748082
  0
LINE
  5
706
100
AcDbEntity
  8
RACCORDO
100
AcDbLine
 62
7
  6
CONTINUOUS
 10
-15.0354859488
 20
40.2782156341
 11
-15.0668600233
 21
40.2598543456
  0
LINE
  5
707
100
AcDbEntity
  8
RACCORDO
100
AcDbLine
 62
7
  6
CONTINUOUS
 10
-15.041253826
 20
40.5981501848
 11
-15.0843932948
 21
40.5736779606
  0
LINE
  5
708
100
AcDbEntity
  8
RACCORDO
100
AcDbLine
 62
7
  6
CONTINUOUS
 10
-14.9006895344
 20
40.6484475512
 11
-14.9491941653
 21
40.6356070947
  0
LINE
  5
709
100
AcDbEntity
  8
RACCORDO
100
AcDbLine
 62
7
  6
CONTINUOUS
 10
-12.5932432024
 20
41.7304072178
 11
-12.4724386758
 21
41.7591406245
  0
LINE
  5
70A
100
AcDbEntity
  8
RACCORDO
100
AcDbLine
 62
7
  6
CONTINUOUS
 10
-12.6241040244
 20
41.7966161296
 11
-12.7800659871
 21
41.7626704025
  0
LINE
  5
70B
100
AcDbEntity
  8
RACCORDO
100
AcDbLine
 62
7
  6
CONTINUOUS
 10
17.0770668531
 20
-38.7284645015
 11
17.1002169654
 21
-38.6981192803
  0
LINE
  5
70C
100
AcDbEntity
  8
RACCORDO
100
AcDbLine
 62
7
  6
CONTINUOUS
 10
8.7327183037
 20
-22.1536415665
 11
8.7545573804
 21
-22.1293616376
  0
LINE
  5
70D
100
AcDbEntity
  8
RACCORDO
100
AcDbLine
 62
7
  6
CONTINUOUS
 10
8.2083654639
 20
-22.205003039
 11
8.2330104257
 21
-22.178282842
  0
LINE
  5
70E
100
AcDbEntity
  8
0
100
AcDbLine
 62
7
  6
CONTINUOUS
 10
3.7012061911
 20
-24.330548439
 11
3.7113874965
 21
-24.3199160298
  0
LINE
  5
70F
100
AcDbEntity
  8
RACCORDO
100
AcDbLine
 62
7
  6
CONTINUOUS
 10
8.7710430598
 20
-22.1138505157
 11
8.7696607898
 21
-22.1152664628
  0
LINE
  5
710
100
AcDbEntity
  8
0
100
AcDbLine
 62
7
  6
CONTINUOUS
 10
3.3870594398
 20
-23.9620622971
 11
3.3781674821
 21
-23.9710602784
  0
LINE
  5
711
100
AcDbEntity
  8
0
100
AcDbLine
 62
7
  6
CONTINUOUS
 10
3.3014012253
 20
-24.0319809138
 11
3.2909320586
 21
-24.0424545496
  0
LINE
  5
712
100
AcDbEntity
  8
RACCORDO
100
AcDbLine
 62
7
  6
CONTINUOUS
 10
8.2579928843
 20
-22.1544238072
 11
8.7916144733
 21
-21.6214040951
  0
LINE
  5
713
100
AcDbEntity
  8
RACCORDO
100
AcDbLine
 62
7
  6
CONTINUOUS
 10
-9.5582737608
 20
-14.8075671929
 11
-9.5317915981
 21
-14.7851520345
  0
LINE
  5
714
100
AcDbEntity
  8
RACCORDO
100
AcDbLine
 62
7
  6
CONTINUOUS
 10
-9.4910556185
 20
21.7360005925
 11
-9.4904521304
 21
21.7364025301
  0
LINE
  5
715
100
AcDbEntity
  8
RACCORDO
100
AcDbLine
 62
7
  6
CONTINUOUS
 10
-9.687856475
 20
21.3461081649
 11
-9.1381002539
 21
21.7114317554
  0
LINE
  5
716
100
AcDbEntity
  8
RACCORDO
100
AcDbLine
 62
7
  6
CONTINUOUS
 10
-9.7151579486
 20
21.3293967632
 11
-9.6878491382
 21
21.3461139365
  0
LINE
  5
717
100
AcDbEntity
  8
RACCORDO
100
AcDbLine
 62
7
  6
CONTINUOUS
 10
-9.4910222189
 20
21.7360206464
 11
-9.4782182719
 21
21.7436749595
  0
LINE
  5
718
100
AcDbEntity
  8
RACCORDO
100
AcDbLine
 62
7
  6
CONTINUOUS
 10
-15.0027107116
 20
40.2938421943
 11
-15.0354859488
 21
40.2782156341
  0
LINE
  5
719
100
AcDbEntity
  8
RACCORDO
100
AcDbLine
 62
7
  6
CONTINUOUS
 10
-14.9961162983
 20
40.6188243565
 11
-15.041253826
 21
40.5981501848
  0
LINE
  5
71A
100
AcDbEntity
  8
RACCORDO
100
AcDbLine
 62
7
  6
CONTINUOUS
 10
-12.7800659871
 20
41.7626704025
 11
-12.9201528343
 21
41.723078184
  0
LINE
  5
71B
100
AcDbEntity
  8
RACCORDO
100
AcDbLine
 62
7
  6
CONTINUOUS
 10
-14.9342161019
 20
40.3163906948
 11
-14.9689554308
 21
40.3065785144
  0
LINE
  5
71C
100
AcDbEntity
  8
RACCORDO
100
AcDbLine
 62
7
  6
CONTINUOUS
 10
16.7024678109
 20
-38.710712143
 11
16.7190689481
 21
-38.6927055397
  0
LINE
  5
71D
100
AcDbEntity
  8
RACCORDO
100
AcDbLine
 62
7
  6
CONTINUOUS
 10
8.7699509774
 20
-22.1149898175
 11
8.7696468041
 21
-22.1152931742
  0
LINE
  5
71E
100
AcDbEntity
  8
RACCORDO
100
AcDbLine
 62
7
  6
CONTINUOUS
 10
8.2330104257
 20
-22.178282842
 11
8.2579606416
 21
-22.1544108579
  0
LINE
  5
71F
100
AcDbEntity
  8
RACCORDO
100
AcDbLine
 62
7
  6
CONTINUOUS
 10
8.844662524
 20
-22.7159902397
 11
8.811310982
 21
-22.7478614991
  0
LINE
  5
720
100
AcDbEntity
  8
RACCORDO
100
AcDbLine
 62
7
  6
CONTINUOUS
 10
8.7696468041
 20
-22.1152931742
 11
8.7545608034
 21
-22.1293652615
  0
LINE
  5
721
100
AcDbEntity
  8
0
100
AcDbLine
 62
7
  6
CONTINUOUS
 10
3.6907827309
 20
-24.3402377425
 11
3.7012061911
 21
-24.330548439
  0
LINE
  5
722
100
AcDbEntity
  8
RACCORDO
100
AcDbLine
 62
7
  6
CONTINUOUS
 10
-8.7223128141
 20
-13.5643663054
 11
-7.876121874
 21
-12.871207267
  0
LINE
  5
723
100
AcDbEntity
  8
RACCORDO
100
AcDbLine
 62
7
  6
CONTINUOUS
 10
-8.0669911787
 20
-14.4828798835
 11
-7.2591740619
 21
-13.8211548409
  0
LINE
  5
724
100
AcDbEntity
  8
RACCORDO
100
AcDbLine
 62
7
  6
CONTINUOUS
 10
-9.5867345301
 20
-14.8305740462
 11
-9.5582737608
 21
-14.8075671929
  0
LINE
  5
725
100
AcDbEntity
  8
RACCORDO
100
AcDbLine
 62
7
  6
CONTINUOUS
 10
-9.6878554395
 20
-14.3413759839
 11
-8.7223128141
 21
-13.565264401
  0
LINE
  5
726
100
AcDbEntity
  8
RACCORDO
100
AcDbLine
 62
7
  6
CONTINUOUS
 10
-8.9929277471
 20
-15.2260651688
 11
-8.0678892742
 21
-14.4825191881
  0
LINE
  5
727
100
AcDbEntity
  8
RACCORDO
100
AcDbLine
 62
7
  6
CONTINUOUS
 10
-9.6169688473
 20
-14.8540068309
 11
-9.5867345301
 21
-14.8305740462
  0
LINE
  5
728
100
AcDbEntity
  8
RACCORDO
100
AcDbLine
 62
7
  6
CONTINUOUS
 10
-9.5582732357
 20
21.6896534127
 11
-9.5317910607
 21
21.7049559359
  0
LINE
  5
729
100
AcDbEntity
  8
RACCORDO
100
AcDbLine
 62
7
  6
CONTINUOUS
 10
-10.0308642011
 20
21.953748082
 11
-9.9827058588
 21
21.9803614887
  0
LINE
  5
72A
100
AcDbEntity
  8
RACCORDO
100
AcDbLine
 62
7
  6
CONTINUOUS
 10
17.0508533562
 20
-38.755728086
 11
17.0770668531
 21
-38.7284645015
  0
LINE
  5
72B
100
AcDbEntity
  8
0
100
AcDbLine
 62
7
  6
CONTINUOUS
 10
3.2909320586
 20
-24.0424545496
 11
3.2861378522
 21
-24.0466071521
  0
LINE
  5
72C
100
AcDbEntity
  8
0
100
AcDbLine
 62
7
  6
CONTINUOUS
 10
3.3781674821
 20
-23.9710602784
 11
3.372626882
 21
-23.975855858
  0
LINE
  5
72D
100
AcDbEntity
  8
0
100
AcDbLine
 62
7
  6
CONTINUOUS
 10
3.6843536974
 20
-24.3456411116
 11
3.6907827309
 21
-24.3402377425
  0
LINE
  5
72E
100
AcDbEntity
  8
0
100
AcDbLine
 62
7
  6
CONTINUOUS
 10
-3.8781112427
 20
-21.6760165379
 11
-3.9646224931
 21
-21.7468824056
  0
LINE
  5
72F
100
AcDbEntity
  8
0
100
AcDbLine
 62
7
  6
CONTINUOUS
 10
-4.0533303299
 20
-22.2533631214
 11
-4.1399254437
 21
-22.3242976859
  0
LINE
  5
730
100
AcDbEntity
  8
0
100
AcDbLine
 62
7
  6
CONTINUOUS
 10
-2.7166200027
 20
-22.7902161242
 11
-2.8032151165
 21
-22.8611506887
  0
LINE
  5
731
100
AcDbEntity
  8
0
100
AcDbLine
 62
7
  6
CONTINUOUS
 10
-1.5288613264
 20
-21.90394209
 11
-1.6152887317
 21
-21.9747392758
  0
LINE
  5
732
100
AcDbEntity
  8
0
100
AcDbLine
 62
7
  6
CONTINUOUS
 10
-1.9801916659
 20
-23.0859823467
 11
-2.0667867797
 21
-23.1569169112
  0
LINE
  5
733
100
AcDbEntity
  8
0
100
AcDbLine
 62
7
  6
CONTINUOUS
 10
-0.8981561226
 20
-22.5944994978
 11
-0.9846336792
 21
-22.6653377651
  0
LINE
  5
734
100
AcDbEntity
  8
0
100
AcDbLine
 62
7
  6
CONTINUOUS
 10
-0.330511557
 20
-22.3909600036
 11
-0.4169395983
 21
-22.4617577102
  0
LINE
  5
735
100
AcDbEntity
  8
0
100
AcDbLine
 62
7
  6
CONTINUOUS
 10
-0.8573103308
 20
-23.5369568056
 11
-0.9439054446
 21
-23.6078913701
  0
LINE
  5
736
100
AcDbEntity
  8
0
100
AcDbLine
 62
7
  6
CONTINUOUS
 10
-0.1226185964
 20
-23.8320255694
 11
-0.2092137102
 21
-23.9029601339
  0
LINE
  5
737
100
AcDbEntity
  8
0
100
AcDbLine
 62
7
  6
CONTINUOUS
 10
1.2418585879
 20
-22.8644228774
 11
1.1554478646
 21
-22.935206398
  0
LINE
  5
738
100
AcDbEntity
  8
0
100
AcDbLine
 62
7
  6
CONTINUOUS
 10
0.4208674871
 20
-24.0503018331
 11
0.3342723733
 21
-24.1212363976
  0
LINE
  5
739
100
AcDbEntity
  8
0
100
AcDbLine
 62
7
  6
CONTINUOUS
 10
0.9907880844
 20
-23.8649367501
 11
0.9042474936
 21
-23.935826652
  0
LINE
  5
73A
100
AcDbEntity
  8
0
100
AcDbLine
 62
7
  6
CONTINUOUS
 10
1.5206877948
 20
-23.7556662514
 11
1.4341874244
 21
-23.8265232066
  0
LINE
  5
73B
100
AcDbEntity
  8
0
100
AcDbLine
 62
7
  6
CONTINUOUS
 10
1.6427241644
 20
-24.1267689774
 11
1.5561835736
 21
-24.1976588793
  0
LINE
  5
73C
100
AcDbEntity
  8
0
100
AcDbLine
 62
7
  6
CONTINUOUS
 10
2.7721474882
 20
-23.2583809661
 11
2.6857602207
 21
-23.3291452729
  0
LINE
  5
73D
100
AcDbEntity
  8
0
100
AcDbLine
 62
7
  6
CONTINUOUS
 10
3.1463263325
 20
-23.3962023133
 11
3.0599403637
 21
-23.4669655562
  0
LINE
  5
73E
100
AcDbEntity
  8
0
100
AcDbLine
 62
7
  6
CONTINUOUS
 10
1.8024378568
 20
-24.6051716404
 11
1.715842743
 21
-24.6761062049
  0
LINE
  5
73F
100
AcDbEntity
  8
0
100
AcDbLine
 62
7
  6
CONTINUOUS
 10
2.8561011506
 20
-24.2141673643
 11
2.7696102181
 21
-24.2850165885
  0
LINE
  5
740
100
AcDbEntity
  8
0
100
AcDbLine
 62
7
  6
CONTINUOUS
 10
3.4352600075
 20
-23.7767144307
 11
3.3488458808
 21
-23.8475007393
  0
LINE
  5
741
100
AcDbEntity
  8
0
100
AcDbLine
 62
7
  6
CONTINUOUS
 10
3.2861727625
 20
-24.0466456818
 11
3.3726117187
 21
-23.9758390341
  0
LINE
  5
742
100
AcDbEntity
  8
0
100
AcDbLine
 62
7
  6
CONTINUOUS
 10
3.1127788537
 20
-24.3172549166
 11
3.0262879212
 21
-24.3881041407
  0
LINE
  5
743
100
AcDbEntity
  8
0
100
AcDbLine
 62
7
  6
CONTINUOUS
 10
2.447563368
 20
-24.8642688516
 11
2.3609682542
 21
-24.9352034161
  0
LINE
  5
744
100
AcDbEntity
  8
0
100
AcDbLine
 62
7
  6
CONTINUOUS
 10
3.5967675932
 20
-24.3412974304
 11
3.510296938
 21
-24.4121300444
  0
LINE
  5
745
100
AcDbEntity
  8
0
100
AcDbLine
 62
7
  6
CONTINUOUS
 10
3.3944837045
 20
-24.614196709
 11
3.3079703085
 21
-24.6850643342
  0
LINE
  5
746
100
AcDbEntity
  8
0
100
AcDbLine
 62
7
  6
CONTINUOUS
 10
3.6574483322
 20
-25.3501859294
 11
3.5708532184
 21
-25.421120494
  0
LINE
  5
747
100
AcDbEntity
  8
0
100
AcDbLine
 62
7
  6
CONTINUOUS
 10
3.680121571
 20
-24.3490113525
 11
3.6843536974
 21
-24.3456411116
  0
LINE
  5
748
100
AcDbEntity
  8
RACCORDO
100
AcDbLine
 62
7
  6
CONTINUOUS
 10
-9.6487588752
 20
-14.8776967148
 11
-9.6169688473
 21
-14.8540068309
  0
LINE
  5
749
100
AcDbEntity
  8
RACCORDO
100
AcDbLine
 62
7
  6
CONTINUOUS
 10
-9.7151649873
 20
-14.3614142312
 11
-9.6878562347
 21
-14.341347519
  0
LINE
  5
74A
100
AcDbEntity
  8
RACCORDO
100
AcDbLine
 62
7
  6
CONTINUOUS
 10
-9.681875568
 20
-14.9014730132
 11
-9.6487588752
 21
-14.8776967148
  0
LINE
  5
74B
100
AcDbEntity
  8
RACCORDO
100
AcDbLine
 62
7
  6
CONTINUOUS
 10
-9.7160803212
 20
-14.9251644187
 11
-9.681875568
 21
-14.9014730132
  0
LINE
  5
74C
100
AcDbEntity
  8
RACCORDO
100
AcDbLine
 62
7
  6
CONTINUOUS
 10
-9.7511266908
 20
-14.9486002358
 11
-9.7160803212
 21
-14.9251644187
  0
LINE
  5
74D
100
AcDbEntity
  8
RACCORDO
100
AcDbLine
 62
7
  6
CONTINUOUS
 10
-9.7450749707
 20
21.314054356
 11
-9.7151579486
 21
21.3293967632
  0
LINE
  5
74E
100
AcDbEntity
  8
RACCORDO
100
AcDbLine
 62
7
  6
CONTINUOUS
 10
-9.4782182719
 20
21.7436749595
 11
-9.463935712
 21
21.7503318667
  0
LINE
  5
74F
100
AcDbEntity
  8
RACCORDO
100
AcDbLine
 62
7
  6
CONTINUOUS
 10
-9.9827058588
 20
21.9803614887
 11
-9.9316847232
 21
22.0031207126
  0
LINE
  5
750
100
AcDbEntity
  8
RACCORDO
100
AcDbLine
 62
7
  6
CONTINUOUS
 10
-14.9689554308
 20
40.3065785144
 11
-15.0027107116
 21
40.2938421943
  0
LINE
  5
751
100
AcDbEntity
  8
RACCORDO
100
AcDbLine
 62
7
  6
CONTINUOUS
 10
-14.9491941653
 20
40.6356070947
 11
-14.9961162983
 21
40.6188243565
  0
LINE
  5
752
100
AcDbEntity
  8
RACCORDO
100
AcDbLine
 62
7
  6
CONTINUOUS
 10
-12.7853653398
 20
41.6689444874
 11
-12.7097130002
 21
41.6959383393
  0
LINE
  5
753
100
AcDbEntity
  8
RACCORDO
100
AcDbLine
 62
7
  6
CONTINUOUS
 10
17.1449458012
 20
-38.3799852258
 11
17.16436118
 21
-38.3615763297
  0
LINE
  5
754
100
AcDbEntity
  8
RACCORDO
100
AcDbLine
 62
7
  6
CONTINUOUS
 10
8.8113109821
 20
-22.7478614991
 11
8.7719086636
 21
-22.7794960913
  0
LINE
  5
755
100
AcDbEntity
  8
RACCORDO
100
AcDbLine
 62
7
  6
CONTINUOUS
 10
8.7545608034
 20
-22.1293652615
 11
8.7309092267
 21
-22.1480904105
  0
LINE
  5
756
100
AcDbEntity
  8
0
100
AcDbLine
 62
7
  6
CONTINUOUS
 10
3.2861378522
 20
-24.0466071521
 11
3.279340196
 21
-24.0518538399
  0
LINE
  5
757
100
AcDbEntity
  8
0
100
AcDbLine
 62
7
  6
CONTINUOUS
 10
3.6693747588
 20
-24.3570604484
 11
3.680121571
 21
-24.3490113525
  0
LINE
  5
758
100
AcDbEntity
  8
RACCORDO
100
AcDbLine
 62
7
  6
CONTINUOUS
 10
-9.7867621691
 20
-14.9716116102
 11
-9.7511266908
 21
-14.9486002358
  0
LINE
  5
759
100
AcDbEntity
  8
RACCORDO
100
AcDbLine
 62
7
  6
CONTINUOUS
 10
-9.745081891
 20
-14.3800823927
 11
-9.7151649873
 21
-14.3614142312
  0
LINE
  5
75A
100
AcDbEntity
  8
RACCORDO
100
AcDbLine
 62
7
  6
CONTINUOUS
 10
-9.8227300039
 20
-14.9940327461
 11
-9.7867621691
 21
-14.9716116102
  0
LINE
  5
75B
100
AcDbEntity
  8
RACCORDO
100
AcDbLine
 62
7
  6
CONTINUOUS
 10
-9.8587710483
 20
-15.0157020999
 11
-9.8227300039
 21
-14.9940327461
  0
LINE
  5
75C
100
AcDbEntity
  8
RACCORDO
100
AcDbLine
 62
7
  6
CONTINUOUS
 10
-9.586734021
 20
21.6773269931
 11
-9.5582732357
 21
21.6896534127
  0
LINE
  5
75D
100
AcDbEntity
  8
RACCORDO
100
AcDbLine
 62
7
  6
CONTINUOUS
 10
-9.7773874103
 20
21.3001958427
 11
-9.7450749707
 21
21.314054356
  0
LINE
  5
75E
100
AcDbEntity
  8
RACCORDO
100
AcDbLine
 62
7
  6
CONTINUOUS
 10
-12.7097130002
 20
41.6959383393
 11
-12.5932432024
 21
41.7304072178
  0
LINE
  5
75F
100
AcDbEntity
  8
RACCORDO
100
AcDbLine
 62
7
  6
CONTINUOUS
 10
16.6836053947
 20
-38.726636949
 11
16.7024678109
 21
-38.710712143
  0
LINE
  5
760
100
AcDbEntity
  8
RACCORDO
100
AcDbLine
 62
7
  6
CONTINUOUS
 10
17.0217304671
 20
-38.7797924021
 11
17.0508533562
 21
-38.755728086
  0
LINE
  5
761
100
AcDbEntity
  8
RACCORDO
100
AcDbLine
 62
7
  6
CONTINUOUS
 10
17.1233048633
 20
-38.3971187356
 11
17.1449458012
 21
-38.3799852258
  0
LINE
  5
762
100
AcDbEntity
  8
0
100
AcDbLine
 62
7
  6
CONTINUOUS
 10
3.658534802
 20
-24.3643747426
 11
3.6693747588
 21
-24.3570604484
  0
LINE
  5
763
100
AcDbEntity
  8
RACCORDO
100
AcDbLine
 62
7
  6
CONTINUOUS
 10
8.7719086636
 20
-22.7794960913
 11
8.729724867
 21
-22.807312171
  0
LINE
  5
764
100
AcDbEntity
  8
RACCORDO
100
AcDbLine
 62
7
  6
CONTINUOUS
 10
8.7309092267
 20
-22.1480904105
 11
8.7054168596
 21
-22.1645636673
  0
LINE
  5
765
100
AcDbEntity
  8
RACCORDO
100
AcDbLine
 62
7
  6
CONTINUOUS
 10
-9.894625628
 20
-15.0364635448
 11
-9.8587710483
 21
-15.0157020999
  0
LINE
  5
766
100
AcDbEntity
  8
RACCORDO
100
AcDbLine
 62
7
  6
CONTINUOUS
 10
-9.930035412
 20
-15.0561674955
 11
-9.894625628
 21
-15.0364635448
  0
LINE
  5
767
100
AcDbEntity
  8
RACCORDO
100
AcDbLine
 62
7
  6
CONTINUOUS
 10
-9.9647452744
 20
-15.0746719858
 11
-9.930035412
 21
-15.0561674955
  0
LINE
  5
768
100
AcDbEntity
  8
RACCORDO
100
AcDbLine
 62
7
  6
CONTINUOUS
 10
-9.7773941602
 20
-14.397219225
 11
-9.745081891
 21
-14.3800823927
  0
LINE
  5
769
100
AcDbEntity
  8
RACCORDO
100
AcDbLine
 62
7
  6
CONTINUOUS
 10
17.1449381736
 20
26.9501182191
 11
17.1643531215
 21
26.9573499129
  0
LINE
  5
76A
100
AcDbEntity
  8
RACCORDO
100
AcDbLine
 62
7
  6
CONTINUOUS
 10
-9.8118654346
 20
21.2879197966
 11
-9.7773874103
 21
21.3001958427
  0
LINE
  5
76B
100
AcDbEntity
  8
RACCORDO
100
AcDbLine
 62
7
  6
CONTINUOUS
 10
-9.463935712
 20
21.7503318667
 11
-9.4476001642
 21
21.7560991513
  0
LINE
  5
76C
100
AcDbEntity
  8
RACCORDO
100
AcDbLine
 62
7
  6
CONTINUOUS
 10
-9.9316847232
 20
22.0031207126
 11
-9.8780509028
 21
22.0219238123
  0
LINE
  5
76D
100
AcDbEntity
  8
RACCORDO
100
AcDbLine
 62
7
  6
CONTINUOUS
 10
17.0088454947
 20
-38.7888035119
 11
17.0217304671
 21
-38.7797924021
  0
LINE
  5
76E
100
AcDbEntity
  8
0
100
AcDbLine
 62
7
  6
CONTINUOUS
 10
3.279340196
 20
-24.0518538399
 11
3.2666254428
 21
-24.0597890553
  0
LINE
  5
76F
100
AcDbEntity
  8
0
100
AcDbLine
 62
7
  6
CONTINUOUS
 10
3.6476086797
 20
-24.3709650148
 11
3.658534802
 21
-24.3643747426
  0
LINE
  5
770
100
AcDbEntity
  8
0
100
AcDbLine
 62
7
  6
CONTINUOUS
 10
3.6367702726
 20
-24.3770539236
 11
3.6476086797
 21
-24.3709650148
  0
LINE
  5
771
100
AcDbEntity
  8
RACCORDO
100
AcDbLine
 62
7
  6
CONTINUOUS
 10
-9.9985051319
 20
-15.0918436915
 11
-9.9647452744
 21
-15.0746719858
  0
LINE
  5
772
100
AcDbEntity
  8
RACCORDO
100
AcDbLine
 62
7
  6
CONTINUOUS
 10
-10.031071746
 20
-15.1075588913
 11
-9.9985051319
 21
-15.0918436915
  0
LINE
  5
773
100
AcDbEntity
  8
RACCORDO
100
AcDbLine
 62
7
  6
CONTINUOUS
 10
8.8113137551
 20
14.2857023246
 11
8.7842481505
 21
14.2754456498
  0
LINE
  5
774
100
AcDbEntity
  8
RACCORDO
100
AcDbLine
 62
7
  6
CONTINUOUS
 10
8.7842481505
 20
14.2754456498
 11
8.7594411903
 21
14.2668050869
  0
LINE
  5
775
100
AcDbEntity
  8
RACCORDO
100
AcDbLine
 62
7
  6
CONTINUOUS
 10
-9.6169683569
 20
21.6680654886
 11
-9.586734021
 21
21.6773269931
  0
LINE
  5
776
100
AcDbEntity
  8
RACCORDO
100
AcDbLine
 62
7
  6
CONTINUOUS
 10
-9.8482638076
 20
21.2773135347
 11
-9.8118654346
 21
21.2879197966
  0
LINE
  5
777
100
AcDbEntity
  8
RACCORDO
100
AcDbLine
 62
7
  6
CONTINUOUS
 10
17.16436118
 20
-38.3615763297
 11
18.7116331663
 21
-37.3333984026
  0
LINE
  5
778
100
AcDbEntity
  8
RACCORDO
100
AcDbLine
 62
7
  6
CONTINUOUS
 10
17.0086606358
 20
-38.7889264056
 11
18.4900957548
 21
-37.8044977479
  0
LINE
  5
779
100
AcDbEntity
  8
RACCORDO
100
AcDbLine
 62
7
  6
CONTINUOUS
 10
17.0996603289
 20
-38.4128011273
 11
17.1233048633
 21
-38.3971187356
  0
LINE
  5
77A
100
AcDbEntity
  8
RACCORDO
100
AcDbLine
 62
7
  6
CONTINUOUS
 10
16.6627560826
 20
-38.7403059697
 11
16.6836053947
 21
-38.726636949
  0
LINE
  5
77B
100
AcDbEntity
  8
RACCORDO
100
AcDbLine
 62
7
  6
CONTINUOUS
 10
8.729724867
 20
-22.807312171
 11
8.6847562108
 21
-22.8313127398
  0
LINE
  5
77C
100
AcDbEntity
  8
0
100
AcDbLine
 62
7
  6
CONTINUOUS
 10
3.7168023467
 20
-24.3096018401
 11
3.7227993244
 21
-24.3064388732
  0
LINE
  5
77D
100
AcDbEntity
  8
0
100
AcDbLine
 62
7
  6
CONTINUOUS
 10
3.626040721
 20
-24.382659111
 11
3.6367702726
 21
-24.3770539236
  0
LINE
  5
77E
100
AcDbEntity
  8
RACCORDO
100
AcDbLine
 62
7
  6
CONTINUOUS
 10
8.7054168596
 20
-22.1645636673
 11
8.6781717614
 21
-22.1787082522
  0
LINE
  5
77F
100
AcDbEntity
  8
0
100
AcDbLine
 62
7
  6
CONTINUOUS
 10
3.707165211
 20
-24.3144178255
 11
3.7168023467
 21
-24.3096018401
  0
LINE
  5
780
100
AcDbEntity
  8
RACCORDO
100
AcDbLine
 62
7
  6
CONTINUOUS
 10
-10.0622104754
 20
-15.1217043577
 11
-10.031071746
 21
-15.1075588913
  0
LINE
  5
781
100
AcDbEntity
  8
RACCORDO
100
AcDbLine
 62
7
  6
CONTINUOUS
 10
-9.8118719719
 20
-14.4127028414
 11
-9.7773941602
 21
-14.397219225
  0
LINE
  5
782
100
AcDbEntity
  8
RACCORDO
100
AcDbLine
 62
7
  6
CONTINUOUS
 10
-10.091696967
 20
-15.1341781733
 11
-10.0622104754
 21
-15.1217043577
  0
LINE
  5
783
100
AcDbEntity
  8
RACCORDO
100
AcDbLine
 62
7
  6
CONTINUOUS
 10
8.7594411903
 20
14.2668050869
 11
8.7370716079
 21
14.2598428909
  0
LINE
  5
784
100
AcDbEntity
  8
RACCORDO
100
AcDbLine
 62
7
  6
CONTINUOUS
 10
16.9737706694
 20
-38.8101460975
 11
17.0087956511
 21
-38.7888333004
  0
LINE
  5
785
100
AcDbEntity
  8
RACCORDO
100
AcDbLine
 62
7
  6
CONTINUOUS
 10
17.074254711
 20
-38.4268715527
 11
17.0996603289
 21
-38.4128011273
  0
LINE
  5
786
100
AcDbEntity
  8
0
100
AcDbLine
 62
7
  6
CONTINUOUS
 10
3.6153985495
 20
-24.3877632567
 11
3.626040721
 21
-24.382659111
  0
LINE
  5
787
100
AcDbEntity
  8
0
100
AcDbLine
 62
7
  6
CONTINUOUS
 10
3.6976798509
 20
-24.3189153236
 11
3.707165211
 21
-24.3144178255
  0
LINE
  5
788
100
AcDbEntity
  8
0
100
AcDbLine
 62
7
  6
CONTINUOUS
 10
3.6049538171
 20
-24.3925364788
 11
3.6153985495
 21
-24.3877632567
  0
LINE
  5
789
100
AcDbEntity
  8
0
100
AcDbLine
 62
7
  6
CONTINUOUS
 10
3.2666254428
 20
-24.0597890553
 11
3.2526756652
 21
-24.0661118715
  0
LINE
  5
78A
100
AcDbEntity
  8
0
100
AcDbLine
 62
7
  6
CONTINUOUS
 10
3.5947964427
 20
-24.3970568558
 11
3.6049538171
 21
-24.3925364788
  0
LINE
  5
78B
100
AcDbEntity
  8
0
100
AcDbLine
 62
7
  6
CONTINUOUS
 10
3.688327246
 20
-24.3230759925
 11
3.6976798509
 21
-24.3189153236
  0
LINE
  5
78C
100
AcDbEntity
  8
0
100
AcDbLine
 62
7
  6
CONTINUOUS
 10
3.6701918017
 20
-24.3308174095
 11
3.688327246
 21
-24.3230759925
  0
LINE
  5
78D
100
AcDbEntity
  8
RACCORDO
100
AcDbLine
 62
7
  6
CONTINUOUS
 10
8.6847562108
 20
-22.8313127398
 11
8.6367662776
 21
-22.851588948
  0
LINE
  5
78E
100
AcDbEntity
  8
0
100
AcDbLine
 62
7
  6
CONTINUOUS
 10
3.5848362923
 20
-24.4012465157
 11
3.5947964427
 21
-24.3970568558
  0
LINE
  5
78F
100
AcDbEntity
  8
RACCORDO
100
AcDbLine
 62
7
  6
CONTINUOUS
 10
-10.1193187715
 20
-15.1448904646
 11
-10.091696967
 21
-15.1341781733
  0
LINE
  5
790
100
AcDbEntity
  8
RACCORDO
100
AcDbLine
 62
7
  6
CONTINUOUS
 10
-9.8482701007
 20
-14.4264231138
 11
-9.8118719719
 21
-14.4127028414
  0
LINE
  5
791
100
AcDbEntity
  8
RACCORDO
100
AcDbLine
 62
7
  6
CONTINUOUS
 10
16.6399000951
 20
-38.7516896497
 11
16.6627560826
 21
-38.7403059697
  0
LINE
  5
792
100
AcDbEntity
  8
RACCORDO
100
AcDbLine
 62
7
  6
CONTINUOUS
 10
16.9287318065
 20
-38.8323786491
 11
16.9737706694
 21
-38.8101460975
  0
LINE
  5
793
100
AcDbEntity
  8
0
100
AcDbLine
 62
7
  6
CONTINUOUS
 10
3.6614088371
 20
-24.3343982781
 11
3.6701918017
 21
-24.3308174095
  0
LINE
  5
794
100
AcDbEntity
  8
RACCORDO
100
AcDbLine
 62
7
  6
CONTINUOUS
 10
8.6781717614
 20
-22.1787082522
 11
8.6492539933
 21
-22.1904545796
  0
LINE
  5
795
100
AcDbEntity
  8
0
100
AcDbLine
 62
7
  6
CONTINUOUS
 10
3.5749133899
 20
-24.4050416072
 11
3.5848362923
 21
-24.4012465157
  0
LINE
  5
796
100
AcDbEntity
  8
0
100
AcDbLine
 62
7
  6
CONTINUOUS
 10
3.5651793416
 20
-24.4086903394
 11
3.5749133899
 21
-24.4050416072
  0
LINE
  5
797
100
AcDbEntity
  8
0
100
AcDbLine
 62
7
  6
CONTINUOUS
 10
3.6525602048
 20
-24.3375269466
 11
3.6614088371
 21
-24.3343982781
  0
LINE
  5
798
100
AcDbEntity
  8
RACCORDO
100
AcDbLine
 62
7
  6
CONTINUOUS
 10
-9.8863296627
 20
-14.438282456
 11
-9.8482701007
 21
-14.4264231138
  0
LINE
  5
799
100
AcDbEntity
  8
RACCORDO
100
AcDbLine
 62
7
  6
CONTINUOUS
 10
17.0473485851
 20
-38.439185697
 11
17.074254711
 21
-38.4268715527
  0
LINE
  5
79A
100
AcDbEntity
  8
0
100
AcDbLine
 62
7
  6
CONTINUOUS
 10
3.5554823766
 20
-24.4119446614
 11
3.5651793416
 21
-24.4086903394
  0
LINE
  5
79B
100
AcDbEntity
  8
RACCORDO
100
AcDbLine
 62
7
  6
CONTINUOUS
 10
8.6367662776
 20
-22.851588948
 11
8.5859854546
 21
-22.8680550091
  0
LINE
  5
79C
100
AcDbEntity
  8
0
100
AcDbLine
 62
7
  6
CONTINUOUS
 10
3.2526756652
 20
-24.0661118715
 11
3.237602193
 21
-24.0709713819
  0
LINE
  5
79D
100
AcDbEntity
  8
0
100
AcDbLine
 62
7
  6
CONTINUOUS
 10
3.6436020781
 20
-24.340316973
 11
3.6525602048
 21
-24.3375269466
  0
LINE
  5
79E
100
AcDbEntity
  8
RACCORDO
100
AcDbLine
 62
7
  6
CONTINUOUS
 10
8.6492539933
 20
-22.1904545796
 11
8.61877967
 21
-22.1997376233
  0
LINE
  5
79F
100
AcDbEntity
  8
RACCORDO
100
AcDbLine
 62
7
  6
CONTINUOUS
 10
16.8808433024
 20
-38.8506081432
 11
16.9287318065
 21
-38.8323786491
  0
LINE
  5
7A0
100
AcDbEntity
  8
RACCORDO
100
AcDbLine
 62
7
  6
CONTINUOUS
 10
17.019217917
 20
-38.4496172586
 11
17.0473485851
 21
-38.439185697
  0
LINE
  5
7A1
100
AcDbEntity
  8
RACCORDO
100
AcDbLine
 62
7
  6
CONTINUOUS
 10
16.6150546356
 20
-38.7608205164
 11
16.6399000951
 21
-38.7516896497
  0
LINE
  5
7A2
100
AcDbEntity
  8
RACCORDO
100
AcDbLine
 62
7
  6
CONTINUOUS
 10
16.990151232
 20
-38.4580592452
 11
17.019217917
 21
-38.4496172586
  0
ELLIPSE
  5
7A3
100
AcDbEntity
  8
RACCORDO
100
AcDbEllipse
 62
7
  6
CONTINUOUS
 10
17.8913569619
 20
-37.0017102068
 30
0.0
 11
-0.6349013301
 21
0.7761056187
 31
0.0
 40
0.6692102709
 41
-3.2079423693
 42
-2.4559451104
  0
ELLIPSE
  5
7A4
100
AcDbEntity
  8
RACCORDO
100
AcDbEllipse
 62
7
  6
CONTINUOUS
 10
17.8913569619
 20
28.5282050162
 30
0.0
 11
-0.6342170824
 21
0.7731899447
 31
0.0
 40
0.6728141967
 41
-2.454628732
 42
-0.886571461
  0
ELLIPSE
  5
7A5
100
AcDbEntity
  8
0
100
AcDbEllipse
 62
7
  6
CONTINUOUS
 10
55.9139634018
 20
31.9620765175
 30
0.0
 11
58.515016777
 21
83.4360972511
 31
0.0
 40
0.2717691503
 41
-3.8563876457
 42
-3.8280903348
  0
ELLIPSE
  5
7A6
100
AcDbEntity
  8
0
100
AcDbEllipse
 62
7
  6
CONTINUOUS
 10
50.3972200493
 20
34.17772502
 30
0.0
 11
9.4958777871
 21
101.6986704603
 31
0.0
 40
0.5957925234
 41
-4.0950502985
 42
-4.0755811102
  0
ELLIPSE
  5
7A7
100
AcDbEntity
  8
0
100
AcDbEllipse
 62
7
  6
CONTINUOUS
 10
55.6930365889
 20
32.0508057063
 30
0.0
 11
42.2834189539
 21
90.1389909083
 31
0.0
 40
0.4291503999
 41
-3.8856802943
 42
-3.8671937622
  0
ELLIPSE
  5
7A8
100
AcDbEntity
  8
0
100
AcDbEllipse
 62
7
  6
CONTINUOUS
 10
59.3112700227
 20
30.5976415881
 30
0.0
 11
62.0405007916
 21
82.0182398795
 31
0.0
 40
0.2345747957
 41
-3.8462145112
 42
-3.8278049817
  0
ELLIPSE
  5
7A9
100
AcDbEntity
  8
0
100
AcDbEllipse
 62
7
  6
CONTINUOUS
 10
56.06109778
 20
31.9029840342
 30
0.0
 11
29.0693363283
 21
95.3699533657
 31
0.0
 40
0.5206641814
 41
-3.9647312316
 42
-3.9364339207
  0
ELLIPSE
  5
7AA
100
AcDbEntity
  8
0
100
AcDbEllipse
 62
7
  6
CONTINUOUS
 10
52.7032995633
 20
33.2515514978
 30
0.0
 11
-2.6564645853
 21
104.61637191
 31
0.0
 40
0.6167948333
 41
-4.1799183256
 42
-4.1642174835
  0
ELLIPSE
  5
7AB
100
AcDbEntity
  8
0
100
AcDbEllipse
 62
7
  6
CONTINUOUS
 10
60.0604699348
 20
30.2967460131
 30
0.0
 11
56.0485515912
 21
84.4396591737
 31
0.0
 40
0.2976329329
 41
-3.8505587741
 42
-3.840058756
  0
ELLIPSE
  5
7AC
100
AcDbEntity
  8
0
100
AcDbEllipse
 62
7
  6
CONTINUOUS
 10
60.1359665894
 20
30.2664248546
 30
0.0
 11
56.5565358717
 21
84.2322087213
 31
0.0
 40
0.2923306813
 41
-3.8351659577
 42
-3.8295102433
  0
ELLIPSE
  5
7AD
100
AcDbEntity
  8
0
100
AcDbEllipse
 62
7
  6
CONTINUOUS
 10
56.0534991011
 20
31.9060358349
 30
0.0
 11
5.7962275166
 21
102.6663012325
 31
0.0
 40
0.6038719062
 41
-4.1209109439
 42
-4.092613633
  0
ELLIPSE
  5
7AE
100
AcDbEntity
  8
RACCORDO
100
AcDbEllipse
 62
7
  6
CONTINUOUS
 10
-13.234172401
 20
41.028919317
 30
0.0
 11
-0.6349013301
 21
0.7761056187
 31
0.0
 40
0.6692102709
 41
-0.8824097279
 42
0.0662885252
  0
ELLIPSE
  5
7AF
100
AcDbEntity
  8
0
100
AcDbEllipse
 62
7
  6
CONTINUOUS
 10
58.844079308
 20
30.7852759117
 30
0.0
 11
61.708727502
 21
82.150843435
 31
0.0
 40
0.2380712357
 41
-3.856008008
 42
-3.8403071659
  0
ELLIPSE
  5
7B0
100
AcDbEntity
  8
0
100
AcDbEllipse
 62
7
  6
CONTINUOUS
 10
55.9855591083
 20
31.9333220677
 30
0.0
 11
11.7151261337
 21
101.0833425002
 31
0.0
 40
0.5901502617
 41
-4.0718319527
 42
-4.0613319346
  0
ELLIPSE
  5
7B1
100
AcDbEntity
  8
0
100
AcDbEllipse
 62
7
  6
CONTINUOUS
 10
59.8945119397
 20
30.3633984854
 30
0.0
 11
58.0548014048
 21
83.6226343712
 31
0.0
 40
0.2766142929
 41
-3.8566389285
 42
-3.8283416176
  0
ELLIPSE
  5
7B2
100
AcDbEntity
  8
0
100
AcDbEllipse
 62
7
  6
CONTINUOUS
 10
55.8808561768
 20
31.9753731255
 30
0.0
 11
10.230237905
 21
101.4979783572
 31
0.0
 40
0.5939940715
 41
-4.0672887416
 42
-4.0616330272
  0
ELLIPSE
  5
7B3
100
AcDbEntity
  8
0
100
AcDbEllipse
 62
7
  6
CONTINUOUS
 10
55.8808561768
 20
31.9753731255
 30
0.0
 11
10.2148050601
 21
101.3448633887
 31
0.0
 40
0.5939940715
 41
-4.0671250726
 42
-4.0614607075
  0
ELLIPSE
  5
7B4
100
AcDbEntity
  8
0
100
AcDbEllipse
 62
7
  6
CONTINUOUS
 10
59.8945119397
 20
30.3633984854
 30
0.0
 11
57.9672227236
 21
83.4964852869
 31
0.0
 40
0.2766142929
 41
-3.8551039343
 42
-3.8281692979
  0
ELLIPSE
  5
7B5
100
AcDbEntity
  8
0
100
AcDbEllipse
 62
7
  6
CONTINUOUS
 10
55.9855591083
 20
31.9333220677
 30
0.0
 11
11.6974532579
 21
100.9308530314
 31
0.0
 40
0.5901502617
 41
-4.0716909852
 42
-4.0611749486
  0
ELLIPSE
  5
7B6
100
AcDbEntity
  8
0
100
AcDbEllipse
 62
7
  6
CONTINUOUS
 10
52.259822373
 20
33.4296619354
 30
0.0
 11
-3.0531505165
 21
104.5424822171
 31
0.0
 40
0.6172347631
 41
-4.1727475711
 42
-4.1542328013
  0
ELLIPSE
  5
7B7
100
AcDbEntity
  8
0
100
AcDbEllipse
 62
7
  6
CONTINUOUS
 10
55.8471511252
 20
31.9889098341
 30
0.0
 11
31.4993927972
 21
94.2916111818
 31
0.0
 40
0.5063404436
 41
-3.9399704339
 42
-3.9215327841
  0
ELLIPSE
  5
7B8
100
AcDbEntity
  8
0
100
AcDbEllipse
 62
7
  6
CONTINUOUS
 10
58.844079308
 20
30.7852759117
 30
0.0
 11
61.6156366837
 21
82.0269146238
 31
0.0
 40
0.2380712357
 41
2.4287112979
 42
2.4430312084
  0
ELLIPSE
  5
7B9
100
AcDbEntity
  8
0
100
AcDbEllipse
 62
7
  6
CONTINUOUS
 10
55.431743725
 20
32.1557468111
 30
0.0
 11
43.7391527325
 21
89.3746544038
 31
0.0
 40
0.4162059583
 41
-3.8877956183
 42
-3.8608609901
  0
ELLIPSE
  5
7BA
100
AcDbEntity
  8
0
100
AcDbEllipse
 62
7
  6
CONTINUOUS
 10
55.1854878424
 20
32.2546487253
 30
0.0
 11
56.2835998514
 21
84.1817145758
 31
0.0
 40
0.2942937745
 41
2.4267274049
 42
2.444821117
  0
ELLIPSE
  5
7BB
100
AcDbEntity
  8
0
100
AcDbEllipse
 62
7
  6
CONTINUOUS
 10
49.5990803934
 20
34.4982758994
 30
0.0
 11
4.4997323007
 21
102.8314778955
 31
0.0
 40
0.6063216071
 41
-4.128402357
 42
-4.1014677204
  0
ELLIPSE
  5
7BC
100
AcDbEntity
  8
0
100
AcDbEllipse
 62
7
  6
CONTINUOUS
 10
49.5990803934
 20
34.4982758994
 30
0.0
 11
4.5065306361
 21
102.9868388874
 31
0.0
 40
0.6063216071
 41
-4.129937351
 42
-4.1016400401
  0
ELLIPSE
  5
7BD
100
AcDbEntity
  8
0
100
AcDbEllipse
 62
7
  6
CONTINUOUS
 10
55.1854878424
 20
32.2546487253
 30
0.0
 11
56.3686348628
 21
84.3088989258
 31
0.0
 40
0.2942937745
 41
-3.8579921996
 42
-3.8385230114
  0
ELLIPSE
  5
7BE
100
AcDbEntity
  8
0
100
AcDbEllipse
 62
7
  6
CONTINUOUS
 10
55.431743725
 20
32.1557468111
 30
0.0
 11
43.8052352034
 21
89.5096844087
 31
0.0
 40
0.4162059583
 41
-3.8893306207
 42
-3.8610333098
  0
ELLIPSE
  5
7BF
100
AcDbEntity
  8
0
100
AcDbEllipse
 62
7
  6
CONTINUOUS
 10
52.259822373
 20
33.4296619354
 30
0.0
 11
-3.0577633112
 21
104.7004282474
 31
0.0
 40
0.6172347631
 41
-4.172891653
 42
-4.154405121
  0
ELLIPSE
  5
7C0
100
AcDbEntity
  8
0
100
AcDbEllipse
 62
7
  6
CONTINUOUS
 10
55.8471511252
 20
31.9889098341
 30
0.0
 11
31.5469830586
 21
94.4340698777
 31
0.0
 40
0.5063404436
 41
-3.9401146333
 42
-3.9217051038
  0
ENDSEC
  0
SECTION
  2
OBJECTS
  0
DICTIONARY
  5
C
100
AcDbDictionary
280
0
281
1
  3
ACAD_GROUP
350
D
  3
ACAD_MLINESTYLE
350
17
  3
ACAD_LAYOUT
350
1A
  3
ACAD_PLOTSETTINGS
350
19
  3
ACAD_PLOTSTYLENAME
350
E
  0
DICTIONARY
  5
D
102
{ACAD_REACTORS
330
C
102
}
100
AcDbDictionary
280
0
281
1
  0
ACDBDICTIONARYWDFLT
  5
E
102
{ACAD_REACTORS
330
C
102
}
100
AcDbDictionary
281
1
  3
Normal
350
F
100
AcDbDictionaryWithDefault
340
F
  0
DICTIONARY
  5
17
102
{ACAD_REACTORS
330
C
102
}
100
AcDbDictionary
280
0
281
1
  3
Standard
350
18
  0
DICTIONARY
  5
19
102
{ACAD_REACTORS
330
C
102
}
100
AcDbDictionary
281
1
  0
DICTIONARY
  5
1A
102
{ACAD_REACTORS
330
C
102
}
100
AcDbDictionary
281
1
  3
Model
350
7C1
  3
Layout1
350
7C2
  0
ACDBPLACEHOLDER
  5
F
102
{ACAD_REACTORS
330
E
102
}
  0
MLINESTYLE
  5
18
102
{ACAD_REACTORS
330
17
102
}
100
AcDbMlineStyle
  2
STANDARD
 70
0
  3

 62
256
 51
90.0
 52
90.0
 71
2
 49
0.5
 62
256
  6
BYLAYER
 49
-0.5
 62
256
  6
BYLAYER
  0
LAYOUT
  5
7C1
102
{ACAD_REACTORS
330
1A
102
}
100
AcDbPlotSettings
  1

  2
none_device
  4
ISO_A4_(297.00_x_210.00_MM)
  6

 40
0.0
 41
0.0
 42
0.0
 43
0.0
 44
297.0
 45
210.0
 46
0.0
 47
0.0
 48
0.0
 49
0.0
140
0.0
141
0.0
142
1.0
143
1.0
 70
1024
 72
1
 73
0
 74
0
  7

 75
0
147
1.0
148
0.0
149
0.0
100
AcDbLayout
  1
Model
 70
0
 71
0
 10
0.0
 20
0.0
 11
297.0
 21
210.0
 12
0.0
 22
0.0
 32
0.0
 14
0.0
 24
0.0
 34
0.0
 15
0.0
 25
0.0
 35
0.0
146
0.0
 13
0.0
 23
0.0
 33
0.0
 16
1.0
 26
0.0
 36
0.0
 17
0.0
 27
1.0
 37
0.0
 76
0
330
213
345
0
346
0
  0
LAYOUT
  5
7C2
102
{ACAD_REACTORS
330
1A
102
}
100
AcDbPlotSettings
  1

  2
none_device
  4
ISO_A4_(297.00_x_210.00_MM)
  6

 40
0.0
 41
0.0
 42
0.0
 43
0.0
 44
297.0
 45
210.0
 46
0.0
 47
0.0
 48
0.0
 49
0.0
140
0.0
141
0.0
142
1.0
143
1.0
 70
0
 72
1
 73
0
 74
0
  7

 75
0
147
1.0
148
0.0
149
0.0
100
AcDbLayout
  1
Layout1
 70
0
 71
1
 10
0.0
 20
0.0
 11
297.0
 21
210.0
 12
0.0
 22
0.0
 32
0.0
 14
0.0
 24
0.0
 34
0.0
 15
0.0
 25
0.0
 35
0.0
146
0.0
 13
0.0
 23
0.0
 33
0.0
 16
1.0
 26
0.0
 36
0.0
 17
0.0
 27
1.0
 37
0.0
 76
0
330
214
345
0
346
0
  0
ENDSEC
  0
EOF
